  0
SECTION
  2
HEADER
  9
$ACADVER
  1
AC1015
  9
$ACADMAINTVER
 70
     6
  9
$DWGCODEPAGE
  3
DOS850
  9
$INSBASE
 10
0.0
 20
0.0
 30
0.0
  9
$EXTMIN
 10
0.0
 20
0.0
 30
0.0
  9
$EXTMAX
 10
210.0
 20
297.0
 30
0.0
  9
$LIMMIN
 10
0.0
 20
0.0
  9
$LIMMAX
 10
210.0
 20
297.0
  9
$ORTHOMODE
 70
     0
  9
$REGENMODE
 70
     1
  9
$FILLMODE
 70
     1
  9
$QTEXTMODE
 70
     0
  9
$MIRRTEXT
 70
     1
  9
$LTSCALE
 40
25.4
  9
$ATTMODE
 70
     1
  9
$TEXTSIZE
 40
3.5
  9
$TRACEWID
 40
0.05
  9
$TEXTSTYLE
  7
Standard
  9
$CLAYER
  8
0
  9
$CELTYPE
  6
Continuous
  9
$CECOLOR
 62
   256
  9
$CELTSCALE
 40
1.0
  9
$DISPSILH
 70
     0
  9
$DIMSCALE
 40
1.0
  9
$DIMASZ
 40
5.0
  9
$DIMEXO
 40
3.0
  9
$DIMDLI
 40
0.38
  9
$DIMRND
 40
0.0
  9
$DIMDLE
 40
0.0
  9
$DIMEXE
 40
2.0
  9
$DIMTP
 40
0.0
  9
$DIMTM
 40
0.0
  9
$DIMTXT
 40
3.5
  9
$DIMCEN
 40
4.0
  9
$DIMTSZ
 40
0.0
  9
$DIMTOL
 70
     0
  9
$DIMLIM
 70
     0
  9
$DIMTIH
 70
     1
  9
$DIMTOH
 70
     1
  9
$DIMSE1
 70
     0
  9
$DIMSE2
 70
     0
  9
$DIMTAD
 70
     0
  9
$DIMZIN
 70
     0
  9
$DIMBLK
  1

  9
$DIMASO
 70
     1
  9
$DIMSHO
 70
     1
  9
$DIMPOST
  1

  9
$DIMAPOST
  1

  9
$DIMALT
 70
     0
  9
$DIMALTD
 70
     2
  9
$DIMALTF
 40
25.4
  9
$DIMLFAC
 40
1.0
  9
$DIMTOFL
 70
     0
  9
$DIMTVP
 40
0.0
  9
$DIMTIX
 70
     0
  9
$DIMSOXD
 70
     0
  9
$DIMSAH
 70
     0
  9
$DIMBLK1
  1

  9
$DIMBLK2
  1

  9
$DIMSTYLE
  2
Standard
  9
$DIMCLRD
 70
     0
  9
$DIMCLRE
 70
     0
  9
$DIMCLRT
 70
     0
  9
$DIMTFAC
 40
1.0
  9
$DIMGAP
 40
1.0
  9
$DIMJUST
 70
     0
  9
$DIMSD1
 70
     0
  9
$DIMSD2
 70
     0
  9
$DIMTOLJ
 70
     1
  9
$DIMTZIN
 70
     0
  9
$DIMALTZ
 70
     0
  9
$DIMALTTZ
 70
     0
  9
$DIMUPT
 70
     0
  9
$DIMDEC
 70
     4
  9
$DIMTDEC
 70
     4
  9
$DIMALTU
 70
     2
  9
$DIMALTTD
 70
     2
  9
$DIMTXSTY
  7
Standard
  9
$DIMAUNIT
 70
     0
  9
$DIMADEC
 70
     0
  9
$DIMALTRND
 40
0.0
  9
$DIMAZIN
 70
     0
  9
$DIMDSEP
 70
     0
  9
$DIMATFIT
 70
     3
  9
$DIMFRAC
 70
     0
  9
$DIMLDRBLK
  1

  9
$DIMLUNIT
 70
     2
  9
$DIMLWD
 70
     0
  9
$DIMLWE
 70
     0
  9
$DIMTMOVE
 70
     0
  9
$LUNITS
 70
     2
  9
$LUPREC
 70
     4
  9
$SKETCHINC
 40
0.1
  9
$FILLETRAD
 40
0.0
  9
$AUNITS
 70
     0
  9
$AUPREC
 70
     0
  9
$MENU
  1
acad
  9
$ELEVATION
 40
0.0
  9
$PELEVATION
 40
0.0
  9
$THICKNESS
 40
0.0
  9
$LIMCHECK
 70
     0
  9
$CHAMFERA
 40
0.0
  9
$CHAMFERB
 40
0.0
  9
$CHAMFERC
 40
0.0
  9
$CHAMFERD
 40
0.0
  9
$SKPOLY
 70
     0
  9
$TDCREATE
 40
0.000000000
  9
$TDUCREATE
 40
0.000000000
  9
$TDUPDATE
 40
0.000000000
  9
$TDUUPDATE
 40
0.000000000
  9
$TDINDWG
 40
0.0000000000
  9
$TDUSRTIMER
 40
0.0000000000
  9
$USRTIMER
 70
     1
  9
$ANGBASE
 50
0.0
  9
$ANGDIR
 70
     0
  9
$PDMODE
 70
     0
  9
$PDSIZE
 40
0.0
  9
$PLINEWID
 40
0.0
  9
$SPLFRAME
 70
     0
  9
$SPLINETYPE
 70
     6
  9
$SPLINESEGS
 70
     8
  9
$HANDSEED
  5
3E9
  9
$SURFTAB1
 70
     6
  9
$SURFTAB2
 70
     6
  9
$SURFTYPE
 70
     6
  9
$SURFU
 70
     6
  9
$SURFV
 70
     6
  9
$UCSBASE
  2

  9
$UCSNAME
  2

  9
$UCSORG
 10
0.0
 20
0.0
 30
0.0
  9
$UCSXDIR
 10
1.0
 20
0.0
 30
0.0
  9
$UCSYDIR
 10
0.0
 20
1.0
 30
0.0
  9
$UCSORTHOREF
  2

  9
$UCSORTHOVIEW
 70
     0
  9
$UCSORGTOP
 10
0.0
 20
0.0
 30
0.0
  9
$UCSORGBOTTOM
 10
0.0
 20
0.0
 30
0.0
  9
$UCSORGLEFT
 10
0.0
 20
0.0
 30
0.0
  9
$UCSORGRIGHT
 10
0.0
 20
0.0
 30
0.0
  9
$UCSORGFRONT
 10
0.0
 20
0.0
 30
0.0
  9
$UCSORGBACK
 10
0.0
 20
0.0
 30
0.0
  9
$PUCSBASE
  2

  9
$PUCSNAME
  2

  9
$PUCSORG
 10
0.0
 20
0.0
 30
0.0
  9
$PUCSXDIR
 10
1.0
 20
0.0
 30
0.0
  9
$PUCSYDIR
 10
0.0
 20
1.0
 30
0.0
  9
$PUCSORTHOREF
  2

  9
$PUCSORTHOVIEW
 70
     0
  9
$PUCSORGTOP
 10
0.0
 20
0.0
 30
0.0
  9
$PUCSORGBOTTOM
 10
0.0
 20
0.0
 30
0.0
  9
$PUCSORGLEFT
 10
0.0
 20
0.0
 30
0.0
  9
$PUCSORGRIGHT
 10
0.0
 20
0.0
 30
0.0
  9
$PUCSORGFRONT
 10
0.0
 20
0.0
 30
0.0
  9
$PUCSORGBACK
 10
0.0
 20
0.0
 30
0.0
  9
$USERI1
 70
     0
  9
$USERI2
 70
     0
  9
$USERI3
 70
     0
  9
$USERI4
 70
     0
  9
$USERI5
 70
     0
  9
$USERR1
 40
0.0
  9
$USERR2
 40
0.0
  9
$USERR3
 40
0.0
  9
$USERR4
 40
0.0
  9
$USERR5
 40
0.0
  9
$WORLDVIEW
 70
     1
  9
$SHADEDGE
 70
     3
  9
$SHADEDIF
 70
    70
  9
$TILEMODE
 70
     1
  9
$MAXACTVP
 70
    16
  9
$PINSBASE
 10
0.0
 20
0.0
 30
0.0
  9
$PLIMCHECK
 70
     0
  9
$PEXTMIN
 10
1.000000E+20
 20
1.000000E+20
 30
1.000000E+20
  9
$PEXTMAX
 10
-1.000000E+20
 20
-1.000000E+20
 30
-1.000000E+20
  9
$PLIMMIN
 10
0.0
 20
0.0
  9
$PLIMMAX
 10
210.0
 20
297.0
  9
$UNITMODE
 70
     0
  9
$VISRETAIN
 70
     0
  9
$PLINEGEN
 70
     1
  9
$PSLTSCALE
 70
     0
  9
$TREEDEPTH
 70
  3020
  9
$CMLSTYLE
  2
Standard
  9
$CMLJUST
 70
     0
  9
$CMLSCALE
 40
1.0
  9
$PROXYGRAPHICS
 70
     0
  9
$MEASUREMENT
 70
     0
  9
$CELWEIGHT
370
     0
  9
$ENDCAPS
280
     0
  9
$JOINSTYLE
280
     0
  9
$LWDISPLAY
290
     0
  9
$INSUNITS
 70
     0
  9
$HYPERLINKBASE
  1

  9
$XEDIT
290
     1
  9
$CEPSNTYPE
380
     0
  9
$PSTYLEMODE
290
     0
  9
$FINGERPRINTGUID
  2

  9
$VERSIONGUID
  2

  9
$EXTNAMES
290
     1
  9
$PSVPSCALE
 40
0.0
  0
ENDSEC
  0
SECTION
  2
CLASSES
  0
CLASS
  1
LWPOLYLINE
  2
AcDbPolyline
  3
"AutoCAD"
 90
        0
280
     0
281
     1
  0
CLASS
  1
IMAGE
  2
AcDbRasterImage
  3
ISM
 90
      127
280
     0
281
     1
  0
CLASS
  1
OLE2FRAME
  2
AcDbOle2Frame
  3
""
 90
        0
280
     0
281
     1
  0
CLASS
  1
HATCH
  2
AcDbHatch
  3
"ACAD_SEDONA"
 90
        0
280
     0
281
     1
  0
CLASS
  1
DICTIONARYVAR
  2
AcDbDictionaryVar
  3
"AutoCAD"
 90
        0
280
     0
281
     0
  0
CLASS
  1
RASTERVARIABLES
  2
AcDbRasterVariables
  3
ISM
 90
        0
280
     0
281
     0
  0
CLASS
  1
IMAGEDEF
  2
AcDbRasterImageDef
  3
ISM
 90
        0
280
     0
281
     0
  0
CLASS
  1
IMAGEDEF_REACTOR
  2
AcDbRasterImageDefReactor
  3
ISM
 90
        1
280
     0
281
     0
  0
CLASS
  1
IDBUFFER
  2
AcDbIdBuffer
  3
"Acad"
 90
        0
280
     0
281
     0
  0
CLASS
  1
SPATIAL_FILTER
  2
AcDbSpatialFilter
  3
"Acad"
 90
        0
280
     0
281
     0
  0
CLASS
  1
XRECORD
  2
AcDbXrecord
  3
"<Built In>"
 90
        0
280
     0
281
     0
  0
CLASS
  1
SORTENTSTABLE
  2
AcDbSortentsTable
  3
"AutoCAD"
 90
        0
280
     0
281
     0
  0
CLASS
  1
LAYER_INDEX
  2
AcDbLayerIndex
  3
"Acad"
 90
        0
280
     0
281
     0
  0
CLASS
  1
SPATIAL_INDEX
  2
AcDbSpatialIndex
  3
"Acad"
 90
        0
280
     0
281
     0
  0
CLASS
  1
OBJECT_PTR
  2
CAseDLPNTableRecord
  3
"ASE-LPNTableRecord"
 90
        1
280
     0
281
     0
  0
CLASS
  1
LAYOUT
  2
AcDbLayout
  3
"AutoCAD 2000"
 90
        1
280
     0
281
     0
  0
CLASS
  1
PLOTSETTINGS
  2
AcDbPlotSettings
  3
"AutoCAD 2000"
 90
        1
280
     0
281
     0
  0
CLASS
  1
ACDBDICTIONARYWDFLT
  2
AcDbDictionaryWithDefault
  3
"AutoCAD 2000"
 90
        1
280
     0
281
     0
  0
CLASS
  1
ACDBPLACEHOLDER
  2
AcDbPlaceHolder
  3
"AutoCAD 2000"
 90
        1
280
     0
281
     0
  0
CLASS
  1
VBA_PROJECT
  2
AcDbVbaProject
  3
"acadvba"
 90
        1
280
     0
281
     0
  0
CLASS
  1
WIPEOUT
  2
AcDbWipeout
  3
WipeOut|AutoCAD Express Tool|expresstools@autodesk.com
 90
      127
280
     0
281
     1
  0
CLASS
  1
WIPEOUTVARIABLES
  2
AcDbWipeoutVariables
  3
WipeOut|AutoCAD Express Tool|expresstools@autodesk.com
 90
        0
280
     0
281
     0
  0
CLASS
  1
RTEXT
  2
RText
  3
RText|AutoCAD Express Tool|expresstools@autodesk.com
 90
        0
280
     0
281
     1
  0
CLASS
  1
ARCALIGNEDTEXT
  2
AcDbArcAlignedText
  3
ATEXT|AutoCAD Express Tool|expresstools@autodesk.com
 90
        0
280
     0
281
     1
  0
ENDSEC
  0
SECTION
  2
TABLES
  0
TABLE
  2
VPORT
  5
7
100
AcDbSymbolTable
 70
     1
  0
VPORT
  5
15
100
AcDbSymbolTableRecord
100
AcDbViewportTableRecord
  2
*ACTIVE
 70
     0
 10
0.0
 20
0.0
 11
1.0
 21
1.0
 12
6.591288
 22
4.579184
 13
0.0
 23
0.0
 14
1.0
 24
1.0
 15
0.0
 25
0.0
 16
0.0
 26
0.0
 36
1.0
 17
0.0
 27
0.0
 37
0.0
 40
9.158369
 41
0.688564
 42
50.0
 43
0.0
 44
0.0
 50
0.0
 51
0.0
 71
     0
 72
   100
 73
     1
 74
     1
 75
     0
 76
     0
 77
     0
 78
     0
281
     0
 65
     0
110
0.0
120
0.0
130
0.0
111
1.0
121
0.0
131
0.0
112
0.0
122
1.0
132
0.0
345
0
346
0
 79
     0
146
0.0
  0
ENDTAB
  0
TABLE
  2
LTYPE
  5
4
100
AcDbSymbolTable
 70
     7
  0
LTYPE
  5
11
100
AcDbSymbolTableRecord
100
AcDbLinetypeTableRecord
  2
ByBlock
 70
    64
  3

 72
    65
 73
     0
 40
0.0
  0
LTYPE
  5
12
100
AcDbSymbolTableRecord
100
AcDbLinetypeTableRecord
  2
ByLayer
 70
    64
  3

 72
    65
 73
     0
 40
0.0
  0
LTYPE
  5
13
100
AcDbSymbolTableRecord
100
AcDbLinetypeTableRecord
  2
Continuous
 70
    64
  3
Solid line
 72
    65
 73
     0
 40
0.0
  0
LTYPE
  5
24
100
AcDbSymbolTableRecord
100
AcDbLinetypeTableRecord
  2
HIDDEN
 70
    64
  3
_ _ _ _ _ _ _ _ _ _ _ _ _ _ _ _ _ _ _ _ _ _ _ _
 72
    65
 73
     2
 40
0.1875
 49
0.125
 74
     0
 49
-0.0625
 74
     0
  0
LTYPE
  5
25
100
AcDbSymbolTableRecord
100
AcDbLinetypeTableRecord
  2
DOTTED
 70
    64
  3
...............................................
 72
    65
 73
     2
 40
0.125
 49
0.0
 74
     0
 49
-0.125
 74
     0
  0
LTYPE
  5
26
100
AcDbSymbolTableRecord
100
AcDbLinetypeTableRecord
  2
CENTER
 70
    64
  3
____ _ ____ _ ____ _ ____ _ ____ _ ____ _ ____ 
 72
    65
 73
     4
 40
1.125
 49
0.75
 74
     0
 49
-0.125
 74
     0
 49
0.125
 74
     0
 49
-0.125
 74
     0
  0
LTYPE
  5
27
100
AcDbSymbolTableRecord
100
AcDbLinetypeTableRecord
  2
PHANTOM
 70
    64
  3
______  __  __  ______  __  __  ______  __  __ 
 72
    65
 73
     6
 40
1.25
 49
0.625
 74
     0
 49
-0.125
 74
     0
 49
0.125
 74
     0
 49
-0.125
 74
     0
 49
0.125
 74
     0
 49
-0.125
 74
     0
  0
ENDTAB
  0
TABLE
  2
LAYER
  5
2
100
AcDbSymbolTable
 70
     2
  0
LAYER
  5
14
100
AcDbSymbolTableRecord
100
AcDbLayerTableRecord
  2
0
 70
     0
 62
     7
  6
Continuous
290
     1
370
    -3
390
1D
  0
LAYER
  5
28
100
AcDbSymbolTableRecord
100
AcDbLayerTableRecord
  2
TEXT
 70
     0
 62
     8
  6
Continuous
290
     1
370
    -3
390
1F
  0
ENDTAB
  0
TABLE
  2
STYLE
  5
3
100
AcDbSymbolTable
 70
     1
  0
STYLE
  5
17
100
AcDbSymbolTableRecord
100
AcDbTextStyleTableRecord
  2
Standard
 70
     0
 40
0.0
 41
1.0
 50
0.0
 71
     0
 42
0.0
  3
txt
  4

  0
ENDTAB
  0
TABLE
  2
VIEW
  5
5
100
AcDbSymbolTable
 70
     0
  0
ENDTAB
  0
TABLE
  2
UCS
  5
6
100
AcDbSymbolTable
 70
     0
  0
ENDTAB
  0
TABLE
  2
APPID
  5
8
100
AcDbSymbolTable
 70
     1
  0
APPID
  5
16
100
AcDbSymbolTableRecord
100
AcDbRegAppTableRecord
  2
ACAD
 70
     0
  0
ENDTAB
  0
TABLE
  2
DIMSTYLE
  5
9
100
AcDbSymbolTable
 70
     1
100
AcDbDimStyleTable
 71
     0
  0
DIMSTYLE
105
18
100
AcDbSymbolTableRecord
100
AcDbDimStyleTableRecord
  2
Standard
 70
     0
  3

  4

 40
1.0
 41
0.18
 42
0.0625
 43
0.38
 44
0.18
 45
0.0
 46
0.0
 47
0.0
 48
0.0
 71
     0
 72
     0
 73
     1
 74
     1
 75
     0
 76
     0
 77
     0
 78
     0
 79
     0
140
0.18
141
0.09
142
0.0
143
25.4
144
1.0
145
0.0
146
1.0
147
0.09
148
0.0
170
     0
171
     2
172
     0
173
     0
174
     0
175
     0
176
     0
177
     0
178
     0
179
     0
271
     4
272
     4
273
     2
274
     2
275
     0
276
     0
277
     2
278
    46
279
     0
280
     0
281
     0
282
     0
283
     1
284
     0
285
     0
286
     0
288
     0
340
17
341
0
342
0
343
0
344
0
371
    -2
372
    -2
  0
ENDTAB
  0
TABLE
  2
BLOCK_RECORD
  5
1
100
AcDbSymbolTable
 70
    81
  0
BLOCK_RECORD
  5
A
100
AcDbSymbolTableRecord
100
AcDbBlockTableRecord
  2
*MODEL_SPACE
340
20
  0
BLOCK_RECORD
  5
B
100
AcDbSymbolTableRecord
100
AcDbBlockTableRecord
  2
*PAPER_SPACE
340
21
  0
BLOCK_RECORD
  5
29
100
AcDbSymbolTableRecord
100
AcDbBlockTableRecord
  2
*B0
340
0
  0
BLOCK_RECORD
  5
2C
100
AcDbSymbolTableRecord
100
AcDbBlockTableRecord
  2
*B1
340
0
  0
BLOCK_RECORD
  5
2F
100
AcDbSymbolTableRecord
100
AcDbBlockTableRecord
  2
*B2
340
0
  0
BLOCK_RECORD
  5
32
100
AcDbSymbolTableRecord
100
AcDbBlockTableRecord
  2
*B3
340
0
  0
BLOCK_RECORD
  5
117
100
AcDbSymbolTableRecord
100
AcDbBlockTableRecord
  2
*B4
340
0
  0
BLOCK_RECORD
  5
11D
100
AcDbSymbolTableRecord
100
AcDbBlockTableRecord
  2
*B5
340
0
  0
BLOCK_RECORD
  5
126
100
AcDbSymbolTableRecord
100
AcDbBlockTableRecord
  2
*B6
340
0
  0
BLOCK_RECORD
  5
129
100
AcDbSymbolTableRecord
100
AcDbBlockTableRecord
  2
*B7
340
0
  0
BLOCK_RECORD
  5
12C
100
AcDbSymbolTableRecord
100
AcDbBlockTableRecord
  2
*B8
340
0
  0
BLOCK_RECORD
  5
1C3
100
AcDbSymbolTableRecord
100
AcDbBlockTableRecord
  2
*B9
340
0
  0
BLOCK_RECORD
  5
1C9
100
AcDbSymbolTableRecord
100
AcDbBlockTableRecord
  2
*B10
340
0
  0
BLOCK_RECORD
  5
1CC
100
AcDbSymbolTableRecord
100
AcDbBlockTableRecord
  2
*B11
340
0
  0
BLOCK_RECORD
  5
1CF
100
AcDbSymbolTableRecord
100
AcDbBlockTableRecord
  2
*B12
340
0
  0
BLOCK_RECORD
  5
1D6
100
AcDbSymbolTableRecord
100
AcDbBlockTableRecord
  2
*B13
340
0
  0
BLOCK_RECORD
  5
1DD
100
AcDbSymbolTableRecord
100
AcDbBlockTableRecord
  2
*B14
340
0
  0
BLOCK_RECORD
  5
1E4
100
AcDbSymbolTableRecord
100
AcDbBlockTableRecord
  2
*B15
340
0
  0
BLOCK_RECORD
  5
1EB
100
AcDbSymbolTableRecord
100
AcDbBlockTableRecord
  2
*B16
340
0
  0
BLOCK_RECORD
  5
1F2
100
AcDbSymbolTableRecord
100
AcDbBlockTableRecord
  2
*B17
340
0
  0
BLOCK_RECORD
  5
1F9
100
AcDbSymbolTableRecord
100
AcDbBlockTableRecord
  2
*B18
340
0
  0
BLOCK_RECORD
  5
200
100
AcDbSymbolTableRecord
100
AcDbBlockTableRecord
  2
*B19
340
0
  0
BLOCK_RECORD
  5
207
100
AcDbSymbolTableRecord
100
AcDbBlockTableRecord
  2
*B20
340
0
  0
BLOCK_RECORD
  5
20E
100
AcDbSymbolTableRecord
100
AcDbBlockTableRecord
  2
*B21
340
0
  0
BLOCK_RECORD
  5
215
100
AcDbSymbolTableRecord
100
AcDbBlockTableRecord
  2
*B22
340
0
  0
BLOCK_RECORD
  5
21C
100
AcDbSymbolTableRecord
100
AcDbBlockTableRecord
  2
*B23
340
0
  0
BLOCK_RECORD
  5
223
100
AcDbSymbolTableRecord
100
AcDbBlockTableRecord
  2
*B24
340
0
  0
BLOCK_RECORD
  5
22A
100
AcDbSymbolTableRecord
100
AcDbBlockTableRecord
  2
*B25
340
0
  0
BLOCK_RECORD
  5
231
100
AcDbSymbolTableRecord
100
AcDbBlockTableRecord
  2
*B26
340
0
  0
BLOCK_RECORD
  5
238
100
AcDbSymbolTableRecord
100
AcDbBlockTableRecord
  2
*B27
340
0
  0
BLOCK_RECORD
  5
23F
100
AcDbSymbolTableRecord
100
AcDbBlockTableRecord
  2
*B28
340
0
  0
BLOCK_RECORD
  5
244
100
AcDbSymbolTableRecord
100
AcDbBlockTableRecord
  2
*B29
340
0
  0
BLOCK_RECORD
  5
269
100
AcDbSymbolTableRecord
100
AcDbBlockTableRecord
  2
*B30
340
0
  0
BLOCK_RECORD
  5
27C
100
AcDbSymbolTableRecord
100
AcDbBlockTableRecord
  2
*B31
340
0
  0
BLOCK_RECORD
  5
281
100
AcDbSymbolTableRecord
100
AcDbBlockTableRecord
  2
*B32
340
0
  0
BLOCK_RECORD
  5
286
100
AcDbSymbolTableRecord
100
AcDbBlockTableRecord
  2
*B33
340
0
  0
BLOCK_RECORD
  5
28B
100
AcDbSymbolTableRecord
100
AcDbBlockTableRecord
  2
*B34
340
0
  0
BLOCK_RECORD
  5
2B4
100
AcDbSymbolTableRecord
100
AcDbBlockTableRecord
  2
*B35
340
0
  0
BLOCK_RECORD
  5
2B9
100
AcDbSymbolTableRecord
100
AcDbBlockTableRecord
  2
*B36
340
0
  0
BLOCK_RECORD
  5
2BE
100
AcDbSymbolTableRecord
100
AcDbBlockTableRecord
  2
*B37
340
0
  0
BLOCK_RECORD
  5
2C4
100
AcDbSymbolTableRecord
100
AcDbBlockTableRecord
  2
*B38
340
0
  0
BLOCK_RECORD
  5
2C9
100
AcDbSymbolTableRecord
100
AcDbBlockTableRecord
  2
*B39
340
0
  0
BLOCK_RECORD
  5
2CF
100
AcDbSymbolTableRecord
100
AcDbBlockTableRecord
  2
*B40
340
0
  0
BLOCK_RECORD
  5
2E2
100
AcDbSymbolTableRecord
100
AcDbBlockTableRecord
  2
*B41
340
0
  0
BLOCK_RECORD
  5
2E8
100
AcDbSymbolTableRecord
100
AcDbBlockTableRecord
  2
*B42
340
0
  0
BLOCK_RECORD
  5
2EE
100
AcDbSymbolTableRecord
100
AcDbBlockTableRecord
  2
*B43
340
0
  0
BLOCK_RECORD
  5
2F4
100
AcDbSymbolTableRecord
100
AcDbBlockTableRecord
  2
*B44
340
0
  0
BLOCK_RECORD
  5
305
100
AcDbSymbolTableRecord
100
AcDbBlockTableRecord
  2
*B45
340
0
  0
BLOCK_RECORD
  5
30B
100
AcDbSymbolTableRecord
100
AcDbBlockTableRecord
  2
*B46
340
0
  0
BLOCK_RECORD
  5
310
100
AcDbSymbolTableRecord
100
AcDbBlockTableRecord
  2
*B47
340
0
  0
BLOCK_RECORD
  5
315
100
AcDbSymbolTableRecord
100
AcDbBlockTableRecord
  2
*B48
340
0
  0
BLOCK_RECORD
  5
328
100
AcDbSymbolTableRecord
100
AcDbBlockTableRecord
  2
*B49
340
0
  0
BLOCK_RECORD
  5
32D
100
AcDbSymbolTableRecord
100
AcDbBlockTableRecord
  2
*B50
340
0
  0
BLOCK_RECORD
  5
333
100
AcDbSymbolTableRecord
100
AcDbBlockTableRecord
  2
*B51
340
0
  0
BLOCK_RECORD
  5
339
100
AcDbSymbolTableRecord
100
AcDbBlockTableRecord
  2
*B52
340
0
  0
BLOCK_RECORD
  5
346
100
AcDbSymbolTableRecord
100
AcDbBlockTableRecord
  2
*B53
340
0
  0
BLOCK_RECORD
  5
34C
100
AcDbSymbolTableRecord
100
AcDbBlockTableRecord
  2
*B54
340
0
  0
BLOCK_RECORD
  5
352
100
AcDbSymbolTableRecord
100
AcDbBlockTableRecord
  2
*B55
340
0
  0
BLOCK_RECORD
  5
358
100
AcDbSymbolTableRecord
100
AcDbBlockTableRecord
  2
*B56
340
0
  0
BLOCK_RECORD
  5
35E
100
AcDbSymbolTableRecord
100
AcDbBlockTableRecord
  2
*B57
340
0
  0
BLOCK_RECORD
  5
364
100
AcDbSymbolTableRecord
100
AcDbBlockTableRecord
  2
*B58
340
0
  0
BLOCK_RECORD
  5
378
100
AcDbSymbolTableRecord
100
AcDbBlockTableRecord
  2
*B59
340
0
  0
BLOCK_RECORD
  5
37F
100
AcDbSymbolTableRecord
100
AcDbBlockTableRecord
  2
*B60
340
0
  0
BLOCK_RECORD
  5
384
100
AcDbSymbolTableRecord
100
AcDbBlockTableRecord
  2
*B61
340
0
  0
BLOCK_RECORD
  5
389
100
AcDbSymbolTableRecord
100
AcDbBlockTableRecord
  2
*B62
340
0
  0
BLOCK_RECORD
  5
38E
100
AcDbSymbolTableRecord
100
AcDbBlockTableRecord
  2
*B63
340
0
  0
BLOCK_RECORD
  5
393
100
AcDbSymbolTableRecord
100
AcDbBlockTableRecord
  2
*B64
340
0
  0
BLOCK_RECORD
  5
398
100
AcDbSymbolTableRecord
100
AcDbBlockTableRecord
  2
*B65
340
0
  0
BLOCK_RECORD
  5
39D
100
AcDbSymbolTableRecord
100
AcDbBlockTableRecord
  2
*B66
340
0
  0
BLOCK_RECORD
  5
3A2
100
AcDbSymbolTableRecord
100
AcDbBlockTableRecord
  2
*B67
340
0
  0
BLOCK_RECORD
  5
3A7
100
AcDbSymbolTableRecord
100
AcDbBlockTableRecord
  2
*B68
340
0
  0
BLOCK_RECORD
  5
3AC
100
AcDbSymbolTableRecord
100
AcDbBlockTableRecord
  2
*B69
340
0
  0
BLOCK_RECORD
  5
3B1
100
AcDbSymbolTableRecord
100
AcDbBlockTableRecord
  2
*B70
340
0
  0
BLOCK_RECORD
  5
3B6
100
AcDbSymbolTableRecord
100
AcDbBlockTableRecord
  2
*B71
340
0
  0
BLOCK_RECORD
  5
3BB
100
AcDbSymbolTableRecord
100
AcDbBlockTableRecord
  2
*B72
340
0
  0
BLOCK_RECORD
  5
3C0
100
AcDbSymbolTableRecord
100
AcDbBlockTableRecord
  2
*B73
340
0
  0
BLOCK_RECORD
  5
3C5
100
AcDbSymbolTableRecord
100
AcDbBlockTableRecord
  2
*B74
340
0
  0
BLOCK_RECORD
  5
3CA
100
AcDbSymbolTableRecord
100
AcDbBlockTableRecord
  2
*B75
340
0
  0
BLOCK_RECORD
  5
3CF
100
AcDbSymbolTableRecord
100
AcDbBlockTableRecord
  2
*B76
340
0
  0
BLOCK_RECORD
  5
3D4
100
AcDbSymbolTableRecord
100
AcDbBlockTableRecord
  2
*B77
340
0
  0
BLOCK_RECORD
  5
3D9
100
AcDbSymbolTableRecord
100
AcDbBlockTableRecord
  2
*B78
340
0
  0
BLOCK_RECORD
  5
3DE
100
AcDbSymbolTableRecord
100
AcDbBlockTableRecord
  2
*B79
340
0
  0
BLOCK_RECORD
  5
3E3
100
AcDbSymbolTableRecord
100
AcDbBlockTableRecord
  2
*B80
340
0
  0
ENDTAB
  0
ENDSEC
  0
SECTION
  2
BLOCKS
  0
BLOCK
  5
D
100
AcDbEntity
  8
0
100
AcDbBlockBegin
  2
*MODEL_SPACE
 70
     0
 10
0.0
 20
0.0
 30
0.0
  3
*MODEL_SPACE
  1

  0
ENDBLK
  5
E
100
AcDbEntity
  8
0
100
AcDbBlockEnd
  0
BLOCK
  5
F
100
AcDbEntity
 67
     1
  8
0
100
AcDbBlockBegin
  2
*PAPER_SPACE
 70
     0
 10
0.0
 20
0.0
 30
0.0
  3
*PAPER_SPACE
  1

  0
ENDBLK
  5
10
100
AcDbEntity
 67
     1
  8
0
100
AcDbBlockEnd
  0
BLOCK
  5
2A
100
AcDbEntity
  8
0
100
AcDbBlockBegin
  2
*B0
 70
     0
 10
0.0
 20
0.0
 30
0.0
  3
*B0
  1

  0
ENDBLK
  5
2B
100
AcDbEntity
  8
0
100
AcDbBlockEnd
  0
BLOCK
  5
2D
100
AcDbEntity
  8
0
100
AcDbBlockBegin
  2
*B1
 70
     0
 10
0.0
 20
0.0
 30
0.0
  3
*B1
  1

  0
ENDBLK
  5
2E
100
AcDbEntity
  8
0
100
AcDbBlockEnd
  0
BLOCK
  5
30
100
AcDbEntity
  8
0
100
AcDbBlockBegin
  2
*B2
 70
     0
 10
0.0
 20
0.0
 30
0.0
  3
*B2
  1

  0
ENDBLK
  5
31
100
AcDbEntity
  8
0
100
AcDbBlockEnd
  0
BLOCK
  5
33
100
AcDbEntity
  8
0
100
AcDbBlockBegin
  2
*B3
 70
     0
 10
0.0
 20
0.0
 30
0.0
  3
*B3
  1

  0
LINE
  5
34
100
AcDbEntity
  8
0
  6
HIDDEN
 62
   174
100
AcDbLine
 10
158.436095
 20
147.219892
 30
0.0
 11
158.436095
 21
155.219892
 31
0.0
  0
LINE
  5
35
100
AcDbEntity
  8
0
  6
HIDDEN
 62
   174
100
AcDbLine
 10
126.436095
 20
147.219892
 30
0.0
 11
126.436095
 21
155.219892
 31
0.0
  0
LINE
  5
36
100
AcDbEntity
  8
0
  6
HIDDEN
 62
   174
100
AcDbLine
 10
158.436095
 20
147.219892
 30
0.0
 11
158.436095
 21
155.219892
 31
0.0
  0
LINE
  5
37
100
AcDbEntity
  8
0
  6
HIDDEN
 62
   174
100
AcDbLine
 10
126.436095
 20
147.219892
 30
0.0
 11
126.436095
 21
155.219892
 31
0.0
  0
LINE
  5
38
100
AcDbEntity
  8
0
  6
HIDDEN
 62
   174
100
AcDbLine
 10
158.445238
 20
147.219892
 30
0.0
 11
142.446213
 21
147.219892
 31
0.0
  0
LINE
  5
39
100
AcDbEntity
  8
0
  6
HIDDEN
 62
   174
100
AcDbLine
 10
142.446213
 20
147.219892
 30
0.0
 11
126.447189
 21
147.219892
 31
0.0
  0
LINE
  5
3A
100
AcDbEntity
  8
0
  6
HIDDEN
 62
   174
100
AcDbLine
 10
126.447189
 20
155.219892
 30
0.0
 11
158.445238
 21
155.219892
 31
0.0
  0
LINE
  5
3B
100
AcDbEntity
  8
0
  6
Continuous
 62
   174
100
AcDbLine
 10
128.43105
 20
171.225034
 30
0.0
 11
126.430329
 21
169.225768
 31
0.0
  0
LINE
  5
3C
100
AcDbEntity
  8
0
  6
Continuous
 62
   174
100
AcDbLine
 10
156.442695
 20
171.226748
 30
0.0
 11
158.443638
 21
169.227726
 31
0.0
  0
LINE
  5
3D
100
AcDbEntity
  8
0
  6
Continuous
 62
   174
100
AcDbLine
 10
128.429436
 20
171.226688
 30
0.0
 11
126.428484
 21
169.227659
 31
0.0
  0
LINE
  5
3E
100
AcDbEntity
  8
0
  6
Continuous
 62
   174
100
AcDbLine
 10
156.441155
 20
171.225018
 30
0.0
 11
158.441878
 21
169.22575
 31
0.0
  0
LINE
  5
3F
100
AcDbEntity
  8
0
  6
HIDDEN
 62
   174
100
AcDbLine
 10
158.436095
 20
147.219892
 30
0.0
 11
158.436095
 21
155.219892
 31
0.0
  0
LINE
  5
40
100
AcDbEntity
  8
0
  6
Continuous
 62
   174
100
AcDbLine
 10
126.436095
 20
155.219892
 30
0.0
 11
126.436095
 21
169.219892
 31
0.0
  0
LINE
  5
41
100
AcDbEntity
  8
0
  6
Continuous
 62
   174
100
AcDbLine
 10
137.306659
 20
171.228183
 30
0.0
 11
128.445102
 21
171.228183
 31
0.0
  0
LINE
  5
42
100
AcDbEntity
  8
0
  6
Continuous
 62
   174
100
AcDbLine
 10
156.437988
 20
171.228183
 30
0.0
 11
128.434201
 21
171.228183
 31
0.0
  0
LINE
  5
43
100
AcDbEntity
  8
0
  6
HIDDEN
 62
   174
100
AcDbLine
 10
158.449299
 20
169.222071
 30
0.0
 11
126.422891
 21
169.222071
 31
0.0
  0
LINE
  5
44
100
AcDbEntity
  8
0
  6
HIDDEN
 62
   174
100
AcDbLine
 10
158.436095
 20
118.469892
 30
0.0
 11
172.436095
 21
118.469892
 31
0.0
  0
LINE
  5
45
100
AcDbEntity
  8
0
  6
HIDDEN
 62
   174
100
AcDbLine
 10
158.436095
 20
136.949892
 30
0.0
 11
172.436095
 21
136.949892
 31
0.0
  0
LINE
  5
46
100
AcDbEntity
  8
0
  6
HIDDEN
 62
   174
100
AcDbLine
 10
158.436095
 20
103.969892
 30
0.0
 11
172.436095
 21
103.969892
 31
0.0
  0
LINE
  5
47
100
AcDbEntity
  8
0
  6
HIDDEN
 62
   174
100
AcDbLine
 10
158.436095
 20
86.469892
 30
0.0
 11
172.436095
 21
86.469892
 31
0.0
  0
LINE
  5
48
100
AcDbEntity
  8
0
  6
HIDDEN
 62
   174
100
AcDbLine
 10
123.436095
 20
155.219892
 30
0.0
 11
120.496785
 21
153.522881
 31
0.0
  0
LINE
  5
49
100
AcDbEntity
  8
0
  6
Continuous
 62
   174
100
AcDbLine
 10
112.436095
 20
147.219892
 30
0.0
 11
112.436095
 21
75.219892
 31
0.0
  0
LINE
  5
4A
100
AcDbEntity
  8
0
  6
Continuous
 62
   174
100
AcDbLine
 10
172.436095
 20
75.219892
 30
0.0
 11
172.436095
 21
147.219892
 31
0.0
  0
LINE
  5
4B
100
AcDbEntity
  8
0
  6
Continuous
 62
   174
100
AcDbLine
 10
131.46644
 20
148.916904
 30
0.0
 11
131.46644
 21
153.522881
 31
0.0
  0
LINE
  5
4C
100
AcDbEntity
  8
0
  6
HIDDEN
 62
   174
100
AcDbLine
 10
155.436095
 20
86.488076
 30
0.0
 11
155.436095
 21
103.988138
 31
0.0
  0
LINE
  5
4D
100
AcDbEntity
  8
0
  6
Continuous
 62
   174
100
AcDbLine
 10
120.496785
 20
148.916904
 30
0.0
 11
120.496785
 21
153.522881
 31
0.0
  0
LINE
  5
4E
100
AcDbEntity
  8
0
  6
HIDDEN
 62
   174
100
AcDbLine
 10
125.992586
 20
147.219892
 30
0.0
 11
132.229347
 21
147.219892
 31
0.0
  0
LINE
  5
4F
100
AcDbEntity
  8
0
  6
HIDDEN
 62
   174
100
AcDbLine
 10
158.436095
 20
147.219892
 30
0.0
 11
158.436095
 21
155.219892
 31
0.0
  0
LINE
  5
50
100
AcDbEntity
  8
0
  6
HIDDEN
 62
   174
100
AcDbLine
 10
126.436095
 20
102.469892
 30
0.0
 11
112.436095
 21
102.469892
 31
0.0
  0
LINE
  5
51
100
AcDbEntity
  8
0
  6
HIDDEN
 62
   174
100
AcDbLine
 10
158.436095
 20
117.508094
 30
0.0
 11
158.436095
 21
136.968044
 31
0.0
  0
LINE
  5
52
100
AcDbEntity
  8
0
  6
HIDDEN
 62
   174
100
AcDbLine
 10
158.436095
 20
118.469892
 30
0.0
 11
172.436095
 21
118.469892
 31
0.0
  0
LINE
  5
53
100
AcDbEntity
  8
0
  6
HIDDEN
 62
   174
100
AcDbLine
 10
158.436095
 20
104.949892
 30
0.0
 11
172.436095
 21
104.949892
 31
0.0
  0
LINE
  5
54
100
AcDbEntity
  8
0
  6
HIDDEN
 62
   174
100
AcDbLine
 10
158.436095
 20
85.508132
 30
0.0
 11
158.436095
 21
104.968082
 31
0.0
  0
LINE
  5
55
100
AcDbEntity
  8
0
  6
Continuous
 62
   174
100
AcDbLine
 10
133.424483
 20
74.223948
 30
0.0
 11
136.08157
 21
74.223948
 31
0.0
  0
LINE
  5
56
100
AcDbEntity
  8
0
  6
HIDDEN
 62
   174
100
AcDbLine
 10
155.436095
 20
118.488038
 30
0.0
 11
155.436095
 21
135.9881
 31
0.0
  0
LINE
  5
57
100
AcDbEntity
  8
0
  6
HIDDEN
 62
   174
100
AcDbLine
 10
158.899841
 20
147.219892
 30
0.0
 11
161.445188
 21
147.219892
 31
0.0
  0
LWPOLYLINE
  5
58
100
AcDbEntity
  8
0
  6
HIDDEN
 62
   174
100
AcDbPolyline
 90
        9
 70
   128
 10
142.436095
 20
155.219892
 10
143.826825
 20
155.190546
 10
145.215653
 20
155.10313
 10
146.599664
 20
154.959598
 10
147.976782
 20
154.762982
 10
149.345152
 20
154.517143
 10
150.705453
 20
154.22596
 10
152.058421
 20
153.893354
 10
153.40575
 20
153.522881
  0
LINE
  5
59
100
AcDbEntity
  8
0
  6
Continuous
 62
   174
100
AcDbLine
 10
147.587043
 20
171.228183
 30
0.0
 11
137.309633
 21
171.228183
 31
0.0
  0
LINE
  5
5A
100
AcDbEntity
  8
0
  6
HIDDEN
 62
   174
100
AcDbLine
 10
126.436095
 20
120.967957
 30
0.0
 11
126.436095
 21
101.508007
 31
0.0
  0
LINE
  5
5B
100
AcDbEntity
  8
0
  6
HIDDEN
 62
   174
100
AcDbLine
 10
112.436095
 20
120.967957
 30
0.0
 11
112.436095
 21
101.508007
 31
0.0
  0
LINE
  5
5C
100
AcDbEntity
  8
0
  6
HIDDEN
 62
   174
100
AcDbLine
 10
126.436095
 20
119.969892
 30
0.0
 11
112.436095
 21
119.969892
 31
0.0
  0
LINE
  5
5D
100
AcDbEntity
  8
0
  6
HIDDEN
 62
   174
100
AcDbLine
 10
158.436095
 20
117.489892
 30
0.0
 11
172.436095
 21
117.489892
 31
0.0
  0
LINE
  5
5E
100
AcDbEntity
  8
0
  6
HIDDEN
 62
   174
100
AcDbLine
 10
172.436095
 20
135.969892
 30
0.0
 11
155.436095
 21
135.969892
 31
0.0
  0
LINE
  5
5F
100
AcDbEntity
  8
0
  6
HIDDEN
 62
   174
100
AcDbLine
 10
158.436095
 20
104.949892
 30
0.0
 11
172.436095
 21
104.949892
 31
0.0
  0
LINE
  5
60
100
AcDbEntity
  8
0
  6
HIDDEN
 62
   174
100
AcDbLine
 10
172.436095
 20
86.469892
 30
0.0
 11
155.436095
 21
86.469892
 31
0.0
  0
LINE
  5
61
100
AcDbEntity
  8
0
  6
HIDDEN
 62
   174
100
AcDbLine
 10
158.436095
 20
103.969892
 30
0.0
 11
172.436095
 21
103.969892
 31
0.0
  0
LINE
  5
62
100
AcDbEntity
  8
0
  6
Continuous
 62
   174
100
AcDbLine
 10
153.40575
 20
148.916904
 30
0.0
 11
153.40575
 21
153.522881
 31
0.0
  0
LINE
  5
63
100
AcDbEntity
  8
0
  6
HIDDEN
 62
   174
100
AcDbLine
 10
152.660319
 20
147.219892
 30
0.0
 11
158.899841
 21
147.219892
 31
0.0
  0
LINE
  5
64
100
AcDbEntity
  8
0
  6
Continuous
 62
   174
100
AcDbLine
 10
158.899841
 20
155.219892
 30
0.0
 11
161.445188
 21
155.219892
 31
0.0
  0
LINE
  5
65
100
AcDbEntity
  8
0
  6
Continuous
 62
   174
100
AcDbLine
 10
158.436095
 20
155.219892
 30
0.0
 11
158.436095
 21
169.219892
 31
0.0
  0
LINE
  5
66
100
AcDbEntity
  8
0
  6
HIDDEN
 62
   174
100
AcDbLine
 10
112.436095
 20
119.969892
 30
0.0
 11
129.436095
 21
119.969892
 31
0.0
  0
LINE
  5
67
100
AcDbEntity
  8
0
  6
HIDDEN
 62
   174
100
AcDbLine
 10
112.436095
 20
102.469892
 30
0.0
 11
129.436095
 21
102.469892
 31
0.0
  0
LINE
  5
68
100
AcDbEntity
  8
0
  6
HIDDEN
 62
   174
100
AcDbLine
 10
112.436095
 20
102.469892
 30
0.0
 11
129.436095
 21
102.469892
 31
0.0
  0
LINE
  5
69
100
AcDbEntity
  8
0
  6
HIDDEN
 62
   174
100
AcDbLine
 10
158.436095
 20
117.489892
 30
0.0
 11
172.436095
 21
117.489892
 31
0.0
  0
LINE
  5
6A
100
AcDbEntity
  8
0
  6
HIDDEN
 62
   174
100
AcDbLine
 10
172.436095
 20
135.969892
 30
0.0
 11
155.436095
 21
135.969892
 31
0.0
  0
LINE
  5
6B
100
AcDbEntity
  8
0
  6
HIDDEN
 62
   174
100
AcDbLine
 10
158.436095
 20
85.489892
 30
0.0
 11
172.436095
 21
85.489892
 31
0.0
  0
LINE
  5
6C
100
AcDbEntity
  8
0
  6
HIDDEN
 62
   174
100
AcDbLine
 10
172.436095
 20
86.469892
 30
0.0
 11
155.436095
 21
86.469892
 31
0.0
  0
LINE
  5
6D
100
AcDbEntity
  8
0
  6
Continuous
 62
   174
100
AcDbLine
 10
136.09729
 20
74.223948
 30
0.0
 11
148.891156
 21
74.223948
 31
0.0
  0
LINE
  5
6E
100
AcDbEntity
  8
0
  6
HIDDEN
 62
   174
100
AcDbLine
 10
131.46644
 20
148.916904
 30
0.0
 11
131.46644
 21
153.522881
 31
0.0
  0
LINE
  5
6F
100
AcDbEntity
  8
0
  6
HIDDEN
 62
   174
100
AcDbLine
 10
153.40575
 20
148.916904
 30
0.0
 11
153.40575
 21
153.522881
 31
0.0
  0
LINE
  5
70
100
AcDbEntity
  8
0
  6
Continuous
 62
   174
100
AcDbLine
 10
164.375405
 20
148.916904
 30
0.0
 11
164.375405
 21
153.522881
 31
0.0
  0
LWPOLYLINE
  5
71
100
AcDbEntity
  8
0
  6
Continuous
 62
   174
100
AcDbPolyline
 90
        9
 70
   128
 10
158.890578
 20
155.219892
 10
159.585943
 20
155.190546
 10
160.280356
 20
155.10313
 10
160.972362
 20
154.959598
 10
161.660921
 20
154.762982
 10
162.345106
 20
154.517143
 10
163.025257
 20
154.22596
 10
163.70174
 20
153.893354
 10
164.375405
 20
153.522881
  0
LINE
  5
72
100
AcDbEntity
  8
0
  6
HIDDEN
 62
   174
100
AcDbLine
 10
126.436095
 20
147.219892
 30
0.0
 11
126.436095
 21
155.219892
 31
0.0
  0
LINE
  5
73
100
AcDbEntity
  8
0
  6
Continuous
 62
   174
100
AcDbLine
 10
156.45561
 20
171.228183
 30
0.0
 11
147.583856
 21
171.228183
 31
0.0
  0
LINE
  5
74
100
AcDbEntity
  8
0
  6
Continuous
 62
   174
100
AcDbLine
 10
137.436095
 20
171.219892
 30
0.0
 11
137.436095
 21
185.219892
 31
0.0
  0
LINE
  5
75
100
AcDbEntity
  8
0
  6
HIDDEN
 62
   174
100
AcDbLine
 10
158.436095
 20
135.969892
 30
0.0
 11
172.436095
 21
135.969892
 31
0.0
  0
LINE
  5
76
100
AcDbEntity
  8
0
  6
Continuous
 62
   174
100
AcDbLine
 10
134.442105
 20
73.22566
 30
0.0
 11
133.442856
 21
74.226381
 31
0.0
  0
LINE
  5
77
100
AcDbEntity
  8
0
  6
HIDDEN
 62
   174
100
AcDbLine
 10
161.436095
 20
155.219892
 30
0.0
 11
164.375405
 21
153.522881
 31
0.0
  0
LINE
  5
78
100
AcDbEntity
  8
0
  6
Continuous
 62
   174
100
AcDbLine
 10
112.436095
 20
75.219892
 30
0.0
 11
172.436095
 21
75.219892
 31
0.0
  0
LINE
  5
79
100
AcDbEntity
  8
0
  6
HIDDEN
 62
   174
100
AcDbLine
 10
172.436095
 20
103.988138
 30
0.0
 11
172.436095
 21
86.488076
 31
0.0
  0
LINE
  5
7A
100
AcDbEntity
  8
0
  6
Continuous
 62
   174
100
AcDbLine
 10
142.446213
 20
155.219892
 30
0.0
 11
158.899841
 21
155.219892
 31
0.0
  0
LINE
  5
7B
100
AcDbEntity
  8
0
  6
HIDDEN
 62
   174
100
AcDbLine
 10
126.436095
 20
147.219892
 30
0.0
 11
126.436095
 21
155.219892
 31
0.0
  0
LINE
  5
7C
100
AcDbEntity
  8
0
  6
HIDDEN
 62
   174
100
AcDbLine
 10
126.436095
 20
120.949892
 30
0.0
 11
112.436095
 21
120.949892
 31
0.0
  0
LINE
  5
7D
100
AcDbEntity
  8
0
  6
HIDDEN
 62
   174
100
AcDbLine
 10
158.436095
 20
86.469892
 30
0.0
 11
172.436095
 21
86.469892
 31
0.0
  0
LINE
  5
7E
100
AcDbEntity
  8
0
  6
HIDDEN
 62
   174
100
AcDbLine
 10
172.436095
 20
85.508132
 30
0.0
 11
172.436095
 21
104.968082
 31
0.0
  0
LINE
  5
7F
100
AcDbEntity
  8
0
  6
HIDDEN
 62
   174
100
AcDbLine
 10
172.436095
 20
103.969892
 30
0.0
 11
155.436095
 21
103.969892
 31
0.0
  0
LINE
  5
80
100
AcDbEntity
  8
0
  6
HIDDEN
 62
   174
100
AcDbLine
 10
133.447001
 20
74.232807
 30
0.0
 11
151.445638
 21
74.232807
 31
0.0
  0
LINE
  5
81
100
AcDbEntity
  8
0
  6
Continuous
 62
   174
100
AcDbLine
 10
134.430556
 20
73.20422
 30
0.0
 11
150.446151
 21
73.20422
 31
0.0
  0
LINE
  5
82
100
AcDbEntity
  8
0
  6
Continuous
 62
   174
100
AcDbLine
 10
148.875224
 20
74.223948
 30
0.0
 11
151.467944
 21
74.223948
 31
0.0
  0
LINE
  5
83
100
AcDbEntity
  8
0
  6
HIDDEN
 62
   174
100
AcDbLine
 10
123.436095
 20
147.219892
 30
0.0
 11
120.496785
 21
148.916904
 31
0.0
  0
LINE
  5
84
100
AcDbEntity
  8
0
  6
Continuous
 62
   174
100
AcDbLine
 10
126.436095
 20
155.219892
 30
0.0
 11
126.436095
 21
169.219892
 31
0.0
  0
LINE
  5
85
100
AcDbEntity
  8
0
  6
Continuous
 62
   174
100
AcDbLine
 10
158.436095
 20
155.219892
 30
0.0
 11
158.436095
 21
169.219892
 31
0.0
  0
LINE
  5
86
100
AcDbEntity
  8
0
  6
Continuous
 62
   174
100
AcDbLine
 10
137.436095
 20
171.219892
 30
0.0
 11
137.436095
 21
185.219892
 31
0.0
  0
LINE
  5
87
100
AcDbEntity
  8
0
  6
HIDDEN
 62
   174
100
AcDbLine
 10
126.436095
 20
119.969892
 30
0.0
 11
112.436095
 21
119.969892
 31
0.0
  0
LINE
  5
88
100
AcDbEntity
  8
0
  6
HIDDEN
 62
   174
100
AcDbLine
 10
126.436095
 20
101.489892
 30
0.0
 11
112.436095
 21
101.489892
 31
0.0
  0
LINE
  5
89
100
AcDbEntity
  8
0
  6
HIDDEN
 62
   174
100
AcDbLine
 10
126.436095
 20
101.489892
 30
0.0
 11
112.436095
 21
101.489892
 31
0.0
  0
LINE
  5
8A
100
AcDbEntity
  8
0
  6
HIDDEN
 62
   174
100
AcDbLine
 10
126.436095
 20
102.469892
 30
0.0
 11
112.436095
 21
102.469892
 31
0.0
  0
LINE
  5
8B
100
AcDbEntity
  8
0
  6
HIDDEN
 62
   174
100
AcDbLine
 10
158.436095
 20
85.489892
 30
0.0
 11
172.436095
 21
85.489892
 31
0.0
  0
LINE
  5
8C
100
AcDbEntity
  8
0
  6
HIDDEN
 62
   174
100
AcDbLine
 10
172.436095
 20
103.969892
 30
0.0
 11
155.436095
 21
103.969892
 31
0.0
  0
LINE
  5
8D
100
AcDbEntity
  8
0
  6
Continuous
 62
   174
100
AcDbLine
 10
150.444014
 20
73.211675
 30
0.0
 11
151.445004
 21
74.210647
 31
0.0
  0
LINE
  5
8E
100
AcDbEntity
  8
0
  6
HIDDEN
 62
   174
100
AcDbLine
 10
161.436095
 20
147.219892
 30
0.0
 11
164.375405
 21
148.916904
 31
0.0
  0
LINE
  5
8F
100
AcDbEntity
  8
0
  6
HIDDEN
 62
   174
100
AcDbLine
 10
172.436095
 20
135.9881
 30
0.0
 11
172.436095
 21
118.488038
 31
0.0
  0
LINE
  5
90
100
AcDbEntity
  8
0
  6
Continuous
 62
   174
100
AcDbLine
 10
142.446213
 20
147.219892
 30
0.0
 11
152.660319
 21
147.219892
 31
0.0
  0
LINE
  5
91
100
AcDbEntity
  8
0
  6
HIDDEN
 62
   174
100
AcDbLine
 10
123.447239
 20
147.219892
 30
0.0
 11
125.992586
 21
147.219892
 31
0.0
  0
LWPOLYLINE
  5
92
100
AcDbEntity
  8
0
  6
HIDDEN
 62
   174
100
AcDbPolyline
 90
        9
 70
   128
 10
158.890578
 20
155.219892
 10
158.195212
 20
155.190546
 10
157.500799
 20
155.10313
 10
156.808793
 20
154.959598
 10
156.120234
 20
154.762982
 10
155.436049
 20
154.517143
 10
154.755898
 20
154.22596
 10
154.079415
 20
153.893354
 10
153.40575
 20
153.522881
  0
LINE
  5
93
100
AcDbEntity
  8
0
  6
HIDDEN
 62
   174
100
AcDbLine
 10
158.458622
 20
169.222071
 30
0.0
 11
126.447189
 21
169.222071
 31
0.0
  0
LINE
  5
94
100
AcDbEntity
  8
0
  6
Continuous
 62
   174
100
AcDbLine
 10
158.445238
 20
169.221865
 30
0.0
 11
126.437417
 21
169.221865
 31
0.0
  0
LINE
  5
95
100
AcDbEntity
  8
0
  6
Continuous
 62
   174
100
AcDbLine
 10
147.436095
 20
171.219892
 30
0.0
 11
147.436095
 21
185.219892
 31
0.0
  0
LINE
  5
96
100
AcDbEntity
  8
0
  6
Continuous
 62
   174
100
AcDbLine
 10
147.436095
 20
171.219892
 30
0.0
 11
147.436095
 21
185.219892
 31
0.0
  0
LINE
  5
97
100
AcDbEntity
  8
0
  6
HIDDEN
 62
   174
100
AcDbLine
 10
126.436095
 20
120.949892
 30
0.0
 11
112.436095
 21
120.949892
 31
0.0
  0
LINE
  5
98
100
AcDbEntity
  8
0
  6
HIDDEN
 62
   174
100
AcDbLine
 10
112.436095
 20
119.969892
 30
0.0
 11
129.436095
 21
119.969892
 31
0.0
  0
LINE
  5
99
100
AcDbEntity
  8
0
  6
HIDDEN
 62
   174
100
AcDbLine
 10
158.436095
 20
136.949892
 30
0.0
 11
172.436095
 21
136.949892
 31
0.0
  0
LINE
  5
9A
100
AcDbEntity
  8
0
  6
HIDDEN
 62
   174
100
AcDbLine
 10
172.436095
 20
117.508094
 30
0.0
 11
172.436095
 21
136.968044
 31
0.0
  0
LINE
  5
9B
100
AcDbEntity
  8
0
  6
HIDDEN
 62
   174
100
AcDbLine
 10
172.436095
 20
118.469892
 30
0.0
 11
155.436095
 21
118.469892
 31
0.0
  0
LINE
  5
9C
100
AcDbEntity
  8
0
  6
HIDDEN
 62
   174
100
AcDbLine
 10
172.436095
 20
118.469892
 30
0.0
 11
155.436095
 21
118.469892
 31
0.0
  0
LINE
  5
9D
100
AcDbEntity
  8
0
  6
HIDDEN
 62
   174
100
AcDbLine
 10
158.436095
 20
135.969892
 30
0.0
 11
172.436095
 21
135.969892
 31
0.0
  0
LINE
  5
9E
100
AcDbEntity
  8
0
  6
Continuous
 62
   174
100
AcDbLine
 10
125.992586
 20
155.219892
 30
0.0
 11
142.446213
 21
155.219892
 31
0.0
  0
LINE
  5
9F
100
AcDbEntity
  8
0
  6
Continuous
 62
   174
100
AcDbLine
 10
123.447239
 20
155.219892
 30
0.0
 11
125.992586
 21
155.219892
 31
0.0
  0
LINE
  5
A0
100
AcDbEntity
  8
0
  6
Continuous
 62
   174
100
AcDbLine
 10
132.229347
 20
147.219892
 30
0.0
 11
142.446213
 21
147.219892
 31
0.0
  0
LWPOLYLINE
  5
A1
100
AcDbEntity
  8
0
  6
HIDDEN
 62
   174
100
AcDbPolyline
 90
        9
 70
   128
 10
164.375405
 20
153.522881
 10
163.701216
 20
153.893627
 10
163.023586
 20
154.22673
 10
162.342275
 20
154.51826
 10
161.657548
 20
154.764072
 10
160.969497
 20
154.960306
 10
160.27865
 20
155.103415
 10
159.585406
 20
155.190591
 10
158.890578
 20
155.219892
  0
LINE
  5
A2
100
AcDbEntity
  8
0
  6
Continuous
 62
   174
100
AcDbLine
 10
158.181351
 20
208.302974
 30
0.0
 11
162.787676
 21
209.125532
 31
0.0
  0
ARC
  5
A3
100
AcDbEntity
  8
0
  6
Continuous
 62
   174
100
AcDbCircle
 10
132.636095
 20
186.219892
 30
0.0
 40
1.0
100
AcDbArc
 50
225.0
 51
270.0
  0
LINE
  5
A4
100
AcDbEntity
  8
0
  6
HIDDEN
 62
   174
100
AcDbLine
 10
162.796674
 20
209.125532
 30
0.0
 11
142.446213
 21
209.125532
 31
0.0
  0
LINE
  5
A5
100
AcDbEntity
  8
0
  6
Continuous
 62
   174
100
AcDbLine
 10
135.999996
 20
185.219892
 30
0.0
 11
134.405702
 21
185.219892
 31
0.0
  0
LWPOLYLINE
  5
A6
100
AcDbEntity
  8
0
  6
HIDDEN
 62
   174
100
AcDbPolyline
 90
        9
 70
   128
 10
164.375405
 20
148.916904
 10
163.701216
 20
148.546158
 10
163.023586
 20
148.213055
 10
162.342275
 20
147.921525
 10
161.657548
 20
147.675713
 10
160.969497
 20
147.479479
 10
160.27865
 20
147.336369
 10
159.585406
 20
147.249194
 10
158.890578
 20
147.219892
  0
ARC
  5
A7
100
AcDbEntity
  8
0
  6
Continuous
 62
   174
100
AcDbCircle
 10
125.636095
 20
202.396408
 30
0.0
 40
6.0
100
AcDbArc
 50
0.0
 51
79.875328
  0
LINE
  5
A8
100
AcDbEntity
  8
0
  6
HIDDEN
 62
   174
100
AcDbLine
 10
135.999996
 20
185.219892
 30
0.0
 11
134.405702
 21
185.219892
 31
0.0
  0
LWPOLYLINE
  5
A9
100
AcDbEntity
  8
0
  6
Continuous
 62
   174
100
AcDbPolyline
 90
        9
 70
   128
 10
142.436095
 20
147.219892
 10
143.826825
 20
147.249239
 10
145.215653
 20
147.336654
 10
146.599664
 20
147.480187
 10
147.976782
 20
147.676803
 10
149.345152
 20
147.922642
 10
150.705453
 20
148.213825
 10
152.058421
 20
148.546431
 10
153.40575
 20
148.916904
  0
LINE
  5
AA
100
AcDbEntity
  8
0
  6
Continuous
 62
   174
100
AcDbLine
 10
120.436095
 20
211.094387
 30
0.0
 11
120.436095
 21
213.885013
 31
0.0
  0
LWPOLYLINE
  5
AB
100
AcDbEntity
  8
0
  6
Continuous
 62
   174
100
AcDbPolyline
 90
        9
 70
   128
 10
125.981612
 20
155.219892
 10
126.676977
 20
155.190546
 10
127.371391
 20
155.10313
 10
128.063397
 20
154.959598
 10
128.751956
 20
154.762982
 10
129.436141
 20
154.517143
 10
130.116291
 20
154.22596
 10
130.792775
 20
153.893354
 10
131.46644
 20
153.522881
  0
LWPOLYLINE
  5
AC
100
AcDbEntity
  8
0
  6
HIDDEN
 62
   174
100
AcDbPolyline
 90
        9
 70
   128
 10
142.436095
 20
147.219892
 10
143.826825
 20
147.249239
 10
145.215653
 20
147.336654
 10
146.599664
 20
147.480187
 10
147.976782
 20
147.676803
 10
149.345152
 20
147.922642
 10
150.705453
 20
148.213825
 10
152.058421
 20
148.546431
 10
153.40575
 20
148.916904
  0
LINE
  5
AD
100
AcDbEntity
  8
0
  6
HIDDEN
 62
   174
100
AcDbLine
 10
142.446213
 20
202.396408
 30
0.0
 11
131.646861
 21
202.396408
 31
0.0
  0
LINE
  5
AE
100
AcDbEntity
  8
0
  6
Continuous
 62
   174
100
AcDbLine
 10
153.245566
 20
202.396408
 30
0.0
 11
142.446213
 21
202.396408
 31
0.0
  0
LINE
  5
AF
100
AcDbEntity
  8
0
  6
Continuous
 62
   174
100
AcDbLine
 10
151.327952
 20
186.219892
 30
0.0
 11
147.446413
 21
186.219892
 31
0.0
  0
ARC
  5
B0
100
AcDbEntity
  8
0
  6
Continuous
 62
   174
100
AcDbCircle
 10
159.236095
 20
202.396408
 30
0.0
 40
6.0
100
AcDbArc
 50
-259.875328
 51
-180.0
  0
LINE
  5
B1
100
AcDbEntity
  8
0
  6
Continuous
 62
   174
100
AcDbLine
 10
147.707066
 20
185.219892
 30
0.0
 11
142.446213
 21
185.219892
 31
0.0
  0
ARC
  5
B2
100
AcDbEntity
  8
0
  6
Continuous
 62
   174
100
AcDbCircle
 10
142.436095
 20
136.253226
 30
0.0
 40
82.166667
100
AcDbArc
 50
-284.446758
 51
-270.0
  0
LINE
  5
B3
100
AcDbEntity
  8
0
  6
Continuous
 62
   174
100
AcDbLine
 10
132.216929
 20
147.219892
 30
0.0
 11
125.981612
 21
147.219892
 31
0.0
  0
LINE
  5
B4
100
AcDbEntity
  8
0
  6
HIDDEN
 62
   174
100
AcDbLine
 10
126.701893
 20
208.302974
 30
0.0
 11
142.446213
 21
208.302974
 31
0.0
  0
LINE
  5
B5
100
AcDbEntity
  8
0
  6
HIDDEN
 62
   174
100
AcDbLine
 10
133.446789
 20
75.219892
 30
0.0
 11
151.445638
 21
75.219892
 31
0.0
  0
LINE
  5
B6
100
AcDbEntity
  8
0
  6
HIDDEN
 62
   174
100
AcDbLine
 10
142.446213
 20
185.219892
 30
0.0
 11
137.446439
 21
185.219892
 31
0.0
  0
ARC
  5
B7
100
AcDbEntity
  8
0
  6
Continuous
 62
   174
100
AcDbCircle
 10
126.436095
 20
127.219892
 30
0.0
 40
4.5
100
AcDbArc
 50
-180.0
 51
0.0
  0
LWPOLYLINE
  5
B8
100
AcDbEntity
  8
0
  6
Continuous
 62
   174
100
AcDbPolyline
 90
        9
 70
   128
 10
125.981612
 20
147.219892
 10
126.676977
 20
147.249239
 10
127.371391
 20
147.336654
 10
128.063397
 20
147.480187
 10
128.751956
 20
147.676803
 10
129.436141
 20
147.922642
 10
130.116291
 20
148.213825
 10
130.792775
 20
148.546431
 10
131.46644
 20
148.916904
  0
LINE
  5
B9
100
AcDbEntity
  8
0
  6
HIDDEN
 62
   174
100
AcDbLine
 10
158.445238
 20
147.219892
 30
0.0
 11
142.446213
 21
147.219892
 31
0.0
  0
LWPOLYLINE
  5
BA
100
AcDbEntity
  8
0
  6
Continuous
 62
   174
100
AcDbPolyline
 90
        7
 70
   128
 10
121.848604
 20
148.213055
 10
122.529914
 20
147.921525
 10
123.214642
 20
147.675713
 10
123.902693
 20
147.479479
 10
124.59354
 20
147.336369
 10
125.286784
 20
147.249194
 10
125.981612
 20
147.219892
  0
LINE
  5
BB
100
AcDbEntity
  8
0
  6
Continuous
 62
   174
100
AcDbLine
 10
162.796674
 20
209.125532
 30
0.0
 11
156.81653
 21
209.125532
 31
0.0
  0
LINE
  5
BC
100
AcDbEntity
  8
0
  6
Continuous
 62
   174
100
AcDbLine
 10
137.185361
 20
185.219892
 30
0.0
 11
132.646774
 21
185.219892
 31
0.0
  0
LINE
  5
BD
100
AcDbEntity
  8
0
  6
Continuous
 62
   174
100
AcDbLine
 10
120.496785
 20
148.916904
 30
0.0
 11
121.848604
 21
148.213055
 31
0.0
  0
LINE
  5
BE
100
AcDbEntity
  8
0
  6
Continuous
 62
   174
100
AcDbLine
 10
153.245566
 20
186.219892
 30
0.0
 11
151.327952
 21
186.219892
 31
0.0
  0
LWPOLYLINE
  5
BF
100
AcDbEntity
  8
0
  6
Continuous
 62
   174
100
AcDbPolyline
 90
        9
 70
   128
 10
153.40575
 20
148.916904
 10
154.079939
 20
148.546158
 10
154.757569
 20
148.213055
 10
155.43888
 20
147.921525
 10
156.123607
 20
147.675713
 10
156.811658
 20
147.479479
 10
157.502505
 20
147.336369
 10
158.19575
 20
147.249194
 10
158.890578
 20
147.219892
  0
LINE
  5
C0
100
AcDbEntity
  8
0
  6
Continuous
 62
   174
100
AcDbLine
 10
120.447501
 20
213.885013
 30
0.0
 11
142.446213
 21
213.885013
 31
0.0
  0
LINE
  5
C1
100
AcDbEntity
  8
0
  6
HIDDEN
 62
   174
100
AcDbLine
 10
142.446213
 20
185.219892
 30
0.0
 11
137.968594
 21
185.219892
 31
0.0
  0
LINE
  5
C2
100
AcDbEntity
  8
0
  6
HIDDEN
 62
   174
100
AcDbLine
 10
112.436095
 20
102.487951
 30
0.0
 11
112.436095
 21
119.988013
 31
0.0
  0
LINE
  5
C3
100
AcDbEntity
  8
0
  6
HIDDEN
 62
   174
100
AcDbLine
 10
137.185361
 20
185.219892
 30
0.0
 11
133.126443
 21
185.219892
 31
0.0
  0
ARC
  5
C4
100
AcDbEntity
  8
0
  6
Continuous
 62
   174
100
AcDbCircle
 10
126.436095
 20
95.219892
 30
0.0
 40
4.5
100
AcDbArc
 50
0.0
 51
180.0
  0
ARC
  5
C5
100
AcDbEntity
  8
0
  6
Continuous
 62
   174
100
AcDbCircle
 10
162.436095
 20
213.885013
 30
0.0
 40
2.0
100
AcDbArc
 50
0.0
 51
75.553242
  0
ARC
  5
C6
100
AcDbEntity
  8
0
  6
Continuous
 62
   174
100
AcDbCircle
 10
122.436095
 20
213.885013
 30
0.0
 40
2.0
100
AcDbArc
 50
-255.553242
 51
-180.0
  0
LINE
  5
C7
100
AcDbEntity
  8
0
  6
Continuous
 62
   174
100
AcDbLine
 10
151.765984
 20
185.219892
 30
0.0
 11
147.707066
 21
185.219892
 31
0.0
  0
LINE
  5
C8
100
AcDbEntity
  8
0
  6
Continuous
 62
   174
100
AcDbLine
 10
131.636095
 20
186.219892
 30
0.0
 11
131.636095
 21
202.396408
 31
0.0
  0
LINE
  5
C9
100
AcDbEntity
  8
0
  6
Continuous
 62
   174
100
AcDbLine
 10
142.446213
 20
202.396408
 30
0.0
 11
131.646861
 21
202.396408
 31
0.0
  0
LINE
  5
CA
100
AcDbEntity
  8
0
  6
Continuous
 62
   174
100
AcDbLine
 10
142.446213
 20
213.885013
 30
0.0
 11
164.444926
 21
213.885013
 31
0.0
  0
LINE
  5
CB
100
AcDbEntity
  8
0
  6
Continuous
 62
   174
100
AcDbLine
 10
120.447501
 20
211.094387
 30
0.0
 11
142.446213
 21
211.094387
 31
0.0
  0
LWPOLYLINE
  5
CC
100
AcDbEntity
  8
0
  6
HIDDEN
 62
   174
100
AcDbPolyline
 90
        9
 70
   128
 10
125.981612
 20
147.219892
 10
125.286247
 20
147.249239
 10
124.591833
 20
147.336654
 10
123.899827
 20
147.480187
 10
123.211268
 20
147.676803
 10
122.527083
 20
147.922642
 10
121.846933
 20
148.213825
 10
121.170449
 20
148.546431
 10
120.496785
 20
148.916904
  0
LINE
  5
CD
100
AcDbEntity
  8
0
  6
Continuous
 62
   174
100
AcDbLine
 10
126.701893
 20
208.302974
 30
0.0
 11
142.446213
 21
208.302974
 31
0.0
  0
LINE
  5
CE
100
AcDbEntity
  8
0
  6
HIDDEN
 62
   174
100
AcDbLine
 10
142.446213
 20
147.219892
 30
0.0
 11
126.447189
 21
147.219892
 31
0.0
  0
LINE
  5
CF
100
AcDbEntity
  8
0
  6
Continuous
 62
   174
100
AcDbLine
 10
151.436095
 20
75.219892
 30
0.0
 11
151.436095
 21
74.219892
 31
0.0
  0
LINE
  5
D0
100
AcDbEntity
  8
0
  6
HIDDEN
 62
   174
100
AcDbLine
 10
137.968594
 20
185.219892
 30
0.0
 11
135.999996
 21
185.219892
 31
0.0
  0
LINE
  5
D1
100
AcDbEntity
  8
0
  6
HIDDEN
 62
   174
100
AcDbLine
 10
147.445988
 20
185.219892
 30
0.0
 11
142.446213
 21
185.219892
 31
0.0
  0
LWPOLYLINE
  5
D2
100
AcDbEntity
  8
0
  6
HIDDEN
 62
   174
100
AcDbPolyline
 90
        9
 70
   128
 10
158.890578
 20
147.219892
 10
158.195212
 20
147.249239
 10
157.500799
 20
147.336654
 10
156.808793
 20
147.480187
 10
156.120234
 20
147.676803
 10
155.436049
 20
147.922642
 10
154.755898
 20
148.213825
 10
154.079415
 20
148.546431
 10
153.40575
 20
148.916904
  0
ARC
  5
D3
100
AcDbEntity
  8
0
  6
Continuous
 62
   174
100
AcDbCircle
 10
126.436095
 20
95.219892
 30
0.0
 40
4.5
100
AcDbArc
 50
-180.0
 51
0.0
  0
ARC
  5
D4
100
AcDbEntity
  8
0
  6
Continuous
 62
   174
100
AcDbCircle
 10
152.236095
 20
186.219892
 30
0.0
 40
1.0
100
AcDbArc
 50
-45.0
 51
0.0
  0
LINE
  5
D5
100
AcDbEntity
  8
0
  6
Continuous
 62
   174
100
AcDbLine
 10
172.436095
 20
147.219892
 30
0.0
 11
158.890578
 21
147.219892
 31
0.0
  0
LINE
  5
D6
100
AcDbEntity
  8
0
  6
Continuous
 62
   174
100
AcDbLine
 10
133.564688
 20
186.219892
 30
0.0
 11
131.646861
 21
186.219892
 31
0.0
  0
LINE
  5
D7
100
AcDbEntity
  8
0
  6
Continuous
 62
   174
100
AcDbLine
 10
151.436095
 20
75.219892
 30
0.0
 11
151.436095
 21
74.219892
 31
0.0
  0
ARC
  5
D8
100
AcDbEntity
  8
0
  6
Continuous
 62
   174
100
AcDbCircle
 10
122.436095
 20
211.094387
 30
0.0
 40
2.0
100
AcDbArc
 50
-180.0
 51
-100.124672
  0
LINE
  5
D9
100
AcDbEntity
  8
0
  6
Continuous
 62
   174
100
AcDbLine
 10
133.126443
 20
185.219892
 30
0.0
 11
132.646774
 21
185.219892
 31
0.0
  0
LINE
  5
DA
100
AcDbEntity
  8
0
  6
Continuous
 62
   174
100
AcDbLine
 10
134.405702
 20
185.219892
 30
0.0
 11
132.648685
 21
185.219892
 31
0.0
  0
LINE
  5
DB
100
AcDbEntity
  8
0
  6
Continuous
 62
   174
100
AcDbLine
 10
156.81653
 20
209.125532
 30
0.0
 11
142.446213
 21
209.125532
 31
0.0
  0
LWPOLYLINE
  5
DC
100
AcDbEntity
  8
0
  6
Continuous
 62
   174
100
AcDbPolyline
 90
        9
 70
   128
 10
158.890578
 20
147.219892
 10
159.585943
 20
147.249239
 10
160.280356
 20
147.336654
 10
160.972362
 20
147.480187
 10
161.660921
 20
147.676803
 10
162.345106
 20
147.922642
 10
163.025257
 20
148.213825
 10
163.70174
 20
148.546431
 10
164.375405
 20
148.916904
  0
LINE
  5
DD
100
AcDbEntity
  8
0
  6
HIDDEN
 62
   174
100
AcDbLine
 10
121.948538
 20
215.821773
 30
0.0
 11
142.446213
 21
215.821773
 31
0.0
  0
LINE
  5
DE
100
AcDbEntity
  8
0
  6
HIDDEN
 62
   174
100
AcDbLine
 10
147.707066
 20
185.219892
 30
0.0
 11
142.446213
 21
185.219892
 31
0.0
  0
LWPOLYLINE
  5
DF
100
AcDbEntity
  8
0
  6
HIDDEN
 62
   174
100
AcDbPolyline
 90
        9
 70
   128
 10
131.46644
 20
148.916904
 10
130.792251
 20
148.546158
 10
130.114621
 20
148.213055
 10
129.43331
 20
147.921525
 10
128.748582
 20
147.675713
 10
128.060532
 20
147.479479
 10
127.369684
 20
147.336369
 10
126.67644
 20
147.249194
 10
125.981612
 20
147.219892
  0
LINE
  5
E0
100
AcDbEntity
  8
0
  6
Continuous
 62
   174
100
AcDbLine
 10
153.236095
 20
186.219892
 30
0.0
 11
153.236095
 21
202.396408
 31
0.0
  0
LINE
  5
E1
100
AcDbEntity
  8
0
  6
Continuous
 62
   174
100
AcDbLine
 10
142.446213
 20
209.125532
 30
0.0
 11
128.076109
 21
209.125532
 31
0.0
  0
ARC
  5
E2
100
AcDbEntity
  8
0
  6
Continuous
 62
   174
100
AcDbCircle
 10
158.436095
 20
111.219892
 30
0.0
 40
4.5
100
AcDbArc
 50
0.0
 51
180.0
  0
LINE
  5
E3
100
AcDbEntity
  8
0
  6
Continuous
 62
   174
100
AcDbLine
 10
142.446213
 20
208.302974
 30
0.0
 11
158.190534
 21
208.302974
 31
0.0
  0
LWPOLYLINE
  5
E4
100
AcDbEntity
  8
0
  6
Continuous
 62
   174
100
AcDbPolyline
 90
        9
 70
   128
 10
120.496785
 20
153.522881
 10
121.170974
 20
153.893627
 10
121.848604
 20
154.22673
 10
122.529914
 20
154.51826
 10
123.214642
 20
154.764072
 10
123.902693
 20
154.960306
 10
124.59354
 20
155.103415
 10
125.286784
 20
155.190591
 10
125.981612
 20
155.219892
  0
ARC
  5
E5
100
AcDbEntity
  8
0
  6
Continuous
 62
   174
100
AcDbCircle
 10
126.436095
 20
127.219892
 30
0.0
 40
4.5
100
AcDbArc
 50
0.0
 51
180.0
  0
LINE
  5
E6
100
AcDbEntity
  8
0
  6
Continuous
 62
   174
100
AcDbLine
 10
142.446213
 20
215.821773
 30
0.0
 11
162.944101
 21
215.821773
 31
0.0
  0
LWPOLYLINE
  5
E7
100
AcDbEntity
  8
0
  6
HIDDEN
 62
   174
100
AcDbPolyline
 90
        9
 70
   128
 10
125.981612
 20
155.219892
 10
125.286247
 20
155.190546
 10
124.591833
 20
155.10313
 10
123.899827
 20
154.959598
 10
123.211268
 20
154.762982
 10
122.527083
 20
154.517143
 10
121.846933
 20
154.22596
 10
121.170449
 20
153.893354
 10
120.496785
 20
153.522881
  0
LINE
  5
E8
100
AcDbEntity
  8
0
  6
Continuous
 62
   174
100
AcDbLine
 10
152.245653
 20
185.219892
 30
0.0
 11
151.765984
 21
185.219892
 31
0.0
  0
LINE
  5
E9
100
AcDbEntity
  8
0
  6
Continuous
 62
   174
100
AcDbLine
 10
137.968594
 20
185.219892
 30
0.0
 11
135.999996
 21
185.219892
 31
0.0
  0
ARC
  5
EA
100
AcDbEntity
  8
0
  6
Continuous
 62
   174
100
AcDbCircle
 10
162.436095
 20
211.094387
 30
0.0
 40
2.0
100
AcDbArc
 50
-79.875328
 51
0.0
  0
LINE
  5
EB
100
AcDbEntity
  8
0
  6
Continuous
 62
   174
100
AcDbLine
 10
121.948538
 20
215.821773
 30
0.0
 11
142.446213
 21
215.821773
 31
0.0
  0
LINE
  5
EC
100
AcDbEntity
  8
0
  6
Continuous
 62
   174
100
AcDbLine
 10
158.890578
 20
147.219892
 30
0.0
 11
152.65303
 21
147.219892
 31
0.0
  0
ARC
  5
ED
100
AcDbEntity
  8
0
  6
Continuous
 62
   174
100
AcDbCircle
 10
152.236095
 20
186.219892
 30
0.0
 40
1.0
100
AcDbArc
 50
-90.0
 51
-45.0
  0
LINE
  5
EE
100
AcDbEntity
  8
0
  6
Continuous
 62
   174
100
AcDbLine
 10
134.405702
 20
185.219892
 30
0.0
 11
133.292139
 21
185.219892
 31
0.0
  0
LINE
  5
EF
100
AcDbEntity
  8
0
  6
HIDDEN
 62
   174
100
AcDbLine
 10
142.446213
 20
211.094387
 30
0.0
 11
164.444926
 21
211.094387
 31
0.0
  0
LINE
  5
F0
100
AcDbEntity
  8
0
  6
Continuous
 62
   174
100
AcDbLine
 10
125.981612
 20
147.219892
 30
0.0
 11
112.436095
 21
147.219892
 31
0.0
  0
LWPOLYLINE
  5
F1
100
AcDbEntity
  8
0
  6
HIDDEN
 62
   174
100
AcDbPolyline
 90
        9
 70
   128
 10
131.46644
 20
153.522881
 10
132.814818
 20
153.893627
 10
134.170078
 20
154.22673
 10
135.532699
 20
154.51826
 10
136.902154
 20
154.764072
 10
138.278256
 20
154.960306
 10
139.659951
 20
155.103415
 10
141.046439
 20
155.190591
 10
142.436095
 20
155.219892
  0
LINE
  5
F2
100
AcDbEntity
  8
0
  6
Continuous
 62
   174
100
AcDbLine
 10
164.436095
 20
211.094387
 30
0.0
 11
164.436095
 21
213.885013
 31
0.0
  0
LWPOLYLINE
  5
F3
100
AcDbEntity
  8
0
  6
HIDDEN
 62
   174
100
AcDbPolyline
 90
        9
 70
   128
 10
131.46644
 20
153.522881
 10
130.792251
 20
153.893627
 10
130.114621
 20
154.22673
 10
129.43331
 20
154.51826
 10
128.748582
 20
154.764072
 10
128.060532
 20
154.960306
 10
127.369684
 20
155.103415
 10
126.67644
 20
155.190591
 10
125.981612
 20
155.219892
  0
ARC
  5
F4
100
AcDbEntity
  8
0
  6
Continuous
 62
   174
100
AcDbCircle
 10
158.436095
 20
111.219892
 30
0.0
 40
4.5
100
AcDbArc
 50
-180.0
 51
0.0
  0
LINE
  5
F5
100
AcDbEntity
  8
0
  6
Continuous
 62
   174
100
AcDbLine
 10
133.436095
 20
75.219892
 30
0.0
 11
133.436095
 21
74.219892
 31
0.0
  0
LINE
  5
F6
100
AcDbEntity
  8
0
  6
HIDDEN
 62
   174
100
AcDbLine
 10
142.446213
 20
186.219892
 30
0.0
 11
131.646861
 21
186.219892
 31
0.0
  0
LINE
  5
F7
100
AcDbEntity
  8
0
  6
Continuous
 62
   174
100
AcDbLine
 10
142.446213
 20
211.094387
 30
0.0
 11
164.444926
 21
211.094387
 31
0.0
  0
LINE
  5
F8
100
AcDbEntity
  8
0
  6
Continuous
 62
   174
100
AcDbLine
 10
137.437304
 20
186.219892
 30
0.0
 11
133.564688
 21
186.219892
 31
0.0
  0
ARC
  5
F9
100
AcDbEntity
  8
0
  6
Continuous
 62
   174
100
AcDbCircle
 10
132.636095
 20
186.219892
 30
0.0
 40
1.0
100
AcDbArc
 50
180.0
 51
225.0
  0
LINE
  5
FA
100
AcDbEntity
  8
0
  6
HIDDEN
 62
   174
100
AcDbLine
 10
142.446213
 20
185.219892
 30
0.0
 11
137.185361
 21
185.219892
 31
0.0
  0
LWPOLYLINE
  5
FB
100
AcDbEntity
  8
0
  6
Continuous
 62
   174
100
AcDbPolyline
 90
        9
 70
   128
 10
131.46644
 20
148.916904
 10
132.814818
 20
148.546158
 10
134.170078
 20
148.213055
 10
135.532699
 20
147.921525
 10
136.902154
 20
147.675713
 10
138.278256
 20
147.479479
 10
139.659951
 20
147.336369
 10
141.046439
 20
147.249194
 10
142.436095
 20
147.219892
  0
ARC
  5
FC
100
AcDbEntity
  8
0
  6
Continuous
 62
   174
100
AcDbCircle
 10
142.436095
 20
136.253226
 30
0.0
 40
82.166667
100
AcDbArc
 50
90.0
 51
104.446758
  0
LINE
  5
FD
100
AcDbEntity
  8
0
  6
HIDDEN
 62
   174
100
AcDbLine
 10
142.446213
 20
213.885013
 30
0.0
 11
164.444926
 21
213.885013
 31
0.0
  0
LINE
  5
FE
100
AcDbEntity
  8
0
  6
HIDDEN
 62
   174
100
AcDbLine
 10
142.446213
 20
209.125532
 30
0.0
 11
122.095753
 21
209.125532
 31
0.0
  0
LINE
  5
FF
100
AcDbEntity
  8
0
  6
HIDDEN
 62
   174
100
AcDbLine
 10
153.245566
 20
202.396408
 30
0.0
 11
142.446213
 21
202.396408
 31
0.0
  0
LWPOLYLINE
  5
100
100
AcDbEntity
  8
0
  6
Continuous
 62
   174
100
AcDbPolyline
 90
        9
 70
   128
 10
131.46644
 20
153.522881
 10
132.814818
 20
153.893627
 10
134.170078
 20
154.22673
 10
135.532699
 20
154.51826
 10
136.902154
 20
154.764072
 10
138.278256
 20
154.960306
 10
139.659951
 20
155.103415
 10
141.046439
 20
155.190591
 10
142.436095
 20
155.219892
  0
LINE
  5
101
100
AcDbEntity
  8
0
  6
HIDDEN
 62
   174
100
AcDbLine
 10
129.436095
 20
119.988013
 30
0.0
 11
129.436095
 21
102.487951
 31
0.0
  0
LINE
  5
102
100
AcDbEntity
  8
0
  6
HIDDEN
 62
   174
100
AcDbLine
 10
142.446213
 20
215.821773
 30
0.0
 11
162.944101
 21
215.821773
 31
0.0
  0
LWPOLYLINE
  5
103
100
AcDbEntity
  8
0
  6
Continuous
 62
   174
100
AcDbPolyline
 90
        9
 70
   128
 10
153.40575
 20
153.522881
 10
154.079939
 20
153.893627
 10
154.757569
 20
154.22673
 10
155.43888
 20
154.51826
 10
156.123607
 20
154.764072
 10
156.811658
 20
154.960306
 10
157.502505
 20
155.103415
 10
158.19575
 20
155.190591
 10
158.890578
 20
155.219892
  0
LINE
  5
104
100
AcDbEntity
  8
0
  6
HIDDEN
 62
   174
100
AcDbLine
 10
142.446213
 20
208.302974
 30
0.0
 11
158.190534
 21
208.302974
 31
0.0
  0
LWPOLYLINE
  5
105
100
AcDbEntity
  8
0
  6
HIDDEN
 62
   174
100
AcDbPolyline
 90
        9
 70
   128
 10
131.46644
 20
148.916904
 10
132.814818
 20
148.546158
 10
134.170078
 20
148.213055
 10
135.532699
 20
147.921525
 10
136.902154
 20
147.675713
 10
138.278256
 20
147.479479
 10
139.659951
 20
147.336369
 10
141.046439
 20
147.249194
 10
142.436095
 20
147.219892
  0
LINE
  5
106
100
AcDbEntity
  8
0
  6
HIDDEN
 62
   174
100
AcDbLine
 10
120.447501
 20
213.885013
 30
0.0
 11
142.446213
 21
213.885013
 31
0.0
  0
LINE
  5
107
100
AcDbEntity
  8
0
  6
HIDDEN
 62
   174
100
AcDbLine
 10
142.436095
 20
147.219892
 30
0.0
 11
132.216929
 21
147.219892
 31
0.0
  0
LINE
  5
108
100
AcDbEntity
  8
0
  6
HIDDEN
 62
   174
100
AcDbLine
 10
152.245653
 20
185.219892
 30
0.0
 11
147.707066
 21
185.219892
 31
0.0
  0
LINE
  5
109
100
AcDbEntity
  8
0
  6
Continuous
 62
   174
100
AcDbLine
 10
142.446213
 20
185.219892
 30
0.0
 11
137.968594
 21
185.219892
 31
0.0
  0
LINE
  5
10A
100
AcDbEntity
  8
0
  6
Continuous
 62
   174
100
AcDbLine
 10
142.446213
 20
185.219892
 30
0.0
 11
137.185361
 21
185.219892
 31
0.0
  0
LINE
  5
10B
100
AcDbEntity
  8
0
  6
Continuous
 62
   174
100
AcDbLine
 10
147.446413
 20
186.219892
 30
0.0
 11
142.446213
 21
186.219892
 31
0.0
  0
LINE
  5
10C
100
AcDbEntity
  8
0
  6
HIDDEN
 62
   174
100
AcDbLine
 10
120.447501
 20
211.094387
 30
0.0
 11
142.446213
 21
211.094387
 31
0.0
  0
LINE
  5
10D
100
AcDbEntity
  8
0
  6
HIDDEN
 62
   174
100
AcDbLine
 10
153.245566
 20
186.219892
 30
0.0
 11
142.446213
 21
186.219892
 31
0.0
  0
LINE
  5
10E
100
AcDbEntity
  8
0
  6
HIDDEN
 62
   174
100
AcDbLine
 10
147.445988
 20
171.219892
 30
0.0
 11
137.446439
 21
171.219892
 31
0.0
  0
LINE
  5
10F
100
AcDbEntity
  8
0
  6
Continuous
 62
   174
100
AcDbLine
 10
128.076109
 20
209.125532
 30
0.0
 11
122.095753
 21
209.125532
 31
0.0
  0
LINE
  5
110
100
AcDbEntity
  8
0
  6
Continuous
 62
   174
100
AcDbLine
 10
126.690839
 20
208.302974
 30
0.0
 11
122.084514
 21
209.125532
 31
0.0
  0
LINE
  5
111
100
AcDbEntity
  8
0
  6
Continuous
 62
   174
100
AcDbLine
 10
133.436095
 20
75.219892
 30
0.0
 11
133.436095
 21
74.219892
 31
0.0
  0
LINE
  5
112
100
AcDbEntity
  8
0
  6
Continuous
 62
   174
100
AcDbLine
 10
142.446213
 20
186.219892
 30
0.0
 11
137.437304
 21
186.219892
 31
0.0
  0
LWPOLYLINE
  5
113
100
AcDbEntity
  8
0
  6
Continuous
 62
   174
100
AcDbPolyline
 90
        9
 70
   128
 10
142.436095
 20
155.219892
 10
143.826825
 20
155.190546
 10
145.215653
 20
155.10313
 10
146.599664
 20
154.959598
 10
147.976782
 20
154.762982
 10
149.345152
 20
154.517143
 10
150.705453
 20
154.22596
 10
152.058421
 20
153.893354
 10
153.40575
 20
153.522881
  0
LINE
  5
114
100
AcDbEntity
  8
0
  6
HIDDEN
 62
   174
100
AcDbLine
 10
152.65303
 20
147.219892
 30
0.0
 11
142.436095
 21
147.219892
 31
0.0
  0
ENDBLK
  5
115
100
AcDbEntity
  8
0
100
AcDbBlockEnd
  0
BLOCK
  5
118
100
AcDbEntity
  8
0
100
AcDbBlockBegin
  2
*B4
 70
     0
 10
0.0
 20
0.0
 30
0.0
  3
*B4
  1

  0
LINE
  5
119
100
AcDbEntity
  8
0
  6
Continuous
 62
   172
100
AcDbLine
 10
156.4
 20
171.2
 30
0.0
 11
156.4
 21
155.2
 31
0.0
  0
LINE
  5
11A
100
AcDbEntity
  8
0
  6
Continuous
 62
   172
100
AcDbLine
 10
128.5
 20
171.2
 30
0.0
 11
128.5
 21
155.2
 31
0.0
  0
ENDBLK
  5
11B
100
AcDbEntity
  8
0
100
AcDbBlockEnd
  0
BLOCK
  5
11E
100
AcDbEntity
  8
0
100
AcDbBlockBegin
  2
*B5
 70
     0
 10
0.0
 20
0.0
 30
0.0
  3
*B5
  1

  0
LINE
  5
11F
100
AcDbEntity
  8
0
  6
Continuous
 62
   172
100
AcDbLine
 10
153.222459
 20
182.43951
 30
0.0
 11
153.222459
 21
176.219892
 31
0.0
  0
LINE
  5
120
100
AcDbEntity
  8
0
  6
Continuous
 62
   172
100
AcDbLine
 10
131.622459
 20
182.43951
 30
0.0
 11
131.622459
 21
176.219892
 31
0.0
  0
ARC
  5
121
100
AcDbEntity
  8
0
  6
Continuous
 62
   172
100
AcDbCircle
 10
132.622459
 20
176.219892
 30
0.0
 40
1.0
100
AcDbArc
 50
-180.0
 51
-90.0
  0
ARC
  5
122
100
AcDbEntity
  8
0
  6
Continuous
 62
   172
100
AcDbCircle
 10
152.222459
 20
176.219892
 30
0.0
 40
1.0
100
AcDbArc
 50
-90.0
 51
0.0
  0
LINE
  5
123
100
AcDbEntity
  8
0
  6
Continuous
 62
   172
100
AcDbLine
 10
152.222459
 20
175.219892
 30
0.0
 11
132.622459
 21
175.219892
 31
0.0
  0
ENDBLK
  5
124
100
AcDbEntity
  8
0
100
AcDbBlockEnd
  0
BLOCK
  5
127
100
AcDbEntity
  8
0
100
AcDbBlockBegin
  2
*B6
 70
     0
 10
0.0
 20
0.0
 30
0.0
  3
*B6
  1

  0
ENDBLK
  5
128
100
AcDbEntity
  8
0
100
AcDbBlockEnd
  0
BLOCK
  5
12A
100
AcDbEntity
  8
0
100
AcDbBlockBegin
  2
*B7
 70
     0
 10
0.0
 20
0.0
 30
0.0
  3
*B7
  1

  0
ENDBLK
  5
12B
100
AcDbEntity
  8
0
100
AcDbBlockEnd
  0
BLOCK
  5
12D
100
AcDbEntity
  8
0
100
AcDbBlockBegin
  2
*B8
 70
     0
 10
0.0
 20
0.0
 30
0.0
  3
*B8
  1

  0
LINE
  5
12E
100
AcDbEntity
  8
0
  6
Continuous
 62
   174
100
AcDbLine
 10
33.777212
 20
171.224993
 30
0.0
 11
31.776464
 21
169.225701
 31
0.0
  0
LINE
  5
12F
100
AcDbEntity
  8
0
  6
Continuous
 62
   174
100
AcDbLine
 10
61.789073
 20
171.226571
 30
0.0
 11
63.789919
 21
169.227648
 31
0.0
  0
LINE
  5
130
100
AcDbEntity
  8
0
  6
Continuous
 62
   174
100
AcDbLine
 10
63.782297
 20
155.219892
 30
0.0
 11
63.782297
 21
169.220019
 31
0.0
  0
LINE
  5
131
100
AcDbEntity
  8
0
  6
Continuous
 62
   174
100
AcDbLine
 10
31.782297
 20
155.219892
 30
0.0
 11
31.782297
 21
169.219864
 31
0.0
  0
LINE
  5
132
100
AcDbEntity
  8
0
  6
Continuous
 62
   174
100
AcDbLine
 10
42.666332
 20
171.228183
 30
0.0
 11
33.796703
 21
171.228183
 31
0.0
  0
LINE
  5
133
100
AcDbEntity
  8
0
  6
Continuous
 62
   174
100
AcDbLine
 10
61.810397
 20
171.231214
 30
0.0
 11
52.881712
 21
171.231214
 31
0.0
  0
LINE
  5
134
100
AcDbEntity
  8
0
  6
Continuous
 62
   174
100
AcDbLine
 10
52.885748
 20
171.231214
 30
0.0
 11
47.797602
 21
171.231214
 31
0.0
  0
LINE
  5
135
100
AcDbEntity
  8
0
  6
Continuous
 62
   174
100
AcDbLine
 10
47.797814
 20
171.228183
 30
0.0
 11
42.669306
 21
171.228183
 31
0.0
  0
LINE
  5
136
100
AcDbEntity
  8
0
  6
Continuous
 62
   174
100
AcDbLine
 10
47.797814
 20
169.221865
 30
0.0
 11
31.789018
 21
169.221865
 31
0.0
  0
LINE
  5
137
100
AcDbEntity
  8
0
  6
Continuous
 62
   174
100
AcDbLine
 10
63.796839
 20
169.222071
 30
0.0
 11
47.797602
 21
169.222071
 31
0.0
  0
LINE
  5
138
100
AcDbEntity
  8
0
  6
Continuous
 62
   174
100
AcDbLine
 10
52.782297
 20
171.219892
 30
0.0
 11
52.782297
 21
185.219892
 31
0.0
  0
LINE
  5
139
100
AcDbEntity
  8
0
  6
Continuous
 62
   174
100
AcDbLine
 10
42.782297
 20
171.219892
 30
0.0
 11
42.782297
 21
185.219892
 31
0.0
  0
ARC
  5
13A
100
AcDbEntity
  8
0
  6
Continuous
 62
   174
100
AcDbCircle
 10
47.782297
 20
127.219892
 30
0.0
 40
9.73
100
AcDbArc
 50
-90.0
 51
-89.16583
  0
LINE
  5
13B
100
AcDbEntity
  8
0
  6
Continuous
 62
   174
100
AcDbLine
 10
63.782297
 20
75.219892
 30
0.0
 11
63.782297
 21
147.219892
 31
0.0
  0
LWPOLYLINE
  5
13C
100
AcDbEntity
  8
0
  6
Continuous
 62
   174
100
AcDbPolyline
 90
        9
 70
   128
 10
57.282297
 20
155.219892
 10
58.486705
 20
155.190546
 10
59.689464
 20
155.10313
 10
60.888054
 20
154.959598
 10
62.080673
 20
154.762982
 10
63.265716
 20
154.517143
 10
64.443771
 20
154.22596
 10
65.615476
 20
153.893354
 10
66.782297
 20
153.522881
  0
LWPOLYLINE
  5
13D
100
AcDbEntity
  8
0
  6
Continuous
 62
   174
100
AcDbPolyline
 90
        9
 70
   128
 10
66.782297
 20
155.219892
 10
66.782297
 20
155.190546
 10
66.782297
 20
155.10313
 10
66.782297
 20
154.959598
 10
66.782297
 20
154.762982
 10
66.782297
 20
154.517143
 10
66.782297
 20
154.22596
 10
66.782297
 20
153.893354
 10
66.782297
 20
153.522881
  0
LWPOLYLINE
  5
13E
100
AcDbEntity
  8
0
  6
Continuous
 62
   174
100
AcDbPolyline
 90
        4
 70
   128
 10
28.782297
 20
148.916904
 10
29.950026
 20
148.546158
 10
31.123716
 20
148.213055
 10
32.303781
 20
147.921525
  0
ARC
  5
13F
100
AcDbEntity
  8
0
  6
Continuous
 62
   174
100
AcDbCircle
 10
67.782297
 20
211.094387
 30
0.0
 40
2.0
100
AcDbArc
 50
-79.875328
 51
0.0
  0
ARC
  5
140
100
AcDbEntity
  8
0
  6
Continuous
 62
   174
100
AcDbCircle
 10
67.782297
 20
213.885013
 30
0.0
 40
2.0
100
AcDbArc
 50
0.0
 51
75.553242
  0
ARC
  5
141
100
AcDbEntity
  8
0
  6
Continuous
 62
   174
100
AcDbCircle
 10
47.782297
 20
136.253226
 30
0.0
 40
82.166667
100
AcDbArc
 50
-284.446758
 51
-270.0
  0
LINE
  5
142
100
AcDbEntity
  8
0
  6
Continuous
 62
   174
100
AcDbLine
 10
25.799102
 20
213.885013
 30
0.0
 11
69.796527
 21
213.885013
 31
0.0
  0
LINE
  5
143
100
AcDbEntity
  8
0
  6
Continuous
 62
   174
100
AcDbLine
 10
30.861757
 20
209.125532
 30
0.0
 11
27.447354
 21
209.125532
 31
0.0
  0
LINE
  5
144
100
AcDbEntity
  8
0
  6
Continuous
 62
   174
100
AcDbLine
 10
64.733872
 20
209.125532
 30
0.0
 11
62.207431
 21
209.125532
 31
0.0
  0
ARC
  5
145
100
AcDbEntity
  8
0
  6
Continuous
 62
   174
100
AcDbCircle
 10
47.782297
 20
127.219892
 30
0.0
 40
9.73
100
AcDbArc
 50
-270.83417
 51
-270.0
  0
LINE
  5
146
100
AcDbEntity
  8
0
  6
Continuous
 62
   174
100
AcDbLine
 10
55.992763
 20
74.232807
 30
0.0
 11
56.360906
 21
74.232807
 31
0.0
  0
LINE
  5
147
100
AcDbEntity
  8
0
  6
Continuous
 62
   174
100
AcDbLine
 10
47.782331
 20
73.211675
 30
0.0
 11
47.782335
 21
74.210647
 31
0.0
  0
ARC
  5
148
100
AcDbEntity
  8
0
  6
Continuous
 62
   174
100
AcDbCircle
 10
47.782297
 20
127.219892
 30
0.0
 40
8.75
100
AcDbArc
 50
224.044726
 51
226.349948
  0
LINE
  5
149
100
AcDbEntity
  8
0
  6
Continuous
 62
   174
100
AcDbLine
 10
68.148275
 20
209.125532
 30
0.0
 11
64.733872
 21
209.125532
 31
0.0
  0
LINE
  5
14A
100
AcDbEntity
  8
0
  6
Continuous
 62
   174
100
AcDbLine
 10
27.299927
 20
215.821773
 30
0.0
 11
47.797814
 21
215.821773
 31
0.0
  0
ARC
  5
14B
100
AcDbEntity
  8
0
  6
Continuous
 62
   174
100
AcDbCircle
 10
47.782297
 20
127.219892
 30
0.0
 40
9.73
100
AcDbArc
 50
-269.16583
 51
-151.210326
  0
LINE
  5
14C
100
AcDbEntity
  8
0
  6
Continuous
 62
   174
100
AcDbLine
 10
55.775654
 20
73.225027
 30
0.0
 11
56.776546
 21
74.227394
 31
0.0
  0
LINE
  5
14D
100
AcDbEntity
  8
0
  6
Continuous
 62
   174
100
AcDbLine
 10
56.361331
 20
74.232807
 30
0.0
 11
56.797027
 21
74.232807
 31
0.0
  0
ARC
  5
14E
100
AcDbEntity
  8
0
  6
Continuous
 62
   174
100
AcDbCircle
 10
47.782297
 20
127.219892
 30
0.0
 40
8.75
100
AcDbArc
 50
270.0
 51
313.650052
  0
ARC
  5
14F
100
AcDbEntity
  8
0
  6
Continuous
 62
   174
100
AcDbCircle
 10
47.782297
 20
127.219892
 30
0.0
 40
8.75
100
AcDbArc
 50
315.955274
 51
358.507011
  0
ARC
  5
150
100
AcDbEntity
  8
0
  6
Continuous
 62
   174
100
AcDbCircle
 10
47.782297
 20
127.219892
 30
0.0
 40
8.75
100
AcDbArc
 50
135.955274
 51
178.507011
  0
ARC
  5
151
100
AcDbEntity
  8
0
  6
Continuous
 62
   174
100
AcDbCircle
 10
47.782297
 20
95.219892
 30
0.0
 40
8.75
100
AcDbArc
 50
133.650052
 51
135.955274
  0
ARC
  5
152
100
AcDbEntity
  8
0
  6
Continuous
 62
   174
100
AcDbCircle
 10
47.782297
 20
95.219892
 30
0.0
 40
8.75
100
AcDbArc
 50
224.044726
 51
226.349948
  0
ARC
  5
153
100
AcDbEntity
  8
0
  6
Continuous
 62
   174
100
AcDbCircle
 10
27.782297
 20
211.094387
 30
0.0
 40
2.0
100
AcDbArc
 50
-180.0
 51
-100.124672
  0
LINE
  5
154
100
AcDbEntity
  8
0
  6
Continuous
 62
   174
100
AcDbLine
 10
47.797814
 20
215.821773
 30
0.0
 11
68.295702
 21
215.821773
 31
0.0
  0
ARC
  5
155
100
AcDbEntity
  8
0
  6
Continuous
 62
   174
100
AcDbCircle
 10
47.782297
 20
95.219892
 30
0.0
 40
9.73
100
AcDbArc
 50
-90.0
 51
-89.16583
  0
LINE
  5
156
100
AcDbEntity
  8
0
  6
Continuous
 62
   174
100
AcDbLine
 10
38.776509
 20
74.223948
 30
0.0
 11
41.484791
 21
74.223948
 31
0.0
  0
LINE
  5
157
100
AcDbEntity
  8
0
  6
Continuous
 62
   174
100
AcDbLine
 10
63.782297
 20
75.219892
 30
0.0
 11
31.782297
 21
75.219892
 31
0.0
  0
ARC
  5
158
100
AcDbEntity
  8
0
  6
Continuous
 62
   174
100
AcDbCircle
 10
47.782297
 20
127.219892
 30
0.0
 40
8.75
100
AcDbArc
 50
178.507011
 51
181.492989
  0
ARC
  5
159
100
AcDbEntity
  8
0
  6
Continuous
 62
   174
100
AcDbCircle
 10
47.782297
 20
95.219892
 30
0.0
 40
8.75
100
AcDbArc
 50
-1.492989
 51
1.492989
  0
ARC
  5
15A
100
AcDbEntity
  8
0
  6
Continuous
 62
   174
100
AcDbCircle
 10
47.782297
 20
95.219892
 30
0.0
 40
8.75
100
AcDbArc
 50
90.0
 51
133.650052
  0
ARC
  5
15B
100
AcDbEntity
  8
0
  6
Continuous
 62
   174
100
AcDbCircle
 10
47.782297
 20
95.219892
 30
0.0
 40
8.75
100
AcDbArc
 50
178.507011
 51
181.492989
  0
LINE
  5
15C
100
AcDbEntity
  8
0
  6
Continuous
 62
   174
100
AcDbLine
 10
63.537461
 20
147.219892
 30
0.0
 11
66.796789
 21
147.219892
 31
0.0
  0
ARC
  5
15D
100
AcDbEntity
  8
0
  6
Continuous
 62
   174
100
AcDbCircle
 10
27.782297
 20
213.885013
 30
0.0
 40
2.0
100
AcDbArc
 50
-255.553242
 51
-180.0
  0
LINE
  5
15E
100
AcDbEntity
  8
0
  6
Continuous
 62
   174
100
AcDbLine
 10
25.799102
 20
211.094387
 30
0.0
 11
69.796527
 21
211.094387
 31
0.0
  0
ARC
  5
15F
100
AcDbEntity
  8
0
  6
Continuous
 62
   174
100
AcDbCircle
 10
30.982297
 20
202.396408
 30
0.0
 40
6.0
100
AcDbArc
 50
0.0
 51
79.875328
  0
ARC
  5
160
100
AcDbEntity
  8
0
  6
Continuous
 62
   174
100
AcDbCircle
 10
30.982297
 20
202.396408
 30
0.0
 40
6.0
100
AcDbArc
 50
0.0
 51
79.875328
  0
ARC
  5
161
100
AcDbEntity
  8
0
  6
Continuous
 62
   174
100
AcDbCircle
 10
47.782297
 20
95.219892
 30
0.0
 40
9.73
100
AcDbArc
 50
-269.16583
 51
-151.210326
  0
ARC
  5
162
100
AcDbEntity
  8
0
  6
Continuous
 62
   174
100
AcDbCircle
 10
47.782297
 20
95.219892
 30
0.0
 40
9.73
100
AcDbArc
 50
-270.0
 51
-269.16583
  0
ARC
  5
163
100
AcDbEntity
  8
0
  6
Continuous
 62
   174
100
AcDbCircle
 10
47.782297
 20
127.219892
 30
0.0
 40
8.75
100
AcDbArc
 50
-1.492989
 51
1.492989
  0
ARC
  5
164
100
AcDbEntity
  8
0
  6
Continuous
 62
   174
100
AcDbCircle
 10
47.782297
 20
127.219892
 30
0.0
 40
8.75
100
AcDbArc
 50
181.492989
 51
224.044726
  0
LINE
  5
165
100
AcDbEntity
  8
0
  6
Continuous
 62
   174
100
AcDbLine
 10
66.782297
 20
148.916904
 30
0.0
 11
66.782297
 21
153.522881
 31
0.0
  0
ARC
  5
166
100
AcDbEntity
  8
0
  6
Continuous
 62
   174
100
AcDbCircle
 10
47.782297
 20
95.219892
 30
0.0
 40
8.75
100
AcDbArc
 50
181.492989
 51
224.044726
  0
LINE
  5
167
100
AcDbEntity
  8
0
  6
Continuous
 62
   174
100
AcDbLine
 10
47.782297
 20
148.916904
 30
0.0
 11
47.782297
 21
153.522881
 31
0.0
  0
LINE
  5
168
100
AcDbEntity
  8
0
  6
Continuous
 62
   174
100
AcDbLine
 10
38.298327
 20
155.219892
 30
0.0
 11
57.297302
 21
155.219892
 31
0.0
  0
LWPOLYLINE
  5
169
100
AcDbEntity
  8
0
  6
Continuous
 62
   174
100
AcDbPolyline
 90
        9
 70
   128
 10
47.782297
 20
153.522881
 10
48.950026
 20
153.893627
 10
50.123716
 20
154.22673
 10
51.303781
 20
154.51826
 10
52.489764
 20
154.764072
 10
53.681503
 20
154.960306
 10
54.878085
 20
155.103415
 10
56.078819
 20
155.190591
 10
57.282297
 20
155.219892
  0
LWPOLYLINE
  5
16A
100
AcDbEntity
  8
0
  6
Continuous
 62
   174
100
AcDbPolyline
 90
        9
 70
   128
 10
28.782297
 20
153.522881
 10
29.950026
 20
153.893627
 10
31.123716
 20
154.22673
 10
32.303781
 20
154.51826
 10
33.489764
 20
154.764072
 10
34.681503
 20
154.960306
 10
35.878085
 20
155.103415
 10
37.078819
 20
155.190591
 10
38.282297
 20
155.219892
  0
ARC
  5
16B
100
AcDbEntity
  8
0
  6
Continuous
 62
   174
100
AcDbCircle
 10
47.782297
 20
136.253226
 30
0.0
 40
82.166667
100
AcDbArc
 50
90.0
 51
104.446758
  0
LINE
  5
16C
100
AcDbEntity
  8
0
  6
Continuous
 62
   174
100
AcDbLine
 10
47.798027
 20
74.232807
 30
0.0
 11
55.992338
 21
74.232807
 31
0.0
  0
LINE
  5
16D
100
AcDbEntity
  8
0
  6
Continuous
 62
   174
100
AcDbLine
 10
41.500299
 20
74.223948
 30
0.0
 11
47.797602
 21
74.223948
 31
0.0
  0
ARC
  5
16E
100
AcDbEntity
  8
0
  6
Continuous
 62
   174
100
AcDbCircle
 10
47.782297
 20
127.219892
 30
0.0
 40
8.75
100
AcDbArc
 50
1.492989
 51
44.044726
  0
ARC
  5
16F
100
AcDbEntity
  8
0
  6
Continuous
 62
   174
100
AcDbCircle
 10
47.782297
 20
127.219892
 30
0.0
 40
8.75
100
AcDbArc
 50
46.349948
 51
90.0
  0
ARC
  5
170
100
AcDbEntity
  8
0
  6
Continuous
 62
   174
100
AcDbCircle
 10
47.782297
 20
127.219892
 30
0.0
 40
8.75
100
AcDbArc
 50
133.650052
 51
135.955274
  0
ARC
  5
171
100
AcDbEntity
  8
0
  6
Continuous
 62
   174
100
AcDbCircle
 10
47.782297
 20
95.219892
 30
0.0
 40
8.75
100
AcDbArc
 50
226.349948
 51
270.0
  0
LINE
  5
172
100
AcDbEntity
  8
0
  6
Continuous
 62
   174
100
AcDbLine
 10
28.79884
 20
147.219892
 30
0.0
 11
32.67443
 21
147.219892
 31
0.0
  0
LINE
  5
173
100
AcDbEntity
  8
0
  6
Continuous
 62
   174
100
AcDbLine
 10
57.297302
 20
155.219892
 30
0.0
 11
66.796789
 21
155.219892
 31
0.0
  0
LWPOLYLINE
  5
174
100
AcDbEntity
  8
0
  6
Continuous
 62
   174
100
AcDbPolyline
 90
        9
 70
   128
 10
38.282297
 20
155.219892
 10
39.486705
 20
155.190546
 10
40.689464
 20
155.10313
 10
41.888054
 20
154.959598
 10
43.080673
 20
154.762982
 10
44.265716
 20
154.517143
 10
45.443771
 20
154.22596
 10
46.615476
 20
153.893354
 10
47.782297
 20
153.522881
  0
LWPOLYLINE
  5
175
100
AcDbEntity
  8
0
  6
Continuous
 62
   174
100
AcDbPolyline
 90
        9
 70
   128
 10
28.782297
 20
147.219892
 10
28.782297
 20
147.249239
 10
28.782297
 20
147.336654
 10
28.782297
 20
147.480187
 10
28.782297
 20
147.676803
 10
28.782297
 20
147.922642
 10
28.782297
 20
148.213825
 10
28.782297
 20
148.546431
 10
28.782297
 20
148.916904
  0
LINE
  5
176
100
AcDbEntity
  8
0
  6
Continuous
 62
   174
100
AcDbLine
 10
62.080673
 20
147.676803
 30
0.0
 11
64.443771
 21
148.213825
 31
0.0
  0
ARC
  5
177
100
AcDbEntity
  8
0
  6
Continuous
 62
   174
100
AcDbCircle
 10
47.782297
 20
127.219892
 30
0.0
 40
9.73
100
AcDbArc
 50
-89.16583
 51
89.16583
  0
ARC
  5
178
100
AcDbEntity
  8
0
  6
Continuous
 62
   174
100
AcDbCircle
 10
47.782297
 20
95.219892
 30
0.0
 40
9.73
100
AcDbArc
 50
-89.16583
 51
89.16583
  0
LINE
  5
179
100
AcDbEntity
  8
0
  6
Continuous
 62
   174
100
AcDbLine
 10
31.782297
 20
75.219892
 30
0.0
 11
31.782297
 21
147.219892
 31
0.0
  0
LINE
  5
17A
100
AcDbEntity
  8
0
  6
Continuous
 62
   174
100
AcDbLine
 10
28.782297
 20
148.916904
 30
0.0
 11
28.782297
 21
153.522881
 31
0.0
  0
ARC
  5
17B
100
AcDbEntity
  8
0
  6
Continuous
 62
   174
100
AcDbCircle
 10
47.782297
 20
127.219892
 30
0.0
 40
8.75
100
AcDbArc
 50
313.650052
 51
315.955274
  0
ARC
  5
17C
100
AcDbEntity
  8
0
  6
Continuous
 62
   174
100
AcDbCircle
 10
47.782297
 20
95.219892
 30
0.0
 40
8.75
100
AcDbArc
 50
313.650052
 51
315.955274
  0
ARC
  5
17D
100
AcDbEntity
  8
0
  6
Continuous
 62
   174
100
AcDbCircle
 10
47.782297
 20
95.219892
 30
0.0
 40
8.75
100
AcDbArc
 50
315.955274
 51
358.507011
  0
ARC
  5
17E
100
AcDbEntity
  8
0
  6
Continuous
 62
   174
100
AcDbCircle
 10
47.782297
 20
95.219892
 30
0.0
 40
8.75
100
AcDbArc
 50
1.492989
 51
44.044726
  0
ARC
  5
17F
100
AcDbEntity
  8
0
  6
Continuous
 62
   174
100
AcDbCircle
 10
47.782297
 20
95.219892
 30
0.0
 40
8.75
100
AcDbArc
 50
44.044726
 51
46.349948
  0
LWPOLYLINE
  5
180
100
AcDbEntity
  8
0
  6
Continuous
 62
   174
100
AcDbPolyline
 90
        9
 70
   128
 10
28.782297
 20
155.219892
 10
28.782297
 20
155.190546
 10
28.782297
 20
155.10313
 10
28.782297
 20
154.959598
 10
28.782297
 20
154.762982
 10
28.782297
 20
154.517143
 10
28.782297
 20
154.22596
 10
28.782297
 20
153.893354
 10
28.782297
 20
153.522881
  0
ARC
  5
181
100
AcDbEntity
  8
0
  6
Continuous
 62
   174
100
AcDbCircle
 10
67.782297
 20
211.094387
 30
0.0
 40
2.0
100
AcDbArc
 50
-79.875328
 51
0.0
  0
ARC
  5
182
100
AcDbEntity
  8
0
  6
Continuous
 62
   174
100
AcDbCircle
 10
67.782297
 20
213.885013
 30
0.0
 40
2.0
100
AcDbArc
 50
0.0
 51
75.553242
  0
ARC
  5
183
100
AcDbEntity
  8
0
  6
Continuous
 62
   174
100
AcDbCircle
 10
27.782297
 20
213.885013
 30
0.0
 40
2.0
100
AcDbArc
 50
-255.553242
 51
-180.0
  0
LINE
  5
184
100
AcDbEntity
  8
0
  6
Continuous
 62
   174
100
AcDbLine
 10
69.782297
 20
211.094387
 30
0.0
 11
69.782297
 21
213.885013
 31
0.0
  0
LINE
  5
185
100
AcDbEntity
  8
0
  6
Continuous
 62
   174
100
AcDbLine
 10
25.782297
 20
211.094387
 30
0.0
 11
25.782297
 21
213.885013
 31
0.0
  0
ARC
  5
186
100
AcDbEntity
  8
0
  6
Continuous
 62
   174
100
AcDbCircle
 10
47.782297
 20
127.219892
 30
0.0
 40
9.73
100
AcDbArc
 50
-270.0
 51
-269.16583
  0
ARC
  5
187
100
AcDbEntity
  8
0
  6
Continuous
 62
   174
100
AcDbCircle
 10
47.782297
 20
95.219892
 30
0.0
 40
9.73
100
AcDbArc
 50
-270.83417
 51
-270.0
  0
LINE
  5
188
100
AcDbEntity
  8
0
  6
Continuous
 62
   174
100
AcDbLine
 10
47.798027
 20
73.220185
 30
0.0
 11
55.785856
 21
73.220185
 31
0.0
  0
LINE
  5
189
100
AcDbEntity
  8
0
  6
Continuous
 62
   174
100
AcDbLine
 10
39.782157
 20
73.20422
 30
0.0
 11
47.797602
 21
73.20422
 31
0.0
  0
LINE
  5
18A
100
AcDbEntity
  8
0
  6
Continuous
 62
   174
100
AcDbLine
 10
63.782297
 20
147.219892
 30
0.0
 11
31.782297
 21
147.219892
 31
0.0
  0
ARC
  5
18B
100
AcDbEntity
  8
0
  6
Continuous
 62
   174
100
AcDbCircle
 10
47.782297
 20
127.219892
 30
0.0
 40
8.75
100
AcDbArc
 50
226.349948
 51
270.0
  0
ARC
  5
18C
100
AcDbEntity
  8
0
  6
Continuous
 62
   174
100
AcDbCircle
 10
47.782297
 20
127.219892
 30
0.0
 40
8.75
100
AcDbArc
 50
44.044726
 51
46.349948
  0
ARC
  5
18D
100
AcDbEntity
  8
0
  6
Continuous
 62
   174
100
AcDbCircle
 10
47.782297
 20
127.219892
 30
0.0
 40
8.75
100
AcDbArc
 50
90.0
 51
133.650052
  0
ARC
  5
18E
100
AcDbEntity
  8
0
  6
Continuous
 62
   174
100
AcDbCircle
 10
47.782297
 20
95.219892
 30
0.0
 40
8.75
100
AcDbArc
 50
270.0
 51
313.650052
  0
ARC
  5
18F
100
AcDbEntity
  8
0
  6
Continuous
 62
   174
100
AcDbCircle
 10
47.782297
 20
95.219892
 30
0.0
 40
8.75
100
AcDbArc
 50
46.349948
 51
90.0
  0
ARC
  5
190
100
AcDbEntity
  8
0
  6
Continuous
 62
   174
100
AcDbCircle
 10
47.782297
 20
95.219892
 30
0.0
 40
8.75
100
AcDbArc
 50
135.955274
 51
178.507011
  0
LINE
  5
191
100
AcDbEntity
  8
0
  6
Continuous
 62
   174
100
AcDbLine
 10
28.79884
 20
155.219892
 30
0.0
 11
38.298327
 21
155.219892
 31
0.0
  0
LINE
  5
192
100
AcDbEntity
  8
0
  6
Continuous
 62
   174
100
AcDbLine
 10
64.443771
 20
148.213825
 30
0.0
 11
66.782297
 21
148.916904
 31
0.0
  0
LWPOLYLINE
  5
193
100
AcDbEntity
  8
0
  6
Continuous
 62
   174
100
AcDbPolyline
 90
        9
 70
   128
 10
47.782297
 20
148.916904
 10
48.950026
 20
148.546158
 10
50.123716
 20
148.213055
 10
51.303781
 20
147.921525
 10
52.489764
 20
147.675713
 10
53.681503
 20
147.479479
 10
54.878085
 20
147.336369
 10
56.078819
 20
147.249194
 10
57.282297
 20
147.219892
  0
LWPOLYLINE
  5
194
100
AcDbEntity
  8
0
  6
Continuous
 62
   174
100
AcDbPolyline
 90
        9
 70
   128
 10
66.782297
 20
147.219892
 10
66.782297
 20
147.249239
 10
66.782297
 20
147.336654
 10
66.782297
 20
147.480187
 10
66.782297
 20
147.676803
 10
66.782297
 20
147.922642
 10
66.782297
 20
148.213825
 10
66.782297
 20
148.546431
 10
66.782297
 20
148.916904
  0
LWPOLYLINE
  5
195
100
AcDbEntity
  8
0
  6
Continuous
 62
   174
100
AcDbPolyline
 90
        9
 70
   128
 10
38.282297
 20
147.219892
 10
39.486705
 20
147.249239
 10
40.689464
 20
147.336654
 10
41.888054
 20
147.480187
 10
43.080673
 20
147.676803
 10
44.265716
 20
147.922642
 10
45.443771
 20
148.213825
 10
46.615476
 20
148.546431
 10
47.782297
 20
148.916904
  0
LINE
  5
196
100
AcDbEntity
  8
0
  6
Continuous
 62
   174
100
AcDbLine
 10
32.303781
 20
147.921525
 30
0.0
 11
33.489764
 21
147.675713
 31
0.0
  0
ARC
  5
197
100
AcDbEntity
  8
0
  6
Continuous
 62
   174
100
AcDbCircle
 10
27.782297
 20
211.094387
 30
0.0
 40
2.0
100
AcDbArc
 50
-180.0
 51
-100.124672
  0
LINE
  5
198
100
AcDbEntity
  8
0
  6
Continuous
 62
   174
100
AcDbLine
 10
69.782297
 20
211.094387
 30
0.0
 11
69.782297
 21
213.885013
 31
0.0
  0
LINE
  5
199
100
AcDbEntity
  8
0
  6
Continuous
 62
   174
100
AcDbLine
 10
25.782297
 20
211.094387
 30
0.0
 11
25.782297
 21
213.885013
 31
0.0
  0
LINE
  5
19A
100
AcDbEntity
  8
0
  6
Continuous
 62
   174
100
AcDbLine
 10
62.207431
 20
209.125532
 30
0.0
 11
33.388198
 21
209.125532
 31
0.0
  0
LINE
  5
19B
100
AcDbEntity
  8
0
  6
Continuous
 62
   174
100
AcDbLine
 10
33.388198
 20
209.125532
 30
0.0
 11
30.861757
 21
209.125532
 31
0.0
  0
LINE
  5
19C
100
AcDbEntity
  8
0
  6
Continuous
 62
   174
100
AcDbLine
 10
39.774185
 20
73.211866
 30
0.0
 11
38.770502
 21
74.213527
 31
0.0
  0
LINE
  5
19D
100
AcDbEntity
  8
0
  6
Continuous
 62
   174
100
AcDbLine
 10
46.607989
 20
185.219892
 30
0.0
 11
44.300351
 21
185.219892
 31
0.0
  0
LINE
  5
19E
100
AcDbEntity
  8
0
  6
Continuous
 62
   174
100
AcDbLine
 10
42.19601
 20
185.219892
 30
0.0
 11
38.266887
 21
185.219892
 31
0.0
  0
LINE
  5
19F
100
AcDbEntity
  8
0
  6
Continuous
 62
   174
100
AcDbLine
 10
57.597254
 20
185.219892
 30
0.0
 11
57.328742
 21
185.219892
 31
0.0
  0
LINE
  5
1A0
100
AcDbEntity
  8
0
  6
Continuous
 62
   174
100
AcDbLine
 10
38.230137
 20
186.219892
 30
0.0
 11
36.998462
 21
186.219892
 31
0.0
  0
LINE
  5
1A1
100
AcDbEntity
  8
0
  6
Continuous
 62
   174
100
AcDbLine
 10
63.527553
 20
208.302974
 30
0.0
 11
68.133878
 21
209.125532
 31
0.0
  0
LINE
  5
1A2
100
AcDbEntity
  8
0
  6
Continuous
 62
   174
100
AcDbLine
 10
32.037041
 20
208.302974
 30
0.0
 11
27.430716
 21
209.125532
 31
0.0
  0
LINE
  5
1A3
100
AcDbEntity
  8
0
  6
Continuous
 62
   174
100
AcDbLine
 10
58.597167
 20
186.219892
 30
0.0
 11
58.285106
 21
186.219892
 31
0.0
  0
LINE
  5
1A4
100
AcDbEntity
  8
0
  6
Continuous
 62
   174
100
AcDbLine
 10
39.706107
 20
186.219892
 30
0.0
 11
38.230137
 21
186.219892
 31
0.0
  0
LINE
  5
1A5
100
AcDbEntity
  8
0
  6
Continuous
 62
   174
100
AcDbLine
 10
58.582297
 20
186.219892
 30
0.0
 11
58.582297
 21
202.396408
 31
0.0
  0
LINE
  5
1A6
100
AcDbEntity
  8
0
  6
Continuous
 62
   174
100
AcDbLine
 10
63.527553
 20
208.302974
 30
0.0
 11
68.133878
 21
209.125532
 31
0.0
  0
LINE
  5
1A7
100
AcDbEntity
  8
0
  6
Continuous
 62
   174
100
AcDbLine
 10
51.295278
 20
185.219892
 30
0.0
 11
48.98764
 21
185.219892
 31
0.0
  0
LINE
  5
1A8
100
AcDbEntity
  8
0
  6
Continuous
 62
   174
100
AcDbLine
 10
44.300351
 20
185.219892
 30
0.0
 11
42.19601
 21
185.219892
 31
0.0
  0
ARC
  5
1A9
100
AcDbEntity
  8
0
  6
Continuous
 62
   174
100
AcDbCircle
 10
64.582297
 20
202.396408
 30
0.0
 40
6.0
100
AcDbArc
 50
-259.875328
 51
-180.0
  0
LINE
  5
1AA
100
AcDbEntity
  8
0
  6
Continuous
 62
   174
100
AcDbLine
 10
58.597167
 20
202.396408
 30
0.0
 11
36.998462
 21
202.396408
 31
0.0
  0
LINE
  5
1AB
100
AcDbEntity
  8
0
  6
Continuous
 62
   174
100
AcDbLine
 10
42.658047
 20
185.219892
 30
0.0
 11
37.998374
 21
185.219892
 31
0.0
  0
LINE
  5
1AC
100
AcDbEntity
  8
0
  6
Continuous
 62
   174
100
AcDbLine
 10
48.98764
 20
185.219892
 30
0.0
 11
46.607989
 21
185.219892
 31
0.0
  0
LINE
  5
1AD
100
AcDbEntity
  8
0
  6
Continuous
 62
   174
100
AcDbLine
 10
47.797814
 20
185.219892
 30
0.0
 11
42.658047
 21
185.219892
 31
0.0
  0
LINE
  5
1AE
100
AcDbEntity
  8
0
  6
Continuous
 62
   174
100
AcDbLine
 10
55.889522
 20
186.219892
 30
0.0
 11
39.706107
 21
186.219892
 31
0.0
  0
LINE
  5
1AF
100
AcDbEntity
  8
0
  6
Continuous
 62
   174
100
AcDbLine
 10
53.399619
 20
185.219892
 30
0.0
 11
51.295278
 21
185.219892
 31
0.0
  0
ARC
  5
1B0
100
AcDbEntity
  8
0
  6
Continuous
 62
   174
100
AcDbCircle
 10
64.582297
 20
202.396408
 30
0.0
 40
6.0
100
AcDbArc
 50
-259.875328
 51
-180.0
  0
LINE
  5
1B1
100
AcDbEntity
  8
0
  6
Continuous
 62
   174
100
AcDbLine
 10
32.053494
 20
208.302974
 30
0.0
 11
63.542135
 21
208.302974
 31
0.0
  0
LINE
  5
1B2
100
AcDbEntity
  8
0
  6
Continuous
 62
   174
100
AcDbLine
 10
32.037041
 20
208.302974
 30
0.0
 11
27.430716
 21
209.125532
 31
0.0
  0
ARC
  5
1B3
100
AcDbEntity
  8
0
  6
Continuous
 62
   174
100
AcDbCircle
 10
57.582297
 20
186.219892
 30
0.0
 40
1.0
100
AcDbArc
 50
-90.0
 51
0.0
  0
ARC
  5
1B4
100
AcDbEntity
  8
0
  6
Continuous
 62
   174
100
AcDbCircle
 10
37.982297
 20
186.219892
 30
0.0
 40
1.0
100
AcDbArc
 50
180.0
 51
270.0
  0
LINE
  5
1B5
100
AcDbEntity
  8
0
  6
Continuous
 62
   174
100
AcDbLine
 10
36.982297
 20
186.219892
 30
0.0
 11
36.982297
 21
202.396408
 31
0.0
  0
LINE
  5
1B6
100
AcDbEntity
  8
0
  6
Continuous
 62
   174
100
AcDbLine
 10
56.782297
 20
75.219892
 30
0.0
 11
56.782297
 21
74.221651
 31
0.0
  0
LINE
  5
1B7
100
AcDbEntity
  8
0
  6
Continuous
 62
   174
100
AcDbLine
 10
36.982297
 20
186.219892
 30
0.0
 11
36.982297
 21
202.396408
 31
0.0
  0
LINE
  5
1B8
100
AcDbEntity
  8
0
  6
Continuous
 62
   174
100
AcDbLine
 10
38.266887
 20
185.219892
 30
0.0
 11
37.998374
 21
185.219892
 31
0.0
  0
ARC
  5
1B9
100
AcDbEntity
  8
0
  6
Continuous
 62
   174
100
AcDbCircle
 10
57.582297
 20
186.219892
 30
0.0
 40
1.0
100
AcDbArc
 50
-90.0
 51
0.0
  0
LINE
  5
1BA
100
AcDbEntity
  8
0
  6
Continuous
 62
   174
100
AcDbLine
 10
58.582297
 20
186.219892
 30
0.0
 11
58.582297
 21
202.396408
 31
0.0
  0
LINE
  5
1BB
100
AcDbEntity
  8
0
  6
Continuous
 62
   174
100
AcDbLine
 10
53.058667
 20
185.219892
 30
0.0
 11
47.797814
 21
185.219892
 31
0.0
  0
LINE
  5
1BC
100
AcDbEntity
  8
0
  6
Continuous
 62
   174
100
AcDbLine
 10
38.782297
 20
75.219892
 30
0.0
 11
38.782297
 21
74.225346
 31
0.0
  0
LINE
  5
1BD
100
AcDbEntity
  8
0
  6
Continuous
 62
   174
100
AcDbLine
 10
57.597254
 20
185.219892
 30
0.0
 11
53.058667
 21
185.219892
 31
0.0
  0
LINE
  5
1BE
100
AcDbEntity
  8
0
  6
Continuous
 62
   174
100
AcDbLine
 10
58.285106
 20
186.219892
 30
0.0
 11
55.889522
 21
186.219892
 31
0.0
  0
LINE
  5
1BF
100
AcDbEntity
  8
0
  6
Continuous
 62
   174
100
AcDbLine
 10
57.328742
 20
185.219892
 30
0.0
 11
53.399619
 21
185.219892
 31
0.0
  0
ARC
  5
1C0
100
AcDbEntity
  8
0
  6
Continuous
 62
   174
100
AcDbCircle
 10
37.982297
 20
186.219892
 30
0.0
 40
1.0
100
AcDbArc
 50
180.0
 51
270.0
  0
ENDBLK
  5
1C1
100
AcDbEntity
  8
0
100
AcDbBlockEnd
  0
BLOCK
  5
1C4
100
AcDbEntity
  8
0
100
AcDbBlockBegin
  2
*B9
 70
     0
 10
0.0
 20
0.0
 30
0.0
  3
*B9
  1

  0
LINE
  5
1C5
100
AcDbEntity
  8
0
  6
Continuous
 62
   172
100
AcDbLine
 10
61.8
 20
171.23951
 30
0.0
 11
61.8
 21
155.23951
 31
0.0
  0
LINE
  5
1C6
100
AcDbEntity
  8
0
  6
Continuous
 62
   172
100
AcDbLine
 10
33.8
 20
171.23951
 30
0.0
 11
33.8
 21
155.23951
 31
0.0
  0
ENDBLK
  5
1C7
100
AcDbEntity
  8
0
100
AcDbBlockEnd
  0
BLOCK
  5
1CA
100
AcDbEntity
  8
0
100
AcDbBlockBegin
  2
*B10
 70
     0
 10
0.0
 20
0.0
 30
0.0
  3
*B10
  1

  0
ENDBLK
  5
1CB
100
AcDbEntity
  8
0
100
AcDbBlockEnd
  0
BLOCK
  5
1CD
100
AcDbEntity
  8
0
100
AcDbBlockBegin
  2
*B11
 70
     0
 10
0.0
 20
0.0
 30
0.0
  3
*B11
  1

  0
ENDBLK
  5
1CE
100
AcDbEntity
  8
0
100
AcDbBlockEnd
  0
BLOCK
  5
1D0
100
AcDbEntity
  8
0
100
AcDbBlockBegin
  2
*B12
 70
     0
 10
0.0
 20
0.0
 30
0.0
  3
*B12
  1

  0
LINE
  5
1D1
100
AcDbEntity
  8
0
  6
Continuous
 62
     0
100
AcDbLine
 10
84.58597
 20
75.237946
 30
0.0
 11
84.58597
 21
147.238019
 31
0.0
  0
SOLID
  5
1D2
100
AcDbEntity
  8
0
  6
Continuous
 62
     0
100
AcDbTrace
 10
83.985852
 20
78.737958
 30
0.0
 11
84.58597
 21
75.237946
 31
0.0
 12
85.185875
 22
78.737958
 32
0.0
 13
85.185875
 23
78.737958
 33
0.0
  0
SOLID
  5
1D3
100
AcDbEntity
  8
0
  6
Continuous
 62
     0
100
AcDbTrace
 10
85.185875
 20
143.738006
 30
0.0
 11
84.58597
 21
147.238019
 31
0.0
 12
83.985852
 22
143.738006
 32
0.0
 13
83.985852
 23
143.738006
 33
0.0
  0
ENDBLK
  5
1D4
100
AcDbEntity
  8
0
100
AcDbBlockEnd
  0
BLOCK
  5
1D7
100
AcDbEntity
  8
0
100
AcDbBlockBegin
  2
*B13
 70
     0
 10
0.0
 20
0.0
 30
0.0
  3
*B13
  1

  0
LINE
  5
1D8
100
AcDbEntity
  8
0
  6
Continuous
 62
     0
100
AcDbLine
 10
98.58517
 20
111.237982
 30
0.0
 11
98.58517
 21
75.237946
 31
0.0
  0
SOLID
  5
1D9
100
AcDbEntity
  8
0
  6
Continuous
 62
     0
100
AcDbTrace
 10
99.185075
 20
107.73797
 30
0.0
 11
98.58517
 21
111.237982
 31
0.0
 12
97.985052
 22
107.73797
 32
0.0
 13
97.985052
 23
107.73797
 33
0.0
  0
SOLID
  5
1DA
100
AcDbEntity
  8
0
  6
Continuous
 62
     0
100
AcDbTrace
 10
97.985052
 20
78.737958
 30
0.0
 11
98.58517
 21
75.237946
 31
0.0
 12
99.185075
 22
78.737958
 32
0.0
 13
99.185075
 23
78.737958
 33
0.0
  0
ENDBLK
  5
1DB
100
AcDbEntity
  8
0
100
AcDbBlockEnd
  0
BLOCK
  5
1DE
100
AcDbEntity
  8
0
100
AcDbBlockBegin
  2
*B14
 70
     0
 10
0.0
 20
0.0
 30
0.0
  3
*B14
  1

  0
LINE
  5
1DF
100
AcDbEntity
  8
0
  6
Continuous
 62
     0
100
AcDbLine
 10
188.580056
 20
127.238069
 30
0.0
 11
188.580056
 21
147.238019
 31
0.0
  0
SOLID
  5
1E0
100
AcDbEntity
  8
0
  6
Continuous
 62
     0
100
AcDbTrace
 10
187.980151
 20
130.738081
 30
0.0
 11
188.580056
 21
127.238069
 31
0.0
 12
189.179961
 22
130.738081
 32
0.0
 13
189.179961
 23
130.738081
 33
0.0
  0
SOLID
  5
1E1
100
AcDbEntity
  8
0
  6
Continuous
 62
     0
100
AcDbTrace
 10
189.179961
 20
143.738006
 30
0.0
 11
188.580056
 21
147.238019
 31
0.0
 12
187.980151
 22
143.738006
 32
0.0
 13
187.980151
 23
143.738006
 33
0.0
  0
ENDBLK
  5
1E2
100
AcDbEntity
  8
0
100
AcDbBlockEnd
  0
BLOCK
  5
1E5
100
AcDbEntity
  8
0
100
AcDbBlockBegin
  2
*B15
 70
     0
 10
0.0
 20
0.0
 30
0.0
  3
*B15
  1

  0
LINE
  5
1E6
100
AcDbEntity
  8
0
  6
Continuous
 62
     0
100
AcDbLine
 10
188.580056
 20
95.238107
 30
0.0
 11
188.580056
 21
127.238069
 31
0.0
  0
SOLID
  5
1E7
100
AcDbEntity
  8
0
  6
Continuous
 62
     0
100
AcDbTrace
 10
187.980151
 20
98.73812
 30
0.0
 11
188.580056
 21
95.238107
 31
0.0
 12
189.179961
 22
98.73812
 32
0.0
 13
189.179961
 23
98.73812
 33
0.0
  0
SOLID
  5
1E8
100
AcDbEntity
  8
0
  6
Continuous
 62
     0
100
AcDbTrace
 10
189.179961
 20
123.738057
 30
0.0
 11
188.580056
 21
127.238069
 31
0.0
 12
187.980151
 22
123.738057
 32
0.0
 13
187.980151
 23
123.738057
 33
0.0
  0
ENDBLK
  5
1E9
100
AcDbEntity
  8
0
100
AcDbBlockEnd
  0
BLOCK
  5
1EC
100
AcDbEntity
  8
0
100
AcDbBlockBegin
  2
*B16
 70
     0
 10
0.0
 20
0.0
 30
0.0
  3
*B16
  1

  0
LINE
  5
1ED
100
AcDbEntity
  8
0
  6
Continuous
 62
     0
100
AcDbLine
 10
188.580056
 20
95.238107
 30
0.0
 11
188.580056
 21
75.237946
 31
0.0
  0
SOLID
  5
1EE
100
AcDbEntity
  8
0
  6
Continuous
 62
     0
100
AcDbTrace
 10
189.179961
 20
91.738095
 30
0.0
 11
188.580056
 21
95.238107
 31
0.0
 12
187.980151
 22
91.738095
 32
0.0
 13
187.980151
 23
91.738095
 33
0.0
  0
SOLID
  5
1EF
100
AcDbEntity
  8
0
  6
Continuous
 62
     0
100
AcDbTrace
 10
187.980151
 20
78.737958
 30
0.0
 11
188.580056
 21
75.237946
 31
0.0
 12
189.179961
 22
78.737958
 32
0.0
 13
189.179961
 23
78.737958
 33
0.0
  0
ENDBLK
  5
1F0
100
AcDbEntity
  8
0
100
AcDbBlockEnd
  0
BLOCK
  5
1F3
100
AcDbEntity
  8
0
100
AcDbBlockBegin
  2
*B17
 70
     0
 10
0.0
 20
0.0
 30
0.0
  3
*B17
  1

  0
LINE
  5
1F4
100
AcDbEntity
  8
0
  6
Continuous
 62
     0
100
AcDbLine
 10
202.579256
 20
218.438076
 30
0.0
 11
202.579256
 21
75.237946
 31
0.0
  0
SOLID
  5
1F5
100
AcDbEntity
  8
0
  6
Continuous
 62
     0
100
AcDbTrace
 10
203.179161
 20
214.938064
 30
0.0
 11
202.579256
 21
218.438076
 31
0.0
 12
201.979351
 22
214.938064
 32
0.0
 13
201.979351
 23
214.938064
 33
0.0
  0
SOLID
  5
1F6
100
AcDbEntity
  8
0
  6
Continuous
 62
     0
100
AcDbTrace
 10
201.979351
 20
78.737958
 30
0.0
 11
202.579256
 21
75.237946
 31
0.0
 12
203.179161
 22
78.737958
 32
0.0
 13
203.179161
 23
78.737958
 33
0.0
  0
ENDBLK
  5
1F7
100
AcDbEntity
  8
0
100
AcDbBlockEnd
  0
BLOCK
  5
1FA
100
AcDbEntity
  8
0
100
AcDbBlockBegin
  2
*B18
 70
     0
 10
0.0
 20
0.0
 30
0.0
  3
*B18
  1

  0
LINE
  5
1FB
100
AcDbEntity
  8
0
  6
Continuous
 62
     0
100
AcDbLine
 10
84.58597
 20
82.23797
 30
0.0
 11
84.58597
 21
62.343387
 31
0.0
  0
SOLID
  5
1FC
100
AcDbEntity
  8
0
  6
Continuous
 62
     0
100
AcDbTrace
 10
83.985852
 20
78.737958
 30
0.0
 11
84.58597
 21
75.237946
 31
0.0
 12
85.185875
 22
78.737958
 32
0.0
 13
85.185875
 23
78.737958
 33
0.0
  0
SOLID
  5
1FD
100
AcDbEntity
  8
0
  6
Continuous
 62
     0
100
AcDbTrace
 10
85.185875
 20
69.738108
 30
0.0
 11
84.58597
 21
73.238121
 31
0.0
 12
83.985852
 22
69.738108
 32
0.0
 13
83.985852
 23
69.738108
 33
0.0
  0
ENDBLK
  5
1FE
100
AcDbEntity
  8
0
100
AcDbBlockEnd
  0
BLOCK
  5
201
100
AcDbEntity
  8
0
100
AcDbBlockBegin
  2
*B19
 70
     0
 10
0.0
 20
0.0
 30
0.0
  3
*B19
  1

  0
LINE
  5
202
100
AcDbEntity
  8
0
  6
Continuous
 62
     0
100
AcDbLine
 10
84.58597
 20
147.238019
 30
0.0
 11
84.58597
 21
171.238043
 31
0.0
  0
SOLID
  5
203
100
AcDbEntity
  8
0
  6
Continuous
 62
     0
100
AcDbTrace
 10
83.985852
 20
150.738031
 30
0.0
 11
84.58597
 21
147.238019
 31
0.0
 12
85.185875
 22
150.738031
 32
0.0
 13
85.185875
 23
150.738031
 33
0.0
  0
SOLID
  5
204
100
AcDbEntity
  8
0
  6
Continuous
 62
     0
100
AcDbTrace
 10
85.185875
 20
167.73803
 30
0.0
 11
84.58597
 21
171.238043
 31
0.0
 12
83.985852
 22
167.73803
 32
0.0
 13
83.985852
 23
167.73803
 33
0.0
  0
ENDBLK
  5
205
100
AcDbEntity
  8
0
100
AcDbBlockEnd
  0
BLOCK
  5
208
100
AcDbEntity
  8
0
100
AcDbBlockBegin
  2
*B20
 70
     0
 10
0.0
 20
0.0
 30
0.0
  3
*B20
  1

  0
LINE
  5
209
100
AcDbEntity
  8
0
  6
Continuous
 62
     0
100
AcDbLine
 10
84.58597
 20
171.238043
 30
0.0
 11
84.58597
 21
185.238092
 31
0.0
  0
SOLID
  5
20A
100
AcDbEntity
  8
0
  6
Continuous
 62
     0
100
AcDbTrace
 10
83.985852
 20
174.738055
 30
0.0
 11
84.58597
 21
171.238043
 31
0.0
 12
85.185875
 22
174.738055
 32
0.0
 13
85.185875
 23
174.738055
 33
0.0
  0
SOLID
  5
20B
100
AcDbEntity
  8
0
  6
Continuous
 62
     0
100
AcDbTrace
 10
85.185875
 20
181.73808
 30
0.0
 11
84.58597
 21
185.238092
 31
0.0
 12
83.985852
 22
181.73808
 32
0.0
 13
83.985852
 23
181.73808
 33
0.0
  0
ENDBLK
  5
20C
100
AcDbEntity
  8
0
100
AcDbBlockEnd
  0
BLOCK
  5
20F
100
AcDbEntity
  8
0
100
AcDbBlockBegin
  2
*B21
 70
     0
 10
0.0
 20
0.0
 30
0.0
  3
*B21
  1

  0
LINE
  5
210
100
AcDbEntity
  8
0
  6
Continuous
 62
     0
100
AcDbLine
 10
120.447501
 20
228.657705
 30
0.0
 11
164.444926
 21
228.657705
 31
0.0
  0
SOLID
  5
211
100
AcDbEntity
  8
0
  6
Continuous
 62
     0
100
AcDbTrace
 10
123.947301
 20
229.25761
 30
0.0
 11
120.447501
 21
228.657705
 31
0.0
 12
123.947301
 22
228.057587
 32
0.0
 13
123.947301
 23
228.057587
 33
0.0
  0
SOLID
  5
212
100
AcDbEntity
  8
0
  6
Continuous
 62
     0
100
AcDbTrace
 10
160.945126
 20
228.057587
 30
0.0
 11
164.444926
 21
228.657705
 31
0.0
 12
160.945126
 22
229.25761
 32
0.0
 13
160.945126
 23
229.25761
 33
0.0
  0
ENDBLK
  5
213
100
AcDbEntity
  8
0
100
AcDbBlockEnd
  0
BLOCK
  5
216
100
AcDbEntity
  8
0
100
AcDbBlockBegin
  2
*B22
 70
     0
 10
0.0
 20
0.0
 30
0.0
  3
*B22
  1

  0
LINE
  5
217
100
AcDbEntity
  8
0
  6
Continuous
 62
     0
100
AcDbLine
 10
16.017294
 20
111.488013
 30
0.0
 11
16.017294
 21
158.996922
 31
0.0
  0
SOLID
  5
218
100
AcDbEntity
  8
0
  6
Continuous
 62
     0
100
AcDbTrace
 10
16.617199
 20
114.988026
 30
0.0
 11
16.017294
 21
118.488038
 31
0.0
 12
15.417389
 22
114.988026
 32
0.0
 13
15.417389
 23
114.988026
 33
0.0
  0
SOLID
  5
219
100
AcDbEntity
  8
0
  6
Continuous
 62
     0
100
AcDbTrace
 10
15.417389
 20
139.488112
 30
0.0
 11
16.017294
 21
135.9881
 31
0.0
 12
16.617199
 22
139.488112
 32
0.0
 13
16.617199
 23
139.488112
 33
0.0
  0
ENDBLK
  5
21A
100
AcDbEntity
  8
0
100
AcDbBlockEnd
  0
BLOCK
  5
21D
100
AcDbEntity
  8
0
100
AcDbBlockBegin
  2
*B23
 70
     0
 10
0.0
 20
0.0
 30
0.0
  3
*B23
  1

  0
LINE
  5
21E
100
AcDbEntity
  8
0
  6
Continuous
 62
     0
100
AcDbLine
 10
63.796839
 20
50.657772
 30
0.0
 11
31.79879
 21
50.657772
 31
0.0
  0
SOLID
  5
21F
100
AcDbEntity
  8
0
  6
Continuous
 62
     0
100
AcDbTrace
 10
60.297039
 20
50.057655
 30
0.0
 11
63.796839
 21
50.657772
 31
0.0
 12
60.297039
 22
51.257677
 32
0.0
 13
60.297039
 23
51.257677
 33
0.0
  0
SOLID
  5
220
100
AcDbEntity
  8
0
  6
Continuous
 62
     0
100
AcDbTrace
 10
35.298589
 20
51.257677
 30
0.0
 11
31.79879
 21
50.657772
 31
0.0
 12
35.298589
 22
50.057655
 32
0.0
 13
35.298589
 23
50.057655
 33
0.0
  0
ENDBLK
  5
221
100
AcDbEntity
  8
0
100
AcDbBlockEnd
  0
BLOCK
  5
224
100
AcDbEntity
  8
0
100
AcDbBlockBegin
  2
*B24
 70
     0
 10
0.0
 20
0.0
 30
0.0
  3
*B24
  1

  0
LINE
  5
225
100
AcDbEntity
  8
0
  6
Continuous
 62
     0
100
AcDbLine
 10
172.444651
 20
50.657772
 30
0.0
 11
112.447989
 21
50.657772
 31
0.0
  0
SOLID
  5
226
100
AcDbEntity
  8
0
  6
Continuous
 62
     0
100
AcDbTrace
 10
168.944851
 20
50.057655
 30
0.0
 11
172.444651
 21
50.657772
 31
0.0
 12
168.944851
 22
51.257677
 32
0.0
 13
168.944851
 23
51.257677
 33
0.0
  0
SOLID
  5
227
100
AcDbEntity
  8
0
  6
Continuous
 62
     0
100
AcDbTrace
 10
115.947789
 20
51.257677
 30
0.0
 11
112.447989
 21
50.657772
 31
0.0
 12
115.947789
 22
50.057655
 32
0.0
 13
115.947789
 23
50.057655
 33
0.0
  0
ENDBLK
  5
228
100
AcDbEntity
  8
0
100
AcDbBlockEnd
  0
BLOCK
  5
22B
100
AcDbEntity
  8
0
100
AcDbBlockBegin
  2
*B25
 70
     0
 10
0.0
 20
0.0
 30
0.0
  3
*B25
  1

  0
LINE
  5
22C
100
AcDbEntity
  8
0
  6
Continuous
 62
     0
100
AcDbLine
 10
31.79879
 20
193.657581
 30
0.0
 11
63.796839
 21
193.657581
 31
0.0
  0
SOLID
  5
22D
100
AcDbEntity
  8
0
  6
Continuous
 62
     0
100
AcDbTrace
 10
35.298589
 20
194.257698
 30
0.0
 11
31.79879
 21
193.657581
 31
0.0
 12
35.298589
 22
193.057676
 32
0.0
 13
35.298589
 23
193.057676
 33
0.0
  0
SOLID
  5
22E
100
AcDbEntity
  8
0
  6
Continuous
 62
     0
100
AcDbTrace
 10
60.297039
 20
193.057676
 30
0.0
 11
63.796839
 21
193.657581
 31
0.0
 12
60.297039
 22
194.257698
 32
0.0
 13
60.297039
 23
194.257698
 33
0.0
  0
ENDBLK
  5
22F
100
AcDbEntity
  8
0
100
AcDbBlockEnd
  0
BLOCK
  5
232
100
AcDbEntity
  8
0
100
AcDbBlockBegin
  2
*B26
 70
     0
 10
0.0
 20
0.0
 30
0.0
  3
*B26
  1

  0
LINE
  5
233
100
AcDbEntity
  8
0
  6
Continuous
 62
     0
100
AcDbLine
 10
158.445238
 20
61.65766
 30
0.0
 11
126.447189
 21
61.65766
 31
0.0
  0
SOLID
  5
234
100
AcDbEntity
  8
0
  6
Continuous
 62
     0
100
AcDbTrace
 10
154.945438
 20
61.057755
 30
0.0
 11
158.445238
 21
61.65766
 31
0.0
 12
154.945438
 22
62.257565
 32
0.0
 13
154.945438
 23
62.257565
 33
0.0
  0
SOLID
  5
235
100
AcDbEntity
  8
0
  6
Continuous
 62
     0
100
AcDbTrace
 10
129.946989
 20
62.257565
 30
0.0
 11
126.447189
 21
61.65766
 31
0.0
 12
129.946989
 22
61.057755
 32
0.0
 13
129.946989
 23
61.057755
 33
0.0
  0
ENDBLK
  5
236
100
AcDbEntity
  8
0
100
AcDbBlockEnd
  0
BLOCK
  5
239
100
AcDbEntity
  8
0
100
AcDbBlockBegin
  2
*B27
 70
     0
 10
0.0
 20
0.0
 30
0.0
  3
*B27
  1

  0
LINE
  5
23A
100
AcDbEntity
  8
0
  6
Continuous
 62
     0
100
AcDbLine
 10
188.580056
 20
205.996845
 30
0.0
 11
188.580056
 21
168.238093
 31
0.0
  0
SOLID
  5
23B
100
AcDbEntity
  8
0
  6
Continuous
 62
     0
100
AcDbTrace
 10
187.980151
 20
188.738105
 30
0.0
 11
188.580056
 21
185.238092
 31
0.0
 12
189.179961
 22
188.738105
 32
0.0
 13
189.179961
 23
188.738105
 33
0.0
  0
SOLID
  5
23C
100
AcDbEntity
  8
0
  6
Continuous
 62
     0
100
AcDbTrace
 10
189.179961
 20
171.738105
 30
0.0
 11
188.580056
 21
175.238118
 31
0.0
 12
187.980151
 22
171.738105
 32
0.0
 13
187.980151
 23
171.738105
 33
0.0
  0
ENDBLK
  5
23D
100
AcDbEntity
  8
0
100
AcDbBlockEnd
  0
BLOCK
  5
240
100
AcDbEntity
  8
0
100
AcDbBlockBegin
  2
*B28
 70
     0
 10
0.0
 20
0.0
 30
0.0
  3
*B28
  1

  0
LINE
  5
241
100
AcDbEntity
  8
0
  6
Continuous
 62
     8
100
AcDbLine
 10
164.444926
 20
214.903013
 30
0.0
 11
164.444926
 21
230.65753
 31
0.0
  0
ENDBLK
  5
242
100
AcDbEntity
  8
0
100
AcDbBlockEnd
  0
BLOCK
  5
245
100
AcDbEntity
  8
0
100
AcDbBlockBegin
  2
*B29
 70
     0
 10
0.0
 20
0.0
 30
0.0
  3
*B29
  1

  0
LINE
  5
246
100
AcDbEntity
  8
0
  6
Continuous
 62
     8
100
AcDbLine
 10
47.797814
 20
70.237958
 30
0.0
 11
47.797814
 21
76.071312
 31
0.0
  0
LINE
  5
247
100
AcDbEntity
  8
0
  6
Continuous
 62
     8
100
AcDbLine
 10
47.797814
 20
77.071437
 30
0.0
 11
47.797814
 21
78.07135
 31
0.0
  0
LINE
  5
248
100
AcDbEntity
  8
0
  6
Continuous
 62
     8
100
AcDbLine
 10
47.797814
 20
79.071475
 30
0.0
 11
47.797814
 21
84.904616
 31
0.0
  0
LINE
  5
249
100
AcDbEntity
  8
0
  6
Continuous
 62
     8
100
AcDbLine
 10
47.797814
 20
85.904741
 30
0.0
 11
47.797814
 21
86.904654
 31
0.0
  0
LINE
  5
24A
100
AcDbEntity
  8
0
  6
Continuous
 62
     8
100
AcDbLine
 10
47.797814
 20
87.904778
 30
0.0
 11
47.797814
 21
93.738132
 31
0.0
  0
LINE
  5
24B
100
AcDbEntity
  8
0
  6
Continuous
 62
     8
100
AcDbLine
 10
47.797814
 20
96.738082
 30
0.0
 11
47.797814
 21
101.73807
 31
0.0
  0
LINE
  5
24C
100
AcDbEntity
  8
0
  6
Continuous
 62
     8
100
AcDbLine
 10
47.797814
 20
102.737982
 30
0.0
 11
47.797814
 21
103.738107
 31
0.0
  0
LINE
  5
24D
100
AcDbEntity
  8
0
  6
Continuous
 62
     8
100
AcDbLine
 10
47.797814
 20
104.73802
 30
0.0
 11
47.797814
 21
109.738007
 31
0.0
  0
LINE
  5
24E
100
AcDbEntity
  8
0
  6
Continuous
 62
     8
100
AcDbLine
 10
47.797814
 20
110.738132
 30
0.0
 11
47.797814
 21
111.738045
 31
0.0
  0
LINE
  5
24F
100
AcDbEntity
  8
0
  6
Continuous
 62
     8
100
AcDbLine
 10
47.797814
 20
112.737957
 30
0.0
 11
47.797814
 21
117.737944
 31
0.0
  0
LINE
  5
250
100
AcDbEntity
  8
0
  6
Continuous
 62
     8
100
AcDbLine
 10
47.797814
 20
118.738069
 30
0.0
 11
47.797814
 21
119.737982
 31
0.0
  0
LINE
  5
251
100
AcDbEntity
  8
0
  6
Continuous
 62
     8
100
AcDbLine
 10
47.797814
 20
120.738107
 30
0.0
 11
47.797814
 21
125.738094
 31
0.0
  0
LINE
  5
252
100
AcDbEntity
  8
0
  6
Continuous
 62
     8
100
AcDbLine
 10
47.797814
 20
128.738044
 30
0.0
 11
47.797814
 21
134.201768
 31
0.0
  0
LINE
  5
253
100
AcDbEntity
  8
0
  6
Continuous
 62
     8
100
AcDbLine
 10
47.797814
 20
135.201893
 30
0.0
 11
47.797814
 21
136.201806
 31
0.0
  0
LINE
  5
254
100
AcDbEntity
  8
0
  6
Continuous
 62
     8
100
AcDbLine
 10
47.797814
 20
137.201931
 30
0.0
 11
47.797814
 21
142.665655
 31
0.0
  0
LINE
  5
255
100
AcDbEntity
  8
0
  6
Continuous
 62
     8
100
AcDbLine
 10
47.797814
 20
143.665567
 30
0.0
 11
47.797814
 21
144.665692
 31
0.0
  0
LINE
  5
256
100
AcDbEntity
  8
0
  6
Continuous
 62
     8
100
AcDbLine
 10
47.797814
 20
145.665605
 30
0.0
 11
47.797814
 21
151.129541
 31
0.0
  0
LINE
  5
257
100
AcDbEntity
  8
0
  6
Continuous
 62
     8
100
AcDbLine
 10
47.797814
 20
152.129454
 30
0.0
 11
47.797814
 21
153.129366
 31
0.0
  0
LINE
  5
258
100
AcDbEntity
  8
0
  6
Continuous
 62
     8
100
AcDbLine
 10
47.797814
 20
154.129491
 30
0.0
 11
47.797814
 21
159.593215
 31
0.0
  0
LINE
  5
259
100
AcDbEntity
  8
0
  6
Continuous
 62
     8
100
AcDbLine
 10
47.797814
 20
160.59334
 30
0.0
 11
47.797814
 21
161.593253
 31
0.0
  0
LINE
  5
25A
100
AcDbEntity
  8
0
  6
Continuous
 62
     8
100
AcDbLine
 10
47.797814
 20
162.593165
 30
0.0
 11
47.797814
 21
168.057102
 31
0.0
  0
LINE
  5
25B
100
AcDbEntity
  8
0
  6
Continuous
 62
     8
100
AcDbLine
 10
47.797814
 20
169.057014
 30
0.0
 11
47.797814
 21
170.057139
 31
0.0
  0
LINE
  5
25C
100
AcDbEntity
  8
0
  6
Continuous
 62
     8
100
AcDbLine
 10
47.797814
 20
171.057052
 30
0.0
 11
47.797814
 21
176.520776
 31
0.0
  0
LINE
  5
25D
100
AcDbEntity
  8
0
  6
Continuous
 62
     8
100
AcDbLine
 10
47.797814
 20
177.520901
 30
0.0
 11
47.797814
 21
178.520813
 31
0.0
  0
LINE
  5
25E
100
AcDbEntity
  8
0
  6
Continuous
 62
     8
100
AcDbLine
 10
47.797814
 20
179.520938
 30
0.0
 11
47.797814
 21
184.984662
 31
0.0
  0
LINE
  5
25F
100
AcDbEntity
  8
0
  6
Continuous
 62
     8
100
AcDbLine
 10
47.797814
 20
185.984575
 30
0.0
 11
47.797814
 21
186.9847
 31
0.0
  0
LINE
  5
260
100
AcDbEntity
  8
0
  6
Continuous
 62
     8
100
AcDbLine
 10
47.797814
 20
187.984612
 30
0.0
 11
47.797814
 21
193.448549
 31
0.0
  0
LINE
  5
261
100
AcDbEntity
  8
0
  6
Continuous
 62
     8
100
AcDbLine
 10
47.797814
 20
194.448461
 30
0.0
 11
47.797814
 21
195.448374
 31
0.0
  0
LINE
  5
262
100
AcDbEntity
  8
0
  6
Continuous
 62
     8
100
AcDbLine
 10
47.797814
 20
196.448499
 30
0.0
 11
47.797814
 21
201.912223
 31
0.0
  0
LINE
  5
263
100
AcDbEntity
  8
0
  6
Continuous
 62
     8
100
AcDbLine
 10
47.797814
 20
202.912348
 30
0.0
 11
47.797814
 21
203.91226
 31
0.0
  0
LINE
  5
264
100
AcDbEntity
  8
0
  6
Continuous
 62
     8
100
AcDbLine
 10
47.797814
 20
204.912173
 30
0.0
 11
47.797814
 21
210.376109
 31
0.0
  0
LINE
  5
265
100
AcDbEntity
  8
0
  6
Continuous
 62
     8
100
AcDbLine
 10
47.797814
 20
211.376022
 30
0.0
 11
47.797814
 21
212.376147
 31
0.0
  0
LINE
  5
266
100
AcDbEntity
  8
0
  6
Continuous
 62
     8
100
AcDbLine
 10
47.797814
 20
213.376059
 30
0.0
 11
47.797814
 21
218.839783
 31
0.0
  0
ENDBLK
  5
267
100
AcDbEntity
  8
0
100
AcDbBlockEnd
  0
BLOCK
  5
26A
100
AcDbEntity
  8
0
100
AcDbBlockBegin
  2
*B30
 70
     0
 10
0.0
 20
0.0
 30
0.0
  3
*B30
  1

  0
LINE
  5
26B
100
AcDbEntity
  8
0
  6
Continuous
 62
     8
100
AcDbLine
 10
96.585132
 20
111.237982
 30
0.0
 11
100.584995
 21
111.237982
 31
0.0
  0
LINE
  5
26C
100
AcDbEntity
  8
0
  6
Continuous
 62
     8
100
AcDbLine
 10
100.584995
 20
111.237982
 30
0.0
 11
106.065288
 21
111.237982
 31
0.0
  0
LINE
  5
26D
100
AcDbEntity
  8
0
  6
Continuous
 62
     8
100
AcDbLine
 10
107.065201
 20
111.237982
 30
0.0
 11
108.065113
 21
111.237982
 31
0.0
  0
LINE
  5
26E
100
AcDbEntity
  8
0
  6
Continuous
 62
     8
100
AcDbLine
 10
109.065026
 20
111.237982
 30
0.0
 11
114.54532
 21
111.237982
 31
0.0
  0
LINE
  5
26F
100
AcDbEntity
  8
0
  6
Continuous
 62
     8
100
AcDbLine
 10
115.545232
 20
111.237982
 30
0.0
 11
116.545145
 21
111.237982
 31
0.0
  0
LINE
  5
270
100
AcDbEntity
  8
0
  6
Continuous
 62
     8
100
AcDbLine
 10
117.545057
 20
111.237982
 30
0.0
 11
123.025351
 21
111.237982
 31
0.0
  0
LINE
  5
271
100
AcDbEntity
  8
0
  6
Continuous
 62
     8
100
AcDbLine
 10
124.025263
 20
111.237982
 30
0.0
 11
125.025176
 21
111.237982
 31
0.0
  0
LINE
  5
272
100
AcDbEntity
  8
0
  6
Continuous
 62
     8
100
AcDbLine
 10
126.025088
 20
111.237982
 30
0.0
 11
131.505382
 21
111.237982
 31
0.0
  0
LINE
  5
273
100
AcDbEntity
  8
0
  6
Continuous
 62
     8
100
AcDbLine
 10
132.505295
 20
111.237982
 30
0.0
 11
133.505207
 21
111.237982
 31
0.0
  0
LINE
  5
274
100
AcDbEntity
  8
0
  6
Continuous
 62
     8
100
AcDbLine
 10
134.50512
 20
111.237982
 30
0.0
 11
139.985413
 21
111.237982
 31
0.0
  0
LINE
  5
275
100
AcDbEntity
  8
0
  6
Continuous
 62
     8
100
AcDbLine
 10
140.985326
 20
111.237982
 30
0.0
 11
141.985238
 21
111.237982
 31
0.0
  0
LINE
  5
276
100
AcDbEntity
  8
0
  6
Continuous
 62
     8
100
AcDbLine
 10
142.985151
 20
111.237982
 30
0.0
 11
148.465445
 21
111.237982
 31
0.0
  0
LINE
  5
277
100
AcDbEntity
  8
0
  6
Continuous
 62
     8
100
AcDbLine
 10
149.465357
 20
111.237982
 30
0.0
 11
150.46527
 21
111.237982
 31
0.0
  0
LINE
  5
278
100
AcDbEntity
  8
0
  6
Continuous
 62
     8
100
AcDbLine
 10
151.465182
 20
111.237982
 30
0.0
 11
156.945476
 21
111.237982
 31
0.0
  0
LINE
  5
279
100
AcDbEntity
  8
0
  6
Continuous
 62
     8
100
AcDbLine
 10
159.945213
 20
111.237982
 30
0.0
 11
165.944901
 21
111.237982
 31
0.0
  0
ENDBLK
  5
27A
100
AcDbEntity
  8
0
100
AcDbBlockEnd
  0
BLOCK
  5
27D
100
AcDbEntity
  8
0
100
AcDbBlockBegin
  2
*B31
 70
     0
 10
0.0
 20
0.0
 30
0.0
  3
*B31
  1

  0
LINE
  5
27E
100
AcDbEntity
  8
0
  6
Continuous
 62
     8
100
AcDbLine
 10
112.447989
 20
48.657735
 30
0.0
 11
112.447989
 21
74.238033
 31
0.0
  0
ENDBLK
  5
27F
100
AcDbEntity
  8
0
100
AcDbBlockEnd
  0
BLOCK
  5
282
100
AcDbEntity
  8
0
100
AcDbBlockBegin
  2
*B32
 70
     0
 10
0.0
 20
0.0
 30
0.0
  3
*B32
  1

  0
LINE
  5
283
100
AcDbEntity
  8
0
  6
Continuous
 62
     8
100
AcDbLine
 10
14.017469
 20
135.9881
 30
0.0
 11
46.797902
 21
135.9881
 31
0.0
  0
ENDBLK
  5
284
100
AcDbEntity
  8
0
100
AcDbBlockEnd
  0
BLOCK
  5
287
100
AcDbEntity
  8
0
100
AcDbBlockBegin
  2
*B33
 70
     0
 10
0.0
 20
0.0
 30
0.0
  3
*B33
  1

  0
LINE
  5
288
100
AcDbEntity
  8
0
  6
Continuous
 62
     8
100
AcDbLine
 10
82.585932
 20
171.238043
 30
0.0
 11
127.436904
 21
171.238043
 31
0.0
  0
ENDBLK
  5
289
100
AcDbEntity
  8
0
100
AcDbBlockEnd
  0
BLOCK
  5
28C
100
AcDbEntity
  8
0
100
AcDbBlockBegin
  2
*B34
 70
     0
 10
0.0
 20
0.0
 30
0.0
  3
*B34
  1

  0
LINE
  5
28D
100
AcDbEntity
  8
0
  6
Continuous
 62
     8
100
AcDbLine
 10
142.446213
 20
70.237958
 30
0.0
 11
142.446213
 21
75.217127
 31
0.0
  0
LINE
  5
28E
100
AcDbEntity
  8
0
  6
Continuous
 62
     8
100
AcDbLine
 10
142.446213
 20
76.21704
 30
0.0
 11
142.446213
 21
77.217165
 31
0.0
  0
LINE
  5
28F
100
AcDbEntity
  8
0
  6
Continuous
 62
     8
100
AcDbLine
 10
142.446213
 20
78.217077
 30
0.0
 11
142.446213
 21
83.196034
 31
0.0
  0
LINE
  5
290
100
AcDbEntity
  8
0
  6
Continuous
 62
     8
100
AcDbLine
 10
142.446213
 20
84.196159
 30
0.0
 11
142.446213
 21
85.196071
 31
0.0
  0
LINE
  5
291
100
AcDbEntity
  8
0
  6
Continuous
 62
     8
100
AcDbLine
 10
142.446213
 20
86.196196
 30
0.0
 11
142.446213
 21
91.175153
 31
0.0
  0
LINE
  5
292
100
AcDbEntity
  8
0
  6
Continuous
 62
     8
100
AcDbLine
 10
142.446213
 20
92.175278
 30
0.0
 11
142.446213
 21
93.17519
 31
0.0
  0
LINE
  5
293
100
AcDbEntity
  8
0
  6
Continuous
 62
     8
100
AcDbLine
 10
142.446213
 20
94.175103
 30
0.0
 11
142.446213
 21
99.154272
 31
0.0
  0
LINE
  5
294
100
AcDbEntity
  8
0
  6
Continuous
 62
     8
100
AcDbLine
 10
142.446213
 20
100.154185
 30
0.0
 11
142.446213
 21
101.15431
 31
0.0
  0
LINE
  5
295
100
AcDbEntity
  8
0
  6
Continuous
 62
     8
100
AcDbLine
 10
142.446213
 20
102.154222
 30
0.0
 11
142.446213
 21
107.133179
 31
0.0
  0
LINE
  5
296
100
AcDbEntity
  8
0
  6
Continuous
 62
     8
100
AcDbLine
 10
142.446213
 20
108.133304
 30
0.0
 11
142.446213
 21
109.133216
 31
0.0
  0
LINE
  5
297
100
AcDbEntity
  8
0
  6
Continuous
 62
     8
100
AcDbLine
 10
142.446213
 20
110.133341
 30
0.0
 11
142.446213
 21
115.112298
 31
0.0
  0
LINE
  5
298
100
AcDbEntity
  8
0
  6
Continuous
 62
     8
100
AcDbLine
 10
142.446213
 20
116.112423
 30
0.0
 11
142.446213
 21
117.112335
 31
0.0
  0
LINE
  5
299
100
AcDbEntity
  8
0
  6
Continuous
 62
     8
100
AcDbLine
 10
142.446213
 20
118.112248
 30
0.0
 11
142.446213
 21
123.091417
 31
0.0
  0
LINE
  5
29A
100
AcDbEntity
  8
0
  6
Continuous
 62
     8
100
AcDbLine
 10
142.446213
 20
124.091329
 30
0.0
 11
142.446213
 21
125.091242
 31
0.0
  0
LINE
  5
29B
100
AcDbEntity
  8
0
  6
Continuous
 62
     8
100
AcDbLine
 10
142.446213
 20
126.091367
 30
0.0
 11
142.446213
 21
131.070323
 31
0.0
  0
LINE
  5
29C
100
AcDbEntity
  8
0
  6
Continuous
 62
     8
100
AcDbLine
 10
142.446213
 20
132.070448
 30
0.0
 11
142.446213
 21
133.070361
 31
0.0
  0
LINE
  5
29D
100
AcDbEntity
  8
0
  6
Continuous
 62
     8
100
AcDbLine
 10
142.446213
 20
134.070486
 30
0.0
 11
142.446213
 21
139.049443
 31
0.0
  0
LINE
  5
29E
100
AcDbEntity
  8
0
  6
Continuous
 62
     8
100
AcDbLine
 10
142.446213
 20
140.049355
 30
0.0
 11
142.446213
 21
141.04948
 31
0.0
  0
LINE
  5
29F
100
AcDbEntity
  8
0
  6
Continuous
 62
     8
100
AcDbLine
 10
142.446213
 20
142.049392
 30
0.0
 11
142.446213
 21
147.028562
 31
0.0
  0
LINE
  5
2A0
100
AcDbEntity
  8
0
  6
Continuous
 62
     8
100
AcDbLine
 10
142.446213
 20
148.028474
 30
0.0
 11
142.446213
 21
149.028387
 31
0.0
  0
LINE
  5
2A1
100
AcDbEntity
  8
0
  6
Continuous
 62
     8
100
AcDbLine
 10
142.446213
 20
150.028512
 30
0.0
 11
142.446213
 21
155.007468
 31
0.0
  0
LINE
  5
2A2
100
AcDbEntity
  8
0
  6
Continuous
 62
     8
100
AcDbLine
 10
142.446213
 20
156.007593
 30
0.0
 11
142.446213
 21
157.007506
 31
0.0
  0
LINE
  5
2A3
100
AcDbEntity
  8
0
  6
Continuous
 62
     8
100
AcDbLine
 10
142.446213
 20
158.007418
 30
0.0
 11
142.446213
 21
162.986587
 31
0.0
  0
LINE
  5
2A4
100
AcDbEntity
  8
0
  6
Continuous
 62
     8
100
AcDbLine
 10
142.446213
 20
163.9865
 30
0.0
 11
142.446213
 21
164.986625
 31
0.0
  0
LINE
  5
2A5
100
AcDbEntity
  8
0
  6
Continuous
 62
     8
100
AcDbLine
 10
142.446213
 20
165.986537
 30
0.0
 11
142.446213
 21
170.965706
 31
0.0
  0
LINE
  5
2A6
100
AcDbEntity
  8
0
  6
Continuous
 62
     8
100
AcDbLine
 10
142.446213
 20
171.965619
 30
0.0
 11
142.446213
 21
172.965531
 31
0.0
  0
LINE
  5
2A7
100
AcDbEntity
  8
0
  6
Continuous
 62
     8
100
AcDbLine
 10
142.446213
 20
173.965656
 30
0.0
 11
142.446213
 21
178.944613
 31
0.0
  0
LINE
  5
2A8
100
AcDbEntity
  8
0
  6
Continuous
 62
     8
100
AcDbLine
 10
142.446213
 20
179.944738
 30
0.0
 11
142.446213
 21
180.94465
 31
0.0
  0
LINE
  5
2A9
100
AcDbEntity
  8
0
  6
Continuous
 62
     8
100
AcDbLine
 10
142.446213
 20
181.944563
 30
0.0
 11
142.446213
 21
186.923732
 31
0.0
  0
LINE
  5
2AA
100
AcDbEntity
  8
0
  6
Continuous
 62
     8
100
AcDbLine
 10
142.446213
 20
187.923645
 30
0.0
 11
142.446213
 21
188.923769
 31
0.0
  0
LINE
  5
2AB
100
AcDbEntity
  8
0
  6
Continuous
 62
     8
100
AcDbLine
 10
142.446213
 20
189.923682
 30
0.0
 11
142.446213
 21
194.902639
 31
0.0
  0
LINE
  5
2AC
100
AcDbEntity
  8
0
  6
Continuous
 62
     8
100
AcDbLine
 10
142.446213
 20
195.902764
 30
0.0
 11
142.446213
 21
196.902676
 31
0.0
  0
LINE
  5
2AD
100
AcDbEntity
  8
0
  6
Continuous
 62
     8
100
AcDbLine
 10
142.446213
 20
197.902801
 30
0.0
 11
142.446213
 21
202.881758
 31
0.0
  0
LINE
  5
2AE
100
AcDbEntity
  8
0
  6
Continuous
 62
     8
100
AcDbLine
 10
142.446213
 20
203.881883
 30
0.0
 11
142.446213
 21
204.881795
 31
0.0
  0
LINE
  5
2AF
100
AcDbEntity
  8
0
  6
Continuous
 62
     8
100
AcDbLine
 10
142.446213
 20
205.881708
 30
0.0
 11
142.446213
 21
210.860877
 31
0.0
  0
LINE
  5
2B0
100
AcDbEntity
  8
0
  6
Continuous
 62
     8
100
AcDbLine
 10
142.446213
 20
211.860789
 30
0.0
 11
142.446213
 21
212.860914
 31
0.0
  0
LINE
  5
2B1
100
AcDbEntity
  8
0
  6
Continuous
 62
     8
100
AcDbLine
 10
142.446213
 20
213.860827
 30
0.0
 11
142.446213
 21
218.839783
 31
0.0
  0
ENDBLK
  5
2B2
100
AcDbEntity
  8
0
100
AcDbBlockEnd
  0
BLOCK
  5
2B5
100
AcDbEntity
  8
0
100
AcDbBlockBegin
  2
*B35
 70
     0
 10
0.0
 20
0.0
 30
0.0
  3
*B35
  1

  0
LINE
  5
2B6
100
AcDbEntity
  8
0
  6
Continuous
 62
     8
100
AcDbLine
 10
172.444651
 20
48.657735
 30
0.0
 11
172.444651
 21
74.238033
 31
0.0
  0
ENDBLK
  5
2B7
100
AcDbEntity
  8
0
100
AcDbBlockEnd
  0
BLOCK
  5
2BA
100
AcDbEntity
  8
0
100
AcDbBlockBegin
  2
*B36
 70
     0
 10
0.0
 20
0.0
 30
0.0
  3
*B36
  1

  0
LINE
  5
2BB
100
AcDbEntity
  8
0
  6
Continuous
 62
     8
100
AcDbLine
 10
120.447501
 20
214.903013
 30
0.0
 11
120.447501
 21
230.65753
 31
0.0
  0
ENDBLK
  5
2BC
100
AcDbEntity
  8
0
100
AcDbBlockEnd
  0
BLOCK
  5
2BF
100
AcDbEntity
  8
0
100
AcDbBlockBegin
  2
*B37
 70
     0
 10
0.0
 20
0.0
 30
0.0
  3
*B37
  1

  0
LINE
  5
2C0
100
AcDbEntity
  8
0
  6
Continuous
 62
     8
100
AcDbLine
 10
63.796839
 20
48.657735
 30
0.0
 11
63.796839
 21
74.238033
 31
0.0
  0
LINE
  5
2C1
100
AcDbEntity
  8
0
  6
Continuous
 62
     8
100
AcDbLine
 10
63.796839
 20
170.23813
 30
0.0
 11
63.796839
 21
195.657618
 31
0.0
  0
ENDBLK
  5
2C2
100
AcDbEntity
  8
0
100
AcDbBlockEnd
  0
BLOCK
  5
2C5
100
AcDbEntity
  8
0
100
AcDbBlockBegin
  2
*B38
 70
     0
 10
0.0
 20
0.0
 30
0.0
  3
*B38
  1

  0
LINE
  5
2C6
100
AcDbEntity
  8
0
  6
Continuous
 62
     8
100
AcDbLine
 10
143.446126
 20
218.438076
 30
0.0
 11
204.579081
 21
218.438076
 31
0.0
  0
ENDBLK
  5
2C7
100
AcDbEntity
  8
0
100
AcDbBlockEnd
  0
BLOCK
  5
2CA
100
AcDbEntity
  8
0
100
AcDbBlockBegin
  2
*B39
 70
     0
 10
0.0
 20
0.0
 30
0.0
  3
*B39
  1

  0
LINE
  5
2CB
100
AcDbEntity
  8
0
  6
Continuous
 62
     8
100
AcDbLine
 10
36.048471
 20
127.238069
 30
0.0
 11
46.297839
 21
127.238069
 31
0.0
  0
LINE
  5
2CC
100
AcDbEntity
  8
0
  6
Continuous
 62
     8
100
AcDbLine
 10
49.297789
 20
127.238069
 30
0.0
 11
59.547158
 21
127.238069
 31
0.0
  0
ENDBLK
  5
2CD
100
AcDbEntity
  8
0
100
AcDbBlockEnd
  0
BLOCK
  5
2D0
100
AcDbEntity
  8
0
100
AcDbBlockBegin
  2
*B40
 70
     0
 10
0.0
 20
0.0
 30
0.0
  3
*B40
  1

  0
LINE
  5
2D1
100
AcDbEntity
  8
0
  6
Continuous
 62
     8
100
AcDbLine
 10
186.580231
 20
127.238069
 30
0.0
 11
190.579881
 21
127.238069
 31
0.0
  0
LINE
  5
2D2
100
AcDbEntity
  8
0
  6
Continuous
 62
     8
100
AcDbLine
 10
118.947526
 20
127.238069
 30
0.0
 11
124.947214
 21
127.238069
 31
0.0
  0
LINE
  5
2D3
100
AcDbEntity
  8
0
  6
Continuous
 62
     8
100
AcDbLine
 10
127.947164
 20
127.238069
 30
0.0
 11
133.751839
 21
127.238069
 31
0.0
  0
LINE
  5
2D4
100
AcDbEntity
  8
0
  6
Continuous
 62
     8
100
AcDbLine
 10
134.751964
 20
127.238069
 30
0.0
 11
135.751877
 21
127.238069
 31
0.0
  0
LINE
  5
2D5
100
AcDbEntity
  8
0
  6
Continuous
 62
     8
100
AcDbLine
 10
136.751789
 20
127.238069
 30
0.0
 11
142.556678
 21
127.238069
 31
0.0
  0
LINE
  5
2D6
100
AcDbEntity
  8
0
  6
Continuous
 62
     8
100
AcDbLine
 10
143.55659
 20
127.238069
 30
0.0
 11
144.556503
 21
127.238069
 31
0.0
  0
LINE
  5
2D7
100
AcDbEntity
  8
0
  6
Continuous
 62
     8
100
AcDbLine
 10
145.556415
 20
127.238069
 30
0.0
 11
151.361303
 21
127.238069
 31
0.0
  0
LINE
  5
2D8
100
AcDbEntity
  8
0
  6
Continuous
 62
     8
100
AcDbLine
 10
152.361216
 20
127.238069
 30
0.0
 11
153.361128
 21
127.238069
 31
0.0
  0
LINE
  5
2D9
100
AcDbEntity
  8
0
  6
Continuous
 62
     8
100
AcDbLine
 10
154.361253
 20
127.238069
 30
0.0
 11
160.165929
 21
127.238069
 31
0.0
  0
LINE
  5
2DA
100
AcDbEntity
  8
0
  6
Continuous
 62
     8
100
AcDbLine
 10
161.166054
 20
127.238069
 30
0.0
 11
162.165967
 21
127.238069
 31
0.0
  0
LINE
  5
2DB
100
AcDbEntity
  8
0
  6
Continuous
 62
     8
100
AcDbLine
 10
163.165879
 20
127.238069
 30
0.0
 11
168.970767
 21
127.238069
 31
0.0
  0
LINE
  5
2DC
100
AcDbEntity
  8
0
  6
Continuous
 62
     8
100
AcDbLine
 10
169.97068
 20
127.238069
 30
0.0
 11
170.970592
 21
127.238069
 31
0.0
  0
LINE
  5
2DD
100
AcDbEntity
  8
0
  6
Continuous
 62
     8
100
AcDbLine
 10
171.970505
 20
127.238069
 30
0.0
 11
177.775393
 21
127.238069
 31
0.0
  0
LINE
  5
2DE
100
AcDbEntity
  8
0
  6
Continuous
 62
     8
100
AcDbLine
 10
178.775306
 20
127.238069
 30
0.0
 11
179.775218
 21
127.238069
 31
0.0
  0
LINE
  5
2DF
100
AcDbEntity
  8
0
  6
Continuous
 62
     8
100
AcDbLine
 10
180.775343
 20
127.238069
 30
0.0
 11
186.580231
 21
127.238069
 31
0.0
  0
ENDBLK
  5
2E0
100
AcDbEntity
  8
0
100
AcDbBlockEnd
  0
BLOCK
  5
2E3
100
AcDbEntity
  8
0
100
AcDbBlockBegin
  2
*B41
 70
     0
 10
0.0
 20
0.0
 30
0.0
  3
*B41
  1

  0
LINE
  5
2E4
100
AcDbEntity
  8
0
  6
Continuous
 62
     8
100
AcDbLine
 10
82.585932
 20
147.238019
 30
0.0
 11
111.448076
 21
147.238019
 31
0.0
  0
LINE
  5
2E5
100
AcDbEntity
  8
0
  6
Continuous
 62
     8
100
AcDbLine
 10
173.444563
 20
147.238019
 30
0.0
 11
190.579881
 21
147.238019
 31
0.0
  0
ENDBLK
  5
2E6
100
AcDbEntity
  8
0
100
AcDbBlockEnd
  0
BLOCK
  5
2E9
100
AcDbEntity
  8
0
100
AcDbBlockBegin
  2
*B42
 70
     0
 10
0.0
 20
0.0
 30
0.0
  3
*B42
  1

  0
LINE
  5
2EA
100
AcDbEntity
  8
0
  6
Continuous
 62
     8
100
AcDbLine
 10
31.79879
 20
48.657735
 30
0.0
 11
31.79879
 21
74.238033
 31
0.0
  0
LINE
  5
2EB
100
AcDbEntity
  8
0
  6
Continuous
 62
     8
100
AcDbLine
 10
31.79879
 20
170.237918
 30
0.0
 11
31.79879
 21
195.657618
 31
0.0
  0
ENDBLK
  5
2EC
100
AcDbEntity
  8
0
100
AcDbBlockEnd
  0
BLOCK
  5
2EF
100
AcDbEntity
  8
0
100
AcDbBlockBegin
  2
*B43
 70
     0
 10
0.0
 20
0.0
 30
0.0
  3
*B43
  1

  0
LINE
  5
2F0
100
AcDbEntity
  8
0
  6
Continuous
 62
     8
100
AcDbLine
 10
36.048471
 20
95.238107
 30
0.0
 11
46.297839
 21
95.238107
 31
0.0
  0
LINE
  5
2F1
100
AcDbEntity
  8
0
  6
Continuous
 62
     8
100
AcDbLine
 10
49.297789
 20
95.238107
 30
0.0
 11
59.547158
 21
95.238107
 31
0.0
  0
ENDBLK
  5
2F2
100
AcDbEntity
  8
0
100
AcDbBlockEnd
  0
BLOCK
  5
2F5
100
AcDbEntity
  8
0
100
AcDbBlockBegin
  2
*B44
 70
     0
 10
0.0
 20
0.0
 30
0.0
  3
*B44
  1

  0
LINE
  5
2F6
100
AcDbEntity
  8
0
  6
Continuous
 62
     8
100
AcDbLine
 10
158.445238
 20
59.657622
 30
0.0
 11
158.445238
 21
63.657697
 31
0.0
  0
LINE
  5
2F7
100
AcDbEntity
  8
0
  6
Continuous
 62
     8
100
AcDbLine
 10
158.445238
 20
63.657697
 30
0.0
 11
158.445238
 21
68.837826
 31
0.0
  0
LINE
  5
2F8
100
AcDbEntity
  8
0
  6
Continuous
 62
     8
100
AcDbLine
 10
158.445238
 20
69.837738
 30
0.0
 11
158.445238
 21
70.837651
 31
0.0
  0
LINE
  5
2F9
100
AcDbEntity
  8
0
  6
Continuous
 62
     8
100
AcDbLine
 10
158.445238
 20
71.837776
 30
0.0
 11
158.445238
 21
77.017692
 31
0.0
  0
LINE
  5
2FA
100
AcDbEntity
  8
0
  6
Continuous
 62
     8
100
AcDbLine
 10
158.445238
 20
78.017817
 30
0.0
 11
158.445238
 21
79.01773
 31
0.0
  0
LINE
  5
2FB
100
AcDbEntity
  8
0
  6
Continuous
 62
     8
100
AcDbLine
 10
158.445238
 20
80.017854
 30
0.0
 11
158.445238
 21
85.197771
 31
0.0
  0
LINE
  5
2FC
100
AcDbEntity
  8
0
  6
Continuous
 62
     8
100
AcDbLine
 10
158.445238
 20
86.197896
 30
0.0
 11
158.445238
 21
87.197808
 31
0.0
  0
LINE
  5
2FD
100
AcDbEntity
  8
0
  6
Continuous
 62
     8
100
AcDbLine
 10
158.445238
 20
88.197933
 30
0.0
 11
158.445238
 21
93.37785
 31
0.0
  0
LINE
  5
2FE
100
AcDbEntity
  8
0
  6
Continuous
 62
     8
100
AcDbLine
 10
158.445238
 20
94.377975
 30
0.0
 11
158.445238
 21
95.377887
 31
0.0
  0
LINE
  5
2FF
100
AcDbEntity
  8
0
  6
Continuous
 62
     8
100
AcDbLine
 10
158.445238
 20
96.378012
 30
0.0
 11
158.445238
 21
101.557928
 31
0.0
  0
LINE
  5
300
100
AcDbEntity
  8
0
  6
Continuous
 62
     8
100
AcDbLine
 10
158.445238
 20
102.558053
 30
0.0
 11
158.445238
 21
103.557966
 31
0.0
  0
LINE
  5
301
100
AcDbEntity
  8
0
  6
Continuous
 62
     8
100
AcDbLine
 10
158.445238
 20
104.557878
 30
0.0
 11
158.445238
 21
109.738007
 31
0.0
  0
LINE
  5
302
100
AcDbEntity
  8
0
  6
Continuous
 62
     8
100
AcDbLine
 10
158.445238
 20
112.737957
 30
0.0
 11
158.445238
 21
118.738069
 31
0.0
  0
ENDBLK
  5
303
100
AcDbEntity
  8
0
100
AcDbBlockEnd
  0
BLOCK
  5
306
100
AcDbEntity
  8
0
100
AcDbBlockBegin
  2
*B45
 70
     0
 10
0.0
 20
0.0
 30
0.0
  3
*B45
  1

  0
LINE
  5
307
100
AcDbEntity
  8
0
  6
Continuous
 62
     8
100
AcDbLine
 10
82.585932
 20
185.238092
 30
0.0
 11
131.647711
 21
185.238092
 31
0.0
  0
LINE
  5
308
100
AcDbEntity
  8
0
  6
Continuous
 62
     8
100
AcDbLine
 10
153.244716
 20
185.238092
 30
0.0
 11
190.579881
 21
185.238092
 31
0.0
  0
ENDBLK
  5
309
100
AcDbEntity
  8
0
100
AcDbBlockEnd
  0
BLOCK
  5
30C
100
AcDbEntity
  8
0
100
AcDbBlockBegin
  2
*B46
 70
     0
 10
0.0
 20
0.0
 30
0.0
  3
*B46
  1

  0
LINE
  5
30D
100
AcDbEntity
  8
0
  6
Continuous
 62
     8
100
AcDbLine
 10
82.585932
 20
73.238121
 30
0.0
 11
133.458472
 21
73.238121
 31
0.0
  0
ENDBLK
  5
30E
100
AcDbEntity
  8
0
100
AcDbBlockEnd
  0
BLOCK
  5
311
100
AcDbEntity
  8
0
100
AcDbBlockBegin
  2
*B47
 70
     0
 10
0.0
 20
0.0
 30
0.0
  3
*B47
  1

  0
LINE
  5
312
100
AcDbEntity
  8
0
  6
Continuous
 62
     8
100
AcDbLine
 10
14.017469
 20
118.488038
 30
0.0
 11
46.797902
 21
118.488038
 31
0.0
  0
ENDBLK
  5
313
100
AcDbEntity
  8
0
100
AcDbBlockEnd
  0
BLOCK
  5
316
100
AcDbEntity
  8
0
100
AcDbBlockBegin
  2
*B48
 70
     0
 10
0.0
 20
0.0
 30
0.0
  3
*B48
  1

  0
LINE
  5
317
100
AcDbEntity
  8
0
  6
Continuous
 62
     8
100
AcDbLine
 10
186.580231
 20
95.238107
 30
0.0
 11
190.579881
 21
95.238107
 31
0.0
  0
LINE
  5
318
100
AcDbEntity
  8
0
  6
Continuous
 62
     8
100
AcDbLine
 10
118.947526
 20
95.238107
 30
0.0
 11
124.947214
 21
95.238107
 31
0.0
  0
LINE
  5
319
100
AcDbEntity
  8
0
  6
Continuous
 62
     8
100
AcDbLine
 10
127.947164
 20
95.238107
 30
0.0
 11
133.751839
 21
95.238107
 31
0.0
  0
LINE
  5
31A
100
AcDbEntity
  8
0
  6
Continuous
 62
     8
100
AcDbLine
 10
134.751964
 20
95.238107
 30
0.0
 11
135.751877
 21
95.238107
 31
0.0
  0
LINE
  5
31B
100
AcDbEntity
  8
0
  6
Continuous
 62
     8
100
AcDbLine
 10
136.751789
 20
95.238107
 30
0.0
 11
142.556678
 21
95.238107
 31
0.0
  0
LINE
  5
31C
100
AcDbEntity
  8
0
  6
Continuous
 62
     8
100
AcDbLine
 10
143.55659
 20
95.238107
 30
0.0
 11
144.556503
 21
95.238107
 31
0.0
  0
LINE
  5
31D
100
AcDbEntity
  8
0
  6
Continuous
 62
     8
100
AcDbLine
 10
145.556415
 20
95.238107
 30
0.0
 11
151.361303
 21
95.238107
 31
0.0
  0
LINE
  5
31E
100
AcDbEntity
  8
0
  6
Continuous
 62
     8
100
AcDbLine
 10
152.361216
 20
95.238107
 30
0.0
 11
153.361128
 21
95.238107
 31
0.0
  0
LINE
  5
31F
100
AcDbEntity
  8
0
  6
Continuous
 62
     8
100
AcDbLine
 10
154.361253
 20
95.238107
 30
0.0
 11
160.165929
 21
95.238107
 31
0.0
  0
LINE
  5
320
100
AcDbEntity
  8
0
  6
Continuous
 62
     8
100
AcDbLine
 10
161.166054
 20
95.238107
 30
0.0
 11
162.165967
 21
95.238107
 31
0.0
  0
LINE
  5
321
100
AcDbEntity
  8
0
  6
Continuous
 62
     8
100
AcDbLine
 10
163.165879
 20
95.238107
 30
0.0
 11
168.970767
 21
95.238107
 31
0.0
  0
LINE
  5
322
100
AcDbEntity
  8
0
  6
Continuous
 62
     8
100
AcDbLine
 10
169.97068
 20
95.238107
 30
0.0
 11
170.970592
 21
95.238107
 31
0.0
  0
LINE
  5
323
100
AcDbEntity
  8
0
  6
Continuous
 62
     8
100
AcDbLine
 10
171.970505
 20
95.238107
 30
0.0
 11
177.775393
 21
95.238107
 31
0.0
  0
LINE
  5
324
100
AcDbEntity
  8
0
  6
Continuous
 62
     8
100
AcDbLine
 10
178.775306
 20
95.238107
 30
0.0
 11
179.775218
 21
95.238107
 31
0.0
  0
LINE
  5
325
100
AcDbEntity
  8
0
  6
Continuous
 62
     8
100
AcDbLine
 10
180.775343
 20
95.238107
 30
0.0
 11
186.580231
 21
95.238107
 31
0.0
  0
ENDBLK
  5
326
100
AcDbEntity
  8
0
100
AcDbBlockEnd
  0
BLOCK
  5
329
100
AcDbEntity
  8
0
100
AcDbBlockBegin
  2
*B49
 70
     0
 10
0.0
 20
0.0
 30
0.0
  3
*B49
  1

  0
LINE
  5
32A
100
AcDbEntity
  8
0
  6
Continuous
 62
     8
100
AcDbLine
 10
153.23197
 20
175.238118
 30
0.0
 11
190.579881
 21
175.238118
 31
0.0
  0
ENDBLK
  5
32B
100
AcDbEntity
  8
0
100
AcDbBlockEnd
  0
BLOCK
  5
32E
100
AcDbEntity
  8
0
100
AcDbBlockBegin
  2
*B50
 70
     0
 10
0.0
 20
0.0
 30
0.0
  3
*B50
  1

  0
LINE
  5
32F
100
AcDbEntity
  8
0
  6
Continuous
 62
     8
100
AcDbLine
 10
82.585932
 20
75.237946
 30
0.0
 11
111.448076
 21
75.237946
 31
0.0
  0
LINE
  5
330
100
AcDbEntity
  8
0
  6
Continuous
 62
     8
100
AcDbLine
 10
173.444563
 20
75.237946
 30
0.0
 11
204.579081
 21
75.237946
 31
0.0
  0
ENDBLK
  5
331
100
AcDbEntity
  8
0
100
AcDbBlockEnd
  0
BLOCK
  5
334
100
AcDbEntity
  8
0
100
AcDbBlockBegin
  2
*B51
 70
     0
 10
0.0
 20
0.0
 30
0.0
  3
*B51
  1

  0
LINE
  5
335
100
AcDbEntity
  8
0
  6
Continuous
 62
     8
100
AcDbLine
 10
126.447189
 20
119.737982
 30
0.0
 11
126.447189
 21
125.738094
 31
0.0
  0
LINE
  5
336
100
AcDbEntity
  8
0
  6
Continuous
 62
     8
100
AcDbLine
 10
126.447189
 20
128.738044
 30
0.0
 11
126.447189
 21
134.737944
 31
0.0
  0
ENDBLK
  5
337
100
AcDbEntity
  8
0
100
AcDbBlockEnd
  0
BLOCK
  5
33A
100
AcDbEntity
  8
0
100
AcDbBlockBegin
  2
*B52
 70
     0
 10
0.0
 20
0.0
 30
0.0
  3
*B52
  1

  0
LINE
  5
33B
100
AcDbEntity
  8
0
  6
Continuous
 62
     8
100
AcDbLine
 10
126.447189
 20
59.657622
 30
0.0
 11
126.447189
 21
63.657697
 31
0.0
  0
LINE
  5
33C
100
AcDbEntity
  8
0
  6
Continuous
 62
     8
100
AcDbLine
 10
126.447189
 20
63.657697
 30
0.0
 11
126.447189
 21
68.927684
 31
0.0
  0
LINE
  5
33D
100
AcDbEntity
  8
0
  6
Continuous
 62
     8
100
AcDbLine
 10
126.447189
 20
69.927809
 30
0.0
 11
126.447189
 21
70.927722
 31
0.0
  0
LINE
  5
33E
100
AcDbEntity
  8
0
  6
Continuous
 62
     8
100
AcDbLine
 10
126.447189
 20
71.927846
 30
0.0
 11
126.447189
 21
77.197834
 31
0.0
  0
LINE
  5
33F
100
AcDbEntity
  8
0
  6
Continuous
 62
     8
100
AcDbLine
 10
126.447189
 20
78.197958
 30
0.0
 11
126.447189
 21
79.197871
 31
0.0
  0
LINE
  5
340
100
AcDbEntity
  8
0
  6
Continuous
 62
     8
100
AcDbLine
 10
126.447189
 20
80.197783
 30
0.0
 11
126.447189
 21
85.467983
 31
0.0
  0
LINE
  5
341
100
AcDbEntity
  8
0
  6
Continuous
 62
     8
100
AcDbLine
 10
126.447189
 20
86.467896
 30
0.0
 11
126.447189
 21
87.46802
 31
0.0
  0
LINE
  5
342
100
AcDbEntity
  8
0
  6
Continuous
 62
     8
100
AcDbLine
 10
126.447189
 20
88.467933
 30
0.0
 11
126.447189
 21
93.738132
 31
0.0
  0
LINE
  5
343
100
AcDbEntity
  8
0
  6
Continuous
 62
     8
100
AcDbLine
 10
126.447189
 20
96.738082
 30
0.0
 11
126.447189
 21
102.737982
 31
0.0
  0
ENDBLK
  5
344
100
AcDbEntity
  8
0
100
AcDbBlockEnd
  0
BLOCK
  5
347
100
AcDbEntity
  8
0
100
AcDbBlockBegin
  2
*B53
 70
     0
 10
0.0
 20
0.0
 30
0.0
  3
*B53
  1

  0
LINE
  5
348
100
AcDbEntity
  8
0
  6
Continuous
 62
     6
100
AcDbLine
 10
47.297752
 20
127.238069
 30
0.0
 11
48.297664
 21
127.238069
 31
0.0
  0
LINE
  5
349
100
AcDbEntity
  8
0
  6
Continuous
 62
     6
100
AcDbLine
 10
47.797814
 20
126.738007
 30
0.0
 11
47.797814
 21
127.738132
 31
0.0
  0
ENDBLK
  5
34A
100
AcDbEntity
  8
0
100
AcDbBlockEnd
  0
BLOCK
  5
34D
100
AcDbEntity
  8
0
100
AcDbBlockBegin
  2
*B54
 70
     0
 10
0.0
 20
0.0
 30
0.0
  3
*B54
  1

  0
LINE
  5
34E
100
AcDbEntity
  8
0
  6
Continuous
 62
     6
100
AcDbLine
 10
47.297752
 20
95.238107
 30
0.0
 11
48.297664
 21
95.238107
 31
0.0
  0
LINE
  5
34F
100
AcDbEntity
  8
0
  6
Continuous
 62
     6
100
AcDbLine
 10
47.797814
 20
94.738045
 30
0.0
 11
47.797814
 21
95.737957
 31
0.0
  0
ENDBLK
  5
350
100
AcDbEntity
  8
0
100
AcDbBlockEnd
  0
BLOCK
  5
353
100
AcDbEntity
  8
0
100
AcDbBlockBegin
  2
*B55
 70
     0
 10
0.0
 20
0.0
 30
0.0
  3
*B55
  1

  0
LINE
  5
354
100
AcDbEntity
  8
0
  6
Continuous
 62
     6
100
AcDbLine
 10
125.947126
 20
127.238069
 30
0.0
 11
126.947039
 21
127.238069
 31
0.0
  0
LINE
  5
355
100
AcDbEntity
  8
0
  6
Continuous
 62
     6
100
AcDbLine
 10
126.447189
 20
126.738007
 30
0.0
 11
126.447189
 21
127.738132
 31
0.0
  0
ENDBLK
  5
356
100
AcDbEntity
  8
0
100
AcDbBlockEnd
  0
BLOCK
  5
359
100
AcDbEntity
  8
0
100
AcDbBlockBegin
  2
*B56
 70
     0
 10
0.0
 20
0.0
 30
0.0
  3
*B56
  1

  0
LINE
  5
35A
100
AcDbEntity
  8
0
  6
Continuous
 62
     6
100
AcDbLine
 10
157.945388
 20
111.237982
 30
0.0
 11
158.945301
 21
111.237982
 31
0.0
  0
LINE
  5
35B
100
AcDbEntity
  8
0
  6
Continuous
 62
     6
100
AcDbLine
 10
158.445238
 20
110.738132
 30
0.0
 11
158.445238
 21
111.738045
 31
0.0
  0
ENDBLK
  5
35C
100
AcDbEntity
  8
0
100
AcDbBlockEnd
  0
BLOCK
  5
35F
100
AcDbEntity
  8
0
100
AcDbBlockBegin
  2
*B57
 70
     0
 10
0.0
 20
0.0
 30
0.0
  3
*B57
  1

  0
LINE
  5
360
100
AcDbEntity
  8
0
  6
Continuous
 62
     6
100
AcDbLine
 10
125.947126
 20
95.238107
 30
0.0
 11
126.947039
 21
95.238107
 31
0.0
  0
LINE
  5
361
100
AcDbEntity
  8
0
  6
Continuous
 62
     6
100
AcDbLine
 10
126.447189
 20
94.738045
 30
0.0
 11
126.447189
 21
95.737957
 31
0.0
  0
ENDBLK
  5
362
100
AcDbEntity
  8
0
100
AcDbBlockEnd
  0
BLOCK
  5
365
100
AcDbEntity
  8
0
100
AcDbBlockBegin
  2
*B58
 70
     0
 10
0.0
 20
0.0
 30
0.0
  3
*B58
  1

  0
LINE
  5
366
100
AcDbEntity
  8
0
  6
Continuous
 62
     0
100
AcDbLine
 10
6.874903
 20
172.268121
 30
0.0
 11
24.159772
 21
172.268121
 31
0.0
  0
LINE
  5
367
100
AcDbEntity
  8
0
  6
Continuous
 62
     0
100
AcDbLine
 10
24.159772
 20
172.268121
 30
0.0
 11
40.015831
 21
152.01814
 31
0.0
  0
SOLID
  5
368
100
AcDbEntity
  8
0
  6
Continuous
 62
     0
100
AcDbTrace
 10
40.939693
 20
152.400728
 30
0.0
 11
40.723014
 21
152.725322
 31
0.0
 12
40.398632
 22
152.942002
 32
0.0
 13
40.398632
 23
152.942002
 33
0.0
  0
SOLID
  5
369
100
AcDbEntity
  8
0
  6
Continuous
 62
     0
100
AcDbTrace
 10
40.939693
 20
152.400728
 30
0.0
 11
40.398632
 21
152.942002
 31
0.0
 12
40.015831
 22
153.018052
 32
0.0
 13
40.015831
 23
153.018052
 33
0.0
  0
SOLID
  5
36A
100
AcDbEntity
  8
0
  6
Continuous
 62
     0
100
AcDbTrace
 10
40.939693
 20
152.400728
 30
0.0
 11
40.015831
 21
153.018052
 31
0.0
 12
39.633243
 22
152.942002
 32
0.0
 13
39.633243
 23
152.942002
 33
0.0
  0
SOLID
  5
36B
100
AcDbEntity
  8
0
  6
Continuous
 62
     0
100
AcDbTrace
 10
40.939693
 20
152.400728
 30
0.0
 11
39.633243
 21
152.942002
 31
0.0
 12
39.308861
 22
152.725322
 32
0.0
 13
39.308861
 23
152.725322
 33
0.0
  0
SOLID
  5
36C
100
AcDbEntity
  8
0
  6
Continuous
 62
     0
100
AcDbTrace
 10
40.939693
 20
152.400728
 30
0.0
 11
39.308861
 21
152.725322
 31
0.0
 12
39.092181
 22
152.400728
 32
0.0
 13
39.092181
 23
152.400728
 33
0.0
  0
SOLID
  5
36D
100
AcDbEntity
  8
0
  6
Continuous
 62
     0
100
AcDbTrace
 10
40.939693
 20
152.400728
 30
0.0
 11
39.092181
 21
152.400728
 31
0.0
 12
39.015919
 22
152.01814
 32
0.0
 13
39.015919
 23
152.01814
 33
0.0
  0
SOLID
  5
36E
100
AcDbEntity
  8
0
  6
Continuous
 62
     0
100
AcDbTrace
 10
40.939693
 20
152.400728
 30
0.0
 11
39.015919
 21
152.01814
 31
0.0
 12
39.092181
 22
151.635339
 32
0.0
 13
39.092181
 23
151.635339
 33
0.0
  0
SOLID
  5
36F
100
AcDbEntity
  8
0
  6
Continuous
 62
     0
100
AcDbTrace
 10
40.939693
 20
152.400728
 30
0.0
 11
39.092181
 21
151.635339
 31
0.0
 12
39.308861
 22
151.310957
 32
0.0
 13
39.308861
 23
151.310957
 33
0.0
  0
SOLID
  5
370
100
AcDbEntity
  8
0
  6
Continuous
 62
     0
100
AcDbTrace
 10
40.939693
 20
152.400728
 30
0.0
 11
39.308861
 21
151.310957
 31
0.0
 12
39.633243
 22
151.094278
 32
0.0
 13
39.633243
 23
151.094278
 33
0.0
  0
SOLID
  5
371
100
AcDbEntity
  8
0
  6
Continuous
 62
     0
100
AcDbTrace
 10
40.939693
 20
152.400728
 30
0.0
 11
39.633243
 21
151.094278
 31
0.0
 12
40.015831
 22
151.018015
 32
0.0
 13
40.015831
 23
151.018015
 33
0.0
  0
SOLID
  5
372
100
AcDbEntity
  8
0
  6
Continuous
 62
     0
100
AcDbTrace
 10
40.939693
 20
152.400728
 30
0.0
 11
40.015831
 21
151.018015
 31
0.0
 12
40.398632
 22
151.094278
 32
0.0
 13
40.398632
 23
151.094278
 33
0.0
  0
SOLID
  5
373
100
AcDbEntity
  8
0
  6
Continuous
 62
     0
100
AcDbTrace
 10
40.939693
 20
152.400728
 30
0.0
 11
40.398632
 21
151.094278
 31
0.0
 12
40.723014
 22
151.310957
 32
0.0
 13
40.723014
 23
151.310957
 33
0.0
  0
SOLID
  5
374
100
AcDbEntity
  8
0
  6
Continuous
 62
     0
100
AcDbTrace
 10
40.939693
 20
152.400728
 30
0.0
 11
40.723014
 21
151.310957
 31
0.0
 12
40.939693
 22
151.635339
 32
0.0
 13
40.939693
 23
151.635339
 33
0.0
  0
SOLID
  5
375
100
AcDbEntity
  8
0
  6
Continuous
 62
     0
100
AcDbTrace
 10
40.939693
 20
152.400728
 30
0.0
 11
40.939693
 21
151.635339
 31
0.0
 12
41.015956
 22
152.01814
 32
0.0
 13
41.015956
 23
152.01814
 33
0.0
  0
ENDBLK
  5
376
100
AcDbEntity
  8
0
100
AcDbBlockEnd
  0
BLOCK
  5
379
100
AcDbEntity
  8
0
100
AcDbBlockBegin
  2
*B59
 70
     0
 10
0.0
 20
0.0
 30
0.0
  3
*B59
  1

  0
LINE
  5
37A
100
AcDbEntity
  8
0
  6
Continuous
 62
     0
100
AcDbLine
 10
95.647674
 20
157.907576
 30
0.0
 11
109.989738
 21
157.907576
 31
0.0
  0
LINE
  5
37B
100
AcDbEntity
  8
0
  6
Continuous
 62
     0
100
AcDbLine
 10
109.989738
 20
157.907576
 30
0.0
 11
124.31948
 21
131.203093
 31
0.0
  0
SOLID
  5
37C
100
AcDbEntity
  8
0
  6
Continuous
 62
     0
100
AcDbTrace
 10
122.135902
 20
134.003358
 30
0.0
 11
124.31948
 21
131.203093
 31
0.0
 12
123.193171
 22
134.570973
 32
0.0
 13
123.193171
 23
134.570973
 33
0.0
  0
ENDBLK
  5
37D
100
AcDbEntity
  8
0
100
AcDbBlockEnd
  0
BLOCK
  5
380
100
AcDbEntity
  8
0
100
AcDbBlockBegin
  2
*B60
 70
     0
 10
0.0
 20
0.0
 30
0.0
  3
*B60
  1

  0
TEXT
  5
381
100
AcDbEntity
  8
TEXT
  6
Continuous
 62
     0
100
AcDbText
 10
162.53005
 20
92.5
 30
0.0
 40
7.0
  1
1
100
AcDbText
  0
ENDBLK
  5
382
100
AcDbEntity
  8
0
100
AcDbBlockEnd
  0
BLOCK
  5
385
100
AcDbEntity
  8
0
100
AcDbBlockBegin
  2
*B61
 70
     0
 10
0.0
 20
0.0
 30
0.0
  3
*B61
  1

  0
TEXT
  5
386
100
AcDbEntity
  8
TEXT
  6
Continuous
 62
     0
100
AcDbText
 10
116.53005
 20
109.5
 30
0.0
 40
7.0
  1
2
100
AcDbText
  0
ENDBLK
  5
387
100
AcDbEntity
  8
0
100
AcDbBlockEnd
  0
BLOCK
  5
38A
100
AcDbEntity
  8
0
100
AcDbBlockBegin
  2
*B62
 70
     0
 10
0.0
 20
0.0
 30
0.0
  3
*B62
  1

  0
TEXT
  5
38B
100
AcDbEntity
  8
TEXT
  6
Continuous
 62
     0
100
AcDbText
 10
162.53005
 20
125.5
 30
0.0
 40
7.0
  1
3
100
AcDbText
  0
ENDBLK
  5
38C
100
AcDbEntity
  8
0
100
AcDbBlockEnd
  0
BLOCK
  5
38F
100
AcDbEntity
  8
0
100
AcDbBlockBegin
  2
*B63
 70
     0
 10
0.0
 20
0.0
 30
0.0
  3
*B63
  1

  0
TEXT
  5
390
100
AcDbEntity
  8
TEXT
  6
Continuous
 62
     0
100
AcDbText
 10
6.857143
 20
174.5
 30
0.0
 40
3.0
  1
SW 19
100
AcDbText
  0
ENDBLK
  5
391
100
AcDbEntity
  8
0
100
AcDbBlockEnd
  0
BLOCK
  5
394
100
AcDbEntity
  8
0
100
AcDbBlockBegin
  2
*B64
 70
     0
 10
0.0
 20
0.0
 30
0.0
  3
*B64
  1

  0
TEXT
  5
395
100
AcDbEntity
  8
TEXT
  6
Continuous
 62
     0
100
AcDbText
 10
95.634959
 20
160.13951
 30
0.0
 40
3.0
  1
%%c4,5
100
AcDbText
  0
ENDBLK
  5
396
100
AcDbEntity
  8
0
100
AcDbBlockEnd
  0
BLOCK
  5
399
100
AcDbEntity
  8
0
100
AcDbBlockBegin
  2
*B65
 70
     0
 10
0.0
 20
0.0
 30
0.0
  3
*B65
  1

  0
TEXT
  5
39A
100
AcDbEntity
  8
TEXT
  6
Continuous
 62
     0
100
AcDbText
 10
83.072459
 20
108.36275
 30
0.0
 40
3.0
  1
36
 50
90.0
100
AcDbText
  0
ENDBLK
  5
39B
100
AcDbEntity
  8
0
100
AcDbBlockEnd
  0
BLOCK
  5
39E
100
AcDbEntity
  8
0
100
AcDbBlockBegin
  2
*B66
 70
     0
 10
0.0
 20
0.0
 30
0.0
  3
*B66
  1

  0
TEXT
  5
39F
100
AcDbEntity
  8
TEXT
  6
Continuous
 62
     0
100
AcDbText
 10
97.072459
 20
90.36275
 30
0.0
 40
3.0
  1
18
 50
90.0
100
AcDbText
  0
ENDBLK
  5
3A0
100
AcDbEntity
  8
0
100
AcDbBlockEnd
  0
BLOCK
  5
3A3
100
AcDbEntity
  8
0
100
AcDbBlockBegin
  2
*B67
 70
     0
 10
0.0
 20
0.0
 30
0.0
  3
*B67
  1

  0
TEXT
  5
3A4
100
AcDbEntity
  8
TEXT
  6
Continuous
 62
     0
100
AcDbText
 10
187.072459
 20
134.36275
 30
0.0
 40
3.0
  1
10
 50
90.0
100
AcDbText
  0
ENDBLK
  5
3A5
100
AcDbEntity
  8
0
100
AcDbBlockEnd
  0
BLOCK
  5
3A8
100
AcDbEntity
  8
0
100
AcDbBlockBegin
  2
*B68
 70
     0
 10
0.0
 20
0.0
 30
0.0
  3
*B68
  1

  0
TEXT
  5
3A9
100
AcDbEntity
  8
TEXT
  6
Continuous
 62
     0
100
AcDbText
 10
187.072459
 20
108.36275
 30
0.0
 40
3.0
  1
16
 50
90.0
100
AcDbText
  0
ENDBLK
  5
3AA
100
AcDbEntity
  8
0
100
AcDbBlockEnd
  0
BLOCK
  5
3AD
100
AcDbEntity
  8
0
100
AcDbBlockBegin
  2
*B69
 70
     0
 10
0.0
 20
0.0
 30
0.0
  3
*B69
  1

  0
TEXT
  5
3AE
100
AcDbEntity
  8
TEXT
  6
Continuous
 62
     0
100
AcDbText
 10
187.072459
 20
82.36275
 30
0.0
 40
3.0
  1
10
 50
90.0
100
AcDbText
  0
ENDBLK
  5
3AF
100
AcDbEntity
  8
0
100
AcDbBlockEnd
  0
BLOCK
  5
3B2
100
AcDbEntity
  8
0
100
AcDbBlockBegin
  2
*B70
 70
     0
 10
0.0
 20
0.0
 30
0.0
  3
*B70
  1

  0
TEXT
  5
3B3
100
AcDbEntity
  8
TEXT
  6
Continuous
 62
     0
100
AcDbText
 10
201.072459
 20
142.248464
 30
0.0
 40
3.0
  1
~72
 50
90.0
100
AcDbText
  0
ENDBLK
  5
3B4
100
AcDbEntity
  8
0
100
AcDbBlockEnd
  0
BLOCK
  5
3B7
100
AcDbEntity
  8
0
100
AcDbBlockBegin
  2
*B71
 70
     0
 10
0.0
 20
0.0
 30
0.0
  3
*B71
  1

  0
TEXT
  5
3B8
100
AcDbEntity
  8
TEXT
  6
Continuous
 62
     0
100
AcDbText
 10
83.072459
 20
63.450173
 30
0.0
 40
3.0
  1
1
 50
90.0
100
AcDbText
  0
ENDBLK
  5
3B9
100
AcDbEntity
  8
0
100
AcDbBlockEnd
  0
BLOCK
  5
3BC
100
AcDbEntity
  8
0
100
AcDbBlockBegin
  2
*B72
 70
     0
 10
0.0
 20
0.0
 30
0.0
  3
*B72
  1

  0
TEXT
  5
3BD
100
AcDbEntity
  8
TEXT
  6
Continuous
 62
     0
100
AcDbText
 10
83.072459
 20
156.36275
 30
0.0
 40
3.0
  1
12
 50
90.0
100
AcDbText
  0
ENDBLK
  5
3BE
100
AcDbEntity
  8
0
100
AcDbBlockEnd
  0
BLOCK
  5
3C1
100
AcDbEntity
  8
0
100
AcDbBlockBegin
  2
*B73
 70
     0
 10
0.0
 20
0.0
 30
0.0
  3
*B73
  1

  0
TEXT
  5
3C2
100
AcDbEntity
  8
TEXT
  6
Continuous
 62
     0
100
AcDbText
 10
83.072459
 20
176.791321
 30
0.0
 40
3.0
  1
7
 50
90.0
100
AcDbText
  0
ENDBLK
  5
3C3
100
AcDbEntity
  8
0
100
AcDbBlockEnd
  0
BLOCK
  5
3C6
100
AcDbEntity
  8
0
100
AcDbBlockBegin
  2
*B74
 70
     0
 10
0.0
 20
0.0
 30
0.0
  3
*B74
  1

  0
TEXT
  5
3C7
100
AcDbEntity
  8
TEXT
  6
Continuous
 62
     0
100
AcDbText
 10
137.478952
 20
230.13951
 30
0.0
 40
3.0
  1
%%c22
100
AcDbText
  0
ENDBLK
  5
3C8
100
AcDbEntity
  8
0
100
AcDbBlockEnd
  0
BLOCK
  5
3CB
100
AcDbEntity
  8
0
100
AcDbBlockBegin
  2
*B75
 70
     0
 10
0.0
 20
0.0
 30
0.0
  3
*B75
  1

  0
TEXT
  5
3CC
100
AcDbEntity
  8
TEXT
  6
Continuous
 62
     0
100
AcDbText
 10
14.5
 20
141.425224
 30
0.0
 40
3.0
  1
G 1/8"
 50
90.0
100
AcDbText
  0
ENDBLK
  5
3CD
100
AcDbEntity
  8
0
100
AcDbBlockEnd
  0
BLOCK
  5
3D0
100
AcDbEntity
  8
0
100
AcDbBlockBegin
  2
*B76
 70
     0
 10
0.0
 20
0.0
 30
0.0
  3
*B76
  1

  0
TEXT
  5
3D1
100
AcDbEntity
  8
TEXT
  6
Continuous
 62
     0
100
AcDbText
 10
44.925154
 20
52.13951
 30
0.0
 40
3.0
  1
16
100
AcDbText
  0
ENDBLK
  5
3D2
100
AcDbEntity
  8
0
100
AcDbBlockEnd
  0
BLOCK
  5
3D5
100
AcDbEntity
  8
0
100
AcDbBlockBegin
  2
*B77
 70
     0
 10
0.0
 20
0.0
 30
0.0
  3
*B77
  1

  0
TEXT
  5
3D6
100
AcDbEntity
  8
TEXT
  6
Continuous
 62
     0
100
AcDbText
 10
139.578952
 20
52.13951
 30
0.0
 40
3.0
  1
30
100
AcDbText
  0
ENDBLK
  5
3D7
100
AcDbEntity
  8
0
100
AcDbBlockEnd
  0
BLOCK
  5
3DA
100
AcDbEntity
  8
0
100
AcDbBlockBegin
  2
*B78
 70
     0
 10
0.0
 20
0.0
 30
0.0
  3
*B78
  1

  0
TEXT
  5
3DB
100
AcDbEntity
  8
TEXT
  6
Continuous
 62
     0
100
AcDbText
 10
40.568011
 20
195.13951
 30
0.0
 40
3.0
  1
M16x1
100
AcDbText
  0
ENDBLK
  5
3DC
100
AcDbEntity
  8
0
100
AcDbBlockEnd
  0
BLOCK
  5
3DF
100
AcDbEntity
  8
0
100
AcDbBlockBegin
  2
*B79
 70
     0
 10
0.0
 20
0.0
 30
0.0
  3
*B79
  1

  0
TEXT
  5
3E0
100
AcDbEntity
  8
TEXT
  6
Continuous
 62
     0
100
AcDbText
 10
139.578952
 20
63.13951
 30
0.0
 40
3.0
  1
16
100
AcDbText
  0
ENDBLK
  5
3E1
100
AcDbEntity
  8
0
100
AcDbBlockEnd
  0
BLOCK
  5
3E4
100
AcDbEntity
  8
0
100
AcDbBlockBegin
  2
*B80
 70
     0
 10
0.0
 20
0.0
 30
0.0
  3
*B80
  1

  0
TEXT
  5
3E5
100
AcDbEntity
  8
TEXT
  6
Continuous
 62
     0
100
AcDbText
 10
187.072459
 20
190.425224
 30
0.0
 40
3.0
  1
Hub
 50
90.0
100
AcDbText
  0
TEXT
  5
3E6
100
AcDbEntity
  8
TEXT
  6
Continuous
 62
     0
100
AcDbText
 10
187.072459
 20
200.496653
 30
0.0
 40
3.0
  1
5
 50
90.0
100
AcDbText
  0
ENDBLK
  5
3E7
100
AcDbEntity
  8
0
100
AcDbBlockEnd
  0
ENDSEC
  0
SECTION
  2
ENTITIES
  0
INSERT
  5
116
100
AcDbEntity
  8
0
  6
HIDDEN
 62
   174
100
AcDbBlockReference
  2
*B3
 10
0.0
 20
0.0
 30
0.0
  0
INSERT
  5
11C
100
AcDbEntity
  8
0
  6
Continuous
 62
   172
100
AcDbBlockReference
  2
*B4
 10
0.0
 20
0.0
 30
0.0
  0
INSERT
  5
125
100
AcDbEntity
  8
0
  6
Continuous
 62
   172
100
AcDbBlockReference
  2
*B5
 10
0.0
 20
0.0
 30
0.0
  0
INSERT
  5
1C2
100
AcDbEntity
  8
0
  6
Continuous
 62
   174
100
AcDbBlockReference
  2
*B8
 10
0.0
 20
0.0
 30
0.0
  0
INSERT
  5
1C8
100
AcDbEntity
  8
0
  6
Continuous
 62
   172
100
AcDbBlockReference
  2
*B9
 10
0.0
 20
0.0
 30
0.0
  0
INSERT
  5
1D5
100
AcDbEntity
  8
0
  6
Continuous
 62
     0
100
AcDbBlockReference
  2
*B12
 10
0.0
 20
0.0
 30
0.0
  0
INSERT
  5
1DC
100
AcDbEntity
  8
0
  6
Continuous
 62
     0
100
AcDbBlockReference
  2
*B13
 10
0.0
 20
0.0
 30
0.0
  0
INSERT
  5
1E3
100
AcDbEntity
  8
0
  6
Continuous
 62
     0
100
AcDbBlockReference
  2
*B14
 10
0.0
 20
0.0
 30
0.0
  0
INSERT
  5
1EA
100
AcDbEntity
  8
0
  6
Continuous
 62
     0
100
AcDbBlockReference
  2
*B15
 10
0.0
 20
0.0
 30
0.0
  0
INSERT
  5
1F1
100
AcDbEntity
  8
0
  6
Continuous
 62
     0
100
AcDbBlockReference
  2
*B16
 10
0.0
 20
0.0
 30
0.0
  0
INSERT
  5
1F8
100
AcDbEntity
  8
0
  6
Continuous
 62
     0
100
AcDbBlockReference
  2
*B17
 10
0.0
 20
0.0
 30
0.0
  0
INSERT
  5
1FF
100
AcDbEntity
  8
0
  6
Continuous
 62
     0
100
AcDbBlockReference
  2
*B18
 10
0.0
 20
0.0
 30
0.0
  0
INSERT
  5
206
100
AcDbEntity
  8
0
  6
Continuous
 62
     0
100
AcDbBlockReference
  2
*B19
 10
0.0
 20
0.0
 30
0.0
  0
INSERT
  5
20D
100
AcDbEntity
  8
0
  6
Continuous
 62
     0
100
AcDbBlockReference
  2
*B20
 10
0.0
 20
0.0
 30
0.0
  0
INSERT
  5
214
100
AcDbEntity
  8
0
  6
Continuous
 62
     0
100
AcDbBlockReference
  2
*B21
 10
0.0
 20
0.0
 30
0.0
  0
INSERT
  5
21B
100
AcDbEntity
  8
0
  6
Continuous
 62
     0
100
AcDbBlockReference
  2
*B22
 10
0.0
 20
0.0
 30
0.0
  0
INSERT
  5
222
100
AcDbEntity
  8
0
  6
Continuous
 62
     0
100
AcDbBlockReference
  2
*B23
 10
0.0
 20
0.0
 30
0.0
  0
INSERT
  5
229
100
AcDbEntity
  8
0
  6
Continuous
 62
     0
100
AcDbBlockReference
  2
*B24
 10
0.0
 20
0.0
 30
0.0
  0
INSERT
  5
230
100
AcDbEntity
  8
0
  6
Continuous
 62
     0
100
AcDbBlockReference
  2
*B25
 10
0.0
 20
0.0
 30
0.0
  0
INSERT
  5
237
100
AcDbEntity
  8
0
  6
Continuous
 62
     0
100
AcDbBlockReference
  2
*B26
 10
0.0
 20
0.0
 30
0.0
  0
INSERT
  5
23E
100
AcDbEntity
  8
0
  6
Continuous
 62
     0
100
AcDbBlockReference
  2
*B27
 10
0.0
 20
0.0
 30
0.0
  0
INSERT
  5
243
100
AcDbEntity
  8
0
  6
Continuous
 62
     8
100
AcDbBlockReference
  2
*B28
 10
0.0
 20
0.0
 30
0.0
  0
INSERT
  5
268
100
AcDbEntity
  8
0
  6
Continuous
 62
     8
100
AcDbBlockReference
  2
*B29
 10
0.0
 20
0.0
 30
0.0
  0
INSERT
  5
27B
100
AcDbEntity
  8
0
  6
Continuous
 62
     8
100
AcDbBlockReference
  2
*B30
 10
0.0
 20
0.0
 30
0.0
  0
INSERT
  5
280
100
AcDbEntity
  8
0
  6
Continuous
 62
     8
100
AcDbBlockReference
  2
*B31
 10
0.0
 20
0.0
 30
0.0
  0
INSERT
  5
285
100
AcDbEntity
  8
0
  6
Continuous
 62
     8
100
AcDbBlockReference
  2
*B32
 10
0.0
 20
0.0
 30
0.0
  0
INSERT
  5
28A
100
AcDbEntity
  8
0
  6
Continuous
 62
     8
100
AcDbBlockReference
  2
*B33
 10
0.0
 20
0.0
 30
0.0
  0
INSERT
  5
2B3
100
AcDbEntity
  8
0
  6
Continuous
 62
     8
100
AcDbBlockReference
  2
*B34
 10
0.0
 20
0.0
 30
0.0
  0
INSERT
  5
2B8
100
AcDbEntity
  8
0
  6
Continuous
 62
     8
100
AcDbBlockReference
  2
*B35
 10
0.0
 20
0.0
 30
0.0
  0
INSERT
  5
2BD
100
AcDbEntity
  8
0
  6
Continuous
 62
     8
100
AcDbBlockReference
  2
*B36
 10
0.0
 20
0.0
 30
0.0
  0
INSERT
  5
2C3
100
AcDbEntity
  8
0
  6
Continuous
 62
     8
100
AcDbBlockReference
  2
*B37
 10
0.0
 20
0.0
 30
0.0
  0
INSERT
  5
2C8
100
AcDbEntity
  8
0
  6
Continuous
 62
     8
100
AcDbBlockReference
  2
*B38
 10
0.0
 20
0.0
 30
0.0
  0
INSERT
  5
2CE
100
AcDbEntity
  8
0
  6
Continuous
 62
     8
100
AcDbBlockReference
  2
*B39
 10
0.0
 20
0.0
 30
0.0
  0
INSERT
  5
2E1
100
AcDbEntity
  8
0
  6
Continuous
 62
     8
100
AcDbBlockReference
  2
*B40
 10
0.0
 20
0.0
 30
0.0
  0
INSERT
  5
2E7
100
AcDbEntity
  8
0
  6
Continuous
 62
     8
100
AcDbBlockReference
  2
*B41
 10
0.0
 20
0.0
 30
0.0
  0
INSERT
  5
2ED
100
AcDbEntity
  8
0
  6
Continuous
 62
     8
100
AcDbBlockReference
  2
*B42
 10
0.0
 20
0.0
 30
0.0
  0
INSERT
  5
2F3
100
AcDbEntity
  8
0
  6
Continuous
 62
     8
100
AcDbBlockReference
  2
*B43
 10
0.0
 20
0.0
 30
0.0
  0
INSERT
  5
304
100
AcDbEntity
  8
0
  6
Continuous
 62
     8
100
AcDbBlockReference
  2
*B44
 10
0.0
 20
0.0
 30
0.0
  0
INSERT
  5
30A
100
AcDbEntity
  8
0
  6
Continuous
 62
     8
100
AcDbBlockReference
  2
*B45
 10
0.0
 20
0.0
 30
0.0
  0
INSERT
  5
30F
100
AcDbEntity
  8
0
  6
Continuous
 62
     8
100
AcDbBlockReference
  2
*B46
 10
0.0
 20
0.0
 30
0.0
  0
INSERT
  5
314
100
AcDbEntity
  8
0
  6
Continuous
 62
     8
100
AcDbBlockReference
  2
*B47
 10
0.0
 20
0.0
 30
0.0
  0
INSERT
  5
327
100
AcDbEntity
  8
0
  6
Continuous
 62
     8
100
AcDbBlockReference
  2
*B48
 10
0.0
 20
0.0
 30
0.0
  0
INSERT
  5
32C
100
AcDbEntity
  8
0
  6
Continuous
 62
     8
100
AcDbBlockReference
  2
*B49
 10
0.0
 20
0.0
 30
0.0
  0
INSERT
  5
332
100
AcDbEntity
  8
0
  6
Continuous
 62
     8
100
AcDbBlockReference
  2
*B50
 10
0.0
 20
0.0
 30
0.0
  0
INSERT
  5
338
100
AcDbEntity
  8
0
  6
Continuous
 62
     8
100
AcDbBlockReference
  2
*B51
 10
0.0
 20
0.0
 30
0.0
  0
INSERT
  5
345
100
AcDbEntity
  8
0
  6
Continuous
 62
     8
100
AcDbBlockReference
  2
*B52
 10
0.0
 20
0.0
 30
0.0
  0
INSERT
  5
34B
100
AcDbEntity
  8
0
  6
Continuous
 62
     6
100
AcDbBlockReference
  2
*B53
 10
0.0
 20
0.0
 30
0.0
  0
INSERT
  5
351
100
AcDbEntity
  8
0
  6
Continuous
 62
     6
100
AcDbBlockReference
  2
*B54
 10
0.0
 20
0.0
 30
0.0
  0
INSERT
  5
357
100
AcDbEntity
  8
0
  6
Continuous
 62
     6
100
AcDbBlockReference
  2
*B55
 10
0.0
 20
0.0
 30
0.0
  0
INSERT
  5
35D
100
AcDbEntity
  8
0
  6
Continuous
 62
     6
100
AcDbBlockReference
  2
*B56
 10
0.0
 20
0.0
 30
0.0
  0
INSERT
  5
363
100
AcDbEntity
  8
0
  6
Continuous
 62
     6
100
AcDbBlockReference
  2
*B57
 10
0.0
 20
0.0
 30
0.0
  0
INSERT
  5
377
100
AcDbEntity
  8
0
  6
Continuous
 62
     0
100
AcDbBlockReference
  2
*B58
 10
0.0
 20
0.0
 30
0.0
  0
INSERT
  5
37E
100
AcDbEntity
  8
0
  6
Continuous
 62
     0
100
AcDbBlockReference
  2
*B59
 10
0.0
 20
0.0
 30
0.0
  0
INSERT
  5
383
100
AcDbEntity
  8
TEXT
  6
Continuous
 62
     0
100
AcDbBlockReference
  2
*B60
 10
0.0
 20
0.0
 30
0.0
  0
INSERT
  5
388
100
AcDbEntity
  8
TEXT
  6
Continuous
 62
     0
100
AcDbBlockReference
  2
*B61
 10
0.0
 20
0.0
 30
0.0
  0
INSERT
  5
38D
100
AcDbEntity
  8
TEXT
  6
Continuous
 62
     0
100
AcDbBlockReference
  2
*B62
 10
0.0
 20
0.0
 30
0.0
  0
INSERT
  5
392
100
AcDbEntity
  8
TEXT
  6
Continuous
 62
     0
100
AcDbBlockReference
  2
*B63
 10
0.0
 20
0.0
 30
0.0
  0
INSERT
  5
397
100
AcDbEntity
  8
TEXT
  6
Continuous
 62
     0
100
AcDbBlockReference
  2
*B64
 10
0.0
 20
0.0
 30
0.0
  0
INSERT
  5
39C
100
AcDbEntity
  8
TEXT
  6
Continuous
 62
     0
100
AcDbBlockReference
  2
*B65
 10
0.0
 20
0.0
 30
0.0
  0
INSERT
  5
3A1
100
AcDbEntity
  8
TEXT
  6
Continuous
 62
     0
100
AcDbBlockReference
  2
*B66
 10
0.0
 20
0.0
 30
0.0
  0
INSERT
  5
3A6
100
AcDbEntity
  8
TEXT
  6
Continuous
 62
     0
100
AcDbBlockReference
  2
*B67
 10
0.0
 20
0.0
 30
0.0
  0
INSERT
  5
3AB
100
AcDbEntity
  8
TEXT
  6
Continuous
 62
     0
100
AcDbBlockReference
  2
*B68
 10
0.0
 20
0.0
 30
0.0
  0
INSERT
  5
3B0
100
AcDbEntity
  8
TEXT
  6
Continuous
 62
     0
100
AcDbBlockReference
  2
*B69
 10
0.0
 20
0.0
 30
0.0
  0
INSERT
  5
3B5
100
AcDbEntity
  8
TEXT
  6
Continuous
 62
     0
100
AcDbBlockReference
  2
*B70
 10
0.0
 20
0.0
 30
0.0
  0
INSERT
  5
3BA
100
AcDbEntity
  8
TEXT
  6
Continuous
 62
     0
100
AcDbBlockReference
  2
*B71
 10
0.0
 20
0.0
 30
0.0
  0
INSERT
  5
3BF
100
AcDbEntity
  8
TEXT
  6
Continuous
 62
     0
100
AcDbBlockReference
  2
*B72
 10
0.0
 20
0.0
 30
0.0
  0
INSERT
  5
3C4
100
AcDbEntity
  8
TEXT
  6
Continuous
 62
     0
100
AcDbBlockReference
  2
*B73
 10
0.0
 20
0.0
 30
0.0
  0
INSERT
  5
3C9
100
AcDbEntity
  8
TEXT
  6
Continuous
 62
     0
100
AcDbBlockReference
  2
*B74
 10
0.0
 20
0.0
 30
0.0
  0
INSERT
  5
3CE
100
AcDbEntity
  8
TEXT
  6
Continuous
 62
     0
100
AcDbBlockReference
  2
*B75
 10
0.0
 20
0.0
 30
0.0
  0
INSERT
  5
3D3
100
AcDbEntity
  8
TEXT
  6
Continuous
 62
     0
100
AcDbBlockReference
  2
*B76
 10
0.0
 20
0.0
 30
0.0
  0
INSERT
  5
3D8
100
AcDbEntity
  8
TEXT
  6
Continuous
 62
     0
100
AcDbBlockReference
  2
*B77
 10
0.0
 20
0.0
 30
0.0
  0
INSERT
  5
3DD
100
AcDbEntity
  8
TEXT
  6
Continuous
 62
     0
100
AcDbBlockReference
  2
*B78
 10
0.0
 20
0.0
 30
0.0
  0
INSERT
  5
3E2
100
AcDbEntity
  8
TEXT
  6
Continuous
 62
     0
100
AcDbBlockReference
  2
*B79
 10
0.0
 20
0.0
 30
0.0
  0
INSERT
  5
3E8
100
AcDbEntity
  8
TEXT
  6
Continuous
 62
     0
100
AcDbBlockReference
  2
*B80
 10
0.0
 20
0.0
 30
0.0
  0
ENDSEC
  0
SECTION
  2
OBJECTS
  0
DICTIONARY
  5
19
100
AcDbDictionary
280
     0
281
     1
  3
ACAD_GROUP
350
1A
  3
ACAD_MLINESTYLE
350
1B
  3
ACAD_LAYOUT
350
1E
  3
ACAD_PLOTSETTINGS
350
22
  3
ACAD_PLOTSTYLENAME
350
1F
  3
ACAD_WIPEOUT_VARS
350
23
  0
DICTIONARY
  5
1A
102
{ACAD_REACTORS
330
19
102
}
100
AcDbDictionary
280
     0
281
     1
  0
DICTIONARY
  5
1B
102
{ACAD_REACTORS
330
19
102
}
100
AcDbDictionary
280
     0
281
     1
  3
Standard
350
1C
  0
MLINESTYLE
  5
1C
102
{ACAD_REACTORS
330
1B
102
}
100
AcDbMlineStyle
  2
Standard
 70
     0
  3

 62
     0
 51
90.0
 52
90.0
 71
     2
 49
0.5
 62
   256
  6
BYLAYER
 49
-0.5
 62
   256
  6
BYLAYER
  0
ACDBDICTIONARYWDFLT
  5
1F
102
{ACAD_REACTORS
330
19
102
}
100
AcDbDictionary
281
     1
  3
Normal
350
1D
100
AcDbDictionaryWithDefault
340
1D
  0
ACDBPLACEHOLDER
  5
1D
102
{ACAD_REACTORS
330
1F
102
}
  0
LAYOUT
  5
20
102
{ACAD_REACTORS
330
1E
102
}
100
AcDbPlotSettings
  1

  2

  4

  6

 40
0.0
 41
0.0
 42
0.0
 43
0.0
 44
0.0
 45
0.0
 46
0.0
 47
0.0
 48
0.0
 49
0.0
140
0.0
141
0.0
142
1.0
143
1.0
 70
     0
 72
     0
 73
     0
 74
     0
  7

 75
     0
147
1.0
148
0.0
149
0.0
100
AcDbLayout
  1
Model
 70
     0
 71
     0
 10
0.0
 20
0.0
 11
0.0
 21
0.0
 12
0.0
 22
0.0
 32
0.0
 14
0.0
 24
0.0
 34
0.0
 15
0.0
 25
0.0
 35
0.0
146
0.0
 13
0.0
 23
0.0
 33
0.0
 16
0.0
 26
0.0
 36
0.0
 17
0.0
 27
0.0
 37
0.0
 76
     0
330
A
331
0
345
0
346
0
  0
LAYOUT
  5
21
102
{ACAD_REACTORS
330
1E
102
}
100
AcDbPlotSettings
  1

  2

  4

  6

 40
0.0
 41
0.0
 42
0.0
 43
0.0
 44
0.0
 45
0.0
 46
0.0
 47
0.0
 48
0.0
 49
0.0
140
0.0
141
0.0
142
1.0
143
1.0
 70
     0
 72
     0
 73
     0
 74
     0
  7

 75
     0
147
1.0
148
0.0
149
0.0
100
AcDbLayout
  1
Layout1
 70
     0
 71
     0
 10
0.0
 20
0.0
 11
0.0
 21
0.0
 12
0.0
 22
0.0
 32
0.0
 14
0.0
 24
0.0
 34
0.0
 15
0.0
 25
0.0
 35
0.0
146
0.0
 13
0.0
 23
0.0
 33
0.0
 16
0.0
 26
0.0
 36
0.0
 17
0.0
 27
0.0
 37
0.0
 76
     0
330
B
331
0
345
0
346
0
  0
DICTIONARY
  5
1E
102
{ACAD_REACTORS
330
19
102
}
100
AcDbDictionary
280
     0
281
     1
  3
Layout1
350
21
  3
Model
350
20
  0
DICTIONARY
  5
22
102
{ACAD_REACTORS
330
19
102
}
100
AcDbDictionary
280
     0
281
     1
  0
WIPEOUTVARIABLES
  5
23
100
AcDbWipeoutVariables
 70
     1
  0
ENDSEC
  0
EOF
