  0
SECTION
  2
HEADER
  9
$ACADVER
  1
AC1015
  9
$ACADMAINTVER
 70
     6
  9
$DWGCODEPAGE
  3
DOS850
  9
$INSBASE
 10
0.0
 20
0.0
 30
0.0
  9
$EXTMIN
 10
0.0
 20
0.0
 30
0.0
  9
$EXTMAX
 10
210.0
 20
297.0
 30
0.0
  9
$LIMMIN
 10
0.0
 20
0.0
  9
$LIMMAX
 10
210.0
 20
297.0
  9
$ORTHOMODE
 70
     0
  9
$REGENMODE
 70
     1
  9
$FILLMODE
 70
     1
  9
$QTEXTMODE
 70
     0
  9
$MIRRTEXT
 70
     1
  9
$LTSCALE
 40
25.4
  9
$ATTMODE
 70
     1
  9
$TEXTSIZE
 40
3.5
  9
$TRACEWID
 40
0.05
  9
$TEXTSTYLE
  7
Standard
  9
$CLAYER
  8
0
  9
$CELTYPE
  6
Continuous
  9
$CECOLOR
 62
   256
  9
$CELTSCALE
 40
1.0
  9
$DISPSILH
 70
     0
  9
$DIMSCALE
 40
1.0
  9
$DIMASZ
 40
5.0
  9
$DIMEXO
 40
3.0
  9
$DIMDLI
 40
0.38
  9
$DIMRND
 40
0.0
  9
$DIMDLE
 40
0.0
  9
$DIMEXE
 40
2.0
  9
$DIMTP
 40
0.0
  9
$DIMTM
 40
0.0
  9
$DIMTXT
 40
3.5
  9
$DIMCEN
 40
4.0
  9
$DIMTSZ
 40
0.0
  9
$DIMTOL
 70
     0
  9
$DIMLIM
 70
     0
  9
$DIMTIH
 70
     1
  9
$DIMTOH
 70
     1
  9
$DIMSE1
 70
     0
  9
$DIMSE2
 70
     0
  9
$DIMTAD
 70
     0
  9
$DIMZIN
 70
     0
  9
$DIMBLK
  1

  9
$DIMASO
 70
     1
  9
$DIMSHO
 70
     1
  9
$DIMPOST
  1

  9
$DIMAPOST
  1

  9
$DIMALT
 70
     0
  9
$DIMALTD
 70
     2
  9
$DIMALTF
 40
25.4
  9
$DIMLFAC
 40
1.0
  9
$DIMTOFL
 70
     0
  9
$DIMTVP
 40
0.0
  9
$DIMTIX
 70
     0
  9
$DIMSOXD
 70
     0
  9
$DIMSAH
 70
     0
  9
$DIMBLK1
  1

  9
$DIMBLK2
  1

  9
$DIMSTYLE
  2
Standard
  9
$DIMCLRD
 70
     0
  9
$DIMCLRE
 70
     0
  9
$DIMCLRT
 70
     0
  9
$DIMTFAC
 40
1.0
  9
$DIMGAP
 40
1.0
  9
$DIMJUST
 70
     0
  9
$DIMSD1
 70
     0
  9
$DIMSD2
 70
     0
  9
$DIMTOLJ
 70
     1
  9
$DIMTZIN
 70
     0
  9
$DIMALTZ
 70
     0
  9
$DIMALTTZ
 70
     0
  9
$DIMUPT
 70
     0
  9
$DIMDEC
 70
     4
  9
$DIMTDEC
 70
     4
  9
$DIMALTU
 70
     2
  9
$DIMALTTD
 70
     2
  9
$DIMTXSTY
  7
Standard
  9
$DIMAUNIT
 70
     0
  9
$DIMADEC
 70
     0
  9
$DIMALTRND
 40
0.0
  9
$DIMAZIN
 70
     0
  9
$DIMDSEP
 70
     0
  9
$DIMATFIT
 70
     3
  9
$DIMFRAC
 70
     0
  9
$DIMLDRBLK
  1

  9
$DIMLUNIT
 70
     2
  9
$DIMLWD
 70
     0
  9
$DIMLWE
 70
     0
  9
$DIMTMOVE
 70
     0
  9
$LUNITS
 70
     2
  9
$LUPREC
 70
     4
  9
$SKETCHINC
 40
0.1
  9
$FILLETRAD
 40
0.0
  9
$AUNITS
 70
     0
  9
$AUPREC
 70
     0
  9
$MENU
  1
acad
  9
$ELEVATION
 40
0.0
  9
$PELEVATION
 40
0.0
  9
$THICKNESS
 40
0.0
  9
$LIMCHECK
 70
     0
  9
$CHAMFERA
 40
0.0
  9
$CHAMFERB
 40
0.0
  9
$CHAMFERC
 40
0.0
  9
$CHAMFERD
 40
0.0
  9
$SKPOLY
 70
     0
  9
$TDCREATE
 40
0.000000000
  9
$TDUCREATE
 40
0.000000000
  9
$TDUPDATE
 40
0.000000000
  9
$TDUUPDATE
 40
0.000000000
  9
$TDINDWG
 40
0.0000000000
  9
$TDUSRTIMER
 40
0.0000000000
  9
$USRTIMER
 70
     1
  9
$ANGBASE
 50
0.0
  9
$ANGDIR
 70
     0
  9
$PDMODE
 70
     0
  9
$PDSIZE
 40
0.0
  9
$PLINEWID
 40
0.0
  9
$SPLFRAME
 70
     0
  9
$SPLINETYPE
 70
     6
  9
$SPLINESEGS
 70
     8
  9
$HANDSEED
  5
46F
  9
$SURFTAB1
 70
     6
  9
$SURFTAB2
 70
     6
  9
$SURFTYPE
 70
     6
  9
$SURFU
 70
     6
  9
$SURFV
 70
     6
  9
$UCSBASE
  2

  9
$UCSNAME
  2

  9
$UCSORG
 10
0.0
 20
0.0
 30
0.0
  9
$UCSXDIR
 10
1.0
 20
0.0
 30
0.0
  9
$UCSYDIR
 10
0.0
 20
1.0
 30
0.0
  9
$UCSORTHOREF
  2

  9
$UCSORTHOVIEW
 70
     0
  9
$UCSORGTOP
 10
0.0
 20
0.0
 30
0.0
  9
$UCSORGBOTTOM
 10
0.0
 20
0.0
 30
0.0
  9
$UCSORGLEFT
 10
0.0
 20
0.0
 30
0.0
  9
$UCSORGRIGHT
 10
0.0
 20
0.0
 30
0.0
  9
$UCSORGFRONT
 10
0.0
 20
0.0
 30
0.0
  9
$UCSORGBACK
 10
0.0
 20
0.0
 30
0.0
  9
$PUCSBASE
  2

  9
$PUCSNAME
  2

  9
$PUCSORG
 10
0.0
 20
0.0
 30
0.0
  9
$PUCSXDIR
 10
1.0
 20
0.0
 30
0.0
  9
$PUCSYDIR
 10
0.0
 20
1.0
 30
0.0
  9
$PUCSORTHOREF
  2

  9
$PUCSORTHOVIEW
 70
     0
  9
$PUCSORGTOP
 10
0.0
 20
0.0
 30
0.0
  9
$PUCSORGBOTTOM
 10
0.0
 20
0.0
 30
0.0
  9
$PUCSORGLEFT
 10
0.0
 20
0.0
 30
0.0
  9
$PUCSORGRIGHT
 10
0.0
 20
0.0
 30
0.0
  9
$PUCSORGFRONT
 10
0.0
 20
0.0
 30
0.0
  9
$PUCSORGBACK
 10
0.0
 20
0.0
 30
0.0
  9
$USERI1
 70
     0
  9
$USERI2
 70
     0
  9
$USERI3
 70
     0
  9
$USERI4
 70
     0
  9
$USERI5
 70
     0
  9
$USERR1
 40
0.0
  9
$USERR2
 40
0.0
  9
$USERR3
 40
0.0
  9
$USERR4
 40
0.0
  9
$USERR5
 40
0.0
  9
$WORLDVIEW
 70
     1
  9
$SHADEDGE
 70
     3
  9
$SHADEDIF
 70
    70
  9
$TILEMODE
 70
     1
  9
$MAXACTVP
 70
    16
  9
$PINSBASE
 10
0.0
 20
0.0
 30
0.0
  9
$PLIMCHECK
 70
     0
  9
$PEXTMIN
 10
1.000000E+20
 20
1.000000E+20
 30
1.000000E+20
  9
$PEXTMAX
 10
-1.000000E+20
 20
-1.000000E+20
 30
-1.000000E+20
  9
$PLIMMIN
 10
0.0
 20
0.0
  9
$PLIMMAX
 10
210.0
 20
297.0
  9
$UNITMODE
 70
     0
  9
$VISRETAIN
 70
     0
  9
$PLINEGEN
 70
     1
  9
$PSLTSCALE
 70
     0
  9
$TREEDEPTH
 70
  3020
  9
$CMLSTYLE
  2
Standard
  9
$CMLJUST
 70
     0
  9
$CMLSCALE
 40
1.0
  9
$PROXYGRAPHICS
 70
     0
  9
$MEASUREMENT
 70
     0
  9
$CELWEIGHT
370
     0
  9
$ENDCAPS
280
     0
  9
$JOINSTYLE
280
     0
  9
$LWDISPLAY
290
     0
  9
$INSUNITS
 70
     0
  9
$HYPERLINKBASE
  1

  9
$XEDIT
290
     1
  9
$CEPSNTYPE
380
     0
  9
$PSTYLEMODE
290
     0
  9
$FINGERPRINTGUID
  2

  9
$VERSIONGUID
  2

  9
$EXTNAMES
290
     1
  9
$PSVPSCALE
 40
0.0
  0
ENDSEC
  0
SECTION
  2
CLASSES
  0
CLASS
  1
LWPOLYLINE
  2
AcDbPolyline
  3
"AutoCAD"
 90
        0
280
     0
281
     1
  0
CLASS
  1
IMAGE
  2
AcDbRasterImage
  3
ISM
 90
      127
280
     0
281
     1
  0
CLASS
  1
OLE2FRAME
  2
AcDbOle2Frame
  3
""
 90
        0
280
     0
281
     1
  0
CLASS
  1
HATCH
  2
AcDbHatch
  3
"ACAD_SEDONA"
 90
        0
280
     0
281
     1
  0
CLASS
  1
DICTIONARYVAR
  2
AcDbDictionaryVar
  3
"AutoCAD"
 90
        0
280
     0
281
     0
  0
CLASS
  1
RASTERVARIABLES
  2
AcDbRasterVariables
  3
ISM
 90
        0
280
     0
281
     0
  0
CLASS
  1
IMAGEDEF
  2
AcDbRasterImageDef
  3
ISM
 90
        0
280
     0
281
     0
  0
CLASS
  1
IMAGEDEF_REACTOR
  2
AcDbRasterImageDefReactor
  3
ISM
 90
        1
280
     0
281
     0
  0
CLASS
  1
IDBUFFER
  2
AcDbIdBuffer
  3
"Acad"
 90
        0
280
     0
281
     0
  0
CLASS
  1
SPATIAL_FILTER
  2
AcDbSpatialFilter
  3
"Acad"
 90
        0
280
     0
281
     0
  0
CLASS
  1
XRECORD
  2
AcDbXrecord
  3
"<Built In>"
 90
        0
280
     0
281
     0
  0
CLASS
  1
SORTENTSTABLE
  2
AcDbSortentsTable
  3
"AutoCAD"
 90
        0
280
     0
281
     0
  0
CLASS
  1
LAYER_INDEX
  2
AcDbLayerIndex
  3
"Acad"
 90
        0
280
     0
281
     0
  0
CLASS
  1
SPATIAL_INDEX
  2
AcDbSpatialIndex
  3
"Acad"
 90
        0
280
     0
281
     0
  0
CLASS
  1
OBJECT_PTR
  2
CAseDLPNTableRecord
  3
"ASE-LPNTableRecord"
 90
        1
280
     0
281
     0
  0
CLASS
  1
LAYOUT
  2
AcDbLayout
  3
"AutoCAD 2000"
 90
        1
280
     0
281
     0
  0
CLASS
  1
PLOTSETTINGS
  2
AcDbPlotSettings
  3
"AutoCAD 2000"
 90
        1
280
     0
281
     0
  0
CLASS
  1
ACDBDICTIONARYWDFLT
  2
AcDbDictionaryWithDefault
  3
"AutoCAD 2000"
 90
        1
280
     0
281
     0
  0
CLASS
  1
ACDBPLACEHOLDER
  2
AcDbPlaceHolder
  3
"AutoCAD 2000"
 90
        1
280
     0
281
     0
  0
CLASS
  1
VBA_PROJECT
  2
AcDbVbaProject
  3
"acadvba"
 90
        1
280
     0
281
     0
  0
CLASS
  1
WIPEOUT
  2
AcDbWipeout
  3
WipeOut|AutoCAD Express Tool|expresstools@autodesk.com
 90
      127
280
     0
281
     1
  0
CLASS
  1
WIPEOUTVARIABLES
  2
AcDbWipeoutVariables
  3
WipeOut|AutoCAD Express Tool|expresstools@autodesk.com
 90
        0
280
     0
281
     0
  0
CLASS
  1
RTEXT
  2
RText
  3
RText|AutoCAD Express Tool|expresstools@autodesk.com
 90
        0
280
     0
281
     1
  0
CLASS
  1
ARCALIGNEDTEXT
  2
AcDbArcAlignedText
  3
ATEXT|AutoCAD Express Tool|expresstools@autodesk.com
 90
        0
280
     0
281
     1
  0
ENDSEC
  0
SECTION
  2
TABLES
  0
TABLE
  2
VPORT
  5
7
100
AcDbSymbolTable
 70
     1
  0
VPORT
  5
15
100
AcDbSymbolTableRecord
100
AcDbViewportTableRecord
  2
*ACTIVE
 70
     0
 10
0.0
 20
0.0
 11
1.0
 21
1.0
 12
6.591288
 22
4.579184
 13
0.0
 23
0.0
 14
1.0
 24
1.0
 15
0.0
 25
0.0
 16
0.0
 26
0.0
 36
1.0
 17
0.0
 27
0.0
 37
0.0
 40
9.158369
 41
0.688564
 42
50.0
 43
0.0
 44
0.0
 50
0.0
 51
0.0
 71
     0
 72
   100
 73
     1
 74
     1
 75
     0
 76
     0
 77
     0
 78
     0
281
     0
 65
     0
110
0.0
120
0.0
130
0.0
111
1.0
121
0.0
131
0.0
112
0.0
122
1.0
132
0.0
345
0
346
0
 79
     0
146
0.0
  0
ENDTAB
  0
TABLE
  2
LTYPE
  5
4
100
AcDbSymbolTable
 70
     7
  0
LTYPE
  5
11
100
AcDbSymbolTableRecord
100
AcDbLinetypeTableRecord
  2
ByBlock
 70
    64
  3

 72
    65
 73
     0
 40
0.0
  0
LTYPE
  5
12
100
AcDbSymbolTableRecord
100
AcDbLinetypeTableRecord
  2
ByLayer
 70
    64
  3

 72
    65
 73
     0
 40
0.0
  0
LTYPE
  5
13
100
AcDbSymbolTableRecord
100
AcDbLinetypeTableRecord
  2
Continuous
 70
    64
  3
Solid line
 72
    65
 73
     0
 40
0.0
  0
LTYPE
  5
24
100
AcDbSymbolTableRecord
100
AcDbLinetypeTableRecord
  2
HIDDEN
 70
    64
  3
_ _ _ _ _ _ _ _ _ _ _ _ _ _ _ _ _ _ _ _ _ _ _ _
 72
    65
 73
     2
 40
0.1875
 49
0.125
 74
     0
 49
-0.0625
 74
     0
  0
LTYPE
  5
25
100
AcDbSymbolTableRecord
100
AcDbLinetypeTableRecord
  2
DOTTED
 70
    64
  3
...............................................
 72
    65
 73
     2
 40
0.125
 49
0.0
 74
     0
 49
-0.125
 74
     0
  0
LTYPE
  5
26
100
AcDbSymbolTableRecord
100
AcDbLinetypeTableRecord
  2
CENTER
 70
    64
  3
____ _ ____ _ ____ _ ____ _ ____ _ ____ _ ____ 
 72
    65
 73
     4
 40
1.125
 49
0.75
 74
     0
 49
-0.125
 74
     0
 49
0.125
 74
     0
 49
-0.125
 74
     0
  0
LTYPE
  5
27
100
AcDbSymbolTableRecord
100
AcDbLinetypeTableRecord
  2
PHANTOM
 70
    64
  3
______  __  __  ______  __  __  ______  __  __ 
 72
    65
 73
     6
 40
1.25
 49
0.625
 74
     0
 49
-0.125
 74
     0
 49
0.125
 74
     0
 49
-0.125
 74
     0
 49
0.125
 74
     0
 49
-0.125
 74
     0
  0
ENDTAB
  0
TABLE
  2
LAYER
  5
2
100
AcDbSymbolTable
 70
     2
  0
LAYER
  5
14
100
AcDbSymbolTableRecord
100
AcDbLayerTableRecord
  2
0
 70
     0
 62
     7
  6
Continuous
290
     1
370
    -3
390
1D
  0
LAYER
  5
28
100
AcDbSymbolTableRecord
100
AcDbLayerTableRecord
  2
TEXT
 70
     0
 62
     8
  6
Continuous
290
     1
370
    -3
390
1F
  0
ENDTAB
  0
TABLE
  2
STYLE
  5
3
100
AcDbSymbolTable
 70
     1
  0
STYLE
  5
17
100
AcDbSymbolTableRecord
100
AcDbTextStyleTableRecord
  2
Standard
 70
     0
 40
0.0
 41
1.0
 50
0.0
 71
     0
 42
0.0
  3
txt
  4

  0
ENDTAB
  0
TABLE
  2
VIEW
  5
5
100
AcDbSymbolTable
 70
     0
  0
ENDTAB
  0
TABLE
  2
UCS
  5
6
100
AcDbSymbolTable
 70
     0
  0
ENDTAB
  0
TABLE
  2
APPID
  5
8
100
AcDbSymbolTable
 70
     1
  0
APPID
  5
16
100
AcDbSymbolTableRecord
100
AcDbRegAppTableRecord
  2
ACAD
 70
     0
  0
ENDTAB
  0
TABLE
  2
DIMSTYLE
  5
9
100
AcDbSymbolTable
 70
     1
100
AcDbDimStyleTable
 71
     0
  0
DIMSTYLE
105
18
100
AcDbSymbolTableRecord
100
AcDbDimStyleTableRecord
  2
Standard
 70
     0
  3

  4

 40
1.0
 41
0.18
 42
0.0625
 43
0.38
 44
0.18
 45
0.0
 46
0.0
 47
0.0
 48
0.0
 71
     0
 72
     0
 73
     1
 74
     1
 75
     0
 76
     0
 77
     0
 78
     0
 79
     0
140
0.18
141
0.09
142
0.0
143
25.4
144
1.0
145
0.0
146
1.0
147
0.09
148
0.0
170
     0
171
     2
172
     0
173
     0
174
     0
175
     0
176
     0
177
     0
178
     0
179
     0
271
     4
272
     4
273
     2
274
     2
275
     0
276
     0
277
     2
278
    46
279
     0
280
     0
281
     0
282
     0
283
     1
284
     0
285
     0
286
     0
288
     0
340
17
341
0
342
0
343
0
344
0
371
    -2
372
    -2
  0
ENDTAB
  0
TABLE
  2
BLOCK_RECORD
  5
1
100
AcDbSymbolTable
 70
    91
  0
BLOCK_RECORD
  5
A
100
AcDbSymbolTableRecord
100
AcDbBlockTableRecord
  2
*MODEL_SPACE
340
20
  0
BLOCK_RECORD
  5
B
100
AcDbSymbolTableRecord
100
AcDbBlockTableRecord
  2
*PAPER_SPACE
340
21
  0
BLOCK_RECORD
  5
29
100
AcDbSymbolTableRecord
100
AcDbBlockTableRecord
  2
*B0
340
0
  0
BLOCK_RECORD
  5
2C
100
AcDbSymbolTableRecord
100
AcDbBlockTableRecord
  2
*B1
340
0
  0
BLOCK_RECORD
  5
2F
100
AcDbSymbolTableRecord
100
AcDbBlockTableRecord
  2
*B2
340
0
  0
BLOCK_RECORD
  5
32
100
AcDbSymbolTableRecord
100
AcDbBlockTableRecord
  2
*B3
340
0
  0
BLOCK_RECORD
  5
137
100
AcDbSymbolTableRecord
100
AcDbBlockTableRecord
  2
*B4
340
0
  0
BLOCK_RECORD
  5
13D
100
AcDbSymbolTableRecord
100
AcDbBlockTableRecord
  2
*B5
340
0
  0
BLOCK_RECORD
  5
146
100
AcDbSymbolTableRecord
100
AcDbBlockTableRecord
  2
*B6
340
0
  0
BLOCK_RECORD
  5
149
100
AcDbSymbolTableRecord
100
AcDbBlockTableRecord
  2
*B7
340
0
  0
BLOCK_RECORD
  5
14C
100
AcDbSymbolTableRecord
100
AcDbBlockTableRecord
  2
*B8
340
0
  0
BLOCK_RECORD
  5
1EB
100
AcDbSymbolTableRecord
100
AcDbBlockTableRecord
  2
*B9
340
0
  0
BLOCK_RECORD
  5
1F1
100
AcDbSymbolTableRecord
100
AcDbBlockTableRecord
  2
*B10
340
0
  0
BLOCK_RECORD
  5
1F4
100
AcDbSymbolTableRecord
100
AcDbBlockTableRecord
  2
*B11
340
0
  0
BLOCK_RECORD
  5
1F7
100
AcDbSymbolTableRecord
100
AcDbBlockTableRecord
  2
*B12
340
0
  0
BLOCK_RECORD
  5
1FE
100
AcDbSymbolTableRecord
100
AcDbBlockTableRecord
  2
*B13
340
0
  0
BLOCK_RECORD
  5
205
100
AcDbSymbolTableRecord
100
AcDbBlockTableRecord
  2
*B14
340
0
  0
BLOCK_RECORD
  5
20C
100
AcDbSymbolTableRecord
100
AcDbBlockTableRecord
  2
*B15
340
0
  0
BLOCK_RECORD
  5
213
100
AcDbSymbolTableRecord
100
AcDbBlockTableRecord
  2
*B16
340
0
  0
BLOCK_RECORD
  5
21A
100
AcDbSymbolTableRecord
100
AcDbBlockTableRecord
  2
*B17
340
0
  0
BLOCK_RECORD
  5
221
100
AcDbSymbolTableRecord
100
AcDbBlockTableRecord
  2
*B18
340
0
  0
BLOCK_RECORD
  5
228
100
AcDbSymbolTableRecord
100
AcDbBlockTableRecord
  2
*B19
340
0
  0
BLOCK_RECORD
  5
22F
100
AcDbSymbolTableRecord
100
AcDbBlockTableRecord
  2
*B20
340
0
  0
BLOCK_RECORD
  5
236
100
AcDbSymbolTableRecord
100
AcDbBlockTableRecord
  2
*B21
340
0
  0
BLOCK_RECORD
  5
23D
100
AcDbSymbolTableRecord
100
AcDbBlockTableRecord
  2
*B22
340
0
  0
BLOCK_RECORD
  5
244
100
AcDbSymbolTableRecord
100
AcDbBlockTableRecord
  2
*B23
340
0
  0
BLOCK_RECORD
  5
24B
100
AcDbSymbolTableRecord
100
AcDbBlockTableRecord
  2
*B24
340
0
  0
BLOCK_RECORD
  5
252
100
AcDbSymbolTableRecord
100
AcDbBlockTableRecord
  2
*B25
340
0
  0
BLOCK_RECORD
  5
259
100
AcDbSymbolTableRecord
100
AcDbBlockTableRecord
  2
*B26
340
0
  0
BLOCK_RECORD
  5
260
100
AcDbSymbolTableRecord
100
AcDbBlockTableRecord
  2
*B27
340
0
  0
BLOCK_RECORD
  5
267
100
AcDbSymbolTableRecord
100
AcDbBlockTableRecord
  2
*B28
340
0
  0
BLOCK_RECORD
  5
26E
100
AcDbSymbolTableRecord
100
AcDbBlockTableRecord
  2
*B29
340
0
  0
BLOCK_RECORD
  5
275
100
AcDbSymbolTableRecord
100
AcDbBlockTableRecord
  2
*B30
340
0
  0
BLOCK_RECORD
  5
27C
100
AcDbSymbolTableRecord
100
AcDbBlockTableRecord
  2
*B31
340
0
  0
BLOCK_RECORD
  5
282
100
AcDbSymbolTableRecord
100
AcDbBlockTableRecord
  2
*B32
340
0
  0
BLOCK_RECORD
  5
288
100
AcDbSymbolTableRecord
100
AcDbBlockTableRecord
  2
*B33
340
0
  0
BLOCK_RECORD
  5
28D
100
AcDbSymbolTableRecord
100
AcDbBlockTableRecord
  2
*B34
340
0
  0
BLOCK_RECORD
  5
299
100
AcDbSymbolTableRecord
100
AcDbBlockTableRecord
  2
*B35
340
0
  0
BLOCK_RECORD
  5
2C6
100
AcDbSymbolTableRecord
100
AcDbBlockTableRecord
  2
*B36
340
0
  0
BLOCK_RECORD
  5
2CB
100
AcDbSymbolTableRecord
100
AcDbBlockTableRecord
  2
*B37
340
0
  0
BLOCK_RECORD
  5
2FC
100
AcDbSymbolTableRecord
100
AcDbBlockTableRecord
  2
*B38
340
0
  0
BLOCK_RECORD
  5
301
100
AcDbSymbolTableRecord
100
AcDbBlockTableRecord
  2
*B39
340
0
  0
BLOCK_RECORD
  5
306
100
AcDbSymbolTableRecord
100
AcDbBlockTableRecord
  2
*B40
340
0
  0
BLOCK_RECORD
  5
30C
100
AcDbSymbolTableRecord
100
AcDbBlockTableRecord
  2
*B41
340
0
  0
BLOCK_RECORD
  5
31F
100
AcDbSymbolTableRecord
100
AcDbBlockTableRecord
  2
*B42
340
0
  0
BLOCK_RECORD
  5
324
100
AcDbSymbolTableRecord
100
AcDbBlockTableRecord
  2
*B43
340
0
  0
BLOCK_RECORD
  5
329
100
AcDbSymbolTableRecord
100
AcDbBlockTableRecord
  2
*B44
340
0
  0
BLOCK_RECORD
  5
33E
100
AcDbSymbolTableRecord
100
AcDbBlockTableRecord
  2
*B45
340
0
  0
BLOCK_RECORD
  5
351
100
AcDbSymbolTableRecord
100
AcDbBlockTableRecord
  2
*B46
340
0
  0
BLOCK_RECORD
  5
356
100
AcDbSymbolTableRecord
100
AcDbBlockTableRecord
  2
*B47
340
0
  0
BLOCK_RECORD
  5
35C
100
AcDbSymbolTableRecord
100
AcDbBlockTableRecord
  2
*B48
340
0
  0
BLOCK_RECORD
  5
362
100
AcDbSymbolTableRecord
100
AcDbBlockTableRecord
  2
*B49
340
0
  0
BLOCK_RECORD
  5
367
100
AcDbSymbolTableRecord
100
AcDbBlockTableRecord
  2
*B50
340
0
  0
BLOCK_RECORD
  5
373
100
AcDbSymbolTableRecord
100
AcDbBlockTableRecord
  2
*B51
340
0
  0
BLOCK_RECORD
  5
379
100
AcDbSymbolTableRecord
100
AcDbBlockTableRecord
  2
*B52
340
0
  0
BLOCK_RECORD
  5
38A
100
AcDbSymbolTableRecord
100
AcDbBlockTableRecord
  2
*B53
340
0
  0
BLOCK_RECORD
  5
39D
100
AcDbSymbolTableRecord
100
AcDbBlockTableRecord
  2
*B54
340
0
  0
BLOCK_RECORD
  5
3A2
100
AcDbSymbolTableRecord
100
AcDbBlockTableRecord
  2
*B55
340
0
  0
BLOCK_RECORD
  5
3A8
100
AcDbSymbolTableRecord
100
AcDbBlockTableRecord
  2
*B56
340
0
  0
BLOCK_RECORD
  5
3AE
100
AcDbSymbolTableRecord
100
AcDbBlockTableRecord
  2
*B57
340
0
  0
BLOCK_RECORD
  5
3B3
100
AcDbSymbolTableRecord
100
AcDbBlockTableRecord
  2
*B58
340
0
  0
BLOCK_RECORD
  5
3B9
100
AcDbSymbolTableRecord
100
AcDbBlockTableRecord
  2
*B59
340
0
  0
BLOCK_RECORD
  5
3BF
100
AcDbSymbolTableRecord
100
AcDbBlockTableRecord
  2
*B60
340
0
  0
BLOCK_RECORD
  5
3C5
100
AcDbSymbolTableRecord
100
AcDbBlockTableRecord
  2
*B61
340
0
  0
BLOCK_RECORD
  5
3CB
100
AcDbSymbolTableRecord
100
AcDbBlockTableRecord
  2
*B62
340
0
  0
BLOCK_RECORD
  5
3D1
100
AcDbSymbolTableRecord
100
AcDbBlockTableRecord
  2
*B63
340
0
  0
BLOCK_RECORD
  5
3E5
100
AcDbSymbolTableRecord
100
AcDbBlockTableRecord
  2
*B64
340
0
  0
BLOCK_RECORD
  5
3EC
100
AcDbSymbolTableRecord
100
AcDbBlockTableRecord
  2
*B65
340
0
  0
BLOCK_RECORD
  5
3F1
100
AcDbSymbolTableRecord
100
AcDbBlockTableRecord
  2
*B66
340
0
  0
BLOCK_RECORD
  5
3F6
100
AcDbSymbolTableRecord
100
AcDbBlockTableRecord
  2
*B67
340
0
  0
BLOCK_RECORD
  5
3FB
100
AcDbSymbolTableRecord
100
AcDbBlockTableRecord
  2
*B68
340
0
  0
BLOCK_RECORD
  5
400
100
AcDbSymbolTableRecord
100
AcDbBlockTableRecord
  2
*B69
340
0
  0
BLOCK_RECORD
  5
405
100
AcDbSymbolTableRecord
100
AcDbBlockTableRecord
  2
*B70
340
0
  0
BLOCK_RECORD
  5
40A
100
AcDbSymbolTableRecord
100
AcDbBlockTableRecord
  2
*B71
340
0
  0
BLOCK_RECORD
  5
40F
100
AcDbSymbolTableRecord
100
AcDbBlockTableRecord
  2
*B72
340
0
  0
BLOCK_RECORD
  5
414
100
AcDbSymbolTableRecord
100
AcDbBlockTableRecord
  2
*B73
340
0
  0
BLOCK_RECORD
  5
419
100
AcDbSymbolTableRecord
100
AcDbBlockTableRecord
  2
*B74
340
0
  0
BLOCK_RECORD
  5
41E
100
AcDbSymbolTableRecord
100
AcDbBlockTableRecord
  2
*B75
340
0
  0
BLOCK_RECORD
  5
423
100
AcDbSymbolTableRecord
100
AcDbBlockTableRecord
  2
*B76
340
0
  0
BLOCK_RECORD
  5
428
100
AcDbSymbolTableRecord
100
AcDbBlockTableRecord
  2
*B77
340
0
  0
BLOCK_RECORD
  5
42D
100
AcDbSymbolTableRecord
100
AcDbBlockTableRecord
  2
*B78
340
0
  0
BLOCK_RECORD
  5
432
100
AcDbSymbolTableRecord
100
AcDbBlockTableRecord
  2
*B79
340
0
  0
BLOCK_RECORD
  5
437
100
AcDbSymbolTableRecord
100
AcDbBlockTableRecord
  2
*B80
340
0
  0
BLOCK_RECORD
  5
43C
100
AcDbSymbolTableRecord
100
AcDbBlockTableRecord
  2
*B81
340
0
  0
BLOCK_RECORD
  5
441
100
AcDbSymbolTableRecord
100
AcDbBlockTableRecord
  2
*B82
340
0
  0
BLOCK_RECORD
  5
446
100
AcDbSymbolTableRecord
100
AcDbBlockTableRecord
  2
*B83
340
0
  0
BLOCK_RECORD
  5
44B
100
AcDbSymbolTableRecord
100
AcDbBlockTableRecord
  2
*B84
340
0
  0
BLOCK_RECORD
  5
450
100
AcDbSymbolTableRecord
100
AcDbBlockTableRecord
  2
*B85
340
0
  0
BLOCK_RECORD
  5
455
100
AcDbSymbolTableRecord
100
AcDbBlockTableRecord
  2
*B86
340
0
  0
BLOCK_RECORD
  5
45A
100
AcDbSymbolTableRecord
100
AcDbBlockTableRecord
  2
*B87
340
0
  0
BLOCK_RECORD
  5
45F
100
AcDbSymbolTableRecord
100
AcDbBlockTableRecord
  2
*B88
340
0
  0
BLOCK_RECORD
  5
464
100
AcDbSymbolTableRecord
100
AcDbBlockTableRecord
  2
*B89
340
0
  0
BLOCK_RECORD
  5
46A
100
AcDbSymbolTableRecord
100
AcDbBlockTableRecord
  2
*B90
340
0
  0
ENDTAB
  0
ENDSEC
  0
SECTION
  2
BLOCKS
  0
BLOCK
  5
D
100
AcDbEntity
  8
0
100
AcDbBlockBegin
  2
*MODEL_SPACE
 70
     0
 10
0.0
 20
0.0
 30
0.0
  3
*MODEL_SPACE
  1

  0
ENDBLK
  5
E
100
AcDbEntity
  8
0
100
AcDbBlockEnd
  0
BLOCK
  5
F
100
AcDbEntity
 67
     1
  8
0
100
AcDbBlockBegin
  2
*PAPER_SPACE
 70
     0
 10
0.0
 20
0.0
 30
0.0
  3
*PAPER_SPACE
  1

  0
ENDBLK
  5
10
100
AcDbEntity
 67
     1
  8
0
100
AcDbBlockEnd
  0
BLOCK
  5
2A
100
AcDbEntity
  8
0
100
AcDbBlockBegin
  2
*B0
 70
     0
 10
0.0
 20
0.0
 30
0.0
  3
*B0
  1

  0
ENDBLK
  5
2B
100
AcDbEntity
  8
0
100
AcDbBlockEnd
  0
BLOCK
  5
2D
100
AcDbEntity
  8
0
100
AcDbBlockBegin
  2
*B1
 70
     0
 10
0.0
 20
0.0
 30
0.0
  3
*B1
  1

  0
ENDBLK
  5
2E
100
AcDbEntity
  8
0
100
AcDbBlockEnd
  0
BLOCK
  5
30
100
AcDbEntity
  8
0
100
AcDbBlockBegin
  2
*B2
 70
     0
 10
0.0
 20
0.0
 30
0.0
  3
*B2
  1

  0
ENDBLK
  5
31
100
AcDbEntity
  8
0
100
AcDbBlockEnd
  0
BLOCK
  5
33
100
AcDbEntity
  8
0
100
AcDbBlockBegin
  2
*B3
 70
     0
 10
0.0
 20
0.0
 30
0.0
  3
*B3
  1

  0
LINE
  5
34
100
AcDbEntity
  8
0
  6
HIDDEN
 62
   174
100
AcDbLine
 10
158.436095
 20
164.707275
 30
0.0
 11
158.436095
 21
172.707275
 31
0.0
  0
LINE
  5
35
100
AcDbEntity
  8
0
  6
HIDDEN
 62
   174
100
AcDbLine
 10
126.436095
 20
164.707275
 30
0.0
 11
126.436095
 21
172.707275
 31
0.0
  0
LINE
  5
36
100
AcDbEntity
  8
0
  6
HIDDEN
 62
   174
100
AcDbLine
 10
158.436095
 20
164.707275
 30
0.0
 11
158.436095
 21
172.707275
 31
0.0
  0
LINE
  5
37
100
AcDbEntity
  8
0
  6
HIDDEN
 62
   174
100
AcDbLine
 10
126.436095
 20
164.707275
 30
0.0
 11
126.436095
 21
172.707275
 31
0.0
  0
LINE
  5
38
100
AcDbEntity
  8
0
  6
HIDDEN
 62
   174
100
AcDbLine
 10
158.445238
 20
164.707275
 30
0.0
 11
142.446213
 21
164.707275
 31
0.0
  0
LINE
  5
39
100
AcDbEntity
  8
0
  6
HIDDEN
 62
   174
100
AcDbLine
 10
142.446213
 20
164.707275
 30
0.0
 11
126.447189
 21
164.707275
 31
0.0
  0
LINE
  5
3A
100
AcDbEntity
  8
0
  6
HIDDEN
 62
   174
100
AcDbLine
 10
126.447189
 20
172.707275
 30
0.0
 11
158.445238
 21
172.707275
 31
0.0
  0
LINE
  5
3B
100
AcDbEntity
  8
0
  6
Continuous
 62
   174
100
AcDbLine
 10
128.43105
 20
188.712416
 30
0.0
 11
126.430329
 21
186.713151
 31
0.0
  0
LINE
  5
3C
100
AcDbEntity
  8
0
  6
Continuous
 62
   174
100
AcDbLine
 10
156.442703
 20
188.714139
 30
0.0
 11
158.443648
 21
186.715119
 31
0.0
  0
LINE
  5
3D
100
AcDbEntity
  8
0
  6
Continuous
 62
   174
100
AcDbLine
 10
128.429427
 20
188.714079
 30
0.0
 11
126.428475
 21
186.715051
 31
0.0
  0
LINE
  5
3E
100
AcDbEntity
  8
0
  6
Continuous
 62
   174
100
AcDbLine
 10
156.441155
 20
188.712401
 30
0.0
 11
158.441878
 21
186.713133
 31
0.0
  0
LINE
  5
3F
100
AcDbEntity
  8
0
  6
HIDDEN
 62
   174
100
AcDbLine
 10
158.436095
 20
164.707275
 30
0.0
 11
158.436095
 21
172.707275
 31
0.0
  0
LINE
  5
40
100
AcDbEntity
  8
0
  6
Continuous
 62
   174
100
AcDbLine
 10
126.436095
 20
172.707275
 30
0.0
 11
126.436095
 21
186.707275
 31
0.0
  0
LINE
  5
41
100
AcDbEntity
  8
0
  6
Continuous
 62
   174
100
AcDbLine
 10
158.436095
 20
172.707275
 30
0.0
 11
158.436095
 21
186.707275
 31
0.0
  0
LINE
  5
42
100
AcDbEntity
  8
0
  6
HIDDEN
 62
   174
100
AcDbLine
 10
112.436095
 20
71.975431
 30
0.0
 11
112.436095
 21
89.475493
 31
0.0
  0
LINE
  5
43
100
AcDbEntity
  8
0
  6
HIDDEN
 62
   174
100
AcDbLine
 10
112.436095
 20
135.975354
 30
0.0
 11
112.436095
 21
153.475416
 31
0.0
  0
LINE
  5
44
100
AcDbEntity
  8
0
  6
HIDDEN
 62
   174
100
AcDbLine
 10
161.436095
 20
172.707275
 30
0.0
 11
164.375405
 21
171.010264
 31
0.0
  0
LINE
  5
45
100
AcDbEntity
  8
0
  6
Continuous
 62
   174
100
AcDbLine
 10
131.46644
 20
166.404287
 30
0.0
 11
131.46644
 21
171.010264
 31
0.0
  0
LINE
  5
46
100
AcDbEntity
  8
0
  6
Continuous
 62
   174
100
AcDbLine
 10
142.446213
 20
164.707275
 30
0.0
 11
152.660319
 21
164.707275
 31
0.0
  0
LINE
  5
47
100
AcDbEntity
  8
0
  6
Continuous
 62
   174
100
AcDbLine
 10
158.899841
 20
172.707275
 30
0.0
 11
161.445188
 21
172.707275
 31
0.0
  0
LWPOLYLINE
  5
48
100
AcDbEntity
  8
0
  6
HIDDEN
 62
   174
100
AcDbPolyline
 90
        9
 70
   128
 10
164.375405
 20
171.010264
 10
163.701216
 20
171.38101
 10
163.023586
 20
171.714112
 10
162.342275
 20
172.005642
 10
161.657548
 20
172.251454
 10
160.969497
 20
172.447688
 10
160.27865
 20
172.590798
 10
159.585406
 20
172.677974
 10
158.890578
 20
172.707275
  0
LWPOLYLINE
  5
49
100
AcDbEntity
  8
0
  6
HIDDEN
 62
   174
100
AcDbPolyline
 90
        9
 70
   128
 10
142.436095
 20
172.707275
 10
143.826825
 20
172.677928
 10
145.215653
 20
172.590513
 10
146.599664
 20
172.446981
 10
147.976782
 20
172.250364
 10
149.345152
 20
172.004526
 10
150.705453
 20
171.713343
 10
152.058421
 20
171.380736
 10
153.40575
 20
171.010264
  0
LWPOLYLINE
  5
4A
100
AcDbEntity
  8
0
  6
Continuous
 62
   174
100
AcDbPolyline
 90
        9
 70
   128
 10
153.40575
 20
171.010264
 10
154.079939
 20
171.38101
 10
154.757569
 20
171.714112
 10
155.43888
 20
172.005642
 10
156.123607
 20
172.251454
 10
156.811658
 20
172.447688
 10
157.502505
 20
172.590798
 10
158.19575
 20
172.677974
 10
158.890578
 20
172.707275
  0
LINE
  5
4B
100
AcDbEntity
  8
0
  6
HIDDEN
 62
   174
100
AcDbLine
 10
112.436095
 20
154.45536
 30
0.0
 11
112.436095
 21
134.99541
 31
0.0
  0
LINE
  5
4C
100
AcDbEntity
  8
0
  6
HIDDEN
 62
   174
100
AcDbLine
 10
126.436095
 20
154.437275
 30
0.0
 11
112.436095
 21
154.437275
 31
0.0
  0
LWPOLYLINE
  5
4D
100
AcDbEntity
  8
0
  6
HIDDEN
 62
   174
100
AcDbPolyline
 90
        9
 70
   128
 10
125.981612
 20
172.707275
 10
125.286247
 20
172.677928
 10
124.591833
 20
172.590513
 10
123.899827
 20
172.446981
 10
123.211268
 20
172.250364
 10
122.527083
 20
172.004526
 10
121.846933
 20
171.713343
 10
121.170449
 20
171.380736
 10
120.496785
 20
171.010264
  0
LINE
  5
4E
100
AcDbEntity
  8
0
  6
HIDDEN
 62
   174
100
AcDbLine
 10
126.436095
 20
90.455437
 30
0.0
 11
126.436095
 21
70.995487
 31
0.0
  0
LINE
  5
4F
100
AcDbEntity
  8
0
  6
Continuous
 62
   174
100
AcDbLine
 10
137.306659
 20
188.715565
 30
0.0
 11
128.445102
 21
188.715565
 31
0.0
  0
LINE
  5
50
100
AcDbEntity
  8
0
  6
Continuous
 62
   174
100
AcDbLine
 10
156.437988
 20
188.715565
 30
0.0
 11
128.434201
 21
188.715565
 31
0.0
  0
LINE
  5
51
100
AcDbEntity
  8
0
  6
HIDDEN
 62
   174
100
AcDbLine
 10
158.458622
 20
186.709467
 30
0.0
 11
126.447189
 21
186.709467
 31
0.0
  0
LINE
  5
52
100
AcDbEntity
  8
0
  6
HIDDEN
 62
   174
100
AcDbLine
 10
129.436095
 20
153.475416
 30
0.0
 11
129.436095
 21
135.975354
 31
0.0
  0
LINE
  5
53
100
AcDbEntity
  8
0
  6
HIDDEN
 62
   174
100
AcDbLine
 10
123.436095
 20
164.707275
 30
0.0
 11
120.496785
 21
166.404287
 31
0.0
  0
LINE
  5
54
100
AcDbEntity
  8
0
  6
HIDDEN
 62
   174
100
AcDbLine
 10
155.436095
 20
119.97548
 30
0.0
 11
155.436095
 21
137.475329
 31
0.0
  0
LINE
  5
55
100
AcDbEntity
  8
0
  6
HIDDEN
 62
   174
100
AcDbLine
 10
172.436095
 20
105.475368
 30
0.0
 11
172.436095
 21
87.975518
 31
0.0
  0
LINE
  5
56
100
AcDbEntity
  8
0
  6
HIDDEN
 62
   174
100
AcDbLine
 10
158.899841
 20
164.707275
 30
0.0
 11
161.445188
 21
164.707275
 31
0.0
  0
LINE
  5
57
100
AcDbEntity
  8
0
  6
Continuous
 62
   174
100
AcDbLine
 10
132.229347
 20
164.707275
 30
0.0
 11
142.446213
 21
164.707275
 31
0.0
  0
LWPOLYLINE
  5
58
100
AcDbEntity
  8
0
  6
HIDDEN
 62
   174
100
AcDbPolyline
 90
        9
 70
   128
 10
131.46644
 20
166.404287
 10
130.792251
 20
166.03354
 10
130.114621
 20
165.700438
 10
129.43331
 20
165.408908
 10
128.748582
 20
165.163096
 10
128.060532
 20
164.966862
 10
127.369684
 20
164.823752
 10
126.67644
 20
164.736577
 10
125.981612
 20
164.707275
  0
LWPOLYLINE
  5
59
100
AcDbEntity
  8
0
  6
Continuous
 62
   174
100
AcDbPolyline
 90
        9
 70
   128
 10
142.436095
 20
164.707275
 10
143.826825
 20
164.736622
 10
145.215653
 20
164.824037
 10
146.599664
 20
164.96757
 10
147.976782
 20
165.164186
 10
149.345152
 20
165.410024
 10
150.705453
 20
165.701208
 10
152.058421
 20
166.033814
 10
153.40575
 20
166.404287
  0
LWPOLYLINE
  5
5A
100
AcDbEntity
  8
0
  6
Continuous
 62
   174
100
AcDbPolyline
 90
        9
 70
   128
 10
125.981612
 20
164.707275
 10
126.676977
 20
164.736622
 10
127.371391
 20
164.824037
 10
128.063397
 20
164.96757
 10
128.751956
 20
165.164186
 10
129.436141
 20
165.410024
 10
130.116291
 20
165.701208
 10
130.792775
 20
166.033814
 10
131.46644
 20
166.404287
  0
LINE
  5
5B
100
AcDbEntity
  8
0
  6
Continuous
 62
   174
100
AcDbLine
 10
147.436095
 20
188.707275
 30
0.0
 11
147.436095
 21
202.707275
 31
0.0
  0
LINE
  5
5C
100
AcDbEntity
  8
0
  6
Continuous
 62
   174
100
AcDbLine
 10
120.496785
 20
166.404287
 30
0.0
 11
121.848604
 21
165.700438
 31
0.0
  0
LWPOLYLINE
  5
5D
100
AcDbEntity
  8
0
  6
Continuous
 62
   174
100
AcDbPolyline
 90
        7
 70
   128
 10
121.848604
 20
165.700438
 10
122.529914
 20
165.408908
 10
123.214642
 20
165.163096
 10
123.902693
 20
164.966862
 10
124.59354
 20
164.823752
 10
125.286784
 20
164.736577
 10
125.981612
 20
164.707275
  0
LINE
  5
5E
100
AcDbEntity
  8
0
  6
HIDDEN
 62
   174
100
AcDbLine
 10
126.436095
 20
164.707275
 30
0.0
 11
126.436095
 21
172.707275
 31
0.0
  0
LINE
  5
5F
100
AcDbEntity
  8
0
  6
Continuous
 62
   174
100
AcDbLine
 10
112.436095
 20
164.707275
 30
0.0
 11
112.436095
 21
60.707275
 31
0.0
  0
LINE
  5
60
100
AcDbEntity
  8
0
  6
Continuous
 62
   174
100
AcDbLine
 10
153.40575
 20
166.404287
 30
0.0
 11
153.40575
 21
171.010264
 31
0.0
  0
LWPOLYLINE
  5
61
100
AcDbEntity
  8
0
  6
HIDDEN
 62
   174
100
AcDbPolyline
 90
        9
 70
   128
 10
125.981612
 20
164.707275
 10
125.286247
 20
164.736622
 10
124.591833
 20
164.824037
 10
123.899827
 20
164.96757
 10
123.211268
 20
165.164186
 10
122.527083
 20
165.410024
 10
121.846933
 20
165.701208
 10
121.170449
 20
166.033814
 10
120.496785
 20
166.404287
  0
LINE
  5
62
100
AcDbEntity
  8
0
  6
HIDDEN
 62
   174
100
AcDbLine
 10
112.436095
 20
153.457275
 30
0.0
 11
129.436095
 21
153.457275
 31
0.0
  0
LINE
  5
63
100
AcDbEntity
  8
0
  6
HIDDEN
 62
   174
100
AcDbLine
 10
112.436095
 20
153.457275
 30
0.0
 11
129.436095
 21
153.457275
 31
0.0
  0
LINE
  5
64
100
AcDbEntity
  8
0
  6
HIDDEN
 62
   174
100
AcDbLine
 10
112.436095
 20
135.957275
 30
0.0
 11
129.436095
 21
135.957275
 31
0.0
  0
LINE
  5
65
100
AcDbEntity
  8
0
  6
HIDDEN
 62
   174
100
AcDbLine
 10
126.436095
 20
135.957275
 30
0.0
 11
112.436095
 21
135.957275
 31
0.0
  0
LINE
  5
66
100
AcDbEntity
  8
0
  6
HIDDEN
 62
   174
100
AcDbLine
 10
126.436095
 20
90.437275
 30
0.0
 11
112.436095
 21
90.437275
 31
0.0
  0
LINE
  5
67
100
AcDbEntity
  8
0
  6
HIDDEN
 62
   174
100
AcDbLine
 10
112.436095
 20
89.457275
 30
0.0
 11
129.436095
 21
89.457275
 31
0.0
  0
LWPOLYLINE
  5
68
100
AcDbEntity
  8
0
  6
HIDDEN
 62
   174
100
AcDbPolyline
 90
        9
 70
   128
 10
158.890578
 20
164.707275
 10
158.195212
 20
164.736622
 10
157.500799
 20
164.824037
 10
156.808793
 20
164.96757
 10
156.120234
 20
165.164186
 10
155.436049
 20
165.410024
 10
154.755898
 20
165.701208
 10
154.079415
 20
166.033814
 10
153.40575
 20
166.404287
  0
LINE
  5
69
100
AcDbEntity
  8
0
  6
Continuous
 62
   174
100
AcDbLine
 10
126.436095
 20
172.707275
 30
0.0
 11
126.436095
 21
186.707275
 31
0.0
  0
LINE
  5
6A
100
AcDbEntity
  8
0
  6
Continuous
 62
   174
100
AcDbLine
 10
158.445238
 20
186.709247
 30
0.0
 11
126.437417
 21
186.709247
 31
0.0
  0
LINE
  5
6B
100
AcDbEntity
  8
0
  6
HIDDEN
 62
   174
100
AcDbLine
 10
161.436095
 20
164.707275
 30
0.0
 11
164.375405
 21
166.404287
 31
0.0
  0
LINE
  5
6C
100
AcDbEntity
  8
0
  6
Continuous
 62
   174
100
AcDbLine
 10
112.436095
 20
60.707275
 30
0.0
 11
172.436095
 21
60.707275
 31
0.0
  0
LINE
  5
6D
100
AcDbEntity
  8
0
  6
HIDDEN
 62
   174
100
AcDbLine
 10
131.46644
 20
166.404287
 30
0.0
 11
131.46644
 21
171.010264
 31
0.0
  0
LWPOLYLINE
  5
6E
100
AcDbEntity
  8
0
  6
HIDDEN
 62
   174
100
AcDbPolyline
 90
        9
 70
   128
 10
131.46644
 20
171.010264
 10
130.792251
 20
171.38101
 10
130.114621
 20
171.714112
 10
129.43331
 20
172.005642
 10
128.748582
 20
172.251454
 10
128.060532
 20
172.447688
 10
127.369684
 20
172.590798
 10
126.67644
 20
172.677974
 10
125.981612
 20
172.707275
  0
LINE
  5
6F
100
AcDbEntity
  8
0
  6
HIDDEN
 62
   174
100
AcDbLine
 10
126.436095
 20
153.457275
 30
0.0
 11
112.436095
 21
153.457275
 31
0.0
  0
LINE
  5
70
100
AcDbEntity
  8
0
  6
HIDDEN
 62
   174
100
AcDbLine
 10
126.436095
 20
153.457275
 30
0.0
 11
112.436095
 21
153.457275
 31
0.0
  0
LINE
  5
71
100
AcDbEntity
  8
0
  6
HIDDEN
 62
   174
100
AcDbLine
 10
112.436095
 20
71.957275
 30
0.0
 11
129.436095
 21
71.957275
 31
0.0
  0
LINE
  5
72
100
AcDbEntity
  8
0
  6
HIDDEN
 62
   174
100
AcDbLine
 10
126.436095
 20
121.457275
 30
0.0
 11
112.436095
 21
121.457275
 31
0.0
  0
LINE
  5
73
100
AcDbEntity
  8
0
  6
HIDDEN
 62
   174
100
AcDbLine
 10
158.436095
 20
164.707275
 30
0.0
 11
158.436095
 21
172.707275
 31
0.0
  0
LINE
  5
74
100
AcDbEntity
  8
0
  6
Continuous
 62
   174
100
AcDbLine
 10
147.587043
 20
188.715565
 30
0.0
 11
137.309633
 21
188.715565
 31
0.0
  0
LINE
  5
75
100
AcDbEntity
  8
0
  6
Continuous
 62
   174
100
AcDbLine
 10
125.992586
 20
172.707275
 30
0.0
 11
142.446213
 21
172.707275
 31
0.0
  0
LINE
  5
76
100
AcDbEntity
  8
0
  6
Continuous
 62
   174
100
AcDbLine
 10
123.447239
 20
172.707275
 30
0.0
 11
125.992586
 21
172.707275
 31
0.0
  0
LWPOLYLINE
  5
77
100
AcDbEntity
  8
0
  6
HIDDEN
 62
   174
100
AcDbPolyline
 90
        9
 70
   128
 10
131.46644
 20
171.010264
 10
132.814818
 20
171.38101
 10
134.170078
 20
171.714112
 10
135.532699
 20
172.005642
 10
136.902154
 20
172.251454
 10
138.278256
 20
172.447688
 10
139.659951
 20
172.590798
 10
141.046439
 20
172.677974
 10
142.436095
 20
172.707275
  0
LWPOLYLINE
  5
78
100
AcDbEntity
  8
0
  6
Continuous
 62
   174
100
AcDbPolyline
 90
        9
 70
   128
 10
142.436095
 20
172.707275
 10
143.826825
 20
172.677928
 10
145.215653
 20
172.590513
 10
146.599664
 20
172.446981
 10
147.976782
 20
172.250364
 10
149.345152
 20
172.004526
 10
150.705453
 20
171.713343
 10
152.058421
 20
171.380736
 10
153.40575
 20
171.010264
  0
LINE
  5
79
100
AcDbEntity
  8
0
  6
Continuous
 62
   174
100
AcDbLine
 10
137.436095
 20
188.707275
 30
0.0
 11
137.436095
 21
202.707275
 31
0.0
  0
LWPOLYLINE
  5
7A
100
AcDbEntity
  8
0
  6
Continuous
 62
   174
100
AcDbPolyline
 90
        9
 70
   128
 10
131.46644
 20
171.010264
 10
132.814818
 20
171.38101
 10
134.170078
 20
171.714112
 10
135.532699
 20
172.005642
 10
136.902154
 20
172.251454
 10
138.278256
 20
172.447688
 10
139.659951
 20
172.590798
 10
141.046439
 20
172.677974
 10
142.436095
 20
172.707275
  0
LINE
  5
7B
100
AcDbEntity
  8
0
  6
HIDDEN
 62
   174
100
AcDbLine
 10
112.436095
 20
135.957275
 30
0.0
 11
129.436095
 21
135.957275
 31
0.0
  0
LINE
  5
7C
100
AcDbEntity
  8
0
  6
HIDDEN
 62
   174
100
AcDbLine
 10
126.436095
 20
70.977275
 30
0.0
 11
112.436095
 21
70.977275
 31
0.0
  0
LINE
  5
7D
100
AcDbEntity
  8
0
  6
HIDDEN
 62
   174
100
AcDbLine
 10
126.436095
 20
71.957275
 30
0.0
 11
112.436095
 21
71.957275
 31
0.0
  0
LINE
  5
7E
100
AcDbEntity
  8
0
  6
HIDDEN
 62
   174
100
AcDbLine
 10
126.436095
 20
164.707275
 30
0.0
 11
126.436095
 21
172.707275
 31
0.0
  0
LINE
  5
7F
100
AcDbEntity
  8
0
  6
HIDDEN
 62
   174
100
AcDbLine
 10
158.449304
 20
186.709467
 30
0.0
 11
126.422886
 21
186.709467
 31
0.0
  0
LINE
  5
80
100
AcDbEntity
  8
0
  6
HIDDEN
 62
   174
100
AcDbLine
 10
172.436095
 20
137.475329
 30
0.0
 11
172.436095
 21
119.97548
 31
0.0
  0
LINE
  5
81
100
AcDbEntity
  8
0
  6
HIDDEN
 62
   174
100
AcDbLine
 10
153.40575
 20
166.404287
 30
0.0
 11
153.40575
 21
171.010264
 31
0.0
  0
LINE
  5
82
100
AcDbEntity
  8
0
  6
Continuous
 62
   174
100
AcDbLine
 10
164.375405
 20
166.404287
 30
0.0
 11
164.375405
 21
171.010264
 31
0.0
  0
LINE
  5
83
100
AcDbEntity
  8
0
  6
HIDDEN
 62
   174
100
AcDbLine
 10
152.660319
 20
164.707275
 30
0.0
 11
158.899841
 21
164.707275
 31
0.0
  0
LINE
  5
84
100
AcDbEntity
  8
0
  6
HIDDEN
 62
   174
100
AcDbLine
 10
125.992586
 20
164.707275
 30
0.0
 11
132.229347
 21
164.707275
 31
0.0
  0
LINE
  5
85
100
AcDbEntity
  8
0
  6
HIDDEN
 62
   174
100
AcDbLine
 10
123.447239
 20
164.707275
 30
0.0
 11
125.992586
 21
164.707275
 31
0.0
  0
LINE
  5
86
100
AcDbEntity
  8
0
  6
HIDDEN
 62
   174
100
AcDbLine
 10
126.436095
 20
134.977275
 30
0.0
 11
112.436095
 21
134.977275
 31
0.0
  0
LINE
  5
87
100
AcDbEntity
  8
0
  6
HIDDEN
 62
   174
100
AcDbLine
 10
126.436095
 20
154.45536
 30
0.0
 11
126.436095
 21
134.99541
 31
0.0
  0
LINE
  5
88
100
AcDbEntity
  8
0
  6
HIDDEN
 62
   174
100
AcDbLine
 10
126.436095
 20
135.957275
 30
0.0
 11
112.436095
 21
135.957275
 31
0.0
  0
LINE
  5
89
100
AcDbEntity
  8
0
  6
HIDDEN
 62
   174
100
AcDbLine
 10
126.436095
 20
89.457275
 30
0.0
 11
112.436095
 21
89.457275
 31
0.0
  0
LINE
  5
8A
100
AcDbEntity
  8
0
  6
HIDDEN
 62
   174
100
AcDbLine
 10
126.436095
 20
90.437275
 30
0.0
 11
112.436095
 21
90.437275
 31
0.0
  0
LINE
  5
8B
100
AcDbEntity
  8
0
  6
HIDDEN
 62
   174
100
AcDbLine
 10
129.436095
 20
89.475493
 30
0.0
 11
129.436095
 21
71.975431
 31
0.0
  0
LINE
  5
8C
100
AcDbEntity
  8
0
  6
Continuous
 62
   174
100
AcDbLine
 10
172.436095
 20
60.707275
 30
0.0
 11
172.436095
 21
164.707275
 31
0.0
  0
LINE
  5
8D
100
AcDbEntity
  8
0
  6
HIDDEN
 62
   174
100
AcDbLine
 10
155.436095
 20
87.975518
 30
0.0
 11
155.436095
 21
105.475368
 31
0.0
  0
LINE
  5
8E
100
AcDbEntity
  8
0
  6
Continuous
 62
   174
100
AcDbLine
 10
142.446213
 20
172.707275
 30
0.0
 11
158.899841
 21
172.707275
 31
0.0
  0
LWPOLYLINE
  5
8F
100
AcDbEntity
  8
0
  6
Continuous
 62
   174
100
AcDbPolyline
 90
        9
 70
   128
 10
158.890578
 20
172.707275
 10
159.585943
 20
172.677928
 10
160.280356
 20
172.590513
 10
160.972362
 20
172.446981
 10
161.660921
 20
172.250364
 10
162.345106
 20
172.004526
 10
163.025257
 20
171.713343
 10
163.70174
 20
171.380736
 10
164.375405
 20
171.010264
  0
LWPOLYLINE
  5
90
100
AcDbEntity
  8
0
  6
Continuous
 62
   174
100
AcDbPolyline
 90
        9
 70
   128
 10
131.46644
 20
166.404287
 10
132.814818
 20
166.03354
 10
134.170078
 20
165.700438
 10
135.532699
 20
165.408908
 10
136.902154
 20
165.163096
 10
138.278256
 20
164.966862
 10
139.659951
 20
164.823752
 10
141.046439
 20
164.736577
 10
142.436095
 20
164.707275
  0
LINE
  5
91
100
AcDbEntity
  8
0
  6
Continuous
 62
   174
100
AcDbLine
 10
137.436095
 20
188.707275
 30
0.0
 11
137.436095
 21
202.707275
 31
0.0
  0
LINE
  5
92
100
AcDbEntity
  8
0
  6
HIDDEN
 62
   174
100
AcDbLine
 10
126.436095
 20
154.437275
 30
0.0
 11
112.436095
 21
154.437275
 31
0.0
  0
LINE
  5
93
100
AcDbEntity
  8
0
  6
HIDDEN
 62
   174
100
AcDbLine
 10
112.436095
 20
90.455437
 30
0.0
 11
112.436095
 21
70.995487
 31
0.0
  0
LINE
  5
94
100
AcDbEntity
  8
0
  6
HIDDEN
 62
   174
100
AcDbLine
 10
112.436095
 20
89.457275
 30
0.0
 11
129.436095
 21
89.457275
 31
0.0
  0
LINE
  5
95
100
AcDbEntity
  8
0
  6
HIDDEN
 62
   174
100
AcDbLine
 10
126.436095
 20
71.957275
 30
0.0
 11
112.436095
 21
71.957275
 31
0.0
  0
LINE
  5
96
100
AcDbEntity
  8
0
  6
HIDDEN
 62
   174
100
AcDbLine
 10
126.436095
 20
89.457275
 30
0.0
 11
112.436095
 21
89.457275
 31
0.0
  0
LINE
  5
97
100
AcDbEntity
  8
0
  6
HIDDEN
 62
   174
100
AcDbLine
 10
129.436095
 20
121.475455
 30
0.0
 11
129.436095
 21
103.975393
 31
0.0
  0
LINE
  5
98
100
AcDbEntity
  8
0
  6
HIDDEN
 62
   174
100
AcDbLine
 10
126.436095
 20
102.977275
 30
0.0
 11
112.436095
 21
102.977275
 31
0.0
  0
LINE
  5
99
100
AcDbEntity
  8
0
  6
Continuous
 62
   174
100
AcDbLine
 10
158.436095
 20
172.707275
 30
0.0
 11
158.436095
 21
186.707275
 31
0.0
  0
LINE
  5
9A
100
AcDbEntity
  8
0
  6
Continuous
 62
   174
100
AcDbLine
 10
156.45561
 20
188.715565
 30
0.0
 11
147.583856
 21
188.715565
 31
0.0
  0
LINE
  5
9B
100
AcDbEntity
  8
0
  6
HIDDEN
 62
   174
100
AcDbLine
 10
123.436095
 20
172.707275
 30
0.0
 11
120.496785
 21
171.010264
 31
0.0
  0
LINE
  5
9C
100
AcDbEntity
  8
0
  6
Continuous
 62
   174
100
AcDbLine
 10
120.496785
 20
166.404287
 30
0.0
 11
120.496785
 21
171.010264
 31
0.0
  0
LWPOLYLINE
  5
9D
100
AcDbEntity
  8
0
  6
HIDDEN
 62
   174
100
AcDbPolyline
 90
        9
 70
   128
 10
158.890578
 20
172.707275
 10
158.195212
 20
172.677928
 10
157.500799
 20
172.590513
 10
156.808793
 20
172.446981
 10
156.120234
 20
172.250364
 10
155.436049
 20
172.004526
 10
154.755898
 20
171.713343
 10
154.079415
 20
171.380736
 10
153.40575
 20
171.010264
  0
LINE
  5
9E
100
AcDbEntity
  8
0
  6
Continuous
 62
   174
100
AcDbLine
 10
147.436095
 20
188.707275
 30
0.0
 11
147.436095
 21
202.707275
 31
0.0
  0
LINE
  5
9F
100
AcDbEntity
  8
0
  6
HIDDEN
 62
   174
100
AcDbLine
 10
126.436095
 20
134.977275
 30
0.0
 11
112.436095
 21
134.977275
 31
0.0
  0
LINE
  5
A0
100
AcDbEntity
  8
0
  6
HIDDEN
 62
   174
100
AcDbLine
 10
126.436095
 20
70.977275
 30
0.0
 11
112.436095
 21
70.977275
 31
0.0
  0
LINE
  5
A1
100
AcDbEntity
  8
0
  6
HIDDEN
 62
   174
100
AcDbLine
 10
112.436095
 20
71.957275
 30
0.0
 11
129.436095
 21
71.957275
 31
0.0
  0
LINE
  5
A2
100
AcDbEntity
  8
0
  6
Continuous
 62
   174
100
AcDbLine
 10
134.453499
 20
58.705985
 30
0.0
 11
150.437654
 21
58.705985
 31
0.0
  0
LINE
  5
A3
100
AcDbEntity
  8
0
  6
HIDDEN
 62
   174
100
AcDbLine
 10
158.436095
 20
106.437275
 30
0.0
 11
172.436095
 21
106.437275
 31
0.0
  0
LINE
  5
A4
100
AcDbEntity
  8
0
  6
HIDDEN
 62
   174
100
AcDbLine
 10
158.436095
 20
105.457275
 30
0.0
 11
172.436095
 21
105.457275
 31
0.0
  0
ARC
  5
A5
100
AcDbEntity
  8
0
  6
Continuous
 62
   174
100
AcDbCircle
 10
122.436095
 20
231.372396
 30
0.0
 40
2.0
100
AcDbArc
 50
-255.553242
 51
-180.0
  0
LINE
  5
A6
100
AcDbEntity
  8
0
  6
HIDDEN
 62
   174
100
AcDbLine
 10
121.948538
 20
233.309156
 30
0.0
 11
142.446213
 21
233.309156
 31
0.0
  0
LINE
  5
A7
100
AcDbEntity
  8
0
  6
HIDDEN
 62
   174
100
AcDbLine
 10
142.446213
 20
219.883791
 30
0.0
 11
131.646861
 21
219.883791
 31
0.0
  0
LINE
  5
A8
100
AcDbEntity
  8
0
  6
HIDDEN
 62
   174
100
AcDbLine
 10
112.436095
 20
103.975393
 30
0.0
 11
112.436095
 21
121.475455
 31
0.0
  0
LINE
  5
A9
100
AcDbEntity
  8
0
  6
Continuous
 62
   174
100
AcDbLine
 10
132.216929
 20
164.707275
 30
0.0
 11
125.981612
 21
164.707275
 31
0.0
  0
LINE
  5
AA
100
AcDbEntity
  8
0
  6
Continuous
 62
   174
100
AcDbLine
 10
142.446213
 20
225.790357
 30
0.0
 11
158.190534
 21
225.790357
 31
0.0
  0
LINE
  5
AB
100
AcDbEntity
  8
0
  6
HIDDEN
 62
   174
100
AcDbLine
 10
150.430136
 20
58.71314
 30
0.0
 11
151.429392
 21
59.713873
 31
0.0
  0
LINE
  5
AC
100
AcDbEntity
  8
0
  6
HIDDEN
 62
   174
100
AcDbLine
 10
112.436095
 20
122.455399
 30
0.0
 11
112.436095
 21
102.995449
 31
0.0
  0
LINE
  5
AD
100
AcDbEntity
  8
0
  6
HIDDEN
 62
   174
100
AcDbLine
 10
133.446789
 20
60.707275
 30
0.0
 11
151.445638
 21
60.707275
 31
0.0
  0
LINE
  5
AE
100
AcDbEntity
  8
0
  6
HIDDEN
 62
   174
100
AcDbLine
 10
158.436095
 20
138.437275
 30
0.0
 11
172.436095
 21
138.437275
 31
0.0
  0
LINE
  5
AF
100
AcDbEntity
  8
0
  6
HIDDEN
 62
   174
100
AcDbLine
 10
158.436095
 20
119.957275
 30
0.0
 11
172.436095
 21
119.957275
 31
0.0
  0
ARC
  5
B0
100
AcDbEntity
  8
0
  6
Continuous
 62
   174
100
AcDbCircle
 10
158.436095
 20
112.707275
 30
0.0
 40
4.5
100
AcDbArc
 50
0.0
 51
180.0
  0
LINE
  5
B1
100
AcDbEntity
  8
0
  6
Continuous
 62
   174
100
AcDbLine
 10
142.446213
 20
219.883791
 30
0.0
 11
131.646861
 21
219.883791
 31
0.0
  0
LINE
  5
B2
100
AcDbEntity
  8
0
  6
HIDDEN
 62
   174
100
AcDbLine
 10
126.436095
 20
122.455399
 30
0.0
 11
126.436095
 21
102.995449
 31
0.0
  0
LWPOLYLINE
  5
B3
100
AcDbEntity
  8
0
  6
HIDDEN
 62
   174
100
AcDbPolyline
 90
        9
 70
   128
 10
142.436095
 20
164.707275
 10
143.826825
 20
164.736622
 10
145.215653
 20
164.824037
 10
146.599664
 20
164.96757
 10
147.976782
 20
165.164186
 10
149.345152
 20
165.410024
 10
150.705453
 20
165.701208
 10
152.058421
 20
166.033814
 10
153.40575
 20
166.404287
  0
LINE
  5
B4
100
AcDbEntity
  8
0
  6
HIDDEN
 62
   174
100
AcDbLine
 10
126.436095
 20
102.977275
 30
0.0
 11
112.436095
 21
102.977275
 31
0.0
  0
LINE
  5
B5
100
AcDbEntity
  8
0
  6
HIDDEN
 62
   174
100
AcDbLine
 10
172.436095
 20
105.457275
 30
0.0
 11
155.436095
 21
105.457275
 31
0.0
  0
LINE
  5
B6
100
AcDbEntity
  8
0
  6
HIDDEN
 62
   174
100
AcDbLine
 10
142.446213
 20
233.309156
 30
0.0
 11
162.944101
 21
233.309156
 31
0.0
  0
LINE
  5
B7
100
AcDbEntity
  8
0
  6
HIDDEN
 62
   174
100
AcDbLine
 10
158.436095
 20
86.977275
 30
0.0
 11
172.436095
 21
86.977275
 31
0.0
  0
LINE
  5
B8
100
AcDbEntity
  8
0
  6
Continuous
 62
   174
100
AcDbLine
 10
126.701893
 20
225.790357
 30
0.0
 11
142.446213
 21
225.790357
 31
0.0
  0
LINE
  5
B9
100
AcDbEntity
  8
0
  6
HIDDEN
 62
   174
100
AcDbLine
 10
142.446213
 20
202.707275
 30
0.0
 11
137.446439
 21
202.707275
 31
0.0
  0
LINE
  5
BA
100
AcDbEntity
  8
0
  6
HIDDEN
 62
   174
100
AcDbLine
 10
126.436095
 20
121.457275
 30
0.0
 11
112.436095
 21
121.457275
 31
0.0
  0
LINE
  5
BB
100
AcDbEntity
  8
0
  6
Continuous
 62
   174
100
AcDbLine
 10
128.076109
 20
226.612915
 30
0.0
 11
122.095753
 21
226.612915
 31
0.0
  0
LINE
  5
BC
100
AcDbEntity
  8
0
  6
Continuous
 62
   174
100
AcDbLine
 10
133.446789
 20
59.716433
 30
0.0
 11
135.172153
 21
59.716433
 31
0.0
  0
LINE
  5
BD
100
AcDbEntity
  8
0
  6
Continuous
 62
   174
100
AcDbLine
 10
135.999996
 20
202.707275
 30
0.0
 11
134.405702
 21
202.707275
 31
0.0
  0
LINE
  5
BE
100
AcDbEntity
  8
0
  6
Continuous
 62
   174
100
AcDbLine
 10
134.405702
 20
202.707275
 30
0.0
 11
133.292139
 21
202.707275
 31
0.0
  0
LINE
  5
BF
100
AcDbEntity
  8
0
  6
HIDDEN
 62
   174
100
AcDbLine
 10
172.436095
 20
86.995362
 30
0.0
 11
172.436095
 21
106.455524
 31
0.0
  0
LINE
  5
C0
100
AcDbEntity
  8
0
  6
HIDDEN
 62
   174
100
AcDbLine
 10
172.436095
 20
87.957275
 30
0.0
 11
155.436095
 21
87.957275
 31
0.0
  0
LINE
  5
C1
100
AcDbEntity
  8
0
  6
HIDDEN
 62
   174
100
AcDbLine
 10
158.445238
 20
164.707275
 30
0.0
 11
142.446213
 21
164.707275
 31
0.0
  0
LINE
  5
C2
100
AcDbEntity
  8
0
  6
Continuous
 62
   174
100
AcDbLine
 10
121.948538
 20
233.309156
 30
0.0
 11
142.446213
 21
233.309156
 31
0.0
  0
ARC
  5
C3
100
AcDbEntity
  8
0
  6
Continuous
 62
   174
100
AcDbCircle
 10
158.436095
 20
112.707275
 30
0.0
 40
4.5
100
AcDbArc
 50
-180.0
 51
0.0
  0
LINE
  5
C4
100
AcDbEntity
  8
0
  6
Continuous
 62
   174
100
AcDbLine
 10
153.245566
 20
203.707275
 30
0.0
 11
151.327952
 21
203.707275
 31
0.0
  0
LINE
  5
C5
100
AcDbEntity
  8
0
  6
HIDDEN
 62
   174
100
AcDbLine
 10
112.436095
 20
103.957275
 30
0.0
 11
129.436095
 21
103.957275
 31
0.0
  0
LINE
  5
C6
100
AcDbEntity
  8
0
  6
HIDDEN
 62
   174
100
AcDbLine
 10
172.436095
 20
137.457275
 30
0.0
 11
155.436095
 21
137.457275
 31
0.0
  0
ARC
  5
C7
100
AcDbEntity
  8
0
  6
Continuous
 62
   174
100
AcDbCircle
 10
152.236095
 20
203.707275
 30
0.0
 40
1.0
100
AcDbArc
 50
-90.0
 51
-45.0
  0
LINE
  5
C8
100
AcDbEntity
  8
0
  6
HIDDEN
 62
   174
100
AcDbLine
 10
112.436095
 20
103.957275
 30
0.0
 11
129.436095
 21
103.957275
 31
0.0
  0
LINE
  5
C9
100
AcDbEntity
  8
0
  6
HIDDEN
 62
   174
100
AcDbLine
 10
142.436095
 20
164.707275
 30
0.0
 11
132.216929
 21
164.707275
 31
0.0
  0
LINE
  5
CA
100
AcDbEntity
  8
0
  6
Continuous
 62
   174
100
AcDbLine
 10
137.437304
 20
203.707275
 30
0.0
 11
133.564688
 21
203.707275
 31
0.0
  0
LINE
  5
CB
100
AcDbEntity
  8
0
  6
HIDDEN
 62
   174
100
AcDbLine
 10
126.436095
 20
122.437275
 30
0.0
 11
112.436095
 21
122.437275
 31
0.0
  0
LINE
  5
CC
100
AcDbEntity
  8
0
  6
HIDDEN
 62
   174
100
AcDbLine
 10
112.436095
 20
121.457275
 30
0.0
 11
129.436095
 21
121.457275
 31
0.0
  0
LWPOLYLINE
  5
CD
100
AcDbEntity
  8
0
  6
Continuous
 62
   174
100
AcDbPolyline
 90
        9
 70
   128
 10
125.981612
 20
172.707275
 10
126.676977
 20
172.677928
 10
127.371391
 20
172.590513
 10
128.063397
 20
172.446981
 10
128.751956
 20
172.250364
 10
129.436141
 20
172.004526
 10
130.116291
 20
171.713343
 10
130.792775
 20
171.380736
 10
131.46644
 20
171.010264
  0
LINE
  5
CE
100
AcDbEntity
  8
0
  6
HIDDEN
 62
   174
100
AcDbLine
 10
142.446213
 20
231.372396
 30
0.0
 11
164.444926
 21
231.372396
 31
0.0
  0
LINE
  5
CF
100
AcDbEntity
  8
0
  6
Continuous
 62
   174
100
AcDbLine
 10
142.446213
 20
231.372396
 30
0.0
 11
164.444926
 21
231.372396
 31
0.0
  0
LINE
  5
D0
100
AcDbEntity
  8
0
  6
Continuous
 62
   174
100
AcDbLine
 10
152.245653
 20
202.707275
 30
0.0
 11
151.765984
 21
202.707275
 31
0.0
  0
LINE
  5
D1
100
AcDbEntity
  8
0
  6
HIDDEN
 62
   174
100
AcDbLine
 10
153.245566
 20
203.707275
 30
0.0
 11
142.446213
 21
203.707275
 31
0.0
  0
LINE
  5
D2
100
AcDbEntity
  8
0
  6
HIDDEN
 62
   174
100
AcDbLine
 10
158.436095
 20
118.977275
 30
0.0
 11
172.436095
 21
118.977275
 31
0.0
  0
LINE
  5
D3
100
AcDbEntity
  8
0
  6
HIDDEN
 62
   174
100
AcDbLine
 10
153.245566
 20
219.883791
 30
0.0
 11
142.446213
 21
219.883791
 31
0.0
  0
LINE
  5
D4
100
AcDbEntity
  8
0
  6
Continuous
 62
   174
100
AcDbLine
 10
149.770408
 20
59.716433
 30
0.0
 11
151.447125
 21
59.716433
 31
0.0
  0
LINE
  5
D5
100
AcDbEntity
  8
0
  6
HIDDEN
 62
   174
100
AcDbLine
 10
158.436095
 20
138.437275
 30
0.0
 11
172.436095
 21
138.437275
 31
0.0
  0
ARC
  5
D6
100
AcDbEntity
  8
0
  6
Continuous
 62
   174
100
AcDbCircle
 10
122.436095
 20
228.58177
 30
0.0
 40
2.0
100
AcDbArc
 50
-180.0
 51
-100.124672
  0
LINE
  5
D7
100
AcDbEntity
  8
0
  6
Continuous
 62
   174
100
AcDbLine
 10
158.890578
 20
164.707275
 30
0.0
 11
152.65303
 21
164.707275
 31
0.0
  0
LINE
  5
D8
100
AcDbEntity
  8
0
  6
HIDDEN
 62
   174
100
AcDbLine
 10
158.436095
 20
106.437275
 30
0.0
 11
172.436095
 21
106.437275
 31
0.0
  0
LINE
  5
D9
100
AcDbEntity
  8
0
  6
HIDDEN
 62
   174
100
AcDbLine
 10
172.436095
 20
105.457275
 30
0.0
 11
155.436095
 21
105.457275
 31
0.0
  0
LINE
  5
DA
100
AcDbEntity
  8
0
  6
Continuous
 62
   174
100
AcDbLine
 10
153.245566
 20
219.883791
 30
0.0
 11
142.446213
 21
219.883791
 31
0.0
  0
LINE
  5
DB
100
AcDbEntity
  8
0
  6
Continuous
 62
   174
100
AcDbLine
 10
142.446213
 20
202.707275
 30
0.0
 11
137.185361
 21
202.707275
 31
0.0
  0
LINE
  5
DC
100
AcDbEntity
  8
0
  6
Continuous
 62
   174
100
AcDbLine
 10
135.173215
 20
59.716433
 30
0.0
 11
149.77147
 21
59.716433
 31
0.0
  0
LINE
  5
DD
100
AcDbEntity
  8
0
  6
HIDDEN
 62
   174
100
AcDbLine
 10
158.436095
 20
86.995362
 30
0.0
 11
158.436095
 21
106.455524
 31
0.0
  0
ARC
  5
DE
100
AcDbEntity
  8
0
  6
Continuous
 62
   174
100
AcDbCircle
 10
152.236095
 20
203.707275
 30
0.0
 40
1.0
100
AcDbArc
 50
-45.0
 51
0.0
  0
LINE
  5
DF
100
AcDbEntity
  8
0
  6
Continuous
 62
   174
100
AcDbLine
 10
134.405702
 20
202.707275
 30
0.0
 11
132.648685
 21
202.707275
 31
0.0
  0
LINE
  5
E0
100
AcDbEntity
  8
0
  6
HIDDEN
 62
   174
100
AcDbLine
 10
158.436095
 20
119.957275
 30
0.0
 11
172.436095
 21
119.957275
 31
0.0
  0
LINE
  5
E1
100
AcDbEntity
  8
0
  6
HIDDEN
 62
   174
100
AcDbLine
 10
142.446213
 20
228.58177
 30
0.0
 11
164.444926
 21
228.58177
 31
0.0
  0
LINE
  5
E2
100
AcDbEntity
  8
0
  6
Continuous
 62
   174
100
AcDbLine
 10
120.447501
 20
228.58177
 30
0.0
 11
142.446213
 21
228.58177
 31
0.0
  0
LWPOLYLINE
  5
E3
100
AcDbEntity
  8
0
  6
HIDDEN
 62
   174
100
AcDbPolyline
 90
        9
 70
   128
 10
164.375405
 20
166.404287
 10
163.701216
 20
166.03354
 10
163.023586
 20
165.700438
 10
162.342275
 20
165.408908
 10
161.657548
 20
165.163096
 10
160.969497
 20
164.966862
 10
160.27865
 20
164.823752
 10
159.585406
 20
164.736577
 10
158.890578
 20
164.707275
  0
LINE
  5
E4
100
AcDbEntity
  8
0
  6
HIDDEN
 62
   174
100
AcDbLine
 10
152.65303
 20
164.707275
 30
0.0
 11
142.436095
 21
164.707275
 31
0.0
  0
LINE
  5
E5
100
AcDbEntity
  8
0
  6
HIDDEN
 62
   174
100
AcDbLine
 10
142.446213
 20
203.707275
 30
0.0
 11
131.646861
 21
203.707275
 31
0.0
  0
LINE
  5
E6
100
AcDbEntity
  8
0
  6
HIDDEN
 62
   174
100
AcDbLine
 10
120.447501
 20
228.58177
 30
0.0
 11
142.446213
 21
228.58177
 31
0.0
  0
LINE
  5
E7
100
AcDbEntity
  8
0
  6
Continuous
 62
   174
100
AcDbLine
 10
153.236095
 20
203.707275
 30
0.0
 11
153.236095
 21
219.883791
 31
0.0
  0
ARC
  5
E8
100
AcDbEntity
  8
0
  6
Continuous
 62
   174
100
AcDbCircle
 10
126.436095
 20
128.707275
 30
0.0
 40
4.5
100
AcDbArc
 50
0.0
 51
180.0
  0
ARC
  5
E9
100
AcDbEntity
  8
0
  6
Continuous
 62
   174
100
AcDbCircle
 10
125.636095
 20
219.883791
 30
0.0
 40
6.0
100
AcDbArc
 50
0.0
 51
79.875328
  0
LINE
  5
EA
100
AcDbEntity
  8
0
  6
Continuous
 62
   174
100
AcDbLine
 10
142.446213
 20
203.707275
 30
0.0
 11
137.437304
 21
203.707275
 31
0.0
  0
LWPOLYLINE
  5
EB
100
AcDbEntity
  8
0
  6
HIDDEN
 62
   174
100
AcDbPolyline
 90
        9
 70
   128
 10
131.46644
 20
166.404287
 10
132.814818
 20
166.03354
 10
134.170078
 20
165.700438
 10
135.532699
 20
165.408908
 10
136.902154
 20
165.163096
 10
138.278256
 20
164.966862
 10
139.659951
 20
164.823752
 10
141.046439
 20
164.736577
 10
142.436095
 20
164.707275
  0
ARC
  5
EC
100
AcDbEntity
  8
0
  6
Continuous
 62
   174
100
AcDbCircle
 10
132.636095
 20
203.707275
 30
0.0
 40
1.0
100
AcDbArc
 50
225.0
 51
270.0
  0
LINE
  5
ED
100
AcDbEntity
  8
0
  6
Continuous
 62
   174
100
AcDbLine
 10
151.765984
 20
202.707275
 30
0.0
 11
147.707066
 21
202.707275
 31
0.0
  0
LINE
  5
EE
100
AcDbEntity
  8
0
  6
HIDDEN
 62
   174
100
AcDbLine
 10
172.436095
 20
118.995323
 30
0.0
 11
172.436095
 21
138.455486
 31
0.0
  0
LINE
  5
EF
100
AcDbEntity
  8
0
  6
HIDDEN
 62
   174
100
AcDbLine
 10
158.436095
 20
137.457275
 30
0.0
 11
172.436095
 21
137.457275
 31
0.0
  0
LINE
  5
F0
100
AcDbEntity
  8
0
  6
Continuous
 62
   174
100
AcDbLine
 10
142.446213
 20
202.707275
 30
0.0
 11
137.968594
 21
202.707275
 31
0.0
  0
LINE
  5
F1
100
AcDbEntity
  8
0
  6
HIDDEN
 62
   174
100
AcDbLine
 10
172.436095
 20
119.957275
 30
0.0
 11
155.436095
 21
119.957275
 31
0.0
  0
LINE
  5
F2
100
AcDbEntity
  8
0
  6
HIDDEN
 62
   174
100
AcDbLine
 10
162.796674
 20
226.612915
 30
0.0
 11
142.446213
 21
226.612915
 31
0.0
  0
ARC
  5
F3
100
AcDbEntity
  8
0
  6
Continuous
 62
   174
100
AcDbCircle
 10
126.436095
 20
96.707275
 30
0.0
 40
4.5
100
AcDbArc
 50
0.0
 51
180.0
  0
LINE
  5
F4
100
AcDbEntity
  8
0
  6
Continuous
 62
   174
100
AcDbLine
 10
172.436095
 20
164.707275
 30
0.0
 11
158.890578
 21
164.707275
 31
0.0
  0
LINE
  5
F5
100
AcDbEntity
  8
0
  6
HIDDEN
 62
   174
100
AcDbLine
 10
126.701893
 20
225.790357
 30
0.0
 11
142.446213
 21
225.790357
 31
0.0
  0
LINE
  5
F6
100
AcDbEntity
  8
0
  6
HIDDEN
 62
   174
100
AcDbLine
 10
142.446213
 20
202.707275
 30
0.0
 11
137.185361
 21
202.707275
 31
0.0
  0
LINE
  5
F7
100
AcDbEntity
  8
0
  6
Continuous
 62
   174
100
AcDbLine
 10
147.446413
 20
203.707275
 30
0.0
 11
142.446213
 21
203.707275
 31
0.0
  0
LINE
  5
F8
100
AcDbEntity
  8
0
  6
HIDDEN
 62
   174
100
AcDbLine
 10
172.436095
 20
87.957275
 30
0.0
 11
155.436095
 21
87.957275
 31
0.0
  0
LINE
  5
F9
100
AcDbEntity
  8
0
  6
Continuous
 62
   174
100
AcDbLine
 10
158.181351
 20
225.790357
 30
0.0
 11
162.787676
 21
226.612915
 31
0.0
  0
LINE
  5
FA
100
AcDbEntity
  8
0
  6
Continuous
 62
   174
100
AcDbLine
 10
147.707066
 20
202.707275
 30
0.0
 11
142.446213
 21
202.707275
 31
0.0
  0
LINE
  5
FB
100
AcDbEntity
  8
0
  6
HIDDEN
 62
   174
100
AcDbLine
 10
158.436095
 20
87.957275
 30
0.0
 11
172.436095
 21
87.957275
 31
0.0
  0
LINE
  5
FC
100
AcDbEntity
  8
0
  6
Continuous
 62
   174
100
AcDbLine
 10
120.447501
 20
231.372396
 30
0.0
 11
142.446213
 21
231.372396
 31
0.0
  0
LINE
  5
FD
100
AcDbEntity
  8
0
  6
Continuous
 62
   174
100
AcDbLine
 10
142.446213
 20
233.309156
 30
0.0
 11
162.944101
 21
233.309156
 31
0.0
  0
LINE
  5
FE
100
AcDbEntity
  8
0
  6
Continuous
 62
   174
100
AcDbLine
 10
151.327952
 20
203.707275
 30
0.0
 11
147.446413
 21
203.707275
 31
0.0
  0
LINE
  5
FF
100
AcDbEntity
  8
0
  6
HIDDEN
 62
   174
100
AcDbLine
 10
158.436095
 20
87.957275
 30
0.0
 11
172.436095
 21
87.957275
 31
0.0
  0
LINE
  5
100
100
AcDbEntity
  8
0
  6
HIDDEN
 62
   174
100
AcDbLine
 10
158.436095
 20
118.995323
 30
0.0
 11
158.436095
 21
138.455486
 31
0.0
  0
LINE
  5
101
100
AcDbEntity
  8
0
  6
HIDDEN
 62
   174
100
AcDbLine
 10
133.447001
 20
59.720244
 30
0.0
 11
151.445638
 21
59.720244
 31
0.0
  0
LINE
  5
102
100
AcDbEntity
  8
0
  6
HIDDEN
 62
   174
100
AcDbLine
 10
126.436095
 20
103.957275
 30
0.0
 11
112.436095
 21
103.957275
 31
0.0
  0
LINE
  5
103
100
AcDbEntity
  8
0
  6
HIDDEN
 62
   174
100
AcDbLine
 10
158.436095
 20
105.457275
 30
0.0
 11
172.436095
 21
105.457275
 31
0.0
  0
LINE
  5
104
100
AcDbEntity
  8
0
  6
HIDDEN
 62
   174
100
AcDbLine
 10
142.446213
 20
226.612915
 30
0.0
 11
122.095753
 21
226.612915
 31
0.0
  0
LINE
  5
105
100
AcDbEntity
  8
0
  6
HIDDEN
 62
   174
100
AcDbLine
 10
142.446213
 20
225.790357
 30
0.0
 11
158.190534
 21
225.790357
 31
0.0
  0
LINE
  5
106
100
AcDbEntity
  8
0
  6
Continuous
 62
   174
100
AcDbLine
 10
133.564688
 20
203.707275
 30
0.0
 11
131.646861
 21
203.707275
 31
0.0
  0
LWPOLYLINE
  5
107
100
AcDbEntity
  8
0
  6
Continuous
 62
   174
100
AcDbPolyline
 90
        9
 70
   128
 10
153.40575
 20
166.404287
 10
154.079939
 20
166.03354
 10
154.757569
 20
165.700438
 10
155.43888
 20
165.408908
 10
156.123607
 20
165.163096
 10
156.811658
 20
164.966862
 10
157.502505
 20
164.823752
 10
158.19575
 20
164.736577
 10
158.890578
 20
164.707275
  0
LINE
  5
108
100
AcDbEntity
  8
0
  6
Continuous
 62
   174
100
AcDbLine
 10
151.436095
 20
60.707275
 30
0.0
 11
151.436095
 21
59.707275
 31
0.0
  0
LINE
  5
109
100
AcDbEntity
  8
0
  6
Continuous
 62
   174
100
AcDbLine
 10
120.436095
 20
228.58177
 30
0.0
 11
120.436095
 21
231.372396
 31
0.0
  0
LINE
  5
10A
100
AcDbEntity
  8
0
  6
Continuous
 62
   174
100
AcDbLine
 10
156.81653
 20
226.612915
 30
0.0
 11
142.446213
 21
226.612915
 31
0.0
  0
ARC
  5
10B
100
AcDbEntity
  8
0
  6
Continuous
 62
   174
100
AcDbCircle
 10
132.636095
 20
203.707275
 30
0.0
 40
1.0
100
AcDbArc
 50
180.0
 51
225.0
  0
ARC
  5
10C
100
AcDbEntity
  8
0
  6
Continuous
 62
   174
100
AcDbCircle
 10
142.436095
 20
153.740608
 30
0.0
 40
82.166667
100
AcDbArc
 50
90.0
 51
104.446758
  0
ARC
  5
10D
100
AcDbEntity
  8
0
  6
Continuous
 62
   174
100
AcDbCircle
 10
142.436095
 20
153.740608
 30
0.0
 40
82.166667
100
AcDbArc
 50
-284.446758
 51
-270.0
  0
LINE
  5
10E
100
AcDbEntity
  8
0
  6
HIDDEN
 62
   174
100
AcDbLine
 10
172.436095
 20
137.457275
 30
0.0
 11
155.436095
 21
137.457275
 31
0.0
  0
LINE
  5
10F
100
AcDbEntity
  8
0
  6
Continuous
 62
   174
100
AcDbLine
 10
164.436095
 20
228.58177
 30
0.0
 11
164.436095
 21
231.372396
 31
0.0
  0
LINE
  5
110
100
AcDbEntity
  8
0
  6
HIDDEN
 62
   174
100
AcDbLine
 10
135.999996
 20
202.707275
 30
0.0
 11
134.405702
 21
202.707275
 31
0.0
  0
LINE
  5
111
100
AcDbEntity
  8
0
  6
HIDDEN
 62
   174
100
AcDbLine
 10
137.968594
 20
202.707275
 30
0.0
 11
135.999996
 21
202.707275
 31
0.0
  0
LINE
  5
112
100
AcDbEntity
  8
0
  6
Continuous
 62
   174
100
AcDbLine
 10
137.968594
 20
202.707275
 30
0.0
 11
135.999996
 21
202.707275
 31
0.0
  0
LINE
  5
113
100
AcDbEntity
  8
0
  6
HIDDEN
 62
   174
100
AcDbLine
 10
158.436095
 20
137.457275
 30
0.0
 11
172.436095
 21
137.457275
 31
0.0
  0
ARC
  5
114
100
AcDbEntity
  8
0
  6
Continuous
 62
   174
100
AcDbCircle
 10
126.436095
 20
128.707275
 30
0.0
 40
4.5
100
AcDbArc
 50
-180.0
 51
0.0
  0
LINE
  5
115
100
AcDbEntity
  8
0
  6
Continuous
 62
   174
100
AcDbLine
 10
125.981612
 20
164.707275
 30
0.0
 11
112.436095
 21
164.707275
 31
0.0
  0
LINE
  5
116
100
AcDbEntity
  8
0
  6
HIDDEN
 62
   174
100
AcDbLine
 10
137.185361
 20
202.707275
 30
0.0
 11
133.126443
 21
202.707275
 31
0.0
  0
LINE
  5
117
100
AcDbEntity
  8
0
  6
HIDDEN
 62
   174
100
AcDbLine
 10
147.445988
 20
188.707275
 30
0.0
 11
137.446439
 21
188.707275
 31
0.0
  0
ARC
  5
118
100
AcDbEntity
  8
0
  6
Continuous
 62
   174
100
AcDbCircle
 10
162.436095
 20
231.372396
 30
0.0
 40
2.0
100
AcDbArc
 50
0.0
 51
75.553242
  0
LINE
  5
119
100
AcDbEntity
  8
0
  6
Continuous
 62
   174
100
AcDbLine
 10
151.436095
 20
60.707275
 30
0.0
 11
151.436095
 21
59.707275
 31
0.0
  0
LINE
  5
11A
100
AcDbEntity
  8
0
  6
HIDDEN
 62
   174
100
AcDbLine
 10
152.245653
 20
202.707275
 30
0.0
 11
147.707066
 21
202.707275
 31
0.0
  0
LINE
  5
11B
100
AcDbEntity
  8
0
  6
HIDDEN
 62
   174
100
AcDbLine
 10
158.436095
 20
118.977275
 30
0.0
 11
172.436095
 21
118.977275
 31
0.0
  0
LINE
  5
11C
100
AcDbEntity
  8
0
  6
Continuous
 62
   174
100
AcDbLine
 10
137.185361
 20
202.707275
 30
0.0
 11
132.646774
 21
202.707275
 31
0.0
  0
LINE
  5
11D
100
AcDbEntity
  8
0
  6
Continuous
 62
   174
100
AcDbLine
 10
133.126443
 20
202.707275
 30
0.0
 11
132.646774
 21
202.707275
 31
0.0
  0
LINE
  5
11E
100
AcDbEntity
  8
0
  6
Continuous
 62
   174
100
AcDbLine
 10
162.796674
 20
226.612915
 30
0.0
 11
156.81653
 21
226.612915
 31
0.0
  0
LINE
  5
11F
100
AcDbEntity
  8
0
  6
HIDDEN
 62
   174
100
AcDbLine
 10
147.445988
 20
202.707275
 30
0.0
 11
142.446213
 21
202.707275
 31
0.0
  0
LINE
  5
120
100
AcDbEntity
  8
0
  6
Continuous
 62
   174
100
AcDbLine
 10
133.436095
 20
60.707275
 30
0.0
 11
133.436095
 21
59.707275
 31
0.0
  0
LINE
  5
121
100
AcDbEntity
  8
0
  6
Continuous
 62
   174
100
AcDbLine
 10
131.636095
 20
203.707275
 30
0.0
 11
131.636095
 21
219.883791
 31
0.0
  0
LWPOLYLINE
  5
122
100
AcDbEntity
  8
0
  6
Continuous
 62
   174
100
AcDbPolyline
 90
        9
 70
   128
 10
120.496785
 20
171.010264
 10
121.170974
 20
171.38101
 10
121.848604
 20
171.714112
 10
122.529914
 20
172.005642
 10
123.214642
 20
172.251454
 10
123.902693
 20
172.447688
 10
124.59354
 20
172.590798
 10
125.286784
 20
172.677974
 10
125.981612
 20
172.707275
  0
LWPOLYLINE
  5
123
100
AcDbEntity
  8
0
  6
Continuous
 62
   174
100
AcDbPolyline
 90
        9
 70
   128
 10
158.890578
 20
164.707275
 10
159.585943
 20
164.736622
 10
160.280356
 20
164.824037
 10
160.972362
 20
164.96757
 10
161.660921
 20
165.164186
 10
162.345106
 20
165.410024
 10
163.025257
 20
165.701208
 10
163.70174
 20
166.033814
 10
164.375405
 20
166.404287
  0
LINE
  5
124
100
AcDbEntity
  8
0
  6
Continuous
 62
   174
100
AcDbLine
 10
133.436095
 20
60.707275
 30
0.0
 11
133.436095
 21
59.707275
 31
0.0
  0
LINE
  5
125
100
AcDbEntity
  8
0
  6
Continuous
 62
   174
100
AcDbLine
 10
142.446213
 20
226.612915
 30
0.0
 11
128.076109
 21
226.612915
 31
0.0
  0
ARC
  5
126
100
AcDbEntity
  8
0
  6
Continuous
 62
   174
100
AcDbCircle
 10
159.236095
 20
219.883791
 30
0.0
 40
6.0
100
AcDbArc
 50
-259.875328
 51
-180.0
  0
LINE
  5
127
100
AcDbEntity
  8
0
  6
Continuous
 62
   174
100
AcDbLine
 10
126.690839
 20
225.790357
 30
0.0
 11
122.084514
 21
226.612915
 31
0.0
  0
LINE
  5
128
100
AcDbEntity
  8
0
  6
HIDDEN
 62
   174
100
AcDbLine
 10
112.436095
 20
121.457275
 30
0.0
 11
129.436095
 21
121.457275
 31
0.0
  0
ARC
  5
129
100
AcDbEntity
  8
0
  6
Continuous
 62
   174
100
AcDbCircle
 10
162.436095
 20
228.58177
 30
0.0
 40
2.0
100
AcDbArc
 50
-79.875328
 51
0.0
  0
LINE
  5
12A
100
AcDbEntity
  8
0
  6
HIDDEN
 62
   174
100
AcDbLine
 10
120.447501
 20
231.372396
 30
0.0
 11
142.446213
 21
231.372396
 31
0.0
  0
ARC
  5
12B
100
AcDbEntity
  8
0
  6
Continuous
 62
   174
100
AcDbCircle
 10
126.436095
 20
96.707275
 30
0.0
 40
4.5
100
AcDbArc
 50
-180.0
 51
0.0
  0
LINE
  5
12C
100
AcDbEntity
  8
0
  6
HIDDEN
 62
   174
100
AcDbLine
 10
134.442142
 20
58.713051
 30
0.0
 11
133.442898
 21
59.713773
 31
0.0
  0
LINE
  5
12D
100
AcDbEntity
  8
0
  6
HIDDEN
 62
   174
100
AcDbLine
 10
126.436095
 20
103.957275
 30
0.0
 11
112.436095
 21
103.957275
 31
0.0
  0
LINE
  5
12E
100
AcDbEntity
  8
0
  6
Continuous
 62
   174
100
AcDbLine
 10
142.446213
 20
228.58177
 30
0.0
 11
164.444926
 21
228.58177
 31
0.0
  0
LINE
  5
12F
100
AcDbEntity
  8
0
  6
HIDDEN
 62
   174
100
AcDbLine
 10
172.436095
 20
119.957275
 30
0.0
 11
155.436095
 21
119.957275
 31
0.0
  0
LINE
  5
130
100
AcDbEntity
  8
0
  6
HIDDEN
 62
   174
100
AcDbLine
 10
158.436095
 20
86.977275
 30
0.0
 11
172.436095
 21
86.977275
 31
0.0
  0
LINE
  5
131
100
AcDbEntity
  8
0
  6
HIDDEN
 62
   174
100
AcDbLine
 10
142.446213
 20
164.707275
 30
0.0
 11
126.447189
 21
164.707275
 31
0.0
  0
LINE
  5
132
100
AcDbEntity
  8
0
  6
HIDDEN
 62
   174
100
AcDbLine
 10
147.707066
 20
202.707275
 30
0.0
 11
142.446213
 21
202.707275
 31
0.0
  0
LINE
  5
133
100
AcDbEntity
  8
0
  6
HIDDEN
 62
   174
100
AcDbLine
 10
126.436095
 20
122.437275
 30
0.0
 11
112.436095
 21
122.437275
 31
0.0
  0
LINE
  5
134
100
AcDbEntity
  8
0
  6
HIDDEN
 62
   174
100
AcDbLine
 10
142.446213
 20
202.707275
 30
0.0
 11
137.968594
 21
202.707275
 31
0.0
  0
ENDBLK
  5
135
100
AcDbEntity
  8
0
100
AcDbBlockEnd
  0
BLOCK
  5
138
100
AcDbEntity
  8
0
100
AcDbBlockBegin
  2
*B4
 70
     0
 10
0.0
 20
0.0
 30
0.0
  3
*B4
  1

  0
LINE
  5
139
100
AcDbEntity
  8
0
  6
Continuous
 62
   172
100
AcDbLine
 10
156.4
 20
188.687383
 30
0.0
 11
156.4
 21
172.687383
 31
0.0
  0
LINE
  5
13A
100
AcDbEntity
  8
0
  6
Continuous
 62
   172
100
AcDbLine
 10
128.5
 20
188.687383
 30
0.0
 11
128.5
 21
172.687383
 31
0.0
  0
ENDBLK
  5
13B
100
AcDbEntity
  8
0
100
AcDbBlockEnd
  0
BLOCK
  5
13E
100
AcDbEntity
  8
0
100
AcDbBlockBegin
  2
*B5
 70
     0
 10
0.0
 20
0.0
 30
0.0
  3
*B5
  1

  0
LINE
  5
13F
100
AcDbEntity
  8
0
  6
Continuous
 62
   172
100
AcDbLine
 10
153.222459
 20
199.926892
 30
0.0
 11
153.222459
 21
193.707275
 31
0.0
  0
LINE
  5
140
100
AcDbEntity
  8
0
  6
Continuous
 62
   172
100
AcDbLine
 10
131.622459
 20
199.926892
 30
0.0
 11
131.622459
 21
193.707275
 31
0.0
  0
ARC
  5
141
100
AcDbEntity
  8
0
  6
Continuous
 62
   172
100
AcDbCircle
 10
132.622459
 20
193.707275
 30
0.0
 40
1.0
100
AcDbArc
 50
-180.0
 51
-90.0
  0
ARC
  5
142
100
AcDbEntity
  8
0
  6
Continuous
 62
   172
100
AcDbCircle
 10
152.222459
 20
193.707275
 30
0.0
 40
1.0
100
AcDbArc
 50
-90.0
 51
0.0
  0
LINE
  5
143
100
AcDbEntity
  8
0
  6
Continuous
 62
   172
100
AcDbLine
 10
152.222459
 20
192.707275
 30
0.0
 11
132.622459
 21
192.707275
 31
0.0
  0
ENDBLK
  5
144
100
AcDbEntity
  8
0
100
AcDbBlockEnd
  0
BLOCK
  5
147
100
AcDbEntity
  8
0
100
AcDbBlockBegin
  2
*B6
 70
     0
 10
0.0
 20
0.0
 30
0.0
  3
*B6
  1

  0
ENDBLK
  5
148
100
AcDbEntity
  8
0
100
AcDbBlockEnd
  0
BLOCK
  5
14A
100
AcDbEntity
  8
0
100
AcDbBlockBegin
  2
*B7
 70
     0
 10
0.0
 20
0.0
 30
0.0
  3
*B7
  1

  0
ENDBLK
  5
14B
100
AcDbEntity
  8
0
100
AcDbBlockEnd
  0
BLOCK
  5
14D
100
AcDbEntity
  8
0
100
AcDbBlockBegin
  2
*B8
 70
     0
 10
0.0
 20
0.0
 30
0.0
  3
*B8
  1

  0
LINE
  5
14E
100
AcDbEntity
  8
0
  6
Continuous
 62
   174
100
AcDbLine
 10
33.777212
 20
188.712376
 30
0.0
 11
31.776464
 21
186.713084
 31
0.0
  0
LINE
  5
14F
100
AcDbEntity
  8
0
  6
Continuous
 62
   174
100
AcDbLine
 10
61.789083
 20
188.713961
 30
0.0
 11
63.789927
 21
186.715042
 31
0.0
  0
LINE
  5
150
100
AcDbEntity
  8
0
  6
Continuous
 62
   174
100
AcDbLine
 10
63.782297
 20
172.707275
 30
0.0
 11
63.782297
 21
186.707405
 31
0.0
  0
LINE
  5
151
100
AcDbEntity
  8
0
  6
Continuous
 62
   174
100
AcDbLine
 10
31.782297
 20
172.707275
 30
0.0
 11
31.782297
 21
186.707247
 31
0.0
  0
LINE
  5
152
100
AcDbEntity
  8
0
  6
Continuous
 62
   174
100
AcDbLine
 10
42.666332
 20
188.715565
 30
0.0
 11
33.796703
 21
188.715565
 31
0.0
  0
LINE
  5
153
100
AcDbEntity
  8
0
  6
Continuous
 62
   174
100
AcDbLine
 10
61.810397
 20
188.718601
 30
0.0
 11
52.881712
 21
188.718601
 31
0.0
  0
LINE
  5
154
100
AcDbEntity
  8
0
  6
Continuous
 62
   174
100
AcDbLine
 10
52.885961
 20
188.718601
 30
0.0
 11
47.797602
 21
188.718601
 31
0.0
  0
LINE
  5
155
100
AcDbEntity
  8
0
  6
Continuous
 62
   174
100
AcDbLine
 10
47.797814
 20
188.715565
 30
0.0
 11
42.669306
 21
188.715565
 31
0.0
  0
LINE
  5
156
100
AcDbEntity
  8
0
  6
Continuous
 62
   174
100
AcDbLine
 10
47.797814
 20
186.709247
 30
0.0
 11
31.789018
 21
186.709247
 31
0.0
  0
LINE
  5
157
100
AcDbEntity
  8
0
  6
Continuous
 62
   174
100
AcDbLine
 10
63.796839
 20
186.709467
 30
0.0
 11
47.797602
 21
186.709467
 31
0.0
  0
LINE
  5
158
100
AcDbEntity
  8
0
  6
Continuous
 62
   174
100
AcDbLine
 10
63.782297
 20
60.707275
 30
0.0
 11
31.782297
 21
60.707275
 31
0.0
  0
LINE
  5
159
100
AcDbEntity
  8
0
  6
Continuous
 62
   174
100
AcDbLine
 10
63.782297
 20
164.707275
 30
0.0
 11
31.782297
 21
164.707275
 31
0.0
  0
LINE
  5
15A
100
AcDbEntity
  8
0
  6
Continuous
 62
   174
100
AcDbLine
 10
31.782297
 20
60.707275
 30
0.0
 11
31.782297
 21
164.707275
 31
0.0
  0
LINE
  5
15B
100
AcDbEntity
  8
0
  6
Continuous
 62
   174
100
AcDbLine
 10
28.782297
 20
166.404287
 30
0.0
 11
28.782297
 21
171.010264
 31
0.0
  0
ARC
  5
15C
100
AcDbEntity
  8
0
  6
Continuous
 62
   174
100
AcDbCircle
 10
47.782297
 20
128.707275
 30
0.0
 40
8.75
100
AcDbArc
 50
234.942784
 51
270.0
  0
ARC
  5
15D
100
AcDbEntity
  8
0
  6
Continuous
 62
   174
100
AcDbCircle
 10
47.782297
 20
128.707275
 30
0.0
 40
8.75
100
AcDbArc
 50
305.057216
 51
307.6271
  0
ARC
  5
15E
100
AcDbEntity
  8
0
  6
Continuous
 62
   174
100
AcDbCircle
 10
47.782297
 20
96.707275
 30
0.0
 40
8.75
100
AcDbArc
 50
16.035131
 51
19.645968
  0
ARC
  5
15F
100
AcDbEntity
  8
0
  6
Continuous
 62
   174
100
AcDbCircle
 10
47.782297
 20
96.707275
 30
0.0
 40
8.75
100
AcDbArc
 50
160.354032
 51
163.964869
  0
ARC
  5
160
100
AcDbEntity
  8
0
  6
Continuous
 62
   174
100
AcDbCircle
 10
47.782297
 20
96.707275
 30
0.0
 40
8.75
100
AcDbArc
 50
199.645968
 51
232.3729
  0
LINE
  5
161
100
AcDbEntity
  8
0
  6
Continuous
 62
   174
100
AcDbLine
 10
28.79884
 20
172.707275
 30
0.0
 11
38.298327
 21
172.707275
 31
0.0
  0
LWPOLYLINE
  5
162
100
AcDbEntity
  8
0
  6
Continuous
 62
   174
100
AcDbPolyline
 90
        9
 70
   128
 10
38.282297
 20
172.707275
 10
39.486705
 20
172.677928
 10
40.689464
 20
172.590513
 10
41.888054
 20
172.446981
 10
43.080673
 20
172.250364
 10
44.265716
 20
172.004526
 10
45.443771
 20
171.713343
 10
46.615476
 20
171.380736
 10
47.782297
 20
171.010264
  0
LWPOLYLINE
  5
163
100
AcDbEntity
  8
0
  6
Continuous
 62
   174
100
AcDbPolyline
 90
        9
 70
   128
 10
28.782297
 20
171.010264
 10
29.950026
 20
171.38101
 10
31.123716
 20
171.714112
 10
32.303781
 20
172.005642
 10
33.489764
 20
172.251454
 10
34.681503
 20
172.447688
 10
35.878085
 20
172.590798
 10
37.078819
 20
172.677974
 10
38.282297
 20
172.707275
  0
ARC
  5
164
100
AcDbEntity
  8
0
  6
Continuous
 62
   174
100
AcDbCircle
 10
27.782297
 20
231.372396
 30
0.0
 40
2.0
100
AcDbArc
 50
-255.553242
 51
-180.0
  0
ARC
  5
165
100
AcDbEntity
  8
0
  6
Continuous
 62
   174
100
AcDbCircle
 10
27.782297
 20
231.372396
 30
0.0
 40
2.0
100
AcDbArc
 50
-255.553242
 51
-180.0
  0
ARC
  5
166
100
AcDbEntity
  8
0
  6
Continuous
 62
   174
100
AcDbCircle
 10
64.582297
 20
219.883791
 30
0.0
 40
6.0
100
AcDbArc
 50
-259.875328
 51
-180.0
  0
ARC
  5
167
100
AcDbEntity
  8
0
  6
Continuous
 62
   174
100
AcDbCircle
 10
47.782297
 20
128.707275
 30
0.0
 40
8.75
100
AcDbArc
 50
307.6271
 51
340.354032
  0
ARC
  5
168
100
AcDbEntity
  8
0
  6
Continuous
 62
   174
100
AcDbCircle
 10
47.782297
 20
128.707275
 30
0.0
 40
8.75
100
AcDbArc
 50
125.057216
 51
127.6271
  0
ARC
  5
169
100
AcDbEntity
  8
0
  6
Continuous
 62
   174
100
AcDbCircle
 10
47.782297
 20
128.707275
 30
0.0
 40
8.75
100
AcDbArc
 50
232.3729
 51
234.942784
  0
ARC
  5
16A
100
AcDbEntity
  8
0
  6
Continuous
 62
   174
100
AcDbCircle
 10
47.782297
 20
96.707275
 30
0.0
 40
8.75
100
AcDbArc
 50
125.057216
 51
127.6271
  0
LINE
  5
16B
100
AcDbEntity
  8
0
  6
Continuous
 62
   174
100
AcDbLine
 10
28.79884
 20
164.707275
 30
0.0
 11
32.67443
 21
164.707275
 31
0.0
  0
LWPOLYLINE
  5
16C
100
AcDbEntity
  8
0
  6
Continuous
 62
   174
100
AcDbPolyline
 90
        9
 70
   128
 10
66.782297
 20
172.707275
 10
66.782297
 20
172.677928
 10
66.782297
 20
172.590513
 10
66.782297
 20
172.446981
 10
66.782297
 20
172.250364
 10
66.782297
 20
172.004526
 10
66.782297
 20
171.713343
 10
66.782297
 20
171.380736
 10
66.782297
 20
171.010264
  0
LINE
  5
16D
100
AcDbEntity
  8
0
  6
Continuous
 62
   174
100
AcDbLine
 10
52.782297
 20
188.707275
 30
0.0
 11
52.782297
 21
202.707275
 31
0.0
  0
LINE
  5
16E
100
AcDbEntity
  8
0
  6
Continuous
 62
   174
100
AcDbLine
 10
42.782297
 20
188.707275
 30
0.0
 11
42.782297
 21
202.707275
 31
0.0
  0
ARC
  5
16F
100
AcDbEntity
  8
0
  6
Continuous
 62
   174
100
AcDbCircle
 10
47.782297
 20
128.707275
 30
0.0
 40
9.73
100
AcDbArc
 50
-90.0
 51
-89.16583
  0
ARC
  5
170
100
AcDbEntity
  8
0
  6
Continuous
 62
   174
100
AcDbCircle
 10
47.782297
 20
128.707275
 30
0.0
 40
9.73
100
AcDbArc
 50
-270.0
 51
-269.16583
  0
ARC
  5
171
100
AcDbEntity
  8
0
  6
Continuous
 62
   174
100
AcDbCircle
 10
47.782297
 20
96.707275
 30
0.0
 40
9.73
100
AcDbArc
 50
-90.0
 51
-89.16583
  0
ARC
  5
172
100
AcDbEntity
  8
0
  6
Continuous
 62
   174
100
AcDbCircle
 10
47.782297
 20
96.707275
 30
0.0
 40
9.73
100
AcDbArc
 50
-89.16583
 51
89.16583
  0
ARC
  5
173
100
AcDbEntity
  8
0
  6
Continuous
 62
   174
100
AcDbCircle
 10
27.782297
 20
228.58177
 30
0.0
 40
2.0
100
AcDbArc
 50
-180.0
 51
-100.124672
  0
LINE
  5
174
100
AcDbEntity
  8
0
  6
Continuous
 62
   174
100
AcDbLine
 10
25.782297
 20
228.58177
 30
0.0
 11
25.782297
 21
231.372396
 31
0.0
  0
LINE
  5
175
100
AcDbEntity
  8
0
  6
Continuous
 62
   174
100
AcDbLine
 10
25.782297
 20
228.58177
 30
0.0
 11
25.782297
 21
231.372396
 31
0.0
  0
ARC
  5
176
100
AcDbEntity
  8
0
  6
Continuous
 62
   174
100
AcDbCircle
 10
47.782297
 20
96.707275
 30
0.0
 40
8.75
100
AcDbArc
 50
305.057216
 51
307.6271
  0
ARC
  5
177
100
AcDbEntity
  8
0
  6
Continuous
 62
   174
100
AcDbCircle
 10
47.782297
 20
96.707275
 30
0.0
 40
8.75
100
AcDbArc
 50
90.0
 51
125.057216
  0
LINE
  5
178
100
AcDbEntity
  8
0
  6
Continuous
 62
   174
100
AcDbLine
 10
38.298327
 20
172.707275
 30
0.0
 11
57.297302
 21
172.707275
 31
0.0
  0
LWPOLYLINE
  5
179
100
AcDbEntity
  8
0
  6
Continuous
 62
   174
100
AcDbPolyline
 90
        9
 70
   128
 10
28.782297
 20
172.707275
 10
28.782297
 20
172.677928
 10
28.782297
 20
172.590513
 10
28.782297
 20
172.446981
 10
28.782297
 20
172.250364
 10
28.782297
 20
172.004526
 10
28.782297
 20
171.713343
 10
28.782297
 20
171.380736
 10
28.782297
 20
171.010264
  0
LINE
  5
17A
100
AcDbEntity
  8
0
  6
Continuous
 62
   174
100
AcDbLine
 10
62.080673
 20
165.164186
 30
0.0
 11
64.443771
 21
165.701208
 31
0.0
  0
ARC
  5
17B
100
AcDbEntity
  8
0
  6
Continuous
 62
   174
100
AcDbCircle
 10
47.782297
 20
96.707275
 30
0.0
 40
9.73
100
AcDbArc
 50
-270.83417
 51
-270.0
  0
LWPOLYLINE
  5
17C
100
AcDbEntity
  8
0
  6
Continuous
 62
   174
100
AcDbPolyline
 90
        4
 70
   128
 10
28.782297
 20
166.404287
 10
29.950026
 20
166.03354
 10
31.123716
 20
165.700438
 10
32.303781
 20
165.408908
  0
LINE
  5
17D
100
AcDbEntity
  8
0
  6
Continuous
 62
   174
100
AcDbLine
 10
32.303781
 20
165.408908
 30
0.0
 11
33.489764
 21
165.163096
 31
0.0
  0
ARC
  5
17E
100
AcDbEntity
  8
0
  6
Continuous
 62
   174
100
AcDbCircle
 10
67.782297
 20
231.372396
 30
0.0
 40
2.0
100
AcDbArc
 50
0.0
 51
75.553242
  0
LINE
  5
17F
100
AcDbEntity
  8
0
  6
Continuous
 62
   174
100
AcDbLine
 10
69.782297
 20
228.58177
 30
0.0
 11
69.782297
 21
231.372396
 31
0.0
  0
LINE
  5
180
100
AcDbEntity
  8
0
  6
Continuous
 62
   174
100
AcDbLine
 10
27.299927
 20
233.309156
 30
0.0
 11
47.797814
 21
233.309156
 31
0.0
  0
ARC
  5
181
100
AcDbEntity
  8
0
  6
Continuous
 62
   174
100
AcDbCircle
 10
47.782297
 20
96.707275
 30
0.0
 40
8.75
100
AcDbArc
 50
-16.035131
 51
16.035131
  0
ARC
  5
182
100
AcDbEntity
  8
0
  6
Continuous
 62
   174
100
AcDbCircle
 10
47.782297
 20
96.707275
 30
0.0
 40
8.75
100
AcDbArc
 50
52.3729
 51
54.942784
  0
ARC
  5
183
100
AcDbEntity
  8
0
  6
Continuous
 62
   174
100
AcDbCircle
 10
47.782297
 20
96.707275
 30
0.0
 40
8.75
100
AcDbArc
 50
127.6271
 51
160.354032
  0
ARC
  5
184
100
AcDbEntity
  8
0
  6
Continuous
 62
   174
100
AcDbCircle
 10
47.782297
 20
96.707275
 30
0.0
 40
8.75
100
AcDbArc
 50
196.035131
 51
199.645968
  0
LINE
  5
185
100
AcDbEntity
  8
0
  6
Continuous
 62
   174
100
AcDbLine
 10
57.297302
 20
172.707275
 30
0.0
 11
66.796789
 21
172.707275
 31
0.0
  0
ARC
  5
186
100
AcDbEntity
  8
0
  6
Continuous
 62
   174
100
AcDbCircle
 10
47.782297
 20
128.707275
 30
0.0
 40
9.73
100
AcDbArc
 50
-269.16583
 51
-151.210326
  0
ARC
  5
187
100
AcDbEntity
  8
0
  6
Continuous
 62
   174
100
AcDbCircle
 10
47.782297
 20
128.707275
 30
0.0
 40
9.73
100
AcDbArc
 50
-270.83417
 51
-270.0
  0
ARC
  5
188
100
AcDbEntity
  8
0
  6
Continuous
 62
   174
100
AcDbCircle
 10
47.782297
 20
128.707275
 30
0.0
 40
9.73
100
AcDbArc
 50
-89.16583
 51
89.16583
  0
ARC
  5
189
100
AcDbEntity
  8
0
  6
Continuous
 62
   174
100
AcDbCircle
 10
67.782297
 20
228.58177
 30
0.0
 40
2.0
100
AcDbArc
 50
-79.875328
 51
0.0
  0
ARC
  5
18A
100
AcDbEntity
  8
0
  6
Continuous
 62
   174
100
AcDbCircle
 10
67.782297
 20
231.372396
 30
0.0
 40
2.0
100
AcDbArc
 50
0.0
 51
75.553242
  0
LINE
  5
18B
100
AcDbEntity
  8
0
  6
Continuous
 62
   174
100
AcDbLine
 10
64.733872
 20
226.612915
 30
0.0
 11
62.207431
 21
226.612915
 31
0.0
  0
ARC
  5
18C
100
AcDbEntity
  8
0
  6
Continuous
 62
   174
100
AcDbCircle
 10
30.982297
 20
219.883791
 30
0.0
 40
6.0
100
AcDbArc
 50
0.0
 51
79.875328
  0
ARC
  5
18D
100
AcDbEntity
  8
0
  6
Continuous
 62
   174
100
AcDbCircle
 10
47.782297
 20
128.707275
 30
0.0
 40
8.75
100
AcDbArc
 50
196.035131
 51
199.645968
  0
LINE
  5
18E
100
AcDbEntity
  8
0
  6
Continuous
 62
   174
100
AcDbLine
 10
66.782297
 20
166.404287
 30
0.0
 11
66.782297
 21
171.010264
 31
0.0
  0
ARC
  5
18F
100
AcDbEntity
  8
0
  6
Continuous
 62
   174
100
AcDbCircle
 10
47.782297
 20
96.707275
 30
0.0
 40
8.75
100
AcDbArc
 50
307.6271
 51
340.354032
  0
ARC
  5
190
100
AcDbEntity
  8
0
  6
Continuous
 62
   174
100
AcDbCircle
 10
47.782297
 20
96.707275
 30
0.0
 40
8.75
100
AcDbArc
 50
163.964869
 51
196.035131
  0
ARC
  5
191
100
AcDbEntity
  8
0
  6
Continuous
 62
   174
100
AcDbCircle
 10
47.782297
 20
96.707275
 30
0.0
 40
8.75
100
AcDbArc
 50
232.3729
 51
234.942784
  0
LWPOLYLINE
  5
192
100
AcDbEntity
  8
0
  6
Continuous
 62
   174
100
AcDbPolyline
 90
        9
 70
   128
 10
47.782297
 20
166.404287
 10
48.950026
 20
166.03354
 10
50.123716
 20
165.700438
 10
51.303781
 20
165.408908
 10
52.489764
 20
165.163096
 10
53.681503
 20
164.966862
 10
54.878085
 20
164.823752
 10
56.078819
 20
164.736577
 10
57.282297
 20
164.707275
  0
ARC
  5
193
100
AcDbEntity
  8
0
  6
Continuous
 62
   174
100
AcDbCircle
 10
47.782297
 20
96.707275
 30
0.0
 40
9.73
100
AcDbArc
 50
-269.16583
 51
-151.210326
  0
ARC
  5
194
100
AcDbEntity
  8
0
  6
Continuous
 62
   174
100
AcDbCircle
 10
67.782297
 20
228.58177
 30
0.0
 40
2.0
100
AcDbArc
 50
-79.875328
 51
0.0
  0
LINE
  5
195
100
AcDbEntity
  8
0
  6
Continuous
 62
   174
100
AcDbLine
 10
69.782297
 20
228.58177
 30
0.0
 11
69.782297
 21
231.372396
 31
0.0
  0
LINE
  5
196
100
AcDbEntity
  8
0
  6
Continuous
 62
   174
100
AcDbLine
 10
25.799102
 20
231.372396
 30
0.0
 11
69.796527
 21
231.372396
 31
0.0
  0
LINE
  5
197
100
AcDbEntity
  8
0
  6
Continuous
 62
   174
100
AcDbLine
 10
25.799102
 20
228.58177
 30
0.0
 11
69.796527
 21
228.58177
 31
0.0
  0
ARC
  5
198
100
AcDbEntity
  8
0
  6
Continuous
 62
   174
100
AcDbCircle
 10
47.782297
 20
128.707275
 30
0.0
 40
8.75
100
AcDbArc
 50
52.3729
 51
54.942784
  0
ARC
  5
199
100
AcDbEntity
  8
0
  6
Continuous
 62
   174
100
AcDbCircle
 10
47.782297
 20
128.707275
 30
0.0
 40
8.75
100
AcDbArc
 50
163.964869
 51
196.035131
  0
ARC
  5
19A
100
AcDbEntity
  8
0
  6
Continuous
 62
   174
100
AcDbCircle
 10
47.782297
 20
128.707275
 30
0.0
 40
8.75
100
AcDbArc
 50
199.645968
 51
232.3729
  0
ARC
  5
19B
100
AcDbEntity
  8
0
  6
Continuous
 62
   174
100
AcDbCircle
 10
47.782297
 20
96.707275
 30
0.0
 40
8.75
100
AcDbArc
 50
54.942784
 51
90.0
  0
LWPOLYLINE
  5
19C
100
AcDbEntity
  8
0
  6
Continuous
 62
   174
100
AcDbPolyline
 90
        9
 70
   128
 10
47.782297
 20
171.010264
 10
48.950026
 20
171.38101
 10
50.123716
 20
171.714112
 10
51.303781
 20
172.005642
 10
52.489764
 20
172.251454
 10
53.681503
 20
172.447688
 10
54.878085
 20
172.590798
 10
56.078819
 20
172.677974
 10
57.282297
 20
172.707275
  0
LINE
  5
19D
100
AcDbEntity
  8
0
  6
Continuous
 62
   174
100
AcDbLine
 10
64.443771
 20
165.701208
 30
0.0
 11
66.782297
 21
166.404287
 31
0.0
  0
ARC
  5
19E
100
AcDbEntity
  8
0
  6
Continuous
 62
   174
100
AcDbCircle
 10
47.782297
 20
153.740608
 30
0.0
 40
82.166667
100
AcDbArc
 50
90.0
 51
104.446758
  0
LINE
  5
19F
100
AcDbEntity
  8
0
  6
Continuous
 62
   174
100
AcDbLine
 10
62.207431
 20
226.612915
 30
0.0
 11
33.388198
 21
226.612915
 31
0.0
  0
LINE
  5
1A0
100
AcDbEntity
  8
0
  6
Continuous
 62
   174
100
AcDbLine
 10
47.797814
 20
233.309156
 30
0.0
 11
68.295702
 21
233.309156
 31
0.0
  0
ARC
  5
1A1
100
AcDbEntity
  8
0
  6
Continuous
 62
   174
100
AcDbCircle
 10
47.782297
 20
128.707275
 30
0.0
 40
8.75
100
AcDbArc
 50
270.0
 51
305.057216
  0
ARC
  5
1A2
100
AcDbEntity
  8
0
  6
Continuous
 62
   174
100
AcDbCircle
 10
47.782297
 20
128.707275
 30
0.0
 40
8.75
100
AcDbArc
 50
340.354032
 51
343.964869
  0
ARC
  5
1A3
100
AcDbEntity
  8
0
  6
Continuous
 62
   174
100
AcDbCircle
 10
47.782297
 20
128.707275
 30
0.0
 40
8.75
100
AcDbArc
 50
16.035131
 51
19.645968
  0
ARC
  5
1A4
100
AcDbEntity
  8
0
  6
Continuous
 62
   174
100
AcDbCircle
 10
47.782297
 20
128.707275
 30
0.0
 40
8.75
100
AcDbArc
 50
90.0
 51
125.057216
  0
ARC
  5
1A5
100
AcDbEntity
  8
0
  6
Continuous
 62
   174
100
AcDbCircle
 10
47.782297
 20
128.707275
 30
0.0
 40
8.75
100
AcDbArc
 50
160.354032
 51
163.964869
  0
ARC
  5
1A6
100
AcDbEntity
  8
0
  6
Continuous
 62
   174
100
AcDbCircle
 10
47.782297
 20
96.707275
 30
0.0
 40
8.75
100
AcDbArc
 50
270.0
 51
305.057216
  0
LINE
  5
1A7
100
AcDbEntity
  8
0
  6
Continuous
 62
   174
100
AcDbLine
 10
63.537461
 20
164.707275
 30
0.0
 11
66.796789
 21
164.707275
 31
0.0
  0
LWPOLYLINE
  5
1A8
100
AcDbEntity
  8
0
  6
Continuous
 62
   174
100
AcDbPolyline
 90
        9
 70
   128
 10
57.282297
 20
172.707275
 10
58.486705
 20
172.677928
 10
59.689464
 20
172.590513
 10
60.888054
 20
172.446981
 10
62.080673
 20
172.250364
 10
63.265716
 20
172.004526
 10
64.443771
 20
171.713343
 10
65.615476
 20
171.380736
 10
66.782297
 20
171.010264
  0
ARC
  5
1A9
100
AcDbEntity
  8
0
  6
Continuous
 62
   174
100
AcDbCircle
 10
47.782297
 20
96.707275
 30
0.0
 40
9.73
100
AcDbArc
 50
-270.0
 51
-269.16583
  0
LWPOLYLINE
  5
1AA
100
AcDbEntity
  8
0
  6
Continuous
 62
   174
100
AcDbPolyline
 90
        9
 70
   128
 10
66.782297
 20
164.707275
 10
66.782297
 20
164.736622
 10
66.782297
 20
164.824037
 10
66.782297
 20
164.96757
 10
66.782297
 20
165.164186
 10
66.782297
 20
165.410024
 10
66.782297
 20
165.701208
 10
66.782297
 20
166.033814
 10
66.782297
 20
166.404287
  0
ARC
  5
1AB
100
AcDbEntity
  8
0
  6
Continuous
 62
   174
100
AcDbCircle
 10
47.782297
 20
153.740608
 30
0.0
 40
82.166667
100
AcDbArc
 50
-284.446758
 51
-270.0
  0
LINE
  5
1AC
100
AcDbEntity
  8
0
  6
Continuous
 62
   174
100
AcDbLine
 10
30.861757
 20
226.612915
 30
0.0
 11
27.447354
 21
226.612915
 31
0.0
  0
LINE
  5
1AD
100
AcDbEntity
  8
0
  6
Continuous
 62
   174
100
AcDbLine
 10
68.148275
 20
226.612915
 30
0.0
 11
64.733872
 21
226.612915
 31
0.0
  0
LINE
  5
1AE
100
AcDbEntity
  8
0
  6
Continuous
 62
   174
100
AcDbLine
 10
33.388198
 20
226.612915
 30
0.0
 11
30.861757
 21
226.612915
 31
0.0
  0
ARC
  5
1AF
100
AcDbEntity
  8
0
  6
Continuous
 62
   174
100
AcDbCircle
 10
47.782297
 20
128.707275
 30
0.0
 40
8.75
100
AcDbArc
 50
-16.035131
 51
16.035131
  0
ARC
  5
1B0
100
AcDbEntity
  8
0
  6
Continuous
 62
   174
100
AcDbCircle
 10
47.782297
 20
128.707275
 30
0.0
 40
8.75
100
AcDbArc
 50
19.645968
 51
52.3729
  0
ARC
  5
1B1
100
AcDbEntity
  8
0
  6
Continuous
 62
   174
100
AcDbCircle
 10
47.782297
 20
128.707275
 30
0.0
 40
8.75
100
AcDbArc
 50
54.942784
 51
90.0
  0
ARC
  5
1B2
100
AcDbEntity
  8
0
  6
Continuous
 62
   174
100
AcDbCircle
 10
47.782297
 20
128.707275
 30
0.0
 40
8.75
100
AcDbArc
 50
127.6271
 51
160.354032
  0
LINE
  5
1B3
100
AcDbEntity
  8
0
  6
Continuous
 62
   174
100
AcDbLine
 10
63.782297
 20
60.707275
 30
0.0
 11
63.782297
 21
164.707275
 31
0.0
  0
ARC
  5
1B4
100
AcDbEntity
  8
0
  6
Continuous
 62
   174
100
AcDbCircle
 10
47.782297
 20
96.707275
 30
0.0
 40
8.75
100
AcDbArc
 50
234.942784
 51
270.0
  0
ARC
  5
1B5
100
AcDbEntity
  8
0
  6
Continuous
 62
   174
100
AcDbCircle
 10
47.782297
 20
96.707275
 30
0.0
 40
8.75
100
AcDbArc
 50
340.354032
 51
343.964869
  0
ARC
  5
1B6
100
AcDbEntity
  8
0
  6
Continuous
 62
   174
100
AcDbCircle
 10
47.782297
 20
96.707275
 30
0.0
 40
8.75
100
AcDbArc
 50
19.645968
 51
52.3729
  0
LINE
  5
1B7
100
AcDbEntity
  8
0
  6
Continuous
 62
   174
100
AcDbLine
 10
47.782297
 20
166.404287
 30
0.0
 11
47.782297
 21
171.010264
 31
0.0
  0
LWPOLYLINE
  5
1B8
100
AcDbEntity
  8
0
  6
Continuous
 62
   174
100
AcDbPolyline
 90
        9
 70
   128
 10
28.782297
 20
164.707275
 10
28.782297
 20
164.736622
 10
28.782297
 20
164.824037
 10
28.782297
 20
164.96757
 10
28.782297
 20
165.164186
 10
28.782297
 20
165.410024
 10
28.782297
 20
165.701208
 10
28.782297
 20
166.033814
 10
28.782297
 20
166.404287
  0
LWPOLYLINE
  5
1B9
100
AcDbEntity
  8
0
  6
Continuous
 62
   174
100
AcDbPolyline
 90
        9
 70
   128
 10
38.282297
 20
164.707275
 10
39.486705
 20
164.736622
 10
40.689464
 20
164.824037
 10
41.888054
 20
164.96757
 10
43.080673
 20
165.164186
 10
44.265716
 20
165.410024
 10
45.443771
 20
165.701208
 10
46.615476
 20
166.033814
 10
47.782297
 20
166.404287
  0
ARC
  5
1BA
100
AcDbEntity
  8
0
  6
Continuous
 62
   174
100
AcDbCircle
 10
27.782297
 20
228.58177
 30
0.0
 40
2.0
100
AcDbArc
 50
-180.0
 51
-100.124672
  0
ARC
  5
1BB
100
AcDbEntity
  8
0
  6
Continuous
 62
   174
100
AcDbCircle
 10
30.982297
 20
219.883791
 30
0.0
 40
6.0
100
AcDbArc
 50
0.0
 51
79.875328
  0
ARC
  5
1BC
100
AcDbEntity
  8
0
  6
Continuous
 62
   174
100
AcDbCircle
 10
37.982297
 20
203.707275
 30
0.0
 40
1.0
100
AcDbArc
 50
180.0
 51
270.0
  0
LINE
  5
1BD
100
AcDbEntity
  8
0
  6
Continuous
 62
   174
100
AcDbLine
 10
47.798027
 20
58.707564
 30
0.0
 11
55.785856
 21
58.707564
 31
0.0
  0
ARC
  5
1BE
100
AcDbEntity
  8
0
  6
Continuous
 62
   174
100
AcDbCircle
 10
64.582297
 20
219.883791
 30
0.0
 40
6.0
100
AcDbArc
 50
-259.875328
 51
-180.0
  0
ARC
  5
1BF
100
AcDbEntity
  8
0
  6
Continuous
 62
   174
100
AcDbCircle
 10
57.582297
 20
203.707275
 30
0.0
 40
1.0
100
AcDbArc
 50
-90.0
 51
0.0
  0
LINE
  5
1C0
100
AcDbEntity
  8
0
  6
Continuous
 62
   174
100
AcDbLine
 10
57.328742
 20
202.707275
 30
0.0
 11
53.399619
 21
202.707275
 31
0.0
  0
LINE
  5
1C1
100
AcDbEntity
  8
0
  6
Continuous
 62
   174
100
AcDbLine
 10
48.98764
 20
202.707275
 30
0.0
 11
46.607989
 21
202.707275
 31
0.0
  0
LINE
  5
1C2
100
AcDbEntity
  8
0
  6
Continuous
 62
   174
100
AcDbLine
 10
47.797814
 20
202.707275
 30
0.0
 11
42.658047
 21
202.707275
 31
0.0
  0
LINE
  5
1C3
100
AcDbEntity
  8
0
  6
Continuous
 62
   174
100
AcDbLine
 10
58.582297
 20
203.707275
 30
0.0
 11
58.582297
 21
219.883791
 31
0.0
  0
LINE
  5
1C4
100
AcDbEntity
  8
0
  6
Continuous
 62
   174
100
AcDbLine
 10
58.582297
 20
203.707275
 30
0.0
 11
58.582297
 21
219.883791
 31
0.0
  0
LINE
  5
1C5
100
AcDbEntity
  8
0
  6
Continuous
 62
   174
100
AcDbLine
 10
51.295278
 20
202.707275
 30
0.0
 11
48.98764
 21
202.707275
 31
0.0
  0
LINE
  5
1C6
100
AcDbEntity
  8
0
  6
Continuous
 62
   174
100
AcDbLine
 10
53.058667
 20
202.707275
 30
0.0
 11
47.797814
 21
202.707275
 31
0.0
  0
LINE
  5
1C7
100
AcDbEntity
  8
0
  6
Continuous
 62
   174
100
AcDbLine
 10
42.658047
 20
202.707275
 30
0.0
 11
37.998374
 21
202.707275
 31
0.0
  0
ARC
  5
1C8
100
AcDbEntity
  8
0
  6
Continuous
 62
   174
100
AcDbCircle
 10
37.982297
 20
203.707275
 30
0.0
 40
1.0
100
AcDbArc
 50
180.0
 51
270.0
  0
LINE
  5
1C9
100
AcDbEntity
  8
0
  6
Continuous
 62
   174
100
AcDbLine
 10
39.706107
 20
203.707275
 30
0.0
 11
38.230137
 21
203.707275
 31
0.0
  0
LINE
  5
1CA
100
AcDbEntity
  8
0
  6
Continuous
 62
   174
100
AcDbLine
 10
55.77574
 20
58.712541
 30
0.0
 11
56.776396
 21
59.714677
 31
0.0
  0
LINE
  5
1CB
100
AcDbEntity
  8
0
  6
Continuous
 62
   174
100
AcDbLine
 10
57.597254
 20
202.707275
 30
0.0
 11
53.058667
 21
202.707275
 31
0.0
  0
LINE
  5
1CC
100
AcDbEntity
  8
0
  6
Continuous
 62
   174
100
AcDbLine
 10
57.597254
 20
202.707275
 30
0.0
 11
57.328742
 21
202.707275
 31
0.0
  0
LINE
  5
1CD
100
AcDbEntity
  8
0
  6
Continuous
 62
   174
100
AcDbLine
 10
47.798027
 20
59.720244
 30
0.0
 11
55.993188
 21
59.720244
 31
0.0
  0
LINE
  5
1CE
100
AcDbEntity
  8
0
  6
Continuous
 62
   174
100
AcDbLine
 10
58.597167
 20
203.707275
 30
0.0
 11
58.285106
 21
203.707275
 31
0.0
  0
LINE
  5
1CF
100
AcDbEntity
  8
0
  6
Continuous
 62
   174
100
AcDbLine
 10
53.399619
 20
202.707275
 30
0.0
 11
51.295278
 21
202.707275
 31
0.0
  0
LINE
  5
1D0
100
AcDbEntity
  8
0
  6
Continuous
 62
   174
100
AcDbLine
 10
39.8051
 20
58.705985
 30
0.0
 11
47.797602
 21
58.705985
 31
0.0
  0
LINE
  5
1D1
100
AcDbEntity
  8
0
  6
Continuous
 62
   174
100
AcDbLine
 10
39.254266
 20
59.716433
 30
0.0
 11
39.607327
 21
59.716433
 31
0.0
  0
LINE
  5
1D2
100
AcDbEntity
  8
0
  6
Continuous
 62
   174
100
AcDbLine
 10
55.889522
 20
203.707275
 30
0.0
 11
39.706107
 21
203.707275
 31
0.0
  0
LINE
  5
1D3
100
AcDbEntity
  8
0
  6
Continuous
 62
   174
100
AcDbLine
 10
39.786607
 20
58.709838
 30
0.0
 11
38.785163
 21
59.712143
 31
0.0
  0
LINE
  5
1D4
100
AcDbEntity
  8
0
  6
Continuous
 62
   174
100
AcDbLine
 10
32.053494
 20
225.790357
 30
0.0
 11
63.542135
 21
225.790357
 31
0.0
  0
LINE
  5
1D5
100
AcDbEntity
  8
0
  6
Continuous
 62
   174
100
AcDbLine
 10
38.266887
 20
202.707275
 30
0.0
 11
37.998374
 21
202.707275
 31
0.0
  0
LINE
  5
1D6
100
AcDbEntity
  8
0
  6
Continuous
 62
   174
100
AcDbLine
 10
38.230137
 20
203.707275
 30
0.0
 11
36.998462
 21
203.707275
 31
0.0
  0
LINE
  5
1D7
100
AcDbEntity
  8
0
  6
Continuous
 62
   174
100
AcDbLine
 10
46.607989
 20
202.707275
 30
0.0
 11
44.300351
 21
202.707275
 31
0.0
  0
LINE
  5
1D8
100
AcDbEntity
  8
0
  6
Continuous
 62
   174
100
AcDbLine
 10
38.782297
 20
60.707275
 30
0.0
 11
38.782297
 21
59.70928
 31
0.0
  0
LINE
  5
1D9
100
AcDbEntity
  8
0
  6
Continuous
 62
   174
100
AcDbLine
 10
44.300351
 20
202.707275
 30
0.0
 11
42.19601
 21
202.707275
 31
0.0
  0
LINE
  5
1DA
100
AcDbEntity
  8
0
  6
Continuous
 62
   174
100
AcDbLine
 10
56.782297
 20
60.707275
 30
0.0
 11
56.782297
 21
59.708785
 31
0.0
  0
LINE
  5
1DB
100
AcDbEntity
  8
0
  6
Continuous
 62
   174
100
AcDbLine
 10
56.361543
 20
59.720244
 30
0.0
 11
56.797027
 21
59.720244
 31
0.0
  0
LINE
  5
1DC
100
AcDbEntity
  8
0
  6
Continuous
 62
   174
100
AcDbLine
 10
58.285106
 20
203.707275
 30
0.0
 11
55.889522
 21
203.707275
 31
0.0
  0
LINE
  5
1DD
100
AcDbEntity
  8
0
  6
Continuous
 62
   174
100
AcDbLine
 10
42.19601
 20
202.707275
 30
0.0
 11
38.266887
 21
202.707275
 31
0.0
  0
LINE
  5
1DE
100
AcDbEntity
  8
0
  6
Continuous
 62
   174
100
AcDbLine
 10
39.608601
 20
59.716433
 30
0.0
 11
47.797602
 21
59.716433
 31
0.0
  0
LINE
  5
1DF
100
AcDbEntity
  8
0
  6
Continuous
 62
   174
100
AcDbLine
 10
32.037041
 20
225.790357
 30
0.0
 11
27.430716
 21
226.612915
 31
0.0
  0
LINE
  5
1E0
100
AcDbEntity
  8
0
  6
Continuous
 62
   174
100
AcDbLine
 10
36.982297
 20
203.707275
 30
0.0
 11
36.982297
 21
219.883791
 31
0.0
  0
LINE
  5
1E1
100
AcDbEntity
  8
0
  6
Continuous
 62
   174
100
AcDbLine
 10
58.597167
 20
219.883791
 30
0.0
 11
36.998462
 21
219.883791
 31
0.0
  0
LINE
  5
1E2
100
AcDbEntity
  8
0
  6
Continuous
 62
   174
100
AcDbLine
 10
63.527553
 20
225.790357
 30
0.0
 11
68.133878
 21
226.612915
 31
0.0
  0
LINE
  5
1E3
100
AcDbEntity
  8
0
  6
Continuous
 62
   174
100
AcDbLine
 10
63.527553
 20
225.790357
 30
0.0
 11
68.133878
 21
226.612915
 31
0.0
  0
ARC
  5
1E4
100
AcDbEntity
  8
0
  6
Continuous
 62
   174
100
AcDbCircle
 10
57.582297
 20
203.707275
 30
0.0
 40
1.0
100
AcDbArc
 50
-90.0
 51
0.0
  0
LINE
  5
1E5
100
AcDbEntity
  8
0
  6
Continuous
 62
   174
100
AcDbLine
 10
38.798389
 20
59.716433
 30
0.0
 11
39.252992
 21
59.716433
 31
0.0
  0
LINE
  5
1E6
100
AcDbEntity
  8
0
  6
Continuous
 62
   174
100
AcDbLine
 10
32.037041
 20
225.790357
 30
0.0
 11
27.430716
 21
226.612915
 31
0.0
  0
LINE
  5
1E7
100
AcDbEntity
  8
0
  6
Continuous
 62
   174
100
AcDbLine
 10
55.993401
 20
59.720244
 30
0.0
 11
56.361119
 21
59.720244
 31
0.0
  0
LINE
  5
1E8
100
AcDbEntity
  8
0
  6
Continuous
 62
   174
100
AcDbLine
 10
36.982297
 20
203.707275
 30
0.0
 11
36.982297
 21
219.883791
 31
0.0
  0
ENDBLK
  5
1E9
100
AcDbEntity
  8
0
100
AcDbBlockEnd
  0
BLOCK
  5
1EC
100
AcDbEntity
  8
0
100
AcDbBlockBegin
  2
*B9
 70
     0
 10
0.0
 20
0.0
 30
0.0
  3
*B9
  1

  0
LINE
  5
1ED
100
AcDbEntity
  8
0
  6
Continuous
 62
   172
100
AcDbLine
 10
61.8
 20
188.726892
 30
0.0
 11
61.8
 21
172.726892
 31
0.0
  0
LINE
  5
1EE
100
AcDbEntity
  8
0
  6
Continuous
 62
   172
100
AcDbLine
 10
33.8
 20
188.726892
 30
0.0
 11
33.8
 21
172.726892
 31
0.0
  0
ENDBLK
  5
1EF
100
AcDbEntity
  8
0
100
AcDbBlockEnd
  0
BLOCK
  5
1F2
100
AcDbEntity
  8
0
100
AcDbBlockBegin
  2
*B10
 70
     0
 10
0.0
 20
0.0
 30
0.0
  3
*B10
  1

  0
ENDBLK
  5
1F3
100
AcDbEntity
  8
0
100
AcDbBlockEnd
  0
BLOCK
  5
1F5
100
AcDbEntity
  8
0
100
AcDbBlockBegin
  2
*B11
 70
     0
 10
0.0
 20
0.0
 30
0.0
  3
*B11
  1

  0
ENDBLK
  5
1F6
100
AcDbEntity
  8
0
100
AcDbBlockEnd
  0
BLOCK
  5
1F8
100
AcDbEntity
  8
0
100
AcDbBlockBegin
  2
*B12
 70
     0
 10
0.0
 20
0.0
 30
0.0
  3
*B12
  1

  0
LINE
  5
1F9
100
AcDbEntity
  8
0
  6
Continuous
 62
     0
100
AcDbLine
 10
84.58597
 20
60.725513
 30
0.0
 11
84.58597
 21
164.725335
 31
0.0
  0
SOLID
  5
1FA
100
AcDbEntity
  8
0
  6
Continuous
 62
     0
100
AcDbTrace
 10
83.985852
 20
64.225525
 30
0.0
 11
84.58597
 21
60.725513
 31
0.0
 12
85.185875
 22
64.225525
 32
0.0
 13
85.185875
 23
64.225525
 33
0.0
  0
SOLID
  5
1FB
100
AcDbEntity
  8
0
  6
Continuous
 62
     0
100
AcDbTrace
 10
85.185875
 20
161.225322
 30
0.0
 11
84.58597
 21
164.725335
 31
0.0
 12
83.985852
 22
161.225322
 32
0.0
 13
83.985852
 23
161.225322
 33
0.0
  0
ENDBLK
  5
1FC
100
AcDbEntity
  8
0
100
AcDbBlockEnd
  0
BLOCK
  5
1FF
100
AcDbEntity
  8
0
100
AcDbBlockBegin
  2
*B13
 70
     0
 10
0.0
 20
0.0
 30
0.0
  3
*B13
  1

  0
LINE
  5
200
100
AcDbEntity
  8
0
  6
Continuous
 62
     0
100
AcDbLine
 10
188.580056
 20
128.725511
 30
0.0
 11
188.580056
 21
164.725335
 31
0.0
  0
SOLID
  5
201
100
AcDbEntity
  8
0
  6
Continuous
 62
     0
100
AcDbTrace
 10
187.980151
 20
132.225311
 30
0.0
 11
188.580056
 21
128.725511
 31
0.0
 12
189.179961
 22
132.225311
 32
0.0
 13
189.179961
 23
132.225311
 33
0.0
  0
SOLID
  5
202
100
AcDbEntity
  8
0
  6
Continuous
 62
     0
100
AcDbTrace
 10
189.179961
 20
161.225322
 30
0.0
 11
188.580056
 21
164.725335
 31
0.0
 12
187.980151
 22
161.225322
 32
0.0
 13
187.980151
 23
161.225322
 33
0.0
  0
ENDBLK
  5
203
100
AcDbEntity
  8
0
100
AcDbBlockEnd
  0
BLOCK
  5
206
100
AcDbEntity
  8
0
100
AcDbBlockBegin
  2
*B14
 70
     0
 10
0.0
 20
0.0
 30
0.0
  3
*B14
  1

  0
LINE
  5
207
100
AcDbEntity
  8
0
  6
Continuous
 62
     0
100
AcDbLine
 10
188.580056
 20
96.725337
 30
0.0
 11
188.580056
 21
128.725511
 31
0.0
  0
SOLID
  5
208
100
AcDbEntity
  8
0
  6
Continuous
 62
     0
100
AcDbTrace
 10
187.980151
 20
100.225349
 30
0.0
 11
188.580056
 21
96.725337
 31
0.0
 12
189.179961
 22
100.225349
 32
0.0
 13
189.179961
 23
100.225349
 33
0.0
  0
SOLID
  5
209
100
AcDbEntity
  8
0
  6
Continuous
 62
     0
100
AcDbTrace
 10
189.179961
 20
125.225498
 30
0.0
 11
188.580056
 21
128.725511
 31
0.0
 12
187.980151
 22
125.225498
 32
0.0
 13
187.980151
 23
125.225498
 33
0.0
  0
ENDBLK
  5
20A
100
AcDbEntity
  8
0
100
AcDbBlockEnd
  0
BLOCK
  5
20D
100
AcDbEntity
  8
0
100
AcDbBlockBegin
  2
*B15
 70
     0
 10
0.0
 20
0.0
 30
0.0
  3
*B15
  1

  0
LINE
  5
20E
100
AcDbEntity
  8
0
  6
Continuous
 62
     0
100
AcDbLine
 10
188.580056
 20
96.725337
 30
0.0
 11
188.580056
 21
60.725513
 31
0.0
  0
SOLID
  5
20F
100
AcDbEntity
  8
0
  6
Continuous
 62
     0
100
AcDbTrace
 10
189.179961
 20
93.225324
 30
0.0
 11
188.580056
 21
96.725337
 31
0.0
 12
187.980151
 22
93.225324
 32
0.0
 13
187.980151
 23
93.225324
 33
0.0
  0
SOLID
  5
210
100
AcDbEntity
  8
0
  6
Continuous
 62
     0
100
AcDbTrace
 10
187.980151
 20
64.225525
 30
0.0
 11
188.580056
 21
60.725513
 31
0.0
 12
189.179961
 22
64.225525
 32
0.0
 13
189.179961
 23
64.225525
 33
0.0
  0
ENDBLK
  5
211
100
AcDbEntity
  8
0
100
AcDbBlockEnd
  0
BLOCK
  5
214
100
AcDbEntity
  8
0
100
AcDbBlockBegin
  2
*B16
 70
     0
 10
0.0
 20
0.0
 30
0.0
  3
*B16
  1

  0
LINE
  5
215
100
AcDbEntity
  8
0
  6
Continuous
 62
     0
100
AcDbLine
 10
202.579256
 20
235.925393
 30
0.0
 11
202.579256
 21
60.725513
 31
0.0
  0
SOLID
  5
216
100
AcDbEntity
  8
0
  6
Continuous
 62
     0
100
AcDbTrace
 10
203.179161
 20
232.42538
 30
0.0
 11
202.579256
 21
235.925393
 31
0.0
 12
201.979351
 22
232.42538
 32
0.0
 13
201.979351
 23
232.42538
 33
0.0
  0
SOLID
  5
217
100
AcDbEntity
  8
0
  6
Continuous
 62
     0
100
AcDbTrace
 10
201.979351
 20
64.225525
 30
0.0
 11
202.579256
 21
60.725513
 31
0.0
 12
203.179161
 22
64.225525
 32
0.0
 13
203.179161
 23
64.225525
 33
0.0
  0
ENDBLK
  5
218
100
AcDbEntity
  8
0
100
AcDbBlockEnd
  0
BLOCK
  5
21B
100
AcDbEntity
  8
0
100
AcDbBlockBegin
  2
*B17
 70
     0
 10
0.0
 20
0.0
 30
0.0
  3
*B17
  1

  0
LINE
  5
21C
100
AcDbEntity
  8
0
  6
Continuous
 62
     0
100
AcDbLine
 10
84.58597
 20
67.725537
 30
0.0
 11
84.58597
 21
47.46451
 31
0.0
  0
SOLID
  5
21D
100
AcDbEntity
  8
0
  6
Continuous
 62
     0
100
AcDbTrace
 10
83.985852
 20
64.225525
 30
0.0
 11
84.58597
 21
60.725513
 31
0.0
 12
85.185875
 22
64.225525
 32
0.0
 13
85.185875
 23
64.225525
 33
0.0
  0
SOLID
  5
21E
100
AcDbEntity
  8
0
  6
Continuous
 62
     0
100
AcDbTrace
 10
85.185875
 20
55.225463
 30
0.0
 11
84.58597
 21
58.725475
 31
0.0
 12
83.985852
 22
55.225463
 32
0.0
 13
83.985852
 23
55.225463
 33
0.0
  0
ENDBLK
  5
21F
100
AcDbEntity
  8
0
100
AcDbBlockEnd
  0
BLOCK
  5
222
100
AcDbEntity
  8
0
100
AcDbBlockBegin
  2
*B18
 70
     0
 10
0.0
 20
0.0
 30
0.0
  3
*B18
  1

  0
LINE
  5
223
100
AcDbEntity
  8
0
  6
Continuous
 62
     0
100
AcDbLine
 10
84.58597
 20
164.725335
 30
0.0
 11
84.58597
 21
188.725359
 31
0.0
  0
SOLID
  5
224
100
AcDbEntity
  8
0
  6
Continuous
 62
     0
100
AcDbTrace
 10
83.985852
 20
168.225347
 30
0.0
 11
84.58597
 21
164.725335
 31
0.0
 12
85.185875
 22
168.225347
 32
0.0
 13
85.185875
 23
168.225347
 33
0.0
  0
SOLID
  5
225
100
AcDbEntity
  8
0
  6
Continuous
 62
     0
100
AcDbTrace
 10
85.185875
 20
185.225347
 30
0.0
 11
84.58597
 21
188.725359
 31
0.0
 12
83.985852
 22
185.225347
 32
0.0
 13
83.985852
 23
185.225347
 33
0.0
  0
ENDBLK
  5
226
100
AcDbEntity
  8
0
100
AcDbBlockEnd
  0
BLOCK
  5
229
100
AcDbEntity
  8
0
100
AcDbBlockBegin
  2
*B19
 70
     0
 10
0.0
 20
0.0
 30
0.0
  3
*B19
  1

  0
LINE
  5
22A
100
AcDbEntity
  8
0
  6
Continuous
 62
     0
100
AcDbLine
 10
84.58597
 20
188.725359
 30
0.0
 11
84.58597
 21
202.725409
 31
0.0
  0
SOLID
  5
22B
100
AcDbEntity
  8
0
  6
Continuous
 62
     0
100
AcDbTrace
 10
83.985852
 20
192.225371
 30
0.0
 11
84.58597
 21
188.725359
 31
0.0
 12
85.185875
 22
192.225371
 32
0.0
 13
85.185875
 23
192.225371
 33
0.0
  0
SOLID
  5
22C
100
AcDbEntity
  8
0
  6
Continuous
 62
     0
100
AcDbTrace
 10
85.185875
 20
199.225396
 30
0.0
 11
84.58597
 21
202.725409
 31
0.0
 12
83.985852
 22
199.225396
 32
0.0
 13
83.985852
 23
199.225396
 33
0.0
  0
ENDBLK
  5
22D
100
AcDbEntity
  8
0
100
AcDbBlockEnd
  0
BLOCK
  5
230
100
AcDbEntity
  8
0
100
AcDbBlockBegin
  2
*B20
 70
     0
 10
0.0
 20
0.0
 30
0.0
  3
*B20
  1

  0
LINE
  5
231
100
AcDbEntity
  8
0
  6
Continuous
 62
     0
100
AcDbLine
 10
120.447501
 20
246.145021
 30
0.0
 11
164.444926
 21
246.145021
 31
0.0
  0
SOLID
  5
232
100
AcDbEntity
  8
0
  6
Continuous
 62
     0
100
AcDbTrace
 10
123.947301
 20
246.744926
 30
0.0
 11
120.447501
 21
246.145021
 31
0.0
 12
123.947301
 22
245.544904
 32
0.0
 13
123.947301
 23
245.544904
 33
0.0
  0
SOLID
  5
233
100
AcDbEntity
  8
0
  6
Continuous
 62
     0
100
AcDbTrace
 10
160.945126
 20
245.544904
 30
0.0
 11
164.444926
 21
246.145021
 31
0.0
 12
160.945126
 22
246.744926
 32
0.0
 13
160.945126
 23
246.744926
 33
0.0
  0
ENDBLK
  5
234
100
AcDbEntity
  8
0
100
AcDbBlockEnd
  0
BLOCK
  5
237
100
AcDbEntity
  8
0
100
AcDbBlockBegin
  2
*B21
 70
     0
 10
0.0
 20
0.0
 30
0.0
  3
*B21
  1

  0
LINE
  5
238
100
AcDbEntity
  8
0
  6
Continuous
 62
     0
100
AcDbLine
 10
16.017294
 20
112.975455
 30
0.0
 11
16.017294
 21
161.357454
 31
0.0
  0
SOLID
  5
239
100
AcDbEntity
  8
0
  6
Continuous
 62
     0
100
AcDbTrace
 10
16.617199
 20
116.475467
 30
0.0
 11
16.017294
 21
119.97548
 31
0.0
 12
15.417389
 22
116.475467
 32
0.0
 13
15.417389
 23
116.475467
 33
0.0
  0
SOLID
  5
23A
100
AcDbEntity
  8
0
  6
Continuous
 62
     0
100
AcDbTrace
 10
15.417389
 20
140.975342
 30
0.0
 11
16.017294
 21
137.475329
 31
0.0
 12
16.617199
 22
140.975342
 32
0.0
 13
16.617199
 23
140.975342
 33
0.0
  0
ENDBLK
  5
23B
100
AcDbEntity
  8
0
100
AcDbBlockEnd
  0
BLOCK
  5
23E
100
AcDbEntity
  8
0
100
AcDbBlockBegin
  2
*B22
 70
     0
 10
0.0
 20
0.0
 30
0.0
  3
*B22
  1

  0
LINE
  5
23F
100
AcDbEntity
  8
0
  6
Continuous
 62
     0
100
AcDbLine
 10
63.796839
 20
32.018231
 30
0.0
 11
31.79879
 21
32.018231
 31
0.0
  0
SOLID
  5
240
100
AcDbEntity
  8
0
  6
Continuous
 62
     0
100
AcDbTrace
 10
60.297039
 20
31.418113
 30
0.0
 11
63.796839
 21
32.018231
 31
0.0
 12
60.297039
 22
32.618136
 32
0.0
 13
60.297039
 23
32.618136
 33
0.0
  0
SOLID
  5
241
100
AcDbEntity
  8
0
  6
Continuous
 62
     0
100
AcDbTrace
 10
35.298589
 20
32.618136
 30
0.0
 11
31.79879
 21
32.018231
 31
0.0
 12
35.298589
 22
31.418113
 32
0.0
 13
35.298589
 23
31.418113
 33
0.0
  0
ENDBLK
  5
242
100
AcDbEntity
  8
0
100
AcDbBlockEnd
  0
BLOCK
  5
245
100
AcDbEntity
  8
0
100
AcDbBlockBegin
  2
*B23
 70
     0
 10
0.0
 20
0.0
 30
0.0
  3
*B23
  1

  0
LINE
  5
246
100
AcDbEntity
  8
0
  6
Continuous
 62
     0
100
AcDbLine
 10
172.444651
 20
32.018231
 30
0.0
 11
112.447989
 21
32.018231
 31
0.0
  0
SOLID
  5
247
100
AcDbEntity
  8
0
  6
Continuous
 62
     0
100
AcDbTrace
 10
168.944851
 20
31.418113
 30
0.0
 11
172.444651
 21
32.018231
 31
0.0
 12
168.944851
 22
32.618136
 32
0.0
 13
168.944851
 23
32.618136
 33
0.0
  0
SOLID
  5
248
100
AcDbEntity
  8
0
  6
Continuous
 62
     0
100
AcDbTrace
 10
115.947789
 20
32.618136
 30
0.0
 11
112.447989
 21
32.018231
 31
0.0
 12
115.947789
 22
31.418113
 32
0.0
 13
115.947789
 23
31.418113
 33
0.0
  0
ENDBLK
  5
249
100
AcDbEntity
  8
0
100
AcDbBlockEnd
  0
BLOCK
  5
24C
100
AcDbEntity
  8
0
100
AcDbBlockBegin
  2
*B24
 70
     0
 10
0.0
 20
0.0
 30
0.0
  3
*B24
  1

  0
LINE
  5
24D
100
AcDbEntity
  8
0
  6
Continuous
 62
     0
100
AcDbLine
 10
98.012668
 20
80.725462
 30
0.0
 11
98.012668
 21
60.725513
 31
0.0
  0
SOLID
  5
24E
100
AcDbEntity
  8
0
  6
Continuous
 62
     0
100
AcDbTrace
 10
98.612573
 20
77.22545
 30
0.0
 11
98.012668
 21
80.725462
 31
0.0
 12
97.412763
 22
77.22545
 32
0.0
 13
97.412763
 23
77.22545
 33
0.0
  0
SOLID
  5
24F
100
AcDbEntity
  8
0
  6
Continuous
 62
     0
100
AcDbTrace
 10
97.412763
 20
64.225525
 30
0.0
 11
98.012668
 21
60.725513
 31
0.0
 12
98.612573
 22
64.225525
 32
0.0
 13
98.612573
 23
64.225525
 33
0.0
  0
ENDBLK
  5
250
100
AcDbEntity
  8
0
100
AcDbBlockEnd
  0
BLOCK
  5
253
100
AcDbEntity
  8
0
100
AcDbBlockBegin
  2
*B25
 70
     0
 10
0.0
 20
0.0
 30
0.0
  3
*B25
  1

  0
LINE
  5
254
100
AcDbEntity
  8
0
  6
Continuous
 62
     0
100
AcDbLine
 10
31.79879
 20
211.144897
 30
0.0
 11
63.796839
 21
211.144897
 31
0.0
  0
SOLID
  5
255
100
AcDbEntity
  8
0
  6
Continuous
 62
     0
100
AcDbTrace
 10
35.298589
 20
211.745014
 30
0.0
 11
31.79879
 21
211.144897
 31
0.0
 12
35.298589
 22
210.544992
 32
0.0
 13
35.298589
 23
210.544992
 33
0.0
  0
SOLID
  5
256
100
AcDbEntity
  8
0
  6
Continuous
 62
     0
100
AcDbTrace
 10
60.297039
 20
210.544992
 30
0.0
 11
63.796839
 21
211.144897
 31
0.0
 12
60.297039
 22
211.745014
 32
0.0
 13
60.297039
 23
211.745014
 33
0.0
  0
ENDBLK
  5
257
100
AcDbEntity
  8
0
100
AcDbBlockEnd
  0
BLOCK
  5
25A
100
AcDbEntity
  8
0
100
AcDbBlockBegin
  2
*B26
 70
     0
 10
0.0
 20
0.0
 30
0.0
  3
*B26
  1

  0
LINE
  5
25B
100
AcDbEntity
  8
0
  6
Continuous
 62
     0
100
AcDbLine
 10
98.012668
 20
144.725385
 30
0.0
 11
98.012668
 21
164.725335
 31
0.0
  0
SOLID
  5
25C
100
AcDbEntity
  8
0
  6
Continuous
 62
     0
100
AcDbTrace
 10
97.412763
 20
148.225398
 30
0.0
 11
98.012668
 21
144.725385
 31
0.0
 12
98.612573
 22
148.225398
 32
0.0
 13
98.612573
 23
148.225398
 33
0.0
  0
SOLID
  5
25D
100
AcDbEntity
  8
0
  6
Continuous
 62
     0
100
AcDbTrace
 10
98.612573
 20
161.225322
 30
0.0
 11
98.012668
 21
164.725335
 31
0.0
 12
97.412763
 22
161.225322
 32
0.0
 13
97.412763
 23
161.225322
 33
0.0
  0
ENDBLK
  5
25E
100
AcDbEntity
  8
0
100
AcDbBlockEnd
  0
BLOCK
  5
261
100
AcDbEntity
  8
0
100
AcDbBlockBegin
  2
*B27
 70
     0
 10
0.0
 20
0.0
 30
0.0
  3
*B27
  1

  0
LINE
  5
262
100
AcDbEntity
  8
0
  6
Continuous
 62
     0
100
AcDbLine
 10
98.012668
 20
144.725385
 30
0.0
 11
98.012668
 21
112.725424
 31
0.0
  0
SOLID
  5
263
100
AcDbEntity
  8
0
  6
Continuous
 62
     0
100
AcDbTrace
 10
98.612573
 20
141.225373
 30
0.0
 11
98.012668
 21
144.725385
 31
0.0
 12
97.412763
 22
141.225373
 32
0.0
 13
97.412763
 23
141.225373
 33
0.0
  0
SOLID
  5
264
100
AcDbEntity
  8
0
  6
Continuous
 62
     0
100
AcDbTrace
 10
97.412763
 20
116.225436
 30
0.0
 11
98.012668
 21
112.725424
 31
0.0
 12
98.612573
 22
116.225436
 32
0.0
 13
98.612573
 23
116.225436
 33
0.0
  0
ENDBLK
  5
265
100
AcDbEntity
  8
0
100
AcDbBlockEnd
  0
BLOCK
  5
268
100
AcDbEntity
  8
0
100
AcDbBlockBegin
  2
*B28
 70
     0
 10
0.0
 20
0.0
 30
0.0
  3
*B28
  1

  0
LINE
  5
269
100
AcDbEntity
  8
0
  6
Continuous
 62
     0
100
AcDbLine
 10
158.445238
 20
46.018068
 30
0.0
 11
126.447189
 21
46.018068
 31
0.0
  0
SOLID
  5
26A
100
AcDbEntity
  8
0
  6
Continuous
 62
     0
100
AcDbTrace
 10
154.945438
 20
45.418163
 30
0.0
 11
158.445238
 21
46.018068
 31
0.0
 12
154.945438
 22
46.618185
 32
0.0
 13
154.945438
 23
46.618185
 33
0.0
  0
SOLID
  5
26B
100
AcDbEntity
  8
0
  6
Continuous
 62
     0
100
AcDbTrace
 10
129.946989
 20
46.618185
 30
0.0
 11
126.447189
 21
46.018068
 31
0.0
 12
129.946989
 22
45.418163
 32
0.0
 13
129.946989
 23
45.418163
 33
0.0
  0
ENDBLK
  5
26C
100
AcDbEntity
  8
0
100
AcDbBlockEnd
  0
BLOCK
  5
26F
100
AcDbEntity
  8
0
100
AcDbBlockBegin
  2
*B29
 70
     0
 10
0.0
 20
0.0
 30
0.0
  3
*B29
  1

  0
LINE
  5
270
100
AcDbEntity
  8
0
  6
Continuous
 62
     0
100
AcDbLine
 10
188.580056
 20
223.484374
 30
0.0
 11
188.580056
 21
185.725409
 31
0.0
  0
SOLID
  5
271
100
AcDbEntity
  8
0
  6
Continuous
 62
     0
100
AcDbTrace
 10
187.980151
 20
206.225421
 30
0.0
 11
188.580056
 21
202.725409
 31
0.0
 12
189.179961
 22
206.225421
 32
0.0
 13
189.179961
 23
206.225421
 33
0.0
  0
SOLID
  5
272
100
AcDbEntity
  8
0
  6
Continuous
 62
     0
100
AcDbTrace
 10
189.179961
 20
189.225421
 30
0.0
 11
188.580056
 21
192.725434
 31
0.0
 12
187.980151
 22
189.225421
 32
0.0
 13
187.980151
 23
189.225421
 33
0.0
  0
ENDBLK
  5
273
100
AcDbEntity
  8
0
100
AcDbBlockEnd
  0
BLOCK
  5
276
100
AcDbEntity
  8
0
100
AcDbBlockBegin
  2
*B30
 70
     0
 10
0.0
 20
0.0
 30
0.0
  3
*B30
  1

  0
LINE
  5
277
100
AcDbEntity
  8
0
  6
Continuous
 62
     0
100
AcDbLine
 10
98.012668
 20
112.725424
 30
0.0
 11
98.012668
 21
80.725462
 31
0.0
  0
SOLID
  5
278
100
AcDbEntity
  8
0
  6
Continuous
 62
     0
100
AcDbTrace
 10
98.612573
 20
109.225411
 30
0.0
 11
98.012668
 21
112.725424
 31
0.0
 12
97.412763
 22
109.225411
 32
0.0
 13
97.412763
 23
109.225411
 33
0.0
  0
SOLID
  5
279
100
AcDbEntity
  8
0
  6
Continuous
 62
     0
100
AcDbTrace
 10
97.412763
 20
84.225474
 30
0.0
 11
98.012668
 21
80.725462
 31
0.0
 12
98.612573
 22
84.225474
 32
0.0
 13
98.612573
 23
84.225474
 33
0.0
  0
ENDBLK
  5
27A
100
AcDbEntity
  8
0
100
AcDbBlockEnd
  0
BLOCK
  5
27D
100
AcDbEntity
  8
0
100
AcDbBlockBegin
  2
*B31
 70
     0
 10
0.0
 20
0.0
 30
0.0
  3
*B31
  1

  0
LINE
  5
27E
100
AcDbEntity
  8
0
  6
Continuous
 62
     8
100
AcDbLine
 10
82.585932
 20
202.725409
 30
0.0
 11
131.647711
 21
202.725409
 31
0.0
  0
LINE
  5
27F
100
AcDbEntity
  8
0
  6
Continuous
 62
     8
100
AcDbLine
 10
153.244716
 20
202.725409
 30
0.0
 11
190.579881
 21
202.725409
 31
0.0
  0
ENDBLK
  5
280
100
AcDbEntity
  8
0
100
AcDbBlockEnd
  0
BLOCK
  5
283
100
AcDbEntity
  8
0
100
AcDbBlockBegin
  2
*B32
 70
     0
 10
0.0
 20
0.0
 30
0.0
  3
*B32
  1

  0
LINE
  5
284
100
AcDbEntity
  8
0
  6
Continuous
 62
     8
100
AcDbLine
 10
82.585932
 20
60.725513
 30
0.0
 11
111.448076
 21
60.725513
 31
0.0
  0
LINE
  5
285
100
AcDbEntity
  8
0
  6
Continuous
 62
     8
100
AcDbLine
 10
173.444563
 20
60.725513
 30
0.0
 11
204.579081
 21
60.725513
 31
0.0
  0
ENDBLK
  5
286
100
AcDbEntity
  8
0
100
AcDbBlockEnd
  0
BLOCK
  5
289
100
AcDbEntity
  8
0
100
AcDbBlockBegin
  2
*B33
 70
     0
 10
0.0
 20
0.0
 30
0.0
  3
*B33
  1

  0
LINE
  5
28A
100
AcDbEntity
  8
0
  6
Continuous
 62
     8
100
AcDbLine
 10
164.444926
 20
232.390542
 30
0.0
 11
164.444926
 21
248.145058
 31
0.0
  0
ENDBLK
  5
28B
100
AcDbEntity
  8
0
100
AcDbBlockEnd
  0
BLOCK
  5
28E
100
AcDbEntity
  8
0
100
AcDbBlockBegin
  2
*B34
 70
     0
 10
0.0
 20
0.0
 30
0.0
  3
*B34
  1

  0
LINE
  5
28F
100
AcDbEntity
  8
0
  6
Continuous
 62
     8
100
AcDbLine
 10
96.012843
 20
80.725462
 30
0.0
 11
100.012493
 21
80.725462
 31
0.0
  0
LINE
  5
290
100
AcDbEntity
  8
0
  6
Continuous
 62
     8
100
AcDbLine
 10
100.012493
 20
80.725462
 30
0.0
 11
105.871339
 21
80.725462
 31
0.0
  0
LINE
  5
291
100
AcDbEntity
  8
0
  6
Continuous
 62
     8
100
AcDbLine
 10
106.871251
 20
80.725462
 30
0.0
 11
107.871164
 21
80.725462
 31
0.0
  0
LINE
  5
292
100
AcDbEntity
  8
0
  6
Continuous
 62
     8
100
AcDbLine
 10
108.871076
 20
80.725462
 30
0.0
 11
114.72971
 21
80.725462
 31
0.0
  0
LINE
  5
293
100
AcDbEntity
  8
0
  6
Continuous
 62
     8
100
AcDbLine
 10
115.729622
 20
80.725462
 30
0.0
 11
116.729747
 21
80.725462
 31
0.0
  0
LINE
  5
294
100
AcDbEntity
  8
0
  6
Continuous
 62
     8
100
AcDbLine
 10
117.72966
 20
80.725462
 30
0.0
 11
123.588293
 21
80.725462
 31
0.0
  0
LINE
  5
295
100
AcDbEntity
  8
0
  6
Continuous
 62
     8
100
AcDbLine
 10
124.588205
 20
80.725462
 30
0.0
 11
125.588118
 21
80.725462
 31
0.0
  0
LINE
  5
296
100
AcDbEntity
  8
0
  6
Continuous
 62
     8
100
AcDbLine
 10
126.58803
 20
80.725462
 30
0.0
 11
132.446876
 21
80.725462
 31
0.0
  0
ENDBLK
  5
297
100
AcDbEntity
  8
0
100
AcDbBlockEnd
  0
BLOCK
  5
29A
100
AcDbEntity
  8
0
100
AcDbBlockBegin
  2
*B35
 70
     0
 10
0.0
 20
0.0
 30
0.0
  3
*B35
  1

  0
LINE
  5
29B
100
AcDbEntity
  8
0
  6
Continuous
 62
     8
100
AcDbLine
 10
47.797814
 20
55.725525
 30
0.0
 11
47.797814
 21
61.225363
 31
0.0
  0
LINE
  5
29C
100
AcDbEntity
  8
0
  6
Continuous
 62
     8
100
AcDbLine
 10
47.797814
 20
62.225487
 30
0.0
 11
47.797814
 21
63.2254
 31
0.0
  0
LINE
  5
29D
100
AcDbEntity
  8
0
  6
Continuous
 62
     8
100
AcDbLine
 10
47.797814
 20
64.225525
 30
0.0
 11
47.797814
 21
69.725362
 31
0.0
  0
LINE
  5
29E
100
AcDbEntity
  8
0
  6
Continuous
 62
     8
100
AcDbLine
 10
47.797814
 20
70.725487
 30
0.0
 11
47.797814
 21
71.7254
 31
0.0
  0
LINE
  5
29F
100
AcDbEntity
  8
0
  6
Continuous
 62
     8
100
AcDbLine
 10
47.797814
 20
72.725525
 30
0.0
 11
47.797814
 21
78.225362
 31
0.0
  0
LINE
  5
2A0
100
AcDbEntity
  8
0
  6
Continuous
 62
     8
100
AcDbLine
 10
47.797814
 20
79.225487
 30
0.0
 11
47.797814
 21
80.225399
 31
0.0
  0
LINE
  5
2A1
100
AcDbEntity
  8
0
  6
Continuous
 62
     8
100
AcDbLine
 10
47.797814
 20
81.225524
 30
0.0
 11
47.797814
 21
86.725362
 31
0.0
  0
LINE
  5
2A2
100
AcDbEntity
  8
0
  6
Continuous
 62
     8
100
AcDbLine
 10
47.797814
 20
87.725487
 30
0.0
 11
47.797814
 21
88.725399
 31
0.0
  0
LINE
  5
2A3
100
AcDbEntity
  8
0
  6
Continuous
 62
     8
100
AcDbLine
 10
47.797814
 20
89.725524
 30
0.0
 11
47.797814
 21
95.225362
 31
0.0
  0
LINE
  5
2A4
100
AcDbEntity
  8
0
  6
Continuous
 62
     8
100
AcDbLine
 10
47.797814
 20
98.225524
 30
0.0
 11
47.797814
 21
103.225511
 31
0.0
  0
LINE
  5
2A5
100
AcDbEntity
  8
0
  6
Continuous
 62
     8
100
AcDbLine
 10
47.797814
 20
104.225424
 30
0.0
 11
47.797814
 21
105.225336
 31
0.0
  0
LINE
  5
2A6
100
AcDbEntity
  8
0
  6
Continuous
 62
     8
100
AcDbLine
 10
47.797814
 20
106.225461
 30
0.0
 11
47.797814
 21
111.225449
 31
0.0
  0
LINE
  5
2A7
100
AcDbEntity
  8
0
  6
Continuous
 62
     8
100
AcDbLine
 10
47.797814
 20
112.225361
 30
0.0
 11
47.797814
 21
113.225486
 31
0.0
  0
LINE
  5
2A8
100
AcDbEntity
  8
0
  6
Continuous
 62
     8
100
AcDbLine
 10
47.797814
 20
114.225399
 30
0.0
 11
47.797814
 21
119.225386
 31
0.0
  0
LINE
  5
2A9
100
AcDbEntity
  8
0
  6
Continuous
 62
     8
100
AcDbLine
 10
47.797814
 20
120.225511
 30
0.0
 11
47.797814
 21
121.225423
 31
0.0
  0
LINE
  5
2AA
100
AcDbEntity
  8
0
  6
Continuous
 62
     8
100
AcDbLine
 10
47.797814
 20
122.225336
 30
0.0
 11
47.797814
 21
127.225323
 31
0.0
  0
LINE
  5
2AB
100
AcDbEntity
  8
0
  6
Continuous
 62
     8
100
AcDbLine
 10
47.797814
 20
130.225486
 30
0.0
 11
47.797814
 21
135.617833
 31
0.0
  0
LINE
  5
2AC
100
AcDbEntity
  8
0
  6
Continuous
 62
     8
100
AcDbLine
 10
47.797814
 20
136.617958
 30
0.0
 11
47.797814
 21
137.61787
 31
0.0
  0
LINE
  5
2AD
100
AcDbEntity
  8
0
  6
Continuous
 62
     8
100
AcDbLine
 10
47.797814
 20
138.617783
 30
0.0
 11
47.797814
 21
144.010343
 31
0.0
  0
LINE
  5
2AE
100
AcDbEntity
  8
0
  6
Continuous
 62
     8
100
AcDbLine
 10
47.797814
 20
145.010255
 30
0.0
 11
47.797814
 21
146.01038
 31
0.0
  0
LINE
  5
2AF
100
AcDbEntity
  8
0
  6
Continuous
 62
     8
100
AcDbLine
 10
47.797814
 20
147.010293
 30
0.0
 11
47.797814
 21
152.402852
 31
0.0
  0
LINE
  5
2B0
100
AcDbEntity
  8
0
  6
Continuous
 62
     8
100
AcDbLine
 10
47.797814
 20
153.402765
 30
0.0
 11
47.797814
 21
154.402677
 31
0.0
  0
LINE
  5
2B1
100
AcDbEntity
  8
0
  6
Continuous
 62
     8
100
AcDbLine
 10
47.797814
 20
155.402802
 30
0.0
 11
47.797814
 21
160.79515
 31
0.0
  0
LINE
  5
2B2
100
AcDbEntity
  8
0
  6
Continuous
 62
     8
100
AcDbLine
 10
47.797814
 20
161.795274
 30
0.0
 11
47.797814
 21
162.795187
 31
0.0
  0
LINE
  5
2B3
100
AcDbEntity
  8
0
  6
Continuous
 62
     8
100
AcDbLine
 10
47.797814
 20
163.795099
 30
0.0
 11
47.797814
 21
169.187659
 31
0.0
  0
LINE
  5
2B4
100
AcDbEntity
  8
0
  6
Continuous
 62
     8
100
AcDbLine
 10
47.797814
 20
170.187572
 30
0.0
 11
47.797814
 21
171.187697
 31
0.0
  0
LINE
  5
2B5
100
AcDbEntity
  8
0
  6
Continuous
 62
     8
100
AcDbLine
 10
47.797814
 20
172.187609
 30
0.0
 11
47.797814
 21
177.580169
 31
0.0
  0
LINE
  5
2B6
100
AcDbEntity
  8
0
  6
Continuous
 62
     8
100
AcDbLine
 10
47.797814
 20
178.580081
 30
0.0
 11
47.797814
 21
179.580206
 31
0.0
  0
LINE
  5
2B7
100
AcDbEntity
  8
0
  6
Continuous
 62
     8
100
AcDbLine
 10
47.797814
 20
180.580119
 30
0.0
 11
47.797814
 21
185.972466
 31
0.0
  0
LINE
  5
2B8
100
AcDbEntity
  8
0
  6
Continuous
 62
     8
100
AcDbLine
 10
47.797814
 20
186.972591
 30
0.0
 11
47.797814
 21
187.972504
 31
0.0
  0
LINE
  5
2B9
100
AcDbEntity
  8
0
  6
Continuous
 62
     8
100
AcDbLine
 10
47.797814
 20
188.972629
 30
0.0
 11
47.797814
 21
194.364976
 31
0.0
  0
LINE
  5
2BA
100
AcDbEntity
  8
0
  6
Continuous
 62
     8
100
AcDbLine
 10
47.797814
 20
195.365101
 30
0.0
 11
47.797814
 21
196.365013
 31
0.0
  0
LINE
  5
2BB
100
AcDbEntity
  8
0
  6
Continuous
 62
     8
100
AcDbLine
 10
47.797814
 20
197.364926
 30
0.0
 11
47.797814
 21
202.757486
 31
0.0
  0
LINE
  5
2BC
100
AcDbEntity
  8
0
  6
Continuous
 62
     8
100
AcDbLine
 10
47.797814
 20
203.757398
 30
0.0
 11
47.797814
 21
204.757523
 31
0.0
  0
LINE
  5
2BD
100
AcDbEntity
  8
0
  6
Continuous
 62
     8
100
AcDbLine
 10
47.797814
 20
205.757436
 30
0.0
 11
47.797814
 21
211.149995
 31
0.0
  0
LINE
  5
2BE
100
AcDbEntity
  8
0
  6
Continuous
 62
     8
100
AcDbLine
 10
47.797814
 20
212.149908
 30
0.0
 11
47.797814
 21
213.14982
 31
0.0
  0
LINE
  5
2BF
100
AcDbEntity
  8
0
  6
Continuous
 62
     8
100
AcDbLine
 10
47.797814
 20
214.149945
 30
0.0
 11
47.797814
 21
219.542293
 31
0.0
  0
LINE
  5
2C0
100
AcDbEntity
  8
0
  6
Continuous
 62
     8
100
AcDbLine
 10
47.797814
 20
220.542418
 30
0.0
 11
47.797814
 21
221.54233
 31
0.0
  0
LINE
  5
2C1
100
AcDbEntity
  8
0
  6
Continuous
 62
     8
100
AcDbLine
 10
47.797814
 20
222.542455
 30
0.0
 11
47.797814
 21
227.934802
 31
0.0
  0
LINE
  5
2C2
100
AcDbEntity
  8
0
  6
Continuous
 62
     8
100
AcDbLine
 10
47.797814
 20
228.934715
 30
0.0
 11
47.797814
 21
229.93484
 31
0.0
  0
LINE
  5
2C3
100
AcDbEntity
  8
0
  6
Continuous
 62
     8
100
AcDbLine
 10
47.797814
 20
230.934752
 30
0.0
 11
47.797814
 21
236.327312
 31
0.0
  0
ENDBLK
  5
2C4
100
AcDbEntity
  8
0
100
AcDbBlockEnd
  0
BLOCK
  5
2C7
100
AcDbEntity
  8
0
100
AcDbBlockBegin
  2
*B36
 70
     0
 10
0.0
 20
0.0
 30
0.0
  3
*B36
  1

  0
LINE
  5
2C8
100
AcDbEntity
  8
0
  6
Continuous
 62
     8
100
AcDbLine
 10
112.447989
 20
30.018193
 30
0.0
 11
112.447989
 21
59.725388
 31
0.0
  0
ENDBLK
  5
2C9
100
AcDbEntity
  8
0
100
AcDbBlockEnd
  0
BLOCK
  5
2CC
100
AcDbEntity
  8
0
100
AcDbBlockBegin
  2
*B37
 70
     0
 10
0.0
 20
0.0
 30
0.0
  3
*B37
  1

  0
LINE
  5
2CD
100
AcDbEntity
  8
0
  6
Continuous
 62
     8
100
AcDbLine
 10
142.446213
 20
55.725525
 30
0.0
 11
142.446213
 21
60.708093
 31
0.0
  0
LINE
  5
2CE
100
AcDbEntity
  8
0
  6
Continuous
 62
     8
100
AcDbLine
 10
142.446213
 20
61.708218
 30
0.0
 11
142.446213
 21
62.708131
 31
0.0
  0
LINE
  5
2CF
100
AcDbEntity
  8
0
  6
Continuous
 62
     8
100
AcDbLine
 10
142.446213
 20
63.708043
 30
0.0
 11
142.446213
 21
68.690824
 31
0.0
  0
LINE
  5
2D0
100
AcDbEntity
  8
0
  6
Continuous
 62
     8
100
AcDbLine
 10
142.446213
 20
69.690736
 30
0.0
 11
142.446213
 21
70.690861
 31
0.0
  0
LINE
  5
2D1
100
AcDbEntity
  8
0
  6
Continuous
 62
     8
100
AcDbLine
 10
142.446213
 20
71.690773
 30
0.0
 11
142.446213
 21
76.673554
 31
0.0
  0
LINE
  5
2D2
100
AcDbEntity
  8
0
  6
Continuous
 62
     8
100
AcDbLine
 10
142.446213
 20
77.673466
 30
0.0
 11
142.446213
 21
78.673591
 31
0.0
  0
LINE
  5
2D3
100
AcDbEntity
  8
0
  6
Continuous
 62
     8
100
AcDbLine
 10
142.446213
 20
79.673504
 30
0.0
 11
142.446213
 21
84.656284
 31
0.0
  0
LINE
  5
2D4
100
AcDbEntity
  8
0
  6
Continuous
 62
     8
100
AcDbLine
 10
142.446213
 20
85.656197
 30
0.0
 11
142.446213
 21
86.656109
 31
0.0
  0
LINE
  5
2D5
100
AcDbEntity
  8
0
  6
Continuous
 62
     8
100
AcDbLine
 10
142.446213
 20
87.656234
 30
0.0
 11
142.446213
 21
92.638802
 31
0.0
  0
LINE
  5
2D6
100
AcDbEntity
  8
0
  6
Continuous
 62
     8
100
AcDbLine
 10
142.446213
 20
93.638927
 30
0.0
 11
142.446213
 21
94.63884
 31
0.0
  0
LINE
  5
2D7
100
AcDbEntity
  8
0
  6
Continuous
 62
     8
100
AcDbLine
 10
142.446213
 20
95.638965
 30
0.0
 11
142.446213
 21
100.621533
 31
0.0
  0
LINE
  5
2D8
100
AcDbEntity
  8
0
  6
Continuous
 62
     8
100
AcDbLine
 10
142.446213
 20
101.621658
 30
0.0
 11
142.446213
 21
102.62157
 31
0.0
  0
LINE
  5
2D9
100
AcDbEntity
  8
0
  6
Continuous
 62
     8
100
AcDbLine
 10
142.446213
 20
103.621483
 30
0.0
 11
142.446213
 21
108.604263
 31
0.0
  0
LINE
  5
2DA
100
AcDbEntity
  8
0
  6
Continuous
 62
     8
100
AcDbLine
 10
142.446213
 20
109.604176
 30
0.0
 11
142.446213
 21
110.6043
 31
0.0
  0
LINE
  5
2DB
100
AcDbEntity
  8
0
  6
Continuous
 62
     8
100
AcDbLine
 10
142.446213
 20
111.604213
 30
0.0
 11
142.446213
 21
116.586993
 31
0.0
  0
LINE
  5
2DC
100
AcDbEntity
  8
0
  6
Continuous
 62
     8
100
AcDbLine
 10
142.446213
 20
117.586906
 30
0.0
 11
142.446213
 21
118.587031
 31
0.0
  0
LINE
  5
2DD
100
AcDbEntity
  8
0
  6
Continuous
 62
     8
100
AcDbLine
 10
142.446213
 20
119.586943
 30
0.0
 11
142.446213
 21
124.569724
 31
0.0
  0
LINE
  5
2DE
100
AcDbEntity
  8
0
  6
Continuous
 62
     8
100
AcDbLine
 10
142.446213
 20
125.569636
 30
0.0
 11
142.446213
 21
126.569549
 31
0.0
  0
LINE
  5
2DF
100
AcDbEntity
  8
0
  6
Continuous
 62
     8
100
AcDbLine
 10
142.446213
 20
127.569674
 30
0.0
 11
142.446213
 21
132.552242
 31
0.0
  0
LINE
  5
2E0
100
AcDbEntity
  8
0
  6
Continuous
 62
     8
100
AcDbLine
 10
142.446213
 20
133.552367
 30
0.0
 11
142.446213
 21
134.552279
 31
0.0
  0
LINE
  5
2E1
100
AcDbEntity
  8
0
  6
Continuous
 62
     8
100
AcDbLine
 10
142.446213
 20
135.552404
 30
0.0
 11
142.446213
 21
140.534972
 31
0.0
  0
LINE
  5
2E2
100
AcDbEntity
  8
0
  6
Continuous
 62
     8
100
AcDbLine
 10
142.446213
 20
141.535097
 30
0.0
 11
142.446213
 21
142.53501
 31
0.0
  0
LINE
  5
2E3
100
AcDbEntity
  8
0
  6
Continuous
 62
     8
100
AcDbLine
 10
142.446213
 20
143.534922
 30
0.0
 11
142.446213
 21
148.517703
 31
0.0
  0
LINE
  5
2E4
100
AcDbEntity
  8
0
  6
Continuous
 62
     8
100
AcDbLine
 10
142.446213
 20
149.517615
 30
0.0
 11
142.446213
 21
150.51774
 31
0.0
  0
LINE
  5
2E5
100
AcDbEntity
  8
0
  6
Continuous
 62
     8
100
AcDbLine
 10
142.446213
 20
151.517653
 30
0.0
 11
142.446213
 21
156.500433
 31
0.0
  0
LINE
  5
2E6
100
AcDbEntity
  8
0
  6
Continuous
 62
     8
100
AcDbLine
 10
142.446213
 20
157.500345
 30
0.0
 11
142.446213
 21
158.50047
 31
0.0
  0
LINE
  5
2E7
100
AcDbEntity
  8
0
  6
Continuous
 62
     8
100
AcDbLine
 10
142.446213
 20
159.500383
 30
0.0
 11
142.446213
 21
164.482951
 31
0.0
  0
LINE
  5
2E8
100
AcDbEntity
  8
0
  6
Continuous
 62
     8
100
AcDbLine
 10
142.446213
 20
165.483076
 30
0.0
 11
142.446213
 21
166.482988
 31
0.0
  0
LINE
  5
2E9
100
AcDbEntity
  8
0
  6
Continuous
 62
     8
100
AcDbLine
 10
142.446213
 20
167.483113
 30
0.0
 11
142.446213
 21
172.465681
 31
0.0
  0
LINE
  5
2EA
100
AcDbEntity
  8
0
  6
Continuous
 62
     8
100
AcDbLine
 10
142.446213
 20
173.465806
 30
0.0
 11
142.446213
 21
174.465719
 31
0.0
  0
LINE
  5
2EB
100
AcDbEntity
  8
0
  6
Continuous
 62
     8
100
AcDbLine
 10
142.446213
 20
175.465844
 30
0.0
 11
142.446213
 21
180.448412
 31
0.0
  0
LINE
  5
2EC
100
AcDbEntity
  8
0
  6
Continuous
 62
     8
100
AcDbLine
 10
142.446213
 20
181.448537
 30
0.0
 11
142.446213
 21
182.448449
 31
0.0
  0
LINE
  5
2ED
100
AcDbEntity
  8
0
  6
Continuous
 62
     8
100
AcDbLine
 10
142.446213
 20
183.448362
 30
0.0
 11
142.446213
 21
188.431142
 31
0.0
  0
LINE
  5
2EE
100
AcDbEntity
  8
0
  6
Continuous
 62
     8
100
AcDbLine
 10
142.446213
 20
189.431055
 30
0.0
 11
142.446213
 21
190.43118
 31
0.0
  0
LINE
  5
2EF
100
AcDbEntity
  8
0
  6
Continuous
 62
     8
100
AcDbLine
 10
142.446213
 20
191.431092
 30
0.0
 11
142.446213
 21
196.413872
 31
0.0
  0
LINE
  5
2F0
100
AcDbEntity
  8
0
  6
Continuous
 62
     8
100
AcDbLine
 10
142.446213
 20
197.413785
 30
0.0
 11
142.446213
 21
198.41391
 31
0.0
  0
LINE
  5
2F1
100
AcDbEntity
  8
0
  6
Continuous
 62
     8
100
AcDbLine
 10
142.446213
 20
199.413822
 30
0.0
 11
142.446213
 21
204.39639
 31
0.0
  0
LINE
  5
2F2
100
AcDbEntity
  8
0
  6
Continuous
 62
     8
100
AcDbLine
 10
142.446213
 20
205.396515
 30
0.0
 11
142.446213
 21
206.396428
 31
0.0
  0
LINE
  5
2F3
100
AcDbEntity
  8
0
  6
Continuous
 62
     8
100
AcDbLine
 10
142.446213
 20
207.396553
 30
0.0
 11
142.446213
 21
212.379121
 31
0.0
  0
LINE
  5
2F4
100
AcDbEntity
  8
0
  6
Continuous
 62
     8
100
AcDbLine
 10
142.446213
 20
213.379246
 30
0.0
 11
142.446213
 21
214.379158
 31
0.0
  0
LINE
  5
2F5
100
AcDbEntity
  8
0
  6
Continuous
 62
     8
100
AcDbLine
 10
142.446213
 20
215.379283
 30
0.0
 11
142.446213
 21
220.361851
 31
0.0
  0
LINE
  5
2F6
100
AcDbEntity
  8
0
  6
Continuous
 62
     8
100
AcDbLine
 10
142.446213
 20
221.361764
 30
0.0
 11
142.446213
 21
222.361889
 31
0.0
  0
LINE
  5
2F7
100
AcDbEntity
  8
0
  6
Continuous
 62
     8
100
AcDbLine
 10
142.446213
 20
223.361801
 30
0.0
 11
142.446213
 21
228.344582
 31
0.0
  0
LINE
  5
2F8
100
AcDbEntity
  8
0
  6
Continuous
 62
     8
100
AcDbLine
 10
142.446213
 20
229.344494
 30
0.0
 11
142.446213
 21
230.344619
 31
0.0
  0
LINE
  5
2F9
100
AcDbEntity
  8
0
  6
Continuous
 62
     8
100
AcDbLine
 10
142.446213
 20
231.344532
 30
0.0
 11
142.446213
 21
236.327312
 31
0.0
  0
ENDBLK
  5
2FA
100
AcDbEntity
  8
0
100
AcDbBlockEnd
  0
BLOCK
  5
2FD
100
AcDbEntity
  8
0
100
AcDbBlockBegin
  2
*B38
 70
     0
 10
0.0
 20
0.0
 30
0.0
  3
*B38
  1

  0
LINE
  5
2FE
100
AcDbEntity
  8
0
  6
Continuous
 62
     8
100
AcDbLine
 10
82.585932
 20
58.725475
 30
0.0
 11
133.458472
 21
58.725475
 31
0.0
  0
ENDBLK
  5
2FF
100
AcDbEntity
  8
0
100
AcDbBlockEnd
  0
BLOCK
  5
302
100
AcDbEntity
  8
0
100
AcDbBlockBegin
  2
*B39
 70
     0
 10
0.0
 20
0.0
 30
0.0
  3
*B39
  1

  0
LINE
  5
303
100
AcDbEntity
  8
0
  6
Continuous
 62
     8
100
AcDbLine
 10
172.444651
 20
30.018193
 30
0.0
 11
172.444651
 21
59.725388
 31
0.0
  0
ENDBLK
  5
304
100
AcDbEntity
  8
0
100
AcDbBlockEnd
  0
BLOCK
  5
307
100
AcDbEntity
  8
0
100
AcDbBlockBegin
  2
*B40
 70
     0
 10
0.0
 20
0.0
 30
0.0
  3
*B40
  1

  0
LINE
  5
308
100
AcDbEntity
  8
0
  6
Continuous
 62
     8
100
AcDbLine
 10
36.048471
 20
128.725511
 30
0.0
 11
46.297839
 21
128.725511
 31
0.0
  0
LINE
  5
309
100
AcDbEntity
  8
0
  6
Continuous
 62
     8
100
AcDbLine
 10
49.297789
 20
128.725511
 30
0.0
 11
59.547158
 21
128.725511
 31
0.0
  0
ENDBLK
  5
30A
100
AcDbEntity
  8
0
100
AcDbBlockEnd
  0
BLOCK
  5
30D
100
AcDbEntity
  8
0
100
AcDbBlockBegin
  2
*B41
 70
     0
 10
0.0
 20
0.0
 30
0.0
  3
*B41
  1

  0
LINE
  5
30E
100
AcDbEntity
  8
0
  6
Continuous
 62
     8
100
AcDbLine
 10
186.580231
 20
128.725511
 30
0.0
 11
190.579881
 21
128.725511
 31
0.0
  0
LINE
  5
30F
100
AcDbEntity
  8
0
  6
Continuous
 62
     8
100
AcDbLine
 10
118.947526
 20
128.725511
 30
0.0
 11
124.947214
 21
128.725511
 31
0.0
  0
LINE
  5
310
100
AcDbEntity
  8
0
  6
Continuous
 62
     8
100
AcDbLine
 10
127.947164
 20
128.725511
 30
0.0
 11
133.751839
 21
128.725511
 31
0.0
  0
LINE
  5
311
100
AcDbEntity
  8
0
  6
Continuous
 62
     8
100
AcDbLine
 10
134.751964
 20
128.725511
 30
0.0
 11
135.751877
 21
128.725511
 31
0.0
  0
LINE
  5
312
100
AcDbEntity
  8
0
  6
Continuous
 62
     8
100
AcDbLine
 10
136.751789
 20
128.725511
 30
0.0
 11
142.556678
 21
128.725511
 31
0.0
  0
LINE
  5
313
100
AcDbEntity
  8
0
  6
Continuous
 62
     8
100
AcDbLine
 10
143.55659
 20
128.725511
 30
0.0
 11
144.556503
 21
128.725511
 31
0.0
  0
LINE
  5
314
100
AcDbEntity
  8
0
  6
Continuous
 62
     8
100
AcDbLine
 10
145.556415
 20
128.725511
 30
0.0
 11
151.361303
 21
128.725511
 31
0.0
  0
LINE
  5
315
100
AcDbEntity
  8
0
  6
Continuous
 62
     8
100
AcDbLine
 10
152.361216
 20
128.725511
 30
0.0
 11
153.361128
 21
128.725511
 31
0.0
  0
LINE
  5
316
100
AcDbEntity
  8
0
  6
Continuous
 62
     8
100
AcDbLine
 10
154.361253
 20
128.725511
 30
0.0
 11
160.165929
 21
128.725511
 31
0.0
  0
LINE
  5
317
100
AcDbEntity
  8
0
  6
Continuous
 62
     8
100
AcDbLine
 10
161.166054
 20
128.725511
 30
0.0
 11
162.165967
 21
128.725511
 31
0.0
  0
LINE
  5
318
100
AcDbEntity
  8
0
  6
Continuous
 62
     8
100
AcDbLine
 10
163.165879
 20
128.725511
 30
0.0
 11
168.970767
 21
128.725511
 31
0.0
  0
LINE
  5
319
100
AcDbEntity
  8
0
  6
Continuous
 62
     8
100
AcDbLine
 10
169.97068
 20
128.725511
 30
0.0
 11
170.970592
 21
128.725511
 31
0.0
  0
LINE
  5
31A
100
AcDbEntity
  8
0
  6
Continuous
 62
     8
100
AcDbLine
 10
171.970505
 20
128.725511
 30
0.0
 11
177.775393
 21
128.725511
 31
0.0
  0
LINE
  5
31B
100
AcDbEntity
  8
0
  6
Continuous
 62
     8
100
AcDbLine
 10
178.775306
 20
128.725511
 30
0.0
 11
179.775218
 21
128.725511
 31
0.0
  0
LINE
  5
31C
100
AcDbEntity
  8
0
  6
Continuous
 62
     8
100
AcDbLine
 10
180.775343
 20
128.725511
 30
0.0
 11
186.580231
 21
128.725511
 31
0.0
  0
ENDBLK
  5
31D
100
AcDbEntity
  8
0
100
AcDbBlockEnd
  0
BLOCK
  5
320
100
AcDbEntity
  8
0
100
AcDbBlockBegin
  2
*B42
 70
     0
 10
0.0
 20
0.0
 30
0.0
  3
*B42
  1

  0
LINE
  5
321
100
AcDbEntity
  8
0
  6
Continuous
 62
     8
100
AcDbLine
 10
82.585932
 20
188.725359
 30
0.0
 11
127.436904
 21
188.725359
 31
0.0
  0
ENDBLK
  5
322
100
AcDbEntity
  8
0
100
AcDbBlockEnd
  0
BLOCK
  5
325
100
AcDbEntity
  8
0
100
AcDbBlockBegin
  2
*B43
 70
     0
 10
0.0
 20
0.0
 30
0.0
  3
*B43
  1

  0
LINE
  5
326
100
AcDbEntity
  8
0
  6
Continuous
 62
     8
100
AcDbLine
 10
120.447501
 20
232.390542
 30
0.0
 11
120.447501
 21
248.145058
 31
0.0
  0
ENDBLK
  5
327
100
AcDbEntity
  8
0
100
AcDbBlockEnd
  0
BLOCK
  5
32A
100
AcDbEntity
  8
0
100
AcDbBlockBegin
  2
*B44
 70
     0
 10
0.0
 20
0.0
 30
0.0
  3
*B44
  1

  0
LINE
  5
32B
100
AcDbEntity
  8
0
  6
Continuous
 62
     8
100
AcDbLine
 10
158.445238
 20
44.018243
 30
0.0
 11
158.445238
 21
48.018105
 31
0.0
  0
LINE
  5
32C
100
AcDbEntity
  8
0
  6
Continuous
 62
     8
100
AcDbLine
 10
158.445238
 20
48.018105
 30
0.0
 11
158.445238
 21
53.29404
 31
0.0
  0
LINE
  5
32D
100
AcDbEntity
  8
0
  6
Continuous
 62
     8
100
AcDbLine
 10
158.445238
 20
54.294165
 30
0.0
 11
158.445238
 21
55.294078
 31
0.0
  0
LINE
  5
32E
100
AcDbEntity
  8
0
  6
Continuous
 62
     8
100
AcDbLine
 10
158.445238
 20
56.29399
 30
0.0
 11
158.445238
 21
61.569926
 31
0.0
  0
LINE
  5
32F
100
AcDbEntity
  8
0
  6
Continuous
 62
     8
100
AcDbLine
 10
158.445238
 20
62.57005
 30
0.0
 11
158.445238
 21
63.569963
 31
0.0
  0
LINE
  5
330
100
AcDbEntity
  8
0
  6
Continuous
 62
     8
100
AcDbLine
 10
158.445238
 20
64.570088
 30
0.0
 11
158.445238
 21
69.845811
 31
0.0
  0
LINE
  5
331
100
AcDbEntity
  8
0
  6
Continuous
 62
     8
100
AcDbLine
 10
158.445238
 20
70.845936
 30
0.0
 11
158.445238
 21
71.845848
 31
0.0
  0
LINE
  5
332
100
AcDbEntity
  8
0
  6
Continuous
 62
     8
100
AcDbLine
 10
158.445238
 20
72.845973
 30
0.0
 11
158.445238
 21
78.121696
 31
0.0
  0
LINE
  5
333
100
AcDbEntity
  8
0
  6
Continuous
 62
     8
100
AcDbLine
 10
158.445238
 20
79.121821
 30
0.0
 11
158.445238
 21
80.121733
 31
0.0
  0
LINE
  5
334
100
AcDbEntity
  8
0
  6
Continuous
 62
     8
100
AcDbLine
 10
158.445238
 20
81.121858
 30
0.0
 11
158.445238
 21
86.397793
 31
0.0
  0
LINE
  5
335
100
AcDbEntity
  8
0
  6
Continuous
 62
     8
100
AcDbLine
 10
158.445238
 20
87.397706
 30
0.0
 11
158.445238
 21
88.397618
 31
0.0
  0
LINE
  5
336
100
AcDbEntity
  8
0
  6
Continuous
 62
     8
100
AcDbLine
 10
158.445238
 20
89.397743
 30
0.0
 11
158.445238
 21
94.673678
 31
0.0
  0
LINE
  5
337
100
AcDbEntity
  8
0
  6
Continuous
 62
     8
100
AcDbLine
 10
158.445238
 20
95.673591
 30
0.0
 11
158.445238
 21
96.673503
 31
0.0
  0
LINE
  5
338
100
AcDbEntity
  8
0
  6
Continuous
 62
     8
100
AcDbLine
 10
158.445238
 20
97.673628
 30
0.0
 11
158.445238
 21
102.949564
 31
0.0
  0
LINE
  5
339
100
AcDbEntity
  8
0
  6
Continuous
 62
     8
100
AcDbLine
 10
158.445238
 20
103.949476
 30
0.0
 11
158.445238
 21
104.949601
 31
0.0
  0
LINE
  5
33A
100
AcDbEntity
  8
0
  6
Continuous
 62
     8
100
AcDbLine
 10
158.445238
 20
105.949513
 30
0.0
 11
158.445238
 21
111.225449
 31
0.0
  0
LINE
  5
33B
100
AcDbEntity
  8
0
  6
Continuous
 62
     8
100
AcDbLine
 10
158.445238
 20
114.225399
 30
0.0
 11
158.445238
 21
120.225511
 31
0.0
  0
ENDBLK
  5
33C
100
AcDbEntity
  8
0
100
AcDbBlockEnd
  0
BLOCK
  5
33F
100
AcDbEntity
  8
0
100
AcDbBlockBegin
  2
*B45
 70
     0
 10
0.0
 20
0.0
 30
0.0
  3
*B45
  1

  0
LINE
  5
340
100
AcDbEntity
  8
0
  6
Continuous
 62
     8
100
AcDbLine
 10
186.580231
 20
96.725337
 30
0.0
 11
190.579881
 21
96.725337
 31
0.0
  0
LINE
  5
341
100
AcDbEntity
  8
0
  6
Continuous
 62
     8
100
AcDbLine
 10
118.947526
 20
96.725337
 30
0.0
 11
124.947214
 21
96.725337
 31
0.0
  0
LINE
  5
342
100
AcDbEntity
  8
0
  6
Continuous
 62
     8
100
AcDbLine
 10
127.947164
 20
96.725337
 30
0.0
 11
133.751839
 21
96.725337
 31
0.0
  0
LINE
  5
343
100
AcDbEntity
  8
0
  6
Continuous
 62
     8
100
AcDbLine
 10
134.751964
 20
96.725337
 30
0.0
 11
135.751877
 21
96.725337
 31
0.0
  0
LINE
  5
344
100
AcDbEntity
  8
0
  6
Continuous
 62
     8
100
AcDbLine
 10
136.751789
 20
96.725337
 30
0.0
 11
142.556678
 21
96.725337
 31
0.0
  0
LINE
  5
345
100
AcDbEntity
  8
0
  6
Continuous
 62
     8
100
AcDbLine
 10
143.55659
 20
96.725337
 30
0.0
 11
144.556503
 21
96.725337
 31
0.0
  0
LINE
  5
346
100
AcDbEntity
  8
0
  6
Continuous
 62
     8
100
AcDbLine
 10
145.556415
 20
96.725337
 30
0.0
 11
151.361303
 21
96.725337
 31
0.0
  0
LINE
  5
347
100
AcDbEntity
  8
0
  6
Continuous
 62
     8
100
AcDbLine
 10
152.361216
 20
96.725337
 30
0.0
 11
153.361128
 21
96.725337
 31
0.0
  0
LINE
  5
348
100
AcDbEntity
  8
0
  6
Continuous
 62
     8
100
AcDbLine
 10
154.361253
 20
96.725337
 30
0.0
 11
160.165929
 21
96.725337
 31
0.0
  0
LINE
  5
349
100
AcDbEntity
  8
0
  6
Continuous
 62
     8
100
AcDbLine
 10
161.166054
 20
96.725337
 30
0.0
 11
162.165967
 21
96.725337
 31
0.0
  0
LINE
  5
34A
100
AcDbEntity
  8
0
  6
Continuous
 62
     8
100
AcDbLine
 10
163.165879
 20
96.725337
 30
0.0
 11
168.970767
 21
96.725337
 31
0.0
  0
LINE
  5
34B
100
AcDbEntity
  8
0
  6
Continuous
 62
     8
100
AcDbLine
 10
169.97068
 20
96.725337
 30
0.0
 11
170.970592
 21
96.725337
 31
0.0
  0
LINE
  5
34C
100
AcDbEntity
  8
0
  6
Continuous
 62
     8
100
AcDbLine
 10
171.970505
 20
96.725337
 30
0.0
 11
177.775393
 21
96.725337
 31
0.0
  0
LINE
  5
34D
100
AcDbEntity
  8
0
  6
Continuous
 62
     8
100
AcDbLine
 10
178.775306
 20
96.725337
 30
0.0
 11
179.775218
 21
96.725337
 31
0.0
  0
LINE
  5
34E
100
AcDbEntity
  8
0
  6
Continuous
 62
     8
100
AcDbLine
 10
180.775343
 20
96.725337
 30
0.0
 11
186.580231
 21
96.725337
 31
0.0
  0
ENDBLK
  5
34F
100
AcDbEntity
  8
0
100
AcDbBlockEnd
  0
BLOCK
  5
352
100
AcDbEntity
  8
0
100
AcDbBlockBegin
  2
*B46
 70
     0
 10
0.0
 20
0.0
 30
0.0
  3
*B46
  1

  0
LINE
  5
353
100
AcDbEntity
  8
0
  6
Continuous
 62
     8
100
AcDbLine
 10
143.446126
 20
235.925393
 30
0.0
 11
204.579081
 21
235.925393
 31
0.0
  0
ENDBLK
  5
354
100
AcDbEntity
  8
0
100
AcDbBlockEnd
  0
BLOCK
  5
357
100
AcDbEntity
  8
0
100
AcDbBlockBegin
  2
*B47
 70
     0
 10
0.0
 20
0.0
 30
0.0
  3
*B47
  1

  0
LINE
  5
358
100
AcDbEntity
  8
0
  6
Continuous
 62
     8
100
AcDbLine
 10
63.796839
 20
30.018193
 30
0.0
 11
63.796839
 21
59.725388
 31
0.0
  0
LINE
  5
359
100
AcDbEntity
  8
0
  6
Continuous
 62
     8
100
AcDbLine
 10
63.796839
 20
187.725446
 30
0.0
 11
63.796839
 21
213.144934
 31
0.0
  0
ENDBLK
  5
35A
100
AcDbEntity
  8
0
100
AcDbBlockEnd
  0
BLOCK
  5
35D
100
AcDbEntity
  8
0
100
AcDbBlockBegin
  2
*B48
 70
     0
 10
0.0
 20
0.0
 30
0.0
  3
*B48
  1

  0
LINE
  5
35E
100
AcDbEntity
  8
0
  6
Continuous
 62
     8
100
AcDbLine
 10
31.79879
 20
30.018193
 30
0.0
 11
31.79879
 21
59.725388
 31
0.0
  0
LINE
  5
35F
100
AcDbEntity
  8
0
  6
Continuous
 62
     8
100
AcDbLine
 10
31.79879
 20
187.725446
 30
0.0
 11
31.79879
 21
213.144934
 31
0.0
  0
ENDBLK
  5
360
100
AcDbEntity
  8
0
100
AcDbBlockEnd
  0
BLOCK
  5
363
100
AcDbEntity
  8
0
100
AcDbBlockBegin
  2
*B49
 70
     0
 10
0.0
 20
0.0
 30
0.0
  3
*B49
  1

  0
LINE
  5
364
100
AcDbEntity
  8
0
  6
Continuous
 62
     8
100
AcDbLine
 10
14.017469
 20
119.97548
 30
0.0
 11
46.797902
 21
119.97548
 31
0.0
  0
ENDBLK
  5
365
100
AcDbEntity
  8
0
100
AcDbBlockEnd
  0
BLOCK
  5
368
100
AcDbEntity
  8
0
100
AcDbBlockBegin
  2
*B50
 70
     0
 10
0.0
 20
0.0
 30
0.0
  3
*B50
  1

  0
LINE
  5
369
100
AcDbEntity
  8
0
  6
Continuous
 62
     8
100
AcDbLine
 10
96.012843
 20
144.725385
 30
0.0
 11
100.012493
 21
144.725385
 31
0.0
  0
LINE
  5
36A
100
AcDbEntity
  8
0
  6
Continuous
 62
     8
100
AcDbLine
 10
100.012493
 20
144.725385
 30
0.0
 11
105.871339
 21
144.725385
 31
0.0
  0
LINE
  5
36B
100
AcDbEntity
  8
0
  6
Continuous
 62
     8
100
AcDbLine
 10
106.871251
 20
144.725385
 30
0.0
 11
107.871164
 21
144.725385
 31
0.0
  0
LINE
  5
36C
100
AcDbEntity
  8
0
  6
Continuous
 62
     8
100
AcDbLine
 10
108.871076
 20
144.725385
 30
0.0
 11
114.72971
 21
144.725385
 31
0.0
  0
LINE
  5
36D
100
AcDbEntity
  8
0
  6
Continuous
 62
     8
100
AcDbLine
 10
115.729622
 20
144.725385
 30
0.0
 11
116.729747
 21
144.725385
 31
0.0
  0
LINE
  5
36E
100
AcDbEntity
  8
0
  6
Continuous
 62
     8
100
AcDbLine
 10
117.72966
 20
144.725385
 30
0.0
 11
123.588293
 21
144.725385
 31
0.0
  0
LINE
  5
36F
100
AcDbEntity
  8
0
  6
Continuous
 62
     8
100
AcDbLine
 10
124.588205
 20
144.725385
 30
0.0
 11
125.588118
 21
144.725385
 31
0.0
  0
LINE
  5
370
100
AcDbEntity
  8
0
  6
Continuous
 62
     8
100
AcDbLine
 10
126.58803
 20
144.725385
 30
0.0
 11
132.446876
 21
144.725385
 31
0.0
  0
ENDBLK
  5
371
100
AcDbEntity
  8
0
100
AcDbBlockEnd
  0
BLOCK
  5
374
100
AcDbEntity
  8
0
100
AcDbBlockBegin
  2
*B51
 70
     0
 10
0.0
 20
0.0
 30
0.0
  3
*B51
  1

  0
LINE
  5
375
100
AcDbEntity
  8
0
  6
Continuous
 62
     8
100
AcDbLine
 10
82.585932
 20
164.725335
 30
0.0
 11
111.448076
 21
164.725335
 31
0.0
  0
LINE
  5
376
100
AcDbEntity
  8
0
  6
Continuous
 62
     8
100
AcDbLine
 10
173.444563
 20
164.725335
 30
0.0
 11
190.579881
 21
164.725335
 31
0.0
  0
ENDBLK
  5
377
100
AcDbEntity
  8
0
100
AcDbBlockEnd
  0
BLOCK
  5
37A
100
AcDbEntity
  8
0
100
AcDbBlockBegin
  2
*B52
 70
     0
 10
0.0
 20
0.0
 30
0.0
  3
*B52
  1

  0
LINE
  5
37B
100
AcDbEntity
  8
0
  6
Continuous
 62
     8
100
AcDbLine
 10
126.447189
 20
44.018243
 30
0.0
 11
126.447189
 21
48.018105
 31
0.0
  0
LINE
  5
37C
100
AcDbEntity
  8
0
  6
Continuous
 62
     8
100
AcDbLine
 10
126.447189
 20
48.018105
 30
0.0
 11
126.447189
 21
53.386023
 31
0.0
  0
LINE
  5
37D
100
AcDbEntity
  8
0
  6
Continuous
 62
     8
100
AcDbLine
 10
126.447189
 20
54.386148
 30
0.0
 11
126.447189
 21
55.38606
 31
0.0
  0
LINE
  5
37E
100
AcDbEntity
  8
0
  6
Continuous
 62
     8
100
AcDbLine
 10
126.447189
 20
56.385973
 30
0.0
 11
126.447189
 21
61.753891
 31
0.0
  0
LINE
  5
37F
100
AcDbEntity
  8
0
  6
Continuous
 62
     8
100
AcDbLine
 10
126.447189
 20
62.754016
 30
0.0
 11
126.447189
 21
63.753928
 31
0.0
  0
LINE
  5
380
100
AcDbEntity
  8
0
  6
Continuous
 62
     8
100
AcDbLine
 10
126.447189
 20
64.753841
 30
0.0
 11
126.447189
 21
70.121758
 31
0.0
  0
LINE
  5
381
100
AcDbEntity
  8
0
  6
Continuous
 62
     8
100
AcDbLine
 10
126.447189
 20
71.121883
 30
0.0
 11
126.447189
 21
72.121796
 31
0.0
  0
LINE
  5
382
100
AcDbEntity
  8
0
  6
Continuous
 62
     8
100
AcDbLine
 10
126.447189
 20
73.121708
 30
0.0
 11
126.447189
 21
78.489626
 31
0.0
  0
LINE
  5
383
100
AcDbEntity
  8
0
  6
Continuous
 62
     8
100
AcDbLine
 10
126.447189
 20
79.489751
 30
0.0
 11
126.447189
 21
80.489664
 31
0.0
  0
LINE
  5
384
100
AcDbEntity
  8
0
  6
Continuous
 62
     8
100
AcDbLine
 10
126.447189
 20
81.489576
 30
0.0
 11
126.447189
 21
86.857494
 31
0.0
  0
LINE
  5
385
100
AcDbEntity
  8
0
  6
Continuous
 62
     8
100
AcDbLine
 10
126.447189
 20
87.857619
 30
0.0
 11
126.447189
 21
88.857531
 31
0.0
  0
LINE
  5
386
100
AcDbEntity
  8
0
  6
Continuous
 62
     8
100
AcDbLine
 10
126.447189
 20
89.857444
 30
0.0
 11
126.447189
 21
95.225362
 31
0.0
  0
LINE
  5
387
100
AcDbEntity
  8
0
  6
Continuous
 62
     8
100
AcDbLine
 10
126.447189
 20
98.225524
 30
0.0
 11
126.447189
 21
104.225424
 31
0.0
  0
ENDBLK
  5
388
100
AcDbEntity
  8
0
100
AcDbBlockEnd
  0
BLOCK
  5
38B
100
AcDbEntity
  8
0
100
AcDbBlockBegin
  2
*B53
 70
     0
 10
0.0
 20
0.0
 30
0.0
  3
*B53
  1

  0
LINE
  5
38C
100
AcDbEntity
  8
0
  6
Continuous
 62
     8
100
AcDbLine
 10
96.012843
 20
112.725424
 30
0.0
 11
100.012493
 21
112.725424
 31
0.0
  0
LINE
  5
38D
100
AcDbEntity
  8
0
  6
Continuous
 62
     8
100
AcDbLine
 10
100.012493
 20
112.725424
 30
0.0
 11
105.574573
 21
112.725424
 31
0.0
  0
LINE
  5
38E
100
AcDbEntity
  8
0
  6
Continuous
 62
     8
100
AcDbLine
 10
106.574485
 20
112.725424
 30
0.0
 11
107.574398
 21
112.725424
 31
0.0
  0
LINE
  5
38F
100
AcDbEntity
  8
0
  6
Continuous
 62
     8
100
AcDbLine
 10
108.57431
 20
112.725424
 30
0.0
 11
114.13639
 21
112.725424
 31
0.0
  0
LINE
  5
390
100
AcDbEntity
  8
0
  6
Continuous
 62
     8
100
AcDbLine
 10
115.136302
 20
112.725424
 30
0.0
 11
116.136215
 21
112.725424
 31
0.0
  0
LINE
  5
391
100
AcDbEntity
  8
0
  6
Continuous
 62
     8
100
AcDbLine
 10
117.136127
 20
112.725424
 30
0.0
 11
122.698207
 21
112.725424
 31
0.0
  0
LINE
  5
392
100
AcDbEntity
  8
0
  6
Continuous
 62
     8
100
AcDbLine
 10
123.69812
 20
112.725424
 30
0.0
 11
124.698032
 21
112.725424
 31
0.0
  0
LINE
  5
393
100
AcDbEntity
  8
0
  6
Continuous
 62
     8
100
AcDbLine
 10
125.697945
 20
112.725424
 30
0.0
 11
131.260024
 21
112.725424
 31
0.0
  0
LINE
  5
394
100
AcDbEntity
  8
0
  6
Continuous
 62
     8
100
AcDbLine
 10
132.259937
 20
112.725424
 30
0.0
 11
133.259849
 21
112.725424
 31
0.0
  0
LINE
  5
395
100
AcDbEntity
  8
0
  6
Continuous
 62
     8
100
AcDbLine
 10
134.259762
 20
112.725424
 30
0.0
 11
139.821841
 21
112.725424
 31
0.0
  0
LINE
  5
396
100
AcDbEntity
  8
0
  6
Continuous
 62
     8
100
AcDbLine
 10
140.821754
 20
112.725424
 30
0.0
 11
141.821666
 21
112.725424
 31
0.0
  0
LINE
  5
397
100
AcDbEntity
  8
0
  6
Continuous
 62
     8
100
AcDbLine
 10
142.821579
 20
112.725424
 30
0.0
 11
148.383659
 21
112.725424
 31
0.0
  0
LINE
  5
398
100
AcDbEntity
  8
0
  6
Continuous
 62
     8
100
AcDbLine
 10
149.383571
 20
112.725424
 30
0.0
 11
150.383484
 21
112.725424
 31
0.0
  0
LINE
  5
399
100
AcDbEntity
  8
0
  6
Continuous
 62
     8
100
AcDbLine
 10
151.383396
 20
112.725424
 30
0.0
 11
156.945476
 21
112.725424
 31
0.0
  0
LINE
  5
39A
100
AcDbEntity
  8
0
  6
Continuous
 62
     8
100
AcDbLine
 10
159.945213
 20
112.725424
 30
0.0
 11
165.944901
 21
112.725424
 31
0.0
  0
ENDBLK
  5
39B
100
AcDbEntity
  8
0
100
AcDbBlockEnd
  0
BLOCK
  5
39E
100
AcDbEntity
  8
0
100
AcDbBlockBegin
  2
*B54
 70
     0
 10
0.0
 20
0.0
 30
0.0
  3
*B54
  1

  0
LINE
  5
39F
100
AcDbEntity
  8
0
  6
Continuous
 62
     8
100
AcDbLine
 10
153.23197
 20
192.725434
 30
0.0
 11
190.579881
 21
192.725434
 31
0.0
  0
ENDBLK
  5
3A0
100
AcDbEntity
  8
0
100
AcDbBlockEnd
  0
BLOCK
  5
3A3
100
AcDbEntity
  8
0
100
AcDbBlockBegin
  2
*B55
 70
     0
 10
0.0
 20
0.0
 30
0.0
  3
*B55
  1

  0
LINE
  5
3A4
100
AcDbEntity
  8
0
  6
Continuous
 62
     8
100
AcDbLine
 10
36.048471
 20
96.725337
 30
0.0
 11
46.297839
 21
96.725337
 31
0.0
  0
LINE
  5
3A5
100
AcDbEntity
  8
0
  6
Continuous
 62
     8
100
AcDbLine
 10
49.297789
 20
96.725337
 30
0.0
 11
59.547158
 21
96.725337
 31
0.0
  0
ENDBLK
  5
3A6
100
AcDbEntity
  8
0
100
AcDbBlockEnd
  0
BLOCK
  5
3A9
100
AcDbEntity
  8
0
100
AcDbBlockBegin
  2
*B56
 70
     0
 10
0.0
 20
0.0
 30
0.0
  3
*B56
  1

  0
LINE
  5
3AA
100
AcDbEntity
  8
0
  6
Continuous
 62
     8
100
AcDbLine
 10
126.447189
 20
121.225423
 30
0.0
 11
126.447189
 21
127.225323
 31
0.0
  0
LINE
  5
3AB
100
AcDbEntity
  8
0
  6
Continuous
 62
     8
100
AcDbLine
 10
126.447189
 20
130.225486
 30
0.0
 11
126.447189
 21
136.225385
 31
0.0
  0
ENDBLK
  5
3AC
100
AcDbEntity
  8
0
100
AcDbBlockEnd
  0
BLOCK
  5
3AF
100
AcDbEntity
  8
0
100
AcDbBlockBegin
  2
*B57
 70
     0
 10
0.0
 20
0.0
 30
0.0
  3
*B57
  1

  0
LINE
  5
3B0
100
AcDbEntity
  8
0
  6
Continuous
 62
     8
100
AcDbLine
 10
14.017469
 20
137.475329
 30
0.0
 11
46.797902
 21
137.475329
 31
0.0
  0
ENDBLK
  5
3B1
100
AcDbEntity
  8
0
100
AcDbBlockEnd
  0
BLOCK
  5
3B4
100
AcDbEntity
  8
0
100
AcDbBlockBegin
  2
*B58
 70
     0
 10
0.0
 20
0.0
 30
0.0
  3
*B58
  1

  0
LINE
  5
3B5
100
AcDbEntity
  8
0
  6
Continuous
 62
     6
100
AcDbLine
 10
125.947126
 20
128.725511
 30
0.0
 11
126.947039
 21
128.725511
 31
0.0
  0
LINE
  5
3B6
100
AcDbEntity
  8
0
  6
Continuous
 62
     6
100
AcDbLine
 10
126.447189
 20
128.225448
 30
0.0
 11
126.447189
 21
129.225361
 31
0.0
  0
ENDBLK
  5
3B7
100
AcDbEntity
  8
0
100
AcDbBlockEnd
  0
BLOCK
  5
3BA
100
AcDbEntity
  8
0
100
AcDbBlockBegin
  2
*B59
 70
     0
 10
0.0
 20
0.0
 30
0.0
  3
*B59
  1

  0
LINE
  5
3BB
100
AcDbEntity
  8
0
  6
Continuous
 62
     6
100
AcDbLine
 10
47.297752
 20
96.725337
 30
0.0
 11
48.297664
 21
96.725337
 31
0.0
  0
LINE
  5
3BC
100
AcDbEntity
  8
0
  6
Continuous
 62
     6
100
AcDbLine
 10
47.797814
 20
96.225487
 30
0.0
 11
47.797814
 21
97.225399
 31
0.0
  0
ENDBLK
  5
3BD
100
AcDbEntity
  8
0
100
AcDbBlockEnd
  0
BLOCK
  5
3C0
100
AcDbEntity
  8
0
100
AcDbBlockBegin
  2
*B60
 70
     0
 10
0.0
 20
0.0
 30
0.0
  3
*B60
  1

  0
LINE
  5
3C1
100
AcDbEntity
  8
0
  6
Continuous
 62
     6
100
AcDbLine
 10
47.797814
 20
128.225448
 30
0.0
 11
47.797814
 21
129.225361
 31
0.0
  0
LINE
  5
3C2
100
AcDbEntity
  8
0
  6
Continuous
 62
     6
100
AcDbLine
 10
47.297752
 20
128.725511
 30
0.0
 11
48.297664
 21
128.725511
 31
0.0
  0
ENDBLK
  5
3C3
100
AcDbEntity
  8
0
100
AcDbBlockEnd
  0
BLOCK
  5
3C6
100
AcDbEntity
  8
0
100
AcDbBlockBegin
  2
*B61
 70
     0
 10
0.0
 20
0.0
 30
0.0
  3
*B61
  1

  0
LINE
  5
3C7
100
AcDbEntity
  8
0
  6
Continuous
 62
     6
100
AcDbLine
 10
125.947126
 20
96.725337
 30
0.0
 11
126.947039
 21
96.725337
 31
0.0
  0
LINE
  5
3C8
100
AcDbEntity
  8
0
  6
Continuous
 62
     6
100
AcDbLine
 10
126.447189
 20
96.225487
 30
0.0
 11
126.447189
 21
97.225399
 31
0.0
  0
ENDBLK
  5
3C9
100
AcDbEntity
  8
0
100
AcDbBlockEnd
  0
BLOCK
  5
3CC
100
AcDbEntity
  8
0
100
AcDbBlockBegin
  2
*B62
 70
     0
 10
0.0
 20
0.0
 30
0.0
  3
*B62
  1

  0
LINE
  5
3CD
100
AcDbEntity
  8
0
  6
Continuous
 62
     6
100
AcDbLine
 10
158.445238
 20
112.225361
 30
0.0
 11
158.445238
 21
113.225486
 31
0.0
  0
LINE
  5
3CE
100
AcDbEntity
  8
0
  6
Continuous
 62
     6
100
AcDbLine
 10
157.945388
 20
112.725424
 30
0.0
 11
158.945301
 21
112.725424
 31
0.0
  0
ENDBLK
  5
3CF
100
AcDbEntity
  8
0
100
AcDbBlockEnd
  0
BLOCK
  5
3D2
100
AcDbEntity
  8
0
100
AcDbBlockBegin
  2
*B63
 70
     0
 10
0.0
 20
0.0
 30
0.0
  3
*B63
  1

  0
LINE
  5
3D3
100
AcDbEntity
  8
0
  6
Continuous
 62
     0
100
AcDbLine
 10
6.874903
 20
188.268208
 30
0.0
 11
24.159772
 21
188.268208
 31
0.0
  0
LINE
  5
3D4
100
AcDbEntity
  8
0
  6
Continuous
 62
     0
100
AcDbLine
 10
24.159772
 20
188.268208
 30
0.0
 11
40.015831
 21
168.018014
 31
0.0
  0
SOLID
  5
3D5
100
AcDbEntity
  8
0
  6
Continuous
 62
     0
100
AcDbTrace
 10
40.939693
 20
168.400815
 30
0.0
 11
40.723014
 21
168.725197
 31
0.0
 12
40.398632
 22
168.942089
 32
0.0
 13
40.398632
 23
168.942089
 33
0.0
  0
SOLID
  5
3D6
100
AcDbEntity
  8
0
  6
Continuous
 62
     0
100
AcDbTrace
 10
40.939693
 20
168.400815
 30
0.0
 11
40.398632
 21
168.942089
 31
0.0
 12
40.015831
 22
169.018139
 32
0.0
 13
40.015831
 23
169.018139
 33
0.0
  0
SOLID
  5
3D7
100
AcDbEntity
  8
0
  6
Continuous
 62
     0
100
AcDbTrace
 10
40.939693
 20
168.400815
 30
0.0
 11
40.015831
 21
169.018139
 31
0.0
 12
39.633243
 22
168.942089
 32
0.0
 13
39.633243
 23
168.942089
 33
0.0
  0
SOLID
  5
3D8
100
AcDbEntity
  8
0
  6
Continuous
 62
     0
100
AcDbTrace
 10
40.939693
 20
168.400815
 30
0.0
 11
39.633243
 21
168.942089
 31
0.0
 12
39.308861
 22
168.725197
 32
0.0
 13
39.308861
 23
168.725197
 33
0.0
  0
SOLID
  5
3D9
100
AcDbEntity
  8
0
  6
Continuous
 62
     0
100
AcDbTrace
 10
40.939693
 20
168.400815
 30
0.0
 11
39.308861
 21
168.725197
 31
0.0
 12
39.092181
 22
168.400815
 32
0.0
 13
39.092181
 23
168.400815
 33
0.0
  0
SOLID
  5
3DA
100
AcDbEntity
  8
0
  6
Continuous
 62
     0
100
AcDbTrace
 10
40.939693
 20
168.400815
 30
0.0
 11
39.092181
 21
168.400815
 31
0.0
 12
39.015919
 22
168.018014
 32
0.0
 13
39.015919
 23
168.018014
 33
0.0
  0
SOLID
  5
3DB
100
AcDbEntity
  8
0
  6
Continuous
 62
     0
100
AcDbTrace
 10
40.939693
 20
168.400815
 30
0.0
 11
39.015919
 21
168.018014
 31
0.0
 12
39.092181
 22
167.635426
 32
0.0
 13
39.092181
 23
167.635426
 33
0.0
  0
SOLID
  5
3DC
100
AcDbEntity
  8
0
  6
Continuous
 62
     0
100
AcDbTrace
 10
40.939693
 20
168.400815
 30
0.0
 11
39.092181
 21
167.635426
 31
0.0
 12
39.308861
 22
167.311044
 32
0.0
 13
39.308861
 23
167.311044
 33
0.0
  0
SOLID
  5
3DD
100
AcDbEntity
  8
0
  6
Continuous
 62
     0
100
AcDbTrace
 10
40.939693
 20
168.400815
 30
0.0
 11
39.308861
 21
167.311044
 31
0.0
 12
39.633243
 22
167.094152
 32
0.0
 13
39.633243
 23
167.094152
 33
0.0
  0
SOLID
  5
3DE
100
AcDbEntity
  8
0
  6
Continuous
 62
     0
100
AcDbTrace
 10
40.939693
 20
168.400815
 30
0.0
 11
39.633243
 21
167.094152
 31
0.0
 12
40.015831
 22
167.018102
 32
0.0
 13
40.015831
 23
167.018102
 33
0.0
  0
SOLID
  5
3DF
100
AcDbEntity
  8
0
  6
Continuous
 62
     0
100
AcDbTrace
 10
40.939693
 20
168.400815
 30
0.0
 11
40.015831
 21
167.018102
 31
0.0
 12
40.398632
 22
167.094152
 32
0.0
 13
40.398632
 23
167.094152
 33
0.0
  0
SOLID
  5
3E0
100
AcDbEntity
  8
0
  6
Continuous
 62
     0
100
AcDbTrace
 10
40.939693
 20
168.400815
 30
0.0
 11
40.398632
 21
167.094152
 31
0.0
 12
40.723014
 22
167.311044
 32
0.0
 13
40.723014
 23
167.311044
 33
0.0
  0
SOLID
  5
3E1
100
AcDbEntity
  8
0
  6
Continuous
 62
     0
100
AcDbTrace
 10
40.939693
 20
168.400815
 30
0.0
 11
40.723014
 21
167.311044
 31
0.0
 12
40.939693
 22
167.635426
 32
0.0
 13
40.939693
 23
167.635426
 33
0.0
  0
SOLID
  5
3E2
100
AcDbEntity
  8
0
  6
Continuous
 62
     0
100
AcDbTrace
 10
40.939693
 20
168.400815
 30
0.0
 11
40.939693
 21
167.635426
 31
0.0
 12
41.015956
 22
168.018014
 32
0.0
 13
41.015956
 23
168.018014
 33
0.0
  0
ENDBLK
  5
3E3
100
AcDbEntity
  8
0
100
AcDbBlockEnd
  0
BLOCK
  5
3E6
100
AcDbEntity
  8
0
100
AcDbBlockBegin
  2
*B64
 70
     0
 10
0.0
 20
0.0
 30
0.0
  3
*B64
  1

  0
LINE
  5
3E7
100
AcDbEntity
  8
0
  6
Continuous
 62
     0
100
AcDbLine
 10
162.242867
 20
152.268171
 30
0.0
 11
147.901016
 21
152.268171
 31
0.0
  0
LINE
  5
3E8
100
AcDbEntity
  8
0
  6
Continuous
 62
     0
100
AcDbLine
 10
147.901016
 20
152.268171
 30
0.0
 11
129.478153
 21
132.051542
 31
0.0
  0
SOLID
  5
3E9
100
AcDbEntity
  8
0
  6
Continuous
 62
     0
100
AcDbTrace
 10
131.391944
 20
135.04257
 30
0.0
 11
129.478153
 21
132.051542
 31
0.0
 12
132.278843
 22
134.23427
 32
0.0
 13
132.278843
 23
134.23427
 33
0.0
  0
ENDBLK
  5
3EA
100
AcDbEntity
  8
0
100
AcDbBlockEnd
  0
BLOCK
  5
3ED
100
AcDbEntity
  8
0
100
AcDbBlockBegin
  2
*B65
 70
     0
 10
0.0
 20
0.0
 30
0.0
  3
*B65
  1

  0
TEXT
  5
3EE
100
AcDbEntity
  8
TEXT
  6
Continuous
 62
     0
100
AcDbText
 10
162.53005
 20
92.5
 30
0.0
 40
7.0
  1
2
100
AcDbText
  0
ENDBLK
  5
3EF
100
AcDbEntity
  8
0
100
AcDbBlockEnd
  0
BLOCK
  5
3F2
100
AcDbEntity
  8
0
100
AcDbBlockBegin
  2
*B66
 70
     0
 10
0.0
 20
0.0
 30
0.0
  3
*B66
  1

  0
TEXT
  5
3F3
100
AcDbEntity
  8
TEXT
  6
Continuous
 62
     0
100
AcDbText
 10
116.53005
 20
109.5
 30
0.0
 40
7.0
  1
1
100
AcDbText
  0
ENDBLK
  5
3F4
100
AcDbEntity
  8
0
100
AcDbBlockEnd
  0
BLOCK
  5
3F7
100
AcDbEntity
  8
0
100
AcDbBlockBegin
  2
*B67
 70
     0
 10
0.0
 20
0.0
 30
0.0
  3
*B67
  1

  0
TEXT
  5
3F8
100
AcDbEntity
  8
TEXT
  6
Continuous
 62
     0
100
AcDbText
 10
162.53005
 20
125.5
 30
0.0
 40
7.0
  1
4
100
AcDbText
  0
ENDBLK
  5
3F9
100
AcDbEntity
  8
0
100
AcDbBlockEnd
  0
BLOCK
  5
3FC
100
AcDbEntity
  8
0
100
AcDbBlockBegin
  2
*B68
 70
     0
 10
0.0
 20
0.0
 30
0.0
  3
*B68
  1

  0
TEXT
  5
3FD
100
AcDbEntity
  8
TEXT
  6
Continuous
 62
     0
100
AcDbText
 10
6.857143
 20
190.5
 30
0.0
 40
3.0
  1
SW 19
100
AcDbText
  0
ENDBLK
  5
3FE
100
AcDbEntity
  8
0
100
AcDbBlockEnd
  0
BLOCK
  5
401
100
AcDbEntity
  8
0
100
AcDbBlockBegin
  2
*B69
 70
     0
 10
0.0
 20
0.0
 30
0.0
  3
*B69
  1

  0
TEXT
  5
402
100
AcDbEntity
  8
TEXT
  6
Continuous
 62
     0
100
AcDbText
 10
150.891071
 20
154.5
 30
0.0
 40
3.0
  1
%%c4,5
100
AcDbText
  0
ENDBLK
  5
403
100
AcDbEntity
  8
0
100
AcDbBlockEnd
  0
BLOCK
  5
406
100
AcDbEntity
  8
0
100
AcDbBlockBegin
  2
*B70
 70
     0
 10
0.0
 20
0.0
 30
0.0
  3
*B70
  1

  0
TEXT
  5
407
100
AcDbEntity
  8
TEXT
  6
Continuous
 62
     0
100
AcDbText
 10
117.53005
 20
142.5
 30
0.0
 40
7.0
  1
5
100
AcDbText
  0
ENDBLK
  5
408
100
AcDbEntity
  8
0
100
AcDbBlockEnd
  0
BLOCK
  5
40B
100
AcDbEntity
  8
0
100
AcDbBlockBegin
  2
*B71
 70
     0
 10
0.0
 20
0.0
 30
0.0
  3
*B71
  1

  0
TEXT
  5
40C
100
AcDbEntity
  8
TEXT
  6
Continuous
 62
     0
100
AcDbText
 10
117.53005
 20
78.5
 30
0.0
 40
7.0
  1
3
100
AcDbText
  0
ENDBLK
  5
40D
100
AcDbEntity
  8
0
100
AcDbBlockEnd
  0
BLOCK
  5
410
100
AcDbEntity
  8
0
100
AcDbBlockBegin
  2
*B72
 70
     0
 10
0.0
 20
0.0
 30
0.0
  3
*B72
  1

  0
TEXT
  5
411
100
AcDbEntity
  8
TEXT
  6
Continuous
 62
     0
100
AcDbText
 10
83.072459
 20
109.850132
 30
0.0
 40
3.0
  1
52
 50
90.0
100
AcDbText
  0
ENDBLK
  5
412
100
AcDbEntity
  8
0
100
AcDbBlockEnd
  0
BLOCK
  5
415
100
AcDbEntity
  8
0
100
AcDbBlockBegin
  2
*B73
 70
     0
 10
0.0
 20
0.0
 30
0.0
  3
*B73
  1

  0
TEXT
  5
416
100
AcDbEntity
  8
TEXT
  6
Continuous
 62
     0
100
AcDbText
 10
187.072459
 20
143.850132
 30
0.0
 40
3.0
  1
18
 50
90.0
100
AcDbText
  0
ENDBLK
  5
417
100
AcDbEntity
  8
0
100
AcDbBlockEnd
  0
BLOCK
  5
41A
100
AcDbEntity
  8
0
100
AcDbBlockBegin
  2
*B74
 70
     0
 10
0.0
 20
0.0
 30
0.0
  3
*B74
  1

  0
TEXT
  5
41B
100
AcDbEntity
  8
TEXT
  6
Continuous
 62
     0
100
AcDbText
 10
187.072459
 20
109.850132
 30
0.0
 40
3.0
  1
16
 50
90.0
100
AcDbText
  0
ENDBLK
  5
41C
100
AcDbEntity
  8
0
100
AcDbBlockEnd
  0
BLOCK
  5
41F
100
AcDbEntity
  8
0
100
AcDbBlockBegin
  2
*B75
 70
     0
 10
0.0
 20
0.0
 30
0.0
  3
*B75
  1

  0
TEXT
  5
420
100
AcDbEntity
  8
TEXT
  6
Continuous
 62
     0
100
AcDbText
 10
187.072459
 20
75.850132
 30
0.0
 40
3.0
  1
18
 50
90.0
100
AcDbText
  0
ENDBLK
  5
421
100
AcDbEntity
  8
0
100
AcDbBlockEnd
  0
BLOCK
  5
424
100
AcDbEntity
  8
0
100
AcDbBlockBegin
  2
*B76
 70
     0
 10
0.0
 20
0.0
 30
0.0
  3
*B76
  1

  0
TEXT
  5
425
100
AcDbEntity
  8
TEXT
  6
Continuous
 62
     0
100
AcDbText
 10
201.072459
 20
143.735847
 30
0.0
 40
3.0
  1
~88
 50
90.0
100
AcDbText
  0
ENDBLK
  5
426
100
AcDbEntity
  8
0
100
AcDbBlockEnd
  0
BLOCK
  5
429
100
AcDbEntity
  8
0
100
AcDbBlockBegin
  2
*B77
 70
     0
 10
0.0
 20
0.0
 30
0.0
  3
*B77
  1

  0
TEXT
  5
42A
100
AcDbEntity
  8
TEXT
  6
Continuous
 62
     0
100
AcDbText
 10
83.072459
 20
48.571429
 30
0.0
 40
3.0
  1
1
 50
90.0
100
AcDbText
  0
ENDBLK
  5
42B
100
AcDbEntity
  8
0
100
AcDbBlockEnd
  0
BLOCK
  5
42E
100
AcDbEntity
  8
0
100
AcDbBlockBegin
  2
*B78
 70
     0
 10
0.0
 20
0.0
 30
0.0
  3
*B78
  1

  0
TEXT
  5
42F
100
AcDbEntity
  8
TEXT
  6
Continuous
 62
     0
100
AcDbText
 10
83.072459
 20
173.850132
 30
0.0
 40
3.0
  1
12
 50
90.0
100
AcDbText
  0
ENDBLK
  5
430
100
AcDbEntity
  8
0
100
AcDbBlockEnd
  0
BLOCK
  5
433
100
AcDbEntity
  8
0
100
AcDbBlockBegin
  2
*B79
 70
     0
 10
0.0
 20
0.0
 30
0.0
  3
*B79
  1

  0
TEXT
  5
434
100
AcDbEntity
  8
TEXT
  6
Continuous
 62
     0
100
AcDbText
 10
83.072459
 20
194.278704
 30
0.0
 40
3.0
  1
7
 50
90.0
100
AcDbText
  0
ENDBLK
  5
435
100
AcDbEntity
  8
0
100
AcDbBlockEnd
  0
BLOCK
  5
438
100
AcDbEntity
  8
0
100
AcDbBlockBegin
  2
*B80
 70
     0
 10
0.0
 20
0.0
 30
0.0
  3
*B80
  1

  0
TEXT
  5
439
100
AcDbEntity
  8
TEXT
  6
Continuous
 62
     0
100
AcDbText
 10
137.478952
 20
247.626892
 30
0.0
 40
3.0
  1
%%c22
100
AcDbText
  0
ENDBLK
  5
43A
100
AcDbEntity
  8
0
100
AcDbBlockEnd
  0
BLOCK
  5
43D
100
AcDbEntity
  8
0
100
AcDbBlockBegin
  2
*B81
 70
     0
 10
0.0
 20
0.0
 30
0.0
  3
*B81
  1

  0
TEXT
  5
43E
100
AcDbEntity
  8
TEXT
  6
Continuous
 62
     0
100
AcDbText
 10
14.5
 20
143.785714
 30
0.0
 40
3.0
  1
G 1/8"
 50
90.0
100
AcDbText
  0
ENDBLK
  5
43F
100
AcDbEntity
  8
0
100
AcDbBlockEnd
  0
BLOCK
  5
442
100
AcDbEntity
  8
0
100
AcDbBlockBegin
  2
*B82
 70
     0
 10
0.0
 20
0.0
 30
0.0
  3
*B82
  1

  0
TEXT
  5
443
100
AcDbEntity
  8
TEXT
  6
Continuous
 62
     0
100
AcDbText
 10
44.925154
 20
33.5
 30
0.0
 40
3.0
  1
16
100
AcDbText
  0
ENDBLK
  5
444
100
AcDbEntity
  8
0
100
AcDbBlockEnd
  0
BLOCK
  5
447
100
AcDbEntity
  8
0
100
AcDbBlockBegin
  2
*B83
 70
     0
 10
0.0
 20
0.0
 30
0.0
  3
*B83
  1

  0
TEXT
  5
448
100
AcDbEntity
  8
TEXT
  6
Continuous
 62
     0
100
AcDbText
 10
139.578952
 20
33.5
 30
0.0
 40
3.0
  1
30
100
AcDbText
  0
ENDBLK
  5
449
100
AcDbEntity
  8
0
100
AcDbBlockEnd
  0
BLOCK
  5
44C
100
AcDbEntity
  8
0
100
AcDbBlockBegin
  2
*B84
 70
     0
 10
0.0
 20
0.0
 30
0.0
  3
*B84
  1

  0
TEXT
  5
44D
100
AcDbEntity
  8
TEXT
  6
Continuous
 62
     0
100
AcDbText
 10
96.5
 20
67.850132
 30
0.0
 40
3.0
  1
10
 50
90.0
100
AcDbText
  0
ENDBLK
  5
44E
100
AcDbEntity
  8
0
100
AcDbBlockEnd
  0
BLOCK
  5
451
100
AcDbEntity
  8
0
100
AcDbBlockBegin
  2
*B85
 70
     0
 10
0.0
 20
0.0
 30
0.0
  3
*B85
  1

  0
TEXT
  5
452
100
AcDbEntity
  8
TEXT
  6
Continuous
 62
     0
100
AcDbText
 10
40.568011
 20
212.626892
 30
0.0
 40
3.0
  1
M16x1
100
AcDbText
  0
ENDBLK
  5
453
100
AcDbEntity
  8
0
100
AcDbBlockEnd
  0
BLOCK
  5
456
100
AcDbEntity
  8
0
100
AcDbBlockBegin
  2
*B86
 70
     0
 10
0.0
 20
0.0
 30
0.0
  3
*B86
  1

  0
TEXT
  5
457
100
AcDbEntity
  8
TEXT
  6
Continuous
 62
     0
100
AcDbText
 10
96.5
 20
151.850132
 30
0.0
 40
3.0
  1
10
 50
90.0
100
AcDbText
  0
ENDBLK
  5
458
100
AcDbEntity
  8
0
100
AcDbBlockEnd
  0
BLOCK
  5
45B
100
AcDbEntity
  8
0
100
AcDbBlockBegin
  2
*B87
 70
     0
 10
0.0
 20
0.0
 30
0.0
  3
*B87
  1

  0
TEXT
  5
45C
100
AcDbEntity
  8
TEXT
  6
Continuous
 62
     0
100
AcDbText
 10
96.5
 20
125.850132
 30
0.0
 40
3.0
  1
16
 50
90.0
100
AcDbText
  0
ENDBLK
  5
45D
100
AcDbEntity
  8
0
100
AcDbBlockEnd
  0
BLOCK
  5
460
100
AcDbEntity
  8
0
100
AcDbBlockBegin
  2
*B88
 70
     0
 10
0.0
 20
0.0
 30
0.0
  3
*B88
  1

  0
TEXT
  5
461
100
AcDbEntity
  8
TEXT
  6
Continuous
 62
     0
100
AcDbText
 10
139.578952
 20
47.5
 30
0.0
 40
3.0
  1
16
100
AcDbText
  0
ENDBLK
  5
462
100
AcDbEntity
  8
0
100
AcDbBlockEnd
  0
BLOCK
  5
465
100
AcDbEntity
  8
0
100
AcDbBlockBegin
  2
*B89
 70
     0
 10
0.0
 20
0.0
 30
0.0
  3
*B89
  1

  0
TEXT
  5
466
100
AcDbEntity
  8
TEXT
  6
Continuous
 62
     0
100
AcDbText
 10
187.072459
 20
207.912607
 30
0.0
 40
3.0
  1
Hub
 50
90.0
100
AcDbText
  0
TEXT
  5
467
100
AcDbEntity
  8
TEXT
  6
Continuous
 62
     0
100
AcDbText
 10
187.072459
 20
217.984035
 30
0.0
 40
3.0
  1
5
 50
90.0
100
AcDbText
  0
ENDBLK
  5
468
100
AcDbEntity
  8
0
100
AcDbBlockEnd
  0
BLOCK
  5
46B
100
AcDbEntity
  8
0
100
AcDbBlockBegin
  2
*B90
 70
     0
 10
0.0
 20
0.0
 30
0.0
  3
*B90
  1

  0
TEXT
  5
46C
100
AcDbEntity
  8
TEXT
  6
Continuous
 62
     0
100
AcDbText
 10
96.5
 20
93.850132
 30
0.0
 40
3.0
  1
16
 50
90.0
100
AcDbText
  0
ENDBLK
  5
46D
100
AcDbEntity
  8
0
100
AcDbBlockEnd
  0
ENDSEC
  0
SECTION
  2
ENTITIES
  0
INSERT
  5
136
100
AcDbEntity
  8
0
  6
HIDDEN
 62
   174
100
AcDbBlockReference
  2
*B3
 10
0.0
 20
0.0
 30
0.0
  0
INSERT
  5
13C
100
AcDbEntity
  8
0
  6
Continuous
 62
   172
100
AcDbBlockReference
  2
*B4
 10
0.0
 20
0.0
 30
0.0
  0
INSERT
  5
145
100
AcDbEntity
  8
0
  6
Continuous
 62
   172
100
AcDbBlockReference
  2
*B5
 10
0.0
 20
0.0
 30
0.0
  0
INSERT
  5
1EA
100
AcDbEntity
  8
0
  6
Continuous
 62
   174
100
AcDbBlockReference
  2
*B8
 10
0.0
 20
0.0
 30
0.0
  0
INSERT
  5
1F0
100
AcDbEntity
  8
0
  6
Continuous
 62
   172
100
AcDbBlockReference
  2
*B9
 10
0.0
 20
0.0
 30
0.0
  0
INSERT
  5
1FD
100
AcDbEntity
  8
0
  6
Continuous
 62
     0
100
AcDbBlockReference
  2
*B12
 10
0.0
 20
0.0
 30
0.0
  0
INSERT
  5
204
100
AcDbEntity
  8
0
  6
Continuous
 62
     0
100
AcDbBlockReference
  2
*B13
 10
0.0
 20
0.0
 30
0.0
  0
INSERT
  5
20B
100
AcDbEntity
  8
0
  6
Continuous
 62
     0
100
AcDbBlockReference
  2
*B14
 10
0.0
 20
0.0
 30
0.0
  0
INSERT
  5
212
100
AcDbEntity
  8
0
  6
Continuous
 62
     0
100
AcDbBlockReference
  2
*B15
 10
0.0
 20
0.0
 30
0.0
  0
INSERT
  5
219
100
AcDbEntity
  8
0
  6
Continuous
 62
     0
100
AcDbBlockReference
  2
*B16
 10
0.0
 20
0.0
 30
0.0
  0
INSERT
  5
220
100
AcDbEntity
  8
0
  6
Continuous
 62
     0
100
AcDbBlockReference
  2
*B17
 10
0.0
 20
0.0
 30
0.0
  0
INSERT
  5
227
100
AcDbEntity
  8
0
  6
Continuous
 62
     0
100
AcDbBlockReference
  2
*B18
 10
0.0
 20
0.0
 30
0.0
  0
INSERT
  5
22E
100
AcDbEntity
  8
0
  6
Continuous
 62
     0
100
AcDbBlockReference
  2
*B19
 10
0.0
 20
0.0
 30
0.0
  0
INSERT
  5
235
100
AcDbEntity
  8
0
  6
Continuous
 62
     0
100
AcDbBlockReference
  2
*B20
 10
0.0
 20
0.0
 30
0.0
  0
INSERT
  5
23C
100
AcDbEntity
  8
0
  6
Continuous
 62
     0
100
AcDbBlockReference
  2
*B21
 10
0.0
 20
0.0
 30
0.0
  0
INSERT
  5
243
100
AcDbEntity
  8
0
  6
Continuous
 62
     0
100
AcDbBlockReference
  2
*B22
 10
0.0
 20
0.0
 30
0.0
  0
INSERT
  5
24A
100
AcDbEntity
  8
0
  6
Continuous
 62
     0
100
AcDbBlockReference
  2
*B23
 10
0.0
 20
0.0
 30
0.0
  0
INSERT
  5
251
100
AcDbEntity
  8
0
  6
Continuous
 62
     0
100
AcDbBlockReference
  2
*B24
 10
0.0
 20
0.0
 30
0.0
  0
INSERT
  5
258
100
AcDbEntity
  8
0
  6
Continuous
 62
     0
100
AcDbBlockReference
  2
*B25
 10
0.0
 20
0.0
 30
0.0
  0
INSERT
  5
25F
100
AcDbEntity
  8
0
  6
Continuous
 62
     0
100
AcDbBlockReference
  2
*B26
 10
0.0
 20
0.0
 30
0.0
  0
INSERT
  5
266
100
AcDbEntity
  8
0
  6
Continuous
 62
     0
100
AcDbBlockReference
  2
*B27
 10
0.0
 20
0.0
 30
0.0
  0
INSERT
  5
26D
100
AcDbEntity
  8
0
  6
Continuous
 62
     0
100
AcDbBlockReference
  2
*B28
 10
0.0
 20
0.0
 30
0.0
  0
INSERT
  5
274
100
AcDbEntity
  8
0
  6
Continuous
 62
     0
100
AcDbBlockReference
  2
*B29
 10
0.0
 20
0.0
 30
0.0
  0
INSERT
  5
27B
100
AcDbEntity
  8
0
  6
Continuous
 62
     0
100
AcDbBlockReference
  2
*B30
 10
0.0
 20
0.0
 30
0.0
  0
INSERT
  5
281
100
AcDbEntity
  8
0
  6
Continuous
 62
     8
100
AcDbBlockReference
  2
*B31
 10
0.0
 20
0.0
 30
0.0
  0
INSERT
  5
287
100
AcDbEntity
  8
0
  6
Continuous
 62
     8
100
AcDbBlockReference
  2
*B32
 10
0.0
 20
0.0
 30
0.0
  0
INSERT
  5
28C
100
AcDbEntity
  8
0
  6
Continuous
 62
     8
100
AcDbBlockReference
  2
*B33
 10
0.0
 20
0.0
 30
0.0
  0
INSERT
  5
298
100
AcDbEntity
  8
0
  6
Continuous
 62
     8
100
AcDbBlockReference
  2
*B34
 10
0.0
 20
0.0
 30
0.0
  0
INSERT
  5
2C5
100
AcDbEntity
  8
0
  6
Continuous
 62
     8
100
AcDbBlockReference
  2
*B35
 10
0.0
 20
0.0
 30
0.0
  0
INSERT
  5
2CA
100
AcDbEntity
  8
0
  6
Continuous
 62
     8
100
AcDbBlockReference
  2
*B36
 10
0.0
 20
0.0
 30
0.0
  0
INSERT
  5
2FB
100
AcDbEntity
  8
0
  6
Continuous
 62
     8
100
AcDbBlockReference
  2
*B37
 10
0.0
 20
0.0
 30
0.0
  0
INSERT
  5
300
100
AcDbEntity
  8
0
  6
Continuous
 62
     8
100
AcDbBlockReference
  2
*B38
 10
0.0
 20
0.0
 30
0.0
  0
INSERT
  5
305
100
AcDbEntity
  8
0
  6
Continuous
 62
     8
100
AcDbBlockReference
  2
*B39
 10
0.0
 20
0.0
 30
0.0
  0
INSERT
  5
30B
100
AcDbEntity
  8
0
  6
Continuous
 62
     8
100
AcDbBlockReference
  2
*B40
 10
0.0
 20
0.0
 30
0.0
  0
INSERT
  5
31E
100
AcDbEntity
  8
0
  6
Continuous
 62
     8
100
AcDbBlockReference
  2
*B41
 10
0.0
 20
0.0
 30
0.0
  0
INSERT
  5
323
100
AcDbEntity
  8
0
  6
Continuous
 62
     8
100
AcDbBlockReference
  2
*B42
 10
0.0
 20
0.0
 30
0.0
  0
INSERT
  5
328
100
AcDbEntity
  8
0
  6
Continuous
 62
     8
100
AcDbBlockReference
  2
*B43
 10
0.0
 20
0.0
 30
0.0
  0
INSERT
  5
33D
100
AcDbEntity
  8
0
  6
Continuous
 62
     8
100
AcDbBlockReference
  2
*B44
 10
0.0
 20
0.0
 30
0.0
  0
INSERT
  5
350
100
AcDbEntity
  8
0
  6
Continuous
 62
     8
100
AcDbBlockReference
  2
*B45
 10
0.0
 20
0.0
 30
0.0
  0
INSERT
  5
355
100
AcDbEntity
  8
0
  6
Continuous
 62
     8
100
AcDbBlockReference
  2
*B46
 10
0.0
 20
0.0
 30
0.0
  0
INSERT
  5
35B
100
AcDbEntity
  8
0
  6
Continuous
 62
     8
100
AcDbBlockReference
  2
*B47
 10
0.0
 20
0.0
 30
0.0
  0
INSERT
  5
361
100
AcDbEntity
  8
0
  6
Continuous
 62
     8
100
AcDbBlockReference
  2
*B48
 10
0.0
 20
0.0
 30
0.0
  0
INSERT
  5
366
100
AcDbEntity
  8
0
  6
Continuous
 62
     8
100
AcDbBlockReference
  2
*B49
 10
0.0
 20
0.0
 30
0.0
  0
INSERT
  5
372
100
AcDbEntity
  8
0
  6
Continuous
 62
     8
100
AcDbBlockReference
  2
*B50
 10
0.0
 20
0.0
 30
0.0
  0
INSERT
  5
378
100
AcDbEntity
  8
0
  6
Continuous
 62
     8
100
AcDbBlockReference
  2
*B51
 10
0.0
 20
0.0
 30
0.0
  0
INSERT
  5
389
100
AcDbEntity
  8
0
  6
Continuous
 62
     8
100
AcDbBlockReference
  2
*B52
 10
0.0
 20
0.0
 30
0.0
  0
INSERT
  5
39C
100
AcDbEntity
  8
0
  6
Continuous
 62
     8
100
AcDbBlockReference
  2
*B53
 10
0.0
 20
0.0
 30
0.0
  0
INSERT
  5
3A1
100
AcDbEntity
  8
0
  6
Continuous
 62
     8
100
AcDbBlockReference
  2
*B54
 10
0.0
 20
0.0
 30
0.0
  0
INSERT
  5
3A7
100
AcDbEntity
  8
0
  6
Continuous
 62
     8
100
AcDbBlockReference
  2
*B55
 10
0.0
 20
0.0
 30
0.0
  0
INSERT
  5
3AD
100
AcDbEntity
  8
0
  6
Continuous
 62
     8
100
AcDbBlockReference
  2
*B56
 10
0.0
 20
0.0
 30
0.0
  0
INSERT
  5
3B2
100
AcDbEntity
  8
0
  6
Continuous
 62
     8
100
AcDbBlockReference
  2
*B57
 10
0.0
 20
0.0
 30
0.0
  0
INSERT
  5
3B8
100
AcDbEntity
  8
0
  6
Continuous
 62
     6
100
AcDbBlockReference
  2
*B58
 10
0.0
 20
0.0
 30
0.0
  0
INSERT
  5
3BE
100
AcDbEntity
  8
0
  6
Continuous
 62
     6
100
AcDbBlockReference
  2
*B59
 10
0.0
 20
0.0
 30
0.0
  0
INSERT
  5
3C4
100
AcDbEntity
  8
0
  6
Continuous
 62
     6
100
AcDbBlockReference
  2
*B60
 10
0.0
 20
0.0
 30
0.0
  0
INSERT
  5
3CA
100
AcDbEntity
  8
0
  6
Continuous
 62
     6
100
AcDbBlockReference
  2
*B61
 10
0.0
 20
0.0
 30
0.0
  0
INSERT
  5
3D0
100
AcDbEntity
  8
0
  6
Continuous
 62
     6
100
AcDbBlockReference
  2
*B62
 10
0.0
 20
0.0
 30
0.0
  0
INSERT
  5
3E4
100
AcDbEntity
  8
0
  6
Continuous
 62
     0
100
AcDbBlockReference
  2
*B63
 10
0.0
 20
0.0
 30
0.0
  0
INSERT
  5
3EB
100
AcDbEntity
  8
0
  6
Continuous
 62
     0
100
AcDbBlockReference
  2
*B64
 10
0.0
 20
0.0
 30
0.0
  0
INSERT
  5
3F0
100
AcDbEntity
  8
TEXT
  6
Continuous
 62
     0
100
AcDbBlockReference
  2
*B65
 10
0.0
 20
0.0
 30
0.0
  0
INSERT
  5
3F5
100
AcDbEntity
  8
TEXT
  6
Continuous
 62
     0
100
AcDbBlockReference
  2
*B66
 10
0.0
 20
0.0
 30
0.0
  0
INSERT
  5
3FA
100
AcDbEntity
  8
TEXT
  6
Continuous
 62
     0
100
AcDbBlockReference
  2
*B67
 10
0.0
 20
0.0
 30
0.0
  0
INSERT
  5
3FF
100
AcDbEntity
  8
TEXT
  6
Continuous
 62
     0
100
AcDbBlockReference
  2
*B68
 10
0.0
 20
0.0
 30
0.0
  0
INSERT
  5
404
100
AcDbEntity
  8
TEXT
  6
Continuous
 62
     0
100
AcDbBlockReference
  2
*B69
 10
0.0
 20
0.0
 30
0.0
  0
INSERT
  5
409
100
AcDbEntity
  8
TEXT
  6
Continuous
 62
     0
100
AcDbBlockReference
  2
*B70
 10
0.0
 20
0.0
 30
0.0
  0
INSERT
  5
40E
100
AcDbEntity
  8
TEXT
  6
Continuous
 62
     0
100
AcDbBlockReference
  2
*B71
 10
0.0
 20
0.0
 30
0.0
  0
INSERT
  5
413
100
AcDbEntity
  8
TEXT
  6
Continuous
 62
     0
100
AcDbBlockReference
  2
*B72
 10
0.0
 20
0.0
 30
0.0
  0
INSERT
  5
418
100
AcDbEntity
  8
TEXT
  6
Continuous
 62
     0
100
AcDbBlockReference
  2
*B73
 10
0.0
 20
0.0
 30
0.0
  0
INSERT
  5
41D
100
AcDbEntity
  8
TEXT
  6
Continuous
 62
     0
100
AcDbBlockReference
  2
*B74
 10
0.0
 20
0.0
 30
0.0
  0
INSERT
  5
422
100
AcDbEntity
  8
TEXT
  6
Continuous
 62
     0
100
AcDbBlockReference
  2
*B75
 10
0.0
 20
0.0
 30
0.0
  0
INSERT
  5
427
100
AcDbEntity
  8
TEXT
  6
Continuous
 62
     0
100
AcDbBlockReference
  2
*B76
 10
0.0
 20
0.0
 30
0.0
  0
INSERT
  5
42C
100
AcDbEntity
  8
TEXT
  6
Continuous
 62
     0
100
AcDbBlockReference
  2
*B77
 10
0.0
 20
0.0
 30
0.0
  0
INSERT
  5
431
100
AcDbEntity
  8
TEXT
  6
Continuous
 62
     0
100
AcDbBlockReference
  2
*B78
 10
0.0
 20
0.0
 30
0.0
  0
INSERT
  5
436
100
AcDbEntity
  8
TEXT
  6
Continuous
 62
     0
100
AcDbBlockReference
  2
*B79
 10
0.0
 20
0.0
 30
0.0
  0
INSERT
  5
43B
100
AcDbEntity
  8
TEXT
  6
Continuous
 62
     0
100
AcDbBlockReference
  2
*B80
 10
0.0
 20
0.0
 30
0.0
  0
INSERT
  5
440
100
AcDbEntity
  8
TEXT
  6
Continuous
 62
     0
100
AcDbBlockReference
  2
*B81
 10
0.0
 20
0.0
 30
0.0
  0
INSERT
  5
445
100
AcDbEntity
  8
TEXT
  6
Continuous
 62
     0
100
AcDbBlockReference
  2
*B82
 10
0.0
 20
0.0
 30
0.0
  0
INSERT
  5
44A
100
AcDbEntity
  8
TEXT
  6
Continuous
 62
     0
100
AcDbBlockReference
  2
*B83
 10
0.0
 20
0.0
 30
0.0
  0
INSERT
  5
44F
100
AcDbEntity
  8
TEXT
  6
Continuous
 62
     0
100
AcDbBlockReference
  2
*B84
 10
0.0
 20
0.0
 30
0.0
  0
INSERT
  5
454
100
AcDbEntity
  8
TEXT
  6
Continuous
 62
     0
100
AcDbBlockReference
  2
*B85
 10
0.0
 20
0.0
 30
0.0
  0
INSERT
  5
459
100
AcDbEntity
  8
TEXT
  6
Continuous
 62
     0
100
AcDbBlockReference
  2
*B86
 10
0.0
 20
0.0
 30
0.0
  0
INSERT
  5
45E
100
AcDbEntity
  8
TEXT
  6
Continuous
 62
     0
100
AcDbBlockReference
  2
*B87
 10
0.0
 20
0.0
 30
0.0
  0
INSERT
  5
463
100
AcDbEntity
  8
TEXT
  6
Continuous
 62
     0
100
AcDbBlockReference
  2
*B88
 10
0.0
 20
0.0
 30
0.0
  0
INSERT
  5
469
100
AcDbEntity
  8
TEXT
  6
Continuous
 62
     0
100
AcDbBlockReference
  2
*B89
 10
0.0
 20
0.0
 30
0.0
  0
INSERT
  5
46E
100
AcDbEntity
  8
TEXT
  6
Continuous
 62
     0
100
AcDbBlockReference
  2
*B90
 10
0.0
 20
0.0
 30
0.0
  0
ENDSEC
  0
SECTION
  2
OBJECTS
  0
DICTIONARY
  5
19
100
AcDbDictionary
280
     0
281
     1
  3
ACAD_GROUP
350
1A
  3
ACAD_MLINESTYLE
350
1B
  3
ACAD_LAYOUT
350
1E
  3
ACAD_PLOTSETTINGS
350
22
  3
ACAD_PLOTSTYLENAME
350
1F
  3
ACAD_WIPEOUT_VARS
350
23
  0
DICTIONARY
  5
1A
102
{ACAD_REACTORS
330
19
102
}
100
AcDbDictionary
280
     0
281
     1
  0
DICTIONARY
  5
1B
102
{ACAD_REACTORS
330
19
102
}
100
AcDbDictionary
280
     0
281
     1
  3
Standard
350
1C
  0
MLINESTYLE
  5
1C
102
{ACAD_REACTORS
330
1B
102
}
100
AcDbMlineStyle
  2
Standard
 70
     0
  3

 62
     0
 51
90.0
 52
90.0
 71
     2
 49
0.5
 62
   256
  6
BYLAYER
 49
-0.5
 62
   256
  6
BYLAYER
  0
ACDBDICTIONARYWDFLT
  5
1F
102
{ACAD_REACTORS
330
19
102
}
100
AcDbDictionary
281
     1
  3
Normal
350
1D
100
AcDbDictionaryWithDefault
340
1D
  0
ACDBPLACEHOLDER
  5
1D
102
{ACAD_REACTORS
330
1F
102
}
  0
LAYOUT
  5
20
102
{ACAD_REACTORS
330
1E
102
}
100
AcDbPlotSettings
  1

  2

  4

  6

 40
0.0
 41
0.0
 42
0.0
 43
0.0
 44
0.0
 45
0.0
 46
0.0
 47
0.0
 48
0.0
 49
0.0
140
0.0
141
0.0
142
1.0
143
1.0
 70
     0
 72
     0
 73
     0
 74
     0
  7

 75
     0
147
1.0
148
0.0
149
0.0
100
AcDbLayout
  1
Model
 70
     0
 71
     0
 10
0.0
 20
0.0
 11
0.0
 21
0.0
 12
0.0
 22
0.0
 32
0.0
 14
0.0
 24
0.0
 34
0.0
 15
0.0
 25
0.0
 35
0.0
146
0.0
 13
0.0
 23
0.0
 33
0.0
 16
0.0
 26
0.0
 36
0.0
 17
0.0
 27
0.0
 37
0.0
 76
     0
330
A
331
0
345
0
346
0
  0
LAYOUT
  5
21
102
{ACAD_REACTORS
330
1E
102
}
100
AcDbPlotSettings
  1

  2

  4

  6

 40
0.0
 41
0.0
 42
0.0
 43
0.0
 44
0.0
 45
0.0
 46
0.0
 47
0.0
 48
0.0
 49
0.0
140
0.0
141
0.0
142
1.0
143
1.0
 70
     0
 72
     0
 73
     0
 74
     0
  7

 75
     0
147
1.0
148
0.0
149
0.0
100
AcDbLayout
  1
Layout1
 70
     0
 71
     0
 10
0.0
 20
0.0
 11
0.0
 21
0.0
 12
0.0
 22
0.0
 32
0.0
 14
0.0
 24
0.0
 34
0.0
 15
0.0
 25
0.0
 35
0.0
146
0.0
 13
0.0
 23
0.0
 33
0.0
 16
0.0
 26
0.0
 36
0.0
 17
0.0
 27
0.0
 37
0.0
 76
     0
330
B
331
0
345
0
346
0
  0
DICTIONARY
  5
1E
102
{ACAD_REACTORS
330
19
102
}
100
AcDbDictionary
280
     0
281
     1
  3
Layout1
350
21
  3
Model
350
20
  0
DICTIONARY
  5
22
102
{ACAD_REACTORS
330
19
102
}
100
AcDbDictionary
280
     0
281
     1
  0
WIPEOUTVARIABLES
  5
23
100
AcDbWipeoutVariables
 70
     1
  0
ENDSEC
  0
EOF
