  0
SECTION
  2
HEADER
  9
$ACADVER
  1
AC1015
  9
$ACADMAINTVER
 70
     6
  9
$DWGCODEPAGE
  3
DOS850
  9
$INSBASE
 10
0.0
 20
0.0
 30
0.0
  9
$EXTMIN
 10
0.0
 20
0.0
 30
0.0
  9
$EXTMAX
 10
420.0
 20
297.0
 30
0.0
  9
$LIMMIN
 10
0.0
 20
0.0
  9
$LIMMAX
 10
420.0
 20
297.0
  9
$ORTHOMODE
 70
     0
  9
$REGENMODE
 70
     1
  9
$FILLMODE
 70
     1
  9
$QTEXTMODE
 70
     0
  9
$MIRRTEXT
 70
     1
  9
$LTSCALE
 40
25.4
  9
$ATTMODE
 70
     1
  9
$TEXTSIZE
 40
3.5
  9
$TRACEWID
 40
0.05
  9
$TEXTSTYLE
  7
Standard
  9
$CLAYER
  8
0
  9
$CELTYPE
  6
Continuous
  9
$CECOLOR
 62
   256
  9
$CELTSCALE
 40
1.0
  9
$DISPSILH
 70
     0
  9
$DIMSCALE
 40
1.0
  9
$DIMASZ
 40
5.0
  9
$DIMEXO
 40
3.0
  9
$DIMDLI
 40
0.38
  9
$DIMRND
 40
0.0
  9
$DIMDLE
 40
0.0
  9
$DIMEXE
 40
2.0
  9
$DIMTP
 40
0.0
  9
$DIMTM
 40
0.0
  9
$DIMTXT
 40
3.5
  9
$DIMCEN
 40
4.0
  9
$DIMTSZ
 40
0.0
  9
$DIMTOL
 70
     0
  9
$DIMLIM
 70
     0
  9
$DIMTIH
 70
     1
  9
$DIMTOH
 70
     1
  9
$DIMSE1
 70
     0
  9
$DIMSE2
 70
     0
  9
$DIMTAD
 70
     0
  9
$DIMZIN
 70
     0
  9
$DIMBLK
  1

  9
$DIMASO
 70
     1
  9
$DIMSHO
 70
     1
  9
$DIMPOST
  1

  9
$DIMAPOST
  1

  9
$DIMALT
 70
     0
  9
$DIMALTD
 70
     2
  9
$DIMALTF
 40
25.4
  9
$DIMLFAC
 40
1.0
  9
$DIMTOFL
 70
     0
  9
$DIMTVP
 40
0.0
  9
$DIMTIX
 70
     0
  9
$DIMSOXD
 70
     0
  9
$DIMSAH
 70
     0
  9
$DIMBLK1
  1

  9
$DIMBLK2
  1

  9
$DIMSTYLE
  2
Standard
  9
$DIMCLRD
 70
     0
  9
$DIMCLRE
 70
     0
  9
$DIMCLRT
 70
     0
  9
$DIMTFAC
 40
1.0
  9
$DIMGAP
 40
1.0
  9
$DIMJUST
 70
     0
  9
$DIMSD1
 70
     0
  9
$DIMSD2
 70
     0
  9
$DIMTOLJ
 70
     1
  9
$DIMTZIN
 70
     0
  9
$DIMALTZ
 70
     0
  9
$DIMALTTZ
 70
     0
  9
$DIMUPT
 70
     0
  9
$DIMDEC
 70
     4
  9
$DIMTDEC
 70
     4
  9
$DIMALTU
 70
     2
  9
$DIMALTTD
 70
     2
  9
$DIMTXSTY
  7
Standard
  9
$DIMAUNIT
 70
     0
  9
$DIMADEC
 70
     0
  9
$DIMALTRND
 40
0.0
  9
$DIMAZIN
 70
     0
  9
$DIMDSEP
 70
     0
  9
$DIMATFIT
 70
     3
  9
$DIMFRAC
 70
     0
  9
$DIMLDRBLK
  1

  9
$DIMLUNIT
 70
     2
  9
$DIMLWD
 70
     0
  9
$DIMLWE
 70
     0
  9
$DIMTMOVE
 70
     0
  9
$LUNITS
 70
     2
  9
$LUPREC
 70
     4
  9
$SKETCHINC
 40
0.1
  9
$FILLETRAD
 40
0.0
  9
$AUNITS
 70
     0
  9
$AUPREC
 70
     0
  9
$MENU
  1
acad
  9
$ELEVATION
 40
0.0
  9
$PELEVATION
 40
0.0
  9
$THICKNESS
 40
0.0
  9
$LIMCHECK
 70
     0
  9
$CHAMFERA
 40
0.0
  9
$CHAMFERB
 40
0.0
  9
$CHAMFERC
 40
0.0
  9
$CHAMFERD
 40
0.0
  9
$SKPOLY
 70
     0
  9
$TDCREATE
 40
0.000000000
  9
$TDUCREATE
 40
0.000000000
  9
$TDUPDATE
 40
0.000000000
  9
$TDUUPDATE
 40
0.000000000
  9
$TDINDWG
 40
0.0000000000
  9
$TDUSRTIMER
 40
0.0000000000
  9
$USRTIMER
 70
     1
  9
$ANGBASE
 50
0.0
  9
$ANGDIR
 70
     0
  9
$PDMODE
 70
     0
  9
$PDSIZE
 40
0.0
  9
$PLINEWID
 40
0.0
  9
$SPLFRAME
 70
     0
  9
$SPLINETYPE
 70
     6
  9
$SPLINESEGS
 70
     8
  9
$HANDSEED
  5
5B7
  9
$SURFTAB1
 70
     6
  9
$SURFTAB2
 70
     6
  9
$SURFTYPE
 70
     6
  9
$SURFU
 70
     6
  9
$SURFV
 70
     6
  9
$UCSBASE
  2

  9
$UCSNAME
  2

  9
$UCSORG
 10
0.0
 20
0.0
 30
0.0
  9
$UCSXDIR
 10
1.0
 20
0.0
 30
0.0
  9
$UCSYDIR
 10
0.0
 20
1.0
 30
0.0
  9
$UCSORTHOREF
  2

  9
$UCSORTHOVIEW
 70
     0
  9
$UCSORGTOP
 10
0.0
 20
0.0
 30
0.0
  9
$UCSORGBOTTOM
 10
0.0
 20
0.0
 30
0.0
  9
$UCSORGLEFT
 10
0.0
 20
0.0
 30
0.0
  9
$UCSORGRIGHT
 10
0.0
 20
0.0
 30
0.0
  9
$UCSORGFRONT
 10
0.0
 20
0.0
 30
0.0
  9
$UCSORGBACK
 10
0.0
 20
0.0
 30
0.0
  9
$PUCSBASE
  2

  9
$PUCSNAME
  2

  9
$PUCSORG
 10
0.0
 20
0.0
 30
0.0
  9
$PUCSXDIR
 10
1.0
 20
0.0
 30
0.0
  9
$PUCSYDIR
 10
0.0
 20
1.0
 30
0.0
  9
$PUCSORTHOREF
  2

  9
$PUCSORTHOVIEW
 70
     0
  9
$PUCSORGTOP
 10
0.0
 20
0.0
 30
0.0
  9
$PUCSORGBOTTOM
 10
0.0
 20
0.0
 30
0.0
  9
$PUCSORGLEFT
 10
0.0
 20
0.0
 30
0.0
  9
$PUCSORGRIGHT
 10
0.0
 20
0.0
 30
0.0
  9
$PUCSORGFRONT
 10
0.0
 20
0.0
 30
0.0
  9
$PUCSORGBACK
 10
0.0
 20
0.0
 30
0.0
  9
$USERI1
 70
     0
  9
$USERI2
 70
     0
  9
$USERI3
 70
     0
  9
$USERI4
 70
     0
  9
$USERI5
 70
     0
  9
$USERR1
 40
0.0
  9
$USERR2
 40
0.0
  9
$USERR3
 40
0.0
  9
$USERR4
 40
0.0
  9
$USERR5
 40
0.0
  9
$WORLDVIEW
 70
     1
  9
$SHADEDGE
 70
     3
  9
$SHADEDIF
 70
    70
  9
$TILEMODE
 70
     1
  9
$MAXACTVP
 70
    16
  9
$PINSBASE
 10
0.0
 20
0.0
 30
0.0
  9
$PLIMCHECK
 70
     0
  9
$PEXTMIN
 10
1.000000E+20
 20
1.000000E+20
 30
1.000000E+20
  9
$PEXTMAX
 10
-1.000000E+20
 20
-1.000000E+20
 30
-1.000000E+20
  9
$PLIMMIN
 10
0.0
 20
0.0
  9
$PLIMMAX
 10
420.0
 20
297.0
  9
$UNITMODE
 70
     0
  9
$VISRETAIN
 70
     0
  9
$PLINEGEN
 70
     1
  9
$PSLTSCALE
 70
     0
  9
$TREEDEPTH
 70
  3020
  9
$CMLSTYLE
  2
Standard
  9
$CMLJUST
 70
     0
  9
$CMLSCALE
 40
1.0
  9
$PROXYGRAPHICS
 70
     0
  9
$MEASUREMENT
 70
     0
  9
$CELWEIGHT
370
     0
  9
$ENDCAPS
280
     0
  9
$JOINSTYLE
280
     0
  9
$LWDISPLAY
290
     0
  9
$INSUNITS
 70
     0
  9
$HYPERLINKBASE
  1

  9
$XEDIT
290
     1
  9
$CEPSNTYPE
380
     0
  9
$PSTYLEMODE
290
     0
  9
$FINGERPRINTGUID
  2

  9
$VERSIONGUID
  2

  9
$EXTNAMES
290
     1
  9
$PSVPSCALE
 40
0.0
  0
ENDSEC
  0
SECTION
  2
CLASSES
  0
CLASS
  1
LWPOLYLINE
  2
AcDbPolyline
  3
"AutoCAD"
 90
        0
280
     0
281
     1
  0
CLASS
  1
IMAGE
  2
AcDbRasterImage
  3
ISM
 90
      127
280
     0
281
     1
  0
CLASS
  1
OLE2FRAME
  2
AcDbOle2Frame
  3
""
 90
        0
280
     0
281
     1
  0
CLASS
  1
HATCH
  2
AcDbHatch
  3
"ACAD_SEDONA"
 90
        0
280
     0
281
     1
  0
CLASS
  1
DICTIONARYVAR
  2
AcDbDictionaryVar
  3
"AutoCAD"
 90
        0
280
     0
281
     0
  0
CLASS
  1
RASTERVARIABLES
  2
AcDbRasterVariables
  3
ISM
 90
        0
280
     0
281
     0
  0
CLASS
  1
IMAGEDEF
  2
AcDbRasterImageDef
  3
ISM
 90
        0
280
     0
281
     0
  0
CLASS
  1
IMAGEDEF_REACTOR
  2
AcDbRasterImageDefReactor
  3
ISM
 90
        1
280
     0
281
     0
  0
CLASS
  1
IDBUFFER
  2
AcDbIdBuffer
  3
"Acad"
 90
        0
280
     0
281
     0
  0
CLASS
  1
SPATIAL_FILTER
  2
AcDbSpatialFilter
  3
"Acad"
 90
        0
280
     0
281
     0
  0
CLASS
  1
XRECORD
  2
AcDbXrecord
  3
"<Built In>"
 90
        0
280
     0
281
     0
  0
CLASS
  1
SORTENTSTABLE
  2
AcDbSortentsTable
  3
"AutoCAD"
 90
        0
280
     0
281
     0
  0
CLASS
  1
LAYER_INDEX
  2
AcDbLayerIndex
  3
"Acad"
 90
        0
280
     0
281
     0
  0
CLASS
  1
SPATIAL_INDEX
  2
AcDbSpatialIndex
  3
"Acad"
 90
        0
280
     0
281
     0
  0
CLASS
  1
OBJECT_PTR
  2
CAseDLPNTableRecord
  3
"ASE-LPNTableRecord"
 90
        1
280
     0
281
     0
  0
CLASS
  1
LAYOUT
  2
AcDbLayout
  3
"AutoCAD 2000"
 90
        1
280
     0
281
     0
  0
CLASS
  1
PLOTSETTINGS
  2
AcDbPlotSettings
  3
"AutoCAD 2000"
 90
        1
280
     0
281
     0
  0
CLASS
  1
ACDBDICTIONARYWDFLT
  2
AcDbDictionaryWithDefault
  3
"AutoCAD 2000"
 90
        1
280
     0
281
     0
  0
CLASS
  1
ACDBPLACEHOLDER
  2
AcDbPlaceHolder
  3
"AutoCAD 2000"
 90
        1
280
     0
281
     0
  0
CLASS
  1
VBA_PROJECT
  2
AcDbVbaProject
  3
"acadvba"
 90
        1
280
     0
281
     0
  0
CLASS
  1
WIPEOUT
  2
AcDbWipeout
  3
WipeOut|AutoCAD Express Tool|expresstools@autodesk.com
 90
      127
280
     0
281
     1
  0
CLASS
  1
WIPEOUTVARIABLES
  2
AcDbWipeoutVariables
  3
WipeOut|AutoCAD Express Tool|expresstools@autodesk.com
 90
        0
280
     0
281
     0
  0
CLASS
  1
RTEXT
  2
RText
  3
RText|AutoCAD Express Tool|expresstools@autodesk.com
 90
        0
280
     0
281
     1
  0
CLASS
  1
ARCALIGNEDTEXT
  2
AcDbArcAlignedText
  3
ATEXT|AutoCAD Express Tool|expresstools@autodesk.com
 90
        0
280
     0
281
     1
  0
ENDSEC
  0
SECTION
  2
TABLES
  0
TABLE
  2
VPORT
  5
7
100
AcDbSymbolTable
 70
     1
  0
VPORT
  5
15
100
AcDbSymbolTableRecord
100
AcDbViewportTableRecord
  2
*ACTIVE
 70
     0
 10
0.0
 20
0.0
 11
1.0
 21
1.0
 12
6.591288
 22
4.579184
 13
0.0
 23
0.0
 14
1.0
 24
1.0
 15
0.0
 25
0.0
 16
0.0
 26
0.0
 36
1.0
 17
0.0
 27
0.0
 37
0.0
 40
9.158369
 41
0.688564
 42
50.0
 43
0.0
 44
0.0
 50
0.0
 51
0.0
 71
     0
 72
   100
 73
     1
 74
     1
 75
     0
 76
     0
 77
     0
 78
     0
281
     0
 65
     0
110
0.0
120
0.0
130
0.0
111
1.0
121
0.0
131
0.0
112
0.0
122
1.0
132
0.0
345
0
346
0
 79
     0
146
0.0
  0
ENDTAB
  0
TABLE
  2
LTYPE
  5
4
100
AcDbSymbolTable
 70
     7
  0
LTYPE
  5
11
100
AcDbSymbolTableRecord
100
AcDbLinetypeTableRecord
  2
ByBlock
 70
    64
  3

 72
    65
 73
     0
 40
0.0
  0
LTYPE
  5
12
100
AcDbSymbolTableRecord
100
AcDbLinetypeTableRecord
  2
ByLayer
 70
    64
  3

 72
    65
 73
     0
 40
0.0
  0
LTYPE
  5
13
100
AcDbSymbolTableRecord
100
AcDbLinetypeTableRecord
  2
Continuous
 70
    64
  3
Solid line
 72
    65
 73
     0
 40
0.0
  0
LTYPE
  5
24
100
AcDbSymbolTableRecord
100
AcDbLinetypeTableRecord
  2
HIDDEN
 70
    64
  3
_ _ _ _ _ _ _ _ _ _ _ _ _ _ _ _ _ _ _ _ _ _ _ _
 72
    65
 73
     2
 40
0.1875
 49
0.125
 74
     0
 49
-0.0625
 74
     0
  0
LTYPE
  5
25
100
AcDbSymbolTableRecord
100
AcDbLinetypeTableRecord
  2
DOTTED
 70
    64
  3
...............................................
 72
    65
 73
     2
 40
0.125
 49
0.0
 74
     0
 49
-0.125
 74
     0
  0
LTYPE
  5
26
100
AcDbSymbolTableRecord
100
AcDbLinetypeTableRecord
  2
CENTER
 70
    64
  3
____ _ ____ _ ____ _ ____ _ ____ _ ____ _ ____ 
 72
    65
 73
     4
 40
1.125
 49
0.75
 74
     0
 49
-0.125
 74
     0
 49
0.125
 74
     0
 49
-0.125
 74
     0
  0
LTYPE
  5
27
100
AcDbSymbolTableRecord
100
AcDbLinetypeTableRecord
  2
PHANTOM
 70
    64
  3
______  __  __  ______  __  __  ______  __  __ 
 72
    65
 73
     6
 40
1.25
 49
0.625
 74
     0
 49
-0.125
 74
     0
 49
0.125
 74
     0
 49
-0.125
 74
     0
 49
0.125
 74
     0
 49
-0.125
 74
     0
  0
ENDTAB
  0
TABLE
  2
LAYER
  5
2
100
AcDbSymbolTable
 70
     2
  0
LAYER
  5
14
100
AcDbSymbolTableRecord
100
AcDbLayerTableRecord
  2
0
 70
     0
 62
     7
  6
Continuous
290
     1
370
    -3
390
1D
  0
LAYER
  5
28
100
AcDbSymbolTableRecord
100
AcDbLayerTableRecord
  2
TEXT
 70
     0
 62
     8
  6
Continuous
290
     1
370
    -3
390
1F
  0
ENDTAB
  0
TABLE
  2
STYLE
  5
3
100
AcDbSymbolTable
 70
     1
  0
STYLE
  5
17
100
AcDbSymbolTableRecord
100
AcDbTextStyleTableRecord
  2
Standard
 70
     0
 40
0.0
 41
1.0
 50
0.0
 71
     0
 42
0.0
  3
txt
  4

  0
ENDTAB
  0
TABLE
  2
VIEW
  5
5
100
AcDbSymbolTable
 70
     0
  0
ENDTAB
  0
TABLE
  2
UCS
  5
6
100
AcDbSymbolTable
 70
     0
  0
ENDTAB
  0
TABLE
  2
APPID
  5
8
100
AcDbSymbolTable
 70
     1
  0
APPID
  5
16
100
AcDbSymbolTableRecord
100
AcDbRegAppTableRecord
  2
ACAD
 70
     0
  0
ENDTAB
  0
TABLE
  2
DIMSTYLE
  5
9
100
AcDbSymbolTable
 70
     1
100
AcDbDimStyleTable
 71
     0
  0
DIMSTYLE
105
18
100
AcDbSymbolTableRecord
100
AcDbDimStyleTableRecord
  2
Standard
 70
     0
  3

  4

 40
1.0
 41
0.18
 42
0.0625
 43
0.38
 44
0.18
 45
0.0
 46
0.0
 47
0.0
 48
0.0
 71
     0
 72
     0
 73
     1
 74
     1
 75
     0
 76
     0
 77
     0
 78
     0
 79
     0
140
0.18
141
0.09
142
0.0
143
25.4
144
1.0
145
0.0
146
1.0
147
0.09
148
0.0
170
     0
171
     2
172
     0
173
     0
174
     0
175
     0
176
     0
177
     0
178
     0
179
     0
271
     4
272
     4
273
     2
274
     2
275
     0
276
     0
277
     2
278
    46
279
     0
280
     0
281
     0
282
     0
283
     1
284
     0
285
     0
286
     0
288
     0
340
17
341
0
342
0
343
0
344
0
371
    -2
372
    -2
  0
ENDTAB
  0
TABLE
  2
BLOCK_RECORD
  5
1
100
AcDbSymbolTable
 70
    84
  0
BLOCK_RECORD
  5
A
100
AcDbSymbolTableRecord
100
AcDbBlockTableRecord
  2
*MODEL_SPACE
340
20
  0
BLOCK_RECORD
  5
B
100
AcDbSymbolTableRecord
100
AcDbBlockTableRecord
  2
*PAPER_SPACE
340
21
  0
BLOCK_RECORD
  5
29
100
AcDbSymbolTableRecord
100
AcDbBlockTableRecord
  2
*B0
340
0
  0
BLOCK_RECORD
  5
2C
100
AcDbSymbolTableRecord
100
AcDbBlockTableRecord
  2
*B1
340
0
  0
BLOCK_RECORD
  5
1D7
100
AcDbSymbolTableRecord
100
AcDbBlockTableRecord
  2
*B2
340
0
  0
BLOCK_RECORD
  5
1DD
100
AcDbSymbolTableRecord
100
AcDbBlockTableRecord
  2
*B3
340
0
  0
BLOCK_RECORD
  5
3B7
100
AcDbSymbolTableRecord
100
AcDbBlockTableRecord
  2
*B4
340
0
  0
BLOCK_RECORD
  5
3BE
100
AcDbSymbolTableRecord
100
AcDbBlockTableRecord
  2
*B5
340
0
  0
BLOCK_RECORD
  5
3C5
100
AcDbSymbolTableRecord
100
AcDbBlockTableRecord
  2
*B6
340
0
  0
BLOCK_RECORD
  5
3CC
100
AcDbSymbolTableRecord
100
AcDbBlockTableRecord
  2
*B7
340
0
  0
BLOCK_RECORD
  5
3D3
100
AcDbSymbolTableRecord
100
AcDbBlockTableRecord
  2
*B8
340
0
  0
BLOCK_RECORD
  5
3DA
100
AcDbSymbolTableRecord
100
AcDbBlockTableRecord
  2
*B9
340
0
  0
BLOCK_RECORD
  5
3E1
100
AcDbSymbolTableRecord
100
AcDbBlockTableRecord
  2
*B10
340
0
  0
BLOCK_RECORD
  5
3E8
100
AcDbSymbolTableRecord
100
AcDbBlockTableRecord
  2
*B11
340
0
  0
BLOCK_RECORD
  5
3EF
100
AcDbSymbolTableRecord
100
AcDbBlockTableRecord
  2
*B12
340
0
  0
BLOCK_RECORD
  5
3F6
100
AcDbSymbolTableRecord
100
AcDbBlockTableRecord
  2
*B13
340
0
  0
BLOCK_RECORD
  5
3FD
100
AcDbSymbolTableRecord
100
AcDbBlockTableRecord
  2
*B14
340
0
  0
BLOCK_RECORD
  5
404
100
AcDbSymbolTableRecord
100
AcDbBlockTableRecord
  2
*B15
340
0
  0
BLOCK_RECORD
  5
40B
100
AcDbSymbolTableRecord
100
AcDbBlockTableRecord
  2
*B16
340
0
  0
BLOCK_RECORD
  5
412
100
AcDbSymbolTableRecord
100
AcDbBlockTableRecord
  2
*B17
340
0
  0
BLOCK_RECORD
  5
419
100
AcDbSymbolTableRecord
100
AcDbBlockTableRecord
  2
*B18
340
0
  0
BLOCK_RECORD
  5
420
100
AcDbSymbolTableRecord
100
AcDbBlockTableRecord
  2
*B19
340
0
  0
BLOCK_RECORD
  5
427
100
AcDbSymbolTableRecord
100
AcDbBlockTableRecord
  2
*B20
340
0
  0
BLOCK_RECORD
  5
42D
100
AcDbSymbolTableRecord
100
AcDbBlockTableRecord
  2
*B21
340
0
  0
BLOCK_RECORD
  5
434
100
AcDbSymbolTableRecord
100
AcDbBlockTableRecord
  2
*B22
340
0
  0
BLOCK_RECORD
  5
441
100
AcDbSymbolTableRecord
100
AcDbBlockTableRecord
  2
*B23
340
0
  0
BLOCK_RECORD
  5
446
100
AcDbSymbolTableRecord
100
AcDbBlockTableRecord
  2
*B24
340
0
  0
BLOCK_RECORD
  5
44B
100
AcDbSymbolTableRecord
100
AcDbBlockTableRecord
  2
*B25
340
0
  0
BLOCK_RECORD
  5
450
100
AcDbSymbolTableRecord
100
AcDbBlockTableRecord
  2
*B26
340
0
  0
BLOCK_RECORD
  5
456
100
AcDbSymbolTableRecord
100
AcDbBlockTableRecord
  2
*B27
340
0
  0
BLOCK_RECORD
  5
45B
100
AcDbSymbolTableRecord
100
AcDbBlockTableRecord
  2
*B28
340
0
  0
BLOCK_RECORD
  5
461
100
AcDbSymbolTableRecord
100
AcDbBlockTableRecord
  2
*B29
340
0
  0
BLOCK_RECORD
  5
466
100
AcDbSymbolTableRecord
100
AcDbBlockTableRecord
  2
*B30
340
0
  0
BLOCK_RECORD
  5
46B
100
AcDbSymbolTableRecord
100
AcDbBlockTableRecord
  2
*B31
340
0
  0
BLOCK_RECORD
  5
470
100
AcDbSymbolTableRecord
100
AcDbBlockTableRecord
  2
*B32
340
0
  0
BLOCK_RECORD
  5
47D
100
AcDbSymbolTableRecord
100
AcDbBlockTableRecord
  2
*B33
340
0
  0
BLOCK_RECORD
  5
484
100
AcDbSymbolTableRecord
100
AcDbBlockTableRecord
  2
*B34
340
0
  0
BLOCK_RECORD
  5
489
100
AcDbSymbolTableRecord
100
AcDbBlockTableRecord
  2
*B35
340
0
  0
BLOCK_RECORD
  5
491
100
AcDbSymbolTableRecord
100
AcDbBlockTableRecord
  2
*B36
340
0
  0
BLOCK_RECORD
  5
499
100
AcDbSymbolTableRecord
100
AcDbBlockTableRecord
  2
*B37
340
0
  0
BLOCK_RECORD
  5
49E
100
AcDbSymbolTableRecord
100
AcDbBlockTableRecord
  2
*B38
340
0
  0
BLOCK_RECORD
  5
4A4
100
AcDbSymbolTableRecord
100
AcDbBlockTableRecord
  2
*B39
340
0
  0
BLOCK_RECORD
  5
4A9
100
AcDbSymbolTableRecord
100
AcDbBlockTableRecord
  2
*B40
340
0
  0
BLOCK_RECORD
  5
4B8
100
AcDbSymbolTableRecord
100
AcDbBlockTableRecord
  2
*B41
340
0
  0
BLOCK_RECORD
  5
4BE
100
AcDbSymbolTableRecord
100
AcDbBlockTableRecord
  2
*B42
340
0
  0
BLOCK_RECORD
  5
4C3
100
AcDbSymbolTableRecord
100
AcDbBlockTableRecord
  2
*B43
340
0
  0
BLOCK_RECORD
  5
4C8
100
AcDbSymbolTableRecord
100
AcDbBlockTableRecord
  2
*B44
340
0
  0
BLOCK_RECORD
  5
4CF
100
AcDbSymbolTableRecord
100
AcDbBlockTableRecord
  2
*B45
340
0
  0
BLOCK_RECORD
  5
4D4
100
AcDbSymbolTableRecord
100
AcDbBlockTableRecord
  2
*B46
340
0
  0
BLOCK_RECORD
  5
4DD
100
AcDbSymbolTableRecord
100
AcDbBlockTableRecord
  2
*B47
340
0
  0
BLOCK_RECORD
  5
4E2
100
AcDbSymbolTableRecord
100
AcDbBlockTableRecord
  2
*B48
340
0
  0
BLOCK_RECORD
  5
4E7
100
AcDbSymbolTableRecord
100
AcDbBlockTableRecord
  2
*B49
340
0
  0
BLOCK_RECORD
  5
4EF
100
AcDbSymbolTableRecord
100
AcDbBlockTableRecord
  2
*B50
340
0
  0
BLOCK_RECORD
  5
4F5
100
AcDbSymbolTableRecord
100
AcDbBlockTableRecord
  2
*B51
340
0
  0
BLOCK_RECORD
  5
504
100
AcDbSymbolTableRecord
100
AcDbBlockTableRecord
  2
*B52
340
0
  0
BLOCK_RECORD
  5
509
100
AcDbSymbolTableRecord
100
AcDbBlockTableRecord
  2
*B53
340
0
  0
BLOCK_RECORD
  5
50F
100
AcDbSymbolTableRecord
100
AcDbBlockTableRecord
  2
*B54
340
0
  0
BLOCK_RECORD
  5
516
100
AcDbSymbolTableRecord
100
AcDbBlockTableRecord
  2
*B55
340
0
  0
BLOCK_RECORD
  5
51C
100
AcDbSymbolTableRecord
100
AcDbBlockTableRecord
  2
*B56
340
0
  0
BLOCK_RECORD
  5
527
100
AcDbSymbolTableRecord
100
AcDbBlockTableRecord
  2
*B57
340
0
  0
BLOCK_RECORD
  5
52C
100
AcDbSymbolTableRecord
100
AcDbBlockTableRecord
  2
*B58
340
0
  0
BLOCK_RECORD
  5
532
100
AcDbSymbolTableRecord
100
AcDbBlockTableRecord
  2
*B59
340
0
  0
BLOCK_RECORD
  5
538
100
AcDbSymbolTableRecord
100
AcDbBlockTableRecord
  2
*B60
340
0
  0
BLOCK_RECORD
  5
53E
100
AcDbSymbolTableRecord
100
AcDbBlockTableRecord
  2
*B61
340
0
  0
BLOCK_RECORD
  5
544
100
AcDbSymbolTableRecord
100
AcDbBlockTableRecord
  2
*B62
340
0
  0
BLOCK_RECORD
  5
54A
100
AcDbSymbolTableRecord
100
AcDbBlockTableRecord
  2
*B63
340
0
  0
BLOCK_RECORD
  5
550
100
AcDbSymbolTableRecord
100
AcDbBlockTableRecord
  2
*B64
340
0
  0
BLOCK_RECORD
  5
556
100
AcDbSymbolTableRecord
100
AcDbBlockTableRecord
  2
*B65
340
0
  0
BLOCK_RECORD
  5
55B
100
AcDbSymbolTableRecord
100
AcDbBlockTableRecord
  2
*B66
340
0
  0
BLOCK_RECORD
  5
560
100
AcDbSymbolTableRecord
100
AcDbBlockTableRecord
  2
*B67
340
0
  0
BLOCK_RECORD
  5
565
100
AcDbSymbolTableRecord
100
AcDbBlockTableRecord
  2
*B68
340
0
  0
BLOCK_RECORD
  5
56A
100
AcDbSymbolTableRecord
100
AcDbBlockTableRecord
  2
*B69
340
0
  0
BLOCK_RECORD
  5
56F
100
AcDbSymbolTableRecord
100
AcDbBlockTableRecord
  2
*B70
340
0
  0
BLOCK_RECORD
  5
575
100
AcDbSymbolTableRecord
100
AcDbBlockTableRecord
  2
*B71
340
0
  0
BLOCK_RECORD
  5
57B
100
AcDbSymbolTableRecord
100
AcDbBlockTableRecord
  2
*B72
340
0
  0
BLOCK_RECORD
  5
580
100
AcDbSymbolTableRecord
100
AcDbBlockTableRecord
  2
*B73
340
0
  0
BLOCK_RECORD
  5
585
100
AcDbSymbolTableRecord
100
AcDbBlockTableRecord
  2
*B74
340
0
  0
BLOCK_RECORD
  5
58A
100
AcDbSymbolTableRecord
100
AcDbBlockTableRecord
  2
*B75
340
0
  0
BLOCK_RECORD
  5
58F
100
AcDbSymbolTableRecord
100
AcDbBlockTableRecord
  2
*B76
340
0
  0
BLOCK_RECORD
  5
594
100
AcDbSymbolTableRecord
100
AcDbBlockTableRecord
  2
*B77
340
0
  0
BLOCK_RECORD
  5
599
100
AcDbSymbolTableRecord
100
AcDbBlockTableRecord
  2
*B78
340
0
  0
BLOCK_RECORD
  5
59E
100
AcDbSymbolTableRecord
100
AcDbBlockTableRecord
  2
*B79
340
0
  0
BLOCK_RECORD
  5
5A3
100
AcDbSymbolTableRecord
100
AcDbBlockTableRecord
  2
*B80
340
0
  0
BLOCK_RECORD
  5
5A8
100
AcDbSymbolTableRecord
100
AcDbBlockTableRecord
  2
*B81
340
0
  0
BLOCK_RECORD
  5
5AD
100
AcDbSymbolTableRecord
100
AcDbBlockTableRecord
  2
*B82
340
0
  0
BLOCK_RECORD
  5
5B2
100
AcDbSymbolTableRecord
100
AcDbBlockTableRecord
  2
*B83
340
0
  0
ENDTAB
  0
ENDSEC
  0
SECTION
  2
BLOCKS
  0
BLOCK
  5
D
100
AcDbEntity
  8
0
100
AcDbBlockBegin
  2
*MODEL_SPACE
 70
     0
 10
0.0
 20
0.0
 30
0.0
  3
*MODEL_SPACE
  1

  0
ENDBLK
  5
E
100
AcDbEntity
  8
0
100
AcDbBlockEnd
  0
BLOCK
  5
F
100
AcDbEntity
 67
     1
  8
0
100
AcDbBlockBegin
  2
*PAPER_SPACE
 70
     0
 10
0.0
 20
0.0
 30
0.0
  3
*PAPER_SPACE
  1

  0
ENDBLK
  5
10
100
AcDbEntity
 67
     1
  8
0
100
AcDbBlockEnd
  0
BLOCK
  5
2A
100
AcDbEntity
  8
0
100
AcDbBlockBegin
  2
*B0
 70
     0
 10
0.0
 20
0.0
 30
0.0
  3
*B0
  1

  0
ENDBLK
  5
2B
100
AcDbEntity
  8
0
100
AcDbBlockEnd
  0
BLOCK
  5
2D
100
AcDbEntity
  8
0
100
AcDbBlockBegin
  2
*B1
 70
     0
 10
0.0
 20
0.0
 30
0.0
  3
*B1
  1

  0
ARC
  5
2E
100
AcDbEntity
  8
0
  6
HIDDEN
 62
   174
100
AcDbCircle
 10
267.046601
 20
149.931974
 30
0.0
 40
7.5
100
AcDbArc
 50
90.0
 51
270.0
  0
ARC
  5
2F
100
AcDbEntity
  8
0
  6
HIDDEN
 62
   174
100
AcDbCircle
 10
267.046601
 20
149.931974
 30
0.0
 40
7.5
100
AcDbArc
 50
-90.0
 51
90.0
  0
ARC
  5
30
100
AcDbEntity
  8
0
  6
HIDDEN
 62
   174
100
AcDbCircle
 10
235.046601
 20
149.931974
 30
0.0
 40
7.5
100
AcDbArc
 50
90.0
 51
270.0
  0
ARC
  5
31
100
AcDbEntity
  8
0
  6
HIDDEN
 62
   174
100
AcDbCircle
 10
235.046601
 20
149.931974
 30
0.0
 40
7.5
100
AcDbArc
 50
-90.0
 51
90.0
  0
ARC
  5
32
100
AcDbEntity
  8
0
  6
Continuous
 62
   174
100
AcDbCircle
 10
233.046601
 20
177.931974
 30
0.0
 40
3.0
100
AcDbArc
 50
-90.0
 51
-64.236291
  0
ARC
  5
33
100
AcDbEntity
  8
0
  6
Continuous
 62
   174
100
AcDbCircle
 10
233.046601
 20
177.931974
 30
0.0
 40
3.0
100
AcDbArc
 50
-115.763709
 51
-90.0
  0
ARC
  5
34
100
AcDbEntity
  8
0
  6
Continuous
 62
   174
100
AcDbCircle
 10
233.046601
 20
177.931974
 30
0.0
 40
3.0
100
AcDbArc
 50
-244.236291
 51
-115.763709
  0
ARC
  5
35
100
AcDbEntity
  8
0
  6
Continuous
 62
   174
100
AcDbCircle
 10
233.046601
 20
177.931974
 30
0.0
 40
3.0
100
AcDbArc
 50
-270.0
 51
-244.236291
  0
ARC
  5
36
100
AcDbEntity
  8
0
  6
Continuous
 62
   174
100
AcDbCircle
 10
233.046601
 20
177.931974
 30
0.0
 40
3.0
100
AcDbArc
 50
-295.763709
 51
-270.0
  0
ARC
  5
37
100
AcDbEntity
  8
0
  6
Continuous
 62
   174
100
AcDbCircle
 10
233.046601
 20
177.931974
 30
0.0
 40
3.0
100
AcDbArc
 50
-64.236291
 51
64.236291
  0
ARC
  5
38
100
AcDbEntity
  8
0
  6
HIDDEN
 62
   174
100
AcDbCircle
 10
267.946835
 20
209.485509
 30
0.0
 40
2.0
100
AcDbArc
 50
-169.733303
 51
10.266697
  0
ARC
  5
39
100
AcDbEntity
  8
0
  6
HIDDEN
 62
   174
100
AcDbCircle
 10
267.946835
 20
209.485509
 30
0.0
 40
2.0
100
AcDbArc
 50
10.266697
 51
190.266697
  0
ARC
  5
3A
100
AcDbEntity
  8
0
  6
Continuous
 62
   174
100
AcDbCircle
 10
267.946835
 20
209.485509
 30
0.0
 40
2.8
100
AcDbArc
 50
-349.733303
 51
-324.243335
  0
ARC
  5
3B
100
AcDbEntity
  8
0
  6
HIDDEN
 62
   174
100
AcDbCircle
 10
267.946835
 20
209.485509
 30
0.0
 40
2.0
100
AcDbArc
 50
-169.733303
 51
-155.033577
  0
ARC
  5
3C
100
AcDbEntity
  8
0
  6
Continuous
 62
   174
100
AcDbCircle
 10
271.333211
 20
190.789722
 30
0.0
 40
3.0
100
AcDbArc
 50
-66.866688
 51
-63.454543
  0
ARC
  5
3D
100
AcDbEntity
  8
0
  6
Continuous
 62
   174
100
AcDbCircle
 10
271.333211
 20
190.789722
 30
0.0
 40
3.0
100
AcDbArc
 50
-86.587729
 51
-66.866688
  0
ARC
  5
3E
100
AcDbEntity
  8
0
  6
Continuous
 62
   174
100
AcDbCircle
 10
271.333211
 20
190.789722
 30
0.0
 40
3.0
100
AcDbArc
 50
-90.0
 51
-86.587729
  0
ARC
  5
3F
100
AcDbEntity
  8
0
  6
Continuous
 62
   174
100
AcDbCircle
 10
271.333211
 20
190.789722
 30
0.0
 40
3.0
100
AcDbArc
 50
-92.712101
 51
-90.0
  0
ARC
  5
40
100
AcDbEntity
  8
0
  6
Continuous
 62
   174
100
AcDbCircle
 10
271.333211
 20
190.789722
 30
0.0
 40
3.0
100
AcDbArc
 50
-115.13191
 51
-92.712101
  0
ARC
  5
41
100
AcDbEntity
  8
0
  6
Continuous
 62
   174
100
AcDbCircle
 10
271.333211
 20
190.789722
 30
0.0
 40
3.0
100
AcDbArc
 50
-117.574154
 51
-115.13191
  0
ARC
  5
42
100
AcDbEntity
  8
0
  6
Continuous
 62
   174
100
AcDbCircle
 10
271.333211
 20
190.789722
 30
0.0
 40
3.0
100
AcDbArc
 50
-137.790663
 51
-117.574154
  0
LINE
  5
43
100
AcDbEntity
  8
0
  6
HIDDEN
 62
   174
100
AcDbLine
 10
264.046601
 20
139.931974
 30
0.0
 11
276.046601
 21
139.931974
 31
0.0
  0
LINE
  5
44
100
AcDbEntity
  8
0
  6
HIDDEN
 62
   174
100
AcDbLine
 10
276.046601
 20
139.131974
 30
0.0
 11
261.046601
 21
139.131974
 31
0.0
  0
ARC
  5
45
100
AcDbEntity
  8
0
  6
HIDDEN
 62
   174
100
AcDbCircle
 10
267.946835
 20
209.485509
 30
0.0
 40
2.0
100
AcDbArc
 50
-194.216029
 51
-180.809973
  0
ARC
  5
46
100
AcDbEntity
  8
0
  6
HIDDEN
 62
   174
100
AcDbCircle
 10
267.946835
 20
209.485509
 30
0.0
 40
2.0
100
AcDbArc
 50
-206.075783
 51
-194.216029
  0
ARC
  5
47
100
AcDbEntity
  8
0
  6
HIDDEN
 62
   174
100
AcDbCircle
 10
267.946835
 20
209.485509
 30
0.0
 40
2.0
100
AcDbArc
 50
-220.27508
 51
-206.075783
  0
ARC
  5
48
100
AcDbEntity
  8
0
  6
HIDDEN
 62
   174
100
AcDbCircle
 10
267.946835
 20
209.485509
 30
0.0
 40
2.0
100
AcDbArc
 50
-234.141096
 51
-220.27508
  0
ARC
  5
49
100
AcDbEntity
  8
0
  6
HIDDEN
 62
   174
100
AcDbCircle
 10
267.946835
 20
209.485509
 30
0.0
 40
2.0
100
AcDbArc
 50
-297.497439
 51
-285.419102
  0
ARC
  5
4A
100
AcDbEntity
  8
0
  6
HIDDEN
 62
   174
100
AcDbCircle
 10
267.946835
 20
209.485509
 30
0.0
 40
2.0
100
AcDbArc
 50
-307.714935
 51
-297.497439
  0
ARC
  5
4B
100
AcDbEntity
  8
0
  6
HIDDEN
 62
   174
100
AcDbCircle
 10
267.946835
 20
209.485509
 30
0.0
 40
2.0
100
AcDbArc
 50
-349.733303
 51
-335.033577
  0
ARC
  5
4C
100
AcDbEntity
  8
0
  6
HIDDEN
 62
   174
100
AcDbCircle
 10
267.946835
 20
209.485509
 30
0.0
 40
2.0
100
AcDbArc
 50
-0.809973
 51
10.266697
  0
ARC
  5
4D
100
AcDbEntity
  8
0
  6
HIDDEN
 62
   174
100
AcDbCircle
 10
267.946835
 20
209.485509
 30
0.0
 40
2.0
100
AcDbArc
 50
-117.497439
 51
-105.419102
  0
ARC
  5
4E
100
AcDbEntity
  8
0
  6
HIDDEN
 62
   174
100
AcDbCircle
 10
267.946835
 20
209.485509
 30
0.0
 40
2.0
100
AcDbArc
 50
-142.601534
 51
-127.714935
  0
LINE
  5
4F
100
AcDbEntity
  8
0
  6
HIDDEN
 62
   174
100
AcDbLine
 10
264.046601
 20
119.931974
 30
0.0
 11
276.046601
 21
119.931974
 31
0.0
  0
LINE
  5
50
100
AcDbEntity
  8
0
  6
HIDDEN
 62
   174
100
AcDbLine
 10
264.046601
 20
109.975548
 30
0.0
 11
264.046601
 21
119.974608
 31
0.0
  0
LINE
  5
51
100
AcDbEntity
  8
0
  6
HIDDEN
 62
   174
100
AcDbLine
 10
276.046601
 20
119.131974
 30
0.0
 11
261.046601
 21
119.131974
 31
0.0
  0
LINE
  5
52
100
AcDbEntity
  8
0
  6
HIDDEN
 62
   174
100
AcDbLine
 10
264.046601
 20
119.131974
 30
0.0
 11
276.046601
 21
119.131974
 31
0.0
  0
ARC
  5
53
100
AcDbEntity
  8
0
  6
Continuous
 62
   174
100
AcDbCircle
 10
271.333211
 20
190.789722
 30
0.0
 40
3.0
100
AcDbArc
 50
-348.28533
 51
-347.142857
  0
ARC
  5
54
100
AcDbEntity
  8
0
  6
Continuous
 62
   174
100
AcDbCircle
 10
271.333211
 20
190.789722
 30
0.0
 40
3.0
100
AcDbArc
 50
-349.670948
 51
-348.28533
  0
ARC
  5
55
100
AcDbEntity
  8
0
  6
Continuous
 62
   174
100
AcDbCircle
 10
271.333211
 20
190.789722
 30
0.0
 40
3.0
100
AcDbArc
 50
-11.771304
 51
10.329052
  0
ARC
  5
56
100
AcDbEntity
  8
0
  6
Continuous
 62
   174
100
AcDbCircle
 10
271.333211
 20
190.789722
 30
0.0
 40
3.0
100
AcDbArc
 50
-16.17516
 51
-11.771304
  0
ARC
  5
57
100
AcDbEntity
  8
0
  6
Continuous
 62
   174
100
AcDbCircle
 10
271.333211
 20
190.789722
 30
0.0
 40
3.0
100
AcDbArc
 50
-35.622044
 51
-16.17516
  0
ARC
  5
58
100
AcDbEntity
  8
0
  6
Continuous
 62
   174
100
AcDbCircle
 10
271.333211
 20
190.789722
 30
0.0
 40
3.0
100
AcDbArc
 50
-40.871025
 51
-35.622044
  0
ARC
  5
59
100
AcDbEntity
  8
0
  6
Continuous
 62
   174
100
AcDbCircle
 10
271.333211
 20
190.789722
 30
0.0
 40
3.0
100
AcDbArc
 50
-63.454543
 51
-40.871025
  0
LINE
  5
5A
100
AcDbEntity
  8
0
  6
HIDDEN
 62
   174
100
AcDbLine
 10
264.046601
 20
129.973969
 30
0.0
 11
264.046601
 21
139.97333
 31
0.0
  0
LINE
  5
5B
100
AcDbEntity
  8
0
  6
HIDDEN
 62
   174
100
AcDbLine
 10
264.046601
 20
129.931974
 30
0.0
 11
276.046601
 21
129.931974
 31
0.0
  0
LINE
  5
5C
100
AcDbEntity
  8
0
  6
HIDDEN
 62
   174
100
AcDbLine
 10
276.046601
 20
130.731974
 30
0.0
 11
261.046601
 21
130.731974
 31
0.0
  0
LINE
  5
5D
100
AcDbEntity
  8
0
  6
HIDDEN
 62
   174
100
AcDbLine
 10
276.046601
 20
109.975548
 30
0.0
 11
276.046601
 21
119.974608
 31
0.0
  0
LINE
  5
5E
100
AcDbEntity
  8
0
  6
HIDDEN
 62
   174
100
AcDbLine
 10
264.046601
 20
119.131974
 30
0.0
 11
276.046601
 21
119.131974
 31
0.0
  0
LINE
  5
5F
100
AcDbEntity
  8
0
  6
HIDDEN
 62
   174
100
AcDbLine
 10
264.046601
 20
110.731974
 30
0.0
 11
276.046601
 21
110.731974
 31
0.0
  0
ARC
  5
60
100
AcDbEntity
  8
0
  6
Continuous
 62
   174
100
AcDbCircle
 10
271.333211
 20
190.789722
 30
0.0
 40
3.0
100
AcDbArc
 50
-270.0
 51
-266.587729
  0
ARC
  5
61
100
AcDbEntity
  8
0
  6
Continuous
 62
   174
100
AcDbCircle
 10
271.333211
 20
190.789722
 30
0.0
 40
3.0
100
AcDbArc
 50
-272.712101
 51
-270.0
  0
ARC
  5
62
100
AcDbEntity
  8
0
  6
Continuous
 62
   174
100
AcDbCircle
 10
271.333211
 20
190.789722
 30
0.0
 40
3.0
100
AcDbArc
 50
-295.13191
 51
-272.712101
  0
ARC
  5
63
100
AcDbEntity
  8
0
  6
Continuous
 62
   174
100
AcDbCircle
 10
271.333211
 20
190.789722
 30
0.0
 40
3.0
100
AcDbArc
 50
-297.574154
 51
-295.13191
  0
ARC
  5
64
100
AcDbEntity
  8
0
  6
Continuous
 62
   174
100
AcDbCircle
 10
271.333211
 20
190.789722
 30
0.0
 40
3.0
100
AcDbArc
 50
-317.790663
 51
-297.574154
  0
ARC
  5
65
100
AcDbEntity
  8
0
  6
Continuous
 62
   174
100
AcDbCircle
 10
271.333211
 20
190.789722
 30
0.0
 40
3.0
100
AcDbArc
 50
-324.359468
 51
-317.790663
  0
ARC
  5
66
100
AcDbEntity
  8
0
  6
Continuous
 62
   174
100
AcDbCircle
 10
271.333211
 20
190.789722
 30
0.0
 40
3.0
100
AcDbArc
 50
-342.709696
 51
-324.359468
  0
ARC
  5
67
100
AcDbEntity
  8
0
  6
Continuous
 62
   174
100
AcDbCircle
 10
271.333211
 20
190.789722
 30
0.0
 40
3.0
100
AcDbArc
 50
-347.142857
 51
-342.709696
  0
ARC
  5
68
100
AcDbEntity
  8
0
  6
Continuous
 62
   174
100
AcDbCircle
 10
271.333211
 20
190.789722
 30
0.0
 40
3.0
100
AcDbArc
 50
-144.359468
 51
-137.790663
  0
ARC
  5
69
100
AcDbEntity
  8
0
  6
Continuous
 62
   174
100
AcDbCircle
 10
271.333211
 20
190.789722
 30
0.0
 40
3.0
100
AcDbArc
 50
-162.709696
 51
-144.359468
  0
ARC
  5
6A
100
AcDbEntity
  8
0
  6
Continuous
 62
   174
100
AcDbCircle
 10
271.333211
 20
190.789722
 30
0.0
 40
3.0
100
AcDbArc
 50
-167.142857
 51
-162.709696
  0
ARC
  5
6B
100
AcDbEntity
  8
0
  6
Continuous
 62
   174
100
AcDbCircle
 10
271.333211
 20
190.789722
 30
0.0
 40
3.0
100
AcDbArc
 50
-168.28533
 51
-167.142857
  0
ARC
  5
6C
100
AcDbEntity
  8
0
  6
Continuous
 62
   174
100
AcDbCircle
 10
271.333211
 20
190.789722
 30
0.0
 40
3.0
100
AcDbArc
 50
-169.670948
 51
-168.28533
  0
ARC
  5
6D
100
AcDbEntity
  8
0
  6
Continuous
 62
   174
100
AcDbCircle
 10
271.333211
 20
190.789722
 30
0.0
 40
3.0
100
AcDbArc
 50
-191.771304
 51
-169.670948
  0
ARC
  5
6E
100
AcDbEntity
  8
0
  6
Continuous
 62
   174
100
AcDbCircle
 10
271.333211
 20
190.789722
 30
0.0
 40
3.0
100
AcDbArc
 50
-196.17516
 51
-191.771304
  0
ARC
  5
6F
100
AcDbEntity
  8
0
  6
Continuous
 62
   174
100
AcDbCircle
 10
271.333211
 20
190.789722
 30
0.0
 40
3.0
100
AcDbArc
 50
-215.622044
 51
-196.17516
  0
ARC
  5
70
100
AcDbEntity
  8
0
  6
Continuous
 62
   174
100
AcDbCircle
 10
271.333211
 20
190.789722
 30
0.0
 40
3.0
100
AcDbArc
 50
-220.871025
 51
-215.622044
  0
ARC
  5
71
100
AcDbEntity
  8
0
  6
Continuous
 62
   174
100
AcDbCircle
 10
271.333211
 20
190.789722
 30
0.0
 40
3.0
100
AcDbArc
 50
-243.454543
 51
-220.871025
  0
ARC
  5
72
100
AcDbEntity
  8
0
  6
Continuous
 62
   174
100
AcDbCircle
 10
271.333211
 20
190.789722
 30
0.0
 40
3.0
100
AcDbArc
 50
-246.866688
 51
-243.454543
  0
ARC
  5
73
100
AcDbEntity
  8
0
  6
Continuous
 62
   174
100
AcDbCircle
 10
271.333211
 20
190.789722
 30
0.0
 40
3.0
100
AcDbArc
 50
-266.587729
 51
-246.866688
  0
LINE
  5
74
100
AcDbEntity
  8
0
  6
HIDDEN
 62
   174
100
AcDbLine
 10
264.046601
 20
139.931974
 30
0.0
 11
276.046601
 21
139.931974
 31
0.0
  0
ARC
  5
75
100
AcDbEntity
  8
0
  6
HIDDEN
 62
   174
100
AcDbCircle
 10
267.946835
 20
209.485509
 30
0.0
 40
2.0
100
AcDbArc
 50
-180.809973
 51
-169.733303
  0
ARC
  5
76
100
AcDbEntity
  8
0
  6
HIDDEN
 62
   174
100
AcDbCircle
 10
267.946835
 20
209.485509
 30
0.0
 40
2.0
100
AcDbArc
 50
-105.419102
 51
-91.098864
  0
ARC
  5
77
100
AcDbEntity
  8
0
  6
HIDDEN
 62
   174
100
AcDbCircle
 10
267.946835
 20
209.485509
 30
0.0
 40
2.0
100
AcDbArc
 50
-127.714935
 51
-117.497439
  0
LINE
  5
78
100
AcDbEntity
  8
0
  6
HIDDEN
 62
   174
100
AcDbLine
 10
264.046601
 20
130.731974
 30
0.0
 11
276.046601
 21
130.731974
 31
0.0
  0
ARC
  5
79
100
AcDbEntity
  8
0
  6
Continuous
 62
   174
100
AcDbCircle
 10
267.946835
 20
209.485509
 30
0.0
 40
2.8
100
AcDbArc
 50
-15.223271
 51
10.266697
  0
ARC
  5
7A
100
AcDbEntity
  8
0
  6
Continuous
 62
   174
100
AcDbCircle
 10
267.946835
 20
209.485509
 30
0.0
 40
2.8
100
AcDbArc
 50
-144.243335
 51
-15.223271
  0
ARC
  5
7B
100
AcDbEntity
  8
0
  6
HIDDEN
 62
   174
100
AcDbCircle
 10
267.946835
 20
209.485509
 30
0.0
 40
2.0
100
AcDbArc
 50
-67.169935
 51
-54.141096
  0
ARC
  5
7C
100
AcDbEntity
  8
0
  6
HIDDEN
 62
   174
100
AcDbCircle
 10
267.946835
 20
209.485509
 30
0.0
 40
2.0
100
AcDbArc
 50
-79.900217
 51
-67.169935
  0
ARC
  5
7D
100
AcDbEntity
  8
0
  6
HIDDEN
 62
   174
100
AcDbCircle
 10
267.946835
 20
209.485509
 30
0.0
 40
2.0
100
AcDbArc
 50
-91.098864
 51
-79.900217
  0
ARC
  5
7E
100
AcDbEntity
  8
0
  6
HIDDEN
 62
   174
100
AcDbCircle
 10
267.946835
 20
209.485509
 30
0.0
 40
2.0
100
AcDbArc
 50
-155.033577
 51
-142.601534
  0
LINE
  5
7F
100
AcDbEntity
  8
0
  6
HIDDEN
 62
   174
100
AcDbLine
 10
264.046601
 20
119.931974
 30
0.0
 11
276.046601
 21
119.931974
 31
0.0
  0
LINE
  5
80
100
AcDbEntity
  8
0
  6
HIDDEN
 62
   174
100
AcDbLine
 10
276.046601
 20
110.731974
 30
0.0
 11
261.046601
 21
110.731974
 31
0.0
  0
LINE
  5
81
100
AcDbEntity
  8
0
  6
HIDDEN
 62
   174
100
AcDbLine
 10
276.046601
 20
129.973969
 30
0.0
 11
276.046601
 21
139.97333
 31
0.0
  0
LINE
  5
82
100
AcDbEntity
  8
0
  6
HIDDEN
 62
   174
100
AcDbLine
 10
264.046601
 20
139.131974
 30
0.0
 11
276.046601
 21
139.131974
 31
0.0
  0
ARC
  5
83
100
AcDbEntity
  8
0
  6
Continuous
 62
   174
100
AcDbCircle
 10
267.946835
 20
209.485509
 30
0.0
 40
2.8
100
AcDbArc
 50
-169.733303
 51
-144.243335
  0
ARC
  5
84
100
AcDbEntity
  8
0
  6
Continuous
 62
   174
100
AcDbCircle
 10
267.946835
 20
209.485509
 30
0.0
 40
2.8
100
AcDbArc
 50
-195.223271
 51
-169.733303
  0
ARC
  5
85
100
AcDbEntity
  8
0
  6
Continuous
 62
   174
100
AcDbCircle
 10
267.946835
 20
209.485509
 30
0.0
 40
2.8
100
AcDbArc
 50
-324.243335
 51
-195.223271
  0
ARC
  5
86
100
AcDbEntity
  8
0
  6
HIDDEN
 62
   174
100
AcDbCircle
 10
267.946835
 20
209.485509
 30
0.0
 40
2.0
100
AcDbArc
 50
-271.098864
 51
-259.900217
  0
ARC
  5
87
100
AcDbEntity
  8
0
  6
HIDDEN
 62
   174
100
AcDbCircle
 10
267.946835
 20
209.485509
 30
0.0
 40
2.0
100
AcDbArc
 50
-285.419102
 51
-271.098864
  0
ARC
  5
88
100
AcDbEntity
  8
0
  6
HIDDEN
 62
   174
100
AcDbCircle
 10
267.946835
 20
209.485509
 30
0.0
 40
2.0
100
AcDbArc
 50
-322.601534
 51
-307.714935
  0
ARC
  5
89
100
AcDbEntity
  8
0
  6
HIDDEN
 62
   174
100
AcDbCircle
 10
267.946835
 20
209.485509
 30
0.0
 40
2.0
100
AcDbArc
 50
-335.033577
 51
-322.601534
  0
ARC
  5
8A
100
AcDbEntity
  8
0
  6
HIDDEN
 62
   174
100
AcDbCircle
 10
267.946835
 20
209.485509
 30
0.0
 40
2.8
100
AcDbArc
 50
-349.733303
 51
-169.733303
  0
ARC
  5
8B
100
AcDbEntity
  8
0
  6
HIDDEN
 62
   174
100
AcDbCircle
 10
267.946835
 20
209.485509
 30
0.0
 40
2.8
100
AcDbArc
 50
-169.733303
 51
10.266697
  0
LINE
  5
8C
100
AcDbEntity
  8
0
  6
HIDDEN
 62
   174
100
AcDbLine
 10
264.046601
 20
110.731974
 30
0.0
 11
276.046601
 21
110.731974
 31
0.0
  0
LINE
  5
8D
100
AcDbEntity
  8
0
  6
HIDDEN
 62
   174
100
AcDbLine
 10
264.046601
 20
109.931974
 30
0.0
 11
276.046601
 21
109.931974
 31
0.0
  0
LINE
  5
8E
100
AcDbEntity
  8
0
  6
HIDDEN
 62
   174
100
AcDbLine
 10
264.046601
 20
130.731974
 30
0.0
 11
276.046601
 21
130.731974
 31
0.0
  0
ARC
  5
8F
100
AcDbEntity
  8
0
  6
HIDDEN
 62
   174
100
AcDbCircle
 10
267.946835
 20
209.485509
 30
0.0
 40
2.0
100
AcDbArc
 50
-14.216029
 51
-0.809973
  0
ARC
  5
90
100
AcDbEntity
  8
0
  6
HIDDEN
 62
   174
100
AcDbCircle
 10
267.946835
 20
209.485509
 30
0.0
 40
2.0
100
AcDbArc
 50
-26.075783
 51
-14.216029
  0
ARC
  5
91
100
AcDbEntity
  8
0
  6
HIDDEN
 62
   174
100
AcDbCircle
 10
267.946835
 20
209.485509
 30
0.0
 40
2.0
100
AcDbArc
 50
-40.27508
 51
-26.075783
  0
ARC
  5
92
100
AcDbEntity
  8
0
  6
HIDDEN
 62
   174
100
AcDbCircle
 10
267.946835
 20
209.485509
 30
0.0
 40
2.0
100
AcDbArc
 50
-54.141096
 51
-40.27508
  0
LINE
  5
93
100
AcDbEntity
  8
0
  6
HIDDEN
 62
   174
100
AcDbLine
 10
264.046601
 20
109.931974
 30
0.0
 11
276.046601
 21
109.931974
 31
0.0
  0
LINE
  5
94
100
AcDbEntity
  8
0
  6
HIDDEN
 62
   174
100
AcDbLine
 10
261.046601
 20
110.775232
 30
0.0
 11
261.046601
 21
119.174623
 31
0.0
  0
LINE
  5
95
100
AcDbEntity
  8
0
  6
HIDDEN
 62
   174
100
AcDbLine
 10
264.046601
 20
129.931974
 30
0.0
 11
276.046601
 21
129.931974
 31
0.0
  0
LINE
  5
96
100
AcDbEntity
  8
0
  6
HIDDEN
 62
   174
100
AcDbLine
 10
276.046601
 20
130.731974
 30
0.0
 11
261.046601
 21
130.731974
 31
0.0
  0
ARC
  5
97
100
AcDbEntity
  8
0
  6
HIDDEN
 62
   174
100
AcDbCircle
 10
267.946835
 20
209.485509
 30
0.0
 40
2.0
100
AcDbArc
 50
-247.169935
 51
-234.141096
  0
ARC
  5
98
100
AcDbEntity
  8
0
  6
HIDDEN
 62
   174
100
AcDbCircle
 10
267.946835
 20
209.485509
 30
0.0
 40
2.0
100
AcDbArc
 50
-259.900217
 51
-247.169935
  0
LINE
  5
99
100
AcDbEntity
  8
0
  6
HIDDEN
 62
   174
100
AcDbLine
 10
276.046601
 20
110.731974
 30
0.0
 11
261.046601
 21
110.731974
 31
0.0
  0
LINE
  5
9A
100
AcDbEntity
  8
0
  6
HIDDEN
 62
   174
100
AcDbLine
 10
276.046601
 20
119.131974
 30
0.0
 11
261.046601
 21
119.131974
 31
0.0
  0
LINE
  5
9B
100
AcDbEntity
  8
0
  6
HIDDEN
 62
   174
100
AcDbLine
 10
276.046601
 20
139.131974
 30
0.0
 11
261.046601
 21
139.131974
 31
0.0
  0
ARC
  5
9C
100
AcDbEntity
  8
0
  6
HIDDEN
 62
   174
100
AcDbCircle
 10
267.946835
 20
209.485509
 30
0.0
 40
9.6
100
AcDbArc
 50
222.756798
 51
268.266697
  0
ARC
  5
9D
100
AcDbEntity
  8
0
  6
Continuous
 62
   174
100
AcDbCircle
 10
235.046601
 20
149.931974
 30
0.0
 40
4.5
100
AcDbArc
 50
90.0
 51
270.0
  0
ARC
  5
9E
100
AcDbEntity
  8
0
  6
HIDDEN
 62
   174
100
AcDbCircle
 10
271.333211
 20
190.789722
 30
0.0
 40
3.0
100
AcDbArc
 50
151.341456
 51
169.607133
  0
LINE
  5
9F
100
AcDbEntity
  8
0
  6
Continuous
 62
   174
100
AcDbLine
 10
276.046601
 20
166.931974
 30
0.0
 11
240.046601
 21
166.931974
 31
0.0
  0
LINE
  5
A0
100
AcDbEntity
  8
0
  6
Continuous
 62
   174
100
AcDbLine
 10
265.212956
 20
179.693193
 30
0.0
 11
246.517169
 21
176.306817
 31
0.0
  0
ARC
  5
A1
100
AcDbEntity
  8
0
  6
Continuous
 62
   174
100
AcDbCircle
 10
267.946835
 20
209.485509
 30
0.0
 40
2.0
100
AcDbArc
 50
-40.317051
 51
-26.001039
  0
ARC
  5
A2
100
AcDbEntity
  8
0
  6
HIDDEN
 62
   174
100
AcDbCircle
 10
271.333211
 20
190.789722
 30
0.0
 40
3.0
100
AcDbArc
 50
10.266697
 51
30.745651
  0
ARC
  5
A3
100
AcDbEntity
  8
0
  6
HIDDEN
 62
   174
100
AcDbCircle
 10
271.333211
 20
190.789722
 30
0.0
 40
8.0
100
AcDbArc
 50
280.266697
 51
303.419321
  0
LINE
  5
A4
100
AcDbEntity
  8
0
  6
Continuous
 62
   174
100
AcDbLine
 10
264.887143
 20
181.491969
 30
0.0
 11
265.212956
 21
179.693193
 31
0.0
  0
ARC
  5
A5
100
AcDbEntity
  8
0
  6
Continuous
 62
   174
100
AcDbCircle
 10
267.946835
 20
209.485509
 30
0.0
 40
2.0
100
AcDbArc
 50
-270.0
 51
-259.69843
  0
ARC
  5
A6
100
AcDbEntity
  8
0
  6
Continuous
 62
   174
100
AcDbCircle
 10
267.946835
 20
209.485509
 30
0.0
 40
2.0
100
AcDbArc
 50
-91.201339
 51
-90.0
  0
ARC
  5
A7
100
AcDbEntity
  8
0
  6
Continuous
 62
   174
100
AcDbCircle
 10
267.946835
 20
209.485509
 30
0.0
 40
10.0
100
AcDbArc
 50
-25.746399
 51
9.640286
  0
LINE
  5
A8
100
AcDbEntity
  8
0
  6
Continuous
 62
   174
100
AcDbLine
 10
272.759053
 20
182.917812
 30
0.0
 11
264.887143
 21
181.491969
 31
0.0
  0
LINE
  5
A9
100
AcDbEntity
  8
0
  6
Continuous
 62
   174
100
AcDbLine
 10
255.072327
 20
174.097125
 30
0.0
 11
252.304673
 21
174.097125
 31
0.0
  0
ARC
  5
AA
100
AcDbEntity
  8
0
  6
Continuous
 62
   174
100
AcDbCircle
 10
271.333211
 20
190.789722
 30
0.0
 40
3.0
100
AcDbArc
 50
242.445806
 51
262.736488
  0
LINE
  5
AB
100
AcDbEntity
  8
0
  6
Continuous
 62
   174
100
AcDbLine
 10
265.778294
 20
176.572025
 30
0.0
 11
265.9927
 21
176.656983
 31
0.0
  0
LINE
  5
AC
100
AcDbEntity
  8
0
  6
HIDDEN
 62
   174
100
AcDbLine
 10
238.046601
 20
129.973969
 30
0.0
 11
238.046601
 21
119.974608
 31
0.0
  0
LINE
  5
AD
100
AcDbEntity
  8
0
  6
HIDDEN
 62
   174
100
AcDbLine
 10
238.046601
 20
129.931974
 30
0.0
 11
226.046601
 21
129.931974
 31
0.0
  0
LINE
  5
AE
100
AcDbEntity
  8
0
  6
HIDDEN
 62
   174
100
AcDbLine
 10
240.046601
 20
177.992604
 30
0.0
 11
240.046601
 21
171.069713
 31
0.0
  0
ARC
  5
AF
100
AcDbEntity
  8
0
  6
Continuous
 62
   174
100
AcDbCircle
 10
233.046601
 20
177.931974
 30
0.0
 40
3.0
100
AcDbArc
 50
141.400206
 51
167.13796
  0
ARC
  5
B0
100
AcDbEntity
  8
0
  6
HIDDEN
 62
   174
100
AcDbCircle
 10
233.046601
 20
177.931974
 30
0.0
 40
3.0
100
AcDbArc
 50
343.64234
 51
348.118711
  0
ARC
  5
B1
100
AcDbEntity
  8
0
  6
HIDDEN
 62
   174
100
AcDbCircle
 10
233.046601
 20
177.931974
 30
0.0
 40
3.0
100
AcDbArc
 50
35.919988
 51
42.447009
  0
ARC
  5
B2
100
AcDbEntity
  8
0
  6
Continuous
 62
   174
100
AcDbCircle
 10
267.946835
 20
209.485509
 30
0.0
 40
2.0
100
AcDbArc
 50
-285.604671
 51
-271.201339
  0
ARC
  5
B3
100
AcDbEntity
  8
0
  6
HIDDEN
 62
   174
100
AcDbCircle
 10
233.046601
 20
177.931974
 30
0.0
 40
3.0
100
AcDbArc
 50
144.31233
 51
167.13289
  0
LINE
  5
B4
100
AcDbEntity
  8
0
  6
HIDDEN
 62
   174
100
AcDbLine
 10
246.018124
 20
179.061986
 30
0.0
 11
240.114191
 21
177.992604
 31
0.0
  0
ARC
  5
B5
100
AcDbEntity
  8
0
  6
HIDDEN
 62
   174
100
AcDbCircle
 10
233.046601
 20
177.931974
 30
0.0
 40
3.0
100
AcDbArc
 50
222.447009
 51
229.196962
  0
LINE
  5
B6
100
AcDbEntity
  8
0
  6
HIDDEN
 62
   174
100
AcDbLine
 10
264.887143
 20
181.491969
 30
0.0
 11
265.212956
 21
179.693193
 31
0.0
  0
LINE
  5
B7
100
AcDbEntity
  8
0
  6
HIDDEN
 62
   174
100
AcDbLine
 10
238.046601
 20
129.931974
 30
0.0
 11
226.046601
 21
129.931974
 31
0.0
  0
LINE
  5
B8
100
AcDbEntity
  8
0
  6
HIDDEN
 62
   174
100
AcDbLine
 10
226.046601
 20
129.131974
 30
0.0
 11
241.046601
 21
129.131974
 31
0.0
  0
ARC
  5
B9
100
AcDbEntity
  8
0
  6
HIDDEN
 62
   174
100
AcDbCircle
 10
271.333211
 20
190.789722
 30
0.0
 40
3.0
100
AcDbArc
 50
245.773031
 51
262.746946
  0
ARC
  5
BA
100
AcDbEntity
  8
0
  6
HIDDEN
 62
   174
100
AcDbCircle
 10
233.046601
 20
177.931974
 30
0.0
 40
3.0
100
AcDbArc
 50
-12.86711
 51
11.720366
  0
ARC
  5
BB
100
AcDbEntity
  8
0
  6
Continuous
 62
   174
100
AcDbCircle
 10
271.333211
 20
190.789722
 30
0.0
 40
3.0
100
AcDbArc
 50
293.180961
 51
319.147784
  0
ARC
  5
BC
100
AcDbEntity
  8
0
  6
Continuous
 62
   174
100
AcDbCircle
 10
271.333211
 20
190.789722
 30
0.0
 40
3.0
100
AcDbArc
 50
87.394386
 51
93.220959
  0
ARC
  5
BD
100
AcDbEntity
  8
0
  6
HIDDEN
 62
   174
100
AcDbCircle
 10
233.046601
 20
177.931974
 30
0.0
 40
3.0
100
AcDbArc
 50
190.266697
 51
197.566275
  0
ARC
  5
BE
100
AcDbEntity
  8
0
  6
HIDDEN
 62
   174
100
AcDbCircle
 10
233.046601
 20
177.931974
 30
0.0
 40
3.0
100
AcDbArc
 50
190.266697
 51
197.566275
  0
ARC
  5
BF
100
AcDbEntity
  8
0
  6
HIDDEN
 62
   174
100
AcDbCircle
 10
233.046601
 20
177.931974
 30
0.0
 40
3.0
100
AcDbArc
 50
10.266697
 51
17.566275
  0
LINE
  5
C0
100
AcDbEntity
  8
0
  6
HIDDEN
 62
   174
100
AcDbLine
 10
264.887143
 20
181.491969
 30
0.0
 11
265.141664
 21
180.086788
 31
0.0
  0
ARC
  5
C1
100
AcDbEntity
  8
0
  6
Continuous
 62
   174
100
AcDbCircle
 10
233.046601
 20
177.931974
 30
0.0
 40
3.0
100
AcDbArc
 50
244.237719
 51
270.0
  0
ARC
  5
C2
100
AcDbEntity
  8
0
  6
HIDDEN
 62
   174
100
AcDbCircle
 10
233.046601
 20
177.931974
 30
0.0
 40
3.0
100
AcDbArc
 50
319.068497
 51
324.31233
  0
ARC
  5
C3
100
AcDbEntity
  8
0
  6
Continuous
 62
   174
100
AcDbCircle
 10
271.333211
 20
190.789722
 30
0.0
 40
3.0
100
AcDbArc
 50
168.125662
 51
190.266697
  0
ARC
  5
C4
100
AcDbEntity
  8
0
  6
HIDDEN
 62
   174
100
AcDbCircle
 10
233.046601
 20
177.931974
 30
0.0
 40
3.0
100
AcDbArc
 50
64.784971
 51
87.403324
  0
LINE
  5
C5
100
AcDbEntity
  8
0
  6
HIDDEN
 62
   174
100
AcDbLine
 10
254.744587
 20
175.764509
 30
0.0
 11
265.569417
 21
177.725215
 31
0.0
  0
LINE
  5
C6
100
AcDbEntity
  8
0
  6
Continuous
 62
   174
100
AcDbLine
 10
246.867662
 20
174.371787
 30
0.0
 11
246.511208
 21
176.339725
 31
0.0
  0
ARC
  5
C7
100
AcDbEntity
  8
0
  6
Continuous
 62
   174
100
AcDbCircle
 10
267.946835
 20
209.485509
 30
0.0
 40
2.0
100
AcDbArc
 50
-142.649184
 51
-141.428571
  0
ARC
  5
C8
100
AcDbEntity
  8
0
  6
HIDDEN
 62
   174
100
AcDbCircle
 10
233.046601
 20
177.931974
 30
0.0
 40
3.0
100
AcDbArc
 50
168.118711
 51
190.266697
  0
ARC
  5
C9
100
AcDbEntity
  8
0
  6
HIDDEN
 62
   174
100
AcDbCircle
 10
233.046601
 20
177.931974
 30
0.0
 40
3.0
100
AcDbArc
 50
229.196962
 51
244.784971
  0
ARC
  5
CA
100
AcDbEntity
  8
0
  6
HIDDEN
 62
   174
100
AcDbCircle
 10
271.333211
 20
190.789722
 30
0.0
 40
3.0
100
AcDbArc
 50
134.760364
 51
151.341456
  0
LINE
  5
CB
100
AcDbEntity
  8
0
  6
HIDDEN
 62
   174
100
AcDbLine
 10
226.046601
 20
120.774593
 30
0.0
 11
226.046601
 21
129.173985
 31
0.0
  0
ARC
  5
CC
100
AcDbEntity
  8
0
  6
Continuous
 62
   174
100
AcDbCircle
 10
267.946835
 20
209.485509
 30
0.0
 40
2.0
100
AcDbArc
 50
-26.001039
 51
-14.287228
  0
ARC
  5
CD
100
AcDbEntity
  8
0
  6
HIDDEN
 62
   174
100
AcDbCircle
 10
271.333211
 20
190.789722
 30
0.0
 40
3.0
100
AcDbArc
 50
-10.212256
 51
10.266697
  0
LINE
  5
CE
100
AcDbEntity
  8
0
  6
HIDDEN
 62
   174
100
AcDbLine
 10
264.046601
 20
139.131974
 30
0.0
 11
276.046601
 21
139.131974
 31
0.0
  0
ARC
  5
CF
100
AcDbEntity
  8
0
  6
Continuous
 62
   174
100
AcDbCircle
 10
267.946835
 20
209.485509
 30
0.0
 40
2.0
100
AcDbArc
 50
-90.0
 51
-79.69843
  0
ARC
  5
D0
100
AcDbEntity
  8
0
  6
Continuous
 62
   174
100
AcDbCircle
 10
267.946835
 20
209.485509
 30
0.0
 40
9.6
100
AcDbArc
 50
196.267106
 51
222.756798
  0
LINE
  5
D1
100
AcDbEntity
  8
0
  6
Continuous
 62
   174
100
AcDbLine
 10
263.369861
 20
191.554613
 30
0.0
 11
239.801409
 21
187.285649
 31
0.0
  0
ARC
  5
D2
100
AcDbEntity
  8
0
  6
Continuous
 62
   174
100
AcDbCircle
 10
235.046601
 20
149.931974
 30
0.0
 40
7.5
100
AcDbArc
 50
-90.0
 51
90.0
  0
LINE
  5
D3
100
AcDbEntity
  8
0
  6
Continuous
 62
   174
100
AcDbLine
 10
247.840619
 20
174.097125
 30
0.0
 11
247.072177
 21
174.097125
 31
0.0
  0
ARC
  5
D4
100
AcDbEntity
  8
0
  6
Continuous
 62
   174
100
AcDbCircle
 10
271.333211
 20
190.789722
 30
0.0
 40
3.0
100
AcDbArc
 50
222.376765
 51
242.445806
  0
LINE
  5
D5
100
AcDbEntity
  8
0
  6
HIDDEN
 62
   174
100
AcDbLine
 10
226.046601
 20
120.731974
 30
0.0
 11
241.046601
 21
120.731974
 31
0.0
  0
ARC
  5
D6
100
AcDbEntity
  8
0
  6
Continuous
 62
   174
100
AcDbCircle
 10
233.046601
 20
177.931974
 30
0.0
 40
3.0
100
AcDbArc
 50
115.762281
 51
141.400206
  0
ARC
  5
D7
100
AcDbEntity
  8
0
  6
HIDDEN
 62
   174
100
AcDbCircle
 10
233.046601
 20
177.931974
 30
0.0
 40
3.0
100
AcDbArc
 50
324.175177
 51
343.64234
  0
LINE
  5
D8
100
AcDbEntity
  8
0
  6
Continuous
 62
   174
100
AcDbLine
 10
265.9927
 20
176.656983
 30
0.0
 11
280.949752
 21
182.583661
 31
0.0
  0
LINE
  5
D9
100
AcDbEntity
  8
0
  6
HIDDEN
 62
   174
100
AcDbLine
 10
226.046601
 20
175.59934
 30
0.0
 11
226.046601
 21
168.531974
 31
0.0
  0
ARC
  5
DA
100
AcDbEntity
  8
0
  6
HIDDEN
 62
   174
100
AcDbCircle
 10
251.046601
 20
164.931974
 30
0.0
 40
10.0
100
AcDbArc
 50
90.0
 51
113.578178
  0
ARC
  5
DB
100
AcDbEntity
  8
0
  6
HIDDEN
 62
   174
100
AcDbCircle
 10
233.046601
 20
177.931974
 30
0.0
 40
3.0
100
AcDbArc
 50
139.068497
 51
144.31233
  0
ARC
  5
DC
100
AcDbEntity
  8
0
  6
HIDDEN
 62
   174
100
AcDbCircle
 10
233.046601
 20
177.931974
 30
0.0
 40
3.0
100
AcDbArc
 50
215.919988
 51
222.447009
  0
ARC
  5
DD
100
AcDbEntity
  8
0
  6
Continuous
 62
   174
100
AcDbCircle
 10
267.946835
 20
209.485509
 30
0.0
 40
9.6
100
AcDbArc
 50
-1.733303
 51
16.267106
  0
ARC
  5
DE
100
AcDbEntity
  8
0
  6
HIDDEN
 62
   174
100
AcDbCircle
 10
267.946835
 20
209.485509
 30
0.0
 40
9.6
100
AcDbArc
 50
88.266697
 51
268.266697
  0
ARC
  5
DF
100
AcDbEntity
  8
0
  6
Continuous
 62
   174
100
AcDbCircle
 10
267.046601
 20
149.931974
 30
0.0
 40
7.5
100
AcDbArc
 50
90.0
 51
270.0
  0
LINE
  5
E0
100
AcDbEntity
  8
0
  6
Continuous
 62
   174
100
AcDbLine
 10
240.046601
 20
185.931974
 30
0.0
 11
240.046601
 21
166.931974
 31
0.0
  0
ARC
  5
E1
100
AcDbEntity
  8
0
  6
HIDDEN
 62
   174
100
AcDbCircle
 10
271.333211
 20
190.789722
 30
0.0
 40
3.0
100
AcDbArc
 50
134.74359
 51
190.266697
  0
ARC
  5
E2
100
AcDbEntity
  8
0
  6
Continuous
 62
   174
100
AcDbCircle
 10
271.333211
 20
190.789722
 30
0.0
 40
3.0
100
AcDbArc
 50
82.736488
 51
87.394386
  0
ARC
  5
E3
100
AcDbEntity
  8
0
  6
HIDDEN
 62
   174
100
AcDbCircle
 10
233.046601
 20
177.931974
 30
0.0
 40
3.0
100
AcDbArc
 50
168.118711
 51
190.266697
  0
ARC
  5
E4
100
AcDbEntity
  8
0
  6
HIDDEN
 62
   174
100
AcDbCircle
 10
233.046601
 20
177.931974
 30
0.0
 40
3.0
100
AcDbArc
 50
-11.881289
 51
10.266697
  0
LINE
  5
E5
100
AcDbEntity
  8
0
  6
HIDDEN
 62
   174
100
AcDbLine
 10
232.327926
 20
185.931974
 30
0.0
 11
240.046601
 21
185.931974
 31
0.0
  0
LINE
  5
E6
100
AcDbEntity
  8
0
  6
Continuous
 62
   174
100
AcDbLine
 10
276.046601
 20
97.931974
 30
0.0
 11
276.046601
 21
166.931974
 31
0.0
  0
ARC
  5
E7
100
AcDbEntity
  8
0
  6
Continuous
 62
   174
100
AcDbCircle
 10
271.333211
 20
190.789722
 30
0.0
 40
8.0
100
AcDbArc
 50
-30.903581
 51
174.513493
  0
ARC
  5
E8
100
AcDbEntity
  8
0
  6
HIDDEN
 62
   174
100
AcDbCircle
 10
233.046601
 20
177.931974
 30
0.0
 40
3.0
100
AcDbArc
 50
296.611392
 51
319.068497
  0
LINE
  5
E9
100
AcDbEntity
  8
0
  6
HIDDEN
 62
   174
100
AcDbLine
 10
226.046601
 20
175.59934
 30
0.0
 11
225.494208
 21
168.433832
 31
0.0
  0
LINE
  5
EA
100
AcDbEntity
  8
0
  6
HIDDEN
 62
   174
100
AcDbLine
 10
251.072102
 20
166.931974
 30
0.0
 11
247.072177
 21
166.931974
 31
0.0
  0
ARC
  5
EB
100
AcDbEntity
  8
0
  6
Continuous
 62
   174
100
AcDbCircle
 10
271.333211
 20
190.789722
 30
0.0
 40
3.0
100
AcDbArc
 50
163.644818
 51
168.125662
  0
ARC
  5
EC
100
AcDbEntity
  8
0
  6
HIDDEN
 62
   174
100
AcDbCircle
 10
233.046601
 20
177.931974
 30
0.0
 40
3.0
100
AcDbArc
 50
49.196962
 51
64.784971
  0
LINE
  5
ED
100
AcDbEntity
  8
0
  6
Continuous
 62
   174
100
AcDbLine
 10
275.818745
 20
210.911352
 30
0.0
 11
280.144458
 21
187.029597
 31
0.0
  0
ARC
  5
EE
100
AcDbEntity
  8
0
  6
HIDDEN
 62
   174
100
AcDbCircle
 10
233.046601
 20
177.931974
 30
0.0
 40
3.0
100
AcDbArc
 50
222.447009
 51
229.196962
  0
ARC
  5
EF
100
AcDbEntity
  8
0
  6
HIDDEN
 62
   174
100
AcDbCircle
 10
233.046601
 20
177.931974
 30
0.0
 40
3.0
100
AcDbArc
 50
163.64234
 51
168.118711
  0
LINE
  5
F0
100
AcDbEntity
  8
0
  6
HIDDEN
 62
   174
100
AcDbLine
 10
246.87363
 20
174.338839
 30
0.0
 11
251.018064
 21
175.089522
 31
0.0
  0
ARC
  5
F1
100
AcDbEntity
  8
0
  6
HIDDEN
 62
   174
100
AcDbCircle
 10
267.946835
 20
209.485509
 30
0.0
 40
8.0
100
AcDbArc
 50
-349.733303
 51
-169.733303
  0
ARC
  5
F2
100
AcDbEntity
  8
0
  6
Continuous
 62
   174
100
AcDbCircle
 10
267.946835
 20
209.485509
 30
0.0
 40
2.0
100
AcDbArc
 50
-14.287228
 51
-12.857143
  0
ARC
  5
F3
100
AcDbEntity
  8
0
  6
HIDDEN
 62
   174
100
AcDbCircle
 10
271.333211
 20
190.789722
 30
0.0
 40
3.0
100
AcDbArc
 50
314.74359
 51
349.787744
  0
LINE
  5
F4
100
AcDbEntity
  8
0
  6
HIDDEN
 62
   174
100
AcDbLine
 10
238.046601
 20
119.931974
 30
0.0
 11
226.046601
 21
119.931974
 31
0.0
  0
ARC
  5
F5
100
AcDbEntity
  8
0
  6
Continuous
 62
   174
100
AcDbCircle
 10
267.946835
 20
209.485509
 30
0.0
 40
2.0
100
AcDbArc
 50
-79.69843
 51
-65.727593
  0
ARC
  5
F6
100
AcDbEntity
  8
0
  6
Continuous
 62
   174
100
AcDbCircle
 10
267.946835
 20
209.485509
 30
0.0
 40
9.6
100
AcDbArc
 50
88.266697
 51
196.267106
  0
LINE
  5
F7
100
AcDbEntity
  8
0
  6
Continuous
 62
   174
100
AcDbLine
 10
248.714805
 20
174.097125
 30
0.0
 11
247.840619
 21
174.097125
 31
0.0
  0
ARC
  5
F8
100
AcDbEntity
  8
0
  6
Continuous
 62
   174
100
AcDbCircle
 10
271.333211
 20
190.789722
 30
0.0
 40
3.0
100
AcDbArc
 50
215.873765
 51
222.376765
  0
LINE
  5
F9
100
AcDbEntity
  8
0
  6
Continuous
 62
   174
100
AcDbLine
 10
226.046601
 20
168.533887
 30
0.0
 11
225.494208
 21
168.433832
 31
0.0
  0
LINE
  5
FA
100
AcDbEntity
  8
0
  6
HIDDEN
 62
   174
100
AcDbLine
 10
251.072102
 20
174.097125
 30
0.0
 11
247.072177
 21
174.097125
 31
0.0
  0
ARC
  5
FB
100
AcDbEntity
  8
0
  6
Continuous
 62
   174
100
AcDbCircle
 10
233.046601
 20
177.931974
 30
0.0
 40
3.0
100
AcDbArc
 50
90.0
 51
115.762281
  0
ARC
  5
FC
100
AcDbEntity
  8
0
  6
HIDDEN
 62
   174
100
AcDbCircle
 10
233.046601
 20
177.931974
 30
0.0
 40
3.0
100
AcDbArc
 50
319.094139
 51
324.175177
  0
ARC
  5
FD
100
AcDbEntity
  8
0
  6
Continuous
 62
   174
100
AcDbCircle
 10
267.946835
 20
209.485509
 30
0.0
 40
2.0
100
AcDbArc
 50
-348.463299
 51
-334.951368
  0
ARC
  5
FE
100
AcDbEntity
  8
0
  6
HIDDEN
 62
   174
100
AcDbCircle
 10
271.333211
 20
190.789722
 30
0.0
 40
3.0
100
AcDbArc
 50
117.786449
 51
134.760364
  0
ARC
  5
FF
100
AcDbEntity
  8
0
  6
HIDDEN
 62
   174
100
AcDbCircle
 10
233.046601
 20
177.931974
 30
0.0
 40
3.0
100
AcDbArc
 50
116.611392
 51
139.068497
  0
LINE
  5
100
100
AcDbEntity
  8
0
  6
Continuous
 62
   174
100
AcDbLine
 10
265.569417
 20
177.725215
 30
0.0
 11
246.87363
 21
174.338839
 31
0.0
  0
ARC
  5
101
100
AcDbEntity
  8
0
  6
Continuous
 62
   174
100
AcDbCircle
 10
267.946835
 20
209.485509
 30
0.0
 40
2.0
100
AcDbArc
 50
-259.69843
 51
-245.727593
  0
ARC
  5
102
100
AcDbEntity
  8
0
  6
Continuous
 62
   174
100
AcDbCircle
 10
267.946835
 20
209.485509
 30
0.0
 40
9.6
100
AcDbArc
 50
337.3002
 51
358.266697
  0
ARC
  5
103
100
AcDbEntity
  8
0
  6
HIDDEN
 62
   174
100
AcDbCircle
 10
267.946835
 20
209.485509
 30
0.0
 40
9.6
100
AcDbArc
 50
-91.733303
 51
88.266697
  0
LINE
  5
104
100
AcDbEntity
  8
0
  6
HIDDEN
 62
   174
100
AcDbLine
 10
226.046601
 20
184.924445
 30
0.0
 11
226.046601
 21
175.59934
 31
0.0
  0
ARC
  5
105
100
AcDbEntity
  8
0
  6
HIDDEN
 62
   174
100
AcDbCircle
 10
271.333211
 20
190.789722
 30
0.0
 40
3.0
100
AcDbArc
 50
82.736488
 51
134.74359
  0
ARC
  5
106
100
AcDbEntity
  8
0
  6
Continuous
 62
   174
100
AcDbCircle
 10
271.333211
 20
190.789722
 30
0.0
 40
3.0
100
AcDbArc
 50
17.570613
 51
35.873765
  0
ARC
  5
107
100
AcDbEntity
  8
0
  6
Continuous
 62
   174
100
AcDbCircle
 10
271.333211
 20
190.789722
 30
0.0
 40
3.0
100
AcDbArc
 50
62.445806
 51
82.736488
  0
ARC
  5
108
100
AcDbEntity
  8
0
  6
HIDDEN
 62
   174
100
AcDbCircle
 10
233.046601
 20
177.931974
 30
0.0
 40
3.0
100
AcDbArc
 50
343.64234
 51
348.118711
  0
ARC
  5
109
100
AcDbEntity
  8
0
  6
HIDDEN
 62
   174
100
AcDbCircle
 10
233.046601
 20
177.931974
 30
0.0
 40
3.0
100
AcDbArc
 50
163.64234
 51
168.118711
  0
LINE
  5
10A
100
AcDbEntity
  8
0
  6
HIDDEN
 62
   174
100
AcDbLine
 10
276.046601
 20
139.173346
 30
0.0
 11
276.046601
 21
130.773954
 31
0.0
  0
LINE
  5
10B
100
AcDbEntity
  8
0
  6
HIDDEN
 62
   174
100
AcDbLine
 10
275.818745
 20
210.911352
 30
0.0
 11
280.949752
 21
182.583661
 31
0.0
  0
LINE
  5
10C
100
AcDbEntity
  8
0
  6
HIDDEN
 62
   174
100
AcDbLine
 10
240.046601
 20
168.531974
 30
0.0
 11
226.046601
 21
168.531974
 31
0.0
  0
ARC
  5
10D
100
AcDbEntity
  8
0
  6
Continuous
 62
   174
100
AcDbCircle
 10
233.046601
 20
177.931974
 30
0.0
 40
3.0
100
AcDbArc
 50
38.599794
 51
64.237719
  0
ARC
  5
10E
100
AcDbEntity
  8
0
  6
HIDDEN
 62
   174
100
AcDbCircle
 10
233.046601
 20
177.931974
 30
0.0
 40
3.0
100
AcDbArc
 50
270.0
 51
296.611392
  0
ARC
  5
10F
100
AcDbEntity
  8
0
  6
Continuous
 62
   174
100
AcDbCircle
 10
271.333211
 20
190.789722
 30
0.0
 40
3.0
100
AcDbArc
 50
144.23164
 51
163.644818
  0
ARC
  5
110
100
AcDbEntity
  8
0
  6
HIDDEN
 62
   174
100
AcDbCircle
 10
233.046601
 20
177.931974
 30
0.0
 40
3.0
100
AcDbArc
 50
42.447009
 51
49.196962
  0
LINE
  5
111
100
AcDbEntity
  8
0
  6
HIDDEN
 62
   174
100
AcDbLine
 10
226.046601
 20
185.931974
 30
0.0
 11
232.327926
 21
185.931974
 31
0.0
  0
LINE
  5
112
100
AcDbEntity
  8
0
  6
HIDDEN
 62
   174
100
AcDbLine
 10
238.046601
 20
119.931974
 30
0.0
 11
226.046601
 21
119.931974
 31
0.0
  0
ARC
  5
113
100
AcDbEntity
  8
0
  6
Continuous
 62
   174
100
AcDbCircle
 10
267.946835
 20
209.485509
 30
0.0
 40
2.0
100
AcDbArc
 50
-206.001039
 51
-194.287228
  0
LINE
  5
114
100
AcDbEntity
  8
0
  6
HIDDEN
 62
   174
100
AcDbLine
 10
272.759053
 20
182.917812
 30
0.0
 11
264.887143
 21
181.491969
 31
0.0
  0
ARC
  5
115
100
AcDbEntity
  8
0
  6
HIDDEN
 62
   174
100
AcDbCircle
 10
233.046601
 20
177.931974
 30
0.0
 40
3.0
100
AcDbArc
 50
215.919988
 51
222.447009
  0
ARC
  5
116
100
AcDbEntity
  8
0
  6
HIDDEN
 62
   174
100
AcDbCircle
 10
233.046601
 20
177.931974
 30
0.0
 40
3.0
100
AcDbArc
 50
144.175177
 51
163.64234
  0
LINE
  5
117
100
AcDbEntity
  8
0
  6
HIDDEN
 62
   174
100
AcDbLine
 10
239.801409
 20
187.285649
 30
0.0
 11
232.327926
 21
185.931974
 31
0.0
  0
ARC
  5
118
100
AcDbEntity
  8
0
  6
Continuous
 62
   174
100
AcDbCircle
 10
267.946835
 20
209.485509
 30
0.0
 40
2.0
100
AcDbArc
 50
-12.857143
 51
-0.817696
  0
ARC
  5
119
100
AcDbEntity
  8
0
  6
HIDDEN
 62
   174
100
AcDbCircle
 10
271.333211
 20
190.789722
 30
0.0
 40
3.0
100
AcDbArc
 50
331.341456
 51
349.607133
  0
ARC
  5
11A
100
AcDbEntity
  8
0
  6
HIDDEN
 62
   174
100
AcDbCircle
 10
271.333211
 20
190.789722
 30
0.0
 40
3.0
100
AcDbArc
 50
190.266697
 51
314.74359
  0
ARC
  5
11B
100
AcDbEntity
  8
0
  6
HIDDEN
 62
   174
100
AcDbCircle
 10
271.333211
 20
190.789722
 30
0.0
 40
8.0
100
AcDbArc
 50
46.127812
 51
71.804994
  0
ARC
  5
11C
100
AcDbEntity
  8
0
  6
HIDDEN
 62
   174
100
AcDbCircle
 10
267.946835
 20
209.485509
 30
0.0
 40
10.0
100
AcDbArc
 50
226.243893
 51
268.266697
  0
ARC
  5
11D
100
AcDbEntity
  8
0
  6
Continuous
 62
   174
100
AcDbCircle
 10
267.946835
 20
209.485509
 30
0.0
 40
9.6
100
AcDbArc
 50
16.267106
 51
88.266697
  0
LINE
  5
11E
100
AcDbEntity
  8
0
  6
Continuous
 62
   174
100
AcDbLine
 10
249.83983
 20
174.097125
 30
0.0
 11
248.714805
 21
174.097125
 31
0.0
  0
LINE
  5
11F
100
AcDbEntity
  8
0
  6
Continuous
 62
   174
100
AcDbLine
 10
226.046601
 20
185.931974
 30
0.0
 11
226.046601
 21
97.931974
 31
0.0
  0
ARC
  5
120
100
AcDbEntity
  8
0
  6
Continuous
 62
   174
100
AcDbCircle
 10
235.046601
 20
149.931974
 30
0.0
 40
7.5
100
AcDbArc
 50
90.0
 51
270.0
  0
LINE
  5
121
100
AcDbEntity
  8
0
  6
HIDDEN
 62
   174
100
AcDbLine
 10
255.072327
 20
166.931974
 30
0.0
 11
251.072102
 21
166.931974
 31
0.0
  0
ARC
  5
122
100
AcDbEntity
  8
0
  6
HIDDEN
 62
   174
100
AcDbCircle
 10
233.046601
 20
177.931974
 30
0.0
 40
3.0
100
AcDbArc
 50
297.796907
 51
319.094139
  0
ARC
  5
123
100
AcDbEntity
  8
0
  6
HIDDEN
 62
   174
100
AcDbCircle
 10
233.046601
 20
177.931974
 30
0.0
 40
3.0
100
AcDbArc
 50
93.206661
 51
113.36306
  0
LINE
  5
124
100
AcDbEntity
  8
0
  6
HIDDEN
 62
   174
100
AcDbLine
 10
238.046601
 20
129.131974
 30
0.0
 11
226.046601
 21
129.131974
 31
0.0
  0
ARC
  5
125
100
AcDbEntity
  8
0
  6
Continuous
 62
   174
100
AcDbCircle
 10
267.946835
 20
209.485509
 30
0.0
 40
2.0
100
AcDbArc
 50
-334.951368
 51
-322.649184
  0
LINE
  5
126
100
AcDbEntity
  8
0
  6
Continuous
 62
   174
100
AcDbLine
 10
240.114191
 20
177.992604
 30
0.0
 11
241.326157
 21
171.30148
 31
0.0
  0
ARC
  5
127
100
AcDbEntity
  8
0
  6
HIDDEN
 62
   174
100
AcDbCircle
 10
271.333211
 20
190.789722
 30
0.0
 40
3.0
100
AcDbArc
 50
100.266697
 51
117.786449
  0
ARC
  5
128
100
AcDbEntity
  8
0
  6
HIDDEN
 62
   174
100
AcDbCircle
 10
233.046601
 20
177.931974
 30
0.0
 40
3.0
100
AcDbArc
 50
90.0
 51
116.611392
  0
ARC
  5
129
100
AcDbEntity
  8
0
  6
HIDDEN
 62
   174
100
AcDbCircle
 10
233.046601
 20
177.931974
 30
0.0
 40
3.0
100
AcDbArc
 50
293.36306
 51
297.796907
  0
LINE
  5
12A
100
AcDbEntity
  8
0
  6
HIDDEN
 62
   174
100
AcDbLine
 10
261.046601
 20
130.773954
 30
0.0
 11
261.046601
 21
139.173346
 31
0.0
  0
ARC
  5
12B
100
AcDbEntity
  8
0
  6
Continuous
 62
   174
100
AcDbCircle
 10
267.946835
 20
209.485509
 30
0.0
 40
2.0
100
AcDbArc
 50
-245.727593
 51
-234.035407
  0
ARC
  5
12C
100
AcDbEntity
  8
0
  6
HIDDEN
 62
   174
100
AcDbCircle
 10
271.333211
 20
190.789722
 30
0.0
 40
3.0
100
AcDbArc
 50
65.789805
 51
82.736488
  0
ARC
  5
12D
100
AcDbEntity
  8
0
  6
Continuous
 62
   174
100
AcDbCircle
 10
271.333211
 20
190.789722
 30
0.0
 40
3.0
100
AcDbArc
 50
10.266697
 51
17.570613
  0
ARC
  5
12E
100
AcDbEntity
  8
0
  6
Continuous
 62
   174
100
AcDbCircle
 10
271.333211
 20
190.789722
 30
0.0
 40
3.0
100
AcDbArc
 50
42.376765
 51
62.445806
  0
ARC
  5
12F
100
AcDbEntity
  8
0
  6
HIDDEN
 62
   174
100
AcDbCircle
 10
233.046601
 20
177.931974
 30
0.0
 40
3.0
100
AcDbArc
 50
324.175177
 51
343.64234
  0
ARC
  5
130
100
AcDbEntity
  8
0
  6
HIDDEN
 62
   174
100
AcDbCircle
 10
233.046601
 20
177.931974
 30
0.0
 40
3.0
100
AcDbArc
 50
144.175177
 51
163.64234
  0
LINE
  5
131
100
AcDbEntity
  8
0
  6
HIDDEN
 62
   174
100
AcDbLine
 10
276.046601
 20
119.174623
 30
0.0
 11
276.046601
 21
110.775232
 31
0.0
  0
LINE
  5
132
100
AcDbEntity
  8
0
  6
HIDDEN
 62
   174
100
AcDbLine
 10
265.778294
 20
176.572025
 30
0.0
 11
280.949752
 21
182.583661
 31
0.0
  0
ARC
  5
133
100
AcDbEntity
  8
0
  6
Continuous
 62
   174
100
AcDbCircle
 10
267.946835
 20
209.485509
 30
0.0
 40
8.0
100
AcDbArc
 50
-349.733303
 51
-169.733303
  0
LINE
  5
134
100
AcDbEntity
  8
0
  6
Continuous
 62
   174
100
AcDbLine
 10
265.569417
 20
177.725215
 30
0.0
 11
246.87363
 21
174.338839
 31
0.0
  0
ARC
  5
135
100
AcDbEntity
  8
0
  6
Continuous
 62
   174
100
AcDbCircle
 10
233.046601
 20
177.931974
 30
0.0
 40
3.0
100
AcDbArc
 50
12.86204
 51
38.599794
  0
ARC
  5
136
100
AcDbEntity
  8
0
  6
HIDDEN
 62
   174
100
AcDbCircle
 10
233.046601
 20
177.931974
 30
0.0
 40
3.0
100
AcDbArc
 50
244.803282
 51
270.0
  0
LINE
  5
137
100
AcDbEntity
  8
0
  6
Continuous
 62
   174
100
AcDbLine
 10
255.046601
 20
166.931974
 30
0.0
 11
255.046601
 21
174.097125
 31
0.0
  0
ARC
  5
138
100
AcDbEntity
  8
0
  6
Continuous
 62
   174
100
AcDbCircle
 10
271.333211
 20
190.789722
 30
0.0
 40
3.0
100
AcDbArc
 50
139.147784
 51
144.23164
  0
ARC
  5
139
100
AcDbEntity
  8
0
  6
HIDDEN
 62
   174
100
AcDbCircle
 10
233.046601
 20
177.931974
 30
0.0
 40
3.0
100
AcDbArc
 50
35.919988
 51
42.447009
  0
ARC
  5
13A
100
AcDbEntity
  8
0
  6
Continuous
 62
   174
100
AcDbCircle
 10
267.946835
 20
209.485509
 30
0.0
 40
2.0
100
AcDbArc
 50
-194.287228
 51
-192.857143
  0
ARC
  5
13B
100
AcDbEntity
  8
0
  6
HIDDEN
 62
   174
100
AcDbCircle
 10
233.046601
 20
177.931974
 30
0.0
 40
3.0
100
AcDbArc
 50
139.094139
 51
144.175177
  0
LINE
  5
13C
100
AcDbEntity
  8
0
  6
HIDDEN
 62
   174
100
AcDbLine
 10
246.445877
 20
176.700412
 30
0.0
 11
246.018124
 21
179.061986
 31
0.0
  0
ARC
  5
13D
100
AcDbEntity
  8
0
  6
Continuous
 62
   174
100
AcDbCircle
 10
267.046601
 20
149.931974
 30
0.0
 40
4.5
100
AcDbArc
 50
-90.0
 51
90.0
  0
ARC
  5
13E
100
AcDbEntity
  8
0
  6
HIDDEN
 62
   174
100
AcDbCircle
 10
271.333211
 20
190.789722
 30
0.0
 40
3.0
100
AcDbArc
 50
65.773031
 51
82.746946
  0
ARC
  5
13F
100
AcDbEntity
  8
0
  6
HIDDEN
 62
   174
100
AcDbCircle
 10
271.333211
 20
190.789722
 30
0.0
 40
3.0
100
AcDbArc
 50
229.191939
 51
245.773031
  0
LINE
  5
140
100
AcDbEntity
  8
0
  6
HIDDEN
 62
   174
100
AcDbLine
 10
241.326157
 20
171.30148
 30
0.0
 11
240.046601
 21
171.069713
 31
0.0
  0
LINE
  5
141
100
AcDbEntity
  8
0
  6
HIDDEN
 62
   174
100
AcDbLine
 10
238.046601
 20
120.731974
 30
0.0
 11
226.046601
 21
120.731974
 31
0.0
  0
ARC
  5
142
100
AcDbEntity
  8
0
  6
Continuous
 62
   174
100
AcDbCircle
 10
267.946835
 20
209.485509
 30
0.0
 40
2.0
100
AcDbArc
 50
-0.817696
 51
11.536701
  0
ARC
  5
143
100
AcDbEntity
  8
0
  6
Continuous
 62
   174
100
AcDbCircle
 10
271.333211
 20
190.789722
 30
0.0
 40
8.0
100
AcDbArc
 50
280.266697
 51
329.096419
  0
ARC
  5
144
100
AcDbEntity
  8
0
  6
HIDDEN
 62
   174
100
AcDbCircle
 10
271.333211
 20
190.789722
 30
0.0
 40
3.0
100
AcDbArc
 50
314.760364
 51
331.341456
  0
LINE
  5
145
100
AcDbEntity
  8
0
  6
HIDDEN
 62
   174
100
AcDbLine
 10
263.369861
 20
191.554613
 30
0.0
 11
239.801409
 21
187.285649
 31
0.0
  0
ARC
  5
146
100
AcDbEntity
  8
0
  6
HIDDEN
 62
   174
100
AcDbCircle
 10
271.333211
 20
190.789722
 30
0.0
 40
8.0
100
AcDbArc
 50
148.836325
 51
174.513493
  0
ARC
  5
147
100
AcDbEntity
  8
0
  6
HIDDEN
 62
   174
100
AcDbCircle
 10
271.333211
 20
190.789722
 30
0.0
 40
8.0
100
AcDbArc
 50
20.450654
 51
46.127812
  0
ARC
  5
148
100
AcDbEntity
  8
0
  6
Continuous
 62
   174
100
AcDbCircle
 10
267.946835
 20
209.485509
 30
0.0
 40
2.0
100
AcDbArc
 50
-271.201339
 51
-270.0
  0
ARC
  5
149
100
AcDbEntity
  8
0
  6
Continuous
 62
   174
100
AcDbCircle
 10
267.946835
 20
209.485509
 30
0.0
 40
2.0
100
AcDbArc
 50
-141.428571
 51
-127.735644
  0
LINE
  5
14A
100
AcDbEntity
  8
0
  6
Continuous
 62
   174
100
AcDbLine
 10
251.072102
 20
174.097125
 30
0.0
 11
249.83983
 21
174.097125
 31
0.0
  0
ARC
  5
14B
100
AcDbEntity
  8
0
  6
Continuous
 62
   174
100
AcDbCircle
 10
271.333211
 20
190.789722
 30
0.0
 40
3.0
100
AcDbArc
 50
280.266697
 51
293.180961
  0
LINE
  5
14C
100
AcDbEntity
  8
0
  6
Continuous
 62
   174
100
AcDbLine
 10
226.046601
 20
97.931974
 30
0.0
 11
276.046601
 21
97.931974
 31
0.0
  0
ARC
  5
14D
100
AcDbEntity
  8
0
  6
HIDDEN
 62
   174
100
AcDbCircle
 10
271.333211
 20
190.789722
 30
0.0
 40
3.0
100
AcDbArc
 50
-10.392867
 51
10.266697
  0
ARC
  5
14E
100
AcDbEntity
  8
0
  6
HIDDEN
 62
   174
100
AcDbCircle
 10
233.046601
 20
177.931974
 30
0.0
 40
3.0
100
AcDbArc
 50
87.403324
 51
93.206661
  0
ARC
  5
14F
100
AcDbEntity
  8
0
  6
Continuous
 62
   174
100
AcDbCircle
 10
267.946835
 20
209.485509
 30
0.0
 40
2.0
100
AcDbArc
 50
-322.649184
 51
-321.428571
  0
ARC
  5
150
100
AcDbEntity
  8
0
  6
Continuous
 62
   174
100
AcDbCircle
 10
251.046601
 20
164.931974
 30
0.0
 40
10.0
100
AcDbArc
 50
-293.578178
 51
-270.0
  0
LINE
  5
151
100
AcDbEntity
  8
0
  6
HIDDEN
 62
   174
100
AcDbLine
 10
255.072327
 20
174.097125
 30
0.0
 11
251.072102
 21
174.097125
 31
0.0
  0
ARC
  5
152
100
AcDbEntity
  8
0
  6
HIDDEN
 62
   174
100
AcDbCircle
 10
271.333211
 20
190.789722
 30
0.0
 40
3.0
100
AcDbArc
 50
82.746946
 51
100.266697
  0
ARC
  5
153
100
AcDbEntity
  8
0
  6
HIDDEN
 62
   174
100
AcDbCircle
 10
233.046601
 20
177.931974
 30
0.0
 40
3.0
100
AcDbArc
 50
273.206661
 51
293.36306
  0
LINE
  5
154
100
AcDbEntity
  8
0
  6
HIDDEN
 62
   174
100
AcDbLine
 10
238.046601
 20
120.731974
 30
0.0
 11
226.046601
 21
120.731974
 31
0.0
  0
ARC
  5
155
100
AcDbEntity
  8
0
  6
Continuous
 62
   174
100
AcDbCircle
 10
267.946835
 20
209.485509
 30
0.0
 40
2.0
100
AcDbArc
 50
-234.035407
 51
-220.317051
  0
LINE
  5
156
100
AcDbEntity
  8
0
  6
Continuous
 62
   174
100
AcDbLine
 10
246.018124
 20
179.061986
 30
0.0
 11
240.114191
 21
177.992604
 31
0.0
  0
ARC
  5
157
100
AcDbEntity
  8
0
  6
HIDDEN
 62
   174
100
AcDbCircle
 10
233.046601
 20
177.931974
 30
0.0
 40
3.0
100
AcDbArc
 50
64.803282
 51
90.0
  0
ARC
  5
158
100
AcDbEntity
  8
0
  6
HIDDEN
 62
   174
100
AcDbCircle
 10
271.333211
 20
190.789722
 30
0.0
 40
3.0
100
AcDbArc
 50
49.196962
 51
65.789805
  0
ARC
  5
159
100
AcDbEntity
  8
0
  6
Continuous
 62
   174
100
AcDbCircle
 10
271.333211
 20
190.789722
 30
0.0
 40
3.0
100
AcDbArc
 50
-11.874338
 51
10.266697
  0
ARC
  5
15A
100
AcDbEntity
  8
0
  6
Continuous
 62
   174
100
AcDbCircle
 10
271.333211
 20
190.789722
 30
0.0
 40
3.0
100
AcDbArc
 50
35.873765
 51
42.376765
  0
ARC
  5
15B
100
AcDbEntity
  8
0
  6
HIDDEN
 62
   174
100
AcDbCircle
 10
233.046601
 20
177.931974
 30
0.0
 40
3.0
100
AcDbArc
 50
319.094139
 51
324.175177
  0
ARC
  5
15C
100
AcDbEntity
  8
0
  6
HIDDEN
 62
   174
100
AcDbCircle
 10
233.046601
 20
177.931974
 30
0.0
 40
3.0
100
AcDbArc
 50
139.094139
 51
144.175177
  0
LINE
  5
15D
100
AcDbEntity
  8
0
  6
Continuous
 62
   174
100
AcDbLine
 10
226.046601
 20
175.59934
 30
0.0
 11
225.494208
 21
168.433832
 31
0.0
  0
ARC
  5
15E
100
AcDbEntity
  8
0
  6
Continuous
 62
   174
100
AcDbCircle
 10
233.046601
 20
177.931974
 30
0.0
 40
3.0
100
AcDbArc
 50
-12.86204
 51
12.86204
  0
ARC
  5
15F
100
AcDbEntity
  8
0
  6
HIDDEN
 62
   174
100
AcDbCircle
 10
233.046601
 20
177.931974
 30
0.0
 40
3.0
100
AcDbArc
 50
218.628871
 51
244.803282
  0
ARC
  5
160
100
AcDbEntity
  8
0
  6
Continuous
 62
   174
100
AcDbCircle
 10
271.333211
 20
190.789722
 30
0.0
 40
3.0
100
AcDbArc
 50
113.180961
 51
139.147784
  0
ARC
  5
161
100
AcDbEntity
  8
0
  6
Continuous
 62
   174
100
AcDbCircle
 10
267.946835
 20
209.485509
 30
0.0
 40
2.0
100
AcDbArc
 50
-192.857143
 51
-180.817696
  0
ARC
  5
162
100
AcDbEntity
  8
0
  6
HIDDEN
 62
   174
100
AcDbCircle
 10
233.046601
 20
177.931974
 30
0.0
 40
3.0
100
AcDbArc
 50
293.36306
 51
297.796907
  0
ARC
  5
163
100
AcDbEntity
  8
0
  6
HIDDEN
 62
   174
100
AcDbCircle
 10
233.046601
 20
177.931974
 30
0.0
 40
3.0
100
AcDbArc
 50
117.796907
 51
139.094139
  0
LINE
  5
164
100
AcDbEntity
  8
0
  6
Continuous
 62
   174
100
AcDbLine
 10
260.074924
 20
208.059667
 30
0.0
 11
263.074192
 21
191.501058
 31
0.0
  0
ARC
  5
165
100
AcDbEntity
  8
0
  6
Continuous
 62
   174
100
AcDbCircle
 10
267.046601
 20
149.931974
 30
0.0
 40
4.5
100
AcDbArc
 50
90.0
 51
270.0
  0
LINE
  5
166
100
AcDbEntity
  8
0
  6
HIDDEN
 62
   174
100
AcDbLine
 10
240.046601
 20
185.931974
 30
0.0
 11
240.046601
 21
177.992604
 31
0.0
  0
ARC
  5
167
100
AcDbEntity
  8
0
  6
HIDDEN
 62
   174
100
AcDbCircle
 10
271.333211
 20
190.789722
 30
0.0
 40
3.0
100
AcDbArc
 50
49.191939
 51
65.773031
  0
ARC
  5
168
100
AcDbEntity
  8
0
  6
HIDDEN
 62
   174
100
AcDbCircle
 10
271.333211
 20
190.789722
 30
0.0
 40
3.0
100
AcDbArc
 50
210.926262
 51
229.191939
  0
ARC
  5
169
100
AcDbEntity
  8
0
  6
Continuous
 62
   174
100
AcDbCircle
 10
233.046601
 20
177.931974
 30
0.0
 40
3.0
100
AcDbArc
 50
64.237719
 51
90.0
  0
LINE
  5
16A
100
AcDbEntity
  8
0
  6
HIDDEN
 62
   174
100
AcDbLine
 10
240.046601
 20
171.069713
 30
0.0
 11
226.046601
 21
168.533887
 31
0.0
  0
ARC
  5
16B
100
AcDbEntity
  8
0
  6
HIDDEN
 62
   174
100
AcDbCircle
 10
271.333211
 20
190.789722
 30
0.0
 40
8.0
100
AcDbArc
 50
-5.226517
 51
20.450654
  0
ARC
  5
16C
100
AcDbEntity
  8
0
  6
HIDDEN
 62
   174
100
AcDbCircle
 10
271.333211
 20
190.789722
 30
0.0
 40
8.0
100
AcDbArc
 50
123.159172
 51
148.836325
  0
ARC
  5
16D
100
AcDbEntity
  8
0
  6
Continuous
 62
   174
100
AcDbCircle
 10
267.946835
 20
209.485509
 30
0.0
 40
2.0
100
AcDbArc
 50
-127.735644
 51
-116.609472
  0
ARC
  5
16E
100
AcDbEntity
  8
0
  6
Continuous
 62
   174
100
AcDbCircle
 10
267.946835
 20
209.485509
 30
0.0
 40
10.0
100
AcDbArc
 50
88.266697
 51
195.890552
  0
ARC
  5
16F
100
AcDbEntity
  8
0
  6
Continuous
 62
   174
100
AcDbCircle
 10
267.946835
 20
209.485509
 30
0.0
 40
10.0
100
AcDbArc
 50
195.890552
 51
226.243893
  0
LINE
  5
170
100
AcDbEntity
  8
0
  6
HIDDEN
 62
   174
100
AcDbLine
 10
240.046601
 20
171.069713
 30
0.0
 11
226.046601
 21
168.533887
 31
0.0
  0
ARC
  5
171
100
AcDbEntity
  8
0
  6
Continuous
 62
   174
100
AcDbCircle
 10
271.333211
 20
190.789722
 30
0.0
 40
3.0
100
AcDbArc
 50
273.220959
 51
280.266697
  0
ARC
  5
172
100
AcDbEntity
  8
0
  6
HIDDEN
 62
   174
100
AcDbCircle
 10
267.946835
 20
209.485509
 30
0.0
 40
10.0
100
AcDbArc
 50
268.266697
 51
334.253601
  0
ARC
  5
173
100
AcDbEntity
  8
0
  6
HIDDEN
 62
   174
100
AcDbCircle
 10
267.946835
 20
209.485509
 30
0.0
 40
9.6
100
AcDbArc
 50
268.266697
 51
337.3002
  0
ARC
  5
174
100
AcDbEntity
  8
0
  6
Continuous
 62
   174
100
AcDbCircle
 10
233.046601
 20
177.931974
 30
0.0
 40
3.0
100
AcDbArc
 50
218.599794
 51
244.237719
  0
ARC
  5
175
100
AcDbEntity
  8
0
  6
HIDDEN
 62
   174
100
AcDbCircle
 10
233.046601
 20
177.931974
 30
0.0
 40
3.0
100
AcDbArc
 50
17.566275
 51
35.919988
  0
ARC
  5
176
100
AcDbEntity
  8
0
  6
HIDDEN
 62
   174
100
AcDbCircle
 10
233.046601
 20
177.931974
 30
0.0
 40
3.0
100
AcDbArc
 50
64.784971
 51
87.403324
  0
LINE
  5
177
100
AcDbEntity
  8
0
  6
HIDDEN
 62
   174
100
AcDbLine
 10
265.212956
 20
179.693193
 30
0.0
 11
246.517169
 21
176.306817
 31
0.0
  0
ARC
  5
178
100
AcDbEntity
  8
0
  6
Continuous
 62
   174
100
AcDbCircle
 10
267.946835
 20
209.485509
 30
0.0
 40
2.0
100
AcDbArc
 50
-321.428571
 51
-307.735644
  0
ARC
  5
179
100
AcDbEntity
  8
0
  6
HIDDEN
 62
   174
100
AcDbCircle
 10
233.046601
 20
177.931974
 30
0.0
 40
3.0
100
AcDbArc
 50
267.403324
 51
273.206661
  0
ARC
  5
17A
100
AcDbEntity
  8
0
  6
Continuous
 62
   174
100
AcDbCircle
 10
267.946835
 20
209.485509
 30
0.0
 40
2.0
100
AcDbArc
 50
-220.317051
 51
-206.001039
  0
LINE
  5
17B
100
AcDbEntity
  8
0
  6
Continuous
 62
   174
100
AcDbLine
 10
226.046601
 20
185.931974
 30
0.0
 11
240.046601
 21
185.931974
 31
0.0
  0
ARC
  5
17C
100
AcDbEntity
  8
0
  6
HIDDEN
 62
   174
100
AcDbCircle
 10
233.046601
 20
177.931974
 30
0.0
 40
3.0
100
AcDbArc
 50
38.628871
 51
64.803282
  0
ARC
  5
17D
100
AcDbEntity
  8
0
  6
HIDDEN
 62
   174
100
AcDbCircle
 10
271.333211
 20
190.789722
 30
0.0
 40
3.0
100
AcDbArc
 50
30.745651
 51
49.196962
  0
ARC
  5
17E
100
AcDbEntity
  8
0
  6
Continuous
 62
   174
100
AcDbCircle
 10
271.333211
 20
190.789722
 30
0.0
 40
3.0
100
AcDbArc
 50
343.644818
 51
348.125662
  0
ARC
  5
17F
100
AcDbEntity
  8
0
  6
HIDDEN
 62
   174
100
AcDbCircle
 10
233.046601
 20
177.931974
 30
0.0
 40
3.0
100
AcDbArc
 50
297.796907
 51
319.094139
  0
ARC
  5
180
100
AcDbEntity
  8
0
  6
HIDDEN
 62
   174
100
AcDbCircle
 10
233.046601
 20
177.931974
 30
0.0
 40
3.0
100
AcDbArc
 50
117.796907
 51
139.094139
  0
LINE
  5
181
100
AcDbEntity
  8
0
  6
Continuous
 62
   174
100
AcDbLine
 10
241.326157
 20
171.30148
 30
0.0
 11
240.046601
 21
171.069713
 31
0.0
  0
ARC
  5
182
100
AcDbEntity
  8
0
  6
Continuous
 62
   174
100
AcDbCircle
 10
233.046601
 20
177.931974
 30
0.0
 40
3.0
100
AcDbArc
 50
321.400206
 51
347.13796
  0
ARC
  5
183
100
AcDbEntity
  8
0
  6
HIDDEN
 62
   174
100
AcDbCircle
 10
233.046601
 20
177.931974
 30
0.0
 40
3.0
100
AcDbArc
 50
197.286771
 51
218.628871
  0
ARC
  5
184
100
AcDbEntity
  8
0
  6
HIDDEN
 62
   174
100
AcDbCircle
 10
233.046601
 20
177.931974
 30
0.0
 40
3.0
100
AcDbArc
 50
113.36306
 51
117.796907
  0
LINE
  5
185
100
AcDbEntity
  8
0
  6
HIDDEN
 62
   174
100
AcDbLine
 10
260.074924
 20
208.059667
 30
0.0
 11
265.778294
 21
176.572025
 31
0.0
  0
LINE
  5
186
100
AcDbEntity
  8
0
  6
HIDDEN
 62
   174
100
AcDbLine
 10
226.046601
 20
129.973969
 30
0.0
 11
226.046601
 21
119.974608
 31
0.0
  0
LINE
  5
187
100
AcDbEntity
  8
0
  6
HIDDEN
 62
   174
100
AcDbLine
 10
226.046601
 20
120.731974
 30
0.0
 11
241.046601
 21
120.731974
 31
0.0
  0
ARC
  5
188
100
AcDbEntity
  8
0
  6
Continuous
 62
   174
100
AcDbCircle
 10
267.946835
 20
209.485509
 30
0.0
 40
2.0
100
AcDbArc
 50
-180.817696
 51
-168.463299
  0
ARC
  5
189
100
AcDbEntity
  8
0
  6
HIDDEN
 62
   174
100
AcDbCircle
 10
271.333211
 20
190.789722
 30
0.0
 40
3.0
100
AcDbArc
 50
-169.733303
 51
10.266697
  0
ARC
  5
18A
100
AcDbEntity
  8
0
  6
HIDDEN
 62
   174
100
AcDbCircle
 10
233.046601
 20
177.931974
 30
0.0
 40
3.0
100
AcDbArc
 50
273.206661
 51
293.36306
  0
ARC
  5
18B
100
AcDbEntity
  8
0
  6
HIDDEN
 62
   174
100
AcDbCircle
 10
233.046601
 20
177.931974
 30
0.0
 40
3.0
100
AcDbArc
 50
113.36306
 51
117.796907
  0
LINE
  5
18C
100
AcDbEntity
  8
0
  6
Continuous
 62
   174
100
AcDbLine
 10
280.144458
 20
187.029597
 30
0.0
 11
280.949752
 21
182.583661
 31
0.0
  0
ARC
  5
18D
100
AcDbEntity
  8
0
  6
Continuous
 62
   174
100
AcDbCircle
 10
267.046601
 20
149.931974
 30
0.0
 40
7.5
100
AcDbArc
 50
-90.0
 51
90.0
  0
ARC
  5
18E
100
AcDbEntity
  8
0
  6
HIDDEN
 62
   174
100
AcDbCircle
 10
271.333211
 20
190.789722
 30
0.0
 40
3.0
100
AcDbArc
 50
30.926262
 51
49.191939
  0
ARC
  5
18F
100
AcDbEntity
  8
0
  6
HIDDEN
 62
   174
100
AcDbCircle
 10
271.333211
 20
190.789722
 30
0.0
 40
3.0
100
AcDbArc
 50
190.266697
 51
210.926262
  0
ARC
  5
190
100
AcDbEntity
  8
0
  6
HIDDEN
 62
   174
100
AcDbCircle
 10
271.333211
 20
190.789722
 30
0.0
 40
3.0
100
AcDbArc
 50
10.266697
 51
190.266697
  0
LINE
  5
191
100
AcDbEntity
  8
0
  6
Continuous
 62
   174
100
AcDbLine
 10
247.046601
 20
166.931974
 30
0.0
 11
247.046601
 21
174.097125
 31
0.0
  0
LINE
  5
192
100
AcDbEntity
  8
0
  6
HIDDEN
 62
   174
100
AcDbLine
 10
226.046601
 20
129.131974
 30
0.0
 11
241.046601
 21
129.131974
 31
0.0
  0
ARC
  5
193
100
AcDbEntity
  8
0
  6
Continuous
 62
   174
100
AcDbCircle
 10
267.946835
 20
209.485509
 30
0.0
 40
2.0
100
AcDbArc
 50
-65.727593
 51
-54.035407
  0
LINE
  5
194
100
AcDbEntity
  8
0
  6
HIDDEN
 62
   174
100
AcDbLine
 10
240.046601
 20
171.069713
 30
0.0
 11
240.046601
 21
168.531974
 31
0.0
  0
ARC
  5
195
100
AcDbEntity
  8
0
  6
HIDDEN
 62
   174
100
AcDbCircle
 10
271.333211
 20
190.789722
 30
0.0
 40
8.0
100
AcDbArc
 50
329.096419
 51
354.773483
  0
ARC
  5
196
100
AcDbEntity
  8
0
  6
HIDDEN
 62
   174
100
AcDbCircle
 10
271.333211
 20
190.789722
 30
0.0
 40
8.0
100
AcDbArc
 50
71.804994
 51
123.159172
  0
LINE
  5
197
100
AcDbEntity
  8
0
  6
HIDDEN
 62
   174
100
AcDbLine
 10
263.074192
 20
191.501058
 30
0.0
 11
264.887143
 21
181.491969
 31
0.0
  0
ARC
  5
198
100
AcDbEntity
  8
0
  6
Continuous
 62
   174
100
AcDbCircle
 10
267.946835
 20
209.485509
 30
0.0
 40
2.0
100
AcDbArc
 50
-116.609472
 51
-105.604671
  0
ARC
  5
199
100
AcDbEntity
  8
0
  6
Continuous
 62
   174
100
AcDbCircle
 10
267.946835
 20
209.485509
 30
0.0
 40
10.0
100
AcDbArc
 50
15.890552
 51
88.266697
  0
LINE
  5
19A
100
AcDbEntity
  8
0
  6
HIDDEN
 62
   174
100
AcDbLine
 10
226.046601
 20
168.533887
 30
0.0
 11
225.494208
 21
168.433832
 31
0.0
  0
ARC
  5
19B
100
AcDbEntity
  8
0
  6
Continuous
 62
   174
100
AcDbCircle
 10
271.333211
 20
190.789722
 30
0.0
 40
3.0
100
AcDbArc
 50
267.394386
 51
273.220959
  0
ARC
  5
19C
100
AcDbEntity
  8
0
  6
Continuous
 62
   174
100
AcDbCircle
 10
233.046601
 20
177.931974
 30
0.0
 40
3.0
100
AcDbArc
 50
192.86204
 51
218.599794
  0
LINE
  5
19D
100
AcDbEntity
  8
0
  6
HIDDEN
 62
   174
100
AcDbLine
 10
232.327926
 20
185.931974
 30
0.0
 11
226.765478
 21
184.924445
 31
0.0
  0
ARC
  5
19E
100
AcDbEntity
  8
0
  6
HIDDEN
 62
   174
100
AcDbCircle
 10
233.046601
 20
177.931974
 30
0.0
 40
3.0
100
AcDbArc
 50
10.266697
 51
17.566275
  0
ARC
  5
19F
100
AcDbEntity
  8
0
  6
HIDDEN
 62
   174
100
AcDbCircle
 10
233.046601
 20
177.931974
 30
0.0
 40
3.0
100
AcDbArc
 50
49.196962
 51
64.784971
  0
LINE
  5
1A0
100
AcDbEntity
  8
0
  6
Continuous
 62
   174
100
AcDbLine
 10
265.20702
 20
179.725964
 30
0.0
 11
265.563483
 21
177.757973
 31
0.0
  0
ARC
  5
1A1
100
AcDbEntity
  8
0
  6
Continuous
 62
   174
100
AcDbCircle
 10
267.946835
 20
209.485509
 30
0.0
 40
2.0
100
AcDbArc
 50
-307.735644
 51
-296.609472
  0
LINE
  5
1A2
100
AcDbEntity
  8
0
  6
HIDDEN
 62
   174
100
AcDbLine
 10
226.765478
 20
184.924445
 30
0.0
 11
226.046601
 21
175.59934
 31
0.0
  0
ARC
  5
1A3
100
AcDbEntity
  8
0
  6
HIDDEN
 62
   174
100
AcDbCircle
 10
233.046601
 20
177.931974
 30
0.0
 40
3.0
100
AcDbArc
 50
191.720366
 51
197.286771
  0
ARC
  5
1A4
100
AcDbEntity
  8
0
  6
HIDDEN
 62
   174
100
AcDbCircle
 10
233.046601
 20
177.931974
 30
0.0
 40
3.0
100
AcDbArc
 50
244.784971
 51
267.403324
  0
LINE
  5
1A5
100
AcDbEntity
  8
0
  6
HIDDEN
 62
   174
100
AcDbLine
 10
251.018064
 20
175.089522
 30
0.0
 11
254.744587
 21
175.764509
 31
0.0
  0
ARC
  5
1A6
100
AcDbEntity
  8
0
  6
HIDDEN
 62
   174
100
AcDbCircle
 10
271.333211
 20
190.789722
 30
0.0
 40
3.0
100
AcDbArc
 50
297.786449
 51
314.760364
  0
ARC
  5
1A7
100
AcDbEntity
  8
0
  6
HIDDEN
 62
   174
100
AcDbCircle
 10
233.046601
 20
177.931974
 30
0.0
 40
3.0
100
AcDbArc
 50
17.286771
 51
38.628871
  0
ARC
  5
1A8
100
AcDbEntity
  8
0
  6
Continuous
 62
   174
100
AcDbCircle
 10
271.333211
 20
190.789722
 30
0.0
 40
3.0
100
AcDbArc
 50
324.23164
 51
343.644818
  0
ARC
  5
1A9
100
AcDbEntity
  8
0
  6
Continuous
 62
   174
100
AcDbCircle
 10
271.333211
 20
190.789722
 30
0.0
 40
3.0
100
AcDbArc
 50
100.266697
 51
113.180961
  0
ARC
  5
1AA
100
AcDbEntity
  8
0
  6
Continuous
 62
   174
100
AcDbCircle
 10
233.046601
 20
177.931974
 30
0.0
 40
3.0
100
AcDbArc
 50
295.762281
 51
321.400206
  0
ARC
  5
1AB
100
AcDbEntity
  8
0
  6
Continuous
 62
   174
100
AcDbCircle
 10
271.333211
 20
190.789722
 30
0.0
 40
3.0
100
AcDbArc
 50
197.570613
 51
215.873765
  0
ARC
  5
1AC
100
AcDbEntity
  8
0
  6
HIDDEN
 62
   174
100
AcDbCircle
 10
233.046601
 20
177.931974
 30
0.0
 40
3.0
100
AcDbArc
 50
93.206661
 51
113.36306
  0
ARC
  5
1AD
100
AcDbEntity
  8
0
  6
Continuous
 62
   174
100
AcDbCircle
 10
267.946835
 20
209.485509
 30
0.0
 40
2.0
100
AcDbArc
 50
-168.463299
 51
-154.951368
  0
ARC
  5
1AE
100
AcDbEntity
  8
0
  6
HIDDEN
 62
   174
100
AcDbCircle
 10
233.046601
 20
177.931974
 30
0.0
 40
3.0
100
AcDbArc
 50
267.403324
 51
273.206661
  0
LINE
  5
1AF
100
AcDbEntity
  8
0
  6
Continuous
 62
   174
100
AcDbLine
 10
246.517169
 20
176.306817
 30
0.0
 11
246.018124
 21
179.061986
 31
0.0
  0
ARC
  5
1B0
100
AcDbEntity
  8
0
  6
Continuous
 62
   174
100
AcDbCircle
 10
235.046601
 20
149.931974
 30
0.0
 40
4.5
100
AcDbArc
 50
-90.0
 51
90.0
  0
LINE
  5
1B1
100
AcDbEntity
  8
0
  6
Continuous
 62
   174
100
AcDbLine
 10
239.801409
 20
187.285649
 30
0.0
 11
232.327926
 21
185.931974
 31
0.0
  0
ARC
  5
1B2
100
AcDbEntity
  8
0
  6
HIDDEN
 62
   174
100
AcDbCircle
 10
271.333211
 20
190.789722
 30
0.0
 40
3.0
100
AcDbArc
 50
10.266697
 51
30.926262
  0
ARC
  5
1B3
100
AcDbEntity
  8
0
  6
HIDDEN
 62
   174
100
AcDbCircle
 10
271.333211
 20
190.789722
 30
0.0
 40
3.0
100
AcDbArc
 50
169.607133
 51
190.266697
  0
ARC
  5
1B4
100
AcDbEntity
  8
0
  6
Continuous
 62
   174
100
AcDbCircle
 10
267.946835
 20
209.485509
 30
0.0
 40
2.0
100
AcDbArc
 50
-54.035407
 51
-40.317051
  0
ARC
  5
1B5
100
AcDbEntity
  8
0
  6
HIDDEN
 62
   174
100
AcDbCircle
 10
271.333211
 20
190.789722
 30
0.0
 40
8.0
100
AcDbArc
 50
303.419321
 51
329.096419
  0
LINE
  5
1B6
100
AcDbEntity
  8
0
  6
Continuous
 62
   174
100
AcDbLine
 10
265.569417
 20
177.725215
 30
0.0
 11
265.778294
 21
176.572025
 31
0.0
  0
ARC
  5
1B7
100
AcDbEntity
  8
0
  6
Continuous
 62
   174
100
AcDbCircle
 10
267.946835
 20
209.485509
 30
0.0
 40
2.0
100
AcDbArc
 50
-105.604671
 51
-91.201339
  0
ARC
  5
1B8
100
AcDbEntity
  8
0
  6
Continuous
 62
   174
100
AcDbCircle
 10
267.946835
 20
209.485509
 30
0.0
 40
10.0
100
AcDbArc
 50
9.640286
 51
15.890552
  0
LINE
  5
1B9
100
AcDbEntity
  8
0
  6
HIDDEN
 62
   174
100
AcDbLine
 10
226.046601
 20
185.931974
 30
0.0
 11
226.046601
 21
184.924445
 31
0.0
  0
LINE
  5
1BA
100
AcDbEntity
  8
0
  6
Continuous
 62
   174
100
AcDbLine
 10
252.304673
 20
174.097125
 30
0.0
 11
251.072102
 21
174.097125
 31
0.0
  0
ARC
  5
1BB
100
AcDbEntity
  8
0
  6
Continuous
 62
   174
100
AcDbCircle
 10
271.333211
 20
190.789722
 30
0.0
 40
3.0
100
AcDbArc
 50
262.736488
 51
267.394386
  0
ARC
  5
1BC
100
AcDbEntity
  8
0
  6
Continuous
 62
   174
100
AcDbCircle
 10
233.046601
 20
177.931974
 30
0.0
 40
3.0
100
AcDbArc
 50
167.13796
 51
192.86204
  0
LINE
  5
1BD
100
AcDbEntity
  8
0
  6
HIDDEN
 62
   174
100
AcDbLine
 10
240.114191
 20
177.992604
 30
0.0
 11
241.326157
 21
171.30148
 31
0.0
  0
ARC
  5
1BE
100
AcDbEntity
  8
0
  6
HIDDEN
 62
   174
100
AcDbCircle
 10
233.046601
 20
177.931974
 30
0.0
 40
3.0
100
AcDbArc
 50
-11.881289
 51
10.266697
  0
ARC
  5
1BF
100
AcDbEntity
  8
0
  6
HIDDEN
 62
   174
100
AcDbCircle
 10
233.046601
 20
177.931974
 30
0.0
 40
3.0
100
AcDbArc
 50
42.447009
 51
49.196962
  0
ARC
  5
1C0
100
AcDbEntity
  8
0
  6
Continuous
 62
   174
100
AcDbCircle
 10
267.946835
 20
209.485509
 30
0.0
 40
2.0
100
AcDbArc
 50
-296.609472
 51
-285.604671
  0
ARC
  5
1C1
100
AcDbEntity
  8
0
  6
HIDDEN
 62
   174
100
AcDbCircle
 10
233.046601
 20
177.931974
 30
0.0
 40
3.0
100
AcDbArc
 50
167.13289
 51
191.720366
  0
LINE
  5
1C2
100
AcDbEntity
  8
0
  6
HIDDEN
 62
   174
100
AcDbLine
 10
226.765478
 20
184.924445
 30
0.0
 11
226.046601
 21
175.59934
 31
0.0
  0
ARC
  5
1C3
100
AcDbEntity
  8
0
  6
HIDDEN
 62
   174
100
AcDbCircle
 10
233.046601
 20
177.931974
 30
0.0
 40
3.0
100
AcDbArc
 50
229.196962
 51
244.784971
  0
LINE
  5
1C4
100
AcDbEntity
  8
0
  6
HIDDEN
 62
   174
100
AcDbLine
 10
241.046601
 20
129.173985
 30
0.0
 11
241.046601
 21
120.774593
 31
0.0
  0
LINE
  5
1C5
100
AcDbEntity
  8
0
  6
HIDDEN
 62
   174
100
AcDbLine
 10
232.327926
 20
185.931974
 30
0.0
 11
226.765478
 21
184.924445
 31
0.0
  0
ARC
  5
1C6
100
AcDbEntity
  8
0
  6
HIDDEN
 62
   174
100
AcDbCircle
 10
271.333211
 20
190.789722
 30
0.0
 40
3.0
100
AcDbArc
 50
262.746946
 51
297.786449
  0
ARC
  5
1C7
100
AcDbEntity
  8
0
  6
HIDDEN
 62
   174
100
AcDbCircle
 10
233.046601
 20
177.931974
 30
0.0
 40
3.0
100
AcDbArc
 50
11.720366
 51
17.286771
  0
ARC
  5
1C8
100
AcDbEntity
  8
0
  6
Continuous
 62
   174
100
AcDbCircle
 10
271.333211
 20
190.789722
 30
0.0
 40
3.0
100
AcDbArc
 50
319.147784
 51
324.23164
  0
ARC
  5
1C9
100
AcDbEntity
  8
0
  6
Continuous
 62
   174
100
AcDbCircle
 10
271.333211
 20
190.789722
 30
0.0
 40
3.0
100
AcDbArc
 50
93.220959
 51
100.266697
  0
ARC
  5
1CA
100
AcDbEntity
  8
0
  6
HIDDEN
 62
   174
100
AcDbCircle
 10
233.046601
 20
177.931974
 30
0.0
 40
3.0
100
AcDbArc
 50
197.566275
 51
215.919988
  0
ARC
  5
1CB
100
AcDbEntity
  8
0
  6
HIDDEN
 62
   174
100
AcDbCircle
 10
233.046601
 20
177.931974
 30
0.0
 40
3.0
100
AcDbArc
 50
197.566275
 51
215.919988
  0
ARC
  5
1CC
100
AcDbEntity
  8
0
  6
HIDDEN
 62
   174
100
AcDbCircle
 10
233.046601
 20
177.931974
 30
0.0
 40
3.0
100
AcDbArc
 50
17.566275
 51
35.919988
  0
LINE
  5
1CD
100
AcDbEntity
  8
0
  6
HIDDEN
 62
   174
100
AcDbLine
 10
265.212956
 20
179.693193
 30
0.0
 11
265.569417
 21
177.725215
 31
0.0
  0
ARC
  5
1CE
100
AcDbEntity
  8
0
  6
Continuous
 62
   174
100
AcDbCircle
 10
233.046601
 20
177.931974
 30
0.0
 40
3.0
100
AcDbArc
 50
270.0
 51
295.762281
  0
ARC
  5
1CF
100
AcDbEntity
  8
0
  6
HIDDEN
 62
   174
100
AcDbCircle
 10
233.046601
 20
177.931974
 30
0.0
 40
3.0
100
AcDbArc
 50
324.31233
 51
347.13289
  0
ARC
  5
1D0
100
AcDbEntity
  8
0
  6
Continuous
 62
   174
100
AcDbCircle
 10
271.333211
 20
190.789722
 30
0.0
 40
3.0
100
AcDbArc
 50
190.266697
 51
197.570613
  0
ARC
  5
1D1
100
AcDbEntity
  8
0
  6
HIDDEN
 62
   174
100
AcDbCircle
 10
233.046601
 20
177.931974
 30
0.0
 40
3.0
100
AcDbArc
 50
87.403324
 51
93.206661
  0
LINE
  5
1D2
100
AcDbEntity
  8
0
  6
HIDDEN
 62
   174
100
AcDbLine
 10
238.046601
 20
129.131974
 30
0.0
 11
226.046601
 21
129.131974
 31
0.0
  0
ARC
  5
1D3
100
AcDbEntity
  8
0
  6
Continuous
 62
   174
100
AcDbCircle
 10
267.946835
 20
209.485509
 30
0.0
 40
2.0
100
AcDbArc
 50
-154.951368
 51
-142.649184
  0
ARC
  5
1D4
100
AcDbEntity
  8
0
  6
HIDDEN
 62
   174
100
AcDbCircle
 10
233.046601
 20
177.931974
 30
0.0
 40
3.0
100
AcDbArc
 50
244.784971
 51
267.403324
  0
ENDBLK
  5
1D5
100
AcDbEntity
  8
0
100
AcDbBlockEnd
  0
BLOCK
  5
1D8
100
AcDbEntity
  8
0
100
AcDbBlockBegin
  2
*B2
 70
     0
 10
0.0
 20
0.0
 30
0.0
  3
*B2
  1

  0
LINE
  5
1D9
100
AcDbEntity
  8
0
  6
Continuous
 62
   172
100
AcDbLine
 10
281.319681
 20
207.485509
 30
0.0
 11
281.346601
 21
207.485509
 31
0.0
  0
LINE
  5
1DA
100
AcDbEntity
  8
0
  6
Continuous
 62
   172
100
AcDbLine
 10
281.319681
 20
211.485509
 30
0.0
 11
281.346601
 21
211.485509
 31
0.0
  0
ENDBLK
  5
1DB
100
AcDbEntity
  8
0
100
AcDbBlockEnd
  0
BLOCK
  5
1DE
100
AcDbEntity
  8
0
100
AcDbBlockBegin
  2
*B3
 70
     0
 10
0.0
 20
0.0
 30
0.0
  3
*B3
  1

  0
LINE
  5
1DF
100
AcDbEntity
  8
0
  6
HIDDEN
 62
   174
100
AcDbLine
 10
178.174918
 20
156.250927
 30
0.0
 11
169.774918
 21
156.250927
 31
0.0
  0
LINE
  5
1E0
100
AcDbEntity
  8
0
  6
HIDDEN
 62
   174
100
AcDbLine
 10
178.174918
 20
141.250927
 30
0.0
 11
169.774918
 21
141.250927
 31
0.0
  0
LINE
  5
1E1
100
AcDbEntity
  8
0
  6
HIDDEN
 62
   174
100
AcDbLine
 10
178.174918
 20
156.250927
 30
0.0
 11
169.774918
 21
156.250927
 31
0.0
  0
LINE
  5
1E2
100
AcDbEntity
  8
0
  6
HIDDEN
 62
   174
100
AcDbLine
 10
178.174918
 20
141.250927
 30
0.0
 11
169.774918
 21
141.250927
 31
0.0
  0
LINE
  5
1E3
100
AcDbEntity
  8
0
  6
HIDDEN
 62
   174
100
AcDbLine
 10
169.774918
 20
141.292119
 30
0.0
 11
169.774918
 21
156.291161
 31
0.0
  0
LINE
  5
1E4
100
AcDbEntity
  8
0
  6
HIDDEN
 62
   174
100
AcDbLine
 10
178.174918
 20
156.250927
 30
0.0
 11
169.774918
 21
156.250927
 31
0.0
  0
LINE
  5
1E5
100
AcDbEntity
  8
0
  6
HIDDEN
 62
   174
100
AcDbLine
 10
178.174918
 20
141.250927
 30
0.0
 11
169.774918
 21
141.250927
 31
0.0
  0
LINE
  5
1E6
100
AcDbEntity
  8
0
  6
HIDDEN
 62
   174
100
AcDbLine
 10
178.174918
 20
156.250927
 30
0.0
 11
169.774918
 21
156.250927
 31
0.0
  0
LINE
  5
1E7
100
AcDbEntity
  8
0
  6
HIDDEN
 62
   174
100
AcDbLine
 10
178.174918
 20
141.250927
 30
0.0
 11
169.774918
 21
141.250927
 31
0.0
  0
LINE
  5
1E8
100
AcDbEntity
  8
0
  6
HIDDEN
 62
   174
100
AcDbLine
 10
169.774918
 20
141.292119
 30
0.0
 11
169.774918
 21
156.291161
 31
0.0
  0
LINE
  5
1E9
100
AcDbEntity
  8
0
  6
HIDDEN
 62
   174
100
AcDbLine
 10
156.574918
 20
144.250927
 30
0.0
 11
169.774918
 21
144.250927
 31
0.0
  0
LINE
  5
1EA
100
AcDbEntity
  8
0
  6
HIDDEN
 62
   174
100
AcDbLine
 10
156.574918
 20
153.250927
 30
0.0
 11
169.774918
 21
153.250927
 31
0.0
  0
LINE
  5
1EB
100
AcDbEntity
  8
0
  6
HIDDEN
 62
   174
100
AcDbLine
 10
156.574918
 20
144.250927
 30
0.0
 11
169.774918
 21
144.250927
 31
0.0
  0
LINE
  5
1EC
100
AcDbEntity
  8
0
  6
HIDDEN
 62
   174
100
AcDbLine
 10
155.574918
 20
179.750927
 30
0.0
 11
153.174918
 21
179.750927
 31
0.0
  0
LINE
  5
1ED
100
AcDbEntity
  8
0
  6
HIDDEN
 62
   174
100
AcDbLine
 10
173.674918
 20
179.750927
 30
0.0
 11
173.174918
 21
179.750927
 31
0.0
  0
ARC
  5
1EE
100
AcDbEntity
  8
0
  6
Continuous
 62
   174
100
AcDbCircle
 10
163.174918
 20
113.750927
 30
0.0
 40
5.0
100
AcDbArc
 50
-267.885527
 51
-151.175158
  0
LINE
  5
1EF
100
AcDbEntity
  8
0
  6
HIDDEN
 62
   174
100
AcDbLine
 10
173.174918
 20
192.608675
 30
0.0
 11
170.774918
 21
192.608675
 31
0.0
  0
LINE
  5
1F0
100
AcDbEntity
  8
0
  6
Continuous
 62
   174
100
AcDbLine
 10
168.174918
 20
192.608675
 30
0.0
 11
158.174918
 21
192.608675
 31
0.0
  0
LINE
  5
1F1
100
AcDbEntity
  8
0
  6
HIDDEN
 62
   174
100
AcDbLine
 10
156.574918
 20
144.250927
 30
0.0
 11
169.774918
 21
144.250927
 31
0.0
  0
LINE
  5
1F2
100
AcDbEntity
  8
0
  6
HIDDEN
 62
   174
100
AcDbLine
 10
156.574918
 20
153.250927
 30
0.0
 11
169.774918
 21
153.250927
 31
0.0
  0
LINE
  5
1F3
100
AcDbEntity
  8
0
  6
HIDDEN
 62
   174
100
AcDbLine
 10
178.174918
 20
156.291161
 30
0.0
 11
178.174918
 21
141.292119
 31
0.0
  0
LINE
  5
1F4
100
AcDbEntity
  8
0
  6
Continuous
 62
   174
100
AcDbLine
 10
156.174918
 20
179.750927
 30
0.0
 11
155.574918
 21
179.750927
 31
0.0
  0
LINE
  5
1F5
100
AcDbEntity
  8
0
  6
Continuous
 62
   174
100
AcDbLine
 10
153.174918
 20
179.750927
 30
0.0
 11
152.674918
 21
179.750927
 31
0.0
  0
LINE
  5
1F6
100
AcDbEntity
  8
0
  6
HIDDEN
 62
   174
100
AcDbLine
 10
153.749337
 20
173.750927
 30
0.0
 11
153.174918
 21
173.750927
 31
0.0
  0
LINE
  5
1F7
100
AcDbEntity
  8
0
  6
HIDDEN
 62
   174
100
AcDbLine
 10
172.6005
 20
173.750927
 30
0.0
 11
170.774918
 21
173.750927
 31
0.0
  0
LINE
  5
1F8
100
AcDbEntity
  8
0
  6
HIDDEN
 62
   174
100
AcDbLine
 10
178.174918
 20
173.750927
 30
0.0
 11
173.674918
 21
173.750927
 31
0.0
  0
LINE
  5
1F9
100
AcDbEntity
  8
0
  6
HIDDEN
 62
   174
100
AcDbLine
 10
178.174918
 20
179.750927
 30
0.0
 11
173.674918
 21
179.750927
 31
0.0
  0
LINE
  5
1FA
100
AcDbEntity
  8
0
  6
HIDDEN
 62
   174
100
AcDbLine
 10
153.749337
 20
173.750927
 30
0.0
 11
153.174918
 21
173.750927
 31
0.0
  0
LINE
  5
1FB
100
AcDbEntity
  8
0
  6
HIDDEN
 62
   174
100
AcDbLine
 10
172.6005
 20
173.750927
 30
0.0
 11
170.774918
 21
173.750927
 31
0.0
  0
LINE
  5
1FC
100
AcDbEntity
  8
0
  6
HIDDEN
 62
   174
100
AcDbLine
 10
158.174918
 20
179.750927
 30
0.0
 11
156.174918
 21
179.750927
 31
0.0
  0
LINE
  5
1FD
100
AcDbEntity
  8
0
  6
HIDDEN
 62
   174
100
AcDbLine
 10
156.174918
 20
207.841673
 30
0.0
 11
156.174918
 21
206.704631
 31
0.0
  0
LINE
  5
1FE
100
AcDbEntity
  8
0
  6
HIDDEN
 62
   174
100
AcDbLine
 10
156.174918
 20
210.175238
 30
0.0
 11
156.174918
 21
207.841673
 31
0.0
  0
LINE
  5
1FF
100
AcDbEntity
  8
0
  6
HIDDEN
 62
   174
100
AcDbLine
 10
156.174918
 20
210.377412
 30
0.0
 11
156.174918
 21
210.175238
 31
0.0
  0
LINE
  5
200
100
AcDbEntity
  8
0
  6
HIDDEN
 62
   174
100
AcDbLine
 10
156.174918
 20
211.140447
 30
0.0
 11
156.174918
 21
210.377412
 31
0.0
  0
LINE
  5
201
100
AcDbEntity
  8
0
  6
HIDDEN
 62
   174
100
AcDbLine
 10
156.174918
 20
206.290369
 30
0.0
 11
156.174918
 21
205.540853
 31
0.0
  0
LINE
  5
202
100
AcDbEntity
  8
0
  6
HIDDEN
 62
   174
100
AcDbLine
 10
156.174918
 20
206.704631
 30
0.0
 11
156.174918
 21
206.290369
 31
0.0
  0
LINE
  5
203
100
AcDbEntity
  8
0
  6
Continuous
 62
   174
100
AcDbLine
 10
156.174918
 20
186.608675
 30
0.0
 11
155.574918
 21
186.608675
 31
0.0
  0
LINE
  5
204
100
AcDbEntity
  8
0
  6
Continuous
 62
   174
100
AcDbLine
 10
168.174918
 20
192.608675
 30
0.0
 11
158.174918
 21
192.608675
 31
0.0
  0
LINE
  5
205
100
AcDbEntity
  8
0
  6
Continuous
 62
   174
100
AcDbLine
 10
170.774918
 20
192.608675
 30
0.0
 11
170.174918
 21
192.608675
 31
0.0
  0
LINE
  5
206
100
AcDbEntity
  8
0
  6
HIDDEN
 62
   174
100
AcDbLine
 10
170.174918
 20
192.608675
 30
0.0
 11
168.174918
 21
192.608675
 31
0.0
  0
LINE
  5
207
100
AcDbEntity
  8
0
  6
HIDDEN
 62
   174
100
AcDbLine
 10
158.174918
 20
179.750927
 30
0.0
 11
156.174918
 21
179.750927
 31
0.0
  0
LINE
  5
208
100
AcDbEntity
  8
0
  6
HIDDEN
 62
   174
100
AcDbLine
 10
170.174918
 20
207.841673
 30
0.0
 11
170.174918
 21
206.840715
 31
0.0
  0
LINE
  5
209
100
AcDbEntity
  8
0
  6
HIDDEN
 62
   174
100
AcDbLine
 10
170.174918
 20
206.302686
 30
0.0
 11
170.174918
 21
205.540853
 31
0.0
  0
LINE
  5
20A
100
AcDbEntity
  8
0
  6
HIDDEN
 62
   174
100
AcDbLine
 10
170.174918
 20
206.840715
 30
0.0
 11
170.174918
 21
206.302686
 31
0.0
  0
LINE
  5
20B
100
AcDbEntity
  8
0
  6
Continuous
 62
   174
100
AcDbLine
 10
168.174918
 20
186.608675
 30
0.0
 11
158.174918
 21
186.608675
 31
0.0
  0
LINE
  5
20C
100
AcDbEntity
  8
0
  6
HIDDEN
 62
   174
100
AcDbLine
 10
158.174918
 20
186.608675
 30
0.0
 11
156.174918
 21
186.608675
 31
0.0
  0
LINE
  5
20D
100
AcDbEntity
  8
0
  6
Continuous
 62
   174
100
AcDbLine
 10
168.174918
 20
179.750927
 30
0.0
 11
158.174918
 21
179.750927
 31
0.0
  0
LINE
  5
20E
100
AcDbEntity
  8
0
  6
Continuous
 62
   174
100
AcDbLine
 10
156.174918
 20
179.750927
 30
0.0
 11
155.574918
 21
179.750927
 31
0.0
  0
LINE
  5
20F
100
AcDbEntity
  8
0
  6
HIDDEN
 62
   174
100
AcDbLine
 10
155.574918
 20
173.750927
 30
0.0
 11
153.749337
 21
173.750927
 31
0.0
  0
LINE
  5
210
100
AcDbEntity
  8
0
  6
HIDDEN
 62
   174
100
AcDbLine
 10
173.174918
 20
173.750927
 30
0.0
 11
172.6005
 21
173.750927
 31
0.0
  0
LINE
  5
211
100
AcDbEntity
  8
0
  6
HIDDEN
 62
   174
100
AcDbLine
 10
155.574918
 20
173.750927
 30
0.0
 11
153.749337
 21
173.750927
 31
0.0
  0
LINE
  5
212
100
AcDbEntity
  8
0
  6
HIDDEN
 62
   174
100
AcDbLine
 10
173.174918
 20
173.750927
 30
0.0
 11
172.6005
 21
173.750927
 31
0.0
  0
LINE
  5
213
100
AcDbEntity
  8
0
  6
HIDDEN
 62
   174
100
AcDbLine
 10
178.174918
 20
173.750927
 30
0.0
 11
173.674918
 21
173.750927
 31
0.0
  0
LINE
  5
214
100
AcDbEntity
  8
0
  6
HIDDEN
 62
   174
100
AcDbLine
 10
170.174918
 20
179.750927
 30
0.0
 11
168.174918
 21
179.750927
 31
0.0
  0
LINE
  5
215
100
AcDbEntity
  8
0
  6
HIDDEN
 62
   174
100
AcDbLine
 10
148.174918
 20
179.789329
 30
0.0
 11
148.174918
 21
173.789892
 31
0.0
  0
ARC
  5
216
100
AcDbEntity
  8
0
  6
Continuous
 62
   174
100
AcDbCircle
 10
163.174918
 20
113.750927
 30
0.0
 40
5.0
100
AcDbArc
 50
-87.885527
 51
87.885527
  0
LINE
  5
217
100
AcDbEntity
  8
0
  6
Continuous
 62
   174
100
AcDbLine
 10
168.174918
 20
186.608675
 30
0.0
 11
158.174918
 21
186.608675
 31
0.0
  0
LINE
  5
218
100
AcDbEntity
  8
0
  6
Continuous
 62
   174
100
AcDbLine
 10
170.774918
 20
192.608675
 30
0.0
 11
170.174918
 21
192.608675
 31
0.0
  0
LINE
  5
219
100
AcDbEntity
  8
0
  6
HIDDEN
 62
   174
100
AcDbLine
 10
173.174918
 20
192.608675
 30
0.0
 11
170.774918
 21
192.608675
 31
0.0
  0
LINE
  5
21A
100
AcDbEntity
  8
0
  6
HIDDEN
 62
   174
100
AcDbLine
 10
156.574918
 20
153.250927
 30
0.0
 11
169.774918
 21
153.250927
 31
0.0
  0
LINE
  5
21B
100
AcDbEntity
  8
0
  6
HIDDEN
 62
   174
100
AcDbLine
 10
156.574918
 20
144.250927
 30
0.0
 11
169.774918
 21
144.250927
 31
0.0
  0
LINE
  5
21C
100
AcDbEntity
  8
0
  6
HIDDEN
 62
   174
100
AcDbLine
 10
156.574918
 20
153.250927
 30
0.0
 11
169.774918
 21
153.250927
 31
0.0
  0
LINE
  5
21D
100
AcDbEntity
  8
0
  6
HIDDEN
 62
   174
100
AcDbLine
 10
169.774918
 20
153.291292
 30
0.0
 11
169.774918
 21
144.291987
 31
0.0
  0
LINE
  5
21E
100
AcDbEntity
  8
0
  6
HIDDEN
 62
   174
100
AcDbLine
 10
178.174918
 20
179.750927
 30
0.0
 11
173.674918
 21
179.750927
 31
0.0
  0
LINE
  5
21F
100
AcDbEntity
  8
0
  6
HIDDEN
 62
   174
100
AcDbLine
 10
170.174918
 20
179.750927
 30
0.0
 11
168.174918
 21
179.750927
 31
0.0
  0
LINE
  5
220
100
AcDbEntity
  8
0
  6
HIDDEN
 62
   174
100
AcDbLine
 10
158.174918
 20
210.340762
 30
0.0
 11
158.174918
 21
207.984366
 31
0.0
  0
LINE
  5
221
100
AcDbEntity
  8
0
  6
HIDDEN
 62
   174
100
AcDbLine
 10
158.174918
 20
207.984366
 30
0.0
 11
158.174918
 21
206.340837
 31
0.0
  0
LINE
  5
222
100
AcDbEntity
  8
0
  6
Continuous
 62
   174
100
AcDbLine
 10
170.774918
 20
186.608675
 30
0.0
 11
170.174918
 21
186.608675
 31
0.0
  0
LINE
  5
223
100
AcDbEntity
  8
0
  6
HIDDEN
 62
   174
100
AcDbLine
 10
170.174918
 20
186.608675
 30
0.0
 11
168.174918
 21
186.608675
 31
0.0
  0
LINE
  5
224
100
AcDbEntity
  8
0
  6
HIDDEN
 62
   174
100
AcDbLine
 10
178.174918
 20
156.291161
 30
0.0
 11
178.174918
 21
141.292119
 31
0.0
  0
LINE
  5
225
100
AcDbEntity
  8
0
  6
Continuous
 62
   174
100
AcDbLine
 10
153.174918
 20
173.750927
 30
0.0
 11
152.674918
 21
173.750927
 31
0.0
  0
LINE
  5
226
100
AcDbEntity
  8
0
  6
Continuous
 62
   174
100
AcDbLine
 10
170.774918
 20
179.750927
 30
0.0
 11
170.174918
 21
179.750927
 31
0.0
  0
LINE
  5
227
100
AcDbEntity
  8
0
  6
Continuous
 62
   174
100
AcDbLine
 10
168.174918
 20
179.750927
 30
0.0
 11
158.174918
 21
179.750927
 31
0.0
  0
LINE
  5
228
100
AcDbEntity
  8
0
  6
HIDDEN
 62
   174
100
AcDbLine
 10
163.174918
 20
173.750927
 30
0.0
 11
155.574918
 21
173.750927
 31
0.0
  0
LINE
  5
229
100
AcDbEntity
  8
0
  6
HIDDEN
 62
   174
100
AcDbLine
 10
173.674918
 20
173.750927
 30
0.0
 11
173.174918
 21
173.750927
 31
0.0
  0
LINE
  5
22A
100
AcDbEntity
  8
0
  6
HIDDEN
 62
   174
100
AcDbLine
 10
163.174918
 20
173.750927
 30
0.0
 11
155.574918
 21
173.750927
 31
0.0
  0
LINE
  5
22B
100
AcDbEntity
  8
0
  6
HIDDEN
 62
   174
100
AcDbLine
 10
173.674918
 20
173.750927
 30
0.0
 11
173.174918
 21
173.750927
 31
0.0
  0
LINE
  5
22C
100
AcDbEntity
  8
0
  6
HIDDEN
 62
   174
100
AcDbLine
 10
152.674918
 20
179.750927
 30
0.0
 11
148.174918
 21
179.750927
 31
0.0
  0
LINE
  5
22D
100
AcDbEntity
  8
0
  6
HIDDEN
 62
   174
100
AcDbLine
 10
173.174918
 20
179.750927
 30
0.0
 11
170.774918
 21
179.750927
 31
0.0
  0
LINE
  5
22E
100
AcDbEntity
  8
0
  6
HIDDEN
 62
   174
100
AcDbLine
 10
178.174918
 20
179.789329
 30
0.0
 11
178.174918
 21
173.789892
 31
0.0
  0
ARC
  5
22F
100
AcDbEntity
  8
0
  6
Continuous
 62
   174
100
AcDbCircle
 10
163.174918
 20
113.750927
 30
0.0
 40
5.0
100
AcDbArc
 50
-90.0
 51
-87.885527
  0
ARC
  5
230
100
AcDbEntity
  8
0
  6
Continuous
 62
   174
100
AcDbCircle
 10
163.174918
 20
113.750927
 30
0.0
 40
5.0
100
AcDbArc
 50
-272.114473
 51
-270.0
  0
LINE
  5
231
100
AcDbEntity
  8
0
  6
Continuous
 62
   174
100
AcDbLine
 10
170.774918
 20
186.608675
 30
0.0
 11
170.174918
 21
186.608675
 31
0.0
  0
LINE
  5
232
100
AcDbEntity
  8
0
  6
HIDDEN
 62
   174
100
AcDbLine
 10
155.574918
 20
192.608675
 30
0.0
 11
153.174918
 21
192.608675
 31
0.0
  0
LINE
  5
233
100
AcDbEntity
  8
0
  6
HIDDEN
 62
   174
100
AcDbLine
 10
155.574918
 20
186.608675
 30
0.0
 11
153.174918
 21
186.608675
 31
0.0
  0
LINE
  5
234
100
AcDbEntity
  8
0
  6
HIDDEN
 62
   174
100
AcDbLine
 10
169.774918
 20
153.291292
 30
0.0
 11
169.774918
 21
144.291987
 31
0.0
  0
LINE
  5
235
100
AcDbEntity
  8
0
  6
HIDDEN
 62
   174
100
AcDbLine
 10
152.674918
 20
179.750927
 30
0.0
 11
148.174918
 21
179.750927
 31
0.0
  0
LINE
  5
236
100
AcDbEntity
  8
0
  6
HIDDEN
 62
   174
100
AcDbLine
 10
173.174918
 20
179.750927
 30
0.0
 11
170.774918
 21
179.750927
 31
0.0
  0
LINE
  5
237
100
AcDbEntity
  8
0
  6
HIDDEN
 62
   174
100
AcDbLine
 10
173.674918
 20
179.750927
 30
0.0
 11
173.174918
 21
179.750927
 31
0.0
  0
LINE
  5
238
100
AcDbEntity
  8
0
  6
Continuous
 62
   174
100
AcDbLine
 10
156.174918
 20
186.608675
 30
0.0
 11
155.574918
 21
186.608675
 31
0.0
  0
LINE
  5
239
100
AcDbEntity
  8
0
  6
Continuous
 62
   174
100
AcDbLine
 10
156.174918
 20
192.608675
 30
0.0
 11
155.574918
 21
192.608675
 31
0.0
  0
LINE
  5
23A
100
AcDbEntity
  8
0
  6
HIDDEN
 62
   174
100
AcDbLine
 10
155.574918
 20
186.608675
 30
0.0
 11
153.174918
 21
186.608675
 31
0.0
  0
LINE
  5
23B
100
AcDbEntity
  8
0
  6
HIDDEN
 62
   174
100
AcDbLine
 10
173.174918
 20
186.608675
 30
0.0
 11
170.774918
 21
186.608675
 31
0.0
  0
LINE
  5
23C
100
AcDbEntity
  8
0
  6
Continuous
 62
   174
100
AcDbLine
 10
153.174918
 20
179.750927
 30
0.0
 11
152.674918
 21
179.750927
 31
0.0
  0
LINE
  5
23D
100
AcDbEntity
  8
0
  6
Continuous
 62
   174
100
AcDbLine
 10
153.174918
 20
173.750927
 30
0.0
 11
152.674918
 21
173.750927
 31
0.0
  0
LINE
  5
23E
100
AcDbEntity
  8
0
  6
Continuous
 62
   174
100
AcDbLine
 10
170.774918
 20
179.750927
 30
0.0
 11
170.174918
 21
179.750927
 31
0.0
  0
LINE
  5
23F
100
AcDbEntity
  8
0
  6
HIDDEN
 62
   174
100
AcDbLine
 10
152.674918
 20
173.750927
 30
0.0
 11
148.174918
 21
173.750927
 31
0.0
  0
LINE
  5
240
100
AcDbEntity
  8
0
  6
HIDDEN
 62
   174
100
AcDbLine
 10
170.774918
 20
173.750927
 30
0.0
 11
163.174918
 21
173.750927
 31
0.0
  0
LINE
  5
241
100
AcDbEntity
  8
0
  6
HIDDEN
 62
   174
100
AcDbLine
 10
152.674918
 20
173.750927
 30
0.0
 11
148.174918
 21
173.750927
 31
0.0
  0
LINE
  5
242
100
AcDbEntity
  8
0
  6
HIDDEN
 62
   174
100
AcDbLine
 10
170.774918
 20
173.750927
 30
0.0
 11
163.174918
 21
173.750927
 31
0.0
  0
LINE
  5
243
100
AcDbEntity
  8
0
  6
HIDDEN
 62
   174
100
AcDbLine
 10
155.574918
 20
179.750927
 30
0.0
 11
153.174918
 21
179.750927
 31
0.0
  0
LINE
  5
244
100
AcDbEntity
  8
0
  6
HIDDEN
 62
   174
100
AcDbLine
 10
168.174918
 20
207.984366
 30
0.0
 11
168.174918
 21
210.340762
 31
0.0
  0
LINE
  5
245
100
AcDbEntity
  8
0
  6
HIDDEN
 62
   174
100
AcDbLine
 10
168.174918
 20
206.340837
 30
0.0
 11
168.174918
 21
207.984366
 31
0.0
  0
LINE
  5
246
100
AcDbEntity
  8
0
  6
HIDDEN
 62
   174
100
AcDbLine
 10
170.174918
 20
209.936714
 30
0.0
 11
170.174918
 21
207.841673
 31
0.0
  0
LINE
  5
247
100
AcDbEntity
  8
0
  6
HIDDEN
 62
   174
100
AcDbLine
 10
170.174918
 20
210.377712
 30
0.0
 11
170.174918
 21
209.936714
 31
0.0
  0
LINE
  5
248
100
AcDbEntity
  8
0
  6
HIDDEN
 62
   174
100
AcDbLine
 10
170.174918
 20
211.140447
 30
0.0
 11
170.174918
 21
210.377712
 31
0.0
  0
ARC
  5
249
100
AcDbEntity
  8
0
  6
Continuous
 62
   174
100
AcDbCircle
 10
163.174918
 20
113.750927
 30
0.0
 40
5.0
100
AcDbArc
 50
-270.0
 51
-267.885527
  0
LINE
  5
24A
100
AcDbEntity
  8
0
  6
Continuous
 62
   174
100
AcDbLine
 10
156.174918
 20
192.608675
 30
0.0
 11
155.574918
 21
192.608675
 31
0.0
  0
LINE
  5
24B
100
AcDbEntity
  8
0
  6
HIDDEN
 62
   174
100
AcDbLine
 10
158.174918
 20
192.608675
 30
0.0
 11
156.174918
 21
192.608675
 31
0.0
  0
LINE
  5
24C
100
AcDbEntity
  8
0
  6
HIDDEN
 62
   174
100
AcDbLine
 10
158.174918
 20
186.608675
 30
0.0
 11
156.174918
 21
186.608675
 31
0.0
  0
LINE
  5
24D
100
AcDbEntity
  8
0
  6
HIDDEN
 62
   174
100
AcDbLine
 10
167.674918
 20
210.304462
 30
0.0
 11
158.674918
 21
210.304462
 31
0.0
  0
LINE
  5
24E
100
AcDbEntity
  8
0
  6
HIDDEN
 62
   174
100
AcDbLine
 10
167.274918
 20
198.346095
 30
0.0
 11
167.274918
 21
218.340011
 31
0.0
  0
LINE
  5
24F
100
AcDbEntity
  8
0
  6
Continuous
 62
   174
100
AcDbLine
 10
155.574918
 20
181.775022
 30
0.0
 11
155.574918
 21
182.969441
 31
0.0
  0
LINE
  5
250
100
AcDbEntity
  8
0
  6
HIDDEN
 62
   174
100
AcDbLine
 10
170.174918
 20
180.441813
 30
0.0
 11
170.174918
 21
179.774008
 31
0.0
  0
LINE
  5
251
100
AcDbEntity
  8
0
  6
HIDDEN
 62
   174
100
AcDbLine
 10
153.174918
 20
178.512146
 30
0.0
 11
153.174918
 21
177.880938
 31
0.0
  0
LINE
  5
252
100
AcDbEntity
  8
0
  6
Continuous
 62
   174
100
AcDbLine
 10
168.174918
 20
209.730305
 30
0.0
 11
168.174918
 21
198.706582
 31
0.0
  0
LINE
  5
253
100
AcDbEntity
  8
0
  6
HIDDEN
 62
   174
100
AcDbLine
 10
170.174918
 20
206.304462
 30
0.0
 11
168.174918
 21
206.304462
 31
0.0
  0
LINE
  5
254
100
AcDbEntity
  8
0
  6
Continuous
 62
   174
100
AcDbLine
 10
159.074918
 20
205.026555
 30
0.0
 11
159.074918
 21
208.03844
 31
0.0
  0
LINE
  5
255
100
AcDbEntity
  8
0
  6
Continuous
 62
   174
100
AcDbLine
 10
167.674918
 20
211.029596
 30
0.0
 11
167.674918
 21
215.940056
 31
0.0
  0
LINE
  5
256
100
AcDbEntity
  8
0
  6
Continuous
 62
   174
100
AcDbLine
 10
153.174918
 20
167.350927
 30
0.0
 11
155.574918
 21
167.350927
 31
0.0
  0
LINE
  5
257
100
AcDbEntity
  8
0
  6
HIDDEN
 62
   174
100
AcDbLine
 10
173.174918
 20
176.811557
 30
0.0
 11
173.174918
 21
175.12577
 31
0.0
  0
ARC
  5
258
100
AcDbEntity
  8
0
  6
Continuous
 62
   174
100
AcDbCircle
 10
163.174918
 20
133.750927
 30
0.0
 40
4.2
100
AcDbArc
 50
58.405554
 51
62.07446
  0
LINE
  5
259
100
AcDbEntity
  8
0
  6
Continuous
 62
   174
100
AcDbLine
 10
153.174918
 20
177.880938
 30
0.0
 11
153.174918
 21
176.811557
 31
0.0
  0
LINE
  5
25A
100
AcDbEntity
  8
0
  6
HIDDEN
 62
   174
100
AcDbLine
 10
168.174918
 20
178.442001
 30
0.0
 11
168.174918
 21
179.263616
 31
0.0
  0
LINE
  5
25B
100
AcDbEntity
  8
0
  6
HIDDEN
 62
   174
100
AcDbLine
 10
152.674918
 20
177.457566
 30
0.0
 11
152.674918
 21
176.121655
 31
0.0
  0
LINE
  5
25C
100
AcDbEntity
  8
0
  6
Continuous
 62
   174
100
AcDbLine
 10
167.174918
 20
165.750927
 30
0.0
 11
167.174918
 21
172.916078
 31
0.0
  0
LINE
  5
25D
100
AcDbEntity
  8
0
  6
Continuous
 62
   174
100
AcDbLine
 10
156.174918
 20
216.304462
 30
0.0
 11
158.174918
 21
216.304462
 31
0.0
  0
LINE
  5
25E
100
AcDbEntity
  8
0
  6
HIDDEN
 62
   174
100
AcDbLine
 10
167.674918
 20
210.373807
 30
0.0
 11
167.674918
 21
206.302385
 31
0.0
  0
LINE
  5
25F
100
AcDbEntity
  8
0
  6
Continuous
 62
   174
100
AcDbLine
 10
178.174918
 20
96.750927
 30
0.0
 11
178.174918
 21
165.750927
 31
0.0
  0
LINE
  5
260
100
AcDbEntity
  8
0
  6
Continuous
 62
   174
100
AcDbLine
 10
159.074918
 20
218.335505
 30
0.0
 11
159.074918
 21
218.340011
 31
0.0
  0
LINE
  5
261
100
AcDbEntity
  8
0
  6
Continuous
 62
   174
100
AcDbLine
 10
158.674918
 20
208.050456
 30
0.0
 11
158.674918
 21
211.029596
 31
0.0
  0
ARC
  5
262
100
AcDbEntity
  8
0
  6
Continuous
 62
   174
100
AcDbCircle
 10
163.174918
 20
113.750927
 30
0.0
 40
4.2
100
AcDbArc
 50
-90.0
 51
90.0
  0
ARC
  5
263
100
AcDbEntity
  8
0
  6
Continuous
 62
   174
100
AcDbCircle
 10
163.174918
 20
133.750927
 30
0.0
 40
4.2
100
AcDbArc
 50
238.405554
 51
242.07446
  0
LINE
  5
264
100
AcDbEntity
  8
0
  6
Continuous
 62
   174
100
AcDbLine
 10
158.174918
 20
175.390978
 30
0.0
 11
158.174918
 21
181.402614
 31
0.0
  0
LINE
  5
265
100
AcDbEntity
  8
0
  6
Continuous
 62
   174
100
AcDbLine
 10
168.174918
 20
176.544168
 30
0.0
 11
158.174918
 21
176.544168
 31
0.0
  0
LINE
  5
266
100
AcDbEntity
  8
0
  6
Continuous
 62
   174
100
AcDbLine
 10
170.174918
 20
210.370202
 30
0.0
 11
170.174918
 21
209.766684
 31
0.0
  0
LINE
  5
267
100
AcDbEntity
  8
0
  6
HIDDEN
 62
   174
100
AcDbLine
 10
156.574918
 20
144.291987
 30
0.0
 11
156.574918
 21
153.291292
 31
0.0
  0
LINE
  5
268
100
AcDbEntity
  8
0
  6
Continuous
 62
   174
100
AcDbLine
 10
167.274918
 20
208.03844
 30
0.0
 11
167.274918
 21
211.078563
 31
0.0
  0
LINE
  5
269
100
AcDbEntity
  8
0
  6
Continuous
 62
   174
100
AcDbLine
 10
167.674918
 20
198.741431
 30
0.0
 11
167.674918
 21
199.126253
 31
0.0
  0
LINE
  5
26A
100
AcDbEntity
  8
0
  6
HIDDEN
 62
   174
100
AcDbLine
 10
153.174918
 20
167.350927
 30
0.0
 11
153.174918
 21
167.252785
 31
0.0
  0
LINE
  5
26B
100
AcDbEntity
  8
0
  6
HIDDEN
 62
   174
100
AcDbLine
 10
158.174918
 20
189.111571
 30
0.0
 11
158.174918
 21
186.646428
 31
0.0
  0
LINE
  5
26C
100
AcDbEntity
  8
0
  6
HIDDEN
 62
   174
100
AcDbLine
 10
153.174918
 20
189.111571
 30
0.0
 11
153.174918
 21
192.646165
 31
0.0
  0
LINE
  5
26D
100
AcDbEntity
  8
0
  6
HIDDEN
 62
   174
100
AcDbLine
 10
170.174918
 20
192.608675
 30
0.0
 11
168.174918
 21
192.608675
 31
0.0
  0
LINE
  5
26E
100
AcDbEntity
  8
0
  6
HIDDEN
 62
   174
100
AcDbLine
 10
173.174918
 20
188.978791
 30
0.0
 11
173.174918
 21
186.646428
 31
0.0
  0
LINE
  5
26F
100
AcDbEntity
  8
0
  6
HIDDEN
 62
   174
100
AcDbLine
 10
158.674918
 20
217.904462
 30
0.0
 11
159.074918
 21
218.304462
 31
0.0
  0
LINE
  5
270
100
AcDbEntity
  8
0
  6
Continuous
 62
   174
100
AcDbLine
 10
152.674918
 20
181.736765
 30
0.0
 11
152.674918
 21
180.310922
 31
0.0
  0
LINE
  5
271
100
AcDbEntity
  8
0
  6
Continuous
 62
   174
100
AcDbLine
 10
173.674918
 20
181.736765
 30
0.0
 11
173.674918
 21
180.310922
 31
0.0
  0
LINE
  5
272
100
AcDbEntity
  8
0
  6
HIDDEN
 62
   174
100
AcDbLine
 10
148.174918
 20
179.750927
 30
0.0
 11
152.674918
 21
179.750927
 31
0.0
  0
LINE
  5
273
100
AcDbEntity
  8
0
  6
Continuous
 62
   174
100
AcDbLine
 10
173.174918
 20
192.441287
 30
0.0
 11
173.174918
 21
192.667794
 31
0.0
  0
LINE
  5
274
100
AcDbEntity
  8
0
  6
Continuous
 62
   174
100
AcDbLine
 10
170.774918
 20
181.775022
 30
0.0
 11
170.774918
 21
182.969441
 31
0.0
  0
LINE
  5
275
100
AcDbEntity
  8
0
  6
HIDDEN
 62
   174
100
AcDbLine
 10
158.674918
 20
210.304462
 30
0.0
 11
158.174918
 21
210.304462
 31
0.0
  0
ARC
  5
276
100
AcDbEntity
  8
0
  6
Continuous
 62
   174
100
AcDbCircle
 10
163.174918
 20
113.750927
 30
0.0
 40
4.2
100
AcDbArc
 50
90.0
 51
270.0
  0
LINE
  5
277
100
AcDbEntity
  8
0
  6
HIDDEN
 62
   174
100
AcDbLine
 10
168.174918
 20
206.304462
 30
0.0
 11
167.674918
 21
206.304462
 31
0.0
  0
LINE
  5
278
100
AcDbEntity
  8
0
  6
HIDDEN
 62
   174
100
AcDbLine
 10
155.574918
 20
167.350927
 30
0.0
 11
155.574918
 21
167.252785
 31
0.0
  0
LINE
  5
279
100
AcDbEntity
  8
0
  6
Continuous
 62
   174
100
AcDbLine
 10
155.574918
 20
167.350927
 30
0.0
 11
159.174918
 21
167.350927
 31
0.0
  0
LINE
  5
27A
100
AcDbEntity
  8
0
  6
HIDDEN
 62
   174
100
AcDbLine
 10
168.174918
 20
189.111571
 30
0.0
 11
168.174918
 21
192.646165
 31
0.0
  0
LINE
  5
27B
100
AcDbEntity
  8
0
  6
HIDDEN
 62
   174
100
AcDbLine
 10
173.174918
 20
175.25588
 30
0.0
 11
173.174918
 21
173.789892
 31
0.0
  0
LINE
  5
27C
100
AcDbEntity
  8
0
  6
HIDDEN
 62
   174
100
AcDbLine
 10
155.574918
 20
189.111571
 30
0.0
 11
155.574918
 21
192.646165
 31
0.0
  0
LINE
  5
27D
100
AcDbEntity
  8
0
  6
Continuous
 62
   174
100
AcDbLine
 10
168.174918
 20
178.405019
 30
0.0
 11
168.174918
 21
179.225191
 31
0.0
  0
LINE
  5
27E
100
AcDbEntity
  8
0
  6
Continuous
 62
   174
100
AcDbLine
 10
153.174918
 20
176.811557
 30
0.0
 11
153.174918
 21
175.12577
 31
0.0
  0
LINE
  5
27F
100
AcDbEntity
  8
0
  6
Continuous
 62
   174
100
AcDbLine
 10
168.174918
 20
198.706582
 30
0.0
 11
168.174918
 21
181.402614
 31
0.0
  0
LINE
  5
280
100
AcDbEntity
  8
0
  6
HIDDEN
 62
   174
100
AcDbLine
 10
159.074918
 20
198.346095
 30
0.0
 11
159.074918
 21
218.340011
 31
0.0
  0
ARC
  5
281
100
AcDbEntity
  8
0
  6
Continuous
 62
   174
100
AcDbCircle
 10
163.174918
 20
163.750927
 30
0.0
 40
10.0
100
AcDbArc
 50
-293.578178
 51
-270.0
  0
LINE
  5
282
100
AcDbEntity
  8
0
  6
HIDDEN
 62
   174
100
AcDbLine
 10
170.174918
 20
179.774008
 30
0.0
 11
170.174918
 21
179.263616
 31
0.0
  0
LINE
  5
283
100
AcDbEntity
  8
0
  6
HIDDEN
 62
   174
100
AcDbLine
 10
173.674918
 20
174.91672
 30
0.0
 11
173.674918
 21
176.121655
 31
0.0
  0
LINE
  5
284
100
AcDbEntity
  8
0
  6
Continuous
 62
   174
100
AcDbLine
 10
167.174918
 20
165.750927
 30
0.0
 11
167.174918
 21
172.916078
 31
0.0
  0
LINE
  5
285
100
AcDbEntity
  8
0
  6
Continuous
 62
   174
100
AcDbLine
 10
156.174918
 20
181.402614
 30
0.0
 11
158.174918
 21
181.402614
 31
0.0
  0
LINE
  5
286
100
AcDbEntity
  8
0
  6
Continuous
 62
   174
100
AcDbLine
 10
156.174918
 20
176.544168
 30
0.0
 11
155.174918
 21
176.544168
 31
0.0
  0
LINE
  5
287
100
AcDbEntity
  8
0
  6
Continuous
 62
   174
100
AcDbLine
 10
155.174918
 20
176.544168
 30
0.0
 11
155.174918
 21
175.390978
 31
0.0
  0
ARC
  5
288
100
AcDbEntity
  8
0
  6
Continuous
 62
   174
100
AcDbCircle
 10
163.174918
 20
133.750927
 30
0.0
 40
5.0
100
AcDbArc
 50
-87.885527
 51
87.885527
  0
LINE
  5
289
100
AcDbEntity
  8
0
  6
Continuous
 62
   174
100
AcDbLine
 10
159.074918
 20
204.303174
 30
0.0
 11
159.074918
 21
205.026555
 31
0.0
  0
LINE
  5
28A
100
AcDbEntity
  8
0
  6
Continuous
 62
   174
100
AcDbLine
 10
167.674918
 20
208.050456
 30
0.0
 11
167.674918
 21
211.029596
 31
0.0
  0
LINE
  5
28B
100
AcDbEntity
  8
0
  6
HIDDEN
 62
   174
100
AcDbLine
 10
167.200456
 20
172.916078
 30
0.0
 11
163.200531
 21
172.916078
 31
0.0
  0
LINE
  5
28C
100
AcDbEntity
  8
0
  6
HIDDEN
 62
   174
100
AcDbLine
 10
168.174918
 20
179.263616
 30
0.0
 11
168.174918
 21
180.441813
 31
0.0
  0
LINE
  5
28D
100
AcDbEntity
  8
0
  6
Continuous
 62
   174
100
AcDbLine
 10
173.174918
 20
170.120433
 30
0.0
 11
173.174918
 21
167.350927
 31
0.0
  0
ARC
  5
28E
100
AcDbEntity
  8
0
  6
Continuous
 62
   174
100
AcDbCircle
 10
163.174918
 20
133.750927
 30
0.0
 40
4.2
100
AcDbArc
 50
31.24736
 51
58.405554
  0
LINE
  5
28F
100
AcDbEntity
  8
0
  6
HIDDEN
 62
   174
100
AcDbLine
 10
167.674918
 20
206.302385
 30
0.0
 11
167.674918
 21
204.342828
 31
0.0
  0
LINE
  5
290
100
AcDbEntity
  8
0
  6
Continuous
 62
   174
100
AcDbLine
 10
153.174918
 20
192.441287
 30
0.0
 11
153.174918
 21
192.667794
 31
0.0
  0
LINE
  5
291
100
AcDbEntity
  8
0
  6
HIDDEN
 62
   174
100
AcDbLine
 10
173.174918
 20
192.646165
 30
0.0
 11
173.174918
 21
189.111571
 31
0.0
  0
LINE
  5
292
100
AcDbEntity
  8
0
  6
Continuous
 62
   174
100
AcDbLine
 10
158.174918
 20
209.730305
 30
0.0
 11
158.174918
 21
198.706582
 31
0.0
  0
LINE
  5
293
100
AcDbEntity
  8
0
  6
HIDDEN
 62
   174
100
AcDbLine
 10
158.174918
 20
192.608675
 30
0.0
 11
156.174918
 21
192.608675
 31
0.0
  0
LINE
  5
294
100
AcDbEntity
  8
0
  6
HIDDEN
 62
   174
100
AcDbLine
 10
158.174918
 20
210.304462
 30
0.0
 11
156.174918
 21
210.304462
 31
0.0
  0
LINE
  5
295
100
AcDbEntity
  8
0
  6
HIDDEN
 62
   174
100
AcDbLine
 10
158.674918
 20
204.341025
 30
0.0
 11
158.674918
 21
204.342828
 31
0.0
  0
LINE
  5
296
100
AcDbEntity
  8
0
  6
Continuous
 62
   174
100
AcDbLine
 10
167.274918
 20
205.026555
 30
0.0
 11
167.274918
 21
208.03844
 31
0.0
  0
LINE
  5
297
100
AcDbEntity
  8
0
  6
Continuous
 62
   174
100
AcDbLine
 10
158.674918
 20
205.099554
 30
0.0
 11
158.674918
 21
208.050456
 31
0.0
  0
LINE
  5
298
100
AcDbEntity
  8
0
  6
Continuous
 62
   174
100
AcDbLine
 10
167.674918
 20
217.935662
 30
0.0
 11
167.674918
 21
217.940168
 31
0.0
  0
LINE
  5
299
100
AcDbEntity
  8
0
  6
Continuous
 62
   174
100
AcDbLine
 10
173.674918
 20
180.310922
 30
0.0
 11
173.674918
 21
178.512146
 31
0.0
  0
LINE
  5
29A
100
AcDbEntity
  8
0
  6
HIDDEN
 62
   174
100
AcDbLine
 10
173.174918
 20
177.880938
 30
0.0
 11
173.174918
 21
176.811557
 31
0.0
  0
LINE
  5
29B
100
AcDbEntity
  8
0
  6
HIDDEN
 62
   174
100
AcDbLine
 10
152.674918
 20
176.121655
 30
0.0
 11
152.674918
 21
174.91672
 31
0.0
  0
LINE
  5
29C
100
AcDbEntity
  8
0
  6
HIDDEN
 62
   174
100
AcDbLine
 10
170.774918
 20
189.111571
 30
0.0
 11
170.774918
 21
192.646165
 31
0.0
  0
LINE
  5
29D
100
AcDbEntity
  8
0
  6
Continuous
 62
   174
100
AcDbLine
 10
156.174918
 20
211.192718
 30
0.0
 11
156.174918
 21
210.37591
 31
0.0
  0
LINE
  5
29E
100
AcDbEntity
  8
0
  6
HIDDEN
 62
   174
100
AcDbLine
 10
167.674918
 20
206.304462
 30
0.0
 11
158.674918
 21
206.304462
 31
0.0
  0
LINE
  5
29F
100
AcDbEntity
  8
0
  6
Continuous
 62
   174
100
AcDbLine
 10
148.174918
 20
96.750927
 30
0.0
 11
178.174918
 21
96.750927
 31
0.0
  0
LINE
  5
2A0
100
AcDbEntity
  8
0
  6
Continuous
 62
   174
100
AcDbLine
 10
153.174918
 20
181.736765
 30
0.0
 11
153.174918
 21
180.310922
 31
0.0
  0
LINE
  5
2A1
100
AcDbEntity
  8
0
  6
Continuous
 62
   174
100
AcDbLine
 10
167.174918
 20
167.350927
 30
0.0
 11
170.774918
 21
167.350927
 31
0.0
  0
LINE
  5
2A2
100
AcDbEntity
  8
0
  6
HIDDEN
 62
   174
100
AcDbLine
 10
148.174918
 20
173.789892
 30
0.0
 11
148.174918
 21
179.789329
 31
0.0
  0
ARC
  5
2A3
100
AcDbEntity
  8
0
  6
Continuous
 62
   174
100
AcDbCircle
 10
163.174918
 20
133.750927
 30
0.0
 40
4.2
100
AcDbArc
 50
211.24736
 51
238.405554
  0
LINE
  5
2A4
100
AcDbEntity
  8
0
  6
Continuous
 62
   174
100
AcDbLine
 10
153.174918
 20
177.880938
 30
0.0
 11
153.174918
 21
176.811557
 31
0.0
  0
LINE
  5
2A5
100
AcDbEntity
  8
0
  6
HIDDEN
 62
   174
100
AcDbLine
 10
148.174918
 20
179.750927
 30
0.0
 11
152.674918
 21
179.750927
 31
0.0
  0
LINE
  5
2A6
100
AcDbEntity
  8
0
  6
Continuous
 62
   174
100
AcDbLine
 10
168.174918
 20
179.225191
 30
0.0
 11
168.174918
 21
180.401824
 31
0.0
  0
LINE
  5
2A7
100
AcDbEntity
  8
0
  6
Continuous
 62
   174
100
AcDbLine
 10
168.174918
 20
212.137799
 30
0.0
 11
168.174918
 21
209.766684
 31
0.0
  0
LINE
  5
2A8
100
AcDbEntity
  8
0
  6
Continuous
 62
   174
100
AcDbLine
 10
158.174918
 20
212.342377
 30
0.0
 11
158.174918
 21
209.766684
 31
0.0
  0
LINE
  5
2A9
100
AcDbEntity
  8
0
  6
Continuous
 62
   174
100
AcDbLine
 10
173.174918
 20
189.112172
 30
0.0
 11
173.174918
 21
192.441287
 31
0.0
  0
LINE
  5
2AA
100
AcDbEntity
  8
0
  6
Continuous
 62
   174
100
AcDbLine
 10
170.774918
 20
181.736765
 30
0.0
 11
170.774918
 21
181.402614
 31
0.0
  0
LWPOLYLINE
  5
2AB
100
AcDbEntity
  8
0
  6
Continuous
 62
   174
100
AcDbPolyline
 90
        5
 70
   128
 10
155.174918
 20
176.544168
 10
154.409551
 20
176.693972
 10
153.760705
 20
177.120575
 10
153.327159
 20
177.759033
 10
153.174918
 20
178.512146
  0
LINE
  5
2AC
100
AcDbEntity
  8
0
  6
HIDDEN
 62
   174
100
AcDbLine
 10
159.074918
 20
198.341589
 30
0.0
 11
159.074918
 21
198.346095
 31
0.0
  0
LINE
  5
2AD
100
AcDbEntity
  8
0
  6
HIDDEN
 62
   174
100
AcDbLine
 10
170.174918
 20
179.263616
 30
0.0
 11
170.174918
 21
178.442001
 31
0.0
  0
LINE
  5
2AE
100
AcDbEntity
  8
0
  6
Continuous
 62
   174
100
AcDbLine
 10
173.174918
 20
175.12577
 30
0.0
 11
173.174918
 21
170.120433
 31
0.0
  0
LINE
  5
2AF
100
AcDbEntity
  8
0
  6
HIDDEN
 62
   174
100
AcDbLine
 10
170.774918
 20
176.811557
 30
0.0
 11
170.774918
 21
173.157792
 31
0.0
  0
LINE
  5
2B0
100
AcDbEntity
  8
0
  6
HIDDEN
 62
   174
100
AcDbLine
 10
167.174918
 20
173.157792
 30
0.0
 11
166.016797
 21
173.157792
 31
0.0
  0
LINE
  5
2B1
100
AcDbEntity
  8
0
  6
Continuous
 62
   174
100
AcDbLine
 10
170.174918
 20
211.178298
 30
0.0
 11
170.174918
 21
210.370202
 31
0.0
  0
LINE
  5
2B2
100
AcDbEntity
  8
0
  6
HIDDEN
 62
   174
100
AcDbLine
 10
155.574918
 20
178.905741
 30
0.0
 11
155.574918
 21
175.519365
 31
0.0
  0
LINE
  5
2B3
100
AcDbEntity
  8
0
  6
HIDDEN
 62
   174
100
AcDbLine
 10
155.574918
 20
192.608675
 30
0.0
 11
153.174918
 21
192.608675
 31
0.0
  0
LINE
  5
2B4
100
AcDbEntity
  8
0
  6
HIDDEN
 62
   174
100
AcDbLine
 10
173.174918
 20
189.108567
 30
0.0
 11
173.174918
 21
188.978791
 31
0.0
  0
LINE
  5
2B5
100
AcDbEntity
  8
0
  6
HIDDEN
 62
   174
100
AcDbLine
 10
170.174918
 20
206.304462
 30
0.0
 11
168.174918
 21
206.304462
 31
0.0
  0
LINE
  5
2B6
100
AcDbEntity
  8
0
  6
Continuous
 62
   174
100
AcDbLine
 10
173.674918
 20
178.512146
 30
0.0
 11
173.674918
 21
177.880938
 31
0.0
  0
LINE
  5
2B7
100
AcDbEntity
  8
0
  6
HIDDEN
 62
   174
100
AcDbLine
 10
173.674918
 20
176.121655
 30
0.0
 11
173.674918
 21
177.457566
 31
0.0
  0
LINE
  5
2B8
100
AcDbEntity
  8
0
  6
HIDDEN
 62
   174
100
AcDbLine
 10
152.674918
 20
174.91672
 30
0.0
 11
152.674918
 21
173.789892
 31
0.0
  0
LINE
  5
2B9
100
AcDbEntity
  8
0
  6
Continuous
 62
   174
100
AcDbLine
 10
159.174918
 20
165.750927
 30
0.0
 11
159.174918
 21
172.916078
 31
0.0
  0
LINE
  5
2BA
100
AcDbEntity
  8
0
  6
HIDDEN
 62
   174
100
AcDbLine
 10
170.174918
 20
176.544168
 30
0.0
 11
168.174918
 21
176.544168
 31
0.0
  0
LINE
  5
2BB
100
AcDbEntity
  8
0
  6
HIDDEN
 62
   174
100
AcDbLine
 10
170.174918
 20
210.304462
 30
0.0
 11
168.174918
 21
210.304462
 31
0.0
  0
LINE
  5
2BC
100
AcDbEntity
  8
0
  6
Continuous
 62
   174
100
AcDbLine
 10
170.774918
 20
167.350927
 30
0.0
 11
173.174918
 21
167.350927
 31
0.0
  0
LINE
  5
2BD
100
AcDbEntity
  8
0
  6
Continuous
 62
   174
100
AcDbLine
 10
159.174918
 20
165.750927
 30
0.0
 11
159.174918
 21
172.916078
 31
0.0
  0
LINE
  5
2BE
100
AcDbEntity
  8
0
  6
HIDDEN
 62
   174
100
AcDbLine
 10
153.174918
 20
176.254735
 30
0.0
 11
153.174918
 21
178.228412
 31
0.0
  0
LINE
  5
2BF
100
AcDbEntity
  8
0
  6
Continuous
 62
   174
100
AcDbLine
 10
153.174918
 20
176.811557
 30
0.0
 11
153.174918
 21
175.12577
 31
0.0
  0
LINE
  5
2C0
100
AcDbEntity
  8
0
  6
HIDDEN
 62
   174
100
AcDbLine
 10
158.674918
 20
204.342828
 30
0.0
 11
158.674918
 21
206.302385
 31
0.0
  0
LINE
  5
2C1
100
AcDbEntity
  8
0
  6
Continuous
 62
   174
100
AcDbLine
 10
167.274918
 20
204.304976
 30
0.0
 11
167.274918
 21
205.026555
 31
0.0
  0
LINE
  5
2C2
100
AcDbEntity
  8
0
  6
Continuous
 62
   174
100
AcDbLine
 10
159.074918
 20
200.132017
 30
0.0
 11
159.074918
 21
204.303174
 31
0.0
  0
LINE
  5
2C3
100
AcDbEntity
  8
0
  6
Continuous
 62
   174
100
AcDbLine
 10
158.674918
 20
217.935662
 30
0.0
 11
158.674918
 21
217.940168
 31
0.0
  0
LINE
  5
2C4
100
AcDbEntity
  8
0
  6
Continuous
 62
   174
100
AcDbLine
 10
167.674918
 20
205.099554
 30
0.0
 11
167.674918
 21
208.050456
 31
0.0
  0
LINE
  5
2C5
100
AcDbEntity
  8
0
  6
HIDDEN
 62
   174
100
AcDbLine
 10
148.174918
 20
173.750927
 30
0.0
 11
152.674918
 21
173.750927
 31
0.0
  0
ARC
  5
2C6
100
AcDbEntity
  8
0
  6
Continuous
 62
   174
100
AcDbCircle
 10
163.174918
 20
133.750927
 30
0.0
 40
4.2
100
AcDbArc
 50
0.0
 51
31.24736
  0
LINE
  5
2C7
100
AcDbEntity
  8
0
  6
Continuous
 62
   174
100
AcDbLine
 10
156.174918
 20
209.730305
 30
0.0
 11
158.174918
 21
209.730305
 31
0.0
  0
LINE
  5
2C8
100
AcDbEntity
  8
0
  6
Continuous
 62
   174
100
AcDbLine
 10
168.174918
 20
180.401824
 30
0.0
 11
168.174918
 21
181.402614
 31
0.0
  0
LINE
  5
2C9
100
AcDbEntity
  8
0
  6
Continuous
 62
   174
100
AcDbLine
 10
155.174918
 20
175.390978
 30
0.0
 11
155.174918
 21
173.157792
 31
0.0
  0
ARC
  5
2CA
100
AcDbEntity
  8
0
  6
Continuous
 62
   174
100
AcDbCircle
 10
163.174918
 20
133.750927
 30
0.0
 40
5.0
100
AcDbArc
 50
-272.114473
 51
-270.0
  0
LINE
  5
2CB
100
AcDbEntity
  8
0
  6
Continuous
 62
   174
100
AcDbLine
 10
155.574918
 20
181.736765
 30
0.0
 11
155.574918
 21
181.402614
 31
0.0
  0
LINE
  5
2CC
100
AcDbEntity
  8
0
  6
Continuous
 62
   174
100
AcDbLine
 10
173.174918
 20
181.775022
 30
0.0
 11
173.174918
 21
186.585445
 31
0.0
  0
LINE
  5
2CD
100
AcDbEntity
  8
0
  6
Continuous
 62
   174
100
AcDbLine
 10
155.574918
 20
197.608675
 30
0.0
 11
153.174918
 21
197.608675
 31
0.0
  0
LINE
  5
2CE
100
AcDbEntity
  8
0
  6
HIDDEN
 62
   174
100
AcDbLine
 10
148.174918
 20
141.250927
 30
0.0
 11
156.574918
 21
141.250927
 31
0.0
  0
LINE
  5
2CF
100
AcDbEntity
  8
0
  6
Continuous
 62
   174
100
AcDbLine
 10
158.674918
 20
199.126253
 30
0.0
 11
158.674918
 21
205.099554
 31
0.0
  0
LINE
  5
2D0
100
AcDbEntity
  8
0
  6
Continuous
 62
   174
100
AcDbLine
 10
153.174918
 20
189.112172
 30
0.0
 11
153.174918
 21
192.441287
 31
0.0
  0
LINE
  5
2D1
100
AcDbEntity
  8
0
  6
HIDDEN
 62
   174
100
AcDbLine
 10
173.674918
 20
179.750927
 30
0.0
 11
178.174918
 21
179.750927
 31
0.0
  0
LINE
  5
2D2
100
AcDbEntity
  8
0
  6
Continuous
 62
   174
100
AcDbLine
 10
156.174918
 20
216.340199
 30
0.0
 11
156.174918
 21
211.192718
 31
0.0
  0
LINE
  5
2D3
100
AcDbEntity
  8
0
  6
Continuous
 62
   174
100
AcDbLine
 10
158.174918
 20
198.706582
 30
0.0
 11
158.174918
 21
181.402614
 31
0.0
  0
LINE
  5
2D4
100
AcDbEntity
  8
0
  6
Continuous
 62
   174
100
AcDbLine
 10
148.174918
 20
165.750927
 30
0.0
 11
178.174918
 21
165.750927
 31
0.0
  0
LINE
  5
2D5
100
AcDbEntity
  8
0
  6
HIDDEN
 62
   174
100
AcDbLine
 10
167.274918
 20
198.341589
 30
0.0
 11
167.274918
 21
198.346095
 31
0.0
  0
LINE
  5
2D6
100
AcDbEntity
  8
0
  6
HIDDEN
 62
   174
100
AcDbLine
 10
168.174918
 20
186.646428
 30
0.0
 11
168.174918
 21
189.111571
 31
0.0
  0
LINE
  5
2D7
100
AcDbEntity
  8
0
  6
HIDDEN
 62
   174
100
AcDbLine
 10
173.674918
 20
173.750927
 30
0.0
 11
178.174918
 21
173.750927
 31
0.0
  0
LINE
  5
2D8
100
AcDbEntity
  8
0
  6
HIDDEN
 62
   174
100
AcDbLine
 10
170.774918
 20
177.880938
 30
0.0
 11
170.774918
 21
176.811557
 31
0.0
  0
ARC
  5
2D9
100
AcDbEntity
  8
0
  6
Continuous
 62
   174
100
AcDbCircle
 10
163.174918
 20
133.750927
 30
0.0
 40
4.2
100
AcDbArc
 50
180.0
 51
211.24736
  0
LINE
  5
2DA
100
AcDbEntity
  8
0
  6
Continuous
 62
   174
100
AcDbLine
 10
153.174918
 20
180.310922
 30
0.0
 11
153.174918
 21
178.512146
 31
0.0
  0
LINE
  5
2DB
100
AcDbEntity
  8
0
  6
HIDDEN
 62
   174
100
AcDbLine
 10
173.174918
 20
186.608675
 30
0.0
 11
170.774918
 21
186.608675
 31
0.0
  0
LINE
  5
2DC
100
AcDbEntity
  8
0
  6
HIDDEN
 62
   174
100
AcDbLine
 10
168.174918
 20
206.304462
 30
0.0
 11
167.674918
 21
206.304462
 31
0.0
  0
LINE
  5
2DD
100
AcDbEntity
  8
0
  6
HIDDEN
 62
   174
100
AcDbLine
 10
156.174918
 20
210.340762
 30
0.0
 11
156.174918
 21
208.785853
 31
0.0
  0
LINE
  5
2DE
100
AcDbEntity
  8
0
  6
Continuous
 62
   174
100
AcDbLine
 10
173.674918
 20
177.880938
 30
0.0
 11
173.674918
 21
176.811557
 31
0.0
  0
LINE
  5
2DF
100
AcDbEntity
  8
0
  6
Continuous
 62
   174
100
AcDbLine
 10
161.96826
 20
172.916078
 30
0.0
 11
159.200606
 21
172.916078
 31
0.0
  0
LINE
  5
2E0
100
AcDbEntity
  8
0
  6
HIDDEN
 62
   174
100
AcDbLine
 10
168.174918
 20
210.304462
 30
0.0
 11
167.674918
 21
210.304462
 31
0.0
  0
LINE
  5
2E1
100
AcDbEntity
  8
0
  6
Continuous
 62
   174
100
AcDbLine
 10
152.674918
 20
180.310922
 30
0.0
 11
152.674918
 21
178.512146
 31
0.0
  0
LINE
  5
2E2
100
AcDbEntity
  8
0
  6
Continuous
 62
   174
100
AcDbLine
 10
173.174918
 20
167.350927
 30
0.0
 11
173.674918
 21
167.350927
 31
0.0
  0
LINE
  5
2E3
100
AcDbEntity
  8
0
  6
Continuous
 62
   174
100
AcDbLine
 10
173.174918
 20
186.585445
 30
0.0
 11
173.174918
 21
189.112172
 31
0.0
  0
LINE
  5
2E4
100
AcDbEntity
  8
0
  6
HIDDEN
 62
   174
100
AcDbLine
 10
173.674918
 20
179.490123
 30
0.0
 11
173.674918
 21
179.789329
 31
0.0
  0
LINE
  5
2E5
100
AcDbEntity
  8
0
  6
HIDDEN
 62
   174
100
AcDbLine
 10
173.174918
 20
179.789329
 30
0.0
 11
173.174918
 21
178.228412
 31
0.0
  0
LINE
  5
2E6
100
AcDbEntity
  8
0
  6
Continuous
 62
   174
100
AcDbLine
 10
170.774918
 20
181.402614
 30
0.0
 11
170.774918
 21
180.401824
 31
0.0
  0
LINE
  5
2E7
100
AcDbEntity
  8
0
  6
Continuous
 62
   174
100
AcDbLine
 10
173.174918
 20
177.880938
 30
0.0
 11
173.174918
 21
176.811557
 31
0.0
  0
LINE
  5
2E8
100
AcDbEntity
  8
0
  6
HIDDEN
 62
   174
100
AcDbLine
 10
178.174918
 20
179.789329
 30
0.0
 11
178.174918
 21
173.789892
 31
0.0
  0
LINE
  5
2E9
100
AcDbEntity
  8
0
  6
Continuous
 62
   174
100
AcDbLine
 10
168.174918
 20
216.304462
 30
0.0
 11
170.174918
 21
216.304462
 31
0.0
  0
LINE
  5
2EA
100
AcDbEntity
  8
0
  6
HIDDEN
 62
   174
100
AcDbLine
 10
166.016797
 20
173.157792
 30
0.0
 11
163.174918
 21
173.157792
 31
0.0
  0
LINE
  5
2EB
100
AcDbEntity
  8
0
  6
Continuous
 62
   174
100
AcDbLine
 10
170.174918
 20
175.390978
 30
0.0
 11
170.174918
 21
178.405019
 31
0.0
  0
LINE
  5
2EC
100
AcDbEntity
  8
0
  6
HIDDEN
 62
   174
100
AcDbLine
 10
148.174918
 20
156.250927
 30
0.0
 11
156.574918
 21
156.250927
 31
0.0
  0
LINE
  5
2ED
100
AcDbEntity
  8
0
  6
HIDDEN
 62
   174
100
AcDbLine
 10
158.674918
 20
198.704462
 30
0.0
 11
159.074918
 21
198.304462
 31
0.0
  0
LINE
  5
2EE
100
AcDbEntity
  8
0
  6
Continuous
 62
   174
100
AcDbLine
 10
173.174918
 20
181.736765
 30
0.0
 11
170.774918
 21
181.736765
 31
0.0
  0
LINE
  5
2EF
100
AcDbEntity
  8
0
  6
HIDDEN
 62
   174
100
AcDbLine
 10
153.174918
 20
178.228412
 30
0.0
 11
153.174918
 21
179.789329
 31
0.0
  0
LINE
  5
2F0
100
AcDbEntity
  8
0
  6
Continuous
 62
   174
100
AcDbLine
 10
168.174918
 20
216.340199
 30
0.0
 11
168.174918
 21
212.137799
 31
0.0
  0
LINE
  5
2F1
100
AcDbEntity
  8
0
  6
HIDDEN
 62
   174
100
AcDbLine
 10
155.574918
 20
167.252785
 30
0.0
 11
153.174918
 21
167.252785
 31
0.0
  0
LINE
  5
2F2
100
AcDbEntity
  8
0
  6
HIDDEN
 62
   174
100
AcDbLine
 10
158.674918
 20
206.302385
 30
0.0
 11
158.674918
 21
210.373807
 31
0.0
  0
LINE
  5
2F3
100
AcDbEntity
  8
0
  6
Continuous
 62
   174
100
AcDbLine
 10
159.074918
 20
217.753315
 30
0.0
 11
159.074918
 21
218.335505
 31
0.0
  0
LINE
  5
2F4
100
AcDbEntity
  8
0
  6
HIDDEN
 62
   174
100
AcDbLine
 10
173.674918
 20
177.457566
 30
0.0
 11
173.674918
 21
178.6622
 31
0.0
  0
LINE
  5
2F5
100
AcDbEntity
  8
0
  6
HIDDEN
 62
   174
100
AcDbLine
 10
158.174918
 20
176.544168
 30
0.0
 11
156.174918
 21
176.544168
 31
0.0
  0
LINE
  5
2F6
100
AcDbEntity
  8
0
  6
HIDDEN
 62
   174
100
AcDbLine
 10
173.174918
 20
192.646165
 30
0.0
 11
173.174918
 21
189.108567
 31
0.0
  0
LINE
  5
2F7
100
AcDbEntity
  8
0
  6
Continuous
 62
   174
100
AcDbLine
 10
167.274918
 20
200.132017
 30
0.0
 11
167.274918
 21
204.304976
 31
0.0
  0
LINE
  5
2F8
100
AcDbEntity
  8
0
  6
HIDDEN
 62
   174
100
AcDbLine
 10
148.174918
 20
141.250927
 30
0.0
 11
156.574918
 21
141.250927
 31
0.0
  0
LINE
  5
2F9
100
AcDbEntity
  8
0
  6
Continuous
 62
   174
100
AcDbLine
 10
159.074918
 20
198.341589
 30
0.0
 11
159.074918
 21
200.132017
 31
0.0
  0
LINE
  5
2FA
100
AcDbEntity
  8
0
  6
HIDDEN
 62
   174
100
AcDbLine
 10
156.574918
 20
144.291987
 30
0.0
 11
156.574918
 21
153.291292
 31
0.0
  0
LINE
  5
2FB
100
AcDbEntity
  8
0
  6
Continuous
 62
   174
100
AcDbLine
 10
152.674918
 20
178.512146
 30
0.0
 11
152.674918
 21
177.880938
 31
0.0
  0
LINE
  5
2FC
100
AcDbEntity
  8
0
  6
Continuous
 62
   174
100
AcDbLine
 10
173.174918
 20
197.608675
 30
0.0
 11
170.774918
 21
197.608675
 31
0.0
  0
LINE
  5
2FD
100
AcDbEntity
  8
0
  6
Continuous
 62
   174
100
AcDbLine
 10
173.174918
 20
170.120433
 30
0.0
 11
170.774918
 21
170.120433
 31
0.0
  0
ARC
  5
2FE
100
AcDbEntity
  8
0
  6
Continuous
 62
   174
100
AcDbCircle
 10
163.174918
 20
133.750927
 30
0.0
 40
4.2
100
AcDbArc
 50
330.718189
 51
360.0
  0
LINE
  5
2FF
100
AcDbEntity
  8
0
  6
Continuous
 62
   174
100
AcDbLine
 10
156.174918
 20
175.390978
 30
0.0
 11
156.174918
 21
178.905741
 31
0.0
  0
LINE
  5
300
100
AcDbEntity
  8
0
  6
Continuous
 62
   174
100
AcDbLine
 10
158.174918
 20
216.340199
 30
0.0
 11
158.174918
 21
212.342377
 31
0.0
  0
LINE
  5
301
100
AcDbEntity
  8
0
  6
HIDDEN
 62
   174
100
AcDbLine
 10
173.174918
 20
178.512146
 30
0.0
 11
173.174918
 21
177.880938
 31
0.0
  0
LINE
  5
302
100
AcDbEntity
  8
0
  6
HIDDEN
 62
   174
100
AcDbLine
 10
170.174918
 20
186.608675
 30
0.0
 11
168.174918
 21
186.608675
 31
0.0
  0
ARC
  5
303
100
AcDbEntity
  8
0
  6
Continuous
 62
   174
100
AcDbCircle
 10
163.174918
 20
133.750927
 30
0.0
 40
5.0
100
AcDbArc
 50
-270.0
 51
-267.885527
  0
LINE
  5
304
100
AcDbEntity
  8
0
  6
HIDDEN
 62
   174
100
AcDbLine
 10
167.674918
 20
206.304462
 30
0.0
 11
158.674918
 21
206.304462
 31
0.0
  0
LINE
  5
305
100
AcDbEntity
  8
0
  6
Continuous
 62
   174
100
AcDbLine
 10
173.674918
 20
176.811557
 30
0.0
 11
173.674918
 21
175.12577
 31
0.0
  0
LINE
  5
306
100
AcDbEntity
  8
0
  6
HIDDEN
 62
   174
100
AcDbLine
 10
167.674918
 20
210.304462
 30
0.0
 11
158.674918
 21
210.304462
 31
0.0
  0
LINE
  5
307
100
AcDbEntity
  8
0
  6
HIDDEN
 62
   174
100
AcDbLine
 10
148.174918
 20
156.250927
 30
0.0
 11
156.574918
 21
156.250927
 31
0.0
  0
LINE
  5
308
100
AcDbEntity
  8
0
  6
Continuous
 62
   174
100
AcDbLine
 10
167.274918
 20
218.304462
 30
0.0
 11
159.074918
 21
218.304462
 31
0.0
  0
LINE
  5
309
100
AcDbEntity
  8
0
  6
Continuous
 62
   174
100
AcDbLine
 10
158.674918
 20
198.741431
 30
0.0
 11
158.674918
 21
199.126253
 31
0.0
  0
LINE
  5
30A
100
AcDbEntity
  8
0
  6
Continuous
 62
   174
100
AcDbLine
 10
153.174918
 20
186.585445
 30
0.0
 11
153.174918
 21
189.112172
 31
0.0
  0
LINE
  5
30B
100
AcDbEntity
  8
0
  6
HIDDEN
 62
   174
100
AcDbLine
 10
155.574918
 20
173.789892
 30
0.0
 11
155.574918
 21
176.254735
 31
0.0
  0
LINE
  5
30C
100
AcDbEntity
  8
0
  6
Continuous
 62
   174
100
AcDbLine
 10
173.674918
 20
184.750927
 30
0.0
 11
178.174918
 21
184.750927
 31
0.0
  0
LINE
  5
30D
100
AcDbEntity
  8
0
  6
Continuous
 62
   174
100
AcDbLine
 10
173.174918
 20
176.811557
 30
0.0
 11
173.174918
 21
175.12577
 31
0.0
  0
LINE
  5
30E
100
AcDbEntity
  8
0
  6
HIDDEN
 62
   174
100
AcDbLine
 10
170.174918
 20
207.093959
 30
0.0
 11
170.174918
 21
206.340837
 31
0.0
  0
LINE
  5
30F
100
AcDbEntity
  8
0
  6
Continuous
 62
   174
100
AcDbLine
 10
155.574918
 20
181.402614
 30
0.0
 11
155.574918
 21
180.310922
 31
0.0
  0
LINE
  5
310
100
AcDbEntity
  8
0
  6
HIDDEN
 62
   174
100
AcDbLine
 10
152.674918
 20
179.789329
 30
0.0
 11
152.674918
 21
179.490123
 31
0.0
  0
LINE
  5
311
100
AcDbEntity
  8
0
  6
Continuous
 62
   174
100
AcDbLine
 10
170.774918
 20
173.157792
 30
0.0
 11
170.774918
 21
170.120433
 31
0.0
  0
LINE
  5
312
100
AcDbEntity
  8
0
  6
Continuous
 62
   174
100
AcDbLine
 10
170.774918
 20
180.401824
 30
0.0
 11
170.774918
 21
180.310922
 31
0.0
  0
ARC
  5
313
100
AcDbEntity
  8
0
  6
Continuous
 62
   174
100
AcDbCircle
 10
163.174918
 20
133.750927
 30
0.0
 40
4.2
100
AcDbArc
 50
150.718189
 51
180.0
  0
LINE
  5
314
100
AcDbEntity
  8
0
  6
Continuous
 62
   174
100
AcDbLine
 10
163.200531
 20
172.916078
 30
0.0
 11
161.96826
 21
172.916078
 31
0.0
  0
LINE
  5
315
100
AcDbEntity
  8
0
  6
HIDDEN
 62
   174
100
AcDbLine
 10
163.174918
 20
173.157792
 30
0.0
 11
160.333039
 21
173.157792
 31
0.0
  0
LINE
  5
316
100
AcDbEntity
  8
0
  6
Continuous
 62
   174
100
AcDbLine
 10
171.174918
 20
173.157792
 30
0.0
 11
167.174918
 21
173.157792
 31
0.0
  0
LINE
  5
317
100
AcDbEntity
  8
0
  6
HIDDEN
 62
   174
100
AcDbLine
 10
153.174918
 20
188.978791
 30
0.0
 11
153.174918
 21
186.646428
 31
0.0
  0
LINE
  5
318
100
AcDbEntity
  8
0
  6
Continuous
 62
   174
100
AcDbLine
 10
152.674918
 20
177.880938
 30
0.0
 11
152.674918
 21
176.811557
 31
0.0
  0
LINE
  5
319
100
AcDbEntity
  8
0
  6
HIDDEN
 62
   174
100
AcDbLine
 10
173.174918
 20
176.811557
 30
0.0
 11
170.774918
 21
176.811557
 31
0.0
  0
LINE
  5
31A
100
AcDbEntity
  8
0
  6
HIDDEN
 62
   174
100
AcDbLine
 10
170.774918
 20
167.350927
 30
0.0
 11
170.774918
 21
167.252785
 31
0.0
  0
LINE
  5
31B
100
AcDbEntity
  8
0
  6
HIDDEN
 62
   174
100
AcDbLine
 10
170.774918
 20
176.254735
 30
0.0
 11
170.774918
 21
179.789329
 31
0.0
  0
LINE
  5
31C
100
AcDbEntity
  8
0
  6
HIDDEN
 62
   174
100
AcDbLine
 10
158.674918
 20
206.304462
 30
0.0
 11
158.174918
 21
206.304462
 31
0.0
  0
LINE
  5
31D
100
AcDbEntity
  8
0
  6
HIDDEN
 62
   174
100
AcDbLine
 10
158.674918
 20
210.373807
 30
0.0
 11
158.674918
 21
212.340574
 31
0.0
  0
LINE
  5
31E
100
AcDbEntity
  8
0
  6
HIDDEN
 62
   174
100
AcDbLine
 10
148.174918
 20
141.250927
 30
0.0
 11
156.574918
 21
141.250927
 31
0.0
  0
LINE
  5
31F
100
AcDbEntity
  8
0
  6
Continuous
 62
   174
100
AcDbLine
 10
159.074918
 20
216.189094
 30
0.0
 11
159.074918
 21
217.753315
 31
0.0
  0
LINE
  5
320
100
AcDbEntity
  8
0
  6
Continuous
 62
   174
100
AcDbLine
 10
173.674918
 20
175.12577
 30
0.0
 11
173.674918
 21
170.120433
 31
0.0
  0
LINE
  5
321
100
AcDbEntity
  8
0
  6
Continuous
 62
   174
100
AcDbLine
 10
168.174918
 20
175.390978
 30
0.0
 11
170.174918
 21
175.390978
 31
0.0
  0
LINE
  5
322
100
AcDbEntity
  8
0
  6
Continuous
 62
   174
100
AcDbLine
 10
170.174918
 20
178.405019
 30
0.0
 11
170.174918
 21
178.905741
 31
0.0
  0
LINE
  5
323
100
AcDbEntity
  8
0
  6
HIDDEN
 62
   174
100
AcDbLine
 10
158.674918
 20
206.304462
 30
0.0
 11
158.174918
 21
206.304462
 31
0.0
  0
LINE
  5
324
100
AcDbEntity
  8
0
  6
HIDDEN
 62
   174
100
AcDbLine
 10
158.674918
 20
210.304462
 30
0.0
 11
158.174918
 21
210.304462
 31
0.0
  0
LINE
  5
325
100
AcDbEntity
  8
0
  6
HIDDEN
 62
   174
100
AcDbLine
 10
173.674918
 20
178.6622
 30
0.0
 11
173.674918
 21
179.490123
 31
0.0
  0
LWPOLYLINE
  5
326
100
AcDbEntity
  8
0
  6
Continuous
 62
   174
100
AcDbPolyline
 90
        4
 70
   128
 10
171.174918
 20
173.157792
 10
172.174918
 20
173.421451
 10
172.906969
 20
174.141781
 10
173.174918
 20
175.12577
  0
LWPOLYLINE
  5
327
100
AcDbEntity
  8
0
  6
Continuous
 62
   174
100
AcDbPolyline
 90
        4
 70
   128
 10
173.174918
 20
178.512146
 10
172.906969
 20
177.528157
 10
172.174918
 20
176.807827
 10
171.174918
 20
176.544168
  0
LINE
  5
328
100
AcDbEntity
  8
0
  6
Continuous
 62
   174
100
AcDbLine
 10
170.774918
 20
180.310922
 30
0.0
 11
170.774918
 21
179.225191
 31
0.0
  0
LINE
  5
329
100
AcDbEntity
  8
0
  6
Continuous
 62
   174
100
AcDbLine
 10
170.174918
 20
209.730305
 30
0.0
 11
170.174918
 21
197.608844
 31
0.0
  0
LWPOLYLINE
  5
32A
100
AcDbEntity
  8
0
  6
Continuous
 62
   174
100
AcDbPolyline
 90
        4
 70
   128
 10
153.174918
 20
175.12577
 10
153.442867
 20
174.141781
 10
154.174918
 20
173.421451
 10
155.174918
 20
173.157792
  0
LINE
  5
32B
100
AcDbEntity
  8
0
  6
HIDDEN
 62
   174
100
AcDbLine
 10
155.574918
 20
176.811557
 30
0.0
 11
155.574918
 21
173.157792
 31
0.0
  0
LINE
  5
32C
100
AcDbEntity
  8
0
  6
Continuous
 62
   174
100
AcDbLine
 10
167.274918
 20
198.741431
 30
0.0
 11
167.274918
 21
200.132017
 31
0.0
  0
LINE
  5
32D
100
AcDbEntity
  8
0
  6
Continuous
 62
   174
100
AcDbLine
 10
167.274918
 20
217.753315
 30
0.0
 11
167.274918
 21
218.335505
 31
0.0
  0
LINE
  5
32E
100
AcDbEntity
  8
0
  6
HIDDEN
 62
   174
100
AcDbLine
 10
156.574918
 20
156.291161
 30
0.0
 11
156.574918
 21
141.292119
 31
0.0
  0
LINE
  5
32F
100
AcDbEntity
  8
0
  6
HIDDEN
 62
   174
100
AcDbLine
 10
173.174918
 20
189.111571
 30
0.0
 11
173.174918
 21
186.646428
 31
0.0
  0
LINE
  5
330
100
AcDbEntity
  8
0
  6
HIDDEN
 62
   174
100
AcDbLine
 10
170.774918
 20
173.789892
 30
0.0
 11
170.774918
 21
176.254735
 31
0.0
  0
ARC
  5
331
100
AcDbEntity
  8
0
  6
Continuous
 62
   174
100
AcDbCircle
 10
163.174918
 20
133.750927
 30
0.0
 40
4.2
100
AcDbArc
 50
301.594446
 51
330.718189
  0
LINE
  5
332
100
AcDbEntity
  8
0
  6
Continuous
 62
   174
100
AcDbLine
 10
170.774918
 20
178.905741
 30
0.0
 11
170.174918
 21
178.905741
 31
0.0
  0
LINE
  5
333
100
AcDbEntity
  8
0
  6
Continuous
 62
   174
100
AcDbLine
 10
156.174918
 20
178.905741
 30
0.0
 11
156.174918
 21
180.310922
 31
0.0
  0
LINE
  5
334
100
AcDbEntity
  8
0
  6
Continuous
 62
   174
100
AcDbLine
 10
156.174918
 20
209.730305
 30
0.0
 11
156.174918
 21
197.608844
 31
0.0
  0
ARC
  5
335
100
AcDbEntity
  8
0
  6
Continuous
 62
   174
100
AcDbCircle
 10
163.174918
 20
133.750927
 30
0.0
 40
5.0
100
AcDbArc
 50
-267.885527
 51
-151.175158
  0
LINE
  5
336
100
AcDbEntity
  8
0
  6
Continuous
 62
   174
100
AcDbLine
 10
173.174918
 20
180.310922
 30
0.0
 11
170.774918
 21
180.310922
 31
0.0
  0
LINE
  5
337
100
AcDbEntity
  8
0
  6
HIDDEN
 62
   174
100
AcDbLine
 10
173.174918
 20
178.228412
 30
0.0
 11
173.174918
 21
176.254735
 31
0.0
  0
LINE
  5
338
100
AcDbEntity
  8
0
  6
HIDDEN
 62
   174
100
AcDbLine
 10
170.774918
 20
186.646428
 30
0.0
 11
170.774918
 21
189.111571
 31
0.0
  0
LINE
  5
339
100
AcDbEntity
  8
0
  6
Continuous
 62
   174
100
AcDbLine
 10
167.674918
 20
217.375703
 30
0.0
 11
167.674918
 21
217.935662
 31
0.0
  0
LINE
  5
33A
100
AcDbEntity
  8
0
  6
Continuous
 62
   174
100
AcDbLine
 10
153.174918
 20
181.775022
 30
0.0
 11
153.174918
 21
186.585445
 31
0.0
  0
LINE
  5
33B
100
AcDbEntity
  8
0
  6
Continuous
 62
   174
100
AcDbLine
 10
152.674918
 20
176.811557
 30
0.0
 11
152.674918
 21
175.12577
 31
0.0
  0
LINE
  5
33C
100
AcDbEntity
  8
0
  6
Continuous
 62
   174
100
AcDbLine
 10
178.174918
 20
184.750927
 30
0.0
 11
178.174918
 21
165.750927
 31
0.0
  0
LINE
  5
33D
100
AcDbEntity
  8
0
  6
Continuous
 62
   174
100
AcDbLine
 10
160.333039
 20
173.157792
 30
0.0
 11
159.174918
 21
173.157792
 31
0.0
  0
LINE
  5
33E
100
AcDbEntity
  8
0
  6
HIDDEN
 62
   174
100
AcDbLine
 10
158.174918
 20
206.304462
 30
0.0
 11
156.174918
 21
206.304462
 31
0.0
  0
LINE
  5
33F
100
AcDbEntity
  8
0
  6
HIDDEN
 62
   174
100
AcDbLine
 10
158.174918
 20
206.304462
 30
0.0
 11
156.174918
 21
206.304462
 31
0.0
  0
LINE
  5
340
100
AcDbEntity
  8
0
  6
HIDDEN
 62
   174
100
AcDbLine
 10
167.674918
 20
198.704462
 30
0.0
 11
167.274918
 21
198.304462
 31
0.0
  0
LINE
  5
341
100
AcDbEntity
  8
0
  6
Continuous
 62
   174
100
AcDbLine
 10
167.274918
 20
198.304462
 30
0.0
 11
159.074918
 21
198.304462
 31
0.0
  0
LINE
  5
342
100
AcDbEntity
  8
0
  6
Continuous
 62
   174
100
AcDbLine
 10
173.674918
 20
170.120433
 30
0.0
 11
173.674918
 21
167.350927
 31
0.0
  0
ARC
  5
343
100
AcDbEntity
  8
0
  6
Continuous
 62
   174
100
AcDbCircle
 10
163.174918
 20
133.750927
 30
0.0
 40
4.2
100
AcDbArc
 50
121.594446
 51
150.718189
  0
LINE
  5
344
100
AcDbEntity
  8
0
  6
HIDDEN
 62
   174
100
AcDbLine
 10
158.174918
 20
210.304462
 30
0.0
 11
156.174918
 21
210.304462
 31
0.0
  0
LINE
  5
345
100
AcDbEntity
  8
0
  6
HIDDEN
 62
   174
100
AcDbLine
 10
159.174918
 20
167.350927
 30
0.0
 11
167.174918
 21
167.350927
 31
0.0
  0
LINE
  5
346
100
AcDbEntity
  8
0
  6
Continuous
 62
   174
100
AcDbLine
 10
164.433103
 20
172.916078
 30
0.0
 11
163.200531
 21
172.916078
 31
0.0
  0
LINE
  5
347
100
AcDbEntity
  8
0
  6
HIDDEN
 62
   174
100
AcDbLine
 10
153.174918
 20
173.789892
 30
0.0
 11
153.174918
 21
175.25588
 31
0.0
  0
LINE
  5
348
100
AcDbEntity
  8
0
  6
Continuous
 62
   174
100
AcDbLine
 10
170.174918
 20
178.905741
 30
0.0
 11
170.174918
 21
179.225191
 31
0.0
  0
LINE
  5
349
100
AcDbEntity
  8
0
  6
HIDDEN
 62
   174
100
AcDbLine
 10
167.674918
 20
204.342828
 30
0.0
 11
167.674918
 21
204.341025
 31
0.0
  0
LINE
  5
34A
100
AcDbEntity
  8
0
  6
HIDDEN
 62
   174
100
AcDbLine
 10
156.174918
 20
186.646428
 30
0.0
 11
156.174918
 21
189.111571
 31
0.0
  0
LINE
  5
34B
100
AcDbEntity
  8
0
  6
HIDDEN
 62
   174
100
AcDbLine
 10
155.574918
 20
176.811557
 30
0.0
 11
153.174918
 21
176.811557
 31
0.0
  0
LINE
  5
34C
100
AcDbEntity
  8
0
  6
HIDDEN
 62
   174
100
AcDbLine
 10
170.174918
 20
208.785853
 30
0.0
 11
170.174918
 21
207.093959
 31
0.0
  0
LINE
  5
34D
100
AcDbEntity
  8
0
  6
HIDDEN
 62
   174
100
AcDbLine
 10
148.174918
 20
141.250927
 30
0.0
 11
156.574918
 21
141.250927
 31
0.0
  0
LINE
  5
34E
100
AcDbEntity
  8
0
  6
Continuous
 62
   174
100
AcDbLine
 10
148.174918
 20
96.750927
 30
0.0
 11
148.174918
 21
165.750927
 31
0.0
  0
LINE
  5
34F
100
AcDbEntity
  8
0
  6
Continuous
 62
   174
100
AcDbLine
 10
168.174918
 20
178.905741
 30
0.0
 11
158.174918
 21
178.905741
 31
0.0
  0
LINE
  5
350
100
AcDbEntity
  8
0
  6
Continuous
 62
   174
100
AcDbLine
 10
159.074918
 20
211.078563
 30
0.0
 11
159.074918
 21
216.189094
 31
0.0
  0
LINE
  5
351
100
AcDbEntity
  8
0
  6
HIDDEN
 62
   174
100
AcDbLine
 10
153.174918
 20
177.880938
 30
0.0
 11
153.174918
 21
176.811557
 31
0.0
  0
LINE
  5
352
100
AcDbEntity
  8
0
  6
HIDDEN
 62
   174
100
AcDbLine
 10
152.674918
 20
179.490123
 30
0.0
 11
152.674918
 21
178.6622
 31
0.0
  0
LINE
  5
353
100
AcDbEntity
  8
0
  6
Continuous
 62
   174
100
AcDbLine
 10
156.174918
 20
180.310922
 30
0.0
 11
156.174918
 21
181.402614
 31
0.0
  0
LINE
  5
354
100
AcDbEntity
  8
0
  6
HIDDEN
 62
   174
100
AcDbLine
 10
156.574918
 20
156.291161
 30
0.0
 11
156.574918
 21
141.292119
 31
0.0
  0
LINE
  5
355
100
AcDbEntity
  8
0
  6
Continuous
 62
   174
100
AcDbLine
 10
158.674918
 20
215.940056
 30
0.0
 11
158.674918
 21
217.375703
 31
0.0
  0
LINE
  5
356
100
AcDbEntity
  8
0
  6
Continuous
 62
   174
100
AcDbLine
 10
152.674918
 20
175.12577
 30
0.0
 11
152.674918
 21
170.120433
 31
0.0
  0
LINE
  5
357
100
AcDbEntity
  8
0
  6
HIDDEN
 62
   174
100
AcDbLine
 10
153.174918
 20
186.646428
 30
0.0
 11
153.174918
 21
189.111571
 31
0.0
  0
LINE
  5
358
100
AcDbEntity
  8
0
  6
Continuous
 62
   174
100
AcDbLine
 10
159.174918
 20
173.157792
 30
0.0
 11
155.174918
 21
173.157792
 31
0.0
  0
LINE
  5
359
100
AcDbEntity
  8
0
  6
HIDDEN
 62
   174
100
AcDbLine
 10
153.174918
 20
189.108567
 30
0.0
 11
153.174918
 21
188.978791
 31
0.0
  0
LINE
  5
35A
100
AcDbEntity
  8
0
  6
Continuous
 62
   174
100
AcDbLine
 10
167.274918
 20
198.341589
 30
0.0
 11
167.274918
 21
198.741431
 31
0.0
  0
LINE
  5
35B
100
AcDbEntity
  8
0
  6
HIDDEN
 62
   174
100
AcDbLine
 10
170.174918
 20
192.646165
 30
0.0
 11
170.174918
 21
189.111571
 31
0.0
  0
LINE
  5
35C
100
AcDbEntity
  8
0
  6
HIDDEN
 62
   174
100
AcDbLine
 10
173.174918
 20
167.350927
 30
0.0
 11
173.174918
 21
167.252785
 31
0.0
  0
LINE
  5
35D
100
AcDbEntity
  8
0
  6
Continuous
 62
   174
100
AcDbLine
 10
148.174918
 20
184.750927
 30
0.0
 11
152.674918
 21
184.750927
 31
0.0
  0
LINE
  5
35E
100
AcDbEntity
  8
0
  6
Continuous
 62
   174
100
AcDbLine
 10
170.774918
 20
179.225191
 30
0.0
 11
170.774918
 21
178.905741
 31
0.0
  0
ARC
  5
35F
100
AcDbEntity
  8
0
  6
Continuous
 62
   174
100
AcDbCircle
 10
163.174918
 20
133.750927
 30
0.0
 40
4.2
100
AcDbArc
 50
297.92554
 51
301.594446
  0
LINE
  5
360
100
AcDbEntity
  8
0
  6
Continuous
 62
   174
100
AcDbLine
 10
168.174918
 20
181.402614
 30
0.0
 11
170.174918
 21
181.402614
 31
0.0
  0
LINE
  5
361
100
AcDbEntity
  8
0
  6
Continuous
 62
   174
100
AcDbLine
 10
170.174918
 20
197.608844
 30
0.0
 11
170.174918
 21
181.736765
 31
0.0
  0
LINE
  5
362
100
AcDbEntity
  8
0
  6
HIDDEN
 62
   174
100
AcDbLine
 10
156.174918
 20
207.093959
 30
0.0
 11
156.174918
 21
206.340837
 31
0.0
  0
LINE
  5
363
100
AcDbEntity
  8
0
  6
Continuous
 62
   174
100
AcDbLine
 10
158.674918
 20
217.375703
 30
0.0
 11
158.674918
 21
217.935662
 31
0.0
  0
LINE
  5
364
100
AcDbEntity
  8
0
  6
HIDDEN
 62
   174
100
AcDbLine
 10
156.174918
 20
189.111571
 30
0.0
 11
156.174918
 21
192.646165
 31
0.0
  0
LINE
  5
365
100
AcDbEntity
  8
0
  6
Continuous
 62
   174
100
AcDbLine
 10
170.774918
 20
170.120433
 30
0.0
 11
170.774918
 21
167.350927
 31
0.0
  0
LINE
  5
366
100
AcDbEntity
  8
0
  6
HIDDEN
 62
   174
100
AcDbLine
 10
170.174918
 20
178.905741
 30
0.0
 11
168.174918
 21
178.905741
 31
0.0
  0
LINE
  5
367
100
AcDbEntity
  8
0
  6
Continuous
 62
   174
100
AcDbLine
 10
156.174918
 20
197.608844
 30
0.0
 11
156.174918
 21
181.736765
 31
0.0
  0
LINE
  5
368
100
AcDbEntity
  8
0
  6
Continuous
 62
   174
100
AcDbLine
 10
170.174918
 20
179.225191
 30
0.0
 11
170.174918
 21
180.310922
 31
0.0
  0
LINE
  5
369
100
AcDbEntity
  8
0
  6
HIDDEN
 62
   174
100
AcDbLine
 10
155.574918
 20
177.880938
 30
0.0
 11
155.574918
 21
176.811557
 31
0.0
  0
LINE
  5
36A
100
AcDbEntity
  8
0
  6
Continuous
 62
   174
100
AcDbLine
 10
155.574918
 20
182.969441
 30
0.0
 11
155.574918
 21
197.645845
 31
0.0
  0
LINE
  5
36B
100
AcDbEntity
  8
0
  6
Continuous
 62
   174
100
AcDbLine
 10
173.174918
 20
181.736765
 30
0.0
 11
173.174918
 21
180.310922
 31
0.0
  0
LINE
  5
36C
100
AcDbEntity
  8
0
  6
HIDDEN
 62
   174
100
AcDbLine
 10
173.174918
 20
176.254735
 30
0.0
 11
173.174918
 21
175.25588
 31
0.0
  0
LINE
  5
36D
100
AcDbEntity
  8
0
  6
Continuous
 62
   174
100
AcDbLine
 10
155.574918
 20
180.310922
 30
0.0
 11
153.174918
 21
180.310922
 31
0.0
  0
LINE
  5
36E
100
AcDbEntity
  8
0
  6
HIDDEN
 62
   174
100
AcDbLine
 10
153.174918
 20
175.25588
 30
0.0
 11
153.174918
 21
176.254735
 31
0.0
  0
ARC
  5
36F
100
AcDbEntity
  8
0
  6
Continuous
 62
   174
100
AcDbCircle
 10
163.174918
 20
133.750927
 30
0.0
 40
4.2
100
AcDbArc
 50
117.92554
 51
121.594446
  0
LINE
  5
370
100
AcDbEntity
  8
0
  6
Continuous
 62
   174
100
AcDbLine
 10
156.174918
 20
178.905741
 30
0.0
 11
155.574918
 21
178.905741
 31
0.0
  0
LINE
  5
371
100
AcDbEntity
  8
0
  6
Continuous
 62
   174
100
AcDbLine
 10
171.174918
 20
176.544168
 30
0.0
 11
171.174918
 21
173.157792
 31
0.0
  0
LINE
  5
372
100
AcDbEntity
  8
0
  6
HIDDEN
 62
   174
100
AcDbLine
 10
167.674918
 20
212.340574
 30
0.0
 11
167.674918
 21
210.373807
 31
0.0
  0
LINE
  5
373
100
AcDbEntity
  8
0
  6
Continuous
 62
   174
100
AcDbLine
 10
167.274918
 20
216.189094
 30
0.0
 11
167.274918
 21
217.753315
 31
0.0
  0
LINE
  5
374
100
AcDbEntity
  8
0
  6
Continuous
 62
   174
100
AcDbLine
 10
153.174918
 20
175.12577
 30
0.0
 11
153.174918
 21
170.120433
 31
0.0
  0
LINE
  5
375
100
AcDbEntity
  8
0
  6
Continuous
 62
   174
100
AcDbLine
 10
167.200456
 20
172.916078
 30
0.0
 11
164.433103
 21
172.916078
 31
0.0
  0
LINE
  5
376
100
AcDbEntity
  8
0
  6
HIDDEN
 62
   174
100
AcDbLine
 10
158.174918
 20
192.646165
 30
0.0
 11
158.174918
 21
189.111571
 31
0.0
  0
ARC
  5
377
100
AcDbEntity
  8
0
  6
Continuous
 62
   174
100
AcDbCircle
 10
163.174918
 20
133.750927
 30
0.0
 40
4.2
100
AcDbArc
 50
242.07446
 51
270.0
  0
LINE
  5
378
100
AcDbEntity
  8
0
  6
Continuous
 62
   174
100
AcDbLine
 10
156.174918
 20
175.390978
 30
0.0
 11
158.174918
 21
175.390978
 31
0.0
  0
LINE
  5
379
100
AcDbEntity
  8
0
  6
Continuous
 62
   174
100
AcDbLine
 10
152.674918
 20
170.120433
 30
0.0
 11
152.674918
 21
167.350927
 31
0.0
  0
LINE
  5
37A
100
AcDbEntity
  8
0
  6
HIDDEN
 62
   174
100
AcDbLine
 10
170.774918
 20
175.519365
 30
0.0
 11
170.774918
 21
178.905741
 31
0.0
  0
LINE
  5
37B
100
AcDbEntity
  8
0
  6
Continuous
 62
   174
100
AcDbLine
 10
155.574918
 20
180.310922
 30
0.0
 11
155.574918
 21
178.905741
 31
0.0
  0
LINE
  5
37C
100
AcDbEntity
  8
0
  6
Continuous
 62
   174
100
AcDbLine
 10
167.674918
 20
215.940056
 30
0.0
 11
167.674918
 21
217.375703
 31
0.0
  0
LINE
  5
37D
100
AcDbEntity
  8
0
  6
HIDDEN
 62
   174
100
AcDbLine
 10
148.174918
 20
141.292119
 30
0.0
 11
148.174918
 21
156.291161
 31
0.0
  0
LINE
  5
37E
100
AcDbEntity
  8
0
  6
HIDDEN
 62
   174
100
AcDbLine
 10
173.174918
 20
167.252785
 30
0.0
 11
170.774918
 21
167.252785
 31
0.0
  0
ARC
  5
37F
100
AcDbEntity
  8
0
  6
Continuous
 62
   174
100
AcDbCircle
 10
163.174918
 20
133.750927
 30
0.0
 40
4.2
100
AcDbArc
 50
62.07446
 51
90.0
  0
LINE
  5
380
100
AcDbEntity
  8
0
  6
Continuous
 62
   174
100
AcDbLine
 10
159.074918
 20
208.03844
 30
0.0
 11
159.074918
 21
211.078563
 31
0.0
  0
LINE
  5
381
100
AcDbEntity
  8
0
  6
HIDDEN
 62
   174
100
AcDbLine
 10
163.200531
 20
172.916078
 30
0.0
 11
159.200606
 21
172.916078
 31
0.0
  0
LINE
  5
382
100
AcDbEntity
  8
0
  6
Continuous
 62
   174
100
AcDbLine
 10
173.174918
 20
192.667794
 30
0.0
 11
173.174918
 21
197.645845
 31
0.0
  0
LINE
  5
383
100
AcDbEntity
  8
0
  6
Continuous
 62
   174
100
AcDbLine
 10
170.774918
 20
182.969441
 30
0.0
 11
170.774918
 21
197.645845
 31
0.0
  0
LINE
  5
384
100
AcDbEntity
  8
0
  6
HIDDEN
 62
   174
100
AcDbLine
 10
155.574918
 20
186.646428
 30
0.0
 11
155.574918
 21
189.111571
 31
0.0
  0
LINE
  5
385
100
AcDbEntity
  8
0
  6
Continuous
 62
   174
100
AcDbLine
 10
170.174918
 20
180.310922
 30
0.0
 11
170.174918
 21
180.401824
 31
0.0
  0
LINE
  5
386
100
AcDbEntity
  8
0
  6
Continuous
 62
   174
100
AcDbLine
 10
170.174918
 20
181.736765
 30
0.0
 11
170.174918
 21
181.402614
 31
0.0
  0
LINE
  5
387
100
AcDbEntity
  8
0
  6
HIDDEN
 62
   174
100
AcDbLine
 10
153.174918
 20
178.512146
 30
0.0
 11
153.174918
 21
177.880938
 31
0.0
  0
LINE
  5
388
100
AcDbEntity
  8
0
  6
HIDDEN
 62
   174
100
AcDbLine
 10
170.174918
 20
210.304462
 30
0.0
 11
168.174918
 21
210.304462
 31
0.0
  0
LINE
  5
389
100
AcDbEntity
  8
0
  6
HIDDEN
 62
   174
100
AcDbLine
 10
170.174918
 20
210.340762
 30
0.0
 11
170.174918
 21
208.785853
 31
0.0
  0
LINE
  5
38A
100
AcDbEntity
  8
0
  6
Continuous
 62
   174
100
AcDbLine
 10
148.174918
 20
184.750927
 30
0.0
 11
148.174918
 21
165.750927
 31
0.0
  0
LINE
  5
38B
100
AcDbEntity
  8
0
  6
HIDDEN
 62
   174
100
AcDbLine
 10
170.174918
 20
189.111571
 30
0.0
 11
170.174918
 21
186.646428
 31
0.0
  0
LINE
  5
38C
100
AcDbEntity
  8
0
  6
Continuous
 62
   174
100
AcDbLine
 10
168.174918
 20
209.730305
 30
0.0
 11
170.174918
 21
209.730305
 31
0.0
  0
LINE
  5
38D
100
AcDbEntity
  8
0
  6
Continuous
 62
   174
100
AcDbLine
 10
156.174918
 20
181.736765
 30
0.0
 11
156.174918
 21
181.402614
 31
0.0
  0
LINE
  5
38E
100
AcDbEntity
  8
0
  6
Continuous
 62
   174
100
AcDbLine
 10
170.174918
 20
216.340199
 30
0.0
 11
170.174918
 21
211.178298
 31
0.0
  0
LINE
  5
38F
100
AcDbEntity
  8
0
  6
HIDDEN
 62
   174
100
AcDbLine
 10
168.174918
 20
210.304462
 30
0.0
 11
167.674918
 21
210.304462
 31
0.0
  0
LINE
  5
390
100
AcDbEntity
  8
0
  6
Continuous
 62
   174
100
AcDbLine
 10
155.574918
 20
170.120433
 30
0.0
 11
155.574918
 21
167.350927
 31
0.0
  0
LINE
  5
391
100
AcDbEntity
  8
0
  6
Continuous
 62
   174
100
AcDbLine
 10
158.674918
 20
211.029596
 30
0.0
 11
158.674918
 21
215.940056
 31
0.0
  0
LINE
  5
392
100
AcDbEntity
  8
0
  6
HIDDEN
 62
   174
100
AcDbLine
 10
153.174918
 20
176.811557
 30
0.0
 11
153.174918
 21
175.12577
 31
0.0
  0
ARC
  5
393
100
AcDbEntity
  8
0
  6
Continuous
 62
   174
100
AcDbCircle
 10
163.174918
 20
163.750927
 30
0.0
 40
10.0
100
AcDbArc
 50
90.0
 51
113.578178
  0
LINE
  5
394
100
AcDbEntity
  8
0
  6
HIDDEN
 62
   174
100
AcDbLine
 10
173.674918
 20
173.789892
 30
0.0
 11
173.674918
 21
174.91672
 31
0.0
  0
LINE
  5
395
100
AcDbEntity
  8
0
  6
HIDDEN
 62
   174
100
AcDbLine
 10
152.674918
 20
178.6622
 30
0.0
 11
152.674918
 21
177.457566
 31
0.0
  0
LINE
  5
396
100
AcDbEntity
  8
0
  6
Continuous
 62
   174
100
AcDbLine
 10
167.274918
 20
218.335505
 30
0.0
 11
167.274918
 21
218.340011
 31
0.0
  0
LINE
  5
397
100
AcDbEntity
  8
0
  6
HIDDEN
 62
   174
100
AcDbLine
 10
148.174918
 20
156.250927
 30
0.0
 11
156.574918
 21
156.250927
 31
0.0
  0
LINE
  5
398
100
AcDbEntity
  8
0
  6
Continuous
 62
   174
100
AcDbLine
 10
152.674918
 20
184.750927
 30
0.0
 11
152.674918
 21
181.736765
 31
0.0
  0
LINE
  5
399
100
AcDbEntity
  8
0
  6
HIDDEN
 62
   174
100
AcDbLine
 10
173.674918
 20
179.750927
 30
0.0
 11
178.174918
 21
179.750927
 31
0.0
  0
LINE
  5
39A
100
AcDbEntity
  8
0
  6
HIDDEN
 62
   174
100
AcDbLine
 10
167.200456
 20
165.750927
 30
0.0
 11
159.200606
 21
165.750927
 31
0.0
  0
ARC
  5
39B
100
AcDbEntity
  8
0
  6
Continuous
 62
   174
100
AcDbCircle
 10
163.174918
 20
133.750927
 30
0.0
 40
4.2
100
AcDbArc
 50
270.0
 51
297.92554
  0
LINE
  5
39C
100
AcDbEntity
  8
0
  6
HIDDEN
 62
   174
100
AcDbLine
 10
153.174918
 20
192.646165
 30
0.0
 11
153.174918
 21
189.108567
 31
0.0
  0
LINE
  5
39D
100
AcDbEntity
  8
0
  6
Continuous
 62
   174
100
AcDbLine
 10
153.174918
 20
170.120433
 30
0.0
 11
153.174918
 21
167.350927
 31
0.0
  0
LINE
  5
39E
100
AcDbEntity
  8
0
  6
Continuous
 62
   174
100
AcDbLine
 10
173.674918
 20
184.750927
 30
0.0
 11
173.674918
 21
181.736765
 31
0.0
  0
LINE
  5
39F
100
AcDbEntity
  8
0
  6
Continuous
 62
   174
100
AcDbLine
 10
152.674918
 20
167.350927
 30
0.0
 11
153.174918
 21
167.350927
 31
0.0
  0
LINE
  5
3A0
100
AcDbEntity
  8
0
  6
HIDDEN
 62
   174
100
AcDbLine
 10
158.174918
 20
178.905741
 30
0.0
 11
156.174918
 21
178.905741
 31
0.0
  0
LINE
  5
3A1
100
AcDbEntity
  8
0
  6
Continuous
 62
   174
100
AcDbLine
 10
167.274918
 20
211.078563
 30
0.0
 11
167.274918
 21
216.189094
 31
0.0
  0
LINE
  5
3A2
100
AcDbEntity
  8
0
  6
HIDDEN
 62
   174
100
AcDbLine
 10
148.174918
 20
156.250927
 30
0.0
 11
156.574918
 21
156.250927
 31
0.0
  0
LINE
  5
3A3
100
AcDbEntity
  8
0
  6
Continuous
 62
   174
100
AcDbLine
 10
167.674918
 20
199.126253
 30
0.0
 11
167.674918
 21
205.099554
 31
0.0
  0
LINE
  5
3A4
100
AcDbEntity
  8
0
  6
HIDDEN
 62
   174
100
AcDbLine
 10
148.174918
 20
141.292119
 30
0.0
 11
148.174918
 21
156.291161
 31
0.0
  0
LINE
  5
3A5
100
AcDbEntity
  8
0
  6
Continuous
 62
   174
100
AcDbLine
 10
171.174918
 20
176.544168
 30
0.0
 11
170.174918
 21
176.544168
 31
0.0
  0
LINE
  5
3A6
100
AcDbEntity
  8
0
  6
Continuous
 62
   174
100
AcDbLine
 10
153.174918
 20
192.667794
 30
0.0
 11
153.174918
 21
197.645845
 31
0.0
  0
ARC
  5
3A7
100
AcDbEntity
  8
0
  6
Continuous
 62
   174
100
AcDbCircle
 10
163.174918
 20
133.750927
 30
0.0
 40
4.2
100
AcDbArc
 50
90.0
 51
117.92554
  0
LINE
  5
3A8
100
AcDbEntity
  8
0
  6
Continuous
 62
   174
100
AcDbLine
 10
168.174918
 20
175.390978
 30
0.0
 11
168.174918
 21
178.405019
 31
0.0
  0
LINE
  5
3A9
100
AcDbEntity
  8
0
  6
Continuous
 62
   174
100
AcDbLine
 10
170.174918
 20
180.401824
 30
0.0
 11
170.174918
 21
181.402614
 31
0.0
  0
ARC
  5
3AA
100
AcDbEntity
  8
0
  6
Continuous
 62
   174
100
AcDbCircle
 10
163.174918
 20
133.750927
 30
0.0
 40
5.0
100
AcDbArc
 50
-90.0
 51
-87.885527
  0
LINE
  5
3AB
100
AcDbEntity
  8
0
  6
Continuous
 62
   174
100
AcDbLine
 10
155.574918
 20
170.120433
 30
0.0
 11
153.174918
 21
170.120433
 31
0.0
  0
LINE
  5
3AC
100
AcDbEntity
  8
0
  6
Continuous
 62
   174
100
AcDbLine
 10
155.574918
 20
181.736765
 30
0.0
 11
153.174918
 21
181.736765
 31
0.0
  0
LINE
  5
3AD
100
AcDbEntity
  8
0
  6
HIDDEN
 62
   174
100
AcDbLine
 10
167.674918
 20
217.904462
 30
0.0
 11
167.274918
 21
218.304462
 31
0.0
  0
LINE
  5
3AE
100
AcDbEntity
  8
0
  6
HIDDEN
 62
   174
100
AcDbLine
 10
148.174918
 20
173.750927
 30
0.0
 11
152.674918
 21
173.750927
 31
0.0
  0
LINE
  5
3AF
100
AcDbEntity
  8
0
  6
HIDDEN
 62
   174
100
AcDbLine
 10
155.574918
 20
176.254735
 30
0.0
 11
155.574918
 21
179.789329
 31
0.0
  0
LINE
  5
3B0
100
AcDbEntity
  8
0
  6
Continuous
 62
   174
100
AcDbLine
 10
156.174918
 20
210.37591
 30
0.0
 11
156.174918
 21
209.766684
 31
0.0
  0
LINE
  5
3B1
100
AcDbEntity
  8
0
  6
HIDDEN
 62
   174
100
AcDbLine
 10
156.174918
 20
208.785853
 30
0.0
 11
156.174918
 21
207.093959
 31
0.0
  0
LINE
  5
3B2
100
AcDbEntity
  8
0
  6
Continuous
 62
   174
100
AcDbLine
 10
155.574918
 20
173.157792
 30
0.0
 11
155.574918
 21
170.120433
 31
0.0
  0
LINE
  5
3B3
100
AcDbEntity
  8
0
  6
HIDDEN
 62
   174
100
AcDbLine
 10
173.674918
 20
173.750927
 30
0.0
 11
178.174918
 21
173.750927
 31
0.0
  0
LINE
  5
3B4
100
AcDbEntity
  8
0
  6
Continuous
 62
   174
100
AcDbLine
 10
173.174918
 20
180.310922
 30
0.0
 11
173.174918
 21
178.512146
 31
0.0
  0
ENDBLK
  5
3B5
100
AcDbEntity
  8
0
100
AcDbBlockEnd
  0
BLOCK
  5
3B8
100
AcDbEntity
  8
0
100
AcDbBlockBegin
  2
*B4
 70
     0
 10
0.0
 20
0.0
 30
0.0
  3
*B4
  1

  0
LINE
  5
3B9
100
AcDbEntity
  8
0
  6
Continuous
 62
     0
100
AcDbLine
 10
329.345355
 20
149.972391
 30
0.0
 11
329.345355
 21
97.976375
 31
0.0
  0
SOLID
  5
3BA
100
AcDbEntity
  8
0
  6
Continuous
 62
     0
100
AcDbTrace
 10
330.345411
 20
144.973011
 30
0.0
 11
329.345355
 21
149.972391
 31
0.0
 12
328.345299
 22
144.973011
 32
0.0
 13
328.345299
 23
144.973011
 33
0.0
  0
SOLID
  5
3BB
100
AcDbEntity
  8
0
  6
Continuous
 62
     0
100
AcDbTrace
 10
328.345299
 20
102.976055
 30
0.0
 11
329.345355
 21
97.976375
 31
0.0
 12
330.345411
 22
102.976055
 32
0.0
 13
330.345411
 23
102.976055
 33
0.0
  0
ENDBLK
  5
3BC
100
AcDbEntity
  8
0
100
AcDbBlockEnd
  0
BLOCK
  5
3BF
100
AcDbEntity
  8
0
100
AcDbBlockBegin
  2
*B5
 70
     0
 10
0.0
 20
0.0
 30
0.0
  3
*B5
  1

  0
LINE
  5
3C0
100
AcDbEntity
  8
0
  6
Continuous
 62
     0
100
AcDbLine
 10
329.345355
 20
219.520912
 30
0.0
 11
329.345355
 21
149.972391
 31
0.0
  0
SOLID
  5
3C1
100
AcDbEntity
  8
0
  6
Continuous
 62
     0
100
AcDbTrace
 10
330.345411
 20
214.521532
 30
0.0
 11
329.345355
 21
219.520912
 31
0.0
 12
328.345299
 22
214.521532
 32
0.0
 13
328.345299
 23
214.521532
 33
0.0
  0
SOLID
  5
3C2
100
AcDbEntity
  8
0
  6
Continuous
 62
     0
100
AcDbTrace
 10
328.345299
 20
154.972072
 30
0.0
 11
329.345355
 21
149.972391
 31
0.0
 12
330.345411
 22
154.972072
 32
0.0
 13
330.345411
 23
154.972072
 33
0.0
  0
ENDBLK
  5
3C3
100
AcDbEntity
  8
0
100
AcDbBlockEnd
  0
BLOCK
  5
3C6
100
AcDbEntity
  8
0
100
AcDbBlockBegin
  2
*B6
 70
     0
 10
0.0
 20
0.0
 30
0.0
  3
*B6
  1

  0
LINE
  5
3C7
100
AcDbEntity
  8
0
  6
Continuous
 62
     0
100
AcDbLine
 10
302.345338
 20
273.192601
 30
0.0
 11
302.345338
 21
201.522303
 31
0.0
  0
SOLID
  5
3C8
100
AcDbEntity
  8
0
  6
Continuous
 62
     0
100
AcDbTrace
 10
301.345282
 20
224.520593
 30
0.0
 11
302.345338
 21
219.520912
 31
0.0
 12
303.345394
 22
224.520593
 32
0.0
 13
303.345394
 23
224.520593
 33
0.0
  0
SOLID
  5
3C9
100
AcDbEntity
  8
0
  6
Continuous
 62
     0
100
AcDbTrace
 10
303.345394
 20
206.521983
 30
0.0
 11
302.345338
 21
211.521664
 31
0.0
 12
301.345282
 22
206.521983
 32
0.0
 13
301.345282
 23
206.521983
 33
0.0
  0
ENDBLK
  5
3CA
100
AcDbEntity
  8
0
100
AcDbBlockEnd
  0
BLOCK
  5
3CD
100
AcDbEntity
  8
0
100
AcDbBlockBegin
  2
*B7
 70
     0
 10
0.0
 20
0.0
 30
0.0
  3
*B7
  1

  0
LINE
  5
3CE
100
AcDbEntity
  8
0
  6
Continuous
 62
     0
100
AcDbLine
 10
316.345224
 20
267.942982
 30
0.0
 11
316.345224
 21
197.522678
 31
0.0
  0
SOLID
  5
3CF
100
AcDbEntity
  8
0
  6
Continuous
 62
     0
100
AcDbTrace
 10
315.345168
 20
216.521344
 30
0.0
 11
316.345224
 21
211.521664
 31
0.0
 12
317.345281
 22
216.521344
 32
0.0
 13
317.345281
 23
216.521344
 33
0.0
  0
SOLID
  5
3D0
100
AcDbEntity
  8
0
  6
Continuous
 62
     0
100
AcDbTrace
 10
317.345281
 20
202.522359
 30
0.0
 11
316.345224
 21
207.522039
 31
0.0
 12
315.345168
 22
202.522359
 32
0.0
 13
315.345168
 23
202.522359
 33
0.0
  0
ENDBLK
  5
3D1
100
AcDbEntity
  8
0
100
AcDbBlockEnd
  0
BLOCK
  5
3D4
100
AcDbEntity
  8
0
100
AcDbBlockBegin
  2
*B8
 70
     0
 10
0.0
 20
0.0
 30
0.0
  3
*B8
  1

  0
LINE
  5
3D5
100
AcDbEntity
  8
0
  6
Continuous
 62
     0
100
AcDbLine
 10
287.972345
 20
231.299586
 30
0.0
 11
247.972498
 21
231.299586
 31
0.0
  0
SOLID
  5
3D6
100
AcDbEntity
  8
0
  6
Continuous
 62
     0
100
AcDbTrace
 10
282.972364
 20
232.299643
 30
0.0
 11
277.972383
 21
231.299586
 31
0.0
 12
282.972364
 22
230.29983
 32
0.0
 13
282.972364
 23
230.29983
 33
0.0
  0
SOLID
  5
3D7
100
AcDbEntity
  8
0
  6
Continuous
 62
     0
100
AcDbTrace
 10
252.972479
 20
230.29983
 30
0.0
 11
257.97246
 21
231.299586
 31
0.0
 12
252.972479
 22
232.299643
 32
0.0
 13
252.972479
 23
232.299643
 33
0.0
  0
ENDBLK
  5
3D8
100
AcDbEntity
  8
0
100
AcDbBlockEnd
  0
BLOCK
  5
3DB
100
AcDbEntity
  8
0
100
AcDbBlockBegin
  2
*B9
 70
     0
 10
0.0
 20
0.0
 30
0.0
  3
*B9
  1

  0
LINE
  5
3DC
100
AcDbEntity
  8
0
  6
Continuous
 62
     0
100
AcDbLine
 10
267.972422
 20
246.298628
 30
0.0
 11
226.072197
 21
246.298628
 31
0.0
  0
SOLID
  5
3DD
100
AcDbEntity
  8
0
  6
Continuous
 62
     0
100
AcDbTrace
 10
262.972441
 20
245.298572
 30
0.0
 11
267.972422
 21
246.298628
 31
0.0
 12
262.972441
 22
247.298384
 32
0.0
 13
262.972441
 23
247.298384
 33
0.0
  0
SOLID
  5
3DE
100
AcDbEntity
  8
0
  6
Continuous
 62
     0
100
AcDbTrace
 10
231.072178
 20
247.298384
 30
0.0
 11
226.072197
 21
246.298628
 31
0.0
 12
231.072178
 22
245.298572
 32
0.0
 13
231.072178
 23
245.298572
 33
0.0
  0
ENDBLK
  5
3DF
100
AcDbEntity
  8
0
100
AcDbBlockEnd
  0
BLOCK
  5
3E2
100
AcDbEntity
  8
0
100
AcDbBlockBegin
  2
*B10
 70
     0
 10
0.0
 20
0.0
 30
0.0
  3
*B10
  1

  0
LINE
  5
3E3
100
AcDbEntity
  8
0
  6
Continuous
 62
     0
100
AcDbLine
 10
197.345438
 20
185.969911
 30
0.0
 11
197.345438
 21
97.976375
 31
0.0
  0
SOLID
  5
3E4
100
AcDbEntity
  8
0
  6
Continuous
 62
     0
100
AcDbTrace
 10
198.345194
 20
180.97023
 30
0.0
 11
197.345438
 21
185.969911
 31
0.0
 12
196.345382
 22
180.97023
 32
0.0
 13
196.345382
 23
180.97023
 33
0.0
  0
SOLID
  5
3E5
100
AcDbEntity
  8
0
  6
Continuous
 62
     0
100
AcDbTrace
 10
196.345382
 20
102.976055
 30
0.0
 11
197.345438
 21
97.976375
 31
0.0
 12
198.345194
 22
102.976055
 32
0.0
 13
198.345194
 23
102.976055
 33
0.0
  0
ENDBLK
  5
3E6
100
AcDbEntity
  8
0
100
AcDbBlockEnd
  0
BLOCK
  5
3E9
100
AcDbEntity
  8
0
100
AcDbBlockBegin
  2
*B11
 70
     0
 10
0.0
 20
0.0
 30
0.0
  3
*B11
  1

  0
LINE
  5
3EA
100
AcDbEntity
  8
0
  6
Continuous
 62
     0
100
AcDbLine
 10
211.345325
 20
135.473528
 30
0.0
 11
211.345325
 21
176.232805
 31
0.0
  0
SOLID
  5
3EB
100
AcDbEntity
  8
0
  6
Continuous
 62
     0
100
AcDbTrace
 10
212.345381
 20
140.473208
 30
0.0
 11
211.345325
 21
145.472889
 31
0.0
 12
210.345268
 22
140.473208
 32
0.0
 13
210.345268
 23
140.473208
 33
0.0
  0
SOLID
  5
3EC
100
AcDbEntity
  8
0
  6
Continuous
 62
     0
100
AcDbTrace
 10
210.345268
 20
159.471874
 30
0.0
 11
211.345325
 21
154.472194
 31
0.0
 12
212.345381
 22
159.471874
 32
0.0
 13
212.345381
 23
159.471874
 33
0.0
  0
ENDBLK
  5
3ED
100
AcDbEntity
  8
0
100
AcDbBlockEnd
  0
BLOCK
  5
3F0
100
AcDbEntity
  8
0
100
AcDbBlockBegin
  2
*B12
 70
     0
 10
0.0
 20
0.0
 30
0.0
  3
*B12
  1

  0
LINE
  5
3F1
100
AcDbEntity
  8
0
  6
Continuous
 62
     0
100
AcDbLine
 10
276.072307
 20
67.311387
 30
0.0
 11
226.072197
 21
67.311387
 31
0.0
  0
SOLID
  5
3F2
100
AcDbEntity
  8
0
  6
Continuous
 62
     0
100
AcDbTrace
 10
271.072326
 20
66.311631
 30
0.0
 11
276.072307
 21
67.311387
 31
0.0
 12
271.072326
 22
68.311443
 32
0.0
 13
271.072326
 23
68.311443
 33
0.0
  0
SOLID
  5
3F3
100
AcDbEntity
  8
0
  6
Continuous
 62
     0
100
AcDbTrace
 10
231.072178
 20
68.311443
 30
0.0
 11
226.072197
 21
67.311387
 31
0.0
 12
231.072178
 22
66.311631
 32
0.0
 13
231.072178
 23
66.311631
 33
0.0
  0
ENDBLK
  5
3F4
100
AcDbEntity
  8
0
100
AcDbBlockEnd
  0
BLOCK
  5
3F7
100
AcDbEntity
  8
0
100
AcDbBlockBegin
  2
*B13
 70
     0
 10
0.0
 20
0.0
 30
0.0
  3
*B13
  1

  0
LINE
  5
3F8
100
AcDbEntity
  8
0
  6
Continuous
 62
     0
100
AcDbLine
 10
178.200474
 20
67.130542
 30
0.0
 11
148.200588
 21
67.130542
 31
0.0
  0
SOLID
  5
3F9
100
AcDbEntity
  8
0
  6
Continuous
 62
     0
100
AcDbTrace
 10
173.200493
 20
66.130486
 30
0.0
 11
178.200474
 21
67.130542
 31
0.0
 12
173.200493
 22
68.130298
 32
0.0
 13
173.200493
 23
68.130298
 33
0.0
  0
SOLID
  5
3FA
100
AcDbEntity
  8
0
  6
Continuous
 62
     0
100
AcDbTrace
 10
153.200569
 20
68.130298
 30
0.0
 11
148.200588
 21
67.130542
 31
0.0
 12
153.200569
 22
66.130486
 32
0.0
 13
153.200569
 23
66.130486
 33
0.0
  0
ENDBLK
  5
3FB
100
AcDbEntity
  8
0
100
AcDbBlockEnd
  0
BLOCK
  5
3FE
100
AcDbEntity
  8
0
100
AcDbBlockBegin
  2
*B14
 70
     0
 10
0.0
 20
0.0
 30
0.0
  3
*B14
  1

  0
LINE
  5
3FF
100
AcDbEntity
  8
0
  6
Continuous
 62
     0
100
AcDbLine
 10
211.345325
 20
124.974289
 30
0.0
 11
211.345325
 21
97.976375
 31
0.0
  0
SOLID
  5
400
100
AcDbEntity
  8
0
  6
Continuous
 62
     0
100
AcDbTrace
 10
212.345381
 20
119.974608
 30
0.0
 11
211.345325
 21
124.974289
 31
0.0
 12
210.345268
 22
119.974608
 32
0.0
 13
210.345268
 23
119.974608
 33
0.0
  0
SOLID
  5
401
100
AcDbEntity
  8
0
  6
Continuous
 62
     0
100
AcDbTrace
 10
210.345268
 20
102.976055
 30
0.0
 11
211.345325
 21
97.976375
 31
0.0
 12
212.345381
 22
102.976055
 32
0.0
 13
212.345381
 23
102.976055
 33
0.0
  0
ENDBLK
  5
402
100
AcDbEntity
  8
0
100
AcDbBlockEnd
  0
BLOCK
  5
405
100
AcDbEntity
  8
0
100
AcDbBlockBegin
  2
*B15
 70
     0
 10
0.0
 20
0.0
 30
0.0
  3
*B15
  1

  0
LINE
  5
406
100
AcDbEntity
  8
0
  6
Continuous
 62
     0
100
AcDbLine
 10
134.714999
 20
99.59497
 30
0.0
 11
134.714999
 21
134.104872
 31
0.0
  0
SOLID
  5
407
100
AcDbEntity
  8
0
  6
Continuous
 62
     0
100
AcDbTrace
 10
135.715055
 20
104.59465
 30
0.0
 11
134.714999
 21
109.594331
 31
0.0
 12
133.714943
 22
104.59465
 32
0.0
 13
133.714943
 23
104.59465
 33
0.0
  0
SOLID
  5
408
100
AcDbEntity
  8
0
  6
Continuous
 62
     0
100
AcDbTrace
 10
133.714943
 20
122.993402
 30
0.0
 11
134.714999
 21
117.993722
 31
0.0
 12
135.715055
 22
122.993402
 32
0.0
 13
135.715055
 23
122.993402
 33
0.0
  0
ENDBLK
  5
409
100
AcDbEntity
  8
0
100
AcDbBlockEnd
  0
BLOCK
  5
40C
100
AcDbEntity
  8
0
100
AcDbBlockBegin
  2
*B16
 70
     0
 10
0.0
 20
0.0
 30
0.0
  3
*B16
  1

  0
LINE
  5
40D
100
AcDbEntity
  8
0
  6
Continuous
 62
     0
100
AcDbLine
 10
291.34532
 20
124.974289
 30
0.0
 11
291.34532
 21
87.977014
 31
0.0
  0
SOLID
  5
40E
100
AcDbEntity
  8
0
  6
Continuous
 62
     0
100
AcDbTrace
 10
290.345263
 20
119.974608
 30
0.0
 11
291.34532
 21
114.974928
 31
0.0
 12
292.345376
 22
119.974608
 32
0.0
 13
292.345376
 23
119.974608
 33
0.0
  0
SOLID
  5
40F
100
AcDbEntity
  8
0
  6
Continuous
 62
     0
100
AcDbTrace
 10
292.345376
 20
92.976694
 30
0.0
 11
291.34532
 21
97.976375
 31
0.0
 12
290.345263
 22
92.976694
 32
0.0
 13
290.345263
 23
92.976694
 33
0.0
  0
ENDBLK
  5
410
100
AcDbEntity
  8
0
100
AcDbBlockEnd
  0
BLOCK
  5
413
100
AcDbEntity
  8
0
100
AcDbBlockBegin
  2
*B17
 70
     0
 10
0.0
 20
0.0
 30
0.0
  3
*B17
  1

  0
LINE
  5
414
100
AcDbEntity
  8
0
  6
Continuous
 62
     0
100
AcDbLine
 10
291.34532
 20
114.974928
 30
0.0
 11
291.34532
 21
134.97365
 31
0.0
  0
SOLID
  5
415
100
AcDbEntity
  8
0
  6
Continuous
 62
     0
100
AcDbTrace
 10
290.345263
 20
119.974608
 30
0.0
 11
291.34532
 21
114.974928
 31
0.0
 12
292.345376
 22
119.974608
 32
0.0
 13
292.345376
 23
119.974608
 33
0.0
  0
SOLID
  5
416
100
AcDbEntity
  8
0
  6
Continuous
 62
     0
100
AcDbTrace
 10
292.345376
 20
129.973969
 30
0.0
 11
291.34532
 21
134.97365
 31
0.0
 12
290.345263
 22
129.973969
 32
0.0
 13
290.345263
 23
129.973969
 33
0.0
  0
ENDBLK
  5
417
100
AcDbEntity
  8
0
100
AcDbBlockEnd
  0
BLOCK
  5
41A
100
AcDbEntity
  8
0
100
AcDbBlockBegin
  2
*B18
 70
     0
 10
0.0
 20
0.0
 30
0.0
  3
*B18
  1

  0
LINE
  5
41B
100
AcDbEntity
  8
0
  6
Continuous
 62
     0
100
AcDbLine
 10
235.072103
 20
81.310372
 30
0.0
 11
267.072101
 21
81.310372
 31
0.0
  0
SOLID
  5
41C
100
AcDbEntity
  8
0
  6
Continuous
 62
     0
100
AcDbTrace
 10
240.072083
 20
82.310429
 30
0.0
 11
235.072103
 21
81.310372
 31
0.0
 12
240.072083
 22
80.310616
 32
0.0
 13
240.072083
 23
80.310616
 33
0.0
  0
SOLID
  5
41D
100
AcDbEntity
  8
0
  6
Continuous
 62
     0
100
AcDbTrace
 10
262.07212
 20
80.310616
 30
0.0
 11
267.072101
 21
81.310372
 31
0.0
 12
262.07212
 22
82.310429
 32
0.0
 13
262.07212
 23
82.310429
 33
0.0
  0
ENDBLK
  5
41E
100
AcDbEntity
  8
0
100
AcDbBlockEnd
  0
BLOCK
  5
421
100
AcDbEntity
  8
0
100
AcDbBlockBegin
  2
*B19
 70
     0
 10
0.0
 20
0.0
 30
0.0
  3
*B19
  1

  0
LINE
  5
422
100
AcDbEntity
  8
0
  6
Continuous
 62
     0
100
AcDbLine
 10
177.700596
 20
230.118685
 30
0.0
 11
148.700466
 21
230.118685
 31
0.0
  0
SOLID
  5
423
100
AcDbEntity
  8
0
  6
Continuous
 62
     0
100
AcDbTrace
 10
172.700615
 20
231.118741
 30
0.0
 11
167.700634
 21
230.118685
 31
0.0
 12
172.700615
 22
229.118929
 32
0.0
 13
172.700615
 23
229.118929
 33
0.0
  0
SOLID
  5
424
100
AcDbEntity
  8
0
  6
Continuous
 62
     0
100
AcDbTrace
 10
153.700447
 20
229.118929
 30
0.0
 11
158.700728
 21
230.118685
 31
0.0
 12
153.700447
 22
231.118741
 32
0.0
 13
153.700447
 23
231.118741
 33
0.0
  0
ENDBLK
  5
425
100
AcDbEntity
  8
0
100
AcDbBlockEnd
  0
BLOCK
  5
428
100
AcDbEntity
  8
0
100
AcDbBlockBegin
  2
*B20
 70
     0
 10
0.0
 20
0.0
 30
0.0
  3
*B20
  1

  0
LINE
  5
429
100
AcDbEntity
  8
0
  6
Continuous
 62
     8
100
AcDbLine
 10
257.358727
 20
190.827198
 30
0.0
 11
266.358933
 21
190.827198
 31
0.0
  0
LINE
  5
42A
100
AcDbEntity
  8
0
  6
Continuous
 62
     8
100
AcDbLine
 10
276.358895
 20
190.827198
 30
0.0
 11
285.358801
 21
190.827198
 31
0.0
  0
ENDBLK
  5
42B
100
AcDbEntity
  8
0
100
AcDbBlockEnd
  0
BLOCK
  5
42E
100
AcDbEntity
  8
0
100
AcDbBlockBegin
  2
*B21
 70
     0
 10
0.0
 20
0.0
 30
0.0
  3
*B21
  1

  0
LINE
  5
42F
100
AcDbEntity
  8
0
  6
Continuous
 62
     8
100
AcDbLine
 10
142.200551
 20
176.78946
 30
0.0
 11
159.700484
 21
176.78946
 31
0.0
  0
LINE
  5
430
100
AcDbEntity
  8
0
  6
Continuous
 62
     8
100
AcDbLine
 10
162.700653
 20
176.78946
 30
0.0
 11
163.700709
 21
176.78946
 31
0.0
  0
LINE
  5
431
100
AcDbEntity
  8
0
  6
Continuous
 62
     8
100
AcDbLine
 10
166.700578
 20
176.78946
 30
0.0
 11
184.200511
 21
176.78946
 31
0.0
  0
ENDBLK
  5
432
100
AcDbEntity
  8
0
100
AcDbBlockEnd
  0
BLOCK
  5
435
100
AcDbEntity
  8
0
100
AcDbBlockBegin
  2
*B22
 70
     0
 10
0.0
 20
0.0
 30
0.0
  3
*B22
  1

  0
LINE
  5
436
100
AcDbEntity
  8
0
  6
Continuous
 62
     8
100
AcDbLine
 10
267.072101
 20
79.31056
 30
0.0
 11
267.072101
 21
83.310485
 31
0.0
  0
LINE
  5
437
100
AcDbEntity
  8
0
  6
Continuous
 62
     8
100
AcDbLine
 10
267.072101
 20
83.310485
 30
0.0
 11
267.072101
 21
93.476272
 31
0.0
  0
LINE
  5
438
100
AcDbEntity
  8
0
  6
Continuous
 62
     8
100
AcDbLine
 10
267.072101
 20
96.47614
 30
0.0
 11
267.072101
 21
97.476196
 31
0.0
  0
LINE
  5
439
100
AcDbEntity
  8
0
  6
Continuous
 62
     8
100
AcDbLine
 10
267.072101
 20
100.475764
 30
0.0
 11
267.072101
 21
110.641851
 31
0.0
  0
LINE
  5
43A
100
AcDbEntity
  8
0
  6
Continuous
 62
     8
100
AcDbLine
 10
267.072101
 20
113.64172
 30
0.0
 11
267.072101
 21
114.641476
 31
0.0
  0
LINE
  5
43B
100
AcDbEntity
  8
0
  6
Continuous
 62
     8
100
AcDbLine
 10
267.072101
 20
117.641344
 30
0.0
 11
267.072101
 21
127.807431
 31
0.0
  0
LINE
  5
43C
100
AcDbEntity
  8
0
  6
Continuous
 62
     8
100
AcDbLine
 10
267.072101
 20
130.8073
 30
0.0
 11
267.072101
 21
131.807055
 31
0.0
  0
LINE
  5
43D
100
AcDbEntity
  8
0
  6
Continuous
 62
     8
100
AcDbLine
 10
267.072101
 20
134.806924
 30
0.0
 11
267.072101
 21
144.973011
 31
0.0
  0
LINE
  5
43E
100
AcDbEntity
  8
0
  6
Continuous
 62
     8
100
AcDbLine
 10
267.072101
 20
154.972072
 30
0.0
 11
267.072101
 21
163.471498
 31
0.0
  0
ENDBLK
  5
43F
100
AcDbEntity
  8
0
100
AcDbBlockEnd
  0
BLOCK
  5
442
100
AcDbEntity
  8
0
100
AcDbBlockBegin
  2
*B23
 70
     0
 10
0.0
 20
0.0
 30
0.0
  3
*B23
  1

  0
LINE
  5
443
100
AcDbEntity
  8
0
  6
Continuous
 62
     8
100
AcDbLine
 10
209.345212
 20
154.472194
 30
0.0
 11
232.072234
 21
154.472194
 31
0.0
  0
ENDBLK
  5
444
100
AcDbEntity
  8
0
100
AcDbBlockEnd
  0
BLOCK
  5
447
100
AcDbEntity
  8
0
100
AcDbBlockBegin
  2
*B24
 70
     0
 10
0.0
 20
0.0
 30
0.0
  3
*B24
  1

  0
LINE
  5
448
100
AcDbEntity
  8
0
  6
Continuous
 62
     8
100
AcDbLine
 10
158.700728
 20
220.937934
 30
0.0
 11
158.700728
 21
232.118497
 31
0.0
  0
ENDBLK
  5
449
100
AcDbEntity
  8
0
100
AcDbBlockEnd
  0
BLOCK
  5
44C
100
AcDbEntity
  8
0
100
AcDbBlockBegin
  2
*B25
 70
     0
 10
0.0
 20
0.0
 30
0.0
  3
*B25
  1

  0
LINE
  5
44D
100
AcDbEntity
  8
0
  6
Continuous
 62
     8
100
AcDbLine
 10
148.200588
 20
65.13073
 30
0.0
 11
148.200588
 21
93.795605
 31
0.0
  0
ENDBLK
  5
44E
100
AcDbEntity
  8
0
100
AcDbBlockEnd
  0
BLOCK
  5
451
100
AcDbEntity
  8
0
100
AcDbBlockBegin
  2
*B26
 70
     0
 10
0.0
 20
0.0
 30
0.0
  3
*B26
  1

  0
LINE
  5
452
100
AcDbEntity
  8
0
  6
Continuous
 62
     8
100
AcDbLine
 10
226.072197
 20
65.311575
 30
0.0
 11
226.072197
 21
94.976506
 31
0.0
  0
LINE
  5
453
100
AcDbEntity
  8
0
  6
Continuous
 62
     8
100
AcDbLine
 10
226.072197
 20
188.969779
 30
0.0
 11
226.072197
 21
248.29844
 31
0.0
  0
ENDBLK
  5
454
100
AcDbEntity
  8
0
100
AcDbBlockEnd
  0
BLOCK
  5
457
100
AcDbEntity
  8
0
100
AcDbBlockBegin
  2
*B27
 70
     0
 10
0.0
 20
0.0
 30
0.0
  3
*B27
  1

  0
LINE
  5
458
100
AcDbEntity
  8
0
  6
Continuous
 62
     8
100
AcDbLine
 10
178.200474
 20
65.13073
 30
0.0
 11
178.200474
 21
93.795605
 31
0.0
  0
ENDBLK
  5
459
100
AcDbEntity
  8
0
100
AcDbBlockEnd
  0
BLOCK
  5
45C
100
AcDbEntity
  8
0
100
AcDbBlockBegin
  2
*B28
 70
     0
 10
0.0
 20
0.0
 30
0.0
  3
*B28
  1

  0
LINE
  5
45D
100
AcDbEntity
  8
0
  6
Continuous
 62
     8
100
AcDbLine
 10
251.972423
 20
209.521852
 30
0.0
 11
262.972441
 21
209.521852
 31
0.0
  0
LINE
  5
45E
100
AcDbEntity
  8
0
  6
Continuous
 62
     8
100
AcDbLine
 10
272.972403
 20
209.521852
 30
0.0
 11
283.972421
 21
209.521852
 31
0.0
  0
ENDBLK
  5
45F
100
AcDbEntity
  8
0
100
AcDbBlockEnd
  0
BLOCK
  5
462
100
AcDbEntity
  8
0
100
AcDbBlockBegin
  2
*B29
 70
     0
 10
0.0
 20
0.0
 30
0.0
  3
*B29
  1

  0
LINE
  5
463
100
AcDbEntity
  8
0
  6
Continuous
 62
     8
100
AcDbLine
 10
270.97229
 20
219.520912
 30
0.0
 11
331.345167
 21
219.520912
 31
0.0
  0
ENDBLK
  5
464
100
AcDbEntity
  8
0
100
AcDbBlockEnd
  0
BLOCK
  5
467
100
AcDbEntity
  8
0
100
AcDbBlockBegin
  2
*B30
 70
     0
 10
0.0
 20
0.0
 30
0.0
  3
*B30
  1

  0
LINE
  5
468
100
AcDbEntity
  8
0
  6
Continuous
 62
     8
100
AcDbLine
 10
276.072307
 20
65.311575
 30
0.0
 11
276.072307
 21
94.976506
 31
0.0
  0
ENDBLK
  5
469
100
AcDbEntity
  8
0
100
AcDbBlockEnd
  0
BLOCK
  5
46C
100
AcDbEntity
  8
0
100
AcDbBlockBegin
  2
*B31
 70
     0
 10
0.0
 20
0.0
 30
0.0
  3
*B31
  1

  0
LINE
  5
46D
100
AcDbEntity
  8
0
  6
Continuous
 62
     8
100
AcDbLine
 10
167.700634
 20
220.937934
 30
0.0
 11
167.700634
 21
232.118497
 31
0.0
  0
ENDBLK
  5
46E
100
AcDbEntity
  8
0
100
AcDbBlockEnd
  0
BLOCK
  5
471
100
AcDbEntity
  8
0
100
AcDbBlockBegin
  2
*B32
 70
     0
 10
0.0
 20
0.0
 30
0.0
  3
*B32
  1

  0
LINE
  5
472
100
AcDbEntity
  8
0
  6
Continuous
 62
     8
100
AcDbLine
 10
235.072103
 20
79.31056
 30
0.0
 11
235.072103
 21
83.310485
 31
0.0
  0
LINE
  5
473
100
AcDbEntity
  8
0
  6
Continuous
 62
     8
100
AcDbLine
 10
235.072103
 20
83.310485
 30
0.0
 11
235.072103
 21
93.476272
 31
0.0
  0
LINE
  5
474
100
AcDbEntity
  8
0
  6
Continuous
 62
     8
100
AcDbLine
 10
235.072103
 20
96.47614
 30
0.0
 11
235.072103
 21
97.476196
 31
0.0
  0
LINE
  5
475
100
AcDbEntity
  8
0
  6
Continuous
 62
     8
100
AcDbLine
 10
235.072103
 20
100.475764
 30
0.0
 11
235.072103
 21
110.641851
 31
0.0
  0
LINE
  5
476
100
AcDbEntity
  8
0
  6
Continuous
 62
     8
100
AcDbLine
 10
235.072103
 20
113.64172
 30
0.0
 11
235.072103
 21
114.641476
 31
0.0
  0
LINE
  5
477
100
AcDbEntity
  8
0
  6
Continuous
 62
     8
100
AcDbLine
 10
235.072103
 20
117.641344
 30
0.0
 11
235.072103
 21
127.807431
 31
0.0
  0
LINE
  5
478
100
AcDbEntity
  8
0
  6
Continuous
 62
     8
100
AcDbLine
 10
235.072103
 20
130.8073
 30
0.0
 11
235.072103
 21
131.807055
 31
0.0
  0
LINE
  5
479
100
AcDbEntity
  8
0
  6
Continuous
 62
     8
100
AcDbLine
 10
235.072103
 20
134.806924
 30
0.0
 11
235.072103
 21
144.973011
 31
0.0
  0
LINE
  5
47A
100
AcDbEntity
  8
0
  6
Continuous
 62
     8
100
AcDbLine
 10
235.072103
 20
154.972072
 30
0.0
 11
235.072103
 21
163.471498
 31
0.0
  0
ENDBLK
  5
47B
100
AcDbEntity
  8
0
100
AcDbBlockEnd
  0
BLOCK
  5
47E
100
AcDbEntity
  8
0
100
AcDbBlockBegin
  2
*B33
 70
     0
 10
0.0
 20
0.0
 30
0.0
  3
*B33
  1

  0
LINE
  5
47F
100
AcDbEntity
  8
0
  6
Continuous
 62
     8
100
AcDbLine
 10
142.200551
 20
148.79149
 30
0.0
 11
159.700484
 21
148.79149
 31
0.0
  0
LINE
  5
480
100
AcDbEntity
  8
0
  6
Continuous
 62
     8
100
AcDbLine
 10
162.700653
 20
148.79149
 30
0.0
 11
163.700709
 21
148.79149
 31
0.0
  0
LINE
  5
481
100
AcDbEntity
  8
0
  6
Continuous
 62
     8
100
AcDbLine
 10
166.700578
 20
148.79149
 30
0.0
 11
184.200511
 21
148.79149
 31
0.0
  0
ENDBLK
  5
482
100
AcDbEntity
  8
0
100
AcDbBlockEnd
  0
BLOCK
  5
485
100
AcDbEntity
  8
0
100
AcDbBlockBegin
  2
*B34
 70
     0
 10
0.0
 20
0.0
 30
0.0
  3
*B34
  1

  0
LINE
  5
486
100
AcDbEntity
  8
0
  6
Continuous
 62
     8
100
AcDbLine
 10
132.714887
 20
117.993722
 30
0.0
 11
160.200663
 21
117.993722
 31
0.0
  0
ENDBLK
  5
487
100
AcDbEntity
  8
0
100
AcDbBlockEnd
  0
BLOCK
  5
48A
100
AcDbEntity
  8
0
100
AcDbBlockBegin
  2
*B35
 70
     0
 10
0.0
 20
0.0
 30
0.0
  3
*B35
  1

  0
LINE
  5
48B
100
AcDbEntity
  8
0
  6
Continuous
 62
     8
100
AcDbLine
 10
209.345212
 20
124.974289
 30
0.0
 11
213.345437
 21
124.974289
 31
0.0
  0
LINE
  5
48C
100
AcDbEntity
  8
0
  6
Continuous
 62
     8
100
AcDbLine
 10
213.345437
 20
124.974289
 30
0.0
 11
226.70876
 21
124.974289
 31
0.0
  0
LINE
  5
48D
100
AcDbEntity
  8
0
  6
Continuous
 62
     8
100
AcDbLine
 10
229.708629
 20
124.974289
 30
0.0
 11
230.708685
 21
124.974289
 31
0.0
  0
LINE
  5
48E
100
AcDbEntity
  8
0
  6
Continuous
 62
     8
100
AcDbLine
 10
233.708854
 20
124.974289
 30
0.0
 11
247.072177
 21
124.974289
 31
0.0
  0
ENDBLK
  5
48F
100
AcDbEntity
  8
0
100
AcDbBlockEnd
  0
BLOCK
  5
492
100
AcDbEntity
  8
0
100
AcDbBlockBegin
  2
*B36
 70
     0
 10
0.0
 20
0.0
 30
0.0
  3
*B36
  1

  0
LINE
  5
493
100
AcDbEntity
  8
0
  6
Continuous
 62
     8
100
AcDbLine
 10
289.345207
 20
134.97365
 30
0.0
 11
293.345132
 21
134.97365
 31
0.0
  0
LINE
  5
494
100
AcDbEntity
  8
0
  6
Continuous
 62
     8
100
AcDbLine
 10
255.072327
 20
134.97365
 30
0.0
 11
268.70872
 21
134.97365
 31
0.0
  0
LINE
  5
495
100
AcDbEntity
  8
0
  6
Continuous
 62
     8
100
AcDbLine
 10
271.708589
 20
134.97365
 30
0.0
 11
272.708645
 21
134.97365
 31
0.0
  0
LINE
  5
496
100
AcDbEntity
  8
0
  6
Continuous
 62
     8
100
AcDbLine
 10
275.708814
 20
134.97365
 30
0.0
 11
289.345207
 21
134.97365
 31
0.0
  0
ENDBLK
  5
497
100
AcDbEntity
  8
0
100
AcDbBlockEnd
  0
BLOCK
  5
49A
100
AcDbEntity
  8
0
100
AcDbBlockBegin
  2
*B37
 70
     0
 10
0.0
 20
0.0
 30
0.0
  3
*B37
  1

  0
LINE
  5
49B
100
AcDbEntity
  8
0
  6
Continuous
 62
     8
100
AcDbLine
 10
284.345226
 20
211.521664
 30
0.0
 11
318.345337
 21
211.521664
 31
0.0
  0
ENDBLK
  5
49C
100
AcDbEntity
  8
0
100
AcDbBlockEnd
  0
BLOCK
  5
49F
100
AcDbEntity
  8
0
100
AcDbBlockBegin
  2
*B38
 70
     0
 10
0.0
 20
0.0
 30
0.0
  3
*B38
  1

  0
LINE
  5
4A0
100
AcDbEntity
  8
0
  6
Continuous
 62
     8
100
AcDbLine
 10
153.000498
 20
133.792748
 30
0.0
 11
158.20055
 21
133.792748
 31
0.0
  0
LINE
  5
4A1
100
AcDbEntity
  8
0
  6
Continuous
 62
     8
100
AcDbLine
 10
168.200512
 20
133.792748
 30
0.0
 11
173.400564
 21
133.792748
 31
0.0
  0
ENDBLK
  5
4A2
100
AcDbEntity
  8
0
100
AcDbBlockEnd
  0
BLOCK
  5
4A5
100
AcDbEntity
  8
0
100
AcDbBlockBegin
  2
*B39
 70
     0
 10
0.0
 20
0.0
 30
0.0
  3
*B39
  1

  0
LINE
  5
4A6
100
AcDbEntity
  8
0
  6
Continuous
 62
     8
100
AcDbLine
 10
233.07229
 20
168.971057
 30
0.0
 11
233.07229
 21
172.970982
 31
0.0
  0
ENDBLK
  5
4A7
100
AcDbEntity
  8
0
100
AcDbBlockEnd
  0
BLOCK
  5
4AA
100
AcDbEntity
  8
0
100
AcDbBlockBegin
  2
*B40
 70
     0
 10
0.0
 20
0.0
 30
0.0
  3
*B40
  1

  0
LINE
  5
4AB
100
AcDbEntity
  8
0
  6
Continuous
 62
     8
100
AcDbLine
 10
251.072102
 20
91.976638
 30
0.0
 11
251.072102
 21
102.809329
 31
0.0
  0
LINE
  5
4AC
100
AcDbEntity
  8
0
  6
Continuous
 62
     8
100
AcDbLine
 10
251.072102
 20
105.808897
 30
0.0
 11
251.072102
 21
106.808953
 31
0.0
  0
LINE
  5
4AD
100
AcDbEntity
  8
0
  6
Continuous
 62
     8
100
AcDbLine
 10
251.072102
 20
109.808822
 30
0.0
 11
251.072102
 21
120.641212
 31
0.0
  0
LINE
  5
4AE
100
AcDbEntity
  8
0
  6
Continuous
 62
     8
100
AcDbLine
 10
251.072102
 20
123.641081
 30
0.0
 11
251.072102
 21
124.641137
 31
0.0
  0
LINE
  5
4AF
100
AcDbEntity
  8
0
  6
Continuous
 62
     8
100
AcDbLine
 10
251.072102
 20
127.640705
 30
0.0
 11
251.072102
 21
138.473396
 31
0.0
  0
LINE
  5
4B0
100
AcDbEntity
  8
0
  6
Continuous
 62
     8
100
AcDbLine
 10
251.072102
 20
141.473265
 30
0.0
 11
251.072102
 21
142.473021
 31
0.0
  0
LINE
  5
4B1
100
AcDbEntity
  8
0
  6
Continuous
 62
     8
100
AcDbLine
 10
251.072102
 20
145.472889
 30
0.0
 11
251.072102
 21
156.30528
 31
0.0
  0
LINE
  5
4B2
100
AcDbEntity
  8
0
  6
Continuous
 62
     8
100
AcDbLine
 10
251.072102
 20
159.305148
 30
0.0
 11
251.072102
 21
160.305204
 31
0.0
  0
LINE
  5
4B3
100
AcDbEntity
  8
0
  6
Continuous
 62
     8
100
AcDbLine
 10
251.072102
 20
163.304772
 30
0.0
 11
251.072102
 21
174.137464
 31
0.0
  0
LINE
  5
4B4
100
AcDbEntity
  8
0
  6
Continuous
 62
     8
100
AcDbLine
 10
251.072102
 20
177.137332
 30
0.0
 11
251.072102
 21
178.137088
 31
0.0
  0
LINE
  5
4B5
100
AcDbEntity
  8
0
  6
Continuous
 62
     8
100
AcDbLine
 10
251.072102
 20
181.136956
 30
0.0
 11
251.072102
 21
191.969347
 31
0.0
  0
ENDBLK
  5
4B6
100
AcDbEntity
  8
0
100
AcDbBlockEnd
  0
BLOCK
  5
4B9
100
AcDbEntity
  8
0
100
AcDbBlockBegin
  2
*B41
 70
     0
 10
0.0
 20
0.0
 30
0.0
  3
*B41
  1

  0
LINE
  5
4BA
100
AcDbEntity
  8
0
  6
Continuous
 62
     8
100
AcDbLine
 10
195.345325
 20
97.976375
 30
0.0
 11
223.072329
 21
97.976375
 31
0.0
  0
LINE
  5
4BB
100
AcDbEntity
  8
0
  6
Continuous
 62
     8
100
AcDbLine
 10
279.072175
 20
97.976375
 30
0.0
 11
331.345167
 21
97.976375
 31
0.0
  0
ENDBLK
  5
4BC
100
AcDbEntity
  8
0
100
AcDbBlockEnd
  0
BLOCK
  5
4BF
100
AcDbEntity
  8
0
100
AcDbBlockBegin
  2
*B42
 70
     0
 10
0.0
 20
0.0
 30
0.0
  3
*B42
  1

  0
LINE
  5
4C0
100
AcDbEntity
  8
0
  6
Continuous
 62
     8
100
AcDbLine
 10
195.345325
 20
185.969911
 30
0.0
 11
223.072329
 21
185.969911
 31
0.0
  0
ENDBLK
  5
4C1
100
AcDbEntity
  8
0
100
AcDbBlockEnd
  0
BLOCK
  5
4C4
100
AcDbEntity
  8
0
100
AcDbBlockBegin
  2
*B43
 70
     0
 10
0.0
 20
0.0
 30
0.0
  3
*B43
  1

  0
LINE
  5
4C5
100
AcDbEntity
  8
0
  6
Continuous
 62
     8
100
AcDbLine
 10
277.972383
 20
212.52142
 30
0.0
 11
277.972383
 21
233.299398
 31
0.0
  0
ENDBLK
  5
4C6
100
AcDbEntity
  8
0
100
AcDbBlockEnd
  0
BLOCK
  5
4C9
100
AcDbEntity
  8
0
100
AcDbBlockBegin
  2
*B44
 70
     0
 10
0.0
 20
0.0
 30
0.0
  3
*B44
  1

  0
LINE
  5
4CA
100
AcDbEntity
  8
0
  6
Continuous
 62
     8
100
AcDbLine
 10
147.200532
 20
189.646297
 30
0.0
 11
159.700484
 21
189.646297
 31
0.0
  0
LINE
  5
4CB
100
AcDbEntity
  8
0
  6
Continuous
 62
     8
100
AcDbLine
 10
162.700653
 20
189.646297
 30
0.0
 11
163.700709
 21
189.646297
 31
0.0
  0
LINE
  5
4CC
100
AcDbEntity
  8
0
  6
Continuous
 62
     8
100
AcDbLine
 10
166.700578
 20
189.646297
 30
0.0
 11
179.20053
 21
189.646297
 31
0.0
  0
ENDBLK
  5
4CD
100
AcDbEntity
  8
0
100
AcDbBlockEnd
  0
BLOCK
  5
4D0
100
AcDbEntity
  8
0
100
AcDbBlockBegin
  2
*B45
 70
     0
 10
0.0
 20
0.0
 30
0.0
  3
*B45
  1

  0
LINE
  5
4D1
100
AcDbEntity
  8
0
  6
Continuous
 62
     8
100
AcDbLine
 10
257.97246
 20
212.52142
 30
0.0
 11
257.97246
 21
233.299398
 31
0.0
  0
ENDBLK
  5
4D2
100
AcDbEntity
  8
0
100
AcDbBlockEnd
  0
BLOCK
  5
4D5
100
AcDbEntity
  8
0
100
AcDbBlockBegin
  2
*B46
 70
     0
 10
0.0
 20
0.0
 30
0.0
  3
*B46
  1

  0
LINE
  5
4D6
100
AcDbEntity
  8
0
  6
Continuous
 62
     8
100
AcDbLine
 10
267.972422
 20
244.298816
 30
0.0
 11
267.972422
 21
248.29844
 31
0.0
  0
LINE
  5
4D7
100
AcDbEntity
  8
0
  6
Continuous
 62
     8
100
AcDbLine
 10
267.972422
 20
193.523054
 30
0.0
 11
267.972422
 21
204.522171
 31
0.0
  0
LINE
  5
4D8
100
AcDbEntity
  8
0
  6
Continuous
 62
     8
100
AcDbLine
 10
267.972422
 20
214.521532
 30
0.0
 11
267.972422
 21
225.910277
 31
0.0
  0
LINE
  5
4D9
100
AcDbEntity
  8
0
  6
Continuous
 62
     8
100
AcDbLine
 10
267.972422
 20
228.910146
 30
0.0
 11
267.972422
 21
229.909902
 31
0.0
  0
LINE
  5
4DA
100
AcDbEntity
  8
0
  6
Continuous
 62
     8
100
AcDbLine
 10
267.972422
 20
232.90977
 30
0.0
 11
267.972422
 21
244.298816
 31
0.0
  0
ENDBLK
  5
4DB
100
AcDbEntity
  8
0
100
AcDbBlockEnd
  0
BLOCK
  5
4DE
100
AcDbEntity
  8
0
100
AcDbBlockBegin
  2
*B47
 70
     0
 10
0.0
 20
0.0
 30
0.0
  3
*B47
  1

  0
LINE
  5
4DF
100
AcDbEntity
  8
0
  6
Continuous
 62
     8
100
AcDbLine
 10
284.345226
 20
207.522039
 30
0.0
 11
318.345337
 21
207.522039
 31
0.0
  0
ENDBLK
  5
4E0
100
AcDbEntity
  8
0
100
AcDbBlockEnd
  0
BLOCK
  5
4E3
100
AcDbEntity
  8
0
100
AcDbBlockBegin
  2
*B48
 70
     0
 10
0.0
 20
0.0
 30
0.0
  3
*B48
  1

  0
LINE
  5
4E4
100
AcDbEntity
  8
0
  6
Continuous
 62
     8
100
AcDbLine
 10
132.714887
 20
109.594331
 30
0.0
 11
160.200663
 21
109.594331
 31
0.0
  0
ENDBLK
  5
4E5
100
AcDbEntity
  8
0
100
AcDbBlockEnd
  0
BLOCK
  5
4E8
100
AcDbEntity
  8
0
100
AcDbBlockBegin
  2
*B49
 70
     0
 10
0.0
 20
0.0
 30
0.0
  3
*B49
  1

  0
LINE
  5
4E9
100
AcDbEntity
  8
0
  6
Continuous
 62
     8
100
AcDbLine
 10
289.345207
 20
114.974928
 30
0.0
 11
293.345132
 21
114.974928
 31
0.0
  0
LINE
  5
4EA
100
AcDbEntity
  8
0
  6
Continuous
 62
     8
100
AcDbLine
 10
255.072327
 20
114.974928
 30
0.0
 11
268.70872
 21
114.974928
 31
0.0
  0
LINE
  5
4EB
100
AcDbEntity
  8
0
  6
Continuous
 62
     8
100
AcDbLine
 10
271.708589
 20
114.974928
 30
0.0
 11
272.708645
 21
114.974928
 31
0.0
  0
LINE
  5
4EC
100
AcDbEntity
  8
0
  6
Continuous
 62
     8
100
AcDbLine
 10
275.708814
 20
114.974928
 30
0.0
 11
289.345207
 21
114.974928
 31
0.0
  0
ENDBLK
  5
4ED
100
AcDbEntity
  8
0
100
AcDbBlockEnd
  0
BLOCK
  5
4F0
100
AcDbEntity
  8
0
100
AcDbBlockBegin
  2
*B50
 70
     0
 10
0.0
 20
0.0
 30
0.0
  3
*B50
  1

  0
LINE
  5
4F1
100
AcDbEntity
  8
0
  6
Continuous
 62
     8
100
AcDbLine
 10
221.572094
 20
149.972391
 30
0.0
 11
230.072122
 21
149.972391
 31
0.0
  0
LINE
  5
4F2
100
AcDbEntity
  8
0
  6
Continuous
 62
     8
100
AcDbLine
 10
240.072083
 20
149.972391
 30
0.0
 11
248.572111
 21
149.972391
 31
0.0
  0
ENDBLK
  5
4F3
100
AcDbEntity
  8
0
100
AcDbBlockEnd
  0
BLOCK
  5
4F6
100
AcDbEntity
  8
0
100
AcDbBlockBegin
  2
*B51
 70
     0
 10
0.0
 20
0.0
 30
0.0
  3
*B51
  1

  0
LINE
  5
4F7
100
AcDbEntity
  8
0
  6
Continuous
 62
     8
100
AcDbLine
 10
163.200531
 20
90.795736
 30
0.0
 11
163.200531
 21
108.794346
 31
0.0
  0
LINE
  5
4F8
100
AcDbEntity
  8
0
  6
Continuous
 62
     8
100
AcDbLine
 10
163.200531
 20
118.793707
 30
0.0
 11
163.200531
 21
128.793068
 31
0.0
  0
LINE
  5
4F9
100
AcDbEntity
  8
0
  6
Continuous
 62
     8
100
AcDbLine
 10
163.200531
 20
138.792129
 30
0.0
 11
163.200531
 21
149.902096
 31
0.0
  0
LINE
  5
4FA
100
AcDbEntity
  8
0
  6
Continuous
 62
     8
100
AcDbLine
 10
163.200531
 20
152.901964
 30
0.0
 11
163.200531
 21
153.90202
 31
0.0
  0
LINE
  5
4FB
100
AcDbEntity
  8
0
  6
Continuous
 62
     8
100
AcDbLine
 10
163.200531
 20
156.901588
 30
0.0
 11
163.200531
 21
168.011556
 31
0.0
  0
LINE
  5
4FC
100
AcDbEntity
  8
0
  6
Continuous
 62
     8
100
AcDbLine
 10
163.200531
 20
171.011424
 30
0.0
 11
163.200531
 21
172.01118
 31
0.0
  0
LINE
  5
4FD
100
AcDbEntity
  8
0
  6
Continuous
 62
     8
100
AcDbLine
 10
163.200531
 20
175.011048
 30
0.0
 11
163.200531
 21
186.121016
 31
0.0
  0
LINE
  5
4FE
100
AcDbEntity
  8
0
  6
Continuous
 62
     8
100
AcDbLine
 10
163.200531
 20
189.120884
 30
0.0
 11
163.200531
 21
190.12064
 31
0.0
  0
LINE
  5
4FF
100
AcDbEntity
  8
0
  6
Continuous
 62
     8
100
AcDbLine
 10
163.200531
 20
193.120508
 30
0.0
 11
163.200531
 21
204.230475
 31
0.0
  0
LINE
  5
500
100
AcDbEntity
  8
0
  6
Continuous
 62
     8
100
AcDbLine
 10
163.200531
 20
207.230043
 30
0.0
 11
163.200531
 21
208.2301
 31
0.0
  0
LINE
  5
501
100
AcDbEntity
  8
0
  6
Continuous
 62
     8
100
AcDbLine
 10
163.200531
 20
211.229968
 30
0.0
 11
163.200531
 21
222.339935
 31
0.0
  0
ENDBLK
  5
502
100
AcDbEntity
  8
0
100
AcDbBlockEnd
  0
BLOCK
  5
505
100
AcDbEntity
  8
0
100
AcDbBlockBegin
  2
*B52
 70
     0
 10
0.0
 20
0.0
 30
0.0
  3
*B52
  1

  0
LINE
  5
506
100
AcDbEntity
  8
0
  6
Continuous
 62
     8
100
AcDbLine
 10
209.345212
 20
145.472889
 30
0.0
 11
232.072234
 21
145.472889
 31
0.0
  0
ENDBLK
  5
507
100
AcDbEntity
  8
0
100
AcDbBlockEnd
  0
BLOCK
  5
50A
100
AcDbEntity
  8
0
100
AcDbBlockBegin
  2
*B53
 70
     0
 10
0.0
 20
0.0
 30
0.0
  3
*B53
  1

  0
LINE
  5
50B
100
AcDbEntity
  8
0
  6
Continuous
 62
     8
100
AcDbLine
 10
153.000498
 20
113.794026
 30
0.0
 11
158.20055
 21
113.794026
 31
0.0
  0
LINE
  5
50C
100
AcDbEntity
  8
0
  6
Continuous
 62
     8
100
AcDbLine
 10
168.200512
 20
113.794026
 30
0.0
 11
173.400564
 21
113.794026
 31
0.0
  0
ENDBLK
  5
50D
100
AcDbEntity
  8
0
100
AcDbBlockEnd
  0
BLOCK
  5
510
100
AcDbEntity
  8
0
100
AcDbBlockBegin
  2
*B54
 70
     0
 10
0.0
 20
0.0
 30
0.0
  3
*B54
  1

  0
LINE
  5
511
100
AcDbEntity
  8
0
  6
Continuous
 62
     8
100
AcDbLine
 10
150.200701
 20
208.34065
 30
0.0
 11
159.700484
 21
208.34065
 31
0.0
  0
LINE
  5
512
100
AcDbEntity
  8
0
  6
Continuous
 62
     8
100
AcDbLine
 10
162.700653
 20
208.34065
 30
0.0
 11
163.700709
 21
208.34065
 31
0.0
  0
LINE
  5
513
100
AcDbEntity
  8
0
  6
Continuous
 62
     8
100
AcDbLine
 10
166.700578
 20
208.34065
 30
0.0
 11
176.200662
 21
208.34065
 31
0.0
  0
ENDBLK
  5
514
100
AcDbEntity
  8
0
100
AcDbBlockEnd
  0
BLOCK
  5
517
100
AcDbEntity
  8
0
100
AcDbBlockBegin
  2
*B55
 70
     0
 10
0.0
 20
0.0
 30
0.0
  3
*B55
  1

  0
LINE
  5
518
100
AcDbEntity
  8
0
  6
Continuous
 62
     8
100
AcDbLine
 10
271.358914
 20
176.828213
 30
0.0
 11
271.358914
 21
185.827818
 31
0.0
  0
LINE
  5
519
100
AcDbEntity
  8
0
  6
Continuous
 62
     8
100
AcDbLine
 10
271.358914
 20
195.826879
 30
0.0
 11
271.358914
 21
204.826183
 31
0.0
  0
ENDBLK
  5
51A
100
AcDbEntity
  8
0
100
AcDbBlockEnd
  0
BLOCK
  5
51D
100
AcDbEntity
  8
0
100
AcDbBlockBegin
  2
*B56
 70
     0
 10
0.0
 20
0.0
 30
0.0
  3
*B56
  1

  0
LINE
  5
51E
100
AcDbEntity
  8
0
  6
Continuous
 62
     8
100
AcDbLine
 10
327.345243
 20
149.972391
 30
0.0
 11
331.345167
 21
149.972391
 31
0.0
  0
LINE
  5
51F
100
AcDbEntity
  8
0
  6
Continuous
 62
     8
100
AcDbLine
 10
253.572092
 20
149.972391
 30
0.0
 11
262.07212
 21
149.972391
 31
0.0
  0
LINE
  5
520
100
AcDbEntity
  8
0
  6
Continuous
 62
     8
100
AcDbLine
 10
272.072082
 20
149.972391
 30
0.0
 11
285.82984
 21
149.972391
 31
0.0
  0
LINE
  5
521
100
AcDbEntity
  8
0
  6
Continuous
 62
     8
100
AcDbLine
 10
288.830009
 20
149.972391
 30
0.0
 11
289.829764
 21
149.972391
 31
0.0
  0
LINE
  5
522
100
AcDbEntity
  8
0
  6
Continuous
 62
     8
100
AcDbLine
 10
292.829933
 20
149.972391
 30
0.0
 11
306.587691
 21
149.972391
 31
0.0
  0
LINE
  5
523
100
AcDbEntity
  8
0
  6
Continuous
 62
     8
100
AcDbLine
 10
309.58756
 20
149.972391
 30
0.0
 11
310.587616
 21
149.972391
 31
0.0
  0
LINE
  5
524
100
AcDbEntity
  8
0
  6
Continuous
 62
     8
100
AcDbLine
 10
313.587484
 20
149.972391
 30
0.0
 11
327.345243
 21
149.972391
 31
0.0
  0
ENDBLK
  5
525
100
AcDbEntity
  8
0
100
AcDbBlockEnd
  0
BLOCK
  5
528
100
AcDbEntity
  8
0
100
AcDbBlockBegin
  2
*B57
 70
     0
 10
0.0
 20
0.0
 30
0.0
  3
*B57
  1

  0
LINE
  5
529
100
AcDbEntity
  8
0
  6
Continuous
 62
     8
100
AcDbLine
 10
238.072271
 20
177.970362
 30
0.0
 11
242.072196
 21
177.970362
 31
0.0
  0
ENDBLK
  5
52A
100
AcDbEntity
  8
0
100
AcDbBlockEnd
  0
BLOCK
  5
52D
100
AcDbEntity
  8
0
100
AcDbBlockBegin
  2
*B58
 70
     0
 10
0.0
 20
0.0
 30
0.0
  3
*B58
  1

  0
LINE
  5
52E
100
AcDbEntity
  8
0
  6
Continuous
 62
     6
100
AcDbLine
 10
161.200719
 20
113.794026
 30
0.0
 11
165.200644
 21
113.794026
 31
0.0
  0
LINE
  5
52F
100
AcDbEntity
  8
0
  6
Continuous
 62
     6
100
AcDbLine
 10
163.200531
 20
111.794214
 30
0.0
 11
163.200531
 21
115.793839
 31
0.0
  0
ENDBLK
  5
530
100
AcDbEntity
  8
0
100
AcDbBlockEnd
  0
BLOCK
  5
533
100
AcDbEntity
  8
0
100
AcDbBlockBegin
  2
*B59
 70
     0
 10
0.0
 20
0.0
 30
0.0
  3
*B59
  1

  0
LINE
  5
534
100
AcDbEntity
  8
0
  6
Continuous
 62
     6
100
AcDbLine
 10
233.07229
 20
175.97055
 30
0.0
 11
233.07229
 21
179.970474
 31
0.0
  0
LINE
  5
535
100
AcDbEntity
  8
0
  6
Continuous
 62
     6
100
AcDbLine
 10
231.072178
 20
177.970362
 30
0.0
 11
235.072103
 21
177.970362
 31
0.0
  0
ENDBLK
  5
536
100
AcDbEntity
  8
0
100
AcDbBlockEnd
  0
BLOCK
  5
539
100
AcDbEntity
  8
0
100
AcDbBlockBegin
  2
*B60
 70
     0
 10
0.0
 20
0.0
 30
0.0
  3
*B60
  1

  0
LINE
  5
53A
100
AcDbEntity
  8
0
  6
Continuous
 62
     6
100
AcDbLine
 10
235.072103
 20
147.972579
 30
0.0
 11
235.072103
 21
151.972504
 31
0.0
  0
LINE
  5
53B
100
AcDbEntity
  8
0
  6
Continuous
 62
     6
100
AcDbLine
 10
233.07229
 20
149.972391
 30
0.0
 11
237.072215
 21
149.972391
 31
0.0
  0
ENDBLK
  5
53C
100
AcDbEntity
  8
0
100
AcDbBlockEnd
  0
BLOCK
  5
53F
100
AcDbEntity
  8
0
100
AcDbBlockBegin
  2
*B61
 70
     0
 10
0.0
 20
0.0
 30
0.0
  3
*B61
  1

  0
LINE
  5
540
100
AcDbEntity
  8
0
  6
Continuous
 62
     6
100
AcDbLine
 10
265.972309
 20
209.521852
 30
0.0
 11
269.972534
 21
209.521852
 31
0.0
  0
LINE
  5
541
100
AcDbEntity
  8
0
  6
Continuous
 62
     6
100
AcDbLine
 10
267.972422
 20
207.522039
 30
0.0
 11
267.972422
 21
211.521664
 31
0.0
  0
ENDBLK
  5
542
100
AcDbEntity
  8
0
100
AcDbBlockEnd
  0
BLOCK
  5
545
100
AcDbEntity
  8
0
100
AcDbBlockBegin
  2
*B62
 70
     0
 10
0.0
 20
0.0
 30
0.0
  3
*B62
  1

  0
LINE
  5
546
100
AcDbEntity
  8
0
  6
Continuous
 62
     6
100
AcDbLine
 10
269.358802
 20
190.827198
 30
0.0
 11
273.358727
 21
190.827198
 31
0.0
  0
LINE
  5
547
100
AcDbEntity
  8
0
  6
Continuous
 62
     6
100
AcDbLine
 10
271.358914
 20
188.827386
 30
0.0
 11
271.358914
 21
192.827311
 31
0.0
  0
ENDBLK
  5
548
100
AcDbEntity
  8
0
100
AcDbBlockEnd
  0
BLOCK
  5
54B
100
AcDbEntity
  8
0
100
AcDbBlockBegin
  2
*B63
 70
     0
 10
0.0
 20
0.0
 30
0.0
  3
*B63
  1

  0
LINE
  5
54C
100
AcDbEntity
  8
0
  6
Continuous
 62
     6
100
AcDbLine
 10
267.072101
 20
147.972579
 30
0.0
 11
267.072101
 21
151.972504
 31
0.0
  0
LINE
  5
54D
100
AcDbEntity
  8
0
  6
Continuous
 62
     6
100
AcDbLine
 10
265.072289
 20
149.972391
 30
0.0
 11
269.072213
 21
149.972391
 31
0.0
  0
ENDBLK
  5
54E
100
AcDbEntity
  8
0
100
AcDbBlockEnd
  0
BLOCK
  5
551
100
AcDbEntity
  8
0
100
AcDbBlockBegin
  2
*B64
 70
     0
 10
0.0
 20
0.0
 30
0.0
  3
*B64
  1

  0
LINE
  5
552
100
AcDbEntity
  8
0
  6
Continuous
 62
     6
100
AcDbLine
 10
161.200719
 20
133.792748
 30
0.0
 11
165.200644
 21
133.792748
 31
0.0
  0
LINE
  5
553
100
AcDbEntity
  8
0
  6
Continuous
 62
     6
100
AcDbLine
 10
163.200531
 20
131.792636
 30
0.0
 11
163.200531
 21
135.792561
 31
0.0
  0
ENDBLK
  5
554
100
AcDbEntity
  8
0
100
AcDbBlockEnd
  0
BLOCK
  5
557
100
AcDbEntity
  8
0
100
AcDbBlockBegin
  2
*B65
 70
     0
 10
0.0
 20
0.0
 30
0.0
  3
*B65
  1

  0
TEXT
  5
558
100
AcDbEntity
  8
TEXT
  6
Continuous
 62
     0
100
AcDbText
 10
229.8829
 20
122.0
 30
0.0
 40
6.0
  1
2
100
AcDbText
  0
ENDBLK
  5
559
100
AcDbEntity
  8
0
100
AcDbBlockEnd
  0
BLOCK
  5
55C
100
AcDbEntity
  8
0
100
AcDbBlockBegin
  2
*B66
 70
     0
 10
0.0
 20
0.0
 30
0.0
  3
*B66
  1

  0
TEXT
  5
55D
100
AcDbEntity
  8
TEXT
  6
Continuous
 62
     0
100
AcDbText
 10
268.8829
 20
112.0
 30
0.0
 40
6.0
  1
1
100
AcDbText
  0
ENDBLK
  5
55E
100
AcDbEntity
  8
0
100
AcDbBlockEnd
  0
BLOCK
  5
561
100
AcDbEntity
  8
0
100
AcDbBlockBegin
  2
*B67
 70
     0
 10
0.0
 20
0.0
 30
0.0
  3
*B67
  1

  0
TEXT
  5
562
100
AcDbEntity
  8
TEXT
  6
Continuous
 62
     0
100
AcDbText
 10
268.8829
 20
132.0
 30
0.0
 40
6.0
  1
3
100
AcDbText
  0
ENDBLK
  5
563
100
AcDbEntity
  8
0
100
AcDbBlockEnd
  0
BLOCK
  5
566
100
AcDbEntity
  8
0
100
AcDbBlockBegin
  2
*B68
 70
     0
 10
0.0
 20
0.0
 30
0.0
  3
*B68
  1

  0
TEXT
  5
567
100
AcDbEntity
  8
TEXT
  6
Continuous
 62
     0
100
AcDbText
 10
327.569681
 20
120.598641
 30
0.0
 40
3.5
  1
26
 50
90.0
100
AcDbText
  0
ENDBLK
  5
568
100
AcDbEntity
  8
0
100
AcDbBlockEnd
  0
BLOCK
  5
56B
100
AcDbEntity
  8
0
100
AcDbBlockBegin
  2
*B69
 70
     0
 10
0.0
 20
0.0
 30
0.0
  3
*B69
  1

  0
TEXT
  5
56C
100
AcDbEntity
  8
TEXT
  6
Continuous
 62
     0
100
AcDbText
 10
327.569681
 20
181.375408
 30
0.0
 40
3.5
  1
35
 50
90.0
100
AcDbText
  0
ENDBLK
  5
56D
100
AcDbEntity
  8
0
100
AcDbBlockEnd
  0
BLOCK
  5
570
100
AcDbEntity
  8
0
100
AcDbBlockBegin
  2
*B70
 70
     0
 10
0.0
 20
0.0
 30
0.0
  3
*B70
  1

  0
TEXT
  5
571
100
AcDbEntity
  8
TEXT
  6
Continuous
 62
     0
100
AcDbText
 10
300.569681
 20
226.681654
 30
0.0
 40
3.5
  1
4
 50
90.0
100
AcDbText
  0
TEXT
  5
572
100
AcDbEntity
  8
TEXT
  6
Continuous
 62
     0
100
AcDbText
 10
300.569681
 20
231.764987
 30
0.0
 40
3.5
  1
Kapcsol¾ l÷ket
 50
90.0
100
AcDbText
  0
ENDBLK
  5
573
100
AcDbEntity
  8
0
100
AcDbBlockEnd
  0
BLOCK
  5
576
100
AcDbEntity
  8
0
100
AcDbBlockBegin
  2
*B71
 70
     0
 10
0.0
 20
0.0
 30
0.0
  3
*B71
  1

  0
TEXT
  5
577
100
AcDbEntity
  8
TEXT
  6
Continuous
 62
     0
100
AcDbText
 10
314.569681
 20
225.931654
 30
0.0
 40
3.5
  1
2
 50
90.0
100
AcDbText
  0
TEXT
  5
578
100
AcDbEntity
  8
TEXT
  6
Continuous
 62
     0
100
AcDbText
 10
314.569681
 20
231.014987
 30
0.0
 40
3.5
  1
Szabad l÷ket
 50
90.0
100
AcDbText
  0
ENDBLK
  5
579
100
AcDbEntity
  8
0
100
AcDbBlockEnd
  0
BLOCK
  5
57C
100
AcDbEntity
  8
0
100
AcDbBlockBegin
  2
*B72
 70
     0
 10
0.0
 20
0.0
 30
0.0
  3
*B72
  1

  0
TEXT
  5
57D
100
AcDbEntity
  8
TEXT
  6
Continuous
 62
     0
100
AcDbText
 10
262.163502
 20
233.014987
 30
0.0
 40
3.5
  1
%%c10
100
AcDbText
  0
ENDBLK
  5
57E
100
AcDbEntity
  8
0
100
AcDbBlockEnd
  0
BLOCK
  5
581
100
AcDbEntity
  8
0
100
AcDbBlockBegin
  2
*B73
 70
     0
 10
0.0
 20
0.0
 30
0.0
  3
*B73
  1

  0
TEXT
  5
582
100
AcDbEntity
  8
TEXT
  6
Continuous
 62
     0
100
AcDbText
 10
243.663384
 20
248.014987
 30
0.0
 40
3.5
  1
21
100
AcDbText
  0
ENDBLK
  5
583
100
AcDbEntity
  8
0
100
AcDbBlockEnd
  0
BLOCK
  5
586
100
AcDbEntity
  8
0
100
AcDbBlockBegin
  2
*B74
 70
     0
 10
0.0
 20
0.0
 30
0.0
  3
*B74
  1

  0
TEXT
  5
587
100
AcDbEntity
  8
TEXT
  6
Continuous
 62
     0
100
AcDbText
 10
195.569681
 20
138.598641
 30
0.0
 40
3.5
  1
44
 50
90.0
100
AcDbText
  0
ENDBLK
  5
588
100
AcDbEntity
  8
0
100
AcDbBlockEnd
  0
BLOCK
  5
58B
100
AcDbEntity
  8
0
100
AcDbBlockBegin
  2
*B75
 70
     0
 10
0.0
 20
0.0
 30
0.0
  3
*B75
  1

  0
TEXT
  5
58C
100
AcDbEntity
  8
TEXT
  6
Continuous
 62
     0
100
AcDbText
 10
209.569681
 20
161.64832
 30
0.0
 40
3.5
  1
%%c4,5
 50
90.0
100
AcDbText
  0
ENDBLK
  5
58D
100
AcDbEntity
  8
0
100
AcDbBlockEnd
  0
BLOCK
  5
590
100
AcDbEntity
  8
0
100
AcDbBlockBegin
  2
*B76
 70
     0
 10
0.0
 20
0.0
 30
0.0
  3
*B76
  1

  0
TEXT
  5
591
100
AcDbEntity
  8
TEXT
  6
Continuous
 62
     0
100
AcDbText
 10
247.713267
 20
69.014987
 30
0.0
 40
3.5
  1
25
100
AcDbText
  0
ENDBLK
  5
592
100
AcDbEntity
  8
0
100
AcDbBlockEnd
  0
BLOCK
  5
595
100
AcDbEntity
  8
0
100
AcDbBlockBegin
  2
*B77
 70
     0
 10
0.0
 20
0.0
 30
0.0
  3
*B77
  1

  0
TEXT
  5
596
100
AcDbEntity
  8
TEXT
  6
Continuous
 62
     0
100
AcDbText
 10
159.841585
 20
68.83394
 30
0.0
 40
3.5
  1
15
100
AcDbText
  0
ENDBLK
  5
597
100
AcDbEntity
  8
0
100
AcDbBlockEnd
  0
BLOCK
  5
59A
100
AcDbEntity
  8
0
100
AcDbBlockBegin
  2
*B78
 70
     0
 10
0.0
 20
0.0
 30
0.0
  3
*B78
  1

  0
TEXT
  5
59B
100
AcDbEntity
  8
TEXT
  6
Continuous
 62
     0
100
AcDbText
 10
209.569681
 20
105.598641
 30
0.0
 40
3.5
  1
13,5
 50
90.0
100
AcDbText
  0
ENDBLK
  5
59C
100
AcDbEntity
  8
0
100
AcDbBlockEnd
  0
BLOCK
  5
59F
100
AcDbEntity
  8
0
100
AcDbBlockBegin
  2
*B79
 70
     0
 10
0.0
 20
0.0
 30
0.0
  3
*B79
  1

  0
TEXT
  5
5A0
100
AcDbEntity
  8
TEXT
  6
Continuous
 62
     0
100
AcDbText
 10
132.939272
 20
125.417273
 30
0.0
 40
3.5
  1
M5
 50
90.0
100
AcDbText
  0
ENDBLK
  5
5A1
100
AcDbEntity
  8
0
100
AcDbBlockEnd
  0
BLOCK
  5
5A4
100
AcDbEntity
  8
0
100
AcDbBlockBegin
  2
*B80
 70
     0
 10
0.0
 20
0.0
 30
0.0
  3
*B80
  1

  0
TEXT
  5
5A5
100
AcDbEntity
  8
TEXT
  6
Continuous
 62
     0
100
AcDbText
 10
289.569681
 20
102.265307
 30
0.0
 40
3.5
  1
8,5
 50
90.0
100
AcDbText
  0
ENDBLK
  5
5A6
100
AcDbEntity
  8
0
100
AcDbBlockEnd
  0
BLOCK
  5
5A9
100
AcDbEntity
  8
0
100
AcDbBlockBegin
  2
*B81
 70
     0
 10
0.0
 20
0.0
 30
0.0
  3
*B81
  1

  0
TEXT
  5
5AA
100
AcDbEntity
  8
TEXT
  6
Continuous
 62
     0
100
AcDbText
 10
289.569681
 20
121.598641
 30
0.0
 40
3.5
  1
10
 50
90.0
100
AcDbText
  0
ENDBLK
  5
5AB
100
AcDbEntity
  8
0
100
AcDbBlockEnd
  0
BLOCK
  5
5AE
100
AcDbEntity
  8
0
100
AcDbBlockBegin
  2
*B82
 70
     0
 10
0.0
 20
0.0
 30
0.0
  3
*B82
  1

  0
TEXT
  5
5AF
100
AcDbEntity
  8
TEXT
  6
Continuous
 62
     0
100
AcDbText
 10
247.713267
 20
83.014987
 30
0.0
 40
3.5
  1
16
100
AcDbText
  0
ENDBLK
  5
5B0
100
AcDbEntity
  8
0
100
AcDbBlockEnd
  0
BLOCK
  5
5B3
100
AcDbEntity
  8
0
100
AcDbBlockBegin
  2
*B83
 70
     0
 10
0.0
 20
0.0
 30
0.0
  3
*B83
  1

  0
TEXT
  5
5B4
100
AcDbEntity
  8
TEXT
  6
Continuous
 62
     0
100
AcDbText
 10
161.508252
 20
231.83394
 30
0.0
 40
3.5
  1
5
100
AcDbText
  0
ENDBLK
  5
5B5
100
AcDbEntity
  8
0
100
AcDbBlockEnd
  0
ENDSEC
  0
SECTION
  2
ENTITIES
  0
INSERT
  5
1D6
100
AcDbEntity
  8
0
  6
HIDDEN
 62
   174
100
AcDbBlockReference
  2
*B1
 10
0.0
 20
0.0
 30
0.0
  0
INSERT
  5
1DC
100
AcDbEntity
  8
0
  6
Continuous
 62
   172
100
AcDbBlockReference
  2
*B2
 10
0.0
 20
0.0
 30
0.0
  0
INSERT
  5
3B6
100
AcDbEntity
  8
0
  6
Continuous
 62
   174
100
AcDbBlockReference
  2
*B3
 10
0.0
 20
0.0
 30
0.0
  0
INSERT
  5
3BD
100
AcDbEntity
  8
0
  6
Continuous
 62
     0
100
AcDbBlockReference
  2
*B4
 10
0.0
 20
0.0
 30
0.0
  0
INSERT
  5
3C4
100
AcDbEntity
  8
0
  6
Continuous
 62
     0
100
AcDbBlockReference
  2
*B5
 10
0.0
 20
0.0
 30
0.0
  0
INSERT
  5
3CB
100
AcDbEntity
  8
0
  6
Continuous
 62
     0
100
AcDbBlockReference
  2
*B6
 10
0.0
 20
0.0
 30
0.0
  0
INSERT
  5
3D2
100
AcDbEntity
  8
0
  6
Continuous
 62
     0
100
AcDbBlockReference
  2
*B7
 10
0.0
 20
0.0
 30
0.0
  0
INSERT
  5
3D9
100
AcDbEntity
  8
0
  6
Continuous
 62
     0
100
AcDbBlockReference
  2
*B8
 10
0.0
 20
0.0
 30
0.0
  0
INSERT
  5
3E0
100
AcDbEntity
  8
0
  6
Continuous
 62
     0
100
AcDbBlockReference
  2
*B9
 10
0.0
 20
0.0
 30
0.0
  0
INSERT
  5
3E7
100
AcDbEntity
  8
0
  6
Continuous
 62
     0
100
AcDbBlockReference
  2
*B10
 10
0.0
 20
0.0
 30
0.0
  0
INSERT
  5
3EE
100
AcDbEntity
  8
0
  6
Continuous
 62
     0
100
AcDbBlockReference
  2
*B11
 10
0.0
 20
0.0
 30
0.0
  0
INSERT
  5
3F5
100
AcDbEntity
  8
0
  6
Continuous
 62
     0
100
AcDbBlockReference
  2
*B12
 10
0.0
 20
0.0
 30
0.0
  0
INSERT
  5
3FC
100
AcDbEntity
  8
0
  6
Continuous
 62
     0
100
AcDbBlockReference
  2
*B13
 10
0.0
 20
0.0
 30
0.0
  0
INSERT
  5
403
100
AcDbEntity
  8
0
  6
Continuous
 62
     0
100
AcDbBlockReference
  2
*B14
 10
0.0
 20
0.0
 30
0.0
  0
INSERT
  5
40A
100
AcDbEntity
  8
0
  6
Continuous
 62
     0
100
AcDbBlockReference
  2
*B15
 10
0.0
 20
0.0
 30
0.0
  0
INSERT
  5
411
100
AcDbEntity
  8
0
  6
Continuous
 62
     0
100
AcDbBlockReference
  2
*B16
 10
0.0
 20
0.0
 30
0.0
  0
INSERT
  5
418
100
AcDbEntity
  8
0
  6
Continuous
 62
     0
100
AcDbBlockReference
  2
*B17
 10
0.0
 20
0.0
 30
0.0
  0
INSERT
  5
41F
100
AcDbEntity
  8
0
  6
Continuous
 62
     0
100
AcDbBlockReference
  2
*B18
 10
0.0
 20
0.0
 30
0.0
  0
INSERT
  5
426
100
AcDbEntity
  8
0
  6
Continuous
 62
     0
100
AcDbBlockReference
  2
*B19
 10
0.0
 20
0.0
 30
0.0
  0
INSERT
  5
42C
100
AcDbEntity
  8
0
  6
Continuous
 62
     8
100
AcDbBlockReference
  2
*B20
 10
0.0
 20
0.0
 30
0.0
  0
INSERT
  5
433
100
AcDbEntity
  8
0
  6
Continuous
 62
     8
100
AcDbBlockReference
  2
*B21
 10
0.0
 20
0.0
 30
0.0
  0
INSERT
  5
440
100
AcDbEntity
  8
0
  6
Continuous
 62
     8
100
AcDbBlockReference
  2
*B22
 10
0.0
 20
0.0
 30
0.0
  0
INSERT
  5
445
100
AcDbEntity
  8
0
  6
Continuous
 62
     8
100
AcDbBlockReference
  2
*B23
 10
0.0
 20
0.0
 30
0.0
  0
INSERT
  5
44A
100
AcDbEntity
  8
0
  6
Continuous
 62
     8
100
AcDbBlockReference
  2
*B24
 10
0.0
 20
0.0
 30
0.0
  0
INSERT
  5
44F
100
AcDbEntity
  8
0
  6
Continuous
 62
     8
100
AcDbBlockReference
  2
*B25
 10
0.0
 20
0.0
 30
0.0
  0
INSERT
  5
455
100
AcDbEntity
  8
0
  6
Continuous
 62
     8
100
AcDbBlockReference
  2
*B26
 10
0.0
 20
0.0
 30
0.0
  0
INSERT
  5
45A
100
AcDbEntity
  8
0
  6
Continuous
 62
     8
100
AcDbBlockReference
  2
*B27
 10
0.0
 20
0.0
 30
0.0
  0
INSERT
  5
460
100
AcDbEntity
  8
0
  6
Continuous
 62
     8
100
AcDbBlockReference
  2
*B28
 10
0.0
 20
0.0
 30
0.0
  0
INSERT
  5
465
100
AcDbEntity
  8
0
  6
Continuous
 62
     8
100
AcDbBlockReference
  2
*B29
 10
0.0
 20
0.0
 30
0.0
  0
INSERT
  5
46A
100
AcDbEntity
  8
0
  6
Continuous
 62
     8
100
AcDbBlockReference
  2
*B30
 10
0.0
 20
0.0
 30
0.0
  0
INSERT
  5
46F
100
AcDbEntity
  8
0
  6
Continuous
 62
     8
100
AcDbBlockReference
  2
*B31
 10
0.0
 20
0.0
 30
0.0
  0
INSERT
  5
47C
100
AcDbEntity
  8
0
  6
Continuous
 62
     8
100
AcDbBlockReference
  2
*B32
 10
0.0
 20
0.0
 30
0.0
  0
INSERT
  5
483
100
AcDbEntity
  8
0
  6
Continuous
 62
     8
100
AcDbBlockReference
  2
*B33
 10
0.0
 20
0.0
 30
0.0
  0
INSERT
  5
488
100
AcDbEntity
  8
0
  6
Continuous
 62
     8
100
AcDbBlockReference
  2
*B34
 10
0.0
 20
0.0
 30
0.0
  0
INSERT
  5
490
100
AcDbEntity
  8
0
  6
Continuous
 62
     8
100
AcDbBlockReference
  2
*B35
 10
0.0
 20
0.0
 30
0.0
  0
INSERT
  5
498
100
AcDbEntity
  8
0
  6
Continuous
 62
     8
100
AcDbBlockReference
  2
*B36
 10
0.0
 20
0.0
 30
0.0
  0
INSERT
  5
49D
100
AcDbEntity
  8
0
  6
Continuous
 62
     8
100
AcDbBlockReference
  2
*B37
 10
0.0
 20
0.0
 30
0.0
  0
INSERT
  5
4A3
100
AcDbEntity
  8
0
  6
Continuous
 62
     8
100
AcDbBlockReference
  2
*B38
 10
0.0
 20
0.0
 30
0.0
  0
INSERT
  5
4A8
100
AcDbEntity
  8
0
  6
Continuous
 62
     8
100
AcDbBlockReference
  2
*B39
 10
0.0
 20
0.0
 30
0.0
  0
INSERT
  5
4B7
100
AcDbEntity
  8
0
  6
Continuous
 62
     8
100
AcDbBlockReference
  2
*B40
 10
0.0
 20
0.0
 30
0.0
  0
INSERT
  5
4BD
100
AcDbEntity
  8
0
  6
Continuous
 62
     8
100
AcDbBlockReference
  2
*B41
 10
0.0
 20
0.0
 30
0.0
  0
INSERT
  5
4C2
100
AcDbEntity
  8
0
  6
Continuous
 62
     8
100
AcDbBlockReference
  2
*B42
 10
0.0
 20
0.0
 30
0.0
  0
INSERT
  5
4C7
100
AcDbEntity
  8
0
  6
Continuous
 62
     8
100
AcDbBlockReference
  2
*B43
 10
0.0
 20
0.0
 30
0.0
  0
INSERT
  5
4CE
100
AcDbEntity
  8
0
  6
Continuous
 62
     8
100
AcDbBlockReference
  2
*B44
 10
0.0
 20
0.0
 30
0.0
  0
INSERT
  5
4D3
100
AcDbEntity
  8
0
  6
Continuous
 62
     8
100
AcDbBlockReference
  2
*B45
 10
0.0
 20
0.0
 30
0.0
  0
INSERT
  5
4DC
100
AcDbEntity
  8
0
  6
Continuous
 62
     8
100
AcDbBlockReference
  2
*B46
 10
0.0
 20
0.0
 30
0.0
  0
INSERT
  5
4E1
100
AcDbEntity
  8
0
  6
Continuous
 62
     8
100
AcDbBlockReference
  2
*B47
 10
0.0
 20
0.0
 30
0.0
  0
INSERT
  5
4E6
100
AcDbEntity
  8
0
  6
Continuous
 62
     8
100
AcDbBlockReference
  2
*B48
 10
0.0
 20
0.0
 30
0.0
  0
INSERT
  5
4EE
100
AcDbEntity
  8
0
  6
Continuous
 62
     8
100
AcDbBlockReference
  2
*B49
 10
0.0
 20
0.0
 30
0.0
  0
INSERT
  5
4F4
100
AcDbEntity
  8
0
  6
Continuous
 62
     8
100
AcDbBlockReference
  2
*B50
 10
0.0
 20
0.0
 30
0.0
  0
INSERT
  5
503
100
AcDbEntity
  8
0
  6
Continuous
 62
     8
100
AcDbBlockReference
  2
*B51
 10
0.0
 20
0.0
 30
0.0
  0
INSERT
  5
508
100
AcDbEntity
  8
0
  6
Continuous
 62
     8
100
AcDbBlockReference
  2
*B52
 10
0.0
 20
0.0
 30
0.0
  0
INSERT
  5
50E
100
AcDbEntity
  8
0
  6
Continuous
 62
     8
100
AcDbBlockReference
  2
*B53
 10
0.0
 20
0.0
 30
0.0
  0
INSERT
  5
515
100
AcDbEntity
  8
0
  6
Continuous
 62
     8
100
AcDbBlockReference
  2
*B54
 10
0.0
 20
0.0
 30
0.0
  0
INSERT
  5
51B
100
AcDbEntity
  8
0
  6
Continuous
 62
     8
100
AcDbBlockReference
  2
*B55
 10
0.0
 20
0.0
 30
0.0
  0
INSERT
  5
526
100
AcDbEntity
  8
0
  6
Continuous
 62
     8
100
AcDbBlockReference
  2
*B56
 10
0.0
 20
0.0
 30
0.0
  0
INSERT
  5
52B
100
AcDbEntity
  8
0
  6
Continuous
 62
     8
100
AcDbBlockReference
  2
*B57
 10
0.0
 20
0.0
 30
0.0
  0
INSERT
  5
531
100
AcDbEntity
  8
0
  6
Continuous
 62
     6
100
AcDbBlockReference
  2
*B58
 10
0.0
 20
0.0
 30
0.0
  0
INSERT
  5
537
100
AcDbEntity
  8
0
  6
Continuous
 62
     6
100
AcDbBlockReference
  2
*B59
 10
0.0
 20
0.0
 30
0.0
  0
INSERT
  5
53D
100
AcDbEntity
  8
0
  6
Continuous
 62
     6
100
AcDbBlockReference
  2
*B60
 10
0.0
 20
0.0
 30
0.0
  0
INSERT
  5
543
100
AcDbEntity
  8
0
  6
Continuous
 62
     6
100
AcDbBlockReference
  2
*B61
 10
0.0
 20
0.0
 30
0.0
  0
INSERT
  5
549
100
AcDbEntity
  8
0
  6
Continuous
 62
     6
100
AcDbBlockReference
  2
*B62
 10
0.0
 20
0.0
 30
0.0
  0
INSERT
  5
54F
100
AcDbEntity
  8
0
  6
Continuous
 62
     6
100
AcDbBlockReference
  2
*B63
 10
0.0
 20
0.0
 30
0.0
  0
INSERT
  5
555
100
AcDbEntity
  8
0
  6
Continuous
 62
     6
100
AcDbBlockReference
  2
*B64
 10
0.0
 20
0.0
 30
0.0
  0
INSERT
  5
55A
100
AcDbEntity
  8
TEXT
  6
Continuous
 62
     0
100
AcDbBlockReference
  2
*B65
 10
0.0
 20
0.0
 30
0.0
  0
INSERT
  5
55F
100
AcDbEntity
  8
TEXT
  6
Continuous
 62
     0
100
AcDbBlockReference
  2
*B66
 10
0.0
 20
0.0
 30
0.0
  0
INSERT
  5
564
100
AcDbEntity
  8
TEXT
  6
Continuous
 62
     0
100
AcDbBlockReference
  2
*B67
 10
0.0
 20
0.0
 30
0.0
  0
INSERT
  5
569
100
AcDbEntity
  8
TEXT
  6
Continuous
 62
     0
100
AcDbBlockReference
  2
*B68
 10
0.0
 20
0.0
 30
0.0
  0
INSERT
  5
56E
100
AcDbEntity
  8
TEXT
  6
Continuous
 62
     0
100
AcDbBlockReference
  2
*B69
 10
0.0
 20
0.0
 30
0.0
  0
INSERT
  5
574
100
AcDbEntity
  8
TEXT
  6
Continuous
 62
     0
100
AcDbBlockReference
  2
*B70
 10
0.0
 20
0.0
 30
0.0
  0
INSERT
  5
57A
100
AcDbEntity
  8
TEXT
  6
Continuous
 62
     0
100
AcDbBlockReference
  2
*B71
 10
0.0
 20
0.0
 30
0.0
  0
INSERT
  5
57F
100
AcDbEntity
  8
TEXT
  6
Continuous
 62
     0
100
AcDbBlockReference
  2
*B72
 10
0.0
 20
0.0
 30
0.0
  0
INSERT
  5
584
100
AcDbEntity
  8
TEXT
  6
Continuous
 62
     0
100
AcDbBlockReference
  2
*B73
 10
0.0
 20
0.0
 30
0.0
  0
INSERT
  5
589
100
AcDbEntity
  8
TEXT
  6
Continuous
 62
     0
100
AcDbBlockReference
  2
*B74
 10
0.0
 20
0.0
 30
0.0
  0
INSERT
  5
58E
100
AcDbEntity
  8
TEXT
  6
Continuous
 62
     0
100
AcDbBlockReference
  2
*B75
 10
0.0
 20
0.0
 30
0.0
  0
INSERT
  5
593
100
AcDbEntity
  8
TEXT
  6
Continuous
 62
     0
100
AcDbBlockReference
  2
*B76
 10
0.0
 20
0.0
 30
0.0
  0
INSERT
  5
598
100
AcDbEntity
  8
TEXT
  6
Continuous
 62
     0
100
AcDbBlockReference
  2
*B77
 10
0.0
 20
0.0
 30
0.0
  0
INSERT
  5
59D
100
AcDbEntity
  8
TEXT
  6
Continuous
 62
     0
100
AcDbBlockReference
  2
*B78
 10
0.0
 20
0.0
 30
0.0
  0
INSERT
  5
5A2
100
AcDbEntity
  8
TEXT
  6
Continuous
 62
     0
100
AcDbBlockReference
  2
*B79
 10
0.0
 20
0.0
 30
0.0
  0
INSERT
  5
5A7
100
AcDbEntity
  8
TEXT
  6
Continuous
 62
     0
100
AcDbBlockReference
  2
*B80
 10
0.0
 20
0.0
 30
0.0
  0
INSERT
  5
5AC
100
AcDbEntity
  8
TEXT
  6
Continuous
 62
     0
100
AcDbBlockReference
  2
*B81
 10
0.0
 20
0.0
 30
0.0
  0
INSERT
  5
5B1
100
AcDbEntity
  8
TEXT
  6
Continuous
 62
     0
100
AcDbBlockReference
  2
*B82
 10
0.0
 20
0.0
 30
0.0
  0
INSERT
  5
5B6
100
AcDbEntity
  8
TEXT
  6
Continuous
 62
     0
100
AcDbBlockReference
  2
*B83
 10
0.0
 20
0.0
 30
0.0
  0
ENDSEC
  0
SECTION
  2
OBJECTS
  0
DICTIONARY
  5
19
100
AcDbDictionary
280
     0
281
     1
  3
ACAD_GROUP
350
1A
  3
ACAD_MLINESTYLE
350
1B
  3
ACAD_LAYOUT
350
1E
  3
ACAD_PLOTSETTINGS
350
22
  3
ACAD_PLOTSTYLENAME
350
1F
  3
ACAD_WIPEOUT_VARS
350
23
  0
DICTIONARY
  5
1A
102
{ACAD_REACTORS
330
19
102
}
100
AcDbDictionary
280
     0
281
     1
  0
DICTIONARY
  5
1B
102
{ACAD_REACTORS
330
19
102
}
100
AcDbDictionary
280
     0
281
     1
  3
Standard
350
1C
  0
MLINESTYLE
  5
1C
102
{ACAD_REACTORS
330
1B
102
}
100
AcDbMlineStyle
  2
Standard
 70
     0
  3

 62
     0
 51
90.0
 52
90.0
 71
     2
 49
0.5
 62
   256
  6
BYLAYER
 49
-0.5
 62
   256
  6
BYLAYER
  0
ACDBDICTIONARYWDFLT
  5
1F
102
{ACAD_REACTORS
330
19
102
}
100
AcDbDictionary
281
     1
  3
Normal
350
1D
100
AcDbDictionaryWithDefault
340
1D
  0
ACDBPLACEHOLDER
  5
1D
102
{ACAD_REACTORS
330
1F
102
}
  0
LAYOUT
  5
20
102
{ACAD_REACTORS
330
1E
102
}
100
AcDbPlotSettings
  1

  2

  4

  6

 40
0.0
 41
0.0
 42
0.0
 43
0.0
 44
0.0
 45
0.0
 46
0.0
 47
0.0
 48
0.0
 49
0.0
140
0.0
141
0.0
142
1.0
143
1.0
 70
     0
 72
     0
 73
     0
 74
     0
  7

 75
     0
147
1.0
148
0.0
149
0.0
100
AcDbLayout
  1
Model
 70
     0
 71
     0
 10
0.0
 20
0.0
 11
0.0
 21
0.0
 12
0.0
 22
0.0
 32
0.0
 14
0.0
 24
0.0
 34
0.0
 15
0.0
 25
0.0
 35
0.0
146
0.0
 13
0.0
 23
0.0
 33
0.0
 16
0.0
 26
0.0
 36
0.0
 17
0.0
 27
0.0
 37
0.0
 76
     0
330
A
331
0
345
0
346
0
  0
LAYOUT
  5
21
102
{ACAD_REACTORS
330
1E
102
}
100
AcDbPlotSettings
  1

  2

  4

  6

 40
0.0
 41
0.0
 42
0.0
 43
0.0
 44
0.0
 45
0.0
 46
0.0
 47
0.0
 48
0.0
 49
0.0
140
0.0
141
0.0
142
1.0
143
1.0
 70
     0
 72
     0
 73
     0
 74
     0
  7

 75
     0
147
1.0
148
0.0
149
0.0
100
AcDbLayout
  1
Layout1
 70
     0
 71
     0
 10
0.0
 20
0.0
 11
0.0
 21
0.0
 12
0.0
 22
0.0
 32
0.0
 14
0.0
 24
0.0
 34
0.0
 15
0.0
 25
0.0
 35
0.0
146
0.0
 13
0.0
 23
0.0
 33
0.0
 16
0.0
 26
0.0
 36
0.0
 17
0.0
 27
0.0
 37
0.0
 76
     0
330
B
331
0
345
0
346
0
  0
DICTIONARY
  5
1E
102
{ACAD_REACTORS
330
19
102
}
100
AcDbDictionary
280
     0
281
     1
  3
Layout1
350
21
  3
Model
350
20
  0
DICTIONARY
  5
22
102
{ACAD_REACTORS
330
19
102
}
100
AcDbDictionary
280
     0
281
     1
  0
WIPEOUTVARIABLES
  5
23
100
AcDbWipeoutVariables
 70
     1
  0
ENDSEC
  0
EOF
