  0
SECTION
  2
HEADER
  9
$ACADVER
  1
AC1015
  9
$ACADMAINTVER
 70
     6
  9
$DWGCODEPAGE
  3
DOS850
  9
$INSBASE
 10
0.0
 20
0.0
 30
0.0
  9
$EXTMIN
 10
0.0
 20
0.0
 30
0.0
  9
$EXTMAX
 10
420.0
 20
297.0
 30
0.0
  9
$LIMMIN
 10
0.0
 20
0.0
  9
$LIMMAX
 10
420.0
 20
297.0
  9
$ORTHOMODE
 70
     0
  9
$REGENMODE
 70
     1
  9
$FILLMODE
 70
     1
  9
$QTEXTMODE
 70
     0
  9
$MIRRTEXT
 70
     1
  9
$LTSCALE
 40
25.4
  9
$ATTMODE
 70
     1
  9
$TEXTSIZE
 40
3.5
  9
$TRACEWID
 40
0.05
  9
$TEXTSTYLE
  7
Standard
  9
$CLAYER
  8
0
  9
$CELTYPE
  6
Continuous
  9
$CECOLOR
 62
   256
  9
$CELTSCALE
 40
1.0
  9
$DISPSILH
 70
     0
  9
$DIMSCALE
 40
1.0
  9
$DIMASZ
 40
5.0
  9
$DIMEXO
 40
3.0
  9
$DIMDLI
 40
0.38
  9
$DIMRND
 40
0.0
  9
$DIMDLE
 40
0.0
  9
$DIMEXE
 40
2.0
  9
$DIMTP
 40
0.0
  9
$DIMTM
 40
0.0
  9
$DIMTXT
 40
3.5
  9
$DIMCEN
 40
4.0
  9
$DIMTSZ
 40
0.0
  9
$DIMTOL
 70
     0
  9
$DIMLIM
 70
     0
  9
$DIMTIH
 70
     1
  9
$DIMTOH
 70
     1
  9
$DIMSE1
 70
     0
  9
$DIMSE2
 70
     0
  9
$DIMTAD
 70
     0
  9
$DIMZIN
 70
     0
  9
$DIMBLK
  1

  9
$DIMASO
 70
     1
  9
$DIMSHO
 70
     1
  9
$DIMPOST
  1

  9
$DIMAPOST
  1

  9
$DIMALT
 70
     0
  9
$DIMALTD
 70
     2
  9
$DIMALTF
 40
25.4
  9
$DIMLFAC
 40
1.0
  9
$DIMTOFL
 70
     0
  9
$DIMTVP
 40
0.0
  9
$DIMTIX
 70
     0
  9
$DIMSOXD
 70
     0
  9
$DIMSAH
 70
     0
  9
$DIMBLK1
  1

  9
$DIMBLK2
  1

  9
$DIMSTYLE
  2
Standard
  9
$DIMCLRD
 70
     0
  9
$DIMCLRE
 70
     0
  9
$DIMCLRT
 70
     0
  9
$DIMTFAC
 40
1.0
  9
$DIMGAP
 40
1.0
  9
$DIMJUST
 70
     0
  9
$DIMSD1
 70
     0
  9
$DIMSD2
 70
     0
  9
$DIMTOLJ
 70
     1
  9
$DIMTZIN
 70
     0
  9
$DIMALTZ
 70
     0
  9
$DIMALTTZ
 70
     0
  9
$DIMUPT
 70
     0
  9
$DIMDEC
 70
     4
  9
$DIMTDEC
 70
     4
  9
$DIMALTU
 70
     2
  9
$DIMALTTD
 70
     2
  9
$DIMTXSTY
  7
Standard
  9
$DIMAUNIT
 70
     0
  9
$DIMADEC
 70
     0
  9
$DIMALTRND
 40
0.0
  9
$DIMAZIN
 70
     0
  9
$DIMDSEP
 70
     0
  9
$DIMATFIT
 70
     3
  9
$DIMFRAC
 70
     0
  9
$DIMLDRBLK
  1

  9
$DIMLUNIT
 70
     2
  9
$DIMLWD
 70
     0
  9
$DIMLWE
 70
     0
  9
$DIMTMOVE
 70
     0
  9
$LUNITS
 70
     2
  9
$LUPREC
 70
     4
  9
$SKETCHINC
 40
0.1
  9
$FILLETRAD
 40
0.0
  9
$AUNITS
 70
     0
  9
$AUPREC
 70
     0
  9
$MENU
  1
acad
  9
$ELEVATION
 40
0.0
  9
$PELEVATION
 40
0.0
  9
$THICKNESS
 40
0.0
  9
$LIMCHECK
 70
     0
  9
$CHAMFERA
 40
0.0
  9
$CHAMFERB
 40
0.0
  9
$CHAMFERC
 40
0.0
  9
$CHAMFERD
 40
0.0
  9
$SKPOLY
 70
     0
  9
$TDCREATE
 40
0.000000000
  9
$TDUCREATE
 40
0.000000000
  9
$TDUPDATE
 40
0.000000000
  9
$TDUUPDATE
 40
0.000000000
  9
$TDINDWG
 40
0.0000000000
  9
$TDUSRTIMER
 40
0.0000000000
  9
$USRTIMER
 70
     1
  9
$ANGBASE
 50
0.0
  9
$ANGDIR
 70
     0
  9
$PDMODE
 70
     0
  9
$PDSIZE
 40
0.0
  9
$PLINEWID
 40
0.0
  9
$SPLFRAME
 70
     0
  9
$SPLINETYPE
 70
     6
  9
$SPLINESEGS
 70
     8
  9
$HANDSEED
  5
564
  9
$SURFTAB1
 70
     6
  9
$SURFTAB2
 70
     6
  9
$SURFTYPE
 70
     6
  9
$SURFU
 70
     6
  9
$SURFV
 70
     6
  9
$UCSBASE
  2

  9
$UCSNAME
  2

  9
$UCSORG
 10
0.0
 20
0.0
 30
0.0
  9
$UCSXDIR
 10
1.0
 20
0.0
 30
0.0
  9
$UCSYDIR
 10
0.0
 20
1.0
 30
0.0
  9
$UCSORTHOREF
  2

  9
$UCSORTHOVIEW
 70
     0
  9
$UCSORGTOP
 10
0.0
 20
0.0
 30
0.0
  9
$UCSORGBOTTOM
 10
0.0
 20
0.0
 30
0.0
  9
$UCSORGLEFT
 10
0.0
 20
0.0
 30
0.0
  9
$UCSORGRIGHT
 10
0.0
 20
0.0
 30
0.0
  9
$UCSORGFRONT
 10
0.0
 20
0.0
 30
0.0
  9
$UCSORGBACK
 10
0.0
 20
0.0
 30
0.0
  9
$PUCSBASE
  2

  9
$PUCSNAME
  2

  9
$PUCSORG
 10
0.0
 20
0.0
 30
0.0
  9
$PUCSXDIR
 10
1.0
 20
0.0
 30
0.0
  9
$PUCSYDIR
 10
0.0
 20
1.0
 30
0.0
  9
$PUCSORTHOREF
  2

  9
$PUCSORTHOVIEW
 70
     0
  9
$PUCSORGTOP
 10
0.0
 20
0.0
 30
0.0
  9
$PUCSORGBOTTOM
 10
0.0
 20
0.0
 30
0.0
  9
$PUCSORGLEFT
 10
0.0
 20
0.0
 30
0.0
  9
$PUCSORGRIGHT
 10
0.0
 20
0.0
 30
0.0
  9
$PUCSORGFRONT
 10
0.0
 20
0.0
 30
0.0
  9
$PUCSORGBACK
 10
0.0
 20
0.0
 30
0.0
  9
$USERI1
 70
     0
  9
$USERI2
 70
     0
  9
$USERI3
 70
     0
  9
$USERI4
 70
     0
  9
$USERI5
 70
     0
  9
$USERR1
 40
0.0
  9
$USERR2
 40
0.0
  9
$USERR3
 40
0.0
  9
$USERR4
 40
0.0
  9
$USERR5
 40
0.0
  9
$WORLDVIEW
 70
     1
  9
$SHADEDGE
 70
     3
  9
$SHADEDIF
 70
    70
  9
$TILEMODE
 70
     1
  9
$MAXACTVP
 70
    16
  9
$PINSBASE
 10
0.0
 20
0.0
 30
0.0
  9
$PLIMCHECK
 70
     0
  9
$PEXTMIN
 10
1.000000E+20
 20
1.000000E+20
 30
1.000000E+20
  9
$PEXTMAX
 10
-1.000000E+20
 20
-1.000000E+20
 30
-1.000000E+20
  9
$PLIMMIN
 10
0.0
 20
0.0
  9
$PLIMMAX
 10
420.0
 20
297.0
  9
$UNITMODE
 70
     0
  9
$VISRETAIN
 70
     0
  9
$PLINEGEN
 70
     1
  9
$PSLTSCALE
 70
     0
  9
$TREEDEPTH
 70
  3020
  9
$CMLSTYLE
  2
Standard
  9
$CMLJUST
 70
     0
  9
$CMLSCALE
 40
1.0
  9
$PROXYGRAPHICS
 70
     0
  9
$MEASUREMENT
 70
     0
  9
$CELWEIGHT
370
     0
  9
$ENDCAPS
280
     0
  9
$JOINSTYLE
280
     0
  9
$LWDISPLAY
290
     0
  9
$INSUNITS
 70
     0
  9
$HYPERLINKBASE
  1

  9
$XEDIT
290
     1
  9
$CEPSNTYPE
380
     0
  9
$PSTYLEMODE
290
     0
  9
$FINGERPRINTGUID
  2

  9
$VERSIONGUID
  2

  9
$EXTNAMES
290
     1
  9
$PSVPSCALE
 40
0.0
  0
ENDSEC
  0
SECTION
  2
CLASSES
  0
CLASS
  1
LWPOLYLINE
  2
AcDbPolyline
  3
"AutoCAD"
 90
        0
280
     0
281
     1
  0
CLASS
  1
IMAGE
  2
AcDbRasterImage
  3
ISM
 90
      127
280
     0
281
     1
  0
CLASS
  1
OLE2FRAME
  2
AcDbOle2Frame
  3
""
 90
        0
280
     0
281
     1
  0
CLASS
  1
HATCH
  2
AcDbHatch
  3
"ACAD_SEDONA"
 90
        0
280
     0
281
     1
  0
CLASS
  1
DICTIONARYVAR
  2
AcDbDictionaryVar
  3
"AutoCAD"
 90
        0
280
     0
281
     0
  0
CLASS
  1
RASTERVARIABLES
  2
AcDbRasterVariables
  3
ISM
 90
        0
280
     0
281
     0
  0
CLASS
  1
IMAGEDEF
  2
AcDbRasterImageDef
  3
ISM
 90
        0
280
     0
281
     0
  0
CLASS
  1
IMAGEDEF_REACTOR
  2
AcDbRasterImageDefReactor
  3
ISM
 90
        1
280
     0
281
     0
  0
CLASS
  1
IDBUFFER
  2
AcDbIdBuffer
  3
"Acad"
 90
        0
280
     0
281
     0
  0
CLASS
  1
SPATIAL_FILTER
  2
AcDbSpatialFilter
  3
"Acad"
 90
        0
280
     0
281
     0
  0
CLASS
  1
XRECORD
  2
AcDbXrecord
  3
"<Built In>"
 90
        0
280
     0
281
     0
  0
CLASS
  1
SORTENTSTABLE
  2
AcDbSortentsTable
  3
"AutoCAD"
 90
        0
280
     0
281
     0
  0
CLASS
  1
LAYER_INDEX
  2
AcDbLayerIndex
  3
"Acad"
 90
        0
280
     0
281
     0
  0
CLASS
  1
SPATIAL_INDEX
  2
AcDbSpatialIndex
  3
"Acad"
 90
        0
280
     0
281
     0
  0
CLASS
  1
OBJECT_PTR
  2
CAseDLPNTableRecord
  3
"ASE-LPNTableRecord"
 90
        1
280
     0
281
     0
  0
CLASS
  1
LAYOUT
  2
AcDbLayout
  3
"AutoCAD 2000"
 90
        1
280
     0
281
     0
  0
CLASS
  1
PLOTSETTINGS
  2
AcDbPlotSettings
  3
"AutoCAD 2000"
 90
        1
280
     0
281
     0
  0
CLASS
  1
ACDBDICTIONARYWDFLT
  2
AcDbDictionaryWithDefault
  3
"AutoCAD 2000"
 90
        1
280
     0
281
     0
  0
CLASS
  1
ACDBPLACEHOLDER
  2
AcDbPlaceHolder
  3
"AutoCAD 2000"
 90
        1
280
     0
281
     0
  0
CLASS
  1
VBA_PROJECT
  2
AcDbVbaProject
  3
"acadvba"
 90
        1
280
     0
281
     0
  0
CLASS
  1
WIPEOUT
  2
AcDbWipeout
  3
WipeOut|AutoCAD Express Tool|expresstools@autodesk.com
 90
      127
280
     0
281
     1
  0
CLASS
  1
WIPEOUTVARIABLES
  2
AcDbWipeoutVariables
  3
WipeOut|AutoCAD Express Tool|expresstools@autodesk.com
 90
        0
280
     0
281
     0
  0
CLASS
  1
RTEXT
  2
RText
  3
RText|AutoCAD Express Tool|expresstools@autodesk.com
 90
        0
280
     0
281
     1
  0
CLASS
  1
ARCALIGNEDTEXT
  2
AcDbArcAlignedText
  3
ATEXT|AutoCAD Express Tool|expresstools@autodesk.com
 90
        0
280
     0
281
     1
  0
ENDSEC
  0
SECTION
  2
TABLES
  0
TABLE
  2
VPORT
  5
7
100
AcDbSymbolTable
 70
     1
  0
VPORT
  5
15
100
AcDbSymbolTableRecord
100
AcDbViewportTableRecord
  2
*ACTIVE
 70
     0
 10
0.0
 20
0.0
 11
1.0
 21
1.0
 12
6.591288
 22
4.579184
 13
0.0
 23
0.0
 14
1.0
 24
1.0
 15
0.0
 25
0.0
 16
0.0
 26
0.0
 36
1.0
 17
0.0
 27
0.0
 37
0.0
 40
9.158369
 41
0.688564
 42
50.0
 43
0.0
 44
0.0
 50
0.0
 51
0.0
 71
     0
 72
   100
 73
     1
 74
     1
 75
     0
 76
     0
 77
     0
 78
     0
281
     0
 65
     0
110
0.0
120
0.0
130
0.0
111
1.0
121
0.0
131
0.0
112
0.0
122
1.0
132
0.0
345
0
346
0
 79
     0
146
0.0
  0
ENDTAB
  0
TABLE
  2
LTYPE
  5
4
100
AcDbSymbolTable
 70
     7
  0
LTYPE
  5
11
100
AcDbSymbolTableRecord
100
AcDbLinetypeTableRecord
  2
ByBlock
 70
    64
  3

 72
    65
 73
     0
 40
0.0
  0
LTYPE
  5
12
100
AcDbSymbolTableRecord
100
AcDbLinetypeTableRecord
  2
ByLayer
 70
    64
  3

 72
    65
 73
     0
 40
0.0
  0
LTYPE
  5
13
100
AcDbSymbolTableRecord
100
AcDbLinetypeTableRecord
  2
Continuous
 70
    64
  3
Solid line
 72
    65
 73
     0
 40
0.0
  0
LTYPE
  5
24
100
AcDbSymbolTableRecord
100
AcDbLinetypeTableRecord
  2
HIDDEN
 70
    64
  3
_ _ _ _ _ _ _ _ _ _ _ _ _ _ _ _ _ _ _ _ _ _ _ _
 72
    65
 73
     2
 40
0.1875
 49
0.125
 74
     0
 49
-0.0625
 74
     0
  0
LTYPE
  5
25
100
AcDbSymbolTableRecord
100
AcDbLinetypeTableRecord
  2
DOTTED
 70
    64
  3
...............................................
 72
    65
 73
     2
 40
0.125
 49
0.0
 74
     0
 49
-0.125
 74
     0
  0
LTYPE
  5
26
100
AcDbSymbolTableRecord
100
AcDbLinetypeTableRecord
  2
CENTER
 70
    64
  3
____ _ ____ _ ____ _ ____ _ ____ _ ____ _ ____ 
 72
    65
 73
     4
 40
1.125
 49
0.75
 74
     0
 49
-0.125
 74
     0
 49
0.125
 74
     0
 49
-0.125
 74
     0
  0
LTYPE
  5
27
100
AcDbSymbolTableRecord
100
AcDbLinetypeTableRecord
  2
PHANTOM
 70
    64
  3
______  __  __  ______  __  __  ______  __  __ 
 72
    65
 73
     6
 40
1.25
 49
0.625
 74
     0
 49
-0.125
 74
     0
 49
0.125
 74
     0
 49
-0.125
 74
     0
 49
0.125
 74
     0
 49
-0.125
 74
     0
  0
ENDTAB
  0
TABLE
  2
LAYER
  5
2
100
AcDbSymbolTable
 70
     2
  0
LAYER
  5
14
100
AcDbSymbolTableRecord
100
AcDbLayerTableRecord
  2
0
 70
     0
 62
     7
  6
Continuous
290
     1
370
    -3
390
1D
  0
LAYER
  5
28
100
AcDbSymbolTableRecord
100
AcDbLayerTableRecord
  2
TEXT
 70
     0
 62
     8
  6
Continuous
290
     1
370
    -3
390
1F
  0
ENDTAB
  0
TABLE
  2
STYLE
  5
3
100
AcDbSymbolTable
 70
     1
  0
STYLE
  5
17
100
AcDbSymbolTableRecord
100
AcDbTextStyleTableRecord
  2
Standard
 70
     0
 40
0.0
 41
1.0
 50
0.0
 71
     0
 42
0.0
  3
txt
  4

  0
ENDTAB
  0
TABLE
  2
VIEW
  5
5
100
AcDbSymbolTable
 70
     0
  0
ENDTAB
  0
TABLE
  2
UCS
  5
6
100
AcDbSymbolTable
 70
     0
  0
ENDTAB
  0
TABLE
  2
APPID
  5
8
100
AcDbSymbolTable
 70
     1
  0
APPID
  5
16
100
AcDbSymbolTableRecord
100
AcDbRegAppTableRecord
  2
ACAD
 70
     0
  0
ENDTAB
  0
TABLE
  2
DIMSTYLE
  5
9
100
AcDbSymbolTable
 70
     1
100
AcDbDimStyleTable
 71
     0
  0
DIMSTYLE
105
18
100
AcDbSymbolTableRecord
100
AcDbDimStyleTableRecord
  2
Standard
 70
     0
  3

  4

 40
1.0
 41
0.18
 42
0.0625
 43
0.38
 44
0.18
 45
0.0
 46
0.0
 47
0.0
 48
0.0
 71
     0
 72
     0
 73
     1
 74
     1
 75
     0
 76
     0
 77
     0
 78
     0
 79
     0
140
0.18
141
0.09
142
0.0
143
25.4
144
1.0
145
0.0
146
1.0
147
0.09
148
0.0
170
     0
171
     2
172
     0
173
     0
174
     0
175
     0
176
     0
177
     0
178
     0
179
     0
271
     4
272
     4
273
     2
274
     2
275
     0
276
     0
277
     2
278
    46
279
     0
280
     0
281
     0
282
     0
283
     1
284
     0
285
     0
286
     0
288
     0
340
17
341
0
342
0
343
0
344
0
371
    -2
372
    -2
  0
ENDTAB
  0
TABLE
  2
BLOCK_RECORD
  5
1
100
AcDbSymbolTable
 70
    74
  0
BLOCK_RECORD
  5
A
100
AcDbSymbolTableRecord
100
AcDbBlockTableRecord
  2
*MODEL_SPACE
340
20
  0
BLOCK_RECORD
  5
B
100
AcDbSymbolTableRecord
100
AcDbBlockTableRecord
  2
*PAPER_SPACE
340
21
  0
BLOCK_RECORD
  5
29
100
AcDbSymbolTableRecord
100
AcDbBlockTableRecord
  2
*B0
340
0
  0
BLOCK_RECORD
  5
2C
100
AcDbSymbolTableRecord
100
AcDbBlockTableRecord
  2
*B1
340
0
  0
BLOCK_RECORD
  5
1C9
100
AcDbSymbolTableRecord
100
AcDbBlockTableRecord
  2
*B2
340
0
  0
BLOCK_RECORD
  5
1CF
100
AcDbSymbolTableRecord
100
AcDbBlockTableRecord
  2
*B3
340
0
  0
BLOCK_RECORD
  5
3A9
100
AcDbSymbolTableRecord
100
AcDbBlockTableRecord
  2
*B4
340
0
  0
BLOCK_RECORD
  5
3B0
100
AcDbSymbolTableRecord
100
AcDbBlockTableRecord
  2
*B5
340
0
  0
BLOCK_RECORD
  5
3B7
100
AcDbSymbolTableRecord
100
AcDbBlockTableRecord
  2
*B6
340
0
  0
BLOCK_RECORD
  5
3BE
100
AcDbSymbolTableRecord
100
AcDbBlockTableRecord
  2
*B7
340
0
  0
BLOCK_RECORD
  5
3C5
100
AcDbSymbolTableRecord
100
AcDbBlockTableRecord
  2
*B8
340
0
  0
BLOCK_RECORD
  5
3CC
100
AcDbSymbolTableRecord
100
AcDbBlockTableRecord
  2
*B9
340
0
  0
BLOCK_RECORD
  5
3D3
100
AcDbSymbolTableRecord
100
AcDbBlockTableRecord
  2
*B10
340
0
  0
BLOCK_RECORD
  5
3DA
100
AcDbSymbolTableRecord
100
AcDbBlockTableRecord
  2
*B11
340
0
  0
BLOCK_RECORD
  5
3E1
100
AcDbSymbolTableRecord
100
AcDbBlockTableRecord
  2
*B12
340
0
  0
BLOCK_RECORD
  5
3E8
100
AcDbSymbolTableRecord
100
AcDbBlockTableRecord
  2
*B13
340
0
  0
BLOCK_RECORD
  5
3EF
100
AcDbSymbolTableRecord
100
AcDbBlockTableRecord
  2
*B14
340
0
  0
BLOCK_RECORD
  5
3F6
100
AcDbSymbolTableRecord
100
AcDbBlockTableRecord
  2
*B15
340
0
  0
BLOCK_RECORD
  5
3FD
100
AcDbSymbolTableRecord
100
AcDbBlockTableRecord
  2
*B16
340
0
  0
BLOCK_RECORD
  5
404
100
AcDbSymbolTableRecord
100
AcDbBlockTableRecord
  2
*B17
340
0
  0
BLOCK_RECORD
  5
40B
100
AcDbSymbolTableRecord
100
AcDbBlockTableRecord
  2
*B18
340
0
  0
BLOCK_RECORD
  5
412
100
AcDbSymbolTableRecord
100
AcDbBlockTableRecord
  2
*B19
340
0
  0
BLOCK_RECORD
  5
417
100
AcDbSymbolTableRecord
100
AcDbBlockTableRecord
  2
*B20
340
0
  0
BLOCK_RECORD
  5
41C
100
AcDbSymbolTableRecord
100
AcDbBlockTableRecord
  2
*B21
340
0
  0
BLOCK_RECORD
  5
422
100
AcDbSymbolTableRecord
100
AcDbBlockTableRecord
  2
*B22
340
0
  0
BLOCK_RECORD
  5
42D
100
AcDbSymbolTableRecord
100
AcDbBlockTableRecord
  2
*B23
340
0
  0
BLOCK_RECORD
  5
433
100
AcDbSymbolTableRecord
100
AcDbBlockTableRecord
  2
*B24
340
0
  0
BLOCK_RECORD
  5
43A
100
AcDbSymbolTableRecord
100
AcDbBlockTableRecord
  2
*B25
340
0
  0
BLOCK_RECORD
  5
440
100
AcDbSymbolTableRecord
100
AcDbBlockTableRecord
  2
*B26
340
0
  0
BLOCK_RECORD
  5
44F
100
AcDbSymbolTableRecord
100
AcDbBlockTableRecord
  2
*B27
340
0
  0
BLOCK_RECORD
  5
454
100
AcDbSymbolTableRecord
100
AcDbBlockTableRecord
  2
*B28
340
0
  0
BLOCK_RECORD
  5
467
100
AcDbSymbolTableRecord
100
AcDbBlockTableRecord
  2
*B29
340
0
  0
BLOCK_RECORD
  5
46E
100
AcDbSymbolTableRecord
100
AcDbBlockTableRecord
  2
*B30
340
0
  0
BLOCK_RECORD
  5
473
100
AcDbSymbolTableRecord
100
AcDbBlockTableRecord
  2
*B31
340
0
  0
BLOCK_RECORD
  5
47C
100
AcDbSymbolTableRecord
100
AcDbBlockTableRecord
  2
*B32
340
0
  0
BLOCK_RECORD
  5
482
100
AcDbSymbolTableRecord
100
AcDbBlockTableRecord
  2
*B33
340
0
  0
BLOCK_RECORD
  5
487
100
AcDbSymbolTableRecord
100
AcDbBlockTableRecord
  2
*B34
340
0
  0
BLOCK_RECORD
  5
48C
100
AcDbSymbolTableRecord
100
AcDbBlockTableRecord
  2
*B35
340
0
  0
BLOCK_RECORD
  5
491
100
AcDbSymbolTableRecord
100
AcDbBlockTableRecord
  2
*B36
340
0
  0
BLOCK_RECORD
  5
496
100
AcDbSymbolTableRecord
100
AcDbBlockTableRecord
  2
*B37
340
0
  0
BLOCK_RECORD
  5
49B
100
AcDbSymbolTableRecord
100
AcDbBlockTableRecord
  2
*B38
340
0
  0
BLOCK_RECORD
  5
4A0
100
AcDbSymbolTableRecord
100
AcDbBlockTableRecord
  2
*B39
340
0
  0
BLOCK_RECORD
  5
4A6
100
AcDbSymbolTableRecord
100
AcDbBlockTableRecord
  2
*B40
340
0
  0
BLOCK_RECORD
  5
4AC
100
AcDbSymbolTableRecord
100
AcDbBlockTableRecord
  2
*B41
340
0
  0
BLOCK_RECORD
  5
4B3
100
AcDbSymbolTableRecord
100
AcDbBlockTableRecord
  2
*B42
340
0
  0
BLOCK_RECORD
  5
4B8
100
AcDbSymbolTableRecord
100
AcDbBlockTableRecord
  2
*B43
340
0
  0
BLOCK_RECORD
  5
4BD
100
AcDbSymbolTableRecord
100
AcDbBlockTableRecord
  2
*B44
340
0
  0
BLOCK_RECORD
  5
4C4
100
AcDbSymbolTableRecord
100
AcDbBlockTableRecord
  2
*B45
340
0
  0
BLOCK_RECORD
  5
4CC
100
AcDbSymbolTableRecord
100
AcDbBlockTableRecord
  2
*B46
340
0
  0
BLOCK_RECORD
  5
4D1
100
AcDbSymbolTableRecord
100
AcDbBlockTableRecord
  2
*B47
340
0
  0
BLOCK_RECORD
  5
4D6
100
AcDbSymbolTableRecord
100
AcDbBlockTableRecord
  2
*B48
340
0
  0
BLOCK_RECORD
  5
4DB
100
AcDbSymbolTableRecord
100
AcDbBlockTableRecord
  2
*B49
340
0
  0
BLOCK_RECORD
  5
4E3
100
AcDbSymbolTableRecord
100
AcDbBlockTableRecord
  2
*B50
340
0
  0
BLOCK_RECORD
  5
4EA
100
AcDbSymbolTableRecord
100
AcDbBlockTableRecord
  2
*B51
340
0
  0
BLOCK_RECORD
  5
4EF
100
AcDbSymbolTableRecord
100
AcDbBlockTableRecord
  2
*B52
340
0
  0
BLOCK_RECORD
  5
4F4
100
AcDbSymbolTableRecord
100
AcDbBlockTableRecord
  2
*B53
340
0
  0
BLOCK_RECORD
  5
4FA
100
AcDbSymbolTableRecord
100
AcDbBlockTableRecord
  2
*B54
340
0
  0
BLOCK_RECORD
  5
500
100
AcDbSymbolTableRecord
100
AcDbBlockTableRecord
  2
*B55
340
0
  0
BLOCK_RECORD
  5
506
100
AcDbSymbolTableRecord
100
AcDbBlockTableRecord
  2
*B56
340
0
  0
BLOCK_RECORD
  5
50C
100
AcDbSymbolTableRecord
100
AcDbBlockTableRecord
  2
*B57
340
0
  0
BLOCK_RECORD
  5
512
100
AcDbSymbolTableRecord
100
AcDbBlockTableRecord
  2
*B58
340
0
  0
BLOCK_RECORD
  5
517
100
AcDbSymbolTableRecord
100
AcDbBlockTableRecord
  2
*B59
340
0
  0
BLOCK_RECORD
  5
51C
100
AcDbSymbolTableRecord
100
AcDbBlockTableRecord
  2
*B60
340
0
  0
BLOCK_RECORD
  5
521
100
AcDbSymbolTableRecord
100
AcDbBlockTableRecord
  2
*B61
340
0
  0
BLOCK_RECORD
  5
526
100
AcDbSymbolTableRecord
100
AcDbBlockTableRecord
  2
*B62
340
0
  0
BLOCK_RECORD
  5
52C
100
AcDbSymbolTableRecord
100
AcDbBlockTableRecord
  2
*B63
340
0
  0
BLOCK_RECORD
  5
532
100
AcDbSymbolTableRecord
100
AcDbBlockTableRecord
  2
*B64
340
0
  0
BLOCK_RECORD
  5
537
100
AcDbSymbolTableRecord
100
AcDbBlockTableRecord
  2
*B65
340
0
  0
BLOCK_RECORD
  5
53C
100
AcDbSymbolTableRecord
100
AcDbBlockTableRecord
  2
*B66
340
0
  0
BLOCK_RECORD
  5
541
100
AcDbSymbolTableRecord
100
AcDbBlockTableRecord
  2
*B67
340
0
  0
BLOCK_RECORD
  5
546
100
AcDbSymbolTableRecord
100
AcDbBlockTableRecord
  2
*B68
340
0
  0
BLOCK_RECORD
  5
54B
100
AcDbSymbolTableRecord
100
AcDbBlockTableRecord
  2
*B69
340
0
  0
BLOCK_RECORD
  5
550
100
AcDbSymbolTableRecord
100
AcDbBlockTableRecord
  2
*B70
340
0
  0
BLOCK_RECORD
  5
555
100
AcDbSymbolTableRecord
100
AcDbBlockTableRecord
  2
*B71
340
0
  0
BLOCK_RECORD
  5
55A
100
AcDbSymbolTableRecord
100
AcDbBlockTableRecord
  2
*B72
340
0
  0
BLOCK_RECORD
  5
55F
100
AcDbSymbolTableRecord
100
AcDbBlockTableRecord
  2
*B73
340
0
  0
ENDTAB
  0
ENDSEC
  0
SECTION
  2
BLOCKS
  0
BLOCK
  5
D
100
AcDbEntity
  8
0
100
AcDbBlockBegin
  2
*MODEL_SPACE
 70
     0
 10
0.0
 20
0.0
 30
0.0
  3
*MODEL_SPACE
  1

  0
ENDBLK
  5
E
100
AcDbEntity
  8
0
100
AcDbBlockEnd
  0
BLOCK
  5
F
100
AcDbEntity
 67
     1
  8
0
100
AcDbBlockBegin
  2
*PAPER_SPACE
 70
     0
 10
0.0
 20
0.0
 30
0.0
  3
*PAPER_SPACE
  1

  0
ENDBLK
  5
10
100
AcDbEntity
 67
     1
  8
0
100
AcDbBlockEnd
  0
BLOCK
  5
2A
100
AcDbEntity
  8
0
100
AcDbBlockBegin
  2
*B0
 70
     0
 10
0.0
 20
0.0
 30
0.0
  3
*B0
  1

  0
ENDBLK
  5
2B
100
AcDbEntity
  8
0
100
AcDbBlockEnd
  0
BLOCK
  5
2D
100
AcDbEntity
  8
0
100
AcDbBlockBegin
  2
*B1
 70
     0
 10
0.0
 20
0.0
 30
0.0
  3
*B1
  1

  0
ARC
  5
2E
100
AcDbEntity
  8
0
  6
HIDDEN
 62
   174
100
AcDbCircle
 10
272.164471
 20
162.923491
 30
0.0
 40
7.5
100
AcDbArc
 50
90.0
 51
270.0
  0
ARC
  5
2F
100
AcDbEntity
  8
0
  6
HIDDEN
 62
   174
100
AcDbCircle
 10
272.164471
 20
162.923491
 30
0.0
 40
7.5
100
AcDbArc
 50
-90.0
 51
90.0
  0
ARC
  5
30
100
AcDbEntity
  8
0
  6
HIDDEN
 62
   174
100
AcDbCircle
 10
240.164471
 20
162.923491
 30
0.0
 40
7.5
100
AcDbArc
 50
90.0
 51
270.0
  0
ARC
  5
31
100
AcDbEntity
  8
0
  6
HIDDEN
 62
   174
100
AcDbCircle
 10
240.164471
 20
162.923491
 30
0.0
 40
7.5
100
AcDbArc
 50
-90.0
 51
90.0
  0
ARC
  5
32
100
AcDbEntity
  8
0
  6
Continuous
 62
   174
100
AcDbCircle
 10
238.164471
 20
190.923491
 30
0.0
 40
3.0
100
AcDbArc
 50
-90.0
 51
-64.236291
  0
ARC
  5
33
100
AcDbEntity
  8
0
  6
Continuous
 62
   174
100
AcDbCircle
 10
238.164471
 20
190.923491
 30
0.0
 40
3.0
100
AcDbArc
 50
-115.763709
 51
-90.0
  0
ARC
  5
34
100
AcDbEntity
  8
0
  6
Continuous
 62
   174
100
AcDbCircle
 10
238.164471
 20
190.923491
 30
0.0
 40
3.0
100
AcDbArc
 50
-244.236291
 51
-115.763709
  0
ARC
  5
35
100
AcDbEntity
  8
0
  6
Continuous
 62
   174
100
AcDbCircle
 10
238.164471
 20
190.923491
 30
0.0
 40
3.0
100
AcDbArc
 50
-270.0
 51
-244.236291
  0
ARC
  5
36
100
AcDbEntity
  8
0
  6
Continuous
 62
   174
100
AcDbCircle
 10
238.164471
 20
190.923491
 30
0.0
 40
3.0
100
AcDbArc
 50
-295.763709
 51
-270.0
  0
ARC
  5
37
100
AcDbEntity
  8
0
  6
Continuous
 62
   174
100
AcDbCircle
 10
238.164471
 20
190.923491
 30
0.0
 40
3.0
100
AcDbArc
 50
-64.236291
 51
64.236291
  0
ARC
  5
38
100
AcDbEntity
  8
0
  6
HIDDEN
 62
   174
100
AcDbCircle
 10
273.064705
 20
222.477027
 30
0.0
 40
2.0
100
AcDbArc
 50
-169.733303
 51
10.266697
  0
ARC
  5
39
100
AcDbEntity
  8
0
  6
HIDDEN
 62
   174
100
AcDbCircle
 10
273.064705
 20
222.477027
 30
0.0
 40
2.0
100
AcDbArc
 50
10.266697
 51
190.266697
  0
ARC
  5
3A
100
AcDbEntity
  8
0
  6
Continuous
 62
   174
100
AcDbCircle
 10
273.064705
 20
222.477027
 30
0.0
 40
2.8
100
AcDbArc
 50
-349.733303
 51
-324.243335
  0
ARC
  5
3B
100
AcDbEntity
  8
0
  6
HIDDEN
 62
   174
100
AcDbCircle
 10
273.064705
 20
222.477027
 30
0.0
 40
2.0
100
AcDbArc
 50
-40.27508
 51
-26.075783
  0
ARC
  5
3C
100
AcDbEntity
  8
0
  6
HIDDEN
 62
   174
100
AcDbCircle
 10
273.064705
 20
222.477027
 30
0.0
 40
2.8
100
AcDbArc
 50
-169.733303
 51
10.266697
  0
ARC
  5
3D
100
AcDbEntity
  8
0
  6
Continuous
 62
   174
100
AcDbCircle
 10
276.451081
 20
203.78124
 30
0.0
 40
3.0
100
AcDbArc
 50
-270.0
 51
-266.587729
  0
ARC
  5
3E
100
AcDbEntity
  8
0
  6
Continuous
 62
   174
100
AcDbCircle
 10
276.451081
 20
203.78124
 30
0.0
 40
3.0
100
AcDbArc
 50
-215.622044
 51
-196.17516
  0
ARC
  5
3F
100
AcDbEntity
  8
0
  6
Continuous
 62
   174
100
AcDbCircle
 10
276.451081
 20
203.78124
 30
0.0
 40
3.0
100
AcDbArc
 50
-220.871025
 51
-215.622044
  0
ARC
  5
40
100
AcDbEntity
  8
0
  6
Continuous
 62
   174
100
AcDbCircle
 10
276.451081
 20
203.78124
 30
0.0
 40
3.0
100
AcDbArc
 50
-243.454543
 51
-220.871025
  0
ARC
  5
41
100
AcDbEntity
  8
0
  6
Continuous
 62
   174
100
AcDbCircle
 10
276.451081
 20
203.78124
 30
0.0
 40
3.0
100
AcDbArc
 50
-246.866688
 51
-243.454543
  0
ARC
  5
42
100
AcDbEntity
  8
0
  6
Continuous
 62
   174
100
AcDbCircle
 10
276.451081
 20
203.78124
 30
0.0
 40
3.0
100
AcDbArc
 50
-266.587729
 51
-246.866688
  0
LINE
  5
43
100
AcDbEntity
  8
0
  6
HIDDEN
 62
   174
100
AcDbLine
 10
267.964471
 20
122.923491
 30
0.0
 11
267.964471
 21
110.923491
 31
0.0
  0
LINE
  5
44
100
AcDbEntity
  8
0
  6
HIDDEN
 62
   174
100
AcDbLine
 10
276.364471
 20
122.923491
 30
0.0
 11
276.364471
 21
110.923491
 31
0.0
  0
LINE
  5
45
100
AcDbEntity
  8
0
  6
HIDDEN
 62
   174
100
AcDbLine
 10
276.364471
 20
122.923491
 30
0.0
 11
276.364471
 21
110.923491
 31
0.0
  0
LINE
  5
46
100
AcDbEntity
  8
0
  6
HIDDEN
 62
   174
100
AcDbLine
 10
244.364471
 20
110.923491
 30
0.0
 11
244.364471
 21
125.923491
 31
0.0
  0
ARC
  5
47
100
AcDbEntity
  8
0
  6
HIDDEN
 62
   174
100
AcDbCircle
 10
273.064705
 20
222.477027
 30
0.0
 40
2.0
100
AcDbArc
 50
-322.601534
 51
-307.714935
  0
ARC
  5
48
100
AcDbEntity
  8
0
  6
HIDDEN
 62
   174
100
AcDbCircle
 10
273.064705
 20
222.477027
 30
0.0
 40
2.0
100
AcDbArc
 50
-105.419102
 51
-91.098864
  0
LINE
  5
49
100
AcDbEntity
  8
0
  6
HIDDEN
 62
   174
100
AcDbLine
 10
267.164471
 20
122.923491
 30
0.0
 11
267.164471
 21
110.923491
 31
0.0
  0
LINE
  5
4A
100
AcDbEntity
  8
0
  6
HIDDEN
 62
   174
100
AcDbLine
 10
267.964471
 20
122.923491
 30
0.0
 11
267.964471
 21
110.923491
 31
0.0
  0
LINE
  5
4B
100
AcDbEntity
  8
0
  6
HIDDEN
 62
   174
100
AcDbLine
 10
245.164471
 20
122.923491
 30
0.0
 11
245.164471
 21
110.923491
 31
0.0
  0
ARC
  5
4C
100
AcDbEntity
  8
0
  6
HIDDEN
 62
   174
100
AcDbCircle
 10
273.064705
 20
222.477027
 30
0.0
 40
2.0
100
AcDbArc
 50
-234.141096
 51
-220.27508
  0
ARC
  5
4D
100
AcDbEntity
  8
0
  6
Continuous
 62
   174
100
AcDbCircle
 10
276.451081
 20
203.78124
 30
0.0
 40
3.0
100
AcDbArc
 50
-144.359468
 51
-137.790663
  0
ARC
  5
4E
100
AcDbEntity
  8
0
  6
Continuous
 62
   174
100
AcDbCircle
 10
276.451081
 20
203.78124
 30
0.0
 40
3.0
100
AcDbArc
 50
-162.709696
 51
-144.359468
  0
ARC
  5
4F
100
AcDbEntity
  8
0
  6
Continuous
 62
   174
100
AcDbCircle
 10
276.451081
 20
203.78124
 30
0.0
 40
3.0
100
AcDbArc
 50
-167.142857
 51
-162.709696
  0
ARC
  5
50
100
AcDbEntity
  8
0
  6
Continuous
 62
   174
100
AcDbCircle
 10
276.451081
 20
203.78124
 30
0.0
 40
3.0
100
AcDbArc
 50
-168.28533
 51
-167.142857
  0
ARC
  5
51
100
AcDbEntity
  8
0
  6
Continuous
 62
   174
100
AcDbCircle
 10
276.451081
 20
203.78124
 30
0.0
 40
3.0
100
AcDbArc
 50
-169.670948
 51
-168.28533
  0
ARC
  5
52
100
AcDbEntity
  8
0
  6
Continuous
 62
   174
100
AcDbCircle
 10
276.451081
 20
203.78124
 30
0.0
 40
3.0
100
AcDbArc
 50
-191.771304
 51
-169.670948
  0
ARC
  5
53
100
AcDbEntity
  8
0
  6
Continuous
 62
   174
100
AcDbCircle
 10
276.451081
 20
203.78124
 30
0.0
 40
3.0
100
AcDbArc
 50
-196.17516
 51
-191.771304
  0
LINE
  5
54
100
AcDbEntity
  8
0
  6
HIDDEN
 62
   174
100
AcDbLine
 10
235.964471
 20
122.923491
 30
0.0
 11
235.964471
 21
110.923491
 31
0.0
  0
LINE
  5
55
100
AcDbEntity
  8
0
  6
HIDDEN
 62
   174
100
AcDbLine
 10
245.164471
 20
122.923491
 30
0.0
 11
245.164471
 21
110.923491
 31
0.0
  0
LINE
  5
56
100
AcDbEntity
  8
0
  6
HIDDEN
 62
   174
100
AcDbLine
 10
235.190163
 20
122.923491
 30
0.0
 11
245.190125
 21
122.923491
 31
0.0
  0
LINE
  5
57
100
AcDbEntity
  8
0
  6
HIDDEN
 62
   174
100
AcDbLine
 10
235.190163
 20
110.923491
 30
0.0
 11
245.190125
 21
110.923491
 31
0.0
  0
LINE
  5
58
100
AcDbEntity
  8
0
  6
HIDDEN
 62
   174
100
AcDbLine
 10
235.964471
 20
110.923491
 30
0.0
 11
235.964471
 21
125.923491
 31
0.0
  0
LINE
  5
59
100
AcDbEntity
  8
0
  6
HIDDEN
 62
   174
100
AcDbLine
 10
235.964471
 20
110.923491
 30
0.0
 11
235.964471
 21
125.923491
 31
0.0
  0
LINE
  5
5A
100
AcDbEntity
  8
0
  6
HIDDEN
 62
   174
100
AcDbLine
 10
244.364471
 20
122.923491
 30
0.0
 11
244.364471
 21
110.923491
 31
0.0
  0
ARC
  5
5B
100
AcDbEntity
  8
0
  6
Continuous
 62
   174
100
AcDbCircle
 10
273.064705
 20
222.477027
 30
0.0
 40
2.8
100
AcDbArc
 50
-15.223271
 51
10.266697
  0
ARC
  5
5C
100
AcDbEntity
  8
0
  6
Continuous
 62
   174
100
AcDbCircle
 10
273.064705
 20
222.477027
 30
0.0
 40
2.8
100
AcDbArc
 50
-144.243335
 51
-15.223271
  0
ARC
  5
5D
100
AcDbEntity
  8
0
  6
Continuous
 62
   174
100
AcDbCircle
 10
273.064705
 20
222.477027
 30
0.0
 40
2.8
100
AcDbArc
 50
-169.733303
 51
-144.243335
  0
ARC
  5
5E
100
AcDbEntity
  8
0
  6
Continuous
 62
   174
100
AcDbCircle
 10
273.064705
 20
222.477027
 30
0.0
 40
2.8
100
AcDbArc
 50
-195.223271
 51
-169.733303
  0
ARC
  5
5F
100
AcDbEntity
  8
0
  6
HIDDEN
 62
   174
100
AcDbCircle
 10
273.064705
 20
222.477027
 30
0.0
 40
2.0
100
AcDbArc
 50
-349.733303
 51
-335.033577
  0
ARC
  5
60
100
AcDbEntity
  8
0
  6
HIDDEN
 62
   174
100
AcDbCircle
 10
273.064705
 20
222.477027
 30
0.0
 40
2.0
100
AcDbArc
 50
-67.169935
 51
-54.141096
  0
ARC
  5
61
100
AcDbEntity
  8
0
  6
HIDDEN
 62
   174
100
AcDbCircle
 10
273.064705
 20
222.477027
 30
0.0
 40
2.0
100
AcDbArc
 50
-79.900217
 51
-67.169935
  0
ARC
  5
62
100
AcDbEntity
  8
0
  6
HIDDEN
 62
   174
100
AcDbCircle
 10
273.064705
 20
222.477027
 30
0.0
 40
2.0
100
AcDbArc
 50
-117.497439
 51
-105.419102
  0
ARC
  5
63
100
AcDbEntity
  8
0
  6
HIDDEN
 62
   174
100
AcDbCircle
 10
273.064705
 20
222.477027
 30
0.0
 40
2.0
100
AcDbArc
 50
-127.714935
 51
-117.497439
  0
LINE
  5
64
100
AcDbEntity
  8
0
  6
HIDDEN
 62
   174
100
AcDbLine
 10
277.164471
 20
122.923491
 30
0.0
 11
277.164471
 21
110.923491
 31
0.0
  0
LINE
  5
65
100
AcDbEntity
  8
0
  6
HIDDEN
 62
   174
100
AcDbLine
 10
267.964471
 20
110.923491
 30
0.0
 11
267.964471
 21
125.923491
 31
0.0
  0
LINE
  5
66
100
AcDbEntity
  8
0
  6
HIDDEN
 62
   174
100
AcDbLine
 10
276.364471
 20
110.923491
 30
0.0
 11
276.364471
 21
125.923491
 31
0.0
  0
ARC
  5
67
100
AcDbEntity
  8
0
  6
HIDDEN
 62
   174
100
AcDbCircle
 10
273.064705
 20
222.477027
 30
0.0
 40
2.0
100
AcDbArc
 50
-206.075783
 51
-194.216029
  0
ARC
  5
68
100
AcDbEntity
  8
0
  6
HIDDEN
 62
   174
100
AcDbCircle
 10
273.064705
 20
222.477027
 30
0.0
 40
2.0
100
AcDbArc
 50
-335.033577
 51
-322.601534
  0
ARC
  5
69
100
AcDbEntity
  8
0
  6
HIDDEN
 62
   174
100
AcDbCircle
 10
273.064705
 20
222.477027
 30
0.0
 40
2.0
100
AcDbArc
 50
-14.216029
 51
-0.809973
  0
ARC
  5
6A
100
AcDbEntity
  8
0
  6
HIDDEN
 62
   174
100
AcDbCircle
 10
273.064705
 20
222.477027
 30
0.0
 40
2.0
100
AcDbArc
 50
-54.141096
 51
-40.27508
  0
LINE
  5
6B
100
AcDbEntity
  8
0
  6
HIDDEN
 62
   174
100
AcDbLine
 10
267.190161
 20
122.923491
 30
0.0
 11
277.190123
 21
122.923491
 31
0.0
  0
LINE
  5
6C
100
AcDbEntity
  8
0
  6
HIDDEN
 62
   174
100
AcDbLine
 10
277.164471
 20
122.923491
 30
0.0
 11
277.164471
 21
110.923491
 31
0.0
  0
ARC
  5
6D
100
AcDbEntity
  8
0
  6
Continuous
 62
   174
100
AcDbCircle
 10
273.064705
 20
222.477027
 30
0.0
 40
2.8
100
AcDbArc
 50
-324.243335
 51
-195.223271
  0
ARC
  5
6E
100
AcDbEntity
  8
0
  6
HIDDEN
 62
   174
100
AcDbCircle
 10
273.064705
 20
222.477027
 30
0.0
 40
2.0
100
AcDbArc
 50
-247.169935
 51
-234.141096
  0
LINE
  5
6F
100
AcDbEntity
  8
0
  6
HIDDEN
 62
   174
100
AcDbLine
 10
267.190161
 20
110.923491
 30
0.0
 11
277.190123
 21
110.923491
 31
0.0
  0
LINE
  5
70
100
AcDbEntity
  8
0
  6
HIDDEN
 62
   174
100
AcDbLine
 10
267.964471
 20
110.923491
 30
0.0
 11
267.964471
 21
125.923491
 31
0.0
  0
LINE
  5
71
100
AcDbEntity
  8
0
  6
HIDDEN
 62
   174
100
AcDbLine
 10
276.364471
 20
110.923491
 30
0.0
 11
276.364471
 21
125.923491
 31
0.0
  0
LINE
  5
72
100
AcDbEntity
  8
0
  6
HIDDEN
 62
   174
100
AcDbLine
 10
235.164471
 20
122.923491
 30
0.0
 11
235.164471
 21
110.923491
 31
0.0
  0
ARC
  5
73
100
AcDbEntity
  8
0
  6
HIDDEN
 62
   174
100
AcDbCircle
 10
273.064705
 20
222.477027
 30
0.0
 40
2.0
100
AcDbArc
 50
-194.216029
 51
-180.809973
  0
ARC
  5
74
100
AcDbEntity
  8
0
  6
HIDDEN
 62
   174
100
AcDbCircle
 10
273.064705
 20
222.477027
 30
0.0
 40
2.0
100
AcDbArc
 50
-285.419102
 51
-271.098864
  0
ARC
  5
75
100
AcDbEntity
  8
0
  6
HIDDEN
 62
   174
100
AcDbCircle
 10
273.064705
 20
222.477027
 30
0.0
 40
2.0
100
AcDbArc
 50
-0.809973
 51
10.266697
  0
ARC
  5
76
100
AcDbEntity
  8
0
  6
HIDDEN
 62
   174
100
AcDbCircle
 10
273.064705
 20
222.477027
 30
0.0
 40
2.0
100
AcDbArc
 50
-91.098864
 51
-79.900217
  0
ARC
  5
77
100
AcDbEntity
  8
0
  6
HIDDEN
 62
   174
100
AcDbCircle
 10
273.064705
 20
222.477027
 30
0.0
 40
2.8
100
AcDbArc
 50
-349.733303
 51
-169.733303
  0
ARC
  5
78
100
AcDbEntity
  8
0
  6
Continuous
 62
   174
100
AcDbCircle
 10
276.451081
 20
203.78124
 30
0.0
 40
3.0
100
AcDbArc
 50
-272.712101
 51
-270.0
  0
ARC
  5
79
100
AcDbEntity
  8
0
  6
Continuous
 62
   174
100
AcDbCircle
 10
276.451081
 20
203.78124
 30
0.0
 40
3.0
100
AcDbArc
 50
-295.13191
 51
-272.712101
  0
ARC
  5
7A
100
AcDbEntity
  8
0
  6
Continuous
 62
   174
100
AcDbCircle
 10
276.451081
 20
203.78124
 30
0.0
 40
3.0
100
AcDbArc
 50
-297.574154
 51
-295.13191
  0
ARC
  5
7B
100
AcDbEntity
  8
0
  6
Continuous
 62
   174
100
AcDbCircle
 10
276.451081
 20
203.78124
 30
0.0
 40
3.0
100
AcDbArc
 50
-317.790663
 51
-297.574154
  0
ARC
  5
7C
100
AcDbEntity
  8
0
  6
Continuous
 62
   174
100
AcDbCircle
 10
276.451081
 20
203.78124
 30
0.0
 40
3.0
100
AcDbArc
 50
-324.359468
 51
-317.790663
  0
ARC
  5
7D
100
AcDbEntity
  8
0
  6
Continuous
 62
   174
100
AcDbCircle
 10
276.451081
 20
203.78124
 30
0.0
 40
3.0
100
AcDbArc
 50
-342.709696
 51
-324.359468
  0
ARC
  5
7E
100
AcDbEntity
  8
0
  6
Continuous
 62
   174
100
AcDbCircle
 10
276.451081
 20
203.78124
 30
0.0
 40
3.0
100
AcDbArc
 50
-347.142857
 51
-342.709696
  0
LINE
  5
7F
100
AcDbEntity
  8
0
  6
HIDDEN
 62
   174
100
AcDbLine
 10
267.990146
 20
125.923491
 30
0.0
 11
276.390138
 21
125.923491
 31
0.0
  0
LINE
  5
80
100
AcDbEntity
  8
0
  6
HIDDEN
 62
   174
100
AcDbLine
 10
235.164471
 20
122.923491
 30
0.0
 11
235.164471
 21
110.923491
 31
0.0
  0
ARC
  5
81
100
AcDbEntity
  8
0
  6
HIDDEN
 62
   174
100
AcDbCircle
 10
273.064705
 20
222.477027
 30
0.0
 40
2.0
100
AcDbArc
 50
-169.733303
 51
-155.033577
  0
ARC
  5
82
100
AcDbEntity
  8
0
  6
HIDDEN
 62
   174
100
AcDbCircle
 10
273.064705
 20
222.477027
 30
0.0
 40
2.0
100
AcDbArc
 50
-180.809973
 51
-169.733303
  0
ARC
  5
83
100
AcDbEntity
  8
0
  6
HIDDEN
 62
   174
100
AcDbCircle
 10
273.064705
 20
222.477027
 30
0.0
 40
2.0
100
AcDbArc
 50
-220.27508
 51
-206.075783
  0
ARC
  5
84
100
AcDbEntity
  8
0
  6
HIDDEN
 62
   174
100
AcDbCircle
 10
273.064705
 20
222.477027
 30
0.0
 40
2.0
100
AcDbArc
 50
-259.900217
 51
-247.169935
  0
ARC
  5
85
100
AcDbEntity
  8
0
  6
HIDDEN
 62
   174
100
AcDbCircle
 10
273.064705
 20
222.477027
 30
0.0
 40
2.0
100
AcDbArc
 50
-271.098864
 51
-259.900217
  0
ARC
  5
86
100
AcDbEntity
  8
0
  6
HIDDEN
 62
   174
100
AcDbCircle
 10
273.064705
 20
222.477027
 30
0.0
 40
2.0
100
AcDbArc
 50
-297.497439
 51
-285.419102
  0
ARC
  5
87
100
AcDbEntity
  8
0
  6
HIDDEN
 62
   174
100
AcDbCircle
 10
273.064705
 20
222.477027
 30
0.0
 40
2.0
100
AcDbArc
 50
-307.714935
 51
-297.497439
  0
ARC
  5
88
100
AcDbEntity
  8
0
  6
HIDDEN
 62
   174
100
AcDbCircle
 10
273.064705
 20
222.477027
 30
0.0
 40
2.0
100
AcDbArc
 50
-26.075783
 51
-14.216029
  0
ARC
  5
89
100
AcDbEntity
  8
0
  6
HIDDEN
 62
   174
100
AcDbCircle
 10
273.064705
 20
222.477027
 30
0.0
 40
2.0
100
AcDbArc
 50
-142.601534
 51
-127.714935
  0
ARC
  5
8A
100
AcDbEntity
  8
0
  6
HIDDEN
 62
   174
100
AcDbCircle
 10
273.064705
 20
222.477027
 30
0.0
 40
2.0
100
AcDbArc
 50
-155.033577
 51
-142.601534
  0
ARC
  5
8B
100
AcDbEntity
  8
0
  6
Continuous
 62
   174
100
AcDbCircle
 10
276.451081
 20
203.78124
 30
0.0
 40
3.0
100
AcDbArc
 50
-348.28533
 51
-347.142857
  0
ARC
  5
8C
100
AcDbEntity
  8
0
  6
Continuous
 62
   174
100
AcDbCircle
 10
276.451081
 20
203.78124
 30
0.0
 40
3.0
100
AcDbArc
 50
-349.670948
 51
-348.28533
  0
ARC
  5
8D
100
AcDbEntity
  8
0
  6
Continuous
 62
   174
100
AcDbCircle
 10
276.451081
 20
203.78124
 30
0.0
 40
3.0
100
AcDbArc
 50
-11.771304
 51
10.329052
  0
ARC
  5
8E
100
AcDbEntity
  8
0
  6
Continuous
 62
   174
100
AcDbCircle
 10
276.451081
 20
203.78124
 30
0.0
 40
3.0
100
AcDbArc
 50
-16.17516
 51
-11.771304
  0
ARC
  5
8F
100
AcDbEntity
  8
0
  6
Continuous
 62
   174
100
AcDbCircle
 10
276.451081
 20
203.78124
 30
0.0
 40
3.0
100
AcDbArc
 50
-35.622044
 51
-16.17516
  0
ARC
  5
90
100
AcDbEntity
  8
0
  6
Continuous
 62
   174
100
AcDbCircle
 10
276.451081
 20
203.78124
 30
0.0
 40
3.0
100
AcDbArc
 50
-40.871025
 51
-35.622044
  0
ARC
  5
91
100
AcDbEntity
  8
0
  6
Continuous
 62
   174
100
AcDbCircle
 10
276.451081
 20
203.78124
 30
0.0
 40
3.0
100
AcDbArc
 50
-63.454543
 51
-40.871025
  0
ARC
  5
92
100
AcDbEntity
  8
0
  6
Continuous
 62
   174
100
AcDbCircle
 10
276.451081
 20
203.78124
 30
0.0
 40
3.0
100
AcDbArc
 50
-66.866688
 51
-63.454543
  0
ARC
  5
93
100
AcDbEntity
  8
0
  6
Continuous
 62
   174
100
AcDbCircle
 10
276.451081
 20
203.78124
 30
0.0
 40
3.0
100
AcDbArc
 50
-86.587729
 51
-66.866688
  0
ARC
  5
94
100
AcDbEntity
  8
0
  6
Continuous
 62
   174
100
AcDbCircle
 10
276.451081
 20
203.78124
 30
0.0
 40
3.0
100
AcDbArc
 50
-90.0
 51
-86.587729
  0
ARC
  5
95
100
AcDbEntity
  8
0
  6
Continuous
 62
   174
100
AcDbCircle
 10
276.451081
 20
203.78124
 30
0.0
 40
3.0
100
AcDbArc
 50
-92.712101
 51
-90.0
  0
ARC
  5
96
100
AcDbEntity
  8
0
  6
Continuous
 62
   174
100
AcDbCircle
 10
276.451081
 20
203.78124
 30
0.0
 40
3.0
100
AcDbArc
 50
-115.13191
 51
-92.712101
  0
ARC
  5
97
100
AcDbEntity
  8
0
  6
Continuous
 62
   174
100
AcDbCircle
 10
276.451081
 20
203.78124
 30
0.0
 40
3.0
100
AcDbArc
 50
-117.574154
 51
-115.13191
  0
ARC
  5
98
100
AcDbEntity
  8
0
  6
Continuous
 62
   174
100
AcDbCircle
 10
276.451081
 20
203.78124
 30
0.0
 40
3.0
100
AcDbArc
 50
-137.790663
 51
-117.574154
  0
LINE
  5
99
100
AcDbEntity
  8
0
  6
HIDDEN
 62
   174
100
AcDbLine
 10
267.164471
 20
122.923491
 30
0.0
 11
267.164471
 21
110.923491
 31
0.0
  0
LINE
  5
9A
100
AcDbEntity
  8
0
  6
HIDDEN
 62
   174
100
AcDbLine
 10
244.364471
 20
110.923491
 30
0.0
 11
244.364471
 21
125.923491
 31
0.0
  0
LINE
  5
9B
100
AcDbEntity
  8
0
  6
HIDDEN
 62
   174
100
AcDbLine
 10
235.964471
 20
122.923491
 30
0.0
 11
235.964471
 21
110.923491
 31
0.0
  0
ARC
  5
9C
100
AcDbEntity
  8
0
  6
Continuous
 62
   174
100
AcDbCircle
 10
273.064705
 20
222.477027
 30
0.0
 40
2.0
100
AcDbArc
 50
-348.463299
 51
-334.951368
  0
LINE
  5
9D
100
AcDbEntity
  8
0
  6
HIDDEN
 62
   174
100
AcDbLine
 10
244.39014
 20
110.923491
 30
0.0
 11
235.990148
 21
110.923491
 31
0.0
  0
ARC
  5
9E
100
AcDbEntity
  8
0
  6
Continuous
 62
   174
100
AcDbCircle
 10
272.164471
 20
162.923491
 30
0.0
 40
4.5
100
AcDbArc
 50
90.0
 51
270.0
  0
LINE
  5
9F
100
AcDbEntity
  8
0
  6
Continuous
 62
   174
100
AcDbLine
 10
246.444028
 20
184.292997
 30
0.0
 11
245.164471
 21
184.06123
 31
0.0
  0
ARC
  5
A0
100
AcDbEntity
  8
0
  6
Continuous
 62
   174
100
AcDbCircle
 10
256.164471
 20
177.923491
 30
0.0
 40
10.0
100
AcDbArc
 50
-293.578178
 51
-270.0
  0
LINE
  5
A1
100
AcDbEntity
  8
0
  6
HIDDEN
 62
   174
100
AcDbLine
 10
245.164471
 20
181.523491
 30
0.0
 11
231.164471
 21
181.523491
 31
0.0
  0
ARC
  5
A2
100
AcDbEntity
  8
0
  6
Continuous
 62
   174
100
AcDbCircle
 10
238.164471
 20
190.923491
 30
0.0
 40
3.0
100
AcDbArc
 50
321.400206
 51
347.13796
  0
ARC
  5
A3
100
AcDbEntity
  8
0
  6
HIDDEN
 62
   174
100
AcDbCircle
 10
276.451081
 20
203.78124
 30
0.0
 40
3.0
100
AcDbArc
 50
49.196962
 51
65.789805
  0
ARC
  5
A4
100
AcDbEntity
  8
0
  6
Continuous
 62
   174
100
AcDbCircle
 10
276.451081
 20
203.78124
 30
0.0
 40
3.0
100
AcDbArc
 50
273.220959
 51
280.266697
  0
ARC
  5
A5
100
AcDbEntity
  8
0
  6
Continuous
 62
   174
100
AcDbCircle
 10
273.064705
 20
222.477027
 30
0.0
 40
2.0
100
AcDbArc
 50
-168.463299
 51
-154.951368
  0
ARC
  5
A6
100
AcDbEntity
  8
0
  6
Continuous
 62
   174
100
AcDbCircle
 10
273.064705
 20
222.477027
 30
0.0
 40
10.0
100
AcDbArc
 50
-25.746399
 51
9.640286
  0
LINE
  5
A7
100
AcDbEntity
  8
0
  6
HIDDEN
 62
   174
100
AcDbLine
 10
256.190143
 20
187.088643
 30
0.0
 11
252.190218
 21
187.088643
 31
0.0
  0
ARC
  5
A8
100
AcDbEntity
  8
0
  6
Continuous
 62
   174
100
AcDbCircle
 10
238.164471
 20
190.923491
 30
0.0
 40
3.0
100
AcDbArc
 50
192.86204
 51
218.599794
  0
ARC
  5
A9
100
AcDbEntity
  8
0
  6
HIDDEN
 62
   174
100
AcDbCircle
 10
238.164471
 20
190.923491
 30
0.0
 40
3.0
100
AcDbArc
 50
167.13289
 51
191.720366
  0
ARC
  5
AA
100
AcDbEntity
  8
0
  6
HIDDEN
 62
   174
100
AcDbCircle
 10
238.164471
 20
190.923491
 30
0.0
 40
3.0
100
AcDbArc
 50
190.266697
 51
197.566275
  0
ARC
  5
AB
100
AcDbEntity
  8
0
  6
Continuous
 62
   174
100
AcDbCircle
 10
273.064705
 20
222.477027
 30
0.0
 40
2.0
100
AcDbArc
 50
-90.0
 51
-79.69843
  0
ARC
  5
AC
100
AcDbEntity
  8
0
  6
HIDDEN
 62
   174
100
AcDbCircle
 10
273.064705
 20
222.477027
 30
0.0
 40
9.6
100
AcDbArc
 50
222.756798
 51
268.266697
  0
LINE
  5
AD
100
AcDbEntity
  8
0
  6
HIDDEN
 62
   174
100
AcDbLine
 10
231.883348
 20
197.915963
 30
0.0
 11
231.164471
 21
188.590857
 31
0.0
  0
ARC
  5
AE
100
AcDbEntity
  8
0
  6
Continuous
 62
   174
100
AcDbCircle
 10
276.451081
 20
203.78124
 30
0.0
 40
3.0
100
AcDbArc
 50
293.180961
 51
319.147784
  0
ARC
  5
AF
100
AcDbEntity
  8
0
  6
Continuous
 62
   174
100
AcDbCircle
 10
276.451081
 20
203.78124
 30
0.0
 40
3.0
100
AcDbArc
 50
87.394386
 51
93.220959
  0
LINE
  5
B0
100
AcDbEntity
  8
0
  6
Continuous
 62
   174
100
AcDbLine
 10
270.330827
 20
192.68471
 30
0.0
 11
251.635039
 21
189.298334
 31
0.0
  0
ARC
  5
B1
100
AcDbEntity
  8
0
  6
HIDDEN
 62
   174
100
AcDbCircle
 10
276.451081
 20
203.78124
 30
0.0
 40
3.0
100
AcDbArc
 50
134.74359
 51
190.266697
  0
ARC
  5
B2
100
AcDbEntity
  8
0
  6
HIDDEN
 62
   174
100
AcDbCircle
 10
238.164471
 20
190.923491
 30
0.0
 40
3.0
100
AcDbArc
 50
10.266697
 51
17.566275
  0
ARC
  5
B3
100
AcDbEntity
  8
0
  6
HIDDEN
 62
   174
100
AcDbCircle
 10
238.164471
 20
190.923491
 30
0.0
 40
3.0
100
AcDbArc
 50
10.266697
 51
17.566275
  0
LINE
  5
B4
100
AcDbEntity
  8
0
  6
HIDDEN
 62
   174
100
AcDbLine
 10
251.563747
 20
189.69193
 30
0.0
 11
251.135995
 21
192.053503
 31
0.0
  0
LINE
  5
B5
100
AcDbEntity
  8
0
  6
Continuous
 62
   174
100
AcDbLine
 10
270.325071
 20
192.716483
 30
0.0
 11
270.681525
 21
190.748545
 31
0.0
  0
ARC
  5
B6
100
AcDbEntity
  8
0
  6
HIDDEN
 62
   174
100
AcDbCircle
 10
273.064705
 20
222.477027
 30
0.0
 40
9.6
100
AcDbArc
 50
-91.733303
 51
88.266697
  0
LINE
  5
B7
100
AcDbEntity
  8
0
  6
HIDDEN
 62
   174
100
AcDbLine
 10
231.883348
 20
197.915963
 30
0.0
 11
231.164471
 21
188.590857
 31
0.0
  0
LINE
  5
B8
100
AcDbEntity
  8
0
  6
Continuous
 62
   174
100
AcDbLine
 10
231.164471
 20
181.525404
 30
0.0
 11
230.612079
 21
181.425349
 31
0.0
  0
ARC
  5
B9
100
AcDbEntity
  8
0
  6
HIDDEN
 62
   174
100
AcDbCircle
 10
276.451081
 20
203.78124
 30
0.0
 40
3.0
100
AcDbArc
 50
49.191939
 51
65.773031
  0
ARC
  5
BA
100
AcDbEntity
  8
0
  6
HIDDEN
 62
   174
100
AcDbCircle
 10
238.164471
 20
190.923491
 30
0.0
 40
3.0
100
AcDbArc
 50
229.196962
 51
244.784971
  0
ARC
  5
BB
100
AcDbEntity
  8
0
  6
HIDDEN
 62
   174
100
AcDbCircle
 10
276.451081
 20
203.78124
 30
0.0
 40
3.0
100
AcDbArc
 50
134.760364
 51
151.341456
  0
ARC
  5
BC
100
AcDbEntity
  8
0
  6
HIDDEN
 62
   174
100
AcDbCircle
 10
238.164471
 20
190.923491
 30
0.0
 40
3.0
100
AcDbArc
 50
11.720366
 51
17.286771
  0
ARC
  5
BD
100
AcDbEntity
  8
0
  6
HIDDEN
 62
   174
100
AcDbCircle
 10
276.451081
 20
203.78124
 30
0.0
 40
3.0
100
AcDbArc
 50
190.266697
 51
280.266697
  0
ARC
  5
BE
100
AcDbEntity
  8
0
  6
HIDDEN
 62
   174
100
AcDbCircle
 10
238.164471
 20
190.923491
 30
0.0
 40
3.0
100
AcDbArc
 50
267.403324
 51
273.206661
  0
ARC
  5
BF
100
AcDbEntity
  8
0
  6
Continuous
 62
   174
100
AcDbCircle
 10
273.064705
 20
222.477027
 30
0.0
 40
8.0
100
AcDbArc
 50
-349.733303
 51
-169.733303
  0
LINE
  5
C0
100
AcDbEntity
  8
0
  6
Continuous
 62
   174
100
AcDbLine
 10
245.232062
 20
190.984121
 30
0.0
 11
246.444028
 21
184.292997
 31
0.0
  0
LINE
  5
C1
100
AcDbEntity
  8
0
  6
HIDDEN
 62
   174
100
AcDbLine
 10
231.164471
 20
188.590857
 30
0.0
 11
230.612079
 21
181.425349
 31
0.0
  0
ARC
  5
C2
100
AcDbEntity
  8
0
  6
Continuous
 62
   174
100
AcDbCircle
 10
273.064705
 20
222.477027
 30
0.0
 40
2.0
100
AcDbArc
 50
-271.201339
 51
-270.0
  0
ARC
  5
C3
100
AcDbEntity
  8
0
  6
Continuous
 62
   174
100
AcDbCircle
 10
273.064705
 20
222.477027
 30
0.0
 40
2.0
100
AcDbArc
 50
-334.951368
 51
-322.649184
  0
ARC
  5
C4
100
AcDbEntity
  8
0
  6
Continuous
 62
   174
100
AcDbCircle
 10
273.064705
 20
222.477027
 30
0.0
 40
2.0
100
AcDbArc
 50
-65.727593
 51
-54.035407
  0
LINE
  5
C5
100
AcDbEntity
  8
0
  6
HIDDEN
 62
   174
100
AcDbLine
 10
276.390138
 20
110.923491
 30
0.0
 11
267.990146
 21
110.923491
 31
0.0
  0
ARC
  5
C6
100
AcDbEntity
  8
0
  6
Continuous
 62
   174
100
AcDbCircle
 10
272.164471
 20
162.923491
 30
0.0
 40
7.5
100
AcDbArc
 50
-90.0
 51
90.0
  0
LINE
  5
C7
100
AcDbEntity
  8
0
  6
HIDDEN
 62
   174
100
AcDbLine
 10
237.445796
 20
198.923491
 30
0.0
 11
231.883348
 21
197.915963
 31
0.0
  0
LINE
  5
C8
100
AcDbEntity
  8
0
  6
Continuous
 62
   174
100
AcDbLine
 10
257.422414
 20
187.088643
 30
0.0
 11
256.190143
 21
187.088643
 31
0.0
  0
ARC
  5
C9
100
AcDbEntity
  8
0
  6
Continuous
 62
   174
100
AcDbCircle
 10
238.164471
 20
190.923491
 30
0.0
 40
3.0
100
AcDbArc
 50
295.762281
 51
321.400206
  0
ARC
  5
CA
100
AcDbEntity
  8
0
  6
HIDDEN
 62
   174
100
AcDbCircle
 10
276.451081
 20
203.78124
 30
0.0
 40
3.0
100
AcDbArc
 50
30.745651
 51
49.196962
  0
ARC
  5
CB
100
AcDbEntity
  8
0
  6
Continuous
 62
   174
100
AcDbCircle
 10
276.451081
 20
203.78124
 30
0.0
 40
3.0
100
AcDbArc
 50
267.394386
 51
273.220959
  0
ARC
  5
CC
100
AcDbEntity
  8
0
  6
Continuous
 62
   174
100
AcDbCircle
 10
273.064705
 20
222.477027
 30
0.0
 40
2.0
100
AcDbArc
 50
-154.951368
 51
-142.649184
  0
ARC
  5
CD
100
AcDbEntity
  8
0
  6
Continuous
 62
   174
100
AcDbCircle
 10
273.064705
 20
222.477027
 30
0.0
 40
9.6
100
AcDbArc
 50
196.267106
 51
222.756798
  0
LINE
  5
CE
100
AcDbEntity
  8
0
  6
Continuous
 62
   174
100
AcDbLine
 10
268.487731
 20
204.54613
 30
0.0
 11
244.919279
 21
200.277166
 31
0.0
  0
LINE
  5
CF
100
AcDbEntity
  8
0
  6
HIDDEN
 62
   174
100
AcDbLine
 10
260.190067
 20
187.088643
 30
0.0
 11
256.190143
 21
187.088643
 31
0.0
  0
ARC
  5
D0
100
AcDbEntity
  8
0
  6
Continuous
 62
   174
100
AcDbCircle
 10
238.164471
 20
190.923491
 30
0.0
 40
3.0
100
AcDbArc
 50
167.13796
 51
192.86204
  0
ARC
  5
D1
100
AcDbEntity
  8
0
  6
HIDDEN
 62
   174
100
AcDbCircle
 10
238.164471
 20
190.923491
 30
0.0
 40
3.0
100
AcDbArc
 50
144.31233
 51
167.13289
  0
ARC
  5
D2
100
AcDbEntity
  8
0
  6
HIDDEN
 62
   174
100
AcDbCircle
 10
238.164471
 20
190.923491
 30
0.0
 40
3.0
100
AcDbArc
 50
-11.881289
 51
10.266697
  0
ARC
  5
D3
100
AcDbEntity
  8
0
  6
Continuous
 62
   174
100
AcDbCircle
 10
273.064705
 20
222.477027
 30
0.0
 40
2.0
100
AcDbArc
 50
-79.69843
 51
-65.727593
  0
ARC
  5
D4
100
AcDbEntity
  8
0
  6
HIDDEN
 62
   174
100
AcDbCircle
 10
276.451081
 20
203.78124
 30
0.0
 40
3.0
100
AcDbArc
 50
262.746946
 51
297.786449
  0
ARC
  5
D5
100
AcDbEntity
  8
0
  6
Continuous
 62
   174
100
AcDbCircle
 10
276.451081
 20
203.78124
 30
0.0
 40
3.0
100
AcDbArc
 50
280.266697
 51
293.180961
  0
ARC
  5
D6
100
AcDbEntity
  8
0
  6
Continuous
 62
   174
100
AcDbCircle
 10
276.451081
 20
203.78124
 30
0.0
 40
3.0
100
AcDbArc
 50
82.736488
 51
87.394386
  0
ARC
  5
D7
100
AcDbEntity
  8
0
  6
HIDDEN
 62
   174
100
AcDbCircle
 10
238.164471
 20
190.923491
 30
0.0
 40
3.0
100
AcDbArc
 50
139.094139
 51
144.175177
  0
ARC
  5
D8
100
AcDbEntity
  8
0
  6
HIDDEN
 62
   174
100
AcDbCircle
 10
238.164471
 20
190.923491
 30
0.0
 40
3.0
100
AcDbArc
 50
35.919988
 51
42.447009
  0
LINE
  5
D9
100
AcDbEntity
  8
0
  6
Continuous
 62
   174
100
AcDbLine
 10
251.135995
 20
192.053503
 30
0.0
 11
245.232062
 21
190.984121
 31
0.0
  0
ARC
  5
DA
100
AcDbEntity
  8
0
  6
HIDDEN
 62
   174
100
AcDbCircle
 10
276.451081
 20
203.78124
 30
0.0
 40
3.0
100
AcDbArc
 50
65.773031
 51
82.746946
  0
ARC
  5
DB
100
AcDbEntity
  8
0
  6
Continuous
 62
   174
100
AcDbCircle
 10
276.451081
 20
203.78124
 30
0.0
 40
3.0
100
AcDbArc
 50
168.125662
 51
190.266697
  0
ARC
  5
DC
100
AcDbEntity
  8
0
  6
HIDDEN
 62
   174
100
AcDbCircle
 10
238.164471
 20
190.923491
 30
0.0
 40
3.0
100
AcDbArc
 50
168.118711
 51
190.266697
  0
ARC
  5
DD
100
AcDbEntity
  8
0
  6
HIDDEN
 62
   174
100
AcDbCircle
 10
238.164471
 20
190.923491
 30
0.0
 40
3.0
100
AcDbArc
 50
-11.881289
 51
10.266697
  0
LINE
  5
DE
100
AcDbEntity
  8
0
  6
Continuous
 62
   174
100
AcDbLine
 10
251.98566
 20
187.362597
 30
0.0
 11
251.62925
 21
189.330297
 31
0.0
  0
ARC
  5
DF
100
AcDbEntity
  8
0
  6
HIDDEN
 62
   174
100
AcDbCircle
 10
273.064705
 20
222.477027
 30
0.0
 40
10.0
100
AcDbArc
 50
226.243893
 51
268.266697
  0
ARC
  5
E0
100
AcDbEntity
  8
0
  6
HIDDEN
 62
   174
100
AcDbCircle
 10
276.451081
 20
203.78124
 30
0.0
 40
3.0
100
AcDbArc
 50
314.760364
 51
331.341456
  0
ARC
  5
E1
100
AcDbEntity
  8
0
  6
HIDDEN
 62
   174
100
AcDbCircle
 10
238.164471
 20
190.923491
 30
0.0
 40
3.0
100
AcDbArc
 50
222.447009
 51
229.196962
  0
LINE
  5
E2
100
AcDbEntity
  8
0
  6
Continuous
 62
   174
100
AcDbLine
 10
244.919279
 20
200.277166
 30
0.0
 11
237.445796
 21
198.923491
 31
0.0
  0
ARC
  5
E3
100
AcDbEntity
  8
0
  6
HIDDEN
 62
   174
100
AcDbCircle
 10
238.164471
 20
190.923491
 30
0.0
 40
3.0
100
AcDbArc
 50
-12.86711
 51
11.720366
  0
ARC
  5
E4
100
AcDbEntity
  8
0
  6
HIDDEN
 62
   174
100
AcDbCircle
 10
238.164471
 20
190.923491
 30
0.0
 40
3.0
100
AcDbArc
 50
244.784971
 51
267.403324
  0
LINE
  5
E5
100
AcDbEntity
  8
0
  6
HIDDEN
 62
   174
100
AcDbLine
 10
256.135934
 20
188.08104
 30
0.0
 11
259.862457
 21
188.756026
 31
0.0
  0
ARC
  5
E6
100
AcDbEntity
  8
0
  6
HIDDEN
 62
   174
100
AcDbCircle
 10
238.164471
 20
190.923491
 30
0.0
 40
3.0
100
AcDbArc
 50
87.403324
 51
93.206661
  0
ARC
  5
E7
100
AcDbEntity
  8
0
  6
HIDDEN
 62
   174
100
AcDbCircle
 10
273.064705
 20
222.477027
 30
0.0
 40
10.0
100
AcDbArc
 50
268.266697
 51
334.253601
  0
ARC
  5
E8
100
AcDbEntity
  8
0
  6
HIDDEN
 62
   174
100
AcDbCircle
 10
273.064705
 20
222.477027
 30
0.0
 40
9.6
100
AcDbArc
 50
268.266697
 51
337.3002
  0
ARC
  5
E9
100
AcDbEntity
  8
0
  6
HIDDEN
 62
   174
100
AcDbCircle
 10
276.451081
 20
203.78124
 30
0.0
 40
3.0
100
AcDbArc
 50
10.266697
 51
190.266697
  0
LINE
  5
EA
100
AcDbEntity
  8
0
  6
Continuous
 62
   174
100
AcDbLine
 10
270.005013
 20
194.483487
 30
0.0
 11
270.330827
 21
192.68471
 31
0.0
  0
ARC
  5
EB
100
AcDbEntity
  8
0
  6
Continuous
 62
   174
100
AcDbCircle
 10
273.064705
 20
222.477027
 30
0.0
 40
2.0
100
AcDbArc
 50
-322.649184
 51
-321.428571
  0
ARC
  5
EC
100
AcDbEntity
  8
0
  6
Continuous
 62
   174
100
AcDbCircle
 10
273.064705
 20
222.477027
 30
0.0
 40
2.0
100
AcDbArc
 50
-54.035407
 51
-40.317051
  0
ARC
  5
ED
100
AcDbEntity
  8
0
  6
Continuous
 62
   174
100
AcDbCircle
 10
240.164471
 20
162.923491
 30
0.0
 40
4.5
100
AcDbArc
 50
-90.0
 51
90.0
  0
LINE
  5
EE
100
AcDbEntity
  8
0
  6
Continuous
 62
   174
100
AcDbLine
 10
260.190067
 20
187.088643
 30
0.0
 11
257.422414
 21
187.088643
 31
0.0
  0
ARC
  5
EF
100
AcDbEntity
  8
0
  6
Continuous
 62
   174
100
AcDbCircle
 10
238.164471
 20
190.923491
 30
0.0
 40
3.0
100
AcDbArc
 50
270.0
 51
295.762281
  0
ARC
  5
F0
100
AcDbEntity
  8
0
  6
HIDDEN
 62
   174
100
AcDbCircle
 10
238.164471
 20
190.923491
 30
0.0
 40
3.0
100
AcDbArc
 50
244.803282
 51
270.0
  0
ARC
  5
F1
100
AcDbEntity
  8
0
  6
HIDDEN
 62
   174
100
AcDbCircle
 10
276.451081
 20
203.78124
 30
0.0
 40
3.0
100
AcDbArc
 50
10.266697
 51
30.745651
  0
ARC
  5
F2
100
AcDbEntity
  8
0
  6
Continuous
 62
   174
100
AcDbCircle
 10
276.451081
 20
203.78124
 30
0.0
 40
3.0
100
AcDbArc
 50
262.736488
 51
267.394386
  0
ARC
  5
F3
100
AcDbEntity
  8
0
  6
HIDDEN
 62
   174
100
AcDbCircle
 10
238.164471
 20
190.923491
 30
0.0
 40
3.0
100
AcDbArc
 50
139.094139
 51
144.175177
  0
ARC
  5
F4
100
AcDbEntity
  8
0
  6
Continuous
 62
   174
100
AcDbCircle
 10
273.064705
 20
222.477027
 30
0.0
 40
2.0
100
AcDbArc
 50
-142.649184
 51
-141.428571
  0
ARC
  5
F5
100
AcDbEntity
  8
0
  6
Continuous
 62
   174
100
AcDbCircle
 10
273.064705
 20
222.477027
 30
0.0
 40
9.6
100
AcDbArc
 50
88.266697
 51
196.267106
  0
ARC
  5
F6
100
AcDbEntity
  8
0
  6
Continuous
 62
   174
100
AcDbCircle
 10
238.164471
 20
190.923491
 30
0.0
 40
3.0
100
AcDbArc
 50
141.400206
 51
167.13796
  0
ARC
  5
F7
100
AcDbEntity
  8
0
  6
HIDDEN
 62
   174
100
AcDbCircle
 10
238.164471
 20
190.923491
 30
0.0
 40
3.0
100
AcDbArc
 50
139.068497
 51
144.31233
  0
ARC
  5
F8
100
AcDbEntity
  8
0
  6
HIDDEN
 62
   174
100
AcDbCircle
 10
238.164471
 20
190.923491
 30
0.0
 40
3.0
100
AcDbArc
 50
343.64234
 51
348.118711
  0
LINE
  5
F9
100
AcDbEntity
  8
0
  6
HIDDEN
 62
   174
100
AcDbLine
 10
231.164471
 20
198.923491
 30
0.0
 11
237.445796
 21
198.923491
 31
0.0
  0
LINE
  5
FA
100
AcDbEntity
  8
0
  6
HIDDEN
 62
   174
100
AcDbLine
 10
259.862457
 20
188.756026
 30
0.0
 11
270.687287
 21
190.716733
 31
0.0
  0
ARC
  5
FB
100
AcDbEntity
  8
0
  6
HIDDEN
 62
   174
100
AcDbCircle
 10
276.451081
 20
203.78124
 30
0.0
 40
3.0
100
AcDbArc
 50
117.786449
 51
134.760364
  0
ARC
  5
FC
100
AcDbEntity
  8
0
  6
Continuous
 62
   174
100
AcDbCircle
 10
276.451081
 20
203.78124
 30
0.0
 40
3.0
100
AcDbArc
 50
62.445806
 51
82.736488
  0
ARC
  5
FD
100
AcDbEntity
  8
0
  6
HIDDEN
 62
   174
100
AcDbCircle
 10
238.164471
 20
190.923491
 30
0.0
 40
3.0
100
AcDbArc
 50
117.796907
 51
139.094139
  0
ARC
  5
FE
100
AcDbEntity
  8
0
  6
HIDDEN
 62
   174
100
AcDbCircle
 10
238.164471
 20
190.923491
 30
0.0
 40
3.0
100
AcDbArc
 50
17.566275
 51
35.919988
  0
LINE
  5
FF
100
AcDbEntity
  8
0
  6
Continuous
 62
   174
100
AcDbLine
 10
270.687287
 20
190.716733
 30
0.0
 11
251.9915
 21
187.330357
 31
0.0
  0
ARC
  5
100
100
AcDbEntity
  8
0
  6
Continuous
 62
   174
100
AcDbCircle
 10
273.064705
 20
222.477027
 30
0.0
 40
2.0
100
AcDbArc
 50
-270.0
 51
-259.69843
  0
ARC
  5
101
100
AcDbEntity
  8
0
  6
Continuous
 62
   174
100
AcDbCircle
 10
276.451081
 20
203.78124
 30
0.0
 40
8.0
100
AcDbArc
 50
-30.903581
 51
174.513493
  0
LINE
  5
102
100
AcDbEntity
  8
0
  6
HIDDEN
 62
   174
100
AcDbLine
 10
231.164471
 20
188.590857
 30
0.0
 11
231.164471
 21
181.523491
 31
0.0
  0
ARC
  5
103
100
AcDbEntity
  8
0
  6
Continuous
 62
   174
100
AcDbCircle
 10
276.451081
 20
203.78124
 30
0.0
 40
3.0
100
AcDbArc
 50
163.644818
 51
168.125662
  0
ARC
  5
104
100
AcDbEntity
  8
0
  6
HIDDEN
 62
   174
100
AcDbCircle
 10
238.164471
 20
190.923491
 30
0.0
 40
3.0
100
AcDbArc
 50
324.31233
 51
347.13289
  0
LINE
  5
105
100
AcDbEntity
  8
0
  6
HIDDEN
 62
   174
100
AcDbLine
 10
251.135995
 20
192.053503
 30
0.0
 11
245.232062
 21
190.984121
 31
0.0
  0
ARC
  5
106
100
AcDbEntity
  8
0
  6
HIDDEN
 62
   174
100
AcDbCircle
 10
238.164471
 20
190.923491
 30
0.0
 40
3.0
100
AcDbArc
 50
229.196962
 51
244.784971
  0
LINE
  5
107
100
AcDbEntity
  8
0
  6
Continuous
 62
   174
100
AcDbLine
 10
231.164471
 20
188.590857
 30
0.0
 11
230.612079
 21
181.425349
 31
0.0
  0
ARC
  5
108
100
AcDbEntity
  8
0
  6
HIDDEN
 62
   174
100
AcDbCircle
 10
276.451081
 20
203.78124
 30
0.0
 40
3.0
100
AcDbArc
 50
82.736488
 51
134.74359
  0
ARC
  5
109
100
AcDbEntity
  8
0
  6
HIDDEN
 62
   174
100
AcDbCircle
 10
238.164471
 20
190.923491
 30
0.0
 40
3.0
100
AcDbArc
 50
49.196962
 51
64.784971
  0
ARC
  5
10A
100
AcDbEntity
  8
0
  6
HIDDEN
 62
   174
100
AcDbCircle
 10
238.164471
 20
190.923491
 30
0.0
 40
3.0
100
AcDbArc
 50
64.784971
 51
87.403324
  0
ARC
  5
10B
100
AcDbEntity
  8
0
  6
HIDDEN
 62
   174
100
AcDbCircle
 10
276.451081
 20
203.78124
 30
0.0
 40
8.0
100
AcDbArc
 50
303.419321
 51
329.096419
  0
ARC
  5
10C
100
AcDbEntity
  8
0
  6
Continuous
 62
   174
100
AcDbCircle
 10
273.064705
 20
222.477027
 30
0.0
 40
2.0
100
AcDbArc
 50
-321.428571
 51
-307.735644
  0
ARC
  5
10D
100
AcDbEntity
  8
0
  6
Continuous
 62
   174
100
AcDbCircle
 10
273.064705
 20
222.477027
 30
0.0
 40
2.0
100
AcDbArc
 50
-40.317051
 51
-26.001039
  0
ARC
  5
10E
100
AcDbEntity
  8
0
  6
Continuous
 62
   174
100
AcDbCircle
 10
240.164471
 20
162.923491
 30
0.0
 40
4.5
100
AcDbArc
 50
90.0
 51
270.0
  0
ARC
  5
10F
100
AcDbEntity
  8
0
  6
Continuous
 62
   174
100
AcDbCircle
 10
240.164471
 20
162.923491
 30
0.0
 40
7.5
100
AcDbArc
 50
90.0
 51
270.0
  0
LINE
  5
110
100
AcDbEntity
  8
0
  6
HIDDEN
 62
   174
100
AcDbLine
 10
231.164471
 20
197.915963
 30
0.0
 11
231.164471
 21
188.590857
 31
0.0
  0
LINE
  5
111
100
AcDbEntity
  8
0
  6
Continuous
 62
   174
100
AcDbLine
 10
252.95866
 20
187.088643
 30
0.0
 11
252.190218
 21
187.088643
 31
0.0
  0
ARC
  5
112
100
AcDbEntity
  8
0
  6
HIDDEN
 62
   174
100
AcDbCircle
 10
276.451081
 20
203.78124
 30
0.0
 40
3.0
100
AcDbArc
 50
-10.212256
 51
10.266697
  0
ARC
  5
113
100
AcDbEntity
  8
0
  6
Continuous
 62
   174
100
AcDbCircle
 10
276.451081
 20
203.78124
 30
0.0
 40
3.0
100
AcDbArc
 50
242.445806
 51
262.736488
  0
ARC
  5
114
100
AcDbEntity
  8
0
  6
HIDDEN
 62
   174
100
AcDbCircle
 10
276.451081
 20
203.78124
 30
0.0
 40
8.0
100
AcDbArc
 50
148.836325
 51
174.513493
  0
ARC
  5
115
100
AcDbEntity
  8
0
  6
HIDDEN
 62
   174
100
AcDbCircle
 10
238.164471
 20
190.923491
 30
0.0
 40
3.0
100
AcDbArc
 50
117.796907
 51
139.094139
  0
ARC
  5
116
100
AcDbEntity
  8
0
  6
Continuous
 62
   174
100
AcDbCircle
 10
238.164471
 20
190.923491
 30
0.0
 40
3.0
100
AcDbArc
 50
115.762281
 51
141.400206
  0
ARC
  5
117
100
AcDbEntity
  8
0
  6
HIDDEN
 62
   174
100
AcDbCircle
 10
238.164471
 20
190.923491
 30
0.0
 40
3.0
100
AcDbArc
 50
116.611392
 51
139.068497
  0
ARC
  5
118
100
AcDbEntity
  8
0
  6
HIDDEN
 62
   174
100
AcDbCircle
 10
238.164471
 20
190.923491
 30
0.0
 40
3.0
100
AcDbArc
 50
324.175177
 51
343.64234
  0
ARC
  5
119
100
AcDbEntity
  8
0
  6
HIDDEN
 62
   174
100
AcDbCircle
 10
238.164471
 20
190.923491
 30
0.0
 40
3.0
100
AcDbArc
 50
113.36306
 51
117.796907
  0
ARC
  5
11A
100
AcDbEntity
  8
0
  6
HIDDEN
 62
   174
100
AcDbCircle
 10
238.164471
 20
190.923491
 30
0.0
 40
3.0
100
AcDbArc
 50
343.64234
 51
348.118711
  0
LINE
  5
11B
100
AcDbEntity
  8
0
  6
Continuous
 62
   174
100
AcDbLine
 10
270.896165
 20
189.563543
 30
0.0
 11
271.11057
 21
189.6485
 31
0.0
  0
ARC
  5
11C
100
AcDbEntity
  8
0
  6
Continuous
 62
   174
100
AcDbCircle
 10
273.064705
 20
222.477027
 30
0.0
 40
2.0
100
AcDbArc
 50
-141.428571
 51
-127.735644
  0
LINE
  5
11D
100
AcDbEntity
  8
0
  6
HIDDEN
 62
   174
100
AcDbLine
 10
245.232062
 20
190.984121
 30
0.0
 11
246.444028
 21
184.292997
 31
0.0
  0
ARC
  5
11E
100
AcDbEntity
  8
0
  6
Continuous
 62
   174
100
AcDbCircle
 10
276.451081
 20
203.78124
 30
0.0
 40
3.0
100
AcDbArc
 50
10.266697
 51
17.570613
  0
ARC
  5
11F
100
AcDbEntity
  8
0
  6
Continuous
 62
   174
100
AcDbCircle
 10
276.451081
 20
203.78124
 30
0.0
 40
3.0
100
AcDbArc
 50
42.376765
 51
62.445806
  0
ARC
  5
120
100
AcDbEntity
  8
0
  6
HIDDEN
 62
   174
100
AcDbCircle
 10
238.164471
 20
190.923491
 30
0.0
 40
3.0
100
AcDbArc
 50
163.64234
 51
168.118711
  0
ARC
  5
121
100
AcDbEntity
  8
0
  6
Continuous
 62
   174
100
AcDbCircle
 10
273.064705
 20
222.477027
 30
0.0
 40
2.0
100
AcDbArc
 50
-259.69843
 51
-245.727593
  0
ARC
  5
122
100
AcDbEntity
  8
0
  6
Continuous
 62
   174
100
AcDbCircle
 10
276.451081
 20
203.78124
 30
0.0
 40
8.0
100
AcDbArc
 50
280.266697
 51
329.096419
  0
ARC
  5
123
100
AcDbEntity
  8
0
  6
HIDDEN
 62
   174
100
AcDbCircle
 10
276.451081
 20
203.78124
 30
0.0
 40
3.0
100
AcDbArc
 50
190.266697
 51
210.926262
  0
ARC
  5
124
100
AcDbEntity
  8
0
  6
Continuous
 62
   174
100
AcDbCircle
 10
276.451081
 20
203.78124
 30
0.0
 40
3.0
100
AcDbArc
 50
144.23164
 51
163.644818
  0
LINE
  5
125
100
AcDbEntity
  8
0
  6
Continuous
 62
   174
100
AcDbLine
 10
270.687287
 20
190.716733
 30
0.0
 11
251.9915
 21
187.330357
 31
0.0
  0
ARC
  5
126
100
AcDbEntity
  8
0
  6
HIDDEN
 62
   174
100
AcDbCircle
 10
238.164471
 20
190.923491
 30
0.0
 40
3.0
100
AcDbArc
 50
297.796907
 51
319.094139
  0
ARC
  5
127
100
AcDbEntity
  8
0
  6
HIDDEN
 62
   174
100
AcDbCircle
 10
238.164471
 20
190.923491
 30
0.0
 40
3.0
100
AcDbArc
 50
319.068497
 51
324.31233
  0
ARC
  5
128
100
AcDbEntity
  8
0
  6
HIDDEN
 62
   174
100
AcDbCircle
 10
238.164471
 20
190.923491
 30
0.0
 40
3.0
100
AcDbArc
 50
222.447009
 51
229.196962
  0
LINE
  5
129
100
AcDbEntity
  8
0
  6
HIDDEN
 62
   174
100
AcDbLine
 10
231.164471
 20
181.525404
 30
0.0
 11
230.612079
 21
181.425349
 31
0.0
  0
ARC
  5
12A
100
AcDbEntity
  8
0
  6
HIDDEN
 62
   174
100
AcDbCircle
 10
276.451081
 20
203.78124
 30
0.0
 40
3.0
100
AcDbArc
 50
65.789805
 51
82.736488
  0
ARC
  5
12B
100
AcDbEntity
  8
0
  6
HIDDEN
 62
   174
100
AcDbCircle
 10
238.164471
 20
190.923491
 30
0.0
 40
3.0
100
AcDbArc
 50
42.447009
 51
49.196962
  0
LINE
  5
12C
100
AcDbEntity
  8
0
  6
Continuous
 62
   174
100
AcDbLine
 10
265.192795
 20
221.051184
 30
0.0
 11
268.192063
 21
204.492576
 31
0.0
  0
LINE
  5
12D
100
AcDbEntity
  8
0
  6
HIDDEN
 62
   174
100
AcDbLine
 10
270.330827
 20
192.68471
 30
0.0
 11
270.687287
 21
190.716733
 31
0.0
  0
ARC
  5
12E
100
AcDbEntity
  8
0
  6
HIDDEN
 62
   174
100
AcDbCircle
 10
256.164471
 20
177.923491
 30
0.0
 40
10.0
100
AcDbArc
 50
90.0
 51
113.578178
  0
ARC
  5
12F
100
AcDbEntity
  8
0
  6
HIDDEN
 62
   174
100
AcDbCircle
 10
276.451081
 20
203.78124
 30
0.0
 40
3.0
100
AcDbArc
 50
169.607133
 51
190.266697
  0
ARC
  5
130
100
AcDbEntity
  8
0
  6
HIDDEN
 62
   174
100
AcDbCircle
 10
276.451081
 20
203.78124
 30
0.0
 40
8.0
100
AcDbArc
 50
280.266697
 51
303.419321
  0
ARC
  5
131
100
AcDbEntity
  8
0
  6
Continuous
 62
   174
100
AcDbCircle
 10
273.064705
 20
222.477027
 30
0.0
 40
2.0
100
AcDbArc
 50
-307.735644
 51
-296.609472
  0
ARC
  5
132
100
AcDbEntity
  8
0
  6
Continuous
 62
   174
100
AcDbCircle
 10
273.064705
 20
222.477027
 30
0.0
 40
2.0
100
AcDbArc
 50
-26.001039
 51
-14.287228
  0
ARC
  5
133
100
AcDbEntity
  8
0
  6
Continuous
 62
   174
100
AcDbCircle
 10
240.164471
 20
162.923491
 30
0.0
 40
7.5
100
AcDbArc
 50
-90.0
 51
90.0
  0
LINE
  5
134
100
AcDbEntity
  8
0
  6
Continuous
 62
   174
100
AcDbLine
 10
253.832846
 20
187.088643
 30
0.0
 11
252.95866
 21
187.088643
 31
0.0
  0
ARC
  5
135
100
AcDbEntity
  8
0
  6
HIDDEN
 62
   174
100
AcDbCircle
 10
276.451081
 20
203.78124
 30
0.0
 40
3.0
100
AcDbArc
 50
82.746946
 51
100.266697
  0
ARC
  5
136
100
AcDbEntity
  8
0
  6
HIDDEN
 62
   174
100
AcDbCircle
 10
276.451081
 20
203.78124
 30
0.0
 40
3.0
100
AcDbArc
 50
314.74359
 51
349.787744
  0
ARC
  5
137
100
AcDbEntity
  8
0
  6
Continuous
 62
   174
100
AcDbCircle
 10
276.451081
 20
203.78124
 30
0.0
 40
3.0
100
AcDbArc
 50
222.376765
 51
242.445806
  0
ARC
  5
138
100
AcDbEntity
  8
0
  6
HIDDEN
 62
   174
100
AcDbCircle
 10
276.451081
 20
203.78124
 30
0.0
 40
8.0
100
AcDbArc
 50
123.159172
 51
148.836325
  0
ARC
  5
139
100
AcDbEntity
  8
0
  6
Continuous
 62
   174
100
AcDbCircle
 10
273.064705
 20
222.477027
 30
0.0
 40
2.0
100
AcDbArc
 50
-206.001039
 51
-194.287228
  0
ARC
  5
13A
100
AcDbEntity
  8
0
  6
Continuous
 62
   174
100
AcDbCircle
 10
273.064705
 20
222.477027
 30
0.0
 40
10.0
100
AcDbArc
 50
195.890552
 51
226.243893
  0
ARC
  5
13B
100
AcDbEntity
  8
0
  6
Continuous
 62
   174
100
AcDbCircle
 10
238.164471
 20
190.923491
 30
0.0
 40
3.0
100
AcDbArc
 50
90.0
 51
115.762281
  0
ARC
  5
13C
100
AcDbEntity
  8
0
  6
HIDDEN
 62
   174
100
AcDbCircle
 10
238.164471
 20
190.923491
 30
0.0
 40
3.0
100
AcDbArc
 50
90.0
 51
116.611392
  0
ARC
  5
13D
100
AcDbEntity
  8
0
  6
HIDDEN
 62
   174
100
AcDbCircle
 10
238.164471
 20
190.923491
 30
0.0
 40
3.0
100
AcDbArc
 50
319.094139
 51
324.175177
  0
ARC
  5
13E
100
AcDbEntity
  8
0
  6
HIDDEN
 62
   174
100
AcDbCircle
 10
238.164471
 20
190.923491
 30
0.0
 40
3.0
100
AcDbArc
 50
93.206661
 51
113.36306
  0
ARC
  5
13F
100
AcDbEntity
  8
0
  6
HIDDEN
 62
   174
100
AcDbCircle
 10
238.164471
 20
190.923491
 30
0.0
 40
3.0
100
AcDbArc
 50
324.175177
 51
343.64234
  0
ARC
  5
140
100
AcDbEntity
  8
0
  6
Continuous
 62
   174
100
AcDbCircle
 10
273.064705
 20
222.477027
 30
0.0
 40
2.0
100
AcDbArc
 50
-127.735644
 51
-116.609472
  0
LINE
  5
141
100
AcDbEntity
  8
0
  6
Continuous
 62
   174
100
AcDbLine
 10
281.164471
 20
110.923491
 30
0.0
 11
281.164471
 21
179.923491
 31
0.0
  0
ARC
  5
142
100
AcDbEntity
  8
0
  6
Continuous
 62
   174
100
AcDbCircle
 10
273.064705
 20
222.477027
 30
0.0
 40
9.6
100
AcDbArc
 50
16.267106
 51
88.266697
  0
ARC
  5
143
100
AcDbEntity
  8
0
  6
HIDDEN
 62
   174
100
AcDbCircle
 10
276.451081
 20
203.78124
 30
0.0
 40
3.0
100
AcDbArc
 50
229.191939
 51
245.773031
  0
ARC
  5
144
100
AcDbEntity
  8
0
  6
Continuous
 62
   174
100
AcDbCircle
 10
276.451081
 20
203.78124
 30
0.0
 40
3.0
100
AcDbArc
 50
-11.874338
 51
10.266697
  0
ARC
  5
145
100
AcDbEntity
  8
0
  6
Continuous
 62
   174
100
AcDbCircle
 10
276.451081
 20
203.78124
 30
0.0
 40
3.0
100
AcDbArc
 50
35.873765
 51
42.376765
  0
ARC
  5
146
100
AcDbEntity
  8
0
  6
HIDDEN
 62
   174
100
AcDbCircle
 10
238.164471
 20
190.923491
 30
0.0
 40
3.0
100
AcDbArc
 50
144.175177
 51
163.64234
  0
LINE
  5
147
100
AcDbEntity
  8
0
  6
HIDDEN
 62
   174
100
AcDbLine
 10
251.9915
 20
187.330357
 30
0.0
 11
256.135934
 21
188.08104
 31
0.0
  0
LINE
  5
148
100
AcDbEntity
  8
0
  6
Continuous
 62
   174
100
AcDbLine
 10
270.687287
 20
190.716733
 30
0.0
 11
270.896165
 21
189.563543
 31
0.0
  0
ARC
  5
149
100
AcDbEntity
  8
0
  6
Continuous
 62
   174
100
AcDbCircle
 10
273.064705
 20
222.477027
 30
0.0
 40
2.0
100
AcDbArc
 50
-245.727593
 51
-234.035407
  0
ARC
  5
14A
100
AcDbEntity
  8
0
  6
Continuous
 62
   174
100
AcDbCircle
 10
238.164471
 20
190.923491
 30
0.0
 40
3.0
100
AcDbArc
 50
244.237719
 51
270.0
  0
ARC
  5
14B
100
AcDbEntity
  8
0
  6
HIDDEN
 62
   174
100
AcDbCircle
 10
238.164471
 20
190.923491
 30
0.0
 40
3.0
100
AcDbArc
 50
218.628871
 51
244.803282
  0
LINE
  5
14C
100
AcDbEntity
  8
0
  6
HIDDEN
 62
   174
100
AcDbLine
 10
245.164471
 20
184.06123
 30
0.0
 11
231.164471
 21
181.525404
 31
0.0
  0
ARC
  5
14D
100
AcDbEntity
  8
0
  6
Continuous
 62
   174
100
AcDbCircle
 10
276.451081
 20
203.78124
 30
0.0
 40
3.0
100
AcDbArc
 50
139.147784
 51
144.23164
  0
LINE
  5
14E
100
AcDbEntity
  8
0
  6
HIDDEN
 62
   174
100
AcDbLine
 10
231.164471
 20
198.923491
 30
0.0
 11
231.164471
 21
197.915963
 31
0.0
  0
ARC
  5
14F
100
AcDbEntity
  8
0
  6
HIDDEN
 62
   174
100
AcDbCircle
 10
276.451081
 20
203.78124
 30
0.0
 40
3.0
100
AcDbArc
 50
-10.392867
 51
10.266697
  0
ARC
  5
150
100
AcDbEntity
  8
0
  6
HIDDEN
 62
   174
100
AcDbCircle
 10
238.164471
 20
190.923491
 30
0.0
 40
3.0
100
AcDbArc
 50
293.36306
 51
297.796907
  0
ARC
  5
151
100
AcDbEntity
  8
0
  6
HIDDEN
 62
   174
100
AcDbCircle
 10
238.164471
 20
190.923491
 30
0.0
 40
3.0
100
AcDbArc
 50
296.611392
 51
319.068497
  0
LINE
  5
152
100
AcDbEntity
  8
0
  6
HIDDEN
 62
   174
100
AcDbLine
 10
235.990148
 20
125.923491
 30
0.0
 11
244.39014
 21
125.923491
 31
0.0
  0
LINE
  5
153
100
AcDbEntity
  8
0
  6
Continuous
 62
   174
100
AcDbLine
 10
252.164471
 20
179.923491
 30
0.0
 11
252.164471
 21
187.088643
 31
0.0
  0
LINE
  5
154
100
AcDbEntity
  8
0
  6
HIDDEN
 62
   174
100
AcDbLine
 10
246.444028
 20
184.292997
 30
0.0
 11
245.164471
 21
184.06123
 31
0.0
  0
LINE
  5
155
100
AcDbEntity
  8
0
  6
Continuous
 62
   174
100
AcDbLine
 10
231.164471
 20
198.923491
 30
0.0
 11
231.164471
 21
110.923491
 31
0.0
  0
LINE
  5
156
100
AcDbEntity
  8
0
  6
Continuous
 62
   174
100
AcDbLine
 10
280.936616
 20
223.902869
 30
0.0
 11
285.262328
 21
200.021115
 31
0.0
  0
LINE
  5
157
100
AcDbEntity
  8
0
  6
HIDDEN
 62
   174
100
AcDbLine
 10
268.192063
 20
204.492576
 30
0.0
 11
270.005013
 21
194.483487
 31
0.0
  0
ARC
  5
158
100
AcDbEntity
  8
0
  6
Continuous
 62
   174
100
AcDbCircle
 10
273.064705
 20
222.477027
 30
0.0
 40
2.0
100
AcDbArc
 50
-296.609472
 51
-285.604671
  0
ARC
  5
159
100
AcDbEntity
  8
0
  6
Continuous
 62
   174
100
AcDbCircle
 10
273.064705
 20
222.477027
 30
0.0
 40
2.0
100
AcDbArc
 50
-14.287228
 51
-12.857143
  0
LINE
  5
15A
100
AcDbEntity
  8
0
  6
Continuous
 62
   174
100
AcDbLine
 10
254.957571
 20
187.088643
 30
0.0
 11
253.832846
 21
187.088643
 31
0.0
  0
ARC
  5
15B
100
AcDbEntity
  8
0
  6
HIDDEN
 62
   174
100
AcDbCircle
 10
276.451081
 20
203.78124
 30
0.0
 40
3.0
100
AcDbArc
 50
297.796907
 51
314.74359
  0
ARC
  5
15C
100
AcDbEntity
  8
0
  6
Continuous
 62
   174
100
AcDbCircle
 10
276.451081
 20
203.78124
 30
0.0
 40
3.0
100
AcDbArc
 50
215.873765
 51
222.376765
  0
ARC
  5
15D
100
AcDbEntity
  8
0
  6
HIDDEN
 62
   174
100
AcDbCircle
 10
276.451081
 20
203.78124
 30
0.0
 40
8.0
100
AcDbArc
 50
71.804994
 51
123.159172
  0
LINE
  5
15E
100
AcDbEntity
  8
0
  6
HIDDEN
 62
   174
100
AcDbLine
 10
265.192795
 20
221.051184
 30
0.0
 11
270.896165
 21
189.563543
 31
0.0
  0
ARC
  5
15F
100
AcDbEntity
  8
0
  6
Continuous
 62
   174
100
AcDbCircle
 10
273.064705
 20
222.477027
 30
0.0
 40
2.0
100
AcDbArc
 50
-194.287228
 51
-192.857143
  0
ARC
  5
160
100
AcDbEntity
  8
0
  6
Continuous
 62
   174
100
AcDbCircle
 10
273.064705
 20
222.477027
 30
0.0
 40
10.0
100
AcDbArc
 50
88.266697
 51
195.890552
  0
ARC
  5
161
100
AcDbEntity
  8
0
  6
Continuous
 62
   174
100
AcDbCircle
 10
238.164471
 20
190.923491
 30
0.0
 40
3.0
100
AcDbArc
 50
64.237719
 51
90.0
  0
ARC
  5
162
100
AcDbEntity
  8
0
  6
HIDDEN
 62
   174
100
AcDbCircle
 10
238.164471
 20
190.923491
 30
0.0
 40
3.0
100
AcDbArc
 50
64.803282
 51
90.0
  0
LINE
  5
163
100
AcDbEntity
  8
0
  6
HIDDEN
 62
   174
100
AcDbLine
 10
237.445796
 20
198.923491
 30
0.0
 11
245.164471
 21
198.923491
 31
0.0
  0
ARC
  5
164
100
AcDbEntity
  8
0
  6
Continuous
 62
   174
100
AcDbCircle
 10
273.064705
 20
222.477027
 30
0.0
 40
2.0
100
AcDbArc
 50
-116.609472
 51
-105.604671
  0
ARC
  5
165
100
AcDbEntity
  8
0
  6
Continuous
 62
   174
100
AcDbCircle
 10
273.064705
 20
222.477027
 30
0.0
 40
9.6
100
AcDbArc
 50
-1.733303
 51
16.267106
  0
ARC
  5
166
100
AcDbEntity
  8
0
  6
HIDDEN
 62
   174
100
AcDbCircle
 10
276.451081
 20
203.78124
 30
0.0
 40
3.0
100
AcDbArc
 50
331.341456
 51
349.607133
  0
ARC
  5
167
100
AcDbEntity
  8
0
  6
Continuous
 62
   174
100
AcDbCircle
 10
276.451081
 20
203.78124
 30
0.0
 40
3.0
100
AcDbArc
 50
343.644818
 51
348.125662
  0
ARC
  5
168
100
AcDbEntity
  8
0
  6
Continuous
 62
   174
100
AcDbCircle
 10
276.451081
 20
203.78124
 30
0.0
 40
3.0
100
AcDbArc
 50
17.570613
 51
35.873765
  0
ARC
  5
169
100
AcDbEntity
  8
0
  6
HIDDEN
 62
   174
100
AcDbCircle
 10
238.164471
 20
190.923491
 30
0.0
 40
3.0
100
AcDbArc
 50
168.118711
 51
190.266697
  0
ARC
  5
16A
100
AcDbEntity
  8
0
  6
HIDDEN
 62
   174
100
AcDbCircle
 10
273.064705
 20
222.477027
 30
0.0
 40
8.0
100
AcDbArc
 50
-349.733303
 51
-169.733303
  0
ARC
  5
16B
100
AcDbEntity
  8
0
  6
Continuous
 62
   174
100
AcDbCircle
 10
273.064705
 20
222.477027
 30
0.0
 40
2.0
100
AcDbArc
 50
-234.035407
 51
-220.317051
  0
LINE
  5
16C
100
AcDbEntity
  8
0
  6
Continuous
 62
   174
100
AcDbLine
 10
245.164471
 20
198.923491
 30
0.0
 11
245.164471
 21
179.923491
 31
0.0
  0
ARC
  5
16D
100
AcDbEntity
  8
0
  6
Continuous
 62
   174
100
AcDbCircle
 10
238.164471
 20
190.923491
 30
0.0
 40
3.0
100
AcDbArc
 50
218.599794
 51
244.237719
  0
ARC
  5
16E
100
AcDbEntity
  8
0
  6
HIDDEN
 62
   174
100
AcDbCircle
 10
238.164471
 20
190.923491
 30
0.0
 40
3.0
100
AcDbArc
 50
197.286771
 51
218.628871
  0
LINE
  5
16F
100
AcDbEntity
  8
0
  6
Continuous
 62
   174
100
AcDbLine
 10
260.164471
 20
179.923491
 30
0.0
 11
260.164471
 21
187.088643
 31
0.0
  0
ARC
  5
170
100
AcDbEntity
  8
0
  6
Continuous
 62
   174
100
AcDbCircle
 10
276.451081
 20
203.78124
 30
0.0
 40
3.0
100
AcDbArc
 50
113.180961
 51
139.147784
  0
ARC
  5
171
100
AcDbEntity
  8
0
  6
HIDDEN
 62
   174
100
AcDbCircle
 10
238.164471
 20
190.923491
 30
0.0
 40
3.0
100
AcDbArc
 50
215.919988
 51
222.447009
  0
ARC
  5
172
100
AcDbEntity
  8
0
  6
HIDDEN
 62
   174
100
AcDbCircle
 10
238.164471
 20
190.923491
 30
0.0
 40
3.0
100
AcDbArc
 50
87.403324
 51
93.206661
  0
LINE
  5
173
100
AcDbEntity
  8
0
  6
HIDDEN
 62
   174
100
AcDbLine
 10
270.005013
 20
194.483487
 30
0.0
 11
270.330827
 21
192.68471
 31
0.0
  0
LINE
  5
174
100
AcDbEntity
  8
0
  6
HIDDEN
 62
   174
100
AcDbLine
 10
277.876924
 20
195.909329
 30
0.0
 11
270.005013
 21
194.483487
 31
0.0
  0
ARC
  5
175
100
AcDbEntity
  8
0
  6
HIDDEN
 62
   174
100
AcDbCircle
 10
238.164471
 20
190.923491
 30
0.0
 40
3.0
100
AcDbArc
 50
273.206661
 51
293.36306
  0
ARC
  5
176
100
AcDbEntity
  8
0
  6
HIDDEN
 62
   174
100
AcDbCircle
 10
238.164471
 20
190.923491
 30
0.0
 40
3.0
100
AcDbArc
 50
293.36306
 51
297.796907
  0
ARC
  5
177
100
AcDbEntity
  8
0
  6
HIDDEN
 62
   174
100
AcDbCircle
 10
238.164471
 20
190.923491
 30
0.0
 40
3.0
100
AcDbArc
 50
319.094139
 51
324.175177
  0
LINE
  5
178
100
AcDbEntity
  8
0
  6
Continuous
 62
   174
100
AcDbLine
 10
285.262328
 20
200.021115
 30
0.0
 11
286.067623
 21
195.575178
 31
0.0
  0
LINE
  5
179
100
AcDbEntity
  8
0
  6
HIDDEN
 62
   174
100
AcDbLine
 10
245.164471
 20
198.923491
 30
0.0
 11
245.164471
 21
190.984121
 31
0.0
  0
ARC
  5
17A
100
AcDbEntity
  8
0
  6
HIDDEN
 62
   174
100
AcDbCircle
 10
238.164471
 20
190.923491
 30
0.0
 40
3.0
100
AcDbArc
 50
270.0
 51
296.611392
  0
ARC
  5
17B
100
AcDbEntity
  8
0
  6
HIDDEN
 62
   174
100
AcDbCircle
 10
276.451081
 20
203.78124
 30
0.0
 40
3.0
100
AcDbArc
 50
-169.733303
 51
10.266697
  0
ARC
  5
17C
100
AcDbEntity
  8
0
  6
HIDDEN
 62
   174
100
AcDbCircle
 10
238.164471
 20
190.923491
 30
0.0
 40
3.0
100
AcDbArc
 50
35.919988
 51
42.447009
  0
ARC
  5
17D
100
AcDbEntity
  8
0
  6
HIDDEN
 62
   174
100
AcDbCircle
 10
238.164471
 20
190.923491
 30
0.0
 40
3.0
100
AcDbArc
 50
113.36306
 51
117.796907
  0
ARC
  5
17E
100
AcDbEntity
  8
0
  6
HIDDEN
 62
   174
100
AcDbCircle
 10
238.164471
 20
190.923491
 30
0.0
 40
3.0
100
AcDbArc
 50
163.64234
 51
168.118711
  0
ARC
  5
17F
100
AcDbEntity
  8
0
  6
Continuous
 62
   174
100
AcDbCircle
 10
273.064705
 20
222.477027
 30
0.0
 40
2.0
100
AcDbArc
 50
-285.604671
 51
-271.201339
  0
ARC
  5
180
100
AcDbEntity
  8
0
  6
Continuous
 62
   174
100
AcDbCircle
 10
273.064705
 20
222.477027
 30
0.0
 40
2.0
100
AcDbArc
 50
-12.857143
 51
-0.817696
  0
ARC
  5
181
100
AcDbEntity
  8
0
  6
Continuous
 62
   174
100
AcDbCircle
 10
272.164471
 20
162.923491
 30
0.0
 40
7.5
100
AcDbArc
 50
90.0
 51
270.0
  0
LINE
  5
182
100
AcDbEntity
  8
0
  6
Continuous
 62
   174
100
AcDbLine
 10
256.190143
 20
187.088643
 30
0.0
 11
254.957571
 21
187.088643
 31
0.0
  0
ARC
  5
183
100
AcDbEntity
  8
0
  6
HIDDEN
 62
   174
100
AcDbCircle
 10
276.451081
 20
203.78124
 30
0.0
 40
3.0
100
AcDbArc
 50
210.926262
 51
229.191939
  0
ARC
  5
184
100
AcDbEntity
  8
0
  6
Continuous
 62
   174
100
AcDbCircle
 10
238.164471
 20
190.923491
 30
0.0
 40
3.0
100
AcDbArc
 50
12.86204
 51
38.599794
  0
LINE
  5
185
100
AcDbEntity
  8
0
  6
Continuous
 62
   174
100
AcDbLine
 10
231.164471
 20
198.923491
 30
0.0
 11
245.164471
 21
198.923491
 31
0.0
  0
LINE
  5
186
100
AcDbEntity
  8
0
  6
HIDDEN
 62
   174
100
AcDbLine
 10
256.190143
 20
179.923491
 30
0.0
 11
252.190218
 21
179.923491
 31
0.0
  0
ARC
  5
187
100
AcDbEntity
  8
0
  6
HIDDEN
 62
   174
100
AcDbCircle
 10
276.451081
 20
203.78124
 30
0.0
 40
3.0
100
AcDbArc
 50
280.266697
 51
297.796907
  0
ARC
  5
188
100
AcDbEntity
  8
0
  6
Continuous
 62
   174
100
AcDbCircle
 10
276.451081
 20
203.78124
 30
0.0
 40
3.0
100
AcDbArc
 50
197.570613
 51
215.873765
  0
ARC
  5
189
100
AcDbEntity
  8
0
  6
HIDDEN
 62
   174
100
AcDbCircle
 10
276.451081
 20
203.78124
 30
0.0
 40
8.0
100
AcDbArc
 50
46.127812
 51
71.804994
  0
ARC
  5
18A
100
AcDbEntity
  8
0
  6
HIDDEN
 62
   174
100
AcDbCircle
 10
238.164471
 20
190.923491
 30
0.0
 40
3.0
100
AcDbArc
 50
49.196962
 51
64.784971
  0
LINE
  5
18B
100
AcDbEntity
  8
0
  6
HIDDEN
 62
   174
100
AcDbLine
 10
270.005013
 20
194.483487
 30
0.0
 11
270.259534
 21
193.078306
 31
0.0
  0
LINE
  5
18C
100
AcDbEntity
  8
0
  6
HIDDEN
 62
   174
100
AcDbLine
 10
270.896165
 20
189.563543
 30
0.0
 11
286.067623
 21
195.575178
 31
0.0
  0
ARC
  5
18D
100
AcDbEntity
  8
0
  6
Continuous
 62
   174
100
AcDbCircle
 10
273.064705
 20
222.477027
 30
0.0
 40
2.0
100
AcDbArc
 50
-192.857143
 51
-180.817696
  0
ARC
  5
18E
100
AcDbEntity
  8
0
  6
Continuous
 62
   174
100
AcDbCircle
 10
273.064705
 20
222.477027
 30
0.0
 40
10.0
100
AcDbArc
 50
15.890552
 51
88.266697
  0
ARC
  5
18F
100
AcDbEntity
  8
0
  6
Continuous
 62
   174
100
AcDbCircle
 10
238.164471
 20
190.923491
 30
0.0
 40
3.0
100
AcDbArc
 50
38.599794
 51
64.237719
  0
ARC
  5
190
100
AcDbEntity
  8
0
  6
HIDDEN
 62
   174
100
AcDbCircle
 10
238.164471
 20
190.923491
 30
0.0
 40
3.0
100
AcDbArc
 50
38.628871
 51
64.803282
  0
ARC
  5
191
100
AcDbEntity
  8
0
  6
HIDDEN
 62
   174
100
AcDbCircle
 10
276.451081
 20
203.78124
 30
0.0
 40
8.0
100
AcDbArc
 50
-5.226517
 51
20.450654
  0
ARC
  5
192
100
AcDbEntity
  8
0
  6
HIDDEN
 62
   174
100
AcDbCircle
 10
238.164471
 20
190.923491
 30
0.0
 40
3.0
100
AcDbArc
 50
215.919988
 51
222.447009
  0
ARC
  5
193
100
AcDbEntity
  8
0
  6
Continuous
 62
   174
100
AcDbCircle
 10
273.064705
 20
222.477027
 30
0.0
 40
2.0
100
AcDbArc
 50
-105.604671
 51
-91.201339
  0
ARC
  5
194
100
AcDbEntity
  8
0
  6
Continuous
 62
   174
100
AcDbCircle
 10
273.064705
 20
222.477027
 30
0.0
 40
9.6
100
AcDbArc
 50
337.3002
 51
358.266697
  0
LINE
  5
195
100
AcDbEntity
  8
0
  6
HIDDEN
 62
   174
100
AcDbLine
 10
245.164471
 20
184.06123
 30
0.0
 11
245.164471
 21
181.523491
 31
0.0
  0
ARC
  5
196
100
AcDbEntity
  8
0
  6
HIDDEN
 62
   174
100
AcDbCircle
 10
276.451081
 20
203.78124
 30
0.0
 40
3.0
100
AcDbArc
 50
100.266697
 51
117.786449
  0
ARC
  5
197
100
AcDbEntity
  8
0
  6
Continuous
 62
   174
100
AcDbCircle
 10
276.451081
 20
203.78124
 30
0.0
 40
3.0
100
AcDbArc
 50
324.23164
 51
343.644818
  0
ARC
  5
198
100
AcDbEntity
  8
0
  6
Continuous
 62
   174
100
AcDbCircle
 10
273.064705
 20
222.477027
 30
0.0
 40
2.0
100
AcDbArc
 50
-220.317051
 51
-206.001039
  0
ARC
  5
199
100
AcDbEntity
  8
0
  6
HIDDEN
 62
   174
100
AcDbCircle
 10
238.164471
 20
190.923491
 30
0.0
 40
3.0
100
AcDbArc
 50
191.720366
 51
197.286771
  0
ARC
  5
19A
100
AcDbEntity
  8
0
  6
Continuous
 62
   174
100
AcDbCircle
 10
276.451081
 20
203.78124
 30
0.0
 40
3.0
100
AcDbArc
 50
100.266697
 51
113.180961
  0
ARC
  5
19B
100
AcDbEntity
  8
0
  6
HIDDEN
 62
   174
100
AcDbCircle
 10
238.164471
 20
190.923491
 30
0.0
 40
3.0
100
AcDbArc
 50
197.566275
 51
215.919988
  0
ARC
  5
19C
100
AcDbEntity
  8
0
  6
HIDDEN
 62
   174
100
AcDbCircle
 10
238.164471
 20
190.923491
 30
0.0
 40
3.0
100
AcDbArc
 50
64.784971
 51
87.403324
  0
ARC
  5
19D
100
AcDbEntity
  8
0
  6
HIDDEN
 62
   174
100
AcDbCircle
 10
276.451081
 20
203.78124
 30
0.0
 40
3.0
100
AcDbArc
 50
151.341456
 51
169.607133
  0
ARC
  5
19E
100
AcDbEntity
  8
0
  6
HIDDEN
 62
   174
100
AcDbCircle
 10
238.164471
 20
190.923491
 30
0.0
 40
3.0
100
AcDbArc
 50
267.403324
 51
273.206661
  0
ARC
  5
19F
100
AcDbEntity
  8
0
  6
HIDDEN
 62
   174
100
AcDbCircle
 10
238.164471
 20
190.923491
 30
0.0
 40
3.0
100
AcDbArc
 50
273.206661
 51
293.36306
  0
ARC
  5
1A0
100
AcDbEntity
  8
0
  6
HIDDEN
 62
   174
100
AcDbCircle
 10
238.164471
 20
190.923491
 30
0.0
 40
3.0
100
AcDbArc
 50
297.796907
 51
319.094139
  0
LINE
  5
1A1
100
AcDbEntity
  8
0
  6
HIDDEN
 62
   174
100
AcDbLine
 10
280.936616
 20
223.902869
 30
0.0
 11
286.067623
 21
195.575178
 31
0.0
  0
LINE
  5
1A2
100
AcDbEntity
  8
0
  6
Continuous
 62
   174
100
AcDbLine
 10
281.164471
 20
179.923491
 30
0.0
 11
245.164471
 21
179.923491
 31
0.0
  0
LINE
  5
1A3
100
AcDbEntity
  8
0
  6
HIDDEN
 62
   174
100
AcDbLine
 10
260.190067
 20
179.923491
 30
0.0
 11
256.190143
 21
179.923491
 31
0.0
  0
LINE
  5
1A4
100
AcDbEntity
  8
0
  6
HIDDEN
 62
   174
100
AcDbLine
 10
268.487731
 20
204.54613
 30
0.0
 11
244.919279
 21
200.277166
 31
0.0
  0
LINE
  5
1A5
100
AcDbEntity
  8
0
  6
HIDDEN
 62
   174
100
AcDbLine
 10
245.164471
 20
190.984121
 30
0.0
 11
245.164471
 21
184.06123
 31
0.0
  0
ARC
  5
1A6
100
AcDbEntity
  8
0
  6
HIDDEN
 62
   174
100
AcDbCircle
 10
276.451081
 20
203.78124
 30
0.0
 40
3.0
100
AcDbArc
 50
297.786449
 51
314.760364
  0
ARC
  5
1A7
100
AcDbEntity
  8
0
  6
HIDDEN
 62
   174
100
AcDbCircle
 10
238.164471
 20
190.923491
 30
0.0
 40
3.0
100
AcDbArc
 50
17.566275
 51
35.919988
  0
ARC
  5
1A8
100
AcDbEntity
  8
0
  6
HIDDEN
 62
   174
100
AcDbCircle
 10
238.164471
 20
190.923491
 30
0.0
 40
3.0
100
AcDbArc
 50
93.206661
 51
113.36306
  0
ARC
  5
1A9
100
AcDbEntity
  8
0
  6
HIDDEN
 62
   174
100
AcDbCircle
 10
238.164471
 20
190.923491
 30
0.0
 40
3.0
100
AcDbArc
 50
144.175177
 51
163.64234
  0
LINE
  5
1AA
100
AcDbEntity
  8
0
  6
HIDDEN
 62
   174
100
AcDbLine
 10
244.364471
 20
122.923491
 30
0.0
 11
244.364471
 21
110.923491
 31
0.0
  0
ARC
  5
1AB
100
AcDbEntity
  8
0
  6
Continuous
 62
   174
100
AcDbCircle
 10
273.064705
 20
222.477027
 30
0.0
 40
2.0
100
AcDbArc
 50
-0.817696
 51
11.536701
  0
ARC
  5
1AC
100
AcDbEntity
  8
0
  6
Continuous
 62
   174
100
AcDbCircle
 10
272.164471
 20
162.923491
 30
0.0
 40
4.5
100
AcDbArc
 50
-90.0
 51
90.0
  0
ARC
  5
1AD
100
AcDbEntity
  8
0
  6
Continuous
 62
   174
100
AcDbCircle
 10
238.164471
 20
190.923491
 30
0.0
 40
3.0
100
AcDbArc
 50
-12.86204
 51
12.86204
  0
ARC
  5
1AE
100
AcDbEntity
  8
0
  6
Continuous
 62
   174
100
AcDbCircle
 10
276.451081
 20
203.78124
 30
0.0
 40
3.0
100
AcDbArc
 50
190.266697
 51
197.570613
  0
ARC
  5
1AF
100
AcDbEntity
  8
0
  6
HIDDEN
 62
   174
100
AcDbCircle
 10
276.451081
 20
203.78124
 30
0.0
 40
8.0
100
AcDbArc
 50
20.450654
 51
46.127812
  0
ARC
  5
1B0
100
AcDbEntity
  8
0
  6
HIDDEN
 62
   174
100
AcDbCircle
 10
238.164471
 20
190.923491
 30
0.0
 40
3.0
100
AcDbArc
 50
42.447009
 51
49.196962
  0
ARC
  5
1B1
100
AcDbEntity
  8
0
  6
Continuous
 62
   174
100
AcDbCircle
 10
273.064705
 20
222.477027
 30
0.0
 40
2.0
100
AcDbArc
 50
-180.817696
 51
-168.463299
  0
LINE
  5
1B2
100
AcDbEntity
  8
0
  6
Continuous
 62
   174
100
AcDbLine
 10
231.164471
 20
110.923491
 30
0.0
 11
281.164471
 21
110.923491
 31
0.0
  0
ARC
  5
1B3
100
AcDbEntity
  8
0
  6
Continuous
 62
   174
100
AcDbCircle
 10
273.064705
 20
222.477027
 30
0.0
 40
10.0
100
AcDbArc
 50
9.640286
 51
15.890552
  0
ARC
  5
1B4
100
AcDbEntity
  8
0
  6
HIDDEN
 62
   174
100
AcDbCircle
 10
276.451081
 20
203.78124
 30
0.0
 40
3.0
100
AcDbArc
 50
245.773031
 51
262.746946
  0
LINE
  5
1B5
100
AcDbEntity
  8
0
  6
HIDDEN
 62
   174
100
AcDbLine
 10
244.919279
 20
200.277166
 30
0.0
 11
237.445796
 21
198.923491
 31
0.0
  0
ARC
  5
1B6
100
AcDbEntity
  8
0
  6
HIDDEN
 62
   174
100
AcDbCircle
 10
276.451081
 20
203.78124
 30
0.0
 40
8.0
100
AcDbArc
 50
329.096419
 51
354.773483
  0
ARC
  5
1B7
100
AcDbEntity
  8
0
  6
HIDDEN
 62
   174
100
AcDbCircle
 10
238.164471
 20
190.923491
 30
0.0
 40
3.0
100
AcDbArc
 50
197.566275
 51
215.919988
  0
ARC
  5
1B8
100
AcDbEntity
  8
0
  6
Continuous
 62
   174
100
AcDbCircle
 10
273.064705
 20
222.477027
 30
0.0
 40
2.0
100
AcDbArc
 50
-91.201339
 51
-90.0
  0
ARC
  5
1B9
100
AcDbEntity
  8
0
  6
Continuous
 62
   174
100
AcDbCircle
 10
276.451081
 20
203.78124
 30
0.0
 40
3.0
100
AcDbArc
 50
319.147784
 51
324.23164
  0
ARC
  5
1BA
100
AcDbEntity
  8
0
  6
Continuous
 62
   174
100
AcDbCircle
 10
276.451081
 20
203.78124
 30
0.0
 40
3.0
100
AcDbArc
 50
93.220959
 51
100.266697
  0
LINE
  5
1BB
100
AcDbEntity
  8
0
  6
Continuous
 62
   174
100
AcDbLine
 10
277.876924
 20
195.909329
 30
0.0
 11
270.005013
 21
194.483487
 31
0.0
  0
ARC
  5
1BC
100
AcDbEntity
  8
0
  6
HIDDEN
 62
   174
100
AcDbCircle
 10
276.451081
 20
203.78124
 30
0.0
 40
3.0
100
AcDbArc
 50
30.926262
 51
49.191939
  0
ARC
  5
1BD
100
AcDbEntity
  8
0
  6
HIDDEN
 62
   174
100
AcDbCircle
 10
238.164471
 20
190.923491
 30
0.0
 40
3.0
100
AcDbArc
 50
190.266697
 51
197.566275
  0
ARC
  5
1BE
100
AcDbEntity
  8
0
  6
HIDDEN
 62
   174
100
AcDbCircle
 10
273.064705
 20
222.477027
 30
0.0
 40
9.6
100
AcDbArc
 50
88.266697
 51
268.266697
  0
ARC
  5
1BF
100
AcDbEntity
  8
0
  6
HIDDEN
 62
   174
100
AcDbCircle
 10
238.164471
 20
190.923491
 30
0.0
 40
3.0
100
AcDbArc
 50
244.784971
 51
267.403324
  0
LINE
  5
1C0
100
AcDbEntity
  8
0
  6
HIDDEN
 62
   174
100
AcDbLine
 10
270.330827
 20
192.68471
 30
0.0
 11
251.635039
 21
189.298334
 31
0.0
  0
ARC
  5
1C1
100
AcDbEntity
  8
0
  6
HIDDEN
 62
   174
100
AcDbCircle
 10
238.164471
 20
190.923491
 30
0.0
 40
3.0
100
AcDbArc
 50
17.286771
 51
38.628871
  0
LINE
  5
1C2
100
AcDbEntity
  8
0
  6
Continuous
 62
   174
100
AcDbLine
 10
271.11057
 20
189.6485
 30
0.0
 11
286.067623
 21
195.575178
 31
0.0
  0
LINE
  5
1C3
100
AcDbEntity
  8
0
  6
Continuous
 62
   174
100
AcDbLine
 10
251.635039
 20
189.298334
 30
0.0
 11
251.135995
 21
192.053503
 31
0.0
  0
ARC
  5
1C4
100
AcDbEntity
  8
0
  6
HIDDEN
 62
   174
100
AcDbCircle
 10
276.451081
 20
203.78124
 30
0.0
 40
3.0
100
AcDbArc
 50
10.266697
 51
30.926262
  0
LINE
  5
1C5
100
AcDbEntity
  8
0
  6
HIDDEN
 62
   174
100
AcDbLine
 10
237.445796
 20
198.923491
 30
0.0
 11
231.883348
 21
197.915963
 31
0.0
  0
LINE
  5
1C6
100
AcDbEntity
  8
0
  6
HIDDEN
 62
   174
100
AcDbLine
 10
245.164471
 20
184.06123
 30
0.0
 11
231.164471
 21
181.525404
 31
0.0
  0
ENDBLK
  5
1C7
100
AcDbEntity
  8
0
100
AcDbBlockEnd
  0
BLOCK
  5
1CA
100
AcDbEntity
  8
0
100
AcDbBlockBegin
  2
*B2
 70
     0
 10
0.0
 20
0.0
 30
0.0
  3
*B2
  1

  0
LINE
  5
1CB
100
AcDbEntity
  8
0
  6
Continuous
 62
   172
100
AcDbLine
 10
286.437551
 20
220.477027
 30
0.0
 11
286.464471
 21
220.477027
 31
0.0
  0
LINE
  5
1CC
100
AcDbEntity
  8
0
  6
Continuous
 62
   172
100
AcDbLine
 10
286.437551
 20
224.477027
 30
0.0
 11
286.464471
 21
224.477027
 31
0.0
  0
ENDBLK
  5
1CD
100
AcDbEntity
  8
0
100
AcDbBlockEnd
  0
BLOCK
  5
1D0
100
AcDbEntity
  8
0
100
AcDbBlockBegin
  2
*B3
 70
     0
 10
0.0
 20
0.0
 30
0.0
  3
*B3
  1

  0
LINE
  5
1D1
100
AcDbEntity
  8
0
  6
HIDDEN
 62
   174
100
AcDbLine
 10
183.713977
 20
170.110908
 30
0.0
 11
175.313977
 21
170.110908
 31
0.0
  0
LINE
  5
1D2
100
AcDbEntity
  8
0
  6
HIDDEN
 62
   174
100
AcDbLine
 10
183.713977
 20
155.110908
 30
0.0
 11
175.313977
 21
155.110908
 31
0.0
  0
LINE
  5
1D3
100
AcDbEntity
  8
0
  6
HIDDEN
 62
   174
100
AcDbLine
 10
183.713977
 20
170.110908
 30
0.0
 11
175.313977
 21
170.110908
 31
0.0
  0
LINE
  5
1D4
100
AcDbEntity
  8
0
  6
HIDDEN
 62
   174
100
AcDbLine
 10
183.713977
 20
155.110908
 30
0.0
 11
175.313977
 21
155.110908
 31
0.0
  0
LINE
  5
1D5
100
AcDbEntity
  8
0
  6
HIDDEN
 62
   174
100
AcDbLine
 10
175.313977
 20
155.151114
 30
0.0
 11
175.313977
 21
170.149856
 31
0.0
  0
LINE
  5
1D6
100
AcDbEntity
  8
0
  6
HIDDEN
 62
   174
100
AcDbLine
 10
183.713977
 20
170.110908
 30
0.0
 11
175.313977
 21
170.110908
 31
0.0
  0
LINE
  5
1D7
100
AcDbEntity
  8
0
  6
HIDDEN
 62
   174
100
AcDbLine
 10
183.713977
 20
155.110908
 30
0.0
 11
175.313977
 21
155.110908
 31
0.0
  0
LINE
  5
1D8
100
AcDbEntity
  8
0
  6
HIDDEN
 62
   174
100
AcDbLine
 10
183.713977
 20
170.110908
 30
0.0
 11
175.313977
 21
170.110908
 31
0.0
  0
LINE
  5
1D9
100
AcDbEntity
  8
0
  6
HIDDEN
 62
   174
100
AcDbLine
 10
183.713977
 20
155.110908
 30
0.0
 11
175.313977
 21
155.110908
 31
0.0
  0
LINE
  5
1DA
100
AcDbEntity
  8
0
  6
HIDDEN
 62
   174
100
AcDbLine
 10
175.313977
 20
155.151114
 30
0.0
 11
175.313977
 21
170.149856
 31
0.0
  0
LINE
  5
1DB
100
AcDbEntity
  8
0
  6
HIDDEN
 62
   174
100
AcDbLine
 10
162.113977
 20
158.110908
 30
0.0
 11
175.313977
 21
158.110908
 31
0.0
  0
LINE
  5
1DC
100
AcDbEntity
  8
0
  6
HIDDEN
 62
   174
100
AcDbLine
 10
162.113977
 20
167.110908
 30
0.0
 11
175.313977
 21
167.110908
 31
0.0
  0
LINE
  5
1DD
100
AcDbEntity
  8
0
  6
HIDDEN
 62
   174
100
AcDbLine
 10
162.113977
 20
158.110908
 30
0.0
 11
175.313977
 21
158.110908
 31
0.0
  0
LINE
  5
1DE
100
AcDbEntity
  8
0
  6
HIDDEN
 62
   174
100
AcDbLine
 10
183.713977
 20
170.149856
 30
0.0
 11
183.713977
 21
155.151114
 31
0.0
  0
LINE
  5
1DF
100
AcDbEntity
  8
0
  6
Continuous
 62
   174
100
AcDbLine
 10
158.713977
 20
187.610908
 30
0.0
 11
158.213977
 21
187.610908
 31
0.0
  0
LINE
  5
1E0
100
AcDbEntity
  8
0
  6
Continuous
 62
   174
100
AcDbLine
 10
176.313977
 20
193.610908
 30
0.0
 11
175.713977
 21
193.610908
 31
0.0
  0
LINE
  5
1E1
100
AcDbEntity
  8
0
  6
Continuous
 62
   174
100
AcDbLine
 10
176.313977
 20
193.610908
 30
0.0
 11
175.713977
 21
193.610908
 31
0.0
  0
LINE
  5
1E2
100
AcDbEntity
  8
0
  6
HIDDEN
 62
   174
100
AcDbLine
 10
158.213977
 20
193.610908
 30
0.0
 11
153.713977
 21
193.610908
 31
0.0
  0
LINE
  5
1E3
100
AcDbEntity
  8
0
  6
HIDDEN
 62
   174
100
AcDbLine
 10
178.713977
 20
193.610908
 30
0.0
 11
176.313977
 21
193.610908
 31
0.0
  0
LINE
  5
1E4
100
AcDbEntity
  8
0
  6
HIDDEN
 62
   174
100
AcDbLine
 10
183.713977
 20
187.610908
 30
0.0
 11
179.213977
 21
187.610908
 31
0.0
  0
LINE
  5
1E5
100
AcDbEntity
  8
0
  6
HIDDEN
 62
   174
100
AcDbLine
 10
175.713977
 20
193.610908
 30
0.0
 11
173.713977
 21
193.610908
 31
0.0
  0
LINE
  5
1E6
100
AcDbEntity
  8
0
  6
HIDDEN
 62
   174
100
AcDbLine
 10
153.713977
 20
193.648324
 30
0.0
 11
153.713977
 21
187.648888
 31
0.0
  0
LINE
  5
1E7
100
AcDbEntity
  8
0
  6
HIDDEN
 62
   174
100
AcDbLine
 10
173.713977
 20
220.199833
 30
0.0
 11
173.713977
 21
221.843362
 31
0.0
  0
LINE
  5
1E8
100
AcDbEntity
  8
0
  6
HIDDEN
 62
   174
100
AcDbLine
 10
175.713977
 20
220.699711
 30
0.0
 11
175.713977
 21
220.161681
 31
0.0
  0
LINE
  5
1E9
100
AcDbEntity
  8
0
  6
Continuous
 62
   174
100
AcDbLine
 10
161.713977
 20
206.468656
 30
0.0
 11
161.113977
 21
206.468656
 31
0.0
  0
LINE
  5
1EA
100
AcDbEntity
  8
0
  6
Continuous
 62
   174
100
AcDbLine
 10
173.713977
 20
200.468656
 30
0.0
 11
163.713977
 21
200.468656
 31
0.0
  0
LINE
  5
1EB
100
AcDbEntity
  8
0
  6
HIDDEN
 62
   174
100
AcDbLine
 10
163.713977
 20
200.468656
 30
0.0
 11
161.713977
 21
200.468656
 31
0.0
  0
LINE
  5
1EC
100
AcDbEntity
  8
0
  6
HIDDEN
 62
   174
100
AcDbLine
 10
163.713977
 20
200.468656
 30
0.0
 11
161.713977
 21
200.468656
 31
0.0
  0
LINE
  5
1ED
100
AcDbEntity
  8
0
  6
HIDDEN
 62
   174
100
AcDbLine
 10
163.713977
 20
206.468656
 30
0.0
 11
161.713977
 21
206.468656
 31
0.0
  0
LINE
  5
1EE
100
AcDbEntity
  8
0
  6
HIDDEN
 62
   174
100
AcDbLine
 10
162.113977
 20
167.110908
 30
0.0
 11
175.313977
 21
167.110908
 31
0.0
  0
LINE
  5
1EF
100
AcDbEntity
  8
0
  6
HIDDEN
 62
   174
100
AcDbLine
 10
162.113977
 20
167.110908
 30
0.0
 11
175.313977
 21
167.110908
 31
0.0
  0
LINE
  5
1F0
100
AcDbEntity
  8
0
  6
HIDDEN
 62
   174
100
AcDbLine
 10
161.113977
 20
187.610908
 30
0.0
 11
159.288395
 21
187.610908
 31
0.0
  0
LINE
  5
1F1
100
AcDbEntity
  8
0
  6
HIDDEN
 62
   174
100
AcDbLine
 10
158.213977
 20
187.610908
 30
0.0
 11
153.713977
 21
187.610908
 31
0.0
  0
LINE
  5
1F2
100
AcDbEntity
  8
0
  6
HIDDEN
 62
   174
100
AcDbLine
 10
176.313977
 20
187.610908
 30
0.0
 11
168.713977
 21
187.610908
 31
0.0
  0
LINE
  5
1F3
100
AcDbEntity
  8
0
  6
HIDDEN
 62
   174
100
AcDbLine
 10
163.713977
 20
224.199758
 30
0.0
 11
163.713977
 21
221.843362
 31
0.0
  0
LINE
  5
1F4
100
AcDbEntity
  8
0
  6
HIDDEN
 62
   174
100
AcDbLine
 10
163.713977
 20
206.468656
 30
0.0
 11
161.713977
 21
206.468656
 31
0.0
  0
LINE
  5
1F5
100
AcDbEntity
  8
0
  6
HIDDEN
 62
   174
100
AcDbLine
 10
175.713977
 20
206.468656
 30
0.0
 11
173.713977
 21
206.468656
 31
0.0
  0
LINE
  5
1F6
100
AcDbEntity
  8
0
  6
HIDDEN
 62
   174
100
AcDbLine
 10
183.713977
 20
170.149856
 30
0.0
 11
183.713977
 21
155.151114
 31
0.0
  0
LINE
  5
1F7
100
AcDbEntity
  8
0
  6
Continuous
 62
   174
100
AcDbLine
 10
158.713977
 20
193.610908
 30
0.0
 11
158.213977
 21
193.610908
 31
0.0
  0
LINE
  5
1F8
100
AcDbEntity
  8
0
  6
Continuous
 62
   174
100
AcDbLine
 10
158.713977
 20
187.610908
 30
0.0
 11
158.213977
 21
187.610908
 31
0.0
  0
LINE
  5
1F9
100
AcDbEntity
  8
0
  6
HIDDEN
 62
   174
100
AcDbLine
 10
178.713977
 20
187.610908
 30
0.0
 11
178.139559
 21
187.610908
 31
0.0
  0
LINE
  5
1FA
100
AcDbEntity
  8
0
  6
HIDDEN
 62
   174
100
AcDbLine
 10
161.113977
 20
193.610908
 30
0.0
 11
158.713977
 21
193.610908
 31
0.0
  0
LINE
  5
1FB
100
AcDbEntity
  8
0
  6
HIDDEN
 62
   174
100
AcDbLine
 10
179.213977
 20
193.610908
 30
0.0
 11
178.713977
 21
193.610908
 31
0.0
  0
LINE
  5
1FC
100
AcDbEntity
  8
0
  6
HIDDEN
 62
   174
100
AcDbLine
 10
178.139559
 20
187.610908
 30
0.0
 11
176.313977
 21
187.610908
 31
0.0
  0
LINE
  5
1FD
100
AcDbEntity
  8
0
  6
HIDDEN
 62
   174
100
AcDbLine
 10
158.213977
 20
193.610908
 30
0.0
 11
153.713977
 21
193.610908
 31
0.0
  0
LINE
  5
1FE
100
AcDbEntity
  8
0
  6
HIDDEN
 62
   174
100
AcDbLine
 10
178.713977
 20
193.610908
 30
0.0
 11
176.313977
 21
193.610908
 31
0.0
  0
LINE
  5
1FF
100
AcDbEntity
  8
0
  6
HIDDEN
 62
   174
100
AcDbLine
 10
175.713977
 20
224.999442
 30
0.0
 11
175.713977
 21
224.236708
 31
0.0
  0
LINE
  5
200
100
AcDbEntity
  8
0
  6
Continuous
 62
   174
100
AcDbLine
 10
161.713977
 20
200.468656
 30
0.0
 11
161.113977
 21
200.468656
 31
0.0
  0
LINE
  5
201
100
AcDbEntity
  8
0
  6
Continuous
 62
   174
100
AcDbLine
 10
173.713977
 20
206.468656
 30
0.0
 11
163.713977
 21
206.468656
 31
0.0
  0
LINE
  5
202
100
AcDbEntity
  8
0
  6
Continuous
 62
   174
100
AcDbLine
 10
176.313977
 20
200.468656
 30
0.0
 11
175.713977
 21
200.468656
 31
0.0
  0
LINE
  5
203
100
AcDbEntity
  8
0
  6
HIDDEN
 62
   174
100
AcDbLine
 10
175.713977
 20
200.468656
 30
0.0
 11
173.713977
 21
200.468656
 31
0.0
  0
LINE
  5
204
100
AcDbEntity
  8
0
  6
HIDDEN
 62
   174
100
AcDbLine
 10
175.713977
 20
206.468656
 30
0.0
 11
173.713977
 21
206.468656
 31
0.0
  0
LINE
  5
205
100
AcDbEntity
  8
0
  6
HIDDEN
 62
   174
100
AcDbLine
 10
175.713977
 20
200.468656
 30
0.0
 11
173.713977
 21
200.468656
 31
0.0
  0
LINE
  5
206
100
AcDbEntity
  8
0
  6
HIDDEN
 62
   174
100
AcDbLine
 10
162.113977
 20
158.110908
 30
0.0
 11
175.313977
 21
158.110908
 31
0.0
  0
LINE
  5
207
100
AcDbEntity
  8
0
  6
Continuous
 62
   174
100
AcDbLine
 10
173.713977
 20
193.610908
 30
0.0
 11
163.713977
 21
193.610908
 31
0.0
  0
LINE
  5
208
100
AcDbEntity
  8
0
  6
HIDDEN
 62
   174
100
AcDbLine
 10
168.713977
 20
187.610908
 30
0.0
 11
161.113977
 21
187.610908
 31
0.0
  0
LINE
  5
209
100
AcDbEntity
  8
0
  6
HIDDEN
 62
   174
100
AcDbLine
 10
183.713977
 20
193.610908
 30
0.0
 11
179.213977
 21
193.610908
 31
0.0
  0
LINE
  5
20A
100
AcDbEntity
  8
0
  6
HIDDEN
 62
   174
100
AcDbLine
 10
159.288395
 20
187.610908
 30
0.0
 11
158.713977
 21
187.610908
 31
0.0
  0
LINE
  5
20B
100
AcDbEntity
  8
0
  6
HIDDEN
 62
   174
100
AcDbLine
 10
161.713977
 20
224.034233
 30
0.0
 11
161.713977
 21
221.700668
 31
0.0
  0
LINE
  5
20C
100
AcDbEntity
  8
0
  6
HIDDEN
 62
   174
100
AcDbLine
 10
161.713977
 20
224.236407
 30
0.0
 11
161.713977
 21
224.034233
 31
0.0
  0
LINE
  5
20D
100
AcDbEntity
  8
0
  6
HIDDEN
 62
   174
100
AcDbLine
 10
161.713977
 20
224.999442
 30
0.0
 11
161.713977
 21
224.236407
 31
0.0
  0
LINE
  5
20E
100
AcDbEntity
  8
0
  6
HIDDEN
 62
   174
100
AcDbLine
 10
161.713977
 20
220.149364
 30
0.0
 11
161.713977
 21
219.399848
 31
0.0
  0
LINE
  5
20F
100
AcDbEntity
  8
0
  6
HIDDEN
 62
   174
100
AcDbLine
 10
175.713977
 20
220.161681
 30
0.0
 11
175.713977
 21
219.399848
 31
0.0
  0
LINE
  5
210
100
AcDbEntity
  8
0
  6
HIDDEN
 62
   174
100
AcDbLine
 10
183.713977
 20
193.610908
 30
0.0
 11
179.213977
 21
193.610908
 31
0.0
  0
LINE
  5
211
100
AcDbEntity
  8
0
  6
Continuous
 62
   174
100
AcDbLine
 10
161.713977
 20
193.610908
 30
0.0
 11
161.113977
 21
193.610908
 31
0.0
  0
LINE
  5
212
100
AcDbEntity
  8
0
  6
Continuous
 62
   174
100
AcDbLine
 10
158.713977
 20
193.610908
 30
0.0
 11
158.213977
 21
193.610908
 31
0.0
  0
LINE
  5
213
100
AcDbEntity
  8
0
  6
HIDDEN
 62
   174
100
AcDbLine
 10
179.213977
 20
187.610908
 30
0.0
 11
178.713977
 21
187.610908
 31
0.0
  0
LINE
  5
214
100
AcDbEntity
  8
0
  6
HIDDEN
 62
   174
100
AcDbLine
 10
163.713977
 20
193.610908
 30
0.0
 11
161.713977
 21
193.610908
 31
0.0
  0
LINE
  5
215
100
AcDbEntity
  8
0
  6
HIDDEN
 62
   174
100
AcDbLine
 10
178.713977
 20
187.610908
 30
0.0
 11
178.139559
 21
187.610908
 31
0.0
  0
LINE
  5
216
100
AcDbEntity
  8
0
  6
HIDDEN
 62
   174
100
AcDbLine
 10
161.113977
 20
193.610908
 30
0.0
 11
158.713977
 21
193.610908
 31
0.0
  0
LINE
  5
217
100
AcDbEntity
  8
0
  6
HIDDEN
 62
   174
100
AcDbLine
 10
179.213977
 20
193.610908
 30
0.0
 11
178.713977
 21
193.610908
 31
0.0
  0
LINE
  5
218
100
AcDbEntity
  8
0
  6
HIDDEN
 62
   174
100
AcDbLine
 10
173.713977
 20
221.843362
 30
0.0
 11
173.713977
 21
224.199758
 31
0.0
  0
LINE
  5
219
100
AcDbEntity
  8
0
  6
HIDDEN
 62
   174
100
AcDbLine
 10
163.713977
 20
221.843362
 30
0.0
 11
163.713977
 21
220.199833
 31
0.0
  0
LINE
  5
21A
100
AcDbEntity
  8
0
  6
HIDDEN
 62
   174
100
AcDbLine
 10
161.713977
 20
220.563626
 30
0.0
 11
161.713977
 21
220.149364
 31
0.0
  0
LINE
  5
21B
100
AcDbEntity
  8
0
  6
Continuous
 62
   174
100
AcDbLine
 10
173.713977
 20
200.468656
 30
0.0
 11
163.713977
 21
200.468656
 31
0.0
  0
LINE
  5
21C
100
AcDbEntity
  8
0
  6
Continuous
 62
   174
100
AcDbLine
 10
176.313977
 20
206.468656
 30
0.0
 11
175.713977
 21
206.468656
 31
0.0
  0
LINE
  5
21D
100
AcDbEntity
  8
0
  6
Continuous
 62
   174
100
AcDbLine
 10
161.713977
 20
206.468656
 30
0.0
 11
161.113977
 21
206.468656
 31
0.0
  0
LINE
  5
21E
100
AcDbEntity
  8
0
  6
HIDDEN
 62
   174
100
AcDbLine
 10
178.713977
 20
200.468656
 30
0.0
 11
176.313977
 21
200.468656
 31
0.0
  0
LINE
  5
21F
100
AcDbEntity
  8
0
  6
HIDDEN
 62
   174
100
AcDbLine
 10
178.713977
 20
206.468656
 30
0.0
 11
176.313977
 21
206.468656
 31
0.0
  0
LINE
  5
220
100
AcDbEntity
  8
0
  6
HIDDEN
 62
   174
100
AcDbLine
 10
178.713977
 20
200.468656
 30
0.0
 11
176.313977
 21
200.468656
 31
0.0
  0
LINE
  5
221
100
AcDbEntity
  8
0
  6
HIDDEN
 62
   174
100
AcDbLine
 10
175.313977
 20
167.150288
 30
0.0
 11
175.313977
 21
158.150983
 31
0.0
  0
LINE
  5
222
100
AcDbEntity
  8
0
  6
HIDDEN
 62
   174
100
AcDbLine
 10
158.213977
 20
187.610908
 30
0.0
 11
153.713977
 21
187.610908
 31
0.0
  0
LINE
  5
223
100
AcDbEntity
  8
0
  6
HIDDEN
 62
   174
100
AcDbLine
 10
176.313977
 20
187.610908
 30
0.0
 11
168.713977
 21
187.610908
 31
0.0
  0
LINE
  5
224
100
AcDbEntity
  8
0
  6
HIDDEN
 62
   174
100
AcDbLine
 10
161.113977
 20
187.610908
 30
0.0
 11
159.288395
 21
187.610908
 31
0.0
  0
LINE
  5
225
100
AcDbEntity
  8
0
  6
HIDDEN
 62
   174
100
AcDbLine
 10
175.713977
 20
221.700668
 30
0.0
 11
175.713977
 21
220.699711
 31
0.0
  0
LINE
  5
226
100
AcDbEntity
  8
0
  6
HIDDEN
 62
   174
100
AcDbLine
 10
175.713977
 20
223.79571
 30
0.0
 11
175.713977
 21
221.700668
 31
0.0
  0
LINE
  5
227
100
AcDbEntity
  8
0
  6
HIDDEN
 62
   174
100
AcDbLine
 10
175.713977
 20
224.236708
 30
0.0
 11
175.713977
 21
223.79571
 31
0.0
  0
LINE
  5
228
100
AcDbEntity
  8
0
  6
HIDDEN
 62
   174
100
AcDbLine
 10
162.113977
 20
158.110908
 30
0.0
 11
175.313977
 21
158.110908
 31
0.0
  0
LINE
  5
229
100
AcDbEntity
  8
0
  6
HIDDEN
 62
   174
100
AcDbLine
 10
175.313977
 20
167.150288
 30
0.0
 11
175.313977
 21
158.150983
 31
0.0
  0
LINE
  5
22A
100
AcDbEntity
  8
0
  6
Continuous
 62
   174
100
AcDbLine
 10
173.713977
 20
193.610908
 30
0.0
 11
163.713977
 21
193.610908
 31
0.0
  0
LINE
  5
22B
100
AcDbEntity
  8
0
  6
HIDDEN
 62
   174
100
AcDbLine
 10
183.713977
 20
187.610908
 30
0.0
 11
179.213977
 21
187.610908
 31
0.0
  0
LINE
  5
22C
100
AcDbEntity
  8
0
  6
HIDDEN
 62
   174
100
AcDbLine
 10
175.713977
 20
193.610908
 30
0.0
 11
173.713977
 21
193.610908
 31
0.0
  0
LINE
  5
22D
100
AcDbEntity
  8
0
  6
HIDDEN
 62
   174
100
AcDbLine
 10
179.213977
 20
187.610908
 30
0.0
 11
178.713977
 21
187.610908
 31
0.0
  0
LINE
  5
22E
100
AcDbEntity
  8
0
  6
HIDDEN
 62
   174
100
AcDbLine
 10
163.713977
 20
193.610908
 30
0.0
 11
161.713977
 21
193.610908
 31
0.0
  0
LINE
  5
22F
100
AcDbEntity
  8
0
  6
HIDDEN
 62
   174
100
AcDbLine
 10
161.713977
 20
221.700668
 30
0.0
 11
161.713977
 21
220.563626
 31
0.0
  0
LINE
  5
230
100
AcDbEntity
  8
0
  6
Continuous
 62
   174
100
AcDbLine
 10
176.313977
 20
200.468656
 30
0.0
 11
175.713977
 21
200.468656
 31
0.0
  0
LINE
  5
231
100
AcDbEntity
  8
0
  6
Continuous
 62
   174
100
AcDbLine
 10
161.713977
 20
200.468656
 30
0.0
 11
161.113977
 21
200.468656
 31
0.0
  0
LINE
  5
232
100
AcDbEntity
  8
0
  6
Continuous
 62
   174
100
AcDbLine
 10
173.713977
 20
206.468656
 30
0.0
 11
163.713977
 21
206.468656
 31
0.0
  0
LINE
  5
233
100
AcDbEntity
  8
0
  6
HIDDEN
 62
   174
100
AcDbLine
 10
161.113977
 20
200.468656
 30
0.0
 11
158.713977
 21
200.468656
 31
0.0
  0
LINE
  5
234
100
AcDbEntity
  8
0
  6
HIDDEN
 62
   174
100
AcDbLine
 10
161.113977
 20
200.468656
 30
0.0
 11
158.713977
 21
200.468656
 31
0.0
  0
LINE
  5
235
100
AcDbEntity
  8
0
  6
HIDDEN
 62
   174
100
AcDbLine
 10
161.113977
 20
206.468656
 30
0.0
 11
158.713977
 21
206.468656
 31
0.0
  0
LINE
  5
236
100
AcDbEntity
  8
0
  6
HIDDEN
 62
   174
100
AcDbLine
 10
162.113977
 20
167.110908
 30
0.0
 11
175.313977
 21
167.110908
 31
0.0
  0
LINE
  5
237
100
AcDbEntity
  8
0
  6
Continuous
 62
   174
100
AcDbLine
 10
161.713977
 20
193.610908
 30
0.0
 11
161.113977
 21
193.610908
 31
0.0
  0
LINE
  5
238
100
AcDbEntity
  8
0
  6
HIDDEN
 62
   174
100
AcDbLine
 10
159.288395
 20
187.610908
 30
0.0
 11
158.713977
 21
187.610908
 31
0.0
  0
LINE
  5
239
100
AcDbEntity
  8
0
  6
HIDDEN
 62
   174
100
AcDbLine
 10
178.139559
 20
187.610908
 30
0.0
 11
176.313977
 21
187.610908
 31
0.0
  0
LINE
  5
23A
100
AcDbEntity
  8
0
  6
HIDDEN
 62
   174
100
AcDbLine
 10
168.713977
 20
187.610908
 30
0.0
 11
161.113977
 21
187.610908
 31
0.0
  0
LINE
  5
23B
100
AcDbEntity
  8
0
  6
HIDDEN
 62
   174
100
AcDbLine
 10
183.713977
 20
193.648324
 30
0.0
 11
183.713977
 21
187.648888
 31
0.0
  0
LINE
  5
23C
100
AcDbEntity
  8
0
  6
HIDDEN
 62
   174
100
AcDbLine
 10
178.713977
 20
206.468656
 30
0.0
 11
176.313977
 21
206.468656
 31
0.0
  0
LINE
  5
23D
100
AcDbEntity
  8
0
  6
Continuous
 62
   174
100
AcDbLine
 10
176.313977
 20
206.468656
 30
0.0
 11
175.713977
 21
206.468656
 31
0.0
  0
LINE
  5
23E
100
AcDbEntity
  8
0
  6
HIDDEN
 62
   174
100
AcDbLine
 10
161.113977
 20
206.468656
 30
0.0
 11
158.713977
 21
206.468656
 31
0.0
  0
LINE
  5
23F
100
AcDbEntity
  8
0
  6
HIDDEN
 62
   174
100
AcDbLine
 10
178.713977
 20
202.967563
 30
0.0
 11
178.713977
 21
202.837787
 31
0.0
  0
LINE
  5
240
100
AcDbEntity
  8
0
  6
HIDDEN
 62
   174
100
AcDbLine
 10
162.113977
 20
158.150983
 30
0.0
 11
162.113977
 21
167.150288
 31
0.0
  0
LINE
  5
241
100
AcDbEntity
  8
0
  6
Continuous
 62
   174
100
AcDbLine
 10
172.813977
 20
232.164443
 30
0.0
 11
164.613977
 21
232.164443
 31
0.0
  0
LINE
  5
242
100
AcDbEntity
  8
0
  6
Continuous
 62
   174
100
AcDbLine
 10
172.813977
 20
213.991013
 30
0.0
 11
172.813977
 21
218.163972
 31
0.0
  0
LINE
  5
243
100
AcDbEntity
  8
0
  6
HIDDEN
 62
   174
100
AcDbLine
 10
153.713977
 20
170.110908
 30
0.0
 11
162.113977
 21
170.110908
 31
0.0
  0
LINE
  5
244
100
AcDbEntity
  8
0
  6
Continuous
 62
   174
100
AcDbLine
 10
164.213977
 20
212.600427
 30
0.0
 11
164.213977
 21
212.985249
 31
0.0
  0
LINE
  5
245
100
AcDbEntity
  8
0
  6
HIDDEN
 62
   174
100
AcDbLine
 10
162.113977
 20
170.149856
 30
0.0
 11
162.113977
 21
155.151114
 31
0.0
  0
LINE
  5
246
100
AcDbEntity
  8
0
  6
HIDDEN
 62
   174
100
AcDbLine
 10
178.713977
 20
202.970567
 30
0.0
 11
178.713977
 21
200.505424
 31
0.0
  0
LINE
  5
247
100
AcDbEntity
  8
0
  6
HIDDEN
 62
   174
100
AcDbLine
 10
158.713977
 20
192.372126
 30
0.0
 11
158.713977
 21
191.740919
 31
0.0
  0
LINE
  5
248
100
AcDbEntity
  8
0
  6
Continuous
 62
   174
100
AcDbLine
 10
173.713977
 20
230.199194
 30
0.0
 11
173.713977
 21
225.996795
 31
0.0
  0
LINE
  5
249
100
AcDbEntity
  8
0
  6
Continuous
 62
   174
100
AcDbLine
 10
178.713977
 20
190.671537
 30
0.0
 11
178.713977
 21
188.98575
 31
0.0
  0
LINE
  5
24A
100
AcDbEntity
  8
0
  6
Continuous
 62
   174
100
AcDbLine
 10
160.713977
 20
189.250959
 30
0.0
 11
160.713977
 21
187.017773
 31
0.0
  0
LINE
  5
24B
100
AcDbEntity
  8
0
  6
HIDDEN
 62
   174
100
AcDbLine
 10
172.939739
 20
110.610908
 30
0.0
 11
168.739743
 21
110.610908
 31
0.0
  0
LINE
  5
24C
100
AcDbEntity
  8
0
  6
Continuous
 62
   174
100
AcDbLine
 10
161.113977
 20
195.596745
 30
0.0
 11
161.113977
 21
195.262594
 31
0.0
  0
LINE
  5
24D
100
AcDbEntity
  8
0
  6
Continuous
 62
   174
100
AcDbLine
 10
175.713977
 20
192.765722
 30
0.0
 11
175.713977
 21
193.085172
 31
0.0
  0
LINE
  5
24E
100
AcDbEntity
  8
0
  6
HIDDEN
 62
   174
100
AcDbLine
 10
168.739743
 20
122.610908
 30
0.0
 11
173.739724
 21
122.610908
 31
0.0
  0
LINE
  5
24F
100
AcDbEntity
  8
0
  6
Continuous
 62
   174
100
AcDbLine
 10
158.213977
 20
192.372126
 30
0.0
 11
158.213977
 21
191.740919
 31
0.0
  0
LINE
  5
250
100
AcDbEntity
  8
0
  6
HIDDEN
 62
   174
100
AcDbLine
 10
179.213977
 20
189.98035
 30
0.0
 11
179.213977
 21
191.316562
 31
0.0
  0
LINE
  5
251
100
AcDbEntity
  8
0
  6
Continuous
 62
   174
100
AcDbLine
 10
161.713977
 20
189.250959
 30
0.0
 11
161.713977
 21
192.765722
 31
0.0
  0
LINE
  5
252
100
AcDbEntity
  8
0
  6
HIDDEN
 62
   174
100
AcDbLine
 10
164.539747
 20
125.610908
 30
0.0
 11
168.739743
 21
125.610908
 31
0.0
  0
LINE
  5
253
100
AcDbEntity
  8
0
  6
HIDDEN
 62
   174
100
AcDbLine
 10
164.213977
 20
220.164443
 30
0.0
 11
163.713977
 21
220.164443
 31
0.0
  0
LINE
  5
254
100
AcDbEntity
  8
0
  6
Continuous
 62
   174
100
AcDbLine
 10
164.613977
 20
230.048089
 30
0.0
 11
164.613977
 21
231.61231
 31
0.0
  0
LINE
  5
255
100
AcDbEntity
  8
0
  6
HIDDEN
 62
   174
100
AcDbLine
 10
178.713977
 20
181.210908
 30
0.0
 11
178.713977
 21
181.112766
 31
0.0
  0
LINE
  5
256
100
AcDbEntity
  8
0
  6
Continuous
 62
   174
100
AcDbLine
 10
178.713977
 20
200.444441
 30
0.0
 11
178.713977
 21
202.971168
 31
0.0
  0
LINE
  5
257
100
AcDbEntity
  8
0
  6
Continuous
 62
   174
100
AcDbLine
 10
161.713977
 20
230.164443
 30
0.0
 11
163.713977
 21
230.164443
 31
0.0
  0
LINE
  5
258
100
AcDbEntity
  8
0
  6
Continuous
 62
   174
100
AcDbLine
 10
158.713977
 20
194.170903
 30
0.0
 11
158.713977
 21
192.372126
 31
0.0
  0
LINE
  5
259
100
AcDbEntity
  8
0
  6
Continuous
 62
   174
100
AcDbLine
 10
176.713977
 20
190.404149
 30
0.0
 11
176.713977
 21
187.017773
 31
0.0
  0
LINE
  5
25A
100
AcDbEntity
  8
0
  6
Continuous
 62
   174
100
AcDbLine
 10
161.113977
 20
194.170903
 30
0.0
 11
158.713977
 21
194.170903
 31
0.0
  0
LINE
  5
25B
100
AcDbEntity
  8
0
  6
HIDDEN
 62
   174
100
AcDbLine
 10
164.213977
 20
218.201823
 30
0.0
 11
164.213977
 21
220.161381
 31
0.0
  0
LINE
  5
25C
100
AcDbEntity
  8
0
  6
HIDDEN
 62
   174
100
AcDbLine
 10
172.813977
 20
212.205091
 30
0.0
 11
172.813977
 21
232.199006
 31
0.0
  0
LINE
  5
25D
100
AcDbEntity
  8
0
  6
Continuous
 62
   174
100
AcDbLine
 10
179.213977
 20
192.372126
 30
0.0
 11
179.213977
 21
191.740919
 31
0.0
  0
LINE
  5
25E
100
AcDbEntity
  8
0
  6
HIDDEN
 62
   174
100
AcDbLine
 10
176.313977
 20
190.11373
 30
0.0
 11
176.313977
 21
193.648324
 31
0.0
  0
LINE
  5
25F
100
AcDbEntity
  8
0
  6
Continuous
 62
   174
100
AcDbLine
 10
179.213977
 20
198.610908
 30
0.0
 11
183.713977
 21
198.610908
 31
0.0
  0
LINE
  5
260
100
AcDbEntity
  8
0
  6
Continuous
 62
   174
100
AcDbLine
 10
175.713977
 20
230.199194
 30
0.0
 11
175.713977
 21
225.037293
 31
0.0
  0
LINE
  5
261
100
AcDbEntity
  8
0
  6
HIDDEN
 62
   174
100
AcDbLine
 10
175.713977
 20
220.164443
 30
0.0
 11
173.713977
 21
220.164443
 31
0.0
  0
LINE
  5
262
100
AcDbEntity
  8
0
  6
HIDDEN
 62
   174
100
AcDbLine
 10
164.513977
 20
122.610908
 30
0.0
 11
164.513977
 21
110.610908
 31
0.0
  0
LINE
  5
263
100
AcDbEntity
  8
0
  6
HIDDEN
 62
   174
100
AcDbLine
 10
161.713977
 20
224.199758
 30
0.0
 11
161.713977
 21
222.644849
 31
0.0
  0
LINE
  5
264
100
AcDbEntity
  8
0
  6
Continuous
 62
   174
100
AcDbLine
 10
173.213977
 20
221.909451
 30
0.0
 11
173.213977
 21
224.888592
 31
0.0
  0
LINE
  5
265
100
AcDbEntity
  8
0
  6
Continuous
 62
   174
100
AcDbLine
 10
158.713977
 20
200.444441
 30
0.0
 11
158.713977
 21
202.971168
 31
0.0
  0
ARC
  5
266
100
AcDbEntity
  8
0
  6
Continuous
 62
   174
100
AcDbCircle
 10
168.713977
 20
177.610908
 30
0.0
 40
10.0
100
AcDbArc
 50
-293.578178
 51
-270.0
  0
LINE
  5
267
100
AcDbEntity
  8
0
  6
HIDDEN
 62
   174
100
AcDbLine
 10
168.739743
 20
186.776059
 30
0.0
 11
164.739518
 21
186.776059
 31
0.0
  0
LINE
  5
268
100
AcDbEntity
  8
0
  6
Continuous
 62
   174
100
AcDbLine
 10
178.713977
 20
195.596745
 30
0.0
 11
176.313977
 21
195.596745
 31
0.0
  0
LINE
  5
269
100
AcDbEntity
  8
0
  6
Continuous
 62
   174
100
AcDbLine
 10
176.313977
 20
195.262594
 30
0.0
 11
176.313977
 21
194.261805
 31
0.0
  0
LWPOLYLINE
  5
26A
100
AcDbEntity
  8
0
  6
Continuous
 62
   174
100
AcDbPolyline
 90
        4
 70
   128
 10
176.713977
 20
187.017773
 10
177.713977
 20
187.281432
 10
178.446028
 20
188.001762
 10
178.713977
 20
188.98575
  0
LINE
  5
26B
100
AcDbEntity
  8
0
  6
HIDDEN
 62
   174
100
AcDbLine
 10
161.113977
 20
191.740919
 30
0.0
 11
161.113977
 21
190.671537
 31
0.0
  0
LINE
  5
26C
100
AcDbEntity
  8
0
  6
HIDDEN
 62
   174
100
AcDbLine
 10
158.713977
 20
192.087407
 30
0.0
 11
158.713977
 21
193.648324
 31
0.0
  0
LINE
  5
26D
100
AcDbEntity
  8
0
  6
Continuous
 62
   174
100
AcDbLine
 10
175.713977
 20
193.085172
 30
0.0
 11
175.713977
 21
194.170903
 31
0.0
  0
LINE
  5
26E
100
AcDbEntity
  8
0
  6
Continuous
 62
   174
100
AcDbLine
 10
172.813977
 20
212.600427
 30
0.0
 11
172.813977
 21
213.991013
 31
0.0
  0
LINE
  5
26F
100
AcDbEntity
  8
0
  6
Continuous
 62
   174
100
AcDbLine
 10
172.813977
 20
230.048089
 30
0.0
 11
172.813977
 21
231.61231
 31
0.0
  0
LINE
  5
270
100
AcDbEntity
  8
0
  6
HIDDEN
 62
   174
100
AcDbLine
 10
158.713977
 20
191.740919
 30
0.0
 11
158.713977
 21
190.671537
 31
0.0
  0
LINE
  5
271
100
AcDbEntity
  8
0
  6
Continuous
 62
   174
100
AcDbLine
 10
158.213977
 20
191.740919
 30
0.0
 11
158.213977
 21
190.671537
 31
0.0
  0
LINE
  5
272
100
AcDbEntity
  8
0
  6
HIDDEN
 62
   174
100
AcDbLine
 10
176.313977
 20
200.505424
 30
0.0
 11
176.313977
 21
202.970567
 31
0.0
  0
LINE
  5
273
100
AcDbEntity
  8
0
  6
HIDDEN
 62
   174
100
AcDbLine
 10
163.713977
 20
220.164443
 30
0.0
 11
161.713977
 21
220.164443
 31
0.0
  0
LINE
  5
274
100
AcDbEntity
  8
0
  6
HIDDEN
 62
   174
100
AcDbLine
 10
173.713977
 20
224.164443
 30
0.0
 11
173.213977
 21
224.164443
 31
0.0
  0
LINE
  5
275
100
AcDbEntity
  8
0
  6
HIDDEN
 62
   174
100
AcDbLine
 10
161.113977
 20
187.648888
 30
0.0
 11
161.113977
 21
190.11373
 31
0.0
  0
LINE
  5
276
100
AcDbEntity
  8
0
  6
HIDDEN
 62
   174
100
AcDbLine
 10
178.713977
 20
206.50516
 30
0.0
 11
178.713977
 21
202.967563
 31
0.0
  0
LINE
  5
277
100
AcDbEntity
  8
0
  6
HIDDEN
 62
   174
100
AcDbLine
 10
163.713977
 20
122.610908
 30
0.0
 11
163.713977
 21
110.610908
 31
0.0
  0
LINE
  5
278
100
AcDbEntity
  8
0
  6
HIDDEN
 62
   174
100
AcDbLine
 10
172.913977
 20
122.610908
 30
0.0
 11
172.913977
 21
110.610908
 31
0.0
  0
LINE
  5
279
100
AcDbEntity
  8
0
  6
Continuous
 62
   174
100
AcDbLine
 10
173.213977
 20
231.234698
 30
0.0
 11
173.213977
 21
231.794658
 31
0.0
  0
LINE
  5
27A
100
AcDbEntity
  8
0
  6
Continuous
 62
   174
100
AcDbLine
 10
179.213977
 20
191.740919
 30
0.0
 11
179.213977
 21
190.671537
 31
0.0
  0
LINE
  5
27B
100
AcDbEntity
  8
0
  6
HIDDEN
 62
   174
100
AcDbLine
 10
175.713977
 20
193.122611
 30
0.0
 11
175.713977
 21
192.300997
 31
0.0
  0
LINE
  5
27C
100
AcDbEntity
  8
0
  6
HIDDEN
 62
   174
100
AcDbLine
 10
175.713977
 20
192.765722
 30
0.0
 11
173.713977
 21
192.765722
 31
0.0
  0
LINE
  5
27D
100
AcDbEntity
  8
0
  6
Continuous
 62
   174
100
AcDbLine
 10
161.713977
 20
192.765722
 30
0.0
 11
161.713977
 21
194.170903
 31
0.0
  0
LINE
  5
27E
100
AcDbEntity
  8
0
  6
Continuous
 62
   174
100
AcDbLine
 10
175.713977
 20
223.590285
 30
0.0
 11
175.713977
 21
211.468825
 31
0.0
  0
LINE
  5
27F
100
AcDbEntity
  8
0
  6
HIDDEN
 62
   174
100
AcDbLine
 10
173.713977
 20
220.164443
 30
0.0
 11
173.213977
 21
220.164443
 31
0.0
  0
LINE
  5
280
100
AcDbEntity
  8
0
  6
HIDDEN
 62
   174
100
AcDbLine
 10
172.939739
 20
110.610908
 30
0.0
 11
168.739743
 21
110.610908
 31
0.0
  0
LINE
  5
281
100
AcDbEntity
  8
0
  6
Continuous
 62
   174
100
AcDbLine
 10
172.813977
 20
212.164443
 30
0.0
 11
164.613977
 21
212.164443
 31
0.0
  0
LINE
  5
282
100
AcDbEntity
  8
0
  6
Continuous
 62
   174
100
AcDbLine
 10
164.613977
 20
224.937558
 30
0.0
 11
164.613977
 21
230.048089
 31
0.0
  0
LINE
  5
283
100
AcDbEntity
  8
0
  6
HIDDEN
 62
   174
100
AcDbLine
 10
175.713977
 20
202.970567
 30
0.0
 11
175.713977
 21
200.505424
 31
0.0
  0
LINE
  5
284
100
AcDbEntity
  8
0
  6
HIDDEN
 62
   174
100
AcDbLine
 10
179.213977
 20
191.316562
 30
0.0
 11
179.213977
 21
192.521195
 31
0.0
  0
LINE
  5
285
100
AcDbEntity
  8
0
  6
HIDDEN
 62
   174
100
AcDbLine
 10
178.713977
 20
206.50516
 30
0.0
 11
178.713977
 21
202.970567
 31
0.0
  0
LINE
  5
286
100
AcDbEntity
  8
0
  6
Continuous
 62
   174
100
AcDbLine
 10
173.713977
 20
192.265
 30
0.0
 11
173.713977
 21
193.085172
 31
0.0
  0
LINE
  5
287
100
AcDbEntity
  8
0
  6
HIDDEN
 62
   174
100
AcDbLine
 10
164.613977
 20
212.205091
 30
0.0
 11
164.613977
 21
232.199006
 31
0.0
  0
LINE
  5
288
100
AcDbEntity
  8
0
  6
Continuous
 62
   174
100
AcDbLine
 10
161.113977
 20
195.262594
 30
0.0
 11
161.113977
 21
194.170903
 31
0.0
  0
LINE
  5
289
100
AcDbEntity
  8
0
  6
HIDDEN
 62
   174
100
AcDbLine
 10
178.713977
 20
181.112766
 30
0.0
 11
176.313977
 21
181.112766
 31
0.0
  0
LINE
  5
28A
100
AcDbEntity
  8
0
  6
Continuous
 62
   174
100
AcDbLine
 10
178.713977
 20
195.634017
 30
0.0
 11
178.713977
 21
200.444441
 31
0.0
  0
LINE
  5
28B
100
AcDbEntity
  8
0
  6
Continuous
 62
   174
100
AcDbLine
 10
176.313977
 20
194.261805
 30
0.0
 11
176.313977
 21
194.170903
 31
0.0
  0
LINE
  5
28C
100
AcDbEntity
  8
0
  6
Continuous
 62
   174
100
AcDbLine
 10
163.713977
 20
230.199194
 30
0.0
 11
163.713977
 21
226.201372
 31
0.0
  0
LINE
  5
28D
100
AcDbEntity
  8
0
  6
HIDDEN
 62
   174
100
AcDbLine
 10
158.713977
 20
202.837787
 30
0.0
 11
158.713977
 21
200.505424
 31
0.0
  0
LINE
  5
28E
100
AcDbEntity
  8
0
  6
Continuous
 62
   174
100
AcDbLine
 10
161.113977
 20
211.468656
 30
0.0
 11
158.713977
 21
211.468656
 31
0.0
  0
LINE
  5
28F
100
AcDbEntity
  8
0
  6
Continuous
 62
   174
100
AcDbLine
 10
173.213977
 20
218.958549
 30
0.0
 11
173.213977
 21
221.909451
 31
0.0
  0
LINE
  5
290
100
AcDbEntity
  8
0
  6
HIDDEN
 62
   174
100
AcDbLine
 10
158.213977
 20
193.648324
 30
0.0
 11
158.213977
 21
193.349118
 31
0.0
  0
LINE
  5
291
100
AcDbEntity
  8
0
  6
Continuous
 62
   174
100
AcDbLine
 10
173.713977
 20
223.590285
 30
0.0
 11
173.713977
 21
212.566562
 31
0.0
  0
LINE
  5
292
100
AcDbEntity
  8
0
  6
Continuous
 62
   174
100
AcDbLine
 10
176.713977
 20
190.404149
 30
0.0
 11
175.713977
 21
190.404149
 31
0.0
  0
LINE
  5
293
100
AcDbEntity
  8
0
  6
Continuous
 62
   174
100
AcDbLine
 10
163.713977
 20
223.590285
 30
0.0
 11
163.713977
 21
212.566562
 31
0.0
  0
LINE
  5
294
100
AcDbEntity
  8
0
  6
Continuous
 62
   174
100
AcDbLine
 10
158.213977
 20
190.671537
 30
0.0
 11
158.213977
 21
188.98575
 31
0.0
  0
LINE
  5
295
100
AcDbEntity
  8
0
  6
Continuous
 62
   174
100
AcDbLine
 10
183.713977
 20
198.610908
 30
0.0
 11
183.713977
 21
179.610908
 31
0.0
  0
LINE
  5
296
100
AcDbEntity
  8
0
  6
Continuous
 62
   174
100
AcDbLine
 10
164.713977
 20
179.610908
 30
0.0
 11
164.713977
 21
186.776059
 31
0.0
  0
LWPOLYLINE
  5
297
100
AcDbEntity
  8
0
  6
Continuous
 62
   174
100
AcDbPolyline
 90
        4
 70
   128
 10
178.713977
 20
192.372126
 10
178.446028
 20
191.388138
 10
177.713977
 20
190.667808
 10
176.713977
 20
190.404149
  0
LINE
  5
298
100
AcDbEntity
  8
0
  6
HIDDEN
 62
   174
100
AcDbLine
 10
173.713977
 20
122.610908
 30
0.0
 11
173.713977
 21
110.610908
 31
0.0
  0
LINE
  5
299
100
AcDbEntity
  8
0
  6
HIDDEN
 62
   174
100
AcDbLine
 10
168.739743
 20
110.610908
 30
0.0
 11
173.739724
 21
110.610908
 31
0.0
  0
LINE
  5
29A
100
AcDbEntity
  8
0
  6
HIDDEN
 62
   174
100
AcDbLine
 10
175.713977
 20
220.952954
 30
0.0
 11
175.713977
 21
220.199833
 31
0.0
  0
LINE
  5
29B
100
AcDbEntity
  8
0
  6
Continuous
 62
   174
100
AcDbLine
 10
161.113977
 20
195.596745
 30
0.0
 11
158.713977
 21
195.596745
 31
0.0
  0
LINE
  5
29C
100
AcDbEntity
  8
0
  6
HIDDEN
 62
   174
100
AcDbLine
 10
168.739743
 20
110.610908
 30
0.0
 11
164.539747
 21
110.610908
 31
0.0
  0
LINE
  5
29D
100
AcDbEntity
  8
0
  6
HIDDEN
 62
   174
100
AcDbLine
 10
164.213977
 20
220.161381
 30
0.0
 11
164.213977
 21
224.232802
 31
0.0
  0
LINE
  5
29E
100
AcDbEntity
  8
0
  6
Continuous
 62
   174
100
AcDbLine
 10
158.713977
 20
195.634017
 30
0.0
 11
158.713977
 21
200.444441
 31
0.0
  0
LINE
  5
29F
100
AcDbEntity
  8
0
  6
HIDDEN
 62
   174
100
AcDbLine
 10
173.213977
 20
224.164443
 30
0.0
 11
164.213977
 21
224.164443
 31
0.0
  0
LINE
  5
2A0
100
AcDbEntity
  8
0
  6
Continuous
 62
   174
100
AcDbLine
 10
172.813977
 20
212.200584
 30
0.0
 11
172.813977
 21
212.600427
 31
0.0
  0
LINE
  5
2A1
100
AcDbEntity
  8
0
  6
HIDDEN
 62
   174
100
AcDbLine
 10
153.713977
 20
170.110908
 30
0.0
 11
162.113977
 21
170.110908
 31
0.0
  0
LINE
  5
2A2
100
AcDbEntity
  8
0
  6
Continuous
 62
   174
100
AcDbLine
 10
179.213977
 20
190.671537
 30
0.0
 11
179.213977
 21
188.98575
 31
0.0
  0
LINE
  5
2A3
100
AcDbEntity
  8
0
  6
Continuous
 62
   174
100
AcDbLine
 10
178.713977
 20
195.596745
 30
0.0
 11
178.713977
 21
194.170903
 31
0.0
  0
LINE
  5
2A4
100
AcDbEntity
  8
0
  6
Continuous
 62
   174
100
AcDbLine
 10
173.713977
 20
193.085172
 30
0.0
 11
173.713977
 21
194.261805
 31
0.0
  0
LINE
  5
2A5
100
AcDbEntity
  8
0
  6
HIDDEN
 62
   174
100
AcDbLine
 10
173.213977
 20
220.164443
 30
0.0
 11
164.213977
 21
220.164443
 31
0.0
  0
LINE
  5
2A6
100
AcDbEntity
  8
0
  6
Continuous
 62
   174
100
AcDbLine
 10
176.313977
 20
194.170903
 30
0.0
 11
176.313977
 21
193.085172
 31
0.0
  0
LINE
  5
2A7
100
AcDbEntity
  8
0
  6
Continuous
 62
   174
100
AcDbLine
 10
161.713977
 20
194.170903
 30
0.0
 11
161.713977
 21
195.262594
 31
0.0
  0
LINE
  5
2A8
100
AcDbEntity
  8
0
  6
Continuous
 62
   174
100
AcDbLine
 10
172.813977
 20
224.937558
 30
0.0
 11
172.813977
 21
230.048089
 31
0.0
  0
LINE
  5
2A9
100
AcDbEntity
  8
0
  6
Continuous
 62
   174
100
AcDbLine
 10
164.213977
 20
231.234698
 30
0.0
 11
164.213977
 21
231.794658
 31
0.0
  0
LINE
  5
2AA
100
AcDbEntity
  8
0
  6
HIDDEN
 62
   174
100
AcDbLine
 10
173.713977
 20
200.505424
 30
0.0
 11
173.713977
 21
202.970567
 31
0.0
  0
LINE
  5
2AB
100
AcDbEntity
  8
0
  6
HIDDEN
 62
   174
100
AcDbLine
 10
164.513977
 20
122.610908
 30
0.0
 11
164.513977
 21
110.610908
 31
0.0
  0
LINE
  5
2AC
100
AcDbEntity
  8
0
  6
HIDDEN
 62
   174
100
AcDbLine
 10
158.713977
 20
190.671537
 30
0.0
 11
158.713977
 21
188.98575
 31
0.0
  0
LINE
  5
2AD
100
AcDbEntity
  8
0
  6
Continuous
 62
   174
100
AcDbLine
 10
176.313977
 20
192.765722
 30
0.0
 11
175.713977
 21
192.765722
 31
0.0
  0
LINE
  5
2AE
100
AcDbEntity
  8
0
  6
HIDDEN
 62
   174
100
AcDbLine
 10
153.713977
 20
155.110908
 30
0.0
 11
162.113977
 21
155.110908
 31
0.0
  0
LINE
  5
2AF
100
AcDbEntity
  8
0
  6
Continuous
 62
   174
100
AcDbLine
 10
164.613977
 20
221.897435
 30
0.0
 11
164.613977
 21
224.937558
 31
0.0
  0
LINE
  5
2B0
100
AcDbEntity
  8
0
  6
Continuous
 62
   174
100
AcDbLine
 10
158.213977
 20
188.98575
 30
0.0
 11
158.213977
 21
183.980413
 31
0.0
  0
LINE
  5
2B1
100
AcDbEntity
  8
0
  6
Continuous
 62
   174
100
AcDbLine
 10
168.739743
 20
186.776059
 30
0.0
 11
167.507172
 21
186.776059
 31
0.0
  0
LINE
  5
2B2
100
AcDbEntity
  8
0
  6
Continuous
 62
   174
100
AcDbLine
 10
167.507172
 20
186.776059
 30
0.0
 11
164.739518
 21
186.776059
 31
0.0
  0
LINE
  5
2B3
100
AcDbEntity
  8
0
  6
HIDDEN
 62
   174
100
AcDbLine
 10
172.739668
 20
186.776059
 30
0.0
 11
168.739743
 21
186.776059
 31
0.0
  0
LINE
  5
2B4
100
AcDbEntity
  8
0
  6
HIDDEN
 62
   174
100
AcDbLine
 10
163.713977
 20
192.765722
 30
0.0
 11
161.713977
 21
192.765722
 31
0.0
  0
LINE
  5
2B5
100
AcDbEntity
  8
0
  6
Continuous
 62
   174
100
AcDbLine
 10
173.713977
 20
194.261805
 30
0.0
 11
173.713977
 21
195.262594
 31
0.0
  0
LINE
  5
2B6
100
AcDbEntity
  8
0
  6
HIDDEN
 62
   174
100
AcDbLine
 10
171.555856
 20
187.017773
 30
0.0
 11
168.713977
 21
187.017773
 31
0.0
  0
LINE
  5
2B7
100
AcDbEntity
  8
0
  6
Continuous
 62
   174
100
AcDbLine
 10
173.713977
 20
190.404149
 30
0.0
 11
163.713977
 21
190.404149
 31
0.0
  0
LINE
  5
2B8
100
AcDbEntity
  8
0
  6
Continuous
 62
   174
100
AcDbLine
 10
175.713977
 20
211.468825
 30
0.0
 11
175.713977
 21
195.596745
 31
0.0
  0
LINE
  5
2B9
100
AcDbEntity
  8
0
  6
Continuous
 62
   174
100
AcDbLine
 10
153.713977
 20
110.610908
 30
0.0
 11
153.713977
 21
179.610908
 31
0.0
  0
LINE
  5
2BA
100
AcDbEntity
  8
0
  6
Continuous
 62
   174
100
AcDbLine
 10
173.213977
 20
212.985249
 30
0.0
 11
173.213977
 21
218.958549
 31
0.0
  0
LINE
  5
2BB
100
AcDbEntity
  8
0
  6
HIDDEN
 62
   174
100
AcDbLine
 10
173.713977
 20
192.300997
 30
0.0
 11
173.713977
 21
193.122611
 31
0.0
  0
LINE
  5
2BC
100
AcDbEntity
  8
0
  6
HIDDEN
 62
   174
100
AcDbLine
 10
175.713977
 20
194.300809
 30
0.0
 11
175.713977
 21
193.633003
 31
0.0
  0
LINE
  5
2BD
100
AcDbEntity
  8
0
  6
HIDDEN
 62
   174
100
AcDbLine
 10
179.213977
 20
192.521195
 30
0.0
 11
179.213977
 21
193.349118
 31
0.0
  0
LINE
  5
2BE
100
AcDbEntity
  8
0
  6
HIDDEN
 62
   174
100
AcDbLine
 10
158.213977
 20
193.349118
 30
0.0
 11
158.213977
 21
192.521195
 31
0.0
  0
LINE
  5
2BF
100
AcDbEntity
  8
0
  6
HIDDEN
 62
   174
100
AcDbLine
 10
164.213977
 20
224.164443
 30
0.0
 11
163.713977
 21
224.164443
 31
0.0
  0
LINE
  5
2C0
100
AcDbEntity
  8
0
  6
Continuous
 62
   174
100
AcDbLine
 10
179.213977
 20
188.98575
 30
0.0
 11
179.213977
 21
183.980413
 31
0.0
  0
LINE
  5
2C1
100
AcDbEntity
  8
0
  6
Continuous
 62
   174
100
AcDbLine
 10
178.713977
 20
211.468656
 30
0.0
 11
176.313977
 21
211.468656
 31
0.0
  0
LINE
  5
2C2
100
AcDbEntity
  8
0
  6
HIDDEN
 62
   174
100
AcDbLine
 10
153.713977
 20
193.610908
 30
0.0
 11
158.213977
 21
193.610908
 31
0.0
  0
LINE
  5
2C3
100
AcDbEntity
  8
0
  6
Continuous
 62
   174
100
AcDbLine
 10
176.313977
 20
187.017773
 30
0.0
 11
176.313977
 21
183.980413
 31
0.0
  0
LINE
  5
2C4
100
AcDbEntity
  8
0
  6
Continuous
 62
   174
100
AcDbLine
 10
161.713977
 20
223.590285
 30
0.0
 11
161.713977
 21
211.468825
 31
0.0
  0
LINE
  5
2C5
100
AcDbEntity
  8
0
  6
HIDDEN
 62
   174
100
AcDbLine
 10
168.739743
 20
125.610908
 30
0.0
 11
172.939739
 21
125.610908
 31
0.0
  0
LINE
  5
2C6
100
AcDbEntity
  8
0
  6
HIDDEN
 62
   174
100
AcDbLine
 10
164.213977
 20
220.164443
 30
0.0
 11
163.713977
 21
220.164443
 31
0.0
  0
LINE
  5
2C7
100
AcDbEntity
  8
0
  6
HIDDEN
 62
   174
100
AcDbLine
 10
173.213977
 20
226.19957
 30
0.0
 11
173.213977
 21
224.232802
 31
0.0
  0
LINE
  5
2C8
100
AcDbEntity
  8
0
  6
Continuous
 62
   174
100
AcDbLine
 10
173.213977
 20
229.799051
 30
0.0
 11
173.213977
 21
231.234698
 31
0.0
  0
LINE
  5
2C9
100
AcDbEntity
  8
0
  6
HIDDEN
 62
   174
100
AcDbLine
 10
178.713977
 20
190.671537
 30
0.0
 11
178.713977
 21
188.98575
 31
0.0
  0
LINE
  5
2CA
100
AcDbEntity
  8
0
  6
Continuous
 62
   174
100
AcDbLine
 10
161.713977
 20
189.250959
 30
0.0
 11
163.713977
 21
189.250959
 31
0.0
  0
LINE
  5
2CB
100
AcDbEntity
  8
0
  6
Continuous
 62
   174
100
AcDbLine
 10
173.713977
 20
212.566562
 30
0.0
 11
173.713977
 21
195.262594
 31
0.0
  0
LINE
  5
2CC
100
AcDbEntity
  8
0
  6
HIDDEN
 62
   174
100
AcDbLine
 10
168.739743
 20
110.610908
 30
0.0
 11
164.539747
 21
110.610908
 31
0.0
  0
LINE
  5
2CD
100
AcDbEntity
  8
0
  6
HIDDEN
 62
   174
100
AcDbLine
 10
164.213977
 20
224.232802
 30
0.0
 11
164.213977
 21
226.19957
 31
0.0
  0
LINE
  5
2CE
100
AcDbEntity
  8
0
  6
Continuous
 62
   174
100
AcDbLine
 10
172.813977
 20
232.1945
 30
0.0
 11
172.813977
 21
232.199006
 31
0.0
  0
LINE
  5
2CF
100
AcDbEntity
  8
0
  6
Continuous
 62
   174
100
AcDbLine
 10
161.113977
 20
196.828437
 30
0.0
 11
161.113977
 21
211.504841
 31
0.0
  0
LINE
  5
2D0
100
AcDbEntity
  8
0
  6
Continuous
 62
   174
100
AcDbLine
 10
163.713977
 20
212.566562
 30
0.0
 11
163.713977
 21
195.262594
 31
0.0
  0
LINE
  5
2D1
100
AcDbEntity
  8
0
  6
HIDDEN
 62
   174
100
AcDbLine
 10
168.739743
 20
122.610908
 30
0.0
 11
173.739724
 21
122.610908
 31
0.0
  0
LINE
  5
2D2
100
AcDbEntity
  8
0
  6
Continuous
 62
   174
100
AcDbLine
 10
153.713977
 20
110.610908
 30
0.0
 11
183.713977
 21
110.610908
 31
0.0
  0
LINE
  5
2D3
100
AcDbEntity
  8
0
  6
HIDDEN
 62
   174
100
AcDbLine
 10
153.713977
 20
187.648888
 30
0.0
 11
153.713977
 21
193.648324
 31
0.0
  0
LINE
  5
2D4
100
AcDbEntity
  8
0
  6
Continuous
 62
   174
100
AcDbLine
 10
173.713977
 20
192.765722
 30
0.0
 11
163.713977
 21
192.765722
 31
0.0
  0
LINE
  5
2D5
100
AcDbEntity
  8
0
  6
Continuous
 62
   174
100
AcDbLine
 10
176.713977
 20
187.017773
 30
0.0
 11
172.713977
 21
187.017773
 31
0.0
  0
LINE
  5
2D6
100
AcDbEntity
  8
0
  6
HIDDEN
 62
   174
100
AcDbLine
 10
158.713977
 20
202.967563
 30
0.0
 11
158.713977
 21
202.837787
 31
0.0
  0
LINE
  5
2D7
100
AcDbEntity
  8
0
  6
Continuous
 62
   174
100
AcDbLine
 10
158.213977
 20
183.980413
 30
0.0
 11
158.213977
 21
181.210908
 31
0.0
  0
LINE
  5
2D8
100
AcDbEntity
  8
0
  6
Continuous
 62
   174
100
AcDbLine
 10
176.313977
 20
193.085172
 30
0.0
 11
176.313977
 21
192.765722
 31
0.0
  0
LINE
  5
2D9
100
AcDbEntity
  8
0
  6
Continuous
 62
   174
100
AcDbLine
 10
173.713977
 20
230.164443
 30
0.0
 11
175.713977
 21
230.164443
 31
0.0
  0
LINE
  5
2DA
100
AcDbEntity
  8
0
  6
Continuous
 62
   174
100
AcDbLine
 10
161.713977
 20
190.404149
 30
0.0
 11
160.713977
 21
190.404149
 31
0.0
  0
LINE
  5
2DB
100
AcDbEntity
  8
0
  6
Continuous
 62
   174
100
AcDbLine
 10
160.713977
 20
190.404149
 30
0.0
 11
160.713977
 21
189.250959
 31
0.0
  0
LINE
  5
2DC
100
AcDbEntity
  8
0
  6
Continuous
 62
   174
100
AcDbLine
 10
172.813977
 20
221.897435
 30
0.0
 11
172.813977
 21
224.937558
 31
0.0
  0
LINE
  5
2DD
100
AcDbEntity
  8
0
  6
Continuous
 62
   174
100
AcDbLine
 10
158.713977
 20
206.52679
 30
0.0
 11
158.713977
 21
211.504841
 31
0.0
  0
LINE
  5
2DE
100
AcDbEntity
  8
0
  6
HIDDEN
 62
   174
100
AcDbLine
 10
179.213977
 20
187.610908
 30
0.0
 11
183.713977
 21
187.610908
 31
0.0
  0
LINE
  5
2DF
100
AcDbEntity
  8
0
  6
HIDDEN
 62
   174
100
AcDbLine
 10
161.113977
 20
202.970567
 30
0.0
 11
161.113977
 21
206.50516
 31
0.0
  0
LINE
  5
2E0
100
AcDbEntity
  8
0
  6
HIDDEN
 62
   174
100
AcDbLine
 10
161.113977
 20
190.11373
 30
0.0
 11
161.113977
 21
193.648324
 31
0.0
  0
LINE
  5
2E1
100
AcDbEntity
  8
0
  6
Continuous
 62
   174
100
AcDbLine
 10
175.713977
 20
195.596745
 30
0.0
 11
175.713977
 21
195.262594
 31
0.0
  0
LINE
  5
2E2
100
AcDbEntity
  8
0
  6
HIDDEN
 62
   174
100
AcDbLine
 10
163.713977
 20
224.164443
 30
0.0
 11
161.713977
 21
224.164443
 31
0.0
  0
LINE
  5
2E3
100
AcDbEntity
  8
0
  6
Continuous
 62
   174
100
AcDbLine
 10
161.113977
 20
183.980413
 30
0.0
 11
158.713977
 21
183.980413
 31
0.0
  0
LINE
  5
2E4
100
AcDbEntity
  8
0
  6
Continuous
 62
   174
100
AcDbLine
 10
179.213977
 20
183.980413
 30
0.0
 11
179.213977
 21
181.210908
 31
0.0
  0
LINE
  5
2E5
100
AcDbEntity
  8
0
  6
HIDDEN
 62
   174
100
AcDbLine
 10
175.713977
 20
206.50516
 30
0.0
 11
175.713977
 21
202.970567
 31
0.0
  0
LINE
  5
2E6
100
AcDbEntity
  8
0
  6
HIDDEN
 62
   174
100
AcDbLine
 10
179.213977
 20
187.610908
 30
0.0
 11
183.713977
 21
187.610908
 31
0.0
  0
LINE
  5
2E7
100
AcDbEntity
  8
0
  6
HIDDEN
 62
   174
100
AcDbLine
 10
158.713977
 20
200.505424
 30
0.0
 11
158.713977
 21
202.970567
 31
0.0
  0
LINE
  5
2E8
100
AcDbEntity
  8
0
  6
HIDDEN
 62
   174
100
AcDbLine
 10
158.713977
 20
187.648888
 30
0.0
 11
158.713977
 21
189.114876
 31
0.0
  0
LINE
  5
2E9
100
AcDbEntity
  8
0
  6
HIDDEN
 62
   174
100
AcDbLine
 10
163.713977
 20
220.164443
 30
0.0
 11
161.713977
 21
220.164443
 31
0.0
  0
LINE
  5
2EA
100
AcDbEntity
  8
0
  6
HIDDEN
 62
   174
100
AcDbLine
 10
175.713977
 20
222.644849
 30
0.0
 11
175.713977
 21
220.952954
 31
0.0
  0
LINE
  5
2EB
100
AcDbEntity
  8
0
  6
Continuous
 62
   174
100
AcDbLine
 10
173.213977
 20
212.600427
 30
0.0
 11
173.213977
 21
212.985249
 31
0.0
  0
LINE
  5
2EC
100
AcDbEntity
  8
0
  6
HIDDEN
 62
   174
100
AcDbLine
 10
153.713977
 20
155.151114
 30
0.0
 11
153.713977
 21
170.149856
 31
0.0
  0
LINE
  5
2ED
100
AcDbEntity
  8
0
  6
Continuous
 62
   174
100
AcDbLine
 10
169.972014
 20
186.776059
 30
0.0
 11
168.739743
 21
186.776059
 31
0.0
  0
LINE
  5
2EE
100
AcDbEntity
  8
0
  6
HIDDEN
 62
   174
100
AcDbLine
 10
158.213977
 20
192.521195
 30
0.0
 11
158.213977
 21
191.316562
 31
0.0
  0
LINE
  5
2EF
100
AcDbEntity
  8
0
  6
Continuous
 62
   174
100
AcDbLine
 10
176.313977
 20
183.980413
 30
0.0
 11
176.313977
 21
181.210908
 31
0.0
  0
LINE
  5
2F0
100
AcDbEntity
  8
0
  6
HIDDEN
 62
   174
100
AcDbLine
 10
163.739762
 20
122.610908
 30
0.0
 11
168.739743
 21
122.610908
 31
0.0
  0
LINE
  5
2F1
100
AcDbEntity
  8
0
  6
Continuous
 62
   174
100
AcDbLine
 10
164.613977
 20
218.88555
 30
0.0
 11
164.613977
 21
221.897435
 31
0.0
  0
LINE
  5
2F2
100
AcDbEntity
  8
0
  6
HIDDEN
 62
   174
100
AcDbLine
 10
158.713977
 20
181.210908
 30
0.0
 11
158.713977
 21
181.112766
 31
0.0
  0
LINE
  5
2F3
100
AcDbEntity
  8
0
  6
HIDDEN
 62
   174
100
AcDbLine
 10
179.213977
 20
193.349118
 30
0.0
 11
179.213977
 21
193.648324
 31
0.0
  0
LINE
  5
2F4
100
AcDbEntity
  8
0
  6
HIDDEN
 62
   174
100
AcDbLine
 10
172.913977
 20
110.610908
 30
0.0
 11
172.913977
 21
125.610908
 31
0.0
  0
LINE
  5
2F5
100
AcDbEntity
  8
0
  6
HIDDEN
 62
   174
100
AcDbLine
 10
179.213977
 20
193.610908
 30
0.0
 11
183.713977
 21
193.610908
 31
0.0
  0
LINE
  5
2F6
100
AcDbEntity
  8
0
  6
Continuous
 62
   174
100
AcDbLine
 10
161.713977
 20
192.765722
 30
0.0
 11
161.113977
 21
192.765722
 31
0.0
  0
LINE
  5
2F7
100
AcDbEntity
  8
0
  6
HIDDEN
 62
   174
100
AcDbLine
 10
173.213977
 20
224.232802
 30
0.0
 11
173.213977
 21
220.161381
 31
0.0
  0
LINE
  5
2F8
100
AcDbEntity
  8
0
  6
HIDDEN
 62
   174
100
AcDbLine
 10
173.213977
 20
212.564443
 30
0.0
 11
172.813977
 21
212.164443
 31
0.0
  0
LINE
  5
2F9
100
AcDbEntity
  8
0
  6
Continuous
 62
   174
100
AcDbLine
 10
164.213977
 20
229.799051
 30
0.0
 11
164.213977
 21
231.234698
 31
0.0
  0
LINE
  5
2FA
100
AcDbEntity
  8
0
  6
Continuous
 62
   174
100
AcDbLine
 10
153.713977
 20
198.610908
 30
0.0
 11
153.713977
 21
179.610908
 31
0.0
  0
ARC
  5
2FB
100
AcDbEntity
  8
0
  6
Continuous
 62
   174
100
AcDbCircle
 10
168.713977
 20
177.610908
 30
0.0
 40
10.0
100
AcDbArc
 50
90.0
 51
113.578178
  0
LINE
  5
2FC
100
AcDbEntity
  8
0
  6
Continuous
 62
   174
100
AcDbLine
 10
158.213977
 20
181.210908
 30
0.0
 11
158.713977
 21
181.210908
 31
0.0
  0
LINE
  5
2FD
100
AcDbEntity
  8
0
  6
Continuous
 62
   174
100
AcDbLine
 10
161.713977
 20
211.468825
 30
0.0
 11
161.713977
 21
195.596745
 31
0.0
  0
LINE
  5
2FE
100
AcDbEntity
  8
0
  6
Continuous
 62
   174
100
AcDbLine
 10
165.872098
 20
187.017773
 30
0.0
 11
164.713977
 21
187.017773
 31
0.0
  0
LWPOLYLINE
  5
2FF
100
AcDbEntity
  8
0
  6
Continuous
 62
   174
100
AcDbPolyline
 90
        4
 70
   128
 10
158.713977
 20
188.98575
 10
158.981926
 20
188.001762
 10
159.713977
 20
187.281432
 10
160.713977
 20
187.017773
  0
LWPOLYLINE
  5
300
100
AcDbEntity
  8
0
  6
Continuous
 62
   174
100
AcDbPolyline
 90
        5
 70
   128
 10
160.713977
 20
190.404149
 10
159.94861
 20
190.553952
 10
159.299764
 20
190.980556
 10
158.866218
 20
191.619014
 10
158.713977
 20
192.372126
  0
LINE
  5
301
100
AcDbEntity
  8
0
  6
Continuous
 62
   174
100
AcDbLine
 10
164.613977
 20
232.1945
 30
0.0
 11
164.613977
 21
232.199006
 31
0.0
  0
LINE
  5
302
100
AcDbEntity
  8
0
  6
Continuous
 62
   174
100
AcDbLine
 10
178.713977
 20
206.52679
 30
0.0
 11
178.713977
 21
211.504841
 31
0.0
  0
LINE
  5
303
100
AcDbEntity
  8
0
  6
HIDDEN
 62
   174
100
AcDbLine
 10
176.313977
 20
187.648888
 30
0.0
 11
176.313977
 21
190.11373
 31
0.0
  0
LINE
  5
304
100
AcDbEntity
  8
0
  6
Continuous
 62
   174
100
AcDbLine
 10
161.713977
 20
195.262594
 30
0.0
 11
163.713977
 21
195.262594
 31
0.0
  0
LINE
  5
305
100
AcDbEntity
  8
0
  6
Continuous
 62
   174
100
AcDbLine
 10
173.713977
 20
189.250959
 30
0.0
 11
173.713977
 21
192.265
 31
0.0
  0
LINE
  5
306
100
AcDbEntity
  8
0
  6
Continuous
 62
   174
100
AcDbLine
 10
161.713977
 20
224.234905
 30
0.0
 11
161.713977
 21
223.625379
 31
0.0
  0
LINE
  5
307
100
AcDbEntity
  8
0
  6
Continuous
 62
   174
100
AcDbLine
 10
175.713977
 20
194.170903
 30
0.0
 11
175.713977
 21
194.261805
 31
0.0
  0
LINE
  5
308
100
AcDbEntity
  8
0
  6
HIDDEN
 62
   174
100
AcDbLine
 10
163.713977
 20
122.610908
 30
0.0
 11
163.713977
 21
110.610908
 31
0.0
  0
LINE
  5
309
100
AcDbEntity
  8
0
  6
HIDDEN
 62
   174
100
AcDbLine
 10
173.213977
 20
218.201823
 30
0.0
 11
173.213977
 21
218.200021
 31
0.0
  0
LINE
  5
30A
100
AcDbEntity
  8
0
  6
Continuous
 62
   174
100
AcDbLine
 10
173.213977
 20
224.888592
 30
0.0
 11
173.213977
 21
229.799051
 31
0.0
  0
LINE
  5
30B
100
AcDbEntity
  8
0
  6
HIDDEN
 62
   174
100
AcDbLine
 10
173.713977
 20
193.122611
 30
0.0
 11
173.713977
 21
194.300809
 31
0.0
  0
LINE
  5
30C
100
AcDbEntity
  8
0
  6
HIDDEN
 62
   174
100
AcDbLine
 10
178.713977
 20
191.740919
 30
0.0
 11
178.713977
 21
190.671537
 31
0.0
  0
LINE
  5
30D
100
AcDbEntity
  8
0
  6
HIDDEN
 62
   174
100
AcDbLine
 10
179.213977
 20
193.610908
 30
0.0
 11
183.713977
 21
193.610908
 31
0.0
  0
LINE
  5
30E
100
AcDbEntity
  8
0
  6
Continuous
 62
   174
100
AcDbLine
 10
153.713977
 20
198.610908
 30
0.0
 11
158.213977
 21
198.610908
 31
0.0
  0
LINE
  5
30F
100
AcDbEntity
  8
0
  6
HIDDEN
 62
   174
100
AcDbLine
 10
178.713977
 20
192.087407
 30
0.0
 11
178.713977
 21
190.11373
 31
0.0
  0
LINE
  5
310
100
AcDbEntity
  8
0
  6
HIDDEN
 62
   174
100
AcDbLine
 10
161.113977
 20
192.765722
 30
0.0
 11
161.113977
 21
189.379346
 31
0.0
  0
LINE
  5
311
100
AcDbEntity
  8
0
  6
HIDDEN
 62
   174
100
AcDbLine
 10
175.713977
 20
224.164443
 30
0.0
 11
173.713977
 21
224.164443
 31
0.0
  0
LINE
  5
312
100
AcDbEntity
  8
0
  6
HIDDEN
 62
   174
100
AcDbLine
 10
161.713977
 20
202.970567
 30
0.0
 11
161.713977
 21
206.50516
 31
0.0
  0
LINE
  5
313
100
AcDbEntity
  8
0
  6
HIDDEN
 62
   174
100
AcDbLine
 10
178.713977
 20
193.648324
 30
0.0
 11
178.713977
 21
192.087407
 31
0.0
  0
LINE
  5
314
100
AcDbEntity
  8
0
  6
Continuous
 62
   174
100
AcDbLine
 10
176.313977
 20
196.828437
 30
0.0
 11
176.313977
 21
211.504841
 31
0.0
  0
LINE
  5
315
100
AcDbEntity
  8
0
  6
HIDDEN
 62
   174
100
AcDbLine
 10
158.713977
 20
206.50516
 30
0.0
 11
158.713977
 21
202.967563
 31
0.0
  0
LINE
  5
316
100
AcDbEntity
  8
0
  6
HIDDEN
 62
   174
100
AcDbLine
 10
172.913977
 20
122.610908
 30
0.0
 11
172.913977
 21
110.610908
 31
0.0
  0
LINE
  5
317
100
AcDbEntity
  8
0
  6
HIDDEN
 62
   174
100
AcDbLine
 10
161.713977
 20
220.952954
 30
0.0
 11
161.713977
 21
220.199833
 31
0.0
  0
LINE
  5
318
100
AcDbEntity
  8
0
  6
Continuous
 62
   174
100
AcDbLine
 10
153.713977
 20
179.610908
 30
0.0
 11
183.713977
 21
179.610908
 31
0.0
  0
LINE
  5
319
100
AcDbEntity
  8
0
  6
HIDDEN
 62
   174
100
AcDbLine
 10
161.113977
 20
181.210908
 30
0.0
 11
161.113977
 21
181.112766
 31
0.0
  0
LINE
  5
31A
100
AcDbEntity
  8
0
  6
Continuous
 62
   174
100
AcDbLine
 10
173.713977
 20
189.250959
 30
0.0
 11
175.713977
 21
189.250959
 31
0.0
  0
LINE
  5
31B
100
AcDbEntity
  8
0
  6
Continuous
 62
   174
100
AcDbLine
 10
172.813977
 20
218.88555
 30
0.0
 11
172.813977
 21
221.897435
 31
0.0
  0
LINE
  5
31C
100
AcDbEntity
  8
0
  6
HIDDEN
 62
   174
100
AcDbLine
 10
178.713977
 20
190.671537
 30
0.0
 11
176.313977
 21
190.671537
 31
0.0
  0
LINE
  5
31D
100
AcDbEntity
  8
0
  6
HIDDEN
 62
   174
100
AcDbLine
 10
158.213977
 20
191.316562
 30
0.0
 11
158.213977
 21
189.98035
 31
0.0
  0
LINE
  5
31E
100
AcDbEntity
  8
0
  6
HIDDEN
 62
   174
100
AcDbLine
 10
175.713977
 20
190.404149
 30
0.0
 11
173.713977
 21
190.404149
 31
0.0
  0
LINE
  5
31F
100
AcDbEntity
  8
0
  6
Continuous
 62
   174
100
AcDbLine
 10
161.113977
 20
195.634017
 30
0.0
 11
161.113977
 21
196.828437
 31
0.0
  0
LINE
  5
320
100
AcDbEntity
  8
0
  6
Continuous
 62
   174
100
AcDbLine
 10
158.713977
 20
181.210908
 30
0.0
 11
161.113977
 21
181.210908
 31
0.0
  0
LINE
  5
321
100
AcDbEntity
  8
0
  6
HIDDEN
 62
   174
100
AcDbLine
 10
161.113977
 20
200.505424
 30
0.0
 11
161.113977
 21
202.970567
 31
0.0
  0
LINE
  5
322
100
AcDbEntity
  8
0
  6
Continuous
 62
   174
100
AcDbLine
 10
164.713977
 20
187.017773
 30
0.0
 11
160.713977
 21
187.017773
 31
0.0
  0
LINE
  5
323
100
AcDbEntity
  8
0
  6
Continuous
 62
   174
100
AcDbLine
 10
175.713977
 20
194.261805
 30
0.0
 11
175.713977
 21
195.262594
 31
0.0
  0
LINE
  5
324
100
AcDbEntity
  8
0
  6
Continuous
 62
   174
100
AcDbLine
 10
164.613977
 20
218.162169
 30
0.0
 11
164.613977
 21
218.88555
 31
0.0
  0
LINE
  5
325
100
AcDbEntity
  8
0
  6
Continuous
 62
   174
100
AcDbLine
 10
173.213977
 20
231.794658
 30
0.0
 11
173.213977
 21
231.799164
 31
0.0
  0
LINE
  5
326
100
AcDbEntity
  8
0
  6
Continuous
 62
   174
100
AcDbLine
 10
172.739668
 20
186.776059
 30
0.0
 11
169.972014
 21
186.776059
 31
0.0
  0
LINE
  5
327
100
AcDbEntity
  8
0
  6
HIDDEN
 62
   174
100
AcDbLine
 10
158.713977
 20
189.114876
 30
0.0
 11
158.713977
 21
190.11373
 31
0.0
  0
LINE
  5
328
100
AcDbEntity
  8
0
  6
Continuous
 62
   174
100
AcDbLine
 10
161.713977
 20
195.596745
 30
0.0
 11
161.713977
 21
195.262594
 31
0.0
  0
LINE
  5
329
100
AcDbEntity
  8
0
  6
HIDDEN
 62
   174
100
AcDbLine
 10
173.713977
 20
122.610908
 30
0.0
 11
173.713977
 21
110.610908
 31
0.0
  0
LINE
  5
32A
100
AcDbEntity
  8
0
  6
HIDDEN
 62
   174
100
AcDbLine
 10
163.739762
 20
110.610908
 30
0.0
 11
168.739743
 21
110.610908
 31
0.0
  0
LINE
  5
32B
100
AcDbEntity
  8
0
  6
HIDDEN
 62
   174
100
AcDbLine
 10
175.713977
 20
224.199758
 30
0.0
 11
175.713977
 21
222.644849
 31
0.0
  0
LINE
  5
32C
100
AcDbEntity
  8
0
  6
HIDDEN
 62
   174
100
AcDbLine
 10
153.713977
 20
187.610908
 30
0.0
 11
158.213977
 21
187.610908
 31
0.0
  0
LINE
  5
32D
100
AcDbEntity
  8
0
  6
HIDDEN
 62
   174
100
AcDbLine
 10
173.713977
 20
224.164443
 30
0.0
 11
173.213977
 21
224.164443
 31
0.0
  0
LINE
  5
32E
100
AcDbEntity
  8
0
  6
HIDDEN
 62
   174
100
AcDbLine
 10
173.213977
 20
220.161381
 30
0.0
 11
173.213977
 21
218.201823
 31
0.0
  0
LINE
  5
32F
100
AcDbEntity
  8
0
  6
HIDDEN
 62
   174
100
AcDbLine
 10
153.713977
 20
170.110908
 30
0.0
 11
162.113977
 21
170.110908
 31
0.0
  0
LINE
  5
330
100
AcDbEntity
  8
0
  6
HIDDEN
 62
   174
100
AcDbLine
 10
153.713977
 20
170.110908
 30
0.0
 11
162.113977
 21
170.110908
 31
0.0
  0
LINE
  5
331
100
AcDbEntity
  8
0
  6
HIDDEN
 62
   174
100
AcDbLine
 10
164.213977
 20
212.564443
 30
0.0
 11
164.613977
 21
212.164443
 31
0.0
  0
LINE
  5
332
100
AcDbEntity
  8
0
  6
Continuous
 62
   174
100
AcDbLine
 10
164.213977
 20
224.888592
 30
0.0
 11
164.213977
 21
229.799051
 31
0.0
  0
LINE
  5
333
100
AcDbEntity
  8
0
  6
HIDDEN
 62
   174
100
AcDbLine
 10
162.113977
 20
158.150983
 30
0.0
 11
162.113977
 21
167.150288
 31
0.0
  0
LINE
  5
334
100
AcDbEntity
  8
0
  6
Continuous
 62
   174
100
AcDbLine
 10
183.713977
 20
110.610908
 30
0.0
 11
183.713977
 21
179.610908
 31
0.0
  0
LINE
  5
335
100
AcDbEntity
  8
0
  6
HIDDEN
 62
   174
100
AcDbLine
 10
164.613977
 20
212.200584
 30
0.0
 11
164.613977
 21
212.205091
 31
0.0
  0
LINE
  5
336
100
AcDbEntity
  8
0
  6
HIDDEN
 62
   174
100
AcDbLine
 10
158.713977
 20
192.372126
 30
0.0
 11
158.713977
 21
191.740919
 31
0.0
  0
LINE
  5
337
100
AcDbEntity
  8
0
  6
Continuous
 62
   174
100
AcDbLine
 10
158.713977
 20
191.740919
 30
0.0
 11
158.713977
 21
190.671537
 31
0.0
  0
LINE
  5
338
100
AcDbEntity
  8
0
  6
Continuous
 62
   174
100
AcDbLine
 10
158.213977
 20
198.610908
 30
0.0
 11
158.213977
 21
195.596745
 31
0.0
  0
LINE
  5
339
100
AcDbEntity
  8
0
  6
HIDDEN
 62
   174
100
AcDbLine
 10
164.713977
 20
181.210908
 30
0.0
 11
172.713977
 21
181.210908
 31
0.0
  0
LINE
  5
33A
100
AcDbEntity
  8
0
  6
Continuous
 62
   174
100
AcDbLine
 10
161.113977
 20
181.210908
 30
0.0
 11
164.713977
 21
181.210908
 31
0.0
  0
LINE
  5
33B
100
AcDbEntity
  8
0
  6
HIDDEN
 62
   174
100
AcDbLine
 10
178.713977
 20
190.11373
 30
0.0
 11
178.713977
 21
189.114876
 31
0.0
  0
LINE
  5
33C
100
AcDbEntity
  8
0
  6
Continuous
 62
   174
100
AcDbLine
 10
161.713977
 20
223.590285
 30
0.0
 11
163.713977
 21
223.590285
 31
0.0
  0
LINE
  5
33D
100
AcDbEntity
  8
0
  6
Continuous
 62
   174
100
AcDbLine
 10
175.713977
 20
224.228897
 30
0.0
 11
175.713977
 21
223.625379
 31
0.0
  0
LINE
  5
33E
100
AcDbEntity
  8
0
  6
Continuous
 62
   174
100
AcDbLine
 10
161.113977
 20
194.170903
 30
0.0
 11
161.113977
 21
192.765722
 31
0.0
  0
LINE
  5
33F
100
AcDbEntity
  8
0
  6
HIDDEN
 62
   174
100
AcDbLine
 10
158.213977
 20
189.98035
 30
0.0
 11
158.213977
 21
188.775716
 31
0.0
  0
LINE
  5
340
100
AcDbEntity
  8
0
  6
Continuous
 62
   174
100
AcDbLine
 10
172.713977
 20
179.610908
 30
0.0
 11
172.713977
 21
186.776059
 31
0.0
  0
LINE
  5
341
100
AcDbEntity
  8
0
  6
HIDDEN
 62
   174
100
AcDbLine
 10
178.713977
 20
202.837787
 30
0.0
 11
178.713977
 21
200.505424
 31
0.0
  0
LINE
  5
342
100
AcDbEntity
  8
0
  6
HIDDEN
 62
   174
100
AcDbLine
 10
161.113977
 20
181.112766
 30
0.0
 11
158.713977
 21
181.112766
 31
0.0
  0
LINE
  5
343
100
AcDbEntity
  8
0
  6
HIDDEN
 62
   174
100
AcDbLine
 10
153.713977
 20
155.110908
 30
0.0
 11
162.113977
 21
155.110908
 31
0.0
  0
LINE
  5
344
100
AcDbEntity
  8
0
  6
Continuous
 62
   174
100
AcDbLine
 10
172.813977
 20
218.163972
 30
0.0
 11
172.813977
 21
218.88555
 31
0.0
  0
LINE
  5
345
100
AcDbEntity
  8
0
  6
Continuous
 62
   174
100
AcDbLine
 10
158.713977
 20
188.98575
 30
0.0
 11
158.713977
 21
183.980413
 31
0.0
  0
LINE
  5
346
100
AcDbEntity
  8
0
  6
Continuous
 62
   174
100
AcDbLine
 10
179.213977
 20
198.610908
 30
0.0
 11
179.213977
 21
195.596745
 31
0.0
  0
LINE
  5
347
100
AcDbEntity
  8
0
  6
Continuous
 62
   174
100
AcDbLine
 10
178.713977
 20
183.980413
 30
0.0
 11
176.313977
 21
183.980413
 31
0.0
  0
LINE
  5
348
100
AcDbEntity
  8
0
  6
HIDDEN
 62
   174
100
AcDbLine
 10
153.713977
 20
193.610908
 30
0.0
 11
158.213977
 21
193.610908
 31
0.0
  0
LINE
  5
349
100
AcDbEntity
  8
0
  6
HIDDEN
 62
   174
100
AcDbLine
 10
172.739668
 20
179.610908
 30
0.0
 11
164.739518
 21
179.610908
 31
0.0
  0
LINE
  5
34A
100
AcDbEntity
  8
0
  6
HIDDEN
 62
   174
100
AcDbLine
 10
173.213977
 20
224.164443
 30
0.0
 11
164.213977
 21
224.164443
 31
0.0
  0
LINE
  5
34B
100
AcDbEntity
  8
0
  6
HIDDEN
 62
   174
100
AcDbLine
 10
161.113977
 20
190.671537
 30
0.0
 11
158.713977
 21
190.671537
 31
0.0
  0
LINE
  5
34C
100
AcDbEntity
  8
0
  6
HIDDEN
 62
   174
100
AcDbLine
 10
161.713977
 20
200.505424
 30
0.0
 11
161.713977
 21
202.970567
 31
0.0
  0
LINE
  5
34D
100
AcDbEntity
  8
0
  6
Continuous
 62
   174
100
AcDbLine
 10
178.713977
 20
206.300282
 30
0.0
 11
178.713977
 21
206.52679
 31
0.0
  0
LINE
  5
34E
100
AcDbEntity
  8
0
  6
Continuous
 62
   174
100
AcDbLine
 10
173.713977
 20
195.262594
 30
0.0
 11
175.713977
 21
195.262594
 31
0.0
  0
LINE
  5
34F
100
AcDbEntity
  8
0
  6
Continuous
 62
   174
100
AcDbLine
 10
161.713977
 20
225.051713
 30
0.0
 11
161.713977
 21
224.234905
 31
0.0
  0
LINE
  5
350
100
AcDbEntity
  8
0
  6
HIDDEN
 62
   174
100
AcDbLine
 10
163.713977
 20
190.404149
 30
0.0
 11
161.713977
 21
190.404149
 31
0.0
  0
LINE
  5
351
100
AcDbEntity
  8
0
  6
Continuous
 62
   174
100
AcDbLine
 10
164.213977
 20
231.794658
 30
0.0
 11
164.213977
 21
231.799164
 31
0.0
  0
LINE
  5
352
100
AcDbEntity
  8
0
  6
Continuous
 62
   174
100
AcDbLine
 10
164.213977
 20
218.958549
 30
0.0
 11
164.213977
 21
221.909451
 31
0.0
  0
LINE
  5
353
100
AcDbEntity
  8
0
  6
Continuous
 62
   174
100
AcDbLine
 10
178.713977
 20
183.980413
 30
0.0
 11
178.713977
 21
181.210908
 31
0.0
  0
LINE
  5
354
100
AcDbEntity
  8
0
  6
Continuous
 62
   174
100
AcDbLine
 10
176.313977
 20
195.634017
 30
0.0
 11
176.313977
 21
196.828437
 31
0.0
  0
LINE
  5
355
100
AcDbEntity
  8
0
  6
HIDDEN
 62
   174
100
AcDbLine
 10
158.713977
 20
202.970567
 30
0.0
 11
158.713977
 21
206.50516
 31
0.0
  0
LINE
  5
356
100
AcDbEntity
  8
0
  6
Continuous
 62
   174
100
AcDbLine
 10
175.713977
 20
189.250959
 30
0.0
 11
175.713977
 21
192.265
 31
0.0
  0
LINE
  5
357
100
AcDbEntity
  8
0
  6
HIDDEN
 62
   174
100
AcDbLine
 10
175.713977
 20
220.164443
 30
0.0
 11
173.713977
 21
220.164443
 31
0.0
  0
LINE
  5
358
100
AcDbEntity
  8
0
  6
Continuous
 62
   174
100
AcDbLine
 10
164.613977
 20
213.991013
 30
0.0
 11
164.613977
 21
218.162169
 31
0.0
  0
LINE
  5
359
100
AcDbEntity
  8
0
  6
HIDDEN
 62
   174
100
AcDbLine
 10
163.713977
 20
202.970567
 30
0.0
 11
163.713977
 21
200.505424
 31
0.0
  0
LINE
  5
35A
100
AcDbEntity
  8
0
  6
Continuous
 62
   174
100
AcDbLine
 10
158.713977
 20
190.671537
 30
0.0
 11
158.713977
 21
188.98575
 31
0.0
  0
LINE
  5
35B
100
AcDbEntity
  8
0
  6
HIDDEN
 62
   174
100
AcDbLine
 10
163.739762
 20
110.610908
 30
0.0
 11
168.739743
 21
110.610908
 31
0.0
  0
LINE
  5
35C
100
AcDbEntity
  8
0
  6
HIDDEN
 62
   174
100
AcDbLine
 10
153.713977
 20
155.110908
 30
0.0
 11
162.113977
 21
155.110908
 31
0.0
  0
LINE
  5
35D
100
AcDbEntity
  8
0
  6
HIDDEN
 62
   174
100
AcDbLine
 10
153.713977
 20
155.151114
 30
0.0
 11
153.713977
 21
170.149856
 31
0.0
  0
LINE
  5
35E
100
AcDbEntity
  8
0
  6
Continuous
 62
   174
100
AcDbLine
 10
172.713977
 20
181.210908
 30
0.0
 11
176.313977
 21
181.210908
 31
0.0
  0
LINE
  5
35F
100
AcDbEntity
  8
0
  6
HIDDEN
 62
   174
100
AcDbLine
 10
179.213977
 20
187.648888
 30
0.0
 11
179.213977
 21
188.775716
 31
0.0
  0
LINE
  5
360
100
AcDbEntity
  8
0
  6
HIDDEN
 62
   174
100
AcDbLine
 10
176.313977
 20
190.671537
 30
0.0
 11
176.313977
 21
187.017773
 31
0.0
  0
LINE
  5
361
100
AcDbEntity
  8
0
  6
Continuous
 62
   174
100
AcDbLine
 10
173.713977
 20
225.996795
 30
0.0
 11
173.713977
 21
223.625379
 31
0.0
  0
LINE
  5
362
100
AcDbEntity
  8
0
  6
Continuous
 62
   174
100
AcDbLine
 10
163.713977
 20
189.250959
 30
0.0
 11
163.713977
 21
195.262594
 31
0.0
  0
LINE
  5
363
100
AcDbEntity
  8
0
  6
HIDDEN
 62
   174
100
AcDbLine
 10
164.539747
 20
125.610908
 30
0.0
 11
168.739743
 21
125.610908
 31
0.0
  0
LINE
  5
364
100
AcDbEntity
  8
0
  6
HIDDEN
 62
   174
100
AcDbLine
 10
164.213977
 20
231.764443
 30
0.0
 11
164.613977
 21
232.164443
 31
0.0
  0
LINE
  5
365
100
AcDbEntity
  8
0
  6
Continuous
 62
   174
100
AcDbLine
 10
158.713977
 20
190.671537
 30
0.0
 11
158.713977
 21
188.98575
 31
0.0
  0
LINE
  5
366
100
AcDbEntity
  8
0
  6
HIDDEN
 62
   174
100
AcDbLine
 10
164.513977
 20
110.610908
 30
0.0
 11
164.513977
 21
125.610908
 31
0.0
  0
LINE
  5
367
100
AcDbEntity
  8
0
  6
Continuous
 62
   174
100
AcDbLine
 10
164.213977
 20
221.909451
 30
0.0
 11
164.213977
 21
224.888592
 31
0.0
  0
LINE
  5
368
100
AcDbEntity
  8
0
  6
Continuous
 62
   174
100
AcDbLine
 10
158.713977
 20
206.300282
 30
0.0
 11
158.713977
 21
206.52679
 31
0.0
  0
LINE
  5
369
100
AcDbEntity
  8
0
  6
HIDDEN
 62
   174
100
AcDbLine
 10
164.213977
 20
224.164443
 30
0.0
 11
163.713977
 21
224.164443
 31
0.0
  0
LINE
  5
36A
100
AcDbEntity
  8
0
  6
HIDDEN
 62
   174
100
AcDbLine
 10
164.513977
 20
110.610908
 30
0.0
 11
164.513977
 21
125.610908
 31
0.0
  0
LINE
  5
36B
100
AcDbEntity
  8
0
  6
HIDDEN
 62
   174
100
AcDbLine
 10
164.213977
 20
218.200021
 30
0.0
 11
164.213977
 21
218.201823
 31
0.0
  0
LINE
  5
36C
100
AcDbEntity
  8
0
  6
Continuous
 62
   174
100
AcDbLine
 10
158.713977
 20
183.980413
 30
0.0
 11
158.713977
 21
181.210908
 31
0.0
  0
LINE
  5
36D
100
AcDbEntity
  8
0
  6
Continuous
 62
   174
100
AcDbLine
 10
158.213977
 20
195.596745
 30
0.0
 11
158.213977
 21
194.170903
 31
0.0
  0
LINE
  5
36E
100
AcDbEntity
  8
0
  6
HIDDEN
 62
   174
100
AcDbLine
 10
158.213977
 20
188.775716
 30
0.0
 11
158.213977
 21
187.648888
 31
0.0
  0
LINE
  5
36F
100
AcDbEntity
  8
0
  6
HIDDEN
 62
   174
100
AcDbLine
 10
178.713977
 20
192.372126
 30
0.0
 11
178.713977
 21
191.740919
 31
0.0
  0
LINE
  5
370
100
AcDbEntity
  8
0
  6
Continuous
 62
   174
100
AcDbLine
 10
178.713977
 20
188.98575
 30
0.0
 11
178.713977
 21
183.980413
 31
0.0
  0
LINE
  5
371
100
AcDbEntity
  8
0
  6
HIDDEN
 62
   174
100
AcDbLine
 10
153.713977
 20
187.610908
 30
0.0
 11
158.213977
 21
187.610908
 31
0.0
  0
LINE
  5
372
100
AcDbEntity
  8
0
  6
HIDDEN
 62
   174
100
AcDbLine
 10
176.313977
 20
191.740919
 30
0.0
 11
176.313977
 21
190.671537
 31
0.0
  0
LINE
  5
373
100
AcDbEntity
  8
0
  6
HIDDEN
 62
   174
100
AcDbLine
 10
178.713977
 20
189.114876
 30
0.0
 11
178.713977
 21
187.648888
 31
0.0
  0
LINE
  5
374
100
AcDbEntity
  8
0
  6
Continuous
 62
   174
100
AcDbLine
 10
178.713977
 20
194.170903
 30
0.0
 11
178.713977
 21
192.372126
 31
0.0
  0
LINE
  5
375
100
AcDbEntity
  8
0
  6
HIDDEN
 62
   174
100
AcDbLine
 10
173.713977
 20
220.164443
 30
0.0
 11
173.213977
 21
220.164443
 31
0.0
  0
LINE
  5
376
100
AcDbEntity
  8
0
  6
Continuous
 62
   174
100
AcDbLine
 10
179.213977
 20
195.596745
 30
0.0
 11
179.213977
 21
194.170903
 31
0.0
  0
LINE
  5
377
100
AcDbEntity
  8
0
  6
HIDDEN
 62
   174
100
AcDbLine
 10
175.713977
 20
193.633003
 30
0.0
 11
175.713977
 21
193.122611
 31
0.0
  0
LINE
  5
378
100
AcDbEntity
  8
0
  6
HIDDEN
 62
   174
100
AcDbLine
 10
179.213977
 20
188.775716
 30
0.0
 11
179.213977
 21
189.98035
 31
0.0
  0
LINE
  5
379
100
AcDbEntity
  8
0
  6
Continuous
 62
   174
100
AcDbLine
 10
178.713977
 20
191.740919
 30
0.0
 11
178.713977
 21
190.671537
 31
0.0
  0
LINE
  5
37A
100
AcDbEntity
  8
0
  6
HIDDEN
 62
   174
100
AcDbLine
 10
173.213977
 20
231.764443
 30
0.0
 11
172.813977
 21
232.164443
 31
0.0
  0
LINE
  5
37B
100
AcDbEntity
  8
0
  6
Continuous
 62
   174
100
AcDbLine
 10
164.213977
 20
212.985249
 30
0.0
 11
164.213977
 21
218.958549
 31
0.0
  0
LINE
  5
37C
100
AcDbEntity
  8
0
  6
Continuous
 62
   174
100
AcDbLine
 10
176.313977
 20
181.210908
 30
0.0
 11
178.713977
 21
181.210908
 31
0.0
  0
LINE
  5
37D
100
AcDbEntity
  8
0
  6
Continuous
 62
   174
100
AcDbLine
 10
164.713977
 20
179.610908
 30
0.0
 11
164.713977
 21
186.776059
 31
0.0
  0
LINE
  5
37E
100
AcDbEntity
  8
0
  6
HIDDEN
 62
   174
100
AcDbLine
 10
162.113977
 20
170.149856
 30
0.0
 11
162.113977
 21
155.151114
 31
0.0
  0
LINE
  5
37F
100
AcDbEntity
  8
0
  6
Continuous
 62
   174
100
AcDbLine
 10
158.713977
 20
195.596745
 30
0.0
 11
158.713977
 21
194.170903
 31
0.0
  0
LINE
  5
380
100
AcDbEntity
  8
0
  6
Continuous
 62
   174
100
AcDbLine
 10
178.713977
 20
194.170903
 30
0.0
 11
176.313977
 21
194.170903
 31
0.0
  0
LINE
  5
381
100
AcDbEntity
  8
0
  6
Continuous
 62
   174
100
AcDbLine
 10
178.713977
 20
202.971168
 30
0.0
 11
178.713977
 21
206.300282
 31
0.0
  0
LINE
  5
382
100
AcDbEntity
  8
0
  6
HIDDEN
 62
   174
100
AcDbLine
 10
158.713977
 20
190.11373
 30
0.0
 11
158.713977
 21
192.087407
 31
0.0
  0
LINE
  5
383
100
AcDbEntity
  8
0
  6
Continuous
 62
   174
100
AcDbLine
 10
161.713977
 20
230.199194
 30
0.0
 11
161.713977
 21
225.051713
 31
0.0
  0
LINE
  5
384
100
AcDbEntity
  8
0
  6
Continuous
 62
   174
100
AcDbLine
 10
175.713977
 20
225.037293
 30
0.0
 11
175.713977
 21
224.228897
 31
0.0
  0
LINE
  5
385
100
AcDbEntity
  8
0
  6
HIDDEN
 62
   174
100
AcDbLine
 10
168.739743
 20
110.610908
 30
0.0
 11
173.739724
 21
110.610908
 31
0.0
  0
LINE
  5
386
100
AcDbEntity
  8
0
  6
HIDDEN
 62
   174
100
AcDbLine
 10
175.713977
 20
224.164443
 30
0.0
 11
173.713977
 21
224.164443
 31
0.0
  0
LINE
  5
387
100
AcDbEntity
  8
0
  6
Continuous
 62
   174
100
AcDbLine
 10
161.113977
 20
183.980413
 30
0.0
 11
161.113977
 21
181.210908
 31
0.0
  0
LINE
  5
388
100
AcDbEntity
  8
0
  6
Continuous
 62
   174
100
AcDbLine
 10
164.613977
 20
212.200584
 30
0.0
 11
164.613977
 21
213.991013
 31
0.0
  0
LINE
  5
389
100
AcDbEntity
  8
0
  6
Continuous
 62
   174
100
AcDbLine
 10
164.613977
 20
231.61231
 30
0.0
 11
164.613977
 21
232.1945
 31
0.0
  0
LINE
  5
38A
100
AcDbEntity
  8
0
  6
Continuous
 62
   174
100
AcDbLine
 10
173.713977
 20
223.590285
 30
0.0
 11
175.713977
 21
223.590285
 31
0.0
  0
LINE
  5
38B
100
AcDbEntity
  8
0
  6
HIDDEN
 62
   174
100
AcDbLine
 10
168.713977
 20
187.017773
 30
0.0
 11
165.872098
 21
187.017773
 31
0.0
  0
LINE
  5
38C
100
AcDbEntity
  8
0
  6
Continuous
 62
   174
100
AcDbLine
 10
175.713977
 20
192.265
 30
0.0
 11
175.713977
 21
192.765722
 31
0.0
  0
LINE
  5
38D
100
AcDbEntity
  8
0
  6
HIDDEN
 62
   174
100
AcDbLine
 10
172.913977
 20
110.610908
 30
0.0
 11
172.913977
 21
125.610908
 31
0.0
  0
LINE
  5
38E
100
AcDbEntity
  8
0
  6
HIDDEN
 62
   174
100
AcDbLine
 10
163.713977
 20
224.164443
 30
0.0
 11
161.713977
 21
224.164443
 31
0.0
  0
LINE
  5
38F
100
AcDbEntity
  8
0
  6
HIDDEN
 62
   174
100
AcDbLine
 10
168.739743
 20
125.610908
 30
0.0
 11
172.939739
 21
125.610908
 31
0.0
  0
LINE
  5
390
100
AcDbEntity
  8
0
  6
HIDDEN
 62
   174
100
AcDbLine
 10
153.713977
 20
155.110908
 30
0.0
 11
162.113977
 21
155.110908
 31
0.0
  0
LINE
  5
391
100
AcDbEntity
  8
0
  6
Continuous
 62
   174
100
AcDbLine
 10
176.313977
 20
195.596745
 30
0.0
 11
176.313977
 21
195.262594
 31
0.0
  0
LINE
  5
392
100
AcDbEntity
  8
0
  6
HIDDEN
 62
   174
100
AcDbLine
 10
176.313977
 20
189.379346
 30
0.0
 11
176.313977
 21
192.765722
 31
0.0
  0
LINE
  5
393
100
AcDbEntity
  8
0
  6
Continuous
 62
   174
100
AcDbLine
 10
158.713977
 20
191.740919
 30
0.0
 11
158.713977
 21
190.671537
 31
0.0
  0
LINE
  5
394
100
AcDbEntity
  8
0
  6
HIDDEN
 62
   174
100
AcDbLine
 10
163.739762
 20
122.610908
 30
0.0
 11
168.739743
 21
122.610908
 31
0.0
  0
LINE
  5
395
100
AcDbEntity
  8
0
  6
HIDDEN
 62
   174
100
AcDbLine
 10
161.713977
 20
222.644849
 30
0.0
 11
161.713977
 21
220.952954
 31
0.0
  0
LINE
  5
396
100
AcDbEntity
  8
0
  6
HIDDEN
 62
   174
100
AcDbLine
 10
161.113977
 20
190.671537
 30
0.0
 11
161.113977
 21
187.017773
 31
0.0
  0
LINE
  5
397
100
AcDbEntity
  8
0
  6
HIDDEN
 62
   174
100
AcDbLine
 10
172.813977
 20
212.200584
 30
0.0
 11
172.813977
 21
212.205091
 31
0.0
  0
LINE
  5
398
100
AcDbEntity
  8
0
  6
Continuous
 62
   174
100
AcDbLine
 10
158.213977
 20
194.170903
 30
0.0
 11
158.213977
 21
192.372126
 31
0.0
  0
LINE
  5
399
100
AcDbEntity
  8
0
  6
HIDDEN
 62
   174
100
AcDbLine
 10
173.213977
 20
220.164443
 30
0.0
 11
164.213977
 21
220.164443
 31
0.0
  0
LINE
  5
39A
100
AcDbEntity
  8
0
  6
Continuous
 62
   174
100
AcDbLine
 10
158.713977
 20
202.971168
 30
0.0
 11
158.713977
 21
206.300282
 31
0.0
  0
LINE
  5
39B
100
AcDbEntity
  8
0
  6
HIDDEN
 62
   174
100
AcDbLine
 10
173.713977
 20
202.970567
 30
0.0
 11
173.713977
 21
206.50516
 31
0.0
  0
LINE
  5
39C
100
AcDbEntity
  8
0
  6
HIDDEN
 62
   174
100
AcDbLine
 10
163.713977
 20
206.50516
 30
0.0
 11
163.713977
 21
202.970567
 31
0.0
  0
LINE
  5
39D
100
AcDbEntity
  8
0
  6
HIDDEN
 62
   174
100
AcDbLine
 10
176.313977
 20
181.210908
 30
0.0
 11
176.313977
 21
181.112766
 31
0.0
  0
LINE
  5
39E
100
AcDbEntity
  8
0
  6
Continuous
 62
   174
100
AcDbLine
 10
163.713977
 20
226.201372
 30
0.0
 11
163.713977
 21
223.625379
 31
0.0
  0
LINE
  5
39F
100
AcDbEntity
  8
0
  6
Continuous
 62
   174
100
AcDbLine
 10
179.213977
 20
194.170903
 30
0.0
 11
179.213977
 21
192.372126
 31
0.0
  0
LINE
  5
3A0
100
AcDbEntity
  8
0
  6
Continuous
 62
   174
100
AcDbLine
 10
178.713977
 20
181.210908
 30
0.0
 11
179.213977
 21
181.210908
 31
0.0
  0
LINE
  5
3A1
100
AcDbEntity
  8
0
  6
HIDDEN
 62
   174
100
AcDbLine
 10
176.313977
 20
202.970567
 30
0.0
 11
176.313977
 21
206.50516
 31
0.0
  0
LINE
  5
3A2
100
AcDbEntity
  8
0
  6
Continuous
 62
   174
100
AcDbLine
 10
161.113977
 20
187.017773
 30
0.0
 11
161.113977
 21
183.980413
 31
0.0
  0
LINE
  5
3A3
100
AcDbEntity
  8
0
  6
Continuous
 62
   174
100
AcDbLine
 10
172.813977
 20
231.61231
 30
0.0
 11
172.813977
 21
232.1945
 31
0.0
  0
LINE
  5
3A4
100
AcDbEntity
  8
0
  6
HIDDEN
 62
   174
100
AcDbLine
 10
183.713977
 20
193.648324
 30
0.0
 11
183.713977
 21
187.648888
 31
0.0
  0
LINE
  5
3A5
100
AcDbEntity
  8
0
  6
Continuous
 62
   174
100
AcDbLine
 10
172.713977
 20
179.610908
 30
0.0
 11
172.713977
 21
186.776059
 31
0.0
  0
LINE
  5
3A6
100
AcDbEntity
  8
0
  6
HIDDEN
 62
   174
100
AcDbLine
 10
172.713977
 20
187.017773
 30
0.0
 11
171.555856
 21
187.017773
 31
0.0
  0
ENDBLK
  5
3A7
100
AcDbEntity
  8
0
100
AcDbBlockEnd
  0
BLOCK
  5
3AA
100
AcDbEntity
  8
0
100
AcDbBlockBegin
  2
*B4
 70
     0
 10
0.0
 20
0.0
 30
0.0
  3
*B4
  1

  0
LINE
  5
3AB
100
AcDbEntity
  8
0
  6
Continuous
 62
     0
100
AcDbLine
 10
334.463096
 20
162.963209
 30
0.0
 11
334.463096
 21
110.966892
 31
0.0
  0
SOLID
  5
3AC
100
AcDbEntity
  8
0
  6
Continuous
 62
     0
100
AcDbTrace
 10
335.463152
 20
157.963529
 30
0.0
 11
334.463096
 21
162.963209
 31
0.0
 12
333.463039
 22
157.963529
 32
0.0
 13
333.463039
 23
157.963529
 33
0.0
  0
SOLID
  5
3AD
100
AcDbEntity
  8
0
  6
Continuous
 62
     0
100
AcDbTrace
 10
333.463039
 20
115.966573
 30
0.0
 11
334.463096
 21
110.966892
 31
0.0
 12
335.463152
 22
115.966573
 32
0.0
 13
335.463152
 23
115.966573
 33
0.0
  0
ENDBLK
  5
3AE
100
AcDbEntity
  8
0
100
AcDbBlockEnd
  0
BLOCK
  5
3B1
100
AcDbEntity
  8
0
100
AcDbBlockBegin
  2
*B5
 70
     0
 10
0.0
 20
0.0
 30
0.0
  3
*B5
  1

  0
LINE
  5
3B2
100
AcDbEntity
  8
0
  6
Continuous
 62
     0
100
AcDbLine
 10
334.463096
 20
232.51173
 30
0.0
 11
334.463096
 21
162.963209
 31
0.0
  0
SOLID
  5
3B3
100
AcDbEntity
  8
0
  6
Continuous
 62
     0
100
AcDbTrace
 10
335.463152
 20
227.51205
 30
0.0
 11
334.463096
 21
232.51173
 31
0.0
 12
333.463039
 22
227.51205
 32
0.0
 13
333.463039
 23
227.51205
 33
0.0
  0
SOLID
  5
3B4
100
AcDbEntity
  8
0
  6
Continuous
 62
     0
100
AcDbTrace
 10
333.463039
 20
167.962589
 30
0.0
 11
334.463096
 21
162.963209
 31
0.0
 12
335.463152
 22
167.962589
 32
0.0
 13
335.463152
 23
167.962589
 33
0.0
  0
ENDBLK
  5
3B5
100
AcDbEntity
  8
0
100
AcDbBlockEnd
  0
BLOCK
  5
3B8
100
AcDbEntity
  8
0
100
AcDbBlockBegin
  2
*B6
 70
     0
 10
0.0
 20
0.0
 30
0.0
  3
*B6
  1

  0
LINE
  5
3B9
100
AcDbEntity
  8
0
  6
Continuous
 62
     0
100
AcDbLine
 10
307.463078
 20
286.183119
 30
0.0
 11
307.463078
 21
214.51282
 31
0.0
  0
SOLID
  5
3BA
100
AcDbEntity
  8
0
  6
Continuous
 62
     0
100
AcDbTrace
 10
306.463022
 20
237.51111
 30
0.0
 11
307.463078
 21
232.51173
 31
0.0
 12
308.463135
 22
237.51111
 32
0.0
 13
308.463135
 23
237.51111
 33
0.0
  0
SOLID
  5
3BB
100
AcDbEntity
  8
0
  6
Continuous
 62
     0
100
AcDbTrace
 10
308.463135
 20
219.512501
 30
0.0
 11
307.463078
 21
224.512181
 31
0.0
 12
306.463022
 22
219.512501
 32
0.0
 13
306.463022
 23
219.512501
 33
0.0
  0
ENDBLK
  5
3BC
100
AcDbEntity
  8
0
100
AcDbBlockEnd
  0
BLOCK
  5
3BF
100
AcDbEntity
  8
0
100
AcDbBlockBegin
  2
*B7
 70
     0
 10
0.0
 20
0.0
 30
0.0
  3
*B7
  1

  0
LINE
  5
3C0
100
AcDbEntity
  8
0
  6
Continuous
 62
     0
100
AcDbLine
 10
321.462965
 20
280.933499
 30
0.0
 11
321.462965
 21
210.513196
 31
0.0
  0
SOLID
  5
3C1
100
AcDbEntity
  8
0
  6
Continuous
 62
     0
100
AcDbTrace
 10
320.463209
 20
229.511862
 30
0.0
 11
321.462965
 21
224.512181
 31
0.0
 12
322.463021
 22
229.511862
 32
0.0
 13
322.463021
 23
229.511862
 33
0.0
  0
SOLID
  5
3C2
100
AcDbEntity
  8
0
  6
Continuous
 62
     0
100
AcDbTrace
 10
322.463021
 20
215.512877
 30
0.0
 11
321.462965
 21
220.512557
 31
0.0
 12
320.463209
 22
215.512877
 32
0.0
 13
320.463209
 23
215.512877
 33
0.0
  0
ENDBLK
  5
3C3
100
AcDbEntity
  8
0
100
AcDbBlockEnd
  0
BLOCK
  5
3C6
100
AcDbEntity
  8
0
100
AcDbBlockBegin
  2
*B8
 70
     0
 10
0.0
 20
0.0
 30
0.0
  3
*B8
  1

  0
LINE
  5
3C7
100
AcDbEntity
  8
0
  6
Continuous
 62
     0
100
AcDbLine
 10
293.090386
 20
244.290104
 30
0.0
 11
253.090239
 21
244.290104
 31
0.0
  0
SOLID
  5
3C8
100
AcDbEntity
  8
0
  6
Continuous
 62
     0
100
AcDbTrace
 10
288.090405
 20
245.29016
 30
0.0
 11
283.090425
 21
244.290104
 31
0.0
 12
288.090405
 22
243.290348
 32
0.0
 13
288.090405
 23
243.290348
 33
0.0
  0
SOLID
  5
3C9
100
AcDbEntity
  8
0
  6
Continuous
 62
     0
100
AcDbTrace
 10
258.090219
 20
243.290348
 30
0.0
 11
263.0902
 21
244.290104
 31
0.0
 12
258.090219
 22
245.29016
 32
0.0
 13
258.090219
 23
245.29016
 33
0.0
  0
ENDBLK
  5
3CA
100
AcDbEntity
  8
0
100
AcDbBlockEnd
  0
BLOCK
  5
3CD
100
AcDbEntity
  8
0
100
AcDbBlockBegin
  2
*B9
 70
     0
 10
0.0
 20
0.0
 30
0.0
  3
*B9
  1

  0
LINE
  5
3CE
100
AcDbEntity
  8
0
  6
Continuous
 62
     0
100
AcDbLine
 10
273.090162
 20
259.289145
 30
0.0
 11
231.190238
 21
259.289145
 31
0.0
  0
SOLID
  5
3CF
100
AcDbEntity
  8
0
  6
Continuous
 62
     0
100
AcDbTrace
 10
268.090181
 20
258.289089
 30
0.0
 11
273.090162
 21
259.289145
 31
0.0
 12
268.090181
 22
260.289202
 32
0.0
 13
268.090181
 23
260.289202
 33
0.0
  0
SOLID
  5
3D0
100
AcDbEntity
  8
0
  6
Continuous
 62
     0
100
AcDbTrace
 10
236.190219
 20
260.289202
 30
0.0
 11
231.190238
 21
259.289145
 31
0.0
 12
236.190219
 22
258.289089
 32
0.0
 13
236.190219
 23
258.289089
 33
0.0
  0
ENDBLK
  5
3D1
100
AcDbEntity
  8
0
100
AcDbBlockEnd
  0
BLOCK
  5
3D4
100
AcDbEntity
  8
0
100
AcDbBlockBegin
  2
*B10
 70
     0
 10
0.0
 20
0.0
 30
0.0
  3
*B10
  1

  0
LINE
  5
3D5
100
AcDbEntity
  8
0
  6
Continuous
 62
     0
100
AcDbLine
 10
202.463179
 20
198.960428
 30
0.0
 11
202.463179
 21
110.966892
 31
0.0
  0
SOLID
  5
3D6
100
AcDbEntity
  8
0
  6
Continuous
 62
     0
100
AcDbTrace
 10
203.463235
 20
193.960748
 30
0.0
 11
202.463179
 21
198.960428
 31
0.0
 12
201.463122
 22
193.960748
 32
0.0
 13
201.463122
 23
193.960748
 33
0.0
  0
SOLID
  5
3D7
100
AcDbEntity
  8
0
  6
Continuous
 62
     0
100
AcDbTrace
 10
201.463122
 20
115.966573
 30
0.0
 11
202.463179
 21
110.966892
 31
0.0
 12
203.463235
 22
115.966573
 32
0.0
 13
203.463235
 23
115.966573
 33
0.0
  0
ENDBLK
  5
3D8
100
AcDbEntity
  8
0
100
AcDbBlockEnd
  0
BLOCK
  5
3DB
100
AcDbEntity
  8
0
100
AcDbBlockBegin
  2
*B11
 70
     0
 10
0.0
 20
0.0
 30
0.0
  3
*B11
  1

  0
LINE
  5
3DC
100
AcDbEntity
  8
0
  6
Continuous
 62
     0
100
AcDbLine
 10
216.463065
 20
148.464046
 30
0.0
 11
216.463065
 21
189.223323
 31
0.0
  0
SOLID
  5
3DD
100
AcDbEntity
  8
0
  6
Continuous
 62
     0
100
AcDbTrace
 10
217.463121
 20
153.463726
 30
0.0
 11
216.463065
 21
158.463407
 31
0.0
 12
215.463309
 22
153.463726
 32
0.0
 13
215.463309
 23
153.463726
 33
0.0
  0
SOLID
  5
3DE
100
AcDbEntity
  8
0
  6
Continuous
 62
     0
100
AcDbTrace
 10
215.463309
 20
172.462392
 30
0.0
 11
216.463065
 21
167.462711
 31
0.0
 12
217.463121
 22
172.462392
 32
0.0
 13
217.463121
 23
172.462392
 33
0.0
  0
ENDBLK
  5
3DF
100
AcDbEntity
  8
0
100
AcDbBlockEnd
  0
BLOCK
  5
3E2
100
AcDbEntity
  8
0
100
AcDbBlockBegin
  2
*B12
 70
     0
 10
0.0
 20
0.0
 30
0.0
  3
*B12
  1

  0
LINE
  5
3E3
100
AcDbEntity
  8
0
  6
Continuous
 62
     0
100
AcDbLine
 10
281.190047
 20
80.302205
 30
0.0
 11
231.190238
 21
80.302205
 31
0.0
  0
SOLID
  5
3E4
100
AcDbEntity
  8
0
  6
Continuous
 62
     0
100
AcDbTrace
 10
276.190066
 20
79.302149
 30
0.0
 11
281.190047
 21
80.302205
 31
0.0
 12
276.190066
 22
81.301961
 32
0.0
 13
276.190066
 23
81.301961
 33
0.0
  0
SOLID
  5
3E5
100
AcDbEntity
  8
0
  6
Continuous
 62
     0
100
AcDbTrace
 10
236.190219
 20
81.301961
 30
0.0
 11
231.190238
 21
80.302205
 31
0.0
 12
236.190219
 22
79.302149
 32
0.0
 13
236.190219
 23
79.302149
 33
0.0
  0
ENDBLK
  5
3E6
100
AcDbEntity
  8
0
100
AcDbBlockEnd
  0
BLOCK
  5
3E9
100
AcDbEntity
  8
0
100
AcDbBlockBegin
  2
*B13
 70
     0
 10
0.0
 20
0.0
 30
0.0
  3
*B13
  1

  0
LINE
  5
3EA
100
AcDbEntity
  8
0
  6
Continuous
 62
     0
100
AcDbLine
 10
183.739686
 20
80.989537
 30
0.0
 11
153.7395
 21
80.989537
 31
0.0
  0
SOLID
  5
3EB
100
AcDbEntity
  8
0
  6
Continuous
 62
     0
100
AcDbTrace
 10
178.739705
 20
79.989481
 30
0.0
 11
183.739686
 21
80.989537
 31
0.0
 12
178.739705
 22
81.989293
 32
0.0
 13
178.739705
 23
81.989293
 33
0.0
  0
SOLID
  5
3EC
100
AcDbEntity
  8
0
  6
Continuous
 62
     0
100
AcDbTrace
 10
158.739781
 20
81.989293
 30
0.0
 11
153.7395
 21
80.989537
 31
0.0
 12
158.739781
 22
79.989481
 32
0.0
 13
158.739781
 23
79.989481
 33
0.0
  0
ENDBLK
  5
3ED
100
AcDbEntity
  8
0
100
AcDbBlockEnd
  0
BLOCK
  5
3F0
100
AcDbEntity
  8
0
100
AcDbBlockBegin
  2
*B14
 70
     0
 10
0.0
 20
0.0
 30
0.0
  3
*B14
  1

  0
LINE
  5
3F1
100
AcDbEntity
  8
0
  6
Continuous
 62
     0
100
AcDbLine
 10
240.190144
 20
95.300946
 30
0.0
 11
272.190142
 21
95.300946
 31
0.0
  0
SOLID
  5
3F2
100
AcDbEntity
  8
0
  6
Continuous
 62
     0
100
AcDbTrace
 10
245.190125
 20
96.301003
 30
0.0
 11
240.190144
 21
95.300946
 31
0.0
 12
245.190125
 22
94.30119
 32
0.0
 13
245.190125
 23
94.30119
 33
0.0
  0
SOLID
  5
3F3
100
AcDbEntity
  8
0
  6
Continuous
 62
     0
100
AcDbTrace
 10
267.190161
 20
94.30119
 30
0.0
 11
272.190142
 21
95.300946
 31
0.0
 12
267.190161
 22
96.301003
 32
0.0
 13
267.190161
 23
96.301003
 33
0.0
  0
ENDBLK
  5
3F4
100
AcDbEntity
  8
0
100
AcDbBlockEnd
  0
BLOCK
  5
3F7
100
AcDbEntity
  8
0
100
AcDbBlockBegin
  2
*B15
 70
     0
 10
0.0
 20
0.0
 30
0.0
  3
*B15
  1

  0
LINE
  5
3F8
100
AcDbEntity
  8
0
  6
Continuous
 62
     0
100
AcDbLine
 10
154.539485
 20
94.988523
 30
0.0
 11
189.233236
 21
94.988523
 31
0.0
  0
SOLID
  5
3F9
100
AcDbEntity
  8
0
  6
Continuous
 62
     0
100
AcDbTrace
 10
159.539766
 20
93.988466
 30
0.0
 11
164.539747
 21
94.988523
 31
0.0
 12
159.539766
 22
95.988278
 32
0.0
 13
159.539766
 23
95.988278
 33
0.0
  0
SOLID
  5
3FA
100
AcDbEntity
  8
0
  6
Continuous
 62
     0
100
AcDbTrace
 10
177.93972
 20
95.988278
 30
0.0
 11
172.939739
 21
94.988523
 31
0.0
 12
177.93972
 22
93.988466
 32
0.0
 13
177.93972
 23
93.988466
 33
0.0
  0
ENDBLK
  5
3FB
100
AcDbEntity
  8
0
100
AcDbBlockEnd
  0
BLOCK
  5
3FE
100
AcDbEntity
  8
0
100
AcDbBlockBegin
  2
*B16
 70
     0
 10
0.0
 20
0.0
 30
0.0
  3
*B16
  1

  0
LINE
  5
3FF
100
AcDbEntity
  8
0
  6
Continuous
 62
     0
100
AcDbLine
 10
240.190144
 20
146.297207
 30
0.0
 11
272.190142
 21
146.297207
 31
0.0
  0
SOLID
  5
400
100
AcDbEntity
  8
0
  6
Continuous
 62
     0
100
AcDbTrace
 10
245.190125
 20
147.297263
 30
0.0
 11
240.190144
 21
146.297207
 31
0.0
 12
245.190125
 22
145.297451
 32
0.0
 13
245.190125
 23
145.297451
 33
0.0
  0
SOLID
  5
401
100
AcDbEntity
  8
0
  6
Continuous
 62
     0
100
AcDbTrace
 10
267.190161
 20
145.297451
 30
0.0
 11
272.190142
 21
146.297207
 31
0.0
 12
267.190161
 22
147.297263
 32
0.0
 13
267.190161
 23
147.297263
 33
0.0
  0
ENDBLK
  5
402
100
AcDbEntity
  8
0
100
AcDbBlockEnd
  0
BLOCK
  5
405
100
AcDbEntity
  8
0
100
AcDbBlockBegin
  2
*B17
 70
     0
 10
0.0
 20
0.0
 30
0.0
  3
*B17
  1

  0
LINE
  5
406
100
AcDbEntity
  8
0
  6
Continuous
 62
     0
100
AcDbLine
 10
183.239508
 20
243.97768
 30
0.0
 11
154.239678
 21
243.97768
 31
0.0
  0
SOLID
  5
407
100
AcDbEntity
  8
0
  6
Continuous
 62
     0
100
AcDbTrace
 10
178.239527
 20
244.977736
 30
0.0
 11
173.239546
 21
243.97768
 31
0.0
 12
178.239527
 22
242.977624
 32
0.0
 13
178.239527
 23
242.977624
 33
0.0
  0
SOLID
  5
408
100
AcDbEntity
  8
0
  6
Continuous
 62
     0
100
AcDbTrace
 10
159.239659
 20
242.977624
 30
0.0
 11
164.23964
 21
243.97768
 31
0.0
 12
159.239659
 22
244.977736
 32
0.0
 13
159.239659
 23
244.977736
 33
0.0
  0
ENDBLK
  5
409
100
AcDbEntity
  8
0
100
AcDbBlockEnd
  0
BLOCK
  5
40C
100
AcDbEntity
  8
0
100
AcDbBlockBegin
  2
*B18
 70
     0
 10
0.0
 20
0.0
 30
0.0
  3
*B18
  1

  0
LINE
  5
40D
100
AcDbEntity
  8
0
  6
Continuous
 62
     8
100
AcDbLine
 10
147.739763
 20
162.650485
 30
0.0
 11
165.239697
 21
162.650485
 31
0.0
  0
LINE
  5
40E
100
AcDbEntity
  8
0
  6
Continuous
 62
     8
100
AcDbLine
 10
168.239565
 20
162.650485
 30
0.0
 11
169.239621
 21
162.650485
 31
0.0
  0
LINE
  5
40F
100
AcDbEntity
  8
0
  6
Continuous
 62
     8
100
AcDbLine
 10
172.23949
 20
162.650485
 30
0.0
 11
189.739723
 21
162.650485
 31
0.0
  0
ENDBLK
  5
410
100
AcDbEntity
  8
0
100
AcDbBlockEnd
  0
BLOCK
  5
413
100
AcDbEntity
  8
0
100
AcDbBlockBegin
  2
*B19
 70
     0
 10
0.0
 20
0.0
 30
0.0
  3
*B19
  1

  0
LINE
  5
414
100
AcDbEntity
  8
0
  6
Continuous
 62
     8
100
AcDbLine
 10
172.939739
 20
92.98871
 30
0.0
 11
172.939739
 21
107.6546
 31
0.0
  0
ENDBLK
  5
415
100
AcDbEntity
  8
0
100
AcDbBlockEnd
  0
BLOCK
  5
418
100
AcDbEntity
  8
0
100
AcDbBlockBegin
  2
*B20
 70
     0
 10
0.0
 20
0.0
 30
0.0
  3
*B20
  1

  0
LINE
  5
419
100
AcDbEntity
  8
0
  6
Continuous
 62
     8
100
AcDbLine
 10
238.190031
 20
181.961575
 30
0.0
 11
238.190031
 21
185.961499
 31
0.0
  0
ENDBLK
  5
41A
100
AcDbEntity
  8
0
100
AcDbBlockEnd
  0
BLOCK
  5
41D
100
AcDbEntity
  8
0
100
AcDbBlockBegin
  2
*B21
 70
     0
 10
0.0
 20
0.0
 30
0.0
  3
*B21
  1

  0
LINE
  5
41E
100
AcDbEntity
  8
0
  6
Continuous
 62
     8
100
AcDbLine
 10
229.690003
 20
162.963209
 30
0.0
 11
235.190163
 21
162.963209
 31
0.0
  0
LINE
  5
41F
100
AcDbEntity
  8
0
  6
Continuous
 62
     8
100
AcDbLine
 10
245.190125
 20
162.963209
 30
0.0
 11
250.689983
 21
162.963209
 31
0.0
  0
ENDBLK
  5
420
100
AcDbEntity
  8
0
100
AcDbBlockEnd
  0
BLOCK
  5
423
100
AcDbEntity
  8
0
100
AcDbBlockBegin
  2
*B22
 70
     0
 10
0.0
 20
0.0
 30
0.0
  3
*B22
  1

  0
LINE
  5
424
100
AcDbEntity
  8
0
  6
Continuous
 62
     8
100
AcDbLine
 10
332.463284
 20
162.963209
 30
0.0
 11
336.463208
 21
162.963209
 31
0.0
  0
LINE
  5
425
100
AcDbEntity
  8
0
  6
Continuous
 62
     8
100
AcDbLine
 10
258.690133
 20
162.963209
 30
0.0
 11
267.190161
 21
162.963209
 31
0.0
  0
LINE
  5
426
100
AcDbEntity
  8
0
  6
Continuous
 62
     8
100
AcDbLine
 10
277.190123
 20
162.963209
 30
0.0
 11
290.947881
 21
162.963209
 31
0.0
  0
LINE
  5
427
100
AcDbEntity
  8
0
  6
Continuous
 62
     8
100
AcDbLine
 10
293.947749
 20
162.963209
 30
0.0
 11
294.947805
 21
162.963209
 31
0.0
  0
LINE
  5
428
100
AcDbEntity
  8
0
  6
Continuous
 62
     8
100
AcDbLine
 10
297.947674
 20
162.963209
 30
0.0
 11
311.705432
 21
162.963209
 31
0.0
  0
LINE
  5
429
100
AcDbEntity
  8
0
  6
Continuous
 62
     8
100
AcDbLine
 10
314.7053
 20
162.963209
 30
0.0
 11
315.705357
 21
162.963209
 31
0.0
  0
LINE
  5
42A
100
AcDbEntity
  8
0
  6
Continuous
 62
     8
100
AcDbLine
 10
318.705525
 20
162.963209
 30
0.0
 11
332.463284
 21
162.963209
 31
0.0
  0
ENDBLK
  5
42B
100
AcDbEntity
  8
0
100
AcDbBlockEnd
  0
BLOCK
  5
42E
100
AcDbEntity
  8
0
100
AcDbBlockBegin
  2
*B23
 70
     0
 10
0.0
 20
0.0
 30
0.0
  3
*B23
  1

  0
LINE
  5
42F
100
AcDbEntity
  8
0
  6
Continuous
 62
     8
100
AcDbLine
 10
276.476655
 20
189.819031
 30
0.0
 11
276.476655
 21
198.818336
 31
0.0
  0
LINE
  5
430
100
AcDbEntity
  8
0
  6
Continuous
 62
     8
100
AcDbLine
 10
276.476655
 20
208.817396
 30
0.0
 11
276.476655
 21
217.817001
 31
0.0
  0
ENDBLK
  5
431
100
AcDbEntity
  8
0
100
AcDbBlockEnd
  0
BLOCK
  5
434
100
AcDbEntity
  8
0
100
AcDbBlockBegin
  2
*B24
 70
     0
 10
0.0
 20
0.0
 30
0.0
  3
*B24
  1

  0
LINE
  5
435
100
AcDbEntity
  8
0
  6
Continuous
 62
     8
100
AcDbLine
 10
147.739763
 20
190.648456
 30
0.0
 11
165.239697
 21
190.648456
 31
0.0
  0
LINE
  5
436
100
AcDbEntity
  8
0
  6
Continuous
 62
     8
100
AcDbLine
 10
168.239565
 20
190.648456
 30
0.0
 11
169.239621
 21
190.648456
 31
0.0
  0
LINE
  5
437
100
AcDbEntity
  8
0
  6
Continuous
 62
     8
100
AcDbLine
 10
172.23949
 20
190.648456
 30
0.0
 11
189.739723
 21
190.648456
 31
0.0
  0
ENDBLK
  5
438
100
AcDbEntity
  8
0
100
AcDbBlockEnd
  0
BLOCK
  5
43B
100
AcDbEntity
  8
0
100
AcDbBlockBegin
  2
*B25
 70
     0
 10
0.0
 20
0.0
 30
0.0
  3
*B25
  1

  0
LINE
  5
43C
100
AcDbEntity
  8
0
  6
Continuous
 62
     8
100
AcDbLine
 10
200.463066
 20
110.966892
 30
0.0
 11
228.190069
 21
110.966892
 31
0.0
  0
LINE
  5
43D
100
AcDbEntity
  8
0
  6
Continuous
 62
     8
100
AcDbLine
 10
284.189916
 20
110.966892
 30
0.0
 11
336.463208
 21
110.966892
 31
0.0
  0
ENDBLK
  5
43E
100
AcDbEntity
  8
0
100
AcDbBlockEnd
  0
BLOCK
  5
441
100
AcDbEntity
  8
0
100
AcDbBlockBegin
  2
*B26
 70
     0
 10
0.0
 20
0.0
 30
0.0
  3
*B26
  1

  0
LINE
  5
442
100
AcDbEntity
  8
0
  6
Continuous
 62
     8
100
AcDbLine
 10
256.190143
 20
104.967155
 30
0.0
 11
256.190143
 21
115.799847
 31
0.0
  0
LINE
  5
443
100
AcDbEntity
  8
0
  6
Continuous
 62
     8
100
AcDbLine
 10
256.190143
 20
118.799715
 30
0.0
 11
256.190143
 21
119.799471
 31
0.0
  0
LINE
  5
444
100
AcDbEntity
  8
0
  6
Continuous
 62
     8
100
AcDbLine
 10
256.190143
 20
122.799339
 30
0.0
 11
256.190143
 21
133.63203
 31
0.0
  0
LINE
  5
445
100
AcDbEntity
  8
0
  6
Continuous
 62
     8
100
AcDbLine
 10
256.190143
 20
136.631598
 30
0.0
 11
256.190143
 21
137.631655
 31
0.0
  0
LINE
  5
446
100
AcDbEntity
  8
0
  6
Continuous
 62
     8
100
AcDbLine
 10
256.190143
 20
140.631523
 30
0.0
 11
256.190143
 21
151.463914
 31
0.0
  0
LINE
  5
447
100
AcDbEntity
  8
0
  6
Continuous
 62
     8
100
AcDbLine
 10
256.190143
 20
154.463782
 30
0.0
 11
256.190143
 21
155.463538
 31
0.0
  0
LINE
  5
448
100
AcDbEntity
  8
0
  6
Continuous
 62
     8
100
AcDbLine
 10
256.190143
 20
158.463407
 30
0.0
 11
256.190143
 21
169.296098
 31
0.0
  0
LINE
  5
449
100
AcDbEntity
  8
0
  6
Continuous
 62
     8
100
AcDbLine
 10
256.190143
 20
172.295666
 30
0.0
 11
256.190143
 21
173.295722
 31
0.0
  0
LINE
  5
44A
100
AcDbEntity
  8
0
  6
Continuous
 62
     8
100
AcDbLine
 10
256.190143
 20
176.29559
 30
0.0
 11
256.190143
 21
187.127981
 31
0.0
  0
LINE
  5
44B
100
AcDbEntity
  8
0
  6
Continuous
 62
     8
100
AcDbLine
 10
256.190143
 20
190.12785
 30
0.0
 11
256.190143
 21
191.127605
 31
0.0
  0
LINE
  5
44C
100
AcDbEntity
  8
0
  6
Continuous
 62
     8
100
AcDbLine
 10
256.190143
 20
194.127474
 30
0.0
 11
256.190143
 21
204.960165
 31
0.0
  0
ENDBLK
  5
44D
100
AcDbEntity
  8
0
100
AcDbBlockEnd
  0
BLOCK
  5
450
100
AcDbEntity
  8
0
100
AcDbBlockBegin
  2
*B27
 70
     0
 10
0.0
 20
0.0
 30
0.0
  3
*B27
  1

  0
LINE
  5
451
100
AcDbEntity
  8
0
  6
Continuous
 62
     8
100
AcDbLine
 10
243.190012
 20
190.96118
 30
0.0
 11
247.190237
 21
190.96118
 31
0.0
  0
ENDBLK
  5
452
100
AcDbEntity
  8
0
100
AcDbBlockEnd
  0
BLOCK
  5
455
100
AcDbEntity
  8
0
100
AcDbBlockBegin
  2
*B28
 70
     0
 10
0.0
 20
0.0
 30
0.0
  3
*B28
  1

  0
LINE
  5
456
100
AcDbEntity
  8
0
  6
Continuous
 62
     8
100
AcDbLine
 10
168.739743
 20
104.654732
 30
0.0
 11
168.739743
 21
114.973125
 31
0.0
  0
LINE
  5
457
100
AcDbEntity
  8
0
  6
Continuous
 62
     8
100
AcDbLine
 10
168.739743
 20
117.972994
 30
0.0
 11
168.739743
 21
118.97275
 31
0.0
  0
LINE
  5
458
100
AcDbEntity
  8
0
  6
Continuous
 62
     8
100
AcDbLine
 10
168.739743
 20
121.972618
 30
0.0
 11
168.739743
 21
132.291012
 31
0.0
  0
LINE
  5
459
100
AcDbEntity
  8
0
  6
Continuous
 62
     8
100
AcDbLine
 10
168.739743
 20
135.29088
 30
0.0
 11
168.739743
 21
136.290936
 31
0.0
  0
LINE
  5
45A
100
AcDbEntity
  8
0
  6
Continuous
 62
     8
100
AcDbLine
 10
168.739743
 20
139.290504
 30
0.0
 11
168.739743
 21
149.609199
 31
0.0
  0
LINE
  5
45B
100
AcDbEntity
  8
0
  6
Continuous
 62
     8
100
AcDbLine
 10
168.739743
 20
152.608767
 30
0.0
 11
168.739743
 21
153.608823
 31
0.0
  0
LINE
  5
45C
100
AcDbEntity
  8
0
  6
Continuous
 62
     8
100
AcDbLine
 10
168.739743
 20
156.608691
 30
0.0
 11
168.739743
 21
166.927085
 31
0.0
  0
LINE
  5
45D
100
AcDbEntity
  8
0
  6
Continuous
 62
     8
100
AcDbLine
 10
168.739743
 20
169.926653
 30
0.0
 11
168.739743
 21
170.926709
 31
0.0
  0
LINE
  5
45E
100
AcDbEntity
  8
0
  6
Continuous
 62
     8
100
AcDbLine
 10
168.739743
 20
173.926578
 30
0.0
 11
168.739743
 21
184.244971
 31
0.0
  0
LINE
  5
45F
100
AcDbEntity
  8
0
  6
Continuous
 62
     8
100
AcDbLine
 10
168.739743
 20
187.24484
 30
0.0
 11
168.739743
 21
188.244596
 31
0.0
  0
LINE
  5
460
100
AcDbEntity
  8
0
  6
Continuous
 62
     8
100
AcDbLine
 10
168.739743
 20
191.244464
 30
0.0
 11
168.739743
 21
201.562858
 31
0.0
  0
LINE
  5
461
100
AcDbEntity
  8
0
  6
Continuous
 62
     8
100
AcDbLine
 10
168.739743
 20
204.562726
 30
0.0
 11
168.739743
 21
205.562482
 31
0.0
  0
LINE
  5
462
100
AcDbEntity
  8
0
  6
Continuous
 62
     8
100
AcDbLine
 10
168.739743
 20
208.56235
 30
0.0
 11
168.739743
 21
218.880744
 31
0.0
  0
LINE
  5
463
100
AcDbEntity
  8
0
  6
Continuous
 62
     8
100
AcDbLine
 10
168.739743
 20
221.880612
 30
0.0
 11
168.739743
 21
222.880669
 31
0.0
  0
LINE
  5
464
100
AcDbEntity
  8
0
  6
Continuous
 62
     8
100
AcDbLine
 10
168.739743
 20
225.880237
 30
0.0
 11
168.739743
 21
236.198931
 31
0.0
  0
ENDBLK
  5
465
100
AcDbEntity
  8
0
100
AcDbBlockEnd
  0
BLOCK
  5
468
100
AcDbEntity
  8
0
100
AcDbBlockBegin
  2
*B29
 70
     0
 10
0.0
 20
0.0
 30
0.0
  3
*B29
  1

  0
LINE
  5
469
100
AcDbEntity
  8
0
  6
Continuous
 62
     8
100
AcDbLine
 10
152.739744
 20
203.505292
 30
0.0
 11
165.239697
 21
203.505292
 31
0.0
  0
LINE
  5
46A
100
AcDbEntity
  8
0
  6
Continuous
 62
     8
100
AcDbLine
 10
168.239565
 20
203.505292
 30
0.0
 11
169.239621
 21
203.505292
 31
0.0
  0
LINE
  5
46B
100
AcDbEntity
  8
0
  6
Continuous
 62
     8
100
AcDbLine
 10
172.23949
 20
203.505292
 30
0.0
 11
184.739742
 21
203.505292
 31
0.0
  0
ENDBLK
  5
46C
100
AcDbEntity
  8
0
100
AcDbBlockEnd
  0
BLOCK
  5
46F
100
AcDbEntity
  8
0
100
AcDbBlockBegin
  2
*B30
 70
     0
 10
0.0
 20
0.0
 30
0.0
  3
*B30
  1

  0
LINE
  5
470
100
AcDbEntity
  8
0
  6
Continuous
 62
     8
100
AcDbLine
 10
214.463253
 20
158.463407
 30
0.0
 11
237.189975
 21
158.463407
 31
0.0
  0
ENDBLK
  5
471
100
AcDbEntity
  8
0
100
AcDbBlockEnd
  0
BLOCK
  5
474
100
AcDbEntity
  8
0
100
AcDbBlockBegin
  2
*B31
 70
     0
 10
0.0
 20
0.0
 30
0.0
  3
*B31
  1

  0
LINE
  5
475
100
AcDbEntity
  8
0
  6
Continuous
 62
     8
100
AcDbLine
 10
273.090162
 20
257.289333
 30
0.0
 11
273.090162
 21
261.288958
 31
0.0
  0
LINE
  5
476
100
AcDbEntity
  8
0
  6
Continuous
 62
     8
100
AcDbLine
 10
273.090162
 20
206.513572
 30
0.0
 11
273.090162
 21
217.512689
 31
0.0
  0
LINE
  5
477
100
AcDbEntity
  8
0
  6
Continuous
 62
     8
100
AcDbLine
 10
273.090162
 20
227.51205
 30
0.0
 11
273.090162
 21
238.900795
 31
0.0
  0
LINE
  5
478
100
AcDbEntity
  8
0
  6
Continuous
 62
     8
100
AcDbLine
 10
273.090162
 20
241.900663
 30
0.0
 11
273.090162
 21
242.90072
 31
0.0
  0
LINE
  5
479
100
AcDbEntity
  8
0
  6
Continuous
 62
     8
100
AcDbLine
 10
273.090162
 20
245.900288
 30
0.0
 11
273.090162
 21
257.289333
 31
0.0
  0
ENDBLK
  5
47A
100
AcDbEntity
  8
0
100
AcDbBlockEnd
  0
BLOCK
  5
47D
100
AcDbEntity
  8
0
100
AcDbBlockBegin
  2
*B32
 70
     0
 10
0.0
 20
0.0
 30
0.0
  3
*B32
  1

  0
LINE
  5
47E
100
AcDbEntity
  8
0
  6
Continuous
 62
     8
100
AcDbLine
 10
231.190238
 20
78.302093
 30
0.0
 11
231.190238
 21
107.967024
 31
0.0
  0
LINE
  5
47F
100
AcDbEntity
  8
0
  6
Continuous
 62
     8
100
AcDbLine
 10
231.190238
 20
201.960297
 30
0.0
 11
231.190238
 21
261.288958
 31
0.0
  0
ENDBLK
  5
480
100
AcDbEntity
  8
0
100
AcDbBlockEnd
  0
BLOCK
  5
483
100
AcDbEntity
  8
0
100
AcDbBlockBegin
  2
*B33
 70
     0
 10
0.0
 20
0.0
 30
0.0
  3
*B33
  1

  0
LINE
  5
484
100
AcDbEntity
  8
0
  6
Continuous
 62
     8
100
AcDbLine
 10
164.539747
 20
92.98871
 30
0.0
 11
164.539747
 21
107.6546
 31
0.0
  0
ENDBLK
  5
485
100
AcDbEntity
  8
0
100
AcDbBlockEnd
  0
BLOCK
  5
488
100
AcDbEntity
  8
0
100
AcDbBlockBegin
  2
*B34
 70
     0
 10
0.0
 20
0.0
 30
0.0
  3
*B34
  1

  0
LINE
  5
489
100
AcDbEntity
  8
0
  6
Continuous
 62
     8
100
AcDbLine
 10
183.739686
 20
78.989725
 30
0.0
 11
183.739686
 21
107.6546
 31
0.0
  0
ENDBLK
  5
48A
100
AcDbEntity
  8
0
100
AcDbBlockEnd
  0
BLOCK
  5
48D
100
AcDbEntity
  8
0
100
AcDbBlockBegin
  2
*B35
 70
     0
 10
0.0
 20
0.0
 30
0.0
  3
*B35
  1

  0
LINE
  5
48E
100
AcDbEntity
  8
0
  6
Continuous
 62
     8
100
AcDbLine
 10
200.463066
 20
198.960428
 30
0.0
 11
228.190069
 21
198.960428
 31
0.0
  0
ENDBLK
  5
48F
100
AcDbEntity
  8
0
100
AcDbBlockEnd
  0
BLOCK
  5
492
100
AcDbEntity
  8
0
100
AcDbBlockBegin
  2
*B36
 70
     0
 10
0.0
 20
0.0
 30
0.0
  3
*B36
  1

  0
LINE
  5
493
100
AcDbEntity
  8
0
  6
Continuous
 62
     8
100
AcDbLine
 10
289.463267
 20
224.512181
 30
0.0
 11
323.463078
 21
224.512181
 31
0.0
  0
ENDBLK
  5
494
100
AcDbEntity
  8
0
100
AcDbBlockEnd
  0
BLOCK
  5
497
100
AcDbEntity
  8
0
100
AcDbBlockBegin
  2
*B37
 70
     0
 10
0.0
 20
0.0
 30
0.0
  3
*B37
  1

  0
LINE
  5
498
100
AcDbEntity
  8
0
  6
Continuous
 62
     8
100
AcDbLine
 10
283.090425
 20
225.512238
 30
0.0
 11
283.090425
 21
246.290216
 31
0.0
  0
ENDBLK
  5
499
100
AcDbEntity
  8
0
100
AcDbBlockEnd
  0
BLOCK
  5
49C
100
AcDbEntity
  8
0
100
AcDbBlockBegin
  2
*B38
 70
     0
 10
0.0
 20
0.0
 30
0.0
  3
*B38
  1

  0
LINE
  5
49D
100
AcDbEntity
  8
0
  6
Continuous
 62
     8
100
AcDbLine
 10
289.463267
 20
220.512557
 30
0.0
 11
323.463078
 21
220.512557
 31
0.0
  0
ENDBLK
  5
49E
100
AcDbEntity
  8
0
100
AcDbBlockEnd
  0
BLOCK
  5
4A1
100
AcDbEntity
  8
0
100
AcDbBlockBegin
  2
*B39
 70
     0
 10
0.0
 20
0.0
 30
0.0
  3
*B39
  1

  0
LINE
  5
4A2
100
AcDbEntity
  8
0
  6
Continuous
 62
     8
100
AcDbLine
 10
257.090163
 20
222.512369
 30
0.0
 11
268.090181
 21
222.512369
 31
0.0
  0
LINE
  5
4A3
100
AcDbEntity
  8
0
  6
Continuous
 62
     8
100
AcDbLine
 10
278.090444
 20
222.512369
 30
0.0
 11
289.090161
 21
222.512369
 31
0.0
  0
ENDBLK
  5
4A4
100
AcDbEntity
  8
0
100
AcDbBlockEnd
  0
BLOCK
  5
4A7
100
AcDbEntity
  8
0
100
AcDbBlockBegin
  2
*B40
 70
     0
 10
0.0
 20
0.0
 30
0.0
  3
*B40
  1

  0
LINE
  5
4A8
100
AcDbEntity
  8
0
  6
Continuous
 62
     8
100
AcDbLine
 10
262.476768
 20
203.818016
 30
0.0
 11
271.476674
 21
203.818016
 31
0.0
  0
LINE
  5
4A9
100
AcDbEntity
  8
0
  6
Continuous
 62
     8
100
AcDbLine
 10
281.476636
 20
203.818016
 30
0.0
 11
290.476542
 21
203.818016
 31
0.0
  0
ENDBLK
  5
4AA
100
AcDbEntity
  8
0
100
AcDbBlockEnd
  0
BLOCK
  5
4AD
100
AcDbEntity
  8
0
100
AcDbBlockBegin
  2
*B41
 70
     0
 10
0.0
 20
0.0
 30
0.0
  3
*B41
  1

  0
LINE
  5
4AE
100
AcDbEntity
  8
0
  6
Continuous
 62
     8
100
AcDbLine
 10
272.190142
 20
144.297395
 30
0.0
 11
272.190142
 21
148.297319
 31
0.0
  0
LINE
  5
4AF
100
AcDbEntity
  8
0
  6
Continuous
 62
     8
100
AcDbLine
 10
272.190142
 20
148.297319
 30
0.0
 11
272.190142
 21
157.963529
 31
0.0
  0
LINE
  5
4B0
100
AcDbEntity
  8
0
  6
Continuous
 62
     8
100
AcDbLine
 10
272.190142
 20
167.962589
 30
0.0
 11
272.190142
 21
176.462016
 31
0.0
  0
ENDBLK
  5
4B1
100
AcDbEntity
  8
0
100
AcDbBlockEnd
  0
BLOCK
  5
4B4
100
AcDbEntity
  8
0
100
AcDbBlockBegin
  2
*B42
 70
     0
 10
0.0
 20
0.0
 30
0.0
  3
*B42
  1

  0
LINE
  5
4B5
100
AcDbEntity
  8
0
  6
Continuous
 62
     8
100
AcDbLine
 10
281.190047
 20
78.302093
 30
0.0
 11
281.190047
 21
107.967024
 31
0.0
  0
ENDBLK
  5
4B6
100
AcDbEntity
  8
0
100
AcDbBlockEnd
  0
BLOCK
  5
4B9
100
AcDbEntity
  8
0
100
AcDbBlockBegin
  2
*B43
 70
     0
 10
0.0
 20
0.0
 30
0.0
  3
*B43
  1

  0
LINE
  5
4BA
100
AcDbEntity
  8
0
  6
Continuous
 62
     8
100
AcDbLine
 10
164.23964
 20
234.796929
 30
0.0
 11
164.23964
 21
245.977492
 31
0.0
  0
ENDBLK
  5
4BB
100
AcDbEntity
  8
0
100
AcDbBlockEnd
  0
BLOCK
  5
4BE
100
AcDbEntity
  8
0
100
AcDbBlockBegin
  2
*B44
 70
     0
 10
0.0
 20
0.0
 30
0.0
  3
*B44
  1

  0
LINE
  5
4BF
100
AcDbEntity
  8
0
  6
Continuous
 62
     8
100
AcDbLine
 10
155.739613
 20
222.199645
 30
0.0
 11
165.239697
 21
222.199645
 31
0.0
  0
LINE
  5
4C0
100
AcDbEntity
  8
0
  6
Continuous
 62
     8
100
AcDbLine
 10
168.239565
 20
222.199645
 30
0.0
 11
169.239621
 21
222.199645
 31
0.0
  0
LINE
  5
4C1
100
AcDbEntity
  8
0
  6
Continuous
 62
     8
100
AcDbLine
 10
172.23949
 20
222.199645
 30
0.0
 11
181.739573
 21
222.199645
 31
0.0
  0
ENDBLK
  5
4C2
100
AcDbEntity
  8
0
100
AcDbBlockEnd
  0
BLOCK
  5
4C5
100
AcDbEntity
  8
0
100
AcDbBlockBegin
  2
*B45
 70
     0
 10
0.0
 20
0.0
 30
0.0
  3
*B45
  1

  0
LINE
  5
4C6
100
AcDbEntity
  8
0
  6
Continuous
 62
     8
100
AcDbLine
 10
240.190144
 20
93.301134
 30
0.0
 11
240.190144
 21
97.300758
 31
0.0
  0
LINE
  5
4C7
100
AcDbEntity
  8
0
  6
Continuous
 62
     8
100
AcDbLine
 10
240.190144
 20
97.300758
 30
0.0
 11
240.190144
 21
111.133318
 31
0.0
  0
LINE
  5
4C8
100
AcDbEntity
  8
0
  6
Continuous
 62
     8
100
AcDbLine
 10
240.190144
 20
114.133186
 30
0.0
 11
240.190144
 21
115.132942
 31
0.0
  0
LINE
  5
4C9
100
AcDbEntity
  8
0
  6
Continuous
 62
     8
100
AcDbLine
 10
240.190144
 20
118.132811
 30
0.0
 11
240.190144
 21
131.96537
 31
0.0
  0
ENDBLK
  5
4CA
100
AcDbEntity
  8
0
100
AcDbBlockEnd
  0
BLOCK
  5
4CD
100
AcDbEntity
  8
0
100
AcDbBlockBegin
  2
*B46
 70
     0
 10
0.0
 20
0.0
 30
0.0
  3
*B46
  1

  0
LINE
  5
4CE
100
AcDbEntity
  8
0
  6
Continuous
 62
     8
100
AcDbLine
 10
276.090331
 20
232.51173
 30
0.0
 11
336.463208
 21
232.51173
 31
0.0
  0
ENDBLK
  5
4CF
100
AcDbEntity
  8
0
100
AcDbBlockEnd
  0
BLOCK
  5
4D2
100
AcDbEntity
  8
0
100
AcDbBlockBegin
  2
*B47
 70
     0
 10
0.0
 20
0.0
 30
0.0
  3
*B47
  1

  0
LINE
  5
4D3
100
AcDbEntity
  8
0
  6
Continuous
 62
     8
100
AcDbLine
 10
263.0902
 20
225.512238
 30
0.0
 11
263.0902
 21
246.290216
 31
0.0
  0
ENDBLK
  5
4D4
100
AcDbEntity
  8
0
100
AcDbBlockEnd
  0
BLOCK
  5
4D7
100
AcDbEntity
  8
0
100
AcDbBlockBegin
  2
*B48
 70
     0
 10
0.0
 20
0.0
 30
0.0
  3
*B48
  1

  0
LINE
  5
4D8
100
AcDbEntity
  8
0
  6
Continuous
 62
     8
100
AcDbLine
 10
214.463253
 20
167.462711
 30
0.0
 11
237.189975
 21
167.462711
 31
0.0
  0
ENDBLK
  5
4D9
100
AcDbEntity
  8
0
100
AcDbBlockEnd
  0
BLOCK
  5
4DC
100
AcDbEntity
  8
0
100
AcDbBlockBegin
  2
*B49
 70
     0
 10
0.0
 20
0.0
 30
0.0
  3
*B49
  1

  0
LINE
  5
4DD
100
AcDbEntity
  8
0
  6
Continuous
 62
     8
100
AcDbLine
 10
272.190142
 20
93.301134
 30
0.0
 11
272.190142
 21
97.300758
 31
0.0
  0
LINE
  5
4DE
100
AcDbEntity
  8
0
  6
Continuous
 62
     8
100
AcDbLine
 10
272.190142
 20
97.300758
 30
0.0
 11
272.190142
 21
111.133318
 31
0.0
  0
LINE
  5
4DF
100
AcDbEntity
  8
0
  6
Continuous
 62
     8
100
AcDbLine
 10
272.190142
 20
114.133186
 30
0.0
 11
272.190142
 21
115.132942
 31
0.0
  0
LINE
  5
4E0
100
AcDbEntity
  8
0
  6
Continuous
 62
     8
100
AcDbLine
 10
272.190142
 20
118.132811
 30
0.0
 11
272.190142
 21
131.96537
 31
0.0
  0
ENDBLK
  5
4E1
100
AcDbEntity
  8
0
100
AcDbBlockEnd
  0
BLOCK
  5
4E4
100
AcDbEntity
  8
0
100
AcDbBlockBegin
  2
*B50
 70
     0
 10
0.0
 20
0.0
 30
0.0
  3
*B50
  1

  0
LINE
  5
4E5
100
AcDbEntity
  8
0
  6
Continuous
 62
     8
100
AcDbLine
 10
240.190144
 20
144.297395
 30
0.0
 11
240.190144
 21
148.297319
 31
0.0
  0
LINE
  5
4E6
100
AcDbEntity
  8
0
  6
Continuous
 62
     8
100
AcDbLine
 10
240.190144
 20
148.297319
 30
0.0
 11
240.190144
 21
157.963529
 31
0.0
  0
LINE
  5
4E7
100
AcDbEntity
  8
0
  6
Continuous
 62
     8
100
AcDbLine
 10
240.190144
 20
167.962589
 30
0.0
 11
240.190144
 21
173.462448
 31
0.0
  0
ENDBLK
  5
4E8
100
AcDbEntity
  8
0
100
AcDbBlockEnd
  0
BLOCK
  5
4EB
100
AcDbEntity
  8
0
100
AcDbBlockBegin
  2
*B51
 70
     0
 10
0.0
 20
0.0
 30
0.0
  3
*B51
  1

  0
LINE
  5
4EC
100
AcDbEntity
  8
0
  6
Continuous
 62
     8
100
AcDbLine
 10
153.7395
 20
78.989725
 30
0.0
 11
153.7395
 21
107.6546
 31
0.0
  0
ENDBLK
  5
4ED
100
AcDbEntity
  8
0
100
AcDbBlockEnd
  0
BLOCK
  5
4F0
100
AcDbEntity
  8
0
100
AcDbBlockBegin
  2
*B52
 70
     0
 10
0.0
 20
0.0
 30
0.0
  3
*B52
  1

  0
LINE
  5
4F1
100
AcDbEntity
  8
0
  6
Continuous
 62
     8
100
AcDbLine
 10
173.239546
 20
234.796929
 30
0.0
 11
173.239546
 21
245.977492
 31
0.0
  0
ENDBLK
  5
4F2
100
AcDbEntity
  8
0
100
AcDbBlockEnd
  0
BLOCK
  5
4F5
100
AcDbEntity
  8
0
100
AcDbBlockBegin
  2
*B53
 70
     0
 10
0.0
 20
0.0
 30
0.0
  3
*B53
  1

  0
LINE
  5
4F6
100
AcDbEntity
  8
0
  6
Continuous
 62
     6
100
AcDbLine
 10
276.476655
 20
201.817904
 30
0.0
 11
276.476655
 21
205.817828
 31
0.0
  0
LINE
  5
4F7
100
AcDbEntity
  8
0
  6
Continuous
 62
     6
100
AcDbLine
 10
274.476542
 20
203.818016
 30
0.0
 11
278.476768
 21
203.818016
 31
0.0
  0
ENDBLK
  5
4F8
100
AcDbEntity
  8
0
100
AcDbBlockEnd
  0
BLOCK
  5
4FB
100
AcDbEntity
  8
0
100
AcDbBlockBegin
  2
*B54
 70
     0
 10
0.0
 20
0.0
 30
0.0
  3
*B54
  1

  0
LINE
  5
4FC
100
AcDbEntity
  8
0
  6
Continuous
 62
     6
100
AcDbLine
 10
238.190031
 20
188.961067
 30
0.0
 11
238.190031
 21
192.960992
 31
0.0
  0
LINE
  5
4FD
100
AcDbEntity
  8
0
  6
Continuous
 62
     6
100
AcDbLine
 10
236.190219
 20
190.96118
 30
0.0
 11
240.190144
 21
190.96118
 31
0.0
  0
ENDBLK
  5
4FE
100
AcDbEntity
  8
0
100
AcDbBlockEnd
  0
BLOCK
  5
501
100
AcDbEntity
  8
0
100
AcDbBlockBegin
  2
*B55
 70
     0
 10
0.0
 20
0.0
 30
0.0
  3
*B55
  1

  0
LINE
  5
502
100
AcDbEntity
  8
0
  6
Continuous
 62
     6
100
AcDbLine
 10
238.190031
 20
162.963209
 30
0.0
 11
242.189956
 21
162.963209
 31
0.0
  0
LINE
  5
503
100
AcDbEntity
  8
0
  6
Continuous
 62
     6
100
AcDbLine
 10
240.190144
 20
160.963097
 30
0.0
 11
240.190144
 21
164.963021
 31
0.0
  0
ENDBLK
  5
504
100
AcDbEntity
  8
0
100
AcDbBlockEnd
  0
BLOCK
  5
507
100
AcDbEntity
  8
0
100
AcDbBlockBegin
  2
*B56
 70
     0
 10
0.0
 20
0.0
 30
0.0
  3
*B56
  1

  0
LINE
  5
508
100
AcDbEntity
  8
0
  6
Continuous
 62
     6
100
AcDbLine
 10
273.090162
 20
220.512557
 30
0.0
 11
273.090162
 21
224.512181
 31
0.0
  0
LINE
  5
509
100
AcDbEntity
  8
0
  6
Continuous
 62
     6
100
AcDbLine
 10
271.09035
 20
222.512369
 30
0.0
 11
275.090275
 21
222.512369
 31
0.0
  0
ENDBLK
  5
50A
100
AcDbEntity
  8
0
100
AcDbBlockEnd
  0
BLOCK
  5
50D
100
AcDbEntity
  8
0
100
AcDbBlockBegin
  2
*B57
 70
     0
 10
0.0
 20
0.0
 30
0.0
  3
*B57
  1

  0
LINE
  5
50E
100
AcDbEntity
  8
0
  6
Continuous
 62
     6
100
AcDbLine
 10
270.190029
 20
162.963209
 30
0.0
 11
274.189954
 21
162.963209
 31
0.0
  0
LINE
  5
50F
100
AcDbEntity
  8
0
  6
Continuous
 62
     6
100
AcDbLine
 10
272.190142
 20
160.963097
 30
0.0
 11
272.190142
 21
164.963021
 31
0.0
  0
ENDBLK
  5
510
100
AcDbEntity
  8
0
100
AcDbBlockEnd
  0
BLOCK
  5
513
100
AcDbEntity
  8
0
100
AcDbBlockBegin
  2
*B58
 70
     0
 10
0.0
 20
0.0
 30
0.0
  3
*B58
  1

  0
TEXT
  5
514
100
AcDbEntity
  8
TEXT
  6
Continuous
 62
     0
100
AcDbText
 10
269.8829
 20
113.0
 30
0.0
 40
6.0
  1
2
100
AcDbText
  0
ENDBLK
  5
515
100
AcDbEntity
  8
0
100
AcDbBlockEnd
  0
BLOCK
  5
518
100
AcDbEntity
  8
0
100
AcDbBlockBegin
  2
*B59
 70
     0
 10
0.0
 20
0.0
 30
0.0
  3
*B59
  1

  0
TEXT
  5
519
100
AcDbEntity
  8
TEXT
  6
Continuous
 62
     0
100
AcDbText
 10
237.8829
 20
114.0
 30
0.0
 40
6.0
  1
1
100
AcDbText
  0
ENDBLK
  5
51A
100
AcDbEntity
  8
0
100
AcDbBlockEnd
  0
BLOCK
  5
51D
100
AcDbEntity
  8
0
100
AcDbBlockBegin
  2
*B60
 70
     0
 10
0.0
 20
0.0
 30
0.0
  3
*B60
  1

  0
TEXT
  5
51E
100
AcDbEntity
  8
TEXT
  6
Continuous
 62
     0
100
AcDbText
 10
332.687551
 20
133.590158
 30
0.0
 40
3.5
  1
26
 50
90.0
100
AcDbText
  0
ENDBLK
  5
51F
100
AcDbEntity
  8
0
100
AcDbBlockEnd
  0
BLOCK
  5
522
100
AcDbEntity
  8
0
100
AcDbBlockBegin
  2
*B61
 70
     0
 10
0.0
 20
0.0
 30
0.0
  3
*B61
  1

  0
TEXT
  5
523
100
AcDbEntity
  8
TEXT
  6
Continuous
 62
     0
100
AcDbText
 10
332.687551
 20
194.366926
 30
0.0
 40
3.5
  1
35
 50
90.0
100
AcDbText
  0
ENDBLK
  5
524
100
AcDbEntity
  8
0
100
AcDbBlockEnd
  0
BLOCK
  5
527
100
AcDbEntity
  8
0
100
AcDbBlockBegin
  2
*B62
 70
     0
 10
0.0
 20
0.0
 30
0.0
  3
*B62
  1

  0
TEXT
  5
528
100
AcDbEntity
  8
TEXT
  6
Continuous
 62
     0
100
AcDbText
 10
305.687551
 20
239.673171
 30
0.0
 40
3.5
  1
4
 50
90.0
100
AcDbText
  0
TEXT
  5
529
100
AcDbEntity
  8
TEXT
  6
Continuous
 62
     0
100
AcDbText
 10
305.687551
 20
244.756504
 30
0.0
 40
3.5
  1
Kapcsol¾ l÷ket
 50
90.0
100
AcDbText
  0
ENDBLK
  5
52A
100
AcDbEntity
  8
0
100
AcDbBlockEnd
  0
BLOCK
  5
52D
100
AcDbEntity
  8
0
100
AcDbBlockBegin
  2
*B63
 70
     0
 10
0.0
 20
0.0
 30
0.0
  3
*B63
  1

  0
TEXT
  5
52E
100
AcDbEntity
  8
TEXT
  6
Continuous
 62
     0
100
AcDbText
 10
319.687551
 20
238.923171
 30
0.0
 40
3.5
  1
2
 50
90.0
100
AcDbText
  0
TEXT
  5
52F
100
AcDbEntity
  8
TEXT
  6
Continuous
 62
     0
100
AcDbText
 10
319.687551
 20
244.006504
 30
0.0
 40
3.5
  1
Szabad l÷ket
 50
90.0
100
AcDbText
  0
ENDBLK
  5
530
100
AcDbEntity
  8
0
100
AcDbBlockEnd
  0
BLOCK
  5
533
100
AcDbEntity
  8
0
100
AcDbBlockBegin
  2
*B64
 70
     0
 10
0.0
 20
0.0
 30
0.0
  3
*B64
  1

  0
TEXT
  5
534
100
AcDbEntity
  8
TEXT
  6
Continuous
 62
     0
100
AcDbText
 10
267.281372
 20
246.006504
 30
0.0
 40
3.5
  1
%%c10
100
AcDbText
  0
ENDBLK
  5
535
100
AcDbEntity
  8
0
100
AcDbBlockEnd
  0
BLOCK
  5
538
100
AcDbEntity
  8
0
100
AcDbBlockBegin
  2
*B65
 70
     0
 10
0.0
 20
0.0
 30
0.0
  3
*B65
  1

  0
TEXT
  5
539
100
AcDbEntity
  8
TEXT
  6
Continuous
 62
     0
100
AcDbText
 10
248.781255
 20
261.006504
 30
0.0
 40
3.5
  1
21
100
AcDbText
  0
ENDBLK
  5
53A
100
AcDbEntity
  8
0
100
AcDbBlockEnd
  0
BLOCK
  5
53D
100
AcDbEntity
  8
0
100
AcDbBlockBegin
  2
*B66
 70
     0
 10
0.0
 20
0.0
 30
0.0
  3
*B66
  1

  0
TEXT
  5
53E
100
AcDbEntity
  8
TEXT
  6
Continuous
 62
     0
100
AcDbText
 10
200.687551
 20
151.590158
 30
0.0
 40
3.5
  1
44
 50
90.0
100
AcDbText
  0
ENDBLK
  5
53F
100
AcDbEntity
  8
0
100
AcDbBlockEnd
  0
BLOCK
  5
542
100
AcDbEntity
  8
0
100
AcDbBlockBegin
  2
*B67
 70
     0
 10
0.0
 20
0.0
 30
0.0
  3
*B67
  1

  0
TEXT
  5
543
100
AcDbEntity
  8
TEXT
  6
Continuous
 62
     0
100
AcDbText
 10
214.687551
 20
174.639838
 30
0.0
 40
3.5
  1
%%c4,5
 50
90.0
100
AcDbText
  0
ENDBLK
  5
544
100
AcDbEntity
  8
0
100
AcDbBlockEnd
  0
BLOCK
  5
547
100
AcDbEntity
  8
0
100
AcDbBlockBegin
  2
*B68
 70
     0
 10
0.0
 20
0.0
 30
0.0
  3
*B68
  1

  0
TEXT
  5
548
100
AcDbEntity
  8
TEXT
  6
Continuous
 62
     0
100
AcDbText
 10
252.831138
 20
82.006504
 30
0.0
 40
3.5
  1
25
100
AcDbText
  0
ENDBLK
  5
549
100
AcDbEntity
  8
0
100
AcDbBlockEnd
  0
BLOCK
  5
54C
100
AcDbEntity
  8
0
100
AcDbBlockBegin
  2
*B69
 70
     0
 10
0.0
 20
0.0
 30
0.0
  3
*B69
  1

  0
TEXT
  5
54D
100
AcDbEntity
  8
TEXT
  6
Continuous
 62
     0
100
AcDbText
 10
165.380644
 20
82.69392
 30
0.0
 40
3.5
  1
15
100
AcDbText
  0
ENDBLK
  5
54E
100
AcDbEntity
  8
0
100
AcDbBlockEnd
  0
BLOCK
  5
551
100
AcDbEntity
  8
0
100
AcDbBlockBegin
  2
*B70
 70
     0
 10
0.0
 20
0.0
 30
0.0
  3
*B70
  1

  0
TEXT
  5
552
100
AcDbEntity
  8
TEXT
  6
Continuous
 62
     0
100
AcDbText
 10
252.831138
 20
97.006504
 30
0.0
 40
3.5
  1
16
100
AcDbText
  0
ENDBLK
  5
553
100
AcDbEntity
  8
0
100
AcDbBlockEnd
  0
BLOCK
  5
556
100
AcDbEntity
  8
0
100
AcDbBlockBegin
  2
*B71
 70
     0
 10
0.0
 20
0.0
 30
0.0
  3
*B71
  1

  0
TEXT
  5
557
100
AcDbEntity
  8
TEXT
  6
Continuous
 62
     0
100
AcDbText
 10
180.561664
 20
96.69392
 30
0.0
 40
3.5
  1
M5
100
AcDbText
  0
ENDBLK
  5
558
100
AcDbEntity
  8
0
100
AcDbBlockEnd
  0
BLOCK
  5
55B
100
AcDbEntity
  8
0
100
AcDbBlockBegin
  2
*B72
 70
     0
 10
0.0
 20
0.0
 30
0.0
  3
*B72
  1

  0
TEXT
  5
55C
100
AcDbEntity
  8
TEXT
  6
Continuous
 62
     0
100
AcDbText
 10
252.831138
 20
148.006504
 30
0.0
 40
3.5
  1
16
100
AcDbText
  0
ENDBLK
  5
55D
100
AcDbEntity
  8
0
100
AcDbBlockEnd
  0
BLOCK
  5
560
100
AcDbEntity
  8
0
100
AcDbBlockBegin
  2
*B73
 70
     0
 10
0.0
 20
0.0
 30
0.0
  3
*B73
  1

  0
TEXT
  5
561
100
AcDbEntity
  8
TEXT
  6
Continuous
 62
     0
100
AcDbText
 10
167.04731
 20
245.69392
 30
0.0
 40
3.5
  1
5
100
AcDbText
  0
ENDBLK
  5
562
100
AcDbEntity
  8
0
100
AcDbBlockEnd
  0
ENDSEC
  0
SECTION
  2
ENTITIES
  0
INSERT
  5
1C8
100
AcDbEntity
  8
0
  6
HIDDEN
 62
   174
100
AcDbBlockReference
  2
*B1
 10
0.0
 20
0.0
 30
0.0
  0
INSERT
  5
1CE
100
AcDbEntity
  8
0
  6
Continuous
 62
   172
100
AcDbBlockReference
  2
*B2
 10
0.0
 20
0.0
 30
0.0
  0
INSERT
  5
3A8
100
AcDbEntity
  8
0
  6
HIDDEN
 62
   174
100
AcDbBlockReference
  2
*B3
 10
0.0
 20
0.0
 30
0.0
  0
INSERT
  5
3AF
100
AcDbEntity
  8
0
  6
Continuous
 62
     0
100
AcDbBlockReference
  2
*B4
 10
0.0
 20
0.0
 30
0.0
  0
INSERT
  5
3B6
100
AcDbEntity
  8
0
  6
Continuous
 62
     0
100
AcDbBlockReference
  2
*B5
 10
0.0
 20
0.0
 30
0.0
  0
INSERT
  5
3BD
100
AcDbEntity
  8
0
  6
Continuous
 62
     0
100
AcDbBlockReference
  2
*B6
 10
0.0
 20
0.0
 30
0.0
  0
INSERT
  5
3C4
100
AcDbEntity
  8
0
  6
Continuous
 62
     0
100
AcDbBlockReference
  2
*B7
 10
0.0
 20
0.0
 30
0.0
  0
INSERT
  5
3CB
100
AcDbEntity
  8
0
  6
Continuous
 62
     0
100
AcDbBlockReference
  2
*B8
 10
0.0
 20
0.0
 30
0.0
  0
INSERT
  5
3D2
100
AcDbEntity
  8
0
  6
Continuous
 62
     0
100
AcDbBlockReference
  2
*B9
 10
0.0
 20
0.0
 30
0.0
  0
INSERT
  5
3D9
100
AcDbEntity
  8
0
  6
Continuous
 62
     0
100
AcDbBlockReference
  2
*B10
 10
0.0
 20
0.0
 30
0.0
  0
INSERT
  5
3E0
100
AcDbEntity
  8
0
  6
Continuous
 62
     0
100
AcDbBlockReference
  2
*B11
 10
0.0
 20
0.0
 30
0.0
  0
INSERT
  5
3E7
100
AcDbEntity
  8
0
  6
Continuous
 62
     0
100
AcDbBlockReference
  2
*B12
 10
0.0
 20
0.0
 30
0.0
  0
INSERT
  5
3EE
100
AcDbEntity
  8
0
  6
Continuous
 62
     0
100
AcDbBlockReference
  2
*B13
 10
0.0
 20
0.0
 30
0.0
  0
INSERT
  5
3F5
100
AcDbEntity
  8
0
  6
Continuous
 62
     0
100
AcDbBlockReference
  2
*B14
 10
0.0
 20
0.0
 30
0.0
  0
INSERT
  5
3FC
100
AcDbEntity
  8
0
  6
Continuous
 62
     0
100
AcDbBlockReference
  2
*B15
 10
0.0
 20
0.0
 30
0.0
  0
INSERT
  5
403
100
AcDbEntity
  8
0
  6
Continuous
 62
     0
100
AcDbBlockReference
  2
*B16
 10
0.0
 20
0.0
 30
0.0
  0
INSERT
  5
40A
100
AcDbEntity
  8
0
  6
Continuous
 62
     0
100
AcDbBlockReference
  2
*B17
 10
0.0
 20
0.0
 30
0.0
  0
INSERT
  5
411
100
AcDbEntity
  8
0
  6
Continuous
 62
     8
100
AcDbBlockReference
  2
*B18
 10
0.0
 20
0.0
 30
0.0
  0
INSERT
  5
416
100
AcDbEntity
  8
0
  6
Continuous
 62
     8
100
AcDbBlockReference
  2
*B19
 10
0.0
 20
0.0
 30
0.0
  0
INSERT
  5
41B
100
AcDbEntity
  8
0
  6
Continuous
 62
     8
100
AcDbBlockReference
  2
*B20
 10
0.0
 20
0.0
 30
0.0
  0
INSERT
  5
421
100
AcDbEntity
  8
0
  6
Continuous
 62
     8
100
AcDbBlockReference
  2
*B21
 10
0.0
 20
0.0
 30
0.0
  0
INSERT
  5
42C
100
AcDbEntity
  8
0
  6
Continuous
 62
     8
100
AcDbBlockReference
  2
*B22
 10
0.0
 20
0.0
 30
0.0
  0
INSERT
  5
432
100
AcDbEntity
  8
0
  6
Continuous
 62
     8
100
AcDbBlockReference
  2
*B23
 10
0.0
 20
0.0
 30
0.0
  0
INSERT
  5
439
100
AcDbEntity
  8
0
  6
Continuous
 62
     8
100
AcDbBlockReference
  2
*B24
 10
0.0
 20
0.0
 30
0.0
  0
INSERT
  5
43F
100
AcDbEntity
  8
0
  6
Continuous
 62
     8
100
AcDbBlockReference
  2
*B25
 10
0.0
 20
0.0
 30
0.0
  0
INSERT
  5
44E
100
AcDbEntity
  8
0
  6
Continuous
 62
     8
100
AcDbBlockReference
  2
*B26
 10
0.0
 20
0.0
 30
0.0
  0
INSERT
  5
453
100
AcDbEntity
  8
0
  6
Continuous
 62
     8
100
AcDbBlockReference
  2
*B27
 10
0.0
 20
0.0
 30
0.0
  0
INSERT
  5
466
100
AcDbEntity
  8
0
  6
Continuous
 62
     8
100
AcDbBlockReference
  2
*B28
 10
0.0
 20
0.0
 30
0.0
  0
INSERT
  5
46D
100
AcDbEntity
  8
0
  6
Continuous
 62
     8
100
AcDbBlockReference
  2
*B29
 10
0.0
 20
0.0
 30
0.0
  0
INSERT
  5
472
100
AcDbEntity
  8
0
  6
Continuous
 62
     8
100
AcDbBlockReference
  2
*B30
 10
0.0
 20
0.0
 30
0.0
  0
INSERT
  5
47B
100
AcDbEntity
  8
0
  6
Continuous
 62
     8
100
AcDbBlockReference
  2
*B31
 10
0.0
 20
0.0
 30
0.0
  0
INSERT
  5
481
100
AcDbEntity
  8
0
  6
Continuous
 62
     8
100
AcDbBlockReference
  2
*B32
 10
0.0
 20
0.0
 30
0.0
  0
INSERT
  5
486
100
AcDbEntity
  8
0
  6
Continuous
 62
     8
100
AcDbBlockReference
  2
*B33
 10
0.0
 20
0.0
 30
0.0
  0
INSERT
  5
48B
100
AcDbEntity
  8
0
  6
Continuous
 62
     8
100
AcDbBlockReference
  2
*B34
 10
0.0
 20
0.0
 30
0.0
  0
INSERT
  5
490
100
AcDbEntity
  8
0
  6
Continuous
 62
     8
100
AcDbBlockReference
  2
*B35
 10
0.0
 20
0.0
 30
0.0
  0
INSERT
  5
495
100
AcDbEntity
  8
0
  6
Continuous
 62
     8
100
AcDbBlockReference
  2
*B36
 10
0.0
 20
0.0
 30
0.0
  0
INSERT
  5
49A
100
AcDbEntity
  8
0
  6
Continuous
 62
     8
100
AcDbBlockReference
  2
*B37
 10
0.0
 20
0.0
 30
0.0
  0
INSERT
  5
49F
100
AcDbEntity
  8
0
  6
Continuous
 62
     8
100
AcDbBlockReference
  2
*B38
 10
0.0
 20
0.0
 30
0.0
  0
INSERT
  5
4A5
100
AcDbEntity
  8
0
  6
Continuous
 62
     8
100
AcDbBlockReference
  2
*B39
 10
0.0
 20
0.0
 30
0.0
  0
INSERT
  5
4AB
100
AcDbEntity
  8
0
  6
Continuous
 62
     8
100
AcDbBlockReference
  2
*B40
 10
0.0
 20
0.0
 30
0.0
  0
INSERT
  5
4B2
100
AcDbEntity
  8
0
  6
Continuous
 62
     8
100
AcDbBlockReference
  2
*B41
 10
0.0
 20
0.0
 30
0.0
  0
INSERT
  5
4B7
100
AcDbEntity
  8
0
  6
Continuous
 62
     8
100
AcDbBlockReference
  2
*B42
 10
0.0
 20
0.0
 30
0.0
  0
INSERT
  5
4BC
100
AcDbEntity
  8
0
  6
Continuous
 62
     8
100
AcDbBlockReference
  2
*B43
 10
0.0
 20
0.0
 30
0.0
  0
INSERT
  5
4C3
100
AcDbEntity
  8
0
  6
Continuous
 62
     8
100
AcDbBlockReference
  2
*B44
 10
0.0
 20
0.0
 30
0.0
  0
INSERT
  5
4CB
100
AcDbEntity
  8
0
  6
Continuous
 62
     8
100
AcDbBlockReference
  2
*B45
 10
0.0
 20
0.0
 30
0.0
  0
INSERT
  5
4D0
100
AcDbEntity
  8
0
  6
Continuous
 62
     8
100
AcDbBlockReference
  2
*B46
 10
0.0
 20
0.0
 30
0.0
  0
INSERT
  5
4D5
100
AcDbEntity
  8
0
  6
Continuous
 62
     8
100
AcDbBlockReference
  2
*B47
 10
0.0
 20
0.0
 30
0.0
  0
INSERT
  5
4DA
100
AcDbEntity
  8
0
  6
Continuous
 62
     8
100
AcDbBlockReference
  2
*B48
 10
0.0
 20
0.0
 30
0.0
  0
INSERT
  5
4E2
100
AcDbEntity
  8
0
  6
Continuous
 62
     8
100
AcDbBlockReference
  2
*B49
 10
0.0
 20
0.0
 30
0.0
  0
INSERT
  5
4E9
100
AcDbEntity
  8
0
  6
Continuous
 62
     8
100
AcDbBlockReference
  2
*B50
 10
0.0
 20
0.0
 30
0.0
  0
INSERT
  5
4EE
100
AcDbEntity
  8
0
  6
Continuous
 62
     8
100
AcDbBlockReference
  2
*B51
 10
0.0
 20
0.0
 30
0.0
  0
INSERT
  5
4F3
100
AcDbEntity
  8
0
  6
Continuous
 62
     8
100
AcDbBlockReference
  2
*B52
 10
0.0
 20
0.0
 30
0.0
  0
INSERT
  5
4F9
100
AcDbEntity
  8
0
  6
Continuous
 62
     6
100
AcDbBlockReference
  2
*B53
 10
0.0
 20
0.0
 30
0.0
  0
INSERT
  5
4FF
100
AcDbEntity
  8
0
  6
Continuous
 62
     6
100
AcDbBlockReference
  2
*B54
 10
0.0
 20
0.0
 30
0.0
  0
INSERT
  5
505
100
AcDbEntity
  8
0
  6
Continuous
 62
     6
100
AcDbBlockReference
  2
*B55
 10
0.0
 20
0.0
 30
0.0
  0
INSERT
  5
50B
100
AcDbEntity
  8
0
  6
Continuous
 62
     6
100
AcDbBlockReference
  2
*B56
 10
0.0
 20
0.0
 30
0.0
  0
INSERT
  5
511
100
AcDbEntity
  8
0
  6
Continuous
 62
     6
100
AcDbBlockReference
  2
*B57
 10
0.0
 20
0.0
 30
0.0
  0
INSERT
  5
516
100
AcDbEntity
  8
TEXT
  6
Continuous
 62
     0
100
AcDbBlockReference
  2
*B58
 10
0.0
 20
0.0
 30
0.0
  0
INSERT
  5
51B
100
AcDbEntity
  8
TEXT
  6
Continuous
 62
     0
100
AcDbBlockReference
  2
*B59
 10
0.0
 20
0.0
 30
0.0
  0
INSERT
  5
520
100
AcDbEntity
  8
TEXT
  6
Continuous
 62
     0
100
AcDbBlockReference
  2
*B60
 10
0.0
 20
0.0
 30
0.0
  0
INSERT
  5
525
100
AcDbEntity
  8
TEXT
  6
Continuous
 62
     0
100
AcDbBlockReference
  2
*B61
 10
0.0
 20
0.0
 30
0.0
  0
INSERT
  5
52B
100
AcDbEntity
  8
TEXT
  6
Continuous
 62
     0
100
AcDbBlockReference
  2
*B62
 10
0.0
 20
0.0
 30
0.0
  0
INSERT
  5
531
100
AcDbEntity
  8
TEXT
  6
Continuous
 62
     0
100
AcDbBlockReference
  2
*B63
 10
0.0
 20
0.0
 30
0.0
  0
INSERT
  5
536
100
AcDbEntity
  8
TEXT
  6
Continuous
 62
     0
100
AcDbBlockReference
  2
*B64
 10
0.0
 20
0.0
 30
0.0
  0
INSERT
  5
53B
100
AcDbEntity
  8
TEXT
  6
Continuous
 62
     0
100
AcDbBlockReference
  2
*B65
 10
0.0
 20
0.0
 30
0.0
  0
INSERT
  5
540
100
AcDbEntity
  8
TEXT
  6
Continuous
 62
     0
100
AcDbBlockReference
  2
*B66
 10
0.0
 20
0.0
 30
0.0
  0
INSERT
  5
545
100
AcDbEntity
  8
TEXT
  6
Continuous
 62
     0
100
AcDbBlockReference
  2
*B67
 10
0.0
 20
0.0
 30
0.0
  0
INSERT
  5
54A
100
AcDbEntity
  8
TEXT
  6
Continuous
 62
     0
100
AcDbBlockReference
  2
*B68
 10
0.0
 20
0.0
 30
0.0
  0
INSERT
  5
54F
100
AcDbEntity
  8
TEXT
  6
Continuous
 62
     0
100
AcDbBlockReference
  2
*B69
 10
0.0
 20
0.0
 30
0.0
  0
INSERT
  5
554
100
AcDbEntity
  8
TEXT
  6
Continuous
 62
     0
100
AcDbBlockReference
  2
*B70
 10
0.0
 20
0.0
 30
0.0
  0
INSERT
  5
559
100
AcDbEntity
  8
TEXT
  6
Continuous
 62
     0
100
AcDbBlockReference
  2
*B71
 10
0.0
 20
0.0
 30
0.0
  0
INSERT
  5
55E
100
AcDbEntity
  8
TEXT
  6
Continuous
 62
     0
100
AcDbBlockReference
  2
*B72
 10
0.0
 20
0.0
 30
0.0
  0
INSERT
  5
563
100
AcDbEntity
  8
TEXT
  6
Continuous
 62
     0
100
AcDbBlockReference
  2
*B73
 10
0.0
 20
0.0
 30
0.0
  0
ENDSEC
  0
SECTION
  2
OBJECTS
  0
DICTIONARY
  5
19
100
AcDbDictionary
280
     0
281
     1
  3
ACAD_GROUP
350
1A
  3
ACAD_MLINESTYLE
350
1B
  3
ACAD_LAYOUT
350
1E
  3
ACAD_PLOTSETTINGS
350
22
  3
ACAD_PLOTSTYLENAME
350
1F
  3
ACAD_WIPEOUT_VARS
350
23
  0
DICTIONARY
  5
1A
102
{ACAD_REACTORS
330
19
102
}
100
AcDbDictionary
280
     0
281
     1
  0
DICTIONARY
  5
1B
102
{ACAD_REACTORS
330
19
102
}
100
AcDbDictionary
280
     0
281
     1
  3
Standard
350
1C
  0
MLINESTYLE
  5
1C
102
{ACAD_REACTORS
330
1B
102
}
100
AcDbMlineStyle
  2
Standard
 70
     0
  3

 62
     0
 51
90.0
 52
90.0
 71
     2
 49
0.5
 62
   256
  6
BYLAYER
 49
-0.5
 62
   256
  6
BYLAYER
  0
ACDBDICTIONARYWDFLT
  5
1F
102
{ACAD_REACTORS
330
19
102
}
100
AcDbDictionary
281
     1
  3
Normal
350
1D
100
AcDbDictionaryWithDefault
340
1D
  0
ACDBPLACEHOLDER
  5
1D
102
{ACAD_REACTORS
330
1F
102
}
  0
LAYOUT
  5
20
102
{ACAD_REACTORS
330
1E
102
}
100
AcDbPlotSettings
  1

  2

  4

  6

 40
0.0
 41
0.0
 42
0.0
 43
0.0
 44
0.0
 45
0.0
 46
0.0
 47
0.0
 48
0.0
 49
0.0
140
0.0
141
0.0
142
1.0
143
1.0
 70
     0
 72
     0
 73
     0
 74
     0
  7

 75
     0
147
1.0
148
0.0
149
0.0
100
AcDbLayout
  1
Model
 70
     0
 71
     0
 10
0.0
 20
0.0
 11
0.0
 21
0.0
 12
0.0
 22
0.0
 32
0.0
 14
0.0
 24
0.0
 34
0.0
 15
0.0
 25
0.0
 35
0.0
146
0.0
 13
0.0
 23
0.0
 33
0.0
 16
0.0
 26
0.0
 36
0.0
 17
0.0
 27
0.0
 37
0.0
 76
     0
330
A
331
0
345
0
346
0
  0
LAYOUT
  5
21
102
{ACAD_REACTORS
330
1E
102
}
100
AcDbPlotSettings
  1

  2

  4

  6

 40
0.0
 41
0.0
 42
0.0
 43
0.0
 44
0.0
 45
0.0
 46
0.0
 47
0.0
 48
0.0
 49
0.0
140
0.0
141
0.0
142
1.0
143
1.0
 70
     0
 72
     0
 73
     0
 74
     0
  7

 75
     0
147
1.0
148
0.0
149
0.0
100
AcDbLayout
  1
Layout1
 70
     0
 71
     0
 10
0.0
 20
0.0
 11
0.0
 21
0.0
 12
0.0
 22
0.0
 32
0.0
 14
0.0
 24
0.0
 34
0.0
 15
0.0
 25
0.0
 35
0.0
146
0.0
 13
0.0
 23
0.0
 33
0.0
 16
0.0
 26
0.0
 36
0.0
 17
0.0
 27
0.0
 37
0.0
 76
     0
330
B
331
0
345
0
346
0
  0
DICTIONARY
  5
1E
102
{ACAD_REACTORS
330
19
102
}
100
AcDbDictionary
280
     0
281
     1
  3
Layout1
350
21
  3
Model
350
20
  0
DICTIONARY
  5
22
102
{ACAD_REACTORS
330
19
102
}
100
AcDbDictionary
280
     0
281
     1
  0
WIPEOUTVARIABLES
  5
23
100
AcDbWipeoutVariables
 70
     1
  0
ENDSEC
  0
EOF
