  0
SECTION
  2
HEADER
  9
$ACADVER
  1
AC1015
  9
$ACADMAINTVER
 70
     6
  9
$DWGCODEPAGE
  3
DOS850
  9
$INSBASE
 10
0.0
 20
0.0
 30
0.0
  9
$EXTMIN
 10
0.0
 20
0.0
 30
0.0
  9
$EXTMAX
 10
420.0
 20
297.0
 30
0.0
  9
$LIMMIN
 10
0.0
 20
0.0
  9
$LIMMAX
 10
420.0
 20
297.0
  9
$ORTHOMODE
 70
     0
  9
$REGENMODE
 70
     1
  9
$FILLMODE
 70
     1
  9
$QTEXTMODE
 70
     0
  9
$MIRRTEXT
 70
     1
  9
$LTSCALE
 40
25.4
  9
$ATTMODE
 70
     1
  9
$TEXTSIZE
 40
3.5
  9
$TRACEWID
 40
0.05
  9
$TEXTSTYLE
  7
Standard
  9
$CLAYER
  8
0
  9
$CELTYPE
  6
Continuous
  9
$CECOLOR
 62
   256
  9
$CELTSCALE
 40
1.0
  9
$DISPSILH
 70
     0
  9
$DIMSCALE
 40
1.0
  9
$DIMASZ
 40
5.0
  9
$DIMEXO
 40
3.0
  9
$DIMDLI
 40
0.38
  9
$DIMRND
 40
0.0
  9
$DIMDLE
 40
0.0
  9
$DIMEXE
 40
2.0
  9
$DIMTP
 40
0.0
  9
$DIMTM
 40
0.0
  9
$DIMTXT
 40
3.5
  9
$DIMCEN
 40
4.0
  9
$DIMTSZ
 40
0.0
  9
$DIMTOL
 70
     0
  9
$DIMLIM
 70
     0
  9
$DIMTIH
 70
     1
  9
$DIMTOH
 70
     1
  9
$DIMSE1
 70
     0
  9
$DIMSE2
 70
     0
  9
$DIMTAD
 70
     0
  9
$DIMZIN
 70
     0
  9
$DIMBLK
  1

  9
$DIMASO
 70
     1
  9
$DIMSHO
 70
     1
  9
$DIMPOST
  1

  9
$DIMAPOST
  1

  9
$DIMALT
 70
     0
  9
$DIMALTD
 70
     2
  9
$DIMALTF
 40
25.4
  9
$DIMLFAC
 40
1.0
  9
$DIMTOFL
 70
     0
  9
$DIMTVP
 40
0.0
  9
$DIMTIX
 70
     0
  9
$DIMSOXD
 70
     0
  9
$DIMSAH
 70
     0
  9
$DIMBLK1
  1

  9
$DIMBLK2
  1

  9
$DIMSTYLE
  2
Standard
  9
$DIMCLRD
 70
     0
  9
$DIMCLRE
 70
     0
  9
$DIMCLRT
 70
     0
  9
$DIMTFAC
 40
1.0
  9
$DIMGAP
 40
1.0
  9
$DIMJUST
 70
     0
  9
$DIMSD1
 70
     0
  9
$DIMSD2
 70
     0
  9
$DIMTOLJ
 70
     1
  9
$DIMTZIN
 70
     0
  9
$DIMALTZ
 70
     0
  9
$DIMALTTZ
 70
     0
  9
$DIMUPT
 70
     0
  9
$DIMDEC
 70
     4
  9
$DIMTDEC
 70
     4
  9
$DIMALTU
 70
     2
  9
$DIMALTTD
 70
     2
  9
$DIMTXSTY
  7
Standard
  9
$DIMAUNIT
 70
     0
  9
$DIMADEC
 70
     0
  9
$DIMALTRND
 40
0.0
  9
$DIMAZIN
 70
     0
  9
$DIMDSEP
 70
     0
  9
$DIMATFIT
 70
     3
  9
$DIMFRAC
 70
     0
  9
$DIMLDRBLK
  1

  9
$DIMLUNIT
 70
     2
  9
$DIMLWD
 70
     0
  9
$DIMLWE
 70
     0
  9
$DIMTMOVE
 70
     0
  9
$LUNITS
 70
     2
  9
$LUPREC
 70
     4
  9
$SKETCHINC
 40
0.1
  9
$FILLETRAD
 40
0.0
  9
$AUNITS
 70
     0
  9
$AUPREC
 70
     0
  9
$MENU
  1
acad
  9
$ELEVATION
 40
0.0
  9
$PELEVATION
 40
0.0
  9
$THICKNESS
 40
0.0
  9
$LIMCHECK
 70
     0
  9
$CHAMFERA
 40
0.0
  9
$CHAMFERB
 40
0.0
  9
$CHAMFERC
 40
0.0
  9
$CHAMFERD
 40
0.0
  9
$SKPOLY
 70
     0
  9
$TDCREATE
 40
0.000000000
  9
$TDUCREATE
 40
0.000000000
  9
$TDUPDATE
 40
0.000000000
  9
$TDUUPDATE
 40
0.000000000
  9
$TDINDWG
 40
0.0000000000
  9
$TDUSRTIMER
 40
0.0000000000
  9
$USRTIMER
 70
     1
  9
$ANGBASE
 50
0.0
  9
$ANGDIR
 70
     0
  9
$PDMODE
 70
     0
  9
$PDSIZE
 40
0.0
  9
$PLINEWID
 40
0.0
  9
$SPLFRAME
 70
     0
  9
$SPLINETYPE
 70
     6
  9
$SPLINESEGS
 70
     8
  9
$HANDSEED
  5
60F
  9
$SURFTAB1
 70
     6
  9
$SURFTAB2
 70
     6
  9
$SURFTYPE
 70
     6
  9
$SURFU
 70
     6
  9
$SURFV
 70
     6
  9
$UCSBASE
  2

  9
$UCSNAME
  2

  9
$UCSORG
 10
0.0
 20
0.0
 30
0.0
  9
$UCSXDIR
 10
1.0
 20
0.0
 30
0.0
  9
$UCSYDIR
 10
0.0
 20
1.0
 30
0.0
  9
$UCSORTHOREF
  2

  9
$UCSORTHOVIEW
 70
     0
  9
$UCSORGTOP
 10
0.0
 20
0.0
 30
0.0
  9
$UCSORGBOTTOM
 10
0.0
 20
0.0
 30
0.0
  9
$UCSORGLEFT
 10
0.0
 20
0.0
 30
0.0
  9
$UCSORGRIGHT
 10
0.0
 20
0.0
 30
0.0
  9
$UCSORGFRONT
 10
0.0
 20
0.0
 30
0.0
  9
$UCSORGBACK
 10
0.0
 20
0.0
 30
0.0
  9
$PUCSBASE
  2

  9
$PUCSNAME
  2

  9
$PUCSORG
 10
0.0
 20
0.0
 30
0.0
  9
$PUCSXDIR
 10
1.0
 20
0.0
 30
0.0
  9
$PUCSYDIR
 10
0.0
 20
1.0
 30
0.0
  9
$PUCSORTHOREF
  2

  9
$PUCSORTHOVIEW
 70
     0
  9
$PUCSORGTOP
 10
0.0
 20
0.0
 30
0.0
  9
$PUCSORGBOTTOM
 10
0.0
 20
0.0
 30
0.0
  9
$PUCSORGLEFT
 10
0.0
 20
0.0
 30
0.0
  9
$PUCSORGRIGHT
 10
0.0
 20
0.0
 30
0.0
  9
$PUCSORGFRONT
 10
0.0
 20
0.0
 30
0.0
  9
$PUCSORGBACK
 10
0.0
 20
0.0
 30
0.0
  9
$USERI1
 70
     0
  9
$USERI2
 70
     0
  9
$USERI3
 70
     0
  9
$USERI4
 70
     0
  9
$USERI5
 70
     0
  9
$USERR1
 40
0.0
  9
$USERR2
 40
0.0
  9
$USERR3
 40
0.0
  9
$USERR4
 40
0.0
  9
$USERR5
 40
0.0
  9
$WORLDVIEW
 70
     1
  9
$SHADEDGE
 70
     3
  9
$SHADEDIF
 70
    70
  9
$TILEMODE
 70
     1
  9
$MAXACTVP
 70
    16
  9
$PINSBASE
 10
0.0
 20
0.0
 30
0.0
  9
$PLIMCHECK
 70
     0
  9
$PEXTMIN
 10
1.000000E+20
 20
1.000000E+20
 30
1.000000E+20
  9
$PEXTMAX
 10
-1.000000E+20
 20
-1.000000E+20
 30
-1.000000E+20
  9
$PLIMMIN
 10
0.0
 20
0.0
  9
$PLIMMAX
 10
420.0
 20
297.0
  9
$UNITMODE
 70
     0
  9
$VISRETAIN
 70
     0
  9
$PLINEGEN
 70
     1
  9
$PSLTSCALE
 70
     0
  9
$TREEDEPTH
 70
  3020
  9
$CMLSTYLE
  2
Standard
  9
$CMLJUST
 70
     0
  9
$CMLSCALE
 40
1.0
  9
$PROXYGRAPHICS
 70
     0
  9
$MEASUREMENT
 70
     0
  9
$CELWEIGHT
370
     0
  9
$ENDCAPS
280
     0
  9
$JOINSTYLE
280
     0
  9
$LWDISPLAY
290
     0
  9
$INSUNITS
 70
     0
  9
$HYPERLINKBASE
  1

  9
$XEDIT
290
     1
  9
$CEPSNTYPE
380
     0
  9
$PSTYLEMODE
290
     0
  9
$FINGERPRINTGUID
  2

  9
$VERSIONGUID
  2

  9
$EXTNAMES
290
     1
  9
$PSVPSCALE
 40
0.0
  0
ENDSEC
  0
SECTION
  2
CLASSES
  0
CLASS
  1
LWPOLYLINE
  2
AcDbPolyline
  3
"AutoCAD"
 90
        0
280
     0
281
     1
  0
CLASS
  1
IMAGE
  2
AcDbRasterImage
  3
ISM
 90
      127
280
     0
281
     1
  0
CLASS
  1
OLE2FRAME
  2
AcDbOle2Frame
  3
""
 90
        0
280
     0
281
     1
  0
CLASS
  1
HATCH
  2
AcDbHatch
  3
"ACAD_SEDONA"
 90
        0
280
     0
281
     1
  0
CLASS
  1
DICTIONARYVAR
  2
AcDbDictionaryVar
  3
"AutoCAD"
 90
        0
280
     0
281
     0
  0
CLASS
  1
RASTERVARIABLES
  2
AcDbRasterVariables
  3
ISM
 90
        0
280
     0
281
     0
  0
CLASS
  1
IMAGEDEF
  2
AcDbRasterImageDef
  3
ISM
 90
        0
280
     0
281
     0
  0
CLASS
  1
IMAGEDEF_REACTOR
  2
AcDbRasterImageDefReactor
  3
ISM
 90
        1
280
     0
281
     0
  0
CLASS
  1
IDBUFFER
  2
AcDbIdBuffer
  3
"Acad"
 90
        0
280
     0
281
     0
  0
CLASS
  1
SPATIAL_FILTER
  2
AcDbSpatialFilter
  3
"Acad"
 90
        0
280
     0
281
     0
  0
CLASS
  1
XRECORD
  2
AcDbXrecord
  3
"<Built In>"
 90
        0
280
     0
281
     0
  0
CLASS
  1
SORTENTSTABLE
  2
AcDbSortentsTable
  3
"AutoCAD"
 90
        0
280
     0
281
     0
  0
CLASS
  1
LAYER_INDEX
  2
AcDbLayerIndex
  3
"Acad"
 90
        0
280
     0
281
     0
  0
CLASS
  1
SPATIAL_INDEX
  2
AcDbSpatialIndex
  3
"Acad"
 90
        0
280
     0
281
     0
  0
CLASS
  1
OBJECT_PTR
  2
CAseDLPNTableRecord
  3
"ASE-LPNTableRecord"
 90
        1
280
     0
281
     0
  0
CLASS
  1
LAYOUT
  2
AcDbLayout
  3
"AutoCAD 2000"
 90
        1
280
     0
281
     0
  0
CLASS
  1
PLOTSETTINGS
  2
AcDbPlotSettings
  3
"AutoCAD 2000"
 90
        1
280
     0
281
     0
  0
CLASS
  1
ACDBDICTIONARYWDFLT
  2
AcDbDictionaryWithDefault
  3
"AutoCAD 2000"
 90
        1
280
     0
281
     0
  0
CLASS
  1
ACDBPLACEHOLDER
  2
AcDbPlaceHolder
  3
"AutoCAD 2000"
 90
        1
280
     0
281
     0
  0
CLASS
  1
VBA_PROJECT
  2
AcDbVbaProject
  3
"acadvba"
 90
        1
280
     0
281
     0
  0
CLASS
  1
WIPEOUT
  2
AcDbWipeout
  3
WipeOut|AutoCAD Express Tool|expresstools@autodesk.com
 90
      127
280
     0
281
     1
  0
CLASS
  1
WIPEOUTVARIABLES
  2
AcDbWipeoutVariables
  3
WipeOut|AutoCAD Express Tool|expresstools@autodesk.com
 90
        0
280
     0
281
     0
  0
CLASS
  1
RTEXT
  2
RText
  3
RText|AutoCAD Express Tool|expresstools@autodesk.com
 90
        0
280
     0
281
     1
  0
CLASS
  1
ARCALIGNEDTEXT
  2
AcDbArcAlignedText
  3
ATEXT|AutoCAD Express Tool|expresstools@autodesk.com
 90
        0
280
     0
281
     1
  0
ENDSEC
  0
SECTION
  2
TABLES
  0
TABLE
  2
VPORT
  5
7
100
AcDbSymbolTable
 70
     1
  0
VPORT
  5
15
100
AcDbSymbolTableRecord
100
AcDbViewportTableRecord
  2
*ACTIVE
 70
     0
 10
0.0
 20
0.0
 11
1.0
 21
1.0
 12
6.591288
 22
4.579184
 13
0.0
 23
0.0
 14
1.0
 24
1.0
 15
0.0
 25
0.0
 16
0.0
 26
0.0
 36
1.0
 17
0.0
 27
0.0
 37
0.0
 40
9.158369
 41
0.688564
 42
50.0
 43
0.0
 44
0.0
 50
0.0
 51
0.0
 71
     0
 72
   100
 73
     1
 74
     1
 75
     0
 76
     0
 77
     0
 78
     0
281
     0
 65
     0
110
0.0
120
0.0
130
0.0
111
1.0
121
0.0
131
0.0
112
0.0
122
1.0
132
0.0
345
0
346
0
 79
     0
146
0.0
  0
ENDTAB
  0
TABLE
  2
LTYPE
  5
4
100
AcDbSymbolTable
 70
     7
  0
LTYPE
  5
11
100
AcDbSymbolTableRecord
100
AcDbLinetypeTableRecord
  2
ByBlock
 70
    64
  3

 72
    65
 73
     0
 40
0.0
  0
LTYPE
  5
12
100
AcDbSymbolTableRecord
100
AcDbLinetypeTableRecord
  2
ByLayer
 70
    64
  3

 72
    65
 73
     0
 40
0.0
  0
LTYPE
  5
13
100
AcDbSymbolTableRecord
100
AcDbLinetypeTableRecord
  2
Continuous
 70
    64
  3
Solid line
 72
    65
 73
     0
 40
0.0
  0
LTYPE
  5
24
100
AcDbSymbolTableRecord
100
AcDbLinetypeTableRecord
  2
HIDDEN
 70
    64
  3
_ _ _ _ _ _ _ _ _ _ _ _ _ _ _ _ _ _ _ _ _ _ _ _
 72
    65
 73
     2
 40
0.1875
 49
0.125
 74
     0
 49
-0.0625
 74
     0
  0
LTYPE
  5
25
100
AcDbSymbolTableRecord
100
AcDbLinetypeTableRecord
  2
DOTTED
 70
    64
  3
...............................................
 72
    65
 73
     2
 40
0.125
 49
0.0
 74
     0
 49
-0.125
 74
     0
  0
LTYPE
  5
26
100
AcDbSymbolTableRecord
100
AcDbLinetypeTableRecord
  2
CENTER
 70
    64
  3
____ _ ____ _ ____ _ ____ _ ____ _ ____ _ ____ 
 72
    65
 73
     4
 40
1.125
 49
0.75
 74
     0
 49
-0.125
 74
     0
 49
0.125
 74
     0
 49
-0.125
 74
     0
  0
LTYPE
  5
27
100
AcDbSymbolTableRecord
100
AcDbLinetypeTableRecord
  2
PHANTOM
 70
    64
  3
______  __  __  ______  __  __  ______  __  __ 
 72
    65
 73
     6
 40
1.25
 49
0.625
 74
     0
 49
-0.125
 74
     0
 49
0.125
 74
     0
 49
-0.125
 74
     0
 49
0.125
 74
     0
 49
-0.125
 74
     0
  0
ENDTAB
  0
TABLE
  2
LAYER
  5
2
100
AcDbSymbolTable
 70
     2
  0
LAYER
  5
14
100
AcDbSymbolTableRecord
100
AcDbLayerTableRecord
  2
0
 70
     0
 62
     7
  6
Continuous
290
     1
370
    -3
390
1D
  0
LAYER
  5
28
100
AcDbSymbolTableRecord
100
AcDbLayerTableRecord
  2
TEXT
 70
     0
 62
     8
  6
Continuous
290
     1
370
    -3
390
1F
  0
ENDTAB
  0
TABLE
  2
STYLE
  5
3
100
AcDbSymbolTable
 70
     1
  0
STYLE
  5
17
100
AcDbSymbolTableRecord
100
AcDbTextStyleTableRecord
  2
Standard
 70
     0
 40
0.0
 41
1.0
 50
0.0
 71
     0
 42
0.0
  3
txt
  4

  0
ENDTAB
  0
TABLE
  2
VIEW
  5
5
100
AcDbSymbolTable
 70
     0
  0
ENDTAB
  0
TABLE
  2
UCS
  5
6
100
AcDbSymbolTable
 70
     0
  0
ENDTAB
  0
TABLE
  2
APPID
  5
8
100
AcDbSymbolTable
 70
     1
  0
APPID
  5
16
100
AcDbSymbolTableRecord
100
AcDbRegAppTableRecord
  2
ACAD
 70
     0
  0
ENDTAB
  0
TABLE
  2
DIMSTYLE
  5
9
100
AcDbSymbolTable
 70
     1
100
AcDbDimStyleTable
 71
     0
  0
DIMSTYLE
105
18
100
AcDbSymbolTableRecord
100
AcDbDimStyleTableRecord
  2
Standard
 70
     0
  3

  4

 40
1.0
 41
0.18
 42
0.0625
 43
0.38
 44
0.18
 45
0.0
 46
0.0
 47
0.0
 48
0.0
 71
     0
 72
     0
 73
     1
 74
     1
 75
     0
 76
     0
 77
     0
 78
     0
 79
     0
140
0.18
141
0.09
142
0.0
143
25.4
144
1.0
145
0.0
146
1.0
147
0.09
148
0.0
170
     0
171
     2
172
     0
173
     0
174
     0
175
     0
176
     0
177
     0
178
     0
179
     0
271
     4
272
     4
273
     2
274
     2
275
     0
276
     0
277
     2
278
    46
279
     0
280
     0
281
     0
282
     0
283
     1
284
     0
285
     0
286
     0
288
     0
340
17
341
0
342
0
343
0
344
0
371
    -2
372
    -2
  0
ENDTAB
  0
TABLE
  2
BLOCK_RECORD
  5
1
100
AcDbSymbolTable
 70
    89
  0
BLOCK_RECORD
  5
A
100
AcDbSymbolTableRecord
100
AcDbBlockTableRecord
  2
*MODEL_SPACE
340
20
  0
BLOCK_RECORD
  5
B
100
AcDbSymbolTableRecord
100
AcDbBlockTableRecord
  2
*PAPER_SPACE
340
21
  0
BLOCK_RECORD
  5
29
100
AcDbSymbolTableRecord
100
AcDbBlockTableRecord
  2
*B0
340
0
  0
BLOCK_RECORD
  5
2C
100
AcDbSymbolTableRecord
100
AcDbBlockTableRecord
  2
*B1
340
0
  0
BLOCK_RECORD
  5
22D
100
AcDbSymbolTableRecord
100
AcDbBlockTableRecord
  2
*B2
340
0
  0
BLOCK_RECORD
  5
233
100
AcDbSymbolTableRecord
100
AcDbBlockTableRecord
  2
*B3
340
0
  0
BLOCK_RECORD
  5
405
100
AcDbSymbolTableRecord
100
AcDbBlockTableRecord
  2
*B4
340
0
  0
BLOCK_RECORD
  5
40C
100
AcDbSymbolTableRecord
100
AcDbBlockTableRecord
  2
*B5
340
0
  0
BLOCK_RECORD
  5
413
100
AcDbSymbolTableRecord
100
AcDbBlockTableRecord
  2
*B6
340
0
  0
BLOCK_RECORD
  5
41A
100
AcDbSymbolTableRecord
100
AcDbBlockTableRecord
  2
*B7
340
0
  0
BLOCK_RECORD
  5
421
100
AcDbSymbolTableRecord
100
AcDbBlockTableRecord
  2
*B8
340
0
  0
BLOCK_RECORD
  5
428
100
AcDbSymbolTableRecord
100
AcDbBlockTableRecord
  2
*B9
340
0
  0
BLOCK_RECORD
  5
42F
100
AcDbSymbolTableRecord
100
AcDbBlockTableRecord
  2
*B10
340
0
  0
BLOCK_RECORD
  5
436
100
AcDbSymbolTableRecord
100
AcDbBlockTableRecord
  2
*B11
340
0
  0
BLOCK_RECORD
  5
43D
100
AcDbSymbolTableRecord
100
AcDbBlockTableRecord
  2
*B12
340
0
  0
BLOCK_RECORD
  5
444
100
AcDbSymbolTableRecord
100
AcDbBlockTableRecord
  2
*B13
340
0
  0
BLOCK_RECORD
  5
44B
100
AcDbSymbolTableRecord
100
AcDbBlockTableRecord
  2
*B14
340
0
  0
BLOCK_RECORD
  5
452
100
AcDbSymbolTableRecord
100
AcDbBlockTableRecord
  2
*B15
340
0
  0
BLOCK_RECORD
  5
459
100
AcDbSymbolTableRecord
100
AcDbBlockTableRecord
  2
*B16
340
0
  0
BLOCK_RECORD
  5
460
100
AcDbSymbolTableRecord
100
AcDbBlockTableRecord
  2
*B17
340
0
  0
BLOCK_RECORD
  5
467
100
AcDbSymbolTableRecord
100
AcDbBlockTableRecord
  2
*B18
340
0
  0
BLOCK_RECORD
  5
46E
100
AcDbSymbolTableRecord
100
AcDbBlockTableRecord
  2
*B19
340
0
  0
BLOCK_RECORD
  5
475
100
AcDbSymbolTableRecord
100
AcDbBlockTableRecord
  2
*B20
340
0
  0
BLOCK_RECORD
  5
47C
100
AcDbSymbolTableRecord
100
AcDbBlockTableRecord
  2
*B21
340
0
  0
BLOCK_RECORD
  5
481
100
AcDbSymbolTableRecord
100
AcDbBlockTableRecord
  2
*B22
340
0
  0
BLOCK_RECORD
  5
486
100
AcDbSymbolTableRecord
100
AcDbBlockTableRecord
  2
*B23
340
0
  0
BLOCK_RECORD
  5
48B
100
AcDbSymbolTableRecord
100
AcDbBlockTableRecord
  2
*B24
340
0
  0
BLOCK_RECORD
  5
490
100
AcDbSymbolTableRecord
100
AcDbBlockTableRecord
  2
*B25
340
0
  0
BLOCK_RECORD
  5
497
100
AcDbSymbolTableRecord
100
AcDbBlockTableRecord
  2
*B26
340
0
  0
BLOCK_RECORD
  5
4A4
100
AcDbSymbolTableRecord
100
AcDbBlockTableRecord
  2
*B27
340
0
  0
BLOCK_RECORD
  5
4AB
100
AcDbSymbolTableRecord
100
AcDbBlockTableRecord
  2
*B28
340
0
  0
BLOCK_RECORD
  5
4B1
100
AcDbSymbolTableRecord
100
AcDbBlockTableRecord
  2
*B29
340
0
  0
BLOCK_RECORD
  5
4B8
100
AcDbSymbolTableRecord
100
AcDbBlockTableRecord
  2
*B30
340
0
  0
BLOCK_RECORD
  5
4BD
100
AcDbSymbolTableRecord
100
AcDbBlockTableRecord
  2
*B31
340
0
  0
BLOCK_RECORD
  5
4C4
100
AcDbSymbolTableRecord
100
AcDbBlockTableRecord
  2
*B32
340
0
  0
BLOCK_RECORD
  5
4CA
100
AcDbSymbolTableRecord
100
AcDbBlockTableRecord
  2
*B33
340
0
  0
BLOCK_RECORD
  5
4CF
100
AcDbSymbolTableRecord
100
AcDbBlockTableRecord
  2
*B34
340
0
  0
BLOCK_RECORD
  5
4D6
100
AcDbSymbolTableRecord
100
AcDbBlockTableRecord
  2
*B35
340
0
  0
BLOCK_RECORD
  5
4E5
100
AcDbSymbolTableRecord
100
AcDbBlockTableRecord
  2
*B36
340
0
  0
BLOCK_RECORD
  5
4EB
100
AcDbSymbolTableRecord
100
AcDbBlockTableRecord
  2
*B37
340
0
  0
BLOCK_RECORD
  5
4F0
100
AcDbSymbolTableRecord
100
AcDbBlockTableRecord
  2
*B38
340
0
  0
BLOCK_RECORD
  5
4FB
100
AcDbSymbolTableRecord
100
AcDbBlockTableRecord
  2
*B39
340
0
  0
BLOCK_RECORD
  5
500
100
AcDbSymbolTableRecord
100
AcDbBlockTableRecord
  2
*B40
340
0
  0
BLOCK_RECORD
  5
505
100
AcDbSymbolTableRecord
100
AcDbBlockTableRecord
  2
*B41
340
0
  0
BLOCK_RECORD
  5
50A
100
AcDbSymbolTableRecord
100
AcDbBlockTableRecord
  2
*B42
340
0
  0
BLOCK_RECORD
  5
50F
100
AcDbSymbolTableRecord
100
AcDbBlockTableRecord
  2
*B43
340
0
  0
BLOCK_RECORD
  5
514
100
AcDbSymbolTableRecord
100
AcDbBlockTableRecord
  2
*B44
340
0
  0
BLOCK_RECORD
  5
519
100
AcDbSymbolTableRecord
100
AcDbBlockTableRecord
  2
*B45
340
0
  0
BLOCK_RECORD
  5
520
100
AcDbSymbolTableRecord
100
AcDbBlockTableRecord
  2
*B46
340
0
  0
BLOCK_RECORD
  5
525
100
AcDbSymbolTableRecord
100
AcDbBlockTableRecord
  2
*B47
340
0
  0
BLOCK_RECORD
  5
52A
100
AcDbSymbolTableRecord
100
AcDbBlockTableRecord
  2
*B48
340
0
  0
BLOCK_RECORD
  5
531
100
AcDbSymbolTableRecord
100
AcDbBlockTableRecord
  2
*B49
340
0
  0
BLOCK_RECORD
  5
536
100
AcDbSymbolTableRecord
100
AcDbBlockTableRecord
  2
*B50
340
0
  0
BLOCK_RECORD
  5
53B
100
AcDbSymbolTableRecord
100
AcDbBlockTableRecord
  2
*B51
340
0
  0
BLOCK_RECORD
  5
542
100
AcDbSymbolTableRecord
100
AcDbBlockTableRecord
  2
*B52
340
0
  0
BLOCK_RECORD
  5
548
100
AcDbSymbolTableRecord
100
AcDbBlockTableRecord
  2
*B53
340
0
  0
BLOCK_RECORD
  5
54F
100
AcDbSymbolTableRecord
100
AcDbBlockTableRecord
  2
*B54
340
0
  0
BLOCK_RECORD
  5
555
100
AcDbSymbolTableRecord
100
AcDbBlockTableRecord
  2
*B55
340
0
  0
BLOCK_RECORD
  5
55C
100
AcDbSymbolTableRecord
100
AcDbBlockTableRecord
  2
*B56
340
0
  0
BLOCK_RECORD
  5
562
100
AcDbSymbolTableRecord
100
AcDbBlockTableRecord
  2
*B57
340
0
  0
BLOCK_RECORD
  5
567
100
AcDbSymbolTableRecord
100
AcDbBlockTableRecord
  2
*B58
340
0
  0
BLOCK_RECORD
  5
56C
100
AcDbSymbolTableRecord
100
AcDbBlockTableRecord
  2
*B59
340
0
  0
BLOCK_RECORD
  5
571
100
AcDbSymbolTableRecord
100
AcDbBlockTableRecord
  2
*B60
340
0
  0
BLOCK_RECORD
  5
57A
100
AcDbSymbolTableRecord
100
AcDbBlockTableRecord
  2
*B61
340
0
  0
BLOCK_RECORD
  5
57F
100
AcDbSymbolTableRecord
100
AcDbBlockTableRecord
  2
*B62
340
0
  0
BLOCK_RECORD
  5
585
100
AcDbSymbolTableRecord
100
AcDbBlockTableRecord
  2
*B63
340
0
  0
BLOCK_RECORD
  5
58B
100
AcDbSymbolTableRecord
100
AcDbBlockTableRecord
  2
*B64
340
0
  0
BLOCK_RECORD
  5
591
100
AcDbSymbolTableRecord
100
AcDbBlockTableRecord
  2
*B65
340
0
  0
BLOCK_RECORD
  5
597
100
AcDbSymbolTableRecord
100
AcDbBlockTableRecord
  2
*B66
340
0
  0
BLOCK_RECORD
  5
59D
100
AcDbSymbolTableRecord
100
AcDbBlockTableRecord
  2
*B67
340
0
  0
BLOCK_RECORD
  5
5A3
100
AcDbSymbolTableRecord
100
AcDbBlockTableRecord
  2
*B68
340
0
  0
BLOCK_RECORD
  5
5A9
100
AcDbSymbolTableRecord
100
AcDbBlockTableRecord
  2
*B69
340
0
  0
BLOCK_RECORD
  5
5AE
100
AcDbSymbolTableRecord
100
AcDbBlockTableRecord
  2
*B70
340
0
  0
BLOCK_RECORD
  5
5B3
100
AcDbSymbolTableRecord
100
AcDbBlockTableRecord
  2
*B71
340
0
  0
BLOCK_RECORD
  5
5B8
100
AcDbSymbolTableRecord
100
AcDbBlockTableRecord
  2
*B72
340
0
  0
BLOCK_RECORD
  5
5BD
100
AcDbSymbolTableRecord
100
AcDbBlockTableRecord
  2
*B73
340
0
  0
BLOCK_RECORD
  5
5C2
100
AcDbSymbolTableRecord
100
AcDbBlockTableRecord
  2
*B74
340
0
  0
BLOCK_RECORD
  5
5C8
100
AcDbSymbolTableRecord
100
AcDbBlockTableRecord
  2
*B75
340
0
  0
BLOCK_RECORD
  5
5CE
100
AcDbSymbolTableRecord
100
AcDbBlockTableRecord
  2
*B76
340
0
  0
BLOCK_RECORD
  5
5D3
100
AcDbSymbolTableRecord
100
AcDbBlockTableRecord
  2
*B77
340
0
  0
BLOCK_RECORD
  5
5D8
100
AcDbSymbolTableRecord
100
AcDbBlockTableRecord
  2
*B78
340
0
  0
BLOCK_RECORD
  5
5DD
100
AcDbSymbolTableRecord
100
AcDbBlockTableRecord
  2
*B79
340
0
  0
BLOCK_RECORD
  5
5E2
100
AcDbSymbolTableRecord
100
AcDbBlockTableRecord
  2
*B80
340
0
  0
BLOCK_RECORD
  5
5E7
100
AcDbSymbolTableRecord
100
AcDbBlockTableRecord
  2
*B81
340
0
  0
BLOCK_RECORD
  5
5EC
100
AcDbSymbolTableRecord
100
AcDbBlockTableRecord
  2
*B82
340
0
  0
BLOCK_RECORD
  5
5F1
100
AcDbSymbolTableRecord
100
AcDbBlockTableRecord
  2
*B83
340
0
  0
BLOCK_RECORD
  5
5F6
100
AcDbSymbolTableRecord
100
AcDbBlockTableRecord
  2
*B84
340
0
  0
BLOCK_RECORD
  5
5FB
100
AcDbSymbolTableRecord
100
AcDbBlockTableRecord
  2
*B85
340
0
  0
BLOCK_RECORD
  5
600
100
AcDbSymbolTableRecord
100
AcDbBlockTableRecord
  2
*B86
340
0
  0
BLOCK_RECORD
  5
605
100
AcDbSymbolTableRecord
100
AcDbBlockTableRecord
  2
*B87
340
0
  0
BLOCK_RECORD
  5
60A
100
AcDbSymbolTableRecord
100
AcDbBlockTableRecord
  2
*B88
340
0
  0
ENDTAB
  0
ENDSEC
  0
SECTION
  2
BLOCKS
  0
BLOCK
  5
D
100
AcDbEntity
  8
0
100
AcDbBlockBegin
  2
*MODEL_SPACE
 70
     0
 10
0.0
 20
0.0
 30
0.0
  3
*MODEL_SPACE
  1

  0
ENDBLK
  5
E
100
AcDbEntity
  8
0
100
AcDbBlockEnd
  0
BLOCK
  5
F
100
AcDbEntity
 67
     1
  8
0
100
AcDbBlockBegin
  2
*PAPER_SPACE
 70
     0
 10
0.0
 20
0.0
 30
0.0
  3
*PAPER_SPACE
  1

  0
ENDBLK
  5
10
100
AcDbEntity
 67
     1
  8
0
100
AcDbBlockEnd
  0
BLOCK
  5
2A
100
AcDbEntity
  8
0
100
AcDbBlockBegin
  2
*B0
 70
     0
 10
0.0
 20
0.0
 30
0.0
  3
*B0
  1

  0
ENDBLK
  5
2B
100
AcDbEntity
  8
0
100
AcDbBlockEnd
  0
BLOCK
  5
2D
100
AcDbEntity
  8
0
100
AcDbBlockBegin
  2
*B1
 70
     0
 10
0.0
 20
0.0
 30
0.0
  3
*B1
  1

  0
LINE
  5
2E
100
AcDbEntity
  8
0
  6
HIDDEN
 62
   174
100
AcDbLine
 10
216.92692
 20
48.666987
 30
0.0
 11
222.32692
 21
48.666987
 31
0.0
  0
LINE
  5
2F
100
AcDbEntity
  8
0
  6
HIDDEN
 62
   174
100
AcDbLine
 10
216.92692
 20
48.666987
 30
0.0
 11
222.32692
 21
48.666987
 31
0.0
  0
LINE
  5
30
100
AcDbEntity
  8
0
  6
HIDDEN
 62
   174
100
AcDbLine
 10
216.92692
 20
56.666987
 30
0.0
 11
222.32692
 21
56.666987
 31
0.0
  0
LINE
  5
31
100
AcDbEntity
  8
0
  6
HIDDEN
 62
   174
100
AcDbLine
 10
216.92692
 20
56.666987
 30
0.0
 11
222.32692
 21
56.666987
 31
0.0
  0
LINE
  5
32
100
AcDbEntity
  8
0
  6
HIDDEN
 62
   174
100
AcDbLine
 10
216.92692
 20
72.666987
 30
0.0
 11
222.32692
 21
72.666987
 31
0.0
  0
LINE
  5
33
100
AcDbEntity
  8
0
  6
HIDDEN
 62
   174
100
AcDbLine
 10
216.92692
 20
72.666987
 30
0.0
 11
222.32692
 21
72.666987
 31
0.0
  0
LINE
  5
34
100
AcDbEntity
  8
0
  6
HIDDEN
 62
   174
100
AcDbLine
 10
216.92692
 20
80.666987
 30
0.0
 11
222.32692
 21
80.666987
 31
0.0
  0
LINE
  5
35
100
AcDbEntity
  8
0
  6
HIDDEN
 62
   174
100
AcDbLine
 10
216.92692
 20
80.666987
 30
0.0
 11
222.32692
 21
80.666987
 31
0.0
  0
LINE
  5
36
100
AcDbEntity
  8
0
  6
HIDDEN
 62
   174
100
AcDbLine
 10
222.32692
 20
56.714215
 30
0.0
 11
222.32692
 21
48.714967
 31
0.0
  0
LINE
  5
37
100
AcDbEntity
  8
0
  6
HIDDEN
 62
   174
100
AcDbLine
 10
222.32692
 20
80.712562
 30
0.0
 11
222.32692
 21
72.713013
 31
0.0
  0
LINE
  5
38
100
AcDbEntity
  8
0
  6
HIDDEN
 62
   174
100
AcDbLine
 10
216.92692
 20
56.714215
 30
0.0
 11
216.92692
 21
56.403294
 31
0.0
  0
LINE
  5
39
100
AcDbEntity
  8
0
  6
HIDDEN
 62
   174
100
AcDbLine
 10
216.92692
 20
49.025888
 30
0.0
 11
216.92692
 21
48.714967
 31
0.0
  0
LINE
  5
3A
100
AcDbEntity
  8
0
  6
HIDDEN
 62
   174
100
AcDbLine
 10
216.92692
 20
49.21875
 30
0.0
 11
216.92692
 21
49.025888
 31
0.0
  0
LINE
  5
3B
100
AcDbEntity
  8
0
  6
HIDDEN
 62
   174
100
AcDbLine
 10
216.92692
 20
50.035858
 30
0.0
 11
216.92692
 21
49.21875
 31
0.0
  0
LINE
  5
3C
100
AcDbEntity
  8
0
  6
HIDDEN
 62
   174
100
AcDbLine
 10
180.72692
 20
39.666987
 30
0.0
 11
180.72692
 21
45.666987
 31
0.0
  0
ARC
  5
3D
100
AcDbEntity
  8
0
  6
Continuous
 62
   174
100
AcDbCircle
 10
200.627154
 20
151.220523
 30
0.0
 40
2.8
100
AcDbArc
 50
-349.733303
 51
-324.243335
  0
ARC
  5
3E
100
AcDbEntity
  8
0
  6
Continuous
 62
   174
100
AcDbCircle
 10
204.01353
 20
132.524735
 30
0.0
 40
3.0
100
AcDbArc
 50
-270.0
 51
-269.060544
  0
ARC
  5
3F
100
AcDbEntity
  8
0
  6
HIDDEN
 62
   174
100
AcDbCircle
 10
199.72692
 20
91.666987
 30
0.0
 40
7.5
100
AcDbArc
 50
90.0
 51
270.0
  0
ARC
  5
40
100
AcDbEntity
  8
0
  6
HIDDEN
 62
   174
100
AcDbCircle
 10
167.72692
 20
91.666987
 30
0.0
 40
7.5
100
AcDbArc
 50
90.0
 51
270.0
  0
ARC
  5
41
100
AcDbEntity
  8
0
  6
HIDDEN
 62
   174
100
AcDbCircle
 10
167.72692
 20
91.666987
 30
0.0
 40
7.5
100
AcDbArc
 50
-90.0
 51
90.0
  0
LINE
  5
42
100
AcDbEntity
  8
0
  6
HIDDEN
 62
   174
100
AcDbLine
 10
186.72692
 20
39.666987
 30
0.0
 11
186.72692
 21
45.666987
 31
0.0
  0
LINE
  5
43
100
AcDbEntity
  8
0
  6
HIDDEN
 62
   174
100
AcDbLine
 10
180.752435
 20
45.666987
 30
0.0
 11
186.752472
 21
45.666987
 31
0.0
  0
ARC
  5
44
100
AcDbEntity
  8
0
  6
Continuous
 62
   174
100
AcDbCircle
 10
165.72692
 20
119.666987
 30
0.0
 40
3.0
100
AcDbArc
 50
-90.0
 51
-64.236291
  0
ARC
  5
45
100
AcDbEntity
  8
0
  6
HIDDEN
 62
   174
100
AcDbCircle
 10
200.627154
 20
151.220523
 30
0.0
 40
2.0
100
AcDbArc
 50
-169.733303
 51
10.266697
  0
ARC
  5
46
100
AcDbEntity
  8
0
  6
Continuous
 62
   174
100
AcDbCircle
 10
200.627154
 20
151.220523
 30
0.0
 40
2.8
100
AcDbArc
 50
-15.223271
 51
10.266697
  0
ARC
  5
47
100
AcDbEntity
  8
0
  6
Continuous
 62
   174
100
AcDbCircle
 10
200.627154
 20
151.220523
 30
0.0
 40
2.8
100
AcDbArc
 50
-144.243335
 51
-15.223271
  0
ARC
  5
48
100
AcDbEntity
  8
0
  6
Continuous
 62
   174
100
AcDbCircle
 10
200.627154
 20
151.220523
 30
0.0
 40
2.8
100
AcDbArc
 50
-169.733303
 51
-144.243335
  0
ARC
  5
49
100
AcDbEntity
  8
0
  6
Continuous
 62
   174
100
AcDbCircle
 10
200.627154
 20
151.220523
 30
0.0
 40
2.8
100
AcDbArc
 50
-195.223271
 51
-169.733303
  0
ARC
  5
4A
100
AcDbEntity
  8
0
  6
Continuous
 62
   174
100
AcDbCircle
 10
200.627154
 20
151.220523
 30
0.0
 40
2.8
100
AcDbArc
 50
-324.243335
 51
-195.223271
  0
ARC
  5
4B
100
AcDbEntity
  8
0
  6
HIDDEN
 62
   174
100
AcDbCircle
 10
200.627154
 20
151.220523
 30
0.0
 40
2.0
100
AcDbArc
 50
-105.419102
 51
-91.098864
  0
ARC
  5
4C
100
AcDbEntity
  8
0
  6
HIDDEN
 62
   174
100
AcDbCircle
 10
200.627154
 20
151.220523
 30
0.0
 40
2.0
100
AcDbArc
 50
-117.497439
 51
-105.419102
  0
ARC
  5
4D
100
AcDbEntity
  8
0
  6
HIDDEN
 62
   174
100
AcDbCircle
 10
200.627154
 20
151.220523
 30
0.0
 40
2.0
100
AcDbArc
 50
-127.714935
 51
-117.497439
  0
ARC
  5
4E
100
AcDbEntity
  8
0
  6
HIDDEN
 62
   174
100
AcDbCircle
 10
200.627154
 20
151.220523
 30
0.0
 40
2.0
100
AcDbArc
 50
-142.601534
 51
-127.714935
  0
ARC
  5
4F
100
AcDbEntity
  8
0
  6
HIDDEN
 62
   174
100
AcDbCircle
 10
200.627154
 20
151.220523
 30
0.0
 40
2.0
100
AcDbArc
 50
-155.033577
 51
-142.601534
  0
ARC
  5
50
100
AcDbEntity
  8
0
  6
HIDDEN
 62
   174
100
AcDbCircle
 10
200.627154
 20
151.220523
 30
0.0
 40
2.8
100
AcDbArc
 50
-349.733303
 51
-169.733303
  0
LINE
  5
51
100
AcDbEntity
  8
0
  6
HIDDEN
 62
   174
100
AcDbLine
 10
216.92692
 20
51.819978
 30
0.0
 11
216.92692
 21
50.275283
 31
0.0
  0
LINE
  5
52
100
AcDbEntity
  8
0
  6
HIDDEN
 62
   174
100
AcDbLine
 10
216.92692
 20
52.067814
 30
0.0
 11
216.92692
 21
51.819978
 31
0.0
  0
LINE
  5
53
100
AcDbEntity
  8
0
  6
HIDDEN
 62
   174
100
AcDbLine
 10
216.92692
 20
53.361068
 30
0.0
 11
216.92692
 21
52.067814
 31
0.0
  0
LINE
  5
54
100
AcDbEntity
  8
0
  6
HIDDEN
 62
   174
100
AcDbLine
 10
216.92692
 20
76.06616
 30
0.0
 11
216.92692
 21
75.818324
 31
0.0
  0
LINE
  5
55
100
AcDbEntity
  8
0
  6
HIDDEN
 62
   174
100
AcDbLine
 10
216.92692
 20
77.359414
 30
0.0
 11
216.92692
 21
76.06616
 31
0.0
  0
LINE
  5
56
100
AcDbEntity
  8
0
  6
HIDDEN
 62
   174
100
AcDbLine
 10
216.92692
 20
77.60725
 30
0.0
 11
216.92692
 21
77.359414
 31
0.0
  0
LINE
  5
57
100
AcDbEntity
  8
0
  6
HIDDEN
 62
   174
100
AcDbLine
 10
216.92692
 20
79.152246
 30
0.0
 11
216.92692
 21
77.60725
 31
0.0
  0
LINE
  5
58
100
AcDbEntity
  8
0
  6
HIDDEN
 62
   174
100
AcDbLine
 10
216.92692
 20
79.39137
 30
0.0
 11
216.92692
 21
79.152246
 31
0.0
  0
ARC
  5
59
100
AcDbEntity
  8
0
  6
HIDDEN
 62
   174
100
AcDbCircle
 10
200.627154
 20
151.220523
 30
0.0
 40
2.0
100
AcDbArc
 50
-285.419102
 51
-271.098864
  0
ARC
  5
5A
100
AcDbEntity
  8
0
  6
HIDDEN
 62
   174
100
AcDbCircle
 10
200.627154
 20
151.220523
 30
0.0
 40
2.0
100
AcDbArc
 50
-297.497439
 51
-285.419102
  0
ARC
  5
5B
100
AcDbEntity
  8
0
  6
HIDDEN
 62
   174
100
AcDbCircle
 10
200.627154
 20
151.220523
 30
0.0
 40
2.0
100
AcDbArc
 50
-307.714935
 51
-297.497439
  0
ARC
  5
5C
100
AcDbEntity
  8
0
  6
HIDDEN
 62
   174
100
AcDbCircle
 10
200.627154
 20
151.220523
 30
0.0
 40
2.0
100
AcDbArc
 50
-322.601534
 51
-307.714935
  0
ARC
  5
5D
100
AcDbEntity
  8
0
  6
HIDDEN
 62
   174
100
AcDbCircle
 10
200.627154
 20
151.220523
 30
0.0
 40
2.0
100
AcDbArc
 50
-335.033577
 51
-322.601534
  0
ARC
  5
5E
100
AcDbEntity
  8
0
  6
HIDDEN
 62
   174
100
AcDbCircle
 10
200.627154
 20
151.220523
 30
0.0
 40
2.0
100
AcDbArc
 50
-349.733303
 51
-335.033577
  0
ARC
  5
5F
100
AcDbEntity
  8
0
  6
HIDDEN
 62
   174
100
AcDbCircle
 10
200.627154
 20
151.220523
 30
0.0
 40
2.0
100
AcDbArc
 50
-0.809973
 51
10.266697
  0
ARC
  5
60
100
AcDbEntity
  8
0
  6
HIDDEN
 62
   174
100
AcDbCircle
 10
200.627154
 20
151.220523
 30
0.0
 40
2.8
100
AcDbArc
 50
-169.733303
 51
10.266697
  0
LINE
  5
61
100
AcDbEntity
  8
0
  6
HIDDEN
 62
   174
100
AcDbLine
 10
216.92692
 20
50.275283
 30
0.0
 11
216.92692
 21
50.035858
 31
0.0
  0
LINE
  5
62
100
AcDbEntity
  8
0
  6
HIDDEN
 62
   174
100
AcDbLine
 10
216.92692
 20
53.609204
 30
0.0
 11
216.92692
 21
53.361068
 31
0.0
  0
LINE
  5
63
100
AcDbEntity
  8
0
  6
HIDDEN
 62
   174
100
AcDbLine
 10
216.92692
 20
55.153899
 30
0.0
 11
216.92692
 21
53.609204
 31
0.0
  0
LINE
  5
64
100
AcDbEntity
  8
0
  6
HIDDEN
 62
   174
100
AcDbLine
 10
216.92692
 20
56.210432
 30
0.0
 11
216.92692
 21
55.393023
 31
0.0
  0
LINE
  5
65
100
AcDbEntity
  8
0
  6
HIDDEN
 62
   174
100
AcDbLine
 10
216.92692
 20
56.403294
 30
0.0
 11
216.92692
 21
56.210432
 31
0.0
  0
LINE
  5
66
100
AcDbEntity
  8
0
  6
HIDDEN
 62
   174
100
AcDbLine
 10
216.92692
 20
80.712562
 30
0.0
 11
216.92692
 21
80.40134
 31
0.0
  0
LINE
  5
67
100
AcDbEntity
  8
0
  6
HIDDEN
 62
   174
100
AcDbLine
 10
216.92692
 20
80.40134
 30
0.0
 11
216.92692
 21
80.208778
 31
0.0
  0
ARC
  5
68
100
AcDbEntity
  8
0
  6
HIDDEN
 62
   174
100
AcDbCircle
 10
199.72692
 20
91.666987
 30
0.0
 40
7.5
100
AcDbArc
 50
-90.0
 51
90.0
  0
LINE
  5
69
100
AcDbEntity
  8
0
  6
HIDDEN
 62
   174
100
AcDbLine
 10
216.92692
 20
73.024235
 30
0.0
 11
216.92692
 21
72.713013
 31
0.0
  0
LINE
  5
6A
100
AcDbEntity
  8
0
  6
HIDDEN
 62
   174
100
AcDbLine
 10
216.92692
 20
73.217096
 30
0.0
 11
216.92692
 21
73.024235
 31
0.0
  0
LINE
  5
6B
100
AcDbEntity
  8
0
  6
HIDDEN
 62
   174
100
AcDbLine
 10
216.92692
 20
74.034204
 30
0.0
 11
216.92692
 21
73.217096
 31
0.0
  0
LINE
  5
6C
100
AcDbEntity
  8
0
  6
HIDDEN
 62
   174
100
AcDbLine
 10
180.72692
 20
39.666987
 30
0.0
 11
180.72692
 21
45.666987
 31
0.0
  0
LINE
  5
6D
100
AcDbEntity
  8
0
  6
HIDDEN
 62
   174
100
AcDbLine
 10
186.752472
 20
39.666987
 30
0.0
 11
180.752435
 21
39.666987
 31
0.0
  0
ARC
  5
6E
100
AcDbEntity
  8
0
  6
Continuous
 62
   174
100
AcDbCircle
 10
165.72692
 20
119.666987
 30
0.0
 40
3.0
100
AcDbArc
 50
-115.763709
 51
-90.0
  0
ARC
  5
6F
100
AcDbEntity
  8
0
  6
Continuous
 62
   174
100
AcDbCircle
 10
165.72692
 20
119.666987
 30
0.0
 40
3.0
100
AcDbArc
 50
-244.236291
 51
-115.763709
  0
ARC
  5
70
100
AcDbEntity
  8
0
  6
Continuous
 62
   174
100
AcDbCircle
 10
165.72692
 20
119.666987
 30
0.0
 40
3.0
100
AcDbArc
 50
-270.0
 51
-244.236291
  0
ARC
  5
71
100
AcDbEntity
  8
0
  6
Continuous
 62
   174
100
AcDbCircle
 10
165.72692
 20
119.666987
 30
0.0
 40
3.0
100
AcDbArc
 50
-295.763709
 51
-270.0
  0
ARC
  5
72
100
AcDbEntity
  8
0
  6
Continuous
 62
   174
100
AcDbCircle
 10
165.72692
 20
119.666987
 30
0.0
 40
3.0
100
AcDbArc
 50
-64.236291
 51
64.236291
  0
ARC
  5
73
100
AcDbEntity
  8
0
  6
HIDDEN
 62
   174
100
AcDbCircle
 10
200.627154
 20
151.220523
 30
0.0
 40
2.0
100
AcDbArc
 50
10.266697
 51
190.266697
  0
ARC
  5
74
100
AcDbEntity
  8
0
  6
Continuous
 62
   174
100
AcDbCircle
 10
204.01353
 20
132.524735
 30
0.0
 40
3.0
100
AcDbArc
 50
-272.217597
 51
-270.0
  0
LINE
  5
75
100
AcDbEntity
  8
0
  6
HIDDEN
 62
   174
100
AcDbLine
 10
216.92692
 20
55.393023
 30
0.0
 11
216.92692
 21
55.153899
 31
0.0
  0
LINE
  5
76
100
AcDbEntity
  8
0
  6
HIDDEN
 62
   174
100
AcDbLine
 10
186.72692
 20
39.666987
 30
0.0
 11
186.72692
 21
45.666987
 31
0.0
  0
ARC
  5
77
100
AcDbEntity
  8
0
  6
HIDDEN
 62
   174
100
AcDbCircle
 10
200.627154
 20
151.220523
 30
0.0
 40
2.0
100
AcDbArc
 50
-180.809973
 51
-169.733303
  0
ARC
  5
78
100
AcDbEntity
  8
0
  6
HIDDEN
 62
   174
100
AcDbCircle
 10
200.627154
 20
151.220523
 30
0.0
 40
2.0
100
AcDbArc
 50
-14.216029
 51
-0.809973
  0
ARC
  5
79
100
AcDbEntity
  8
0
  6
HIDDEN
 62
   174
100
AcDbCircle
 10
200.627154
 20
151.220523
 30
0.0
 40
2.0
100
AcDbArc
 50
-26.075783
 51
-14.216029
  0
ARC
  5
7A
100
AcDbEntity
  8
0
  6
HIDDEN
 62
   174
100
AcDbCircle
 10
200.627154
 20
151.220523
 30
0.0
 40
2.0
100
AcDbArc
 50
-40.27508
 51
-26.075783
  0
ARC
  5
7B
100
AcDbEntity
  8
0
  6
HIDDEN
 62
   174
100
AcDbCircle
 10
200.627154
 20
151.220523
 30
0.0
 40
2.0
100
AcDbArc
 50
-54.141096
 51
-40.27508
  0
ARC
  5
7C
100
AcDbEntity
  8
0
  6
HIDDEN
 62
   174
100
AcDbCircle
 10
200.627154
 20
151.220523
 30
0.0
 40
2.0
100
AcDbArc
 50
-67.169935
 51
-54.141096
  0
ARC
  5
7D
100
AcDbEntity
  8
0
  6
HIDDEN
 62
   174
100
AcDbCircle
 10
200.627154
 20
151.220523
 30
0.0
 40
2.0
100
AcDbArc
 50
-79.900217
 51
-67.169935
  0
ARC
  5
7E
100
AcDbEntity
  8
0
  6
HIDDEN
 62
   174
100
AcDbCircle
 10
200.627154
 20
151.220523
 30
0.0
 40
2.0
100
AcDbArc
 50
-91.098864
 51
-79.900217
  0
ARC
  5
7F
100
AcDbEntity
  8
0
  6
Continuous
 62
   174
100
AcDbCircle
 10
204.01353
 20
132.524735
 30
0.0
 40
3.0
100
AcDbArc
 50
-293.867626
 51
-272.217597
  0
ARC
  5
80
100
AcDbEntity
  8
0
  6
Continuous
 62
   174
100
AcDbCircle
 10
204.01353
 20
132.524735
 30
0.0
 40
3.0
100
AcDbArc
 50
-296.508823
 51
-293.867626
  0
ARC
  5
81
100
AcDbEntity
  8
0
  6
Continuous
 62
   174
100
AcDbCircle
 10
204.01353
 20
132.524735
 30
0.0
 40
3.0
100
AcDbArc
 50
-318.677174
 51
-296.508823
  0
ARC
  5
82
100
AcDbEntity
  8
0
  6
Continuous
 62
   174
100
AcDbCircle
 10
204.01353
 20
132.524735
 30
0.0
 40
3.0
100
AcDbArc
 50
-324.338236
 51
-318.677174
  0
ARC
  5
83
100
AcDbEntity
  8
0
  6
Continuous
 62
   174
100
AcDbCircle
 10
204.01353
 20
132.524735
 30
0.0
 40
3.0
100
AcDbArc
 50
-343.358422
 51
-324.338236
  0
ARC
  5
84
100
AcDbEntity
  8
0
  6
Continuous
 62
   174
100
AcDbCircle
 10
204.01353
 20
132.524735
 30
0.0
 40
3.0
100
AcDbArc
 50
-347.142857
 51
-343.358422
  0
ARC
  5
85
100
AcDbEntity
  8
0
  6
Continuous
 62
   174
100
AcDbCircle
 10
204.01353
 20
132.524735
 30
0.0
 40
3.0
100
AcDbArc
 50
-348.245375
 51
-347.142857
  0
ARC
  5
86
100
AcDbEntity
  8
0
  6
Continuous
 62
   174
100
AcDbCircle
 10
204.01353
 20
132.524735
 30
0.0
 40
3.0
100
AcDbArc
 50
-349.670948
 51
-348.245375
  0
ARC
  5
87
100
AcDbEntity
  8
0
  6
Continuous
 62
   174
100
AcDbCircle
 10
204.01353
 20
132.524735
 30
0.0
 40
3.0
100
AcDbArc
 50
-11.448258
 51
10.329052
  0
ARC
  5
88
100
AcDbEntity
  8
0
  6
Continuous
 62
   174
100
AcDbCircle
 10
204.01353
 20
132.524735
 30
0.0
 40
3.0
100
AcDbArc
 50
-15.924065
 51
-11.448258
  0
ARC
  5
89
100
AcDbEntity
  8
0
  6
Continuous
 62
   174
100
AcDbCircle
 10
204.01353
 20
132.524735
 30
0.0
 40
3.0
100
AcDbArc
 50
-36.348898
 51
-15.924065
  0
ARC
  5
8A
100
AcDbEntity
  8
0
  6
Continuous
 62
   174
100
AcDbCircle
 10
204.01353
 20
132.524735
 30
0.0
 40
3.0
100
AcDbArc
 50
-39.610497
 51
-36.348898
  0
ARC
  5
8B
100
AcDbEntity
  8
0
  6
Continuous
 62
   174
100
AcDbCircle
 10
204.01353
 20
132.524735
 30
0.0
 40
3.0
100
AcDbArc
 50
-61.912877
 51
-39.610497
  0
ARC
  5
8C
100
AcDbEntity
  8
0
  6
Continuous
 62
   174
100
AcDbCircle
 10
204.01353
 20
132.524735
 30
0.0
 40
3.0
100
AcDbArc
 50
-66.609563
 51
-61.912877
  0
LINE
  5
8D
100
AcDbEntity
  8
0
  6
HIDDEN
 62
   174
100
AcDbLine
 10
216.92692
 20
80.208778
 30
0.0
 11
216.92692
 21
79.39137
 31
0.0
  0
ARC
  5
8E
100
AcDbEntity
  8
0
  6
HIDDEN
 62
   174
100
AcDbCircle
 10
200.627154
 20
151.220523
 30
0.0
 40
2.0
100
AcDbArc
 50
-169.733303
 51
-155.033577
  0
ARC
  5
8F
100
AcDbEntity
  8
0
  6
HIDDEN
 62
   174
100
AcDbCircle
 10
200.627154
 20
151.220523
 30
0.0
 40
2.0
100
AcDbArc
 50
-194.216029
 51
-180.809973
  0
ARC
  5
90
100
AcDbEntity
  8
0
  6
HIDDEN
 62
   174
100
AcDbCircle
 10
200.627154
 20
151.220523
 30
0.0
 40
2.0
100
AcDbArc
 50
-206.075783
 51
-194.216029
  0
ARC
  5
91
100
AcDbEntity
  8
0
  6
HIDDEN
 62
   174
100
AcDbCircle
 10
200.627154
 20
151.220523
 30
0.0
 40
2.0
100
AcDbArc
 50
-220.27508
 51
-206.075783
  0
ARC
  5
92
100
AcDbEntity
  8
0
  6
HIDDEN
 62
   174
100
AcDbCircle
 10
200.627154
 20
151.220523
 30
0.0
 40
2.0
100
AcDbArc
 50
-234.141096
 51
-220.27508
  0
ARC
  5
93
100
AcDbEntity
  8
0
  6
HIDDEN
 62
   174
100
AcDbCircle
 10
200.627154
 20
151.220523
 30
0.0
 40
2.0
100
AcDbArc
 50
-247.169935
 51
-234.141096
  0
ARC
  5
94
100
AcDbEntity
  8
0
  6
HIDDEN
 62
   174
100
AcDbCircle
 10
200.627154
 20
151.220523
 30
0.0
 40
2.0
100
AcDbArc
 50
-259.900217
 51
-247.169935
  0
ARC
  5
95
100
AcDbEntity
  8
0
  6
HIDDEN
 62
   174
100
AcDbCircle
 10
200.627154
 20
151.220523
 30
0.0
 40
2.0
100
AcDbArc
 50
-271.098864
 51
-259.900217
  0
ARC
  5
96
100
AcDbEntity
  8
0
  6
Continuous
 62
   174
100
AcDbCircle
 10
204.01353
 20
132.524735
 30
0.0
 40
3.0
100
AcDbArc
 50
-89.060544
 51
-66.609563
  0
ARC
  5
97
100
AcDbEntity
  8
0
  6
Continuous
 62
   174
100
AcDbCircle
 10
204.01353
 20
132.524735
 30
0.0
 40
3.0
100
AcDbArc
 50
-90.0
 51
-89.060544
  0
ARC
  5
98
100
AcDbEntity
  8
0
  6
Continuous
 62
   174
100
AcDbCircle
 10
204.01353
 20
132.524735
 30
0.0
 40
3.0
100
AcDbArc
 50
-92.217597
 51
-90.0
  0
ARC
  5
99
100
AcDbEntity
  8
0
  6
Continuous
 62
   174
100
AcDbCircle
 10
204.01353
 20
132.524735
 30
0.0
 40
3.0
100
AcDbArc
 50
-113.867626
 51
-92.217597
  0
LINE
  5
9A
100
AcDbEntity
  8
0
  6
HIDDEN
 62
   174
100
AcDbLine
 10
216.92692
 20
74.273329
 30
0.0
 11
216.92692
 21
74.034204
 31
0.0
  0
LINE
  5
9B
100
AcDbEntity
  8
0
  6
HIDDEN
 62
   174
100
AcDbLine
 10
216.92692
 20
75.818324
 30
0.0
 11
216.92692
 21
74.273329
 31
0.0
  0
ARC
  5
9C
100
AcDbEntity
  8
0
  6
Continuous
 62
   174
100
AcDbCircle
 10
204.01353
 20
132.524735
 30
0.0
 40
3.0
100
AcDbArc
 50
-241.912877
 51
-219.610497
  0
ARC
  5
9D
100
AcDbEntity
  8
0
  6
Continuous
 62
   174
100
AcDbCircle
 10
204.01353
 20
132.524735
 30
0.0
 40
3.0
100
AcDbArc
 50
-11.609604
 51
10.266697
  0
ARC
  5
9E
100
AcDbEntity
  8
0
  6
Continuous
 62
   174
100
AcDbCircle
 10
204.01353
 20
132.524735
 30
0.0
 40
3.0
100
AcDbArc
 50
35.938048
 51
41.481605
  0
ARC
  5
9F
100
AcDbEntity
  8
0
  6
HIDDEN
 62
   174
100
AcDbCircle
 10
165.72692
 20
119.666987
 30
0.0
 40
3.0
100
AcDbArc
 50
143.458748
 51
163.86001
  0
LINE
  5
A0
100
AcDbEntity
  8
0
  6
HIDDEN
 62
   174
100
AcDbLine
 10
198.458614
 20
118.307038
 30
0.0
 11
213.630071
 21
124.318674
 31
0.0
  0
LINE
  5
A1
100
AcDbEntity
  8
0
  6
Continuous
 62
   174
100
AcDbLine
 10
219.32692
 20
66.666987
 30
0.0
 11
222.32692
 21
66.666987
 31
0.0
  0
ARC
  5
A2
100
AcDbEntity
  8
0
  6
Continuous
 62
   174
100
AcDbCircle
 10
200.627154
 20
151.220523
 30
0.0
 40
2.0
100
AcDbArc
 50
-296.609472
 51
-285.604671
  0
LINE
  5
A3
100
AcDbEntity
  8
0
  6
Continuous
 62
   174
100
AcDbLine
 10
187.752528
 20
115.832138
 30
0.0
 11
184.984875
 21
115.832138
 31
0.0
  0
ARC
  5
A4
100
AcDbEntity
  8
0
  6
HIDDEN
 62
   174
100
AcDbCircle
 10
165.72692
 20
119.666987
 30
0.0
 40
3.0
100
AcDbArc
 50
143.458748
 51
163.86001
  0
LINE
  5
A5
100
AcDbEntity
  8
0
  6
HIDDEN
 62
   174
100
AcDbLine
 10
216.92692
 20
74.554811
 30
0.0
 11
216.92692
 21
75.981445
 31
0.0
  0
ARC
  5
A6
100
AcDbEntity
  8
0
  6
Continuous
 62
   174
100
AcDbCircle
 10
204.01353
 20
132.524735
 30
0.0
 40
3.0
100
AcDbArc
 50
-163.358422
 51
-144.338236
  0
ARC
  5
A7
100
AcDbEntity
  8
0
  6
Continuous
 62
   174
100
AcDbCircle
 10
200.627154
 20
151.220523
 30
0.0
 40
2.0
100
AcDbArc
 50
-141.428571
 51
-127.735644
  0
ARC
  5
A8
100
AcDbEntity
  8
0
  6
Continuous
 62
   174
100
AcDbCircle
 10
200.627154
 20
151.220523
 30
0.0
 40
10.0
100
AcDbArc
 50
-25.746399
 51
9.640286
  0
ARC
  5
A9
100
AcDbEntity
  8
0
  6
HIDDEN
 62
   174
100
AcDbCircle
 10
165.72692
 20
119.666987
 30
0.0
 40
3.0
100
AcDbArc
 50
293.488421
 51
298.189579
  0
ARC
  5
AA
100
AcDbEntity
  8
0
  6
HIDDEN
 62
   174
100
AcDbCircle
 10
204.01353
 20
132.524735
 30
0.0
 40
8.0
100
AcDbArc
 50
123.159172
 51
148.836325
  0
ARC
  5
AB
100
AcDbEntity
  8
0
  6
HIDDEN
 62
   174
100
AcDbCircle
 10
165.72692
 20
119.666987
 30
0.0
 40
3.0
100
AcDbArc
 50
298.191982
 51
303.591852
  0
LINE
  5
AC
100
AcDbEntity
  8
0
  6
HIDDEN
 62
   174
100
AcDbLine
 10
197.567462
 20
123.226982
 30
0.0
 11
197.821983
 21
121.821801
 31
0.0
  0
ARC
  5
AD
100
AcDbEntity
  8
0
  6
Continuous
 62
   174
100
AcDbCircle
 10
200.627154
 20
151.220523
 30
0.0
 40
2.0
100
AcDbArc
 50
-194.287228
 51
-192.857143
  0
LINE
  5
AE
100
AcDbEntity
  8
0
  6
Continuous
 62
   174
100
AcDbLine
 10
208.70692
 20
39.666987
 30
0.0
 11
208.70692
 21
108.666987
 31
0.0
  0
ARC
  5
AF
100
AcDbEntity
  8
0
  6
HIDDEN
 62
   174
100
AcDbCircle
 10
204.01353
 20
132.524735
 30
0.0
 40
3.0
100
AcDbArc
 50
318.497975
 51
333.804065
  0
ARC
  5
B0
100
AcDbEntity
  8
0
  6
HIDDEN
 62
   174
100
AcDbCircle
 10
204.01353
 20
132.524735
 30
0.0
 40
8.0
100
AcDbArc
 50
280.266697
 51
303.419321
  0
ARC
  5
B1
100
AcDbEntity
  8
0
  6
HIDDEN
 62
   174
100
AcDbCircle
 10
165.72692
 20
119.666987
 30
0.0
 40
3.0
100
AcDbArc
 50
62.03542
 51
65.981884
  0
LINE
  5
B2
100
AcDbEntity
  8
0
  6
HIDDEN
 62
   174
100
AcDbLine
 10
219.32692
 20
46.714854
 30
0.0
 11
219.32692
 21
58.714027
 31
0.0
  0
LINE
  5
B3
100
AcDbEntity
  8
0
  6
Continuous
 62
   174
100
AcDbLine
 10
222.32692
 20
79.116497
 30
0.0
 11
222.32692
 21
81.332603
 31
0.0
  0
LINE
  5
B4
100
AcDbEntity
  8
0
  6
Continuous
 62
   174
100
AcDbLine
 10
216.92692
 20
66.713576
 30
0.0
 11
216.92692
 21
71.707249
 31
0.0
  0
LINE
  5
B5
100
AcDbEntity
  8
0
  6
Continuous
 62
   174
100
AcDbLine
 10
216.92692
 20
46.666987
 30
0.0
 11
219.32692
 21
46.666987
 31
0.0
  0
LINE
  5
B6
100
AcDbEntity
  8
0
  6
Continuous
 62
   174
100
AcDbLine
 10
197.886596
 20
121.465084
 30
0.0
 11
198.243059
 21
119.497093
 31
0.0
  0
LINE
  5
B7
100
AcDbEntity
  8
0
  6
HIDDEN
 62
   174
100
AcDbLine
 10
158.72692
 20
117.334353
 30
0.0
 11
158.72692
 21
110.266987
 31
0.0
  0
ARC
  5
B8
100
AcDbEntity
  8
0
  6
Continuous
 62
   174
100
AcDbCircle
 10
165.72692
 20
119.666987
 30
0.0
 40
3.0
100
AcDbArc
 50
64.237719
 51
90.0
  0
LINE
  5
B9
100
AcDbEntity
  8
0
  6
HIDDEN
 62
   174
100
AcDbLine
 10
208.72692
 20
66.713576
 30
0.0
 11
208.72692
 21
74.121323
 31
0.0
  0
LINE
  5
BA
100
AcDbEntity
  8
0
  6
Continuous
 62
   174
100
AcDbLine
 10
216.92692
 20
57.719979
 30
0.0
 11
216.92692
 21
62.713952
 31
0.0
  0
ARC
  5
BB
100
AcDbEntity
  8
0
  6
Continuous
 62
   174
100
AcDbCircle
 10
204.01353
 20
132.524735
 30
0.0
 40
3.0
100
AcDbArc
 50
215.938048
 51
221.481605
  0
ARC
  5
BC
100
AcDbEntity
  8
0
  6
HIDDEN
 62
   174
100
AcDbCircle
 10
165.72692
 20
119.666987
 30
0.0
 40
3.0
100
AcDbArc
 50
293.532056
 51
298.191982
  0
LINE
  5
BD
100
AcDbEntity
  8
0
  6
Continuous
 62
   174
100
AcDbLine
 10
179.547237
 20
116.110907
 30
0.0
 11
179.190774
 21
118.078897
 31
0.0
  0
LINE
  5
BE
100
AcDbEntity
  8
0
  6
HIDDEN
 62
   174
100
AcDbLine
 10
172.79451
 20
119.727617
 30
0.0
 11
174.006477
 21
113.036493
 31
0.0
  0
ARC
  5
BF
100
AcDbEntity
  8
0
  6
HIDDEN
 62
   174
100
AcDbCircle
 10
165.72692
 20
119.666987
 30
0.0
 40
3.0
100
AcDbArc
 50
196.941465
 51
215.990305
  0
ARC
  5
C0
100
AcDbEntity
  8
0
  6
HIDDEN
 62
   174
100
AcDbCircle
 10
165.72692
 20
119.666987
 30
0.0
 40
3.0
100
AcDbArc
 50
16.941465
 51
35.990305
  0
LINE
  5
C1
100
AcDbEntity
  8
0
  6
Continuous
 62
   174
100
AcDbLine
 10
212.824777
 20
128.76461
 30
0.0
 11
213.630071
 21
124.318674
 31
0.0
  0
LINE
  5
C2
100
AcDbEntity
  8
0
  6
HIDDEN
 62
   174
100
AcDbLine
 10
208.72692
 20
56.666987
 30
0.0
 11
216.92692
 21
56.666987
 31
0.0
  0
LINE
  5
C3
100
AcDbEntity
  8
0
  6
Continuous
 62
   174
100
AcDbLine
 10
219.32692
 20
66.666987
 30
0.0
 11
222.32692
 21
66.666987
 31
0.0
  0
ARC
  5
C4
100
AcDbEntity
  8
0
  6
HIDDEN
 62
   174
100
AcDbCircle
 10
200.627154
 20
151.220523
 30
0.0
 40
9.4
100
AcDbArc
 50
268.266697
 51
338.912163
  0
LINE
  5
C5
100
AcDbEntity
  8
0
  6
HIDDEN
 62
   174
100
AcDbLine
 10
183.752604
 20
115.832138
 30
0.0
 11
179.752679
 21
115.832138
 31
0.0
  0
ARC
  5
C6
100
AcDbEntity
  8
0
  6
HIDDEN
 62
   174
100
AcDbCircle
 10
165.72692
 20
119.666987
 30
0.0
 40
3.0
100
AcDbArc
 50
113.488421
 51
118.189579
  0
ARC
  5
C7
100
AcDbEntity
  8
0
  6
HIDDEN
 62
   174
100
AcDbCircle
 10
165.72692
 20
119.666987
 30
0.0
 40
3.0
100
AcDbArc
 50
218.628871
 51
245.972658
  0
LINE
  5
C8
100
AcDbEntity
  8
0
  6
HIDDEN
 62
   174
100
AcDbLine
 10
165.008245
 20
127.666987
 30
0.0
 11
159.445797
 21
126.659458
 31
0.0
  0
ARC
  5
C9
100
AcDbEntity
  8
0
  6
HIDDEN
 62
   174
100
AcDbCircle
 10
165.72692
 20
119.666987
 30
0.0
 40
3.0
100
AcDbArc
 50
215.990305
 51
221.540508
  0
LINE
  5
CA
100
AcDbEntity
  8
0
  6
HIDDEN
 62
   174
100
AcDbLine
 10
197.893275
 20
121.428206
 30
0.0
 11
179.197488
 21
118.04183
 31
0.0
  0
ARC
  5
CB
100
AcDbEntity
  8
0
  6
Continuous
 62
   174
100
AcDbCircle
 10
204.01353
 20
132.524735
 30
0.0
 40
3.0
100
AcDbArc
 50
-219.610497
 51
-216.348898
  0
LINE
  5
CC
100
AcDbEntity
  8
0
  6
HIDDEN
 62
   174
100
AcDbLine
 10
208.72692
 20
74.121323
 30
0.0
 11
208.72692
 21
76.712937
 31
0.0
  0
ARC
  5
CD
100
AcDbEntity
  8
0
  6
Continuous
 62
   174
100
AcDbCircle
 10
204.01353
 20
132.524735
 30
0.0
 40
3.0
100
AcDbArc
 50
343.862996
 51
348.390396
  0
ARC
  5
CE
100
AcDbEntity
  8
0
  6
Continuous
 62
   174
100
AcDbCircle
 10
204.01353
 20
132.524735
 30
0.0
 40
3.0
100
AcDbArc
 50
16.94154
 51
35.938048
  0
ARC
  5
CF
100
AcDbEntity
  8
0
  6
HIDDEN
 62
   174
100
AcDbCircle
 10
165.72692
 20
119.666987
 30
0.0
 40
3.0
100
AcDbArc
 50
123.591852
 51
143.458748
  0
LINE
  5
D0
100
AcDbEntity
  8
0
  6
HIDDEN
 62
   174
100
AcDbLine
 10
195.754512
 20
133.236071
 30
0.0
 11
197.567462
 21
123.226982
 31
0.0
  0
LINE
  5
D1
100
AcDbEntity
  8
0
  6
Continuous
 62
   174
100
AcDbLine
 10
219.32692
 20
86.666987
 30
0.0
 11
222.32692
 21
86.666987
 31
0.0
  0
LINE
  5
D2
100
AcDbEntity
  8
0
  6
Continuous
 62
   174
100
AcDbLine
 10
180.521121
 20
115.832138
 30
0.0
 11
179.752679
 21
115.832138
 31
0.0
  0
ARC
  5
D3
100
AcDbEntity
  8
0
  6
HIDDEN
 62
   174
100
AcDbCircle
 10
165.72692
 20
119.666987
 30
0.0
 40
3.0
100
AcDbArc
 50
123.591852
 51
143.458748
  0
LINE
  5
D4
100
AcDbEntity
  8
0
  6
HIDDEN
 62
   174
100
AcDbLine
 10
216.92692
 20
78.870764
 30
0.0
 11
216.92692
 21
82.712374
 31
0.0
  0
ARC
  5
D5
100
AcDbEntity
  8
0
  6
Continuous
 62
   174
100
AcDbCircle
 10
200.627154
 20
151.220523
 30
0.0
 40
2.0
100
AcDbArc
 50
-127.735644
 51
-116.609472
  0
ARC
  5
D6
100
AcDbEntity
  8
0
  6
Continuous
 62
   174
100
AcDbCircle
 10
200.627154
 20
151.220523
 30
0.0
 40
9.4
100
AcDbArc
 50
196.270063
 51
220.882018
  0
LINE
  5
D7
100
AcDbEntity
  8
0
  6
Continuous
 62
   174
100
AcDbLine
 10
172.481728
 20
129.020662
 30
0.0
 11
165.008245
 21
127.666987
 31
0.0
  0
ARC
  5
D8
100
AcDbEntity
  8
0
  6
HIDDEN
 62
   174
100
AcDbCircle
 10
165.72692
 20
119.666987
 30
0.0
 40
3.0
100
AcDbArc
 50
270.0
 51
293.488421
  0
ARC
  5
D9
100
AcDbEntity
  8
0
  6
HIDDEN
 62
   174
100
AcDbCircle
 10
204.01353
 20
132.524735
 30
0.0
 40
8.0
100
AcDbArc
 50
71.804994
 51
123.159172
  0
ARC
  5
DA
100
AcDbEntity
  8
0
  6
HIDDEN
 62
   174
100
AcDbCircle
 10
165.72692
 20
119.666987
 30
0.0
 40
3.0
100
AcDbArc
 50
293.532056
 51
298.191982
  0
LINE
  5
DB
100
AcDbEntity
  8
0
  6
Continuous
 62
   174
100
AcDbLine
 10
198.673019
 20
118.391996
 30
0.0
 11
213.630071
 21
124.318674
 31
0.0
  0
ARC
  5
DC
100
AcDbEntity
  8
0
  6
Continuous
 62
   174
100
AcDbCircle
 10
200.627154
 20
151.220523
 30
0.0
 40
2.0
100
AcDbArc
 50
-192.857143
 51
-180.817696
  0
ARC
  5
DD
100
AcDbEntity
  8
0
  6
HIDDEN
 62
   174
100
AcDbCircle
 10
165.72692
 20
119.666987
 30
0.0
 40
3.0
100
AcDbArc
 50
41.540508
 51
62.03542
  0
LINE
  5
DE
100
AcDbEntity
  8
0
  6
HIDDEN
 62
   174
100
AcDbLine
 10
216.92692
 20
50.556464
 30
0.0
 11
216.92692
 21
51.983399
 31
0.0
  0
LINE
  5
DF
100
AcDbEntity
  8
0
  6
HIDDEN
 62
   174
100
AcDbLine
 10
219.32692
 20
70.713201
 30
0.0
 11
219.32692
 21
82.712374
 31
0.0
  0
LINE
  5
E0
100
AcDbEntity
  8
0
  6
Continuous
 62
   174
100
AcDbLine
 10
222.32692
 20
74.309378
 30
0.0
 11
222.32692
 21
79.116497
 31
0.0
  0
LINE
  5
E1
100
AcDbEntity
  8
0
  6
Continuous
 62
   174
100
AcDbLine
 10
216.92692
 20
81.718326
 30
0.0
 11
216.92692
 21
86.711998
 31
0.0
  0
ARC
  5
E2
100
AcDbEntity
  8
0
  6
Continuous
 62
   174
100
AcDbCircle
 10
204.01353
 20
132.524735
 30
0.0
 40
3.0
100
AcDbArc
 50
168.390396
 51
190.266697
  0
LINE
  5
E3
100
AcDbEntity
  8
0
  6
HIDDEN
 62
   174
100
AcDbLine
 10
192.755244
 20
149.79468
 30
0.0
 11
198.458614
 21
118.307038
 31
0.0
  0
ARC
  5
E4
100
AcDbEntity
  8
0
  6
Continuous
 62
   174
100
AcDbCircle
 10
165.72692
 20
119.666987
 30
0.0
 40
3.0
100
AcDbArc
 50
38.599794
 51
64.237719
  0
LINE
  5
E5
100
AcDbEntity
  8
0
  6
Continuous
 62
   174
100
AcDbLine
 10
216.92692
 20
55.305905
 30
0.0
 11
216.92692
 21
57.719979
 31
0.0
  0
ARC
  5
E6
100
AcDbEntity
  8
0
  6
Continuous
 62
   174
100
AcDbCircle
 10
204.01353
 20
132.524735
 30
0.0
 40
3.0
100
AcDbArc
 50
196.94154
 51
215.938048
  0
ARC
  5
E7
100
AcDbEntity
  8
0
  6
HIDDEN
 62
   174
100
AcDbCircle
 10
165.72692
 20
119.666987
 30
0.0
 40
3.0
100
AcDbArc
 50
267.881729
 51
293.532056
  0
LINE
  5
E8
100
AcDbEntity
  8
0
  6
HIDDEN
 62
   174
100
AcDbLine
 10
216.92692
 20
53.739281
 30
0.0
 11
216.92692
 21
55.1548
 31
0.0
  0
LINE
  5
E9
100
AcDbEntity
  8
0
  6
HIDDEN
 62
   174
100
AcDbLine
 10
158.72692
 20
126.659458
 30
0.0
 11
158.72692
 21
117.334353
 31
0.0
  0
ARC
  5
EA
100
AcDbEntity
  8
0
  6
HIDDEN
 62
   174
100
AcDbCircle
 10
165.72692
 20
119.666987
 30
0.0
 40
3.0
100
AcDbArc
 50
190.266697
 51
196.941465
  0
ARC
  5
EB
100
AcDbEntity
  8
0
  6
HIDDEN
 62
   174
100
AcDbCircle
 10
165.72692
 20
119.666987
 30
0.0
 40
3.0
100
AcDbArc
 50
10.266697
 51
16.941465
  0
LINE
  5
EC
100
AcDbEntity
  8
0
  6
Continuous
 62
   174
100
AcDbLine
 10
198.458614
 20
118.307038
 30
0.0
 11
198.673019
 21
118.391996
 31
0.0
  0
LINE
  5
ED
100
AcDbEntity
  8
0
  6
HIDDEN
 62
   174
100
AcDbLine
 10
216.92692
 20
70.713201
 30
0.0
 11
216.92692
 21
74.554811
 31
0.0
  0
ARC
  5
EE
100
AcDbEntity
  8
0
  6
Continuous
 62
   174
100
AcDbCircle
 10
200.627154
 20
151.220523
 30
0.0
 40
2.0
100
AcDbArc
 50
-79.69843
 51
-65.727593
  0
ARC
  5
EF
100
AcDbEntity
  8
0
  6
HIDDEN
 62
   174
100
AcDbCircle
 10
200.983908
 20
122.319482
 30
0.0
 40
1.0
100
AcDbArc
 50
-169.733303
 51
10.266697
  0
ARC
  5
F0
100
AcDbEntity
  8
0
  6
HIDDEN
 62
   174
100
AcDbCircle
 10
165.72692
 20
119.666987
 30
0.0
 40
3.0
100
AcDbArc
 50
90.0
 51
113.488421
  0
ARC
  5
F1
100
AcDbEntity
  8
0
  6
HIDDEN
 62
   174
100
AcDbCircle
 10
165.72692
 20
119.666987
 30
0.0
 40
3.0
100
AcDbArc
 50
196.641843
 51
218.628871
  0
LINE
  5
F2
100
AcDbEntity
  8
0
  6
HIDDEN
 62
   174
100
AcDbLine
 10
187.752528
 20
108.666987
 30
0.0
 11
183.752604
 21
108.666987
 31
0.0
  0
ARC
  5
F3
100
AcDbEntity
  8
0
  6
HIDDEN
 62
   174
100
AcDbCircle
 10
165.72692
 20
119.666987
 30
0.0
 40
3.0
100
AcDbArc
 50
196.941465
 51
215.990305
  0
LINE
  5
F4
100
AcDbEntity
  8
0
  6
HIDDEN
 62
   174
100
AcDbLine
 10
179.126196
 20
118.435425
 30
0.0
 11
178.698443
 21
120.796999
 31
0.0
  0
LINE
  5
F5
100
AcDbEntity
  8
0
  6
HIDDEN
 62
   174
100
AcDbLine
 10
208.72692
 20
72.666987
 30
0.0
 11
216.92692
 21
72.666987
 31
0.0
  0
LINE
  5
F6
100
AcDbEntity
  8
0
  6
HIDDEN
 62
   174
100
AcDbLine
 10
172.481728
 20
129.020662
 30
0.0
 11
165.008245
 21
127.666987
 31
0.0
  0
ARC
  5
F7
100
AcDbEntity
  8
0
  6
Continuous
 62
   174
100
AcDbCircle
 10
204.01353
 20
132.524735
 30
0.0
 40
3.0
100
AcDbArc
 50
320.382516
 51
343.862996
  0
ARC
  5
F8
100
AcDbEntity
  8
0
  6
HIDDEN
 62
   174
100
AcDbCircle
 10
204.01353
 20
132.524735
 30
0.0
 40
8.0
100
AcDbArc
 50
46.127812
 51
71.804994
  0
ARC
  5
F9
100
AcDbEntity
  8
0
  6
HIDDEN
 62
   174
100
AcDbCircle
 10
165.72692
 20
119.666987
 30
0.0
 40
3.0
100
AcDbArc
 50
118.191982
 51
123.591852
  0
LINE
  5
FA
100
AcDbEntity
  8
0
  6
Continuous
 62
   174
100
AcDbLine
 10
219.32692
 20
59.260769
 30
0.0
 11
219.32692
 21
62.713952
 31
0.0
  0
ARC
  5
FB
100
AcDbEntity
  8
0
  6
Continuous
 62
   174
100
AcDbCircle
 10
200.627154
 20
151.220523
 30
0.0
 40
2.0
100
AcDbArc
 50
-0.817696
 51
11.536701
  0
LINE
  5
FC
100
AcDbEntity
  8
0
  6
Continuous
 62
   174
100
AcDbLine
 10
181.395307
 20
115.832138
 30
0.0
 11
180.521121
 21
115.832138
 31
0.0
  0
LINE
  5
FD
100
AcDbEntity
  8
0
  6
HIDDEN
 62
   174
100
AcDbLine
 10
174.006477
 20
113.036493
 30
0.0
 11
172.72692
 21
112.804726
 31
0.0
  0
ARC
  5
FE
100
AcDbEntity
  8
0
  6
HIDDEN
 62
   174
100
AcDbCircle
 10
165.72692
 20
119.666987
 30
0.0
 40
3.0
100
AcDbArc
 50
118.191982
 51
123.591852
  0
LINE
  5
FF
100
AcDbEntity
  8
0
  6
HIDDEN
 62
   174
100
AcDbLine
 10
187.424906
 20
117.499522
 30
0.0
 11
198.249736
 21
119.460228
 31
0.0
  0
LINE
  5
100
100
AcDbEntity
  8
0
  6
HIDDEN
 62
   174
100
AcDbLine
 10
216.92692
 20
76.712937
 30
0.0
 11
216.92692
 21
77.366323
 31
0.0
  0
LINE
  5
101
100
AcDbEntity
  8
0
  6
Continuous
 62
   174
100
AcDbLine
 10
216.92692
 20
70.666987
 30
0.0
 11
219.32692
 21
70.666987
 31
0.0
  0
LINE
  5
102
100
AcDbEntity
  8
0
  6
HIDDEN
 62
   174
100
AcDbLine
 10
216.92692
 20
77.444129
 30
0.0
 11
216.92692
 21
78.870764
 31
0.0
  0
ARC
  5
103
100
AcDbEntity
  8
0
  6
Continuous
 62
   174
100
AcDbCircle
 10
204.01353
 20
132.524735
 30
0.0
 40
3.0
100
AcDbArc
 50
-216.348898
 51
-195.924065
  0
ARC
  5
104
100
AcDbEntity
  8
0
  6
Continuous
 62
   174
100
AcDbCircle
 10
200.627154
 20
151.220523
 30
0.0
 40
2.0
100
AcDbArc
 50
-116.609472
 51
-105.604671
  0
ARC
  5
105
100
AcDbEntity
  8
0
  6
Continuous
 62
   174
100
AcDbCircle
 10
199.72692
 20
91.666987
 30
0.0
 40
4.5
100
AcDbArc
 50
-90.0
 51
90.0
  0
ARC
  5
106
100
AcDbEntity
  8
0
  6
Continuous
 62
   174
100
AcDbCircle
 10
200.627154
 20
151.220523
 30
0.0
 40
9.4
100
AcDbArc
 50
178.266697
 51
196.270063
  0
ARC
  5
107
100
AcDbEntity
  8
0
  6
HIDDEN
 62
   174
100
AcDbCircle
 10
200.627154
 20
151.220523
 30
0.0
 40
9.4
100
AcDbArc
 50
-91.733303
 51
88.266697
  0
ARC
  5
108
100
AcDbEntity
  8
0
  6
Continuous
 62
   174
100
AcDbCircle
 10
183.72692
 20
106.666987
 30
0.0
 40
10.0
100
AcDbArc
 50
-293.578178
 51
-270.0
  0
ARC
  5
109
100
AcDbEntity
  8
0
  6
HIDDEN
 62
   174
100
AcDbCircle
 10
165.72692
 20
119.666987
 30
0.0
 40
3.0
100
AcDbArc
 50
267.881729
 51
293.532056
  0
ARC
  5
10A
100
AcDbEntity
  8
0
  6
Continuous
 62
   174
100
AcDbCircle
 10
200.627154
 20
151.220523
 30
0.0
 40
2.0
100
AcDbArc
 50
-180.817696
 51
-168.463299
  0
ARC
  5
10B
100
AcDbEntity
  8
0
  6
HIDDEN
 62
   174
100
AcDbCircle
 10
204.01353
 20
132.524735
 30
0.0
 40
3.0
100
AcDbArc
 50
62.03542
 51
76.941543
  0
ARC
  5
10C
100
AcDbEntity
  8
0
  6
HIDDEN
 62
   174
100
AcDbCircle
 10
165.72692
 20
119.666987
 30
0.0
 40
3.0
100
AcDbArc
 50
35.990305
 51
41.540508
  0
LINE
  5
10D
100
AcDbEntity
  8
0
  6
HIDDEN
 62
   174
100
AcDbLine
 10
216.92692
 20
77.737327
 30
0.0
 11
216.92692
 21
79.153147
 31
0.0
  0
LINE
  5
10E
100
AcDbEntity
  8
0
  6
HIDDEN
 62
   174
100
AcDbLine
 10
216.92692
 20
46.714854
 30
0.0
 11
216.92692
 21
50.556464
 31
0.0
  0
LINE
  5
10F
100
AcDbEntity
  8
0
  6
Continuous
 62
   174
100
AcDbLine
 10
222.32692
 20
72.092972
 30
0.0
 11
222.32692
 21
74.309378
 31
0.0
  0
ARC
  5
110
100
AcDbEntity
  8
0
  6
Continuous
 62
   174
100
AcDbCircle
 10
200.627154
 20
151.220523
 30
0.0
 40
2.0
100
AcDbArc
 50
-270.0
 51
-259.69843
  0
ARC
  5
111
100
AcDbEntity
  8
0
  6
HIDDEN
 62
   174
100
AcDbCircle
 10
204.01353
 20
132.524735
 30
0.0
 40
3.0
100
AcDbArc
 50
-169.733303
 51
10.266697
  0
LINE
  5
112
100
AcDbEntity
  8
0
  6
HIDDEN
 62
   174
100
AcDbLine
 10
208.72692
 20
42.71523
 30
0.0
 11
208.72692
 21
50.122976
 31
0.0
  0
LINE
  5
113
100
AcDbEntity
  8
0
  6
Continuous
 62
   174
100
AcDbLine
 10
216.92692
 20
79.304252
 30
0.0
 11
216.92692
 21
81.718326
 31
0.0
  0
ARC
  5
114
100
AcDbEntity
  8
0
  6
Continuous
 62
   174
100
AcDbCircle
 10
204.01353
 20
132.524735
 30
0.0
 40
3.0
100
AcDbArc
 50
163.862996
 51
168.390396
  0
LINE
  5
115
100
AcDbEntity
  8
0
  6
Continuous
 62
   174
100
AcDbLine
 10
216.92692
 20
46.666987
 30
0.0
 11
219.32692
 21
46.666987
 31
0.0
  0
ARC
  5
116
100
AcDbEntity
  8
0
  6
HIDDEN
 62
   174
100
AcDbCircle
 10
204.01353
 20
132.524735
 30
0.0
 40
3.0
100
AcDbArc
 50
-9.952843
 51
10.266697
  0
ARC
  5
117
100
AcDbEntity
  8
0
  6
Continuous
 62
   174
100
AcDbCircle
 10
165.72692
 20
119.666987
 30
0.0
 40
3.0
100
AcDbArc
 50
12.86204
 51
38.599794
  0
LINE
  5
118
100
AcDbEntity
  8
0
  6
Continuous
 62
   174
100
AcDbLine
 10
158.72692
 20
127.666987
 30
0.0
 11
172.72692
 21
127.666987
 31
0.0
  0
LINE
  5
119
100
AcDbEntity
  8
0
  6
HIDDEN
 62
   174
100
AcDbLine
 10
208.72692
 20
76.712937
 30
0.0
 11
208.72692
 21
79.304252
 31
0.0
  0
LINE
  5
11A
100
AcDbEntity
  8
0
  6
Continuous
 62
   174
100
AcDbLine
 10
216.92692
 20
52.714591
 30
0.0
 11
216.92692
 21
55.305905
 31
0.0
  0
ARC
  5
11B
100
AcDbEntity
  8
0
  6
Continuous
 62
   174
100
AcDbCircle
 10
204.01353
 20
132.524735
 30
0.0
 40
3.0
100
AcDbArc
 50
190.266697
 51
196.94154
  0
ARC
  5
11C
100
AcDbEntity
  8
0
  6
HIDDEN
 62
   174
100
AcDbCircle
 10
165.72692
 20
119.666987
 30
0.0
 40
3.0
100
AcDbArc
 50
245.981884
 51
267.881729
  0
LINE
  5
11D
100
AcDbEntity
  8
0
  6
Continuous
 62
   174
100
AcDbLine
 10
192.755244
 20
149.79468
 30
0.0
 11
195.754512
 21
133.236071
 31
0.0
  0
LINE
  5
11E
100
AcDbEntity
  8
0
  6
HIDDEN
 62
   174
100
AcDbLine
 10
216.92692
 20
74.272428
 30
0.0
 11
216.92692
 21
75.688248
 31
0.0
  0
LINE
  5
11F
100
AcDbEntity
  8
0
  6
Continuous
 62
   174
100
AcDbLine
 10
174.006477
 20
113.036493
 30
0.0
 11
172.72692
 21
112.804726
 31
0.0
  0
LINE
  5
120
100
AcDbEntity
  8
0
  6
HIDDEN
 62
   174
100
AcDbLine
 10
208.72692
 20
52.714591
 30
0.0
 11
208.72692
 21
48.714967
 31
0.0
  0
ARC
  5
121
100
AcDbEntity
  8
0
  6
HIDDEN
 62
   174
100
AcDbCircle
 10
204.01353
 20
132.524735
 30
0.0
 40
3.0
100
AcDbArc
 50
138.497975
 51
190.266697
  0
ARC
  5
122
100
AcDbEntity
  8
0
  6
HIDDEN
 62
   174
100
AcDbCircle
 10
165.72692
 20
119.666987
 30
0.0
 40
3.0
100
AcDbArc
 50
-11.617247
 51
10.266697
  0
ARC
  5
123
100
AcDbEntity
  8
0
  6
Continuous
 62
   174
100
AcDbCircle
 10
200.627154
 20
151.220523
 30
0.0
 40
2.0
100
AcDbArc
 50
-65.727593
 51
-54.035407
  0
ARC
  5
124
100
AcDbEntity
  8
0
  6
Continuous
 62
   174
100
AcDbCircle
 10
165.72692
 20
119.666987
 30
0.0
 40
3.0
100
AcDbArc
 50
-12.86204
 51
12.86204
  0
ARC
  5
125
100
AcDbEntity
  8
0
  6
HIDDEN
 62
   174
100
AcDbCircle
 10
165.72692
 20
119.666987
 30
0.0
 40
3.0
100
AcDbArc
 50
65.972658
 51
90.0
  0
ARC
  5
126
100
AcDbEntity
  8
0
  6
HIDDEN
 62
   174
100
AcDbCircle
 10
165.72692
 20
119.666987
 30
0.0
 40
3.0
100
AcDbArc
 50
191.760507
 51
196.641843
  0
LINE
  5
127
100
AcDbEntity
  8
0
  6
Continuous
 62
   174
100
AcDbLine
 10
179.72692
 20
108.666987
 30
0.0
 11
179.72692
 21
115.832138
 31
0.0
  0
ARC
  5
128
100
AcDbEntity
  8
0
  6
HIDDEN
 62
   174
100
AcDbCircle
 10
165.72692
 20
119.666987
 30
0.0
 40
3.0
100
AcDbArc
 50
190.266697
 51
196.941465
  0
ARC
  5
129
100
AcDbEntity
  8
0
  6
Continuous
 62
   174
100
AcDbCircle
 10
200.627154
 20
151.220523
 30
0.0
 40
2.0
100
AcDbArc
 50
-285.604671
 51
-271.201339
  0
ARC
  5
12A
100
AcDbEntity
  8
0
  6
Continuous
 62
   174
100
AcDbCircle
 10
200.627154
 20
151.220523
 30
0.0
 40
9.4
100
AcDbArc
 50
88.266697
 51
178.266697
  0
ARC
  5
12B
100
AcDbEntity
  8
0
  6
Continuous
 62
   174
100
AcDbCircle
 10
204.01353
 20
132.524735
 30
0.0
 40
8.0
100
AcDbArc
 50
-30.903581
 51
174.513493
  0
ARC
  5
12C
100
AcDbEntity
  8
0
  6
Continuous
 62
   174
100
AcDbCircle
 10
204.01353
 20
132.524735
 30
0.0
 40
3.0
100
AcDbArc
 50
298.097702
 51
320.382516
  0
ARC
  5
12D
100
AcDbEntity
  8
0
  6
Continuous
 62
   174
100
AcDbCircle
 10
204.01353
 20
132.524735
 30
0.0
 40
3.0
100
AcDbArc
 50
108.055194
 51
113.443345
  0
ARC
  5
12E
100
AcDbEntity
  8
0
  6
HIDDEN
 62
   174
100
AcDbCircle
 10
204.01353
 20
132.524735
 30
0.0
 40
8.0
100
AcDbArc
 50
20.450654
 51
46.127812
  0
ARC
  5
12F
100
AcDbEntity
  8
0
  6
HIDDEN
 62
   174
100
AcDbCircle
 10
165.72692
 20
119.666987
 30
0.0
 40
3.0
100
AcDbArc
 50
113.532056
 51
118.191982
  0
LINE
  5
130
100
AcDbEntity
  8
0
  6
HIDDEN
 62
   174
100
AcDbLine
 10
165.008245
 20
127.666987
 30
0.0
 11
172.72692
 21
127.666987
 31
0.0
  0
LINE
  5
131
100
AcDbEntity
  8
0
  6
Continuous
 62
   174
100
AcDbLine
 10
197.567462
 20
123.226982
 30
0.0
 11
197.893275
 21
121.428206
 31
0.0
  0
LINE
  5
132
100
AcDbEntity
  8
0
  6
HIDDEN
 62
   174
100
AcDbLine
 10
208.72692
 20
48.666987
 30
0.0
 11
216.92692
 21
48.666987
 31
0.0
  0
LINE
  5
133
100
AcDbEntity
  8
0
  6
HIDDEN
 62
   174
100
AcDbLine
 10
216.92692
 20
74.036908
 30
0.0
 11
216.92692
 21
74.272428
 31
0.0
  0
LINE
  5
134
100
AcDbEntity
  8
0
  6
Continuous
 62
   174
100
AcDbLine
 10
219.32692
 20
46.168413
 30
0.0
 11
219.32692
 21
59.260769
 31
0.0
  0
ARC
  5
135
100
AcDbEntity
  8
0
  6
Continuous
 62
   174
100
AcDbCircle
 10
200.627154
 20
151.220523
 30
0.0
 40
2.0
100
AcDbArc
 50
-348.463299
 51
-334.951368
  0
LINE
  5
136
100
AcDbEntity
  8
0
  6
Continuous
 62
   174
100
AcDbLine
 10
182.520032
 20
115.832138
 30
0.0
 11
181.395307
 21
115.832138
 31
0.0
  0
LINE
  5
137
100
AcDbEntity
  8
0
  6
HIDDEN
 62
   174
100
AcDbLine
 10
208.72692
 20
50.122976
 30
0.0
 11
208.72692
 21
52.714591
 31
0.0
  0
LINE
  5
138
100
AcDbEntity
  8
0
  6
HIDDEN
 62
   174
100
AcDbLine
 10
205.439373
 20
124.652825
 30
0.0
 11
197.567462
 21
123.226982
 31
0.0
  0
ARC
  5
139
100
AcDbEntity
  8
0
  6
HIDDEN
 62
   174
100
AcDbCircle
 10
165.72692
 20
119.666987
 30
0.0
 40
3.0
100
AcDbArc
 50
113.532056
 51
118.191982
  0
LINE
  5
13A
100
AcDbEntity
  8
0
  6
Continuous
 62
   174
100
AcDbLine
 10
208.72692
 20
108.666987
 30
0.0
 11
172.72692
 21
108.666987
 31
0.0
  0
ARC
  5
13B
100
AcDbEntity
  8
0
  6
Continuous
 62
   174
100
AcDbCircle
 10
204.01353
 20
132.524735
 30
0.0
 40
3.0
100
AcDbArc
 50
-195.924065
 51
-191.448258
  0
ARC
  5
13C
100
AcDbEntity
  8
0
  6
Continuous
 62
   174
100
AcDbCircle
 10
200.627154
 20
151.220523
 30
0.0
 40
2.0
100
AcDbArc
 50
-105.604671
 51
-91.201339
  0
ARC
  5
13D
100
AcDbEntity
  8
0
  6
Continuous
 62
   174
100
AcDbCircle
 10
199.72692
 20
91.666987
 30
0.0
 40
4.5
100
AcDbArc
 50
90.0
 51
270.0
  0
ARC
  5
13E
100
AcDbEntity
  8
0
  6
HIDDEN
 62
   174
100
AcDbCircle
 10
200.627154
 20
151.220523
 30
0.0
 40
9.4
100
AcDbArc
 50
88.266697
 51
268.266697
  0
ARC
  5
13F
100
AcDbEntity
  8
0
  6
HIDDEN
 62
   174
100
AcDbCircle
 10
165.72692
 20
119.666987
 30
0.0
 40
3.0
100
AcDbArc
 50
245.981884
 51
267.881729
  0
LINE
  5
140
100
AcDbEntity
  8
0
  6
HIDDEN
 62
   174
100
AcDbLine
 10
183.698383
 20
116.824536
 30
0.0
 11
187.424906
 21
117.499522
 31
0.0
  0
LINE
  5
141
100
AcDbEntity
  8
0
  6
HIDDEN
 62
   174
100
AcDbLine
 10
216.92692
 20
52.060905
 30
0.0
 11
216.92692
 21
52.714591
 31
0.0
  0
LINE
  5
142
100
AcDbEntity
  8
0
  6
HIDDEN
 62
   174
100
AcDbLine
 10
216.92692
 20
53.367977
 30
0.0
 11
216.92692
 21
53.739281
 31
0.0
  0
LINE
  5
143
100
AcDbEntity
  8
0
  6
Continuous
 62
   174
100
AcDbLine
 10
216.92692
 20
82.666987
 30
0.0
 11
219.32692
 21
82.666987
 31
0.0
  0
LINE
  5
144
100
AcDbEntity
  8
0
  6
HIDDEN
 62
   174
100
AcDbLine
 10
216.92692
 20
53.445783
 30
0.0
 11
216.92692
 21
54.872718
 31
0.0
  0
ARC
  5
145
100
AcDbEntity
  8
0
  6
Continuous
 62
   174
100
AcDbCircle
 10
200.627154
 20
151.220523
 30
0.0
 40
2.0
100
AcDbArc
 50
-168.463299
 51
-154.951368
  0
LINE
  5
146
100
AcDbEntity
  8
0
  6
Continuous
 62
   174
100
AcDbLine
 10
205.439373
 20
124.652825
 30
0.0
 11
197.567462
 21
123.226982
 31
0.0
  0
LINE
  5
147
100
AcDbEntity
  8
0
  6
Continuous
 62
   174
100
AcDbLine
 10
196.05018
 20
133.289626
 30
0.0
 11
172.481728
 21
129.020662
 31
0.0
  0
ARC
  5
148
100
AcDbEntity
  8
0
  6
HIDDEN
 62
   174
100
AcDbCircle
 10
204.01353
 20
132.524735
 30
0.0
 40
3.0
100
AcDbArc
 50
46.72933
 51
62.03542
  0
ARC
  5
149
100
AcDbEntity
  8
0
  6
HIDDEN
 62
   174
100
AcDbCircle
 10
165.72692
 20
119.666987
 30
0.0
 40
3.0
100
AcDbArc
 50
16.941465
 51
35.990305
  0
LINE
  5
14A
100
AcDbEntity
  8
0
  6
Continuous
 62
   174
100
AcDbLine
 10
222.32692
 20
66.713576
 30
0.0
 11
222.32692
 21
72.092972
 31
0.0
  0
ARC
  5
14B
100
AcDbEntity
  8
0
  6
Continuous
 62
   174
100
AcDbCircle
 10
200.627154
 20
151.220523
 30
0.0
 40
2.0
100
AcDbArc
 50
-259.69843
 51
-245.727593
  0
LINE
  5
14C
100
AcDbEntity
  8
0
  6
HIDDEN
 62
   174
100
AcDbLine
 10
178.698443
 20
120.796999
 30
0.0
 11
172.79451
 21
119.727617
 31
0.0
  0
ARC
  5
14D
100
AcDbEntity
  8
0
  6
HIDDEN
 62
   174
100
AcDbCircle
 10
204.01353
 20
132.524735
 30
0.0
 40
3.0
100
AcDbArc
 50
190.266697
 51
318.497975
  0
ARC
  5
14E
100
AcDbEntity
  8
0
  6
Continuous
 62
   174
100
AcDbCircle
 10
204.01353
 20
132.524735
 30
0.0
 40
3.0
100
AcDbArc
 50
140.382516
 51
163.862996
  0
LINE
  5
14F
100
AcDbEntity
  8
0
  6
HIDDEN
 62
   174
100
AcDbLine
 10
216.92692
 20
75.688248
 30
0.0
 11
216.92692
 21
76.059251
 31
0.0
  0
LINE
  5
150
100
AcDbEntity
  8
0
  6
HIDDEN
 62
   174
100
AcDbLine
 10
216.92692
 20
80.20998
 30
0.0
 11
216.92692
 21
80.400438
 31
0.0
  0
LINE
  5
151
100
AcDbEntity
  8
0
  6
Continuous
 62
   174
100
AcDbLine
 10
158.72692
 20
39.666987
 30
0.0
 11
208.72692
 21
39.666987
 31
0.0
  0
ARC
  5
152
100
AcDbEntity
  8
0
  6
HIDDEN
 62
   174
100
AcDbCircle
 10
204.01353
 20
132.524735
 30
0.0
 40
3.0
100
AcDbArc
 50
210.486238
 51
350.047157
  0
ARC
  5
153
100
AcDbEntity
  8
0
  6
HIDDEN
 62
   174
100
AcDbCircle
 10
165.72692
 20
119.666987
 30
0.0
 40
3.0
100
AcDbArc
 50
242.03542
 51
245.981884
  0
LINE
  5
154
100
AcDbEntity
  8
0
  6
HIDDEN
 62
   174
100
AcDbLine
 10
216.92692
 20
50.274081
 30
0.0
 11
216.92692
 21
51.689901
 31
0.0
  0
LINE
  5
155
100
AcDbEntity
  8
0
  6
HIDDEN
 62
   174
100
AcDbLine
 10
216.92692
 20
79.153147
 30
0.0
 11
216.92692
 21
79.388967
 31
0.0
  0
LINE
  5
156
100
AcDbEntity
  8
0
  6
HIDDEN
 62
   174
100
AcDbLine
 10
208.72692
 20
80.712562
 30
0.0
 11
208.72692
 21
76.712937
 31
0.0
  0
ARC
  5
157
100
AcDbEntity
  8
0
  6
HIDDEN
 62
   174
100
AcDbCircle
 10
204.01353
 20
132.524735
 30
0.0
 40
3.0
100
AcDbArc
 50
123.591852
 51
138.497975
  0
ARC
  5
158
100
AcDbEntity
  8
0
  6
HIDDEN
 62
   174
100
AcDbCircle
 10
165.72692
 20
119.666987
 30
0.0
 40
3.0
100
AcDbArc
 50
343.86001
 51
348.382753
  0
ARC
  5
159
100
AcDbEntity
  8
0
  6
Continuous
 62
   174
100
AcDbCircle
 10
200.627154
 20
151.220523
 30
0.0
 40
2.0
100
AcDbArc
 50
-54.035407
 51
-40.317051
  0
ARC
  5
15A
100
AcDbEntity
  8
0
  6
Continuous
 62
   174
100
AcDbCircle
 10
165.72692
 20
119.666987
 30
0.0
 40
3.0
100
AcDbArc
 50
321.400206
 51
347.13796
  0
ARC
  5
15B
100
AcDbEntity
  8
0
  6
HIDDEN
 62
   174
100
AcDbCircle
 10
165.72692
 20
119.666987
 30
0.0
 40
3.0
100
AcDbArc
 50
38.628871
 51
65.972658
  0
ARC
  5
15C
100
AcDbEntity
  8
0
  6
HIDDEN
 62
   174
100
AcDbCircle
 10
165.72692
 20
119.666987
 30
0.0
 40
3.0
100
AcDbArc
 50
167.13289
 51
191.760507
  0
ARC
  5
15D
100
AcDbEntity
  8
0
  6
HIDDEN
 62
   174
100
AcDbCircle
 10
165.72692
 20
119.666987
 30
0.0
 40
3.0
100
AcDbArc
 50
-11.617247
 51
10.266697
  0
LINE
  5
15E
100
AcDbEntity
  8
0
  6
Continuous
 62
   174
100
AcDbLine
 10
208.499064
 20
152.646365
 30
0.0
 11
212.824777
 21
128.76461
 31
0.0
  0
LINE
  5
15F
100
AcDbEntity
  8
0
  6
HIDDEN
 62
   174
100
AcDbLine
 10
216.92692
 20
56.402092
 30
0.0
 11
216.92692
 21
56.714215
 31
0.0
  0
LINE
  5
160
100
AcDbEntity
  8
0
  6
HIDDEN
 62
   174
100
AcDbLine
 10
216.92692
 20
76.059251
 30
0.0
 11
216.92692
 21
76.712937
 31
0.0
  0
ARC
  5
161
100
AcDbEntity
  8
0
  6
Continuous
 62
   174
100
AcDbCircle
 10
200.627154
 20
151.220523
 30
0.0
 40
2.0
100
AcDbArc
 50
-271.201339
 51
-270.0
  0
ARC
  5
162
100
AcDbEntity
  8
0
  6
Continuous
 62
   174
100
AcDbCircle
 10
200.627154
 20
151.220523
 30
0.0
 40
9.4
100
AcDbArc
 50
16.270063
 51
88.266697
  0
ARC
  5
163
100
AcDbEntity
  8
0
  6
Continuous
 62
   174
100
AcDbCircle
 10
204.01353
 20
132.524735
 30
0.0
 40
8.0
100
AcDbArc
 50
280.266697
 51
329.096419
  0
LINE
  5
164
100
AcDbEntity
  8
0
  6
Continuous
 62
   174
100
AcDbLine
 10
187.72692
 20
108.666987
 30
0.0
 11
187.72692
 21
115.832138
 31
0.0
  0
ARC
  5
165
100
AcDbEntity
  8
0
  6
Continuous
 62
   174
100
AcDbCircle
 10
204.01353
 20
132.524735
 30
0.0
 40
3.0
100
AcDbArc
 50
293.443345
 51
298.097702
  0
ARC
  5
166
100
AcDbEntity
  8
0
  6
Continuous
 62
   174
100
AcDbCircle
 10
204.01353
 20
132.524735
 30
0.0
 40
3.0
100
AcDbArc
 50
90.873566
 51
108.055194
  0
ARC
  5
167
100
AcDbEntity
  8
0
  6
HIDDEN
 62
   174
100
AcDbCircle
 10
204.01353
 20
132.524735
 30
0.0
 40
8.0
100
AcDbArc
 50
-5.226517
 51
20.450654
  0
ARC
  5
168
100
AcDbEntity
  8
0
  6
HIDDEN
 62
   174
100
AcDbCircle
 10
165.72692
 20
119.666987
 30
0.0
 40
3.0
100
AcDbArc
 50
90.871103
 51
113.532056
  0
LINE
  5
169
100
AcDbEntity
  8
0
  6
HIDDEN
 62
   174
100
AcDbLine
 10
208.499064
 20
152.646365
 30
0.0
 11
213.630071
 21
124.318674
 31
0.0
  0
LINE
  5
16A
100
AcDbEntity
  8
0
  6
Continuous
 62
   174
100
AcDbLine
 10
219.32692
 20
42.71523
 30
0.0
 11
219.32692
 21
46.168413
 31
0.0
  0
ARC
  5
16B
100
AcDbEntity
  8
0
  6
Continuous
 62
   174
100
AcDbCircle
 10
200.627154
 20
151.220523
 30
0.0
 40
2.0
100
AcDbArc
 50
-334.951368
 51
-322.649184
  0
LINE
  5
16C
100
AcDbEntity
  8
0
  6
Continuous
 62
   174
100
AcDbLine
 10
183.752604
 20
115.832138
 30
0.0
 11
182.520032
 21
115.832138
 31
0.0
  0
ARC
  5
16D
100
AcDbEntity
  8
0
  6
HIDDEN
 62
   174
100
AcDbCircle
 10
165.72692
 20
119.666987
 30
0.0
 40
3.0
100
AcDbArc
 50
90.871103
 51
113.532056
  0
LINE
  5
16E
100
AcDbEntity
  8
0
  6
HIDDEN
 62
   174
100
AcDbLine
 10
158.72692
 20
127.666987
 30
0.0
 11
165.008245
 21
127.666987
 31
0.0
  0
LINE
  5
16F
100
AcDbEntity
  8
0
  6
Continuous
 62
   174
100
AcDbLine
 10
216.92692
 20
58.666987
 30
0.0
 11
219.32692
 21
58.666987
 31
0.0
  0
ARC
  5
170
100
AcDbEntity
  8
0
  6
Continuous
 62
   174
100
AcDbCircle
 10
204.01353
 20
132.524735
 30
0.0
 40
3.0
100
AcDbArc
 50
-191.448258
 51
-169.670948
  0
ARC
  5
171
100
AcDbEntity
  8
0
  6
Continuous
 62
   174
100
AcDbCircle
 10
200.627154
 20
151.220523
 30
0.0
 40
2.0
100
AcDbArc
 50
-91.201339
 51
-90.0
  0
ARC
  5
172
100
AcDbEntity
  8
0
  6
Continuous
 62
   174
100
AcDbCircle
 10
200.627154
 20
151.220523
 30
0.0
 40
10.0
100
AcDbArc
 50
195.890552
 51
226.243893
  0
LINE
  5
173
100
AcDbEntity
  8
0
  6
Continuous
 62
   174
100
AcDbLine
 10
158.72692
 20
117.334353
 30
0.0
 11
158.174527
 21
110.168845
 31
0.0
  0
ARC
  5
174
100
AcDbEntity
  8
0
  6
Continuous
 62
   174
100
AcDbCircle
 10
199.72692
 20
91.666987
 30
0.0
 40
7.5
100
AcDbArc
 50
-90.0
 51
90.0
  0
LINE
  5
175
100
AcDbEntity
  8
0
  6
HIDDEN
 62
   174
100
AcDbLine
 10
172.72692
 20
110.266987
 30
0.0
 11
158.72692
 21
110.266987
 31
0.0
  0
ARC
  5
176
100
AcDbEntity
  8
0
  6
HIDDEN
 62
   174
100
AcDbCircle
 10
165.72692
 20
119.666987
 30
0.0
 40
3.0
100
AcDbArc
 50
11.760507
 51
16.641843
  0
LINE
  5
177
100
AcDbEntity
  8
0
  6
HIDDEN
 62
   174
100
AcDbLine
 10
158.72692
 20
117.334353
 30
0.0
 11
158.174527
 21
110.168845
 31
0.0
  0
LINE
  5
178
100
AcDbEntity
  8
0
  6
HIDDEN
 62
   174
100
AcDbLine
 10
208.72692
 20
55.305905
 30
0.0
 11
208.72692
 21
62.713952
 31
0.0
  0
ARC
  5
179
100
AcDbEntity
  8
0
  6
HIDDEN
 62
   174
100
AcDbCircle
 10
165.72692
 20
119.666987
 30
0.0
 40
3.0
100
AcDbArc
 50
242.03542
 51
245.981884
  0
ARC
  5
17A
100
AcDbEntity
  8
0
  6
Continuous
 62
   174
100
AcDbCircle
 10
200.627154
 20
151.220523
 30
0.0
 40
2.0
100
AcDbArc
 50
-154.951368
 51
-142.649184
  0
ARC
  5
17B
100
AcDbEntity
  8
0
  6
HIDDEN
 62
   174
100
AcDbCircle
 10
204.01353
 20
132.524735
 30
0.0
 40
3.0
100
AcDbArc
 50
29.685752
 51
46.72933
  0
ARC
  5
17C
100
AcDbEntity
  8
0
  6
HIDDEN
 62
   174
100
AcDbCircle
 10
165.72692
 20
119.666987
 30
0.0
 40
3.0
100
AcDbArc
 50
10.266697
 51
16.941465
  0
LINE
  5
17D
100
AcDbEntity
  8
0
  6
HIDDEN
 62
   174
100
AcDbLine
 10
179.553949
 20
116.073852
 30
0.0
 11
183.698383
 21
116.824536
 31
0.0
  0
LINE
  5
17E
100
AcDbEntity
  8
0
  6
Continuous
 62
   174
100
AcDbLine
 10
216.92692
 20
70.666987
 30
0.0
 11
219.32692
 21
70.666987
 31
0.0
  0
ARC
  5
17F
100
AcDbEntity
  8
0
  6
Continuous
 62
   174
100
AcDbCircle
 10
200.627154
 20
151.220523
 30
0.0
 40
2.0
100
AcDbArc
 50
-245.727593
 51
-234.035407
  0
ARC
  5
180
100
AcDbEntity
  8
0
  6
Continuous
 62
   174
100
AcDbCircle
 10
204.01353
 20
132.524735
 30
0.0
 40
3.0
100
AcDbArc
 50
118.097702
 51
140.382516
  0
ARC
  5
181
100
AcDbEntity
  8
0
  6
HIDDEN
 62
   174
100
AcDbCircle
 10
200.627154
 20
151.220523
 30
0.0
 40
8.0
100
AcDbArc
 50
-349.733303
 51
-169.733303
  0
LINE
  5
182
100
AcDbEntity
  8
0
  6
HIDDEN
 62
   174
100
AcDbLine
 10
216.92692
 20
55.1548
 30
0.0
 11
216.92692
 21
55.39062
 31
0.0
  0
LINE
  5
183
100
AcDbEntity
  8
0
  6
HIDDEN
 62
   174
100
AcDbLine
 10
216.92692
 20
73.215895
 30
0.0
 11
216.92692
 21
74.036908
 31
0.0
  0
LINE
  5
184
100
AcDbEntity
  8
0
  6
Continuous
 62
   174
100
AcDbLine
 10
222.32692
 20
48.094625
 30
0.0
 11
222.32692
 21
50.311031
 31
0.0
  0
ARC
  5
185
100
AcDbEntity
  8
0
  6
HIDDEN
 62
   174
100
AcDbCircle
 10
200.627154
 20
151.220523
 30
0.0
 40
10.0
100
AcDbArc
 50
226.243893
 51
268.266697
  0
ARC
  5
186
100
AcDbEntity
  8
0
  6
HIDDEN
 62
   174
100
AcDbCircle
 10
204.01353
 20
132.524735
 30
0.0
 40
3.0
100
AcDbArc
 50
190.266697
 51
210.486238
  0
ARC
  5
187
100
AcDbEntity
  8
0
  6
Continuous
 62
   174
100
AcDbCircle
 10
165.72692
 20
119.666987
 30
0.0
 40
3.0
100
AcDbArc
 50
167.13796
 51
192.86204
  0
LINE
  5
188
100
AcDbEntity
  8
0
  6
Continuous
 62
   174
100
AcDbLine
 10
216.92692
 20
76.712937
 30
0.0
 11
216.92692
 21
79.304252
 31
0.0
  0
ARC
  5
189
100
AcDbEntity
  8
0
  6
Continuous
 62
   174
100
AcDbCircle
 10
204.01353
 20
132.524735
 30
0.0
 40
3.0
100
AcDbArc
 50
267.86791
 51
288.055194
  0
ARC
  5
18A
100
AcDbEntity
  8
0
  6
HIDDEN
 62
   174
100
AcDbCircle
 10
165.72692
 20
119.666987
 30
0.0
 40
3.0
100
AcDbArc
 50
221.540508
 51
242.03542
  0
LINE
  5
18B
100
AcDbEntity
  8
0
  6
HIDDEN
 62
   174
100
AcDbLine
 10
216.92692
 20
51.689901
 30
0.0
 11
216.92692
 21
52.060905
 31
0.0
  0
ARC
  5
18C
100
AcDbEntity
  8
0
  6
Continuous
 62
   174
100
AcDbCircle
 10
204.01353
 20
132.524735
 30
0.0
 40
3.0
100
AcDbArc
 50
-144.338236
 51
-138.677174
  0
ARC
  5
18D
100
AcDbEntity
  8
0
  6
HIDDEN
 62
   174
100
AcDbCircle
 10
204.01353
 20
132.524735
 30
0.0
 40
3.0
100
AcDbArc
 50
92.478201
 51
123.591852
  0
LINE
  5
18E
100
AcDbEntity
  8
0
  6
HIDDEN
 62
   174
100
AcDbLine
 10
216.92692
 20
49.217548
 30
0.0
 11
216.92692
 21
50.038562
 31
0.0
  0
LINE
  5
18F
100
AcDbEntity
  8
0
  6
Continuous
 62
   174
100
AcDbLine
 10
216.92692
 20
58.666987
 30
0.0
 11
219.32692
 21
58.666987
 31
0.0
  0
ARC
  5
190
100
AcDbEntity
  8
0
  6
Continuous
 62
   174
100
AcDbCircle
 10
200.627154
 20
151.220523
 30
0.0
 40
2.0
100
AcDbArc
 50
-40.317051
 51
-26.001039
  0
ARC
  5
191
100
AcDbEntity
  8
0
  6
HIDDEN
 62
   174
100
AcDbCircle
 10
200.627154
 20
151.220523
 30
0.0
 40
10.0
100
AcDbArc
 50
268.266697
 51
334.253601
  0
LINE
  5
192
100
AcDbEntity
  8
0
  6
Continuous
 62
   174
100
AcDbLine
 10
178.698443
 20
120.796999
 30
0.0
 11
172.79451
 21
119.727617
 31
0.0
  0
ARC
  5
193
100
AcDbEntity
  8
0
  6
Continuous
 62
   174
100
AcDbCircle
 10
165.72692
 20
119.666987
 30
0.0
 40
3.0
100
AcDbArc
 50
295.762281
 51
321.400206
  0
ARC
  5
194
100
AcDbEntity
  8
0
  6
HIDDEN
 62
   174
100
AcDbCircle
 10
165.72692
 20
119.666987
 30
0.0
 40
3.0
100
AcDbArc
 50
16.641843
 51
38.628871
  0
ARC
  5
195
100
AcDbEntity
  8
0
  6
HIDDEN
 62
   174
100
AcDbCircle
 10
165.72692
 20
119.666987
 30
0.0
 40
3.0
100
AcDbArc
 50
343.86001
 51
348.382753
  0
LINE
  5
196
100
AcDbEntity
  8
0
  6
Continuous
 62
   174
100
AcDbLine
 10
179.197488
 20
118.04183
 30
0.0
 11
178.698443
 21
120.796999
 31
0.0
  0
ARC
  5
197
100
AcDbEntity
  8
0
  6
Continuous
 62
   174
100
AcDbCircle
 10
200.627154
 20
151.220523
 30
0.0
 40
9.4
100
AcDbArc
 50
-1.733303
 51
16.270063
  0
LINE
  5
198
100
AcDbEntity
  8
0
  6
Continuous
 62
   174
100
AcDbLine
 10
172.79451
 20
119.727617
 30
0.0
 11
174.006477
 21
113.036493
 31
0.0
  0
ARC
  5
199
100
AcDbEntity
  8
0
  6
Continuous
 62
   174
100
AcDbCircle
 10
165.72692
 20
119.666987
 30
0.0
 40
3.0
100
AcDbArc
 50
244.237719
 51
270.0
  0
ARC
  5
19A
100
AcDbEntity
  8
0
  6
Continuous
 62
   174
100
AcDbCircle
 10
204.01353
 20
132.524735
 30
0.0
 40
3.0
100
AcDbArc
 50
288.055194
 51
293.443345
  0
ARC
  5
19B
100
AcDbEntity
  8
0
  6
Continuous
 62
   174
100
AcDbCircle
 10
204.01353
 20
132.524735
 30
0.0
 40
3.0
100
AcDbArc
 50
76.941543
 51
90.873566
  0
ARC
  5
19C
100
AcDbEntity
  8
0
  6
HIDDEN
 62
   174
100
AcDbCircle
 10
204.01353
 20
132.524735
 30
0.0
 40
8.0
100
AcDbArc
 50
329.096419
 51
354.773483
  0
LINE
  5
19D
100
AcDbEntity
  8
0
  6
Continuous
 62
   174
100
AcDbLine
 10
222.32692
 20
57.334557
 30
0.0
 11
222.32692
 21
62.713952
 31
0.0
  0
ARC
  5
19E
100
AcDbEntity
  8
0
  6
Continuous
 62
   174
100
AcDbCircle
 10
200.627154
 20
151.220523
 30
0.0
 40
2.0
100
AcDbArc
 50
-322.649184
 51
-321.428571
  0
LINE
  5
19F
100
AcDbEntity
  8
0
  6
HIDDEN
 62
   174
100
AcDbLine
 10
172.72692
 20
127.666987
 30
0.0
 11
172.72692
 21
119.727617
 31
0.0
  0
ARC
  5
1A0
100
AcDbEntity
  8
0
  6
HIDDEN
 62
   174
100
AcDbCircle
 10
165.72692
 20
119.666987
 30
0.0
 40
3.0
100
AcDbArc
 50
65.981884
 51
90.871103
  0
LINE
  5
1A1
100
AcDbEntity
  8
0
  6
Continuous
 62
   174
100
AcDbLine
 10
198.249736
 20
119.460228
 30
0.0
 11
179.553949
 21
116.073852
 31
0.0
  0
LINE
  5
1A2
100
AcDbEntity
  8
0
  6
Continuous
 62
   174
100
AcDbLine
 10
219.32692
 20
83.259115
 30
0.0
 11
219.32692
 21
86.711998
 31
0.0
  0
ARC
  5
1A3
100
AcDbEntity
  8
0
  6
Continuous
 62
   174
100
AcDbCircle
 10
204.01353
 20
132.524735
 30
0.0
 40
3.0
100
AcDbArc
 50
-169.670948
 51
-168.245375
  0
ARC
  5
1A4
100
AcDbEntity
  8
0
  6
Continuous
 62
   174
100
AcDbCircle
 10
200.627154
 20
151.220523
 30
0.0
 40
2.0
100
AcDbArc
 50
-90.0
 51
-79.69843
  0
ARC
  5
1A5
100
AcDbEntity
  8
0
  6
Continuous
 62
   174
100
AcDbCircle
 10
200.627154
 20
151.220523
 30
0.0
 40
10.0
100
AcDbArc
 50
88.266697
 51
195.890552
  0
ARC
  5
1A6
100
AcDbEntity
  8
0
  6
Continuous
 62
   174
100
AcDbCircle
 10
167.72692
 20
91.666987
 30
0.0
 40
4.5
100
AcDbArc
 50
-90.0
 51
90.0
  0
LINE
  5
1A7
100
AcDbEntity
  8
0
  6
HIDDEN
 62
   174
100
AcDbLine
 10
158.72692
 20
127.666987
 30
0.0
 11
158.72692
 21
126.659458
 31
0.0
  0
ARC
  5
1A8
100
AcDbEntity
  8
0
  6
HIDDEN
 62
   174
100
AcDbCircle
 10
165.72692
 20
119.666987
 30
0.0
 40
3.0
100
AcDbArc
 50
-12.86711
 51
11.760507
  0
LINE
  5
1A9
100
AcDbEntity
  8
0
  6
HIDDEN
 62
   174
100
AcDbLine
 10
197.567462
 20
123.226982
 30
0.0
 11
197.893275
 21
121.428206
 31
0.0
  0
LINE
  5
1AA
100
AcDbEntity
  8
0
  6
Continuous
 62
   174
100
AcDbLine
 10
219.32692
 20
62.666987
 30
0.0
 11
222.32692
 21
62.666987
 31
0.0
  0
LINE
  5
1AB
100
AcDbEntity
  8
0
  6
Continuous
 62
   174
100
AcDbLine
 10
219.32692
 20
62.666987
 30
0.0
 11
222.32692
 21
62.666987
 31
0.0
  0
LINE
  5
1AC
100
AcDbEntity
  8
0
  6
HIDDEN
 62
   174
100
AcDbLine
 10
216.92692
 20
72.713013
 30
0.0
 11
216.92692
 21
73.025136
 31
0.0
  0
LINE
  5
1AD
100
AcDbEntity
  8
0
  6
Continuous
 62
   174
100
AcDbLine
 10
208.72692
 20
42.666987
 30
0.0
 11
216.92692
 21
42.666987
 31
0.0
  0
LINE
  5
1AE
100
AcDbEntity
  8
0
  6
HIDDEN
 62
   174
100
AcDbLine
 10
159.445797
 20
126.659458
 30
0.0
 11
158.72692
 21
117.334353
 31
0.0
  0
ARC
  5
1AF
100
AcDbEntity
  8
0
  6
HIDDEN
 62
   174
100
AcDbCircle
 10
204.01353
 20
132.524735
 30
0.0
 40
3.0
100
AcDbArc
 50
10.266697
 51
29.685752
  0
ARC
  5
1B0
100
AcDbEntity
  8
0
  6
HIDDEN
 62
   174
100
AcDbCircle
 10
165.72692
 20
119.666987
 30
0.0
 40
3.0
100
AcDbArc
 50
168.382753
 51
190.266697
  0
LINE
  5
1B1
100
AcDbEntity
  8
0
  6
HIDDEN
 62
   174
100
AcDbLine
 10
208.72692
 20
80.666987
 30
0.0
 11
216.92692
 21
80.666987
 31
0.0
  0
LINE
  5
1B2
100
AcDbEntity
  8
0
  6
HIDDEN
 62
   174
100
AcDbLine
 10
216.92692
 20
77.366323
 30
0.0
 11
216.92692
 21
77.737327
 31
0.0
  0
LINE
  5
1B3
100
AcDbEntity
  8
0
  6
Continuous
 62
   174
100
AcDbLine
 10
219.32692
 20
70.166459
 30
0.0
 11
219.32692
 21
83.259115
 31
0.0
  0
ARC
  5
1B4
100
AcDbEntity
  8
0
  6
Continuous
 62
   174
100
AcDbCircle
 10
200.627154
 20
151.220523
 30
0.0
 40
2.0
100
AcDbArc
 50
-234.035407
 51
-220.317051
  0
ARC
  5
1B5
100
AcDbEntity
  8
0
  6
HIDDEN
 62
   174
100
AcDbCircle
 10
204.01353
 20
132.524735
 30
0.0
 40
3.0
100
AcDbArc
 50
10.266697
 51
190.266697
  0
LINE
  5
1B6
100
AcDbEntity
  8
0
  6
HIDDEN
 62
   174
100
AcDbLine
 10
208.72692
 20
79.304252
 30
0.0
 11
208.72692
 21
86.711998
 31
0.0
  0
ARC
  5
1B7
100
AcDbEntity
  8
0
  6
Continuous
 62
   174
100
AcDbCircle
 10
204.01353
 20
132.524735
 30
0.0
 40
3.0
100
AcDbArc
 50
113.443345
 51
118.097702
  0
LINE
  5
1B8
100
AcDbEntity
  8
0
  6
HIDDEN
 62
   174
100
AcDbLine
 10
197.893275
 20
121.428206
 30
0.0
 11
198.249736
 21
119.460228
 31
0.0
  0
LINE
  5
1B9
100
AcDbEntity
  8
0
  6
HIDDEN
 62
   174
100
AcDbLine
 10
216.92692
 20
73.025136
 30
0.0
 11
216.92692
 21
73.215895
 31
0.0
  0
LINE
  5
1BA
100
AcDbEntity
  8
0
  6
Continuous
 62
   174
100
AcDbLine
 10
216.92692
 20
82.666987
 30
0.0
 11
219.32692
 21
82.666987
 31
0.0
  0
LINE
  5
1BB
100
AcDbEntity
  8
0
  6
Continuous
 62
   174
100
AcDbLine
 10
222.32692
 20
42.71523
 30
0.0
 11
222.32692
 21
48.094625
 31
0.0
  0
ARC
  5
1BC
100
AcDbEntity
  8
0
  6
HIDDEN
 62
   174
100
AcDbCircle
 10
204.01353
 20
132.524735
 30
0.0
 40
3.0
100
AcDbArc
 50
170.047157
 51
190.266697
  0
ARC
  5
1BD
100
AcDbEntity
  8
0
  6
Continuous
 62
   174
100
AcDbCircle
 10
165.72692
 20
119.666987
 30
0.0
 40
3.0
100
AcDbArc
 50
141.400206
 51
167.13796
  0
LINE
  5
1BE
100
AcDbEntity
  8
0
  6
HIDDEN
 62
   174
100
AcDbLine
 10
208.72692
 20
52.714591
 30
0.0
 11
208.72692
 21
55.305905
 31
0.0
  0
LINE
  5
1BF
100
AcDbEntity
  8
0
  6
Continuous
 62
   174
100
AcDbLine
 10
216.92692
 20
50.122976
 30
0.0
 11
216.92692
 21
52.714591
 31
0.0
  0
ARC
  5
1C0
100
AcDbEntity
  8
0
  6
Continuous
 62
   174
100
AcDbCircle
 10
204.01353
 20
132.524735
 30
0.0
 40
3.0
100
AcDbArc
 50
256.941543
 51
267.86791
  0
LINE
  5
1C1
100
AcDbEntity
  8
0
  6
Continuous
 62
   174
100
AcDbLine
 10
198.249736
 20
119.460228
 30
0.0
 11
198.458614
 21
118.307038
 31
0.0
  0
ARC
  5
1C2
100
AcDbEntity
  8
0
  6
Continuous
 62
   174
100
AcDbCircle
 10
204.01353
 20
132.524735
 30
0.0
 40
3.0
100
AcDbArc
 50
-138.677174
 51
-116.508823
  0
ARC
  5
1C3
100
AcDbEntity
  8
0
  6
HIDDEN
 62
   174
100
AcDbCircle
 10
204.01353
 20
132.524735
 30
0.0
 40
3.0
100
AcDbArc
 50
76.941543
 51
92.478201
  0
ARC
  5
1C4
100
AcDbEntity
  8
0
  6
HIDDEN
 62
   174
100
AcDbCircle
 10
165.72692
 20
119.666987
 30
0.0
 40
3.0
100
AcDbArc
 50
62.03542
 51
65.981884
  0
LINE
  5
1C5
100
AcDbEntity
  8
0
  6
HIDDEN
 62
   174
100
AcDbLine
 10
216.92692
 20
50.038562
 30
0.0
 11
216.92692
 21
50.274081
 31
0.0
  0
ARC
  5
1C6
100
AcDbEntity
  8
0
  6
Continuous
 62
   174
100
AcDbCircle
 10
200.627154
 20
151.220523
 30
0.0
 40
2.0
100
AcDbArc
 50
-26.001039
 51
-14.287228
  0
LINE
  5
1C7
100
AcDbEntity
  8
0
  6
HIDDEN
 62
   174
100
AcDbLine
 10
172.72692
 20
112.804726
 30
0.0
 11
158.72692
 21
110.2689
 31
0.0
  0
ARC
  5
1C8
100
AcDbEntity
  8
0
  6
Continuous
 62
   174
100
AcDbCircle
 10
165.72692
 20
119.666987
 30
0.0
 40
3.0
100
AcDbArc
 50
270.0
 51
295.762281
  0
ARC
  5
1C9
100
AcDbEntity
  8
0
  6
HIDDEN
 62
   174
100
AcDbCircle
 10
165.72692
 20
119.666987
 30
0.0
 40
3.0
100
AcDbArc
 50
323.458748
 51
343.86001
  0
LINE
  5
1CA
100
AcDbEntity
  8
0
  6
Continuous
 62
   174
100
AcDbLine
 10
219.32692
 20
42.666987
 30
0.0
 11
222.32692
 21
42.666987
 31
0.0
  0
ARC
  5
1CB
100
AcDbEntity
  8
0
  6
Continuous
 62
   174
100
AcDbCircle
 10
204.01353
 20
132.524735
 30
0.0
 40
3.0
100
AcDbArc
 50
-269.060544
 51
-246.609563
  0
ARC
  5
1CC
100
AcDbEntity
  8
0
  6
Continuous
 62
   174
100
AcDbCircle
 10
200.627154
 20
151.220523
 30
0.0
 40
9.4
100
AcDbArc
 50
338.912163
 51
358.266697
  0
ARC
  5
1CD
100
AcDbEntity
  8
0
  6
Continuous
 62
   174
100
AcDbCircle
 10
165.72692
 20
119.666987
 30
0.0
 40
3.0
100
AcDbArc
 50
218.599794
 51
244.237719
  0
ARC
  5
1CE
100
AcDbEntity
  8
0
  6
Continuous
 62
   174
100
AcDbCircle
 10
204.01353
 20
132.524735
 30
0.0
 40
3.0
100
AcDbArc
 50
63.522565
 51
76.941543
  0
ARC
  5
1CF
100
AcDbEntity
  8
0
  6
HIDDEN
 62
   174
100
AcDbCircle
 10
165.72692
 20
119.666987
 30
0.0
 40
3.0
100
AcDbArc
 50
168.382753
 51
190.266697
  0
LINE
  5
1D0
100
AcDbEntity
  8
0
  6
Continuous
 62
   174
100
AcDbLine
 10
222.32692
 20
55.118151
 30
0.0
 11
222.32692
 21
57.334557
 31
0.0
  0
ARC
  5
1D1
100
AcDbEntity
  8
0
  6
Continuous
 62
   174
100
AcDbCircle
 10
200.627154
 20
151.220523
 30
0.0
 40
2.0
100
AcDbArc
 50
-321.428571
 51
-307.735644
  0
LINE
  5
1D2
100
AcDbEntity
  8
0
  6
HIDDEN
 62
   174
100
AcDbLine
 10
216.92692
 20
48.714967
 30
0.0
 11
216.92692
 21
49.02679
 31
0.0
  0
LINE
  5
1D3
100
AcDbEntity
  8
0
  6
HIDDEN
 62
   174
100
AcDbLine
 10
216.92692
 20
80.400438
 30
0.0
 11
216.92692
 21
80.712562
 31
0.0
  0
ARC
  5
1D4
100
AcDbEntity
  8
0
  6
Continuous
 62
   174
100
AcDbCircle
 10
204.01353
 20
132.524735
 30
0.0
 40
3.0
100
AcDbArc
 50
-168.245375
 51
-167.142857
  0
ARC
  5
1D5
100
AcDbEntity
  8
0
  6
Continuous
 62
   174
100
AcDbCircle
 10
200.627154
 20
151.220523
 30
0.0
 40
10.0
100
AcDbArc
 50
15.890552
 51
88.266697
  0
ARC
  5
1D6
100
AcDbEntity
  8
0
  6
Continuous
 62
   174
100
AcDbCircle
 10
167.72692
 20
91.666987
 30
0.0
 40
4.5
100
AcDbArc
 50
90.0
 51
270.0
  0
ARC
  5
1D7
100
AcDbEntity
  8
0
  6
HIDDEN
 62
   174
100
AcDbCircle
 10
165.72692
 20
119.666987
 30
0.0
 40
3.0
100
AcDbArc
 50
323.562301
 51
347.13289
  0
ARC
  5
1D8
100
AcDbEntity
  8
0
  6
HIDDEN
 62
   174
100
AcDbCircle
 10
165.72692
 20
119.666987
 30
0.0
 40
3.0
100
AcDbArc
 50
323.458748
 51
343.86001
  0
LINE
  5
1D9
100
AcDbEntity
  8
0
  6
HIDDEN
 62
   174
100
AcDbLine
 10
216.92692
 20
79.388967
 30
0.0
 11
216.92692
 21
80.20998
 31
0.0
  0
ARC
  5
1DA
100
AcDbEntity
  8
0
  6
Continuous
 62
   174
100
AcDbCircle
 10
200.627154
 20
151.220523
 30
0.0
 40
2.0
100
AcDbArc
 50
-220.317051
 51
-206.001039
  0
LINE
  5
1DB
100
AcDbEntity
  8
0
  6
Continuous
 62
   174
100
AcDbLine
 10
172.72692
 20
127.666987
 30
0.0
 11
172.72692
 21
108.666987
 31
0.0
  0
LINE
  5
1DC
100
AcDbEntity
  8
0
  6
HIDDEN
 62
   174
100
AcDbLine
 10
172.72692
 20
112.804726
 30
0.0
 11
172.72692
 21
110.266987
 31
0.0
  0
LINE
  5
1DD
100
AcDbEntity
  8
0
  6
HIDDEN
 62
   174
100
AcDbLine
 10
208.72692
 20
76.712937
 30
0.0
 11
208.72692
 21
72.713013
 31
0.0
  0
ARC
  5
1DE
100
AcDbEntity
  8
0
  6
HIDDEN
 62
   174
100
AcDbCircle
 10
204.01353
 20
132.524735
 30
0.0
 40
3.0
100
AcDbArc
 50
-9.152357
 51
10.266697
  0
LINE
  5
1DF
100
AcDbEntity
  8
0
  6
Continuous
 62
   174
100
AcDbLine
 10
158.72692
 20
127.666987
 30
0.0
 11
158.72692
 21
39.666987
 31
0.0
  0
LINE
  5
1E0
100
AcDbEntity
  8
0
  6
Continuous
 62
   174
100
AcDbLine
 10
219.32692
 20
66.713576
 30
0.0
 11
219.32692
 21
70.166459
 31
0.0
  0
ARC
  5
1E1
100
AcDbEntity
  8
0
  6
HIDDEN
 62
   174
100
AcDbCircle
 10
165.72692
 20
119.666987
 30
0.0
 40
3.0
100
AcDbArc
 50
245.972658
 51
270.0
  0
LINE
  5
1E2
100
AcDbEntity
  8
0
  6
HIDDEN
 62
   174
100
AcDbLine
 10
172.72692
 20
112.804726
 30
0.0
 11
158.72692
 21
110.2689
 31
0.0
  0
LINE
  5
1E3
100
AcDbEntity
  8
0
  6
Continuous
 62
   174
100
AcDbLine
 10
216.92692
 20
74.121323
 30
0.0
 11
216.92692
 21
76.712937
 31
0.0
  0
LINE
  5
1E4
100
AcDbEntity
  8
0
  6
Continuous
 62
   174
100
AcDbLine
 10
219.32692
 20
42.666987
 30
0.0
 11
222.32692
 21
42.666987
 31
0.0
  0
LINE
  5
1E5
100
AcDbEntity
  8
0
  6
HIDDEN
 62
   174
100
AcDbLine
 10
165.008245
 20
127.666987
 30
0.0
 11
159.445797
 21
126.659458
 31
0.0
  0
ARC
  5
1E6
100
AcDbEntity
  8
0
  6
HIDDEN
 62
   174
100
AcDbCircle
 10
204.01353
 20
132.524735
 30
0.0
 40
3.0
100
AcDbArc
 50
30.486238
 51
170.047157
  0
ARC
  5
1E7
100
AcDbEntity
  8
0
  6
Continuous
 62
   174
100
AcDbCircle
 10
165.72692
 20
119.666987
 30
0.0
 40
3.0
100
AcDbArc
 50
115.762281
 51
141.400206
  0
LINE
  5
1E8
100
AcDbEntity
  8
0
  6
Continuous
 62
   174
100
AcDbLine
 10
208.72692
 20
62.666987
 30
0.0
 11
216.92692
 21
62.666987
 31
0.0
  0
LINE
  5
1E9
100
AcDbEntity
  8
0
  6
HIDDEN
 62
   174
100
AcDbLine
 10
208.72692
 20
56.714215
 30
0.0
 11
208.72692
 21
52.714591
 31
0.0
  0
LINE
  5
1EA
100
AcDbEntity
  8
0
  6
Continuous
 62
   174
100
AcDbLine
 10
216.92692
 20
47.709203
 30
0.0
 11
216.92692
 21
50.122976
 31
0.0
  0
ARC
  5
1EB
100
AcDbEntity
  8
0
  6
Continuous
 62
   174
100
AcDbCircle
 10
204.01353
 20
132.524735
 30
0.0
 40
3.0
100
AcDbArc
 50
243.522565
 51
256.941543
  0
ARC
  5
1EC
100
AcDbEntity
  8
0
  6
HIDDEN
 62
   174
100
AcDbCircle
 10
165.72692
 20
119.666987
 30
0.0
 40
3.0
100
AcDbArc
 50
303.591852
 51
323.458748
  0
LINE
  5
1ED
100
AcDbEntity
  8
0
  6
Continuous
 62
   174
100
AcDbLine
 10
198.249736
 20
119.460228
 30
0.0
 11
179.553949
 21
116.073852
 31
0.0
  0
LINE
  5
1EE
100
AcDbEntity
  8
0
  6
HIDDEN
 62
   174
100
AcDbLine
 10
216.92692
 20
56.211634
 30
0.0
 11
216.92692
 21
56.402092
 31
0.0
  0
ARC
  5
1EF
100
AcDbEntity
  8
0
  6
Continuous
 62
   174
100
AcDbCircle
 10
204.01353
 20
132.524735
 30
0.0
 40
3.0
100
AcDbArc
 50
-116.508823
 51
-113.867626
  0
ARC
  5
1F0
100
AcDbEntity
  8
0
  6
HIDDEN
 62
   174
100
AcDbCircle
 10
165.72692
 20
119.666987
 30
0.0
 40
3.0
100
AcDbArc
 50
41.540508
 51
62.03542
  0
LINE
  5
1F1
100
AcDbEntity
  8
0
  6
Continuous
 62
   174
100
AcDbLine
 10
197.893275
 20
121.428206
 30
0.0
 11
179.197488
 21
118.04183
 31
0.0
  0
ARC
  5
1F2
100
AcDbEntity
  8
0
  6
Continuous
 62
   174
100
AcDbCircle
 10
200.627154
 20
151.220523
 30
0.0
 40
2.0
100
AcDbArc
 50
-14.287228
 51
-12.857143
  0
ARC
  5
1F3
100
AcDbEntity
  8
0
  6
Continuous
 62
   174
100
AcDbCircle
 10
167.72692
 20
91.666987
 30
0.0
 40
7.5
100
AcDbArc
 50
90.0
 51
270.0
  0
ARC
  5
1F4
100
AcDbEntity
  8
0
  6
HIDDEN
 62
   174
100
AcDbCircle
 10
165.72692
 20
119.666987
 30
0.0
 40
3.0
100
AcDbArc
 50
143.562301
 51
167.13289
  0
LINE
  5
1F5
100
AcDbEntity
  8
0
  6
HIDDEN
 62
   174
100
AcDbLine
 10
183.752604
 20
108.666987
 30
0.0
 11
179.752679
 21
108.666987
 31
0.0
  0
ARC
  5
1F6
100
AcDbEntity
  8
0
  6
Continuous
 62
   174
100
AcDbCircle
 10
204.01353
 20
132.524735
 30
0.0
 40
3.0
100
AcDbArc
 50
-246.609563
 51
-241.912877
  0
ARC
  5
1F7
100
AcDbEntity
  8
0
  6
Continuous
 62
   174
100
AcDbCircle
 10
165.72692
 20
119.666987
 30
0.0
 40
3.0
100
AcDbArc
 50
192.86204
 51
218.599794
  0
LINE
  5
1F8
100
AcDbEntity
  8
0
  6
Continuous
 62
   174
100
AcDbLine
 10
208.72692
 20
66.666987
 30
0.0
 11
216.92692
 21
66.666987
 31
0.0
  0
ARC
  5
1F9
100
AcDbEntity
  8
0
  6
Continuous
 62
   174
100
AcDbCircle
 10
204.01353
 20
132.524735
 30
0.0
 40
3.0
100
AcDbArc
 50
10.266697
 51
16.94154
  0
ARC
  5
1FA
100
AcDbEntity
  8
0
  6
Continuous
 62
   174
100
AcDbCircle
 10
204.01353
 20
132.524735
 30
0.0
 40
3.0
100
AcDbArc
 50
41.481605
 51
63.522565
  0
ARC
  5
1FB
100
AcDbEntity
  8
0
  6
HIDDEN
 62
   174
100
AcDbCircle
 10
165.72692
 20
119.666987
 30
0.0
 40
3.0
100
AcDbArc
 50
163.86001
 51
168.382753
  0
ARC
  5
1FC
100
AcDbEntity
  8
0
  6
Continuous
 62
   174
100
AcDbCircle
 10
200.627154
 20
151.220523
 30
0.0
 40
8.0
100
AcDbArc
 50
-349.733303
 51
-169.733303
  0
LINE
  5
1FD
100
AcDbEntity
  8
0
  6
HIDDEN
 62
   174
100
AcDbLine
 10
216.92692
 20
51.983399
 30
0.0
 11
216.92692
 21
53.445783
 31
0.0
  0
LINE
  5
1FE
100
AcDbEntity
  8
0
  6
Continuous
 62
   174
100
AcDbLine
 10
222.32692
 20
50.311031
 30
0.0
 11
222.32692
 21
55.118151
 31
0.0
  0
LINE
  5
1FF
100
AcDbEntity
  8
0
  6
HIDDEN
 62
   174
100
AcDbLine
 10
197.821983
 20
121.821801
 30
0.0
 11
179.126196
 21
118.435425
 31
0.0
  0
ARC
  5
200
100
AcDbEntity
  8
0
  6
Continuous
 62
   174
100
AcDbCircle
 10
200.627154
 20
151.220523
 30
0.0
 40
2.0
100
AcDbArc
 50
-307.735644
 51
-296.609472
  0
LINE
  5
201
100
AcDbEntity
  8
0
  6
Continuous
 62
   174
100
AcDbLine
 10
184.984875
 20
115.832138
 30
0.0
 11
183.752604
 21
115.832138
 31
0.0
  0
ARC
  5
202
100
AcDbEntity
  8
0
  6
HIDDEN
 62
   174
100
AcDbCircle
 10
200.983908
 20
122.319482
 30
0.0
 40
1.0
100
AcDbArc
 50
10.266697
 51
190.266697
  0
ARC
  5
203
100
AcDbEntity
  8
0
  6
HIDDEN
 62
   174
100
AcDbCircle
 10
165.72692
 20
119.666987
 30
0.0
 40
3.0
100
AcDbArc
 50
163.86001
 51
168.382753
  0
LINE
  5
204
100
AcDbEntity
  8
0
  6
HIDDEN
 62
   174
100
AcDbLine
 10
216.92692
 20
49.02679
 30
0.0
 11
216.92692
 21
49.217548
 31
0.0
  0
LINE
  5
205
100
AcDbEntity
  8
0
  6
HIDDEN
 62
   174
100
AcDbLine
 10
216.92692
 20
75.981445
 30
0.0
 11
216.92692
 21
77.444129
 31
0.0
  0
ARC
  5
206
100
AcDbEntity
  8
0
  6
Continuous
 62
   174
100
AcDbCircle
 10
204.01353
 20
132.524735
 30
0.0
 40
3.0
100
AcDbArc
 50
-167.142857
 51
-163.358422
  0
ARC
  5
207
100
AcDbEntity
  8
0
  6
Continuous
 62
   174
100
AcDbCircle
 10
200.627154
 20
151.220523
 30
0.0
 40
2.0
100
AcDbArc
 50
-142.649184
 51
-141.428571
  0
ARC
  5
208
100
AcDbEntity
  8
0
  6
Continuous
 62
   174
100
AcDbCircle
 10
200.627154
 20
151.220523
 30
0.0
 40
10.0
100
AcDbArc
 50
9.640286
 51
15.890552
  0
ARC
  5
209
100
AcDbEntity
  8
0
  6
Continuous
 62
   174
100
AcDbCircle
 10
167.72692
 20
91.666987
 30
0.0
 40
7.5
100
AcDbArc
 50
-90.0
 51
90.0
  0
ARC
  5
20A
100
AcDbEntity
  8
0
  6
HIDDEN
 62
   174
100
AcDbCircle
 10
165.72692
 20
119.666987
 30
0.0
 40
3.0
100
AcDbArc
 50
298.189579
 51
323.562301
  0
ARC
  5
20B
100
AcDbEntity
  8
0
  6
HIDDEN
 62
   174
100
AcDbCircle
 10
204.01353
 20
132.524735
 30
0.0
 40
8.0
100
AcDbArc
 50
148.836325
 51
174.513493
  0
ARC
  5
20C
100
AcDbEntity
  8
0
  6
HIDDEN
 62
   174
100
AcDbCircle
 10
165.72692
 20
119.666987
 30
0.0
 40
3.0
100
AcDbArc
 50
303.591852
 51
323.458748
  0
LINE
  5
20D
100
AcDbEntity
  8
0
  6
Continuous
 62
   174
100
AcDbLine
 10
219.32692
 20
86.666987
 30
0.0
 11
222.32692
 21
86.666987
 31
0.0
  0
LINE
  5
20E
100
AcDbEntity
  8
0
  6
HIDDEN
 62
   174
100
AcDbLine
 10
216.92692
 20
52.714591
 30
0.0
 11
216.92692
 21
53.367977
 31
0.0
  0
ARC
  5
20F
100
AcDbEntity
  8
0
  6
Continuous
 62
   174
100
AcDbCircle
 10
200.627154
 20
151.220523
 30
0.0
 40
2.0
100
AcDbArc
 50
-206.001039
 51
-194.287228
  0
LINE
  5
210
100
AcDbEntity
  8
0
  6
HIDDEN
 62
   174
100
AcDbLine
 10
187.752528
 20
115.832138
 30
0.0
 11
183.752604
 21
115.832138
 31
0.0
  0
LINE
  5
211
100
AcDbEntity
  8
0
  6
Continuous
 62
   174
100
AcDbLine
 10
208.72692
 20
86.666987
 30
0.0
 11
216.92692
 21
86.666987
 31
0.0
  0
ARC
  5
212
100
AcDbEntity
  8
0
  6
HIDDEN
 62
   174
100
AcDbCircle
 10
204.01353
 20
132.524735
 30
0.0
 40
3.0
100
AcDbArc
 50
333.804065
 51
350.847643
  0
ARC
  5
213
100
AcDbEntity
  8
0
  6
HIDDEN
 62
   174
100
AcDbCircle
 10
204.01353
 20
132.524735
 30
0.0
 40
8.0
100
AcDbArc
 50
303.419321
 51
329.096419
  0
ARC
  5
214
100
AcDbEntity
  8
0
  6
HIDDEN
 62
   174
100
AcDbCircle
 10
165.72692
 20
119.666987
 30
0.0
 40
3.0
100
AcDbArc
 50
65.981884
 51
90.871103
  0
LINE
  5
215
100
AcDbEntity
  8
0
  6
Continuous
 62
   174
100
AcDbLine
 10
222.32692
 20
81.332603
 30
0.0
 11
222.32692
 21
86.711998
 31
0.0
  0
LINE
  5
216
100
AcDbEntity
  8
0
  6
HIDDEN
 62
   174
100
AcDbLine
 10
172.72692
 20
119.727617
 30
0.0
 11
172.72692
 21
112.804726
 31
0.0
  0
LINE
  5
217
100
AcDbEntity
  8
0
  6
Continuous
 62
   174
100
AcDbLine
 10
216.92692
 20
71.707249
 30
0.0
 11
216.92692
 21
74.121323
 31
0.0
  0
LINE
  5
218
100
AcDbEntity
  8
0
  6
HIDDEN
 62
   174
100
AcDbLine
 10
216.92692
 20
55.39062
 30
0.0
 11
216.92692
 21
56.211634
 31
0.0
  0
LINE
  5
219
100
AcDbEntity
  8
0
  6
HIDDEN
 62
   174
100
AcDbLine
 10
216.92692
 20
54.872718
 30
0.0
 11
216.92692
 21
58.714027
 31
0.0
  0
LINE
  5
21A
100
AcDbEntity
  8
0
  6
Continuous
 62
   174
100
AcDbLine
 10
158.72692
 20
110.2689
 30
0.0
 11
158.174527
 21
110.168845
 31
0.0
  0
ARC
  5
21B
100
AcDbEntity
  8
0
  6
HIDDEN
 62
   174
100
AcDbCircle
 10
204.01353
 20
132.524735
 30
0.0
 40
3.0
100
AcDbArc
 50
10.266697
 51
30.486238
  0
ARC
  5
21C
100
AcDbEntity
  8
0
  6
Continuous
 62
   174
100
AcDbCircle
 10
165.72692
 20
119.666987
 30
0.0
 40
3.0
100
AcDbArc
 50
90.0
 51
115.762281
  0
LINE
  5
21D
100
AcDbEntity
  8
0
  6
HIDDEN
 62
   174
100
AcDbLine
 10
158.72692
 20
110.2689
 30
0.0
 11
158.174527
 21
110.168845
 31
0.0
  0
LINE
  5
21E
100
AcDbEntity
  8
0
  6
Continuous
 62
   174
100
AcDbLine
 10
216.92692
 20
42.71523
 30
0.0
 11
216.92692
 21
47.709203
 31
0.0
  0
ARC
  5
21F
100
AcDbEntity
  8
0
  6
Continuous
 62
   174
100
AcDbCircle
 10
204.01353
 20
132.524735
 30
0.0
 40
3.0
100
AcDbArc
 50
221.481605
 51
243.522565
  0
ARC
  5
220
100
AcDbEntity
  8
0
  6
HIDDEN
 62
   174
100
AcDbCircle
 10
165.72692
 20
119.666987
 30
0.0
 40
3.0
100
AcDbArc
 50
298.191982
 51
303.591852
  0
LINE
  5
221
100
AcDbEntity
  8
0
  6
HIDDEN
 62
   174
100
AcDbLine
 10
159.445797
 20
126.659458
 30
0.0
 11
158.72692
 21
117.334353
 31
0.0
  0
LINE
  5
222
100
AcDbEntity
  8
0
  6
HIDDEN
 62
   174
100
AcDbLine
 10
196.05018
 20
133.289626
 30
0.0
 11
172.481728
 21
129.020662
 31
0.0
  0
ARC
  5
223
100
AcDbEntity
  8
0
  6
HIDDEN
 62
   174
100
AcDbCircle
 10
165.72692
 20
119.666987
 30
0.0
 40
3.0
100
AcDbArc
 50
215.990305
 51
221.540508
  0
ARC
  5
224
100
AcDbEntity
  8
0
  6
HIDDEN
 62
   174
100
AcDbCircle
 10
165.72692
 20
119.666987
 30
0.0
 40
3.0
100
AcDbArc
 50
35.990305
 51
41.540508
  0
ARC
  5
225
100
AcDbEntity
  8
0
  6
Continuous
 62
   174
100
AcDbCircle
 10
200.627154
 20
151.220523
 30
0.0
 40
2.0
100
AcDbArc
 50
-12.857143
 51
-0.817696
  0
ARC
  5
226
100
AcDbEntity
  8
0
  6
HIDDEN
 62
   174
100
AcDbCircle
 10
200.627154
 20
151.220523
 30
0.0
 40
9.4
100
AcDbArc
 50
220.882018
 51
268.266697
  0
ARC
  5
227
100
AcDbEntity
  8
0
  6
Continuous
 62
   174
100
AcDbCircle
 10
199.72692
 20
91.666987
 30
0.0
 40
7.5
100
AcDbArc
 50
90.0
 51
270.0
  0
ARC
  5
228
100
AcDbEntity
  8
0
  6
HIDDEN
 62
   174
100
AcDbCircle
 10
183.72692
 20
106.666987
 30
0.0
 40
10.0
100
AcDbArc
 50
90.0
 51
113.578178
  0
ARC
  5
229
100
AcDbEntity
  8
0
  6
HIDDEN
 62
   174
100
AcDbCircle
 10
165.72692
 20
119.666987
 30
0.0
 40
3.0
100
AcDbArc
 50
118.189579
 51
143.562301
  0
ARC
  5
22A
100
AcDbEntity
  8
0
  6
HIDDEN
 62
   174
100
AcDbCircle
 10
165.72692
 20
119.666987
 30
0.0
 40
3.0
100
AcDbArc
 50
221.540508
 51
242.03542
  0
ENDBLK
  5
22B
100
AcDbEntity
  8
0
100
AcDbBlockEnd
  0
BLOCK
  5
22E
100
AcDbEntity
  8
0
100
AcDbBlockBegin
  2
*B2
 70
     0
 10
0.0
 20
0.0
 30
0.0
  3
*B2
  1

  0
LINE
  5
22F
100
AcDbEntity
  8
0
  6
Continuous
 62
   172
100
AcDbLine
 10
214.0
 20
149.220523
 30
0.0
 11
214.02692
 21
149.220523
 31
0.0
  0
LINE
  5
230
100
AcDbEntity
  8
0
  6
Continuous
 62
   172
100
AcDbLine
 10
214.0
 20
153.220523
 30
0.0
 11
214.02692
 21
153.220523
 31
0.0
  0
ENDBLK
  5
231
100
AcDbEntity
  8
0
100
AcDbBlockEnd
  0
BLOCK
  5
234
100
AcDbEntity
  8
0
100
AcDbBlockBegin
  2
*B3
 70
     0
 10
0.0
 20
0.0
 30
0.0
  3
*B3
  1

  0
ARC
  5
235
100
AcDbEntity
  8
0
  6
Continuous
 62
   174
100
AcDbCircle
 10
100.485646
 20
52.666987
 30
0.0
 40
4.0
100
AcDbArc
 50
90.0
 51
270.0
  0
ARC
  5
236
100
AcDbEntity
  8
0
  6
Continuous
 62
   174
100
AcDbCircle
 10
100.485646
 20
52.666987
 30
0.0
 40
4.0
100
AcDbArc
 50
-90.0
 51
90.0
  0
ARC
  5
237
100
AcDbEntity
  8
0
  6
Continuous
 62
   174
100
AcDbCircle
 10
100.485646
 20
76.666987
 30
0.0
 40
4.0
100
AcDbArc
 50
90.0
 51
270.0
  0
ARC
  5
238
100
AcDbEntity
  8
0
  6
Continuous
 62
   174
100
AcDbCircle
 10
100.485646
 20
76.666987
 30
0.0
 40
4.0
100
AcDbArc
 50
-90.0
 51
90.0
  0
LINE
  5
239
100
AcDbEntity
  8
0
  6
HIDDEN
 62
   174
100
AcDbLine
 10
115.485646
 20
99.166987
 30
0.0
 11
107.085646
 21
99.166987
 31
0.0
  0
LINE
  5
23A
100
AcDbEntity
  8
0
  6
HIDDEN
 62
   174
100
AcDbLine
 10
115.485646
 20
84.166987
 30
0.0
 11
107.085646
 21
84.166987
 31
0.0
  0
LINE
  5
23B
100
AcDbEntity
  8
0
  6
HIDDEN
 62
   174
100
AcDbLine
 10
115.485646
 20
99.166987
 30
0.0
 11
107.085646
 21
99.166987
 31
0.0
  0
LINE
  5
23C
100
AcDbEntity
  8
0
  6
HIDDEN
 62
   174
100
AcDbLine
 10
115.485646
 20
84.166987
 30
0.0
 11
107.085646
 21
84.166987
 31
0.0
  0
LINE
  5
23D
100
AcDbEntity
  8
0
  6
HIDDEN
 62
   174
100
AcDbLine
 10
107.085646
 20
84.212308
 30
0.0
 11
107.085646
 21
99.211349
 31
0.0
  0
LINE
  5
23E
100
AcDbEntity
  8
0
  6
HIDDEN
 62
   174
100
AcDbLine
 10
115.485646
 20
99.166987
 30
0.0
 11
107.085646
 21
99.166987
 31
0.0
  0
LINE
  5
23F
100
AcDbEntity
  8
0
  6
HIDDEN
 62
   174
100
AcDbLine
 10
115.485646
 20
84.166987
 30
0.0
 11
107.085646
 21
84.166987
 31
0.0
  0
LINE
  5
240
100
AcDbEntity
  8
0
  6
HIDDEN
 62
   174
100
AcDbLine
 10
115.485646
 20
99.166987
 30
0.0
 11
107.085646
 21
99.166987
 31
0.0
  0
LINE
  5
241
100
AcDbEntity
  8
0
  6
HIDDEN
 62
   174
100
AcDbLine
 10
115.485646
 20
84.166987
 30
0.0
 11
107.085646
 21
84.166987
 31
0.0
  0
LINE
  5
242
100
AcDbEntity
  8
0
  6
HIDDEN
 62
   174
100
AcDbLine
 10
93.885646
 20
96.166987
 30
0.0
 11
107.085646
 21
96.166987
 31
0.0
  0
LINE
  5
243
100
AcDbEntity
  8
0
  6
HIDDEN
 62
   174
100
AcDbLine
 10
115.485646
 20
122.666987
 30
0.0
 11
110.985646
 21
122.666987
 31
0.0
  0
LINE
  5
244
100
AcDbEntity
  8
0
  6
HIDDEN
 62
   174
100
AcDbLine
 10
92.885646
 20
122.666987
 30
0.0
 11
90.485646
 21
122.666987
 31
0.0
  0
LINE
  5
245
100
AcDbEntity
  8
0
  6
HIDDEN
 62
   174
100
AcDbLine
 10
110.485646
 20
129.524735
 30
0.0
 11
108.085646
 21
129.524735
 31
0.0
  0
LINE
  5
246
100
AcDbEntity
  8
0
  6
HIDDEN
 62
   174
100
AcDbLine
 10
93.885646
 20
87.166987
 30
0.0
 11
107.085646
 21
87.166987
 31
0.0
  0
LINE
  5
247
100
AcDbEntity
  8
0
  6
Continuous
 62
   174
100
AcDbLine
 10
90.485646
 20
122.666987
 30
0.0
 11
89.985646
 21
122.666987
 31
0.0
  0
LINE
  5
248
100
AcDbEntity
  8
0
  6
Continuous
 62
   174
100
AcDbLine
 10
90.485646
 20
116.666987
 30
0.0
 11
89.985646
 21
116.666987
 31
0.0
  0
LINE
  5
249
100
AcDbEntity
  8
0
  6
Continuous
 62
   174
100
AcDbLine
 10
108.085646
 20
122.666987
 30
0.0
 11
107.485646
 21
122.666987
 31
0.0
  0
LINE
  5
24A
100
AcDbEntity
  8
0
  6
HIDDEN
 62
   174
100
AcDbLine
 10
89.985646
 20
116.666987
 30
0.0
 11
85.485646
 21
116.666987
 31
0.0
  0
LINE
  5
24B
100
AcDbEntity
  8
0
  6
HIDDEN
 62
   174
100
AcDbLine
 10
108.085646
 20
116.666987
 30
0.0
 11
100.485646
 21
116.666987
 31
0.0
  0
LINE
  5
24C
100
AcDbEntity
  8
0
  6
HIDDEN
 62
   174
100
AcDbLine
 10
115.485646
 20
116.666987
 30
0.0
 11
110.985646
 21
116.666987
 31
0.0
  0
LINE
  5
24D
100
AcDbEntity
  8
0
  6
HIDDEN
 62
   174
100
AcDbLine
 10
92.885646
 20
122.666987
 30
0.0
 11
90.485646
 21
122.666987
 31
0.0
  0
LINE
  5
24E
100
AcDbEntity
  8
0
  6
HIDDEN
 62
   174
100
AcDbLine
 10
110.985646
 20
122.666987
 30
0.0
 11
110.485646
 21
122.666987
 31
0.0
  0
LINE
  5
24F
100
AcDbEntity
  8
0
  6
HIDDEN
 62
   174
100
AcDbLine
 10
92.885646
 20
116.666987
 30
0.0
 11
91.060065
 21
116.666987
 31
0.0
  0
LINE
  5
250
100
AcDbEntity
  8
0
  6
HIDDEN
 62
   174
100
AcDbLine
 10
110.485646
 20
116.666987
 30
0.0
 11
109.911228
 21
116.666987
 31
0.0
  0
LINE
  5
251
100
AcDbEntity
  8
0
  6
HIDDEN
 62
   174
100
AcDbLine
 10
105.485646
 20
150.904555
 30
0.0
 11
105.485646
 21
153.260951
 31
0.0
  0
LINE
  5
252
100
AcDbEntity
  8
0
  6
HIDDEN
 62
   174
100
AcDbLine
 10
105.485646
 20
149.261026
 30
0.0
 11
105.485646
 21
150.904555
 31
0.0
  0
LINE
  5
253
100
AcDbEntity
  8
0
  6
HIDDEN
 62
   174
100
AcDbLine
 10
107.485646
 20
152.856903
 30
0.0
 11
107.485646
 21
150.761862
 31
0.0
  0
LINE
  5
254
100
AcDbEntity
  8
0
  6
HIDDEN
 62
   174
100
AcDbLine
 10
107.485646
 20
153.297901
 30
0.0
 11
107.485646
 21
152.856903
 31
0.0
  0
LINE
  5
255
100
AcDbEntity
  8
0
  6
HIDDEN
 62
   174
100
AcDbLine
 10
107.485646
 20
154.060636
 30
0.0
 11
107.485646
 21
153.297901
 31
0.0
  0
LINE
  5
256
100
AcDbEntity
  8
0
  6
Continuous
 62
   174
100
AcDbLine
 10
93.485646
 20
135.524735
 30
0.0
 11
92.885646
 21
135.524735
 31
0.0
  0
LINE
  5
257
100
AcDbEntity
  8
0
  6
Continuous
 62
   174
100
AcDbLine
 10
108.085646
 20
135.524735
 30
0.0
 11
107.485646
 21
135.524735
 31
0.0
  0
LINE
  5
258
100
AcDbEntity
  8
0
  6
Continuous
 62
   174
100
AcDbLine
 10
93.485646
 20
135.524735
 30
0.0
 11
92.885646
 21
135.524735
 31
0.0
  0
LINE
  5
259
100
AcDbEntity
  8
0
  6
HIDDEN
 62
   174
100
AcDbLine
 10
107.085646
 20
84.212308
 30
0.0
 11
107.085646
 21
99.211349
 31
0.0
  0
LINE
  5
25A
100
AcDbEntity
  8
0
  6
HIDDEN
 62
   174
100
AcDbLine
 10
93.885646
 20
96.166987
 30
0.0
 11
107.085646
 21
96.166987
 31
0.0
  0
LINE
  5
25B
100
AcDbEntity
  8
0
  6
HIDDEN
 62
   174
100
AcDbLine
 10
107.085646
 20
96.211481
 30
0.0
 11
107.085646
 21
87.212176
 31
0.0
  0
LINE
  5
25C
100
AcDbEntity
  8
0
  6
HIDDEN
 62
   174
100
AcDbLine
 10
115.485646
 20
122.666987
 30
0.0
 11
110.985646
 21
122.666987
 31
0.0
  0
LINE
  5
25D
100
AcDbEntity
  8
0
  6
HIDDEN
 62
   174
100
AcDbLine
 10
95.485646
 20
122.666987
 30
0.0
 11
93.485646
 21
122.666987
 31
0.0
  0
LINE
  5
25E
100
AcDbEntity
  8
0
  6
HIDDEN
 62
   174
100
AcDbLine
 10
93.485646
 20
150.761862
 30
0.0
 11
93.485646
 21
149.62482
 31
0.0
  0
LINE
  5
25F
100
AcDbEntity
  8
0
  6
HIDDEN
 62
   174
100
AcDbLine
 10
93.485646
 20
153.095427
 30
0.0
 11
93.485646
 21
150.761862
 31
0.0
  0
LINE
  5
260
100
AcDbEntity
  8
0
  6
HIDDEN
 62
   174
100
AcDbLine
 10
93.485646
 20
153.297601
 30
0.0
 11
93.485646
 21
153.095427
 31
0.0
  0
LINE
  5
261
100
AcDbEntity
  8
0
  6
HIDDEN
 62
   174
100
AcDbLine
 10
93.485646
 20
154.060636
 30
0.0
 11
93.485646
 21
153.297601
 31
0.0
  0
LINE
  5
262
100
AcDbEntity
  8
0
  6
HIDDEN
 62
   174
100
AcDbLine
 10
93.485646
 20
149.210558
 30
0.0
 11
93.485646
 21
148.461041
 31
0.0
  0
LINE
  5
263
100
AcDbEntity
  8
0
  6
HIDDEN
 62
   174
100
AcDbLine
 10
93.485646
 20
149.62482
 30
0.0
 11
93.485646
 21
149.210558
 31
0.0
  0
LINE
  5
264
100
AcDbEntity
  8
0
  6
HIDDEN
 62
   174
100
AcDbLine
 10
92.885646
 20
129.524735
 30
0.0
 11
90.485646
 21
129.524735
 31
0.0
  0
LINE
  5
265
100
AcDbEntity
  8
0
  6
HIDDEN
 62
   174
100
AcDbLine
 10
92.885646
 20
135.524735
 30
0.0
 11
90.485646
 21
135.524735
 31
0.0
  0
LINE
  5
266
100
AcDbEntity
  8
0
  6
HIDDEN
 62
   174
100
AcDbLine
 10
93.885646
 20
87.166987
 30
0.0
 11
107.085646
 21
87.166987
 31
0.0
  0
LINE
  5
267
100
AcDbEntity
  8
0
  6
HIDDEN
 62
   174
100
AcDbLine
 10
93.885646
 20
96.166987
 30
0.0
 11
107.085646
 21
96.166987
 31
0.0
  0
LINE
  5
268
100
AcDbEntity
  8
0
  6
Continuous
 62
   174
100
AcDbLine
 10
93.485646
 20
122.666987
 30
0.0
 11
92.885646
 21
122.666987
 31
0.0
  0
LINE
  5
269
100
AcDbEntity
  8
0
  6
Continuous
 62
   174
100
AcDbLine
 10
90.485646
 20
122.666987
 30
0.0
 11
89.985646
 21
122.666987
 31
0.0
  0
LINE
  5
26A
100
AcDbEntity
  8
0
  6
HIDDEN
 62
   174
100
AcDbLine
 10
91.060065
 20
116.666987
 30
0.0
 11
90.485646
 21
116.666987
 31
0.0
  0
LINE
  5
26B
100
AcDbEntity
  8
0
  6
HIDDEN
 62
   174
100
AcDbLine
 10
109.911228
 20
116.666987
 30
0.0
 11
108.085646
 21
116.666987
 31
0.0
  0
LINE
  5
26C
100
AcDbEntity
  8
0
  6
HIDDEN
 62
   174
100
AcDbLine
 10
95.485646
 20
122.666987
 30
0.0
 11
93.485646
 21
122.666987
 31
0.0
  0
LINE
  5
26D
100
AcDbEntity
  8
0
  6
HIDDEN
 62
   174
100
AcDbLine
 10
100.485646
 20
116.666987
 30
0.0
 11
92.885646
 21
116.666987
 31
0.0
  0
LINE
  5
26E
100
AcDbEntity
  8
0
  6
HIDDEN
 62
   174
100
AcDbLine
 10
115.485646
 20
122.709517
 30
0.0
 11
115.485646
 21
116.710081
 31
0.0
  0
LINE
  5
26F
100
AcDbEntity
  8
0
  6
HIDDEN
 62
   174
100
AcDbLine
 10
107.485646
 20
150.761862
 30
0.0
 11
107.485646
 21
149.760904
 31
0.0
  0
LINE
  5
270
100
AcDbEntity
  8
0
  6
HIDDEN
 62
   174
100
AcDbLine
 10
107.485646
 20
149.222875
 30
0.0
 11
107.485646
 21
148.461041
 31
0.0
  0
LINE
  5
271
100
AcDbEntity
  8
0
  6
HIDDEN
 62
   174
100
AcDbLine
 10
107.485646
 20
149.760904
 30
0.0
 11
107.485646
 21
149.222875
 31
0.0
  0
LINE
  5
272
100
AcDbEntity
  8
0
  6
Continuous
 62
   174
100
AcDbLine
 10
93.485646
 20
129.524735
 30
0.0
 11
92.885646
 21
129.524735
 31
0.0
  0
LINE
  5
273
100
AcDbEntity
  8
0
  6
Continuous
 62
   174
100
AcDbLine
 10
93.485646
 20
129.524735
 30
0.0
 11
92.885646
 21
129.524735
 31
0.0
  0
LINE
  5
274
100
AcDbEntity
  8
0
  6
Continuous
 62
   174
100
AcDbLine
 10
105.485646
 20
135.524735
 30
0.0
 11
95.485646
 21
135.524735
 31
0.0
  0
LINE
  5
275
100
AcDbEntity
  8
0
  6
HIDDEN
 62
   174
100
AcDbLine
 10
93.885646
 20
96.166987
 30
0.0
 11
107.085646
 21
96.166987
 31
0.0
  0
LINE
  5
276
100
AcDbEntity
  8
0
  6
HIDDEN
 62
   174
100
AcDbLine
 10
97.511344
 20
45.666987
 30
0.0
 11
100.511212
 21
45.666987
 31
0.0
  0
LINE
  5
277
100
AcDbEntity
  8
0
  6
HIDDEN
 62
   174
100
AcDbLine
 10
100.511212
 20
45.666987
 30
0.0
 11
103.511381
 21
45.666987
 31
0.0
  0
LINE
  5
278
100
AcDbEntity
  8
0
  6
HIDDEN
 62
   174
100
AcDbLine
 10
115.485646
 20
99.211349
 30
0.0
 11
115.485646
 21
84.212308
 31
0.0
  0
LINE
  5
279
100
AcDbEntity
  8
0
  6
HIDDEN
 62
   174
100
AcDbLine
 10
107.085646
 20
96.211481
 30
0.0
 11
107.085646
 21
87.212176
 31
0.0
  0
LINE
  5
27A
100
AcDbEntity
  8
0
  6
HIDDEN
 62
   174
100
AcDbLine
 10
110.985646
 20
116.666987
 30
0.0
 11
110.485646
 21
116.666987
 31
0.0
  0
LINE
  5
27B
100
AcDbEntity
  8
0
  6
HIDDEN
 62
   174
100
AcDbLine
 10
115.485646
 20
116.666987
 30
0.0
 11
110.985646
 21
116.666987
 31
0.0
  0
LINE
  5
27C
100
AcDbEntity
  8
0
  6
HIDDEN
 62
   174
100
AcDbLine
 10
107.485646
 20
122.666987
 30
0.0
 11
105.485646
 21
122.666987
 31
0.0
  0
LINE
  5
27D
100
AcDbEntity
  8
0
  6
HIDDEN
 62
   174
100
AcDbLine
 10
85.485646
 20
122.709517
 30
0.0
 11
85.485646
 21
116.710081
 31
0.0
  0
LINE
  5
27E
100
AcDbEntity
  8
0
  6
Continuous
 62
   174
100
AcDbLine
 10
108.085646
 20
135.524735
 30
0.0
 11
107.485646
 21
135.524735
 31
0.0
  0
LINE
  5
27F
100
AcDbEntity
  8
0
  6
HIDDEN
 62
   174
100
AcDbLine
 10
95.485646
 20
129.524735
 30
0.0
 11
93.485646
 21
129.524735
 31
0.0
  0
LINE
  5
280
100
AcDbEntity
  8
0
  6
HIDDEN
 62
   174
100
AcDbLine
 10
97.485646
 20
39.666987
 30
0.0
 11
97.485646
 21
45.666987
 31
0.0
  0
LINE
  5
281
100
AcDbEntity
  8
0
  6
Continuous
 62
   174
100
AcDbLine
 10
105.485646
 20
122.666987
 30
0.0
 11
95.485646
 21
122.666987
 31
0.0
  0
LINE
  5
282
100
AcDbEntity
  8
0
  6
Continuous
 62
   174
100
AcDbLine
 10
93.485646
 20
122.666987
 30
0.0
 11
92.885646
 21
122.666987
 31
0.0
  0
LINE
  5
283
100
AcDbEntity
  8
0
  6
HIDDEN
 62
   174
100
AcDbLine
 10
92.885646
 20
116.666987
 30
0.0
 11
91.060065
 21
116.666987
 31
0.0
  0
LINE
  5
284
100
AcDbEntity
  8
0
  6
HIDDEN
 62
   174
100
AcDbLine
 10
110.485646
 20
116.666987
 30
0.0
 11
109.911228
 21
116.666987
 31
0.0
  0
LINE
  5
285
100
AcDbEntity
  8
0
  6
HIDDEN
 62
   174
100
AcDbLine
 10
107.485646
 20
122.666987
 30
0.0
 11
105.485646
 21
122.666987
 31
0.0
  0
LINE
  5
286
100
AcDbEntity
  8
0
  6
HIDDEN
 62
   174
100
AcDbLine
 10
89.985646
 20
116.666987
 30
0.0
 11
85.485646
 21
116.666987
 31
0.0
  0
LINE
  5
287
100
AcDbEntity
  8
0
  6
HIDDEN
 62
   174
100
AcDbLine
 10
108.085646
 20
116.666987
 30
0.0
 11
100.485646
 21
116.666987
 31
0.0
  0
LINE
  5
288
100
AcDbEntity
  8
0
  6
HIDDEN
 62
   174
100
AcDbLine
 10
95.485646
 20
153.260951
 30
0.0
 11
95.485646
 21
150.904555
 31
0.0
  0
LINE
  5
289
100
AcDbEntity
  8
0
  6
HIDDEN
 62
   174
100
AcDbLine
 10
95.485646
 20
150.904555
 30
0.0
 11
95.485646
 21
149.261026
 31
0.0
  0
LINE
  5
28A
100
AcDbEntity
  8
0
  6
Continuous
 62
   174
100
AcDbLine
 10
105.485646
 20
129.524735
 30
0.0
 11
95.485646
 21
129.524735
 31
0.0
  0
LINE
  5
28B
100
AcDbEntity
  8
0
  6
Continuous
 62
   174
100
AcDbLine
 10
105.485646
 20
129.524735
 30
0.0
 11
95.485646
 21
129.524735
 31
0.0
  0
LINE
  5
28C
100
AcDbEntity
  8
0
  6
HIDDEN
 62
   174
100
AcDbLine
 10
115.485646
 20
99.211349
 30
0.0
 11
115.485646
 21
84.212308
 31
0.0
  0
LINE
  5
28D
100
AcDbEntity
  8
0
  6
HIDDEN
 62
   174
100
AcDbLine
 10
100.511212
 20
39.666987
 30
0.0
 11
97.511344
 21
39.666987
 31
0.0
  0
LINE
  5
28E
100
AcDbEntity
  8
0
  6
HIDDEN
 62
   174
100
AcDbLine
 10
89.985646
 20
122.666987
 30
0.0
 11
85.485646
 21
122.666987
 31
0.0
  0
LINE
  5
28F
100
AcDbEntity
  8
0
  6
HIDDEN
 62
   174
100
AcDbLine
 10
110.485646
 20
122.666987
 30
0.0
 11
108.085646
 21
122.666987
 31
0.0
  0
LINE
  5
290
100
AcDbEntity
  8
0
  6
HIDDEN
 62
   174
100
AcDbLine
 10
107.485646
 20
129.524735
 30
0.0
 11
105.485646
 21
129.524735
 31
0.0
  0
LINE
  5
291
100
AcDbEntity
  8
0
  6
HIDDEN
 62
   174
100
AcDbLine
 10
93.885646
 20
87.166987
 30
0.0
 11
107.085646
 21
87.166987
 31
0.0
  0
LINE
  5
292
100
AcDbEntity
  8
0
  6
HIDDEN
 62
   174
100
AcDbLine
 10
93.885646
 20
87.166987
 30
0.0
 11
107.085646
 21
87.166987
 31
0.0
  0
LINE
  5
293
100
AcDbEntity
  8
0
  6
HIDDEN
 62
   174
100
AcDbLine
 10
103.485646
 20
39.666987
 30
0.0
 11
103.485646
 21
45.666987
 31
0.0
  0
LINE
  5
294
100
AcDbEntity
  8
0
  6
HIDDEN
 62
   174
100
AcDbLine
 10
103.511381
 20
39.666987
 30
0.0
 11
100.511212
 21
39.666987
 31
0.0
  0
LINE
  5
295
100
AcDbEntity
  8
0
  6
Continuous
 62
   174
100
AcDbLine
 10
90.485646
 20
116.666987
 30
0.0
 11
89.985646
 21
116.666987
 31
0.0
  0
LINE
  5
296
100
AcDbEntity
  8
0
  6
Continuous
 62
   174
100
AcDbLine
 10
108.085646
 20
122.666987
 30
0.0
 11
107.485646
 21
122.666987
 31
0.0
  0
LINE
  5
297
100
AcDbEntity
  8
0
  6
Continuous
 62
   174
100
AcDbLine
 10
105.485646
 20
122.666987
 30
0.0
 11
95.485646
 21
122.666987
 31
0.0
  0
LINE
  5
298
100
AcDbEntity
  8
0
  6
HIDDEN
 62
   174
100
AcDbLine
 10
100.485646
 20
116.666987
 30
0.0
 11
92.885646
 21
116.666987
 31
0.0
  0
LINE
  5
299
100
AcDbEntity
  8
0
  6
HIDDEN
 62
   174
100
AcDbLine
 10
110.985646
 20
116.666987
 30
0.0
 11
110.485646
 21
116.666987
 31
0.0
  0
LINE
  5
29A
100
AcDbEntity
  8
0
  6
HIDDEN
 62
   174
100
AcDbLine
 10
89.985646
 20
122.666987
 30
0.0
 11
85.485646
 21
122.666987
 31
0.0
  0
LINE
  5
29B
100
AcDbEntity
  8
0
  6
HIDDEN
 62
   174
100
AcDbLine
 10
110.485646
 20
122.666987
 30
0.0
 11
108.085646
 21
122.666987
 31
0.0
  0
LINE
  5
29C
100
AcDbEntity
  8
0
  6
HIDDEN
 62
   174
100
AcDbLine
 10
91.060065
 20
116.666987
 30
0.0
 11
90.485646
 21
116.666987
 31
0.0
  0
LINE
  5
29D
100
AcDbEntity
  8
0
  6
HIDDEN
 62
   174
100
AcDbLine
 10
109.911228
 20
116.666987
 30
0.0
 11
108.085646
 21
116.666987
 31
0.0
  0
LINE
  5
29E
100
AcDbEntity
  8
0
  6
HIDDEN
 62
   174
100
AcDbLine
 10
110.985646
 20
122.666987
 30
0.0
 11
110.485646
 21
122.666987
 31
0.0
  0
LINE
  5
29F
100
AcDbEntity
  8
0
  6
HIDDEN
 62
   174
100
AcDbLine
 10
110.485646
 20
135.524735
 30
0.0
 11
108.085646
 21
135.524735
 31
0.0
  0
LINE
  5
2A0
100
AcDbEntity
  8
0
  6
Continuous
 62
   174
100
AcDbLine
 10
108.085646
 20
129.524735
 30
0.0
 11
107.485646
 21
129.524735
 31
0.0
  0
LINE
  5
2A1
100
AcDbEntity
  8
0
  6
Continuous
 62
   174
100
AcDbLine
 10
105.485646
 20
135.524735
 30
0.0
 11
95.485646
 21
135.524735
 31
0.0
  0
LINE
  5
2A2
100
AcDbEntity
  8
0
  6
Continuous
 62
   174
100
AcDbLine
 10
108.085646
 20
129.524735
 30
0.0
 11
107.485646
 21
129.524735
 31
0.0
  0
LINE
  5
2A3
100
AcDbEntity
  8
0
  6
Continuous
 62
   174
100
AcDbLine
 10
92.885646
 20
113.036493
 30
0.0
 11
92.885646
 21
110.266987
 31
0.0
  0
ARC
  5
2A4
100
AcDbEntity
  8
0
  6
HIDDEN
 62
   174
100
AcDbCircle
 10
100.485646
 20
76.666987
 30
0.0
 40
10.0
100
AcDbArc
 50
0.0
 51
180.0
  0
LINE
  5
2A5
100
AcDbEntity
  8
0
  6
Continuous
 62
   174
100
AcDbLine
 10
93.485646
 20
140.524904
 30
0.0
 11
93.485646
 21
124.652825
 31
0.0
  0
LINE
  5
2A6
100
AcDbEntity
  8
0
  6
Continuous
 62
   174
100
AcDbLine
 10
105.485646
 20
141.822599
 30
0.0
 11
105.485646
 21
124.318674
 31
0.0
  0
LINE
  5
2A7
100
AcDbEntity
  8
0
  6
Continuous
 62
   174
100
AcDbLine
 10
107.485646
 20
121.821801
 30
0.0
 11
107.485646
 21
122.141252
 31
0.0
  0
LINE
  5
2A8
100
AcDbEntity
  8
0
  6
HIDDEN
 62
   174
100
AcDbLine
 10
93.485646
 20
153.260951
 30
0.0
 11
93.485646
 21
151.706042
 31
0.0
  0
LINE
  5
2A9
100
AcDbEntity
  8
0
  6
Continuous
 62
   174
100
AcDbLine
 10
85.485646
 20
108.666987
 30
0.0
 11
115.485646
 21
108.666987
 31
0.0
  0
LINE
  5
2AA
100
AcDbEntity
  8
0
  6
HIDDEN
 62
   174
100
AcDbLine
 10
95.985646
 20
153.293996
 30
0.0
 11
95.985646
 21
155.260763
 31
0.0
  0
LINE
  5
2AB
100
AcDbEntity
  8
0
  6
Continuous
 62
   174
100
AcDbLine
 10
95.985646
 20
160.65608
 30
0.0
 11
95.985646
 21
160.660286
 31
0.0
  0
LINE
  5
2AC
100
AcDbEntity
  8
0
  6
Continuous
 62
   174
100
AcDbLine
 10
90.485646
 20
132.032361
 30
0.0
 11
90.485646
 21
135.361476
 31
0.0
  0
LINE
  5
2AD
100
AcDbEntity
  8
0
  6
HIDDEN
 62
   174
100
AcDbLine
 10
85.485646
 20
84.212308
 30
0.0
 11
85.485646
 21
99.211349
 31
0.0
  0
LINE
  5
2AE
100
AcDbEntity
  8
0
  6
HIDDEN
 62
   174
100
AcDbLine
 10
105.485646
 20
132.03176
 30
0.0
 11
105.485646
 21
135.566354
 31
0.0
  0
LINE
  5
2AF
100
AcDbEntity
  8
0
  6
HIDDEN
 62
   174
100
AcDbLine
 10
107.485646
 20
121.821801
 30
0.0
 11
105.485646
 21
121.821801
 31
0.0
  0
LINE
  5
2B0
100
AcDbEntity
  8
0
  6
Continuous
 62
   174
100
AcDbLine
 10
93.485646
 20
152.646365
 30
0.0
 11
95.485646
 21
152.646365
 31
0.0
  0
LINE
  5
2B1
100
AcDbEntity
  8
0
  6
Continuous
 62
   174
100
AcDbLine
 10
105.485646
 20
118.307038
 30
0.0
 11
105.485646
 21
121.32108
 31
0.0
  0
LINE
  5
2B2
100
AcDbEntity
  8
0
  6
HIDDEN
 62
   174
100
AcDbLine
 10
90.485646
 20
121.428206
 30
0.0
 11
90.485646
 21
120.796999
 31
0.0
  0
LINE
  5
2B3
100
AcDbEntity
  8
0
  6
HIDDEN
 62
   174
100
AcDbLine
 10
95.985646
 20
149.220523
 30
0.0
 11
95.485646
 21
149.220523
 31
0.0
  0
LINE
  5
2B4
100
AcDbEntity
  8
0
  6
HIDDEN
 62
   174
100
AcDbLine
 10
104.985646
 20
153.220523
 30
0.0
 11
95.985646
 21
153.220523
 31
0.0
  0
LINE
  5
2B5
100
AcDbEntity
  8
0
  6
Continuous
 62
   174
100
AcDbLine
 10
96.585646
 20
141.261778
 30
0.0
 11
96.585646
 21
143.052206
 31
0.0
  0
LINE
  5
2B6
100
AcDbEntity
  8
0
  6
Continuous
 62
   174
100
AcDbLine
 10
90.485646
 20
113.036493
 30
0.0
 11
90.485646
 21
110.266987
 31
0.0
  0
LINE
  5
2B7
100
AcDbEntity
  8
0
  6
HIDDEN
 62
   174
100
AcDbLine
 10
95.485646
 20
135.566354
 30
0.0
 11
95.485646
 21
132.03176
 31
0.0
  0
LINE
  5
2B8
100
AcDbEntity
  8
0
  6
HIDDEN
 62
   174
100
AcDbLine
 10
115.485646
 20
122.709517
 30
0.0
 11
115.485646
 21
116.710081
 31
0.0
  0
LINE
  5
2B9
100
AcDbEntity
  8
0
  6
HIDDEN
 62
   174
100
AcDbLine
 10
110.985646
 20
120.377755
 30
0.0
 11
110.985646
 21
121.582389
 31
0.0
  0
LINE
  5
2BA
100
AcDbEntity
  8
0
  6
Continuous
 62
   174
100
AcDbLine
 10
96.485646
 20
108.666987
 30
0.0
 11
96.485646
 21
115.832138
 31
0.0
  0
LINE
  5
2BB
100
AcDbEntity
  8
0
  6
Continuous
 62
   174
100
AcDbLine
 10
108.085646
 20
113.036493
 30
0.0
 11
108.085646
 21
110.266987
 31
0.0
  0
LINE
  5
2BC
100
AcDbEntity
  8
0
  6
HIDDEN
 62
   174
100
AcDbLine
 10
90.485646
 20
132.03176
 30
0.0
 11
90.485646
 21
135.566354
 31
0.0
  0
LINE
  5
2BD
100
AcDbEntity
  8
0
  6
Continuous
 62
   174
100
AcDbLine
 10
108.085646
 20
123.226982
 30
0.0
 11
108.085646
 21
122.141252
 31
0.0
  0
LINE
  5
2BE
100
AcDbEntity
  8
0
  6
Continuous
 62
   174
100
AcDbLine
 10
95.485646
 20
152.646365
 30
0.0
 11
95.485646
 21
141.822599
 31
0.0
  0
LINE
  5
2BF
100
AcDbEntity
  8
0
  6
HIDDEN
 62
   174
100
AcDbLine
 10
95.485646
 20
135.524735
 30
0.0
 11
93.485646
 21
135.524735
 31
0.0
  0
LINE
  5
2C0
100
AcDbEntity
  8
0
  6
HIDDEN
 62
   174
100
AcDbLine
 10
85.485646
 20
99.166987
 30
0.0
 11
93.885646
 21
99.166987
 31
0.0
  0
LINE
  5
2C1
100
AcDbEntity
  8
0
  6
Continuous
 62
   174
100
AcDbLine
 10
104.485646
 20
110.266987
 30
0.0
 11
108.085646
 21
110.266987
 31
0.0
  0
LINE
  5
2C2
100
AcDbEntity
  8
0
  6
HIDDEN
 62
   174
100
AcDbLine
 10
107.485646
 20
122.183805
 30
0.0
 11
107.485646
 21
121.36219
 31
0.0
  0
LINE
  5
2C3
100
AcDbEntity
  8
0
  6
HIDDEN
 62
   174
100
AcDbLine
 10
108.085646
 20
119.174924
 30
0.0
 11
108.085646
 21
122.709517
 31
0.0
  0
LINE
  5
2C4
100
AcDbEntity
  8
0
  6
Continuous
 62
   174
100
AcDbLine
 10
93.485646
 20
119.460228
 30
0.0
 11
92.485646
 21
119.460228
 31
0.0
  0
LINE
  5
2C5
100
AcDbEntity
  8
0
  6
HIDDEN
 62
   174
100
AcDbLine
 10
95.485646
 20
119.460228
 30
0.0
 11
93.485646
 21
119.460228
 31
0.0
  0
LINE
  5
2C6
100
AcDbEntity
  8
0
  6
Continuous
 62
   174
100
AcDbLine
 10
110.485646
 20
120.796999
 30
0.0
 11
110.485646
 21
119.727617
 31
0.0
  0
LINE
  5
2C7
100
AcDbEntity
  8
0
  6
Continuous
 62
   174
100
AcDbLine
 10
92.485646
 20
119.460228
 30
0.0
 11
92.485646
 21
118.307038
 31
0.0
  0
LINE
  5
2C8
100
AcDbEntity
  8
0
  6
Continuous
 62
   174
100
AcDbLine
 10
104.385646
 20
141.66162
 30
0.0
 11
104.385646
 21
143.052206
 31
0.0
  0
LINE
  5
2C9
100
AcDbEntity
  8
0
  6
Continuous
 62
   174
100
AcDbLine
 10
95.985646
 20
158.703732
 30
0.0
 11
95.985646
 21
160.108137
 31
0.0
  0
LINE
  5
2CA
100
AcDbEntity
  8
0
  6
Continuous
 62
   174
100
AcDbLine
 10
107.485646
 20
122.141252
 30
0.0
 11
107.485646
 21
123.226982
 31
0.0
  0
LINE
  5
2CB
100
AcDbEntity
  8
0
  6
Continuous
 62
   174
100
AcDbLine
 10
110.485646
 20
123.226982
 30
0.0
 11
110.485646
 21
121.428206
 31
0.0
  0
LINE
  5
2CC
100
AcDbEntity
  8
0
  6
Continuous
 62
   174
100
AcDbLine
 10
90.485646
 20
124.69521
 30
0.0
 11
90.485646
 21
129.505634
 31
0.0
  0
LINE
  5
2CD
100
AcDbEntity
  8
0
  6
Continuous
 62
   174
100
AcDbLine
 10
89.985646
 20
124.652825
 30
0.0
 11
89.985646
 21
123.226982
 31
0.0
  0
LINE
  5
2CE
100
AcDbEntity
  8
0
  6
Continuous
 62
   174
100
AcDbLine
 10
110.985646
 20
124.652825
 30
0.0
 11
110.985646
 21
123.226982
 31
0.0
  0
LINE
  5
2CF
100
AcDbEntity
  8
0
  6
Continuous
 62
   174
100
AcDbLine
 10
93.485646
 20
124.652825
 30
0.0
 11
93.485646
 21
124.318674
 31
0.0
  0
LINE
  5
2D0
100
AcDbEntity
  8
0
  6
Continuous
 62
   174
100
AcDbLine
 10
105.485646
 20
155.057988
 30
0.0
 11
105.485646
 21
152.686572
 31
0.0
  0
LINE
  5
2D1
100
AcDbEntity
  8
0
  6
HIDDEN
 62
   174
100
AcDbLine
 10
95.985646
 20
153.220523
 30
0.0
 11
95.485646
 21
153.220523
 31
0.0
  0
LINE
  5
2D2
100
AcDbEntity
  8
0
  6
Continuous
 62
   174
100
AcDbLine
 10
104.985646
 20
141.861691
 30
0.0
 11
104.985646
 21
142.238102
 31
0.0
  0
LINE
  5
2D3
100
AcDbEntity
  8
0
  6
HIDDEN
 62
   174
100
AcDbLine
 10
90.485646
 20
120.796999
 30
0.0
 11
90.485646
 21
119.727617
 31
0.0
  0
LINE
  5
2D4
100
AcDbEntity
  8
0
  6
HIDDEN
 62
   174
100
AcDbLine
 10
110.485646
 20
119.727617
 30
0.0
 11
110.485646
 21
118.04183
 31
0.0
  0
LINE
  5
2D5
100
AcDbEntity
  8
0
  6
HIDDEN
 62
   174
100
AcDbLine
 10
89.985646
 20
122.410312
 30
0.0
 11
89.985646
 21
121.582389
 31
0.0
  0
LINE
  5
2D6
100
AcDbEntity
  8
0
  6
Continuous
 62
   174
100
AcDbLine
 10
90.485646
 20
120.796999
 30
0.0
 11
90.485646
 21
119.727617
 31
0.0
  0
LINE
  5
2D7
100
AcDbEntity
  8
0
  6
HIDDEN
 62
   174
100
AcDbLine
 10
104.985646
 20
147.263017
 30
0.0
 11
104.985646
 21
147.261214
 31
0.0
  0
LINE
  5
2D8
100
AcDbEntity
  8
0
  6
Continuous
 62
   174
100
AcDbLine
 10
96.585646
 20
160.664492
 30
0.0
 11
96.585646
 21
161.255693
 31
0.0
  0
LINE
  5
2D9
100
AcDbEntity
  8
0
  6
HIDDEN
 62
   174
100
AcDbLine
 10
90.485646
 20
119.727617
 30
0.0
 11
90.485646
 21
118.04183
 31
0.0
  0
LINE
  5
2DA
100
AcDbEntity
  8
0
  6
Continuous
 62
   174
100
AcDbLine
 10
99.278941
 20
115.832138
 30
0.0
 11
96.511288
 21
115.832138
 31
0.0
  0
ARC
  5
2DB
100
AcDbEntity
  8
0
  6
HIDDEN
 62
   174
100
AcDbCircle
 10
100.485646
 20
52.666987
 30
0.0
 40
10.0
100
AcDbArc
 50
0.0
 51
180.0
  0
LINE
  5
2DC
100
AcDbEntity
  8
0
  6
Continuous
 62
   174
100
AcDbLine
 10
108.085646
 20
125.88963
 30
0.0
 11
108.085646
 21
140.566034
 31
0.0
  0
LINE
  5
2DD
100
AcDbEntity
  8
0
  6
Continuous
 62
   174
100
AcDbLine
 10
95.485646
 20
118.307038
 30
0.0
 11
95.485646
 21
124.318674
 31
0.0
  0
LINE
  5
2DE
100
AcDbEntity
  8
0
  6
HIDDEN
 62
   174
100
AcDbLine
 10
107.485646
 20
150.014148
 30
0.0
 11
107.485646
 21
149.261026
 31
0.0
  0
LINE
  5
2DF
100
AcDbEntity
  8
0
  6
Continuous
 62
   174
100
AcDbLine
 10
108.085646
 20
110.266987
 30
0.0
 11
110.485646
 21
110.266987
 31
0.0
  0
LINE
  5
2E0
100
AcDbEntity
  8
0
  6
Continuous
 62
   174
100
AcDbLine
 10
110.485646
 20
119.727617
 30
0.0
 11
110.485646
 21
118.04183
 31
0.0
  0
LWPOLYLINE
  5
2E1
100
AcDbEntity
  8
0
  6
Continuous
 62
   174
100
AcDbPolyline
 90
        4
 70
   128
 10
92.485646
 20
119.460228
 10
91.485646
 20
119.723887
 10
90.753595
 20
120.444217
 10
90.485646
 20
121.428206
  0
LINE
  5
2E2
100
AcDbEntity
  8
0
  6
HIDDEN
 62
   174
100
AcDbLine
 10
100.511212
 20
115.832138
 30
0.0
 11
96.511288
 21
115.832138
 31
0.0
  0
LINE
  5
2E3
100
AcDbEntity
  8
0
  6
HIDDEN
 62
   174
100
AcDbLine
 10
110.485646
 20
119.727617
 30
0.0
 11
108.085646
 21
119.727617
 31
0.0
  0
LINE
  5
2E4
100
AcDbEntity
  8
0
  6
HIDDEN
 62
   174
100
AcDbLine
 10
110.985646
 20
121.582389
 30
0.0
 11
110.985646
 21
122.410312
 31
0.0
  0
LINE
  5
2E5
100
AcDbEntity
  8
0
  6
HIDDEN
 62
   174
100
AcDbLine
 10
95.485646
 20
121.821801
 30
0.0
 11
93.485646
 21
121.821801
 31
0.0
  0
LINE
  5
2E6
100
AcDbEntity
  8
0
  6
Continuous
 62
   174
100
AcDbLine
 10
105.485646
 20
121.32108
 30
0.0
 11
105.485646
 21
122.141252
 31
0.0
  0
LINE
  5
2E7
100
AcDbEntity
  8
0
  6
HIDDEN
 62
   174
100
AcDbLine
 10
110.485646
 20
121.428206
 30
0.0
 11
110.485646
 21
120.796999
 31
0.0
  0
LINE
  5
2E8
100
AcDbEntity
  8
0
  6
HIDDEN
 62
   174
100
AcDbLine
 10
110.485646
 20
132.028756
 30
0.0
 11
110.485646
 21
131.89898
 31
0.0
  0
LINE
  5
2E9
100
AcDbEntity
  8
0
  6
Continuous
 62
   174
100
AcDbLine
 10
85.485646
 20
39.666987
 30
0.0
 11
115.485646
 21
39.666987
 31
0.0
  0
LINE
  5
2EA
100
AcDbEntity
  8
0
  6
Continuous
 62
   174
100
AcDbLine
 10
104.985646
 20
141.820523
 30
0.0
 11
104.385646
 21
141.220523
 31
0.0
  0
LINE
  5
2EB
100
AcDbEntity
  8
0
  6
Continuous
 62
   174
100
AcDbLine
 10
104.385646
 20
160.664492
 30
0.0
 11
104.385646
 21
161.255693
 31
0.0
  0
LINE
  5
2EC
100
AcDbEntity
  8
0
  6
HIDDEN
 62
   174
100
AcDbLine
 10
110.485646
 20
122.709517
 30
0.0
 11
110.485646
 21
121.033845
 31
0.0
  0
LINE
  5
2ED
100
AcDbEntity
  8
0
  6
Continuous
 62
   174
100
AcDbLine
 10
107.485646
 20
123.226982
 30
0.0
 11
107.485646
 21
123.317884
 31
0.0
  0
LINE
  5
2EE
100
AcDbEntity
  8
0
  6
HIDDEN
 62
   174
100
AcDbLine
 10
107.485646
 20
135.524735
 30
0.0
 11
105.485646
 21
135.524735
 31
0.0
  0
LINE
  5
2EF
100
AcDbEntity
  8
0
  6
HIDDEN
 62
   174
100
AcDbLine
 10
85.485646
 20
99.166987
 30
0.0
 11
93.885646
 21
99.166987
 31
0.0
  0
LINE
  5
2F0
100
AcDbEntity
  8
0
  6
Continuous
 62
   174
100
AcDbLine
 10
108.085646
 20
122.141252
 30
0.0
 11
108.085646
 21
121.821801
 31
0.0
  0
LINE
  5
2F1
100
AcDbEntity
  8
0
  6
Continuous
 62
   174
100
AcDbLine
 10
93.485646
 20
153.296099
 30
0.0
 11
93.485646
 21
152.686572
 31
0.0
  0
LINE
  5
2F2
100
AcDbEntity
  8
0
  6
HIDDEN
 62
   174
100
AcDbLine
 10
107.485646
 20
153.220523
 30
0.0
 11
105.485646
 21
153.220523
 31
0.0
  0
LINE
  5
2F3
100
AcDbEntity
  8
0
  6
HIDDEN
 62
   174
100
AcDbLine
 10
95.485646
 20
153.220523
 30
0.0
 11
93.485646
 21
153.220523
 31
0.0
  0
LINE
  5
2F4
100
AcDbEntity
  8
0
  6
Continuous
 62
   174
100
AcDbLine
 10
104.385646
 20
141.261778
 30
0.0
 11
104.385646
 21
141.66162
 31
0.0
  0
LINE
  5
2F5
100
AcDbEntity
  8
0
  6
Continuous
 62
   174
100
AcDbLine
 10
89.985646
 20
123.226982
 30
0.0
 11
89.985646
 21
121.428206
 31
0.0
  0
LINE
  5
2F6
100
AcDbEntity
  8
0
  6
Continuous
 62
   174
100
AcDbLine
 10
110.985646
 20
123.226982
 30
0.0
 11
110.985646
 21
121.428206
 31
0.0
  0
LINE
  5
2F7
100
AcDbEntity
  8
0
  6
Continuous
 62
   174
100
AcDbLine
 10
90.485646
 20
119.727617
 30
0.0
 11
90.485646
 21
118.04183
 31
0.0
  0
LINE
  5
2F8
100
AcDbEntity
  8
0
  6
Continuous
 62
   174
100
AcDbLine
 10
95.485646
 20
141.822599
 30
0.0
 11
95.485646
 21
124.318674
 31
0.0
  0
LINE
  5
2F9
100
AcDbEntity
  8
0
  6
Continuous
 62
   174
100
AcDbLine
 10
92.885646
 20
125.88963
 30
0.0
 11
92.885646
 21
140.566034
 31
0.0
  0
LINE
  5
2FA
100
AcDbEntity
  8
0
  6
HIDDEN
 62
   174
100
AcDbLine
 10
92.885646
 20
132.03176
 30
0.0
 11
92.885646
 21
135.566354
 31
0.0
  0
LINE
  5
2FB
100
AcDbEntity
  8
0
  6
Continuous
 62
   174
100
AcDbLine
 10
92.485646
 20
118.307038
 30
0.0
 11
92.485646
 21
116.073852
 31
0.0
  0
LINE
  5
2FC
100
AcDbEntity
  8
0
  6
HIDDEN
 62
   174
100
AcDbLine
 10
90.485646
 20
131.89898
 30
0.0
 11
90.485646
 21
129.566617
 31
0.0
  0
LINE
  5
2FD
100
AcDbEntity
  8
0
  6
Continuous
 62
   174
100
AcDbLine
 10
95.985646
 20
153.89421
 30
0.0
 11
95.985646
 21
158.703732
 31
0.0
  0
LINE
  5
2FE
100
AcDbEntity
  8
0
  6
HIDDEN
 62
   174
100
AcDbLine
 10
96.485646
 20
110.266987
 30
0.0
 11
104.485646
 21
110.266987
 31
0.0
  0
LINE
  5
2FF
100
AcDbEntity
  8
0
  6
Continuous
 62
   174
100
AcDbLine
 10
110.485646
 20
110.266987
 30
0.0
 11
110.985646
 21
110.266987
 31
0.0
  0
LINE
  5
300
100
AcDbEntity
  8
0
  6
Continuous
 62
   174
100
AcDbLine
 10
110.485646
 20
129.505634
 30
0.0
 11
110.485646
 21
132.032361
 31
0.0
  0
LINE
  5
301
100
AcDbEntity
  8
0
  6
HIDDEN
 62
   174
100
AcDbLine
 10
108.085646
 20
132.03176
 30
0.0
 11
108.085646
 21
135.566354
 31
0.0
  0
LWPOLYLINE
  5
302
100
AcDbEntity
  8
0
  6
Continuous
 62
   174
100
AcDbPolyline
 90
        4
 70
   128
 10
108.485646
 20
116.073852
 10
109.485646
 20
116.337511
 10
110.217697
 20
117.057841
 10
110.485646
 20
118.04183
  0
LINE
  5
303
100
AcDbEntity
  8
0
  6
HIDDEN
 62
   174
100
AcDbLine
 10
104.985646
 20
155.260763
 30
0.0
 11
104.985646
 21
153.293996
 31
0.0
  0
LINE
  5
304
100
AcDbEntity
  8
0
  6
Continuous
 62
   174
100
AcDbLine
 10
92.885646
 20
124.652825
 30
0.0
 11
92.885646
 21
124.318674
 31
0.0
  0
LINE
  5
305
100
AcDbEntity
  8
0
  6
HIDDEN
 62
   174
100
AcDbLine
 10
105.485646
 20
129.566617
 30
0.0
 11
105.485646
 21
132.03176
 31
0.0
  0
LINE
  5
306
100
AcDbEntity
  8
0
  6
HIDDEN
 62
   174
100
AcDbLine
 10
90.485646
 20
116.710081
 30
0.0
 11
90.485646
 21
118.224134
 31
0.0
  0
LINE
  5
307
100
AcDbEntity
  8
0
  6
HIDDEN
 62
   174
100
AcDbLine
 10
105.485646
 20
153.220523
 30
0.0
 11
104.985646
 21
153.220523
 31
0.0
  0
LINE
  5
308
100
AcDbEntity
  8
0
  6
Continuous
 62
   174
100
AcDbLine
 10
104.985646
 20
160.620523
 30
0.0
 11
104.385646
 21
161.220523
 31
0.0
  0
LINE
  5
309
100
AcDbEntity
  8
0
  6
Continuous
 62
   174
100
AcDbLine
 10
100.511212
 20
115.832138
 30
0.0
 11
99.278941
 21
115.832138
 31
0.0
  0
LINE
  5
30A
100
AcDbEntity
  8
0
  6
HIDDEN
 62
   174
100
AcDbLine
 10
110.985646
 20
122.666987
 30
0.0
 11
115.485646
 21
122.666987
 31
0.0
  0
LINE
  5
30B
100
AcDbEntity
  8
0
  6
HIDDEN
 62
   174
100
AcDbLine
 10
92.885646
 20
119.174924
 30
0.0
 11
92.885646
 21
122.709517
 31
0.0
  0
LINE
  5
30C
100
AcDbEntity
  8
0
  6
Continuous
 62
   174
100
AcDbLine
 10
105.485646
 20
122.141252
 30
0.0
 11
105.485646
 21
123.317884
 31
0.0
  0
LINE
  5
30D
100
AcDbEntity
  8
0
  6
Continuous
 62
   174
100
AcDbLine
 10
107.485646
 20
123.317884
 30
0.0
 11
107.485646
 21
124.318674
 31
0.0
  0
LINE
  5
30E
100
AcDbEntity
  8
0
  6
Continuous
 62
   174
100
AcDbLine
 10
96.585646
 20
159.109282
 30
0.0
 11
96.585646
 21
160.664492
 31
0.0
  0
ARC
  5
30F
100
AcDbEntity
  8
0
  6
Continuous
 62
   174
100
AcDbCircle
 10
100.485646
 20
106.666987
 30
0.0
 40
10.0
100
AcDbArc
 50
90.0
 51
113.578178
  0
LINE
  5
310
100
AcDbEntity
  8
0
  6
HIDDEN
 62
   174
100
AcDbLine
 10
104.511437
 20
115.832138
 30
0.0
 11
100.511212
 21
115.832138
 31
0.0
  0
LINE
  5
311
100
AcDbEntity
  8
0
  6
HIDDEN
 62
   174
100
AcDbLine
 10
110.485646
 20
120.796999
 30
0.0
 11
110.485646
 21
119.727617
 31
0.0
  0
LINE
  5
312
100
AcDbEntity
  8
0
  6
HIDDEN
 62
   174
100
AcDbLine
 10
110.985646
 20
122.410312
 30
0.0
 11
110.985646
 21
122.709517
 31
0.0
  0
LINE
  5
313
100
AcDbEntity
  8
0
  6
HIDDEN
 62
   174
100
AcDbLine
 10
89.985646
 20
121.582389
 30
0.0
 11
89.985646
 21
120.377755
 31
0.0
  0
LINE
  5
314
100
AcDbEntity
  8
0
  6
HIDDEN
 62
   174
100
AcDbLine
 10
95.485646
 20
135.524735
 30
0.0
 11
93.485646
 21
135.524735
 31
0.0
  0
LINE
  5
315
100
AcDbEntity
  8
0
  6
HIDDEN
 62
   174
100
AcDbLine
 10
107.485646
 20
149.220523
 30
0.0
 11
105.485646
 21
149.220523
 31
0.0
  0
LINE
  5
316
100
AcDbEntity
  8
0
  6
HIDDEN
 62
   174
100
AcDbLine
 10
90.485646
 20
110.266987
 30
0.0
 11
90.485646
 21
110.168845
 31
0.0
  0
LINE
  5
317
100
AcDbEntity
  8
0
  6
Continuous
 62
   174
100
AcDbLine
 10
90.485646
 20
124.652825
 30
0.0
 11
90.485646
 21
123.226982
 31
0.0
  0
LINE
  5
318
100
AcDbEntity
  8
0
  6
Continuous
 62
   174
100
AcDbLine
 10
89.985646
 20
121.428206
 30
0.0
 11
89.985646
 21
120.796999
 31
0.0
  0
LINE
  5
319
100
AcDbEntity
  8
0
  6
Continuous
 62
   174
100
AcDbLine
 10
110.985646
 20
121.428206
 30
0.0
 11
110.985646
 21
120.796999
 31
0.0
  0
LINE
  5
31A
100
AcDbEntity
  8
0
  6
Continuous
 62
   174
100
AcDbLine
 10
110.485646
 20
135.587983
 30
0.0
 11
110.485646
 21
140.566034
 31
0.0
  0
LINE
  5
31B
100
AcDbEntity
  8
0
  6
Continuous
 62
   174
100
AcDbLine
 10
105.485646
 20
159.260387
 30
0.0
 11
105.485646
 21
155.057988
 31
0.0
  0
LINE
  5
31C
100
AcDbEntity
  8
0
  6
Continuous
 62
   174
100
AcDbLine
 10
95.485646
 20
155.262566
 30
0.0
 11
95.485646
 21
152.686572
 31
0.0
  0
LINE
  5
31D
100
AcDbEntity
  8
0
  6
HIDDEN
 62
   174
100
AcDbLine
 10
92.885646
 20
119.727617
 30
0.0
 11
90.485646
 21
119.727617
 31
0.0
  0
LINE
  5
31E
100
AcDbEntity
  8
0
  6
Continuous
 62
   174
100
AcDbLine
 10
104.385646
 20
159.109282
 30
0.0
 11
104.385646
 21
160.664492
 31
0.0
  0
LINE
  5
31F
100
AcDbEntity
  8
0
  6
Continuous
 62
   174
100
AcDbLine
 10
93.485646
 20
118.307038
 30
0.0
 11
93.485646
 21
121.821801
 31
0.0
  0
ARC
  5
320
100
AcDbEntity
  8
0
  6
Continuous
 62
   174
100
AcDbCircle
 10
100.485646
 20
52.666987
 30
0.0
 40
10.0
100
AcDbArc
 50
-90.0
 51
90.0
  0
LINE
  5
321
100
AcDbEntity
  8
0
  6
Continuous
 62
   174
100
AcDbLine
 10
110.485646
 20
124.652825
 30
0.0
 11
108.085646
 21
124.652825
 31
0.0
  0
LINE
  5
322
100
AcDbEntity
  8
0
  6
HIDDEN
 62
   174
100
AcDbLine
 10
85.485646
 20
116.666987
 30
0.0
 11
89.985646
 21
116.666987
 31
0.0
  0
LINE
  5
323
100
AcDbEntity
  8
0
  6
HIDDEN
 62
   174
100
AcDbLine
 10
90.485646
 20
129.566617
 30
0.0
 11
90.485646
 21
132.03176
 31
0.0
  0
LINE
  5
324
100
AcDbEntity
  8
0
  6
Continuous
 62
   174
100
AcDbLine
 10
110.985646
 20
127.666987
 30
0.0
 11
115.485646
 21
127.666987
 31
0.0
  0
LINE
  5
325
100
AcDbEntity
  8
0
  6
HIDDEN
 62
   174
100
AcDbLine
 10
110.485646
 20
135.566354
 30
0.0
 11
110.485646
 21
132.028756
 31
0.0
  0
LINE
  5
326
100
AcDbEntity
  8
0
  6
HIDDEN
 62
   174
100
AcDbLine
 10
104.985646
 20
153.220523
 30
0.0
 11
95.985646
 21
153.220523
 31
0.0
  0
LINE
  5
327
100
AcDbEntity
  8
0
  6
Continuous
 62
   174
100
AcDbLine
 10
95.985646
 20
141.820523
 30
0.0
 11
96.585646
 21
141.220523
 31
0.0
  0
LINE
  5
328
100
AcDbEntity
  8
0
  6
Continuous
 62
   174
100
AcDbLine
 10
85.485646
 20
127.666987
 30
0.0
 11
85.485646
 21
108.666987
 31
0.0
  0
LINE
  5
329
100
AcDbEntity
  8
0
  6
HIDDEN
 62
   174
100
AcDbLine
 10
93.885646
 20
99.211349
 30
0.0
 11
93.885646
 21
84.212308
 31
0.0
  0
LINE
  5
32A
100
AcDbEntity
  8
0
  6
Continuous
 62
   174
100
AcDbLine
 10
104.385646
 20
161.255693
 30
0.0
 11
104.385646
 21
161.2602
 31
0.0
  0
LINE
  5
32B
100
AcDbEntity
  8
0
  6
Continuous
 62
   174
100
AcDbLine
 10
104.985646
 20
158.703732
 30
0.0
 11
104.985646
 21
160.108137
 31
0.0
  0
LINE
  5
32C
100
AcDbEntity
  8
0
  6
Continuous
 62
   174
100
AcDbLine
 10
110.485646
 20
113.036493
 30
0.0
 11
108.085646
 21
113.036493
 31
0.0
  0
LINE
  5
32D
100
AcDbEntity
  8
0
  6
Continuous
 62
   174
100
AcDbLine
 10
105.485646
 20
123.317884
 30
0.0
 11
105.485646
 21
124.318674
 31
0.0
  0
LINE
  5
32E
100
AcDbEntity
  8
0
  6
Continuous
 62
   174
100
AcDbLine
 10
107.485646
 20
153.290091
 30
0.0
 11
107.485646
 21
152.686572
 31
0.0
  0
LINE
  5
32F
100
AcDbEntity
  8
0
  6
HIDDEN
 62
   174
100
AcDbLine
 10
104.985646
 20
153.293996
 30
0.0
 11
104.985646
 21
149.222574
 31
0.0
  0
LINE
  5
330
100
AcDbEntity
  8
0
  6
Continuous
 62
   174
100
AcDbLine
 10
95.985646
 20
150.976653
 30
0.0
 11
95.985646
 21
153.89421
 31
0.0
  0
LINE
  5
331
100
AcDbEntity
  8
0
  6
HIDDEN
 62
   174
100
AcDbLine
 10
107.485646
 20
135.566354
 30
0.0
 11
107.485646
 21
132.03176
 31
0.0
  0
LINE
  5
332
100
AcDbEntity
  8
0
  6
HIDDEN
 62
   174
100
AcDbLine
 10
92.885646
 20
135.524735
 30
0.0
 11
90.485646
 21
135.524735
 31
0.0
  0
LINE
  5
333
100
AcDbEntity
  8
0
  6
HIDDEN
 62
   174
100
AcDbLine
 10
105.485646
 20
149.220523
 30
0.0
 11
104.985646
 21
149.220523
 31
0.0
  0
LINE
  5
334
100
AcDbEntity
  8
0
  6
Continuous
 62
   174
100
AcDbLine
 10
89.985646
 20
120.796999
 30
0.0
 11
89.985646
 21
119.727617
 31
0.0
  0
LINE
  5
335
100
AcDbEntity
  8
0
  6
Continuous
 62
   174
100
AcDbLine
 10
110.985646
 20
120.796999
 30
0.0
 11
110.985646
 21
119.727617
 31
0.0
  0
LINE
  5
336
100
AcDbEntity
  8
0
  6
Continuous
 62
   174
100
AcDbLine
 10
110.485646
 20
124.69521
 30
0.0
 11
110.485646
 21
129.505634
 31
0.0
  0
LINE
  5
337
100
AcDbEntity
  8
0
  6
Continuous
 62
   174
100
AcDbLine
 10
93.485646
 20
154.112906
 30
0.0
 11
93.485646
 21
153.296099
 31
0.0
  0
LINE
  5
338
100
AcDbEntity
  8
0
  6
HIDDEN
 62
   174
100
AcDbLine
 10
92.885646
 20
121.821801
 30
0.0
 11
92.885646
 21
118.435425
 31
0.0
  0
LINE
  5
339
100
AcDbEntity
  8
0
  6
HIDDEN
 62
   174
100
AcDbLine
 10
92.885646
 20
110.266987
 30
0.0
 11
92.885646
 21
110.168845
 31
0.0
  0
LINE
  5
33A
100
AcDbEntity
  8
0
  6
Continuous
 62
   174
100
AcDbLine
 10
92.885646
 20
124.69521
 30
0.0
 11
92.885646
 21
125.88963
 31
0.0
  0
LINE
  5
33B
100
AcDbEntity
  8
0
  6
HIDDEN
 62
   174
100
AcDbLine
 10
93.885646
 20
87.212176
 30
0.0
 11
93.885646
 21
96.211481
 31
0.0
  0
LINE
  5
33C
100
AcDbEntity
  8
0
  6
HIDDEN
 62
   174
100
AcDbLine
 10
104.511437
 20
108.666987
 30
0.0
 11
96.511288
 21
108.666987
 31
0.0
  0
LINE
  5
33D
100
AcDbEntity
  8
0
  6
HIDDEN
 62
   174
100
AcDbLine
 10
107.485646
 20
151.706042
 30
0.0
 11
107.485646
 21
150.014148
 31
0.0
  0
LINE
  5
33E
100
AcDbEntity
  8
0
  6
HIDDEN
 62
   174
100
AcDbLine
 10
104.385646
 20
141.261778
 30
0.0
 11
104.385646
 21
141.266284
 31
0.0
  0
LINE
  5
33F
100
AcDbEntity
  8
0
  6
Continuous
 62
   174
100
AcDbLine
 10
96.585646
 20
153.998752
 30
0.0
 11
96.585646
 21
159.109282
 31
0.0
  0
LINE
  5
340
100
AcDbEntity
  8
0
  6
Continuous
 62
   174
100
AcDbLine
 10
101.743784
 20
115.832138
 30
0.0
 11
100.511212
 21
115.832138
 31
0.0
  0
LINE
  5
341
100
AcDbEntity
  8
0
  6
HIDDEN
 62
   174
100
AcDbLine
 10
85.485646
 20
122.666987
 30
0.0
 11
89.985646
 21
122.666987
 31
0.0
  0
LINE
  5
342
100
AcDbEntity
  8
0
  6
HIDDEN
 62
   174
100
AcDbLine
 10
89.985646
 20
120.377755
 30
0.0
 11
89.985646
 21
119.041843
 31
0.0
  0
LINE
  5
343
100
AcDbEntity
  8
0
  6
HIDDEN
 62
   174
100
AcDbLine
 10
90.485646
 20
118.224134
 30
0.0
 11
90.485646
 21
119.174924
 31
0.0
  0
LINE
  5
344
100
AcDbEntity
  8
0
  6
HIDDEN
 62
   174
100
AcDbLine
 10
90.485646
 20
132.028756
 30
0.0
 11
90.485646
 21
131.89898
 31
0.0
  0
LINE
  5
345
100
AcDbEntity
  8
0
  6
HIDDEN
 62
   174
100
AcDbLine
 10
95.985646
 20
153.220523
 30
0.0
 11
95.485646
 21
153.220523
 31
0.0
  0
LINE
  5
346
100
AcDbEntity
  8
0
  6
HIDDEN
 62
   174
100
AcDbLine
 10
95.485646
 20
132.03176
 30
0.0
 11
95.485646
 21
129.566617
 31
0.0
  0
LINE
  5
347
100
AcDbEntity
  8
0
  6
HIDDEN
 62
   174
100
AcDbLine
 10
110.985646
 20
122.666987
 30
0.0
 11
115.485646
 21
122.666987
 31
0.0
  0
LINE
  5
348
100
AcDbEntity
  8
0
  6
Continuous
 62
   174
100
AcDbLine
 10
110.485646
 20
124.652825
 30
0.0
 11
110.485646
 21
123.226982
 31
0.0
  0
LINE
  5
349
100
AcDbEntity
  8
0
  6
HIDDEN
 62
   174
100
AcDbLine
 10
108.085646
 20
129.566617
 30
0.0
 11
108.085646
 21
132.03176
 31
0.0
  0
LINE
  5
34A
100
AcDbEntity
  8
0
  6
Continuous
 62
   174
100
AcDbLine
 10
105.485646
 20
159.220523
 30
0.0
 11
107.485646
 21
159.220523
 31
0.0
  0
LINE
  5
34B
100
AcDbEntity
  8
0
  6
HIDDEN
 62
   174
100
AcDbLine
 10
108.085646
 20
118.435425
 30
0.0
 11
108.085646
 21
121.821801
 31
0.0
  0
LINE
  5
34C
100
AcDbEntity
  8
0
  6
Continuous
 62
   174
100
AcDbLine
 10
90.485646
 20
123.226982
 30
0.0
 11
90.485646
 21
121.428206
 31
0.0
  0
LINE
  5
34D
100
AcDbEntity
  8
0
  6
Continuous
 62
   174
100
AcDbLine
 10
104.385646
 20
153.998752
 30
0.0
 11
104.385646
 21
159.109282
 31
0.0
  0
LINE
  5
34E
100
AcDbEntity
  8
0
  6
HIDDEN
 62
   174
100
AcDbLine
 10
92.885646
 20
116.710081
 30
0.0
 11
92.885646
 21
119.174924
 31
0.0
  0
LINE
  5
34F
100
AcDbEntity
  8
0
  6
Continuous
 62
   174
100
AcDbLine
 10
93.485646
 20
121.821801
 30
0.0
 11
93.485646
 21
123.226982
 31
0.0
  0
LINE
  5
350
100
AcDbEntity
  8
0
  6
HIDDEN
 62
   174
100
AcDbLine
 10
90.485646
 20
121.428206
 30
0.0
 11
90.485646
 21
120.796999
 31
0.0
  0
LINE
  5
351
100
AcDbEntity
  8
0
  6
Continuous
 62
   174
100
AcDbLine
 10
107.485646
 20
152.646365
 30
0.0
 11
107.485646
 21
140.524904
 31
0.0
  0
LINE
  5
352
100
AcDbEntity
  8
0
  6
HIDDEN
 62
   174
100
AcDbLine
 10
110.485646
 20
129.524735
 30
0.0
 11
108.085646
 21
129.524735
 31
0.0
  0
LINE
  5
353
100
AcDbEntity
  8
0
  6
HIDDEN
 62
   174
100
AcDbLine
 10
104.985646
 20
149.220523
 30
0.0
 11
95.985646
 21
149.220523
 31
0.0
  0
LINE
  5
354
100
AcDbEntity
  8
0
  6
HIDDEN
 62
   174
100
AcDbLine
 10
85.485646
 20
84.166987
 30
0.0
 11
93.885646
 21
84.166987
 31
0.0
  0
LINE
  5
355
100
AcDbEntity
  8
0
  6
Continuous
 62
   174
100
AcDbLine
 10
89.985646
 20
119.727617
 30
0.0
 11
89.985646
 21
118.04183
 31
0.0
  0
LINE
  5
356
100
AcDbEntity
  8
0
  6
Continuous
 62
   174
100
AcDbLine
 10
110.985646
 20
119.727617
 30
0.0
 11
110.985646
 21
118.04183
 31
0.0
  0
LINE
  5
357
100
AcDbEntity
  8
0
  6
HIDDEN
 62
   174
100
AcDbLine
 10
110.985646
 20
116.666987
 30
0.0
 11
115.485646
 21
116.666987
 31
0.0
  0
LINE
  5
358
100
AcDbEntity
  8
0
  6
HIDDEN
 62
   174
100
AcDbLine
 10
92.885646
 20
129.566617
 30
0.0
 11
92.885646
 21
132.03176
 31
0.0
  0
LINE
  5
359
100
AcDbEntity
  8
0
  6
HIDDEN
 62
   174
100
AcDbLine
 10
104.485646
 20
116.073852
 30
0.0
 11
103.327525
 21
116.073852
 31
0.0
  0
LWPOLYLINE
  5
35A
100
AcDbEntity
  8
0
  6
Continuous
 62
   174
100
AcDbPolyline
 90
        4
 70
   128
 10
110.485646
 20
121.428206
 10
110.217697
 20
120.444217
 10
109.485646
 20
119.723887
 10
108.485646
 20
119.460228
  0
LINE
  5
35B
100
AcDbEntity
  8
0
  6
HIDDEN
 62
   174
100
AcDbLine
 10
104.985646
 20
149.222574
 30
0.0
 11
104.985646
 21
147.263017
 31
0.0
  0
LINE
  5
35C
100
AcDbEntity
  8
0
  6
Continuous
 62
   174
100
AcDbLine
 10
96.585646
 20
161.255693
 30
0.0
 11
96.585646
 21
161.2602
 31
0.0
  0
LINE
  5
35D
100
AcDbEntity
  8
0
  6
HIDDEN
 62
   174
100
AcDbLine
 10
107.485646
 20
132.03176
 30
0.0
 11
107.485646
 21
129.566617
 31
0.0
  0
LINE
  5
35E
100
AcDbEntity
  8
0
  6
Continuous
 62
   174
100
AcDbLine
 10
110.485646
 20
135.361476
 30
0.0
 11
110.485646
 21
135.587983
 31
0.0
  0
LINE
  5
35F
100
AcDbEntity
  8
0
  6
Continuous
 62
   174
100
AcDbLine
 10
104.485646
 20
108.666987
 30
0.0
 11
104.485646
 21
115.832138
 31
0.0
  0
ARC
  5
360
100
AcDbEntity
  8
0
  6
HIDDEN
 62
   174
100
AcDbCircle
 10
100.485646
 20
52.666987
 30
0.0
 40
10.0
100
AcDbArc
 50
-180.0
 51
0.0
  0
LINE
  5
361
100
AcDbEntity
  8
0
  6
Continuous
 62
   174
100
AcDbLine
 10
108.085646
 20
124.69521
 30
0.0
 11
108.085646
 21
125.88963
 31
0.0
  0
LINE
  5
362
100
AcDbEntity
  8
0
  6
Continuous
 62
   174
100
AcDbLine
 10
115.485646
 20
39.666987
 30
0.0
 11
115.485646
 21
108.666987
 31
0.0
  0
LINE
  5
363
100
AcDbEntity
  8
0
  6
Continuous
 62
   174
100
AcDbLine
 10
104.985646
 20
153.89421
 30
0.0
 11
104.985646
 21
158.703732
 31
0.0
  0
LINE
  5
364
100
AcDbEntity
  8
0
  6
HIDDEN
 62
   174
100
AcDbLine
 10
95.485646
 20
153.220523
 30
0.0
 11
93.485646
 21
153.220523
 31
0.0
  0
LINE
  5
365
100
AcDbEntity
  8
0
  6
Continuous
 62
   174
100
AcDbLine
 10
95.985646
 20
148.086734
 30
0.0
 11
95.985646
 21
150.976653
 31
0.0
  0
LINE
  5
366
100
AcDbEntity
  8
0
  6
Continuous
 62
   174
100
AcDbLine
 10
110.485646
 20
140.524735
 30
0.0
 11
108.085646
 21
140.524735
 31
0.0
  0
LINE
  5
367
100
AcDbEntity
  8
0
  6
HIDDEN
 62
   174
100
AcDbLine
 10
105.485646
 20
121.36219
 30
0.0
 11
105.485646
 21
122.183805
 31
0.0
  0
LINE
  5
368
100
AcDbEntity
  8
0
  6
Continuous
 62
   174
100
AcDbLine
 10
110.485646
 20
123.226982
 30
0.0
 11
108.085646
 21
123.226982
 31
0.0
  0
LINE
  5
369
100
AcDbEntity
  8
0
  6
HIDDEN
 62
   174
100
AcDbLine
 10
85.485646
 20
99.166987
 30
0.0
 11
93.885646
 21
99.166987
 31
0.0
  0
LINE
  5
36A
100
AcDbEntity
  8
0
  6
HIDDEN
 62
   174
100
AcDbLine
 10
104.385646
 20
141.266284
 30
0.0
 11
104.385646
 21
161.2602
 31
0.0
  0
LINE
  5
36B
100
AcDbEntity
  8
0
  6
HIDDEN
 62
   174
100
AcDbLine
 10
110.485646
 20
121.033845
 30
0.0
 11
110.485646
 21
119.174924
 31
0.0
  0
ARC
  5
36C
100
AcDbEntity
  8
0
  6
Continuous
 62
   174
100
AcDbCircle
 10
100.485646
 20
52.666987
 30
0.0
 40
10.0
100
AcDbArc
 50
-270.0
 51
-90.0
  0
LINE
  5
36D
100
AcDbEntity
  8
0
  6
HIDDEN
 62
   174
100
AcDbLine
 10
92.885646
 20
110.168845
 30
0.0
 11
90.485646
 21
110.168845
 31
0.0
  0
LINE
  5
36E
100
AcDbEntity
  8
0
  6
Continuous
 62
   174
100
AcDbLine
 10
104.511437
 20
115.832138
 30
0.0
 11
101.743784
 21
115.832138
 31
0.0
  0
LINE
  5
36F
100
AcDbEntity
  8
0
  6
Continuous
 62
   174
100
AcDbLine
 10
93.485646
 20
159.260387
 30
0.0
 11
93.485646
 21
154.112906
 31
0.0
  0
LINE
  5
370
100
AcDbEntity
  8
0
  6
Continuous
 62
   174
100
AcDbLine
 10
107.485646
 20
154.098487
 30
0.0
 11
107.485646
 21
153.290091
 31
0.0
  0
ARC
  5
371
100
AcDbEntity
  8
0
  6
Continuous
 62
   174
100
AcDbCircle
 10
100.485646
 20
76.666987
 30
0.0
 40
10.0
100
AcDbArc
 50
-90.0
 51
90.0
  0
LINE
  5
372
100
AcDbEntity
  8
0
  6
HIDDEN
 62
   174
100
AcDbLine
 10
107.485646
 20
129.524735
 30
0.0
 11
105.485646
 21
129.524735
 31
0.0
  0
LINE
  5
373
100
AcDbEntity
  8
0
  6
HIDDEN
 62
   174
100
AcDbLine
 10
95.985646
 20
149.220523
 30
0.0
 11
95.485646
 21
149.220523
 31
0.0
  0
LINE
  5
374
100
AcDbEntity
  8
0
  6
Continuous
 62
   174
100
AcDbLine
 10
104.385646
 20
161.220523
 30
0.0
 11
96.585646
 21
161.220523
 31
0.0
  0
LINE
  5
375
100
AcDbEntity
  8
0
  6
Continuous
 62
   174
100
AcDbLine
 10
96.585646
 20
147.946744
 30
0.0
 11
96.585646
 21
153.998752
 31
0.0
  0
LINE
  5
376
100
AcDbEntity
  8
0
  6
Continuous
 62
   174
100
AcDbLine
 10
89.985646
 20
118.04183
 30
0.0
 11
89.985646
 21
113.036493
 31
0.0
  0
LINE
  5
377
100
AcDbEntity
  8
0
  6
Continuous
 62
   174
100
AcDbLine
 10
110.985646
 20
118.04183
 30
0.0
 11
110.985646
 21
113.036493
 31
0.0
  0
LINE
  5
378
100
AcDbEntity
  8
0
  6
Continuous
 62
   174
100
AcDbLine
 10
110.485646
 20
113.036493
 30
0.0
 11
110.485646
 21
110.266987
 31
0.0
  0
LINE
  5
379
100
AcDbEntity
  8
0
  6
HIDDEN
 62
   174
100
AcDbLine
 10
89.985646
 20
119.041843
 30
0.0
 11
89.985646
 21
117.836909
 31
0.0
  0
LINE
  5
37A
100
AcDbEntity
  8
0
  6
Continuous
 62
   174
100
AcDbLine
 10
93.485646
 20
123.226982
 30
0.0
 11
93.485646
 21
124.318674
 31
0.0
  0
LINE
  5
37B
100
AcDbEntity
  8
0
  6
HIDDEN
 62
   174
100
AcDbLine
 10
107.485646
 20
153.260951
 30
0.0
 11
107.485646
 21
151.706042
 31
0.0
  0
LINE
  5
37C
100
AcDbEntity
  8
0
  6
Continuous
 62
   174
100
AcDbLine
 10
92.885646
 20
124.318674
 30
0.0
 11
92.885646
 21
123.226982
 31
0.0
  0
LINE
  5
37D
100
AcDbEntity
  8
0
  6
HIDDEN
 62
   174
100
AcDbLine
 10
108.085646
 20
120.796999
 30
0.0
 11
108.085646
 21
119.727617
 31
0.0
  0
LINE
  5
37E
100
AcDbEntity
  8
0
  6
HIDDEN
 62
   174
100
AcDbLine
 10
90.485646
 20
135.566354
 30
0.0
 11
90.485646
 21
132.028756
 31
0.0
  0
LINE
  5
37F
100
AcDbEntity
  8
0
  6
Continuous
 62
   174
100
AcDbLine
 10
104.385646
 20
147.946744
 30
0.0
 11
104.385646
 21
153.998752
 31
0.0
  0
LINE
  5
380
100
AcDbEntity
  8
0
  6
Continuous
 62
   174
100
AcDbLine
 10
90.485646
 20
135.587983
 30
0.0
 11
90.485646
 21
140.566034
 31
0.0
  0
LINE
  5
381
100
AcDbEntity
  8
0
  6
HIDDEN
 62
   174
100
AcDbLine
 10
110.485646
 20
110.266987
 30
0.0
 11
110.485646
 21
110.168845
 31
0.0
  0
LINE
  5
382
100
AcDbEntity
  8
0
  6
Continuous
 62
   174
100
AcDbLine
 10
105.485646
 20
118.307038
 30
0.0
 11
107.485646
 21
118.307038
 31
0.0
  0
LINE
  5
383
100
AcDbEntity
  8
0
  6
HIDDEN
 62
   174
100
AcDbLine
 10
93.485646
 20
150.014148
 30
0.0
 11
93.485646
 21
149.261026
 31
0.0
  0
LINE
  5
384
100
AcDbEntity
  8
0
  6
HIDDEN
 62
   174
100
AcDbLine
 10
95.985646
 20
147.261214
 30
0.0
 11
95.985646
 21
147.263017
 31
0.0
  0
LINE
  5
385
100
AcDbEntity
  8
0
  6
Continuous
 62
   174
100
AcDbLine
 10
92.885646
 20
116.073852
 30
0.0
 11
92.885646
 21
113.036493
 31
0.0
  0
LINE
  5
386
100
AcDbEntity
  8
0
  6
HIDDEN
 62
   174
100
AcDbLine
 10
107.485646
 20
123.362002
 30
0.0
 11
107.485646
 21
122.694197
 31
0.0
  0
LINE
  5
387
100
AcDbEntity
  8
0
  6
HIDDEN
 62
   174
100
AcDbLine
 10
85.485646
 20
116.710081
 30
0.0
 11
85.485646
 21
122.709517
 31
0.0
  0
LINE
  5
388
100
AcDbEntity
  8
0
  6
Continuous
 62
   174
100
AcDbLine
 10
108.485646
 20
116.073852
 30
0.0
 11
104.485646
 21
116.073852
 31
0.0
  0
ARC
  5
389
100
AcDbEntity
  8
0
  6
HIDDEN
 62
   174
100
AcDbCircle
 10
100.485646
 20
76.666987
 30
0.0
 40
4.0
100
AcDbArc
 50
-180.0
 51
0.0
  0
LINE
  5
38A
100
AcDbEntity
  8
0
  6
HIDDEN
 62
   174
100
AcDbLine
 10
110.485646
 20
135.566354
 30
0.0
 11
110.485646
 21
132.03176
 31
0.0
  0
LINE
  5
38B
100
AcDbEntity
  8
0
  6
HIDDEN
 62
   174
100
AcDbLine
 10
103.327525
 20
116.073852
 30
0.0
 11
100.485646
 21
116.073852
 31
0.0
  0
LINE
  5
38C
100
AcDbEntity
  8
0
  6
HIDDEN
 62
   174
100
AcDbLine
 10
107.485646
 20
153.220523
 30
0.0
 11
105.485646
 21
153.220523
 31
0.0
  0
LINE
  5
38D
100
AcDbEntity
  8
0
  6
Continuous
 62
   174
100
AcDbLine
 10
115.485646
 20
127.666987
 30
0.0
 11
115.485646
 21
108.666987
 31
0.0
  0
LINE
  5
38E
100
AcDbEntity
  8
0
  6
HIDDEN
 62
   174
100
AcDbLine
 10
105.485646
 20
122.183805
 30
0.0
 11
105.485646
 21
123.362002
 31
0.0
  0
LINE
  5
38F
100
AcDbEntity
  8
0
  6
Continuous
 62
   174
100
AcDbLine
 10
95.485646
 20
159.260387
 30
0.0
 11
95.485646
 21
155.262566
 31
0.0
  0
LINE
  5
390
100
AcDbEntity
  8
0
  6
HIDDEN
 62
   174
100
AcDbLine
 10
95.485646
 20
129.524735
 30
0.0
 11
93.485646
 21
129.524735
 31
0.0
  0
LINE
  5
391
100
AcDbEntity
  8
0
  6
HIDDEN
 62
   174
100
AcDbLine
 10
95.485646
 20
149.220523
 30
0.0
 11
93.485646
 21
149.220523
 31
0.0
  0
LINE
  5
392
100
AcDbEntity
  8
0
  6
HIDDEN
 62
   174
100
AcDbLine
 10
96.585646
 20
141.266284
 30
0.0
 11
96.585646
 21
161.2602
 31
0.0
  0
LINE
  5
393
100
AcDbEntity
  8
0
  6
Continuous
 62
   174
100
AcDbLine
 10
95.985646
 20
142.238102
 30
0.0
 11
95.985646
 21
148.086734
 31
0.0
  0
LINE
  5
394
100
AcDbEntity
  8
0
  6
Continuous
 62
   174
100
AcDbLine
 10
104.985646
 20
150.976653
 30
0.0
 11
104.985646
 21
153.89421
 31
0.0
  0
LINE
  5
395
100
AcDbEntity
  8
0
  6
Continuous
 62
   174
100
AcDbLine
 10
89.985646
 20
113.036493
 30
0.0
 11
89.985646
 21
110.266987
 31
0.0
  0
LINE
  5
396
100
AcDbEntity
  8
0
  6
Continuous
 62
   174
100
AcDbLine
 10
110.985646
 20
113.036493
 30
0.0
 11
110.985646
 21
110.266987
 31
0.0
  0
LINE
  5
397
100
AcDbEntity
  8
0
  6
Continuous
 62
   174
100
AcDbLine
 10
110.485646
 20
118.04183
 30
0.0
 11
110.485646
 21
113.036493
 31
0.0
  0
LINE
  5
398
100
AcDbEntity
  8
0
  6
Continuous
 62
   174
100
AcDbLine
 10
110.485646
 20
132.032361
 30
0.0
 11
110.485646
 21
135.361476
 31
0.0
  0
LINE
  5
399
100
AcDbEntity
  8
0
  6
Continuous
 62
   174
100
AcDbLine
 10
96.485646
 20
108.666987
 30
0.0
 11
96.485646
 21
115.832138
 31
0.0
  0
ARC
  5
39A
100
AcDbEntity
  8
0
  6
HIDDEN
 62
   174
100
AcDbCircle
 10
100.485646
 20
76.666987
 30
0.0
 40
10.0
100
AcDbArc
 50
-180.0
 51
0.0
  0
LINE
  5
39B
100
AcDbEntity
  8
0
  6
Continuous
 62
   174
100
AcDbLine
 10
108.085646
 20
124.652825
 30
0.0
 11
108.085646
 21
124.318674
 31
0.0
  0
LINE
  5
39C
100
AcDbEntity
  8
0
  6
HIDDEN
 62
   174
100
AcDbLine
 10
90.485646
 20
119.174924
 30
0.0
 11
90.485646
 21
121.033845
 31
0.0
  0
LINE
  5
39D
100
AcDbEntity
  8
0
  6
Continuous
 62
   174
100
AcDbLine
 10
93.485646
 20
118.307038
 30
0.0
 11
95.485646
 21
118.307038
 31
0.0
  0
LINE
  5
39E
100
AcDbEntity
  8
0
  6
Continuous
 62
   174
100
AcDbLine
 10
107.485646
 20
159.260387
 30
0.0
 11
107.485646
 21
154.098487
 31
0.0
  0
LWPOLYLINE
  5
39F
100
AcDbEntity
  8
0
  6
Continuous
 62
   174
100
AcDbPolyline
 90
        4
 70
   128
 10
90.485646
 20
118.04183
 10
90.753595
 20
117.057841
 10
91.485646
 20
116.337511
 10
92.485646
 20
116.073852
  0
LINE
  5
3A0
100
AcDbEntity
  8
0
  6
Continuous
 62
   174
100
AcDbLine
 10
108.485646
 20
119.460228
 30
0.0
 11
108.485646
 21
116.073852
 31
0.0
  0
LINE
  5
3A1
100
AcDbEntity
  8
0
  6
Continuous
 62
   174
100
AcDbLine
 10
92.885646
 20
113.036493
 30
0.0
 11
90.485646
 21
113.036493
 31
0.0
  0
LINE
  5
3A2
100
AcDbEntity
  8
0
  6
Continuous
 62
   174
100
AcDbLine
 10
92.885646
 20
123.226982
 30
0.0
 11
90.485646
 21
123.226982
 31
0.0
  0
LINE
  5
3A3
100
AcDbEntity
  8
0
  6
HIDDEN
 62
   174
100
AcDbLine
 10
85.485646
 20
84.212308
 30
0.0
 11
85.485646
 21
99.211349
 31
0.0
  0
LINE
  5
3A4
100
AcDbEntity
  8
0
  6
HIDDEN
 62
   174
100
AcDbLine
 10
110.985646
 20
116.666987
 30
0.0
 11
115.485646
 21
116.666987
 31
0.0
  0
LINE
  5
3A5
100
AcDbEntity
  8
0
  6
HIDDEN
 62
   174
100
AcDbLine
 10
110.485646
 20
119.174924
 30
0.0
 11
110.485646
 21
118.224134
 31
0.0
  0
LINE
  5
3A6
100
AcDbEntity
  8
0
  6
Continuous
 62
   174
100
AcDbLine
 10
93.485646
 20
159.220523
 30
0.0
 11
95.485646
 21
159.220523
 31
0.0
  0
LINE
  5
3A7
100
AcDbEntity
  8
0
  6
Continuous
 62
   174
100
AcDbLine
 10
108.085646
 20
121.821801
 30
0.0
 11
107.485646
 21
121.821801
 31
0.0
  0
LINE
  5
3A8
100
AcDbEntity
  8
0
  6
Continuous
 62
   174
100
AcDbLine
 10
96.585646
 20
147.223363
 30
0.0
 11
96.585646
 21
147.946744
 31
0.0
  0
LINE
  5
3A9
100
AcDbEntity
  8
0
  6
Continuous
 62
   174
100
AcDbLine
 10
107.485646
 20
118.307038
 30
0.0
 11
107.485646
 21
121.32108
 31
0.0
  0
LINE
  5
3AA
100
AcDbEntity
  8
0
  6
HIDDEN
 62
   174
100
AcDbLine
 10
107.485646
 20
149.220523
 30
0.0
 11
105.485646
 21
149.220523
 31
0.0
  0
LINE
  5
3AB
100
AcDbEntity
  8
0
  6
HIDDEN
 62
   174
100
AcDbLine
 10
92.885646
 20
119.727617
 30
0.0
 11
92.885646
 21
116.073852
 31
0.0
  0
LINE
  5
3AC
100
AcDbEntity
  8
0
  6
Continuous
 62
   174
100
AcDbLine
 10
97.643767
 20
116.073852
 30
0.0
 11
96.485646
 21
116.073852
 31
0.0
  0
LINE
  5
3AD
100
AcDbEntity
  8
0
  6
HIDDEN
 62
   174
100
AcDbLine
 10
95.985646
 20
147.263017
 30
0.0
 11
95.985646
 21
149.222574
 31
0.0
  0
LINE
  5
3AE
100
AcDbEntity
  8
0
  6
Continuous
 62
   174
100
AcDbLine
 10
104.385646
 20
141.220523
 30
0.0
 11
96.585646
 21
141.220523
 31
0.0
  0
LINE
  5
3AF
100
AcDbEntity
  8
0
  6
HIDDEN
 62
   174
100
AcDbLine
 10
100.485646
 20
116.073852
 30
0.0
 11
97.643767
 21
116.073852
 31
0.0
  0
LINE
  5
3B0
100
AcDbEntity
  8
0
  6
HIDDEN
 62
   174
100
AcDbLine
 10
92.885646
 20
129.524735
 30
0.0
 11
90.485646
 21
129.524735
 31
0.0
  0
LINE
  5
3B1
100
AcDbEntity
  8
0
  6
Continuous
 62
   174
100
AcDbLine
 10
92.885646
 20
140.524735
 30
0.0
 11
90.485646
 21
140.524735
 31
0.0
  0
LINE
  5
3B2
100
AcDbEntity
  8
0
  6
Continuous
 62
   174
100
AcDbLine
 10
104.385646
 20
147.225165
 30
0.0
 11
104.385646
 21
147.946744
 31
0.0
  0
LINE
  5
3B3
100
AcDbEntity
  8
0
  6
HIDDEN
 62
   174
100
AcDbLine
 10
93.885646
 20
99.211349
 30
0.0
 11
93.885646
 21
84.212308
 31
0.0
  0
LINE
  5
3B4
100
AcDbEntity
  8
0
  6
Continuous
 62
   174
100
AcDbLine
 10
89.985646
 20
110.266987
 30
0.0
 11
90.485646
 21
110.266987
 31
0.0
  0
LINE
  5
3B5
100
AcDbEntity
  8
0
  6
HIDDEN
 62
   174
100
AcDbLine
 10
110.485646
 20
110.168845
 30
0.0
 11
108.085646
 21
110.168845
 31
0.0
  0
LINE
  5
3B6
100
AcDbEntity
  8
0
  6
HIDDEN
 62
   174
100
AcDbLine
 10
93.485646
 20
132.03176
 30
0.0
 11
93.485646
 21
135.566354
 31
0.0
  0
LINE
  5
3B7
100
AcDbEntity
  8
0
  6
Continuous
 62
   174
100
AcDbLine
 10
85.485646
 20
127.666987
 30
0.0
 11
89.985646
 21
127.666987
 31
0.0
  0
LINE
  5
3B8
100
AcDbEntity
  8
0
  6
HIDDEN
 62
   174
100
AcDbLine
 10
108.085646
 20
119.727617
 30
0.0
 11
108.085646
 21
116.073852
 31
0.0
  0
LINE
  5
3B9
100
AcDbEntity
  8
0
  6
HIDDEN
 62
   174
100
AcDbLine
 10
110.985646
 20
117.836909
 30
0.0
 11
110.985646
 21
119.041843
 31
0.0
  0
LINE
  5
3BA
100
AcDbEntity
  8
0
  6
Continuous
 62
   174
100
AcDbLine
 10
104.485646
 20
108.666987
 30
0.0
 11
104.485646
 21
115.832138
 31
0.0
  0
LINE
  5
3BB
100
AcDbEntity
  8
0
  6
Continuous
 62
   174
100
AcDbLine
 10
105.485646
 20
124.318674
 30
0.0
 11
107.485646
 21
124.318674
 31
0.0
  0
LINE
  5
3BC
100
AcDbEntity
  8
0
  6
HIDDEN
 62
   174
100
AcDbLine
 10
96.585646
 20
141.261778
 30
0.0
 11
96.585646
 21
141.266284
 31
0.0
  0
LINE
  5
3BD
100
AcDbEntity
  8
0
  6
Continuous
 62
   174
100
AcDbLine
 10
105.485646
 20
121.821801
 30
0.0
 11
95.485646
 21
121.821801
 31
0.0
  0
LINE
  5
3BE
100
AcDbEntity
  8
0
  6
Continuous
 62
   174
100
AcDbLine
 10
107.485646
 20
140.524904
 30
0.0
 11
107.485646
 21
124.652825
 31
0.0
  0
ARC
  5
3BF
100
AcDbEntity
  8
0
  6
HIDDEN
 62
   174
100
AcDbCircle
 10
100.485646
 20
52.666987
 30
0.0
 40
4.0
100
AcDbArc
 50
-180.0
 51
0.0
  0
ARC
  5
3C0
100
AcDbEntity
  8
0
  6
Continuous
 62
   174
100
AcDbCircle
 10
100.485646
 20
76.666987
 30
0.0
 40
10.0
100
AcDbArc
 50
-270.0
 51
-90.0
  0
LINE
  5
3C1
100
AcDbEntity
  8
0
  6
HIDDEN
 62
   174
100
AcDbLine
 10
85.485646
 20
99.166987
 30
0.0
 11
93.885646
 21
99.166987
 31
0.0
  0
LINE
  5
3C2
100
AcDbEntity
  8
0
  6
Continuous
 62
   174
100
AcDbLine
 10
104.985646
 20
160.65608
 30
0.0
 11
104.985646
 21
160.660286
 31
0.0
  0
LINE
  5
3C3
100
AcDbEntity
  8
0
  6
Continuous
 62
   174
100
AcDbLine
 10
104.985646
 20
148.086734
 30
0.0
 11
104.985646
 21
150.976653
 31
0.0
  0
LINE
  5
3C4
100
AcDbEntity
  8
0
  6
HIDDEN
 62
   174
100
AcDbLine
 10
89.985646
 20
122.709517
 30
0.0
 11
89.985646
 21
122.410312
 31
0.0
  0
ARC
  5
3C5
100
AcDbEntity
  8
0
  6
HIDDEN
 62
   174
100
AcDbCircle
 10
100.485646
 20
76.666987
 30
0.0
 40
4.0
100
AcDbArc
 50
0.0
 51
180.0
  0
LINE
  5
3C6
100
AcDbEntity
  8
0
  6
HIDDEN
 62
   174
100
AcDbLine
 10
105.485646
 20
149.220523
 30
0.0
 11
104.985646
 21
149.220523
 31
0.0
  0
LINE
  5
3C7
100
AcDbEntity
  8
0
  6
HIDDEN
 62
   174
100
AcDbLine
 10
93.485646
 20
151.706042
 30
0.0
 11
93.485646
 21
150.014148
 31
0.0
  0
LINE
  5
3C8
100
AcDbEntity
  8
0
  6
Continuous
 62
   174
100
AcDbLine
 10
85.485646
 20
39.666987
 30
0.0
 11
85.485646
 21
108.666987
 31
0.0
  0
LINE
  5
3C9
100
AcDbEntity
  8
0
  6
HIDDEN
 62
   174
100
AcDbLine
 10
93.885646
 20
87.212176
 30
0.0
 11
93.885646
 21
96.211481
 31
0.0
  0
LINE
  5
3CA
100
AcDbEntity
  8
0
  6
Continuous
 62
   174
100
AcDbLine
 10
95.985646
 20
141.861691
 30
0.0
 11
95.985646
 21
142.238102
 31
0.0
  0
LINE
  5
3CB
100
AcDbEntity
  8
0
  6
HIDDEN
 62
   174
100
AcDbLine
 10
110.985646
 20
116.710081
 30
0.0
 11
110.985646
 21
117.836909
 31
0.0
  0
LINE
  5
3CC
100
AcDbEntity
  8
0
  6
Continuous
 62
   174
100
AcDbLine
 10
108.085646
 20
124.318674
 30
0.0
 11
108.085646
 21
123.317884
 31
0.0
  0
LINE
  5
3CD
100
AcDbEntity
  8
0
  6
HIDDEN
 62
   174
100
AcDbLine
 10
108.085646
 20
116.710081
 30
0.0
 11
108.085646
 21
119.174924
 31
0.0
  0
LINE
  5
3CE
100
AcDbEntity
  8
0
  6
Continuous
 62
   174
100
AcDbLine
 10
93.485646
 20
124.318674
 30
0.0
 11
95.485646
 21
124.318674
 31
0.0
  0
LINE
  5
3CF
100
AcDbEntity
  8
0
  6
Continuous
 62
   174
100
AcDbLine
 10
93.485646
 20
152.646365
 30
0.0
 11
93.485646
 21
140.524904
 31
0.0
  0
LINE
  5
3D0
100
AcDbEntity
  8
0
  6
Continuous
 62
   174
100
AcDbLine
 10
105.485646
 20
152.646365
 30
0.0
 11
105.485646
 21
141.822599
 31
0.0
  0
LINE
  5
3D1
100
AcDbEntity
  8
0
  6
Continuous
 62
   174
100
AcDbLine
 10
96.485646
 20
116.073852
 30
0.0
 11
92.485646
 21
116.073852
 31
0.0
  0
LINE
  5
3D2
100
AcDbEntity
  8
0
  6
Continuous
 62
   174
100
AcDbLine
 10
90.485646
 20
135.361476
 30
0.0
 11
90.485646
 21
135.587983
 31
0.0
  0
LINE
  5
3D3
100
AcDbEntity
  8
0
  6
HIDDEN
 62
   174
100
AcDbLine
 10
110.485646
 20
132.03176
 30
0.0
 11
110.485646
 21
129.566617
 31
0.0
  0
LINE
  5
3D4
100
AcDbEntity
  8
0
  6
Continuous
 62
   174
100
AcDbLine
 10
108.485646
 20
119.460228
 30
0.0
 11
107.485646
 21
119.460228
 31
0.0
  0
LINE
  5
3D5
100
AcDbEntity
  8
0
  6
HIDDEN
 62
   174
100
AcDbLine
 10
110.485646
 20
135.524735
 30
0.0
 11
108.085646
 21
135.524735
 31
0.0
  0
LINE
  5
3D6
100
AcDbEntity
  8
0
  6
HIDDEN
 62
   174
100
AcDbLine
 10
85.485646
 20
84.166987
 30
0.0
 11
93.885646
 21
84.166987
 31
0.0
  0
LINE
  5
3D7
100
AcDbEntity
  8
0
  6
Continuous
 62
   174
100
AcDbLine
 10
95.985646
 20
160.108137
 30
0.0
 11
95.985646
 21
160.65608
 31
0.0
  0
LINE
  5
3D8
100
AcDbEntity
  8
0
  6
Continuous
 62
   174
100
AcDbLine
 10
90.485646
 20
110.266987
 30
0.0
 11
92.885646
 21
110.266987
 31
0.0
  0
LINE
  5
3D9
100
AcDbEntity
  8
0
  6
HIDDEN
 62
   174
100
AcDbLine
 10
89.985646
 20
117.836909
 30
0.0
 11
89.985646
 21
116.710081
 31
0.0
  0
LINE
  5
3DA
100
AcDbEntity
  8
0
  6
HIDDEN
 62
   174
100
AcDbLine
 10
110.485646
 20
118.224134
 30
0.0
 11
110.485646
 21
116.710081
 31
0.0
  0
LINE
  5
3DB
100
AcDbEntity
  8
0
  6
Continuous
 62
   174
100
AcDbLine
 10
90.485646
 20
120.796999
 30
0.0
 11
90.485646
 21
119.727617
 31
0.0
  0
LINE
  5
3DC
100
AcDbEntity
  8
0
  6
HIDDEN
 62
   174
100
AcDbLine
 10
95.485646
 20
149.220523
 30
0.0
 11
93.485646
 21
149.220523
 31
0.0
  0
LINE
  5
3DD
100
AcDbEntity
  8
0
  6
Continuous
 62
   174
100
AcDbLine
 10
92.885646
 20
124.652825
 30
0.0
 11
90.485646
 21
124.652825
 31
0.0
  0
LINE
  5
3DE
100
AcDbEntity
  8
0
  6
HIDDEN
 62
   174
100
AcDbLine
 10
95.985646
 20
149.222574
 30
0.0
 11
95.985646
 21
153.293996
 31
0.0
  0
LINE
  5
3DF
100
AcDbEntity
  8
0
  6
Continuous
 62
   174
100
AcDbLine
 10
96.585646
 20
143.052206
 30
0.0
 11
96.585646
 21
147.223363
 31
0.0
  0
ARC
  5
3E0
100
AcDbEntity
  8
0
  6
Continuous
 62
   174
100
AcDbCircle
 10
100.485646
 20
106.666987
 30
0.0
 40
10.0
100
AcDbArc
 50
-293.578178
 51
-270.0
  0
LINE
  5
3E1
100
AcDbEntity
  8
0
  6
HIDDEN
 62
   174
100
AcDbLine
 10
85.485646
 20
116.666987
 30
0.0
 11
89.985646
 21
116.666987
 31
0.0
  0
LINE
  5
3E2
100
AcDbEntity
  8
0
  6
HIDDEN
 62
   174
100
AcDbLine
 10
90.485646
 20
121.033845
 30
0.0
 11
90.485646
 21
122.709517
 31
0.0
  0
LINE
  5
3E3
100
AcDbEntity
  8
0
  6
Continuous
 62
   174
100
AcDbLine
 10
107.485646
 20
121.32108
 30
0.0
 11
107.485646
 21
121.821801
 31
0.0
  0
LINE
  5
3E4
100
AcDbEntity
  8
0
  6
HIDDEN
 62
   174
100
AcDbLine
 10
110.485646
 20
131.89898
 30
0.0
 11
110.485646
 21
129.566617
 31
0.0
  0
LINE
  5
3E5
100
AcDbEntity
  8
0
  6
HIDDEN
 62
   174
100
AcDbLine
 10
85.485646
 20
84.166987
 30
0.0
 11
93.885646
 21
84.166987
 31
0.0
  0
LINE
  5
3E6
100
AcDbEntity
  8
0
  6
HIDDEN
 62
   174
100
AcDbLine
 10
93.485646
 20
129.566617
 30
0.0
 11
93.485646
 21
132.03176
 31
0.0
  0
LINE
  5
3E7
100
AcDbEntity
  8
0
  6
Continuous
 62
   174
100
AcDbLine
 10
93.485646
 20
121.821801
 30
0.0
 11
92.885646
 21
121.821801
 31
0.0
  0
LINE
  5
3E8
100
AcDbEntity
  8
0
  6
HIDDEN
 62
   174
100
AcDbLine
 10
105.485646
 20
153.220523
 30
0.0
 11
104.985646
 21
153.220523
 31
0.0
  0
LINE
  5
3E9
100
AcDbEntity
  8
0
  6
HIDDEN
 62
   174
100
AcDbLine
 10
92.885646
 20
120.796999
 30
0.0
 11
92.885646
 21
119.727617
 31
0.0
  0
LINE
  5
3EA
100
AcDbEntity
  8
0
  6
Continuous
 62
   174
100
AcDbLine
 10
104.385646
 20
143.052206
 30
0.0
 11
104.385646
 21
147.225165
 31
0.0
  0
LINE
  5
3EB
100
AcDbEntity
  8
0
  6
Continuous
 62
   174
100
AcDbLine
 10
90.485646
 20
118.04183
 30
0.0
 11
90.485646
 21
113.036493
 31
0.0
  0
LINE
  5
3EC
100
AcDbEntity
  8
0
  6
HIDDEN
 62
   174
100
AcDbLine
 10
110.985646
 20
119.041843
 30
0.0
 11
110.985646
 21
120.377755
 31
0.0
  0
LINE
  5
3ED
100
AcDbEntity
  8
0
  6
HIDDEN
 62
   174
100
AcDbLine
 10
107.485646
 20
119.460228
 30
0.0
 11
105.485646
 21
119.460228
 31
0.0
  0
LINE
  5
3EE
100
AcDbEntity
  8
0
  6
Continuous
 62
   174
100
AcDbLine
 10
107.485646
 20
124.652825
 30
0.0
 11
107.485646
 21
124.318674
 31
0.0
  0
LINE
  5
3EF
100
AcDbEntity
  8
0
  6
HIDDEN
 62
   174
100
AcDbLine
 10
104.985646
 20
149.220523
 30
0.0
 11
95.985646
 21
149.220523
 31
0.0
  0
LINE
  5
3F0
100
AcDbEntity
  8
0
  6
HIDDEN
 62
   174
100
AcDbLine
 10
85.485646
 20
84.166987
 30
0.0
 11
93.885646
 21
84.166987
 31
0.0
  0
LINE
  5
3F1
100
AcDbEntity
  8
0
  6
Continuous
 62
   174
100
AcDbLine
 10
89.985646
 20
127.666987
 30
0.0
 11
89.985646
 21
124.652825
 31
0.0
  0
LINE
  5
3F2
100
AcDbEntity
  8
0
  6
HIDDEN
 62
   174
100
AcDbLine
 10
107.485646
 20
122.694197
 30
0.0
 11
107.485646
 21
122.183805
 31
0.0
  0
LINE
  5
3F3
100
AcDbEntity
  8
0
  6
Continuous
 62
   174
100
AcDbLine
 10
108.085646
 20
116.073852
 30
0.0
 11
108.085646
 21
113.036493
 31
0.0
  0
LINE
  5
3F4
100
AcDbEntity
  8
0
  6
Continuous
 62
   174
100
AcDbLine
 10
92.885646
 20
123.226982
 30
0.0
 11
92.885646
 21
121.821801
 31
0.0
  0
LINE
  5
3F5
100
AcDbEntity
  8
0
  6
Continuous
 62
   174
100
AcDbLine
 10
95.985646
 20
160.620523
 30
0.0
 11
96.585646
 21
161.220523
 31
0.0
  0
LINE
  5
3F6
100
AcDbEntity
  8
0
  6
Continuous
 62
   174
100
AcDbLine
 10
110.985646
 20
127.666987
 30
0.0
 11
110.985646
 21
124.652825
 31
0.0
  0
LINE
  5
3F7
100
AcDbEntity
  8
0
  6
HIDDEN
 62
   174
100
AcDbLine
 10
85.485646
 20
122.666987
 30
0.0
 11
89.985646
 21
122.666987
 31
0.0
  0
LINE
  5
3F8
100
AcDbEntity
  8
0
  6
HIDDEN
 62
   174
100
AcDbLine
 10
108.085646
 20
110.266987
 30
0.0
 11
108.085646
 21
110.168845
 31
0.0
  0
LINE
  5
3F9
100
AcDbEntity
  8
0
  6
Continuous
 62
   174
100
AcDbLine
 10
108.085646
 20
123.317884
 30
0.0
 11
108.085646
 21
123.226982
 31
0.0
  0
LINE
  5
3FA
100
AcDbEntity
  8
0
  6
HIDDEN
 62
   174
100
AcDbLine
 10
107.485646
 20
135.524735
 30
0.0
 11
105.485646
 21
135.524735
 31
0.0
  0
LINE
  5
3FB
100
AcDbEntity
  8
0
  6
Continuous
 62
   174
100
AcDbLine
 10
92.885646
 20
110.266987
 30
0.0
 11
96.485646
 21
110.266987
 31
0.0
  0
LINE
  5
3FC
100
AcDbEntity
  8
0
  6
Continuous
 62
   174
100
AcDbLine
 10
105.485646
 20
152.646365
 30
0.0
 11
107.485646
 21
152.646365
 31
0.0
  0
LINE
  5
3FD
100
AcDbEntity
  8
0
  6
Continuous
 62
   174
100
AcDbLine
 10
105.485646
 20
119.460228
 30
0.0
 11
95.485646
 21
119.460228
 31
0.0
  0
ARC
  5
3FE
100
AcDbEntity
  8
0
  6
HIDDEN
 62
   174
100
AcDbCircle
 10
100.485646
 20
52.666987
 30
0.0
 40
4.0
100
AcDbArc
 50
0.0
 51
180.0
  0
LINE
  5
3FF
100
AcDbEntity
  8
0
  6
Continuous
 62
   174
100
AcDbLine
 10
90.485646
 20
119.727617
 30
0.0
 11
90.485646
 21
118.04183
 31
0.0
  0
LINE
  5
400
100
AcDbEntity
  8
0
  6
Continuous
 62
   174
100
AcDbLine
 10
104.985646
 20
160.108137
 30
0.0
 11
104.985646
 21
160.65608
 31
0.0
  0
LINE
  5
401
100
AcDbEntity
  8
0
  6
Continuous
 62
   174
100
AcDbLine
 10
104.985646
 20
142.238102
 30
0.0
 11
104.985646
 21
148.086734
 31
0.0
  0
LINE
  5
402
100
AcDbEntity
  8
0
  6
Continuous
 62
   174
100
AcDbLine
 10
90.485646
 20
129.505634
 30
0.0
 11
90.485646
 21
132.032361
 31
0.0
  0
ENDBLK
  5
403
100
AcDbEntity
  8
0
100
AcDbBlockEnd
  0
BLOCK
  5
406
100
AcDbEntity
  8
0
100
AcDbBlockBegin
  2
*B4
 70
     0
 10
0.0
 20
0.0
 30
0.0
  3
*B4
  1

  0
LINE
  5
407
100
AcDbEntity
  8
0
  6
Continuous
 62
     0
100
AcDbLine
 10
262.025557
 20
91.711679
 30
0.0
 11
262.025557
 21
39.715362
 31
0.0
  0
SOLID
  5
408
100
AcDbEntity
  8
0
  6
Continuous
 62
     0
100
AcDbTrace
 10
263.025613
 20
86.711998
 30
0.0
 11
262.025557
 21
91.711679
 31
0.0
 12
261.0255
 22
86.711998
 32
0.0
 13
261.0255
 23
86.711998
 33
0.0
  0
SOLID
  5
409
100
AcDbEntity
  8
0
  6
Continuous
 62
     0
100
AcDbTrace
 10
261.0255
 20
44.715042
 30
0.0
 11
262.025557
 21
39.715362
 31
0.0
 12
263.025613
 22
44.715042
 32
0.0
 13
263.025613
 23
44.715042
 33
0.0
  0
ENDBLK
  5
40A
100
AcDbEntity
  8
0
100
AcDbBlockEnd
  0
BLOCK
  5
40D
100
AcDbEntity
  8
0
100
AcDbBlockBegin
  2
*B5
 70
     0
 10
0.0
 20
0.0
 30
0.0
  3
*B5
  1

  0
LINE
  5
40E
100
AcDbEntity
  8
0
  6
Continuous
 62
     0
100
AcDbLine
 10
262.025557
 20
161.2602
 30
0.0
 11
262.025557
 21
91.711679
 31
0.0
  0
SOLID
  5
40F
100
AcDbEntity
  8
0
  6
Continuous
 62
     0
100
AcDbTrace
 10
263.025613
 20
156.260519
 30
0.0
 11
262.025557
 21
161.2602
 31
0.0
 12
261.0255
 22
156.260519
 32
0.0
 13
261.0255
 23
156.260519
 33
0.0
  0
SOLID
  5
410
100
AcDbEntity
  8
0
  6
Continuous
 62
     0
100
AcDbTrace
 10
261.0255
 20
96.711359
 30
0.0
 11
262.025557
 21
91.711679
 31
0.0
 12
263.025613
 22
96.711359
 32
0.0
 13
263.025613
 23
96.711359
 33
0.0
  0
ENDBLK
  5
411
100
AcDbEntity
  8
0
100
AcDbBlockEnd
  0
BLOCK
  5
414
100
AcDbEntity
  8
0
100
AcDbBlockBegin
  2
*B6
 70
     0
 10
0.0
 20
0.0
 30
0.0
  3
*B6
  1

  0
LINE
  5
415
100
AcDbEntity
  8
0
  6
Continuous
 62
     0
100
AcDbLine
 10
235.025539
 20
214.931588
 30
0.0
 11
235.025539
 21
143.26159
 31
0.0
  0
SOLID
  5
416
100
AcDbEntity
  8
0
  6
Continuous
 62
     0
100
AcDbTrace
 10
234.025483
 20
166.25988
 30
0.0
 11
235.025539
 21
161.2602
 31
0.0
 12
236.025596
 22
166.25988
 32
0.0
 13
236.025596
 23
166.25988
 33
0.0
  0
SOLID
  5
417
100
AcDbEntity
  8
0
  6
Continuous
 62
     0
100
AcDbTrace
 10
236.025596
 20
148.261271
 30
0.0
 11
235.025539
 21
153.260951
 31
0.0
 12
234.025483
 22
148.261271
 32
0.0
 13
234.025483
 23
148.261271
 33
0.0
  0
ENDBLK
  5
418
100
AcDbEntity
  8
0
100
AcDbBlockEnd
  0
BLOCK
  5
41B
100
AcDbEntity
  8
0
100
AcDbBlockBegin
  2
*B7
 70
     0
 10
0.0
 20
0.0
 30
0.0
  3
*B7
  1

  0
LINE
  5
41C
100
AcDbEntity
  8
0
  6
Continuous
 62
     0
100
AcDbLine
 10
249.025726
 20
209.681969
 30
0.0
 11
249.025726
 21
139.261966
 31
0.0
  0
SOLID
  5
41D
100
AcDbEntity
  8
0
  6
Continuous
 62
     0
100
AcDbTrace
 10
248.02567
 20
158.260632
 30
0.0
 11
249.025726
 21
153.260951
 31
0.0
 12
250.025482
 22
158.260632
 32
0.0
 13
250.025482
 23
158.260632
 33
0.0
  0
SOLID
  5
41E
100
AcDbEntity
  8
0
  6
Continuous
 62
     0
100
AcDbTrace
 10
250.025482
 20
144.261346
 30
0.0
 11
249.025726
 21
149.261026
 31
0.0
 12
248.02567
 22
144.261346
 32
0.0
 13
248.02567
 23
144.261346
 33
0.0
  0
ENDBLK
  5
41F
100
AcDbEntity
  8
0
100
AcDbBlockEnd
  0
BLOCK
  5
422
100
AcDbEntity
  8
0
100
AcDbBlockBegin
  2
*B8
 70
     0
 10
0.0
 20
0.0
 30
0.0
  3
*B8
  1

  0
LINE
  5
423
100
AcDbEntity
  8
0
  6
Continuous
 62
     0
100
AcDbLine
 10
220.652847
 20
173.038874
 30
0.0
 11
180.652699
 21
173.038874
 31
0.0
  0
SOLID
  5
424
100
AcDbEntity
  8
0
  6
Continuous
 62
     0
100
AcDbTrace
 10
215.652866
 20
174.03893
 30
0.0
 11
210.652885
 21
173.038874
 31
0.0
 12
215.652866
 22
172.038817
 32
0.0
 13
215.652866
 23
172.038817
 33
0.0
  0
SOLID
  5
425
100
AcDbEntity
  8
0
  6
Continuous
 62
     0
100
AcDbTrace
 10
185.65268
 20
172.038817
 30
0.0
 11
190.652661
 21
173.038874
 31
0.0
 12
185.65268
 22
174.03893
 32
0.0
 13
185.65268
 23
174.03893
 33
0.0
  0
ENDBLK
  5
426
100
AcDbEntity
  8
0
100
AcDbBlockEnd
  0
BLOCK
  5
429
100
AcDbEntity
  8
0
100
AcDbBlockBegin
  2
*B9
 70
     0
 10
0.0
 20
0.0
 30
0.0
  3
*B9
  1

  0
LINE
  5
42A
100
AcDbEntity
  8
0
  6
Continuous
 62
     0
100
AcDbLine
 10
200.652924
 20
188.037915
 30
0.0
 11
158.752699
 21
188.037915
 31
0.0
  0
SOLID
  5
42B
100
AcDbEntity
  8
0
  6
Continuous
 62
     0
100
AcDbTrace
 10
195.652943
 20
187.037859
 30
0.0
 11
200.652924
 21
188.037915
 31
0.0
 12
195.652943
 22
189.037671
 32
0.0
 13
195.652943
 23
189.037671
 33
0.0
  0
SOLID
  5
42C
100
AcDbEntity
  8
0
  6
Continuous
 62
     0
100
AcDbTrace
 10
163.75268
 20
189.037671
 30
0.0
 11
158.752699
 21
188.037915
 31
0.0
 12
163.75268
 22
187.037859
 32
0.0
 13
163.75268
 23
187.037859
 33
0.0
  0
ENDBLK
  5
42D
100
AcDbEntity
  8
0
100
AcDbBlockEnd
  0
BLOCK
  5
430
100
AcDbEntity
  8
0
100
AcDbBlockBegin
  2
*B10
 70
     0
 10
0.0
 20
0.0
 30
0.0
  3
*B10
  1

  0
LINE
  5
431
100
AcDbEntity
  8
0
  6
Continuous
 62
     0
100
AcDbLine
 10
236.025596
 20
38.715606
 30
0.0
 11
236.025596
 21
73.475146
 31
0.0
  0
SOLID
  5
432
100
AcDbEntity
  8
0
  6
Continuous
 62
     0
100
AcDbTrace
 10
237.025652
 20
43.715286
 30
0.0
 11
236.025596
 21
48.714967
 31
0.0
 12
235.025539
 22
43.715286
 32
0.0
 13
235.025539
 23
43.715286
 33
0.0
  0
SOLID
  5
433
100
AcDbEntity
  8
0
  6
Continuous
 62
     0
100
AcDbTrace
 10
235.025539
 20
61.713896
 30
0.0
 11
236.025596
 21
56.714215
 31
0.0
 12
237.025652
 22
61.713896
 32
0.0
 13
237.025652
 23
61.713896
 33
0.0
  0
ENDBLK
  5
434
100
AcDbEntity
  8
0
100
AcDbBlockEnd
  0
BLOCK
  5
437
100
AcDbEntity
  8
0
100
AcDbBlockBegin
  2
*B11
 70
     0
 10
0.0
 20
0.0
 30
0.0
  3
*B11
  1

  0
LINE
  5
438
100
AcDbEntity
  8
0
  6
Continuous
 62
     0
100
AcDbLine
 10
130.02564
 20
127.709198
 30
0.0
 11
130.02564
 21
39.715362
 31
0.0
  0
SOLID
  5
439
100
AcDbEntity
  8
0
  6
Continuous
 62
     0
100
AcDbTrace
 10
131.025696
 20
122.709517
 30
0.0
 11
130.02564
 21
127.709198
 31
0.0
 12
129.025583
 22
122.709517
 32
0.0
 13
129.025583
 23
122.709517
 33
0.0
  0
SOLID
  5
43A
100
AcDbEntity
  8
0
  6
Continuous
 62
     0
100
AcDbTrace
 10
129.025583
 20
44.715042
 30
0.0
 11
130.02564
 21
39.715362
 31
0.0
 12
131.025696
 22
44.715042
 32
0.0
 13
131.025696
 23
44.715042
 33
0.0
  0
ENDBLK
  5
43B
100
AcDbEntity
  8
0
100
AcDbBlockEnd
  0
BLOCK
  5
43E
100
AcDbEntity
  8
0
100
AcDbBlockBegin
  2
*B12
 70
     0
 10
0.0
 20
0.0
 30
0.0
  3
*B12
  1

  0
LINE
  5
43F
100
AcDbEntity
  8
0
  6
Continuous
 62
     0
100
AcDbLine
 10
144.025526
 20
65.117512
 30
0.0
 11
144.025526
 21
106.210842
 31
0.0
  0
SOLID
  5
440
100
AcDbEntity
  8
0
  6
Continuous
 62
     0
100
AcDbTrace
 10
145.025582
 20
82.212496
 30
0.0
 11
144.025526
 21
87.212176
 31
0.0
 12
143.02577
 22
82.212496
 32
0.0
 13
143.02577
 23
82.212496
 33
0.0
  0
SOLID
  5
441
100
AcDbEntity
  8
0
  6
Continuous
 62
     0
100
AcDbTrace
 10
143.02577
 20
101.211162
 30
0.0
 11
144.025526
 21
96.211481
 31
0.0
 12
145.025582
 22
101.211162
 32
0.0
 13
145.025582
 23
101.211162
 33
0.0
  0
ENDBLK
  5
442
100
AcDbEntity
  8
0
100
AcDbBlockEnd
  0
BLOCK
  5
445
100
AcDbEntity
  8
0
100
AcDbBlockBegin
  2
*B13
 70
     0
 10
0.0
 20
0.0
 30
0.0
  3
*B13
  1

  0
LINE
  5
446
100
AcDbEntity
  8
0
  6
Continuous
 62
     0
100
AcDbLine
 10
170.752473
 20
24.049716
 30
0.0
 11
204.110913
 21
24.049716
 31
0.0
  0
SOLID
  5
447
100
AcDbEntity
  8
0
  6
Continuous
 62
     0
100
AcDbTrace
 10
175.752454
 20
23.04966
 30
0.0
 11
180.752435
 21
24.049716
 31
0.0
 12
175.752454
 22
25.049472
 32
0.0
 13
175.752454
 23
25.049472
 33
0.0
  0
SOLID
  5
448
100
AcDbEntity
  8
0
  6
Continuous
 62
     0
100
AcDbTrace
 10
191.752453
 20
25.049472
 30
0.0
 11
186.752472
 21
24.049716
 31
0.0
 12
191.752453
 22
23.04966
 32
0.0
 13
191.752453
 23
23.04966
 33
0.0
  0
ENDBLK
  5
449
100
AcDbEntity
  8
0
100
AcDbBlockEnd
  0
BLOCK
  5
44C
100
AcDbEntity
  8
0
100
AcDbBlockBegin
  2
*B14
 70
     0
 10
0.0
 20
0.0
 30
0.0
  3
*B14
  1

  0
LINE
  5
44D
100
AcDbEntity
  8
0
  6
Continuous
 62
     0
100
AcDbLine
 10
115.511456
 20
10.050731
 30
0.0
 11
85.51127
 21
10.050731
 31
0.0
  0
SOLID
  5
44E
100
AcDbEntity
  8
0
  6
Continuous
 62
     0
100
AcDbTrace
 10
110.511475
 20
9.050674
 30
0.0
 11
115.511456
 21
10.050731
 31
0.0
 12
110.511475
 22
11.050487
 32
0.0
 13
110.511475
 23
11.050487
 33
0.0
  0
SOLID
  5
44F
100
AcDbEntity
  8
0
  6
Continuous
 62
     0
100
AcDbTrace
 10
90.51125
 20
11.050487
 30
0.0
 11
85.51127
 21
10.050731
 31
0.0
 12
90.51125
 22
9.050674
 32
0.0
 13
90.51125
 23
9.050674
 33
0.0
  0
ENDBLK
  5
450
100
AcDbEntity
  8
0
100
AcDbBlockEnd
  0
BLOCK
  5
453
100
AcDbEntity
  8
0
100
AcDbBlockBegin
  2
*B15
 70
     0
 10
0.0
 20
0.0
 30
0.0
  3
*B15
  1

  0
LINE
  5
454
100
AcDbEntity
  8
0
  6
Continuous
 62
     0
100
AcDbLine
 10
198.732419
 20
10.050731
 30
0.0
 11
232.352514
 21
10.050731
 31
0.0
  0
SOLID
  5
455
100
AcDbEntity
  8
0
  6
Continuous
 62
     0
100
AcDbTrace
 10
203.7327
 20
9.050674
 30
0.0
 11
208.732681
 21
10.050731
 31
0.0
 12
203.7327
 22
11.050487
 32
0.0
 13
203.7327
 23
11.050487
 33
0.0
  0
SOLID
  5
456
100
AcDbEntity
  8
0
  6
Continuous
 62
     0
100
AcDbTrace
 10
227.352533
 20
11.050487
 30
0.0
 11
222.352552
 21
10.050731
 31
0.0
 12
227.352533
 22
9.050674
 32
0.0
 13
227.352533
 23
9.050674
 33
0.0
  0
ENDBLK
  5
457
100
AcDbEntity
  8
0
100
AcDbBlockEnd
  0
BLOCK
  5
45A
100
AcDbEntity
  8
0
100
AcDbBlockBegin
  2
*B16
 70
     0
 10
0.0
 20
0.0
 30
0.0
  3
*B16
  1

  0
LINE
  5
45B
100
AcDbEntity
  8
0
  6
Continuous
 62
     0
100
AcDbLine
 10
208.732681
 20
10.050731
 30
0.0
 11
158.752699
 21
10.050731
 31
0.0
  0
SOLID
  5
45C
100
AcDbEntity
  8
0
  6
Continuous
 62
     0
100
AcDbTrace
 10
203.7327
 20
9.050674
 30
0.0
 11
208.732681
 21
10.050731
 31
0.0
 12
203.7327
 22
11.050487
 32
0.0
 13
203.7327
 23
11.050487
 33
0.0
  0
SOLID
  5
45D
100
AcDbEntity
  8
0
  6
Continuous
 62
     0
100
AcDbTrace
 10
163.75268
 20
11.050487
 30
0.0
 11
158.752699
 21
10.050731
 31
0.0
 12
163.75268
 22
9.050674
 32
0.0
 13
163.75268
 23
9.050674
 33
0.0
  0
ENDBLK
  5
45E
100
AcDbEntity
  8
0
100
AcDbBlockEnd
  0
BLOCK
  5
461
100
AcDbEntity
  8
0
100
AcDbBlockBegin
  2
*B17
 70
     0
 10
0.0
 20
0.0
 30
0.0
  3
*B17
  1

  0
LINE
  5
462
100
AcDbEntity
  8
0
  6
Continuous
 62
     0
100
AcDbLine
 10
167.752604
 20
65.046616
 30
0.0
 11
199.752603
 21
65.046616
 31
0.0
  0
SOLID
  5
463
100
AcDbEntity
  8
0
  6
Continuous
 62
     0
100
AcDbTrace
 10
172.752585
 20
66.046672
 30
0.0
 11
167.752604
 21
65.046616
 31
0.0
 12
172.752585
 22
64.04686
 32
0.0
 13
172.752585
 23
64.04686
 33
0.0
  0
SOLID
  5
464
100
AcDbEntity
  8
0
  6
Continuous
 62
     0
100
AcDbTrace
 10
194.752622
 20
64.04686
 30
0.0
 11
199.752603
 21
65.046616
 31
0.0
 12
194.752622
 22
66.046672
 32
0.0
 13
194.752622
 23
66.046672
 33
0.0
  0
ENDBLK
  5
465
100
AcDbEntity
  8
0
100
AcDbBlockEnd
  0
BLOCK
  5
468
100
AcDbEntity
  8
0
100
AcDbBlockBegin
  2
*B18
 70
     0
 10
0.0
 20
0.0
 30
0.0
  3
*B18
  1

  0
LINE
  5
469
100
AcDbEntity
  8
0
  6
Continuous
 62
     0
100
AcDbLine
 10
72.025681
 20
62.713952
 30
0.0
 11
72.025681
 21
29.716301
 31
0.0
  0
SOLID
  5
46A
100
AcDbEntity
  8
0
  6
Continuous
 62
     0
100
AcDbTrace
 10
71.025624
 20
57.714272
 30
0.0
 11
72.025681
 21
52.714591
 31
0.0
 12
73.025737
 22
57.714272
 32
0.0
 13
73.025737
 23
57.714272
 33
0.0
  0
SOLID
  5
46B
100
AcDbEntity
  8
0
  6
Continuous
 62
     0
100
AcDbTrace
 10
73.025737
 20
34.715981
 30
0.0
 11
72.025681
 21
39.715362
 31
0.0
 12
71.025624
 22
34.715981
 32
0.0
 13
71.025624
 23
34.715981
 33
0.0
  0
ENDBLK
  5
46C
100
AcDbEntity
  8
0
100
AcDbBlockEnd
  0
BLOCK
  5
46F
100
AcDbEntity
  8
0
100
AcDbBlockBegin
  2
*B19
 70
     0
 10
0.0
 20
0.0
 30
0.0
  3
*B19
  1

  0
LINE
  5
470
100
AcDbEntity
  8
0
  6
Continuous
 62
     0
100
AcDbLine
 10
115.011277
 20
173.038874
 30
0.0
 11
86.011448
 21
173.038874
 31
0.0
  0
SOLID
  5
471
100
AcDbEntity
  8
0
  6
Continuous
 62
     0
100
AcDbTrace
 10
110.011296
 20
174.03893
 30
0.0
 11
105.011315
 21
173.038874
 31
0.0
 12
110.011296
 22
172.038817
 32
0.0
 13
110.011296
 23
172.038817
 33
0.0
  0
SOLID
  5
472
100
AcDbEntity
  8
0
  6
Continuous
 62
     0
100
AcDbTrace
 10
91.011429
 20
172.038817
 30
0.0
 11
96.01141
 21
173.038874
 31
0.0
 12
91.011429
 22
174.03893
 32
0.0
 13
91.011429
 23
174.03893
 33
0.0
  0
ENDBLK
  5
473
100
AcDbEntity
  8
0
100
AcDbBlockEnd
  0
BLOCK
  5
476
100
AcDbEntity
  8
0
100
AcDbBlockBegin
  2
*B20
 70
     0
 10
0.0
 20
0.0
 30
0.0
  3
*B20
  1

  0
LINE
  5
477
100
AcDbEntity
  8
0
  6
Continuous
 62
     0
100
AcDbLine
 10
72.025681
 20
52.714591
 30
0.0
 11
72.025681
 21
76.712937
 31
0.0
  0
SOLID
  5
478
100
AcDbEntity
  8
0
  6
Continuous
 62
     0
100
AcDbTrace
 10
71.025624
 20
57.714272
 30
0.0
 11
72.025681
 21
52.714591
 31
0.0
 12
73.025737
 22
57.714272
 32
0.0
 13
73.025737
 23
57.714272
 33
0.0
  0
SOLID
  5
479
100
AcDbEntity
  8
0
  6
Continuous
 62
     0
100
AcDbTrace
 10
73.025737
 20
71.713257
 30
0.0
 11
72.025681
 21
76.712937
 31
0.0
 12
71.025624
 22
71.713257
 32
0.0
 13
71.025624
 23
71.713257
 33
0.0
  0
ENDBLK
  5
47A
100
AcDbEntity
  8
0
100
AcDbBlockEnd
  0
BLOCK
  5
47D
100
AcDbEntity
  8
0
100
AcDbBlockBegin
  2
*B21
 70
     0
 10
0.0
 20
0.0
 30
0.0
  3
*B21
  1

  0
LINE
  5
47E
100
AcDbEntity
  8
0
  6
Continuous
 62
     8
100
AcDbLine
 10
128.025827
 20
127.709198
 30
0.0
 11
155.75253
 21
127.709198
 31
0.0
  0
ENDBLK
  5
47F
100
AcDbEntity
  8
0
100
AcDbBlockEnd
  0
BLOCK
  5
482
100
AcDbEntity
  8
0
100
AcDbBlockBegin
  2
*B22
 70
     0
 10
0.0
 20
0.0
 30
0.0
  3
*B22
  1

  0
LINE
  5
483
100
AcDbEntity
  8
0
  6
Continuous
 62
     8
100
AcDbLine
 10
217.025728
 20
153.260951
 30
0.0
 11
251.025538
 21
153.260951
 31
0.0
  0
ENDBLK
  5
484
100
AcDbEntity
  8
0
100
AcDbBlockEnd
  0
BLOCK
  5
487
100
AcDbEntity
  8
0
100
AcDbBlockBegin
  2
*B23
 70
     0
 10
0.0
 20
0.0
 30
0.0
  3
*B23
  1

  0
LINE
  5
488
100
AcDbEntity
  8
0
  6
Continuous
 62
     8
100
AcDbLine
 10
142.025714
 20
87.212176
 30
0.0
 11
164.752436
 21
87.212176
 31
0.0
  0
ENDBLK
  5
489
100
AcDbEntity
  8
0
100
AcDbBlockEnd
  0
BLOCK
  5
48C
100
AcDbEntity
  8
0
100
AcDbBlockBegin
  2
*B24
 70
     0
 10
0.0
 20
0.0
 30
0.0
  3
*B24
  1

  0
LINE
  5
48D
100
AcDbEntity
  8
0
  6
Continuous
 62
     8
100
AcDbLine
 10
225.352421
 20
56.714215
 30
0.0
 11
238.025708
 21
56.714215
 31
0.0
  0
ENDBLK
  5
48E
100
AcDbEntity
  8
0
100
AcDbBlockEnd
  0
BLOCK
  5
491
100
AcDbEntity
  8
0
100
AcDbBlockBegin
  2
*B25
 70
     0
 10
0.0
 20
0.0
 30
0.0
  3
*B25
  1

  0
LINE
  5
492
100
AcDbEntity
  8
0
  6
Continuous
 62
     8
100
AcDbLine
 10
202.752471
 20
76.712937
 30
0.0
 11
212.052484
 21
76.712937
 31
0.0
  0
LINE
  5
493
100
AcDbEntity
  8
0
  6
Continuous
 62
     8
100
AcDbLine
 10
215.052652
 20
76.712937
 30
0.0
 11
216.052408
 21
76.712937
 31
0.0
  0
LINE
  5
494
100
AcDbEntity
  8
0
  6
Continuous
 62
     8
100
AcDbLine
 10
219.052577
 20
76.712937
 30
0.0
 11
228.35259
 21
76.712937
 31
0.0
  0
ENDBLK
  5
495
100
AcDbEntity
  8
0
100
AcDbBlockEnd
  0
BLOCK
  5
498
100
AcDbEntity
  8
0
100
AcDbBlockBegin
  2
*B26
 70
     0
 10
0.0
 20
0.0
 30
0.0
  3
*B26
  1

  0
LINE
  5
499
100
AcDbEntity
  8
0
  6
Continuous
 62
     8
100
AcDbLine
 10
183.752604
 20
33.715925
 30
0.0
 11
183.752604
 21
45.748143
 31
0.0
  0
LINE
  5
49A
100
AcDbEntity
  8
0
  6
Continuous
 62
     8
100
AcDbLine
 10
183.752604
 20
48.748012
 30
0.0
 11
183.752604
 21
49.747767
 31
0.0
  0
LINE
  5
49B
100
AcDbEntity
  8
0
  6
Continuous
 62
     8
100
AcDbLine
 10
183.752604
 20
52.747636
 30
0.0
 11
183.752604
 21
64.779854
 31
0.0
  0
LINE
  5
49C
100
AcDbEntity
  8
0
  6
Continuous
 62
     8
100
AcDbLine
 10
183.752604
 20
67.779422
 30
0.0
 11
183.752604
 21
68.779478
 31
0.0
  0
LINE
  5
49D
100
AcDbEntity
  8
0
  6
Continuous
 62
     8
100
AcDbLine
 10
183.752604
 20
71.779346
 30
0.0
 11
183.752604
 21
83.811264
 31
0.0
  0
LINE
  5
49E
100
AcDbEntity
  8
0
  6
Continuous
 62
     8
100
AcDbLine
 10
183.752604
 20
86.811132
 30
0.0
 11
183.752604
 21
87.811189
 31
0.0
  0
LINE
  5
49F
100
AcDbEntity
  8
0
  6
Continuous
 62
     8
100
AcDbLine
 10
183.752604
 20
90.810757
 30
0.0
 11
183.752604
 21
102.842975
 31
0.0
  0
LINE
  5
4A0
100
AcDbEntity
  8
0
  6
Continuous
 62
     8
100
AcDbLine
 10
183.752604
 20
105.842843
 30
0.0
 11
183.752604
 21
106.842899
 31
0.0
  0
LINE
  5
4A1
100
AcDbEntity
  8
0
  6
Continuous
 62
     8
100
AcDbLine
 10
183.752604
 20
109.842467
 30
0.0
 11
183.752604
 21
121.874685
 31
0.0
  0
ENDBLK
  5
4A2
100
AcDbEntity
  8
0
100
AcDbBlockEnd
  0
BLOCK
  5
4A5
100
AcDbEntity
  8
0
100
AcDbBlockBegin
  2
*B27
 70
     0
 10
0.0
 20
0.0
 30
0.0
  3
*B27
  1

  0
LINE
  5
4A6
100
AcDbEntity
  8
0
  6
Continuous
 62
     8
100
AcDbLine
 10
70.025568
 20
76.712937
 30
0.0
 11
74.025793
 21
76.712937
 31
0.0
  0
LINE
  5
4A7
100
AcDbEntity
  8
0
  6
Continuous
 62
     8
100
AcDbLine
 10
74.025793
 20
76.712937
 30
0.0
 11
95.511231
 21
76.712937
 31
0.0
  0
LINE
  5
4A8
100
AcDbEntity
  8
0
  6
Continuous
 62
     8
100
AcDbLine
 10
105.511193
 20
76.712937
 30
0.0
 11
116.511211
 21
76.712937
 31
0.0
  0
ENDBLK
  5
4A9
100
AcDbEntity
  8
0
100
AcDbBlockEnd
  0
BLOCK
  5
4AC
100
AcDbEntity
  8
0
100
AcDbBlockBegin
  2
*B28
 70
     0
 10
0.0
 20
0.0
 30
0.0
  3
*B28
  1

  0
LINE
  5
4AD
100
AcDbEntity
  8
0
  6
Continuous
 62
     8
100
AcDbLine
 10
190.039229
 20
132.566485
 30
0.0
 11
199.039135
 21
132.566485
 31
0.0
  0
LINE
  5
4AE
100
AcDbEntity
  8
0
  6
Continuous
 62
     8
100
AcDbLine
 10
209.039097
 20
132.566485
 30
0.0
 11
218.039002
 21
132.566485
 31
0.0
  0
ENDBLK
  5
4AF
100
AcDbEntity
  8
0
100
AcDbBlockEnd
  0
BLOCK
  5
4B2
100
AcDbEntity
  8
0
100
AcDbBlockBegin
  2
*B29
 70
     0
 10
0.0
 20
0.0
 30
0.0
  3
*B29
  1

  0
LINE
  5
4B3
100
AcDbEntity
  8
0
  6
Continuous
 62
     8
100
AcDbLine
 10
84.511213
 20
132.566485
 30
0.0
 11
97.011466
 21
132.566485
 31
0.0
  0
LINE
  5
4B4
100
AcDbEntity
  8
0
  6
Continuous
 62
     8
100
AcDbLine
 10
100.011334
 20
132.566485
 30
0.0
 11
101.011391
 21
132.566485
 31
0.0
  0
LINE
  5
4B5
100
AcDbEntity
  8
0
  6
Continuous
 62
     8
100
AcDbLine
 10
104.011259
 20
132.566485
 30
0.0
 11
116.511211
 21
132.566485
 31
0.0
  0
ENDBLK
  5
4B6
100
AcDbEntity
  8
0
100
AcDbBlockEnd
  0
BLOCK
  5
4B9
100
AcDbEntity
  8
0
100
AcDbBlockBegin
  2
*B30
 70
     0
 10
0.0
 20
0.0
 30
0.0
  3
*B30
  1

  0
LINE
  5
4BA
100
AcDbEntity
  8
0
  6
Continuous
 62
     8
100
AcDbLine
 10
142.025714
 20
96.211481
 30
0.0
 11
164.752436
 21
96.211481
 31
0.0
  0
ENDBLK
  5
4BB
100
AcDbEntity
  8
0
100
AcDbBlockEnd
  0
BLOCK
  5
4BE
100
AcDbEntity
  8
0
100
AcDbBlockBegin
  2
*B31
 70
     0
 10
0.0
 20
0.0
 30
0.0
  3
*B31
  1

  0
LINE
  5
4BF
100
AcDbEntity
  8
0
  6
Continuous
 62
     8
100
AcDbLine
 10
87.511382
 20
151.260839
 30
0.0
 11
97.011466
 21
151.260839
 31
0.0
  0
LINE
  5
4C0
100
AcDbEntity
  8
0
  6
Continuous
 62
     8
100
AcDbLine
 10
100.011334
 20
151.260839
 30
0.0
 11
101.011391
 21
151.260839
 31
0.0
  0
LINE
  5
4C1
100
AcDbEntity
  8
0
  6
Continuous
 62
     8
100
AcDbLine
 10
104.011259
 20
151.260839
 30
0.0
 11
113.511343
 21
151.260839
 31
0.0
  0
ENDBLK
  5
4C2
100
AcDbEntity
  8
0
100
AcDbBlockEnd
  0
BLOCK
  5
4C5
100
AcDbEntity
  8
0
100
AcDbBlockBegin
  2
*B32
 70
     0
 10
0.0
 20
0.0
 30
0.0
  3
*B32
  1

  0
LINE
  5
4C6
100
AcDbEntity
  8
0
  6
Continuous
 62
     8
100
AcDbLine
 10
184.652925
 20
151.260839
 30
0.0
 11
195.652943
 21
151.260839
 31
0.0
  0
LINE
  5
4C7
100
AcDbEntity
  8
0
  6
Continuous
 62
     8
100
AcDbLine
 10
205.652905
 20
151.260839
 30
0.0
 11
216.652923
 21
151.260839
 31
0.0
  0
ENDBLK
  5
4C8
100
AcDbEntity
  8
0
100
AcDbBlockEnd
  0
BLOCK
  5
4CB
100
AcDbEntity
  8
0
100
AcDbBlockBegin
  2
*B33
 70
     0
 10
0.0
 20
0.0
 30
0.0
  3
*B33
  1

  0
LINE
  5
4CC
100
AcDbEntity
  8
0
  6
Continuous
 62
     8
100
AcDbLine
 10
203.652792
 20
161.2602
 30
0.0
 11
264.025669
 21
161.2602
 31
0.0
  0
ENDBLK
  5
4CD
100
AcDbEntity
  8
0
100
AcDbBlockEnd
  0
BLOCK
  5
4D0
100
AcDbEntity
  8
0
100
AcDbBlockBegin
  2
*B34
 70
     0
 10
0.0
 20
0.0
 30
0.0
  3
*B34
  1

  0
LINE
  5
4D1
100
AcDbEntity
  8
0
  6
Continuous
 62
     8
100
AcDbLine
 10
79.511232
 20
119.709649
 30
0.0
 11
97.011466
 21
119.709649
 31
0.0
  0
LINE
  5
4D2
100
AcDbEntity
  8
0
  6
Continuous
 62
     8
100
AcDbLine
 10
100.011334
 20
119.709649
 30
0.0
 11
101.011391
 21
119.709649
 31
0.0
  0
LINE
  5
4D3
100
AcDbEntity
  8
0
  6
Continuous
 62
     8
100
AcDbLine
 10
104.011259
 20
119.709649
 30
0.0
 11
121.511192
 21
119.709649
 31
0.0
  0
ENDBLK
  5
4D4
100
AcDbEntity
  8
0
100
AcDbBlockEnd
  0
BLOCK
  5
4D7
100
AcDbEntity
  8
0
100
AcDbBlockBegin
  2
*B35
 70
     0
 10
0.0
 20
0.0
 30
0.0
  3
*B35
  1

  0
LINE
  5
4D8
100
AcDbEntity
  8
0
  6
Continuous
 62
     8
100
AcDbLine
 10
100.511212
 20
33.715925
 30
0.0
 11
100.511212
 21
47.714911
 31
0.0
  0
LINE
  5
4D9
100
AcDbEntity
  8
0
  6
Continuous
 62
     8
100
AcDbLine
 10
100.511212
 20
57.714272
 30
0.0
 11
100.511212
 21
71.713257
 31
0.0
  0
LINE
  5
4DA
100
AcDbEntity
  8
0
  6
Continuous
 62
     8
100
AcDbLine
 10
100.511212
 20
81.712317
 30
0.0
 11
100.511212
 21
92.822285
 31
0.0
  0
LINE
  5
4DB
100
AcDbEntity
  8
0
  6
Continuous
 62
     8
100
AcDbLine
 10
100.511212
 20
95.822153
 30
0.0
 11
100.511212
 21
96.822209
 31
0.0
  0
LINE
  5
4DC
100
AcDbEntity
  8
0
  6
Continuous
 62
     8
100
AcDbLine
 10
100.511212
 20
99.821777
 30
0.0
 11
100.511212
 21
110.931745
 31
0.0
  0
LINE
  5
4DD
100
AcDbEntity
  8
0
  6
Continuous
 62
     8
100
AcDbLine
 10
100.511212
 20
113.931613
 30
0.0
 11
100.511212
 21
114.931369
 31
0.0
  0
LINE
  5
4DE
100
AcDbEntity
  8
0
  6
Continuous
 62
     8
100
AcDbLine
 10
100.511212
 20
117.931237
 30
0.0
 11
100.511212
 21
129.041204
 31
0.0
  0
LINE
  5
4DF
100
AcDbEntity
  8
0
  6
Continuous
 62
     8
100
AcDbLine
 10
100.511212
 20
132.041073
 30
0.0
 11
100.511212
 21
133.040829
 31
0.0
  0
LINE
  5
4E0
100
AcDbEntity
  8
0
  6
Continuous
 62
     8
100
AcDbLine
 10
100.511212
 20
136.040697
 30
0.0
 11
100.511212
 21
147.150664
 31
0.0
  0
LINE
  5
4E1
100
AcDbEntity
  8
0
  6
Continuous
 62
     8
100
AcDbLine
 10
100.511212
 20
150.150232
 30
0.0
 11
100.511212
 21
151.150289
 31
0.0
  0
LINE
  5
4E2
100
AcDbEntity
  8
0
  6
Continuous
 62
     8
100
AcDbLine
 10
100.511212
 20
154.150157
 30
0.0
 11
100.511212
 21
165.260124
 31
0.0
  0
ENDBLK
  5
4E3
100
AcDbEntity
  8
0
100
AcDbBlockEnd
  0
BLOCK
  5
4E6
100
AcDbEntity
  8
0
100
AcDbBlockBegin
  2
*B36
 70
     0
 10
0.0
 20
0.0
 30
0.0
  3
*B36
  1

  0
LINE
  5
4E7
100
AcDbEntity
  8
0
  6
Continuous
 62
     8
100
AcDbLine
 10
204.039116
 20
118.5675
 30
0.0
 11
204.039116
 21
127.566805
 31
0.0
  0
LINE
  5
4E8
100
AcDbEntity
  8
0
  6
Continuous
 62
     8
100
AcDbLine
 10
204.039116
 20
137.566166
 30
0.0
 11
204.039116
 21
146.565471
 31
0.0
  0
ENDBLK
  5
4E9
100
AcDbEntity
  8
0
100
AcDbBlockEnd
  0
BLOCK
  5
4EC
100
AcDbEntity
  8
0
100
AcDbBlockBegin
  2
*B37
 70
     0
 10
0.0
 20
0.0
 30
0.0
  3
*B37
  1

  0
LINE
  5
4ED
100
AcDbEntity
  8
0
  6
Continuous
 62
     8
100
AcDbLine
 10
96.01141
 20
163.658352
 30
0.0
 11
96.01141
 21
175.038686
 31
0.0
  0
ENDBLK
  5
4EE
100
AcDbEntity
  8
0
100
AcDbBlockEnd
  0
BLOCK
  5
4F1
100
AcDbEntity
  8
0
100
AcDbBlockBegin
  2
*B38
 70
     0
 10
0.0
 20
0.0
 30
0.0
  3
*B38
  1

  0
LINE
  5
4F2
100
AcDbEntity
  8
0
  6
Continuous
 62
     8
100
AcDbLine
 10
260.025744
 20
91.711679
 30
0.0
 11
264.025669
 21
91.711679
 31
0.0
  0
LINE
  5
4F3
100
AcDbEntity
  8
0
  6
Continuous
 62
     8
100
AcDbLine
 10
186.252594
 20
91.711679
 30
0.0
 11
194.752622
 21
91.711679
 31
0.0
  0
LINE
  5
4F4
100
AcDbEntity
  8
0
  6
Continuous
 62
     8
100
AcDbLine
 10
204.752584
 20
91.711679
 30
0.0
 11
218.510342
 21
91.711679
 31
0.0
  0
LINE
  5
4F5
100
AcDbEntity
  8
0
  6
Continuous
 62
     8
100
AcDbLine
 10
221.51021
 20
91.711679
 30
0.0
 11
222.510266
 21
91.711679
 31
0.0
  0
LINE
  5
4F6
100
AcDbEntity
  8
0
  6
Continuous
 62
     8
100
AcDbLine
 10
225.510135
 20
91.711679
 30
0.0
 11
239.267893
 21
91.711679
 31
0.0
  0
LINE
  5
4F7
100
AcDbEntity
  8
0
  6
Continuous
 62
     8
100
AcDbLine
 10
242.268062
 20
91.711679
 30
0.0
 11
243.267817
 21
91.711679
 31
0.0
  0
LINE
  5
4F8
100
AcDbEntity
  8
0
  6
Continuous
 62
     8
100
AcDbLine
 10
246.267986
 20
91.711679
 30
0.0
 11
260.025744
 21
91.711679
 31
0.0
  0
ENDBLK
  5
4F9
100
AcDbEntity
  8
0
100
AcDbBlockEnd
  0
BLOCK
  5
4FC
100
AcDbEntity
  8
0
100
AcDbBlockBegin
  2
*B39
 70
     0
 10
0.0
 20
0.0
 30
0.0
  3
*B39
  1

  0
LINE
  5
4FD
100
AcDbEntity
  8
0
  6
Continuous
 62
     8
100
AcDbLine
 10
170.752473
 20
119.709649
 30
0.0
 11
174.752698
 21
119.709649
 31
0.0
  0
ENDBLK
  5
4FE
100
AcDbEntity
  8
0
100
AcDbBlockEnd
  0
BLOCK
  5
501
100
AcDbEntity
  8
0
100
AcDbBlockBegin
  2
*B40
 70
     0
 10
0.0
 20
0.0
 30
0.0
  3
*B40
  1

  0
LINE
  5
502
100
AcDbEntity
  8
0
  6
Continuous
 62
     8
100
AcDbLine
 10
165.752492
 20
110.710344
 30
0.0
 11
165.752492
 21
114.709969
 31
0.0
  0
ENDBLK
  5
503
100
AcDbEntity
  8
0
100
AcDbBlockEnd
  0
BLOCK
  5
506
100
AcDbEntity
  8
0
100
AcDbBlockBegin
  2
*B41
 70
     0
 10
0.0
 20
0.0
 30
0.0
  3
*B41
  1

  0
LINE
  5
507
100
AcDbEntity
  8
0
  6
Continuous
 62
     8
100
AcDbLine
 10
222.352552
 20
8.050919
 30
0.0
 11
222.352552
 21
39.715362
 31
0.0
  0
ENDBLK
  5
508
100
AcDbEntity
  8
0
100
AcDbBlockEnd
  0
BLOCK
  5
50B
100
AcDbEntity
  8
0
100
AcDbBlockBegin
  2
*B42
 70
     0
 10
0.0
 20
0.0
 30
0.0
  3
*B42
  1

  0
LINE
  5
50C
100
AcDbEntity
  8
0
  6
Continuous
 62
     8
100
AcDbLine
 10
180.752435
 20
22.049904
 30
0.0
 11
180.752435
 21
36.715794
 31
0.0
  0
ENDBLK
  5
50D
100
AcDbEntity
  8
0
100
AcDbBlockEnd
  0
BLOCK
  5
510
100
AcDbEntity
  8
0
100
AcDbBlockBegin
  2
*B43
 70
     0
 10
0.0
 20
0.0
 30
0.0
  3
*B43
  1

  0
LINE
  5
511
100
AcDbEntity
  8
0
  6
Continuous
 62
     8
100
AcDbLine
 10
115.511456
 20
8.050919
 30
0.0
 11
115.511456
 21
36.715794
 31
0.0
  0
ENDBLK
  5
512
100
AcDbEntity
  8
0
100
AcDbBlockEnd
  0
BLOCK
  5
515
100
AcDbEntity
  8
0
100
AcDbBlockBegin
  2
*B44
 70
     0
 10
0.0
 20
0.0
 30
0.0
  3
*B44
  1

  0
LINE
  5
516
100
AcDbEntity
  8
0
  6
Continuous
 62
     8
100
AcDbLine
 10
105.011315
 20
163.658352
 30
0.0
 11
105.011315
 21
175.038686
 31
0.0
  0
ENDBLK
  5
517
100
AcDbEntity
  8
0
100
AcDbBlockEnd
  0
BLOCK
  5
51A
100
AcDbEntity
  8
0
100
AcDbBlockBegin
  2
*B45
 70
     0
 10
0.0
 20
0.0
 30
0.0
  3
*B45
  1

  0
LINE
  5
51B
100
AcDbEntity
  8
0
  6
Continuous
 62
     8
100
AcDbLine
 10
202.752471
 20
52.714591
 30
0.0
 11
212.052484
 21
52.714591
 31
0.0
  0
LINE
  5
51C
100
AcDbEntity
  8
0
  6
Continuous
 62
     8
100
AcDbLine
 10
215.052652
 20
52.714591
 30
0.0
 11
216.052408
 21
52.714591
 31
0.0
  0
LINE
  5
51D
100
AcDbEntity
  8
0
  6
Continuous
 62
     8
100
AcDbLine
 10
219.052577
 20
52.714591
 30
0.0
 11
228.35259
 21
52.714591
 31
0.0
  0
ENDBLK
  5
51E
100
AcDbEntity
  8
0
100
AcDbBlockEnd
  0
BLOCK
  5
521
100
AcDbEntity
  8
0
100
AcDbBlockBegin
  2
*B46
 70
     0
 10
0.0
 20
0.0
 30
0.0
  3
*B46
  1

  0
LINE
  5
522
100
AcDbEntity
  8
0
  6
Continuous
 62
     8
100
AcDbLine
 10
70.025568
 20
39.715362
 30
0.0
 11
82.511401
 21
39.715362
 31
0.0
  0
ENDBLK
  5
523
100
AcDbEntity
  8
0
100
AcDbBlockEnd
  0
BLOCK
  5
526
100
AcDbEntity
  8
0
100
AcDbBlockBegin
  2
*B47
 70
     0
 10
0.0
 20
0.0
 30
0.0
  3
*B47
  1

  0
LINE
  5
527
100
AcDbEntity
  8
0
  6
Continuous
 62
     8
100
AcDbLine
 10
85.51127
 20
8.050919
 30
0.0
 11
85.51127
 21
36.715794
 31
0.0
  0
ENDBLK
  5
528
100
AcDbEntity
  8
0
100
AcDbBlockEnd
  0
BLOCK
  5
52B
100
AcDbEntity
  8
0
100
AcDbBlockBegin
  2
*B48
 70
     0
 10
0.0
 20
0.0
 30
0.0
  3
*B48
  1

  0
LINE
  5
52C
100
AcDbEntity
  8
0
  6
Continuous
 62
     8
100
AcDbLine
 10
199.752603
 20
63.046803
 30
0.0
 11
199.752603
 21
67.046428
 31
0.0
  0
LINE
  5
52D
100
AcDbEntity
  8
0
  6
Continuous
 62
     8
100
AcDbLine
 10
199.752603
 20
67.046428
 30
0.0
 11
199.752603
 21
86.711998
 31
0.0
  0
LINE
  5
52E
100
AcDbEntity
  8
0
  6
Continuous
 62
     8
100
AcDbLine
 10
199.752603
 20
96.711359
 30
0.0
 11
199.752603
 21
105.210786
 31
0.0
  0
ENDBLK
  5
52F
100
AcDbEntity
  8
0
100
AcDbBlockEnd
  0
BLOCK
  5
532
100
AcDbEntity
  8
0
100
AcDbBlockBegin
  2
*B49
 70
     0
 10
0.0
 20
0.0
 30
0.0
  3
*B49
  1

  0
LINE
  5
533
100
AcDbEntity
  8
0
  6
Continuous
 62
     8
100
AcDbLine
 10
225.352421
 20
48.714967
 30
0.0
 11
238.025708
 21
48.714967
 31
0.0
  0
ENDBLK
  5
534
100
AcDbEntity
  8
0
100
AcDbBlockEnd
  0
BLOCK
  5
537
100
AcDbEntity
  8
0
100
AcDbBlockBegin
  2
*B50
 70
     0
 10
0.0
 20
0.0
 30
0.0
  3
*B50
  1

  0
LINE
  5
538
100
AcDbEntity
  8
0
  6
Continuous
 62
     8
100
AcDbLine
 10
217.025728
 20
149.261026
 30
0.0
 11
251.025538
 21
149.261026
 31
0.0
  0
ENDBLK
  5
539
100
AcDbEntity
  8
0
100
AcDbBlockEnd
  0
BLOCK
  5
53C
100
AcDbEntity
  8
0
100
AcDbBlockBegin
  2
*B51
 70
     0
 10
0.0
 20
0.0
 30
0.0
  3
*B51
  1

  0
LINE
  5
53D
100
AcDbEntity
  8
0
  6
Continuous
 62
     8
100
AcDbLine
 10
70.025568
 20
52.714591
 30
0.0
 11
74.025793
 21
52.714591
 31
0.0
  0
LINE
  5
53E
100
AcDbEntity
  8
0
  6
Continuous
 62
     8
100
AcDbLine
 10
74.025793
 20
52.714591
 30
0.0
 11
95.511231
 21
52.714591
 31
0.0
  0
LINE
  5
53F
100
AcDbEntity
  8
0
  6
Continuous
 62
     8
100
AcDbLine
 10
105.511193
 20
52.714591
 30
0.0
 11
116.511211
 21
52.714591
 31
0.0
  0
ENDBLK
  5
540
100
AcDbEntity
  8
0
100
AcDbBlockEnd
  0
BLOCK
  5
543
100
AcDbEntity
  8
0
100
AcDbBlockBegin
  2
*B52
 70
     0
 10
0.0
 20
0.0
 30
0.0
  3
*B52
  1

  0
LINE
  5
544
100
AcDbEntity
  8
0
  6
Continuous
 62
     8
100
AcDbLine
 10
158.752699
 20
8.050919
 30
0.0
 11
158.752699
 21
36.715794
 31
0.0
  0
LINE
  5
545
100
AcDbEntity
  8
0
  6
Continuous
 62
     8
100
AcDbLine
 10
158.752699
 20
130.709066
 30
0.0
 11
158.752699
 21
190.037727
 31
0.0
  0
ENDBLK
  5
546
100
AcDbEntity
  8
0
100
AcDbBlockEnd
  0
BLOCK
  5
549
100
AcDbEntity
  8
0
100
AcDbBlockBegin
  2
*B53
 70
     0
 10
0.0
 20
0.0
 30
0.0
  3
*B53
  1

  0
LINE
  5
54A
100
AcDbEntity
  8
0
  6
Continuous
 62
     8
100
AcDbLine
 10
79.511232
 20
91.711679
 30
0.0
 11
97.011466
 21
91.711679
 31
0.0
  0
LINE
  5
54B
100
AcDbEntity
  8
0
  6
Continuous
 62
     8
100
AcDbLine
 10
100.011334
 20
91.711679
 30
0.0
 11
101.011391
 21
91.711679
 31
0.0
  0
LINE
  5
54C
100
AcDbEntity
  8
0
  6
Continuous
 62
     8
100
AcDbLine
 10
104.011259
 20
91.711679
 30
0.0
 11
121.511192
 21
91.711679
 31
0.0
  0
ENDBLK
  5
54D
100
AcDbEntity
  8
0
100
AcDbBlockEnd
  0
BLOCK
  5
550
100
AcDbEntity
  8
0
100
AcDbBlockBegin
  2
*B54
 70
     0
 10
0.0
 20
0.0
 30
0.0
  3
*B54
  1

  0
LINE
  5
551
100
AcDbEntity
  8
0
  6
Continuous
 62
     8
100
AcDbLine
 10
154.252596
 20
91.711679
 30
0.0
 11
162.752624
 21
91.711679
 31
0.0
  0
LINE
  5
552
100
AcDbEntity
  8
0
  6
Continuous
 62
     8
100
AcDbLine
 10
172.752585
 20
91.711679
 30
0.0
 11
181.252613
 21
91.711679
 31
0.0
  0
ENDBLK
  5
553
100
AcDbEntity
  8
0
100
AcDbBlockEnd
  0
BLOCK
  5
556
100
AcDbEntity
  8
0
100
AcDbBlockBegin
  2
*B55
 70
     0
 10
0.0
 20
0.0
 30
0.0
  3
*B55
  1

  0
LINE
  5
557
100
AcDbEntity
  8
0
  6
Continuous
 62
     8
100
AcDbLine
 10
167.752604
 20
63.046803
 30
0.0
 11
167.752604
 21
67.046428
 31
0.0
  0
LINE
  5
558
100
AcDbEntity
  8
0
  6
Continuous
 62
     8
100
AcDbLine
 10
167.752604
 20
67.046428
 30
0.0
 11
167.752604
 21
86.711998
 31
0.0
  0
LINE
  5
559
100
AcDbEntity
  8
0
  6
Continuous
 62
     8
100
AcDbLine
 10
167.752604
 20
96.711359
 30
0.0
 11
167.752604
 21
105.210786
 31
0.0
  0
ENDBLK
  5
55A
100
AcDbEntity
  8
0
100
AcDbBlockEnd
  0
BLOCK
  5
55D
100
AcDbEntity
  8
0
100
AcDbBlockBegin
  2
*B56
 70
     0
 10
0.0
 20
0.0
 30
0.0
  3
*B56
  1

  0
LINE
  5
55E
100
AcDbEntity
  8
0
  6
Continuous
 62
     8
100
AcDbLine
 10
128.025827
 20
39.715362
 30
0.0
 11
155.75253
 21
39.715362
 31
0.0
  0
LINE
  5
55F
100
AcDbEntity
  8
0
  6
Continuous
 62
     8
100
AcDbLine
 10
211.73255
 20
39.715362
 30
0.0
 11
264.025669
 21
39.715362
 31
0.0
  0
ENDBLK
  5
560
100
AcDbEntity
  8
0
100
AcDbBlockEnd
  0
BLOCK
  5
563
100
AcDbEntity
  8
0
100
AcDbBlockBegin
  2
*B57
 70
     0
 10
0.0
 20
0.0
 30
0.0
  3
*B57
  1

  0
LINE
  5
564
100
AcDbEntity
  8
0
  6
Continuous
 62
     8
100
AcDbLine
 10
186.752472
 20
22.049904
 30
0.0
 11
186.752472
 21
36.715794
 31
0.0
  0
ENDBLK
  5
565
100
AcDbEntity
  8
0
100
AcDbBlockEnd
  0
BLOCK
  5
568
100
AcDbEntity
  8
0
100
AcDbBlockBegin
  2
*B58
 70
     0
 10
0.0
 20
0.0
 30
0.0
  3
*B58
  1

  0
LINE
  5
569
100
AcDbEntity
  8
0
  6
Continuous
 62
     8
100
AcDbLine
 10
190.652661
 20
154.260707
 30
0.0
 11
190.652661
 21
175.038686
 31
0.0
  0
ENDBLK
  5
56A
100
AcDbEntity
  8
0
100
AcDbBlockEnd
  0
BLOCK
  5
56D
100
AcDbEntity
  8
0
100
AcDbBlockBegin
  2
*B59
 70
     0
 10
0.0
 20
0.0
 30
0.0
  3
*B59
  1

  0
LINE
  5
56E
100
AcDbEntity
  8
0
  6
Continuous
 62
     8
100
AcDbLine
 10
208.732681
 20
8.050919
 30
0.0
 11
208.732681
 21
36.715794
 31
0.0
  0
ENDBLK
  5
56F
100
AcDbEntity
  8
0
100
AcDbBlockEnd
  0
BLOCK
  5
572
100
AcDbEntity
  8
0
100
AcDbBlockBegin
  2
*B60
 70
     0
 10
0.0
 20
0.0
 30
0.0
  3
*B60
  1

  0
LINE
  5
573
100
AcDbEntity
  8
0
  6
Continuous
 62
     8
100
AcDbLine
 10
200.652924
 20
186.037803
 30
0.0
 11
200.652924
 21
190.037727
 31
0.0
  0
LINE
  5
574
100
AcDbEntity
  8
0
  6
Continuous
 62
     8
100
AcDbLine
 10
200.652924
 20
135.262041
 30
0.0
 11
200.652924
 21
146.261458
 31
0.0
  0
LINE
  5
575
100
AcDbEntity
  8
0
  6
Continuous
 62
     8
100
AcDbLine
 10
200.652924
 20
156.260519
 30
0.0
 11
200.652924
 21
167.649565
 31
0.0
  0
LINE
  5
576
100
AcDbEntity
  8
0
  6
Continuous
 62
     8
100
AcDbLine
 10
200.652924
 20
170.649433
 30
0.0
 11
200.652924
 21
171.649189
 31
0.0
  0
LINE
  5
577
100
AcDbEntity
  8
0
  6
Continuous
 62
     8
100
AcDbLine
 10
200.652924
 20
174.649057
 30
0.0
 11
200.652924
 21
186.037803
 31
0.0
  0
ENDBLK
  5
578
100
AcDbEntity
  8
0
100
AcDbBlockEnd
  0
BLOCK
  5
57B
100
AcDbEntity
  8
0
100
AcDbBlockBegin
  2
*B61
 70
     0
 10
0.0
 20
0.0
 30
0.0
  3
*B61
  1

  0
LINE
  5
57C
100
AcDbEntity
  8
0
  6
Continuous
 62
     8
100
AcDbLine
 10
210.652885
 20
154.260707
 30
0.0
 11
210.652885
 21
175.038686
 31
0.0
  0
ENDBLK
  5
57D
100
AcDbEntity
  8
0
100
AcDbBlockEnd
  0
BLOCK
  5
580
100
AcDbEntity
  8
0
100
AcDbBlockBegin
  2
*B62
 70
     0
 10
0.0
 20
0.0
 30
0.0
  3
*B62
  1

  0
LINE
  5
581
100
AcDbEntity
  8
0
  6
Continuous
 62
     6
100
AcDbLine
 10
202.039304
 20
132.566485
 30
0.0
 11
206.039228
 21
132.566485
 31
0.0
  0
LINE
  5
582
100
AcDbEntity
  8
0
  6
Continuous
 62
     6
100
AcDbLine
 10
204.039116
 20
130.566673
 30
0.0
 11
204.039116
 21
134.566298
 31
0.0
  0
ENDBLK
  5
583
100
AcDbEntity
  8
0
100
AcDbBlockEnd
  0
BLOCK
  5
586
100
AcDbEntity
  8
0
100
AcDbBlockBegin
  2
*B63
 70
     0
 10
0.0
 20
0.0
 30
0.0
  3
*B63
  1

  0
LINE
  5
587
100
AcDbEntity
  8
0
  6
Continuous
 62
     6
100
AcDbLine
 10
198.652811
 20
151.260839
 30
0.0
 11
202.652736
 21
151.260839
 31
0.0
  0
LINE
  5
588
100
AcDbEntity
  8
0
  6
Continuous
 62
     6
100
AcDbLine
 10
200.652924
 20
149.261026
 30
0.0
 11
200.652924
 21
153.260951
 31
0.0
  0
ENDBLK
  5
589
100
AcDbEntity
  8
0
100
AcDbBlockEnd
  0
BLOCK
  5
58C
100
AcDbEntity
  8
0
100
AcDbBlockBegin
  2
*B64
 70
     0
 10
0.0
 20
0.0
 30
0.0
  3
*B64
  1

  0
LINE
  5
58D
100
AcDbEntity
  8
0
  6
Continuous
 62
     6
100
AcDbLine
 10
199.752603
 20
89.711866
 30
0.0
 11
199.752603
 21
93.711491
 31
0.0
  0
LINE
  5
58E
100
AcDbEntity
  8
0
  6
Continuous
 62
     6
100
AcDbLine
 10
197.75249
 20
91.711679
 30
0.0
 11
201.752415
 21
91.711679
 31
0.0
  0
ENDBLK
  5
58F
100
AcDbEntity
  8
0
100
AcDbBlockEnd
  0
BLOCK
  5
592
100
AcDbEntity
  8
0
100
AcDbBlockBegin
  2
*B65
 70
     0
 10
0.0
 20
0.0
 30
0.0
  3
*B65
  1

  0
LINE
  5
593
100
AcDbEntity
  8
0
  6
Continuous
 62
     6
100
AcDbLine
 10
165.752492
 20
91.711679
 30
0.0
 11
169.752417
 21
91.711679
 31
0.0
  0
LINE
  5
594
100
AcDbEntity
  8
0
  6
Continuous
 62
     6
100
AcDbLine
 10
167.752604
 20
89.711866
 30
0.0
 11
167.752604
 21
93.711491
 31
0.0
  0
ENDBLK
  5
595
100
AcDbEntity
  8
0
100
AcDbBlockEnd
  0
BLOCK
  5
598
100
AcDbEntity
  8
0
100
AcDbBlockBegin
  2
*B66
 70
     0
 10
0.0
 20
0.0
 30
0.0
  3
*B66
  1

  0
LINE
  5
599
100
AcDbEntity
  8
0
  6
Continuous
 62
     6
100
AcDbLine
 10
98.5114
 20
52.714591
 30
0.0
 11
102.511325
 21
52.714591
 31
0.0
  0
LINE
  5
59A
100
AcDbEntity
  8
0
  6
Continuous
 62
     6
100
AcDbLine
 10
100.511212
 20
50.714779
 30
0.0
 11
100.511212
 21
54.714403
 31
0.0
  0
ENDBLK
  5
59B
100
AcDbEntity
  8
0
100
AcDbBlockEnd
  0
BLOCK
  5
59E
100
AcDbEntity
  8
0
100
AcDbBlockBegin
  2
*B67
 70
     0
 10
0.0
 20
0.0
 30
0.0
  3
*B67
  1

  0
LINE
  5
59F
100
AcDbEntity
  8
0
  6
Continuous
 62
     6
100
AcDbLine
 10
98.5114
 20
76.712937
 30
0.0
 11
102.511325
 21
76.712937
 31
0.0
  0
LINE
  5
5A0
100
AcDbEntity
  8
0
  6
Continuous
 62
     6
100
AcDbLine
 10
100.511212
 20
74.712825
 30
0.0
 11
100.511212
 21
78.712749
 31
0.0
  0
ENDBLK
  5
5A1
100
AcDbEntity
  8
0
100
AcDbBlockEnd
  0
BLOCK
  5
5A4
100
AcDbEntity
  8
0
100
AcDbBlockBegin
  2
*B68
 70
     0
 10
0.0
 20
0.0
 30
0.0
  3
*B68
  1

  0
LINE
  5
5A5
100
AcDbEntity
  8
0
  6
Continuous
 62
     6
100
AcDbLine
 10
163.75268
 20
119.709649
 30
0.0
 11
167.752604
 21
119.709649
 31
0.0
  0
LINE
  5
5A6
100
AcDbEntity
  8
0
  6
Continuous
 62
     6
100
AcDbLine
 10
165.752492
 20
117.709837
 30
0.0
 11
165.752492
 21
121.709461
 31
0.0
  0
ENDBLK
  5
5A7
100
AcDbEntity
  8
0
100
AcDbBlockEnd
  0
BLOCK
  5
5AA
100
AcDbEntity
  8
0
100
AcDbBlockBegin
  2
*B69
 70
     0
 10
0.0
 20
0.0
 30
0.0
  3
*B69
  1

  0
TEXT
  5
5AB
100
AcDbEntity
  8
TEXT
  6
Continuous
 62
     0
100
AcDbText
 10
181.8829
 20
49.0
 30
0.0
 40
6.0
  1
3
100
AcDbText
  0
ENDBLK
  5
5AC
100
AcDbEntity
  8
0
100
AcDbBlockEnd
  0
BLOCK
  5
5AF
100
AcDbEntity
  8
0
100
AcDbBlockBegin
  2
*B70
 70
     0
 10
0.0
 20
0.0
 30
0.0
  3
*B70
  1

  0
TEXT
  5
5B0
100
AcDbEntity
  8
TEXT
  6
Continuous
 62
     0
100
AcDbText
 10
199.8829
 20
51.0
 30
0.0
 40
6.0
  1
2
100
AcDbText
  0
ENDBLK
  5
5B1
100
AcDbEntity
  8
0
100
AcDbBlockEnd
  0
BLOCK
  5
5B4
100
AcDbEntity
  8
0
100
AcDbBlockBegin
  2
*B71
 70
     0
 10
0.0
 20
0.0
 30
0.0
  3
*B71
  1

  0
TEXT
  5
5B5
100
AcDbEntity
  8
TEXT
  6
Continuous
 62
     0
100
AcDbText
 10
199.8829
 20
74.0
 30
0.0
 40
6.0
  1
1
100
AcDbText
  0
ENDBLK
  5
5B6
100
AcDbEntity
  8
0
100
AcDbBlockEnd
  0
BLOCK
  5
5B9
100
AcDbEntity
  8
0
100
AcDbBlockBegin
  2
*B72
 70
     0
 10
0.0
 20
0.0
 30
0.0
  3
*B72
  1

  0
TEXT
  5
5BA
100
AcDbEntity
  8
TEXT
  6
Continuous
 62
     0
100
AcDbText
 10
260.25
 20
62.333654
 30
0.0
 40
3.5
  1
26
 50
90.0
100
AcDbText
  0
ENDBLK
  5
5BB
100
AcDbEntity
  8
0
100
AcDbBlockEnd
  0
BLOCK
  5
5BE
100
AcDbEntity
  8
0
100
AcDbBlockBegin
  2
*B73
 70
     0
 10
0.0
 20
0.0
 30
0.0
  3
*B73
  1

  0
TEXT
  5
5BF
100
AcDbEntity
  8
TEXT
  6
Continuous
 62
     0
100
AcDbText
 10
260.25
 20
123.110421
 30
0.0
 40
3.5
  1
35
 50
90.0
100
AcDbText
  0
ENDBLK
  5
5C0
100
AcDbEntity
  8
0
100
AcDbBlockEnd
  0
BLOCK
  5
5C3
100
AcDbEntity
  8
0
100
AcDbBlockBegin
  2
*B74
 70
     0
 10
0.0
 20
0.0
 30
0.0
  3
*B74
  1

  0
TEXT
  5
5C4
100
AcDbEntity
  8
TEXT
  6
Continuous
 62
     0
100
AcDbText
 10
233.25
 20
168.416667
 30
0.0
 40
3.5
  1
4
 50
90.0
100
AcDbText
  0
TEXT
  5
5C5
100
AcDbEntity
  8
TEXT
  6
Continuous
 62
     0
100
AcDbText
 10
233.25
 20
173.5
 30
0.0
 40
3.5
  1
Kapcsol¾ l÷ket
 50
90.0
100
AcDbText
  0
ENDBLK
  5
5C6
100
AcDbEntity
  8
0
100
AcDbBlockEnd
  0
BLOCK
  5
5C9
100
AcDbEntity
  8
0
100
AcDbBlockBegin
  2
*B75
 70
     0
 10
0.0
 20
0.0
 30
0.0
  3
*B75
  1

  0
TEXT
  5
5CA
100
AcDbEntity
  8
TEXT
  6
Continuous
 62
     0
100
AcDbText
 10
247.25
 20
167.666667
 30
0.0
 40
3.5
  1
2
 50
90.0
100
AcDbText
  0
TEXT
  5
5CB
100
AcDbEntity
  8
TEXT
  6
Continuous
 62
     0
100
AcDbText
 10
247.25
 20
172.75
 30
0.0
 40
3.5
  1
Szabad l÷ket
 50
90.0
100
AcDbText
  0
ENDBLK
  5
5CC
100
AcDbEntity
  8
0
100
AcDbBlockEnd
  0
BLOCK
  5
5CF
100
AcDbEntity
  8
0
100
AcDbBlockBegin
  2
*B76
 70
     0
 10
0.0
 20
0.0
 30
0.0
  3
*B76
  1

  0
TEXT
  5
5D0
100
AcDbEntity
  8
TEXT
  6
Continuous
 62
     0
100
AcDbText
 10
194.843821
 20
174.75
 30
0.0
 40
3.5
  1
%%c10
100
AcDbText
  0
ENDBLK
  5
5D1
100
AcDbEntity
  8
0
100
AcDbBlockEnd
  0
BLOCK
  5
5D4
100
AcDbEntity
  8
0
100
AcDbBlockBegin
  2
*B77
 70
     0
 10
0.0
 20
0.0
 30
0.0
  3
*B77
  1

  0
TEXT
  5
5D5
100
AcDbEntity
  8
TEXT
  6
Continuous
 62
     0
100
AcDbText
 10
176.343704
 20
189.75
 30
0.0
 40
3.5
  1
21
100
AcDbText
  0
ENDBLK
  5
5D6
100
AcDbEntity
  8
0
100
AcDbBlockEnd
  0
BLOCK
  5
5D9
100
AcDbEntity
  8
0
100
AcDbBlockBegin
  2
*B78
 70
     0
 10
0.0
 20
0.0
 30
0.0
  3
*B78
  1

  0
TEXT
  5
5DA
100
AcDbEntity
  8
TEXT
  6
Continuous
 62
     0
100
AcDbText
 10
234.25
 20
63.883333
 30
0.0
 40
3.5
  1
%%c4
 50
90.0
100
AcDbText
  0
ENDBLK
  5
5DB
100
AcDbEntity
  8
0
100
AcDbBlockEnd
  0
BLOCK
  5
5DE
100
AcDbEntity
  8
0
100
AcDbBlockBegin
  2
*B79
 70
     0
 10
0.0
 20
0.0
 30
0.0
  3
*B79
  1

  0
TEXT
  5
5DF
100
AcDbEntity
  8
TEXT
  6
Continuous
 62
     0
100
AcDbText
 10
128.25
 20
80.333654
 30
0.0
 40
3.5
  1
44
 50
90.0
100
AcDbText
  0
ENDBLK
  5
5E0
100
AcDbEntity
  8
0
100
AcDbBlockEnd
  0
BLOCK
  5
5E3
100
AcDbEntity
  8
0
100
AcDbBlockBegin
  2
*B80
 70
     0
 10
0.0
 20
0.0
 30
0.0
  3
*B80
  1

  0
TEXT
  5
5E4
100
AcDbEntity
  8
TEXT
  6
Continuous
 62
     0
100
AcDbText
 10
142.25
 20
66.383333
 30
0.0
 40
3.5
  1
%%c4,5
 50
90.0
100
AcDbText
  0
ENDBLK
  5
5E5
100
AcDbEntity
  8
0
100
AcDbBlockEnd
  0
BLOCK
  5
5E8
100
AcDbEntity
  8
0
100
AcDbBlockBegin
  2
*B81
 70
     0
 10
0.0
 20
0.0
 30
0.0
  3
*B81
  1

  0
TEXT
  5
5E9
100
AcDbEntity
  8
TEXT
  6
Continuous
 62
     0
100
AcDbText
 10
194.539583
 20
25.75
 30
0.0
 40
3.5
  1
%%c3
100
AcDbText
  0
ENDBLK
  5
5EA
100
AcDbEntity
  8
0
100
AcDbBlockEnd
  0
BLOCK
  5
5ED
100
AcDbEntity
  8
0
100
AcDbBlockBegin
  2
*B82
 70
     0
 10
0.0
 20
0.0
 30
0.0
  3
*B82
  1

  0
TEXT
  5
5EE
100
AcDbEntity
  8
TEXT
  6
Continuous
 62
     0
100
AcDbText
 10
97.152313
 20
11.75
 30
0.0
 40
3.5
  1
15
100
AcDbText
  0
ENDBLK
  5
5EF
100
AcDbEntity
  8
0
100
AcDbBlockEnd
  0
BLOCK
  5
5F2
100
AcDbEntity
  8
0
100
AcDbBlockBegin
  2
*B83
 70
     0
 10
0.0
 20
0.0
 30
0.0
  3
*B83
  1

  0
TEXT
  5
5F3
100
AcDbEntity
  8
TEXT
  6
Continuous
 62
     0
100
AcDbText
 10
213.850253
 20
11.75
 30
0.0
 40
3.5
  1
7
100
AcDbText
  0
ENDBLK
  5
5F4
100
AcDbEntity
  8
0
100
AcDbBlockEnd
  0
BLOCK
  5
5F7
100
AcDbEntity
  8
0
100
AcDbBlockBegin
  2
*B84
 70
     0
 10
0.0
 20
0.0
 30
0.0
  3
*B84
  1

  0
TEXT
  5
5F8
100
AcDbEntity
  8
TEXT
  6
Continuous
 62
     0
100
AcDbText
 10
180.383586
 20
11.75
 30
0.0
 40
3.5
  1
25
100
AcDbText
  0
ENDBLK
  5
5F9
100
AcDbEntity
  8
0
100
AcDbBlockEnd
  0
BLOCK
  5
5FC
100
AcDbEntity
  8
0
100
AcDbBlockBegin
  2
*B85
 70
     0
 10
0.0
 20
0.0
 30
0.0
  3
*B85
  1

  0
TEXT
  5
5FD
100
AcDbEntity
  8
TEXT
  6
Continuous
 62
     0
100
AcDbText
 10
180.393586
 20
66.75
 30
0.0
 40
3.5
  1
16
100
AcDbText
  0
ENDBLK
  5
5FE
100
AcDbEntity
  8
0
100
AcDbBlockEnd
  0
BLOCK
  5
601
100
AcDbEntity
  8
0
100
AcDbBlockBegin
  2
*B86
 70
     0
 10
0.0
 20
0.0
 30
0.0
  3
*B86
  1

  0
TEXT
  5
602
100
AcDbEntity
  8
TEXT
  6
Continuous
 62
     0
100
AcDbText
 10
70.25
 20
42.00032
 30
0.0
 40
3.5
  1
6,5
 50
90.0
100
AcDbText
  0
ENDBLK
  5
603
100
AcDbEntity
  8
0
100
AcDbBlockEnd
  0
BLOCK
  5
606
100
AcDbEntity
  8
0
100
AcDbBlockBegin
  2
*B87
 70
     0
 10
0.0
 20
0.0
 30
0.0
  3
*B87
  1

  0
TEXT
  5
607
100
AcDbEntity
  8
TEXT
  6
Continuous
 62
     0
100
AcDbText
 10
98.818979
 20
174.75
 30
0.0
 40
3.5
  1
5
100
AcDbText
  0
ENDBLK
  5
608
100
AcDbEntity
  8
0
100
AcDbBlockEnd
  0
BLOCK
  5
60B
100
AcDbEntity
  8
0
100
AcDbBlockBegin
  2
*B88
 70
     0
 10
0.0
 20
0.0
 30
0.0
  3
*B88
  1

  0
TEXT
  5
60C
100
AcDbEntity
  8
TEXT
  6
Continuous
 62
     0
100
AcDbText
 10
70.25
 20
61.333654
 30
0.0
 40
3.5
  1
12
 50
90.0
100
AcDbText
  0
ENDBLK
  5
60D
100
AcDbEntity
  8
0
100
AcDbBlockEnd
  0
ENDSEC
  0
SECTION
  2
ENTITIES
  0
INSERT
  5
22C
100
AcDbEntity
  8
0
  6
HIDDEN
 62
   174
100
AcDbBlockReference
  2
*B1
 10
0.0
 20
0.0
 30
0.0
  0
INSERT
  5
232
100
AcDbEntity
  8
0
  6
Continuous
 62
   172
100
AcDbBlockReference
  2
*B2
 10
0.0
 20
0.0
 30
0.0
  0
INSERT
  5
404
100
AcDbEntity
  8
0
  6
Continuous
 62
   174
100
AcDbBlockReference
  2
*B3
 10
0.0
 20
0.0
 30
0.0
  0
INSERT
  5
40B
100
AcDbEntity
  8
0
  6
Continuous
 62
     0
100
AcDbBlockReference
  2
*B4
 10
0.0
 20
0.0
 30
0.0
  0
INSERT
  5
412
100
AcDbEntity
  8
0
  6
Continuous
 62
     0
100
AcDbBlockReference
  2
*B5
 10
0.0
 20
0.0
 30
0.0
  0
INSERT
  5
419
100
AcDbEntity
  8
0
  6
Continuous
 62
     0
100
AcDbBlockReference
  2
*B6
 10
0.0
 20
0.0
 30
0.0
  0
INSERT
  5
420
100
AcDbEntity
  8
0
  6
Continuous
 62
     0
100
AcDbBlockReference
  2
*B7
 10
0.0
 20
0.0
 30
0.0
  0
INSERT
  5
427
100
AcDbEntity
  8
0
  6
Continuous
 62
     0
100
AcDbBlockReference
  2
*B8
 10
0.0
 20
0.0
 30
0.0
  0
INSERT
  5
42E
100
AcDbEntity
  8
0
  6
Continuous
 62
     0
100
AcDbBlockReference
  2
*B9
 10
0.0
 20
0.0
 30
0.0
  0
INSERT
  5
435
100
AcDbEntity
  8
0
  6
Continuous
 62
     0
100
AcDbBlockReference
  2
*B10
 10
0.0
 20
0.0
 30
0.0
  0
INSERT
  5
43C
100
AcDbEntity
  8
0
  6
Continuous
 62
     0
100
AcDbBlockReference
  2
*B11
 10
0.0
 20
0.0
 30
0.0
  0
INSERT
  5
443
100
AcDbEntity
  8
0
  6
Continuous
 62
     0
100
AcDbBlockReference
  2
*B12
 10
0.0
 20
0.0
 30
0.0
  0
INSERT
  5
44A
100
AcDbEntity
  8
0
  6
Continuous
 62
     0
100
AcDbBlockReference
  2
*B13
 10
0.0
 20
0.0
 30
0.0
  0
INSERT
  5
451
100
AcDbEntity
  8
0
  6
Continuous
 62
     0
100
AcDbBlockReference
  2
*B14
 10
0.0
 20
0.0
 30
0.0
  0
INSERT
  5
458
100
AcDbEntity
  8
0
  6
Continuous
 62
     0
100
AcDbBlockReference
  2
*B15
 10
0.0
 20
0.0
 30
0.0
  0
INSERT
  5
45F
100
AcDbEntity
  8
0
  6
Continuous
 62
     0
100
AcDbBlockReference
  2
*B16
 10
0.0
 20
0.0
 30
0.0
  0
INSERT
  5
466
100
AcDbEntity
  8
0
  6
Continuous
 62
     0
100
AcDbBlockReference
  2
*B17
 10
0.0
 20
0.0
 30
0.0
  0
INSERT
  5
46D
100
AcDbEntity
  8
0
  6
Continuous
 62
     0
100
AcDbBlockReference
  2
*B18
 10
0.0
 20
0.0
 30
0.0
  0
INSERT
  5
474
100
AcDbEntity
  8
0
  6
Continuous
 62
     0
100
AcDbBlockReference
  2
*B19
 10
0.0
 20
0.0
 30
0.0
  0
INSERT
  5
47B
100
AcDbEntity
  8
0
  6
Continuous
 62
     0
100
AcDbBlockReference
  2
*B20
 10
0.0
 20
0.0
 30
0.0
  0
INSERT
  5
480
100
AcDbEntity
  8
0
  6
Continuous
 62
     8
100
AcDbBlockReference
  2
*B21
 10
0.0
 20
0.0
 30
0.0
  0
INSERT
  5
485
100
AcDbEntity
  8
0
  6
Continuous
 62
     8
100
AcDbBlockReference
  2
*B22
 10
0.0
 20
0.0
 30
0.0
  0
INSERT
  5
48A
100
AcDbEntity
  8
0
  6
Continuous
 62
     8
100
AcDbBlockReference
  2
*B23
 10
0.0
 20
0.0
 30
0.0
  0
INSERT
  5
48F
100
AcDbEntity
  8
0
  6
Continuous
 62
     8
100
AcDbBlockReference
  2
*B24
 10
0.0
 20
0.0
 30
0.0
  0
INSERT
  5
496
100
AcDbEntity
  8
0
  6
Continuous
 62
     8
100
AcDbBlockReference
  2
*B25
 10
0.0
 20
0.0
 30
0.0
  0
INSERT
  5
4A3
100
AcDbEntity
  8
0
  6
Continuous
 62
     8
100
AcDbBlockReference
  2
*B26
 10
0.0
 20
0.0
 30
0.0
  0
INSERT
  5
4AA
100
AcDbEntity
  8
0
  6
Continuous
 62
     8
100
AcDbBlockReference
  2
*B27
 10
0.0
 20
0.0
 30
0.0
  0
INSERT
  5
4B0
100
AcDbEntity
  8
0
  6
Continuous
 62
     8
100
AcDbBlockReference
  2
*B28
 10
0.0
 20
0.0
 30
0.0
  0
INSERT
  5
4B7
100
AcDbEntity
  8
0
  6
Continuous
 62
     8
100
AcDbBlockReference
  2
*B29
 10
0.0
 20
0.0
 30
0.0
  0
INSERT
  5
4BC
100
AcDbEntity
  8
0
  6
Continuous
 62
     8
100
AcDbBlockReference
  2
*B30
 10
0.0
 20
0.0
 30
0.0
  0
INSERT
  5
4C3
100
AcDbEntity
  8
0
  6
Continuous
 62
     8
100
AcDbBlockReference
  2
*B31
 10
0.0
 20
0.0
 30
0.0
  0
INSERT
  5
4C9
100
AcDbEntity
  8
0
  6
Continuous
 62
     8
100
AcDbBlockReference
  2
*B32
 10
0.0
 20
0.0
 30
0.0
  0
INSERT
  5
4CE
100
AcDbEntity
  8
0
  6
Continuous
 62
     8
100
AcDbBlockReference
  2
*B33
 10
0.0
 20
0.0
 30
0.0
  0
INSERT
  5
4D5
100
AcDbEntity
  8
0
  6
Continuous
 62
     8
100
AcDbBlockReference
  2
*B34
 10
0.0
 20
0.0
 30
0.0
  0
INSERT
  5
4E4
100
AcDbEntity
  8
0
  6
Continuous
 62
     8
100
AcDbBlockReference
  2
*B35
 10
0.0
 20
0.0
 30
0.0
  0
INSERT
  5
4EA
100
AcDbEntity
  8
0
  6
Continuous
 62
     8
100
AcDbBlockReference
  2
*B36
 10
0.0
 20
0.0
 30
0.0
  0
INSERT
  5
4EF
100
AcDbEntity
  8
0
  6
Continuous
 62
     8
100
AcDbBlockReference
  2
*B37
 10
0.0
 20
0.0
 30
0.0
  0
INSERT
  5
4FA
100
AcDbEntity
  8
0
  6
Continuous
 62
     8
100
AcDbBlockReference
  2
*B38
 10
0.0
 20
0.0
 30
0.0
  0
INSERT
  5
4FF
100
AcDbEntity
  8
0
  6
Continuous
 62
     8
100
AcDbBlockReference
  2
*B39
 10
0.0
 20
0.0
 30
0.0
  0
INSERT
  5
504
100
AcDbEntity
  8
0
  6
Continuous
 62
     8
100
AcDbBlockReference
  2
*B40
 10
0.0
 20
0.0
 30
0.0
  0
INSERT
  5
509
100
AcDbEntity
  8
0
  6
Continuous
 62
     8
100
AcDbBlockReference
  2
*B41
 10
0.0
 20
0.0
 30
0.0
  0
INSERT
  5
50E
100
AcDbEntity
  8
0
  6
Continuous
 62
     8
100
AcDbBlockReference
  2
*B42
 10
0.0
 20
0.0
 30
0.0
  0
INSERT
  5
513
100
AcDbEntity
  8
0
  6
Continuous
 62
     8
100
AcDbBlockReference
  2
*B43
 10
0.0
 20
0.0
 30
0.0
  0
INSERT
  5
518
100
AcDbEntity
  8
0
  6
Continuous
 62
     8
100
AcDbBlockReference
  2
*B44
 10
0.0
 20
0.0
 30
0.0
  0
INSERT
  5
51F
100
AcDbEntity
  8
0
  6
Continuous
 62
     8
100
AcDbBlockReference
  2
*B45
 10
0.0
 20
0.0
 30
0.0
  0
INSERT
  5
524
100
AcDbEntity
  8
0
  6
Continuous
 62
     8
100
AcDbBlockReference
  2
*B46
 10
0.0
 20
0.0
 30
0.0
  0
INSERT
  5
529
100
AcDbEntity
  8
0
  6
Continuous
 62
     8
100
AcDbBlockReference
  2
*B47
 10
0.0
 20
0.0
 30
0.0
  0
INSERT
  5
530
100
AcDbEntity
  8
0
  6
Continuous
 62
     8
100
AcDbBlockReference
  2
*B48
 10
0.0
 20
0.0
 30
0.0
  0
INSERT
  5
535
100
AcDbEntity
  8
0
  6
Continuous
 62
     8
100
AcDbBlockReference
  2
*B49
 10
0.0
 20
0.0
 30
0.0
  0
INSERT
  5
53A
100
AcDbEntity
  8
0
  6
Continuous
 62
     8
100
AcDbBlockReference
  2
*B50
 10
0.0
 20
0.0
 30
0.0
  0
INSERT
  5
541
100
AcDbEntity
  8
0
  6
Continuous
 62
     8
100
AcDbBlockReference
  2
*B51
 10
0.0
 20
0.0
 30
0.0
  0
INSERT
  5
547
100
AcDbEntity
  8
0
  6
Continuous
 62
     8
100
AcDbBlockReference
  2
*B52
 10
0.0
 20
0.0
 30
0.0
  0
INSERT
  5
54E
100
AcDbEntity
  8
0
  6
Continuous
 62
     8
100
AcDbBlockReference
  2
*B53
 10
0.0
 20
0.0
 30
0.0
  0
INSERT
  5
554
100
AcDbEntity
  8
0
  6
Continuous
 62
     8
100
AcDbBlockReference
  2
*B54
 10
0.0
 20
0.0
 30
0.0
  0
INSERT
  5
55B
100
AcDbEntity
  8
0
  6
Continuous
 62
     8
100
AcDbBlockReference
  2
*B55
 10
0.0
 20
0.0
 30
0.0
  0
INSERT
  5
561
100
AcDbEntity
  8
0
  6
Continuous
 62
     8
100
AcDbBlockReference
  2
*B56
 10
0.0
 20
0.0
 30
0.0
  0
INSERT
  5
566
100
AcDbEntity
  8
0
  6
Continuous
 62
     8
100
AcDbBlockReference
  2
*B57
 10
0.0
 20
0.0
 30
0.0
  0
INSERT
  5
56B
100
AcDbEntity
  8
0
  6
Continuous
 62
     8
100
AcDbBlockReference
  2
*B58
 10
0.0
 20
0.0
 30
0.0
  0
INSERT
  5
570
100
AcDbEntity
  8
0
  6
Continuous
 62
     8
100
AcDbBlockReference
  2
*B59
 10
0.0
 20
0.0
 30
0.0
  0
INSERT
  5
579
100
AcDbEntity
  8
0
  6
Continuous
 62
     8
100
AcDbBlockReference
  2
*B60
 10
0.0
 20
0.0
 30
0.0
  0
INSERT
  5
57E
100
AcDbEntity
  8
0
  6
Continuous
 62
     8
100
AcDbBlockReference
  2
*B61
 10
0.0
 20
0.0
 30
0.0
  0
INSERT
  5
584
100
AcDbEntity
  8
0
  6
Continuous
 62
     6
100
AcDbBlockReference
  2
*B62
 10
0.0
 20
0.0
 30
0.0
  0
INSERT
  5
58A
100
AcDbEntity
  8
0
  6
Continuous
 62
     6
100
AcDbBlockReference
  2
*B63
 10
0.0
 20
0.0
 30
0.0
  0
INSERT
  5
590
100
AcDbEntity
  8
0
  6
Continuous
 62
     6
100
AcDbBlockReference
  2
*B64
 10
0.0
 20
0.0
 30
0.0
  0
INSERT
  5
596
100
AcDbEntity
  8
0
  6
Continuous
 62
     6
100
AcDbBlockReference
  2
*B65
 10
0.0
 20
0.0
 30
0.0
  0
INSERT
  5
59C
100
AcDbEntity
  8
0
  6
Continuous
 62
     6
100
AcDbBlockReference
  2
*B66
 10
0.0
 20
0.0
 30
0.0
  0
INSERT
  5
5A2
100
AcDbEntity
  8
0
  6
Continuous
 62
     6
100
AcDbBlockReference
  2
*B67
 10
0.0
 20
0.0
 30
0.0
  0
INSERT
  5
5A8
100
AcDbEntity
  8
0
  6
Continuous
 62
     6
100
AcDbBlockReference
  2
*B68
 10
0.0
 20
0.0
 30
0.0
  0
INSERT
  5
5AD
100
AcDbEntity
  8
TEXT
  6
Continuous
 62
     0
100
AcDbBlockReference
  2
*B69
 10
0.0
 20
0.0
 30
0.0
  0
INSERT
  5
5B2
100
AcDbEntity
  8
TEXT
  6
Continuous
 62
     0
100
AcDbBlockReference
  2
*B70
 10
0.0
 20
0.0
 30
0.0
  0
INSERT
  5
5B7
100
AcDbEntity
  8
TEXT
  6
Continuous
 62
     0
100
AcDbBlockReference
  2
*B71
 10
0.0
 20
0.0
 30
0.0
  0
INSERT
  5
5BC
100
AcDbEntity
  8
TEXT
  6
Continuous
 62
     0
100
AcDbBlockReference
  2
*B72
 10
0.0
 20
0.0
 30
0.0
  0
INSERT
  5
5C1
100
AcDbEntity
  8
TEXT
  6
Continuous
 62
     0
100
AcDbBlockReference
  2
*B73
 10
0.0
 20
0.0
 30
0.0
  0
INSERT
  5
5C7
100
AcDbEntity
  8
TEXT
  6
Continuous
 62
     0
100
AcDbBlockReference
  2
*B74
 10
0.0
 20
0.0
 30
0.0
  0
INSERT
  5
5CD
100
AcDbEntity
  8
TEXT
  6
Continuous
 62
     0
100
AcDbBlockReference
  2
*B75
 10
0.0
 20
0.0
 30
0.0
  0
INSERT
  5
5D2
100
AcDbEntity
  8
TEXT
  6
Continuous
 62
     0
100
AcDbBlockReference
  2
*B76
 10
0.0
 20
0.0
 30
0.0
  0
INSERT
  5
5D7
100
AcDbEntity
  8
TEXT
  6
Continuous
 62
     0
100
AcDbBlockReference
  2
*B77
 10
0.0
 20
0.0
 30
0.0
  0
INSERT
  5
5DC
100
AcDbEntity
  8
TEXT
  6
Continuous
 62
     0
100
AcDbBlockReference
  2
*B78
 10
0.0
 20
0.0
 30
0.0
  0
INSERT
  5
5E1
100
AcDbEntity
  8
TEXT
  6
Continuous
 62
     0
100
AcDbBlockReference
  2
*B79
 10
0.0
 20
0.0
 30
0.0
  0
INSERT
  5
5E6
100
AcDbEntity
  8
TEXT
  6
Continuous
 62
     0
100
AcDbBlockReference
  2
*B80
 10
0.0
 20
0.0
 30
0.0
  0
INSERT
  5
5EB
100
AcDbEntity
  8
TEXT
  6
Continuous
 62
     0
100
AcDbBlockReference
  2
*B81
 10
0.0
 20
0.0
 30
0.0
  0
INSERT
  5
5F0
100
AcDbEntity
  8
TEXT
  6
Continuous
 62
     0
100
AcDbBlockReference
  2
*B82
 10
0.0
 20
0.0
 30
0.0
  0
INSERT
  5
5F5
100
AcDbEntity
  8
TEXT
  6
Continuous
 62
     0
100
AcDbBlockReference
  2
*B83
 10
0.0
 20
0.0
 30
0.0
  0
INSERT
  5
5FA
100
AcDbEntity
  8
TEXT
  6
Continuous
 62
     0
100
AcDbBlockReference
  2
*B84
 10
0.0
 20
0.0
 30
0.0
  0
INSERT
  5
5FF
100
AcDbEntity
  8
TEXT
  6
Continuous
 62
     0
100
AcDbBlockReference
  2
*B85
 10
0.0
 20
0.0
 30
0.0
  0
INSERT
  5
604
100
AcDbEntity
  8
TEXT
  6
Continuous
 62
     0
100
AcDbBlockReference
  2
*B86
 10
0.0
 20
0.0
 30
0.0
  0
INSERT
  5
609
100
AcDbEntity
  8
TEXT
  6
Continuous
 62
     0
100
AcDbBlockReference
  2
*B87
 10
0.0
 20
0.0
 30
0.0
  0
INSERT
  5
60E
100
AcDbEntity
  8
TEXT
  6
Continuous
 62
     0
100
AcDbBlockReference
  2
*B88
 10
0.0
 20
0.0
 30
0.0
  0
ENDSEC
  0
SECTION
  2
OBJECTS
  0
DICTIONARY
  5
19
100
AcDbDictionary
280
     0
281
     1
  3
ACAD_GROUP
350
1A
  3
ACAD_MLINESTYLE
350
1B
  3
ACAD_LAYOUT
350
1E
  3
ACAD_PLOTSETTINGS
350
22
  3
ACAD_PLOTSTYLENAME
350
1F
  3
ACAD_WIPEOUT_VARS
350
23
  0
DICTIONARY
  5
1A
102
{ACAD_REACTORS
330
19
102
}
100
AcDbDictionary
280
     0
281
     1
  0
DICTIONARY
  5
1B
102
{ACAD_REACTORS
330
19
102
}
100
AcDbDictionary
280
     0
281
     1
  3
Standard
350
1C
  0
MLINESTYLE
  5
1C
102
{ACAD_REACTORS
330
1B
102
}
100
AcDbMlineStyle
  2
Standard
 70
     0
  3

 62
     0
 51
90.0
 52
90.0
 71
     2
 49
0.5
 62
   256
  6
BYLAYER
 49
-0.5
 62
   256
  6
BYLAYER
  0
ACDBDICTIONARYWDFLT
  5
1F
102
{ACAD_REACTORS
330
19
102
}
100
AcDbDictionary
281
     1
  3
Normal
350
1D
100
AcDbDictionaryWithDefault
340
1D
  0
ACDBPLACEHOLDER
  5
1D
102
{ACAD_REACTORS
330
1F
102
}
  0
LAYOUT
  5
20
102
{ACAD_REACTORS
330
1E
102
}
100
AcDbPlotSettings
  1

  2

  4

  6

 40
0.0
 41
0.0
 42
0.0
 43
0.0
 44
0.0
 45
0.0
 46
0.0
 47
0.0
 48
0.0
 49
0.0
140
0.0
141
0.0
142
1.0
143
1.0
 70
     0
 72
     0
 73
     0
 74
     0
  7

 75
     0
147
1.0
148
0.0
149
0.0
100
AcDbLayout
  1
Model
 70
     0
 71
     0
 10
0.0
 20
0.0
 11
0.0
 21
0.0
 12
0.0
 22
0.0
 32
0.0
 14
0.0
 24
0.0
 34
0.0
 15
0.0
 25
0.0
 35
0.0
146
0.0
 13
0.0
 23
0.0
 33
0.0
 16
0.0
 26
0.0
 36
0.0
 17
0.0
 27
0.0
 37
0.0
 76
     0
330
A
331
0
345
0
346
0
  0
LAYOUT
  5
21
102
{ACAD_REACTORS
330
1E
102
}
100
AcDbPlotSettings
  1

  2

  4

  6

 40
0.0
 41
0.0
 42
0.0
 43
0.0
 44
0.0
 45
0.0
 46
0.0
 47
0.0
 48
0.0
 49
0.0
140
0.0
141
0.0
142
1.0
143
1.0
 70
     0
 72
     0
 73
     0
 74
     0
  7

 75
     0
147
1.0
148
0.0
149
0.0
100
AcDbLayout
  1
Layout1
 70
     0
 71
     0
 10
0.0
 20
0.0
 11
0.0
 21
0.0
 12
0.0
 22
0.0
 32
0.0
 14
0.0
 24
0.0
 34
0.0
 15
0.0
 25
0.0
 35
0.0
146
0.0
 13
0.0
 23
0.0
 33
0.0
 16
0.0
 26
0.0
 36
0.0
 17
0.0
 27
0.0
 37
0.0
 76
     0
330
B
331
0
345
0
346
0
  0
DICTIONARY
  5
1E
102
{ACAD_REACTORS
330
19
102
}
100
AcDbDictionary
280
     0
281
     1
  3
Layout1
350
21
  3
Model
350
20
  0
DICTIONARY
  5
22
102
{ACAD_REACTORS
330
19
102
}
100
AcDbDictionary
280
     0
281
     1
  0
WIPEOUTVARIABLES
  5
23
100
AcDbWipeoutVariables
 70
     1
  0
ENDSEC
  0
EOF
