  0
SECTION
  2
HEADER
  9
$ACADVER
  1
AC1015
  9
$ACADMAINTVER
 70
     6
  9
$DWGCODEPAGE
  3
DOS850
  9
$INSBASE
 10
0.0
 20
0.0
 30
0.0
  9
$EXTMIN
 10
0.0
 20
0.0
 30
0.0
  9
$EXTMAX
 10
420.0
 20
297.0
 30
0.0
  9
$LIMMIN
 10
0.0
 20
0.0
  9
$LIMMAX
 10
420.0
 20
297.0
  9
$ORTHOMODE
 70
     0
  9
$REGENMODE
 70
     1
  9
$FILLMODE
 70
     1
  9
$QTEXTMODE
 70
     0
  9
$MIRRTEXT
 70
     1
  9
$LTSCALE
 40
25.4
  9
$ATTMODE
 70
     1
  9
$TEXTSIZE
 40
3.5
  9
$TRACEWID
 40
0.05
  9
$TEXTSTYLE
  7
Standard
  9
$CLAYER
  8
0
  9
$CELTYPE
  6
Continuous
  9
$CECOLOR
 62
   256
  9
$CELTSCALE
 40
1.0
  9
$DISPSILH
 70
     0
  9
$DIMSCALE
 40
1.0
  9
$DIMASZ
 40
5.0
  9
$DIMEXO
 40
3.0
  9
$DIMDLI
 40
0.38
  9
$DIMRND
 40
0.0
  9
$DIMDLE
 40
0.0
  9
$DIMEXE
 40
2.0
  9
$DIMTP
 40
0.0
  9
$DIMTM
 40
0.0
  9
$DIMTXT
 40
3.5
  9
$DIMCEN
 40
4.0
  9
$DIMTSZ
 40
0.0
  9
$DIMTOL
 70
     0
  9
$DIMLIM
 70
     0
  9
$DIMTIH
 70
     1
  9
$DIMTOH
 70
     1
  9
$DIMSE1
 70
     0
  9
$DIMSE2
 70
     0
  9
$DIMTAD
 70
     0
  9
$DIMZIN
 70
     0
  9
$DIMBLK
  1

  9
$DIMASO
 70
     1
  9
$DIMSHO
 70
     1
  9
$DIMPOST
  1

  9
$DIMAPOST
  1

  9
$DIMALT
 70
     0
  9
$DIMALTD
 70
     2
  9
$DIMALTF
 40
25.4
  9
$DIMLFAC
 40
1.0
  9
$DIMTOFL
 70
     0
  9
$DIMTVP
 40
0.0
  9
$DIMTIX
 70
     0
  9
$DIMSOXD
 70
     0
  9
$DIMSAH
 70
     0
  9
$DIMBLK1
  1

  9
$DIMBLK2
  1

  9
$DIMSTYLE
  2
Standard
  9
$DIMCLRD
 70
     0
  9
$DIMCLRE
 70
     0
  9
$DIMCLRT
 70
     0
  9
$DIMTFAC
 40
1.0
  9
$DIMGAP
 40
1.0
  9
$DIMJUST
 70
     0
  9
$DIMSD1
 70
     0
  9
$DIMSD2
 70
     0
  9
$DIMTOLJ
 70
     1
  9
$DIMTZIN
 70
     0
  9
$DIMALTZ
 70
     0
  9
$DIMALTTZ
 70
     0
  9
$DIMUPT
 70
     0
  9
$DIMDEC
 70
     4
  9
$DIMTDEC
 70
     4
  9
$DIMALTU
 70
     2
  9
$DIMALTTD
 70
     2
  9
$DIMTXSTY
  7
Standard
  9
$DIMAUNIT
 70
     0
  9
$DIMADEC
 70
     0
  9
$DIMALTRND
 40
0.0
  9
$DIMAZIN
 70
     0
  9
$DIMDSEP
 70
     0
  9
$DIMATFIT
 70
     3
  9
$DIMFRAC
 70
     0
  9
$DIMLDRBLK
  1

  9
$DIMLUNIT
 70
     2
  9
$DIMLWD
 70
     0
  9
$DIMLWE
 70
     0
  9
$DIMTMOVE
 70
     0
  9
$LUNITS
 70
     2
  9
$LUPREC
 70
     4
  9
$SKETCHINC
 40
0.1
  9
$FILLETRAD
 40
0.0
  9
$AUNITS
 70
     0
  9
$AUPREC
 70
     0
  9
$MENU
  1
acad
  9
$ELEVATION
 40
0.0
  9
$PELEVATION
 40
0.0
  9
$THICKNESS
 40
0.0
  9
$LIMCHECK
 70
     0
  9
$CHAMFERA
 40
0.0
  9
$CHAMFERB
 40
0.0
  9
$CHAMFERC
 40
0.0
  9
$CHAMFERD
 40
0.0
  9
$SKPOLY
 70
     0
  9
$TDCREATE
 40
0.000000000
  9
$TDUCREATE
 40
0.000000000
  9
$TDUPDATE
 40
0.000000000
  9
$TDUUPDATE
 40
0.000000000
  9
$TDINDWG
 40
0.0000000000
  9
$TDUSRTIMER
 40
0.0000000000
  9
$USRTIMER
 70
     1
  9
$ANGBASE
 50
0.0
  9
$ANGDIR
 70
     0
  9
$PDMODE
 70
     0
  9
$PDSIZE
 40
0.0
  9
$PLINEWID
 40
0.0
  9
$SPLFRAME
 70
     0
  9
$SPLINETYPE
 70
     6
  9
$SPLINESEGS
 70
     8
  9
$HANDSEED
  5
56D
  9
$SURFTAB1
 70
     6
  9
$SURFTAB2
 70
     6
  9
$SURFTYPE
 70
     6
  9
$SURFU
 70
     6
  9
$SURFV
 70
     6
  9
$UCSBASE
  2

  9
$UCSNAME
  2

  9
$UCSORG
 10
0.0
 20
0.0
 30
0.0
  9
$UCSXDIR
 10
1.0
 20
0.0
 30
0.0
  9
$UCSYDIR
 10
0.0
 20
1.0
 30
0.0
  9
$UCSORTHOREF
  2

  9
$UCSORTHOVIEW
 70
     0
  9
$UCSORGTOP
 10
0.0
 20
0.0
 30
0.0
  9
$UCSORGBOTTOM
 10
0.0
 20
0.0
 30
0.0
  9
$UCSORGLEFT
 10
0.0
 20
0.0
 30
0.0
  9
$UCSORGRIGHT
 10
0.0
 20
0.0
 30
0.0
  9
$UCSORGFRONT
 10
0.0
 20
0.0
 30
0.0
  9
$UCSORGBACK
 10
0.0
 20
0.0
 30
0.0
  9
$PUCSBASE
  2

  9
$PUCSNAME
  2

  9
$PUCSORG
 10
0.0
 20
0.0
 30
0.0
  9
$PUCSXDIR
 10
1.0
 20
0.0
 30
0.0
  9
$PUCSYDIR
 10
0.0
 20
1.0
 30
0.0
  9
$PUCSORTHOREF
  2

  9
$PUCSORTHOVIEW
 70
     0
  9
$PUCSORGTOP
 10
0.0
 20
0.0
 30
0.0
  9
$PUCSORGBOTTOM
 10
0.0
 20
0.0
 30
0.0
  9
$PUCSORGLEFT
 10
0.0
 20
0.0
 30
0.0
  9
$PUCSORGRIGHT
 10
0.0
 20
0.0
 30
0.0
  9
$PUCSORGFRONT
 10
0.0
 20
0.0
 30
0.0
  9
$PUCSORGBACK
 10
0.0
 20
0.0
 30
0.0
  9
$USERI1
 70
     0
  9
$USERI2
 70
     0
  9
$USERI3
 70
     0
  9
$USERI4
 70
     0
  9
$USERI5
 70
     0
  9
$USERR1
 40
0.0
  9
$USERR2
 40
0.0
  9
$USERR3
 40
0.0
  9
$USERR4
 40
0.0
  9
$USERR5
 40
0.0
  9
$WORLDVIEW
 70
     1
  9
$SHADEDGE
 70
     3
  9
$SHADEDIF
 70
    70
  9
$TILEMODE
 70
     1
  9
$MAXACTVP
 70
    16
  9
$PINSBASE
 10
0.0
 20
0.0
 30
0.0
  9
$PLIMCHECK
 70
     0
  9
$PEXTMIN
 10
1.000000E+20
 20
1.000000E+20
 30
1.000000E+20
  9
$PEXTMAX
 10
-1.000000E+20
 20
-1.000000E+20
 30
-1.000000E+20
  9
$PLIMMIN
 10
0.0
 20
0.0
  9
$PLIMMAX
 10
420.0
 20
297.0
  9
$UNITMODE
 70
     0
  9
$VISRETAIN
 70
     0
  9
$PLINEGEN
 70
     1
  9
$PSLTSCALE
 70
     0
  9
$TREEDEPTH
 70
  3020
  9
$CMLSTYLE
  2
Standard
  9
$CMLJUST
 70
     0
  9
$CMLSCALE
 40
1.0
  9
$PROXYGRAPHICS
 70
     0
  9
$MEASUREMENT
 70
     0
  9
$CELWEIGHT
370
     0
  9
$ENDCAPS
280
     0
  9
$JOINSTYLE
280
     0
  9
$LWDISPLAY
290
     0
  9
$INSUNITS
 70
     0
  9
$HYPERLINKBASE
  1

  9
$XEDIT
290
     1
  9
$CEPSNTYPE
380
     0
  9
$PSTYLEMODE
290
     0
  9
$FINGERPRINTGUID
  2

  9
$VERSIONGUID
  2

  9
$EXTNAMES
290
     1
  9
$PSVPSCALE
 40
0.0
  0
ENDSEC
  0
SECTION
  2
CLASSES
  0
CLASS
  1
LWPOLYLINE
  2
AcDbPolyline
  3
"AutoCAD"
 90
        0
280
     0
281
     1
  0
CLASS
  1
IMAGE
  2
AcDbRasterImage
  3
ISM
 90
      127
280
     0
281
     1
  0
CLASS
  1
OLE2FRAME
  2
AcDbOle2Frame
  3
""
 90
        0
280
     0
281
     1
  0
CLASS
  1
HATCH
  2
AcDbHatch
  3
"ACAD_SEDONA"
 90
        0
280
     0
281
     1
  0
CLASS
  1
DICTIONARYVAR
  2
AcDbDictionaryVar
  3
"AutoCAD"
 90
        0
280
     0
281
     0
  0
CLASS
  1
RASTERVARIABLES
  2
AcDbRasterVariables
  3
ISM
 90
        0
280
     0
281
     0
  0
CLASS
  1
IMAGEDEF
  2
AcDbRasterImageDef
  3
ISM
 90
        0
280
     0
281
     0
  0
CLASS
  1
IMAGEDEF_REACTOR
  2
AcDbRasterImageDefReactor
  3
ISM
 90
        1
280
     0
281
     0
  0
CLASS
  1
IDBUFFER
  2
AcDbIdBuffer
  3
"Acad"
 90
        0
280
     0
281
     0
  0
CLASS
  1
SPATIAL_FILTER
  2
AcDbSpatialFilter
  3
"Acad"
 90
        0
280
     0
281
     0
  0
CLASS
  1
XRECORD
  2
AcDbXrecord
  3
"<Built In>"
 90
        0
280
     0
281
     0
  0
CLASS
  1
SORTENTSTABLE
  2
AcDbSortentsTable
  3
"AutoCAD"
 90
        0
280
     0
281
     0
  0
CLASS
  1
LAYER_INDEX
  2
AcDbLayerIndex
  3
"Acad"
 90
        0
280
     0
281
     0
  0
CLASS
  1
SPATIAL_INDEX
  2
AcDbSpatialIndex
  3
"Acad"
 90
        0
280
     0
281
     0
  0
CLASS
  1
OBJECT_PTR
  2
CAseDLPNTableRecord
  3
"ASE-LPNTableRecord"
 90
        1
280
     0
281
     0
  0
CLASS
  1
LAYOUT
  2
AcDbLayout
  3
"AutoCAD 2000"
 90
        1
280
     0
281
     0
  0
CLASS
  1
PLOTSETTINGS
  2
AcDbPlotSettings
  3
"AutoCAD 2000"
 90
        1
280
     0
281
     0
  0
CLASS
  1
ACDBDICTIONARYWDFLT
  2
AcDbDictionaryWithDefault
  3
"AutoCAD 2000"
 90
        1
280
     0
281
     0
  0
CLASS
  1
ACDBPLACEHOLDER
  2
AcDbPlaceHolder
  3
"AutoCAD 2000"
 90
        1
280
     0
281
     0
  0
CLASS
  1
VBA_PROJECT
  2
AcDbVbaProject
  3
"acadvba"
 90
        1
280
     0
281
     0
  0
CLASS
  1
WIPEOUT
  2
AcDbWipeout
  3
WipeOut|AutoCAD Express Tool|expresstools@autodesk.com
 90
      127
280
     0
281
     1
  0
CLASS
  1
WIPEOUTVARIABLES
  2
AcDbWipeoutVariables
  3
WipeOut|AutoCAD Express Tool|expresstools@autodesk.com
 90
        0
280
     0
281
     0
  0
CLASS
  1
RTEXT
  2
RText
  3
RText|AutoCAD Express Tool|expresstools@autodesk.com
 90
        0
280
     0
281
     1
  0
CLASS
  1
ARCALIGNEDTEXT
  2
AcDbArcAlignedText
  3
ATEXT|AutoCAD Express Tool|expresstools@autodesk.com
 90
        0
280
     0
281
     1
  0
ENDSEC
  0
SECTION
  2
TABLES
  0
TABLE
  2
VPORT
  5
7
100
AcDbSymbolTable
 70
     1
  0
VPORT
  5
15
100
AcDbSymbolTableRecord
100
AcDbViewportTableRecord
  2
*ACTIVE
 70
     0
 10
0.0
 20
0.0
 11
1.0
 21
1.0
 12
6.591288
 22
4.579184
 13
0.0
 23
0.0
 14
1.0
 24
1.0
 15
0.0
 25
0.0
 16
0.0
 26
0.0
 36
1.0
 17
0.0
 27
0.0
 37
0.0
 40
9.158369
 41
0.688564
 42
50.0
 43
0.0
 44
0.0
 50
0.0
 51
0.0
 71
     0
 72
   100
 73
     1
 74
     1
 75
     0
 76
     0
 77
     0
 78
     0
281
     0
 65
     0
110
0.0
120
0.0
130
0.0
111
1.0
121
0.0
131
0.0
112
0.0
122
1.0
132
0.0
345
0
346
0
 79
     0
146
0.0
  0
ENDTAB
  0
TABLE
  2
LTYPE
  5
4
100
AcDbSymbolTable
 70
     7
  0
LTYPE
  5
11
100
AcDbSymbolTableRecord
100
AcDbLinetypeTableRecord
  2
ByBlock
 70
    64
  3

 72
    65
 73
     0
 40
0.0
  0
LTYPE
  5
12
100
AcDbSymbolTableRecord
100
AcDbLinetypeTableRecord
  2
ByLayer
 70
    64
  3

 72
    65
 73
     0
 40
0.0
  0
LTYPE
  5
13
100
AcDbSymbolTableRecord
100
AcDbLinetypeTableRecord
  2
Continuous
 70
    64
  3
Solid line
 72
    65
 73
     0
 40
0.0
  0
LTYPE
  5
24
100
AcDbSymbolTableRecord
100
AcDbLinetypeTableRecord
  2
HIDDEN
 70
    64
  3
_ _ _ _ _ _ _ _ _ _ _ _ _ _ _ _ _ _ _ _ _ _ _ _
 72
    65
 73
     2
 40
0.1875
 49
0.125
 74
     0
 49
-0.0625
 74
     0
  0
LTYPE
  5
25
100
AcDbSymbolTableRecord
100
AcDbLinetypeTableRecord
  2
DOTTED
 70
    64
  3
...............................................
 72
    65
 73
     2
 40
0.125
 49
0.0
 74
     0
 49
-0.125
 74
     0
  0
LTYPE
  5
26
100
AcDbSymbolTableRecord
100
AcDbLinetypeTableRecord
  2
CENTER
 70
    64
  3
____ _ ____ _ ____ _ ____ _ ____ _ ____ _ ____ 
 72
    65
 73
     4
 40
1.125
 49
0.75
 74
     0
 49
-0.125
 74
     0
 49
0.125
 74
     0
 49
-0.125
 74
     0
  0
LTYPE
  5
27
100
AcDbSymbolTableRecord
100
AcDbLinetypeTableRecord
  2
PHANTOM
 70
    64
  3
______  __  __  ______  __  __  ______  __  __ 
 72
    65
 73
     6
 40
1.25
 49
0.625
 74
     0
 49
-0.125
 74
     0
 49
0.125
 74
     0
 49
-0.125
 74
     0
 49
0.125
 74
     0
 49
-0.125
 74
     0
  0
ENDTAB
  0
TABLE
  2
LAYER
  5
2
100
AcDbSymbolTable
 70
     2
  0
LAYER
  5
14
100
AcDbSymbolTableRecord
100
AcDbLayerTableRecord
  2
0
 70
     0
 62
     7
  6
Continuous
290
     1
370
    -3
390
1D
  0
LAYER
  5
28
100
AcDbSymbolTableRecord
100
AcDbLayerTableRecord
  2
TEXT
 70
     0
 62
     8
  6
Continuous
290
     1
370
    -3
390
1F
  0
ENDTAB
  0
TABLE
  2
STYLE
  5
3
100
AcDbSymbolTable
 70
     1
  0
STYLE
  5
17
100
AcDbSymbolTableRecord
100
AcDbTextStyleTableRecord
  2
Standard
 70
     0
 40
0.0
 41
1.0
 50
0.0
 71
     0
 42
0.0
  3
txt
  4

  0
ENDTAB
  0
TABLE
  2
VIEW
  5
5
100
AcDbSymbolTable
 70
     0
  0
ENDTAB
  0
TABLE
  2
UCS
  5
6
100
AcDbSymbolTable
 70
     0
  0
ENDTAB
  0
TABLE
  2
APPID
  5
8
100
AcDbSymbolTable
 70
     1
  0
APPID
  5
16
100
AcDbSymbolTableRecord
100
AcDbRegAppTableRecord
  2
ACAD
 70
     0
  0
ENDTAB
  0
TABLE
  2
DIMSTYLE
  5
9
100
AcDbSymbolTable
 70
     1
100
AcDbDimStyleTable
 71
     0
  0
DIMSTYLE
105
18
100
AcDbSymbolTableRecord
100
AcDbDimStyleTableRecord
  2
Standard
 70
     0
  3

  4

 40
1.0
 41
0.18
 42
0.0625
 43
0.38
 44
0.18
 45
0.0
 46
0.0
 47
0.0
 48
0.0
 71
     0
 72
     0
 73
     1
 74
     1
 75
     0
 76
     0
 77
     0
 78
     0
 79
     0
140
0.18
141
0.09
142
0.0
143
25.4
144
1.0
145
0.0
146
1.0
147
0.09
148
0.0
170
     0
171
     2
172
     0
173
     0
174
     0
175
     0
176
     0
177
     0
178
     0
179
     0
271
     4
272
     4
273
     2
274
     2
275
     0
276
     0
277
     2
278
    46
279
     0
280
     0
281
     0
282
     0
283
     1
284
     0
285
     0
286
     0
288
     0
340
17
341
0
342
0
343
0
344
0
371
    -2
372
    -2
  0
ENDTAB
  0
TABLE
  2
BLOCK_RECORD
  5
1
100
AcDbSymbolTable
 70
    78
  0
BLOCK_RECORD
  5
A
100
AcDbSymbolTableRecord
100
AcDbBlockTableRecord
  2
*MODEL_SPACE
340
20
  0
BLOCK_RECORD
  5
B
100
AcDbSymbolTableRecord
100
AcDbBlockTableRecord
  2
*PAPER_SPACE
340
21
  0
BLOCK_RECORD
  5
29
100
AcDbSymbolTableRecord
100
AcDbBlockTableRecord
  2
*B0
340
0
  0
BLOCK_RECORD
  5
2C
100
AcDbSymbolTableRecord
100
AcDbBlockTableRecord
  2
*B1
340
0
  0
BLOCK_RECORD
  5
1CE
100
AcDbSymbolTableRecord
100
AcDbBlockTableRecord
  2
*B2
340
0
  0
BLOCK_RECORD
  5
1D5
100
AcDbSymbolTableRecord
100
AcDbBlockTableRecord
  2
*B3
340
0
  0
BLOCK_RECORD
  5
391
100
AcDbSymbolTableRecord
100
AcDbBlockTableRecord
  2
*B4
340
0
  0
BLOCK_RECORD
  5
398
100
AcDbSymbolTableRecord
100
AcDbBlockTableRecord
  2
*B5
340
0
  0
BLOCK_RECORD
  5
39F
100
AcDbSymbolTableRecord
100
AcDbBlockTableRecord
  2
*B6
340
0
  0
BLOCK_RECORD
  5
3A6
100
AcDbSymbolTableRecord
100
AcDbBlockTableRecord
  2
*B7
340
0
  0
BLOCK_RECORD
  5
3AD
100
AcDbSymbolTableRecord
100
AcDbBlockTableRecord
  2
*B8
340
0
  0
BLOCK_RECORD
  5
3B4
100
AcDbSymbolTableRecord
100
AcDbBlockTableRecord
  2
*B9
340
0
  0
BLOCK_RECORD
  5
3BB
100
AcDbSymbolTableRecord
100
AcDbBlockTableRecord
  2
*B10
340
0
  0
BLOCK_RECORD
  5
3C2
100
AcDbSymbolTableRecord
100
AcDbBlockTableRecord
  2
*B11
340
0
  0
BLOCK_RECORD
  5
3C9
100
AcDbSymbolTableRecord
100
AcDbBlockTableRecord
  2
*B12
340
0
  0
BLOCK_RECORD
  5
3D0
100
AcDbSymbolTableRecord
100
AcDbBlockTableRecord
  2
*B13
340
0
  0
BLOCK_RECORD
  5
3D7
100
AcDbSymbolTableRecord
100
AcDbBlockTableRecord
  2
*B14
340
0
  0
BLOCK_RECORD
  5
3DE
100
AcDbSymbolTableRecord
100
AcDbBlockTableRecord
  2
*B15
340
0
  0
BLOCK_RECORD
  5
3E5
100
AcDbSymbolTableRecord
100
AcDbBlockTableRecord
  2
*B16
340
0
  0
BLOCK_RECORD
  5
3EC
100
AcDbSymbolTableRecord
100
AcDbBlockTableRecord
  2
*B17
340
0
  0
BLOCK_RECORD
  5
3F3
100
AcDbSymbolTableRecord
100
AcDbBlockTableRecord
  2
*B18
340
0
  0
BLOCK_RECORD
  5
3FA
100
AcDbSymbolTableRecord
100
AcDbBlockTableRecord
  2
*B19
340
0
  0
BLOCK_RECORD
  5
400
100
AcDbSymbolTableRecord
100
AcDbBlockTableRecord
  2
*B20
340
0
  0
BLOCK_RECORD
  5
405
100
AcDbSymbolTableRecord
100
AcDbBlockTableRecord
  2
*B21
340
0
  0
BLOCK_RECORD
  5
40A
100
AcDbSymbolTableRecord
100
AcDbBlockTableRecord
  2
*B22
340
0
  0
BLOCK_RECORD
  5
415
100
AcDbSymbolTableRecord
100
AcDbBlockTableRecord
  2
*B23
340
0
  0
BLOCK_RECORD
  5
41A
100
AcDbSymbolTableRecord
100
AcDbBlockTableRecord
  2
*B24
340
0
  0
BLOCK_RECORD
  5
420
100
AcDbSymbolTableRecord
100
AcDbBlockTableRecord
  2
*B25
340
0
  0
BLOCK_RECORD
  5
431
100
AcDbSymbolTableRecord
100
AcDbBlockTableRecord
  2
*B26
340
0
  0
BLOCK_RECORD
  5
43A
100
AcDbSymbolTableRecord
100
AcDbBlockTableRecord
  2
*B27
340
0
  0
BLOCK_RECORD
  5
440
100
AcDbSymbolTableRecord
100
AcDbBlockTableRecord
  2
*B28
340
0
  0
BLOCK_RECORD
  5
44D
100
AcDbSymbolTableRecord
100
AcDbBlockTableRecord
  2
*B29
340
0
  0
BLOCK_RECORD
  5
453
100
AcDbSymbolTableRecord
100
AcDbBlockTableRecord
  2
*B30
340
0
  0
BLOCK_RECORD
  5
468
100
AcDbSymbolTableRecord
100
AcDbBlockTableRecord
  2
*B31
340
0
  0
BLOCK_RECORD
  5
46D
100
AcDbSymbolTableRecord
100
AcDbBlockTableRecord
  2
*B32
340
0
  0
BLOCK_RECORD
  5
473
100
AcDbSymbolTableRecord
100
AcDbBlockTableRecord
  2
*B33
340
0
  0
BLOCK_RECORD
  5
479
100
AcDbSymbolTableRecord
100
AcDbBlockTableRecord
  2
*B34
340
0
  0
BLOCK_RECORD
  5
47E
100
AcDbSymbolTableRecord
100
AcDbBlockTableRecord
  2
*B35
340
0
  0
BLOCK_RECORD
  5
484
100
AcDbSymbolTableRecord
100
AcDbBlockTableRecord
  2
*B36
340
0
  0
BLOCK_RECORD
  5
489
100
AcDbSymbolTableRecord
100
AcDbBlockTableRecord
  2
*B37
340
0
  0
BLOCK_RECORD
  5
48F
100
AcDbSymbolTableRecord
100
AcDbBlockTableRecord
  2
*B38
340
0
  0
BLOCK_RECORD
  5
494
100
AcDbSymbolTableRecord
100
AcDbBlockTableRecord
  2
*B39
340
0
  0
BLOCK_RECORD
  5
499
100
AcDbSymbolTableRecord
100
AcDbBlockTableRecord
  2
*B40
340
0
  0
BLOCK_RECORD
  5
49E
100
AcDbSymbolTableRecord
100
AcDbBlockTableRecord
  2
*B41
340
0
  0
BLOCK_RECORD
  5
4A3
100
AcDbSymbolTableRecord
100
AcDbBlockTableRecord
  2
*B42
340
0
  0
BLOCK_RECORD
  5
4A8
100
AcDbSymbolTableRecord
100
AcDbBlockTableRecord
  2
*B43
340
0
  0
BLOCK_RECORD
  5
4AD
100
AcDbSymbolTableRecord
100
AcDbBlockTableRecord
  2
*B44
340
0
  0
BLOCK_RECORD
  5
4B4
100
AcDbSymbolTableRecord
100
AcDbBlockTableRecord
  2
*B45
340
0
  0
BLOCK_RECORD
  5
4BE
100
AcDbSymbolTableRecord
100
AcDbBlockTableRecord
  2
*B46
340
0
  0
BLOCK_RECORD
  5
4C4
100
AcDbSymbolTableRecord
100
AcDbBlockTableRecord
  2
*B47
340
0
  0
BLOCK_RECORD
  5
4C9
100
AcDbSymbolTableRecord
100
AcDbBlockTableRecord
  2
*B48
340
0
  0
BLOCK_RECORD
  5
4CF
100
AcDbSymbolTableRecord
100
AcDbBlockTableRecord
  2
*B49
340
0
  0
BLOCK_RECORD
  5
4D4
100
AcDbSymbolTableRecord
100
AcDbBlockTableRecord
  2
*B50
340
0
  0
BLOCK_RECORD
  5
4DB
100
AcDbSymbolTableRecord
100
AcDbBlockTableRecord
  2
*B51
340
0
  0
BLOCK_RECORD
  5
4E0
100
AcDbSymbolTableRecord
100
AcDbBlockTableRecord
  2
*B52
340
0
  0
BLOCK_RECORD
  5
4E7
100
AcDbSymbolTableRecord
100
AcDbBlockTableRecord
  2
*B53
340
0
  0
BLOCK_RECORD
  5
4EC
100
AcDbSymbolTableRecord
100
AcDbBlockTableRecord
  2
*B54
340
0
  0
BLOCK_RECORD
  5
4F2
100
AcDbSymbolTableRecord
100
AcDbBlockTableRecord
  2
*B55
340
0
  0
BLOCK_RECORD
  5
4F8
100
AcDbSymbolTableRecord
100
AcDbBlockTableRecord
  2
*B56
340
0
  0
BLOCK_RECORD
  5
4FE
100
AcDbSymbolTableRecord
100
AcDbBlockTableRecord
  2
*B57
340
0
  0
BLOCK_RECORD
  5
504
100
AcDbSymbolTableRecord
100
AcDbBlockTableRecord
  2
*B58
340
0
  0
BLOCK_RECORD
  5
50A
100
AcDbSymbolTableRecord
100
AcDbBlockTableRecord
  2
*B59
340
0
  0
BLOCK_RECORD
  5
510
100
AcDbSymbolTableRecord
100
AcDbBlockTableRecord
  2
*B60
340
0
  0
BLOCK_RECORD
  5
516
100
AcDbSymbolTableRecord
100
AcDbBlockTableRecord
  2
*B61
340
0
  0
BLOCK_RECORD
  5
51B
100
AcDbSymbolTableRecord
100
AcDbBlockTableRecord
  2
*B62
340
0
  0
BLOCK_RECORD
  5
520
100
AcDbSymbolTableRecord
100
AcDbBlockTableRecord
  2
*B63
340
0
  0
BLOCK_RECORD
  5
525
100
AcDbSymbolTableRecord
100
AcDbBlockTableRecord
  2
*B64
340
0
  0
BLOCK_RECORD
  5
52B
100
AcDbSymbolTableRecord
100
AcDbBlockTableRecord
  2
*B65
340
0
  0
BLOCK_RECORD
  5
531
100
AcDbSymbolTableRecord
100
AcDbBlockTableRecord
  2
*B66
340
0
  0
BLOCK_RECORD
  5
536
100
AcDbSymbolTableRecord
100
AcDbBlockTableRecord
  2
*B67
340
0
  0
BLOCK_RECORD
  5
53B
100
AcDbSymbolTableRecord
100
AcDbBlockTableRecord
  2
*B68
340
0
  0
BLOCK_RECORD
  5
540
100
AcDbSymbolTableRecord
100
AcDbBlockTableRecord
  2
*B69
340
0
  0
BLOCK_RECORD
  5
545
100
AcDbSymbolTableRecord
100
AcDbBlockTableRecord
  2
*B70
340
0
  0
BLOCK_RECORD
  5
54A
100
AcDbSymbolTableRecord
100
AcDbBlockTableRecord
  2
*B71
340
0
  0
BLOCK_RECORD
  5
54F
100
AcDbSymbolTableRecord
100
AcDbBlockTableRecord
  2
*B72
340
0
  0
BLOCK_RECORD
  5
554
100
AcDbSymbolTableRecord
100
AcDbBlockTableRecord
  2
*B73
340
0
  0
BLOCK_RECORD
  5
559
100
AcDbSymbolTableRecord
100
AcDbBlockTableRecord
  2
*B74
340
0
  0
BLOCK_RECORD
  5
55E
100
AcDbSymbolTableRecord
100
AcDbBlockTableRecord
  2
*B75
340
0
  0
BLOCK_RECORD
  5
563
100
AcDbSymbolTableRecord
100
AcDbBlockTableRecord
  2
*B76
340
0
  0
BLOCK_RECORD
  5
568
100
AcDbSymbolTableRecord
100
AcDbBlockTableRecord
  2
*B77
340
0
  0
ENDTAB
  0
ENDSEC
  0
SECTION
  2
BLOCKS
  0
BLOCK
  5
D
100
AcDbEntity
  8
0
100
AcDbBlockBegin
  2
*MODEL_SPACE
 70
     0
 10
0.0
 20
0.0
 30
0.0
  3
*MODEL_SPACE
  1

  0
ENDBLK
  5
E
100
AcDbEntity
  8
0
100
AcDbBlockEnd
  0
BLOCK
  5
F
100
AcDbEntity
 67
     1
  8
0
100
AcDbBlockBegin
  2
*PAPER_SPACE
 70
     0
 10
0.0
 20
0.0
 30
0.0
  3
*PAPER_SPACE
  1

  0
ENDBLK
  5
10
100
AcDbEntity
 67
     1
  8
0
100
AcDbBlockEnd
  0
BLOCK
  5
2A
100
AcDbEntity
  8
0
100
AcDbBlockBegin
  2
*B0
 70
     0
 10
0.0
 20
0.0
 30
0.0
  3
*B0
  1

  0
ENDBLK
  5
2B
100
AcDbEntity
  8
0
100
AcDbBlockEnd
  0
BLOCK
  5
2D
100
AcDbEntity
  8
0
100
AcDbBlockBegin
  2
*B1
 70
     0
 10
0.0
 20
0.0
 30
0.0
  3
*B1
  1

  0
ARC
  5
2E
100
AcDbEntity
  8
0
  6
Continuous
 62
   174
100
AcDbCircle
 10
220.240362
 20
179.023399
 30
0.0
 40
3.0
100
AcDbArc
 50
-90.0
 51
-30.993552
  0
ARC
  5
2F
100
AcDbEntity
  8
0
  6
Continuous
 62
   174
100
AcDbCircle
 10
220.240362
 20
179.023399
 30
0.0
 40
3.0
100
AcDbArc
 50
-149.006448
 51
-90.0
  0
ARC
  5
30
100
AcDbEntity
  8
0
  6
Continuous
 62
   174
100
AcDbCircle
 10
220.240362
 20
179.023399
 30
0.0
 40
3.0
100
AcDbArc
 50
-151.217325
 51
-149.006448
  0
ARC
  5
31
100
AcDbEntity
  8
0
  6
Continuous
 62
   174
100
AcDbCircle
 10
220.240362
 20
179.023399
 30
0.0
 40
3.0
100
AcDbArc
 50
-208.782675
 51
-151.217325
  0
ARC
  5
32
100
AcDbEntity
  8
0
  6
Continuous
 62
   174
100
AcDbCircle
 10
220.240362
 20
179.023399
 30
0.0
 40
3.0
100
AcDbArc
 50
-210.993552
 51
-208.782675
  0
ARC
  5
33
100
AcDbEntity
  8
0
  6
Continuous
 62
   174
100
AcDbCircle
 10
220.240362
 20
179.023399
 30
0.0
 40
3.0
100
AcDbArc
 50
-270.0
 51
-210.993552
  0
ARC
  5
34
100
AcDbEntity
  8
0
  6
Continuous
 62
   174
100
AcDbCircle
 10
220.240362
 20
179.023399
 30
0.0
 40
3.0
100
AcDbArc
 50
-329.006448
 51
-270.0
  0
ARC
  5
35
100
AcDbEntity
  8
0
  6
Continuous
 62
   174
100
AcDbCircle
 10
220.240362
 20
179.023399
 30
0.0
 40
3.0
100
AcDbArc
 50
-331.217325
 51
-329.006448
  0
ARC
  5
36
100
AcDbEntity
  8
0
  6
Continuous
 62
   174
100
AcDbCircle
 10
220.240362
 20
179.023399
 30
0.0
 40
3.0
100
AcDbArc
 50
-28.782675
 51
28.782675
  0
ARC
  5
37
100
AcDbEntity
  8
0
  6
Continuous
 62
   174
100
AcDbCircle
 10
220.240362
 20
179.023399
 30
0.0
 40
3.0
100
AcDbArc
 50
-30.993552
 51
-28.782675
  0
ARC
  5
38
100
AcDbEntity
  8
0
  6
HIDDEN
 62
   174
100
AcDbCircle
 10
256.038475
 20
209.554483
 30
0.0
 40
2.0
100
AcDbArc
 50
-171.39043
 51
8.60957
  0
ARC
  5
39
100
AcDbEntity
  8
0
  6
HIDDEN
 62
   174
100
AcDbCircle
 10
256.038475
 20
209.554483
 30
0.0
 40
2.0
100
AcDbArc
 50
8.60957
 51
188.60957
  0
ARC
  5
3A
100
AcDbEntity
  8
0
  6
Continuous
 62
   174
100
AcDbCircle
 10
256.038475
 20
209.554483
 30
0.0
 40
2.8
100
AcDbArc
 50
-351.39043
 51
-325.900462
  0
ARC
  5
3B
100
AcDbEntity
  8
0
  6
HIDDEN
 62
   174
100
AcDbCircle
 10
256.038475
 20
209.554483
 30
0.0
 40
2.0
100
AcDbArc
 50
-195.026796
 51
-181.848794
  0
ARC
  5
3C
100
AcDbEntity
  8
0
  6
HIDDEN
 62
   174
100
AcDbCircle
 10
256.038475
 20
209.554483
 30
0.0
 40
2.0
100
AcDbArc
 50
-207.34681
 51
-195.026796
  0
ARC
  5
3D
100
AcDbEntity
  8
0
  6
Continuous
 62
   174
100
AcDbCircle
 10
256.038475
 20
209.554483
 30
0.0
 40
2.8
100
AcDbArc
 50
-68.347333
 51
-16.880398
  0
ARC
  5
3E
100
AcDbEntity
  8
0
  6
Continuous
 62
   174
100
AcDbCircle
 10
256.038475
 20
209.554483
 30
0.0
 40
2.8
100
AcDbArc
 50
-145.900462
 51
-68.347333
  0
ARC
  5
3F
100
AcDbEntity
  8
0
  6
Continuous
 62
   174
100
AcDbCircle
 10
256.038475
 20
209.554483
 30
0.0
 40
2.8
100
AcDbArc
 50
-16.880398
 51
8.60957
  0
ARC
  5
40
100
AcDbEntity
  8
0
  6
HIDDEN
 62
   174
100
AcDbCircle
 10
256.038475
 20
209.554483
 30
0.0
 40
2.0
100
AcDbArc
 50
-171.39043
 51
-156.099198
  0
ARC
  5
41
100
AcDbEntity
  8
0
  6
HIDDEN
 62
   174
100
AcDbCircle
 10
256.038475
 20
209.554483
 30
0.0
 40
2.0
100
AcDbArc
 50
-15.026796
 51
-1.848794
  0
ARC
  5
42
100
AcDbEntity
  8
0
  6
HIDDEN
 62
   174
100
AcDbCircle
 10
256.038475
 20
209.554483
 30
0.0
 40
2.0
100
AcDbArc
 50
-27.34681
 51
-15.026796
  0
ARC
  5
43
100
AcDbEntity
  8
0
  6
HIDDEN
 62
   174
100
AcDbCircle
 10
256.038475
 20
209.554483
 30
0.0
 40
2.0
100
AcDbArc
 50
-41.112493
 51
-27.34681
  0
ARC
  5
44
100
AcDbEntity
  8
0
  6
HIDDEN
 62
   174
100
AcDbCircle
 10
256.038475
 20
209.554483
 30
0.0
 40
2.0
100
AcDbArc
 50
-54.627712
 51
-41.112493
  0
ARC
  5
45
100
AcDbEntity
  8
0
  6
HIDDEN
 62
   174
100
AcDbCircle
 10
256.038475
 20
209.554483
 30
0.0
 40
2.0
100
AcDbArc
 50
-68.827062
 51
-54.627712
  0
ARC
  5
46
100
AcDbEntity
  8
0
  6
HIDDEN
 62
   174
100
AcDbCircle
 10
256.038475
 20
209.554483
 30
0.0
 40
2.0
100
AcDbArc
 50
-80.180436
 51
-68.827062
  0
ARC
  5
47
100
AcDbEntity
  8
0
  6
HIDDEN
 62
   174
100
AcDbCircle
 10
256.038475
 20
209.554483
 30
0.0
 40
2.0
100
AcDbArc
 50
-91.896138
 51
-80.180436
  0
ARC
  5
48
100
AcDbEntity
  8
0
  6
HIDDEN
 62
   174
100
AcDbCircle
 10
256.038475
 20
209.554483
 30
0.0
 40
2.0
100
AcDbArc
 50
-105.550859
 51
-91.896138
  0
ARC
  5
49
100
AcDbEntity
  8
0
  6
HIDDEN
 62
   174
100
AcDbCircle
 10
256.038475
 20
209.554483
 30
0.0
 40
2.0
100
AcDbArc
 50
-119.154566
 51
-105.550859
  0
ARC
  5
4A
100
AcDbEntity
  8
0
  6
HIDDEN
 62
   174
100
AcDbCircle
 10
256.038475
 20
209.554483
 30
0.0
 40
2.0
100
AcDbArc
 50
-129.378332
 51
-119.154566
  0
ARC
  5
4B
100
AcDbEntity
  8
0
  6
HIDDEN
 62
   174
100
AcDbCircle
 10
256.038475
 20
209.554483
 30
0.0
 40
2.0
100
AcDbArc
 50
-143.426111
 51
-129.378332
  0
ARC
  5
4C
100
AcDbEntity
  8
0
  6
HIDDEN
 62
   174
100
AcDbCircle
 10
256.038475
 20
209.554483
 30
0.0
 40
2.0
100
AcDbArc
 50
-156.099198
 51
-143.426111
  0
ARC
  5
4D
100
AcDbEntity
  8
0
  6
HIDDEN
 62
   174
100
AcDbCircle
 10
256.038475
 20
209.554483
 30
0.0
 40
2.8
100
AcDbArc
 50
-171.39043
 51
8.60957
  0
ARC
  5
4E
100
AcDbEntity
  8
0
  6
Continuous
 62
   174
100
AcDbCircle
 10
258.882785
 20
190.768586
 30
0.0
 40
3.0
100
AcDbArc
 50
-270.0
 51
-259.100862
  0
ARC
  5
4F
100
AcDbEntity
  8
0
  6
Continuous
 62
   174
100
AcDbCircle
 10
258.882785
 20
190.768586
 30
0.0
 40
3.0
100
AcDbArc
 50
-15.088129
 51
-1.92735
  0
ARC
  5
50
100
AcDbEntity
  8
0
  6
Continuous
 62
   174
100
AcDbCircle
 10
258.882785
 20
190.768586
 30
0.0
 40
3.0
100
AcDbArc
 50
-28.066117
 51
-15.088129
  0
ARC
  5
51
100
AcDbEntity
  8
0
  6
Continuous
 62
   174
100
AcDbCircle
 10
258.882785
 20
190.768586
 30
0.0
 40
3.0
100
AcDbArc
 50
-40.716946
 51
-28.066117
  0
ARC
  5
52
100
AcDbEntity
  8
0
  6
Continuous
 62
   174
100
AcDbCircle
 10
258.882785
 20
190.768586
 30
0.0
 40
3.0
100
AcDbArc
 50
-53.526385
 51
-40.716946
  0
ARC
  5
53
100
AcDbEntity
  8
0
  6
Continuous
 62
   174
100
AcDbCircle
 10
258.882785
 20
190.768586
 30
0.0
 40
3.0
100
AcDbArc
 50
-66.434503
 51
-53.526385
  0
ARC
  5
54
100
AcDbEntity
  8
0
  6
Continuous
 62
   174
100
AcDbCircle
 10
258.882785
 20
190.768586
 30
0.0
 40
3.0
100
AcDbArc
 50
-79.100862
 51
-66.434503
  0
ARC
  5
55
100
AcDbEntity
  8
0
  6
Continuous
 62
   174
100
AcDbCircle
 10
258.882785
 20
190.768586
 30
0.0
 40
3.0
100
AcDbArc
 50
-90.0
 51
-79.100862
  0
ARC
  5
56
100
AcDbEntity
  8
0
  6
Continuous
 62
   174
100
AcDbCircle
 10
258.882785
 20
190.768586
 30
0.0
 40
3.0
100
AcDbArc
 50
-246.434503
 51
-233.526385
  0
ARC
  5
57
100
AcDbEntity
  8
0
  6
Continuous
 62
   174
100
AcDbCircle
 10
258.882785
 20
190.768586
 30
0.0
 40
3.0
100
AcDbArc
 50
-259.100862
 51
-246.434503
  0
ARC
  5
58
100
AcDbEntity
  8
0
  6
Continuous
 62
   174
100
AcDbCircle
 10
256.038475
 20
209.554483
 30
0.0
 40
2.0
100
AcDbArc
 50
-272.057194
 51
-270.0
  0
ARC
  5
59
100
AcDbEntity
  8
0
  6
Continuous
 62
   174
100
AcDbCircle
 10
256.038475
 20
209.554483
 30
0.0
 40
2.0
100
AcDbArc
 50
-285.701015
 51
-272.057194
  0
ARC
  5
5A
100
AcDbEntity
  8
0
  6
Continuous
 62
   174
100
AcDbCircle
 10
256.038475
 20
209.554483
 30
0.0
 40
2.0
100
AcDbArc
 50
-297.437293
 51
-285.701015
  0
ARC
  5
5B
100
AcDbEntity
  8
0
  6
Continuous
 62
   174
100
AcDbCircle
 10
256.038475
 20
209.554483
 30
0.0
 40
2.0
100
AcDbArc
 50
-309.385144
 51
-297.437293
  0
ARC
  5
5C
100
AcDbEntity
  8
0
  6
Continuous
 62
   174
100
AcDbCircle
 10
258.882785
 20
190.768586
 30
0.0
 40
3.0
100
AcDbArc
 50
-310.858744
 51
-297.865069
  0
ARC
  5
5D
100
AcDbEntity
  8
0
  6
Continuous
 62
   174
100
AcDbCircle
 10
258.882785
 20
190.768586
 30
0.0
 40
3.0
100
AcDbArc
 50
-323.501367
 51
-310.858744
  0
ARC
  5
5E
100
AcDbEntity
  8
0
  6
Continuous
 62
   174
100
AcDbCircle
 10
258.882785
 20
190.768586
 30
0.0
 40
3.0
100
AcDbArc
 50
-336.13515
 51
-323.501367
  0
ARC
  5
5F
100
AcDbEntity
  8
0
  6
Continuous
 62
   174
100
AcDbCircle
 10
258.882785
 20
190.768586
 30
0.0
 40
3.0
100
AcDbArc
 50
-347.142857
 51
-336.13515
  0
ARC
  5
60
100
AcDbEntity
  8
0
  6
Continuous
 62
   174
100
AcDbCircle
 10
258.882785
 20
190.768586
 30
0.0
 40
3.0
100
AcDbArc
 50
-349.301736
 51
-347.142857
  0
ARC
  5
61
100
AcDbEntity
  8
0
  6
Continuous
 62
   174
100
AcDbCircle
 10
258.882785
 20
190.768586
 30
0.0
 40
3.0
100
AcDbArc
 50
-351.310401
 51
-349.301736
  0
ARC
  5
62
100
AcDbEntity
  8
0
  6
Continuous
 62
   174
100
AcDbCircle
 10
258.882785
 20
190.768586
 30
0.0
 40
3.0
100
AcDbArc
 50
-1.92735
 51
8.689599
  0
ARC
  5
63
100
AcDbEntity
  8
0
  6
Continuous
 62
   174
100
AcDbCircle
 10
258.882785
 20
190.768586
 30
0.0
 40
3.0
100
AcDbArc
 50
-272.233415
 51
-270.0
  0
ARC
  5
64
100
AcDbEntity
  8
0
  6
Continuous
 62
   174
100
AcDbCircle
 10
258.882785
 20
190.768586
 30
0.0
 40
3.0
100
AcDbArc
 50
-285.077659
 51
-272.233415
  0
ARC
  5
65
100
AcDbEntity
  8
0
  6
Continuous
 62
   174
100
AcDbCircle
 10
258.882785
 20
190.768586
 30
0.0
 40
3.0
100
AcDbArc
 50
-297.865069
 51
-285.077659
  0
ARC
  5
66
100
AcDbEntity
  8
0
  6
Continuous
 62
   174
100
AcDbCircle
 10
256.038475
 20
209.554483
 30
0.0
 40
2.0
100
AcDbArc
 50
-270.0
 51
-259.952236
  0
ARC
  5
67
100
AcDbEntity
  8
0
  6
Continuous
 62
   174
100
AcDbCircle
 10
256.038475
 20
209.554483
 30
0.0
 40
2.0
100
AcDbArc
 50
-105.701015
 51
-92.057194
  0
ARC
  5
68
100
AcDbEntity
  8
0
  6
Continuous
 62
   174
100
AcDbCircle
 10
256.038475
 20
209.554483
 30
0.0
 40
2.0
100
AcDbArc
 50
-117.437293
 51
-105.701015
  0
ARC
  5
69
100
AcDbEntity
  8
0
  6
Continuous
 62
   174
100
AcDbCircle
 10
256.038475
 20
209.554483
 30
0.0
 40
2.0
100
AcDbArc
 50
-129.385144
 51
-117.437293
  0
ARC
  5
6A
100
AcDbEntity
  8
0
  6
Continuous
 62
   174
100
AcDbCircle
 10
256.038475
 20
209.554483
 30
0.0
 40
2.0
100
AcDbArc
 50
-141.428571
 51
-129.385144
  0
ARC
  5
6B
100
AcDbEntity
  8
0
  6
Continuous
 62
   174
100
AcDbCircle
 10
256.038475
 20
209.554483
 30
0.0
 40
2.0
100
AcDbArc
 50
-143.499644
 51
-141.428571
  0
ARC
  5
6C
100
AcDbEntity
  8
0
  6
Continuous
 62
   174
100
AcDbCircle
 10
256.038475
 20
209.554483
 30
0.0
 40
2.0
100
AcDbArc
 50
-155.999537
 51
-143.499644
  0
ARC
  5
6D
100
AcDbEntity
  8
0
  6
Continuous
 62
   174
100
AcDbCircle
 10
256.038475
 20
209.554483
 30
0.0
 40
2.0
100
AcDbArc
 50
-169.305477
 51
-155.999537
  0
ARC
  5
6E
100
AcDbEntity
  8
0
  6
Continuous
 62
   174
100
AcDbCircle
 10
256.038475
 20
209.554483
 30
0.0
 40
2.8
100
AcDbArc
 50
-248.347333
 51
-196.880398
  0
ARC
  5
6F
100
AcDbEntity
  8
0
  6
Continuous
 62
   174
100
AcDbCircle
 10
256.038475
 20
209.554483
 30
0.0
 40
2.8
100
AcDbArc
 50
-325.900462
 51
-248.347333
  0
ARC
  5
70
100
AcDbEntity
  8
0
  6
HIDDEN
 62
   174
100
AcDbCircle
 10
256.038475
 20
209.554483
 30
0.0
 40
2.0
100
AcDbArc
 50
-181.848794
 51
-171.39043
  0
ARC
  5
71
100
AcDbEntity
  8
0
  6
HIDDEN
 62
   174
100
AcDbCircle
 10
256.038475
 20
209.554483
 30
0.0
 40
2.0
100
AcDbArc
 50
-221.112493
 51
-207.34681
  0
ARC
  5
72
100
AcDbEntity
  8
0
  6
HIDDEN
 62
   174
100
AcDbCircle
 10
256.038475
 20
209.554483
 30
0.0
 40
2.0
100
AcDbArc
 50
-234.627712
 51
-221.112493
  0
ARC
  5
73
100
AcDbEntity
  8
0
  6
HIDDEN
 62
   174
100
AcDbCircle
 10
256.038475
 20
209.554483
 30
0.0
 40
2.0
100
AcDbArc
 50
-248.827062
 51
-234.627712
  0
ARC
  5
74
100
AcDbEntity
  8
0
  6
HIDDEN
 62
   174
100
AcDbCircle
 10
256.038475
 20
209.554483
 30
0.0
 40
2.0
100
AcDbArc
 50
-260.180436
 51
-248.827062
  0
ARC
  5
75
100
AcDbEntity
  8
0
  6
HIDDEN
 62
   174
100
AcDbCircle
 10
256.038475
 20
209.554483
 30
0.0
 40
2.0
100
AcDbArc
 50
-271.896138
 51
-260.180436
  0
ARC
  5
76
100
AcDbEntity
  8
0
  6
HIDDEN
 62
   174
100
AcDbCircle
 10
256.038475
 20
209.554483
 30
0.0
 40
2.0
100
AcDbArc
 50
-285.550859
 51
-271.896138
  0
ARC
  5
77
100
AcDbEntity
  8
0
  6
HIDDEN
 62
   174
100
AcDbCircle
 10
256.038475
 20
209.554483
 30
0.0
 40
2.0
100
AcDbArc
 50
-299.154566
 51
-285.550859
  0
ARC
  5
78
100
AcDbEntity
  8
0
  6
HIDDEN
 62
   174
100
AcDbCircle
 10
256.038475
 20
209.554483
 30
0.0
 40
2.0
100
AcDbArc
 50
-309.378332
 51
-299.154566
  0
ARC
  5
79
100
AcDbEntity
  8
0
  6
HIDDEN
 62
   174
100
AcDbCircle
 10
256.038475
 20
209.554483
 30
0.0
 40
2.0
100
AcDbArc
 50
-323.426111
 51
-309.378332
  0
ARC
  5
7A
100
AcDbEntity
  8
0
  6
HIDDEN
 62
   174
100
AcDbCircle
 10
256.038475
 20
209.554483
 30
0.0
 40
2.0
100
AcDbArc
 50
-336.099198
 51
-323.426111
  0
ARC
  5
7B
100
AcDbEntity
  8
0
  6
HIDDEN
 62
   174
100
AcDbCircle
 10
256.038475
 20
209.554483
 30
0.0
 40
2.0
100
AcDbArc
 50
-351.39043
 51
-336.099198
  0
ARC
  5
7C
100
AcDbEntity
  8
0
  6
HIDDEN
 62
   174
100
AcDbCircle
 10
256.038475
 20
209.554483
 30
0.0
 40
2.0
100
AcDbArc
 50
-1.848794
 51
8.60957
  0
ARC
  5
7D
100
AcDbEntity
  8
0
  6
Continuous
 62
   174
100
AcDbCircle
 10
258.882785
 20
190.768586
 30
0.0
 40
3.0
100
AcDbArc
 50
-169.301736
 51
-167.142857
  0
ARC
  5
7E
100
AcDbEntity
  8
0
  6
Continuous
 62
   174
100
AcDbCircle
 10
258.882785
 20
190.768586
 30
0.0
 40
3.0
100
AcDbArc
 50
-171.310401
 51
-169.301736
  0
ARC
  5
7F
100
AcDbEntity
  8
0
  6
Continuous
 62
   174
100
AcDbCircle
 10
258.882785
 20
190.768586
 30
0.0
 40
3.0
100
AcDbArc
 50
-181.92735
 51
-171.310401
  0
ARC
  5
80
100
AcDbEntity
  8
0
  6
Continuous
 62
   174
100
AcDbCircle
 10
258.882785
 20
190.768586
 30
0.0
 40
3.0
100
AcDbArc
 50
-195.088129
 51
-181.92735
  0
ARC
  5
81
100
AcDbEntity
  8
0
  6
Continuous
 62
   174
100
AcDbCircle
 10
258.882785
 20
190.768586
 30
0.0
 40
3.0
100
AcDbArc
 50
-208.066117
 51
-195.088129
  0
ARC
  5
82
100
AcDbEntity
  8
0
  6
Continuous
 62
   174
100
AcDbCircle
 10
258.882785
 20
190.768586
 30
0.0
 40
3.0
100
AcDbArc
 50
-220.716946
 51
-208.066117
  0
ARC
  5
83
100
AcDbEntity
  8
0
  6
Continuous
 62
   174
100
AcDbCircle
 10
258.882785
 20
190.768586
 30
0.0
 40
3.0
100
AcDbArc
 50
-233.526385
 51
-220.716946
  0
ARC
  5
84
100
AcDbEntity
  8
0
  6
Continuous
 62
   174
100
AcDbCircle
 10
256.038475
 20
209.554483
 30
0.0
 40
2.8
100
AcDbArc
 50
-171.39043
 51
-145.900462
  0
ARC
  5
85
100
AcDbEntity
  8
0
  6
Continuous
 62
   174
100
AcDbCircle
 10
256.038475
 20
209.554483
 30
0.0
 40
2.8
100
AcDbArc
 50
-196.880398
 51
-171.39043
  0
ARC
  5
86
100
AcDbEntity
  8
0
  6
HIDDEN
 62
   174
100
AcDbCircle
 10
256.038475
 20
209.554483
 30
0.0
 40
2.8
100
AcDbArc
 50
-351.39043
 51
-171.39043
  0
ARC
  5
87
100
AcDbEntity
  8
0
  6
Continuous
 62
   174
100
AcDbCircle
 10
258.882785
 20
190.768586
 30
0.0
 40
3.0
100
AcDbArc
 50
-92.233415
 51
-90.0
  0
ARC
  5
88
100
AcDbEntity
  8
0
  6
Continuous
 62
   174
100
AcDbCircle
 10
258.882785
 20
190.768586
 30
0.0
 40
3.0
100
AcDbArc
 50
-105.077659
 51
-92.233415
  0
ARC
  5
89
100
AcDbEntity
  8
0
  6
Continuous
 62
   174
100
AcDbCircle
 10
258.882785
 20
190.768586
 30
0.0
 40
3.0
100
AcDbArc
 50
-117.865069
 51
-105.077659
  0
ARC
  5
8A
100
AcDbEntity
  8
0
  6
Continuous
 62
   174
100
AcDbCircle
 10
258.882785
 20
190.768586
 30
0.0
 40
3.0
100
AcDbArc
 50
-130.858744
 51
-117.865069
  0
ARC
  5
8B
100
AcDbEntity
  8
0
  6
Continuous
 62
   174
100
AcDbCircle
 10
258.882785
 20
190.768586
 30
0.0
 40
3.0
100
AcDbArc
 50
-143.501367
 51
-130.858744
  0
ARC
  5
8C
100
AcDbEntity
  8
0
  6
Continuous
 62
   174
100
AcDbCircle
 10
258.882785
 20
190.768586
 30
0.0
 40
3.0
100
AcDbArc
 50
-156.13515
 51
-143.501367
  0
ARC
  5
8D
100
AcDbEntity
  8
0
  6
Continuous
 62
   174
100
AcDbCircle
 10
258.882785
 20
190.768586
 30
0.0
 40
3.0
100
AcDbArc
 50
-167.142857
 51
-156.13515
  0
ARC
  5
8E
100
AcDbEntity
  8
0
  6
Continuous
 62
   174
100
AcDbCircle
 10
256.038475
 20
209.554483
 30
0.0
 40
2.0
100
AcDbArc
 50
-321.428571
 51
-309.385144
  0
ARC
  5
8F
100
AcDbEntity
  8
0
  6
Continuous
 62
   174
100
AcDbCircle
 10
256.038475
 20
209.554483
 30
0.0
 40
2.0
100
AcDbArc
 50
-323.499644
 51
-321.428571
  0
ARC
  5
90
100
AcDbEntity
  8
0
  6
Continuous
 62
   174
100
AcDbCircle
 10
256.038475
 20
209.554483
 30
0.0
 40
2.0
100
AcDbArc
 50
-335.999537
 51
-323.499644
  0
ARC
  5
91
100
AcDbEntity
  8
0
  6
Continuous
 62
   174
100
AcDbCircle
 10
256.038475
 20
209.554483
 30
0.0
 40
2.0
100
AcDbArc
 50
-349.305477
 51
-335.999537
  0
ARC
  5
92
100
AcDbEntity
  8
0
  6
Continuous
 62
   174
100
AcDbCircle
 10
256.038475
 20
209.554483
 30
0.0
 40
2.0
100
AcDbArc
 50
-1.837533
 51
10.694523
  0
ARC
  5
93
100
AcDbEntity
  8
0
  6
Continuous
 62
   174
100
AcDbCircle
 10
256.038475
 20
209.554483
 30
0.0
 40
2.0
100
AcDbArc
 50
-12.857143
 51
-1.837533
  0
ARC
  5
94
100
AcDbEntity
  8
0
  6
Continuous
 62
   174
100
AcDbCircle
 10
256.038475
 20
209.554483
 30
0.0
 40
2.0
100
AcDbArc
 50
-15.129184
 51
-12.857143
  0
ARC
  5
95
100
AcDbEntity
  8
0
  6
Continuous
 62
   174
100
AcDbCircle
 10
256.038475
 20
209.554483
 30
0.0
 40
2.0
100
AcDbArc
 50
-27.258649
 51
-15.129184
  0
ARC
  5
96
100
AcDbEntity
  8
0
  6
Continuous
 62
   174
100
AcDbCircle
 10
256.038475
 20
209.554483
 30
0.0
 40
2.0
100
AcDbArc
 50
-41.167215
 51
-27.258649
  0
ARC
  5
97
100
AcDbEntity
  8
0
  6
Continuous
 62
   174
100
AcDbCircle
 10
256.038475
 20
209.554483
 30
0.0
 40
2.0
100
AcDbArc
 50
-54.495191
 51
-41.167215
  0
ARC
  5
98
100
AcDbEntity
  8
0
  6
Continuous
 62
   174
100
AcDbCircle
 10
256.038475
 20
209.554483
 30
0.0
 40
2.0
100
AcDbArc
 50
-66.547476
 51
-54.495191
  0
ARC
  5
99
100
AcDbEntity
  8
0
  6
Continuous
 62
   174
100
AcDbCircle
 10
256.038475
 20
209.554483
 30
0.0
 40
2.0
100
AcDbArc
 50
-79.952236
 51
-66.547476
  0
ARC
  5
9A
100
AcDbEntity
  8
0
  6
Continuous
 62
   174
100
AcDbCircle
 10
256.038475
 20
209.554483
 30
0.0
 40
2.0
100
AcDbArc
 50
-90.0
 51
-79.952236
  0
ARC
  5
9B
100
AcDbEntity
  8
0
  6
Continuous
 62
   174
100
AcDbCircle
 10
256.038475
 20
209.554483
 30
0.0
 40
2.0
100
AcDbArc
 50
-92.057194
 51
-90.0
  0
LINE
  5
9C
100
AcDbEntity
  8
0
  6
HIDDEN
 62
   174
100
AcDbLine
 10
213.240362
 20
169.723399
 30
0.0
 11
213.240362
 21
177.501448
 31
0.0
  0
ARC
  5
9D
100
AcDbEntity
  8
0
  6
HIDDEN
 62
   174
100
AcDbCircle
 10
258.882785
 20
190.768586
 30
0.0
 40
3.0
100
AcDbArc
 50
165.746598
 51
188.60957
  0
ARC
  5
9E
100
AcDbEntity
  8
0
  6
Continuous
 62
   174
100
AcDbCircle
 10
220.240362
 20
179.023399
 30
0.0
 40
3.0
100
AcDbArc
 50
151.328147
 51
211.101124
  0
LINE
  5
9F
100
AcDbEntity
  8
0
  6
HIDDEN
 62
   174
100
AcDbLine
 10
213.240362
 20
110.616918
 30
0.0
 11
213.240362
 21
128.115649
 31
0.0
  0
ARC
  5
A0
100
AcDbEntity
  8
0
  6
HIDDEN
 62
   174
100
AcDbCircle
 10
258.882785
 20
190.768586
 30
0.0
 40
3.0
100
AcDbArc
 50
62.185643
 51
75.01151
  0
ARC
  5
A1
100
AcDbEntity
  8
0
  6
Continuous
 62
   174
100
AcDbCircle
 10
258.882785
 20
190.768586
 30
0.0
 40
3.0
100
AcDbArc
 50
164.949891
 51
177.824016
  0
ARC
  5
A2
100
AcDbEntity
  8
0
  6
HIDDEN
 62
   174
100
AcDbCircle
 10
258.882785
 20
190.768586
 30
0.0
 40
8.0
100
AcDbArc
 50
121.502045
 51
147.179197
  0
LINE
  5
A3
100
AcDbEntity
  8
0
  6
HIDDEN
 62
   174
100
AcDbLine
 10
259.240362
 20
126.573399
 30
0.0
 11
273.240362
 21
126.573399
 31
0.0
  0
ARC
  5
A4
100
AcDbEntity
  8
0
  6
HIDDEN
 62
   174
100
AcDbCircle
 10
258.882785
 20
190.768586
 30
0.0
 40
3.0
100
AcDbArc
 50
8.60957
 51
188.60957
  0
ARC
  5
A5
100
AcDbEntity
  8
0
  6
HIDDEN
 62
   174
100
AcDbCircle
 10
258.882785
 20
190.768586
 30
0.0
 40
3.0
100
AcDbArc
 50
151.887559
 51
164.949891
  0
ARC
  5
A6
100
AcDbEntity
  8
0
  6
HIDDEN
 62
   174
100
AcDbCircle
 10
258.882785
 20
190.768586
 30
0.0
 40
3.0
100
AcDbArc
 50
280.685087
 51
291.456766
  0
LINE
  5
A7
100
AcDbEntity
  8
0
  6
Continuous
 62
   174
100
AcDbLine
 10
227.1144
 20
188.15535
 30
0.0
 11
221.619587
 21
187.323399
 31
0.0
  0
LINE
  5
A8
100
AcDbEntity
  8
0
  6
Continuous
 62
   174
100
AcDbLine
 10
239.240362
 20
168.323399
 30
0.0
 11
239.240362
 21
175.48855
 31
0.0
  0
LINE
  5
A9
100
AcDbEntity
  8
0
  6
HIDDEN
 62
   174
100
AcDbLine
 10
247.26594
 20
168.323399
 30
0.0
 11
243.266015
 21
168.323399
 31
0.0
  0
ARC
  5
AA
100
AcDbEntity
  8
0
  6
HIDDEN
 62
   174
100
AcDbCircle
 10
258.882785
 20
190.768586
 30
0.0
 40
3.0
100
AcDbArc
 50
306.446916
 51
319.342488
  0
ARC
  5
AB
100
AcDbEntity
  8
0
  6
Continuous
 62
   174
100
AcDbCircle
 10
258.882785
 20
190.768586
 30
0.0
 40
3.0
100
AcDbArc
 50
255.01151
 51
265.762374
  0
LINE
  5
AC
100
AcDbEntity
  8
0
  6
HIDDEN
 62
   174
100
AcDbLine
 10
260.080389
 20
182.858735
 30
0.0
 11
252.170537
 21
181.661131
 31
0.0
  0
LINE
  5
AD
100
AcDbEntity
  8
0
  6
HIDDEN
 62
   174
100
AcDbLine
 10
227.240362
 20
110.573399
 30
0.0
 11
213.240362
 21
110.573399
 31
0.0
  0
LINE
  5
AE
100
AcDbEntity
  8
0
  6
HIDDEN
 62
   174
100
AcDbLine
 10
259.240362
 20
93.637891
 30
0.0
 11
259.240362
 21
113.09648
 31
0.0
  0
ARC
  5
AF
100
AcDbEntity
  8
0
  6
Continuous
 62
   174
100
AcDbCircle
 10
256.038475
 20
209.554483
 30
0.0
 40
10.0
100
AcDbArc
 50
86.60957
 51
194.233425
  0
LINE
  5
B0
100
AcDbEntity
  8
0
  6
HIDDEN
 62
   174
100
AcDbLine
 10
227.240362
 20
169.723399
 30
0.0
 11
213.240362
 21
169.723399
 31
0.0
  0
ARC
  5
B1
100
AcDbEntity
  8
0
  6
HIDDEN
 62
   174
100
AcDbCircle
 10
259.240362
 20
151.323399
 30
0.0
 40
7.5
100
AcDbArc
 50
-90.0
 51
90.0
  0
ARC
  5
B2
100
AcDbEntity
  8
0
  6
Continuous
 62
   174
100
AcDbCircle
 10
258.882785
 20
190.768586
 30
0.0
 40
3.0
100
AcDbArc
 50
36.561396
 51
49.1109
  0
ARC
  5
B3
100
AcDbEntity
  8
0
  6
HIDDEN
 62
   174
100
AcDbCircle
 10
220.240362
 20
179.023399
 30
0.0
 40
3.0
100
AcDbArc
 50
88.929841
 51
111.456766
  0
ARC
  5
B4
100
AcDbEntity
  8
0
  6
HIDDEN
 62
   174
100
AcDbCircle
 10
220.240362
 20
179.023399
 30
0.0
 40
3.0
100
AcDbArc
 50
147.492664
 51
152.486941
  0
LINE
  5
B5
100
AcDbEntity
  8
0
  6
HIDDEN
 62
   174
100
AcDbLine
 10
213.240362
 20
110.573399
 30
0.0
 11
231.240362
 21
110.573399
 31
0.0
  0
ARC
  5
B6
100
AcDbEntity
  8
0
  6
Continuous
 62
   174
100
AcDbCircle
 10
227.240362
 20
151.323399
 30
0.0
 40
4.5
100
AcDbArc
 50
-90.0
 51
90.0
  0
LINE
  5
B7
100
AcDbEntity
  8
0
  6
HIDDEN
 62
   174
100
AcDbLine
 10
248.128624
 20
208.356879
 30
0.0
 11
252.91904
 21
176.717474
 31
0.0
  0
ARC
  5
B8
100
AcDbEntity
  8
0
  6
Continuous
 62
   174
100
AcDbCircle
 10
256.038475
 20
209.554483
 30
0.0
 40
2.0
100
AcDbArc
 50
-246.547476
 51
-234.495191
  0
ARC
  5
B9
100
AcDbEntity
  8
0
  6
HIDDEN
 62
   174
100
AcDbCircle
 10
258.882785
 20
190.768586
 30
0.0
 40
3.0
100
AcDbArc
 50
41.89854
 51
64.211689
  0
ARC
  5
BA
100
AcDbEntity
  8
0
  6
HIDDEN
 62
   174
100
AcDbCircle
 10
258.882785
 20
190.768586
 30
0.0
 40
3.0
100
AcDbArc
 50
294.974123
 51
318.760718
  0
LINE
  5
BB
100
AcDbEntity
  8
0
  6
HIDDEN
 62
   174
100
AcDbLine
 10
227.240362
 20
171.992069
 30
0.0
 11
213.240362
 21
169.872376
 31
0.0
  0
ARC
  5
BC
100
AcDbEntity
  8
0
  6
Continuous
 62
   174
100
AcDbCircle
 10
258.882785
 20
190.768586
 30
0.0
 40
3.0
100
AcDbArc
 50
139.342488
 51
151.887559
  0
ARC
  5
BD
100
AcDbEntity
  8
0
  6
HIDDEN
 62
   174
100
AcDbCircle
 10
220.240362
 20
179.023399
 30
0.0
 40
3.0
100
AcDbArc
 50
211.163957
 51
240.040481
  0
ARC
  5
BE
100
AcDbEntity
  8
0
  6
HIDDEN
 62
   174
100
AcDbCircle
 10
220.240362
 20
179.023399
 30
0.0
 40
3.0
100
AcDbArc
 50
60.040481
 51
88.929841
  0
LINE
  5
BF
100
AcDbEntity
  8
0
  6
HIDDEN
 62
   174
100
AcDbLine
 10
273.240362
 20
112.116551
 30
0.0
 11
273.240362
 21
94.61782
 31
0.0
  0
LINE
  5
C0
100
AcDbEntity
  8
0
  6
HIDDEN
 62
   174
100
AcDbLine
 10
247.26594
 20
175.48855
 30
0.0
 11
243.266015
 21
175.48855
 31
0.0
  0
LINE
  5
C1
100
AcDbEntity
  8
0
  6
Continuous
 62
   174
100
AcDbLine
 10
252.170537
 20
181.661131
 30
0.0
 11
252.444197
 21
179.853685
 31
0.0
  0
ARC
  5
C2
100
AcDbEntity
  8
0
  6
HIDDEN
 62
   174
100
AcDbCircle
 10
258.882785
 20
190.768586
 30
0.0
 40
3.0
100
AcDbArc
 50
188.60957
 51
198.462707
  0
LINE
  5
C3
100
AcDbEntity
  8
0
  6
Continuous
 62
   174
100
AcDbLine
 10
247.240362
 20
168.323399
 30
0.0
 11
247.240362
 21
175.48855
 31
0.0
  0
LINE
  5
C4
100
AcDbEntity
  8
0
  6
HIDDEN
 62
   174
100
AcDbLine
 10
228.324714
 20
172.156247
 30
0.0
 11
227.240362
 21
171.992069
 31
0.0
  0
ARC
  5
C5
100
AcDbEntity
  8
0
  6
HIDDEN
 62
   174
100
AcDbCircle
 10
258.882785
 20
190.768586
 30
0.0
 40
8.0
100
AcDbArc
 50
278.60957
 51
301.762193
  0
LINE
  5
C6
100
AcDbEntity
  8
0
  6
HIDDEN
 62
   174
100
AcDbLine
 10
252.91904
 20
176.717474
 30
0.0
 11
268.257999
 21
182.287863
 31
0.0
  0
LINE
  5
C7
100
AcDbEntity
  8
0
  6
Continuous
 62
   174
100
AcDbLine
 10
263.948326
 20
210.752087
 30
0.0
 11
267.58161
 21
186.755228
 31
0.0
  0
LINE
  5
C8
100
AcDbEntity
  8
0
  6
HIDDEN
 62
   174
100
AcDbLine
 10
273.240362
 20
94.573399
 30
0.0
 11
255.240362
 21
94.573399
 31
0.0
  0
LINE
  5
C9
100
AcDbEntity
  8
0
  6
Continuous
 62
   174
100
AcDbLine
 10
227.306751
 20
178.879621
 30
0.0
 11
228.324714
 21
172.156247
 31
0.0
  0
LINE
  5
CA
100
AcDbEntity
  8
0
  6
HIDDEN
 62
   174
100
AcDbLine
 10
213.240362
 20
169.872376
 30
0.0
 11
212.416458
 21
169.747632
 31
0.0
  0
ARC
  5
CB
100
AcDbEntity
  8
0
  6
HIDDEN
 62
   174
100
AcDbCircle
 10
258.882785
 20
190.768586
 30
0.0
 40
8.0
100
AcDbArc
 50
147.179197
 51
172.856366
  0
LINE
  5
CC
100
AcDbEntity
  8
0
  6
HIDDEN
 62
   174
100
AcDbLine
 10
273.240362
 20
126.573399
 30
0.0
 11
255.240362
 21
126.573399
 31
0.0
  0
ARC
  5
CD
100
AcDbEntity
  8
0
  6
HIDDEN
 62
   174
100
AcDbCircle
 10
258.882785
 20
190.768586
 30
0.0
 40
3.0
100
AcDbArc
 50
255.01151
 51
265.762374
  0
ARC
  5
CE
100
AcDbEntity
  8
0
  6
HIDDEN
 62
   174
100
AcDbCircle
 10
258.882785
 20
190.768586
 30
0.0
 40
3.0
100
AcDbArc
 50
265.762374
 51
280.685087
  0
ARC
  5
CF
100
AcDbEntity
  8
0
  6
HIDDEN
 62
   174
100
AcDbCircle
 10
256.038475
 20
209.554483
 30
0.0
 40
8.0
100
AcDbArc
 50
-351.39043
 51
-171.39043
  0
ARC
  5
D0
100
AcDbEntity
  8
0
  6
HIDDEN
 62
   174
100
AcDbCircle
 10
256.038475
 20
209.554483
 30
0.0
 40
9.6
100
AcDbArc
 50
-93.39043
 51
86.60957
  0
ARC
  5
D1
100
AcDbEntity
  8
0
  6
HIDDEN
 62
   174
100
AcDbCircle
 10
258.882785
 20
190.768586
 30
0.0
 40
3.0
100
AcDbArc
 50
291.456766
 51
306.446916
  0
LINE
  5
D2
100
AcDbEntity
  8
0
  6
HIDDEN
 62
   174
100
AcDbLine
 10
273.240362
 20
93.637891
 30
0.0
 11
273.240362
 21
113.09648
 31
0.0
  0
LINE
  5
D3
100
AcDbEntity
  8
0
  6
HIDDEN
 62
   174
100
AcDbLine
 10
227.240362
 20
171.992069
 30
0.0
 11
227.240362
 21
178.879621
 31
0.0
  0
ARC
  5
D4
100
AcDbEntity
  8
0
  6
HIDDEN
 62
   174
100
AcDbCircle
 10
259.240362
 20
151.323399
 30
0.0
 40
7.5
100
AcDbArc
 50
-270.0
 51
-90.0
  0
ARC
  5
D5
100
AcDbEntity
  8
0
  6
HIDDEN
 62
   174
100
AcDbCircle
 10
220.240362
 20
179.023399
 30
0.0
 40
3.0
100
AcDbArc
 50
207.821423
 51
211.101124
  0
ARC
  5
D6
100
AcDbEntity
  8
0
  6
Continuous
 62
   174
100
AcDbCircle
 10
258.882785
 20
190.768586
 30
0.0
 40
3.0
100
AcDbArc
 50
23.989277
 51
36.561396
  0
ARC
  5
D7
100
AcDbEntity
  8
0
  6
HIDDEN
 62
   174
100
AcDbCircle
 10
220.240362
 20
179.023399
 30
0.0
 40
3.0
100
AcDbArc
 50
271.950501
 51
291.456766
  0
ARC
  5
D8
100
AcDbEntity
  8
0
  6
HIDDEN
 62
   174
100
AcDbCircle
 10
220.240362
 20
179.023399
 30
0.0
 40
3.0
100
AcDbArc
 50
111.456766
 51
147.492664
  0
LINE
  5
D9
100
AcDbEntity
  8
0
  6
HIDDEN
 62
   174
100
AcDbLine
 10
252.170537
 20
181.661131
 30
0.0
 11
252.384317
 21
180.249178
 31
0.0
  0
ARC
  5
DA
100
AcDbEntity
  8
0
  6
Continuous
 62
   174
100
AcDbCircle
 10
259.240362
 20
151.323399
 30
0.0
 40
7.5
100
AcDbArc
 50
-90.0
 51
90.0
  0
LINE
  5
DB
100
AcDbEntity
  8
0
  6
HIDDEN
 62
   174
100
AcDbLine
 10
259.240362
 20
112.073399
 30
0.0
 11
273.240362
 21
112.073399
 31
0.0
  0
ARC
  5
DC
100
AcDbEntity
  8
0
  6
Continuous
 62
   174
100
AcDbCircle
 10
256.038475
 20
209.554483
 30
0.0
 40
2.0
100
AcDbArc
 50
-234.495191
 51
-221.167215
  0
ARC
  5
DD
100
AcDbEntity
  8
0
  6
HIDDEN
 62
   174
100
AcDbCircle
 10
258.882785
 20
190.768586
 30
0.0
 40
3.0
100
AcDbArc
 50
64.211689
 51
81.101105
  0
ARC
  5
DE
100
AcDbEntity
  8
0
  6
HIDDEN
 62
   174
100
AcDbCircle
 10
258.882785
 20
190.768586
 30
0.0
 40
3.0
100
AcDbArc
 50
318.760718
 51
323.967111
  0
ARC
  5
DF
100
AcDbEntity
  8
0
  6
Continuous
 62
   174
100
AcDbCircle
 10
258.882785
 20
190.768586
 30
0.0
 40
3.0
100
AcDbArc
 50
126.446916
 51
139.342488
  0
ARC
  5
E0
100
AcDbEntity
  8
0
  6
HIDDEN
 62
   174
100
AcDbCircle
 10
220.240362
 20
179.023399
 30
0.0
 40
3.0
100
AcDbArc
 50
31.163957
 51
60.040481
  0
ARC
  5
E1
100
AcDbEntity
  8
0
  6
HIDDEN
 62
   174
100
AcDbCircle
 10
220.240362
 20
179.023399
 30
0.0
 40
3.0
100
AcDbArc
 50
111.456766
 51
147.492664
  0
LINE
  5
E2
100
AcDbEntity
  8
0
  6
HIDDEN
 62
   174
100
AcDbLine
 10
227.240362
 20
109.593399
 30
0.0
 11
213.240362
 21
109.593399
 31
0.0
  0
LINE
  5
E3
100
AcDbEntity
  8
0
  6
HIDDEN
 62
   174
100
AcDbLine
 10
213.240362
 20
128.073399
 30
0.0
 11
231.240362
 21
128.073399
 31
0.0
  0
LINE
  5
E4
100
AcDbEntity
  8
0
  6
Continuous
 62
   174
100
AcDbLine
 10
267.58161
 20
186.755228
 30
0.0
 11
268.257999
 21
182.287863
 31
0.0
  0
LINE
  5
E5
100
AcDbEntity
  8
0
  6
HIDDEN
 62
   174
100
AcDbLine
 10
273.240362
 20
112.073399
 30
0.0
 11
255.240362
 21
112.073399
 31
0.0
  0
LINE
  5
E6
100
AcDbEntity
  8
0
  6
HIDDEN
 62
   174
100
AcDbLine
 10
231.240362
 20
128.115649
 30
0.0
 11
231.240362
 21
110.616918
 31
0.0
  0
ARC
  5
E7
100
AcDbEntity
  8
0
  6
HIDDEN
 62
   174
100
AcDbCircle
 10
220.240362
 20
179.023399
 30
0.0
 40
3.0
100
AcDbArc
 50
-28.671853
 51
27.821423
  0
LINE
  5
E8
100
AcDbEntity
  8
0
  6
HIDDEN
 62
   174
100
AcDbLine
 10
227.306751
 20
178.879621
 30
0.0
 11
228.324714
 21
172.156247
 31
0.0
  0
ARC
  5
E9
100
AcDbEntity
  8
0
  6
Continuous
 62
   174
100
AcDbCircle
 10
258.882785
 20
190.768586
 30
0.0
 40
8.0
100
AcDbArc
 50
-32.560708
 51
172.856366
  0
LINE
  5
EA
100
AcDbEntity
  8
0
  6
HIDDEN
 62
   174
100
AcDbLine
 10
213.240362
 20
110.573399
 30
0.0
 11
231.240362
 21
110.573399
 31
0.0
  0
LINE
  5
EB
100
AcDbEntity
  8
0
  6
HIDDEN
 62
   174
100
AcDbLine
 10
259.240362
 20
94.573399
 30
0.0
 11
273.240362
 21
94.573399
 31
0.0
  0
LINE
  5
EC
100
AcDbEntity
  8
0
  6
Continuous
 62
   174
100
AcDbLine
 10
213.240362
 20
187.323399
 30
0.0
 11
227.240362
 21
187.323399
 31
0.0
  0
ARC
  5
ED
100
AcDbEntity
  8
0
  6
HIDDEN
 62
   174
100
AcDbCircle
 10
258.882785
 20
190.768586
 30
0.0
 40
3.0
100
AcDbArc
 50
198.462707
 51
215.634219
  0
ARC
  5
EE
100
AcDbEntity
  8
0
  6
HIDDEN
 62
   174
100
AcDbCircle
 10
258.882785
 20
190.768586
 30
0.0
 40
8.0
100
AcDbArc
 50
301.762193
 51
327.439292
  0
LINE
  5
EF
100
AcDbEntity
  8
0
  6
HIDDEN
 62
   174
100
AcDbLine
 10
227.240362
 20
128.073399
 30
0.0
 11
213.240362
 21
128.073399
 31
0.0
  0
ARC
  5
F0
100
AcDbEntity
  8
0
  6
Continuous
 62
   174
100
AcDbCircle
 10
227.240362
 20
151.323399
 30
0.0
 40
7.5
100
AcDbArc
 50
-90.0
 51
90.0
  0
LINE
  5
F1
100
AcDbEntity
  8
0
  6
HIDDEN
 62
   174
100
AcDbLine
 10
227.240362
 20
178.879621
 30
0.0
 11
227.240362
 21
187.323399
 31
0.0
  0
LINE
  5
F2
100
AcDbEntity
  8
0
  6
HIDDEN
 62
   174
100
AcDbLine
 10
214.164077
 20
186.194585
 30
0.0
 11
213.240362
 21
177.501448
 31
0.0
  0
ARC
  5
F3
100
AcDbEntity
  8
0
  6
HIDDEN
 62
   174
100
AcDbCircle
 10
258.882785
 20
190.768586
 30
0.0
 40
3.0
100
AcDbArc
 50
8.60957
 51
23.989277
  0
ARC
  5
F4
100
AcDbEntity
  8
0
  6
Continuous
 62
   174
100
AcDbCircle
 10
258.882785
 20
190.768586
 30
0.0
 40
3.0
100
AcDbArc
 50
242.185643
 51
255.01151
  0
LINE
  5
F5
100
AcDbEntity
  8
0
  6
HIDDEN
 62
   174
100
AcDbLine
 10
259.240362
 20
113.053399
 30
0.0
 11
273.240362
 21
113.053399
 31
0.0
  0
LINE
  5
F6
100
AcDbEntity
  8
0
  6
HIDDEN
 62
   174
100
AcDbLine
 10
273.240362
 20
94.573399
 30
0.0
 11
255.240362
 21
94.573399
 31
0.0
  0
LINE
  5
F7
100
AcDbEntity
  8
0
  6
HIDDEN
 62
   174
100
AcDbLine
 10
233.239139
 20
179.777824
 30
0.0
 11
227.306751
 21
178.879621
 31
0.0
  0
ARC
  5
F8
100
AcDbEntity
  8
0
  6
HIDDEN
 62
   174
100
AcDbCircle
 10
258.882785
 20
190.768586
 30
0.0
 40
3.0
100
AcDbArc
 50
164.949891
 51
177.824016
  0
ARC
  5
F9
100
AcDbEntity
  8
0
  6
HIDDEN
 62
   174
100
AcDbCircle
 10
258.882785
 20
190.768586
 30
0.0
 40
3.0
100
AcDbArc
 50
177.824016
 51
188.60957
  0
ARC
  5
FA
100
AcDbEntity
  8
0
  6
HIDDEN
 62
   174
100
AcDbCircle
 10
256.038475
 20
209.554483
 30
0.0
 40
9.6
100
AcDbArc
 50
86.60957
 51
266.60957
  0
LINE
  5
FB
100
AcDbEntity
  8
0
  6
Continuous
 62
   174
100
AcDbLine
 10
213.240362
 20
177.501448
 30
0.0
 11
212.416458
 21
169.747632
 31
0.0
  0
ARC
  5
FC
100
AcDbEntity
  8
0
  6
HIDDEN
 62
   174
100
AcDbCircle
 10
220.240362
 20
179.023399
 30
0.0
 40
3.0
100
AcDbArc
 50
151.328147
 51
207.821423
  0
ARC
  5
FD
100
AcDbEntity
  8
0
  6
HIDDEN
 62
   174
100
AcDbCircle
 10
258.882785
 20
190.768586
 30
0.0
 40
3.0
100
AcDbArc
 50
319.342488
 51
331.887559
  0
LINE
  5
FE
100
AcDbEntity
  8
0
  6
HIDDEN
 62
   174
100
AcDbLine
 10
227.240362
 20
129.095578
 30
0.0
 11
227.240362
 21
109.636989
 31
0.0
  0
LINE
  5
FF
100
AcDbEntity
  8
0
  6
HIDDEN
 62
   174
100
AcDbLine
 10
259.240362
 20
144.073399
 30
0.0
 11
273.240362
 21
144.073399
 31
0.0
  0
ARC
  5
100
100
AcDbEntity
  8
0
  6
Continuous
 62
   174
100
AcDbCircle
 10
258.882785
 20
190.768586
 30
0.0
 40
3.0
100
AcDbArc
 50
8.60957
 51
23.989277
  0
ARC
  5
101
100
AcDbEntity
  8
0
  6
HIDDEN
 62
   174
100
AcDbCircle
 10
220.240362
 20
179.023399
 30
0.0
 40
3.0
100
AcDbArc
 50
240.040481
 51
271.950501
  0
ARC
  5
102
100
AcDbEntity
  8
0
  6
HIDDEN
 62
   174
100
AcDbCircle
 10
220.240362
 20
179.023399
 30
0.0
 40
3.0
100
AcDbArc
 50
291.456766
 51
327.492664
  0
ARC
  5
103
100
AcDbEntity
  8
0
  6
Continuous
 62
   174
100
AcDbCircle
 10
259.240362
 20
151.323399
 30
0.0
 40
7.5
100
AcDbArc
 50
90.0
 51
270.0
  0
ARC
  5
104
100
AcDbEntity
  8
0
  6
Continuous
 62
   174
100
AcDbCircle
 10
256.038475
 20
209.554483
 30
0.0
 40
2.0
100
AcDbArc
 50
-221.167215
 51
-207.258649
  0
LINE
  5
105
100
AcDbEntity
  8
0
  6
HIDDEN
 62
   174
100
AcDbLine
 10
213.240362
 20
187.323399
 30
0.0
 11
221.619587
 21
187.323399
 31
0.0
  0
ARC
  5
106
100
AcDbEntity
  8
0
  6
HIDDEN
 62
   174
100
AcDbCircle
 10
258.882785
 20
190.768586
 30
0.0
 40
3.0
100
AcDbArc
 50
81.101105
 51
86.985028
  0
ARC
  5
107
100
AcDbEntity
  8
0
  6
HIDDEN
 62
   174
100
AcDbCircle
 10
258.882785
 20
190.768586
 30
0.0
 40
3.0
100
AcDbArc
 50
323.967111
 51
345.746598
  0
LINE
  5
108
100
AcDbEntity
  8
0
  6
HIDDEN
 62
   174
100
AcDbLine
 10
221.619587
 20
187.323399
 30
0.0
 11
214.164077
 21
186.194585
 31
0.0
  0
ARC
  5
109
100
AcDbEntity
  8
0
  6
Continuous
 62
   174
100
AcDbCircle
 10
258.882785
 20
190.768586
 30
0.0
 40
3.0
100
AcDbArc
 50
111.456766
 51
126.446916
  0
ARC
  5
10A
100
AcDbEntity
  8
0
  6
HIDDEN
 62
   174
100
AcDbCircle
 10
220.240362
 20
179.023399
 30
0.0
 40
3.0
100
AcDbArc
 50
152.486941
 51
188.60957
  0
ARC
  5
10B
100
AcDbEntity
  8
0
  6
HIDDEN
 62
   174
100
AcDbCircle
 10
220.240362
 20
179.023399
 30
0.0
 40
3.0
100
AcDbArc
 50
271.950501
 51
291.456766
  0
LINE
  5
10C
100
AcDbEntity
  8
0
  6
Continuous
 62
   174
100
AcDbLine
 10
227.240362
 20
168.323399
 30
0.0
 11
227.240362
 21
187.323399
 31
0.0
  0
LINE
  5
10D
100
AcDbEntity
  8
0
  6
HIDDEN
 62
   174
100
AcDbLine
 10
259.240362
 20
126.573399
 30
0.0
 11
273.240362
 21
126.573399
 31
0.0
  0
ARC
  5
10E
100
AcDbEntity
  8
0
  6
HIDDEN
 62
   174
100
AcDbCircle
 10
220.240362
 20
179.023399
 30
0.0
 40
3.0
100
AcDbArc
 50
327.277693
 51
331.328147
  0
ARC
  5
10F
100
AcDbEntity
  8
0
  6
HIDDEN
 62
   174
100
AcDbCircle
 10
220.240362
 20
179.023399
 30
0.0
 40
3.0
100
AcDbArc
 50
27.821423
 51
31.101124
  0
LINE
  5
110
100
AcDbEntity
  8
0
  6
HIDDEN
 62
   174
100
AcDbLine
 10
255.240362
 20
126.615715
 30
0.0
 11
255.240362
 21
144.114447
 31
0.0
  0
LINE
  5
111
100
AcDbEntity
  8
0
  6
HIDDEN
 62
   174
100
AcDbLine
 10
259.240362
 20
93.593399
 30
0.0
 11
273.240362
 21
93.593399
 31
0.0
  0
LINE
  5
112
100
AcDbEntity
  8
0
  6
HIDDEN
 62
   174
100
AcDbLine
 10
214.164077
 20
186.194585
 30
0.0
 11
213.240362
 21
177.501448
 31
0.0
  0
ARC
  5
113
100
AcDbEntity
  8
0
  6
Continuous
 62
   174
100
AcDbCircle
 10
258.882785
 20
190.768586
 30
0.0
 40
8.0
100
AcDbArc
 50
278.60957
 51
327.439292
  0
LINE
  5
114
100
AcDbEntity
  8
0
  6
Continuous
 62
   174
100
AcDbLine
 10
252.743598
 20
177.876222
 30
0.0
 11
233.957701
 21
175.031913
 31
0.0
  0
ARC
  5
115
100
AcDbEntity
  8
0
  6
HIDDEN
 62
   174
100
AcDbCircle
 10
258.882785
 20
190.768586
 30
0.0
 40
8.0
100
AcDbArc
 50
327.439292
 51
353.116356
  0
ARC
  5
116
100
AcDbEntity
  8
0
  6
Continuous
 62
   174
100
AcDbCircle
 10
227.240362
 20
151.323399
 30
0.0
 40
7.5
100
AcDbArc
 50
90.0
 51
270.0
  0
LINE
  5
117
100
AcDbEntity
  8
0
  6
Continuous
 62
   174
100
AcDbLine
 10
213.240362
 20
83.323399
 30
0.0
 11
273.240362
 21
83.323399
 31
0.0
  0
ARC
  5
118
100
AcDbEntity
  8
0
  6
HIDDEN
 62
   174
100
AcDbCircle
 10
258.882785
 20
190.768586
 30
0.0
 40
3.0
100
AcDbArc
 50
23.989277
 51
36.561396
  0
ARC
  5
119
100
AcDbEntity
  8
0
  6
Continuous
 62
   174
100
AcDbCircle
 10
258.882785
 20
190.768586
 30
0.0
 40
3.0
100
AcDbArc
 50
229.1109
 51
242.185643
  0
LINE
  5
11A
100
AcDbEntity
  8
0
  6
HIDDEN
 62
   174
100
AcDbLine
 10
221.619587
 20
187.323399
 30
0.0
 11
227.240362
 21
187.323399
 31
0.0
  0
ARC
  5
11B
100
AcDbEntity
  8
0
  6
HIDDEN
 62
   174
100
AcDbCircle
 10
258.882785
 20
190.768586
 30
0.0
 40
3.0
100
AcDbArc
 50
-171.39043
 51
8.60957
  0
LINE
  5
11C
100
AcDbEntity
  8
0
  6
HIDDEN
 62
   174
100
AcDbLine
 10
227.1144
 20
188.15535
 30
0.0
 11
221.619587
 21
187.323399
 31
0.0
  0
ARC
  5
11D
100
AcDbEntity
  8
0
  6
HIDDEN
 62
   174
100
AcDbCircle
 10
258.882785
 20
190.768586
 30
0.0
 40
3.0
100
AcDbArc
 50
85.762374
 51
100.685087
  0
ARC
  5
11E
100
AcDbEntity
  8
0
  6
HIDDEN
 62
   174
100
AcDbCircle
 10
258.882785
 20
190.768586
 30
0.0
 40
3.0
100
AcDbArc
 50
188.60957
 51
203.989277
  0
LINE
  5
11F
100
AcDbEntity
  8
0
  6
HIDDEN
 62
   174
100
AcDbLine
 10
259.240362
 20
113.053399
 30
0.0
 11
273.240362
 21
113.053399
 31
0.0
  0
LINE
  5
120
100
AcDbEntity
  8
0
  6
HIDDEN
 62
   174
100
AcDbLine
 10
221.619587
 20
187.323399
 30
0.0
 11
214.164077
 21
186.194585
 31
0.0
  0
LINE
  5
121
100
AcDbEntity
  8
0
  6
HIDDEN
 62
   174
100
AcDbLine
 10
213.240362
 20
129.095578
 30
0.0
 11
213.240362
 21
109.636989
 31
0.0
  0
LINE
  5
122
100
AcDbEntity
  8
0
  6
Continuous
 62
   174
100
AcDbLine
 10
250.944884
 20
191.763444
 30
0.0
 11
227.1144
 21
188.15535
 31
0.0
  0
ARC
  5
123
100
AcDbEntity
  8
0
  6
HIDDEN
 62
   174
100
AcDbCircle
 10
220.240362
 20
179.023399
 30
0.0
 40
3.0
100
AcDbArc
 50
211.163957
 51
240.040481
  0
ARC
  5
124
100
AcDbEntity
  8
0
  6
HIDDEN
 62
   174
100
AcDbCircle
 10
220.240362
 20
179.023399
 30
0.0
 40
3.0
100
AcDbArc
 50
327.492664
 51
332.486941
  0
LINE
  5
125
100
AcDbEntity
  8
0
  6
Continuous
 62
   174
100
AcDbLine
 10
252.439092
 20
179.887404
 30
0.0
 11
252.738461
 21
177.910147
 31
0.0
  0
ARC
  5
126
100
AcDbEntity
  8
0
  6
Continuous
 62
   174
100
AcDbCircle
 10
256.038475
 20
209.554483
 30
0.0
 40
2.0
100
AcDbArc
 50
-207.258649
 51
-195.129184
  0
ARC
  5
127
100
AcDbEntity
  8
0
  6
HIDDEN
 62
   174
100
AcDbCircle
 10
258.882785
 20
190.768586
 30
0.0
 40
3.0
100
AcDbArc
 50
-14.253402
 51
8.60957
  0
ARC
  5
128
100
AcDbEntity
  8
0
  6
HIDDEN
 62
   174
100
AcDbCircle
 10
258.882785
 20
190.768586
 30
0.0
 40
3.0
100
AcDbArc
 50
86.985028
 51
92.895284
  0
ARC
  5
129
100
AcDbEntity
  8
0
  6
HIDDEN
 62
   174
100
AcDbCircle
 10
258.882785
 20
190.768586
 30
0.0
 40
3.0
100
AcDbArc
 50
244.211689
 51
261.101105
  0
ARC
  5
12A
100
AcDbEntity
  8
0
  6
Continuous
 62
   174
100
AcDbCircle
 10
258.882785
 20
190.768586
 30
0.0
 40
3.0
100
AcDbArc
 50
100.685087
 51
111.456766
  0
ARC
  5
12B
100
AcDbEntity
  8
0
  6
HIDDEN
 62
   174
100
AcDbCircle
 10
220.240362
 20
179.023399
 30
0.0
 40
3.0
100
AcDbArc
 50
291.456766
 51
327.492664
  0
ARC
  5
12C
100
AcDbEntity
  8
0
  6
HIDDEN
 62
   174
100
AcDbCircle
 10
220.240362
 20
179.023399
 30
0.0
 40
3.0
100
AcDbArc
 50
147.492664
 51
152.486941
  0
LINE
  5
12D
100
AcDbEntity
  8
0
  6
Continuous
 62
   174
100
AcDbLine
 10
273.240362
 20
83.323399
 30
0.0
 11
273.240362
 21
168.323399
 31
0.0
  0
LINE
  5
12E
100
AcDbEntity
  8
0
  6
HIDDEN
 62
   174
100
AcDbLine
 10
213.240362
 20
186.194585
 30
0.0
 11
213.240362
 21
187.323399
 31
0.0
  0
LINE
  5
12F
100
AcDbEntity
  8
0
  6
HIDDEN
 62
   174
100
AcDbLine
 10
259.240362
 20
93.593399
 30
0.0
 11
273.240362
 21
93.593399
 31
0.0
  0
ARC
  5
130
100
AcDbEntity
  8
0
  6
Continuous
 62
   174
100
AcDbCircle
 10
220.240362
 20
179.023399
 30
0.0
 40
3.0
100
AcDbArc
 50
31.101124
 51
90.0
  0
ARC
  5
131
100
AcDbEntity
  8
0
  6
HIDDEN
 62
   174
100
AcDbCircle
 10
258.882785
 20
190.768586
 30
0.0
 40
8.0
100
AcDbArc
 50
-6.883644
 51
18.793527
  0
LINE
  5
132
100
AcDbEntity
  8
0
  6
HIDDEN
 62
   174
100
AcDbLine
 10
247.010283
 20
177.00816
 30
0.0
 11
252.743598
 21
177.876222
 31
0.0
  0
ARC
  5
133
100
AcDbEntity
  8
0
  6
HIDDEN
 62
   174
100
AcDbCircle
 10
258.882785
 20
190.768586
 30
0.0
 40
3.0
100
AcDbArc
 50
36.561396
 51
49.1109
  0
ARC
  5
134
100
AcDbEntity
  8
0
  6
Continuous
 62
   174
100
AcDbCircle
 10
258.882785
 20
190.768586
 30
0.0
 40
3.0
100
AcDbArc
 50
216.561396
 51
229.1109
  0
LINE
  5
135
100
AcDbEntity
  8
0
  6
HIDDEN
 62
   174
100
AcDbLine
 10
259.240362
 20
94.573399
 30
0.0
 11
273.240362
 21
94.573399
 31
0.0
  0
LINE
  5
136
100
AcDbEntity
  8
0
  6
Continuous
 62
   174
100
AcDbLine
 10
273.240362
 20
168.323399
 30
0.0
 11
227.240362
 21
168.323399
 31
0.0
  0
ARC
  5
137
100
AcDbEntity
  8
0
  6
HIDDEN
 62
   174
100
AcDbCircle
 10
258.882785
 20
190.768586
 30
0.0
 40
3.0
100
AcDbArc
 50
100.685087
 51
111.456766
  0
ARC
  5
138
100
AcDbEntity
  8
0
  6
HIDDEN
 62
   174
100
AcDbCircle
 10
258.882785
 20
190.768586
 30
0.0
 40
3.0
100
AcDbArc
 50
203.989277
 51
216.561396
  0
ARC
  5
139
100
AcDbEntity
  8
0
  6
Continuous
 62
   174
100
AcDbCircle
 10
258.882785
 20
190.768586
 30
0.0
 40
3.0
100
AcDbArc
 50
-2.175984
 51
8.60957
  0
LINE
  5
13A
100
AcDbEntity
  8
0
  6
HIDDEN
 62
   174
100
AcDbLine
 10
273.240362
 20
144.114447
 30
0.0
 11
273.240362
 21
126.615715
 31
0.0
  0
LINE
  5
13B
100
AcDbEntity
  8
0
  6
HIDDEN
 62
   174
100
AcDbLine
 10
227.240362
 20
169.723399
 30
0.0
 11
227.240362
 21
171.992069
 31
0.0
  0
LINE
  5
13C
100
AcDbEntity
  8
0
  6
HIDDEN
 62
   174
100
AcDbLine
 10
227.240362
 20
109.593399
 30
0.0
 11
213.240362
 21
109.593399
 31
0.0
  0
LINE
  5
13D
100
AcDbEntity
  8
0
  6
HIDDEN
 62
   174
100
AcDbLine
 10
213.240362
 20
128.073399
 30
0.0
 11
231.240362
 21
128.073399
 31
0.0
  0
LINE
  5
13E
100
AcDbEntity
  8
0
  6
HIDDEN
 62
   174
100
AcDbLine
 10
259.240362
 20
125.635786
 30
0.0
 11
259.240362
 21
145.094376
 31
0.0
  0
ARC
  5
13F
100
AcDbEntity
  8
0
  6
Continuous
 62
   174
100
AcDbCircle
 10
256.038475
 20
209.554483
 30
0.0
 40
2.0
100
AcDbArc
 50
-259.952236
 51
-246.547476
  0
ARC
  5
140
100
AcDbEntity
  8
0
  6
HIDDEN
 62
   174
100
AcDbCircle
 10
255.559311
 20
180.655212
 30
0.0
 40
1.0
100
AcDbArc
 50
8.60957
 51
188.60957
  0
ARC
  5
141
100
AcDbEntity
  8
0
  6
HIDDEN
 62
   174
100
AcDbCircle
 10
258.882785
 20
190.768586
 30
0.0
 40
3.0
100
AcDbArc
 50
344.949891
 51
357.824016
  0
ARC
  5
142
100
AcDbEntity
  8
0
  6
HIDDEN
 62
   174
100
AcDbCircle
 10
220.240362
 20
179.023399
 30
0.0
 40
3.0
100
AcDbArc
 50
-27.513059
 51
8.60957
  0
ARC
  5
143
100
AcDbEntity
  8
0
  6
HIDDEN
 62
   174
100
AcDbCircle
 10
220.240362
 20
179.023399
 30
0.0
 40
3.0
100
AcDbArc
 50
188.60957
 51
211.163957
  0
LINE
  5
144
100
AcDbEntity
  8
0
  6
HIDDEN
 62
   174
100
AcDbLine
 10
263.948326
 20
210.752087
 30
0.0
 11
268.257999
 21
182.287863
 31
0.0
  0
LINE
  5
145
100
AcDbEntity
  8
0
  6
Continuous
 62
   174
100
AcDbLine
 10
233.952562
 20
175.065856
 30
0.0
 11
233.653141
 21
177.043451
 31
0.0
  0
ARC
  5
146
100
AcDbEntity
  8
0
  6
Continuous
 62
   174
100
AcDbCircle
 10
256.038475
 20
209.554483
 30
0.0
 40
2.0
100
AcDbArc
 50
-195.129184
 51
-192.857143
  0
ARC
  5
147
100
AcDbEntity
  8
0
  6
HIDDEN
 62
   174
100
AcDbCircle
 10
258.882785
 20
190.768586
 30
0.0
 40
3.0
100
AcDbArc
 50
92.895284
 51
98.60957
  0
ARC
  5
148
100
AcDbEntity
  8
0
  6
HIDDEN
 62
   174
100
AcDbCircle
 10
258.882785
 20
190.768586
 30
0.0
 40
3.0
100
AcDbArc
 50
215.634219
 51
221.89854
  0
ARC
  5
149
100
AcDbEntity
  8
0
  6
HIDDEN
 62
   174
100
AcDbCircle
 10
258.882785
 20
190.768586
 30
0.0
 40
3.0
100
AcDbArc
 50
221.89854
 51
244.211689
  0
ARC
  5
14A
100
AcDbEntity
  8
0
  6
HIDDEN
 62
   174
100
AcDbCircle
 10
258.882785
 20
190.768586
 30
0.0
 40
3.0
100
AcDbArc
 50
261.101105
 51
266.985028
  0
ARC
  5
14B
100
AcDbEntity
  8
0
  6
Continuous
 62
   174
100
AcDbCircle
 10
258.882785
 20
190.768586
 30
0.0
 40
3.0
100
AcDbArc
 50
85.762374
 51
100.685087
  0
ARC
  5
14C
100
AcDbEntity
  8
0
  6
HIDDEN
 62
   174
100
AcDbCircle
 10
220.240362
 20
179.023399
 30
0.0
 40
3.0
100
AcDbArc
 50
327.492664
 51
332.486941
  0
LINE
  5
14D
100
AcDbEntity
  8
0
  6
Continuous
 62
   174
100
AcDbLine
 10
213.240362
 20
83.323399
 30
0.0
 11
213.240362
 21
187.323399
 31
0.0
  0
ARC
  5
14E
100
AcDbEntity
  8
0
  6
Continuous
 62
   174
100
AcDbCircle
 10
220.240362
 20
179.023399
 30
0.0
 40
3.0
100
AcDbArc
 50
-28.671853
 51
31.101124
  0
LINE
  5
14F
100
AcDbEntity
  8
0
  6
HIDDEN
 62
   174
100
AcDbLine
 10
227.240362
 20
129.053399
 30
0.0
 11
213.240362
 21
129.053399
 31
0.0
  0
LINE
  5
150
100
AcDbEntity
  8
0
  6
HIDDEN
 62
   174
100
AcDbLine
 10
273.240362
 20
112.073399
 30
0.0
 11
255.240362
 21
112.073399
 31
0.0
  0
ARC
  5
151
100
AcDbEntity
  8
0
  6
Continuous
 62
   174
100
AcDbCircle
 10
258.882785
 20
190.768586
 30
0.0
 40
3.0
100
AcDbArc
 50
203.989277
 51
216.561396
  0
ARC
  5
152
100
AcDbEntity
  8
0
  6
HIDDEN
 62
   174
100
AcDbCircle
 10
258.882785
 20
190.768586
 30
0.0
 40
8.0
100
AcDbArc
 50
70.147867
 51
121.502045
  0
LINE
  5
153
100
AcDbEntity
  8
0
  6
HIDDEN
 62
   174
100
AcDbLine
 10
243.223493
 20
176.434815
 30
0.0
 11
247.010283
 21
177.00816
 31
0.0
  0
LINE
  5
154
100
AcDbEntity
  8
0
  6
HIDDEN
 62
   174
100
AcDbLine
 10
273.240362
 20
126.573399
 30
0.0
 11
255.240362
 21
126.573399
 31
0.0
  0
LINE
  5
155
100
AcDbEntity
  8
0
  6
HIDDEN
 62
   174
100
AcDbLine
 10
273.240362
 20
144.073399
 30
0.0
 11
255.240362
 21
144.073399
 31
0.0
  0
ARC
  5
156
100
AcDbEntity
  8
0
  6
HIDDEN
 62
   174
100
AcDbCircle
 10
256.038475
 20
209.554483
 30
0.0
 40
9.6
100
AcDbArc
 50
266.60957
 51
335.643072
  0
ARC
  5
157
100
AcDbEntity
  8
0
  6
HIDDEN
 62
   174
100
AcDbCircle
 10
258.882785
 20
190.768586
 30
0.0
 40
3.0
100
AcDbArc
 50
111.456766
 51
126.446916
  0
ARC
  5
158
100
AcDbEntity
  8
0
  6
HIDDEN
 62
   174
100
AcDbCircle
 10
258.882785
 20
190.768586
 30
0.0
 40
3.0
100
AcDbArc
 50
216.561396
 51
229.1109
  0
ARC
  5
159
100
AcDbEntity
  8
0
  6
HIDDEN
 62
   174
100
AcDbCircle
 10
256.038475
 20
209.554483
 30
0.0
 40
10.0
100
AcDbArc
 50
266.60957
 51
332.596474
  0
ARC
  5
15A
100
AcDbEntity
  8
0
  6
HIDDEN
 62
   174
100
AcDbCircle
 10
227.240362
 20
151.323399
 30
0.0
 40
7.5
100
AcDbArc
 50
-90.0
 51
90.0
  0
LINE
  5
15B
100
AcDbEntity
  8
0
  6
Continuous
 62
   174
100
AcDbLine
 10
252.444197
 20
179.853685
 30
0.0
 11
233.6583
 21
177.009376
 31
0.0
  0
LINE
  5
15C
100
AcDbEntity
  8
0
  6
HIDDEN
 62
   174
100
AcDbLine
 10
273.240362
 20
125.635786
 30
0.0
 11
273.240362
 21
145.094376
 31
0.0
  0
LINE
  5
15D
100
AcDbEntity
  8
0
  6
Continuous
 62
   174
100
AcDbLine
 10
213.240362
 20
169.872376
 30
0.0
 11
212.416458
 21
169.747632
 31
0.0
  0
ARC
  5
15E
100
AcDbEntity
  8
0
  6
HIDDEN
 62
   174
100
AcDbCircle
 10
255.559311
 20
180.655212
 30
0.0
 40
1.0
100
AcDbArc
 50
-171.39043
 51
8.60957
  0
ARC
  5
15F
100
AcDbEntity
  8
0
  6
HIDDEN
 62
   174
100
AcDbCircle
 10
220.240362
 20
179.023399
 30
0.0
 40
3.0
100
AcDbArc
 50
147.277693
 51
151.328147
  0
ARC
  5
160
100
AcDbEntity
  8
0
  6
HIDDEN
 62
   174
100
AcDbCircle
 10
258.882785
 20
190.768586
 30
0.0
 40
3.0
100
AcDbArc
 50
331.887559
 51
344.949891
  0
ARC
  5
161
100
AcDbEntity
  8
0
  6
HIDDEN
 62
   174
100
AcDbCircle
 10
220.240362
 20
179.023399
 30
0.0
 40
3.0
100
AcDbArc
 50
152.486941
 51
188.60957
  0
ARC
  5
162
100
AcDbEntity
  8
0
  6
HIDDEN
 62
   174
100
AcDbCircle
 10
220.240362
 20
179.023399
 30
0.0
 40
3.0
100
AcDbArc
 50
8.60957
 51
31.163957
  0
LINE
  5
163
100
AcDbEntity
  8
0
  6
HIDDEN
 62
   174
100
AcDbLine
 10
227.240362
 20
129.053399
 30
0.0
 11
213.240362
 21
129.053399
 31
0.0
  0
ARC
  5
164
100
AcDbEntity
  8
0
  6
Continuous
 62
   174
100
AcDbCircle
 10
256.038475
 20
209.554483
 30
0.0
 40
2.0
100
AcDbArc
 50
-192.857143
 51
-181.837533
  0
ARC
  5
165
100
AcDbEntity
  8
0
  6
HIDDEN
 62
   174
100
AcDbCircle
 10
258.882785
 20
190.768586
 30
0.0
 40
3.0
100
AcDbArc
 50
8.60957
 51
18.462707
  0
ARC
  5
166
100
AcDbEntity
  8
0
  6
HIDDEN
 62
   174
100
AcDbCircle
 10
258.882785
 20
190.768586
 30
0.0
 40
3.0
100
AcDbArc
 50
98.60957
 51
114.974123
  0
ARC
  5
167
100
AcDbEntity
  8
0
  6
HIDDEN
 62
   174
100
AcDbCircle
 10
258.882785
 20
190.768586
 30
0.0
 40
3.0
100
AcDbArc
 50
266.985028
 51
272.895284
  0
ARC
  5
168
100
AcDbEntity
  8
0
  6
Continuous
 62
   174
100
AcDbCircle
 10
220.240362
 20
179.023399
 30
0.0
 40
3.0
100
AcDbArc
 50
90.0
 51
151.328147
  0
ARC
  5
169
100
AcDbEntity
  8
0
  6
Continuous
 62
   174
100
AcDbCircle
 10
258.882785
 20
190.768586
 30
0.0
 40
3.0
100
AcDbArc
 50
75.01151
 51
85.762374
  0
ARC
  5
16A
100
AcDbEntity
  8
0
  6
Continuous
 62
   174
100
AcDbCircle
 10
258.882785
 20
190.768586
 30
0.0
 40
3.0
100
AcDbArc
 50
319.342488
 51
331.887559
  0
ARC
  5
16B
100
AcDbEntity
  8
0
  6
HIDDEN
 62
   174
100
AcDbCircle
 10
220.240362
 20
179.023399
 30
0.0
 40
3.0
100
AcDbArc
 50
-27.513059
 51
8.60957
  0
LINE
  5
16C
100
AcDbEntity
  8
0
  6
HIDDEN
 62
   174
100
AcDbLine
 10
239.189565
 20
175.824052
 30
0.0
 11
243.223493
 21
176.434815
 31
0.0
  0
ARC
  5
16D
100
AcDbEntity
  8
0
  6
Continuous
 62
   174
100
AcDbCircle
 10
256.038475
 20
209.554483
 30
0.0
 40
8.0
100
AcDbArc
 50
-351.39043
 51
-171.39043
  0
LINE
  5
16E
100
AcDbEntity
  8
0
  6
HIDDEN
 62
   174
100
AcDbLine
 10
243.266015
 20
175.48855
 30
0.0
 11
239.26609
 21
175.48855
 31
0.0
  0
ARC
  5
16F
100
AcDbEntity
  8
0
  6
Continuous
 62
   174
100
AcDbCircle
 10
258.882785
 20
190.768586
 30
0.0
 40
3.0
100
AcDbArc
 50
344.949891
 51
357.824016
  0
LINE
  5
170
100
AcDbEntity
  8
0
  6
HIDDEN
 62
   174
100
AcDbLine
 10
259.240362
 20
125.593399
 30
0.0
 11
273.240362
 21
125.593399
 31
0.0
  0
LINE
  5
171
100
AcDbEntity
  8
0
  6
HIDDEN
 62
   174
100
AcDbLine
 10
273.240362
 20
144.073399
 30
0.0
 11
255.240362
 21
144.073399
 31
0.0
  0
ARC
  5
172
100
AcDbEntity
  8
0
  6
Continuous
 62
   174
100
AcDbCircle
 10
256.038475
 20
209.554483
 30
0.0
 40
10.0
100
AcDbArc
 50
14.233425
 51
86.60957
  0
ARC
  5
173
100
AcDbEntity
  8
0
  6
HIDDEN
 62
   174
100
AcDbCircle
 10
258.882785
 20
190.768586
 30
0.0
 40
3.0
100
AcDbArc
 50
138.760718
 51
143.967111
  0
ARC
  5
174
100
AcDbEntity
  8
0
  6
Continuous
 62
   174
100
AcDbCircle
 10
220.240362
 20
179.023399
 30
0.0
 40
3.0
100
AcDbArc
 50
270.0
 51
331.328147
  0
LINE
  5
175
100
AcDbEntity
  8
0
  6
Continuous
 62
   174
100
AcDbLine
 10
233.6583
 20
177.009376
 30
0.0
 11
233.239139
 21
179.777824
 31
0.0
  0
LINE
  5
176
100
AcDbEntity
  8
0
  6
Continuous
 62
   174
100
AcDbLine
 10
247.26594
 20
175.48855
 30
0.0
 11
244.498286
 21
175.48855
 31
0.0
  0
ARC
  5
177
100
AcDbEntity
  8
0
  6
Continuous
 62
   174
100
AcDbCircle
 10
258.882785
 20
190.768586
 30
0.0
 40
3.0
100
AcDbArc
 50
188.60957
 51
203.989277
  0
ARC
  5
178
100
AcDbEntity
  8
0
  6
HIDDEN
 62
   174
100
AcDbCircle
 10
258.882785
 20
190.768586
 30
0.0
 40
8.0
100
AcDbArc
 50
44.470685
 51
70.147867
  0
LINE
  5
179
100
AcDbEntity
  8
0
  6
Continuous
 62
   174
100
AcDbLine
 10
253.135812
 20
176.796196
 30
0.0
 11
268.257999
 21
182.287863
 31
0.0
  0
LINE
  5
17A
100
AcDbEntity
  8
0
  6
HIDDEN
 62
   174
100
AcDbLine
 10
259.240362
 20
145.053399
 30
0.0
 11
273.240362
 21
145.053399
 31
0.0
  0
ARC
  5
17B
100
AcDbEntity
  8
0
  6
Continuous
 62
   174
100
AcDbCircle
 10
256.038475
 20
209.554483
 30
0.0
 40
10.0
100
AcDbArc
 50
-27.403526
 51
7.983158
  0
ARC
  5
17C
100
AcDbEntity
  8
0
  6
Continuous
 62
   174
100
AcDbCircle
 10
256.038475
 20
209.554483
 30
0.0
 40
10.0
100
AcDbArc
 50
194.233425
 51
224.586766
  0
ARC
  5
17D
100
AcDbEntity
  8
0
  6
HIDDEN
 62
   174
100
AcDbCircle
 10
256.038475
 20
209.554483
 30
0.0
 40
9.6
100
AcDbArc
 50
221.099671
 51
266.60957
  0
ARC
  5
17E
100
AcDbEntity
  8
0
  6
Continuous
 62
   174
100
AcDbCircle
 10
256.038475
 20
209.554483
 30
0.0
 40
9.6
100
AcDbArc
 50
-3.39043
 51
14.609979
  0
LINE
  5
17F
100
AcDbEntity
  8
0
  6
Continuous
 62
   174
100
AcDbLine
 10
242.033443
 20
175.48855
 30
0.0
 11
239.26609
 21
175.48855
 31
0.0
  0
LINE
  5
180
100
AcDbEntity
  8
0
  6
Continuous
 62
   174
100
AcDbLine
 10
244.498286
 20
175.48855
 30
0.0
 11
243.266015
 21
175.48855
 31
0.0
  0
ARC
  5
181
100
AcDbEntity
  8
0
  6
HIDDEN
 62
   174
100
AcDbCircle
 10
220.240362
 20
179.023399
 30
0.0
 40
3.0
100
AcDbArc
 50
31.101124
 51
90.0
  0
ARC
  5
182
100
AcDbEntity
  8
0
  6
HIDDEN
 62
   174
100
AcDbCircle
 10
258.882785
 20
190.768586
 30
0.0
 40
3.0
100
AcDbArc
 50
126.446916
 51
139.342488
  0
ARC
  5
183
100
AcDbEntity
  8
0
  6
HIDDEN
 62
   174
100
AcDbCircle
 10
258.882785
 20
190.768586
 30
0.0
 40
3.0
100
AcDbArc
 50
229.1109
 51
242.185643
  0
ARC
  5
184
100
AcDbEntity
  8
0
  6
Continuous
 62
   174
100
AcDbCircle
 10
258.882785
 20
190.768586
 30
0.0
 40
3.0
100
AcDbArc
 50
291.456766
 51
306.446916
  0
LINE
  5
185
100
AcDbEntity
  8
0
  6
HIDDEN
 62
   174
100
AcDbLine
 10
233.957701
 20
175.031913
 30
0.0
 11
239.189565
 21
175.824052
 31
0.0
  0
ARC
  5
186
100
AcDbEntity
  8
0
  6
HIDDEN
 62
   174
100
AcDbCircle
 10
256.038475
 20
209.554483
 30
0.0
 40
4.0
100
AcDbArc
 50
86.60957
 51
266.60957
  0
ARC
  5
187
100
AcDbEntity
  8
0
  6
Continuous
 62
   174
100
AcDbCircle
 10
256.038475
 20
209.554483
 30
0.0
 40
9.6
100
AcDbArc
 50
86.60957
 51
194.609979
  0
ARC
  5
188
100
AcDbEntity
  8
0
  6
HIDDEN
 62
   174
100
AcDbCircle
 10
243.240362
 20
166.323399
 30
0.0
 40
10.0
100
AcDbArc
 50
90.0
 51
113.578178
  0
ARC
  5
189
100
AcDbEntity
  8
0
  6
HIDDEN
 62
   174
100
AcDbCircle
 10
227.240362
 20
151.323399
 30
0.0
 40
7.5
100
AcDbArc
 50
-270.0
 51
-90.0
  0
LINE
  5
18A
100
AcDbEntity
  8
0
  6
HIDDEN
 62
   174
100
AcDbLine
 10
252.444197
 20
179.853685
 30
0.0
 11
233.6583
 21
177.009376
 31
0.0
  0
LINE
  5
18B
100
AcDbEntity
  8
0
  6
Continuous
 62
   174
100
AcDbLine
 10
233.239139
 20
179.777824
 30
0.0
 11
227.306751
 21
178.879621
 31
0.0
  0
ARC
  5
18C
100
AcDbEntity
  8
0
  6
Continuous
 62
   174
100
AcDbCircle
 10
243.240362
 20
166.323399
 30
0.0
 40
10.0
100
AcDbArc
 50
-293.578178
 51
-270.0
  0
LINE
  5
18D
100
AcDbEntity
  8
0
  6
Continuous
 62
   174
100
AcDbLine
 10
243.266015
 20
175.48855
 30
0.0
 11
242.033443
 21
175.48855
 31
0.0
  0
ARC
  5
18E
100
AcDbEntity
  8
0
  6
HIDDEN
 62
   174
100
AcDbCircle
 10
220.240362
 20
179.023399
 30
0.0
 40
3.0
100
AcDbArc
 50
270.0
 51
327.277693
  0
ARC
  5
18F
100
AcDbEntity
  8
0
  6
Continuous
 62
   174
100
AcDbCircle
 10
258.882785
 20
190.768586
 30
0.0
 40
3.0
100
AcDbArc
 50
62.185643
 51
75.01151
  0
ARC
  5
190
100
AcDbEntity
  8
0
  6
HIDDEN
 62
   174
100
AcDbCircle
 10
220.240362
 20
179.023399
 30
0.0
 40
3.0
100
AcDbArc
 50
188.60957
 51
211.163957
  0
ARC
  5
191
100
AcDbEntity
  8
0
  6
HIDDEN
 62
   174
100
AcDbCircle
 10
220.240362
 20
179.023399
 30
0.0
 40
3.0
100
AcDbArc
 50
31.163957
 51
60.040481
  0
LINE
  5
192
100
AcDbEntity
  8
0
  6
HIDDEN
 62
   174
100
AcDbLine
 10
259.240362
 20
144.073399
 30
0.0
 11
273.240362
 21
144.073399
 31
0.0
  0
ARC
  5
193
100
AcDbEntity
  8
0
  6
Continuous
 62
   174
100
AcDbCircle
 10
256.038475
 20
209.554483
 30
0.0
 40
2.0
100
AcDbArc
 50
-181.837533
 51
-169.305477
  0
ARC
  5
194
100
AcDbEntity
  8
0
  6
HIDDEN
 62
   174
100
AcDbCircle
 10
258.882785
 20
190.768586
 30
0.0
 40
3.0
100
AcDbArc
 50
18.462707
 51
35.634219
  0
ARC
  5
195
100
AcDbEntity
  8
0
  6
HIDDEN
 62
   174
100
AcDbCircle
 10
258.882785
 20
190.768586
 30
0.0
 40
3.0
100
AcDbArc
 50
114.974123
 51
138.760718
  0
ARC
  5
196
100
AcDbEntity
  8
0
  6
HIDDEN
 62
   174
100
AcDbCircle
 10
258.882785
 20
190.768586
 30
0.0
 40
3.0
100
AcDbArc
 50
272.895284
 51
278.60957
  0
ARC
  5
197
100
AcDbEntity
  8
0
  6
Continuous
 62
   174
100
AcDbCircle
 10
259.240362
 20
151.323399
 30
0.0
 40
4.5
100
AcDbArc
 50
-270.0
 51
-90.0
  0
ARC
  5
198
100
AcDbEntity
  8
0
  6
Continuous
 62
   174
100
AcDbCircle
 10
258.882785
 20
190.768586
 30
0.0
 40
3.0
100
AcDbArc
 50
306.446916
 51
319.342488
  0
ARC
  5
199
100
AcDbEntity
  8
0
  6
HIDDEN
 62
   174
100
AcDbCircle
 10
220.240362
 20
179.023399
 30
0.0
 40
3.0
100
AcDbArc
 50
8.60957
 51
31.163957
  0
LINE
  5
19A
100
AcDbEntity
  8
0
  6
HIDDEN
 62
   174
100
AcDbLine
 10
259.240362
 20
145.053399
 30
0.0
 11
273.240362
 21
145.053399
 31
0.0
  0
LINE
  5
19B
100
AcDbEntity
  8
0
  6
HIDDEN
 62
   174
100
AcDbLine
 10
227.240362
 20
171.992069
 30
0.0
 11
213.240362
 21
169.872376
 31
0.0
  0
ARC
  5
19C
100
AcDbEntity
  8
0
  6
Continuous
 62
   174
100
AcDbCircle
 10
258.882785
 20
190.768586
 30
0.0
 40
3.0
100
AcDbArc
 50
331.887559
 51
344.949891
  0
LINE
  5
19D
100
AcDbEntity
  8
0
  6
Continuous
 62
   174
100
AcDbLine
 10
252.91904
 20
176.717474
 30
0.0
 11
253.135812
 21
176.796196
 31
0.0
  0
LINE
  5
19E
100
AcDbEntity
  8
0
  6
HIDDEN
 62
   174
100
AcDbLine
 10
252.444197
 20
179.853685
 30
0.0
 11
252.743598
 21
177.876222
 31
0.0
  0
LINE
  5
19F
100
AcDbEntity
  8
0
  6
HIDDEN
 62
   174
100
AcDbLine
 10
213.240362
 20
177.501448
 30
0.0
 11
213.240362
 21
186.194585
 31
0.0
  0
LINE
  5
1A0
100
AcDbEntity
  8
0
  6
HIDDEN
 62
   174
100
AcDbLine
 10
252.384317
 20
180.249178
 30
0.0
 11
233.59842
 21
177.404868
 31
0.0
  0
ARC
  5
1A1
100
AcDbEntity
  8
0
  6
Continuous
 62
   174
100
AcDbCircle
 10
256.038475
 20
209.554483
 30
0.0
 40
10.0
100
AcDbArc
 50
7.983158
 51
14.233425
  0
ARC
  5
1A2
100
AcDbEntity
  8
0
  6
HIDDEN
 62
   174
100
AcDbCircle
 10
258.882785
 20
190.768586
 30
0.0
 40
3.0
100
AcDbArc
 50
143.967111
 51
165.746598
  0
ARC
  5
1A3
100
AcDbEntity
  8
0
  6
Continuous
 62
   174
100
AcDbCircle
 10
220.240362
 20
179.023399
 30
0.0
 40
3.0
100
AcDbArc
 50
211.101124
 51
270.0
  0
ARC
  5
1A4
100
AcDbEntity
  8
0
  6
HIDDEN
 62
   174
100
AcDbCircle
 10
220.240362
 20
179.023399
 30
0.0
 40
3.0
100
AcDbArc
 50
211.101124
 51
270.0
  0
ARC
  5
1A5
100
AcDbEntity
  8
0
  6
HIDDEN
 62
   174
100
AcDbCircle
 10
258.882785
 20
190.768586
 30
0.0
 40
8.0
100
AcDbArc
 50
18.793527
 51
44.470685
  0
ARC
  5
1A6
100
AcDbEntity
  8
0
  6
HIDDEN
 62
   174
100
AcDbCircle
 10
220.240362
 20
179.023399
 30
0.0
 40
3.0
100
AcDbArc
 50
90.0
 51
147.277693
  0
ARC
  5
1A7
100
AcDbEntity
  8
0
  6
HIDDEN
 62
   174
100
AcDbCircle
 10
258.882785
 20
190.768586
 30
0.0
 40
3.0
100
AcDbArc
 50
49.1109
 51
62.185643
  0
ARC
  5
1A8
100
AcDbEntity
  8
0
  6
HIDDEN
 62
   174
100
AcDbCircle
 10
258.882785
 20
190.768586
 30
0.0
 40
3.0
100
AcDbArc
 50
75.01151
 51
85.762374
  0
ARC
  5
1A9
100
AcDbEntity
  8
0
  6
Continuous
 62
   174
100
AcDbCircle
 10
258.882785
 20
190.768586
 30
0.0
 40
3.0
100
AcDbArc
 50
177.824016
 51
188.60957
  0
LINE
  5
1AA
100
AcDbEntity
  8
0
  6
HIDDEN
 62
   174
100
AcDbLine
 10
227.240362
 20
128.073399
 30
0.0
 11
213.240362
 21
128.073399
 31
0.0
  0
ARC
  5
1AB
100
AcDbEntity
  8
0
  6
HIDDEN
 62
   174
100
AcDbCircle
 10
256.038475
 20
209.554483
 30
0.0
 40
4.0
100
AcDbArc
 50
-93.39043
 51
86.60957
  0
ARC
  5
1AC
100
AcDbEntity
  8
0
  6
Continuous
 62
   174
100
AcDbCircle
 10
256.038475
 20
209.554483
 30
0.0
 40
9.6
100
AcDbArc
 50
335.643072
 51
356.60957
  0
ARC
  5
1AD
100
AcDbEntity
  8
0
  6
Continuous
 62
   174
100
AcDbCircle
 10
256.038475
 20
209.554483
 30
0.0
 40
9.6
100
AcDbArc
 50
194.609979
 51
221.099671
  0
ARC
  5
1AE
100
AcDbEntity
  8
0
  6
HIDDEN
 62
   174
100
AcDbCircle
 10
258.882785
 20
190.768586
 30
0.0
 40
3.0
100
AcDbArc
 50
139.342488
 51
151.887559
  0
ARC
  5
1AF
100
AcDbEntity
  8
0
  6
HIDDEN
 62
   174
100
AcDbCircle
 10
258.882785
 20
190.768586
 30
0.0
 40
3.0
100
AcDbArc
 50
242.185643
 51
255.01151
  0
ARC
  5
1B0
100
AcDbEntity
  8
0
  6
Continuous
 62
   174
100
AcDbCircle
 10
258.882785
 20
190.768586
 30
0.0
 40
3.0
100
AcDbArc
 50
280.685087
 51
291.456766
  0
LINE
  5
1B1
100
AcDbEntity
  8
0
  6
Continuous
 62
   174
100
AcDbLine
 10
252.743598
 20
177.876222
 30
0.0
 11
252.91904
 21
176.717474
 31
0.0
  0
LINE
  5
1B2
100
AcDbEntity
  8
0
  6
HIDDEN
 62
   174
100
AcDbLine
 10
259.240362
 20
125.593399
 30
0.0
 11
273.240362
 21
125.593399
 31
0.0
  0
ARC
  5
1B3
100
AcDbEntity
  8
0
  6
HIDDEN
 62
   174
100
AcDbCircle
 10
256.038475
 20
209.554483
 30
0.0
 40
10.0
100
AcDbArc
 50
224.586766
 51
266.60957
  0
ARC
  5
1B4
100
AcDbEntity
  8
0
  6
Continuous
 62
   174
100
AcDbCircle
 10
256.038475
 20
209.554483
 30
0.0
 40
9.6
100
AcDbArc
 50
14.609979
 51
86.60957
  0
LINE
  5
1B5
100
AcDbEntity
  8
0
  6
Continuous
 62
   174
100
AcDbLine
 10
228.324714
 20
172.156247
 30
0.0
 11
227.240362
 21
171.992069
 31
0.0
  0
LINE
  5
1B6
100
AcDbEntity
  8
0
  6
HIDDEN
 62
   174
100
AcDbLine
 10
243.266015
 20
168.323399
 30
0.0
 11
239.26609
 21
168.323399
 31
0.0
  0
LINE
  5
1B7
100
AcDbEntity
  8
0
  6
HIDDEN
 62
   174
100
AcDbLine
 10
250.944884
 20
191.763444
 30
0.0
 11
227.1144
 21
188.15535
 31
0.0
  0
ARC
  5
1B8
100
AcDbEntity
  8
0
  6
Continuous
 62
   174
100
AcDbCircle
 10
258.882785
 20
190.768586
 30
0.0
 40
3.0
100
AcDbArc
 50
265.762374
 51
280.685087
  0
LINE
  5
1B9
100
AcDbEntity
  8
0
  6
HIDDEN
 62
   174
100
AcDbLine
 10
252.170537
 20
181.661131
 30
0.0
 11
252.444197
 21
179.853685
 31
0.0
  0
ARC
  5
1BA
100
AcDbEntity
  8
0
  6
HIDDEN
 62
   174
100
AcDbCircle
 10
258.882785
 20
190.768586
 30
0.0
 40
3.0
100
AcDbArc
 50
-2.175984
 51
8.60957
  0
ARC
  5
1BB
100
AcDbEntity
  8
0
  6
Continuous
 62
   174
100
AcDbCircle
 10
258.882785
 20
190.768586
 30
0.0
 40
3.0
100
AcDbArc
 50
49.1109
 51
62.185643
  0
ARC
  5
1BC
100
AcDbEntity
  8
0
  6
HIDDEN
 62
   174
100
AcDbCircle
 10
220.240362
 20
179.023399
 30
0.0
 40
3.0
100
AcDbArc
 50
60.040481
 51
88.929841
  0
LINE
  5
1BD
100
AcDbEntity
  8
0
  6
HIDDEN
 62
   174
100
AcDbLine
 10
233.59842
 20
177.404868
 30
0.0
 11
233.239139
 21
179.777824
 31
0.0
  0
ARC
  5
1BE
100
AcDbEntity
  8
0
  6
Continuous
 62
   174
100
AcDbCircle
 10
227.240362
 20
151.323399
 30
0.0
 40
4.5
100
AcDbArc
 50
-270.0
 51
-90.0
  0
ARC
  5
1BF
100
AcDbEntity
  8
0
  6
HIDDEN
 62
   174
100
AcDbCircle
 10
258.882785
 20
190.768586
 30
0.0
 40
3.0
100
AcDbArc
 50
35.634219
 51
41.89854
  0
ARC
  5
1C0
100
AcDbEntity
  8
0
  6
HIDDEN
 62
   174
100
AcDbCircle
 10
258.882785
 20
190.768586
 30
0.0
 40
3.0
100
AcDbArc
 50
278.60957
 51
294.974123
  0
ARC
  5
1C1
100
AcDbEntity
  8
0
  6
Continuous
 62
   174
100
AcDbCircle
 10
259.240362
 20
151.323399
 30
0.0
 40
4.5
100
AcDbArc
 50
-90.0
 51
90.0
  0
ARC
  5
1C2
100
AcDbEntity
  8
0
  6
Continuous
 62
   174
100
AcDbCircle
 10
258.882785
 20
190.768586
 30
0.0
 40
3.0
100
AcDbArc
 50
151.887559
 51
164.949891
  0
ARC
  5
1C3
100
AcDbEntity
  8
0
  6
HIDDEN
 62
   174
100
AcDbCircle
 10
220.240362
 20
179.023399
 30
0.0
 40
3.0
100
AcDbArc
 50
240.040481
 51
271.950501
  0
ARC
  5
1C4
100
AcDbEntity
  8
0
  6
HIDDEN
 62
   174
100
AcDbCircle
 10
220.240362
 20
179.023399
 30
0.0
 40
3.0
100
AcDbArc
 50
88.929841
 51
111.456766
  0
LINE
  5
1C5
100
AcDbEntity
  8
0
  6
HIDDEN
 62
   174
100
AcDbLine
 10
227.240362
 20
110.573399
 30
0.0
 11
213.240362
 21
110.573399
 31
0.0
  0
LINE
  5
1C6
100
AcDbEntity
  8
0
  6
HIDDEN
 62
   174
100
AcDbLine
 10
259.240362
 20
112.073399
 30
0.0
 11
273.240362
 21
112.073399
 31
0.0
  0
LINE
  5
1C7
100
AcDbEntity
  8
0
  6
Continuous
 62
   174
100
AcDbLine
 10
260.080389
 20
182.858735
 30
0.0
 11
252.170537
 21
181.661131
 31
0.0
  0
LINE
  5
1C8
100
AcDbEntity
  8
0
  6
HIDDEN
 62
   174
100
AcDbLine
 10
255.240362
 20
94.61782
 30
0.0
 11
255.240362
 21
112.116551
 31
0.0
  0
LINE
  5
1C9
100
AcDbEntity
  8
0
  6
HIDDEN
 62
   174
100
AcDbLine
 10
213.240362
 20
177.501448
 30
0.0
 11
212.416458
 21
169.747632
 31
0.0
  0
LINE
  5
1CA
100
AcDbEntity
  8
0
  6
HIDDEN
 62
   174
100
AcDbLine
 10
250.647791
 20
191.718462
 30
0.0
 11
252.170537
 21
181.661131
 31
0.0
  0
LINE
  5
1CB
100
AcDbEntity
  8
0
  6
Continuous
 62
   174
100
AcDbLine
 10
248.128624
 20
208.356879
 30
0.0
 11
250.647791
 21
191.718462
 31
0.0
  0
ENDBLK
  5
1CC
100
AcDbEntity
  8
0
100
AcDbBlockEnd
  0
BLOCK
  5
1CF
100
AcDbEntity
  8
0
100
AcDbBlockBegin
  2
*B2
 70
     0
 10
0.0
 20
0.0
 30
0.0
  3
*B2
  1

  0
LINE
  5
1D0
100
AcDbEntity
  8
0
  6
Continuous
 62
   112
100
AcDbLine
 10
256.280362
 20
219.554483
 30
0.0
 11
256.540362
 21
219.554483
 31
0.0
  0
LINE
  5
1D1
100
AcDbEntity
  8
0
  6
Continuous
 62
   112
100
AcDbLine
 10
273.499659
 20
207.554483
 30
0.0
 11
273.580362
 21
207.554483
 31
0.0
  0
LINE
  5
1D2
100
AcDbEntity
  8
0
  6
Continuous
 62
   112
100
AcDbLine
 10
273.440362
 20
211.554483
 30
0.0
 11
273.540362
 21
211.554483
 31
0.0
  0
ENDBLK
  5
1D3
100
AcDbEntity
  8
0
100
AcDbBlockEnd
  0
BLOCK
  5
1D6
100
AcDbEntity
  8
0
100
AcDbBlockBegin
  2
*B3
 70
     0
 10
0.0
 20
0.0
 30
0.0
  3
*B3
  1

  0
LINE
  5
1D7
100
AcDbEntity
  8
0
  6
HIDDEN
 62
   174
100
AcDbLine
 10
164.99694
 20
182.023399
 30
0.0
 11
159.49694
 21
182.023399
 31
0.0
  0
LINE
  5
1D8
100
AcDbEntity
  8
0
  6
Continuous
 62
   174
100
AcDbLine
 10
138.99694
 20
176.023399
 30
0.0
 11
138.49694
 21
176.023399
 31
0.0
  0
LINE
  5
1D9
100
AcDbEntity
  8
0
  6
Continuous
 62
   174
100
AcDbLine
 10
138.99694
 20
182.023399
 30
0.0
 11
138.49694
 21
182.023399
 31
0.0
  0
LINE
  5
1DA
100
AcDbEntity
  8
0
  6
Continuous
 62
   174
100
AcDbLine
 10
141.99694
 20
182.023399
 30
0.0
 11
141.39694
 21
182.023399
 31
0.0
  0
LINE
  5
1DB
100
AcDbEntity
  8
0
  6
Continuous
 62
   174
100
AcDbLine
 10
153.99694
 20
182.023399
 30
0.0
 11
143.99694
 21
182.023399
 31
0.0
  0
LINE
  5
1DC
100
AcDbEntity
  8
0
  6
Continuous
 62
   174
100
AcDbLine
 10
156.59694
 20
182.023399
 30
0.0
 11
155.99694
 21
182.023399
 31
0.0
  0
LINE
  5
1DD
100
AcDbEntity
  8
0
  6
Continuous
 62
   174
100
AcDbLine
 10
138.99694
 20
176.023399
 30
0.0
 11
138.49694
 21
176.023399
 31
0.0
  0
LINE
  5
1DE
100
AcDbEntity
  8
0
  6
Continuous
 62
   174
100
AcDbLine
 10
138.99694
 20
182.023399
 30
0.0
 11
138.49694
 21
182.023399
 31
0.0
  0
LINE
  5
1DF
100
AcDbEntity
  8
0
  6
Continuous
 62
   174
100
AcDbLine
 10
141.99694
 20
182.023399
 30
0.0
 11
141.39694
 21
182.023399
 31
0.0
  0
LINE
  5
1E0
100
AcDbEntity
  8
0
  6
Continuous
 62
   174
100
AcDbLine
 10
153.99694
 20
182.023399
 30
0.0
 11
143.99694
 21
182.023399
 31
0.0
  0
LINE
  5
1E1
100
AcDbEntity
  8
0
  6
Continuous
 62
   174
100
AcDbLine
 10
156.59694
 20
182.023399
 30
0.0
 11
155.99694
 21
182.023399
 31
0.0
  0
LINE
  5
1E2
100
AcDbEntity
  8
0
  6
HIDDEN
 62
   174
100
AcDbLine
 10
138.49694
 20
176.023399
 30
0.0
 11
132.99694
 21
176.023399
 31
0.0
  0
LINE
  5
1E3
100
AcDbEntity
  8
0
  6
HIDDEN
 62
   174
100
AcDbLine
 10
139.264319
 20
176.023399
 30
0.0
 11
138.99694
 21
176.023399
 31
0.0
  0
LINE
  5
1E4
100
AcDbEntity
  8
0
  6
HIDDEN
 62
   174
100
AcDbLine
 10
139.264319
 20
176.023399
 30
0.0
 11
138.99694
 21
176.023399
 31
0.0
  0
LINE
  5
1E5
100
AcDbEntity
  8
0
  6
Continuous
 62
   174
100
AcDbLine
 10
141.99694
 20
187.768586
 30
0.0
 11
141.39694
 21
187.768586
 31
0.0
  0
LINE
  5
1E6
100
AcDbEntity
  8
0
  6
Continuous
 62
   174
100
AcDbLine
 10
153.99694
 20
193.768586
 30
0.0
 11
143.99694
 21
193.768586
 31
0.0
  0
LINE
  5
1E7
100
AcDbEntity
  8
0
  6
Continuous
 62
   174
100
AcDbLine
 10
156.59694
 20
187.768586
 30
0.0
 11
155.99694
 21
187.768586
 31
0.0
  0
LINE
  5
1E8
100
AcDbEntity
  8
0
  6
HIDDEN
 62
   174
100
AcDbLine
 10
155.99694
 20
187.768586
 30
0.0
 11
153.99694
 21
187.768586
 31
0.0
  0
LINE
  5
1E9
100
AcDbEntity
  8
0
  6
HIDDEN
 62
   174
100
AcDbLine
 10
158.99694
 20
193.768586
 30
0.0
 11
156.59694
 21
193.768586
 31
0.0
  0
LINE
  5
1EA
100
AcDbEntity
  8
0
  6
HIDDEN
 62
   174
100
AcDbLine
 10
141.39694
 20
193.768586
 30
0.0
 11
138.99694
 21
193.768586
 31
0.0
  0
LINE
  5
1EB
100
AcDbEntity
  8
0
  6
HIDDEN
 62
   174
100
AcDbLine
 10
138.99694
 20
190.138664
 30
0.0
 11
138.99694
 21
187.806301
 31
0.0
  0
LINE
  5
1EC
100
AcDbEntity
  8
0
  6
HIDDEN
 62
   174
100
AcDbLine
 10
138.99694
 20
193.806038
 30
0.0
 11
138.99694
 21
190.352855
 31
0.0
  0
LINE
  5
1ED
100
AcDbEntity
  8
0
  6
HIDDEN
 62
   174
100
AcDbLine
 10
158.99694
 20
193.806038
 30
0.0
 11
158.99694
 21
190.352855
 31
0.0
  0
LINE
  5
1EE
100
AcDbEntity
  8
0
  6
Continuous
 62
   174
100
AcDbLine
 10
141.39694
 20
198.768586
 30
0.0
 11
138.99694
 21
198.768586
 31
0.0
  0
LINE
  5
1EF
100
AcDbEntity
  8
0
  6
HIDDEN
 62
   174
100
AcDbLine
 10
153.49694
 20
207.554483
 30
0.0
 11
144.49694
 21
207.554483
 31
0.0
  0
LINE
  5
1F0
100
AcDbEntity
  8
0
  6
HIDDEN
 62
   174
100
AcDbLine
 10
153.99694
 20
211.554483
 30
0.0
 11
153.49694
 21
211.554483
 31
0.0
  0
LINE
  5
1F1
100
AcDbEntity
  8
0
  6
HIDDEN
 62
   174
100
AcDbLine
 10
153.49694
 20
207.554483
 30
0.0
 11
144.49694
 21
207.554483
 31
0.0
  0
LINE
  5
1F2
100
AcDbEntity
  8
0
  6
HIDDEN
 62
   174
100
AcDbLine
 10
144.49694
 20
211.554483
 30
0.0
 11
143.99694
 21
211.554483
 31
0.0
  0
LINE
  5
1F3
100
AcDbEntity
  8
0
  6
HIDDEN
 62
   174
100
AcDbLine
 10
155.99694
 20
210.035849
 30
0.0
 11
155.99694
 21
208.343954
 31
0.0
  0
LINE
  5
1F4
100
AcDbEntity
  8
0
  6
HIDDEN
 62
   174
100
AcDbLine
 10
150.434327
 20
176.023399
 30
0.0
 11
147.559554
 21
176.023399
 31
0.0
  0
LINE
  5
1F5
100
AcDbEntity
  8
0
  6
HIDDEN
 62
   174
100
AcDbLine
 10
159.49694
 20
176.023399
 30
0.0
 11
158.99694
 21
176.023399
 31
0.0
  0
LINE
  5
1F6
100
AcDbEntity
  8
0
  6
HIDDEN
 62
   174
100
AcDbLine
 10
143.99694
 20
182.023399
 30
0.0
 11
141.99694
 21
182.023399
 31
0.0
  0
LINE
  5
1F7
100
AcDbEntity
  8
0
  6
HIDDEN
 62
   174
100
AcDbLine
 10
159.49694
 20
182.023399
 30
0.0
 11
158.99694
 21
182.023399
 31
0.0
  0
LINE
  5
1F8
100
AcDbEntity
  8
0
  6
HIDDEN
 62
   174
100
AcDbLine
 10
156.59694
 20
176.023399
 30
0.0
 11
150.434327
 21
176.023399
 31
0.0
  0
LINE
  5
1F9
100
AcDbEntity
  8
0
  6
HIDDEN
 62
   174
100
AcDbLine
 10
164.99694
 20
176.023399
 30
0.0
 11
159.49694
 21
176.023399
 31
0.0
  0
LINE
  5
1FA
100
AcDbEntity
  8
0
  6
HIDDEN
 62
   174
100
AcDbLine
 10
155.99694
 20
182.023399
 30
0.0
 11
153.99694
 21
182.023399
 31
0.0
  0
LINE
  5
1FB
100
AcDbEntity
  8
0
  6
HIDDEN
 62
   174
100
AcDbLine
 10
132.99694
 20
182.06161
 30
0.0
 11
132.99694
 21
176.062174
 31
0.0
  0
LINE
  5
1FC
100
AcDbEntity
  8
0
  6
HIDDEN
 62
   174
100
AcDbLine
 10
144.49694
 20
207.554483
 30
0.0
 11
143.99694
 21
207.554483
 31
0.0
  0
LINE
  5
1FD
100
AcDbEntity
  8
0
  6
HIDDEN
 62
   174
100
AcDbLine
 10
143.99694
 20
211.554483
 30
0.0
 11
141.99694
 21
211.554483
 31
0.0
  0
LINE
  5
1FE
100
AcDbEntity
  8
0
  6
Continuous
 62
   174
100
AcDbLine
 10
153.99694
 20
187.768586
 30
0.0
 11
143.99694
 21
187.768586
 31
0.0
  0
LINE
  5
1FF
100
AcDbEntity
  8
0
  6
Continuous
 62
   174
100
AcDbLine
 10
156.59694
 20
193.768586
 30
0.0
 11
155.99694
 21
193.768586
 31
0.0
  0
LINE
  5
200
100
AcDbEntity
  8
0
  6
Continuous
 62
   174
100
AcDbLine
 10
141.99694
 20
193.768586
 30
0.0
 11
141.39694
 21
193.768586
 31
0.0
  0
LINE
  5
201
100
AcDbEntity
  8
0
  6
HIDDEN
 62
   174
100
AcDbLine
 10
158.99694
 20
187.768586
 30
0.0
 11
156.59694
 21
187.768586
 31
0.0
  0
LINE
  5
202
100
AcDbEntity
  8
0
  6
HIDDEN
 62
   174
100
AcDbLine
 10
141.39694
 20
193.768586
 30
0.0
 11
138.99694
 21
193.768586
 31
0.0
  0
LINE
  5
203
100
AcDbEntity
  8
0
  6
HIDDEN
 62
   174
100
AcDbLine
 10
141.39694
 20
187.768586
 30
0.0
 11
138.99694
 21
187.768586
 31
0.0
  0
LINE
  5
204
100
AcDbEntity
  8
0
  6
HIDDEN
 62
   174
100
AcDbLine
 10
143.99694
 20
187.768586
 30
0.0
 11
141.99694
 21
187.768586
 31
0.0
  0
LINE
  5
205
100
AcDbEntity
  8
0
  6
HIDDEN
 62
   174
100
AcDbLine
 10
143.99694
 20
193.768586
 30
0.0
 11
141.99694
 21
193.768586
 31
0.0
  0
LINE
  5
206
100
AcDbEntity
  8
0
  6
HIDDEN
 62
   174
100
AcDbLine
 10
158.99694
 20
190.138664
 30
0.0
 11
158.99694
 21
187.806301
 31
0.0
  0
LINE
  5
207
100
AcDbEntity
  8
0
  6
HIDDEN
 62
   174
100
AcDbLine
 10
153.99694
 20
207.554483
 30
0.0
 11
153.49694
 21
207.554483
 31
0.0
  0
LINE
  5
208
100
AcDbEntity
  8
0
  6
HIDDEN
 62
   174
100
AcDbLine
 10
153.99694
 20
207.554483
 30
0.0
 11
153.49694
 21
207.554483
 31
0.0
  0
LINE
  5
209
100
AcDbEntity
  8
0
  6
HIDDEN
 62
   174
100
AcDbLine
 10
153.49694
 20
211.554483
 30
0.0
 11
144.49694
 21
211.554483
 31
0.0
  0
LINE
  5
20A
100
AcDbEntity
  8
0
  6
HIDDEN
 62
   174
100
AcDbLine
 10
141.39694
 20
178.879621
 30
0.0
 11
138.99694
 21
178.879621
 31
0.0
  0
LINE
  5
20B
100
AcDbEntity
  8
0
  6
Continuous
 62
   174
100
AcDbLine
 10
141.39694
 20
172.156247
 30
0.0
 11
138.99694
 21
172.156247
 31
0.0
  0
LINE
  5
20C
100
AcDbEntity
  8
0
  6
HIDDEN
 62
   174
100
AcDbLine
 10
156.59694
 20
176.023399
 30
0.0
 11
150.434327
 21
176.023399
 31
0.0
  0
LINE
  5
20D
100
AcDbEntity
  8
0
  6
HIDDEN
 62
   174
100
AcDbLine
 10
164.99694
 20
176.023399
 30
0.0
 11
159.49694
 21
176.023399
 31
0.0
  0
LINE
  5
20E
100
AcDbEntity
  8
0
  6
HIDDEN
 62
   174
100
AcDbLine
 10
155.99694
 20
182.023399
 30
0.0
 11
153.99694
 21
182.023399
 31
0.0
  0
LINE
  5
20F
100
AcDbEntity
  8
0
  6
HIDDEN
 62
   174
100
AcDbLine
 10
141.39694
 20
176.023399
 30
0.0
 11
139.264319
 21
176.023399
 31
0.0
  0
LINE
  5
210
100
AcDbEntity
  8
0
  6
HIDDEN
 62
   174
100
AcDbLine
 10
158.729562
 20
176.023399
 30
0.0
 11
156.59694
 21
176.023399
 31
0.0
  0
LINE
  5
211
100
AcDbEntity
  8
0
  6
HIDDEN
 62
   174
100
AcDbLine
 10
138.49694
 20
182.023399
 30
0.0
 11
132.99694
 21
182.023399
 31
0.0
  0
LINE
  5
212
100
AcDbEntity
  8
0
  6
HIDDEN
 62
   174
100
AcDbLine
 10
155.99694
 20
193.768586
 30
0.0
 11
153.99694
 21
193.768586
 31
0.0
  0
LINE
  5
213
100
AcDbEntity
  8
0
  6
HIDDEN
 62
   174
100
AcDbLine
 10
144.49694
 20
211.554483
 30
0.0
 11
143.99694
 21
211.554483
 31
0.0
  0
LINE
  5
214
100
AcDbEntity
  8
0
  6
HIDDEN
 62
   174
100
AcDbLine
 10
153.99694
 20
211.554483
 30
0.0
 11
153.49694
 21
211.554483
 31
0.0
  0
LINE
  5
215
100
AcDbEntity
  8
0
  6
HIDDEN
 62
   174
100
AcDbLine
 10
155.99694
 20
211.590457
 30
0.0
 11
155.99694
 21
210.035849
 31
0.0
  0
LINE
  5
216
100
AcDbEntity
  8
0
  6
HIDDEN
 62
   174
100
AcDbLine
 10
158.99694
 20
182.023399
 30
0.0
 11
156.59694
 21
182.023399
 31
0.0
  0
LINE
  5
217
100
AcDbEntity
  8
0
  6
HIDDEN
 62
   174
100
AcDbLine
 10
164.99694
 20
182.06161
 30
0.0
 11
164.99694
 21
176.062174
 31
0.0
  0
LINE
  5
218
100
AcDbEntity
  8
0
  6
Continuous
 62
   174
100
AcDbLine
 10
156.59694
 20
187.768586
 30
0.0
 11
155.99694
 21
187.768586
 31
0.0
  0
LINE
  5
219
100
AcDbEntity
  8
0
  6
Continuous
 62
   174
100
AcDbLine
 10
141.99694
 20
187.768586
 30
0.0
 11
141.39694
 21
187.768586
 31
0.0
  0
LINE
  5
21A
100
AcDbEntity
  8
0
  6
Continuous
 62
   174
100
AcDbLine
 10
153.99694
 20
193.768586
 30
0.0
 11
143.99694
 21
193.768586
 31
0.0
  0
LINE
  5
21B
100
AcDbEntity
  8
0
  6
HIDDEN
 62
   174
100
AcDbLine
 10
141.39694
 20
187.768586
 30
0.0
 11
138.99694
 21
187.768586
 31
0.0
  0
LINE
  5
21C
100
AcDbEntity
  8
0
  6
HIDDEN
 62
   174
100
AcDbLine
 10
143.99694
 20
193.768586
 30
0.0
 11
141.99694
 21
193.768586
 31
0.0
  0
LINE
  5
21D
100
AcDbEntity
  8
0
  6
HIDDEN
 62
   174
100
AcDbLine
 10
155.99694
 20
187.768586
 30
0.0
 11
153.99694
 21
187.768586
 31
0.0
  0
LINE
  5
21E
100
AcDbEntity
  8
0
  6
HIDDEN
 62
   174
100
AcDbLine
 10
155.99694
 20
207.554483
 30
0.0
 11
153.99694
 21
207.554483
 31
0.0
  0
LINE
  5
21F
100
AcDbEntity
  8
0
  6
HIDDEN
 62
   174
100
AcDbLine
 10
155.99694
 20
211.554483
 30
0.0
 11
153.99694
 21
211.554483
 31
0.0
  0
LINE
  5
220
100
AcDbEntity
  8
0
  6
HIDDEN
 62
   174
100
AcDbLine
 10
143.99694
 20
207.554483
 30
0.0
 11
141.99694
 21
207.554483
 31
0.0
  0
LINE
  5
221
100
AcDbEntity
  8
0
  6
HIDDEN
 62
   174
100
AcDbLine
 10
155.99694
 20
207.554483
 30
0.0
 11
153.99694
 21
207.554483
 31
0.0
  0
LINE
  5
222
100
AcDbEntity
  8
0
  6
HIDDEN
 62
   174
100
AcDbLine
 10
141.99694
 20
210.035849
 30
0.0
 11
141.99694
 21
208.343954
 31
0.0
  0
LINE
  5
223
100
AcDbEntity
  8
0
  6
HIDDEN
 62
   174
100
AcDbLine
 10
158.729562
 20
176.023399
 30
0.0
 11
156.59694
 21
176.023399
 31
0.0
  0
LINE
  5
224
100
AcDbEntity
  8
0
  6
HIDDEN
 62
   174
100
AcDbLine
 10
138.49694
 20
182.023399
 30
0.0
 11
132.99694
 21
182.023399
 31
0.0
  0
LINE
  5
225
100
AcDbEntity
  8
0
  6
HIDDEN
 62
   174
100
AcDbLine
 10
158.99694
 20
182.023399
 30
0.0
 11
156.59694
 21
182.023399
 31
0.0
  0
LINE
  5
226
100
AcDbEntity
  8
0
  6
HIDDEN
 62
   174
100
AcDbLine
 10
158.99694
 20
176.023399
 30
0.0
 11
158.729562
 21
176.023399
 31
0.0
  0
LINE
  5
227
100
AcDbEntity
  8
0
  6
HIDDEN
 62
   174
100
AcDbLine
 10
141.39694
 20
182.023399
 30
0.0
 11
138.99694
 21
182.023399
 31
0.0
  0
LINE
  5
228
100
AcDbEntity
  8
0
  6
HIDDEN
 62
   174
100
AcDbLine
 10
158.99694
 20
193.768586
 30
0.0
 11
156.59694
 21
193.768586
 31
0.0
  0
LINE
  5
229
100
AcDbEntity
  8
0
  6
Continuous
 62
   174
100
AcDbLine
 10
156.59694
 20
193.768586
 30
0.0
 11
155.99694
 21
193.768586
 31
0.0
  0
LINE
  5
22A
100
AcDbEntity
  8
0
  6
HIDDEN
 62
   174
100
AcDbLine
 10
138.99694
 20
190.352855
 30
0.0
 11
138.99694
 21
190.138664
 31
0.0
  0
LINE
  5
22B
100
AcDbEntity
  8
0
  6
HIDDEN
 62
   174
100
AcDbLine
 10
155.99694
 20
211.554483
 30
0.0
 11
153.99694
 21
211.554483
 31
0.0
  0
LINE
  5
22C
100
AcDbEntity
  8
0
  6
HIDDEN
 62
   174
100
AcDbLine
 10
153.49694
 20
211.554483
 30
0.0
 11
144.49694
 21
211.554483
 31
0.0
  0
LINE
  5
22D
100
AcDbEntity
  8
0
  6
HIDDEN
 62
   174
100
AcDbLine
 10
138.49694
 20
176.023399
 30
0.0
 11
132.99694
 21
176.023399
 31
0.0
  0
LINE
  5
22E
100
AcDbEntity
  8
0
  6
Continuous
 62
   174
100
AcDbLine
 10
141.99694
 20
193.768586
 30
0.0
 11
141.39694
 21
193.768586
 31
0.0
  0
LINE
  5
22F
100
AcDbEntity
  8
0
  6
Continuous
 62
   174
100
AcDbLine
 10
153.99694
 20
187.768586
 30
0.0
 11
143.99694
 21
187.768586
 31
0.0
  0
LINE
  5
230
100
AcDbEntity
  8
0
  6
HIDDEN
 62
   174
100
AcDbLine
 10
143.99694
 20
187.768586
 30
0.0
 11
141.99694
 21
187.768586
 31
0.0
  0
LINE
  5
231
100
AcDbEntity
  8
0
  6
HIDDEN
 62
   174
100
AcDbLine
 10
155.99694
 20
193.768586
 30
0.0
 11
153.99694
 21
193.768586
 31
0.0
  0
LINE
  5
232
100
AcDbEntity
  8
0
  6
HIDDEN
 62
   174
100
AcDbLine
 10
158.99694
 20
187.768586
 30
0.0
 11
156.59694
 21
187.768586
 31
0.0
  0
LINE
  5
233
100
AcDbEntity
  8
0
  6
HIDDEN
 62
   174
100
AcDbLine
 10
158.99694
 20
190.352855
 30
0.0
 11
158.99694
 21
190.138664
 31
0.0
  0
LINE
  5
234
100
AcDbEntity
  8
0
  6
HIDDEN
 62
   174
100
AcDbLine
 10
144.49694
 20
207.554483
 30
0.0
 11
143.99694
 21
207.554483
 31
0.0
  0
LINE
  5
235
100
AcDbEntity
  8
0
  6
HIDDEN
 62
   174
100
AcDbLine
 10
143.99694
 20
211.554483
 30
0.0
 11
141.99694
 21
211.554483
 31
0.0
  0
LINE
  5
236
100
AcDbEntity
  8
0
  6
HIDDEN
 62
   174
100
AcDbLine
 10
141.39694
 20
169.747632
 30
0.0
 11
138.99694
 21
169.747632
 31
0.0
  0
LINE
  5
237
100
AcDbEntity
  8
0
  6
HIDDEN
 62
   174
100
AcDbLine
 10
141.39694
 20
176.023399
 30
0.0
 11
139.264319
 21
176.023399
 31
0.0
  0
LINE
  5
238
100
AcDbEntity
  8
0
  6
HIDDEN
 62
   174
100
AcDbLine
 10
147.559554
 20
176.023399
 30
0.0
 11
141.39694
 21
176.023399
 31
0.0
  0
LINE
  5
239
100
AcDbEntity
  8
0
  6
HIDDEN
 62
   174
100
AcDbLine
 10
158.99694
 20
176.023399
 30
0.0
 11
158.729562
 21
176.023399
 31
0.0
  0
LINE
  5
23A
100
AcDbEntity
  8
0
  6
HIDDEN
 62
   174
100
AcDbLine
 10
141.39694
 20
182.023399
 30
0.0
 11
138.99694
 21
182.023399
 31
0.0
  0
LINE
  5
23B
100
AcDbEntity
  8
0
  6
HIDDEN
 62
   174
100
AcDbLine
 10
164.99694
 20
182.023399
 30
0.0
 11
159.49694
 21
182.023399
 31
0.0
  0
LINE
  5
23C
100
AcDbEntity
  8
0
  6
HIDDEN
 62
   174
100
AcDbLine
 10
147.559554
 20
176.023399
 30
0.0
 11
141.39694
 21
176.023399
 31
0.0
  0
LINE
  5
23D
100
AcDbEntity
  8
0
  6
HIDDEN
 62
   174
100
AcDbLine
 10
150.434327
 20
176.023399
 30
0.0
 11
147.559554
 21
176.023399
 31
0.0
  0
LINE
  5
23E
100
AcDbEntity
  8
0
  6
HIDDEN
 62
   174
100
AcDbLine
 10
159.49694
 20
176.023399
 30
0.0
 11
158.99694
 21
176.023399
 31
0.0
  0
LINE
  5
23F
100
AcDbEntity
  8
0
  6
HIDDEN
 62
   174
100
AcDbLine
 10
143.99694
 20
182.023399
 30
0.0
 11
141.99694
 21
182.023399
 31
0.0
  0
LINE
  5
240
100
AcDbEntity
  8
0
  6
HIDDEN
 62
   174
100
AcDbLine
 10
159.49694
 20
182.023399
 30
0.0
 11
158.99694
 21
182.023399
 31
0.0
  0
LINE
  5
241
100
AcDbEntity
  8
0
  6
HIDDEN
 62
   174
100
AcDbLine
 10
143.99694
 20
207.554483
 30
0.0
 11
141.99694
 21
207.554483
 31
0.0
  0
LINE
  5
242
100
AcDbEntity
  8
0
  6
HIDDEN
 62
   174
100
AcDbLine
 10
141.99694
 20
208.343954
 30
0.0
 11
141.99694
 21
207.590833
 31
0.0
  0
LINE
  5
243
100
AcDbEntity
  8
0
  6
HIDDEN
 62
   174
100
AcDbLine
 10
141.99694
 20
211.590457
 30
0.0
 11
141.99694
 21
210.035849
 31
0.0
  0
LINE
  5
244
100
AcDbEntity
  8
0
  6
HIDDEN
 62
   174
100
AcDbLine
 10
155.99694
 20
208.343954
 30
0.0
 11
155.99694
 21
207.590833
 31
0.0
  0
LINE
  5
245
100
AcDbEntity
  8
0
  6
Continuous
 62
   174
100
AcDbLine
 10
144.89694
 20
199.591584
 30
0.0
 11
144.89694
 21
201.220393
 31
0.0
  0
LINE
  5
246
100
AcDbEntity
  8
0
  6
HIDDEN
 62
   174
100
AcDbLine
 10
138.99694
 20
179.777824
 30
0.0
 11
138.99694
 21
178.879621
 31
0.0
  0
LINE
  5
247
100
AcDbEntity
  8
0
  6
Continuous
 62
   174
100
AcDbLine
 10
153.022728
 20
175.48855
 30
0.0
 11
150.255075
 21
175.48855
 31
0.0
  0
LINE
  5
248
100
AcDbEntity
  8
0
  6
Continuous
 62
   174
100
AcDbLine
 10
141.99694
 20
176.717474
 30
0.0
 11
141.99694
 21
180.249178
 31
0.0
  0
LINE
  5
249
100
AcDbEntity
  8
0
  6
Continuous
 62
   174
100
AcDbLine
 10
143.99694
 20
210.752087
 30
0.0
 11
143.99694
 21
199.95774
 31
0.0
  0
LINE
  5
24A
100
AcDbEntity
  8
0
  6
Continuous
 62
   174
100
AcDbLine
 10
156.99694
 20
176.717474
 30
0.0
 11
156.99694
 21
175.031913
 31
0.0
  0
LINE
  5
24B
100
AcDbEntity
  8
0
  6
HIDDEN
 62
   174
100
AcDbLine
 10
144.89694
 20
199.609008
 30
0.0
 11
144.89694
 21
219.590006
 31
0.0
  0
LINE
  5
24C
100
AcDbEntity
  8
0
  6
Continuous
 62
   174
100
AcDbLine
 10
158.99694
 20
177.009376
 30
0.0
 11
158.99694
 21
172.156247
 31
0.0
  0
LINE
  5
24D
100
AcDbEntity
  8
0
  6
HIDDEN
 62
   174
100
AcDbLine
 10
156.59694
 20
177.404868
 30
0.0
 11
141.39694
 21
177.404868
 31
0.0
  0
LINE
  5
24E
100
AcDbEntity
  8
0
  6
Continuous
 62
   174
100
AcDbLine
 10
132.99694
 20
83.323399
 30
0.0
 11
132.99694
 21
168.323399
 31
0.0
  0
LINE
  5
24F
100
AcDbEntity
  8
0
  6
Continuous
 62
   174
100
AcDbLine
 10
153.09694
 20
201.220393
 30
0.0
 11
153.09694
 21
205.570292
 31
0.0
  0
LINE
  5
250
100
AcDbEntity
  8
0
  6
Continuous
 62
   174
100
AcDbLine
 10
138.49694
 20
172.156247
 30
0.0
 11
138.49694
 21
177.009376
 31
0.0
  0
LINE
  5
251
100
AcDbEntity
  8
0
  6
HIDDEN
 62
   174
100
AcDbLine
 10
141.39694
 20
146.823399
 30
0.0
 11
156.59694
 21
146.823399
 31
0.0
  0
LINE
  5
252
100
AcDbEntity
  8
0
  6
Continuous
 62
   174
100
AcDbLine
 10
153.99694
 20
181.653904
 30
0.0
 11
153.99694
 21
182.287863
 31
0.0
  0
LINE
  5
253
100
AcDbEntity
  8
0
  6
Continuous
 62
   174
100
AcDbLine
 10
140.99694
 20
176.717474
 30
0.0
 11
140.99694
 21
175.031913
 31
0.0
  0
LINE
  5
254
100
AcDbEntity
  8
0
  6
HIDDEN
 62
   174
100
AcDbLine
 10
141.39694
 20
179.777824
 30
0.0
 11
141.39694
 21
178.879621
 31
0.0
  0
LINE
  5
255
100
AcDbEntity
  8
0
  6
Continuous
 62
   174
100
AcDbLine
 10
153.49694
 20
217.017317
 30
0.0
 11
153.49694
 21
218.528066
 31
0.0
  0
LINE
  5
256
100
AcDbEntity
  8
0
  6
Continuous
 62
   174
100
AcDbLine
 10
159.49694
 20
187.323399
 30
0.0
 11
164.99694
 21
187.323399
 31
0.0
  0
LINE
  5
257
100
AcDbEntity
  8
0
  6
Continuous
 62
   174
100
AcDbLine
 10
159.49694
 20
182.858735
 30
0.0
 11
159.49694
 21
187.323399
 31
0.0
  0
LINE
  5
258
100
AcDbEntity
  8
0
  6
Continuous
 62
   174
100
AcDbLine
 10
141.99694
 20
182.858735
 30
0.0
 11
141.99694
 21
182.287863
 31
0.0
  0
ARC
  5
259
100
AcDbEntity
  8
0
  6
Continuous
 62
   174
100
AcDbCircle
 10
148.99694
 20
135.323399
 30
0.0
 40
9.73
100
AcDbArc
 50
-270.0
 51
-269.296546
  0
LINE
  5
25A
100
AcDbEntity
  8
0
  6
HIDDEN
 62
   174
100
AcDbLine
 10
153.49694
 20
219.154483
 30
0.0
 11
153.09694
 21
219.554483
 31
0.0
  0
LINE
  5
25B
100
AcDbEntity
  8
0
  6
Continuous
 62
   174
100
AcDbLine
 10
153.09694
 20
219.572582
 30
0.0
 11
153.09694
 21
219.590006
 31
0.0
  0
LINE
  5
25C
100
AcDbEntity
  8
0
  6
Continuous
 62
   174
100
AcDbLine
 10
141.39694
 20
182.858735
 30
0.0
 11
141.39694
 21
182.287863
 31
0.0
  0
LINE
  5
25D
100
AcDbEntity
  8
0
  6
HIDDEN
 62
   174
100
AcDbLine
 10
141.99694
 20
187.806301
 30
0.0
 11
141.99694
 21
190.35706
 31
0.0
  0
LINE
  5
25E
100
AcDbEntity
  8
0
  6
HIDDEN
 62
   174
100
AcDbLine
 10
153.022728
 20
168.323399
 30
0.0
 11
145.022578
 21
168.323399
 31
0.0
  0
LINE
  5
25F
100
AcDbEntity
  8
0
  6
HIDDEN
 62
   174
100
AcDbLine
 10
156.59694
 20
187.806301
 30
0.0
 11
156.59694
 21
190.35706
 31
0.0
  0
ARC
  5
260
100
AcDbEntity
  8
0
  6
Continuous
 62
   174
100
AcDbCircle
 10
148.99694
 20
135.323399
 30
0.0
 40
8.75
100
AcDbArc
 50
181.068027
 51
224.060957
  0
LINE
  5
261
100
AcDbEntity
  8
0
  6
Continuous
 62
   174
100
AcDbLine
 10
141.39694
 20
181.661131
 30
0.0
 11
138.99694
 21
181.661131
 31
0.0
  0
LINE
  5
262
100
AcDbEntity
  8
0
  6
Continuous
 62
   174
100
AcDbLine
 10
153.49694
 20
219.173341
 30
0.0
 11
153.49694
 21
219.190164
 31
0.0
  0
LINE
  5
263
100
AcDbEntity
  8
0
  6
Continuous
 62
   174
100
AcDbLine
 10
152.99694
 20
168.323399
 30
0.0
 11
152.99694
 21
175.48855
 31
0.0
  0
LINE
  5
264
100
AcDbEntity
  8
0
  6
HIDDEN
 62
   174
100
AcDbLine
 10
141.39694
 20
193.768586
 30
0.0
 11
138.99694
 21
193.768586
 31
0.0
  0
LINE
  5
265
100
AcDbEntity
  8
0
  6
Continuous
 62
   174
100
AcDbLine
 10
156.59694
 20
182.287863
 30
0.0
 11
156.59694
 21
181.661131
 31
0.0
  0
LINE
  5
266
100
AcDbEntity
  8
0
  6
HIDDEN
 62
   174
100
AcDbLine
 10
164.99694
 20
158.823399
 30
0.0
 11
156.59694
 21
158.823399
 31
0.0
  0
LINE
  5
267
100
AcDbEntity
  8
0
  6
HIDDEN
 62
   174
100
AcDbLine
 10
132.99694
 20
143.864508
 30
0.0
 11
132.99694
 21
158.863249
 31
0.0
  0
LINE
  5
268
100
AcDbEntity
  8
0
  6
Continuous
 62
   174
100
AcDbLine
 10
138.99694
 20
178.879621
 30
0.0
 11
138.99694
 21
177.009376
 31
0.0
  0
LINE
  5
269
100
AcDbEntity
  8
0
  6
Continuous
 62
   174
100
AcDbLine
 10
155.99694
 20
180.249178
 30
0.0
 11
155.99694
 21
180.505512
 31
0.0
  0
LWPOLYLINE
  5
26A
100
AcDbEntity
  8
0
  6
Continuous
 62
   174
100
AcDbPolyline
 90
        4
 70
   128
 10
138.99694
 20
177.009376
 10
139.26489
 20
176.020644
 10
139.99694
 20
175.296843
 10
140.99694
 20
175.031913
  0
ARC
  5
26B
100
AcDbEntity
  8
0
  6
Continuous
 62
   174
100
AcDbCircle
 10
148.99694
 20
103.323399
 30
0.0
 40
9.73
100
AcDbArc
 50
-270.0
 51
-269.296546
  0
LINE
  5
26C
100
AcDbEntity
  8
0
  6
Continuous
 62
   174
100
AcDbLine
 10
158.99694
 20
182.858735
 30
0.0
 11
156.59694
 21
182.858735
 31
0.0
  0
LINE
  5
26D
100
AcDbEntity
  8
0
  6
HIDDEN
 62
   174
100
AcDbLine
 10
141.39694
 20
155.823399
 30
0.0
 11
156.59694
 21
155.823399
 31
0.0
  0
LINE
  5
26E
100
AcDbEntity
  8
0
  6
HIDDEN
 62
   174
100
AcDbLine
 10
138.99694
 20
181.100907
 30
0.0
 11
138.99694
 21
182.06161
 31
0.0
  0
LINE
  5
26F
100
AcDbEntity
  8
0
  6
Continuous
 62
   174
100
AcDbLine
 10
141.99694
 20
180.249178
 30
0.0
 11
141.99694
 21
181.661131
 31
0.0
  0
LINE
  5
270
100
AcDbEntity
  8
0
  6
Continuous
 62
   174
100
AcDbLine
 10
156.99694
 20
177.876222
 30
0.0
 11
155.99694
 21
177.876222
 31
0.0
  0
ARC
  5
271
100
AcDbEntity
  8
0
  6
Continuous
 62
   174
100
AcDbCircle
 10
148.99694
 20
135.323399
 30
0.0
 40
8.75
100
AcDbArc
 50
1.068027
 51
44.060957
  0
LINE
  5
272
100
AcDbEntity
  8
0
  6
HIDDEN
 62
   174
100
AcDbLine
 10
141.39694
 20
186.194585
 30
0.0
 11
138.99694
 21
186.194585
 31
0.0
  0
LINE
  5
273
100
AcDbEntity
  8
0
  6
Continuous
 62
   174
100
AcDbLine
 10
144.49694
 20
209.022875
 30
0.0
 11
144.49694
 21
212.011929
 31
0.0
  0
LINE
  5
274
100
AcDbEntity
  8
0
  6
HIDDEN
 62
   174
100
AcDbLine
 10
158.99694
 20
190.35706
 30
0.0
 11
158.99694
 21
187.806301
 31
0.0
  0
LINE
  5
275
100
AcDbEntity
  8
0
  6
HIDDEN
 62
   174
100
AcDbLine
 10
141.39694
 20
158.863249
 30
0.0
 11
141.39694
 21
143.864508
 31
0.0
  0
LINE
  5
276
100
AcDbEntity
  8
0
  6
Continuous
 62
   174
100
AcDbLine
 10
153.99694
 20
217.554483
 30
0.0
 11
155.99694
 21
217.554483
 31
0.0
  0
LINE
  5
277
100
AcDbEntity
  8
0
  6
Continuous
 62
   174
100
AcDbLine
 10
153.09694
 20
218.901772
 30
0.0
 11
153.09694
 21
219.572582
 31
0.0
  0
LINE
  5
278
100
AcDbEntity
  8
0
  6
Continuous
 62
   174
100
AcDbLine
 10
138.49694
 20
177.009376
 30
0.0
 11
138.49694
 21
178.879621
 31
0.0
  0
LINE
  5
279
100
AcDbEntity
  8
0
  6
HIDDEN
 62
   174
100
AcDbLine
 10
141.39694
 20
176.062174
 30
0.0
 11
141.39694
 21
178.612633
 31
0.0
  0
LINE
  5
27A
100
AcDbEntity
  8
0
  6
Continuous
 62
   174
100
AcDbLine
 10
138.49694
 20
169.723399
 30
0.0
 11
138.99694
 21
169.723399
 31
0.0
  0
LINE
  5
27B
100
AcDbEntity
  8
0
  6
HIDDEN
 62
   174
100
AcDbLine
 10
143.99694
 20
180.249178
 30
0.0
 11
141.99694
 21
180.249178
 31
0.0
  0
LINE
  5
27C
100
AcDbEntity
  8
0
  6
Continuous
 62
   174
100
AcDbLine
 10
153.99694
 20
217.590194
 30
0.0
 11
153.99694
 21
213.182616
 31
0.0
  0
LINE
  5
27D
100
AcDbEntity
  8
0
  6
Continuous
 62
   174
100
AcDbLine
 10
141.99694
 20
211.631913
 30
0.0
 11
141.99694
 21
210.788369
 31
0.0
  0
LINE
  5
27E
100
AcDbEntity
  8
0
  6
HIDDEN
 62
   174
100
AcDbLine
 10
138.99694
 20
179.853685
 30
0.0
 11
138.99694
 21
178.879621
 31
0.0
  0
LINE
  5
27F
100
AcDbEntity
  8
0
  6
Continuous
 62
   174
100
AcDbLine
 10
138.99694
 20
193.383365
 30
0.0
 11
138.99694
 21
193.846593
 31
0.0
  0
LINE
  5
280
100
AcDbEntity
  8
0
  6
HIDDEN
 62
   174
100
AcDbLine
 10
158.99694
 20
193.768586
 30
0.0
 11
156.59694
 21
193.768586
 31
0.0
  0
LINE
  5
281
100
AcDbEntity
  8
0
  6
HIDDEN
 62
   174
100
AcDbLine
 10
158.99694
 20
193.806038
 30
0.0
 11
158.99694
 21
190.35706
 31
0.0
  0
LINE
  5
282
100
AcDbEntity
  8
0
  6
Continuous
 62
   174
100
AcDbLine
 10
153.99694
 20
210.752087
 30
0.0
 11
155.99694
 21
210.752087
 31
0.0
  0
LINE
  5
283
100
AcDbEntity
  8
0
  6
Continuous
 62
   174
100
AcDbLine
 10
143.99694
 20
176.717474
 30
0.0
 11
143.99694
 21
182.287863
 31
0.0
  0
LINE
  5
284
100
AcDbEntity
  8
0
  6
Continuous
 62
   174
100
AcDbLine
 10
158.99694
 20
193.383365
 30
0.0
 11
158.99694
 21
193.846593
 31
0.0
  0
LINE
  5
285
100
AcDbEntity
  8
0
  6
HIDDEN
 62
   174
100
AcDbLine
 10
164.99694
 20
143.823399
 30
0.0
 11
156.59694
 21
143.823399
 31
0.0
  0
LINE
  5
286
100
AcDbEntity
  8
0
  6
Continuous
 62
   174
100
AcDbLine
 10
143.99694
 20
199.95774
 30
0.0
 11
143.99694
 21
182.287863
 31
0.0
  0
LINE
  5
287
100
AcDbEntity
  8
0
  6
HIDDEN
 62
   174
100
AcDbLine
 10
153.99694
 20
179.655212
 30
0.0
 11
155.99694
 21
179.655212
 31
0.0
  0
LINE
  5
288
100
AcDbEntity
  8
0
  6
HIDDEN
 62
   174
100
AcDbLine
 10
153.99694
 20
187.806301
 30
0.0
 11
153.99694
 21
190.35706
 31
0.0
  0
LINE
  5
289
100
AcDbEntity
  8
0
  6
HIDDEN
 62
   174
100
AcDbLine
 10
143.99694
 20
193.806038
 30
0.0
 11
143.99694
 21
190.35706
 31
0.0
  0
LINE
  5
28A
100
AcDbEntity
  8
0
  6
Continuous
 62
   174
100
AcDbLine
 10
155.99694
 20
180.505512
 30
0.0
 11
155.99694
 21
181.661131
 31
0.0
  0
LINE
  5
28B
100
AcDbEntity
  8
0
  6
Continuous
 62
   174
100
AcDbLine
 10
164.99694
 20
168.323399
 30
0.0
 11
132.99694
 21
168.323399
 31
0.0
  0
LINE
  5
28C
100
AcDbEntity
  8
0
  6
HIDDEN
 62
   174
100
AcDbLine
 10
144.49694
 20
219.154483
 30
0.0
 11
144.89694
 21
219.554483
 31
0.0
  0
LINE
  5
28D
100
AcDbEntity
  8
0
  6
Continuous
 62
   174
100
AcDbLine
 10
144.89694
 20
219.572582
 30
0.0
 11
144.89694
 21
219.590006
 31
0.0
  0
LINE
  5
28E
100
AcDbEntity
  8
0
  6
Continuous
 62
   174
100
AcDbLine
 10
153.49694
 20
212.011929
 30
0.0
 11
153.49694
 21
217.017317
 31
0.0
  0
LINE
  5
28F
100
AcDbEntity
  8
0
  6
Continuous
 62
   174
100
AcDbLine
 10
138.99694
 20
182.858735
 30
0.0
 11
138.99694
 21
181.661131
 31
0.0
  0
LINE
  5
290
100
AcDbEntity
  8
0
  6
Continuous
 62
   174
100
AcDbLine
 10
153.99694
 20
177.876222
 30
0.0
 11
143.99694
 21
177.876222
 31
0.0
  0
ARC
  5
291
100
AcDbEntity
  8
0
  6
Continuous
 62
   174
100
AcDbCircle
 10
148.99694
 20
135.323399
 30
0.0
 40
9.73
100
AcDbArc
 50
-269.296546
 51
-151.197359
  0
LINE
  5
292
100
AcDbEntity
  8
0
  6
HIDDEN
 62
   174
100
AcDbLine
 10
141.39694
 20
180.249178
 30
0.0
 11
141.39694
 21
177.404868
 31
0.0
  0
LINE
  5
293
100
AcDbEntity
  8
0
  6
HIDDEN
 62
   174
100
AcDbLine
 10
141.39694
 20
190.35706
 30
0.0
 11
141.39694
 21
193.806038
 31
0.0
  0
LINE
  5
294
100
AcDbEntity
  8
0
  6
Continuous
 62
   174
100
AcDbLine
 10
141.99694
 20
181.661131
 30
0.0
 11
141.99694
 21
182.287863
 31
0.0
  0
LINE
  5
295
100
AcDbEntity
  8
0
  6
HIDDEN
 62
   174
100
AcDbLine
 10
152.99694
 20
175.031913
 30
0.0
 11
144.99694
 21
175.031913
 31
0.0
  0
ARC
  5
296
100
AcDbEntity
  8
0
  6
Continuous
 62
   174
100
AcDbCircle
 10
148.99694
 20
135.323399
 30
0.0
 40
8.75
100
AcDbArc
 50
178.931973
 51
181.068027
  0
ARC
  5
297
100
AcDbEntity
  8
0
  6
Continuous
 62
   174
100
AcDbCircle
 10
148.99694
 20
103.323399
 30
0.0
 40
9.73
100
AcDbArc
 50
-269.296546
 51
-151.197359
  0
LINE
  5
298
100
AcDbEntity
  8
0
  6
HIDDEN
 62
   174
100
AcDbLine
 10
153.99694
 20
179.693499
 30
0.0
 11
153.99694
 21
180.543952
 31
0.0
  0
LINE
  5
299
100
AcDbEntity
  8
0
  6
HIDDEN
 62
   174
100
AcDbLine
 10
158.99694
 20
179.777824
 30
0.0
 11
156.59694
 21
179.777824
 31
0.0
  0
LINE
  5
29A
100
AcDbEntity
  8
0
  6
Continuous
 62
   174
100
AcDbLine
 10
138.99694
 20
169.723399
 30
0.0
 11
141.39694
 21
169.723399
 31
0.0
  0
LINE
  5
29B
100
AcDbEntity
  8
0
  6
Continuous
 62
   174
100
AcDbLine
 10
144.89694
 20
212.049179
 30
0.0
 11
144.89694
 21
217.256742
 31
0.0
  0
LINE
  5
29C
100
AcDbEntity
  8
0
  6
Continuous
 62
   174
100
AcDbLine
 10
144.49694
 20
219.173341
 30
0.0
 11
144.49694
 21
219.190164
 31
0.0
  0
LINE
  5
29D
100
AcDbEntity
  8
0
  6
HIDDEN
 62
   174
100
AcDbLine
 10
155.99694
 20
190.35706
 30
0.0
 11
155.99694
 21
187.806301
 31
0.0
  0
LINE
  5
29E
100
AcDbEntity
  8
0
  6
HIDDEN
 62
   174
100
AcDbLine
 10
132.99694
 20
158.823399
 30
0.0
 11
141.39694
 21
158.823399
 31
0.0
  0
LINE
  5
29F
100
AcDbEntity
  8
0
  6
HIDDEN
 62
   174
100
AcDbLine
 10
141.39694
 20
158.863249
 30
0.0
 11
141.39694
 21
143.864508
 31
0.0
  0
LWPOLYLINE
  5
2A0
100
AcDbEntity
  8
0
  6
Continuous
 62
   174
100
AcDbPolyline
 90
        4
 70
   128
 10
158.99694
 20
179.853685
 10
158.728991
 20
178.864954
 10
157.99694
 20
178.141152
 10
156.99694
 20
177.876222
  0
LINE
  5
2A1
100
AcDbEntity
  8
0
  6
Continuous
 62
   174
100
AcDbLine
 10
141.39694
 20
182.858735
 30
0.0
 11
138.99694
 21
182.858735
 31
0.0
  0
LINE
  5
2A2
100
AcDbEntity
  8
0
  6
Continuous
 62
   174
100
AcDbLine
 10
138.49694
 20
178.879621
 30
0.0
 11
138.49694
 21
179.853685
 31
0.0
  0
LINE
  5
2A3
100
AcDbEntity
  8
0
  6
Continuous
 62
   174
100
AcDbLine
 10
144.99694
 20
168.323399
 30
0.0
 11
144.99694
 21
175.48855
 31
0.0
  0
LINE
  5
2A4
100
AcDbEntity
  8
0
  6
HIDDEN
 62
   174
100
AcDbLine
 10
156.59694
 20
177.404868
 30
0.0
 11
156.59694
 21
180.249178
 31
0.0
  0
LINE
  5
2A5
100
AcDbEntity
  8
0
  6
HIDDEN
 62
   174
100
AcDbLine
 10
143.99694
 20
177.876222
 30
0.0
 11
141.99694
 21
177.876222
 31
0.0
  0
ARC
  5
2A6
100
AcDbEntity
  8
0
  6
Continuous
 62
   174
100
AcDbCircle
 10
148.99694
 20
135.323399
 30
0.0
 40
8.75
100
AcDbArc
 50
-1.068027
 51
1.068027
  0
LINE
  5
2A7
100
AcDbEntity
  8
0
  6
Continuous
 62
   174
100
AcDbLine
 10
144.49694
 20
206.089697
 30
0.0
 11
144.49694
 21
209.022875
 31
0.0
  0
LINE
  5
2A8
100
AcDbEntity
  8
0
  6
Continuous
 62
   174
100
AcDbLine
 10
156.59694
 20
175.031913
 30
0.0
 11
156.59694
 21
172.156247
 31
0.0
  0
LINE
  5
2A9
100
AcDbEntity
  8
0
  6
Continuous
 62
   174
100
AcDbLine
 10
153.99694
 20
176.717474
 30
0.0
 11
155.99694
 21
176.717474
 31
0.0
  0
LINE
  5
2AA
100
AcDbEntity
  8
0
  6
HIDDEN
 62
   174
100
AcDbLine
 10
138.99694
 20
179.853685
 30
0.0
 11
138.99694
 21
178.879621
 31
0.0
  0
LINE
  5
2AB
100
AcDbEntity
  8
0
  6
Continuous
 62
   174
100
AcDbLine
 10
155.99694
 20
181.661131
 30
0.0
 11
155.99694
 21
182.287863
 31
0.0
  0
LINE
  5
2AC
100
AcDbEntity
  8
0
  6
HIDDEN
 62
   174
100
AcDbLine
 10
158.99694
 20
179.853685
 30
0.0
 11
158.99694
 21
178.879621
 31
0.0
  0
LINE
  5
2AD
100
AcDbEntity
  8
0
  6
Continuous
 62
   174
100
AcDbLine
 10
153.09694
 20
217.256742
 30
0.0
 11
153.09694
 21
218.901772
 31
0.0
  0
LINE
  5
2AE
100
AcDbEntity
  8
0
  6
HIDDEN
 62
   174
100
AcDbLine
 10
158.99694
 20
186.194585
 30
0.0
 11
156.59694
 21
186.194585
 31
0.0
  0
LINE
  5
2AF
100
AcDbEntity
  8
0
  6
Continuous
 62
   174
100
AcDbLine
 10
141.99694
 20
177.876222
 30
0.0
 11
140.99694
 21
177.876222
 31
0.0
  0
LINE
  5
2B0
100
AcDbEntity
  8
0
  6
Continuous
 62
   174
100
AcDbLine
 10
138.99694
 20
177.009376
 30
0.0
 11
138.99694
 21
172.156247
 31
0.0
  0
LINE
  5
2B1
100
AcDbEntity
  8
0
  6
HIDDEN
 62
   174
100
AcDbLine
 10
149.022503
 20
175.48855
 30
0.0
 11
145.022578
 21
175.48855
 31
0.0
  0
LINE
  5
2B2
100
AcDbEntity
  8
0
  6
HIDDEN
 62
   174
100
AcDbLine
 10
132.99694
 20
143.823399
 30
0.0
 11
141.39694
 21
143.823399
 31
0.0
  0
LINE
  5
2B3
100
AcDbEntity
  8
0
  6
Continuous
 62
   174
100
AcDbLine
 10
141.99694
 20
176.717474
 30
0.0
 11
143.99694
 21
176.717474
 31
0.0
  0
LINE
  5
2B4
100
AcDbEntity
  8
0
  6
Continuous
 62
   174
100
AcDbLine
 10
155.99694
 20
210.752087
 30
0.0
 11
155.99694
 21
198.770336
 31
0.0
  0
LINE
  5
2B5
100
AcDbEntity
  8
0
  6
Continuous
 62
   174
100
AcDbLine
 10
153.09694
 20
219.554483
 30
0.0
 11
144.89694
 21
219.554483
 31
0.0
  0
LINE
  5
2B6
100
AcDbEntity
  8
0
  6
Continuous
 62
   174
100
AcDbLine
 10
138.99694
 20
182.897043
 30
0.0
 11
138.99694
 21
187.738409
 31
0.0
  0
LINE
  5
2B7
100
AcDbEntity
  8
0
  6
Continuous
 62
   174
100
AcDbLine
 10
138.99694
 20
190.357361
 30
0.0
 11
138.99694
 21
193.383365
 31
0.0
  0
LINE
  5
2B8
100
AcDbEntity
  8
0
  6
Continuous
 62
   174
100
AcDbLine
 10
141.39694
 20
169.723399
 30
0.0
 11
144.99694
 21
169.723399
 31
0.0
  0
LINE
  5
2B9
100
AcDbEntity
  8
0
  6
Continuous
 62
   174
100
AcDbLine
 10
138.49694
 20
179.853685
 30
0.0
 11
138.49694
 21
181.661131
 31
0.0
  0
LINE
  5
2BA
100
AcDbEntity
  8
0
  6
HIDDEN
 62
   174
100
AcDbLine
 10
158.99694
 20
178.879621
 30
0.0
 11
158.99694
 21
177.009376
 31
0.0
  0
LINE
  5
2BB
100
AcDbEntity
  8
0
  6
Continuous
 62
   174
100
AcDbLine
 10
158.99694
 20
190.357361
 30
0.0
 11
158.99694
 21
193.383365
 31
0.0
  0
LINE
  5
2BC
100
AcDbEntity
  8
0
  6
HIDDEN
 62
   174
100
AcDbLine
 10
158.99694
 20
182.06161
 30
0.0
 11
158.99694
 21
181.100907
 31
0.0
  0
LINE
  5
2BD
100
AcDbEntity
  8
0
  6
HIDDEN
 62
   174
100
AcDbLine
 10
156.59694
 20
178.612633
 30
0.0
 11
156.59694
 21
182.06161
 31
0.0
  0
ARC
  5
2BE
100
AcDbEntity
  8
0
  6
Continuous
 62
   174
100
AcDbCircle
 10
148.99694
 20
103.323399
 30
0.0
 40
9.73
100
AcDbArc
 50
-90.0
 51
-89.296546
  0
LINE
  5
2BF
100
AcDbEntity
  8
0
  6
Continuous
 62
   174
100
AcDbLine
 10
153.49694
 20
209.022875
 30
0.0
 11
153.49694
 21
212.011929
 31
0.0
  0
LINE
  5
2C0
100
AcDbEntity
  8
0
  6
HIDDEN
 62
   174
100
AcDbLine
 10
138.99694
 20
178.879621
 30
0.0
 11
138.99694
 21
177.009376
 31
0.0
  0
LINE
  5
2C1
100
AcDbEntity
  8
0
  6
HIDDEN
 62
   174
100
AcDbLine
 10
153.99694
 20
180.543952
 30
0.0
 11
153.99694
 21
181.693611
 31
0.0
  0
LINE
  5
2C2
100
AcDbEntity
  8
0
  6
Continuous
 62
   174
100
AcDbLine
 10
138.99694
 20
181.661131
 30
0.0
 11
138.99694
 21
179.853685
 31
0.0
  0
LINE
  5
2C3
100
AcDbEntity
  8
0
  6
Continuous
 62
   174
100
AcDbLine
 10
138.99694
 20
178.879621
 30
0.0
 11
138.99694
 21
177.009376
 31
0.0
  0
ARC
  5
2C4
100
AcDbEntity
  8
0
  6
Continuous
 62
   174
100
AcDbCircle
 10
148.99694
 20
135.323399
 30
0.0
 40
9.73
100
AcDbArc
 50
-90.0
 51
-89.296546
  0
LINE
  5
2C5
100
AcDbEntity
  8
0
  6
Continuous
 62
   174
100
AcDbLine
 10
164.99694
 20
83.323399
 30
0.0
 11
132.99694
 21
83.323399
 31
0.0
  0
LINE
  5
2C6
100
AcDbEntity
  8
0
  6
HIDDEN
 62
   174
100
AcDbLine
 10
155.99694
 20
181.693611
 30
0.0
 11
155.99694
 21
181.47131
 31
0.0
  0
LINE
  5
2C7
100
AcDbEntity
  8
0
  6
HIDDEN
 62
   174
100
AcDbLine
 10
158.99694
 20
178.879621
 30
0.0
 11
156.59694
 21
178.879621
 31
0.0
  0
LINE
  5
2C8
100
AcDbEntity
  8
0
  6
Continuous
 62
   174
100
AcDbLine
 10
152.99694
 20
168.323399
 30
0.0
 11
152.99694
 21
175.48855
 31
0.0
  0
LINE
  5
2C9
100
AcDbEntity
  8
0
  6
HIDDEN
 62
   174
100
AcDbLine
 10
158.99694
 20
187.768586
 30
0.0
 11
156.59694
 21
187.768586
 31
0.0
  0
LINE
  5
2CA
100
AcDbEntity
  8
0
  6
Continuous
 62
   174
100
AcDbLine
 10
155.99694
 20
211.624403
 30
0.0
 11
155.99694
 21
210.788369
 31
0.0
  0
ARC
  5
2CB
100
AcDbEntity
  8
0
  6
Continuous
 62
   174
100
AcDbCircle
 10
148.99694
 20
135.323399
 30
0.0
 40
8.75
100
AcDbArc
 50
135.939043
 51
178.931973
  0
LINE
  5
2CC
100
AcDbEntity
  8
0
  6
Continuous
 62
   174
100
AcDbLine
 10
144.89694
 20
218.901772
 30
0.0
 11
144.89694
 21
219.572582
 31
0.0
  0
LINE
  5
2CD
100
AcDbEntity
  8
0
  6
Continuous
 62
   174
100
AcDbLine
 10
159.49694
 20
169.723399
 30
0.0
 11
159.49694
 21
172.156247
 31
0.0
  0
LINE
  5
2CE
100
AcDbEntity
  8
0
  6
Continuous
 62
   174
100
AcDbLine
 10
156.59694
 20
172.156247
 30
0.0
 11
156.59694
 21
169.747632
 31
0.0
  0
LINE
  5
2CF
100
AcDbEntity
  8
0
  6
HIDDEN
 62
   174
100
AcDbLine
 10
132.99694
 20
158.823399
 30
0.0
 11
141.39694
 21
158.823399
 31
0.0
  0
LWPOLYLINE
  5
2D0
100
AcDbEntity
  8
0
  6
Continuous
 62
   174
100
AcDbPolyline
 90
        3
 70
   128
 10
140.99694
 20
177.876222
 10
139.997225
 20
178.14099
 10
139.265218
 20
178.864391
  0
LINE
  5
2D1
100
AcDbEntity
  8
0
  6
Continuous
 62
   174
100
AcDbLine
 10
144.89694
 20
208.999443
 30
0.0
 11
144.89694
 21
212.049179
 31
0.0
  0
LINE
  5
2D2
100
AcDbEntity
  8
0
  6
Continuous
 62
   174
100
AcDbLine
 10
141.39694
 20
182.287863
 30
0.0
 11
141.39694
 21
181.661131
 31
0.0
  0
ARC
  5
2D3
100
AcDbEntity
  8
0
  6
Continuous
 62
   174
100
AcDbCircle
 10
148.99694
 20
135.323399
 30
0.0
 40
8.75
100
AcDbArc
 50
315.939043
 51
358.931973
  0
LINE
  5
2D4
100
AcDbEntity
  8
0
  6
Continuous
 62
   174
100
AcDbLine
 10
144.49694
 20
205.558577
 30
0.0
 11
144.49694
 21
206.089697
 31
0.0
  0
LINE
  5
2D5
100
AcDbEntity
  8
0
  6
HIDDEN
 62
   174
100
AcDbLine
 10
158.99694
 20
169.747632
 30
0.0
 11
156.59694
 21
169.747632
 31
0.0
  0
LINE
  5
2D6
100
AcDbEntity
  8
0
  6
HIDDEN
 62
   174
100
AcDbLine
 10
158.99694
 20
191.763444
 30
0.0
 11
156.59694
 21
191.763444
 31
0.0
  0
LINE
  5
2D7
100
AcDbEntity
  8
0
  6
Continuous
 62
   174
100
AcDbLine
 10
152.99694
 20
169.723399
 30
0.0
 11
156.59694
 21
169.723399
 31
0.0
  0
LINE
  5
2D8
100
AcDbEntity
  8
0
  6
Continuous
 62
   174
100
AcDbLine
 10
143.99694
 20
213.410926
 30
0.0
 11
143.99694
 21
210.788369
 31
0.0
  0
ARC
  5
2D9
100
AcDbEntity
  8
0
  6
Continuous
 62
   174
100
AcDbCircle
 10
148.99694
 20
103.323399
 30
0.0
 40
8.75
100
AcDbArc
 50
-45.0
 51
45.0
  0
LINE
  5
2DA
100
AcDbEntity
  8
0
  6
Continuous
 62
   174
100
AcDbLine
 10
153.09694
 20
212.049179
 30
0.0
 11
153.09694
 21
217.256742
 31
0.0
  0
LINE
  5
2DB
100
AcDbEntity
  8
0
  6
Continuous
 62
   174
100
AcDbLine
 10
138.49694
 20
181.661131
 30
0.0
 11
138.49694
 21
182.858735
 31
0.0
  0
LINE
  5
2DC
100
AcDbEntity
  8
0
  6
HIDDEN
 62
   174
100
AcDbLine
 10
143.99694
 20
190.35706
 30
0.0
 11
143.99694
 21
187.806301
 31
0.0
  0
LINE
  5
2DD
100
AcDbEntity
  8
0
  6
HIDDEN
 62
   174
100
AcDbLine
 10
153.022728
 20
175.48855
 30
0.0
 11
149.022503
 21
175.48855
 31
0.0
  0
LINE
  5
2DE
100
AcDbEntity
  8
0
  6
HIDDEN
 62
   174
100
AcDbLine
 10
141.39694
 20
187.768586
 30
0.0
 11
138.99694
 21
187.768586
 31
0.0
  0
LINE
  5
2DF
100
AcDbEntity
  8
0
  6
HIDDEN
 62
   174
100
AcDbLine
 10
164.99694
 20
143.823399
 30
0.0
 11
156.59694
 21
143.823399
 31
0.0
  0
LINE
  5
2E0
100
AcDbEntity
  8
0
  6
Continuous
 62
   174
100
AcDbLine
 10
140.99694
 20
177.876222
 30
0.0
 11
140.99694
 21
176.717474
 31
0.0
  0
LINE
  5
2E1
100
AcDbEntity
  8
0
  6
HIDDEN
 62
   174
100
AcDbLine
 10
132.99694
 20
143.823399
 30
0.0
 11
141.39694
 21
143.823399
 31
0.0
  0
LINE
  5
2E2
100
AcDbEntity
  8
0
  6
Continuous
 62
   174
100
AcDbLine
 10
158.99694
 20
178.879621
 30
0.0
 11
158.99694
 21
177.009376
 31
0.0
  0
LINE
  5
2E3
100
AcDbEntity
  8
0
  6
Continuous
 62
   174
100
AcDbLine
 10
138.99694
 20
189.847269
 30
0.0
 11
138.99694
 21
190.357361
 31
0.0
  0
ARC
  5
2E4
100
AcDbEntity
  8
0
  6
Continuous
 62
   174
100
AcDbCircle
 10
148.99694
 20
166.323399
 30
0.0
 40
10.0
100
AcDbArc
 50
-293.578178
 51
-270.0
  0
LINE
  5
2E5
100
AcDbEntity
  8
0
  6
HIDDEN
 62
   174
100
AcDbLine
 10
138.99694
 20
176.062174
 30
0.0
 11
138.99694
 21
177.36414
 31
0.0
  0
LINE
  5
2E6
100
AcDbEntity
  8
0
  6
HIDDEN
 62
   174
100
AcDbLine
 10
132.99694
 20
158.823399
 30
0.0
 11
141.39694
 21
158.823399
 31
0.0
  0
LINE
  5
2E7
100
AcDbEntity
  8
0
  6
Continuous
 62
   174
100
AcDbLine
 10
141.99694
 20
182.287863
 30
0.0
 11
143.99694
 21
182.287863
 31
0.0
  0
LINE
  5
2E8
100
AcDbEntity
  8
0
  6
Continuous
 62
   174
100
AcDbLine
 10
155.99694
 20
198.770336
 30
0.0
 11
155.99694
 21
182.858735
 31
0.0
  0
LINE
  5
2E9
100
AcDbEntity
  8
0
  6
HIDDEN
 62
   174
100
AcDbLine
 10
141.39694
 20
191.763444
 30
0.0
 11
138.99694
 21
191.763444
 31
0.0
  0
LINE
  5
2EA
100
AcDbEntity
  8
0
  6
Continuous
 62
   174
100
AcDbLine
 10
141.39694
 20
184.004645
 30
0.0
 11
141.39694
 21
198.805718
 31
0.0
  0
LINE
  5
2EB
100
AcDbEntity
  8
0
  6
Continuous
 62
   174
100
AcDbLine
 10
158.99694
 20
189.847269
 30
0.0
 11
158.99694
 21
190.357361
 31
0.0
  0
LINE
  5
2EC
100
AcDbEntity
  8
0
  6
Continuous
 62
   174
100
AcDbLine
 10
153.09694
 20
199.554483
 30
0.0
 11
144.89694
 21
199.554483
 31
0.0
  0
LINE
  5
2ED
100
AcDbEntity
  8
0
  6
Continuous
 62
   174
100
AcDbLine
 10
153.49694
 20
206.089697
 30
0.0
 11
153.49694
 21
209.022875
 31
0.0
  0
LINE
  5
2EE
100
AcDbEntity
  8
0
  6
HIDDEN
 62
   174
100
AcDbLine
 10
155.99694
 20
181.47131
 30
0.0
 11
155.99694
 21
181.052842
 31
0.0
  0
LINE
  5
2EF
100
AcDbEntity
  8
0
  6
HIDDEN
 62
   174
100
AcDbLine
 10
156.59694
 20
146.864076
 30
0.0
 11
156.59694
 21
155.86338
 31
0.0
  0
LINE
  5
2F0
100
AcDbEntity
  8
0
  6
Continuous
 62
   174
100
AcDbLine
 10
153.99694
 20
210.752087
 30
0.0
 11
153.99694
 21
199.95774
 31
0.0
  0
LINE
  5
2F1
100
AcDbEntity
  8
0
  6
HIDDEN
 62
   174
100
AcDbLine
 10
164.99694
 20
158.863249
 30
0.0
 11
164.99694
 21
143.864508
 31
0.0
  0
LINE
  5
2F2
100
AcDbEntity
  8
0
  6
HIDDEN
 62
   174
100
AcDbLine
 10
164.99694
 20
158.863249
 30
0.0
 11
164.99694
 21
143.864508
 31
0.0
  0
LINE
  5
2F3
100
AcDbEntity
  8
0
  6
HIDDEN
 62
   174
100
AcDbLine
 10
158.99694
 20
176.023399
 30
0.0
 11
156.59694
 21
176.023399
 31
0.0
  0
LINE
  5
2F4
100
AcDbEntity
  8
0
  6
Continuous
 62
   174
100
AcDbLine
 10
156.59694
 20
169.723399
 30
0.0
 11
158.99694
 21
169.723399
 31
0.0
  0
LINE
  5
2F5
100
AcDbEntity
  8
0
  6
Continuous
 62
   174
100
AcDbLine
 10
156.59694
 20
180.249178
 30
0.0
 11
155.99694
 21
180.249178
 31
0.0
  0
ARC
  5
2F6
100
AcDbEntity
  8
0
  6
Continuous
 62
   174
100
AcDbCircle
 10
148.99694
 20
135.323399
 30
0.0
 40
8.75
100
AcDbArc
 50
134.302369
 51
135.939043
  0
LINE
  5
2F7
100
AcDbEntity
  8
0
  6
Continuous
 62
   174
100
AcDbLine
 10
138.49694
 20
182.858735
 30
0.0
 11
138.49694
 21
187.323399
 31
0.0
  0
LINE
  5
2F8
100
AcDbEntity
  8
0
  6
HIDDEN
 62
   174
100
AcDbLine
 10
141.39694
 20
146.823399
 30
0.0
 11
156.59694
 21
146.823399
 31
0.0
  0
LINE
  5
2F9
100
AcDbEntity
  8
0
  6
HIDDEN
 62
   174
100
AcDbLine
 10
156.59694
 20
176.062174
 30
0.0
 11
156.59694
 21
178.612633
 31
0.0
  0
LINE
  5
2FA
100
AcDbEntity
  8
0
  6
Continuous
 62
   174
100
AcDbLine
 10
156.99694
 20
175.031913
 30
0.0
 11
152.99694
 21
175.031913
 31
0.0
  0
LINE
  5
2FB
100
AcDbEntity
  8
0
  6
Continuous
 62
   174
100
AcDbLine
 10
141.99694
 20
212.437005
 30
0.0
 11
141.99694
 21
211.631913
 31
0.0
  0
LINE
  5
2FC
100
AcDbEntity
  8
0
  6
Continuous
 62
   174
100
AcDbLine
 10
144.89694
 20
206.004982
 30
0.0
 11
144.89694
 21
208.999443
 31
0.0
  0
LINE
  5
2FD
100
AcDbEntity
  8
0
  6
Continuous
 62
   174
100
AcDbLine
 10
144.89694
 20
217.256742
 30
0.0
 11
144.89694
 21
218.901772
 31
0.0
  0
LINE
  5
2FE
100
AcDbEntity
  8
0
  6
HIDDEN
 62
   174
100
AcDbLine
 10
141.39694
 20
146.823399
 30
0.0
 11
156.59694
 21
146.823399
 31
0.0
  0
LINE
  5
2FF
100
AcDbEntity
  8
0
  6
Continuous
 62
   174
100
AcDbLine
 10
156.59694
 20
184.004645
 30
0.0
 11
156.59694
 21
198.805718
 31
0.0
  0
ARC
  5
300
100
AcDbEntity
  8
0
  6
Continuous
 62
   174
100
AcDbCircle
 10
148.99694
 20
103.323399
 30
0.0
 40
8.75
100
AcDbArc
 50
135.0
 51
270.0
  0
ARC
  5
301
100
AcDbEntity
  8
0
  6
Continuous
 62
   174
100
AcDbCircle
 10
148.99694
 20
103.323399
 30
0.0
 40
8.75
100
AcDbArc
 50
270.0
 51
315.0
  0
LWPOLYLINE
  5
302
100
AcDbEntity
  8
0
  6
Continuous
 62
   174
100
AcDbPolyline
 90
        4
 70
   128
 10
156.99694
 20
175.031913
 10
157.99694
 20
175.296843
 10
158.728991
 20
176.020644
 10
158.99694
 20
177.009376
  0
LINE
  5
303
100
AcDbEntity
  8
0
  6
HIDDEN
 62
   174
100
AcDbLine
 10
144.49694
 20
199.954483
 30
0.0
 11
144.89694
 21
199.554483
 31
0.0
  0
LINE
  5
304
100
AcDbEntity
  8
0
  6
Continuous
 62
   174
100
AcDbLine
 10
159.49694
 20
172.156247
 30
0.0
 11
159.49694
 21
177.009376
 31
0.0
  0
LINE
  5
305
100
AcDbEntity
  8
0
  6
HIDDEN
 62
   174
100
AcDbLine
 10
141.39694
 20
178.612633
 30
0.0
 11
141.39694
 21
182.06161
 31
0.0
  0
ARC
  5
306
100
AcDbEntity
  8
0
  6
Continuous
 62
   174
100
AcDbCircle
 10
148.99694
 20
135.323399
 30
0.0
 40
8.75
100
AcDbArc
 50
314.302369
 51
315.939043
  0
LINE
  5
307
100
AcDbEntity
  8
0
  6
Continuous
 62
   174
100
AcDbLine
 10
144.49694
 20
201.49797
 30
0.0
 11
144.49694
 21
205.558577
 31
0.0
  0
LINE
  5
308
100
AcDbEntity
  8
0
  6
HIDDEN
 62
   174
100
AcDbLine
 10
141.39694
 20
176.023399
 30
0.0
 11
138.99694
 21
176.023399
 31
0.0
  0
LINE
  5
309
100
AcDbEntity
  8
0
  6
HIDDEN
 62
   174
100
AcDbLine
 10
158.99694
 20
181.100907
 30
0.0
 11
158.99694
 21
178.612633
 31
0.0
  0
LINE
  5
30A
100
AcDbEntity
  8
0
  6
Continuous
 62
   174
100
AcDbLine
 10
155.99694
 20
182.858735
 30
0.0
 11
155.99694
 21
182.287863
 31
0.0
  0
LINE
  5
30B
100
AcDbEntity
  8
0
  6
Continuous
 62
   174
100
AcDbLine
 10
155.99694
 20
213.182616
 30
0.0
 11
155.99694
 21
211.624403
 31
0.0
  0
LINE
  5
30C
100
AcDbEntity
  8
0
  6
Continuous
 62
   174
100
AcDbLine
 10
153.09694
 20
208.999443
 30
0.0
 11
153.09694
 21
212.049179
 31
0.0
  0
LINE
  5
30D
100
AcDbEntity
  8
0
  6
HIDDEN
 62
   174
100
AcDbLine
 10
153.99694
 20
193.768586
 30
0.0
 11
155.99694
 21
193.768586
 31
0.0
  0
LINE
  5
30E
100
AcDbEntity
  8
0
  6
HIDDEN
 62
   174
100
AcDbLine
 10
138.99694
 20
177.36414
 30
0.0
 11
138.99694
 21
178.612633
 31
0.0
  0
LINE
  5
30F
100
AcDbEntity
  8
0
  6
HIDDEN
 62
   174
100
AcDbLine
 10
164.99694
 20
158.823399
 30
0.0
 11
156.59694
 21
158.823399
 31
0.0
  0
LINE
  5
310
100
AcDbEntity
  8
0
  6
Continuous
 62
   174
100
AcDbLine
 10
144.49694
 20
218.528066
 30
0.0
 11
144.49694
 21
219.173341
 31
0.0
  0
LINE
  5
311
100
AcDbEntity
  8
0
  6
Continuous
 62
   174
100
AcDbLine
 10
144.99694
 20
168.323399
 30
0.0
 11
144.99694
 21
175.48855
 31
0.0
  0
LINE
  5
312
100
AcDbEntity
  8
0
  6
HIDDEN
 62
   174
100
AcDbLine
 10
141.39694
 20
155.823399
 30
0.0
 11
156.59694
 21
155.823399
 31
0.0
  0
LINE
  5
313
100
AcDbEntity
  8
0
  6
Continuous
 62
   174
100
AcDbLine
 10
158.99694
 20
169.723399
 30
0.0
 11
159.49694
 21
169.723399
 31
0.0
  0
LINE
  5
314
100
AcDbEntity
  8
0
  6
Continuous
 62
   174
100
AcDbLine
 10
153.99694
 20
180.249178
 30
0.0
 11
143.99694
 21
180.249178
 31
0.0
  0
LWPOLYLINE
  5
315
100
AcDbEntity
  8
0
  6
Continuous
 62
   174
100
AcDbPolyline
 90
        3
 70
   128
 10
139.265218
 20
178.864391
 10
139.065174
 20
179.341566
 10
138.99694
 20
179.853685
  0
LINE
  5
316
100
AcDbEntity
  8
0
  6
HIDDEN
 62
   174
100
AcDbLine
 10
153.49694
 20
199.954483
 30
0.0
 11
153.09694
 21
199.554483
 31
0.0
  0
LINE
  5
317
100
AcDbEntity
  8
0
  6
Continuous
 62
   174
100
AcDbLine
 10
138.99694
 20
187.738409
 30
0.0
 11
138.99694
 21
189.847269
 31
0.0
  0
LINE
  5
318
100
AcDbEntity
  8
0
  6
HIDDEN
 62
   174
100
AcDbLine
 10
155.99694
 20
181.052842
 30
0.0
 11
155.99694
 21
180.543952
 31
0.0
  0
LINE
  5
319
100
AcDbEntity
  8
0
  6
HIDDEN
 62
   174
100
AcDbLine
 10
155.99694
 20
180.249178
 30
0.0
 11
153.99694
 21
180.249178
 31
0.0
  0
LINE
  5
31A
100
AcDbEntity
  8
0
  6
HIDDEN
 62
   174
100
AcDbLine
 10
164.99694
 20
158.823399
 30
0.0
 11
156.59694
 21
158.823399
 31
0.0
  0
LINE
  5
31B
100
AcDbEntity
  8
0
  6
Continuous
 62
   174
100
AcDbLine
 10
143.99694
 20
217.590194
 30
0.0
 11
143.99694
 21
213.410926
 31
0.0
  0
LINE
  5
31C
100
AcDbEntity
  8
0
  6
Continuous
 62
   174
100
AcDbLine
 10
158.99694
 20
187.738409
 30
0.0
 11
158.99694
 21
189.847269
 31
0.0
  0
LINE
  5
31D
100
AcDbEntity
  8
0
  6
Continuous
 62
   174
100
AcDbLine
 10
141.99694
 20
210.752087
 30
0.0
 11
143.99694
 21
210.752087
 31
0.0
  0
LINE
  5
31E
100
AcDbEntity
  8
0
  6
HIDDEN
 62
   174
100
AcDbLine
 10
132.99694
 20
143.864508
 30
0.0
 11
132.99694
 21
158.863249
 31
0.0
  0
LINE
  5
31F
100
AcDbEntity
  8
0
  6
Continuous
 62
   174
100
AcDbLine
 10
144.99694
 20
175.031913
 30
0.0
 11
140.99694
 21
175.031913
 31
0.0
  0
LINE
  5
320
100
AcDbEntity
  8
0
  6
Continuous
 62
   174
100
AcDbLine
 10
153.49694
 20
205.565786
 30
0.0
 11
153.49694
 21
206.089697
 31
0.0
  0
LINE
  5
321
100
AcDbEntity
  8
0
  6
HIDDEN
 62
   174
100
AcDbLine
 10
153.99694
 20
187.768586
 30
0.0
 11
155.99694
 21
187.768586
 31
0.0
  0
LINE
  5
322
100
AcDbEntity
  8
0
  6
HIDDEN
 62
   174
100
AcDbLine
 10
141.39694
 20
155.823399
 30
0.0
 11
156.59694
 21
155.823399
 31
0.0
  0
LINE
  5
323
100
AcDbEntity
  8
0
  6
Continuous
 62
   174
100
AcDbLine
 10
153.99694
 20
199.95774
 30
0.0
 11
153.99694
 21
182.287863
 31
0.0
  0
LINE
  5
324
100
AcDbEntity
  8
0
  6
Continuous
 62
   174
100
AcDbLine
 10
159.49694
 20
177.009376
 30
0.0
 11
159.49694
 21
178.879621
 31
0.0
  0
LINE
  5
325
100
AcDbEntity
  8
0
  6
Continuous
 62
   174
100
AcDbLine
 10
153.99694
 20
176.717474
 30
0.0
 11
153.99694
 21
179.656521
 31
0.0
  0
ARC
  5
326
100
AcDbEntity
  8
0
  6
Continuous
 62
   174
100
AcDbCircle
 10
148.99694
 20
135.323399
 30
0.0
 40
8.75
100
AcDbArc
 50
90.0
 51
134.302369
  0
LINE
  5
327
100
AcDbEntity
  8
0
  6
Continuous
 62
   174
100
AcDbLine
 10
141.39694
 20
182.897043
 30
0.0
 11
141.39694
 21
184.004645
 31
0.0
  0
LINE
  5
328
100
AcDbEntity
  8
0
  6
HIDDEN
 62
   174
100
AcDbLine
 10
141.39694
 20
146.823399
 30
0.0
 11
156.59694
 21
146.823399
 31
0.0
  0
LINE
  5
329
100
AcDbEntity
  8
0
  6
HIDDEN
 62
   174
100
AcDbLine
 10
144.99694
 20
169.723399
 30
0.0
 11
152.99694
 21
169.723399
 31
0.0
  0
LINE
  5
32A
100
AcDbEntity
  8
0
  6
Continuous
 62
   174
100
AcDbLine
 10
141.99694
 20
217.590194
 30
0.0
 11
141.99694
 21
212.437005
 31
0.0
  0
LINE
  5
32B
100
AcDbEntity
  8
0
  6
Continuous
 62
   174
100
AcDbLine
 10
144.89694
 20
205.562782
 30
0.0
 11
144.89694
 21
206.004982
 31
0.0
  0
LINE
  5
32C
100
AcDbEntity
  8
0
  6
Continuous
 62
   174
100
AcDbLine
 10
149.022503
 20
175.48855
 30
0.0
 11
145.022578
 21
175.48855
 31
0.0
  0
LINE
  5
32D
100
AcDbEntity
  8
0
  6
Continuous
 62
   174
100
AcDbLine
 10
164.99694
 20
168.323399
 30
0.0
 11
164.99694
 21
187.323399
 31
0.0
  0
LINE
  5
32E
100
AcDbEntity
  8
0
  6
HIDDEN
 62
   174
100
AcDbLine
 10
138.99694
 20
187.806301
 30
0.0
 11
138.99694
 21
190.35706
 31
0.0
  0
LINE
  5
32F
100
AcDbEntity
  8
0
  6
Continuous
 62
   174
100
AcDbLine
 10
132.99694
 20
168.323399
 30
0.0
 11
132.99694
 21
187.323399
 31
0.0
  0
LINE
  5
330
100
AcDbEntity
  8
0
  6
Continuous
 62
   174
100
AcDbLine
 10
141.99694
 20
180.249178
 30
0.0
 11
141.39694
 21
180.249178
 31
0.0
  0
ARC
  5
331
100
AcDbEntity
  8
0
  6
Continuous
 62
   174
100
AcDbCircle
 10
148.99694
 20
135.323399
 30
0.0
 40
8.75
100
AcDbArc
 50
225.697631
 51
270.0
  0
LINE
  5
332
100
AcDbEntity
  8
0
  6
HIDDEN
 62
   174
100
AcDbLine
 10
138.99694
 20
190.35706
 30
0.0
 11
138.99694
 21
193.806038
 31
0.0
  0
LINE
  5
333
100
AcDbEntity
  8
0
  6
Continuous
 62
   174
100
AcDbLine
 10
156.59694
 20
181.661131
 30
0.0
 11
156.59694
 21
180.505512
 31
0.0
  0
LINE
  5
334
100
AcDbEntity
  8
0
  6
HIDDEN
 62
   174
100
AcDbLine
 10
141.39694
 20
155.86338
 30
0.0
 11
141.39694
 21
146.864076
 31
0.0
  0
LINE
  5
335
100
AcDbEntity
  8
0
  6
Continuous
 62
   174
100
AcDbLine
 10
132.99694
 20
187.323399
 30
0.0
 11
138.49694
 21
187.323399
 31
0.0
  0
LINE
  5
336
100
AcDbEntity
  8
0
  6
Continuous
 62
   174
100
AcDbLine
 10
141.39694
 20
175.031913
 30
0.0
 11
141.39694
 21
172.156247
 31
0.0
  0
LINE
  5
337
100
AcDbEntity
  8
0
  6
Continuous
 62
   174
100
AcDbLine
 10
153.09694
 20
206.004982
 30
0.0
 11
153.09694
 21
208.999443
 31
0.0
  0
LINE
  5
338
100
AcDbEntity
  8
0
  6
HIDDEN
 62
   174
100
AcDbLine
 10
158.99694
 20
178.612633
 30
0.0
 11
158.99694
 21
177.36414
 31
0.0
  0
ARC
  5
339
100
AcDbEntity
  8
0
  6
Continuous
 62
   174
100
AcDbCircle
 10
148.99694
 20
135.323399
 30
0.0
 40
9.73
100
AcDbArc
 50
-89.296546
 51
89.296546
  0
LINE
  5
33A
100
AcDbEntity
  8
0
  6
Continuous
 62
   174
100
AcDbLine
 10
141.39694
 20
181.661131
 30
0.0
 11
141.39694
 21
180.249178
 31
0.0
  0
LINE
  5
33B
100
AcDbEntity
  8
0
  6
HIDDEN
 62
   174
100
AcDbLine
 10
155.99694
 20
180.543952
 30
0.0
 11
155.99694
 21
179.693499
 31
0.0
  0
LINE
  5
33C
100
AcDbEntity
  8
0
  6
HIDDEN
 62
   174
100
AcDbLine
 10
132.99694
 20
143.823399
 30
0.0
 11
141.39694
 21
143.823399
 31
0.0
  0
LINE
  5
33D
100
AcDbEntity
  8
0
  6
Continuous
 62
   174
100
AcDbLine
 10
155.99694
 20
217.590194
 30
0.0
 11
155.99694
 21
213.182616
 31
0.0
  0
LINE
  5
33E
100
AcDbEntity
  8
0
  6
HIDDEN
 62
   174
100
AcDbLine
 10
153.09694
 20
199.591584
 30
0.0
 11
153.09694
 21
199.609008
 31
0.0
  0
LINE
  5
33F
100
AcDbEntity
  8
0
  6
Continuous
 62
   174
100
AcDbLine
 10
153.09694
 20
199.914222
 30
0.0
 11
153.09694
 21
201.220393
 31
0.0
  0
LINE
  5
340
100
AcDbEntity
  8
0
  6
Continuous
 62
   174
100
AcDbLine
 10
159.49694
 20
178.879621
 30
0.0
 11
159.49694
 21
179.853685
 31
0.0
  0
LINE
  5
341
100
AcDbEntity
  8
0
  6
Continuous
 62
   174
100
AcDbLine
 10
158.99694
 20
172.156247
 30
0.0
 11
156.59694
 21
172.156247
 31
0.0
  0
LINE
  5
342
100
AcDbEntity
  8
0
  6
HIDDEN
 62
   174
100
AcDbLine
 10
141.99694
 20
187.768586
 30
0.0
 11
143.99694
 21
187.768586
 31
0.0
  0
LINE
  5
343
100
AcDbEntity
  8
0
  6
Continuous
 62
   174
100
AcDbLine
 10
158.99694
 20
182.858735
 30
0.0
 11
158.99694
 21
181.661131
 31
0.0
  0
LINE
  5
344
100
AcDbEntity
  8
0
  6
Continuous
 62
   174
100
AcDbLine
 10
156.59694
 20
182.897043
 30
0.0
 11
156.59694
 21
184.004645
 31
0.0
  0
LINE
  5
345
100
AcDbEntity
  8
0
  6
HIDDEN
 62
   174
100
AcDbLine
 10
164.99694
 20
143.823399
 30
0.0
 11
156.59694
 21
143.823399
 31
0.0
  0
LINE
  5
346
100
AcDbEntity
  8
0
  6
Continuous
 62
   174
100
AcDbLine
 10
153.99694
 20
213.182616
 30
0.0
 11
153.99694
 21
210.788369
 31
0.0
  0
ARC
  5
347
100
AcDbEntity
  8
0
  6
Continuous
 62
   174
100
AcDbCircle
 10
148.99694
 20
103.323399
 30
0.0
 40
8.75
100
AcDbArc
 50
90.0
 51
135.0
  0
LINE
  5
348
100
AcDbEntity
  8
0
  6
HIDDEN
 62
   174
100
AcDbLine
 10
158.99694
 20
179.777824
 30
0.0
 11
158.99694
 21
178.879621
 31
0.0
  0
LINE
  5
349
100
AcDbEntity
  8
0
  6
Continuous
 62
   174
100
AcDbLine
 10
158.99694
 20
182.897043
 30
0.0
 11
158.99694
 21
187.738409
 31
0.0
  0
LINE
  5
34A
100
AcDbEntity
  8
0
  6
Continuous
 62
   174
100
AcDbLine
 10
141.99694
 20
210.752087
 30
0.0
 11
141.99694
 21
198.770336
 31
0.0
  0
LINE
  5
34B
100
AcDbEntity
  8
0
  6
Continuous
 62
   174
100
AcDbLine
 10
141.39694
 20
172.156247
 30
0.0
 11
141.39694
 21
169.747632
 31
0.0
  0
LINE
  5
34C
100
AcDbEntity
  8
0
  6
Continuous
 62
   174
100
AcDbLine
 10
144.49694
 20
199.991426
 30
0.0
 11
144.49694
 21
201.49797
 31
0.0
  0
LINE
  5
34D
100
AcDbEntity
  8
0
  6
Continuous
 62
   174
100
AcDbLine
 10
153.49694
 20
201.49797
 30
0.0
 11
153.49694
 21
205.565786
 31
0.0
  0
LINE
  5
34E
100
AcDbEntity
  8
0
  6
HIDDEN
 62
   174
100
AcDbLine
 10
141.39694
 20
179.777824
 30
0.0
 11
138.99694
 21
179.777824
 31
0.0
  0
LINE
  5
34F
100
AcDbEntity
  8
0
  6
Continuous
 62
   174
100
AcDbLine
 10
144.49694
 20
217.017317
 30
0.0
 11
144.49694
 21
218.528066
 31
0.0
  0
LINE
  5
350
100
AcDbEntity
  8
0
  6
HIDDEN
 62
   174
100
AcDbLine
 10
153.99694
 20
181.655212
 30
0.0
 11
155.99694
 21
181.655212
 31
0.0
  0
LINE
  5
351
100
AcDbEntity
  8
0
  6
HIDDEN
 62
   174
100
AcDbLine
 10
156.59694
 20
143.864508
 30
0.0
 11
156.59694
 21
158.863249
 31
0.0
  0
LINE
  5
352
100
AcDbEntity
  8
0
  6
Continuous
 62
   174
100
AcDbLine
 10
155.99694
 20
176.717474
 30
0.0
 11
155.99694
 21
179.656521
 31
0.0
  0
ARC
  5
353
100
AcDbEntity
  8
0
  6
Continuous
 62
   174
100
AcDbCircle
 10
148.99694
 20
135.323399
 30
0.0
 40
8.75
100
AcDbArc
 50
45.697631
 51
90.0
  0
LINE
  5
354
100
AcDbEntity
  8
0
  6
HIDDEN
 62
   174
100
AcDbLine
 10
132.99694
 20
158.823399
 30
0.0
 11
141.39694
 21
158.823399
 31
0.0
  0
LINE
  5
355
100
AcDbEntity
  8
0
  6
Continuous
 62
   174
100
AcDbLine
 10
153.99694
 20
179.656521
 30
0.0
 11
153.99694
 21
180.505512
 31
0.0
  0
LINE
  5
356
100
AcDbEntity
  8
0
  6
Continuous
 62
   174
100
AcDbLine
 10
144.89694
 20
201.220393
 30
0.0
 11
144.89694
 21
205.562782
 31
0.0
  0
LINE
  5
357
100
AcDbEntity
  8
0
  6
HIDDEN
 62
   174
100
AcDbLine
 10
156.59694
 20
190.35706
 30
0.0
 11
156.59694
 21
193.806038
 31
0.0
  0
LINE
  5
358
100
AcDbEntity
  8
0
  6
Continuous
 62
   174
100
AcDbLine
 10
141.99694
 20
217.554483
 30
0.0
 11
143.99694
 21
217.554483
 31
0.0
  0
ARC
  5
359
100
AcDbEntity
  8
0
  6
Continuous
 62
   174
100
AcDbCircle
 10
148.99694
 20
135.323399
 30
0.0
 40
8.75
100
AcDbArc
 50
270.0
 51
314.302369
  0
LINE
  5
35A
100
AcDbEntity
  8
0
  6
Continuous
 62
   174
100
AcDbLine
 10
156.99694
 20
177.876222
 30
0.0
 11
156.99694
 21
176.717474
 31
0.0
  0
ARC
  5
35B
100
AcDbEntity
  8
0
  6
Continuous
 62
   174
100
AcDbCircle
 10
148.99694
 20
103.323399
 30
0.0
 40
9.73
100
AcDbArc
 50
-89.296546
 51
89.296546
  0
LINE
  5
35C
100
AcDbEntity
  8
0
  6
Continuous
 62
   174
100
AcDbLine
 10
164.99694
 20
83.323399
 30
0.0
 11
164.99694
 21
168.323399
 31
0.0
  0
LINE
  5
35D
100
AcDbEntity
  8
0
  6
Continuous
 62
   174
100
AcDbLine
 10
138.49694
 20
169.723399
 30
0.0
 11
138.49694
 21
172.156247
 31
0.0
  0
LINE
  5
35E
100
AcDbEntity
  8
0
  6
Continuous
 62
   174
100
AcDbLine
 10
159.49694
 20
179.853685
 30
0.0
 11
159.49694
 21
181.661131
 31
0.0
  0
ARC
  5
35F
100
AcDbEntity
  8
0
  6
Continuous
 62
   174
100
AcDbCircle
 10
148.99694
 20
166.323399
 30
0.0
 40
10.0
100
AcDbArc
 50
90.0
 51
113.578178
  0
LINE
  5
360
100
AcDbEntity
  8
0
  6
Continuous
 62
   174
100
AcDbLine
 10
158.99694
 20
172.156247
 30
0.0
 11
158.99694
 21
169.747632
 31
0.0
  0
LINE
  5
361
100
AcDbEntity
  8
0
  6
Continuous
 62
   174
100
AcDbLine
 10
150.255075
 20
175.48855
 30
0.0
 11
149.022503
 21
175.48855
 31
0.0
  0
LINE
  5
362
100
AcDbEntity
  8
0
  6
HIDDEN
 62
   174
100
AcDbLine
 10
156.59694
 20
179.777824
 30
0.0
 11
156.59694
 21
178.879621
 31
0.0
  0
LINE
  5
363
100
AcDbEntity
  8
0
  6
Continuous
 62
   174
100
AcDbLine
 10
156.59694
 20
180.505512
 30
0.0
 11
156.59694
 21
180.249178
 31
0.0
  0
LINE
  5
364
100
AcDbEntity
  8
0
  6
HIDDEN
 62
   174
100
AcDbLine
 10
141.39694
 20
178.879621
 30
0.0
 11
141.39694
 21
175.031913
 31
0.0
  0
LINE
  5
365
100
AcDbEntity
  8
0
  6
HIDDEN
 62
   174
100
AcDbLine
 10
156.59694
 20
146.864076
 30
0.0
 11
156.59694
 21
155.86338
 31
0.0
  0
LINE
  5
366
100
AcDbEntity
  8
0
  6
HIDDEN
 62
   174
100
AcDbLine
 10
141.39694
 20
182.023399
 30
0.0
 11
138.99694
 21
182.023399
 31
0.0
  0
LINE
  5
367
100
AcDbEntity
  8
0
  6
HIDDEN
 62
   174
100
AcDbLine
 10
141.39694
 20
187.806301
 30
0.0
 11
141.39694
 21
190.35706
 31
0.0
  0
LINE
  5
368
100
AcDbEntity
  8
0
  6
Continuous
 62
   174
100
AcDbLine
 10
153.09694
 20
205.570292
 30
0.0
 11
153.09694
 21
206.004982
 31
0.0
  0
LINE
  5
369
100
AcDbEntity
  8
0
  6
HIDDEN
 62
   174
100
AcDbLine
 10
153.09694
 20
199.609008
 30
0.0
 11
153.09694
 21
219.590006
 31
0.0
  0
LINE
  5
36A
100
AcDbEntity
  8
0
  6
HIDDEN
 62
   174
100
AcDbLine
 10
158.99694
 20
177.36414
 30
0.0
 11
158.99694
 21
176.062174
 31
0.0
  0
LINE
  5
36B
100
AcDbEntity
  8
0
  6
HIDDEN
 62
   174
100
AcDbLine
 10
132.99694
 20
143.823399
 30
0.0
 11
141.39694
 21
143.823399
 31
0.0
  0
LINE
  5
36C
100
AcDbEntity
  8
0
  6
Continuous
 62
   174
100
AcDbLine
 10
158.99694
 20
181.661131
 30
0.0
 11
158.99694
 21
179.853685
 31
0.0
  0
LINE
  5
36D
100
AcDbEntity
  8
0
  6
Continuous
 62
   174
100
AcDbLine
 10
153.09694
 20
199.591584
 30
0.0
 11
153.09694
 21
199.914222
 31
0.0
  0
LINE
  5
36E
100
AcDbEntity
  8
0
  6
HIDDEN
 62
   174
100
AcDbLine
 10
141.99694
 20
193.768586
 30
0.0
 11
143.99694
 21
193.768586
 31
0.0
  0
ARC
  5
36F
100
AcDbEntity
  8
0
  6
Continuous
 62
   174
100
AcDbCircle
 10
148.99694
 20
135.323399
 30
0.0
 40
8.75
100
AcDbArc
 50
224.060957
 51
225.697631
  0
ARC
  5
370
100
AcDbEntity
  8
0
  6
Continuous
 62
   174
100
AcDbCircle
 10
148.99694
 20
135.323399
 30
0.0
 40
9.73
100
AcDbArc
 50
-270.703454
 51
-270.0
  0
LINE
  5
371
100
AcDbEntity
  8
0
  6
Continuous
 62
   174
100
AcDbLine
 10
153.49694
 20
218.528066
 30
0.0
 11
153.49694
 21
219.173341
 31
0.0
  0
LINE
  5
372
100
AcDbEntity
  8
0
  6
Continuous
 62
   174
100
AcDbLine
 10
158.99694
 20
181.661131
 30
0.0
 11
156.59694
 21
181.661131
 31
0.0
  0
LINE
  5
373
100
AcDbEntity
  8
0
  6
HIDDEN
 62
   174
100
AcDbLine
 10
156.59694
 20
178.879621
 30
0.0
 11
156.59694
 21
175.031913
 31
0.0
  0
LINE
  5
374
100
AcDbEntity
  8
0
  6
HIDDEN
 62
   174
100
AcDbLine
 10
164.99694
 20
143.823399
 30
0.0
 11
156.59694
 21
143.823399
 31
0.0
  0
LINE
  5
375
100
AcDbEntity
  8
0
  6
Continuous
 62
   174
100
AcDbLine
 10
138.99694
 20
193.846593
 30
0.0
 11
138.99694
 21
198.805718
 31
0.0
  0
LINE
  5
376
100
AcDbEntity
  8
0
  6
Continuous
 62
   174
100
AcDbLine
 10
158.99694
 20
198.768586
 30
0.0
 11
156.59694
 21
198.768586
 31
0.0
  0
LINE
  5
377
100
AcDbEntity
  8
0
  6
HIDDEN
 62
   174
100
AcDbLine
 10
153.99694
 20
190.35706
 30
0.0
 11
153.99694
 21
193.806038
 31
0.0
  0
LINE
  5
378
100
AcDbEntity
  8
0
  6
HIDDEN
 62
   174
100
AcDbLine
 10
141.99694
 20
190.35706
 30
0.0
 11
141.99694
 21
193.806038
 31
0.0
  0
LINE
  5
379
100
AcDbEntity
  8
0
  6
HIDDEN
 62
   174
100
AcDbLine
 10
156.59694
 20
143.864508
 30
0.0
 11
156.59694
 21
158.863249
 31
0.0
  0
LINE
  5
37A
100
AcDbEntity
  8
0
  6
Continuous
 62
   174
100
AcDbLine
 10
156.59694
 20
182.858735
 30
0.0
 11
156.59694
 21
182.287863
 31
0.0
  0
LINE
  5
37B
100
AcDbEntity
  8
0
  6
Continuous
 62
   174
100
AcDbLine
 10
153.99694
 20
180.505512
 30
0.0
 11
153.99694
 21
181.653904
 31
0.0
  0
LINE
  5
37C
100
AcDbEntity
  8
0
  6
Continuous
 62
   174
100
AcDbLine
 10
141.99694
 20
198.770336
 30
0.0
 11
141.99694
 21
182.858735
 31
0.0
  0
ARC
  5
37D
100
AcDbEntity
  8
0
  6
Continuous
 62
   174
100
AcDbCircle
 10
148.99694
 20
103.323399
 30
0.0
 40
8.75
100
AcDbArc
 50
45.0
 51
90.0
  0
LINE
  5
37E
100
AcDbEntity
  8
0
  6
HIDDEN
 62
   174
100
AcDbLine
 10
144.89694
 20
199.591584
 30
0.0
 11
144.89694
 21
199.609008
 31
0.0
  0
LINE
  5
37F
100
AcDbEntity
  8
0
  6
Continuous
 62
   174
100
AcDbLine
 10
153.49694
 20
199.991426
 30
0.0
 11
153.49694
 21
201.49797
 31
0.0
  0
LINE
  5
380
100
AcDbEntity
  8
0
  6
Continuous
 62
   174
100
AcDbLine
 10
138.99694
 20
172.156247
 30
0.0
 11
138.99694
 21
169.747632
 31
0.0
  0
LINE
  5
381
100
AcDbEntity
  8
0
  6
Continuous
 62
   174
100
AcDbLine
 10
159.49694
 20
181.661131
 30
0.0
 11
159.49694
 21
182.858735
 31
0.0
  0
LINE
  5
382
100
AcDbEntity
  8
0
  6
HIDDEN
 62
   174
100
AcDbLine
 10
155.99694
 20
193.806038
 30
0.0
 11
155.99694
 21
190.35706
 31
0.0
  0
LINE
  5
383
100
AcDbEntity
  8
0
  6
HIDDEN
 62
   174
100
AcDbLine
 10
158.99694
 20
182.023399
 30
0.0
 11
156.59694
 21
182.023399
 31
0.0
  0
LINE
  5
384
100
AcDbEntity
  8
0
  6
HIDDEN
 62
   174
100
AcDbLine
 10
141.39694
 20
155.86338
 30
0.0
 11
141.39694
 21
146.864076
 31
0.0
  0
LINE
  5
385
100
AcDbEntity
  8
0
  6
HIDDEN
 62
   174
100
AcDbLine
 10
155.99694
 20
177.876222
 30
0.0
 11
153.99694
 21
177.876222
 31
0.0
  0
LINE
  5
386
100
AcDbEntity
  8
0
  6
HIDDEN
 62
   174
100
AcDbLine
 10
141.39694
 20
155.823399
 30
0.0
 11
156.59694
 21
155.823399
 31
0.0
  0
LINE
  5
387
100
AcDbEntity
  8
0
  6
Continuous
 62
   174
100
AcDbLine
 10
158.99694
 20
193.846593
 30
0.0
 11
158.99694
 21
198.805718
 31
0.0
  0
ARC
  5
388
100
AcDbEntity
  8
0
  6
Continuous
 62
   174
100
AcDbCircle
 10
148.99694
 20
135.323399
 30
0.0
 40
8.75
100
AcDbArc
 50
44.060957
 51
45.697631
  0
ARC
  5
389
100
AcDbEntity
  8
0
  6
Continuous
 62
   174
100
AcDbCircle
 10
148.99694
 20
103.323399
 30
0.0
 40
9.73
100
AcDbArc
 50
-270.703454
 51
-270.0
  0
LINE
  5
38A
100
AcDbEntity
  8
0
  6
Continuous
 62
   174
100
AcDbLine
 10
144.49694
 20
212.011929
 30
0.0
 11
144.49694
 21
217.017317
 31
0.0
  0
LINE
  5
38B
100
AcDbEntity
  8
0
  6
HIDDEN
 62
   174
100
AcDbLine
 10
138.99694
 20
178.612633
 30
0.0
 11
138.99694
 21
181.100907
 31
0.0
  0
LINE
  5
38C
100
AcDbEntity
  8
0
  6
Continuous
 62
   174
100
AcDbLine
 10
153.99694
 20
182.287863
 30
0.0
 11
155.99694
 21
182.287863
 31
0.0
  0
LINE
  5
38D
100
AcDbEntity
  8
0
  6
HIDDEN
 62
   174
100
AcDbLine
 10
164.99694
 20
158.823399
 30
0.0
 11
156.59694
 21
158.823399
 31
0.0
  0
LINE
  5
38E
100
AcDbEntity
  8
0
  6
Continuous
 62
   174
100
AcDbLine
 10
155.99694
 20
179.656521
 30
0.0
 11
155.99694
 21
180.249178
 31
0.0
  0
ENDBLK
  5
38F
100
AcDbEntity
  8
0
100
AcDbBlockEnd
  0
BLOCK
  5
392
100
AcDbEntity
  8
0
100
AcDbBlockBegin
  2
*B4
 70
     0
 10
0.0
 20
0.0
 30
0.0
  3
*B4
  1

  0
LINE
  5
393
100
AcDbEntity
  8
0
  6
Continuous
 62
     0
100
AcDbLine
 10
287.025161
 20
272.259235
 30
0.0
 11
287.025161
 21
201.591396
 31
0.0
  0
SOLID
  5
394
100
AcDbEntity
  8
0
  6
Continuous
 62
     0
100
AcDbTrace
 10
286.025105
 20
224.589686
 30
0.0
 11
287.025161
 21
219.590006
 31
0.0
 12
288.025217
 22
224.589686
 32
0.0
 13
288.025217
 23
224.589686
 33
0.0
  0
SOLID
  5
395
100
AcDbEntity
  8
0
  6
Continuous
 62
     0
100
AcDbTrace
 10
288.025217
 20
206.591077
 30
0.0
 11
287.025161
 21
211.590457
 31
0.0
 12
286.025105
 22
206.591077
 32
0.0
 13
286.025105
 23
206.591077
 33
0.0
  0
ENDBLK
  5
396
100
AcDbEntity
  8
0
100
AcDbBlockEnd
  0
BLOCK
  5
399
100
AcDbEntity
  8
0
100
AcDbBlockBegin
  2
*B5
 70
     0
 10
0.0
 20
0.0
 30
0.0
  3
*B5
  1

  0
LINE
  5
39A
100
AcDbEntity
  8
0
  6
Continuous
 62
     0
100
AcDbLine
 10
301.025348
 20
261.01018
 30
0.0
 11
301.025348
 21
197.591472
 31
0.0
  0
SOLID
  5
39B
100
AcDbEntity
  8
0
  6
Continuous
 62
     0
100
AcDbTrace
 10
300.025291
 20
216.590137
 30
0.0
 11
301.025348
 21
211.590457
 31
0.0
 12
302.025104
 22
216.590137
 32
0.0
 13
302.025104
 23
216.590137
 33
0.0
  0
SOLID
  5
39C
100
AcDbEntity
  8
0
  6
Continuous
 62
     0
100
AcDbTrace
 10
302.025104
 20
202.591152
 30
0.0
 11
301.025348
 21
207.590833
 31
0.0
 12
300.025291
 22
202.591152
 32
0.0
 13
300.025291
 23
202.591152
 33
0.0
  0
ENDBLK
  5
39D
100
AcDbEntity
  8
0
100
AcDbBlockEnd
  0
BLOCK
  5
3A0
100
AcDbEntity
  8
0
100
AcDbBlockBegin
  2
*B6
 70
     0
 10
0.0
 20
0.0
 30
0.0
  3
*B6
  1

  0
LINE
  5
3A1
100
AcDbEntity
  8
0
  6
Continuous
 62
     0
100
AcDbLine
 10
310.025554
 20
219.590006
 30
0.0
 11
310.025554
 21
151.363878
 31
0.0
  0
SOLID
  5
3A2
100
AcDbEntity
  8
0
  6
Continuous
 62
     0
100
AcDbTrace
 10
311.02561
 20
214.590325
 30
0.0
 11
310.025554
 21
219.590006
 31
0.0
 12
309.025497
 22
214.590325
 32
0.0
 13
309.025497
 23
214.590325
 33
0.0
  0
SOLID
  5
3A3
100
AcDbEntity
  8
0
  6
Continuous
 62
     0
100
AcDbTrace
 10
309.025497
 20
156.363559
 30
0.0
 11
310.025554
 21
151.363878
 31
0.0
 12
311.02561
 22
156.363559
 32
0.0
 13
311.02561
 23
156.363559
 33
0.0
  0
ENDBLK
  5
3A4
100
AcDbEntity
  8
0
100
AcDbBlockEnd
  0
BLOCK
  5
3A7
100
AcDbEntity
  8
0
100
AcDbBlockBegin
  2
*B7
 70
     0
 10
0.0
 20
0.0
 30
0.0
  3
*B7
  1

  0
LINE
  5
3A8
100
AcDbEntity
  8
0
  6
Continuous
 62
     0
100
AcDbLine
 10
310.025554
 20
151.363878
 30
0.0
 11
310.025554
 21
83.368764
 31
0.0
  0
SOLID
  5
3A9
100
AcDbEntity
  8
0
  6
Continuous
 62
     0
100
AcDbTrace
 10
311.02561
 20
146.364198
 30
0.0
 11
310.025554
 21
151.363878
 31
0.0
 12
309.025497
 22
146.364198
 32
0.0
 13
309.025497
 23
146.364198
 33
0.0
  0
SOLID
  5
3AA
100
AcDbEntity
  8
0
  6
Continuous
 62
     0
100
AcDbTrace
 10
309.025497
 20
88.368444
 30
0.0
 11
310.025554
 21
83.368764
 31
0.0
 12
311.02561
 22
88.368444
 32
0.0
 13
311.02561
 23
88.368444
 33
0.0
  0
ENDBLK
  5
3AB
100
AcDbEntity
  8
0
100
AcDbBlockEnd
  0
BLOCK
  5
3AE
100
AcDbEntity
  8
0
100
AcDbBlockBegin
  2
*B8
 70
     0
 10
0.0
 20
0.0
 30
0.0
  3
*B8
  1

  0
LINE
  5
3AF
100
AcDbEntity
  8
0
  6
Continuous
 62
     0
100
AcDbLine
 10
213.265829
 20
63.378754
 30
0.0
 11
273.265901
 21
63.378754
 31
0.0
  0
SOLID
  5
3B0
100
AcDbEntity
  8
0
  6
Continuous
 62
     0
100
AcDbTrace
 10
218.26611
 20
64.37851
 30
0.0
 11
213.265829
 21
63.378754
 31
0.0
 12
218.26611
 22
62.378697
 32
0.0
 13
218.26611
 23
62.378697
 33
0.0
  0
SOLID
  5
3B1
100
AcDbEntity
  8
0
  6
Continuous
 62
     0
100
AcDbTrace
 10
268.26592
 20
62.378697
 30
0.0
 11
273.265901
 21
63.378754
 31
0.0
 12
268.26592
 22
64.37851
 32
0.0
 13
268.26592
 23
64.37851
 33
0.0
  0
ENDBLK
  5
3B2
100
AcDbEntity
  8
0
100
AcDbBlockEnd
  0
BLOCK
  5
3B5
100
AcDbEntity
  8
0
100
AcDbBlockBegin
  2
*B9
 70
     0
 10
0.0
 20
0.0
 30
0.0
  3
*B9
  1

  0
LINE
  5
3B6
100
AcDbEntity
  8
0
  6
Continuous
 62
     0
100
AcDbLine
 10
182.025261
 20
187.361398
 30
0.0
 11
182.025261
 21
83.368764
 31
0.0
  0
SOLID
  5
3B7
100
AcDbEntity
  8
0
  6
Continuous
 62
     0
100
AcDbTrace
 10
183.025317
 20
182.361717
 30
0.0
 11
182.025261
 21
187.361398
 31
0.0
 12
181.025205
 22
182.361717
 32
0.0
 13
181.025205
 23
182.361717
 33
0.0
  0
SOLID
  5
3B8
100
AcDbEntity
  8
0
  6
Continuous
 62
     0
100
AcDbTrace
 10
181.025205
 20
88.368444
 30
0.0
 11
182.025261
 21
83.368764
 31
0.0
 12
183.025317
 22
88.368444
 32
0.0
 13
183.025317
 23
88.368444
 33
0.0
  0
ENDBLK
  5
3B9
100
AcDbEntity
  8
0
100
AcDbBlockEnd
  0
BLOCK
  5
3BC
100
AcDbEntity
  8
0
100
AcDbBlockBegin
  2
*B10
 70
     0
 10
0.0
 20
0.0
 30
0.0
  3
*B10
  1

  0
LINE
  5
3BD
100
AcDbEntity
  8
0
  6
Continuous
 62
     0
100
AcDbLine
 10
133.022504
 20
65.378566
 30
0.0
 11
165.022502
 21
65.378566
 31
0.0
  0
SOLID
  5
3BE
100
AcDbEntity
  8
0
  6
Continuous
 62
     0
100
AcDbTrace
 10
138.022485
 20
66.378322
 30
0.0
 11
133.022504
 21
65.378566
 31
0.0
 12
138.022485
 22
64.37851
 32
0.0
 13
138.022485
 23
64.37851
 33
0.0
  0
SOLID
  5
3BF
100
AcDbEntity
  8
0
  6
Continuous
 62
     0
100
AcDbTrace
 10
160.022521
 20
64.37851
 30
0.0
 11
165.022502
 21
65.378566
 31
0.0
 12
160.022521
 22
66.378322
 32
0.0
 13
160.022521
 23
66.378322
 33
0.0
  0
ENDBLK
  5
3C0
100
AcDbEntity
  8
0
100
AcDbBlockEnd
  0
BLOCK
  5
3C3
100
AcDbEntity
  8
0
100
AcDbBlockBegin
  2
*B11
 70
     0
 10
0.0
 20
0.0
 30
0.0
  3
*B11
  1

  0
LINE
  5
3C4
100
AcDbEntity
  8
0
  6
Continuous
 62
     0
100
AcDbLine
 10
134.522738
 20
226.96681
 30
0.0
 11
163.522568
 21
226.96681
 31
0.0
  0
SOLID
  5
3C5
100
AcDbEntity
  8
0
  6
Continuous
 62
     0
100
AcDbTrace
 10
139.522719
 20
225.966754
 30
0.0
 11
144.5227
 21
226.96681
 31
0.0
 12
139.522719
 22
227.966866
 32
0.0
 13
139.522719
 23
227.966866
 33
0.0
  0
SOLID
  5
3C6
100
AcDbEntity
  8
0
  6
Continuous
 62
     0
100
AcDbTrace
 10
158.522587
 20
227.966866
 30
0.0
 11
153.522606
 21
226.96681
 31
0.0
 12
158.522587
 22
225.966754
 32
0.0
 13
158.522587
 23
225.966754
 33
0.0
  0
ENDBLK
  5
3C7
100
AcDbEntity
  8
0
100
AcDbBlockEnd
  0
BLOCK
  5
3CA
100
AcDbEntity
  8
0
100
AcDbBlockBegin
  2
*B12
 70
     0
 10
0.0
 20
0.0
 30
0.0
  3
*B12
  1

  0
LINE
  5
3CB
100
AcDbEntity
  8
0
  6
Continuous
 62
     0
100
AcDbLine
 10
199.025617
 20
177.967658
 30
0.0
 11
199.025617
 21
136.865015
 31
0.0
  0
SOLID
  5
3CC
100
AcDbEntity
  8
0
  6
Continuous
 62
     0
100
AcDbTrace
 10
198.02556
 20
160.863061
 30
0.0
 11
199.025617
 21
155.86338
 31
0.0
 12
200.025673
 22
160.863061
 32
0.0
 13
200.025673
 23
160.863061
 33
0.0
  0
SOLID
  5
3CD
100
AcDbEntity
  8
0
  6
Continuous
 62
     0
100
AcDbTrace
 10
200.025673
 20
141.864395
 30
0.0
 11
199.025617
 21
146.864076
 31
0.0
 12
198.02556
 22
141.864395
 32
0.0
 13
198.02556
 23
141.864395
 33
0.0
  0
ENDBLK
  5
3CE
100
AcDbEntity
  8
0
100
AcDbBlockEnd
  0
BLOCK
  5
3D1
100
AcDbEntity
  8
0
100
AcDbBlockBegin
  2
*B13
 70
     0
 10
0.0
 20
0.0
 30
0.0
  3
*B13
  1

  0
LINE
  5
3D2
100
AcDbEntity
  8
0
  6
Continuous
 62
     0
100
AcDbLine
 10
200.025673
 20
119.366283
 30
0.0
 11
200.025673
 21
83.368764
 31
0.0
  0
SOLID
  5
3D3
100
AcDbEntity
  8
0
  6
Continuous
 62
     0
100
AcDbTrace
 10
201.025729
 20
114.366603
 30
0.0
 11
200.025673
 21
119.366283
 31
0.0
 12
199.025617
 22
114.366603
 32
0.0
 13
199.025617
 23
114.366603
 33
0.0
  0
SOLID
  5
3D4
100
AcDbEntity
  8
0
  6
Continuous
 62
     0
100
AcDbTrace
 10
199.025617
 20
88.368444
 30
0.0
 11
200.025673
 21
83.368764
 31
0.0
 12
201.025729
 22
88.368444
 32
0.0
 13
201.025729
 23
88.368444
 33
0.0
  0
ENDBLK
  5
3D5
100
AcDbEntity
  8
0
100
AcDbBlockEnd
  0
BLOCK
  5
3D8
100
AcDbEntity
  8
0
100
AcDbBlockBegin
  2
*B14
 70
     0
 10
0.0
 20
0.0
 30
0.0
  3
*B14
  1

  0
LINE
  5
3D9
100
AcDbEntity
  8
0
  6
Continuous
 62
     0
100
AcDbLine
 10
236.064048
 20
229.366765
 30
0.0
 11
276.064196
 21
229.366765
 31
0.0
  0
SOLID
  5
3DA
100
AcDbEntity
  8
0
  6
Continuous
 62
     0
100
AcDbTrace
 10
241.064029
 20
228.366709
 30
0.0
 11
246.06401
 21
229.366765
 31
0.0
 12
241.064029
 22
230.366521
 32
0.0
 13
241.064029
 23
230.366521
 33
0.0
  0
SOLID
  5
3DB
100
AcDbEntity
  8
0
  6
Continuous
 62
     0
100
AcDbTrace
 10
271.064215
 20
230.366521
 30
0.0
 11
266.063933
 21
229.366765
 31
0.0
 12
271.064215
 22
228.366709
 32
0.0
 13
271.064215
 23
228.366709
 33
0.0
  0
ENDBLK
  5
3DC
100
AcDbEntity
  8
0
100
AcDbBlockEnd
  0
BLOCK
  5
3DF
100
AcDbEntity
  8
0
100
AcDbBlockBegin
  2
*B15
 70
     0
 10
0.0
 20
0.0
 30
0.0
  3
*B15
  1

  0
LINE
  5
3E0
100
AcDbEntity
  8
0
  6
Continuous
 62
     0
100
AcDbLine
 10
227.266016
 20
137.373304
 30
0.0
 11
259.266014
 21
137.373304
 31
0.0
  0
SOLID
  5
3E1
100
AcDbEntity
  8
0
  6
Continuous
 62
     0
100
AcDbTrace
 10
232.265997
 20
138.37306
 30
0.0
 11
227.266016
 21
137.373304
 31
0.0
 12
232.265997
 22
136.373248
 32
0.0
 13
232.265997
 23
136.373248
 33
0.0
  0
SOLID
  5
3E2
100
AcDbEntity
  8
0
  6
Continuous
 62
     0
100
AcDbTrace
 10
254.266033
 20
136.373248
 30
0.0
 11
259.266014
 21
137.373304
 31
0.0
 12
254.266033
 22
138.37306
 32
0.0
 13
254.266033
 23
138.37306
 33
0.0
  0
ENDBLK
  5
3E3
100
AcDbEntity
  8
0
100
AcDbBlockEnd
  0
BLOCK
  5
3E6
100
AcDbEntity
  8
0
100
AcDbBlockBegin
  2
*B16
 70
     0
 10
0.0
 20
0.0
 30
0.0
  3
*B16
  1

  0
LINE
  5
3E7
100
AcDbEntity
  8
0
  6
Continuous
 62
     0
100
AcDbLine
 10
256.063972
 20
247.365375
 30
0.0
 11
213.265829
 21
247.365375
 31
0.0
  0
SOLID
  5
3E8
100
AcDbEntity
  8
0
  6
Continuous
 62
     0
100
AcDbTrace
 10
251.063991
 20
246.365318
 30
0.0
 11
256.063972
 21
247.365375
 31
0.0
 12
251.063991
 22
248.36513
 32
0.0
 13
251.063991
 23
248.36513
 33
0.0
  0
SOLID
  5
3E9
100
AcDbEntity
  8
0
  6
Continuous
 62
     0
100
AcDbTrace
 10
218.26611
 20
248.36513
 30
0.0
 11
213.265829
 21
247.365375
 31
0.0
 12
218.26611
 22
246.365318
 32
0.0
 13
218.26611
 23
246.365318
 33
0.0
  0
ENDBLK
  5
3EA
100
AcDbEntity
  8
0
100
AcDbBlockEnd
  0
BLOCK
  5
3ED
100
AcDbEntity
  8
0
100
AcDbBlockBegin
  2
*B17
 70
     0
 10
0.0
 20
0.0
 30
0.0
  3
*B17
  1

  0
LINE
  5
3EE
100
AcDbEntity
  8
0
  6
Continuous
 62
     0
100
AcDbLine
 10
121.025734
 20
84.618759
 30
0.0
 11
121.025734
 21
140.937037
 31
0.0
  0
SOLID
  5
3EF
100
AcDbEntity
  8
0
  6
Continuous
 62
     0
100
AcDbTrace
 10
122.02579
 20
89.61844
 30
0.0
 11
121.025734
 21
94.61782
 31
0.0
 12
120.025678
 22
89.61844
 32
0.0
 13
120.025678
 23
89.61844
 33
0.0
  0
SOLID
  5
3F0
100
AcDbEntity
  8
0
  6
Continuous
 62
     0
100
AcDbTrace
 10
120.025678
 20
117.116232
 30
0.0
 11
121.025734
 21
112.116551
 31
0.0
 12
122.02579
 22
117.116232
 32
0.0
 13
122.02579
 23
117.116232
 33
0.0
  0
ENDBLK
  5
3F1
100
AcDbEntity
  8
0
100
AcDbBlockEnd
  0
BLOCK
  5
3F4
100
AcDbEntity
  8
0
100
AcDbBlockBegin
  2
*B18
 70
     0
 10
0.0
 20
0.0
 30
0.0
  3
*B18
  1

  0
LINE
  5
3F5
100
AcDbEntity
  8
0
  6
Continuous
 62
     8
100
AcDbLine
 10
251.265864
 20
103.367186
 30
0.0
 11
261.766005
 21
103.367186
 31
0.0
  0
LINE
  5
3F6
100
AcDbEntity
  8
0
  6
Continuous
 62
     8
100
AcDbLine
 10
263.765817
 20
103.367186
 30
0.0
 11
264.765873
 21
103.367186
 31
0.0
  0
LINE
  5
3F7
100
AcDbEntity
  8
0
  6
Continuous
 62
     8
100
AcDbLine
 10
266.765985
 20
103.367186
 30
0.0
 11
277.265825
 21
103.367186
 31
0.0
  0
ENDBLK
  5
3F8
100
AcDbEntity
  8
0
100
AcDbBlockEnd
  0
BLOCK
  5
3FB
100
AcDbEntity
  8
0
100
AcDbBlockBegin
  2
*B19
 70
     0
 10
0.0
 20
0.0
 30
0.0
  3
*B19
  1

  0
LINE
  5
3FC
100
AcDbEntity
  8
0
  6
Continuous
 62
     8
100
AcDbLine
 10
136.272612
 20
103.367186
 30
0.0
 11
146.022635
 21
103.367186
 31
0.0
  0
LINE
  5
3FD
100
AcDbEntity
  8
0
  6
Continuous
 62
     8
100
AcDbLine
 10
152.022672
 20
103.367186
 30
0.0
 11
161.772695
 21
103.367186
 31
0.0
  0
ENDBLK
  5
3FE
100
AcDbEntity
  8
0
100
AcDbBlockEnd
  0
BLOCK
  5
401
100
AcDbEntity
  8
0
100
AcDbBlockBegin
  2
*B20
 70
     0
 10
0.0
 20
0.0
 30
0.0
  3
*B20
  1

  0
LINE
  5
402
100
AcDbEntity
  8
0
  6
Continuous
 62
     8
100
AcDbLine
 10
275.606074
 20
207.590833
 30
0.0
 11
303.02516
 21
207.590833
 31
0.0
  0
ENDBLK
  5
403
100
AcDbEntity
  8
0
100
AcDbBlockEnd
  0
BLOCK
  5
406
100
AcDbEntity
  8
0
100
AcDbBlockBegin
  2
*B21
 70
     0
 10
0.0
 20
0.0
 30
0.0
  3
*B21
  1

  0
LINE
  5
407
100
AcDbEntity
  8
0
  6
Continuous
 62
     8
100
AcDbLine
 10
246.06401
 20
211.590457
 30
0.0
 11
246.06401
 21
231.366577
 31
0.0
  0
ENDBLK
  5
408
100
AcDbEntity
  8
0
100
AcDbBlockEnd
  0
BLOCK
  5
40B
100
AcDbEntity
  8
0
100
AcDbBlockBegin
  2
*B22
 70
     0
 10
0.0
 20
0.0
 30
0.0
  3
*B22
  1

  0
LINE
  5
40C
100
AcDbEntity
  8
0
  6
Continuous
 62
     8
100
AcDbLine
 10
256.063972
 20
245.365562
 30
0.0
 11
256.063972
 21
249.365187
 31
0.0
  0
LINE
  5
40D
100
AcDbEntity
  8
0
  6
Continuous
 62
     8
100
AcDbLine
 10
256.063972
 20
195.59166
 30
0.0
 11
256.063972
 21
206.591077
 31
0.0
  0
LINE
  5
40E
100
AcDbEntity
  8
0
  6
Continuous
 62
     8
100
AcDbLine
 10
256.063972
 20
212.590513
 30
0.0
 11
256.063972
 21
220.182409
 31
0.0
  0
LINE
  5
40F
100
AcDbEntity
  8
0
  6
Continuous
 62
     8
100
AcDbLine
 10
256.063972
 20
222.182221
 30
0.0
 11
256.063972
 21
223.182278
 31
0.0
  0
LINE
  5
410
100
AcDbEntity
  8
0
  6
Continuous
 62
     8
100
AcDbLine
 10
256.063972
 20
225.18209
 30
0.0
 11
256.063972
 21
232.773986
 31
0.0
  0
LINE
  5
411
100
AcDbEntity
  8
0
  6
Continuous
 62
     8
100
AcDbLine
 10
256.063972
 20
234.773798
 30
0.0
 11
256.063972
 21
235.773854
 31
0.0
  0
LINE
  5
412
100
AcDbEntity
  8
0
  6
Continuous
 62
     8
100
AcDbLine
 10
256.063972
 20
237.773666
 30
0.0
 11
256.063972
 21
245.365562
 31
0.0
  0
ENDBLK
  5
413
100
AcDbEntity
  8
0
100
AcDbBlockEnd
  0
BLOCK
  5
416
100
AcDbEntity
  8
0
100
AcDbBlockBegin
  2
*B23
 70
     0
 10
0.0
 20
0.0
 30
0.0
  3
*B23
  1

  0
LINE
  5
417
100
AcDbEntity
  8
0
  6
Continuous
 62
     8
100
AcDbLine
 10
266.063933
 20
211.590457
 30
0.0
 11
266.063933
 21
231.366577
 31
0.0
  0
ENDBLK
  5
418
100
AcDbEntity
  8
0
100
AcDbBlockEnd
  0
BLOCK
  5
41B
100
AcDbEntity
  8
0
100
AcDbBlockBegin
  2
*B24
 70
     0
 10
0.0
 20
0.0
 30
0.0
  3
*B24
  1

  0
LINE
  5
41C
100
AcDbEntity
  8
0
  6
Continuous
 62
     8
100
AcDbLine
 10
258.908529
 20
183.806677
 30
0.0
 11
258.908529
 21
187.806301
 31
0.0
  0
LINE
  5
41D
100
AcDbEntity
  8
0
  6
Continuous
 62
     8
100
AcDbLine
 10
258.908529
 20
193.806038
 30
0.0
 11
258.908529
 21
197.805662
 31
0.0
  0
ENDBLK
  5
41E
100
AcDbEntity
  8
0
100
AcDbBlockEnd
  0
BLOCK
  5
421
100
AcDbEntity
  8
0
100
AcDbBlockBegin
  2
*B25
 70
     0
 10
0.0
 20
0.0
 30
0.0
  3
*B25
  1

  0
LINE
  5
422
100
AcDbEntity
  8
0
  6
Continuous
 62
     8
100
AcDbLine
 10
149.022503
 20
79.36914
 30
0.0
 11
149.022503
 21
87.368388
 31
0.0
  0
LINE
  5
423
100
AcDbEntity
  8
0
  6
Continuous
 62
     8
100
AcDbLine
 10
149.022503
 20
89.3682
 30
0.0
 11
149.022503
 21
90.368257
 31
0.0
  0
LINE
  5
424
100
AcDbEntity
  8
0
  6
Continuous
 62
     8
100
AcDbLine
 10
149.022503
 20
92.368069
 30
0.0
 11
149.022503
 21
100.367618
 31
0.0
  0
LINE
  5
425
100
AcDbEntity
  8
0
  6
Continuous
 62
     8
100
AcDbLine
 10
149.022503
 20
106.367054
 30
0.0
 11
149.022503
 21
116.866293
 31
0.0
  0
LINE
  5
426
100
AcDbEntity
  8
0
  6
Continuous
 62
     8
100
AcDbLine
 10
149.022503
 20
118.866105
 30
0.0
 11
149.022503
 21
119.866161
 31
0.0
  0
LINE
  5
427
100
AcDbEntity
  8
0
  6
Continuous
 62
     8
100
AcDbLine
 10
149.022503
 20
121.865973
 30
0.0
 11
149.022503
 21
132.365212
 31
0.0
  0
LINE
  5
428
100
AcDbEntity
  8
0
  6
Continuous
 62
     8
100
AcDbLine
 10
149.022503
 20
138.364649
 30
0.0
 11
149.022503
 21
147.864132
 31
0.0
  0
LINE
  5
429
100
AcDbEntity
  8
0
  6
Continuous
 62
     8
100
AcDbLine
 10
149.022503
 20
149.863944
 30
0.0
 11
149.022503
 21
150.864
 31
0.0
  0
LINE
  5
42A
100
AcDbEntity
  8
0
  6
Continuous
 62
     8
100
AcDbLine
 10
149.022503
 20
152.863812
 30
0.0
 11
149.022503
 21
162.362995
 31
0.0
  0
LINE
  5
42B
100
AcDbEntity
  8
0
  6
Continuous
 62
     8
100
AcDbLine
 10
149.022503
 20
164.362807
 30
0.0
 11
149.022503
 21
165.362864
 31
0.0
  0
LINE
  5
42C
100
AcDbEntity
  8
0
  6
Continuous
 62
     8
100
AcDbLine
 10
149.022503
 20
167.362676
 30
0.0
 11
149.022503
 21
176.861858
 31
0.0
  0
LINE
  5
42D
100
AcDbEntity
  8
0
  6
Continuous
 62
     8
100
AcDbLine
 10
149.022503
 20
178.861971
 30
0.0
 11
149.022503
 21
179.861727
 31
0.0
  0
LINE
  5
42E
100
AcDbEntity
  8
0
  6
Continuous
 62
     8
100
AcDbLine
 10
149.022503
 20
181.861539
 30
0.0
 11
149.022503
 21
191.361022
 31
0.0
  0
ENDBLK
  5
42F
100
AcDbEntity
  8
0
100
AcDbBlockEnd
  0
BLOCK
  5
432
100
AcDbEntity
  8
0
100
AcDbBlockBegin
  2
*B26
 70
     0
 10
0.0
 20
0.0
 30
0.0
  3
*B26
  1

  0
LINE
  5
433
100
AcDbEntity
  8
0
  6
Continuous
 62
     8
100
AcDbLine
 10
129.022579
 20
151.363878
 30
0.0
 11
139.022541
 21
151.363878
 31
0.0
  0
LINE
  5
434
100
AcDbEntity
  8
0
  6
Continuous
 62
     8
100
AcDbLine
 10
141.022654
 20
151.363878
 30
0.0
 11
142.02271
 21
151.363878
 31
0.0
  0
LINE
  5
435
100
AcDbEntity
  8
0
  6
Continuous
 62
     8
100
AcDbLine
 10
144.022522
 20
151.363878
 30
0.0
 11
154.022484
 21
151.363878
 31
0.0
  0
LINE
  5
436
100
AcDbEntity
  8
0
  6
Continuous
 62
     8
100
AcDbLine
 10
156.022596
 20
151.363878
 30
0.0
 11
157.022653
 21
151.363878
 31
0.0
  0
LINE
  5
437
100
AcDbEntity
  8
0
  6
Continuous
 62
     8
100
AcDbLine
 10
159.022465
 20
151.363878
 30
0.0
 11
169.022727
 21
151.363878
 31
0.0
  0
ENDBLK
  5
438
100
AcDbEntity
  8
0
100
AcDbBlockEnd
  0
BLOCK
  5
43B
100
AcDbEntity
  8
0
100
AcDbBlockBegin
  2
*B27
 70
     0
 10
0.0
 20
0.0
 30
0.0
  3
*B27
  1

  0
LINE
  5
43C
100
AcDbEntity
  8
0
  6
Continuous
 62
     8
100
AcDbLine
 10
215.76612
 20
151.363878
 30
0.0
 11
224.265847
 21
151.363878
 31
0.0
  0
LINE
  5
43D
100
AcDbEntity
  8
0
  6
Continuous
 62
     8
100
AcDbLine
 10
230.265884
 20
151.363878
 30
0.0
 11
238.765912
 21
151.363878
 31
0.0
  0
ENDBLK
  5
43E
100
AcDbEntity
  8
0
100
AcDbBlockEnd
  0
BLOCK
  5
441
100
AcDbEntity
  8
0
100
AcDbBlockBegin
  2
*B28
 70
     0
 10
0.0
 20
0.0
 30
0.0
  3
*B28
  1

  0
LINE
  5
442
100
AcDbEntity
  8
0
  6
Continuous
 62
     8
100
AcDbLine
 10
308.025441
 20
151.363878
 30
0.0
 11
312.025666
 21
151.363878
 31
0.0
  0
LINE
  5
443
100
AcDbEntity
  8
0
  6
Continuous
 62
     8
100
AcDbLine
 10
247.765818
 20
151.363878
 30
0.0
 11
256.265845
 21
151.363878
 31
0.0
  0
LINE
  5
444
100
AcDbEntity
  8
0
  6
Continuous
 62
     8
100
AcDbLine
 10
262.265882
 20
151.363878
 30
0.0
 11
269.956012
 21
151.363878
 31
0.0
  0
LINE
  5
445
100
AcDbEntity
  8
0
  6
Continuous
 62
     8
100
AcDbLine
 10
271.955824
 20
151.363878
 30
0.0
 11
272.95588
 21
151.363878
 31
0.0
  0
LINE
  5
446
100
AcDbEntity
  8
0
  6
Continuous
 62
     8
100
AcDbLine
 10
274.955993
 20
151.363878
 30
0.0
 11
282.645822
 21
151.363878
 31
0.0
  0
LINE
  5
447
100
AcDbEntity
  8
0
  6
Continuous
 62
     8
100
AcDbLine
 10
284.645634
 20
151.363878
 30
0.0
 11
285.64569
 21
151.363878
 31
0.0
  0
LINE
  5
448
100
AcDbEntity
  8
0
  6
Continuous
 62
     8
100
AcDbLine
 10
287.645802
 20
151.363878
 30
0.0
 11
295.335631
 21
151.363878
 31
0.0
  0
LINE
  5
449
100
AcDbEntity
  8
0
  6
Continuous
 62
     8
100
AcDbLine
 10
297.335744
 20
151.363878
 30
0.0
 11
298.3358
 21
151.363878
 31
0.0
  0
LINE
  5
44A
100
AcDbEntity
  8
0
  6
Continuous
 62
     8
100
AcDbLine
 10
300.335612
 20
151.363878
 30
0.0
 11
308.025441
 21
151.363878
 31
0.0
  0
ENDBLK
  5
44B
100
AcDbEntity
  8
0
100
AcDbBlockEnd
  0
BLOCK
  5
44E
100
AcDbEntity
  8
0
100
AcDbBlockBegin
  2
*B29
 70
     0
 10
0.0
 20
0.0
 30
0.0
  3
*B29
  1

  0
LINE
  5
44F
100
AcDbEntity
  8
0
  6
Continuous
 62
     8
100
AcDbLine
 10
213.265829
 20
61.378641
 30
0.0
 11
213.265829
 21
81.368952
 31
0.0
  0
LINE
  5
450
100
AcDbEntity
  8
0
  6
Continuous
 62
     8
100
AcDbLine
 10
213.265829
 20
189.36121
 30
0.0
 11
213.265829
 21
249.365187
 31
0.0
  0
ENDBLK
  5
451
100
AcDbEntity
  8
0
100
AcDbBlockEnd
  0
BLOCK
  5
454
100
AcDbEntity
  8
0
100
AcDbBlockBegin
  2
*B30
 70
     0
 10
0.0
 20
0.0
 30
0.0
  3
*B30
  1

  0
LINE
  5
455
100
AcDbEntity
  8
0
  6
Continuous
 62
     8
100
AcDbLine
 10
243.266015
 20
79.36914
 30
0.0
 11
243.266015
 21
87.368388
 31
0.0
  0
LINE
  5
456
100
AcDbEntity
  8
0
  6
Continuous
 62
     8
100
AcDbLine
 10
243.266015
 20
89.3682
 30
0.0
 11
243.266015
 21
90.368257
 31
0.0
  0
LINE
  5
457
100
AcDbEntity
  8
0
  6
Continuous
 62
     8
100
AcDbLine
 10
243.266015
 20
92.368069
 30
0.0
 11
243.266015
 21
100.367618
 31
0.0
  0
LINE
  5
458
100
AcDbEntity
  8
0
  6
Continuous
 62
     8
100
AcDbLine
 10
243.266015
 20
102.36743
 30
0.0
 11
243.266015
 21
103.367186
 31
0.0
  0
LINE
  5
459
100
AcDbEntity
  8
0
  6
Continuous
 62
     8
100
AcDbLine
 10
243.266015
 20
105.367298
 30
0.0
 11
243.266015
 21
113.366547
 31
0.0
  0
LINE
  5
45A
100
AcDbEntity
  8
0
  6
Continuous
 62
     8
100
AcDbLine
 10
243.266015
 20
115.366359
 30
0.0
 11
243.266015
 21
116.366415
 31
0.0
  0
LINE
  5
45B
100
AcDbEntity
  8
0
  6
Continuous
 62
     8
100
AcDbLine
 10
243.266015
 20
118.366227
 30
0.0
 11
243.266015
 21
126.365776
 31
0.0
  0
LINE
  5
45C
100
AcDbEntity
  8
0
  6
Continuous
 62
     8
100
AcDbLine
 10
243.266015
 20
128.365588
 30
0.0
 11
243.266015
 21
129.365344
 31
0.0
  0
LINE
  5
45D
100
AcDbEntity
  8
0
  6
Continuous
 62
     8
100
AcDbLine
 10
243.266015
 20
131.365156
 30
0.0
 11
243.266015
 21
139.364705
 31
0.0
  0
LINE
  5
45E
100
AcDbEntity
  8
0
  6
Continuous
 62
     8
100
AcDbLine
 10
243.266015
 20
141.364517
 30
0.0
 11
243.266015
 21
142.364573
 31
0.0
  0
LINE
  5
45F
100
AcDbEntity
  8
0
  6
Continuous
 62
     8
100
AcDbLine
 10
243.266015
 20
144.364386
 30
0.0
 11
243.266015
 21
152.363634
 31
0.0
  0
LINE
  5
460
100
AcDbEntity
  8
0
  6
Continuous
 62
     8
100
AcDbLine
 10
243.266015
 20
154.363747
 30
0.0
 11
243.266015
 21
155.363503
 31
0.0
  0
LINE
  5
461
100
AcDbEntity
  8
0
  6
Continuous
 62
     8
100
AcDbLine
 10
243.266015
 20
157.363315
 30
0.0
 11
243.266015
 21
165.362864
 31
0.0
  0
LINE
  5
462
100
AcDbEntity
  8
0
  6
Continuous
 62
     8
100
AcDbLine
 10
243.266015
 20
167.362676
 30
0.0
 11
243.266015
 21
168.362732
 31
0.0
  0
LINE
  5
463
100
AcDbEntity
  8
0
  6
Continuous
 62
     8
100
AcDbLine
 10
243.266015
 20
170.362544
 30
0.0
 11
243.266015
 21
178.361793
 31
0.0
  0
LINE
  5
464
100
AcDbEntity
  8
0
  6
Continuous
 62
     8
100
AcDbLine
 10
243.266015
 20
180.361605
 30
0.0
 11
243.266015
 21
181.361661
 31
0.0
  0
LINE
  5
465
100
AcDbEntity
  8
0
  6
Continuous
 62
     8
100
AcDbLine
 10
243.266015
 20
183.361473
 30
0.0
 11
243.266015
 21
191.361022
 31
0.0
  0
ENDBLK
  5
466
100
AcDbEntity
  8
0
100
AcDbBlockEnd
  0
BLOCK
  5
469
100
AcDbEntity
  8
0
100
AcDbBlockBegin
  2
*B31
 70
     0
 10
0.0
 20
0.0
 30
0.0
  3
*B31
  1

  0
LINE
  5
46A
100
AcDbEntity
  8
0
  6
Continuous
 62
     8
100
AcDbLine
 10
165.022502
 20
63.378754
 30
0.0
 11
165.022502
 21
81.368952
 31
0.0
  0
ENDBLK
  5
46B
100
AcDbEntity
  8
0
100
AcDbBlockEnd
  0
BLOCK
  5
46E
100
AcDbEntity
  8
0
100
AcDbBlockBegin
  2
*B32
 70
     0
 10
0.0
 20
0.0
 30
0.0
  3
*B32
  1

  0
LINE
  5
46F
100
AcDbEntity
  8
0
  6
Continuous
 62
     8
100
AcDbLine
 10
242.064085
 20
209.590645
 30
0.0
 11
253.064103
 21
209.590645
 31
0.0
  0
LINE
  5
470
100
AcDbEntity
  8
0
  6
Continuous
 62
     8
100
AcDbLine
 10
259.06414
 20
209.590645
 30
0.0
 11
270.064158
 21
209.590645
 31
0.0
  0
ENDBLK
  5
471
100
AcDbEntity
  8
0
100
AcDbBlockEnd
  0
BLOCK
  5
474
100
AcDbEntity
  8
0
100
AcDbBlockBegin
  2
*B33
 70
     0
 10
0.0
 20
0.0
 30
0.0
  3
*B33
  1

  0
LINE
  5
475
100
AcDbEntity
  8
0
  6
Continuous
 62
     8
100
AcDbLine
 10
180.025449
 20
83.368764
 30
0.0
 11
211.266017
 21
83.368764
 31
0.0
  0
LINE
  5
476
100
AcDbEntity
  8
0
  6
Continuous
 62
     8
100
AcDbLine
 10
275.266013
 20
83.368764
 30
0.0
 11
312.025666
 21
83.368764
 31
0.0
  0
ENDBLK
  5
477
100
AcDbEntity
  8
0
100
AcDbBlockEnd
  0
BLOCK
  5
47A
100
AcDbEntity
  8
0
100
AcDbBlockBegin
  2
*B34
 70
     0
 10
0.0
 20
0.0
 30
0.0
  3
*B34
  1

  0
LINE
  5
47B
100
AcDbEntity
  8
0
  6
Continuous
 62
     8
100
AcDbLine
 10
275.56582
 20
211.590457
 30
0.0
 11
303.02516
 21
211.590457
 31
0.0
  0
ENDBLK
  5
47C
100
AcDbEntity
  8
0
100
AcDbBlockEnd
  0
BLOCK
  5
47F
100
AcDbEntity
  8
0
100
AcDbBlockBegin
  2
*B35
 70
     0
 10
0.0
 20
0.0
 30
0.0
  3
*B35
  1

  0
LINE
  5
480
100
AcDbEntity
  8
0
  6
Continuous
 62
     8
100
AcDbLine
 10
251.908436
 20
190.80617
 30
0.0
 11
255.90836
 21
190.80617
 31
0.0
  0
LINE
  5
481
100
AcDbEntity
  8
0
  6
Continuous
 62
     8
100
AcDbLine
 10
261.908398
 20
190.80617
 30
0.0
 11
265.908322
 21
190.80617
 31
0.0
  0
ENDBLK
  5
482
100
AcDbEntity
  8
0
100
AcDbBlockEnd
  0
BLOCK
  5
485
100
AcDbEntity
  8
0
100
AcDbBlockBegin
  2
*B36
 70
     0
 10
0.0
 20
0.0
 30
0.0
  3
*B36
  1

  0
LINE
  5
486
100
AcDbEntity
  8
0
  6
Continuous
 62
     8
100
AcDbLine
 10
119.025621
 20
94.61782
 30
0.0
 11
147.022691
 21
94.61782
 31
0.0
  0
ENDBLK
  5
487
100
AcDbEntity
  8
0
100
AcDbBlockEnd
  0
BLOCK
  5
48A
100
AcDbEntity
  8
0
100
AcDbBlockBegin
  2
*B37
 70
     0
 10
0.0
 20
0.0
 30
0.0
  3
*B37
  1

  0
LINE
  5
48B
100
AcDbEntity
  8
0
  6
Continuous
 62
     8
100
AcDbLine
 10
220.265923
 20
172.062249
 30
0.0
 11
220.265923
 21
176.062174
 31
0.0
  0
LINE
  5
48C
100
AcDbEntity
  8
0
  6
Continuous
 62
     8
100
AcDbLine
 10
220.265923
 20
182.06161
 30
0.0
 11
220.265923
 21
186.061234
 31
0.0
  0
ENDBLK
  5
48D
100
AcDbEntity
  8
0
100
AcDbBlockEnd
  0
BLOCK
  5
490
100
AcDbEntity
  8
0
100
AcDbBlockBegin
  2
*B38
 70
     0
 10
0.0
 20
0.0
 30
0.0
  3
*B38
  1

  0
LINE
  5
491
100
AcDbEntity
  8
0
  6
Continuous
 62
     8
100
AcDbLine
 10
119.025621
 20
112.116551
 30
0.0
 11
147.022691
 21
112.116551
 31
0.0
  0
ENDBLK
  5
492
100
AcDbEntity
  8
0
100
AcDbBlockEnd
  0
BLOCK
  5
495
100
AcDbEntity
  8
0
100
AcDbBlockBegin
  2
*B39
 70
     0
 10
0.0
 20
0.0
 30
0.0
  3
*B39
  1

  0
LINE
  5
496
100
AcDbEntity
  8
0
  6
Continuous
 62
     8
100
AcDbLine
 10
273.265901
 20
61.378641
 30
0.0
 11
273.265901
 21
81.368952
 31
0.0
  0
ENDBLK
  5
497
100
AcDbEntity
  8
0
100
AcDbBlockEnd
  0
BLOCK
  5
49A
100
AcDbEntity
  8
0
100
AcDbBlockBegin
  2
*B40
 70
     0
 10
0.0
 20
0.0
 30
0.0
  3
*B40
  1

  0
LINE
  5
49B
100
AcDbEntity
  8
0
  6
Continuous
 62
     8
100
AcDbLine
 10
144.5227
 20
221.186671
 30
0.0
 11
144.5227
 21
228.966622
 31
0.0
  0
ENDBLK
  5
49C
100
AcDbEntity
  8
0
100
AcDbBlockEnd
  0
BLOCK
  5
49F
100
AcDbEntity
  8
0
100
AcDbBlockBegin
  2
*B41
 70
     0
 10
0.0
 20
0.0
 30
0.0
  3
*B41
  1

  0
LINE
  5
4A0
100
AcDbEntity
  8
0
  6
Continuous
 62
     8
100
AcDbLine
 10
180.025449
 20
187.361398
 30
0.0
 11
211.266017
 21
187.361398
 31
0.0
  0
ENDBLK
  5
4A1
100
AcDbEntity
  8
0
100
AcDbBlockEnd
  0
BLOCK
  5
4A4
100
AcDbEntity
  8
0
100
AcDbBlockBegin
  2
*B42
 70
     0
 10
0.0
 20
0.0
 30
0.0
  3
*B42
  1

  0
LINE
  5
4A5
100
AcDbEntity
  8
0
  6
Continuous
 62
     8
100
AcDbLine
 10
197.025504
 20
146.864076
 30
0.0
 11
225.265903
 21
146.864076
 31
0.0
  0
ENDBLK
  5
4A6
100
AcDbEntity
  8
0
100
AcDbBlockEnd
  0
BLOCK
  5
4A9
100
AcDbEntity
  8
0
100
AcDbBlockBegin
  2
*B43
 70
     0
 10
0.0
 20
0.0
 30
0.0
  3
*B43
  1

  0
LINE
  5
4AA
100
AcDbEntity
  8
0
  6
Continuous
 62
     8
100
AcDbLine
 10
133.022504
 20
63.378754
 30
0.0
 11
133.022504
 21
81.368952
 31
0.0
  0
ENDBLK
  5
4AB
100
AcDbEntity
  8
0
100
AcDbBlockEnd
  0
BLOCK
  5
4AE
100
AcDbEntity
  8
0
100
AcDbBlockBegin
  2
*B44
 70
     0
 10
0.0
 20
0.0
 30
0.0
  3
*B44
  1

  0
LINE
  5
4AF
100
AcDbEntity
  8
0
  6
Continuous
 62
     8
100
AcDbLine
 10
251.265864
 20
135.365081
 30
0.0
 11
261.766005
 21
135.365081
 31
0.0
  0
LINE
  5
4B0
100
AcDbEntity
  8
0
  6
Continuous
 62
     8
100
AcDbLine
 10
263.765817
 20
135.365081
 30
0.0
 11
264.765873
 21
135.365081
 31
0.0
  0
LINE
  5
4B1
100
AcDbEntity
  8
0
  6
Continuous
 62
     8
100
AcDbLine
 10
266.765985
 20
135.365081
 30
0.0
 11
277.265825
 21
135.365081
 31
0.0
  0
ENDBLK
  5
4B2
100
AcDbEntity
  8
0
100
AcDbBlockEnd
  0
BLOCK
  5
4B5
100
AcDbEntity
  8
0
100
AcDbBlockBegin
  2
*B45
 70
     0
 10
0.0
 20
0.0
 30
0.0
  3
*B45
  1

  0
LINE
  5
4B6
100
AcDbEntity
  8
0
  6
Continuous
 62
     8
100
AcDbLine
 10
198.02556
 20
119.366283
 30
0.0
 11
202.025785
 21
119.366283
 31
0.0
  0
LINE
  5
4B7
100
AcDbEntity
  8
0
  6
Continuous
 62
     8
100
AcDbLine
 10
202.025785
 20
119.366283
 30
0.0
 11
209.772391
 21
119.366283
 31
0.0
  0
LINE
  5
4B8
100
AcDbEntity
  8
0
  6
Continuous
 62
     8
100
AcDbLine
 10
211.772504
 20
119.366283
 30
0.0
 11
212.77226
 21
119.366283
 31
0.0
  0
LINE
  5
4B9
100
AcDbEntity
  8
0
  6
Continuous
 62
     8
100
AcDbLine
 10
214.772372
 20
119.366283
 30
0.0
 11
222.519279
 21
119.366283
 31
0.0
  0
LINE
  5
4BA
100
AcDbEntity
  8
0
  6
Continuous
 62
     8
100
AcDbLine
 10
224.519091
 20
119.366283
 30
0.0
 11
225.519147
 21
119.366283
 31
0.0
  0
LINE
  5
4BB
100
AcDbEntity
  8
0
  6
Continuous
 62
     8
100
AcDbLine
 10
227.519259
 20
119.366283
 30
0.0
 11
235.265865
 21
119.366283
 31
0.0
  0
ENDBLK
  5
4BC
100
AcDbEntity
  8
0
100
AcDbBlockEnd
  0
BLOCK
  5
4BF
100
AcDbEntity
  8
0
100
AcDbBlockBegin
  2
*B46
 70
     0
 10
0.0
 20
0.0
 30
0.0
  3
*B46
  1

  0
LINE
  5
4C0
100
AcDbEntity
  8
0
  6
Continuous
 62
     8
100
AcDbLine
 10
213.265829
 20
179.061742
 30
0.0
 11
217.266054
 21
179.061742
 31
0.0
  0
LINE
  5
4C1
100
AcDbEntity
  8
0
  6
Continuous
 62
     8
100
AcDbLine
 10
223.266091
 20
179.061742
 30
0.0
 11
227.266016
 21
179.061742
 31
0.0
  0
ENDBLK
  5
4C2
100
AcDbEntity
  8
0
100
AcDbBlockEnd
  0
BLOCK
  5
4C5
100
AcDbEntity
  8
0
100
AcDbBlockBegin
  2
*B47
 70
     0
 10
0.0
 20
0.0
 30
0.0
  3
*B47
  1

  0
LINE
  5
4C6
100
AcDbEntity
  8
0
  6
Continuous
 62
     8
100
AcDbLine
 10
153.522606
 20
221.186671
 30
0.0
 11
153.522606
 21
228.966622
 31
0.0
  0
ENDBLK
  5
4C7
100
AcDbEntity
  8
0
100
AcDbBlockEnd
  0
BLOCK
  5
4CA
100
AcDbEntity
  8
0
100
AcDbBlockBegin
  2
*B48
 70
     0
 10
0.0
 20
0.0
 30
0.0
  3
*B48
  1

  0
LINE
  5
4CB
100
AcDbEntity
  8
0
  6
Continuous
 62
     8
100
AcDbLine
 10
136.272612
 20
135.365081
 30
0.0
 11
146.022635
 21
135.365081
 31
0.0
  0
LINE
  5
4CC
100
AcDbEntity
  8
0
  6
Continuous
 62
     8
100
AcDbLine
 10
152.022672
 20
135.365081
 30
0.0
 11
161.772695
 21
135.365081
 31
0.0
  0
ENDBLK
  5
4CD
100
AcDbEntity
  8
0
100
AcDbBlockEnd
  0
BLOCK
  5
4D0
100
AcDbEntity
  8
0
100
AcDbBlockBegin
  2
*B49
 70
     0
 10
0.0
 20
0.0
 30
0.0
  3
*B49
  1

  0
LINE
  5
4D1
100
AcDbEntity
  8
0
  6
Continuous
 62
     8
100
AcDbLine
 10
140.922618
 20
209.590645
 30
0.0
 11
157.122688
 21
209.590645
 31
0.0
  0
ENDBLK
  5
4D2
100
AcDbEntity
  8
0
100
AcDbBlockEnd
  0
BLOCK
  5
4D5
100
AcDbEntity
  8
0
100
AcDbBlockBegin
  2
*B50
 70
     0
 10
0.0
 20
0.0
 30
0.0
  3
*B50
  1

  0
LINE
  5
4D6
100
AcDbEntity
  8
0
  6
Continuous
 62
     8
100
AcDbLine
 10
259.266014
 20
135.373492
 30
0.0
 11
259.266014
 21
139.373116
 31
0.0
  0
LINE
  5
4D7
100
AcDbEntity
  8
0
  6
Continuous
 62
     8
100
AcDbLine
 10
259.266014
 20
139.373116
 30
0.0
 11
259.266014
 21
148.36401
 31
0.0
  0
LINE
  5
4D8
100
AcDbEntity
  8
0
  6
Continuous
 62
     8
100
AcDbLine
 10
259.266014
 20
154.363747
 30
0.0
 11
259.266014
 21
162.862873
 31
0.0
  0
ENDBLK
  5
4D9
100
AcDbEntity
  8
0
100
AcDbBlockEnd
  0
BLOCK
  5
4DC
100
AcDbEntity
  8
0
100
AcDbBlockBegin
  2
*B51
 70
     0
 10
0.0
 20
0.0
 30
0.0
  3
*B51
  1

  0
LINE
  5
4DD
100
AcDbEntity
  8
0
  6
Continuous
 62
     8
100
AcDbLine
 10
258.566065
 20
219.590006
 30
0.0
 11
312.025666
 21
219.590006
 31
0.0
  0
ENDBLK
  5
4DE
100
AcDbEntity
  8
0
100
AcDbBlockEnd
  0
BLOCK
  5
4E1
100
AcDbEntity
  8
0
100
AcDbBlockBegin
  2
*B52
 70
     0
 10
0.0
 20
0.0
 30
0.0
  3
*B52
  1

  0
LINE
  5
4E2
100
AcDbEntity
  8
0
  6
Continuous
 62
     8
100
AcDbLine
 10
227.266016
 20
135.373492
 30
0.0
 11
227.266016
 21
139.373116
 31
0.0
  0
LINE
  5
4E3
100
AcDbEntity
  8
0
  6
Continuous
 62
     8
100
AcDbLine
 10
227.266016
 20
139.373116
 30
0.0
 11
227.266016
 21
148.36401
 31
0.0
  0
LINE
  5
4E4
100
AcDbEntity
  8
0
  6
Continuous
 62
     8
100
AcDbLine
 10
227.266016
 20
154.363747
 30
0.0
 11
227.266016
 21
162.862873
 31
0.0
  0
ENDBLK
  5
4E5
100
AcDbEntity
  8
0
100
AcDbBlockEnd
  0
BLOCK
  5
4E8
100
AcDbEntity
  8
0
100
AcDbBlockBegin
  2
*B53
 70
     0
 10
0.0
 20
0.0
 30
0.0
  3
*B53
  1

  0
LINE
  5
4E9
100
AcDbEntity
  8
0
  6
Continuous
 62
     8
100
AcDbLine
 10
197.025504
 20
155.86338
 30
0.0
 11
225.265903
 21
155.86338
 31
0.0
  0
ENDBLK
  5
4EA
100
AcDbEntity
  8
0
100
AcDbBlockEnd
  0
BLOCK
  5
4ED
100
AcDbEntity
  8
0
100
AcDbBlockBegin
  2
*B54
 70
     0
 10
0.0
 20
0.0
 30
0.0
  3
*B54
  1

  0
LINE
  5
4EE
100
AcDbEntity
  8
0
  6
Continuous
 62
     6
100
AcDbLine
 10
148.022747
 20
103.367186
 30
0.0
 11
150.022559
 21
103.367186
 31
0.0
  0
LINE
  5
4EF
100
AcDbEntity
  8
0
  6
Continuous
 62
     6
100
AcDbLine
 10
149.022503
 20
102.36743
 30
0.0
 11
149.022503
 21
104.367242
 31
0.0
  0
ENDBLK
  5
4F0
100
AcDbEntity
  8
0
100
AcDbBlockEnd
  0
BLOCK
  5
4F3
100
AcDbEntity
  8
0
100
AcDbBlockBegin
  2
*B55
 70
     0
 10
0.0
 20
0.0
 30
0.0
  3
*B55
  1

  0
LINE
  5
4F4
100
AcDbEntity
  8
0
  6
Continuous
 62
     6
100
AcDbLine
 10
219.265866
 20
179.061742
 30
0.0
 11
221.265979
 21
179.061742
 31
0.0
  0
LINE
  5
4F5
100
AcDbEntity
  8
0
  6
Continuous
 62
     6
100
AcDbLine
 10
220.265923
 20
178.061986
 30
0.0
 11
220.265923
 21
180.061798
 31
0.0
  0
ENDBLK
  5
4F6
100
AcDbEntity
  8
0
100
AcDbBlockEnd
  0
BLOCK
  5
4F9
100
AcDbEntity
  8
0
100
AcDbBlockBegin
  2
*B56
 70
     0
 10
0.0
 20
0.0
 30
0.0
  3
*B56
  1

  0
LINE
  5
4FA
100
AcDbEntity
  8
0
  6
Continuous
 62
     6
100
AcDbLine
 10
226.26596
 20
151.363878
 30
0.0
 11
228.266072
 21
151.363878
 31
0.0
  0
LINE
  5
4FB
100
AcDbEntity
  8
0
  6
Continuous
 62
     6
100
AcDbLine
 10
227.266016
 20
150.363822
 30
0.0
 11
227.266016
 21
152.363634
 31
0.0
  0
ENDBLK
  5
4FC
100
AcDbEntity
  8
0
100
AcDbBlockEnd
  0
BLOCK
  5
4FF
100
AcDbEntity
  8
0
100
AcDbBlockBegin
  2
*B57
 70
     0
 10
0.0
 20
0.0
 30
0.0
  3
*B57
  1

  0
LINE
  5
500
100
AcDbEntity
  8
0
  6
Continuous
 62
     6
100
AcDbLine
 10
258.908529
 20
189.806113
 30
0.0
 11
258.908529
 21
191.806226
 31
0.0
  0
LINE
  5
501
100
AcDbEntity
  8
0
  6
Continuous
 62
     6
100
AcDbLine
 10
257.908473
 20
190.80617
 30
0.0
 11
259.908285
 21
190.80617
 31
0.0
  0
ENDBLK
  5
502
100
AcDbEntity
  8
0
100
AcDbBlockEnd
  0
BLOCK
  5
505
100
AcDbEntity
  8
0
100
AcDbBlockBegin
  2
*B58
 70
     0
 10
0.0
 20
0.0
 30
0.0
  3
*B58
  1

  0
LINE
  5
506
100
AcDbEntity
  8
0
  6
Continuous
 62
     6
100
AcDbLine
 10
256.063972
 20
208.590889
 30
0.0
 11
256.063972
 21
210.590701
 31
0.0
  0
LINE
  5
507
100
AcDbEntity
  8
0
  6
Continuous
 62
     6
100
AcDbLine
 10
255.064216
 20
209.590645
 30
0.0
 11
257.064028
 21
209.590645
 31
0.0
  0
ENDBLK
  5
508
100
AcDbEntity
  8
0
100
AcDbBlockEnd
  0
BLOCK
  5
50B
100
AcDbEntity
  8
0
100
AcDbBlockBegin
  2
*B59
 70
     0
 10
0.0
 20
0.0
 30
0.0
  3
*B59
  1

  0
LINE
  5
50C
100
AcDbEntity
  8
0
  6
Continuous
 62
     6
100
AcDbLine
 10
258.265958
 20
151.363878
 30
0.0
 11
260.26607
 21
151.363878
 31
0.0
  0
LINE
  5
50D
100
AcDbEntity
  8
0
  6
Continuous
 62
     6
100
AcDbLine
 10
259.266014
 20
150.363822
 30
0.0
 11
259.266014
 21
152.363634
 31
0.0
  0
ENDBLK
  5
50E
100
AcDbEntity
  8
0
100
AcDbBlockEnd
  0
BLOCK
  5
511
100
AcDbEntity
  8
0
100
AcDbBlockBegin
  2
*B60
 70
     0
 10
0.0
 20
0.0
 30
0.0
  3
*B60
  1

  0
LINE
  5
512
100
AcDbEntity
  8
0
  6
Continuous
 62
     6
100
AcDbLine
 10
148.022747
 20
135.365081
 30
0.0
 11
150.022559
 21
135.365081
 31
0.0
  0
LINE
  5
513
100
AcDbEntity
  8
0
  6
Continuous
 62
     6
100
AcDbLine
 10
149.022503
 20
134.365025
 30
0.0
 11
149.022503
 21
136.364837
 31
0.0
  0
ENDBLK
  5
514
100
AcDbEntity
  8
0
100
AcDbBlockEnd
  0
BLOCK
  5
517
100
AcDbEntity
  8
0
100
AcDbBlockBegin
  2
*B61
 70
     0
 10
0.0
 20
0.0
 30
0.0
  3
*B61
  1

  0
TEXT
  5
518
100
AcDbEntity
  8
TEXT
  6
Continuous
 62
     0
100
AcDbText
 10
266.23575
 20
100.5
 30
0.0
 40
5.0
  1
1
100
AcDbText
  0
ENDBLK
  5
519
100
AcDbEntity
  8
0
100
AcDbBlockEnd
  0
BLOCK
  5
51C
100
AcDbEntity
  8
0
100
AcDbBlockBegin
  2
*B62
 70
     0
 10
0.0
 20
0.0
 30
0.0
  3
*B62
  1

  0
TEXT
  5
51D
100
AcDbEntity
  8
TEXT
  6
Continuous
 62
     0
100
AcDbText
 10
218.23575
 20
116.5
 30
0.0
 40
5.0
  1
2
100
AcDbText
  0
ENDBLK
  5
51E
100
AcDbEntity
  8
0
100
AcDbBlockEnd
  0
BLOCK
  5
521
100
AcDbEntity
  8
0
100
AcDbBlockBegin
  2
*B63
 70
     0
 10
0.0
 20
0.0
 30
0.0
  3
*B63
  1

  0
TEXT
  5
522
100
AcDbEntity
  8
TEXT
  6
Continuous
 62
     0
100
AcDbText
 10
265.23575
 20
133.5
 30
0.0
 40
5.0
  1
3
100
AcDbText
  0
ENDBLK
  5
523
100
AcDbEntity
  8
0
100
AcDbBlockEnd
  0
BLOCK
  5
526
100
AcDbEntity
  8
0
100
AcDbBlockBegin
  2
*B64
 70
     0
 10
0.0
 20
0.0
 30
0.0
  3
*B64
  1

  0
TEXT
  5
527
100
AcDbEntity
  8
TEXT
  6
Continuous
 62
     0
100
AcDbText
 10
285.249659
 20
225.748487
 30
0.0
 40
3.5
  1
4
 50
90.0
100
AcDbText
  0
TEXT
  5
528
100
AcDbEntity
  8
TEXT
  6
Continuous
 62
     0
100
AcDbText
 10
285.249659
 20
230.83182
 30
0.0
 40
3.5
  1
Kapcsol¾ l÷ket
 50
90.0
100
AcDbText
  0
ENDBLK
  5
529
100
AcDbEntity
  8
0
100
AcDbBlockEnd
  0
BLOCK
  5
52C
100
AcDbEntity
  8
0
100
AcDbBlockBegin
  2
*B65
 70
     0
 10
0.0
 20
0.0
 30
0.0
  3
*B65
  1

  0
TEXT
  5
52D
100
AcDbEntity
  8
TEXT
  6
Continuous
 62
     0
100
AcDbText
 10
299.249659
 20
218.998487
 30
0.0
 40
3.5
  1
2
 50
90.0
100
AcDbText
  0
TEXT
  5
52E
100
AcDbEntity
  8
TEXT
  6
Continuous
 62
     0
100
AcDbText
 10
299.249659
 20
224.08182
 30
0.0
 40
3.5
  1
Szabad l÷ket
 50
90.0
100
AcDbText
  0
ENDBLK
  5
52F
100
AcDbEntity
  8
0
100
AcDbBlockEnd
  0
BLOCK
  5
532
100
AcDbEntity
  8
0
100
AcDbBlockBegin
  2
*B66
 70
     0
 10
0.0
 20
0.0
 30
0.0
  3
*B66
  1

  0
TEXT
  5
533
100
AcDbEntity
  8
TEXT
  6
Continuous
 62
     0
100
AcDbText
 10
308.25
 20
182.105608
 30
0.0
 40
3.5
  1
35
 50
90.0
100
AcDbText
  0
ENDBLK
  5
534
100
AcDbEntity
  8
0
100
AcDbBlockEnd
  0
BLOCK
  5
537
100
AcDbEntity
  8
0
100
AcDbBlockBegin
  2
*B67
 70
     0
 10
0.0
 20
0.0
 30
0.0
  3
*B67
  1

  0
TEXT
  5
538
100
AcDbEntity
  8
TEXT
  6
Continuous
 62
     0
100
AcDbText
 10
308.25
 20
113.990066
 30
0.0
 40
3.5
  1
34
 50
90.0
100
AcDbText
  0
ENDBLK
  5
539
100
AcDbEntity
  8
0
100
AcDbBlockEnd
  0
BLOCK
  5
53C
100
AcDbEntity
  8
0
100
AcDbBlockBegin
  2
*B68
 70
     0
 10
0.0
 20
0.0
 30
0.0
  3
*B68
  1

  0
TEXT
  5
53D
100
AcDbEntity
  8
TEXT
  6
Continuous
 62
     0
100
AcDbText
 10
239.907029
 20
65.08182
 30
0.0
 40
3.5
  1
30
100
AcDbText
  0
ENDBLK
  5
53E
100
AcDbEntity
  8
0
100
AcDbBlockEnd
  0
BLOCK
  5
541
100
AcDbEntity
  8
0
100
AcDbBlockBegin
  2
*B69
 70
     0
 10
0.0
 20
0.0
 30
0.0
  3
*B69
  1

  0
TEXT
  5
542
100
AcDbEntity
  8
TEXT
  6
Continuous
 62
     0
100
AcDbText
 10
180.249659
 20
131.990066
 30
0.0
 40
3.5
  1
52
 50
90.0
100
AcDbText
  0
ENDBLK
  5
543
100
AcDbEntity
  8
0
100
AcDbBlockEnd
  0
BLOCK
  5
546
100
AcDbEntity
  8
0
100
AcDbBlockBegin
  2
*B70
 70
     0
 10
0.0
 20
0.0
 30
0.0
  3
*B70
  1

  0
TEXT
  5
547
100
AcDbEntity
  8
TEXT
  6
Continuous
 62
     0
100
AcDbText
 10
145.663607
 20
67.08182
 30
0.0
 40
3.5
  1
16
100
AcDbText
  0
ENDBLK
  5
548
100
AcDbEntity
  8
0
100
AcDbBlockEnd
  0
BLOCK
  5
54B
100
AcDbEntity
  8
0
100
AcDbBlockBegin
  2
*B71
 70
     0
 10
0.0
 20
0.0
 30
0.0
  3
*B71
  1

  0
TEXT
  5
54C
100
AcDbEntity
  8
TEXT
  6
Continuous
 62
     0
100
AcDbText
 10
144.830274
 20
228.68182
 30
0.0
 40
3.5
  1
4,5
100
AcDbText
  0
ENDBLK
  5
54D
100
AcDbEntity
  8
0
100
AcDbBlockEnd
  0
BLOCK
  5
550
100
AcDbEntity
  8
0
100
AcDbBlockBegin
  2
*B72
 70
     0
 10
0.0
 20
0.0
 30
0.0
  3
*B72
  1

  0
TEXT
  5
551
100
AcDbEntity
  8
TEXT
  6
Continuous
 62
     0
100
AcDbText
 10
197.25
 20
163.383333
 30
0.0
 40
3.5
  1
%%c4,5
 50
90.0
100
AcDbText
  0
ENDBLK
  5
552
100
AcDbEntity
  8
0
100
AcDbBlockEnd
  0
BLOCK
  5
555
100
AcDbEntity
  8
0
100
AcDbBlockBegin
  2
*B73
 70
     0
 10
0.0
 20
0.0
 30
0.0
  3
*B73
  1

  0
TEXT
  5
556
100
AcDbEntity
  8
TEXT
  6
Continuous
 62
     0
100
AcDbText
 10
198.25
 20
97.990066
 30
0.0
 40
3.5
  1
18
 50
90.0
100
AcDbText
  0
ENDBLK
  5
557
100
AcDbEntity
  8
0
100
AcDbBlockEnd
  0
BLOCK
  5
55A
100
AcDbEntity
  8
0
100
AcDbBlockBegin
  2
*B74
 70
     0
 10
0.0
 20
0.0
 30
0.0
  3
*B74
  1

  0
TEXT
  5
55B
100
AcDbEntity
  8
TEXT
  6
Continuous
 62
     0
100
AcDbText
 10
250.255142
 20
231.08182
 30
0.0
 40
3.5
  1
%%c10
100
AcDbText
  0
ENDBLK
  5
55C
100
AcDbEntity
  8
0
100
AcDbBlockEnd
  0
BLOCK
  5
55F
100
AcDbEntity
  8
0
100
AcDbBlockBegin
  2
*B75
 70
     0
 10
0.0
 20
0.0
 30
0.0
  3
*B75
  1

  0
TEXT
  5
560
100
AcDbEntity
  8
TEXT
  6
Continuous
 62
     0
100
AcDbText
 10
239.907029
 20
139.08182
 30
0.0
 40
3.5
  1
16
100
AcDbText
  0
ENDBLK
  5
561
100
AcDbEntity
  8
0
100
AcDbBlockEnd
  0
BLOCK
  5
564
100
AcDbEntity
  8
0
100
AcDbBlockBegin
  2
*B76
 70
     0
 10
0.0
 20
0.0
 30
0.0
  3
*B76
  1

  0
TEXT
  5
565
100
AcDbEntity
  8
TEXT
  6
Continuous
 62
     0
100
AcDbText
 10
228.806085
 20
249.08182
 30
0.0
 40
3.5
  1
21,4
100
AcDbText
  0
ENDBLK
  5
566
100
AcDbEntity
  8
0
100
AcDbBlockEnd
  0
BLOCK
  5
569
100
AcDbEntity
  8
0
100
AcDbBlockBegin
  2
*B77
 70
     0
 10
0.0
 20
0.0
 30
0.0
  3
*B77
  1

  0
TEXT
  5
56A
100
AcDbEntity
  8
TEXT
  6
Continuous
 62
     0
100
AcDbText
 10
119.25
 20
120.416667
 30
0.0
 40
3.5
  1
G 1/8"
 50
90.0
100
AcDbText
  0
ENDBLK
  5
56B
100
AcDbEntity
  8
0
100
AcDbBlockEnd
  0
ENDSEC
  0
SECTION
  2
ENTITIES
  0
INSERT
  5
1CD
100
AcDbEntity
  8
0
  6
Continuous
 62
   174
100
AcDbBlockReference
  2
*B1
 10
0.0
 20
0.0
 30
0.0
  0
INSERT
  5
1D4
100
AcDbEntity
  8
0
  6
Continuous
 62
   112
100
AcDbBlockReference
  2
*B2
 10
0.0
 20
0.0
 30
0.0
  0
INSERT
  5
390
100
AcDbEntity
  8
0
  6
Continuous
 62
   174
100
AcDbBlockReference
  2
*B3
 10
0.0
 20
0.0
 30
0.0
  0
INSERT
  5
397
100
AcDbEntity
  8
0
  6
Continuous
 62
     0
100
AcDbBlockReference
  2
*B4
 10
0.0
 20
0.0
 30
0.0
  0
INSERT
  5
39E
100
AcDbEntity
  8
0
  6
Continuous
 62
     0
100
AcDbBlockReference
  2
*B5
 10
0.0
 20
0.0
 30
0.0
  0
INSERT
  5
3A5
100
AcDbEntity
  8
0
  6
Continuous
 62
     0
100
AcDbBlockReference
  2
*B6
 10
0.0
 20
0.0
 30
0.0
  0
INSERT
  5
3AC
100
AcDbEntity
  8
0
  6
Continuous
 62
     0
100
AcDbBlockReference
  2
*B7
 10
0.0
 20
0.0
 30
0.0
  0
INSERT
  5
3B3
100
AcDbEntity
  8
0
  6
Continuous
 62
     0
100
AcDbBlockReference
  2
*B8
 10
0.0
 20
0.0
 30
0.0
  0
INSERT
  5
3BA
100
AcDbEntity
  8
0
  6
Continuous
 62
     0
100
AcDbBlockReference
  2
*B9
 10
0.0
 20
0.0
 30
0.0
  0
INSERT
  5
3C1
100
AcDbEntity
  8
0
  6
Continuous
 62
     0
100
AcDbBlockReference
  2
*B10
 10
0.0
 20
0.0
 30
0.0
  0
INSERT
  5
3C8
100
AcDbEntity
  8
0
  6
Continuous
 62
     0
100
AcDbBlockReference
  2
*B11
 10
0.0
 20
0.0
 30
0.0
  0
INSERT
  5
3CF
100
AcDbEntity
  8
0
  6
Continuous
 62
     0
100
AcDbBlockReference
  2
*B12
 10
0.0
 20
0.0
 30
0.0
  0
INSERT
  5
3D6
100
AcDbEntity
  8
0
  6
Continuous
 62
     0
100
AcDbBlockReference
  2
*B13
 10
0.0
 20
0.0
 30
0.0
  0
INSERT
  5
3DD
100
AcDbEntity
  8
0
  6
Continuous
 62
     0
100
AcDbBlockReference
  2
*B14
 10
0.0
 20
0.0
 30
0.0
  0
INSERT
  5
3E4
100
AcDbEntity
  8
0
  6
Continuous
 62
     0
100
AcDbBlockReference
  2
*B15
 10
0.0
 20
0.0
 30
0.0
  0
INSERT
  5
3EB
100
AcDbEntity
  8
0
  6
Continuous
 62
     0
100
AcDbBlockReference
  2
*B16
 10
0.0
 20
0.0
 30
0.0
  0
INSERT
  5
3F2
100
AcDbEntity
  8
0
  6
Continuous
 62
     0
100
AcDbBlockReference
  2
*B17
 10
0.0
 20
0.0
 30
0.0
  0
INSERT
  5
3F9
100
AcDbEntity
  8
0
  6
Continuous
 62
     8
100
AcDbBlockReference
  2
*B18
 10
0.0
 20
0.0
 30
0.0
  0
INSERT
  5
3FF
100
AcDbEntity
  8
0
  6
Continuous
 62
     8
100
AcDbBlockReference
  2
*B19
 10
0.0
 20
0.0
 30
0.0
  0
INSERT
  5
404
100
AcDbEntity
  8
0
  6
Continuous
 62
     8
100
AcDbBlockReference
  2
*B20
 10
0.0
 20
0.0
 30
0.0
  0
INSERT
  5
409
100
AcDbEntity
  8
0
  6
Continuous
 62
     8
100
AcDbBlockReference
  2
*B21
 10
0.0
 20
0.0
 30
0.0
  0
INSERT
  5
414
100
AcDbEntity
  8
0
  6
Continuous
 62
     8
100
AcDbBlockReference
  2
*B22
 10
0.0
 20
0.0
 30
0.0
  0
INSERT
  5
419
100
AcDbEntity
  8
0
  6
Continuous
 62
     8
100
AcDbBlockReference
  2
*B23
 10
0.0
 20
0.0
 30
0.0
  0
INSERT
  5
41F
100
AcDbEntity
  8
0
  6
Continuous
 62
     8
100
AcDbBlockReference
  2
*B24
 10
0.0
 20
0.0
 30
0.0
  0
INSERT
  5
430
100
AcDbEntity
  8
0
  6
Continuous
 62
     8
100
AcDbBlockReference
  2
*B25
 10
0.0
 20
0.0
 30
0.0
  0
INSERT
  5
439
100
AcDbEntity
  8
0
  6
Continuous
 62
     8
100
AcDbBlockReference
  2
*B26
 10
0.0
 20
0.0
 30
0.0
  0
INSERT
  5
43F
100
AcDbEntity
  8
0
  6
Continuous
 62
     8
100
AcDbBlockReference
  2
*B27
 10
0.0
 20
0.0
 30
0.0
  0
INSERT
  5
44C
100
AcDbEntity
  8
0
  6
Continuous
 62
     8
100
AcDbBlockReference
  2
*B28
 10
0.0
 20
0.0
 30
0.0
  0
INSERT
  5
452
100
AcDbEntity
  8
0
  6
Continuous
 62
     8
100
AcDbBlockReference
  2
*B29
 10
0.0
 20
0.0
 30
0.0
  0
INSERT
  5
467
100
AcDbEntity
  8
0
  6
Continuous
 62
     8
100
AcDbBlockReference
  2
*B30
 10
0.0
 20
0.0
 30
0.0
  0
INSERT
  5
46C
100
AcDbEntity
  8
0
  6
Continuous
 62
     8
100
AcDbBlockReference
  2
*B31
 10
0.0
 20
0.0
 30
0.0
  0
INSERT
  5
472
100
AcDbEntity
  8
0
  6
Continuous
 62
     8
100
AcDbBlockReference
  2
*B32
 10
0.0
 20
0.0
 30
0.0
  0
INSERT
  5
478
100
AcDbEntity
  8
0
  6
Continuous
 62
     8
100
AcDbBlockReference
  2
*B33
 10
0.0
 20
0.0
 30
0.0
  0
INSERT
  5
47D
100
AcDbEntity
  8
0
  6
Continuous
 62
     8
100
AcDbBlockReference
  2
*B34
 10
0.0
 20
0.0
 30
0.0
  0
INSERT
  5
483
100
AcDbEntity
  8
0
  6
Continuous
 62
     8
100
AcDbBlockReference
  2
*B35
 10
0.0
 20
0.0
 30
0.0
  0
INSERT
  5
488
100
AcDbEntity
  8
0
  6
Continuous
 62
     8
100
AcDbBlockReference
  2
*B36
 10
0.0
 20
0.0
 30
0.0
  0
INSERT
  5
48E
100
AcDbEntity
  8
0
  6
Continuous
 62
     8
100
AcDbBlockReference
  2
*B37
 10
0.0
 20
0.0
 30
0.0
  0
INSERT
  5
493
100
AcDbEntity
  8
0
  6
Continuous
 62
     8
100
AcDbBlockReference
  2
*B38
 10
0.0
 20
0.0
 30
0.0
  0
INSERT
  5
498
100
AcDbEntity
  8
0
  6
Continuous
 62
     8
100
AcDbBlockReference
  2
*B39
 10
0.0
 20
0.0
 30
0.0
  0
INSERT
  5
49D
100
AcDbEntity
  8
0
  6
Continuous
 62
     8
100
AcDbBlockReference
  2
*B40
 10
0.0
 20
0.0
 30
0.0
  0
INSERT
  5
4A2
100
AcDbEntity
  8
0
  6
Continuous
 62
     8
100
AcDbBlockReference
  2
*B41
 10
0.0
 20
0.0
 30
0.0
  0
INSERT
  5
4A7
100
AcDbEntity
  8
0
  6
Continuous
 62
     8
100
AcDbBlockReference
  2
*B42
 10
0.0
 20
0.0
 30
0.0
  0
INSERT
  5
4AC
100
AcDbEntity
  8
0
  6
Continuous
 62
     8
100
AcDbBlockReference
  2
*B43
 10
0.0
 20
0.0
 30
0.0
  0
INSERT
  5
4B3
100
AcDbEntity
  8
0
  6
Continuous
 62
     8
100
AcDbBlockReference
  2
*B44
 10
0.0
 20
0.0
 30
0.0
  0
INSERT
  5
4BD
100
AcDbEntity
  8
0
  6
Continuous
 62
     8
100
AcDbBlockReference
  2
*B45
 10
0.0
 20
0.0
 30
0.0
  0
INSERT
  5
4C3
100
AcDbEntity
  8
0
  6
Continuous
 62
     8
100
AcDbBlockReference
  2
*B46
 10
0.0
 20
0.0
 30
0.0
  0
INSERT
  5
4C8
100
AcDbEntity
  8
0
  6
Continuous
 62
     8
100
AcDbBlockReference
  2
*B47
 10
0.0
 20
0.0
 30
0.0
  0
INSERT
  5
4CE
100
AcDbEntity
  8
0
  6
Continuous
 62
     8
100
AcDbBlockReference
  2
*B48
 10
0.0
 20
0.0
 30
0.0
  0
INSERT
  5
4D3
100
AcDbEntity
  8
0
  6
Continuous
 62
     8
100
AcDbBlockReference
  2
*B49
 10
0.0
 20
0.0
 30
0.0
  0
INSERT
  5
4DA
100
AcDbEntity
  8
0
  6
Continuous
 62
     8
100
AcDbBlockReference
  2
*B50
 10
0.0
 20
0.0
 30
0.0
  0
INSERT
  5
4DF
100
AcDbEntity
  8
0
  6
Continuous
 62
     8
100
AcDbBlockReference
  2
*B51
 10
0.0
 20
0.0
 30
0.0
  0
INSERT
  5
4E6
100
AcDbEntity
  8
0
  6
Continuous
 62
     8
100
AcDbBlockReference
  2
*B52
 10
0.0
 20
0.0
 30
0.0
  0
INSERT
  5
4EB
100
AcDbEntity
  8
0
  6
Continuous
 62
     8
100
AcDbBlockReference
  2
*B53
 10
0.0
 20
0.0
 30
0.0
  0
INSERT
  5
4F1
100
AcDbEntity
  8
0
  6
Continuous
 62
     6
100
AcDbBlockReference
  2
*B54
 10
0.0
 20
0.0
 30
0.0
  0
INSERT
  5
4F7
100
AcDbEntity
  8
0
  6
Continuous
 62
     6
100
AcDbBlockReference
  2
*B55
 10
0.0
 20
0.0
 30
0.0
  0
INSERT
  5
4FD
100
AcDbEntity
  8
0
  6
Continuous
 62
     6
100
AcDbBlockReference
  2
*B56
 10
0.0
 20
0.0
 30
0.0
  0
INSERT
  5
503
100
AcDbEntity
  8
0
  6
Continuous
 62
     6
100
AcDbBlockReference
  2
*B57
 10
0.0
 20
0.0
 30
0.0
  0
INSERT
  5
509
100
AcDbEntity
  8
0
  6
Continuous
 62
     6
100
AcDbBlockReference
  2
*B58
 10
0.0
 20
0.0
 30
0.0
  0
INSERT
  5
50F
100
AcDbEntity
  8
0
  6
Continuous
 62
     6
100
AcDbBlockReference
  2
*B59
 10
0.0
 20
0.0
 30
0.0
  0
INSERT
  5
515
100
AcDbEntity
  8
0
  6
Continuous
 62
     6
100
AcDbBlockReference
  2
*B60
 10
0.0
 20
0.0
 30
0.0
  0
INSERT
  5
51A
100
AcDbEntity
  8
TEXT
  6
Continuous
 62
     0
100
AcDbBlockReference
  2
*B61
 10
0.0
 20
0.0
 30
0.0
  0
INSERT
  5
51F
100
AcDbEntity
  8
TEXT
  6
Continuous
 62
     0
100
AcDbBlockReference
  2
*B62
 10
0.0
 20
0.0
 30
0.0
  0
INSERT
  5
524
100
AcDbEntity
  8
TEXT
  6
Continuous
 62
     0
100
AcDbBlockReference
  2
*B63
 10
0.0
 20
0.0
 30
0.0
  0
INSERT
  5
52A
100
AcDbEntity
  8
TEXT
  6
Continuous
 62
     0
100
AcDbBlockReference
  2
*B64
 10
0.0
 20
0.0
 30
0.0
  0
INSERT
  5
530
100
AcDbEntity
  8
TEXT
  6
Continuous
 62
     0
100
AcDbBlockReference
  2
*B65
 10
0.0
 20
0.0
 30
0.0
  0
INSERT
  5
535
100
AcDbEntity
  8
TEXT
  6
Continuous
 62
     0
100
AcDbBlockReference
  2
*B66
 10
0.0
 20
0.0
 30
0.0
  0
INSERT
  5
53A
100
AcDbEntity
  8
TEXT
  6
Continuous
 62
     0
100
AcDbBlockReference
  2
*B67
 10
0.0
 20
0.0
 30
0.0
  0
INSERT
  5
53F
100
AcDbEntity
  8
TEXT
  6
Continuous
 62
     0
100
AcDbBlockReference
  2
*B68
 10
0.0
 20
0.0
 30
0.0
  0
INSERT
  5
544
100
AcDbEntity
  8
TEXT
  6
Continuous
 62
     0
100
AcDbBlockReference
  2
*B69
 10
0.0
 20
0.0
 30
0.0
  0
INSERT
  5
549
100
AcDbEntity
  8
TEXT
  6
Continuous
 62
     0
100
AcDbBlockReference
  2
*B70
 10
0.0
 20
0.0
 30
0.0
  0
INSERT
  5
54E
100
AcDbEntity
  8
TEXT
  6
Continuous
 62
     0
100
AcDbBlockReference
  2
*B71
 10
0.0
 20
0.0
 30
0.0
  0
INSERT
  5
553
100
AcDbEntity
  8
TEXT
  6
Continuous
 62
     0
100
AcDbBlockReference
  2
*B72
 10
0.0
 20
0.0
 30
0.0
  0
INSERT
  5
558
100
AcDbEntity
  8
TEXT
  6
Continuous
 62
     0
100
AcDbBlockReference
  2
*B73
 10
0.0
 20
0.0
 30
0.0
  0
INSERT
  5
55D
100
AcDbEntity
  8
TEXT
  6
Continuous
 62
     0
100
AcDbBlockReference
  2
*B74
 10
0.0
 20
0.0
 30
0.0
  0
INSERT
  5
562
100
AcDbEntity
  8
TEXT
  6
Continuous
 62
     0
100
AcDbBlockReference
  2
*B75
 10
0.0
 20
0.0
 30
0.0
  0
INSERT
  5
567
100
AcDbEntity
  8
TEXT
  6
Continuous
 62
     0
100
AcDbBlockReference
  2
*B76
 10
0.0
 20
0.0
 30
0.0
  0
INSERT
  5
56C
100
AcDbEntity
  8
TEXT
  6
Continuous
 62
     0
100
AcDbBlockReference
  2
*B77
 10
0.0
 20
0.0
 30
0.0
  0
ENDSEC
  0
SECTION
  2
OBJECTS
  0
DICTIONARY
  5
19
100
AcDbDictionary
280
     0
281
     1
  3
ACAD_GROUP
350
1A
  3
ACAD_MLINESTYLE
350
1B
  3
ACAD_LAYOUT
350
1E
  3
ACAD_PLOTSETTINGS
350
22
  3
ACAD_PLOTSTYLENAME
350
1F
  3
ACAD_WIPEOUT_VARS
350
23
  0
DICTIONARY
  5
1A
102
{ACAD_REACTORS
330
19
102
}
100
AcDbDictionary
280
     0
281
     1
  0
DICTIONARY
  5
1B
102
{ACAD_REACTORS
330
19
102
}
100
AcDbDictionary
280
     0
281
     1
  3
Standard
350
1C
  0
MLINESTYLE
  5
1C
102
{ACAD_REACTORS
330
1B
102
}
100
AcDbMlineStyle
  2
Standard
 70
     0
  3

 62
     0
 51
90.0
 52
90.0
 71
     2
 49
0.5
 62
   256
  6
BYLAYER
 49
-0.5
 62
   256
  6
BYLAYER
  0
ACDBDICTIONARYWDFLT
  5
1F
102
{ACAD_REACTORS
330
19
102
}
100
AcDbDictionary
281
     1
  3
Normal
350
1D
100
AcDbDictionaryWithDefault
340
1D
  0
ACDBPLACEHOLDER
  5
1D
102
{ACAD_REACTORS
330
1F
102
}
  0
LAYOUT
  5
20
102
{ACAD_REACTORS
330
1E
102
}
100
AcDbPlotSettings
  1

  2

  4

  6

 40
0.0
 41
0.0
 42
0.0
 43
0.0
 44
0.0
 45
0.0
 46
0.0
 47
0.0
 48
0.0
 49
0.0
140
0.0
141
0.0
142
1.0
143
1.0
 70
     0
 72
     0
 73
     0
 74
     0
  7

 75
     0
147
1.0
148
0.0
149
0.0
100
AcDbLayout
  1
Model
 70
     0
 71
     0
 10
0.0
 20
0.0
 11
0.0
 21
0.0
 12
0.0
 22
0.0
 32
0.0
 14
0.0
 24
0.0
 34
0.0
 15
0.0
 25
0.0
 35
0.0
146
0.0
 13
0.0
 23
0.0
 33
0.0
 16
0.0
 26
0.0
 36
0.0
 17
0.0
 27
0.0
 37
0.0
 76
     0
330
A
331
0
345
0
346
0
  0
LAYOUT
  5
21
102
{ACAD_REACTORS
330
1E
102
}
100
AcDbPlotSettings
  1

  2

  4

  6

 40
0.0
 41
0.0
 42
0.0
 43
0.0
 44
0.0
 45
0.0
 46
0.0
 47
0.0
 48
0.0
 49
0.0
140
0.0
141
0.0
142
1.0
143
1.0
 70
     0
 72
     0
 73
     0
 74
     0
  7

 75
     0
147
1.0
148
0.0
149
0.0
100
AcDbLayout
  1
Layout1
 70
     0
 71
     0
 10
0.0
 20
0.0
 11
0.0
 21
0.0
 12
0.0
 22
0.0
 32
0.0
 14
0.0
 24
0.0
 34
0.0
 15
0.0
 25
0.0
 35
0.0
146
0.0
 13
0.0
 23
0.0
 33
0.0
 16
0.0
 26
0.0
 36
0.0
 17
0.0
 27
0.0
 37
0.0
 76
     0
330
B
331
0
345
0
346
0
  0
DICTIONARY
  5
1E
102
{ACAD_REACTORS
330
19
102
}
100
AcDbDictionary
280
     0
281
     1
  3
Layout1
350
21
  3
Model
350
20
  0
DICTIONARY
  5
22
102
{ACAD_REACTORS
330
19
102
}
100
AcDbDictionary
280
     0
281
     1
  0
WIPEOUTVARIABLES
  5
23
100
AcDbWipeoutVariables
 70
     1
  0
ENDSEC
  0
EOF
