  0
SECTION
  2
HEADER
  9
$ACADVER
  1
AC1015
  9
$ACADMAINTVER
 70
     6
  9
$DWGCODEPAGE
  3
DOS850
  9
$INSBASE
 10
0.0
 20
0.0
 30
0.0
  9
$EXTMIN
 10
0.0
 20
0.0
 30
0.0
  9
$EXTMAX
 10
420.0
 20
297.0
 30
0.0
  9
$LIMMIN
 10
0.0
 20
0.0
  9
$LIMMAX
 10
420.0
 20
297.0
  9
$ORTHOMODE
 70
     0
  9
$REGENMODE
 70
     1
  9
$FILLMODE
 70
     1
  9
$QTEXTMODE
 70
     0
  9
$MIRRTEXT
 70
     1
  9
$LTSCALE
 40
25.4
  9
$ATTMODE
 70
     1
  9
$TEXTSIZE
 40
3.5
  9
$TRACEWID
 40
0.05
  9
$TEXTSTYLE
  7
Standard
  9
$CLAYER
  8
0
  9
$CELTYPE
  6
Continuous
  9
$CECOLOR
 62
   256
  9
$CELTSCALE
 40
1.0
  9
$DISPSILH
 70
     0
  9
$DIMSCALE
 40
1.0
  9
$DIMASZ
 40
5.0
  9
$DIMEXO
 40
3.0
  9
$DIMDLI
 40
0.38
  9
$DIMRND
 40
0.0
  9
$DIMDLE
 40
0.0
  9
$DIMEXE
 40
2.0
  9
$DIMTP
 40
0.0
  9
$DIMTM
 40
0.0
  9
$DIMTXT
 40
3.5
  9
$DIMCEN
 40
4.0
  9
$DIMTSZ
 40
0.0
  9
$DIMTOL
 70
     0
  9
$DIMLIM
 70
     0
  9
$DIMTIH
 70
     1
  9
$DIMTOH
 70
     1
  9
$DIMSE1
 70
     0
  9
$DIMSE2
 70
     0
  9
$DIMTAD
 70
     0
  9
$DIMZIN
 70
     0
  9
$DIMBLK
  1

  9
$DIMASO
 70
     1
  9
$DIMSHO
 70
     1
  9
$DIMPOST
  1

  9
$DIMAPOST
  1

  9
$DIMALT
 70
     0
  9
$DIMALTD
 70
     2
  9
$DIMALTF
 40
25.4
  9
$DIMLFAC
 40
1.0
  9
$DIMTOFL
 70
     0
  9
$DIMTVP
 40
0.0
  9
$DIMTIX
 70
     0
  9
$DIMSOXD
 70
     0
  9
$DIMSAH
 70
     0
  9
$DIMBLK1
  1

  9
$DIMBLK2
  1

  9
$DIMSTYLE
  2
Standard
  9
$DIMCLRD
 70
     0
  9
$DIMCLRE
 70
     0
  9
$DIMCLRT
 70
     0
  9
$DIMTFAC
 40
1.0
  9
$DIMGAP
 40
1.0
  9
$DIMJUST
 70
     0
  9
$DIMSD1
 70
     0
  9
$DIMSD2
 70
     0
  9
$DIMTOLJ
 70
     1
  9
$DIMTZIN
 70
     0
  9
$DIMALTZ
 70
     0
  9
$DIMALTTZ
 70
     0
  9
$DIMUPT
 70
     0
  9
$DIMDEC
 70
     4
  9
$DIMTDEC
 70
     4
  9
$DIMALTU
 70
     2
  9
$DIMALTTD
 70
     2
  9
$DIMTXSTY
  7
Standard
  9
$DIMAUNIT
 70
     0
  9
$DIMADEC
 70
     0
  9
$DIMALTRND
 40
0.0
  9
$DIMAZIN
 70
     0
  9
$DIMDSEP
 70
     0
  9
$DIMATFIT
 70
     3
  9
$DIMFRAC
 70
     0
  9
$DIMLDRBLK
  1

  9
$DIMLUNIT
 70
     2
  9
$DIMLWD
 70
     0
  9
$DIMLWE
 70
     0
  9
$DIMTMOVE
 70
     0
  9
$LUNITS
 70
     2
  9
$LUPREC
 70
     4
  9
$SKETCHINC
 40
0.1
  9
$FILLETRAD
 40
0.0
  9
$AUNITS
 70
     0
  9
$AUPREC
 70
     0
  9
$MENU
  1
acad
  9
$ELEVATION
 40
0.0
  9
$PELEVATION
 40
0.0
  9
$THICKNESS
 40
0.0
  9
$LIMCHECK
 70
     0
  9
$CHAMFERA
 40
0.0
  9
$CHAMFERB
 40
0.0
  9
$CHAMFERC
 40
0.0
  9
$CHAMFERD
 40
0.0
  9
$SKPOLY
 70
     0
  9
$TDCREATE
 40
0.000000000
  9
$TDUCREATE
 40
0.000000000
  9
$TDUPDATE
 40
0.000000000
  9
$TDUUPDATE
 40
0.000000000
  9
$TDINDWG
 40
0.0000000000
  9
$TDUSRTIMER
 40
0.0000000000
  9
$USRTIMER
 70
     1
  9
$ANGBASE
 50
0.0
  9
$ANGDIR
 70
     0
  9
$PDMODE
 70
     0
  9
$PDSIZE
 40
0.0
  9
$PLINEWID
 40
0.0
  9
$SPLFRAME
 70
     0
  9
$SPLINETYPE
 70
     6
  9
$SPLINESEGS
 70
     8
  9
$HANDSEED
  5
5C6
  9
$SURFTAB1
 70
     6
  9
$SURFTAB2
 70
     6
  9
$SURFTYPE
 70
     6
  9
$SURFU
 70
     6
  9
$SURFV
 70
     6
  9
$UCSBASE
  2

  9
$UCSNAME
  2

  9
$UCSORG
 10
0.0
 20
0.0
 30
0.0
  9
$UCSXDIR
 10
1.0
 20
0.0
 30
0.0
  9
$UCSYDIR
 10
0.0
 20
1.0
 30
0.0
  9
$UCSORTHOREF
  2

  9
$UCSORTHOVIEW
 70
     0
  9
$UCSORGTOP
 10
0.0
 20
0.0
 30
0.0
  9
$UCSORGBOTTOM
 10
0.0
 20
0.0
 30
0.0
  9
$UCSORGLEFT
 10
0.0
 20
0.0
 30
0.0
  9
$UCSORGRIGHT
 10
0.0
 20
0.0
 30
0.0
  9
$UCSORGFRONT
 10
0.0
 20
0.0
 30
0.0
  9
$UCSORGBACK
 10
0.0
 20
0.0
 30
0.0
  9
$PUCSBASE
  2

  9
$PUCSNAME
  2

  9
$PUCSORG
 10
0.0
 20
0.0
 30
0.0
  9
$PUCSXDIR
 10
1.0
 20
0.0
 30
0.0
  9
$PUCSYDIR
 10
0.0
 20
1.0
 30
0.0
  9
$PUCSORTHOREF
  2

  9
$PUCSORTHOVIEW
 70
     0
  9
$PUCSORGTOP
 10
0.0
 20
0.0
 30
0.0
  9
$PUCSORGBOTTOM
 10
0.0
 20
0.0
 30
0.0
  9
$PUCSORGLEFT
 10
0.0
 20
0.0
 30
0.0
  9
$PUCSORGRIGHT
 10
0.0
 20
0.0
 30
0.0
  9
$PUCSORGFRONT
 10
0.0
 20
0.0
 30
0.0
  9
$PUCSORGBACK
 10
0.0
 20
0.0
 30
0.0
  9
$USERI1
 70
     0
  9
$USERI2
 70
     0
  9
$USERI3
 70
     0
  9
$USERI4
 70
     0
  9
$USERI5
 70
     0
  9
$USERR1
 40
0.0
  9
$USERR2
 40
0.0
  9
$USERR3
 40
0.0
  9
$USERR4
 40
0.0
  9
$USERR5
 40
0.0
  9
$WORLDVIEW
 70
     1
  9
$SHADEDGE
 70
     3
  9
$SHADEDIF
 70
    70
  9
$TILEMODE
 70
     1
  9
$MAXACTVP
 70
    16
  9
$PINSBASE
 10
0.0
 20
0.0
 30
0.0
  9
$PLIMCHECK
 70
     0
  9
$PEXTMIN
 10
1.000000E+20
 20
1.000000E+20
 30
1.000000E+20
  9
$PEXTMAX
 10
-1.000000E+20
 20
-1.000000E+20
 30
-1.000000E+20
  9
$PLIMMIN
 10
0.0
 20
0.0
  9
$PLIMMAX
 10
420.0
 20
297.0
  9
$UNITMODE
 70
     0
  9
$VISRETAIN
 70
     0
  9
$PLINEGEN
 70
     1
  9
$PSLTSCALE
 70
     0
  9
$TREEDEPTH
 70
  3020
  9
$CMLSTYLE
  2
Standard
  9
$CMLJUST
 70
     0
  9
$CMLSCALE
 40
1.0
  9
$PROXYGRAPHICS
 70
     0
  9
$MEASUREMENT
 70
     0
  9
$CELWEIGHT
370
     0
  9
$ENDCAPS
280
     0
  9
$JOINSTYLE
280
     0
  9
$LWDISPLAY
290
     0
  9
$INSUNITS
 70
     0
  9
$HYPERLINKBASE
  1

  9
$XEDIT
290
     1
  9
$CEPSNTYPE
380
     0
  9
$PSTYLEMODE
290
     0
  9
$FINGERPRINTGUID
  2

  9
$VERSIONGUID
  2

  9
$EXTNAMES
290
     1
  9
$PSVPSCALE
 40
0.0
  0
ENDSEC
  0
SECTION
  2
CLASSES
  0
CLASS
  1
LWPOLYLINE
  2
AcDbPolyline
  3
"AutoCAD"
 90
        0
280
     0
281
     1
  0
CLASS
  1
IMAGE
  2
AcDbRasterImage
  3
ISM
 90
      127
280
     0
281
     1
  0
CLASS
  1
OLE2FRAME
  2
AcDbOle2Frame
  3
""
 90
        0
280
     0
281
     1
  0
CLASS
  1
HATCH
  2
AcDbHatch
  3
"ACAD_SEDONA"
 90
        0
280
     0
281
     1
  0
CLASS
  1
DICTIONARYVAR
  2
AcDbDictionaryVar
  3
"AutoCAD"
 90
        0
280
     0
281
     0
  0
CLASS
  1
RASTERVARIABLES
  2
AcDbRasterVariables
  3
ISM
 90
        0
280
     0
281
     0
  0
CLASS
  1
IMAGEDEF
  2
AcDbRasterImageDef
  3
ISM
 90
        0
280
     0
281
     0
  0
CLASS
  1
IMAGEDEF_REACTOR
  2
AcDbRasterImageDefReactor
  3
ISM
 90
        1
280
     0
281
     0
  0
CLASS
  1
IDBUFFER
  2
AcDbIdBuffer
  3
"Acad"
 90
        0
280
     0
281
     0
  0
CLASS
  1
SPATIAL_FILTER
  2
AcDbSpatialFilter
  3
"Acad"
 90
        0
280
     0
281
     0
  0
CLASS
  1
XRECORD
  2
AcDbXrecord
  3
"<Built In>"
 90
        0
280
     0
281
     0
  0
CLASS
  1
SORTENTSTABLE
  2
AcDbSortentsTable
  3
"AutoCAD"
 90
        0
280
     0
281
     0
  0
CLASS
  1
LAYER_INDEX
  2
AcDbLayerIndex
  3
"Acad"
 90
        0
280
     0
281
     0
  0
CLASS
  1
SPATIAL_INDEX
  2
AcDbSpatialIndex
  3
"Acad"
 90
        0
280
     0
281
     0
  0
CLASS
  1
OBJECT_PTR
  2
CAseDLPNTableRecord
  3
"ASE-LPNTableRecord"
 90
        1
280
     0
281
     0
  0
CLASS
  1
LAYOUT
  2
AcDbLayout
  3
"AutoCAD 2000"
 90
        1
280
     0
281
     0
  0
CLASS
  1
PLOTSETTINGS
  2
AcDbPlotSettings
  3
"AutoCAD 2000"
 90
        1
280
     0
281
     0
  0
CLASS
  1
ACDBDICTIONARYWDFLT
  2
AcDbDictionaryWithDefault
  3
"AutoCAD 2000"
 90
        1
280
     0
281
     0
  0
CLASS
  1
ACDBPLACEHOLDER
  2
AcDbPlaceHolder
  3
"AutoCAD 2000"
 90
        1
280
     0
281
     0
  0
CLASS
  1
VBA_PROJECT
  2
AcDbVbaProject
  3
"acadvba"
 90
        1
280
     0
281
     0
  0
CLASS
  1
WIPEOUT
  2
AcDbWipeout
  3
WipeOut|AutoCAD Express Tool|expresstools@autodesk.com
 90
      127
280
     0
281
     1
  0
CLASS
  1
WIPEOUTVARIABLES
  2
AcDbWipeoutVariables
  3
WipeOut|AutoCAD Express Tool|expresstools@autodesk.com
 90
        0
280
     0
281
     0
  0
CLASS
  1
RTEXT
  2
RText
  3
RText|AutoCAD Express Tool|expresstools@autodesk.com
 90
        0
280
     0
281
     1
  0
CLASS
  1
ARCALIGNEDTEXT
  2
AcDbArcAlignedText
  3
ATEXT|AutoCAD Express Tool|expresstools@autodesk.com
 90
        0
280
     0
281
     1
  0
ENDSEC
  0
SECTION
  2
TABLES
  0
TABLE
  2
VPORT
  5
7
100
AcDbSymbolTable
 70
     1
  0
VPORT
  5
15
100
AcDbSymbolTableRecord
100
AcDbViewportTableRecord
  2
*ACTIVE
 70
     0
 10
0.0
 20
0.0
 11
1.0
 21
1.0
 12
6.591288
 22
4.579184
 13
0.0
 23
0.0
 14
1.0
 24
1.0
 15
0.0
 25
0.0
 16
0.0
 26
0.0
 36
1.0
 17
0.0
 27
0.0
 37
0.0
 40
9.158369
 41
0.688564
 42
50.0
 43
0.0
 44
0.0
 50
0.0
 51
0.0
 71
     0
 72
   100
 73
     1
 74
     1
 75
     0
 76
     0
 77
     0
 78
     0
281
     0
 65
     0
110
0.0
120
0.0
130
0.0
111
1.0
121
0.0
131
0.0
112
0.0
122
1.0
132
0.0
345
0
346
0
 79
     0
146
0.0
  0
ENDTAB
  0
TABLE
  2
LTYPE
  5
4
100
AcDbSymbolTable
 70
     7
  0
LTYPE
  5
11
100
AcDbSymbolTableRecord
100
AcDbLinetypeTableRecord
  2
ByBlock
 70
    64
  3

 72
    65
 73
     0
 40
0.0
  0
LTYPE
  5
12
100
AcDbSymbolTableRecord
100
AcDbLinetypeTableRecord
  2
ByLayer
 70
    64
  3

 72
    65
 73
     0
 40
0.0
  0
LTYPE
  5
13
100
AcDbSymbolTableRecord
100
AcDbLinetypeTableRecord
  2
Continuous
 70
    64
  3
Solid line
 72
    65
 73
     0
 40
0.0
  0
LTYPE
  5
24
100
AcDbSymbolTableRecord
100
AcDbLinetypeTableRecord
  2
HIDDEN
 70
    64
  3
_ _ _ _ _ _ _ _ _ _ _ _ _ _ _ _ _ _ _ _ _ _ _ _
 72
    65
 73
     2
 40
0.1875
 49
0.125
 74
     0
 49
-0.0625
 74
     0
  0
LTYPE
  5
25
100
AcDbSymbolTableRecord
100
AcDbLinetypeTableRecord
  2
DOTTED
 70
    64
  3
...............................................
 72
    65
 73
     2
 40
0.125
 49
0.0
 74
     0
 49
-0.125
 74
     0
  0
LTYPE
  5
26
100
AcDbSymbolTableRecord
100
AcDbLinetypeTableRecord
  2
CENTER
 70
    64
  3
____ _ ____ _ ____ _ ____ _ ____ _ ____ _ ____ 
 72
    65
 73
     4
 40
1.125
 49
0.75
 74
     0
 49
-0.125
 74
     0
 49
0.125
 74
     0
 49
-0.125
 74
     0
  0
LTYPE
  5
27
100
AcDbSymbolTableRecord
100
AcDbLinetypeTableRecord
  2
PHANTOM
 70
    64
  3
______  __  __  ______  __  __  ______  __  __ 
 72
    65
 73
     6
 40
1.25
 49
0.625
 74
     0
 49
-0.125
 74
     0
 49
0.125
 74
     0
 49
-0.125
 74
     0
 49
0.125
 74
     0
 49
-0.125
 74
     0
  0
ENDTAB
  0
TABLE
  2
LAYER
  5
2
100
AcDbSymbolTable
 70
     2
  0
LAYER
  5
14
100
AcDbSymbolTableRecord
100
AcDbLayerTableRecord
  2
0
 70
     0
 62
     7
  6
Continuous
290
     1
370
    -3
390
1D
  0
LAYER
  5
28
100
AcDbSymbolTableRecord
100
AcDbLayerTableRecord
  2
TEXT
 70
     0
 62
     8
  6
Continuous
290
     1
370
    -3
390
1F
  0
ENDTAB
  0
TABLE
  2
STYLE
  5
3
100
AcDbSymbolTable
 70
     1
  0
STYLE
  5
17
100
AcDbSymbolTableRecord
100
AcDbTextStyleTableRecord
  2
Standard
 70
     0
 40
0.0
 41
1.0
 50
0.0
 71
     0
 42
0.0
  3
txt
  4

  0
ENDTAB
  0
TABLE
  2
VIEW
  5
5
100
AcDbSymbolTable
 70
     0
  0
ENDTAB
  0
TABLE
  2
UCS
  5
6
100
AcDbSymbolTable
 70
     0
  0
ENDTAB
  0
TABLE
  2
APPID
  5
8
100
AcDbSymbolTable
 70
     1
  0
APPID
  5
16
100
AcDbSymbolTableRecord
100
AcDbRegAppTableRecord
  2
ACAD
 70
     0
  0
ENDTAB
  0
TABLE
  2
DIMSTYLE
  5
9
100
AcDbSymbolTable
 70
     1
100
AcDbDimStyleTable
 71
     0
  0
DIMSTYLE
105
18
100
AcDbSymbolTableRecord
100
AcDbDimStyleTableRecord
  2
Standard
 70
     0
  3

  4

 40
1.0
 41
0.18
 42
0.0625
 43
0.38
 44
0.18
 45
0.0
 46
0.0
 47
0.0
 48
0.0
 71
     0
 72
     0
 73
     1
 74
     1
 75
     0
 76
     0
 77
     0
 78
     0
 79
     0
140
0.18
141
0.09
142
0.0
143
25.4
144
1.0
145
0.0
146
1.0
147
0.09
148
0.0
170
     0
171
     2
172
     0
173
     0
174
     0
175
     0
176
     0
177
     0
178
     0
179
     0
271
     4
272
     4
273
     2
274
     2
275
     0
276
     0
277
     2
278
    46
279
     0
280
     0
281
     0
282
     0
283
     1
284
     0
285
     0
286
     0
288
     0
340
17
341
0
342
0
343
0
344
0
371
    -2
372
    -2
  0
ENDTAB
  0
TABLE
  2
BLOCK_RECORD
  5
1
100
AcDbSymbolTable
 70
    92
  0
BLOCK_RECORD
  5
A
100
AcDbSymbolTableRecord
100
AcDbBlockTableRecord
  2
*MODEL_SPACE
340
20
  0
BLOCK_RECORD
  5
B
100
AcDbSymbolTableRecord
100
AcDbBlockTableRecord
  2
*PAPER_SPACE
340
21
  0
BLOCK_RECORD
  5
29
100
AcDbSymbolTableRecord
100
AcDbBlockTableRecord
  2
*B0
340
0
  0
BLOCK_RECORD
  5
2C
100
AcDbSymbolTableRecord
100
AcDbBlockTableRecord
  2
*B1
340
0
  0
BLOCK_RECORD
  5
1E9
100
AcDbSymbolTableRecord
100
AcDbBlockTableRecord
  2
*B2
340
0
  0
BLOCK_RECORD
  5
1F0
100
AcDbSymbolTableRecord
100
AcDbBlockTableRecord
  2
*B3
340
0
  0
BLOCK_RECORD
  5
39B
100
AcDbSymbolTableRecord
100
AcDbBlockTableRecord
  2
*B4
340
0
  0
BLOCK_RECORD
  5
3A2
100
AcDbSymbolTableRecord
100
AcDbBlockTableRecord
  2
*B5
340
0
  0
BLOCK_RECORD
  5
3A9
100
AcDbSymbolTableRecord
100
AcDbBlockTableRecord
  2
*B6
340
0
  0
BLOCK_RECORD
  5
3B0
100
AcDbSymbolTableRecord
100
AcDbBlockTableRecord
  2
*B7
340
0
  0
BLOCK_RECORD
  5
3B7
100
AcDbSymbolTableRecord
100
AcDbBlockTableRecord
  2
*B8
340
0
  0
BLOCK_RECORD
  5
3BE
100
AcDbSymbolTableRecord
100
AcDbBlockTableRecord
  2
*B9
340
0
  0
BLOCK_RECORD
  5
3C5
100
AcDbSymbolTableRecord
100
AcDbBlockTableRecord
  2
*B10
340
0
  0
BLOCK_RECORD
  5
3CC
100
AcDbSymbolTableRecord
100
AcDbBlockTableRecord
  2
*B11
340
0
  0
BLOCK_RECORD
  5
3D3
100
AcDbSymbolTableRecord
100
AcDbBlockTableRecord
  2
*B12
340
0
  0
BLOCK_RECORD
  5
3DA
100
AcDbSymbolTableRecord
100
AcDbBlockTableRecord
  2
*B13
340
0
  0
BLOCK_RECORD
  5
3E1
100
AcDbSymbolTableRecord
100
AcDbBlockTableRecord
  2
*B14
340
0
  0
BLOCK_RECORD
  5
3E8
100
AcDbSymbolTableRecord
100
AcDbBlockTableRecord
  2
*B15
340
0
  0
BLOCK_RECORD
  5
3EF
100
AcDbSymbolTableRecord
100
AcDbBlockTableRecord
  2
*B16
340
0
  0
BLOCK_RECORD
  5
3F6
100
AcDbSymbolTableRecord
100
AcDbBlockTableRecord
  2
*B17
340
0
  0
BLOCK_RECORD
  5
3FD
100
AcDbSymbolTableRecord
100
AcDbBlockTableRecord
  2
*B18
340
0
  0
BLOCK_RECORD
  5
404
100
AcDbSymbolTableRecord
100
AcDbBlockTableRecord
  2
*B19
340
0
  0
BLOCK_RECORD
  5
40B
100
AcDbSymbolTableRecord
100
AcDbBlockTableRecord
  2
*B20
340
0
  0
BLOCK_RECORD
  5
412
100
AcDbSymbolTableRecord
100
AcDbBlockTableRecord
  2
*B21
340
0
  0
BLOCK_RECORD
  5
419
100
AcDbSymbolTableRecord
100
AcDbBlockTableRecord
  2
*B22
340
0
  0
BLOCK_RECORD
  5
41F
100
AcDbSymbolTableRecord
100
AcDbBlockTableRecord
  2
*B23
340
0
  0
BLOCK_RECORD
  5
424
100
AcDbSymbolTableRecord
100
AcDbBlockTableRecord
  2
*B24
340
0
  0
BLOCK_RECORD
  5
429
100
AcDbSymbolTableRecord
100
AcDbBlockTableRecord
  2
*B25
340
0
  0
BLOCK_RECORD
  5
42F
100
AcDbSymbolTableRecord
100
AcDbBlockTableRecord
  2
*B26
340
0
  0
BLOCK_RECORD
  5
434
100
AcDbSymbolTableRecord
100
AcDbBlockTableRecord
  2
*B27
340
0
  0
BLOCK_RECORD
  5
43A
100
AcDbSymbolTableRecord
100
AcDbBlockTableRecord
  2
*B28
340
0
  0
BLOCK_RECORD
  5
43F
100
AcDbSymbolTableRecord
100
AcDbBlockTableRecord
  2
*B29
340
0
  0
BLOCK_RECORD
  5
444
100
AcDbSymbolTableRecord
100
AcDbBlockTableRecord
  2
*B30
340
0
  0
BLOCK_RECORD
  5
44D
100
AcDbSymbolTableRecord
100
AcDbBlockTableRecord
  2
*B31
340
0
  0
BLOCK_RECORD
  5
453
100
AcDbSymbolTableRecord
100
AcDbBlockTableRecord
  2
*B32
340
0
  0
BLOCK_RECORD
  5
460
100
AcDbSymbolTableRecord
100
AcDbBlockTableRecord
  2
*B33
340
0
  0
BLOCK_RECORD
  5
466
100
AcDbSymbolTableRecord
100
AcDbBlockTableRecord
  2
*B34
340
0
  0
BLOCK_RECORD
  5
46C
100
AcDbSymbolTableRecord
100
AcDbBlockTableRecord
  2
*B35
340
0
  0
BLOCK_RECORD
  5
471
100
AcDbSymbolTableRecord
100
AcDbBlockTableRecord
  2
*B36
340
0
  0
BLOCK_RECORD
  5
477
100
AcDbSymbolTableRecord
100
AcDbBlockTableRecord
  2
*B37
340
0
  0
BLOCK_RECORD
  5
47F
100
AcDbSymbolTableRecord
100
AcDbBlockTableRecord
  2
*B38
340
0
  0
BLOCK_RECORD
  5
485
100
AcDbSymbolTableRecord
100
AcDbBlockTableRecord
  2
*B39
340
0
  0
BLOCK_RECORD
  5
48D
100
AcDbSymbolTableRecord
100
AcDbBlockTableRecord
  2
*B40
340
0
  0
BLOCK_RECORD
  5
495
100
AcDbSymbolTableRecord
100
AcDbBlockTableRecord
  2
*B41
340
0
  0
BLOCK_RECORD
  5
49E
100
AcDbSymbolTableRecord
100
AcDbBlockTableRecord
  2
*B42
340
0
  0
BLOCK_RECORD
  5
4A3
100
AcDbSymbolTableRecord
100
AcDbBlockTableRecord
  2
*B43
340
0
  0
BLOCK_RECORD
  5
4B8
100
AcDbSymbolTableRecord
100
AcDbBlockTableRecord
  2
*B44
340
0
  0
BLOCK_RECORD
  5
4BE
100
AcDbSymbolTableRecord
100
AcDbBlockTableRecord
  2
*B45
340
0
  0
BLOCK_RECORD
  5
4C3
100
AcDbSymbolTableRecord
100
AcDbBlockTableRecord
  2
*B46
340
0
  0
BLOCK_RECORD
  5
4C9
100
AcDbSymbolTableRecord
100
AcDbBlockTableRecord
  2
*B47
340
0
  0
BLOCK_RECORD
  5
4CE
100
AcDbSymbolTableRecord
100
AcDbBlockTableRecord
  2
*B48
340
0
  0
BLOCK_RECORD
  5
4D3
100
AcDbSymbolTableRecord
100
AcDbBlockTableRecord
  2
*B49
340
0
  0
BLOCK_RECORD
  5
4D8
100
AcDbSymbolTableRecord
100
AcDbBlockTableRecord
  2
*B50
340
0
  0
BLOCK_RECORD
  5
4DD
100
AcDbSymbolTableRecord
100
AcDbBlockTableRecord
  2
*B51
340
0
  0
BLOCK_RECORD
  5
4E2
100
AcDbSymbolTableRecord
100
AcDbBlockTableRecord
  2
*B52
340
0
  0
BLOCK_RECORD
  5
4E8
100
AcDbSymbolTableRecord
100
AcDbBlockTableRecord
  2
*B53
340
0
  0
BLOCK_RECORD
  5
4F0
100
AcDbSymbolTableRecord
100
AcDbBlockTableRecord
  2
*B54
340
0
  0
BLOCK_RECORD
  5
4F5
100
AcDbSymbolTableRecord
100
AcDbBlockTableRecord
  2
*B55
340
0
  0
BLOCK_RECORD
  5
4FD
100
AcDbSymbolTableRecord
100
AcDbBlockTableRecord
  2
*B56
340
0
  0
BLOCK_RECORD
  5
503
100
AcDbSymbolTableRecord
100
AcDbBlockTableRecord
  2
*B57
340
0
  0
BLOCK_RECORD
  5
508
100
AcDbSymbolTableRecord
100
AcDbBlockTableRecord
  2
*B58
340
0
  0
BLOCK_RECORD
  5
50E
100
AcDbSymbolTableRecord
100
AcDbBlockTableRecord
  2
*B59
340
0
  0
BLOCK_RECORD
  5
513
100
AcDbSymbolTableRecord
100
AcDbBlockTableRecord
  2
*B60
340
0
  0
BLOCK_RECORD
  5
521
100
AcDbSymbolTableRecord
100
AcDbBlockTableRecord
  2
*B61
340
0
  0
BLOCK_RECORD
  5
527
100
AcDbSymbolTableRecord
100
AcDbBlockTableRecord
  2
*B62
340
0
  0
BLOCK_RECORD
  5
52D
100
AcDbSymbolTableRecord
100
AcDbBlockTableRecord
  2
*B63
340
0
  0
BLOCK_RECORD
  5
533
100
AcDbSymbolTableRecord
100
AcDbBlockTableRecord
  2
*B64
340
0
  0
BLOCK_RECORD
  5
539
100
AcDbSymbolTableRecord
100
AcDbBlockTableRecord
  2
*B65
340
0
  0
BLOCK_RECORD
  5
53F
100
AcDbSymbolTableRecord
100
AcDbBlockTableRecord
  2
*B66
340
0
  0
BLOCK_RECORD
  5
545
100
AcDbSymbolTableRecord
100
AcDbBlockTableRecord
  2
*B67
340
0
  0
BLOCK_RECORD
  5
54B
100
AcDbSymbolTableRecord
100
AcDbBlockTableRecord
  2
*B68
340
0
  0
BLOCK_RECORD
  5
551
100
AcDbSymbolTableRecord
100
AcDbBlockTableRecord
  2
*B69
340
0
  0
BLOCK_RECORD
  5
556
100
AcDbSymbolTableRecord
100
AcDbBlockTableRecord
  2
*B70
340
0
  0
BLOCK_RECORD
  5
55B
100
AcDbSymbolTableRecord
100
AcDbBlockTableRecord
  2
*B71
340
0
  0
BLOCK_RECORD
  5
560
100
AcDbSymbolTableRecord
100
AcDbBlockTableRecord
  2
*B72
340
0
  0
BLOCK_RECORD
  5
565
100
AcDbSymbolTableRecord
100
AcDbBlockTableRecord
  2
*B73
340
0
  0
BLOCK_RECORD
  5
56A
100
AcDbSymbolTableRecord
100
AcDbBlockTableRecord
  2
*B74
340
0
  0
BLOCK_RECORD
  5
56F
100
AcDbSymbolTableRecord
100
AcDbBlockTableRecord
  2
*B75
340
0
  0
BLOCK_RECORD
  5
574
100
AcDbSymbolTableRecord
100
AcDbBlockTableRecord
  2
*B76
340
0
  0
BLOCK_RECORD
  5
579
100
AcDbSymbolTableRecord
100
AcDbBlockTableRecord
  2
*B77
340
0
  0
BLOCK_RECORD
  5
57E
100
AcDbSymbolTableRecord
100
AcDbBlockTableRecord
  2
*B78
340
0
  0
BLOCK_RECORD
  5
583
100
AcDbSymbolTableRecord
100
AcDbBlockTableRecord
  2
*B79
340
0
  0
BLOCK_RECORD
  5
588
100
AcDbSymbolTableRecord
100
AcDbBlockTableRecord
  2
*B80
340
0
  0
BLOCK_RECORD
  5
58D
100
AcDbSymbolTableRecord
100
AcDbBlockTableRecord
  2
*B81
340
0
  0
BLOCK_RECORD
  5
592
100
AcDbSymbolTableRecord
100
AcDbBlockTableRecord
  2
*B82
340
0
  0
BLOCK_RECORD
  5
597
100
AcDbSymbolTableRecord
100
AcDbBlockTableRecord
  2
*B83
340
0
  0
BLOCK_RECORD
  5
59C
100
AcDbSymbolTableRecord
100
AcDbBlockTableRecord
  2
*B84
340
0
  0
BLOCK_RECORD
  5
5A2
100
AcDbSymbolTableRecord
100
AcDbBlockTableRecord
  2
*B85
340
0
  0
BLOCK_RECORD
  5
5A8
100
AcDbSymbolTableRecord
100
AcDbBlockTableRecord
  2
*B86
340
0
  0
BLOCK_RECORD
  5
5AD
100
AcDbSymbolTableRecord
100
AcDbBlockTableRecord
  2
*B87
340
0
  0
BLOCK_RECORD
  5
5B2
100
AcDbSymbolTableRecord
100
AcDbBlockTableRecord
  2
*B88
340
0
  0
BLOCK_RECORD
  5
5B7
100
AcDbSymbolTableRecord
100
AcDbBlockTableRecord
  2
*B89
340
0
  0
BLOCK_RECORD
  5
5BC
100
AcDbSymbolTableRecord
100
AcDbBlockTableRecord
  2
*B90
340
0
  0
BLOCK_RECORD
  5
5C1
100
AcDbSymbolTableRecord
100
AcDbBlockTableRecord
  2
*B91
340
0
  0
ENDTAB
  0
ENDSEC
  0
SECTION
  2
BLOCKS
  0
BLOCK
  5
D
100
AcDbEntity
  8
0
100
AcDbBlockBegin
  2
*MODEL_SPACE
 70
     0
 10
0.0
 20
0.0
 30
0.0
  3
*MODEL_SPACE
  1

  0
ENDBLK
  5
E
100
AcDbEntity
  8
0
100
AcDbBlockEnd
  0
BLOCK
  5
F
100
AcDbEntity
 67
     1
  8
0
100
AcDbBlockBegin
  2
*PAPER_SPACE
 70
     0
 10
0.0
 20
0.0
 30
0.0
  3
*PAPER_SPACE
  1

  0
ENDBLK
  5
10
100
AcDbEntity
 67
     1
  8
0
100
AcDbBlockEnd
  0
BLOCK
  5
2A
100
AcDbEntity
  8
0
100
AcDbBlockBegin
  2
*B0
 70
     0
 10
0.0
 20
0.0
 30
0.0
  3
*B0
  1

  0
ENDBLK
  5
2B
100
AcDbEntity
  8
0
100
AcDbBlockEnd
  0
BLOCK
  5
2D
100
AcDbEntity
  8
0
100
AcDbBlockBegin
  2
*B1
 70
     0
 10
0.0
 20
0.0
 30
0.0
  3
*B1
  1

  0
LINE
  5
2E
100
AcDbEntity
  8
0
  6
HIDDEN
 62
   174
100
AcDbLine
 10
259.698359
 20
121.51184
 30
0.0
 11
271.698359
 21
121.51184
 31
0.0
  0
LINE
  5
2F
100
AcDbEntity
  8
0
  6
HIDDEN
 62
   174
100
AcDbLine
 10
259.698359
 20
130.71184
 30
0.0
 11
271.698359
 21
130.71184
 31
0.0
  0
LINE
  5
30
100
AcDbEntity
  8
0
  6
HIDDEN
 62
   174
100
AcDbLine
 10
259.698359
 20
120.754466
 30
0.0
 11
259.698359
 21
130.753827
 31
0.0
  0
LINE
  5
31
100
AcDbEntity
  8
0
  6
HIDDEN
 62
   174
100
AcDbLine
 10
271.698359
 20
120.754466
 30
0.0
 11
271.698359
 21
130.753827
 31
0.0
  0
LINE
  5
32
100
AcDbEntity
  8
0
  6
HIDDEN
 62
   174
100
AcDbLine
 10
259.698359
 20
120.71184
 30
0.0
 11
271.698359
 21
120.71184
 31
0.0
  0
LINE
  5
33
100
AcDbEntity
  8
0
  6
HIDDEN
 62
   174
100
AcDbLine
 10
259.698359
 20
130.71184
 30
0.0
 11
271.698359
 21
130.71184
 31
0.0
  0
LINE
  5
34
100
AcDbEntity
  8
0
  6
HIDDEN
 62
   174
100
AcDbLine
 10
259.698359
 20
120.71184
 30
0.0
 11
271.698359
 21
120.71184
 31
0.0
  0
LINE
  5
35
100
AcDbEntity
  8
0
  6
HIDDEN
 62
   174
100
AcDbLine
 10
271.698359
 20
121.51184
 30
0.0
 11
256.698359
 21
121.51184
 31
0.0
  0
LINE
  5
36
100
AcDbEntity
  8
0
  6
HIDDEN
 62
   174
100
AcDbLine
 10
271.698359
 20
129.91184
 30
0.0
 11
256.698359
 21
129.91184
 31
0.0
  0
LINE
  5
37
100
AcDbEntity
  8
0
  6
HIDDEN
 62
   174
100
AcDbLine
 10
271.698359
 20
121.51184
 30
0.0
 11
256.698359
 21
121.51184
 31
0.0
  0
LINE
  5
38
100
AcDbEntity
  8
0
  6
HIDDEN
 62
   174
100
AcDbLine
 10
271.698359
 20
129.91184
 30
0.0
 11
256.698359
 21
129.91184
 31
0.0
  0
LINE
  5
39
100
AcDbEntity
  8
0
  6
HIDDEN
 62
   174
100
AcDbLine
 10
259.698359
 20
129.91184
 30
0.0
 11
271.698359
 21
129.91184
 31
0.0
  0
LINE
  5
3A
100
AcDbEntity
  8
0
  6
HIDDEN
 62
   174
100
AcDbLine
 10
259.698359
 20
121.51184
 30
0.0
 11
271.698359
 21
121.51184
 31
0.0
  0
LINE
  5
3B
100
AcDbEntity
  8
0
  6
HIDDEN
 62
   174
100
AcDbLine
 10
259.698359
 20
101.51184
 30
0.0
 11
271.698359
 21
101.51184
 31
0.0
  0
LINE
  5
3C
100
AcDbEntity
  8
0
  6
HIDDEN
 62
   174
100
AcDbLine
 10
259.698359
 20
100.71184
 30
0.0
 11
271.698359
 21
100.71184
 31
0.0
  0
LINE
  5
3D
100
AcDbEntity
  8
0
  6
HIDDEN
 62
   174
100
AcDbLine
 10
271.698359
 20
141.51184
 30
0.0
 11
256.698359
 21
141.51184
 31
0.0
  0
ARC
  5
3E
100
AcDbEntity
  8
0
  6
Continuous
 62
   174
100
AcDbCircle
 10
228.698359
 20
187.01184
 30
0.0
 40
3.0
100
AcDbArc
 50
-270.270153
 51
-269.632991
  0
ARC
  5
3F
100
AcDbEntity
  8
0
  6
Continuous
 62
   174
100
AcDbCircle
 10
228.698359
 20
187.01184
 30
0.0
 40
3.0
100
AcDbArc
 50
-327.976968
 51
-270.270153
  0
ARC
  5
40
100
AcDbEntity
  8
0
  6
Continuous
 62
   174
100
AcDbCircle
 10
228.698359
 20
187.01184
 30
0.0
 40
3.0
100
AcDbArc
 50
-332.642817
 51
-327.976968
  0
LINE
  5
41
100
AcDbEntity
  8
0
  6
HIDDEN
 62
   174
100
AcDbLine
 10
259.698359
 20
110.71184
 30
0.0
 11
271.698359
 21
110.71184
 31
0.0
  0
LINE
  5
42
100
AcDbEntity
  8
0
  6
HIDDEN
 62
   174
100
AcDbLine
 10
271.698359
 20
109.91184
 30
0.0
 11
256.698359
 21
109.91184
 31
0.0
  0
LINE
  5
43
100
AcDbEntity
  8
0
  6
HIDDEN
 62
   174
100
AcDbLine
 10
271.698359
 20
141.51184
 30
0.0
 11
256.698359
 21
141.51184
 31
0.0
  0
ARC
  5
44
100
AcDbEntity
  8
0
  6
Continuous
 62
   174
100
AcDbCircle
 10
228.698359
 20
187.01184
 30
0.0
 40
3.0
100
AcDbArc
 50
-89.632991
 51
-31.895583
  0
ARC
  5
45
100
AcDbEntity
  8
0
  6
Continuous
 62
   174
100
AcDbCircle
 10
228.698359
 20
187.01184
 30
0.0
 40
3.0
100
AcDbArc
 50
-27.394883
 51
27.357183
  0
ARC
  5
46
100
AcDbEntity
  8
0
  6
Continuous
 62
   174
100
AcDbCircle
 10
228.698359
 20
187.01184
 30
0.0
 40
3.0
100
AcDbArc
 50
-31.895583
 51
-27.394883
  0
ARC
  5
47
100
AcDbEntity
  8
0
  6
Continuous
 62
   174
100
AcDbCircle
 10
263.395762
 20
218.78828
 30
0.0
 40
2.8
100
AcDbArc
 50
-143.876326
 51
-14.856262
  0
ARC
  5
48
100
AcDbEntity
  8
0
  6
Continuous
 62
   174
100
AcDbCircle
 10
263.395762
 20
218.78828
 30
0.0
 40
2.8
100
AcDbArc
 50
-169.366294
 51
-143.876326
  0
ARC
  5
49
100
AcDbEntity
  8
0
  6
HIDDEN
 62
   174
100
AcDbCircle
 10
263.395762
 20
218.78828
 30
0.0
 40
2.0
100
AcDbArc
 50
-180.442964
 51
-169.366294
  0
ARC
  5
4A
100
AcDbEntity
  8
0
  6
HIDDEN
 62
   174
100
AcDbCircle
 10
263.395762
 20
218.78828
 30
0.0
 40
2.0
100
AcDbArc
 50
-193.84902
 51
-180.442964
  0
ARC
  5
4B
100
AcDbEntity
  8
0
  6
HIDDEN
 62
   174
100
AcDbCircle
 10
263.395762
 20
218.78828
 30
0.0
 40
2.0
100
AcDbArc
 50
-205.708774
 51
-193.84902
  0
ARC
  5
4C
100
AcDbEntity
  8
0
  6
HIDDEN
 62
   174
100
AcDbCircle
 10
263.395762
 20
218.78828
 30
0.0
 40
2.0
100
AcDbArc
 50
-219.908071
 51
-205.708774
  0
LINE
  5
4D
100
AcDbEntity
  8
0
  6
HIDDEN
 62
   174
100
AcDbLine
 10
259.698359
 20
100.756044
 30
0.0
 11
259.698359
 21
110.755105
 31
0.0
  0
LINE
  5
4E
100
AcDbEntity
  8
0
  6
HIDDEN
 62
   174
100
AcDbLine
 10
271.698359
 20
100.756044
 30
0.0
 11
271.698359
 21
110.755105
 31
0.0
  0
LINE
  5
4F
100
AcDbEntity
  8
0
  6
HIDDEN
 62
   174
100
AcDbLine
 10
271.698359
 20
109.91184
 30
0.0
 11
256.698359
 21
109.91184
 31
0.0
  0
LINE
  5
50
100
AcDbEntity
  8
0
  6
HIDDEN
 62
   174
100
AcDbLine
 10
259.698359
 20
109.91184
 30
0.0
 11
271.698359
 21
109.91184
 31
0.0
  0
LINE
  5
51
100
AcDbEntity
  8
0
  6
HIDDEN
 62
   174
100
AcDbLine
 10
259.698359
 20
140.71184
 30
0.0
 11
271.698359
 21
140.71184
 31
0.0
  0
ARC
  5
52
100
AcDbEntity
  8
0
  6
Continuous
 62
   174
100
AcDbCircle
 10
228.698359
 20
187.01184
 30
0.0
 40
3.0
100
AcDbArc
 50
-90.270153
 51
-89.632991
  0
ARC
  5
53
100
AcDbEntity
  8
0
  6
Continuous
 62
   174
100
AcDbCircle
 10
228.698359
 20
187.01184
 30
0.0
 40
3.0
100
AcDbArc
 50
-147.976968
 51
-90.270153
  0
ARC
  5
54
100
AcDbEntity
  8
0
  6
Continuous
 62
   174
100
AcDbCircle
 10
228.698359
 20
187.01184
 30
0.0
 40
3.0
100
AcDbArc
 50
-152.642817
 51
-147.976968
  0
ARC
  5
55
100
AcDbEntity
  8
0
  6
HIDDEN
 62
   174
100
AcDbCircle
 10
263.395762
 20
218.78828
 30
0.0
 40
2.0
100
AcDbArc
 50
-233.774087
 51
-219.908071
  0
ARC
  5
56
100
AcDbEntity
  8
0
  6
HIDDEN
 62
   174
100
AcDbCircle
 10
263.395762
 20
218.78828
 30
0.0
 40
2.0
100
AcDbArc
 50
-246.802926
 51
-233.774087
  0
ARC
  5
57
100
AcDbEntity
  8
0
  6
HIDDEN
 62
   174
100
AcDbCircle
 10
263.395762
 20
218.78828
 30
0.0
 40
2.0
100
AcDbArc
 50
-259.533208
 51
-246.802926
  0
ARC
  5
58
100
AcDbEntity
  8
0
  6
HIDDEN
 62
   174
100
AcDbCircle
 10
263.395762
 20
218.78828
 30
0.0
 40
2.0
100
AcDbArc
 50
-270.731855
 51
-259.533208
  0
ARC
  5
59
100
AcDbEntity
  8
0
  6
HIDDEN
 62
   174
100
AcDbCircle
 10
263.395762
 20
218.78828
 30
0.0
 40
2.0
100
AcDbArc
 50
-285.052093
 51
-270.731855
  0
ARC
  5
5A
100
AcDbEntity
  8
0
  6
HIDDEN
 62
   174
100
AcDbCircle
 10
263.395762
 20
218.78828
 30
0.0
 40
2.0
100
AcDbArc
 50
-297.13043
 51
-285.052093
  0
ARC
  5
5B
100
AcDbEntity
  8
0
  6
HIDDEN
 62
   174
100
AcDbCircle
 10
263.395762
 20
218.78828
 30
0.0
 40
2.0
100
AcDbArc
 50
-307.347927
 51
-297.13043
  0
ARC
  5
5C
100
AcDbEntity
  8
0
  6
HIDDEN
 62
   174
100
AcDbCircle
 10
263.395762
 20
218.78828
 30
0.0
 40
2.0
100
AcDbArc
 50
-322.234525
 51
-307.347927
  0
ARC
  5
5D
100
AcDbEntity
  8
0
  6
HIDDEN
 62
   174
100
AcDbCircle
 10
263.395762
 20
218.78828
 30
0.0
 40
2.0
100
AcDbArc
 50
-334.666568
 51
-322.234525
  0
ARC
  5
5E
100
AcDbEntity
  8
0
  6
HIDDEN
 62
   174
100
AcDbCircle
 10
263.395762
 20
218.78828
 30
0.0
 40
2.0
100
AcDbArc
 50
-349.366294
 51
-334.666568
  0
ARC
  5
5F
100
AcDbEntity
  8
0
  6
HIDDEN
 62
   174
100
AcDbCircle
 10
263.395762
 20
218.78828
 30
0.0
 40
2.0
100
AcDbArc
 50
-0.442964
 51
10.633706
  0
LINE
  5
60
100
AcDbEntity
  8
0
  6
HIDDEN
 62
   174
100
AcDbLine
 10
259.698359
 20
100.71184
 30
0.0
 11
271.698359
 21
100.71184
 31
0.0
  0
ARC
  5
61
100
AcDbEntity
  8
0
  6
Continuous
 62
   174
100
AcDbCircle
 10
263.395762
 20
218.78828
 30
0.0
 40
2.8
100
AcDbArc
 50
-194.856262
 51
-169.366294
  0
ARC
  5
62
100
AcDbEntity
  8
0
  6
Continuous
 62
   174
100
AcDbCircle
 10
263.395762
 20
218.78828
 30
0.0
 40
2.8
100
AcDbArc
 50
-323.876326
 51
-194.856262
  0
ARC
  5
63
100
AcDbEntity
  8
0
  6
HIDDEN
 62
   174
100
AcDbCircle
 10
263.395762
 20
218.78828
 30
0.0
 40
2.8
100
AcDbArc
 50
-349.366294
 51
-169.366294
  0
ARC
  5
64
100
AcDbEntity
  8
0
  6
HIDDEN
 62
   174
100
AcDbCircle
 10
263.395762
 20
218.78828
 30
0.0
 40
2.8
100
AcDbArc
 50
-169.366294
 51
10.633706
  0
ARC
  5
65
100
AcDbEntity
  8
0
  6
Continuous
 62
   174
100
AcDbCircle
 10
266.901824
 20
200.114568
 30
0.0
 40
3.0
100
AcDbArc
 50
-66.981488
 51
-62.881059
  0
ARC
  5
66
100
AcDbEntity
  8
0
  6
Continuous
 62
   174
100
AcDbCircle
 10
266.901824
 20
200.114568
 30
0.0
 40
3.0
100
AcDbArc
 50
-86.069
 51
-66.981488
  0
ARC
  5
67
100
AcDbEntity
  8
0
  6
Continuous
 62
   174
100
AcDbCircle
 10
266.901824
 20
200.114568
 30
0.0
 40
3.0
100
AcDbArc
 50
-89.632991
 51
-86.069
  0
LINE
  5
68
100
AcDbEntity
  8
0
  6
HIDDEN
 62
   174
100
AcDbLine
 10
259.698359
 20
110.71184
 30
0.0
 11
271.698359
 21
110.71184
 31
0.0
  0
LINE
  5
69
100
AcDbEntity
  8
0
  6
HIDDEN
 62
   174
100
AcDbLine
 10
271.698359
 20
101.51184
 30
0.0
 11
256.698359
 21
101.51184
 31
0.0
  0
LINE
  5
6A
100
AcDbEntity
  8
0
  6
HIDDEN
 62
   174
100
AcDbLine
 10
259.698359
 20
150.71184
 30
0.0
 11
271.698359
 21
150.71184
 31
0.0
  0
LINE
  5
6B
100
AcDbEntity
  8
0
  6
HIDDEN
 62
   174
100
AcDbLine
 10
271.698359
 20
140.753188
 30
0.0
 11
271.698359
 21
150.752249
 31
0.0
  0
ARC
  5
6C
100
AcDbEntity
  8
0
  6
Continuous
 62
   174
100
AcDbCircle
 10
266.901824
 20
200.114568
 30
0.0
 40
3.0
100
AcDbArc
 50
-295.41535
 51
-294.981555
  0
ARC
  5
6D
100
AcDbEntity
  8
0
  6
Continuous
 62
   174
100
AcDbCircle
 10
266.901824
 20
200.114568
 30
0.0
 40
3.0
100
AcDbArc
 50
-318.323625
 51
-295.41535
  0
ARC
  5
6E
100
AcDbEntity
  8
0
  6
Continuous
 62
   174
100
AcDbCircle
 10
266.901824
 20
200.114568
 30
0.0
 40
3.0
100
AcDbArc
 50
-324.46702
 51
-318.323625
  0
LINE
  5
6F
100
AcDbEntity
  8
0
  6
HIDDEN
 62
   174
100
AcDbLine
 10
271.698359
 20
101.51184
 30
0.0
 11
256.698359
 21
101.51184
 31
0.0
  0
LINE
  5
70
100
AcDbEntity
  8
0
  6
HIDDEN
 62
   174
100
AcDbLine
 10
259.698359
 20
150.71184
 30
0.0
 11
271.698359
 21
150.71184
 31
0.0
  0
LINE
  5
71
100
AcDbEntity
  8
0
  6
HIDDEN
 62
   174
100
AcDbLine
 10
259.698359
 20
140.753188
 30
0.0
 11
259.698359
 21
150.752249
 31
0.0
  0
LINE
  5
72
100
AcDbEntity
  8
0
  6
HIDDEN
 62
   174
100
AcDbLine
 10
271.698359
 20
149.91184
 30
0.0
 11
256.698359
 21
149.91184
 31
0.0
  0
LINE
  5
73
100
AcDbEntity
  8
0
  6
HIDDEN
 62
   174
100
AcDbLine
 10
259.698359
 20
149.91184
 30
0.0
 11
271.698359
 21
149.91184
 31
0.0
  0
LINE
  5
74
100
AcDbEntity
  8
0
  6
HIDDEN
 62
   174
100
AcDbLine
 10
259.698359
 20
149.91184
 30
0.0
 11
271.698359
 21
149.91184
 31
0.0
  0
ARC
  5
75
100
AcDbEntity
  8
0
  6
Continuous
 62
   174
100
AcDbCircle
 10
228.698359
 20
187.01184
 30
0.0
 40
3.0
100
AcDbArc
 50
-207.394883
 51
-152.642817
  0
ARC
  5
76
100
AcDbEntity
  8
0
  6
Continuous
 62
   174
100
AcDbCircle
 10
228.698359
 20
187.01184
 30
0.0
 40
3.0
100
AcDbArc
 50
-211.895583
 51
-207.394883
  0
ARC
  5
77
100
AcDbEntity
  8
0
  6
Continuous
 62
   174
100
AcDbCircle
 10
228.698359
 20
187.01184
 30
0.0
 40
3.0
100
AcDbArc
 50
-269.632991
 51
-211.895583
  0
ARC
  5
78
100
AcDbEntity
  8
0
  6
Continuous
 62
   174
100
AcDbCircle
 10
266.901824
 20
200.114568
 30
0.0
 40
3.0
100
AcDbArc
 50
-34.519201
 51
-16.096278
  0
ARC
  5
79
100
AcDbEntity
  8
0
  6
Continuous
 62
   174
100
AcDbCircle
 10
266.901824
 20
200.114568
 30
0.0
 40
3.0
100
AcDbArc
 50
-40.155838
 51
-34.519201
  0
ARC
  5
7A
100
AcDbEntity
  8
0
  6
Continuous
 62
   174
100
AcDbCircle
 10
266.901824
 20
200.114568
 30
0.0
 40
3.0
100
AcDbArc
 50
-62.881059
 51
-40.155838
  0
LINE
  5
7B
100
AcDbEntity
  8
0
  6
HIDDEN
 62
   174
100
AcDbLine
 10
259.698359
 20
109.91184
 30
0.0
 11
271.698359
 21
109.91184
 31
0.0
  0
LINE
  5
7C
100
AcDbEntity
  8
0
  6
HIDDEN
 62
   174
100
AcDbLine
 10
259.698359
 20
141.51184
 30
0.0
 11
271.698359
 21
141.51184
 31
0.0
  0
LINE
  5
7D
100
AcDbEntity
  8
0
  6
HIDDEN
 62
   174
100
AcDbLine
 10
271.698359
 20
149.91184
 30
0.0
 11
256.698359
 21
149.91184
 31
0.0
  0
ARC
  5
7E
100
AcDbEntity
  8
0
  6
HIDDEN
 62
   174
100
AcDbCircle
 10
263.395762
 20
218.78828
 30
0.0
 40
2.0
100
AcDbArc
 50
-169.366294
 51
10.633706
  0
ARC
  5
7F
100
AcDbEntity
  8
0
  6
HIDDEN
 62
   174
100
AcDbCircle
 10
263.395762
 20
218.78828
 30
0.0
 40
2.0
100
AcDbArc
 50
10.633706
 51
190.633706
  0
ARC
  5
80
100
AcDbEntity
  8
0
  6
Continuous
 62
   174
100
AcDbCircle
 10
263.395762
 20
218.78828
 30
0.0
 40
2.8
100
AcDbArc
 50
-14.856262
 51
10.633706
  0
ARC
  5
81
100
AcDbEntity
  8
0
  6
Continuous
 62
   174
100
AcDbCircle
 10
266.901824
 20
200.114568
 30
0.0
 40
3.0
100
AcDbArc
 50
-269.632991
 51
-266.069
  0
ARC
  5
82
100
AcDbEntity
  8
0
  6
Continuous
 62
   174
100
AcDbCircle
 10
266.901824
 20
200.114568
 30
0.0
 40
3.0
100
AcDbArc
 50
-272.573745
 51
-269.632991
  0
ARC
  5
83
100
AcDbEntity
  8
0
  6
Continuous
 62
   174
100
AcDbCircle
 10
266.901824
 20
200.114568
 30
0.0
 40
3.0
100
AcDbArc
 50
-294.981555
 51
-272.573745
  0
ARC
  5
84
100
AcDbEntity
  8
0
  6
Continuous
 62
   174
100
AcDbCircle
 10
266.901824
 20
200.114568
 30
0.0
 40
3.0
100
AcDbArc
 50
-349.303939
 51
-347.819928
  0
ARC
  5
85
100
AcDbEntity
  8
0
  6
Continuous
 62
   174
100
AcDbCircle
 10
266.901824
 20
200.114568
 30
0.0
 40
3.0
100
AcDbArc
 50
-10.504174
 51
10.696061
  0
ARC
  5
86
100
AcDbEntity
  8
0
  6
Continuous
 62
   174
100
AcDbCircle
 10
266.901824
 20
200.114568
 30
0.0
 40
3.0
100
AcDbArc
 50
-16.096278
 51
-10.504174
  0
LINE
  5
87
100
AcDbEntity
  8
0
  6
HIDDEN
 62
   174
100
AcDbLine
 10
259.698359
 20
129.91184
 30
0.0
 11
271.698359
 21
129.91184
 31
0.0
  0
LINE
  5
88
100
AcDbEntity
  8
0
  6
HIDDEN
 62
   174
100
AcDbLine
 10
259.698359
 20
101.51184
 30
0.0
 11
271.698359
 21
101.51184
 31
0.0
  0
LINE
  5
89
100
AcDbEntity
  8
0
  6
HIDDEN
 62
   174
100
AcDbLine
 10
259.698359
 20
140.71184
 30
0.0
 11
271.698359
 21
140.71184
 31
0.0
  0
LINE
  5
8A
100
AcDbEntity
  8
0
  6
HIDDEN
 62
   174
100
AcDbLine
 10
259.698359
 20
141.51184
 30
0.0
 11
271.698359
 21
141.51184
 31
0.0
  0
ARC
  5
8B
100
AcDbEntity
  8
0
  6
Continuous
 62
   174
100
AcDbCircle
 10
263.395762
 20
218.78828
 30
0.0
 40
2.8
100
AcDbArc
 50
-349.366294
 51
-323.876326
  0
ARC
  5
8C
100
AcDbEntity
  8
0
  6
HIDDEN
 62
   174
100
AcDbCircle
 10
263.395762
 20
218.78828
 30
0.0
 40
2.0
100
AcDbArc
 50
-169.366294
 51
-154.666568
  0
ARC
  5
8D
100
AcDbEntity
  8
0
  6
HIDDEN
 62
   174
100
AcDbCircle
 10
263.395762
 20
218.78828
 30
0.0
 40
2.0
100
AcDbArc
 50
-13.84902
 51
-0.442964
  0
ARC
  5
8E
100
AcDbEntity
  8
0
  6
HIDDEN
 62
   174
100
AcDbCircle
 10
263.395762
 20
218.78828
 30
0.0
 40
2.0
100
AcDbArc
 50
-25.708774
 51
-13.84902
  0
ARC
  5
8F
100
AcDbEntity
  8
0
  6
HIDDEN
 62
   174
100
AcDbCircle
 10
263.395762
 20
218.78828
 30
0.0
 40
2.0
100
AcDbArc
 50
-39.908071
 51
-25.708774
  0
ARC
  5
90
100
AcDbEntity
  8
0
  6
HIDDEN
 62
   174
100
AcDbCircle
 10
263.395762
 20
218.78828
 30
0.0
 40
2.0
100
AcDbArc
 50
-53.774087
 51
-39.908071
  0
ARC
  5
91
100
AcDbEntity
  8
0
  6
HIDDEN
 62
   174
100
AcDbCircle
 10
263.395762
 20
218.78828
 30
0.0
 40
2.0
100
AcDbArc
 50
-66.802926
 51
-53.774087
  0
ARC
  5
92
100
AcDbEntity
  8
0
  6
HIDDEN
 62
   174
100
AcDbCircle
 10
263.395762
 20
218.78828
 30
0.0
 40
2.0
100
AcDbArc
 50
-79.533208
 51
-66.802926
  0
ARC
  5
93
100
AcDbEntity
  8
0
  6
HIDDEN
 62
   174
100
AcDbCircle
 10
263.395762
 20
218.78828
 30
0.0
 40
2.0
100
AcDbArc
 50
-90.731855
 51
-79.533208
  0
ARC
  5
94
100
AcDbEntity
  8
0
  6
HIDDEN
 62
   174
100
AcDbCircle
 10
263.395762
 20
218.78828
 30
0.0
 40
2.0
100
AcDbArc
 50
-105.052093
 51
-90.731855
  0
ARC
  5
95
100
AcDbEntity
  8
0
  6
HIDDEN
 62
   174
100
AcDbCircle
 10
263.395762
 20
218.78828
 30
0.0
 40
2.0
100
AcDbArc
 50
-117.13043
 51
-105.052093
  0
ARC
  5
96
100
AcDbEntity
  8
0
  6
HIDDEN
 62
   174
100
AcDbCircle
 10
263.395762
 20
218.78828
 30
0.0
 40
2.0
100
AcDbArc
 50
-127.347927
 51
-117.13043
  0
ARC
  5
97
100
AcDbEntity
  8
0
  6
HIDDEN
 62
   174
100
AcDbCircle
 10
263.395762
 20
218.78828
 30
0.0
 40
2.0
100
AcDbArc
 50
-142.234525
 51
-127.347927
  0
ARC
  5
98
100
AcDbEntity
  8
0
  6
HIDDEN
 62
   174
100
AcDbCircle
 10
263.395762
 20
218.78828
 30
0.0
 40
2.0
100
AcDbArc
 50
-154.666568
 51
-142.234525
  0
ARC
  5
99
100
AcDbEntity
  8
0
  6
Continuous
 62
   174
100
AcDbCircle
 10
266.901824
 20
200.114568
 30
0.0
 40
3.0
100
AcDbArc
 50
-343.709685
 51
-324.46702
  0
ARC
  5
9A
100
AcDbEntity
  8
0
  6
Continuous
 62
   174
100
AcDbCircle
 10
266.901824
 20
200.114568
 30
0.0
 40
3.0
100
AcDbArc
 50
-346.775848
 51
-343.709685
  0
ARC
  5
9B
100
AcDbEntity
  8
0
  6
Continuous
 62
   174
100
AcDbCircle
 10
266.901824
 20
200.114568
 30
0.0
 40
3.0
100
AcDbArc
 50
-347.819928
 51
-346.775848
  0
ARC
  5
9C
100
AcDbEntity
  8
0
  6
Continuous
 62
   174
100
AcDbCircle
 10
262.698359
 20
159.71184
 30
0.0
 40
4.5
100
AcDbArc
 50
-270.0
 51
-90.0
  0
LINE
  5
9D
100
AcDbEntity
  8
0
  6
HIDDEN
 62
   174
100
AcDbLine
 10
233.698359
 20
130.71184
 30
0.0
 11
221.698359
 21
130.71184
 31
0.0
  0
LINE
  5
9E
100
AcDbEntity
  8
0
  6
HIDDEN
 62
   174
100
AcDbLine
 10
233.698359
 20
119.91184
 30
0.0
 11
221.698359
 21
119.91184
 31
0.0
  0
LINE
  5
9F
100
AcDbEntity
  8
0
  6
Continuous
 62
   174
100
AcDbLine
 10
268.37806
 20
192.251952
 30
0.0
 11
260.515445
 21
190.775716
 31
0.0
  0
ARC
  5
A0
100
AcDbEntity
  8
0
  6
HIDDEN
 62
   174
100
AcDbCircle
 10
266.901824
 20
200.114568
 30
0.0
 40
3.0
100
AcDbArc
 50
10.633706
 51
18.238882
  0
ARC
  5
A1
100
AcDbEntity
  8
0
  6
HIDDEN
 62
   174
100
AcDbCircle
 10
266.901824
 20
200.114568
 30
0.0
 40
3.0
100
AcDbArc
 50
113.565085
 51
139.540001
  0
ARC
  5
A2
100
AcDbEntity
  8
0
  6
HIDDEN
 62
   174
100
AcDbCircle
 10
266.901824
 20
200.114568
 30
0.0
 40
3.0
100
AcDbArc
 50
293.565085
 51
319.540001
  0
LINE
  5
A3
100
AcDbEntity
  8
0
  6
HIDDEN
 62
   174
100
AcDbLine
 10
221.698359
 20
177.557778
 30
0.0
 11
221.206961
 21
177.465516
 31
0.0
  0
ARC
  5
A4
100
AcDbEntity
  8
0
  6
Continuous
 62
   174
100
AcDbCircle
 10
266.901824
 20
200.114568
 30
0.0
 40
3.0
100
AcDbArc
 50
145.459612
 51
163.94471
  0
ARC
  5
A5
100
AcDbEntity
  8
0
  6
HIDDEN
 62
   174
100
AcDbCircle
 10
228.698359
 20
187.01184
 30
0.0
 40
3.0
100
AcDbArc
 50
150.85882
 51
190.633706
  0
ARC
  5
A6
100
AcDbEntity
  8
0
  6
HIDDEN
 62
   174
100
AcDbCircle
 10
228.698359
 20
187.01184
 30
0.0
 40
3.0
100
AcDbArc
 50
271.269739
 51
298.649313
  0
ARC
  5
A7
100
AcDbEntity
  8
0
  6
HIDDEN
 62
   174
100
AcDbCircle
 10
228.698359
 20
187.01184
 30
0.0
 40
3.0
100
AcDbArc
 50
298.649313
 51
330.85882
  0
LINE
  5
A8
100
AcDbEntity
  8
0
  6
HIDDEN
 62
   174
100
AcDbLine
 10
233.698359
 20
110.71184
 30
0.0
 11
221.698359
 21
110.71184
 31
0.0
  0
ARC
  5
A9
100
AcDbEntity
  8
0
  6
Continuous
 62
   174
100
AcDbCircle
 10
263.395762
 20
218.78828
 30
0.0
 40
2.0
100
AcDbArc
 50
-348.09629
 51
-334.584359
  0
ARC
  5
AA
100
AcDbEntity
  8
0
  6
HIDDEN
 62
   174
100
AcDbCircle
 10
228.698359
 20
187.01184
 30
0.0
 40
3.0
100
AcDbArc
 50
11.541064
 51
27.132442
  0
ARC
  5
AB
100
AcDbEntity
  8
0
  6
HIDDEN
 62
   174
100
AcDbCircle
 10
266.901824
 20
200.114568
 30
0.0
 40
3.0
100
AcDbArc
 50
196.341469
 51
215.576588
  0
ARC
  5
AC
100
AcDbEntity
  8
0
  6
HIDDEN
 62
   174
100
AcDbCircle
 10
266.901824
 20
200.114568
 30
0.0
 40
3.0
100
AcDbArc
 50
10.633706
 51
16.341469
  0
ARC
  5
AD
100
AcDbEntity
  8
0
  6
HIDDEN
 62
   174
100
AcDbCircle
 10
266.901824
 20
200.114568
 30
0.0
 40
3.0
100
AcDbArc
 50
64.586345
 51
82.6181
  0
LINE
  5
AE
100
AcDbEntity
  8
0
  6
HIDDEN
 62
   174
100
AcDbLine
 10
233.698359
 20
131.51184
 30
0.0
 11
221.698359
 21
131.51184
 31
0.0
  0
ARC
  5
AF
100
AcDbEntity
  8
0
  6
HIDDEN
 62
   174
100
AcDbCircle
 10
266.901824
 20
200.114568
 30
0.0
 40
3.0
100
AcDbArc
 50
93.764529
 51
100.633706
  0
ARC
  5
B0
100
AcDbEntity
  8
0
  6
Continuous
 62
   174
100
AcDbCircle
 10
266.901824
 20
200.114568
 30
0.0
 40
3.0
100
AcDbArc
 50
325.459612
 51
343.94471
  0
LINE
  5
B1
100
AcDbEntity
  8
0
  6
HIDDEN
 62
   174
100
AcDbLine
 10
233.698359
 20
139.91184
 30
0.0
 11
221.698359
 21
139.91184
 31
0.0
  0
ARC
  5
B2
100
AcDbEntity
  8
0
  6
Continuous
 62
   174
100
AcDbCircle
 10
263.395762
 20
218.78828
 30
0.0
 40
2.0
100
AcDbArc
 50
-259.331421
 51
-245.360584
  0
LINE
  5
B3
100
AcDbEntity
  8
0
  6
Continuous
 62
   174
100
AcDbLine
 10
221.698359
 20
88.71184
 30
0.0
 11
271.698359
 21
88.71184
 31
0.0
  0
ARC
  5
B4
100
AcDbEntity
  8
0
  6
Continuous
 62
   174
100
AcDbCircle
 10
263.395762
 20
218.78828
 30
0.0
 40
10.0
100
AcDbArc
 50
-25.37939
 51
10.007294
  0
ARC
  5
B5
100
AcDbEntity
  8
0
  6
HIDDEN
 62
   174
100
AcDbCircle
 10
246.698359
 20
174.11184
 30
0.0
 40
10.0
100
AcDbArc
 50
66.421822
 51
70.703977
  0
ARC
  5
B6
100
AcDbEntity
  8
0
  6
HIDDEN
 62
   174
100
AcDbCircle
 10
266.901824
 20
200.114568
 30
0.0
 40
8.0
100
AcDbArc
 50
280.633706
 51
303.78633
  0
LINE
  5
B7
100
AcDbEntity
  8
0
  6
HIDDEN
 62
   174
100
AcDbLine
 10
233.698359
 20
140.753188
 30
0.0
 11
233.698359
 21
130.753827
 31
0.0
  0
ARC
  5
B8
100
AcDbEntity
  8
0
  6
Continuous
 62
   174
100
AcDbCircle
 10
266.901824
 20
200.114568
 30
0.0
 40
3.0
100
AcDbArc
 50
87.59011
 51
93.764529
  0
LINE
  5
B9
100
AcDbEntity
  8
0
  6
HIDDEN
 62
   174
100
AcDbLine
 10
268.37806
 20
192.251952
 30
0.0
 11
260.515445
 21
190.775716
 31
0.0
  0
LINE
  5
BA
100
AcDbEntity
  8
0
  6
Continuous
 62
   174
100
AcDbLine
 10
260.515445
 20
190.775716
 30
0.0
 11
260.852773
 21
188.979063
 31
0.0
  0
LINE
  5
BB
100
AcDbEntity
  8
0
  6
HIDDEN
 62
   174
100
AcDbLine
 10
233.698359
 20
140.71184
 30
0.0
 11
221.698359
 21
140.71184
 31
0.0
  0
LINE
  5
BC
100
AcDbEntity
  8
0
  6
HIDDEN
 62
   174
100
AcDbLine
 10
233.698359
 20
120.71184
 30
0.0
 11
221.698359
 21
120.71184
 31
0.0
  0
ARC
  5
BD
100
AcDbEntity
  8
0
  6
Continuous
 62
   174
100
AcDbCircle
 10
266.901824
 20
200.114568
 30
0.0
 40
3.0
100
AcDbArc
 50
-266.069
 51
-246.981488
  0
LINE
  5
BE
100
AcDbEntity
  8
0
  6
HIDDEN
 62
   174
100
AcDbLine
 10
236.698359
 20
139.953203
 30
0.0
 11
236.698359
 21
131.553812
 31
0.0
  0
ARC
  5
BF
100
AcDbEntity
  8
0
  6
HIDDEN
 62
   174
100
AcDbCircle
 10
228.698359
 20
187.01184
 30
0.0
 40
3.0
100
AcDbArc
 50
-29.14118
 51
10.633706
  0
ARC
  5
C0
100
AcDbEntity
  8
0
  6
HIDDEN
 62
   174
100
AcDbCircle
 10
263.395762
 20
218.78828
 30
0.0
 40
8.0
100
AcDbArc
 50
-349.366294
 51
-169.366294
  0
LINE
  5
C1
100
AcDbEntity
  8
0
  6
HIDDEN
 62
   174
100
AcDbLine
 10
233.698359
 20
111.51184
 30
0.0
 11
221.698359
 21
111.51184
 31
0.0
  0
ARC
  5
C2
100
AcDbEntity
  8
0
  6
HIDDEN
 62
   174
100
AcDbCircle
 10
263.395762
 20
218.78828
 30
0.0
 40
10.0
100
AcDbArc
 50
268.633706
 51
334.62061
  0
ARC
  5
C3
100
AcDbEntity
  8
0
  6
HIDDEN
 62
   174
100
AcDbCircle
 10
266.901824
 20
200.114568
 30
0.0
 40
3.0
100
AcDbArc
 50
10.633706
 51
190.633706
  0
ARC
  5
C4
100
AcDbEntity
  8
0
  6
Continuous
 62
   174
100
AcDbCircle
 10
263.395762
 20
218.78828
 30
0.0
 40
8.0
100
AcDbArc
 50
-349.366294
 51
-169.366294
  0
LINE
  5
C5
100
AcDbEntity
  8
0
  6
Continuous
 62
   174
100
AcDbLine
 10
271.698359
 20
88.71184
 30
0.0
 11
271.698359
 21
177.71184
 31
0.0
  0
ARC
  5
C6
100
AcDbEntity
  8
0
  6
Continuous
 62
   174
100
AcDbCircle
 10
263.395762
 20
218.78828
 30
0.0
 40
10.0
100
AcDbArc
 50
196.257561
 51
226.610902
  0
ARC
  5
C7
100
AcDbEntity
  8
0
  6
Continuous
 62
   174
100
AcDbCircle
 10
263.395762
 20
218.78828
 30
0.0
 40
9.6
100
AcDbArc
 50
88.633706
 51
196.634115
  0
ARC
  5
C8
100
AcDbEntity
  8
0
  6
Continuous
 62
   174
100
AcDbCircle
 10
262.698359
 20
159.71184
 30
0.0
 40
4.5
100
AcDbArc
 50
-90.0
 51
90.0
  0
ARC
  5
C9
100
AcDbEntity
  8
0
  6
HIDDEN
 62
   174
100
AcDbCircle
 10
266.901824
 20
200.114568
 30
0.0
 40
3.0
100
AcDbArc
 50
18.238882
 51
36.430009
  0
ARC
  5
CA
100
AcDbEntity
  8
0
  6
HIDDEN
 62
   174
100
AcDbCircle
 10
266.901824
 20
200.114568
 30
0.0
 40
3.0
100
AcDbArc
 50
100.633706
 51
113.565085
  0
ARC
  5
CB
100
AcDbEntity
  8
0
  6
HIDDEN
 62
   174
100
AcDbCircle
 10
266.901824
 20
200.114568
 30
0.0
 40
3.0
100
AcDbArc
 50
144.618379
 51
164.318936
  0
ARC
  5
CC
100
AcDbEntity
  8
0
  6
HIDDEN
 62
   174
100
AcDbCircle
 10
266.901824
 20
200.114568
 30
0.0
 40
3.0
100
AcDbArc
 50
145.459612
 51
163.94471
  0
ARC
  5
CD
100
AcDbEntity
  8
0
  6
Continuous
 62
   174
100
AcDbCircle
 10
266.901824
 20
200.114568
 30
0.0
 40
3.0
100
AcDbArc
 50
139.891386
 51
145.459612
  0
ARC
  5
CE
100
AcDbEntity
  8
0
  6
HIDDEN
 62
   174
100
AcDbCircle
 10
228.698359
 20
187.01184
 30
0.0
 40
3.0
100
AcDbArc
 50
118.649313
 51
150.85882
  0
LINE
  5
CF
100
AcDbEntity
  8
0
  6
HIDDEN
 62
   174
100
AcDbLine
 10
235.698359
 20
196.465901
 30
0.0
 11
235.698359
 21
196.71184
 31
0.0
  0
LINE
  5
D0
100
AcDbEntity
  8
0
  6
HIDDEN
 62
   174
100
AcDbLine
 10
233.698359
 20
130.71184
 30
0.0
 11
221.698359
 21
130.71184
 31
0.0
  0
ARC
  5
D1
100
AcDbEntity
  8
0
  6
Continuous
 62
   174
100
AcDbCircle
 10
263.395762
 20
218.78828
 30
0.0
 40
2.0
100
AcDbArc
 50
-307.368635
 51
-296.242463
  0
LINE
  5
D2
100
AcDbEntity
  8
0
  6
Continuous
 62
   174
100
AcDbLine
 10
258.933738
 20
200.828434
 30
0.0
 11
235.742962
 21
196.474276
 31
0.0
  0
LINE
  5
D3
100
AcDbEntity
  8
0
  6
HIDDEN
 62
   174
100
AcDbLine
 10
256.698359
 20
121.554451
 30
0.0
 11
256.698359
 21
129.953842
 31
0.0
  0
LINE
  5
D4
100
AcDbEntity
  8
0
  6
HIDDEN
 62
   174
100
AcDbLine
 10
237.020217
 20
180.434516
 30
0.0
 11
235.698359
 21
180.186332
 31
0.0
  0
ARC
  5
D5
100
AcDbEntity
  8
0
  6
HIDDEN
 62
   174
100
AcDbCircle
 10
266.901824
 20
200.114568
 30
0.0
 40
3.0
100
AcDbArc
 50
190.633706
 51
196.341469
  0
ARC
  5
D6
100
AcDbEntity
  8
0
  6
HIDDEN
 62
   174
100
AcDbCircle
 10
266.901824
 20
200.114568
 30
0.0
 40
3.0
100
AcDbArc
 50
-10.547751
 51
10.633706
  0
ARC
  5
D7
100
AcDbEntity
  8
0
  6
HIDDEN
 62
   174
100
AcDbCircle
 10
266.901824
 20
200.114568
 30
0.0
 40
3.0
100
AcDbArc
 50
16.341469
 51
35.576588
  0
ARC
  5
D8
100
AcDbEntity
  8
0
  6
HIDDEN
 62
   174
100
AcDbCircle
 10
266.901824
 20
200.114568
 30
0.0
 40
3.0
100
AcDbArc
 50
100.633706
 51
113.017373
  0
ARC
  5
D9
100
AcDbEntity
  8
0
  6
HIDDEN
 62
   174
100
AcDbCircle
 10
230.698359
 20
159.71184
 30
0.0
 40
7.5
100
AcDbArc
 50
-90.0
 51
90.0
  0
ARC
  5
DA
100
AcDbEntity
  8
0
  6
Continuous
 62
   174
100
AcDbCircle
 10
263.395762
 20
218.78828
 30
0.0
 40
2.0
100
AcDbArc
 50
-245.360584
 51
-233.668398
  0
ARC
  5
DB
100
AcDbEntity
  8
0
  6
Continuous
 62
   174
100
AcDbCircle
 10
263.395762
 20
218.78828
 30
0.0
 40
9.6
100
AcDbArc
 50
196.634115
 51
223.123807
  0
ARC
  5
DC
100
AcDbEntity
  8
0
  6
Continuous
 62
   174
100
AcDbCircle
 10
266.901824
 20
200.114568
 30
0.0
 40
3.0
100
AcDbArc
 50
82.6181
 51
87.59011
  0
ARC
  5
DD
100
AcDbEntity
  8
0
  6
HIDDEN
 62
   174
100
AcDbCircle
 10
228.698359
 20
187.01184
 30
0.0
 40
3.0
100
AcDbArc
 50
210.472011
 51
244.489773
  0
LINE
  5
DE
100
AcDbEntity
  8
0
  6
Continuous
 62
   174
100
AcDbLine
 10
271.698359
 20
177.71184
 30
0.0
 11
235.698359
 21
177.71184
 31
0.0
  0
LINE
  5
DF
100
AcDbEntity
  8
0
  6
Continuous
 62
   174
100
AcDbLine
 10
221.698359
 20
184.420894
 30
0.0
 11
221.206961
 21
177.465516
 31
0.0
  0
LINE
  5
E0
100
AcDbEntity
  8
0
  6
HIDDEN
 62
   174
100
AcDbLine
 10
235.698359
 20
180.186332
 30
0.0
 11
221.698359
 21
177.557778
 31
0.0
  0
ARC
  5
E1
100
AcDbEntity
  8
0
  6
HIDDEN
 62
   174
100
AcDbCircle
 10
228.698359
 20
187.01184
 30
0.0
 40
3.0
100
AcDbArc
 50
10.633706
 51
30.472011
  0
LINE
  5
E2
100
AcDbEntity
  8
0
  6
HIDDEN
 62
   174
100
AcDbLine
 10
250.379056
 20
184.977636
 30
0.0
 11
261.221832
 21
187.013409
 31
0.0
  0
LINE
  5
E3
100
AcDbEntity
  8
0
  6
HIDDEN
 62
   174
100
AcDbLine
 10
233.698359
 20
140.71184
 30
0.0
 11
221.698359
 21
140.71184
 31
0.0
  0
ARC
  5
E4
100
AcDbEntity
  8
0
  6
Continuous
 62
   174
100
AcDbCircle
 10
266.901824
 20
200.114568
 30
0.0
 40
3.0
100
AcDbArc
 50
221.621142
 51
244.586345
  0
LINE
  5
E5
100
AcDbEntity
  8
0
  6
HIDDEN
 62
   174
100
AcDbLine
 10
233.698359
 20
110.71184
 30
0.0
 11
221.698359
 21
110.71184
 31
0.0
  0
ARC
  5
E6
100
AcDbEntity
  8
0
  6
Continuous
 62
   174
100
AcDbCircle
 10
263.395762
 20
218.78828
 30
0.0
 40
9.6
100
AcDbArc
 50
16.634115
 51
88.633706
  0
ARC
  5
E7
100
AcDbEntity
  8
0
  6
HIDDEN
 62
   174
100
AcDbCircle
 10
266.901824
 20
200.114568
 30
0.0
 40
3.0
100
AcDbArc
 50
36.430009
 51
42.648179
  0
ARC
  5
E8
100
AcDbEntity
  8
0
  6
HIDDEN
 62
   174
100
AcDbCircle
 10
266.901824
 20
200.114568
 30
0.0
 40
3.0
100
AcDbArc
 50
139.540001
 51
144.618379
  0
ARC
  5
E9
100
AcDbEntity
  8
0
  6
HIDDEN
 62
   174
100
AcDbCircle
 10
266.901824
 20
200.114568
 30
0.0
 40
3.0
100
AcDbArc
 50
164.318936
 51
190.633706
  0
ARC
  5
EA
100
AcDbEntity
  8
0
  6
HIDDEN
 62
   174
100
AcDbCircle
 10
266.901824
 20
200.114568
 30
0.0
 40
3.0
100
AcDbArc
 50
163.94471
 51
169.452249
  0
ARC
  5
EB
100
AcDbEntity
  8
0
  6
HIDDEN
 62
   174
100
AcDbCircle
 10
228.698359
 20
187.01184
 30
0.0
 40
3.0
100
AcDbArc
 50
10.633706
 51
30.472011
  0
LINE
  5
EC
100
AcDbEntity
  8
0
  6
Continuous
 62
   174
100
AcDbLine
 10
221.698359
 20
88.71184
 30
0.0
 11
221.698359
 21
196.71184
 31
0.0
  0
ARC
  5
ED
100
AcDbEntity
  8
0
  6
Continuous
 62
   174
100
AcDbCircle
 10
263.395762
 20
218.78828
 30
0.0
 40
2.0
100
AcDbArc
 50
-296.242463
 51
-285.237662
  0
LINE
  5
EE
100
AcDbEntity
  8
0
  6
HIDDEN
 62
   174
100
AcDbLine
 10
222.372575
 20
193.963934
 30
0.0
 11
221.698359
 21
184.420894
 31
0.0
  0
ARC
  5
EF
100
AcDbEntity
  8
0
  6
HIDDEN
 62
   174
100
AcDbCircle
 10
266.901824
 20
200.114568
 30
0.0
 40
3.0
100
AcDbArc
 50
273.764529
 51
280.633706
  0
ARC
  5
F0
100
AcDbEntity
  8
0
  6
HIDDEN
 62
   174
100
AcDbCircle
 10
266.901824
 20
200.114568
 30
0.0
 40
3.0
100
AcDbArc
 50
343.94471
 51
349.452249
  0
ARC
  5
F1
100
AcDbEntity
  8
0
  6
HIDDEN
 62
   174
100
AcDbCircle
 10
266.901824
 20
200.114568
 30
0.0
 40
3.0
100
AcDbArc
 50
35.576588
 51
41.621142
  0
LINE
  5
F2
100
AcDbEntity
  8
0
  6
HIDDEN
 62
   174
100
AcDbLine
 10
246.66667
 20
184.280621
 30
0.0
 11
250.379056
 21
184.977636
 31
0.0
  0
ARC
  5
F3
100
AcDbEntity
  8
0
  6
HIDDEN
 62
   174
100
AcDbCircle
 10
262.698359
 20
159.71184
 30
0.0
 40
7.5
100
AcDbArc
 50
-90.0
 51
90.0
  0
LINE
  5
F4
100
AcDbEntity
  8
0
  6
HIDDEN
 62
   174
100
AcDbLine
 10
222.372575
 20
193.963934
 30
0.0
 11
221.698359
 21
184.420894
 31
0.0
  0
LINE
  5
F5
100
AcDbEntity
  8
0
  6
HIDDEN
 62
   174
100
AcDbLine
 10
221.698359
 20
196.71184
 30
0.0
 11
235.698359
 21
196.71184
 31
0.0
  0
LINE
  5
F6
100
AcDbEntity
  8
0
  6
Continuous
 62
   174
100
AcDbLine
 10
261.221832
 20
187.013409
 30
0.0
 11
242.54812
 21
183.507347
 31
0.0
  0
LINE
  5
F7
100
AcDbEntity
  8
0
  6
HIDDEN
 62
   174
100
AcDbLine
 10
221.698359
 20
140.753188
 30
0.0
 11
221.698359
 21
130.753827
 31
0.0
  0
ARC
  5
F8
100
AcDbEntity
  8
0
  6
HIDDEN
 62
   174
100
AcDbCircle
 10
228.698359
 20
187.01184
 30
0.0
 40
3.0
100
AcDbArc
 50
190.633706
 51
210.472011
  0
ARC
  5
F9
100
AcDbEntity
  8
0
  6
Continuous
 62
   174
100
AcDbCircle
 10
263.395762
 20
218.78828
 30
0.0
 40
2.0
100
AcDbArc
 50
-233.668398
 51
-219.950042
  0
ARC
  5
FA
100
AcDbEntity
  8
0
  6
HIDDEN
 62
   174
100
AcDbCircle
 10
228.698359
 20
187.01184
 30
0.0
 40
3.0
100
AcDbArc
 50
191.541064
 51
207.132442
  0
ARC
  5
FB
100
AcDbEntity
  8
0
  6
HIDDEN
 62
   174
100
AcDbCircle
 10
266.901824
 20
200.114568
 30
0.0
 40
3.0
100
AcDbArc
 50
-169.366294
 51
10.633706
  0
ARC
  5
FC
100
AcDbEntity
  8
0
  6
HIDDEN
 62
   174
100
AcDbCircle
 10
228.698359
 20
187.01184
 30
0.0
 40
3.0
100
AcDbArc
 50
30.472011
 51
64.489773
  0
LINE
  5
FD
100
AcDbEntity
  8
0
  6
Continuous
 62
   174
100
AcDbLine
 10
260.852773
 20
188.979063
 30
0.0
 11
242.179061
 21
185.473001
 31
0.0
  0
LINE
  5
FE
100
AcDbEntity
  8
0
  6
HIDDEN
 62
   174
100
AcDbLine
 10
242.725582
 20
177.71184
 30
0.0
 11
249.966002
 21
177.71184
 31
0.0
  0
ARC
  5
FF
100
AcDbEntity
  8
0
  6
Continuous
 62
   174
100
AcDbCircle
 10
266.901824
 20
200.114568
 30
0.0
 40
3.0
100
AcDbArc
 50
215.576588
 51
221.621142
  0
LINE
  5
100
100
AcDbEntity
  8
0
  6
HIDDEN
 62
   174
100
AcDbLine
 10
260.515445
 20
190.775716
 30
0.0
 11
260.778961
 21
189.372194
 31
0.0
  0
LINE
  5
101
100
AcDbEntity
  8
0
  6
HIDDEN
 62
   174
100
AcDbLine
 10
242.54812
 20
183.507347
 30
0.0
 11
246.66667
 21
184.280621
 31
0.0
  0
LINE
  5
102
100
AcDbEntity
  8
0
  6
Continuous
 62
   174
100
AcDbLine
 10
261.221832
 20
187.013409
 30
0.0
 11
242.54812
 21
183.507347
 31
0.0
  0
LINE
  5
103
100
AcDbEntity
  8
0
  6
Continuous
 62
   174
100
AcDbLine
 10
242.72408
 20
183.276991
 30
0.0
 11
243.073754
 21
183.276991
 31
0.0
  0
ARC
  5
104
100
AcDbEntity
  8
0
  6
Continuous
 62
   174
100
AcDbCircle
 10
266.901824
 20
200.114568
 30
0.0
 40
3.0
100
AcDbArc
 50
117.089768
 51
139.891386
  0
ARC
  5
105
100
AcDbEntity
  8
0
  6
HIDDEN
 62
   174
100
AcDbCircle
 10
266.901824
 20
200.114568
 30
0.0
 40
3.0
100
AcDbArc
 50
42.648179
 51
62.835379
  0
ARC
  5
106
100
AcDbEntity
  8
0
  6
HIDDEN
 62
   174
100
AcDbCircle
 10
266.901824
 20
200.114568
 30
0.0
 40
3.0
100
AcDbArc
 50
190.633706
 51
198.238882
  0
ARC
  5
107
100
AcDbEntity
  8
0
  6
HIDDEN
 62
   174
100
AcDbCircle
 10
266.901824
 20
200.114568
 30
0.0
 40
3.0
100
AcDbArc
 50
263.125241
 51
267.776362
  0
ARC
  5
108
100
AcDbEntity
  8
0
  6
HIDDEN
 62
   174
100
AcDbCircle
 10
266.901824
 20
200.114568
 30
0.0
 40
3.0
100
AcDbArc
 50
169.452249
 51
190.633706
  0
ARC
  5
109
100
AcDbEntity
  8
0
  6
HIDDEN
 62
   174
100
AcDbCircle
 10
228.698359
 20
187.01184
 30
0.0
 40
3.0
100
AcDbArc
 50
30.472011
 51
64.489773
  0
ARC
  5
10A
100
AcDbEntity
  8
0
  6
Continuous
 62
   174
100
AcDbCircle
 10
263.395762
 20
218.78828
 30
0.0
 40
2.0
100
AcDbArc
 50
-285.237662
 51
-270.83433
  0
ARC
  5
10B
100
AcDbEntity
  8
0
  6
HIDDEN
 62
   174
100
AcDbCircle
 10
228.698359
 20
187.01184
 30
0.0
 40
3.0
100
AcDbArc
 50
207.132442
 51
212.233468
  0
ARC
  5
10C
100
AcDbEntity
  8
0
  6
HIDDEN
 62
   174
100
AcDbCircle
 10
266.901824
 20
200.114568
 30
0.0
 40
3.0
100
AcDbArc
 50
215.576588
 51
221.621142
  0
ARC
  5
10D
100
AcDbEntity
  8
0
  6
HIDDEN
 62
   174
100
AcDbCircle
 10
266.901824
 20
200.114568
 30
0.0
 40
3.0
100
AcDbArc
 50
280.633706
 51
293.017373
  0
ARC
  5
10E
100
AcDbEntity
  8
0
  6
HIDDEN
 62
   174
100
AcDbCircle
 10
266.901824
 20
200.114568
 30
0.0
 40
3.0
100
AcDbArc
 50
41.621142
 51
64.586345
  0
LINE
  5
10F
100
AcDbEntity
  8
0
  6
Continuous
 62
   174
100
AcDbLine
 10
242.179061
 20
185.473001
 30
0.0
 11
241.662378
 21
188.224917
 31
0.0
  0
ARC
  5
110
100
AcDbEntity
  8
0
  6
HIDDEN
 62
   174
100
AcDbCircle
 10
262.698359
 20
159.71184
 30
0.0
 40
7.5
100
AcDbArc
 50
-270.0
 51
-90.0
  0
ARC
  5
111
100
AcDbEntity
  8
0
  6
Continuous
 62
   174
100
AcDbCircle
 10
266.901824
 20
200.114568
 30
0.0
 40
3.0
100
AcDbArc
 50
-163.709685
 51
-144.46702
  0
ARC
  5
112
100
AcDbEntity
  8
0
  6
Continuous
 62
   174
100
AcDbCircle
 10
266.901824
 20
200.114568
 30
0.0
 40
3.0
100
AcDbArc
 50
100.633706
 51
113.017373
  0
LINE
  5
113
100
AcDbEntity
  8
0
  6
HIDDEN
 62
   174
100
AcDbLine
 10
258.638418
 20
200.772986
 30
0.0
 11
260.515445
 21
190.775716
 31
0.0
  0
ARC
  5
114
100
AcDbEntity
  8
0
  6
Continuous
 62
   174
100
AcDbCircle
 10
228.698359
 20
187.01184
 30
0.0
 40
3.0
100
AcDbArc
 50
-27.179676
 51
27.132442
  0
LINE
  5
115
100
AcDbEntity
  8
0
  6
HIDDEN
 62
   174
100
AcDbLine
 10
221.698359
 20
184.420894
 30
0.0
 11
221.206961
 21
177.465516
 31
0.0
  0
LINE
  5
116
100
AcDbEntity
  8
0
  6
Continuous
 62
   174
100
AcDbLine
 10
275.736975
 20
196.41096
 30
0.0
 11
276.570731
 21
191.970273
 31
0.0
  0
LINE
  5
117
100
AcDbEntity
  8
0
  6
HIDDEN
 62
   174
100
AcDbLine
 10
221.698359
 20
119.91184
 30
0.0
 11
236.698359
 21
119.91184
 31
0.0
  0
ARC
  5
118
100
AcDbEntity
  8
0
  6
HIDDEN
 62
   174
100
AcDbCircle
 10
263.395762
 20
218.78828
 30
0.0
 40
10.0
100
AcDbArc
 50
226.610902
 51
268.633706
  0
LINE
  5
119
100
AcDbEntity
  8
0
  6
HIDDEN
 62
   174
100
AcDbLine
 10
242.72408
 20
183.276991
 30
0.0
 11
243.482008
 21
183.276991
 31
0.0
  0
LINE
  5
11A
100
AcDbEntity
  8
0
  6
HIDDEN
 62
   174
100
AcDbLine
 10
235.698359
 20
180.186332
 30
0.0
 11
235.698359
 21
187.117739
 31
0.0
  0
ARC
  5
11B
100
AcDbEntity
  8
0
  6
Continuous
 62
   174
100
AcDbCircle
 10
263.395762
 20
218.78828
 30
0.0
 40
2.0
100
AcDbArc
 50
-219.950042
 51
-205.63403
  0
ARC
  5
11C
100
AcDbEntity
  8
0
  6
Continuous
 62
   174
100
AcDbCircle
 10
228.698359
 20
187.01184
 30
0.0
 40
3.0
100
AcDbArc
 50
207.132442
 51
212.233468
  0
ARC
  5
11D
100
AcDbEntity
  8
0
  6
HIDDEN
 62
   174
100
AcDbCircle
 10
228.698359
 20
187.01184
 30
0.0
 40
3.0
100
AcDbArc
 50
64.489773
 51
88.87655
  0
LINE
  5
11E
100
AcDbEntity
  8
0
  6
Continuous
 62
   174
100
AcDbLine
 10
241.662378
 20
188.224917
 30
0.0
 11
235.765416
 21
187.117739
 31
0.0
  0
ARC
  5
11F
100
AcDbEntity
  8
0
  6
HIDDEN
 62
   174
100
AcDbCircle
 10
228.698359
 20
187.01184
 30
0.0
 40
3.0
100
AcDbArc
 50
32.233468
 51
90.0
  0
LINE
  5
120
100
AcDbEntity
  8
0
  6
HIDDEN
 62
   174
100
AcDbLine
 10
250.723929
 20
183.276991
 30
0.0
 11
243.482008
 21
183.276991
 31
0.0
  0
LINE
  5
121
100
AcDbEntity
  8
0
  6
HIDDEN
 62
   174
100
AcDbLine
 10
271.698359
 20
109.95542
 30
0.0
 11
271.698359
 21
101.555729
 31
0.0
  0
ARC
  5
122
100
AcDbEntity
  8
0
  6
Continuous
 62
   174
100
AcDbCircle
 10
266.901824
 20
200.114568
 30
0.0
 40
3.0
100
AcDbArc
 50
196.341469
 51
215.576588
  0
ARC
  5
123
100
AcDbEntity
  8
0
  6
HIDDEN
 62
   174
100
AcDbCircle
 10
266.901824
 20
200.114568
 30
0.0
 40
3.0
100
AcDbArc
 50
280.633706
 51
293.565085
  0
ARC
  5
124
100
AcDbEntity
  8
0
  6
Continuous
 62
   174
100
AcDbCircle
 10
266.901824
 20
200.114568
 30
0.0
 40
3.0
100
AcDbArc
 50
113.017373
 51
117.089768
  0
ARC
  5
125
100
AcDbEntity
  8
0
  6
HIDDEN
 62
   174
100
AcDbCircle
 10
266.901824
 20
200.114568
 30
0.0
 40
8.0
100
AcDbArc
 50
123.526181
 51
149.203333
  0
ARC
  5
126
100
AcDbEntity
  8
0
  6
Continuous
 62
   174
100
AcDbCircle
 10
230.698359
 20
159.71184
 30
0.0
 40
7.5
100
AcDbArc
 50
-90.0
 51
90.0
  0
LINE
  5
127
100
AcDbEntity
  8
0
  6
HIDDEN
 62
   174
100
AcDbLine
 10
260.852773
 20
188.979063
 30
0.0
 11
261.221832
 21
187.013409
 31
0.0
  0
LINE
  5
128
100
AcDbEntity
  8
0
  6
HIDDEN
 62
   174
100
AcDbLine
 10
221.698359
 20
111.51184
 30
0.0
 11
236.698359
 21
111.51184
 31
0.0
  0
ARC
  5
129
100
AcDbEntity
  8
0
  6
HIDDEN
 62
   174
100
AcDbCircle
 10
266.901824
 20
200.114568
 30
0.0
 40
3.0
100
AcDbArc
 50
62.835379
 51
83.125241
  0
ARC
  5
12A
100
AcDbEntity
  8
0
  6
HIDDEN
 62
   174
100
AcDbCircle
 10
266.901824
 20
200.114568
 30
0.0
 40
3.0
100
AcDbArc
 50
198.238882
 51
216.430009
  0
ARC
  5
12B
100
AcDbEntity
  8
0
  6
HIDDEN
 62
   174
100
AcDbCircle
 10
266.901824
 20
200.114568
 30
0.0
 40
3.0
100
AcDbArc
 50
242.835379
 51
263.125241
  0
LINE
  5
12C
100
AcDbEntity
  8
0
  6
HIDDEN
 62
   174
100
AcDbLine
 10
271.698359
 20
149.952264
 30
0.0
 11
271.698359
 21
141.552873
 31
0.0
  0
ARC
  5
12D
100
AcDbEntity
  8
0
  6
Continuous
 62
   174
100
AcDbCircle
 10
266.901824
 20
200.114568
 30
0.0
 40
3.0
100
AcDbArc
 50
319.891386
 51
325.459612
  0
ARC
  5
12E
100
AcDbEntity
  8
0
  6
HIDDEN
 62
   174
100
AcDbCircle
 10
266.901824
 20
200.114568
 30
0.0
 40
8.0
100
AcDbArc
 50
303.78633
 51
329.463428
  0
ARC
  5
12F
100
AcDbEntity
  8
0
  6
HIDDEN
 62
   174
100
AcDbCircle
 10
228.698359
 20
187.01184
 30
0.0
 40
3.0
100
AcDbArc
 50
190.633706
 51
210.472011
  0
ARC
  5
130
100
AcDbEntity
  8
0
  6
HIDDEN
 62
   174
100
AcDbCircle
 10
228.698359
 20
187.01184
 30
0.0
 40
3.0
100
AcDbArc
 50
118.649313
 51
150.85882
  0
LINE
  5
131
100
AcDbEntity
  8
0
  6
HIDDEN
 62
   174
100
AcDbLine
 10
221.698359
 20
111.51184
 30
0.0
 11
236.698359
 21
111.51184
 31
0.0
  0
LINE
  5
132
100
AcDbEntity
  8
0
  6
HIDDEN
 62
   174
100
AcDbLine
 10
236.698359
 20
119.954481
 30
0.0
 11
236.698359
 21
111.55509
 31
0.0
  0
LINE
  5
133
100
AcDbEntity
  8
0
  6
Continuous
 62
   174
100
AcDbLine
 10
242.698359
 20
183.276991
 30
0.0
 11
242.698359
 21
177.71184
 31
0.0
  0
LINE
  5
134
100
AcDbEntity
  8
0
  6
HIDDEN
 62
   174
100
AcDbLine
 10
271.698359
 20
129.953842
 30
0.0
 11
271.698359
 21
121.554451
 31
0.0
  0
ARC
  5
135
100
AcDbEntity
  8
0
  6
HIDDEN
 62
   174
100
AcDbCircle
 10
266.901824
 20
200.114568
 30
0.0
 40
3.0
100
AcDbArc
 50
221.621142
 51
244.586345
  0
ARC
  5
136
100
AcDbEntity
  8
0
  6
HIDDEN
 62
   174
100
AcDbCircle
 10
266.901824
 20
200.114568
 30
0.0
 40
3.0
100
AcDbArc
 50
293.017373
 51
297.089768
  0
ARC
  5
137
100
AcDbEntity
  8
0
  6
Continuous
 62
   174
100
AcDbCircle
 10
266.901824
 20
200.114568
 30
0.0
 40
3.0
100
AcDbArc
 50
64.586345
 51
82.6181
  0
ARC
  5
138
100
AcDbEntity
  8
0
  6
HIDDEN
 62
   174
100
AcDbCircle
 10
266.901824
 20
200.114568
 30
0.0
 40
8.0
100
AcDbArc
 50
329.463428
 51
355.140492
  0
LINE
  5
139
100
AcDbEntity
  8
0
  6
HIDDEN
 62
   174
100
AcDbLine
 10
235.698359
 20
187.117739
 30
0.0
 11
235.698359
 21
196.465901
 31
0.0
  0
ARC
  5
13A
100
AcDbEntity
  8
0
  6
Continuous
 62
   174
100
AcDbCircle
 10
266.901824
 20
200.114568
 30
0.0
 40
3.0
100
AcDbArc
 50
-115.41535
 51
-114.981555
  0
ARC
  5
13B
100
AcDbEntity
  8
0
  6
Continuous
 62
   174
100
AcDbCircle
 10
266.901824
 20
200.114568
 30
0.0
 40
3.0
100
AcDbArc
 50
-144.46702
 51
-138.323625
  0
ARC
  5
13C
100
AcDbEntity
  8
0
  6
Continuous
 62
   174
100
AcDbCircle
 10
266.901824
 20
200.114568
 30
0.0
 40
3.0
100
AcDbArc
 50
-246.981488
 51
-242.881059
  0
LINE
  5
13D
100
AcDbEntity
  8
0
  6
Continuous
 62
   174
100
AcDbLine
 10
235.765416
 20
187.117739
 30
0.0
 11
237.020217
 21
180.434516
 31
0.0
  0
LINE
  5
13E
100
AcDbEntity
  8
0
  6
Continuous
 62
   174
100
AcDbLine
 10
250.723929
 20
183.276991
 30
0.0
 11
249.966002
 21
183.276991
 31
0.0
  0
ARC
  5
13F
100
AcDbEntity
  8
0
  6
Continuous
 62
   174
100
AcDbCircle
 10
266.901824
 20
200.114568
 30
0.0
 40
3.0
100
AcDbArc
 50
93.764529
 51
100.633706
  0
ARC
  5
140
100
AcDbEntity
  8
0
  6
Continuous
 62
   174
100
AcDbCircle
 10
263.395762
 20
218.78828
 30
0.0
 40
2.0
100
AcDbArc
 50
-79.331421
 51
-65.360584
  0
ARC
  5
141
100
AcDbEntity
  8
0
  6
Continuous
 62
   174
100
AcDbCircle
 10
228.698359
 20
187.01184
 30
0.0
 40
3.0
100
AcDbArc
 50
327.900463
 51
332.820324
  0
LINE
  5
142
100
AcDbEntity
  8
0
  6
HIDDEN
 62
   174
100
AcDbLine
 10
260.515445
 20
190.775716
 30
0.0
 11
260.852773
 21
188.979063
 31
0.0
  0
ARC
  5
143
100
AcDbEntity
  8
0
  6
Continuous
 62
   174
100
AcDbCircle
 10
266.901824
 20
200.114568
 30
0.0
 40
3.0
100
AcDbArc
 50
-169.303939
 51
-167.819928
  0
ARC
  5
144
100
AcDbEntity
  8
0
  6
Continuous
 62
   174
100
AcDbCircle
 10
263.395762
 20
218.78828
 30
0.0
 40
10.0
100
AcDbArc
 50
88.633706
 51
196.257561
  0
ARC
  5
145
100
AcDbEntity
  8
0
  6
HIDDEN
 62
   174
100
AcDbCircle
 10
263.395762
 20
218.78828
 30
0.0
 40
9.6
100
AcDbArc
 50
-91.366294
 51
88.633706
  0
LINE
  5
146
100
AcDbEntity
  8
0
  6
HIDDEN
 62
   174
100
AcDbLine
 10
233.698359
 20
139.91184
 30
0.0
 11
221.698359
 21
139.91184
 31
0.0
  0
ARC
  5
147
100
AcDbEntity
  8
0
  6
Continuous
 62
   174
100
AcDbCircle
 10
263.395762
 20
218.78828
 30
0.0
 40
2.0
100
AcDbArc
 50
-39.950042
 51
-25.63403
  0
ARC
  5
148
100
AcDbEntity
  8
0
  6
Continuous
 62
   174
100
AcDbCircle
 10
263.395762
 20
218.78828
 30
0.0
 40
2.0
100
AcDbArc
 50
-105.237662
 51
-90.83433
  0
ARC
  5
149
100
AcDbEntity
  8
0
  6
Continuous
 62
   174
100
AcDbCircle
 10
263.395762
 20
218.78828
 30
0.0
 40
2.0
100
AcDbArc
 50
-205.63403
 51
-193.92022
  0
ARC
  5
14A
100
AcDbEntity
  8
0
  6
Continuous
 62
   174
100
AcDbCircle
 10
263.395762
 20
218.78828
 30
0.0
 40
10.0
100
AcDbArc
 50
16.257561
 51
88.633706
  0
ARC
  5
14B
100
AcDbEntity
  8
0
  6
Continuous
 62
   174
100
AcDbCircle
 10
228.698359
 20
187.01184
 30
0.0
 40
3.0
100
AcDbArc
 50
152.820324
 51
207.132442
  0
ARC
  5
14C
100
AcDbEntity
  8
0
  6
HIDDEN
 62
   174
100
AcDbCircle
 10
228.698359
 20
187.01184
 30
0.0
 40
3.0
100
AcDbArc
 50
88.87655
 51
118.649313
  0
ARC
  5
14D
100
AcDbEntity
  8
0
  6
Continuous
 62
   174
100
AcDbCircle
 10
263.395762
 20
218.78828
 30
0.0
 40
2.0
100
AcDbArc
 50
-141.061563
 51
-127.368635
  0
LINE
  5
14E
100
AcDbEntity
  8
0
  6
Continuous
 62
   174
100
AcDbLine
 10
250.698359
 20
183.276991
 30
0.0
 11
250.698359
 21
177.71184
 31
0.0
  0
ARC
  5
14F
100
AcDbEntity
  8
0
  6
Continuous
 62
   174
100
AcDbCircle
 10
266.901824
 20
200.114568
 30
0.0
 40
3.0
100
AcDbArc
 50
190.633706
 51
196.341469
  0
LINE
  5
150
100
AcDbEntity
  8
0
  6
HIDDEN
 62
   174
100
AcDbLine
 10
221.698359
 20
120.754466
 30
0.0
 11
221.698359
 21
110.755105
 31
0.0
  0
ARC
  5
151
100
AcDbEntity
  8
0
  6
Continuous
 62
   174
100
AcDbCircle
 10
266.901824
 20
200.114568
 30
0.0
 40
3.0
100
AcDbArc
 50
-214.519201
 51
-196.096278
  0
ARC
  5
152
100
AcDbEntity
  8
0
  6
HIDDEN
 62
   174
100
AcDbCircle
 10
266.901824
 20
200.114568
 30
0.0
 40
3.0
100
AcDbArc
 50
324.618379
 51
344.318936
  0
ARC
  5
153
100
AcDbEntity
  8
0
  6
HIDDEN
 62
   174
100
AcDbCircle
 10
266.901824
 20
200.114568
 30
0.0
 40
8.0
100
AcDbArc
 50
46.494821
 51
72.172003
  0
ARC
  5
154
100
AcDbEntity
  8
0
  6
Continuous
 62
   174
100
AcDbCircle
 10
230.698359
 20
159.71184
 30
0.0
 40
7.5
100
AcDbArc
 50
90.0
 51
270.0
  0
LINE
  5
155
100
AcDbEntity
  8
0
  6
Continuous
 62
   174
100
AcDbLine
 10
271.258378
 20
220.264517
 30
0.0
 11
275.736975
 21
196.41096
 31
0.0
  0
LINE
  5
156
100
AcDbEntity
  8
0
  6
HIDDEN
 62
   174
100
AcDbLine
 10
235.742962
 20
196.474276
 30
0.0
 11
222.372575
 21
193.963934
 31
0.0
  0
ARC
  5
157
100
AcDbEntity
  8
0
  6
HIDDEN
 62
   174
100
AcDbCircle
 10
266.901824
 20
200.114568
 30
0.0
 40
3.0
100
AcDbArc
 50
83.125241
 51
87.776362
  0
ARC
  5
158
100
AcDbEntity
  8
0
  6
HIDDEN
 62
   174
100
AcDbCircle
 10
266.901824
 20
200.114568
 30
0.0
 40
3.0
100
AcDbArc
 50
216.430009
 51
222.648179
  0
ARC
  5
159
100
AcDbEntity
  8
0
  6
HIDDEN
 62
   174
100
AcDbCircle
 10
266.901824
 20
200.114568
 30
0.0
 40
3.0
100
AcDbArc
 50
222.648179
 51
242.835379
  0
ARC
  5
15A
100
AcDbEntity
  8
0
  6
Continuous
 62
   174
100
AcDbCircle
 10
266.901824
 20
200.114568
 30
0.0
 40
3.0
100
AcDbArc
 50
169.452249
 51
190.633706
  0
ARC
  5
15B
100
AcDbEntity
  8
0
  6
Continuous
 62
   174
100
AcDbCircle
 10
266.901824
 20
200.114568
 30
0.0
 40
3.0
100
AcDbArc
 50
293.017373
 51
297.089768
  0
ARC
  5
15C
100
AcDbEntity
  8
0
  6
Continuous
 62
   174
100
AcDbCircle
 10
266.901824
 20
200.114568
 30
0.0
 40
3.0
100
AcDbArc
 50
297.089768
 51
319.891386
  0
ARC
  5
15D
100
AcDbEntity
  8
0
  6
HIDDEN
 62
   174
100
AcDbCircle
 10
228.698359
 20
187.01184
 30
0.0
 40
3.0
100
AcDbArc
 50
210.472011
 51
244.489773
  0
ARC
  5
15E
100
AcDbEntity
  8
0
  6
HIDDEN
 62
   174
100
AcDbCircle
 10
228.698359
 20
187.01184
 30
0.0
 40
3.0
100
AcDbArc
 50
64.489773
 51
88.87655
  0
LINE
  5
15F
100
AcDbEntity
  8
0
  6
Continuous
 62
   174
100
AcDbLine
 10
242.54211
 20
183.539358
 30
0.0
 11
242.173062
 21
185.504952
 31
0.0
  0
LINE
  5
160
100
AcDbEntity
  8
0
  6
HIDDEN
 62
   174
100
AcDbLine
 10
256.698359
 20
141.552873
 30
0.0
 11
256.698359
 21
149.952264
 31
0.0
  0
ARC
  5
161
100
AcDbEntity
  8
0
  6
HIDDEN
 62
   174
100
AcDbCircle
 10
266.901824
 20
200.114568
 30
0.0
 40
3.0
100
AcDbArc
 50
244.586345
 51
262.6181
  0
ARC
  5
162
100
AcDbEntity
  8
0
  6
HIDDEN
 62
   174
100
AcDbCircle
 10
266.901824
 20
200.114568
 30
0.0
 40
3.0
100
AcDbArc
 50
297.089768
 51
319.891386
  0
ARC
  5
163
100
AcDbEntity
  8
0
  6
Continuous
 62
   174
100
AcDbCircle
 10
266.901824
 20
200.114568
 30
0.0
 40
3.0
100
AcDbArc
 50
273.764529
 51
280.633706
  0
ARC
  5
164
100
AcDbEntity
  8
0
  6
Continuous
 62
   174
100
AcDbCircle
 10
266.901824
 20
200.114568
 30
0.0
 40
3.0
100
AcDbArc
 50
41.621142
 51
64.586345
  0
ARC
  5
165
100
AcDbEntity
  8
0
  6
HIDDEN
 62
   174
100
AcDbCircle
 10
266.901824
 20
200.114568
 30
0.0
 40
8.0
100
AcDbArc
 50
20.817663
 51
46.494821
  0
LINE
  5
166
100
AcDbEntity
  8
0
  6
HIDDEN
 62
   174
100
AcDbLine
 10
221.698359
 20
139.91184
 30
0.0
 11
236.698359
 21
139.91184
 31
0.0
  0
ARC
  5
167
100
AcDbEntity
  8
0
  6
Continuous
 62
   174
100
AcDbCircle
 10
266.901824
 20
200.114568
 30
0.0
 40
3.0
100
AcDbArc
 50
-114.981555
 51
-92.573745
  0
ARC
  5
168
100
AcDbEntity
  8
0
  6
Continuous
 62
   174
100
AcDbCircle
 10
266.901824
 20
200.114568
 30
0.0
 40
3.0
100
AcDbArc
 50
-138.323625
 51
-115.41535
  0
ARC
  5
169
100
AcDbEntity
  8
0
  6
Continuous
 62
   174
100
AcDbCircle
 10
266.901824
 20
200.114568
 30
0.0
 40
3.0
100
AcDbArc
 50
-242.881059
 51
-220.155838
  0
ARC
  5
16A
100
AcDbEntity
  8
0
  6
Continuous
 62
   174
100
AcDbCircle
 10
263.395762
 20
218.78828
 30
0.0
 40
2.0
100
AcDbArc
 50
-334.584359
 51
-322.282175
  0
ARC
  5
16B
100
AcDbEntity
  8
0
  6
Continuous
 62
   174
100
AcDbCircle
 10
263.395762
 20
218.78828
 30
0.0
 40
2.0
100
AcDbArc
 50
-193.92022
 51
-192.490134
  0
ARC
  5
16C
100
AcDbEntity
  8
0
  6
Continuous
 62
   174
100
AcDbCircle
 10
263.395762
 20
218.78828
 30
0.0
 40
9.6
100
AcDbArc
 50
-1.366294
 51
16.634115
  0
ARC
  5
16D
100
AcDbEntity
  8
0
  6
HIDDEN
 62
   174
100
AcDbCircle
 10
266.901824
 20
200.114568
 30
0.0
 40
3.0
100
AcDbArc
 50
139.891386
 51
145.459612
  0
ARC
  5
16E
100
AcDbEntity
  8
0
  6
Continuous
 62
   174
100
AcDbCircle
 10
266.901824
 20
200.114568
 30
0.0
 40
3.0
100
AcDbArc
 50
35.576588
 51
41.621142
  0
LINE
  5
16F
100
AcDbEntity
  8
0
  6
HIDDEN
 62
   174
100
AcDbLine
 10
235.698359
 20
179.11184
 30
0.0
 11
235.698359
 21
180.186332
 31
0.0
  0
ARC
  5
170
100
AcDbEntity
  8
0
  6
HIDDEN
 62
   174
100
AcDbCircle
 10
230.698359
 20
159.71184
 30
0.0
 40
7.5
100
AcDbArc
 50
-270.0
 51
-90.0
  0
LINE
  5
171
100
AcDbEntity
  8
0
  6
HIDDEN
 62
   174
100
AcDbLine
 10
233.698359
 20
131.51184
 30
0.0
 11
221.698359
 21
131.51184
 31
0.0
  0
ARC
  5
172
100
AcDbEntity
  8
0
  6
Continuous
 62
   174
100
AcDbCircle
 10
263.395762
 20
218.78828
 30
0.0
 40
2.0
100
AcDbArc
 50
-65.360584
 51
-53.668398
  0
ARC
  5
173
100
AcDbEntity
  8
0
  6
Continuous
 62
   174
100
AcDbCircle
 10
228.698359
 20
187.01184
 30
0.0
 40
3.0
100
AcDbArc
 50
270.0
 51
327.900463
  0
LINE
  5
174
100
AcDbEntity
  8
0
  6
Continuous
 62
   174
100
AcDbLine
 10
246.315751
 20
183.276991
 30
0.0
 11
246.783485
 21
183.276991
 31
0.0
  0
ARC
  5
175
100
AcDbEntity
  8
0
  6
Continuous
 62
   174
100
AcDbCircle
 10
266.901824
 20
200.114568
 30
0.0
 40
3.0
100
AcDbArc
 50
262.6181
 51
267.59011
  0
ARC
  5
176
100
AcDbEntity
  8
0
  6
Continuous
 62
   174
100
AcDbCircle
 10
266.901824
 20
200.114568
 30
0.0
 40
3.0
100
AcDbArc
 50
-167.819928
 51
-166.775848
  0
ARC
  5
177
100
AcDbEntity
  8
0
  6
Continuous
 62
   174
100
AcDbCircle
 10
263.395762
 20
218.78828
 30
0.0
 40
2.0
100
AcDbArc
 50
-168.09629
 51
-154.584359
  0
ARC
  5
178
100
AcDbEntity
  8
0
  6
Continuous
 62
   174
100
AcDbCircle
 10
266.901824
 20
200.114568
 30
0.0
 40
3.0
100
AcDbArc
 50
10.633706
 51
16.341469
  0
LINE
  5
179
100
AcDbEntity
  8
0
  6
Continuous
 62
   174
100
AcDbLine
 10
261.651949
 20
185.94791
 30
0.0
 11
276.570731
 21
191.970273
 31
0.0
  0
LINE
  5
17A
100
AcDbEntity
  8
0
  6
HIDDEN
 62
   174
100
AcDbLine
 10
271.258378
 20
220.264517
 30
0.0
 11
276.570731
 21
191.970273
 31
0.0
  0
ARC
  5
17B
100
AcDbEntity
  8
0
  6
Continuous
 62
   174
100
AcDbCircle
 10
263.395762
 20
218.78828
 30
0.0
 40
2.0
100
AcDbArc
 50
-25.63403
 51
-13.92022
  0
ARC
  5
17C
100
AcDbEntity
  8
0
  6
Continuous
 62
   174
100
AcDbCircle
 10
263.395762
 20
218.78828
 30
0.0
 40
2.0
100
AcDbArc
 50
-90.83433
 51
-89.632991
  0
ARC
  5
17D
100
AcDbEntity
  8
0
  6
Continuous
 62
   174
100
AcDbCircle
 10
263.395762
 20
218.78828
 30
0.0
 40
10.0
100
AcDbArc
 50
10.007294
 51
16.257561
  0
ARC
  5
17E
100
AcDbEntity
  8
0
  6
Continuous
 62
   174
100
AcDbCircle
 10
228.698359
 20
187.01184
 30
0.0
 40
3.0
100
AcDbArc
 50
147.900463
 51
152.820324
  0
ARC
  5
17F
100
AcDbEntity
  8
0
  6
HIDDEN
 62
   174
100
AcDbCircle
 10
228.698359
 20
187.01184
 30
0.0
 40
3.0
100
AcDbArc
 50
212.233468
 51
270.0
  0
LINE
  5
180
100
AcDbEntity
  8
0
  6
HIDDEN
 62
   174
100
AcDbLine
 10
235.698359
 20
180.186332
 30
0.0
 11
221.698359
 21
177.557778
 31
0.0
  0
ARC
  5
181
100
AcDbEntity
  8
0
  6
HIDDEN
 62
   174
100
AcDbCircle
 10
228.698359
 20
187.01184
 30
0.0
 40
3.0
100
AcDbArc
 50
244.489773
 51
271.269739
  0
ARC
  5
182
100
AcDbEntity
  8
0
  6
Continuous
 62
   174
100
AcDbCircle
 10
263.395762
 20
218.78828
 30
0.0
 40
2.0
100
AcDbArc
 50
-127.368635
 51
-116.242463
  0
LINE
  5
183
100
AcDbEntity
  8
0
  6
HIDDEN
 62
   174
100
AcDbLine
 10
221.698359
 20
131.51184
 30
0.0
 11
236.698359
 21
131.51184
 31
0.0
  0
LINE
  5
184
100
AcDbEntity
  8
0
  6
HIDDEN
 62
   174
100
AcDbLine
 10
233.698359
 20
120.754466
 30
0.0
 11
233.698359
 21
110.755105
 31
0.0
  0
ARC
  5
185
100
AcDbEntity
  8
0
  6
Continuous
 62
   174
100
AcDbCircle
 10
266.901824
 20
200.114568
 30
0.0
 40
3.0
100
AcDbArc
 50
-196.096278
 51
-190.504174
  0
ARC
  5
186
100
AcDbEntity
  8
0
  6
Continuous
 62
   174
100
AcDbCircle
 10
228.698359
 20
187.01184
 30
0.0
 40
3.0
100
AcDbArc
 50
32.233468
 51
90.0
  0
ARC
  5
187
100
AcDbEntity
  8
0
  6
HIDDEN
 62
   174
100
AcDbCircle
 10
228.698359
 20
187.01184
 30
0.0
 40
3.0
100
AcDbArc
 50
90.0
 51
147.900463
  0
LINE
  5
188
100
AcDbEntity
  8
0
  6
Continuous
 62
   174
100
AcDbLine
 10
246.783485
 20
183.276991
 30
0.0
 11
249.966002
 21
183.276991
 31
0.0
  0
ARC
  5
189
100
AcDbEntity
  8
0
  6
HIDDEN
 62
   174
100
AcDbCircle
 10
266.901824
 20
200.114568
 30
0.0
 40
3.0
100
AcDbArc
 50
319.540001
 51
324.618379
  0
ARC
  5
18A
100
AcDbEntity
  8
0
  6
HIDDEN
 62
   174
100
AcDbCircle
 10
266.901824
 20
200.114568
 30
0.0
 40
8.0
100
AcDbArc
 50
72.172003
 51
123.526181
  0
ARC
  5
18B
100
AcDbEntity
  8
0
  6
Continuous
 62
   174
100
AcDbCircle
 10
230.698359
 20
159.71184
 30
0.0
 40
4.5
100
AcDbArc
 50
-270.0
 51
-90.0
  0
ARC
  5
18C
100
AcDbEntity
  8
0
  6
Continuous
 62
   174
100
AcDbCircle
 10
266.901824
 20
200.114568
 30
0.0
 40
8.0
100
AcDbArc
 50
-30.536572
 51
174.880502
  0
ARC
  5
18D
100
AcDbEntity
  8
0
  6
HIDDEN
 62
   174
100
AcDbCircle
 10
266.901824
 20
200.114568
 30
0.0
 40
3.0
100
AcDbArc
 50
267.776362
 51
273.584715
  0
LINE
  5
18E
100
AcDbEntity
  8
0
  6
HIDDEN
 62
   174
100
AcDbLine
 10
235.765416
 20
187.117739
 30
0.0
 11
237.020217
 21
180.434516
 31
0.0
  0
ARC
  5
18F
100
AcDbEntity
  8
0
  6
HIDDEN
 62
   174
100
AcDbCircle
 10
266.901824
 20
200.114568
 30
0.0
 40
3.0
100
AcDbArc
 50
113.017373
 51
117.089768
  0
ARC
  5
190
100
AcDbEntity
  8
0
  6
Continuous
 62
   174
100
AcDbCircle
 10
266.901824
 20
200.114568
 30
0.0
 40
3.0
100
AcDbArc
 50
280.633706
 51
293.017373
  0
ARC
  5
191
100
AcDbEntity
  8
0
  6
Continuous
 62
   174
100
AcDbCircle
 10
266.901824
 20
200.114568
 30
0.0
 40
3.0
100
AcDbArc
 50
163.94471
 51
169.452249
  0
ARC
  5
192
100
AcDbEntity
  8
0
  6
HIDDEN
 62
   174
100
AcDbCircle
 10
228.698359
 20
187.01184
 30
0.0
 40
3.0
100
AcDbArc
 50
244.489773
 51
271.269739
  0
ARC
  5
193
100
AcDbEntity
  8
0
  6
HIDDEN
 62
   174
100
AcDbCircle
 10
228.698359
 20
187.01184
 30
0.0
 40
3.0
100
AcDbArc
 50
150.85882
 51
190.633706
  0
ARC
  5
194
100
AcDbEntity
  8
0
  6
HIDDEN
 62
   174
100
AcDbCircle
 10
228.698359
 20
187.01184
 30
0.0
 40
3.0
100
AcDbArc
 50
88.87655
 51
118.649313
  0
LINE
  5
195
100
AcDbEntity
  8
0
  6
Continuous
 62
   174
100
AcDbLine
 10
261.438092
 20
185.861581
 30
0.0
 11
261.651949
 21
185.94791
 31
0.0
  0
ARC
  5
196
100
AcDbEntity
  8
0
  6
Continuous
 62
   174
100
AcDbCircle
 10
263.395762
 20
218.78828
 30
0.0
 40
2.0
100
AcDbArc
 50
-12.490134
 51
-0.450687
  0
ARC
  5
197
100
AcDbEntity
  8
0
  6
HIDDEN
 62
   174
100
AcDbCircle
 10
266.901824
 20
200.114568
 30
0.0
 40
3.0
100
AcDbArc
 50
-15.681064
 51
10.633706
  0
ARC
  5
198
100
AcDbEntity
  8
0
  6
HIDDEN
 62
   174
100
AcDbCircle
 10
266.901824
 20
200.114568
 30
0.0
 40
3.0
100
AcDbArc
 50
262.6181
 51
267.59011
  0
ARC
  5
199
100
AcDbEntity
  8
0
  6
HIDDEN
 62
   174
100
AcDbCircle
 10
266.901824
 20
200.114568
 30
0.0
 40
3.0
100
AcDbArc
 50
319.891386
 51
325.459612
  0
ARC
  5
19A
100
AcDbEntity
  8
0
  6
Continuous
 62
   174
100
AcDbCircle
 10
266.901824
 20
200.114568
 30
0.0
 40
3.0
100
AcDbArc
 50
267.59011
 51
273.764529
  0
LINE
  5
19B
100
AcDbEntity
  8
0
  6
HIDDEN
 62
   174
100
AcDbLine
 10
261.438092
 20
185.861581
 30
0.0
 11
276.570731
 21
191.970273
 31
0.0
  0
LINE
  5
19C
100
AcDbEntity
  8
0
  6
HIDDEN
 62
   174
100
AcDbLine
 10
233.698359
 20
119.91184
 30
0.0
 11
221.698359
 21
119.91184
 31
0.0
  0
ARC
  5
19D
100
AcDbEntity
  8
0
  6
Continuous
 62
   174
100
AcDbCircle
 10
266.901824
 20
200.114568
 30
0.0
 40
3.0
100
AcDbArc
 50
-92.573745
 51
-89.632991
  0
ARC
  5
19E
100
AcDbEntity
  8
0
  6
Continuous
 62
   174
100
AcDbCircle
 10
266.901824
 20
200.114568
 30
0.0
 40
3.0
100
AcDbArc
 50
-220.155838
 51
-214.519201
  0
ARC
  5
19F
100
AcDbEntity
  8
0
  6
Continuous
 62
   174
100
AcDbCircle
 10
263.395762
 20
218.78828
 30
0.0
 40
2.0
100
AcDbArc
 50
-322.282175
 51
-321.061563
  0
ARC
  5
1A0
100
AcDbEntity
  8
0
  6
Continuous
 62
   174
100
AcDbCircle
 10
263.395762
 20
218.78828
 30
0.0
 40
2.0
100
AcDbArc
 50
-192.490134
 51
-180.450687
  0
ARC
  5
1A1
100
AcDbEntity
  8
0
  6
Continuous
 62
   174
100
AcDbCircle
 10
263.395762
 20
218.78828
 30
0.0
 40
9.6
100
AcDbArc
 50
337.667209
 51
358.633706
  0
ARC
  5
1A2
100
AcDbEntity
  8
0
  6
HIDDEN
 62
   174
100
AcDbCircle
 10
263.395762
 20
218.78828
 30
0.0
 40
9.6
100
AcDbArc
 50
88.633706
 51
268.633706
  0
ARC
  5
1A3
100
AcDbEntity
  8
0
  6
HIDDEN
 62
   174
100
AcDbCircle
 10
228.698359
 20
187.01184
 30
0.0
 40
3.0
100
AcDbArc
 50
152.820324
 51
191.541064
  0
ARC
  5
1A4
100
AcDbEntity
  8
0
  6
Continuous
 62
   174
100
AcDbCircle
 10
246.698359
 20
174.11184
 30
0.0
 40
10.0
100
AcDbArc
 50
-270.0
 51
-246.421822
  0
ARC
  5
1A5
100
AcDbEntity
  8
0
  6
HIDDEN
 62
   174
100
AcDbCircle
 10
266.901824
 20
200.114568
 30
0.0
 40
3.0
100
AcDbArc
 50
82.6181
 51
87.59011
  0
ARC
  5
1A6
100
AcDbEntity
  8
0
  6
Continuous
 62
   174
100
AcDbCircle
 10
266.901824
 20
200.114568
 30
0.0
 40
3.0
100
AcDbArc
 50
16.341469
 51
35.576588
  0
ARC
  5
1A7
100
AcDbEntity
  8
0
  6
HIDDEN
 62
   174
100
AcDbCircle
 10
266.901824
 20
200.114568
 30
0.0
 40
8.0
100
AcDbArc
 50
-4.859508
 51
20.817663
  0
LINE
  5
1A8
100
AcDbEntity
  8
0
  6
HIDDEN
 62
   174
100
AcDbLine
 10
221.698359
 20
139.91184
 30
0.0
 11
236.698359
 21
139.91184
 31
0.0
  0
ARC
  5
1A9
100
AcDbEntity
  8
0
  6
Continuous
 62
   174
100
AcDbCircle
 10
263.395762
 20
218.78828
 30
0.0
 40
2.0
100
AcDbArc
 50
-53.668398
 51
-39.950042
  0
ARC
  5
1AA
100
AcDbEntity
  8
0
  6
Continuous
 62
   174
100
AcDbCircle
 10
228.698359
 20
187.01184
 30
0.0
 40
3.0
100
AcDbArc
 50
212.233468
 51
270.0
  0
LINE
  5
1AB
100
AcDbEntity
  8
0
  6
Continuous
 62
   174
100
AcDbLine
 10
243.073754
 20
183.276991
 30
0.0
 11
246.315751
 21
183.276991
 31
0.0
  0
ARC
  5
1AC
100
AcDbEntity
  8
0
  6
Continuous
 62
   174
100
AcDbCircle
 10
266.901824
 20
200.114568
 30
0.0
 40
3.0
100
AcDbArc
 50
244.586345
 51
262.6181
  0
ARC
  5
1AD
100
AcDbEntity
  8
0
  6
Continuous
 62
   174
100
AcDbCircle
 10
266.901824
 20
200.114568
 30
0.0
 40
3.0
100
AcDbArc
 50
-166.775848
 51
-163.709685
  0
ARC
  5
1AE
100
AcDbEntity
  8
0
  6
Continuous
 62
   174
100
AcDbCircle
 10
263.395762
 20
218.78828
 30
0.0
 40
2.0
100
AcDbArc
 50
-154.584359
 51
-142.282175
  0
ARC
  5
1AF
100
AcDbEntity
  8
0
  6
HIDDEN
 62
   174
100
AcDbCircle
 10
228.698359
 20
187.01184
 30
0.0
 40
3.0
100
AcDbArc
 50
327.900463
 51
332.820324
  0
ARC
  5
1B0
100
AcDbEntity
  8
0
  6
HIDDEN
 62
   174
100
AcDbCircle
 10
228.698359
 20
187.01184
 30
0.0
 40
3.0
100
AcDbArc
 50
-27.179676
 51
11.541064
  0
ARC
  5
1B1
100
AcDbEntity
  8
0
  6
HIDDEN
 62
   174
100
AcDbCircle
 10
228.698359
 20
187.01184
 30
0.0
 40
3.0
100
AcDbArc
 50
27.132442
 51
32.233468
  0
ARC
  5
1B2
100
AcDbEntity
  8
0
  6
Continuous
 62
   174
100
AcDbCircle
 10
246.698359
 20
174.11184
 30
0.0
 40
10.0
100
AcDbArc
 50
70.703977
 51
90.0
  0
ARC
  5
1B3
100
AcDbEntity
  8
0
  6
Continuous
 62
   174
100
AcDbCircle
 10
266.901824
 20
200.114568
 30
0.0
 40
3.0
100
AcDbArc
 50
-10.547751
 51
10.633706
  0
ARC
  5
1B4
100
AcDbEntity
  8
0
  6
Continuous
 62
   174
100
AcDbCircle
 10
263.395762
 20
218.78828
 30
0.0
 40
2.0
100
AcDbArc
 50
-270.83433
 51
-269.632991
  0
ARC
  5
1B5
100
AcDbEntity
  8
0
  6
Continuous
 62
   174
100
AcDbCircle
 10
263.395762
 20
218.78828
 30
0.0
 40
2.0
100
AcDbArc
 50
-13.92022
 51
-12.490134
  0
ARC
  5
1B6
100
AcDbEntity
  8
0
  6
Continuous
 62
   174
100
AcDbCircle
 10
263.395762
 20
218.78828
 30
0.0
 40
2.0
100
AcDbArc
 50
-89.632991
 51
-79.331421
  0
ARC
  5
1B7
100
AcDbEntity
  8
0
  6
HIDDEN
 62
   174
100
AcDbCircle
 10
263.395762
 20
218.78828
 30
0.0
 40
9.6
100
AcDbArc
 50
268.633706
 51
337.667209
  0
ARC
  5
1B8
100
AcDbEntity
  8
0
  6
Continuous
 62
   174
100
AcDbCircle
 10
228.698359
 20
187.01184
 30
0.0
 40
3.0
100
AcDbArc
 50
90.0
 51
147.900463
  0
ARC
  5
1B9
100
AcDbEntity
  8
0
  6
HIDDEN
 62
   174
100
AcDbCircle
 10
228.698359
 20
187.01184
 30
0.0
 40
3.0
100
AcDbArc
 50
147.900463
 51
152.820324
  0
LINE
  5
1BA
100
AcDbEntity
  8
0
  6
Continuous
 62
   174
100
AcDbLine
 10
237.020217
 20
180.434516
 30
0.0
 11
235.698359
 21
180.186332
 31
0.0
  0
ARC
  5
1BB
100
AcDbEntity
  8
0
  6
HIDDEN
 62
   174
100
AcDbCircle
 10
266.901824
 20
200.114568
 30
0.0
 40
8.0
100
AcDbArc
 50
149.203333
 51
174.880502
  0
ARC
  5
1BC
100
AcDbEntity
  8
0
  6
HIDDEN
 62
   174
100
AcDbCircle
 10
228.698359
 20
187.01184
 30
0.0
 40
3.0
100
AcDbArc
 50
271.269739
 51
298.649313
  0
ARC
  5
1BD
100
AcDbEntity
  8
0
  6
Continuous
 62
   174
100
AcDbCircle
 10
262.698359
 20
159.71184
 30
0.0
 40
7.5
100
AcDbArc
 50
-90.0
 51
90.0
  0
LINE
  5
1BE
100
AcDbEntity
  8
0
  6
HIDDEN
 62
   174
100
AcDbLine
 10
255.533146
 20
217.312044
 30
0.0
 11
261.438092
 21
185.861581
 31
0.0
  0
ARC
  5
1BF
100
AcDbEntity
  8
0
  6
Continuous
 62
   174
100
AcDbCircle
 10
263.395762
 20
218.78828
 30
0.0
 40
2.0
100
AcDbArc
 50
-116.242463
 51
-105.237662
  0
ARC
  5
1C0
100
AcDbEntity
  8
0
  6
Continuous
 62
   174
100
AcDbCircle
 10
266.901824
 20
200.114568
 30
0.0
 40
3.0
100
AcDbArc
 50
-190.504174
 51
-169.303939
  0
ARC
  5
1C1
100
AcDbEntity
  8
0
  6
Continuous
 62
   174
100
AcDbCircle
 10
228.698359
 20
187.01184
 30
0.0
 40
3.0
100
AcDbArc
 50
27.132442
 51
32.233468
  0
ARC
  5
1C2
100
AcDbEntity
  8
0
  6
HIDDEN
 62
   174
100
AcDbCircle
 10
228.698359
 20
187.01184
 30
0.0
 40
3.0
100
AcDbArc
 50
270.0
 51
327.900463
  0
LINE
  5
1C3
100
AcDbEntity
  8
0
  6
Continuous
 62
   174
100
AcDbLine
 10
221.698359
 20
177.557778
 30
0.0
 11
221.206961
 21
177.465516
 31
0.0
  0
LINE
  5
1C4
100
AcDbEntity
  8
0
  6
HIDDEN
 62
   174
100
AcDbLine
 10
241.662378
 20
188.224917
 30
0.0
 11
235.765416
 21
187.117739
 31
0.0
  0
LINE
  5
1C5
100
AcDbEntity
  8
0
  6
HIDDEN
 62
   174
100
AcDbLine
 10
258.933738
 20
200.828434
 30
0.0
 11
235.742962
 21
196.474276
 31
0.0
  0
ARC
  5
1C6
100
AcDbEntity
  8
0
  6
Continuous
 62
   174
100
AcDbCircle
 10
230.698359
 20
159.71184
 30
0.0
 40
4.5
100
AcDbArc
 50
-90.0
 51
90.0
  0
LINE
  5
1C7
100
AcDbEntity
  8
0
  6
HIDDEN
 62
   174
100
AcDbLine
 10
221.698359
 20
131.51184
 30
0.0
 11
236.698359
 21
131.51184
 31
0.0
  0
LINE
  5
1C8
100
AcDbEntity
  8
0
  6
HIDDEN
 62
   174
100
AcDbLine
 10
221.698359
 20
119.91184
 30
0.0
 11
236.698359
 21
119.91184
 31
0.0
  0
LINE
  5
1C9
100
AcDbEntity
  8
0
  6
HIDDEN
 62
   174
100
AcDbLine
 10
233.698359
 20
111.51184
 30
0.0
 11
221.698359
 21
111.51184
 31
0.0
  0
ARC
  5
1CA
100
AcDbEntity
  8
0
  6
Continuous
 62
   174
100
AcDbCircle
 10
266.901824
 20
200.114568
 30
0.0
 40
8.0
100
AcDbArc
 50
280.633706
 51
329.463428
  0
ARC
  5
1CB
100
AcDbEntity
  8
0
  6
HIDDEN
 62
   174
100
AcDbCircle
 10
266.901824
 20
200.114568
 30
0.0
 40
3.0
100
AcDbArc
 50
87.776362
 51
93.584715
  0
ARC
  5
1CC
100
AcDbEntity
  8
0
  6
HIDDEN
 62
   174
100
AcDbCircle
 10
266.901824
 20
200.114568
 30
0.0
 40
3.0
100
AcDbArc
 50
93.584715
 51
100.633706
  0
ARC
  5
1CD
100
AcDbEntity
  8
0
  6
HIDDEN
 62
   174
100
AcDbCircle
 10
266.901824
 20
200.114568
 30
0.0
 40
3.0
100
AcDbArc
 50
273.584715
 51
280.633706
  0
ARC
  5
1CE
100
AcDbEntity
  8
0
  6
HIDDEN
 62
   174
100
AcDbCircle
 10
266.901824
 20
200.114568
 30
0.0
 40
3.0
100
AcDbArc
 50
117.089768
 51
139.891386
  0
ARC
  5
1CF
100
AcDbEntity
  8
0
  6
HIDDEN
 62
   174
100
AcDbCircle
 10
228.698359
 20
187.01184
 30
0.0
 40
3.0
100
AcDbArc
 50
-29.14118
 51
10.633706
  0
ARC
  5
1D0
100
AcDbEntity
  8
0
  6
Continuous
 62
   174
100
AcDbCircle
 10
263.395762
 20
218.78828
 30
0.0
 40
2.0
100
AcDbArc
 50
-0.450687
 51
11.90371
  0
ARC
  5
1D1
100
AcDbEntity
  8
0
  6
HIDDEN
 62
   174
100
AcDbCircle
 10
266.901824
 20
200.114568
 30
0.0
 40
3.0
100
AcDbArc
 50
267.59011
 51
273.764529
  0
ARC
  5
1D2
100
AcDbEntity
  8
0
  6
HIDDEN
 62
   174
100
AcDbCircle
 10
266.901824
 20
200.114568
 30
0.0
 40
3.0
100
AcDbArc
 50
325.459612
 51
343.94471
  0
ARC
  5
1D3
100
AcDbEntity
  8
0
  6
Continuous
 62
   174
100
AcDbCircle
 10
263.395762
 20
218.78828
 30
0.0
 40
2.0
100
AcDbArc
 50
-321.061563
 51
-307.368635
  0
ARC
  5
1D4
100
AcDbEntity
  8
0
  6
Continuous
 62
   174
100
AcDbCircle
 10
263.395762
 20
218.78828
 30
0.0
 40
2.0
100
AcDbArc
 50
-180.450687
 51
-168.09629
  0
LINE
  5
1D5
100
AcDbEntity
  8
0
  6
Continuous
 62
   174
100
AcDbLine
 10
221.698359
 20
196.71184
 30
0.0
 11
235.698359
 21
196.71184
 31
0.0
  0
ARC
  5
1D6
100
AcDbEntity
  8
0
  6
HIDDEN
 62
   174
100
AcDbCircle
 10
266.901824
 20
200.114568
 30
0.0
 40
3.0
100
AcDbArc
 50
87.59011
 51
93.764529
  0
ARC
  5
1D7
100
AcDbEntity
  8
0
  6
Continuous
 62
   174
100
AcDbCircle
 10
266.901824
 20
200.114568
 30
0.0
 40
3.0
100
AcDbArc
 50
343.94471
 51
349.452249
  0
LINE
  5
1D8
100
AcDbEntity
  8
0
  6
HIDDEN
 62
   174
100
AcDbLine
 10
260.852773
 20
188.979063
 30
0.0
 11
242.179061
 21
185.473001
 31
0.0
  0
ARC
  5
1D9
100
AcDbEntity
  8
0
  6
Continuous
 62
   174
100
AcDbCircle
 10
263.395762
 20
218.78828
 30
0.0
 40
2.0
100
AcDbArc
 50
-269.632991
 51
-259.331421
  0
LINE
  5
1DA
100
AcDbEntity
  8
0
  6
HIDDEN
 62
   174
100
AcDbLine
 10
249.966002
 20
177.71184
 30
0.0
 11
250.722427
 21
177.71184
 31
0.0
  0
LINE
  5
1DB
100
AcDbEntity
  8
0
  6
Continuous
 62
   174
100
AcDbLine
 10
255.533146
 20
217.312044
 30
0.0
 11
258.638418
 21
200.772986
 31
0.0
  0
LINE
  5
1DC
100
AcDbEntity
  8
0
  6
HIDDEN
 62
   174
100
AcDbLine
 10
233.698359
 20
120.71184
 30
0.0
 11
221.698359
 21
120.71184
 31
0.0
  0
ARC
  5
1DD
100
AcDbEntity
  8
0
  6
Continuous
 62
   174
100
AcDbCircle
 10
263.395762
 20
218.78828
 30
0.0
 40
2.0
100
AcDbArc
 50
-142.282175
 51
-141.061563
  0
LINE
  5
1DE
100
AcDbEntity
  8
0
  6
HIDDEN
 62
   174
100
AcDbLine
 10
256.698359
 20
101.555729
 30
0.0
 11
256.698359
 21
109.95542
 31
0.0
  0
LINE
  5
1DF
100
AcDbEntity
  8
0
  6
HIDDEN
 62
   174
100
AcDbLine
 10
235.742962
 20
196.474276
 30
0.0
 11
222.372575
 21
193.963934
 31
0.0
  0
LINE
  5
1E0
100
AcDbEntity
  8
0
  6
HIDDEN
 62
   174
100
AcDbLine
 10
242.105249
 20
185.866132
 30
0.0
 11
241.662378
 21
188.224917
 31
0.0
  0
ARC
  5
1E1
100
AcDbEntity
  8
0
  6
HIDDEN
 62
   174
100
AcDbCircle
 10
263.395762
 20
218.78828
 30
0.0
 40
9.6
100
AcDbArc
 50
223.123807
 51
268.633706
  0
ARC
  5
1E2
100
AcDbEntity
  8
0
  6
HIDDEN
 62
   174
100
AcDbCircle
 10
228.698359
 20
187.01184
 30
0.0
 40
3.0
100
AcDbArc
 50
298.649313
 51
330.85882
  0
ARC
  5
1E3
100
AcDbEntity
  8
0
  6
Continuous
 62
   174
100
AcDbCircle
 10
262.698359
 20
159.71184
 30
0.0
 40
7.5
100
AcDbArc
 50
90.0
 51
270.0
  0
LINE
  5
1E4
100
AcDbEntity
  8
0
  6
Continuous
 62
   174
100
AcDbLine
 10
261.221832
 20
187.013409
 30
0.0
 11
261.438092
 21
185.861581
 31
0.0
  0
LINE
  5
1E5
100
AcDbEntity
  8
0
  6
Continuous
 62
   174
100
AcDbLine
 10
260.846772
 20
189.011023
 30
0.0
 11
261.21582
 21
187.045429
 31
0.0
  0
LINE
  5
1E6
100
AcDbEntity
  8
0
  6
Continuous
 62
   174
100
AcDbLine
 10
235.698359
 20
177.71184
 30
0.0
 11
235.698359
 21
196.71184
 31
0.0
  0
ENDBLK
  5
1E7
100
AcDbEntity
  8
0
100
AcDbBlockEnd
  0
BLOCK
  5
1EA
100
AcDbEntity
  8
0
100
AcDbBlockBegin
  2
*B2
 70
     0
 10
0.0
 20
0.0
 30
0.0
  3
*B2
  1

  0
LINE
  5
1EB
100
AcDbEntity
  8
0
  6
Continuous
 62
   232
100
AcDbLine
 10
263.298359
 20
228.71184
 30
0.0
 11
263.498359
 21
228.71184
 31
0.0
  0
LINE
  5
1EC
100
AcDbEntity
  8
0
  6
Continuous
 62
   232
100
AcDbLine
 10
276.998359
 20
220.71184
 30
0.0
 11
277.058359
 21
220.71184
 31
0.0
  0
LINE
  5
1ED
100
AcDbEntity
  8
0
  6
Continuous
 62
   232
100
AcDbLine
 10
277.458359
 20
216.71184
 30
0.0
 11
277.498359
 21
216.71184
 31
0.0
  0
ENDBLK
  5
1EE
100
AcDbEntity
  8
0
100
AcDbBlockEnd
  0
BLOCK
  5
1F1
100
AcDbEntity
  8
0
100
AcDbBlockBegin
  2
*B3
 70
     0
 10
0.0
 20
0.0
 30
0.0
  3
*B3
  1

  0
ARC
  5
1F2
100
AcDbEntity
  8
0
  6
Continuous
 62
   174
100
AcDbCircle
 10
161.697919
 20
125.71184
 30
0.0
 40
5.0
100
AcDbArc
 50
-90.0
 51
-88.539701
  0
ARC
  5
1F3
100
AcDbEntity
  8
0
  6
Continuous
 62
   174
100
AcDbCircle
 10
161.697919
 20
125.71184
 30
0.0
 40
5.0
100
AcDbArc
 50
-268.539701
 51
-151.192829
  0
ARC
  5
1F4
100
AcDbEntity
  8
0
  6
Continuous
 62
   174
100
AcDbCircle
 10
161.697919
 20
125.71184
 30
0.0
 40
5.0
100
AcDbArc
 50
-270.0
 51
-268.539701
  0
ARC
  5
1F5
100
AcDbEntity
  8
0
  6
Continuous
 62
   174
100
AcDbCircle
 10
161.697919
 20
125.71184
 30
0.0
 40
5.0
100
AcDbArc
 50
-271.460299
 51
-270.0
  0
ARC
  5
1F6
100
AcDbEntity
  8
0
  6
Continuous
 62
   174
100
AcDbCircle
 10
161.697919
 20
125.71184
 30
0.0
 40
5.0
100
AcDbArc
 50
-88.539701
 51
88.539701
  0
ARC
  5
1F7
100
AcDbEntity
  8
0
  6
Continuous
 62
   174
100
AcDbCircle
 10
161.697919
 20
105.71184
 30
0.0
 40
5.0
100
AcDbArc
 50
-90.0
 51
-88.539701
  0
ARC
  5
1F8
100
AcDbEntity
  8
0
  6
Continuous
 62
   174
100
AcDbCircle
 10
161.697919
 20
105.71184
 30
0.0
 40
5.0
100
AcDbArc
 50
-268.539701
 51
-151.192829
  0
ARC
  5
1F9
100
AcDbEntity
  8
0
  6
Continuous
 62
   174
100
AcDbCircle
 10
161.697919
 20
105.71184
 30
0.0
 40
5.0
100
AcDbArc
 50
-270.0
 51
-268.539701
  0
ARC
  5
1FA
100
AcDbEntity
  8
0
  6
Continuous
 62
   174
100
AcDbCircle
 10
161.697919
 20
105.71184
 30
0.0
 40
5.0
100
AcDbArc
 50
-271.460299
 51
-270.0
  0
ARC
  5
1FB
100
AcDbEntity
  8
0
  6
Continuous
 62
   174
100
AcDbCircle
 10
161.697919
 20
105.71184
 30
0.0
 40
5.0
100
AcDbArc
 50
-88.539701
 51
88.539701
  0
ARC
  5
1FC
100
AcDbEntity
  8
0
  6
Continuous
 62
   174
100
AcDbCircle
 10
161.697919
 20
145.71184
 30
0.0
 40
5.0
100
AcDbArc
 50
-90.0
 51
-88.675578
  0
ARC
  5
1FD
100
AcDbEntity
  8
0
  6
Continuous
 62
   174
100
AcDbCircle
 10
161.697919
 20
145.71184
 30
0.0
 40
5.0
100
AcDbArc
 50
-268.675578
 51
-151.210326
  0
ARC
  5
1FE
100
AcDbEntity
  8
0
  6
Continuous
 62
   174
100
AcDbCircle
 10
161.697919
 20
145.71184
 30
0.0
 40
5.0
100
AcDbArc
 50
-270.0
 51
-268.675578
  0
ARC
  5
1FF
100
AcDbEntity
  8
0
  6
Continuous
 62
   174
100
AcDbCircle
 10
161.697919
 20
145.71184
 30
0.0
 40
5.0
100
AcDbArc
 50
-271.324422
 51
-270.0
  0
LINE
  5
200
100
AcDbEntity
  8
0
  6
HIDDEN
 62
   174
100
AcDbLine
 10
176.697919
 20
190.01184
 30
0.0
 11
176.697919
 21
184.01184
 31
0.0
  0
LINE
  5
201
100
AcDbEntity
  8
0
  6
HIDDEN
 62
   174
100
AcDbLine
 10
176.697919
 20
190.049443
 30
0.0
 11
176.697919
 21
184.050007
 31
0.0
  0
LINE
  5
202
100
AcDbEntity
  8
0
  6
HIDDEN
 62
   174
100
AcDbLine
 10
171.697919
 20
203.114568
 30
0.0
 11
169.297919
 21
203.114568
 31
0.0
  0
LINE
  5
203
100
AcDbEntity
  8
0
  6
HIDDEN
 62
   174
100
AcDbLine
 10
154.097919
 20
197.114568
 30
0.0
 11
151.697919
 21
197.114568
 31
0.0
  0
LINE
  5
204
100
AcDbEntity
  8
0
  6
HIDDEN
 62
   174
100
AcDbLine
 10
154.097919
 20
203.114568
 30
0.0
 11
151.697919
 21
203.114568
 31
0.0
  0
LINE
  5
205
100
AcDbEntity
  8
0
  6
HIDDEN
 62
   174
100
AcDbLine
 10
171.697919
 20
203.114568
 30
0.0
 11
171.697919
 21
197.114568
 31
0.0
  0
LINE
  5
206
100
AcDbEntity
  8
0
  6
HIDDEN
 62
   174
100
AcDbLine
 10
171.697919
 20
199.59549
 30
0.0
 11
171.697919
 21
199.502664
 31
0.0
  0
LINE
  5
207
100
AcDbEntity
  8
0
  6
HIDDEN
 62
   174
100
AcDbLine
 10
171.697919
 20
199.502664
 30
0.0
 11
171.697919
 21
197.151675
 31
0.0
  0
LINE
  5
208
100
AcDbEntity
  8
0
  6
Continuous
 62
   174
100
AcDbLine
 10
154.697919
 20
190.01184
 30
0.0
 11
154.097919
 21
190.01184
 31
0.0
  0
LINE
  5
209
100
AcDbEntity
  8
0
  6
Continuous
 62
   174
100
AcDbLine
 10
154.697919
 20
190.01184
 30
0.0
 11
154.097919
 21
190.01184
 31
0.0
  0
LINE
  5
20A
100
AcDbEntity
  8
0
  6
HIDDEN
 62
   174
100
AcDbLine
 10
152.391173
 20
184.01184
 30
0.0
 11
151.697919
 21
184.01184
 31
0.0
  0
LINE
  5
20B
100
AcDbEntity
  8
0
  6
HIDDEN
 62
   174
100
AcDbLine
 10
162.177048
 20
184.01184
 30
0.0
 11
161.21879
 21
184.01184
 31
0.0
  0
LINE
  5
20C
100
AcDbEntity
  8
0
  6
HIDDEN
 62
   174
100
AcDbLine
 10
172.197919
 20
184.01184
 30
0.0
 11
171.697919
 21
184.01184
 31
0.0
  0
LINE
  5
20D
100
AcDbEntity
  8
0
  6
HIDDEN
 62
   174
100
AcDbLine
 10
156.697919
 20
190.01184
 30
0.0
 11
154.697919
 21
190.01184
 31
0.0
  0
LINE
  5
20E
100
AcDbEntity
  8
0
  6
HIDDEN
 62
   174
100
AcDbLine
 10
172.197919
 20
190.01184
 30
0.0
 11
171.697919
 21
190.01184
 31
0.0
  0
LINE
  5
20F
100
AcDbEntity
  8
0
  6
HIDDEN
 62
   174
100
AcDbLine
 10
156.697919
 20
190.01184
 30
0.0
 11
154.697919
 21
190.01184
 31
0.0
  0
LINE
  5
210
100
AcDbEntity
  8
0
  6
HIDDEN
 62
   174
100
AcDbLine
 10
154.097919
 20
184.01184
 30
0.0
 11
152.391173
 21
184.01184
 31
0.0
  0
LINE
  5
211
100
AcDbEntity
  8
0
  6
HIDDEN
 62
   174
100
AcDbLine
 10
171.004665
 20
184.01184
 30
0.0
 11
169.297919
 21
184.01184
 31
0.0
  0
LINE
  5
212
100
AcDbEntity
  8
0
  6
Continuous
 62
   174
100
AcDbLine
 10
154.697919
 20
197.114568
 30
0.0
 11
154.097919
 21
197.114568
 31
0.0
  0
LINE
  5
213
100
AcDbEntity
  8
0
  6
Continuous
 62
   174
100
AcDbLine
 10
166.697919
 20
203.114568
 30
0.0
 11
156.697919
 21
203.114568
 31
0.0
  0
LINE
  5
214
100
AcDbEntity
  8
0
  6
Continuous
 62
   174
100
AcDbLine
 10
154.697919
 20
203.114568
 30
0.0
 11
154.097919
 21
203.114568
 31
0.0
  0
LINE
  5
215
100
AcDbEntity
  8
0
  6
HIDDEN
 62
   174
100
AcDbLine
 10
171.697919
 20
197.114568
 30
0.0
 11
169.297919
 21
197.114568
 31
0.0
  0
LINE
  5
216
100
AcDbEntity
  8
0
  6
HIDDEN
 62
   174
100
AcDbLine
 10
168.697919
 20
220.78828
 30
0.0
 11
166.697919
 21
220.78828
 31
0.0
  0
LINE
  5
217
100
AcDbEntity
  8
0
  6
HIDDEN
 62
   174
100
AcDbLine
 10
166.697919
 20
216.78828
 30
0.0
 11
166.197919
 21
216.78828
 31
0.0
  0
LINE
  5
218
100
AcDbEntity
  8
0
  6
HIDDEN
 62
   174
100
AcDbLine
 10
166.197919
 20
220.78828
 30
0.0
 11
157.197919
 21
220.78828
 31
0.0
  0
LINE
  5
219
100
AcDbEntity
  8
0
  6
HIDDEN
 62
   174
100
AcDbLine
 10
156.697919
 20
197.114568
 30
0.0
 11
154.697919
 21
197.114568
 31
0.0
  0
LINE
  5
21A
100
AcDbEntity
  8
0
  6
HIDDEN
 62
   174
100
AcDbLine
 10
156.697919
 20
203.114568
 30
0.0
 11
154.697919
 21
203.114568
 31
0.0
  0
LINE
  5
21B
100
AcDbEntity
  8
0
  6
HIDDEN
 62
   174
100
AcDbLine
 10
154.097919
 20
203.114568
 30
0.0
 11
151.697919
 21
203.114568
 31
0.0
  0
LINE
  5
21C
100
AcDbEntity
  8
0
  6
HIDDEN
 62
   174
100
AcDbLine
 10
171.697919
 20
203.151412
 30
0.0
 11
171.697919
 21
199.59549
 31
0.0
  0
LINE
  5
21D
100
AcDbEntity
  8
0
  6
Continuous
 62
   174
100
AcDbLine
 10
166.697919
 20
190.01184
 30
0.0
 11
156.697919
 21
190.01184
 31
0.0
  0
LINE
  5
21E
100
AcDbEntity
  8
0
  6
Continuous
 62
   174
100
AcDbLine
 10
166.697919
 20
190.01184
 30
0.0
 11
156.697919
 21
190.01184
 31
0.0
  0
LINE
  5
21F
100
AcDbEntity
  8
0
  6
HIDDEN
 62
   174
100
AcDbLine
 10
154.097919
 20
184.01184
 30
0.0
 11
152.391173
 21
184.01184
 31
0.0
  0
LINE
  5
220
100
AcDbEntity
  8
0
  6
HIDDEN
 62
   174
100
AcDbLine
 10
169.297919
 20
184.01184
 30
0.0
 11
162.177048
 21
184.01184
 31
0.0
  0
LINE
  5
221
100
AcDbEntity
  8
0
  6
HIDDEN
 62
   174
100
AcDbLine
 10
176.697919
 20
184.01184
 30
0.0
 11
172.197919
 21
184.01184
 31
0.0
  0
LINE
  5
222
100
AcDbEntity
  8
0
  6
HIDDEN
 62
   174
100
AcDbLine
 10
176.697919
 20
190.01184
 30
0.0
 11
172.197919
 21
190.01184
 31
0.0
  0
LINE
  5
223
100
AcDbEntity
  8
0
  6
HIDDEN
 62
   174
100
AcDbLine
 10
168.697919
 20
190.01184
 30
0.0
 11
166.697919
 21
190.01184
 31
0.0
  0
LINE
  5
224
100
AcDbEntity
  8
0
  6
HIDDEN
 62
   174
100
AcDbLine
 10
176.697919
 20
190.01184
 30
0.0
 11
172.197919
 21
190.01184
 31
0.0
  0
LINE
  5
225
100
AcDbEntity
  8
0
  6
HIDDEN
 62
   174
100
AcDbLine
 10
161.21879
 20
184.01184
 30
0.0
 11
154.097919
 21
184.01184
 31
0.0
  0
LINE
  5
226
100
AcDbEntity
  8
0
  6
HIDDEN
 62
   174
100
AcDbLine
 10
171.697919
 20
184.01184
 30
0.0
 11
171.004665
 21
184.01184
 31
0.0
  0
LINE
  5
227
100
AcDbEntity
  8
0
  6
Continuous
 62
   174
100
AcDbLine
 10
166.697919
 20
197.114568
 30
0.0
 11
156.697919
 21
197.114568
 31
0.0
  0
LINE
  5
228
100
AcDbEntity
  8
0
  6
Continuous
 62
   174
100
AcDbLine
 10
169.297919
 20
203.114568
 30
0.0
 11
168.697919
 21
203.114568
 31
0.0
  0
LINE
  5
229
100
AcDbEntity
  8
0
  6
Continuous
 62
   174
100
AcDbLine
 10
166.697919
 20
203.114568
 30
0.0
 11
156.697919
 21
203.114568
 31
0.0
  0
LINE
  5
22A
100
AcDbEntity
  8
0
  6
HIDDEN
 62
   174
100
AcDbLine
 10
154.097919
 20
197.114568
 30
0.0
 11
151.697919
 21
197.114568
 31
0.0
  0
LINE
  5
22B
100
AcDbEntity
  8
0
  6
HIDDEN
 62
   174
100
AcDbLine
 10
151.697919
 20
199.502664
 30
0.0
 11
151.697919
 21
197.151675
 31
0.0
  0
LINE
  5
22C
100
AcDbEntity
  8
0
  6
HIDDEN
 62
   174
100
AcDbLine
 10
156.697919
 20
216.78828
 30
0.0
 11
154.697919
 21
216.78828
 31
0.0
  0
LINE
  5
22D
100
AcDbEntity
  8
0
  6
HIDDEN
 62
   174
100
AcDbLine
 10
168.697919
 20
216.78828
 30
0.0
 11
166.697919
 21
216.78828
 31
0.0
  0
LINE
  5
22E
100
AcDbEntity
  8
0
  6
HIDDEN
 62
   174
100
AcDbLine
 10
166.697919
 20
220.78828
 30
0.0
 11
166.197919
 21
220.78828
 31
0.0
  0
LINE
  5
22F
100
AcDbEntity
  8
0
  6
HIDDEN
 62
   174
100
AcDbLine
 10
172.197919
 20
184.01184
 30
0.0
 11
171.697919
 21
184.01184
 31
0.0
  0
LINE
  5
230
100
AcDbEntity
  8
0
  6
Continuous
 62
   174
100
AcDbLine
 10
169.297919
 20
203.114568
 30
0.0
 11
168.697919
 21
203.114568
 31
0.0
  0
LINE
  5
231
100
AcDbEntity
  8
0
  6
HIDDEN
 62
   174
100
AcDbLine
 10
168.697919
 20
197.114568
 30
0.0
 11
166.697919
 21
197.114568
 31
0.0
  0
LINE
  5
232
100
AcDbEntity
  8
0
  6
HIDDEN
 62
   174
100
AcDbLine
 10
168.697919
 20
203.114568
 30
0.0
 11
166.697919
 21
203.114568
 31
0.0
  0
LINE
  5
233
100
AcDbEntity
  8
0
  6
HIDDEN
 62
   174
100
AcDbLine
 10
156.697919
 20
203.114568
 30
0.0
 11
154.697919
 21
203.114568
 31
0.0
  0
LINE
  5
234
100
AcDbEntity
  8
0
  6
Continuous
 62
   174
100
AcDbLine
 10
151.697919
 20
184.01184
 30
0.0
 11
151.197919
 21
184.01184
 31
0.0
  0
LINE
  5
235
100
AcDbEntity
  8
0
  6
Continuous
 62
   174
100
AcDbLine
 10
169.297919
 20
190.01184
 30
0.0
 11
168.697919
 21
190.01184
 31
0.0
  0
LINE
  5
236
100
AcDbEntity
  8
0
  6
Continuous
 62
   174
100
AcDbLine
 10
169.297919
 20
190.01184
 30
0.0
 11
168.697919
 21
190.01184
 31
0.0
  0
LINE
  5
237
100
AcDbEntity
  8
0
  6
HIDDEN
 62
   174
100
AcDbLine
 10
171.004665
 20
184.01184
 30
0.0
 11
169.297919
 21
184.01184
 31
0.0
  0
LINE
  5
238
100
AcDbEntity
  8
0
  6
HIDDEN
 62
   174
100
AcDbLine
 10
151.197919
 20
190.01184
 30
0.0
 11
146.697919
 21
190.01184
 31
0.0
  0
LINE
  5
239
100
AcDbEntity
  8
0
  6
HIDDEN
 62
   174
100
AcDbLine
 10
168.697919
 20
190.01184
 30
0.0
 11
166.697919
 21
190.01184
 31
0.0
  0
LINE
  5
23A
100
AcDbEntity
  8
0
  6
HIDDEN
 62
   174
100
AcDbLine
 10
151.197919
 20
190.01184
 30
0.0
 11
146.697919
 21
190.01184
 31
0.0
  0
LINE
  5
23B
100
AcDbEntity
  8
0
  6
HIDDEN
 62
   174
100
AcDbLine
 10
171.697919
 20
190.01184
 30
0.0
 11
169.297919
 21
190.01184
 31
0.0
  0
LINE
  5
23C
100
AcDbEntity
  8
0
  6
HIDDEN
 62
   174
100
AcDbLine
 10
151.197919
 20
184.01184
 30
0.0
 11
146.697919
 21
184.01184
 31
0.0
  0
LINE
  5
23D
100
AcDbEntity
  8
0
  6
HIDDEN
 62
   174
100
AcDbLine
 10
162.177048
 20
184.01184
 30
0.0
 11
161.21879
 21
184.01184
 31
0.0
  0
LINE
  5
23E
100
AcDbEntity
  8
0
  6
HIDDEN
 62
   174
100
AcDbLine
 10
146.697919
 20
190.049443
 30
0.0
 11
146.697919
 21
184.050007
 31
0.0
  0
LINE
  5
23F
100
AcDbEntity
  8
0
  6
Continuous
 62
   174
100
AcDbLine
 10
169.297919
 20
197.114568
 30
0.0
 11
168.697919
 21
197.114568
 31
0.0
  0
LINE
  5
240
100
AcDbEntity
  8
0
  6
Continuous
 62
   174
100
AcDbLine
 10
154.697919
 20
197.114568
 30
0.0
 11
154.097919
 21
197.114568
 31
0.0
  0
LINE
  5
241
100
AcDbEntity
  8
0
  6
HIDDEN
 62
   174
100
AcDbLine
 10
156.697919
 20
197.114568
 30
0.0
 11
154.697919
 21
197.114568
 31
0.0
  0
LINE
  5
242
100
AcDbEntity
  8
0
  6
HIDDEN
 62
   174
100
AcDbLine
 10
151.697919
 20
203.114568
 30
0.0
 11
151.697919
 21
197.114568
 31
0.0
  0
LINE
  5
243
100
AcDbEntity
  8
0
  6
HIDDEN
 62
   174
100
AcDbLine
 10
151.697919
 20
199.59549
 30
0.0
 11
151.697919
 21
199.502664
 31
0.0
  0
LINE
  5
244
100
AcDbEntity
  8
0
  6
Continuous
 62
   174
100
AcDbLine
 10
154.097919
 20
208.114568
 30
0.0
 11
151.697919
 21
208.114568
 31
0.0
  0
LINE
  5
245
100
AcDbEntity
  8
0
  6
HIDDEN
 62
   174
100
AcDbLine
 10
157.197919
 20
216.78828
 30
0.0
 11
156.697919
 21
216.78828
 31
0.0
  0
LINE
  5
246
100
AcDbEntity
  8
0
  6
HIDDEN
 62
   174
100
AcDbLine
 10
156.697919
 20
220.78828
 30
0.0
 11
154.697919
 21
220.78828
 31
0.0
  0
ARC
  5
247
100
AcDbEntity
  8
0
  6
Continuous
 62
   174
100
AcDbCircle
 10
161.697919
 20
145.71184
 30
0.0
 40
5.0
100
AcDbArc
 50
-88.675578
 51
88.675578
  0
LINE
  5
248
100
AcDbEntity
  8
0
  6
HIDDEN
 62
   174
100
AcDbLine
 10
176.697919
 20
184.01184
 30
0.0
 11
172.197919
 21
184.01184
 31
0.0
  0
LINE
  5
249
100
AcDbEntity
  8
0
  6
HIDDEN
 62
   174
100
AcDbLine
 10
171.697919
 20
197.114568
 30
0.0
 11
169.297919
 21
197.114568
 31
0.0
  0
LINE
  5
24A
100
AcDbEntity
  8
0
  6
HIDDEN
 62
   174
100
AcDbLine
 10
168.697919
 20
203.114568
 30
0.0
 11
166.697919
 21
203.114568
 31
0.0
  0
LINE
  5
24B
100
AcDbEntity
  8
0
  6
HIDDEN
 62
   174
100
AcDbLine
 10
151.697919
 20
203.151412
 30
0.0
 11
151.697919
 21
199.59549
 31
0.0
  0
LINE
  5
24C
100
AcDbEntity
  8
0
  6
Continuous
 62
   174
100
AcDbLine
 10
151.697919
 20
190.01184
 30
0.0
 11
151.197919
 21
190.01184
 31
0.0
  0
LINE
  5
24D
100
AcDbEntity
  8
0
  6
Continuous
 62
   174
100
AcDbLine
 10
151.697919
 20
190.01184
 30
0.0
 11
151.197919
 21
190.01184
 31
0.0
  0
LINE
  5
24E
100
AcDbEntity
  8
0
  6
Continuous
 62
   174
100
AcDbLine
 10
151.697919
 20
184.01184
 30
0.0
 11
151.197919
 21
184.01184
 31
0.0
  0
LINE
  5
24F
100
AcDbEntity
  8
0
  6
HIDDEN
 62
   174
100
AcDbLine
 10
151.197919
 20
184.01184
 30
0.0
 11
146.697919
 21
184.01184
 31
0.0
  0
LINE
  5
250
100
AcDbEntity
  8
0
  6
HIDDEN
 62
   174
100
AcDbLine
 10
161.21879
 20
184.01184
 30
0.0
 11
154.097919
 21
184.01184
 31
0.0
  0
LINE
  5
251
100
AcDbEntity
  8
0
  6
HIDDEN
 62
   174
100
AcDbLine
 10
171.697919
 20
184.01184
 30
0.0
 11
171.004665
 21
184.01184
 31
0.0
  0
LINE
  5
252
100
AcDbEntity
  8
0
  6
HIDDEN
 62
   174
100
AcDbLine
 10
154.097919
 20
190.01184
 30
0.0
 11
151.697919
 21
190.01184
 31
0.0
  0
LINE
  5
253
100
AcDbEntity
  8
0
  6
HIDDEN
 62
   174
100
AcDbLine
 10
171.697919
 20
190.01184
 30
0.0
 11
169.297919
 21
190.01184
 31
0.0
  0
LINE
  5
254
100
AcDbEntity
  8
0
  6
HIDDEN
 62
   174
100
AcDbLine
 10
154.097919
 20
190.01184
 30
0.0
 11
151.697919
 21
190.01184
 31
0.0
  0
LINE
  5
255
100
AcDbEntity
  8
0
  6
HIDDEN
 62
   174
100
AcDbLine
 10
172.197919
 20
190.01184
 30
0.0
 11
171.697919
 21
190.01184
 31
0.0
  0
LINE
  5
256
100
AcDbEntity
  8
0
  6
HIDDEN
 62
   174
100
AcDbLine
 10
152.391173
 20
184.01184
 30
0.0
 11
151.697919
 21
184.01184
 31
0.0
  0
LINE
  5
257
100
AcDbEntity
  8
0
  6
HIDDEN
 62
   174
100
AcDbLine
 10
169.297919
 20
184.01184
 30
0.0
 11
162.177048
 21
184.01184
 31
0.0
  0
LINE
  5
258
100
AcDbEntity
  8
0
  6
HIDDEN
 62
   174
100
AcDbLine
 10
146.697919
 20
190.01184
 30
0.0
 11
146.697919
 21
184.01184
 31
0.0
  0
LINE
  5
259
100
AcDbEntity
  8
0
  6
Continuous
 62
   174
100
AcDbLine
 10
154.697919
 20
203.114568
 30
0.0
 11
154.097919
 21
203.114568
 31
0.0
  0
LINE
  5
25A
100
AcDbEntity
  8
0
  6
Continuous
 62
   174
100
AcDbLine
 10
166.697919
 20
197.114568
 30
0.0
 11
156.697919
 21
197.114568
 31
0.0
  0
LINE
  5
25B
100
AcDbEntity
  8
0
  6
Continuous
 62
   174
100
AcDbLine
 10
169.297919
 20
197.114568
 30
0.0
 11
168.697919
 21
197.114568
 31
0.0
  0
LINE
  5
25C
100
AcDbEntity
  8
0
  6
HIDDEN
 62
   174
100
AcDbLine
 10
171.697919
 20
203.114568
 30
0.0
 11
169.297919
 21
203.114568
 31
0.0
  0
LINE
  5
25D
100
AcDbEntity
  8
0
  6
HIDDEN
 62
   174
100
AcDbLine
 10
168.697919
 20
197.114568
 30
0.0
 11
166.697919
 21
197.114568
 31
0.0
  0
LINE
  5
25E
100
AcDbEntity
  8
0
  6
HIDDEN
 62
   174
100
AcDbLine
 10
166.197919
 20
216.78828
 30
0.0
 11
157.197919
 21
216.78828
 31
0.0
  0
LINE
  5
25F
100
AcDbEntity
  8
0
  6
HIDDEN
 62
   174
100
AcDbLine
 10
157.197919
 20
220.78828
 30
0.0
 11
156.697919
 21
220.78828
 31
0.0
  0
LINE
  5
260
100
AcDbEntity
  8
0
  6
Continuous
 62
   174
100
AcDbLine
 10
157.597919
 20
228.257961
 30
0.0
 11
157.597919
 21
228.820324
 31
0.0
  0
LINE
  5
261
100
AcDbEntity
  8
0
  6
Continuous
 62
   174
100
AcDbLine
 10
157.197919
 20
209.224448
 30
0.0
 11
157.197919
 21
209.626694
 31
0.0
  0
ARC
  5
262
100
AcDbEntity
  8
0
  6
Continuous
 62
   174
100
AcDbCircle
 10
161.697919
 20
125.71184
 30
0.0
 40
4.2
100
AcDbArc
 50
223.192349
 51
226.797477
  0
LINE
  5
263
100
AcDbEntity
  8
0
  6
Continuous
 62
   174
100
AcDbLine
 10
154.697919
 20
226.823215
 30
0.0
 11
154.697919
 21
221.676636
 31
0.0
  0
LINE
  5
264
100
AcDbEntity
  8
0
  6
HIDDEN
 62
   174
100
AcDbLine
 10
176.697919
 20
152.21184
 30
0.0
 11
168.297919
 21
152.21184
 31
0.0
  0
LINE
  5
265
100
AcDbEntity
  8
0
  6
HIDDEN
 62
   174
100
AcDbLine
 10
157.197919
 20
228.38828
 30
0.0
 11
157.597919
 21
228.78828
 31
0.0
  0
LINE
  5
266
100
AcDbEntity
  8
0
  6
Continuous
 62
   174
100
AcDbLine
 10
157.597919
 20
228.820324
 30
0.0
 11
157.597919
 21
228.823028
 31
0.0
  0
ARC
  5
267
100
AcDbEntity
  8
0
  6
Continuous
 62
   174
100
AcDbCircle
 10
161.697919
 20
174.11184
 30
0.0
 40
10.0
100
AcDbArc
 50
66.421822
 51
90.0
  0
LINE
  5
268
100
AcDbEntity
  8
0
  6
HIDDEN
 62
   174
100
AcDbLine
 10
165.723653
 20
183.276991
 30
0.0
 11
164.066606
 21
183.276991
 31
0.0
  0
LINE
  5
269
100
AcDbEntity
  8
0
  6
Continuous
 62
   174
100
AcDbLine
 10
151.197919
 20
190.775716
 30
0.0
 11
151.197919
 21
192.251952
 31
0.0
  0
LINE
  5
26A
100
AcDbEntity
  8
0
  6
HIDDEN
 62
   174
100
AcDbLine
 10
146.697919
 20
152.252183
 30
0.0
 11
146.697919
 21
167.251225
 31
0.0
  0
LINE
  5
26B
100
AcDbEntity
  8
0
  6
Continuous
 62
   174
100
AcDbLine
 10
153.697919
 20
187.013409
 30
0.0
 11
153.697919
 21
185.861581
 31
0.0
  0
LINE
  5
26C
100
AcDbEntity
  8
0
  6
HIDDEN
 62
   174
100
AcDbLine
 10
166.697919
 20
216.78828
 30
0.0
 11
166.197919
 21
216.78828
 31
0.0
  0
LINE
  5
26D
100
AcDbEntity
  8
0
  6
Continuous
 62
   174
100
AcDbLine
 10
157.197919
 20
227.879448
 30
0.0
 11
157.197919
 21
228.420482
 31
0.0
  0
ARC
  5
26E
100
AcDbEntity
  8
0
  6
Continuous
 62
   174
100
AcDbCircle
 10
161.697919
 20
125.71184
 30
0.0
 40
4.2
100
AcDbArc
 50
270.0
 51
313.202523
  0
LINE
  5
26F
100
AcDbEntity
  8
0
  6
HIDDEN
 62
   174
100
AcDbLine
 10
169.297919
 20
197.151675
 30
0.0
 11
169.297919
 21
199.597893
 31
0.0
  0
LINE
  5
270
100
AcDbEntity
  8
0
  6
Continuous
 62
   174
100
AcDbLine
 10
166.697919
 20
190.888463
 30
0.0
 11
166.697919
 21
191.970273
 31
0.0
  0
LINE
  5
271
100
AcDbEntity
  8
0
  6
HIDDEN
 62
   174
100
AcDbLine
 10
176.697919
 20
167.21184
 30
0.0
 11
168.297919
 21
167.21184
 31
0.0
  0
LINE
  5
272
100
AcDbEntity
  8
0
  6
HIDDEN
 62
   174
100
AcDbLine
 10
154.097919
 20
177.465516
 30
0.0
 11
151.697919
 21
177.465516
 31
0.0
  0
LINE
  5
273
100
AcDbEntity
  8
0
  6
HIDDEN
 62
   174
100
AcDbLine
 10
154.697919
 20
220.631218
 30
0.0
 11
154.697919
 21
219.281487
 31
0.0
  0
LINE
  5
274
100
AcDbEntity
  8
0
  6
Continuous
 62
   174
100
AcDbLine
 10
165.797919
 20
228.257961
 30
0.0
 11
165.797919
 21
228.820324
 31
0.0
  0
ARC
  5
275
100
AcDbEntity
  8
0
  6
Continuous
 62
   174
100
AcDbCircle
 10
161.697919
 20
174.11184
 30
0.0
 40
10.0
100
AcDbArc
 50
-255.780802
 51
-246.421822
  0
ARC
  5
276
100
AcDbEntity
  8
0
  6
Continuous
 62
   174
100
AcDbCircle
 10
161.697919
 20
125.71184
 30
0.0
 40
4.2
100
AcDbArc
 50
313.202523
 51
316.807651
  0
LINE
  5
277
100
AcDbEntity
  8
0
  6
HIDDEN
 62
   174
100
AcDbLine
 10
168.697919
 20
189.372194
 30
0.0
 11
166.697919
 21
189.372194
 31
0.0
  0
LINE
  5
278
100
AcDbEntity
  8
0
  6
HIDDEN
 62
   174
100
AcDbLine
 10
176.697919
 20
167.251225
 30
0.0
 11
176.697919
 21
152.252183
 31
0.0
  0
LINE
  5
279
100
AcDbEntity
  8
0
  6
Continuous
 62
   174
100
AcDbLine
 10
154.097919
 20
193.502927
 30
0.0
 11
154.097919
 21
208.150792
 31
0.0
  0
LINE
  5
27A
100
AcDbEntity
  8
0
  6
Continuous
 62
   174
100
AcDbLine
 10
166.697919
 20
222.665877
 30
0.0
 11
166.697919
 21
220.299869
 31
0.0
  0
LINE
  5
27B
100
AcDbEntity
  8
0
  6
Continuous
 62
   174
100
AcDbLine
 10
168.697919
 20
190.888463
 30
0.0
 11
168.697919
 21
191.970273
 31
0.0
  0
LINE
  5
27C
100
AcDbEntity
  8
0
  6
Continuous
 62
   174
100
AcDbLine
 10
151.197919
 20
179.11184
 30
0.0
 11
157.697919
 21
179.11184
 31
0.0
  0
LINE
  5
27D
100
AcDbEntity
  8
0
  6
HIDDEN
 62
   174
100
AcDbLine
 10
166.197919
 20
228.38828
 30
0.0
 11
165.797919
 21
228.78828
 31
0.0
  0
LINE
  5
27E
100
AcDbEntity
  8
0
  6
Continuous
 62
   174
100
AcDbLine
 10
171.697919
 20
208.114568
 30
0.0
 11
169.297919
 21
208.114568
 31
0.0
  0
LINE
  5
27F
100
AcDbEntity
  8
0
  6
Continuous
 62
   174
100
AcDbLine
 10
154.697919
 20
191.970273
 30
0.0
 11
156.697919
 21
191.970273
 31
0.0
  0
LINE
  5
280
100
AcDbEntity
  8
0
  6
Continuous
 62
   174
100
AcDbLine
 10
171.697919
 20
190.775716
 30
0.0
 11
171.697919
 21
188.979063
 31
0.0
  0
LINE
  5
281
100
AcDbEntity
  8
0
  6
Continuous
 62
   174
100
AcDbLine
 10
176.697919
 20
88.71184
 30
0.0
 11
176.697919
 21
177.71184
 31
0.0
  0
LINE
  5
282
100
AcDbEntity
  8
0
  6
Continuous
 62
   174
100
AcDbLine
 10
151.197919
 20
192.251952
 30
0.0
 11
151.197919
 21
196.71184
 31
0.0
  0
LINE
  5
283
100
AcDbEntity
  8
0
  6
HIDDEN
 62
   174
100
AcDbLine
 10
166.197919
 20
216.78828
 30
0.0
 11
157.197919
 21
216.78828
 31
0.0
  0
LINE
  5
284
100
AcDbEntity
  8
0
  6
HIDDEN
 62
   174
100
AcDbLine
 10
171.697919
 20
203.151412
 30
0.0
 11
171.697919
 21
199.597893
 31
0.0
  0
ARC
  5
285
100
AcDbEntity
  8
0
  6
Continuous
 62
   174
100
AcDbCircle
 10
161.697919
 20
145.71184
 30
0.0
 40
4.2
100
AcDbArc
 50
43.192349
 51
46.797477
  0
LINE
  5
286
100
AcDbEntity
  8
0
  6
Continuous
 62
   174
100
AcDbLine
 10
166.697919
 20
226.78828
 30
0.0
 11
168.697919
 21
226.78828
 31
0.0
  0
LINE
  5
287
100
AcDbEntity
  8
0
  6
Continuous
 62
   174
100
AcDbLine
 10
165.697919
 20
179.11184
 30
0.0
 11
172.197919
 21
179.11184
 31
0.0
  0
LINE
  5
288
100
AcDbEntity
  8
0
  6
HIDDEN
 62
   174
100
AcDbLine
 10
176.697919
 20
152.21184
 30
0.0
 11
168.297919
 21
152.21184
 31
0.0
  0
LINE
  5
289
100
AcDbEntity
  8
0
  6
Continuous
 62
   174
100
AcDbLine
 10
165.797919
 20
218.585443
 30
0.0
 11
165.797919
 21
221.623163
 31
0.0
  0
LINE
  5
28A
100
AcDbEntity
  8
0
  6
Continuous
 62
   174
100
AcDbLine
 10
166.197919
 20
209.224448
 30
0.0
 11
166.197919
 21
209.626694
 31
0.0
  0
ARC
  5
28B
100
AcDbEntity
  8
0
  6
Continuous
 62
   174
100
AcDbCircle
 10
161.697919
 20
105.71184
 30
0.0
 40
4.2
100
AcDbArc
 50
223.192349
 51
226.797477
  0
LINE
  5
28C
100
AcDbEntity
  8
0
  6
Continuous
 62
   174
100
AcDbLine
 10
169.297919
 20
192.289581
 30
0.0
 11
169.297919
 21
193.502927
 31
0.0
  0
LINE
  5
28D
100
AcDbEntity
  8
0
  6
Continuous
 62
   174
100
AcDbLine
 10
169.697919
 20
183.507347
 30
0.0
 11
165.697919
 21
183.507347
 31
0.0
  0
LINE
  5
28E
100
AcDbEntity
  8
0
  6
HIDDEN
 62
   174
100
AcDbLine
 10
146.697919
 20
152.21184
 30
0.0
 11
155.097919
 21
152.21184
 31
0.0
  0
LINE
  5
28F
100
AcDbEntity
  8
0
  6
Continuous
 62
   174
100
AcDbLine
 10
157.597919
 20
226.711764
 30
0.0
 11
157.597919
 21
228.257961
 31
0.0
  0
LINE
  5
290
100
AcDbEntity
  8
0
  6
HIDDEN
 62
   174
100
AcDbLine
 10
169.297919
 20
187.117739
 30
0.0
 11
169.297919
 21
183.507347
 31
0.0
  0
ARC
  5
291
100
AcDbEntity
  8
0
  6
Continuous
 62
   174
100
AcDbCircle
 10
161.697919
 20
125.71184
 30
0.0
 40
4.2
100
AcDbArc
 50
136.807651
 51
223.192349
  0
LINE
  5
292
100
AcDbEntity
  8
0
  6
Continuous
 62
   174
100
AcDbLine
 10
154.697919
 20
226.78828
 30
0.0
 11
156.697919
 21
226.78828
 31
0.0
  0
LINE
  5
293
100
AcDbEntity
  8
0
  6
Continuous
 62
   174
100
AcDbLine
 10
168.697919
 20
220.851717
 30
0.0
 11
168.697919
 21
220.299869
 31
0.0
  0
LWPOLYLINE
  5
294
100
AcDbEntity
  8
0
  6
Continuous
 62
   174
100
AcDbPolyline
 90
        4
 70
   128
 10
151.697919
 20
185.473001
 10
151.965868
 20
184.490174
 10
152.697919
 20
183.770695
 10
153.697919
 20
183.507347
  0
LINE
  5
295
100
AcDbEntity
  8
0
  6
HIDDEN
 62
   174
100
AcDbLine
 10
165.797919
 20
208.824606
 30
0.0
 11
165.797919
 21
208.82731
 31
0.0
  0
LINE
  5
296
100
AcDbEntity
  8
0
  6
Continuous
 62
   174
100
AcDbLine
 10
157.697919
 20
183.276991
 30
0.0
 11
157.697919
 21
177.71184
 31
0.0
  0
ARC
  5
297
100
AcDbEntity
  8
0
  6
Continuous
 62
   174
100
AcDbCircle
 10
161.697919
 20
145.71184
 30
0.0
 40
4.2
100
AcDbArc
 50
226.797477
 51
270.0
  0
LINE
  5
298
100
AcDbEntity
  8
0
  6
Continuous
 62
   174
100
AcDbLine
 10
153.697919
 20
185.861581
 30
0.0
 11
153.697919
 21
183.507347
 31
0.0
  0
LINE
  5
299
100
AcDbEntity
  8
0
  6
Continuous
 62
   174
100
AcDbLine
 10
176.697919
 20
177.71184
 30
0.0
 11
176.697919
 21
196.71184
 31
0.0
  0
LINE
  5
29A
100
AcDbEntity
  8
0
  6
Continuous
 62
   174
100
AcDbLine
 10
165.797919
 20
226.711764
 30
0.0
 11
165.797919
 21
228.257961
 31
0.0
  0
LINE
  5
29B
100
AcDbEntity
  8
0
  6
Continuous
 62
   174
100
AcDbLine
 10
171.697919
 20
192.251952
 30
0.0
 11
169.297919
 21
192.251952
 31
0.0
  0
LINE
  5
29C
100
AcDbEntity
  8
0
  6
HIDDEN
 62
   174
100
AcDbLine
 10
171.697919
 20
179.11184
 30
0.0
 11
171.697919
 21
177.71184
 31
0.0
  0
LINE
  5
29D
100
AcDbEntity
  8
0
  6
HIDDEN
 62
   174
100
AcDbLine
 10
156.697919
 20
189.372194
 30
0.0
 11
154.697919
 21
189.372194
 31
0.0
  0
LINE
  5
29E
100
AcDbEntity
  8
0
  6
HIDDEN
 62
   174
100
AcDbLine
 10
154.697919
 20
220.823779
 30
0.0
 11
154.697919
 21
220.631218
 31
0.0
  0
LINE
  5
29F
100
AcDbEntity
  8
0
  6
HIDDEN
 62
   174
100
AcDbLine
 10
154.097919
 20
187.117739
 30
0.0
 11
154.097919
 21
183.507347
 31
0.0
  0
LINE
  5
2A0
100
AcDbEntity
  8
0
  6
Continuous
 62
   174
100
AcDbLine
 10
171.697919
 20
192.251952
 30
0.0
 11
171.697919
 21
190.775716
 31
0.0
  0
LINE
  5
2A1
100
AcDbEntity
  8
0
  6
Continuous
 62
   174
100
AcDbLine
 10
172.197919
 20
179.11184
 30
0.0
 11
172.197919
 21
180.434516
 31
0.0
  0
LINE
  5
2A2
100
AcDbEntity
  8
0
  6
Continuous
 62
   174
100
AcDbLine
 10
156.697919
 20
226.823215
 30
0.0
 11
156.697919
 21
222.828999
 31
0.0
  0
LINE
  5
2A3
100
AcDbEntity
  8
0
  6
HIDDEN
 62
   174
100
AcDbLine
 10
157.197919
 20
216.78828
 30
0.0
 11
156.697919
 21
216.78828
 31
0.0
  0
LINE
  5
2A4
100
AcDbEntity
  8
0
  6
Continuous
 62
   174
100
AcDbLine
 10
146.697919
 20
88.71184
 30
0.0
 11
146.697919
 21
177.71184
 31
0.0
  0
LINE
  5
2A5
100
AcDbEntity
  8
0
  6
HIDDEN
 62
   174
100
AcDbLine
 10
154.097919
 20
188.224917
 30
0.0
 11
151.697919
 21
188.224917
 31
0.0
  0
LINE
  5
2A6
100
AcDbEntity
  8
0
  6
HIDDEN
 62
   174
100
AcDbLine
 10
157.723503
 20
183.276991
 30
0.0
 11
164.066606
 21
183.276991
 31
0.0
  0
LINE
  5
2A7
100
AcDbEntity
  8
0
  6
Continuous
 62
   174
100
AcDbLine
 10
172.197919
 20
196.71184
 30
0.0
 11
176.697919
 21
196.71184
 31
0.0
  0
LINE
  5
2A8
100
AcDbEntity
  8
0
  6
HIDDEN
 62
   174
100
AcDbLine
 10
168.297919
 20
164.21184
 30
0.0
 11
155.097919
 21
164.21184
 31
0.0
  0
LINE
  5
2A9
100
AcDbEntity
  8
0
  6
Continuous
 62
   174
100
AcDbLine
 10
157.197919
 20
226.460624
 30
0.0
 11
157.197919
 21
227.879448
 31
0.0
  0
LINE
  5
2AA
100
AcDbEntity
  8
0
  6
Continuous
 62
   174
100
AcDbLine
 10
166.197919
 20
227.879448
 30
0.0
 11
166.197919
 21
228.420482
 31
0.0
  0
LINE
  5
2AB
100
AcDbEntity
  8
0
  6
Continuous
 62
   174
100
AcDbLine
 10
151.697919
 20
185.473001
 30
0.0
 11
151.697919
 21
180.434516
 31
0.0
  0
LINE
  5
2AC
100
AcDbEntity
  8
0
  6
HIDDEN
 62
   174
100
AcDbLine
 10
171.697919
 20
203.114568
 30
0.0
 11
169.297919
 21
203.114568
 31
0.0
  0
LINE
  5
2AD
100
AcDbEntity
  8
0
  6
Continuous
 62
   174
100
AcDbLine
 10
158.801622
 20
183.507347
 30
0.0
 11
157.697919
 21
183.507347
 31
0.0
  0
LINE
  5
2AE
100
AcDbEntity
  8
0
  6
HIDDEN
 62
   174
100
AcDbLine
 10
168.297919
 20
155.252051
 30
0.0
 11
168.297919
 21
164.251356
 31
0.0
  0
LINE
  5
2AF
100
AcDbEntity
  8
0
  6
HIDDEN
 62
   174
100
AcDbLine
 10
146.697919
 20
167.21184
 30
0.0
 11
155.097919
 21
167.21184
 31
0.0
  0
LINE
  5
2B0
100
AcDbEntity
  8
0
  6
HIDDEN
 62
   174
100
AcDbLine
 10
176.697919
 20
167.251225
 30
0.0
 11
176.697919
 21
152.252183
 31
0.0
  0
LINE
  5
2B1
100
AcDbEntity
  8
0
  6
Continuous
 62
   174
100
AcDbLine
 10
165.797919
 20
215.569954
 30
0.0
 11
165.797919
 21
218.585443
 31
0.0
  0
LINE
  5
2B2
100
AcDbEntity
  8
0
  6
Continuous
 62
   174
100
AcDbLine
 10
154.097919
 20
192.251952
 30
0.0
 11
154.097919
 21
191.970273
 31
0.0
  0
LINE
  5
2B3
100
AcDbEntity
  8
0
  6
Continuous
 62
   174
100
AcDbLine
 10
154.097919
 20
192.289581
 30
0.0
 11
154.097919
 21
193.502927
 31
0.0
  0
LINE
  5
2B4
100
AcDbEntity
  8
0
  6
Continuous
 62
   174
100
AcDbLine
 10
157.723503
 20
183.276991
 30
0.0
 11
159.38055
 21
183.276991
 31
0.0
  0
LINE
  5
2B5
100
AcDbEntity
  8
0
  6
Continuous
 62
   174
100
AcDbLine
 10
166.197919
 20
228.420482
 30
0.0
 11
166.197919
 21
228.423185
 31
0.0
  0
LINE
  5
2B6
100
AcDbEntity
  8
0
  6
Continuous
 62
   174
100
AcDbLine
 10
171.697919
 20
190.775716
 30
0.0
 11
169.297919
 21
190.775716
 31
0.0
  0
ARC
  5
2B7
100
AcDbEntity
  8
0
  6
Continuous
 62
   174
100
AcDbCircle
 10
161.697919
 20
145.71184
 30
0.0
 40
4.2
100
AcDbArc
 50
-43.192349
 51
43.192349
  0
LINE
  5
2B8
100
AcDbEntity
  8
0
  6
Continuous
 62
   174
100
AcDbLine
 10
166.697919
 20
185.861581
 30
0.0
 11
168.697919
 21
185.861581
 31
0.0
  0
LINE
  5
2B9
100
AcDbEntity
  8
0
  6
HIDDEN
 62
   174
100
AcDbLine
 10
155.097919
 20
164.251356
 30
0.0
 11
155.097919
 21
155.252051
 31
0.0
  0
LINE
  5
2BA
100
AcDbEntity
  8
0
  6
Continuous
 62
   174
100
AcDbLine
 10
166.697919
 20
226.823215
 30
0.0
 11
166.697919
 21
222.665877
 31
0.0
  0
LINE
  5
2BB
100
AcDbEntity
  8
0
  6
Continuous
 62
   174
100
AcDbLine
 10
157.597919
 20
221.623163
 30
0.0
 11
157.597919
 21
226.711764
 31
0.0
  0
ARC
  5
2BC
100
AcDbEntity
  8
0
  6
Continuous
 62
   174
100
AcDbCircle
 10
161.697919
 20
105.71184
 30
0.0
 40
4.2
100
AcDbArc
 50
136.807651
 51
223.192349
  0
LINE
  5
2BD
100
AcDbEntity
  8
0
  6
Continuous
 62
   174
100
AcDbLine
 10
169.297919
 20
192.251952
 30
0.0
 11
169.297919
 21
191.970273
 31
0.0
  0
LINE
  5
2BE
100
AcDbEntity
  8
0
  6
HIDDEN
 62
   174
100
AcDbLine
 10
171.697919
 20
188.979063
 30
0.0
 11
171.697919
 21
188.224917
 31
0.0
  0
LINE
  5
2BF
100
AcDbEntity
  8
0
  6
HIDDEN
 62
   174
100
AcDbLine
 10
156.697919
 20
216.78828
 30
0.0
 11
154.697919
 21
216.78828
 31
0.0
  0
ARC
  5
2C0
100
AcDbEntity
  8
0
  6
Continuous
 62
   174
100
AcDbCircle
 10
161.697919
 20
105.71184
 30
0.0
 40
4.2
100
AcDbArc
 50
43.192349
 51
46.797477
  0
ARC
  5
2C1
100
AcDbEntity
  8
0
  6
Continuous
 62
   174
100
AcDbCircle
 10
161.697919
 20
125.71184
 30
0.0
 40
4.2
100
AcDbArc
 50
133.202523
 51
136.807651
  0
LINE
  5
2C2
100
AcDbEntity
  8
0
  6
HIDDEN
 62
   174
100
AcDbLine
 10
169.297919
 20
179.11184
 30
0.0
 11
169.297919
 21
177.71184
 31
0.0
  0
LINE
  5
2C3
100
AcDbEntity
  8
0
  6
Continuous
 62
   174
100
AcDbLine
 10
165.797919
 20
221.623163
 30
0.0
 11
165.797919
 21
226.711764
 31
0.0
  0
LINE
  5
2C4
100
AcDbEntity
  8
0
  6
HIDDEN
 62
   174
100
AcDbLine
 10
171.697919
 20
177.71184
 30
0.0
 11
171.697919
 21
177.465516
 31
0.0
  0
LINE
  5
2C5
100
AcDbEntity
  8
0
  6
HIDDEN
 62
   174
100
AcDbLine
 10
155.097919
 20
167.251225
 30
0.0
 11
155.097919
 21
152.252183
 31
0.0
  0
LINE
  5
2C6
100
AcDbEntity
  8
0
  6
Continuous
 62
   174
100
AcDbLine
 10
157.697919
 20
183.507347
 30
0.0
 11
153.697919
 21
183.507347
 31
0.0
  0
LINE
  5
2C7
100
AcDbEntity
  8
0
  6
HIDDEN
 62
   174
100
AcDbLine
 10
165.797919
 20
208.82731
 30
0.0
 11
165.797919
 21
228.823028
 31
0.0
  0
LINE
  5
2C8
100
AcDbEntity
  8
0
  6
Continuous
 62
   174
100
AcDbLine
 10
151.697919
 20
180.434516
 30
0.0
 11
151.697919
 21
179.11184
 31
0.0
  0
LINE
  5
2C9
100
AcDbEntity
  8
0
  6
HIDDEN
 62
   174
100
AcDbLine
 10
154.097919
 20
203.114568
 30
0.0
 11
151.697919
 21
203.114568
 31
0.0
  0
LINE
  5
2CA
100
AcDbEntity
  8
0
  6
Continuous
 62
   174
100
AcDbLine
 10
151.197919
 20
179.11184
 30
0.0
 11
151.197919
 21
180.434516
 31
0.0
  0
LINE
  5
2CB
100
AcDbEntity
  8
0
  6
Continuous
 62
   174
100
AcDbLine
 10
172.197919
 20
180.434516
 30
0.0
 11
172.197919
 21
185.473001
 31
0.0
  0
LINE
  5
2CC
100
AcDbEntity
  8
0
  6
Continuous
 62
   174
100
AcDbLine
 10
168.697919
 20
221.662216
 30
0.0
 11
168.697919
 21
220.851717
 31
0.0
  0
LWPOLYLINE
  5
2CD
100
AcDbEntity
  8
0
  6
Continuous
 62
   174
100
AcDbPolyline
 90
        4
 70
   128
 10
153.697919
 20
187.013409
 10
152.697919
 20
187.276757
 10
151.965868
 20
187.996236
 10
151.697919
 20
188.979063
  0
LINE
  5
2CE
100
AcDbEntity
  8
0
  6
Continuous
 62
   174
100
AcDbLine
 10
151.697919
 20
188.224917
 30
0.0
 11
151.697919
 21
187.117739
 31
0.0
  0
LINE
  5
2CF
100
AcDbEntity
  8
0
  6
HIDDEN
 62
   174
100
AcDbLine
 10
146.697919
 20
152.21184
 30
0.0
 11
155.097919
 21
152.21184
 31
0.0
  0
LINE
  5
2D0
100
AcDbEntity
  8
0
  6
Continuous
 62
   174
100
AcDbLine
 10
166.197919
 20
226.460624
 30
0.0
 11
166.197919
 21
227.879448
 31
0.0
  0
LINE
  5
2D1
100
AcDbEntity
  8
0
  6
Continuous
 62
   174
100
AcDbLine
 10
151.697919
 20
203.167634
 30
0.0
 11
151.697919
 21
208.150792
 31
0.0
  0
ARC
  5
2D2
100
AcDbEntity
  8
0
  6
Continuous
 62
   174
100
AcDbCircle
 10
161.697919
 20
145.71184
 30
0.0
 40
4.2
100
AcDbArc
 50
223.192349
 51
226.797477
  0
LINE
  5
2D3
100
AcDbEntity
  8
0
  6
HIDDEN
 62
   174
100
AcDbLine
 10
168.297919
 20
155.21184
 30
0.0
 11
155.097919
 21
155.21184
 31
0.0
  0
LINE
  5
2D4
100
AcDbEntity
  8
0
  6
Continuous
 62
   174
100
AcDbLine
 10
154.697919
 20
220.264517
 30
0.0
 11
154.697919
 21
208.11441
 31
0.0
  0
LINE
  5
2D5
100
AcDbEntity
  8
0
  6
HIDDEN
 62
   174
100
AcDbLine
 10
154.697919
 20
220.78828
 30
0.0
 11
154.697919
 21
216.78828
 31
0.0
  0
LINE
  5
2D6
100
AcDbEntity
  8
0
  6
Continuous
 62
   174
100
AcDbLine
 10
176.697919
 20
177.71184
 30
0.0
 11
146.697919
 21
177.71184
 31
0.0
  0
LINE
  5
2D7
100
AcDbEntity
  8
0
  6
Continuous
 62
   174
100
AcDbLine
 10
171.697919
 20
180.434516
 30
0.0
 11
171.697919
 21
179.11184
 31
0.0
  0
LINE
  5
2D8
100
AcDbEntity
  8
0
  6
Continuous
 62
   174
100
AcDbLine
 10
157.197919
 20
221.571794
 30
0.0
 11
157.197919
 21
226.460624
 31
0.0
  0
LINE
  5
2D9
100
AcDbEntity
  8
0
  6
Continuous
 62
   174
100
AcDbLine
 10
165.797919
 20
210.651984
 30
0.0
 11
165.797919
 21
215.569954
 31
0.0
  0
LINE
  5
2DA
100
AcDbEntity
  8
0
  6
Continuous
 62
   174
100
AcDbLine
 10
161.686778
 20
183.276991
 30
0.0
 11
159.38055
 21
183.276991
 31
0.0
  0
ARC
  5
2DB
100
AcDbEntity
  8
0
  6
Continuous
 62
   174
100
AcDbCircle
 10
161.697919
 20
145.71184
 30
0.0
 40
4.2
100
AcDbArc
 50
313.202523
 51
316.807651
  0
LINE
  5
2DC
100
AcDbEntity
  8
0
  6
Continuous
 62
   174
100
AcDbLine
 10
165.797919
 20
228.78828
 30
0.0
 11
157.597919
 21
228.78828
 31
0.0
  0
LINE
  5
2DD
100
AcDbEntity
  8
0
  6
HIDDEN
 62
   174
100
AcDbLine
 10
154.097919
 20
179.11184
 30
0.0
 11
154.097919
 21
177.71184
 31
0.0
  0
LINE
  5
2DE
100
AcDbEntity
  8
0
  6
Continuous
 62
   174
100
AcDbLine
 10
154.097919
 20
191.970273
 30
0.0
 11
154.097919
 21
190.775716
 31
0.0
  0
LINE
  5
2DF
100
AcDbEntity
  8
0
  6
Continuous
 62
   174
100
AcDbLine
 10
157.197919
 20
228.420482
 30
0.0
 11
157.197919
 21
228.423185
 31
0.0
  0
ARC
  5
2E0
100
AcDbEntity
  8
0
  6
Continuous
 62
   174
100
AcDbCircle
 10
161.697919
 20
105.71184
 30
0.0
 40
4.2
100
AcDbArc
 50
-43.192349
 51
43.192349
  0
LINE
  5
2E1
100
AcDbEntity
  8
0
  6
Continuous
 62
   174
100
AcDbLine
 10
169.697919
 20
187.013409
 30
0.0
 11
168.697919
 21
187.013409
 31
0.0
  0
LINE
  5
2E2
100
AcDbEntity
  8
0
  6
Continuous
 62
   174
100
AcDbLine
 10
168.697919
 20
220.264517
 30
0.0
 11
168.697919
 21
208.11441
 31
0.0
  0
LINE
  5
2E3
100
AcDbEntity
  8
0
  6
Continuous
 62
   174
100
AcDbLine
 10
157.597919
 20
218.585443
 30
0.0
 11
157.597919
 21
221.623163
 31
0.0
  0
LINE
  5
2E4
100
AcDbEntity
  8
0
  6
HIDDEN
 62
   174
100
AcDbLine
 10
171.697919
 20
177.465516
 30
0.0
 11
169.297919
 21
177.465516
 31
0.0
  0
ARC
  5
2E5
100
AcDbEntity
  8
0
  6
Continuous
 62
   174
100
AcDbCircle
 10
161.697919
 20
105.71184
 30
0.0
 40
4.2
100
AcDbArc
 50
133.202523
 51
136.807651
  0
ARC
  5
2E6
100
AcDbEntity
  8
0
  6
Continuous
 62
   174
100
AcDbCircle
 10
161.697919
 20
125.71184
 30
0.0
 40
4.2
100
AcDbArc
 50
90.0
 51
133.202523
  0
LINE
  5
2E7
100
AcDbEntity
  8
0
  6
HIDDEN
 62
   174
100
AcDbLine
 10
151.697919
 20
197.151675
 30
0.0
 11
151.697919
 21
199.597893
 31
0.0
  0
LINE
  5
2E8
100
AcDbEntity
  8
0
  6
Continuous
 62
   174
100
AcDbLine
 10
169.297919
 20
191.970273
 30
0.0
 11
169.297919
 21
190.888463
 31
0.0
  0
LINE
  5
2E9
100
AcDbEntity
  8
0
  6
Continuous
 62
   174
100
AcDbLine
 10
166.697919
 20
191.970273
 30
0.0
 11
168.697919
 21
191.970273
 31
0.0
  0
LINE
  5
2EA
100
AcDbEntity
  8
0
  6
HIDDEN
 62
   174
100
AcDbLine
 10
168.297919
 20
164.21184
 30
0.0
 11
155.097919
 21
164.21184
 31
0.0
  0
LINE
  5
2EB
100
AcDbEntity
  8
0
  6
Continuous
 62
   174
100
AcDbLine
 10
171.697919
 20
185.473001
 30
0.0
 11
171.697919
 21
187.117739
 31
0.0
  0
LWPOLYLINE
  5
2EC
100
AcDbEntity
  8
0
  6
Continuous
 62
   174
100
AcDbPolyline
 90
        4
 70
   128
 10
171.697919
 20
188.979063
 10
171.42997
 20
187.996236
 10
170.697919
 20
187.276757
 10
169.697919
 20
187.013409
  0
LINE
  5
2ED
100
AcDbEntity
  8
0
  6
Continuous
 62
   174
100
AcDbLine
 10
151.697919
 20
187.117739
 30
0.0
 11
151.697919
 21
185.473001
 31
0.0
  0
LINE
  5
2EE
100
AcDbEntity
  8
0
  6
HIDDEN
 62
   174
100
AcDbLine
 10
146.697919
 20
167.21184
 30
0.0
 11
155.097919
 21
167.21184
 31
0.0
  0
LINE
  5
2EF
100
AcDbEntity
  8
0
  6
HIDDEN
 62
   174
100
AcDbLine
 10
155.097919
 20
167.251225
 30
0.0
 11
155.097919
 21
152.252183
 31
0.0
  0
LINE
  5
2F0
100
AcDbEntity
  8
0
  6
Continuous
 62
   174
100
AcDbLine
 10
172.197919
 20
185.473001
 30
0.0
 11
172.197919
 21
187.117739
 31
0.0
  0
LINE
  5
2F1
100
AcDbEntity
  8
0
  6
Continuous
 62
   174
100
AcDbLine
 10
154.697919
 20
208.11441
 30
0.0
 11
154.697919
 21
192.251952
 31
0.0
  0
LINE
  5
2F2
100
AcDbEntity
  8
0
  6
Continuous
 62
   174
100
AcDbLine
 10
156.697919
 20
209.190037
 30
0.0
 11
156.697919
 21
191.970273
 31
0.0
  0
LINE
  5
2F3
100
AcDbEntity
  8
0
  6
HIDDEN
 62
   174
100
AcDbLine
 10
157.697919
 20
179.11184
 30
0.0
 11
165.697919
 21
179.11184
 31
0.0
  0
LINE
  5
2F4
100
AcDbEntity
  8
0
  6
Continuous
 62
   174
100
AcDbLine
 10
171.697919
 20
185.473001
 30
0.0
 11
171.697919
 21
180.434516
 31
0.0
  0
LINE
  5
2F5
100
AcDbEntity
  8
0
  6
Continuous
 62
   174
100
AcDbLine
 10
156.697919
 20
220.264517
 30
0.0
 11
156.697919
 21
209.190037
 31
0.0
  0
LINE
  5
2F6
100
AcDbEntity
  8
0
  6
HIDDEN
 62
   174
100
AcDbLine
 10
169.297919
 20
177.71184
 30
0.0
 11
169.297919
 21
177.465516
 31
0.0
  0
LINE
  5
2F7
100
AcDbEntity
  8
0
  6
HIDDEN
 62
   174
100
AcDbLine
 10
157.723804
 20
177.71184
 30
0.0
 11
159.38055
 21
177.71184
 31
0.0
  0
LINE
  5
2F8
100
AcDbEntity
  8
0
  6
HIDDEN
 62
   174
100
AcDbLine
 10
168.297919
 20
155.252051
 30
0.0
 11
168.297919
 21
164.251356
 31
0.0
  0
LINE
  5
2F9
100
AcDbEntity
  8
0
  6
HIDDEN
 62
   174
100
AcDbLine
 10
151.697919
 20
187.117739
 30
0.0
 11
151.697919
 21
185.473001
 31
0.0
  0
LINE
  5
2FA
100
AcDbEntity
  8
0
  6
HIDDEN
 62
   174
100
AcDbLine
 10
156.697919
 20
187.013409
 30
0.0
 11
154.697919
 21
187.013409
 31
0.0
  0
LINE
  5
2FB
100
AcDbEntity
  8
0
  6
Continuous
 62
   174
100
AcDbLine
 10
168.697919
 20
226.823215
 30
0.0
 11
168.697919
 21
221.662216
 31
0.0
  0
LINE
  5
2FC
100
AcDbEntity
  8
0
  6
HIDDEN
 62
   174
100
AcDbLine
 10
157.597919
 20
208.82731
 30
0.0
 11
157.597919
 21
228.823028
 31
0.0
  0
ARC
  5
2FD
100
AcDbEntity
  8
0
  6
Continuous
 62
   174
100
AcDbCircle
 10
161.697919
 20
145.71184
 30
0.0
 40
4.2
100
AcDbArc
 50
136.807651
 51
223.192349
  0
LINE
  5
2FE
100
AcDbEntity
  8
0
  6
Continuous
 62
   174
100
AcDbLine
 10
151.197919
 20
180.434516
 30
0.0
 11
151.197919
 21
185.473001
 31
0.0
  0
LINE
  5
2FF
100
AcDbEntity
  8
0
  6
Continuous
 62
   174
100
AcDbLine
 10
154.697919
 20
192.251952
 30
0.0
 11
154.697919
 21
191.970273
 31
0.0
  0
LINE
  5
300
100
AcDbEntity
  8
0
  6
HIDDEN
 62
   174
100
AcDbLine
 10
166.697919
 20
220.78828
 30
0.0
 11
166.197919
 21
220.78828
 31
0.0
  0
LINE
  5
301
100
AcDbEntity
  8
0
  6
HIDDEN
 62
   174
100
AcDbLine
 10
168.697919
 20
220.78828
 30
0.0
 11
168.697919
 21
216.78828
 31
0.0
  0
LINE
  5
302
100
AcDbEntity
  8
0
  6
HIDDEN
 62
   174
100
AcDbLine
 10
154.097919
 20
188.224917
 30
0.0
 11
154.097919
 21
187.117739
 31
0.0
  0
LINE
  5
303
100
AcDbEntity
  8
0
  6
Continuous
 62
   174
100
AcDbLine
 10
157.197919
 20
218.595057
 30
0.0
 11
157.197919
 21
221.571794
 31
0.0
  0
LINE
  5
304
100
AcDbEntity
  8
0
  6
Continuous
 62
   174
100
AcDbLine
 10
166.197919
 20
221.571794
 30
0.0
 11
166.197919
 21
226.460624
 31
0.0
  0
LINE
  5
305
100
AcDbEntity
  8
0
  6
Continuous
 62
   174
100
AcDbLine
 10
169.297919
 20
189.372194
 30
0.0
 11
168.697919
 21
189.372194
 31
0.0
  0
LINE
  5
306
100
AcDbEntity
  8
0
  6
HIDDEN
 62
   174
100
AcDbLine
 10
168.297919
 20
155.21184
 30
0.0
 11
155.097919
 21
155.21184
 31
0.0
  0
LINE
  5
307
100
AcDbEntity
  8
0
  6
Continuous
 62
   174
100
AcDbLine
 10
171.697919
 20
187.117739
 30
0.0
 11
171.697919
 21
188.224917
 31
0.0
  0
LINE
  5
308
100
AcDbEntity
  8
0
  6
Continuous
 62
   174
100
AcDbLine
 10
166.697919
 20
187.013409
 30
0.0
 11
156.697919
 21
187.013409
 31
0.0
  0
LINE
  5
309
100
AcDbEntity
  8
0
  6
Continuous
 62
   174
100
AcDbLine
 10
171.697919
 20
188.224917
 30
0.0
 11
171.697919
 21
187.117739
 31
0.0
  0
LINE
  5
30A
100
AcDbEntity
  8
0
  6
HIDDEN
 62
   174
100
AcDbLine
 10
176.697919
 20
167.21184
 30
0.0
 11
168.297919
 21
167.21184
 31
0.0
  0
LINE
  5
30B
100
AcDbEntity
  8
0
  6
HIDDEN
 62
   174
100
AcDbLine
 10
154.097919
 20
189.372194
 30
0.0
 11
154.097919
 21
185.866132
 31
0.0
  0
LINE
  5
30C
100
AcDbEntity
  8
0
  6
Continuous
 62
   174
100
AcDbLine
 10
176.697919
 20
88.71184
 30
0.0
 11
146.697919
 21
88.71184
 31
0.0
  0
LINE
  5
30D
100
AcDbEntity
  8
0
  6
Continuous
 62
   174
100
AcDbLine
 10
165.797919
 20
209.207025
 30
0.0
 11
165.797919
 21
210.651984
 31
0.0
  0
LINE
  5
30E
100
AcDbEntity
  8
0
  6
Continuous
 62
   174
100
AcDbLine
 10
163.359447
 20
183.276991
 30
0.0
 11
161.686778
 21
183.276991
 31
0.0
  0
ARC
  5
30F
100
AcDbEntity
  8
0
  6
Continuous
 62
   174
100
AcDbCircle
 10
161.697919
 20
105.71184
 30
0.0
 40
4.2
100
AcDbArc
 50
313.202523
 51
316.807651
  0
LINE
  5
310
100
AcDbEntity
  8
0
  6
HIDDEN
 62
   174
100
AcDbLine
 10
151.697919
 20
199.597893
 30
0.0
 11
151.697919
 21
203.151412
 31
0.0
  0
LINE
  5
311
100
AcDbEntity
  8
0
  6
Continuous
 62
   174
100
AcDbLine
 10
169.297919
 20
190.888463
 30
0.0
 11
169.297919
 21
190.775716
 31
0.0
  0
LINE
  5
312
100
AcDbEntity
  8
0
  6
Continuous
 62
   174
100
AcDbLine
 10
172.197919
 20
187.117739
 30
0.0
 11
172.197919
 21
188.224917
 31
0.0
  0
ARC
  5
313
100
AcDbEntity
  8
0
  6
Continuous
 62
   174
100
AcDbCircle
 10
161.697919
 20
145.71184
 30
0.0
 40
4.2
100
AcDbArc
 50
270.0
 51
313.202523
  0
LINE
  5
314
100
AcDbEntity
  8
0
  6
Continuous
 62
   174
100
AcDbLine
 10
154.697919
 20
185.861581
 30
0.0
 11
154.697919
 21
189.372194
 31
0.0
  0
LINE
  5
315
100
AcDbEntity
  8
0
  6
Continuous
 62
   174
100
AcDbLine
 10
168.697919
 20
192.251952
 30
0.0
 11
168.697919
 21
191.970273
 31
0.0
  0
LINE
  5
316
100
AcDbEntity
  8
0
  6
Continuous
 62
   174
100
AcDbLine
 10
154.097919
 20
180.434516
 30
0.0
 11
151.697919
 21
180.434516
 31
0.0
  0
LINE
  5
317
100
AcDbEntity
  8
0
  6
HIDDEN
 62
   174
100
AcDbLine
 10
154.097919
 20
177.71184
 30
0.0
 11
154.097919
 21
177.465516
 31
0.0
  0
LINE
  5
318
100
AcDbEntity
  8
0
  6
Continuous
 62
   174
100
AcDbLine
 10
157.597919
 20
215.569954
 30
0.0
 11
157.597919
 21
218.585443
 31
0.0
  0
LINE
  5
319
100
AcDbEntity
  8
0
  6
Continuous
 62
   174
100
AcDbLine
 10
151.697919
 20
199.598494
 30
0.0
 11
151.697919
 21
203.167634
 31
0.0
  0
LINE
  5
31A
100
AcDbEntity
  8
0
  6
HIDDEN
 62
   174
100
AcDbLine
 10
154.097919
 20
197.114568
 30
0.0
 11
151.697919
 21
197.114568
 31
0.0
  0
ARC
  5
31B
100
AcDbEntity
  8
0
  6
Continuous
 62
   174
100
AcDbCircle
 10
161.697919
 20
105.71184
 30
0.0
 40
4.2
100
AcDbArc
 50
90.0
 51
133.202523
  0
LINE
  5
31C
100
AcDbEntity
  8
0
  6
HIDDEN
 62
   174
100
AcDbLine
 10
151.697919
 20
188.224917
 30
0.0
 11
151.697919
 21
187.117739
 31
0.0
  0
LINE
  5
31D
100
AcDbEntity
  8
0
  6
HIDDEN
 62
   174
100
AcDbLine
 10
171.697919
 20
187.117739
 30
0.0
 11
171.697919
 21
185.473001
 31
0.0
  0
ARC
  5
31E
100
AcDbEntity
  8
0
  6
Continuous
 62
   174
100
AcDbCircle
 10
161.697919
 20
125.71184
 30
0.0
 40
4.2
100
AcDbArc
 50
46.797477
 51
90.0
  0
LINE
  5
31F
100
AcDbEntity
  8
0
  6
HIDDEN
 62
   174
100
AcDbLine
 10
168.297919
 20
164.21184
 30
0.0
 11
155.097919
 21
164.21184
 31
0.0
  0
LINE
  5
320
100
AcDbEntity
  8
0
  6
Continuous
 62
   174
100
AcDbLine
 10
172.197919
 20
192.251952
 30
0.0
 11
172.197919
 21
196.71184
 31
0.0
  0
LINE
  5
321
100
AcDbEntity
  8
0
  6
Continuous
 62
   174
100
AcDbLine
 10
154.697919
 20
220.857124
 30
0.0
 11
154.697919
 21
220.299869
 31
0.0
  0
LINE
  5
322
100
AcDbEntity
  8
0
  6
HIDDEN
 62
   174
100
AcDbLine
 10
168.697919
 20
217.586889
 30
0.0
 11
168.697919
 21
216.824155
 31
0.0
  0
LINE
  5
323
100
AcDbEntity
  8
0
  6
Continuous
 62
   174
100
AcDbLine
 10
151.697919
 20
192.251952
 30
0.0
 11
151.697919
 21
190.775716
 31
0.0
  0
LINE
  5
324
100
AcDbEntity
  8
0
  6
Continuous
 62
   174
100
AcDbLine
 10
151.197919
 20
185.473001
 30
0.0
 11
151.197919
 21
187.117739
 31
0.0
  0
LINE
  5
325
100
AcDbEntity
  8
0
  6
Continuous
 62
   174
100
AcDbLine
 10
166.697919
 20
189.372194
 30
0.0
 11
156.697919
 21
189.372194
 31
0.0
  0
LINE
  5
326
100
AcDbEntity
  8
0
  6
Continuous
 62
   174
100
AcDbLine
 10
168.697919
 20
185.861581
 30
0.0
 11
168.697919
 21
188.891772
 31
0.0
  0
LINE
  5
327
100
AcDbEntity
  8
0
  6
Continuous
 62
   174
100
AcDbLine
 10
154.697919
 20
187.013409
 30
0.0
 11
153.697919
 21
187.013409
 31
0.0
  0
LINE
  5
328
100
AcDbEntity
  8
0
  6
Continuous
 62
   174
100
AcDbLine
 10
171.697919
 20
187.117739
 30
0.0
 11
171.697919
 21
185.473001
 31
0.0
  0
LINE
  5
329
100
AcDbEntity
  8
0
  6
HIDDEN
 62
   174
100
AcDbLine
 10
176.697919
 20
167.21184
 30
0.0
 11
168.297919
 21
167.21184
 31
0.0
  0
LINE
  5
32A
100
AcDbEntity
  8
0
  6
HIDDEN
 62
   174
100
AcDbLine
 10
166.197919
 20
220.78828
 30
0.0
 11
157.197919
 21
220.78828
 31
0.0
  0
LINE
  5
32B
100
AcDbEntity
  8
0
  6
Continuous
 62
   174
100
AcDbLine
 10
171.697919
 20
199.598494
 30
0.0
 11
171.697919
 21
203.167634
 31
0.0
  0
LINE
  5
32C
100
AcDbEntity
  8
0
  6
HIDDEN
 62
   174
100
AcDbLine
 10
159.38055
 20
177.71184
 30
0.0
 11
165.723352
 21
177.71184
 31
0.0
  0
LINE
  5
32D
100
AcDbEntity
  8
0
  6
Continuous
 62
   174
100
AcDbLine
 10
169.297919
 20
190.775716
 30
0.0
 11
169.297919
 21
189.705588
 31
0.0
  0
LINE
  5
32E
100
AcDbEntity
  8
0
  6
Continuous
 62
   174
100
AcDbLine
 10
172.197919
 20
188.224917
 30
0.0
 11
172.197919
 21
188.979063
 31
0.0
  0
LINE
  5
32F
100
AcDbEntity
  8
0
  6
Continuous
 62
   174
100
AcDbLine
 10
154.097919
 20
190.775716
 30
0.0
 11
151.697919
 21
190.775716
 31
0.0
  0
LINE
  5
330
100
AcDbEntity
  8
0
  6
Continuous
 62
   174
100
AcDbLine
 10
166.697919
 20
185.861581
 30
0.0
 11
166.697919
 21
188.891772
 31
0.0
  0
LINE
  5
331
100
AcDbEntity
  8
0
  6
Continuous
 62
   174
100
AcDbLine
 10
166.697919
 20
220.264517
 30
0.0
 11
166.697919
 21
209.190037
 31
0.0
  0
LINE
  5
332
100
AcDbEntity
  8
0
  6
Continuous
 62
   174
100
AcDbLine
 10
166.197919
 20
218.595057
 30
0.0
 11
166.197919
 21
221.571794
 31
0.0
  0
LINE
  5
333
100
AcDbEntity
  8
0
  6
HIDDEN
 62
   174
100
AcDbLine
 10
151.697919
 20
179.11184
 30
0.0
 11
151.697919
 21
177.71184
 31
0.0
  0
ARC
  5
334
100
AcDbEntity
  8
0
  6
Continuous
 62
   174
100
AcDbCircle
 10
161.697919
 20
105.71184
 30
0.0
 40
4.2
100
AcDbArc
 50
270.0
 51
313.202523
  0
ARC
  5
335
100
AcDbEntity
  8
0
  6
Continuous
 62
   174
100
AcDbCircle
 10
161.697919
 20
145.71184
 30
0.0
 40
4.2
100
AcDbArc
 50
133.202523
 51
136.807651
  0
LINE
  5
336
100
AcDbEntity
  8
0
  6
HIDDEN
 62
   174
100
AcDbLine
 10
168.297919
 20
152.252183
 30
0.0
 11
168.297919
 21
167.251225
 31
0.0
  0
LINE
  5
337
100
AcDbEntity
  8
0
  6
HIDDEN
 62
   174
100
AcDbLine
 10
168.697919
 20
220.78828
 30
0.0
 11
166.697919
 21
220.78828
 31
0.0
  0
LINE
  5
338
100
AcDbEntity
  8
0
  6
Continuous
 62
   174
100
AcDbLine
 10
157.197919
 20
215.64055
 30
0.0
 11
157.197919
 21
218.595057
 31
0.0
  0
LINE
  5
339
100
AcDbEntity
  8
0
  6
HIDDEN
 62
   174
100
AcDbLine
 10
168.297919
 20
155.21184
 30
0.0
 11
155.097919
 21
155.21184
 31
0.0
  0
LINE
  5
33A
100
AcDbEntity
  8
0
  6
Continuous
 62
   174
100
AcDbLine
 10
146.697919
 20
177.71184
 30
0.0
 11
146.697919
 21
196.71184
 31
0.0
  0
LINE
  5
33B
100
AcDbEntity
  8
0
  6
HIDDEN
 62
   174
100
AcDbLine
 10
146.697919
 20
167.21184
 30
0.0
 11
155.097919
 21
167.21184
 31
0.0
  0
LINE
  5
33C
100
AcDbEntity
  8
0
  6
Continuous
 62
   174
100
AcDbLine
 10
165.797919
 20
208.824606
 30
0.0
 11
165.797919
 21
209.207025
 31
0.0
  0
LINE
  5
33D
100
AcDbEntity
  8
0
  6
Continuous
 62
   174
100
AcDbLine
 10
146.697919
 20
196.71184
 30
0.0
 11
151.197919
 21
196.71184
 31
0.0
  0
LINE
  5
33E
100
AcDbEntity
  8
0
  6
Continuous
 62
   174
100
AcDbLine
 10
169.297919
 20
183.507347
 30
0.0
 11
169.297919
 21
180.434516
 31
0.0
  0
LINE
  5
33F
100
AcDbEntity
  8
0
  6
HIDDEN
 62
   174
100
AcDbLine
 10
154.097919
 20
199.597893
 30
0.0
 11
154.097919
 21
203.151412
 31
0.0
  0
LINE
  5
340
100
AcDbEntity
  8
0
  6
Continuous
 62
   174
100
AcDbLine
 10
171.697919
 20
180.434516
 30
0.0
 11
169.297919
 21
180.434516
 31
0.0
  0
ARC
  5
341
100
AcDbEntity
  8
0
  6
Continuous
 62
   174
100
AcDbCircle
 10
161.697919
 20
105.71184
 30
0.0
 40
4.2
100
AcDbArc
 50
226.797477
 51
270.0
  0
LINE
  5
342
100
AcDbEntity
  8
0
  6
Continuous
 62
   174
100
AcDbLine
 10
151.197919
 20
187.117739
 30
0.0
 11
151.197919
 21
188.224917
 31
0.0
  0
LINE
  5
343
100
AcDbEntity
  8
0
  6
Continuous
 62
   174
100
AcDbLine
 10
154.697919
 20
189.372194
 30
0.0
 11
154.097919
 21
189.372194
 31
0.0
  0
LINE
  5
344
100
AcDbEntity
  8
0
  6
Continuous
 62
   174
100
AcDbLine
 10
154.697919
 20
189.372194
 30
0.0
 11
154.697919
 21
190.775716
 31
0.0
  0
LINE
  5
345
100
AcDbEntity
  8
0
  6
HIDDEN
 62
   174
100
AcDbLine
 10
165.697919
 20
183.507347
 30
0.0
 11
164.594216
 21
183.507347
 31
0.0
  0
LINE
  5
346
100
AcDbEntity
  8
0
  6
HIDDEN
 62
   174
100
AcDbLine
 10
164.594216
 20
183.507347
 30
0.0
 11
161.697919
 21
183.507347
 31
0.0
  0
LINE
  5
347
100
AcDbEntity
  8
0
  6
HIDDEN
 62
   174
100
AcDbLine
 10
157.197919
 20
220.78828
 30
0.0
 11
156.697919
 21
220.78828
 31
0.0
  0
LINE
  5
348
100
AcDbEntity
  8
0
  6
HIDDEN
 62
   174
100
AcDbLine
 10
154.697919
 20
217.586889
 30
0.0
 11
154.697919
 21
216.824155
 31
0.0
  0
LINE
  5
349
100
AcDbEntity
  8
0
  6
HIDDEN
 62
   174
100
AcDbLine
 10
166.197919
 20
209.18828
 30
0.0
 11
165.797919
 21
208.78828
 31
0.0
  0
LINE
  5
34A
100
AcDbEntity
  8
0
  6
Continuous
 62
   174
100
AcDbLine
 10
157.597919
 20
210.651984
 30
0.0
 11
157.597919
 21
215.569954
 31
0.0
  0
ARC
  5
34B
100
AcDbEntity
  8
0
  6
Continuous
 62
   174
100
AcDbCircle
 10
161.697919
 20
105.71184
 30
0.0
 40
4.2
100
AcDbArc
 50
46.797477
 51
90.0
  0
ARC
  5
34C
100
AcDbEntity
  8
0
  6
Continuous
 62
   174
100
AcDbCircle
 10
161.697919
 20
125.71184
 30
0.0
 40
4.2
100
AcDbArc
 50
43.192349
 51
46.797477
  0
LINE
  5
34D
100
AcDbEntity
  8
0
  6
Continuous
 62
   174
100
AcDbLine
 10
172.197919
 20
188.979063
 30
0.0
 11
172.197919
 21
190.775716
 31
0.0
  0
LINE
  5
34E
100
AcDbEntity
  8
0
  6
HIDDEN
 62
   174
100
AcDbLine
 10
157.597919
 20
208.824606
 30
0.0
 11
157.597919
 21
208.82731
 31
0.0
  0
LINE
  5
34F
100
AcDbEntity
  8
0
  6
Continuous
 62
   174
100
AcDbLine
 10
151.697919
 20
197.092495
 30
0.0
 11
151.697919
 21
199.598494
 31
0.0
  0
LINE
  5
350
100
AcDbEntity
  8
0
  6
HIDDEN
 62
   174
100
AcDbLine
 10
171.697919
 20
197.114568
 30
0.0
 11
169.297919
 21
197.114568
 31
0.0
  0
LINE
  5
351
100
AcDbEntity
  8
0
  6
Continuous
 62
   174
100
AcDbLine
 10
168.697919
 20
208.11441
 30
0.0
 11
168.697919
 21
192.251952
 31
0.0
  0
LINE
  5
352
100
AcDbEntity
  8
0
  6
Continuous
 62
   174
100
AcDbLine
 10
169.697919
 20
187.013409
 30
0.0
 11
169.697919
 21
183.507347
 31
0.0
  0
LINE
  5
353
100
AcDbEntity
  8
0
  6
HIDDEN
 62
   174
100
AcDbLine
 10
146.697919
 20
152.21184
 30
0.0
 11
155.097919
 21
152.21184
 31
0.0
  0
LINE
  5
354
100
AcDbEntity
  8
0
  6
HIDDEN
 62
   174
100
AcDbLine
 10
169.297919
 20
199.597893
 30
0.0
 11
169.297919
 21
203.151412
 31
0.0
  0
LINE
  5
355
100
AcDbEntity
  8
0
  6
HIDDEN
 62
   174
100
AcDbLine
 10
168.697919
 20
219.281487
 30
0.0
 11
168.697919
 21
217.586889
 31
0.0
  0
LINE
  5
356
100
AcDbEntity
  8
0
  6
Continuous
 62
   174
100
AcDbLine
 10
165.723653
 20
183.276991
 30
0.0
 11
163.359447
 21
183.276991
 31
0.0
  0
LINE
  5
357
100
AcDbEntity
  8
0
  6
Continuous
 62
   174
100
AcDbLine
 10
171.697919
 20
197.092495
 30
0.0
 11
171.697919
 21
199.598494
 31
0.0
  0
LINE
  5
358
100
AcDbEntity
  8
0
  6
HIDDEN
 62
   174
100
AcDbLine
 10
161.697919
 20
183.507347
 30
0.0
 11
158.801622
 21
183.507347
 31
0.0
  0
LINE
  5
359
100
AcDbEntity
  8
0
  6
Continuous
 62
   174
100
AcDbLine
 10
168.697919
 20
188.891772
 30
0.0
 11
168.697919
 21
189.372194
 31
0.0
  0
LINE
  5
35A
100
AcDbEntity
  8
0
  6
HIDDEN
 62
   174
100
AcDbLine
 10
151.697919
 20
188.979063
 30
0.0
 11
151.697919
 21
188.224917
 31
0.0
  0
LINE
  5
35B
100
AcDbEntity
  8
0
  6
HIDDEN
 62
   174
100
AcDbLine
 10
176.697919
 20
152.21184
 30
0.0
 11
168.297919
 21
152.21184
 31
0.0
  0
ARC
  5
35C
100
AcDbEntity
  8
0
  6
Continuous
 62
   174
100
AcDbCircle
 10
161.697919
 20
174.11184
 30
0.0
 40
10.0
100
AcDbArc
 50
-270.0
 51
-255.780802
  0
LINE
  5
35D
100
AcDbEntity
  8
0
  6
HIDDEN
 62
   174
100
AcDbLine
 10
171.697919
 20
188.224917
 30
0.0
 11
171.697919
 21
187.117739
 31
0.0
  0
ARC
  5
35E
100
AcDbEntity
  8
0
  6
Continuous
 62
   174
100
AcDbCircle
 10
161.697919
 20
125.71184
 30
0.0
 40
4.2
100
AcDbArc
 50
226.797477
 51
270.0
  0
LINE
  5
35F
100
AcDbEntity
  8
0
  6
Continuous
 62
   174
100
AcDbLine
 10
169.297919
 20
189.705588
 30
0.0
 11
169.297919
 21
189.372194
 31
0.0
  0
LINE
  5
360
100
AcDbEntity
  8
0
  6
HIDDEN
 62
   174
100
AcDbLine
 10
169.297919
 20
185.866132
 30
0.0
 11
169.297919
 21
189.372194
 31
0.0
  0
LINE
  5
361
100
AcDbEntity
  8
0
  6
HIDDEN
 62
   174
100
AcDbLine
 10
168.297919
 20
164.21184
 30
0.0
 11
155.097919
 21
164.21184
 31
0.0
  0
LINE
  5
362
100
AcDbEntity
  8
0
  6
HIDDEN
 62
   174
100
AcDbLine
 10
146.697919
 20
152.252183
 30
0.0
 11
146.697919
 21
167.251225
 31
0.0
  0
LINE
  5
363
100
AcDbEntity
  8
0
  6
Continuous
 62
   174
100
AcDbLine
 10
156.697919
 20
185.861581
 30
0.0
 11
156.697919
 21
191.970273
 31
0.0
  0
LINE
  5
364
100
AcDbEntity
  8
0
  6
Continuous
 62
   174
100
AcDbLine
 10
168.697919
 20
189.372194
 30
0.0
 11
168.697919
 21
189.705588
 31
0.0
  0
LWPOLYLINE
  5
365
100
AcDbEntity
  8
0
  6
Continuous
 62
   174
100
AcDbPolyline
 90
        4
 70
   128
 10
169.697919
 20
183.507347
 10
170.697919
 20
183.770695
 10
171.42997
 20
184.490174
 10
171.697919
 20
185.473001
  0
LINE
  5
366
100
AcDbEntity
  8
0
  6
Continuous
 62
   174
100
AcDbLine
 10
154.097919
 20
180.434516
 30
0.0
 11
154.097919
 21
179.11184
 31
0.0
  0
LINE
  5
367
100
AcDbEntity
  8
0
  6
Continuous
 62
   174
100
AcDbLine
 10
169.297919
 20
180.434516
 30
0.0
 11
169.297919
 21
179.11184
 31
0.0
  0
ARC
  5
368
100
AcDbEntity
  8
0
  6
Continuous
 62
   174
100
AcDbCircle
 10
161.697919
 20
145.71184
 30
0.0
 40
4.2
100
AcDbArc
 50
90.0
 51
133.202523
  0
LINE
  5
369
100
AcDbEntity
  8
0
  6
HIDDEN
 62
   174
100
AcDbLine
 10
154.097919
 20
197.151675
 30
0.0
 11
154.097919
 21
199.597893
 31
0.0
  0
LINE
  5
36A
100
AcDbEntity
  8
0
  6
Continuous
 62
   174
100
AcDbLine
 10
151.197919
 20
188.224917
 30
0.0
 11
151.197919
 21
188.979063
 31
0.0
  0
LINE
  5
36B
100
AcDbEntity
  8
0
  6
HIDDEN
 62
   174
100
AcDbLine
 10
155.097919
 20
164.251356
 30
0.0
 11
155.097919
 21
155.252051
 31
0.0
  0
LINE
  5
36C
100
AcDbEntity
  8
0
  6
Continuous
 62
   174
100
AcDbLine
 10
166.697919
 20
188.891772
 30
0.0
 11
166.697919
 21
189.705588
 31
0.0
  0
LINE
  5
36D
100
AcDbEntity
  8
0
  6
HIDDEN
 62
   174
100
AcDbLine
 10
156.697919
 20
220.78828
 30
0.0
 11
154.697919
 21
220.78828
 31
0.0
  0
LINE
  5
36E
100
AcDbEntity
  8
0
  6
Continuous
 62
   174
100
AcDbLine
 10
154.097919
 20
192.251952
 30
0.0
 11
151.697919
 21
192.251952
 31
0.0
  0
LINE
  5
36F
100
AcDbEntity
  8
0
  6
Continuous
 62
   174
100
AcDbLine
 10
157.197919
 20
209.626694
 30
0.0
 11
157.197919
 21
215.64055
 31
0.0
  0
LINE
  5
370
100
AcDbEntity
  8
0
  6
Continuous
 62
   174
100
AcDbLine
 10
166.197919
 20
215.64055
 30
0.0
 11
166.197919
 21
218.595057
 31
0.0
  0
LINE
  5
371
100
AcDbEntity
  8
0
  6
Continuous
 62
   174
100
AcDbLine
 10
172.197919
 20
190.775716
 30
0.0
 11
172.197919
 21
192.251952
 31
0.0
  0
LINE
  5
372
100
AcDbEntity
  8
0
  6
Continuous
 62
   174
100
AcDbLine
 10
154.697919
 20
190.775716
 30
0.0
 11
154.697919
 21
191.970273
 31
0.0
  0
LINE
  5
373
100
AcDbEntity
  8
0
  6
Continuous
 62
   174
100
AcDbLine
 10
154.697919
 20
221.676636
 30
0.0
 11
154.697919
 21
220.857124
 31
0.0
  0
LINE
  5
374
100
AcDbEntity
  8
0
  6
HIDDEN
 62
   174
100
AcDbLine
 10
146.697919
 20
167.21184
 30
0.0
 11
155.097919
 21
167.21184
 31
0.0
  0
LINE
  5
375
100
AcDbEntity
  8
0
  6
Continuous
 62
   174
100
AcDbLine
 10
165.797919
 20
228.820324
 30
0.0
 11
165.797919
 21
228.823028
 31
0.0
  0
LINE
  5
376
100
AcDbEntity
  8
0
  6
HIDDEN
 62
   174
100
AcDbLine
 10
151.697919
 20
177.71184
 30
0.0
 11
151.697919
 21
177.465516
 31
0.0
  0
LINE
  5
377
100
AcDbEntity
  8
0
  6
Continuous
 62
   174
100
AcDbLine
 10
165.697919
 20
183.276991
 30
0.0
 11
165.697919
 21
177.71184
 31
0.0
  0
LINE
  5
378
100
AcDbEntity
  8
0
  6
Continuous
 62
   174
100
AcDbLine
 10
168.697919
 20
189.705588
 30
0.0
 11
168.697919
 21
190.775716
 31
0.0
  0
LINE
  5
379
100
AcDbEntity
  8
0
  6
HIDDEN
 62
   174
100
AcDbLine
 10
168.697919
 20
187.013409
 30
0.0
 11
166.697919
 21
187.013409
 31
0.0
  0
LINE
  5
37A
100
AcDbEntity
  8
0
  6
Continuous
 62
   174
100
AcDbLine
 10
157.597919
 20
208.824606
 30
0.0
 11
157.597919
 21
210.651984
 31
0.0
  0
LINE
  5
37B
100
AcDbEntity
  8
0
  6
HIDDEN
 62
   174
100
AcDbLine
 10
171.697919
 20
199.597893
 30
0.0
 11
171.697919
 21
197.151675
 31
0.0
  0
LINE
  5
37C
100
AcDbEntity
  8
0
  6
HIDDEN
 62
   174
100
AcDbLine
 10
154.697919
 20
219.281487
 30
0.0
 11
154.697919
 21
217.586889
 31
0.0
  0
LINE
  5
37D
100
AcDbEntity
  8
0
  6
HIDDEN
 62
   174
100
AcDbLine
 10
168.697919
 20
220.823779
 30
0.0
 11
168.697919
 21
220.631218
 31
0.0
  0
LINE
  5
37E
100
AcDbEntity
  8
0
  6
HIDDEN
 62
   174
100
AcDbLine
 10
157.197919
 20
209.18828
 30
0.0
 11
157.597919
 21
208.78828
 31
0.0
  0
LINE
  5
37F
100
AcDbEntity
  8
0
  6
Continuous
 62
   174
100
AcDbLine
 10
151.697919
 20
192.289581
 30
0.0
 11
151.697919
 21
197.092495
 31
0.0
  0
ARC
  5
380
100
AcDbEntity
  8
0
  6
Continuous
 62
   174
100
AcDbCircle
 10
161.697919
 20
125.71184
 30
0.0
 40
4.2
100
AcDbArc
 50
-43.192349
 51
43.192349
  0
LINE
  5
381
100
AcDbEntity
  8
0
  6
HIDDEN
 62
   174
100
AcDbLine
 10
168.297919
 20
155.21184
 30
0.0
 11
155.097919
 21
155.21184
 31
0.0
  0
LINE
  5
382
100
AcDbEntity
  8
0
  6
HIDDEN
 62
   174
100
AcDbLine
 10
168.297919
 20
152.252183
 30
0.0
 11
168.297919
 21
167.251225
 31
0.0
  0
LINE
  5
383
100
AcDbEntity
  8
0
  6
HIDDEN
 62
   174
100
AcDbLine
 10
176.697919
 20
167.21184
 30
0.0
 11
168.297919
 21
167.21184
 31
0.0
  0
LINE
  5
384
100
AcDbEntity
  8
0
  6
HIDDEN
 62
   174
100
AcDbLine
 10
146.697919
 20
152.21184
 30
0.0
 11
155.097919
 21
152.21184
 31
0.0
  0
LINE
  5
385
100
AcDbEntity
  8
0
  6
Continuous
 62
   174
100
AcDbLine
 10
154.097919
 20
183.507347
 30
0.0
 11
154.097919
 21
180.434516
 31
0.0
  0
LINE
  5
386
100
AcDbEntity
  8
0
  6
Continuous
 62
   174
100
AcDbLine
 10
165.797919
 20
208.78828
 30
0.0
 11
157.597919
 21
208.78828
 31
0.0
  0
LINE
  5
387
100
AcDbEntity
  8
0
  6
Continuous
 62
   174
100
AcDbLine
 10
171.697919
 20
203.167634
 30
0.0
 11
171.697919
 21
208.150792
 31
0.0
  0
LINE
  5
388
100
AcDbEntity
  8
0
  6
Continuous
 62
   174
100
AcDbLine
 10
169.297919
 20
193.502927
 30
0.0
 11
169.297919
 21
208.150792
 31
0.0
  0
LINE
  5
389
100
AcDbEntity
  8
0
  6
Continuous
 62
   174
100
AcDbLine
 10
151.197919
 20
188.979063
 30
0.0
 11
151.197919
 21
190.775716
 31
0.0
  0
LINE
  5
38A
100
AcDbEntity
  8
0
  6
HIDDEN
 62
   174
100
AcDbLine
 10
176.697919
 20
152.21184
 30
0.0
 11
168.297919
 21
152.21184
 31
0.0
  0
LINE
  5
38B
100
AcDbEntity
  8
0
  6
HIDDEN
 62
   174
100
AcDbLine
 10
168.697919
 20
216.78828
 30
0.0
 11
166.697919
 21
216.78828
 31
0.0
  0
LINE
  5
38C
100
AcDbEntity
  8
0
  6
HIDDEN
 62
   174
100
AcDbLine
 10
168.697919
 20
220.631218
 30
0.0
 11
168.697919
 21
219.281487
 31
0.0
  0
LINE
  5
38D
100
AcDbEntity
  8
0
  6
Continuous
 62
   174
100
AcDbLine
 10
154.697919
 20
185.861581
 30
0.0
 11
156.697919
 21
185.861581
 31
0.0
  0
LINE
  5
38E
100
AcDbEntity
  8
0
  6
Continuous
 62
   174
100
AcDbLine
 10
166.697919
 20
189.705588
 30
0.0
 11
166.697919
 21
190.888463
 31
0.0
  0
LINE
  5
38F
100
AcDbEntity
  8
0
  6
Continuous
 62
   174
100
AcDbLine
 10
171.697919
 20
192.289581
 30
0.0
 11
171.697919
 21
197.092495
 31
0.0
  0
LINE
  5
390
100
AcDbEntity
  8
0
  6
Continuous
 62
   174
100
AcDbLine
 10
166.697919
 20
209.190037
 30
0.0
 11
166.697919
 21
191.970273
 31
0.0
  0
LINE
  5
391
100
AcDbEntity
  8
0
  6
Continuous
 62
   174
100
AcDbLine
 10
154.097919
 20
190.775716
 30
0.0
 11
154.097919
 21
189.372194
 31
0.0
  0
LINE
  5
392
100
AcDbEntity
  8
0
  6
HIDDEN
 62
   174
100
AcDbLine
 10
171.697919
 20
188.224917
 30
0.0
 11
171.697919
 21
188.979063
 31
0.0
  0
LINE
  5
393
100
AcDbEntity
  8
0
  6
Continuous
 62
   174
100
AcDbLine
 10
168.697919
 20
190.775716
 30
0.0
 11
168.697919
 21
190.888463
 31
0.0
  0
LINE
  5
394
100
AcDbEntity
  8
0
  6
Continuous
 62
   174
100
AcDbLine
 10
151.697919
 20
190.775716
 30
0.0
 11
151.697919
 21
188.979063
 31
0.0
  0
LINE
  5
395
100
AcDbEntity
  8
0
  6
Continuous
 62
   174
100
AcDbLine
 10
166.197919
 20
209.626694
 30
0.0
 11
166.197919
 21
215.64055
 31
0.0
  0
LINE
  5
396
100
AcDbEntity
  8
0
  6
HIDDEN
 62
   174
100
AcDbLine
 10
169.297919
 20
188.224917
 30
0.0
 11
169.297919
 21
187.117739
 31
0.0
  0
ARC
  5
397
100
AcDbEntity
  8
0
  6
Continuous
 62
   174
100
AcDbCircle
 10
161.697919
 20
145.71184
 30
0.0
 40
4.2
100
AcDbArc
 50
46.797477
 51
90.0
  0
LINE
  5
398
100
AcDbEntity
  8
0
  6
Continuous
 62
   174
100
AcDbLine
 10
156.697919
 20
222.828999
 30
0.0
 11
156.697919
 21
220.299869
 31
0.0
  0
ENDBLK
  5
399
100
AcDbEntity
  8
0
100
AcDbBlockEnd
  0
BLOCK
  5
39C
100
AcDbEntity
  8
0
100
AcDbBlockBegin
  2
*B4
 70
     0
 10
0.0
 20
0.0
 30
0.0
  3
*B4
  1

  0
LINE
  5
39D
100
AcDbEntity
  8
0
  6
Continuous
 62
     0
100
AcDbLine
 10
316.025591
 20
159.751554
 30
0.0
 11
316.025591
 21
88.756871
 31
0.0
  0
SOLID
  5
39E
100
AcDbEntity
  8
0
  6
Continuous
 62
     0
100
AcDbTrace
 10
317.025647
 20
154.752173
 30
0.0
 11
316.025591
 21
159.751554
 31
0.0
 12
315.025535
 22
154.752173
 32
0.0
 13
315.025535
 23
154.752173
 33
0.0
  0
SOLID
  5
39F
100
AcDbEntity
  8
0
  6
Continuous
 62
     0
100
AcDbTrace
 10
315.025535
 20
93.756552
 30
0.0
 11
316.025591
 21
88.756871
 31
0.0
 12
317.025647
 22
93.756552
 32
0.0
 13
317.025647
 23
93.756552
 33
0.0
  0
ENDBLK
  5
3A0
100
AcDbEntity
  8
0
100
AcDbBlockEnd
  0
BLOCK
  5
3A3
100
AcDbEntity
  8
0
100
AcDbBlockBegin
  2
*B5
 70
     0
 10
0.0
 20
0.0
 30
0.0
  3
*B5
  1

  0
LINE
  5
3A4
100
AcDbEntity
  8
0
  6
Continuous
 62
     0
100
AcDbLine
 10
243.421326
 20
235.034552
 30
0.0
 11
283.421474
 21
235.034552
 31
0.0
  0
SOLID
  5
3A5
100
AcDbEntity
  8
0
  6
Continuous
 62
     0
100
AcDbTrace
 10
248.421307
 20
234.034495
 30
0.0
 11
253.421288
 21
235.034552
 31
0.0
 12
248.421307
 22
236.034307
 32
0.0
 13
248.421307
 23
236.034307
 33
0.0
  0
SOLID
  5
3A6
100
AcDbEntity
  8
0
  6
Continuous
 62
     0
100
AcDbTrace
 10
278.421493
 20
236.034307
 30
0.0
 11
273.421512
 21
235.034552
 31
0.0
 12
278.421493
 22
234.034495
 32
0.0
 13
278.421493
 23
234.034495
 33
0.0
  0
ENDBLK
  5
3A7
100
AcDbEntity
  8
0
100
AcDbBlockEnd
  0
BLOCK
  5
3AA
100
AcDbEntity
  8
0
100
AcDbBlockBegin
  2
*B6
 70
     0
 10
0.0
 20
0.0
 30
0.0
  3
*B6
  1

  0
LINE
  5
3AB
100
AcDbEntity
  8
0
  6
Continuous
 62
     0
100
AcDbLine
 10
263.421249
 20
252.033105
 30
0.0
 11
221.7241
 21
252.033105
 31
0.0
  0
SOLID
  5
3AC
100
AcDbEntity
  8
0
  6
Continuous
 62
     0
100
AcDbTrace
 10
258.421268
 20
251.033349
 30
0.0
 11
263.421249
 21
252.033105
 31
0.0
 12
258.421268
 22
253.033161
 32
0.0
 13
258.421268
 23
253.033161
 33
0.0
  0
SOLID
  5
3AD
100
AcDbEntity
  8
0
  6
Continuous
 62
     0
100
AcDbTrace
 10
226.724081
 20
253.033161
 30
0.0
 11
221.7241
 21
252.033105
 31
0.0
 12
226.724081
 22
251.033349
 32
0.0
 13
226.724081
 23
251.033349
 33
0.0
  0
ENDBLK
  5
3AE
100
AcDbEntity
  8
0
100
AcDbBlockEnd
  0
BLOCK
  5
3B1
100
AcDbEntity
  8
0
100
AcDbBlockBegin
  2
*B7
 70
     0
 10
0.0
 20
0.0
 30
0.0
  3
*B7
  1

  0
LINE
  5
3B2
100
AcDbEntity
  8
0
  6
Continuous
 62
     0
100
AcDbLine
 10
194.025636
 20
196.749129
 30
0.0
 11
194.025636
 21
88.756871
 31
0.0
  0
SOLID
  5
3B3
100
AcDbEntity
  8
0
  6
Continuous
 62
     0
100
AcDbTrace
 10
195.025692
 20
191.749449
 30
0.0
 11
194.025636
 21
196.749129
 31
0.0
 12
193.025579
 22
191.749449
 32
0.0
 13
193.025579
 23
191.749449
 33
0.0
  0
SOLID
  5
3B4
100
AcDbEntity
  8
0
  6
Continuous
 62
     0
100
AcDbTrace
 10
193.025579
 20
93.756552
 30
0.0
 11
194.025636
 21
88.756871
 31
0.0
 12
195.025692
 22
93.756552
 32
0.0
 13
195.025692
 23
93.756552
 33
0.0
  0
ENDBLK
  5
3B5
100
AcDbEntity
  8
0
100
AcDbBlockEnd
  0
BLOCK
  5
3B8
100
AcDbEntity
  8
0
100
AcDbBlockBegin
  2
*B8
 70
     0
 10
0.0
 20
0.0
 30
0.0
  3
*B8
  1

  0
LINE
  5
3B9
100
AcDbEntity
  8
0
  6
Continuous
 62
     0
100
AcDbLine
 10
209.025578
 20
115.754786
 30
0.0
 11
209.025578
 21
88.756871
 31
0.0
  0
SOLID
  5
3BA
100
AcDbEntity
  8
0
  6
Continuous
 62
     0
100
AcDbTrace
 10
210.025635
 20
110.755105
 30
0.0
 11
209.025578
 21
115.754786
 31
0.0
 12
208.025522
 22
110.755105
 32
0.0
 13
208.025522
 23
110.755105
 33
0.0
  0
SOLID
  5
3BB
100
AcDbEntity
  8
0
  6
Continuous
 62
     0
100
AcDbTrace
 10
208.025522
 20
93.756552
 30
0.0
 11
209.025578
 21
88.756871
 31
0.0
 12
210.025635
 22
93.756552
 32
0.0
 13
210.025635
 23
93.756552
 33
0.0
  0
ENDBLK
  5
3BC
100
AcDbEntity
  8
0
100
AcDbBlockEnd
  0
BLOCK
  5
3BF
100
AcDbEntity
  8
0
100
AcDbBlockBegin
  2
*B9
 70
     0
 10
0.0
 20
0.0
 30
0.0
  3
*B9
  1

  0
LINE
  5
3C0
100
AcDbEntity
  8
0
  6
Continuous
 62
     0
100
AcDbLine
 10
209.025578
 20
135.753508
 30
0.0
 11
209.025578
 21
115.754786
 31
0.0
  0
SOLID
  5
3C1
100
AcDbEntity
  8
0
  6
Continuous
 62
     0
100
AcDbTrace
 10
210.025635
 20
130.753827
 30
0.0
 11
209.025578
 21
135.753508
 31
0.0
 12
208.025522
 22
130.753827
 32
0.0
 13
208.025522
 23
130.753827
 33
0.0
  0
SOLID
  5
3C2
100
AcDbEntity
  8
0
  6
Continuous
 62
     0
100
AcDbTrace
 10
208.025522
 20
120.754466
 30
0.0
 11
209.025578
 21
115.754786
 31
0.0
 12
210.025635
 22
120.754466
 32
0.0
 13
210.025635
 23
120.754466
 33
0.0
  0
ENDBLK
  5
3C3
100
AcDbEntity
  8
0
100
AcDbBlockEnd
  0
BLOCK
  5
3C6
100
AcDbEntity
  8
0
100
AcDbBlockBegin
  2
*B10
 70
     0
 10
0.0
 20
0.0
 30
0.0
  3
*B10
  1

  0
LINE
  5
3C7
100
AcDbEntity
  8
0
  6
Continuous
 62
     0
100
AcDbLine
 10
287.025461
 20
115.754786
 30
0.0
 11
287.025461
 21
78.75751
 31
0.0
  0
SOLID
  5
3C8
100
AcDbEntity
  8
0
  6
Continuous
 62
     0
100
AcDbTrace
 10
286.025705
 20
110.755105
 30
0.0
 11
287.025461
 21
105.755424
 31
0.0
 12
288.025517
 22
110.755105
 32
0.0
 13
288.025517
 23
110.755105
 33
0.0
  0
SOLID
  5
3C9
100
AcDbEntity
  8
0
  6
Continuous
 62
     0
100
AcDbTrace
 10
288.025517
 20
83.757191
 30
0.0
 11
287.025461
 21
88.756871
 31
0.0
 12
286.025705
 22
83.757191
 32
0.0
 13
286.025705
 23
83.757191
 33
0.0
  0
ENDBLK
  5
3CA
100
AcDbEntity
  8
0
100
AcDbBlockEnd
  0
BLOCK
  5
3CD
100
AcDbEntity
  8
0
100
AcDbBlockBegin
  2
*B11
 70
     0
 10
0.0
 20
0.0
 30
0.0
  3
*B11
  1

  0
LINE
  5
3CE
100
AcDbEntity
  8
0
  6
Continuous
 62
     0
100
AcDbLine
 10
287.025461
 20
105.755424
 30
0.0
 11
287.025461
 21
125.754147
 31
0.0
  0
SOLID
  5
3CF
100
AcDbEntity
  8
0
  6
Continuous
 62
     0
100
AcDbTrace
 10
286.025705
 20
110.755105
 30
0.0
 11
287.025461
 21
105.755424
 31
0.0
 12
288.025517
 22
110.755105
 32
0.0
 13
288.025517
 23
110.755105
 33
0.0
  0
SOLID
  5
3D0
100
AcDbEntity
  8
0
  6
Continuous
 62
     0
100
AcDbTrace
 10
288.025517
 20
120.754466
 30
0.0
 11
287.025461
 21
125.754147
 31
0.0
 12
286.025705
 22
120.754466
 32
0.0
 13
286.025705
 23
120.754466
 33
0.0
  0
ENDBLK
  5
3D1
100
AcDbEntity
  8
0
100
AcDbBlockEnd
  0
BLOCK
  5
3D4
100
AcDbEntity
  8
0
100
AcDbBlockBegin
  2
*B12
 70
     0
 10
0.0
 20
0.0
 30
0.0
  3
*B12
  1

  0
LINE
  5
3D5
100
AcDbEntity
  8
0
  6
Continuous
 62
     0
100
AcDbLine
 10
287.025461
 20
125.754147
 30
0.0
 11
287.025461
 21
145.752568
 31
0.0
  0
SOLID
  5
3D6
100
AcDbEntity
  8
0
  6
Continuous
 62
     0
100
AcDbTrace
 10
286.025705
 20
130.753827
 30
0.0
 11
287.025461
 21
125.754147
 31
0.0
 12
288.025517
 22
130.753827
 32
0.0
 13
288.025517
 23
130.753827
 33
0.0
  0
SOLID
  5
3D7
100
AcDbEntity
  8
0
  6
Continuous
 62
     0
100
AcDbTrace
 10
288.025517
 20
140.753188
 30
0.0
 11
287.025461
 21
145.752568
 31
0.0
 12
286.025705
 22
140.753188
 32
0.0
 13
286.025705
 23
140.753188
 33
0.0
  0
ENDBLK
  5
3D8
100
AcDbEntity
  8
0
100
AcDbBlockEnd
  0
BLOCK
  5
3DB
100
AcDbEntity
  8
0
100
AcDbBlockBegin
  2
*B13
 70
     0
 10
0.0
 20
0.0
 30
0.0
  3
*B13
  1

  0
LINE
  5
3DC
100
AcDbEntity
  8
0
  6
Continuous
 62
     0
100
AcDbLine
 10
230.724006
 20
148.040771
 30
0.0
 11
262.724004
 21
148.040771
 31
0.0
  0
SOLID
  5
3DD
100
AcDbEntity
  8
0
  6
Continuous
 62
     0
100
AcDbTrace
 10
235.723987
 20
149.040527
 30
0.0
 11
230.724006
 21
148.040771
 31
0.0
 12
235.723987
 22
147.040715
 32
0.0
 13
235.723987
 23
147.040715
 33
0.0
  0
SOLID
  5
3DE
100
AcDbEntity
  8
0
  6
Continuous
 62
     0
100
AcDbTrace
 10
257.724023
 20
147.040715
 30
0.0
 11
262.724004
 21
148.040771
 31
0.0
 12
257.724023
 22
149.040527
 32
0.0
 13
257.724023
 23
149.040527
 33
0.0
  0
ENDBLK
  5
3DF
100
AcDbEntity
  8
0
100
AcDbBlockEnd
  0
BLOCK
  5
3E2
100
AcDbEntity
  8
0
100
AcDbBlockBegin
  2
*B14
 70
     0
 10
0.0
 20
0.0
 30
0.0
  3
*B14
  1

  0
LINE
  5
3E3
100
AcDbEntity
  8
0
  6
Continuous
 62
     0
100
AcDbLine
 10
294.025555
 20
283.926759
 30
0.0
 11
294.025555
 21
210.748115
 31
0.0
  0
SOLID
  5
3E4
100
AcDbEntity
  8
0
  6
Continuous
 62
     0
100
AcDbTrace
 10
293.025498
 20
233.746405
 30
0.0
 11
294.025555
 21
228.746724
 31
0.0
 12
295.025611
 22
233.746405
 32
0.0
 13
295.025611
 23
233.746405
 33
0.0
  0
SOLID
  5
3E5
100
AcDbEntity
  8
0
  6
Continuous
 62
     0
100
AcDbTrace
 10
295.025611
 20
215.747795
 30
0.0
 11
294.025555
 21
220.747175
 31
0.0
 12
293.025498
 22
215.747795
 32
0.0
 13
293.025498
 23
215.747795
 33
0.0
  0
ENDBLK
  5
3E6
100
AcDbEntity
  8
0
100
AcDbBlockEnd
  0
BLOCK
  5
3E9
100
AcDbEntity
  8
0
100
AcDbBlockBegin
  2
*B15
 70
     0
 10
0.0
 20
0.0
 30
0.0
  3
*B15
  1

  0
LINE
  5
3EA
100
AcDbEntity
  8
0
  6
Continuous
 62
     0
100
AcDbLine
 10
306.025629
 20
280.676951
 30
0.0
 11
306.025629
 21
206.74819
 31
0.0
  0
SOLID
  5
3EB
100
AcDbEntity
  8
0
  6
Continuous
 62
     0
100
AcDbTrace
 10
305.025573
 20
225.746856
 30
0.0
 11
306.025629
 21
220.747175
 31
0.0
 12
307.025685
 22
225.746856
 32
0.0
 13
307.025685
 23
225.746856
 33
0.0
  0
SOLID
  5
3EC
100
AcDbEntity
  8
0
  6
Continuous
 62
     0
100
AcDbTrace
 10
307.025685
 20
211.74787
 30
0.0
 11
306.025629
 21
216.747551
 31
0.0
 12
305.025573
 22
211.74787
 32
0.0
 13
305.025573
 23
211.74787
 33
0.0
  0
ENDBLK
  5
3ED
100
AcDbEntity
  8
0
100
AcDbBlockEnd
  0
BLOCK
  5
3F0
100
AcDbEntity
  8
0
100
AcDbBlockBegin
  2
*B16
 70
     0
 10
0.0
 20
0.0
 30
0.0
  3
*B16
  1

  0
LINE
  5
3F1
100
AcDbEntity
  8
0
  6
Continuous
 62
     0
100
AcDbLine
 10
316.025591
 20
228.746724
 30
0.0
 11
316.025591
 21
159.751554
 31
0.0
  0
SOLID
  5
3F2
100
AcDbEntity
  8
0
  6
Continuous
 62
     0
100
AcDbTrace
 10
317.025647
 20
223.747044
 30
0.0
 11
316.025591
 21
228.746724
 31
0.0
 12
315.025535
 22
223.747044
 32
0.0
 13
315.025535
 23
223.747044
 33
0.0
  0
SOLID
  5
3F3
100
AcDbEntity
  8
0
  6
Continuous
 62
     0
100
AcDbTrace
 10
315.025535
 20
164.751234
 30
0.0
 11
316.025591
 21
159.751554
 31
0.0
 12
317.025647
 22
164.751234
 32
0.0
 13
317.025647
 23
164.751234
 33
0.0
  0
ENDBLK
  5
3F4
100
AcDbEntity
  8
0
100
AcDbBlockEnd
  0
BLOCK
  5
3F7
100
AcDbEntity
  8
0
100
AcDbBlockBegin
  2
*B17
 70
     0
 10
0.0
 20
0.0
 30
0.0
  3
*B17
  1

  0
LINE
  5
3F8
100
AcDbEntity
  8
0
  6
Continuous
 62
     0
100
AcDbLine
 10
134.579215
 20
147.019987
 30
0.0
 11
134.579215
 21
111.55509
 31
0.0
  0
SOLID
  5
3F9
100
AcDbEntity
  8
0
  6
Continuous
 62
     0
100
AcDbTrace
 10
133.579459
 20
134.953523
 30
0.0
 11
134.579215
 21
129.953842
 31
0.0
 12
135.579271
 22
134.953523
 32
0.0
 13
135.579271
 23
134.953523
 33
0.0
  0
SOLID
  5
3FA
100
AcDbEntity
  8
0
  6
Continuous
 62
     0
100
AcDbTrace
 10
135.579271
 20
116.55477
 30
0.0
 11
134.579215
 21
121.554451
 31
0.0
 12
133.579459
 22
116.55477
 32
0.0
 13
133.579459
 23
116.55477
 33
0.0
  0
ENDBLK
  5
3FB
100
AcDbEntity
  8
0
100
AcDbBlockEnd
  0
BLOCK
  5
3FE
100
AcDbEntity
  8
0
100
AcDbBlockBegin
  2
*B18
 70
     0
 10
0.0
 20
0.0
 30
0.0
  3
*B18
  1

  0
LINE
  5
3FF
100
AcDbEntity
  8
0
  6
Continuous
 62
     0
100
AcDbLine
 10
146.723485
 20
68.046484
 30
0.0
 11
176.723671
 21
68.046484
 31
0.0
  0
SOLID
  5
400
100
AcDbEntity
  8
0
  6
Continuous
 62
     0
100
AcDbTrace
 10
151.723466
 20
69.04624
 30
0.0
 11
146.723485
 21
68.046484
 31
0.0
 12
151.723466
 22
67.046428
 32
0.0
 13
151.723466
 23
67.046428
 33
0.0
  0
SOLID
  5
401
100
AcDbEntity
  8
0
  6
Continuous
 62
     0
100
AcDbTrace
 10
171.72369
 20
67.046428
 30
0.0
 11
176.723671
 21
68.046484
 31
0.0
 12
171.72369
 22
69.04624
 32
0.0
 13
171.72369
 23
69.04624
 33
0.0
  0
ENDBLK
  5
402
100
AcDbEntity
  8
0
100
AcDbBlockEnd
  0
BLOCK
  5
405
100
AcDbEntity
  8
0
100
AcDbBlockBegin
  2
*B19
 70
     0
 10
0.0
 20
0.0
 30
0.0
  3
*B19
  1

  0
LINE
  5
406
100
AcDbEntity
  8
0
  6
Continuous
 62
     0
100
AcDbLine
 10
271.723909
 20
68.046484
 30
0.0
 11
221.7241
 21
68.046484
 31
0.0
  0
SOLID
  5
407
100
AcDbEntity
  8
0
  6
Continuous
 62
     0
100
AcDbTrace
 10
266.723928
 20
67.046428
 30
0.0
 11
271.723909
 21
68.046484
 31
0.0
 12
266.723928
 22
69.04624
 32
0.0
 13
266.723928
 23
69.04624
 33
0.0
  0
SOLID
  5
408
100
AcDbEntity
  8
0
  6
Continuous
 62
     0
100
AcDbTrace
 10
226.724081
 20
69.04624
 30
0.0
 11
221.7241
 21
68.046484
 31
0.0
 12
226.724081
 22
67.046428
 32
0.0
 13
226.724081
 23
67.046428
 33
0.0
  0
ENDBLK
  5
409
100
AcDbEntity
  8
0
100
AcDbBlockEnd
  0
BLOCK
  5
40C
100
AcDbEntity
  8
0
100
AcDbBlockBegin
  2
*B20
 70
     0
 10
0.0
 20
0.0
 30
0.0
  3
*B20
  1

  0
LINE
  5
40D
100
AcDbEntity
  8
0
  6
Continuous
 62
     0
100
AcDbLine
 10
147.223663
 20
239.034176
 30
0.0
 11
176.223493
 21
239.034176
 31
0.0
  0
SOLID
  5
40E
100
AcDbEntity
  8
0
  6
Continuous
 62
     0
100
AcDbTrace
 10
152.223644
 20
238.03412
 30
0.0
 11
157.223625
 21
239.034176
 31
0.0
 12
152.223644
 22
240.033932
 32
0.0
 13
152.223644
 23
240.033932
 33
0.0
  0
SOLID
  5
40F
100
AcDbEntity
  8
0
  6
Continuous
 62
     0
100
AcDbTrace
 10
171.223512
 20
240.033932
 30
0.0
 11
166.223531
 21
239.034176
 31
0.0
 12
171.223512
 22
238.03412
 32
0.0
 13
171.223512
 23
238.03412
 33
0.0
  0
ENDBLK
  5
410
100
AcDbEntity
  8
0
100
AcDbBlockEnd
  0
BLOCK
  5
413
100
AcDbEntity
  8
0
100
AcDbBlockBegin
  2
*B21
 70
     0
 10
0.0
 20
0.0
 30
0.0
  3
*B21
  1

  0
LINE
  5
414
100
AcDbEntity
  8
0
  6
Continuous
 62
     0
100
AcDbLine
 10
209.025578
 20
187.967019
 30
0.0
 11
209.025578
 21
145.25269
 31
0.0
  0
SOLID
  5
415
100
AcDbEntity
  8
0
  6
Continuous
 62
     0
100
AcDbTrace
 10
208.025522
 20
169.251037
 30
0.0
 11
209.025578
 21
164.251356
 31
0.0
 12
210.025635
 22
169.251037
 32
0.0
 13
210.025635
 23
169.251037
 33
0.0
  0
SOLID
  5
416
100
AcDbEntity
  8
0
  6
Continuous
 62
     0
100
AcDbTrace
 10
210.025635
 20
150.252371
 30
0.0
 11
209.025578
 21
155.252051
 31
0.0
 12
208.025522
 22
150.252371
 32
0.0
 13
208.025522
 23
150.252371
 33
0.0
  0
ENDBLK
  5
417
100
AcDbEntity
  8
0
100
AcDbBlockEnd
  0
BLOCK
  5
41A
100
AcDbEntity
  8
0
100
AcDbBlockBegin
  2
*B22
 70
     0
 10
0.0
 20
0.0
 30
0.0
  3
*B22
  1

  0
LINE
  5
41B
100
AcDbEntity
  8
0
  6
Continuous
 62
     8
100
AcDbLine
 10
221.7241
 20
66.046672
 30
0.0
 11
221.7241
 21
86.757059
 31
0.0
  0
LINE
  5
41C
100
AcDbEntity
  8
0
  6
Continuous
 62
     8
100
AcDbLine
 10
221.7241
 20
198.748941
 30
0.0
 11
221.7241
 21
254.032917
 31
0.0
  0
ENDBLK
  5
41D
100
AcDbEntity
  8
0
100
AcDbBlockEnd
  0
BLOCK
  5
420
100
AcDbEntity
  8
0
100
AcDbBlockBegin
  2
*B23
 70
     0
 10
0.0
 20
0.0
 30
0.0
  3
*B23
  1

  0
LINE
  5
421
100
AcDbEntity
  8
0
  6
Continuous
 62
     8
100
AcDbLine
 10
271.723909
 20
66.046672
 30
0.0
 11
271.723909
 21
86.757059
 31
0.0
  0
ENDBLK
  5
422
100
AcDbEntity
  8
0
100
AcDbBlockEnd
  0
BLOCK
  5
425
100
AcDbEntity
  8
0
100
AcDbBlockBegin
  2
*B24
 70
     0
 10
0.0
 20
0.0
 30
0.0
  3
*B24
  1

  0
LINE
  5
426
100
AcDbEntity
  8
0
  6
Continuous
 62
     8
100
AcDbLine
 10
132.579403
 20
121.554451
 30
0.0
 11
159.723616
 21
121.554451
 31
0.0
  0
ENDBLK
  5
427
100
AcDbEntity
  8
0
100
AcDbBlockEnd
  0
BLOCK
  5
42A
100
AcDbEntity
  8
0
100
AcDbBlockBegin
  2
*B25
 70
     0
 10
0.0
 20
0.0
 30
0.0
  3
*B25
  1

  0
LINE
  5
42B
100
AcDbEntity
  8
0
  6
Continuous
 62
     8
100
AcDbLine
 10
230.724006
 20
146.040959
 30
0.0
 11
230.724006
 21
156.751986
 31
0.0
  0
LINE
  5
42C
100
AcDbEntity
  8
0
  6
Continuous
 62
     8
100
AcDbLine
 10
230.724006
 20
162.751422
 30
0.0
 11
230.724006
 21
171.250849
 31
0.0
  0
ENDBLK
  5
42D
100
AcDbEntity
  8
0
100
AcDbBlockEnd
  0
BLOCK
  5
430
100
AcDbEntity
  8
0
100
AcDbBlockBegin
  2
*B26
 70
     0
 10
0.0
 20
0.0
 30
0.0
  3
*B26
  1

  0
LINE
  5
431
100
AcDbEntity
  8
0
  6
Continuous
 62
     8
100
AcDbLine
 10
153.623543
 20
218.823967
 30
0.0
 11
169.823613
 21
218.823967
 31
0.0
  0
ENDBLK
  5
432
100
AcDbEntity
  8
0
100
AcDbBlockEnd
  0
BLOCK
  5
435
100
AcDbEntity
  8
0
100
AcDbBlockBegin
  2
*B27
 70
     0
 10
0.0
 20
0.0
 30
0.0
  3
*B27
  1

  0
LINE
  5
436
100
AcDbEntity
  8
0
  6
Continuous
 62
     8
100
AcDbLine
 10
249.421363
 20
218.823967
 30
0.0
 11
260.421381
 21
218.823967
 31
0.0
  0
LINE
  5
437
100
AcDbEntity
  8
0
  6
Continuous
 62
     8
100
AcDbLine
 10
266.421418
 20
218.823967
 30
0.0
 11
277.421436
 21
218.823967
 31
0.0
  0
ENDBLK
  5
438
100
AcDbEntity
  8
0
100
AcDbBlockEnd
  0
BLOCK
  5
43B
100
AcDbEntity
  8
0
100
AcDbBlockBegin
  2
*B28
 70
     0
 10
0.0
 20
0.0
 30
0.0
  3
*B28
  1

  0
LINE
  5
43C
100
AcDbEntity
  8
0
  6
Continuous
 62
     8
100
AcDbLine
 10
132.579403
 20
129.953842
 30
0.0
 11
159.723616
 21
129.953842
 31
0.0
  0
ENDBLK
  5
43D
100
AcDbEntity
  8
0
100
AcDbBlockEnd
  0
BLOCK
  5
440
100
AcDbEntity
  8
0
100
AcDbBlockBegin
  2
*B29
 70
     0
 10
0.0
 20
0.0
 30
0.0
  3
*B29
  1

  0
LINE
  5
441
100
AcDbEntity
  8
0
  6
Continuous
 62
     8
100
AcDbLine
 10
279.083891
 20
220.747175
 30
0.0
 11
308.025441
 21
220.747175
 31
0.0
  0
ENDBLK
  5
442
100
AcDbEntity
  8
0
100
AcDbBlockEnd
  0
BLOCK
  5
445
100
AcDbEntity
  8
0
100
AcDbBlockBegin
  2
*B30
 70
     0
 10
0.0
 20
0.0
 30
0.0
  3
*B30
  1

  0
LINE
  5
446
100
AcDbEntity
  8
0
  6
Continuous
 62
     8
100
AcDbLine
 10
142.72356
 20
159.751554
 30
0.0
 11
152.056918
 21
159.751554
 31
0.0
  0
LINE
  5
447
100
AcDbEntity
  8
0
  6
Continuous
 62
     8
100
AcDbLine
 10
154.057031
 20
159.751554
 30
0.0
 11
155.056787
 21
159.751554
 31
0.0
  0
LINE
  5
448
100
AcDbEntity
  8
0
  6
Continuous
 62
     8
100
AcDbLine
 10
157.056899
 20
159.751554
 30
0.0
 11
166.390257
 21
159.751554
 31
0.0
  0
LINE
  5
449
100
AcDbEntity
  8
0
  6
Continuous
 62
     8
100
AcDbLine
 10
168.390369
 20
159.751554
 30
0.0
 11
169.390125
 21
159.751554
 31
0.0
  0
LINE
  5
44A
100
AcDbEntity
  8
0
  6
Continuous
 62
     8
100
AcDbLine
 10
171.390238
 20
159.751554
 30
0.0
 11
180.723596
 21
159.751554
 31
0.0
  0
ENDBLK
  5
44B
100
AcDbEntity
  8
0
100
AcDbBlockEnd
  0
BLOCK
  5
44E
100
AcDbEntity
  8
0
100
AcDbBlockBegin
  2
*B31
 70
     0
 10
0.0
 20
0.0
 30
0.0
  3
*B31
  1

  0
LINE
  5
44F
100
AcDbEntity
  8
0
  6
Continuous
 62
     8
100
AcDbLine
 10
219.22411
 20
159.751554
 30
0.0
 11
227.723837
 21
159.751554
 31
0.0
  0
LINE
  5
450
100
AcDbEntity
  8
0
  6
Continuous
 62
     8
100
AcDbLine
 10
233.723874
 20
159.751554
 30
0.0
 11
242.223902
 21
159.751554
 31
0.0
  0
ENDBLK
  5
451
100
AcDbEntity
  8
0
100
AcDbBlockEnd
  0
BLOCK
  5
454
100
AcDbEntity
  8
0
100
AcDbBlockBegin
  2
*B32
 70
     0
 10
0.0
 20
0.0
 30
0.0
  3
*B32
  1

  0
LINE
  5
455
100
AcDbEntity
  8
0
  6
Continuous
 62
     8
100
AcDbLine
 10
314.025478
 20
159.751554
 30
0.0
 11
318.025703
 21
159.751554
 31
0.0
  0
LINE
  5
456
100
AcDbEntity
  8
0
  6
Continuous
 62
     8
100
AcDbLine
 10
251.224108
 20
159.751554
 30
0.0
 11
259.723835
 21
159.751554
 31
0.0
  0
LINE
  5
457
100
AcDbEntity
  8
0
  6
Continuous
 62
     8
100
AcDbLine
 10
265.723872
 20
159.751554
 30
0.0
 11
274.049363
 21
159.751554
 31
0.0
  0
LINE
  5
458
100
AcDbEntity
  8
0
  6
Continuous
 62
     8
100
AcDbLine
 10
276.049476
 20
159.751554
 30
0.0
 11
277.049232
 21
159.751554
 31
0.0
  0
LINE
  5
459
100
AcDbEntity
  8
0
  6
Continuous
 62
     8
100
AcDbLine
 10
279.049344
 20
159.751554
 30
0.0
 11
287.374835
 21
159.751554
 31
0.0
  0
LINE
  5
45A
100
AcDbEntity
  8
0
  6
Continuous
 62
     8
100
AcDbLine
 10
289.374647
 20
159.751554
 30
0.0
 11
290.374703
 21
159.751554
 31
0.0
  0
LINE
  5
45B
100
AcDbEntity
  8
0
  6
Continuous
 62
     8
100
AcDbLine
 10
292.374816
 20
159.751554
 30
0.0
 11
300.700307
 21
159.751554
 31
0.0
  0
LINE
  5
45C
100
AcDbEntity
  8
0
  6
Continuous
 62
     8
100
AcDbLine
 10
302.700119
 20
159.751554
 30
0.0
 11
303.700175
 21
159.751554
 31
0.0
  0
LINE
  5
45D
100
AcDbEntity
  8
0
  6
Continuous
 62
     8
100
AcDbLine
 10
305.700288
 20
159.751554
 30
0.0
 11
314.025478
 21
159.751554
 31
0.0
  0
ENDBLK
  5
45E
100
AcDbEntity
  8
0
100
AcDbBlockEnd
  0
BLOCK
  5
461
100
AcDbEntity
  8
0
100
AcDbBlockBegin
  2
*B33
 70
     0
 10
0.0
 20
0.0
 30
0.0
  3
*B33
  1

  0
LINE
  5
462
100
AcDbEntity
  8
0
  6
Continuous
 62
     8
100
AcDbLine
 10
259.927511
 20
200.151544
 30
0.0
 11
263.927436
 21
200.151544
 31
0.0
  0
LINE
  5
463
100
AcDbEntity
  8
0
  6
Continuous
 62
     8
100
AcDbLine
 10
269.927473
 20
200.151544
 30
0.0
 11
273.927398
 21
200.151544
 31
0.0
  0
ENDBLK
  5
464
100
AcDbEntity
  8
0
100
AcDbBlockEnd
  0
BLOCK
  5
467
100
AcDbEntity
  8
0
100
AcDbBlockBegin
  2
*B34
 70
     0
 10
0.0
 20
0.0
 30
0.0
  3
*B34
  1

  0
LINE
  5
468
100
AcDbEntity
  8
0
  6
Continuous
 62
     8
100
AcDbLine
 10
192.025523
 20
88.756871
 30
0.0
 11
219.723988
 21
88.756871
 31
0.0
  0
LINE
  5
469
100
AcDbEntity
  8
0
  6
Continuous
 62
     8
100
AcDbLine
 10
273.724022
 20
88.756871
 30
0.0
 11
318.025703
 21
88.756871
 31
0.0
  0
ENDBLK
  5
46A
100
AcDbEntity
  8
0
100
AcDbBlockEnd
  0
BLOCK
  5
46D
100
AcDbEntity
  8
0
100
AcDbBlockBegin
  2
*B35
 70
     0
 10
0.0
 20
0.0
 30
0.0
  3
*B35
  1

  0
LINE
  5
46E
100
AcDbEntity
  8
0
  6
Continuous
 62
     8
100
AcDbLine
 10
279.523988
 20
216.747551
 30
0.0
 11
308.025441
 21
216.747551
 31
0.0
  0
ENDBLK
  5
46F
100
AcDbEntity
  8
0
100
AcDbBlockEnd
  0
BLOCK
  5
472
100
AcDbEntity
  8
0
100
AcDbBlockBegin
  2
*B36
 70
     0
 10
0.0
 20
0.0
 30
0.0
  3
*B36
  1

  0
LINE
  5
473
100
AcDbEntity
  8
0
  6
Continuous
 62
     8
100
AcDbLine
 10
153.523507
 20
145.752568
 30
0.0
 11
158.723559
 21
145.752568
 31
0.0
  0
LINE
  5
474
100
AcDbEntity
  8
0
  6
Continuous
 62
     8
100
AcDbLine
 10
164.723597
 20
145.752568
 30
0.0
 11
169.923649
 21
145.752568
 31
0.0
  0
ENDBLK
  5
475
100
AcDbEntity
  8
0
100
AcDbBlockEnd
  0
BLOCK
  5
478
100
AcDbEntity
  8
0
100
AcDbBlockBegin
  2
*B37
 70
     0
 10
0.0
 20
0.0
 30
0.0
  3
*B37
  1

  0
LINE
  5
479
100
AcDbEntity
  8
0
  6
Continuous
 62
     8
100
AcDbLine
 10
207.025766
 20
115.754786
 30
0.0
 11
211.025691
 21
115.754786
 31
0.0
  0
LINE
  5
47A
100
AcDbEntity
  8
0
  6
Continuous
 62
     8
100
AcDbLine
 10
211.025691
 20
115.754786
 30
0.0
 11
223.374839
 21
115.754786
 31
0.0
  0
LINE
  5
47B
100
AcDbEntity
  8
0
  6
Continuous
 62
     8
100
AcDbLine
 10
225.374651
 20
115.754786
 30
0.0
 11
226.374707
 21
115.754786
 31
0.0
  0
LINE
  5
47C
100
AcDbEntity
  8
0
  6
Continuous
 62
     8
100
AcDbLine
 10
228.37482
 20
115.754786
 30
0.0
 11
240.723968
 21
115.754786
 31
0.0
  0
ENDBLK
  5
47D
100
AcDbEntity
  8
0
100
AcDbBlockEnd
  0
BLOCK
  5
480
100
AcDbEntity
  8
0
100
AcDbBlockBegin
  2
*B38
 70
     0
 10
0.0
 20
0.0
 30
0.0
  3
*B38
  1

  0
LINE
  5
481
100
AcDbEntity
  8
0
  6
Continuous
 62
     8
100
AcDbLine
 10
153.523507
 20
125.754147
 30
0.0
 11
158.723559
 21
125.754147
 31
0.0
  0
LINE
  5
482
100
AcDbEntity
  8
0
  6
Continuous
 62
     8
100
AcDbLine
 10
164.723597
 20
125.754147
 30
0.0
 11
169.923649
 21
125.754147
 31
0.0
  0
ENDBLK
  5
483
100
AcDbEntity
  8
0
100
AcDbBlockEnd
  0
BLOCK
  5
486
100
AcDbEntity
  8
0
100
AcDbBlockBegin
  2
*B39
 70
     0
 10
0.0
 20
0.0
 30
0.0
  3
*B39
  1

  0
LINE
  5
487
100
AcDbEntity
  8
0
  6
Continuous
 62
     8
100
AcDbLine
 10
285.025649
 20
125.754147
 30
0.0
 11
289.025574
 21
125.754147
 31
0.0
  0
LINE
  5
488
100
AcDbEntity
  8
0
  6
Continuous
 62
     8
100
AcDbLine
 10
252.724042
 20
125.754147
 30
0.0
 11
266.374855
 21
125.754147
 31
0.0
  0
LINE
  5
489
100
AcDbEntity
  8
0
  6
Continuous
 62
     8
100
AcDbLine
 10
268.374667
 20
125.754147
 30
0.0
 11
269.374723
 21
125.754147
 31
0.0
  0
LINE
  5
48A
100
AcDbEntity
  8
0
  6
Continuous
 62
     8
100
AcDbLine
 10
271.374836
 20
125.754147
 30
0.0
 11
285.025649
 21
125.754147
 31
0.0
  0
ENDBLK
  5
48B
100
AcDbEntity
  8
0
100
AcDbBlockEnd
  0
BLOCK
  5
48E
100
AcDbEntity
  8
0
100
AcDbBlockBegin
  2
*B40
 70
     0
 10
0.0
 20
0.0
 30
0.0
  3
*B40
  1

  0
LINE
  5
48F
100
AcDbEntity
  8
0
  6
Continuous
 62
     8
100
AcDbLine
 10
285.025649
 20
145.752568
 30
0.0
 11
289.025574
 21
145.752568
 31
0.0
  0
LINE
  5
490
100
AcDbEntity
  8
0
  6
Continuous
 62
     8
100
AcDbLine
 10
252.724042
 20
145.752568
 30
0.0
 11
266.374855
 21
145.752568
 31
0.0
  0
LINE
  5
491
100
AcDbEntity
  8
0
  6
Continuous
 62
     8
100
AcDbLine
 10
268.374667
 20
145.752568
 30
0.0
 11
269.374723
 21
145.752568
 31
0.0
  0
LINE
  5
492
100
AcDbEntity
  8
0
  6
Continuous
 62
     8
100
AcDbLine
 10
271.374836
 20
145.752568
 30
0.0
 11
285.025649
 21
145.752568
 31
0.0
  0
ENDBLK
  5
493
100
AcDbEntity
  8
0
100
AcDbBlockEnd
  0
BLOCK
  5
496
100
AcDbEntity
  8
0
100
AcDbBlockBegin
  2
*B41
 70
     0
 10
0.0
 20
0.0
 30
0.0
  3
*B41
  1

  0
LINE
  5
497
100
AcDbEntity
  8
0
  6
Continuous
 62
     8
100
AcDbLine
 10
263.421249
 20
250.033293
 30
0.0
 11
263.421249
 21
254.032917
 31
0.0
  0
LINE
  5
498
100
AcDbEntity
  8
0
  6
Continuous
 62
     8
100
AcDbLine
 10
263.421249
 20
204.824982
 30
0.0
 11
263.421249
 21
215.824099
 31
0.0
  0
LINE
  5
499
100
AcDbEntity
  8
0
  6
Continuous
 62
     8
100
AcDbLine
 10
263.421249
 20
221.823535
 30
0.0
 11
263.421249
 21
233.428574
 31
0.0
  0
LINE
  5
49A
100
AcDbEntity
  8
0
  6
Continuous
 62
     8
100
AcDbLine
 10
263.421249
 20
235.428386
 30
0.0
 11
263.421249
 21
236.428442
 31
0.0
  0
LINE
  5
49B
100
AcDbEntity
  8
0
  6
Continuous
 62
     8
100
AcDbLine
 10
263.421249
 20
238.428254
 30
0.0
 11
263.421249
 21
250.033293
 31
0.0
  0
ENDBLK
  5
49C
100
AcDbEntity
  8
0
100
AcDbBlockEnd
  0
BLOCK
  5
49F
100
AcDbEntity
  8
0
100
AcDbBlockBegin
  2
*B42
 70
     0
 10
0.0
 20
0.0
 30
0.0
  3
*B42
  1

  0
LINE
  5
4A0
100
AcDbEntity
  8
0
  6
Continuous
 62
     8
100
AcDbLine
 10
157.223625
 20
230.420294
 30
0.0
 11
157.223625
 21
241.033988
 31
0.0
  0
ENDBLK
  5
4A1
100
AcDbEntity
  8
0
100
AcDbBlockEnd
  0
BLOCK
  5
4A4
100
AcDbEntity
  8
0
100
AcDbBlockBegin
  2
*B43
 70
     0
 10
0.0
 20
0.0
 30
0.0
  3
*B43
  1

  0
LINE
  5
4A5
100
AcDbEntity
  8
0
  6
Continuous
 62
     8
100
AcDbLine
 10
246.724005
 20
84.756947
 30
0.0
 11
246.724005
 21
93.200798
 31
0.0
  0
LINE
  5
4A6
100
AcDbEntity
  8
0
  6
Continuous
 62
     8
100
AcDbLine
 10
246.724005
 20
95.200911
 30
0.0
 11
246.724005
 21
96.200666
 31
0.0
  0
LINE
  5
4A7
100
AcDbEntity
  8
0
  6
Continuous
 62
     8
100
AcDbLine
 10
246.724005
 20
98.200479
 30
0.0
 11
246.724005
 21
106.64433
 31
0.0
  0
LINE
  5
4A8
100
AcDbEntity
  8
0
  6
Continuous
 62
     8
100
AcDbLine
 10
246.724005
 20
108.644142
 30
0.0
 11
246.724005
 21
109.644198
 31
0.0
  0
LINE
  5
4A9
100
AcDbEntity
  8
0
  6
Continuous
 62
     8
100
AcDbLine
 10
246.724005
 20
111.644011
 30
0.0
 11
246.724005
 21
120.087862
 31
0.0
  0
LINE
  5
4AA
100
AcDbEntity
  8
0
  6
Continuous
 62
     8
100
AcDbLine
 10
246.724005
 20
122.087674
 30
0.0
 11
246.724005
 21
123.08773
 31
0.0
  0
LINE
  5
4AB
100
AcDbEntity
  8
0
  6
Continuous
 62
     8
100
AcDbLine
 10
246.724005
 20
125.087543
 30
0.0
 11
246.724005
 21
133.531394
 31
0.0
  0
LINE
  5
4AC
100
AcDbEntity
  8
0
  6
Continuous
 62
     8
100
AcDbLine
 10
246.724005
 20
135.531206
 30
0.0
 11
246.724005
 21
136.531262
 31
0.0
  0
LINE
  5
4AD
100
AcDbEntity
  8
0
  6
Continuous
 62
     8
100
AcDbLine
 10
246.724005
 20
138.531075
 30
0.0
 11
246.724005
 21
146.974926
 31
0.0
  0
LINE
  5
4AE
100
AcDbEntity
  8
0
  6
Continuous
 62
     8
100
AcDbLine
 10
246.724005
 20
148.974738
 30
0.0
 11
246.724005
 21
149.974494
 31
0.0
  0
LINE
  5
4AF
100
AcDbEntity
  8
0
  6
Continuous
 62
     8
100
AcDbLine
 10
246.724005
 20
151.974306
 30
0.0
 11
246.724005
 21
160.418158
 31
0.0
  0
LINE
  5
4B0
100
AcDbEntity
  8
0
  6
Continuous
 62
     8
100
AcDbLine
 10
246.724005
 20
162.41827
 30
0.0
 11
246.724005
 21
163.418026
 31
0.0
  0
LINE
  5
4B1
100
AcDbEntity
  8
0
  6
Continuous
 62
     8
100
AcDbLine
 10
246.724005
 20
165.417838
 30
0.0
 11
246.724005
 21
173.86169
 31
0.0
  0
LINE
  5
4B2
100
AcDbEntity
  8
0
  6
Continuous
 62
     8
100
AcDbLine
 10
246.724005
 20
175.861502
 30
0.0
 11
246.724005
 21
176.861558
 31
0.0
  0
LINE
  5
4B3
100
AcDbEntity
  8
0
  6
Continuous
 62
     8
100
AcDbLine
 10
246.724005
 20
178.86137
 30
0.0
 11
246.724005
 21
187.305222
 31
0.0
  0
LINE
  5
4B4
100
AcDbEntity
  8
0
  6
Continuous
 62
     8
100
AcDbLine
 10
246.724005
 20
189.305034
 30
0.0
 11
246.724005
 21
190.30509
 31
0.0
  0
LINE
  5
4B5
100
AcDbEntity
  8
0
  6
Continuous
 62
     8
100
AcDbLine
 10
246.724005
 20
192.304902
 30
0.0
 11
246.724005
 21
200.748754
 31
0.0
  0
ENDBLK
  5
4B6
100
AcDbEntity
  8
0
100
AcDbBlockEnd
  0
BLOCK
  5
4B9
100
AcDbEntity
  8
0
100
AcDbBlockBegin
  2
*B44
 70
     0
 10
0.0
 20
0.0
 30
0.0
  3
*B44
  1

  0
LINE
  5
4BA
100
AcDbEntity
  8
0
  6
Continuous
 62
     8
100
AcDbLine
 10
221.7241
 20
187.049575
 30
0.0
 11
225.724025
 21
187.049575
 31
0.0
  0
LINE
  5
4BB
100
AcDbEntity
  8
0
  6
Continuous
 62
     8
100
AcDbLine
 10
231.724062
 20
187.049575
 30
0.0
 11
235.723987
 21
187.049575
 31
0.0
  0
ENDBLK
  5
4BC
100
AcDbEntity
  8
0
100
AcDbBlockEnd
  0
BLOCK
  5
4BF
100
AcDbEntity
  8
0
100
AcDbBlockBegin
  2
*B45
 70
     0
 10
0.0
 20
0.0
 30
0.0
  3
*B45
  1

  0
LINE
  5
4C0
100
AcDbEntity
  8
0
  6
Continuous
 62
     8
100
AcDbLine
 10
253.421288
 20
220.823779
 30
0.0
 11
253.421288
 21
237.034364
 31
0.0
  0
ENDBLK
  5
4C1
100
AcDbEntity
  8
0
100
AcDbBlockEnd
  0
BLOCK
  5
4C4
100
AcDbEntity
  8
0
100
AcDbBlockBegin
  2
*B46
 70
     0
 10
0.0
 20
0.0
 30
0.0
  3
*B46
  1

  0
LINE
  5
4C5
100
AcDbEntity
  8
0
  6
Continuous
 62
     8
100
AcDbLine
 10
228.723893
 20
180.050082
 30
0.0
 11
228.723893
 21
184.050007
 31
0.0
  0
LINE
  5
4C6
100
AcDbEntity
  8
0
  6
Continuous
 62
     8
100
AcDbLine
 10
228.723893
 20
190.049443
 30
0.0
 11
228.723893
 21
194.049067
 31
0.0
  0
ENDBLK
  5
4C7
100
AcDbEntity
  8
0
100
AcDbBlockEnd
  0
BLOCK
  5
4CA
100
AcDbEntity
  8
0
100
AcDbBlockBegin
  2
*B47
 70
     0
 10
0.0
 20
0.0
 30
0.0
  3
*B47
  1

  0
LINE
  5
4CB
100
AcDbEntity
  8
0
  6
Continuous
 62
     8
100
AcDbLine
 10
146.723485
 20
66.046672
 30
0.0
 11
146.723485
 21
86.757059
 31
0.0
  0
ENDBLK
  5
4CC
100
AcDbEntity
  8
0
100
AcDbBlockEnd
  0
BLOCK
  5
4CF
100
AcDbEntity
  8
0
100
AcDbBlockBegin
  2
*B48
 70
     0
 10
0.0
 20
0.0
 30
0.0
  3
*B48
  1

  0
LINE
  5
4D0
100
AcDbEntity
  8
0
  6
Continuous
 62
     8
100
AcDbLine
 10
265.524101
 20
228.746724
 30
0.0
 11
318.025703
 21
228.746724
 31
0.0
  0
ENDBLK
  5
4D1
100
AcDbEntity
  8
0
100
AcDbBlockEnd
  0
BLOCK
  5
4D4
100
AcDbEntity
  8
0
100
AcDbBlockBegin
  2
*B49
 70
     0
 10
0.0
 20
0.0
 30
0.0
  3
*B49
  1

  0
LINE
  5
4D5
100
AcDbEntity
  8
0
  6
Continuous
 62
     8
100
AcDbLine
 10
176.723671
 20
66.046672
 30
0.0
 11
176.723671
 21
86.757059
 31
0.0
  0
ENDBLK
  5
4D6
100
AcDbEntity
  8
0
100
AcDbBlockEnd
  0
BLOCK
  5
4D9
100
AcDbEntity
  8
0
100
AcDbBlockBegin
  2
*B50
 70
     0
 10
0.0
 20
0.0
 30
0.0
  3
*B50
  1

  0
LINE
  5
4DA
100
AcDbEntity
  8
0
  6
Continuous
 62
     8
100
AcDbLine
 10
207.025766
 20
164.251356
 30
0.0
 11
228.723893
 21
164.251356
 31
0.0
  0
ENDBLK
  5
4DB
100
AcDbEntity
  8
0
100
AcDbBlockEnd
  0
BLOCK
  5
4DE
100
AcDbEntity
  8
0
100
AcDbBlockBegin
  2
*B51
 70
     0
 10
0.0
 20
0.0
 30
0.0
  3
*B51
  1

  0
LINE
  5
4DF
100
AcDbEntity
  8
0
  6
Continuous
 62
     8
100
AcDbLine
 10
273.421512
 20
220.823779
 30
0.0
 11
273.421512
 21
237.034364
 31
0.0
  0
ENDBLK
  5
4E0
100
AcDbEntity
  8
0
100
AcDbBlockEnd
  0
BLOCK
  5
4E3
100
AcDbEntity
  8
0
100
AcDbBlockBegin
  2
*B52
 70
     0
 10
0.0
 20
0.0
 30
0.0
  3
*B52
  1

  0
LINE
  5
4E4
100
AcDbEntity
  8
0
  6
Continuous
 62
     8
100
AcDbLine
 10
262.724004
 20
146.040959
 30
0.0
 11
262.724004
 21
156.751986
 31
0.0
  0
LINE
  5
4E5
100
AcDbEntity
  8
0
  6
Continuous
 62
     8
100
AcDbLine
 10
262.724004
 20
162.751422
 30
0.0
 11
262.724004
 21
171.250849
 31
0.0
  0
ENDBLK
  5
4E6
100
AcDbEntity
  8
0
100
AcDbBlockEnd
  0
BLOCK
  5
4E9
100
AcDbEntity
  8
0
100
AcDbBlockBegin
  2
*B53
 70
     0
 10
0.0
 20
0.0
 30
0.0
  3
*B53
  1

  0
LINE
  5
4EA
100
AcDbEntity
  8
0
  6
Continuous
 62
     8
100
AcDbLine
 10
207.025766
 20
135.753508
 30
0.0
 11
211.025691
 21
135.753508
 31
0.0
  0
LINE
  5
4EB
100
AcDbEntity
  8
0
  6
Continuous
 62
     8
100
AcDbLine
 10
211.025691
 20
135.753508
 30
0.0
 11
223.374839
 21
135.753508
 31
0.0
  0
LINE
  5
4EC
100
AcDbEntity
  8
0
  6
Continuous
 62
     8
100
AcDbLine
 10
225.374651
 20
135.753508
 30
0.0
 11
226.374707
 21
135.753508
 31
0.0
  0
LINE
  5
4ED
100
AcDbEntity
  8
0
  6
Continuous
 62
     8
100
AcDbLine
 10
228.37482
 20
135.753508
 30
0.0
 11
240.723968
 21
135.753508
 31
0.0
  0
ENDBLK
  5
4EE
100
AcDbEntity
  8
0
100
AcDbBlockEnd
  0
BLOCK
  5
4F1
100
AcDbEntity
  8
0
100
AcDbBlockBegin
  2
*B54
 70
     0
 10
0.0
 20
0.0
 30
0.0
  3
*B54
  1

  0
LINE
  5
4F2
100
AcDbEntity
  8
0
  6
Continuous
 62
     8
100
AcDbLine
 10
166.223531
 20
230.420294
 30
0.0
 11
166.223531
 21
241.033988
 31
0.0
  0
ENDBLK
  5
4F3
100
AcDbEntity
  8
0
100
AcDbBlockEnd
  0
BLOCK
  5
4F6
100
AcDbEntity
  8
0
100
AcDbBlockBegin
  2
*B55
 70
     0
 10
0.0
 20
0.0
 30
0.0
  3
*B55
  1

  0
LINE
  5
4F7
100
AcDbEntity
  8
0
  6
Continuous
 62
     8
100
AcDbLine
 10
285.025649
 20
105.755424
 30
0.0
 11
289.025574
 21
105.755424
 31
0.0
  0
LINE
  5
4F8
100
AcDbEntity
  8
0
  6
Continuous
 62
     8
100
AcDbLine
 10
252.724042
 20
105.755424
 30
0.0
 11
266.374855
 21
105.755424
 31
0.0
  0
LINE
  5
4F9
100
AcDbEntity
  8
0
  6
Continuous
 62
     8
100
AcDbLine
 10
268.374667
 20
105.755424
 30
0.0
 11
269.374723
 21
105.755424
 31
0.0
  0
LINE
  5
4FA
100
AcDbEntity
  8
0
  6
Continuous
 62
     8
100
AcDbLine
 10
271.374836
 20
105.755424
 30
0.0
 11
285.025649
 21
105.755424
 31
0.0
  0
ENDBLK
  5
4FB
100
AcDbEntity
  8
0
100
AcDbBlockEnd
  0
BLOCK
  5
4FE
100
AcDbEntity
  8
0
100
AcDbBlockBegin
  2
*B56
 70
     0
 10
0.0
 20
0.0
 30
0.0
  3
*B56
  1

  0
LINE
  5
4FF
100
AcDbEntity
  8
0
  6
Continuous
 62
     8
100
AcDbLine
 10
266.927304
 20
193.152051
 30
0.0
 11
266.927304
 21
197.151675
 31
0.0
  0
LINE
  5
500
100
AcDbEntity
  8
0
  6
Continuous
 62
     8
100
AcDbLine
 10
266.927304
 20
203.151412
 30
0.0
 11
266.927304
 21
207.151036
 31
0.0
  0
ENDBLK
  5
501
100
AcDbEntity
  8
0
100
AcDbBlockEnd
  0
BLOCK
  5
504
100
AcDbEntity
  8
0
100
AcDbBlockBegin
  2
*B57
 70
     0
 10
0.0
 20
0.0
 30
0.0
  3
*B57
  1

  0
LINE
  5
505
100
AcDbEntity
  8
0
  6
Continuous
 62
     8
100
AcDbLine
 10
192.025523
 20
196.749129
 30
0.0
 11
219.723988
 21
196.749129
 31
0.0
  0
ENDBLK
  5
506
100
AcDbEntity
  8
0
100
AcDbBlockEnd
  0
BLOCK
  5
509
100
AcDbEntity
  8
0
100
AcDbBlockBegin
  2
*B58
 70
     0
 10
0.0
 20
0.0
 30
0.0
  3
*B58
  1

  0
LINE
  5
50A
100
AcDbEntity
  8
0
  6
Continuous
 62
     8
100
AcDbLine
 10
153.523507
 20
105.755424
 30
0.0
 11
158.723559
 21
105.755424
 31
0.0
  0
LINE
  5
50B
100
AcDbEntity
  8
0
  6
Continuous
 62
     8
100
AcDbLine
 10
164.723597
 20
105.755424
 30
0.0
 11
169.923649
 21
105.755424
 31
0.0
  0
ENDBLK
  5
50C
100
AcDbEntity
  8
0
100
AcDbBlockEnd
  0
BLOCK
  5
50F
100
AcDbEntity
  8
0
100
AcDbBlockBegin
  2
*B59
 70
     0
 10
0.0
 20
0.0
 30
0.0
  3
*B59
  1

  0
LINE
  5
510
100
AcDbEntity
  8
0
  6
Continuous
 62
     8
100
AcDbLine
 10
207.025766
 20
155.252051
 30
0.0
 11
228.723893
 21
155.252051
 31
0.0
  0
ENDBLK
  5
511
100
AcDbEntity
  8
0
100
AcDbBlockEnd
  0
BLOCK
  5
514
100
AcDbEntity
  8
0
100
AcDbBlockBegin
  2
*B60
 70
     0
 10
0.0
 20
0.0
 30
0.0
  3
*B60
  1

  0
LINE
  5
515
100
AcDbEntity
  8
0
  6
Continuous
 62
     8
100
AcDbLine
 10
161.723728
 20
84.756947
 30
0.0
 11
161.723728
 21
102.755857
 31
0.0
  0
LINE
  5
516
100
AcDbEntity
  8
0
  6
Continuous
 62
     8
100
AcDbLine
 10
161.723728
 20
108.755293
 30
0.0
 11
161.723728
 21
122.754278
 31
0.0
  0
LINE
  5
517
100
AcDbEntity
  8
0
  6
Continuous
 62
     8
100
AcDbLine
 10
161.723728
 20
128.754015
 30
0.0
 11
161.723728
 21
142.753
 31
0.0
  0
LINE
  5
518
100
AcDbEntity
  8
0
  6
Continuous
 62
     8
100
AcDbLine
 10
161.723728
 20
148.752437
 30
0.0
 11
161.723728
 21
158.00168
 31
0.0
  0
LINE
  5
519
100
AcDbEntity
  8
0
  6
Continuous
 62
     8
100
AcDbLine
 10
161.723728
 20
160.001793
 30
0.0
 11
161.723728
 21
161.001549
 31
0.0
  0
LINE
  5
51A
100
AcDbEntity
  8
0
  6
Continuous
 62
     8
100
AcDbLine
 10
161.723728
 20
163.001361
 30
0.0
 11
161.723728
 21
172.250905
 31
0.0
  0
LINE
  5
51B
100
AcDbEntity
  8
0
  6
Continuous
 62
     8
100
AcDbLine
 10
161.723728
 20
174.250717
 30
0.0
 11
161.723728
 21
175.250473
 31
0.0
  0
LINE
  5
51C
100
AcDbEntity
  8
0
  6
Continuous
 62
     8
100
AcDbLine
 10
161.723728
 20
177.250285
 30
0.0
 11
161.723728
 21
186.499829
 31
0.0
  0
LINE
  5
51D
100
AcDbEntity
  8
0
  6
Continuous
 62
     8
100
AcDbLine
 10
161.723728
 20
188.499641
 30
0.0
 11
161.723728
 21
189.499397
 31
0.0
  0
LINE
  5
51E
100
AcDbEntity
  8
0
  6
Continuous
 62
     8
100
AcDbLine
 10
161.723728
 20
191.49951
 30
0.0
 11
161.723728
 21
200.748754
 31
0.0
  0
ENDBLK
  5
51F
100
AcDbEntity
  8
0
100
AcDbBlockEnd
  0
BLOCK
  5
522
100
AcDbEntity
  8
0
100
AcDbBlockBegin
  2
*B61
 70
     0
 10
0.0
 20
0.0
 30
0.0
  3
*B61
  1

  0
LINE
  5
523
100
AcDbEntity
  8
0
  6
Continuous
 62
     6
100
AcDbLine
 10
160.723672
 20
105.755424
 30
0.0
 11
162.723484
 21
105.755424
 31
0.0
  0
LINE
  5
524
100
AcDbEntity
  8
0
  6
Continuous
 62
     6
100
AcDbLine
 10
161.723728
 20
104.755669
 30
0.0
 11
161.723728
 21
106.755481
 31
0.0
  0
ENDBLK
  5
525
100
AcDbEntity
  8
0
100
AcDbBlockEnd
  0
BLOCK
  5
528
100
AcDbEntity
  8
0
100
AcDbBlockBegin
  2
*B62
 70
     0
 10
0.0
 20
0.0
 30
0.0
  3
*B62
  1

  0
LINE
  5
529
100
AcDbEntity
  8
0
  6
Continuous
 62
     6
100
AcDbLine
 10
228.723893
 20
186.049819
 30
0.0
 11
228.723893
 21
188.049631
 31
0.0
  0
LINE
  5
52A
100
AcDbEntity
  8
0
  6
Continuous
 62
     6
100
AcDbLine
 10
227.723837
 20
187.049575
 30
0.0
 11
229.723949
 21
187.049575
 31
0.0
  0
ENDBLK
  5
52B
100
AcDbEntity
  8
0
100
AcDbBlockEnd
  0
BLOCK
  5
52E
100
AcDbEntity
  8
0
100
AcDbBlockBegin
  2
*B63
 70
     0
 10
0.0
 20
0.0
 30
0.0
  3
*B63
  1

  0
LINE
  5
52F
100
AcDbEntity
  8
0
  6
Continuous
 62
     6
100
AcDbLine
 10
230.724006
 20
158.751798
 30
0.0
 11
230.724006
 21
160.75161
 31
0.0
  0
LINE
  5
530
100
AcDbEntity
  8
0
  6
Continuous
 62
     6
100
AcDbLine
 10
229.723949
 20
159.751554
 30
0.0
 11
231.724062
 21
159.751554
 31
0.0
  0
ENDBLK
  5
531
100
AcDbEntity
  8
0
100
AcDbBlockEnd
  0
BLOCK
  5
534
100
AcDbEntity
  8
0
100
AcDbBlockBegin
  2
*B64
 70
     0
 10
0.0
 20
0.0
 30
0.0
  3
*B64
  1

  0
LINE
  5
535
100
AcDbEntity
  8
0
  6
Continuous
 62
     6
100
AcDbLine
 10
265.927548
 20
200.151544
 30
0.0
 11
267.927361
 21
200.151544
 31
0.0
  0
LINE
  5
536
100
AcDbEntity
  8
0
  6
Continuous
 62
     6
100
AcDbLine
 10
266.927304
 20
199.151487
 30
0.0
 11
266.927304
 21
201.151299
 31
0.0
  0
ENDBLK
  5
537
100
AcDbEntity
  8
0
100
AcDbBlockEnd
  0
BLOCK
  5
53A
100
AcDbEntity
  8
0
100
AcDbBlockBegin
  2
*B65
 70
     0
 10
0.0
 20
0.0
 30
0.0
  3
*B65
  1

  0
LINE
  5
53B
100
AcDbEntity
  8
0
  6
Continuous
 62
     6
100
AcDbLine
 10
160.723672
 20
125.754147
 30
0.0
 11
162.723484
 21
125.754147
 31
0.0
  0
LINE
  5
53C
100
AcDbEntity
  8
0
  6
Continuous
 62
     6
100
AcDbLine
 10
161.723728
 20
124.75409
 30
0.0
 11
161.723728
 21
126.754203
 31
0.0
  0
ENDBLK
  5
53D
100
AcDbEntity
  8
0
100
AcDbBlockEnd
  0
BLOCK
  5
540
100
AcDbEntity
  8
0
100
AcDbBlockBegin
  2
*B66
 70
     0
 10
0.0
 20
0.0
 30
0.0
  3
*B66
  1

  0
LINE
  5
541
100
AcDbEntity
  8
0
  6
Continuous
 62
     6
100
AcDbLine
 10
262.421494
 20
218.823967
 30
0.0
 11
264.421306
 21
218.823967
 31
0.0
  0
LINE
  5
542
100
AcDbEntity
  8
0
  6
Continuous
 62
     6
100
AcDbLine
 10
263.421249
 20
217.823911
 30
0.0
 11
263.421249
 21
219.823723
 31
0.0
  0
ENDBLK
  5
543
100
AcDbEntity
  8
0
100
AcDbBlockEnd
  0
BLOCK
  5
546
100
AcDbEntity
  8
0
100
AcDbBlockBegin
  2
*B67
 70
     0
 10
0.0
 20
0.0
 30
0.0
  3
*B67
  1

  0
LINE
  5
547
100
AcDbEntity
  8
0
  6
Continuous
 62
     6
100
AcDbLine
 10
261.723948
 20
159.751554
 30
0.0
 11
263.72406
 21
159.751554
 31
0.0
  0
LINE
  5
548
100
AcDbEntity
  8
0
  6
Continuous
 62
     6
100
AcDbLine
 10
262.724004
 20
158.751798
 30
0.0
 11
262.724004
 21
160.75161
 31
0.0
  0
ENDBLK
  5
549
100
AcDbEntity
  8
0
100
AcDbBlockEnd
  0
BLOCK
  5
54C
100
AcDbEntity
  8
0
100
AcDbBlockBegin
  2
*B68
 70
     0
 10
0.0
 20
0.0
 30
0.0
  3
*B68
  1

  0
LINE
  5
54D
100
AcDbEntity
  8
0
  6
Continuous
 62
     6
100
AcDbLine
 10
160.723672
 20
145.752568
 30
0.0
 11
162.723484
 21
145.752568
 31
0.0
  0
LINE
  5
54E
100
AcDbEntity
  8
0
  6
Continuous
 62
     6
100
AcDbLine
 10
161.723728
 20
144.752812
 30
0.0
 11
161.723728
 21
146.752625
 31
0.0
  0
ENDBLK
  5
54F
100
AcDbEntity
  8
0
100
AcDbBlockEnd
  0
BLOCK
  5
552
100
AcDbEntity
  8
0
100
AcDbBlockBegin
  2
*B69
 70
     0
 10
0.0
 20
0.0
 30
0.0
  3
*B69
  1

  0
TEXT
  5
553
100
AcDbEntity
  8
TEXT
  6
Continuous
 62
     0
100
AcDbText
 10
264.73575
 20
123.0
 30
0.0
 40
5.0
  1
1
100
AcDbText
  0
ENDBLK
  5
554
100
AcDbEntity
  8
0
100
AcDbBlockEnd
  0
BLOCK
  5
557
100
AcDbEntity
  8
0
100
AcDbBlockBegin
  2
*B70
 70
     0
 10
0.0
 20
0.0
 30
0.0
  3
*B70
  1

  0
TEXT
  5
558
100
AcDbEntity
  8
TEXT
  6
Continuous
 62
     0
100
AcDbText
 10
264.23575
 20
103.0
 30
0.0
 40
5.0
  1
2
100
AcDbText
  0
ENDBLK
  5
559
100
AcDbEntity
  8
0
100
AcDbBlockEnd
  0
BLOCK
  5
55C
100
AcDbEntity
  8
0
100
AcDbBlockBegin
  2
*B71
 70
     0
 10
0.0
 20
0.0
 30
0.0
  3
*B71
  1

  0
TEXT
  5
55D
100
AcDbEntity
  8
TEXT
  6
Continuous
 62
     0
100
AcDbText
 10
226.23575
 20
113.5
 30
0.0
 40
5.0
  1
3
100
AcDbText
  0
ENDBLK
  5
55E
100
AcDbEntity
  8
0
100
AcDbBlockEnd
  0
BLOCK
  5
561
100
AcDbEntity
  8
0
100
AcDbBlockBegin
  2
*B72
 70
     0
 10
0.0
 20
0.0
 30
0.0
  3
*B72
  1

  0
TEXT
  5
562
100
AcDbEntity
  8
TEXT
  6
Continuous
 62
     0
100
AcDbText
 10
264.73575
 20
143.5
 30
0.0
 40
5.0
  1
4
100
AcDbText
  0
ENDBLK
  5
563
100
AcDbEntity
  8
0
100
AcDbBlockEnd
  0
BLOCK
  5
566
100
AcDbEntity
  8
0
100
AcDbBlockBegin
  2
*B73
 70
     0
 10
0.0
 20
0.0
 30
0.0
  3
*B73
  1

  0
TEXT
  5
567
100
AcDbEntity
  8
TEXT
  6
Continuous
 62
     0
100
AcDbText
 10
226.23575
 20
133.5
 30
0.0
 40
5.0
  1
5
100
AcDbText
  0
ENDBLK
  5
568
100
AcDbEntity
  8
0
100
AcDbBlockEnd
  0
BLOCK
  5
56B
100
AcDbEntity
  8
0
100
AcDbBlockBegin
  2
*B74
 70
     0
 10
0.0
 20
0.0
 30
0.0
  3
*B74
  1

  0
TEXT
  5
56C
100
AcDbEntity
  8
TEXT
  6
Continuous
 62
     0
100
AcDbText
 10
314.25
 20
120.878506
 30
0.0
 40
3.5
  1
36
 50
90.0
100
AcDbText
  0
ENDBLK
  5
56D
100
AcDbEntity
  8
0
100
AcDbBlockEnd
  0
BLOCK
  5
570
100
AcDbEntity
  8
0
100
AcDbBlockBegin
  2
*B75
 70
     0
 10
0.0
 20
0.0
 30
0.0
  3
*B75
  1

  0
TEXT
  5
571
100
AcDbEntity
  8
TEXT
  6
Continuous
 62
     0
100
AcDbText
 10
257.612429
 20
236.75
 30
0.0
 40
3.5
  1
%%c10
100
AcDbText
  0
ENDBLK
  5
572
100
AcDbEntity
  8
0
100
AcDbBlockEnd
  0
BLOCK
  5
575
100
AcDbEntity
  8
0
100
AcDbBlockBegin
  2
*B76
 70
     0
 10
0.0
 20
0.0
 30
0.0
  3
*B76
  1

  0
TEXT
  5
576
100
AcDbEntity
  8
TEXT
  6
Continuous
 62
     0
100
AcDbText
 10
239.213727
 20
253.75
 30
0.0
 40
3.5
  1
21
100
AcDbText
  0
ENDBLK
  5
577
100
AcDbEntity
  8
0
100
AcDbBlockEnd
  0
BLOCK
  5
57A
100
AcDbEntity
  8
0
100
AcDbBlockBegin
  2
*B77
 70
     0
 10
0.0
 20
0.0
 30
0.0
  3
*B77
  1

  0
TEXT
  5
57B
100
AcDbEntity
  8
TEXT
  6
Continuous
 62
     0
100
AcDbText
 10
192.25
 20
139.378506
 30
0.0
 40
3.5
  1
54
 50
90.0
100
AcDbText
  0
ENDBLK
  5
57C
100
AcDbEntity
  8
0
100
AcDbBlockEnd
  0
BLOCK
  5
57F
100
AcDbEntity
  8
0
100
AcDbBlockBegin
  2
*B78
 70
     0
 10
0.0
 20
0.0
 30
0.0
  3
*B78
  1

  0
TEXT
  5
580
100
AcDbEntity
  8
TEXT
  6
Continuous
 62
     0
100
AcDbText
 10
207.25
 20
96.378506
 30
0.0
 40
3.5
  1
13,5
 50
90.0
100
AcDbText
  0
ENDBLK
  5
581
100
AcDbEntity
  8
0
100
AcDbBlockEnd
  0
BLOCK
  5
584
100
AcDbEntity
  8
0
100
AcDbBlockBegin
  2
*B79
 70
     0
 10
0.0
 20
0.0
 30
0.0
  3
*B79
  1

  0
TEXT
  5
585
100
AcDbEntity
  8
TEXT
  6
Continuous
 62
     0
100
AcDbText
 10
207.25
 20
122.378506
 30
0.0
 40
3.5
  1
10
 50
90.0
100
AcDbText
  0
ENDBLK
  5
586
100
AcDbEntity
  8
0
100
AcDbBlockEnd
  0
BLOCK
  5
589
100
AcDbEntity
  8
0
100
AcDbBlockBegin
  2
*B80
 70
     0
 10
0.0
 20
0.0
 30
0.0
  3
*B80
  1

  0
TEXT
  5
58A
100
AcDbEntity
  8
TEXT
  6
Continuous
 62
     0
100
AcDbText
 10
285.25
 20
93.045173
 30
0.0
 40
3.5
  1
8,5
 50
90.0
100
AcDbText
  0
ENDBLK
  5
58B
100
AcDbEntity
  8
0
100
AcDbBlockEnd
  0
BLOCK
  5
58E
100
AcDbEntity
  8
0
100
AcDbBlockBegin
  2
*B81
 70
     0
 10
0.0
 20
0.0
 30
0.0
  3
*B81
  1

  0
TEXT
  5
58F
100
AcDbEntity
  8
TEXT
  6
Continuous
 62
     0
100
AcDbText
 10
285.25
 20
112.378506
 30
0.0
 40
3.5
  1
10
 50
90.0
100
AcDbText
  0
ENDBLK
  5
590
100
AcDbEntity
  8
0
100
AcDbBlockEnd
  0
BLOCK
  5
593
100
AcDbEntity
  8
0
100
AcDbBlockBegin
  2
*B82
 70
     0
 10
0.0
 20
0.0
 30
0.0
  3
*B82
  1

  0
TEXT
  5
594
100
AcDbEntity
  8
TEXT
  6
Continuous
 62
     0
100
AcDbText
 10
285.25
 20
132.378506
 30
0.0
 40
3.5
  1
10
 50
90.0
100
AcDbText
  0
ENDBLK
  5
595
100
AcDbEntity
  8
0
100
AcDbBlockEnd
  0
BLOCK
  5
598
100
AcDbEntity
  8
0
100
AcDbBlockBegin
  2
*B83
 70
     0
 10
0.0
 20
0.0
 30
0.0
  3
*B83
  1

  0
TEXT
  5
599
100
AcDbEntity
  8
TEXT
  6
Continuous
 62
     0
100
AcDbText
 10
243.365026
 20
149.75
 30
0.0
 40
3.5
  1
16
100
AcDbText
  0
ENDBLK
  5
59A
100
AcDbEntity
  8
0
100
AcDbBlockEnd
  0
BLOCK
  5
59D
100
AcDbEntity
  8
0
100
AcDbBlockBegin
  2
*B84
 70
     0
 10
0.0
 20
0.0
 30
0.0
  3
*B84
  1

  0
TEXT
  5
59E
100
AcDbEntity
  8
TEXT
  6
Continuous
 62
     0
100
AcDbText
 10
292.25
 20
237.416667
 30
0.0
 40
3.5
  1
4
 50
90.0
100
AcDbText
  0
TEXT
  5
59F
100
AcDbEntity
  8
TEXT
  6
Continuous
 62
     0
100
AcDbText
 10
292.25
 20
242.5
 30
0.0
 40
3.5
  1
Kapcsol¾ l÷ket
 50
90.0
100
AcDbText
  0
ENDBLK
  5
5A0
100
AcDbEntity
  8
0
100
AcDbBlockEnd
  0
BLOCK
  5
5A3
100
AcDbEntity
  8
0
100
AcDbBlockBegin
  2
*B85
 70
     0
 10
0.0
 20
0.0
 30
0.0
  3
*B85
  1

  0
TEXT
  5
5A4
100
AcDbEntity
  8
TEXT
  6
Continuous
 62
     0
100
AcDbText
 10
304.25
 20
238.666667
 30
0.0
 40
3.5
  1
2
 50
90.0
100
AcDbText
  0
TEXT
  5
5A5
100
AcDbEntity
  8
TEXT
  6
Continuous
 62
     0
100
AcDbText
 10
304.25
 20
243.75
 30
0.0
 40
3.5
  1
Szabad l÷ket
 50
90.0
100
AcDbText
  0
ENDBLK
  5
5A6
100
AcDbEntity
  8
0
100
AcDbBlockEnd
  0
BLOCK
  5
5A9
100
AcDbEntity
  8
0
100
AcDbBlockBegin
  2
*B86
 70
     0
 10
0.0
 20
0.0
 30
0.0
  3
*B86
  1

  0
TEXT
  5
5AA
100
AcDbEntity
  8
TEXT
  6
Continuous
 62
     0
100
AcDbText
 10
314.25
 20
190.878506
 30
0.0
 40
3.5
  1
35
 50
90.0
100
AcDbText
  0
ENDBLK
  5
5AB
100
AcDbEntity
  8
0
100
AcDbBlockEnd
  0
BLOCK
  5
5AE
100
AcDbEntity
  8
0
100
AcDbBlockBegin
  2
*B87
 70
     0
 10
0.0
 20
0.0
 30
0.0
  3
*B87
  1

  0
TEXT
  5
5AF
100
AcDbEntity
  8
TEXT
  6
Continuous
 62
     0
100
AcDbText
 10
132.803664
 20
138.333333
 30
0.0
 40
3.5
  1
M5
 50
90.0
100
AcDbText
  0
ENDBLK
  5
5B0
100
AcDbEntity
  8
0
100
AcDbBlockEnd
  0
BLOCK
  5
5B3
100
AcDbEntity
  8
0
100
AcDbBlockBegin
  2
*B88
 70
     0
 10
0.0
 20
0.0
 30
0.0
  3
*B88
  1

  0
TEXT
  5
5B4
100
AcDbEntity
  8
TEXT
  6
Continuous
 62
     0
100
AcDbText
 10
158.364586
 20
69.75
 30
0.0
 40
3.5
  1
15
100
AcDbText
  0
ENDBLK
  5
5B5
100
AcDbEntity
  8
0
100
AcDbBlockEnd
  0
BLOCK
  5
5B8
100
AcDbEntity
  8
0
100
AcDbBlockBegin
  2
*B89
 70
     0
 10
0.0
 20
0.0
 30
0.0
  3
*B89
  1

  0
TEXT
  5
5B9
100
AcDbEntity
  8
TEXT
  6
Continuous
 62
     0
100
AcDbText
 10
243.365026
 20
69.75
 30
0.0
 40
3.5
  1
25
100
AcDbText
  0
ENDBLK
  5
5BA
100
AcDbEntity
  8
0
100
AcDbBlockEnd
  0
BLOCK
  5
5BD
100
AcDbEntity
  8
0
100
AcDbBlockBegin
  2
*B90
 70
     0
 10
0.0
 20
0.0
 30
0.0
  3
*B90
  1

  0
TEXT
  5
5BE
100
AcDbEntity
  8
TEXT
  6
Continuous
 62
     0
100
AcDbText
 10
157.531252
 20
240.75
 30
0.0
 40
3.5
  1
4,5
100
AcDbText
  0
ENDBLK
  5
5BF
100
AcDbEntity
  8
0
100
AcDbBlockEnd
  0
BLOCK
  5
5C2
100
AcDbEntity
  8
0
100
AcDbBlockBegin
  2
*B91
 70
     0
 10
0.0
 20
0.0
 30
0.0
  3
*B91
  1

  0
TEXT
  5
5C3
100
AcDbEntity
  8
TEXT
  6
Continuous
 62
     0
100
AcDbText
 10
207.25
 20
173.383333
 30
0.0
 40
3.5
  1
%%c4,5
 50
90.0
100
AcDbText
  0
ENDBLK
  5
5C4
100
AcDbEntity
  8
0
100
AcDbBlockEnd
  0
ENDSEC
  0
SECTION
  2
ENTITIES
  0
INSERT
  5
1E8
100
AcDbEntity
  8
0
  6
Continuous
 62
   174
100
AcDbBlockReference
  2
*B1
 10
0.0
 20
0.0
 30
0.0
  0
INSERT
  5
1EF
100
AcDbEntity
  8
0
  6
Continuous
 62
   232
100
AcDbBlockReference
  2
*B2
 10
0.0
 20
0.0
 30
0.0
  0
INSERT
  5
39A
100
AcDbEntity
  8
0
  6
Continuous
 62
   174
100
AcDbBlockReference
  2
*B3
 10
0.0
 20
0.0
 30
0.0
  0
INSERT
  5
3A1
100
AcDbEntity
  8
0
  6
Continuous
 62
     0
100
AcDbBlockReference
  2
*B4
 10
0.0
 20
0.0
 30
0.0
  0
INSERT
  5
3A8
100
AcDbEntity
  8
0
  6
Continuous
 62
     0
100
AcDbBlockReference
  2
*B5
 10
0.0
 20
0.0
 30
0.0
  0
INSERT
  5
3AF
100
AcDbEntity
  8
0
  6
Continuous
 62
     0
100
AcDbBlockReference
  2
*B6
 10
0.0
 20
0.0
 30
0.0
  0
INSERT
  5
3B6
100
AcDbEntity
  8
0
  6
Continuous
 62
     0
100
AcDbBlockReference
  2
*B7
 10
0.0
 20
0.0
 30
0.0
  0
INSERT
  5
3BD
100
AcDbEntity
  8
0
  6
Continuous
 62
     0
100
AcDbBlockReference
  2
*B8
 10
0.0
 20
0.0
 30
0.0
  0
INSERT
  5
3C4
100
AcDbEntity
  8
0
  6
Continuous
 62
     0
100
AcDbBlockReference
  2
*B9
 10
0.0
 20
0.0
 30
0.0
  0
INSERT
  5
3CB
100
AcDbEntity
  8
0
  6
Continuous
 62
     0
100
AcDbBlockReference
  2
*B10
 10
0.0
 20
0.0
 30
0.0
  0
INSERT
  5
3D2
100
AcDbEntity
  8
0
  6
Continuous
 62
     0
100
AcDbBlockReference
  2
*B11
 10
0.0
 20
0.0
 30
0.0
  0
INSERT
  5
3D9
100
AcDbEntity
  8
0
  6
Continuous
 62
     0
100
AcDbBlockReference
  2
*B12
 10
0.0
 20
0.0
 30
0.0
  0
INSERT
  5
3E0
100
AcDbEntity
  8
0
  6
Continuous
 62
     0
100
AcDbBlockReference
  2
*B13
 10
0.0
 20
0.0
 30
0.0
  0
INSERT
  5
3E7
100
AcDbEntity
  8
0
  6
Continuous
 62
     0
100
AcDbBlockReference
  2
*B14
 10
0.0
 20
0.0
 30
0.0
  0
INSERT
  5
3EE
100
AcDbEntity
  8
0
  6
Continuous
 62
     0
100
AcDbBlockReference
  2
*B15
 10
0.0
 20
0.0
 30
0.0
  0
INSERT
  5
3F5
100
AcDbEntity
  8
0
  6
Continuous
 62
     0
100
AcDbBlockReference
  2
*B16
 10
0.0
 20
0.0
 30
0.0
  0
INSERT
  5
3FC
100
AcDbEntity
  8
0
  6
Continuous
 62
     0
100
AcDbBlockReference
  2
*B17
 10
0.0
 20
0.0
 30
0.0
  0
INSERT
  5
403
100
AcDbEntity
  8
0
  6
Continuous
 62
     0
100
AcDbBlockReference
  2
*B18
 10
0.0
 20
0.0
 30
0.0
  0
INSERT
  5
40A
100
AcDbEntity
  8
0
  6
Continuous
 62
     0
100
AcDbBlockReference
  2
*B19
 10
0.0
 20
0.0
 30
0.0
  0
INSERT
  5
411
100
AcDbEntity
  8
0
  6
Continuous
 62
     0
100
AcDbBlockReference
  2
*B20
 10
0.0
 20
0.0
 30
0.0
  0
INSERT
  5
418
100
AcDbEntity
  8
0
  6
Continuous
 62
     0
100
AcDbBlockReference
  2
*B21
 10
0.0
 20
0.0
 30
0.0
  0
INSERT
  5
41E
100
AcDbEntity
  8
0
  6
Continuous
 62
     8
100
AcDbBlockReference
  2
*B22
 10
0.0
 20
0.0
 30
0.0
  0
INSERT
  5
423
100
AcDbEntity
  8
0
  6
Continuous
 62
     8
100
AcDbBlockReference
  2
*B23
 10
0.0
 20
0.0
 30
0.0
  0
INSERT
  5
428
100
AcDbEntity
  8
0
  6
Continuous
 62
     8
100
AcDbBlockReference
  2
*B24
 10
0.0
 20
0.0
 30
0.0
  0
INSERT
  5
42E
100
AcDbEntity
  8
0
  6
Continuous
 62
     8
100
AcDbBlockReference
  2
*B25
 10
0.0
 20
0.0
 30
0.0
  0
INSERT
  5
433
100
AcDbEntity
  8
0
  6
Continuous
 62
     8
100
AcDbBlockReference
  2
*B26
 10
0.0
 20
0.0
 30
0.0
  0
INSERT
  5
439
100
AcDbEntity
  8
0
  6
Continuous
 62
     8
100
AcDbBlockReference
  2
*B27
 10
0.0
 20
0.0
 30
0.0
  0
INSERT
  5
43E
100
AcDbEntity
  8
0
  6
Continuous
 62
     8
100
AcDbBlockReference
  2
*B28
 10
0.0
 20
0.0
 30
0.0
  0
INSERT
  5
443
100
AcDbEntity
  8
0
  6
Continuous
 62
     8
100
AcDbBlockReference
  2
*B29
 10
0.0
 20
0.0
 30
0.0
  0
INSERT
  5
44C
100
AcDbEntity
  8
0
  6
Continuous
 62
     8
100
AcDbBlockReference
  2
*B30
 10
0.0
 20
0.0
 30
0.0
  0
INSERT
  5
452
100
AcDbEntity
  8
0
  6
Continuous
 62
     8
100
AcDbBlockReference
  2
*B31
 10
0.0
 20
0.0
 30
0.0
  0
INSERT
  5
45F
100
AcDbEntity
  8
0
  6
Continuous
 62
     8
100
AcDbBlockReference
  2
*B32
 10
0.0
 20
0.0
 30
0.0
  0
INSERT
  5
465
100
AcDbEntity
  8
0
  6
Continuous
 62
     8
100
AcDbBlockReference
  2
*B33
 10
0.0
 20
0.0
 30
0.0
  0
INSERT
  5
46B
100
AcDbEntity
  8
0
  6
Continuous
 62
     8
100
AcDbBlockReference
  2
*B34
 10
0.0
 20
0.0
 30
0.0
  0
INSERT
  5
470
100
AcDbEntity
  8
0
  6
Continuous
 62
     8
100
AcDbBlockReference
  2
*B35
 10
0.0
 20
0.0
 30
0.0
  0
INSERT
  5
476
100
AcDbEntity
  8
0
  6
Continuous
 62
     8
100
AcDbBlockReference
  2
*B36
 10
0.0
 20
0.0
 30
0.0
  0
INSERT
  5
47E
100
AcDbEntity
  8
0
  6
Continuous
 62
     8
100
AcDbBlockReference
  2
*B37
 10
0.0
 20
0.0
 30
0.0
  0
INSERT
  5
484
100
AcDbEntity
  8
0
  6
Continuous
 62
     8
100
AcDbBlockReference
  2
*B38
 10
0.0
 20
0.0
 30
0.0
  0
INSERT
  5
48C
100
AcDbEntity
  8
0
  6
Continuous
 62
     8
100
AcDbBlockReference
  2
*B39
 10
0.0
 20
0.0
 30
0.0
  0
INSERT
  5
494
100
AcDbEntity
  8
0
  6
Continuous
 62
     8
100
AcDbBlockReference
  2
*B40
 10
0.0
 20
0.0
 30
0.0
  0
INSERT
  5
49D
100
AcDbEntity
  8
0
  6
Continuous
 62
     8
100
AcDbBlockReference
  2
*B41
 10
0.0
 20
0.0
 30
0.0
  0
INSERT
  5
4A2
100
AcDbEntity
  8
0
  6
Continuous
 62
     8
100
AcDbBlockReference
  2
*B42
 10
0.0
 20
0.0
 30
0.0
  0
INSERT
  5
4B7
100
AcDbEntity
  8
0
  6
Continuous
 62
     8
100
AcDbBlockReference
  2
*B43
 10
0.0
 20
0.0
 30
0.0
  0
INSERT
  5
4BD
100
AcDbEntity
  8
0
  6
Continuous
 62
     8
100
AcDbBlockReference
  2
*B44
 10
0.0
 20
0.0
 30
0.0
  0
INSERT
  5
4C2
100
AcDbEntity
  8
0
  6
Continuous
 62
     8
100
AcDbBlockReference
  2
*B45
 10
0.0
 20
0.0
 30
0.0
  0
INSERT
  5
4C8
100
AcDbEntity
  8
0
  6
Continuous
 62
     8
100
AcDbBlockReference
  2
*B46
 10
0.0
 20
0.0
 30
0.0
  0
INSERT
  5
4CD
100
AcDbEntity
  8
0
  6
Continuous
 62
     8
100
AcDbBlockReference
  2
*B47
 10
0.0
 20
0.0
 30
0.0
  0
INSERT
  5
4D2
100
AcDbEntity
  8
0
  6
Continuous
 62
     8
100
AcDbBlockReference
  2
*B48
 10
0.0
 20
0.0
 30
0.0
  0
INSERT
  5
4D7
100
AcDbEntity
  8
0
  6
Continuous
 62
     8
100
AcDbBlockReference
  2
*B49
 10
0.0
 20
0.0
 30
0.0
  0
INSERT
  5
4DC
100
AcDbEntity
  8
0
  6
Continuous
 62
     8
100
AcDbBlockReference
  2
*B50
 10
0.0
 20
0.0
 30
0.0
  0
INSERT
  5
4E1
100
AcDbEntity
  8
0
  6
Continuous
 62
     8
100
AcDbBlockReference
  2
*B51
 10
0.0
 20
0.0
 30
0.0
  0
INSERT
  5
4E7
100
AcDbEntity
  8
0
  6
Continuous
 62
     8
100
AcDbBlockReference
  2
*B52
 10
0.0
 20
0.0
 30
0.0
  0
INSERT
  5
4EF
100
AcDbEntity
  8
0
  6
Continuous
 62
     8
100
AcDbBlockReference
  2
*B53
 10
0.0
 20
0.0
 30
0.0
  0
INSERT
  5
4F4
100
AcDbEntity
  8
0
  6
Continuous
 62
     8
100
AcDbBlockReference
  2
*B54
 10
0.0
 20
0.0
 30
0.0
  0
INSERT
  5
4FC
100
AcDbEntity
  8
0
  6
Continuous
 62
     8
100
AcDbBlockReference
  2
*B55
 10
0.0
 20
0.0
 30
0.0
  0
INSERT
  5
502
100
AcDbEntity
  8
0
  6
Continuous
 62
     8
100
AcDbBlockReference
  2
*B56
 10
0.0
 20
0.0
 30
0.0
  0
INSERT
  5
507
100
AcDbEntity
  8
0
  6
Continuous
 62
     8
100
AcDbBlockReference
  2
*B57
 10
0.0
 20
0.0
 30
0.0
  0
INSERT
  5
50D
100
AcDbEntity
  8
0
  6
Continuous
 62
     8
100
AcDbBlockReference
  2
*B58
 10
0.0
 20
0.0
 30
0.0
  0
INSERT
  5
512
100
AcDbEntity
  8
0
  6
Continuous
 62
     8
100
AcDbBlockReference
  2
*B59
 10
0.0
 20
0.0
 30
0.0
  0
INSERT
  5
520
100
AcDbEntity
  8
0
  6
Continuous
 62
     8
100
AcDbBlockReference
  2
*B60
 10
0.0
 20
0.0
 30
0.0
  0
INSERT
  5
526
100
AcDbEntity
  8
0
  6
Continuous
 62
     6
100
AcDbBlockReference
  2
*B61
 10
0.0
 20
0.0
 30
0.0
  0
INSERT
  5
52C
100
AcDbEntity
  8
0
  6
Continuous
 62
     6
100
AcDbBlockReference
  2
*B62
 10
0.0
 20
0.0
 30
0.0
  0
INSERT
  5
532
100
AcDbEntity
  8
0
  6
Continuous
 62
     6
100
AcDbBlockReference
  2
*B63
 10
0.0
 20
0.0
 30
0.0
  0
INSERT
  5
538
100
AcDbEntity
  8
0
  6
Continuous
 62
     6
100
AcDbBlockReference
  2
*B64
 10
0.0
 20
0.0
 30
0.0
  0
INSERT
  5
53E
100
AcDbEntity
  8
0
  6
Continuous
 62
     6
100
AcDbBlockReference
  2
*B65
 10
0.0
 20
0.0
 30
0.0
  0
INSERT
  5
544
100
AcDbEntity
  8
0
  6
Continuous
 62
     6
100
AcDbBlockReference
  2
*B66
 10
0.0
 20
0.0
 30
0.0
  0
INSERT
  5
54A
100
AcDbEntity
  8
0
  6
Continuous
 62
     6
100
AcDbBlockReference
  2
*B67
 10
0.0
 20
0.0
 30
0.0
  0
INSERT
  5
550
100
AcDbEntity
  8
0
  6
Continuous
 62
     6
100
AcDbBlockReference
  2
*B68
 10
0.0
 20
0.0
 30
0.0
  0
INSERT
  5
555
100
AcDbEntity
  8
TEXT
  6
Continuous
 62
     0
100
AcDbBlockReference
  2
*B69
 10
0.0
 20
0.0
 30
0.0
  0
INSERT
  5
55A
100
AcDbEntity
  8
TEXT
  6
Continuous
 62
     0
100
AcDbBlockReference
  2
*B70
 10
0.0
 20
0.0
 30
0.0
  0
INSERT
  5
55F
100
AcDbEntity
  8
TEXT
  6
Continuous
 62
     0
100
AcDbBlockReference
  2
*B71
 10
0.0
 20
0.0
 30
0.0
  0
INSERT
  5
564
100
AcDbEntity
  8
TEXT
  6
Continuous
 62
     0
100
AcDbBlockReference
  2
*B72
 10
0.0
 20
0.0
 30
0.0
  0
INSERT
  5
569
100
AcDbEntity
  8
TEXT
  6
Continuous
 62
     0
100
AcDbBlockReference
  2
*B73
 10
0.0
 20
0.0
 30
0.0
  0
INSERT
  5
56E
100
AcDbEntity
  8
TEXT
  6
Continuous
 62
     0
100
AcDbBlockReference
  2
*B74
 10
0.0
 20
0.0
 30
0.0
  0
INSERT
  5
573
100
AcDbEntity
  8
TEXT
  6
Continuous
 62
     0
100
AcDbBlockReference
  2
*B75
 10
0.0
 20
0.0
 30
0.0
  0
INSERT
  5
578
100
AcDbEntity
  8
TEXT
  6
Continuous
 62
     0
100
AcDbBlockReference
  2
*B76
 10
0.0
 20
0.0
 30
0.0
  0
INSERT
  5
57D
100
AcDbEntity
  8
TEXT
  6
Continuous
 62
     0
100
AcDbBlockReference
  2
*B77
 10
0.0
 20
0.0
 30
0.0
  0
INSERT
  5
582
100
AcDbEntity
  8
TEXT
  6
Continuous
 62
     0
100
AcDbBlockReference
  2
*B78
 10
0.0
 20
0.0
 30
0.0
  0
INSERT
  5
587
100
AcDbEntity
  8
TEXT
  6
Continuous
 62
     0
100
AcDbBlockReference
  2
*B79
 10
0.0
 20
0.0
 30
0.0
  0
INSERT
  5
58C
100
AcDbEntity
  8
TEXT
  6
Continuous
 62
     0
100
AcDbBlockReference
  2
*B80
 10
0.0
 20
0.0
 30
0.0
  0
INSERT
  5
591
100
AcDbEntity
  8
TEXT
  6
Continuous
 62
     0
100
AcDbBlockReference
  2
*B81
 10
0.0
 20
0.0
 30
0.0
  0
INSERT
  5
596
100
AcDbEntity
  8
TEXT
  6
Continuous
 62
     0
100
AcDbBlockReference
  2
*B82
 10
0.0
 20
0.0
 30
0.0
  0
INSERT
  5
59B
100
AcDbEntity
  8
TEXT
  6
Continuous
 62
     0
100
AcDbBlockReference
  2
*B83
 10
0.0
 20
0.0
 30
0.0
  0
INSERT
  5
5A1
100
AcDbEntity
  8
TEXT
  6
Continuous
 62
     0
100
AcDbBlockReference
  2
*B84
 10
0.0
 20
0.0
 30
0.0
  0
INSERT
  5
5A7
100
AcDbEntity
  8
TEXT
  6
Continuous
 62
     0
100
AcDbBlockReference
  2
*B85
 10
0.0
 20
0.0
 30
0.0
  0
INSERT
  5
5AC
100
AcDbEntity
  8
TEXT
  6
Continuous
 62
     0
100
AcDbBlockReference
  2
*B86
 10
0.0
 20
0.0
 30
0.0
  0
INSERT
  5
5B1
100
AcDbEntity
  8
TEXT
  6
Continuous
 62
     0
100
AcDbBlockReference
  2
*B87
 10
0.0
 20
0.0
 30
0.0
  0
INSERT
  5
5B6
100
AcDbEntity
  8
TEXT
  6
Continuous
 62
     0
100
AcDbBlockReference
  2
*B88
 10
0.0
 20
0.0
 30
0.0
  0
INSERT
  5
5BB
100
AcDbEntity
  8
TEXT
  6
Continuous
 62
     0
100
AcDbBlockReference
  2
*B89
 10
0.0
 20
0.0
 30
0.0
  0
INSERT
  5
5C0
100
AcDbEntity
  8
TEXT
  6
Continuous
 62
     0
100
AcDbBlockReference
  2
*B90
 10
0.0
 20
0.0
 30
0.0
  0
INSERT
  5
5C5
100
AcDbEntity
  8
TEXT
  6
Continuous
 62
     0
100
AcDbBlockReference
  2
*B91
 10
0.0
 20
0.0
 30
0.0
  0
ENDSEC
  0
SECTION
  2
OBJECTS
  0
DICTIONARY
  5
19
100
AcDbDictionary
280
     0
281
     1
  3
ACAD_GROUP
350
1A
  3
ACAD_MLINESTYLE
350
1B
  3
ACAD_LAYOUT
350
1E
  3
ACAD_PLOTSETTINGS
350
22
  3
ACAD_PLOTSTYLENAME
350
1F
  3
ACAD_WIPEOUT_VARS
350
23
  0
DICTIONARY
  5
1A
102
{ACAD_REACTORS
330
19
102
}
100
AcDbDictionary
280
     0
281
     1
  0
DICTIONARY
  5
1B
102
{ACAD_REACTORS
330
19
102
}
100
AcDbDictionary
280
     0
281
     1
  3
Standard
350
1C
  0
MLINESTYLE
  5
1C
102
{ACAD_REACTORS
330
1B
102
}
100
AcDbMlineStyle
  2
Standard
 70
     0
  3

 62
     0
 51
90.0
 52
90.0
 71
     2
 49
0.5
 62
   256
  6
BYLAYER
 49
-0.5
 62
   256
  6
BYLAYER
  0
ACDBDICTIONARYWDFLT
  5
1F
102
{ACAD_REACTORS
330
19
102
}
100
AcDbDictionary
281
     1
  3
Normal
350
1D
100
AcDbDictionaryWithDefault
340
1D
  0
ACDBPLACEHOLDER
  5
1D
102
{ACAD_REACTORS
330
1F
102
}
  0
LAYOUT
  5
20
102
{ACAD_REACTORS
330
1E
102
}
100
AcDbPlotSettings
  1

  2

  4

  6

 40
0.0
 41
0.0
 42
0.0
 43
0.0
 44
0.0
 45
0.0
 46
0.0
 47
0.0
 48
0.0
 49
0.0
140
0.0
141
0.0
142
1.0
143
1.0
 70
     0
 72
     0
 73
     0
 74
     0
  7

 75
     0
147
1.0
148
0.0
149
0.0
100
AcDbLayout
  1
Model
 70
     0
 71
     0
 10
0.0
 20
0.0
 11
0.0
 21
0.0
 12
0.0
 22
0.0
 32
0.0
 14
0.0
 24
0.0
 34
0.0
 15
0.0
 25
0.0
 35
0.0
146
0.0
 13
0.0
 23
0.0
 33
0.0
 16
0.0
 26
0.0
 36
0.0
 17
0.0
 27
0.0
 37
0.0
 76
     0
330
A
331
0
345
0
346
0
  0
LAYOUT
  5
21
102
{ACAD_REACTORS
330
1E
102
}
100
AcDbPlotSettings
  1

  2

  4

  6

 40
0.0
 41
0.0
 42
0.0
 43
0.0
 44
0.0
 45
0.0
 46
0.0
 47
0.0
 48
0.0
 49
0.0
140
0.0
141
0.0
142
1.0
143
1.0
 70
     0
 72
     0
 73
     0
 74
     0
  7

 75
     0
147
1.0
148
0.0
149
0.0
100
AcDbLayout
  1
Layout1
 70
     0
 71
     0
 10
0.0
 20
0.0
 11
0.0
 21
0.0
 12
0.0
 22
0.0
 32
0.0
 14
0.0
 24
0.0
 34
0.0
 15
0.0
 25
0.0
 35
0.0
146
0.0
 13
0.0
 23
0.0
 33
0.0
 16
0.0
 26
0.0
 36
0.0
 17
0.0
 27
0.0
 37
0.0
 76
     0
330
B
331
0
345
0
346
0
  0
DICTIONARY
  5
1E
102
{ACAD_REACTORS
330
19
102
}
100
AcDbDictionary
280
     0
281
     1
  3
Layout1
350
21
  3
Model
350
20
  0
DICTIONARY
  5
22
102
{ACAD_REACTORS
330
19
102
}
100
AcDbDictionary
280
     0
281
     1
  0
WIPEOUTVARIABLES
  5
23
100
AcDbWipeoutVariables
 70
     1
  0
ENDSEC
  0
EOF
