  0
SECTION
  2
HEADER
  9
$ACADVER
  1
AC1015
  9
$ACADMAINTVER
 70
     6
  9
$DWGCODEPAGE
  3
DOS850
  9
$INSBASE
 10
0.0
 20
0.0
 30
0.0
  9
$EXTMIN
 10
0.0
 20
0.0
 30
0.0
  9
$EXTMAX
 10
420.0
 20
297.0
 30
0.0
  9
$LIMMIN
 10
0.0
 20
0.0
  9
$LIMMAX
 10
420.0
 20
297.0
  9
$ORTHOMODE
 70
     0
  9
$REGENMODE
 70
     1
  9
$FILLMODE
 70
     1
  9
$QTEXTMODE
 70
     0
  9
$MIRRTEXT
 70
     1
  9
$LTSCALE
 40
25.4
  9
$ATTMODE
 70
     1
  9
$TEXTSIZE
 40
3.5
  9
$TRACEWID
 40
0.05
  9
$TEXTSTYLE
  7
Standard
  9
$CLAYER
  8
0
  9
$CELTYPE
  6
Continuous
  9
$CECOLOR
 62
   256
  9
$CELTSCALE
 40
1.0
  9
$DISPSILH
 70
     0
  9
$DIMSCALE
 40
1.0
  9
$DIMASZ
 40
5.0
  9
$DIMEXO
 40
3.0
  9
$DIMDLI
 40
0.38
  9
$DIMRND
 40
0.0
  9
$DIMDLE
 40
0.0
  9
$DIMEXE
 40
2.0
  9
$DIMTP
 40
0.0
  9
$DIMTM
 40
0.0
  9
$DIMTXT
 40
3.5
  9
$DIMCEN
 40
4.0
  9
$DIMTSZ
 40
0.0
  9
$DIMTOL
 70
     0
  9
$DIMLIM
 70
     0
  9
$DIMTIH
 70
     1
  9
$DIMTOH
 70
     1
  9
$DIMSE1
 70
     0
  9
$DIMSE2
 70
     0
  9
$DIMTAD
 70
     0
  9
$DIMZIN
 70
     0
  9
$DIMBLK
  1

  9
$DIMASO
 70
     1
  9
$DIMSHO
 70
     1
  9
$DIMPOST
  1

  9
$DIMAPOST
  1

  9
$DIMALT
 70
     0
  9
$DIMALTD
 70
     2
  9
$DIMALTF
 40
25.4
  9
$DIMLFAC
 40
1.0
  9
$DIMTOFL
 70
     0
  9
$DIMTVP
 40
0.0
  9
$DIMTIX
 70
     0
  9
$DIMSOXD
 70
     0
  9
$DIMSAH
 70
     0
  9
$DIMBLK1
  1

  9
$DIMBLK2
  1

  9
$DIMSTYLE
  2
Standard
  9
$DIMCLRD
 70
     0
  9
$DIMCLRE
 70
     0
  9
$DIMCLRT
 70
     0
  9
$DIMTFAC
 40
1.0
  9
$DIMGAP
 40
1.0
  9
$DIMJUST
 70
     0
  9
$DIMSD1
 70
     0
  9
$DIMSD2
 70
     0
  9
$DIMTOLJ
 70
     1
  9
$DIMTZIN
 70
     0
  9
$DIMALTZ
 70
     0
  9
$DIMALTTZ
 70
     0
  9
$DIMUPT
 70
     0
  9
$DIMDEC
 70
     4
  9
$DIMTDEC
 70
     4
  9
$DIMALTU
 70
     2
  9
$DIMALTTD
 70
     2
  9
$DIMTXSTY
  7
Standard
  9
$DIMAUNIT
 70
     0
  9
$DIMADEC
 70
     0
  9
$DIMALTRND
 40
0.0
  9
$DIMAZIN
 70
     0
  9
$DIMDSEP
 70
     0
  9
$DIMATFIT
 70
     3
  9
$DIMFRAC
 70
     0
  9
$DIMLDRBLK
  1

  9
$DIMLUNIT
 70
     2
  9
$DIMLWD
 70
     0
  9
$DIMLWE
 70
     0
  9
$DIMTMOVE
 70
     0
  9
$LUNITS
 70
     2
  9
$LUPREC
 70
     4
  9
$SKETCHINC
 40
0.1
  9
$FILLETRAD
 40
0.0
  9
$AUNITS
 70
     0
  9
$AUPREC
 70
     0
  9
$MENU
  1
acad
  9
$ELEVATION
 40
0.0
  9
$PELEVATION
 40
0.0
  9
$THICKNESS
 40
0.0
  9
$LIMCHECK
 70
     0
  9
$CHAMFERA
 40
0.0
  9
$CHAMFERB
 40
0.0
  9
$CHAMFERC
 40
0.0
  9
$CHAMFERD
 40
0.0
  9
$SKPOLY
 70
     0
  9
$TDCREATE
 40
0.000000000
  9
$TDUCREATE
 40
0.000000000
  9
$TDUPDATE
 40
0.000000000
  9
$TDUUPDATE
 40
0.000000000
  9
$TDINDWG
 40
0.0000000000
  9
$TDUSRTIMER
 40
0.0000000000
  9
$USRTIMER
 70
     1
  9
$ANGBASE
 50
0.0
  9
$ANGDIR
 70
     0
  9
$PDMODE
 70
     0
  9
$PDSIZE
 40
0.0
  9
$PLINEWID
 40
0.0
  9
$SPLFRAME
 70
     0
  9
$SPLINETYPE
 70
     6
  9
$SPLINESEGS
 70
     8
  9
$HANDSEED
  5
593
  9
$SURFTAB1
 70
     6
  9
$SURFTAB2
 70
     6
  9
$SURFTYPE
 70
     6
  9
$SURFU
 70
     6
  9
$SURFV
 70
     6
  9
$UCSBASE
  2

  9
$UCSNAME
  2

  9
$UCSORG
 10
0.0
 20
0.0
 30
0.0
  9
$UCSXDIR
 10
1.0
 20
0.0
 30
0.0
  9
$UCSYDIR
 10
0.0
 20
1.0
 30
0.0
  9
$UCSORTHOREF
  2

  9
$UCSORTHOVIEW
 70
     0
  9
$UCSORGTOP
 10
0.0
 20
0.0
 30
0.0
  9
$UCSORGBOTTOM
 10
0.0
 20
0.0
 30
0.0
  9
$UCSORGLEFT
 10
0.0
 20
0.0
 30
0.0
  9
$UCSORGRIGHT
 10
0.0
 20
0.0
 30
0.0
  9
$UCSORGFRONT
 10
0.0
 20
0.0
 30
0.0
  9
$UCSORGBACK
 10
0.0
 20
0.0
 30
0.0
  9
$PUCSBASE
  2

  9
$PUCSNAME
  2

  9
$PUCSORG
 10
0.0
 20
0.0
 30
0.0
  9
$PUCSXDIR
 10
1.0
 20
0.0
 30
0.0
  9
$PUCSYDIR
 10
0.0
 20
1.0
 30
0.0
  9
$PUCSORTHOREF
  2

  9
$PUCSORTHOVIEW
 70
     0
  9
$PUCSORGTOP
 10
0.0
 20
0.0
 30
0.0
  9
$PUCSORGBOTTOM
 10
0.0
 20
0.0
 30
0.0
  9
$PUCSORGLEFT
 10
0.0
 20
0.0
 30
0.0
  9
$PUCSORGRIGHT
 10
0.0
 20
0.0
 30
0.0
  9
$PUCSORGFRONT
 10
0.0
 20
0.0
 30
0.0
  9
$PUCSORGBACK
 10
0.0
 20
0.0
 30
0.0
  9
$USERI1
 70
     0
  9
$USERI2
 70
     0
  9
$USERI3
 70
     0
  9
$USERI4
 70
     0
  9
$USERI5
 70
     0
  9
$USERR1
 40
0.0
  9
$USERR2
 40
0.0
  9
$USERR3
 40
0.0
  9
$USERR4
 40
0.0
  9
$USERR5
 40
0.0
  9
$WORLDVIEW
 70
     1
  9
$SHADEDGE
 70
     3
  9
$SHADEDIF
 70
    70
  9
$TILEMODE
 70
     1
  9
$MAXACTVP
 70
    16
  9
$PINSBASE
 10
0.0
 20
0.0
 30
0.0
  9
$PLIMCHECK
 70
     0
  9
$PEXTMIN
 10
1.000000E+20
 20
1.000000E+20
 30
1.000000E+20
  9
$PEXTMAX
 10
-1.000000E+20
 20
-1.000000E+20
 30
-1.000000E+20
  9
$PLIMMIN
 10
0.0
 20
0.0
  9
$PLIMMAX
 10
420.0
 20
297.0
  9
$UNITMODE
 70
     0
  9
$VISRETAIN
 70
     0
  9
$PLINEGEN
 70
     1
  9
$PSLTSCALE
 70
     0
  9
$TREEDEPTH
 70
  3020
  9
$CMLSTYLE
  2
Standard
  9
$CMLJUST
 70
     0
  9
$CMLSCALE
 40
1.0
  9
$PROXYGRAPHICS
 70
     0
  9
$MEASUREMENT
 70
     0
  9
$CELWEIGHT
370
     0
  9
$ENDCAPS
280
     0
  9
$JOINSTYLE
280
     0
  9
$LWDISPLAY
290
     0
  9
$INSUNITS
 70
     0
  9
$HYPERLINKBASE
  1

  9
$XEDIT
290
     1
  9
$CEPSNTYPE
380
     0
  9
$PSTYLEMODE
290
     0
  9
$FINGERPRINTGUID
  2

  9
$VERSIONGUID
  2

  9
$EXTNAMES
290
     1
  9
$PSVPSCALE
 40
0.0
  0
ENDSEC
  0
SECTION
  2
CLASSES
  0
CLASS
  1
LWPOLYLINE
  2
AcDbPolyline
  3
"AutoCAD"
 90
        0
280
     0
281
     1
  0
CLASS
  1
IMAGE
  2
AcDbRasterImage
  3
ISM
 90
      127
280
     0
281
     1
  0
CLASS
  1
OLE2FRAME
  2
AcDbOle2Frame
  3
""
 90
        0
280
     0
281
     1
  0
CLASS
  1
HATCH
  2
AcDbHatch
  3
"ACAD_SEDONA"
 90
        0
280
     0
281
     1
  0
CLASS
  1
DICTIONARYVAR
  2
AcDbDictionaryVar
  3
"AutoCAD"
 90
        0
280
     0
281
     0
  0
CLASS
  1
RASTERVARIABLES
  2
AcDbRasterVariables
  3
ISM
 90
        0
280
     0
281
     0
  0
CLASS
  1
IMAGEDEF
  2
AcDbRasterImageDef
  3
ISM
 90
        0
280
     0
281
     0
  0
CLASS
  1
IMAGEDEF_REACTOR
  2
AcDbRasterImageDefReactor
  3
ISM
 90
        1
280
     0
281
     0
  0
CLASS
  1
IDBUFFER
  2
AcDbIdBuffer
  3
"Acad"
 90
        0
280
     0
281
     0
  0
CLASS
  1
SPATIAL_FILTER
  2
AcDbSpatialFilter
  3
"Acad"
 90
        0
280
     0
281
     0
  0
CLASS
  1
XRECORD
  2
AcDbXrecord
  3
"<Built In>"
 90
        0
280
     0
281
     0
  0
CLASS
  1
SORTENTSTABLE
  2
AcDbSortentsTable
  3
"AutoCAD"
 90
        0
280
     0
281
     0
  0
CLASS
  1
LAYER_INDEX
  2
AcDbLayerIndex
  3
"Acad"
 90
        0
280
     0
281
     0
  0
CLASS
  1
SPATIAL_INDEX
  2
AcDbSpatialIndex
  3
"Acad"
 90
        0
280
     0
281
     0
  0
CLASS
  1
OBJECT_PTR
  2
CAseDLPNTableRecord
  3
"ASE-LPNTableRecord"
 90
        1
280
     0
281
     0
  0
CLASS
  1
LAYOUT
  2
AcDbLayout
  3
"AutoCAD 2000"
 90
        1
280
     0
281
     0
  0
CLASS
  1
PLOTSETTINGS
  2
AcDbPlotSettings
  3
"AutoCAD 2000"
 90
        1
280
     0
281
     0
  0
CLASS
  1
ACDBDICTIONARYWDFLT
  2
AcDbDictionaryWithDefault
  3
"AutoCAD 2000"
 90
        1
280
     0
281
     0
  0
CLASS
  1
ACDBPLACEHOLDER
  2
AcDbPlaceHolder
  3
"AutoCAD 2000"
 90
        1
280
     0
281
     0
  0
CLASS
  1
VBA_PROJECT
  2
AcDbVbaProject
  3
"acadvba"
 90
        1
280
     0
281
     0
  0
CLASS
  1
WIPEOUT
  2
AcDbWipeout
  3
WipeOut|AutoCAD Express Tool|expresstools@autodesk.com
 90
      127
280
     0
281
     1
  0
CLASS
  1
WIPEOUTVARIABLES
  2
AcDbWipeoutVariables
  3
WipeOut|AutoCAD Express Tool|expresstools@autodesk.com
 90
        0
280
     0
281
     0
  0
CLASS
  1
RTEXT
  2
RText
  3
RText|AutoCAD Express Tool|expresstools@autodesk.com
 90
        0
280
     0
281
     1
  0
CLASS
  1
ARCALIGNEDTEXT
  2
AcDbArcAlignedText
  3
ATEXT|AutoCAD Express Tool|expresstools@autodesk.com
 90
        0
280
     0
281
     1
  0
ENDSEC
  0
SECTION
  2
TABLES
  0
TABLE
  2
VPORT
  5
7
100
AcDbSymbolTable
 70
     1
  0
VPORT
  5
15
100
AcDbSymbolTableRecord
100
AcDbViewportTableRecord
  2
*ACTIVE
 70
     0
 10
0.0
 20
0.0
 11
1.0
 21
1.0
 12
6.591288
 22
4.579184
 13
0.0
 23
0.0
 14
1.0
 24
1.0
 15
0.0
 25
0.0
 16
0.0
 26
0.0
 36
1.0
 17
0.0
 27
0.0
 37
0.0
 40
9.158369
 41
0.688564
 42
50.0
 43
0.0
 44
0.0
 50
0.0
 51
0.0
 71
     0
 72
   100
 73
     1
 74
     1
 75
     0
 76
     0
 77
     0
 78
     0
281
     0
 65
     0
110
0.0
120
0.0
130
0.0
111
1.0
121
0.0
131
0.0
112
0.0
122
1.0
132
0.0
345
0
346
0
 79
     0
146
0.0
  0
ENDTAB
  0
TABLE
  2
LTYPE
  5
4
100
AcDbSymbolTable
 70
     7
  0
LTYPE
  5
11
100
AcDbSymbolTableRecord
100
AcDbLinetypeTableRecord
  2
ByBlock
 70
    64
  3

 72
    65
 73
     0
 40
0.0
  0
LTYPE
  5
12
100
AcDbSymbolTableRecord
100
AcDbLinetypeTableRecord
  2
ByLayer
 70
    64
  3

 72
    65
 73
     0
 40
0.0
  0
LTYPE
  5
13
100
AcDbSymbolTableRecord
100
AcDbLinetypeTableRecord
  2
Continuous
 70
    64
  3
Solid line
 72
    65
 73
     0
 40
0.0
  0
LTYPE
  5
24
100
AcDbSymbolTableRecord
100
AcDbLinetypeTableRecord
  2
HIDDEN
 70
    64
  3
_ _ _ _ _ _ _ _ _ _ _ _ _ _ _ _ _ _ _ _ _ _ _ _
 72
    65
 73
     2
 40
0.1875
 49
0.125
 74
     0
 49
-0.0625
 74
     0
  0
LTYPE
  5
25
100
AcDbSymbolTableRecord
100
AcDbLinetypeTableRecord
  2
DOTTED
 70
    64
  3
...............................................
 72
    65
 73
     2
 40
0.125
 49
0.0
 74
     0
 49
-0.125
 74
     0
  0
LTYPE
  5
26
100
AcDbSymbolTableRecord
100
AcDbLinetypeTableRecord
  2
CENTER
 70
    64
  3
____ _ ____ _ ____ _ ____ _ ____ _ ____ _ ____ 
 72
    65
 73
     4
 40
1.125
 49
0.75
 74
     0
 49
-0.125
 74
     0
 49
0.125
 74
     0
 49
-0.125
 74
     0
  0
LTYPE
  5
27
100
AcDbSymbolTableRecord
100
AcDbLinetypeTableRecord
  2
PHANTOM
 70
    64
  3
______  __  __  ______  __  __  ______  __  __ 
 72
    65
 73
     6
 40
1.25
 49
0.625
 74
     0
 49
-0.125
 74
     0
 49
0.125
 74
     0
 49
-0.125
 74
     0
 49
0.125
 74
     0
 49
-0.125
 74
     0
  0
ENDTAB
  0
TABLE
  2
LAYER
  5
2
100
AcDbSymbolTable
 70
     2
  0
LAYER
  5
14
100
AcDbSymbolTableRecord
100
AcDbLayerTableRecord
  2
0
 70
     0
 62
     7
  6
Continuous
290
     1
370
    -3
390
1D
  0
LAYER
  5
28
100
AcDbSymbolTableRecord
100
AcDbLayerTableRecord
  2
TEXT
 70
     0
 62
     8
  6
Continuous
290
     1
370
    -3
390
1F
  0
ENDTAB
  0
TABLE
  2
STYLE
  5
3
100
AcDbSymbolTable
 70
     1
  0
STYLE
  5
17
100
AcDbSymbolTableRecord
100
AcDbTextStyleTableRecord
  2
Standard
 70
     0
 40
0.0
 41
1.0
 50
0.0
 71
     0
 42
0.0
  3
txt
  4

  0
ENDTAB
  0
TABLE
  2
VIEW
  5
5
100
AcDbSymbolTable
 70
     0
  0
ENDTAB
  0
TABLE
  2
UCS
  5
6
100
AcDbSymbolTable
 70
     0
  0
ENDTAB
  0
TABLE
  2
APPID
  5
8
100
AcDbSymbolTable
 70
     1
  0
APPID
  5
16
100
AcDbSymbolTableRecord
100
AcDbRegAppTableRecord
  2
ACAD
 70
     0
  0
ENDTAB
  0
TABLE
  2
DIMSTYLE
  5
9
100
AcDbSymbolTable
 70
     1
100
AcDbDimStyleTable
 71
     0
  0
DIMSTYLE
105
18
100
AcDbSymbolTableRecord
100
AcDbDimStyleTableRecord
  2
Standard
 70
     0
  3

  4

 40
1.0
 41
0.18
 42
0.0625
 43
0.38
 44
0.18
 45
0.0
 46
0.0
 47
0.0
 48
0.0
 71
     0
 72
     0
 73
     1
 74
     1
 75
     0
 76
     0
 77
     0
 78
     0
 79
     0
140
0.18
141
0.09
142
0.0
143
25.4
144
1.0
145
0.0
146
1.0
147
0.09
148
0.0
170
     0
171
     2
172
     0
173
     0
174
     0
175
     0
176
     0
177
     0
178
     0
179
     0
271
     4
272
     4
273
     2
274
     2
275
     0
276
     0
277
     2
278
    46
279
     0
280
     0
281
     0
282
     0
283
     1
284
     0
285
     0
286
     0
288
     0
340
17
341
0
342
0
343
0
344
0
371
    -2
372
    -2
  0
ENDTAB
  0
TABLE
  2
BLOCK_RECORD
  5
1
100
AcDbSymbolTable
 70
    94
  0
BLOCK_RECORD
  5
A
100
AcDbSymbolTableRecord
100
AcDbBlockTableRecord
  2
*MODEL_SPACE
340
20
  0
BLOCK_RECORD
  5
B
100
AcDbSymbolTableRecord
100
AcDbBlockTableRecord
  2
*PAPER_SPACE
340
21
  0
BLOCK_RECORD
  5
29
100
AcDbSymbolTableRecord
100
AcDbBlockTableRecord
  2
*B0
340
0
  0
BLOCK_RECORD
  5
2C
100
AcDbSymbolTableRecord
100
AcDbBlockTableRecord
  2
*B1
340
0
  0
BLOCK_RECORD
  5
1C3
100
AcDbSymbolTableRecord
100
AcDbBlockTableRecord
  2
*B2
340
0
  0
BLOCK_RECORD
  5
1CA
100
AcDbSymbolTableRecord
100
AcDbBlockTableRecord
  2
*B3
340
0
  0
BLOCK_RECORD
  5
34C
100
AcDbSymbolTableRecord
100
AcDbBlockTableRecord
  2
*B4
340
0
  0
BLOCK_RECORD
  5
353
100
AcDbSymbolTableRecord
100
AcDbBlockTableRecord
  2
*B5
340
0
  0
BLOCK_RECORD
  5
35A
100
AcDbSymbolTableRecord
100
AcDbBlockTableRecord
  2
*B6
340
0
  0
BLOCK_RECORD
  5
361
100
AcDbSymbolTableRecord
100
AcDbBlockTableRecord
  2
*B7
340
0
  0
BLOCK_RECORD
  5
368
100
AcDbSymbolTableRecord
100
AcDbBlockTableRecord
  2
*B8
340
0
  0
BLOCK_RECORD
  5
36F
100
AcDbSymbolTableRecord
100
AcDbBlockTableRecord
  2
*B9
340
0
  0
BLOCK_RECORD
  5
376
100
AcDbSymbolTableRecord
100
AcDbBlockTableRecord
  2
*B10
340
0
  0
BLOCK_RECORD
  5
37D
100
AcDbSymbolTableRecord
100
AcDbBlockTableRecord
  2
*B11
340
0
  0
BLOCK_RECORD
  5
384
100
AcDbSymbolTableRecord
100
AcDbBlockTableRecord
  2
*B12
340
0
  0
BLOCK_RECORD
  5
38B
100
AcDbSymbolTableRecord
100
AcDbBlockTableRecord
  2
*B13
340
0
  0
BLOCK_RECORD
  5
392
100
AcDbSymbolTableRecord
100
AcDbBlockTableRecord
  2
*B14
340
0
  0
BLOCK_RECORD
  5
399
100
AcDbSymbolTableRecord
100
AcDbBlockTableRecord
  2
*B15
340
0
  0
BLOCK_RECORD
  5
3A0
100
AcDbSymbolTableRecord
100
AcDbBlockTableRecord
  2
*B16
340
0
  0
BLOCK_RECORD
  5
3A7
100
AcDbSymbolTableRecord
100
AcDbBlockTableRecord
  2
*B17
340
0
  0
BLOCK_RECORD
  5
3AE
100
AcDbSymbolTableRecord
100
AcDbBlockTableRecord
  2
*B18
340
0
  0
BLOCK_RECORD
  5
3B5
100
AcDbSymbolTableRecord
100
AcDbBlockTableRecord
  2
*B19
340
0
  0
BLOCK_RECORD
  5
3BC
100
AcDbSymbolTableRecord
100
AcDbBlockTableRecord
  2
*B20
340
0
  0
BLOCK_RECORD
  5
3C3
100
AcDbSymbolTableRecord
100
AcDbBlockTableRecord
  2
*B21
340
0
  0
BLOCK_RECORD
  5
3CA
100
AcDbSymbolTableRecord
100
AcDbBlockTableRecord
  2
*B22
340
0
  0
BLOCK_RECORD
  5
3CF
100
AcDbSymbolTableRecord
100
AcDbBlockTableRecord
  2
*B23
340
0
  0
BLOCK_RECORD
  5
3D5
100
AcDbSymbolTableRecord
100
AcDbBlockTableRecord
  2
*B24
340
0
  0
BLOCK_RECORD
  5
3DA
100
AcDbSymbolTableRecord
100
AcDbBlockTableRecord
  2
*B25
340
0
  0
BLOCK_RECORD
  5
3DF
100
AcDbSymbolTableRecord
100
AcDbBlockTableRecord
  2
*B26
340
0
  0
BLOCK_RECORD
  5
3E5
100
AcDbSymbolTableRecord
100
AcDbBlockTableRecord
  2
*B27
340
0
  0
BLOCK_RECORD
  5
3EA
100
AcDbSymbolTableRecord
100
AcDbBlockTableRecord
  2
*B28
340
0
  0
BLOCK_RECORD
  5
403
100
AcDbSymbolTableRecord
100
AcDbBlockTableRecord
  2
*B29
340
0
  0
BLOCK_RECORD
  5
408
100
AcDbSymbolTableRecord
100
AcDbBlockTableRecord
  2
*B30
340
0
  0
BLOCK_RECORD
  5
40E
100
AcDbSymbolTableRecord
100
AcDbBlockTableRecord
  2
*B31
340
0
  0
BLOCK_RECORD
  5
413
100
AcDbSymbolTableRecord
100
AcDbBlockTableRecord
  2
*B32
340
0
  0
BLOCK_RECORD
  5
418
100
AcDbSymbolTableRecord
100
AcDbBlockTableRecord
  2
*B33
340
0
  0
BLOCK_RECORD
  5
41D
100
AcDbSymbolTableRecord
100
AcDbBlockTableRecord
  2
*B34
340
0
  0
BLOCK_RECORD
  5
423
100
AcDbSymbolTableRecord
100
AcDbBlockTableRecord
  2
*B35
340
0
  0
BLOCK_RECORD
  5
42D
100
AcDbSymbolTableRecord
100
AcDbBlockTableRecord
  2
*B36
340
0
  0
BLOCK_RECORD
  5
433
100
AcDbSymbolTableRecord
100
AcDbBlockTableRecord
  2
*B37
340
0
  0
BLOCK_RECORD
  5
439
100
AcDbSymbolTableRecord
100
AcDbBlockTableRecord
  2
*B38
340
0
  0
BLOCK_RECORD
  5
44D
100
AcDbSymbolTableRecord
100
AcDbBlockTableRecord
  2
*B39
340
0
  0
BLOCK_RECORD
  5
453
100
AcDbSymbolTableRecord
100
AcDbBlockTableRecord
  2
*B40
340
0
  0
BLOCK_RECORD
  5
458
100
AcDbSymbolTableRecord
100
AcDbBlockTableRecord
  2
*B41
340
0
  0
BLOCK_RECORD
  5
45D
100
AcDbSymbolTableRecord
100
AcDbBlockTableRecord
  2
*B42
340
0
  0
BLOCK_RECORD
  5
463
100
AcDbSymbolTableRecord
100
AcDbBlockTableRecord
  2
*B43
340
0
  0
BLOCK_RECORD
  5
468
100
AcDbSymbolTableRecord
100
AcDbBlockTableRecord
  2
*B44
340
0
  0
BLOCK_RECORD
  5
46D
100
AcDbSymbolTableRecord
100
AcDbBlockTableRecord
  2
*B45
340
0
  0
BLOCK_RECORD
  5
477
100
AcDbSymbolTableRecord
100
AcDbBlockTableRecord
  2
*B46
340
0
  0
BLOCK_RECORD
  5
47C
100
AcDbSymbolTableRecord
100
AcDbBlockTableRecord
  2
*B47
340
0
  0
BLOCK_RECORD
  5
482
100
AcDbSymbolTableRecord
100
AcDbBlockTableRecord
  2
*B48
340
0
  0
BLOCK_RECORD
  5
488
100
AcDbSymbolTableRecord
100
AcDbBlockTableRecord
  2
*B49
340
0
  0
BLOCK_RECORD
  5
48D
100
AcDbSymbolTableRecord
100
AcDbBlockTableRecord
  2
*B50
340
0
  0
BLOCK_RECORD
  5
497
100
AcDbSymbolTableRecord
100
AcDbBlockTableRecord
  2
*B51
340
0
  0
BLOCK_RECORD
  5
4A1
100
AcDbSymbolTableRecord
100
AcDbBlockTableRecord
  2
*B52
340
0
  0
BLOCK_RECORD
  5
4A6
100
AcDbSymbolTableRecord
100
AcDbBlockTableRecord
  2
*B53
340
0
  0
BLOCK_RECORD
  5
4AC
100
AcDbSymbolTableRecord
100
AcDbBlockTableRecord
  2
*B54
340
0
  0
BLOCK_RECORD
  5
4B2
100
AcDbSymbolTableRecord
100
AcDbBlockTableRecord
  2
*B55
340
0
  0
BLOCK_RECORD
  5
4BC
100
AcDbSymbolTableRecord
100
AcDbBlockTableRecord
  2
*B56
340
0
  0
BLOCK_RECORD
  5
4C1
100
AcDbSymbolTableRecord
100
AcDbBlockTableRecord
  2
*B57
340
0
  0
BLOCK_RECORD
  5
4C6
100
AcDbSymbolTableRecord
100
AcDbBlockTableRecord
  2
*B58
340
0
  0
BLOCK_RECORD
  5
4CB
100
AcDbSymbolTableRecord
100
AcDbBlockTableRecord
  2
*B59
340
0
  0
BLOCK_RECORD
  5
4D4
100
AcDbSymbolTableRecord
100
AcDbBlockTableRecord
  2
*B60
340
0
  0
BLOCK_RECORD
  5
4DF
100
AcDbSymbolTableRecord
100
AcDbBlockTableRecord
  2
*B61
340
0
  0
BLOCK_RECORD
  5
4E5
100
AcDbSymbolTableRecord
100
AcDbBlockTableRecord
  2
*B62
340
0
  0
BLOCK_RECORD
  5
4EE
100
AcDbSymbolTableRecord
100
AcDbBlockTableRecord
  2
*B63
340
0
  0
BLOCK_RECORD
  5
4F4
100
AcDbSymbolTableRecord
100
AcDbBlockTableRecord
  2
*B64
340
0
  0
BLOCK_RECORD
  5
4FA
100
AcDbSymbolTableRecord
100
AcDbBlockTableRecord
  2
*B65
340
0
  0
BLOCK_RECORD
  5
500
100
AcDbSymbolTableRecord
100
AcDbBlockTableRecord
  2
*B66
340
0
  0
BLOCK_RECORD
  5
506
100
AcDbSymbolTableRecord
100
AcDbBlockTableRecord
  2
*B67
340
0
  0
BLOCK_RECORD
  5
50C
100
AcDbSymbolTableRecord
100
AcDbBlockTableRecord
  2
*B68
340
0
  0
BLOCK_RECORD
  5
512
100
AcDbSymbolTableRecord
100
AcDbBlockTableRecord
  2
*B69
340
0
  0
BLOCK_RECORD
  5
518
100
AcDbSymbolTableRecord
100
AcDbBlockTableRecord
  2
*B70
340
0
  0
BLOCK_RECORD
  5
51E
100
AcDbSymbolTableRecord
100
AcDbBlockTableRecord
  2
*B71
340
0
  0
BLOCK_RECORD
  5
523
100
AcDbSymbolTableRecord
100
AcDbBlockTableRecord
  2
*B72
340
0
  0
BLOCK_RECORD
  5
528
100
AcDbSymbolTableRecord
100
AcDbBlockTableRecord
  2
*B73
340
0
  0
BLOCK_RECORD
  5
52D
100
AcDbSymbolTableRecord
100
AcDbBlockTableRecord
  2
*B74
340
0
  0
BLOCK_RECORD
  5
532
100
AcDbSymbolTableRecord
100
AcDbBlockTableRecord
  2
*B75
340
0
  0
BLOCK_RECORD
  5
537
100
AcDbSymbolTableRecord
100
AcDbBlockTableRecord
  2
*B76
340
0
  0
BLOCK_RECORD
  5
53C
100
AcDbSymbolTableRecord
100
AcDbBlockTableRecord
  2
*B77
340
0
  0
BLOCK_RECORD
  5
541
100
AcDbSymbolTableRecord
100
AcDbBlockTableRecord
  2
*B78
340
0
  0
BLOCK_RECORD
  5
546
100
AcDbSymbolTableRecord
100
AcDbBlockTableRecord
  2
*B79
340
0
  0
BLOCK_RECORD
  5
54B
100
AcDbSymbolTableRecord
100
AcDbBlockTableRecord
  2
*B80
340
0
  0
BLOCK_RECORD
  5
550
100
AcDbSymbolTableRecord
100
AcDbBlockTableRecord
  2
*B81
340
0
  0
BLOCK_RECORD
  5
555
100
AcDbSymbolTableRecord
100
AcDbBlockTableRecord
  2
*B82
340
0
  0
BLOCK_RECORD
  5
55A
100
AcDbSymbolTableRecord
100
AcDbBlockTableRecord
  2
*B83
340
0
  0
BLOCK_RECORD
  5
55F
100
AcDbSymbolTableRecord
100
AcDbBlockTableRecord
  2
*B84
340
0
  0
BLOCK_RECORD
  5
564
100
AcDbSymbolTableRecord
100
AcDbBlockTableRecord
  2
*B85
340
0
  0
BLOCK_RECORD
  5
569
100
AcDbSymbolTableRecord
100
AcDbBlockTableRecord
  2
*B86
340
0
  0
BLOCK_RECORD
  5
56E
100
AcDbSymbolTableRecord
100
AcDbBlockTableRecord
  2
*B87
340
0
  0
BLOCK_RECORD
  5
573
100
AcDbSymbolTableRecord
100
AcDbBlockTableRecord
  2
*B88
340
0
  0
BLOCK_RECORD
  5
578
100
AcDbSymbolTableRecord
100
AcDbBlockTableRecord
  2
*B89
340
0
  0
BLOCK_RECORD
  5
57E
100
AcDbSymbolTableRecord
100
AcDbBlockTableRecord
  2
*B90
340
0
  0
BLOCK_RECORD
  5
583
100
AcDbSymbolTableRecord
100
AcDbBlockTableRecord
  2
*B91
340
0
  0
BLOCK_RECORD
  5
589
100
AcDbSymbolTableRecord
100
AcDbBlockTableRecord
  2
*B92
340
0
  0
BLOCK_RECORD
  5
58E
100
AcDbSymbolTableRecord
100
AcDbBlockTableRecord
  2
*B93
340
0
  0
ENDTAB
  0
ENDSEC
  0
SECTION
  2
BLOCKS
  0
BLOCK
  5
D
100
AcDbEntity
  8
0
100
AcDbBlockBegin
  2
*MODEL_SPACE
 70
     0
 10
0.0
 20
0.0
 30
0.0
  3
*MODEL_SPACE
  1

  0
ENDBLK
  5
E
100
AcDbEntity
  8
0
100
AcDbBlockEnd
  0
BLOCK
  5
F
100
AcDbEntity
 67
     1
  8
0
100
AcDbBlockBegin
  2
*PAPER_SPACE
 70
     0
 10
0.0
 20
0.0
 30
0.0
  3
*PAPER_SPACE
  1

  0
ENDBLK
  5
10
100
AcDbEntity
 67
     1
  8
0
100
AcDbBlockEnd
  0
BLOCK
  5
2A
100
AcDbEntity
  8
0
100
AcDbBlockBegin
  2
*B0
 70
     0
 10
0.0
 20
0.0
 30
0.0
  3
*B0
  1

  0
ENDBLK
  5
2B
100
AcDbEntity
  8
0
100
AcDbBlockEnd
  0
BLOCK
  5
2D
100
AcDbEntity
  8
0
100
AcDbBlockBegin
  2
*B1
 70
     0
 10
0.0
 20
0.0
 30
0.0
  3
*B1
  1

  0
LINE
  5
2E
100
AcDbEntity
  8
0
  6
HIDDEN
 62
   174
100
AcDbLine
 10
245.482998
 20
123.363533
 30
0.0
 11
229.482998
 21
123.363533
 31
0.0
  0
LINE
  5
2F
100
AcDbEntity
  8
0
  6
HIDDEN
 62
   174
100
AcDbLine
 10
245.482998
 20
104.883533
 30
0.0
 11
229.482998
 21
104.883533
 31
0.0
  0
LINE
  5
30
100
AcDbEntity
  8
0
  6
HIDDEN
 62
   174
100
AcDbLine
 10
245.482998
 20
124.343533
 30
0.0
 11
229.482998
 21
124.343533
 31
0.0
  0
LINE
  5
31
100
AcDbEntity
  8
0
  6
HIDDEN
 62
   174
100
AcDbLine
 10
245.482998
 20
114.656496
 30
0.0
 11
245.482998
 21
104.927201
 31
0.0
  0
LINE
  5
32
100
AcDbEntity
  8
0
  6
HIDDEN
 62
   174
100
AcDbLine
 10
229.482998
 20
114.656496
 30
0.0
 11
229.482998
 21
104.927201
 31
0.0
  0
LINE
  5
33
100
AcDbEntity
  8
0
  6
HIDDEN
 62
   174
100
AcDbLine
 10
229.482998
 20
124.385791
 30
0.0
 11
229.482998
 21
114.656496
 31
0.0
  0
LINE
  5
34
100
AcDbEntity
  8
0
  6
HIDDEN
 62
   174
100
AcDbLine
 10
245.482998
 20
124.385791
 30
0.0
 11
245.482998
 21
114.656496
 31
0.0
  0
LINE
  5
35
100
AcDbEntity
  8
0
  6
HIDDEN
 62
   174
100
AcDbLine
 10
229.482998
 20
123.363533
 30
0.0
 11
247.482998
 21
123.363533
 31
0.0
  0
LINE
  5
36
100
AcDbEntity
  8
0
  6
HIDDEN
 62
   174
100
AcDbLine
 10
229.482998
 20
105.863533
 30
0.0
 11
247.482998
 21
105.863533
 31
0.0
  0
LINE
  5
37
100
AcDbEntity
  8
0
  6
HIDDEN
 62
   174
100
AcDbLine
 10
245.482998
 20
105.863533
 30
0.0
 11
229.482998
 21
105.863533
 31
0.0
  0
LINE
  5
38
100
AcDbEntity
  8
0
  6
HIDDEN
 62
   174
100
AcDbLine
 10
229.482998
 20
105.90713
 30
0.0
 11
229.482998
 21
114.656496
 31
0.0
  0
LINE
  5
39
100
AcDbEntity
  8
0
  6
HIDDEN
 62
   174
100
AcDbLine
 10
229.482998
 20
114.656496
 30
0.0
 11
229.482998
 21
123.405862
 31
0.0
  0
LINE
  5
3A
100
AcDbEntity
  8
0
  6
HIDDEN
 62
   174
100
AcDbLine
 10
229.482998
 20
73.909535
 30
0.0
 11
229.482998
 21
82.658901
 31
0.0
  0
ARC
  5
3B
100
AcDbEntity
  8
0
  6
Continuous
 62
   174
100
AcDbCircle
 10
236.482998
 20
174.313533
 30
0.0
 40
3.0
100
AcDbArc
 50
-90.0
 51
0.0
  0
ARC
  5
3C
100
AcDbEntity
  8
0
  6
Continuous
 62
   174
100
AcDbCircle
 10
236.482998
 20
174.313533
 30
0.0
 40
3.0
100
AcDbArc
 50
144.0
 51
162.0
  0
ARC
  5
3D
100
AcDbEntity
  8
0
  6
HIDDEN
 62
   174
100
AcDbCircle
 10
236.482998
 20
174.313533
 30
0.0
 40
3.0
100
AcDbArc
 50
64.442518
 51
90.0
  0
ARC
  5
3E
100
AcDbEntity
  8
0
  6
HIDDEN
 62
   174
100
AcDbCircle
 10
236.482998
 20
174.313533
 30
0.0
 40
3.0
100
AcDbArc
 50
90.0
 51
102.751396
  0
ARC
  5
3F
100
AcDbEntity
  8
0
  6
HIDDEN
 62
   174
100
AcDbCircle
 10
236.482998
 20
174.313533
 30
0.0
 40
3.0
100
AcDbArc
 50
105.446092
 51
108.0
  0
ARC
  5
40
100
AcDbEntity
  8
0
  6
Continuous
 62
   174
100
AcDbCircle
 10
236.482998
 20
174.313533
 30
0.0
 40
3.0
100
AcDbArc
 50
-180.0
 51
-90.0
  0
ARC
  5
41
100
AcDbEntity
  8
0
  6
Continuous
 62
   174
100
AcDbCircle
 10
275.12542
 20
186.05872
 30
0.0
 40
3.0
100
AcDbArc
 50
-335.152938
 51
-300.164549
  0
ARC
  5
42
100
AcDbEntity
  8
0
  6
Continuous
 62
   174
100
AcDbCircle
 10
275.12542
 20
186.05872
 30
0.0
 40
3.0
100
AcDbArc
 50
-354.936041
 51
-351.310401
  0
ARC
  5
43
100
AcDbEntity
  8
0
  6
Continuous
 62
   174
100
AcDbCircle
 10
275.12542
 20
186.05872
 30
0.0
 40
3.0
100
AcDbArc
 50
-116.832423
 51
-90.0
  0
ARC
  5
44
100
AcDbEntity
  8
0
  6
Continuous
 62
   174
100
AcDbCircle
 10
275.12542
 20
186.05872
 30
0.0
 40
3.0
100
AcDbArc
 50
-120.164549
 51
-116.832423
  0
ARC
  5
45
100
AcDbEntity
  8
0
  6
Continuous
 62
   174
100
AcDbCircle
 10
275.12542
 20
186.05872
 30
0.0
 40
3.0
100
AcDbArc
 50
-155.152938
 51
-120.164549
  0
ARC
  5
46
100
AcDbEntity
  8
0
  6
HIDDEN
 62
   174
100
AcDbCircle
 10
236.482998
 20
174.313533
 30
0.0
 40
3.0
100
AcDbArc
 50
102.751396
 51
105.446092
  0
ARC
  5
47
100
AcDbEntity
  8
0
  6
Continuous
 62
   174
100
AcDbCircle
 10
275.12542
 20
186.05872
 30
0.0
 40
3.0
100
AcDbArc
 50
-348.125696
 51
-347.142857
  0
ARC
  5
48
100
AcDbEntity
  8
0
  6
Continuous
 62
   174
100
AcDbCircle
 10
275.12542
 20
186.05872
 30
0.0
 40
3.0
100
AcDbArc
 50
-71.922417
 51
-35.241054
  0
LINE
  5
49
100
AcDbEntity
  8
0
  6
HIDDEN
 62
   174
100
AcDbLine
 10
229.482998
 20
82.658901
 30
0.0
 11
229.482998
 21
91.408267
 31
0.0
  0
ARC
  5
4A
100
AcDbEntity
  8
0
  6
Continuous
 62
   174
100
AcDbCircle
 10
236.482998
 20
174.313533
 30
0.0
 40
3.0
100
AcDbArc
 50
108.0
 51
126.0
  0
ARC
  5
4B
100
AcDbEntity
  8
0
  6
Continuous
 62
   174
100
AcDbCircle
 10
236.482998
 20
174.313533
 30
0.0
 40
3.0
100
AcDbArc
 50
126.0
 51
144.0
  0
ARC
  5
4C
100
AcDbEntity
  8
0
  6
HIDDEN
 62
   174
100
AcDbCircle
 10
236.482998
 20
174.313533
 30
0.0
 40
3.0
100
AcDbArc
 50
-144.0
 51
0.0
  0
ARC
  5
4D
100
AcDbEntity
  8
0
  6
HIDDEN
 62
   174
100
AcDbCircle
 10
236.482998
 20
174.313533
 30
0.0
 40
3.0
100
AcDbArc
 50
16.77508
 51
18.0
  0
ARC
  5
4E
100
AcDbEntity
  8
0
  6
HIDDEN
 62
   174
100
AcDbCircle
 10
236.482998
 20
174.313533
 30
0.0
 40
3.0
100
AcDbArc
 50
108.0
 51
126.0
  0
ARC
  5
4F
100
AcDbEntity
  8
0
  6
Continuous
 62
   174
100
AcDbCircle
 10
236.482998
 20
174.313533
 30
0.0
 40
3.0
100
AcDbArc
 50
0.0
 51
90.0
  0
ARC
  5
50
100
AcDbEntity
  8
0
  6
Continuous
 62
   174
100
AcDbCircle
 10
272.281111
 20
204.844616
 30
0.0
 40
2.8
100
AcDbArc
 50
-325.900462
 51
-248.347333
  0
ARC
  5
51
100
AcDbEntity
  8
0
  6
Continuous
 62
   174
100
AcDbCircle
 10
275.12542
 20
186.05872
 30
0.0
 40
3.0
100
AcDbArc
 50
-296.832423
 51
-270.0
  0
ARC
  5
52
100
AcDbEntity
  8
0
  6
Continuous
 62
   174
100
AcDbCircle
 10
275.12542
 20
186.05872
 30
0.0
 40
3.0
100
AcDbArc
 50
-300.164549
 51
-296.832423
  0
ARC
  5
53
100
AcDbEntity
  8
0
  6
Continuous
 62
   174
100
AcDbCircle
 10
275.12542
 20
186.05872
 30
0.0
 40
3.0
100
AcDbArc
 50
-29.610991
 51
5.063959
  0
ARC
  5
54
100
AcDbEntity
  8
0
  6
HIDDEN
 62
   174
100
AcDbCircle
 10
236.482998
 20
174.313533
 30
0.0
 40
3.0
100
AcDbArc
 50
145.831409
 51
147.850764
  0
ARC
  5
55
100
AcDbEntity
  8
0
  6
HIDDEN
 62
   174
100
AcDbCircle
 10
236.482998
 20
174.313533
 30
0.0
 40
3.0
100
AcDbArc
 50
147.850764
 51
162.0
  0
ARC
  5
56
100
AcDbEntity
  8
0
  6
HIDDEN
 62
   174
100
AcDbCircle
 10
236.482998
 20
174.313533
 30
0.0
 40
3.0
100
AcDbArc
 50
162.0
 51
180.0
  0
ARC
  5
57
100
AcDbEntity
  8
0
  6
Continuous
 62
   174
100
AcDbCircle
 10
236.482998
 20
174.313533
 30
0.0
 40
3.0
100
AcDbArc
 50
-90.0
 51
0.0
  0
ARC
  5
58
100
AcDbEntity
  8
0
  6
Continuous
 62
   174
100
AcDbCircle
 10
272.281111
 20
204.844616
 30
0.0
 40
2.8
100
AcDbArc
 50
-145.900462
 51
-68.347333
  0
ARC
  5
59
100
AcDbEntity
  8
0
  6
HIDDEN
 62
   174
100
AcDbCircle
 10
272.281111
 20
204.844616
 30
0.0
 40
2.0
100
AcDbArc
 50
-171.39043
 51
-156.099198
  0
ARC
  5
5A
100
AcDbEntity
  8
0
  6
HIDDEN
 62
   174
100
AcDbCircle
 10
272.281111
 20
204.844616
 30
0.0
 40
2.0
100
AcDbArc
 50
-221.112493
 51
-207.34681
  0
ARC
  5
5B
100
AcDbEntity
  8
0
  6
HIDDEN
 62
   174
100
AcDbCircle
 10
272.281111
 20
204.844616
 30
0.0
 40
2.0
100
AcDbArc
 50
-234.627712
 51
-221.112493
  0
ARC
  5
5C
100
AcDbEntity
  8
0
  6
HIDDEN
 62
   174
100
AcDbCircle
 10
272.281111
 20
204.844616
 30
0.0
 40
2.0
100
AcDbArc
 50
-248.827062
 51
-234.627712
  0
ARC
  5
5D
100
AcDbEntity
  8
0
  6
HIDDEN
 62
   174
100
AcDbCircle
 10
272.281111
 20
204.844616
 30
0.0
 40
2.0
100
AcDbArc
 50
-260.180436
 51
-248.827062
  0
ARC
  5
5E
100
AcDbEntity
  8
0
  6
HIDDEN
 62
   174
100
AcDbCircle
 10
272.281111
 20
204.844616
 30
0.0
 40
2.0
100
AcDbArc
 50
-271.896138
 51
-260.180436
  0
ARC
  5
5F
100
AcDbEntity
  8
0
  6
HIDDEN
 62
   174
100
AcDbCircle
 10
272.281111
 20
204.844616
 30
0.0
 40
2.0
100
AcDbArc
 50
-285.550859
 51
-271.896138
  0
ARC
  5
60
100
AcDbEntity
  8
0
  6
HIDDEN
 62
   174
100
AcDbCircle
 10
272.281111
 20
204.844616
 30
0.0
 40
2.0
100
AcDbArc
 50
-299.154566
 51
-285.550859
  0
ARC
  5
61
100
AcDbEntity
  8
0
  6
HIDDEN
 62
   174
100
AcDbCircle
 10
272.281111
 20
204.844616
 30
0.0
 40
2.0
100
AcDbArc
 50
-309.378332
 51
-299.154566
  0
ARC
  5
62
100
AcDbEntity
  8
0
  6
HIDDEN
 62
   174
100
AcDbCircle
 10
272.281111
 20
204.844616
 30
0.0
 40
2.0
100
AcDbArc
 50
-323.426111
 51
-309.378332
  0
ARC
  5
63
100
AcDbEntity
  8
0
  6
HIDDEN
 62
   174
100
AcDbCircle
 10
272.281111
 20
204.844616
 30
0.0
 40
2.0
100
AcDbArc
 50
-27.34681
 51
-15.026796
  0
ARC
  5
64
100
AcDbEntity
  8
0
  6
HIDDEN
 62
   174
100
AcDbCircle
 10
272.281111
 20
204.844616
 30
0.0
 40
2.0
100
AcDbArc
 50
-119.154566
 51
-105.550859
  0
ARC
  5
65
100
AcDbEntity
  8
0
  6
HIDDEN
 62
   174
100
AcDbCircle
 10
272.281111
 20
204.844616
 30
0.0
 40
2.0
100
AcDbArc
 50
-129.378332
 51
-119.154566
  0
ARC
  5
66
100
AcDbEntity
  8
0
  6
HIDDEN
 62
   174
100
AcDbCircle
 10
272.281111
 20
204.844616
 30
0.0
 40
2.0
100
AcDbArc
 50
-143.426111
 51
-129.378332
  0
ARC
  5
67
100
AcDbEntity
  8
0
  6
HIDDEN
 62
   174
100
AcDbCircle
 10
272.281111
 20
204.844616
 30
0.0
 40
2.0
100
AcDbArc
 50
-156.099198
 51
-143.426111
  0
ARC
  5
68
100
AcDbEntity
  8
0
  6
Continuous
 62
   174
100
AcDbCircle
 10
275.12542
 20
186.05872
 30
0.0
 40
3.0
100
AcDbArc
 50
-351.310401
 51
-348.125696
  0
ARC
  5
69
100
AcDbEntity
  8
0
  6
Continuous
 62
   174
100
AcDbCircle
 10
236.482998
 20
174.313533
 30
0.0
 40
3.0
100
AcDbArc
 50
90.0
 51
108.0
  0
ARC
  5
6A
100
AcDbEntity
  8
0
  6
HIDDEN
 62
   174
100
AcDbCircle
 10
236.482998
 20
174.313533
 30
0.0
 40
3.0
100
AcDbArc
 50
21.877413
 51
60.412758
  0
ARC
  5
6B
100
AcDbEntity
  8
0
  6
HIDDEN
 62
   174
100
AcDbCircle
 10
236.482998
 20
174.313533
 30
0.0
 40
3.0
100
AcDbArc
 50
144.0
 51
145.831409
  0
ARC
  5
6C
100
AcDbEntity
  8
0
  6
Continuous
 62
   174
100
AcDbCircle
 10
236.482998
 20
174.313533
 30
0.0
 40
3.0
100
AcDbArc
 50
-270.0
 51
-180.0
  0
ARC
  5
6D
100
AcDbEntity
  8
0
  6
Continuous
 62
   174
100
AcDbCircle
 10
272.281111
 20
204.844616
 30
0.0
 40
2.8
100
AcDbArc
 50
-68.347333
 51
-16.880398
  0
ARC
  5
6E
100
AcDbEntity
  8
0
  6
HIDDEN
 62
   174
100
AcDbCircle
 10
272.281111
 20
204.844616
 30
0.0
 40
2.0
100
AcDbArc
 50
-336.099198
 51
-323.426111
  0
ARC
  5
6F
100
AcDbEntity
  8
0
  6
HIDDEN
 62
   174
100
AcDbCircle
 10
272.281111
 20
204.844616
 30
0.0
 40
2.0
100
AcDbArc
 50
-351.39043
 51
-336.099198
  0
ARC
  5
70
100
AcDbEntity
  8
0
  6
HIDDEN
 62
   174
100
AcDbCircle
 10
272.281111
 20
204.844616
 30
0.0
 40
2.0
100
AcDbArc
 50
-1.848794
 51
8.60957
  0
ARC
  5
71
100
AcDbEntity
  8
0
  6
HIDDEN
 62
   174
100
AcDbCircle
 10
272.281111
 20
204.844616
 30
0.0
 40
2.0
100
AcDbArc
 50
-15.026796
 51
-1.848794
  0
ARC
  5
72
100
AcDbEntity
  8
0
  6
HIDDEN
 62
   174
100
AcDbCircle
 10
272.281111
 20
204.844616
 30
0.0
 40
2.0
100
AcDbArc
 50
-80.180436
 51
-68.827062
  0
ARC
  5
73
100
AcDbEntity
  8
0
  6
Continuous
 62
   174
100
AcDbCircle
 10
275.12542
 20
186.05872
 30
0.0
 40
3.0
100
AcDbArc
 50
-347.142857
 51
-345.979738
  0
ARC
  5
74
100
AcDbEntity
  8
0
  6
Continuous
 62
   174
100
AcDbCircle
 10
275.12542
 20
186.05872
 30
0.0
 40
3.0
100
AcDbArc
 50
-79.518467
 51
-71.922417
  0
ARC
  5
75
100
AcDbEntity
  8
0
  6
Continuous
 62
   174
100
AcDbCircle
 10
236.482998
 20
174.313533
 30
0.0
 40
3.0
100
AcDbArc
 50
162.0
 51
180.0
  0
ARC
  5
76
100
AcDbEntity
  8
0
  6
Continuous
 62
   174
100
AcDbCircle
 10
236.482998
 20
174.313533
 30
0.0
 40
3.0
100
AcDbArc
 50
180.0
 51
198.0
  0
ARC
  5
77
100
AcDbEntity
  8
0
  6
Continuous
 62
   174
100
AcDbCircle
 10
236.482998
 20
174.313533
 30
0.0
 40
3.0
100
AcDbArc
 50
216.0
 51
234.0
  0
ARC
  5
78
100
AcDbEntity
  8
0
  6
HIDDEN
 62
   174
100
AcDbCircle
 10
236.482998
 20
174.313533
 30
0.0
 40
3.0
100
AcDbArc
 50
18.468812
 51
21.877413
  0
ARC
  5
79
100
AcDbEntity
  8
0
  6
HIDDEN
 62
   174
100
AcDbCircle
 10
236.482998
 20
174.313533
 30
0.0
 40
3.0
100
AcDbArc
 50
126.0
 51
144.0
  0
ARC
  5
7A
100
AcDbEntity
  8
0
  6
HIDDEN
 62
   174
100
AcDbCircle
 10
272.281111
 20
204.844616
 30
0.0
 40
2.0
100
AcDbArc
 50
-171.39043
 51
8.60957
  0
ARC
  5
7B
100
AcDbEntity
  8
0
  6
HIDDEN
 62
   174
100
AcDbCircle
 10
272.281111
 20
204.844616
 30
0.0
 40
2.0
100
AcDbArc
 50
8.60957
 51
188.60957
  0
ARC
  5
7C
100
AcDbEntity
  8
0
  6
Continuous
 62
   174
100
AcDbCircle
 10
272.281111
 20
204.844616
 30
0.0
 40
2.8
100
AcDbArc
 50
-351.39043
 51
-325.900462
  0
ARC
  5
7D
100
AcDbEntity
  8
0
  6
Continuous
 62
   174
100
AcDbCircle
 10
272.281111
 20
204.844616
 30
0.0
 40
2.8
100
AcDbArc
 50
-16.880398
 51
8.60957
  0
ARC
  5
7E
100
AcDbEntity
  8
0
  6
Continuous
 62
   174
100
AcDbCircle
 10
272.281111
 20
204.844616
 30
0.0
 40
2.8
100
AcDbArc
 50
-171.39043
 51
-145.900462
  0
ARC
  5
7F
100
AcDbEntity
  8
0
  6
Continuous
 62
   174
100
AcDbCircle
 10
272.281111
 20
204.844616
 30
0.0
 40
2.8
100
AcDbArc
 50
-248.347333
 51
-196.880398
  0
ARC
  5
80
100
AcDbEntity
  8
0
  6
HIDDEN
 62
   174
100
AcDbCircle
 10
272.281111
 20
204.844616
 30
0.0
 40
2.0
100
AcDbArc
 50
-181.848794
 51
-171.39043
  0
ARC
  5
81
100
AcDbEntity
  8
0
  6
HIDDEN
 62
   174
100
AcDbCircle
 10
272.281111
 20
204.844616
 30
0.0
 40
2.0
100
AcDbArc
 50
-195.026796
 51
-181.848794
  0
ARC
  5
82
100
AcDbEntity
  8
0
  6
HIDDEN
 62
   174
100
AcDbCircle
 10
272.281111
 20
204.844616
 30
0.0
 40
2.0
100
AcDbArc
 50
-207.34681
 51
-195.026796
  0
ARC
  5
83
100
AcDbEntity
  8
0
  6
HIDDEN
 62
   174
100
AcDbCircle
 10
272.281111
 20
204.844616
 30
0.0
 40
2.8
100
AcDbArc
 50
-351.39043
 51
-171.39043
  0
ARC
  5
84
100
AcDbEntity
  8
0
  6
HIDDEN
 62
   174
100
AcDbCircle
 10
272.281111
 20
204.844616
 30
0.0
 40
2.8
100
AcDbArc
 50
-171.39043
 51
8.60957
  0
ARC
  5
85
100
AcDbEntity
  8
0
  6
Continuous
 62
   174
100
AcDbCircle
 10
236.482998
 20
174.313533
 30
0.0
 40
3.0
100
AcDbArc
 50
252.0
 51
270.0
  0
ARC
  5
86
100
AcDbEntity
  8
0
  6
HIDDEN
 62
   174
100
AcDbCircle
 10
236.482998
 20
174.313533
 30
0.0
 40
3.0
100
AcDbArc
 50
0.0
 51
6.861213
  0
ARC
  5
87
100
AcDbEntity
  8
0
  6
HIDDEN
 62
   174
100
AcDbCircle
 10
236.482998
 20
174.313533
 30
0.0
 40
3.0
100
AcDbArc
 50
18.0
 51
18.468812
  0
ARC
  5
88
100
AcDbEntity
  8
0
  6
HIDDEN
 62
   174
100
AcDbCircle
 10
236.482998
 20
174.313533
 30
0.0
 40
3.0
100
AcDbArc
 50
60.412758
 51
64.442518
  0
LINE
  5
89
100
AcDbEntity
  8
0
  6
Continuous
 62
   174
100
AcDbLine
 10
289.482998
 20
46.613533
 30
0.0
 11
289.482998
 21
163.613533
 31
0.0
  0
LINE
  5
8A
100
AcDbEntity
  8
0
  6
Continuous
 62
   174
100
AcDbLine
 10
289.482998
 20
163.613533
 30
0.0
 11
243.482998
 21
163.613533
 31
0.0
  0
ARC
  5
8B
100
AcDbEntity
  8
0
  6
HIDDEN
 62
   174
100
AcDbCircle
 10
272.281111
 20
204.844616
 30
0.0
 40
2.0
100
AcDbArc
 50
-41.112493
 51
-27.34681
  0
ARC
  5
8C
100
AcDbEntity
  8
0
  6
HIDDEN
 62
   174
100
AcDbCircle
 10
272.281111
 20
204.844616
 30
0.0
 40
2.0
100
AcDbArc
 50
-54.627712
 51
-41.112493
  0
ARC
  5
8D
100
AcDbEntity
  8
0
  6
HIDDEN
 62
   174
100
AcDbCircle
 10
272.281111
 20
204.844616
 30
0.0
 40
2.0
100
AcDbArc
 50
-68.827062
 51
-54.627712
  0
ARC
  5
8E
100
AcDbEntity
  8
0
  6
HIDDEN
 62
   174
100
AcDbCircle
 10
272.281111
 20
204.844616
 30
0.0
 40
2.0
100
AcDbArc
 50
-91.896138
 51
-80.180436
  0
ARC
  5
8F
100
AcDbEntity
  8
0
  6
HIDDEN
 62
   174
100
AcDbCircle
 10
272.281111
 20
204.844616
 30
0.0
 40
2.0
100
AcDbArc
 50
-105.550859
 51
-91.896138
  0
ARC
  5
90
100
AcDbEntity
  8
0
  6
Continuous
 62
   174
100
AcDbCircle
 10
275.12542
 20
186.05872
 30
0.0
 40
3.0
100
AcDbArc
 50
-345.979738
 51
-335.152938
  0
ARC
  5
91
100
AcDbEntity
  8
0
  6
Continuous
 62
   174
100
AcDbCircle
 10
275.12542
 20
186.05872
 30
0.0
 40
3.0
100
AcDbArc
 50
-35.241054
 51
-29.610991
  0
ARC
  5
92
100
AcDbEntity
  8
0
  6
Continuous
 62
   174
100
AcDbCircle
 10
236.482998
 20
174.313533
 30
0.0
 40
3.0
100
AcDbArc
 50
198.0
 51
216.0
  0
ARC
  5
93
100
AcDbEntity
  8
0
  6
Continuous
 62
   174
100
AcDbCircle
 10
236.482998
 20
174.313533
 30
0.0
 40
3.0
100
AcDbArc
 50
234.0
 51
252.0
  0
ARC
  5
94
100
AcDbEntity
  8
0
  6
Continuous
 62
   174
100
AcDbCircle
 10
236.482998
 20
174.313533
 30
0.0
 40
3.0
100
AcDbArc
 50
0.0
 51
90.0
  0
ARC
  5
95
100
AcDbEntity
  8
0
  6
HIDDEN
 62
   174
100
AcDbCircle
 10
236.482998
 20
174.313533
 30
0.0
 40
3.0
100
AcDbArc
 50
6.861213
 51
16.77508
  0
ARC
  5
96
100
AcDbEntity
  8
0
  6
HIDDEN
 62
   174
100
AcDbCircle
 10
236.482998
 20
174.313533
 30
0.0
 40
3.0
100
AcDbArc
 50
180.0
 51
216.0
  0
LINE
  5
97
100
AcDbEntity
  8
0
  6
Continuous
 62
   174
100
AcDbLine
 10
229.482998
 20
182.613533
 30
0.0
 11
243.482998
 21
182.613533
 31
0.0
  0
LINE
  5
98
100
AcDbEntity
  8
0
  6
Continuous
 62
   174
100
AcDbLine
 10
243.482998
 20
182.613533
 30
0.0
 11
243.482998
 21
163.613533
 31
0.0
  0
ARC
  5
99
100
AcDbEntity
  8
0
  6
Continuous
 62
   174
100
AcDbCircle
 10
272.281111
 20
204.844616
 30
0.0
 40
2.8
100
AcDbArc
 50
-196.880398
 51
-171.39043
  0
ARC
  5
9A
100
AcDbEntity
  8
0
  6
Continuous
 62
   174
100
AcDbCircle
 10
275.12542
 20
186.05872
 30
0.0
 40
3.0
100
AcDbArc
 50
-270.0
 51
-259.518467
  0
ARC
  5
9B
100
AcDbEntity
  8
0
  6
Continuous
 62
   174
100
AcDbCircle
 10
275.12542
 20
186.05872
 30
0.0
 40
3.0
100
AcDbArc
 50
-90.0
 51
-79.518467
  0
ARC
  5
9C
100
AcDbEntity
  8
0
  6
Continuous
 62
   174
100
AcDbCircle
 10
272.281111
 20
204.844616
 30
0.0
 40
2.0
100
AcDbArc
 50
-221.167215
 51
-207.258649
  0
LINE
  5
9D
100
AcDbEntity
  8
0
  6
Continuous
 62
   174
100
AcDbLine
 10
229.482998
 20
46.613533
 30
0.0
 11
289.482998
 21
46.613533
 31
0.0
  0
ARC
  5
9E
100
AcDbEntity
  8
0
  6
HIDDEN
 62
   174
100
AcDbCircle
 10
275.12542
 20
186.05872
 30
0.0
 40
3.0
100
AcDbArc
 50
-33.469396
 51
8.60957
  0
ARC
  5
9F
100
AcDbEntity
  8
0
  6
Continuous
 62
   174
100
AcDbCircle
 10
275.12542
 20
186.05872
 30
0.0
 40
3.0
100
AcDbArc
 50
280.13985
 51
284.451522
  0
ARC
  5
A0
100
AcDbEntity
  8
0
  6
HIDDEN
 62
   174
100
AcDbCircle
 10
236.482998
 20
174.313533
 30
0.0
 40
3.0
100
AcDbArc
 50
64.534224
 51
105.504333
  0
ARC
  5
A1
100
AcDbEntity
  8
0
  6
Continuous
 62
   174
100
AcDbCircle
 10
272.281111
 20
204.844616
 30
0.0
 40
2.0
100
AcDbArc
 50
-297.437293
 51
-285.701015
  0
ARC
  5
A2
100
AcDbEntity
  8
0
  6
Continuous
 62
   174
100
AcDbCircle
 10
272.281111
 20
204.844616
 30
0.0
 40
2.0
100
AcDbArc
 50
-15.129184
 51
-12.857143
  0
ARC
  5
A3
100
AcDbEntity
  8
0
  6
Continuous
 62
   174
100
AcDbCircle
 10
275.482998
 20
146.613533
 30
0.0
 40
4.5
100
AcDbArc
 50
0.0
 51
180.0
  0
LINE
  5
A4
100
AcDbEntity
  8
0
  6
Continuous
 62
   174
100
AcDbLine
 10
269.378448
 20
172.08633
 30
0.0
 11
284.500634
 21
177.577996
 31
0.0
  0
LINE
  5
A5
100
AcDbEntity
  8
0
  6
Continuous
 62
   174
100
AcDbLine
 10
268.986233
 20
173.166356
 30
0.0
 11
250.200337
 21
170.322046
 31
0.0
  0
LINE
  5
A6
100
AcDbEntity
  8
0
  6
Continuous
 62
   174
100
AcDbLine
 10
244.567349
 20
167.446381
 30
0.0
 11
243.482998
 21
167.282203
 31
0.0
  0
ARC
  5
A7
100
AcDbEntity
  8
0
  6
HIDDEN
 62
   174
100
AcDbCircle
 10
236.482998
 20
174.313533
 30
0.0
 40
3.0
100
AcDbArc
 50
60.298126
 51
64.534224
  0
ARC
  5
A8
100
AcDbEntity
  8
0
  6
HIDDEN
 62
   174
100
AcDbCircle
 10
236.482998
 20
174.313533
 30
0.0
 40
3.0
100
AcDbArc
 50
193.865966
 51
196.600627
  0
ARC
  5
A9
100
AcDbEntity
  8
0
  6
Continuous
 62
   174
100
AcDbCircle
 10
275.482998
 20
146.613533
 30
0.0
 40
4.5
100
AcDbArc
 50
-180.0
 51
0.0
  0
ARC
  5
AA
100
AcDbEntity
  8
0
  6
Continuous
 62
   174
100
AcDbCircle
 10
243.482998
 20
146.613533
 30
0.0
 40
4.5
100
AcDbArc
 50
-180.0
 51
0.0
  0
ARC
  5
AB
100
AcDbEntity
  8
0
  6
Continuous
 62
   174
100
AcDbCircle
 10
243.482998
 20
146.613533
 30
0.0
 40
7.5
100
AcDbArc
 50
-180.0
 51
0.0
  0
ARC
  5
AC
100
AcDbEntity
  8
0
  6
HIDDEN
 62
   174
100
AcDbCircle
 10
275.12542
 20
186.05872
 30
0.0
 40
3.0
100
AcDbArc
 50
286.379819
 51
327.248368
  0
ARC
  5
AD
100
AcDbEntity
  8
0
  6
Continuous
 62
   174
100
AcDbCircle
 10
275.12542
 20
186.05872
 30
0.0
 40
3.0
100
AcDbArc
 50
270.274274
 51
280.13985
  0
LINE
  5
AE
100
AcDbEntity
  8
0
  6
HIDDEN
 62
   174
100
AcDbLine
 10
237.862222
 20
182.613533
 30
0.0
 11
230.406712
 21
181.484719
 31
0.0
  0
ARC
  5
AF
100
AcDbEntity
  8
0
  6
Continuous
 62
   174
100
AcDbCircle
 10
275.12542
 20
186.05872
 30
0.0
 40
3.0
100
AcDbArc
 50
63.221487
 51
90.274274
  0
LINE
  5
B0
100
AcDbEntity
  8
0
  6
HIDDEN
 62
   174
100
AcDbLine
 10
289.482998
 20
56.930809
 30
0.0
 11
289.482998
 21
66.660104
 31
0.0
  0
LINE
  5
B1
100
AcDbEntity
  8
0
  6
HIDDEN
 62
   174
100
AcDbLine
 10
273.482998
 20
140.343533
 30
0.0
 11
289.482998
 21
140.343533
 31
0.0
  0
ARC
  5
B2
100
AcDbEntity
  8
0
  6
Continuous
 62
   174
100
AcDbCircle
 10
275.12542
 20
186.05872
 30
0.0
 40
3.0
100
AcDbArc
 50
-167.142857
 51
-165.979738
  0
ARC
  5
B3
100
AcDbEntity
  8
0
  6
Continuous
 62
   174
100
AcDbCircle
 10
275.12542
 20
186.05872
 30
0.0
 40
3.0
100
AcDbArc
 50
-174.936041
 51
-171.310401
  0
ARC
  5
B4
100
AcDbEntity
  8
0
  6
Continuous
 62
   174
100
AcDbCircle
 10
272.281111
 20
204.844616
 30
0.0
 40
2.0
100
AcDbArc
 50
-272.057194
 51
-270.0
  0
ARC
  5
B5
100
AcDbEntity
  8
0
  6
HIDDEN
 62
   174
100
AcDbCircle
 10
236.482998
 20
174.313533
 30
0.0
 40
3.0
100
AcDbArc
 50
147.887786
 51
179.707807
  0
LINE
  5
B6
100
AcDbEntity
  8
0
  6
HIDDEN
 62
   174
100
AcDbLine
 10
245.482998
 20
72.883533
 30
0.0
 11
229.482998
 21
72.883533
 31
0.0
  0
LINE
  5
B7
100
AcDbEntity
  8
0
  6
HIDDEN
 62
   174
100
AcDbLine
 10
243.549386
 20
174.169754
 30
0.0
 11
244.567349
 21
167.446381
 31
0.0
  0
LINE
  5
B8
100
AcDbEntity
  8
0
  6
HIDDEN
 62
   174
100
AcDbLine
 10
273.482998
 20
120.883533
 30
0.0
 11
289.482998
 21
120.883533
 31
0.0
  0
LINE
  5
B9
100
AcDbEntity
  8
0
  6
HIDDEN
 62
   174
100
AcDbLine
 10
245.482998
 20
91.363533
 30
0.0
 11
229.482998
 21
91.363533
 31
0.0
  0
ARC
  5
BA
100
AcDbEntity
  8
0
  6
Continuous
 62
   174
100
AcDbCircle
 10
275.12542
 20
186.05872
 30
0.0
 40
3.0
100
AcDbArc
 50
-29.549587
 51
4.599335
  0
ARC
  5
BB
100
AcDbEntity
  8
0
  6
HIDDEN
 62
   174
100
AcDbCircle
 10
236.482998
 20
174.313533
 30
0.0
 40
3.0
100
AcDbArc
 50
240.298126
 51
244.534224
  0
ARC
  5
BC
100
AcDbEntity
  8
0
  6
Continuous
 62
   174
100
AcDbCircle
 10
272.281111
 20
204.844616
 30
0.0
 40
2.0
100
AcDbArc
 50
-270.0
 51
-259.952236
  0
ARC
  5
BD
100
AcDbEntity
  8
0
  6
Continuous
 62
   174
100
AcDbCircle
 10
272.281111
 20
204.844616
 30
0.0
 40
2.0
100
AcDbArc
 50
-192.857143
 51
-181.837533
  0
ARC
  5
BE
100
AcDbEntity
  8
0
  6
HIDDEN
 62
   174
100
AcDbCircle
 10
275.12542
 20
186.05872
 30
0.0
 40
3.0
100
AcDbArc
 50
284.451522
 51
326.530604
  0
ARC
  5
BF
100
AcDbEntity
  8
0
  6
HIDDEN
 62
   174
100
AcDbCircle
 10
275.12542
 20
186.05872
 30
0.0
 40
8.0
100
AcDbArc
 50
44.470685
 51
70.147867
  0
ARC
  5
C0
100
AcDbEntity
  8
0
  6
Continuous
 62
   174
100
AcDbCircle
 10
272.281111
 20
204.844616
 30
0.0
 40
2.0
100
AcDbArc
 50
-309.385144
 51
-297.437293
  0
ARC
  5
C1
100
AcDbEntity
  8
0
  6
HIDDEN
 62
   174
100
AcDbCircle
 10
275.12542
 20
186.05872
 30
0.0
 40
3.0
100
AcDbArc
 50
242.372351
 51
284.451522
  0
ARC
  5
C2
100
AcDbEntity
  8
0
  6
HIDDEN
 62
   174
100
AcDbCircle
 10
275.12542
 20
186.05872
 30
0.0
 40
8.0
100
AcDbArc
 50
327.439292
 51
353.116356
  0
ARC
  5
C3
100
AcDbEntity
  8
0
  6
HIDDEN
 62
   174
100
AcDbCircle
 10
236.482998
 20
174.313533
 30
0.0
 40
3.0
100
AcDbArc
 50
64.534224
 51
105.504333
  0
ARC
  5
C4
100
AcDbEntity
  8
0
  6
HIDDEN
 62
   174
100
AcDbCircle
 10
236.482998
 20
174.313533
 30
0.0
 40
3.0
100
AcDbArc
 50
196.600627
 51
200.293199
  0
LINE
  5
C5
100
AcDbEntity
  8
0
  6
Continuous
 62
   174
100
AcDbLine
 10
269.161675
 20
172.007608
 30
0.0
 11
269.378448
 21
172.08633
 31
0.0
  0
LINE
  5
C6
100
AcDbEntity
  8
0
  6
HIDDEN
 62
   174
100
AcDbLine
 10
247.482998
 20
105.90713
 30
0.0
 11
247.482998
 21
114.656496
 31
0.0
  0
ARC
  5
C7
100
AcDbEntity
  8
0
  6
Continuous
 62
   174
100
AcDbCircle
 10
272.281111
 20
204.844616
 30
0.0
 40
2.0
100
AcDbArc
 50
-349.305477
 51
-335.999537
  0
ARC
  5
C8
100
AcDbEntity
  8
0
  6
Continuous
 62
   174
100
AcDbCircle
 10
272.281111
 20
204.844616
 30
0.0
 40
9.6
100
AcDbArc
 50
-3.39043
 51
14.609979
  0
LINE
  5
C9
100
AcDbEntity
  8
0
  6
Continuous
 62
   174
100
AcDbLine
 10
229.482998
 20
165.16251
 30
0.0
 11
228.659094
 21
165.037765
 31
0.0
  0
ARC
  5
CA
100
AcDbEntity
  8
0
  6
HIDDEN
 62
   174
100
AcDbCircle
 10
275.12542
 20
186.05872
 30
0.0
 40
8.0
100
AcDbArc
 50
301.762193
 51
327.439292
  0
LINE
  5
CB
100
AcDbEntity
  8
0
  6
HIDDEN
 62
   174
100
AcDbLine
 10
247.482998
 20
73.909535
 30
0.0
 11
247.482998
 21
82.658901
 31
0.0
  0
LINE
  5
CC
100
AcDbEntity
  8
0
  6
HIDDEN
 62
   174
100
AcDbLine
 10
273.482998
 20
56.930809
 30
0.0
 11
273.482998
 21
66.660104
 31
0.0
  0
ARC
  5
CD
100
AcDbEntity
  8
0
  6
Continuous
 62
   174
100
AcDbCircle
 10
275.12542
 20
186.05872
 30
0.0
 40
3.0
100
AcDbArc
 50
-165.979738
 51
-155.152938
  0
ARC
  5
CE
100
AcDbEntity
  8
0
  6
Continuous
 62
   174
100
AcDbCircle
 10
275.12542
 20
186.05872
 30
0.0
 40
3.0
100
AcDbArc
 50
-171.310401
 51
-168.125696
  0
ARC
  5
CF
100
AcDbEntity
  8
0
  6
Continuous
 62
   174
100
AcDbCircle
 10
272.281111
 20
204.844616
 30
0.0
 40
2.0
100
AcDbArc
 50
-92.057194
 51
-90.0
  0
ARC
  5
D0
100
AcDbEntity
  8
0
  6
HIDDEN
 62
   174
100
AcDbCircle
 10
272.281111
 20
204.844616
 30
0.0
 40
9.6
100
AcDbArc
 50
86.60957
 51
266.60957
  0
ARC
  5
D1
100
AcDbEntity
  8
0
  6
HIDDEN
 62
   174
100
AcDbCircle
 10
275.12542
 20
186.05872
 30
0.0
 40
3.0
100
AcDbArc
 50
242.938781
 51
286.379819
  0
ARC
  5
D2
100
AcDbEntity
  8
0
  6
HIDDEN
 62
   174
100
AcDbCircle
 10
236.482998
 20
174.313533
 30
0.0
 40
3.0
100
AcDbArc
 50
179.707807
 51
188.60957
  0
ARC
  5
D3
100
AcDbEntity
  8
0
  6
Continuous
 62
   174
100
AcDbCircle
 10
272.281111
 20
204.844616
 30
0.0
 40
2.0
100
AcDbArc
 50
-105.701015
 51
-92.057194
  0
ARC
  5
D4
100
AcDbEntity
  8
0
  6
Continuous
 62
   174
100
AcDbCircle
 10
272.281111
 20
204.844616
 30
0.0
 40
2.0
100
AcDbArc
 50
-169.305477
 51
-155.999537
  0
ARC
  5
D5
100
AcDbEntity
  8
0
  6
Continuous
 62
   174
100
AcDbCircle
 10
272.281111
 20
204.844616
 30
0.0
 40
10.0
100
AcDbArc
 50
14.233425
 51
86.60957
  0
LINE
  5
D6
100
AcDbEntity
  8
0
  6
Continuous
 62
   174
100
AcDbLine
 10
280.190962
 20
206.04222
 30
0.0
 11
283.824245
 21
182.045361
 31
0.0
  0
ARC
  5
D7
100
AcDbEntity
  8
0
  6
Continuous
 62
   174
100
AcDbCircle
 10
272.281111
 20
204.844616
 30
0.0
 40
2.0
100
AcDbArc
 50
-66.547476
 51
-54.495191
  0
LINE
  5
D8
100
AcDbEntity
  8
0
  6
HIDDEN
 62
   174
100
AcDbLine
 10
289.482998
 20
139.363533
 30
0.0
 11
271.482998
 21
139.363533
 31
0.0
  0
LINE
  5
D9
100
AcDbEntity
  8
0
  6
HIDDEN
 62
   174
100
AcDbLine
 10
273.482998
 20
89.863533
 30
0.0
 11
289.482998
 21
89.863533
 31
0.0
  0
LINE
  5
DA
100
AcDbEntity
  8
0
  6
HIDDEN
 62
   174
100
AcDbLine
 10
237.862222
 20
182.613533
 30
0.0
 11
243.482998
 21
182.613533
 31
0.0
  0
ARC
  5
DB
100
AcDbEntity
  8
0
  6
Continuous
 62
   174
100
AcDbCircle
 10
272.281111
 20
204.844616
 30
0.0
 40
2.0
100
AcDbArc
 50
-207.258649
 51
-195.129184
  0
ARC
  5
DC
100
AcDbEntity
  8
0
  6
Continuous
 62
   174
100
AcDbCircle
 10
272.281111
 20
204.844616
 30
0.0
 40
2.0
100
AcDbArc
 50
-246.547476
 51
-234.495191
  0
LINE
  5
DD
100
AcDbEntity
  8
0
  6
HIDDEN
 62
   174
100
AcDbLine
 10
268.686832
 20
175.143819
 30
0.0
 11
268.986233
 21
173.166356
 31
0.0
  0
ARC
  5
DE
100
AcDbEntity
  8
0
  6
Continuous
 62
   174
100
AcDbCircle
 10
275.12542
 20
186.05872
 30
0.0
 40
3.0
100
AcDbArc
 50
9.18258
 51
10.637002
  0
ARC
  5
DF
100
AcDbEntity
  8
0
  6
Continuous
 62
   174
100
AcDbCircle
 10
275.12542
 20
186.05872
 30
0.0
 40
3.0
100
AcDbArc
 50
284.451522
 51
288.164189
  0
ARC
  5
E0
100
AcDbEntity
  8
0
  6
HIDDEN
 62
   174
100
AcDbCircle
 10
236.482998
 20
174.313533
 30
0.0
 40
3.0
100
AcDbArc
 50
105.504333
 51
147.887786
  0
ARC
  5
E1
100
AcDbEntity
  8
0
  6
HIDDEN
 62
   174
100
AcDbCircle
 10
236.482998
 20
174.313533
 30
0.0
 40
3.0
100
AcDbArc
 50
147.887786
 51
179.707807
  0
ARC
  5
E2
100
AcDbEntity
  8
0
  6
HIDDEN
 62
   174
100
AcDbCircle
 10
236.482998
 20
174.313533
 30
0.0
 40
3.0
100
AcDbArc
 50
200.293199
 51
240.298126
  0
LINE
  5
E3
100
AcDbEntity
  8
0
  6
HIDDEN
 62
   174
100
AcDbLine
 10
247.482998
 20
91.408267
 30
0.0
 11
247.482998
 21
82.658901
 31
0.0
  0
ARC
  5
E4
100
AcDbEntity
  8
0
  6
HIDDEN
 62
   174
100
AcDbCircle
 10
243.482998
 20
146.613533
 30
0.0
 40
7.5
100
AcDbArc
 50
0.0
 51
180.0
  0
ARC
  5
E5
100
AcDbEntity
  8
0
  6
Continuous
 62
   174
100
AcDbCircle
 10
272.281111
 20
204.844616
 30
0.0
 40
2.0
100
AcDbArc
 50
-335.999537
 51
-323.499644
  0
ARC
  5
E6
100
AcDbEntity
  8
0
  6
HIDDEN
 62
   174
100
AcDbCircle
 10
275.12542
 20
186.05872
 30
0.0
 40
3.0
100
AcDbArc
 50
8.60957
 51
188.60957
  0
LINE
  5
E7
100
AcDbEntity
  8
0
  6
HIDDEN
 62
   174
100
AcDbLine
 10
289.482998
 20
107.407064
 30
0.0
 11
289.482998
 21
98.657699
 31
0.0
  0
LINE
  5
E8
100
AcDbEntity
  8
0
  6
HIDDEN
 62
   174
100
AcDbLine
 10
289.482998
 20
98.657699
 30
0.0
 11
289.482998
 21
89.908333
 31
0.0
  0
LINE
  5
E9
100
AcDbEntity
  8
0
  6
Continuous
 62
   174
100
AcDbLine
 10
243.549386
 20
174.169754
 30
0.0
 11
244.567349
 21
167.446381
 31
0.0
  0
ARC
  5
EA
100
AcDbEntity
  8
0
  6
Continuous
 62
   174
100
AcDbCircle
 10
275.12542
 20
186.05872
 30
0.0
 40
3.0
100
AcDbArc
 50
90.274274
 51
100.13985
  0
ARC
  5
EB
100
AcDbEntity
  8
0
  6
Continuous
 62
   174
100
AcDbCircle
 10
243.482998
 20
146.613533
 30
0.0
 40
7.5
100
AcDbArc
 50
0.0
 51
180.0
  0
ARC
  5
EC
100
AcDbEntity
  8
0
  6
HIDDEN
 62
   174
100
AcDbCircle
 10
275.12542
 20
186.05872
 30
0.0
 40
3.0
100
AcDbArc
 50
8.60957
 51
23.157874
  0
ARC
  5
ED
100
AcDbEntity
  8
0
  6
HIDDEN
 62
   174
100
AcDbCircle
 10
236.482998
 20
174.313533
 30
0.0
 40
3.0
100
AcDbArc
 50
200.293199
 51
240.298126
  0
ARC
  5
EE
100
AcDbEntity
  8
0
  6
Continuous
 62
   174
100
AcDbCircle
 10
272.281111
 20
204.844616
 30
0.0
 40
2.0
100
AcDbArc
 50
-1.837533
 51
10.694523
  0
ARC
  5
EF
100
AcDbEntity
  8
0
  6
Continuous
 62
   174
100
AcDbCircle
 10
272.281111
 20
204.844616
 30
0.0
 40
2.0
100
AcDbArc
 50
-27.258649
 51
-15.129184
  0
ARC
  5
F0
100
AcDbEntity
  8
0
  6
HIDDEN
 62
   174
100
AcDbCircle
 10
272.281111
 20
204.844616
 30
0.0
 40
9.6
100
AcDbArc
 50
266.60957
 51
335.643072
  0
ARC
  5
F1
100
AcDbEntity
  8
0
  6
Continuous
 62
   174
100
AcDbCircle
 10
275.12542
 20
186.05872
 30
0.0
 40
3.0
100
AcDbArc
 50
288.164189
 51
324.648106
  0
ARC
  5
F2
100
AcDbEntity
  8
0
  6
HIDDEN
 62
   174
100
AcDbCircle
 10
236.482998
 20
174.313533
 30
0.0
 40
3.0
100
AcDbArc
 50
-0.292193
 51
8.60957
  0
LINE
  5
F3
100
AcDbEntity
  8
0
  6
Continuous
 62
   174
100
AcDbLine
 10
249.900936
 20
172.299509
 30
0.0
 11
249.481774
 21
175.067957
 31
0.0
  0
LINE
  5
F4
100
AcDbEntity
  8
0
  6
HIDDEN
 62
   174
100
AcDbLine
 10
230.406712
 20
181.484719
 30
0.0
 11
229.482998
 21
172.791582
 31
0.0
  0
LINE
  5
F5
100
AcDbEntity
  8
0
  6
Continuous
 62
   174
100
AcDbLine
 10
261.039319
 20
170.778684
 30
0.0
 11
259.508743
 21
170.778684
 31
0.0
  0
LINE
  5
F6
100
AcDbEntity
  8
0
  6
HIDDEN
 62
   174
100
AcDbLine
 10
289.482998
 20
130.655594
 30
0.0
 11
289.482998
 21
140.384889
 31
0.0
  0
LINE
  5
F7
100
AcDbEntity
  8
0
  6
HIDDEN
 62
   174
100
AcDbLine
 10
273.482998
 20
108.343533
 30
0.0
 11
289.482998
 21
108.343533
 31
0.0
  0
ARC
  5
F8
100
AcDbEntity
  8
0
  6
Continuous
 62
   174
100
AcDbCircle
 10
272.281111
 20
204.844616
 30
0.0
 40
10.0
100
AcDbArc
 50
-27.403526
 51
7.983158
  0
ARC
  5
F9
100
AcDbEntity
  8
0
  6
Continuous
 62
   174
100
AcDbCircle
 10
272.281111
 20
204.844616
 30
0.0
 40
10.0
100
AcDbArc
 50
194.233425
 51
224.586766
  0
ARC
  5
FA
100
AcDbEntity
  8
0
  6
Continuous
 62
   174
100
AcDbCircle
 10
275.12542
 20
186.05872
 30
0.0
 40
8.0
100
AcDbArc
 50
-32.560708
 51
172.856366
  0
LINE
  5
FB
100
AcDbEntity
  8
0
  6
Continuous
 62
   174
100
AcDbLine
 10
268.986233
 20
173.166356
 30
0.0
 11
269.161675
 21
172.007608
 31
0.0
  0
LINE
  5
FC
100
AcDbEntity
  8
0
  6
HIDDEN
 62
   174
100
AcDbLine
 10
273.482998
 20
107.363533
 30
0.0
 11
289.482998
 21
107.363533
 31
0.0
  0
LINE
  5
FD
100
AcDbEntity
  8
0
  6
HIDDEN
 62
   174
100
AcDbLine
 10
229.482998
 20
165.013533
 30
0.0
 11
243.482998
 21
165.013533
 31
0.0
  0
LINE
  5
FE
100
AcDbEntity
  8
0
  6
HIDDEN
 62
   174
100
AcDbLine
 10
229.482998
 20
182.613533
 30
0.0
 11
229.482998
 21
172.791582
 31
0.0
  0
ARC
  5
FF
100
AcDbEntity
  8
0
  6
Continuous
 62
   174
100
AcDbCircle
 10
275.12542
 20
186.05872
 30
0.0
 40
3.0
100
AcDbArc
 50
-168.125696
 51
-167.142857
  0
ARC
  5
100
100
AcDbEntity
  8
0
  6
Continuous
 62
   174
100
AcDbCircle
 10
272.281111
 20
204.844616
 30
0.0
 40
2.0
100
AcDbArc
 50
-285.701015
 51
-272.057194
  0
ARC
  5
101
100
AcDbEntity
  8
0
  6
Continuous
 62
   174
100
AcDbCircle
 10
275.12542
 20
186.05872
 30
0.0
 40
3.0
100
AcDbArc
 50
203.720229
 51
243.221487
  0
ARC
  5
102
100
AcDbEntity
  8
0
  6
HIDDEN
 62
   174
100
AcDbCircle
 10
275.12542
 20
186.05872
 30
0.0
 40
8.0
100
AcDbArc
 50
147.179197
 51
172.856366
  0
ARC
  5
103
100
AcDbEntity
  8
0
  6
HIDDEN
 62
   174
100
AcDbCircle
 10
275.12542
 20
186.05872
 30
0.0
 40
8.0
100
AcDbArc
 50
70.147867
 51
121.502045
  0
LINE
  5
104
100
AcDbEntity
  8
0
  6
HIDDEN
 62
   174
100
AcDbLine
 10
271.482998
 20
66.660104
 30
0.0
 11
271.482998
 21
75.40947
 31
0.0
  0
LINE
  5
105
100
AcDbEntity
  8
0
  6
HIDDEN
 62
   174
100
AcDbLine
 10
280.190962
 20
206.04222
 30
0.0
 11
284.500634
 21
177.577996
 31
0.0
  0
ARC
  5
106
100
AcDbEntity
  8
0
  6
Continuous
 62
   174
100
AcDbCircle
 10
272.281111
 20
204.844616
 30
0.0
 40
2.0
100
AcDbArc
 50
-323.499644
 51
-321.428571
  0
ARC
  5
107
100
AcDbEntity
  8
0
  6
Continuous
 62
   174
100
AcDbCircle
 10
275.482998
 20
146.613533
 30
0.0
 40
7.5
100
AcDbArc
 50
0.0
 51
180.0
  0
LINE
  5
108
100
AcDbEntity
  8
0
  6
HIDDEN
 62
   174
100
AcDbLine
 10
229.482998
 20
172.791582
 30
0.0
 11
228.659094
 21
165.037765
 31
0.0
  0
ARC
  5
109
100
AcDbEntity
  8
0
  6
Continuous
 62
   174
100
AcDbCircle
 10
275.12542
 20
186.05872
 30
0.0
 40
3.0
100
AcDbArc
 50
184.599335
 51
188.60957
  0
ARC
  5
10A
100
AcDbEntity
  8
0
  6
Continuous
 62
   174
100
AcDbCircle
 10
275.12542
 20
186.05872
 30
0.0
 40
3.0
100
AcDbArc
 50
189.18258
 51
190.637002
  0
ARC
  5
10B
100
AcDbEntity
  8
0
  6
HIDDEN
 62
   174
100
AcDbCircle
 10
236.482998
 20
174.313533
 30
0.0
 40
3.0
100
AcDbArc
 50
196.600627
 51
200.293199
  0
ARC
  5
10C
100
AcDbEntity
  8
0
  6
HIDDEN
 62
   174
100
AcDbCircle
 10
236.482998
 20
174.313533
 30
0.0
 40
3.0
100
AcDbArc
 50
13.865966
 51
16.600627
  0
ARC
  5
10D
100
AcDbEntity
  8
0
  6
HIDDEN
 62
   174
100
AcDbCircle
 10
243.482998
 20
146.613533
 30
0.0
 40
7.5
100
AcDbArc
 50
-180.0
 51
0.0
  0
ARC
  5
10E
100
AcDbEntity
  8
0
  6
Continuous
 62
   174
100
AcDbCircle
 10
259.482998
 20
161.613533
 30
0.0
 40
10.0
100
AcDbArc
 50
-293.578178
 51
-270.0
  0
LINE
  5
10F
100
AcDbEntity
  8
0
  6
Continuous
 62
   174
100
AcDbLine
 10
259.508743
 20
170.778684
 30
0.0
 11
255.508518
 21
170.778684
 31
0.0
  0
ARC
  5
110
100
AcDbEntity
  8
0
  6
HIDDEN
 62
   174
100
AcDbCircle
 10
275.12542
 20
186.05872
 30
0.0
 40
3.0
100
AcDbArc
 50
104.451522
 51
146.530604
  0
LINE
  5
111
100
AcDbEntity
  8
0
  6
HIDDEN
 62
   174
100
AcDbLine
 10
250.200337
 20
170.322046
 30
0.0
 11
255.432201
 21
171.114185
 31
0.0
  0
ARC
  5
112
100
AcDbEntity
  8
0
  6
Continuous
 62
   174
100
AcDbCircle
 10
275.12542
 20
186.05872
 30
0.0
 40
3.0
100
AcDbArc
 50
-259.518467
 51
-251.922417
  0
LINE
  5
113
100
AcDbEntity
  8
0
  6
HIDDEN
 62
   174
100
AcDbLine
 10
243.482998
 20
174.169754
 30
0.0
 11
243.482998
 21
167.282203
 31
0.0
  0
ARC
  5
114
100
AcDbEntity
  8
0
  6
HIDDEN
 62
   174
100
AcDbCircle
 10
275.12542
 20
186.05872
 30
0.0
 40
3.0
100
AcDbArc
 50
-32.751632
 51
8.60957
  0
ARC
  5
115
100
AcDbEntity
  8
0
  6
HIDDEN
 62
   174
100
AcDbCircle
 10
275.12542
 20
186.05872
 30
0.0
 40
3.0
100
AcDbArc
 50
-171.39043
 51
8.60957
  0
ARC
  5
116
100
AcDbEntity
  8
0
  6
HIDDEN
 62
   174
100
AcDbCircle
 10
236.482998
 20
174.313533
 30
0.0
 40
3.0
100
AcDbArc
 50
179.707807
 51
188.60957
  0
LINE
  5
117
100
AcDbEntity
  8
0
  6
HIDDEN
 62
   174
100
AcDbLine
 10
271.482998
 20
130.655594
 30
0.0
 11
271.482998
 21
139.40496
 31
0.0
  0
ARC
  5
118
100
AcDbEntity
  8
0
  6
HIDDEN
 62
   174
100
AcDbCircle
 10
272.281111
 20
204.844616
 30
0.0
 40
9.6
100
AcDbArc
 50
221.099671
 51
266.60957
  0
ARC
  5
119
100
AcDbEntity
  8
0
  6
Continuous
 62
   174
100
AcDbCircle
 10
275.12542
 20
186.05872
 30
0.0
 40
3.0
100
AcDbArc
 50
108.164189
 51
144.648106
  0
ARC
  5
11A
100
AcDbEntity
  8
0
  6
HIDDEN
 62
   174
100
AcDbCircle
 10
236.482998
 20
174.313533
 30
0.0
 40
3.0
100
AcDbArc
 50
8.60957
 51
13.865966
  0
LINE
  5
11B
100
AcDbEntity
  8
0
  6
Continuous
 62
   174
100
AcDbLine
 10
249.481774
 20
175.067957
 30
0.0
 11
243.549386
 21
174.169754
 31
0.0
  0
ARC
  5
11C
100
AcDbEntity
  8
0
  6
Continuous
 62
   174
100
AcDbCircle
 10
275.12542
 20
186.05872
 30
0.0
 40
3.0
100
AcDbArc
 50
100.13985
 51
104.451522
  0
LINE
  5
11D
100
AcDbEntity
  8
0
  6
HIDDEN
 62
   174
100
AcDbLine
 10
273.482998
 20
130.655594
 30
0.0
 11
273.482998
 21
140.384889
 31
0.0
  0
LINE
  5
11E
100
AcDbEntity
  8
0
  6
HIDDEN
 62
   174
100
AcDbLine
 10
289.482998
 20
121.863533
 30
0.0
 11
271.482998
 21
121.863533
 31
0.0
  0
LINE
  5
11F
100
AcDbEntity
  8
0
  6
HIDDEN
 62
   174
100
AcDbLine
 10
273.482998
 20
98.657699
 30
0.0
 11
273.482998
 21
108.386993
 31
0.0
  0
LINE
  5
120
100
AcDbEntity
  8
0
  6
HIDDEN
 62
   174
100
AcDbLine
 10
263.252919
 20
172.298294
 30
0.0
 11
268.986233
 21
173.166356
 31
0.0
  0
LINE
  5
121
100
AcDbEntity
  8
0
  6
HIDDEN
 62
   174
100
AcDbLine
 10
289.482998
 20
66.660104
 30
0.0
 11
289.482998
 21
57.910738
 31
0.0
  0
LINE
  5
122
100
AcDbEntity
  8
0
  6
HIDDEN
 62
   174
100
AcDbLine
 10
229.482998
 20
182.613533
 30
0.0
 11
237.862222
 21
182.613533
 31
0.0
  0
LINE
  5
123
100
AcDbEntity
  8
0
  6
HIDDEN
 62
   174
100
AcDbLine
 10
245.482998
 20
92.343533
 30
0.0
 11
229.482998
 21
92.343533
 31
0.0
  0
LINE
  5
124
100
AcDbEntity
  8
0
  6
Continuous
 62
   174
100
AcDbLine
 10
255.482998
 20
163.613533
 30
0.0
 11
255.482998
 21
170.778684
 31
0.0
  0
LINE
  5
125
100
AcDbEntity
  8
0
  6
HIDDEN
 62
   174
100
AcDbLine
 10
273.482998
 20
57.863533
 30
0.0
 11
289.482998
 21
57.863533
 31
0.0
  0
LINE
  5
126
100
AcDbEntity
  8
0
  6
HIDDEN
 62
   174
100
AcDbLine
 10
249.481774
 20
175.067957
 30
0.0
 11
243.549386
 21
174.169754
 31
0.0
  0
ARC
  5
127
100
AcDbEntity
  8
0
  6
Continuous
 62
   174
100
AcDbCircle
 10
275.12542
 20
186.05872
 30
0.0
 40
3.0
100
AcDbArc
 50
188.60957
 51
189.18258
  0
ARC
  5
128
100
AcDbEntity
  8
0
  6
HIDDEN
 62
   174
100
AcDbCircle
 10
236.482998
 20
174.313533
 30
0.0
 40
3.0
100
AcDbArc
 50
8.60957
 51
13.865966
  0
LINE
  5
129
100
AcDbEntity
  8
0
  6
HIDDEN
 62
   174
100
AcDbLine
 10
269.161675
 20
172.007608
 30
0.0
 11
284.500634
 21
177.577996
 31
0.0
  0
ARC
  5
12A
100
AcDbEntity
  8
0
  6
Continuous
 62
   174
100
AcDbCircle
 10
275.12542
 20
186.05872
 30
0.0
 40
3.0
100
AcDbArc
 50
-251.922417
 51
-215.241054
  0
ARC
  5
12B
100
AcDbEntity
  8
0
  6
HIDDEN
 62
   174
100
AcDbCircle
 10
275.482998
 20
146.613533
 30
0.0
 40
7.5
100
AcDbArc
 50
0.0
 51
180.0
  0
ARC
  5
12C
100
AcDbEntity
  8
0
  6
HIDDEN
 62
   174
100
AcDbCircle
 10
272.281111
 20
204.844616
 30
0.0
 40
10.0
100
AcDbArc
 50
224.586766
 51
266.60957
  0
ARC
  5
12D
100
AcDbEntity
  8
0
  6
HIDDEN
 62
   174
100
AcDbCircle
 10
275.12542
 20
186.05872
 30
0.0
 40
3.0
100
AcDbArc
 50
23.157874
 51
62.938781
  0
LINE
  5
12E
100
AcDbEntity
  8
0
  6
HIDDEN
 62
   174
100
AcDbLine
 10
244.567349
 20
167.446381
 30
0.0
 11
243.482998
 21
167.282203
 31
0.0
  0
ARC
  5
12F
100
AcDbEntity
  8
0
  6
Continuous
 62
   174
100
AcDbCircle
 10
275.12542
 20
186.05872
 30
0.0
 40
3.0
100
AcDbArc
 50
144.648106
 51
150.450413
  0
LINE
  5
130
100
AcDbEntity
  8
0
  6
HIDDEN
 62
   174
100
AcDbLine
 10
268.413173
 20
176.951265
 30
0.0
 11
268.626952
 21
175.539311
 31
0.0
  0
ARC
  5
131
100
AcDbEntity
  8
0
  6
Continuous
 62
   174
100
AcDbCircle
 10
272.281111
 20
204.844616
 30
0.0
 40
2.0
100
AcDbArc
 50
-41.167215
 51
-27.258649
  0
ARC
  5
132
100
AcDbEntity
  8
0
  6
Continuous
 62
   174
100
AcDbCircle
 10
272.281111
 20
204.844616
 30
0.0
 40
2.0
100
AcDbArc
 50
-90.0
 51
-79.952236
  0
ARC
  5
133
100
AcDbEntity
  8
0
  6
Continuous
 62
   174
100
AcDbCircle
 10
272.281111
 20
204.844616
 30
0.0
 40
2.0
100
AcDbArc
 50
-181.837533
 51
-169.305477
  0
LINE
  5
134
100
AcDbEntity
  8
0
  6
HIDDEN
 62
   174
100
AcDbLine
 10
289.482998
 20
139.40496
 30
0.0
 11
289.482998
 21
130.655594
 31
0.0
  0
LINE
  5
135
100
AcDbEntity
  8
0
  6
Continuous
 62
   174
100
AcDbLine
 10
229.482998
 20
172.791582
 30
0.0
 11
228.659094
 21
165.037765
 31
0.0
  0
ARC
  5
136
100
AcDbEntity
  8
0
  6
Continuous
 62
   174
100
AcDbCircle
 10
275.12542
 20
186.05872
 30
0.0
 40
8.0
100
AcDbArc
 50
278.60957
 51
327.439292
  0
LINE
  5
137
100
AcDbEntity
  8
0
  6
Continuous
 62
   174
100
AcDbLine
 10
255.482998
 20
163.613533
 30
0.0
 11
255.482998
 21
170.778684
 31
0.0
  0
LINE
  5
138
100
AcDbEntity
  8
0
  6
HIDDEN
 62
   174
100
AcDbLine
 10
259.508743
 20
170.778684
 30
0.0
 11
255.508518
 21
170.778684
 31
0.0
  0
ARC
  5
139
100
AcDbEntity
  8
0
  6
HIDDEN
 62
   174
100
AcDbCircle
 10
275.12542
 20
186.05872
 30
0.0
 40
3.0
100
AcDbArc
 50
146.530604
 51
188.60957
  0
ARC
  5
13A
100
AcDbEntity
  8
0
  6
HIDDEN
 62
   174
100
AcDbCircle
 10
236.482998
 20
174.313533
 30
0.0
 40
3.0
100
AcDbArc
 50
244.534224
 51
285.504333
  0
ARC
  5
13B
100
AcDbEntity
  8
0
  6
HIDDEN
 62
   174
100
AcDbCircle
 10
236.482998
 20
174.313533
 30
0.0
 40
3.0
100
AcDbArc
 50
240.298126
 51
244.534224
  0
LINE
  5
13C
100
AcDbEntity
  8
0
  6
HIDDEN
 62
   174
100
AcDbLine
 10
271.482998
 20
130.655594
 30
0.0
 11
271.482998
 21
121.906228
 31
0.0
  0
LINE
  5
13D
100
AcDbEntity
  8
0
  6
HIDDEN
 62
   174
100
AcDbLine
 10
243.482998
 20
182.613533
 30
0.0
 11
243.482998
 21
174.169754
 31
0.0
  0
ARC
  5
13E
100
AcDbEntity
  8
0
  6
Continuous
 62
   174
100
AcDbCircle
 10
272.281111
 20
204.844616
 30
0.0
 40
2.0
100
AcDbArc
 50
-117.437293
 51
-105.701015
  0
LINE
  5
13F
100
AcDbEntity
  8
0
  6
Continuous
 62
   174
100
AcDbLine
 10
276.323024
 20
178.148869
 30
0.0
 11
268.413173
 21
176.951265
 31
0.0
  0
ARC
  5
140
100
AcDbEntity
  8
0
  6
Continuous
 62
   174
100
AcDbCircle
 10
275.12542
 20
186.05872
 30
0.0
 40
3.0
100
AcDbArc
 50
243.221487
 51
270.274274
  0
ARC
  5
141
100
AcDbEntity
  8
0
  6
Continuous
 62
   174
100
AcDbCircle
 10
275.12542
 20
186.05872
 30
0.0
 40
3.0
100
AcDbArc
 50
324.648106
 51
330.450413
  0
ARC
  5
142
100
AcDbEntity
  8
0
  6
HIDDEN
 62
   174
100
AcDbCircle
 10
236.482998
 20
174.313533
 30
0.0
 40
3.0
100
AcDbArc
 50
13.865966
 51
16.600627
  0
ARC
  5
143
100
AcDbEntity
  8
0
  6
Continuous
 62
   174
100
AcDbCircle
 10
272.281111
 20
204.844616
 30
0.0
 40
2.0
100
AcDbArc
 50
-129.385144
 51
-117.437293
  0
ARC
  5
144
100
AcDbEntity
  8
0
  6
Continuous
 62
   174
100
AcDbCircle
 10
272.281111
 20
204.844616
 30
0.0
 40
2.0
100
AcDbArc
 50
-259.952236
 51
-246.547476
  0
ARC
  5
145
100
AcDbEntity
  8
0
  6
Continuous
 62
   174
100
AcDbCircle
 10
272.281111
 20
204.844616
 30
0.0
 40
9.6
100
AcDbArc
 50
86.60957
 51
194.609979
  0
LINE
  5
146
100
AcDbEntity
  8
0
  6
HIDDEN
 62
   174
100
AcDbLine
 10
289.482998
 20
98.657699
 30
0.0
 11
289.482998
 21
108.386993
 31
0.0
  0
LINE
  5
147
100
AcDbEntity
  8
0
  6
HIDDEN
 62
   174
100
AcDbLine
 10
247.482998
 20
123.405862
 30
0.0
 11
247.482998
 21
114.656496
 31
0.0
  0
ARC
  5
148
100
AcDbEntity
  8
0
  6
HIDDEN
 62
   174
100
AcDbCircle
 10
236.482998
 20
174.313533
 30
0.0
 40
3.0
100
AcDbArc
 50
188.60957
 51
193.865966
  0
ARC
  5
149
100
AcDbEntity
  8
0
  6
HIDDEN
 62
   174
100
AcDbCircle
 10
236.482998
 20
174.313533
 30
0.0
 40
3.0
100
AcDbArc
 50
285.504333
 51
327.887786
  0
ARC
  5
14A
100
AcDbEntity
  8
0
  6
HIDDEN
 62
   174
100
AcDbCircle
 10
236.482998
 20
174.313533
 30
0.0
 40
3.0
100
AcDbArc
 50
16.600627
 51
20.293199
  0
LINE
  5
14B
100
AcDbEntity
  8
0
  6
HIDDEN
 62
   174
100
AcDbLine
 10
289.482998
 20
75.363533
 30
0.0
 11
271.482998
 21
75.363533
 31
0.0
  0
ARC
  5
14C
100
AcDbEntity
  8
0
  6
Continuous
 62
   174
100
AcDbCircle
 10
272.281111
 20
204.844616
 30
0.0
 40
2.0
100
AcDbArc
 50
-321.428571
 51
-309.385144
  0
ARC
  5
14D
100
AcDbEntity
  8
0
  6
Continuous
 62
   174
100
AcDbCircle
 10
272.281111
 20
204.844616
 30
0.0
 40
2.0
100
AcDbArc
 50
-234.495191
 51
-221.167215
  0
LINE
  5
14E
100
AcDbEntity
  8
0
  6
HIDDEN
 62
   174
100
AcDbLine
 10
267.18752
 20
187.053577
 30
0.0
 11
243.357035
 21
183.445484
 31
0.0
  0
ARC
  5
14F
100
AcDbEntity
  8
0
  6
Continuous
 62
   174
100
AcDbCircle
 10
275.12542
 20
186.05872
 30
0.0
 40
3.0
100
AcDbArc
 50
10.637002
 51
23.720228
  0
ARC
  5
150
100
AcDbEntity
  8
0
  6
Continuous
 62
   174
100
AcDbCircle
 10
275.12542
 20
186.05872
 30
0.0
 40
3.0
100
AcDbArc
 50
150.450413
 51
184.599335
  0
LINE
  5
151
100
AcDbEntity
  8
0
  6
HIDDEN
 62
   174
100
AcDbLine
 10
255.432201
 20
171.114185
 30
0.0
 11
259.466129
 21
171.724949
 31
0.0
  0
LINE
  5
152
100
AcDbEntity
  8
0
  6
HIDDEN
 62
   174
100
AcDbLine
 10
273.482998
 20
76.343533
 30
0.0
 11
289.482998
 21
76.343533
 31
0.0
  0
ARC
  5
153
100
AcDbEntity
  8
0
  6
Continuous
 62
   174
100
AcDbCircle
 10
243.482998
 20
146.613533
 30
0.0
 40
4.5
100
AcDbArc
 50
0.0
 51
180.0
  0
LINE
  5
154
100
AcDbEntity
  8
0
  6
Continuous
 62
   174
100
AcDbLine
 10
263.482998
 20
163.613533
 30
0.0
 11
263.482998
 21
170.778684
 31
0.0
  0
ARC
  5
155
100
AcDbEntity
  8
0
  6
HIDDEN
 62
   174
100
AcDbCircle
 10
236.482998
 20
174.313533
 30
0.0
 40
3.0
100
AcDbArc
 50
105.504333
 51
147.887786
  0
ARC
  5
156
100
AcDbEntity
  8
0
  6
HIDDEN
 62
   174
100
AcDbCircle
 10
275.482998
 20
146.613533
 30
0.0
 40
7.5
100
AcDbArc
 50
-180.0
 51
0.0
  0
ARC
  5
157
100
AcDbEntity
  8
0
  6
HIDDEN
 62
   174
100
AcDbCircle
 10
275.12542
 20
186.05872
 30
0.0
 40
3.0
100
AcDbArc
 50
62.938781
 51
106.379819
  0
LINE
  5
158
100
AcDbEntity
  8
0
  6
Continuous
 62
   174
100
AcDbLine
 10
283.824245
 20
182.045361
 30
0.0
 11
284.500634
 21
177.577996
 31
0.0
  0
LINE
  5
159
100
AcDbEntity
  8
0
  6
HIDDEN
 62
   174
100
AcDbLine
 10
266.890426
 20
187.008595
 30
0.0
 11
268.413173
 21
176.951265
 31
0.0
  0
LINE
  5
15A
100
AcDbEntity
  8
0
  6
HIDDEN
 62
   174
100
AcDbLine
 10
229.482998
 20
91.363533
 30
0.0
 11
247.482998
 21
91.363533
 31
0.0
  0
LINE
  5
15B
100
AcDbEntity
  8
0
  6
HIDDEN
 62
   174
100
AcDbLine
 10
243.482998
 20
167.282203
 30
0.0
 11
229.482998
 21
165.16251
 31
0.0
  0
ARC
  5
15C
100
AcDbEntity
  8
0
  6
Continuous
 62
   174
100
AcDbCircle
 10
275.12542
 20
186.05872
 30
0.0
 40
3.0
100
AcDbArc
 50
8.60957
 51
9.18258
  0
LINE
  5
15D
100
AcDbEntity
  8
0
  6
HIDDEN
 62
   174
100
AcDbLine
 10
276.323024
 20
178.148869
 30
0.0
 11
268.413173
 21
176.951265
 31
0.0
  0
LINE
  5
15E
100
AcDbEntity
  8
0
  6
HIDDEN
 62
   174
100
AcDbLine
 10
273.482998
 20
88.928404
 30
0.0
 11
273.482998
 21
98.657699
 31
0.0
  0
ARC
  5
15F
100
AcDbEntity
  8
0
  6
Continuous
 62
   174
100
AcDbCircle
 10
275.482998
 20
146.613533
 30
0.0
 40
7.5
100
AcDbArc
 50
-180.0
 51
0.0
  0
LINE
  5
160
100
AcDbEntity
  8
0
  6
HIDDEN
 62
   174
100
AcDbLine
 10
263.508668
 20
170.778684
 30
0.0
 11
259.508743
 21
170.778684
 31
0.0
  0
ARC
  5
161
100
AcDbEntity
  8
0
  6
HIDDEN
 62
   174
100
AcDbCircle
 10
275.12542
 20
186.05872
 30
0.0
 40
8.0
100
AcDbArc
 50
121.502045
 51
147.179197
  0
ARC
  5
162
100
AcDbEntity
  8
0
  6
HIDDEN
 62
   174
100
AcDbCircle
 10
236.482998
 20
174.313533
 30
0.0
 40
3.0
100
AcDbArc
 50
244.534224
 51
285.504333
  0
LINE
  5
163
100
AcDbEntity
  8
0
  6
HIDDEN
 62
   174
100
AcDbLine
 10
271.482998
 20
98.657699
 30
0.0
 11
271.482998
 21
89.908333
 31
0.0
  0
LINE
  5
164
100
AcDbEntity
  8
0
  6
HIDDEN
 62
   174
100
AcDbLine
 10
273.482998
 20
75.363533
 30
0.0
 11
289.482998
 21
75.363533
 31
0.0
  0
ARC
  5
165
100
AcDbEntity
  8
0
  6
HIDDEN
 62
   174
100
AcDbCircle
 10
236.482998
 20
174.313533
 30
0.0
 40
3.0
100
AcDbArc
 50
16.600627
 51
20.293199
  0
LINE
  5
166
100
AcDbEntity
  8
0
  6
HIDDEN
 62
   174
100
AcDbLine
 10
229.482998
 20
165.16251
 30
0.0
 11
229.482998
 21
165.013533
 31
0.0
  0
LINE
  5
167
100
AcDbEntity
  8
0
  6
HIDDEN
 62
   174
100
AcDbLine
 10
229.482998
 20
82.658901
 30
0.0
 11
229.482998
 21
72.929606
 31
0.0
  0
LINE
  5
168
100
AcDbEntity
  8
0
  6
Continuous
 62
   174
100
AcDbLine
 10
229.482998
 20
46.613533
 30
0.0
 11
229.482998
 21
182.613533
 31
0.0
  0
ARC
  5
169
100
AcDbEntity
  8
0
  6
HIDDEN
 62
   174
100
AcDbCircle
 10
259.482998
 20
161.613533
 30
0.0
 40
10.0
100
AcDbArc
 50
90.0
 51
113.578178
  0
ARC
  5
16A
100
AcDbEntity
  8
0
  6
HIDDEN
 62
   174
100
AcDbCircle
 10
275.12542
 20
186.05872
 30
0.0
 40
3.0
100
AcDbArc
 50
62.372351
 51
104.451522
  0
LINE
  5
16B
100
AcDbEntity
  8
0
  6
Continuous
 62
   174
100
AcDbLine
 10
268.986233
 20
173.166356
 30
0.0
 11
250.200337
 21
170.322046
 31
0.0
  0
LINE
  5
16C
100
AcDbEntity
  8
0
  6
Continuous
 62
   174
100
AcDbLine
 10
268.413173
 20
176.951265
 30
0.0
 11
268.686832
 21
175.143819
 31
0.0
  0
LINE
  5
16D
100
AcDbEntity
  8
0
  6
HIDDEN
 62
   174
100
AcDbLine
 10
289.482998
 20
88.928404
 30
0.0
 11
289.482998
 21
98.657699
 31
0.0
  0
LINE
  5
16E
100
AcDbEntity
  8
0
  6
Continuous
 62
   174
100
AcDbLine
 10
268.681666
 20
175.177939
 30
0.0
 11
268.981043
 21
173.200638
 31
0.0
  0
ARC
  5
16F
100
AcDbEntity
  8
0
  6
HIDDEN
 62
   174
100
AcDbCircle
 10
236.482998
 20
174.313533
 30
0.0
 40
3.0
100
AcDbArc
 50
327.887786
 51
359.707807
  0
ARC
  5
170
100
AcDbEntity
  8
0
  6
HIDDEN
 62
   174
100
AcDbCircle
 10
236.482998
 20
174.313533
 30
0.0
 40
3.0
100
AcDbArc
 50
20.293199
 51
60.298126
  0
LINE
  5
171
100
AcDbEntity
  8
0
  6
HIDDEN
 62
   174
100
AcDbLine
 10
229.482998
 20
92.388196
 30
0.0
 11
229.482998
 21
82.658901
 31
0.0
  0
ARC
  5
172
100
AcDbEntity
  8
0
  6
Continuous
 62
   174
100
AcDbCircle
 10
275.12542
 20
186.05872
 30
0.0
 40
3.0
100
AcDbArc
 50
-209.610991
 51
-174.936041
  0
LINE
  5
173
100
AcDbEntity
  8
0
  6
HIDDEN
 62
   174
100
AcDbLine
 10
289.482998
 20
57.863533
 30
0.0
 11
271.482998
 21
57.863533
 31
0.0
  0
LINE
  5
174
100
AcDbEntity
  8
0
  6
HIDDEN
 62
   174
100
AcDbLine
 10
289.482998
 20
130.655594
 30
0.0
 11
289.482998
 21
121.906228
 31
0.0
  0
ARC
  5
175
100
AcDbEntity
  8
0
  6
Continuous
 62
   174
100
AcDbCircle
 10
275.12542
 20
186.05872
 30
0.0
 40
3.0
100
AcDbArc
 50
-215.241054
 51
-209.610991
  0
LINE
  5
176
100
AcDbEntity
  8
0
  6
HIDDEN
 62
   174
100
AcDbLine
 10
243.482998
 20
167.282203
 30
0.0
 11
229.482998
 21
165.16251
 31
0.0
  0
LINE
  5
177
100
AcDbEntity
  8
0
  6
Continuous
 62
   174
100
AcDbLine
 10
263.482998
 20
163.613533
 30
0.0
 11
263.482998
 21
170.778684
 31
0.0
  0
LINE
  5
178
100
AcDbEntity
  8
0
  6
HIDDEN
 62
   174
100
AcDbLine
 10
259.466129
 20
171.724949
 30
0.0
 11
263.252919
 21
172.298294
 31
0.0
  0
LINE
  5
179
100
AcDbEntity
  8
0
  6
HIDDEN
 62
   174
100
AcDbLine
 10
273.482998
 20
56.883533
 30
0.0
 11
289.482998
 21
56.883533
 31
0.0
  0
LINE
  5
17A
100
AcDbEntity
  8
0
  6
HIDDEN
 62
   174
100
AcDbLine
 10
273.482998
 20
120.926299
 30
0.0
 11
273.482998
 21
130.655594
 31
0.0
  0
ARC
  5
17B
100
AcDbEntity
  8
0
  6
HIDDEN
 62
   174
100
AcDbCircle
 10
272.281111
 20
204.844616
 30
0.0
 40
10.0
100
AcDbArc
 50
266.60957
 51
332.596474
  0
ARC
  5
17C
100
AcDbEntity
  8
0
  6
HIDDEN
 62
   174
100
AcDbCircle
 10
275.12542
 20
186.05872
 30
0.0
 40
3.0
100
AcDbArc
 50
203.157874
 51
242.938781
  0
LINE
  5
17D
100
AcDbEntity
  8
0
  6
HIDDEN
 62
   174
100
AcDbLine
 10
243.482998
 20
167.282203
 30
0.0
 11
243.482998
 21
165.013533
 31
0.0
  0
ARC
  5
17E
100
AcDbEntity
  8
0
  6
Continuous
 62
   174
100
AcDbCircle
 10
272.281111
 20
204.844616
 30
0.0
 40
2.0
100
AcDbArc
 50
-54.495191
 51
-41.167215
  0
ARC
  5
17F
100
AcDbEntity
  8
0
  6
Continuous
 62
   174
100
AcDbCircle
 10
272.281111
 20
204.844616
 30
0.0
 40
9.6
100
AcDbArc
 50
335.643072
 51
356.60957
  0
LINE
  5
180
100
AcDbEntity
  8
0
  6
HIDDEN
 62
   174
100
AcDbLine
 10
273.482998
 20
66.660104
 30
0.0
 11
273.482998
 21
76.389399
 31
0.0
  0
LINE
  5
181
100
AcDbEntity
  8
0
  6
HIDDEN
 62
   174
100
AcDbLine
 10
268.686832
 20
175.143819
 30
0.0
 11
249.900936
 21
172.299509
 31
0.0
  0
ARC
  5
182
100
AcDbEntity
  8
0
  6
HIDDEN
 62
   174
100
AcDbCircle
 10
275.12542
 20
186.05872
 30
0.0
 40
3.0
100
AcDbArc
 50
147.248368
 51
188.60957
  0
LINE
  5
183
100
AcDbEntity
  8
0
  6
HIDDEN
 62
   174
100
AcDbLine
 10
229.482998
 20
165.16251
 30
0.0
 11
228.659094
 21
165.037765
 31
0.0
  0
LINE
  5
184
100
AcDbEntity
  8
0
  6
HIDDEN
 62
   174
100
AcDbLine
 10
243.357035
 20
183.445484
 30
0.0
 11
237.862222
 21
182.613533
 31
0.0
  0
ARC
  5
185
100
AcDbEntity
  8
0
  6
HIDDEN
 62
   174
100
AcDbCircle
 10
236.482998
 20
174.313533
 30
0.0
 40
3.0
100
AcDbArc
 50
285.504333
 51
327.887786
  0
LINE
  5
186
100
AcDbEntity
  8
0
  6
Continuous
 62
   174
100
AcDbLine
 10
264.371259
 20
203.647012
 30
0.0
 11
266.890426
 21
187.008595
 31
0.0
  0
LINE
  5
187
100
AcDbEntity
  8
0
  6
HIDDEN
 62
   174
100
AcDbLine
 10
271.482998
 20
98.657699
 30
0.0
 11
271.482998
 21
107.407064
 31
0.0
  0
ARC
  5
188
100
AcDbEntity
  8
0
  6
Continuous
 62
   174
100
AcDbCircle
 10
272.281111
 20
204.844616
 30
0.0
 40
2.0
100
AcDbArc
 50
-12.857143
 51
-1.837533
  0
ARC
  5
189
100
AcDbEntity
  8
0
  6
Continuous
 62
   174
100
AcDbCircle
 10
272.281111
 20
204.844616
 30
0.0
 40
10.0
100
AcDbArc
 50
7.983158
 51
14.233425
  0
ARC
  5
18A
100
AcDbEntity
  8
0
  6
Continuous
 62
   174
100
AcDbCircle
 10
272.281111
 20
204.844616
 30
0.0
 40
10.0
100
AcDbArc
 50
86.60957
 51
194.233425
  0
LINE
  5
18B
100
AcDbEntity
  8
0
  6
HIDDEN
 62
   174
100
AcDbLine
 10
273.482998
 20
121.863533
 30
0.0
 11
289.482998
 21
121.863533
 31
0.0
  0
LINE
  5
18C
100
AcDbEntity
  8
0
  6
HIDDEN
 62
   174
100
AcDbLine
 10
245.482998
 20
82.658901
 30
0.0
 11
245.482998
 21
72.929606
 31
0.0
  0
ARC
  5
18D
100
AcDbEntity
  8
0
  6
Continuous
 62
   174
100
AcDbCircle
 10
272.281111
 20
204.844616
 30
0.0
 40
2.0
100
AcDbArc
 50
-141.428571
 51
-129.385144
  0
LINE
  5
18E
100
AcDbEntity
  8
0
  6
HIDDEN
 62
   174
100
AcDbLine
 10
263.508668
 20
163.613533
 30
0.0
 11
255.508518
 21
163.613533
 31
0.0
  0
LINE
  5
18F
100
AcDbEntity
  8
0
  6
Continuous
 62
   174
100
AcDbLine
 10
250.195137
 20
170.356391
 30
0.0
 11
249.895767
 21
172.333648
 31
0.0
  0
LINE
  5
190
100
AcDbEntity
  8
0
  6
HIDDEN
 62
   174
100
AcDbLine
 10
229.482998
 20
172.791582
 30
0.0
 11
229.482998
 21
165.16251
 31
0.0
  0
ARC
  5
191
100
AcDbEntity
  8
0
  6
Continuous
 62
   174
100
AcDbCircle
 10
272.281111
 20
204.844616
 30
0.0
 40
2.0
100
AcDbArc
 50
-79.952236
 51
-66.547476
  0
ARC
  5
192
100
AcDbEntity
  8
0
  6
Continuous
 62
   174
100
AcDbCircle
 10
272.281111
 20
204.844616
 30
0.0
 40
9.6
100
AcDbArc
 50
14.609979
 51
86.60957
  0
LINE
  5
193
100
AcDbEntity
  8
0
  6
Continuous
 62
   174
100
AcDbLine
 10
243.357035
 20
183.445484
 30
0.0
 11
237.862222
 21
182.613533
 31
0.0
  0
LINE
  5
194
100
AcDbEntity
  8
0
  6
Continuous
 62
   174
100
AcDbLine
 10
267.18752
 20
187.053577
 30
0.0
 11
243.357035
 21
183.445484
 31
0.0
  0
ARC
  5
195
100
AcDbEntity
  8
0
  6
HIDDEN
 62
   174
100
AcDbCircle
 10
275.12542
 20
186.05872
 30
0.0
 40
3.0
100
AcDbArc
 50
20.293199
 51
62.372351
  0
ARC
  5
196
100
AcDbEntity
  8
0
  6
Continuous
 62
   174
100
AcDbCircle
 10
275.12542
 20
186.05872
 30
0.0
 40
3.0
100
AcDbArc
 50
104.451522
 51
108.164189
  0
ARC
  5
197
100
AcDbEntity
  8
0
  6
HIDDEN
 62
   174
100
AcDbCircle
 10
275.12542
 20
186.05872
 30
0.0
 40
8.0
100
AcDbArc
 50
-6.883644
 51
18.793527
  0
ARC
  5
198
100
AcDbEntity
  8
0
  6
HIDDEN
 62
   174
100
AcDbCircle
 10
275.12542
 20
186.05872
 30
0.0
 40
8.0
100
AcDbArc
 50
18.793527
 51
44.470685
  0
ARC
  5
199
100
AcDbEntity
  8
0
  6
HIDDEN
 62
   174
100
AcDbCircle
 10
236.482998
 20
174.313533
 30
0.0
 40
3.0
100
AcDbArc
 50
-0.292193
 51
8.60957
  0
ARC
  5
19A
100
AcDbEntity
  8
0
  6
HIDDEN
 62
   174
100
AcDbCircle
 10
236.482998
 20
174.313533
 30
0.0
 40
3.0
100
AcDbArc
 50
60.298126
 51
64.534224
  0
LINE
  5
19B
100
AcDbEntity
  8
0
  6
HIDDEN
 62
   174
100
AcDbLine
 10
245.482998
 20
92.388196
 30
0.0
 11
245.482998
 21
82.658901
 31
0.0
  0
ARC
  5
19C
100
AcDbEntity
  8
0
  6
HIDDEN
 62
   174
100
AcDbCircle
 10
275.12542
 20
186.05872
 30
0.0
 40
3.0
100
AcDbArc
 50
200.293199
 51
242.372351
  0
LINE
  5
19D
100
AcDbEntity
  8
0
  6
Continuous
 62
   174
100
AcDbLine
 10
268.686832
 20
175.143819
 30
0.0
 11
249.900936
 21
172.299509
 31
0.0
  0
ARC
  5
19E
100
AcDbEntity
  8
0
  6
HIDDEN
 62
   174
100
AcDbCircle
 10
275.12542
 20
186.05872
 30
0.0
 40
3.0
100
AcDbArc
 50
188.60957
 51
200.293199
  0
ARC
  5
19F
100
AcDbEntity
  8
0
  6
HIDDEN
 62
   174
100
AcDbCircle
 10
275.12542
 20
186.05872
 30
0.0
 40
3.0
100
AcDbArc
 50
8.60957
 51
20.293199
  0
ARC
  5
1A0
100
AcDbEntity
  8
0
  6
Continuous
 62
   174
100
AcDbCircle
 10
275.12542
 20
186.05872
 30
0.0
 40
3.0
100
AcDbArc
 50
190.637002
 51
203.720229
  0
ARC
  5
1A1
100
AcDbEntity
  8
0
  6
HIDDEN
 62
   174
100
AcDbCircle
 10
275.12542
 20
186.05872
 30
0.0
 40
8.0
100
AcDbArc
 50
278.60957
 51
301.762193
  0
ARC
  5
1A2
100
AcDbEntity
  8
0
  6
HIDDEN
 62
   174
100
AcDbCircle
 10
236.482998
 20
174.313533
 30
0.0
 40
3.0
100
AcDbArc
 50
20.293199
 51
60.298126
  0
ARC
  5
1A3
100
AcDbEntity
  8
0
  6
HIDDEN
 62
   174
100
AcDbCircle
 10
236.482998
 20
174.313533
 30
0.0
 40
3.0
100
AcDbArc
 50
188.60957
 51
193.865966
  0
LINE
  5
1A4
100
AcDbEntity
  8
0
  6
HIDDEN
 62
   174
100
AcDbLine
 10
273.482998
 20
139.363533
 30
0.0
 11
289.482998
 21
139.363533
 31
0.0
  0
LINE
  5
1A5
100
AcDbEntity
  8
0
  6
HIDDEN
 62
   174
100
AcDbLine
 10
289.482998
 20
120.926299
 30
0.0
 11
289.482998
 21
130.655594
 31
0.0
  0
LINE
  5
1A6
100
AcDbEntity
  8
0
  6
HIDDEN
 62
   174
100
AcDbLine
 10
289.482998
 20
107.363533
 30
0.0
 11
271.482998
 21
107.363533
 31
0.0
  0
ARC
  5
1A7
100
AcDbEntity
  8
0
  6
Continuous
 62
   174
100
AcDbCircle
 10
272.281111
 20
204.844616
 30
0.0
 40
2.0
100
AcDbArc
 50
-155.999537
 51
-143.499644
  0
ARC
  5
1A8
100
AcDbEntity
  8
0
  6
Continuous
 62
   174
100
AcDbCircle
 10
272.281111
 20
204.844616
 30
0.0
 40
2.0
100
AcDbArc
 50
-195.129184
 51
-192.857143
  0
ARC
  5
1A9
100
AcDbEntity
  8
0
  6
Continuous
 62
   174
100
AcDbCircle
 10
272.281111
 20
204.844616
 30
0.0
 40
9.6
100
AcDbArc
 50
194.609979
 51
221.099671
  0
ARC
  5
1AA
100
AcDbEntity
  8
0
  6
HIDDEN
 62
   174
100
AcDbCircle
 10
275.12542
 20
186.05872
 30
0.0
 40
3.0
100
AcDbArc
 50
188.60957
 51
203.157874
  0
LINE
  5
1AB
100
AcDbEntity
  8
0
  6
Continuous
 62
   174
100
AcDbLine
 10
263.508668
 20
170.778684
 30
0.0
 11
261.039319
 21
170.778684
 31
0.0
  0
LINE
  5
1AC
100
AcDbEntity
  8
0
  6
HIDDEN
 62
   174
100
AcDbLine
 10
237.862222
 20
182.613533
 30
0.0
 11
230.406712
 21
181.484719
 31
0.0
  0
ARC
  5
1AD
100
AcDbEntity
  8
0
  6
Continuous
 62
   174
100
AcDbCircle
 10
275.12542
 20
186.05872
 30
0.0
 40
3.0
100
AcDbArc
 50
23.720228
 51
63.221487
  0
LINE
  5
1AE
100
AcDbEntity
  8
0
  6
HIDDEN
 62
   174
100
AcDbLine
 10
268.413173
 20
176.951265
 30
0.0
 11
268.686832
 21
175.143819
 31
0.0
  0
ARC
  5
1AF
100
AcDbEntity
  8
0
  6
HIDDEN
 62
   174
100
AcDbCircle
 10
272.281111
 20
204.844616
 30
0.0
 40
8.0
100
AcDbArc
 50
-351.39043
 51
-171.39043
  0
LINE
  5
1B0
100
AcDbEntity
  8
0
  6
HIDDEN
 62
   174
100
AcDbLine
 10
273.482998
 20
88.883533
 30
0.0
 11
289.482998
 21
88.883533
 31
0.0
  0
LINE
  5
1B1
100
AcDbEntity
  8
0
  6
HIDDEN
 62
   174
100
AcDbLine
 10
289.482998
 20
75.40947
 30
0.0
 11
289.482998
 21
66.660104
 31
0.0
  0
ARC
  5
1B2
100
AcDbEntity
  8
0
  6
Continuous
 62
   174
100
AcDbCircle
 10
272.281111
 20
204.844616
 30
0.0
 40
2.0
100
AcDbArc
 50
-143.499644
 51
-141.428571
  0
LINE
  5
1B3
100
AcDbEntity
  8
0
  6
HIDDEN
 62
   174
100
AcDbLine
 10
264.371259
 20
203.647012
 30
0.0
 11
269.161675
 21
172.007608
 31
0.0
  0
LINE
  5
1B4
100
AcDbEntity
  8
0
  6
HIDDEN
 62
   174
100
AcDbLine
 10
289.482998
 20
66.660104
 30
0.0
 11
289.482998
 21
76.389399
 31
0.0
  0
ARC
  5
1B5
100
AcDbEntity
  8
0
  6
HIDDEN
 62
   174
100
AcDbCircle
 10
275.12542
 20
186.05872
 30
0.0
 40
3.0
100
AcDbArc
 50
106.379819
 51
147.248368
  0
ARC
  5
1B6
100
AcDbEntity
  8
0
  6
Continuous
 62
   174
100
AcDbCircle
 10
275.12542
 20
186.05872
 30
0.0
 40
3.0
100
AcDbArc
 50
4.599335
 51
8.60957
  0
ARC
  5
1B7
100
AcDbEntity
  8
0
  6
HIDDEN
 62
   174
100
AcDbCircle
 10
236.482998
 20
174.313533
 30
0.0
 40
3.0
100
AcDbArc
 50
327.887786
 51
359.707807
  0
LINE
  5
1B8
100
AcDbEntity
  8
0
  6
HIDDEN
 62
   174
100
AcDbLine
 10
249.841056
 20
172.695002
 30
0.0
 11
249.481774
 21
175.067957
 31
0.0
  0
LINE
  5
1B9
100
AcDbEntity
  8
0
  6
HIDDEN
 62
   174
100
AcDbLine
 10
271.482998
 20
66.660104
 30
0.0
 11
271.482998
 21
57.910738
 31
0.0
  0
ARC
  5
1BA
100
AcDbEntity
  8
0
  6
Continuous
 62
   174
100
AcDbCircle
 10
272.281111
 20
204.844616
 30
0.0
 40
8.0
100
AcDbArc
 50
-351.39043
 51
-171.39043
  0
LINE
  5
1BB
100
AcDbEntity
  8
0
  6
HIDDEN
 62
   174
100
AcDbLine
 10
289.482998
 20
89.863533
 30
0.0
 11
271.482998
 21
89.863533
 31
0.0
  0
LINE
  5
1BC
100
AcDbEntity
  8
0
  6
HIDDEN
 62
   174
100
AcDbLine
 10
245.482998
 20
73.863533
 30
0.0
 11
229.482998
 21
73.863533
 31
0.0
  0
LINE
  5
1BD
100
AcDbEntity
  8
0
  6
HIDDEN
 62
   174
100
AcDbLine
 10
230.406712
 20
181.484719
 30
0.0
 11
229.482998
 21
172.791582
 31
0.0
  0
ARC
  5
1BE
100
AcDbEntity
  8
0
  6
HIDDEN
 62
   174
100
AcDbCircle
 10
272.281111
 20
204.844616
 30
0.0
 40
9.6
100
AcDbArc
 50
-93.39043
 51
86.60957
  0
ARC
  5
1BF
100
AcDbEntity
  8
0
  6
HIDDEN
 62
   174
100
AcDbCircle
 10
236.482998
 20
174.313533
 30
0.0
 40
3.0
100
AcDbArc
 50
193.865966
 51
196.600627
  0
LINE
  5
1C0
100
AcDbEntity
  8
0
  6
HIDDEN
 62
   174
100
AcDbLine
 10
229.482998
 20
73.863533
 30
0.0
 11
247.482998
 21
73.863533
 31
0.0
  0
ENDBLK
  5
1C1
100
AcDbEntity
  8
0
100
AcDbBlockEnd
  0
BLOCK
  5
1C4
100
AcDbEntity
  8
0
100
AcDbBlockBegin
  2
*B2
 70
     0
 10
0.0
 20
0.0
 30
0.0
  3
*B2
  1

  0
LINE
  5
1C5
100
AcDbEntity
  8
0
  6
Continuous
 62
    92
100
AcDbLine
 10
289.532998
 20
202.865457
 30
0.0
 11
289.482998
 21
202.865457
 31
0.0
  0
LINE
  5
1C6
100
AcDbEntity
  8
0
  6
Continuous
 62
    92
100
AcDbLine
 10
289.532998
 20
206.865457
 30
0.0
 11
289.482998
 21
206.865457
 31
0.0
  0
LINE
  5
1C7
100
AcDbEntity
  8
0
  6
Continuous
 62
    92
100
AcDbLine
 10
272.065001
 20
214.865457
 30
0.0
 11
272.482998
 21
214.865457
 31
0.0
  0
ENDBLK
  5
1C8
100
AcDbEntity
  8
0
100
AcDbBlockEnd
  0
BLOCK
  5
1CB
100
AcDbEntity
  8
0
100
AcDbBlockBegin
  2
*B3
 70
     0
 10
0.0
 20
0.0
 30
0.0
  3
*B3
  1

  0
LINE
  5
1CC
100
AcDbEntity
  8
0
  6
HIDDEN
 62
   174
100
AcDbLine
 10
147.083854
 20
171.313533
 30
0.0
 11
152.583854
 21
171.313533
 31
0.0
  0
LINE
  5
1CD
100
AcDbEntity
  8
0
  6
HIDDEN
 62
   174
100
AcDbLine
 10
147.083854
 20
177.313533
 30
0.0
 11
152.583854
 21
177.313533
 31
0.0
  0
LINE
  5
1CE
100
AcDbEntity
  8
0
  6
HIDDEN
 62
   174
100
AcDbLine
 10
173.583854
 20
171.313533
 30
0.0
 11
179.083854
 21
171.313533
 31
0.0
  0
LINE
  5
1CF
100
AcDbEntity
  8
0
  6
HIDDEN
 62
   174
100
AcDbLine
 10
173.583854
 20
177.313533
 30
0.0
 11
179.083854
 21
177.313533
 31
0.0
  0
LINE
  5
1D0
100
AcDbEntity
  8
0
  6
HIDDEN
 62
   174
100
AcDbLine
 10
147.083854
 20
171.352687
 30
0.0
 11
147.083854
 21
174.352255
 31
0.0
  0
LINE
  5
1D1
100
AcDbEntity
  8
0
  6
HIDDEN
 62
   174
100
AcDbLine
 10
147.083854
 20
174.352255
 30
0.0
 11
147.083854
 21
177.352123
 31
0.0
  0
LINE
  5
1D2
100
AcDbEntity
  8
0
  6
HIDDEN
 62
   174
100
AcDbLine
 10
179.083854
 20
171.352687
 30
0.0
 11
179.083854
 21
174.352255
 31
0.0
  0
LINE
  5
1D3
100
AcDbEntity
  8
0
  6
HIDDEN
 62
   174
100
AcDbLine
 10
179.083854
 20
174.352255
 30
0.0
 11
179.083854
 21
177.352123
 31
0.0
  0
LINE
  5
1D4
100
AcDbEntity
  8
0
  6
HIDDEN
 62
   174
100
AcDbLine
 10
173.583854
 20
171.352687
 30
0.0
 11
173.583854
 21
174.352255
 31
0.0
  0
LINE
  5
1D5
100
AcDbEntity
  8
0
  6
HIDDEN
 62
   174
100
AcDbLine
 10
173.583854
 20
174.352255
 30
0.0
 11
173.583854
 21
177.352123
 31
0.0
  0
LINE
  5
1D6
100
AcDbEntity
  8
0
  6
HIDDEN
 62
   174
100
AcDbLine
 10
152.583854
 20
171.352687
 30
0.0
 11
152.583854
 21
174.352255
 31
0.0
  0
LINE
  5
1D7
100
AcDbEntity
  8
0
  6
HIDDEN
 62
   174
100
AcDbLine
 10
152.583854
 20
174.352255
 30
0.0
 11
152.583854
 21
177.352123
 31
0.0
  0
LINE
  5
1D8
100
AcDbEntity
  8
0
  6
Continuous
 62
   174
100
AcDbLine
 10
179.083854
 20
46.613533
 30
0.0
 11
179.083854
 21
163.613533
 31
0.0
  0
LINE
  5
1D9
100
AcDbEntity
  8
0
  6
HIDDEN
 62
   174
100
AcDbLine
 10
173.083854
 20
171.313533
 30
0.0
 11
172.816476
 21
171.313533
 31
0.0
  0
LINE
  5
1DA
100
AcDbEntity
  8
0
  6
HIDDEN
 62
   174
100
AcDbLine
 10
152.583854
 20
171.313533
 30
0.0
 11
147.083854
 21
171.313533
 31
0.0
  0
LINE
  5
1DB
100
AcDbEntity
  8
0
  6
Continuous
 62
   174
100
AcDbLine
 10
156.083854
 20
183.05872
 30
0.0
 11
155.483854
 21
183.05872
 31
0.0
  0
LINE
  5
1DC
100
AcDbEntity
  8
0
  6
Continuous
 62
   174
100
AcDbLine
 10
156.083854
 20
189.05872
 30
0.0
 11
155.483854
 21
189.05872
 31
0.0
  0
LINE
  5
1DD
100
AcDbEntity
  8
0
  6
HIDDEN
 62
   174
100
AcDbLine
 10
173.083854
 20
183.05872
 30
0.0
 11
170.683854
 21
183.05872
 31
0.0
  0
LINE
  5
1DE
100
AcDbEntity
  8
0
  6
HIDDEN
 62
   174
100
AcDbLine
 10
173.083854
 20
183.05872
 30
0.0
 11
170.683854
 21
183.05872
 31
0.0
  0
LINE
  5
1DF
100
AcDbEntity
  8
0
  6
HIDDEN
 62
   174
100
AcDbLine
 10
173.083854
 20
185.643368
 30
0.0
 11
173.083854
 21
185.429177
 31
0.0
  0
LINE
  5
1E0
100
AcDbEntity
  8
0
  6
HIDDEN
 62
   174
100
AcDbLine
 10
170.083854
 20
206.844616
 30
0.0
 11
168.083854
 21
206.844616
 31
0.0
  0
LINE
  5
1E1
100
AcDbEntity
  8
0
  6
Continuous
 62
   174
100
AcDbLine
 10
153.083854
 20
171.313533
 30
0.0
 11
152.583854
 21
171.313533
 31
0.0
  0
LINE
  5
1E2
100
AcDbEntity
  8
0
  6
Continuous
 62
   174
100
AcDbLine
 10
156.083854
 20
177.313533
 30
0.0
 11
155.483854
 21
177.313533
 31
0.0
  0
LINE
  5
1E3
100
AcDbEntity
  8
0
  6
Continuous
 62
   174
100
AcDbLine
 10
170.683854
 20
177.313533
 30
0.0
 11
170.083854
 21
177.313533
 31
0.0
  0
LINE
  5
1E4
100
AcDbEntity
  8
0
  6
HIDDEN
 62
   174
100
AcDbLine
 10
173.583854
 20
177.313533
 30
0.0
 11
173.083854
 21
177.313533
 31
0.0
  0
LINE
  5
1E5
100
AcDbEntity
  8
0
  6
HIDDEN
 62
   174
100
AcDbLine
 10
179.083854
 20
177.313533
 30
0.0
 11
173.583854
 21
177.313533
 31
0.0
  0
LINE
  5
1E6
100
AcDbEntity
  8
0
  6
HIDDEN
 62
   174
100
AcDbLine
 10
152.583854
 20
177.313533
 30
0.0
 11
147.083854
 21
177.313533
 31
0.0
  0
LINE
  5
1E7
100
AcDbEntity
  8
0
  6
HIDDEN
 62
   174
100
AcDbLine
 10
173.583854
 20
177.313533
 30
0.0
 11
173.083854
 21
177.313533
 31
0.0
  0
LINE
  5
1E8
100
AcDbEntity
  8
0
  6
HIDDEN
 62
   174
100
AcDbLine
 10
147.083854
 20
177.352123
 30
0.0
 11
147.083854
 21
174.352255
 31
0.0
  0
LINE
  5
1E9
100
AcDbEntity
  8
0
  6
Continuous
 62
   174
100
AcDbLine
 10
168.083854
 20
183.05872
 30
0.0
 11
158.083854
 21
183.05872
 31
0.0
  0
LINE
  5
1EA
100
AcDbEntity
  8
0
  6
Continuous
 62
   174
100
AcDbLine
 10
168.083854
 20
189.05872
 30
0.0
 11
158.083854
 21
189.05872
 31
0.0
  0
LINE
  5
1EB
100
AcDbEntity
  8
0
  6
HIDDEN
 62
   174
100
AcDbLine
 10
158.083854
 20
183.05872
 30
0.0
 11
156.083854
 21
183.05872
 31
0.0
  0
LINE
  5
1EC
100
AcDbEntity
  8
0
  6
HIDDEN
 62
   174
100
AcDbLine
 10
170.083854
 20
183.05872
 30
0.0
 11
168.083854
 21
183.05872
 31
0.0
  0
LINE
  5
1ED
100
AcDbEntity
  8
0
  6
HIDDEN
 62
   174
100
AcDbLine
 10
158.083854
 20
183.05872
 30
0.0
 11
156.083854
 21
183.05872
 31
0.0
  0
LINE
  5
1EE
100
AcDbEntity
  8
0
  6
HIDDEN
 62
   174
100
AcDbLine
 10
153.083854
 20
183.393917
 30
0.0
 11
153.083854
 21
183.096814
 31
0.0
  0
LINE
  5
1EF
100
AcDbEntity
  8
0
  6
HIDDEN
 62
   174
100
AcDbLine
 10
173.083854
 20
185.429177
 30
0.0
 11
173.083854
 21
183.096814
 31
0.0
  0
LINE
  5
1F0
100
AcDbEntity
  8
0
  6
Continuous
 62
   174
100
AcDbLine
 10
155.483854
 20
194.05872
 30
0.0
 11
153.083854
 21
194.05872
 31
0.0
  0
LINE
  5
1F1
100
AcDbEntity
  8
0
  6
HIDDEN
 62
   174
100
AcDbLine
 10
158.083854
 20
202.844616
 30
0.0
 11
156.083854
 21
202.844616
 31
0.0
  0
LINE
  5
1F2
100
AcDbEntity
  8
0
  6
HIDDEN
 62
   174
100
AcDbLine
 10
168.083854
 20
202.844616
 30
0.0
 11
167.583854
 21
202.844616
 31
0.0
  0
LINE
  5
1F3
100
AcDbEntity
  8
0
  6
Continuous
 62
   174
100
AcDbLine
 10
147.083854
 20
46.613533
 30
0.0
 11
147.083854
 21
163.613533
 31
0.0
  0
LINE
  5
1F4
100
AcDbEntity
  8
0
  6
Continuous
 62
   174
100
AcDbLine
 10
179.083854
 20
182.613533
 30
0.0
 11
179.083854
 21
163.613533
 31
0.0
  0
LINE
  5
1F5
100
AcDbEntity
  8
0
  6
Continuous
 62
   174
100
AcDbLine
 10
168.083854
 20
177.313533
 30
0.0
 11
158.083854
 21
177.313533
 31
0.0
  0
LINE
  5
1F6
100
AcDbEntity
  8
0
  6
Continuous
 62
   174
100
AcDbLine
 10
153.083854
 20
171.313533
 30
0.0
 11
152.583854
 21
171.313533
 31
0.0
  0
LINE
  5
1F7
100
AcDbEntity
  8
0
  6
HIDDEN
 62
   174
100
AcDbLine
 10
155.483854
 20
171.313533
 30
0.0
 11
153.351232
 21
171.313533
 31
0.0
  0
LINE
  5
1F8
100
AcDbEntity
  8
0
  6
HIDDEN
 62
   174
100
AcDbLine
 10
173.083854
 20
171.313533
 30
0.0
 11
172.816476
 21
171.313533
 31
0.0
  0
LINE
  5
1F9
100
AcDbEntity
  8
0
  6
HIDDEN
 62
   174
100
AcDbLine
 10
173.583854
 20
171.313533
 30
0.0
 11
173.083854
 21
171.313533
 31
0.0
  0
LINE
  5
1FA
100
AcDbEntity
  8
0
  6
HIDDEN
 62
   174
100
AcDbLine
 10
173.083854
 20
189.05872
 30
0.0
 11
170.683854
 21
189.05872
 31
0.0
  0
LINE
  5
1FB
100
AcDbEntity
  8
0
  6
Continuous
 62
   174
100
AcDbLine
 10
168.083854
 20
183.05872
 30
0.0
 11
158.083854
 21
183.05872
 31
0.0
  0
LINE
  5
1FC
100
AcDbEntity
  8
0
  6
Continuous
 62
   174
100
AcDbLine
 10
156.083854
 20
183.05872
 30
0.0
 11
155.483854
 21
183.05872
 31
0.0
  0
LINE
  5
1FD
100
AcDbEntity
  8
0
  6
Continuous
 62
   174
100
AcDbLine
 10
170.683854
 20
189.05872
 30
0.0
 11
170.083854
 21
189.05872
 31
0.0
  0
LINE
  5
1FE
100
AcDbEntity
  8
0
  6
HIDDEN
 62
   174
100
AcDbLine
 10
155.483854
 20
183.05872
 30
0.0
 11
153.083854
 21
183.05872
 31
0.0
  0
LINE
  5
1FF
100
AcDbEntity
  8
0
  6
HIDDEN
 62
   174
100
AcDbLine
 10
155.483854
 20
183.05872
 30
0.0
 11
153.083854
 21
183.05872
 31
0.0
  0
LINE
  5
200
100
AcDbEntity
  8
0
  6
HIDDEN
 62
   174
100
AcDbLine
 10
153.083854
 20
189.096551
 30
0.0
 11
153.083854
 21
188.799448
 31
0.0
  0
LINE
  5
201
100
AcDbEntity
  8
0
  6
HIDDEN
 62
   174
100
AcDbLine
 10
170.683854
 20
146.654391
 30
0.0
 11
170.683854
 21
154.153762
 31
0.0
  0
LINE
  5
202
100
AcDbEntity
  8
0
  6
HIDDEN
 62
   174
100
AcDbLine
 10
158.583854
 20
202.844616
 30
0.0
 11
158.083854
 21
202.844616
 31
0.0
  0
LINE
  5
203
100
AcDbEntity
  8
0
  6
Continuous
 62
   174
100
AcDbLine
 10
147.083854
 20
163.613533
 30
0.0
 11
179.083854
 21
163.613533
 31
0.0
  0
LINE
  5
204
100
AcDbEntity
  8
0
  6
Continuous
 62
   174
100
AcDbLine
 10
170.683854
 20
177.313533
 30
0.0
 11
170.083854
 21
177.313533
 31
0.0
  0
LINE
  5
205
100
AcDbEntity
  8
0
  6
Continuous
 62
   174
100
AcDbLine
 10
153.083854
 20
177.313533
 30
0.0
 11
152.583854
 21
177.313533
 31
0.0
  0
LINE
  5
206
100
AcDbEntity
  8
0
  6
HIDDEN
 62
   174
100
AcDbLine
 10
153.351232
 20
171.313533
 30
0.0
 11
153.083854
 21
171.313533
 31
0.0
  0
LINE
  5
207
100
AcDbEntity
  8
0
  6
HIDDEN
 62
   174
100
AcDbLine
 10
170.683854
 20
171.313533
 30
0.0
 11
164.52124
 21
171.313533
 31
0.0
  0
LINE
  5
208
100
AcDbEntity
  8
0
  6
HIDDEN
 62
   174
100
AcDbLine
 10
172.816476
 20
171.313533
 30
0.0
 11
170.683854
 21
171.313533
 31
0.0
  0
LINE
  5
209
100
AcDbEntity
  8
0
  6
HIDDEN
 62
   174
100
AcDbLine
 10
173.583854
 20
171.313533
 30
0.0
 11
173.083854
 21
171.313533
 31
0.0
  0
LINE
  5
20A
100
AcDbEntity
  8
0
  6
HIDDEN
 62
   174
100
AcDbLine
 10
170.083854
 20
177.313533
 30
0.0
 11
168.083854
 21
177.313533
 31
0.0
  0
LINE
  5
20B
100
AcDbEntity
  8
0
  6
HIDDEN
 62
   174
100
AcDbLine
 10
155.483854
 20
177.313533
 30
0.0
 11
153.083854
 21
177.313533
 31
0.0
  0
LINE
  5
20C
100
AcDbEntity
  8
0
  6
HIDDEN
 62
   174
100
AcDbLine
 10
170.083854
 20
177.313533
 30
0.0
 11
168.083854
 21
177.313533
 31
0.0
  0
LINE
  5
20D
100
AcDbEntity
  8
0
  6
HIDDEN
 62
   174
100
AcDbLine
 10
158.083854
 20
189.05872
 30
0.0
 11
156.083854
 21
189.05872
 31
0.0
  0
LINE
  5
20E
100
AcDbEntity
  8
0
  6
HIDDEN
 62
   174
100
AcDbLine
 10
170.083854
 20
189.05872
 30
0.0
 11
168.083854
 21
189.05872
 31
0.0
  0
LINE
  5
20F
100
AcDbEntity
  8
0
  6
HIDDEN
 62
   174
100
AcDbLine
 10
153.083854
 20
188.799448
 30
0.0
 11
153.083854
 21
185.643368
 31
0.0
  0
LINE
  5
210
100
AcDbEntity
  8
0
  6
Continuous
 62
   174
100
AcDbLine
 10
147.083854
 20
182.613533
 30
0.0
 11
147.083854
 21
163.613533
 31
0.0
  0
LINE
  5
211
100
AcDbEntity
  8
0
  6
HIDDEN
 62
   174
100
AcDbLine
 10
152.583854
 20
177.313533
 30
0.0
 11
147.083854
 21
177.313533
 31
0.0
  0
LINE
  5
212
100
AcDbEntity
  8
0
  6
HIDDEN
 62
   174
100
AcDbLine
 10
164.52124
 20
171.313533
 30
0.0
 11
161.646468
 21
171.313533
 31
0.0
  0
LINE
  5
213
100
AcDbEntity
  8
0
  6
HIDDEN
 62
   174
100
AcDbLine
 10
172.816476
 20
171.313533
 30
0.0
 11
170.683854
 21
171.313533
 31
0.0
  0
LINE
  5
214
100
AcDbEntity
  8
0
  6
Continuous
 62
   174
100
AcDbLine
 10
170.683854
 20
189.05872
 30
0.0
 11
170.083854
 21
189.05872
 31
0.0
  0
LINE
  5
215
100
AcDbEntity
  8
0
  6
HIDDEN
 62
   174
100
AcDbLine
 10
158.083854
 20
189.05872
 30
0.0
 11
156.083854
 21
189.05872
 31
0.0
  0
LINE
  5
216
100
AcDbEntity
  8
0
  6
HIDDEN
 62
   174
100
AcDbLine
 10
153.083854
 20
185.429177
 30
0.0
 11
153.083854
 21
183.393917
 31
0.0
  0
LINE
  5
217
100
AcDbEntity
  8
0
  6
Continuous
 62
   174
100
AcDbLine
 10
153.083854
 20
177.313533
 30
0.0
 11
152.583854
 21
177.313533
 31
0.0
  0
LINE
  5
218
100
AcDbEntity
  8
0
  6
Continuous
 62
   174
100
AcDbLine
 10
156.083854
 20
177.313533
 30
0.0
 11
155.483854
 21
177.313533
 31
0.0
  0
LINE
  5
219
100
AcDbEntity
  8
0
  6
Continuous
 62
   174
100
AcDbLine
 10
168.083854
 20
177.313533
 30
0.0
 11
158.083854
 21
177.313533
 31
0.0
  0
LINE
  5
21A
100
AcDbEntity
  8
0
  6
HIDDEN
 62
   174
100
AcDbLine
 10
161.646468
 20
171.313533
 30
0.0
 11
155.483854
 21
171.313533
 31
0.0
  0
LINE
  5
21B
100
AcDbEntity
  8
0
  6
HIDDEN
 62
   174
100
AcDbLine
 10
164.52124
 20
171.313533
 30
0.0
 11
161.646468
 21
171.313533
 31
0.0
  0
LINE
  5
21C
100
AcDbEntity
  8
0
  6
HIDDEN
 62
   174
100
AcDbLine
 10
179.083854
 20
171.313533
 30
0.0
 11
173.583854
 21
171.313533
 31
0.0
  0
LINE
  5
21D
100
AcDbEntity
  8
0
  6
HIDDEN
 62
   174
100
AcDbLine
 10
179.083854
 20
177.352123
 30
0.0
 11
179.083854
 21
174.352255
 31
0.0
  0
LINE
  5
21E
100
AcDbEntity
  8
0
  6
Continuous
 62
   174
100
AcDbLine
 10
170.683854
 20
183.05872
 30
0.0
 11
170.083854
 21
183.05872
 31
0.0
  0
LINE
  5
21F
100
AcDbEntity
  8
0
  6
Continuous
 62
   174
100
AcDbLine
 10
156.083854
 20
189.05872
 30
0.0
 11
155.483854
 21
189.05872
 31
0.0
  0
LINE
  5
220
100
AcDbEntity
  8
0
  6
HIDDEN
 62
   174
100
AcDbLine
 10
170.083854
 20
189.05872
 30
0.0
 11
168.083854
 21
189.05872
 31
0.0
  0
LINE
  5
221
100
AcDbEntity
  8
0
  6
HIDDEN
 62
   174
100
AcDbLine
 10
173.083854
 20
189.05872
 30
0.0
 11
170.683854
 21
189.05872
 31
0.0
  0
LINE
  5
222
100
AcDbEntity
  8
0
  6
HIDDEN
 62
   174
100
AcDbLine
 10
170.083854
 20
183.05872
 30
0.0
 11
168.083854
 21
183.05872
 31
0.0
  0
LINE
  5
223
100
AcDbEntity
  8
0
  6
HIDDEN
 62
   174
100
AcDbLine
 10
155.483854
 20
189.05872
 30
0.0
 11
153.083854
 21
189.05872
 31
0.0
  0
LINE
  5
224
100
AcDbEntity
  8
0
  6
HIDDEN
 62
   174
100
AcDbLine
 10
173.083854
 20
177.313533
 30
0.0
 11
170.683854
 21
177.313533
 31
0.0
  0
LINE
  5
225
100
AcDbEntity
  8
0
  6
HIDDEN
 62
   174
100
AcDbLine
 10
153.351232
 20
171.313533
 30
0.0
 11
153.083854
 21
171.313533
 31
0.0
  0
LINE
  5
226
100
AcDbEntity
  8
0
  6
HIDDEN
 62
   174
100
AcDbLine
 10
155.483854
 20
171.313533
 30
0.0
 11
153.351232
 21
171.313533
 31
0.0
  0
LINE
  5
227
100
AcDbEntity
  8
0
  6
HIDDEN
 62
   174
100
AcDbLine
 10
161.646468
 20
171.313533
 30
0.0
 11
155.483854
 21
171.313533
 31
0.0
  0
LINE
  5
228
100
AcDbEntity
  8
0
  6
HIDDEN
 62
   174
100
AcDbLine
 10
170.683854
 20
171.313533
 30
0.0
 11
164.52124
 21
171.313533
 31
0.0
  0
LINE
  5
229
100
AcDbEntity
  8
0
  6
HIDDEN
 62
   174
100
AcDbLine
 10
179.083854
 20
171.313533
 30
0.0
 11
173.583854
 21
171.313533
 31
0.0
  0
LINE
  5
22A
100
AcDbEntity
  8
0
  6
HIDDEN
 62
   174
100
AcDbLine
 10
173.083854
 20
177.313533
 30
0.0
 11
170.683854
 21
177.313533
 31
0.0
  0
LINE
  5
22B
100
AcDbEntity
  8
0
  6
HIDDEN
 62
   174
100
AcDbLine
 10
147.083854
 20
174.352255
 30
0.0
 11
147.083854
 21
171.352687
 31
0.0
  0
LINE
  5
22C
100
AcDbEntity
  8
0
  6
Continuous
 62
   174
100
AcDbLine
 10
170.683854
 20
183.05872
 30
0.0
 11
170.083854
 21
183.05872
 31
0.0
  0
LINE
  5
22D
100
AcDbEntity
  8
0
  6
HIDDEN
 62
   174
100
AcDbLine
 10
153.083854
 20
185.643368
 30
0.0
 11
153.083854
 21
185.429177
 31
0.0
  0
LINE
  5
22E
100
AcDbEntity
  8
0
  6
HIDDEN
 62
   174
100
AcDbLine
 10
170.083854
 20
202.844616
 30
0.0
 11
168.083854
 21
202.844616
 31
0.0
  0
LINE
  5
22F
100
AcDbEntity
  8
0
  6
HIDDEN
 62
   174
100
AcDbLine
 10
179.083854
 20
177.313533
 30
0.0
 11
173.583854
 21
177.313533
 31
0.0
  0
LINE
  5
230
100
AcDbEntity
  8
0
  6
HIDDEN
 62
   174
100
AcDbLine
 10
152.583854
 20
171.313533
 30
0.0
 11
147.083854
 21
171.313533
 31
0.0
  0
LINE
  5
231
100
AcDbEntity
  8
0
  6
HIDDEN
 62
   174
100
AcDbLine
 10
155.483854
 20
177.313533
 30
0.0
 11
153.083854
 21
177.313533
 31
0.0
  0
LINE
  5
232
100
AcDbEntity
  8
0
  6
HIDDEN
 62
   174
100
AcDbLine
 10
158.083854
 20
177.313533
 30
0.0
 11
156.083854
 21
177.313533
 31
0.0
  0
LINE
  5
233
100
AcDbEntity
  8
0
  6
HIDDEN
 62
   174
100
AcDbLine
 10
158.083854
 20
177.313533
 30
0.0
 11
156.083854
 21
177.313533
 31
0.0
  0
LINE
  5
234
100
AcDbEntity
  8
0
  6
HIDDEN
 62
   174
100
AcDbLine
 10
179.083854
 20
174.352255
 30
0.0
 11
179.083854
 21
171.352687
 31
0.0
  0
LINE
  5
235
100
AcDbEntity
  8
0
  6
Continuous
 62
   174
100
AcDbLine
 10
168.083854
 20
189.05872
 30
0.0
 11
158.083854
 21
189.05872
 31
0.0
  0
LINE
  5
236
100
AcDbEntity
  8
0
  6
HIDDEN
 62
   174
100
AcDbLine
 10
155.483854
 20
189.05872
 30
0.0
 11
153.083854
 21
189.05872
 31
0.0
  0
LINE
  5
237
100
AcDbEntity
  8
0
  6
HIDDEN
 62
   174
100
AcDbLine
 10
173.083854
 20
189.096551
 30
0.0
 11
173.083854
 21
185.643368
 31
0.0
  0
LINE
  5
238
100
AcDbEntity
  8
0
  6
HIDDEN
 62
   174
100
AcDbLine
 10
170.683854
 20
146.654391
 30
0.0
 11
170.683854
 21
139.15472
 31
0.0
  0
LINE
  5
239
100
AcDbEntity
  8
0
  6
HIDDEN
 62
   174
100
AcDbLine
 10
167.583854
 20
202.844616
 30
0.0
 11
158.583854
 21
202.844616
 31
0.0
  0
LINE
  5
23A
100
AcDbEntity
  8
0
  6
Continuous
 62
   174
100
AcDbLine
 10
155.083854
 20
172.007608
 30
0.0
 11
155.083854
 21
170.322046
 31
0.0
  0
LINE
  5
23B
100
AcDbEntity
  8
0
  6
Continuous
 62
   174
100
AcDbLine
 10
173.083854
 20
185.647573
 30
0.0
 11
173.083854
 21
188.673878
 31
0.0
  0
LINE
  5
23C
100
AcDbEntity
  8
0
  6
Continuous
 62
   174
100
AcDbLine
 10
156.083854
 20
206.04222
 30
0.0
 11
158.083854
 21
206.04222
 31
0.0
  0
LINE
  5
23D
100
AcDbEntity
  8
0
  6
HIDDEN
 62
   174
100
AcDbLine
 10
158.083854
 20
173.166356
 30
0.0
 11
156.083854
 21
173.166356
 31
0.0
  0
ARC
  5
23E
100
AcDbEntity
  8
0
  6
Continuous
 62
   174
100
AcDbCircle
 10
163.083854
 20
66.613533
 30
0.0
 40
8.75
100
AcDbArc
 50
0.0
 51
180.0
  0
LINE
  5
23F
100
AcDbEntity
  8
0
  6
Continuous
 62
   174
100
AcDbLine
 10
167.183854
 20
212.547255
 30
0.0
 11
167.183854
 21
214.192286
 31
0.0
  0
LINE
  5
240
100
AcDbEntity
  8
0
  6
Continuous
 62
   174
100
AcDbLine
 10
155.483854
 20
178.148869
 30
0.0
 11
155.483854
 21
177.577996
 31
0.0
  0
LINE
  5
241
100
AcDbEntity
  8
0
  6
HIDDEN
 62
   174
100
AcDbLine
 10
155.483854
 20
142.113533
 30
0.0
 11
170.683854
 21
142.113533
 31
0.0
  0
LINE
  5
242
100
AcDbEntity
  8
0
  6
HIDDEN
 62
   174
100
AcDbLine
 10
167.183854
 20
194.899521
 30
0.0
 11
167.183854
 21
214.880519
 31
0.0
  0
LINE
  5
243
100
AcDbEntity
  8
0
  6
Continuous
 62
   174
100
AcDbLine
 10
155.483854
 20
177.577996
 30
0.0
 11
155.483854
 21
176.951265
 31
0.0
  0
LINE
  5
244
100
AcDbEntity
  8
0
  6
Continuous
 62
   174
100
AcDbLine
 10
158.583854
 20
213.818579
 30
0.0
 11
158.583854
 21
214.463854
 31
0.0
  0
LINE
  5
245
100
AcDbEntity
  8
0
  6
Continuous
 62
   174
100
AcDbLine
 10
173.083854
 20
189.137106
 30
0.0
 11
173.083854
 21
194.095931
 31
0.0
  0
LINE
  5
246
100
AcDbEntity
  8
0
  6
Continuous
 62
   174
100
AcDbLine
 10
168.083854
 20
174.946655
 30
0.0
 11
168.083854
 21
175.795646
 31
0.0
  0
LINE
  5
247
100
AcDbEntity
  8
0
  6
Continuous
 62
   174
100
AcDbLine
 10
158.083854
 20
208.701439
 30
0.0
 11
158.083854
 21
206.078582
 31
0.0
  0
LINE
  5
248
100
AcDbEntity
  8
0
  6
Continuous
 62
   174
100
AcDbLine
 10
153.083854
 20
178.148869
 30
0.0
 11
153.083854
 21
176.951265
 31
0.0
  0
LINE
  5
249
100
AcDbEntity
  8
0
  6
Continuous
 62
   174
100
AcDbLine
 10
173.083854
 20
183.028922
 30
0.0
 11
173.083854
 21
185.137782
 31
0.0
  0
LINE
  5
24A
100
AcDbEntity
  8
0
  6
Continuous
 62
   174
100
AcDbLine
 10
173.083854
 20
178.148869
 30
0.0
 11
173.083854
 21
176.951265
 31
0.0
  0
LINE
  5
24B
100
AcDbEntity
  8
0
  6
Continuous
 62
   174
100
AcDbLine
 10
167.183854
 20
214.844616
 30
0.0
 11
158.983854
 21
214.844616
 31
0.0
  0
LINE
  5
24C
100
AcDbEntity
  8
0
  6
HIDDEN
 62
   174
100
AcDbLine
 10
173.083854
 20
181.484719
 30
0.0
 11
170.683854
 21
181.484719
 31
0.0
  0
LINE
  5
24D
100
AcDbEntity
  8
0
  6
HIDDEN
 62
   174
100
AcDbLine
 10
170.083854
 20
175.539311
 30
0.0
 11
168.083854
 21
175.539311
 31
0.0
  0
LINE
  5
24E
100
AcDbEntity
  8
0
  6
Continuous
 62
   174
100
AcDbLine
 10
170.083854
 20
206.04222
 30
0.0
 11
170.083854
 21
194.06047
 31
0.0
  0
ARC
  5
24F
100
AcDbEntity
  8
0
  6
Continuous
 62
   174
100
AcDbCircle
 10
163.083854
 20
98.613533
 30
0.0
 40
9.73
100
AcDbArc
 50
-180.0
 51
0.0
  0
LINE
  5
250
100
AcDbEntity
  8
0
  6
Continuous
 62
   174
100
AcDbLine
 10
158.983854
 20
207.339692
 30
0.0
 11
158.983854
 21
212.547255
 31
0.0
  0
LINE
  5
251
100
AcDbEntity
  8
0
  6
Continuous
 62
   174
100
AcDbLine
 10
156.083854
 20
172.007608
 30
0.0
 11
156.083854
 21
175.539311
 31
0.0
  0
ARC
  5
252
100
AcDbEntity
  8
0
  6
Continuous
 62
   174
100
AcDbCircle
 10
163.083854
 20
66.613533
 30
0.0
 40
9.73
100
AcDbArc
 50
-180.0
 51
0.0
  0
LINE
  5
253
100
AcDbEntity
  8
0
  6
Continuous
 62
   174
100
AcDbLine
 10
156.083854
 20
173.166356
 30
0.0
 11
155.083854
 21
173.166356
 31
0.0
  0
LINE
  5
254
100
AcDbEntity
  8
0
  6
HIDDEN
 62
   174
100
AcDbLine
 10
155.483854
 20
146.654391
 30
0.0
 11
155.483854
 21
142.154589
 31
0.0
  0
LINE
  5
255
100
AcDbEntity
  8
0
  6
Continuous
 62
   174
100
AcDbLine
 10
156.083854
 20
178.148869
 30
0.0
 11
156.083854
 21
177.577996
 31
0.0
  0
LINE
  5
256
100
AcDbEntity
  8
0
  6
Continuous
 62
   174
100
AcDbLine
 10
158.083854
 20
206.04222
 30
0.0
 11
158.083854
 21
195.247874
 31
0.0
  0
LINE
  5
257
100
AcDbEntity
  8
0
  6
HIDDEN
 62
   174
100
AcDbLine
 10
147.083854
 20
139.113533
 30
0.0
 11
155.483854
 21
139.113533
 31
0.0
  0
LINE
  5
258
100
AcDbEntity
  8
0
  6
Continuous
 62
   174
100
AcDbLine
 10
173.083854
 20
172.299509
 30
0.0
 11
173.083854
 21
167.446381
 31
0.0
  0
LINE
  5
259
100
AcDbEntity
  8
0
  6
Continuous
 62
   174
100
AcDbLine
 10
173.083854
 20
185.137782
 30
0.0
 11
173.083854
 21
185.647573
 31
0.0
  0
ARC
  5
25A
100
AcDbEntity
  8
0
  6
Continuous
 62
   174
100
AcDbCircle
 10
163.083854
 20
66.613533
 30
0.0
 40
8.75
100
AcDbArc
 50
-180.0
 51
0.0
  0
LINE
  5
25B
100
AcDbEntity
  8
0
  6
Continuous
 62
   174
100
AcDbLine
 10
155.083854
 20
173.166356
 30
0.0
 11
155.083854
 21
172.007608
 31
0.0
  0
LINE
  5
25C
100
AcDbEntity
  8
0
  6
Continuous
 62
   174
100
AcDbLine
 10
167.183854
 20
207.339692
 30
0.0
 11
167.183854
 21
212.547255
 31
0.0
  0
LINE
  5
25D
100
AcDbEntity
  8
0
  6
HIDDEN
 62
   174
100
AcDbLine
 10
170.683854
 20
174.169754
 30
0.0
 11
170.683854
 21
170.322046
 31
0.0
  0
LINE
  5
25E
100
AcDbEntity
  8
0
  6
Continuous
 62
   174
100
AcDbLine
 10
170.683854
 20
170.322046
 30
0.0
 11
170.683854
 21
167.446381
 31
0.0
  0
LINE
  5
25F
100
AcDbEntity
  8
0
  6
Continuous
 62
   174
100
AcDbLine
 10
152.583854
 20
165.013533
 30
0.0
 11
153.083854
 21
165.013533
 31
0.0
  0
LINE
  5
260
100
AcDbEntity
  8
0
  6
HIDDEN
 62
   174
100
AcDbLine
 10
170.083854
 20
205.326061
 30
0.0
 11
170.083854
 21
203.634167
 31
0.0
  0
LINE
  5
261
100
AcDbEntity
  8
0
  6
HIDDEN
 62
   174
100
AcDbLine
 10
167.583854
 20
214.444616
 30
0.0
 11
167.183854
 21
214.844616
 31
0.0
  0
LINE
  5
262
100
AcDbEntity
  8
0
  6
Continuous
 62
   174
100
AcDbLine
 10
167.183854
 20
214.863095
 30
0.0
 11
167.183854
 21
214.880519
 31
0.0
  0
LINE
  5
263
100
AcDbEntity
  8
0
  6
Continuous
 62
   174
100
AcDbLine
 10
173.083854
 20
188.673878
 30
0.0
 11
173.083854
 21
189.137106
 31
0.0
  0
LINE
  5
264
100
AcDbEntity
  8
0
  6
Continuous
 62
   174
100
AcDbLine
 10
171.083854
 20
173.166356
 30
0.0
 11
170.083854
 21
173.166356
 31
0.0
  0
LINE
  5
265
100
AcDbEntity
  8
0
  6
HIDDEN
 62
   174
100
AcDbLine
 10
159.083854
 20
165.013533
 30
0.0
 11
167.083854
 21
165.013533
 31
0.0
  0
LINE
  5
266
100
AcDbEntity
  8
0
  6
HIDDEN
 62
   174
100
AcDbLine
 10
155.483854
 20
151.113533
 30
0.0
 11
170.683854
 21
151.113533
 31
0.0
  0
LINE
  5
267
100
AcDbEntity
  8
0
  6
HIDDEN
 62
   174
100
AcDbLine
 10
158.583854
 20
214.444616
 30
0.0
 11
158.983854
 21
214.844616
 31
0.0
  0
LINE
  5
268
100
AcDbEntity
  8
0
  6
Continuous
 62
   174
100
AcDbLine
 10
167.183854
 20
194.844616
 30
0.0
 11
158.983854
 21
194.844616
 31
0.0
  0
LINE
  5
269
100
AcDbEntity
  8
0
  6
Continuous
 62
   174
100
AcDbLine
 10
167.583854
 20
195.28194
 30
0.0
 11
167.583854
 21
196.788483
 31
0.0
  0
LINE
  5
26A
100
AcDbEntity
  8
0
  6
Continuous
 62
   174
100
AcDbLine
 10
173.083854
 20
178.187256
 30
0.0
 11
173.083854
 21
183.028922
 31
0.0
  0
LINE
  5
26B
100
AcDbEntity
  8
0
  6
HIDDEN
 62
   174
100
AcDbLine
 10
170.083854
 20
206.844616
 30
0.0
 11
168.083854
 21
206.844616
 31
0.0
  0
LINE
  5
26C
100
AcDbEntity
  8
0
  6
HIDDEN
 62
   174
100
AcDbLine
 10
179.083854
 20
154.113533
 30
0.0
 11
170.683854
 21
154.113533
 31
0.0
  0
LINE
  5
26D
100
AcDbEntity
  8
0
  6
Continuous
 62
   174
100
AcDbLine
 10
158.583854
 20
207.302442
 30
0.0
 11
158.583854
 21
212.30783
 31
0.0
  0
LINE
  5
26E
100
AcDbEntity
  8
0
  6
Continuous
 62
   174
100
AcDbLine
 10
153.083854
 20
185.647573
 30
0.0
 11
153.083854
 21
188.673878
 31
0.0
  0
ARC
  5
26F
100
AcDbEntity
  8
0
  6
Continuous
 62
   174
100
AcDbCircle
 10
163.083854
 20
98.613533
 30
0.0
 40
9.73
100
AcDbArc
 50
0.0
 51
118.789674
  0
LINE
  5
270
100
AcDbEntity
  8
0
  6
HIDDEN
 62
   174
100
AcDbLine
 10
155.483854
 20
154.153762
 30
0.0
 11
155.483854
 21
146.654391
 31
0.0
  0
LINE
  5
271
100
AcDbEntity
  8
0
  6
HIDDEN
 62
   174
100
AcDbLine
 10
170.683854
 20
146.654391
 30
0.0
 11
170.683854
 21
151.153893
 31
0.0
  0
LINE
  5
272
100
AcDbEntity
  8
0
  6
Continuous
 62
   174
100
AcDbLine
 10
158.983854
 20
200.853295
 30
0.0
 11
158.983854
 21
201.295495
 31
0.0
  0
ARC
  5
273
100
AcDbEntity
  8
0
  6
Continuous
 62
   174
100
AcDbCircle
 10
163.083854
 20
66.613533
 30
0.0
 40
9.73
100
AcDbArc
 50
0.0
 51
118.807171
  0
LINE
  5
274
100
AcDbEntity
  8
0
  6
Continuous
 62
   174
100
AcDbLine
 10
170.083854
 20
194.06047
 30
0.0
 11
170.083854
 21
178.148869
 31
0.0
  0
LINE
  5
275
100
AcDbEntity
  8
0
  6
HIDDEN
 62
   174
100
AcDbLine
 10
158.983854
 20
194.899521
 30
0.0
 11
158.983854
 21
214.880519
 31
0.0
  0
LINE
  5
276
100
AcDbEntity
  8
0
  6
HIDDEN
 62
   174
100
AcDbLine
 10
147.083854
 20
154.113533
 30
0.0
 11
155.483854
 21
154.113533
 31
0.0
  0
LINE
  5
277
100
AcDbEntity
  8
0
  6
HIDDEN
 62
   174
100
AcDbLine
 10
167.109432
 20
163.613533
 30
0.0
 11
163.109508
 21
163.613533
 31
0.0
  0
LINE
  5
278
100
AcDbEntity
  8
0
  6
HIDDEN
 62
   174
100
AcDbLine
 10
170.683854
 20
175.067957
 30
0.0
 11
170.683854
 21
174.169754
 31
0.0
  0
LINE
  5
279
100
AcDbEntity
  8
0
  6
Continuous
 62
   174
100
AcDbLine
 10
170.083854
 20
176.951265
 30
0.0
 11
170.083854
 21
177.577996
 31
0.0
  0
LINE
  5
27A
100
AcDbEntity
  8
0
  6
Continuous
 62
   174
100
AcDbLine
 10
155.483854
 20
176.951265
 30
0.0
 11
155.483854
 21
175.539311
 31
0.0
  0
LINE
  5
27B
100
AcDbEntity
  8
0
  6
HIDDEN
 62
   174
100
AcDbLine
 10
158.083854
 20
206.844616
 30
0.0
 11
156.083854
 21
206.844616
 31
0.0
  0
LINE
  5
27C
100
AcDbEntity
  8
0
  6
Continuous
 62
   174
100
AcDbLine
 10
173.083854
 20
176.951265
 30
0.0
 11
170.683854
 21
176.951265
 31
0.0
  0
LINE
  5
27D
100
AcDbEntity
  8
0
  6
Continuous
 62
   174
100
AcDbLine
 10
167.109432
 20
170.778684
 30
0.0
 11
164.640384
 21
170.778684
 31
0.0
  0
LINE
  5
27E
100
AcDbEntity
  8
0
  6
Continuous
 62
   174
100
AcDbLine
 10
170.083854
 20
206.914916
 30
0.0
 11
170.083854
 21
206.078582
 31
0.0
  0
LINE
  5
27F
100
AcDbEntity
  8
0
  6
Continuous
 62
   174
100
AcDbLine
 10
167.183854
 20
195.204735
 30
0.0
 11
167.183854
 21
196.510906
 31
0.0
  0
LINE
  5
280
100
AcDbEntity
  8
0
  6
Continuous
 62
   174
100
AcDbLine
 10
158.983854
 20
214.863095
 30
0.0
 11
158.983854
 21
214.880519
 31
0.0
  0
LINE
  5
281
100
AcDbEntity
  8
0
  6
Continuous
 62
   174
100
AcDbLine
 10
158.583854
 20
204.313388
 30
0.0
 11
158.583854
 21
207.302442
 31
0.0
  0
LINE
  5
282
100
AcDbEntity
  8
0
  6
Continuous
 62
   174
100
AcDbLine
 10
168.083854
 20
206.04222
 30
0.0
 11
168.083854
 21
195.247874
 31
0.0
  0
LINE
  5
283
100
AcDbEntity
  8
0
  6
Continuous
 62
   174
100
AcDbLine
 10
170.083854
 20
174.946655
 30
0.0
 11
170.083854
 21
175.539311
 31
0.0
  0
LINE
  5
284
100
AcDbEntity
  8
0
  6
HIDDEN
 62
   174
100
AcDbLine
 10
158.583854
 20
206.844616
 30
0.0
 11
158.083854
 21
206.844616
 31
0.0
  0
LINE
  5
285
100
AcDbEntity
  8
0
  6
HIDDEN
 62
   174
100
AcDbLine
 10
170.083854
 20
203.634167
 30
0.0
 11
170.083854
 21
202.881346
 31
0.0
  0
LINE
  5
286
100
AcDbEntity
  8
0
  6
HIDDEN
 62
   174
100
AcDbLine
 10
158.583854
 20
200.888443
 30
0.0
 11
158.583854
 21
202.843494
 31
0.0
  0
LINE
  5
287
100
AcDbEntity
  8
0
  6
HIDDEN
 62
   174
100
AcDbLine
 10
155.483854
 20
139.15472
 30
0.0
 11
155.483854
 21
146.654391
 31
0.0
  0
LINE
  5
288
100
AcDbEntity
  8
0
  6
Continuous
 62
   174
100
AcDbLine
 10
167.583854
 20
214.463854
 30
0.0
 11
167.583854
 21
214.480376
 31
0.0
  0
LINE
  5
289
100
AcDbEntity
  8
0
  6
Continuous
 62
   174
100
AcDbLine
 10
153.083854
 20
189.137106
 30
0.0
 11
153.083854
 21
194.095931
 31
0.0
  0
LINE
  5
28A
100
AcDbEntity
  8
0
  6
Continuous
 62
   174
100
AcDbLine
 10
159.083854
 20
170.322046
 30
0.0
 11
155.083854
 21
170.322046
 31
0.0
  0
LINE
  5
28B
100
AcDbEntity
  8
0
  6
Continuous
 62
   174
100
AcDbLine
 10
155.483854
 20
170.322046
 30
0.0
 11
155.483854
 21
167.446381
 31
0.0
  0
LINE
  5
28C
100
AcDbEntity
  8
0
  6
Continuous
 62
   174
100
AcDbLine
 10
167.183854
 20
204.289956
 30
0.0
 11
167.183854
 21
207.339692
 31
0.0
  0
LINE
  5
28D
100
AcDbEntity
  8
0
  6
Continuous
 62
   174
100
AcDbLine
 10
156.083854
 20
212.880707
 30
0.0
 11
156.083854
 21
207.727518
 31
0.0
  0
LWPOLYLINE
  5
28E
100
AcDbEntity
  8
0
  6
Continuous
 62
   174
100
AcDbPolyline
 90
        4
 70
   128
 10
153.083854
 20
172.299509
 10
153.351803
 20
171.310778
 10
154.083854
 20
170.586976
 10
155.083854
 20
170.322046
  0
LINE
  5
28F
100
AcDbEntity
  8
0
  6
Continuous
 62
   174
100
AcDbLine
 10
158.583854
 20
212.30783
 30
0.0
 11
158.583854
 21
213.818579
 31
0.0
  0
LINE
  5
290
100
AcDbEntity
  8
0
  6
HIDDEN
 62
   174
100
AcDbLine
 10
155.483854
 20
154.153762
 30
0.0
 11
155.483854
 21
146.654391
 31
0.0
  0
LINE
  5
291
100
AcDbEntity
  8
0
  6
Continuous
 62
   174
100
AcDbLine
 10
153.083854
 20
185.137782
 30
0.0
 11
153.083854
 21
185.647573
 31
0.0
  0
LINE
  5
292
100
AcDbEntity
  8
0
  6
Continuous
 62
   174
100
AcDbLine
 10
173.083854
 20
165.037765
 30
0.0
 11
170.683854
 21
165.037765
 31
0.0
  0
ARC
  5
293
100
AcDbEntity
  8
0
  6
Continuous
 62
   174
100
AcDbCircle
 10
163.083854
 20
98.613533
 30
0.0
 40
8.75
100
AcDbArc
 50
0.0
 51
180.0
  0
LINE
  5
294
100
AcDbEntity
  8
0
  6
HIDDEN
 62
   174
100
AcDbLine
 10
167.583854
 20
202.844616
 30
0.0
 11
158.583854
 21
202.844616
 31
0.0
  0
LINE
  5
295
100
AcDbEntity
  8
0
  6
HIDDEN
 62
   174
100
AcDbLine
 10
167.583854
 20
206.907706
 30
0.0
 11
167.583854
 21
202.843494
 31
0.0
  0
LINE
  5
296
100
AcDbEntity
  8
0
  6
Continuous
 62
   174
100
AcDbLine
 10
158.983854
 20
196.510906
 30
0.0
 11
158.983854
 21
200.853295
 31
0.0
  0
LINE
  5
297
100
AcDbEntity
  8
0
  6
HIDDEN
 62
   174
100
AcDbLine
 10
170.683854
 20
142.154589
 30
0.0
 11
170.683854
 21
146.654391
 31
0.0
  0
LINE
  5
298
100
AcDbEntity
  8
0
  6
Continuous
 62
   174
100
AcDbLine
 10
167.583854
 20
204.313388
 30
0.0
 11
167.583854
 21
207.302442
 31
0.0
  0
LINE
  5
299
100
AcDbEntity
  8
0
  6
HIDDEN
 62
   174
100
AcDbLine
 10
173.083854
 20
175.067957
 30
0.0
 11
173.083854
 21
174.169754
 31
0.0
  0
LINE
  5
29A
100
AcDbEntity
  8
0
  6
Continuous
 62
   174
100
AcDbLine
 10
156.083854
 20
206.04222
 30
0.0
 11
156.083854
 21
194.06047
 31
0.0
  0
LINE
  5
29B
100
AcDbEntity
  8
0
  6
Continuous
 62
   174
100
AcDbLine
 10
156.083854
 20
207.727518
 30
0.0
 11
156.083854
 21
206.922426
 31
0.0
  0
LINE
  5
29C
100
AcDbEntity
  8
0
  6
HIDDEN
 62
   174
100
AcDbLine
 10
167.583854
 20
206.844616
 30
0.0
 11
158.583854
 21
206.844616
 31
0.0
  0
LINE
  5
29D
100
AcDbEntity
  8
0
  6
HIDDEN
 62
   174
100
AcDbLine
 10
179.083854
 20
154.113533
 30
0.0
 11
170.683854
 21
154.113533
 31
0.0
  0
LINE
  5
29E
100
AcDbEntity
  8
0
  6
Continuous
 62
   174
100
AcDbLine
 10
158.983854
 20
204.289956
 30
0.0
 11
158.983854
 21
207.339692
 31
0.0
  0
LINE
  5
29F
100
AcDbEntity
  8
0
  6
Continuous
 62
   174
100
AcDbLine
 10
167.583854
 20
212.30783
 30
0.0
 11
167.583854
 21
213.818579
 31
0.0
  0
LINE
  5
2A0
100
AcDbEntity
  8
0
  6
HIDDEN
 62
   174
100
AcDbLine
 10
153.083854
 20
175.067957
 30
0.0
 11
153.083854
 21
174.169754
 31
0.0
  0
LINE
  5
2A1
100
AcDbEntity
  8
0
  6
Continuous
 62
   174
100
AcDbLine
 10
170.683854
 20
179.295158
 30
0.0
 11
170.683854
 21
194.095931
 31
0.0
  0
LINE
  5
2A2
100
AcDbEntity
  8
0
  6
Continuous
 62
   174
100
AcDbLine
 10
168.083854
 20
176.944038
 30
0.0
 11
168.083854
 21
177.577996
 31
0.0
  0
LINE
  5
2A3
100
AcDbEntity
  8
0
  6
Continuous
 62
   174
100
AcDbLine
 10
170.083854
 20
178.148869
 30
0.0
 11
170.083854
 21
177.577996
 31
0.0
  0
LINE
  5
2A4
100
AcDbEntity
  8
0
  6
HIDDEN
 62
   174
100
AcDbLine
 10
167.583854
 20
208.880782
 30
0.0
 11
167.583854
 21
206.907706
 31
0.0
  0
LINE
  5
2A5
100
AcDbEntity
  8
0
  6
HIDDEN
 62
   174
100
AcDbLine
 10
179.083854
 20
154.153762
 30
0.0
 11
179.083854
 21
146.654391
 31
0.0
  0
LINE
  5
2A6
100
AcDbEntity
  8
0
  6
HIDDEN
 62
   174
100
AcDbLine
 10
155.483854
 20
151.153893
 30
0.0
 11
155.483854
 21
146.654391
 31
0.0
  0
LINE
  5
2A7
100
AcDbEntity
  8
0
  6
Continuous
 62
   174
100
AcDbLine
 10
159.083854
 20
163.613533
 30
0.0
 11
159.083854
 21
170.778684
 31
0.0
  0
LINE
  5
2A8
100
AcDbEntity
  8
0
  6
Continuous
 62
   174
100
AcDbLine
 10
153.083854
 20
183.028922
 30
0.0
 11
153.083854
 21
185.137782
 31
0.0
  0
LINE
  5
2A9
100
AcDbEntity
  8
0
  6
Continuous
 62
   174
100
AcDbLine
 10
168.083854
 20
177.577996
 30
0.0
 11
170.083854
 21
177.577996
 31
0.0
  0
LINE
  5
2AA
100
AcDbEntity
  8
0
  6
Continuous
 62
   174
100
AcDbLine
 10
167.183854
 20
194.881797
 30
0.0
 11
167.183854
 21
195.204735
 31
0.0
  0
LINE
  5
2AB
100
AcDbEntity
  8
0
  6
Continuous
 62
   174
100
AcDbLine
 10
158.583854
 20
195.28194
 30
0.0
 11
158.583854
 21
196.788483
 31
0.0
  0
LINE
  5
2AC
100
AcDbEntity
  8
0
  6
Continuous
 62
   174
100
AcDbLine
 10
158.583854
 20
200.848789
 30
0.0
 11
158.583854
 21
201.37991
 31
0.0
  0
LINE
  5
2AD
100
AcDbEntity
  8
0
  6
HIDDEN
 62
   174
100
AcDbLine
 10
173.083854
 20
174.169754
 30
0.0
 11
173.083854
 21
172.299509
 31
0.0
  0
LINE
  5
2AE
100
AcDbEntity
  8
0
  6
Continuous
 62
   174
100
AcDbLine
 10
156.083854
 20
206.922426
 30
0.0
 11
156.083854
 21
206.078582
 31
0.0
  0
LINE
  5
2AF
100
AcDbEntity
  8
0
  6
Continuous
 62
   174
100
AcDbLine
 10
153.083854
 20
188.673878
 30
0.0
 11
153.083854
 21
189.137106
 31
0.0
  0
LINE
  5
2B0
100
AcDbEntity
  8
0
  6
Continuous
 62
   174
100
AcDbLine
 10
156.083854
 20
194.06047
 30
0.0
 11
156.083854
 21
178.148869
 31
0.0
  0
LINE
  5
2B1
100
AcDbEntity
  8
0
  6
Continuous
 62
   174
100
AcDbLine
 10
170.083854
 20
175.539311
 30
0.0
 11
170.083854
 21
175.795646
 31
0.0
  0
LINE
  5
2B2
100
AcDbEntity
  8
0
  6
Continuous
 62
   174
100
AcDbLine
 10
167.183854
 20
201.295495
 30
0.0
 11
167.183854
 21
204.289956
 31
0.0
  0
LINE
  5
2B3
100
AcDbEntity
  8
0
  6
HIDDEN
 62
   174
100
AcDbLine
 10
147.083854
 20
154.113533
 30
0.0
 11
155.483854
 21
154.113533
 31
0.0
  0
LINE
  5
2B4
100
AcDbEntity
  8
0
  6
Continuous
 62
   174
100
AcDbLine
 10
167.083854
 20
163.613533
 30
0.0
 11
167.083854
 21
170.778684
 31
0.0
  0
LINE
  5
2B5
100
AcDbEntity
  8
0
  6
Continuous
 62
   174
100
AcDbLine
 10
168.083854
 20
206.04222
 30
0.0
 11
170.083854
 21
206.04222
 31
0.0
  0
LWPOLYLINE
  5
2B6
100
AcDbEntity
  8
0
  6
Continuous
 62
   174
100
AcDbPolyline
 90
        4
 70
   128
 10
171.083854
 20
170.322046
 10
172.083854
 20
170.586976
 10
172.815905
 20
171.310778
 10
173.083854
 20
172.299509
  0
LINE
  5
2B7
100
AcDbEntity
  8
0
  6
HIDDEN
 62
   174
100
AcDbLine
 10
155.483854
 20
181.484719
 30
0.0
 11
153.083854
 21
181.484719
 31
0.0
  0
LINE
  5
2B8
100
AcDbEntity
  8
0
  6
Continuous
 62
   174
100
AcDbLine
 10
147.083854
 20
182.613533
 30
0.0
 11
152.583854
 21
182.613533
 31
0.0
  0
ARC
  5
2B9
100
AcDbEntity
  8
0
  6
Continuous
 62
   174
100
AcDbCircle
 10
163.083854
 20
98.613533
 30
0.0
 40
8.75
100
AcDbArc
 50
-180.0
 51
0.0
  0
LINE
  5
2BA
100
AcDbEntity
  8
0
  6
Continuous
 62
   174
100
AcDbLine
 10
167.583854
 20
201.37991
 30
0.0
 11
167.583854
 21
204.313388
 31
0.0
  0
LINE
  5
2BB
100
AcDbEntity
  8
0
  6
Continuous
 62
   174
100
AcDbLine
 10
155.483854
 20
165.037765
 30
0.0
 11
153.083854
 21
165.037765
 31
0.0
  0
LINE
  5
2BC
100
AcDbEntity
  8
0
  6
Continuous
 62
   174
100
AcDbLine
 10
158.983854
 20
201.295495
 30
0.0
 11
158.983854
 21
204.289956
 31
0.0
  0
LINE
  5
2BD
100
AcDbEntity
  8
0
  6
Continuous
 62
   174
100
AcDbLine
 10
170.683854
 20
178.187256
 30
0.0
 11
170.683854
 21
179.295158
 31
0.0
  0
LINE
  5
2BE
100
AcDbEntity
  8
0
  6
HIDDEN
 62
   174
100
AcDbLine
 10
167.583854
 20
206.844616
 30
0.0
 11
158.583854
 21
206.844616
 31
0.0
  0
LINE
  5
2BF
100
AcDbEntity
  8
0
  6
Continuous
 62
   174
100
AcDbLine
 10
155.483854
 20
167.446381
 30
0.0
 11
155.483854
 21
165.037765
 31
0.0
  0
LINE
  5
2C0
100
AcDbEntity
  8
0
  6
Continuous
 62
   174
100
AcDbLine
 10
167.183854
 20
200.860806
 30
0.0
 11
167.183854
 21
201.295495
 31
0.0
  0
LINE
  5
2C1
100
AcDbEntity
  8
0
  6
Continuous
 62
   174
100
AcDbLine
 10
156.083854
 20
177.577996
 30
0.0
 11
158.083854
 21
177.577996
 31
0.0
  0
LINE
  5
2C2
100
AcDbEntity
  8
0
  6
Continuous
 62
   174
100
AcDbLine
 10
168.083854
 20
172.007608
 30
0.0
 11
168.083854
 21
174.946655
 31
0.0
  0
LINE
  5
2C3
100
AcDbEntity
  8
0
  6
Continuous
 62
   174
100
AcDbLine
 10
158.083854
 20
212.880707
 30
0.0
 11
158.083854
 21
208.701439
 31
0.0
  0
LINE
  5
2C4
100
AcDbEntity
  8
0
  6
HIDDEN
 62
   174
100
AcDbLine
 10
158.583854
 20
206.844616
 30
0.0
 11
158.083854
 21
206.844616
 31
0.0
  0
LINE
  5
2C5
100
AcDbEntity
  8
0
  6
HIDDEN
 62
   174
100
AcDbLine
 10
170.683854
 20
142.154589
 30
0.0
 11
170.683854
 21
146.654391
 31
0.0
  0
LINE
  5
2C6
100
AcDbEntity
  8
0
  6
Continuous
 62
   174
100
AcDbLine
 10
153.083854
 20
178.187256
 30
0.0
 11
153.083854
 21
183.028922
 31
0.0
  0
LINE
  5
2C7
100
AcDbEntity
  8
0
  6
HIDDEN
 62
   174
100
AcDbLine
 10
156.083854
 20
203.647012
 30
0.0
 11
158.083854
 21
203.647012
 31
0.0
  0
LINE
  5
2C8
100
AcDbEntity
  8
0
  6
HIDDEN
 62
   174
100
AcDbLine
 10
179.083854
 20
154.153762
 30
0.0
 11
179.083854
 21
146.654391
 31
0.0
  0
ARC
  5
2C9
100
AcDbEntity
  8
0
  6
Continuous
 62
   174
100
AcDbCircle
 10
163.083854
 20
161.613533
 30
0.0
 40
10.0
100
AcDbArc
 50
-293.578178
 51
-270.0
  0
LINE
  5
2CA
100
AcDbEntity
  8
0
  6
Continuous
 62
   174
100
AcDbLine
 10
168.083854
 20
173.166356
 30
0.0
 11
158.083854
 21
173.166356
 31
0.0
  0
LWPOLYLINE
  5
2CB
100
AcDbEntity
  8
0
  6
Continuous
 62
   174
100
AcDbPolyline
 90
        4
 70
   128
 10
155.083854
 20
173.166356
 10
154.083854
 20
173.431286
 10
153.351803
 20
174.155087
 10
153.083854
 20
175.143819
  0
LINE
  5
2CC
100
AcDbEntity
  8
0
  6
Continuous
 62
   174
100
AcDbLine
 10
147.083854
 20
46.613533
 30
0.0
 11
179.083854
 21
46.613533
 31
0.0
  0
LINE
  5
2CD
100
AcDbEntity
  8
0
  6
Continuous
 62
   174
100
AcDbLine
 10
170.683854
 20
177.577996
 30
0.0
 11
170.683854
 21
176.951265
 31
0.0
  0
ARC
  5
2CE
100
AcDbEntity
  8
0
  6
Continuous
 62
   174
100
AcDbCircle
 10
163.083854
 20
130.613533
 30
0.0
 40
8.75
100
AcDbArc
 50
0.0
 51
180.0
  0
LINE
  5
2CF
100
AcDbEntity
  8
0
  6
HIDDEN
 62
   174
100
AcDbLine
 10
170.683854
 20
146.654391
 30
0.0
 11
170.683854
 21
154.153762
 31
0.0
  0
LINE
  5
2D0
100
AcDbEntity
  8
0
  6
HIDDEN
 62
   174
100
AcDbLine
 10
158.983854
 20
194.881797
 30
0.0
 11
158.983854
 21
194.899521
 31
0.0
  0
LINE
  5
2D1
100
AcDbEntity
  8
0
  6
Continuous
 62
   174
100
AcDbLine
 10
158.583854
 20
196.788483
 30
0.0
 11
158.583854
 21
200.848789
 31
0.0
  0
LINE
  5
2D2
100
AcDbEntity
  8
0
  6
Continuous
 62
   174
100
AcDbLine
 10
153.083854
 20
167.446381
 30
0.0
 11
153.083854
 21
165.037765
 31
0.0
  0
LINE
  5
2D3
100
AcDbEntity
  8
0
  6
HIDDEN
 62
   174
100
AcDbLine
 10
147.083854
 20
146.654391
 30
0.0
 11
147.083854
 21
154.153762
 31
0.0
  0
ARC
  5
2D4
100
AcDbEntity
  8
0
  6
Continuous
 62
   174
100
AcDbCircle
 10
163.083854
 20
161.613533
 30
0.0
 40
10.0
100
AcDbArc
 50
90.0
 51
113.578178
  0
LINE
  5
2D5
100
AcDbEntity
  8
0
  6
Continuous
 62
   174
100
AcDbLine
 10
168.083854
 20
172.007608
 30
0.0
 11
170.083854
 21
172.007608
 31
0.0
  0
ARC
  5
2D6
100
AcDbEntity
  8
0
  6
Continuous
 62
   174
100
AcDbCircle
 10
163.083854
 20
130.613533
 30
0.0
 40
9.73
100
AcDbArc
 50
-180.0
 51
0.0
  0
LINE
  5
2D7
100
AcDbEntity
  8
0
  6
Continuous
 62
   174
100
AcDbLine
 10
173.583854
 20
182.613533
 30
0.0
 11
179.083854
 21
182.613533
 31
0.0
  0
LINE
  5
2D8
100
AcDbEntity
  8
0
  6
Continuous
 62
   174
100
AcDbLine
 10
163.109508
 20
170.778684
 30
0.0
 11
161.578631
 21
170.778684
 31
0.0
  0
LINE
  5
2D9
100
AcDbEntity
  8
0
  6
HIDDEN
 62
   174
100
AcDbLine
 10
167.583854
 20
200.888443
 30
0.0
 11
167.583854
 21
200.881534
 31
0.0
  0
LINE
  5
2DA
100
AcDbEntity
  8
0
  6
HIDDEN
 62
   174
100
AcDbLine
 10
155.483854
 20
139.15472
 30
0.0
 11
155.483854
 21
146.654391
 31
0.0
  0
LINE
  5
2DB
100
AcDbEntity
  8
0
  6
Continuous
 62
   174
100
AcDbLine
 10
170.683854
 20
178.148869
 30
0.0
 11
170.683854
 21
177.577996
 31
0.0
  0
LINE
  5
2DC
100
AcDbEntity
  8
0
  6
Continuous
 62
   174
100
AcDbLine
 10
173.083854
 20
176.951265
 30
0.0
 11
173.083854
 21
175.143819
 31
0.0
  0
LINE
  5
2DD
100
AcDbEntity
  8
0
  6
HIDDEN
 62
   174
100
AcDbLine
 10
156.083854
 20
203.634167
 30
0.0
 11
156.083854
 21
202.881346
 31
0.0
  0
LINE
  5
2DE
100
AcDbEntity
  8
0
  6
HIDDEN
 62
   174
100
AcDbLine
 10
170.083854
 20
206.88097
 30
0.0
 11
170.083854
 21
205.326061
 31
0.0
  0
LINE
  5
2DF
100
AcDbEntity
  8
0
  6
HIDDEN
 62
   174
100
AcDbLine
 10
158.583854
 20
202.843494
 30
0.0
 11
158.583854
 21
206.907706
 31
0.0
  0
LINE
  5
2E0
100
AcDbEntity
  8
0
  6
Continuous
 62
   174
100
AcDbLine
 10
167.183854
 20
196.510906
 30
0.0
 11
167.183854
 21
200.860806
 31
0.0
  0
LINE
  5
2E1
100
AcDbEntity
  8
0
  6
Continuous
 62
   174
100
AcDbLine
 10
158.983854
 20
194.881797
 30
0.0
 11
158.983854
 21
196.510906
 31
0.0
  0
LINE
  5
2E2
100
AcDbEntity
  8
0
  6
Continuous
 62
   174
100
AcDbLine
 10
167.583854
 20
213.818579
 30
0.0
 11
167.583854
 21
214.463854
 31
0.0
  0
LINE
  5
2E3
100
AcDbEntity
  8
0
  6
Continuous
 62
   174
100
AcDbLine
 10
167.583854
 20
200.856299
 30
0.0
 11
167.583854
 21
201.37991
 31
0.0
  0
LINE
  5
2E4
100
AcDbEntity
  8
0
  6
HIDDEN
 62
   174
100
AcDbLine
 10
167.583854
 20
202.843494
 30
0.0
 11
167.583854
 21
200.888443
 31
0.0
  0
LINE
  5
2E5
100
AcDbEntity
  8
0
  6
Continuous
 62
   174
100
AcDbLine
 10
168.083854
 20
175.539311
 30
0.0
 11
158.083854
 21
175.539311
 31
0.0
  0
LINE
  5
2E6
100
AcDbEntity
  8
0
  6
Continuous
 62
   174
100
AcDbLine
 10
153.083854
 20
176.951265
 30
0.0
 11
153.083854
 21
175.143819
 31
0.0
  0
LINE
  5
2E7
100
AcDbEntity
  8
0
  6
HIDDEN
 62
   174
100
AcDbLine
 10
156.083854
 20
206.88097
 30
0.0
 11
156.083854
 21
205.326061
 31
0.0
  0
LINE
  5
2E8
100
AcDbEntity
  8
0
  6
Continuous
 62
   174
100
AcDbLine
 10
158.583854
 20
214.463854
 30
0.0
 11
158.583854
 21
214.480376
 31
0.0
  0
LINE
  5
2E9
100
AcDbEntity
  8
0
  6
HIDDEN
 62
   174
100
AcDbLine
 10
173.083854
 20
187.053577
 30
0.0
 11
170.683854
 21
187.053577
 31
0.0
  0
LINE
  5
2EA
100
AcDbEntity
  8
0
  6
HIDDEN
 62
   174
100
AcDbLine
 10
163.109508
 20
170.778684
 30
0.0
 11
159.109583
 21
170.778684
 31
0.0
  0
LINE
  5
2EB
100
AcDbEntity
  8
0
  6
Continuous
 62
   174
100
AcDbLine
 10
168.083854
 20
175.795646
 30
0.0
 11
168.083854
 21
176.944038
 31
0.0
  0
LINE
  5
2EC
100
AcDbEntity
  8
0
  6
Continuous
 62
   174
100
AcDbLine
 10
156.083854
 20
175.539311
 30
0.0
 11
156.083854
 21
176.951265
 31
0.0
  0
LWPOLYLINE
  5
2ED
100
AcDbEntity
  8
0
  6
Continuous
 62
   174
100
AcDbPolyline
 90
        4
 70
   128
 10
173.083854
 20
175.143819
 10
172.815905
 20
174.155087
 10
172.083854
 20
173.431286
 10
171.083854
 20
173.166356
  0
LINE
  5
2EE
100
AcDbEntity
  8
0
  6
HIDDEN
 62
   174
100
AcDbLine
 10
158.083854
 20
206.844616
 30
0.0
 11
156.083854
 21
206.844616
 31
0.0
  0
LINE
  5
2EF
100
AcDbEntity
  8
0
  6
HIDDEN
 62
   174
100
AcDbLine
 10
158.083854
 20
202.844616
 30
0.0
 11
156.083854
 21
202.844616
 31
0.0
  0
LINE
  5
2F0
100
AcDbEntity
  8
0
  6
HIDDEN
 62
   174
100
AcDbLine
 10
158.583854
 20
202.844616
 30
0.0
 11
158.083854
 21
202.844616
 31
0.0
  0
LINE
  5
2F1
100
AcDbEntity
  8
0
  6
HIDDEN
 62
   174
100
AcDbLine
 10
155.483854
 20
175.067957
 30
0.0
 11
155.483854
 21
174.169754
 31
0.0
  0
LINE
  5
2F2
100
AcDbEntity
  8
0
  6
HIDDEN
 62
   174
100
AcDbLine
 10
179.083854
 20
146.654391
 30
0.0
 11
179.083854
 21
139.15472
 31
0.0
  0
LINE
  5
2F3
100
AcDbEntity
  8
0
  6
HIDDEN
 62
   174
100
AcDbLine
 10
158.083854
 20
175.539311
 30
0.0
 11
156.083854
 21
175.539311
 31
0.0
  0
ARC
  5
2F4
100
AcDbEntity
  8
0
  6
Continuous
 62
   174
100
AcDbCircle
 10
163.083854
 20
130.613533
 30
0.0
 40
8.75
100
AcDbArc
 50
-180.0
 51
0.0
  0
LINE
  5
2F5
100
AcDbEntity
  8
0
  6
HIDDEN
 62
   174
100
AcDbLine
 10
173.083854
 20
175.143819
 30
0.0
 11
173.083854
 21
174.169754
 31
0.0
  0
LINE
  5
2F6
100
AcDbEntity
  8
0
  6
Continuous
 62
   174
100
AcDbLine
 10
152.583854
 20
182.613533
 30
0.0
 11
152.583854
 21
165.013533
 31
0.0
  0
LINE
  5
2F7
100
AcDbEntity
  8
0
  6
HIDDEN
 62
   174
100
AcDbLine
 10
168.083854
 20
202.844616
 30
0.0
 11
167.583854
 21
202.844616
 31
0.0
  0
LINE
  5
2F8
100
AcDbEntity
  8
0
  6
HIDDEN
 62
   174
100
AcDbLine
 10
158.583854
 20
200.881534
 30
0.0
 11
158.583854
 21
200.888443
 31
0.0
  0
LINE
  5
2F9
100
AcDbEntity
  8
0
  6
HIDDEN
 62
   174
100
AcDbLine
 10
158.583854
 20
206.907706
 30
0.0
 11
158.583854
 21
208.880782
 31
0.0
  0
LINE
  5
2FA
100
AcDbEntity
  8
0
  6
Continuous
 62
   174
100
AcDbLine
 10
158.583854
 20
201.37991
 30
0.0
 11
158.583854
 21
204.313388
 31
0.0
  0
LINE
  5
2FB
100
AcDbEntity
  8
0
  6
HIDDEN
 62
   174
100
AcDbLine
 10
168.083854
 20
203.647012
 30
0.0
 11
170.083854
 21
203.647012
 31
0.0
  0
LINE
  5
2FC
100
AcDbEntity
  8
0
  6
Continuous
 62
   174
100
AcDbLine
 10
158.083854
 20
172.007608
 30
0.0
 11
158.083854
 21
177.577996
 31
0.0
  0
ARC
  5
2FD
100
AcDbEntity
  8
0
  6
Continuous
 62
   174
100
AcDbCircle
 10
163.083854
 20
130.613533
 30
0.0
 40
9.73
100
AcDbArc
 50
0.0
 51
118.805294
  0
LINE
  5
2FE
100
AcDbEntity
  8
0
  6
HIDDEN
 62
   174
100
AcDbLine
 10
168.083854
 20
206.844616
 30
0.0
 11
167.583854
 21
206.844616
 31
0.0
  0
LINE
  5
2FF
100
AcDbEntity
  8
0
  6
HIDDEN
 62
   174
100
AcDbLine
 10
170.083854
 20
202.844616
 30
0.0
 11
168.083854
 21
202.844616
 31
0.0
  0
LINE
  5
300
100
AcDbEntity
  8
0
  6
Continuous
 62
   174
100
AcDbLine
 10
155.483854
 20
167.446381
 30
0.0
 11
153.083854
 21
167.446381
 31
0.0
  0
LINE
  5
301
100
AcDbEntity
  8
0
  6
HIDDEN
 62
   174
100
AcDbLine
 10
158.583854
 20
195.244616
 30
0.0
 11
158.983854
 21
194.844616
 31
0.0
  0
LINE
  5
302
100
AcDbEntity
  8
0
  6
HIDDEN
 62
   174
100
AcDbLine
 10
170.683854
 20
146.654391
 30
0.0
 11
170.683854
 21
151.153893
 31
0.0
  0
LINE
  5
303
100
AcDbEntity
  8
0
  6
Continuous
 62
   174
100
AcDbLine
 10
161.578631
 20
170.778684
 30
0.0
 11
159.109583
 21
170.778684
 31
0.0
  0
LINE
  5
304
100
AcDbEntity
  8
0
  6
Continuous
 62
   174
100
AcDbLine
 10
170.683854
 20
175.539311
 30
0.0
 11
170.083854
 21
175.539311
 31
0.0
  0
LINE
  5
305
100
AcDbEntity
  8
0
  6
HIDDEN
 62
   174
100
AcDbLine
 10
170.083854
 20
173.166356
 30
0.0
 11
168.083854
 21
173.166356
 31
0.0
  0
LINE
  5
306
100
AcDbEntity
  8
0
  6
HIDDEN
 62
   174
100
AcDbLine
 10
147.083854
 20
146.654391
 30
0.0
 11
147.083854
 21
154.153762
 31
0.0
  0
LINE
  5
307
100
AcDbEntity
  8
0
  6
Continuous
 62
   174
100
AcDbLine
 10
168.083854
 20
208.473129
 30
0.0
 11
168.083854
 21
206.078582
 31
0.0
  0
LINE
  5
308
100
AcDbEntity
  8
0
  6
HIDDEN
 62
   174
100
AcDbLine
 10
179.083854
 20
146.654391
 30
0.0
 11
179.083854
 21
139.15472
 31
0.0
  0
LINE
  5
309
100
AcDbEntity
  8
0
  6
HIDDEN
 62
   174
100
AcDbLine
 10
167.183854
 20
194.881797
 30
0.0
 11
167.183854
 21
194.899521
 31
0.0
  0
LINE
  5
30A
100
AcDbEntity
  8
0
  6
HIDDEN
 62
   174
100
AcDbLine
 10
156.083854
 20
205.326061
 30
0.0
 11
156.083854
 21
203.634167
 31
0.0
  0
LINE
  5
30B
100
AcDbEntity
  8
0
  6
HIDDEN
 62
   174
100
AcDbLine
 10
167.583854
 20
200.844616
 30
0.0
 11
158.583854
 21
200.844616
 31
0.0
  0
LINE
  5
30C
100
AcDbEntity
  8
0
  6
Continuous
 62
   174
100
AcDbLine
 10
155.483854
 20
176.951265
 30
0.0
 11
153.083854
 21
176.951265
 31
0.0
  0
LINE
  5
30D
100
AcDbEntity
  8
0
  6
Continuous
 62
   174
100
AcDbLine
 10
167.183854
 20
214.192286
 30
0.0
 11
167.183854
 21
214.863095
 31
0.0
  0
LINE
  5
30E
100
AcDbEntity
  8
0
  6
Continuous
 62
   174
100
AcDbLine
 10
167.583854
 20
196.788483
 30
0.0
 11
167.583854
 21
200.856299
 31
0.0
  0
LINE
  5
30F
100
AcDbEntity
  8
0
  6
Continuous
 62
   174
100
AcDbLine
 10
170.083854
 20
172.007608
 30
0.0
 11
170.083854
 21
174.946655
 31
0.0
  0
LINE
  5
310
100
AcDbEntity
  8
0
  6
Continuous
 62
   174
100
AcDbLine
 10
170.083854
 20
212.880707
 30
0.0
 11
170.083854
 21
208.473129
 31
0.0
  0
LINE
  5
311
100
AcDbEntity
  8
0
  6
Continuous
 62
   174
100
AcDbLine
 10
173.583854
 20
182.613533
 30
0.0
 11
173.583854
 21
165.013533
 31
0.0
  0
LINE
  5
312
100
AcDbEntity
  8
0
  6
Continuous
 62
   174
100
AcDbLine
 10
155.483854
 20
178.148869
 30
0.0
 11
153.083854
 21
178.148869
 31
0.0
  0
LINE
  5
313
100
AcDbEntity
  8
0
  6
HIDDEN
 62
   174
100
AcDbLine
 10
179.083854
 20
139.113533
 30
0.0
 11
170.683854
 21
139.113533
 31
0.0
  0
LINE
  5
314
100
AcDbEntity
  8
0
  6
Continuous
 62
   174
100
AcDbLine
 10
170.683854
 20
175.795646
 30
0.0
 11
170.683854
 21
175.539311
 31
0.0
  0
LINE
  5
315
100
AcDbEntity
  8
0
  6
Continuous
 62
   174
100
AcDbLine
 10
168.083854
 20
212.844616
 30
0.0
 11
170.083854
 21
212.844616
 31
0.0
  0
LINE
  5
316
100
AcDbEntity
  8
0
  6
Continuous
 62
   174
100
AcDbLine
 10
158.083854
 20
195.247874
 30
0.0
 11
158.083854
 21
177.577996
 31
0.0
  0
LINE
  5
317
100
AcDbEntity
  8
0
  6
Continuous
 62
   174
100
AcDbLine
 10
171.083854
 20
173.166356
 30
0.0
 11
171.083854
 21
170.322046
 31
0.0
  0
LINE
  5
318
100
AcDbEntity
  8
0
  6
HIDDEN
 62
   174
100
AcDbLine
 10
179.083854
 20
139.113533
 30
0.0
 11
170.683854
 21
139.113533
 31
0.0
  0
LINE
  5
319
100
AcDbEntity
  8
0
  6
Continuous
 62
   174
100
AcDbLine
 10
158.983854
 20
214.192286
 30
0.0
 11
158.983854
 21
214.863095
 31
0.0
  0
LINE
  5
31A
100
AcDbEntity
  8
0
  6
HIDDEN
 62
   174
100
AcDbLine
 10
147.083854
 20
139.15472
 30
0.0
 11
147.083854
 21
146.654391
 31
0.0
  0
LINE
  5
31B
100
AcDbEntity
  8
0
  6
Continuous
 62
   174
100
AcDbLine
 10
170.083854
 20
175.795646
 30
0.0
 11
170.083854
 21
176.951265
 31
0.0
  0
LINE
  5
31C
100
AcDbEntity
  8
0
  6
HIDDEN
 62
   174
100
AcDbLine
 10
155.483854
 20
175.539311
 30
0.0
 11
155.483854
 21
172.695002
 31
0.0
  0
LINE
  5
31D
100
AcDbEntity
  8
0
  6
HIDDEN
 62
   174
100
AcDbLine
 10
170.683854
 20
146.654391
 30
0.0
 11
170.683854
 21
139.15472
 31
0.0
  0
LINE
  5
31E
100
AcDbEntity
  8
0
  6
HIDDEN
 62
   174
100
AcDbLine
 10
155.483854
 20
151.153893
 30
0.0
 11
155.483854
 21
146.654391
 31
0.0
  0
LINE
  5
31F
100
AcDbEntity
  8
0
  6
HIDDEN
 62
   174
100
AcDbLine
 10
155.483854
 20
174.169754
 30
0.0
 11
155.483854
 21
170.322046
 31
0.0
  0
LINE
  5
320
100
AcDbEntity
  8
0
  6
Continuous
 62
   174
100
AcDbLine
 10
155.483854
 20
179.295158
 30
0.0
 11
155.483854
 21
194.095931
 31
0.0
  0
LINE
  5
321
100
AcDbEntity
  8
0
  6
Continuous
 62
   174
100
AcDbLine
 10
153.083854
 20
172.299509
 30
0.0
 11
153.083854
 21
167.446381
 31
0.0
  0
LINE
  5
322
100
AcDbEntity
  8
0
  6
Continuous
 62
   174
100
AcDbLine
 10
156.083854
 20
176.951265
 30
0.0
 11
156.083854
 21
177.577996
 31
0.0
  0
LINE
  5
323
100
AcDbEntity
  8
0
  6
Continuous
 62
   174
100
AcDbLine
 10
170.083854
 20
208.473129
 30
0.0
 11
170.083854
 21
206.914916
 31
0.0
  0
LINE
  5
324
100
AcDbEntity
  8
0
  6
HIDDEN
 62
   174
100
AcDbLine
 10
167.583854
 20
195.244616
 30
0.0
 11
167.183854
 21
194.844616
 31
0.0
  0
LINE
  5
325
100
AcDbEntity
  8
0
  6
HIDDEN
 62
   174
100
AcDbLine
 10
153.083854
 20
174.169754
 30
0.0
 11
153.083854
 21
172.299509
 31
0.0
  0
LINE
  5
326
100
AcDbEntity
  8
0
  6
Continuous
 62
   174
100
AcDbLine
 10
170.683854
 20
176.951265
 30
0.0
 11
170.683854
 21
175.795646
 31
0.0
  0
LINE
  5
327
100
AcDbEntity
  8
0
  6
HIDDEN
 62
   174
100
AcDbLine
 10
167.083854
 20
170.322046
 30
0.0
 11
159.083854
 21
170.322046
 31
0.0
  0
LINE
  5
328
100
AcDbEntity
  8
0
  6
HIDDEN
 62
   174
100
AcDbLine
 10
163.109508
 20
163.613533
 30
0.0
 11
159.109583
 21
163.613533
 31
0.0
  0
LINE
  5
329
100
AcDbEntity
  8
0
  6
Continuous
 62
   174
100
AcDbLine
 10
153.083854
 20
174.169754
 30
0.0
 11
153.083854
 21
172.299509
 31
0.0
  0
LINE
  5
32A
100
AcDbEntity
  8
0
  6
Continuous
 62
   174
100
AcDbLine
 10
173.083854
 20
178.148869
 30
0.0
 11
170.683854
 21
178.148869
 31
0.0
  0
LINE
  5
32B
100
AcDbEntity
  8
0
  6
Continuous
 62
   174
100
AcDbLine
 10
164.640384
 20
170.778684
 30
0.0
 11
163.109508
 21
170.778684
 31
0.0
  0
LINE
  5
32C
100
AcDbEntity
  8
0
  6
Continuous
 62
   174
100
AcDbLine
 10
170.683854
 20
167.446381
 30
0.0
 11
170.683854
 21
165.037765
 31
0.0
  0
LINE
  5
32D
100
AcDbEntity
  8
0
  6
HIDDEN
 62
   174
100
AcDbLine
 10
153.083854
 20
175.143819
 30
0.0
 11
153.083854
 21
174.169754
 31
0.0
  0
LINE
  5
32E
100
AcDbEntity
  8
0
  6
Continuous
 62
   174
100
AcDbLine
 10
173.083854
 20
165.013533
 30
0.0
 11
173.583854
 21
165.013533
 31
0.0
  0
LINE
  5
32F
100
AcDbEntity
  8
0
  6
HIDDEN
 62
   174
100
AcDbLine
 10
147.083854
 20
139.15472
 30
0.0
 11
147.083854
 21
146.654391
 31
0.0
  0
LINE
  5
330
100
AcDbEntity
  8
0
  6
Continuous
 62
   174
100
AcDbLine
 10
156.083854
 20
212.844616
 30
0.0
 11
158.083854
 21
212.844616
 31
0.0
  0
LINE
  5
331
100
AcDbEntity
  8
0
  6
HIDDEN
 62
   174
100
AcDbLine
 10
155.483854
 20
151.113533
 30
0.0
 11
170.683854
 21
151.113533
 31
0.0
  0
LINE
  5
332
100
AcDbEntity
  8
0
  6
Continuous
 62
   174
100
AcDbLine
 10
167.583854
 20
207.302442
 30
0.0
 11
167.583854
 21
212.30783
 31
0.0
  0
LINE
  5
333
100
AcDbEntity
  8
0
  6
HIDDEN
 62
   174
100
AcDbLine
 10
147.083854
 20
139.113533
 30
0.0
 11
155.483854
 21
139.113533
 31
0.0
  0
LINE
  5
334
100
AcDbEntity
  8
0
  6
Continuous
 62
   174
100
AcDbLine
 10
173.083854
 20
167.446381
 30
0.0
 11
170.683854
 21
167.446381
 31
0.0
  0
LINE
  5
335
100
AcDbEntity
  8
0
  6
HIDDEN
 62
   174
100
AcDbLine
 10
170.683854
 20
172.695002
 30
0.0
 11
170.683854
 21
175.539311
 31
0.0
  0
LINE
  5
336
100
AcDbEntity
  8
0
  6
HIDDEN
 62
   174
100
AcDbLine
 10
168.083854
 20
206.844616
 30
0.0
 11
167.583854
 21
206.844616
 31
0.0
  0
LINE
  5
337
100
AcDbEntity
  8
0
  6
Continuous
 62
   174
100
AcDbLine
 10
170.683854
 20
165.013533
 30
0.0
 11
173.083854
 21
165.013533
 31
0.0
  0
LINE
  5
338
100
AcDbEntity
  8
0
  6
HIDDEN
 62
   174
100
AcDbLine
 10
155.483854
 20
142.113533
 30
0.0
 11
170.683854
 21
142.113533
 31
0.0
  0
LINE
  5
339
100
AcDbEntity
  8
0
  6
Continuous
 62
   174
100
AcDbLine
 10
155.483854
 20
178.187256
 30
0.0
 11
155.483854
 21
179.295158
 31
0.0
  0
LINE
  5
33A
100
AcDbEntity
  8
0
  6
Continuous
 62
   174
100
AcDbLine
 10
168.083854
 20
212.880707
 30
0.0
 11
168.083854
 21
208.473129
 31
0.0
  0
LINE
  5
33B
100
AcDbEntity
  8
0
  6
Continuous
 62
   174
100
AcDbLine
 10
167.083854
 20
165.013533
 30
0.0
 11
170.683854
 21
165.013533
 31
0.0
  0
LINE
  5
33C
100
AcDbEntity
  8
0
  6
HIDDEN
 62
   174
100
AcDbLine
 10
155.483854
 20
187.053577
 30
0.0
 11
153.083854
 21
187.053577
 31
0.0
  0
LINE
  5
33D
100
AcDbEntity
  8
0
  6
HIDDEN
 62
   174
100
AcDbLine
 10
167.583854
 20
208.844616
 30
0.0
 11
158.583854
 21
208.844616
 31
0.0
  0
LINE
  5
33E
100
AcDbEntity
  8
0
  6
Continuous
 62
   174
100
AcDbLine
 10
173.083854
 20
167.446381
 30
0.0
 11
173.083854
 21
165.037765
 31
0.0
  0
LINE
  5
33F
100
AcDbEntity
  8
0
  6
Continuous
 62
   174
100
AcDbLine
 10
168.083854
 20
195.247874
 30
0.0
 11
168.083854
 21
177.577996
 31
0.0
  0
LINE
  5
340
100
AcDbEntity
  8
0
  6
Continuous
 62
   174
100
AcDbLine
 10
171.083854
 20
170.322046
 30
0.0
 11
167.083854
 21
170.322046
 31
0.0
  0
LINE
  5
341
100
AcDbEntity
  8
0
  6
Continuous
 62
   174
100
AcDbLine
 10
173.083854
 20
174.169754
 30
0.0
 11
173.083854
 21
172.299509
 31
0.0
  0
LINE
  5
342
100
AcDbEntity
  8
0
  6
Continuous
 62
   174
100
AcDbLine
 10
155.483854
 20
165.013533
 30
0.0
 11
159.083854
 21
165.013533
 31
0.0
  0
LINE
  5
343
100
AcDbEntity
  8
0
  6
HIDDEN
 62
   174
100
AcDbLine
 10
155.483854
 20
146.654391
 30
0.0
 11
155.483854
 21
142.154589
 31
0.0
  0
LINE
  5
344
100
AcDbEntity
  8
0
  6
Continuous
 62
   174
100
AcDbLine
 10
156.083854
 20
172.007608
 30
0.0
 11
158.083854
 21
172.007608
 31
0.0
  0
LINE
  5
345
100
AcDbEntity
  8
0
  6
Continuous
 62
   174
100
AcDbLine
 10
153.083854
 20
165.013533
 30
0.0
 11
155.483854
 21
165.013533
 31
0.0
  0
LINE
  5
346
100
AcDbEntity
  8
0
  6
Continuous
 62
   174
100
AcDbLine
 10
158.983854
 20
212.547255
 30
0.0
 11
158.983854
 21
214.192286
 31
0.0
  0
LINE
  5
347
100
AcDbEntity
  8
0
  6
Continuous
 62
   174
100
AcDbLine
 10
173.083854
 20
194.05872
 30
0.0
 11
170.683854
 21
194.05872
 31
0.0
  0
LINE
  5
348
100
AcDbEntity
  8
0
  6
HIDDEN
 62
   174
100
AcDbLine
 10
167.109432
 20
170.778684
 30
0.0
 11
163.109508
 21
170.778684
 31
0.0
  0
LINE
  5
349
100
AcDbEntity
  8
0
  6
Continuous
 62
   174
100
AcDbLine
 10
156.083854
 20
175.539311
 30
0.0
 11
155.483854
 21
175.539311
 31
0.0
  0
ENDBLK
  5
34A
100
AcDbEntity
  8
0
100
AcDbBlockEnd
  0
BLOCK
  5
34D
100
AcDbEntity
  8
0
100
AcDbBlockBegin
  2
*B4
 70
     0
 10
0.0
 20
0.0
 30
0.0
  3
*B4
  1

  0
LINE
  5
34E
100
AcDbEntity
  8
0
  6
Continuous
 62
     0
100
AcDbLine
 10
229.508557
 20
28.714743
 30
0.0
 11
289.508629
 21
28.714743
 31
0.0
  0
SOLID
  5
34F
100
AcDbEntity
  8
0
  6
Continuous
 62
     0
100
AcDbTrace
 10
234.508538
 20
29.714799
 30
0.0
 11
229.508557
 21
28.714743
 31
0.0
 12
234.508538
 22
27.714686
 32
0.0
 13
234.508538
 23
27.714686
 33
0.0
  0
SOLID
  5
350
100
AcDbEntity
  8
0
  6
Continuous
 62
     0
100
AcDbTrace
 10
284.508648
 20
27.714686
 30
0.0
 11
289.508629
 21
28.714743
 31
0.0
 12
284.508648
 22
29.714799
 32
0.0
 13
284.508648
 23
29.714799
 33
0.0
  0
ENDBLK
  5
351
100
AcDbEntity
  8
0
100
AcDbBlockEnd
  0
BLOCK
  5
354
100
AcDbEntity
  8
0
100
AcDbBlockBegin
  2
*B5
 70
     0
 10
0.0
 20
0.0
 30
0.0
  3
*B5
  1

  0
LINE
  5
355
100
AcDbEntity
  8
0
  6
Continuous
 62
     0
100
AcDbLine
 10
147.109509
 20
28.714743
 30
0.0
 11
179.109507
 21
28.714743
 31
0.0
  0
SOLID
  5
356
100
AcDbEntity
  8
0
  6
Continuous
 62
     0
100
AcDbTrace
 10
152.109489
 20
29.714799
 30
0.0
 11
147.109509
 21
28.714743
 31
0.0
 12
152.109489
 22
27.714686
 32
0.0
 13
152.109489
 23
27.714686
 33
0.0
  0
SOLID
  5
357
100
AcDbEntity
  8
0
  6
Continuous
 62
     0
100
AcDbTrace
 10
174.109526
 20
27.714686
 30
0.0
 11
179.109507
 21
28.714743
 31
0.0
 12
174.109526
 22
29.714799
 32
0.0
 13
174.109526
 23
29.714799
 33
0.0
  0
ENDBLK
  5
358
100
AcDbEntity
  8
0
100
AcDbBlockEnd
  0
BLOCK
  5
35B
100
AcDbEntity
  8
0
100
AcDbBlockBegin
  2
*B6
 70
     0
 10
0.0
 20
0.0
 30
0.0
  3
*B6
  1

  0
LINE
  5
35C
100
AcDbEntity
  8
0
  6
Continuous
 62
     0
100
AcDbLine
 10
199.025617
 20
182.65161
 30
0.0
 11
199.025617
 21
46.661682
 31
0.0
  0
SOLID
  5
35D
100
AcDbEntity
  8
0
  6
Continuous
 62
     0
100
AcDbTrace
 10
200.025673
 20
177.65193
 30
0.0
 11
199.025617
 21
182.65161
 31
0.0
 12
198.02556
 22
177.65193
 32
0.0
 13
198.02556
 23
177.65193
 33
0.0
  0
SOLID
  5
35E
100
AcDbEntity
  8
0
  6
Continuous
 62
     0
100
AcDbTrace
 10
198.02556
 20
51.661062
 30
0.0
 11
199.025617
 21
46.661682
 31
0.0
 12
200.025673
 22
51.661062
 32
0.0
 13
200.025673
 23
51.661062
 33
0.0
  0
ENDBLK
  5
35F
100
AcDbEntity
  8
0
100
AcDbBlockEnd
  0
BLOCK
  5
362
100
AcDbEntity
  8
0
100
AcDbBlockBegin
  2
*B7
 70
     0
 10
0.0
 20
0.0
 30
0.0
  3
*B7
  1

  0
LINE
  5
363
100
AcDbEntity
  8
0
  6
Continuous
 62
     0
100
AcDbLine
 10
215.025616
 20
82.658901
 30
0.0
 11
215.025616
 21
46.661682
 31
0.0
  0
SOLID
  5
364
100
AcDbEntity
  8
0
  6
Continuous
 62
     0
100
AcDbTrace
 10
216.025672
 20
77.659221
 30
0.0
 11
215.025616
 21
82.658901
 31
0.0
 12
214.025559
 22
77.659221
 32
0.0
 13
214.025559
 23
77.659221
 33
0.0
  0
SOLID
  5
365
100
AcDbEntity
  8
0
  6
Continuous
 62
     0
100
AcDbTrace
 10
214.025559
 20
51.661062
 30
0.0
 11
215.025616
 21
46.661682
 31
0.0
 12
216.025672
 22
51.661062
 32
0.0
 13
216.025672
 23
51.661062
 33
0.0
  0
ENDBLK
  5
366
100
AcDbEntity
  8
0
100
AcDbBlockEnd
  0
BLOCK
  5
369
100
AcDbEntity
  8
0
100
AcDbBlockBegin
  2
*B8
 70
     0
 10
0.0
 20
0.0
 30
0.0
  3
*B8
  1

  0
LINE
  5
36A
100
AcDbEntity
  8
0
  6
Continuous
 62
     0
100
AcDbLine
 10
215.025616
 20
114.656496
 30
0.0
 11
215.025616
 21
82.658901
 31
0.0
  0
SOLID
  5
36B
100
AcDbEntity
  8
0
  6
Continuous
 62
     0
100
AcDbTrace
 10
216.025672
 20
109.657116
 30
0.0
 11
215.025616
 21
114.656496
 31
0.0
 12
214.025559
 22
109.657116
 32
0.0
 13
214.025559
 23
109.657116
 33
0.0
  0
SOLID
  5
36C
100
AcDbEntity
  8
0
  6
Continuous
 62
     0
100
AcDbTrace
 10
214.025559
 20
87.658582
 30
0.0
 11
215.025616
 21
82.658901
 31
0.0
 12
216.025672
 22
87.658582
 32
0.0
 13
216.025672
 23
87.658582
 33
0.0
  0
ENDBLK
  5
36D
100
AcDbEntity
  8
0
100
AcDbBlockEnd
  0
BLOCK
  5
370
100
AcDbEntity
  8
0
100
AcDbBlockBegin
  2
*B9
 70
     0
 10
0.0
 20
0.0
 30
0.0
  3
*B9
  1

  0
LINE
  5
371
100
AcDbEntity
  8
0
  6
Continuous
 62
     0
100
AcDbLine
 10
305.690675
 20
66.660104
 30
0.0
 11
305.690675
 21
46.661682
 31
0.0
  0
SOLID
  5
372
100
AcDbEntity
  8
0
  6
Continuous
 62
     0
100
AcDbTrace
 10
306.690731
 20
61.660423
 30
0.0
 11
305.690675
 21
66.660104
 31
0.0
 12
304.690619
 22
61.660423
 32
0.0
 13
304.690619
 23
61.660423
 33
0.0
  0
SOLID
  5
373
100
AcDbEntity
  8
0
  6
Continuous
 62
     0
100
AcDbTrace
 10
304.690619
 20
51.661062
 30
0.0
 11
305.690675
 21
46.661682
 31
0.0
 12
306.690731
 22
51.661062
 32
0.0
 13
306.690731
 23
51.661062
 33
0.0
  0
ENDBLK
  5
374
100
AcDbEntity
  8
0
100
AcDbBlockEnd
  0
BLOCK
  5
377
100
AcDbEntity
  8
0
100
AcDbBlockBegin
  2
*B10
 70
     0
 10
0.0
 20
0.0
 30
0.0
  3
*B10
  1

  0
LINE
  5
378
100
AcDbEntity
  8
0
  6
Continuous
 62
     0
100
AcDbLine
 10
305.690675
 20
66.660104
 30
0.0
 11
305.690675
 21
98.657699
 31
0.0
  0
SOLID
  5
379
100
AcDbEntity
  8
0
  6
Continuous
 62
     0
100
AcDbTrace
 10
304.690619
 20
71.659784
 30
0.0
 11
305.690675
 21
66.660104
 31
0.0
 12
306.690731
 22
71.659784
 32
0.0
 13
306.690731
 23
71.659784
 33
0.0
  0
SOLID
  5
37A
100
AcDbEntity
  8
0
  6
Continuous
 62
     0
100
AcDbTrace
 10
306.690731
 20
93.658018
 30
0.0
 11
305.690675
 21
98.657699
 31
0.0
 12
304.690619
 22
93.658018
 32
0.0
 13
304.690619
 23
93.658018
 33
0.0
  0
ENDBLK
  5
37B
100
AcDbEntity
  8
0
100
AcDbBlockEnd
  0
BLOCK
  5
37E
100
AcDbEntity
  8
0
100
AcDbBlockBegin
  2
*B11
 70
     0
 10
0.0
 20
0.0
 30
0.0
  3
*B11
  1

  0
LINE
  5
37F
100
AcDbEntity
  8
0
  6
Continuous
 62
     0
100
AcDbLine
 10
305.690675
 20
98.657699
 30
0.0
 11
305.690675
 21
130.655594
 31
0.0
  0
SOLID
  5
380
100
AcDbEntity
  8
0
  6
Continuous
 62
     0
100
AcDbTrace
 10
304.690619
 20
103.657379
 30
0.0
 11
305.690675
 21
98.657699
 31
0.0
 12
306.690731
 22
103.657379
 32
0.0
 13
306.690731
 23
103.657379
 33
0.0
  0
SOLID
  5
381
100
AcDbEntity
  8
0
  6
Continuous
 62
     0
100
AcDbTrace
 10
306.690731
 20
125.655913
 30
0.0
 11
305.690675
 21
130.655594
 31
0.0
 12
304.690619
 22
125.655913
 32
0.0
 13
304.690619
 23
125.655913
 33
0.0
  0
ENDBLK
  5
382
100
AcDbEntity
  8
0
100
AcDbBlockEnd
  0
BLOCK
  5
385
100
AcDbEntity
  8
0
100
AcDbBlockBegin
  2
*B12
 70
     0
 10
0.0
 20
0.0
 30
0.0
  3
*B12
  1

  0
LINE
  5
386
100
AcDbEntity
  8
0
  6
Continuous
 62
     0
100
AcDbLine
 10
325.025496
 20
146.654391
 30
0.0
 11
325.025496
 21
46.661682
 31
0.0
  0
SOLID
  5
387
100
AcDbEntity
  8
0
  6
Continuous
 62
     0
100
AcDbTrace
 10
326.025553
 20
141.654711
 30
0.0
 11
325.025496
 21
146.654391
 31
0.0
 12
324.02544
 22
141.654711
 32
0.0
 13
324.02544
 23
141.654711
 33
0.0
  0
SOLID
  5
388
100
AcDbEntity
  8
0
  6
Continuous
 62
     0
100
AcDbTrace
 10
324.02544
 20
51.661062
 30
0.0
 11
325.025496
 21
46.661682
 31
0.0
 12
326.025553
 22
51.661062
 32
0.0
 13
326.025553
 23
51.661062
 33
0.0
  0
ENDBLK
  5
389
100
AcDbEntity
  8
0
100
AcDbBlockEnd
  0
BLOCK
  5
38C
100
AcDbEntity
  8
0
100
AcDbBlockBegin
  2
*B13
 70
     0
 10
0.0
 20
0.0
 30
0.0
  3
*B13
  1

  0
LINE
  5
38D
100
AcDbEntity
  8
0
  6
Continuous
 62
     0
100
AcDbLine
 10
134.32507
 20
134.937601
 30
0.0
 11
134.32507
 21
79.909272
 31
0.0
  0
SOLID
  5
38E
100
AcDbEntity
  8
0
  6
Continuous
 62
     0
100
AcDbTrace
 10
133.325014
 20
112.406745
 30
0.0
 11
134.32507
 21
107.407064
 31
0.0
 12
135.325127
 22
112.406745
 32
0.0
 13
135.325127
 23
112.406745
 33
0.0
  0
SOLID
  5
38F
100
AcDbEntity
  8
0
  6
Continuous
 62
     0
100
AcDbTrace
 10
135.325127
 20
84.908652
 30
0.0
 11
134.32507
 21
89.908333
 31
0.0
 12
133.325014
 22
84.908652
 32
0.0
 13
133.325014
 23
84.908652
 33
0.0
  0
ENDBLK
  5
390
100
AcDbEntity
  8
0
100
AcDbBlockEnd
  0
BLOCK
  5
393
100
AcDbEntity
  8
0
100
AcDbBlockBegin
  2
*B14
 70
     0
 10
0.0
 20
0.0
 30
0.0
  3
*B14
  1

  0
LINE
  5
394
100
AcDbEntity
  8
0
  6
Continuous
 62
     0
100
AcDbLine
 10
148.609443
 20
223.100867
 30
0.0
 11
177.609572
 21
223.100867
 31
0.0
  0
SOLID
  5
395
100
AcDbEntity
  8
0
  6
Continuous
 62
     0
100
AcDbTrace
 10
153.609424
 20
222.100811
 30
0.0
 11
158.609405
 21
223.100867
 31
0.0
 12
153.609424
 22
224.100623
 32
0.0
 13
153.609424
 23
224.100623
 33
0.0
  0
SOLID
  5
396
100
AcDbEntity
  8
0
  6
Continuous
 62
     0
100
AcDbTrace
 10
172.609591
 20
224.100623
 30
0.0
 11
167.609611
 21
223.100867
 31
0.0
 12
172.609591
 22
222.100811
 32
0.0
 13
172.609591
 23
222.100811
 33
0.0
  0
ENDBLK
  5
397
100
AcDbEntity
  8
0
100
AcDbBlockEnd
  0
BLOCK
  5
39A
100
AcDbEntity
  8
0
100
AcDbBlockBegin
  2
*B15
 70
     0
 10
0.0
 20
0.0
 30
0.0
  3
*B15
  1

  0
LINE
  5
39B
100
AcDbEntity
  8
0
  6
Continuous
 62
     0
100
AcDbLine
 10
272.3067
 20
235.699954
 30
0.0
 11
229.508557
 21
235.699954
 31
0.0
  0
SOLID
  5
39C
100
AcDbEntity
  8
0
  6
Continuous
 62
     0
100
AcDbTrace
 10
267.306719
 20
234.699898
 30
0.0
 11
272.3067
 21
235.699954
 31
0.0
 12
267.306719
 22
236.69971
 32
0.0
 13
267.306719
 23
236.69971
 33
0.0
  0
SOLID
  5
39D
100
AcDbEntity
  8
0
  6
Continuous
 62
     0
100
AcDbTrace
 10
234.508538
 20
236.69971
 30
0.0
 11
229.508557
 21
235.699954
 31
0.0
 12
234.508538
 22
234.699898
 32
0.0
 13
234.508538
 23
234.699898
 33
0.0
  0
ENDBLK
  5
39E
100
AcDbEntity
  8
0
100
AcDbBlockEnd
  0
BLOCK
  5
3A1
100
AcDbEntity
  8
0
100
AcDbBlockBegin
  2
*B16
 70
     0
 10
0.0
 20
0.0
 30
0.0
  3
*B16
  1

  0
LINE
  5
3A2
100
AcDbEntity
  8
0
  6
Continuous
 62
     0
100
AcDbLine
 10
252.306776
 20
221.700969
 30
0.0
 11
292.306623
 21
221.700969
 31
0.0
  0
SOLID
  5
3A3
100
AcDbEntity
  8
0
  6
Continuous
 62
     0
100
AcDbTrace
 10
257.306757
 20
220.700912
 30
0.0
 11
262.306738
 21
221.700969
 31
0.0
 12
257.306757
 22
222.700725
 32
0.0
 13
257.306757
 23
222.700725
 33
0.0
  0
SOLID
  5
3A4
100
AcDbEntity
  8
0
  6
Continuous
 62
     0
100
AcDbTrace
 10
287.306643
 20
222.700725
 30
0.0
 11
282.306662
 21
221.700969
 31
0.0
 12
287.306643
 22
220.700912
 32
0.0
 13
287.306643
 23
220.700912
 33
0.0
  0
ENDBLK
  5
3A5
100
AcDbEntity
  8
0
100
AcDbBlockEnd
  0
BLOCK
  5
3A8
100
AcDbEntity
  8
0
100
AcDbBlockBegin
  2
*B17
 70
     0
 10
0.0
 20
0.0
 30
0.0
  3
*B17
  1

  0
LINE
  5
3A9
100
AcDbEntity
  8
0
  6
Continuous
 62
     0
100
AcDbLine
 10
303.690562
 20
268.927717
 30
0.0
 11
303.690562
 21
196.902637
 31
0.0
  0
SOLID
  5
3AA
100
AcDbEntity
  8
0
  6
Continuous
 62
     0
100
AcDbTrace
 10
302.690506
 20
219.900928
 30
0.0
 11
303.690562
 21
214.901247
 31
0.0
 12
304.690619
 22
219.900928
 32
0.0
 13
304.690619
 23
219.900928
 33
0.0
  0
SOLID
  5
3AB
100
AcDbEntity
  8
0
  6
Continuous
 62
     0
100
AcDbTrace
 10
304.690619
 20
201.902318
 30
0.0
 11
303.690562
 21
206.901999
 31
0.0
 12
302.690506
 22
201.902318
 32
0.0
 13
302.690506
 23
201.902318
 33
0.0
  0
ENDBLK
  5
3AC
100
AcDbEntity
  8
0
100
AcDbBlockEnd
  0
BLOCK
  5
3AF
100
AcDbEntity
  8
0
100
AcDbBlockBegin
  2
*B18
 70
     0
 10
0.0
 20
0.0
 30
0.0
  3
*B18
  1

  0
LINE
  5
3B0
100
AcDbEntity
  8
0
  6
Continuous
 62
     0
100
AcDbLine
 10
215.025616
 20
132.155228
 30
0.0
 11
215.025616
 21
171.968222
 31
0.0
  0
SOLID
  5
3B1
100
AcDbEntity
  8
0
  6
Continuous
 62
     0
100
AcDbTrace
 10
216.025672
 20
137.154908
 30
0.0
 11
215.025616
 21
142.154589
 31
0.0
 12
214.025559
 22
137.154908
 32
0.0
 13
214.025559
 23
137.154908
 33
0.0
  0
SOLID
  5
3B2
100
AcDbEntity
  8
0
  6
Continuous
 62
     0
100
AcDbTrace
 10
214.025559
 20
156.153574
 30
0.0
 11
215.025616
 21
151.153893
 31
0.0
 12
216.025672
 22
156.153574
 32
0.0
 13
216.025672
 23
156.153574
 33
0.0
  0
ENDBLK
  5
3B3
100
AcDbEntity
  8
0
100
AcDbBlockEnd
  0
BLOCK
  5
3B6
100
AcDbEntity
  8
0
100
AcDbBlockBegin
  2
*B19
 70
     0
 10
0.0
 20
0.0
 30
0.0
  3
*B19
  1

  0
LINE
  5
3B7
100
AcDbEntity
  8
0
  6
Continuous
 62
     0
100
AcDbLine
 10
314.69058
 20
192.903013
 30
0.0
 11
314.69058
 21
265.343556
 31
0.0
  0
SOLID
  5
3B8
100
AcDbEntity
  8
0
  6
Continuous
 62
     0
100
AcDbTrace
 10
315.690637
 20
197.902694
 30
0.0
 11
314.69058
 21
202.902074
 31
0.0
 12
313.690524
 22
197.902694
 32
0.0
 13
313.690524
 23
197.902694
 33
0.0
  0
SOLID
  5
3B9
100
AcDbEntity
  8
0
  6
Continuous
 62
     0
100
AcDbTrace
 10
313.690524
 20
211.901679
 30
0.0
 11
314.69058
 21
206.901999
 31
0.0
 12
315.690637
 22
211.901679
 32
0.0
 13
315.690637
 23
211.901679
 33
0.0
  0
ENDBLK
  5
3BA
100
AcDbEntity
  8
0
100
AcDbBlockEnd
  0
BLOCK
  5
3BD
100
AcDbEntity
  8
0
100
AcDbBlockBegin
  2
*B20
 70
     0
 10
0.0
 20
0.0
 30
0.0
  3
*B20
  1

  0
LINE
  5
3BE
100
AcDbEntity
  8
0
  6
Continuous
 62
     0
100
AcDbLine
 10
325.025496
 20
146.654391
 30
0.0
 11
325.025496
 21
214.901247
 31
0.0
  0
SOLID
  5
3BF
100
AcDbEntity
  8
0
  6
Continuous
 62
     0
100
AcDbTrace
 10
324.02544
 20
151.654072
 30
0.0
 11
325.025496
 21
146.654391
 31
0.0
 12
326.025553
 22
151.654072
 32
0.0
 13
326.025553
 23
151.654072
 33
0.0
  0
SOLID
  5
3C0
100
AcDbEntity
  8
0
  6
Continuous
 62
     0
100
AcDbTrace
 10
326.025553
 20
209.901567
 30
0.0
 11
325.025496
 21
214.901247
 31
0.0
 12
324.02544
 22
209.901567
 32
0.0
 13
324.02544
 23
209.901567
 33
0.0
  0
ENDBLK
  5
3C1
100
AcDbEntity
  8
0
100
AcDbBlockEnd
  0
BLOCK
  5
3C4
100
AcDbEntity
  8
0
100
AcDbBlockBegin
  2
*B21
 70
     0
 10
0.0
 20
0.0
 30
0.0
  3
*B21
  1

  0
LINE
  5
3C5
100
AcDbEntity
  8
0
  6
Continuous
 62
     0
100
AcDbLine
 10
275.508742
 20
133.707132
 30
0.0
 11
243.508744
 21
133.707132
 31
0.0
  0
SOLID
  5
3C6
100
AcDbEntity
  8
0
  6
Continuous
 62
     0
100
AcDbTrace
 10
270.508461
 20
132.707376
 30
0.0
 11
275.508742
 21
133.707132
 31
0.0
 12
270.508461
 22
134.707189
 32
0.0
 13
270.508461
 23
134.707189
 33
0.0
  0
SOLID
  5
3C7
100
AcDbEntity
  8
0
  6
Continuous
 62
     0
100
AcDbTrace
 10
248.508725
 20
134.707189
 30
0.0
 11
243.508744
 21
133.707132
 31
0.0
 12
248.508725
 22
132.707376
 32
0.0
 13
248.508725
 23
132.707376
 33
0.0
  0
ENDBLK
  5
3C8
100
AcDbEntity
  8
0
100
AcDbBlockEnd
  0
BLOCK
  5
3CB
100
AcDbEntity
  8
0
100
AcDbBlockBegin
  2
*B22
 70
     0
 10
0.0
 20
0.0
 30
0.0
  3
*B22
  1

  0
LINE
  5
3CC
100
AcDbEntity
  8
0
  6
Continuous
 62
     8
100
AcDbLine
 10
132.324958
 20
107.407064
 30
0.0
 11
161.109395
 21
107.407064
 31
0.0
  0
ENDBLK
  5
3CD
100
AcDbEntity
  8
0
100
AcDbBlockEnd
  0
BLOCK
  5
3D0
100
AcDbEntity
  8
0
100
AcDbBlockBegin
  2
*B23
 70
     0
 10
0.0
 20
0.0
 30
0.0
  3
*B23
  1

  0
LINE
  5
3D1
100
AcDbEntity
  8
0
  6
Continuous
 62
     8
100
AcDbLine
 10
275.150957
 20
179.09719
 30
0.0
 11
275.150957
 21
183.096814
 31
0.0
  0
LINE
  5
3D2
100
AcDbEntity
  8
0
  6
Continuous
 62
     8
100
AcDbLine
 10
275.150957
 20
189.096551
 30
0.0
 11
275.150957
 21
193.096175
 31
0.0
  0
ENDBLK
  5
3D3
100
AcDbEntity
  8
0
100
AcDbBlockEnd
  0
BLOCK
  5
3D6
100
AcDbEntity
  8
0
100
AcDbBlockBegin
  2
*B24
 70
     0
 10
0.0
 20
0.0
 30
0.0
  3
*B24
  1

  0
LINE
  5
3D7
100
AcDbEntity
  8
0
  6
Continuous
 62
     8
100
AcDbLine
 10
197.025504
 20
182.65161
 30
0.0
 11
227.508745
 21
182.65161
 31
0.0
  0
ENDBLK
  5
3D8
100
AcDbEntity
  8
0
100
AcDbBlockEnd
  0
BLOCK
  5
3DB
100
AcDbEntity
  8
0
100
AcDbBlockBegin
  2
*B25
 70
     0
 10
0.0
 20
0.0
 30
0.0
  3
*B25
  1

  0
LINE
  5
3DC
100
AcDbEntity
  8
0
  6
Continuous
 62
     8
100
AcDbLine
 10
213.025503
 20
142.154589
 30
0.0
 11
241.508632
 21
142.154589
 31
0.0
  0
ENDBLK
  5
3DD
100
AcDbEntity
  8
0
100
AcDbBlockEnd
  0
BLOCK
  5
3E0
100
AcDbEntity
  8
0
100
AcDbBlockBegin
  2
*B26
 70
     0
 10
0.0
 20
0.0
 30
0.0
  3
*B26
  1

  0
LINE
  5
3E1
100
AcDbEntity
  8
0
  6
Continuous
 62
     8
100
AcDbLine
 10
229.508557
 20
26.714931
 30
0.0
 11
229.508557
 21
44.66157
 31
0.0
  0
LINE
  5
3E2
100
AcDbEntity
  8
0
  6
Continuous
 62
     8
100
AcDbLine
 10
229.508557
 20
184.651423
 30
0.0
 11
229.508557
 21
237.699766
 31
0.0
  0
ENDBLK
  5
3E3
100
AcDbEntity
  8
0
100
AcDbBlockEnd
  0
BLOCK
  5
3E6
100
AcDbEntity
  8
0
100
AcDbBlockBegin
  2
*B27
 70
     0
 10
0.0
 20
0.0
 30
0.0
  3
*B27
  1

  0
LINE
  5
3E7
100
AcDbEntity
  8
0
  6
Continuous
 62
     8
100
AcDbLine
 10
179.109507
 20
26.714931
 30
0.0
 11
179.109507
 21
44.66157
 31
0.0
  0
ENDBLK
  5
3E8
100
AcDbEntity
  8
0
100
AcDbBlockEnd
  0
BLOCK
  5
3EB
100
AcDbEntity
  8
0
100
AcDbBlockBegin
  2
*B28
 70
     0
 10
0.0
 20
0.0
 30
0.0
  3
*B28
  1

  0
LINE
  5
3EC
100
AcDbEntity
  8
0
  6
Continuous
 62
     8
100
AcDbLine
 10
259.508743
 20
42.661757
 30
0.0
 11
259.508743
 21
51.206546
 31
0.0
  0
LINE
  5
3ED
100
AcDbEntity
  8
0
  6
Continuous
 62
     8
100
AcDbLine
 10
259.508743
 20
53.206658
 30
0.0
 11
259.508743
 21
54.206414
 31
0.0
  0
LINE
  5
3EE
100
AcDbEntity
  8
0
  6
Continuous
 62
     8
100
AcDbLine
 10
259.508743
 20
56.206226
 30
0.0
 11
259.508743
 21
64.751015
 31
0.0
  0
LINE
  5
3EF
100
AcDbEntity
  8
0
  6
Continuous
 62
     8
100
AcDbLine
 10
259.508743
 20
66.751127
 30
0.0
 11
259.508743
 21
67.750883
 31
0.0
  0
LINE
  5
3F0
100
AcDbEntity
  8
0
  6
Continuous
 62
     8
100
AcDbLine
 10
259.508743
 20
69.750695
 30
0.0
 11
259.508743
 21
78.295484
 31
0.0
  0
LINE
  5
3F1
100
AcDbEntity
  8
0
  6
Continuous
 62
     8
100
AcDbLine
 10
259.508743
 20
80.295596
 30
0.0
 11
259.508743
 21
81.295352
 31
0.0
  0
LINE
  5
3F2
100
AcDbEntity
  8
0
  6
Continuous
 62
     8
100
AcDbLine
 10
259.508743
 20
83.295164
 30
0.0
 11
259.508743
 21
91.839952
 31
0.0
  0
LINE
  5
3F3
100
AcDbEntity
  8
0
  6
Continuous
 62
     8
100
AcDbLine
 10
259.508743
 20
93.840065
 30
0.0
 11
259.508743
 21
94.839821
 31
0.0
  0
LINE
  5
3F4
100
AcDbEntity
  8
0
  6
Continuous
 62
     8
100
AcDbLine
 10
259.508743
 20
96.839633
 30
0.0
 11
259.508743
 21
105.384722
 31
0.0
  0
LINE
  5
3F5
100
AcDbEntity
  8
0
  6
Continuous
 62
     8
100
AcDbLine
 10
259.508743
 20
107.384534
 30
0.0
 11
259.508743
 21
108.38429
 31
0.0
  0
LINE
  5
3F6
100
AcDbEntity
  8
0
  6
Continuous
 62
     8
100
AcDbLine
 10
259.508743
 20
110.384102
 30
0.0
 11
259.508743
 21
118.929191
 31
0.0
  0
LINE
  5
3F7
100
AcDbEntity
  8
0
  6
Continuous
 62
     8
100
AcDbLine
 10
259.508743
 20
120.929003
 30
0.0
 11
259.508743
 21
121.928759
 31
0.0
  0
LINE
  5
3F8
100
AcDbEntity
  8
0
  6
Continuous
 62
     8
100
AcDbLine
 10
259.508743
 20
123.928571
 30
0.0
 11
259.508743
 21
132.47366
 31
0.0
  0
LINE
  5
3F9
100
AcDbEntity
  8
0
  6
Continuous
 62
     8
100
AcDbLine
 10
259.508743
 20
134.473472
 30
0.0
 11
259.508743
 21
135.473228
 31
0.0
  0
LINE
  5
3FA
100
AcDbEntity
  8
0
  6
Continuous
 62
     8
100
AcDbLine
 10
259.508743
 20
137.47304
 30
0.0
 11
259.508743
 21
146.018128
 31
0.0
  0
LINE
  5
3FB
100
AcDbEntity
  8
0
  6
Continuous
 62
     8
100
AcDbLine
 10
259.508743
 20
148.017941
 30
0.0
 11
259.508743
 21
149.017696
 31
0.0
  0
LINE
  5
3FC
100
AcDbEntity
  8
0
  6
Continuous
 62
     8
100
AcDbLine
 10
259.508743
 20
151.017509
 30
0.0
 11
259.508743
 21
159.562597
 31
0.0
  0
LINE
  5
3FD
100
AcDbEntity
  8
0
  6
Continuous
 62
     8
100
AcDbLine
 10
259.508743
 20
161.562409
 30
0.0
 11
259.508743
 21
162.562165
 31
0.0
  0
LINE
  5
3FE
100
AcDbEntity
  8
0
  6
Continuous
 62
     8
100
AcDbLine
 10
259.508743
 20
164.561977
 30
0.0
 11
259.508743
 21
173.107066
 31
0.0
  0
LINE
  5
3FF
100
AcDbEntity
  8
0
  6
Continuous
 62
     8
100
AcDbLine
 10
259.508743
 20
175.106878
 30
0.0
 11
259.508743
 21
176.106634
 31
0.0
  0
LINE
  5
400
100
AcDbEntity
  8
0
  6
Continuous
 62
     8
100
AcDbLine
 10
259.508743
 20
178.106446
 30
0.0
 11
259.508743
 21
186.651535
 31
0.0
  0
ENDBLK
  5
401
100
AcDbEntity
  8
0
100
AcDbBlockEnd
  0
BLOCK
  5
404
100
AcDbEntity
  8
0
100
AcDbBlockBegin
  2
*B29
 70
     0
 10
0.0
 20
0.0
 30
0.0
  3
*B29
  1

  0
LINE
  5
405
100
AcDbEntity
  8
0
  6
Continuous
 62
     8
100
AcDbLine
 10
158.609405
 20
216.477184
 30
0.0
 11
158.609405
 21
225.100679
 31
0.0
  0
ENDBLK
  5
406
100
AcDbEntity
  8
0
100
AcDbBlockEnd
  0
BLOCK
  5
409
100
AcDbEntity
  8
0
100
AcDbBlockBegin
  2
*B30
 70
     0
 10
0.0
 20
0.0
 30
0.0
  3
*B30
  1

  0
LINE
  5
40A
100
AcDbEntity
  8
0
  6
Continuous
 62
     8
100
AcDbLine
 10
268.151164
 20
186.096683
 30
0.0
 11
272.151089
 21
186.096683
 31
0.0
  0
LINE
  5
40B
100
AcDbEntity
  8
0
  6
Continuous
 62
     8
100
AcDbLine
 10
278.151126
 20
186.096683
 30
0.0
 11
282.151051
 21
186.096683
 31
0.0
  0
ENDBLK
  5
40C
100
AcDbEntity
  8
0
100
AcDbBlockEnd
  0
BLOCK
  5
40F
100
AcDbEntity
  8
0
100
AcDbBlockBegin
  2
*B31
 70
     0
 10
0.0
 20
0.0
 30
0.0
  3
*B31
  1

  0
LINE
  5
410
100
AcDbEntity
  8
0
  6
Continuous
 62
     8
100
AcDbLine
 10
155.009623
 20
204.881158
 30
0.0
 11
171.209393
 21
204.881158
 31
0.0
  0
ENDBLK
  5
411
100
AcDbEntity
  8
0
100
AcDbBlockEnd
  0
BLOCK
  5
414
100
AcDbEntity
  8
0
100
AcDbBlockBegin
  2
*B32
 70
     0
 10
0.0
 20
0.0
 30
0.0
  3
*B32
  1

  0
LINE
  5
415
100
AcDbEntity
  8
0
  6
Continuous
 62
     8
100
AcDbLine
 10
213.025503
 20
151.153893
 30
0.0
 11
241.508632
 21
151.153893
 31
0.0
  0
ENDBLK
  5
416
100
AcDbEntity
  8
0
100
AcDbBlockEnd
  0
BLOCK
  5
419
100
AcDbEntity
  8
0
100
AcDbBlockBegin
  2
*B33
 70
     0
 10
0.0
 20
0.0
 30
0.0
  3
*B33
  1

  0
LINE
  5
41A
100
AcDbEntity
  8
0
  6
Continuous
 62
     8
100
AcDbLine
 10
289.508629
 20
26.714931
 30
0.0
 11
289.508629
 21
44.66157
 31
0.0
  0
ENDBLK
  5
41B
100
AcDbEntity
  8
0
100
AcDbBlockEnd
  0
BLOCK
  5
41E
100
AcDbEntity
  8
0
100
AcDbBlockBegin
  2
*B34
 70
     0
 10
0.0
 20
0.0
 30
0.0
  3
*B34
  1

  0
LINE
  5
41F
100
AcDbEntity
  8
0
  6
Continuous
 62
     8
100
AcDbLine
 10
258.306813
 20
204.881158
 30
0.0
 11
269.306831
 21
204.881158
 31
0.0
  0
LINE
  5
420
100
AcDbEntity
  8
0
  6
Continuous
 62
     8
100
AcDbLine
 10
275.306568
 20
204.881158
 30
0.0
 11
286.306586
 21
204.881158
 31
0.0
  0
ENDBLK
  5
421
100
AcDbEntity
  8
0
100
AcDbBlockEnd
  0
BLOCK
  5
424
100
AcDbEntity
  8
0
100
AcDbBlockBegin
  2
*B35
 70
     0
 10
0.0
 20
0.0
 30
0.0
  3
*B35
  1

  0
LINE
  5
425
100
AcDbEntity
  8
0
  6
Continuous
 62
     8
100
AcDbLine
 10
303.690562
 20
98.657699
 30
0.0
 11
307.690487
 21
98.657699
 31
0.0
  0
LINE
  5
426
100
AcDbEntity
  8
0
  6
Continuous
 62
     8
100
AcDbLine
 10
267.508593
 20
98.657699
 30
0.0
 11
276.236029
 21
98.657699
 31
0.0
  0
LINE
  5
427
100
AcDbEntity
  8
0
  6
Continuous
 62
     8
100
AcDbLine
 10
278.235841
 20
98.657699
 30
0.0
 11
279.235897
 21
98.657699
 31
0.0
  0
LINE
  5
428
100
AcDbEntity
  8
0
  6
Continuous
 62
     8
100
AcDbLine
 10
281.23601
 20
98.657699
 30
0.0
 11
289.963145
 21
98.657699
 31
0.0
  0
LINE
  5
429
100
AcDbEntity
  8
0
  6
Continuous
 62
     8
100
AcDbLine
 10
291.963258
 20
98.657699
 30
0.0
 11
292.963314
 21
98.657699
 31
0.0
  0
LINE
  5
42A
100
AcDbEntity
  8
0
  6
Continuous
 62
     8
100
AcDbLine
 10
294.963126
 20
98.657699
 30
0.0
 11
303.690562
 21
98.657699
 31
0.0
  0
ENDBLK
  5
42B
100
AcDbEntity
  8
0
100
AcDbBlockEnd
  0
BLOCK
  5
42E
100
AcDbEntity
  8
0
100
AcDbBlockBegin
  2
*B36
 70
     0
 10
0.0
 20
0.0
 30
0.0
  3
*B36
  1

  0
LINE
  5
42F
100
AcDbEntity
  8
0
  6
Continuous
 62
     8
100
AcDbLine
 10
236.508651
 20
167.352762
 30
0.0
 11
236.508651
 21
171.352687
 31
0.0
  0
LINE
  5
430
100
AcDbEntity
  8
0
  6
Continuous
 62
     8
100
AcDbLine
 10
236.508651
 20
177.352123
 30
0.0
 11
236.508651
 21
181.351748
 31
0.0
  0
ENDBLK
  5
431
100
AcDbEntity
  8
0
100
AcDbBlockEnd
  0
BLOCK
  5
434
100
AcDbEntity
  8
0
100
AcDbBlockBegin
  2
*B37
 70
     0
 10
0.0
 20
0.0
 30
0.0
  3
*B37
  1

  0
LINE
  5
435
100
AcDbEntity
  8
0
  6
Continuous
 62
     8
100
AcDbLine
 10
275.508742
 20
131.70732
 30
0.0
 11
275.508742
 21
143.654523
 31
0.0
  0
LINE
  5
436
100
AcDbEntity
  8
0
  6
Continuous
 62
     8
100
AcDbLine
 10
275.508742
 20
149.653959
 30
0.0
 11
275.508742
 21
158.153386
 31
0.0
  0
ENDBLK
  5
437
100
AcDbEntity
  8
0
100
AcDbBlockEnd
  0
BLOCK
  5
43A
100
AcDbEntity
  8
0
100
AcDbBlockBegin
  2
*B38
 70
     0
 10
0.0
 20
0.0
 30
0.0
  3
*B38
  1

  0
LINE
  5
43B
100
AcDbEntity
  8
0
  6
Continuous
 62
     8
100
AcDbLine
 10
163.109508
 20
42.661757
 30
0.0
 11
163.109508
 21
50.661306
 31
0.0
  0
LINE
  5
43C
100
AcDbEntity
  8
0
  6
Continuous
 62
     8
100
AcDbLine
 10
163.109508
 20
52.661119
 30
0.0
 11
163.109508
 21
53.661175
 31
0.0
  0
LINE
  5
43D
100
AcDbEntity
  8
0
  6
Continuous
 62
     8
100
AcDbLine
 10
163.109508
 20
55.660987
 30
0.0
 11
163.109508
 21
63.660235
 31
0.0
  0
LINE
  5
43E
100
AcDbEntity
  8
0
  6
Continuous
 62
     8
100
AcDbLine
 10
163.109508
 20
69.659972
 30
0.0
 11
163.109508
 21
80.159211
 31
0.0
  0
LINE
  5
43F
100
AcDbEntity
  8
0
  6
Continuous
 62
     8
100
AcDbLine
 10
163.109508
 20
82.159023
 30
0.0
 11
163.109508
 21
83.158779
 31
0.0
  0
LINE
  5
440
100
AcDbEntity
  8
0
  6
Continuous
 62
     8
100
AcDbLine
 10
163.109508
 20
85.158892
 30
0.0
 11
163.109508
 21
95.658131
 31
0.0
  0
LINE
  5
441
100
AcDbEntity
  8
0
  6
Continuous
 62
     8
100
AcDbLine
 10
163.109508
 20
101.657567
 30
0.0
 11
163.109508
 21
112.156806
 31
0.0
  0
LINE
  5
442
100
AcDbEntity
  8
0
  6
Continuous
 62
     8
100
AcDbLine
 10
163.109508
 20
114.156618
 30
0.0
 11
163.109508
 21
115.156674
 31
0.0
  0
LINE
  5
443
100
AcDbEntity
  8
0
  6
Continuous
 62
     8
100
AcDbLine
 10
163.109508
 20
117.156487
 30
0.0
 11
163.109508
 21
127.655725
 31
0.0
  0
LINE
  5
444
100
AcDbEntity
  8
0
  6
Continuous
 62
     8
100
AcDbLine
 10
163.109508
 20
133.655162
 30
0.0
 11
163.109508
 21
143.154645
 31
0.0
  0
LINE
  5
445
100
AcDbEntity
  8
0
  6
Continuous
 62
     8
100
AcDbLine
 10
163.109508
 20
145.154457
 30
0.0
 11
163.109508
 21
146.154213
 31
0.0
  0
LINE
  5
446
100
AcDbEntity
  8
0
  6
Continuous
 62
     8
100
AcDbLine
 10
163.109508
 20
148.154325
 30
0.0
 11
163.109508
 21
157.653508
 31
0.0
  0
LINE
  5
447
100
AcDbEntity
  8
0
  6
Continuous
 62
     8
100
AcDbLine
 10
163.109508
 20
159.65332
 30
0.0
 11
163.109508
 21
160.653377
 31
0.0
  0
LINE
  5
448
100
AcDbEntity
  8
0
  6
Continuous
 62
     8
100
AcDbLine
 10
163.109508
 20
162.653189
 30
0.0
 11
163.109508
 21
172.152371
 31
0.0
  0
LINE
  5
449
100
AcDbEntity
  8
0
  6
Continuous
 62
     8
100
AcDbLine
 10
163.109508
 20
174.152184
 30
0.0
 11
163.109508
 21
175.15224
 31
0.0
  0
LINE
  5
44A
100
AcDbEntity
  8
0
  6
Continuous
 62
     8
100
AcDbLine
 10
163.109508
 20
177.152052
 30
0.0
 11
163.109508
 21
186.651535
 31
0.0
  0
ENDBLK
  5
44B
100
AcDbEntity
  8
0
100
AcDbBlockEnd
  0
BLOCK
  5
44E
100
AcDbEntity
  8
0
100
AcDbBlockBegin
  2
*B39
 70
     0
 10
0.0
 20
0.0
 30
0.0
  3
*B39
  1

  0
LINE
  5
44F
100
AcDbEntity
  8
0
  6
Continuous
 62
     8
100
AcDbLine
 10
232.008548
 20
146.654391
 30
0.0
 11
240.508575
 21
146.654391
 31
0.0
  0
LINE
  5
450
100
AcDbEntity
  8
0
  6
Continuous
 62
     8
100
AcDbLine
 10
246.508613
 20
146.654391
 30
0.0
 11
255.00864
 21
146.654391
 31
0.0
  0
ENDBLK
  5
451
100
AcDbEntity
  8
0
100
AcDbBlockEnd
  0
BLOCK
  5
454
100
AcDbEntity
  8
0
100
AcDbBlockBegin
  2
*B40
 70
     0
 10
0.0
 20
0.0
 30
0.0
  3
*B40
  1

  0
LINE
  5
455
100
AcDbEntity
  8
0
  6
Continuous
 62
     8
100
AcDbLine
 10
282.306662
 20
206.88097
 30
0.0
 11
282.306662
 21
223.700781
 31
0.0
  0
ENDBLK
  5
456
100
AcDbEntity
  8
0
100
AcDbBlockEnd
  0
BLOCK
  5
459
100
AcDbEntity
  8
0
100
AcDbBlockBegin
  2
*B41
 70
     0
 10
0.0
 20
0.0
 30
0.0
  3
*B41
  1

  0
LINE
  5
45A
100
AcDbEntity
  8
0
  6
Continuous
 62
     8
100
AcDbLine
 10
291.558609
 20
206.901999
 30
0.0
 11
316.690693
 21
206.901999
 31
0.0
  0
ENDBLK
  5
45B
100
AcDbEntity
  8
0
100
AcDbBlockEnd
  0
BLOCK
  5
45E
100
AcDbEntity
  8
0
100
AcDbBlockBegin
  2
*B42
 70
     0
 10
0.0
 20
0.0
 30
0.0
  3
*B42
  1

  0
LINE
  5
45F
100
AcDbEntity
  8
0
  6
Continuous
 62
     8
100
AcDbLine
 10
150.359616
 20
130.655594
 30
0.0
 11
160.109639
 21
130.655594
 31
0.0
  0
LINE
  5
460
100
AcDbEntity
  8
0
  6
Continuous
 62
     8
100
AcDbLine
 10
166.109376
 20
130.655594
 30
0.0
 11
175.859399
 21
130.655594
 31
0.0
  0
ENDBLK
  5
461
100
AcDbEntity
  8
0
100
AcDbBlockEnd
  0
BLOCK
  5
464
100
AcDbEntity
  8
0
100
AcDbBlockBegin
  2
*B43
 70
     0
 10
0.0
 20
0.0
 30
0.0
  3
*B43
  1

  0
LINE
  5
465
100
AcDbEntity
  8
0
  6
Continuous
 62
     8
100
AcDbLine
 10
167.609611
 20
216.477184
 30
0.0
 11
167.609611
 21
225.100679
 31
0.0
  0
ENDBLK
  5
466
100
AcDbEntity
  8
0
100
AcDbBlockEnd
  0
BLOCK
  5
469
100
AcDbEntity
  8
0
100
AcDbBlockBegin
  2
*B44
 70
     0
 10
0.0
 20
0.0
 30
0.0
  3
*B44
  1

  0
LINE
  5
46A
100
AcDbEntity
  8
0
  6
Continuous
 62
     8
100
AcDbLine
 10
274.508686
 20
214.901247
 30
0.0
 11
327.025609
 21
214.901247
 31
0.0
  0
ENDBLK
  5
46B
100
AcDbEntity
  8
0
100
AcDbBlockEnd
  0
BLOCK
  5
46E
100
AcDbEntity
  8
0
100
AcDbBlockBegin
  2
*B45
 70
     0
 10
0.0
 20
0.0
 30
0.0
  3
*B45
  1

  0
LINE
  5
46F
100
AcDbEntity
  8
0
  6
Continuous
 62
     8
100
AcDbLine
 10
303.690562
 20
66.660104
 30
0.0
 11
307.690487
 21
66.660104
 31
0.0
  0
LINE
  5
470
100
AcDbEntity
  8
0
  6
Continuous
 62
     8
100
AcDbLine
 10
267.508593
 20
66.660104
 30
0.0
 11
276.236029
 21
66.660104
 31
0.0
  0
LINE
  5
471
100
AcDbEntity
  8
0
  6
Continuous
 62
     8
100
AcDbLine
 10
278.235841
 20
66.660104
 30
0.0
 11
279.235897
 21
66.660104
 31
0.0
  0
LINE
  5
472
100
AcDbEntity
  8
0
  6
Continuous
 62
     8
100
AcDbLine
 10
281.23601
 20
66.660104
 30
0.0
 11
289.963145
 21
66.660104
 31
0.0
  0
LINE
  5
473
100
AcDbEntity
  8
0
  6
Continuous
 62
     8
100
AcDbLine
 10
291.963258
 20
66.660104
 30
0.0
 11
292.963314
 21
66.660104
 31
0.0
  0
LINE
  5
474
100
AcDbEntity
  8
0
  6
Continuous
 62
     8
100
AcDbLine
 10
294.963126
 20
66.660104
 30
0.0
 11
303.690562
 21
66.660104
 31
0.0
  0
ENDBLK
  5
475
100
AcDbEntity
  8
0
100
AcDbBlockEnd
  0
BLOCK
  5
478
100
AcDbEntity
  8
0
100
AcDbBlockBegin
  2
*B46
 70
     0
 10
0.0
 20
0.0
 30
0.0
  3
*B46
  1

  0
LINE
  5
479
100
AcDbEntity
  8
0
  6
Continuous
 62
     8
100
AcDbLine
 10
132.324958
 20
89.908333
 30
0.0
 11
161.109395
 21
89.908333
 31
0.0
  0
ENDBLK
  5
47A
100
AcDbEntity
  8
0
100
AcDbBlockEnd
  0
BLOCK
  5
47D
100
AcDbEntity
  8
0
100
AcDbBlockBegin
  2
*B47
 70
     0
 10
0.0
 20
0.0
 30
0.0
  3
*B47
  1

  0
LINE
  5
47E
100
AcDbEntity
  8
0
  6
Continuous
 62
     8
100
AcDbLine
 10
229.508557
 20
174.352255
 30
0.0
 11
233.508482
 21
174.352255
 31
0.0
  0
LINE
  5
47F
100
AcDbEntity
  8
0
  6
Continuous
 62
     8
100
AcDbLine
 10
239.508519
 20
174.352255
 30
0.0
 11
243.508744
 21
174.352255
 31
0.0
  0
ENDBLK
  5
480
100
AcDbEntity
  8
0
100
AcDbBlockEnd
  0
BLOCK
  5
483
100
AcDbEntity
  8
0
100
AcDbBlockBegin
  2
*B48
 70
     0
 10
0.0
 20
0.0
 30
0.0
  3
*B48
  1

  0
LINE
  5
484
100
AcDbEntity
  8
0
  6
Continuous
 62
     8
100
AcDbLine
 10
150.359616
 20
98.657699
 30
0.0
 11
160.109639
 21
98.657699
 31
0.0
  0
LINE
  5
485
100
AcDbEntity
  8
0
  6
Continuous
 62
     8
100
AcDbLine
 10
166.109376
 20
98.657699
 30
0.0
 11
175.859399
 21
98.657699
 31
0.0
  0
ENDBLK
  5
486
100
AcDbEntity
  8
0
100
AcDbBlockEnd
  0
BLOCK
  5
489
100
AcDbEntity
  8
0
100
AcDbBlockBegin
  2
*B49
 70
     0
 10
0.0
 20
0.0
 30
0.0
  3
*B49
  1

  0
LINE
  5
48A
100
AcDbEntity
  8
0
  6
Continuous
 62
     8
100
AcDbLine
 10
291.558609
 20
202.902074
 30
0.0
 11
316.690693
 21
202.902074
 31
0.0
  0
ENDBLK
  5
48B
100
AcDbEntity
  8
0
100
AcDbBlockEnd
  0
BLOCK
  5
48E
100
AcDbEntity
  8
0
100
AcDbBlockBegin
  2
*B50
 70
     0
 10
0.0
 20
0.0
 30
0.0
  3
*B50
  1

  0
LINE
  5
48F
100
AcDbEntity
  8
0
  6
Continuous
 62
     8
100
AcDbLine
 10
213.025503
 20
82.658901
 30
0.0
 11
217.025728
 21
82.658901
 31
0.0
  0
LINE
  5
490
100
AcDbEntity
  8
0
  6
Continuous
 62
     8
100
AcDbLine
 10
217.025728
 20
82.658901
 30
0.0
 11
225.186596
 21
82.658901
 31
0.0
  0
LINE
  5
491
100
AcDbEntity
  8
0
  6
Continuous
 62
     8
100
AcDbLine
 10
227.186708
 20
82.658901
 30
0.0
 11
228.186765
 21
82.658901
 31
0.0
  0
LINE
  5
492
100
AcDbEntity
  8
0
  6
Continuous
 62
     8
100
AcDbLine
 10
230.186577
 20
82.658901
 30
0.0
 11
238.347745
 21
82.658901
 31
0.0
  0
LINE
  5
493
100
AcDbEntity
  8
0
  6
Continuous
 62
     8
100
AcDbLine
 10
240.347557
 20
82.658901
 30
0.0
 11
241.347613
 21
82.658901
 31
0.0
  0
LINE
  5
494
100
AcDbEntity
  8
0
  6
Continuous
 62
     8
100
AcDbLine
 10
243.347726
 20
82.658901
 30
0.0
 11
251.508594
 21
82.658901
 31
0.0
  0
ENDBLK
  5
495
100
AcDbEntity
  8
0
100
AcDbBlockEnd
  0
BLOCK
  5
498
100
AcDbEntity
  8
0
100
AcDbBlockBegin
  2
*B51
 70
     0
 10
0.0
 20
0.0
 30
0.0
  3
*B51
  1

  0
LINE
  5
499
100
AcDbEntity
  8
0
  6
Continuous
 62
     8
100
AcDbLine
 10
303.690562
 20
130.655594
 30
0.0
 11
307.690487
 21
130.655594
 31
0.0
  0
LINE
  5
49A
100
AcDbEntity
  8
0
  6
Continuous
 62
     8
100
AcDbLine
 10
267.508593
 20
130.655594
 30
0.0
 11
276.236029
 21
130.655594
 31
0.0
  0
LINE
  5
49B
100
AcDbEntity
  8
0
  6
Continuous
 62
     8
100
AcDbLine
 10
278.235841
 20
130.655594
 30
0.0
 11
279.235897
 21
130.655594
 31
0.0
  0
LINE
  5
49C
100
AcDbEntity
  8
0
  6
Continuous
 62
     8
100
AcDbLine
 10
281.23601
 20
130.655594
 30
0.0
 11
289.963145
 21
130.655594
 31
0.0
  0
LINE
  5
49D
100
AcDbEntity
  8
0
  6
Continuous
 62
     8
100
AcDbLine
 10
291.963258
 20
130.655594
 30
0.0
 11
292.963314
 21
130.655594
 31
0.0
  0
LINE
  5
49E
100
AcDbEntity
  8
0
  6
Continuous
 62
     8
100
AcDbLine
 10
294.963126
 20
130.655594
 30
0.0
 11
303.690562
 21
130.655594
 31
0.0
  0
ENDBLK
  5
49F
100
AcDbEntity
  8
0
100
AcDbBlockEnd
  0
BLOCK
  5
4A2
100
AcDbEntity
  8
0
100
AcDbBlockBegin
  2
*B52
 70
     0
 10
0.0
 20
0.0
 30
0.0
  3
*B52
  1

  0
LINE
  5
4A3
100
AcDbEntity
  8
0
  6
Continuous
 62
     8
100
AcDbLine
 10
149.109621
 20
184.307156
 30
0.0
 11
159.509425
 21
184.307156
 31
0.0
  0
ENDBLK
  5
4A4
100
AcDbEntity
  8
0
100
AcDbBlockEnd
  0
BLOCK
  5
4A7
100
AcDbEntity
  8
0
100
AcDbBlockBegin
  2
*B53
 70
     0
 10
0.0
 20
0.0
 30
0.0
  3
*B53
  1

  0
LINE
  5
4A8
100
AcDbEntity
  8
0
  6
Continuous
 62
     8
100
AcDbLine
 10
197.025504
 20
46.661682
 30
0.0
 11
227.508745
 21
46.661682
 31
0.0
  0
LINE
  5
4A9
100
AcDbEntity
  8
0
  6
Continuous
 62
     8
100
AcDbLine
 10
291.508441
 20
46.661682
 30
0.0
 11
327.025609
 21
46.661682
 31
0.0
  0
ENDBLK
  5
4AA
100
AcDbEntity
  8
0
100
AcDbBlockEnd
  0
BLOCK
  5
4AD
100
AcDbEntity
  8
0
100
AcDbBlockBegin
  2
*B54
 70
     0
 10
0.0
 20
0.0
 30
0.0
  3
*B54
  1

  0
LINE
  5
4AE
100
AcDbEntity
  8
0
  6
Continuous
 62
     8
100
AcDbLine
 10
150.359616
 20
66.660104
 30
0.0
 11
160.109639
 21
66.660104
 31
0.0
  0
LINE
  5
4AF
100
AcDbEntity
  8
0
  6
Continuous
 62
     8
100
AcDbLine
 10
166.109376
 20
66.660104
 30
0.0
 11
175.859399
 21
66.660104
 31
0.0
  0
ENDBLK
  5
4B0
100
AcDbEntity
  8
0
100
AcDbBlockEnd
  0
BLOCK
  5
4B3
100
AcDbEntity
  8
0
100
AcDbBlockBegin
  2
*B55
 70
     0
 10
0.0
 20
0.0
 30
0.0
  3
*B55
  1

  0
LINE
  5
4B4
100
AcDbEntity
  8
0
  6
Continuous
 62
     8
100
AcDbLine
 10
213.025503
 20
114.656496
 30
0.0
 11
217.025728
 21
114.656496
 31
0.0
  0
LINE
  5
4B5
100
AcDbEntity
  8
0
  6
Continuous
 62
     8
100
AcDbLine
 10
217.025728
 20
114.656496
 30
0.0
 11
225.186596
 21
114.656496
 31
0.0
  0
LINE
  5
4B6
100
AcDbEntity
  8
0
  6
Continuous
 62
     8
100
AcDbLine
 10
227.186708
 20
114.656496
 30
0.0
 11
228.186765
 21
114.656496
 31
0.0
  0
LINE
  5
4B7
100
AcDbEntity
  8
0
  6
Continuous
 62
     8
100
AcDbLine
 10
230.186577
 20
114.656496
 30
0.0
 11
238.347745
 21
114.656496
 31
0.0
  0
LINE
  5
4B8
100
AcDbEntity
  8
0
  6
Continuous
 62
     8
100
AcDbLine
 10
240.347557
 20
114.656496
 30
0.0
 11
241.347613
 21
114.656496
 31
0.0
  0
LINE
  5
4B9
100
AcDbEntity
  8
0
  6
Continuous
 62
     8
100
AcDbLine
 10
243.347726
 20
114.656496
 30
0.0
 11
251.508594
 21
114.656496
 31
0.0
  0
ENDBLK
  5
4BA
100
AcDbEntity
  8
0
100
AcDbBlockEnd
  0
BLOCK
  5
4BD
100
AcDbEntity
  8
0
100
AcDbBlockBegin
  2
*B56
 70
     0
 10
0.0
 20
0.0
 30
0.0
  3
*B56
  1

  0
LINE
  5
4BE
100
AcDbEntity
  8
0
  6
Continuous
 62
     8
100
AcDbLine
 10
262.306738
 20
206.88097
 30
0.0
 11
262.306738
 21
223.700781
 31
0.0
  0
ENDBLK
  5
4BF
100
AcDbEntity
  8
0
100
AcDbBlockEnd
  0
BLOCK
  5
4C2
100
AcDbEntity
  8
0
100
AcDbBlockBegin
  2
*B57
 70
     0
 10
0.0
 20
0.0
 30
0.0
  3
*B57
  1

  0
LINE
  5
4C3
100
AcDbEntity
  8
0
  6
Continuous
 62
     8
100
AcDbLine
 10
147.109509
 20
26.714931
 30
0.0
 11
147.109509
 21
44.66157
 31
0.0
  0
ENDBLK
  5
4C4
100
AcDbEntity
  8
0
100
AcDbBlockEnd
  0
BLOCK
  5
4C7
100
AcDbEntity
  8
0
100
AcDbBlockBegin
  2
*B58
 70
     0
 10
0.0
 20
0.0
 30
0.0
  3
*B58
  1

  0
LINE
  5
4C8
100
AcDbEntity
  8
0
  6
Continuous
 62
     8
100
AcDbLine
 10
166.70959
 20
184.307156
 30
0.0
 11
177.109394
 21
184.307156
 31
0.0
  0
ENDBLK
  5
4C9
100
AcDbEntity
  8
0
100
AcDbBlockEnd
  0
BLOCK
  5
4CC
100
AcDbEntity
  8
0
100
AcDbBlockBegin
  2
*B59
 70
     0
 10
0.0
 20
0.0
 30
0.0
  3
*B59
  1

  0
LINE
  5
4CD
100
AcDbEntity
  8
0
  6
Continuous
 62
     8
100
AcDbLine
 10
143.109584
 20
146.654391
 30
0.0
 11
153.109546
 21
146.654391
 31
0.0
  0
LINE
  5
4CE
100
AcDbEntity
  8
0
  6
Continuous
 62
     8
100
AcDbLine
 10
155.109358
 20
146.654391
 30
0.0
 11
156.109414
 21
146.654391
 31
0.0
  0
LINE
  5
4CF
100
AcDbEntity
  8
0
  6
Continuous
 62
     8
100
AcDbLine
 10
158.109527
 20
146.654391
 30
0.0
 11
168.109488
 21
146.654391
 31
0.0
  0
LINE
  5
4D0
100
AcDbEntity
  8
0
  6
Continuous
 62
     8
100
AcDbLine
 10
170.109601
 20
146.654391
 30
0.0
 11
171.109657
 21
146.654391
 31
0.0
  0
LINE
  5
4D1
100
AcDbEntity
  8
0
  6
Continuous
 62
     8
100
AcDbLine
 10
173.109469
 20
146.654391
 30
0.0
 11
183.109431
 21
146.654391
 31
0.0
  0
ENDBLK
  5
4D2
100
AcDbEntity
  8
0
100
AcDbBlockEnd
  0
BLOCK
  5
4D5
100
AcDbEntity
  8
0
100
AcDbBlockBegin
  2
*B60
 70
     0
 10
0.0
 20
0.0
 30
0.0
  3
*B60
  1

  0
LINE
  5
4D6
100
AcDbEntity
  8
0
  6
Continuous
 62
     8
100
AcDbLine
 10
323.025684
 20
146.654391
 30
0.0
 11
327.025609
 21
146.654391
 31
0.0
  0
LINE
  5
4D7
100
AcDbEntity
  8
0
  6
Continuous
 62
     8
100
AcDbLine
 10
264.008546
 20
146.654391
 30
0.0
 11
272.508574
 21
146.654391
 31
0.0
  0
LINE
  5
4D8
100
AcDbEntity
  8
0
  6
Continuous
 62
     8
100
AcDbLine
 10
278.508611
 20
146.654391
 30
0.0
 11
290.014215
 21
146.654391
 31
0.0
  0
LINE
  5
4D9
100
AcDbEntity
  8
0
  6
Continuous
 62
     8
100
AcDbLine
 10
292.014327
 20
146.654391
 30
0.0
 11
293.014383
 21
146.654391
 31
0.0
  0
LINE
  5
4DA
100
AcDbEntity
  8
0
  6
Continuous
 62
     8
100
AcDbLine
 10
295.014195
 20
146.654391
 30
0.0
 11
306.519799
 21
146.654391
 31
0.0
  0
LINE
  5
4DB
100
AcDbEntity
  8
0
  6
Continuous
 62
     8
100
AcDbLine
 10
308.519912
 20
146.654391
 30
0.0
 11
309.519968
 21
146.654391
 31
0.0
  0
LINE
  5
4DC
100
AcDbEntity
  8
0
  6
Continuous
 62
     8
100
AcDbLine
 10
311.51978
 20
146.654391
 30
0.0
 11
323.025684
 21
146.654391
 31
0.0
  0
ENDBLK
  5
4DD
100
AcDbEntity
  8
0
100
AcDbBlockEnd
  0
BLOCK
  5
4E0
100
AcDbEntity
  8
0
100
AcDbBlockBegin
  2
*B61
 70
     0
 10
0.0
 20
0.0
 30
0.0
  3
*B61
  1

  0
LINE
  5
4E1
100
AcDbEntity
  8
0
  6
Continuous
 62
     8
100
AcDbLine
 10
243.508744
 20
131.70732
 30
0.0
 11
243.508744
 21
143.654523
 31
0.0
  0
LINE
  5
4E2
100
AcDbEntity
  8
0
  6
Continuous
 62
     8
100
AcDbLine
 10
243.508744
 20
149.653959
 30
0.0
 11
243.508744
 21
158.153386
 31
0.0
  0
ENDBLK
  5
4E3
100
AcDbEntity
  8
0
100
AcDbBlockEnd
  0
BLOCK
  5
4E6
100
AcDbEntity
  8
0
100
AcDbBlockBegin
  2
*B62
 70
     0
 10
0.0
 20
0.0
 30
0.0
  3
*B62
  1

  0
LINE
  5
4E7
100
AcDbEntity
  8
0
  6
Continuous
 62
     8
100
AcDbLine
 10
272.3067
 20
233.699841
 30
0.0
 11
272.3067
 21
237.699766
 31
0.0
  0
LINE
  5
4E8
100
AcDbEntity
  8
0
  6
Continuous
 62
     8
100
AcDbLine
 10
272.3067
 20
190.882173
 30
0.0
 11
272.3067
 21
201.881289
 31
0.0
  0
LINE
  5
4E9
100
AcDbEntity
  8
0
  6
Continuous
 62
     8
100
AcDbLine
 10
272.3067
 20
207.881026
 30
0.0
 11
272.3067
 21
218.290744
 31
0.0
  0
LINE
  5
4EA
100
AcDbEntity
  8
0
  6
Continuous
 62
     8
100
AcDbLine
 10
272.3067
 20
220.290556
 30
0.0
 11
272.3067
 21
221.290312
 31
0.0
  0
LINE
  5
4EB
100
AcDbEntity
  8
0
  6
Continuous
 62
     8
100
AcDbLine
 10
272.3067
 20
223.290424
 30
0.0
 11
272.3067
 21
233.699841
 31
0.0
  0
ENDBLK
  5
4EC
100
AcDbEntity
  8
0
100
AcDbBlockEnd
  0
BLOCK
  5
4EF
100
AcDbEntity
  8
0
100
AcDbBlockBegin
  2
*B63
 70
     0
 10
0.0
 20
0.0
 30
0.0
  3
*B63
  1

  0
LINE
  5
4F0
100
AcDbEntity
  8
0
  6
Continuous
 62
     6
100
AcDbLine
 10
275.508742
 20
145.654335
 30
0.0
 11
275.508742
 21
147.654147
 31
0.0
  0
LINE
  5
4F1
100
AcDbEntity
  8
0
  6
Continuous
 62
     6
100
AcDbLine
 10
274.508686
 20
146.654391
 30
0.0
 11
276.508498
 21
146.654391
 31
0.0
  0
ENDBLK
  5
4F2
100
AcDbEntity
  8
0
100
AcDbBlockEnd
  0
BLOCK
  5
4F5
100
AcDbEntity
  8
0
100
AcDbBlockBegin
  2
*B64
 70
     0
 10
0.0
 20
0.0
 30
0.0
  3
*B64
  1

  0
LINE
  5
4F6
100
AcDbEntity
  8
0
  6
Continuous
 62
     6
100
AcDbLine
 10
236.508651
 20
173.352499
 30
0.0
 11
236.508651
 21
175.352311
 31
0.0
  0
LINE
  5
4F7
100
AcDbEntity
  8
0
  6
Continuous
 62
     6
100
AcDbLine
 10
235.508595
 20
174.352255
 30
0.0
 11
237.508707
 21
174.352255
 31
0.0
  0
ENDBLK
  5
4F8
100
AcDbEntity
  8
0
100
AcDbBlockEnd
  0
BLOCK
  5
4FB
100
AcDbEntity
  8
0
100
AcDbBlockBegin
  2
*B65
 70
     0
 10
0.0
 20
0.0
 30
0.0
  3
*B65
  1

  0
LINE
  5
4FC
100
AcDbEntity
  8
0
  6
Continuous
 62
     6
100
AcDbLine
 10
162.109451
 20
130.655594
 30
0.0
 11
164.109564
 21
130.655594
 31
0.0
  0
LINE
  5
4FD
100
AcDbEntity
  8
0
  6
Continuous
 62
     6
100
AcDbLine
 10
163.109508
 20
129.655538
 30
0.0
 11
163.109508
 21
131.65535
 31
0.0
  0
ENDBLK
  5
4FE
100
AcDbEntity
  8
0
100
AcDbBlockEnd
  0
BLOCK
  5
501
100
AcDbEntity
  8
0
100
AcDbBlockBegin
  2
*B66
 70
     0
 10
0.0
 20
0.0
 30
0.0
  3
*B66
  1

  0
LINE
  5
502
100
AcDbEntity
  8
0
  6
Continuous
 62
     6
100
AcDbLine
 10
242.508688
 20
146.654391
 30
0.0
 11
244.5085
 21
146.654391
 31
0.0
  0
LINE
  5
503
100
AcDbEntity
  8
0
  6
Continuous
 62
     6
100
AcDbLine
 10
243.508744
 20
145.654335
 30
0.0
 11
243.508744
 21
147.654147
 31
0.0
  0
ENDBLK
  5
504
100
AcDbEntity
  8
0
100
AcDbBlockEnd
  0
BLOCK
  5
507
100
AcDbEntity
  8
0
100
AcDbBlockBegin
  2
*B67
 70
     0
 10
0.0
 20
0.0
 30
0.0
  3
*B67
  1

  0
LINE
  5
508
100
AcDbEntity
  8
0
  6
Continuous
 62
     6
100
AcDbLine
 10
275.150957
 20
185.096626
 30
0.0
 11
275.150957
 21
187.096438
 31
0.0
  0
LINE
  5
509
100
AcDbEntity
  8
0
  6
Continuous
 62
     6
100
AcDbLine
 10
274.150901
 20
186.096683
 30
0.0
 11
276.151013
 21
186.096683
 31
0.0
  0
ENDBLK
  5
50A
100
AcDbEntity
  8
0
100
AcDbBlockEnd
  0
BLOCK
  5
50D
100
AcDbEntity
  8
0
100
AcDbBlockBegin
  2
*B68
 70
     0
 10
0.0
 20
0.0
 30
0.0
  3
*B68
  1

  0
LINE
  5
50E
100
AcDbEntity
  8
0
  6
Continuous
 62
     6
100
AcDbLine
 10
162.109451
 20
66.660104
 30
0.0
 11
164.109564
 21
66.660104
 31
0.0
  0
LINE
  5
50F
100
AcDbEntity
  8
0
  6
Continuous
 62
     6
100
AcDbLine
 10
163.109508
 20
65.660048
 30
0.0
 11
163.109508
 21
67.66016
 31
0.0
  0
ENDBLK
  5
510
100
AcDbEntity
  8
0
100
AcDbBlockEnd
  0
BLOCK
  5
513
100
AcDbEntity
  8
0
100
AcDbBlockBegin
  2
*B69
 70
     0
 10
0.0
 20
0.0
 30
0.0
  3
*B69
  1

  0
LINE
  5
514
100
AcDbEntity
  8
0
  6
Continuous
 62
     6
100
AcDbLine
 10
162.109451
 20
98.657699
 30
0.0
 11
164.109564
 21
98.657699
 31
0.0
  0
LINE
  5
515
100
AcDbEntity
  8
0
  6
Continuous
 62
     6
100
AcDbLine
 10
163.109508
 20
97.657943
 30
0.0
 11
163.109508
 21
99.657755
 31
0.0
  0
ENDBLK
  5
516
100
AcDbEntity
  8
0
100
AcDbBlockEnd
  0
BLOCK
  5
519
100
AcDbEntity
  8
0
100
AcDbBlockBegin
  2
*B70
 70
     0
 10
0.0
 20
0.0
 30
0.0
  3
*B70
  1

  0
LINE
  5
51A
100
AcDbEntity
  8
0
  6
Continuous
 62
     6
100
AcDbLine
 10
271.306643
 20
204.881158
 30
0.0
 11
273.306756
 21
204.881158
 31
0.0
  0
LINE
  5
51B
100
AcDbEntity
  8
0
  6
Continuous
 62
     6
100
AcDbLine
 10
272.3067
 20
203.881402
 30
0.0
 11
272.3067
 21
205.881214
 31
0.0
  0
ENDBLK
  5
51C
100
AcDbEntity
  8
0
100
AcDbBlockEnd
  0
BLOCK
  5
51F
100
AcDbEntity
  8
0
100
AcDbBlockBegin
  2
*B71
 70
     0
 10
0.0
 20
0.0
 30
0.0
  3
*B71
  1

  0
TEXT
  5
520
100
AcDbEntity
  8
TEXT
  6
Continuous
 62
     0
100
AcDbText
 10
280.23575
 20
96.5
 30
0.0
 40
5.0
  1
1
100
AcDbText
  0
ENDBLK
  5
521
100
AcDbEntity
  8
0
100
AcDbBlockEnd
  0
BLOCK
  5
524
100
AcDbEntity
  8
0
100
AcDbBlockBegin
  2
*B72
 70
     0
 10
0.0
 20
0.0
 30
0.0
  3
*B72
  1

  0
TEXT
  5
525
100
AcDbEntity
  8
TEXT
  6
Continuous
 62
     0
100
AcDbText
 10
234.23575
 20
80.5
 30
0.0
 40
5.0
  1
2
100
AcDbText
  0
ENDBLK
  5
526
100
AcDbEntity
  8
0
100
AcDbBlockEnd
  0
BLOCK
  5
529
100
AcDbEntity
  8
0
100
AcDbBlockBegin
  2
*B73
 70
     0
 10
0.0
 20
0.0
 30
0.0
  3
*B73
  1

  0
TEXT
  5
52A
100
AcDbEntity
  8
TEXT
  6
Continuous
 62
     0
100
AcDbText
 10
280.23575
 20
64.5
 30
0.0
 40
5.0
  1
3
100
AcDbText
  0
ENDBLK
  5
52B
100
AcDbEntity
  8
0
100
AcDbBlockEnd
  0
BLOCK
  5
52E
100
AcDbEntity
  8
0
100
AcDbBlockBegin
  2
*B74
 70
     0
 10
0.0
 20
0.0
 30
0.0
  3
*B74
  1

  0
TEXT
  5
52F
100
AcDbEntity
  8
TEXT
  6
Continuous
 62
     0
100
AcDbText
 10
235.23575
 20
112.5
 30
0.0
 40
5.0
  1
4
100
AcDbText
  0
ENDBLK
  5
530
100
AcDbEntity
  8
0
100
AcDbBlockEnd
  0
BLOCK
  5
533
100
AcDbEntity
  8
0
100
AcDbBlockBegin
  2
*B75
 70
     0
 10
0.0
 20
0.0
 30
0.0
  3
*B75
  1

  0
TEXT
  5
534
100
AcDbEntity
  8
TEXT
  6
Continuous
 62
     0
100
AcDbText
 10
281.23575
 20
128.5
 30
0.0
 40
5.0
  1
5
100
AcDbText
  0
ENDBLK
  5
535
100
AcDbEntity
  8
0
100
AcDbBlockEnd
  0
BLOCK
  5
538
100
AcDbEntity
  8
0
100
AcDbBlockBegin
  2
*B76
 70
     0
 10
0.0
 20
0.0
 30
0.0
  3
*B76
  1

  0
TEXT
  5
539
100
AcDbEntity
  8
TEXT
  6
Continuous
 62
     0
100
AcDbText
 10
256.149665
 20
30.415457
 30
0.0
 40
3.5
  1
30
100
AcDbText
  0
ENDBLK
  5
53A
100
AcDbEntity
  8
0
100
AcDbBlockEnd
  0
BLOCK
  5
53D
100
AcDbEntity
  8
0
100
AcDbBlockBegin
  2
*B77
 70
     0
 10
0.0
 20
0.0
 30
0.0
  3
*B77
  1

  0
TEXT
  5
53E
100
AcDbEntity
  8
TEXT
  6
Continuous
 62
     0
100
AcDbText
 10
159.750521
 20
30.415457
 30
0.0
 40
3.5
  1
16
100
AcDbText
  0
ENDBLK
  5
53F
100
AcDbEntity
  8
0
100
AcDbBlockEnd
  0
BLOCK
  5
542
100
AcDbEntity
  8
0
100
AcDbBlockBegin
  2
*B78
 70
     0
 10
0.0
 20
0.0
 30
0.0
  3
*B78
  1

  0
TEXT
  5
543
100
AcDbEntity
  8
TEXT
  6
Continuous
 62
     0
100
AcDbText
 10
197.25
 20
111.280199
 30
0.0
 40
3.5
  1
68
 50
90.0
100
AcDbText
  0
ENDBLK
  5
544
100
AcDbEntity
  8
0
100
AcDbBlockEnd
  0
BLOCK
  5
547
100
AcDbEntity
  8
0
100
AcDbBlockBegin
  2
*B79
 70
     0
 10
0.0
 20
0.0
 30
0.0
  3
*B79
  1

  0
TEXT
  5
548
100
AcDbEntity
  8
TEXT
  6
Continuous
 62
     0
100
AcDbText
 10
213.25
 20
61.280199
 30
0.0
 40
3.5
  1
18
 50
90.0
100
AcDbText
  0
ENDBLK
  5
549
100
AcDbEntity
  8
0
100
AcDbBlockEnd
  0
BLOCK
  5
54C
100
AcDbEntity
  8
0
100
AcDbBlockBegin
  2
*B80
 70
     0
 10
0.0
 20
0.0
 30
0.0
  3
*B80
  1

  0
TEXT
  5
54D
100
AcDbEntity
  8
TEXT
  6
Continuous
 62
     0
100
AcDbText
 10
213.25
 20
95.280199
 30
0.0
 40
3.5
  1
16
 50
90.0
100
AcDbText
  0
ENDBLK
  5
54E
100
AcDbEntity
  8
0
100
AcDbBlockEnd
  0
BLOCK
  5
551
100
AcDbEntity
  8
0
100
AcDbBlockBegin
  2
*B81
 70
     0
 10
0.0
 20
0.0
 30
0.0
  3
*B81
  1

  0
TEXT
  5
552
100
AcDbEntity
  8
TEXT
  6
Continuous
 62
     0
100
AcDbText
 10
303.915001
 20
53.280199
 30
0.0
 40
3.5
  1
10
 50
90.0
100
AcDbText
  0
ENDBLK
  5
553
100
AcDbEntity
  8
0
100
AcDbBlockEnd
  0
BLOCK
  5
556
100
AcDbEntity
  8
0
100
AcDbBlockBegin
  2
*B82
 70
     0
 10
0.0
 20
0.0
 30
0.0
  3
*B82
  1

  0
TEXT
  5
557
100
AcDbEntity
  8
TEXT
  6
Continuous
 62
     0
100
AcDbText
 10
303.915001
 20
79.280199
 30
0.0
 40
3.5
  1
16
 50
90.0
100
AcDbText
  0
ENDBLK
  5
558
100
AcDbEntity
  8
0
100
AcDbBlockEnd
  0
BLOCK
  5
55B
100
AcDbEntity
  8
0
100
AcDbBlockBegin
  2
*B83
 70
     0
 10
0.0
 20
0.0
 30
0.0
  3
*B83
  1

  0
TEXT
  5
55C
100
AcDbEntity
  8
TEXT
  6
Continuous
 62
     0
100
AcDbText
 10
303.915001
 20
111.280199
 30
0.0
 40
3.5
  1
16
 50
90.0
100
AcDbText
  0
ENDBLK
  5
55D
100
AcDbEntity
  8
0
100
AcDbBlockEnd
  0
BLOCK
  5
560
100
AcDbEntity
  8
0
100
AcDbBlockBegin
  2
*B84
 70
     0
 10
0.0
 20
0.0
 30
0.0
  3
*B84
  1

  0
TEXT
  5
561
100
AcDbEntity
  8
TEXT
  6
Continuous
 62
     0
100
AcDbText
 10
323.25
 20
93.280199
 30
0.0
 40
3.5
  1
50
 50
90.0
100
AcDbText
  0
ENDBLK
  5
562
100
AcDbEntity
  8
0
100
AcDbBlockEnd
  0
BLOCK
  5
565
100
AcDbEntity
  8
0
100
AcDbBlockBegin
  2
*B85
 70
     0
 10
0.0
 20
0.0
 30
0.0
  3
*B85
  1

  0
TEXT
  5
566
100
AcDbEntity
  8
TEXT
  6
Continuous
 62
     0
100
AcDbText
 10
132.549429
 20
114.416667
 30
0.0
 40
3.5
  1
G 1/8"
 50
90.0
100
AcDbText
  0
ENDBLK
  5
567
100
AcDbEntity
  8
0
100
AcDbBlockEnd
  0
BLOCK
  5
56A
100
AcDbEntity
  8
0
100
AcDbBlockBegin
  2
*B86
 70
     0
 10
0.0
 20
0.0
 30
0.0
  3
*B86
  1

  0
TEXT
  5
56B
100
AcDbEntity
  8
TEXT
  6
Continuous
 62
     0
100
AcDbText
 10
158.917187
 20
224.815457
 30
0.0
 40
3.5
  1
4,5
100
AcDbText
  0
ENDBLK
  5
56C
100
AcDbEntity
  8
0
100
AcDbBlockEnd
  0
BLOCK
  5
56F
100
AcDbEntity
  8
0
100
AcDbBlockBegin
  2
*B87
 70
     0
 10
0.0
 20
0.0
 30
0.0
  3
*B87
  1

  0
TEXT
  5
570
100
AcDbEntity
  8
TEXT
  6
Continuous
 62
     0
100
AcDbText
 10
247.548721
 20
237.415457
 30
0.0
 40
3.5
  1
21
100
AcDbText
  0
ENDBLK
  5
571
100
AcDbEntity
  8
0
100
AcDbBlockEnd
  0
BLOCK
  5
574
100
AcDbEntity
  8
0
100
AcDbBlockBegin
  2
*B88
 70
     0
 10
0.0
 20
0.0
 30
0.0
  3
*B88
  1

  0
TEXT
  5
575
100
AcDbEntity
  8
TEXT
  6
Continuous
 62
     0
100
AcDbText
 10
266.497777
 20
223.415457
 30
0.0
 40
3.5
  1
%%c10
100
AcDbText
  0
ENDBLK
  5
576
100
AcDbEntity
  8
0
100
AcDbBlockEnd
  0
BLOCK
  5
579
100
AcDbEntity
  8
0
100
AcDbBlockBegin
  2
*B89
 70
     0
 10
0.0
 20
0.0
 30
0.0
  3
*B89
  1

  0
TEXT
  5
57A
100
AcDbEntity
  8
TEXT
  6
Continuous
 62
     0
100
AcDbText
 10
301.915001
 20
222.416667
 30
0.0
 40
3.5
  1
4
 50
90.0
100
AcDbText
  0
TEXT
  5
57B
100
AcDbEntity
  8
TEXT
  6
Continuous
 62
     0
100
AcDbText
 10
301.915001
 20
227.5
 30
0.0
 40
3.5
  1
Kapcsol¾ l÷ket
 50
90.0
100
AcDbText
  0
ENDBLK
  5
57C
100
AcDbEntity
  8
0
100
AcDbBlockEnd
  0
BLOCK
  5
57F
100
AcDbEntity
  8
0
100
AcDbBlockBegin
  2
*B90
 70
     0
 10
0.0
 20
0.0
 30
0.0
  3
*B90
  1

  0
TEXT
  5
580
100
AcDbEntity
  8
TEXT
  6
Continuous
 62
     0
100
AcDbText
 10
213.25
 20
157.383333
 30
0.0
 40
3.5
  1
%%c4,5
 50
90.0
100
AcDbText
  0
ENDBLK
  5
581
100
AcDbEntity
  8
0
100
AcDbBlockEnd
  0
BLOCK
  5
584
100
AcDbEntity
  8
0
100
AcDbBlockBegin
  2
*B91
 70
     0
 10
0.0
 20
0.0
 30
0.0
  3
*B91
  1

  0
TEXT
  5
585
100
AcDbEntity
  8
TEXT
  6
Continuous
 62
     0
100
AcDbText
 10
312.915001
 20
223.332123
 30
0.0
 40
3.5
  1
2
 50
90.0
100
AcDbText
  0
TEXT
  5
586
100
AcDbEntity
  8
TEXT
  6
Continuous
 62
     0
100
AcDbText
 10
312.915001
 20
228.415457
 30
0.0
 40
3.5
  1
Szabad l÷ket
 50
90.0
100
AcDbText
  0
ENDBLK
  5
587
100
AcDbEntity
  8
0
100
AcDbBlockEnd
  0
BLOCK
  5
58A
100
AcDbEntity
  8
0
100
AcDbBlockBegin
  2
*B92
 70
     0
 10
0.0
 20
0.0
 30
0.0
  3
*B92
  1

  0
TEXT
  5
58B
100
AcDbEntity
  8
TEXT
  6
Continuous
 62
     0
100
AcDbText
 10
323.25
 20
177.406161
 30
0.0
 40
3.5
  1
35
 50
90.0
100
AcDbText
  0
ENDBLK
  5
58C
100
AcDbEntity
  8
0
100
AcDbBlockEnd
  0
BLOCK
  5
58F
100
AcDbEntity
  8
0
100
AcDbBlockBegin
  2
*B93
 70
     0
 10
0.0
 20
0.0
 30
0.0
  3
*B93
  1

  0
TEXT
  5
590
100
AcDbEntity
  8
TEXT
  6
Continuous
 62
     0
100
AcDbText
 10
256.149665
 20
135.415457
 30
0.0
 40
3.5
  1
16
100
AcDbText
  0
ENDBLK
  5
591
100
AcDbEntity
  8
0
100
AcDbBlockEnd
  0
ENDSEC
  0
SECTION
  2
ENTITIES
  0
INSERT
  5
1C2
100
AcDbEntity
  8
0
  6
HIDDEN
 62
   174
100
AcDbBlockReference
  2
*B1
 10
0.0
 20
0.0
 30
0.0
  0
INSERT
  5
1C9
100
AcDbEntity
  8
0
  6
Continuous
 62
    92
100
AcDbBlockReference
  2
*B2
 10
0.0
 20
0.0
 30
0.0
  0
INSERT
  5
34B
100
AcDbEntity
  8
0
  6
Continuous
 62
   174
100
AcDbBlockReference
  2
*B3
 10
0.0
 20
0.0
 30
0.0
  0
INSERT
  5
352
100
AcDbEntity
  8
0
  6
Continuous
 62
     0
100
AcDbBlockReference
  2
*B4
 10
0.0
 20
0.0
 30
0.0
  0
INSERT
  5
359
100
AcDbEntity
  8
0
  6
Continuous
 62
     0
100
AcDbBlockReference
  2
*B5
 10
0.0
 20
0.0
 30
0.0
  0
INSERT
  5
360
100
AcDbEntity
  8
0
  6
Continuous
 62
     0
100
AcDbBlockReference
  2
*B6
 10
0.0
 20
0.0
 30
0.0
  0
INSERT
  5
367
100
AcDbEntity
  8
0
  6
Continuous
 62
     0
100
AcDbBlockReference
  2
*B7
 10
0.0
 20
0.0
 30
0.0
  0
INSERT
  5
36E
100
AcDbEntity
  8
0
  6
Continuous
 62
     0
100
AcDbBlockReference
  2
*B8
 10
0.0
 20
0.0
 30
0.0
  0
INSERT
  5
375
100
AcDbEntity
  8
0
  6
Continuous
 62
     0
100
AcDbBlockReference
  2
*B9
 10
0.0
 20
0.0
 30
0.0
  0
INSERT
  5
37C
100
AcDbEntity
  8
0
  6
Continuous
 62
     0
100
AcDbBlockReference
  2
*B10
 10
0.0
 20
0.0
 30
0.0
  0
INSERT
  5
383
100
AcDbEntity
  8
0
  6
Continuous
 62
     0
100
AcDbBlockReference
  2
*B11
 10
0.0
 20
0.0
 30
0.0
  0
INSERT
  5
38A
100
AcDbEntity
  8
0
  6
Continuous
 62
     0
100
AcDbBlockReference
  2
*B12
 10
0.0
 20
0.0
 30
0.0
  0
INSERT
  5
391
100
AcDbEntity
  8
0
  6
Continuous
 62
     0
100
AcDbBlockReference
  2
*B13
 10
0.0
 20
0.0
 30
0.0
  0
INSERT
  5
398
100
AcDbEntity
  8
0
  6
Continuous
 62
     0
100
AcDbBlockReference
  2
*B14
 10
0.0
 20
0.0
 30
0.0
  0
INSERT
  5
39F
100
AcDbEntity
  8
0
  6
Continuous
 62
     0
100
AcDbBlockReference
  2
*B15
 10
0.0
 20
0.0
 30
0.0
  0
INSERT
  5
3A6
100
AcDbEntity
  8
0
  6
Continuous
 62
     0
100
AcDbBlockReference
  2
*B16
 10
0.0
 20
0.0
 30
0.0
  0
INSERT
  5
3AD
100
AcDbEntity
  8
0
  6
Continuous
 62
     0
100
AcDbBlockReference
  2
*B17
 10
0.0
 20
0.0
 30
0.0
  0
INSERT
  5
3B4
100
AcDbEntity
  8
0
  6
Continuous
 62
     0
100
AcDbBlockReference
  2
*B18
 10
0.0
 20
0.0
 30
0.0
  0
INSERT
  5
3BB
100
AcDbEntity
  8
0
  6
Continuous
 62
     0
100
AcDbBlockReference
  2
*B19
 10
0.0
 20
0.0
 30
0.0
  0
INSERT
  5
3C2
100
AcDbEntity
  8
0
  6
Continuous
 62
     0
100
AcDbBlockReference
  2
*B20
 10
0.0
 20
0.0
 30
0.0
  0
INSERT
  5
3C9
100
AcDbEntity
  8
0
  6
Continuous
 62
     0
100
AcDbBlockReference
  2
*B21
 10
0.0
 20
0.0
 30
0.0
  0
INSERT
  5
3CE
100
AcDbEntity
  8
0
  6
Continuous
 62
     8
100
AcDbBlockReference
  2
*B22
 10
0.0
 20
0.0
 30
0.0
  0
INSERT
  5
3D4
100
AcDbEntity
  8
0
  6
Continuous
 62
     8
100
AcDbBlockReference
  2
*B23
 10
0.0
 20
0.0
 30
0.0
  0
INSERT
  5
3D9
100
AcDbEntity
  8
0
  6
Continuous
 62
     8
100
AcDbBlockReference
  2
*B24
 10
0.0
 20
0.0
 30
0.0
  0
INSERT
  5
3DE
100
AcDbEntity
  8
0
  6
Continuous
 62
     8
100
AcDbBlockReference
  2
*B25
 10
0.0
 20
0.0
 30
0.0
  0
INSERT
  5
3E4
100
AcDbEntity
  8
0
  6
Continuous
 62
     8
100
AcDbBlockReference
  2
*B26
 10
0.0
 20
0.0
 30
0.0
  0
INSERT
  5
3E9
100
AcDbEntity
  8
0
  6
Continuous
 62
     8
100
AcDbBlockReference
  2
*B27
 10
0.0
 20
0.0
 30
0.0
  0
INSERT
  5
402
100
AcDbEntity
  8
0
  6
Continuous
 62
     8
100
AcDbBlockReference
  2
*B28
 10
0.0
 20
0.0
 30
0.0
  0
INSERT
  5
407
100
AcDbEntity
  8
0
  6
Continuous
 62
     8
100
AcDbBlockReference
  2
*B29
 10
0.0
 20
0.0
 30
0.0
  0
INSERT
  5
40D
100
AcDbEntity
  8
0
  6
Continuous
 62
     8
100
AcDbBlockReference
  2
*B30
 10
0.0
 20
0.0
 30
0.0
  0
INSERT
  5
412
100
AcDbEntity
  8
0
  6
Continuous
 62
     8
100
AcDbBlockReference
  2
*B31
 10
0.0
 20
0.0
 30
0.0
  0
INSERT
  5
417
100
AcDbEntity
  8
0
  6
Continuous
 62
     8
100
AcDbBlockReference
  2
*B32
 10
0.0
 20
0.0
 30
0.0
  0
INSERT
  5
41C
100
AcDbEntity
  8
0
  6
Continuous
 62
     8
100
AcDbBlockReference
  2
*B33
 10
0.0
 20
0.0
 30
0.0
  0
INSERT
  5
422
100
AcDbEntity
  8
0
  6
Continuous
 62
     8
100
AcDbBlockReference
  2
*B34
 10
0.0
 20
0.0
 30
0.0
  0
INSERT
  5
42C
100
AcDbEntity
  8
0
  6
Continuous
 62
     8
100
AcDbBlockReference
  2
*B35
 10
0.0
 20
0.0
 30
0.0
  0
INSERT
  5
432
100
AcDbEntity
  8
0
  6
Continuous
 62
     8
100
AcDbBlockReference
  2
*B36
 10
0.0
 20
0.0
 30
0.0
  0
INSERT
  5
438
100
AcDbEntity
  8
0
  6
Continuous
 62
     8
100
AcDbBlockReference
  2
*B37
 10
0.0
 20
0.0
 30
0.0
  0
INSERT
  5
44C
100
AcDbEntity
  8
0
  6
Continuous
 62
     8
100
AcDbBlockReference
  2
*B38
 10
0.0
 20
0.0
 30
0.0
  0
INSERT
  5
452
100
AcDbEntity
  8
0
  6
Continuous
 62
     8
100
AcDbBlockReference
  2
*B39
 10
0.0
 20
0.0
 30
0.0
  0
INSERT
  5
457
100
AcDbEntity
  8
0
  6
Continuous
 62
     8
100
AcDbBlockReference
  2
*B40
 10
0.0
 20
0.0
 30
0.0
  0
INSERT
  5
45C
100
AcDbEntity
  8
0
  6
Continuous
 62
     8
100
AcDbBlockReference
  2
*B41
 10
0.0
 20
0.0
 30
0.0
  0
INSERT
  5
462
100
AcDbEntity
  8
0
  6
Continuous
 62
     8
100
AcDbBlockReference
  2
*B42
 10
0.0
 20
0.0
 30
0.0
  0
INSERT
  5
467
100
AcDbEntity
  8
0
  6
Continuous
 62
     8
100
AcDbBlockReference
  2
*B43
 10
0.0
 20
0.0
 30
0.0
  0
INSERT
  5
46C
100
AcDbEntity
  8
0
  6
Continuous
 62
     8
100
AcDbBlockReference
  2
*B44
 10
0.0
 20
0.0
 30
0.0
  0
INSERT
  5
476
100
AcDbEntity
  8
0
  6
Continuous
 62
     8
100
AcDbBlockReference
  2
*B45
 10
0.0
 20
0.0
 30
0.0
  0
INSERT
  5
47B
100
AcDbEntity
  8
0
  6
Continuous
 62
     8
100
AcDbBlockReference
  2
*B46
 10
0.0
 20
0.0
 30
0.0
  0
INSERT
  5
481
100
AcDbEntity
  8
0
  6
Continuous
 62
     8
100
AcDbBlockReference
  2
*B47
 10
0.0
 20
0.0
 30
0.0
  0
INSERT
  5
487
100
AcDbEntity
  8
0
  6
Continuous
 62
     8
100
AcDbBlockReference
  2
*B48
 10
0.0
 20
0.0
 30
0.0
  0
INSERT
  5
48C
100
AcDbEntity
  8
0
  6
Continuous
 62
     8
100
AcDbBlockReference
  2
*B49
 10
0.0
 20
0.0
 30
0.0
  0
INSERT
  5
496
100
AcDbEntity
  8
0
  6
Continuous
 62
     8
100
AcDbBlockReference
  2
*B50
 10
0.0
 20
0.0
 30
0.0
  0
INSERT
  5
4A0
100
AcDbEntity
  8
0
  6
Continuous
 62
     8
100
AcDbBlockReference
  2
*B51
 10
0.0
 20
0.0
 30
0.0
  0
INSERT
  5
4A5
100
AcDbEntity
  8
0
  6
Continuous
 62
     8
100
AcDbBlockReference
  2
*B52
 10
0.0
 20
0.0
 30
0.0
  0
INSERT
  5
4AB
100
AcDbEntity
  8
0
  6
Continuous
 62
     8
100
AcDbBlockReference
  2
*B53
 10
0.0
 20
0.0
 30
0.0
  0
INSERT
  5
4B1
100
AcDbEntity
  8
0
  6
Continuous
 62
     8
100
AcDbBlockReference
  2
*B54
 10
0.0
 20
0.0
 30
0.0
  0
INSERT
  5
4BB
100
AcDbEntity
  8
0
  6
Continuous
 62
     8
100
AcDbBlockReference
  2
*B55
 10
0.0
 20
0.0
 30
0.0
  0
INSERT
  5
4C0
100
AcDbEntity
  8
0
  6
Continuous
 62
     8
100
AcDbBlockReference
  2
*B56
 10
0.0
 20
0.0
 30
0.0
  0
INSERT
  5
4C5
100
AcDbEntity
  8
0
  6
Continuous
 62
     8
100
AcDbBlockReference
  2
*B57
 10
0.0
 20
0.0
 30
0.0
  0
INSERT
  5
4CA
100
AcDbEntity
  8
0
  6
Continuous
 62
     8
100
AcDbBlockReference
  2
*B58
 10
0.0
 20
0.0
 30
0.0
  0
INSERT
  5
4D3
100
AcDbEntity
  8
0
  6
Continuous
 62
     8
100
AcDbBlockReference
  2
*B59
 10
0.0
 20
0.0
 30
0.0
  0
INSERT
  5
4DE
100
AcDbEntity
  8
0
  6
Continuous
 62
     8
100
AcDbBlockReference
  2
*B60
 10
0.0
 20
0.0
 30
0.0
  0
INSERT
  5
4E4
100
AcDbEntity
  8
0
  6
Continuous
 62
     8
100
AcDbBlockReference
  2
*B61
 10
0.0
 20
0.0
 30
0.0
  0
INSERT
  5
4ED
100
AcDbEntity
  8
0
  6
Continuous
 62
     8
100
AcDbBlockReference
  2
*B62
 10
0.0
 20
0.0
 30
0.0
  0
INSERT
  5
4F3
100
AcDbEntity
  8
0
  6
Continuous
 62
     6
100
AcDbBlockReference
  2
*B63
 10
0.0
 20
0.0
 30
0.0
  0
INSERT
  5
4F9
100
AcDbEntity
  8
0
  6
Continuous
 62
     6
100
AcDbBlockReference
  2
*B64
 10
0.0
 20
0.0
 30
0.0
  0
INSERT
  5
4FF
100
AcDbEntity
  8
0
  6
Continuous
 62
     6
100
AcDbBlockReference
  2
*B65
 10
0.0
 20
0.0
 30
0.0
  0
INSERT
  5
505
100
AcDbEntity
  8
0
  6
Continuous
 62
     6
100
AcDbBlockReference
  2
*B66
 10
0.0
 20
0.0
 30
0.0
  0
INSERT
  5
50B
100
AcDbEntity
  8
0
  6
Continuous
 62
     6
100
AcDbBlockReference
  2
*B67
 10
0.0
 20
0.0
 30
0.0
  0
INSERT
  5
511
100
AcDbEntity
  8
0
  6
Continuous
 62
     6
100
AcDbBlockReference
  2
*B68
 10
0.0
 20
0.0
 30
0.0
  0
INSERT
  5
517
100
AcDbEntity
  8
0
  6
Continuous
 62
     6
100
AcDbBlockReference
  2
*B69
 10
0.0
 20
0.0
 30
0.0
  0
INSERT
  5
51D
100
AcDbEntity
  8
0
  6
Continuous
 62
     6
100
AcDbBlockReference
  2
*B70
 10
0.0
 20
0.0
 30
0.0
  0
INSERT
  5
522
100
AcDbEntity
  8
TEXT
  6
Continuous
 62
     0
100
AcDbBlockReference
  2
*B71
 10
0.0
 20
0.0
 30
0.0
  0
INSERT
  5
527
100
AcDbEntity
  8
TEXT
  6
Continuous
 62
     0
100
AcDbBlockReference
  2
*B72
 10
0.0
 20
0.0
 30
0.0
  0
INSERT
  5
52C
100
AcDbEntity
  8
TEXT
  6
Continuous
 62
     0
100
AcDbBlockReference
  2
*B73
 10
0.0
 20
0.0
 30
0.0
  0
INSERT
  5
531
100
AcDbEntity
  8
TEXT
  6
Continuous
 62
     0
100
AcDbBlockReference
  2
*B74
 10
0.0
 20
0.0
 30
0.0
  0
INSERT
  5
536
100
AcDbEntity
  8
TEXT
  6
Continuous
 62
     0
100
AcDbBlockReference
  2
*B75
 10
0.0
 20
0.0
 30
0.0
  0
INSERT
  5
53B
100
AcDbEntity
  8
TEXT
  6
Continuous
 62
     0
100
AcDbBlockReference
  2
*B76
 10
0.0
 20
0.0
 30
0.0
  0
INSERT
  5
540
100
AcDbEntity
  8
TEXT
  6
Continuous
 62
     0
100
AcDbBlockReference
  2
*B77
 10
0.0
 20
0.0
 30
0.0
  0
INSERT
  5
545
100
AcDbEntity
  8
TEXT
  6
Continuous
 62
     0
100
AcDbBlockReference
  2
*B78
 10
0.0
 20
0.0
 30
0.0
  0
INSERT
  5
54A
100
AcDbEntity
  8
TEXT
  6
Continuous
 62
     0
100
AcDbBlockReference
  2
*B79
 10
0.0
 20
0.0
 30
0.0
  0
INSERT
  5
54F
100
AcDbEntity
  8
TEXT
  6
Continuous
 62
     0
100
AcDbBlockReference
  2
*B80
 10
0.0
 20
0.0
 30
0.0
  0
INSERT
  5
554
100
AcDbEntity
  8
TEXT
  6
Continuous
 62
     0
100
AcDbBlockReference
  2
*B81
 10
0.0
 20
0.0
 30
0.0
  0
INSERT
  5
559
100
AcDbEntity
  8
TEXT
  6
Continuous
 62
     0
100
AcDbBlockReference
  2
*B82
 10
0.0
 20
0.0
 30
0.0
  0
INSERT
  5
55E
100
AcDbEntity
  8
TEXT
  6
Continuous
 62
     0
100
AcDbBlockReference
  2
*B83
 10
0.0
 20
0.0
 30
0.0
  0
INSERT
  5
563
100
AcDbEntity
  8
TEXT
  6
Continuous
 62
     0
100
AcDbBlockReference
  2
*B84
 10
0.0
 20
0.0
 30
0.0
  0
INSERT
  5
568
100
AcDbEntity
  8
TEXT
  6
Continuous
 62
     0
100
AcDbBlockReference
  2
*B85
 10
0.0
 20
0.0
 30
0.0
  0
INSERT
  5
56D
100
AcDbEntity
  8
TEXT
  6
Continuous
 62
     0
100
AcDbBlockReference
  2
*B86
 10
0.0
 20
0.0
 30
0.0
  0
INSERT
  5
572
100
AcDbEntity
  8
TEXT
  6
Continuous
 62
     0
100
AcDbBlockReference
  2
*B87
 10
0.0
 20
0.0
 30
0.0
  0
INSERT
  5
577
100
AcDbEntity
  8
TEXT
  6
Continuous
 62
     0
100
AcDbBlockReference
  2
*B88
 10
0.0
 20
0.0
 30
0.0
  0
INSERT
  5
57D
100
AcDbEntity
  8
TEXT
  6
Continuous
 62
     0
100
AcDbBlockReference
  2
*B89
 10
0.0
 20
0.0
 30
0.0
  0
INSERT
  5
582
100
AcDbEntity
  8
TEXT
  6
Continuous
 62
     0
100
AcDbBlockReference
  2
*B90
 10
0.0
 20
0.0
 30
0.0
  0
INSERT
  5
588
100
AcDbEntity
  8
TEXT
  6
Continuous
 62
     0
100
AcDbBlockReference
  2
*B91
 10
0.0
 20
0.0
 30
0.0
  0
INSERT
  5
58D
100
AcDbEntity
  8
TEXT
  6
Continuous
 62
     0
100
AcDbBlockReference
  2
*B92
 10
0.0
 20
0.0
 30
0.0
  0
INSERT
  5
592
100
AcDbEntity
  8
TEXT
  6
Continuous
 62
     0
100
AcDbBlockReference
  2
*B93
 10
0.0
 20
0.0
 30
0.0
  0
ENDSEC
  0
SECTION
  2
OBJECTS
  0
DICTIONARY
  5
19
100
AcDbDictionary
280
     0
281
     1
  3
ACAD_GROUP
350
1A
  3
ACAD_MLINESTYLE
350
1B
  3
ACAD_LAYOUT
350
1E
  3
ACAD_PLOTSETTINGS
350
22
  3
ACAD_PLOTSTYLENAME
350
1F
  3
ACAD_WIPEOUT_VARS
350
23
  0
DICTIONARY
  5
1A
102
{ACAD_REACTORS
330
19
102
}
100
AcDbDictionary
280
     0
281
     1
  0
DICTIONARY
  5
1B
102
{ACAD_REACTORS
330
19
102
}
100
AcDbDictionary
280
     0
281
     1
  3
Standard
350
1C
  0
MLINESTYLE
  5
1C
102
{ACAD_REACTORS
330
1B
102
}
100
AcDbMlineStyle
  2
Standard
 70
     0
  3

 62
     0
 51
90.0
 52
90.0
 71
     2
 49
0.5
 62
   256
  6
BYLAYER
 49
-0.5
 62
   256
  6
BYLAYER
  0
ACDBDICTIONARYWDFLT
  5
1F
102
{ACAD_REACTORS
330
19
102
}
100
AcDbDictionary
281
     1
  3
Normal
350
1D
100
AcDbDictionaryWithDefault
340
1D
  0
ACDBPLACEHOLDER
  5
1D
102
{ACAD_REACTORS
330
1F
102
}
  0
LAYOUT
  5
20
102
{ACAD_REACTORS
330
1E
102
}
100
AcDbPlotSettings
  1

  2

  4

  6

 40
0.0
 41
0.0
 42
0.0
 43
0.0
 44
0.0
 45
0.0
 46
0.0
 47
0.0
 48
0.0
 49
0.0
140
0.0
141
0.0
142
1.0
143
1.0
 70
     0
 72
     0
 73
     0
 74
     0
  7

 75
     0
147
1.0
148
0.0
149
0.0
100
AcDbLayout
  1
Model
 70
     0
 71
     0
 10
0.0
 20
0.0
 11
0.0
 21
0.0
 12
0.0
 22
0.0
 32
0.0
 14
0.0
 24
0.0
 34
0.0
 15
0.0
 25
0.0
 35
0.0
146
0.0
 13
0.0
 23
0.0
 33
0.0
 16
0.0
 26
0.0
 36
0.0
 17
0.0
 27
0.0
 37
0.0
 76
     0
330
A
331
0
345
0
346
0
  0
LAYOUT
  5
21
102
{ACAD_REACTORS
330
1E
102
}
100
AcDbPlotSettings
  1

  2

  4

  6

 40
0.0
 41
0.0
 42
0.0
 43
0.0
 44
0.0
 45
0.0
 46
0.0
 47
0.0
 48
0.0
 49
0.0
140
0.0
141
0.0
142
1.0
143
1.0
 70
     0
 72
     0
 73
     0
 74
     0
  7

 75
     0
147
1.0
148
0.0
149
0.0
100
AcDbLayout
  1
Layout1
 70
     0
 71
     0
 10
0.0
 20
0.0
 11
0.0
 21
0.0
 12
0.0
 22
0.0
 32
0.0
 14
0.0
 24
0.0
 34
0.0
 15
0.0
 25
0.0
 35
0.0
146
0.0
 13
0.0
 23
0.0
 33
0.0
 16
0.0
 26
0.0
 36
0.0
 17
0.0
 27
0.0
 37
0.0
 76
     0
330
B
331
0
345
0
346
0
  0
DICTIONARY
  5
1E
102
{ACAD_REACTORS
330
19
102
}
100
AcDbDictionary
280
     0
281
     1
  3
Layout1
350
21
  3
Model
350
20
  0
DICTIONARY
  5
22
102
{ACAD_REACTORS
330
19
102
}
100
AcDbDictionary
280
     0
281
     1
  0
WIPEOUTVARIABLES
  5
23
100
AcDbWipeoutVariables
 70
     1
  0
ENDSEC
  0
EOF
