  0
SECTION
  2
HEADER
  9
$ACADVER
  1
AC1015
  9
$ACADMAINTVER
 70
     6
  9
$DWGCODEPAGE
  3
DOS850
  9
$INSBASE
 10
0.0
 20
0.0
 30
0.0
  9
$EXTMIN
 10
0.0
 20
0.0
 30
0.0
  9
$EXTMAX
 10
297.0
 20
210.0
 30
0.0
  9
$LIMMIN
 10
0.0
 20
0.0
  9
$LIMMAX
 10
297.0
 20
210.0
  9
$ORTHOMODE
 70
     0
  9
$REGENMODE
 70
     1
  9
$FILLMODE
 70
     1
  9
$QTEXTMODE
 70
     0
  9
$MIRRTEXT
 70
     1
  9
$LTSCALE
 40
25.4
  9
$ATTMODE
 70
     1
  9
$TEXTSIZE
 40
3.5
  9
$TRACEWID
 40
0.05
  9
$TEXTSTYLE
  7
Standard
  9
$CLAYER
  8
0
  9
$CELTYPE
  6
Continuous
  9
$CECOLOR
 62
   256
  9
$CELTSCALE
 40
1.0
  9
$DISPSILH
 70
     0
  9
$DIMSCALE
 40
1.0
  9
$DIMASZ
 40
5.0
  9
$DIMEXO
 40
3.0
  9
$DIMDLI
 40
0.38
  9
$DIMRND
 40
0.0
  9
$DIMDLE
 40
0.0
  9
$DIMEXE
 40
2.0
  9
$DIMTP
 40
0.0
  9
$DIMTM
 40
0.0
  9
$DIMTXT
 40
3.5
  9
$DIMCEN
 40
4.0
  9
$DIMTSZ
 40
0.0
  9
$DIMTOL
 70
     0
  9
$DIMLIM
 70
     0
  9
$DIMTIH
 70
     1
  9
$DIMTOH
 70
     1
  9
$DIMSE1
 70
     0
  9
$DIMSE2
 70
     0
  9
$DIMTAD
 70
     0
  9
$DIMZIN
 70
     0
  9
$DIMBLK
  1

  9
$DIMASO
 70
     1
  9
$DIMSHO
 70
     1
  9
$DIMPOST
  1

  9
$DIMAPOST
  1

  9
$DIMALT
 70
     0
  9
$DIMALTD
 70
     2
  9
$DIMALTF
 40
25.4
  9
$DIMLFAC
 40
1.0
  9
$DIMTOFL
 70
     0
  9
$DIMTVP
 40
0.0
  9
$DIMTIX
 70
     0
  9
$DIMSOXD
 70
     0
  9
$DIMSAH
 70
     0
  9
$DIMBLK1
  1

  9
$DIMBLK2
  1

  9
$DIMSTYLE
  2
Standard
  9
$DIMCLRD
 70
     0
  9
$DIMCLRE
 70
     0
  9
$DIMCLRT
 70
     0
  9
$DIMTFAC
 40
1.0
  9
$DIMGAP
 40
1.0
  9
$DIMJUST
 70
     0
  9
$DIMSD1
 70
     0
  9
$DIMSD2
 70
     0
  9
$DIMTOLJ
 70
     1
  9
$DIMTZIN
 70
     0
  9
$DIMALTZ
 70
     0
  9
$DIMALTTZ
 70
     0
  9
$DIMUPT
 70
     0
  9
$DIMDEC
 70
     4
  9
$DIMTDEC
 70
     4
  9
$DIMALTU
 70
     2
  9
$DIMALTTD
 70
     2
  9
$DIMTXSTY
  7
Standard
  9
$DIMAUNIT
 70
     0
  9
$DIMADEC
 70
     0
  9
$DIMALTRND
 40
0.0
  9
$DIMAZIN
 70
     0
  9
$DIMDSEP
 70
     0
  9
$DIMATFIT
 70
     3
  9
$DIMFRAC
 70
     0
  9
$DIMLDRBLK
  1

  9
$DIMLUNIT
 70
     2
  9
$DIMLWD
 70
     0
  9
$DIMLWE
 70
     0
  9
$DIMTMOVE
 70
     0
  9
$LUNITS
 70
     2
  9
$LUPREC
 70
     4
  9
$SKETCHINC
 40
0.1
  9
$FILLETRAD
 40
0.0
  9
$AUNITS
 70
     0
  9
$AUPREC
 70
     0
  9
$MENU
  1
acad
  9
$ELEVATION
 40
0.0
  9
$PELEVATION
 40
0.0
  9
$THICKNESS
 40
0.0
  9
$LIMCHECK
 70
     0
  9
$CHAMFERA
 40
0.0
  9
$CHAMFERB
 40
0.0
  9
$CHAMFERC
 40
0.0
  9
$CHAMFERD
 40
0.0
  9
$SKPOLY
 70
     0
  9
$TDCREATE
 40
0.000000000
  9
$TDUCREATE
 40
0.000000000
  9
$TDUPDATE
 40
0.000000000
  9
$TDUUPDATE
 40
0.000000000
  9
$TDINDWG
 40
0.0000000000
  9
$TDUSRTIMER
 40
0.0000000000
  9
$USRTIMER
 70
     1
  9
$ANGBASE
 50
0.0
  9
$ANGDIR
 70
     0
  9
$PDMODE
 70
     0
  9
$PDSIZE
 40
0.0
  9
$PLINEWID
 40
0.0
  9
$SPLFRAME
 70
     0
  9
$SPLINETYPE
 70
     6
  9
$SPLINESEGS
 70
     8
  9
$HANDSEED
  5
4E0
  9
$SURFTAB1
 70
     6
  9
$SURFTAB2
 70
     6
  9
$SURFTYPE
 70
     6
  9
$SURFU
 70
     6
  9
$SURFV
 70
     6
  9
$UCSBASE
  2

  9
$UCSNAME
  2

  9
$UCSORG
 10
0.0
 20
0.0
 30
0.0
  9
$UCSXDIR
 10
1.0
 20
0.0
 30
0.0
  9
$UCSYDIR
 10
0.0
 20
1.0
 30
0.0
  9
$UCSORTHOREF
  2

  9
$UCSORTHOVIEW
 70
     0
  9
$UCSORGTOP
 10
0.0
 20
0.0
 30
0.0
  9
$UCSORGBOTTOM
 10
0.0
 20
0.0
 30
0.0
  9
$UCSORGLEFT
 10
0.0
 20
0.0
 30
0.0
  9
$UCSORGRIGHT
 10
0.0
 20
0.0
 30
0.0
  9
$UCSORGFRONT
 10
0.0
 20
0.0
 30
0.0
  9
$UCSORGBACK
 10
0.0
 20
0.0
 30
0.0
  9
$PUCSBASE
  2

  9
$PUCSNAME
  2

  9
$PUCSORG
 10
0.0
 20
0.0
 30
0.0
  9
$PUCSXDIR
 10
1.0
 20
0.0
 30
0.0
  9
$PUCSYDIR
 10
0.0
 20
1.0
 30
0.0
  9
$PUCSORTHOREF
  2

  9
$PUCSORTHOVIEW
 70
     0
  9
$PUCSORGTOP
 10
0.0
 20
0.0
 30
0.0
  9
$PUCSORGBOTTOM
 10
0.0
 20
0.0
 30
0.0
  9
$PUCSORGLEFT
 10
0.0
 20
0.0
 30
0.0
  9
$PUCSORGRIGHT
 10
0.0
 20
0.0
 30
0.0
  9
$PUCSORGFRONT
 10
0.0
 20
0.0
 30
0.0
  9
$PUCSORGBACK
 10
0.0
 20
0.0
 30
0.0
  9
$USERI1
 70
     0
  9
$USERI2
 70
     0
  9
$USERI3
 70
     0
  9
$USERI4
 70
     0
  9
$USERI5
 70
     0
  9
$USERR1
 40
0.0
  9
$USERR2
 40
0.0
  9
$USERR3
 40
0.0
  9
$USERR4
 40
0.0
  9
$USERR5
 40
0.0
  9
$WORLDVIEW
 70
     1
  9
$SHADEDGE
 70
     3
  9
$SHADEDIF
 70
    70
  9
$TILEMODE
 70
     1
  9
$MAXACTVP
 70
    16
  9
$PINSBASE
 10
0.0
 20
0.0
 30
0.0
  9
$PLIMCHECK
 70
     0
  9
$PEXTMIN
 10
1.000000E+20
 20
1.000000E+20
 30
1.000000E+20
  9
$PEXTMAX
 10
-1.000000E+20
 20
-1.000000E+20
 30
-1.000000E+20
  9
$PLIMMIN
 10
0.0
 20
0.0
  9
$PLIMMAX
 10
297.0
 20
210.0
  9
$UNITMODE
 70
     0
  9
$VISRETAIN
 70
     0
  9
$PLINEGEN
 70
     1
  9
$PSLTSCALE
 70
     0
  9
$TREEDEPTH
 70
  3020
  9
$CMLSTYLE
  2
Standard
  9
$CMLJUST
 70
     0
  9
$CMLSCALE
 40
1.0
  9
$PROXYGRAPHICS
 70
     0
  9
$MEASUREMENT
 70
     0
  9
$CELWEIGHT
370
     0
  9
$ENDCAPS
280
     0
  9
$JOINSTYLE
280
     0
  9
$LWDISPLAY
290
     0
  9
$INSUNITS
 70
     0
  9
$HYPERLINKBASE
  1

  9
$XEDIT
290
     1
  9
$CEPSNTYPE
380
     0
  9
$PSTYLEMODE
290
     0
  9
$FINGERPRINTGUID
  2

  9
$VERSIONGUID
  2

  9
$EXTNAMES
290
     1
  9
$PSVPSCALE
 40
0.0
  0
ENDSEC
  0
SECTION
  2
CLASSES
  0
CLASS
  1
LWPOLYLINE
  2
AcDbPolyline
  3
"AutoCAD"
 90
        0
280
     0
281
     1
  0
CLASS
  1
IMAGE
  2
AcDbRasterImage
  3
ISM
 90
      127
280
     0
281
     1
  0
CLASS
  1
OLE2FRAME
  2
AcDbOle2Frame
  3
""
 90
        0
280
     0
281
     1
  0
CLASS
  1
HATCH
  2
AcDbHatch
  3
"ACAD_SEDONA"
 90
        0
280
     0
281
     1
  0
CLASS
  1
DICTIONARYVAR
  2
AcDbDictionaryVar
  3
"AutoCAD"
 90
        0
280
     0
281
     0
  0
CLASS
  1
RASTERVARIABLES
  2
AcDbRasterVariables
  3
ISM
 90
        0
280
     0
281
     0
  0
CLASS
  1
IMAGEDEF
  2
AcDbRasterImageDef
  3
ISM
 90
        0
280
     0
281
     0
  0
CLASS
  1
IMAGEDEF_REACTOR
  2
AcDbRasterImageDefReactor
  3
ISM
 90
        1
280
     0
281
     0
  0
CLASS
  1
IDBUFFER
  2
AcDbIdBuffer
  3
"Acad"
 90
        0
280
     0
281
     0
  0
CLASS
  1
SPATIAL_FILTER
  2
AcDbSpatialFilter
  3
"Acad"
 90
        0
280
     0
281
     0
  0
CLASS
  1
XRECORD
  2
AcDbXrecord
  3
"<Built In>"
 90
        0
280
     0
281
     0
  0
CLASS
  1
SORTENTSTABLE
  2
AcDbSortentsTable
  3
"AutoCAD"
 90
        0
280
     0
281
     0
  0
CLASS
  1
LAYER_INDEX
  2
AcDbLayerIndex
  3
"Acad"
 90
        0
280
     0
281
     0
  0
CLASS
  1
SPATIAL_INDEX
  2
AcDbSpatialIndex
  3
"Acad"
 90
        0
280
     0
281
     0
  0
CLASS
  1
OBJECT_PTR
  2
CAseDLPNTableRecord
  3
"ASE-LPNTableRecord"
 90
        1
280
     0
281
     0
  0
CLASS
  1
LAYOUT
  2
AcDbLayout
  3
"AutoCAD 2000"
 90
        1
280
     0
281
     0
  0
CLASS
  1
PLOTSETTINGS
  2
AcDbPlotSettings
  3
"AutoCAD 2000"
 90
        1
280
     0
281
     0
  0
CLASS
  1
ACDBDICTIONARYWDFLT
  2
AcDbDictionaryWithDefault
  3
"AutoCAD 2000"
 90
        1
280
     0
281
     0
  0
CLASS
  1
ACDBPLACEHOLDER
  2
AcDbPlaceHolder
  3
"AutoCAD 2000"
 90
        1
280
     0
281
     0
  0
CLASS
  1
VBA_PROJECT
  2
AcDbVbaProject
  3
"acadvba"
 90
        1
280
     0
281
     0
  0
CLASS
  1
WIPEOUT
  2
AcDbWipeout
  3
WipeOut|AutoCAD Express Tool|expresstools@autodesk.com
 90
      127
280
     0
281
     1
  0
CLASS
  1
WIPEOUTVARIABLES
  2
AcDbWipeoutVariables
  3
WipeOut|AutoCAD Express Tool|expresstools@autodesk.com
 90
        0
280
     0
281
     0
  0
CLASS
  1
RTEXT
  2
RText
  3
RText|AutoCAD Express Tool|expresstools@autodesk.com
 90
        0
280
     0
281
     1
  0
CLASS
  1
ARCALIGNEDTEXT
  2
AcDbArcAlignedText
  3
ATEXT|AutoCAD Express Tool|expresstools@autodesk.com
 90
        0
280
     0
281
     1
  0
ENDSEC
  0
SECTION
  2
TABLES
  0
TABLE
  2
VPORT
  5
7
100
AcDbSymbolTable
 70
     1
  0
VPORT
  5
15
100
AcDbSymbolTableRecord
100
AcDbViewportTableRecord
  2
*ACTIVE
 70
     0
 10
0.0
 20
0.0
 11
1.0
 21
1.0
 12
6.591288
 22
4.579184
 13
0.0
 23
0.0
 14
1.0
 24
1.0
 15
0.0
 25
0.0
 16
0.0
 26
0.0
 36
1.0
 17
0.0
 27
0.0
 37
0.0
 40
9.158369
 41
0.688564
 42
50.0
 43
0.0
 44
0.0
 50
0.0
 51
0.0
 71
     0
 72
   100
 73
     1
 74
     1
 75
     0
 76
     0
 77
     0
 78
     0
281
     0
 65
     0
110
0.0
120
0.0
130
0.0
111
1.0
121
0.0
131
0.0
112
0.0
122
1.0
132
0.0
345
0
346
0
 79
     0
146
0.0
  0
ENDTAB
  0
TABLE
  2
LTYPE
  5
4
100
AcDbSymbolTable
 70
     7
  0
LTYPE
  5
11
100
AcDbSymbolTableRecord
100
AcDbLinetypeTableRecord
  2
ByBlock
 70
    64
  3

 72
    65
 73
     0
 40
0.0
  0
LTYPE
  5
12
100
AcDbSymbolTableRecord
100
AcDbLinetypeTableRecord
  2
ByLayer
 70
    64
  3

 72
    65
 73
     0
 40
0.0
  0
LTYPE
  5
13
100
AcDbSymbolTableRecord
100
AcDbLinetypeTableRecord
  2
Continuous
 70
    64
  3
Solid line
 72
    65
 73
     0
 40
0.0
  0
LTYPE
  5
24
100
AcDbSymbolTableRecord
100
AcDbLinetypeTableRecord
  2
HIDDEN
 70
    64
  3
_ _ _ _ _ _ _ _ _ _ _ _ _ _ _ _ _ _ _ _ _ _ _ _
 72
    65
 73
     2
 40
0.1875
 49
0.125
 74
     0
 49
-0.0625
 74
     0
  0
LTYPE
  5
25
100
AcDbSymbolTableRecord
100
AcDbLinetypeTableRecord
  2
DOTTED
 70
    64
  3
...............................................
 72
    65
 73
     2
 40
0.125
 49
0.0
 74
     0
 49
-0.125
 74
     0
  0
LTYPE
  5
26
100
AcDbSymbolTableRecord
100
AcDbLinetypeTableRecord
  2
CENTER
 70
    64
  3
____ _ ____ _ ____ _ ____ _ ____ _ ____ _ ____ 
 72
    65
 73
     4
 40
1.125
 49
0.75
 74
     0
 49
-0.125
 74
     0
 49
0.125
 74
     0
 49
-0.125
 74
     0
  0
LTYPE
  5
27
100
AcDbSymbolTableRecord
100
AcDbLinetypeTableRecord
  2
PHANTOM
 70
    64
  3
______  __  __  ______  __  __  ______  __  __ 
 72
    65
 73
     6
 40
1.25
 49
0.625
 74
     0
 49
-0.125
 74
     0
 49
0.125
 74
     0
 49
-0.125
 74
     0
 49
0.125
 74
     0
 49
-0.125
 74
     0
  0
ENDTAB
  0
TABLE
  2
LAYER
  5
2
100
AcDbSymbolTable
 70
     2
  0
LAYER
  5
14
100
AcDbSymbolTableRecord
100
AcDbLayerTableRecord
  2
0
 70
     0
 62
     7
  6
Continuous
290
     1
370
    -3
390
1D
  0
LAYER
  5
28
100
AcDbSymbolTableRecord
100
AcDbLayerTableRecord
  2
TEXT
 70
     0
 62
     8
  6
Continuous
290
     1
370
    -3
390
1F
  0
ENDTAB
  0
TABLE
  2
STYLE
  5
3
100
AcDbSymbolTable
 70
     1
  0
STYLE
  5
17
100
AcDbSymbolTableRecord
100
AcDbTextStyleTableRecord
  2
Standard
 70
     0
 40
0.0
 41
1.0
 50
0.0
 71
     0
 42
0.0
  3
txt
  4

  0
ENDTAB
  0
TABLE
  2
VIEW
  5
5
100
AcDbSymbolTable
 70
     0
  0
ENDTAB
  0
TABLE
  2
UCS
  5
6
100
AcDbSymbolTable
 70
     0
  0
ENDTAB
  0
TABLE
  2
APPID
  5
8
100
AcDbSymbolTable
 70
     1
  0
APPID
  5
16
100
AcDbSymbolTableRecord
100
AcDbRegAppTableRecord
  2
ACAD
 70
     0
  0
ENDTAB
  0
TABLE
  2
DIMSTYLE
  5
9
100
AcDbSymbolTable
 70
     1
100
AcDbDimStyleTable
 71
     0
  0
DIMSTYLE
105
18
100
AcDbSymbolTableRecord
100
AcDbDimStyleTableRecord
  2
Standard
 70
     0
  3

  4

 40
1.0
 41
0.18
 42
0.0625
 43
0.38
 44
0.18
 45
0.0
 46
0.0
 47
0.0
 48
0.0
 71
     0
 72
     0
 73
     1
 74
     1
 75
     0
 76
     0
 77
     0
 78
     0
 79
     0
140
0.18
141
0.09
142
0.0
143
25.4
144
1.0
145
0.0
146
1.0
147
0.09
148
0.0
170
     0
171
     2
172
     0
173
     0
174
     0
175
     0
176
     0
177
     0
178
     0
179
     0
271
     4
272
     4
273
     2
274
     2
275
     0
276
     0
277
     2
278
    46
279
     0
280
     0
281
     0
282
     0
283
     1
284
     0
285
     0
286
     0
288
     0
340
17
341
0
342
0
343
0
344
0
371
    -2
372
    -2
  0
ENDTAB
  0
TABLE
  2
BLOCK_RECORD
  5
1
100
AcDbSymbolTable
 70
    80
  0
BLOCK_RECORD
  5
A
100
AcDbSymbolTableRecord
100
AcDbBlockTableRecord
  2
*MODEL_SPACE
340
20
  0
BLOCK_RECORD
  5
B
100
AcDbSymbolTableRecord
100
AcDbBlockTableRecord
  2
*PAPER_SPACE
340
21
  0
BLOCK_RECORD
  5
29
100
AcDbSymbolTableRecord
100
AcDbBlockTableRecord
  2
*B0
340
0
  0
BLOCK_RECORD
  5
2C
100
AcDbSymbolTableRecord
100
AcDbBlockTableRecord
  2
*B1
340
0
  0
BLOCK_RECORD
  5
180
100
AcDbSymbolTableRecord
100
AcDbBlockTableRecord
  2
*B2
340
0
  0
BLOCK_RECORD
  5
186
100
AcDbSymbolTableRecord
100
AcDbBlockTableRecord
  2
*B3
340
0
  0
BLOCK_RECORD
  5
2FD
100
AcDbSymbolTableRecord
100
AcDbBlockTableRecord
  2
*B4
340
0
  0
BLOCK_RECORD
  5
304
100
AcDbSymbolTableRecord
100
AcDbBlockTableRecord
  2
*B5
340
0
  0
BLOCK_RECORD
  5
30B
100
AcDbSymbolTableRecord
100
AcDbBlockTableRecord
  2
*B6
340
0
  0
BLOCK_RECORD
  5
312
100
AcDbSymbolTableRecord
100
AcDbBlockTableRecord
  2
*B7
340
0
  0
BLOCK_RECORD
  5
319
100
AcDbSymbolTableRecord
100
AcDbBlockTableRecord
  2
*B8
340
0
  0
BLOCK_RECORD
  5
320
100
AcDbSymbolTableRecord
100
AcDbBlockTableRecord
  2
*B9
340
0
  0
BLOCK_RECORD
  5
327
100
AcDbSymbolTableRecord
100
AcDbBlockTableRecord
  2
*B10
340
0
  0
BLOCK_RECORD
  5
32E
100
AcDbSymbolTableRecord
100
AcDbBlockTableRecord
  2
*B11
340
0
  0
BLOCK_RECORD
  5
335
100
AcDbSymbolTableRecord
100
AcDbBlockTableRecord
  2
*B12
340
0
  0
BLOCK_RECORD
  5
33C
100
AcDbSymbolTableRecord
100
AcDbBlockTableRecord
  2
*B13
340
0
  0
BLOCK_RECORD
  5
343
100
AcDbSymbolTableRecord
100
AcDbBlockTableRecord
  2
*B14
340
0
  0
BLOCK_RECORD
  5
34A
100
AcDbSymbolTableRecord
100
AcDbBlockTableRecord
  2
*B15
340
0
  0
BLOCK_RECORD
  5
351
100
AcDbSymbolTableRecord
100
AcDbBlockTableRecord
  2
*B16
340
0
  0
BLOCK_RECORD
  5
358
100
AcDbSymbolTableRecord
100
AcDbBlockTableRecord
  2
*B17
340
0
  0
BLOCK_RECORD
  5
35F
100
AcDbSymbolTableRecord
100
AcDbBlockTableRecord
  2
*B18
340
0
  0
BLOCK_RECORD
  5
366
100
AcDbSymbolTableRecord
100
AcDbBlockTableRecord
  2
*B19
340
0
  0
BLOCK_RECORD
  5
36D
100
AcDbSymbolTableRecord
100
AcDbBlockTableRecord
  2
*B20
340
0
  0
BLOCK_RECORD
  5
373
100
AcDbSymbolTableRecord
100
AcDbBlockTableRecord
  2
*B21
340
0
  0
BLOCK_RECORD
  5
378
100
AcDbSymbolTableRecord
100
AcDbBlockTableRecord
  2
*B22
340
0
  0
BLOCK_RECORD
  5
37D
100
AcDbSymbolTableRecord
100
AcDbBlockTableRecord
  2
*B23
340
0
  0
BLOCK_RECORD
  5
382
100
AcDbSymbolTableRecord
100
AcDbBlockTableRecord
  2
*B24
340
0
  0
BLOCK_RECORD
  5
388
100
AcDbSymbolTableRecord
100
AcDbBlockTableRecord
  2
*B25
340
0
  0
BLOCK_RECORD
  5
390
100
AcDbSymbolTableRecord
100
AcDbBlockTableRecord
  2
*B26
340
0
  0
BLOCK_RECORD
  5
398
100
AcDbSymbolTableRecord
100
AcDbBlockTableRecord
  2
*B27
340
0
  0
BLOCK_RECORD
  5
3A0
100
AcDbSymbolTableRecord
100
AcDbBlockTableRecord
  2
*B28
340
0
  0
BLOCK_RECORD
  5
3A6
100
AcDbSymbolTableRecord
100
AcDbBlockTableRecord
  2
*B29
340
0
  0
BLOCK_RECORD
  5
3B3
100
AcDbSymbolTableRecord
100
AcDbBlockTableRecord
  2
*B30
340
0
  0
BLOCK_RECORD
  5
3B8
100
AcDbSymbolTableRecord
100
AcDbBlockTableRecord
  2
*B31
340
0
  0
BLOCK_RECORD
  5
3BE
100
AcDbSymbolTableRecord
100
AcDbBlockTableRecord
  2
*B32
340
0
  0
BLOCK_RECORD
  5
3C3
100
AcDbSymbolTableRecord
100
AcDbBlockTableRecord
  2
*B33
340
0
  0
BLOCK_RECORD
  5
3CA
100
AcDbSymbolTableRecord
100
AcDbBlockTableRecord
  2
*B34
340
0
  0
BLOCK_RECORD
  5
3CF
100
AcDbSymbolTableRecord
100
AcDbBlockTableRecord
  2
*B35
340
0
  0
BLOCK_RECORD
  5
3D4
100
AcDbSymbolTableRecord
100
AcDbBlockTableRecord
  2
*B36
340
0
  0
BLOCK_RECORD
  5
3D9
100
AcDbSymbolTableRecord
100
AcDbBlockTableRecord
  2
*B37
340
0
  0
BLOCK_RECORD
  5
3E6
100
AcDbSymbolTableRecord
100
AcDbBlockTableRecord
  2
*B38
340
0
  0
BLOCK_RECORD
  5
3EB
100
AcDbSymbolTableRecord
100
AcDbBlockTableRecord
  2
*B39
340
0
  0
BLOCK_RECORD
  5
3F6
100
AcDbSymbolTableRecord
100
AcDbBlockTableRecord
  2
*B40
340
0
  0
BLOCK_RECORD
  5
3FC
100
AcDbSymbolTableRecord
100
AcDbBlockTableRecord
  2
*B41
340
0
  0
BLOCK_RECORD
  5
409
100
AcDbSymbolTableRecord
100
AcDbBlockTableRecord
  2
*B42
340
0
  0
BLOCK_RECORD
  5
40E
100
AcDbSymbolTableRecord
100
AcDbBlockTableRecord
  2
*B43
340
0
  0
BLOCK_RECORD
  5
414
100
AcDbSymbolTableRecord
100
AcDbBlockTableRecord
  2
*B44
340
0
  0
BLOCK_RECORD
  5
419
100
AcDbSymbolTableRecord
100
AcDbBlockTableRecord
  2
*B45
340
0
  0
BLOCK_RECORD
  5
41E
100
AcDbSymbolTableRecord
100
AcDbBlockTableRecord
  2
*B46
340
0
  0
BLOCK_RECORD
  5
42D
100
AcDbSymbolTableRecord
100
AcDbBlockTableRecord
  2
*B47
340
0
  0
BLOCK_RECORD
  5
432
100
AcDbSymbolTableRecord
100
AcDbBlockTableRecord
  2
*B48
340
0
  0
BLOCK_RECORD
  5
437
100
AcDbSymbolTableRecord
100
AcDbBlockTableRecord
  2
*B49
340
0
  0
BLOCK_RECORD
  5
43C
100
AcDbSymbolTableRecord
100
AcDbBlockTableRecord
  2
*B50
340
0
  0
BLOCK_RECORD
  5
441
100
AcDbSymbolTableRecord
100
AcDbBlockTableRecord
  2
*B51
340
0
  0
BLOCK_RECORD
  5
446
100
AcDbSymbolTableRecord
100
AcDbBlockTableRecord
  2
*B52
340
0
  0
BLOCK_RECORD
  5
44B
100
AcDbSymbolTableRecord
100
AcDbBlockTableRecord
  2
*B53
340
0
  0
BLOCK_RECORD
  5
454
100
AcDbSymbolTableRecord
100
AcDbBlockTableRecord
  2
*B54
340
0
  0
BLOCK_RECORD
  5
45B
100
AcDbSymbolTableRecord
100
AcDbBlockTableRecord
  2
*B55
340
0
  0
BLOCK_RECORD
  5
461
100
AcDbSymbolTableRecord
100
AcDbBlockTableRecord
  2
*B56
340
0
  0
BLOCK_RECORD
  5
467
100
AcDbSymbolTableRecord
100
AcDbBlockTableRecord
  2
*B57
340
0
  0
BLOCK_RECORD
  5
46D
100
AcDbSymbolTableRecord
100
AcDbBlockTableRecord
  2
*B58
340
0
  0
BLOCK_RECORD
  5
473
100
AcDbSymbolTableRecord
100
AcDbBlockTableRecord
  2
*B59
340
0
  0
BLOCK_RECORD
  5
479
100
AcDbSymbolTableRecord
100
AcDbBlockTableRecord
  2
*B60
340
0
  0
BLOCK_RECORD
  5
47F
100
AcDbSymbolTableRecord
100
AcDbBlockTableRecord
  2
*B61
340
0
  0
BLOCK_RECORD
  5
484
100
AcDbSymbolTableRecord
100
AcDbBlockTableRecord
  2
*B62
340
0
  0
BLOCK_RECORD
  5
489
100
AcDbSymbolTableRecord
100
AcDbBlockTableRecord
  2
*B63
340
0
  0
BLOCK_RECORD
  5
48E
100
AcDbSymbolTableRecord
100
AcDbBlockTableRecord
  2
*B64
340
0
  0
BLOCK_RECORD
  5
493
100
AcDbSymbolTableRecord
100
AcDbBlockTableRecord
  2
*B65
340
0
  0
BLOCK_RECORD
  5
498
100
AcDbSymbolTableRecord
100
AcDbBlockTableRecord
  2
*B66
340
0
  0
BLOCK_RECORD
  5
49D
100
AcDbSymbolTableRecord
100
AcDbBlockTableRecord
  2
*B67
340
0
  0
BLOCK_RECORD
  5
4A2
100
AcDbSymbolTableRecord
100
AcDbBlockTableRecord
  2
*B68
340
0
  0
BLOCK_RECORD
  5
4A7
100
AcDbSymbolTableRecord
100
AcDbBlockTableRecord
  2
*B69
340
0
  0
BLOCK_RECORD
  5
4AC
100
AcDbSymbolTableRecord
100
AcDbBlockTableRecord
  2
*B70
340
0
  0
BLOCK_RECORD
  5
4B1
100
AcDbSymbolTableRecord
100
AcDbBlockTableRecord
  2
*B71
340
0
  0
BLOCK_RECORD
  5
4B7
100
AcDbSymbolTableRecord
100
AcDbBlockTableRecord
  2
*B72
340
0
  0
BLOCK_RECORD
  5
4BD
100
AcDbSymbolTableRecord
100
AcDbBlockTableRecord
  2
*B73
340
0
  0
BLOCK_RECORD
  5
4C2
100
AcDbSymbolTableRecord
100
AcDbBlockTableRecord
  2
*B74
340
0
  0
BLOCK_RECORD
  5
4C7
100
AcDbSymbolTableRecord
100
AcDbBlockTableRecord
  2
*B75
340
0
  0
BLOCK_RECORD
  5
4CC
100
AcDbSymbolTableRecord
100
AcDbBlockTableRecord
  2
*B76
340
0
  0
BLOCK_RECORD
  5
4D1
100
AcDbSymbolTableRecord
100
AcDbBlockTableRecord
  2
*B77
340
0
  0
BLOCK_RECORD
  5
4D6
100
AcDbSymbolTableRecord
100
AcDbBlockTableRecord
  2
*B78
340
0
  0
BLOCK_RECORD
  5
4DB
100
AcDbSymbolTableRecord
100
AcDbBlockTableRecord
  2
*B79
340
0
  0
ENDTAB
  0
ENDSEC
  0
SECTION
  2
BLOCKS
  0
BLOCK
  5
D
100
AcDbEntity
  8
0
100
AcDbBlockBegin
  2
*MODEL_SPACE
 70
     0
 10
0.0
 20
0.0
 30
0.0
  3
*MODEL_SPACE
  1

  0
ENDBLK
  5
E
100
AcDbEntity
  8
0
100
AcDbBlockEnd
  0
BLOCK
  5
F
100
AcDbEntity
 67
     1
  8
0
100
AcDbBlockBegin
  2
*PAPER_SPACE
 70
     0
 10
0.0
 20
0.0
 30
0.0
  3
*PAPER_SPACE
  1

  0
ENDBLK
  5
10
100
AcDbEntity
 67
     1
  8
0
100
AcDbBlockEnd
  0
BLOCK
  5
2A
100
AcDbEntity
  8
0
100
AcDbBlockBegin
  2
*B0
 70
     0
 10
0.0
 20
0.0
 30
0.0
  3
*B0
  1

  0
ENDBLK
  5
2B
100
AcDbEntity
  8
0
100
AcDbBlockEnd
  0
BLOCK
  5
2D
100
AcDbEntity
  8
0
100
AcDbBlockBegin
  2
*B1
 70
     0
 10
0.0
 20
0.0
 30
0.0
  3
*B1
  1

  0
ARC
  5
2E
100
AcDbEntity
  8
0
  6
HIDDEN
 62
   174
100
AcDbCircle
 10
199.574162
 20
103.186487
 30
0.0
 40
7.5
100
AcDbArc
 50
90.0
 51
270.0
  0
ARC
  5
2F
100
AcDbEntity
  8
0
  6
HIDDEN
 62
   174
100
AcDbCircle
 10
199.574162
 20
103.186487
 30
0.0
 40
7.5
100
AcDbArc
 50
-90.0
 51
90.0
  0
ARC
  5
30
100
AcDbEntity
  8
0
  6
HIDDEN
 62
   174
100
AcDbCircle
 10
167.574162
 20
103.186487
 30
0.0
 40
7.5
100
AcDbArc
 50
90.0
 51
270.0
  0
ARC
  5
31
100
AcDbEntity
  8
0
  6
HIDDEN
 62
   174
100
AcDbCircle
 10
167.574162
 20
103.186487
 30
0.0
 40
7.5
100
AcDbArc
 50
-90.0
 51
90.0
  0
ARC
  5
32
100
AcDbEntity
  8
0
  6
Continuous
 62
   174
100
AcDbCircle
 10
165.574162
 20
131.186487
 30
0.0
 40
3.0
100
AcDbArc
 50
-90.0
 51
-73.941577
  0
ARC
  5
33
100
AcDbEntity
  8
0
  6
Continuous
 62
   174
100
AcDbCircle
 10
165.574162
 20
131.186487
 30
0.0
 40
3.0
100
AcDbArc
 50
-127.832538
 51
-90.0
  0
ARC
  5
34
100
AcDbEntity
  8
0
  6
Continuous
 62
   174
100
AcDbCircle
 10
165.574162
 20
131.186487
 30
0.0
 40
3.0
100
AcDbArc
 50
-135.106669
 51
-127.832538
  0
ARC
  5
35
100
AcDbEntity
  8
0
  6
Continuous
 62
   174
100
AcDbCircle
 10
165.574162
 20
131.186487
 30
0.0
 40
3.0
100
AcDbArc
 50
-171.74626
 51
-135.106669
  0
ARC
  5
36
100
AcDbEntity
  8
0
  6
Continuous
 62
   174
100
AcDbCircle
 10
165.574162
 20
131.186487
 30
0.0
 40
3.0
100
AcDbArc
 50
-178.466496
 51
-171.74626
  0
ARC
  5
37
100
AcDbEntity
  8
0
  6
Continuous
 62
   174
100
AcDbCircle
 10
165.574162
 20
131.186487
 30
0.0
 40
3.0
100
AcDbArc
 50
-213.410716
 51
-178.466496
  0
ARC
  5
38
100
AcDbEntity
  8
0
  6
Continuous
 62
   174
100
AcDbCircle
 10
165.574162
 20
131.186487
 30
0.0
 40
3.0
100
AcDbArc
 50
-217.183587
 51
-213.410716
  0
ARC
  5
39
100
AcDbEntity
  8
0
  6
Continuous
 62
   174
100
AcDbCircle
 10
165.574162
 20
131.186487
 30
0.0
 40
3.0
100
AcDbArc
 50
-253.941577
 51
-217.183587
  0
ARC
  5
3A
100
AcDbEntity
  8
0
  6
Continuous
 62
   174
100
AcDbCircle
 10
165.574162
 20
131.186487
 30
0.0
 40
3.0
100
AcDbArc
 50
-270.0
 51
-253.941577
  0
LINE
  5
3B
100
AcDbEntity
  8
0
  6
HIDDEN
 62
   174
100
AcDbLine
 10
196.574162
 20
63.201183
 30
0.0
 11
196.574162
 21
73.20052
 31
0.0
  0
LINE
  5
3C
100
AcDbEntity
  8
0
  6
HIDDEN
 62
   174
100
AcDbLine
 10
208.574162
 20
63.201183
 30
0.0
 11
208.574162
 21
73.20052
 31
0.0
  0
LINE
  5
3D
100
AcDbEntity
  8
0
  6
HIDDEN
 62
   174
100
AcDbLine
 10
196.574162
 20
73.186487
 30
0.0
 11
208.574162
 21
73.186487
 31
0.0
  0
ARC
  5
3E
100
AcDbEntity
  8
0
  6
Continuous
 62
   174
100
AcDbCircle
 10
203.860772
 20
144.044236
 30
0.0
 40
3.0
100
AcDbArc
 50
-324.311859
 51
-314.575429
  0
ARC
  5
3F
100
AcDbEntity
  8
0
  6
Continuous
 62
   174
100
AcDbCircle
 10
203.860772
 20
144.044236
 30
0.0
 40
3.0
100
AcDbArc
 50
-347.142857
 51
-341.393802
  0
ARC
  5
40
100
AcDbEntity
  8
0
  6
Continuous
 62
   174
100
AcDbCircle
 10
203.860772
 20
144.044236
 30
0.0
 40
3.0
100
AcDbArc
 50
-169.670948
 51
-168.343449
  0
LINE
  5
41
100
AcDbEntity
  8
0
  6
HIDDEN
 62
   174
100
AcDbLine
 10
208.574162
 20
92.386487
 30
0.0
 11
193.574162
 21
92.386487
 31
0.0
  0
LINE
  5
42
100
AcDbEntity
  8
0
  6
HIDDEN
 62
   174
100
AcDbLine
 10
196.574162
 20
83.986487
 30
0.0
 11
208.574162
 21
83.986487
 31
0.0
  0
ARC
  5
43
100
AcDbEntity
  8
0
  6
HIDDEN
 62
   174
100
AcDbCircle
 10
203.860772
 20
144.044236
 30
0.0
 40
3.0
100
AcDbArc
 50
196.149453
 51
225.096771
  0
LINE
  5
44
100
AcDbEntity
  8
0
  6
HIDDEN
 62
   174
100
AcDbLine
 10
170.574162
 20
83.186487
 30
0.0
 11
158.574162
 21
83.186487
 31
0.0
  0
ARC
  5
45
100
AcDbEntity
  8
0
  6
Continuous
 62
   174
100
AcDbCircle
 10
165.574162
 20
131.186487
 30
0.0
 40
3.0
100
AcDbArc
 50
-315.106669
 51
-307.832538
  0
LINE
  5
46
100
AcDbEntity
  8
0
  6
HIDDEN
 62
   174
100
AcDbLine
 10
208.574162
 20
63.986487
 30
0.0
 11
193.574162
 21
63.986487
 31
0.0
  0
LINE
  5
47
100
AcDbEntity
  8
0
  6
HIDDEN
 62
   174
100
AcDbLine
 10
196.574162
 20
72.386487
 30
0.0
 11
208.574162
 21
72.386487
 31
0.0
  0
ARC
  5
48
100
AcDbEntity
  8
0
  6
Continuous
 62
   174
100
AcDbCircle
 10
203.860772
 20
144.044236
 30
0.0
 40
3.0
100
AcDbArc
 50
-270.0
 51
-265.227008
  0
ARC
  5
49
100
AcDbEntity
  8
0
  6
Continuous
 62
   174
100
AcDbCircle
 10
203.860772
 20
144.044236
 30
0.0
 40
3.0
100
AcDbArc
 50
-341.393802
 51
-324.311859
  0
ARC
  5
4A
100
AcDbEntity
  8
0
  6
Continuous
 62
   174
100
AcDbCircle
 10
203.860772
 20
144.044236
 30
0.0
 40
3.0
100
AcDbArc
 50
-134.575429
 51
-119.690508
  0
ARC
  5
4B
100
AcDbEntity
  8
0
  6
Continuous
 62
   174
100
AcDbCircle
 10
203.860772
 20
144.044236
 30
0.0
 40
3.0
100
AcDbArc
 50
-168.343449
 51
-167.142857
  0
ARC
  5
4C
100
AcDbEntity
  8
0
  6
Continuous
 62
   174
100
AcDbCircle
 10
203.860772
 20
144.044236
 30
0.0
 40
3.0
100
AcDbArc
 50
-250.672154
 51
-240.914194
  0
LINE
  5
4D
100
AcDbEntity
  8
0
  6
HIDDEN
 62
   174
100
AcDbLine
 10
158.574162
 20
73.986487
 30
0.0
 11
173.574162
 21
73.986487
 31
0.0
  0
ARC
  5
4E
100
AcDbEntity
  8
0
  6
Continuous
 62
   174
100
AcDbCircle
 10
165.574162
 20
131.186487
 30
0.0
 40
3.0
100
AcDbArc
 50
-307.832538
 51
-270.0
  0
ARC
  5
4F
100
AcDbEntity
  8
0
  6
Continuous
 62
   174
100
AcDbCircle
 10
165.574162
 20
131.186487
 30
0.0
 40
3.0
100
AcDbArc
 50
-73.941577
 51
-37.183587
  0
LINE
  5
50
100
AcDbEntity
  8
0
  6
HIDDEN
 62
   174
100
AcDbLine
 10
208.574162
 20
63.986487
 30
0.0
 11
193.574162
 21
63.986487
 31
0.0
  0
LINE
  5
51
100
AcDbEntity
  8
0
  6
HIDDEN
 62
   174
100
AcDbLine
 10
208.574162
 20
72.386487
 30
0.0
 11
193.574162
 21
72.386487
 31
0.0
  0
ARC
  5
52
100
AcDbEntity
  8
0
  6
Continuous
 62
   174
100
AcDbCircle
 10
203.860772
 20
144.044236
 30
0.0
 40
3.0
100
AcDbArc
 50
-314.575429
 51
-299.690508
  0
ARC
  5
53
100
AcDbEntity
  8
0
  6
Continuous
 62
   174
100
AcDbCircle
 10
203.860772
 20
144.044236
 30
0.0
 40
3.0
100
AcDbArc
 50
-85.227008
 51
-70.672154
  0
ARC
  5
54
100
AcDbEntity
  8
0
  6
Continuous
 62
   174
100
AcDbCircle
 10
203.860772
 20
144.044236
 30
0.0
 40
3.0
100
AcDbArc
 50
-90.0
 51
-85.227008
  0
ARC
  5
55
100
AcDbEntity
  8
0
  6
Continuous
 62
   174
100
AcDbCircle
 10
203.860772
 20
144.044236
 30
0.0
 40
3.0
100
AcDbArc
 50
-95.658715
 51
-90.0
  0
ARC
  5
56
100
AcDbEntity
  8
0
  6
Continuous
 62
   174
100
AcDbCircle
 10
203.860772
 20
144.044236
 30
0.0
 40
3.0
100
AcDbArc
 50
-119.690508
 51
-110.227099
  0
LINE
  5
57
100
AcDbEntity
  8
0
  6
HIDDEN
 62
   174
100
AcDbLine
 10
196.574162
 20
83.186487
 30
0.0
 11
208.574162
 21
83.186487
 31
0.0
  0
LINE
  5
58
100
AcDbEntity
  8
0
  6
HIDDEN
 62
   174
100
AcDbLine
 10
193.574162
 20
83.999873
 30
0.0
 11
193.574162
 21
92.399393
 31
0.0
  0
LINE
  5
59
100
AcDbEntity
  8
0
  6
HIDDEN
 62
   174
100
AcDbLine
 10
170.574162
 20
73.186487
 30
0.0
 11
158.574162
 21
73.186487
 31
0.0
  0
LINE
  5
5A
100
AcDbEntity
  8
0
  6
HIDDEN
 62
   174
100
AcDbLine
 10
170.574162
 20
83.186487
 30
0.0
 11
158.574162
 21
83.186487
 31
0.0
  0
ARC
  5
5B
100
AcDbEntity
  8
0
  6
Continuous
 62
   174
100
AcDbCircle
 10
165.574162
 20
131.186487
 30
0.0
 40
3.0
100
AcDbArc
 50
-37.183587
 51
-33.410716
  0
LINE
  5
5C
100
AcDbEntity
  8
0
  6
HIDDEN
 62
   174
100
AcDbLine
 10
196.574162
 20
73.186487
 30
0.0
 11
208.574162
 21
73.186487
 31
0.0
  0
ARC
  5
5D
100
AcDbEntity
  8
0
  6
Continuous
 62
   174
100
AcDbCircle
 10
203.860772
 20
144.044236
 30
0.0
 40
3.0
100
AcDbArc
 50
-299.690508
 51
-290.227099
  0
ARC
  5
5E
100
AcDbEntity
  8
0
  6
Continuous
 62
   174
100
AcDbCircle
 10
203.860772
 20
144.044236
 30
0.0
 40
3.0
100
AcDbArc
 50
-70.672154
 51
-60.914194
  0
LINE
  5
5F
100
AcDbEntity
  8
0
  6
HIDDEN
 62
   174
100
AcDbLine
 10
196.574162
 20
83.20007
 30
0.0
 11
196.574162
 21
93.199408
 31
0.0
  0
ARC
  5
60
100
AcDbEntity
  8
0
  6
HIDDEN
 62
   174
100
AcDbCircle
 10
203.860772
 20
144.044236
 30
0.0
 40
3.0
100
AcDbArc
 50
0.0
 51
5.201479
  0
ARC
  5
61
100
AcDbEntity
  8
0
  6
HIDDEN
 62
   174
100
AcDbCircle
 10
203.860772
 20
144.044236
 30
0.0
 40
3.0
100
AcDbArc
 50
16.149453
 51
45.096771
  0
ARC
  5
62
100
AcDbEntity
  8
0
  6
HIDDEN
 62
   174
100
AcDbCircle
 10
203.860772
 20
144.044236
 30
0.0
 40
3.0
100
AcDbArc
 50
174.009144
 51
180.0
  0
LINE
  5
63
100
AcDbEntity
  8
0
  6
HIDDEN
 62
   174
100
AcDbLine
 10
158.574162
 20
82.386487
 30
0.0
 11
173.574162
 21
82.386487
 31
0.0
  0
LINE
  5
64
100
AcDbEntity
  8
0
  6
HIDDEN
 62
   174
100
AcDbLine
 10
158.574162
 20
73.986487
 30
0.0
 11
173.574162
 21
73.986487
 31
0.0
  0
LINE
  5
65
100
AcDbEntity
  8
0
  6
HIDDEN
 62
   174
100
AcDbLine
 10
170.574162
 20
73.986487
 30
0.0
 11
158.574162
 21
73.986487
 31
0.0
  0
ARC
  5
66
100
AcDbEntity
  8
0
  6
Continuous
 62
   174
100
AcDbCircle
 10
165.574162
 20
131.186487
 30
0.0
 40
3.0
100
AcDbArc
 50
-33.410716
 51
1.533504
  0
ARC
  5
67
100
AcDbEntity
  8
0
  6
Continuous
 62
   174
100
AcDbCircle
 10
203.860772
 20
144.044236
 30
0.0
 40
3.0
100
AcDbArc
 50
-110.227099
 51
-95.658715
  0
ARC
  5
68
100
AcDbEntity
  8
0
  6
Continuous
 62
   174
100
AcDbCircle
 10
203.860772
 20
144.044236
 30
0.0
 40
3.0
100
AcDbArc
 50
-167.142857
 51
-161.393802
  0
LINE
  5
69
100
AcDbEntity
  8
0
  6
HIDDEN
 62
   174
100
AcDbLine
 10
196.574162
 20
93.186487
 30
0.0
 11
208.574162
 21
93.186487
 31
0.0
  0
LINE
  5
6A
100
AcDbEntity
  8
0
  6
HIDDEN
 62
   174
100
AcDbLine
 10
208.574162
 20
92.386487
 30
0.0
 11
193.574162
 21
92.386487
 31
0.0
  0
LINE
  5
6B
100
AcDbEntity
  8
0
  6
HIDDEN
 62
   174
100
AcDbLine
 10
196.574162
 20
92.386487
 30
0.0
 11
208.574162
 21
92.386487
 31
0.0
  0
LINE
  5
6C
100
AcDbEntity
  8
0
  6
HIDDEN
 62
   174
100
AcDbLine
 10
196.574162
 20
92.386487
 30
0.0
 11
208.574162
 21
92.386487
 31
0.0
  0
LINE
  5
6D
100
AcDbEntity
  8
0
  6
HIDDEN
 62
   174
100
AcDbLine
 10
170.574162
 20
82.386487
 30
0.0
 11
158.574162
 21
82.386487
 31
0.0
  0
LINE
  5
6E
100
AcDbEntity
  8
0
  6
HIDDEN
 62
   174
100
AcDbLine
 10
196.574162
 20
63.986487
 30
0.0
 11
208.574162
 21
63.986487
 31
0.0
  0
LINE
  5
6F
100
AcDbEntity
  8
0
  6
HIDDEN
 62
   174
100
AcDbLine
 10
196.574162
 20
63.186487
 30
0.0
 11
208.574162
 21
63.186487
 31
0.0
  0
LINE
  5
70
100
AcDbEntity
  8
0
  6
HIDDEN
 62
   174
100
AcDbLine
 10
196.574162
 20
63.986487
 30
0.0
 11
208.574162
 21
63.986487
 31
0.0
  0
ARC
  5
71
100
AcDbEntity
  8
0
  6
Continuous
 62
   174
100
AcDbCircle
 10
203.860772
 20
144.044236
 30
0.0
 40
3.0
100
AcDbArc
 50
-290.227099
 51
-275.658715
  0
ARC
  5
72
100
AcDbEntity
  8
0
  6
Continuous
 62
   174
100
AcDbCircle
 10
203.860772
 20
144.044236
 30
0.0
 40
3.0
100
AcDbArc
 50
-60.914194
 51
-44.823593
  0
LINE
  5
73
100
AcDbEntity
  8
0
  6
HIDDEN
 62
   174
100
AcDbLine
 10
193.574162
 20
64.000985
 30
0.0
 11
193.574162
 21
72.400505
 31
0.0
  0
LINE
  5
74
100
AcDbEntity
  8
0
  6
HIDDEN
 62
   174
100
AcDbLine
 10
196.574162
 20
83.186487
 30
0.0
 11
208.574162
 21
83.186487
 31
0.0
  0
LINE
  5
75
100
AcDbEntity
  8
0
  6
HIDDEN
 62
   174
100
AcDbLine
 10
208.574162
 20
83.986487
 30
0.0
 11
193.574162
 21
83.986487
 31
0.0
  0
ARC
  5
76
100
AcDbEntity
  8
0
  6
HIDDEN
 62
   174
100
AcDbCircle
 10
203.860772
 20
144.044236
 30
0.0
 40
3.0
100
AcDbArc
 50
5.201479
 51
16.149453
  0
ARC
  5
77
100
AcDbEntity
  8
0
  6
HIDDEN
 62
   174
100
AcDbCircle
 10
203.860772
 20
144.044236
 30
0.0
 40
3.0
100
AcDbArc
 50
180.0
 51
185.201479
  0
LINE
  5
78
100
AcDbEntity
  8
0
  6
HIDDEN
 62
   174
100
AcDbLine
 10
170.574162
 20
73.186487
 30
0.0
 11
158.574162
 21
73.186487
 31
0.0
  0
ARC
  5
79
100
AcDbEntity
  8
0
  6
Continuous
 62
   174
100
AcDbCircle
 10
165.574162
 20
131.186487
 30
0.0
 40
3.0
100
AcDbArc
 50
-358.466496
 51
-351.74626
  0
LINE
  5
7A
100
AcDbEntity
  8
0
  6
HIDDEN
 62
   174
100
AcDbLine
 10
208.574162
 20
72.386487
 30
0.0
 11
193.574162
 21
72.386487
 31
0.0
  0
ARC
  5
7B
100
AcDbEntity
  8
0
  6
Continuous
 62
   174
100
AcDbCircle
 10
203.860772
 20
144.044236
 30
0.0
 40
3.0
100
AcDbArc
 50
-275.658715
 51
-270.0
  0
ARC
  5
7C
100
AcDbEntity
  8
0
  6
Continuous
 62
   174
100
AcDbCircle
 10
203.860772
 20
144.044236
 30
0.0
 40
3.0
100
AcDbArc
 50
-348.343449
 51
-347.142857
  0
ARC
  5
7D
100
AcDbEntity
  8
0
  6
Continuous
 62
   174
100
AcDbCircle
 10
203.860772
 20
144.044236
 30
0.0
 40
3.0
100
AcDbArc
 50
-349.670948
 51
-348.343449
  0
ARC
  5
7E
100
AcDbEntity
  8
0
  6
Continuous
 62
   174
100
AcDbCircle
 10
203.860772
 20
144.044236
 30
0.0
 40
3.0
100
AcDbArc
 50
-12.378318
 51
10.329052
  0
ARC
  5
7F
100
AcDbEntity
  8
0
  6
Continuous
 62
   174
100
AcDbCircle
 10
203.860772
 20
144.044236
 30
0.0
 40
3.0
100
AcDbArc
 50
-17.433028
 51
-12.378318
  0
ARC
  5
80
100
AcDbEntity
  8
0
  6
Continuous
 62
   174
100
AcDbCircle
 10
203.860772
 20
144.044236
 30
0.0
 40
3.0
100
AcDbArc
 50
-36.829261
 51
-17.433028
  0
ARC
  5
81
100
AcDbEntity
  8
0
  6
Continuous
 62
   174
100
AcDbCircle
 10
203.860772
 20
144.044236
 30
0.0
 40
3.0
100
AcDbArc
 50
-44.823593
 51
-36.829261
  0
ARC
  5
82
100
AcDbEntity
  8
0
  6
Continuous
 62
   174
100
AcDbCircle
 10
203.860772
 20
144.044236
 30
0.0
 40
3.0
100
AcDbArc
 50
-161.393802
 51
-144.311859
  0
ARC
  5
83
100
AcDbEntity
  8
0
  6
Continuous
 62
   174
100
AcDbCircle
 10
203.860772
 20
144.044236
 30
0.0
 40
3.0
100
AcDbArc
 50
-192.378318
 51
-169.670948
  0
ARC
  5
84
100
AcDbEntity
  8
0
  6
Continuous
 62
   174
100
AcDbCircle
 10
203.860772
 20
144.044236
 30
0.0
 40
3.0
100
AcDbArc
 50
-197.433028
 51
-192.378318
  0
ARC
  5
85
100
AcDbEntity
  8
0
  6
Continuous
 62
   174
100
AcDbCircle
 10
203.860772
 20
144.044236
 30
0.0
 40
3.0
100
AcDbArc
 50
-216.829261
 51
-197.433028
  0
ARC
  5
86
100
AcDbEntity
  8
0
  6
Continuous
 62
   174
100
AcDbCircle
 10
203.860772
 20
144.044236
 30
0.0
 40
3.0
100
AcDbArc
 50
-224.823593
 51
-216.829261
  0
ARC
  5
87
100
AcDbEntity
  8
0
  6
Continuous
 62
   174
100
AcDbCircle
 10
203.860772
 20
144.044236
 30
0.0
 40
3.0
100
AcDbArc
 50
-240.914194
 51
-224.823593
  0
ARC
  5
88
100
AcDbEntity
  8
0
  6
Continuous
 62
   174
100
AcDbCircle
 10
203.860772
 20
144.044236
 30
0.0
 40
3.0
100
AcDbArc
 50
-265.227008
 51
-250.672154
  0
LINE
  5
89
100
AcDbEntity
  8
0
  6
HIDDEN
 62
   174
100
AcDbLine
 10
208.574162
 20
83.986487
 30
0.0
 11
193.574162
 21
83.986487
 31
0.0
  0
ARC
  5
8A
100
AcDbEntity
  8
0
  6
HIDDEN
 62
   174
100
AcDbCircle
 10
203.860772
 20
144.044236
 30
0.0
 40
3.0
100
AcDbArc
 50
45.096771
 51
157.862016
  0
ARC
  5
8B
100
AcDbEntity
  8
0
  6
HIDDEN
 62
   174
100
AcDbCircle
 10
203.860772
 20
144.044236
 30
0.0
 40
3.0
100
AcDbArc
 50
157.862016
 51
174.009144
  0
ARC
  5
8C
100
AcDbEntity
  8
0
  6
HIDDEN
 62
   174
100
AcDbCircle
 10
203.860772
 20
144.044236
 30
0.0
 40
3.0
100
AcDbArc
 50
185.201479
 51
196.149453
  0
ARC
  5
8D
100
AcDbEntity
  8
0
  6
HIDDEN
 62
   174
100
AcDbCircle
 10
203.860772
 20
144.044236
 30
0.0
 40
3.0
100
AcDbArc
 50
225.096771
 51
337.862016
  0
ARC
  5
8E
100
AcDbEntity
  8
0
  6
HIDDEN
 62
   174
100
AcDbCircle
 10
203.860772
 20
144.044236
 30
0.0
 40
3.0
100
AcDbArc
 50
337.862016
 51
354.009144
  0
ARC
  5
8F
100
AcDbEntity
  8
0
  6
Continuous
 62
   174
100
AcDbCircle
 10
165.574162
 20
131.186487
 30
0.0
 40
3.0
100
AcDbArc
 50
-351.74626
 51
-315.106669
  0
LINE
  5
90
100
AcDbEntity
  8
0
  6
HIDDEN
 62
   174
100
AcDbLine
 10
196.574162
 20
63.186487
 30
0.0
 11
208.574162
 21
63.186487
 31
0.0
  0
LINE
  5
91
100
AcDbEntity
  8
0
  6
HIDDEN
 62
   174
100
AcDbLine
 10
196.574162
 20
72.386487
 30
0.0
 11
208.574162
 21
72.386487
 31
0.0
  0
ARC
  5
92
100
AcDbEntity
  8
0
  6
Continuous
 62
   174
100
AcDbCircle
 10
203.860772
 20
144.044236
 30
0.0
 40
3.0
100
AcDbArc
 50
-144.311859
 51
-134.575429
  0
LINE
  5
93
100
AcDbEntity
  8
0
  6
HIDDEN
 62
   174
100
AcDbLine
 10
196.574162
 20
83.986487
 30
0.0
 11
208.574162
 21
83.986487
 31
0.0
  0
LINE
  5
94
100
AcDbEntity
  8
0
  6
HIDDEN
 62
   174
100
AcDbLine
 10
208.574162
 20
83.20007
 30
0.0
 11
208.574162
 21
93.199408
 31
0.0
  0
LINE
  5
95
100
AcDbEntity
  8
0
  6
HIDDEN
 62
   174
100
AcDbLine
 10
196.574162
 20
93.186487
 30
0.0
 11
208.574162
 21
93.186487
 31
0.0
  0
ARC
  5
96
100
AcDbEntity
  8
0
  6
HIDDEN
 62
   174
100
AcDbCircle
 10
203.860772
 20
144.044236
 30
0.0
 40
3.0
100
AcDbArc
 50
-5.990856
 51
0.0
  0
LINE
  5
97
100
AcDbEntity
  8
0
  6
HIDDEN
 62
   174
100
AcDbLine
 10
170.574162
 20
82.386487
 30
0.0
 11
158.574162
 21
82.386487
 31
0.0
  0
LINE
  5
98
100
AcDbEntity
  8
0
  6
HIDDEN
 62
   174
100
AcDbLine
 10
170.574162
 20
83.20007
 30
0.0
 11
170.574162
 21
73.20052
 31
0.0
  0
LINE
  5
99
100
AcDbEntity
  8
0
  6
HIDDEN
 62
   174
100
AcDbLine
 10
158.574162
 20
83.20007
 30
0.0
 11
158.574162
 21
73.20052
 31
0.0
  0
LINE
  5
9A
100
AcDbEntity
  8
0
  6
HIDDEN
 62
   174
100
AcDbLine
 10
158.574162
 20
82.386487
 30
0.0
 11
173.574162
 21
82.386487
 31
0.0
  0
LINE
  5
9B
100
AcDbEntity
  8
0
  6
HIDDEN
 62
   174
100
AcDbLine
 10
170.574162
 20
73.986487
 30
0.0
 11
158.574162
 21
73.986487
 31
0.0
  0
LINE
  5
9C
100
AcDbEntity
  8
0
  6
HIDDEN
 62
   174
100
AcDbLine
 10
172.574162
 20
124.324226
 30
0.0
 11
172.574162
 21
121.786487
 31
0.0
  0
ARC
  5
9D
100
AcDbEntity
  8
0
  6
HIDDEN
 62
   174
100
AcDbCircle
 10
165.574162
 20
131.186487
 30
0.0
 40
3.0
100
AcDbArc
 50
230.17691
 51
235.326874
  0
ARC
  5
9E
100
AcDbEntity
  8
0
  6
HIDDEN
 62
   174
100
AcDbCircle
 10
165.574162
 20
131.186487
 30
0.0
 40
3.0
100
AcDbArc
 50
86.851623
 51
103.48657
  0
ARC
  5
9F
100
AcDbEntity
  8
0
  6
HIDDEN
 62
   174
100
AcDbCircle
 10
203.860772
 20
144.044236
 30
0.0
 40
9.6
100
AcDbArc
 50
-125.116469
 51
-112.980118
  0
ARC
  5
A0
100
AcDbEntity
  8
0
  6
Continuous
 62
   174
100
AcDbCircle
 10
165.574162
 20
131.186487
 30
0.0
 40
3.0
100
AcDbArc
 50
8.392722
 51
44.738517
  0
LINE
  5
A1
100
AcDbEntity
  8
0
  6
HIDDEN
 62
   174
100
AcDbLine
 10
164.855487
 20
139.186487
 30
0.0
 11
159.293039
 21
138.178959
 31
0.0
  0
ARC
  5
A2
100
AcDbEntity
  8
0
  6
Continuous
 62
   174
100
AcDbCircle
 10
203.860772
 20
144.044236
 30
0.0
 40
3.0
100
AcDbArc
 50
323.101341
 51
342.617311
  0
LINE
  5
A3
100
AcDbEntity
  8
0
  6
HIDDEN
 62
   174
100
AcDbLine
 10
208.574162
 20
92.399393
 30
0.0
 11
208.574162
 21
83.999873
 31
0.0
  0
ARC
  5
A4
100
AcDbEntity
  8
0
  6
Continuous
 62
   174
100
AcDbCircle
 10
203.860772
 20
144.044236
 30
0.0
 40
9.6
100
AcDbArc
 50
-32.847351
 51
-29.890754
  0
ARC
  5
A5
100
AcDbEntity
  8
0
  6
Continuous
 62
   174
100
AcDbCircle
 10
165.574162
 20
131.186487
 30
0.0
 40
3.0
100
AcDbArc
 50
104.897465
 51
142.748347
  0
ARC
  5
A6
100
AcDbEntity
  8
0
  6
HIDDEN
 62
   174
100
AcDbCircle
 10
203.860772
 20
144.044236
 30
0.0
 40
8.0
100
AcDbArc
 50
280.266697
 51
303.419321
  0
ARC
  5
A7
100
AcDbEntity
  8
0
  6
Continuous
 62
   174
100
AcDbCircle
 10
199.574162
 20
103.186487
 30
0.0
 40
4.5
100
AcDbArc
 50
90.0
 51
270.0
  0
ARC
  5
A8
100
AcDbEntity
  8
0
  6
HIDDEN
 62
   174
100
AcDbCircle
 10
203.860772
 20
144.044236
 30
0.0
 40
10.0
100
AcDbArc
 50
-180.0
 51
-130.101603
  0
ARC
  5
A9
100
AcDbEntity
  8
0
  6
Continuous
 62
   174
100
AcDbCircle
 10
203.860772
 20
144.044236
 30
0.0
 40
9.6
100
AcDbArc
 50
0.0
 51
163.574525
  0
ARC
  5
AA
100
AcDbEntity
  8
0
  6
Continuous
 62
   174
100
AcDbCircle
 10
165.574162
 20
131.186487
 30
0.0
 40
3.0
100
AcDbArc
 50
181.404439
 51
188.392722
  0
ARC
  5
AB
100
AcDbEntity
  8
0
  6
HIDDEN
 62
   174
100
AcDbCircle
 10
203.860772
 20
144.044236
 30
0.0
 40
3.0
100
AcDbArc
 50
35.713514
 51
45.384372
  0
ARC
  5
AC
100
AcDbEntity
  8
0
  6
HIDDEN
 62
   174
100
AcDbCircle
 10
165.574162
 20
131.186487
 30
0.0
 40
3.0
100
AcDbArc
 50
44.619982
 51
50.17691
  0
LINE
  5
AD
100
AcDbEntity
  8
0
  6
HIDDEN
 62
   174
100
AcDbLine
 10
197.740518
 20
132.947706
 30
0.0
 11
179.04473
 21
129.56133
 31
0.0
  0
LINE
  5
AE
100
AcDbEntity
  8
0
  6
HIDDEN
 62
   174
100
AcDbLine
 10
172.574162
 20
131.247117
 30
0.0
 11
172.574162
 21
124.324226
 31
0.0
  0
LINE
  5
AF
100
AcDbEntity
  8
0
  6
HIDDEN
 62
   174
100
AcDbLine
 10
187.592252
 20
127.351639
 30
0.0
 11
183.592177
 21
127.351639
 31
0.0
  0
LINE
  5
B0
100
AcDbEntity
  8
0
  6
Continuous
 62
   174
100
AcDbLine
 10
187.592252
 20
127.351639
 30
0.0
 11
185.122955
 21
127.351639
 31
0.0
  0
ARC
  5
B1
100
AcDbEntity
  8
0
  6
HIDDEN
 62
   174
100
AcDbCircle
 10
165.574162
 20
131.186487
 30
0.0
 40
3.0
100
AcDbArc
 50
90.0
 51
101.683628
  0
ARC
  5
B2
100
AcDbEntity
  8
0
  6
HIDDEN
 62
   174
100
AcDbCircle
 10
203.860772
 20
144.044236
 30
0.0
 40
3.0
100
AcDbArc
 50
174.136769
 51
185.057598
  0
ARC
  5
B3
100
AcDbEntity
  8
0
  6
Continuous
 62
   174
100
AcDbCircle
 10
203.860772
 20
144.044236
 30
0.0
 40
3.0
100
AcDbArc
 50
215.713514
 51
225.384372
  0
ARC
  5
B4
100
AcDbEntity
  8
0
  6
HIDDEN
 62
   174
100
AcDbCircle
 10
165.574162
 20
131.186487
 30
0.0
 40
3.0
100
AcDbArc
 50
86.851623
 51
103.48657
  0
LINE
  5
B5
100
AcDbEntity
  8
0
  6
Continuous
 62
   174
100
AcDbLine
 10
183.592177
 20
127.351639
 30
0.0
 11
182.061612
 21
127.351639
 31
0.0
  0
ARC
  5
B6
100
AcDbEntity
  8
0
  6
HIDDEN
 62
   174
100
AcDbCircle
 10
203.860772
 20
144.044236
 30
0.0
 40
8.0
100
AcDbArc
 50
71.804994
 51
123.159172
  0
ARC
  5
B7
100
AcDbEntity
  8
0
  6
Continuous
 62
   174
100
AcDbCircle
 10
203.860772
 20
144.044236
 30
0.0
 40
8.0
100
AcDbArc
 50
-30.903581
 51
174.513493
  0
ARC
  5
B8
100
AcDbEntity
  8
0
  6
HIDDEN
 62
   174
100
AcDbCircle
 10
203.860772
 20
144.044236
 30
0.0
 40
3.0
100
AcDbArc
 50
109.349807
 51
119.05504
  0
ARC
  5
B9
100
AcDbEntity
  8
0
  6
HIDDEN
 62
   174
100
AcDbCircle
 10
183.574162
 20
118.186487
 30
0.0
 40
10.0
100
AcDbArc
 50
90.0
 51
113.578178
  0
ARC
  5
BA
100
AcDbEntity
  8
0
  6
HIDDEN
 62
   174
100
AcDbCircle
 10
203.860772
 20
144.044236
 30
0.0
 40
3.0
100
AcDbArc
 50
69.744047
 51
77.495947
  0
ARC
  5
BB
100
AcDbEntity
  8
0
  6
Continuous
 62
   174
100
AcDbCircle
 10
203.860772
 20
144.044236
 30
0.0
 40
3.0
100
AcDbArc
 50
18.611841
 51
35.713514
  0
ARC
  5
BC
100
AcDbEntity
  8
0
  6
Continuous
 62
   174
100
AcDbCircle
 10
203.860772
 20
144.044236
 30
0.0
 40
3.0
100
AcDbArc
 50
143.101341
 51
162.617311
  0
ARC
  5
BD
100
AcDbEntity
  8
0
  6
HIDDEN
 62
   174
100
AcDbCircle
 10
165.574162
 20
131.186487
 30
0.0
 40
3.0
100
AcDbArc
 50
224.619982
 51
230.17691
  0
ARC
  5
BE
100
AcDbEntity
  8
0
  6
HIDDEN
 62
   174
100
AcDbCircle
 10
165.574162
 20
131.186487
 30
0.0
 40
3.0
100
AcDbArc
 50
55.326874
 51
86.851623
  0
LINE
  5
BF
100
AcDbEntity
  8
0
  6
HIDDEN
 62
   174
100
AcDbLine
 10
159.293039
 20
138.178959
 30
0.0
 11
158.574162
 21
128.853853
 31
0.0
  0
ARC
  5
C0
100
AcDbEntity
  8
0
  6
Continuous
 62
   174
100
AcDbCircle
 10
203.860772
 20
144.044236
 30
0.0
 40
3.0
100
AcDbArc
 50
315.19323
 51
323.101341
  0
ARC
  5
C1
100
AcDbEntity
  8
0
  6
Continuous
 62
   174
100
AcDbCircle
 10
203.860772
 20
144.044236
 30
0.0
 40
3.0
100
AcDbArc
 50
109.349807
 51
119.05504
  0
ARC
  5
C2
100
AcDbEntity
  8
0
  6
HIDDEN
 62
   174
100
AcDbCircle
 10
165.574162
 20
131.186487
 30
0.0
 40
3.0
100
AcDbArc
 50
183.051072
 51
190.266697
  0
LINE
  5
C3
100
AcDbEntity
  8
0
  6
HIDDEN
 62
   174
100
AcDbLine
 10
164.855487
 20
139.186487
 30
0.0
 11
172.574162
 21
139.186487
 31
0.0
  0
ARC
  5
C4
100
AcDbEntity
  8
0
  6
Continuous
 62
   174
100
AcDbCircle
 10
165.574162
 20
131.186487
 30
0.0
 40
3.0
100
AcDbArc
 50
1.404439
 51
8.392722
  0
ARC
  5
C5
100
AcDbEntity
  8
0
  6
Continuous
 62
   174
100
AcDbCircle
 10
165.574162
 20
131.186487
 30
0.0
 40
3.0
100
AcDbArc
 50
90.0
 51
104.897465
  0
ARC
  5
C6
100
AcDbEntity
  8
0
  6
HIDDEN
 62
   174
100
AcDbCircle
 10
203.860772
 20
144.044236
 30
0.0
 40
3.0
100
AcDbArc
 50
18.611841
 51
35.713514
  0
LINE
  5
C7
100
AcDbEntity
  8
0
  6
Continuous
 62
   174
100
AcDbLine
 10
197.414704
 20
134.746483
 30
0.0
 11
197.740518
 21
132.947706
 31
0.0
  0
ARC
  5
C8
100
AcDbEntity
  8
0
  6
HIDDEN
 62
   174
100
AcDbCircle
 10
203.860772
 20
144.044236
 30
0.0
 40
9.6
100
AcDbArc
 50
0.0
 51
180.0
  0
ARC
  5
C9
100
AcDbEntity
  8
0
  6
Continuous
 62
   174
100
AcDbCircle
 10
203.860772
 20
144.044236
 30
0.0
 40
9.6
100
AcDbArc
 50
-29.890754
 51
0.0
  0
ARC
  5
CA
100
AcDbEntity
  8
0
  6
Continuous
 62
   174
100
AcDbCircle
 10
203.860772
 20
144.044236
 30
0.0
 40
9.6
100
AcDbArc
 50
-196.425475
 51
-185.976272
  0
ARC
  5
CB
100
AcDbEntity
  8
0
  6
Continuous
 62
   174
100
AcDbCircle
 10
165.574162
 20
131.186487
 30
0.0
 40
3.0
100
AcDbArc
 50
146.655938
 51
181.404439
  0
ARC
  5
CC
100
AcDbEntity
  8
0
  6
HIDDEN
 62
   174
100
AcDbCircle
 10
165.574162
 20
131.186487
 30
0.0
 40
3.0
100
AcDbArc
 50
44.619982
 51
50.17691
  0
ARC
  5
CD
100
AcDbEntity
  8
0
  6
HIDDEN
 62
   174
100
AcDbCircle
 10
165.574162
 20
131.186487
 30
0.0
 40
3.0
100
AcDbArc
 50
55.326874
 51
86.851623
  0
ARC
  5
CE
100
AcDbEntity
  8
0
  6
HIDDEN
 62
   174
100
AcDbCircle
 10
203.860772
 20
144.044236
 30
0.0
 40
10.0
100
AcDbArc
 50
-182.327624
 51
-180.0
  0
ARC
  5
CF
100
AcDbEntity
  8
0
  6
Continuous
 62
   174
100
AcDbCircle
 10
199.574162
 20
103.186487
 30
0.0
 40
7.5
100
AcDbArc
 50
-90.0
 51
90.0
  0
LINE
  5
D0
100
AcDbEntity
  8
0
  6
HIDDEN
 62
   174
100
AcDbLine
 10
164.855487
 20
139.186487
 30
0.0
 11
159.293039
 21
138.178959
 31
0.0
  0
ARC
  5
D1
100
AcDbEntity
  8
0
  6
HIDDEN
 62
   174
100
AcDbCircle
 10
203.860772
 20
144.044236
 30
0.0
 40
8.0
100
AcDbArc
 50
46.127812
 51
71.804994
  0
ARC
  5
D2
100
AcDbEntity
  8
0
  6
HIDDEN
 62
   174
100
AcDbCircle
 10
165.574162
 20
131.186487
 30
0.0
 40
3.0
100
AcDbArc
 50
10.266697
 51
44.619982
  0
LINE
  5
D3
100
AcDbEntity
  8
0
  6
Continuous
 62
   174
100
AcDbLine
 10
179.896729
 20
127.351639
 30
0.0
 11
179.592315
 21
127.351639
 31
0.0
  0
LINE
  5
D4
100
AcDbEntity
  8
0
  6
Continuous
 62
   174
100
AcDbLine
 10
179.04473
 20
129.56133
 30
0.0
 11
178.545685
 21
132.316499
 31
0.0
  0
ARC
  5
D5
100
AcDbEntity
  8
0
  6
Continuous
 62
   174
100
AcDbCircle
 10
203.860772
 20
144.044236
 30
0.0
 40
10.0
100
AcDbArc
 50
-116.258957
 51
-78.600435
  0
LINE
  5
D6
100
AcDbEntity
  8
0
  6
Continuous
 62
   174
100
AcDbLine
 10
172.32897
 20
140.540162
 30
0.0
 11
164.855487
 21
139.186487
 31
0.0
  0
LINE
  5
D7
100
AcDbEntity
  8
0
  6
HIDDEN
 62
   174
100
AcDbLine
 10
178.545685
 20
132.316499
 30
0.0
 11
172.641753
 21
131.247117
 31
0.0
  0
LINE
  5
D8
100
AcDbEntity
  8
0
  6
HIDDEN
 62
   174
100
AcDbLine
 10
172.32897
 20
140.540162
 30
0.0
 11
164.855487
 21
139.186487
 31
0.0
  0
ARC
  5
D9
100
AcDbEntity
  8
0
  6
Continuous
 62
   174
100
AcDbCircle
 10
203.860772
 20
144.044236
 30
0.0
 40
3.0
100
AcDbArc
 50
299.05504
 51
315.19323
  0
ARC
  5
DA
100
AcDbEntity
  8
0
  6
Continuous
 62
   174
100
AcDbCircle
 10
203.860772
 20
144.044236
 30
0.0
 40
3.0
100
AcDbArc
 50
10.266697
 51
18.611841
  0
ARC
  5
DB
100
AcDbEntity
  8
0
  6
Continuous
 62
   174
100
AcDbCircle
 10
203.860772
 20
144.044236
 30
0.0
 40
3.0
100
AcDbArc
 50
135.19323
 51
143.101341
  0
LINE
  5
DC
100
AcDbEntity
  8
0
  6
HIDDEN
 62
   174
100
AcDbLine
 10
208.574162
 20
72.400505
 30
0.0
 11
208.574162
 21
64.000985
 31
0.0
  0
ARC
  5
DD
100
AcDbEntity
  8
0
  6
HIDDEN
 62
   174
100
AcDbCircle
 10
203.860772
 20
144.044236
 30
0.0
 40
3.0
100
AcDbArc
 50
60.414254
 51
69.744047
  0
ARC
  5
DE
100
AcDbEntity
  8
0
  6
HIDDEN
 62
   174
100
AcDbCircle
 10
165.574162
 20
131.186487
 30
0.0
 40
3.0
100
AcDbArc
 50
144.33516
 51
183.051072
  0
ARC
  5
DF
100
AcDbEntity
  8
0
  6
Continuous
 62
   174
100
AcDbCircle
 10
203.860772
 20
144.044236
 30
0.0
 40
3.0
100
AcDbArc
 50
100.266697
 51
109.349807
  0
LINE
  5
E0
100
AcDbEntity
  8
0
  6
HIDDEN
 62
   174
100
AcDbLine
 10
183.545625
 20
128.344036
 30
0.0
 11
187.272148
 21
129.019022
 31
0.0
  0
LINE
  5
E1
100
AcDbEntity
  8
0
  6
Continuous
 62
   174
100
AcDbLine
 10
208.574162
 20
51.186487
 30
0.0
 11
208.574162
 21
120.186487
 31
0.0
  0
LINE
  5
E2
100
AcDbEntity
  8
0
  6
Continuous
 62
   174
100
AcDbLine
 10
158.574162
 20
51.186487
 30
0.0
 11
208.574162
 21
51.186487
 31
0.0
  0
ARC
  5
E3
100
AcDbEntity
  8
0
  6
Continuous
 62
   174
100
AcDbCircle
 10
165.574162
 20
131.186487
 30
0.0
 40
3.0
100
AcDbArc
 50
-33.344062
 51
1.404439
  0
ARC
  5
E4
100
AcDbEntity
  8
0
  6
HIDDEN
 62
   174
100
AcDbCircle
 10
203.860772
 20
144.044236
 30
0.0
 40
3.0
100
AcDbArc
 50
10.266697
 51
18.611841
  0
ARC
  5
E5
100
AcDbEntity
  8
0
  6
Continuous
 62
   174
100
AcDbCircle
 10
203.860772
 20
144.044236
 30
0.0
 40
3.0
100
AcDbArc
 50
198.611841
 51
215.713514
  0
LINE
  5
E6
100
AcDbEntity
  8
0
  6
HIDDEN
 62
   174
100
AcDbLine
 10
178.973438
 20
129.954926
 30
0.0
 11
178.545685
 21
132.316499
 31
0.0
  0
ARC
  5
E7
100
AcDbEntity
  8
0
  6
Continuous
 62
   174
100
AcDbCircle
 10
203.860772
 20
144.044236
 30
0.0
 40
3.0
100
AcDbArc
 50
264.532215
 51
274.538969
  0
ARC
  5
E8
100
AcDbEntity
  8
0
  6
HIDDEN
 62
   174
100
AcDbCircle
 10
165.574162
 20
131.186487
 30
0.0
 40
3.0
100
AcDbArc
 50
10.266697
 51
44.619982
  0
ARC
  5
E9
100
AcDbEntity
  8
0
  6
HIDDEN
 62
   174
100
AcDbCircle
 10
165.574162
 20
131.186487
 30
0.0
 40
3.0
100
AcDbArc
 50
50.17691
 51
55.326874
  0
LINE
  5
EA
100
AcDbEntity
  8
0
  6
Continuous
 62
   174
100
AcDbLine
 10
158.574162
 20
128.853853
 30
0.0
 11
158.02177
 21
121.688345
 31
0.0
  0
ARC
  5
EB
100
AcDbEntity
  8
0
  6
Continuous
 62
   174
100
AcDbCircle
 10
167.574162
 20
103.186487
 30
0.0
 40
7.5
100
AcDbArc
 50
90.0
 51
270.0
  0
ARC
  5
EC
100
AcDbEntity
  8
0
  6
HIDDEN
 62
   174
100
AcDbCircle
 10
165.574162
 20
131.186487
 30
0.0
 40
3.0
100
AcDbArc
 50
5.841952
 51
47.921034
  0
ARC
  5
ED
100
AcDbEntity
  8
0
  6
HIDDEN
 62
   174
100
AcDbCircle
 10
165.574162
 20
131.186487
 30
0.0
 40
3.0
100
AcDbArc
 50
183.051072
 51
190.266697
  0
ARC
  5
EE
100
AcDbEntity
  8
0
  6
Continuous
 62
   174
100
AcDbCircle
 10
203.860772
 20
144.044236
 30
0.0
 40
9.6
100
AcDbArc
 50
-185.976272
 51
-182.940096
  0
LINE
  5
EF
100
AcDbEntity
  8
0
  6
Continuous
 62
   174
100
AcDbLine
 10
173.853719
 20
124.555993
 30
0.0
 11
172.574162
 21
124.324226
 31
0.0
  0
LINE
  5
F0
100
AcDbEntity
  8
0
  6
HIDDEN
 62
   174
100
AcDbLine
 10
195.897422
 20
144.809126
 30
0.0
 11
172.32897
 21
140.540162
 31
0.0
  0
ARC
  5
F1
100
AcDbEntity
  8
0
  6
HIDDEN
 62
   174
100
AcDbCircle
 10
165.574162
 20
131.186487
 30
0.0
 40
3.0
100
AcDbArc
 50
190.266697
 51
224.619982
  0
LINE
  5
F2
100
AcDbEntity
  8
0
  6
HIDDEN
 62
   174
100
AcDbLine
 10
187.272148
 20
129.019022
 30
0.0
 11
198.096978
 21
130.979729
 31
0.0
  0
ARC
  5
F3
100
AcDbEntity
  8
0
  6
Continuous
 62
   174
100
AcDbCircle
 10
167.574162
 20
103.186487
 30
0.0
 40
4.5
100
AcDbArc
 50
-90.0
 51
90.0
  0
ARC
  5
F4
100
AcDbEntity
  8
0
  6
HIDDEN
 62
   174
100
AcDbCircle
 10
203.860772
 20
144.044236
 30
0.0
 40
8.0
100
AcDbArc
 50
20.450654
 51
46.127812
  0
LINE
  5
F5
100
AcDbEntity
  8
0
  6
Continuous
 62
   174
100
AcDbLine
 10
208.574162
 20
120.186487
 30
0.0
 11
172.574162
 21
120.186487
 31
0.0
  0
ARC
  5
F6
100
AcDbEntity
  8
0
  6
Continuous
 62
   174
100
AcDbCircle
 10
203.860772
 20
144.044236
 30
0.0
 40
10.0
100
AcDbArc
 50
-78.600435
 51
-33.178152
  0
ARC
  5
F7
100
AcDbEntity
  8
0
  6
Continuous
 62
   174
100
AcDbCircle
 10
165.574162
 20
131.186487
 30
0.0
 40
3.0
100
AcDbArc
 50
284.897465
 51
322.748347
  0
ARC
  5
F8
100
AcDbEntity
  8
0
  6
HIDDEN
 62
   174
100
AcDbCircle
 10
165.574162
 20
131.186487
 30
0.0
 40
3.0
100
AcDbArc
 50
235.326874
 51
266.851623
  0
ARC
  5
F9
100
AcDbEntity
  8
0
  6
HIDDEN
 62
   174
100
AcDbCircle
 10
203.860772
 20
144.044236
 30
0.0
 40
3.0
100
AcDbArc
 50
167.61604
 51
174.136769
  0
ARC
  5
FA
100
AcDbEntity
  8
0
  6
Continuous
 62
   174
100
AcDbCircle
 10
203.860772
 20
144.044236
 30
0.0
 40
3.0
100
AcDbArc
 50
289.349807
 51
299.05504
  0
LINE
  5
FB
100
AcDbEntity
  8
0
  6
HIDDEN
 62
   174
100
AcDbLine
 10
158.574162
 20
139.186487
 30
0.0
 11
164.855487
 21
139.186487
 31
0.0
  0
LINE
  5
FC
100
AcDbEntity
  8
0
  6
Continuous
 62
   174
100
AcDbLine
 10
178.545685
 20
132.316499
 30
0.0
 11
172.641753
 21
131.247117
 31
0.0
  0
ARC
  5
FD
100
AcDbEntity
  8
0
  6
Continuous
 62
   174
100
AcDbCircle
 10
203.860772
 20
144.044236
 30
0.0
 40
3.0
100
AcDbArc
 50
-12.38396
 51
10.266697
  0
ARC
  5
FE
100
AcDbEntity
  8
0
  6
Continuous
 62
   174
100
AcDbCircle
 10
203.860772
 20
144.044236
 30
0.0
 40
3.0
100
AcDbArc
 50
119.05504
 51
135.19323
  0
ARC
  5
FF
100
AcDbEntity
  8
0
  6
HIDDEN
 62
   174
100
AcDbCircle
 10
203.860772
 20
144.044236
 30
0.0
 40
9.6
100
AcDbArc
 50
-182.940096
 51
-180.0
  0
ARC
  5
100
100
AcDbEntity
  8
0
  6
HIDDEN
 62
   174
100
AcDbCircle
 10
203.860772
 20
144.044236
 30
0.0
 40
3.0
100
AcDbArc
 50
-34.793479
 51
10.266697
  0
ARC
  5
101
100
AcDbEntity
  8
0
  6
Continuous
 62
   174
100
AcDbCircle
 10
203.860772
 20
144.044236
 30
0.0
 40
3.0
100
AcDbArc
 50
190.266697
 51
198.611841
  0
ARC
  5
102
100
AcDbEntity
  8
0
  6
Continuous
 62
   174
100
AcDbCircle
 10
203.860772
 20
144.044236
 30
0.0
 40
3.0
100
AcDbArc
 50
94.538969
 51
100.266697
  0
ARC
  5
103
100
AcDbEntity
  8
0
  6
HIDDEN
 62
   174
100
AcDbCircle
 10
203.860772
 20
144.044236
 30
0.0
 40
8.0
100
AcDbArc
 50
148.836325
 51
174.513493
  0
LINE
  5
104
100
AcDbEntity
  8
0
  6
HIDDEN
 62
   174
100
AcDbLine
 10
173.574162
 20
82.400055
 30
0.0
 11
173.574162
 21
74.000535
 31
0.0
  0
LINE
  5
105
100
AcDbEntity
  8
0
  6
HIDDEN
 62
   174
100
AcDbLine
 10
172.574162
 20
124.324226
 30
0.0
 11
158.574162
 21
121.7884
 31
0.0
  0
ARC
  5
106
100
AcDbEntity
  8
0
  6
HIDDEN
 62
   174
100
AcDbCircle
 10
165.574162
 20
131.186487
 30
0.0
 40
3.0
100
AcDbArc
 50
3.051072
 51
10.266697
  0
LINE
  5
107
100
AcDbEntity
  8
0
  6
Continuous
 62
   174
100
AcDbLine
 10
197.740518
 20
132.947706
 30
0.0
 11
179.04473
 21
129.56133
 31
0.0
  0
ARC
  5
108
100
AcDbEntity
  8
0
  6
Continuous
 62
   174
100
AcDbCircle
 10
165.574162
 20
131.186487
 30
0.0
 40
3.0
100
AcDbArc
 50
322.748347
 51
326.655938
  0
LINE
  5
109
100
AcDbEntity
  8
0
  6
HIDDEN
 62
   174
100
AcDbLine
 10
183.592177
 20
127.351639
 30
0.0
 11
179.592315
 21
127.351639
 31
0.0
  0
ARC
  5
10A
100
AcDbEntity
  8
0
  6
HIDDEN
 62
   174
100
AcDbCircle
 10
165.574162
 20
131.186487
 30
0.0
 40
3.0
100
AcDbArc
 50
47.921034
 51
90.0
  0
ARC
  5
10B
100
AcDbEntity
  8
0
  6
HIDDEN
 62
   174
100
AcDbCircle
 10
165.574162
 20
131.186487
 30
0.0
 40
3.0
100
AcDbArc
 50
227.921034
 51
270.0
  0
LINE
  5
10C
100
AcDbEntity
  8
0
  6
HIDDEN
 62
   174
100
AcDbLine
 10
183.592177
 20
120.186487
 30
0.0
 11
179.592315
 21
120.186487
 31
0.0
  0
ARC
  5
10D
100
AcDbEntity
  8
0
  6
Continuous
 62
   174
100
AcDbCircle
 10
203.860772
 20
144.044236
 30
0.0
 40
3.0
100
AcDbArc
 50
257.495947
 51
264.532215
  0
ARC
  5
10E
100
AcDbEntity
  8
0
  6
HIDDEN
 62
   174
100
AcDbCircle
 10
165.574162
 20
131.186487
 30
0.0
 40
3.0
100
AcDbArc
 50
3.051072
 51
10.266697
  0
LINE
  5
10F
100
AcDbEntity
  8
0
  6
Continuous
 62
   174
100
AcDbLine
 10
158.574162
 20
139.186487
 30
0.0
 11
158.574162
 21
51.186487
 31
0.0
  0
LINE
  5
110
100
AcDbEntity
  8
0
  6
Continuous
 62
   174
100
AcDbLine
 10
172.641753
 20
131.247117
 30
0.0
 11
173.853719
 21
124.555993
 31
0.0
  0
ARC
  5
111
100
AcDbEntity
  8
0
  6
HIDDEN
 62
   174
100
AcDbCircle
 10
165.574162
 20
131.186487
 30
0.0
 40
3.0
100
AcDbArc
 50
-36.237219
 51
5.841952
  0
ARC
  5
112
100
AcDbEntity
  8
0
  6
HIDDEN
 62
   174
100
AcDbCircle
 10
165.574162
 20
131.186487
 30
0.0
 40
3.0
100
AcDbArc
 50
303.037448
 51
324.33516
  0
ARC
  5
113
100
AcDbEntity
  8
0
  6
Continuous
 62
   174
100
AcDbCircle
 10
167.574162
 20
103.186487
 30
0.0
 40
7.5
100
AcDbArc
 50
-90.0
 51
90.0
  0
ARC
  5
114
100
AcDbEntity
  8
0
  6
Continuous
 62
   174
100
AcDbCircle
 10
165.574162
 20
131.186487
 30
0.0
 40
3.0
100
AcDbArc
 50
270.0
 51
284.897465
  0
LINE
  5
115
100
AcDbEntity
  8
0
  6
Continuous
 62
   174
100
AcDbLine
 10
187.574162
 20
120.186487
 30
0.0
 11
187.574162
 21
127.351639
 31
0.0
  0
ARC
  5
116
100
AcDbEntity
  8
0
  6
HIDDEN
 62
   174
100
AcDbCircle
 10
203.860772
 20
144.044236
 30
0.0
 40
8.0
100
AcDbArc
 50
-5.226517
 51
20.450654
  0
ARC
  5
117
100
AcDbEntity
  8
0
  6
HIDDEN
 62
   174
100
AcDbCircle
 10
165.574162
 20
131.186487
 30
0.0
 40
3.0
100
AcDbArc
 50
230.17691
 51
235.326874
  0
LINE
  5
118
100
AcDbEntity
  8
0
  6
HIDDEN
 62
   174
100
AcDbLine
 10
173.853719
 20
124.555993
 30
0.0
 11
172.574162
 21
124.324226
 31
0.0
  0
ARC
  5
119
100
AcDbEntity
  8
0
  6
HIDDEN
 62
   174
100
AcDbCircle
 10
203.860772
 20
144.044236
 30
0.0
 40
3.0
100
AcDbArc
 50
162.617311
 51
167.61604
  0
ARC
  5
11A
100
AcDbEntity
  8
0
  6
Continuous
 62
   174
100
AcDbCircle
 10
203.860772
 20
144.044236
 30
0.0
 40
10.0
100
AcDbArc
 50
-33.178152
 51
-29.684385
  0
ARC
  5
11B
100
AcDbEntity
  8
0
  6
Continuous
 62
   174
100
AcDbCircle
 10
199.574162
 20
103.186487
 30
0.0
 40
7.5
100
AcDbArc
 50
90.0
 51
270.0
  0
LINE
  5
11C
100
AcDbEntity
  8
0
  6
Continuous
 62
   174
100
AcDbLine
 10
158.574162
 20
121.7884
 30
0.0
 11
158.02177
 21
121.688345
 31
0.0
  0
ARC
  5
11D
100
AcDbEntity
  8
0
  6
Continuous
 62
   174
100
AcDbCircle
 10
203.860772
 20
144.044236
 30
0.0
 40
3.0
100
AcDbArc
 50
280.266697
 51
289.349807
  0
LINE
  5
11E
100
AcDbEntity
  8
0
  6
Continuous
 62
   174
100
AcDbLine
 10
198.096978
 20
130.979729
 30
0.0
 11
179.401191
 21
127.593353
 31
0.0
  0
ARC
  5
11F
100
AcDbEntity
  8
0
  6
Continuous
 62
   174
100
AcDbCircle
 10
167.574162
 20
103.186487
 30
0.0
 40
4.5
100
AcDbArc
 50
90.0
 51
270.0
  0
LINE
  5
120
100
AcDbEntity
  8
0
  6
HIDDEN
 62
   174
100
AcDbLine
 10
172.574162
 20
124.324226
 30
0.0
 11
158.574162
 21
121.7884
 31
0.0
  0
LINE
  5
121
100
AcDbEntity
  8
0
  6
HIDDEN
 62
   174
100
AcDbLine
 10
172.574162
 20
121.786487
 30
0.0
 11
158.574162
 21
121.786487
 31
0.0
  0
ARC
  5
122
100
AcDbEntity
  8
0
  6
HIDDEN
 62
   174
100
AcDbCircle
 10
203.860772
 20
144.044236
 30
0.0
 40
3.0
100
AcDbArc
 50
100.266697
 51
109.349807
  0
ARC
  5
123
100
AcDbEntity
  8
0
  6
HIDDEN
 62
   174
100
AcDbCircle
 10
165.574162
 20
131.186487
 30
0.0
 40
3.0
100
AcDbArc
 50
-35.66484
 51
3.051072
  0
ARC
  5
124
100
AcDbEntity
  8
0
  6
HIDDEN
 62
   174
100
AcDbCircle
 10
203.860772
 20
144.044236
 30
0.0
 40
9.6
100
AcDbArc
 50
-180.0
 51
0.0
  0
ARC
  5
125
100
AcDbEntity
  8
0
  6
HIDDEN
 62
   174
100
AcDbCircle
 10
203.860772
 20
144.044236
 30
0.0
 40
3.0
100
AcDbArc
 50
280.266697
 51
325.206521
  0
ARC
  5
126
100
AcDbEntity
  8
0
  6
Continuous
 62
   174
100
AcDbCircle
 10
203.860772
 20
144.044236
 30
0.0
 40
3.0
100
AcDbArc
 50
84.532215
 51
94.538969
  0
LINE
  5
127
100
AcDbEntity
  8
0
  6
HIDDEN
 62
   174
100
AcDbLine
 10
199.459212
 20
135.116805
 30
0.0
 11
197.414704
 21
134.746483
 31
0.0
  0
ARC
  5
128
100
AcDbEntity
  8
0
  6
HIDDEN
 62
   174
100
AcDbCircle
 10
165.574162
 20
131.186487
 30
0.0
 40
3.0
100
AcDbArc
 50
144.33516
 51
183.051072
  0
ARC
  5
129
100
AcDbEntity
  8
0
  6
HIDDEN
 62
   174
100
AcDbCircle
 10
165.574162
 20
131.186487
 30
0.0
 40
3.0
100
AcDbArc
 50
123.037448
 51
144.33516
  0
ARC
  5
12A
100
AcDbEntity
  8
0
  6
Continuous
 62
   174
100
AcDbCircle
 10
203.860772
 20
144.044236
 30
0.0
 40
8.0
100
AcDbArc
 50
280.266697
 51
329.096419
  0
LINE
  5
12B
100
AcDbEntity
  8
0
  6
Continuous
 62
   174
100
AcDbLine
 10
179.574162
 20
120.186487
 30
0.0
 11
179.574162
 21
127.351639
 31
0.0
  0
ARC
  5
12C
100
AcDbEntity
  8
0
  6
HIDDEN
 62
   174
100
AcDbCircle
 10
165.574162
 20
131.186487
 30
0.0
 40
3.0
100
AcDbArc
 50
-35.66484
 51
3.051072
  0
ARC
  5
12D
100
AcDbEntity
  8
0
  6
HIDDEN
 62
   174
100
AcDbCircle
 10
165.574162
 20
131.186487
 30
0.0
 40
3.0
100
AcDbArc
 50
185.841952
 51
227.921034
  0
LINE
  5
12E
100
AcDbEntity
  8
0
  6
HIDDEN
 62
   174
100
AcDbLine
 10
172.641753
 20
131.247117
 30
0.0
 11
173.853719
 21
124.555993
 31
0.0
  0
ARC
  5
12F
100
AcDbEntity
  8
0
  6
Continuous
 62
   174
100
AcDbCircle
 10
203.860772
 20
144.044236
 30
0.0
 40
3.0
100
AcDbArc
 50
249.744047
 51
257.495947
  0
ARC
  5
130
100
AcDbEntity
  8
0
  6
HIDDEN
 62
   174
100
AcDbCircle
 10
165.574162
 20
131.186487
 30
0.0
 40
3.0
100
AcDbArc
 50
283.48657
 51
303.037448
  0
ARC
  5
131
100
AcDbEntity
  8
0
  6
Continuous
 62
   174
100
AcDbCircle
 10
203.860772
 20
144.044236
 30
0.0
 40
10.0
100
AcDbArc
 50
-29.684385
 51
0.0
  0
ARC
  5
132
100
AcDbEntity
  8
0
  6
HIDDEN
 62
   174
100
AcDbCircle
 10
203.860772
 20
144.044236
 30
0.0
 40
10.0
100
AcDbArc
 50
-125.042794
 51
-116.258957
  0
ARC
  5
133
100
AcDbEntity
  8
0
  6
Continuous
 62
   174
100
AcDbCircle
 10
165.574162
 20
131.186487
 30
0.0
 40
3.0
100
AcDbArc
 50
232.265207
 51
270.0
  0
ARC
  5
134
100
AcDbEntity
  8
0
  6
HIDDEN
 62
   174
100
AcDbCircle
 10
165.574162
 20
131.186487
 30
0.0
 40
3.0
100
AcDbArc
 50
224.619982
 51
230.17691
  0
LINE
  5
135
100
AcDbEntity
  8
0
  6
Continuous
 62
   174
100
AcDbLine
 10
172.574162
 20
139.186487
 30
0.0
 11
172.574162
 21
120.186487
 31
0.0
  0
ARC
  5
136
100
AcDbEntity
  8
0
  6
HIDDEN
 62
   174
100
AcDbCircle
 10
165.574162
 20
131.186487
 30
0.0
 40
3.0
100
AcDbArc
 50
281.683628
 51
323.762781
  0
ARC
  5
137
100
AcDbEntity
  8
0
  6
HIDDEN
 62
   174
100
AcDbCircle
 10
203.860772
 20
144.044236
 30
0.0
 40
3.0
100
AcDbArc
 50
143.101341
 51
162.617311
  0
LINE
  5
138
100
AcDbEntity
  8
0
  6
Continuous
 62
   174
100
AcDbLine
 10
198.096978
 20
130.979729
 30
0.0
 11
179.401191
 21
127.593353
 31
0.0
  0
LINE
  5
139
100
AcDbEntity
  8
0
  6
Continuous
 62
   174
100
AcDbLine
 10
179.399849
 20
127.60076
 30
0.0
 11
179.043385
 21
129.568757
 31
0.0
  0
ARC
  5
13A
100
AcDbEntity
  8
0
  6
Continuous
 62
   174
100
AcDbCircle
 10
203.860772
 20
144.044236
 30
0.0
 40
9.6
100
AcDbArc
 50
-112.980118
 51
-81.803036
  0
ARC
  5
13B
100
AcDbEntity
  8
0
  6
HIDDEN
 62
   174
100
AcDbCircle
 10
203.860772
 20
144.044236
 30
0.0
 40
8.0
100
AcDbArc
 50
329.096419
 51
354.773483
  0
LINE
  5
13C
100
AcDbEntity
  8
0
  6
HIDDEN
 62
   174
100
AcDbLine
 10
158.574162
 20
128.853853
 30
0.0
 11
158.574162
 21
121.786487
 31
0.0
  0
LINE
  5
13D
100
AcDbEntity
  8
0
  6
HIDDEN
 62
   174
100
AcDbLine
 10
197.414704
 20
134.746483
 30
0.0
 11
197.669225
 21
133.341302
 31
0.0
  0
ARC
  5
13E
100
AcDbEntity
  8
0
  6
HIDDEN
 62
   174
100
AcDbCircle
 10
203.860772
 20
144.044236
 30
0.0
 40
3.0
100
AcDbArc
 50
94.538969
 51
100.266697
  0
ARC
  5
13F
100
AcDbEntity
  8
0
  6
Continuous
 62
   174
100
AcDbCircle
 10
203.860772
 20
144.044236
 30
0.0
 40
3.0
100
AcDbArc
 50
274.538969
 51
280.266697
  0
ARC
  5
140
100
AcDbEntity
  8
0
  6
Continuous
 62
   174
100
AcDbCircle
 10
203.860772
 20
144.044236
 30
0.0
 40
3.0
100
AcDbArc
 50
60.414254
 51
69.744047
  0
LINE
  5
141
100
AcDbEntity
  8
0
  6
HIDDEN
 62
   174
100
AcDbLine
 10
158.574162
 20
121.7884
 30
0.0
 11
158.02177
 21
121.688345
 31
0.0
  0
ARC
  5
142
100
AcDbEntity
  8
0
  6
HIDDEN
 62
   174
100
AcDbCircle
 10
165.574162
 20
131.186487
 30
0.0
 40
3.0
100
AcDbArc
 50
123.037448
 51
144.33516
  0
ARC
  5
143
100
AcDbEntity
  8
0
  6
HIDDEN
 62
   174
100
AcDbCircle
 10
165.574162
 20
131.186487
 30
0.0
 40
3.0
100
AcDbArc
 50
103.48657
 51
123.037448
  0
ARC
  5
144
100
AcDbEntity
  8
0
  6
Continuous
 62
   174
100
AcDbCircle
 10
165.574162
 20
131.186487
 30
0.0
 40
3.0
100
AcDbArc
 50
52.265207
 51
90.0
  0
ARC
  5
145
100
AcDbEntity
  8
0
  6
HIDDEN
 62
   174
100
AcDbCircle
 10
203.860772
 20
144.044236
 30
0.0
 40
3.0
100
AcDbArc
 50
190.266697
 51
280.266697
  0
ARC
  5
146
100
AcDbEntity
  8
0
  6
Continuous
 62
   174
100
AcDbCircle
 10
203.860772
 20
144.044236
 30
0.0
 40
3.0
100
AcDbArc
 50
167.61604
 51
190.266697
  0
ARC
  5
147
100
AcDbEntity
  8
0
  6
Continuous
 62
   174
100
AcDbCircle
 10
203.860772
 20
144.044236
 30
0.0
 40
3.0
100
AcDbArc
 50
77.495947
 51
84.532215
  0
ARC
  5
148
100
AcDbEntity
  8
0
  6
HIDDEN
 62
   174
100
AcDbCircle
 10
165.574162
 20
131.186487
 30
0.0
 40
3.0
100
AcDbArc
 50
303.037448
 51
324.33516
  0
LINE
  5
149
100
AcDbEntity
  8
0
  6
HIDDEN
 62
   174
100
AcDbLine
 10
179.401191
 20
127.593353
 30
0.0
 11
183.545625
 21
128.344036
 31
0.0
  0
LINE
  5
14A
100
AcDbEntity
  8
0
  6
HIDDEN
 62
   174
100
AcDbLine
 10
158.574162
 20
74.000535
 30
0.0
 11
158.574162
 21
82.400055
 31
0.0
  0
LINE
  5
14B
100
AcDbEntity
  8
0
  6
HIDDEN
 62
   174
100
AcDbLine
 10
205.286615
 20
136.172325
 30
0.0
 11
199.459212
 21
135.116805
 31
0.0
  0
ARC
  5
14C
100
AcDbEntity
  8
0
  6
HIDDEN
 62
   174
100
AcDbCircle
 10
165.574162
 20
131.186487
 30
0.0
 40
3.0
100
AcDbArc
 50
266.851623
 51
283.48657
  0
LINE
  5
14D
100
AcDbEntity
  8
0
  6
Continuous
 62
   174
100
AcDbLine
 10
197.739214
 20
132.954905
 30
0.0
 11
198.095671
 21
130.986945
 31
0.0
  0
ARC
  5
14E
100
AcDbEntity
  8
0
  6
Continuous
 62
   174
100
AcDbCircle
 10
203.860772
 20
144.044236
 30
0.0
 40
10.0
100
AcDbArc
 50
0.0
 51
174.04848
  0
ARC
  5
14F
100
AcDbEntity
  8
0
  6
Continuous
 62
   174
100
AcDbCircle
 10
165.574162
 20
131.186487
 30
0.0
 40
3.0
100
AcDbArc
 50
224.738517
 51
232.265207
  0
ARC
  5
150
100
AcDbEntity
  8
0
  6
HIDDEN
 62
   174
100
AcDbCircle
 10
165.574162
 20
131.186487
 30
0.0
 40
3.0
100
AcDbArc
 50
190.266697
 51
224.619982
  0
ARC
  5
151
100
AcDbEntity
  8
0
  6
HIDDEN
 62
   174
100
AcDbCircle
 10
203.860772
 20
144.044236
 30
0.0
 40
10.0
100
AcDbArc
 50
-130.101603
 51
-125.042794
  0
LINE
  5
152
100
AcDbEntity
  8
0
  6
HIDDEN
 62
   174
100
AcDbLine
 10
158.574162
 20
139.186487
 30
0.0
 11
158.574162
 21
138.178959
 31
0.0
  0
ARC
  5
153
100
AcDbEntity
  8
0
  6
Continuous
 62
   174
100
AcDbCircle
 10
183.574162
 20
118.186487
 30
0.0
 40
10.0
100
AcDbArc
 50
-293.578178
 51
-270.0
  0
ARC
  5
154
100
AcDbEntity
  8
0
  6
HIDDEN
 62
   174
100
AcDbCircle
 10
165.574162
 20
131.186487
 30
0.0
 40
3.0
100
AcDbArc
 50
143.762781
 51
185.841952
  0
ARC
  5
155
100
AcDbEntity
  8
0
  6
Continuous
 62
   174
100
AcDbCircle
 10
203.860772
 20
144.044236
 30
0.0
 40
3.0
100
AcDbArc
 50
240.414254
 51
249.744047
  0
ARC
  5
156
100
AcDbEntity
  8
0
  6
Continuous
 62
   174
100
AcDbCircle
 10
203.860772
 20
144.044236
 30
0.0
 40
9.6
100
AcDbArc
 50
-81.803036
 51
-78.732604
  0
LINE
  5
157
100
AcDbEntity
  8
0
  6
Continuous
 62
   174
100
AcDbLine
 10
180.763872
 20
127.351639
 30
0.0
 11
179.896729
 21
127.351639
 31
0.0
  0
ARC
  5
158
100
AcDbEntity
  8
0
  6
HIDDEN
 62
   174
100
AcDbCircle
 10
165.574162
 20
131.186487
 30
0.0
 40
3.0
100
AcDbArc
 50
270.0
 51
281.683628
  0
ARC
  5
159
100
AcDbEntity
  8
0
  6
HIDDEN
 62
   174
100
AcDbCircle
 10
203.860772
 20
144.044236
 30
0.0
 40
3.0
100
AcDbArc
 50
135.19323
 51
143.101341
  0
ARC
  5
15A
100
AcDbEntity
  8
0
  6
Continuous
 62
   174
100
AcDbCircle
 10
199.574162
 20
103.186487
 30
0.0
 40
4.5
100
AcDbArc
 50
-90.0
 51
90.0
  0
LINE
  5
15B
100
AcDbEntity
  8
0
  6
Continuous
 62
   174
100
AcDbLine
 10
158.574162
 20
139.186487
 30
0.0
 11
172.574162
 21
139.186487
 31
0.0
  0
ARC
  5
15C
100
AcDbEntity
  8
0
  6
HIDDEN
 62
   174
100
AcDbCircle
 10
203.860772
 20
144.044236
 30
0.0
 40
3.0
100
AcDbArc
 50
84.532215
 51
94.538969
  0
ARC
  5
15D
100
AcDbEntity
  8
0
  6
Continuous
 62
   174
100
AcDbCircle
 10
203.860772
 20
144.044236
 30
0.0
 40
3.0
100
AcDbArc
 50
45.384372
 51
60.414254
  0
LINE
  5
15E
100
AcDbEntity
  8
0
  6
HIDDEN
 62
   174
100
AcDbLine
 10
158.574162
 20
138.178959
 30
0.0
 11
158.574162
 21
128.853853
 31
0.0
  0
LINE
  5
15F
100
AcDbEntity
  8
0
  6
HIDDEN
 62
   174
100
AcDbLine
 10
158.574162
 20
128.853853
 30
0.0
 11
158.02177
 21
121.688345
 31
0.0
  0
ARC
  5
160
100
AcDbEntity
  8
0
  6
HIDDEN
 62
   174
100
AcDbCircle
 10
165.574162
 20
131.186487
 30
0.0
 40
3.0
100
AcDbArc
 50
103.48657
 51
123.037448
  0
ARC
  5
161
100
AcDbEntity
  8
0
  6
Continuous
 62
   174
100
AcDbCircle
 10
165.574162
 20
131.186487
 30
0.0
 40
3.0
100
AcDbArc
 50
44.738517
 51
52.265207
  0
ARC
  5
162
100
AcDbEntity
  8
0
  6
HIDDEN
 62
   174
100
AcDbCircle
 10
165.574162
 20
131.186487
 30
0.0
 40
3.0
100
AcDbArc
 50
283.48657
 51
303.037448
  0
ARC
  5
163
100
AcDbEntity
  8
0
  6
HIDDEN
 62
   174
100
AcDbCircle
 10
203.860772
 20
144.044236
 30
0.0
 40
8.0
100
AcDbArc
 50
303.419321
 51
329.096419
  0
ARC
  5
164
100
AcDbEntity
  8
0
  6
HIDDEN
 62
   174
100
AcDbCircle
 10
165.574162
 20
131.186487
 30
0.0
 40
3.0
100
AcDbArc
 50
235.326874
 51
266.851623
  0
ARC
  5
165
100
AcDbEntity
  8
0
  6
HIDDEN
 62
   174
100
AcDbCircle
 10
203.860772
 20
144.044236
 30
0.0
 40
9.6
100
AcDbArc
 50
-180.0
 51
-125.116469
  0
ARC
  5
166
100
AcDbEntity
  8
0
  6
Continuous
 62
   174
100
AcDbCircle
 10
165.574162
 20
131.186487
 30
0.0
 40
3.0
100
AcDbArc
 50
142.748347
 51
146.655938
  0
ARC
  5
167
100
AcDbEntity
  8
0
  6
HIDDEN
 62
   174
100
AcDbCircle
 10
203.860772
 20
144.044236
 30
0.0
 40
3.0
100
AcDbArc
 50
185.057598
 51
190.266697
  0
ARC
  5
168
100
AcDbEntity
  8
0
  6
Continuous
 62
   174
100
AcDbCircle
 10
203.860772
 20
144.044236
 30
0.0
 40
3.0
100
AcDbArc
 50
342.617311
 51
347.61604
  0
ARC
  5
169
100
AcDbEntity
  8
0
  6
Continuous
 62
   174
100
AcDbCircle
 10
203.860772
 20
144.044236
 30
0.0
 40
3.0
100
AcDbArc
 50
69.744047
 51
77.495947
  0
ARC
  5
16A
100
AcDbEntity
  8
0
  6
Continuous
 62
   174
100
AcDbCircle
 10
203.860772
 20
144.044236
 30
0.0
 40
10.0
100
AcDbArc
 50
-185.95152
 51
-182.327624
  0
ARC
  5
16B
100
AcDbEntity
  8
0
  6
Continuous
 62
   174
100
AcDbCircle
 10
165.574162
 20
131.186487
 30
0.0
 40
3.0
100
AcDbArc
 50
188.392722
 51
224.738517
  0
ARC
  5
16C
100
AcDbEntity
  8
0
  6
Continuous
 62
   174
100
AcDbCircle
 10
203.860772
 20
144.044236
 30
0.0
 40
9.6
100
AcDbArc
 50
-78.732604
 51
-32.847351
  0
LINE
  5
16D
100
AcDbEntity
  8
0
  6
Continuous
 62
   174
100
AcDbLine
 10
195.897422
 20
144.809126
 30
0.0
 11
172.32897
 21
140.540162
 31
0.0
  0
ARC
  5
16E
100
AcDbEntity
  8
0
  6
HIDDEN
 62
   174
100
AcDbCircle
 10
165.574162
 20
131.186487
 30
0.0
 40
3.0
100
AcDbArc
 50
101.683628
 51
143.762781
  0
LINE
  5
16F
100
AcDbEntity
  8
0
  6
HIDDEN
 62
   174
100
AcDbLine
 10
159.293039
 20
138.178959
 30
0.0
 11
158.574162
 21
128.853853
 31
0.0
  0
LINE
  5
170
100
AcDbEntity
  8
0
  6
HIDDEN
 62
   174
100
AcDbLine
 10
187.592252
 20
120.186487
 30
0.0
 11
183.592177
 21
120.186487
 31
0.0
  0
ARC
  5
171
100
AcDbEntity
  8
0
  6
Continuous
 62
   174
100
AcDbCircle
 10
203.860772
 20
144.044236
 30
0.0
 40
3.0
100
AcDbArc
 50
225.384372
 51
240.414254
  0
LINE
  5
172
100
AcDbEntity
  8
0
  6
HIDDEN
 62
   174
100
AcDbLine
 10
172.574162
 20
139.186487
 30
0.0
 11
172.574162
 21
131.247117
 31
0.0
  0
LINE
  5
173
100
AcDbEntity
  8
0
  6
Continuous
 62
   174
100
AcDbLine
 10
185.122955
 20
127.351639
 30
0.0
 11
183.592177
 21
127.351639
 31
0.0
  0
ARC
  5
174
100
AcDbEntity
  8
0
  6
HIDDEN
 62
   174
100
AcDbCircle
 10
203.860772
 20
144.044236
 30
0.0
 40
3.0
100
AcDbArc
 50
45.384372
 51
60.414254
  0
ARC
  5
175
100
AcDbEntity
  8
0
  6
HIDDEN
 62
   174
100
AcDbCircle
 10
165.574162
 20
131.186487
 30
0.0
 40
3.0
100
AcDbArc
 50
50.17691
 51
55.326874
  0
LINE
  5
176
100
AcDbEntity
  8
0
  6
Continuous
 62
   174
100
AcDbLine
 10
182.061612
 20
127.351639
 30
0.0
 11
180.763872
 21
127.351639
 31
0.0
  0
ARC
  5
177
100
AcDbEntity
  8
0
  6
HIDDEN
 62
   174
100
AcDbCircle
 10
203.860772
 20
144.044236
 30
0.0
 40
3.0
100
AcDbArc
 50
119.05504
 51
135.19323
  0
ARC
  5
178
100
AcDbEntity
  8
0
  6
Continuous
 62
   174
100
AcDbCircle
 10
203.860772
 20
144.044236
 30
0.0
 40
3.0
100
AcDbArc
 50
162.617311
 51
167.61604
  0
ARC
  5
179
100
AcDbEntity
  8
0
  6
Continuous
 62
   174
100
AcDbCircle
 10
203.860772
 20
144.044236
 30
0.0
 40
3.0
100
AcDbArc
 50
35.713514
 51
45.384372
  0
ARC
  5
17A
100
AcDbEntity
  8
0
  6
HIDDEN
 62
   174
100
AcDbCircle
 10
203.860772
 20
144.044236
 30
0.0
 40
8.0
100
AcDbArc
 50
123.159172
 51
148.836325
  0
LINE
  5
17B
100
AcDbEntity
  8
0
  6
Continuous
 62
   174
100
AcDbLine
 10
205.286615
 20
136.172325
 30
0.0
 11
197.414704
 21
134.746483
 31
0.0
  0
ARC
  5
17C
100
AcDbEntity
  8
0
  6
HIDDEN
 62
   174
100
AcDbCircle
 10
203.860772
 20
144.044236
 30
0.0
 40
3.0
100
AcDbArc
 50
77.495947
 51
84.532215
  0
ARC
  5
17D
100
AcDbEntity
  8
0
  6
HIDDEN
 62
   174
100
AcDbCircle
 10
165.574162
 20
131.186487
 30
0.0
 40
3.0
100
AcDbArc
 50
266.851623
 51
283.48657
  0
ENDBLK
  5
17E
100
AcDbEntity
  8
0
100
AcDbBlockEnd
  0
BLOCK
  5
181
100
AcDbEntity
  8
0
100
AcDbBlockBegin
  2
*B2
 70
     0
 10
0.0
 20
0.0
 30
0.0
  3
*B2
  1

  0
LINE
  5
182
100
AcDbEntity
  8
0
  6
Continuous
 62
   172
100
AcDbLine
 10
214.974162
 20
142.044236
 30
0.0
 11
215.074162
 21
142.044236
 31
0.0
  0
LINE
  5
183
100
AcDbEntity
  8
0
  6
Continuous
 62
   172
100
AcDbLine
 10
215.074162
 20
146.044236
 30
0.0
 11
215.174162
 21
146.044236
 31
0.0
  0
ENDBLK
  5
184
100
AcDbEntity
  8
0
100
AcDbBlockEnd
  0
BLOCK
  5
187
100
AcDbEntity
  8
0
100
AcDbBlockBegin
  2
*B3
 70
     0
 10
0.0
 20
0.0
 30
0.0
  3
*B3
  1

  0
LINE
  5
188
100
AcDbEntity
  8
0
  6
HIDDEN
 62
   174
100
AcDbLine
 10
115.428229
 20
110.686487
 30
0.0
 11
107.028229
 21
110.686487
 31
0.0
  0
LINE
  5
189
100
AcDbEntity
  8
0
  6
HIDDEN
 62
   174
100
AcDbLine
 10
115.428229
 20
95.686487
 30
0.0
 11
107.028229
 21
95.686487
 31
0.0
  0
LINE
  5
18A
100
AcDbEntity
  8
0
  6
HIDDEN
 62
   174
100
AcDbLine
 10
115.428229
 20
110.686487
 30
0.0
 11
107.028229
 21
110.686487
 31
0.0
  0
LINE
  5
18B
100
AcDbEntity
  8
0
  6
HIDDEN
 62
   174
100
AcDbLine
 10
115.428229
 20
95.686487
 30
0.0
 11
107.028229
 21
95.686487
 31
0.0
  0
LINE
  5
18C
100
AcDbEntity
  8
0
  6
HIDDEN
 62
   174
100
AcDbLine
 10
107.028229
 20
95.699295
 30
0.0
 11
107.028229
 21
110.698407
 31
0.0
  0
LINE
  5
18D
100
AcDbEntity
  8
0
  6
HIDDEN
 62
   174
100
AcDbLine
 10
115.428229
 20
110.686487
 30
0.0
 11
107.028229
 21
110.686487
 31
0.0
  0
LINE
  5
18E
100
AcDbEntity
  8
0
  6
HIDDEN
 62
   174
100
AcDbLine
 10
115.428229
 20
95.686487
 30
0.0
 11
107.028229
 21
95.686487
 31
0.0
  0
LINE
  5
18F
100
AcDbEntity
  8
0
  6
HIDDEN
 62
   174
100
AcDbLine
 10
115.428229
 20
110.686487
 30
0.0
 11
107.028229
 21
110.686487
 31
0.0
  0
LINE
  5
190
100
AcDbEntity
  8
0
  6
HIDDEN
 62
   174
100
AcDbLine
 10
115.428229
 20
95.686487
 30
0.0
 11
107.028229
 21
95.686487
 31
0.0
  0
LINE
  5
191
100
AcDbEntity
  8
0
  6
HIDDEN
 62
   174
100
AcDbLine
 10
107.028229
 20
95.699295
 30
0.0
 11
107.028229
 21
110.698407
 31
0.0
  0
LINE
  5
192
100
AcDbEntity
  8
0
  6
HIDDEN
 62
   174
100
AcDbLine
 10
93.828229
 20
98.686487
 30
0.0
 11
107.028229
 21
98.686487
 31
0.0
  0
LINE
  5
193
100
AcDbEntity
  8
0
  6
HIDDEN
 62
   174
100
AcDbLine
 10
93.828229
 20
107.686487
 30
0.0
 11
107.028229
 21
107.686487
 31
0.0
  0
LINE
  5
194
100
AcDbEntity
  8
0
  6
HIDDEN
 62
   174
100
AcDbLine
 10
93.828229
 20
98.686487
 30
0.0
 11
107.028229
 21
98.686487
 31
0.0
  0
LINE
  5
195
100
AcDbEntity
  8
0
  6
HIDDEN
 62
   174
100
AcDbLine
 10
115.428229
 20
110.698407
 30
0.0
 11
115.428229
 21
95.699295
 31
0.0
  0
LINE
  5
196
100
AcDbEntity
  8
0
  6
Continuous
 62
   174
100
AcDbLine
 10
90.428229
 20
134.186487
 30
0.0
 11
89.928229
 21
134.186487
 31
0.0
  0
LINE
  5
197
100
AcDbEntity
  8
0
  6
Continuous
 62
   174
100
AcDbLine
 10
90.428229
 20
128.186487
 30
0.0
 11
89.928229
 21
128.186487
 31
0.0
  0
LINE
  5
198
100
AcDbEntity
  8
0
  6
HIDDEN
 62
   174
100
AcDbLine
 10
92.828229
 20
134.186487
 30
0.0
 11
90.428229
 21
134.186487
 31
0.0
  0
LINE
  5
199
100
AcDbEntity
  8
0
  6
HIDDEN
 62
   174
100
AcDbLine
 10
85.428229
 20
134.197095
 30
0.0
 11
85.428229
 21
128.197407
 31
0.0
  0
ARC
  5
19A
100
AcDbEntity
  8
0
  6
Continuous
 62
   174
100
AcDbCircle
 10
100.428229
 20
68.186487
 30
0.0
 40
5.0
100
AcDbArc
 50
-87.885527
 51
87.885527
  0
LINE
  5
19B
100
AcDbEntity
  8
0
  6
Continuous
 62
   174
100
AcDbLine
 10
94.128229
 20
141.044236
 30
0.0
 11
92.828229
 21
141.044236
 31
0.0
  0
LINE
  5
19C
100
AcDbEntity
  8
0
  6
Continuous
 62
   174
100
AcDbLine
 10
94.128229
 20
141.044236
 30
0.0
 11
92.828229
 21
141.044236
 31
0.0
  0
LINE
  5
19D
100
AcDbEntity
  8
0
  6
HIDDEN
 62
   174
100
AcDbLine
 10
110.428229
 20
141.044236
 30
0.0
 11
108.028229
 21
141.044236
 31
0.0
  0
LINE
  5
19E
100
AcDbEntity
  8
0
  6
HIDDEN
 62
   174
100
AcDbLine
 10
110.428229
 20
147.044236
 30
0.0
 11
108.028229
 21
147.044236
 31
0.0
  0
LINE
  5
19F
100
AcDbEntity
  8
0
  6
HIDDEN
 62
   174
100
AcDbLine
 10
110.428229
 20
143.516441
 30
0.0
 11
110.428229
 21
143.386858
 31
0.0
  0
LINE
  5
1A0
100
AcDbEntity
  8
0
  6
HIDDEN
 62
   174
100
AcDbLine
 10
92.828229
 20
128.186487
 30
0.0
 11
91.002647
 21
128.186487
 31
0.0
  0
LINE
  5
1A1
100
AcDbEntity
  8
0
  6
HIDDEN
 62
   174
100
AcDbLine
 10
110.928229
 20
128.186487
 30
0.0
 11
110.428229
 21
128.186487
 31
0.0
  0
LINE
  5
1A2
100
AcDbEntity
  8
0
  6
HIDDEN
 62
   174
100
AcDbLine
 10
92.828229
 20
128.186487
 30
0.0
 11
91.002647
 21
128.186487
 31
0.0
  0
LINE
  5
1A3
100
AcDbEntity
  8
0
  6
HIDDEN
 62
   174
100
AcDbLine
 10
110.928229
 20
128.186487
 30
0.0
 11
110.428229
 21
128.186487
 31
0.0
  0
LINE
  5
1A4
100
AcDbEntity
  8
0
  6
HIDDEN
 62
   174
100
AcDbLine
 10
106.470481
 20
134.186487
 30
0.0
 11
94.385977
 21
134.186487
 31
0.0
  0
LINE
  5
1A5
100
AcDbEntity
  8
0
  6
HIDDEN
 62
   174
100
AcDbLine
 10
94.128229
 20
141.044236
 30
0.0
 11
106.728229
 21
141.044236
 31
0.0
  0
LINE
  5
1A6
100
AcDbEntity
  8
0
  6
HIDDEN
 62
   174
100
AcDbLine
 10
94.128229
 20
144.054316
 30
0.0
 11
94.128229
 21
147.054053
 31
0.0
  0
LINE
  5
1A7
100
AcDbEntity
  8
0
  6
HIDDEN
 62
   174
100
AcDbLine
 10
115.428229
 20
134.186487
 30
0.0
 11
110.928229
 21
134.186487
 31
0.0
  0
LINE
  5
1A8
100
AcDbEntity
  8
0
  6
Continuous
 62
   174
100
AcDbLine
 10
94.385977
 20
134.186487
 30
0.0
 11
92.828229
 21
134.186487
 31
0.0
  0
LINE
  5
1A9
100
AcDbEntity
  8
0
  6
Continuous
 62
   174
100
AcDbLine
 10
90.428229
 20
134.186487
 30
0.0
 11
89.928229
 21
134.186487
 31
0.0
  0
LINE
  5
1AA
100
AcDbEntity
  8
0
  6
HIDDEN
 62
   174
100
AcDbLine
 10
106.470481
 20
134.186487
 30
0.0
 11
94.385977
 21
134.186487
 31
0.0
  0
LINE
  5
1AB
100
AcDbEntity
  8
0
  6
HIDDEN
 62
   174
100
AcDbLine
 10
110.428229
 20
128.186487
 30
0.0
 11
109.853811
 21
128.186487
 31
0.0
  0
LINE
  5
1AC
100
AcDbEntity
  8
0
  6
Continuous
 62
   174
100
AcDbLine
 10
108.028229
 20
141.044236
 30
0.0
 11
106.728229
 21
141.044236
 31
0.0
  0
LINE
  5
1AD
100
AcDbEntity
  8
0
  6
Continuous
 62
   174
100
AcDbLine
 10
108.028229
 20
141.044236
 30
0.0
 11
106.728229
 21
141.044236
 31
0.0
  0
LINE
  5
1AE
100
AcDbEntity
  8
0
  6
HIDDEN
 62
   174
100
AcDbLine
 10
92.828229
 20
141.044236
 30
0.0
 11
90.428229
 21
141.044236
 31
0.0
  0
LINE
  5
1AF
100
AcDbEntity
  8
0
  6
HIDDEN
 62
   174
100
AcDbLine
 10
90.428229
 20
143.386858
 30
0.0
 11
90.428229
 21
141.054366
 31
0.0
  0
LINE
  5
1B0
100
AcDbEntity
  8
0
  6
HIDDEN
 62
   174
100
AcDbLine
 10
90.428229
 20
147.054053
 30
0.0
 11
90.428229
 21
143.516441
 31
0.0
  0
LINE
  5
1B1
100
AcDbEntity
  8
0
  6
HIDDEN
 62
   174
100
AcDbLine
 10
93.828229
 20
107.686487
 30
0.0
 11
107.028229
 21
107.686487
 31
0.0
  0
LINE
  5
1B2
100
AcDbEntity
  8
0
  6
HIDDEN
 62
   174
100
AcDbLine
 10
108.028229
 20
128.186487
 30
0.0
 11
92.828229
 21
128.186487
 31
0.0
  0
LINE
  5
1B3
100
AcDbEntity
  8
0
  6
HIDDEN
 62
   174
100
AcDbLine
 10
115.428229
 20
128.186487
 30
0.0
 11
110.928229
 21
128.186487
 31
0.0
  0
LINE
  5
1B4
100
AcDbEntity
  8
0
  6
HIDDEN
 62
   174
100
AcDbLine
 10
108.028229
 20
128.186487
 30
0.0
 11
92.828229
 21
128.186487
 31
0.0
  0
LINE
  5
1B5
100
AcDbEntity
  8
0
  6
HIDDEN
 62
   174
100
AcDbLine
 10
115.428229
 20
128.186487
 30
0.0
 11
110.928229
 21
128.186487
 31
0.0
  0
LINE
  5
1B6
100
AcDbEntity
  8
0
  6
HIDDEN
 62
   174
100
AcDbLine
 10
110.428229
 20
134.186487
 30
0.0
 11
108.028229
 21
134.186487
 31
0.0
  0
LINE
  5
1B7
100
AcDbEntity
  8
0
  6
HIDDEN
 62
   174
100
AcDbLine
 10
115.428229
 20
134.197095
 30
0.0
 11
115.428229
 21
128.197407
 31
0.0
  0
ARC
  5
1B8
100
AcDbEntity
  8
0
  6
Continuous
 62
   174
100
AcDbCircle
 10
100.428229
 20
68.186487
 30
0.0
 40
5.0
100
AcDbArc
 50
-90.0
 51
-87.885527
  0
ARC
  5
1B9
100
AcDbEntity
  8
0
  6
Continuous
 62
   174
100
AcDbCircle
 10
100.428229
 20
68.186487
 30
0.0
 40
5.0
100
AcDbArc
 50
-272.114473
 51
-270.0
  0
LINE
  5
1BA
100
AcDbEntity
  8
0
  6
HIDDEN
 62
   174
100
AcDbLine
 10
92.828229
 20
147.044236
 30
0.0
 11
90.428229
 21
147.044236
 31
0.0
  0
LINE
  5
1BB
100
AcDbEntity
  8
0
  6
HIDDEN
 62
   174
100
AcDbLine
 10
110.428229
 20
143.386858
 30
0.0
 11
110.428229
 21
141.054366
 31
0.0
  0
LINE
  5
1BC
100
AcDbEntity
  8
0
  6
HIDDEN
 62
   174
100
AcDbLine
 10
110.428229
 20
147.054053
 30
0.0
 11
110.428229
 21
143.516441
 31
0.0
  0
LINE
  5
1BD
100
AcDbEntity
  8
0
  6
HIDDEN
 62
   174
100
AcDbLine
 10
92.828229
 20
121.688345
 30
0.0
 11
90.428229
 21
121.688345
 31
0.0
  0
LINE
  5
1BE
100
AcDbEntity
  8
0
  6
HIDDEN
 62
   174
100
AcDbLine
 10
93.828229
 20
107.686487
 30
0.0
 11
107.028229
 21
107.686487
 31
0.0
  0
LINE
  5
1BF
100
AcDbEntity
  8
0
  6
HIDDEN
 62
   174
100
AcDbLine
 10
93.828229
 20
98.686487
 30
0.0
 11
107.028229
 21
98.686487
 31
0.0
  0
LINE
  5
1C0
100
AcDbEntity
  8
0
  6
HIDDEN
 62
   174
100
AcDbLine
 10
107.028229
 20
107.69867
 30
0.0
 11
107.028229
 21
98.699033
 31
0.0
  0
LINE
  5
1C1
100
AcDbEntity
  8
0
  6
Continuous
 62
   174
100
AcDbLine
 10
108.028229
 20
134.186487
 30
0.0
 11
106.470481
 21
134.186487
 31
0.0
  0
LINE
  5
1C2
100
AcDbEntity
  8
0
  6
Continuous
 62
   174
100
AcDbLine
 10
94.385977
 20
134.186487
 30
0.0
 11
92.828229
 21
134.186487
 31
0.0
  0
LINE
  5
1C3
100
AcDbEntity
  8
0
  6
HIDDEN
 62
   174
100
AcDbLine
 10
110.428229
 20
134.186487
 30
0.0
 11
108.028229
 21
134.186487
 31
0.0
  0
LINE
  5
1C4
100
AcDbEntity
  8
0
  6
HIDDEN
 62
   174
100
AcDbLine
 10
110.928229
 20
134.186487
 30
0.0
 11
110.428229
 21
134.186487
 31
0.0
  0
ARC
  5
1C5
100
AcDbEntity
  8
0
  6
Continuous
 62
   174
100
AcDbCircle
 10
100.428229
 20
68.186487
 30
0.0
 40
5.0
100
AcDbArc
 50
-270.0
 51
-267.885527
  0
LINE
  5
1C6
100
AcDbEntity
  8
0
  6
Continuous
 62
   174
100
AcDbLine
 10
94.128229
 20
147.044236
 30
0.0
 11
92.828229
 21
147.044236
 31
0.0
  0
LINE
  5
1C7
100
AcDbEntity
  8
0
  6
Continuous
 62
   174
100
AcDbLine
 10
94.128229
 20
147.044236
 30
0.0
 11
92.828229
 21
147.044236
 31
0.0
  0
LINE
  5
1C8
100
AcDbEntity
  8
0
  6
HIDDEN
 62
   174
100
AcDbLine
 10
92.828229
 20
141.044236
 30
0.0
 11
90.428229
 21
141.044236
 31
0.0
  0
LINE
  5
1C9
100
AcDbEntity
  8
0
  6
HIDDEN
 62
   174
100
AcDbLine
 10
92.828229
 20
147.044236
 30
0.0
 11
90.428229
 21
147.044236
 31
0.0
  0
LINE
  5
1CA
100
AcDbEntity
  8
0
  6
HIDDEN
 62
   174
100
AcDbLine
 10
106.728229
 20
141.044236
 30
0.0
 11
94.128229
 21
141.044236
 31
0.0
  0
LINE
  5
1CB
100
AcDbEntity
  8
0
  6
HIDDEN
 62
   174
100
AcDbLine
 10
92.828229
 20
131.247117
 30
0.0
 11
90.428229
 21
131.247117
 31
0.0
  0
LINE
  5
1CC
100
AcDbEntity
  8
0
  6
Continuous
 62
   174
100
AcDbLine
 10
92.828229
 20
136.172325
 30
0.0
 11
90.428229
 21
136.172325
 31
0.0
  0
LINE
  5
1CD
100
AcDbEntity
  8
0
  6
HIDDEN
 62
   174
100
AcDbLine
 10
94.128229
 20
141.054366
 30
0.0
 11
94.128229
 21
144.054316
 31
0.0
  0
LINE
  5
1CE
100
AcDbEntity
  8
0
  6
HIDDEN
 62
   174
100
AcDbLine
 10
106.728229
 20
147.054053
 30
0.0
 11
106.728229
 21
144.054316
 31
0.0
  0
LINE
  5
1CF
100
AcDbEntity
  8
0
  6
HIDDEN
 62
   174
100
AcDbLine
 10
93.828229
 20
98.686487
 30
0.0
 11
107.028229
 21
98.686487
 31
0.0
  0
LINE
  5
1D0
100
AcDbEntity
  8
0
  6
HIDDEN
 62
   174
100
AcDbLine
 10
107.028229
 20
107.69867
 30
0.0
 11
107.028229
 21
98.699033
 31
0.0
  0
LINE
  5
1D1
100
AcDbEntity
  8
0
  6
HIDDEN
 62
   174
100
AcDbLine
 10
89.928229
 20
128.186487
 30
0.0
 11
85.428229
 21
128.186487
 31
0.0
  0
LINE
  5
1D2
100
AcDbEntity
  8
0
  6
HIDDEN
 62
   174
100
AcDbLine
 10
89.928229
 20
128.186487
 30
0.0
 11
85.428229
 21
128.186487
 31
0.0
  0
LINE
  5
1D3
100
AcDbEntity
  8
0
  6
HIDDEN
 62
   174
100
AcDbLine
 10
109.853811
 20
128.186487
 30
0.0
 11
108.028229
 21
128.186487
 31
0.0
  0
LINE
  5
1D4
100
AcDbEntity
  8
0
  6
HIDDEN
 62
   174
100
AcDbLine
 10
89.928229
 20
134.186487
 30
0.0
 11
85.428229
 21
134.186487
 31
0.0
  0
LINE
  5
1D5
100
AcDbEntity
  8
0
  6
HIDDEN
 62
   174
100
AcDbLine
 10
110.428229
 20
147.044236
 30
0.0
 11
108.028229
 21
147.044236
 31
0.0
  0
ARC
  5
1D6
100
AcDbEntity
  8
0
  6
Continuous
 62
   174
100
AcDbCircle
 10
100.428229
 20
88.186487
 30
0.0
 40
5.0
100
AcDbArc
 50
-267.885527
 51
-151.175158
  0
ARC
  5
1D7
100
AcDbEntity
  8
0
  6
Continuous
 62
   174
100
AcDbCircle
 10
100.428229
 20
88.186487
 30
0.0
 40
5.0
100
AcDbArc
 50
-270.0
 51
-267.885527
  0
ARC
  5
1D8
100
AcDbEntity
  8
0
  6
Continuous
 62
   174
100
AcDbCircle
 10
100.428229
 20
88.186487
 30
0.0
 40
5.0
100
AcDbArc
 50
-87.885527
 51
87.885527
  0
LINE
  5
1D9
100
AcDbEntity
  8
0
  6
Continuous
 62
   174
100
AcDbLine
 10
85.428229
 20
51.186487
 30
0.0
 11
115.428229
 21
51.186487
 31
0.0
  0
LINE
  5
1DA
100
AcDbEntity
  8
0
  6
HIDDEN
 62
   174
100
AcDbLine
 10
94.128229
 20
147.044236
 30
0.0
 11
106.728229
 21
147.044236
 31
0.0
  0
LINE
  5
1DB
100
AcDbEntity
  8
0
  6
HIDDEN
 62
   174
100
AcDbLine
 10
93.828229
 20
107.686487
 30
0.0
 11
107.028229
 21
107.686487
 31
0.0
  0
LINE
  5
1DC
100
AcDbEntity
  8
0
  6
HIDDEN
 62
   174
100
AcDbLine
 10
115.428229
 20
110.698407
 30
0.0
 11
115.428229
 21
95.699295
 31
0.0
  0
LINE
  5
1DD
100
AcDbEntity
  8
0
  6
Continuous
 62
   174
100
AcDbLine
 10
90.428229
 20
128.186487
 30
0.0
 11
89.928229
 21
128.186487
 31
0.0
  0
LINE
  5
1DE
100
AcDbEntity
  8
0
  6
Continuous
 62
   174
100
AcDbLine
 10
108.028229
 20
134.186487
 30
0.0
 11
106.470481
 21
134.186487
 31
0.0
  0
LINE
  5
1DF
100
AcDbEntity
  8
0
  6
HIDDEN
 62
   174
100
AcDbLine
 10
89.928229
 20
134.186487
 30
0.0
 11
85.428229
 21
134.186487
 31
0.0
  0
LINE
  5
1E0
100
AcDbEntity
  8
0
  6
HIDDEN
 62
   174
100
AcDbLine
 10
110.928229
 20
134.186487
 30
0.0
 11
110.428229
 21
134.186487
 31
0.0
  0
ARC
  5
1E1
100
AcDbEntity
  8
0
  6
Continuous
 62
   174
100
AcDbCircle
 10
100.428229
 20
68.186487
 30
0.0
 40
5.0
100
AcDbArc
 50
-267.885527
 51
-151.175158
  0
LINE
  5
1E2
100
AcDbEntity
  8
0
  6
Continuous
 62
   174
100
AcDbLine
 10
108.028229
 20
147.044236
 30
0.0
 11
106.728229
 21
147.044236
 31
0.0
  0
LINE
  5
1E3
100
AcDbEntity
  8
0
  6
Continuous
 62
   174
100
AcDbLine
 10
108.028229
 20
147.044236
 30
0.0
 11
106.728229
 21
147.044236
 31
0.0
  0
LINE
  5
1E4
100
AcDbEntity
  8
0
  6
HIDDEN
 62
   174
100
AcDbLine
 10
106.728229
 20
141.044236
 30
0.0
 11
94.128229
 21
141.044236
 31
0.0
  0
LINE
  5
1E5
100
AcDbEntity
  8
0
  6
HIDDEN
 62
   174
100
AcDbLine
 10
106.728229
 20
147.044236
 30
0.0
 11
94.128229
 21
147.044236
 31
0.0
  0
LINE
  5
1E6
100
AcDbEntity
  8
0
  6
Continuous
 62
   174
100
AcDbLine
 10
92.828229
 20
134.746483
 30
0.0
 11
90.428229
 21
134.746483
 31
0.0
  0
LINE
  5
1E7
100
AcDbEntity
  8
0
  6
HIDDEN
 62
   174
100
AcDbLine
 10
115.428229
 20
134.186487
 30
0.0
 11
110.928229
 21
134.186487
 31
0.0
  0
LINE
  5
1E8
100
AcDbEntity
  8
0
  6
HIDDEN
 62
   174
100
AcDbLine
 10
91.002647
 20
128.186487
 30
0.0
 11
90.428229
 21
128.186487
 31
0.0
  0
LINE
  5
1E9
100
AcDbEntity
  8
0
  6
HIDDEN
 62
   174
100
AcDbLine
 10
109.853811
 20
128.186487
 30
0.0
 11
108.028229
 21
128.186487
 31
0.0
  0
LINE
  5
1EA
100
AcDbEntity
  8
0
  6
HIDDEN
 62
   174
100
AcDbLine
 10
91.002647
 20
128.186487
 30
0.0
 11
90.428229
 21
128.186487
 31
0.0
  0
LINE
  5
1EB
100
AcDbEntity
  8
0
  6
HIDDEN
 62
   174
100
AcDbLine
 10
110.428229
 20
128.186487
 30
0.0
 11
109.853811
 21
128.186487
 31
0.0
  0
LINE
  5
1EC
100
AcDbEntity
  8
0
  6
HIDDEN
 62
   174
100
AcDbLine
 10
92.828229
 20
134.186487
 30
0.0
 11
90.428229
 21
134.186487
 31
0.0
  0
LINE
  5
1ED
100
AcDbEntity
  8
0
  6
HIDDEN
 62
   174
100
AcDbLine
 10
110.428229
 20
141.044236
 30
0.0
 11
108.028229
 21
141.044236
 31
0.0
  0
LINE
  5
1EE
100
AcDbEntity
  8
0
  6
HIDDEN
 62
   174
100
AcDbLine
 10
106.728229
 20
147.044236
 30
0.0
 11
94.128229
 21
147.044236
 31
0.0
  0
LINE
  5
1EF
100
AcDbEntity
  8
0
  6
HIDDEN
 62
   174
100
AcDbLine
 10
90.428229
 20
143.516441
 30
0.0
 11
90.428229
 21
143.386858
 31
0.0
  0
ARC
  5
1F0
100
AcDbEntity
  8
0
  6
Continuous
 62
   174
100
AcDbCircle
 10
100.428229
 20
88.186487
 30
0.0
 40
5.0
100
AcDbArc
 50
-90.0
 51
-87.885527
  0
ARC
  5
1F1
100
AcDbEntity
  8
0
  6
Continuous
 62
   174
100
AcDbCircle
 10
100.428229
 20
88.186487
 30
0.0
 40
5.0
100
AcDbArc
 50
-272.114473
 51
-270.0
  0
LINE
  5
1F2
100
AcDbEntity
  8
0
  6
Continuous
 62
   174
100
AcDbLine
 10
92.828229
 20
152.044236
 30
0.0
 11
90.428229
 21
152.044236
 31
0.0
  0
LINE
  5
1F3
100
AcDbEntity
  8
0
  6
Continuous
 62
   174
100
AcDbLine
 10
92.828229
 20
124.555993
 30
0.0
 11
90.428229
 21
124.555993
 31
0.0
  0
LINE
  5
1F4
100
AcDbEntity
  8
0
  6
Continuous
 62
   174
100
AcDbLine
 10
85.428229
 20
120.186487
 30
0.0
 11
115.428229
 21
120.186487
 31
0.0
  0
LINE
  5
1F5
100
AcDbEntity
  8
0
  6
HIDDEN
 62
   174
100
AcDbLine
 10
106.728229
 20
144.054316
 30
0.0
 11
106.728229
 21
141.054366
 31
0.0
  0
LINE
  5
1F6
100
AcDbEntity
  8
0
  6
HIDDEN
 62
   174
100
AcDbLine
 10
93.828229
 20
110.698407
 30
0.0
 11
93.828229
 21
95.699295
 31
0.0
  0
LINE
  5
1F7
100
AcDbEntity
  8
0
  6
Continuous
 62
   174
100
AcDbLine
 10
94.528229
 20
144.054316
 30
0.0
 11
94.528229
 21
136.405739
 31
0.0
  0
LINE
  5
1F8
100
AcDbEntity
  8
0
  6
HIDDEN
 62
   174
100
AcDbLine
 10
85.428229
 20
95.686487
 30
0.0
 11
93.828229
 21
95.686487
 31
0.0
  0
LINE
  5
1F9
100
AcDbEntity
  8
0
  6
HIDDEN
 62
   174
100
AcDbLine
 10
92.828229
 20
143.519627
 30
0.0
 11
92.828229
 21
147.054053
 31
0.0
  0
LINE
  5
1FA
100
AcDbEntity
  8
0
  6
Continuous
 62
   174
100
AcDbLine
 10
110.428229
 20
132.316499
 30
0.0
 11
110.428229
 21
131.247117
 31
0.0
  0
LINE
  5
1FB
100
AcDbEntity
  8
0
  6
Continuous
 62
   174
100
AcDbLine
 10
92.828229
 20
127.593353
 30
0.0
 11
92.828229
 21
124.555993
 31
0.0
  0
LINE
  5
1FC
100
AcDbEntity
  8
0
  6
Continuous
 62
   174
100
AcDbLine
 10
115.428229
 20
139.186487
 30
0.0
 11
115.428229
 21
120.186487
 31
0.0
  0
LINE
  5
1FD
100
AcDbEntity
  8
0
  6
HIDDEN
 62
   174
100
AcDbLine
 10
110.928229
 20
129.480915
 30
0.0
 11
110.928229
 21
130.891881
 31
0.0
  0
LINE
  5
1FE
100
AcDbEntity
  8
0
  6
HIDDEN
 62
   174
100
AcDbLine
 10
89.928229
 20
133.040196
 30
0.0
 11
89.928229
 21
131.50262
 31
0.0
  0
LINE
  5
1FF
100
AcDbEntity
  8
0
  6
HIDDEN
 62
   174
100
AcDbLine
 10
110.428229
 20
131.813407
 30
0.0
 11
110.428229
 21
131.259175
 31
0.0
  0
LINE
  5
200
100
AcDbEntity
  8
0
  6
HIDDEN
 62
   174
100
AcDbLine
 10
108.028229
 20
134.149085
 30
0.0
 11
108.028229
 21
134.197095
 31
0.0
  0
ARC
  5
201
100
AcDbEntity
  8
0
  6
Continuous
 62
   174
100
AcDbCircle
 10
100.428229
 20
88.186487
 30
0.0
 40
4.2
100
AcDbArc
 50
119.887443
 51
140.438453
  0
LINE
  5
202
100
AcDbEntity
  8
0
  6
Continuous
 62
   174
100
AcDbLine
 10
85.428229
 20
51.186487
 30
0.0
 11
85.428229
 21
120.186487
 31
0.0
  0
LINE
  5
203
100
AcDbEntity
  8
0
  6
Continuous
 62
   174
100
AcDbLine
 10
89.928229
 20
124.555993
 30
0.0
 11
89.928229
 21
121.786487
 31
0.0
  0
LINE
  5
204
100
AcDbEntity
  8
0
  6
Continuous
 62
   174
100
AcDbLine
 10
110.928229
 20
124.555993
 30
0.0
 11
110.928229
 21
121.786487
 31
0.0
  0
LINE
  5
205
100
AcDbEntity
  8
0
  6
HIDDEN
 62
   174
100
AcDbLine
 10
90.428229
 20
141.054366
 30
0.0
 11
90.428229
 21
143.519627
 31
0.0
  0
ARC
  5
206
100
AcDbEntity
  8
0
  6
Continuous
 62
   174
100
AcDbCircle
 10
100.428229
 20
88.186487
 30
0.0
 40
4.2
100
AcDbArc
 50
60.112557
 51
90.0
  0
LINE
  5
207
100
AcDbEntity
  8
0
  6
Continuous
 62
   174
100
AcDbLine
 10
90.428229
 20
129.56133
 30
0.0
 11
90.428229
 21
124.555993
 31
0.0
  0
LINE
  5
208
100
AcDbEntity
  8
0
  6
HIDDEN
 62
   174
100
AcDbLine
 10
85.428229
 20
95.699295
 30
0.0
 11
85.428229
 21
110.698407
 31
0.0
  0
LINE
  5
209
100
AcDbEntity
  8
0
  6
HIDDEN
 62
   174
100
AcDbLine
 10
90.428229
 20
132.909126
 30
0.0
 11
90.428229
 21
134.149085
 31
0.0
  0
LINE
  5
20A
100
AcDbEntity
  8
0
  6
Continuous
 62
   174
100
AcDbLine
 10
92.828229
 20
134.746483
 30
0.0
 11
92.828229
 21
133.341302
 31
0.0
  0
LINE
  5
20B
100
AcDbEntity
  8
0
  6
HIDDEN
 62
   174
100
AcDbLine
 10
110.428229
 20
131.247117
 30
0.0
 11
110.428229
 21
129.56133
 31
0.0
  0
LINE
  5
20C
100
AcDbEntity
  8
0
  6
HIDDEN
 62
   174
100
AcDbLine
 10
110.928229
 20
128.186487
 30
0.0
 11
115.428229
 21
128.186487
 31
0.0
  0
ARC
  5
20D
100
AcDbEntity
  8
0
  6
Continuous
 62
   174
100
AcDbCircle
 10
100.428229
 20
68.186487
 30
0.0
 40
4.2
100
AcDbArc
 50
62.11454
 51
90.0
  0
LINE
  5
20E
100
AcDbEntity
  8
0
  6
Continuous
 62
   174
100
AcDbLine
 10
108.028229
 20
134.746483
 30
0.0
 11
108.028229
 21
133.341302
 31
0.0
  0
LINE
  5
20F
100
AcDbEntity
  8
0
  6
HIDDEN
 62
   174
100
AcDbLine
 10
103.270108
 20
127.593353
 30
0.0
 11
100.428229
 21
127.593353
 31
0.0
  0
LINE
  5
210
100
AcDbEntity
  8
0
  6
Continuous
 62
   174
100
AcDbLine
 10
94.528229
 20
134.044236
 30
0.0
 11
106.328229
 21
134.044236
 31
0.0
  0
LINE
  5
211
100
AcDbEntity
  8
0
  6
Continuous
 62
   174
100
AcDbLine
 10
110.428229
 20
147.072747
 30
0.0
 11
110.428229
 21
152.053828
 31
0.0
  0
LINE
  5
212
100
AcDbEntity
  8
0
  6
HIDDEN
 62
   174
100
AcDbLine
 10
108.028229
 20
121.786487
 30
0.0
 11
108.028229
 21
121.688345
 31
0.0
  0
LINE
  5
213
100
AcDbEntity
  8
0
  6
Continuous
 62
   174
100
AcDbLine
 10
110.428229
 20
131.247117
 30
0.0
 11
110.428229
 21
129.56133
 31
0.0
  0
LINE
  5
214
100
AcDbEntity
  8
0
  6
HIDDEN
 62
   174
100
AcDbLine
 10
85.428229
 20
110.686487
 30
0.0
 11
93.828229
 21
110.686487
 31
0.0
  0
LINE
  5
215
100
AcDbEntity
  8
0
  6
Continuous
 62
   174
100
AcDbLine
 10
90.428229
 20
143.520052
 30
0.0
 11
90.428229
 21
146.84927
 31
0.0
  0
LINE
  5
216
100
AcDbEntity
  8
0
  6
HIDDEN
 62
   174
100
AcDbLine
 10
92.828229
 20
129.590529
 30
0.0
 11
92.828229
 21
130.662668
 31
0.0
  0
LWPOLYLINE
  5
217
100
AcDbEntity
  8
0
  6
Continuous
 62
   174
100
AcDbPolyline
 90
        4
 70
   128
 10
90.428229
 20
129.56133
 10
90.696178
 20
128.577341
 10
91.428229
 20
127.857012
 10
92.428229
 20
127.593353
  0
LINE
  5
218
100
AcDbEntity
  8
0
  6
Continuous
 62
   174
100
AcDbLine
 10
106.328229
 20
153.95721
 30
0.0
 11
106.328229
 21
151.702892
 31
0.0
  0
LINE
  5
219
100
AcDbEntity
  8
0
  6
Continuous
 62
   174
100
AcDbLine
 10
92.828229
 20
143.520052
 30
0.0
 11
92.828229
 21
146.84927
 31
0.0
  0
LINE
  5
21A
100
AcDbEntity
  8
0
  6
Continuous
 62
   174
100
AcDbLine
 10
96.428229
 20
120.186487
 30
0.0
 11
96.428229
 21
127.351639
 31
0.0
  0
ARC
  5
21B
100
AcDbEntity
  8
0
  6
Continuous
 62
   174
100
AcDbCircle
 10
100.428229
 20
68.186487
 30
0.0
 40
4.2
100
AcDbArc
 50
326.097693
 51
336.762194
  0
LINE
  5
21C
100
AcDbEntity
  8
0
  6
Continuous
 62
   174
100
AcDbLine
 10
108.428229
 20
130.979729
 30
0.0
 11
92.428229
 21
130.979729
 31
0.0
  0
LINE
  5
21D
100
AcDbEntity
  8
0
  6
Continuous
 62
   174
100
AcDbLine
 10
94.128229
 20
135.32043
 30
0.0
 11
94.128229
 21
134.552917
 31
0.0
  0
LINE
  5
21E
100
AcDbEntity
  8
0
  6
Continuous
 62
   174
100
AcDbLine
 10
89.928229
 20
121.786487
 30
0.0
 11
90.428229
 21
121.786487
 31
0.0
  0
LINE
  5
21F
100
AcDbEntity
  8
0
  6
Continuous
 62
   174
100
AcDbLine
 10
85.428229
 20
139.186487
 30
0.0
 11
89.928229
 21
139.186487
 31
0.0
  0
LINE
  5
220
100
AcDbEntity
  8
0
  6
HIDDEN
 62
   174
100
AcDbLine
 10
92.828229
 20
121.786487
 30
0.0
 11
92.828229
 21
121.688345
 31
0.0
  0
LINE
  5
221
100
AcDbEntity
  8
0
  6
Continuous
 62
   174
100
AcDbLine
 10
106.328229
 20
134.922759
 30
0.0
 11
106.328229
 21
134.054766
 31
0.0
  0
ARC
  5
222
100
AcDbEntity
  8
0
  6
Continuous
 62
   174
100
AcDbCircle
 10
100.428229
 20
68.186487
 30
0.0
 40
4.2
100
AcDbArc
 50
174.471467
 51
185.528533
  0
LINE
  5
223
100
AcDbEntity
  8
0
  6
HIDDEN
 62
   174
100
AcDbLine
 10
93.828229
 20
98.699033
 30
0.0
 11
93.828229
 21
107.69867
 31
0.0
  0
LINE
  5
224
100
AcDbEntity
  8
0
  6
Continuous
 62
   174
100
AcDbLine
 10
90.428229
 20
124.555993
 30
0.0
 11
90.428229
 21
121.786487
 31
0.0
  0
LINE
  5
225
100
AcDbEntity
  8
0
  6
HIDDEN
 62
   174
100
AcDbLine
 10
89.928229
 20
131.50262
 30
0.0
 11
89.928229
 21
129.423984
 31
0.0
  0
LINE
  5
226
100
AcDbEntity
  8
0
  6
HIDDEN
 62
   174
100
AcDbLine
 10
110.928229
 20
130.891881
 30
0.0
 11
110.928229
 21
132.958835
 31
0.0
  0
LINE
  5
227
100
AcDbEntity
  8
0
  6
HIDDEN
 62
   174
100
AcDbLine
 10
110.428229
 20
131.259175
 30
0.0
 11
110.428229
 21
130.662668
 31
0.0
  0
LINE
  5
228
100
AcDbEntity
  8
0
  6
HIDDEN
 62
   174
100
AcDbLine
 10
90.428229
 20
128.197407
 30
0.0
 11
90.428229
 21
129.590529
 31
0.0
  0
ARC
  5
229
100
AcDbEntity
  8
0
  6
Continuous
 62
   174
100
AcDbCircle
 10
100.428229
 20
88.186487
 30
0.0
 40
4.2
100
AcDbArc
 50
39.561547
 51
60.112557
  0
ARC
  5
22A
100
AcDbEntity
  8
0
  6
Continuous
 62
   174
100
AcDbCircle
 10
100.428229
 20
88.186487
 30
0.0
 40
4.2
100
AcDbArc
 50
90.0
 51
119.887443
  0
LINE
  5
22B
100
AcDbEntity
  8
0
  6
HIDDEN
 62
   174
100
AcDbLine
 10
100.428229
 20
127.593353
 30
0.0
 11
97.58635
 21
127.593353
 31
0.0
  0
LWPOLYLINE
  5
22C
100
AcDbEntity
  8
0
  6
Continuous
 62
   174
100
AcDbPolyline
 90
        4
 70
   128
 10
108.428229
 20
127.593353
 10
109.428229
 20
127.857012
 10
110.16028
 20
128.577341
 10
110.428229
 20
129.56133
  0
LINE
  5
22D
100
AcDbEntity
  8
0
  6
HIDDEN
 62
   174
100
AcDbLine
 10
92.828229
 20
141.054366
 30
0.0
 11
92.828229
 21
143.519627
 31
0.0
  0
ARC
  5
22E
100
AcDbEntity
  8
0
  6
Continuous
 62
   174
100
AcDbCircle
 10
100.428229
 20
88.186487
 30
0.0
 40
4.2
100
AcDbArc
 50
240.112557
 51
270.0
  0
LINE
  5
22F
100
AcDbEntity
  8
0
  6
Continuous
 62
   174
100
AcDbLine
 10
106.728229
 20
152.78799
 30
0.0
 11
106.728229
 21
144.054316
 31
0.0
  0
LINE
  5
230
100
AcDbEntity
  8
0
  6
Continuous
 62
   174
100
AcDbLine
 10
85.428229
 20
139.186487
 30
0.0
 11
85.428229
 21
120.186487
 31
0.0
  0
LINE
  5
231
100
AcDbEntity
  8
0
  6
Continuous
 62
   174
100
AcDbLine
 10
98.915712
 20
127.351639
 30
0.0
 11
96.446415
 21
127.351639
 31
0.0
  0
LINE
  5
232
100
AcDbEntity
  8
0
  6
HIDDEN
 62
   174
100
AcDbLine
 10
110.428229
 20
143.519627
 30
0.0
 11
110.428229
 21
141.054366
 31
0.0
  0
LINE
  5
233
100
AcDbEntity
  8
0
  6
HIDDEN
 62
   174
100
AcDbLine
 10
90.428229
 20
134.149085
 30
0.0
 11
90.428229
 21
134.197095
 31
0.0
  0
LINE
  5
234
100
AcDbEntity
  8
0
  6
Continuous
 62
   174
100
AcDbLine
 10
110.428229
 20
134.746483
 30
0.0
 11
110.428229
 21
132.947706
 31
0.0
  0
LINE
  5
235
100
AcDbEntity
  8
0
  6
Continuous
 62
   174
100
AcDbLine
 10
90.428229
 20
121.786487
 30
0.0
 11
92.828229
 21
121.786487
 31
0.0
  0
LINE
  5
236
100
AcDbEntity
  8
0
  6
HIDDEN
 62
   174
100
AcDbLine
 10
110.928229
 20
134.186487
 30
0.0
 11
115.428229
 21
134.186487
 31
0.0
  0
ARC
  5
237
100
AcDbEntity
  8
0
  6
Continuous
 62
   174
100
AcDbCircle
 10
100.428229
 20
68.186487
 30
0.0
 40
4.2
100
AcDbArc
 50
53.248581
 51
62.11454
  0
LINE
  5
238
100
AcDbEntity
  8
0
  6
HIDDEN
 62
   174
100
AcDbLine
 10
110.428229
 20
132.316499
 30
0.0
 11
110.428229
 21
131.247117
 31
0.0
  0
LINE
  5
239
100
AcDbEntity
  8
0
  6
HIDDEN
 62
   174
100
AcDbLine
 10
85.428229
 20
128.197407
 30
0.0
 11
85.428229
 21
134.197095
 31
0.0
  0
LINE
  5
23A
100
AcDbEntity
  8
0
  6
HIDDEN
 62
   174
100
AcDbLine
 10
110.428229
 20
134.197095
 30
0.0
 11
110.428229
 21
134.149085
 31
0.0
  0
LINE
  5
23B
100
AcDbEntity
  8
0
  6
Continuous
 62
   174
100
AcDbLine
 10
108.028229
 20
147.072747
 30
0.0
 11
108.028229
 21
152.053828
 31
0.0
  0
LINE
  5
23C
100
AcDbEntity
  8
0
  6
Continuous
 62
   174
100
AcDbLine
 10
106.328229
 20
154.053653
 30
0.0
 11
106.328229
 21
153.95721
 31
0.0
  0
LINE
  5
23D
100
AcDbEntity
  8
0
  6
Continuous
 62
   174
100
AcDbLine
 10
92.828229
 20
140.995947
 30
0.0
 11
92.828229
 21
143.520052
 31
0.0
  0
LINE
  5
23E
100
AcDbEntity
  8
0
  6
HIDDEN
 62
   174
100
AcDbLine
 10
90.428229
 20
132.316499
 30
0.0
 11
90.428229
 21
131.247117
 31
0.0
  0
LINE
  5
23F
100
AcDbEntity
  8
0
  6
Continuous
 62
   174
100
AcDbLine
 10
90.428229
 20
136.172325
 30
0.0
 11
90.428229
 21
134.746483
 31
0.0
  0
LINE
  5
240
100
AcDbEntity
  8
0
  6
Continuous
 62
   174
100
AcDbLine
 10
90.428229
 20
140.995947
 30
0.0
 11
90.428229
 21
143.520052
 31
0.0
  0
LINE
  5
241
100
AcDbEntity
  8
0
  6
HIDDEN
 62
   174
100
AcDbLine
 10
110.928229
 20
128.186487
 30
0.0
 11
115.428229
 21
128.186487
 31
0.0
  0
ARC
  5
242
100
AcDbEntity
  8
0
  6
Continuous
 62
   174
100
AcDbCircle
 10
100.428229
 20
68.186487
 30
0.0
 40
4.2
100
AcDbArc
 50
306.751419
 51
326.097693
  0
LINE
  5
243
100
AcDbEntity
  8
0
  6
HIDDEN
 62
   174
100
AcDbLine
 10
90.428229
 20
132.947706
 30
0.0
 11
90.428229
 21
132.316499
 31
0.0
  0
LINE
  5
244
100
AcDbEntity
  8
0
  6
HIDDEN
 62
   174
100
AcDbLine
 10
85.428229
 20
95.686487
 30
0.0
 11
93.828229
 21
95.686487
 31
0.0
  0
LINE
  5
245
100
AcDbEntity
  8
0
  6
Continuous
 62
   174
100
AcDbLine
 10
94.128229
 20
144.054316
 30
0.0
 11
94.128229
 21
135.32043
 31
0.0
  0
LINE
  5
246
100
AcDbEntity
  8
0
  6
HIDDEN
 62
   174
100
AcDbLine
 10
93.828229
 20
98.699033
 30
0.0
 11
93.828229
 21
107.69867
 31
0.0
  0
LINE
  5
247
100
AcDbEntity
  8
0
  6
Continuous
 62
   174
100
AcDbLine
 10
108.428229
 20
130.979729
 30
0.0
 11
108.428229
 21
127.593353
 31
0.0
  0
LINE
  5
248
100
AcDbEntity
  8
0
  6
Continuous
 62
   174
100
AcDbLine
 10
89.928229
 20
139.186487
 30
0.0
 11
89.928229
 21
136.172325
 31
0.0
  0
LINE
  5
249
100
AcDbEntity
  8
0
  6
Continuous
 62
   174
100
AcDbLine
 10
110.928229
 20
139.186487
 30
0.0
 11
110.928229
 21
136.172325
 31
0.0
  0
LINE
  5
24A
100
AcDbEntity
  8
0
  6
Continuous
 62
   174
100
AcDbLine
 10
110.428229
 20
146.84927
 30
0.0
 11
110.428229
 21
147.072747
 31
0.0
  0
ARC
  5
24B
100
AcDbEntity
  8
0
  6
Continuous
 62
   174
100
AcDbCircle
 10
100.428229
 20
68.186487
 30
0.0
 40
4.2
100
AcDbArc
 50
156.762194
 51
174.471467
  0
LINE
  5
24C
100
AcDbEntity
  8
0
  6
Continuous
 62
   174
100
AcDbLine
 10
106.328229
 20
136.405739
 30
0.0
 11
106.328229
 21
134.922759
 31
0.0
  0
LINE
  5
24D
100
AcDbEntity
  8
0
  6
Continuous
 62
   174
100
AcDbLine
 10
90.428229
 20
132.316499
 30
0.0
 11
90.428229
 21
131.247117
 31
0.0
  0
LINE
  5
24E
100
AcDbEntity
  8
0
  6
Continuous
 62
   174
100
AcDbLine
 10
92.828229
 20
121.786487
 30
0.0
 11
96.428229
 21
121.786487
 31
0.0
  0
LINE
  5
24F
100
AcDbEntity
  8
0
  6
HIDDEN
 62
   174
100
AcDbLine
 10
110.928229
 20
132.958835
 30
0.0
 11
110.928229
 21
134.197095
 31
0.0
  0
LINE
  5
250
100
AcDbEntity
  8
0
  6
HIDDEN
 62
   174
100
AcDbLine
 10
89.928229
 20
129.423984
 30
0.0
 11
89.928229
 21
128.25965
 31
0.0
  0
LINE
  5
251
100
AcDbEntity
  8
0
  6
HIDDEN
 62
   174
100
AcDbLine
 10
110.428229
 20
130.662668
 30
0.0
 11
110.428229
 21
129.590529
 31
0.0
  0
LINE
  5
252
100
AcDbEntity
  8
0
  6
HIDDEN
 62
   174
100
AcDbLine
 10
90.428229
 20
129.590529
 30
0.0
 11
90.428229
 21
130.662668
 31
0.0
  0
ARC
  5
253
100
AcDbEntity
  8
0
  6
Continuous
 62
   174
100
AcDbCircle
 10
100.428229
 20
68.186487
 30
0.0
 40
4.2
100
AcDbArc
 50
242.11454
 51
270.0
  0
LINE
  5
254
100
AcDbEntity
  8
0
  6
HIDDEN
 62
   174
100
AcDbLine
 10
92.828229
 20
130.662668
 30
0.0
 11
92.828229
 21
131.813407
 31
0.0
  0
ARC
  5
255
100
AcDbEntity
  8
0
  6
Continuous
 62
   174
100
AcDbCircle
 10
100.428229
 20
88.186487
 30
0.0
 40
4.2
100
AcDbArc
 50
30.052106
 51
39.561547
  0
LINE
  5
256
100
AcDbEntity
  8
0
  6
Continuous
 62
   174
100
AcDbLine
 10
100.446277
 20
127.351639
 30
0.0
 11
98.915712
 21
127.351639
 31
0.0
  0
LINE
  5
257
100
AcDbEntity
  8
0
  6
HIDDEN
 62
   174
100
AcDbLine
 10
108.028229
 20
130.662668
 30
0.0
 11
108.028229
 21
131.813407
 31
0.0
  0
ARC
  5
258
100
AcDbEntity
  8
0
  6
Continuous
 62
   174
100
AcDbCircle
 10
100.428229
 20
118.186487
 30
0.0
 40
10.0
100
AcDbArc
 50
90.0
 51
113.578178
  0
LINE
  5
259
100
AcDbEntity
  8
0
  6
Continuous
 62
   174
100
AcDbLine
 10
110.428229
 20
134.746483
 30
0.0
 11
108.028229
 21
134.746483
 31
0.0
  0
LINE
  5
25A
100
AcDbEntity
  8
0
  6
HIDDEN
 62
   174
100
AcDbLine
 10
110.928229
 20
134.186487
 30
0.0
 11
115.428229
 21
134.186487
 31
0.0
  0
ARC
  5
25B
100
AcDbEntity
  8
0
  6
Continuous
 62
   174
100
AcDbCircle
 10
100.428229
 20
68.186487
 30
0.0
 40
4.2
100
AcDbArc
 50
33.902307
 51
53.248581
  0
LINE
  5
25C
100
AcDbEntity
  8
0
  6
Continuous
 62
   174
100
AcDbLine
 10
115.428229
 20
51.186487
 30
0.0
 11
115.428229
 21
120.186487
 31
0.0
  0
LINE
  5
25D
100
AcDbEntity
  8
0
  6
Continuous
 62
   174
100
AcDbLine
 10
92.828229
 20
136.172325
 30
0.0
 11
92.828229
 21
134.746483
 31
0.0
  0
LINE
  5
25E
100
AcDbEntity
  8
0
  6
HIDDEN
 62
   174
100
AcDbLine
 10
85.428229
 20
95.686487
 30
0.0
 11
93.828229
 21
95.686487
 31
0.0
  0
LINE
  5
25F
100
AcDbEntity
  8
0
  6
Continuous
 62
   174
100
AcDbLine
 10
90.428229
 20
136.182899
 30
0.0
 11
90.428229
 21
140.995947
 31
0.0
  0
LINE
  5
260
100
AcDbEntity
  8
0
  6
HIDDEN
 62
   174
100
AcDbLine
 10
108.028229
 20
141.054366
 30
0.0
 11
108.028229
 21
143.519627
 31
0.0
  0
LINE
  5
261
100
AcDbEntity
  8
0
  6
Continuous
 62
   174
100
AcDbLine
 10
94.528229
 20
151.702892
 30
0.0
 11
94.528229
 21
144.054316
 31
0.0
  0
LINE
  5
262
100
AcDbEntity
  8
0
  6
Continuous
 62
   174
100
AcDbLine
 10
92.828229
 20
136.182899
 30
0.0
 11
92.828229
 21
140.995947
 31
0.0
  0
LINE
  5
263
100
AcDbEntity
  8
0
  6
Continuous
 62
   174
100
AcDbLine
 10
104.428229
 20
121.786487
 30
0.0
 11
108.028229
 21
121.786487
 31
0.0
  0
ARC
  5
264
100
AcDbEntity
  8
0
  6
Continuous
 62
   174
100
AcDbCircle
 10
100.428229
 20
68.186487
 30
0.0
 40
4.2
100
AcDbArc
 50
297.88546
 51
306.751419
  0
ARC
  5
265
100
AcDbEntity
  8
0
  6
Continuous
 62
   174
100
AcDbCircle
 10
100.428229
 20
88.186487
 30
0.0
 40
4.2
100
AcDbArc
 50
219.561547
 51
240.112557
  0
LINE
  5
266
100
AcDbEntity
  8
0
  6
HIDDEN
 62
   174
100
AcDbLine
 10
110.428229
 20
132.947706
 30
0.0
 11
110.428229
 21
132.316499
 31
0.0
  0
LINE
  5
267
100
AcDbEntity
  8
0
  6
Continuous
 62
   174
100
AcDbLine
 10
90.428229
 20
131.247117
 30
0.0
 11
90.428229
 21
129.56133
 31
0.0
  0
LINE
  5
268
100
AcDbEntity
  8
0
  6
Continuous
 62
   174
100
AcDbLine
 10
94.528229
 20
154.044236
 30
0.0
 11
106.328229
 21
154.044236
 31
0.0
  0
LINE
  5
269
100
AcDbEntity
  8
0
  6
HIDDEN
 62
   174
100
AcDbLine
 10
85.428229
 20
110.686487
 30
0.0
 11
93.828229
 21
110.686487
 31
0.0
  0
LINE
  5
26A
100
AcDbEntity
  8
0
  6
HIDDEN
 62
   174
100
AcDbLine
 10
90.428229
 20
131.247117
 30
0.0
 11
90.428229
 21
129.56133
 31
0.0
  0
LINE
  5
26B
100
AcDbEntity
  8
0
  6
Continuous
 62
   174
100
AcDbLine
 10
106.328229
 20
144.054316
 30
0.0
 11
106.328229
 21
136.405739
 31
0.0
  0
LINE
  5
26C
100
AcDbEntity
  8
0
  6
Continuous
 62
   174
100
AcDbLine
 10
106.728229
 20
153.653858
 30
0.0
 11
106.728229
 21
152.78799
 31
0.0
  0
ARC
  5
26D
100
AcDbEntity
  8
0
  6
Continuous
 62
   174
100
AcDbCircle
 10
100.428229
 20
68.186487
 30
0.0
 40
4.2
100
AcDbArc
 50
146.097693
 51
156.762194
  0
LWPOLYLINE
  5
26E
100
AcDbEntity
  8
0
  6
Continuous
 62
   174
100
AcDbPolyline
 90
        4
 70
   128
 10
92.428229
 20
130.979729
 10
91.428229
 20
131.243388
 10
90.696178
 20
131.963717
 10
90.428229
 20
132.947706
  0
LINE
  5
26F
100
AcDbEntity
  8
0
  6
Continuous
 62
   174
100
AcDbLine
 10
89.928229
 20
136.172325
 30
0.0
 11
89.928229
 21
134.746483
 31
0.0
  0
LINE
  5
270
100
AcDbEntity
  8
0
  6
Continuous
 62
   174
100
AcDbLine
 10
110.928229
 20
136.172325
 30
0.0
 11
110.928229
 21
134.746483
 31
0.0
  0
LINE
  5
271
100
AcDbEntity
  8
0
  6
HIDDEN
 62
   174
100
AcDbLine
 10
85.428229
 20
128.186487
 30
0.0
 11
89.928229
 21
128.186487
 31
0.0
  0
LINE
  5
272
100
AcDbEntity
  8
0
  6
Continuous
 62
   174
100
AcDbLine
 10
110.428229
 20
143.520052
 30
0.0
 11
110.428229
 21
146.84927
 31
0.0
  0
LINE
  5
273
100
AcDbEntity
  8
0
  6
HIDDEN
 62
   174
100
AcDbLine
 10
110.928229
 20
128.197407
 30
0.0
 11
110.928229
 21
128.970656
 31
0.0
  0
LINE
  5
274
100
AcDbEntity
  8
0
  6
HIDDEN
 62
   174
100
AcDbLine
 10
89.928229
 20
128.25965
 30
0.0
 11
89.928229
 21
128.197407
 31
0.0
  0
LINE
  5
275
100
AcDbEntity
  8
0
  6
HIDDEN
 62
   174
100
AcDbLine
 10
92.828229
 20
131.813407
 30
0.0
 11
92.828229
 21
132.909126
 31
0.0
  0
LINE
  5
276
100
AcDbEntity
  8
0
  6
HIDDEN
 62
   174
100
AcDbLine
 10
92.828229
 20
131.247117
 30
0.0
 11
92.828229
 21
127.593353
 31
0.0
  0
LINE
  5
277
100
AcDbEntity
  8
0
  6
HIDDEN
 62
   174
100
AcDbLine
 10
94.528229
 20
154.053653
 30
0.0
 11
94.528229
 21
144.054316
 31
0.0
  0
LINE
  5
278
100
AcDbEntity
  8
0
  6
HIDDEN
 62
   174
100
AcDbLine
 10
110.428229
 20
129.590529
 30
0.0
 11
110.428229
 21
128.730184
 31
0.0
  0
LINE
  5
279
100
AcDbEntity
  8
0
  6
Continuous
 62
   174
100
AcDbLine
 10
108.028229
 20
146.84927
 30
0.0
 11
108.028229
 21
147.072747
 31
0.0
  0
LINE
  5
27A
100
AcDbEntity
  8
0
  6
HIDDEN
 62
   174
100
AcDbLine
 10
90.428229
 20
143.519627
 30
0.0
 11
90.428229
 21
147.054053
 31
0.0
  0
ARC
  5
27B
100
AcDbEntity
  8
0
  6
Continuous
 62
   174
100
AcDbCircle
 10
100.428229
 20
88.186487
 30
0.0
 40
4.2
100
AcDbArc
 50
-30.052106
 51
30.052106
  0
LINE
  5
27C
100
AcDbEntity
  8
0
  6
HIDDEN
 62
   174
100
AcDbLine
 10
85.428229
 20
110.686487
 30
0.0
 11
93.828229
 21
110.686487
 31
0.0
  0
LINE
  5
27D
100
AcDbEntity
  8
0
  6
HIDDEN
 62
   174
100
AcDbLine
 10
96.428229
 20
121.786487
 30
0.0
 11
104.428229
 21
121.786487
 31
0.0
  0
LINE
  5
27E
100
AcDbEntity
  8
0
  6
Continuous
 62
   174
100
AcDbLine
 10
108.028229
 20
121.786487
 30
0.0
 11
110.428229
 21
121.786487
 31
0.0
  0
LINE
  5
27F
100
AcDbEntity
  8
0
  6
Continuous
 62
   174
100
AcDbLine
 10
101.977055
 20
127.351639
 30
0.0
 11
100.446277
 21
127.351639
 31
0.0
  0
LINE
  5
280
100
AcDbEntity
  8
0
  6
HIDDEN
 62
   174
100
AcDbLine
 10
104.446352
 20
120.186487
 30
0.0
 11
96.446415
 21
120.186487
 31
0.0
  0
LINE
  5
281
100
AcDbEntity
  8
0
  6
Continuous
 62
   174
100
AcDbLine
 10
106.728229
 20
134.552917
 30
0.0
 11
106.728229
 21
134.454773
 31
0.0
  0
ARC
  5
282
100
AcDbEntity
  8
0
  6
Continuous
 62
   174
100
AcDbCircle
 10
100.428229
 20
68.186487
 30
0.0
 40
4.2
100
AcDbArc
 50
23.237806
 51
33.902307
  0
LINE
  5
283
100
AcDbEntity
  8
0
  6
HIDDEN
 62
   174
100
AcDbLine
 10
92.828229
 20
133.341302
 30
0.0
 11
92.828229
 21
129.954926
 31
0.0
  0
LINE
  5
284
100
AcDbEntity
  8
0
  6
Continuous
 62
   174
100
AcDbLine
 10
110.428229
 20
136.172325
 30
0.0
 11
110.428229
 21
134.746483
 31
0.0
  0
ARC
  5
285
100
AcDbEntity
  8
0
  6
Continuous
 62
   174
100
AcDbCircle
 10
100.428229
 20
68.186487
 30
0.0
 40
4.2
100
AcDbArc
 50
233.248581
 51
242.11454
  0
LINE
  5
286
100
AcDbEntity
  8
0
  6
Continuous
 62
   174
100
AcDbLine
 10
92.428229
 20
130.979729
 30
0.0
 11
92.428229
 21
127.593353
 31
0.0
  0
LINE
  5
287
100
AcDbEntity
  8
0
  6
Continuous
 62
   174
100
AcDbLine
 10
94.528229
 20
154.053653
 30
0.0
 11
94.528229
 21
151.702892
 31
0.0
  0
LINE
  5
288
100
AcDbEntity
  8
0
  6
Continuous
 62
   174
100
AcDbLine
 10
110.428229
 20
124.555993
 30
0.0
 11
110.428229
 21
121.786487
 31
0.0
  0
LINE
  5
289
100
AcDbEntity
  8
0
  6
HIDDEN
 62
   174
100
AcDbLine
 10
85.428229
 20
134.186487
 30
0.0
 11
89.928229
 21
134.186487
 31
0.0
  0
LINE
  5
28A
100
AcDbEntity
  8
0
  6
HIDDEN
 62
   174
100
AcDbLine
 10
89.928229
 20
134.197095
 30
0.0
 11
89.928229
 21
133.423846
 31
0.0
  0
LINE
  5
28B
100
AcDbEntity
  8
0
  6
Continuous
 62
   174
100
AcDbLine
 10
108.028229
 20
127.593353
 30
0.0
 11
108.028229
 21
124.555993
 31
0.0
  0
ARC
  5
28C
100
AcDbEntity
  8
0
  6
Continuous
 62
   174
100
AcDbCircle
 10
100.428229
 20
68.186487
 30
0.0
 40
4.2
100
AcDbArc
 50
270.0
 51
297.88546
  0
LINE
  5
28D
100
AcDbEntity
  8
0
  6
Continuous
 62
   174
100
AcDbLine
 10
108.028229
 20
133.341302
 30
0.0
 11
106.328229
 21
133.341302
 31
0.0
  0
LINE
  5
28E
100
AcDbEntity
  8
0
  6
Continuous
 62
   174
100
AcDbLine
 10
89.928229
 20
134.746483
 30
0.0
 11
89.928229
 21
132.947706
 31
0.0
  0
LINE
  5
28F
100
AcDbEntity
  8
0
  6
Continuous
 62
   174
100
AcDbLine
 10
110.928229
 20
134.746483
 30
0.0
 11
110.928229
 21
132.947706
 31
0.0
  0
LINE
  5
290
100
AcDbEntity
  8
0
  6
HIDDEN
 62
   174
100
AcDbLine
 10
110.428229
 20
121.786487
 30
0.0
 11
110.428229
 21
121.688345
 31
0.0
  0
LINE
  5
291
100
AcDbEntity
  8
0
  6
HIDDEN
 62
   174
100
AcDbLine
 10
108.028229
 20
131.813407
 30
0.0
 11
108.028229
 21
132.909126
 31
0.0
  0
LINE
  5
292
100
AcDbEntity
  8
0
  6
Continuous
 62
   174
100
AcDbLine
 10
104.428229
 20
120.186487
 30
0.0
 11
104.428229
 21
127.351639
 31
0.0
  0
LINE
  5
293
100
AcDbEntity
  8
0
  6
HIDDEN
 62
   174
100
AcDbLine
 10
108.028229
 20
128.197407
 30
0.0
 11
108.028229
 21
128.268572
 31
0.0
  0
LINE
  5
294
100
AcDbEntity
  8
0
  6
HIDDEN
 62
   174
100
AcDbLine
 10
92.828229
 20
132.909126
 30
0.0
 11
92.828229
 21
133.392194
 31
0.0
  0
ARC
  5
295
100
AcDbEntity
  8
0
  6
Continuous
 62
   174
100
AcDbCircle
 10
100.428229
 20
68.186487
 30
0.0
 40
4.2
100
AcDbArc
 50
126.751419
 51
146.097693
  0
ARC
  5
296
100
AcDbEntity
  8
0
  6
Continuous
 62
   174
100
AcDbCircle
 10
100.428229
 20
88.186487
 30
0.0
 40
4.2
100
AcDbArc
 50
210.052106
 51
219.561547
  0
LINE
  5
297
100
AcDbEntity
  8
0
  6
Continuous
 62
   174
100
AcDbLine
 10
90.428229
 20
134.746483
 30
0.0
 11
90.428229
 21
132.947706
 31
0.0
  0
LINE
  5
298
100
AcDbEntity
  8
0
  6
HIDDEN
 62
   174
100
AcDbLine
 10
106.328229
 20
144.054316
 30
0.0
 11
106.328229
 21
134.054766
 31
0.0
  0
LINE
  5
299
100
AcDbEntity
  8
0
  6
Continuous
 62
   174
100
AcDbLine
 10
94.128229
 20
152.78799
 30
0.0
 11
94.128229
 21
144.054316
 31
0.0
  0
LINE
  5
29A
100
AcDbEntity
  8
0
  6
HIDDEN
 62
   174
100
AcDbLine
 10
90.428229
 20
121.786487
 30
0.0
 11
90.428229
 21
121.688345
 31
0.0
  0
LINE
  5
29B
100
AcDbEntity
  8
0
  6
Continuous
 62
   174
100
AcDbLine
 10
110.428229
 20
121.786487
 30
0.0
 11
110.928229
 21
121.786487
 31
0.0
  0
LINE
  5
29C
100
AcDbEntity
  8
0
  6
Continuous
 62
   174
100
AcDbLine
 10
110.428229
 20
140.995947
 30
0.0
 11
110.428229
 21
143.520052
 31
0.0
  0
LINE
  5
29D
100
AcDbEntity
  8
0
  6
HIDDEN
 62
   174
100
AcDbLine
 10
115.428229
 20
134.197095
 30
0.0
 11
115.428229
 21
128.197407
 31
0.0
  0
LINE
  5
29E
100
AcDbEntity
  8
0
  6
HIDDEN
 62
   174
100
AcDbLine
 10
110.428229
 20
128.730184
 30
0.0
 11
110.428229
 21
128.268572
 31
0.0
  0
LINE
  5
29F
100
AcDbEntity
  8
0
  6
Continuous
 62
   174
100
AcDbLine
 10
108.028229
 20
143.520052
 30
0.0
 11
108.028229
 21
146.84927
 31
0.0
  0
ARC
  5
2A0
100
AcDbEntity
  8
0
  6
Continuous
 62
   174
100
AcDbCircle
 10
100.428229
 20
88.186487
 30
0.0
 40
4.2
100
AcDbArc
 50
320.438453
 51
329.947894
  0
LINE
  5
2A1
100
AcDbEntity
  8
0
  6
HIDDEN
 62
   174
100
AcDbLine
 10
92.828229
 20
132.316499
 30
0.0
 11
92.828229
 21
131.247117
 31
0.0
  0
LINE
  5
2A2
100
AcDbEntity
  8
0
  6
Continuous
 62
   174
100
AcDbLine
 10
104.446352
 20
127.351639
 30
0.0
 11
101.977055
 21
127.351639
 31
0.0
  0
LINE
  5
2A3
100
AcDbEntity
  8
0
  6
Continuous
 62
   174
100
AcDbLine
 10
110.428229
 20
129.56133
 30
0.0
 11
110.428229
 21
124.555993
 31
0.0
  0
LINE
  5
2A4
100
AcDbEntity
  8
0
  6
Continuous
 62
   174
100
AcDbLine
 10
108.028229
 20
124.555993
 30
0.0
 11
108.028229
 21
121.786487
 31
0.0
  0
LINE
  5
2A5
100
AcDbEntity
  8
0
  6
HIDDEN
 62
   174
100
AcDbLine
 10
92.828229
 20
128.197407
 30
0.0
 11
92.828229
 21
128.268572
 31
0.0
  0
LINE
  5
2A6
100
AcDbEntity
  8
0
  6
Continuous
 62
   174
100
AcDbLine
 10
106.728229
 20
135.32043
 30
0.0
 11
106.728229
 21
134.552917
 31
0.0
  0
LINE
  5
2A7
100
AcDbEntity
  8
0
  6
Continuous
 62
   174
100
AcDbLine
 10
89.928229
 20
132.947706
 30
0.0
 11
89.928229
 21
132.316499
 31
0.0
  0
LINE
  5
2A8
100
AcDbEntity
  8
0
  6
Continuous
 62
   174
100
AcDbLine
 10
110.928229
 20
132.947706
 30
0.0
 11
110.928229
 21
132.316499
 31
0.0
  0
ARC
  5
2A9
100
AcDbEntity
  8
0
  6
Continuous
 62
   174
100
AcDbCircle
 10
100.428229
 20
68.186487
 30
0.0
 40
4.2
100
AcDbArc
 50
5.528533
 51
23.237806
  0
LINE
  5
2AA
100
AcDbEntity
  8
0
  6
HIDDEN
 62
   174
100
AcDbLine
 10
85.428229
 20
95.686487
 30
0.0
 11
93.828229
 21
95.686487
 31
0.0
  0
LINE
  5
2AB
100
AcDbEntity
  8
0
  6
HIDDEN
 62
   174
100
AcDbLine
 10
85.428229
 20
95.699295
 30
0.0
 11
85.428229
 21
110.698407
 31
0.0
  0
LINE
  5
2AC
100
AcDbEntity
  8
0
  6
Continuous
 62
   174
100
AcDbLine
 10
110.428229
 20
124.555993
 30
0.0
 11
108.028229
 21
124.555993
 31
0.0
  0
LINE
  5
2AD
100
AcDbEntity
  8
0
  6
HIDDEN
 62
   174
100
AcDbLine
 10
108.028229
 20
143.519627
 30
0.0
 11
108.028229
 21
147.054053
 31
0.0
  0
LINE
  5
2AE
100
AcDbEntity
  8
0
  6
HIDDEN
 62
   174
100
AcDbLine
 10
90.428229
 20
130.662668
 30
0.0
 11
90.428229
 21
131.813407
 31
0.0
  0
ARC
  5
2AF
100
AcDbEntity
  8
0
  6
Continuous
 62
   174
100
AcDbCircle
 10
100.428229
 20
68.186487
 30
0.0
 40
4.2
100
AcDbArc
 50
213.902307
 51
233.248581
  0
LINE
  5
2B0
100
AcDbEntity
  8
0
  6
Continuous
 62
   174
100
AcDbLine
 10
110.928229
 20
139.186487
 30
0.0
 11
115.428229
 21
139.186487
 31
0.0
  0
LINE
  5
2B1
100
AcDbEntity
  8
0
  6
Continuous
 62
   174
100
AcDbLine
 10
94.528229
 20
134.922759
 30
0.0
 11
94.528229
 21
134.054766
 31
0.0
  0
LINE
  5
2B2
100
AcDbEntity
  8
0
  6
Continuous
 62
   174
100
AcDbLine
 10
90.428229
 20
147.072747
 30
0.0
 11
90.428229
 21
152.053828
 31
0.0
  0
LINE
  5
2B3
100
AcDbEntity
  8
0
  6
Continuous
 62
   174
100
AcDbLine
 10
110.428229
 20
136.172325
 30
0.0
 11
108.028229
 21
136.172325
 31
0.0
  0
LINE
  5
2B4
100
AcDbEntity
  8
0
  6
HIDDEN
 62
   174
100
AcDbLine
 10
110.428229
 20
134.149085
 30
0.0
 11
110.428229
 21
132.909126
 31
0.0
  0
LINE
  5
2B5
100
AcDbEntity
  8
0
  6
HIDDEN
 62
   174
100
AcDbLine
 10
92.828229
 20
133.392194
 30
0.0
 11
92.828229
 21
134.149085
 31
0.0
  0
LINE
  5
2B6
100
AcDbEntity
  8
0
  6
HIDDEN
 62
   174
100
AcDbLine
 10
94.128229
 20
153.644236
 30
0.0
 11
94.528229
 21
154.044236
 31
0.0
  0
LINE
  5
2B7
100
AcDbEntity
  8
0
  6
HIDDEN
 62
   174
100
AcDbLine
 10
108.028229
 20
132.909126
 30
0.0
 11
108.028229
 21
133.392194
 31
0.0
  0
ARC
  5
2B8
100
AcDbEntity
  8
0
  6
Continuous
 62
   174
100
AcDbCircle
 10
100.428229
 20
88.186487
 30
0.0
 40
4.2
100
AcDbArc
 50
149.947894
 51
210.052106
  0
LINE
  5
2B9
100
AcDbEntity
  8
0
  6
Continuous
 62
   174
100
AcDbLine
 10
106.328229
 20
133.341302
 30
0.0
 11
94.528229
 21
133.341302
 31
0.0
  0
LINE
  5
2BA
100
AcDbEntity
  8
0
  6
HIDDEN
 62
   174
100
AcDbLine
 10
94.128229
 20
134.444236
 30
0.0
 11
94.528229
 21
134.044236
 31
0.0
  0
LINE
  5
2BB
100
AcDbEntity
  8
0
  6
HIDDEN
 62
   174
100
AcDbLine
 10
106.328229
 20
154.053653
 30
0.0
 11
106.328229
 21
144.054316
 31
0.0
  0
LINE
  5
2BC
100
AcDbEntity
  8
0
  6
Continuous
 62
   174
100
AcDbLine
 10
92.828229
 20
147.072747
 30
0.0
 11
92.828229
 21
152.053828
 31
0.0
  0
LINE
  5
2BD
100
AcDbEntity
  8
0
  6
HIDDEN
 62
   174
100
AcDbLine
 10
100.446277
 20
127.351639
 30
0.0
 11
96.446415
 21
127.351639
 31
0.0
  0
LINE
  5
2BE
100
AcDbEntity
  8
0
  6
HIDDEN
 62
   174
100
AcDbLine
 10
108.028229
 20
132.316499
 30
0.0
 11
108.028229
 21
131.247117
 31
0.0
  0
LINE
  5
2BF
100
AcDbEntity
  8
0
  6
HIDDEN
 62
   174
100
AcDbLine
 10
108.028229
 20
128.268572
 30
0.0
 11
108.028229
 21
129.590529
 31
0.0
  0
ARC
  5
2C0
100
AcDbEntity
  8
0
  6
Continuous
 62
   174
100
AcDbCircle
 10
100.428229
 20
68.186487
 30
0.0
 40
4.2
100
AcDbArc
 50
117.88546
 51
126.751419
  0
LINE
  5
2C1
100
AcDbEntity
  8
0
  6
Continuous
 62
   174
100
AcDbLine
 10
89.928229
 20
132.316499
 30
0.0
 11
89.928229
 21
131.247117
 31
0.0
  0
LINE
  5
2C2
100
AcDbEntity
  8
0
  6
Continuous
 62
   174
100
AcDbLine
 10
110.928229
 20
132.316499
 30
0.0
 11
110.928229
 21
131.247117
 31
0.0
  0
LINE
  5
2C3
100
AcDbEntity
  8
0
  6
Continuous
 62
   174
100
AcDbLine
 10
110.428229
 20
136.182899
 30
0.0
 11
110.428229
 21
140.995947
 31
0.0
  0
LINE
  5
2C4
100
AcDbEntity
  8
0
  6
Continuous
 62
   174
100
AcDbLine
 10
96.428229
 20
120.186487
 30
0.0
 11
96.428229
 21
127.351639
 31
0.0
  0
LINE
  5
2C5
100
AcDbEntity
  8
0
  6
Continuous
 62
   174
100
AcDbLine
 10
108.428229
 20
127.593353
 30
0.0
 11
104.428229
 21
127.593353
 31
0.0
  0
LINE
  5
2C6
100
AcDbEntity
  8
0
  6
HIDDEN
 62
   174
100
AcDbLine
 10
110.428229
 20
147.054053
 30
0.0
 11
110.428229
 21
143.519627
 31
0.0
  0
LINE
  5
2C7
100
AcDbEntity
  8
0
  6
HIDDEN
 62
   174
100
AcDbLine
 10
110.428229
 20
128.268572
 30
0.0
 11
110.428229
 21
128.197407
 31
0.0
  0
ARC
  5
2C8
100
AcDbEntity
  8
0
  6
Continuous
 62
   174
100
AcDbCircle
 10
100.428229
 20
88.186487
 30
0.0
 40
4.2
100
AcDbArc
 50
299.887443
 51
320.438453
  0
LINE
  5
2C9
100
AcDbEntity
  8
0
  6
HIDDEN
 62
   174
100
AcDbLine
 10
93.828229
 20
110.698407
 30
0.0
 11
93.828229
 21
95.699295
 31
0.0
  0
LINE
  5
2CA
100
AcDbEntity
  8
0
  6
HIDDEN
 62
   174
100
AcDbLine
 10
85.428229
 20
128.186487
 30
0.0
 11
89.928229
 21
128.186487
 31
0.0
  0
LINE
  5
2CB
100
AcDbEntity
  8
0
  6
Continuous
 62
   174
100
AcDbLine
 10
108.028229
 20
140.995947
 30
0.0
 11
108.028229
 21
143.520052
 31
0.0
  0
LINE
  5
2CC
100
AcDbEntity
  8
0
  6
Continuous
 62
   174
100
AcDbLine
 10
106.728229
 20
144.054316
 30
0.0
 11
106.728229
 21
135.32043
 31
0.0
  0
LINE
  5
2CD
100
AcDbEntity
  8
0
  6
Continuous
 62
   174
100
AcDbLine
 10
94.128229
 20
153.653858
 30
0.0
 11
94.128229
 21
152.78799
 31
0.0
  0
ARC
  5
2CE
100
AcDbEntity
  8
0
  6
Continuous
 62
   174
100
AcDbCircle
 10
100.428229
 20
68.186487
 30
0.0
 40
4.2
100
AcDbArc
 50
-5.528533
 51
5.528533
  0
LINE
  5
2CF
100
AcDbEntity
  8
0
  6
HIDDEN
 62
   174
100
AcDbLine
 10
85.428229
 20
110.686487
 30
0.0
 11
93.828229
 21
110.686487
 31
0.0
  0
LINE
  5
2D0
100
AcDbEntity
  8
0
  6
Continuous
 62
   174
100
AcDbLine
 10
94.528229
 20
133.341302
 30
0.0
 11
92.828229
 21
133.341302
 31
0.0
  0
LINE
  5
2D1
100
AcDbEntity
  8
0
  6
HIDDEN
 62
   174
100
AcDbLine
 10
106.728229
 20
134.444236
 30
0.0
 11
106.328229
 21
134.044236
 31
0.0
  0
LINE
  5
2D2
100
AcDbEntity
  8
0
  6
Continuous
 62
   174
100
AcDbLine
 10
94.528229
 20
136.405739
 30
0.0
 11
94.528229
 21
134.922759
 31
0.0
  0
LINE
  5
2D3
100
AcDbEntity
  8
0
  6
Continuous
 62
   174
100
AcDbLine
 10
89.928229
 20
131.247117
 30
0.0
 11
89.928229
 21
129.56133
 31
0.0
  0
LINE
  5
2D4
100
AcDbEntity
  8
0
  6
Continuous
 62
   174
100
AcDbLine
 10
110.928229
 20
131.247117
 30
0.0
 11
110.928229
 21
129.56133
 31
0.0
  0
LINE
  5
2D5
100
AcDbEntity
  8
0
  6
HIDDEN
 62
   174
100
AcDbLine
 10
89.928229
 20
133.423846
 30
0.0
 11
89.928229
 21
133.040196
 31
0.0
  0
LINE
  5
2D6
100
AcDbEntity
  8
0
  6
HIDDEN
 62
   174
100
AcDbLine
 10
92.828229
 20
134.149085
 30
0.0
 11
92.828229
 21
134.197095
 31
0.0
  0
ARC
  5
2D7
100
AcDbEntity
  8
0
  6
Continuous
 62
   174
100
AcDbCircle
 10
100.428229
 20
68.186487
 30
0.0
 40
4.2
100
AcDbArc
 50
203.237806
 51
213.902307
  0
LINE
  5
2D8
100
AcDbEntity
  8
0
  6
HIDDEN
 62
   174
100
AcDbLine
 10
94.528229
 20
144.054316
 30
0.0
 11
94.528229
 21
134.054766
 31
0.0
  0
LINE
  5
2D9
100
AcDbEntity
  8
0
  6
HIDDEN
 62
   174
100
AcDbLine
 10
110.928229
 20
128.970656
 30
0.0
 11
110.928229
 21
129.480915
 31
0.0
  0
LINE
  5
2DA
100
AcDbEntity
  8
0
  6
Continuous
 62
   174
100
AcDbLine
 10
104.428229
 20
120.186487
 30
0.0
 11
104.428229
 21
127.351639
 31
0.0
  0
LINE
  5
2DB
100
AcDbEntity
  8
0
  6
HIDDEN
 62
   174
100
AcDbLine
 10
108.028229
 20
129.954926
 30
0.0
 11
108.028229
 21
133.341302
 31
0.0
  0
LINE
  5
2DC
100
AcDbEntity
  8
0
  6
Continuous
 62
   174
100
AcDbLine
 10
97.58635
 20
127.593353
 30
0.0
 11
96.428229
 21
127.593353
 31
0.0
  0
LINE
  5
2DD
100
AcDbEntity
  8
0
  6
HIDDEN
 62
   174
100
AcDbLine
 10
110.428229
 20
132.909126
 30
0.0
 11
110.428229
 21
131.813407
 31
0.0
  0
LINE
  5
2DE
100
AcDbEntity
  8
0
  6
HIDDEN
 62
   174
100
AcDbLine
 10
108.028229
 20
133.392194
 30
0.0
 11
108.028229
 21
134.149085
 31
0.0
  0
ARC
  5
2DF
100
AcDbEntity
  8
0
  6
Continuous
 62
   174
100
AcDbCircle
 10
100.428229
 20
68.186487
 30
0.0
 40
4.2
100
AcDbArc
 50
90.0
 51
117.88546
  0
ARC
  5
2E0
100
AcDbEntity
  8
0
  6
Continuous
 62
   174
100
AcDbCircle
 10
100.428229
 20
88.186487
 30
0.0
 40
4.2
100
AcDbArc
 50
140.438453
 51
149.947894
  0
LWPOLYLINE
  5
2E1
100
AcDbEntity
  8
0
  6
Continuous
 62
   174
100
AcDbPolyline
 90
        5
 70
   128
 10
110.428229
 20
132.947706
 10
110.275988
 20
132.194594
 10
109.842442
 20
131.556136
 10
109.193596
 20
131.129532
 10
108.428229
 20
130.979729
  0
LINE
  5
2E2
100
AcDbEntity
  8
0
  6
HIDDEN
 62
   174
100
AcDbLine
 10
106.728229
 20
153.644236
 30
0.0
 11
106.328229
 21
154.044236
 31
0.0
  0
LINE
  5
2E3
100
AcDbEntity
  8
0
  6
Continuous
 62
   174
100
AcDbLine
 10
110.428229
 20
152.044236
 30
0.0
 11
108.028229
 21
152.044236
 31
0.0
  0
LINE
  5
2E4
100
AcDbEntity
  8
0
  6
HIDDEN
 62
   174
100
AcDbLine
 10
110.428229
 20
131.247117
 30
0.0
 11
108.028229
 21
131.247117
 31
0.0
  0
LINE
  5
2E5
100
AcDbEntity
  8
0
  6
HIDDEN
 62
   174
100
AcDbLine
 10
110.428229
 20
121.688345
 30
0.0
 11
108.028229
 21
121.688345
 31
0.0
  0
LINE
  5
2E6
100
AcDbEntity
  8
0
  6
Continuous
 62
   174
100
AcDbLine
 10
108.028229
 20
136.172325
 30
0.0
 11
108.028229
 21
134.746483
 31
0.0
  0
LINE
  5
2E7
100
AcDbEntity
  8
0
  6
HIDDEN
 62
   174
100
AcDbLine
 10
108.028229
 20
129.590529
 30
0.0
 11
108.028229
 21
130.662668
 31
0.0
  0
LINE
  5
2E8
100
AcDbEntity
  8
0
  6
HIDDEN
 62
   174
100
AcDbLine
 10
90.428229
 20
131.813407
 30
0.0
 11
90.428229
 21
132.909126
 31
0.0
  0
LINE
  5
2E9
100
AcDbEntity
  8
0
  6
HIDDEN
 62
   174
100
AcDbLine
 10
108.028229
 20
131.247117
 30
0.0
 11
108.028229
 21
127.593353
 31
0.0
  0
LINE
  5
2EA
100
AcDbEntity
  8
0
  6
HIDDEN
 62
   174
100
AcDbLine
 10
104.428229
 20
127.593353
 30
0.0
 11
103.270108
 21
127.593353
 31
0.0
  0
LINE
  5
2EB
100
AcDbEntity
  8
0
  6
Continuous
 62
   174
100
AcDbLine
 10
92.828229
 20
124.555993
 30
0.0
 11
92.828229
 21
121.786487
 31
0.0
  0
LINE
  5
2EC
100
AcDbEntity
  8
0
  6
Continuous
 62
   174
100
AcDbLine
 10
108.028229
 20
136.182899
 30
0.0
 11
108.028229
 21
140.995947
 31
0.0
  0
ARC
  5
2ED
100
AcDbEntity
  8
0
  6
Continuous
 62
   174
100
AcDbCircle
 10
100.428229
 20
88.186487
 30
0.0
 40
4.2
100
AcDbArc
 50
270.0
 51
299.887443
  0
LINE
  5
2EE
100
AcDbEntity
  8
0
  6
Continuous
 62
   174
100
AcDbLine
 10
92.828229
 20
146.84927
 30
0.0
 11
92.828229
 21
147.072747
 31
0.0
  0
LINE
  5
2EF
100
AcDbEntity
  8
0
  6
Continuous
 62
   174
100
AcDbLine
 10
90.428229
 20
146.84927
 30
0.0
 11
90.428229
 21
147.072747
 31
0.0
  0
LINE
  5
2F0
100
AcDbEntity
  8
0
  6
Continuous
 62
   174
100
AcDbLine
 10
89.928229
 20
129.56133
 30
0.0
 11
89.928229
 21
124.555993
 31
0.0
  0
LINE
  5
2F1
100
AcDbEntity
  8
0
  6
Continuous
 62
   174
100
AcDbLine
 10
110.928229
 20
129.56133
 30
0.0
 11
110.928229
 21
124.555993
 31
0.0
  0
LINE
  5
2F2
100
AcDbEntity
  8
0
  6
HIDDEN
 62
   174
100
AcDbLine
 10
92.828229
 20
128.268572
 30
0.0
 11
92.828229
 21
129.590529
 31
0.0
  0
LINE
  5
2F3
100
AcDbEntity
  8
0
  6
Continuous
 62
   174
100
AcDbLine
 10
106.328229
 20
151.702892
 30
0.0
 11
106.328229
 21
144.054316
 31
0.0
  0
ARC
  5
2F4
100
AcDbEntity
  8
0
  6
Continuous
 62
   174
100
AcDbCircle
 10
100.428229
 20
118.186487
 30
0.0
 40
10.0
100
AcDbArc
 50
-293.578178
 51
-270.0
  0
LINE
  5
2F5
100
AcDbEntity
  8
0
  6
HIDDEN
 62
   174
100
AcDbLine
 10
104.446352
 20
127.351639
 30
0.0
 11
100.446277
 21
127.351639
 31
0.0
  0
LINE
  5
2F6
100
AcDbEntity
  8
0
  6
HIDDEN
 62
   174
100
AcDbLine
 10
85.428229
 20
134.186487
 30
0.0
 11
89.928229
 21
134.186487
 31
0.0
  0
ARC
  5
2F7
100
AcDbEntity
  8
0
  6
Continuous
 62
   174
100
AcDbCircle
 10
100.428229
 20
68.186487
 30
0.0
 40
4.2
100
AcDbArc
 50
336.762194
 51
354.471467
  0
LINE
  5
2F8
100
AcDbEntity
  8
0
  6
Continuous
 62
   174
100
AcDbLine
 10
96.428229
 20
127.593353
 30
0.0
 11
92.428229
 21
127.593353
 31
0.0
  0
LINE
  5
2F9
100
AcDbEntity
  8
0
  6
Continuous
 62
   174
100
AcDbLine
 10
94.128229
 20
134.552917
 30
0.0
 11
94.128229
 21
134.454773
 31
0.0
  0
ARC
  5
2FA
100
AcDbEntity
  8
0
  6
Continuous
 62
   174
100
AcDbCircle
 10
100.428229
 20
68.186487
 30
0.0
 40
4.2
100
AcDbArc
 50
185.528533
 51
203.237806
  0
ENDBLK
  5
2FB
100
AcDbEntity
  8
0
100
AcDbBlockEnd
  0
BLOCK
  5
2FE
100
AcDbEntity
  8
0
100
AcDbBlockBegin
  2
*B4
 70
     0
 10
0.0
 20
0.0
 30
0.0
  3
*B4
  1

  0
LINE
  5
2FF
100
AcDbEntity
  8
0
  6
Continuous
 62
     0
100
AcDbLine
 10
259.018124
 20
103.198957
 30
0.0
 11
259.018124
 21
51.201808
 31
0.0
  0
SOLID
  5
300
100
AcDbEntity
  8
0
  6
Continuous
 62
     0
100
AcDbTrace
 10
260.018037
 20
98.199183
 30
0.0
 11
259.018124
 21
103.198957
 31
0.0
 12
258.017999
 22
98.199183
 32
0.0
 13
258.017999
 23
98.199183
 33
0.0
  0
SOLID
  5
301
100
AcDbEntity
  8
0
  6
Continuous
 62
     0
100
AcDbTrace
 10
258.017999
 20
56.201583
 30
0.0
 11
259.018124
 21
51.201808
 31
0.0
 12
260.018037
 22
56.201583
 32
0.0
 13
260.018037
 23
56.201583
 33
0.0
  0
ENDBLK
  5
302
100
AcDbEntity
  8
0
100
AcDbBlockEnd
  0
BLOCK
  5
305
100
AcDbEntity
  8
0
100
AcDbBlockBegin
  2
*B5
 70
     0
 10
0.0
 20
0.0
 30
0.0
  3
*B5
  1

  0
LINE
  5
306
100
AcDbEntity
  8
0
  6
Continuous
 62
     0
100
AcDbLine
 10
259.018124
 20
154.053653
 30
0.0
 11
259.018124
 21
103.198957
 31
0.0
  0
SOLID
  5
307
100
AcDbEntity
  8
0
  6
Continuous
 62
     0
100
AcDbTrace
 10
260.018037
 20
149.054091
 30
0.0
 11
259.018124
 21
154.053653
 31
0.0
 12
258.017999
 22
149.054091
 32
0.0
 13
258.017999
 23
149.054091
 33
0.0
  0
SOLID
  5
308
100
AcDbEntity
  8
0
  6
Continuous
 62
     0
100
AcDbTrace
 10
258.017999
 20
108.19852
 30
0.0
 11
259.018124
 21
103.198957
 31
0.0
 12
260.018037
 22
108.19852
 32
0.0
 13
260.018037
 23
108.19852
 33
0.0
  0
ENDBLK
  5
309
100
AcDbEntity
  8
0
100
AcDbBlockEnd
  0
BLOCK
  5
30C
100
AcDbEntity
  8
0
100
AcDbBlockBegin
  2
*B6
 70
     0
 10
0.0
 20
0.0
 30
0.0
  3
*B6
  1

  0
LINE
  5
30D
100
AcDbEntity
  8
0
  6
Continuous
 62
     0
100
AcDbLine
 10
167.592303
 20
35.016269
 30
0.0
 11
199.592264
 21
35.016269
 31
0.0
  0
SOLID
  5
30E
100
AcDbEntity
  8
0
  6
Continuous
 62
     0
100
AcDbTrace
 10
172.59229
 20
36.016181
 30
0.0
 11
167.592303
 21
35.016269
 31
0.0
 12
172.59229
 22
34.016356
 32
0.0
 13
172.59229
 23
34.016356
 33
0.0
  0
SOLID
  5
30F
100
AcDbEntity
  8
0
  6
Continuous
 62
     0
100
AcDbTrace
 10
194.592277
 20
34.016356
 30
0.0
 11
199.592264
 21
35.016269
 31
0.0
 12
194.592277
 22
36.016181
 32
0.0
 13
194.592277
 23
36.016181
 33
0.0
  0
ENDBLK
  5
310
100
AcDbEntity
  8
0
100
AcDbBlockEnd
  0
BLOCK
  5
313
100
AcDbEntity
  8
0
100
AcDbBlockBegin
  2
*B7
 70
     0
 10
0.0
 20
0.0
 30
0.0
  3
*B7
  1

  0
LINE
  5
314
100
AcDbEntity
  8
0
  6
Continuous
 62
     0
100
AcDbLine
 10
208.592327
 20
21.017069
 30
0.0
 11
158.592241
 21
21.017069
 31
0.0
  0
SOLID
  5
315
100
AcDbEntity
  8
0
  6
Continuous
 62
     0
100
AcDbTrace
 10
203.592339
 20
20.017156
 30
0.0
 11
208.592327
 21
21.017069
 31
0.0
 12
203.592339
 22
22.016981
 32
0.0
 13
203.592339
 23
22.016981
 33
0.0
  0
SOLID
  5
316
100
AcDbEntity
  8
0
  6
Continuous
 62
     0
100
AcDbTrace
 10
163.592228
 20
22.016981
 30
0.0
 11
158.592241
 21
21.017069
 31
0.0
 12
163.592228
 22
20.017156
 32
0.0
 13
163.592228
 23
20.017156
 33
0.0
  0
ENDBLK
  5
317
100
AcDbEntity
  8
0
100
AcDbBlockEnd
  0
BLOCK
  5
31A
100
AcDbEntity
  8
0
100
AcDbBlockBegin
  2
*B8
 70
     0
 10
0.0
 20
0.0
 30
0.0
  3
*B8
  1

  0
LINE
  5
31B
100
AcDbEntity
  8
0
  6
Continuous
 62
     0
100
AcDbLine
 10
130.018153
 20
139.19687
 30
0.0
 11
130.018153
 21
51.201808
 31
0.0
  0
SOLID
  5
31C
100
AcDbEntity
  8
0
  6
Continuous
 62
     0
100
AcDbTrace
 10
131.018065
 20
134.197095
 30
0.0
 11
130.018153
 21
139.19687
 31
0.0
 12
129.018028
 22
134.197095
 32
0.0
 13
129.018028
 23
134.197095
 33
0.0
  0
SOLID
  5
31D
100
AcDbEntity
  8
0
  6
Continuous
 62
     0
100
AcDbTrace
 10
129.018028
 20
56.201583
 30
0.0
 11
130.018153
 21
51.201808
 31
0.0
 12
131.018065
 22
56.201583
 32
0.0
 13
131.018065
 23
56.201583
 33
0.0
  0
ENDBLK
  5
31E
100
AcDbEntity
  8
0
100
AcDbBlockEnd
  0
BLOCK
  5
321
100
AcDbEntity
  8
0
100
AcDbBlockBegin
  2
*B9
 70
     0
 10
0.0
 20
0.0
 30
0.0
  3
*B9
  1

  0
LINE
  5
322
100
AcDbEntity
  8
0
  6
Continuous
 62
     0
100
AcDbLine
 10
144.018203
 20
127.940153
 30
0.0
 11
144.018203
 21
88.699695
 31
0.0
  0
SOLID
  5
323
100
AcDbEntity
  8
0
  6
Continuous
 62
     0
100
AcDbTrace
 10
143.018078
 20
112.698232
 30
0.0
 11
144.018203
 21
107.69867
 31
0.0
 12
145.018115
 22
112.698232
 32
0.0
 13
145.018115
 23
112.698232
 33
0.0
  0
SOLID
  5
324
100
AcDbEntity
  8
0
  6
Continuous
 62
     0
100
AcDbTrace
 10
145.018115
 20
93.69947
 30
0.0
 11
144.018203
 21
98.699033
 31
0.0
 12
143.018078
 22
93.69947
 32
0.0
 13
143.018078
 23
93.69947
 33
0.0
  0
ENDBLK
  5
325
100
AcDbEntity
  8
0
100
AcDbBlockEnd
  0
BLOCK
  5
328
100
AcDbEntity
  8
0
100
AcDbBlockBegin
  2
*B10
 70
     0
 10
0.0
 20
0.0
 30
0.0
  3
*B10
  1

  0
LINE
  5
329
100
AcDbEntity
  8
0
  6
Continuous
 62
     0
100
AcDbLine
 10
115.446452
 20
21.017069
 30
0.0
 11
85.446315
 21
21.017069
 31
0.0
  0
SOLID
  5
32A
100
AcDbEntity
  8
0
  6
Continuous
 62
     0
100
AcDbTrace
 10
110.446464
 20
20.017156
 30
0.0
 11
115.446452
 21
21.017069
 31
0.0
 12
110.446464
 22
22.016981
 32
0.0
 13
110.446464
 23
22.016981
 33
0.0
  0
SOLID
  5
32B
100
AcDbEntity
  8
0
  6
Continuous
 62
     0
100
AcDbTrace
 10
90.446302
 20
22.016981
 30
0.0
 11
85.446315
 21
21.017069
 31
0.0
 12
90.446302
 22
20.017156
 32
0.0
 13
90.446302
 23
20.017156
 33
0.0
  0
ENDBLK
  5
32C
100
AcDbEntity
  8
0
100
AcDbBlockEnd
  0
BLOCK
  5
32F
100
AcDbEntity
  8
0
100
AcDbBlockBegin
  2
*B11
 70
     0
 10
0.0
 20
0.0
 30
0.0
  3
*B11
  1

  0
LINE
  5
330
100
AcDbEntity
  8
0
  6
Continuous
 62
     0
100
AcDbLine
 10
234.018188
 20
207.902351
 30
0.0
 11
234.018188
 21
136.054803
 31
0.0
  0
SOLID
  5
331
100
AcDbEntity
  8
0
  6
Continuous
 62
     0
100
AcDbTrace
 10
233.018063
 20
159.053428
 30
0.0
 11
234.018188
 21
154.053653
 31
0.0
 12
235.0181
 22
159.053428
 32
0.0
 13
235.0181
 23
159.053428
 33
0.0
  0
SOLID
  5
332
100
AcDbEntity
  8
0
  6
Continuous
 62
     0
100
AcDbTrace
 10
235.0181
 20
141.054366
 30
0.0
 11
234.018188
 21
146.054141
 31
0.0
 12
233.018063
 22
141.054366
 32
0.0
 13
233.018063
 23
141.054366
 33
0.0
  0
ENDBLK
  5
333
100
AcDbEntity
  8
0
100
AcDbBlockEnd
  0
BLOCK
  5
336
100
AcDbEntity
  8
0
100
AcDbBlockBegin
  2
*B12
 70
     0
 10
0.0
 20
0.0
 30
0.0
  3
*B12
  1

  0
LINE
  5
337
100
AcDbEntity
  8
0
  6
Continuous
 62
     0
100
AcDbLine
 10
247.018112
 20
203.652457
 30
0.0
 11
247.018112
 21
132.054941
 31
0.0
  0
SOLID
  5
338
100
AcDbEntity
  8
0
  6
Continuous
 62
     0
100
AcDbTrace
 10
246.017987
 20
151.053916
 30
0.0
 11
247.018112
 21
146.054141
 31
0.0
 12
248.018025
 22
151.053916
 32
0.0
 13
248.018025
 23
151.053916
 33
0.0
  0
SOLID
  5
339
100
AcDbEntity
  8
0
  6
Continuous
 62
     0
100
AcDbTrace
 10
248.018025
 20
137.054716
 30
0.0
 11
247.018112
 21
142.054491
 31
0.0
 12
246.017987
 22
137.054716
 32
0.0
 13
246.017987
 23
137.054716
 33
0.0
  0
ENDBLK
  5
33A
100
AcDbEntity
  8
0
100
AcDbBlockEnd
  0
BLOCK
  5
33D
100
AcDbEntity
  8
0
100
AcDbBlockBegin
  2
*B13
 70
     0
 10
0.0
 20
0.0
 30
0.0
  3
*B13
  1

  0
LINE
  5
33E
100
AcDbEntity
  8
0
  6
Continuous
 62
     0
100
AcDbLine
 10
144.018203
 20
78.200295
 30
0.0
 11
144.018203
 21
51.201808
 31
0.0
  0
SOLID
  5
33F
100
AcDbEntity
  8
0
  6
Continuous
 62
     0
100
AcDbTrace
 10
145.018115
 20
73.20052
 30
0.0
 11
144.018203
 21
78.200295
 31
0.0
 12
143.018078
 22
73.20052
 32
0.0
 13
143.018078
 23
73.20052
 33
0.0
  0
SOLID
  5
340
100
AcDbEntity
  8
0
  6
Continuous
 62
     0
100
AcDbTrace
 10
143.018078
 20
56.201583
 30
0.0
 11
144.018203
 21
51.201808
 31
0.0
 12
145.018115
 22
56.201583
 32
0.0
 13
145.018115
 23
56.201583
 33
0.0
  0
ENDBLK
  5
341
100
AcDbEntity
  8
0
100
AcDbBlockEnd
  0
BLOCK
  5
344
100
AcDbEntity
  8
0
100
AcDbBlockBegin
  2
*B14
 70
     0
 10
0.0
 20
0.0
 30
0.0
  3
*B14
  1

  0
LINE
  5
345
100
AcDbEntity
  8
0
  6
Continuous
 62
     0
100
AcDbLine
 10
223.018088
 20
78.200295
 30
0.0
 11
223.018088
 21
41.202258
 31
0.0
  0
SOLID
  5
346
100
AcDbEntity
  8
0
  6
Continuous
 62
     0
100
AcDbTrace
 10
222.018175
 20
73.20052
 30
0.0
 11
223.018088
 21
68.200745
 31
0.0
 12
224.018213
 22
73.20052
 32
0.0
 13
224.018213
 23
73.20052
 33
0.0
  0
SOLID
  5
347
100
AcDbEntity
  8
0
  6
Continuous
 62
     0
100
AcDbTrace
 10
224.018213
 20
46.202033
 30
0.0
 11
223.018088
 21
51.201808
 31
0.0
 12
222.018175
 22
46.202033
 32
0.0
 13
222.018175
 23
46.202033
 33
0.0
  0
ENDBLK
  5
348
100
AcDbEntity
  8
0
100
AcDbBlockEnd
  0
BLOCK
  5
34B
100
AcDbEntity
  8
0
100
AcDbBlockBegin
  2
*B15
 70
     0
 10
0.0
 20
0.0
 30
0.0
  3
*B15
  1

  0
LINE
  5
34C
100
AcDbEntity
  8
0
  6
Continuous
 62
     0
100
AcDbLine
 10
223.018088
 20
68.200745
 30
0.0
 11
223.018088
 21
88.199633
 31
0.0
  0
SOLID
  5
34D
100
AcDbEntity
  8
0
  6
Continuous
 62
     0
100
AcDbTrace
 10
222.018175
 20
73.20052
 30
0.0
 11
223.018088
 21
68.200745
 31
0.0
 12
224.018213
 22
73.20052
 32
0.0
 13
224.018213
 23
73.20052
 33
0.0
  0
SOLID
  5
34E
100
AcDbEntity
  8
0
  6
Continuous
 62
     0
100
AcDbTrace
 10
224.018213
 20
83.20007
 30
0.0
 11
223.018088
 21
88.199633
 31
0.0
 12
222.018175
 22
83.20007
 32
0.0
 13
222.018175
 23
83.20007
 33
0.0
  0
ENDBLK
  5
34F
100
AcDbEntity
  8
0
100
AcDbBlockEnd
  0
BLOCK
  5
352
100
AcDbEntity
  8
0
100
AcDbBlockBegin
  2
*B16
 70
     0
 10
0.0
 20
0.0
 30
0.0
  3
*B16
  1

  0
LINE
  5
353
100
AcDbEntity
  8
0
  6
Continuous
 62
     0
100
AcDbLine
 10
74.018167
 20
54.001648
 30
0.0
 11
74.018167
 21
88.992425
 31
0.0
  0
SOLID
  5
354
100
AcDbEntity
  8
0
  6
Continuous
 62
     0
100
AcDbTrace
 10
75.01808
 20
59.001423
 30
0.0
 11
74.018167
 21
64.000985
 31
0.0
 12
73.018255
 22
59.001423
 32
0.0
 13
73.018255
 23
59.001423
 33
0.0
  0
SOLID
  5
355
100
AcDbEntity
  8
0
  6
Continuous
 62
     0
100
AcDbTrace
 10
73.018255
 20
77.40028
 30
0.0
 11
74.018167
 21
72.400505
 31
0.0
 12
75.01808
 22
77.40028
 32
0.0
 13
75.01808
 23
77.40028
 33
0.0
  0
ENDBLK
  5
356
100
AcDbEntity
  8
0
100
AcDbBlockEnd
  0
BLOCK
  5
359
100
AcDbEntity
  8
0
100
AcDbBlockBegin
  2
*B17
 70
     0
 10
0.0
 20
0.0
 30
0.0
  3
*B17
  1

  0
LINE
  5
35A
100
AcDbEntity
  8
0
  6
Continuous
 62
     0
100
AcDbLine
 10
116.746317
 20
165.00893
 30
0.0
 11
84.14645
 21
165.00893
 31
0.0
  0
SOLID
  5
35B
100
AcDbEntity
  8
0
  6
Continuous
 62
     0
100
AcDbTrace
 10
111.746329
 20
166.008842
 30
0.0
 11
106.746342
 21
165.00893
 31
0.0
 12
111.746329
 22
164.009017
 32
0.0
 13
111.746329
 23
164.009017
 33
0.0
  0
SOLID
  5
35C
100
AcDbEntity
  8
0
  6
Continuous
 62
     0
100
AcDbTrace
 10
89.146437
 20
164.009017
 30
0.0
 11
94.146425
 21
165.00893
 31
0.0
 12
89.146437
 22
166.008842
 32
0.0
 13
89.146437
 23
166.008842
 33
0.0
  0
ENDBLK
  5
35D
100
AcDbEntity
  8
0
100
AcDbBlockEnd
  0
BLOCK
  5
360
100
AcDbEntity
  8
0
100
AcDbBlockBegin
  2
*B18
 70
     0
 10
0.0
 20
0.0
 30
0.0
  3
*B18
  1

  0
LINE
  5
361
100
AcDbEntity
  8
0
  6
Continuous
 62
     0
100
AcDbLine
 10
203.878909
 20
181.007955
 30
0.0
 11
158.592241
 21
181.007955
 31
0.0
  0
SOLID
  5
362
100
AcDbEntity
  8
0
  6
Continuous
 62
     0
100
AcDbTrace
 10
198.878921
 20
180.008042
 30
0.0
 11
203.878909
 21
181.007955
 31
0.0
 12
198.878921
 22
182.007867
 32
0.0
 13
198.878921
 23
182.007867
 33
0.0
  0
SOLID
  5
363
100
AcDbEntity
  8
0
  6
Continuous
 62
     0
100
AcDbTrace
 10
163.592228
 20
182.007867
 30
0.0
 11
158.592241
 21
181.007955
 31
0.0
 12
163.592228
 22
180.008042
 32
0.0
 13
163.592228
 23
180.008042
 33
0.0
  0
ENDBLK
  5
364
100
AcDbEntity
  8
0
100
AcDbBlockEnd
  0
BLOCK
  5
367
100
AcDbEntity
  8
0
100
AcDbBlockBegin
  2
*B19
 70
     0
 10
0.0
 20
0.0
 30
0.0
  3
*B19
  1

  0
LINE
  5
368
100
AcDbEntity
  8
0
  6
Continuous
 62
     0
100
AcDbLine
 10
223.878858
 20
165.00893
 30
0.0
 11
183.878959
 21
165.00893
 31
0.0
  0
SOLID
  5
369
100
AcDbEntity
  8
0
  6
Continuous
 62
     0
100
AcDbTrace
 10
218.878871
 20
166.008842
 30
0.0
 11
213.878883
 21
165.00893
 31
0.0
 12
218.878871
 22
164.009017
 32
0.0
 13
218.878871
 23
164.009017
 33
0.0
  0
SOLID
  5
36A
100
AcDbEntity
  8
0
  6
Continuous
 62
     0
100
AcDbTrace
 10
188.878947
 20
164.009017
 30
0.0
 11
193.878934
 21
165.00893
 31
0.0
 12
188.878947
 22
166.008842
 32
0.0
 13
188.878947
 23
166.008842
 33
0.0
  0
ENDBLK
  5
36B
100
AcDbEntity
  8
0
100
AcDbBlockEnd
  0
BLOCK
  5
36E
100
AcDbEntity
  8
0
100
AcDbBlockBegin
  2
*B20
 70
     0
 10
0.0
 20
0.0
 30
0.0
  3
*B20
  1

  0
LINE
  5
36F
100
AcDbEntity
  8
0
  6
Continuous
 62
     8
100
AcDbLine
 10
158.592241
 20
19.017031
 30
0.0
 11
158.592241
 21
48.201858
 31
0.0
  0
LINE
  5
370
100
AcDbEntity
  8
0
  6
Continuous
 62
     8
100
AcDbLine
 10
158.592241
 20
142.196607
 30
0.0
 11
158.592241
 21
183.00778
 31
0.0
  0
ENDBLK
  5
371
100
AcDbEntity
  8
0
100
AcDbBlockEnd
  0
BLOCK
  5
374
100
AcDbEntity
  8
0
100
AcDbBlockBegin
  2
*B21
 70
     0
 10
0.0
 20
0.0
 30
0.0
  3
*B21
  1

  0
LINE
  5
375
100
AcDbEntity
  8
0
  6
Continuous
 62
     8
100
AcDbLine
 10
128.018116
 20
139.19687
 30
0.0
 11
155.592291
 21
139.19687
 31
0.0
  0
ENDBLK
  5
376
100
AcDbEntity
  8
0
100
AcDbBlockEnd
  0
BLOCK
  5
379
100
AcDbEntity
  8
0
100
AcDbBlockBegin
  2
*B22
 70
     0
 10
0.0
 20
0.0
 30
0.0
  3
*B22
  1

  0
LINE
  5
37A
100
AcDbEntity
  8
0
  6
Continuous
 62
     8
100
AcDbLine
 10
208.592327
 20
19.017031
 30
0.0
 11
208.592327
 21
48.201858
 31
0.0
  0
ENDBLK
  5
37B
100
AcDbEntity
  8
0
100
AcDbBlockEnd
  0
BLOCK
  5
37E
100
AcDbEntity
  8
0
100
AcDbBlockBegin
  2
*B23
 70
     0
 10
0.0
 20
0.0
 30
0.0
  3
*B23
  1

  0
LINE
  5
37F
100
AcDbEntity
  8
0
  6
Continuous
 62
     8
100
AcDbLine
 10
142.018165
 20
98.699033
 30
0.0
 11
164.592353
 21
98.699033
 31
0.0
  0
ENDBLK
  5
380
100
AcDbEntity
  8
0
100
AcDbBlockEnd
  0
BLOCK
  5
383
100
AcDbEntity
  8
0
100
AcDbBlockBegin
  2
*B24
 70
     0
 10
0.0
 20
0.0
 30
0.0
  3
*B24
  1

  0
LINE
  5
384
100
AcDbEntity
  8
0
  6
Continuous
 62
     8
100
AcDbLine
 10
90.246405
 20
68.200745
 30
0.0
 11
95.44629
 21
68.200745
 31
0.0
  0
LINE
  5
385
100
AcDbEntity
  8
0
  6
Continuous
 62
     8
100
AcDbLine
 10
105.446477
 20
68.200745
 30
0.0
 11
110.646362
 21
68.200745
 31
0.0
  0
ENDBLK
  5
386
100
AcDbEntity
  8
0
100
AcDbBlockEnd
  0
BLOCK
  5
389
100
AcDbEntity
  8
0
100
AcDbBlockBegin
  2
*B25
 70
     0
 10
0.0
 20
0.0
 30
0.0
  3
*B25
  1

  0
LINE
  5
38A
100
AcDbEntity
  8
0
  6
Continuous
 62
     8
100
AcDbLine
 10
221.01805
 20
68.200745
 30
0.0
 11
225.018125
 21
68.200745
 31
0.0
  0
LINE
  5
38B
100
AcDbEntity
  8
0
  6
Continuous
 62
     8
100
AcDbLine
 10
187.592252
 20
68.200745
 30
0.0
 11
200.805245
 21
68.200745
 31
0.0
  0
LINE
  5
38C
100
AcDbEntity
  8
0
  6
Continuous
 62
     8
100
AcDbLine
 10
203.805195
 20
68.200745
 30
0.0
 11
204.805108
 21
68.200745
 31
0.0
  0
LINE
  5
38D
100
AcDbEntity
  8
0
  6
Continuous
 62
     8
100
AcDbLine
 10
207.80527
 20
68.200745
 30
0.0
 11
221.01805
 21
68.200745
 31
0.0
  0
ENDBLK
  5
38E
100
AcDbEntity
  8
0
100
AcDbBlockEnd
  0
BLOCK
  5
391
100
AcDbEntity
  8
0
100
AcDbBlockBegin
  2
*B26
 70
     0
 10
0.0
 20
0.0
 30
0.0
  3
*B26
  1

  0
LINE
  5
392
100
AcDbEntity
  8
0
  6
Continuous
 62
     8
100
AcDbLine
 10
142.018165
 20
78.200295
 30
0.0
 11
146.018028
 21
78.200295
 31
0.0
  0
LINE
  5
393
100
AcDbEntity
  8
0
  6
Continuous
 62
     8
100
AcDbLine
 10
146.018028
 20
78.200295
 30
0.0
 11
159.305159
 21
78.200295
 31
0.0
  0
LINE
  5
394
100
AcDbEntity
  8
0
  6
Continuous
 62
     8
100
AcDbLine
 10
162.305109
 20
78.200295
 30
0.0
 11
163.305234
 21
78.200295
 31
0.0
  0
LINE
  5
395
100
AcDbEntity
  8
0
  6
Continuous
 62
     8
100
AcDbLine
 10
166.305184
 20
78.200295
 30
0.0
 11
179.592315
 21
78.200295
 31
0.0
  0
ENDBLK
  5
396
100
AcDbEntity
  8
0
100
AcDbBlockEnd
  0
BLOCK
  5
399
100
AcDbEntity
  8
0
100
AcDbBlockBegin
  2
*B27
 70
     0
 10
0.0
 20
0.0
 30
0.0
  3
*B27
  1

  0
LINE
  5
39A
100
AcDbEntity
  8
0
  6
Continuous
 62
     8
100
AcDbLine
 10
221.01805
 20
88.199633
 30
0.0
 11
225.018125
 21
88.199633
 31
0.0
  0
LINE
  5
39B
100
AcDbEntity
  8
0
  6
Continuous
 62
     8
100
AcDbLine
 10
187.592252
 20
88.199633
 30
0.0
 11
200.805245
 21
88.199633
 31
0.0
  0
LINE
  5
39C
100
AcDbEntity
  8
0
  6
Continuous
 62
     8
100
AcDbLine
 10
203.805195
 20
88.199633
 30
0.0
 11
204.805108
 21
88.199633
 31
0.0
  0
LINE
  5
39D
100
AcDbEntity
  8
0
  6
Continuous
 62
     8
100
AcDbLine
 10
207.80527
 20
88.199633
 30
0.0
 11
221.01805
 21
88.199633
 31
0.0
  0
ENDBLK
  5
39E
100
AcDbEntity
  8
0
100
AcDbBlockEnd
  0
BLOCK
  5
3A1
100
AcDbEntity
  8
0
100
AcDbBlockBegin
  2
*B28
 70
     0
 10
0.0
 20
0.0
 30
0.0
  3
*B28
  1

  0
LINE
  5
3A2
100
AcDbEntity
  8
0
  6
Continuous
 62
     8
100
AcDbLine
 10
90.246405
 20
88.199633
 30
0.0
 11
95.44629
 21
88.199633
 31
0.0
  0
LINE
  5
3A3
100
AcDbEntity
  8
0
  6
Continuous
 62
     8
100
AcDbLine
 10
105.446477
 20
88.199633
 30
0.0
 11
110.646362
 21
88.199633
 31
0.0
  0
ENDBLK
  5
3A4
100
AcDbEntity
  8
0
100
AcDbBlockEnd
  0
BLOCK
  5
3A7
100
AcDbEntity
  8
0
100
AcDbBlockBegin
  2
*B29
 70
     0
 10
0.0
 20
0.0
 30
0.0
  3
*B29
  1

  0
LINE
  5
3A8
100
AcDbEntity
  8
0
  6
Continuous
 62
     8
100
AcDbLine
 10
167.592303
 20
33.016231
 30
0.0
 11
167.592303
 21
37.016094
 31
0.0
  0
LINE
  5
3A9
100
AcDbEntity
  8
0
  6
Continuous
 62
     8
100
AcDbLine
 10
167.592303
 20
37.016094
 30
0.0
 11
167.592303
 21
47.062166
 31
0.0
  0
LINE
  5
3AA
100
AcDbEntity
  8
0
  6
Continuous
 62
     8
100
AcDbLine
 10
167.592303
 20
50.061903
 30
0.0
 11
167.592303
 21
51.062028
 31
0.0
  0
LINE
  5
3AB
100
AcDbEntity
  8
0
  6
Continuous
 62
     8
100
AcDbLine
 10
167.592303
 20
54.061766
 30
0.0
 11
167.592303
 21
64.107838
 31
0.0
  0
LINE
  5
3AC
100
AcDbEntity
  8
0
  6
Continuous
 62
     8
100
AcDbLine
 10
167.592303
 20
67.107576
 30
0.0
 11
167.592303
 21
68.107488
 31
0.0
  0
LINE
  5
3AD
100
AcDbEntity
  8
0
  6
Continuous
 62
     8
100
AcDbLine
 10
167.592303
 20
71.107438
 30
0.0
 11
167.592303
 21
81.15351
 31
0.0
  0
LINE
  5
3AE
100
AcDbEntity
  8
0
  6
Continuous
 62
     8
100
AcDbLine
 10
167.592303
 20
84.153248
 30
0.0
 11
167.592303
 21
85.15316
 31
0.0
  0
LINE
  5
3AF
100
AcDbEntity
  8
0
  6
Continuous
 62
     8
100
AcDbLine
 10
167.592303
 20
88.15311
 30
0.0
 11
167.592303
 21
98.199183
 31
0.0
  0
LINE
  5
3B0
100
AcDbEntity
  8
0
  6
Continuous
 62
     8
100
AcDbLine
 10
167.592303
 20
108.19852
 30
0.0
 11
167.592303
 21
116.698095
 31
0.0
  0
ENDBLK
  5
3B1
100
AcDbEntity
  8
0
100
AcDbBlockEnd
  0
BLOCK
  5
3B4
100
AcDbEntity
  8
0
100
AcDbBlockBegin
  2
*B30
 70
     0
 10
0.0
 20
0.0
 30
0.0
  3
*B30
  1

  0
LINE
  5
3B5
100
AcDbEntity
  8
0
  6
Continuous
 62
     8
100
AcDbLine
 10
88.54632
 20
144.054316
 30
0.0
 11
112.346447
 21
144.054316
 31
0.0
  0
ENDBLK
  5
3B6
100
AcDbEntity
  8
0
100
AcDbBlockEnd
  0
BLOCK
  5
3B9
100
AcDbEntity
  8
0
100
AcDbBlockBegin
  2
*B31
 70
     0
 10
0.0
 20
0.0
 30
0.0
  3
*B31
  1

  0
LINE
  5
3BA
100
AcDbEntity
  8
0
  6
Continuous
 62
     8
100
AcDbLine
 10
187.878822
 20
144.054316
 30
0.0
 11
198.878921
 21
144.054316
 31
0.0
  0
LINE
  5
3BB
100
AcDbEntity
  8
0
  6
Continuous
 62
     8
100
AcDbLine
 10
208.878896
 20
144.054316
 30
0.0
 11
219.878783
 21
144.054316
 31
0.0
  0
ENDBLK
  5
3BC
100
AcDbEntity
  8
0
100
AcDbBlockEnd
  0
BLOCK
  5
3BF
100
AcDbEntity
  8
0
100
AcDbBlockBegin
  2
*B32
 70
     0
 10
0.0
 20
0.0
 30
0.0
  3
*B32
  1

  0
LINE
  5
3C0
100
AcDbEntity
  8
0
  6
Continuous
 62
     8
100
AcDbLine
 10
206.878859
 20
154.053653
 30
0.0
 11
261.018162
 21
154.053653
 31
0.0
  0
ENDBLK
  5
3C1
100
AcDbEntity
  8
0
100
AcDbBlockEnd
  0
BLOCK
  5
3C4
100
AcDbEntity
  8
0
100
AcDbBlockBegin
  2
*B33
 70
     0
 10
0.0
 20
0.0
 30
0.0
  3
*B33
  1

  0
LINE
  5
3C5
100
AcDbEntity
  8
0
  6
Continuous
 62
     8
100
AcDbLine
 10
79.446415
 20
103.198957
 30
0.0
 11
96.946477
 21
103.198957
 31
0.0
  0
LINE
  5
3C6
100
AcDbEntity
  8
0
  6
Continuous
 62
     8
100
AcDbLine
 10
99.946427
 20
103.198957
 30
0.0
 11
100.94634
 21
103.198957
 31
0.0
  0
LINE
  5
3C7
100
AcDbEntity
  8
0
  6
Continuous
 62
     8
100
AcDbLine
 10
103.94629
 20
103.198957
 30
0.0
 11
121.446352
 21
103.198957
 31
0.0
  0
ENDBLK
  5
3C8
100
AcDbEntity
  8
0
100
AcDbBlockEnd
  0
BLOCK
  5
3CB
100
AcDbEntity
  8
0
100
AcDbBlockBegin
  2
*B34
 70
     0
 10
0.0
 20
0.0
 30
0.0
  3
*B34
  1

  0
LINE
  5
3CC
100
AcDbEntity
  8
0
  6
Continuous
 62
     8
100
AcDbLine
 10
72.01813
 20
72.400505
 30
0.0
 11
97.446327
 21
72.400505
 31
0.0
  0
ENDBLK
  5
3CD
100
AcDbEntity
  8
0
100
AcDbBlockEnd
  0
BLOCK
  5
3D0
100
AcDbEntity
  8
0
100
AcDbBlockBegin
  2
*B35
 70
     0
 10
0.0
 20
0.0
 30
0.0
  3
*B35
  1

  0
LINE
  5
3D1
100
AcDbEntity
  8
0
  6
Continuous
 62
     8
100
AcDbLine
 10
115.446452
 20
19.017031
 30
0.0
 11
115.446452
 21
48.201858
 31
0.0
  0
ENDBLK
  5
3D2
100
AcDbEntity
  8
0
100
AcDbBlockEnd
  0
BLOCK
  5
3D5
100
AcDbEntity
  8
0
100
AcDbBlockBegin
  2
*B36
 70
     0
 10
0.0
 20
0.0
 30
0.0
  3
*B36
  1

  0
LINE
  5
3D6
100
AcDbEntity
  8
0
  6
Continuous
 62
     8
100
AcDbLine
 10
170.592253
 20
131.197357
 30
0.0
 11
174.592328
 21
131.197357
 31
0.0
  0
ENDBLK
  5
3D7
100
AcDbEntity
  8
0
100
AcDbBlockEnd
  0
BLOCK
  5
3DA
100
AcDbEntity
  8
0
100
AcDbBlockBegin
  2
*B37
 70
     0
 10
0.0
 20
0.0
 30
0.0
  3
*B37
  1

  0
LINE
  5
3DB
100
AcDbEntity
  8
0
  6
Continuous
 62
     8
100
AcDbLine
 10
199.592264
 20
33.016231
 30
0.0
 11
199.592264
 21
37.016094
 31
0.0
  0
LINE
  5
3DC
100
AcDbEntity
  8
0
  6
Continuous
 62
     8
100
AcDbLine
 10
199.592264
 20
37.016094
 30
0.0
 11
199.592264
 21
47.062166
 31
0.0
  0
LINE
  5
3DD
100
AcDbEntity
  8
0
  6
Continuous
 62
     8
100
AcDbLine
 10
199.592264
 20
50.061903
 30
0.0
 11
199.592264
 21
51.062028
 31
0.0
  0
LINE
  5
3DE
100
AcDbEntity
  8
0
  6
Continuous
 62
     8
100
AcDbLine
 10
199.592264
 20
54.061766
 30
0.0
 11
199.592264
 21
64.107838
 31
0.0
  0
LINE
  5
3DF
100
AcDbEntity
  8
0
  6
Continuous
 62
     8
100
AcDbLine
 10
199.592264
 20
67.107576
 30
0.0
 11
199.592264
 21
68.107488
 31
0.0
  0
LINE
  5
3E0
100
AcDbEntity
  8
0
  6
Continuous
 62
     8
100
AcDbLine
 10
199.592264
 20
71.107438
 30
0.0
 11
199.592264
 21
81.15351
 31
0.0
  0
LINE
  5
3E1
100
AcDbEntity
  8
0
  6
Continuous
 62
     8
100
AcDbLine
 10
199.592264
 20
84.153248
 30
0.0
 11
199.592264
 21
85.15316
 31
0.0
  0
LINE
  5
3E2
100
AcDbEntity
  8
0
  6
Continuous
 62
     8
100
AcDbLine
 10
199.592264
 20
88.15311
 30
0.0
 11
199.592264
 21
98.199183
 31
0.0
  0
LINE
  5
3E3
100
AcDbEntity
  8
0
  6
Continuous
 62
     8
100
AcDbLine
 10
199.592264
 20
108.19852
 30
0.0
 11
199.592264
 21
116.698095
 31
0.0
  0
ENDBLK
  5
3E4
100
AcDbEntity
  8
0
100
AcDbBlockEnd
  0
BLOCK
  5
3E7
100
AcDbEntity
  8
0
100
AcDbBlockBegin
  2
*B38
 70
     0
 10
0.0
 20
0.0
 30
0.0
  3
*B38
  1

  0
LINE
  5
3E8
100
AcDbEntity
  8
0
  6
Continuous
 62
     8
100
AcDbLine
 10
165.592265
 20
122.19772
 30
0.0
 11
165.592265
 21
126.197582
 31
0.0
  0
ENDBLK
  5
3E9
100
AcDbEntity
  8
0
100
AcDbBlockEnd
  0
BLOCK
  5
3EC
100
AcDbEntity
  8
0
100
AcDbBlockBegin
  2
*B39
 70
     0
 10
0.0
 20
0.0
 30
0.0
  3
*B39
  1

  0
LINE
  5
3ED
100
AcDbEntity
  8
0
  6
Continuous
 62
     8
100
AcDbLine
 10
257.018087
 20
103.198957
 30
0.0
 11
261.018162
 21
103.198957
 31
0.0
  0
LINE
  5
3EE
100
AcDbEntity
  8
0
  6
Continuous
 62
     8
100
AcDbLine
 10
186.092277
 20
103.198957
 30
0.0
 11
194.592277
 21
103.198957
 31
0.0
  0
LINE
  5
3EF
100
AcDbEntity
  8
0
  6
Continuous
 62
     8
100
AcDbLine
 10
204.592252
 20
103.198957
 30
0.0
 11
217.400776
 21
103.198957
 31
0.0
  0
LINE
  5
3F0
100
AcDbEntity
  8
0
  6
Continuous
 62
     8
100
AcDbLine
 10
220.400939
 20
103.198957
 30
0.0
 11
221.400851
 21
103.198957
 31
0.0
  0
LINE
  5
3F1
100
AcDbEntity
  8
0
  6
Continuous
 62
     8
100
AcDbLine
 10
224.400801
 20
103.198957
 30
0.0
 11
237.209538
 21
103.198957
 31
0.0
  0
LINE
  5
3F2
100
AcDbEntity
  8
0
  6
Continuous
 62
     8
100
AcDbLine
 10
240.209488
 20
103.198957
 30
0.0
 11
241.2094
 21
103.198957
 31
0.0
  0
LINE
  5
3F3
100
AcDbEntity
  8
0
  6
Continuous
 62
     8
100
AcDbLine
 10
244.209563
 20
103.198957
 30
0.0
 11
257.018087
 21
103.198957
 31
0.0
  0
ENDBLK
  5
3F4
100
AcDbEntity
  8
0
100
AcDbBlockEnd
  0
BLOCK
  5
3F7
100
AcDbEntity
  8
0
100
AcDbBlockBegin
  2
*B40
 70
     0
 10
0.0
 20
0.0
 30
0.0
  3
*B40
  1

  0
LINE
  5
3F8
100
AcDbEntity
  8
0
  6
Continuous
 62
     8
100
AcDbLine
 10
128.018116
 20
51.201808
 30
0.0
 11
155.592291
 21
51.201808
 31
0.0
  0
LINE
  5
3F9
100
AcDbEntity
  8
0
  6
Continuous
 62
     8
100
AcDbLine
 10
211.592277
 20
51.201808
 30
0.0
 11
261.018162
 21
51.201808
 31
0.0
  0
ENDBLK
  5
3FA
100
AcDbEntity
  8
0
100
AcDbBlockEnd
  0
BLOCK
  5
3FD
100
AcDbEntity
  8
0
100
AcDbBlockBegin
  2
*B41
 70
     0
 10
0.0
 20
0.0
 30
0.0
  3
*B41
  1

  0
LINE
  5
3FE
100
AcDbEntity
  8
0
  6
Continuous
 62
     8
100
AcDbLine
 10
100.446277
 20
45.202121
 30
0.0
 11
100.446277
 21
63.201183
 31
0.0
  0
LINE
  5
3FF
100
AcDbEntity
  8
0
  6
Continuous
 62
     8
100
AcDbLine
 10
100.446277
 20
73.20052
 30
0.0
 11
100.446277
 21
83.20007
 31
0.0
  0
LINE
  5
400
100
AcDbEntity
  8
0
  6
Continuous
 62
     8
100
AcDbLine
 10
100.446277
 20
93.199408
 30
0.0
 11
100.446277
 21
104.163394
 31
0.0
  0
LINE
  5
401
100
AcDbEntity
  8
0
  6
Continuous
 62
     8
100
AcDbLine
 10
100.446277
 20
107.163131
 30
0.0
 11
100.446277
 21
108.163044
 31
0.0
  0
LINE
  5
402
100
AcDbEntity
  8
0
  6
Continuous
 62
     8
100
AcDbLine
 10
100.446277
 20
111.162994
 30
0.0
 11
100.446277
 21
122.126768
 31
0.0
  0
LINE
  5
403
100
AcDbEntity
  8
0
  6
Continuous
 62
     8
100
AcDbLine
 10
100.446277
 20
125.126718
 30
0.0
 11
100.446277
 21
126.12663
 31
0.0
  0
LINE
  5
404
100
AcDbEntity
  8
0
  6
Continuous
 62
     8
100
AcDbLine
 10
100.446277
 20
129.126368
 30
0.0
 11
100.446277
 21
140.090354
 31
0.0
  0
LINE
  5
405
100
AcDbEntity
  8
0
  6
Continuous
 62
     8
100
AcDbLine
 10
100.446277
 20
143.090092
 30
0.0
 11
100.446277
 21
144.090004
 31
0.0
  0
LINE
  5
406
100
AcDbEntity
  8
0
  6
Continuous
 62
     8
100
AcDbLine
 10
100.446277
 20
147.089954
 30
0.0
 11
100.446277
 21
158.053728
 31
0.0
  0
ENDBLK
  5
407
100
AcDbEntity
  8
0
100
AcDbBlockEnd
  0
BLOCK
  5
40A
100
AcDbEntity
  8
0
100
AcDbBlockBegin
  2
*B42
 70
     0
 10
0.0
 20
0.0
 30
0.0
  3
*B42
  1

  0
LINE
  5
40B
100
AcDbEntity
  8
0
  6
Continuous
 62
     8
100
AcDbLine
 10
218.192294
 20
146.054141
 30
0.0
 11
249.01815
 21
146.054141
 31
0.0
  0
ENDBLK
  5
40C
100
AcDbEntity
  8
0
100
AcDbBlockEnd
  0
BLOCK
  5
40F
100
AcDbEntity
  8
0
100
AcDbBlockBegin
  2
*B43
 70
     0
 10
0.0
 20
0.0
 30
0.0
  3
*B43
  1

  0
LINE
  5
410
100
AcDbEntity
  8
0
  6
Continuous
 62
     8
100
AcDbLine
 10
154.092316
 20
103.198957
 30
0.0
 11
162.592315
 21
103.198957
 31
0.0
  0
LINE
  5
411
100
AcDbEntity
  8
0
  6
Continuous
 62
     8
100
AcDbLine
 10
172.59229
 20
103.198957
 30
0.0
 11
181.09229
 21
103.198957
 31
0.0
  0
ENDBLK
  5
412
100
AcDbEntity
  8
0
100
AcDbBlockEnd
  0
BLOCK
  5
415
100
AcDbEntity
  8
0
100
AcDbBlockBegin
  2
*B44
 70
     0
 10
0.0
 20
0.0
 30
0.0
  3
*B44
  1

  0
LINE
  5
416
100
AcDbEntity
  8
0
  6
Continuous
 62
     8
100
AcDbLine
 10
106.746342
 20
156.651471
 30
0.0
 11
106.746342
 21
167.008755
 31
0.0
  0
ENDBLK
  5
417
100
AcDbEntity
  8
0
100
AcDbBlockEnd
  0
BLOCK
  5
41A
100
AcDbEntity
  8
0
100
AcDbBlockBegin
  2
*B45
 70
     0
 10
0.0
 20
0.0
 30
0.0
  3
*B45
  1

  0
LINE
  5
41B
100
AcDbEntity
  8
0
  6
Continuous
 62
     8
100
AcDbLine
 10
142.018165
 20
107.69867
 30
0.0
 11
164.592353
 21
107.69867
 31
0.0
  0
ENDBLK
  5
41C
100
AcDbEntity
  8
0
100
AcDbBlockEnd
  0
BLOCK
  5
41F
100
AcDbEntity
  8
0
100
AcDbBlockBegin
  2
*B46
 70
     0
 10
0.0
 20
0.0
 30
0.0
  3
*B46
  1

  0
LINE
  5
420
100
AcDbEntity
  8
0
  6
Continuous
 62
     8
100
AcDbLine
 10
183.592177
 20
45.202121
 30
0.0
 11
183.592177
 21
56.034825
 31
0.0
  0
LINE
  5
421
100
AcDbEntity
  8
0
  6
Continuous
 62
     8
100
AcDbLine
 10
183.592177
 20
59.034775
 30
0.0
 11
183.592177
 21
60.034687
 31
0.0
  0
LINE
  5
422
100
AcDbEntity
  8
0
  6
Continuous
 62
     8
100
AcDbLine
 10
183.592177
 20
63.034425
 30
0.0
 11
183.592177
 21
73.867129
 31
0.0
  0
LINE
  5
423
100
AcDbEntity
  8
0
  6
Continuous
 62
     8
100
AcDbLine
 10
183.592177
 20
76.867079
 30
0.0
 11
183.592177
 21
77.866991
 31
0.0
  0
LINE
  5
424
100
AcDbEntity
  8
0
  6
Continuous
 62
     8
100
AcDbLine
 10
183.592177
 20
80.866729
 30
0.0
 11
183.592177
 21
91.699433
 31
0.0
  0
LINE
  5
425
100
AcDbEntity
  8
0
  6
Continuous
 62
     8
100
AcDbLine
 10
183.592177
 20
94.699383
 30
0.0
 11
183.592177
 21
95.699295
 31
0.0
  0
LINE
  5
426
100
AcDbEntity
  8
0
  6
Continuous
 62
     8
100
AcDbLine
 10
183.592177
 20
98.699033
 30
0.0
 11
183.592177
 21
109.531737
 31
0.0
  0
LINE
  5
427
100
AcDbEntity
  8
0
  6
Continuous
 62
     8
100
AcDbLine
 10
183.592177
 20
112.531687
 30
0.0
 11
183.592177
 21
113.531599
 31
0.0
  0
LINE
  5
428
100
AcDbEntity
  8
0
  6
Continuous
 62
     8
100
AcDbLine
 10
183.592177
 20
116.531549
 30
0.0
 11
183.592177
 21
127.364253
 31
0.0
  0
LINE
  5
429
100
AcDbEntity
  8
0
  6
Continuous
 62
     8
100
AcDbLine
 10
183.592177
 20
130.363991
 30
0.0
 11
183.592177
 21
131.363903
 31
0.0
  0
LINE
  5
42A
100
AcDbEntity
  8
0
  6
Continuous
 62
     8
100
AcDbLine
 10
183.592177
 20
134.363853
 30
0.0
 11
183.592177
 21
145.196557
 31
0.0
  0
ENDBLK
  5
42B
100
AcDbEntity
  8
0
100
AcDbBlockEnd
  0
BLOCK
  5
42E
100
AcDbEntity
  8
0
100
AcDbBlockBegin
  2
*B47
 70
     0
 10
0.0
 20
0.0
 30
0.0
  3
*B47
  1

  0
LINE
  5
42F
100
AcDbEntity
  8
0
  6
Continuous
 62
     8
100
AcDbLine
 10
85.446315
 20
19.017031
 30
0.0
 11
85.446315
 21
48.201858
 31
0.0
  0
ENDBLK
  5
430
100
AcDbEntity
  8
0
100
AcDbBlockEnd
  0
BLOCK
  5
433
100
AcDbEntity
  8
0
100
AcDbBlockBegin
  2
*B48
 70
     0
 10
0.0
 20
0.0
 30
0.0
  3
*B48
  1

  0
LINE
  5
434
100
AcDbEntity
  8
0
  6
Continuous
 62
     8
100
AcDbLine
 10
193.878934
 20
147.054053
 30
0.0
 11
193.878934
 21
167.008755
 31
0.0
  0
ENDBLK
  5
435
100
AcDbEntity
  8
0
100
AcDbBlockEnd
  0
BLOCK
  5
438
100
AcDbEntity
  8
0
100
AcDbBlockBegin
  2
*B49
 70
     0
 10
0.0
 20
0.0
 30
0.0
  3
*B49
  1

  0
LINE
  5
439
100
AcDbEntity
  8
0
  6
Continuous
 62
     8
100
AcDbLine
 10
213.878883
 20
147.054053
 30
0.0
 11
213.878883
 21
167.008755
 31
0.0
  0
ENDBLK
  5
43A
100
AcDbEntity
  8
0
100
AcDbBlockEnd
  0
BLOCK
  5
43D
100
AcDbEntity
  8
0
100
AcDbBlockBegin
  2
*B50
 70
     0
 10
0.0
 20
0.0
 30
0.0
  3
*B50
  1

  0
LINE
  5
43E
100
AcDbEntity
  8
0
  6
Continuous
 62
     8
100
AcDbLine
 10
72.01813
 20
64.000985
 30
0.0
 11
97.446327
 21
64.000985
 31
0.0
  0
ENDBLK
  5
43F
100
AcDbEntity
  8
0
100
AcDbBlockEnd
  0
BLOCK
  5
442
100
AcDbEntity
  8
0
100
AcDbBlockBegin
  2
*B51
 70
     0
 10
0.0
 20
0.0
 30
0.0
  3
*B51
  1

  0
LINE
  5
443
100
AcDbEntity
  8
0
  6
Continuous
 62
     8
100
AcDbLine
 10
94.146425
 20
156.651471
 30
0.0
 11
94.146425
 21
167.008755
 31
0.0
  0
ENDBLK
  5
444
100
AcDbEntity
  8
0
100
AcDbBlockEnd
  0
BLOCK
  5
447
100
AcDbEntity
  8
0
100
AcDbBlockBegin
  2
*B52
 70
     0
 10
0.0
 20
0.0
 30
0.0
  3
*B52
  1

  0
LINE
  5
448
100
AcDbEntity
  8
0
  6
Continuous
 62
     8
100
AcDbLine
 10
218.092239
 20
142.054491
 30
0.0
 11
249.01815
 21
142.054491
 31
0.0
  0
ENDBLK
  5
449
100
AcDbEntity
  8
0
100
AcDbBlockEnd
  0
BLOCK
  5
44C
100
AcDbEntity
  8
0
100
AcDbBlockBegin
  2
*B53
 70
     0
 10
0.0
 20
0.0
 30
0.0
  3
*B53
  1

  0
LINE
  5
44D
100
AcDbEntity
  8
0
  6
Continuous
 62
     8
100
AcDbLine
 10
203.878909
 20
179.00813
 30
0.0
 11
203.878909
 21
183.00778
 31
0.0
  0
LINE
  5
44E
100
AcDbEntity
  8
0
  6
Continuous
 62
     8
100
AcDbLine
 10
203.878909
 20
128.055291
 30
0.0
 11
203.878909
 21
139.054541
 31
0.0
  0
LINE
  5
44F
100
AcDbEntity
  8
0
  6
Continuous
 62
     8
100
AcDbLine
 10
203.878909
 20
149.054091
 30
0.0
 11
203.878909
 21
160.53131
 31
0.0
  0
LINE
  5
450
100
AcDbEntity
  8
0
  6
Continuous
 62
     8
100
AcDbLine
 10
203.878909
 20
163.531048
 30
0.0
 11
203.878909
 21
164.53096
 31
0.0
  0
LINE
  5
451
100
AcDbEntity
  8
0
  6
Continuous
 62
     8
100
AcDbLine
 10
203.878909
 20
167.53091
 30
0.0
 11
203.878909
 21
179.00813
 31
0.0
  0
ENDBLK
  5
452
100
AcDbEntity
  8
0
100
AcDbBlockEnd
  0
BLOCK
  5
455
100
AcDbEntity
  8
0
100
AcDbBlockBegin
  2
*B54
 70
     0
 10
0.0
 20
0.0
 30
0.0
  3
*B54
  1

  0
LINE
  5
456
100
AcDbEntity
  8
0
  6
Continuous
 62
     8
100
AcDbLine
 10
79.446415
 20
131.197357
 30
0.0
 11
96.946477
 21
131.197357
 31
0.0
  0
LINE
  5
457
100
AcDbEntity
  8
0
  6
Continuous
 62
     8
100
AcDbLine
 10
99.946427
 20
131.197357
 30
0.0
 11
100.94634
 21
131.197357
 31
0.0
  0
LINE
  5
458
100
AcDbEntity
  8
0
  6
Continuous
 62
     8
100
AcDbLine
 10
103.94629
 20
131.197357
 30
0.0
 11
121.446352
 21
131.197357
 31
0.0
  0
ENDBLK
  5
459
100
AcDbEntity
  8
0
100
AcDbBlockEnd
  0
BLOCK
  5
45C
100
AcDbEntity
  8
0
100
AcDbBlockBegin
  2
*B55
 70
     0
 10
0.0
 20
0.0
 30
0.0
  3
*B55
  1

  0
LINE
  5
45D
100
AcDbEntity
  8
0
  6
Continuous
 62
     6
100
AcDbLine
 10
197.592227
 20
103.198957
 30
0.0
 11
201.592302
 21
103.198957
 31
0.0
  0
LINE
  5
45E
100
AcDbEntity
  8
0
  6
Continuous
 62
     6
100
AcDbLine
 10
199.592264
 20
101.19892
 30
0.0
 11
199.592264
 21
105.198782
 31
0.0
  0
ENDBLK
  5
45F
100
AcDbEntity
  8
0
100
AcDbBlockEnd
  0
BLOCK
  5
462
100
AcDbEntity
  8
0
100
AcDbBlockBegin
  2
*B56
 70
     0
 10
0.0
 20
0.0
 30
0.0
  3
*B56
  1

  0
LINE
  5
463
100
AcDbEntity
  8
0
  6
Continuous
 62
     6
100
AcDbLine
 10
167.592303
 20
101.19892
 30
0.0
 11
167.592303
 21
105.198782
 31
0.0
  0
LINE
  5
464
100
AcDbEntity
  8
0
  6
Continuous
 62
     6
100
AcDbLine
 10
165.592265
 20
103.198957
 30
0.0
 11
169.59234
 21
103.198957
 31
0.0
  0
ENDBLK
  5
465
100
AcDbEntity
  8
0
100
AcDbBlockEnd
  0
BLOCK
  5
468
100
AcDbEntity
  8
0
100
AcDbBlockBegin
  2
*B57
 70
     0
 10
0.0
 20
0.0
 30
0.0
  3
*B57
  1

  0
LINE
  5
469
100
AcDbEntity
  8
0
  6
Continuous
 62
     6
100
AcDbLine
 10
98.446452
 20
68.200745
 30
0.0
 11
102.446315
 21
68.200745
 31
0.0
  0
LINE
  5
46A
100
AcDbEntity
  8
0
  6
Continuous
 62
     6
100
AcDbLine
 10
100.446277
 20
66.20092
 30
0.0
 11
100.446277
 21
70.200783
 31
0.0
  0
ENDBLK
  5
46B
100
AcDbEntity
  8
0
100
AcDbBlockEnd
  0
BLOCK
  5
46E
100
AcDbEntity
  8
0
100
AcDbBlockBegin
  2
*B58
 70
     0
 10
0.0
 20
0.0
 30
0.0
  3
*B58
  1

  0
LINE
  5
46F
100
AcDbEntity
  8
0
  6
Continuous
 62
     6
100
AcDbLine
 10
98.446452
 20
88.199633
 30
0.0
 11
102.446315
 21
88.199633
 31
0.0
  0
LINE
  5
470
100
AcDbEntity
  8
0
  6
Continuous
 62
     6
100
AcDbLine
 10
100.446277
 20
86.199808
 30
0.0
 11
100.446277
 21
90.19967
 31
0.0
  0
ENDBLK
  5
471
100
AcDbEntity
  8
0
100
AcDbBlockEnd
  0
BLOCK
  5
474
100
AcDbEntity
  8
0
100
AcDbBlockBegin
  2
*B59
 70
     0
 10
0.0
 20
0.0
 30
0.0
  3
*B59
  1

  0
LINE
  5
475
100
AcDbEntity
  8
0
  6
Continuous
 62
     6
100
AcDbLine
 10
201.878871
 20
144.054316
 30
0.0
 11
205.878946
 21
144.054316
 31
0.0
  0
LINE
  5
476
100
AcDbEntity
  8
0
  6
Continuous
 62
     6
100
AcDbLine
 10
203.878909
 20
142.054491
 30
0.0
 11
203.878909
 21
146.054141
 31
0.0
  0
ENDBLK
  5
477
100
AcDbEntity
  8
0
100
AcDbBlockEnd
  0
BLOCK
  5
47A
100
AcDbEntity
  8
0
100
AcDbBlockBegin
  2
*B60
 70
     0
 10
0.0
 20
0.0
 30
0.0
  3
*B60
  1

  0
LINE
  5
47B
100
AcDbEntity
  8
0
  6
Continuous
 62
     6
100
AcDbLine
 10
165.592265
 20
129.19732
 30
0.0
 11
165.592265
 21
133.197182
 31
0.0
  0
LINE
  5
47C
100
AcDbEntity
  8
0
  6
Continuous
 62
     6
100
AcDbLine
 10
163.592228
 20
131.197357
 30
0.0
 11
167.592303
 21
131.197357
 31
0.0
  0
ENDBLK
  5
47D
100
AcDbEntity
  8
0
100
AcDbBlockEnd
  0
BLOCK
  5
480
100
AcDbEntity
  8
0
100
AcDbBlockBegin
  2
*B61
 70
     0
 10
0.0
 20
0.0
 30
0.0
  3
*B61
  1

  0
TEXT
  5
481
100
AcDbEntity
  8
TEXT
  6
Continuous
 62
     0
100
AcDbText
 10
161.8829
 20
75.0
 30
0.0
 40
6.0
  1
2
100
AcDbText
  0
ENDBLK
  5
482
100
AcDbEntity
  8
0
100
AcDbBlockEnd
  0
BLOCK
  5
485
100
AcDbEntity
  8
0
100
AcDbBlockBegin
  2
*B62
 70
     0
 10
0.0
 20
0.0
 30
0.0
  3
*B62
  1

  0
TEXT
  5
486
100
AcDbEntity
  8
TEXT
  6
Continuous
 62
     0
100
AcDbText
 10
200.8829
 20
65.0
 30
0.0
 40
6.0
  1
1
100
AcDbText
  0
ENDBLK
  5
487
100
AcDbEntity
  8
0
100
AcDbBlockEnd
  0
BLOCK
  5
48A
100
AcDbEntity
  8
0
100
AcDbBlockBegin
  2
*B63
 70
     0
 10
0.0
 20
0.0
 30
0.0
  3
*B63
  1

  0
TEXT
  5
48B
100
AcDbEntity
  8
TEXT
  6
Continuous
 62
     0
100
AcDbText
 10
200.8829
 20
86.0
 30
0.0
 40
6.0
  1
3
100
AcDbText
  0
ENDBLK
  5
48C
100
AcDbEntity
  8
0
100
AcDbBlockEnd
  0
BLOCK
  5
48F
100
AcDbEntity
  8
0
100
AcDbBlockBegin
  2
*B64
 70
     0
 10
0.0
 20
0.0
 30
0.0
  3
*B64
  1

  0
TEXT
  5
490
100
AcDbEntity
  8
TEXT
  6
Continuous
 62
     0
100
AcDbText
 10
257.25
 20
73.853154
 30
0.0
 40
3.5
  1
26
 50
90.0
100
AcDbText
  0
ENDBLK
  5
491
100
AcDbEntity
  8
0
100
AcDbBlockEnd
  0
BLOCK
  5
494
100
AcDbEntity
  8
0
100
AcDbBlockBegin
  2
*B65
 70
     0
 10
0.0
 20
0.0
 30
0.0
  3
*B65
  1

  0
TEXT
  5
495
100
AcDbEntity
  8
TEXT
  6
Continuous
 62
     0
100
AcDbText
 10
257.25
 20
125.282028
 30
0.0
 40
3.5
  1
26
 50
90.0
100
AcDbText
  0
ENDBLK
  5
496
100
AcDbEntity
  8
0
100
AcDbBlockEnd
  0
BLOCK
  5
499
100
AcDbEntity
  8
0
100
AcDbBlockBegin
  2
*B66
 70
     0
 10
0.0
 20
0.0
 30
0.0
  3
*B66
  1

  0
TEXT
  5
49A
100
AcDbEntity
  8
TEXT
  6
Continuous
 62
     0
100
AcDbText
 10
180.240829
 20
36.75
 30
0.0
 40
3.5
  1
16
100
AcDbText
  0
ENDBLK
  5
49B
100
AcDbEntity
  8
0
100
AcDbBlockEnd
  0
BLOCK
  5
49E
100
AcDbEntity
  8
0
100
AcDbBlockBegin
  2
*B67
 70
     0
 10
0.0
 20
0.0
 30
0.0
  3
*B67
  1

  0
TEXT
  5
49F
100
AcDbEntity
  8
TEXT
  6
Continuous
 62
     0
100
AcDbText
 10
180.240829
 20
22.75
 30
0.0
 40
3.5
  1
25
100
AcDbText
  0
ENDBLK
  5
4A0
100
AcDbEntity
  8
0
100
AcDbBlockEnd
  0
BLOCK
  5
4A3
100
AcDbEntity
  8
0
100
AcDbBlockBegin
  2
*B68
 70
     0
 10
0.0
 20
0.0
 30
0.0
  3
*B68
  1

  0
TEXT
  5
4A4
100
AcDbEntity
  8
TEXT
  6
Continuous
 62
     0
100
AcDbText
 10
128.25
 20
91.853154
 30
0.0
 40
3.5
  1
44
 50
90.0
100
AcDbText
  0
ENDBLK
  5
4A5
100
AcDbEntity
  8
0
100
AcDbBlockEnd
  0
BLOCK
  5
4A8
100
AcDbEntity
  8
0
100
AcDbBlockBegin
  2
*B69
 70
     0
 10
0.0
 20
0.0
 30
0.0
  3
*B69
  1

  0
TEXT
  5
4A9
100
AcDbEntity
  8
TEXT
  6
Continuous
 62
     0
100
AcDbText
 10
142.25
 20
113.383333
 30
0.0
 40
3.5
  1
%%c4,5
 50
90.0
100
AcDbText
  0
ENDBLK
  5
4AA
100
AcDbEntity
  8
0
100
AcDbBlockEnd
  0
BLOCK
  5
4AD
100
AcDbEntity
  8
0
100
AcDbBlockBegin
  2
*B70
 70
     0
 10
0.0
 20
0.0
 30
0.0
  3
*B70
  1

  0
TEXT
  5
4AE
100
AcDbEntity
  8
TEXT
  6
Continuous
 62
     0
100
AcDbText
 10
97.094896
 20
22.75
 30
0.0
 40
3.5
  1
15
100
AcDbText
  0
ENDBLK
  5
4AF
100
AcDbEntity
  8
0
100
AcDbBlockEnd
  0
BLOCK
  5
4B2
100
AcDbEntity
  8
0
100
AcDbBlockBegin
  2
*B71
 70
     0
 10
0.0
 20
0.0
 30
0.0
  3
*B71
  1

  0
TEXT
  5
4B3
100
AcDbEntity
  8
TEXT
  6
Continuous
 62
     0
100
AcDbText
 10
232.25
 20
161.416667
 30
0.0
 40
3.5
  1
4
 50
90.0
100
AcDbText
  0
TEXT
  5
4B4
100
AcDbEntity
  8
TEXT
  6
Continuous
 62
     0
100
AcDbText
 10
232.25
 20
166.5
 30
0.0
 40
3.5
  1
Kapcsol¾ l÷ket
 50
90.0
100
AcDbText
  0
ENDBLK
  5
4B5
100
AcDbEntity
  8
0
100
AcDbBlockEnd
  0
BLOCK
  5
4B8
100
AcDbEntity
  8
0
100
AcDbBlockBegin
  2
*B72
 70
     0
 10
0.0
 20
0.0
 30
0.0
  3
*B72
  1

  0
TEXT
  5
4B9
100
AcDbEntity
  8
TEXT
  6
Continuous
 62
     0
100
AcDbText
 10
245.25
 20
161.666667
 30
0.0
 40
3.5
  1
2
 50
90.0
100
AcDbText
  0
TEXT
  5
4BA
100
AcDbEntity
  8
TEXT
  6
Continuous
 62
     0
100
AcDbText
 10
245.25
 20
166.75
 30
0.0
 40
3.5
  1
Szabad l÷ket
 50
90.0
100
AcDbText
  0
ENDBLK
  5
4BB
100
AcDbEntity
  8
0
100
AcDbBlockEnd
  0
BLOCK
  5
4BE
100
AcDbEntity
  8
0
100
AcDbBlockBegin
  2
*B73
 70
     0
 10
0.0
 20
0.0
 30
0.0
  3
*B73
  1

  0
TEXT
  5
4BF
100
AcDbEntity
  8
TEXT
  6
Continuous
 62
     0
100
AcDbText
 10
142.25
 20
58.853154
 30
0.0
 40
3.5
  1
13,5
 50
90.0
100
AcDbText
  0
ENDBLK
  5
4C0
100
AcDbEntity
  8
0
100
AcDbBlockEnd
  0
BLOCK
  5
4C3
100
AcDbEntity
  8
0
100
AcDbBlockBegin
  2
*B74
 70
     0
 10
0.0
 20
0.0
 30
0.0
  3
*B74
  1

  0
TEXT
  5
4C4
100
AcDbEntity
  8
TEXT
  6
Continuous
 62
     0
100
AcDbText
 10
221.25
 20
55.519821
 30
0.0
 40
3.5
  1
8,5
 50
90.0
100
AcDbText
  0
ENDBLK
  5
4C5
100
AcDbEntity
  8
0
100
AcDbBlockEnd
  0
BLOCK
  5
4C8
100
AcDbEntity
  8
0
100
AcDbBlockBegin
  2
*B75
 70
     0
 10
0.0
 20
0.0
 30
0.0
  3
*B75
  1

  0
TEXT
  5
4C9
100
AcDbEntity
  8
TEXT
  6
Continuous
 62
     0
100
AcDbText
 10
221.25
 20
74.853154
 30
0.0
 40
3.5
  1
10
 50
90.0
100
AcDbText
  0
ENDBLK
  5
4CA
100
AcDbEntity
  8
0
100
AcDbBlockEnd
  0
BLOCK
  5
4CD
100
AcDbEntity
  8
0
100
AcDbBlockBegin
  2
*B76
 70
     0
 10
0.0
 20
0.0
 30
0.0
  3
*B76
  1

  0
TEXT
  5
4CE
100
AcDbEntity
  8
TEXT
  6
Continuous
 62
     0
100
AcDbText
 10
72.25
 20
80.333333
 30
0.0
 40
3.5
  1
M5
 50
90.0
100
AcDbText
  0
ENDBLK
  5
4CF
100
AcDbEntity
  8
0
100
AcDbBlockEnd
  0
BLOCK
  5
4D2
100
AcDbEntity
  8
0
100
AcDbBlockBegin
  2
*B77
 70
     0
 10
0.0
 20
0.0
 30
0.0
  3
*B77
  1

  0
TEXT
  5
4D3
100
AcDbEntity
  8
TEXT
  6
Continuous
 62
     0
100
AcDbText
 10
98.761562
 20
166.75
 30
0.0
 40
3.5
  1
7
100
AcDbText
  0
ENDBLK
  5
4D4
100
AcDbEntity
  8
0
100
AcDbBlockEnd
  0
BLOCK
  5
4D7
100
AcDbEntity
  8
0
100
AcDbBlockBegin
  2
*B78
 70
     0
 10
0.0
 20
0.0
 30
0.0
  3
*B78
  1

  0
TEXT
  5
4D8
100
AcDbEntity
  8
TEXT
  6
Continuous
 62
     0
100
AcDbText
 10
177.884134
 20
182.75
 30
0.0
 40
3.5
  1
22
100
AcDbText
  0
ENDBLK
  5
4D9
100
AcDbEntity
  8
0
100
AcDbBlockEnd
  0
BLOCK
  5
4DC
100
AcDbEntity
  8
0
100
AcDbBlockBegin
  2
*B79
 70
     0
 10
0.0
 20
0.0
 30
0.0
  3
*B79
  1

  0
TEXT
  5
4DD
100
AcDbEntity
  8
TEXT
  6
Continuous
 62
     0
100
AcDbText
 10
198.872917
 20
166.75
 30
0.0
 40
3.5
  1
%%c10
100
AcDbText
  0
ENDBLK
  5
4DE
100
AcDbEntity
  8
0
100
AcDbBlockEnd
  0
ENDSEC
  0
SECTION
  2
ENTITIES
  0
INSERT
  5
17F
100
AcDbEntity
  8
0
  6
HIDDEN
 62
   174
100
AcDbBlockReference
  2
*B1
 10
0.0
 20
0.0
 30
0.0
  0
INSERT
  5
185
100
AcDbEntity
  8
0
  6
Continuous
 62
   172
100
AcDbBlockReference
  2
*B2
 10
0.0
 20
0.0
 30
0.0
  0
INSERT
  5
2FC
100
AcDbEntity
  8
0
  6
Continuous
 62
   174
100
AcDbBlockReference
  2
*B3
 10
0.0
 20
0.0
 30
0.0
  0
INSERT
  5
303
100
AcDbEntity
  8
0
  6
Continuous
 62
     0
100
AcDbBlockReference
  2
*B4
 10
0.0
 20
0.0
 30
0.0
  0
INSERT
  5
30A
100
AcDbEntity
  8
0
  6
Continuous
 62
     0
100
AcDbBlockReference
  2
*B5
 10
0.0
 20
0.0
 30
0.0
  0
INSERT
  5
311
100
AcDbEntity
  8
0
  6
Continuous
 62
     0
100
AcDbBlockReference
  2
*B6
 10
0.0
 20
0.0
 30
0.0
  0
INSERT
  5
318
100
AcDbEntity
  8
0
  6
Continuous
 62
     0
100
AcDbBlockReference
  2
*B7
 10
0.0
 20
0.0
 30
0.0
  0
INSERT
  5
31F
100
AcDbEntity
  8
0
  6
Continuous
 62
     0
100
AcDbBlockReference
  2
*B8
 10
0.0
 20
0.0
 30
0.0
  0
INSERT
  5
326
100
AcDbEntity
  8
0
  6
Continuous
 62
     0
100
AcDbBlockReference
  2
*B9
 10
0.0
 20
0.0
 30
0.0
  0
INSERT
  5
32D
100
AcDbEntity
  8
0
  6
Continuous
 62
     0
100
AcDbBlockReference
  2
*B10
 10
0.0
 20
0.0
 30
0.0
  0
INSERT
  5
334
100
AcDbEntity
  8
0
  6
Continuous
 62
     0
100
AcDbBlockReference
  2
*B11
 10
0.0
 20
0.0
 30
0.0
  0
INSERT
  5
33B
100
AcDbEntity
  8
0
  6
Continuous
 62
     0
100
AcDbBlockReference
  2
*B12
 10
0.0
 20
0.0
 30
0.0
  0
INSERT
  5
342
100
AcDbEntity
  8
0
  6
Continuous
 62
     0
100
AcDbBlockReference
  2
*B13
 10
0.0
 20
0.0
 30
0.0
  0
INSERT
  5
349
100
AcDbEntity
  8
0
  6
Continuous
 62
     0
100
AcDbBlockReference
  2
*B14
 10
0.0
 20
0.0
 30
0.0
  0
INSERT
  5
350
100
AcDbEntity
  8
0
  6
Continuous
 62
     0
100
AcDbBlockReference
  2
*B15
 10
0.0
 20
0.0
 30
0.0
  0
INSERT
  5
357
100
AcDbEntity
  8
0
  6
Continuous
 62
     0
100
AcDbBlockReference
  2
*B16
 10
0.0
 20
0.0
 30
0.0
  0
INSERT
  5
35E
100
AcDbEntity
  8
0
  6
Continuous
 62
     0
100
AcDbBlockReference
  2
*B17
 10
0.0
 20
0.0
 30
0.0
  0
INSERT
  5
365
100
AcDbEntity
  8
0
  6
Continuous
 62
     0
100
AcDbBlockReference
  2
*B18
 10
0.0
 20
0.0
 30
0.0
  0
INSERT
  5
36C
100
AcDbEntity
  8
0
  6
Continuous
 62
     0
100
AcDbBlockReference
  2
*B19
 10
0.0
 20
0.0
 30
0.0
  0
INSERT
  5
372
100
AcDbEntity
  8
0
  6
Continuous
 62
     8
100
AcDbBlockReference
  2
*B20
 10
0.0
 20
0.0
 30
0.0
  0
INSERT
  5
377
100
AcDbEntity
  8
0
  6
Continuous
 62
     8
100
AcDbBlockReference
  2
*B21
 10
0.0
 20
0.0
 30
0.0
  0
INSERT
  5
37C
100
AcDbEntity
  8
0
  6
Continuous
 62
     8
100
AcDbBlockReference
  2
*B22
 10
0.0
 20
0.0
 30
0.0
  0
INSERT
  5
381
100
AcDbEntity
  8
0
  6
Continuous
 62
     8
100
AcDbBlockReference
  2
*B23
 10
0.0
 20
0.0
 30
0.0
  0
INSERT
  5
387
100
AcDbEntity
  8
0
  6
Continuous
 62
     8
100
AcDbBlockReference
  2
*B24
 10
0.0
 20
0.0
 30
0.0
  0
INSERT
  5
38F
100
AcDbEntity
  8
0
  6
Continuous
 62
     8
100
AcDbBlockReference
  2
*B25
 10
0.0
 20
0.0
 30
0.0
  0
INSERT
  5
397
100
AcDbEntity
  8
0
  6
Continuous
 62
     8
100
AcDbBlockReference
  2
*B26
 10
0.0
 20
0.0
 30
0.0
  0
INSERT
  5
39F
100
AcDbEntity
  8
0
  6
Continuous
 62
     8
100
AcDbBlockReference
  2
*B27
 10
0.0
 20
0.0
 30
0.0
  0
INSERT
  5
3A5
100
AcDbEntity
  8
0
  6
Continuous
 62
     8
100
AcDbBlockReference
  2
*B28
 10
0.0
 20
0.0
 30
0.0
  0
INSERT
  5
3B2
100
AcDbEntity
  8
0
  6
Continuous
 62
     8
100
AcDbBlockReference
  2
*B29
 10
0.0
 20
0.0
 30
0.0
  0
INSERT
  5
3B7
100
AcDbEntity
  8
0
  6
Continuous
 62
     8
100
AcDbBlockReference
  2
*B30
 10
0.0
 20
0.0
 30
0.0
  0
INSERT
  5
3BD
100
AcDbEntity
  8
0
  6
Continuous
 62
     8
100
AcDbBlockReference
  2
*B31
 10
0.0
 20
0.0
 30
0.0
  0
INSERT
  5
3C2
100
AcDbEntity
  8
0
  6
Continuous
 62
     8
100
AcDbBlockReference
  2
*B32
 10
0.0
 20
0.0
 30
0.0
  0
INSERT
  5
3C9
100
AcDbEntity
  8
0
  6
Continuous
 62
     8
100
AcDbBlockReference
  2
*B33
 10
0.0
 20
0.0
 30
0.0
  0
INSERT
  5
3CE
100
AcDbEntity
  8
0
  6
Continuous
 62
     8
100
AcDbBlockReference
  2
*B34
 10
0.0
 20
0.0
 30
0.0
  0
INSERT
  5
3D3
100
AcDbEntity
  8
0
  6
Continuous
 62
     8
100
AcDbBlockReference
  2
*B35
 10
0.0
 20
0.0
 30
0.0
  0
INSERT
  5
3D8
100
AcDbEntity
  8
0
  6
Continuous
 62
     8
100
AcDbBlockReference
  2
*B36
 10
0.0
 20
0.0
 30
0.0
  0
INSERT
  5
3E5
100
AcDbEntity
  8
0
  6
Continuous
 62
     8
100
AcDbBlockReference
  2
*B37
 10
0.0
 20
0.0
 30
0.0
  0
INSERT
  5
3EA
100
AcDbEntity
  8
0
  6
Continuous
 62
     8
100
AcDbBlockReference
  2
*B38
 10
0.0
 20
0.0
 30
0.0
  0
INSERT
  5
3F5
100
AcDbEntity
  8
0
  6
Continuous
 62
     8
100
AcDbBlockReference
  2
*B39
 10
0.0
 20
0.0
 30
0.0
  0
INSERT
  5
3FB
100
AcDbEntity
  8
0
  6
Continuous
 62
     8
100
AcDbBlockReference
  2
*B40
 10
0.0
 20
0.0
 30
0.0
  0
INSERT
  5
408
100
AcDbEntity
  8
0
  6
Continuous
 62
     8
100
AcDbBlockReference
  2
*B41
 10
0.0
 20
0.0
 30
0.0
  0
INSERT
  5
40D
100
AcDbEntity
  8
0
  6
Continuous
 62
     8
100
AcDbBlockReference
  2
*B42
 10
0.0
 20
0.0
 30
0.0
  0
INSERT
  5
413
100
AcDbEntity
  8
0
  6
Continuous
 62
     8
100
AcDbBlockReference
  2
*B43
 10
0.0
 20
0.0
 30
0.0
  0
INSERT
  5
418
100
AcDbEntity
  8
0
  6
Continuous
 62
     8
100
AcDbBlockReference
  2
*B44
 10
0.0
 20
0.0
 30
0.0
  0
INSERT
  5
41D
100
AcDbEntity
  8
0
  6
Continuous
 62
     8
100
AcDbBlockReference
  2
*B45
 10
0.0
 20
0.0
 30
0.0
  0
INSERT
  5
42C
100
AcDbEntity
  8
0
  6
Continuous
 62
     8
100
AcDbBlockReference
  2
*B46
 10
0.0
 20
0.0
 30
0.0
  0
INSERT
  5
431
100
AcDbEntity
  8
0
  6
Continuous
 62
     8
100
AcDbBlockReference
  2
*B47
 10
0.0
 20
0.0
 30
0.0
  0
INSERT
  5
436
100
AcDbEntity
  8
0
  6
Continuous
 62
     8
100
AcDbBlockReference
  2
*B48
 10
0.0
 20
0.0
 30
0.0
  0
INSERT
  5
43B
100
AcDbEntity
  8
0
  6
Continuous
 62
     8
100
AcDbBlockReference
  2
*B49
 10
0.0
 20
0.0
 30
0.0
  0
INSERT
  5
440
100
AcDbEntity
  8
0
  6
Continuous
 62
     8
100
AcDbBlockReference
  2
*B50
 10
0.0
 20
0.0
 30
0.0
  0
INSERT
  5
445
100
AcDbEntity
  8
0
  6
Continuous
 62
     8
100
AcDbBlockReference
  2
*B51
 10
0.0
 20
0.0
 30
0.0
  0
INSERT
  5
44A
100
AcDbEntity
  8
0
  6
Continuous
 62
     8
100
AcDbBlockReference
  2
*B52
 10
0.0
 20
0.0
 30
0.0
  0
INSERT
  5
453
100
AcDbEntity
  8
0
  6
Continuous
 62
     8
100
AcDbBlockReference
  2
*B53
 10
0.0
 20
0.0
 30
0.0
  0
INSERT
  5
45A
100
AcDbEntity
  8
0
  6
Continuous
 62
     8
100
AcDbBlockReference
  2
*B54
 10
0.0
 20
0.0
 30
0.0
  0
INSERT
  5
460
100
AcDbEntity
  8
0
  6
Continuous
 62
     6
100
AcDbBlockReference
  2
*B55
 10
0.0
 20
0.0
 30
0.0
  0
INSERT
  5
466
100
AcDbEntity
  8
0
  6
Continuous
 62
     6
100
AcDbBlockReference
  2
*B56
 10
0.0
 20
0.0
 30
0.0
  0
INSERT
  5
46C
100
AcDbEntity
  8
0
  6
Continuous
 62
     6
100
AcDbBlockReference
  2
*B57
 10
0.0
 20
0.0
 30
0.0
  0
INSERT
  5
472
100
AcDbEntity
  8
0
  6
Continuous
 62
     6
100
AcDbBlockReference
  2
*B58
 10
0.0
 20
0.0
 30
0.0
  0
INSERT
  5
478
100
AcDbEntity
  8
0
  6
Continuous
 62
     6
100
AcDbBlockReference
  2
*B59
 10
0.0
 20
0.0
 30
0.0
  0
INSERT
  5
47E
100
AcDbEntity
  8
0
  6
Continuous
 62
     6
100
AcDbBlockReference
  2
*B60
 10
0.0
 20
0.0
 30
0.0
  0
INSERT
  5
483
100
AcDbEntity
  8
TEXT
  6
Continuous
 62
     0
100
AcDbBlockReference
  2
*B61
 10
0.0
 20
0.0
 30
0.0
  0
INSERT
  5
488
100
AcDbEntity
  8
TEXT
  6
Continuous
 62
     0
100
AcDbBlockReference
  2
*B62
 10
0.0
 20
0.0
 30
0.0
  0
INSERT
  5
48D
100
AcDbEntity
  8
TEXT
  6
Continuous
 62
     0
100
AcDbBlockReference
  2
*B63
 10
0.0
 20
0.0
 30
0.0
  0
INSERT
  5
492
100
AcDbEntity
  8
TEXT
  6
Continuous
 62
     0
100
AcDbBlockReference
  2
*B64
 10
0.0
 20
0.0
 30
0.0
  0
INSERT
  5
497
100
AcDbEntity
  8
TEXT
  6
Continuous
 62
     0
100
AcDbBlockReference
  2
*B65
 10
0.0
 20
0.0
 30
0.0
  0
INSERT
  5
49C
100
AcDbEntity
  8
TEXT
  6
Continuous
 62
     0
100
AcDbBlockReference
  2
*B66
 10
0.0
 20
0.0
 30
0.0
  0
INSERT
  5
4A1
100
AcDbEntity
  8
TEXT
  6
Continuous
 62
     0
100
AcDbBlockReference
  2
*B67
 10
0.0
 20
0.0
 30
0.0
  0
INSERT
  5
4A6
100
AcDbEntity
  8
TEXT
  6
Continuous
 62
     0
100
AcDbBlockReference
  2
*B68
 10
0.0
 20
0.0
 30
0.0
  0
INSERT
  5
4AB
100
AcDbEntity
  8
TEXT
  6
Continuous
 62
     0
100
AcDbBlockReference
  2
*B69
 10
0.0
 20
0.0
 30
0.0
  0
INSERT
  5
4B0
100
AcDbEntity
  8
TEXT
  6
Continuous
 62
     0
100
AcDbBlockReference
  2
*B70
 10
0.0
 20
0.0
 30
0.0
  0
INSERT
  5
4B6
100
AcDbEntity
  8
TEXT
  6
Continuous
 62
     0
100
AcDbBlockReference
  2
*B71
 10
0.0
 20
0.0
 30
0.0
  0
INSERT
  5
4BC
100
AcDbEntity
  8
TEXT
  6
Continuous
 62
     0
100
AcDbBlockReference
  2
*B72
 10
0.0
 20
0.0
 30
0.0
  0
INSERT
  5
4C1
100
AcDbEntity
  8
TEXT
  6
Continuous
 62
     0
100
AcDbBlockReference
  2
*B73
 10
0.0
 20
0.0
 30
0.0
  0
INSERT
  5
4C6
100
AcDbEntity
  8
TEXT
  6
Continuous
 62
     0
100
AcDbBlockReference
  2
*B74
 10
0.0
 20
0.0
 30
0.0
  0
INSERT
  5
4CB
100
AcDbEntity
  8
TEXT
  6
Continuous
 62
     0
100
AcDbBlockReference
  2
*B75
 10
0.0
 20
0.0
 30
0.0
  0
INSERT
  5
4D0
100
AcDbEntity
  8
TEXT
  6
Continuous
 62
     0
100
AcDbBlockReference
  2
*B76
 10
0.0
 20
0.0
 30
0.0
  0
INSERT
  5
4D5
100
AcDbEntity
  8
TEXT
  6
Continuous
 62
     0
100
AcDbBlockReference
  2
*B77
 10
0.0
 20
0.0
 30
0.0
  0
INSERT
  5
4DA
100
AcDbEntity
  8
TEXT
  6
Continuous
 62
     0
100
AcDbBlockReference
  2
*B78
 10
0.0
 20
0.0
 30
0.0
  0
INSERT
  5
4DF
100
AcDbEntity
  8
TEXT
  6
Continuous
 62
     0
100
AcDbBlockReference
  2
*B79
 10
0.0
 20
0.0
 30
0.0
  0
ENDSEC
  0
SECTION
  2
OBJECTS
  0
DICTIONARY
  5
19
100
AcDbDictionary
280
     0
281
     1
  3
ACAD_GROUP
350
1A
  3
ACAD_MLINESTYLE
350
1B
  3
ACAD_LAYOUT
350
1E
  3
ACAD_PLOTSETTINGS
350
22
  3
ACAD_PLOTSTYLENAME
350
1F
  3
ACAD_WIPEOUT_VARS
350
23
  0
DICTIONARY
  5
1A
102
{ACAD_REACTORS
330
19
102
}
100
AcDbDictionary
280
     0
281
     1
  0
DICTIONARY
  5
1B
102
{ACAD_REACTORS
330
19
102
}
100
AcDbDictionary
280
     0
281
     1
  3
Standard
350
1C
  0
MLINESTYLE
  5
1C
102
{ACAD_REACTORS
330
1B
102
}
100
AcDbMlineStyle
  2
Standard
 70
     0
  3

 62
     0
 51
90.0
 52
90.0
 71
     2
 49
0.5
 62
   256
  6
BYLAYER
 49
-0.5
 62
   256
  6
BYLAYER
  0
ACDBDICTIONARYWDFLT
  5
1F
102
{ACAD_REACTORS
330
19
102
}
100
AcDbDictionary
281
     1
  3
Normal
350
1D
100
AcDbDictionaryWithDefault
340
1D
  0
ACDBPLACEHOLDER
  5
1D
102
{ACAD_REACTORS
330
1F
102
}
  0
LAYOUT
  5
20
102
{ACAD_REACTORS
330
1E
102
}
100
AcDbPlotSettings
  1

  2

  4

  6

 40
0.0
 41
0.0
 42
0.0
 43
0.0
 44
0.0
 45
0.0
 46
0.0
 47
0.0
 48
0.0
 49
0.0
140
0.0
141
0.0
142
1.0
143
1.0
 70
     0
 72
     0
 73
     0
 74
     0
  7

 75
     0
147
1.0
148
0.0
149
0.0
100
AcDbLayout
  1
Model
 70
     0
 71
     0
 10
0.0
 20
0.0
 11
0.0
 21
0.0
 12
0.0
 22
0.0
 32
0.0
 14
0.0
 24
0.0
 34
0.0
 15
0.0
 25
0.0
 35
0.0
146
0.0
 13
0.0
 23
0.0
 33
0.0
 16
0.0
 26
0.0
 36
0.0
 17
0.0
 27
0.0
 37
0.0
 76
     0
330
A
331
0
345
0
346
0
  0
LAYOUT
  5
21
102
{ACAD_REACTORS
330
1E
102
}
100
AcDbPlotSettings
  1

  2

  4

  6

 40
0.0
 41
0.0
 42
0.0
 43
0.0
 44
0.0
 45
0.0
 46
0.0
 47
0.0
 48
0.0
 49
0.0
140
0.0
141
0.0
142
1.0
143
1.0
 70
     0
 72
     0
 73
     0
 74
     0
  7

 75
     0
147
1.0
148
0.0
149
0.0
100
AcDbLayout
  1
Layout1
 70
     0
 71
     0
 10
0.0
 20
0.0
 11
0.0
 21
0.0
 12
0.0
 22
0.0
 32
0.0
 14
0.0
 24
0.0
 34
0.0
 15
0.0
 25
0.0
 35
0.0
146
0.0
 13
0.0
 23
0.0
 33
0.0
 16
0.0
 26
0.0
 36
0.0
 17
0.0
 27
0.0
 37
0.0
 76
     0
330
B
331
0
345
0
346
0
  0
DICTIONARY
  5
1E
102
{ACAD_REACTORS
330
19
102
}
100
AcDbDictionary
280
     0
281
     1
  3
Layout1
350
21
  3
Model
350
20
  0
DICTIONARY
  5
22
102
{ACAD_REACTORS
330
19
102
}
100
AcDbDictionary
280
     0
281
     1
  0
WIPEOUTVARIABLES
  5
23
100
AcDbWipeoutVariables
 70
     1
  0
ENDSEC
  0
EOF
