  0
SECTION
  2
HEADER
  9
$ACADVER
  1
AC1015
  9
$ACADMAINTVER
 70
     6
  9
$DWGCODEPAGE
  3
DOS850
  9
$INSBASE
 10
0.0
 20
0.0
 30
0.0
  9
$EXTMIN
 10
0.0
 20
0.0
 30
0.0
  9
$EXTMAX
 10
420.0
 20
297.0
 30
0.0
  9
$LIMMIN
 10
0.0
 20
0.0
  9
$LIMMAX
 10
420.0
 20
297.0
  9
$ORTHOMODE
 70
     0
  9
$REGENMODE
 70
     1
  9
$FILLMODE
 70
     1
  9
$QTEXTMODE
 70
     0
  9
$MIRRTEXT
 70
     1
  9
$LTSCALE
 40
25.4
  9
$ATTMODE
 70
     1
  9
$TEXTSIZE
 40
3.5
  9
$TRACEWID
 40
0.05
  9
$TEXTSTYLE
  7
Standard
  9
$CLAYER
  8
0
  9
$CELTYPE
  6
Continuous
  9
$CECOLOR
 62
   256
  9
$CELTSCALE
 40
1.0
  9
$DISPSILH
 70
     0
  9
$DIMSCALE
 40
1.0
  9
$DIMASZ
 40
5.0
  9
$DIMEXO
 40
3.0
  9
$DIMDLI
 40
0.38
  9
$DIMRND
 40
0.0
  9
$DIMDLE
 40
0.0
  9
$DIMEXE
 40
2.0
  9
$DIMTP
 40
0.0
  9
$DIMTM
 40
0.0
  9
$DIMTXT
 40
3.5
  9
$DIMCEN
 40
4.0
  9
$DIMTSZ
 40
0.0
  9
$DIMTOL
 70
     0
  9
$DIMLIM
 70
     0
  9
$DIMTIH
 70
     1
  9
$DIMTOH
 70
     1
  9
$DIMSE1
 70
     0
  9
$DIMSE2
 70
     0
  9
$DIMTAD
 70
     0
  9
$DIMZIN
 70
     0
  9
$DIMBLK
  1

  9
$DIMASO
 70
     1
  9
$DIMSHO
 70
     1
  9
$DIMPOST
  1

  9
$DIMAPOST
  1

  9
$DIMALT
 70
     0
  9
$DIMALTD
 70
     2
  9
$DIMALTF
 40
25.4
  9
$DIMLFAC
 40
1.0
  9
$DIMTOFL
 70
     0
  9
$DIMTVP
 40
0.0
  9
$DIMTIX
 70
     0
  9
$DIMSOXD
 70
     0
  9
$DIMSAH
 70
     0
  9
$DIMBLK1
  1

  9
$DIMBLK2
  1

  9
$DIMSTYLE
  2
Standard
  9
$DIMCLRD
 70
     0
  9
$DIMCLRE
 70
     0
  9
$DIMCLRT
 70
     0
  9
$DIMTFAC
 40
1.0
  9
$DIMGAP
 40
1.0
  9
$DIMJUST
 70
     0
  9
$DIMSD1
 70
     0
  9
$DIMSD2
 70
     0
  9
$DIMTOLJ
 70
     1
  9
$DIMTZIN
 70
     0
  9
$DIMALTZ
 70
     0
  9
$DIMALTTZ
 70
     0
  9
$DIMUPT
 70
     0
  9
$DIMDEC
 70
     4
  9
$DIMTDEC
 70
     4
  9
$DIMALTU
 70
     2
  9
$DIMALTTD
 70
     2
  9
$DIMTXSTY
  7
Standard
  9
$DIMAUNIT
 70
     0
  9
$DIMADEC
 70
     0
  9
$DIMALTRND
 40
0.0
  9
$DIMAZIN
 70
     0
  9
$DIMDSEP
 70
     0
  9
$DIMATFIT
 70
     3
  9
$DIMFRAC
 70
     0
  9
$DIMLDRBLK
  1

  9
$DIMLUNIT
 70
     2
  9
$DIMLWD
 70
     0
  9
$DIMLWE
 70
     0
  9
$DIMTMOVE
 70
     0
  9
$LUNITS
 70
     2
  9
$LUPREC
 70
     4
  9
$SKETCHINC
 40
0.1
  9
$FILLETRAD
 40
0.0
  9
$AUNITS
 70
     0
  9
$AUPREC
 70
     0
  9
$MENU
  1
acad
  9
$ELEVATION
 40
0.0
  9
$PELEVATION
 40
0.0
  9
$THICKNESS
 40
0.0
  9
$LIMCHECK
 70
     0
  9
$CHAMFERA
 40
0.0
  9
$CHAMFERB
 40
0.0
  9
$CHAMFERC
 40
0.0
  9
$CHAMFERD
 40
0.0
  9
$SKPOLY
 70
     0
  9
$TDCREATE
 40
0.000000000
  9
$TDUCREATE
 40
0.000000000
  9
$TDUPDATE
 40
0.000000000
  9
$TDUUPDATE
 40
0.000000000
  9
$TDINDWG
 40
0.0000000000
  9
$TDUSRTIMER
 40
0.0000000000
  9
$USRTIMER
 70
     1
  9
$ANGBASE
 50
0.0
  9
$ANGDIR
 70
     0
  9
$PDMODE
 70
     0
  9
$PDSIZE
 40
0.0
  9
$PLINEWID
 40
0.0
  9
$SPLFRAME
 70
     0
  9
$SPLINETYPE
 70
     6
  9
$SPLINESEGS
 70
     8
  9
$HANDSEED
  5
48D
  9
$SURFTAB1
 70
     6
  9
$SURFTAB2
 70
     6
  9
$SURFTYPE
 70
     6
  9
$SURFU
 70
     6
  9
$SURFV
 70
     6
  9
$UCSBASE
  2

  9
$UCSNAME
  2

  9
$UCSORG
 10
0.0
 20
0.0
 30
0.0
  9
$UCSXDIR
 10
1.0
 20
0.0
 30
0.0
  9
$UCSYDIR
 10
0.0
 20
1.0
 30
0.0
  9
$UCSORTHOREF
  2

  9
$UCSORTHOVIEW
 70
     0
  9
$UCSORGTOP
 10
0.0
 20
0.0
 30
0.0
  9
$UCSORGBOTTOM
 10
0.0
 20
0.0
 30
0.0
  9
$UCSORGLEFT
 10
0.0
 20
0.0
 30
0.0
  9
$UCSORGRIGHT
 10
0.0
 20
0.0
 30
0.0
  9
$UCSORGFRONT
 10
0.0
 20
0.0
 30
0.0
  9
$UCSORGBACK
 10
0.0
 20
0.0
 30
0.0
  9
$PUCSBASE
  2

  9
$PUCSNAME
  2

  9
$PUCSORG
 10
0.0
 20
0.0
 30
0.0
  9
$PUCSXDIR
 10
1.0
 20
0.0
 30
0.0
  9
$PUCSYDIR
 10
0.0
 20
1.0
 30
0.0
  9
$PUCSORTHOREF
  2

  9
$PUCSORTHOVIEW
 70
     0
  9
$PUCSORGTOP
 10
0.0
 20
0.0
 30
0.0
  9
$PUCSORGBOTTOM
 10
0.0
 20
0.0
 30
0.0
  9
$PUCSORGLEFT
 10
0.0
 20
0.0
 30
0.0
  9
$PUCSORGRIGHT
 10
0.0
 20
0.0
 30
0.0
  9
$PUCSORGFRONT
 10
0.0
 20
0.0
 30
0.0
  9
$PUCSORGBACK
 10
0.0
 20
0.0
 30
0.0
  9
$USERI1
 70
     0
  9
$USERI2
 70
     0
  9
$USERI3
 70
     0
  9
$USERI4
 70
     0
  9
$USERI5
 70
     0
  9
$USERR1
 40
0.0
  9
$USERR2
 40
0.0
  9
$USERR3
 40
0.0
  9
$USERR4
 40
0.0
  9
$USERR5
 40
0.0
  9
$WORLDVIEW
 70
     1
  9
$SHADEDGE
 70
     3
  9
$SHADEDIF
 70
    70
  9
$TILEMODE
 70
     1
  9
$MAXACTVP
 70
    16
  9
$PINSBASE
 10
0.0
 20
0.0
 30
0.0
  9
$PLIMCHECK
 70
     0
  9
$PEXTMIN
 10
1.000000E+20
 20
1.000000E+20
 30
1.000000E+20
  9
$PEXTMAX
 10
-1.000000E+20
 20
-1.000000E+20
 30
-1.000000E+20
  9
$PLIMMIN
 10
0.0
 20
0.0
  9
$PLIMMAX
 10
420.0
 20
297.0
  9
$UNITMODE
 70
     0
  9
$VISRETAIN
 70
     0
  9
$PLINEGEN
 70
     1
  9
$PSLTSCALE
 70
     0
  9
$TREEDEPTH
 70
  3020
  9
$CMLSTYLE
  2
Standard
  9
$CMLJUST
 70
     0
  9
$CMLSCALE
 40
1.0
  9
$PROXYGRAPHICS
 70
     0
  9
$MEASUREMENT
 70
     0
  9
$CELWEIGHT
370
     0
  9
$ENDCAPS
280
     0
  9
$JOINSTYLE
280
     0
  9
$LWDISPLAY
290
     0
  9
$INSUNITS
 70
     0
  9
$HYPERLINKBASE
  1

  9
$XEDIT
290
     1
  9
$CEPSNTYPE
380
     0
  9
$PSTYLEMODE
290
     0
  9
$FINGERPRINTGUID
  2

  9
$VERSIONGUID
  2

  9
$EXTNAMES
290
     1
  9
$PSVPSCALE
 40
0.0
  0
ENDSEC
  0
SECTION
  2
CLASSES
  0
CLASS
  1
LWPOLYLINE
  2
AcDbPolyline
  3
"AutoCAD"
 90
        0
280
     0
281
     1
  0
CLASS
  1
IMAGE
  2
AcDbRasterImage
  3
ISM
 90
      127
280
     0
281
     1
  0
CLASS
  1
OLE2FRAME
  2
AcDbOle2Frame
  3
""
 90
        0
280
     0
281
     1
  0
CLASS
  1
HATCH
  2
AcDbHatch
  3
"ACAD_SEDONA"
 90
        0
280
     0
281
     1
  0
CLASS
  1
DICTIONARYVAR
  2
AcDbDictionaryVar
  3
"AutoCAD"
 90
        0
280
     0
281
     0
  0
CLASS
  1
RASTERVARIABLES
  2
AcDbRasterVariables
  3
ISM
 90
        0
280
     0
281
     0
  0
CLASS
  1
IMAGEDEF
  2
AcDbRasterImageDef
  3
ISM
 90
        0
280
     0
281
     0
  0
CLASS
  1
IMAGEDEF_REACTOR
  2
AcDbRasterImageDefReactor
  3
ISM
 90
        1
280
     0
281
     0
  0
CLASS
  1
IDBUFFER
  2
AcDbIdBuffer
  3
"Acad"
 90
        0
280
     0
281
     0
  0
CLASS
  1
SPATIAL_FILTER
  2
AcDbSpatialFilter
  3
"Acad"
 90
        0
280
     0
281
     0
  0
CLASS
  1
XRECORD
  2
AcDbXrecord
  3
"<Built In>"
 90
        0
280
     0
281
     0
  0
CLASS
  1
SORTENTSTABLE
  2
AcDbSortentsTable
  3
"AutoCAD"
 90
        0
280
     0
281
     0
  0
CLASS
  1
LAYER_INDEX
  2
AcDbLayerIndex
  3
"Acad"
 90
        0
280
     0
281
     0
  0
CLASS
  1
SPATIAL_INDEX
  2
AcDbSpatialIndex
  3
"Acad"
 90
        0
280
     0
281
     0
  0
CLASS
  1
OBJECT_PTR
  2
CAseDLPNTableRecord
  3
"ASE-LPNTableRecord"
 90
        1
280
     0
281
     0
  0
CLASS
  1
LAYOUT
  2
AcDbLayout
  3
"AutoCAD 2000"
 90
        1
280
     0
281
     0
  0
CLASS
  1
PLOTSETTINGS
  2
AcDbPlotSettings
  3
"AutoCAD 2000"
 90
        1
280
     0
281
     0
  0
CLASS
  1
ACDBDICTIONARYWDFLT
  2
AcDbDictionaryWithDefault
  3
"AutoCAD 2000"
 90
        1
280
     0
281
     0
  0
CLASS
  1
ACDBPLACEHOLDER
  2
AcDbPlaceHolder
  3
"AutoCAD 2000"
 90
        1
280
     0
281
     0
  0
CLASS
  1
VBA_PROJECT
  2
AcDbVbaProject
  3
"acadvba"
 90
        1
280
     0
281
     0
  0
CLASS
  1
WIPEOUT
  2
AcDbWipeout
  3
WipeOut|AutoCAD Express Tool|expresstools@autodesk.com
 90
      127
280
     0
281
     1
  0
CLASS
  1
WIPEOUTVARIABLES
  2
AcDbWipeoutVariables
  3
WipeOut|AutoCAD Express Tool|expresstools@autodesk.com
 90
        0
280
     0
281
     0
  0
CLASS
  1
RTEXT
  2
RText
  3
RText|AutoCAD Express Tool|expresstools@autodesk.com
 90
        0
280
     0
281
     1
  0
CLASS
  1
ARCALIGNEDTEXT
  2
AcDbArcAlignedText
  3
ATEXT|AutoCAD Express Tool|expresstools@autodesk.com
 90
        0
280
     0
281
     1
  0
ENDSEC
  0
SECTION
  2
TABLES
  0
TABLE
  2
VPORT
  5
7
100
AcDbSymbolTable
 70
     1
  0
VPORT
  5
15
100
AcDbSymbolTableRecord
100
AcDbViewportTableRecord
  2
*ACTIVE
 70
     0
 10
0.0
 20
0.0
 11
1.0
 21
1.0
 12
6.591288
 22
4.579184
 13
0.0
 23
0.0
 14
1.0
 24
1.0
 15
0.0
 25
0.0
 16
0.0
 26
0.0
 36
1.0
 17
0.0
 27
0.0
 37
0.0
 40
9.158369
 41
0.688564
 42
50.0
 43
0.0
 44
0.0
 50
0.0
 51
0.0
 71
     0
 72
   100
 73
     1
 74
     1
 75
     0
 76
     0
 77
     0
 78
     0
281
     0
 65
     0
110
0.0
120
0.0
130
0.0
111
1.0
121
0.0
131
0.0
112
0.0
122
1.0
132
0.0
345
0
346
0
 79
     0
146
0.0
  0
ENDTAB
  0
TABLE
  2
LTYPE
  5
4
100
AcDbSymbolTable
 70
     7
  0
LTYPE
  5
11
100
AcDbSymbolTableRecord
100
AcDbLinetypeTableRecord
  2
ByBlock
 70
    64
  3

 72
    65
 73
     0
 40
0.0
  0
LTYPE
  5
12
100
AcDbSymbolTableRecord
100
AcDbLinetypeTableRecord
  2
ByLayer
 70
    64
  3

 72
    65
 73
     0
 40
0.0
  0
LTYPE
  5
13
100
AcDbSymbolTableRecord
100
AcDbLinetypeTableRecord
  2
Continuous
 70
    64
  3
Solid line
 72
    65
 73
     0
 40
0.0
  0
LTYPE
  5
24
100
AcDbSymbolTableRecord
100
AcDbLinetypeTableRecord
  2
HIDDEN
 70
    64
  3
_ _ _ _ _ _ _ _ _ _ _ _ _ _ _ _ _ _ _ _ _ _ _ _
 72
    65
 73
     2
 40
0.1875
 49
0.125
 74
     0
 49
-0.0625
 74
     0
  0
LTYPE
  5
25
100
AcDbSymbolTableRecord
100
AcDbLinetypeTableRecord
  2
DOTTED
 70
    64
  3
...............................................
 72
    65
 73
     2
 40
0.125
 49
0.0
 74
     0
 49
-0.125
 74
     0
  0
LTYPE
  5
26
100
AcDbSymbolTableRecord
100
AcDbLinetypeTableRecord
  2
CENTER
 70
    64
  3
____ _ ____ _ ____ _ ____ _ ____ _ ____ _ ____ 
 72
    65
 73
     4
 40
1.125
 49
0.75
 74
     0
 49
-0.125
 74
     0
 49
0.125
 74
     0
 49
-0.125
 74
     0
  0
LTYPE
  5
27
100
AcDbSymbolTableRecord
100
AcDbLinetypeTableRecord
  2
PHANTOM
 70
    64
  3
______  __  __  ______  __  __  ______  __  __ 
 72
    65
 73
     6
 40
1.25
 49
0.625
 74
     0
 49
-0.125
 74
     0
 49
0.125
 74
     0
 49
-0.125
 74
     0
 49
0.125
 74
     0
 49
-0.125
 74
     0
  0
ENDTAB
  0
TABLE
  2
LAYER
  5
2
100
AcDbSymbolTable
 70
     2
  0
LAYER
  5
14
100
AcDbSymbolTableRecord
100
AcDbLayerTableRecord
  2
0
 70
     0
 62
     7
  6
Continuous
290
     1
370
    -3
390
1D
  0
LAYER
  5
28
100
AcDbSymbolTableRecord
100
AcDbLayerTableRecord
  2
TEXT
 70
     0
 62
     8
  6
Continuous
290
     1
370
    -3
390
1F
  0
ENDTAB
  0
TABLE
  2
STYLE
  5
3
100
AcDbSymbolTable
 70
     1
  0
STYLE
  5
17
100
AcDbSymbolTableRecord
100
AcDbTextStyleTableRecord
  2
Standard
 70
     0
 40
0.0
 41
1.0
 50
0.0
 71
     0
 42
0.0
  3
txt
  4

  0
ENDTAB
  0
TABLE
  2
VIEW
  5
5
100
AcDbSymbolTable
 70
     0
  0
ENDTAB
  0
TABLE
  2
UCS
  5
6
100
AcDbSymbolTable
 70
     0
  0
ENDTAB
  0
TABLE
  2
APPID
  5
8
100
AcDbSymbolTable
 70
     1
  0
APPID
  5
16
100
AcDbSymbolTableRecord
100
AcDbRegAppTableRecord
  2
ACAD
 70
     0
  0
ENDTAB
  0
TABLE
  2
DIMSTYLE
  5
9
100
AcDbSymbolTable
 70
     1
100
AcDbDimStyleTable
 71
     0
  0
DIMSTYLE
105
18
100
AcDbSymbolTableRecord
100
AcDbDimStyleTableRecord
  2
Standard
 70
     0
  3

  4

 40
1.0
 41
0.18
 42
0.0625
 43
0.38
 44
0.18
 45
0.0
 46
0.0
 47
0.0
 48
0.0
 71
     0
 72
     0
 73
     1
 74
     1
 75
     0
 76
     0
 77
     0
 78
     0
 79
     0
140
0.18
141
0.09
142
0.0
143
25.4
144
1.0
145
0.0
146
1.0
147
0.09
148
0.0
170
     0
171
     2
172
     0
173
     0
174
     0
175
     0
176
     0
177
     0
178
     0
179
     0
271
     4
272
     4
273
     2
274
     2
275
     0
276
     0
277
     2
278
    46
279
     0
280
     0
281
     0
282
     0
283
     1
284
     0
285
     0
286
     0
288
     0
340
17
341
0
342
0
343
0
344
0
371
    -2
372
    -2
  0
ENDTAB
  0
TABLE
  2
BLOCK_RECORD
  5
1
100
AcDbSymbolTable
 70
    79
  0
BLOCK_RECORD
  5
A
100
AcDbSymbolTableRecord
100
AcDbBlockTableRecord
  2
*MODEL_SPACE
340
20
  0
BLOCK_RECORD
  5
B
100
AcDbSymbolTableRecord
100
AcDbBlockTableRecord
  2
*PAPER_SPACE
340
21
  0
BLOCK_RECORD
  5
29
100
AcDbSymbolTableRecord
100
AcDbBlockTableRecord
  2
*B0
340
0
  0
BLOCK_RECORD
  5
2C
100
AcDbSymbolTableRecord
100
AcDbBlockTableRecord
  2
*B1
340
0
  0
BLOCK_RECORD
  5
164
100
AcDbSymbolTableRecord
100
AcDbBlockTableRecord
  2
*B2
340
0
  0
BLOCK_RECORD
  5
16B
100
AcDbSymbolTableRecord
100
AcDbBlockTableRecord
  2
*B3
340
0
  0
BLOCK_RECORD
  5
2C3
100
AcDbSymbolTableRecord
100
AcDbBlockTableRecord
  2
*B4
340
0
  0
BLOCK_RECORD
  5
2CA
100
AcDbSymbolTableRecord
100
AcDbBlockTableRecord
  2
*B5
340
0
  0
BLOCK_RECORD
  5
2D1
100
AcDbSymbolTableRecord
100
AcDbBlockTableRecord
  2
*B6
340
0
  0
BLOCK_RECORD
  5
2D8
100
AcDbSymbolTableRecord
100
AcDbBlockTableRecord
  2
*B7
340
0
  0
BLOCK_RECORD
  5
2DF
100
AcDbSymbolTableRecord
100
AcDbBlockTableRecord
  2
*B8
340
0
  0
BLOCK_RECORD
  5
2E6
100
AcDbSymbolTableRecord
100
AcDbBlockTableRecord
  2
*B9
340
0
  0
BLOCK_RECORD
  5
2ED
100
AcDbSymbolTableRecord
100
AcDbBlockTableRecord
  2
*B10
340
0
  0
BLOCK_RECORD
  5
2F4
100
AcDbSymbolTableRecord
100
AcDbBlockTableRecord
  2
*B11
340
0
  0
BLOCK_RECORD
  5
2FB
100
AcDbSymbolTableRecord
100
AcDbBlockTableRecord
  2
*B12
340
0
  0
BLOCK_RECORD
  5
302
100
AcDbSymbolTableRecord
100
AcDbBlockTableRecord
  2
*B13
340
0
  0
BLOCK_RECORD
  5
309
100
AcDbSymbolTableRecord
100
AcDbBlockTableRecord
  2
*B14
340
0
  0
BLOCK_RECORD
  5
310
100
AcDbSymbolTableRecord
100
AcDbBlockTableRecord
  2
*B15
340
0
  0
BLOCK_RECORD
  5
317
100
AcDbSymbolTableRecord
100
AcDbBlockTableRecord
  2
*B16
340
0
  0
BLOCK_RECORD
  5
31E
100
AcDbSymbolTableRecord
100
AcDbBlockTableRecord
  2
*B17
340
0
  0
BLOCK_RECORD
  5
325
100
AcDbSymbolTableRecord
100
AcDbBlockTableRecord
  2
*B18
340
0
  0
BLOCK_RECORD
  5
32C
100
AcDbSymbolTableRecord
100
AcDbBlockTableRecord
  2
*B19
340
0
  0
BLOCK_RECORD
  5
333
100
AcDbSymbolTableRecord
100
AcDbBlockTableRecord
  2
*B20
340
0
  0
BLOCK_RECORD
  5
339
100
AcDbSymbolTableRecord
100
AcDbBlockTableRecord
  2
*B21
340
0
  0
BLOCK_RECORD
  5
348
100
AcDbSymbolTableRecord
100
AcDbBlockTableRecord
  2
*B22
340
0
  0
BLOCK_RECORD
  5
34D
100
AcDbSymbolTableRecord
100
AcDbBlockTableRecord
  2
*B23
340
0
  0
BLOCK_RECORD
  5
352
100
AcDbSymbolTableRecord
100
AcDbBlockTableRecord
  2
*B24
340
0
  0
BLOCK_RECORD
  5
358
100
AcDbSymbolTableRecord
100
AcDbBlockTableRecord
  2
*B25
340
0
  0
BLOCK_RECORD
  5
35D
100
AcDbSymbolTableRecord
100
AcDbBlockTableRecord
  2
*B26
340
0
  0
BLOCK_RECORD
  5
365
100
AcDbSymbolTableRecord
100
AcDbBlockTableRecord
  2
*B27
340
0
  0
BLOCK_RECORD
  5
36B
100
AcDbSymbolTableRecord
100
AcDbBlockTableRecord
  2
*B28
340
0
  0
BLOCK_RECORD
  5
371
100
AcDbSymbolTableRecord
100
AcDbBlockTableRecord
  2
*B29
340
0
  0
BLOCK_RECORD
  5
377
100
AcDbSymbolTableRecord
100
AcDbBlockTableRecord
  2
*B30
340
0
  0
BLOCK_RECORD
  5
37F
100
AcDbSymbolTableRecord
100
AcDbBlockTableRecord
  2
*B31
340
0
  0
BLOCK_RECORD
  5
385
100
AcDbSymbolTableRecord
100
AcDbBlockTableRecord
  2
*B32
340
0
  0
BLOCK_RECORD
  5
38A
100
AcDbSymbolTableRecord
100
AcDbBlockTableRecord
  2
*B33
340
0
  0
BLOCK_RECORD
  5
38F
100
AcDbSymbolTableRecord
100
AcDbBlockTableRecord
  2
*B34
340
0
  0
BLOCK_RECORD
  5
394
100
AcDbSymbolTableRecord
100
AcDbBlockTableRecord
  2
*B35
340
0
  0
BLOCK_RECORD
  5
39D
100
AcDbSymbolTableRecord
100
AcDbBlockTableRecord
  2
*B36
340
0
  0
BLOCK_RECORD
  5
3A2
100
AcDbSymbolTableRecord
100
AcDbBlockTableRecord
  2
*B37
340
0
  0
BLOCK_RECORD
  5
3A7
100
AcDbSymbolTableRecord
100
AcDbBlockTableRecord
  2
*B38
340
0
  0
BLOCK_RECORD
  5
3AC
100
AcDbSymbolTableRecord
100
AcDbBlockTableRecord
  2
*B39
340
0
  0
BLOCK_RECORD
  5
3B7
100
AcDbSymbolTableRecord
100
AcDbBlockTableRecord
  2
*B40
340
0
  0
BLOCK_RECORD
  5
3BC
100
AcDbSymbolTableRecord
100
AcDbBlockTableRecord
  2
*B41
340
0
  0
BLOCK_RECORD
  5
3C3
100
AcDbSymbolTableRecord
100
AcDbBlockTableRecord
  2
*B42
340
0
  0
BLOCK_RECORD
  5
3C8
100
AcDbSymbolTableRecord
100
AcDbBlockTableRecord
  2
*B43
340
0
  0
BLOCK_RECORD
  5
3D0
100
AcDbSymbolTableRecord
100
AcDbBlockTableRecord
  2
*B44
340
0
  0
BLOCK_RECORD
  5
3D6
100
AcDbSymbolTableRecord
100
AcDbBlockTableRecord
  2
*B45
340
0
  0
BLOCK_RECORD
  5
3DD
100
AcDbSymbolTableRecord
100
AcDbBlockTableRecord
  2
*B46
340
0
  0
BLOCK_RECORD
  5
3E2
100
AcDbSymbolTableRecord
100
AcDbBlockTableRecord
  2
*B47
340
0
  0
BLOCK_RECORD
  5
3E8
100
AcDbSymbolTableRecord
100
AcDbBlockTableRecord
  2
*B48
340
0
  0
BLOCK_RECORD
  5
3ED
100
AcDbSymbolTableRecord
100
AcDbBlockTableRecord
  2
*B49
340
0
  0
BLOCK_RECORD
  5
3F3
100
AcDbSymbolTableRecord
100
AcDbBlockTableRecord
  2
*B50
340
0
  0
BLOCK_RECORD
  5
3F9
100
AcDbSymbolTableRecord
100
AcDbBlockTableRecord
  2
*B51
340
0
  0
BLOCK_RECORD
  5
3FE
100
AcDbSymbolTableRecord
100
AcDbBlockTableRecord
  2
*B52
340
0
  0
BLOCK_RECORD
  5
403
100
AcDbSymbolTableRecord
100
AcDbBlockTableRecord
  2
*B53
340
0
  0
BLOCK_RECORD
  5
408
100
AcDbSymbolTableRecord
100
AcDbBlockTableRecord
  2
*B54
340
0
  0
BLOCK_RECORD
  5
40E
100
AcDbSymbolTableRecord
100
AcDbBlockTableRecord
  2
*B55
340
0
  0
BLOCK_RECORD
  5
414
100
AcDbSymbolTableRecord
100
AcDbBlockTableRecord
  2
*B56
340
0
  0
BLOCK_RECORD
  5
41A
100
AcDbSymbolTableRecord
100
AcDbBlockTableRecord
  2
*B57
340
0
  0
BLOCK_RECORD
  5
420
100
AcDbSymbolTableRecord
100
AcDbBlockTableRecord
  2
*B58
340
0
  0
BLOCK_RECORD
  5
426
100
AcDbSymbolTableRecord
100
AcDbBlockTableRecord
  2
*B59
340
0
  0
BLOCK_RECORD
  5
42C
100
AcDbSymbolTableRecord
100
AcDbBlockTableRecord
  2
*B60
340
0
  0
BLOCK_RECORD
  5
431
100
AcDbSymbolTableRecord
100
AcDbBlockTableRecord
  2
*B61
340
0
  0
BLOCK_RECORD
  5
436
100
AcDbSymbolTableRecord
100
AcDbBlockTableRecord
  2
*B62
340
0
  0
BLOCK_RECORD
  5
43B
100
AcDbSymbolTableRecord
100
AcDbBlockTableRecord
  2
*B63
340
0
  0
BLOCK_RECORD
  5
440
100
AcDbSymbolTableRecord
100
AcDbBlockTableRecord
  2
*B64
340
0
  0
BLOCK_RECORD
  5
445
100
AcDbSymbolTableRecord
100
AcDbBlockTableRecord
  2
*B65
340
0
  0
BLOCK_RECORD
  5
44A
100
AcDbSymbolTableRecord
100
AcDbBlockTableRecord
  2
*B66
340
0
  0
BLOCK_RECORD
  5
44F
100
AcDbSymbolTableRecord
100
AcDbBlockTableRecord
  2
*B67
340
0
  0
BLOCK_RECORD
  5
454
100
AcDbSymbolTableRecord
100
AcDbBlockTableRecord
  2
*B68
340
0
  0
BLOCK_RECORD
  5
459
100
AcDbSymbolTableRecord
100
AcDbBlockTableRecord
  2
*B69
340
0
  0
BLOCK_RECORD
  5
45E
100
AcDbSymbolTableRecord
100
AcDbBlockTableRecord
  2
*B70
340
0
  0
BLOCK_RECORD
  5
463
100
AcDbSymbolTableRecord
100
AcDbBlockTableRecord
  2
*B71
340
0
  0
BLOCK_RECORD
  5
468
100
AcDbSymbolTableRecord
100
AcDbBlockTableRecord
  2
*B72
340
0
  0
BLOCK_RECORD
  5
46D
100
AcDbSymbolTableRecord
100
AcDbBlockTableRecord
  2
*B73
340
0
  0
BLOCK_RECORD
  5
472
100
AcDbSymbolTableRecord
100
AcDbBlockTableRecord
  2
*B74
340
0
  0
BLOCK_RECORD
  5
477
100
AcDbSymbolTableRecord
100
AcDbBlockTableRecord
  2
*B75
340
0
  0
BLOCK_RECORD
  5
47D
100
AcDbSymbolTableRecord
100
AcDbBlockTableRecord
  2
*B76
340
0
  0
BLOCK_RECORD
  5
483
100
AcDbSymbolTableRecord
100
AcDbBlockTableRecord
  2
*B77
340
0
  0
BLOCK_RECORD
  5
488
100
AcDbSymbolTableRecord
100
AcDbBlockTableRecord
  2
*B78
340
0
  0
ENDTAB
  0
ENDSEC
  0
SECTION
  2
BLOCKS
  0
BLOCK
  5
D
100
AcDbEntity
  8
0
100
AcDbBlockBegin
  2
*MODEL_SPACE
 70
     0
 10
0.0
 20
0.0
 30
0.0
  3
*MODEL_SPACE
  1

  0
ENDBLK
  5
E
100
AcDbEntity
  8
0
100
AcDbBlockEnd
  0
BLOCK
  5
F
100
AcDbEntity
 67
     1
  8
0
100
AcDbBlockBegin
  2
*PAPER_SPACE
 70
     0
 10
0.0
 20
0.0
 30
0.0
  3
*PAPER_SPACE
  1

  0
ENDBLK
  5
10
100
AcDbEntity
 67
     1
  8
0
100
AcDbBlockEnd
  0
BLOCK
  5
2A
100
AcDbEntity
  8
0
100
AcDbBlockBegin
  2
*B0
 70
     0
 10
0.0
 20
0.0
 30
0.0
  3
*B0
  1

  0
ENDBLK
  5
2B
100
AcDbEntity
  8
0
100
AcDbBlockEnd
  0
BLOCK
  5
2D
100
AcDbEntity
  8
0
100
AcDbBlockBegin
  2
*B1
 70
     0
 10
0.0
 20
0.0
 30
0.0
  3
*B1
  1

  0
ARC
  5
2E
100
AcDbEntity
  8
0
  6
Continuous
 62
   174
100
AcDbCircle
 10
227.181111
 20
193.595988
 30
0.0
 40
3.0
100
AcDbArc
 50
-90.0
 51
-30.993552
  0
ARC
  5
2F
100
AcDbEntity
  8
0
  6
Continuous
 62
   174
100
AcDbCircle
 10
227.181111
 20
193.595988
 30
0.0
 40
3.0
100
AcDbArc
 50
-149.006448
 51
-90.0
  0
ARC
  5
30
100
AcDbEntity
  8
0
  6
Continuous
 62
   174
100
AcDbCircle
 10
227.181111
 20
193.595988
 30
0.0
 40
3.0
100
AcDbArc
 50
-151.217325
 51
-149.006448
  0
ARC
  5
31
100
AcDbEntity
  8
0
  6
Continuous
 62
   174
100
AcDbCircle
 10
227.181111
 20
193.595988
 30
0.0
 40
3.0
100
AcDbArc
 50
-208.782675
 51
-151.217325
  0
ARC
  5
32
100
AcDbEntity
  8
0
  6
Continuous
 62
   174
100
AcDbCircle
 10
227.181111
 20
193.595988
 30
0.0
 40
3.0
100
AcDbArc
 50
-210.993552
 51
-208.782675
  0
ARC
  5
33
100
AcDbEntity
  8
0
  6
Continuous
 62
   174
100
AcDbCircle
 10
227.181111
 20
193.595988
 30
0.0
 40
3.0
100
AcDbArc
 50
-270.0
 51
-210.993552
  0
ARC
  5
34
100
AcDbEntity
  8
0
  6
Continuous
 62
   174
100
AcDbCircle
 10
227.181111
 20
193.595988
 30
0.0
 40
3.0
100
AcDbArc
 50
-329.006448
 51
-270.0
  0
ARC
  5
35
100
AcDbEntity
  8
0
  6
Continuous
 62
   174
100
AcDbCircle
 10
227.181111
 20
193.595988
 30
0.0
 40
3.0
100
AcDbArc
 50
-331.217325
 51
-329.006448
  0
ARC
  5
36
100
AcDbEntity
  8
0
  6
Continuous
 62
   174
100
AcDbCircle
 10
227.181111
 20
193.595988
 30
0.0
 40
3.0
100
AcDbArc
 50
-28.782675
 51
28.782675
  0
ARC
  5
37
100
AcDbEntity
  8
0
  6
Continuous
 62
   174
100
AcDbCircle
 10
227.181111
 20
193.595988
 30
0.0
 40
3.0
100
AcDbArc
 50
-30.993552
 51
-28.782675
  0
ARC
  5
38
100
AcDbEntity
  8
0
  6
Continuous
 62
   174
100
AcDbCircle
 10
265.823533
 20
205.341175
 30
0.0
 40
3.0
100
AcDbArc
 50
-270.0
 51
-259.275121
  0
ARC
  5
39
100
AcDbEntity
  8
0
  6
Continuous
 62
   174
100
AcDbCircle
 10
265.823533
 20
205.341175
 30
0.0
 40
3.0
100
AcDbArc
 50
-272.197326
 51
-270.0
  0
ARC
  5
3A
100
AcDbEntity
  8
0
  6
Continuous
 62
   174
100
AcDbCircle
 10
265.823533
 20
205.341175
 30
0.0
 40
3.0
100
AcDbArc
 50
-285.213448
 51
-272.197326
  0
ARC
  5
3B
100
AcDbEntity
  8
0
  6
HIDDEN
 62
   174
100
AcDbCircle
 10
265.823533
 20
205.341175
 30
0.0
 40
3.0
100
AcDbArc
 50
50.37602
 51
158.551924
  0
ARC
  5
3C
100
AcDbEntity
  8
0
  6
HIDDEN
 62
   174
100
AcDbCircle
 10
265.823533
 20
205.341175
 30
0.0
 40
3.0
100
AcDbArc
 50
158.551924
 51
166.072796
  0
ARC
  5
3D
100
AcDbEntity
  8
0
  6
HIDDEN
 62
   174
100
AcDbCircle
 10
265.823533
 20
205.341175
 30
0.0
 40
3.0
100
AcDbArc
 50
166.072796
 51
176.51799
  0
ARC
  5
3E
100
AcDbEntity
  8
0
  6
HIDDEN
 62
   174
100
AcDbCircle
 10
265.823533
 20
205.341175
 30
0.0
 40
3.0
100
AcDbArc
 50
176.51799
 51
185.117998
  0
ARC
  5
3F
100
AcDbEntity
  8
0
  6
HIDDEN
 62
   174
100
AcDbCircle
 10
265.823533
 20
205.341175
 30
0.0
 40
3.0
100
AcDbArc
 50
190.81093
 51
230.37602
  0
ARC
  5
40
100
AcDbEntity
  8
0
  6
Continuous
 62
   174
100
AcDbCircle
 10
265.823533
 20
205.341175
 30
0.0
 40
10.0
100
AcDbArc
 50
-82.336927
 51
-78.810262
  0
ARC
  5
41
100
AcDbEntity
  8
0
  6
Continuous
 62
   174
100
AcDbCircle
 10
265.823533
 20
205.341175
 30
0.0
 40
10.0
100
AcDbArc
 50
-117.655232
 51
-82.336927
  0
ARC
  5
42
100
AcDbEntity
  8
0
  6
HIDDEN
 62
   174
100
AcDbCircle
 10
265.823533
 20
205.341175
 30
0.0
 40
10.0
100
AcDbArc
 50
-122.845571
 51
-117.655232
  0
LINE
  5
43
100
AcDbEntity
  8
0
  6
HIDDEN
 62
   174
100
AcDbLine
 10
220.181111
 20
184.295988
 30
0.0
 11
220.181111
 21
192.074037
 31
0.0
  0
LINE
  5
44
100
AcDbEntity
  8
0
  6
HIDDEN
 62
   174
100
AcDbLine
 10
234.181111
 20
184.295988
 30
0.0
 11
234.181111
 21
186.564658
 31
0.0
  0
ARC
  5
45
100
AcDbEntity
  8
0
  6
Continuous
 62
   174
100
AcDbCircle
 10
265.823533
 20
205.341175
 30
0.0
 40
3.0
100
AcDbArc
 50
-92.197326
 51
-90.0
  0
ARC
  5
46
100
AcDbEntity
  8
0
  6
Continuous
 62
   174
100
AcDbCircle
 10
265.823533
 20
205.341175
 30
0.0
 40
3.0
100
AcDbArc
 50
-220.813977
 51
-208.005223
  0
ARC
  5
47
100
AcDbEntity
  8
0
  6
Continuous
 62
   174
100
AcDbCircle
 10
265.823533
 20
205.341175
 30
0.0
 40
3.0
100
AcDbArc
 50
-233.773243
 51
-220.813977
  0
ARC
  5
48
100
AcDbEntity
  8
0
  6
Continuous
 62
   174
100
AcDbCircle
 10
265.823533
 20
205.341175
 30
0.0
 40
3.0
100
AcDbArc
 50
-246.45679
 51
-233.773243
  0
ARC
  5
49
100
AcDbEntity
  8
0
  6
Continuous
 62
   174
100
AcDbCircle
 10
265.823533
 20
205.341175
 30
0.0
 40
3.0
100
AcDbArc
 50
-259.275121
 51
-246.45679
  0
ARC
  5
4A
100
AcDbEntity
  8
0
  6
HIDDEN
 62
   174
100
AcDbCircle
 10
265.823533
 20
205.341175
 30
0.0
 40
3.0
100
AcDbArc
 50
-3.48201
 51
5.117998
  0
ARC
  5
4B
100
AcDbEntity
  8
0
  6
HIDDEN
 62
   174
100
AcDbCircle
 10
265.823533
 20
205.341175
 30
0.0
 40
3.0
100
AcDbArc
 50
5.117998
 51
10.81093
  0
ARC
  5
4C
100
AcDbEntity
  8
0
  6
HIDDEN
 62
   174
100
AcDbCircle
 10
265.823533
 20
205.341175
 30
0.0
 40
3.0
100
AcDbArc
 50
10.81093
 51
50.37602
  0
ARC
  5
4D
100
AcDbEntity
  8
0
  6
HIDDEN
 62
   174
100
AcDbCircle
 10
265.823533
 20
205.341175
 30
0.0
 40
10.0
100
AcDbArc
 50
-183.48201
 51
-125.850263
  0
ARC
  5
4E
100
AcDbEntity
  8
0
  6
HIDDEN
 62
   174
100
AcDbCircle
 10
265.823533
 20
205.341175
 30
0.0
 40
10.0
100
AcDbArc
 50
-125.850263
 51
-122.845571
  0
ARC
  5
4F
100
AcDbEntity
  8
0
  6
HIDDEN
 62
   174
100
AcDbCircle
 10
265.823533
 20
205.341175
 30
0.0
 40
9.6
100
AcDbArc
 50
-187.697512
 51
-183.48201
  0
ARC
  5
50
100
AcDbEntity
  8
0
  6
HIDDEN
 62
   174
100
AcDbCircle
 10
265.823533
 20
205.341175
 30
0.0
 40
9.6
100
AcDbArc
 50
-127.984737
 51
-114.834252
  0
ARC
  5
51
100
AcDbEntity
  8
0
  6
HIDDEN
 62
   174
100
AcDbCircle
 10
265.823533
 20
205.341175
 30
0.0
 40
9.6
100
AcDbArc
 50
-183.48201
 51
-127.984737
  0
LINE
  5
52
100
AcDbEntity
  8
0
  6
Continuous
 62
   174
100
AcDbLine
 10
240.179888
 20
194.350412
 30
0.0
 11
234.247499
 21
193.452209
 31
0.0
  0
LINE
  5
53
100
AcDbEntity
  8
0
  6
HIDDEN
 62
   174
100
AcDbLine
 10
220.181111
 20
192.074037
 30
0.0
 11
220.181111
 21
200.767174
 31
0.0
  0
LINE
  5
54
100
AcDbEntity
  8
0
  6
Continuous
 62
   174
100
AcDbLine
 10
280.181111
 20
182.895988
 30
0.0
 11
234.181111
 21
182.895988
 31
0.0
  0
ARC
  5
55
100
AcDbEntity
  8
0
  6
Continuous
 62
   174
100
AcDbCircle
 10
250.181111
 20
180.895988
 30
0.0
 40
10.0
100
AcDbArc
 50
-293.578178
 51
-270.0
  0
ARC
  5
56
100
AcDbEntity
  8
0
  6
Continuous
 62
   174
100
AcDbCircle
 10
265.823533
 20
205.341175
 30
0.0
 40
3.0
100
AcDbArc
 50
-297.766105
 51
-285.213448
  0
ARC
  5
57
100
AcDbEntity
  8
0
  6
Continuous
 62
   174
100
AcDbCircle
 10
265.823533
 20
205.341175
 30
0.0
 40
3.0
100
AcDbArc
 50
-310.659078
 51
-297.766105
  0
ARC
  5
58
100
AcDbEntity
  8
0
  6
Continuous
 62
   174
100
AcDbCircle
 10
265.823533
 20
205.341175
 30
0.0
 40
3.0
100
AcDbArc
 50
-323.456208
 51
-310.659078
  0
ARC
  5
59
100
AcDbEntity
  8
0
  6
Continuous
 62
   174
100
AcDbCircle
 10
265.823533
 20
205.341175
 30
0.0
 40
3.0
100
AcDbArc
 50
-335.952986
 51
-323.456208
  0
ARC
  5
5A
100
AcDbEntity
  8
0
  6
Continuous
 62
   174
100
AcDbCircle
 10
265.823533
 20
205.341175
 30
0.0
 40
3.0
100
AcDbArc
 50
-347.142857
 51
-335.952986
  0
ARC
  5
5B
100
AcDbEntity
  8
0
  6
Continuous
 62
   174
100
AcDbCircle
 10
265.823533
 20
205.341175
 30
0.0
 40
3.0
100
AcDbArc
 50
-349.306743
 51
-347.142857
  0
ARC
  5
5C
100
AcDbEntity
  8
0
  6
Continuous
 62
   174
100
AcDbCircle
 10
265.823533
 20
205.341175
 30
0.0
 40
10.0
100
AcDbArc
 50
-187.845371
 51
-183.48201
  0
ARC
  5
5D
100
AcDbEntity
  8
0
  6
Continuous
 62
   174
100
AcDbCircle
 10
265.823533
 20
205.341175
 30
0.0
 40
10.0
100
AcDbArc
 50
-3.48201
 51
172.154629
  0
ARC
  5
5E
100
AcDbEntity
  8
0
  6
Continuous
 62
   174
100
AcDbCircle
 10
265.823533
 20
205.341175
 30
0.0
 40
10.0
100
AcDbArc
 50
-31.277845
 51
-3.48201
  0
ARC
  5
5F
100
AcDbEntity
  8
0
  6
Continuous
 62
   174
100
AcDbCircle
 10
265.823533
 20
205.341175
 30
0.0
 40
10.0
100
AcDbArc
 50
-34.36082
 51
-31.277845
  0
ARC
  5
60
100
AcDbEntity
  8
0
  6
Continuous
 62
   174
100
AcDbCircle
 10
265.823533
 20
205.341175
 30
0.0
 40
10.0
100
AcDbArc
 50
-78.810262
 51
-34.36082
  0
ARC
  5
61
100
AcDbEntity
  8
0
  6
Continuous
 62
   174
100
AcDbCircle
 10
265.823533
 20
205.341175
 30
0.0
 40
9.6
100
AcDbArc
 50
-31.201966
 51
-3.48201
  0
ARC
  5
62
100
AcDbEntity
  8
0
  6
Continuous
 62
   174
100
AcDbCircle
 10
265.823533
 20
205.341175
 30
0.0
 40
9.6
100
AcDbArc
 50
-33.518996
 51
-31.201966
  0
ARC
  5
63
100
AcDbEntity
  8
0
  6
Continuous
 62
   174
100
AcDbCircle
 10
265.823533
 20
205.341175
 30
0.0
 40
9.6
100
AcDbArc
 50
-72.794522
 51
-33.518996
  0
ARC
  5
64
100
AcDbEntity
  8
0
  6
Continuous
 62
   174
100
AcDbCircle
 10
265.823533
 20
205.341175
 30
0.0
 40
9.6
100
AcDbArc
 50
-86.569189
 51
-72.794522
  0
ARC
  5
65
100
AcDbEntity
  8
0
  6
Continuous
 62
   174
100
AcDbCircle
 10
265.823533
 20
205.341175
 30
0.0
 40
9.6
100
AcDbArc
 50
-114.834252
 51
-86.569189
  0
ARC
  5
66
100
AcDbEntity
  8
0
  6
Continuous
 62
   174
100
AcDbCircle
 10
265.823533
 20
205.341175
 30
0.0
 40
9.6
100
AcDbArc
 50
-197.382497
 51
-187.697512
  0
ARC
  5
67
100
AcDbEntity
  8
0
  6
Continuous
 62
   174
100
AcDbCircle
 10
265.823533
 20
205.341175
 30
0.0
 40
9.6
100
AcDbArc
 50
-3.48201
 51
162.617503
  0
LINE
  5
68
100
AcDbEntity
  8
0
  6
HIDDEN
 62
   174
100
AcDbLine
 10
228.560335
 20
201.895988
 30
0.0
 11
221.104825
 21
200.767174
 31
0.0
  0
LINE
  5
69
100
AcDbEntity
  8
0
  6
HIDDEN
 62
   174
100
AcDbLine
 10
234.181111
 20
184.295988
 30
0.0
 11
220.181111
 21
184.295988
 31
0.0
  0
ARC
  5
6A
100
AcDbEntity
  8
0
  6
Continuous
 62
   174
100
AcDbCircle
 10
265.823533
 20
205.341175
 30
0.0
 40
8.0
100
AcDbArc
 50
-32.560708
 51
172.856366
  0
LINE
  5
6B
100
AcDbEntity
  8
0
  6
Continuous
 62
   174
100
AcDbLine
 10
254.181111
 20
182.895988
 30
0.0
 11
254.181111
 21
190.061139
 31
0.0
  0
ARC
  5
6C
100
AcDbEntity
  8
0
  6
Continuous
 62
   174
100
AcDbCircle
 10
265.823533
 20
205.341175
 30
0.0
 40
3.0
100
AcDbArc
 50
-351.310401
 51
-349.306743
  0
ARC
  5
6D
100
AcDbEntity
  8
0
  6
Continuous
 62
   174
100
AcDbCircle
 10
265.823533
 20
205.341175
 30
0.0
 40
3.0
100
AcDbArc
 50
-1.807405
 51
8.689599
  0
ARC
  5
6E
100
AcDbEntity
  8
0
  6
Continuous
 62
   174
100
AcDbCircle
 10
265.823533
 20
205.341175
 30
0.0
 40
3.0
100
AcDbArc
 50
-15.143142
 51
-1.807405
  0
ARC
  5
6F
100
AcDbEntity
  8
0
  6
Continuous
 62
   174
100
AcDbCircle
 10
265.823533
 20
205.341175
 30
0.0
 40
3.0
100
AcDbArc
 50
-28.005223
 51
-15.143142
  0
ARC
  5
70
100
AcDbEntity
  8
0
  6
Continuous
 62
   174
100
AcDbCircle
 10
265.823533
 20
205.341175
 30
0.0
 40
3.0
100
AcDbArc
 50
-40.813977
 51
-28.005223
  0
ARC
  5
71
100
AcDbEntity
  8
0
  6
Continuous
 62
   174
100
AcDbCircle
 10
265.823533
 20
205.341175
 30
0.0
 40
3.0
100
AcDbArc
 50
-105.213448
 51
-92.197326
  0
ARC
  5
72
100
AcDbEntity
  8
0
  6
Continuous
 62
   174
100
AcDbCircle
 10
265.823533
 20
205.341175
 30
0.0
 40
3.0
100
AcDbArc
 50
-117.766105
 51
-105.213448
  0
ARC
  5
73
100
AcDbEntity
  8
0
  6
Continuous
 62
   174
100
AcDbCircle
 10
265.823533
 20
205.341175
 30
0.0
 40
3.0
100
AcDbArc
 50
-130.659078
 51
-117.766105
  0
ARC
  5
74
100
AcDbEntity
  8
0
  6
Continuous
 62
   174
100
AcDbCircle
 10
265.823533
 20
205.341175
 30
0.0
 40
3.0
100
AcDbArc
 50
-143.456208
 51
-130.659078
  0
ARC
  5
75
100
AcDbEntity
  8
0
  6
Continuous
 62
   174
100
AcDbCircle
 10
265.823533
 20
205.341175
 30
0.0
 40
3.0
100
AcDbArc
 50
-155.952986
 51
-143.456208
  0
ARC
  5
76
100
AcDbEntity
  8
0
  6
Continuous
 62
   174
100
AcDbCircle
 10
265.823533
 20
205.341175
 30
0.0
 40
3.0
100
AcDbArc
 50
-167.142857
 51
-155.952986
  0
ARC
  5
77
100
AcDbEntity
  8
0
  6
Continuous
 62
   174
100
AcDbCircle
 10
265.823533
 20
205.341175
 30
0.0
 40
3.0
100
AcDbArc
 50
-169.306743
 51
-167.142857
  0
ARC
  5
78
100
AcDbEntity
  8
0
  6
Continuous
 62
   174
100
AcDbCircle
 10
265.823533
 20
205.341175
 30
0.0
 40
3.0
100
AcDbArc
 50
-171.310401
 51
-169.306743
  0
ARC
  5
79
100
AcDbEntity
  8
0
  6
Continuous
 62
   174
100
AcDbCircle
 10
265.823533
 20
205.341175
 30
0.0
 40
3.0
100
AcDbArc
 50
-181.807405
 51
-171.310401
  0
ARC
  5
7A
100
AcDbEntity
  8
0
  6
Continuous
 62
   174
100
AcDbCircle
 10
265.823533
 20
205.341175
 30
0.0
 40
3.0
100
AcDbArc
 50
-195.143142
 51
-181.807405
  0
ARC
  5
7B
100
AcDbEntity
  8
0
  6
Continuous
 62
   174
100
AcDbCircle
 10
265.823533
 20
205.341175
 30
0.0
 40
3.0
100
AcDbArc
 50
-208.005223
 51
-195.143142
  0
LINE
  5
7C
100
AcDbEntity
  8
0
  6
Continuous
 62
   174
100
AcDbLine
 10
280.181111
 20
97.895988
 30
0.0
 11
280.181111
 21
182.895988
 31
0.0
  0
LINE
  5
7D
100
AcDbEntity
  8
0
  6
HIDDEN
 62
   174
100
AcDbLine
 10
220.181111
 20
201.895988
 30
0.0
 11
228.560335
 21
201.895988
 31
0.0
  0
LINE
  5
7E
100
AcDbEntity
  8
0
  6
Continuous
 62
   174
100
AcDbLine
 10
220.181111
 20
192.074037
 30
0.0
 11
219.357207
 21
184.320221
 31
0.0
  0
ARC
  5
7F
100
AcDbEntity
  8
0
  6
HIDDEN
 62
   174
100
AcDbCircle
 10
265.823533
 20
205.341175
 30
0.0
 40
3.0
100
AcDbArc
 50
346.072796
 51
356.51799
  0
ARC
  5
80
100
AcDbEntity
  8
0
  6
HIDDEN
 62
   174
100
AcDbCircle
 10
265.823533
 20
205.341175
 30
0.0
 40
3.0
100
AcDbArc
 50
230.37602
 51
338.551924
  0
ARC
  5
81
100
AcDbEntity
  8
0
  6
HIDDEN
 62
   174
100
AcDbCircle
 10
265.823533
 20
205.341175
 30
0.0
 40
3.0
100
AcDbArc
 50
338.551924
 51
346.072796
  0
LINE
  5
82
100
AcDbEntity
  8
0
  6
HIDDEN
 62
   174
100
AcDbLine
 10
221.104825
 20
200.767174
 30
0.0
 11
220.181111
 21
192.074037
 31
0.0
  0
LINE
  5
83
100
AcDbEntity
  8
0
  6
HIDDEN
 62
   174
100
AcDbLine
 10
234.181111
 20
186.564658
 30
0.0
 11
234.181111
 21
193.452209
 31
0.0
  0
LINE
  5
84
100
AcDbEntity
  8
0
  6
Continuous
 62
   174
100
AcDbLine
 10
257.885633
 20
206.336032
 30
0.0
 11
234.055148
 21
202.727939
 31
0.0
  0
ARC
  5
85
100
AcDbEntity
  8
0
  6
Continuous
 62
   174
100
AcDbCircle
 10
265.823533
 20
205.341175
 30
0.0
 40
3.0
100
AcDbArc
 50
-53.773243
 51
-40.813977
  0
ARC
  5
86
100
AcDbEntity
  8
0
  6
Continuous
 62
   174
100
AcDbCircle
 10
265.823533
 20
205.341175
 30
0.0
 40
3.0
100
AcDbArc
 50
-66.45679
 51
-53.773243
  0
ARC
  5
87
100
AcDbEntity
  8
0
  6
Continuous
 62
   174
100
AcDbCircle
 10
265.823533
 20
205.341175
 30
0.0
 40
3.0
100
AcDbArc
 50
-90.0
 51
-79.275121
  0
ARC
  5
88
100
AcDbEntity
  8
0
  6
HIDDEN
 62
   174
100
AcDbCircle
 10
265.823533
 20
205.341175
 30
0.0
 40
3.0
100
AcDbArc
 50
185.117998
 51
190.81093
  0
LINE
  5
89
100
AcDbEntity
  8
0
  6
Continuous
 62
   174
100
AcDbLine
 10
220.181111
 20
201.895988
 30
0.0
 11
234.181111
 21
201.895988
 31
0.0
  0
ARC
  5
8A
100
AcDbEntity
  8
0
  6
HIDDEN
 62
   174
100
AcDbCircle
 10
265.823533
 20
205.341175
 30
0.0
 40
9.6
100
AcDbArc
 50
-183.48201
 51
-3.48201
  0
ARC
  5
8B
100
AcDbEntity
  8
0
  6
HIDDEN
 62
   174
100
AcDbCircle
 10
265.823533
 20
205.341175
 30
0.0
 40
9.6
100
AcDbArc
 50
-3.48201
 51
176.51799
  0
LINE
  5
8C
100
AcDbEntity
  8
0
  6
Continuous
 62
   174
100
AcDbLine
 10
234.247499
 20
193.452209
 30
0.0
 11
235.265463
 21
186.728836
 31
0.0
  0
LINE
  5
8D
100
AcDbEntity
  8
0
  6
HIDDEN
 62
   174
100
AcDbLine
 10
220.181111
 20
200.767174
 30
0.0
 11
220.181111
 21
201.895988
 31
0.0
  0
ARC
  5
8E
100
AcDbEntity
  8
0
  6
Continuous
 62
   174
100
AcDbCircle
 10
265.823533
 20
205.341175
 30
0.0
 40
8.0
100
AcDbArc
 50
278.60957
 51
327.439292
  0
ARC
  5
8F
100
AcDbEntity
  8
0
  6
HIDDEN
 62
   174
100
AcDbCircle
 10
250.181111
 20
180.895988
 30
0.0
 40
10.0
100
AcDbArc
 50
90.0
 51
113.578178
  0
LINE
  5
90
100
AcDbEntity
  8
0
  6
Continuous
 62
   174
100
AcDbLine
 10
246.181111
 20
182.895988
 30
0.0
 11
246.181111
 21
190.061139
 31
0.0
  0
LINE
  5
91
100
AcDbEntity
  8
0
  6
Continuous
 62
   174
100
AcDbLine
 10
220.181111
 20
97.895988
 30
0.0
 11
280.181111
 21
97.895988
 31
0.0
  0
LINE
  5
92
100
AcDbEntity
  8
0
  6
HIDDEN
 62
   174
100
AcDbLine
 10
228.560335
 20
201.895988
 30
0.0
 11
234.181111
 21
201.895988
 31
0.0
  0
LINE
  5
93
100
AcDbEntity
  8
0
  6
HIDDEN
 62
   174
100
AcDbLine
 10
234.181111
 20
186.564658
 30
0.0
 11
220.181111
 21
184.444965
 31
0.0
  0
LINE
  5
94
100
AcDbEntity
  8
0
  6
Continuous
 62
   174
100
AcDbLine
 10
267.021137
 20
197.431324
 30
0.0
 11
259.111286
 21
196.23372
 31
0.0
  0
ARC
  5
95
100
AcDbEntity
  8
0
  6
Continuous
 62
   174
100
AcDbCircle
 10
265.823533
 20
205.341175
 30
0.0
 40
3.0
100
AcDbArc
 50
-79.275121
 51
-66.45679
  0
LINE
  5
96
100
AcDbEntity
  8
0
  6
HIDDEN
 62
   174
100
AcDbLine
 10
234.181111
 20
193.452209
 30
0.0
 11
234.181111
 21
201.895988
 31
0.0
  0
LINE
  5
97
100
AcDbEntity
  8
0
  6
Continuous
 62
   174
100
AcDbLine
 10
234.055148
 20
202.727939
 30
0.0
 11
228.560335
 21
201.895988
 31
0.0
  0
LINE
  5
98
100
AcDbEntity
  8
0
  6
HIDDEN
 62
   174
100
AcDbLine
 10
238.181111
 20
142.686911
 30
0.0
 11
238.181111
 21
125.188179
 31
0.0
  0
LINE
  5
99
100
AcDbEntity
  8
0
  6
Continuous
 62
   174
100
AcDbLine
 10
220.181111
 20
97.895988
 30
0.0
 11
220.181111
 21
201.895988
 31
0.0
  0
ARC
  5
9A
100
AcDbEntity
  8
0
  6
HIDDEN
 62
   174
100
AcDbCircle
 10
266.181111
 20
165.895988
 30
0.0
 40
7.5
100
AcDbArc
 50
-270.0
 51
-90.0
  0
ARC
  5
9B
100
AcDbEntity
  8
0
  6
HIDDEN
 62
   174
100
AcDbCircle
 10
266.181111
 20
165.895988
 30
0.0
 40
7.5
100
AcDbArc
 50
-90.0
 51
90.0
  0
ARC
  5
9C
100
AcDbEntity
  8
0
  6
Continuous
 62
   174
100
AcDbCircle
 10
265.823533
 20
205.341175
 30
0.0
 40
3.0
100
AcDbArc
 50
151.936671
 51
164.895037
  0
LINE
  5
9D
100
AcDbEntity
  8
0
  6
HIDDEN
 62
   174
100
AcDbLine
 10
220.181111
 20
142.645988
 30
0.0
 11
238.181111
 21
142.645988
 31
0.0
  0
LINE
  5
9E
100
AcDbEntity
  8
0
  6
HIDDEN
 62
   174
100
AcDbLine
 10
234.181111
 20
125.145988
 30
0.0
 11
220.181111
 21
125.145988
 31
0.0
  0
LINE
  5
9F
100
AcDbEntity
  8
0
  6
Continuous
 62
   174
100
AcDbLine
 10
248.974357
 20
190.061139
 30
0.0
 11
246.206703
 21
190.061139
 31
0.0
  0
ARC
  5
A0
100
AcDbEntity
  8
0
  6
HIDDEN
 62
   174
100
AcDbCircle
 10
227.181111
 20
193.595988
 30
0.0
 40
3.0
100
AcDbArc
 50
-27.5183
 51
8.60957
  0
ARC
  5
A1
100
AcDbEntity
  8
0
  6
HIDDEN
 62
   174
100
AcDbCircle
 10
227.181111
 20
193.595988
 30
0.0
 40
3.0
100
AcDbArc
 50
8.60957
 51
31.192124
  0
ARC
  5
A2
100
AcDbEntity
  8
0
  6
HIDDEN
 62
   174
100
AcDbCircle
 10
227.181111
 20
193.595988
 30
0.0
 40
3.0
100
AcDbArc
 50
88.946915
 51
111.399132
  0
LINE
  5
A3
100
AcDbEntity
  8
0
  6
Continuous
 62
   174
100
AcDbLine
 10
259.684346
 20
192.448811
 30
0.0
 11
240.89845
 21
189.604502
 31
0.0
  0
ARC
  5
A4
100
AcDbEntity
  8
0
  6
HIDDEN
 62
   174
100
AcDbCircle
 10
227.181111
 20
193.595988
 30
0.0
 40
3.0
100
AcDbArc
 50
90.0
 51
150.0
  0
LINE
  5
A5
100
AcDbEntity
  8
0
  6
Continuous
 62
   174
100
AcDbLine
 10
234.181111
 20
182.895988
 30
0.0
 11
234.181111
 21
201.895988
 31
0.0
  0
ARC
  5
A6
100
AcDbEntity
  8
0
  6
Continuous
 62
   174
100
AcDbCircle
 10
265.823533
 20
205.341175
 30
0.0
 40
3.0
100
AcDbArc
 50
319.24004
 51
331.936671
  0
ARC
  5
A7
100
AcDbEntity
  8
0
  6
HIDDEN
 62
   174
100
AcDbCircle
 10
265.823533
 20
205.341175
 30
0.0
 40
8.0
100
AcDbArc
 50
327.439292
 51
353.116356
  0
ARC
  5
A8
100
AcDbEntity
  8
0
  6
HIDDEN
 62
   174
100
AcDbCircle
 10
265.823533
 20
205.341175
 30
0.0
 40
3.0
100
AcDbArc
 50
188.60957
 51
204.172414
  0
ARC
  5
A9
100
AcDbEntity
  8
0
  6
HIDDEN
 62
   174
100
AcDbCircle
 10
265.823533
 20
205.341175
 30
0.0
 40
3.0
100
AcDbArc
 50
291.399132
 51
306.186267
  0
ARC
  5
AA
100
AcDbEntity
  8
0
  6
HIDDEN
 62
   174
100
AcDbCircle
 10
265.823533
 20
205.341175
 30
0.0
 40
3.0
100
AcDbArc
 50
36.606542
 51
49.325396
  0
LINE
  5
AB
100
AcDbEntity
  8
0
  6
HIDDEN
 62
   174
100
AcDbLine
 10
250.164242
 20
191.007404
 30
0.0
 11
253.951032
 21
191.580749
 31
0.0
  0
LINE
  5
AC
100
AcDbEntity
  8
0
  6
HIDDEN
 62
   174
100
AcDbLine
 10
266.181111
 20
140.165988
 30
0.0
 11
280.181111
 21
140.165988
 31
0.0
  0
ARC
  5
AD
100
AcDbEntity
  8
0
  6
Continuous
 62
   174
100
AcDbCircle
 10
265.823533
 20
205.341175
 30
0.0
 40
3.0
100
AcDbArc
 50
265.820008
 51
280.510033
  0
LINE
  5
AE
100
AcDbEntity
  8
0
  6
HIDDEN
 62
   174
100
AcDbLine
 10
280.181111
 20
126.645988
 30
0.0
 11
262.181111
 21
126.645988
 31
0.0
  0
LINE
  5
AF
100
AcDbEntity
  8
0
  6
HIDDEN
 62
   174
100
AcDbLine
 10
234.181111
 20
142.645988
 30
0.0
 11
220.181111
 21
142.645988
 31
0.0
  0
LINE
  5
B0
100
AcDbEntity
  8
0
  6
HIDDEN
 62
   174
100
AcDbLine
 10
266.181111
 20
141.145988
 30
0.0
 11
280.181111
 21
141.145988
 31
0.0
  0
ARC
  5
B1
100
AcDbEntity
  8
0
  6
HIDDEN
 62
   174
100
AcDbCircle
 10
265.823533
 20
205.341175
 30
0.0
 40
3.0
100
AcDbArc
 50
100.510033
 51
111.399132
  0
LINE
  5
B2
100
AcDbEntity
  8
0
  6
HIDDEN
 62
   174
100
AcDbLine
 10
254.206853
 20
190.061139
 30
0.0
 11
250.206628
 21
190.061139
 31
0.0
  0
LINE
  5
B3
100
AcDbEntity
  8
0
  6
HIDDEN
 62
   174
100
AcDbLine
 10
240.179888
 20
194.350412
 30
0.0
 11
234.247499
 21
193.452209
 31
0.0
  0
ARC
  5
B4
100
AcDbEntity
  8
0
  6
Continuous
 62
   174
100
AcDbCircle
 10
265.823533
 20
205.341175
 30
0.0
 40
3.0
100
AcDbArc
 50
49.325396
 51
62.28956
  0
ARC
  5
B5
100
AcDbEntity
  8
0
  6
HIDDEN
 62
   174
100
AcDbCircle
 10
227.181111
 20
193.595988
 30
0.0
 40
3.0
100
AcDbArc
 50
88.946915
 51
111.399132
  0
ARC
  5
B6
100
AcDbEntity
  8
0
  6
Continuous
 62
   174
100
AcDbCircle
 10
265.823533
 20
205.341175
 30
0.0
 40
3.0
100
AcDbArc
 50
139.24004
 51
151.936671
  0
LINE
  5
B7
100
AcDbEntity
  8
0
  6
HIDDEN
 62
   174
100
AcDbLine
 10
253.951032
 20
191.580749
 30
0.0
 11
259.684346
 21
192.448811
 31
0.0
  0
LINE
  5
B8
100
AcDbEntity
  8
0
  6
HIDDEN
 62
   174
100
AcDbLine
 10
266.181111
 20
159.625988
 30
0.0
 11
280.181111
 21
159.625988
 31
0.0
  0
LINE
  5
B9
100
AcDbEntity
  8
0
  6
HIDDEN
 62
   174
100
AcDbLine
 10
280.181111
 20
109.145988
 30
0.0
 11
262.181111
 21
109.145988
 31
0.0
  0
ARC
  5
BA
100
AcDbEntity
  8
0
  6
HIDDEN
 62
   174
100
AcDbCircle
 10
227.181111
 20
193.595988
 30
0.0
 40
3.0
100
AcDbArc
 50
31.192124
 51
60.224288
  0
ARC
  5
BB
100
AcDbEntity
  8
0
  6
HIDDEN
 62
   174
100
AcDbCircle
 10
227.181111
 20
193.595988
 30
0.0
 40
3.0
100
AcDbArc
 50
188.60957
 51
211.192124
  0
ARC
  5
BC
100
AcDbEntity
  8
0
  6
HIDDEN
 62
   174
100
AcDbCircle
 10
227.181111
 20
193.595988
 30
0.0
 40
3.0
100
AcDbArc
 50
111.399132
 51
147.449508
  0
ARC
  5
BD
100
AcDbEntity
  8
0
  6
HIDDEN
 62
   174
100
AcDbCircle
 10
227.181111
 20
193.595988
 30
0.0
 40
3.0
100
AcDbArc
 50
150.0
 51
210.0
  0
ARC
  5
BE
100
AcDbEntity
  8
0
  6
HIDDEN
 62
   174
100
AcDbCircle
 10
265.823533
 20
205.341175
 30
0.0
 40
8.0
100
AcDbArc
 50
-6.883644
 51
18.793527
  0
ARC
  5
BF
100
AcDbEntity
  8
0
  6
Continuous
 62
   174
100
AcDbCircle
 10
234.181111
 20
165.895988
 30
0.0
 40
7.5
100
AcDbArc
 50
90.0
 51
270.0
  0
ARC
  5
C0
100
AcDbEntity
  8
0
  6
Continuous
 62
   174
100
AcDbCircle
 10
227.181111
 20
193.595988
 30
0.0
 40
3.0
100
AcDbArc
 50
151.328147
 51
211.101124
  0
LINE
  5
C1
100
AcDbEntity
  8
0
  6
HIDDEN
 62
   174
100
AcDbLine
 10
234.247499
 20
193.452209
 30
0.0
 11
235.265463
 21
186.728836
 31
0.0
  0
ARC
  5
C2
100
AcDbEntity
  8
0
  6
HIDDEN
 62
   174
100
AcDbCircle
 10
265.823533
 20
205.341175
 30
0.0
 40
3.0
100
AcDbArc
 50
204.172414
 51
216.606542
  0
ARC
  5
C3
100
AcDbEntity
  8
0
  6
HIDDEN
 62
   174
100
AcDbCircle
 10
265.823533
 20
205.341175
 30
0.0
 40
3.0
100
AcDbArc
 50
306.186267
 51
319.24004
  0
ARC
  5
C4
100
AcDbEntity
  8
0
  6
HIDDEN
 62
   174
100
AcDbCircle
 10
265.823533
 20
205.341175
 30
0.0
 40
8.0
100
AcDbArc
 50
147.179197
 51
172.856366
  0
LINE
  5
C5
100
AcDbEntity
  8
0
  6
HIDDEN
 62
   174
100
AcDbLine
 10
234.181111
 20
125.145988
 30
0.0
 11
220.181111
 21
125.145988
 31
0.0
  0
LINE
  5
C6
100
AcDbEntity
  8
0
  6
HIDDEN
 62
   174
100
AcDbLine
 10
266.181111
 20
158.645988
 30
0.0
 11
280.181111
 21
158.645988
 31
0.0
  0
ARC
  5
C7
100
AcDbEntity
  8
0
  6
Continuous
 62
   174
100
AcDbCircle
 10
265.823533
 20
205.341175
 30
0.0
 40
3.0
100
AcDbArc
 50
254.883606
 51
265.820008
  0
LINE
  5
C8
100
AcDbEntity
  8
0
  6
HIDDEN
 62
   174
100
AcDbLine
 10
266.181111
 20
127.625988
 30
0.0
 11
280.181111
 21
127.625988
 31
0.0
  0
LINE
  5
C9
100
AcDbEntity
  8
0
  6
HIDDEN
 62
   174
100
AcDbLine
 10
259.111286
 20
196.23372
 30
0.0
 11
259.325065
 21
194.821766
 31
0.0
  0
LINE
  5
CA
100
AcDbEntity
  8
0
  6
HIDDEN
 62
   174
100
AcDbLine
 10
280.181111
 20
109.145988
 30
0.0
 11
262.181111
 21
109.145988
 31
0.0
  0
ARC
  5
CB
100
AcDbEntity
  8
0
  6
HIDDEN
 62
   174
100
AcDbCircle
 10
265.823533
 20
205.341175
 30
0.0
 40
3.0
100
AcDbArc
 50
111.399132
 51
126.186267
  0
LINE
  5
CC
100
AcDbEntity
  8
0
  6
HIDDEN
 62
   174
100
AcDbLine
 10
262.181111
 20
109.189382
 30
0.0
 11
262.181111
 21
126.688113
 31
0.0
  0
ARC
  5
CD
100
AcDbEntity
  8
0
  6
HIDDEN
 62
   174
100
AcDbCircle
 10
227.181111
 20
193.595988
 30
0.0
 40
3.0
100
AcDbArc
 50
291.399132
 51
327.449508
  0
LINE
  5
CE
100
AcDbEntity
  8
0
  6
HIDDEN
 62
   174
100
AcDbLine
 10
220.181111
 20
184.444965
 30
0.0
 11
219.357207
 21
184.320221
 31
0.0
  0
LINE
  5
CF
100
AcDbEntity
  8
0
  6
Continuous
 62
   174
100
AcDbLine
 10
251.439199
 20
190.061139
 30
0.0
 11
250.206628
 21
190.061139
 31
0.0
  0
ARC
  5
D0
100
AcDbEntity
  8
0
  6
HIDDEN
 62
   174
100
AcDbCircle
 10
227.181111
 20
193.595988
 30
0.0
 40
3.0
100
AcDbArc
 50
60.224288
 51
88.946915
  0
ARC
  5
D1
100
AcDbEntity
  8
0
  6
HIDDEN
 62
   174
100
AcDbCircle
 10
227.181111
 20
193.595988
 30
0.0
 40
3.0
100
AcDbArc
 50
211.192124
 51
240.224288
  0
ARC
  5
D2
100
AcDbEntity
  8
0
  6
HIDDEN
 62
   174
100
AcDbCircle
 10
227.181111
 20
193.595988
 30
0.0
 40
3.0
100
AcDbArc
 50
147.449508
 51
152.4817
  0
LINE
  5
D3
100
AcDbEntity
  8
0
  6
HIDDEN
 62
   174
100
AcDbLine
 10
234.181111
 20
124.165988
 30
0.0
 11
220.181111
 21
124.165988
 31
0.0
  0
LINE
  5
D4
100
AcDbEntity
  8
0
  6
HIDDEN
 62
   174
100
AcDbLine
 10
234.181111
 20
142.645988
 30
0.0
 11
220.181111
 21
142.645988
 31
0.0
  0
LINE
  5
D5
100
AcDbEntity
  8
0
  6
HIDDEN
 62
   174
100
AcDbLine
 10
266.181111
 20
108.165988
 30
0.0
 11
280.181111
 21
108.165988
 31
0.0
  0
ARC
  5
D6
100
AcDbEntity
  8
0
  6
Continuous
 62
   174
100
AcDbCircle
 10
265.823533
 20
205.341175
 30
0.0
 40
3.0
100
AcDbArc
 50
36.606542
 51
49.325396
  0
ARC
  5
D7
100
AcDbEntity
  8
0
  6
HIDDEN
 62
   174
100
AcDbCircle
 10
265.823533
 20
205.341175
 30
0.0
 40
8.0
100
AcDbArc
 50
18.793527
 51
44.470685
  0
ARC
  5
D8
100
AcDbEntity
  8
0
  6
HIDDEN
 62
   174
100
AcDbCircle
 10
227.181111
 20
193.595988
 30
0.0
 40
3.0
100
AcDbArc
 50
111.399132
 51
147.449508
  0
LINE
  5
D9
100
AcDbEntity
  8
0
  6
HIDDEN
 62
   174
100
AcDbLine
 10
280.181111
 20
158.686008
 30
0.0
 11
280.181111
 21
141.187277
 31
0.0
  0
ARC
  5
DA
100
AcDbEntity
  8
0
  6
Continuous
 62
   174
100
AcDbCircle
 10
227.181111
 20
193.595988
 30
0.0
 40
3.0
100
AcDbArc
 50
31.101124
 51
90.0
  0
ARC
  5
DB
100
AcDbEntity
  8
0
  6
Continuous
 62
   174
100
AcDbCircle
 10
227.181111
 20
193.595988
 30
0.0
 40
3.0
100
AcDbArc
 50
90.0
 51
151.328147
  0
ARC
  5
DC
100
AcDbEntity
  8
0
  6
HIDDEN
 62
   174
100
AcDbCircle
 10
265.823533
 20
205.341175
 30
0.0
 40
3.0
100
AcDbArc
 50
216.606542
 51
229.325396
  0
ARC
  5
DD
100
AcDbEntity
  8
0
  6
HIDDEN
 62
   174
100
AcDbCircle
 10
265.823533
 20
205.341175
 30
0.0
 40
3.0
100
AcDbArc
 50
319.24004
 51
331.936671
  0
ARC
  5
DE
100
AcDbEntity
  8
0
  6
HIDDEN
 62
   174
100
AcDbCircle
 10
227.181111
 20
193.595988
 30
0.0
 40
3.0
100
AcDbArc
 50
271.91805
 51
291.399132
  0
LINE
  5
DF
100
AcDbEntity
  8
0
  6
HIDDEN
 62
   174
100
AcDbLine
 10
234.181111
 20
186.564658
 30
0.0
 11
220.181111
 21
184.444965
 31
0.0
  0
ARC
  5
E0
100
AcDbEntity
  8
0
  6
Continuous
 62
   174
100
AcDbCircle
 10
265.823533
 20
205.341175
 30
0.0
 40
3.0
100
AcDbArc
 50
242.28956
 51
254.883606
  0
LINE
  5
E1
100
AcDbEntity
  8
0
  6
Continuous
 62
   174
100
AcDbLine
 10
240.599049
 20
191.581964
 30
0.0
 11
240.179888
 21
194.350412
 31
0.0
  0
LINE
  5
E2
100
AcDbEntity
  8
0
  6
Continuous
 62
   174
100
AcDbLine
 10
259.384945
 20
194.426274
 30
0.0
 11
240.599049
 21
191.581964
 31
0.0
  0
LINE
  5
E3
100
AcDbEntity
  8
0
  6
HIDDEN
 62
   174
100
AcDbLine
 10
250.206628
 20
182.895988
 30
0.0
 11
246.206703
 21
182.895988
 31
0.0
  0
LINE
  5
E4
100
AcDbEntity
  8
0
  6
HIDDEN
 62
   174
100
AcDbLine
 10
240.89845
 20
189.604502
 30
0.0
 11
246.130314
 21
190.396641
 31
0.0
  0
LINE
  5
E5
100
AcDbEntity
  8
0
  6
HIDDEN
 62
   174
100
AcDbLine
 10
266.181111
 20
127.625988
 30
0.0
 11
280.181111
 21
127.625988
 31
0.0
  0
ARC
  5
E6
100
AcDbEntity
  8
0
  6
HIDDEN
 62
   174
100
AcDbCircle
 10
265.823533
 20
205.341175
 30
0.0
 40
3.0
100
AcDbArc
 50
126.186267
 51
139.24004
  0
LINE
  5
E7
100
AcDbEntity
  8
0
  6
HIDDEN
 62
   174
100
AcDbLine
 10
262.181111
 20
141.187277
 30
0.0
 11
262.181111
 21
158.686008
 31
0.0
  0
ARC
  5
E8
100
AcDbEntity
  8
0
  6
Continuous
 62
   174
100
AcDbCircle
 10
265.823533
 20
205.341175
 30
0.0
 40
3.0
100
AcDbArc
 50
126.186267
 51
139.24004
  0
LINE
  5
E9
100
AcDbEntity
  8
0
  6
HIDDEN
 62
   174
100
AcDbLine
 10
220.181111
 20
192.074037
 30
0.0
 11
219.357207
 21
184.320221
 31
0.0
  0
LINE
  5
EA
100
AcDbEntity
  8
0
  6
HIDDEN
 62
   174
100
AcDbLine
 10
235.265463
 20
186.728836
 30
0.0
 11
234.181111
 21
186.564658
 31
0.0
  0
ARC
  5
EB
100
AcDbEntity
  8
0
  6
HIDDEN
 62
   174
100
AcDbCircle
 10
227.181111
 20
193.595988
 30
0.0
 40
3.0
100
AcDbArc
 50
152.4817
 51
188.60957
  0
ARC
  5
EC
100
AcDbEntity
  8
0
  6
HIDDEN
 62
   174
100
AcDbCircle
 10
227.181111
 20
193.595988
 30
0.0
 40
3.0
100
AcDbArc
 50
240.224288
 51
271.91805
  0
LINE
  5
ED
100
AcDbEntity
  8
0
  6
HIDDEN
 62
   174
100
AcDbLine
 10
266.181111
 20
126.645988
 30
0.0
 11
280.181111
 21
126.645988
 31
0.0
  0
ARC
  5
EE
100
AcDbEntity
  8
0
  6
Continuous
 62
   174
100
AcDbCircle
 10
265.823533
 20
205.341175
 30
0.0
 40
3.0
100
AcDbArc
 50
24.172414
 51
36.606542
  0
ARC
  5
EF
100
AcDbEntity
  8
0
  6
HIDDEN
 62
   174
100
AcDbCircle
 10
265.823533
 20
205.341175
 30
0.0
 40
8.0
100
AcDbArc
 50
44.470685
 51
70.147867
  0
ARC
  5
F0
100
AcDbEntity
  8
0
  6
HIDDEN
 62
   174
100
AcDbCircle
 10
227.181111
 20
193.595988
 30
0.0
 40
3.0
100
AcDbArc
 50
147.449508
 51
152.4817
  0
LINE
  5
F1
100
AcDbEntity
  8
0
  6
HIDDEN
 62
   174
100
AcDbLine
 10
259.384945
 20
194.426274
 30
0.0
 11
240.599049
 21
191.581964
 31
0.0
  0
LINE
  5
F2
100
AcDbEntity
  8
0
  6
HIDDEN
 62
   174
100
AcDbLine
 10
280.181111
 20
126.688113
 30
0.0
 11
280.181111
 21
109.189382
 31
0.0
  0
ARC
  5
F3
100
AcDbEntity
  8
0
  6
Continuous
 62
   174
100
AcDbCircle
 10
266.181111
 20
165.895988
 30
0.0
 40
4.5
100
AcDbArc
 50
-270.0
 51
-90.0
  0
ARC
  5
F4
100
AcDbEntity
  8
0
  6
HIDDEN
 62
   174
100
AcDbCircle
 10
265.823533
 20
205.341175
 30
0.0
 40
3.0
100
AcDbArc
 50
229.325396
 51
242.28956
  0
ARC
  5
F5
100
AcDbEntity
  8
0
  6
HIDDEN
 62
   174
100
AcDbCircle
 10
265.823533
 20
205.341175
 30
0.0
 40
3.0
100
AcDbArc
 50
331.936671
 51
344.895037
  0
ARC
  5
F6
100
AcDbEntity
  8
0
  6
HIDDEN
 62
   174
100
AcDbCircle
 10
227.181111
 20
193.595988
 30
0.0
 40
3.0
100
AcDbArc
 50
240.224288
 51
271.91805
  0
ARC
  5
F7
100
AcDbEntity
  8
0
  6
Continuous
 62
   174
100
AcDbCircle
 10
234.181111
 20
165.895988
 30
0.0
 40
4.5
100
AcDbArc
 50
-270.0
 51
-90.0
  0
ARC
  5
F8
100
AcDbEntity
  8
0
  6
Continuous
 62
   174
100
AcDbCircle
 10
265.823533
 20
205.341175
 30
0.0
 40
3.0
100
AcDbArc
 50
229.325396
 51
242.28956
  0
LINE
  5
F9
100
AcDbEntity
  8
0
  6
HIDDEN
 62
   174
100
AcDbLine
 10
220.181111
 20
125.145988
 30
0.0
 11
238.181111
 21
125.145988
 31
0.0
  0
LINE
  5
FA
100
AcDbEntity
  8
0
  6
HIDDEN
 62
   174
100
AcDbLine
 10
254.206853
 20
182.895988
 30
0.0
 11
250.206628
 21
182.895988
 31
0.0
  0
ARC
  5
FB
100
AcDbEntity
  8
0
  6
HIDDEN
 62
   174
100
AcDbCircle
 10
265.823533
 20
205.341175
 30
0.0
 40
3.0
100
AcDbArc
 50
74.883606
 51
85.820008
  0
LINE
  5
FC
100
AcDbEntity
  8
0
  6
HIDDEN
 62
   174
100
AcDbLine
 10
261.213001
 20
196.551934
 30
0.0
 11
259.111286
 21
196.23372
 31
0.0
  0
ARC
  5
FD
100
AcDbEntity
  8
0
  6
HIDDEN
 62
   174
100
AcDbCircle
 10
265.823533
 20
205.341175
 30
0.0
 40
3.0
100
AcDbArc
 50
139.24004
 51
151.936671
  0
LINE
  5
FE
100
AcDbEntity
  8
0
  6
HIDDEN
 62
   174
100
AcDbLine
 10
266.181111
 20
108.165988
 30
0.0
 11
280.181111
 21
108.165988
 31
0.0
  0
ARC
  5
FF
100
AcDbEntity
  8
0
  6
Continuous
 62
   174
100
AcDbCircle
 10
265.823533
 20
205.341175
 30
0.0
 40
3.0
100
AcDbArc
 50
111.399132
 51
126.186267
  0
ARC
  5
100
100
AcDbEntity
  8
0
  6
Continuous
 62
   174
100
AcDbCircle
 10
227.181111
 20
193.595988
 30
0.0
 40
3.0
100
AcDbArc
 50
-28.671853
 51
31.101124
  0
ARC
  5
101
100
AcDbEntity
  8
0
  6
HIDDEN
 62
   174
100
AcDbCircle
 10
227.181111
 20
193.595988
 30
0.0
 40
3.0
100
AcDbArc
 50
152.4817
 51
188.60957
  0
ARC
  5
102
100
AcDbEntity
  8
0
  6
HIDDEN
 62
   174
100
AcDbCircle
 10
227.181111
 20
193.595988
 30
0.0
 40
3.0
100
AcDbArc
 50
271.91805
 51
291.399132
  0
LINE
  5
103
100
AcDbEntity
  8
0
  6
HIDDEN
 62
   174
100
AcDbLine
 10
280.181111
 20
126.645988
 30
0.0
 11
262.181111
 21
126.645988
 31
0.0
  0
ARC
  5
104
100
AcDbEntity
  8
0
  6
HIDDEN
 62
   174
100
AcDbCircle
 10
227.181111
 20
193.595988
 30
0.0
 40
3.0
100
AcDbArc
 50
-30.0
 51
30.0
  0
ARC
  5
105
100
AcDbEntity
  8
0
  6
Continuous
 62
   174
100
AcDbCircle
 10
265.823533
 20
205.341175
 30
0.0
 40
3.0
100
AcDbArc
 50
8.60957
 51
24.172414
  0
LINE
  5
106
100
AcDbEntity
  8
0
  6
HIDDEN
 62
   174
100
AcDbLine
 10
220.181111
 20
125.188179
 30
0.0
 11
220.181111
 21
142.686911
 31
0.0
  0
ARC
  5
107
100
AcDbEntity
  8
0
  6
HIDDEN
 62
   174
100
AcDbCircle
 10
265.823533
 20
205.341175
 30
0.0
 40
8.0
100
AcDbArc
 50
70.147867
 51
121.502045
  0
LINE
  5
108
100
AcDbEntity
  8
0
  6
HIDDEN
 62
   174
100
AcDbLine
 10
267.021137
 20
197.431324
 30
0.0
 11
261.213001
 21
196.551934
 31
0.0
  0
ARC
  5
109
100
AcDbEntity
  8
0
  6
Continuous
 62
   174
100
AcDbCircle
 10
266.181111
 20
165.895988
 30
0.0
 40
4.5
100
AcDbArc
 50
-90.0
 51
90.0
  0
ARC
  5
10A
100
AcDbEntity
  8
0
  6
HIDDEN
 62
   174
100
AcDbCircle
 10
265.823533
 20
205.341175
 30
0.0
 40
3.0
100
AcDbArc
 50
242.28956
 51
254.883606
  0
ARC
  5
10B
100
AcDbEntity
  8
0
  6
HIDDEN
 62
   174
100
AcDbCircle
 10
265.823533
 20
205.341175
 30
0.0
 40
3.0
100
AcDbArc
 50
344.895037
 51
357.939298
  0
ARC
  5
10C
100
AcDbEntity
  8
0
  6
HIDDEN
 62
   174
100
AcDbCircle
 10
227.181111
 20
193.595988
 30
0.0
 40
3.0
100
AcDbArc
 50
211.192124
 51
240.224288
  0
ARC
  5
10D
100
AcDbEntity
  8
0
  6
Continuous
 62
   174
100
AcDbCircle
 10
265.823533
 20
205.341175
 30
0.0
 40
3.0
100
AcDbArc
 50
216.606542
 51
229.325396
  0
ARC
  5
10E
100
AcDbEntity
  8
0
  6
HIDDEN
 62
   174
100
AcDbCircle
 10
265.823533
 20
205.341175
 30
0.0
 40
3.0
100
AcDbArc
 50
62.28956
 51
74.883606
  0
LINE
  5
10F
100
AcDbEntity
  8
0
  6
HIDDEN
 62
   174
100
AcDbLine
 10
280.181111
 20
141.145988
 30
0.0
 11
262.181111
 21
141.145988
 31
0.0
  0
LINE
  5
110
100
AcDbEntity
  8
0
  6
HIDDEN
 62
   174
100
AcDbLine
 10
280.181111
 20
108.209453
 30
0.0
 11
280.181111
 21
127.668042
 31
0.0
  0
LINE
  5
111
100
AcDbEntity
  8
0
  6
HIDDEN
 62
   174
100
AcDbLine
 10
266.181111
 20
126.645988
 30
0.0
 11
280.181111
 21
126.645988
 31
0.0
  0
ARC
  5
112
100
AcDbEntity
  8
0
  6
HIDDEN
 62
   174
100
AcDbCircle
 10
265.823533
 20
205.341175
 30
0.0
 40
3.0
100
AcDbArc
 50
151.936671
 51
164.895037
  0
LINE
  5
113
100
AcDbEntity
  8
0
  6
HIDDEN
 62
   174
100
AcDbLine
 10
266.181111
 20
158.645988
 30
0.0
 11
280.181111
 21
158.645988
 31
0.0
  0
ARC
  5
114
100
AcDbEntity
  8
0
  6
HIDDEN
 62
   174
100
AcDbCircle
 10
234.181111
 20
165.895988
 30
0.0
 40
7.5
100
AcDbArc
 50
-270.0
 51
-90.0
  0
ARC
  5
115
100
AcDbEntity
  8
0
  6
Continuous
 62
   174
100
AcDbCircle
 10
265.823533
 20
205.341175
 30
0.0
 40
3.0
100
AcDbArc
 50
100.510033
 51
111.399132
  0
ARC
  5
116
100
AcDbEntity
  8
0
  6
Continuous
 62
   174
100
AcDbCircle
 10
234.181111
 20
165.895988
 30
0.0
 40
4.5
100
AcDbArc
 50
-90.0
 51
90.0
  0
ARC
  5
117
100
AcDbEntity
  8
0
  6
Continuous
 62
   174
100
AcDbCircle
 10
266.181111
 20
165.895988
 30
0.0
 40
7.5
100
AcDbArc
 50
-90.0
 51
90.0
  0
LINE
  5
118
100
AcDbEntity
  8
0
  6
Continuous
 62
   174
100
AcDbLine
 10
250.206628
 20
190.061139
 30
0.0
 11
248.974357
 21
190.061139
 31
0.0
  0
LINE
  5
119
100
AcDbEntity
  8
0
  6
HIDDEN
 62
   174
100
AcDbLine
 10
228.560335
 20
201.895988
 30
0.0
 11
221.104825
 21
200.767174
 31
0.0
  0
LINE
  5
11A
100
AcDbEntity
  8
0
  6
Continuous
 62
   174
100
AcDbLine
 10
259.379989
 20
194.459009
 30
0.0
 11
259.679366
 21
192.481707
 31
0.0
  0
ARC
  5
11B
100
AcDbEntity
  8
0
  6
Continuous
 62
   174
100
AcDbCircle
 10
227.181111
 20
193.595988
 30
0.0
 40
3.0
100
AcDbArc
 50
270.0
 51
331.328147
  0
ARC
  5
11C
100
AcDbEntity
  8
0
  6
HIDDEN
 62
   174
100
AcDbCircle
 10
227.181111
 20
193.595988
 30
0.0
 40
3.0
100
AcDbArc
 50
291.399132
 51
327.449508
  0
ARC
  5
11D
100
AcDbEntity
  8
0
  6
HIDDEN
 62
   174
100
AcDbCircle
 10
227.181111
 20
193.595988
 30
0.0
 40
3.0
100
AcDbArc
 50
8.60957
 51
31.192124
  0
ARC
  5
11E
100
AcDbEntity
  8
0
  6
HIDDEN
 62
   174
100
AcDbCircle
 10
227.181111
 20
193.595988
 30
0.0
 40
3.0
100
AcDbArc
 50
270.0
 51
330.0
  0
ARC
  5
11F
100
AcDbEntity
  8
0
  6
Continuous
 62
   174
100
AcDbCircle
 10
265.823533
 20
205.341175
 30
0.0
 40
3.0
100
AcDbArc
 50
204.172414
 51
216.606542
  0
ARC
  5
120
100
AcDbEntity
  8
0
  6
Continuous
 62
   174
100
AcDbCircle
 10
265.823533
 20
205.341175
 30
0.0
 40
3.0
100
AcDbArc
 50
-2.060702
 51
8.60957
  0
ARC
  5
121
100
AcDbEntity
  8
0
  6
HIDDEN
 62
   174
100
AcDbCircle
 10
265.823533
 20
205.341175
 30
0.0
 40
8.0
100
AcDbArc
 50
301.762193
 51
327.439292
  0
LINE
  5
122
100
AcDbEntity
  8
0
  6
HIDDEN
 62
   174
100
AcDbLine
 10
280.181111
 20
158.645988
 30
0.0
 11
262.181111
 21
158.645988
 31
0.0
  0
ARC
  5
123
100
AcDbEntity
  8
0
  6
HIDDEN
 62
   174
100
AcDbCircle
 10
265.823533
 20
205.341175
 30
0.0
 40
3.0
100
AcDbArc
 50
254.883606
 51
265.820008
  0
ARC
  5
124
100
AcDbEntity
  8
0
  6
HIDDEN
 62
   174
100
AcDbCircle
 10
265.823533
 20
205.341175
 30
0.0
 40
3.0
100
AcDbArc
 50
-2.060702
 51
8.60957
  0
LINE
  5
125
100
AcDbEntity
  8
0
  6
Continuous
 62
   174
100
AcDbLine
 10
259.111286
 20
196.23372
 30
0.0
 11
259.384945
 21
194.426274
 31
0.0
  0
LINE
  5
126
100
AcDbEntity
  8
0
  6
HIDDEN
 62
   174
100
AcDbLine
 10
266.181111
 20
109.145988
 30
0.0
 11
280.181111
 21
109.145988
 31
0.0
  0
ARC
  5
127
100
AcDbEntity
  8
0
  6
Continuous
 62
   174
100
AcDbCircle
 10
265.823533
 20
205.341175
 30
0.0
 40
3.0
100
AcDbArc
 50
306.186267
 51
319.24004
  0
LINE
  5
128
100
AcDbEntity
  8
0
  6
Continuous
 62
   174
100
AcDbLine
 10
259.684346
 20
192.448811
 30
0.0
 11
240.89845
 21
189.604502
 31
0.0
  0
LINE
  5
129
100
AcDbEntity
  8
0
  6
HIDDEN
 62
   174
100
AcDbLine
 10
234.055148
 20
202.727939
 30
0.0
 11
228.560335
 21
201.895988
 31
0.0
  0
LINE
  5
12A
100
AcDbEntity
  8
0
  6
HIDDEN
 62
   174
100
AcDbLine
 10
234.181111
 20
143.625988
 30
0.0
 11
220.181111
 21
143.625988
 31
0.0
  0
LINE
  5
12B
100
AcDbEntity
  8
0
  6
HIDDEN
 62
   174
100
AcDbLine
 10
266.181111
 20
140.207348
 30
0.0
 11
266.181111
 21
159.665937
 31
0.0
  0
ARC
  5
12C
100
AcDbEntity
  8
0
  6
HIDDEN
 62
   174
100
AcDbCircle
 10
265.823533
 20
205.341175
 30
0.0
 40
3.0
100
AcDbArc
 50
164.895037
 51
177.939298
  0
LINE
  5
12D
100
AcDbEntity
  8
0
  6
HIDDEN
 62
   174
100
AcDbLine
 10
280.181111
 20
141.145988
 30
0.0
 11
262.181111
 21
141.145988
 31
0.0
  0
LINE
  5
12E
100
AcDbEntity
  8
0
  6
HIDDEN
 62
   174
100
AcDbLine
 10
259.325065
 20
194.821766
 30
0.0
 11
240.539169
 21
191.977457
 31
0.0
  0
ARC
  5
12F
100
AcDbEntity
  8
0
  6
HIDDEN
 62
   174
100
AcDbCircle
 10
234.181111
 20
165.895988
 30
0.0
 40
7.5
100
AcDbArc
 50
-90.0
 51
90.0
  0
LINE
  5
130
100
AcDbEntity
  8
0
  6
HIDDEN
 62
   174
100
AcDbLine
 10
221.104825
 20
200.767174
 30
0.0
 11
220.181111
 21
192.074037
 31
0.0
  0
ARC
  5
131
100
AcDbEntity
  8
0
  6
Continuous
 62
   174
100
AcDbCircle
 10
265.823533
 20
205.341175
 30
0.0
 40
3.0
100
AcDbArc
 50
85.820008
 51
100.510033
  0
ARC
  5
132
100
AcDbEntity
  8
0
  6
Continuous
 62
   174
100
AcDbCircle
 10
265.823533
 20
205.341175
 30
0.0
 40
3.0
100
AcDbArc
 50
177.939298
 51
188.60957
  0
LINE
  5
133
100
AcDbEntity
  8
0
  6
HIDDEN
 62
   174
100
AcDbLine
 10
257.885633
 20
206.336032
 30
0.0
 11
234.055148
 21
202.727939
 31
0.0
  0
ARC
  5
134
100
AcDbEntity
  8
0
  6
HIDDEN
 62
   174
100
AcDbCircle
 10
227.181111
 20
193.595988
 30
0.0
 40
3.0
100
AcDbArc
 50
327.449508
 51
332.4817
  0
ARC
  5
135
100
AcDbEntity
  8
0
  6
HIDDEN
 62
   174
100
AcDbCircle
 10
227.181111
 20
193.595988
 30
0.0
 40
3.0
100
AcDbArc
 50
31.192124
 51
60.224288
  0
LINE
  5
136
100
AcDbEntity
  8
0
  6
HIDDEN
 62
   174
100
AcDbLine
 10
234.181111
 20
143.625988
 30
0.0
 11
220.181111
 21
143.625988
 31
0.0
  0
ARC
  5
137
100
AcDbEntity
  8
0
  6
HIDDEN
 62
   174
100
AcDbCircle
 10
227.181111
 20
193.595988
 30
0.0
 40
3.0
100
AcDbArc
 50
210.0
 51
270.0
  0
ARC
  5
138
100
AcDbEntity
  8
0
  6
Continuous
 62
   174
100
AcDbCircle
 10
265.823533
 20
205.341175
 30
0.0
 40
3.0
100
AcDbArc
 50
188.60957
 51
204.172414
  0
ARC
  5
139
100
AcDbEntity
  8
0
  6
Continuous
 62
   174
100
AcDbCircle
 10
265.823533
 20
205.341175
 30
0.0
 40
3.0
100
AcDbArc
 50
344.895037
 51
357.939298
  0
ARC
  5
13A
100
AcDbEntity
  8
0
  6
HIDDEN
 62
   174
100
AcDbCircle
 10
265.823533
 20
205.341175
 30
0.0
 40
8.0
100
AcDbArc
 50
278.60957
 51
301.762193
  0
LINE
  5
13B
100
AcDbEntity
  8
0
  6
HIDDEN
 62
   174
100
AcDbLine
 10
240.539169
 20
191.977457
 30
0.0
 11
240.179888
 21
194.350412
 31
0.0
  0
ARC
  5
13C
100
AcDbEntity
  8
0
  6
Continuous
 62
   174
100
AcDbCircle
 10
227.181111
 20
193.595988
 30
0.0
 40
3.0
100
AcDbArc
 50
211.101124
 51
270.0
  0
ARC
  5
13D
100
AcDbEntity
  8
0
  6
HIDDEN
 62
   174
100
AcDbCircle
 10
265.823533
 20
205.341175
 30
0.0
 40
3.0
100
AcDbArc
 50
265.820008
 51
280.510033
  0
ARC
  5
13E
100
AcDbEntity
  8
0
  6
HIDDEN
 62
   174
100
AcDbCircle
 10
265.823533
 20
205.341175
 30
0.0
 40
3.0
100
AcDbArc
 50
8.60957
 51
24.172414
  0
LINE
  5
13F
100
AcDbEntity
  8
0
  6
HIDDEN
 62
   174
100
AcDbLine
 10
280.181111
 20
158.645988
 30
0.0
 11
262.181111
 21
158.645988
 31
0.0
  0
ARC
  5
140
100
AcDbEntity
  8
0
  6
Continuous
 62
   174
100
AcDbCircle
 10
265.823533
 20
205.341175
 30
0.0
 40
3.0
100
AcDbArc
 50
291.399132
 51
306.186267
  0
ARC
  5
141
100
AcDbEntity
  8
0
  6
Continuous
 62
   174
100
AcDbCircle
 10
266.181111
 20
165.895988
 30
0.0
 40
7.5
100
AcDbArc
 50
90.0
 51
270.0
  0
LINE
  5
142
100
AcDbEntity
  8
0
  6
HIDDEN
 62
   174
100
AcDbLine
 10
280.181111
 20
140.207348
 30
0.0
 11
280.181111
 21
159.665937
 31
0.0
  0
ARC
  5
143
100
AcDbEntity
  8
0
  6
HIDDEN
 62
   174
100
AcDbCircle
 10
265.823533
 20
205.341175
 30
0.0
 40
3.0
100
AcDbArc
 50
177.939298
 51
188.60957
  0
ARC
  5
144
100
AcDbEntity
  8
0
  6
HIDDEN
 62
   174
100
AcDbCircle
 10
227.181111
 20
193.595988
 30
0.0
 40
3.0
100
AcDbArc
 50
188.60957
 51
211.192124
  0
LINE
  5
145
100
AcDbEntity
  8
0
  6
HIDDEN
 62
   174
100
AcDbLine
 10
234.181111
 20
124.165988
 30
0.0
 11
220.181111
 21
124.165988
 31
0.0
  0
ARC
  5
146
100
AcDbEntity
  8
0
  6
Continuous
 62
   174
100
AcDbCircle
 10
265.823533
 20
205.341175
 30
0.0
 40
3.0
100
AcDbArc
 50
74.883606
 51
85.820008
  0
LINE
  5
147
100
AcDbEntity
  8
0
  6
HIDDEN
 62
   174
100
AcDbLine
 10
234.181111
 20
143.66684
 30
0.0
 11
234.181111
 21
124.20825
 31
0.0
  0
LINE
  5
148
100
AcDbEntity
  8
0
  6
HIDDEN
 62
   174
100
AcDbLine
 10
220.181111
 20
142.645988
 30
0.0
 11
238.181111
 21
142.645988
 31
0.0
  0
ARC
  5
149
100
AcDbEntity
  8
0
  6
Continuous
 62
   174
100
AcDbCircle
 10
265.823533
 20
205.341175
 30
0.0
 40
3.0
100
AcDbArc
 50
164.895037
 51
177.939298
  0
LINE
  5
14A
100
AcDbEntity
  8
0
  6
Continuous
 62
   174
100
AcDbLine
 10
254.206853
 20
190.061139
 30
0.0
 11
251.439199
 21
190.061139
 31
0.0
  0
ARC
  5
14B
100
AcDbEntity
  8
0
  6
HIDDEN
 62
   174
100
AcDbCircle
 10
227.181111
 20
193.595988
 30
0.0
 40
3.0
100
AcDbArc
 50
327.449508
 51
332.4817
  0
ARC
  5
14C
100
AcDbEntity
  8
0
  6
HIDDEN
 62
   174
100
AcDbCircle
 10
227.181111
 20
193.595988
 30
0.0
 40
3.0
100
AcDbArc
 50
-27.5183
 51
8.60957
  0
ARC
  5
14D
100
AcDbEntity
  8
0
  6
HIDDEN
 62
   174
100
AcDbCircle
 10
227.181111
 20
193.595988
 30
0.0
 40
3.0
100
AcDbArc
 50
60.224288
 51
88.946915
  0
LINE
  5
14E
100
AcDbEntity
  8
0
  6
HIDDEN
 62
   174
100
AcDbLine
 10
266.181111
 20
141.145988
 30
0.0
 11
280.181111
 21
141.145988
 31
0.0
  0
ARC
  5
14F
100
AcDbEntity
  8
0
  6
HIDDEN
 62
   174
100
AcDbCircle
 10
227.181111
 20
193.595988
 30
0.0
 40
3.0
100
AcDbArc
 50
30.0
 51
90.0
  0
ARC
  5
150
100
AcDbEntity
  8
0
  6
Continuous
 62
   174
100
AcDbCircle
 10
265.823533
 20
205.341175
 30
0.0
 40
3.0
100
AcDbArc
 50
331.936671
 51
344.895037
  0
ARC
  5
151
100
AcDbEntity
  8
0
  6
HIDDEN
 62
   174
100
AcDbCircle
 10
265.823533
 20
205.341175
 30
0.0
 40
8.0
100
AcDbArc
 50
121.502045
 51
147.179197
  0
LINE
  5
152
100
AcDbEntity
  8
0
  6
Continuous
 62
   174
100
AcDbLine
 10
240.89346
 20
189.637461
 30
0.0
 11
240.594083
 21
191.614762
 31
0.0
  0
LINE
  5
153
100
AcDbEntity
  8
0
  6
HIDDEN
 62
   174
100
AcDbLine
 10
266.181111
 20
140.165988
 30
0.0
 11
280.181111
 21
140.165988
 31
0.0
  0
ARC
  5
154
100
AcDbEntity
  8
0
  6
HIDDEN
 62
   174
100
AcDbCircle
 10
265.823533
 20
205.341175
 30
0.0
 40
3.0
100
AcDbArc
 50
280.510033
 51
291.399132
  0
ARC
  5
155
100
AcDbEntity
  8
0
  6
HIDDEN
 62
   174
100
AcDbCircle
 10
265.823533
 20
205.341175
 30
0.0
 40
3.0
100
AcDbArc
 50
24.172414
 51
36.606542
  0
ARC
  5
156
100
AcDbEntity
  8
0
  6
HIDDEN
 62
   174
100
AcDbCircle
 10
265.823533
 20
205.341175
 30
0.0
 40
3.0
100
AcDbArc
 50
49.325396
 51
62.28956
  0
ARC
  5
157
100
AcDbEntity
  8
0
  6
Continuous
 62
   174
100
AcDbCircle
 10
265.823533
 20
205.341175
 30
0.0
 40
3.0
100
AcDbArc
 50
280.510033
 51
291.399132
  0
LINE
  5
158
100
AcDbEntity
  8
0
  6
HIDDEN
 62
   174
100
AcDbLine
 10
220.181111
 20
125.145988
 30
0.0
 11
238.181111
 21
125.145988
 31
0.0
  0
ARC
  5
159
100
AcDbEntity
  8
0
  6
Continuous
 62
   174
100
AcDbCircle
 10
234.181111
 20
165.895988
 30
0.0
 40
7.5
100
AcDbArc
 50
-90.0
 51
90.0
  0
LINE
  5
15A
100
AcDbEntity
  8
0
  6
HIDDEN
 62
   174
100
AcDbLine
 10
266.181111
 20
108.209453
 30
0.0
 11
266.181111
 21
127.668042
 31
0.0
  0
ARC
  5
15B
100
AcDbEntity
  8
0
  6
HIDDEN
 62
   174
100
AcDbCircle
 10
265.823533
 20
205.341175
 30
0.0
 40
3.0
100
AcDbArc
 50
85.820008
 51
100.510033
  0
LINE
  5
15C
100
AcDbEntity
  8
0
  6
HIDDEN
 62
   174
100
AcDbLine
 10
250.206628
 20
190.061139
 30
0.0
 11
246.206703
 21
190.061139
 31
0.0
  0
ARC
  5
15D
100
AcDbEntity
  8
0
  6
Continuous
 62
   174
100
AcDbCircle
 10
265.823533
 20
205.341175
 30
0.0
 40
3.0
100
AcDbArc
 50
62.28956
 51
74.883606
  0
LINE
  5
15E
100
AcDbEntity
  8
0
  6
HIDDEN
 62
   174
100
AcDbLine
 10
220.181111
 20
143.66684
 30
0.0
 11
220.181111
 21
124.20825
 31
0.0
  0
LINE
  5
15F
100
AcDbEntity
  8
0
  6
HIDDEN
 62
   174
100
AcDbLine
 10
246.130314
 20
190.396641
 30
0.0
 11
250.164242
 21
191.007404
 31
0.0
  0
LINE
  5
160
100
AcDbEntity
  8
0
  6
HIDDEN
 62
   174
100
AcDbLine
 10
266.181111
 20
159.625988
 30
0.0
 11
280.181111
 21
159.625988
 31
0.0
  0
LINE
  5
161
100
AcDbEntity
  8
0
  6
HIDDEN
 62
   174
100
AcDbLine
 10
266.181111
 20
109.145988
 30
0.0
 11
280.181111
 21
109.145988
 31
0.0
  0
ENDBLK
  5
162
100
AcDbEntity
  8
0
100
AcDbBlockEnd
  0
BLOCK
  5
165
100
AcDbEntity
  8
0
100
AcDbBlockBegin
  2
*B2
 70
     0
 10
0.0
 20
0.0
 30
0.0
  3
*B2
  1

  0
LINE
  5
166
100
AcDbEntity
  8
0
  6
Continuous
 62
   112
100
AcDbLine
 10
280.231111
 20
203.4
 30
0.0
 11
280.181111
 21
203.4
 31
0.0
  0
LINE
  5
167
100
AcDbEntity
  8
0
  6
Continuous
 62
   112
100
AcDbLine
 10
280.231111
 20
207.4
 30
0.0
 11
280.181111
 21
207.4
 31
0.0
  0
LINE
  5
168
100
AcDbEntity
  8
0
  6
Continuous
 62
   112
100
AcDbLine
 10
265.8
 20
215.4
 30
0.0
 11
265.981111
 21
215.4
 31
0.0
  0
ENDBLK
  5
169
100
AcDbEntity
  8
0
100
AcDbBlockEnd
  0
BLOCK
  5
16C
100
AcDbEntity
  8
0
100
AcDbBlockBegin
  2
*B3
 70
     0
 10
0.0
 20
0.0
 30
0.0
  3
*B3
  1

  0
LINE
  5
16D
100
AcDbEntity
  8
0
  6
HIDDEN
 62
   174
100
AcDbLine
 10
173.456117
 20
196.595988
 30
0.0
 11
167.956117
 21
196.595988
 31
0.0
  0
LINE
  5
16E
100
AcDbEntity
  8
0
  6
Continuous
 62
   174
100
AcDbLine
 10
147.456117
 20
196.595988
 30
0.0
 11
146.956117
 21
196.595988
 31
0.0
  0
LINE
  5
16F
100
AcDbEntity
  8
0
  6
Continuous
 62
   174
100
AcDbLine
 10
151.056117
 20
196.595988
 30
0.0
 11
149.856117
 21
196.595988
 31
0.0
  0
LINE
  5
170
100
AcDbEntity
  8
0
  6
Continuous
 62
   174
100
AcDbLine
 10
165.056117
 20
196.595988
 30
0.0
 11
163.656117
 21
196.595988
 31
0.0
  0
LINE
  5
171
100
AcDbEntity
  8
0
  6
Continuous
 62
   174
100
AcDbLine
 10
147.456117
 20
190.595988
 30
0.0
 11
146.956117
 21
190.595988
 31
0.0
  0
LINE
  5
172
100
AcDbEntity
  8
0
  6
Continuous
 62
   174
100
AcDbLine
 10
147.456117
 20
190.595988
 30
0.0
 11
146.956117
 21
190.595988
 31
0.0
  0
LINE
  5
173
100
AcDbEntity
  8
0
  6
Continuous
 62
   174
100
AcDbLine
 10
147.456117
 20
196.595988
 30
0.0
 11
146.956117
 21
196.595988
 31
0.0
  0
LINE
  5
174
100
AcDbEntity
  8
0
  6
Continuous
 62
   174
100
AcDbLine
 10
151.056117
 20
196.595988
 30
0.0
 11
149.856117
 21
196.595988
 31
0.0
  0
LINE
  5
175
100
AcDbEntity
  8
0
  6
Continuous
 62
   174
100
AcDbLine
 10
165.056117
 20
196.595988
 30
0.0
 11
163.656117
 21
196.595988
 31
0.0
  0
LINE
  5
176
100
AcDbEntity
  8
0
  6
HIDDEN
 62
   174
100
AcDbLine
 10
146.956117
 20
196.595988
 30
0.0
 11
141.456117
 21
196.595988
 31
0.0
  0
LINE
  5
177
100
AcDbEntity
  8
0
  6
HIDDEN
 62
   174
100
AcDbLine
 10
149.856117
 20
196.595988
 30
0.0
 11
147.456117
 21
196.595988
 31
0.0
  0
LINE
  5
178
100
AcDbEntity
  8
0
  6
HIDDEN
 62
   174
100
AcDbLine
 10
163.656117
 20
196.595988
 30
0.0
 11
151.056117
 21
196.595988
 31
0.0
  0
LINE
  5
179
100
AcDbEntity
  8
0
  6
HIDDEN
 62
   174
100
AcDbLine
 10
167.456117
 20
196.595988
 30
0.0
 11
165.056117
 21
196.595988
 31
0.0
  0
LINE
  5
17A
100
AcDbEntity
  8
0
  6
HIDDEN
 62
   174
100
AcDbLine
 10
146.956117
 20
190.595988
 30
0.0
 11
141.456117
 21
190.595988
 31
0.0
  0
LINE
  5
17B
100
AcDbEntity
  8
0
  6
HIDDEN
 62
   174
100
AcDbLine
 10
167.188738
 20
190.595988
 30
0.0
 11
165.056117
 21
190.595988
 31
0.0
  0
LINE
  5
17C
100
AcDbEntity
  8
0
  6
HIDDEN
 62
   174
100
AcDbLine
 10
146.956117
 20
190.595988
 30
0.0
 11
141.456117
 21
190.595988
 31
0.0
  0
LINE
  5
17D
100
AcDbEntity
  8
0
  6
HIDDEN
 62
   174
100
AcDbLine
 10
167.188738
 20
190.595988
 30
0.0
 11
165.056117
 21
190.595988
 31
0.0
  0
LINE
  5
17E
100
AcDbEntity
  8
0
  6
HIDDEN
 62
   174
100
AcDbLine
 10
146.956117
 20
196.595988
 30
0.0
 11
141.456117
 21
196.595988
 31
0.0
  0
LINE
  5
17F
100
AcDbEntity
  8
0
  6
Continuous
 62
   174
100
AcDbLine
 10
151.056117
 20
202.341175
 30
0.0
 11
149.856117
 21
202.341175
 31
0.0
  0
LINE
  5
180
100
AcDbEntity
  8
0
  6
Continuous
 62
   174
100
AcDbLine
 10
151.056117
 20
202.341175
 30
0.0
 11
149.856117
 21
202.341175
 31
0.0
  0
LINE
  5
181
100
AcDbEntity
  8
0
  6
Continuous
 62
   174
100
AcDbLine
 10
173.456117
 20
182.895988
 30
0.0
 11
141.456117
 21
182.895988
 31
0.0
  0
LINE
  5
182
100
AcDbEntity
  8
0
  6
Continuous
 62
   174
100
AcDbLine
 10
149.856117
 20
196.23372
 30
0.0
 11
147.456117
 21
196.23372
 31
0.0
  0
LINE
  5
183
100
AcDbEntity
  8
0
  6
HIDDEN
 62
   174
100
AcDbLine
 10
149.856117
 20
193.452209
 30
0.0
 11
149.856117
 21
189.604502
 31
0.0
  0
LINE
  5
184
100
AcDbEntity
  8
0
  6
HIDDEN
 62
   174
100
AcDbLine
 10
151.056117
 20
195.741175
 30
0.0
 11
151.456117
 21
195.341175
 31
0.0
  0
LINE
  5
185
100
AcDbEntity
  8
0
  6
Continuous
 62
   174
100
AcDbLine
 10
151.456117
 20
215.341175
 30
0.0
 11
163.256117
 21
215.341175
 31
0.0
  0
LINE
  5
186
100
AcDbEntity
  8
0
  6
Continuous
 62
   174
100
AcDbLine
 10
149.856117
 20
186.728836
 30
0.0
 11
149.856117
 21
184.320221
 31
0.0
  0
LINE
  5
187
100
AcDbEntity
  8
0
  6
Continuous
 62
   174
100
AcDbLine
 10
163.656117
 20
197.151375
 30
0.0
 11
163.656117
 21
196.208096
 31
0.0
  0
LINE
  5
188
100
AcDbEntity
  8
0
  6
HIDDEN
 62
   174
100
AcDbLine
 10
167.956117
 20
196.595988
 30
0.0
 11
167.456117
 21
196.595988
 31
0.0
  0
LINE
  5
189
100
AcDbEntity
  8
0
  6
HIDDEN
 62
   174
100
AcDbLine
 10
149.856117
 20
208.341175
 30
0.0
 11
147.456117
 21
208.341175
 31
0.0
  0
LINE
  5
18A
100
AcDbEntity
  8
0
  6
HIDDEN
 62
   174
100
AcDbLine
 10
163.656117
 20
202.341175
 30
0.0
 11
151.056117
 21
202.341175
 31
0.0
  0
LINE
  5
18B
100
AcDbEntity
  8
0
  6
HIDDEN
 62
   174
100
AcDbLine
 10
167.456117
 20
204.710226
 30
0.0
 11
167.456117
 21
202.377863
 31
0.0
  0
LINE
  5
18C
100
AcDbEntity
  8
0
  6
HIDDEN
 62
   174
100
AcDbLine
 10
149.856117
 20
193.452209
 30
0.0
 11
147.456117
 21
193.452209
 31
0.0
  0
LINE
  5
18D
100
AcDbEntity
  8
0
  6
Continuous
 62
   174
100
AcDbLine
 10
151.456117
 20
215.377092
 30
0.0
 11
151.456117
 21
215.358467
 31
0.0
  0
LINE
  5
18E
100
AcDbEntity
  8
0
  6
Continuous
 62
   174
100
AcDbLine
 10
149.856117
 20
197.431324
 30
0.0
 11
149.856117
 21
196.23372
 31
0.0
  0
LINE
  5
18F
100
AcDbEntity
  8
0
  6
Continuous
 62
   174
100
AcDbLine
 10
163.656117
 20
204.794641
 30
0.0
 11
163.656117
 21
197.151375
 31
0.0
  0
LINE
  5
190
100
AcDbEntity
  8
0
  6
Continuous
 62
   174
100
AcDbLine
 10
163.656117
 20
214.97695
 30
0.0
 11
163.656117
 21
214.135509
 31
0.0
  0
LINE
  5
191
100
AcDbEntity
  8
0
  6
HIDDEN
 62
   174
100
AcDbLine
 10
173.456117
 20
196.595988
 30
0.0
 11
167.956117
 21
196.595988
 31
0.0
  0
LINE
  5
192
100
AcDbEntity
  8
0
  6
HIDDEN
 62
   174
100
AcDbLine
 10
147.723495
 20
190.595988
 30
0.0
 11
147.456117
 21
190.595988
 31
0.0
  0
LINE
  5
193
100
AcDbEntity
  8
0
  6
HIDDEN
 62
   174
100
AcDbLine
 10
167.456117
 20
190.595988
 30
0.0
 11
167.188738
 21
190.595988
 31
0.0
  0
LINE
  5
194
100
AcDbEntity
  8
0
  6
HIDDEN
 62
   174
100
AcDbLine
 10
147.723495
 20
190.595988
 30
0.0
 11
147.456117
 21
190.595988
 31
0.0
  0
LINE
  5
195
100
AcDbEntity
  8
0
  6
HIDDEN
 62
   174
100
AcDbLine
 10
167.456117
 20
190.595988
 30
0.0
 11
167.188738
 21
190.595988
 31
0.0
  0
LINE
  5
196
100
AcDbEntity
  8
0
  6
HIDDEN
 62
   174
100
AcDbLine
 10
149.856117
 20
196.595988
 30
0.0
 11
147.456117
 21
196.595988
 31
0.0
  0
LINE
  5
197
100
AcDbEntity
  8
0
  6
Continuous
 62
   174
100
AcDbLine
 10
165.056117
 20
202.341175
 30
0.0
 11
163.656117
 21
202.341175
 31
0.0
  0
LINE
  5
198
100
AcDbEntity
  8
0
  6
Continuous
 62
   174
100
AcDbLine
 10
165.056117
 20
202.341175
 30
0.0
 11
163.656117
 21
202.341175
 31
0.0
  0
LINE
  5
199
100
AcDbEntity
  8
0
  6
Continuous
 62
   174
100
AcDbLine
 10
141.456117
 20
201.895988
 30
0.0
 11
146.956117
 21
201.895988
 31
0.0
  0
LINE
  5
19A
100
AcDbEntity
  8
0
  6
Continuous
 62
   174
100
AcDbLine
 10
149.856117
 20
189.604502
 30
0.0
 11
149.856117
 21
186.728836
 31
0.0
  0
LINE
  5
19B
100
AcDbEntity
  8
0
  6
Continuous
 62
   174
100
AcDbLine
 10
173.456117
 20
97.895988
 30
0.0
 11
173.456117
 21
182.895988
 31
0.0
  0
LINE
  5
19C
100
AcDbEntity
  8
0
  6
Continuous
 62
   174
100
AcDbLine
 10
151.456117
 20
196.381431
 30
0.0
 11
151.456117
 21
195.37837
 31
0.0
  0
LINE
  5
19D
100
AcDbEntity
  8
0
  6
HIDDEN
 62
   174
100
AcDbLine
 10
163.256117
 20
215.377092
 30
0.0
 11
163.256117
 21
205.985155
 31
0.0
  0
LINE
  5
19E
100
AcDbEntity
  8
0
  6
HIDDEN
 62
   174
100
AcDbLine
 10
141.456117
 20
196.633172
 30
0.0
 11
141.456117
 21
190.633736
 31
0.0
  0
LINE
  5
19F
100
AcDbEntity
  8
0
  6
HIDDEN
 62
   174
100
AcDbLine
 10
149.856117
 20
202.341175
 30
0.0
 11
147.456117
 21
202.341175
 31
0.0
  0
LINE
  5
1A0
100
AcDbEntity
  8
0
  6
HIDDEN
 62
   174
100
AcDbLine
 10
163.656117
 20
208.341175
 30
0.0
 11
151.056117
 21
208.341175
 31
0.0
  0
LINE
  5
1A1
100
AcDbEntity
  8
0
  6
HIDDEN
 62
   174
100
AcDbLine
 10
167.456117
 20
202.341175
 30
0.0
 11
165.056117
 21
202.341175
 31
0.0
  0
LINE
  5
1A2
100
AcDbEntity
  8
0
  6
HIDDEN
 62
   174
100
AcDbLine
 10
167.456117
 20
204.924417
 30
0.0
 11
167.456117
 21
204.710226
 31
0.0
  0
LINE
  5
1A3
100
AcDbEntity
  8
0
  6
HIDDEN
 62
   174
100
AcDbLine
 10
149.856117
 20
184.320221
 30
0.0
 11
147.456117
 21
184.320221
 31
0.0
  0
LINE
  5
1A4
100
AcDbEntity
  8
0
  6
HIDDEN
 62
   174
100
AcDbLine
 10
149.856117
 20
194.350412
 30
0.0
 11
147.456117
 21
194.350412
 31
0.0
  0
LINE
  5
1A5
100
AcDbEntity
  8
0
  6
HIDDEN
 62
   174
100
AcDbLine
 10
149.856117
 20
194.350412
 30
0.0
 11
149.856117
 21
193.452209
 31
0.0
  0
LINE
  5
1A6
100
AcDbEntity
  8
0
  6
Continuous
 62
   174
100
AcDbLine
 10
163.256117
 20
196.381431
 30
0.0
 11
163.256117
 21
195.37837
 31
0.0
  0
LINE
  5
1A7
100
AcDbEntity
  8
0
  6
Continuous
 62
   174
100
AcDbLine
 10
163.256117
 20
213.778324
 30
0.0
 11
163.256117
 21
204.770308
 31
0.0
  0
LINE
  5
1A8
100
AcDbEntity
  8
0
  6
Continuous
 62
   174
100
AcDbLine
 10
163.656117
 20
214.135509
 30
0.0
 11
163.656117
 21
204.794641
 31
0.0
  0
LINE
  5
1A9
100
AcDbEntity
  8
0
  6
HIDDEN
 62
   174
100
AcDbLine
 10
149.856117
 20
190.595988
 30
0.0
 11
147.723495
 21
190.595988
 31
0.0
  0
LINE
  5
1AA
100
AcDbEntity
  8
0
  6
HIDDEN
 62
   174
100
AcDbLine
 10
167.956117
 20
190.595988
 30
0.0
 11
167.456117
 21
190.595988
 31
0.0
  0
LINE
  5
1AB
100
AcDbEntity
  8
0
  6
HIDDEN
 62
   174
100
AcDbLine
 10
149.856117
 20
190.595988
 30
0.0
 11
147.723495
 21
190.595988
 31
0.0
  0
LINE
  5
1AC
100
AcDbEntity
  8
0
  6
HIDDEN
 62
   174
100
AcDbLine
 10
167.956117
 20
190.595988
 30
0.0
 11
167.456117
 21
190.595988
 31
0.0
  0
LINE
  5
1AD
100
AcDbEntity
  8
0
  6
HIDDEN
 62
   174
100
AcDbLine
 10
163.656117
 20
196.595988
 30
0.0
 11
151.056117
 21
196.595988
 31
0.0
  0
LINE
  5
1AE
100
AcDbEntity
  8
0
  6
Continuous
 62
   174
100
AcDbLine
 10
151.056117
 20
208.341175
 30
0.0
 11
149.856117
 21
208.341175
 31
0.0
  0
LINE
  5
1AF
100
AcDbEntity
  8
0
  6
Continuous
 62
   174
100
AcDbLine
 10
151.056117
 20
208.341175
 30
0.0
 11
149.856117
 21
208.341175
 31
0.0
  0
LINE
  5
1B0
100
AcDbEntity
  8
0
  6
Continuous
 62
   174
100
AcDbLine
 10
149.856117
 20
186.728836
 30
0.0
 11
147.456117
 21
186.728836
 31
0.0
  0
LINE
  5
1B1
100
AcDbEntity
  8
0
  6
Continuous
 62
   174
100
AcDbLine
 10
151.456117
 20
204.770308
 30
0.0
 11
151.456117
 21
196.381431
 31
0.0
  0
LINE
  5
1B2
100
AcDbEntity
  8
0
  6
HIDDEN
 62
   174
100
AcDbLine
 10
151.456117
 20
205.985155
 30
0.0
 11
151.456117
 21
195.37837
 31
0.0
  0
LINE
  5
1B3
100
AcDbEntity
  8
0
  6
Continuous
 62
   174
100
AcDbLine
 10
163.256117
 20
204.770308
 30
0.0
 11
163.256117
 21
196.381431
 31
0.0
  0
LINE
  5
1B4
100
AcDbEntity
  8
0
  6
Continuous
 62
   174
100
AcDbLine
 10
163.256117
 20
215.377092
 30
0.0
 11
163.256117
 21
213.778324
 31
0.0
  0
LINE
  5
1B5
100
AcDbEntity
  8
0
  6
Continuous
 62
   174
100
AcDbLine
 10
151.056117
 20
214.135509
 30
0.0
 11
151.056117
 21
204.794641
 31
0.0
  0
LINE
  5
1B6
100
AcDbEntity
  8
0
  6
HIDDEN
 62
   174
100
AcDbLine
 10
163.656117
 20
202.341175
 30
0.0
 11
151.056117
 21
202.341175
 31
0.0
  0
LINE
  5
1B7
100
AcDbEntity
  8
0
  6
HIDDEN
 62
   174
100
AcDbLine
 10
167.456117
 20
208.341175
 30
0.0
 11
165.056117
 21
208.341175
 31
0.0
  0
LINE
  5
1B8
100
AcDbEntity
  8
0
  6
HIDDEN
 62
   174
100
AcDbLine
 10
149.856117
 20
208.341175
 30
0.0
 11
147.456117
 21
208.341175
 31
0.0
  0
LINE
  5
1B9
100
AcDbEntity
  8
0
  6
HIDDEN
 62
   174
100
AcDbLine
 10
147.456117
 20
204.924417
 30
0.0
 11
147.456117
 21
204.710226
 31
0.0
  0
LINE
  5
1BA
100
AcDbEntity
  8
0
  6
HIDDEN
 62
   174
100
AcDbLine
 10
167.456117
 20
208.3776
 30
0.0
 11
167.456117
 21
204.924417
 31
0.0
  0
LINE
  5
1BB
100
AcDbEntity
  8
0
  6
Continuous
 62
   174
100
AcDbLine
 10
149.856117
 20
213.341175
 30
0.0
 11
147.456117
 21
213.341175
 31
0.0
  0
LINE
  5
1BC
100
AcDbEntity
  8
0
  6
Continuous
 62
   174
100
AcDbLine
 10
141.456117
 20
97.895988
 30
0.0
 11
141.456117
 21
182.895988
 31
0.0
  0
LINE
  5
1BD
100
AcDbEntity
  8
0
  6
HIDDEN
 62
   174
100
AcDbLine
 10
151.056117
 20
214.941175
 30
0.0
 11
151.456117
 21
215.341175
 31
0.0
  0
LINE
  5
1BE
100
AcDbEntity
  8
0
  6
Continuous
 62
   174
100
AcDbLine
 10
151.056117
 20
197.151375
 30
0.0
 11
151.056117
 21
196.208096
 31
0.0
  0
LINE
  5
1BF
100
AcDbEntity
  8
0
  6
HIDDEN
 62
   174
100
AcDbLine
 10
165.056117
 20
190.595988
 30
0.0
 11
149.856117
 21
190.595988
 31
0.0
  0
LINE
  5
1C0
100
AcDbEntity
  8
0
  6
HIDDEN
 62
   174
100
AcDbLine
 10
173.456117
 20
190.595988
 30
0.0
 11
167.956117
 21
190.595988
 31
0.0
  0
LINE
  5
1C1
100
AcDbEntity
  8
0
  6
HIDDEN
 62
   174
100
AcDbLine
 10
165.056117
 20
190.595988
 30
0.0
 11
149.856117
 21
190.595988
 31
0.0
  0
LINE
  5
1C2
100
AcDbEntity
  8
0
  6
HIDDEN
 62
   174
100
AcDbLine
 10
173.456117
 20
190.595988
 30
0.0
 11
167.956117
 21
190.595988
 31
0.0
  0
LINE
  5
1C3
100
AcDbEntity
  8
0
  6
HIDDEN
 62
   174
100
AcDbLine
 10
167.456117
 20
196.595988
 30
0.0
 11
165.056117
 21
196.595988
 31
0.0
  0
LINE
  5
1C4
100
AcDbEntity
  8
0
  6
HIDDEN
 62
   174
100
AcDbLine
 10
173.456117
 20
196.633172
 30
0.0
 11
173.456117
 21
190.633736
 31
0.0
  0
LINE
  5
1C5
100
AcDbEntity
  8
0
  6
Continuous
 62
   174
100
AcDbLine
 10
165.056117
 20
208.341175
 30
0.0
 11
163.656117
 21
208.341175
 31
0.0
  0
LINE
  5
1C6
100
AcDbEntity
  8
0
  6
Continuous
 62
   174
100
AcDbLine
 10
165.056117
 20
208.341175
 30
0.0
 11
163.656117
 21
208.341175
 31
0.0
  0
LINE
  5
1C7
100
AcDbEntity
  8
0
  6
HIDDEN
 62
   174
100
AcDbLine
 10
163.656117
 20
208.341175
 30
0.0
 11
151.056117
 21
208.341175
 31
0.0
  0
LINE
  5
1C8
100
AcDbEntity
  8
0
  6
HIDDEN
 62
   174
100
AcDbLine
 10
149.856117
 20
206.336032
 30
0.0
 11
147.456117
 21
206.336032
 31
0.0
  0
LINE
  5
1C9
100
AcDbEntity
  8
0
  6
Continuous
 62
   174
100
AcDbLine
 10
173.456117
 20
97.895988
 30
0.0
 11
141.456117
 21
97.895988
 31
0.0
  0
LINE
  5
1CA
100
AcDbEntity
  8
0
  6
Continuous
 62
   174
100
AcDbLine
 10
149.856117
 20
197.431324
 30
0.0
 11
147.456117
 21
197.431324
 31
0.0
  0
LINE
  5
1CB
100
AcDbEntity
  8
0
  6
Continuous
 62
   174
100
AcDbLine
 10
151.456117
 20
195.341175
 30
0.0
 11
163.256117
 21
195.341175
 31
0.0
  0
LINE
  5
1CC
100
AcDbEntity
  8
0
  6
HIDDEN
 62
   174
100
AcDbLine
 10
151.456117
 20
215.377092
 30
0.0
 11
151.456117
 21
205.985155
 31
0.0
  0
LINE
  5
1CD
100
AcDbEntity
  8
0
  6
Continuous
 62
   174
100
AcDbLine
 10
151.456117
 20
213.778324
 30
0.0
 11
151.456117
 21
204.770308
 31
0.0
  0
LINE
  5
1CE
100
AcDbEntity
  8
0
  6
HIDDEN
 62
   174
100
AcDbLine
 10
163.256117
 20
205.985155
 30
0.0
 11
163.256117
 21
195.37837
 31
0.0
  0
LINE
  5
1CF
100
AcDbEntity
  8
0
  6
Continuous
 62
   174
100
AcDbLine
 10
163.656117
 20
196.208096
 30
0.0
 11
163.656117
 21
195.778513
 31
0.0
  0
LINE
  5
1D0
100
AcDbEntity
  8
0
  6
HIDDEN
 62
   174
100
AcDbLine
 10
167.956117
 20
196.595988
 30
0.0
 11
167.456117
 21
196.595988
 31
0.0
  0
LINE
  5
1D1
100
AcDbEntity
  8
0
  6
HIDDEN
 62
   174
100
AcDbLine
 10
167.456117
 20
208.341175
 30
0.0
 11
165.056117
 21
208.341175
 31
0.0
  0
LINE
  5
1D2
100
AcDbEntity
  8
0
  6
HIDDEN
 62
   174
100
AcDbLine
 10
167.456117
 20
202.341175
 30
0.0
 11
165.056117
 21
202.341175
 31
0.0
  0
LINE
  5
1D3
100
AcDbEntity
  8
0
  6
HIDDEN
 62
   174
100
AcDbLine
 10
149.856117
 20
202.341175
 30
0.0
 11
147.456117
 21
202.341175
 31
0.0
  0
LINE
  5
1D4
100
AcDbEntity
  8
0
  6
HIDDEN
 62
   174
100
AcDbLine
 10
147.456117
 20
204.710226
 30
0.0
 11
147.456117
 21
202.377863
 31
0.0
  0
LINE
  5
1D5
100
AcDbEntity
  8
0
  6
HIDDEN
 62
   174
100
AcDbLine
 10
147.456117
 20
208.3776
 30
0.0
 11
147.456117
 21
204.924417
 31
0.0
  0
LINE
  5
1D6
100
AcDbEntity
  8
0
  6
HIDDEN
 62
   174
100
AcDbLine
 10
149.856117
 20
200.767174
 30
0.0
 11
147.456117
 21
200.767174
 31
0.0
  0
LINE
  5
1D7
100
AcDbEntity
  8
0
  6
HIDDEN
 62
   174
100
AcDbLine
 10
163.656117
 20
214.941175
 30
0.0
 11
163.256117
 21
215.341175
 31
0.0
  0
LINE
  5
1D8
100
AcDbEntity
  8
0
  6
HIDDEN
 62
   174
100
AcDbLine
 10
163.656117
 20
195.741175
 30
0.0
 11
163.256117
 21
195.341175
 31
0.0
  0
LINE
  5
1D9
100
AcDbEntity
  8
0
  6
Continuous
 62
   174
100
AcDbLine
 10
151.456117
 20
215.358467
 30
0.0
 11
151.456117
 21
213.778324
 31
0.0
  0
LINE
  5
1DA
100
AcDbEntity
  8
0
  6
Continuous
 62
   174
100
AcDbLine
 10
151.056117
 20
204.794641
 30
0.0
 11
151.056117
 21
197.151375
 31
0.0
  0
LINE
  5
1DB
100
AcDbEntity
  8
0
  6
Continuous
 62
   174
100
AcDbLine
 10
141.456117
 20
182.895988
 30
0.0
 11
141.456117
 21
201.895988
 31
0.0
  0
LINE
  5
1DC
100
AcDbEntity
  8
0
  6
Continuous
 62
   174
100
AcDbLine
 10
165.056117
 20
189.604502
 30
0.0
 11
165.056117
 21
186.728836
 31
0.0
  0
LINE
  5
1DD
100
AcDbEntity
  8
0
  6
HIDDEN
 62
   174
100
AcDbLine
 10
153.456117
 20
184.295988
 30
0.0
 11
161.456117
 21
184.295988
 31
0.0
  0
ARC
  5
1DE
100
AcDbEntity
  8
0
  6
Continuous
 62
   174
100
AcDbCircle
 10
157.456117
 20
117.895988
 30
0.0
 40
9.73
100
AcDbArc
 50
-269.296546
 51
-151.197359
  0
LINE
  5
1DF
100
AcDbEntity
  8
0
  6
Continuous
 62
   174
100
AcDbLine
 10
157.481675
 20
190.061139
 30
0.0
 11
153.48175
 21
190.061139
 31
0.0
  0
LINE
  5
1E0
100
AcDbEntity
  8
0
  6
HIDDEN
 62
   174
100
AcDbLine
 10
149.856117
 20
193.184195
 30
0.0
 11
149.856117
 21
193.499622
 31
0.0
  0
LINE
  5
1E1
100
AcDbEntity
  8
0
  6
HIDDEN
 62
   174
100
AcDbLine
 10
149.856117
 20
191.029673
 30
0.0
 11
149.856117
 21
191.931496
 31
0.0
  0
LINE
  5
1E2
100
AcDbEntity
  8
0
  6
HIDDEN
 62
   174
100
AcDbLine
 10
141.456117
 20
158.395988
 30
0.0
 11
149.856117
 21
158.395988
 31
0.0
  0
ARC
  5
1E3
100
AcDbEntity
  8
0
  6
Continuous
 62
   174
100
AcDbCircle
 10
157.456117
 20
149.895988
 30
0.0
 40
8.75
100
AcDbArc
 50
44.060957
 51
45.697631
  0
LINE
  5
1E4
100
AcDbEntity
  8
0
  6
HIDDEN
 62
   174
100
AcDbLine
 10
167.456117
 20
208.341175
 30
0.0
 11
165.056117
 21
208.341175
 31
0.0
  0
LINE
  5
1E5
100
AcDbEntity
  8
0
  6
HIDDEN
 62
   174
100
AcDbLine
 10
147.456117
 20
191.931496
 30
0.0
 11
147.456117
 21
193.184195
 31
0.0
  0
LINE
  5
1E6
100
AcDbEntity
  8
0
  6
Continuous
 62
   174
100
AcDbLine
 10
149.856117
 20
204.928622
 30
0.0
 11
149.856117
 21
207.954926
 31
0.0
  0
LINE
  5
1E7
100
AcDbEntity
  8
0
  6
Continuous
 62
   174
100
AcDbLine
 10
167.956117
 20
201.895988
 30
0.0
 11
173.456117
 21
201.895988
 31
0.0
  0
LINE
  5
1E8
100
AcDbEntity
  8
0
  6
Continuous
 62
   174
100
AcDbLine
 10
165.056117
 20
186.728836
 30
0.0
 11
165.056117
 21
184.320221
 31
0.0
  0
LINE
  5
1E9
100
AcDbEntity
  8
0
  6
Continuous
 62
   174
100
AcDbLine
 10
167.456117
 20
204.928622
 30
0.0
 11
167.456117
 21
207.954926
 31
0.0
  0
LINE
  5
1EA
100
AcDbEntity
  8
0
  6
Continuous
 62
   174
100
AcDbLine
 10
147.456117
 20
184.295988
 30
0.0
 11
149.856117
 21
184.295988
 31
0.0
  0
LINE
  5
1EB
100
AcDbEntity
  8
0
  6
Continuous
 62
   174
100
AcDbLine
 10
147.456117
 20
197.431324
 30
0.0
 11
147.456117
 21
196.23372
 31
0.0
  0
LINE
  5
1EC
100
AcDbEntity
  8
0
  6
Continuous
 62
   174
100
AcDbLine
 10
147.456117
 20
197.468305
 30
0.0
 11
147.456117
 21
202.310872
 31
0.0
  0
LINE
  5
1ED
100
AcDbEntity
  8
0
  6
HIDDEN
 62
   174
100
AcDbLine
 10
167.456117
 20
193.452209
 30
0.0
 11
167.456117
 21
191.581964
 31
0.0
  0
LINE
  5
1EE
100
AcDbEntity
  8
0
  6
HIDDEN
 62
   174
100
AcDbLine
 10
149.856117
 20
161.395988
 30
0.0
 11
165.056117
 21
161.395988
 31
0.0
  0
LINE
  5
1EF
100
AcDbEntity
  8
0
  6
Continuous
 62
   174
100
AcDbLine
 10
167.456117
 20
197.431324
 30
0.0
 11
167.456117
 21
196.23372
 31
0.0
  0
LINE
  5
1F0
100
AcDbEntity
  8
0
  6
HIDDEN
 62
   174
100
AcDbLine
 10
167.456117
 20
193.184195
 30
0.0
 11
167.456117
 21
191.931496
 31
0.0
  0
LINE
  5
1F1
100
AcDbEntity
  8
0
  6
HIDDEN
 62
   174
100
AcDbLine
 10
165.056117
 20
191.931496
 30
0.0
 11
165.056117
 21
193.184195
 31
0.0
  0
LINE
  5
1F2
100
AcDbEntity
  8
0
  6
HIDDEN
 62
   174
100
AcDbLine
 10
141.456117
 20
158.436069
 30
0.0
 11
141.456117
 21
173.434811
 31
0.0
  0
LINE
  5
1F3
100
AcDbEntity
  8
0
  6
HIDDEN
 62
   174
100
AcDbLine
 10
167.456117
 20
206.336032
 30
0.0
 11
165.056117
 21
206.336032
 31
0.0
  0
LINE
  5
1F4
100
AcDbEntity
  8
0
  6
Continuous
 62
   174
100
AcDbLine
 10
165.056117
 20
204.928622
 30
0.0
 11
165.056117
 21
207.954926
 31
0.0
  0
LINE
  5
1F5
100
AcDbEntity
  8
0
  6
Continuous
 62
   174
100
AcDbLine
 10
146.956117
 20
184.295988
 30
0.0
 11
146.956117
 21
186.728836
 31
0.0
  0
LINE
  5
1F6
100
AcDbEntity
  8
0
  6
HIDDEN
 62
   174
100
AcDbLine
 10
167.456117
 20
208.3776
 30
0.0
 11
167.456117
 21
204.928622
 31
0.0
  0
LINE
  5
1F7
100
AcDbEntity
  8
0
  6
HIDDEN
 62
   174
100
AcDbLine
 10
165.056117
 20
193.499622
 30
0.0
 11
165.056117
 21
194.527617
 31
0.0
  0
ARC
  5
1F8
100
AcDbEntity
  8
0
  6
Continuous
 62
   174
100
AcDbCircle
 10
157.456117
 20
149.895988
 30
0.0
 40
8.75
100
AcDbArc
 50
181.068027
 51
224.060957
  0
LINE
  5
1F9
100
AcDbEntity
  8
0
  6
Continuous
 62
   174
100
AcDbLine
 10
165.456117
 20
192.448811
 30
0.0
 11
149.456117
 21
192.448811
 31
0.0
  0
ARC
  5
1FA
100
AcDbEntity
  8
0
  6
Continuous
 62
   174
100
AcDbCircle
 10
157.456117
 20
149.895988
 30
0.0
 40
9.73
100
AcDbArc
 50
-90.0
 51
-89.296546
  0
LINE
  5
1FB
100
AcDbEntity
  8
0
  6
Continuous
 62
   174
100
AcDbLine
 10
167.456117
 20
197.431324
 30
0.0
 11
165.056117
 21
197.431324
 31
0.0
  0
LINE
  5
1FC
100
AcDbEntity
  8
0
  6
HIDDEN
 62
   174
100
AcDbLine
 10
149.856117
 20
193.499622
 30
0.0
 11
149.856117
 21
194.527617
 31
0.0
  0
LINE
  5
1FD
100
AcDbEntity
  8
0
  6
HIDDEN
 62
   174
100
AcDbLine
 10
149.856117
 20
191.931496
 30
0.0
 11
149.856117
 21
193.184195
 31
0.0
  0
LINE
  5
1FE
100
AcDbEntity
  8
0
  6
HIDDEN
 62
   174
100
AcDbLine
 10
141.456117
 20
158.395988
 30
0.0
 11
149.856117
 21
158.395988
 31
0.0
  0
ARC
  5
1FF
100
AcDbEntity
  8
0
  6
Continuous
 62
   174
100
AcDbCircle
 10
157.456117
 20
117.895988
 30
0.0
 40
8.75
100
AcDbArc
 50
90.0
 51
135.0
  0
ARC
  5
200
100
AcDbEntity
  8
0
  6
Continuous
 62
   174
100
AcDbCircle
 10
157.456117
 20
149.895988
 30
0.0
 40
8.75
100
AcDbArc
 50
1.068027
 51
44.060957
  0
ARC
  5
201
100
AcDbEntity
  8
0
  6
Continuous
 62
   174
100
AcDbCircle
 10
157.456117
 20
180.895988
 30
0.0
 40
10.0
100
AcDbArc
 50
90.0
 51
113.578178
  0
LINE
  5
202
100
AcDbEntity
  8
0
  6
Continuous
 62
   174
100
AcDbLine
 10
158.714247
 20
190.061139
 30
0.0
 11
157.481675
 21
190.061139
 31
0.0
  0
LINE
  5
203
100
AcDbEntity
  8
0
  6
HIDDEN
 62
   174
100
AcDbLine
 10
173.456117
 20
173.434811
 30
0.0
 11
173.456117
 21
158.436069
 31
0.0
  0
LINE
  5
204
100
AcDbEntity
  8
0
  6
HIDDEN
 62
   174
100
AcDbLine
 10
149.856117
 20
196.595988
 30
0.0
 11
147.456117
 21
196.595988
 31
0.0
  0
LINE
  5
205
100
AcDbEntity
  8
0
  6
HIDDEN
 62
   174
100
AcDbLine
 10
149.856117
 20
202.341175
 30
0.0
 11
147.456117
 21
202.341175
 31
0.0
  0
LINE
  5
206
100
AcDbEntity
  8
0
  6
Continuous
 62
   174
100
AcDbLine
 10
149.856117
 20
184.295988
 30
0.0
 11
153.456117
 21
184.295988
 31
0.0
  0
LINE
  5
207
100
AcDbEntity
  8
0
  6
HIDDEN
 62
   174
100
AcDbLine
 10
161.4819
 20
190.061139
 30
0.0
 11
157.481675
 21
190.061139
 31
0.0
  0
LINE
  5
208
100
AcDbEntity
  8
0
  6
HIDDEN
 62
   174
100
AcDbLine
 10
147.456117
 20
204.928622
 30
0.0
 11
147.456117
 21
208.3776
 31
0.0
  0
LINE
  5
209
100
AcDbEntity
  8
0
  6
HIDDEN
 62
   174
100
AcDbLine
 10
147.456117
 20
193.499622
 30
0.0
 11
147.456117
 21
194.527617
 31
0.0
  0
LINE
  5
20A
100
AcDbEntity
  8
0
  6
Continuous
 62
   174
100
AcDbLine
 10
149.856117
 20
204.418831
 30
0.0
 11
149.856117
 21
204.928622
 31
0.0
  0
LINE
  5
20B
100
AcDbEntity
  8
0
  6
Continuous
 62
   174
100
AcDbLine
 10
167.956117
 20
184.295988
 30
0.0
 11
167.956117
 21
186.728836
 31
0.0
  0
LINE
  5
20C
100
AcDbEntity
  8
0
  6
HIDDEN
 62
   174
100
AcDbLine
 10
149.856117
 20
170.395988
 30
0.0
 11
165.056117
 21
170.395988
 31
0.0
  0
LINE
  5
20D
100
AcDbEntity
  8
0
  6
Continuous
 62
   174
100
AcDbLine
 10
167.456117
 20
204.418831
 30
0.0
 11
167.456117
 21
204.928622
 31
0.0
  0
LINE
  5
20E
100
AcDbEntity
  8
0
  6
HIDDEN
 62
   174
100
AcDbLine
 10
167.456117
 20
200.767174
 30
0.0
 11
165.056117
 21
200.767174
 31
0.0
  0
LINE
  5
20F
100
AcDbEntity
  8
0
  6
Continuous
 62
   174
100
AcDbLine
 10
167.456117
 20
186.728836
 30
0.0
 11
167.456117
 21
184.320221
 31
0.0
  0
LINE
  5
210
100
AcDbEntity
  8
0
  6
HIDDEN
 62
   174
100
AcDbLine
 10
167.456117
 20
191.931496
 30
0.0
 11
167.456117
 21
191.571007
 31
0.0
  0
LINE
  5
211
100
AcDbEntity
  8
0
  6
HIDDEN
 62
   174
100
AcDbLine
 10
147.456117
 20
202.377863
 30
0.0
 11
147.456117
 21
204.928622
 31
0.0
  0
LINE
  5
212
100
AcDbEntity
  8
0
  6
HIDDEN
 62
   174
100
AcDbLine
 10
173.456117
 20
158.395988
 30
0.0
 11
165.056117
 21
158.395988
 31
0.0
  0
LINE
  5
213
100
AcDbEntity
  8
0
  6
Continuous
 62
   174
100
AcDbLine
 10
147.456117
 20
208.417253
 30
0.0
 11
147.456117
 21
213.37728
 31
0.0
  0
LINE
  5
214
100
AcDbEntity
  8
0
  6
HIDDEN
 62
   174
100
AcDbLine
 10
167.456117
 20
194.350412
 30
0.0
 11
167.456117
 21
193.452209
 31
0.0
  0
LINE
  5
215
100
AcDbEntity
  8
0
  6
Continuous
 62
   174
100
AcDbLine
 10
161.456117
 20
184.295988
 30
0.0
 11
165.056117
 21
184.295988
 31
0.0
  0
LINE
  5
216
100
AcDbEntity
  8
0
  6
Continuous
 62
   174
100
AcDbLine
 10
165.056117
 20
204.418831
 30
0.0
 11
165.056117
 21
204.928622
 31
0.0
  0
LINE
  5
217
100
AcDbEntity
  8
0
  6
HIDDEN
 62
   174
100
AcDbLine
 10
165.056117
 20
191.977457
 30
0.0
 11
149.856117
 21
191.977457
 31
0.0
  0
LINE
  5
218
100
AcDbEntity
  8
0
  6
Continuous
 62
   174
100
AcDbLine
 10
147.456117
 20
196.23372
 30
0.0
 11
147.456117
 21
194.426274
 31
0.0
  0
ARC
  5
219
100
AcDbEntity
  8
0
  6
Continuous
 62
   174
100
AcDbCircle
 10
157.456117
 20
149.895988
 30
0.0
 40
8.75
100
AcDbArc
 50
178.931973
 51
181.068027
  0
LINE
  5
21A
100
AcDbEntity
  8
0
  6
HIDDEN
 62
   174
100
AcDbLine
 10
161.4819
 20
182.895988
 30
0.0
 11
153.48175
 21
182.895988
 31
0.0
  0
LINE
  5
21B
100
AcDbEntity
  8
0
  6
HIDDEN
 62
   174
100
AcDbLine
 10
149.856117
 20
208.341175
 30
0.0
 11
147.456117
 21
208.341175
 31
0.0
  0
LINE
  5
21C
100
AcDbEntity
  8
0
  6
Continuous
 62
   174
100
AcDbLine
 10
146.956117
 20
186.728836
 30
0.0
 11
146.956117
 21
191.581964
 31
0.0
  0
LINE
  5
21D
100
AcDbEntity
  8
0
  6
HIDDEN
 62
   174
100
AcDbLine
 10
165.056117
 20
194.527617
 30
0.0
 11
165.056117
 21
194.887505
 31
0.0
  0
LINE
  5
21E
100
AcDbEntity
  8
0
  6
HIDDEN
 62
   174
100
AcDbLine
 10
141.456117
 20
173.395988
 30
0.0
 11
149.856117
 21
173.395988
 31
0.0
  0
ARC
  5
21F
100
AcDbEntity
  8
0
  6
Continuous
 62
   174
100
AcDbCircle
 10
157.456117
 20
117.895988
 30
0.0
 40
8.75
100
AcDbArc
 50
45.0
 51
90.0
  0
LINE
  5
220
100
AcDbEntity
  8
0
  6
Continuous
 62
   174
100
AcDbLine
 10
165.456117
 20
192.448811
 30
0.0
 11
165.456117
 21
189.604502
 31
0.0
  0
LINE
  5
221
100
AcDbEntity
  8
0
  6
Continuous
 62
   174
100
AcDbLine
 10
161.4819
 20
190.061139
 30
0.0
 11
158.714247
 21
190.061139
 31
0.0
  0
LINE
  5
222
100
AcDbEntity
  8
0
  6
HIDDEN
 62
   174
100
AcDbLine
 10
167.456117
 20
202.341175
 30
0.0
 11
165.056117
 21
202.341175
 31
0.0
  0
LINE
  5
223
100
AcDbEntity
  8
0
  6
HIDDEN
 62
   174
100
AcDbLine
 10
149.856117
 20
194.527617
 30
0.0
 11
149.856117
 21
194.887505
 31
0.0
  0
LINE
  5
224
100
AcDbEntity
  8
0
  6
HIDDEN
 62
   174
100
AcDbLine
 10
173.456117
 20
173.395988
 30
0.0
 11
165.056117
 21
173.395988
 31
0.0
  0
LINE
  5
225
100
AcDbEntity
  8
0
  6
Continuous
 62
   174
100
AcDbLine
 10
165.056117
 20
194.821766
 30
0.0
 11
163.656117
 21
194.821766
 31
0.0
  0
ARC
  5
226
100
AcDbEntity
  8
0
  6
Continuous
 62
   174
100
AcDbCircle
 10
157.456117
 20
149.895988
 30
0.0
 40
8.75
100
AcDbArc
 50
-1.068027
 51
1.068027
  0
LINE
  5
227
100
AcDbEntity
  8
0
  6
HIDDEN
 62
   174
100
AcDbLine
 10
147.456117
 20
194.426274
 30
0.0
 11
147.456117
 21
193.452209
 31
0.0
  0
LINE
  5
228
100
AcDbEntity
  8
0
  6
HIDDEN
 62
   174
100
AcDbLine
 10
165.056117
 20
161.435637
 30
0.0
 11
165.056117
 21
170.434942
 31
0.0
  0
LWPOLYLINE
  5
229
100
AcDbEntity
  8
0
  6
Continuous
 62
   174
100
AcDbPolyline
 90
        4
 70
   128
 10
167.456117
 20
194.426274
 10
167.188168
 20
193.437542
 10
166.456117
 20
192.713741
 10
165.456117
 20
192.448811
  0
ARC
  5
22A
100
AcDbEntity
  8
0
  6
Continuous
 62
   174
100
AcDbCircle
 10
157.456117
 20
117.895988
 30
0.0
 40
9.73
100
AcDbArc
 50
-90.0
 51
-89.296546
  0
LINE
  5
22B
100
AcDbEntity
  8
0
  6
Continuous
 62
   174
100
AcDbLine
 10
149.856117
 20
202.310872
 30
0.0
 11
149.856117
 21
204.418831
 31
0.0
  0
LINE
  5
22C
100
AcDbEntity
  8
0
  6
Continuous
 62
   174
100
AcDbLine
 10
165.056117
 20
184.295988
 30
0.0
 11
167.456117
 21
184.295988
 31
0.0
  0
LINE
  5
22D
100
AcDbEntity
  8
0
  6
HIDDEN
 62
   174
100
AcDbLine
 10
167.456117
 20
196.633172
 30
0.0
 11
167.456117
 21
196.426492
 31
0.0
  0
ARC
  5
22E
100
AcDbEntity
  8
0
  6
Continuous
 62
   174
100
AcDbCircle
 10
157.456117
 20
149.895988
 30
0.0
 40
9.73
100
AcDbArc
 50
-89.296546
 51
89.296546
  0
LINE
  5
22F
100
AcDbEntity
  8
0
  6
Continuous
 62
   174
100
AcDbLine
 10
167.456117
 20
202.310872
 30
0.0
 11
167.456117
 21
204.418831
 31
0.0
  0
LINE
  5
230
100
AcDbEntity
  8
0
  6
Continuous
 62
   174
100
AcDbLine
 10
165.056117
 20
197.431324
 30
0.0
 11
165.056117
 21
196.23372
 31
0.0
  0
LINE
  5
231
100
AcDbEntity
  8
0
  6
Continuous
 62
   174
100
AcDbLine
 10
151.056117
 20
214.97695
 30
0.0
 11
151.056117
 21
214.135509
 31
0.0
  0
LINE
  5
232
100
AcDbEntity
  8
0
  6
Continuous
 62
   174
100
AcDbLine
 10
167.456117
 20
196.23372
 30
0.0
 11
165.056117
 21
196.23372
 31
0.0
  0
LINE
  5
233
100
AcDbEntity
  8
0
  6
HIDDEN
 62
   174
100
AcDbLine
 10
149.856117
 20
161.395988
 30
0.0
 11
165.056117
 21
161.395988
 31
0.0
  0
LINE
  5
234
100
AcDbEntity
  8
0
  6
HIDDEN
 62
   174
100
AcDbLine
 10
173.456117
 20
173.434811
 30
0.0
 11
173.456117
 21
158.436069
 31
0.0
  0
LINE
  5
235
100
AcDbEntity
  8
0
  6
HIDDEN
 62
   174
100
AcDbLine
 10
167.456117
 20
191.571007
 30
0.0
 11
167.456117
 21
190.641546
 31
0.0
  0
LINE
  5
236
100
AcDbEntity
  8
0
  6
HIDDEN
 62
   174
100
AcDbLine
 10
165.056117
 20
204.928622
 30
0.0
 11
165.056117
 21
208.3776
 31
0.0
  0
LINE
  5
237
100
AcDbEntity
  8
0
  6
HIDDEN
 62
   174
100
AcDbLine
 10
149.856117
 20
202.377863
 30
0.0
 11
149.856117
 21
204.928622
 31
0.0
  0
LINE
  5
238
100
AcDbEntity
  8
0
  6
HIDDEN
 62
   174
100
AcDbLine
 10
149.856117
 20
173.434811
 30
0.0
 11
149.856117
 21
158.436069
 31
0.0
  0
LINE
  5
239
100
AcDbEntity
  8
0
  6
HIDDEN
 62
   174
100
AcDbLine
 10
141.456117
 20
158.395988
 30
0.0
 11
149.856117
 21
158.395988
 31
0.0
  0
LINE
  5
23A
100
AcDbEntity
  8
0
  6
HIDDEN
 62
   174
100
AcDbLine
 10
173.456117
 20
158.395988
 30
0.0
 11
165.056117
 21
158.395988
 31
0.0
  0
LINE
  5
23B
100
AcDbEntity
  8
0
  6
Continuous
 62
   174
100
AcDbLine
 10
146.956117
 20
191.581964
 30
0.0
 11
146.956117
 21
193.452209
 31
0.0
  0
LINE
  5
23C
100
AcDbEntity
  8
0
  6
Continuous
 62
   174
100
AcDbLine
 10
167.956117
 20
186.728836
 30
0.0
 11
167.956117
 21
191.581964
 31
0.0
  0
LINE
  5
23D
100
AcDbEntity
  8
0
  6
Continuous
 62
   174
100
AcDbLine
 10
161.456117
 20
182.895988
 30
0.0
 11
161.456117
 21
190.061139
 31
0.0
  0
LINE
  5
23E
100
AcDbEntity
  8
0
  6
Continuous
 62
   174
100
AcDbLine
 10
167.456117
 20
191.581964
 30
0.0
 11
167.456117
 21
186.728836
 31
0.0
  0
LINE
  5
23F
100
AcDbEntity
  8
0
  6
Continuous
 62
   174
100
AcDbLine
 10
165.056117
 20
202.310872
 30
0.0
 11
165.056117
 21
204.418831
 31
0.0
  0
ARC
  5
240
100
AcDbEntity
  8
0
  6
Continuous
 62
   174
100
AcDbCircle
 10
157.456117
 20
149.895988
 30
0.0
 40
8.75
100
AcDbArc
 50
135.939043
 51
178.931973
  0
LINE
  5
241
100
AcDbEntity
  8
0
  6
HIDDEN
 62
   174
100
AcDbLine
 10
165.056117
 20
194.350412
 30
0.0
 11
165.056117
 21
193.452209
 31
0.0
  0
LINE
  5
242
100
AcDbEntity
  8
0
  6
HIDDEN
 62
   174
100
AcDbLine
 10
165.056117
 20
194.887505
 30
0.0
 11
165.056117
 21
195.679379
 31
0.0
  0
LINE
  5
243
100
AcDbEntity
  8
0
  6
HIDDEN
 62
   174
100
AcDbLine
 10
149.856117
 20
194.887505
 30
0.0
 11
149.856117
 21
195.679379
 31
0.0
  0
LINE
  5
244
100
AcDbEntity
  8
0
  6
HIDDEN
 62
   174
100
AcDbLine
 10
141.456117
 20
173.395988
 30
0.0
 11
149.856117
 21
173.395988
 31
0.0
  0
ARC
  5
245
100
AcDbEntity
  8
0
  6
Continuous
 62
   174
100
AcDbCircle
 10
157.456117
 20
117.895988
 30
0.0
 40
8.75
100
AcDbArc
 50
-45.0
 51
45.0
  0
ARC
  5
246
100
AcDbEntity
  8
0
  6
Continuous
 62
   174
100
AcDbCircle
 10
157.456117
 20
149.895988
 30
0.0
 40
8.75
100
AcDbArc
 50
315.939043
 51
358.931973
  0
LINE
  5
247
100
AcDbEntity
  8
0
  6
HIDDEN
 62
   174
100
AcDbLine
 10
147.456117
 20
194.527617
 30
0.0
 11
147.456117
 21
195.679379
 31
0.0
  0
LINE
  5
248
100
AcDbEntity
  8
0
  6
HIDDEN
 62
   174
100
AcDbLine
 10
167.456117
 20
194.426274
 30
0.0
 11
167.456117
 21
193.452209
 31
0.0
  0
LWPOLYLINE
  5
249
100
AcDbEntity
  8
0
  6
Continuous
 62
   174
100
AcDbPolyline
 90
        4
 70
   128
 10
147.456117
 20
191.581964
 10
147.724066
 20
190.593233
 10
148.456117
 20
189.869431
 10
149.456117
 20
189.604502
  0
LWPOLYLINE
  5
24A
100
AcDbEntity
  8
0
  6
Continuous
 62
   174
100
AcDbPolyline
 90
        4
 70
   128
 10
149.456117
 20
192.448811
 10
148.456117
 20
192.713741
 10
147.724066
 20
193.437542
 10
147.456117
 20
194.426274
  0
LINE
  5
24B
100
AcDbEntity
  8
0
  6
Continuous
 62
   174
100
AcDbLine
 10
147.456117
 20
207.954926
 30
0.0
 11
147.456117
 21
208.417253
 31
0.0
  0
LINE
  5
24C
100
AcDbEntity
  8
0
  6
HIDDEN
 62
   174
100
AcDbLine
 10
167.456117
 20
196.426492
 30
0.0
 11
167.456117
 21
195.679379
 31
0.0
  0
LINE
  5
24D
100
AcDbEntity
  8
0
  6
Continuous
 62
   174
100
AcDbLine
 10
163.656117
 20
194.821766
 30
0.0
 11
163.256117
 21
194.821766
 31
0.0
  0
LINE
  5
24E
100
AcDbEntity
  8
0
  6
Continuous
 62
   174
100
AcDbLine
 10
146.956117
 20
193.452209
 30
0.0
 11
146.956117
 21
194.426274
 31
0.0
  0
LINE
  5
24F
100
AcDbEntity
  8
0
  6
Continuous
 62
   174
100
AcDbLine
 10
149.856117
 20
208.417253
 30
0.0
 11
149.856117
 21
213.37728
 31
0.0
  0
LINE
  5
250
100
AcDbEntity
  8
0
  6
Continuous
 62
   174
100
AcDbLine
 10
167.956117
 20
191.581964
 30
0.0
 11
167.956117
 21
193.452209
 31
0.0
  0
LINE
  5
251
100
AcDbEntity
  8
0
  6
HIDDEN
 62
   174
100
AcDbLine
 10
149.856117
 20
173.434811
 30
0.0
 11
149.856117
 21
158.436069
 31
0.0
  0
ARC
  5
252
100
AcDbEntity
  8
0
  6
Continuous
 62
   174
100
AcDbCircle
 10
157.456117
 20
149.895988
 30
0.0
 40
9.73
100
AcDbArc
 50
-270.703454
 51
-270.0
  0
LINE
  5
253
100
AcDbEntity
  8
0
  6
HIDDEN
 62
   174
100
AcDbLine
 10
149.856117
 20
170.395988
 30
0.0
 11
165.056117
 21
170.395988
 31
0.0
  0
LINE
  5
254
100
AcDbEntity
  8
0
  6
Continuous
 62
   174
100
AcDbLine
 10
167.456117
 20
197.468305
 30
0.0
 11
167.456117
 21
202.310872
 31
0.0
  0
ARC
  5
255
100
AcDbEntity
  8
0
  6
Continuous
 62
   174
100
AcDbCircle
 10
157.456117
 20
117.895988
 30
0.0
 40
9.73
100
AcDbArc
 50
-89.296546
 51
89.296546
  0
LINE
  5
256
100
AcDbEntity
  8
0
  6
HIDDEN
 62
   174
100
AcDbLine
 10
167.456117
 20
190.641546
 30
0.0
 11
167.456117
 21
190.633736
 31
0.0
  0
LINE
  5
257
100
AcDbEntity
  8
0
  6
Continuous
 62
   174
100
AcDbLine
 10
165.056117
 20
196.23372
 30
0.0
 11
165.056117
 21
194.821766
 31
0.0
  0
LINE
  5
258
100
AcDbEntity
  8
0
  6
HIDDEN
 62
   174
100
AcDbLine
 10
149.856117
 20
170.434942
 30
0.0
 11
149.856117
 21
161.435637
 31
0.0
  0
LINE
  5
259
100
AcDbEntity
  8
0
  6
Continuous
 62
   174
100
AcDbLine
 10
151.056117
 20
196.208096
 30
0.0
 11
151.056117
 21
195.778513
 31
0.0
  0
LINE
  5
25A
100
AcDbEntity
  8
0
  6
Continuous
 62
   174
100
AcDbLine
 10
165.056117
 20
197.468305
 30
0.0
 11
165.056117
 21
202.310872
 31
0.0
  0
ARC
  5
25B
100
AcDbEntity
  8
0
  6
Continuous
 62
   174
100
AcDbCircle
 10
157.456117
 20
149.895988
 30
0.0
 40
8.75
100
AcDbArc
 50
134.302369
 51
135.939043
  0
LINE
  5
25C
100
AcDbEntity
  8
0
  6
Continuous
 62
   174
100
AcDbLine
 10
153.456117
 20
182.895988
 30
0.0
 11
153.456117
 21
190.061139
 31
0.0
  0
LINE
  5
25D
100
AcDbEntity
  8
0
  6
Continuous
 62
   174
100
AcDbLine
 10
146.956117
 20
194.426274
 30
0.0
 11
146.956117
 21
196.23372
 31
0.0
  0
LINE
  5
25E
100
AcDbEntity
  8
0
  6
HIDDEN
 62
   174
100
AcDbLine
 10
165.056117
 20
195.679379
 30
0.0
 11
165.056117
 21
196.426492
 31
0.0
  0
LINE
  5
25F
100
AcDbEntity
  8
0
  6
Continuous
 62
   174
100
AcDbLine
 10
163.256117
 20
194.821766
 30
0.0
 11
151.456117
 21
194.821766
 31
0.0
  0
ARC
  5
260
100
AcDbEntity
  8
0
  6
Continuous
 62
   174
100
AcDbCircle
 10
157.456117
 20
117.895988
 30
0.0
 40
8.75
100
AcDbArc
 50
270.0
 51
315.0
  0
LINE
  5
261
100
AcDbEntity
  8
0
  6
Continuous
 62
   174
100
AcDbLine
 10
167.956117
 20
193.452209
 30
0.0
 11
167.956117
 21
194.426274
 31
0.0
  0
LINE
  5
262
100
AcDbEntity
  8
0
  6
HIDDEN
 62
   174
100
AcDbLine
 10
165.056117
 20
193.452209
 30
0.0
 11
165.056117
 21
189.604502
 31
0.0
  0
LINE
  5
263
100
AcDbEntity
  8
0
  6
HIDDEN
 62
   174
100
AcDbLine
 10
165.056117
 20
202.377863
 30
0.0
 11
165.056117
 21
204.928622
 31
0.0
  0
LINE
  5
264
100
AcDbEntity
  8
0
  6
HIDDEN
 62
   174
100
AcDbLine
 10
149.856117
 20
195.679379
 30
0.0
 11
149.856117
 21
196.426492
 31
0.0
  0
LINE
  5
265
100
AcDbEntity
  8
0
  6
Continuous
 62
   174
100
AcDbLine
 10
165.456117
 20
189.604502
 30
0.0
 11
161.456117
 21
189.604502
 31
0.0
  0
ARC
  5
266
100
AcDbEntity
  8
0
  6
Continuous
 62
   174
100
AcDbCircle
 10
157.456117
 20
149.895988
 30
0.0
 40
8.75
100
AcDbArc
 50
314.302369
 51
315.939043
  0
LINE
  5
267
100
AcDbEntity
  8
0
  6
HIDDEN
 62
   174
100
AcDbLine
 10
147.456117
 20
195.679379
 30
0.0
 11
147.456117
 21
196.426492
 31
0.0
  0
LINE
  5
268
100
AcDbEntity
  8
0
  6
HIDDEN
 62
   174
100
AcDbLine
 10
149.856117
 20
190.633736
 30
0.0
 11
149.856117
 21
190.641546
 31
0.0
  0
LINE
  5
269
100
AcDbEntity
  8
0
  6
HIDDEN
 62
   174
100
AcDbLine
 10
165.056117
 20
158.436069
 30
0.0
 11
165.056117
 21
173.434811
 31
0.0
  0
LINE
  5
26A
100
AcDbEntity
  8
0
  6
HIDDEN
 62
   174
100
AcDbLine
 10
165.056117
 20
190.633736
 30
0.0
 11
165.056117
 21
190.641546
 31
0.0
  0
LINE
  5
26B
100
AcDbEntity
  8
0
  6
HIDDEN
 62
   174
100
AcDbLine
 10
141.456117
 20
158.436069
 30
0.0
 11
141.456117
 21
173.434811
 31
0.0
  0
LINE
  5
26C
100
AcDbEntity
  8
0
  6
Continuous
 62
   174
100
AcDbLine
 10
147.456117
 20
204.928622
 30
0.0
 11
147.456117
 21
207.954926
 31
0.0
  0
LINE
  5
26D
100
AcDbEntity
  8
0
  6
HIDDEN
 62
   174
100
AcDbLine
 10
167.456117
 20
195.679379
 30
0.0
 11
167.456117
 21
194.466934
 31
0.0
  0
LINE
  5
26E
100
AcDbEntity
  8
0
  6
HIDDEN
 62
   174
100
AcDbLine
 10
141.456117
 20
173.395988
 30
0.0
 11
149.856117
 21
173.395988
 31
0.0
  0
LINE
  5
26F
100
AcDbEntity
  8
0
  6
Continuous
 62
   174
100
AcDbLine
 10
167.456117
 20
213.341175
 30
0.0
 11
165.056117
 21
213.341175
 31
0.0
  0
LINE
  5
270
100
AcDbEntity
  8
0
  6
HIDDEN
 62
   174
100
AcDbLine
 10
167.456117
 20
190.595988
 30
0.0
 11
165.056117
 21
190.595988
 31
0.0
  0
LINE
  5
271
100
AcDbEntity
  8
0
  6
Continuous
 62
   174
100
AcDbLine
 10
147.456117
 20
193.452209
 30
0.0
 11
147.456117
 21
191.581964
 31
0.0
  0
ARC
  5
272
100
AcDbEntity
  8
0
  6
Continuous
 62
   174
100
AcDbCircle
 10
157.456117
 20
149.895988
 30
0.0
 40
9.73
100
AcDbArc
 50
-270.0
 51
-269.296546
  0
LINE
  5
273
100
AcDbEntity
  8
0
  6
Continuous
 62
   174
100
AcDbLine
 10
146.956117
 20
196.23372
 30
0.0
 11
146.956117
 21
197.431324
 31
0.0
  0
LINE
  5
274
100
AcDbEntity
  8
0
  6
Continuous
 62
   174
100
AcDbLine
 10
161.456117
 20
182.895988
 30
0.0
 11
161.456117
 21
190.061139
 31
0.0
  0
LINE
  5
275
100
AcDbEntity
  8
0
  6
Continuous
 62
   174
100
AcDbLine
 10
151.456117
 20
194.821766
 30
0.0
 11
151.056117
 21
194.821766
 31
0.0
  0
LINE
  5
276
100
AcDbEntity
  8
0
  6
HIDDEN
 62
   174
100
AcDbLine
 10
161.456117
 20
189.604502
 30
0.0
 11
153.456117
 21
189.604502
 31
0.0
  0
LINE
  5
277
100
AcDbEntity
  8
0
  6
Continuous
 62
   174
100
AcDbLine
 10
167.956117
 20
194.426274
 30
0.0
 11
167.956117
 21
196.23372
 31
0.0
  0
LINE
  5
278
100
AcDbEntity
  8
0
  6
Continuous
 62
   174
100
AcDbLine
 10
167.456117
 20
186.728836
 30
0.0
 11
165.056117
 21
186.728836
 31
0.0
  0
LINE
  5
279
100
AcDbEntity
  8
0
  6
Continuous
 62
   174
100
AcDbLine
 10
167.456117
 20
208.417253
 30
0.0
 11
167.456117
 21
213.37728
 31
0.0
  0
ARC
  5
27A
100
AcDbEntity
  8
0
  6
Continuous
 62
   174
100
AcDbCircle
 10
157.456117
 20
117.895988
 30
0.0
 40
9.73
100
AcDbArc
 50
-270.703454
 51
-270.0
  0
LINE
  5
27B
100
AcDbEntity
  8
0
  6
HIDDEN
 62
   174
100
AcDbLine
 10
167.456117
 20
193.452209
 30
0.0
 11
165.056117
 21
193.452209
 31
0.0
  0
LINE
  5
27C
100
AcDbEntity
  8
0
  6
Continuous
 62
   174
100
AcDbLine
 10
165.056117
 20
208.417253
 30
0.0
 11
165.056117
 21
213.37728
 31
0.0
  0
LINE
  5
27D
100
AcDbEntity
  8
0
  6
HIDDEN
 62
   174
100
AcDbLine
 10
141.456117
 20
158.395988
 30
0.0
 11
149.856117
 21
158.395988
 31
0.0
  0
LINE
  5
27E
100
AcDbEntity
  8
0
  6
Continuous
 62
   174
100
AcDbLine
 10
153.456117
 20
189.604502
 30
0.0
 11
149.456117
 21
189.604502
 31
0.0
  0
ARC
  5
27F
100
AcDbEntity
  8
0
  6
Continuous
 62
   174
100
AcDbCircle
 10
157.456117
 20
149.895988
 30
0.0
 40
8.75
100
AcDbArc
 50
90.0
 51
134.302369
  0
LINE
  5
280
100
AcDbEntity
  8
0
  6
Continuous
 62
   174
100
AcDbLine
 10
173.456117
 20
182.895988
 30
0.0
 11
173.456117
 21
201.895988
 31
0.0
  0
LINE
  5
281
100
AcDbEntity
  8
0
  6
HIDDEN
 62
   174
100
AcDbLine
 10
149.856117
 20
190.595988
 30
0.0
 11
147.456117
 21
190.595988
 31
0.0
  0
LINE
  5
282
100
AcDbEntity
  8
0
  6
HIDDEN
 62
   174
100
AcDbLine
 10
165.056117
 20
196.426492
 30
0.0
 11
165.056117
 21
196.633172
 31
0.0
  0
LINE
  5
283
100
AcDbEntity
  8
0
  6
HIDDEN
 62
   174
100
AcDbLine
 10
149.856117
 20
170.395988
 30
0.0
 11
165.056117
 21
170.395988
 31
0.0
  0
LINE
  5
284
100
AcDbEntity
  8
0
  6
HIDDEN
 62
   174
100
AcDbLine
 10
149.856117
 20
196.426492
 30
0.0
 11
149.856117
 21
196.633172
 31
0.0
  0
ARC
  5
285
100
AcDbEntity
  8
0
  6
Continuous
 62
   174
100
AcDbCircle
 10
157.456117
 20
149.895988
 30
0.0
 40
8.75
100
AcDbArc
 50
225.697631
 51
270.0
  0
ARC
  5
286
100
AcDbEntity
  8
0
  6
Continuous
 62
   174
100
AcDbCircle
 10
157.456117
 20
149.895988
 30
0.0
 40
8.75
100
AcDbArc
 50
270.0
 51
314.302369
  0
LINE
  5
287
100
AcDbEntity
  8
0
  6
HIDDEN
 62
   174
100
AcDbLine
 10
167.456117
 20
184.320221
 30
0.0
 11
165.056117
 21
184.320221
 31
0.0
  0
LINE
  5
288
100
AcDbEntity
  8
0
  6
HIDDEN
 62
   174
100
AcDbLine
 10
167.456117
 20
196.595988
 30
0.0
 11
165.056117
 21
196.595988
 31
0.0
  0
LINE
  5
289
100
AcDbEntity
  8
0
  6
HIDDEN
 62
   174
100
AcDbLine
 10
147.456117
 20
196.426492
 30
0.0
 11
147.456117
 21
196.633172
 31
0.0
  0
ARC
  5
28A
100
AcDbEntity
  8
0
  6
Continuous
 62
   174
100
AcDbCircle
 10
157.456117
 20
117.895988
 30
0.0
 40
8.75
100
AcDbArc
 50
180.0
 51
270.0
  0
LINE
  5
28B
100
AcDbEntity
  8
0
  6
HIDDEN
 62
   174
100
AcDbLine
 10
149.856117
 20
194.821766
 30
0.0
 11
149.856117
 21
191.977457
 31
0.0
  0
LINE
  5
28C
100
AcDbEntity
  8
0
  6
HIDDEN
 62
   174
100
AcDbLine
 10
147.456117
 20
194.350412
 30
0.0
 11
147.456117
 21
193.452209
 31
0.0
  0
LINE
  5
28D
100
AcDbEntity
  8
0
  6
Continuous
 62
   174
100
AcDbLine
 10
146.956117
 20
197.431324
 30
0.0
 11
146.956117
 21
201.895988
 31
0.0
  0
ARC
  5
28E
100
AcDbEntity
  8
0
  6
Continuous
 62
   174
100
AcDbCircle
 10
157.456117
 20
180.895988
 30
0.0
 40
10.0
100
AcDbArc
 50
-293.578178
 51
-270.0
  0
LINE
  5
28F
100
AcDbEntity
  8
0
  6
HIDDEN
 62
   174
100
AcDbLine
 10
149.856117
 20
170.434942
 30
0.0
 11
149.856117
 21
161.435637
 31
0.0
  0
LINE
  5
290
100
AcDbEntity
  8
0
  6
HIDDEN
 62
   174
100
AcDbLine
 10
173.456117
 20
158.395988
 30
0.0
 11
165.056117
 21
158.395988
 31
0.0
  0
LINE
  5
291
100
AcDbEntity
  8
0
  6
Continuous
 62
   174
100
AcDbLine
 10
151.056117
 20
194.821766
 30
0.0
 11
149.856117
 21
194.821766
 31
0.0
  0
LINE
  5
292
100
AcDbEntity
  8
0
  6
Continuous
 62
   174
100
AcDbLine
 10
167.456117
 20
193.452209
 30
0.0
 11
167.456117
 21
191.581964
 31
0.0
  0
LINE
  5
293
100
AcDbEntity
  8
0
  6
Continuous
 62
   174
100
AcDbLine
 10
167.956117
 20
196.23372
 30
0.0
 11
167.956117
 21
197.431324
 31
0.0
  0
LINE
  5
294
100
AcDbEntity
  8
0
  6
Continuous
 62
   174
100
AcDbLine
 10
147.456117
 20
204.418831
 30
0.0
 11
147.456117
 21
204.928622
 31
0.0
  0
LINE
  5
295
100
AcDbEntity
  8
0
  6
HIDDEN
 62
   174
100
AcDbLine
 10
165.056117
 20
158.436069
 30
0.0
 11
165.056117
 21
173.434811
 31
0.0
  0
LINE
  5
296
100
AcDbEntity
  8
0
  6
HIDDEN
 62
   174
100
AcDbLine
 10
167.456117
 20
194.466934
 30
0.0
 11
167.456117
 21
193.499622
 31
0.0
  0
LINE
  5
297
100
AcDbEntity
  8
0
  6
HIDDEN
 62
   174
100
AcDbLine
 10
165.056117
 20
190.641546
 30
0.0
 11
165.056117
 21
191.029673
 31
0.0
  0
LINE
  5
298
100
AcDbEntity
  8
0
  6
HIDDEN
 62
   174
100
AcDbLine
 10
173.456117
 20
158.395988
 30
0.0
 11
165.056117
 21
158.395988
 31
0.0
  0
LINE
  5
299
100
AcDbEntity
  8
0
  6
HIDDEN
 62
   174
100
AcDbLine
 10
149.856117
 20
161.395988
 30
0.0
 11
165.056117
 21
161.395988
 31
0.0
  0
LINE
  5
29A
100
AcDbEntity
  8
0
  6
HIDDEN
 62
   174
100
AcDbLine
 10
141.456117
 20
173.395988
 30
0.0
 11
149.856117
 21
173.395988
 31
0.0
  0
ARC
  5
29B
100
AcDbEntity
  8
0
  6
Continuous
 62
   174
100
AcDbCircle
 10
157.456117
 20
149.895988
 30
0.0
 40
9.73
100
AcDbArc
 50
-269.296546
 51
-151.197359
  0
LINE
  5
29C
100
AcDbEntity
  8
0
  6
Continuous
 62
   174
100
AcDbLine
 10
149.856117
 20
196.23372
 30
0.0
 11
149.856117
 21
194.821766
 31
0.0
  0
LINE
  5
29D
100
AcDbEntity
  8
0
  6
Continuous
 62
   174
100
AcDbLine
 10
147.456117
 20
191.581964
 30
0.0
 11
147.456117
 21
186.728836
 31
0.0
  0
LINE
  5
29E
100
AcDbEntity
  8
0
  6
HIDDEN
 62
   174
100
AcDbLine
 10
167.456117
 20
194.350412
 30
0.0
 11
165.056117
 21
194.350412
 31
0.0
  0
LINE
  5
29F
100
AcDbEntity
  8
0
  6
HIDDEN
 62
   174
100
AcDbLine
 10
167.456117
 20
204.928622
 30
0.0
 11
167.456117
 21
202.377863
 31
0.0
  0
LINE
  5
2A0
100
AcDbEntity
  8
0
  6
HIDDEN
 62
   174
100
AcDbLine
 10
149.856117
 20
190.641546
 30
0.0
 11
149.856117
 21
191.029673
 31
0.0
  0
LINE
  5
2A1
100
AcDbEntity
  8
0
  6
HIDDEN
 62
   174
100
AcDbLine
 10
173.456117
 20
173.395988
 30
0.0
 11
165.056117
 21
173.395988
 31
0.0
  0
ARC
  5
2A2
100
AcDbEntity
  8
0
  6
Continuous
 62
   174
100
AcDbCircle
 10
157.456117
 20
117.895988
 30
0.0
 40
9.73
100
AcDbArc
 50
-270.0
 51
-269.296546
  0
LINE
  5
2A3
100
AcDbEntity
  8
0
  6
HIDDEN
 62
   174
100
AcDbLine
 10
173.456117
 20
173.395988
 30
0.0
 11
165.056117
 21
173.395988
 31
0.0
  0
ARC
  5
2A4
100
AcDbEntity
  8
0
  6
Continuous
 62
   174
100
AcDbCircle
 10
157.456117
 20
149.895988
 30
0.0
 40
8.75
100
AcDbArc
 50
45.697631
 51
90.0
  0
LINE
  5
2A5
100
AcDbEntity
  8
0
  6
Continuous
 62
   174
100
AcDbLine
 10
149.856117
 20
197.468305
 30
0.0
 11
149.856117
 21
202.310872
 31
0.0
  0
LINE
  5
2A6
100
AcDbEntity
  8
0
  6
HIDDEN
 62
   174
100
AcDbLine
 10
149.856117
 20
170.395988
 30
0.0
 11
165.056117
 21
170.395988
 31
0.0
  0
LINE
  5
2A7
100
AcDbEntity
  8
0
  6
HIDDEN
 62
   174
100
AcDbLine
 10
165.056117
 20
161.435637
 30
0.0
 11
165.056117
 21
170.434942
 31
0.0
  0
LWPOLYLINE
  5
2A8
100
AcDbEntity
  8
0
  6
Continuous
 62
   174
100
AcDbPolyline
 90
        4
 70
   128
 10
165.456117
 20
189.604502
 10
166.456117
 20
189.869431
 10
167.188168
 20
190.593233
 10
167.456117
 20
191.581964
  0
LINE
  5
2A9
100
AcDbEntity
  8
0
  6
Continuous
 62
   174
100
AcDbLine
 10
149.856117
 20
207.954926
 30
0.0
 11
149.856117
 21
208.417253
 31
0.0
  0
LINE
  5
2AA
100
AcDbEntity
  8
0
  6
Continuous
 62
   174
100
AcDbLine
 10
167.956117
 20
197.431324
 30
0.0
 11
167.956117
 21
201.895988
 31
0.0
  0
LINE
  5
2AB
100
AcDbEntity
  8
0
  6
HIDDEN
 62
   174
100
AcDbLine
 10
147.456117
 20
190.633736
 30
0.0
 11
147.456117
 21
191.931496
 31
0.0
  0
LINE
  5
2AC
100
AcDbEntity
  8
0
  6
HIDDEN
 62
   174
100
AcDbLine
 10
149.856117
 20
204.928622
 30
0.0
 11
149.856117
 21
208.3776
 31
0.0
  0
LINE
  5
2AD
100
AcDbEntity
  8
0
  6
Continuous
 62
   174
100
AcDbLine
 10
153.456117
 20
182.895988
 30
0.0
 11
153.456117
 21
190.061139
 31
0.0
  0
LINE
  5
2AE
100
AcDbEntity
  8
0
  6
Continuous
 62
   174
100
AcDbLine
 10
167.456117
 20
207.954926
 30
0.0
 11
167.456117
 21
208.417253
 31
0.0
  0
LINE
  5
2AF
100
AcDbEntity
  8
0
  6
Continuous
 62
   174
100
AcDbLine
 10
167.456117
 20
184.295988
 30
0.0
 11
167.956117
 21
184.295988
 31
0.0
  0
LINE
  5
2B0
100
AcDbEntity
  8
0
  6
HIDDEN
 62
   174
100
AcDbLine
 10
165.056117
 20
193.184195
 30
0.0
 11
165.056117
 21
193.499622
 31
0.0
  0
LINE
  5
2B1
100
AcDbEntity
  8
0
  6
Continuous
 62
   174
100
AcDbLine
 10
147.456117
 20
186.728836
 30
0.0
 11
147.456117
 21
184.320221
 31
0.0
  0
LINE
  5
2B2
100
AcDbEntity
  8
0
  6
HIDDEN
 62
   174
100
AcDbLine
 10
173.456117
 20
173.395988
 30
0.0
 11
165.056117
 21
173.395988
 31
0.0
  0
LINE
  5
2B3
100
AcDbEntity
  8
0
  6
HIDDEN
 62
   174
100
AcDbLine
 10
165.056117
 20
191.977457
 30
0.0
 11
165.056117
 21
194.821766
 31
0.0
  0
LINE
  5
2B4
100
AcDbEntity
  8
0
  6
HIDDEN
 62
   174
100
AcDbLine
 10
147.456117
 20
193.452209
 30
0.0
 11
147.456117
 21
191.581964
 31
0.0
  0
LINE
  5
2B5
100
AcDbEntity
  8
0
  6
Continuous
 62
   174
100
AcDbLine
 10
147.456117
 20
202.310872
 30
0.0
 11
147.456117
 21
204.418831
 31
0.0
  0
LINE
  5
2B6
100
AcDbEntity
  8
0
  6
HIDDEN
 62
   174
100
AcDbLine
 10
149.856117
 20
161.395988
 30
0.0
 11
165.056117
 21
161.395988
 31
0.0
  0
LINE
  5
2B7
100
AcDbEntity
  8
0
  6
HIDDEN
 62
   174
100
AcDbLine
 10
167.456117
 20
193.499622
 30
0.0
 11
167.456117
 21
193.184195
 31
0.0
  0
LINE
  5
2B8
100
AcDbEntity
  8
0
  6
Continuous
 62
   174
100
AcDbLine
 10
165.056117
 20
207.954926
 30
0.0
 11
165.056117
 21
208.417253
 31
0.0
  0
LINE
  5
2B9
100
AcDbEntity
  8
0
  6
HIDDEN
 62
   174
100
AcDbLine
 10
165.056117
 20
191.029673
 30
0.0
 11
165.056117
 21
191.931496
 31
0.0
  0
ARC
  5
2BA
100
AcDbEntity
  8
0
  6
Continuous
 62
   174
100
AcDbCircle
 10
157.456117
 20
149.895988
 30
0.0
 40
8.75
100
AcDbArc
 50
224.060957
 51
225.697631
  0
LINE
  5
2BB
100
AcDbEntity
  8
0
  6
HIDDEN
 62
   174
100
AcDbLine
 10
157.481675
 20
190.061139
 30
0.0
 11
153.48175
 21
190.061139
 31
0.0
  0
LINE
  5
2BC
100
AcDbEntity
  8
0
  6
Continuous
 62
   174
100
AcDbLine
 10
167.456117
 20
196.23372
 30
0.0
 11
167.456117
 21
194.426274
 31
0.0
  0
LINE
  5
2BD
100
AcDbEntity
  8
0
  6
Continuous
 62
   174
100
AcDbLine
 10
146.956117
 20
184.295988
 30
0.0
 11
147.456117
 21
184.295988
 31
0.0
  0
LINE
  5
2BE
100
AcDbEntity
  8
0
  6
HIDDEN
 62
   174
100
AcDbLine
 10
147.456117
 20
193.184195
 30
0.0
 11
147.456117
 21
193.499622
 31
0.0
  0
ARC
  5
2BF
100
AcDbEntity
  8
0
  6
Continuous
 62
   174
100
AcDbCircle
 10
157.456117
 20
117.895988
 30
0.0
 40
8.75
100
AcDbArc
 50
135.0
 51
180.0
  0
LINE
  5
2C0
100
AcDbEntity
  8
0
  6
Continuous
 62
   174
100
AcDbLine
 10
149.456117
 20
192.448811
 30
0.0
 11
149.456117
 21
189.604502
 31
0.0
  0
ENDBLK
  5
2C1
100
AcDbEntity
  8
0
100
AcDbBlockEnd
  0
BLOCK
  5
2C4
100
AcDbEntity
  8
0
100
AcDbBlockBegin
  2
*B4
 70
     0
 10
0.0
 20
0.0
 30
0.0
  3
*B4
  1

  0
LINE
  5
2C5
100
AcDbEntity
  8
0
  6
Continuous
 62
     0
100
AcDbLine
 10
319.025459
 20
165.93544
 30
0.0
 11
319.025459
 21
97.940326
 31
0.0
  0
SOLID
  5
2C6
100
AcDbEntity
  8
0
  6
Continuous
 62
     0
100
AcDbTrace
 10
320.025516
 20
160.93576
 30
0.0
 11
319.025459
 21
165.93544
 31
0.0
 12
318.025703
 22
160.93576
 32
0.0
 13
318.025703
 23
160.93576
 33
0.0
  0
SOLID
  5
2C7
100
AcDbEntity
  8
0
  6
Continuous
 62
     0
100
AcDbTrace
 10
318.025703
 20
102.940006
 30
0.0
 11
319.025459
 21
97.940326
 31
0.0
 12
320.025516
 22
102.940006
 32
0.0
 13
320.025516
 23
102.940006
 33
0.0
  0
ENDBLK
  5
2C8
100
AcDbEntity
  8
0
100
AcDbBlockEnd
  0
BLOCK
  5
2CB
100
AcDbEntity
  8
0
100
AcDbBlockBegin
  2
*B5
 70
     0
 10
0.0
 20
0.0
 30
0.0
  3
*B5
  1

  0
LINE
  5
2CC
100
AcDbEntity
  8
0
  6
Continuous
 62
     0
100
AcDbLine
 10
220.206742
 20
78.045845
 30
0.0
 11
280.206814
 21
78.045845
 31
0.0
  0
SOLID
  5
2CD
100
AcDbEntity
  8
0
  6
Continuous
 62
     0
100
AcDbTrace
 10
225.206723
 20
79.045601
 30
0.0
 11
220.206742
 21
78.045845
 31
0.0
 12
225.206723
 22
77.045789
 32
0.0
 13
225.206723
 23
77.045789
 33
0.0
  0
SOLID
  5
2CE
100
AcDbEntity
  8
0
  6
Continuous
 62
     0
100
AcDbTrace
 10
275.206833
 20
77.045789
 30
0.0
 11
280.206814
 21
78.045845
 31
0.0
 12
275.206833
 22
79.045601
 32
0.0
 13
275.206833
 23
79.045601
 33
0.0
  0
ENDBLK
  5
2CF
100
AcDbEntity
  8
0
100
AcDbBlockEnd
  0
BLOCK
  5
2D2
100
AcDbEntity
  8
0
100
AcDbBlockBegin
  2
*B6
 70
     0
 10
0.0
 20
0.0
 30
0.0
  3
*B6
  1

  0
LINE
  5
2D3
100
AcDbEntity
  8
0
  6
Continuous
 62
     0
100
AcDbLine
 10
294.025555
 20
117.938747
 30
0.0
 11
294.025555
 21
97.940326
 31
0.0
  0
SOLID
  5
2D4
100
AcDbEntity
  8
0
  6
Continuous
 62
     0
100
AcDbTrace
 10
295.025611
 20
112.939067
 30
0.0
 11
294.025555
 21
117.938747
 31
0.0
 12
293.025498
 22
112.939067
 32
0.0
 13
293.025498
 23
112.939067
 33
0.0
  0
SOLID
  5
2D5
100
AcDbEntity
  8
0
  6
Continuous
 62
     0
100
AcDbTrace
 10
293.025498
 20
102.940006
 30
0.0
 11
294.025555
 21
97.940326
 31
0.0
 12
295.025611
 22
102.940006
 32
0.0
 13
295.025611
 23
102.940006
 33
0.0
  0
ENDBLK
  5
2D6
100
AcDbEntity
  8
0
100
AcDbBlockEnd
  0
BLOCK
  5
2D9
100
AcDbEntity
  8
0
100
AcDbBlockBegin
  2
*B7
 70
     0
 10
0.0
 20
0.0
 30
0.0
  3
*B7
  1

  0
LINE
  5
2DA
100
AcDbEntity
  8
0
  6
Continuous
 62
     0
100
AcDbLine
 10
294.025555
 20
117.938747
 30
0.0
 11
294.025555
 21
149.936643
 31
0.0
  0
SOLID
  5
2DB
100
AcDbEntity
  8
0
  6
Continuous
 62
     0
100
AcDbTrace
 10
293.025498
 20
122.938428
 30
0.0
 11
294.025555
 21
117.938747
 31
0.0
 12
295.025611
 22
122.938428
 32
0.0
 13
295.025611
 23
122.938428
 33
0.0
  0
SOLID
  5
2DC
100
AcDbEntity
  8
0
  6
Continuous
 62
     0
100
AcDbTrace
 10
295.025611
 20
144.936962
 30
0.0
 11
294.025555
 21
149.936643
 31
0.0
 12
293.025498
 22
144.936962
 32
0.0
 13
293.025498
 23
144.936962
 33
0.0
  0
ENDBLK
  5
2DD
100
AcDbEntity
  8
0
100
AcDbBlockEnd
  0
BLOCK
  5
2E0
100
AcDbEntity
  8
0
100
AcDbBlockBegin
  2
*B8
 70
     0
 10
0.0
 20
0.0
 30
0.0
  3
*B8
  1

  0
LINE
  5
2E1
100
AcDbEntity
  8
0
  6
Continuous
 62
     0
100
AcDbLine
 10
266.206627
 20
152.040396
 30
0.0
 11
234.206629
 21
152.040396
 31
0.0
  0
SOLID
  5
2E2
100
AcDbEntity
  8
0
  6
Continuous
 62
     0
100
AcDbTrace
 10
261.206646
 20
151.040339
 30
0.0
 11
266.206627
 21
152.040396
 31
0.0
 12
261.206646
 22
153.040452
 32
0.0
 13
261.206646
 23
153.040452
 33
0.0
  0
SOLID
  5
2E3
100
AcDbEntity
  8
0
  6
Continuous
 62
     0
100
AcDbTrace
 10
239.20661
 20
153.040452
 30
0.0
 11
234.206629
 21
152.040396
 31
0.0
 12
239.20661
 22
151.040339
 32
0.0
 13
239.20661
 23
151.040339
 33
0.0
  0
ENDBLK
  5
2E4
100
AcDbEntity
  8
0
100
AcDbBlockEnd
  0
BLOCK
  5
2E7
100
AcDbEntity
  8
0
100
AcDbBlockBegin
  2
*B9
 70
     0
 10
0.0
 20
0.0
 30
0.0
  3
*B9
  1

  0
LINE
  5
2E8
100
AcDbEntity
  8
0
  6
Continuous
 62
     0
100
AcDbLine
 10
208.025522
 20
133.937845
 30
0.0
 11
208.025522
 21
97.940326
 31
0.0
  0
SOLID
  5
2E9
100
AcDbEntity
  8
0
  6
Continuous
 62
     0
100
AcDbTrace
 10
209.025578
 20
128.938165
 30
0.0
 11
208.025522
 21
133.937845
 31
0.0
 12
207.025766
 22
128.938165
 32
0.0
 13
207.025766
 23
128.938165
 33
0.0
  0
SOLID
  5
2EA
100
AcDbEntity
  8
0
  6
Continuous
 62
     0
100
AcDbTrace
 10
207.025766
 20
102.940006
 30
0.0
 11
208.025522
 21
97.940326
 31
0.0
 12
209.025578
 22
102.940006
 32
0.0
 13
209.025578
 23
102.940006
 33
0.0
  0
ENDBLK
  5
2EB
100
AcDbEntity
  8
0
100
AcDbBlockEnd
  0
BLOCK
  5
2EE
100
AcDbEntity
  8
0
100
AcDbBlockBegin
  2
*B10
 70
     0
 10
0.0
 20
0.0
 30
0.0
  3
*B10
  1

  0
LINE
  5
2EF
100
AcDbEntity
  8
0
  6
Continuous
 62
     0
100
AcDbLine
 10
193.025579
 20
201.932659
 30
0.0
 11
193.025579
 21
97.940326
 31
0.0
  0
SOLID
  5
2F0
100
AcDbEntity
  8
0
  6
Continuous
 62
     0
100
AcDbTrace
 10
194.025636
 20
196.933279
 30
0.0
 11
193.025579
 21
201.932659
 31
0.0
 12
192.025523
 22
196.933279
 32
0.0
 13
192.025523
 23
196.933279
 33
0.0
  0
SOLID
  5
2F1
100
AcDbEntity
  8
0
  6
Continuous
 62
     0
100
AcDbTrace
 10
192.025523
 20
102.940006
 30
0.0
 11
193.025579
 21
97.940326
 31
0.0
 12
194.025636
 22
102.940006
 32
0.0
 13
194.025636
 23
102.940006
 33
0.0
  0
ENDBLK
  5
2F2
100
AcDbEntity
  8
0
100
AcDbBlockEnd
  0
BLOCK
  5
2F5
100
AcDbEntity
  8
0
100
AcDbBlockBegin
  2
*B11
 70
     0
 10
0.0
 20
0.0
 30
0.0
  3
*B11
  1

  0
LINE
  5
2F6
100
AcDbEntity
  8
0
  6
Continuous
 62
     0
100
AcDbLine
 10
265.849142
 20
242.034044
 30
0.0
 11
220.206742
 21
242.034044
 31
0.0
  0
SOLID
  5
2F7
100
AcDbEntity
  8
0
  6
Continuous
 62
     0
100
AcDbTrace
 10
260.849161
 20
241.033988
 30
0.0
 11
265.849142
 21
242.034044
 31
0.0
 12
260.849161
 22
243.0338
 32
0.0
 13
260.849161
 23
243.0338
 33
0.0
  0
SOLID
  5
2F8
100
AcDbEntity
  8
0
  6
Continuous
 62
     0
100
AcDbTrace
 10
225.206723
 20
243.0338
 30
0.0
 11
220.206742
 21
242.034044
 31
0.0
 12
225.206723
 22
241.033988
 32
0.0
 13
225.206723
 23
241.033988
 33
0.0
  0
ENDBLK
  5
2F9
100
AcDbEntity
  8
0
100
AcDbBlockEnd
  0
BLOCK
  5
2FC
100
AcDbEntity
  8
0
100
AcDbBlockBegin
  2
*B12
 70
     0
 10
0.0
 20
0.0
 30
0.0
  3
*B12
  1

  0
LINE
  5
2FD
100
AcDbEntity
  8
0
  6
Continuous
 62
     0
100
AcDbLine
 10
245.849218
 20
226.034946
 30
0.0
 11
285.849066
 21
226.034946
 31
0.0
  0
SOLID
  5
2FE
100
AcDbEntity
  8
0
  6
Continuous
 62
     0
100
AcDbTrace
 10
250.849199
 20
225.035191
 30
0.0
 11
255.84918
 21
226.034946
 31
0.0
 12
250.849199
 22
227.035003
 32
0.0
 13
250.849199
 23
227.035003
 33
0.0
  0
SOLID
  5
2FF
100
AcDbEntity
  8
0
  6
Continuous
 62
     0
100
AcDbTrace
 10
280.849085
 20
227.035003
 30
0.0
 11
275.849104
 21
226.034946
 31
0.0
 12
280.849085
 22
225.035191
 32
0.0
 13
280.849085
 23
225.035191
 33
0.0
  0
ENDBLK
  5
300
100
AcDbEntity
  8
0
100
AcDbBlockEnd
  0
BLOCK
  5
303
100
AcDbEntity
  8
0
100
AcDbBlockBegin
  2
*B13
 70
     0
 10
0.0
 20
0.0
 30
0.0
  3
*B13
  1

  0
LINE
  5
304
100
AcDbEntity
  8
0
  6
Continuous
 62
     0
100
AcDbLine
 10
208.025522
 20
191.966643
 30
0.0
 11
208.025522
 21
151.436577
 31
0.0
  0
SOLID
  5
305
100
AcDbEntity
  8
0
  6
Continuous
 62
     0
100
AcDbTrace
 10
207.025766
 20
175.434623
 30
0.0
 11
208.025522
 21
170.434942
 31
0.0
 12
209.025578
 22
175.434623
 32
0.0
 13
209.025578
 23
175.434623
 33
0.0
  0
SOLID
  5
306
100
AcDbEntity
  8
0
  6
Continuous
 62
     0
100
AcDbTrace
 10
209.025578
 20
156.435957
 30
0.0
 11
208.025522
 21
161.435637
 31
0.0
 12
207.025766
 22
156.435957
 32
0.0
 13
207.025766
 23
156.435957
 33
0.0
  0
ENDBLK
  5
307
100
AcDbEntity
  8
0
100
AcDbBlockEnd
  0
BLOCK
  5
30A
100
AcDbEntity
  8
0
100
AcDbBlockBegin
  2
*B14
 70
     0
 10
0.0
 20
0.0
 30
0.0
  3
*B14
  1

  0
LINE
  5
30B
100
AcDbEntity
  8
0
  6
Continuous
 62
     0
100
AcDbLine
 10
130.534229
 20
154.936023
 30
0.0
 11
130.534229
 21
99.190321
 31
0.0
  0
SOLID
  5
30C
100
AcDbEntity
  8
0
  6
Continuous
 62
     0
100
AcDbTrace
 10
129.534173
 20
131.687794
 30
0.0
 11
130.534229
 21
126.688113
 31
0.0
 12
131.533985
 22
131.687794
 32
0.0
 13
131.533985
 23
131.687794
 33
0.0
  0
SOLID
  5
30D
100
AcDbEntity
  8
0
  6
Continuous
 62
     0
100
AcDbTrace
 10
131.533985
 20
104.189701
 30
0.0
 11
130.534229
 21
109.189382
 31
0.0
 12
129.534173
 22
104.189701
 32
0.0
 13
129.534173
 23
104.189701
 33
0.0
  0
ENDBLK
  5
30E
100
AcDbEntity
  8
0
100
AcDbBlockEnd
  0
BLOCK
  5
311
100
AcDbEntity
  8
0
100
AcDbBlockBegin
  2
*B15
 70
     0
 10
0.0
 20
0.0
 30
0.0
  3
*B15
  1

  0
LINE
  5
312
100
AcDbEntity
  8
0
  6
Continuous
 62
     0
100
AcDbLine
 10
141.081834
 20
226.034946
 30
0.0
 11
173.681746
 21
226.034946
 31
0.0
  0
SOLID
  5
313
100
AcDbEntity
  8
0
  6
Continuous
 62
     0
100
AcDbTrace
 10
146.081815
 20
225.035191
 30
0.0
 11
151.081796
 21
226.034946
 31
0.0
 12
146.081815
 22
227.035003
 32
0.0
 13
146.081815
 23
227.035003
 33
0.0
  0
SOLID
  5
314
100
AcDbEntity
  8
0
  6
Continuous
 62
     0
100
AcDbTrace
 10
168.681765
 20
227.035003
 30
0.0
 11
163.681784
 21
226.034946
 31
0.0
 12
168.681765
 22
225.035191
 32
0.0
 13
168.681765
 23
225.035191
 33
0.0
  0
ENDBLK
  5
315
100
AcDbEntity
  8
0
100
AcDbBlockEnd
  0
BLOCK
  5
318
100
AcDbEntity
  8
0
100
AcDbBlockBegin
  2
*B16
 70
     0
 10
0.0
 20
0.0
 30
0.0
  3
*B16
  1

  0
LINE
  5
319
100
AcDbEntity
  8
0
  6
Continuous
 62
     0
100
AcDbLine
 10
307.025685
 20
193.437438
 30
0.0
 11
307.025685
 21
262.678342
 31
0.0
  0
SOLID
  5
31A
100
AcDbEntity
  8
0
  6
Continuous
 62
     0
100
AcDbTrace
 10
308.025441
 20
198.437119
 30
0.0
 11
307.025685
 21
203.436799
 31
0.0
 12
306.025629
 22
198.437119
 32
0.0
 13
306.025629
 23
198.437119
 33
0.0
  0
SOLID
  5
31B
100
AcDbEntity
  8
0
  6
Continuous
 62
     0
100
AcDbTrace
 10
306.025629
 20
212.436104
 30
0.0
 11
307.025685
 21
207.436423
 31
0.0
 12
308.025441
 22
212.436104
 32
0.0
 13
308.025441
 23
212.436104
 33
0.0
  0
ENDBLK
  5
31C
100
AcDbEntity
  8
0
100
AcDbBlockEnd
  0
BLOCK
  5
31F
100
AcDbEntity
  8
0
100
AcDbBlockBegin
  2
*B17
 70
     0
 10
0.0
 20
0.0
 30
0.0
  3
*B17
  1

  0
LINE
  5
320
100
AcDbEntity
  8
0
  6
Continuous
 62
     0
100
AcDbLine
 10
295.025611
 20
268.927717
 30
0.0
 11
295.025611
 21
197.437062
 31
0.0
  0
SOLID
  5
321
100
AcDbEntity
  8
0
  6
Continuous
 62
     0
100
AcDbTrace
 10
294.025555
 20
220.435352
 30
0.0
 11
295.025611
 21
215.435672
 31
0.0
 12
296.025667
 22
220.435352
 32
0.0
 13
296.025667
 23
220.435352
 33
0.0
  0
SOLID
  5
322
100
AcDbEntity
  8
0
  6
Continuous
 62
     0
100
AcDbTrace
 10
296.025667
 20
202.436743
 30
0.0
 11
295.025611
 21
207.436423
 31
0.0
 12
294.025555
 22
202.436743
 32
0.0
 13
294.025555
 23
202.436743
 33
0.0
  0
ENDBLK
  5
323
100
AcDbEntity
  8
0
100
AcDbBlockEnd
  0
BLOCK
  5
326
100
AcDbEntity
  8
0
100
AcDbBlockBegin
  2
*B18
 70
     0
 10
0.0
 20
0.0
 30
0.0
  3
*B18
  1

  0
LINE
  5
327
100
AcDbEntity
  8
0
  6
Continuous
 62
     0
100
AcDbLine
 10
141.481676
 20
76.045732
 30
0.0
 11
173.481674
 21
76.045732
 31
0.0
  0
SOLID
  5
328
100
AcDbEntity
  8
0
  6
Continuous
 62
     0
100
AcDbTrace
 10
146.481657
 20
77.045789
 30
0.0
 11
141.481676
 21
76.045732
 31
0.0
 12
146.481657
 22
75.045977
 32
0.0
 13
146.481657
 23
75.045977
 33
0.0
  0
SOLID
  5
329
100
AcDbEntity
  8
0
  6
Continuous
 62
     0
100
AcDbTrace
 10
168.481693
 20
75.045977
 30
0.0
 11
173.481674
 21
76.045732
 31
0.0
 12
168.481693
 22
77.045789
 32
0.0
 13
168.481693
 23
77.045789
 33
0.0
  0
ENDBLK
  5
32A
100
AcDbEntity
  8
0
100
AcDbBlockEnd
  0
BLOCK
  5
32D
100
AcDbEntity
  8
0
100
AcDbBlockBegin
  2
*B19
 70
     0
 10
0.0
 20
0.0
 30
0.0
  3
*B19
  1

  0
LINE
  5
32E
100
AcDbEntity
  8
0
  6
Continuous
 62
     0
100
AcDbLine
 10
319.025459
 20
215.435672
 30
0.0
 11
319.025459
 21
165.93544
 31
0.0
  0
SOLID
  5
32F
100
AcDbEntity
  8
0
  6
Continuous
 62
     0
100
AcDbTrace
 10
320.025516
 20
210.436292
 30
0.0
 11
319.025459
 21
215.435672
 31
0.0
 12
318.025703
 22
210.436292
 32
0.0
 13
318.025703
 23
210.436292
 33
0.0
  0
SOLID
  5
330
100
AcDbEntity
  8
0
  6
Continuous
 62
     0
100
AcDbTrace
 10
318.025703
 20
170.935121
 30
0.0
 11
319.025459
 21
165.93544
 31
0.0
 12
320.025516
 22
170.935121
 32
0.0
 13
320.025516
 23
170.935121
 33
0.0
  0
ENDBLK
  5
331
100
AcDbEntity
  8
0
100
AcDbBlockEnd
  0
BLOCK
  5
334
100
AcDbEntity
  8
0
100
AcDbBlockBegin
  2
*B20
 70
     0
 10
0.0
 20
0.0
 30
0.0
  3
*B20
  1

  0
LINE
  5
335
100
AcDbEntity
  8
0
  6
Continuous
 62
     8
100
AcDbLine
 10
220.206742
 20
76.045732
 30
0.0
 11
220.206742
 21
94.940457
 31
0.0
  0
LINE
  5
336
100
AcDbEntity
  8
0
  6
Continuous
 62
     8
100
AcDbLine
 10
220.206742
 20
204.932528
 30
0.0
 11
220.206742
 21
244.033856
 31
0.0
  0
ENDBLK
  5
337
100
AcDbEntity
  8
0
100
AcDbBlockEnd
  0
BLOCK
  5
33A
100
AcDbEntity
  8
0
100
AcDbBlockBegin
  2
*B21
 70
     0
 10
0.0
 20
0.0
 30
0.0
  3
*B21
  1

  0
LINE
  5
33B
100
AcDbEntity
  8
0
  6
Continuous
 62
     8
100
AcDbLine
 10
250.206628
 20
91.940589
 30
0.0
 11
250.206628
 21
102.940006
 31
0.0
  0
LINE
  5
33C
100
AcDbEntity
  8
0
  6
Continuous
 62
     8
100
AcDbLine
 10
250.206628
 20
105.939574
 30
0.0
 11
250.206628
 21
109.939499
 31
0.0
  0
LINE
  5
33D
100
AcDbEntity
  8
0
  6
Continuous
 62
     8
100
AcDbLine
 10
250.206628
 20
112.939067
 30
0.0
 11
250.206628
 21
123.938484
 31
0.0
  0
LINE
  5
33E
100
AcDbEntity
  8
0
  6
Continuous
 62
     8
100
AcDbLine
 10
250.206628
 20
126.938353
 30
0.0
 11
250.206628
 21
130.937977
 31
0.0
  0
LINE
  5
33F
100
AcDbEntity
  8
0
  6
Continuous
 62
     8
100
AcDbLine
 10
250.206628
 20
133.937845
 30
0.0
 11
250.206628
 21
144.936962
 31
0.0
  0
LINE
  5
340
100
AcDbEntity
  8
0
  6
Continuous
 62
     8
100
AcDbLine
 10
250.206628
 20
147.936831
 30
0.0
 11
250.206628
 21
151.936455
 31
0.0
  0
LINE
  5
341
100
AcDbEntity
  8
0
  6
Continuous
 62
     8
100
AcDbLine
 10
250.206628
 20
154.936323
 30
0.0
 11
250.206628
 21
165.93544
 31
0.0
  0
LINE
  5
342
100
AcDbEntity
  8
0
  6
Continuous
 62
     8
100
AcDbLine
 10
250.206628
 20
168.935308
 30
0.0
 11
250.206628
 21
172.934933
 31
0.0
  0
LINE
  5
343
100
AcDbEntity
  8
0
  6
Continuous
 62
     8
100
AcDbLine
 10
250.206628
 20
175.934801
 30
0.0
 11
250.206628
 21
186.933918
 31
0.0
  0
LINE
  5
344
100
AcDbEntity
  8
0
  6
Continuous
 62
     8
100
AcDbLine
 10
250.206628
 20
189.933786
 30
0.0
 11
250.206628
 21
193.933411
 31
0.0
  0
LINE
  5
345
100
AcDbEntity
  8
0
  6
Continuous
 62
     8
100
AcDbLine
 10
250.206628
 20
196.933279
 30
0.0
 11
250.206628
 21
207.932396
 31
0.0
  0
ENDBLK
  5
346
100
AcDbEntity
  8
0
100
AcDbBlockEnd
  0
BLOCK
  5
349
100
AcDbEntity
  8
0
100
AcDbBlockBegin
  2
*B22
 70
     0
 10
0.0
 20
0.0
 30
0.0
  3
*B22
  1

  0
LINE
  5
34A
100
AcDbEntity
  8
0
  6
Continuous
 62
     8
100
AcDbLine
 10
280.206814
 20
76.045732
 30
0.0
 11
280.206814
 21
94.940457
 31
0.0
  0
ENDBLK
  5
34B
100
AcDbEntity
  8
0
100
AcDbBlockEnd
  0
BLOCK
  5
34E
100
AcDbEntity
  8
0
100
AcDbBlockBegin
  2
*B23
 70
     0
 10
0.0
 20
0.0
 30
0.0
  3
*B23
  1

  0
LINE
  5
34F
100
AcDbEntity
  8
0
  6
Continuous
 62
     8
100
AcDbLine
 10
145.481901
 20
205.377731
 30
0.0
 11
169.281678
 21
205.377731
 31
0.0
  0
ENDBLK
  5
350
100
AcDbEntity
  8
0
100
AcDbBlockEnd
  0
BLOCK
  5
353
100
AcDbEntity
  8
0
100
AcDbBlockBegin
  2
*B24
 70
     0
 10
0.0
 20
0.0
 30
0.0
  3
*B24
  1

  0
LINE
  5
354
100
AcDbEntity
  8
0
  6
Continuous
 62
     8
100
AcDbLine
 10
249.849143
 20
205.377731
 30
0.0
 11
260.849161
 21
205.377731
 31
0.0
  0
LINE
  5
355
100
AcDbEntity
  8
0
  6
Continuous
 62
     8
100
AcDbLine
 10
270.849123
 20
205.377731
 30
0.0
 11
281.849141
 21
205.377731
 31
0.0
  0
ENDBLK
  5
356
100
AcDbEntity
  8
0
100
AcDbBlockEnd
  0
BLOCK
  5
359
100
AcDbEntity
  8
0
100
AcDbBlockBegin
  2
*B25
 70
     0
 10
0.0
 20
0.0
 30
0.0
  3
*B25
  1

  0
LINE
  5
35A
100
AcDbEntity
  8
0
  6
Continuous
 62
     8
100
AcDbLine
 10
206.02571
 20
170.434942
 30
0.0
 11
231.20676
 21
170.434942
 31
0.0
  0
ENDBLK
  5
35B
100
AcDbEntity
  8
0
100
AcDbBlockEnd
  0
BLOCK
  5
35E
100
AcDbEntity
  8
0
100
AcDbBlockBegin
  2
*B26
 70
     0
 10
0.0
 20
0.0
 30
0.0
  3
*B26
  1

  0
LINE
  5
35F
100
AcDbEntity
  8
0
  6
Continuous
 62
     8
100
AcDbLine
 10
292.025442
 20
149.936643
 30
0.0
 11
296.025667
 21
149.936643
 31
0.0
  0
LINE
  5
360
100
AcDbEntity
  8
0
  6
Continuous
 62
     8
100
AcDbLine
 10
256.206665
 20
149.936643
 30
0.0
 11
269.116073
 21
149.936643
 31
0.0
  0
LINE
  5
361
100
AcDbEntity
  8
0
  6
Continuous
 62
     8
100
AcDbLine
 10
272.116241
 20
149.936643
 30
0.0
 11
276.116166
 21
149.936643
 31
0.0
  0
LINE
  5
362
100
AcDbEntity
  8
0
  6
Continuous
 62
     8
100
AcDbLine
 10
279.116035
 20
149.936643
 30
0.0
 11
292.025442
 21
149.936643
 31
0.0
  0
ENDBLK
  5
363
100
AcDbEntity
  8
0
100
AcDbBlockEnd
  0
BLOCK
  5
366
100
AcDbEntity
  8
0
100
AcDbBlockBegin
  2
*B27
 70
     0
 10
0.0
 20
0.0
 30
0.0
  3
*B27
  1

  0
LINE
  5
367
100
AcDbEntity
  8
0
  6
Continuous
 62
     8
100
AcDbLine
 10
142.731671
 20
149.936643
 30
0.0
 11
152.481694
 21
149.936643
 31
0.0
  0
LINE
  5
368
100
AcDbEntity
  8
0
  6
Continuous
 62
     8
100
AcDbLine
 10
162.481656
 20
149.936643
 30
0.0
 11
172.231679
 21
149.936643
 31
0.0
  0
ENDBLK
  5
369
100
AcDbEntity
  8
0
100
AcDbBlockEnd
  0
BLOCK
  5
36C
100
AcDbEntity
  8
0
100
AcDbBlockBegin
  2
*B28
 70
     0
 10
0.0
 20
0.0
 30
0.0
  3
*B28
  1

  0
LINE
  5
36D
100
AcDbEntity
  8
0
  6
Continuous
 62
     8
100
AcDbLine
 10
191.025767
 20
97.940326
 30
0.0
 11
217.206874
 21
97.940326
 31
0.0
  0
LINE
  5
36E
100
AcDbEntity
  8
0
  6
Continuous
 62
     8
100
AcDbLine
 10
283.206682
 20
97.940326
 30
0.0
 11
321.025572
 21
97.940326
 31
0.0
  0
ENDBLK
  5
36F
100
AcDbEntity
  8
0
100
AcDbBlockEnd
  0
BLOCK
  5
372
100
AcDbEntity
  8
0
100
AcDbBlockBegin
  2
*B29
 70
     0
 10
0.0
 20
0.0
 30
0.0
  3
*B29
  1

  0
LINE
  5
373
100
AcDbEntity
  8
0
  6
Continuous
 62
     8
100
AcDbLine
 10
142.731671
 20
117.938747
 30
0.0
 11
152.481694
 21
117.938747
 31
0.0
  0
LINE
  5
374
100
AcDbEntity
  8
0
  6
Continuous
 62
     8
100
AcDbLine
 10
162.481656
 20
117.938747
 30
0.0
 11
172.231679
 21
117.938747
 31
0.0
  0
ENDBLK
  5
375
100
AcDbEntity
  8
0
100
AcDbBlockEnd
  0
BLOCK
  5
378
100
AcDbEntity
  8
0
100
AcDbBlockBegin
  2
*B30
 70
     0
 10
0.0
 20
0.0
 30
0.0
  3
*B30
  1

  0
LINE
  5
379
100
AcDbEntity
  8
0
  6
Continuous
 62
     8
100
AcDbLine
 10
292.025442
 20
117.938747
 30
0.0
 11
296.025667
 21
117.938747
 31
0.0
  0
LINE
  5
37A
100
AcDbEntity
  8
0
  6
Continuous
 62
     8
100
AcDbLine
 10
256.206665
 20
117.938747
 30
0.0
 11
269.116073
 21
117.938747
 31
0.0
  0
LINE
  5
37B
100
AcDbEntity
  8
0
  6
Continuous
 62
     8
100
AcDbLine
 10
272.116241
 20
117.938747
 30
0.0
 11
276.116166
 21
117.938747
 31
0.0
  0
LINE
  5
37C
100
AcDbEntity
  8
0
  6
Continuous
 62
     8
100
AcDbLine
 10
279.116035
 20
117.938747
 30
0.0
 11
292.025442
 21
117.938747
 31
0.0
  0
ENDBLK
  5
37D
100
AcDbEntity
  8
0
100
AcDbBlockEnd
  0
BLOCK
  5
380
100
AcDbEntity
  8
0
100
AcDbBlockBegin
  2
*B31
 70
     0
 10
0.0
 20
0.0
 30
0.0
  3
*B31
  1

  0
LINE
  5
381
100
AcDbEntity
  8
0
  6
Continuous
 62
     8
100
AcDbLine
 10
227.206836
 20
184.633999
 30
0.0
 11
227.206836
 21
188.633623
 31
0.0
  0
LINE
  5
382
100
AcDbEntity
  8
0
  6
Continuous
 62
     8
100
AcDbLine
 10
227.206836
 20
198.632984
 30
0.0
 11
227.206836
 21
202.632608
 31
0.0
  0
ENDBLK
  5
383
100
AcDbEntity
  8
0
100
AcDbBlockEnd
  0
BLOCK
  5
386
100
AcDbEntity
  8
0
100
AcDbBlockBegin
  2
*B32
 70
     0
 10
0.0
 20
0.0
 30
0.0
  3
*B32
  1

  0
LINE
  5
387
100
AcDbEntity
  8
0
  6
Continuous
 62
     8
100
AcDbLine
 10
163.681784
 20
217.976217
 30
0.0
 11
163.681784
 21
228.034759
 31
0.0
  0
ENDBLK
  5
388
100
AcDbEntity
  8
0
100
AcDbBlockEnd
  0
BLOCK
  5
38B
100
AcDbEntity
  8
0
100
AcDbBlockBegin
  2
*B33
 70
     0
 10
0.0
 20
0.0
 30
0.0
  3
*B33
  1

  0
LINE
  5
38C
100
AcDbEntity
  8
0
  6
Continuous
 62
     8
100
AcDbLine
 10
269.006724
 20
215.435672
 30
0.0
 11
321.025572
 21
215.435672
 31
0.0
  0
ENDBLK
  5
38D
100
AcDbEntity
  8
0
100
AcDbBlockEnd
  0
BLOCK
  5
390
100
AcDbEntity
  8
0
100
AcDbBlockBegin
  2
*B34
 70
     0
 10
0.0
 20
0.0
 30
0.0
  3
*B34
  1

  0
LINE
  5
391
100
AcDbEntity
  8
0
  6
Continuous
 62
     8
100
AcDbLine
 10
128.534117
 20
126.688113
 30
0.0
 11
154.481807
 21
126.688113
 31
0.0
  0
ENDBLK
  5
392
100
AcDbEntity
  8
0
100
AcDbBlockEnd
  0
BLOCK
  5
395
100
AcDbEntity
  8
0
100
AcDbBlockBegin
  2
*B35
 70
     0
 10
0.0
 20
0.0
 30
0.0
  3
*B35
  1

  0
LINE
  5
396
100
AcDbEntity
  8
0
  6
Continuous
 62
     8
100
AcDbLine
 10
317.025647
 20
165.93544
 30
0.0
 11
321.025572
 21
165.93544
 31
0.0
  0
LINE
  5
397
100
AcDbEntity
  8
0
  6
Continuous
 62
     8
100
AcDbLine
 10
252.706618
 20
165.93544
 30
0.0
 11
261.206646
 21
165.93544
 31
0.0
  0
LINE
  5
398
100
AcDbEntity
  8
0
  6
Continuous
 62
     8
100
AcDbLine
 10
271.206608
 20
165.93544
 30
0.0
 11
289.116297
 21
165.93544
 31
0.0
  0
LINE
  5
399
100
AcDbEntity
  8
0
  6
Continuous
 62
     8
100
AcDbLine
 10
292.116165
 20
165.93544
 30
0.0
 11
296.11609
 21
165.93544
 31
0.0
  0
LINE
  5
39A
100
AcDbEntity
  8
0
  6
Continuous
 62
     8
100
AcDbLine
 10
299.116259
 20
165.93544
 30
0.0
 11
317.025647
 21
165.93544
 31
0.0
  0
ENDBLK
  5
39B
100
AcDbEntity
  8
0
100
AcDbBlockEnd
  0
BLOCK
  5
39E
100
AcDbEntity
  8
0
100
AcDbBlockBegin
  2
*B36
 70
     0
 10
0.0
 20
0.0
 30
0.0
  3
*B36
  1

  0
LINE
  5
39F
100
AcDbEntity
  8
0
  6
Continuous
 62
     8
100
AcDbLine
 10
141.481676
 20
74.04592
 30
0.0
 11
141.481676
 21
94.940457
 31
0.0
  0
ENDBLK
  5
3A0
100
AcDbEntity
  8
0
100
AcDbBlockEnd
  0
BLOCK
  5
3A3
100
AcDbEntity
  8
0
100
AcDbBlockBegin
  2
*B37
 70
     0
 10
0.0
 20
0.0
 30
0.0
  3
*B37
  1

  0
LINE
  5
3A4
100
AcDbEntity
  8
0
  6
Continuous
 62
     8
100
AcDbLine
 10
128.534117
 20
109.189382
 30
0.0
 11
154.481807
 21
109.189382
 31
0.0
  0
ENDBLK
  5
3A5
100
AcDbEntity
  8
0
100
AcDbBlockEnd
  0
BLOCK
  5
3A8
100
AcDbEntity
  8
0
100
AcDbBlockBegin
  2
*B38
 70
     0
 10
0.0
 20
0.0
 30
0.0
  3
*B38
  1

  0
LINE
  5
3A9
100
AcDbEntity
  8
0
  6
Continuous
 62
     8
100
AcDbLine
 10
191.025767
 20
201.932659
 30
0.0
 11
217.206874
 21
201.932659
 31
0.0
  0
ENDBLK
  5
3AA
100
AcDbEntity
  8
0
100
AcDbBlockEnd
  0
BLOCK
  5
3AD
100
AcDbEntity
  8
0
100
AcDbBlockBegin
  2
*B39
 70
     0
 10
0.0
 20
0.0
 30
0.0
  3
*B39
  1

  0
LINE
  5
3AE
100
AcDbEntity
  8
0
  6
Continuous
 62
     8
100
AcDbLine
 10
157.481675
 20
91.940589
 30
0.0
 11
157.481675
 21
112.939067
 31
0.0
  0
LINE
  5
3AF
100
AcDbEntity
  8
0
  6
Continuous
 62
     8
100
AcDbLine
 10
157.481675
 20
122.938428
 30
0.0
 11
157.481675
 21
144.936962
 31
0.0
  0
LINE
  5
3B0
100
AcDbEntity
  8
0
  6
Continuous
 62
     8
100
AcDbLine
 10
157.481675
 20
154.936323
 30
0.0
 11
157.481675
 21
165.93544
 31
0.0
  0
LINE
  5
3B1
100
AcDbEntity
  8
0
  6
Continuous
 62
     8
100
AcDbLine
 10
157.481675
 20
168.935308
 30
0.0
 11
157.481675
 21
172.934933
 31
0.0
  0
LINE
  5
3B2
100
AcDbEntity
  8
0
  6
Continuous
 62
     8
100
AcDbLine
 10
157.481675
 20
175.934801
 30
0.0
 11
157.481675
 21
186.933918
 31
0.0
  0
LINE
  5
3B3
100
AcDbEntity
  8
0
  6
Continuous
 62
     8
100
AcDbLine
 10
157.481675
 20
189.933786
 30
0.0
 11
157.481675
 21
193.933411
 31
0.0
  0
LINE
  5
3B4
100
AcDbEntity
  8
0
  6
Continuous
 62
     8
100
AcDbLine
 10
157.481675
 20
196.933279
 30
0.0
 11
157.481675
 21
207.932396
 31
0.0
  0
ENDBLK
  5
3B5
100
AcDbEntity
  8
0
100
AcDbBlockEnd
  0
BLOCK
  5
3B8
100
AcDbEntity
  8
0
100
AcDbBlockBegin
  2
*B40
 70
     0
 10
0.0
 20
0.0
 30
0.0
  3
*B40
  1

  0
LINE
  5
3B9
100
AcDbEntity
  8
0
  6
Continuous
 62
     8
100
AcDbLine
 10
173.481674
 20
74.04592
 30
0.0
 11
173.481674
 21
94.940457
 31
0.0
  0
ENDBLK
  5
3BA
100
AcDbEntity
  8
0
100
AcDbBlockEnd
  0
BLOCK
  5
3BD
100
AcDbEntity
  8
0
100
AcDbBlockBegin
  2
*B41
 70
     0
 10
0.0
 20
0.0
 30
0.0
  3
*B41
  1

  0
LINE
  5
3BE
100
AcDbEntity
  8
0
  6
Continuous
 62
     8
100
AcDbLine
 10
265.849142
 20
240.033932
 30
0.0
 11
265.849142
 21
244.033856
 31
0.0
  0
LINE
  5
3BF
100
AcDbEntity
  8
0
  6
Continuous
 62
     8
100
AcDbLine
 10
265.849142
 20
189.378934
 30
0.0
 11
265.849142
 21
200.378051
 31
0.0
  0
LINE
  5
3C0
100
AcDbEntity
  8
0
  6
Continuous
 62
     8
100
AcDbLine
 10
265.849142
 20
210.377412
 30
0.0
 11
265.849142
 21
240.033932
 31
0.0
  0
ENDBLK
  5
3C1
100
AcDbEntity
  8
0
100
AcDbBlockEnd
  0
BLOCK
  5
3C4
100
AcDbEntity
  8
0
100
AcDbBlockBegin
  2
*B42
 70
     0
 10
0.0
 20
0.0
 30
0.0
  3
*B42
  1

  0
LINE
  5
3C5
100
AcDbEntity
  8
0
  6
Continuous
 62
     8
100
AcDbLine
 10
275.849104
 20
208.3776
 30
0.0
 11
275.849104
 21
228.034759
 31
0.0
  0
ENDBLK
  5
3C6
100
AcDbEntity
  8
0
100
AcDbBlockEnd
  0
BLOCK
  5
3C9
100
AcDbEntity
  8
0
100
AcDbBlockBegin
  2
*B43
 70
     0
 10
0.0
 20
0.0
 30
0.0
  3
*B43
  1

  0
LINE
  5
3CA
100
AcDbEntity
  8
0
  6
Continuous
 62
     8
100
AcDbLine
 10
206.02571
 20
133.937845
 30
0.0
 11
210.025635
 21
133.937845
 31
0.0
  0
LINE
  5
3CB
100
AcDbEntity
  8
0
  6
Continuous
 62
     8
100
AcDbLine
 10
210.025635
 20
133.937845
 30
0.0
 11
222.116132
 21
133.937845
 31
0.0
  0
LINE
  5
3CC
100
AcDbEntity
  8
0
  6
Continuous
 62
     8
100
AcDbLine
 10
225.116301
 20
133.937845
 30
0.0
 11
229.116225
 21
133.937845
 31
0.0
  0
LINE
  5
3CD
100
AcDbEntity
  8
0
  6
Continuous
 62
     8
100
AcDbLine
 10
232.116094
 20
133.937845
 30
0.0
 11
244.206591
 21
133.937845
 31
0.0
  0
ENDBLK
  5
3CE
100
AcDbEntity
  8
0
100
AcDbBlockEnd
  0
BLOCK
  5
3D1
100
AcDbEntity
  8
0
100
AcDbBlockBegin
  2
*B44
 70
     0
 10
0.0
 20
0.0
 30
0.0
  3
*B44
  1

  0
LINE
  5
3D2
100
AcDbEntity
  8
0
  6
Continuous
 62
     8
100
AcDbLine
 10
266.206627
 20
150.040584
 30
0.0
 11
266.206627
 21
160.93576
 31
0.0
  0
LINE
  5
3D3
100
AcDbEntity
  8
0
  6
Continuous
 62
     8
100
AcDbLine
 10
266.206627
 20
170.935121
 30
0.0
 11
266.206627
 21
179.434547
 31
0.0
  0
ENDBLK
  5
3D4
100
AcDbEntity
  8
0
100
AcDbBlockEnd
  0
BLOCK
  5
3D7
100
AcDbEntity
  8
0
100
AcDbBlockBegin
  2
*B45
 70
     0
 10
0.0
 20
0.0
 30
0.0
  3
*B45
  1

  0
LINE
  5
3D8
100
AcDbEntity
  8
0
  6
Continuous
 62
     8
100
AcDbLine
 10
135.481639
 20
165.93544
 30
0.0
 11
152.481694
 21
165.93544
 31
0.0
  0
LINE
  5
3D9
100
AcDbEntity
  8
0
  6
Continuous
 62
     8
100
AcDbLine
 10
155.481863
 20
165.93544
 30
0.0
 11
159.481788
 21
165.93544
 31
0.0
  0
LINE
  5
3DA
100
AcDbEntity
  8
0
  6
Continuous
 62
     8
100
AcDbLine
 10
162.481656
 20
165.93544
 30
0.0
 11
179.481711
 21
165.93544
 31
0.0
  0
ENDBLK
  5
3DB
100
AcDbEntity
  8
0
100
AcDbBlockEnd
  0
BLOCK
  5
3DE
100
AcDbEntity
  8
0
100
AcDbBlockBegin
  2
*B46
 70
     0
 10
0.0
 20
0.0
 30
0.0
  3
*B46
  1

  0
LINE
  5
3DF
100
AcDbEntity
  8
0
  6
Continuous
 62
     8
100
AcDbLine
 10
151.081796
 20
217.976217
 30
0.0
 11
151.081796
 21
228.034759
 31
0.0
  0
ENDBLK
  5
3E0
100
AcDbEntity
  8
0
100
AcDbBlockEnd
  0
BLOCK
  5
3E3
100
AcDbEntity
  8
0
100
AcDbBlockBegin
  2
*B47
 70
     0
 10
0.0
 20
0.0
 30
0.0
  3
*B47
  1

  0
LINE
  5
3E4
100
AcDbEntity
  8
0
  6
Continuous
 62
     8
100
AcDbLine
 10
234.206629
 20
150.040584
 30
0.0
 11
234.206629
 21
160.93576
 31
0.0
  0
LINE
  5
3E5
100
AcDbEntity
  8
0
  6
Continuous
 62
     8
100
AcDbLine
 10
234.206629
 20
170.935121
 30
0.0
 11
234.206629
 21
179.434547
 31
0.0
  0
ENDBLK
  5
3E6
100
AcDbEntity
  8
0
100
AcDbBlockEnd
  0
BLOCK
  5
3E9
100
AcDbEntity
  8
0
100
AcDbBlockBegin
  2
*B48
 70
     0
 10
0.0
 20
0.0
 30
0.0
  3
*B48
  1

  0
LINE
  5
3EA
100
AcDbEntity
  8
0
  6
Continuous
 62
     8
100
AcDbLine
 10
283.25685
 20
207.436423
 30
0.0
 11
309.025497
 21
207.436423
 31
0.0
  0
ENDBLK
  5
3EB
100
AcDbEntity
  8
0
100
AcDbBlockEnd
  0
BLOCK
  5
3EE
100
AcDbEntity
  8
0
100
AcDbBlockBegin
  2
*B49
 70
     0
 10
0.0
 20
0.0
 30
0.0
  3
*B49
  1

  0
LINE
  5
3EF
100
AcDbEntity
  8
0
  6
Continuous
 62
     8
100
AcDbLine
 10
220.70662
 20
165.93544
 30
0.0
 11
229.206648
 21
165.93544
 31
0.0
  0
LINE
  5
3F0
100
AcDbEntity
  8
0
  6
Continuous
 62
     8
100
AcDbLine
 10
239.20661
 20
165.93544
 30
0.0
 11
247.706637
 21
165.93544
 31
0.0
  0
ENDBLK
  5
3F1
100
AcDbEntity
  8
0
100
AcDbBlockEnd
  0
BLOCK
  5
3F4
100
AcDbEntity
  8
0
100
AcDbBlockBegin
  2
*B50
 70
     0
 10
0.0
 20
0.0
 30
0.0
  3
*B50
  1

  0
LINE
  5
3F5
100
AcDbEntity
  8
0
  6
Continuous
 62
     8
100
AcDbLine
 10
218.20663
 20
193.633304
 30
0.0
 11
222.206855
 21
193.633304
 31
0.0
  0
LINE
  5
3F6
100
AcDbEntity
  8
0
  6
Continuous
 62
     8
100
AcDbLine
 10
232.206817
 20
193.633304
 30
0.0
 11
236.206741
 21
193.633304
 31
0.0
  0
ENDBLK
  5
3F7
100
AcDbEntity
  8
0
100
AcDbBlockEnd
  0
BLOCK
  5
3FA
100
AcDbEntity
  8
0
100
AcDbBlockBegin
  2
*B51
 70
     0
 10
0.0
 20
0.0
 30
0.0
  3
*B51
  1

  0
LINE
  5
3FB
100
AcDbEntity
  8
0
  6
Continuous
 62
     8
100
AcDbLine
 10
283.25685
 20
203.436799
 30
0.0
 11
309.025497
 21
203.436799
 31
0.0
  0
ENDBLK
  5
3FC
100
AcDbEntity
  8
0
100
AcDbBlockEnd
  0
BLOCK
  5
3FF
100
AcDbEntity
  8
0
100
AcDbBlockBegin
  2
*B52
 70
     0
 10
0.0
 20
0.0
 30
0.0
  3
*B52
  1

  0
LINE
  5
400
100
AcDbEntity
  8
0
  6
Continuous
 62
     8
100
AcDbLine
 10
255.84918
 20
208.3776
 30
0.0
 11
255.84918
 21
228.034759
 31
0.0
  0
ENDBLK
  5
401
100
AcDbEntity
  8
0
100
AcDbBlockEnd
  0
BLOCK
  5
404
100
AcDbEntity
  8
0
100
AcDbBlockBegin
  2
*B53
 70
     0
 10
0.0
 20
0.0
 30
0.0
  3
*B53
  1

  0
LINE
  5
405
100
AcDbEntity
  8
0
  6
Continuous
 62
     8
100
AcDbLine
 10
206.02571
 20
161.435637
 30
0.0
 11
231.20676
 21
161.435637
 31
0.0
  0
ENDBLK
  5
406
100
AcDbEntity
  8
0
100
AcDbBlockEnd
  0
BLOCK
  5
409
100
AcDbEntity
  8
0
100
AcDbBlockBegin
  2
*B54
 70
     0
 10
0.0
 20
0.0
 30
0.0
  3
*B54
  1

  0
LINE
  5
40A
100
AcDbEntity
  8
0
  6
Continuous
 62
     6
100
AcDbLine
 10
155.481863
 20
117.938747
 30
0.0
 11
159.481788
 21
117.938747
 31
0.0
  0
LINE
  5
40B
100
AcDbEntity
  8
0
  6
Continuous
 62
     6
100
AcDbLine
 10
157.481675
 20
115.938935
 30
0.0
 11
157.481675
 21
119.93856
 31
0.0
  0
ENDBLK
  5
40C
100
AcDbEntity
  8
0
100
AcDbBlockEnd
  0
BLOCK
  5
40F
100
AcDbEntity
  8
0
100
AcDbBlockBegin
  2
*B55
 70
     0
 10
0.0
 20
0.0
 30
0.0
  3
*B55
  1

  0
LINE
  5
410
100
AcDbEntity
  8
0
  6
Continuous
 62
     6
100
AcDbLine
 10
263.84903
 20
205.377731
 30
0.0
 11
267.849255
 21
205.377731
 31
0.0
  0
LINE
  5
411
100
AcDbEntity
  8
0
  6
Continuous
 62
     6
100
AcDbLine
 10
265.849142
 20
203.377919
 30
0.0
 11
265.849142
 21
207.377543
 31
0.0
  0
ENDBLK
  5
412
100
AcDbEntity
  8
0
100
AcDbBlockEnd
  0
BLOCK
  5
415
100
AcDbEntity
  8
0
100
AcDbBlockBegin
  2
*B56
 70
     0
 10
0.0
 20
0.0
 30
0.0
  3
*B56
  1

  0
LINE
  5
416
100
AcDbEntity
  8
0
  6
Continuous
 62
     6
100
AcDbLine
 10
227.206836
 20
191.633492
 30
0.0
 11
227.206836
 21
195.633116
 31
0.0
  0
LINE
  5
417
100
AcDbEntity
  8
0
  6
Continuous
 62
     6
100
AcDbLine
 10
225.206723
 20
193.633304
 30
0.0
 11
229.206648
 21
193.633304
 31
0.0
  0
ENDBLK
  5
418
100
AcDbEntity
  8
0
100
AcDbBlockEnd
  0
BLOCK
  5
41B
100
AcDbEntity
  8
0
100
AcDbBlockBegin
  2
*B57
 70
     0
 10
0.0
 20
0.0
 30
0.0
  3
*B57
  1

  0
LINE
  5
41C
100
AcDbEntity
  8
0
  6
Continuous
 62
     6
100
AcDbLine
 10
155.481863
 20
149.936643
 30
0.0
 11
159.481788
 21
149.936643
 31
0.0
  0
LINE
  5
41D
100
AcDbEntity
  8
0
  6
Continuous
 62
     6
100
AcDbLine
 10
157.481675
 20
147.936831
 30
0.0
 11
157.481675
 21
151.936455
 31
0.0
  0
ENDBLK
  5
41E
100
AcDbEntity
  8
0
100
AcDbBlockEnd
  0
BLOCK
  5
421
100
AcDbEntity
  8
0
100
AcDbBlockBegin
  2
*B58
 70
     0
 10
0.0
 20
0.0
 30
0.0
  3
*B58
  1

  0
LINE
  5
422
100
AcDbEntity
  8
0
  6
Continuous
 62
     6
100
AcDbLine
 10
266.206627
 20
163.935628
 30
0.0
 11
266.206627
 21
167.935252
 31
0.0
  0
LINE
  5
423
100
AcDbEntity
  8
0
  6
Continuous
 62
     6
100
AcDbLine
 10
264.206815
 20
165.93544
 30
0.0
 11
268.206739
 21
165.93544
 31
0.0
  0
ENDBLK
  5
424
100
AcDbEntity
  8
0
100
AcDbBlockEnd
  0
BLOCK
  5
427
100
AcDbEntity
  8
0
100
AcDbBlockBegin
  2
*B59
 70
     0
 10
0.0
 20
0.0
 30
0.0
  3
*B59
  1

  0
LINE
  5
428
100
AcDbEntity
  8
0
  6
Continuous
 62
     6
100
AcDbLine
 10
232.206817
 20
165.93544
 30
0.0
 11
236.206741
 21
165.93544
 31
0.0
  0
LINE
  5
429
100
AcDbEntity
  8
0
  6
Continuous
 62
     6
100
AcDbLine
 10
234.206629
 20
163.935628
 30
0.0
 11
234.206629
 21
167.935252
 31
0.0
  0
ENDBLK
  5
42A
100
AcDbEntity
  8
0
100
AcDbBlockEnd
  0
BLOCK
  5
42D
100
AcDbEntity
  8
0
100
AcDbBlockBegin
  2
*B60
 70
     0
 10
0.0
 20
0.0
 30
0.0
  3
*B60
  1

  0
TEXT
  5
42E
100
AcDbEntity
  8
TEXT
  6
Continuous
 62
     0
100
AcDbText
 10
273.23575
 20
115.5
 30
0.0
 40
5.0
  1
1
100
AcDbText
  0
ENDBLK
  5
42F
100
AcDbEntity
  8
0
100
AcDbBlockEnd
  0
BLOCK
  5
432
100
AcDbEntity
  8
0
100
AcDbBlockBegin
  2
*B61
 70
     0
 10
0.0
 20
0.0
 30
0.0
  3
*B61
  1

  0
TEXT
  5
433
100
AcDbEntity
  8
TEXT
  6
Continuous
 62
     0
100
AcDbText
 10
224.23575
 20
131.5
 30
0.0
 40
5.0
  1
2
100
AcDbText
  0
ENDBLK
  5
434
100
AcDbEntity
  8
0
100
AcDbBlockEnd
  0
BLOCK
  5
437
100
AcDbEntity
  8
0
100
AcDbBlockBegin
  2
*B62
 70
     0
 10
0.0
 20
0.0
 30
0.0
  3
*B62
  1

  0
TEXT
  5
438
100
AcDbEntity
  8
TEXT
  6
Continuous
 62
     0
100
AcDbText
 10
272.23575
 20
147.5
 30
0.0
 40
5.0
  1
3
100
AcDbText
  0
ENDBLK
  5
439
100
AcDbEntity
  8
0
100
AcDbBlockEnd
  0
BLOCK
  5
43C
100
AcDbEntity
  8
0
100
AcDbBlockBegin
  2
*B63
 70
     0
 10
0.0
 20
0.0
 30
0.0
  3
*B63
  1

  0
TEXT
  5
43D
100
AcDbEntity
  8
TEXT
  6
Continuous
 62
     0
100
AcDbText
 10
317.25
 20
128.562654
 30
0.0
 40
3.5
  1
34
 50
90.0
100
AcDbText
  0
ENDBLK
  5
43E
100
AcDbEntity
  8
0
100
AcDbBlockEnd
  0
BLOCK
  5
441
100
AcDbEntity
  8
0
100
AcDbBlockBegin
  2
*B64
 70
     0
 10
0.0
 20
0.0
 30
0.0
  3
*B64
  1

  0
TEXT
  5
442
100
AcDbEntity
  8
TEXT
  6
Continuous
 62
     0
100
AcDbText
 10
246.847778
 20
79.75
 30
0.0
 40
3.5
  1
30
100
AcDbText
  0
ENDBLK
  5
443
100
AcDbEntity
  8
0
100
AcDbBlockEnd
  0
BLOCK
  5
446
100
AcDbEntity
  8
0
100
AcDbBlockBegin
  2
*B65
 70
     0
 10
0.0
 20
0.0
 30
0.0
  3
*B65
  1

  0
TEXT
  5
447
100
AcDbEntity
  8
TEXT
  6
Continuous
 62
     0
100
AcDbText
 10
292.25
 20
104.562654
 30
0.0
 40
3.5
  1
10
 50
90.0
100
AcDbText
  0
ENDBLK
  5
448
100
AcDbEntity
  8
0
100
AcDbBlockEnd
  0
BLOCK
  5
44B
100
AcDbEntity
  8
0
100
AcDbBlockBegin
  2
*B66
 70
     0
 10
0.0
 20
0.0
 30
0.0
  3
*B66
  1

  0
TEXT
  5
44C
100
AcDbEntity
  8
TEXT
  6
Continuous
 62
     0
100
AcDbText
 10
292.25
 20
130.562654
 30
0.0
 40
3.5
  1
16
 50
90.0
100
AcDbText
  0
ENDBLK
  5
44D
100
AcDbEntity
  8
0
100
AcDbBlockEnd
  0
BLOCK
  5
450
100
AcDbEntity
  8
0
100
AcDbBlockBegin
  2
*B67
 70
     0
 10
0.0
 20
0.0
 30
0.0
  3
*B67
  1

  0
TEXT
  5
451
100
AcDbEntity
  8
TEXT
  6
Continuous
 62
     0
100
AcDbText
 10
246.847778
 20
153.75
 30
0.0
 40
3.5
  1
16
100
AcDbText
  0
ENDBLK
  5
452
100
AcDbEntity
  8
0
100
AcDbBlockEnd
  0
BLOCK
  5
455
100
AcDbEntity
  8
0
100
AcDbBlockBegin
  2
*B68
 70
     0
 10
0.0
 20
0.0
 30
0.0
  3
*B68
  1

  0
TEXT
  5
456
100
AcDbEntity
  8
TEXT
  6
Continuous
 62
     0
100
AcDbText
 10
206.25
 20
112.562654
 30
0.0
 40
3.5
  1
18
 50
90.0
100
AcDbText
  0
ENDBLK
  5
457
100
AcDbEntity
  8
0
100
AcDbBlockEnd
  0
BLOCK
  5
45A
100
AcDbEntity
  8
0
100
AcDbBlockBegin
  2
*B69
 70
     0
 10
0.0
 20
0.0
 30
0.0
  3
*B69
  1

  0
TEXT
  5
45B
100
AcDbEntity
  8
TEXT
  6
Continuous
 62
     0
100
AcDbText
 10
191.25
 20
146.562654
 30
0.0
 40
3.5
  1
52
 50
90.0
100
AcDbText
  0
ENDBLK
  5
45C
100
AcDbEntity
  8
0
100
AcDbBlockEnd
  0
BLOCK
  5
45F
100
AcDbEntity
  8
0
100
AcDbBlockBegin
  2
*B70
 70
     0
 10
0.0
 20
0.0
 30
0.0
  3
*B70
  1

  0
TEXT
  5
460
100
AcDbEntity
  8
TEXT
  6
Continuous
 62
     0
100
AcDbText
 10
239.668989
 20
243.75
 30
0.0
 40
3.5
  1
22
100
AcDbText
  0
ENDBLK
  5
461
100
AcDbEntity
  8
0
100
AcDbBlockEnd
  0
BLOCK
  5
464
100
AcDbEntity
  8
0
100
AcDbBlockBegin
  2
*B71
 70
     0
 10
0.0
 20
0.0
 30
0.0
  3
*B71
  1

  0
TEXT
  5
465
100
AcDbEntity
  8
TEXT
  6
Continuous
 62
     0
100
AcDbText
 10
260.216667
 20
227.75
 30
0.0
 40
3.5
  1
%%c10
100
AcDbText
  0
ENDBLK
  5
466
100
AcDbEntity
  8
0
100
AcDbBlockEnd
  0
BLOCK
  5
469
100
AcDbEntity
  8
0
100
AcDbBlockBegin
  2
*B72
 70
     0
 10
0.0
 20
0.0
 30
0.0
  3
*B72
  1

  0
TEXT
  5
46A
100
AcDbEntity
  8
TEXT
  6
Continuous
 62
     0
100
AcDbText
 10
206.25
 20
177.383333
 30
0.0
 40
3.5
  1
%%c4,5
 50
90.0
100
AcDbText
  0
ENDBLK
  5
46B
100
AcDbEntity
  8
0
100
AcDbBlockEnd
  0
BLOCK
  5
46E
100
AcDbEntity
  8
0
100
AcDbBlockBegin
  2
*B73
 70
     0
 10
0.0
 20
0.0
 30
0.0
  3
*B73
  1

  0
TEXT
  5
46F
100
AcDbEntity
  8
TEXT
  6
Continuous
 62
     0
100
AcDbText
 10
128.758468
 20
134.416667
 30
0.0
 40
3.5
  1
G 1/8"
 50
90.0
100
AcDbText
  0
ENDBLK
  5
470
100
AcDbEntity
  8
0
100
AcDbBlockEnd
  0
BLOCK
  5
473
100
AcDbEntity
  8
0
100
AcDbBlockBegin
  2
*B74
 70
     0
 10
0.0
 20
0.0
 30
0.0
  3
*B74
  1

  0
TEXT
  5
474
100
AcDbEntity
  8
TEXT
  6
Continuous
 62
     0
100
AcDbText
 10
155.68945
 20
227.75
 30
0.0
 40
3.5
  1
7
100
AcDbText
  0
ENDBLK
  5
475
100
AcDbEntity
  8
0
100
AcDbBlockEnd
  0
BLOCK
  5
478
100
AcDbEntity
  8
0
100
AcDbBlockBegin
  2
*B75
 70
     0
 10
0.0
 20
0.0
 30
0.0
  3
*B75
  1

  0
TEXT
  5
479
100
AcDbEntity
  8
TEXT
  6
Continuous
 62
     0
100
AcDbText
 10
305.25
 20
220.666667
 30
0.0
 40
3.5
  1
2
 50
90.0
100
AcDbText
  0
TEXT
  5
47A
100
AcDbEntity
  8
TEXT
  6
Continuous
 62
     0
100
AcDbText
 10
305.25
 20
225.75
 30
0.0
 40
3.5
  1
Szabad l÷ket
 50
90.0
100
AcDbText
  0
ENDBLK
  5
47B
100
AcDbEntity
  8
0
100
AcDbBlockEnd
  0
BLOCK
  5
47E
100
AcDbEntity
  8
0
100
AcDbBlockBegin
  2
*B76
 70
     0
 10
0.0
 20
0.0
 30
0.0
  3
*B76
  1

  0
TEXT
  5
47F
100
AcDbEntity
  8
TEXT
  6
Continuous
 62
     0
100
AcDbText
 10
293.25
 20
222.416667
 30
0.0
 40
3.5
  1
4
 50
90.0
100
AcDbText
  0
TEXT
  5
480
100
AcDbEntity
  8
TEXT
  6
Continuous
 62
     0
100
AcDbText
 10
293.25
 20
227.5
 30
0.0
 40
3.5
  1
Kapcsol¾ l÷ket
 50
90.0
100
AcDbText
  0
ENDBLK
  5
481
100
AcDbEntity
  8
0
100
AcDbBlockEnd
  0
BLOCK
  5
484
100
AcDbEntity
  8
0
100
AcDbBlockBegin
  2
*B77
 70
     0
 10
0.0
 20
0.0
 30
0.0
  3
*B77
  1

  0
TEXT
  5
485
100
AcDbEntity
  8
TEXT
  6
Continuous
 62
     0
100
AcDbText
 10
154.122783
 20
77.75
 30
0.0
 40
3.5
  1
16
100
AcDbText
  0
ENDBLK
  5
486
100
AcDbEntity
  8
0
100
AcDbBlockEnd
  0
BLOCK
  5
489
100
AcDbEntity
  8
0
100
AcDbBlockBegin
  2
*B78
 70
     0
 10
0.0
 20
0.0
 30
0.0
  3
*B78
  1

  0
TEXT
  5
48A
100
AcDbEntity
  8
TEXT
  6
Continuous
 62
     0
100
AcDbText
 10
317.25
 20
187.314661
 30
0.0
 40
3.5
  1
26
 50
90.0
100
AcDbText
  0
ENDBLK
  5
48B
100
AcDbEntity
  8
0
100
AcDbBlockEnd
  0
ENDSEC
  0
SECTION
  2
ENTITIES
  0
INSERT
  5
163
100
AcDbEntity
  8
0
  6
HIDDEN
 62
   174
100
AcDbBlockReference
  2
*B1
 10
0.0
 20
0.0
 30
0.0
  0
INSERT
  5
16A
100
AcDbEntity
  8
0
  6
Continuous
 62
   112
100
AcDbBlockReference
  2
*B2
 10
0.0
 20
0.0
 30
0.0
  0
INSERT
  5
2C2
100
AcDbEntity
  8
0
  6
Continuous
 62
   174
100
AcDbBlockReference
  2
*B3
 10
0.0
 20
0.0
 30
0.0
  0
INSERT
  5
2C9
100
AcDbEntity
  8
0
  6
Continuous
 62
     0
100
AcDbBlockReference
  2
*B4
 10
0.0
 20
0.0
 30
0.0
  0
INSERT
  5
2D0
100
AcDbEntity
  8
0
  6
Continuous
 62
     0
100
AcDbBlockReference
  2
*B5
 10
0.0
 20
0.0
 30
0.0
  0
INSERT
  5
2D7
100
AcDbEntity
  8
0
  6
Continuous
 62
     0
100
AcDbBlockReference
  2
*B6
 10
0.0
 20
0.0
 30
0.0
  0
INSERT
  5
2DE
100
AcDbEntity
  8
0
  6
Continuous
 62
     0
100
AcDbBlockReference
  2
*B7
 10
0.0
 20
0.0
 30
0.0
  0
INSERT
  5
2E5
100
AcDbEntity
  8
0
  6
Continuous
 62
     0
100
AcDbBlockReference
  2
*B8
 10
0.0
 20
0.0
 30
0.0
  0
INSERT
  5
2EC
100
AcDbEntity
  8
0
  6
Continuous
 62
     0
100
AcDbBlockReference
  2
*B9
 10
0.0
 20
0.0
 30
0.0
  0
INSERT
  5
2F3
100
AcDbEntity
  8
0
  6
Continuous
 62
     0
100
AcDbBlockReference
  2
*B10
 10
0.0
 20
0.0
 30
0.0
  0
INSERT
  5
2FA
100
AcDbEntity
  8
0
  6
Continuous
 62
     0
100
AcDbBlockReference
  2
*B11
 10
0.0
 20
0.0
 30
0.0
  0
INSERT
  5
301
100
AcDbEntity
  8
0
  6
Continuous
 62
     0
100
AcDbBlockReference
  2
*B12
 10
0.0
 20
0.0
 30
0.0
  0
INSERT
  5
308
100
AcDbEntity
  8
0
  6
Continuous
 62
     0
100
AcDbBlockReference
  2
*B13
 10
0.0
 20
0.0
 30
0.0
  0
INSERT
  5
30F
100
AcDbEntity
  8
0
  6
Continuous
 62
     0
100
AcDbBlockReference
  2
*B14
 10
0.0
 20
0.0
 30
0.0
  0
INSERT
  5
316
100
AcDbEntity
  8
0
  6
Continuous
 62
     0
100
AcDbBlockReference
  2
*B15
 10
0.0
 20
0.0
 30
0.0
  0
INSERT
  5
31D
100
AcDbEntity
  8
0
  6
Continuous
 62
     0
100
AcDbBlockReference
  2
*B16
 10
0.0
 20
0.0
 30
0.0
  0
INSERT
  5
324
100
AcDbEntity
  8
0
  6
Continuous
 62
     0
100
AcDbBlockReference
  2
*B17
 10
0.0
 20
0.0
 30
0.0
  0
INSERT
  5
32B
100
AcDbEntity
  8
0
  6
Continuous
 62
     0
100
AcDbBlockReference
  2
*B18
 10
0.0
 20
0.0
 30
0.0
  0
INSERT
  5
332
100
AcDbEntity
  8
0
  6
Continuous
 62
     0
100
AcDbBlockReference
  2
*B19
 10
0.0
 20
0.0
 30
0.0
  0
INSERT
  5
338
100
AcDbEntity
  8
0
  6
Continuous
 62
     8
100
AcDbBlockReference
  2
*B20
 10
0.0
 20
0.0
 30
0.0
  0
INSERT
  5
347
100
AcDbEntity
  8
0
  6
Continuous
 62
     8
100
AcDbBlockReference
  2
*B21
 10
0.0
 20
0.0
 30
0.0
  0
INSERT
  5
34C
100
AcDbEntity
  8
0
  6
Continuous
 62
     8
100
AcDbBlockReference
  2
*B22
 10
0.0
 20
0.0
 30
0.0
  0
INSERT
  5
351
100
AcDbEntity
  8
0
  6
Continuous
 62
     8
100
AcDbBlockReference
  2
*B23
 10
0.0
 20
0.0
 30
0.0
  0
INSERT
  5
357
100
AcDbEntity
  8
0
  6
Continuous
 62
     8
100
AcDbBlockReference
  2
*B24
 10
0.0
 20
0.0
 30
0.0
  0
INSERT
  5
35C
100
AcDbEntity
  8
0
  6
Continuous
 62
     8
100
AcDbBlockReference
  2
*B25
 10
0.0
 20
0.0
 30
0.0
  0
INSERT
  5
364
100
AcDbEntity
  8
0
  6
Continuous
 62
     8
100
AcDbBlockReference
  2
*B26
 10
0.0
 20
0.0
 30
0.0
  0
INSERT
  5
36A
100
AcDbEntity
  8
0
  6
Continuous
 62
     8
100
AcDbBlockReference
  2
*B27
 10
0.0
 20
0.0
 30
0.0
  0
INSERT
  5
370
100
AcDbEntity
  8
0
  6
Continuous
 62
     8
100
AcDbBlockReference
  2
*B28
 10
0.0
 20
0.0
 30
0.0
  0
INSERT
  5
376
100
AcDbEntity
  8
0
  6
Continuous
 62
     8
100
AcDbBlockReference
  2
*B29
 10
0.0
 20
0.0
 30
0.0
  0
INSERT
  5
37E
100
AcDbEntity
  8
0
  6
Continuous
 62
     8
100
AcDbBlockReference
  2
*B30
 10
0.0
 20
0.0
 30
0.0
  0
INSERT
  5
384
100
AcDbEntity
  8
0
  6
Continuous
 62
     8
100
AcDbBlockReference
  2
*B31
 10
0.0
 20
0.0
 30
0.0
  0
INSERT
  5
389
100
AcDbEntity
  8
0
  6
Continuous
 62
     8
100
AcDbBlockReference
  2
*B32
 10
0.0
 20
0.0
 30
0.0
  0
INSERT
  5
38E
100
AcDbEntity
  8
0
  6
Continuous
 62
     8
100
AcDbBlockReference
  2
*B33
 10
0.0
 20
0.0
 30
0.0
  0
INSERT
  5
393
100
AcDbEntity
  8
0
  6
Continuous
 62
     8
100
AcDbBlockReference
  2
*B34
 10
0.0
 20
0.0
 30
0.0
  0
INSERT
  5
39C
100
AcDbEntity
  8
0
  6
Continuous
 62
     8
100
AcDbBlockReference
  2
*B35
 10
0.0
 20
0.0
 30
0.0
  0
INSERT
  5
3A1
100
AcDbEntity
  8
0
  6
Continuous
 62
     8
100
AcDbBlockReference
  2
*B36
 10
0.0
 20
0.0
 30
0.0
  0
INSERT
  5
3A6
100
AcDbEntity
  8
0
  6
Continuous
 62
     8
100
AcDbBlockReference
  2
*B37
 10
0.0
 20
0.0
 30
0.0
  0
INSERT
  5
3AB
100
AcDbEntity
  8
0
  6
Continuous
 62
     8
100
AcDbBlockReference
  2
*B38
 10
0.0
 20
0.0
 30
0.0
  0
INSERT
  5
3B6
100
AcDbEntity
  8
0
  6
Continuous
 62
     8
100
AcDbBlockReference
  2
*B39
 10
0.0
 20
0.0
 30
0.0
  0
INSERT
  5
3BB
100
AcDbEntity
  8
0
  6
Continuous
 62
     8
100
AcDbBlockReference
  2
*B40
 10
0.0
 20
0.0
 30
0.0
  0
INSERT
  5
3C2
100
AcDbEntity
  8
0
  6
Continuous
 62
     8
100
AcDbBlockReference
  2
*B41
 10
0.0
 20
0.0
 30
0.0
  0
INSERT
  5
3C7
100
AcDbEntity
  8
0
  6
Continuous
 62
     8
100
AcDbBlockReference
  2
*B42
 10
0.0
 20
0.0
 30
0.0
  0
INSERT
  5
3CF
100
AcDbEntity
  8
0
  6
Continuous
 62
     8
100
AcDbBlockReference
  2
*B43
 10
0.0
 20
0.0
 30
0.0
  0
INSERT
  5
3D5
100
AcDbEntity
  8
0
  6
Continuous
 62
     8
100
AcDbBlockReference
  2
*B44
 10
0.0
 20
0.0
 30
0.0
  0
INSERT
  5
3DC
100
AcDbEntity
  8
0
  6
Continuous
 62
     8
100
AcDbBlockReference
  2
*B45
 10
0.0
 20
0.0
 30
0.0
  0
INSERT
  5
3E1
100
AcDbEntity
  8
0
  6
Continuous
 62
     8
100
AcDbBlockReference
  2
*B46
 10
0.0
 20
0.0
 30
0.0
  0
INSERT
  5
3E7
100
AcDbEntity
  8
0
  6
Continuous
 62
     8
100
AcDbBlockReference
  2
*B47
 10
0.0
 20
0.0
 30
0.0
  0
INSERT
  5
3EC
100
AcDbEntity
  8
0
  6
Continuous
 62
     8
100
AcDbBlockReference
  2
*B48
 10
0.0
 20
0.0
 30
0.0
  0
INSERT
  5
3F2
100
AcDbEntity
  8
0
  6
Continuous
 62
     8
100
AcDbBlockReference
  2
*B49
 10
0.0
 20
0.0
 30
0.0
  0
INSERT
  5
3F8
100
AcDbEntity
  8
0
  6
Continuous
 62
     8
100
AcDbBlockReference
  2
*B50
 10
0.0
 20
0.0
 30
0.0
  0
INSERT
  5
3FD
100
AcDbEntity
  8
0
  6
Continuous
 62
     8
100
AcDbBlockReference
  2
*B51
 10
0.0
 20
0.0
 30
0.0
  0
INSERT
  5
402
100
AcDbEntity
  8
0
  6
Continuous
 62
     8
100
AcDbBlockReference
  2
*B52
 10
0.0
 20
0.0
 30
0.0
  0
INSERT
  5
407
100
AcDbEntity
  8
0
  6
Continuous
 62
     8
100
AcDbBlockReference
  2
*B53
 10
0.0
 20
0.0
 30
0.0
  0
INSERT
  5
40D
100
AcDbEntity
  8
0
  6
Continuous
 62
     6
100
AcDbBlockReference
  2
*B54
 10
0.0
 20
0.0
 30
0.0
  0
INSERT
  5
413
100
AcDbEntity
  8
0
  6
Continuous
 62
     6
100
AcDbBlockReference
  2
*B55
 10
0.0
 20
0.0
 30
0.0
  0
INSERT
  5
419
100
AcDbEntity
  8
0
  6
Continuous
 62
     6
100
AcDbBlockReference
  2
*B56
 10
0.0
 20
0.0
 30
0.0
  0
INSERT
  5
41F
100
AcDbEntity
  8
0
  6
Continuous
 62
     6
100
AcDbBlockReference
  2
*B57
 10
0.0
 20
0.0
 30
0.0
  0
INSERT
  5
425
100
AcDbEntity
  8
0
  6
Continuous
 62
     6
100
AcDbBlockReference
  2
*B58
 10
0.0
 20
0.0
 30
0.0
  0
INSERT
  5
42B
100
AcDbEntity
  8
0
  6
Continuous
 62
     6
100
AcDbBlockReference
  2
*B59
 10
0.0
 20
0.0
 30
0.0
  0
INSERT
  5
430
100
AcDbEntity
  8
TEXT
  6
Continuous
 62
     0
100
AcDbBlockReference
  2
*B60
 10
0.0
 20
0.0
 30
0.0
  0
INSERT
  5
435
100
AcDbEntity
  8
TEXT
  6
Continuous
 62
     0
100
AcDbBlockReference
  2
*B61
 10
0.0
 20
0.0
 30
0.0
  0
INSERT
  5
43A
100
AcDbEntity
  8
TEXT
  6
Continuous
 62
     0
100
AcDbBlockReference
  2
*B62
 10
0.0
 20
0.0
 30
0.0
  0
INSERT
  5
43F
100
AcDbEntity
  8
TEXT
  6
Continuous
 62
     0
100
AcDbBlockReference
  2
*B63
 10
0.0
 20
0.0
 30
0.0
  0
INSERT
  5
444
100
AcDbEntity
  8
TEXT
  6
Continuous
 62
     0
100
AcDbBlockReference
  2
*B64
 10
0.0
 20
0.0
 30
0.0
  0
INSERT
  5
449
100
AcDbEntity
  8
TEXT
  6
Continuous
 62
     0
100
AcDbBlockReference
  2
*B65
 10
0.0
 20
0.0
 30
0.0
  0
INSERT
  5
44E
100
AcDbEntity
  8
TEXT
  6
Continuous
 62
     0
100
AcDbBlockReference
  2
*B66
 10
0.0
 20
0.0
 30
0.0
  0
INSERT
  5
453
100
AcDbEntity
  8
TEXT
  6
Continuous
 62
     0
100
AcDbBlockReference
  2
*B67
 10
0.0
 20
0.0
 30
0.0
  0
INSERT
  5
458
100
AcDbEntity
  8
TEXT
  6
Continuous
 62
     0
100
AcDbBlockReference
  2
*B68
 10
0.0
 20
0.0
 30
0.0
  0
INSERT
  5
45D
100
AcDbEntity
  8
TEXT
  6
Continuous
 62
     0
100
AcDbBlockReference
  2
*B69
 10
0.0
 20
0.0
 30
0.0
  0
INSERT
  5
462
100
AcDbEntity
  8
TEXT
  6
Continuous
 62
     0
100
AcDbBlockReference
  2
*B70
 10
0.0
 20
0.0
 30
0.0
  0
INSERT
  5
467
100
AcDbEntity
  8
TEXT
  6
Continuous
 62
     0
100
AcDbBlockReference
  2
*B71
 10
0.0
 20
0.0
 30
0.0
  0
INSERT
  5
46C
100
AcDbEntity
  8
TEXT
  6
Continuous
 62
     0
100
AcDbBlockReference
  2
*B72
 10
0.0
 20
0.0
 30
0.0
  0
INSERT
  5
471
100
AcDbEntity
  8
TEXT
  6
Continuous
 62
     0
100
AcDbBlockReference
  2
*B73
 10
0.0
 20
0.0
 30
0.0
  0
INSERT
  5
476
100
AcDbEntity
  8
TEXT
  6
Continuous
 62
     0
100
AcDbBlockReference
  2
*B74
 10
0.0
 20
0.0
 30
0.0
  0
INSERT
  5
47C
100
AcDbEntity
  8
TEXT
  6
Continuous
 62
     0
100
AcDbBlockReference
  2
*B75
 10
0.0
 20
0.0
 30
0.0
  0
INSERT
  5
482
100
AcDbEntity
  8
TEXT
  6
Continuous
 62
     0
100
AcDbBlockReference
  2
*B76
 10
0.0
 20
0.0
 30
0.0
  0
INSERT
  5
487
100
AcDbEntity
  8
TEXT
  6
Continuous
 62
     0
100
AcDbBlockReference
  2
*B77
 10
0.0
 20
0.0
 30
0.0
  0
INSERT
  5
48C
100
AcDbEntity
  8
TEXT
  6
Continuous
 62
     0
100
AcDbBlockReference
  2
*B78
 10
0.0
 20
0.0
 30
0.0
  0
ENDSEC
  0
SECTION
  2
OBJECTS
  0
DICTIONARY
  5
19
100
AcDbDictionary
280
     0
281
     1
  3
ACAD_GROUP
350
1A
  3
ACAD_MLINESTYLE
350
1B
  3
ACAD_LAYOUT
350
1E
  3
ACAD_PLOTSETTINGS
350
22
  3
ACAD_PLOTSTYLENAME
350
1F
  3
ACAD_WIPEOUT_VARS
350
23
  0
DICTIONARY
  5
1A
102
{ACAD_REACTORS
330
19
102
}
100
AcDbDictionary
280
     0
281
     1
  0
DICTIONARY
  5
1B
102
{ACAD_REACTORS
330
19
102
}
100
AcDbDictionary
280
     0
281
     1
  3
Standard
350
1C
  0
MLINESTYLE
  5
1C
102
{ACAD_REACTORS
330
1B
102
}
100
AcDbMlineStyle
  2
Standard
 70
     0
  3

 62
     0
 51
90.0
 52
90.0
 71
     2
 49
0.5
 62
   256
  6
BYLAYER
 49
-0.5
 62
   256
  6
BYLAYER
  0
ACDBDICTIONARYWDFLT
  5
1F
102
{ACAD_REACTORS
330
19
102
}
100
AcDbDictionary
281
     1
  3
Normal
350
1D
100
AcDbDictionaryWithDefault
340
1D
  0
ACDBPLACEHOLDER
  5
1D
102
{ACAD_REACTORS
330
1F
102
}
  0
LAYOUT
  5
20
102
{ACAD_REACTORS
330
1E
102
}
100
AcDbPlotSettings
  1

  2

  4

  6

 40
0.0
 41
0.0
 42
0.0
 43
0.0
 44
0.0
 45
0.0
 46
0.0
 47
0.0
 48
0.0
 49
0.0
140
0.0
141
0.0
142
1.0
143
1.0
 70
     0
 72
     0
 73
     0
 74
     0
  7

 75
     0
147
1.0
148
0.0
149
0.0
100
AcDbLayout
  1
Model
 70
     0
 71
     0
 10
0.0
 20
0.0
 11
0.0
 21
0.0
 12
0.0
 22
0.0
 32
0.0
 14
0.0
 24
0.0
 34
0.0
 15
0.0
 25
0.0
 35
0.0
146
0.0
 13
0.0
 23
0.0
 33
0.0
 16
0.0
 26
0.0
 36
0.0
 17
0.0
 27
0.0
 37
0.0
 76
     0
330
A
331
0
345
0
346
0
  0
LAYOUT
  5
21
102
{ACAD_REACTORS
330
1E
102
}
100
AcDbPlotSettings
  1

  2

  4

  6

 40
0.0
 41
0.0
 42
0.0
 43
0.0
 44
0.0
 45
0.0
 46
0.0
 47
0.0
 48
0.0
 49
0.0
140
0.0
141
0.0
142
1.0
143
1.0
 70
     0
 72
     0
 73
     0
 74
     0
  7

 75
     0
147
1.0
148
0.0
149
0.0
100
AcDbLayout
  1
Layout1
 70
     0
 71
     0
 10
0.0
 20
0.0
 11
0.0
 21
0.0
 12
0.0
 22
0.0
 32
0.0
 14
0.0
 24
0.0
 34
0.0
 15
0.0
 25
0.0
 35
0.0
146
0.0
 13
0.0
 23
0.0
 33
0.0
 16
0.0
 26
0.0
 36
0.0
 17
0.0
 27
0.0
 37
0.0
 76
     0
330
B
331
0
345
0
346
0
  0
DICTIONARY
  5
1E
102
{ACAD_REACTORS
330
19
102
}
100
AcDbDictionary
280
     0
281
     1
  3
Layout1
350
21
  3
Model
350
20
  0
DICTIONARY
  5
22
102
{ACAD_REACTORS
330
19
102
}
100
AcDbDictionary
280
     0
281
     1
  0
WIPEOUTVARIABLES
  5
23
100
AcDbWipeoutVariables
 70
     1
  0
ENDSEC
  0
EOF
