  0
SECTION
  2
HEADER
  9
$ACADVER
  1
AC1015
  9
$ACADMAINTVER
 70
     6
  9
$DWGCODEPAGE
  3
DOS850
  9
$INSBASE
 10
0.0
 20
0.0
 30
0.0
  9
$EXTMIN
 10
0.0
 20
0.0
 30
0.0
  9
$EXTMAX
 10
420.0
 20
297.0
 30
0.0
  9
$LIMMIN
 10
0.0
 20
0.0
  9
$LIMMAX
 10
420.0
 20
297.0
  9
$ORTHOMODE
 70
     0
  9
$REGENMODE
 70
     1
  9
$FILLMODE
 70
     1
  9
$QTEXTMODE
 70
     0
  9
$MIRRTEXT
 70
     1
  9
$LTSCALE
 40
25.4
  9
$ATTMODE
 70
     1
  9
$TEXTSIZE
 40
3.5
  9
$TRACEWID
 40
0.05
  9
$TEXTSTYLE
  7
Standard
  9
$CLAYER
  8
0
  9
$CELTYPE
  6
Continuous
  9
$CECOLOR
 62
   256
  9
$CELTSCALE
 40
1.0
  9
$DISPSILH
 70
     0
  9
$DIMSCALE
 40
1.0
  9
$DIMASZ
 40
5.0
  9
$DIMEXO
 40
3.0
  9
$DIMDLI
 40
0.38
  9
$DIMRND
 40
0.0
  9
$DIMDLE
 40
0.0
  9
$DIMEXE
 40
2.0
  9
$DIMTP
 40
0.0
  9
$DIMTM
 40
0.0
  9
$DIMTXT
 40
3.5
  9
$DIMCEN
 40
4.0
  9
$DIMTSZ
 40
0.0
  9
$DIMTOL
 70
     0
  9
$DIMLIM
 70
     0
  9
$DIMTIH
 70
     1
  9
$DIMTOH
 70
     1
  9
$DIMSE1
 70
     0
  9
$DIMSE2
 70
     0
  9
$DIMTAD
 70
     0
  9
$DIMZIN
 70
     0
  9
$DIMBLK
  1

  9
$DIMASO
 70
     1
  9
$DIMSHO
 70
     1
  9
$DIMPOST
  1

  9
$DIMAPOST
  1

  9
$DIMALT
 70
     0
  9
$DIMALTD
 70
     2
  9
$DIMALTF
 40
25.4
  9
$DIMLFAC
 40
1.0
  9
$DIMTOFL
 70
     0
  9
$DIMTVP
 40
0.0
  9
$DIMTIX
 70
     0
  9
$DIMSOXD
 70
     0
  9
$DIMSAH
 70
     0
  9
$DIMBLK1
  1

  9
$DIMBLK2
  1

  9
$DIMSTYLE
  2
Standard
  9
$DIMCLRD
 70
     0
  9
$DIMCLRE
 70
     0
  9
$DIMCLRT
 70
     0
  9
$DIMTFAC
 40
1.0
  9
$DIMGAP
 40
1.0
  9
$DIMJUST
 70
     0
  9
$DIMSD1
 70
     0
  9
$DIMSD2
 70
     0
  9
$DIMTOLJ
 70
     1
  9
$DIMTZIN
 70
     0
  9
$DIMALTZ
 70
     0
  9
$DIMALTTZ
 70
     0
  9
$DIMUPT
 70
     0
  9
$DIMDEC
 70
     4
  9
$DIMTDEC
 70
     4
  9
$DIMALTU
 70
     2
  9
$DIMALTTD
 70
     2
  9
$DIMTXSTY
  7
Standard
  9
$DIMAUNIT
 70
     0
  9
$DIMADEC
 70
     0
  9
$DIMALTRND
 40
0.0
  9
$DIMAZIN
 70
     0
  9
$DIMDSEP
 70
     0
  9
$DIMATFIT
 70
     3
  9
$DIMFRAC
 70
     0
  9
$DIMLDRBLK
  1

  9
$DIMLUNIT
 70
     2
  9
$DIMLWD
 70
     0
  9
$DIMLWE
 70
     0
  9
$DIMTMOVE
 70
     0
  9
$LUNITS
 70
     2
  9
$LUPREC
 70
     4
  9
$SKETCHINC
 40
0.1
  9
$FILLETRAD
 40
0.0
  9
$AUNITS
 70
     0
  9
$AUPREC
 70
     0
  9
$MENU
  1
acad
  9
$ELEVATION
 40
0.0
  9
$PELEVATION
 40
0.0
  9
$THICKNESS
 40
0.0
  9
$LIMCHECK
 70
     0
  9
$CHAMFERA
 40
0.0
  9
$CHAMFERB
 40
0.0
  9
$CHAMFERC
 40
0.0
  9
$CHAMFERD
 40
0.0
  9
$SKPOLY
 70
     0
  9
$TDCREATE
 40
0.000000000
  9
$TDUCREATE
 40
0.000000000
  9
$TDUPDATE
 40
0.000000000
  9
$TDUUPDATE
 40
0.000000000
  9
$TDINDWG
 40
0.0000000000
  9
$TDUSRTIMER
 40
0.0000000000
  9
$USRTIMER
 70
     1
  9
$ANGBASE
 50
0.0
  9
$ANGDIR
 70
     0
  9
$PDMODE
 70
     0
  9
$PDSIZE
 40
0.0
  9
$PLINEWID
 40
0.0
  9
$SPLFRAME
 70
     0
  9
$SPLINETYPE
 70
     6
  9
$SPLINESEGS
 70
     8
  9
$HANDSEED
  5
511
  9
$SURFTAB1
 70
     6
  9
$SURFTAB2
 70
     6
  9
$SURFTYPE
 70
     6
  9
$SURFU
 70
     6
  9
$SURFV
 70
     6
  9
$UCSBASE
  2

  9
$UCSNAME
  2

  9
$UCSORG
 10
0.0
 20
0.0
 30
0.0
  9
$UCSXDIR
 10
1.0
 20
0.0
 30
0.0
  9
$UCSYDIR
 10
0.0
 20
1.0
 30
0.0
  9
$UCSORTHOREF
  2

  9
$UCSORTHOVIEW
 70
     0
  9
$UCSORGTOP
 10
0.0
 20
0.0
 30
0.0
  9
$UCSORGBOTTOM
 10
0.0
 20
0.0
 30
0.0
  9
$UCSORGLEFT
 10
0.0
 20
0.0
 30
0.0
  9
$UCSORGRIGHT
 10
0.0
 20
0.0
 30
0.0
  9
$UCSORGFRONT
 10
0.0
 20
0.0
 30
0.0
  9
$UCSORGBACK
 10
0.0
 20
0.0
 30
0.0
  9
$PUCSBASE
  2

  9
$PUCSNAME
  2

  9
$PUCSORG
 10
0.0
 20
0.0
 30
0.0
  9
$PUCSXDIR
 10
1.0
 20
0.0
 30
0.0
  9
$PUCSYDIR
 10
0.0
 20
1.0
 30
0.0
  9
$PUCSORTHOREF
  2

  9
$PUCSORTHOVIEW
 70
     0
  9
$PUCSORGTOP
 10
0.0
 20
0.0
 30
0.0
  9
$PUCSORGBOTTOM
 10
0.0
 20
0.0
 30
0.0
  9
$PUCSORGLEFT
 10
0.0
 20
0.0
 30
0.0
  9
$PUCSORGRIGHT
 10
0.0
 20
0.0
 30
0.0
  9
$PUCSORGFRONT
 10
0.0
 20
0.0
 30
0.0
  9
$PUCSORGBACK
 10
0.0
 20
0.0
 30
0.0
  9
$USERI1
 70
     0
  9
$USERI2
 70
     0
  9
$USERI3
 70
     0
  9
$USERI4
 70
     0
  9
$USERI5
 70
     0
  9
$USERR1
 40
0.0
  9
$USERR2
 40
0.0
  9
$USERR3
 40
0.0
  9
$USERR4
 40
0.0
  9
$USERR5
 40
0.0
  9
$WORLDVIEW
 70
     1
  9
$SHADEDGE
 70
     3
  9
$SHADEDIF
 70
    70
  9
$TILEMODE
 70
     1
  9
$MAXACTVP
 70
    16
  9
$PINSBASE
 10
0.0
 20
0.0
 30
0.0
  9
$PLIMCHECK
 70
     0
  9
$PEXTMIN
 10
1.000000E+20
 20
1.000000E+20
 30
1.000000E+20
  9
$PEXTMAX
 10
-1.000000E+20
 20
-1.000000E+20
 30
-1.000000E+20
  9
$PLIMMIN
 10
0.0
 20
0.0
  9
$PLIMMAX
 10
420.0
 20
297.0
  9
$UNITMODE
 70
     0
  9
$VISRETAIN
 70
     0
  9
$PLINEGEN
 70
     1
  9
$PSLTSCALE
 70
     0
  9
$TREEDEPTH
 70
  3020
  9
$CMLSTYLE
  2
Standard
  9
$CMLJUST
 70
     0
  9
$CMLSCALE
 40
1.0
  9
$PROXYGRAPHICS
 70
     0
  9
$MEASUREMENT
 70
     0
  9
$CELWEIGHT
370
     0
  9
$ENDCAPS
280
     0
  9
$JOINSTYLE
280
     0
  9
$LWDISPLAY
290
     0
  9
$INSUNITS
 70
     0
  9
$HYPERLINKBASE
  1

  9
$XEDIT
290
     1
  9
$CEPSNTYPE
380
     0
  9
$PSTYLEMODE
290
     0
  9
$FINGERPRINTGUID
  2

  9
$VERSIONGUID
  2

  9
$EXTNAMES
290
     1
  9
$PSVPSCALE
 40
0.0
  0
ENDSEC
  0
SECTION
  2
CLASSES
  0
CLASS
  1
LWPOLYLINE
  2
AcDbPolyline
  3
"AutoCAD"
 90
        0
280
     0
281
     1
  0
CLASS
  1
IMAGE
  2
AcDbRasterImage
  3
ISM
 90
      127
280
     0
281
     1
  0
CLASS
  1
OLE2FRAME
  2
AcDbOle2Frame
  3
""
 90
        0
280
     0
281
     1
  0
CLASS
  1
HATCH
  2
AcDbHatch
  3
"ACAD_SEDONA"
 90
        0
280
     0
281
     1
  0
CLASS
  1
DICTIONARYVAR
  2
AcDbDictionaryVar
  3
"AutoCAD"
 90
        0
280
     0
281
     0
  0
CLASS
  1
RASTERVARIABLES
  2
AcDbRasterVariables
  3
ISM
 90
        0
280
     0
281
     0
  0
CLASS
  1
IMAGEDEF
  2
AcDbRasterImageDef
  3
ISM
 90
        0
280
     0
281
     0
  0
CLASS
  1
IMAGEDEF_REACTOR
  2
AcDbRasterImageDefReactor
  3
ISM
 90
        1
280
     0
281
     0
  0
CLASS
  1
IDBUFFER
  2
AcDbIdBuffer
  3
"Acad"
 90
        0
280
     0
281
     0
  0
CLASS
  1
SPATIAL_FILTER
  2
AcDbSpatialFilter
  3
"Acad"
 90
        0
280
     0
281
     0
  0
CLASS
  1
XRECORD
  2
AcDbXrecord
  3
"<Built In>"
 90
        0
280
     0
281
     0
  0
CLASS
  1
SORTENTSTABLE
  2
AcDbSortentsTable
  3
"AutoCAD"
 90
        0
280
     0
281
     0
  0
CLASS
  1
LAYER_INDEX
  2
AcDbLayerIndex
  3
"Acad"
 90
        0
280
     0
281
     0
  0
CLASS
  1
SPATIAL_INDEX
  2
AcDbSpatialIndex
  3
"Acad"
 90
        0
280
     0
281
     0
  0
CLASS
  1
OBJECT_PTR
  2
CAseDLPNTableRecord
  3
"ASE-LPNTableRecord"
 90
        1
280
     0
281
     0
  0
CLASS
  1
LAYOUT
  2
AcDbLayout
  3
"AutoCAD 2000"
 90
        1
280
     0
281
     0
  0
CLASS
  1
PLOTSETTINGS
  2
AcDbPlotSettings
  3
"AutoCAD 2000"
 90
        1
280
     0
281
     0
  0
CLASS
  1
ACDBDICTIONARYWDFLT
  2
AcDbDictionaryWithDefault
  3
"AutoCAD 2000"
 90
        1
280
     0
281
     0
  0
CLASS
  1
ACDBPLACEHOLDER
  2
AcDbPlaceHolder
  3
"AutoCAD 2000"
 90
        1
280
     0
281
     0
  0
CLASS
  1
VBA_PROJECT
  2
AcDbVbaProject
  3
"acadvba"
 90
        1
280
     0
281
     0
  0
CLASS
  1
WIPEOUT
  2
AcDbWipeout
  3
WipeOut|AutoCAD Express Tool|expresstools@autodesk.com
 90
      127
280
     0
281
     1
  0
CLASS
  1
WIPEOUTVARIABLES
  2
AcDbWipeoutVariables
  3
WipeOut|AutoCAD Express Tool|expresstools@autodesk.com
 90
        0
280
     0
281
     0
  0
CLASS
  1
RTEXT
  2
RText
  3
RText|AutoCAD Express Tool|expresstools@autodesk.com
 90
        0
280
     0
281
     1
  0
CLASS
  1
ARCALIGNEDTEXT
  2
AcDbArcAlignedText
  3
ATEXT|AutoCAD Express Tool|expresstools@autodesk.com
 90
        0
280
     0
281
     1
  0
ENDSEC
  0
SECTION
  2
TABLES
  0
TABLE
  2
VPORT
  5
7
100
AcDbSymbolTable
 70
     1
  0
VPORT
  5
15
100
AcDbSymbolTableRecord
100
AcDbViewportTableRecord
  2
*ACTIVE
 70
     0
 10
0.0
 20
0.0
 11
1.0
 21
1.0
 12
6.591288
 22
4.579184
 13
0.0
 23
0.0
 14
1.0
 24
1.0
 15
0.0
 25
0.0
 16
0.0
 26
0.0
 36
1.0
 17
0.0
 27
0.0
 37
0.0
 40
9.158369
 41
0.688564
 42
50.0
 43
0.0
 44
0.0
 50
0.0
 51
0.0
 71
     0
 72
   100
 73
     1
 74
     1
 75
     0
 76
     0
 77
     0
 78
     0
281
     0
 65
     0
110
0.0
120
0.0
130
0.0
111
1.0
121
0.0
131
0.0
112
0.0
122
1.0
132
0.0
345
0
346
0
 79
     0
146
0.0
  0
ENDTAB
  0
TABLE
  2
LTYPE
  5
4
100
AcDbSymbolTable
 70
     7
  0
LTYPE
  5
11
100
AcDbSymbolTableRecord
100
AcDbLinetypeTableRecord
  2
ByBlock
 70
    64
  3

 72
    65
 73
     0
 40
0.0
  0
LTYPE
  5
12
100
AcDbSymbolTableRecord
100
AcDbLinetypeTableRecord
  2
ByLayer
 70
    64
  3

 72
    65
 73
     0
 40
0.0
  0
LTYPE
  5
13
100
AcDbSymbolTableRecord
100
AcDbLinetypeTableRecord
  2
Continuous
 70
    64
  3
Solid line
 72
    65
 73
     0
 40
0.0
  0
LTYPE
  5
24
100
AcDbSymbolTableRecord
100
AcDbLinetypeTableRecord
  2
HIDDEN
 70
    64
  3
_ _ _ _ _ _ _ _ _ _ _ _ _ _ _ _ _ _ _ _ _ _ _ _
 72
    65
 73
     2
 40
0.1875
 49
0.125
 74
     0
 49
-0.0625
 74
     0
  0
LTYPE
  5
25
100
AcDbSymbolTableRecord
100
AcDbLinetypeTableRecord
  2
DOTTED
 70
    64
  3
...............................................
 72
    65
 73
     2
 40
0.125
 49
0.0
 74
     0
 49
-0.125
 74
     0
  0
LTYPE
  5
26
100
AcDbSymbolTableRecord
100
AcDbLinetypeTableRecord
  2
CENTER
 70
    64
  3
____ _ ____ _ ____ _ ____ _ ____ _ ____ _ ____ 
 72
    65
 73
     4
 40
1.125
 49
0.75
 74
     0
 49
-0.125
 74
     0
 49
0.125
 74
     0
 49
-0.125
 74
     0
  0
LTYPE
  5
27
100
AcDbSymbolTableRecord
100
AcDbLinetypeTableRecord
  2
PHANTOM
 70
    64
  3
______  __  __  ______  __  __  ______  __  __ 
 72
    65
 73
     6
 40
1.25
 49
0.625
 74
     0
 49
-0.125
 74
     0
 49
0.125
 74
     0
 49
-0.125
 74
     0
 49
0.125
 74
     0
 49
-0.125
 74
     0
  0
ENDTAB
  0
TABLE
  2
LAYER
  5
2
100
AcDbSymbolTable
 70
     2
  0
LAYER
  5
14
100
AcDbSymbolTableRecord
100
AcDbLayerTableRecord
  2
0
 70
     0
 62
     7
  6
Continuous
290
     1
370
    -3
390
1D
  0
LAYER
  5
28
100
AcDbSymbolTableRecord
100
AcDbLayerTableRecord
  2
TEXT
 70
     0
 62
     8
  6
Continuous
290
     1
370
    -3
390
1F
  0
ENDTAB
  0
TABLE
  2
STYLE
  5
3
100
AcDbSymbolTable
 70
     1
  0
STYLE
  5
17
100
AcDbSymbolTableRecord
100
AcDbTextStyleTableRecord
  2
Standard
 70
     0
 40
0.0
 41
1.0
 50
0.0
 71
     0
 42
0.0
  3
txt
  4

  0
ENDTAB
  0
TABLE
  2
VIEW
  5
5
100
AcDbSymbolTable
 70
     0
  0
ENDTAB
  0
TABLE
  2
UCS
  5
6
100
AcDbSymbolTable
 70
     0
  0
ENDTAB
  0
TABLE
  2
APPID
  5
8
100
AcDbSymbolTable
 70
     1
  0
APPID
  5
16
100
AcDbSymbolTableRecord
100
AcDbRegAppTableRecord
  2
ACAD
 70
     0
  0
ENDTAB
  0
TABLE
  2
DIMSTYLE
  5
9
100
AcDbSymbolTable
 70
     1
100
AcDbDimStyleTable
 71
     0
  0
DIMSTYLE
105
18
100
AcDbSymbolTableRecord
100
AcDbDimStyleTableRecord
  2
Standard
 70
     0
  3

  4

 40
1.0
 41
0.18
 42
0.0625
 43
0.38
 44
0.18
 45
0.0
 46
0.0
 47
0.0
 48
0.0
 71
     0
 72
     0
 73
     1
 74
     1
 75
     0
 76
     0
 77
     0
 78
     0
 79
     0
140
0.18
141
0.09
142
0.0
143
25.4
144
1.0
145
0.0
146
1.0
147
0.09
148
0.0
170
     0
171
     2
172
     0
173
     0
174
     0
175
     0
176
     0
177
     0
178
     0
179
     0
271
     4
272
     4
273
     2
274
     2
275
     0
276
     0
277
     2
278
    46
279
     0
280
     0
281
     0
282
     0
283
     1
284
     0
285
     0
286
     0
288
     0
340
17
341
0
342
0
343
0
344
0
371
    -2
372
    -2
  0
ENDTAB
  0
TABLE
  2
BLOCK_RECORD
  5
1
100
AcDbSymbolTable
 70
    89
  0
BLOCK_RECORD
  5
A
100
AcDbSymbolTableRecord
100
AcDbBlockTableRecord
  2
*MODEL_SPACE
340
20
  0
BLOCK_RECORD
  5
B
100
AcDbSymbolTableRecord
100
AcDbBlockTableRecord
  2
*PAPER_SPACE
340
21
  0
BLOCK_RECORD
  5
29
100
AcDbSymbolTableRecord
100
AcDbBlockTableRecord
  2
*B0
340
0
  0
BLOCK_RECORD
  5
2C
100
AcDbSymbolTableRecord
100
AcDbBlockTableRecord
  2
*B1
340
0
  0
BLOCK_RECORD
  5
18E
100
AcDbSymbolTableRecord
100
AcDbBlockTableRecord
  2
*B2
340
0
  0
BLOCK_RECORD
  5
195
100
AcDbSymbolTableRecord
100
AcDbBlockTableRecord
  2
*B3
340
0
  0
BLOCK_RECORD
  5
2F8
100
AcDbSymbolTableRecord
100
AcDbBlockTableRecord
  2
*B4
340
0
  0
BLOCK_RECORD
  5
2FF
100
AcDbSymbolTableRecord
100
AcDbBlockTableRecord
  2
*B5
340
0
  0
BLOCK_RECORD
  5
306
100
AcDbSymbolTableRecord
100
AcDbBlockTableRecord
  2
*B6
340
0
  0
BLOCK_RECORD
  5
30D
100
AcDbSymbolTableRecord
100
AcDbBlockTableRecord
  2
*B7
340
0
  0
BLOCK_RECORD
  5
314
100
AcDbSymbolTableRecord
100
AcDbBlockTableRecord
  2
*B8
340
0
  0
BLOCK_RECORD
  5
31B
100
AcDbSymbolTableRecord
100
AcDbBlockTableRecord
  2
*B9
340
0
  0
BLOCK_RECORD
  5
322
100
AcDbSymbolTableRecord
100
AcDbBlockTableRecord
  2
*B10
340
0
  0
BLOCK_RECORD
  5
329
100
AcDbSymbolTableRecord
100
AcDbBlockTableRecord
  2
*B11
340
0
  0
BLOCK_RECORD
  5
330
100
AcDbSymbolTableRecord
100
AcDbBlockTableRecord
  2
*B12
340
0
  0
BLOCK_RECORD
  5
337
100
AcDbSymbolTableRecord
100
AcDbBlockTableRecord
  2
*B13
340
0
  0
BLOCK_RECORD
  5
33E
100
AcDbSymbolTableRecord
100
AcDbBlockTableRecord
  2
*B14
340
0
  0
BLOCK_RECORD
  5
345
100
AcDbSymbolTableRecord
100
AcDbBlockTableRecord
  2
*B15
340
0
  0
BLOCK_RECORD
  5
34C
100
AcDbSymbolTableRecord
100
AcDbBlockTableRecord
  2
*B16
340
0
  0
BLOCK_RECORD
  5
353
100
AcDbSymbolTableRecord
100
AcDbBlockTableRecord
  2
*B17
340
0
  0
BLOCK_RECORD
  5
35A
100
AcDbSymbolTableRecord
100
AcDbBlockTableRecord
  2
*B18
340
0
  0
BLOCK_RECORD
  5
361
100
AcDbSymbolTableRecord
100
AcDbBlockTableRecord
  2
*B19
340
0
  0
BLOCK_RECORD
  5
368
100
AcDbSymbolTableRecord
100
AcDbBlockTableRecord
  2
*B20
340
0
  0
BLOCK_RECORD
  5
36F
100
AcDbSymbolTableRecord
100
AcDbBlockTableRecord
  2
*B21
340
0
  0
BLOCK_RECORD
  5
376
100
AcDbSymbolTableRecord
100
AcDbBlockTableRecord
  2
*B22
340
0
  0
BLOCK_RECORD
  5
37F
100
AcDbSymbolTableRecord
100
AcDbBlockTableRecord
  2
*B23
340
0
  0
BLOCK_RECORD
  5
385
100
AcDbSymbolTableRecord
100
AcDbBlockTableRecord
  2
*B24
340
0
  0
BLOCK_RECORD
  5
390
100
AcDbSymbolTableRecord
100
AcDbBlockTableRecord
  2
*B25
340
0
  0
BLOCK_RECORD
  5
395
100
AcDbSymbolTableRecord
100
AcDbBlockTableRecord
  2
*B26
340
0
  0
BLOCK_RECORD
  5
39C
100
AcDbSymbolTableRecord
100
AcDbBlockTableRecord
  2
*B27
340
0
  0
BLOCK_RECORD
  5
3A2
100
AcDbSymbolTableRecord
100
AcDbBlockTableRecord
  2
*B28
340
0
  0
BLOCK_RECORD
  5
3A8
100
AcDbSymbolTableRecord
100
AcDbBlockTableRecord
  2
*B29
340
0
  0
BLOCK_RECORD
  5
3AE
100
AcDbSymbolTableRecord
100
AcDbBlockTableRecord
  2
*B30
340
0
  0
BLOCK_RECORD
  5
3B4
100
AcDbSymbolTableRecord
100
AcDbBlockTableRecord
  2
*B31
340
0
  0
BLOCK_RECORD
  5
3B9
100
AcDbSymbolTableRecord
100
AcDbBlockTableRecord
  2
*B32
340
0
  0
BLOCK_RECORD
  5
3BE
100
AcDbSymbolTableRecord
100
AcDbBlockTableRecord
  2
*B33
340
0
  0
BLOCK_RECORD
  5
3C4
100
AcDbSymbolTableRecord
100
AcDbBlockTableRecord
  2
*B34
340
0
  0
BLOCK_RECORD
  5
3CA
100
AcDbSymbolTableRecord
100
AcDbBlockTableRecord
  2
*B35
340
0
  0
BLOCK_RECORD
  5
3CF
100
AcDbSymbolTableRecord
100
AcDbBlockTableRecord
  2
*B36
340
0
  0
BLOCK_RECORD
  5
3D4
100
AcDbSymbolTableRecord
100
AcDbBlockTableRecord
  2
*B37
340
0
  0
BLOCK_RECORD
  5
3D9
100
AcDbSymbolTableRecord
100
AcDbBlockTableRecord
  2
*B38
340
0
  0
BLOCK_RECORD
  5
3DF
100
AcDbSymbolTableRecord
100
AcDbBlockTableRecord
  2
*B39
340
0
  0
BLOCK_RECORD
  5
3E4
100
AcDbSymbolTableRecord
100
AcDbBlockTableRecord
  2
*B40
340
0
  0
BLOCK_RECORD
  5
3EA
100
AcDbSymbolTableRecord
100
AcDbBlockTableRecord
  2
*B41
340
0
  0
BLOCK_RECORD
  5
3F8
100
AcDbSymbolTableRecord
100
AcDbBlockTableRecord
  2
*B42
340
0
  0
BLOCK_RECORD
  5
3FE
100
AcDbSymbolTableRecord
100
AcDbBlockTableRecord
  2
*B43
340
0
  0
BLOCK_RECORD
  5
403
100
AcDbSymbolTableRecord
100
AcDbBlockTableRecord
  2
*B44
340
0
  0
BLOCK_RECORD
  5
408
100
AcDbSymbolTableRecord
100
AcDbBlockTableRecord
  2
*B45
340
0
  0
BLOCK_RECORD
  5
40D
100
AcDbSymbolTableRecord
100
AcDbBlockTableRecord
  2
*B46
340
0
  0
BLOCK_RECORD
  5
415
100
AcDbSymbolTableRecord
100
AcDbBlockTableRecord
  2
*B47
340
0
  0
BLOCK_RECORD
  5
41D
100
AcDbSymbolTableRecord
100
AcDbBlockTableRecord
  2
*B48
340
0
  0
BLOCK_RECORD
  5
423
100
AcDbSymbolTableRecord
100
AcDbBlockTableRecord
  2
*B49
340
0
  0
BLOCK_RECORD
  5
438
100
AcDbSymbolTableRecord
100
AcDbBlockTableRecord
  2
*B50
340
0
  0
BLOCK_RECORD
  5
43D
100
AcDbSymbolTableRecord
100
AcDbBlockTableRecord
  2
*B51
340
0
  0
BLOCK_RECORD
  5
445
100
AcDbSymbolTableRecord
100
AcDbBlockTableRecord
  2
*B52
340
0
  0
BLOCK_RECORD
  5
44A
100
AcDbSymbolTableRecord
100
AcDbBlockTableRecord
  2
*B53
340
0
  0
BLOCK_RECORD
  5
44F
100
AcDbSymbolTableRecord
100
AcDbBlockTableRecord
  2
*B54
340
0
  0
BLOCK_RECORD
  5
458
100
AcDbSymbolTableRecord
100
AcDbBlockTableRecord
  2
*B55
340
0
  0
BLOCK_RECORD
  5
460
100
AcDbSymbolTableRecord
100
AcDbBlockTableRecord
  2
*B56
340
0
  0
BLOCK_RECORD
  5
468
100
AcDbSymbolTableRecord
100
AcDbBlockTableRecord
  2
*B57
340
0
  0
BLOCK_RECORD
  5
46D
100
AcDbSymbolTableRecord
100
AcDbBlockTableRecord
  2
*B58
340
0
  0
BLOCK_RECORD
  5
472
100
AcDbSymbolTableRecord
100
AcDbBlockTableRecord
  2
*B59
340
0
  0
BLOCK_RECORD
  5
478
100
AcDbSymbolTableRecord
100
AcDbBlockTableRecord
  2
*B60
340
0
  0
BLOCK_RECORD
  5
47E
100
AcDbSymbolTableRecord
100
AcDbBlockTableRecord
  2
*B61
340
0
  0
BLOCK_RECORD
  5
484
100
AcDbSymbolTableRecord
100
AcDbBlockTableRecord
  2
*B62
340
0
  0
BLOCK_RECORD
  5
48A
100
AcDbSymbolTableRecord
100
AcDbBlockTableRecord
  2
*B63
340
0
  0
BLOCK_RECORD
  5
490
100
AcDbSymbolTableRecord
100
AcDbBlockTableRecord
  2
*B64
340
0
  0
BLOCK_RECORD
  5
496
100
AcDbSymbolTableRecord
100
AcDbBlockTableRecord
  2
*B65
340
0
  0
BLOCK_RECORD
  5
49C
100
AcDbSymbolTableRecord
100
AcDbBlockTableRecord
  2
*B66
340
0
  0
BLOCK_RECORD
  5
4A1
100
AcDbSymbolTableRecord
100
AcDbBlockTableRecord
  2
*B67
340
0
  0
BLOCK_RECORD
  5
4A6
100
AcDbSymbolTableRecord
100
AcDbBlockTableRecord
  2
*B68
340
0
  0
BLOCK_RECORD
  5
4AB
100
AcDbSymbolTableRecord
100
AcDbBlockTableRecord
  2
*B69
340
0
  0
BLOCK_RECORD
  5
4B0
100
AcDbSymbolTableRecord
100
AcDbBlockTableRecord
  2
*B70
340
0
  0
BLOCK_RECORD
  5
4B5
100
AcDbSymbolTableRecord
100
AcDbBlockTableRecord
  2
*B71
340
0
  0
BLOCK_RECORD
  5
4BA
100
AcDbSymbolTableRecord
100
AcDbBlockTableRecord
  2
*B72
340
0
  0
BLOCK_RECORD
  5
4BF
100
AcDbSymbolTableRecord
100
AcDbBlockTableRecord
  2
*B73
340
0
  0
BLOCK_RECORD
  5
4C4
100
AcDbSymbolTableRecord
100
AcDbBlockTableRecord
  2
*B74
340
0
  0
BLOCK_RECORD
  5
4C9
100
AcDbSymbolTableRecord
100
AcDbBlockTableRecord
  2
*B75
340
0
  0
BLOCK_RECORD
  5
4CE
100
AcDbSymbolTableRecord
100
AcDbBlockTableRecord
  2
*B76
340
0
  0
BLOCK_RECORD
  5
4D3
100
AcDbSymbolTableRecord
100
AcDbBlockTableRecord
  2
*B77
340
0
  0
BLOCK_RECORD
  5
4D8
100
AcDbSymbolTableRecord
100
AcDbBlockTableRecord
  2
*B78
340
0
  0
BLOCK_RECORD
  5
4DD
100
AcDbSymbolTableRecord
100
AcDbBlockTableRecord
  2
*B79
340
0
  0
BLOCK_RECORD
  5
4E2
100
AcDbSymbolTableRecord
100
AcDbBlockTableRecord
  2
*B80
340
0
  0
BLOCK_RECORD
  5
4E7
100
AcDbSymbolTableRecord
100
AcDbBlockTableRecord
  2
*B81
340
0
  0
BLOCK_RECORD
  5
4EC
100
AcDbSymbolTableRecord
100
AcDbBlockTableRecord
  2
*B82
340
0
  0
BLOCK_RECORD
  5
4F1
100
AcDbSymbolTableRecord
100
AcDbBlockTableRecord
  2
*B83
340
0
  0
BLOCK_RECORD
  5
4F6
100
AcDbSymbolTableRecord
100
AcDbBlockTableRecord
  2
*B84
340
0
  0
BLOCK_RECORD
  5
4FC
100
AcDbSymbolTableRecord
100
AcDbBlockTableRecord
  2
*B85
340
0
  0
BLOCK_RECORD
  5
501
100
AcDbSymbolTableRecord
100
AcDbBlockTableRecord
  2
*B86
340
0
  0
BLOCK_RECORD
  5
507
100
AcDbSymbolTableRecord
100
AcDbBlockTableRecord
  2
*B87
340
0
  0
BLOCK_RECORD
  5
50C
100
AcDbSymbolTableRecord
100
AcDbBlockTableRecord
  2
*B88
340
0
  0
ENDTAB
  0
ENDSEC
  0
SECTION
  2
BLOCKS
  0
BLOCK
  5
D
100
AcDbEntity
  8
0
100
AcDbBlockBegin
  2
*MODEL_SPACE
 70
     0
 10
0.0
 20
0.0
 30
0.0
  3
*MODEL_SPACE
  1

  0
ENDBLK
  5
E
100
AcDbEntity
  8
0
100
AcDbBlockEnd
  0
BLOCK
  5
F
100
AcDbEntity
 67
     1
  8
0
100
AcDbBlockBegin
  2
*PAPER_SPACE
 70
     0
 10
0.0
 20
0.0
 30
0.0
  3
*PAPER_SPACE
  1

  0
ENDBLK
  5
10
100
AcDbEntity
 67
     1
  8
0
100
AcDbBlockEnd
  0
BLOCK
  5
2A
100
AcDbEntity
  8
0
100
AcDbBlockBegin
  2
*B0
 70
     0
 10
0.0
 20
0.0
 30
0.0
  3
*B0
  1

  0
ENDBLK
  5
2B
100
AcDbEntity
  8
0
100
AcDbBlockEnd
  0
BLOCK
  5
2D
100
AcDbEntity
  8
0
100
AcDbBlockBegin
  2
*B1
 70
     0
 10
0.0
 20
0.0
 30
0.0
  3
*B1
  1

  0
LINE
  5
2E
100
AcDbEntity
  8
0
  6
Continuous
 62
   174
100
AcDbLine
 10
260.761541
 20
179.399274
 30
0.0
 11
260.761541
 21
198.399274
 31
0.0
  0
ARC
  5
2F
100
AcDbEntity
  8
0
  6
Continuous
 62
   174
100
AcDbCircle
 10
253.761541
 20
188.699274
 30
0.0
 40
3.0
100
AcDbArc
 50
-89.632991
 51
-31.895583
  0
ARC
  5
30
100
AcDbEntity
  8
0
  6
Continuous
 62
   174
100
AcDbCircle
 10
253.761541
 20
188.699274
 30
0.0
 40
3.0
100
AcDbArc
 50
-90.270153
 51
-89.632991
  0
ARC
  5
31
100
AcDbEntity
  8
0
  6
Continuous
 62
   174
100
AcDbCircle
 10
253.761541
 20
188.699274
 30
0.0
 40
3.0
100
AcDbArc
 50
-147.976968
 51
-90.270153
  0
ARC
  5
32
100
AcDbEntity
  8
0
  6
Continuous
 62
   174
100
AcDbCircle
 10
253.761541
 20
188.699274
 30
0.0
 40
3.0
100
AcDbArc
 50
-152.642817
 51
-147.976968
  0
ARC
  5
33
100
AcDbEntity
  8
0
  6
Continuous
 62
   174
100
AcDbCircle
 10
253.761541
 20
188.699274
 30
0.0
 40
3.0
100
AcDbArc
 50
-207.394883
 51
-152.642817
  0
ARC
  5
34
100
AcDbEntity
  8
0
  6
Continuous
 62
   174
100
AcDbCircle
 10
253.761541
 20
188.699274
 30
0.0
 40
3.0
100
AcDbArc
 50
-211.895583
 51
-207.394883
  0
ARC
  5
35
100
AcDbEntity
  8
0
  6
Continuous
 62
   174
100
AcDbCircle
 10
253.761541
 20
188.699274
 30
0.0
 40
3.0
100
AcDbArc
 50
-269.632991
 51
-211.895583
  0
ARC
  5
36
100
AcDbEntity
  8
0
  6
Continuous
 62
   174
100
AcDbCircle
 10
253.761541
 20
188.699274
 30
0.0
 40
3.0
100
AcDbArc
 50
-270.270153
 51
-269.632991
  0
ARC
  5
37
100
AcDbEntity
  8
0
  6
Continuous
 62
   174
100
AcDbCircle
 10
253.761541
 20
188.699274
 30
0.0
 40
3.0
100
AcDbArc
 50
-327.976968
 51
-270.270153
  0
ARC
  5
38
100
AcDbEntity
  8
0
  6
Continuous
 62
   174
100
AcDbCircle
 10
253.761541
 20
188.699274
 30
0.0
 40
3.0
100
AcDbArc
 50
-332.642817
 51
-327.976968
  0
ARC
  5
39
100
AcDbEntity
  8
0
  6
Continuous
 62
   174
100
AcDbCircle
 10
253.761541
 20
188.699274
 30
0.0
 40
3.0
100
AcDbArc
 50
-27.394883
 51
27.357183
  0
ARC
  5
3A
100
AcDbEntity
  8
0
  6
Continuous
 62
   174
100
AcDbCircle
 10
253.761541
 20
188.699274
 30
0.0
 40
3.0
100
AcDbArc
 50
-31.895583
 51
-27.394883
  0
LINE
  5
3B
100
AcDbEntity
  8
0
  6
HIDDEN
 62
   174
100
AcDbLine
 10
246.761541
 20
133.199274
 30
0.0
 11
261.761541
 21
133.199274
 31
0.0
  0
LINE
  5
3C
100
AcDbEntity
  8
0
  6
HIDDEN
 62
   174
100
AcDbLine
 10
284.761541
 20
123.199274
 30
0.0
 11
296.761541
 21
123.199274
 31
0.0
  0
LINE
  5
3D
100
AcDbEntity
  8
0
  6
HIDDEN
 62
   174
100
AcDbLine
 10
284.761541
 20
122.399274
 30
0.0
 11
296.761541
 21
122.399274
 31
0.0
  0
LINE
  5
3E
100
AcDbEntity
  8
0
  6
HIDDEN
 62
   174
100
AcDbLine
 10
296.761541
 20
131.599274
 30
0.0
 11
281.761541
 21
131.599274
 31
0.0
  0
LINE
  5
3F
100
AcDbEntity
  8
0
  6
HIDDEN
 62
   174
100
AcDbLine
 10
284.761541
 20
112.399274
 30
0.0
 11
296.761541
 21
112.399274
 31
0.0
  0
ARC
  5
40
100
AcDbEntity
  8
0
  6
Continuous
 62
   174
100
AcDbCircle
 10
291.965006
 20
201.802003
 30
0.0
 40
3.0
100
AcDbArc
 50
-346.775848
 51
-334.931177
  0
ARC
  5
41
100
AcDbEntity
  8
0
  6
Continuous
 62
   174
100
AcDbCircle
 10
291.965006
 20
201.802003
 30
0.0
 40
3.0
100
AcDbArc
 50
-348.092842
 51
-346.775848
  0
ARC
  5
42
100
AcDbEntity
  8
0
  6
Continuous
 62
   174
100
AcDbCircle
 10
291.965006
 20
201.802003
 30
0.0
 40
3.0
100
AcDbArc
 50
-349.303939
 51
-348.092842
  0
ARC
  5
43
100
AcDbEntity
  8
0
  6
Continuous
 62
   174
100
AcDbCircle
 10
291.965006
 20
201.802003
 30
0.0
 40
3.0
100
AcDbArc
 50
-0.702674
 51
10.696061
  0
ARC
  5
44
100
AcDbEntity
  8
0
  6
Continuous
 62
   174
100
AcDbCircle
 10
291.965006
 20
201.802003
 30
0.0
 40
3.0
100
AcDbArc
 50
-13.856329
 51
-0.702674
  0
ARC
  5
45
100
AcDbEntity
  8
0
  6
Continuous
 62
   174
100
AcDbCircle
 10
291.965006
 20
201.802003
 30
0.0
 40
3.0
100
AcDbArc
 50
-27.023979
 51
-13.856329
  0
ARC
  5
46
100
AcDbEntity
  8
0
  6
Continuous
 62
   174
100
AcDbCircle
 10
291.965006
 20
201.802003
 30
0.0
 40
3.0
100
AcDbArc
 50
-39.485084
 51
-27.023979
  0
LINE
  5
47
100
AcDbEntity
  8
0
  6
HIDDEN
 62
   174
100
AcDbLine
 10
258.761541
 20
141.599274
 30
0.0
 11
246.761541
 21
141.599274
 31
0.0
  0
LINE
  5
48
100
AcDbEntity
  8
0
  6
HIDDEN
 62
   174
100
AcDbLine
 10
258.761541
 20
142.440276
 30
0.0
 11
258.761541
 21
132.441216
 31
0.0
  0
LINE
  5
49
100
AcDbEntity
  8
0
  6
HIDDEN
 62
   174
100
AcDbLine
 10
258.761541
 20
142.399274
 30
0.0
 11
246.761541
 21
142.399274
 31
0.0
  0
LINE
  5
4A
100
AcDbEntity
  8
0
  6
HIDDEN
 62
   174
100
AcDbLine
 10
258.761541
 20
122.441854
 30
0.0
 11
258.761541
 21
112.442493
 31
0.0
  0
LINE
  5
4B
100
AcDbEntity
  8
0
  6
HIDDEN
 62
   174
100
AcDbLine
 10
246.761541
 20
122.441854
 30
0.0
 11
246.761541
 21
112.442493
 31
0.0
  0
LINE
  5
4C
100
AcDbEntity
  8
0
  6
HIDDEN
 62
   174
100
AcDbLine
 10
246.761541
 20
113.199274
 30
0.0
 11
261.761541
 21
113.199274
 31
0.0
  0
LINE
  5
4D
100
AcDbEntity
  8
0
  6
HIDDEN
 62
   174
100
AcDbLine
 10
284.761541
 20
122.441854
 30
0.0
 11
284.761541
 21
132.441216
 31
0.0
  0
LINE
  5
4E
100
AcDbEntity
  8
0
  6
HIDDEN
 62
   174
100
AcDbLine
 10
284.761541
 20
102.443132
 30
0.0
 11
284.761541
 21
112.442493
 31
0.0
  0
LINE
  5
4F
100
AcDbEntity
  8
0
  6
HIDDEN
 62
   174
100
AcDbLine
 10
296.761541
 20
102.443132
 30
0.0
 11
296.761541
 21
112.442493
 31
0.0
  0
LINE
  5
50
100
AcDbEntity
  8
0
  6
HIDDEN
 62
   174
100
AcDbLine
 10
284.761541
 20
102.399274
 30
0.0
 11
296.761541
 21
102.399274
 31
0.0
  0
LINE
  5
51
100
AcDbEntity
  8
0
  6
HIDDEN
 62
   174
100
AcDbLine
 10
296.761541
 20
111.599274
 30
0.0
 11
281.761541
 21
111.599274
 31
0.0
  0
LINE
  5
52
100
AcDbEntity
  8
0
  6
HIDDEN
 62
   174
100
AcDbLine
 10
296.761541
 20
111.599274
 30
0.0
 11
281.761541
 21
111.599274
 31
0.0
  0
LINE
  5
53
100
AcDbEntity
  8
0
  6
HIDDEN
 62
   174
100
AcDbLine
 10
284.761541
 20
111.599274
 30
0.0
 11
296.761541
 21
111.599274
 31
0.0
  0
LINE
  5
54
100
AcDbEntity
  8
0
  6
HIDDEN
 62
   174
100
AcDbLine
 10
284.761541
 20
151.599274
 30
0.0
 11
296.761541
 21
151.599274
 31
0.0
  0
LINE
  5
55
100
AcDbEntity
  8
0
  6
HIDDEN
 62
   174
100
AcDbLine
 10
258.761541
 20
142.399274
 30
0.0
 11
246.761541
 21
142.399274
 31
0.0
  0
LINE
  5
56
100
AcDbEntity
  8
0
  6
HIDDEN
 62
   174
100
AcDbLine
 10
258.761541
 20
141.599274
 30
0.0
 11
246.761541
 21
141.599274
 31
0.0
  0
LINE
  5
57
100
AcDbEntity
  8
0
  6
HIDDEN
 62
   174
100
AcDbLine
 10
258.761541
 20
121.599274
 30
0.0
 11
246.761541
 21
121.599274
 31
0.0
  0
LINE
  5
58
100
AcDbEntity
  8
0
  6
HIDDEN
 62
   174
100
AcDbLine
 10
246.761541
 20
113.199274
 30
0.0
 11
261.761541
 21
113.199274
 31
0.0
  0
LINE
  5
59
100
AcDbEntity
  8
0
  6
HIDDEN
 62
   174
100
AcDbLine
 10
284.761541
 20
132.399274
 30
0.0
 11
296.761541
 21
132.399274
 31
0.0
  0
LINE
  5
5A
100
AcDbEntity
  8
0
  6
HIDDEN
 62
   174
100
AcDbLine
 10
284.761541
 20
122.399274
 30
0.0
 11
296.761541
 21
122.399274
 31
0.0
  0
LINE
  5
5B
100
AcDbEntity
  8
0
  6
HIDDEN
 62
   174
100
AcDbLine
 10
284.761541
 20
123.199274
 30
0.0
 11
296.761541
 21
123.199274
 31
0.0
  0
LINE
  5
5C
100
AcDbEntity
  8
0
  6
HIDDEN
 62
   174
100
AcDbLine
 10
284.761541
 20
111.599274
 30
0.0
 11
296.761541
 21
111.599274
 31
0.0
  0
LINE
  5
5D
100
AcDbEntity
  8
0
  6
HIDDEN
 62
   174
100
AcDbLine
 10
284.761541
 20
143.199274
 30
0.0
 11
296.761541
 21
143.199274
 31
0.0
  0
LINE
  5
5E
100
AcDbEntity
  8
0
  6
HIDDEN
 62
   174
100
AcDbLine
 10
284.761541
 20
142.399274
 30
0.0
 11
296.761541
 21
142.399274
 31
0.0
  0
LINE
  5
5F
100
AcDbEntity
  8
0
  6
HIDDEN
 62
   174
100
AcDbLine
 10
296.761541
 20
143.199274
 30
0.0
 11
281.761541
 21
143.199274
 31
0.0
  0
ARC
  5
60
100
AcDbEntity
  8
0
  6
Continuous
 62
   174
100
AcDbCircle
 10
291.965006
 20
201.802003
 30
0.0
 40
3.0
100
AcDbArc
 50
-269.632991
 51
-257.839101
  0
ARC
  5
61
100
AcDbEntity
  8
0
  6
Continuous
 62
   174
100
AcDbCircle
 10
291.965006
 20
201.802003
 30
0.0
 40
3.0
100
AcDbArc
 50
-52.20875
 51
-39.485084
  0
ARC
  5
62
100
AcDbEntity
  8
0
  6
Continuous
 62
   174
100
AcDbCircle
 10
291.965006
 20
201.802003
 30
0.0
 40
3.0
100
AcDbArc
 50
-65.226068
 51
-52.20875
  0
ARC
  5
63
100
AcDbEntity
  8
0
  6
Continuous
 62
   174
100
AcDbCircle
 10
291.965006
 20
201.802003
 30
0.0
 40
3.0
100
AcDbArc
 50
-77.839101
 51
-65.226068
  0
ARC
  5
64
100
AcDbEntity
  8
0
  6
Continuous
 62
   174
100
AcDbCircle
 10
291.965006
 20
201.802003
 30
0.0
 40
3.0
100
AcDbArc
 50
-89.632991
 51
-77.839101
  0
ARC
  5
65
100
AcDbEntity
  8
0
  6
Continuous
 62
   174
100
AcDbCircle
 10
291.965006
 20
201.802003
 30
0.0
 40
3.0
100
AcDbArc
 50
-91.010661
 51
-89.632991
  0
ARC
  5
66
100
AcDbEntity
  8
0
  6
Continuous
 62
   174
100
AcDbCircle
 10
291.965006
 20
201.802003
 30
0.0
 40
3.0
100
AcDbArc
 50
-103.816037
 51
-91.010661
  0
ARC
  5
67
100
AcDbEntity
  8
0
  6
Continuous
 62
   174
100
AcDbCircle
 10
291.965006
 20
201.802003
 30
0.0
 40
3.0
100
AcDbArc
 50
-116.691928
 51
-103.816037
  0
LINE
  5
68
100
AcDbEntity
  8
0
  6
HIDDEN
 62
   174
100
AcDbLine
 10
246.761541
 20
133.199274
 30
0.0
 11
261.761541
 21
133.199274
 31
0.0
  0
LINE
  5
69
100
AcDbEntity
  8
0
  6
HIDDEN
 62
   174
100
AcDbLine
 10
258.761541
 20
112.399274
 30
0.0
 11
246.761541
 21
112.399274
 31
0.0
  0
LINE
  5
6A
100
AcDbEntity
  8
0
  6
HIDDEN
 62
   174
100
AcDbLine
 10
296.761541
 20
123.199274
 30
0.0
 11
281.761541
 21
123.199274
 31
0.0
  0
LINE
  5
6B
100
AcDbEntity
  8
0
  6
HIDDEN
 62
   174
100
AcDbLine
 10
284.761541
 20
131.599274
 30
0.0
 11
296.761541
 21
131.599274
 31
0.0
  0
LINE
  5
6C
100
AcDbEntity
  8
0
  6
HIDDEN
 62
   174
100
AcDbLine
 10
284.761541
 20
103.199274
 30
0.0
 11
296.761541
 21
103.199274
 31
0.0
  0
LINE
  5
6D
100
AcDbEntity
  8
0
  6
HIDDEN
 62
   174
100
AcDbLine
 10
284.761541
 20
142.399274
 30
0.0
 11
296.761541
 21
142.399274
 31
0.0
  0
LINE
  5
6E
100
AcDbEntity
  8
0
  6
HIDDEN
 62
   174
100
AcDbLine
 10
284.761541
 20
151.599274
 30
0.0
 11
296.761541
 21
151.599274
 31
0.0
  0
LINE
  5
6F
100
AcDbEntity
  8
0
  6
HIDDEN
 62
   174
100
AcDbLine
 10
284.761541
 20
143.199274
 30
0.0
 11
296.761541
 21
143.199274
 31
0.0
  0
LINE
  5
70
100
AcDbEntity
  8
0
  6
HIDDEN
 62
   174
100
AcDbLine
 10
258.761541
 20
122.399274
 30
0.0
 11
246.761541
 21
122.399274
 31
0.0
  0
LINE
  5
71
100
AcDbEntity
  8
0
  6
HIDDEN
 62
   174
100
AcDbLine
 10
258.761541
 20
122.399274
 30
0.0
 11
246.761541
 21
122.399274
 31
0.0
  0
LINE
  5
72
100
AcDbEntity
  8
0
  6
HIDDEN
 62
   174
100
AcDbLine
 10
284.761541
 20
102.399274
 30
0.0
 11
296.761541
 21
102.399274
 31
0.0
  0
LINE
  5
73
100
AcDbEntity
  8
0
  6
HIDDEN
 62
   174
100
AcDbLine
 10
284.761541
 20
103.199274
 30
0.0
 11
296.761541
 21
103.199274
 31
0.0
  0
LINE
  5
74
100
AcDbEntity
  8
0
  6
HIDDEN
 62
   174
100
AcDbLine
 10
296.761541
 20
143.199274
 30
0.0
 11
281.761541
 21
143.199274
 31
0.0
  0
LINE
  5
75
100
AcDbEntity
  8
0
  6
HIDDEN
 62
   174
100
AcDbLine
 10
296.761541
 20
151.599274
 30
0.0
 11
281.761541
 21
151.599274
 31
0.0
  0
ARC
  5
76
100
AcDbEntity
  8
0
  6
Continuous
 62
   174
100
AcDbCircle
 10
291.965006
 20
201.802003
 30
0.0
 40
3.0
100
AcDbArc
 50
-271.010661
 51
-269.632991
  0
ARC
  5
77
100
AcDbEntity
  8
0
  6
Continuous
 62
   174
100
AcDbCircle
 10
291.965006
 20
201.802003
 30
0.0
 40
3.0
100
AcDbArc
 50
-283.816037
 51
-271.010661
  0
ARC
  5
78
100
AcDbEntity
  8
0
  6
Continuous
 62
   174
100
AcDbCircle
 10
291.965006
 20
201.802003
 30
0.0
 40
3.0
100
AcDbArc
 50
-296.691928
 51
-283.816037
  0
ARC
  5
79
100
AcDbEntity
  8
0
  6
Continuous
 62
   174
100
AcDbCircle
 10
291.965006
 20
201.802003
 30
0.0
 40
3.0
100
AcDbArc
 50
-309.867391
 51
-296.691928
  0
ARC
  5
7A
100
AcDbEntity
  8
0
  6
Continuous
 62
   174
100
AcDbCircle
 10
291.965006
 20
201.802003
 30
0.0
 40
3.0
100
AcDbArc
 50
-322.322283
 51
-309.867391
  0
ARC
  5
7B
100
AcDbEntity
  8
0
  6
Continuous
 62
   174
100
AcDbCircle
 10
291.965006
 20
201.802003
 30
0.0
 40
3.0
100
AcDbArc
 50
-334.931177
 51
-322.322283
  0
ARC
  5
7C
100
AcDbEntity
  8
0
  6
Continuous
 62
   174
100
AcDbCircle
 10
291.965006
 20
201.802003
 30
0.0
 40
3.0
100
AcDbArc
 50
-129.867391
 51
-116.691928
  0
ARC
  5
7D
100
AcDbEntity
  8
0
  6
Continuous
 62
   174
100
AcDbCircle
 10
291.965006
 20
201.802003
 30
0.0
 40
3.0
100
AcDbArc
 50
-142.322283
 51
-129.867391
  0
ARC
  5
7E
100
AcDbEntity
  8
0
  6
Continuous
 62
   174
100
AcDbCircle
 10
291.965006
 20
201.802003
 30
0.0
 40
3.0
100
AcDbArc
 50
-154.931177
 51
-142.322283
  0
ARC
  5
7F
100
AcDbEntity
  8
0
  6
Continuous
 62
   174
100
AcDbCircle
 10
291.965006
 20
201.802003
 30
0.0
 40
3.0
100
AcDbArc
 50
-166.775848
 51
-154.931177
  0
ARC
  5
80
100
AcDbEntity
  8
0
  6
Continuous
 62
   174
100
AcDbCircle
 10
291.965006
 20
201.802003
 30
0.0
 40
3.0
100
AcDbArc
 50
-168.092842
 51
-166.775848
  0
ARC
  5
81
100
AcDbEntity
  8
0
  6
Continuous
 62
   174
100
AcDbCircle
 10
291.965006
 20
201.802003
 30
0.0
 40
3.0
100
AcDbArc
 50
-169.303939
 51
-168.092842
  0
LINE
  5
82
100
AcDbEntity
  8
0
  6
HIDDEN
 62
   174
100
AcDbLine
 10
246.761541
 20
142.440276
 30
0.0
 11
246.761541
 21
132.441216
 31
0.0
  0
LINE
  5
83
100
AcDbEntity
  8
0
  6
HIDDEN
 62
   174
100
AcDbLine
 10
246.761541
 20
141.599274
 30
0.0
 11
261.761541
 21
141.599274
 31
0.0
  0
LINE
  5
84
100
AcDbEntity
  8
0
  6
HIDDEN
 62
   174
100
AcDbLine
 10
258.761541
 20
133.199274
 30
0.0
 11
246.761541
 21
133.199274
 31
0.0
  0
LINE
  5
85
100
AcDbEntity
  8
0
  6
HIDDEN
 62
   174
100
AcDbLine
 10
246.761541
 20
121.599274
 30
0.0
 11
261.761541
 21
121.599274
 31
0.0
  0
LINE
  5
86
100
AcDbEntity
  8
0
  6
HIDDEN
 62
   174
100
AcDbLine
 10
258.761541
 20
113.199274
 30
0.0
 11
246.761541
 21
113.199274
 31
0.0
  0
LINE
  5
87
100
AcDbEntity
  8
0
  6
HIDDEN
 62
   174
100
AcDbLine
 10
258.761541
 20
113.199274
 30
0.0
 11
246.761541
 21
113.199274
 31
0.0
  0
LINE
  5
88
100
AcDbEntity
  8
0
  6
HIDDEN
 62
   174
100
AcDbLine
 10
296.761541
 20
122.441854
 30
0.0
 11
296.761541
 21
132.441216
 31
0.0
  0
LINE
  5
89
100
AcDbEntity
  8
0
  6
HIDDEN
 62
   174
100
AcDbLine
 10
284.761541
 20
132.399274
 30
0.0
 11
296.761541
 21
132.399274
 31
0.0
  0
LINE
  5
8A
100
AcDbEntity
  8
0
  6
HIDDEN
 62
   174
100
AcDbLine
 10
284.761541
 20
112.399274
 30
0.0
 11
296.761541
 21
112.399274
 31
0.0
  0
LINE
  5
8B
100
AcDbEntity
  8
0
  6
HIDDEN
 62
   174
100
AcDbLine
 10
296.761541
 20
103.199274
 30
0.0
 11
281.761541
 21
103.199274
 31
0.0
  0
LINE
  5
8C
100
AcDbEntity
  8
0
  6
HIDDEN
 62
   174
100
AcDbLine
 10
296.761541
 20
103.199274
 30
0.0
 11
281.761541
 21
103.199274
 31
0.0
  0
LINE
  5
8D
100
AcDbEntity
  8
0
  6
HIDDEN
 62
   174
100
AcDbLine
 10
296.761541
 20
142.440276
 30
0.0
 11
296.761541
 21
152.439637
 31
0.0
  0
LINE
  5
8E
100
AcDbEntity
  8
0
  6
HIDDEN
 62
   174
100
AcDbLine
 10
284.761541
 20
142.440276
 30
0.0
 11
284.761541
 21
152.439637
 31
0.0
  0
LINE
  5
8F
100
AcDbEntity
  8
0
  6
HIDDEN
 62
   174
100
AcDbLine
 10
258.761541
 20
132.399274
 30
0.0
 11
246.761541
 21
132.399274
 31
0.0
  0
LINE
  5
90
100
AcDbEntity
  8
0
  6
HIDDEN
 62
   174
100
AcDbLine
 10
258.761541
 20
132.399274
 30
0.0
 11
246.761541
 21
132.399274
 31
0.0
  0
LINE
  5
91
100
AcDbEntity
  8
0
  6
HIDDEN
 62
   174
100
AcDbLine
 10
246.761541
 20
121.599274
 30
0.0
 11
261.761541
 21
121.599274
 31
0.0
  0
LINE
  5
92
100
AcDbEntity
  8
0
  6
HIDDEN
 62
   174
100
AcDbLine
 10
258.761541
 20
121.599274
 30
0.0
 11
246.761541
 21
121.599274
 31
0.0
  0
LINE
  5
93
100
AcDbEntity
  8
0
  6
HIDDEN
 62
   174
100
AcDbLine
 10
296.761541
 20
123.199274
 30
0.0
 11
281.761541
 21
123.199274
 31
0.0
  0
LINE
  5
94
100
AcDbEntity
  8
0
  6
HIDDEN
 62
   174
100
AcDbLine
 10
284.761541
 20
152.399274
 30
0.0
 11
296.761541
 21
152.399274
 31
0.0
  0
LINE
  5
95
100
AcDbEntity
  8
0
  6
HIDDEN
 62
   174
100
AcDbLine
 10
296.761541
 20
151.599274
 30
0.0
 11
281.761541
 21
151.599274
 31
0.0
  0
LINE
  5
96
100
AcDbEntity
  8
0
  6
HIDDEN
 62
   174
100
AcDbLine
 10
246.761541
 20
141.599274
 30
0.0
 11
261.761541
 21
141.599274
 31
0.0
  0
LINE
  5
97
100
AcDbEntity
  8
0
  6
HIDDEN
 62
   174
100
AcDbLine
 10
258.761541
 20
133.199274
 30
0.0
 11
246.761541
 21
133.199274
 31
0.0
  0
LINE
  5
98
100
AcDbEntity
  8
0
  6
HIDDEN
 62
   174
100
AcDbLine
 10
258.761541
 20
112.399274
 30
0.0
 11
246.761541
 21
112.399274
 31
0.0
  0
LINE
  5
99
100
AcDbEntity
  8
0
  6
HIDDEN
 62
   174
100
AcDbLine
 10
296.761541
 20
131.599274
 30
0.0
 11
281.761541
 21
131.599274
 31
0.0
  0
LINE
  5
9A
100
AcDbEntity
  8
0
  6
HIDDEN
 62
   174
100
AcDbLine
 10
284.761541
 20
131.599274
 30
0.0
 11
296.761541
 21
131.599274
 31
0.0
  0
LINE
  5
9B
100
AcDbEntity
  8
0
  6
HIDDEN
 62
   174
100
AcDbLine
 10
284.761541
 20
152.399274
 30
0.0
 11
296.761541
 21
152.399274
 31
0.0
  0
ARC
  5
9C
100
AcDbEntity
  8
0
  6
HIDDEN
 62
   174
100
AcDbCircle
 10
291.965006
 20
201.802003
 30
0.0
 40
3.0
100
AcDbArc
 50
189.437288
 51
197.119058
  0
LINE
  5
9D
100
AcDbEntity
  8
0
  6
Continuous
 62
   174
100
AcDbLine
 10
267.761541
 20
184.964426
 30
0.0
 11
267.761541
 21
179.399274
 31
0.0
  0
ARC
  5
9E
100
AcDbEntity
  8
0
  6
Continuous
 62
   174
100
AcDbCircle
 10
291.965006
 20
201.802003
 30
0.0
 40
3.0
100
AcDbArc
 50
140.555984
 51
152.949731
  0
ARC
  5
9F
100
AcDbEntity
  8
0
  6
HIDDEN
 62
   174
100
AcDbCircle
 10
287.761541
 20
161.399274
 30
0.0
 40
7.5
100
AcDbArc
 50
-270.0
 51
-90.0
  0
ARC
  5
A0
100
AcDbEntity
  8
0
  6
HIDDEN
 62
   174
100
AcDbCircle
 10
253.761541
 20
188.699274
 30
0.0
 40
3.0
100
AcDbArc
 50
210.0
 51
270.0
  0
ARC
  5
A1
100
AcDbEntity
  8
0
  6
Continuous
 62
   174
100
AcDbCircle
 10
291.965006
 20
201.802003
 30
0.0
 40
3.0
100
AcDbArc
 50
346.17348
 51
359.071903
  0
ARC
  5
A2
100
AcDbEntity
  8
0
  6
Continuous
 62
   174
100
AcDbCircle
 10
291.965006
 20
201.802003
 30
0.0
 40
3.0
100
AcDbArc
 50
25.21457
 51
37.719361
  0
ARC
  5
A3
100
AcDbEntity
  8
0
  6
Continuous
 62
   174
100
AcDbCircle
 10
291.965006
 20
201.802003
 30
0.0
 40
9.6
100
AcDbArc
 50
-14.059935
 51
165.940065
  0
ARC
  5
A4
100
AcDbEntity
  8
0
  6
Continuous
 62
   174
100
AcDbCircle
 10
287.761541
 20
161.399274
 30
0.0
 40
4.5
100
AcDbArc
 50
-90.0
 51
90.0
  0
LINE
  5
A5
100
AcDbEntity
  8
0
  6
Continuous
 62
   174
100
AcDbLine
 10
286.285014
 20
188.700844
 30
0.0
 11
267.611302
 21
185.194782
 31
0.0
  0
ARC
  5
A6
100
AcDbEntity
  8
0
  6
Continuous
 62
   174
100
AcDbCircle
 10
253.761541
 20
188.699274
 30
0.0
 40
3.0
100
AcDbArc
 50
270.0
 51
327.900463
  0
ARC
  5
A7
100
AcDbEntity
  8
0
  6
Continuous
 62
   174
100
AcDbCircle
 10
287.761541
 20
161.399274
 30
0.0
 40
7.5
100
AcDbArc
 50
90.0
 51
270.0
  0
ARC
  5
A8
100
AcDbEntity
  8
0
  6
HIDDEN
 62
   174
100
AcDbCircle
 10
291.965006
 20
201.802003
 30
0.0
 40
10.0
100
AcDbArc
 50
-124.941584
 51
-115.710716
  0
LINE
  5
A9
100
AcDbEntity
  8
0
  6
HIDDEN
 62
   174
100
AcDbLine
 10
261.761541
 20
121.64187
 30
0.0
 11
261.761541
 21
113.242478
 31
0.0
  0
ARC
  5
AA
100
AcDbEntity
  8
0
  6
Continuous
 62
   174
100
AcDbCircle
 10
291.965006
 20
201.802003
 30
0.0
 40
3.0
100
AcDbArc
 50
127.780942
 51
140.555984
  0
LINE
  5
AB
100
AcDbEntity
  8
0
  6
HIDDEN
 62
   174
100
AcDbLine
 10
246.761541
 20
113.242478
 30
0.0
 11
246.761541
 21
121.64187
 31
0.0
  0
ARC
  5
AC
100
AcDbEntity
  8
0
  6
Continuous
 62
   174
100
AcDbCircle
 10
291.965006
 20
201.802003
 30
0.0
 40
3.0
100
AcDbArc
 50
332.949731
 51
346.17348
  0
ARC
  5
AD
100
AcDbEntity
  8
0
  6
Continuous
 62
   174
100
AcDbCircle
 10
291.965006
 20
201.802003
 30
0.0
 40
3.0
100
AcDbArc
 50
10.633706
 51
25.21457
  0
ARC
  5
AE
100
AcDbEntity
  8
0
  6
HIDDEN
 62
   174
100
AcDbCircle
 10
253.761541
 20
188.699274
 30
0.0
 40
3.0
100
AcDbArc
 50
207.689238
 51
211.617299
  0
ARC
  5
AF
100
AcDbEntity
  8
0
  6
Continuous
 62
   174
100
AcDbCircle
 10
291.965006
 20
201.802003
 30
0.0
 40
10.0
100
AcDbArc
 50
-77.896742
 51
-32.162574
  0
ARC
  5
B0
100
AcDbEntity
  8
0
  6
HIDDEN
 62
   174
100
AcDbCircle
 10
255.761541
 20
161.399274
 30
0.0
 40
7.5
100
AcDbArc
 50
-270.0
 51
-90.0
  0
ARC
  5
B1
100
AcDbEntity
  8
0
  6
HIDDEN
 62
   174
100
AcDbCircle
 10
291.965006
 20
201.802003
 30
0.0
 40
3.0
100
AcDbArc
 50
140.555984
 51
152.949731
  0
ARC
  5
B2
100
AcDbEntity
  8
0
  6
Continuous
 62
   174
100
AcDbCircle
 10
291.965006
 20
201.802003
 30
0.0
 40
3.0
100
AcDbArc
 50
270.30533
 51
281.967684
  0
ARC
  5
B3
100
AcDbEntity
  8
0
  6
HIDDEN
 62
   174
100
AcDbCircle
 10
291.965006
 20
201.802003
 30
0.0
 40
8.0
100
AcDbArc
 50
303.78633
 51
329.463428
  0
ARC
  5
B4
100
AcDbEntity
  8
0
  6
HIDDEN
 62
   174
100
AcDbCircle
 10
253.761541
 20
188.699274
 30
0.0
 40
3.0
100
AcDbArc
 50
271.240318
 51
293.500816
  0
ARC
  5
B5
100
AcDbEntity
  8
0
  6
HIDDEN
 62
   174
100
AcDbCircle
 10
253.761541
 20
188.699274
 30
0.0
 40
3.0
100
AcDbArc
 50
147.728949
 51
152.611653
  0
LINE
  5
B6
100
AcDbEntity
  8
0
  6
HIDDEN
 62
   174
100
AcDbLine
 10
247.435756
 20
195.651369
 30
0.0
 11
246.761541
 21
186.108329
 31
0.0
  0
ARC
  5
B7
100
AcDbEntity
  8
0
  6
HIDDEN
 62
   174
100
AcDbCircle
 10
253.761541
 20
188.699274
 30
0.0
 40
3.0
100
AcDbArc
 50
147.728949
 51
152.611653
  0
ARC
  5
B8
100
AcDbEntity
  8
0
  6
Continuous
 62
   174
100
AcDbCircle
 10
253.761541
 20
188.699274
 30
0.0
 40
3.0
100
AcDbArc
 50
147.900463
 51
152.820324
  0
ARC
  5
B9
100
AcDbEntity
  8
0
  6
HIDDEN
 62
   174
100
AcDbCircle
 10
291.965006
 20
201.802003
 30
0.0
 40
3.0
100
AcDbArc
 50
233.200661
 51
345.940065
  0
ARC
  5
BA
100
AcDbEntity
  8
0
  6
HIDDEN
 62
   174
100
AcDbCircle
 10
291.965006
 20
201.802003
 30
0.0
 40
3.0
100
AcDbArc
 50
165.940065
 51
189.437288
  0
ARC
  5
BB
100
AcDbEntity
  8
0
  6
Continuous
 62
   174
100
AcDbCircle
 10
291.965006
 20
201.802003
 30
0.0
 40
10.0
100
AcDbArc
 50
-14.059935
 51
165.940065
  0
LINE
  5
BC
100
AcDbEntity
  8
0
  6
HIDDEN
 62
   174
100
AcDbLine
 10
260.761541
 20
181.873767
 30
0.0
 11
260.761541
 21
188.805174
 31
0.0
  0
ARC
  5
BD
100
AcDbEntity
  8
0
  6
Continuous
 62
   174
100
AcDbCircle
 10
255.761541
 20
161.399274
 30
0.0
 40
7.5
100
AcDbArc
 50
-90.0
 51
90.0
  0
ARC
  5
BE
100
AcDbEntity
  8
0
  6
Continuous
 62
   174
100
AcDbCircle
 10
253.761541
 20
188.699274
 30
0.0
 40
3.0
100
AcDbArc
 50
212.233468
 51
270.0
  0
LINE
  5
BF
100
AcDbEntity
  8
0
  6
HIDDEN
 62
   174
100
AcDbLine
 10
281.761541
 20
143.240261
 30
0.0
 11
281.761541
 21
151.639652
 31
0.0
  0
ARC
  5
C0
100
AcDbEntity
  8
0
  6
HIDDEN
 62
   174
100
AcDbCircle
 10
291.965006
 20
201.802003
 30
0.0
 40
3.0
100
AcDbArc
 50
270.30533
 51
281.967684
  0
ARC
  5
C1
100
AcDbEntity
  8
0
  6
Continuous
 62
   174
100
AcDbCircle
 10
291.965006
 20
201.802003
 30
0.0
 40
3.0
100
AcDbArc
 50
114.808232
 51
127.780942
  0
LINE
  5
C2
100
AcDbEntity
  8
0
  6
HIDDEN
 62
   174
100
AcDbLine
 10
247.435756
 20
195.651369
 30
0.0
 11
246.761541
 21
186.108329
 31
0.0
  0
ARC
  5
C3
100
AcDbEntity
  8
0
  6
HIDDEN
 62
   174
100
AcDbCircle
 10
291.965006
 20
201.802003
 30
0.0
 40
3.0
100
AcDbArc
 50
25.21457
 51
37.719361
  0
ARC
  5
C4
100
AcDbEntity
  8
0
  6
HIDDEN
 62
   174
100
AcDbCircle
 10
291.965006
 20
201.802003
 30
0.0
 40
3.0
100
AcDbArc
 50
76.296101
 51
90.30533
  0
ARC
  5
C5
100
AcDbEntity
  8
0
  6
HIDDEN
 62
   174
100
AcDbCircle
 10
291.965006
 20
201.802003
 30
0.0
 40
3.0
100
AcDbArc
 50
114.808232
 51
127.780942
  0
ARC
  5
C6
100
AcDbEntity
  8
0
  6
Continuous
 62
   174
100
AcDbCircle
 10
291.965006
 20
201.802003
 30
0.0
 40
3.0
100
AcDbArc
 50
320.555984
 51
332.949731
  0
ARC
  5
C7
100
AcDbEntity
  8
0
  6
Continuous
 62
   174
100
AcDbCircle
 10
291.965006
 20
201.802003
 30
0.0
 40
10.0
100
AcDbArc
 50
-81.106331
 51
-77.896742
  0
ARC
  5
C8
100
AcDbEntity
  8
0
  6
Continuous
 62
   174
100
AcDbCircle
 10
291.965006
 20
201.802003
 30
0.0
 40
10.0
100
AcDbArc
 50
-194.059935
 51
-185.340986
  0
ARC
  5
C9
100
AcDbEntity
  8
0
  6
HIDDEN
 62
   174
100
AcDbCircle
 10
291.965006
 20
201.802003
 30
0.0
 40
9.6
100
AcDbArc
 50
-14.059935
 51
165.940065
  0
ARC
  5
CA
100
AcDbEntity
  8
0
  6
HIDDEN
 62
   174
100
AcDbCircle
 10
253.761541
 20
188.699274
 30
0.0
 40
3.0
100
AcDbArc
 50
10.633706
 51
27.689238
  0
ARC
  5
CB
100
AcDbEntity
  8
0
  6
HIDDEN
 62
   174
100
AcDbCircle
 10
253.761541
 20
188.699274
 30
0.0
 40
3.0
100
AcDbArc
 50
211.617299
 51
242.004836
  0
LINE
  5
CC
100
AcDbEntity
  8
0
  6
HIDDEN
 62
   174
100
AcDbLine
 10
281.761541
 20
103.243117
 30
0.0
 11
281.761541
 21
111.642509
 31
0.0
  0
LINE
  5
CD
100
AcDbEntity
  8
0
  6
Continuous
 62
   174
100
AcDbLine
 10
267.761541
 20
184.964426
 30
0.0
 11
267.761541
 21
179.399274
 31
0.0
  0
ARC
  5
CE
100
AcDbEntity
  8
0
  6
HIDDEN
 62
   174
100
AcDbCircle
 10
291.965006
 20
201.802003
 30
0.0
 40
3.0
100
AcDbArc
 50
152.949731
 51
166.17348
  0
ARC
  5
CF
100
AcDbEntity
  8
0
  6
Continuous
 62
   174
100
AcDbCircle
 10
291.965006
 20
201.802003
 30
0.0
 40
3.0
100
AcDbArc
 50
256.296101
 51
270.30533
  0
ARC
  5
D0
100
AcDbEntity
  8
0
  6
HIDDEN
 62
   174
100
AcDbCircle
 10
291.965006
 20
201.802003
 30
0.0
 40
8.0
100
AcDbArc
 50
280.633706
 51
303.78633
  0
ARC
  5
D1
100
AcDbEntity
  8
0
  6
HIDDEN
 62
   174
100
AcDbCircle
 10
253.761541
 20
188.699274
 30
0.0
 40
3.0
100
AcDbArc
 50
152.611653
 51
190.633706
  0
ARC
  5
D2
100
AcDbEntity
  8
0
  6
HIDDEN
 62
   174
100
AcDbCircle
 10
253.761541
 20
188.699274
 30
0.0
 40
3.0
100
AcDbArc
 50
293.500816
 51
327.728949
  0
LINE
  5
D3
100
AcDbEntity
  8
0
  6
HIDDEN
 62
   174
100
AcDbLine
 10
246.761541
 20
198.399274
 30
0.0
 11
260.761541
 21
198.399274
 31
0.0
  0
ARC
  5
D4
100
AcDbEntity
  8
0
  6
HIDDEN
 62
   174
100
AcDbCircle
 10
253.761541
 20
188.699274
 30
0.0
 40
3.0
100
AcDbArc
 50
113.500816
 51
147.728949
  0
ARC
  5
D5
100
AcDbEntity
  8
0
  6
Continuous
 62
   174
100
AcDbCircle
 10
291.965006
 20
201.802003
 30
0.0
 40
3.0
100
AcDbArc
 50
-232.20875
 51
-219.485084
  0
ARC
  5
D6
100
AcDbEntity
  8
0
  6
Continuous
 62
   174
100
AcDbCircle
 10
253.761541
 20
188.699274
 30
0.0
 40
3.0
100
AcDbArc
 50
90.0
 51
147.900463
  0
LINE
  5
D7
100
AcDbEntity
  8
0
  6
HIDDEN
 62
   174
100
AcDbLine
 10
283.99692
 20
202.515869
 30
0.0
 11
260.806144
 21
198.161711
 31
0.0
  0
ARC
  5
D8
100
AcDbEntity
  8
0
  6
HIDDEN
 62
   174
100
AcDbCircle
 10
291.965006
 20
201.802003
 30
0.0
 40
8.0
100
AcDbArc
 50
72.172003
 51
123.526181
  0
ARC
  5
D9
100
AcDbEntity
  8
0
  6
HIDDEN
 62
   174
100
AcDbCircle
 10
291.965006
 20
201.802003
 30
0.0
 40
3.0
100
AcDbArc
 50
53.200661
 51
165.940065
  0
ARC
  5
DA
100
AcDbEntity
  8
0
  6
HIDDEN
 62
   174
100
AcDbCircle
 10
291.965006
 20
201.802003
 30
0.0
 40
10.0
100
AcDbArc
 50
-177.741734
 51
-128.108969
  0
LINE
  5
DB
100
AcDbEntity
  8
0
  6
Continuous
 62
   174
100
AcDbLine
 10
266.72556
 20
189.912351
 30
0.0
 11
260.828598
 21
188.805174
 31
0.0
  0
LINE
  5
DC
100
AcDbEntity
  8
0
  6
Continuous
 62
   174
100
AcDbLine
 10
275.761541
 20
184.964426
 30
0.0
 11
275.761541
 21
179.399274
 31
0.0
  0
ARC
  5
DD
100
AcDbEntity
  8
0
  6
HIDDEN
 62
   174
100
AcDbCircle
 10
291.965006
 20
201.802003
 30
0.0
 40
3.0
100
AcDbArc
 50
256.296101
 51
270.30533
  0
ARC
  5
DE
100
AcDbEntity
  8
0
  6
HIDDEN
 62
   174
100
AcDbCircle
 10
291.965006
 20
201.802003
 30
0.0
 40
3.0
100
AcDbArc
 50
320.555984
 51
332.949731
  0
ARC
  5
DF
100
AcDbEntity
  8
0
  6
Continuous
 62
   174
100
AcDbCircle
 10
291.965006
 20
201.802003
 30
0.0
 40
3.0
100
AcDbArc
 50
101.967684
 51
114.808232
  0
LINE
  5
E0
100
AcDbEntity
  8
0
  6
HIDDEN
 62
   174
100
AcDbLine
 10
260.761541
 20
198.153336
 30
0.0
 11
260.761541
 21
198.399274
 31
0.0
  0
ARC
  5
E1
100
AcDbEntity
  8
0
  6
Continuous
 62
   174
100
AcDbCircle
 10
253.761541
 20
188.699274
 30
0.0
 40
3.0
100
AcDbArc
 50
207.132442
 51
212.233468
  0
LINE
  5
E2
100
AcDbEntity
  8
0
  6
HIDDEN
 62
   174
100
AcDbLine
 10
246.761541
 20
179.245213
 30
0.0
 11
246.270143
 21
179.152951
 31
0.0
  0
ARC
  5
E3
100
AcDbEntity
  8
0
  6
HIDDEN
 62
   174
100
AcDbCircle
 10
291.965006
 20
201.802003
 30
0.0
 40
3.0
100
AcDbArc
 50
101.967684
 51
114.808232
  0
ARC
  5
E4
100
AcDbEntity
  8
0
  6
Continuous
 62
   174
100
AcDbCircle
 10
291.965006
 20
201.802003
 30
0.0
 40
3.0
100
AcDbArc
 50
307.780942
 51
320.555984
  0
ARC
  5
E5
100
AcDbEntity
  8
0
  6
Continuous
 62
   174
100
AcDbCircle
 10
291.965006
 20
201.802003
 30
0.0
 40
3.0
100
AcDbArc
 50
90.30533
 51
101.967684
  0
LINE
  5
E6
100
AcDbEntity
  8
0
  6
HIDDEN
 62
   174
100
AcDbLine
 10
267.168431
 20
187.553567
 30
0.0
 11
266.72556
 21
189.912351
 31
0.0
  0
ARC
  5
E7
100
AcDbEntity
  8
0
  6
Continuous
 62
   174
100
AcDbCircle
 10
291.965006
 20
201.802003
 30
0.0
 40
10.0
100
AcDbArc
 50
-115.710716
 51
-81.106331
  0
ARC
  5
E8
100
AcDbEntity
  8
0
  6
HIDDEN
 62
   174
100
AcDbCircle
 10
291.965006
 20
201.802003
 30
0.0
 40
9.6
100
AcDbArc
 50
-194.059935
 51
-14.059935
  0
LINE
  5
E9
100
AcDbEntity
  8
0
  6
HIDDEN
 62
   174
100
AcDbLine
 10
260.761541
 20
181.873767
 30
0.0
 11
246.761541
 21
179.245213
 31
0.0
  0
LINE
  5
EA
100
AcDbEntity
  8
0
  6
Continuous
 62
   174
100
AcDbLine
 10
267.78707
 20
184.964426
 30
0.0
 11
271.786995
 21
184.964426
 31
0.0
  0
ARC
  5
EB
100
AcDbEntity
  8
0
  6
HIDDEN
 62
   174
100
AcDbCircle
 10
253.761541
 20
188.699274
 30
0.0
 40
3.0
100
AcDbArc
 50
27.689238
 51
31.617299
  0
ARC
  5
EC
100
AcDbEntity
  8
0
  6
HIDDEN
 62
   174
100
AcDbCircle
 10
253.761541
 20
188.699274
 30
0.0
 40
3.0
100
AcDbArc
 50
242.004836
 51
271.240318
  0
ARC
  5
ED
100
AcDbEntity
  8
0
  6
Continuous
 62
   174
100
AcDbCircle
 10
291.965006
 20
201.802003
 30
0.0
 40
3.0
100
AcDbArc
 50
-219.485084
 51
-207.023979
  0
ARC
  5
EE
100
AcDbEntity
  8
0
  6
HIDDEN
 62
   174
100
AcDbCircle
 10
291.965006
 20
201.802003
 30
0.0
 40
9.6
100
AcDbArc
 50
-182.546188
 51
-177.63446
  0
LINE
  5
EF
100
AcDbEntity
  8
0
  6
HIDDEN
 62
   174
100
AcDbLine
 10
261.761541
 20
141.640291
 30
0.0
 11
261.761541
 21
133.2409
 31
0.0
  0
LINE
  5
F0
100
AcDbEntity
  8
0
  6
HIDDEN
 62
   174
100
AcDbLine
 10
267.78707
 20
179.399274
 30
0.0
 11
275.78722
 21
179.399274
 31
0.0
  0
LINE
  5
F1
100
AcDbEntity
  8
0
  6
Continuous
 62
   174
100
AcDbLine
 10
260.828598
 20
188.805174
 30
0.0
 11
262.083399
 21
182.121951
 31
0.0
  0
ARC
  5
F2
100
AcDbEntity
  8
0
  6
HIDDEN
 62
   174
100
AcDbCircle
 10
291.965006
 20
201.802003
 30
0.0
 40
3.0
100
AcDbArc
 50
166.17348
 51
179.071903
  0
ARC
  5
F3
100
AcDbEntity
  8
0
  6
Continuous
 62
   174
100
AcDbCircle
 10
291.965006
 20
201.802003
 30
0.0
 40
3.0
100
AcDbArc
 50
243.342226
 51
256.296101
  0
ARC
  5
F4
100
AcDbEntity
  8
0
  6
HIDDEN
 62
   174
100
AcDbCircle
 10
253.761541
 20
188.699274
 30
0.0
 40
3.0
100
AcDbArc
 50
327.728949
 51
332.611653
  0
ARC
  5
F5
100
AcDbEntity
  8
0
  6
HIDDEN
 62
   174
100
AcDbCircle
 10
253.761541
 20
188.699274
 30
0.0
 40
3.0
100
AcDbArc
 50
10.633706
 51
27.689238
  0
ARC
  5
F6
100
AcDbEntity
  8
0
  6
Continuous
 62
   174
100
AcDbCircle
 10
255.761541
 20
161.399274
 30
0.0
 40
7.5
100
AcDbArc
 50
90.0
 51
270.0
  0
LINE
  5
F7
100
AcDbEntity
  8
0
  6
Continuous
 62
   174
100
AcDbLine
 10
285.578626
 20
192.46315
 30
0.0
 11
285.915955
 21
190.666498
 31
0.0
  0
LINE
  5
F8
100
AcDbEntity
  8
0
  6
HIDDEN
 62
   174
100
AcDbLine
 10
260.828598
 20
188.805174
 30
0.0
 11
262.083399
 21
182.121951
 31
0.0
  0
LINE
  5
F9
100
AcDbEntity
  8
0
  6
HIDDEN
 62
   174
100
AcDbLine
 10
296.761541
 20
151.639652
 30
0.0
 11
296.761541
 21
143.240261
 31
0.0
  0
ARC
  5
FA
100
AcDbEntity
  8
0
  6
HIDDEN
 62
   174
100
AcDbCircle
 10
291.965006
 20
201.802003
 30
0.0
 40
3.0
100
AcDbArc
 50
205.21457
 51
217.719361
  0
LINE
  5
FB
100
AcDbEntity
  8
0
  6
HIDDEN
 62
   174
100
AcDbLine
 10
260.761541
 20
188.805174
 30
0.0
 11
260.761541
 21
198.153336
 31
0.0
  0
ARC
  5
FC
100
AcDbEntity
  8
0
  6
Continuous
 62
   174
100
AcDbCircle
 10
287.761541
 20
161.399274
 30
0.0
 40
7.5
100
AcDbArc
 50
-90.0
 51
90.0
  0
ARC
  5
FD
100
AcDbEntity
  8
0
  6
Continuous
 62
   174
100
AcDbCircle
 10
271.761541
 20
175.799274
 30
0.0
 40
10.0
100
AcDbArc
 50
-270.0
 51
-246.421822
  0
ARC
  5
FE
100
AcDbEntity
  8
0
  6
HIDDEN
 62
   174
100
AcDbCircle
 10
291.965006
 20
201.802003
 30
0.0
 40
3.0
100
AcDbArc
 50
17.365605
 51
25.21457
  0
ARC
  5
FF
100
AcDbEntity
  8
0
  6
HIDDEN
 62
   174
100
AcDbCircle
 10
291.965006
 20
201.802003
 30
0.0
 40
8.0
100
AcDbArc
 50
123.526181
 51
149.203333
  0
ARC
  5
100
100
AcDbEntity
  8
0
  6
Continuous
 62
   174
100
AcDbCircle
 10
291.965006
 20
201.802003
 30
0.0
 40
3.0
100
AcDbArc
 50
-257.839101
 51
-245.226068
  0
ARC
  5
101
100
AcDbEntity
  8
0
  6
HIDDEN
 62
   174
100
AcDbCircle
 10
291.965006
 20
201.802003
 30
0.0
 40
10.0
100
AcDbArc
 50
-182.084247
 51
-177.741734
  0
ARC
  5
102
100
AcDbEntity
  8
0
  6
HIDDEN
 62
   174
100
AcDbCircle
 10
291.965006
 20
201.802003
 30
0.0
 40
10.0
100
AcDbArc
 50
-128.108969
 51
-124.941584
  0
LINE
  5
103
100
AcDbEntity
  8
0
  6
HIDDEN
 62
   174
100
AcDbLine
 10
260.806144
 20
198.161711
 30
0.0
 11
247.435756
 21
195.651369
 31
0.0
  0
ARC
  5
104
100
AcDbEntity
  8
0
  6
HIDDEN
 62
   174
100
AcDbCircle
 10
253.761541
 20
188.699274
 30
0.0
 40
3.0
100
AcDbArc
 50
327.505735
 51
332.855021
  0
LINE
  5
105
100
AcDbEntity
  8
0
  6
HIDDEN
 62
   174
100
AcDbLine
 10
246.761541
 20
133.2409
 30
0.0
 11
246.761541
 21
141.640291
 31
0.0
  0
ARC
  5
106
100
AcDbEntity
  8
0
  6
HIDDEN
 62
   174
100
AcDbCircle
 10
291.965006
 20
201.802003
 30
0.0
 40
3.0
100
AcDbArc
 50
243.342226
 51
256.296101
  0
ARC
  5
107
100
AcDbEntity
  8
0
  6
HIDDEN
 62
   174
100
AcDbCircle
 10
291.965006
 20
201.802003
 30
0.0
 40
3.0
100
AcDbArc
 50
332.949731
 51
346.17348
  0
ARC
  5
108
100
AcDbEntity
  8
0
  6
Continuous
 62
   174
100
AcDbCircle
 10
255.761541
 20
161.399274
 30
0.0
 40
4.5
100
AcDbArc
 50
-270.0
 51
-90.0
  0
LINE
  5
109
100
AcDbEntity
  8
0
  6
Continuous
 62
   174
100
AcDbLine
 10
293.441242
 20
193.939387
 30
0.0
 11
285.578626
 21
192.46315
 31
0.0
  0
LINE
  5
10A
100
AcDbEntity
  8
0
  6
HIDDEN
 62
   174
100
AcDbLine
 10
260.761541
 20
181.873767
 30
0.0
 11
246.761541
 21
179.245213
 31
0.0
  0
ARC
  5
10B
100
AcDbEntity
  8
0
  6
Continuous
 62
   174
100
AcDbCircle
 10
291.965006
 20
201.802003
 30
0.0
 40
3.0
100
AcDbArc
 50
294.808232
 51
307.780942
  0
ARC
  5
10C
100
AcDbEntity
  8
0
  6
Continuous
 62
   174
100
AcDbCircle
 10
291.965006
 20
201.802003
 30
0.0
 40
3.0
100
AcDbArc
 50
76.296101
 51
90.30533
  0
LINE
  5
10D
100
AcDbEntity
  8
0
  6
HIDDEN
 62
   174
100
AcDbLine
 10
246.761541
 20
180.799274
 30
0.0
 11
246.761541
 21
186.108329
 31
0.0
  0
ARC
  5
10E
100
AcDbEntity
  8
0
  6
Continuous
 62
   174
100
AcDbCircle
 10
291.965006
 20
201.802003
 30
0.0
 40
10.0
100
AcDbArc
 50
-185.340986
 51
-182.084247
  0
ARC
  5
10F
100
AcDbEntity
  8
0
  6
HIDDEN
 62
   174
100
AcDbCircle
 10
291.965006
 20
201.802003
 30
0.0
 40
9.6
100
AcDbArc
 50
-125.091743
 51
-112.812705
  0
LINE
  5
110
100
AcDbEntity
  8
0
  6
Continuous
 62
   174
100
AcDbLine
 10
271.786995
 20
184.964426
 30
0.0
 11
275.78722
 21
184.964426
 31
0.0
  0
ARC
  5
111
100
AcDbEntity
  8
0
  6
HIDDEN
 62
   174
100
AcDbCircle
 10
291.965006
 20
201.802003
 30
0.0
 40
3.0
100
AcDbArc
 50
37.719361
 51
50.112187
  0
ARC
  5
112
100
AcDbEntity
  8
0
  6
HIDDEN
 62
   174
100
AcDbCircle
 10
253.761541
 20
188.699274
 30
0.0
 40
3.0
100
AcDbArc
 50
31.617299
 51
62.004836
  0
ARC
  5
113
100
AcDbEntity
  8
0
  6
HIDDEN
 62
   174
100
AcDbCircle
 10
253.761541
 20
188.699274
 30
0.0
 40
3.0
100
AcDbArc
 50
271.240318
 51
293.500816
  0
ARC
  5
114
100
AcDbEntity
  8
0
  6
Continuous
 62
   174
100
AcDbCircle
 10
291.965006
 20
201.802003
 30
0.0
 40
3.0
100
AcDbArc
 50
-207.023979
 51
-193.856329
  0
ARC
  5
115
100
AcDbEntity
  8
0
  6
HIDDEN
 62
   174
100
AcDbCircle
 10
291.965006
 20
201.802003
 30
0.0
 40
3.0
100
AcDbArc
 50
9.437288
 51
17.119058
  0
ARC
  5
116
100
AcDbEntity
  8
0
  6
Continuous
 62
   174
100
AcDbCircle
 10
253.761541
 20
188.699274
 30
0.0
 40
3.0
100
AcDbArc
 50
152.820324
 51
207.132442
  0
LINE
  5
117
100
AcDbEntity
  8
0
  6
HIDDEN
 62
   174
100
AcDbLine
 10
275.442238
 20
186.665071
 30
0.0
 11
286.285014
 21
188.700844
 31
0.0
  0
LINE
  5
118
100
AcDbEntity
  8
0
  6
Continuous
 62
   174
100
AcDbLine
 10
285.915955
 20
190.666498
 30
0.0
 11
267.242243
 21
187.160436
 31
0.0
  0
ARC
  5
119
100
AcDbEntity
  8
0
  6
HIDDEN
 62
   174
100
AcDbCircle
 10
291.965006
 20
201.802003
 30
0.0
 40
3.0
100
AcDbArc
 50
179.071903
 51
190.633706
  0
ARC
  5
11A
100
AcDbEntity
  8
0
  6
Continuous
 62
   174
100
AcDbCircle
 10
291.965006
 20
201.802003
 30
0.0
 40
3.0
100
AcDbArc
 50
230.112187
 51
243.342226
  0
ARC
  5
11B
100
AcDbEntity
  8
0
  6
HIDDEN
 62
   174
100
AcDbCircle
 10
291.965006
 20
201.802003
 30
0.0
 40
8.0
100
AcDbArc
 50
329.463428
 51
355.140492
  0
ARC
  5
11C
100
AcDbEntity
  8
0
  6
HIDDEN
 62
   174
100
AcDbCircle
 10
253.761541
 20
188.699274
 30
0.0
 40
3.0
100
AcDbArc
 50
-27.388347
 51
10.633706
  0
ARC
  5
11D
100
AcDbEntity
  8
0
  6
HIDDEN
 62
   174
100
AcDbCircle
 10
253.761541
 20
188.699274
 30
0.0
 40
3.0
100
AcDbArc
 50
27.689238
 51
31.617299
  0
ARC
  5
11E
100
AcDbEntity
  8
0
  6
HIDDEN
 62
   174
100
AcDbCircle
 10
255.761541
 20
161.399274
 30
0.0
 40
7.5
100
AcDbArc
 50
-90.0
 51
90.0
  0
ARC
  5
11F
100
AcDbEntity
  8
0
  6
Continuous
 62
   174
100
AcDbCircle
 10
253.761541
 20
188.699274
 30
0.0
 40
3.0
100
AcDbArc
 50
32.233468
 51
90.0
  0
ARC
  5
120
100
AcDbEntity
  8
0
  6
HIDDEN
 62
   174
100
AcDbCircle
 10
253.761541
 20
188.699274
 30
0.0
 40
3.0
100
AcDbArc
 50
30.0
 51
90.0
  0
ARC
  5
121
100
AcDbEntity
  8
0
  6
HIDDEN
 62
   174
100
AcDbCircle
 10
291.965006
 20
201.802003
 30
0.0
 40
3.0
100
AcDbArc
 50
190.633706
 51
197.365605
  0
ARC
  5
122
100
AcDbEntity
  8
0
  6
HIDDEN
 62
   174
100
AcDbCircle
 10
291.965006
 20
201.802003
 30
0.0
 40
3.0
100
AcDbArc
 50
197.365605
 51
205.21457
  0
ARC
  5
123
100
AcDbEntity
  8
0
  6
HIDDEN
 62
   174
100
AcDbCircle
 10
253.761541
 20
188.699274
 30
0.0
 40
3.0
100
AcDbArc
 50
327.728949
 51
332.611653
  0
ARC
  5
124
100
AcDbEntity
  8
0
  6
Continuous
 62
   174
100
AcDbCircle
 10
291.965006
 20
201.802003
 30
0.0
 40
3.0
100
AcDbArc
 50
-245.226068
 51
-232.20875
  0
ARC
  5
125
100
AcDbEntity
  8
0
  6
HIDDEN
 62
   174
100
AcDbCircle
 10
253.761541
 20
188.699274
 30
0.0
 40
3.0
100
AcDbArc
 50
270.0
 51
327.505735
  0
ARC
  5
126
100
AcDbEntity
  8
0
  6
HIDDEN
 62
   174
100
AcDbCircle
 10
291.965006
 20
201.802003
 30
0.0
 40
3.0
100
AcDbArc
 50
90.30533
 51
101.967684
  0
ARC
  5
127
100
AcDbEntity
  8
0
  6
HIDDEN
 62
   174
100
AcDbCircle
 10
291.965006
 20
201.802003
 30
0.0
 40
8.0
100
AcDbArc
 50
149.203333
 51
174.880502
  0
LINE
  5
128
100
AcDbEntity
  8
0
  6
HIDDEN
 62
   174
100
AcDbLine
 10
246.761541
 20
195.651369
 30
0.0
 11
246.761541
 21
198.399274
 31
0.0
  0
ARC
  5
129
100
AcDbEntity
  8
0
  6
Continuous
 62
   174
100
AcDbCircle
 10
291.965006
 20
201.802003
 30
0.0
 40
10.0
100
AcDbArc
 50
-28.85455
 51
-14.059935
  0
ARC
  5
12A
100
AcDbEntity
  8
0
  6
Continuous
 62
   174
100
AcDbCircle
 10
291.965006
 20
201.802003
 30
0.0
 40
9.6
100
AcDbArc
 50
-29.173209
 51
-14.059935
  0
ARC
  5
12B
100
AcDbEntity
  8
0
  6
Continuous
 62
   174
100
AcDbCircle
 10
291.965006
 20
201.802003
 30
0.0
 40
10.0
100
AcDbArc
 50
-32.162574
 51
-28.85455
  0
LINE
  5
12C
100
AcDbEntity
  8
0
  6
HIDDEN
 62
   174
100
AcDbLine
 10
296.761541
 20
111.642509
 30
0.0
 11
296.761541
 21
103.243117
 31
0.0
  0
ARC
  5
12D
100
AcDbEntity
  8
0
  6
HIDDEN
 62
   174
100
AcDbCircle
 10
291.965006
 20
201.802003
 30
0.0
 40
3.0
100
AcDbArc
 50
307.780942
 51
320.555984
  0
ARC
  5
12E
100
AcDbEntity
  8
0
  6
HIDDEN
 62
   174
100
AcDbCircle
 10
291.965006
 20
201.802003
 30
0.0
 40
3.0
100
AcDbArc
 50
346.17348
 51
359.071903
  0
ARC
  5
12F
100
AcDbEntity
  8
0
  6
Continuous
 62
   174
100
AcDbCircle
 10
291.965006
 20
201.802003
 30
0.0
 40
3.0
100
AcDbArc
 50
179.071903
 51
190.633706
  0
ARC
  5
130
100
AcDbEntity
  8
0
  6
HIDDEN
 62
   174
100
AcDbCircle
 10
253.761541
 20
188.699274
 30
0.0
 40
3.0
100
AcDbArc
 50
89.414978
 51
113.500816
  0
ARC
  5
131
100
AcDbEntity
  8
0
  6
Continuous
 62
   174
100
AcDbCircle
 10
291.965006
 20
201.802003
 30
0.0
 40
3.0
100
AcDbArc
 50
281.967684
 51
294.808232
  0
ARC
  5
132
100
AcDbEntity
  8
0
  6
Continuous
 62
   174
100
AcDbCircle
 10
291.965006
 20
201.802003
 30
0.0
 40
3.0
100
AcDbArc
 50
63.342226
 51
76.296101
  0
LINE
  5
133
100
AcDbEntity
  8
0
  6
Continuous
 62
   174
100
AcDbLine
 10
296.761541
 20
90.399274
 30
0.0
 11
296.761541
 21
179.399274
 31
0.0
  0
ARC
  5
134
100
AcDbEntity
  8
0
  6
Continuous
 62
   174
100
AcDbCircle
 10
291.965006
 20
201.802003
 30
0.0
 40
9.6
100
AcDbArc
 50
-80.751497
 51
-78.040894
  0
ARC
  5
135
100
AcDbEntity
  8
0
  6
Continuous
 62
   174
100
AcDbCircle
 10
271.761541
 20
175.799274
 30
0.0
 40
10.0
100
AcDbArc
 50
66.421822
 51
90.0
  0
ARC
  5
136
100
AcDbEntity
  8
0
  6
HIDDEN
 62
   174
100
AcDbCircle
 10
253.761541
 20
188.699274
 30
0.0
 40
3.0
100
AcDbArc
 50
211.617299
 51
242.004836
  0
ARC
  5
137
100
AcDbEntity
  8
0
  6
HIDDEN
 62
   174
100
AcDbCircle
 10
253.761541
 20
188.699274
 30
0.0
 40
3.0
100
AcDbArc
 50
62.004836
 51
89.414978
  0
ARC
  5
138
100
AcDbEntity
  8
0
  6
HIDDEN
 62
   174
100
AcDbCircle
 10
253.761541
 20
188.699274
 30
0.0
 40
3.0
100
AcDbArc
 50
152.611653
 51
190.633706
  0
ARC
  5
139
100
AcDbEntity
  8
0
  6
HIDDEN
 62
   174
100
AcDbCircle
 10
253.761541
 20
188.699274
 30
0.0
 40
3.0
100
AcDbArc
 50
293.500816
 51
327.728949
  0
LINE
  5
13A
100
AcDbEntity
  8
0
  6
HIDDEN
 62
   174
100
AcDbLine
 10
246.761541
 20
186.108329
 30
0.0
 11
246.761541
 21
195.651369
 31
0.0
  0
LINE
  5
13B
100
AcDbEntity
  8
0
  6
Continuous
 62
   174
100
AcDbLine
 10
285.910021
 20
190.698104
 30
0.0
 11
286.279058
 21
188.732564
 31
0.0
  0
ARC
  5
13C
100
AcDbEntity
  8
0
  6
Continuous
 62
   174
100
AcDbCircle
 10
291.965006
 20
201.802003
 30
0.0
 40
3.0
100
AcDbArc
 50
-193.856329
 51
-180.702674
  0
ARC
  5
13D
100
AcDbEntity
  8
0
  6
HIDDEN
 62
   174
100
AcDbCircle
 10
291.965006
 20
201.802003
 30
0.0
 40
3.0
100
AcDbArc
 50
-14.059935
 51
9.437288
  0
ARC
  5
13E
100
AcDbEntity
  8
0
  6
Continuous
 62
   174
100
AcDbCircle
 10
291.965006
 20
201.802003
 30
0.0
 40
3.0
100
AcDbArc
 50
217.719361
 51
230.112187
  0
ARC
  5
13F
100
AcDbEntity
  8
0
  6
HIDDEN
 62
   174
100
AcDbCircle
 10
291.965006
 20
201.802003
 30
0.0
 40
8.0
100
AcDbArc
 50
-4.859508
 51
20.817663
  0
LINE
  5
140
100
AcDbEntity
  8
0
  6
HIDDEN
 62
   174
100
AcDbLine
 10
293.441242
 20
193.939387
 30
0.0
 11
287.658641
 21
192.853681
 31
0.0
  0
ARC
  5
141
100
AcDbEntity
  8
0
  6
HIDDEN
 62
   174
100
AcDbCircle
 10
253.761541
 20
188.699274
 30
0.0
 40
3.0
100
AcDbArc
 50
190.633706
 51
207.689238
  0
ARC
  5
142
100
AcDbEntity
  8
0
  6
HIDDEN
 62
   174
100
AcDbCircle
 10
253.761541
 20
188.699274
 30
0.0
 40
3.0
100
AcDbArc
 50
190.633706
 51
207.689238
  0
ARC
  5
143
100
AcDbEntity
  8
0
  6
Continuous
 62
   174
100
AcDbCircle
 10
255.761541
 20
161.399274
 30
0.0
 40
4.5
100
AcDbArc
 50
-90.0
 51
90.0
  0
ARC
  5
144
100
AcDbEntity
  8
0
  6
HIDDEN
 62
   174
100
AcDbCircle
 10
253.761541
 20
188.699274
 30
0.0
 40
3.0
100
AcDbArc
 50
90.0
 51
147.505735
  0
ARC
  5
145
100
AcDbEntity
  8
0
  6
HIDDEN
 62
   174
100
AcDbCircle
 10
291.965006
 20
201.802003
 30
0.0
 40
3.0
100
AcDbArc
 50
217.719361
 51
230.112187
  0
ARC
  5
146
100
AcDbEntity
  8
0
  6
HIDDEN
 62
   174
100
AcDbCircle
 10
253.761541
 20
188.699274
 30
0.0
 40
3.0
100
AcDbArc
 50
242.004836
 51
271.240318
  0
LINE
  5
147
100
AcDbEntity
  8
0
  6
Continuous
 62
   174
100
AcDbLine
 10
267.605293
 20
185.226783
 30
0.0
 11
267.236256
 21
187.192323
 31
0.0
  0
ARC
  5
148
100
AcDbEntity
  8
0
  6
HIDDEN
 62
   174
100
AcDbCircle
 10
253.761541
 20
188.699274
 30
0.0
 40
3.0
100
AcDbArc
 50
11.541064
 51
30.0
  0
LINE
  5
149
100
AcDbEntity
  8
0
  6
Continuous
 62
   174
100
AcDbLine
 10
283.99692
 20
202.515869
 30
0.0
 11
260.806144
 21
198.161711
 31
0.0
  0
ARC
  5
14A
100
AcDbEntity
  8
0
  6
HIDDEN
 62
   174
100
AcDbCircle
 10
291.965006
 20
201.802003
 30
0.0
 40
3.0
100
AcDbArc
 50
50.112187
 51
63.342226
  0
LINE
  5
14B
100
AcDbEntity
  8
0
  6
HIDDEN
 62
   174
100
AcDbLine
 10
285.915955
 20
190.666498
 30
0.0
 11
267.242243
 21
187.160436
 31
0.0
  0
ARC
  5
14C
100
AcDbEntity
  8
0
  6
Continuous
 62
   174
100
AcDbCircle
 10
291.965006
 20
201.802003
 30
0.0
 40
9.6
100
AcDbArc
 50
-31.884456
 51
-29.173209
  0
ARC
  5
14D
100
AcDbEntity
  8
0
  6
HIDDEN
 62
   174
100
AcDbCircle
 10
291.965006
 20
201.802003
 30
0.0
 40
3.0
100
AcDbArc
 50
10.633706
 51
17.365605
  0
LINE
  5
14E
100
AcDbEntity
  8
0
  6
Continuous
 62
   174
100
AcDbLine
 10
296.761541
 20
179.399274
 30
0.0
 11
260.761541
 21
179.399274
 31
0.0
  0
LINE
  5
14F
100
AcDbEntity
  8
0
  6
HIDDEN
 62
   174
100
AcDbLine
 10
281.761541
 20
123.241839
 30
0.0
 11
281.761541
 21
131.641231
 31
0.0
  0
LINE
  5
150
100
AcDbEntity
  8
0
  6
Continuous
 62
   174
100
AcDbLine
 10
246.761541
 20
198.399274
 30
0.0
 11
260.761541
 21
198.399274
 31
0.0
  0
LINE
  5
151
100
AcDbEntity
  8
0
  6
HIDDEN
 62
   174
100
AcDbLine
 10
296.761541
 20
131.641231
 30
0.0
 11
296.761541
 21
123.241839
 31
0.0
  0
ARC
  5
152
100
AcDbEntity
  8
0
  6
HIDDEN
 62
   174
100
AcDbCircle
 10
291.965006
 20
201.802003
 30
0.0
 40
3.0
100
AcDbArc
 50
281.967684
 51
294.808232
  0
ARC
  5
153
100
AcDbEntity
  8
0
  6
HIDDEN
 62
   174
100
AcDbCircle
 10
291.965006
 20
201.802003
 30
0.0
 40
3.0
100
AcDbArc
 50
-0.928097
 51
10.633706
  0
ARC
  5
154
100
AcDbEntity
  8
0
  6
Continuous
 62
   174
100
AcDbCircle
 10
291.965006
 20
201.802003
 30
0.0
 40
3.0
100
AcDbArc
 50
166.17348
 51
179.071903
  0
ARC
  5
155
100
AcDbEntity
  8
0
  6
HIDDEN
 62
   174
100
AcDbCircle
 10
253.761541
 20
188.699274
 30
0.0
 40
3.0
100
AcDbArc
 50
62.004836
 51
89.414978
  0
ARC
  5
156
100
AcDbEntity
  8
0
  6
HIDDEN
 62
   174
100
AcDbCircle
 10
253.761541
 20
188.699274
 30
0.0
 40
3.0
100
AcDbArc
 50
152.855021
 51
191.541064
  0
ARC
  5
157
100
AcDbEntity
  8
0
  6
Continuous
 62
   174
100
AcDbCircle
 10
291.965006
 20
201.802003
 30
0.0
 40
3.0
100
AcDbArc
 50
50.112187
 51
63.342226
  0
LINE
  5
158
100
AcDbEntity
  8
0
  6
HIDDEN
 62
   174
100
AcDbLine
 10
285.578626
 20
192.46315
 30
0.0
 11
285.842143
 21
191.059628
 31
0.0
  0
ARC
  5
159
100
AcDbEntity
  8
0
  6
Continuous
 62
   174
100
AcDbCircle
 10
291.965006
 20
201.802003
 30
0.0
 40
9.6
100
AcDbArc
 50
-112.812705
 51
-80.751497
  0
ARC
  5
15A
100
AcDbEntity
  8
0
  6
HIDDEN
 62
   174
100
AcDbCircle
 10
291.965006
 20
201.802003
 30
0.0
 40
9.6
100
AcDbArc
 50
-177.63446
 51
-128.579418
  0
ARC
  5
15B
100
AcDbEntity
  8
0
  6
Continuous
 62
   174
100
AcDbCircle
 10
253.761541
 20
188.699274
 30
0.0
 40
3.0
100
AcDbArc
 50
27.132442
 51
32.233468
  0
LINE
  5
15C
100
AcDbEntity
  8
0
  6
Continuous
 62
   174
100
AcDbLine
 10
246.761541
 20
186.108329
 30
0.0
 11
246.270143
 21
179.152951
 31
0.0
  0
ARC
  5
15D
100
AcDbEntity
  8
0
  6
HIDDEN
 62
   174
100
AcDbCircle
 10
291.965006
 20
201.802003
 30
0.0
 40
3.0
100
AcDbArc
 50
127.780942
 51
140.555984
  0
ARC
  5
15E
100
AcDbEntity
  8
0
  6
HIDDEN
 62
   174
100
AcDbCircle
 10
253.761541
 20
188.699274
 30
0.0
 40
3.0
100
AcDbArc
 50
89.414978
 51
113.500816
  0
ARC
  5
15F
100
AcDbEntity
  8
0
  6
HIDDEN
 62
   174
100
AcDbCircle
 10
253.761541
 20
188.699274
 30
0.0
 40
3.0
100
AcDbArc
 50
31.617299
 51
62.004836
  0
ARC
  5
160
100
AcDbEntity
  8
0
  6
Continuous
 62
   174
100
AcDbCircle
 10
253.761541
 20
188.699274
 30
0.0
 40
3.0
100
AcDbArc
 50
-27.179676
 51
27.132442
  0
LINE
  5
161
100
AcDbEntity
  8
0
  6
Continuous
 62
   174
100
AcDbLine
 10
246.761541
 20
90.399274
 30
0.0
 11
246.761541
 21
198.399274
 31
0.0
  0
ARC
  5
162
100
AcDbEntity
  8
0
  6
Continuous
 62
   174
100
AcDbCircle
 10
291.965006
 20
201.802003
 30
0.0
 40
3.0
100
AcDbArc
 50
205.21457
 51
217.719361
  0
ARC
  5
163
100
AcDbEntity
  8
0
  6
HIDDEN
 62
   174
100
AcDbCircle
 10
291.965006
 20
201.802003
 30
0.0
 40
8.0
100
AcDbArc
 50
20.817663
 51
46.494821
  0
ARC
  5
164
100
AcDbEntity
  8
0
  6
HIDDEN
 62
   174
100
AcDbCircle
 10
253.761541
 20
188.699274
 30
0.0
 40
3.0
100
AcDbArc
 50
207.689238
 51
211.617299
  0
ARC
  5
165
100
AcDbEntity
  8
0
  6
HIDDEN
 62
   174
100
AcDbCircle
 10
253.761541
 20
188.699274
 30
0.0
 40
3.0
100
AcDbArc
 50
147.505735
 51
152.855021
  0
ARC
  5
166
100
AcDbEntity
  8
0
  6
Continuous
 62
   174
100
AcDbCircle
 10
291.965006
 20
201.802003
 30
0.0
 40
8.0
100
AcDbArc
 50
-30.536572
 51
174.880502
  0
LINE
  5
167
100
AcDbEntity
  8
0
  6
HIDDEN
 62
   174
100
AcDbLine
 10
260.806144
 20
198.161711
 30
0.0
 11
247.435756
 21
195.651369
 31
0.0
  0
ARC
  5
168
100
AcDbEntity
  8
0
  6
HIDDEN
 62
   174
100
AcDbCircle
 10
291.965006
 20
201.802003
 30
0.0
 40
3.0
100
AcDbArc
 50
230.112187
 51
243.342226
  0
LINE
  5
169
100
AcDbEntity
  8
0
  6
HIDDEN
 62
   174
100
AcDbLine
 10
287.658641
 20
192.853681
 30
0.0
 11
285.578626
 21
192.46315
 31
0.0
  0
ARC
  5
16A
100
AcDbEntity
  8
0
  6
HIDDEN
 62
   174
100
AcDbCircle
 10
253.761541
 20
188.699274
 30
0.0
 40
3.0
100
AcDbArc
 50
-27.144979
 51
11.541064
  0
ARC
  5
16B
100
AcDbEntity
  8
0
  6
HIDDEN
 62
   174
100
AcDbCircle
 10
291.965006
 20
201.802003
 30
0.0
 40
3.0
100
AcDbArc
 50
63.342226
 51
76.296101
  0
ARC
  5
16C
100
AcDbEntity
  8
0
  6
Continuous
 62
   174
100
AcDbCircle
 10
287.761541
 20
161.399274
 30
0.0
 40
4.5
100
AcDbArc
 50
-270.0
 51
-90.0
  0
ARC
  5
16D
100
AcDbEntity
  8
0
  6
HIDDEN
 62
   174
100
AcDbCircle
 10
291.965006
 20
201.802003
 30
0.0
 40
3.0
100
AcDbArc
 50
197.119058
 51
233.200661
  0
ARC
  5
16E
100
AcDbEntity
  8
0
  6
Continuous
 62
   174
100
AcDbCircle
 10
291.965006
 20
201.802003
 30
0.0
 40
9.6
100
AcDbArc
 50
-78.040894
 51
-31.884456
  0
LINE
  5
16F
100
AcDbEntity
  8
0
  6
HIDDEN
 62
   174
100
AcDbLine
 10
266.72556
 20
189.912351
 30
0.0
 11
260.828598
 21
188.805174
 31
0.0
  0
LINE
  5
170
100
AcDbEntity
  8
0
  6
Continuous
 62
   174
100
AcDbLine
 10
286.285014
 20
188.700844
 30
0.0
 11
267.611302
 21
185.194782
 31
0.0
  0
LINE
  5
171
100
AcDbEntity
  8
0
  6
Continuous
 62
   174
100
AcDbLine
 10
267.242243
 20
187.160436
 30
0.0
 11
266.72556
 21
189.912351
 31
0.0
  0
ARC
  5
172
100
AcDbEntity
  8
0
  6
HIDDEN
 62
   174
100
AcDbCircle
 10
291.965006
 20
201.802003
 30
0.0
 40
3.0
100
AcDbArc
 50
17.119058
 51
53.200661
  0
LINE
  5
173
100
AcDbEntity
  8
0
  6
Continuous
 62
   174
100
AcDbLine
 10
246.761541
 20
179.245213
 30
0.0
 11
246.270143
 21
179.152951
 31
0.0
  0
ARC
  5
174
100
AcDbEntity
  8
0
  6
HIDDEN
 62
   174
100
AcDbCircle
 10
291.965006
 20
201.802003
 30
0.0
 40
3.0
100
AcDbArc
 50
294.808232
 51
307.780942
  0
ARC
  5
175
100
AcDbEntity
  8
0
  6
Continuous
 62
   174
100
AcDbCircle
 10
291.965006
 20
201.802003
 30
0.0
 40
3.0
100
AcDbArc
 50
152.949731
 51
166.17348
  0
LINE
  5
176
100
AcDbEntity
  8
0
  6
HIDDEN
 62
   174
100
AcDbLine
 10
260.761541
 20
180.799274
 30
0.0
 11
260.761541
 21
181.873767
 31
0.0
  0
LINE
  5
177
100
AcDbEntity
  8
0
  6
HIDDEN
 62
   174
100
AcDbLine
 10
267.611302
 20
185.194782
 30
0.0
 11
271.729851
 21
185.968056
 31
0.0
  0
ARC
  5
178
100
AcDbEntity
  8
0
  6
HIDDEN
 62
   174
100
AcDbCircle
 10
287.761541
 20
161.399274
 30
0.0
 40
7.5
100
AcDbArc
 50
-90.0
 51
90.0
  0
LINE
  5
179
100
AcDbEntity
  8
0
  6
Continuous
 62
   174
100
AcDbLine
 10
246.761541
 20
90.399274
 30
0.0
 11
296.761541
 21
90.399274
 31
0.0
  0
ARC
  5
17A
100
AcDbEntity
  8
0
  6
HIDDEN
 62
   174
100
AcDbCircle
 10
253.761541
 20
188.699274
 30
0.0
 40
3.0
100
AcDbArc
 50
191.541064
 51
210.0
  0
ARC
  5
17B
100
AcDbEntity
  8
0
  6
Continuous
 62
   174
100
AcDbCircle
 10
291.965006
 20
201.802003
 30
0.0
 40
3.0
100
AcDbArc
 50
-0.928097
 51
10.633706
  0
ARC
  5
17C
100
AcDbEntity
  8
0
  6
Continuous
 62
   174
100
AcDbCircle
 10
291.965006
 20
201.802003
 30
0.0
 40
3.0
100
AcDbArc
 50
37.719361
 51
50.112187
  0
ARC
  5
17D
100
AcDbEntity
  8
0
  6
Continuous
 62
   174
100
AcDbCircle
 10
291.965006
 20
201.802003
 30
0.0
 40
3.0
100
AcDbArc
 50
-180.702674
 51
-169.303939
  0
ARC
  5
17E
100
AcDbEntity
  8
0
  6
Continuous
 62
   174
100
AcDbCircle
 10
291.965006
 20
201.802003
 30
0.0
 40
9.6
100
AcDbArc
 50
-194.059935
 51
-182.546188
  0
ARC
  5
17F
100
AcDbEntity
  8
0
  6
HIDDEN
 62
   174
100
AcDbCircle
 10
291.965006
 20
201.802003
 30
0.0
 40
9.6
100
AcDbArc
 50
-128.579418
 51
-125.091743
  0
LINE
  5
180
100
AcDbEntity
  8
0
  6
HIDDEN
 62
   174
100
AcDbLine
 10
262.083399
 20
182.121951
 30
0.0
 11
260.761541
 21
181.873767
 31
0.0
  0
LINE
  5
181
100
AcDbEntity
  8
0
  6
HIDDEN
 62
   174
100
AcDbLine
 10
246.761541
 20
186.108329
 30
0.0
 11
246.270143
 21
179.152951
 31
0.0
  0
ARC
  5
182
100
AcDbEntity
  8
0
  6
HIDDEN
 62
   174
100
AcDbCircle
 10
253.761541
 20
188.699274
 30
0.0
 40
3.0
100
AcDbArc
 50
113.500816
 51
147.728949
  0
ARC
  5
183
100
AcDbEntity
  8
0
  6
HIDDEN
 62
   174
100
AcDbCircle
 10
253.761541
 20
188.699274
 30
0.0
 40
3.0
100
AcDbArc
 50
-27.388347
 51
10.633706
  0
LINE
  5
184
100
AcDbEntity
  8
0
  6
HIDDEN
 62
   174
100
AcDbLine
 10
275.78722
 20
184.964426
 30
0.0
 11
267.78707
 21
184.964426
 31
0.0
  0
ARC
  5
185
100
AcDbEntity
  8
0
  6
Continuous
 62
   174
100
AcDbCircle
 10
291.965006
 20
201.802003
 30
0.0
 40
3.0
100
AcDbArc
 50
190.633706
 51
205.21457
  0
ARC
  5
186
100
AcDbEntity
  8
0
  6
HIDDEN
 62
   174
100
AcDbCircle
 10
291.965006
 20
201.802003
 30
0.0
 40
8.0
100
AcDbArc
 50
46.494821
 51
72.172003
  0
LINE
  5
187
100
AcDbEntity
  8
0
  6
HIDDEN
 62
   174
100
AcDbLine
 10
271.729851
 20
185.968056
 30
0.0
 11
275.442238
 21
186.665071
 31
0.0
  0
ARC
  5
188
100
AcDbEntity
  8
0
  6
Continuous
 62
   174
100
AcDbCircle
 10
253.761541
 20
188.699274
 30
0.0
 40
3.0
100
AcDbArc
 50
327.900463
 51
332.820324
  0
LINE
  5
189
100
AcDbEntity
  8
0
  6
Continuous
 62
   174
100
AcDbLine
 10
262.083399
 20
182.121951
 30
0.0
 11
260.761541
 21
181.873767
 31
0.0
  0
ARC
  5
18A
100
AcDbEntity
  8
0
  6
Continuous
 62
   174
100
AcDbCircle
 10
291.965006
 20
201.802003
 30
0.0
 40
8.0
100
AcDbArc
 50
280.633706
 51
329.463428
  0
LINE
  5
18B
100
AcDbEntity
  8
0
  6
Continuous
 62
   174
100
AcDbLine
 10
275.761541
 20
184.964426
 30
0.0
 11
275.761541
 21
179.399274
 31
0.0
  0
ENDBLK
  5
18C
100
AcDbEntity
  8
0
100
AcDbBlockEnd
  0
BLOCK
  5
18F
100
AcDbEntity
  8
0
100
AcDbBlockBegin
  2
*B2
 70
     0
 10
0.0
 20
0.0
 30
0.0
  3
*B2
  1

  0
LINE
  5
190
100
AcDbEntity
  8
0
  6
Continuous
 62
    52
100
AcDbLine
 10
304.361541
 20
199.8
 30
0.0
 11
304.161541
 21
199.8
 31
0.0
  0
LINE
  5
191
100
AcDbEntity
  8
0
  6
Continuous
 62
    52
100
AcDbLine
 10
304.941541
 20
203.8
 30
0.0
 11
304.921541
 21
203.8
 31
0.0
  0
LINE
  5
192
100
AcDbEntity
  8
0
  6
Continuous
 62
    52
100
AcDbLine
 10
292.0
 20
211.8
 30
0.0
 11
292.161541
 21
211.8
 31
0.0
  0
ENDBLK
  5
193
100
AcDbEntity
  8
0
100
AcDbBlockEnd
  0
BLOCK
  5
196
100
AcDbEntity
  8
0
100
AcDbBlockBegin
  2
*B3
 70
     0
 10
0.0
 20
0.0
 30
0.0
  3
*B3
  1

  0
LINE
  5
197
100
AcDbEntity
  8
0
  6
Continuous
 62
   174
100
AcDbLine
 10
165.988616
 20
179.399274
 30
0.0
 11
165.988616
 21
198.399274
 31
0.0
  0
LINE
  5
198
100
AcDbEntity
  8
0
  6
Continuous
 62
   174
100
AcDbLine
 10
195.988616
 20
179.399274
 30
0.0
 11
195.988616
 21
198.399274
 31
0.0
  0
LINE
  5
199
100
AcDbEntity
  8
0
  6
HIDDEN
 62
   174
100
AcDbLine
 10
176.988616
 20
180.799274
 30
0.0
 11
184.988616
 21
180.799274
 31
0.0
  0
LINE
  5
19A
100
AcDbEntity
  8
0
  6
Continuous
 62
   174
100
AcDbLine
 10
184.988616
 20
180.799274
 30
0.0
 11
191.488616
 21
180.799274
 31
0.0
  0
LINE
  5
19B
100
AcDbEntity
  8
0
  6
Continuous
 62
   174
100
AcDbLine
 10
170.488616
 20
180.799274
 30
0.0
 11
176.988616
 21
180.799274
 31
0.0
  0
LINE
  5
19C
100
AcDbEntity
  8
0
  6
HIDDEN
 62
   174
100
AcDbLine
 10
195.988616
 20
168.899274
 30
0.0
 11
187.588616
 21
168.899274
 31
0.0
  0
LINE
  5
19D
100
AcDbEntity
  8
0
  6
HIDDEN
 62
   174
100
AcDbLine
 10
195.988616
 20
153.899274
 30
0.0
 11
187.588616
 21
153.899274
 31
0.0
  0
LINE
  5
19E
100
AcDbEntity
  8
0
  6
HIDDEN
 62
   174
100
AcDbLine
 10
195.988616
 20
168.899274
 30
0.0
 11
187.588616
 21
168.899274
 31
0.0
  0
LINE
  5
19F
100
AcDbEntity
  8
0
  6
HIDDEN
 62
   174
100
AcDbLine
 10
195.988616
 20
153.899274
 30
0.0
 11
187.588616
 21
153.899274
 31
0.0
  0
LINE
  5
1A0
100
AcDbEntity
  8
0
  6
HIDDEN
 62
   174
100
AcDbLine
 10
195.988616
 20
168.899274
 30
0.0
 11
187.588616
 21
168.899274
 31
0.0
  0
LINE
  5
1A1
100
AcDbEntity
  8
0
  6
HIDDEN
 62
   174
100
AcDbLine
 10
195.988616
 20
153.899274
 30
0.0
 11
187.588616
 21
153.899274
 31
0.0
  0
LINE
  5
1A2
100
AcDbEntity
  8
0
  6
HIDDEN
 62
   174
100
AcDbLine
 10
195.988616
 20
168.899274
 30
0.0
 11
187.588616
 21
168.899274
 31
0.0
  0
LINE
  5
1A3
100
AcDbEntity
  8
0
  6
HIDDEN
 62
   174
100
AcDbLine
 10
195.988616
 20
153.899274
 30
0.0
 11
187.588616
 21
153.899274
 31
0.0
  0
LINE
  5
1A4
100
AcDbEntity
  8
0
  6
HIDDEN
 62
   174
100
AcDbLine
 10
195.988616
 20
191.699274
 30
0.0
 11
191.488616
 21
191.699274
 31
0.0
  0
LINE
  5
1A5
100
AcDbEntity
  8
0
  6
Continuous
 62
   174
100
AcDbLine
 10
170.988616
 20
185.699274
 30
0.0
 11
170.488616
 21
185.699274
 31
0.0
  0
ARC
  5
1A6
100
AcDbEntity
  8
0
  6
Continuous
 62
   174
100
AcDbCircle
 10
180.988616
 20
127.399274
 30
0.0
 40
5.0
100
AcDbArc
 50
-88.539701
 51
88.539701
  0
ARC
  5
1A7
100
AcDbEntity
  8
0
  6
Continuous
 62
   174
100
AcDbCircle
 10
180.988616
 20
147.399274
 30
0.0
 40
5.0
100
AcDbArc
 50
-270.0
 51
-268.675578
  0
LINE
  5
1A8
100
AcDbEntity
  8
0
  6
Continuous
 62
   174
100
AcDbLine
 10
174.588616
 20
198.802003
 30
0.0
 11
173.388616
 21
198.802003
 31
0.0
  0
LINE
  5
1A9
100
AcDbEntity
  8
0
  6
Continuous
 62
   174
100
AcDbLine
 10
174.588616
 20
198.802003
 30
0.0
 11
173.388616
 21
198.802003
 31
0.0
  0
LINE
  5
1AA
100
AcDbEntity
  8
0
  6
HIDDEN
 62
   174
100
AcDbLine
 10
170.988616
 20
204.8385
 30
0.0
 11
170.988616
 21
201.282878
 31
0.0
  0
LINE
  5
1AB
100
AcDbEntity
  8
0
  6
HIDDEN
 62
   174
100
AcDbLine
 10
170.488616
 20
191.699274
 30
0.0
 11
165.988616
 21
191.699274
 31
0.0
  0
LINE
  5
1AC
100
AcDbEntity
  8
0
  6
HIDDEN
 62
   174
100
AcDbLine
 10
195.988616
 20
191.699274
 30
0.0
 11
191.488616
 21
191.699274
 31
0.0
  0
LINE
  5
1AD
100
AcDbEntity
  8
0
  6
HIDDEN
 62
   174
100
AcDbLine
 10
188.588616
 20
185.699274
 30
0.0
 11
173.388616
 21
185.699274
 31
0.0
  0
LINE
  5
1AE
100
AcDbEntity
  8
0
  6
HIDDEN
 62
   174
100
AcDbLine
 10
195.988616
 20
185.699274
 30
0.0
 11
191.488616
 21
185.699274
 31
0.0
  0
LINE
  5
1AF
100
AcDbEntity
  8
0
  6
HIDDEN
 62
   174
100
AcDbLine
 10
188.588616
 20
185.699274
 30
0.0
 11
173.388616
 21
185.699274
 31
0.0
  0
LINE
  5
1B0
100
AcDbEntity
  8
0
  6
HIDDEN
 62
   174
100
AcDbLine
 10
195.988616
 20
185.699274
 30
0.0
 11
191.488616
 21
185.699274
 31
0.0
  0
LINE
  5
1B1
100
AcDbEntity
  8
0
  6
HIDDEN
 62
   174
100
AcDbLine
 10
191.488616
 20
191.699274
 30
0.0
 11
190.988616
 21
191.699274
 31
0.0
  0
LINE
  5
1B2
100
AcDbEntity
  8
0
  6
HIDDEN
 62
   174
100
AcDbLine
 10
165.988616
 20
153.899274
 30
0.0
 11
174.388616
 21
153.899274
 31
0.0
  0
LINE
  5
1B3
100
AcDbEntity
  8
0
  6
HIDDEN
 62
   174
100
AcDbLine
 10
165.988616
 20
191.699274
 30
0.0
 11
165.988616
 21
185.699274
 31
0.0
  0
LINE
  5
1B4
100
AcDbEntity
  8
0
  6
HIDDEN
 62
   174
100
AcDbLine
 10
165.988616
 20
191.736832
 30
0.0
 11
165.988616
 21
185.737395
 31
0.0
  0
ARC
  5
1B5
100
AcDbEntity
  8
0
  6
Continuous
 62
   174
100
AcDbCircle
 10
180.988616
 20
107.399274
 30
0.0
 40
5.0
100
AcDbArc
 50
-270.0
 51
-268.539701
  0
ARC
  5
1B6
100
AcDbEntity
  8
0
  6
Continuous
 62
   174
100
AcDbCircle
 10
180.988616
 20
147.399274
 30
0.0
 40
5.0
100
AcDbArc
 50
-268.675578
 51
-151.210326
  0
LINE
  5
1B7
100
AcDbEntity
  8
0
  6
HIDDEN
 62
   174
100
AcDbLine
 10
187.188616
 20
204.802003
 30
0.0
 11
174.588616
 21
204.802003
 31
0.0
  0
LINE
  5
1B8
100
AcDbEntity
  8
0
  6
HIDDEN
 62
   174
100
AcDbLine
 10
190.988616
 20
198.802003
 30
0.0
 11
188.588616
 21
198.802003
 31
0.0
  0
LINE
  5
1B9
100
AcDbEntity
  8
0
  6
Continuous
 62
   174
100
AcDbLine
 10
173.388616
 20
182.121951
 30
0.0
 11
170.988616
 21
182.121951
 31
0.0
  0
LINE
  5
1BA
100
AcDbEntity
  8
0
  6
HIDDEN
 62
   174
100
AcDbLine
 10
165.988616
 20
153.899274
 30
0.0
 11
174.388616
 21
153.899274
 31
0.0
  0
LINE
  5
1BB
100
AcDbEntity
  8
0
  6
Continuous
 62
   174
100
AcDbLine
 10
170.988616
 20
185.699274
 30
0.0
 11
170.488616
 21
185.699274
 31
0.0
  0
LINE
  5
1BC
100
AcDbEntity
  8
0
  6
HIDDEN
 62
   174
100
AcDbLine
 10
165.988616
 20
153.899274
 30
0.0
 11
174.388616
 21
153.899274
 31
0.0
  0
ARC
  5
1BD
100
AcDbEntity
  8
0
  6
Continuous
 62
   174
100
AcDbCircle
 10
180.988616
 20
107.399274
 30
0.0
 40
5.0
100
AcDbArc
 50
-268.539701
 51
-151.192829
  0
ARC
  5
1BE
100
AcDbEntity
  8
0
  6
Continuous
 62
   174
100
AcDbCircle
 10
180.988616
 20
147.399274
 30
0.0
 40
5.0
100
AcDbArc
 50
-90.0
 51
-88.675578
  0
LINE
  5
1BF
100
AcDbEntity
  8
0
  6
Continuous
 62
   174
100
AcDbLine
 10
188.588616
 20
198.802003
 30
0.0
 11
187.188616
 21
198.802003
 31
0.0
  0
LINE
  5
1C0
100
AcDbEntity
  8
0
  6
Continuous
 62
   174
100
AcDbLine
 10
188.588616
 20
198.802003
 30
0.0
 11
187.188616
 21
198.802003
 31
0.0
  0
LINE
  5
1C1
100
AcDbEntity
  8
0
  6
HIDDEN
 62
   174
100
AcDbLine
 10
173.388616
 20
198.802003
 30
0.0
 11
170.988616
 21
198.802003
 31
0.0
  0
LINE
  5
1C2
100
AcDbEntity
  8
0
  6
HIDDEN
 62
   174
100
AcDbLine
 10
190.988616
 20
201.190052
 30
0.0
 11
190.988616
 21
198.839064
 31
0.0
  0
LINE
  5
1C3
100
AcDbEntity
  8
0
  6
HIDDEN
 62
   174
100
AcDbLine
 10
173.388616
 20
195.651369
 30
0.0
 11
170.988616
 21
195.651369
 31
0.0
  0
LINE
  5
1C4
100
AcDbEntity
  8
0
  6
Continuous
 62
   174
100
AcDbLine
 10
173.388616
 20
192.46315
 30
0.0
 11
170.988616
 21
192.46315
 31
0.0
  0
LINE
  5
1C5
100
AcDbEntity
  8
0
  6
HIDDEN
 62
   174
100
AcDbLine
 10
165.988616
 20
153.899274
 30
0.0
 11
174.388616
 21
153.899274
 31
0.0
  0
LINE
  5
1C6
100
AcDbEntity
  8
0
  6
HIDDEN
 62
   174
100
AcDbLine
 10
173.388616
 20
191.699274
 30
0.0
 11
170.988616
 21
191.699274
 31
0.0
  0
LINE
  5
1C7
100
AcDbEntity
  8
0
  6
HIDDEN
 62
   174
100
AcDbLine
 10
170.488616
 20
185.699274
 30
0.0
 11
165.988616
 21
185.699274
 31
0.0
  0
LINE
  5
1C8
100
AcDbEntity
  8
0
  6
HIDDEN
 62
   174
100
AcDbLine
 10
190.234214
 20
185.699274
 30
0.0
 11
188.588616
 21
185.699274
 31
0.0
  0
LINE
  5
1C9
100
AcDbEntity
  8
0
  6
HIDDEN
 62
   174
100
AcDbLine
 10
170.488616
 20
185.699274
 30
0.0
 11
165.988616
 21
185.699274
 31
0.0
  0
LINE
  5
1CA
100
AcDbEntity
  8
0
  6
HIDDEN
 62
   174
100
AcDbLine
 10
190.234214
 20
185.699274
 30
0.0
 11
188.588616
 21
185.699274
 31
0.0
  0
LINE
  5
1CB
100
AcDbEntity
  8
0
  6
HIDDEN
 62
   174
100
AcDbLine
 10
170.488616
 20
191.699274
 30
0.0
 11
165.988616
 21
191.699274
 31
0.0
  0
LINE
  5
1CC
100
AcDbEntity
  8
0
  6
HIDDEN
 62
   174
100
AcDbLine
 10
195.988616
 20
191.736832
 30
0.0
 11
195.988616
 21
185.737395
 31
0.0
  0
ARC
  5
1CD
100
AcDbEntity
  8
0
  6
Continuous
 62
   174
100
AcDbCircle
 10
180.988616
 20
127.399274
 30
0.0
 40
5.0
100
AcDbArc
 50
-90.0
 51
-88.539701
  0
ARC
  5
1CE
100
AcDbEntity
  8
0
  6
Continuous
 62
   174
100
AcDbCircle
 10
180.988616
 20
127.399274
 30
0.0
 40
5.0
100
AcDbArc
 50
-271.460299
 51
-270.0
  0
LINE
  5
1CF
100
AcDbEntity
  8
0
  6
HIDDEN
 62
   174
100
AcDbLine
 10
190.988616
 20
204.802003
 30
0.0
 11
188.588616
 21
204.802003
 31
0.0
  0
LINE
  5
1D0
100
AcDbEntity
  8
0
  6
HIDDEN
 62
   174
100
AcDbLine
 10
173.388616
 20
204.802003
 30
0.0
 11
170.988616
 21
204.802003
 31
0.0
  0
LINE
  5
1D1
100
AcDbEntity
  8
0
  6
HIDDEN
 62
   174
100
AcDbLine
 10
190.988616
 20
201.282878
 30
0.0
 11
190.988616
 21
201.190052
 31
0.0
  0
LINE
  5
1D2
100
AcDbEntity
  8
0
  6
HIDDEN
 62
   174
100
AcDbLine
 10
173.388616
 20
202.515869
 30
0.0
 11
170.988616
 21
202.515869
 31
0.0
  0
LINE
  5
1D3
100
AcDbEntity
  8
0
  6
Continuous
 62
   174
100
AcDbLine
 10
195.988616
 20
179.399274
 30
0.0
 11
165.988616
 21
179.399274
 31
0.0
  0
LINE
  5
1D4
100
AcDbEntity
  8
0
  6
Continuous
 62
   174
100
AcDbLine
 10
170.988616
 20
191.699274
 30
0.0
 11
170.488616
 21
191.699274
 31
0.0
  0
LINE
  5
1D5
100
AcDbEntity
  8
0
  6
Continuous
 62
   174
100
AcDbLine
 10
170.988616
 20
191.699274
 30
0.0
 11
170.488616
 21
191.699274
 31
0.0
  0
ARC
  5
1D6
100
AcDbEntity
  8
0
  6
Continuous
 62
   174
100
AcDbCircle
 10
180.988616
 20
127.399274
 30
0.0
 40
5.0
100
AcDbArc
 50
-270.0
 51
-268.539701
  0
LINE
  5
1D7
100
AcDbEntity
  8
0
  6
HIDDEN
 62
   174
100
AcDbLine
 10
190.988616
 20
204.802003
 30
0.0
 11
188.588616
 21
204.802003
 31
0.0
  0
LINE
  5
1D8
100
AcDbEntity
  8
0
  6
Continuous
 62
   174
100
AcDbLine
 10
174.588616
 20
204.802003
 30
0.0
 11
173.388616
 21
204.802003
 31
0.0
  0
LINE
  5
1D9
100
AcDbEntity
  8
0
  6
Continuous
 62
   174
100
AcDbLine
 10
174.588616
 20
204.802003
 30
0.0
 11
173.388616
 21
204.802003
 31
0.0
  0
LINE
  5
1DA
100
AcDbEntity
  8
0
  6
HIDDEN
 62
   174
100
AcDbLine
 10
187.188616
 20
198.802003
 30
0.0
 11
174.588616
 21
198.802003
 31
0.0
  0
LINE
  5
1DB
100
AcDbEntity
  8
0
  6
HIDDEN
 62
   174
100
AcDbLine
 10
190.988616
 20
204.802003
 30
0.0
 11
190.988616
 21
198.802003
 31
0.0
  0
LINE
  5
1DC
100
AcDbEntity
  8
0
  6
Continuous
 62
   174
100
AcDbLine
 10
173.388616
 20
209.802003
 30
0.0
 11
170.988616
 21
209.802003
 31
0.0
  0
LINE
  5
1DD
100
AcDbEntity
  8
0
  6
HIDDEN
 62
   174
100
AcDbLine
 10
173.388616
 20
179.152951
 30
0.0
 11
170.988616
 21
179.152951
 31
0.0
  0
LINE
  5
1DE
100
AcDbEntity
  8
0
  6
HIDDEN
 62
   174
100
AcDbLine
 10
190.988616
 20
191.699274
 30
0.0
 11
188.588616
 21
191.699274
 31
0.0
  0
LINE
  5
1DF
100
AcDbEntity
  8
0
  6
HIDDEN
 62
   174
100
AcDbLine
 10
171.743017
 20
185.699274
 30
0.0
 11
170.988616
 21
185.699274
 31
0.0
  0
LINE
  5
1E0
100
AcDbEntity
  8
0
  6
HIDDEN
 62
   174
100
AcDbLine
 10
190.988616
 20
185.699274
 30
0.0
 11
190.234214
 21
185.699274
 31
0.0
  0
LINE
  5
1E1
100
AcDbEntity
  8
0
  6
HIDDEN
 62
   174
100
AcDbLine
 10
171.743017
 20
185.699274
 30
0.0
 11
170.988616
 21
185.699274
 31
0.0
  0
LINE
  5
1E2
100
AcDbEntity
  8
0
  6
HIDDEN
 62
   174
100
AcDbLine
 10
190.988616
 20
185.699274
 30
0.0
 11
190.234214
 21
185.699274
 31
0.0
  0
LINE
  5
1E3
100
AcDbEntity
  8
0
  6
HIDDEN
 62
   174
100
AcDbLine
 10
173.388616
 20
191.699274
 30
0.0
 11
170.988616
 21
191.699274
 31
0.0
  0
LINE
  5
1E4
100
AcDbEntity
  8
0
  6
HIDDEN
 62
   174
100
AcDbLine
 10
165.988616
 20
168.899274
 30
0.0
 11
174.388616
 21
168.899274
 31
0.0
  0
ARC
  5
1E5
100
AcDbEntity
  8
0
  6
Continuous
 62
   174
100
AcDbCircle
 10
180.988616
 20
107.399274
 30
0.0
 40
5.0
100
AcDbArc
 50
-88.539701
 51
88.539701
  0
ARC
  5
1E6
100
AcDbEntity
  8
0
  6
Continuous
 62
   174
100
AcDbCircle
 10
180.988616
 20
147.399274
 30
0.0
 40
5.0
100
AcDbArc
 50
-88.675578
 51
88.675578
  0
LINE
  5
1E7
100
AcDbEntity
  8
0
  6
HIDDEN
 62
   174
100
AcDbLine
 10
173.388616
 20
198.802003
 30
0.0
 11
170.988616
 21
198.802003
 31
0.0
  0
LINE
  5
1E8
100
AcDbEntity
  8
0
  6
HIDDEN
 62
   174
100
AcDbLine
 10
187.188616
 20
204.802003
 30
0.0
 11
174.588616
 21
204.802003
 31
0.0
  0
LINE
  5
1E9
100
AcDbEntity
  8
0
  6
HIDDEN
 62
   174
100
AcDbLine
 10
170.988616
 20
201.190052
 30
0.0
 11
170.988616
 21
198.839064
 31
0.0
  0
LINE
  5
1EA
100
AcDbEntity
  8
0
  6
HIDDEN
 62
   174
100
AcDbLine
 10
190.988616
 20
204.8385
 30
0.0
 11
190.988616
 21
201.282878
 31
0.0
  0
LINE
  5
1EB
100
AcDbEntity
  8
0
  6
HIDDEN
 62
   174
100
AcDbLine
 10
173.388616
 20
188.805174
 30
0.0
 11
170.988616
 21
188.805174
 31
0.0
  0
LINE
  5
1EC
100
AcDbEntity
  8
0
  6
Continuous
 62
   174
100
AcDbLine
 10
173.388616
 20
193.939387
 30
0.0
 11
170.988616
 21
193.939387
 31
0.0
  0
LINE
  5
1ED
100
AcDbEntity
  8
0
  6
HIDDEN
 62
   174
100
AcDbLine
 10
165.988616
 20
168.899274
 30
0.0
 11
174.388616
 21
168.899274
 31
0.0
  0
LINE
  5
1EE
100
AcDbEntity
  8
0
  6
Continuous
 62
   174
100
AcDbLine
 10
188.588616
 20
191.699274
 30
0.0
 11
173.388616
 21
191.699274
 31
0.0
  0
LINE
  5
1EF
100
AcDbEntity
  8
0
  6
Continuous
 62
   174
100
AcDbLine
 10
188.588616
 20
191.699274
 30
0.0
 11
173.388616
 21
191.699274
 31
0.0
  0
LINE
  5
1F0
100
AcDbEntity
  8
0
  6
HIDDEN
 62
   174
100
AcDbLine
 10
165.988616
 20
168.899274
 30
0.0
 11
174.388616
 21
168.899274
 31
0.0
  0
ARC
  5
1F1
100
AcDbEntity
  8
0
  6
Continuous
 62
   174
100
AcDbCircle
 10
180.988616
 20
127.399274
 30
0.0
 40
5.0
100
AcDbArc
 50
-268.539701
 51
-151.192829
  0
ARC
  5
1F2
100
AcDbEntity
  8
0
  6
Continuous
 62
   174
100
AcDbCircle
 10
180.988616
 20
147.399274
 30
0.0
 40
5.0
100
AcDbArc
 50
-271.324422
 51
-270.0
  0
LINE
  5
1F3
100
AcDbEntity
  8
0
  6
Continuous
 62
   174
100
AcDbLine
 10
188.588616
 20
204.802003
 30
0.0
 11
187.188616
 21
204.802003
 31
0.0
  0
LINE
  5
1F4
100
AcDbEntity
  8
0
  6
Continuous
 62
   174
100
AcDbLine
 10
188.588616
 20
204.802003
 30
0.0
 11
187.188616
 21
204.802003
 31
0.0
  0
LINE
  5
1F5
100
AcDbEntity
  8
0
  6
HIDDEN
 62
   174
100
AcDbLine
 10
190.988616
 20
198.802003
 30
0.0
 11
188.588616
 21
198.802003
 31
0.0
  0
LINE
  5
1F6
100
AcDbEntity
  8
0
  6
HIDDEN
 62
   174
100
AcDbLine
 10
170.988616
 20
204.802003
 30
0.0
 11
170.988616
 21
198.802003
 31
0.0
  0
LINE
  5
1F7
100
AcDbEntity
  8
0
  6
Continuous
 62
   174
100
AcDbLine
 10
195.988616
 20
90.399274
 30
0.0
 11
165.988616
 21
90.399274
 31
0.0
  0
LINE
  5
1F8
100
AcDbEntity
  8
0
  6
HIDDEN
 62
   174
100
AcDbLine
 10
165.988616
 20
168.899274
 30
0.0
 11
174.388616
 21
168.899274
 31
0.0
  0
LINE
  5
1F9
100
AcDbEntity
  8
0
  6
HIDDEN
 62
   174
100
AcDbLine
 10
191.488616
 20
191.699274
 30
0.0
 11
190.988616
 21
191.699274
 31
0.0
  0
LINE
  5
1FA
100
AcDbEntity
  8
0
  6
HIDDEN
 62
   174
100
AcDbLine
 10
173.388616
 20
185.699274
 30
0.0
 11
171.743017
 21
185.699274
 31
0.0
  0
LINE
  5
1FB
100
AcDbEntity
  8
0
  6
HIDDEN
 62
   174
100
AcDbLine
 10
191.488616
 20
185.699274
 30
0.0
 11
190.988616
 21
185.699274
 31
0.0
  0
LINE
  5
1FC
100
AcDbEntity
  8
0
  6
HIDDEN
 62
   174
100
AcDbLine
 10
173.388616
 20
185.699274
 30
0.0
 11
171.743017
 21
185.699274
 31
0.0
  0
LINE
  5
1FD
100
AcDbEntity
  8
0
  6
HIDDEN
 62
   174
100
AcDbLine
 10
191.488616
 20
185.699274
 30
0.0
 11
190.988616
 21
185.699274
 31
0.0
  0
LINE
  5
1FE
100
AcDbEntity
  8
0
  6
HIDDEN
 62
   174
100
AcDbLine
 10
190.988616
 20
191.699274
 30
0.0
 11
188.588616
 21
191.699274
 31
0.0
  0
LINE
  5
1FF
100
AcDbEntity
  8
0
  6
HIDDEN
 62
   174
100
AcDbLine
 10
195.988616
 20
191.699274
 30
0.0
 11
195.988616
 21
185.699274
 31
0.0
  0
ARC
  5
200
100
AcDbEntity
  8
0
  6
Continuous
 62
   174
100
AcDbCircle
 10
180.988616
 20
107.399274
 30
0.0
 40
5.0
100
AcDbArc
 50
-90.0
 51
-88.539701
  0
ARC
  5
201
100
AcDbEntity
  8
0
  6
Continuous
 62
   174
100
AcDbCircle
 10
180.988616
 20
107.399274
 30
0.0
 40
5.0
100
AcDbArc
 50
-271.460299
 51
-270.0
  0
LINE
  5
202
100
AcDbEntity
  8
0
  6
HIDDEN
 62
   174
100
AcDbLine
 10
173.388616
 20
204.802003
 30
0.0
 11
170.988616
 21
204.802003
 31
0.0
  0
LINE
  5
203
100
AcDbEntity
  8
0
  6
HIDDEN
 62
   174
100
AcDbLine
 10
187.188616
 20
198.802003
 30
0.0
 11
174.588616
 21
198.802003
 31
0.0
  0
LINE
  5
204
100
AcDbEntity
  8
0
  6
HIDDEN
 62
   174
100
AcDbLine
 10
170.988616
 20
201.282878
 30
0.0
 11
170.988616
 21
201.190052
 31
0.0
  0
LINE
  5
205
100
AcDbEntity
  8
0
  6
Continuous
 62
   174
100
AcDbLine
 10
174.588616
 20
192.39893
 30
0.0
 11
174.588616
 21
192.239413
 31
0.0
  0
LINE
  5
206
100
AcDbEntity
  8
0
  6
Continuous
 62
   174
100
AcDbLine
 10
185.014315
 20
184.964426
 30
0.0
 11
181.01439
 21
184.964426
 31
0.0
  0
LINE
  5
207
100
AcDbEntity
  8
0
  6
HIDDEN
 62
   174
100
AcDbLine
 10
188.588616
 20
180.799274
 30
0.0
 11
188.588616
 21
179.399274
 31
0.0
  0
LINE
  5
208
100
AcDbEntity
  8
0
  6
HIDDEN
 62
   174
100
AcDbLine
 10
188.588616
 20
191.157646
 30
0.0
 11
188.588616
 21
191.488094
 31
0.0
  0
LINE
  5
209
100
AcDbEntity
  8
0
  6
Continuous
 62
   174
100
AcDbLine
 10
170.488616
 20
189.912351
 30
0.0
 11
170.488616
 21
190.666498
 31
0.0
  0
LINE
  5
20A
100
AcDbEntity
  8
0
  6
HIDDEN
 62
   174
100
AcDbLine
 10
186.788616
 20
211.837993
 30
0.0
 11
186.788616
 21
204.268026
 31
0.0
  0
LINE
  5
20B
100
AcDbEntity
  8
0
  6
Continuous
 62
   174
100
AcDbLine
 10
191.488616
 20
192.46315
 30
0.0
 11
191.488616
 21
193.939387
 31
0.0
  0
LINE
  5
20C
100
AcDbEntity
  8
0
  6
Continuous
 62
   174
100
AcDbLine
 10
186.788616
 20
211.781816
 30
0.0
 11
186.788616
 21
209.706602
 31
0.0
  0
LINE
  5
20D
100
AcDbEntity
  8
0
  6
HIDDEN
 62
   174
100
AcDbLine
 10
190.988616
 20
187.172742
 30
0.0
 11
190.988616
 21
186.954947
 31
0.0
  0
LINE
  5
20E
100
AcDbEntity
  8
0
  6
Continuous
 62
   174
100
AcDbLine
 10
190.988616
 20
192.46315
 30
0.0
 11
190.988616
 21
190.666498
 31
0.0
  0
LINE
  5
20F
100
AcDbEntity
  8
0
  6
Continuous
 62
   174
100
AcDbLine
 10
190.988616
 20
188.805174
 30
0.0
 11
190.988616
 21
187.160436
 31
0.0
  0
LINE
  5
210
100
AcDbEntity
  8
0
  6
Continuous
 62
   174
100
AcDbLine
 10
170.988616
 20
193.976669
 30
0.0
 11
170.988616
 21
198.779883
 31
0.0
  0
LINE
  5
211
100
AcDbEntity
  8
0
  6
HIDDEN
 62
   174
100
AcDbLine
 10
190.988616
 20
180.799274
 30
0.0
 11
190.988616
 21
179.399274
 31
0.0
  0
LINE
  5
212
100
AcDbEntity
  8
0
  6
HIDDEN
 62
   174
100
AcDbLine
 10
190.988616
 20
204.8385
 30
0.0
 11
190.988616
 21
201.285281
 31
0.0
  0
LINE
  5
213
100
AcDbEntity
  8
0
  6
HIDDEN
 62
   174
100
AcDbLine
 10
170.988616
 20
189.522529
 30
0.0
 11
170.988616
 21
190.694718
 31
0.0
  0
LINE
  5
214
100
AcDbEntity
  8
0
  6
HIDDEN
 62
   174
100
AcDbLine
 10
165.988616
 20
153.939571
 30
0.0
 11
165.988616
 21
168.938313
 31
0.0
  0
LINE
  5
215
100
AcDbEntity
  8
0
  6
HIDDEN
 62
   174
100
AcDbLine
 10
173.388616
 20
188.805174
 30
0.0
 11
173.388616
 21
185.194782
 31
0.0
  0
LINE
  5
216
100
AcDbEntity
  8
0
  6
Continuous
 62
   174
100
AcDbLine
 10
186.788616
 20
199.409537
 30
0.0
 11
186.788616
 21
192.854648
 31
0.0
  0
ARC
  5
217
100
AcDbEntity
  8
0
  6
Continuous
 62
   174
100
AcDbCircle
 10
180.988616
 20
127.399274
 30
0.0
 40
4.2
100
AcDbArc
 50
136.807651
 51
223.192349
  0
LINE
  5
218
100
AcDbEntity
  8
0
  6
Continuous
 62
   174
100
AcDbLine
 10
188.588616
 20
193.939387
 30
0.0
 11
188.588616
 21
192.46315
 31
0.0
  0
LINE
  5
219
100
AcDbEntity
  8
0
  6
Continuous
 62
   174
100
AcDbLine
 10
170.488616
 20
190.666498
 30
0.0
 11
170.488616
 21
192.46315
 31
0.0
  0
ARC
  5
21A
100
AcDbEntity
  8
0
  6
Continuous
 62
   174
100
AcDbCircle
 10
180.988616
 20
147.399274
 30
0.0
 40
4.2
100
AcDbArc
 50
46.797477
 51
90.0
  0
LINE
  5
21B
100
AcDbEntity
  8
0
  6
HIDDEN
 62
   174
100
AcDbLine
 10
188.588616
 20
186.954947
 30
0.0
 11
188.588616
 21
188.183613
 31
0.0
  0
LINE
  5
21C
100
AcDbEntity
  8
0
  6
HIDDEN
 62
   174
100
AcDbLine
 10
173.388616
 20
189.522529
 30
0.0
 11
173.388616
 21
190.694718
 31
0.0
  0
LINE
  5
21D
100
AcDbEntity
  8
0
  6
Continuous
 62
   174
100
AcDbLine
 10
191.488616
 20
193.939387
 30
0.0
 11
191.488616
 21
198.399274
 31
0.0
  0
ARC
  5
21E
100
AcDbEntity
  8
0
  6
Continuous
 62
   174
100
AcDbCircle
 10
180.988616
 20
107.399274
 30
0.0
 40
4.2
100
AcDbArc
 50
43.192349
 51
46.797477
  0
LINE
  5
21F
100
AcDbEntity
  8
0
  6
HIDDEN
 62
   174
100
AcDbLine
 10
173.388616
 20
185.737095
 30
0.0
 11
173.388616
 21
186.088271
 31
0.0
  0
LINE
  5
220
100
AcDbEntity
  8
0
  6
Continuous
 62
   174
100
AcDbLine
 10
174.988616
 20
211.802003
 30
0.0
 11
186.788616
 21
211.802003
 31
0.0
  0
LINE
  5
221
100
AcDbEntity
  8
0
  6
Continuous
 62
   174
100
AcDbLine
 10
174.588616
 20
193.273115
 30
0.0
 11
174.588616
 21
192.39893
 31
0.0
  0
LINE
  5
222
100
AcDbEntity
  8
0
  6
Continuous
 62
   174
100
AcDbLine
 10
190.988616
 20
193.976669
 30
0.0
 11
190.988616
 21
198.779883
 31
0.0
  0
ARC
  5
223
100
AcDbEntity
  8
0
  6
Continuous
 62
   174
100
AcDbCircle
 10
180.988616
 20
107.399274
 30
0.0
 40
4.2
100
AcDbArc
 50
226.797477
 51
270.0
  0
LINE
  5
224
100
AcDbEntity
  8
0
  6
HIDDEN
 62
   174
100
AcDbLine
 10
188.588616
 20
179.399274
 30
0.0
 11
188.588616
 21
179.152951
 31
0.0
  0
ARC
  5
225
100
AcDbEntity
  8
0
  6
Continuous
 62
   174
100
AcDbCircle
 10
180.988616
 20
127.399274
 30
0.0
 40
4.2
100
AcDbArc
 50
270.0
 51
313.202523
  0
LINE
  5
226
100
AcDbEntity
  8
0
  6
HIDDEN
 62
   174
100
AcDbLine
 10
188.588616
 20
191.488094
 30
0.0
 11
188.588616
 21
191.736832
 31
0.0
  0
LWPOLYLINE
  5
227
100
AcDbEntity
  8
0
  6
Continuous
 62
   174
100
AcDbPolyline
 90
        4
 70
   128
 10
188.988616
 20
185.194782
 10
189.988616
 20
185.45813
 10
190.720667
 20
186.177609
 10
190.988616
 20
187.160436
  0
LINE
  5
228
100
AcDbEntity
  8
0
  6
HIDDEN
 62
   174
100
AcDbLine
 10
174.388616
 20
168.938313
 30
0.0
 11
174.388616
 21
153.939571
 31
0.0
  0
LINE
  5
229
100
AcDbEntity
  8
0
  6
Continuous
 62
   174
100
AcDbLine
 10
186.788616
 20
211.837993
 30
0.0
 11
186.788616
 21
211.781816
 31
0.0
  0
LINE
  5
22A
100
AcDbEntity
  8
0
  6
HIDDEN
 62
   174
100
AcDbLine
 10
190.988616
 20
186.954947
 30
0.0
 11
190.988616
 21
186.088271
 31
0.0
  0
LINE
  5
22B
100
AcDbEntity
  8
0
  6
Continuous
 62
   174
100
AcDbLine
 10
170.488616
 20
192.46315
 30
0.0
 11
170.488616
 21
193.939387
 31
0.0
  0
LINE
  5
22C
100
AcDbEntity
  8
0
  6
Continuous
 62
   174
100
AcDbLine
 10
173.388616
 20
204.855323
 30
0.0
 11
173.388616
 21
209.838181
 31
0.0
  0
ARC
  5
22D
100
AcDbEntity
  8
0
  6
Continuous
 62
   174
100
AcDbCircle
 10
180.988616
 20
175.799274
 30
0.0
 40
10.0
100
AcDbArc
 50
-270.0
 51
-246.421822
  0
LINE
  5
22E
100
AcDbEntity
  8
0
  6
HIDDEN
 62
   174
100
AcDbLine
 10
190.988616
 20
179.399274
 30
0.0
 11
190.988616
 21
179.152951
 31
0.0
  0
LINE
  5
22F
100
AcDbEntity
  8
0
  6
HIDDEN
 62
   174
100
AcDbLine
 10
170.988616
 20
190.694718
 30
0.0
 11
170.988616
 21
191.488094
 31
0.0
  0
LINE
  5
230
100
AcDbEntity
  8
0
  6
Continuous
 62
   174
100
AcDbLine
 10
191.488616
 20
198.399274
 30
0.0
 11
195.988616
 21
198.399274
 31
0.0
  0
LINE
  5
231
100
AcDbEntity
  8
0
  6
HIDDEN
 62
   174
100
AcDbLine
 10
173.388616
 20
189.912351
 30
0.0
 11
173.388616
 21
188.805174
 31
0.0
  0
LINE
  5
232
100
AcDbEntity
  8
0
  6
HIDDEN
 62
   174
100
AcDbLine
 10
186.788616
 20
204.268026
 30
0.0
 11
186.788616
 21
191.839571
 31
0.0
  0
LINE
  5
233
100
AcDbEntity
  8
0
  6
Continuous
 62
   174
100
AcDbLine
 10
173.388616
 20
193.939387
 30
0.0
 11
173.388616
 21
192.46315
 31
0.0
  0
LINE
  5
234
100
AcDbEntity
  8
0
  6
Continuous
 62
   174
100
AcDbLine
 10
188.588616
 20
185.194782
 30
0.0
 11
188.588616
 21
182.121951
 31
0.0
  0
LINE
  5
235
100
AcDbEntity
  8
0
  6
HIDDEN
 62
   174
100
AcDbLine
 10
170.988616
 20
189.912351
 30
0.0
 11
170.988616
 21
188.805174
 31
0.0
  0
LINE
  5
236
100
AcDbEntity
  8
0
  6
Continuous
 62
   174
100
AcDbLine
 10
187.188616
 20
210.72288
 30
0.0
 11
187.188616
 21
199.506869
 31
0.0
  0
ARC
  5
237
100
AcDbEntity
  8
0
  6
Continuous
 62
   174
100
AcDbCircle
 10
180.988616
 20
127.399274
 30
0.0
 40
4.2
100
AcDbArc
 50
133.202523
 51
136.807651
  0
LINE
  5
238
100
AcDbEntity
  8
0
  6
HIDDEN
 62
   174
100
AcDbLine
 10
190.988616
 20
191.736832
 30
0.0
 11
190.988616
 21
190.694718
 31
0.0
  0
ARC
  5
239
100
AcDbEntity
  8
0
  6
Continuous
 62
   174
100
AcDbCircle
 10
180.988616
 20
147.399274
 30
0.0
 40
4.2
100
AcDbArc
 50
43.192349
 51
46.797477
  0
LINE
  5
23A
100
AcDbEntity
  8
0
  6
HIDDEN
 62
   174
100
AcDbLine
 10
190.988616
 20
190.666498
 30
0.0
 11
190.988616
 21
189.912351
 31
0.0
  0
LINE
  5
23B
100
AcDbEntity
  8
0
  6
HIDDEN
 62
   174
100
AcDbLine
 10
173.388616
 20
190.694718
 30
0.0
 11
173.388616
 21
191.157646
 31
0.0
  0
LINE
  5
23C
100
AcDbEntity
  8
0
  6
HIDDEN
 62
   174
100
AcDbLine
 10
165.988616
 20
153.939571
 30
0.0
 11
165.988616
 21
168.938313
 31
0.0
  0
LINE
  5
23D
100
AcDbEntity
  8
0
  6
Continuous
 62
   174
100
AcDbLine
 10
190.988616
 20
209.802003
 30
0.0
 11
188.588616
 21
209.802003
 31
0.0
  0
LINE
  5
23E
100
AcDbEntity
  8
0
  6
Continuous
 62
   174
100
AcDbLine
 10
190.988616
 20
192.46315
 30
0.0
 11
188.588616
 21
192.46315
 31
0.0
  0
ARC
  5
23F
100
AcDbEntity
  8
0
  6
Continuous
 62
   174
100
AcDbCircle
 10
180.988616
 20
107.399274
 30
0.0
 40
4.2
100
AcDbArc
 50
-43.192349
 51
43.192349
  0
ARC
  5
240
100
AcDbEntity
  8
0
  6
Continuous
 62
   174
100
AcDbCircle
 10
180.988616
 20
147.399274
 30
0.0
 40
4.2
100
AcDbArc
 50
226.797477
 51
270.0
  0
LINE
  5
241
100
AcDbEntity
  8
0
  6
Continuous
 62
   174
100
AcDbLine
 10
170.488616
 20
193.939387
 30
0.0
 11
170.488616
 21
198.399274
 31
0.0
  0
LINE
  5
242
100
AcDbEntity
  8
0
  6
Continuous
 62
   174
100
AcDbLine
 10
174.588616
 20
199.506869
 30
0.0
 11
174.588616
 21
193.273115
 31
0.0
  0
LINE
  5
243
100
AcDbEntity
  8
0
  6
HIDDEN
 62
   174
100
AcDbLine
 10
190.988616
 20
179.152951
 30
0.0
 11
188.588616
 21
179.152951
 31
0.0
  0
LINE
  5
244
100
AcDbEntity
  8
0
  6
HIDDEN
 62
   174
100
AcDbLine
 10
170.988616
 20
185.737095
 30
0.0
 11
170.988616
 21
186.954947
 31
0.0
  0
LINE
  5
245
100
AcDbEntity
  8
0
  6
HIDDEN
 62
   174
100
AcDbLine
 10
188.588616
 20
187.553567
 30
0.0
 11
188.588616
 21
191.059628
 31
0.0
  0
LINE
  5
246
100
AcDbEntity
  8
0
  6
Continuous
 62
   174
100
AcDbLine
 10
174.988616
 20
209.706602
 30
0.0
 11
174.988616
 21
199.409537
 31
0.0
  0
LINE
  5
247
100
AcDbEntity
  8
0
  6
Continuous
 62
   174
100
AcDbLine
 10
188.588616
 20
182.121951
 30
0.0
 11
188.588616
 21
180.799274
 31
0.0
  0
LINE
  5
248
100
AcDbEntity
  8
0
  6
HIDDEN
 62
   174
100
AcDbLine
 10
173.388616
 20
186.088271
 30
0.0
 11
173.388616
 21
186.954947
 31
0.0
  0
LINE
  5
249
100
AcDbEntity
  8
0
  6
Continuous
 62
   174
100
AcDbLine
 10
190.988616
 20
193.939387
 30
0.0
 11
190.988616
 21
192.46315
 31
0.0
  0
LINE
  5
24A
100
AcDbEntity
  8
0
  6
HIDDEN
 62
   174
100
AcDbLine
 10
190.988616
 20
186.088271
 30
0.0
 11
190.988616
 21
185.737095
 31
0.0
  0
LINE
  5
24B
100
AcDbEntity
  8
0
  6
HIDDEN
 62
   174
100
AcDbLine
 10
177.014165
 20
179.399274
 30
0.0
 11
181.01439
 21
179.399274
 31
0.0
  0
LINE
  5
24C
100
AcDbEntity
  8
0
  6
HIDDEN
 62
   174
100
AcDbLine
 10
187.588616
 20
165.899274
 30
0.0
 11
174.388616
 21
165.899274
 31
0.0
  0
LINE
  5
24D
100
AcDbEntity
  8
0
  6
HIDDEN
 62
   174
100
AcDbLine
 10
174.388616
 20
165.938745
 30
0.0
 11
174.388616
 21
156.93944
 31
0.0
  0
LINE
  5
24E
100
AcDbEntity
  8
0
  6
HIDDEN
 62
   174
100
AcDbLine
 10
173.388616
 20
201.285281
 30
0.0
 11
173.388616
 21
204.8385
 31
0.0
  0
LINE
  5
24F
100
AcDbEntity
  8
0
  6
HIDDEN
 62
   174
100
AcDbLine
 10
170.988616
 20
191.488094
 30
0.0
 11
170.988616
 21
191.736832
 31
0.0
  0
LINE
  5
250
100
AcDbEntity
  8
0
  6
HIDDEN
 62
   174
100
AcDbLine
 10
170.988616
 20
188.805174
 30
0.0
 11
170.988616
 21
187.160436
 31
0.0
  0
LINE
  5
251
100
AcDbEntity
  8
0
  6
Continuous
 62
   174
100
AcDbLine
 10
190.988616
 20
193.939387
 30
0.0
 11
188.588616
 21
193.939387
 31
0.0
  0
ARC
  5
252
100
AcDbEntity
  8
0
  6
Continuous
 62
   174
100
AcDbCircle
 10
180.988616
 20
107.399274
 30
0.0
 40
4.2
100
AcDbArc
 50
223.192349
 51
226.797477
  0
LINE
  5
253
100
AcDbEntity
  8
0
  6
Continuous
 62
   174
100
AcDbLine
 10
191.488616
 20
180.799274
 30
0.0
 11
191.488616
 21
182.121951
 31
0.0
  0
LINE
  5
254
100
AcDbEntity
  8
0
  6
HIDDEN
 62
   174
100
AcDbLine
 10
173.388616
 20
204.802003
 30
0.0
 11
170.988616
 21
204.802003
 31
0.0
  0
ARC
  5
255
100
AcDbEntity
  8
0
  6
Continuous
 62
   174
100
AcDbCircle
 10
180.988616
 20
127.399274
 30
0.0
 40
4.2
100
AcDbArc
 50
90.0
 51
133.202523
  0
LINE
  5
256
100
AcDbEntity
  8
0
  6
Continuous
 62
   174
100
AcDbLine
 10
188.588616
 20
191.059628
 30
0.0
 11
186.788616
 21
191.059628
 31
0.0
  0
ARC
  5
257
100
AcDbEntity
  8
0
  6
Continuous
 62
   174
100
AcDbCircle
 10
180.988616
 20
147.399274
 30
0.0
 40
4.2
100
AcDbArc
 50
-43.192349
 51
43.192349
  0
LINE
  5
258
100
AcDbEntity
  8
0
  6
HIDDEN
 62
   174
100
AcDbLine
 10
173.388616
 20
191.157646
 30
0.0
 11
173.388616
 21
191.488094
 31
0.0
  0
LINE
  5
259
100
AcDbEntity
  8
0
  6
Continuous
 62
   174
100
AcDbLine
 10
173.388616
 20
201.285582
 30
0.0
 11
173.388616
 21
204.855323
 31
0.0
  0
LINE
  5
25A
100
AcDbEntity
  8
0
  6
HIDDEN
 62
   174
100
AcDbLine
 10
190.988616
 20
204.802003
 30
0.0
 11
188.588616
 21
204.802003
 31
0.0
  0
LINE
  5
25B
100
AcDbEntity
  8
0
  6
Continuous
 62
   174
100
AcDbLine
 10
184.988616
 20
184.964426
 30
0.0
 11
184.988616
 21
179.399274
 31
0.0
  0
ARC
  5
25C
100
AcDbEntity
  8
0
  6
Continuous
 62
   174
100
AcDbCircle
 10
180.988616
 20
107.399274
 30
0.0
 40
4.2
100
AcDbArc
 50
313.202523
 51
316.807651
  0
LINE
  5
25D
100
AcDbEntity
  8
0
  6
Continuous
 62
   174
100
AcDbLine
 10
188.588616
 20
204.855323
 30
0.0
 11
188.588616
 21
209.838181
 31
0.0
  0
LINE
  5
25E
100
AcDbEntity
  8
0
  6
Continuous
 62
   174
100
AcDbLine
 10
188.588616
 20
192.46315
 30
0.0
 11
188.588616
 21
191.059628
 31
0.0
  0
LINE
  5
25F
100
AcDbEntity
  8
0
  6
HIDDEN
 62
   174
100
AcDbLine
 10
174.988616
 20
211.837993
 30
0.0
 11
174.988616
 21
204.268026
 31
0.0
  0
LINE
  5
260
100
AcDbEntity
  8
0
  6
Continuous
 62
   174
100
AcDbLine
 10
187.188616
 20
192.39893
 30
0.0
 11
187.188616
 21
192.239413
 31
0.0
  0
LINE
  5
261
100
AcDbEntity
  8
0
  6
Continuous
 62
   174
100
AcDbLine
 10
170.988616
 20
187.160436
 30
0.0
 11
170.988616
 21
182.121951
 31
0.0
  0
LINE
  5
262
100
AcDbEntity
  8
0
  6
HIDDEN
 62
   174
100
AcDbLine
 10
190.988616
 20
188.805174
 30
0.0
 11
190.988616
 21
187.160436
 31
0.0
  0
LINE
  5
263
100
AcDbEntity
  8
0
  6
HIDDEN
 62
   174
100
AcDbLine
 10
170.988616
 20
186.954947
 30
0.0
 11
170.988616
 21
187.172742
 31
0.0
  0
LINE
  5
264
100
AcDbEntity
  8
0
  6
Continuous
 62
   174
100
AcDbLine
 10
195.988616
 20
90.399274
 30
0.0
 11
195.988616
 21
179.399274
 31
0.0
  0
LINE
  5
265
100
AcDbEntity
  8
0
  6
Continuous
 62
   174
100
AcDbLine
 10
187.188616
 20
211.43815
 30
0.0
 11
187.188616
 21
210.72288
 31
0.0
  0
LINE
  5
266
100
AcDbEntity
  8
0
  6
HIDDEN
 62
   174
100
AcDbLine
 10
190.988616
 20
190.694718
 30
0.0
 11
190.988616
 21
189.522529
 31
0.0
  0
LINE
  5
267
100
AcDbEntity
  8
0
  6
Continuous
 62
   174
100
AcDbLine
 10
188.988616
 20
188.700844
 30
0.0
 11
172.988616
 21
188.700844
 31
0.0
  0
LINE
  5
268
100
AcDbEntity
  8
0
  6
HIDDEN
 62
   174
100
AcDbLine
 10
173.388616
 20
186.954947
 30
0.0
 11
173.388616
 21
188.183613
 31
0.0
  0
LINE
  5
269
100
AcDbEntity
  8
0
  6
Continuous
 62
   174
100
AcDbLine
 10
174.988616
 20
211.837993
 30
0.0
 11
174.988616
 21
209.706602
 31
0.0
  0
LINE
  5
26A
100
AcDbEntity
  8
0
  6
HIDDEN
 62
   174
100
AcDbLine
 10
184.988616
 20
185.194782
 30
0.0
 11
183.884913
 21
185.194782
 31
0.0
  0
ARC
  5
26B
100
AcDbEntity
  8
0
  6
Continuous
 62
   174
100
AcDbCircle
 10
180.988616
 20
147.399274
 30
0.0
 40
4.2
100
AcDbArc
 50
223.192349
 51
226.797477
  0
LINE
  5
26C
100
AcDbEntity
  8
0
  6
HIDDEN
 62
   174
100
AcDbLine
 10
188.588616
 20
188.183613
 30
0.0
 11
188.588616
 21
189.522529
 31
0.0
  0
LINE
  5
26D
100
AcDbEntity
  8
0
  6
HIDDEN
 62
   174
100
AcDbLine
 10
195.988616
 20
168.938313
 30
0.0
 11
195.988616
 21
153.939571
 31
0.0
  0
LINE
  5
26E
100
AcDbEntity
  8
0
  6
Continuous
 62
   174
100
AcDbLine
 10
170.988616
 20
204.855323
 30
0.0
 11
170.988616
 21
209.838181
 31
0.0
  0
LINE
  5
26F
100
AcDbEntity
  8
0
  6
HIDDEN
 62
   174
100
AcDbLine
 10
190.988616
 20
188.805174
 30
0.0
 11
188.588616
 21
188.805174
 31
0.0
  0
ARC
  5
270
100
AcDbEntity
  8
0
  6
Continuous
 62
   174
100
AcDbCircle
 10
180.988616
 20
107.399274
 30
0.0
 40
4.2
100
AcDbArc
 50
136.807651
 51
223.192349
  0
LINE
  5
271
100
AcDbEntity
  8
0
  6
Continuous
 62
   174
100
AcDbLine
 10
170.488616
 20
180.799274
 30
0.0
 11
170.488616
 21
182.121951
 31
0.0
  0
LINE
  5
272
100
AcDbEntity
  8
0
  6
Continuous
 62
   174
100
AcDbLine
 10
191.488616
 20
182.121951
 30
0.0
 11
191.488616
 21
187.160436
 31
0.0
  0
LWPOLYLINE
  5
273
100
AcDbEntity
  8
0
  6
Continuous
 62
   174
100
AcDbPolyline
 90
        4
 70
   128
 10
170.988616
 20
187.160436
 10
171.256565
 20
186.177609
 10
171.988616
 20
185.45813
 10
172.988616
 20
185.194782
  0
LINE
  5
274
100
AcDbEntity
  8
0
  6
Continuous
 62
   174
100
AcDbLine
 10
170.988616
 20
182.121951
 30
0.0
 11
170.988616
 21
180.799274
 31
0.0
  0
ARC
  5
275
100
AcDbEntity
  8
0
  6
Continuous
 62
   174
100
AcDbCircle
 10
180.988616
 20
127.399274
 30
0.0
 40
4.2
100
AcDbArc
 50
46.797477
 51
90.0
  0
LINE
  5
276
100
AcDbEntity
  8
0
  6
HIDDEN
 62
   174
100
AcDbLine
 10
181.01439
 20
179.399274
 30
0.0
 11
185.014315
 21
179.399274
 31
0.0
  0
ARC
  5
277
100
AcDbEntity
  8
0
  6
Continuous
 62
   174
100
AcDbCircle
 10
180.988616
 20
147.399274
 30
0.0
 40
4.2
100
AcDbArc
 50
313.202523
 51
316.807651
  0
LINE
  5
278
100
AcDbEntity
  8
0
  6
HIDDEN
 62
   174
100
AcDbLine
 10
174.388616
 20
168.938313
 30
0.0
 11
174.388616
 21
153.939571
 31
0.0
  0
LWPOLYLINE
  5
279
100
AcDbEntity
  8
0
  6
Continuous
 62
   174
100
AcDbPolyline
 90
        4
 70
   128
 10
172.988616
 20
188.700844
 10
171.988616
 20
188.964191
 10
171.256565
 20
189.683671
 10
170.988616
 20
190.666498
  0
LINE
  5
27A
100
AcDbEntity
  8
0
  6
HIDDEN
 62
   174
100
AcDbLine
 10
170.988616
 20
198.839064
 30
0.0
 11
170.988616
 21
201.285281
 31
0.0
  0
LINE
  5
27B
100
AcDbEntity
  8
0
  6
HIDDEN
 62
   174
100
AcDbLine
 10
173.388616
 20
191.488094
 30
0.0
 11
173.388616
 21
191.736832
 31
0.0
  0
LINE
  5
27C
100
AcDbEntity
  8
0
  6
Continuous
 62
   174
100
AcDbLine
 10
186.788616
 20
191.059628
 30
0.0
 11
174.988616
 21
191.059628
 31
0.0
  0
LINE
  5
27D
100
AcDbEntity
  8
0
  6
Continuous
 62
   174
100
AcDbLine
 10
173.388616
 20
198.779883
 30
0.0
 11
173.388616
 21
201.285582
 31
0.0
  0
LINE
  5
27E
100
AcDbEntity
  8
0
  6
HIDDEN
 62
   174
100
AcDbLine
 10
190.988616
 20
189.912351
 30
0.0
 11
188.588616
 21
189.912351
 31
0.0
  0
LINE
  5
27F
100
AcDbEntity
  8
0
  6
HIDDEN
 62
   174
100
AcDbLine
 10
190.988616
 20
189.912351
 30
0.0
 11
190.988616
 21
188.805174
 31
0.0
  0
ARC
  5
280
100
AcDbEntity
  8
0
  6
Continuous
 62
   174
100
AcDbCircle
 10
180.988616
 20
107.399274
 30
0.0
 40
4.2
100
AcDbArc
 50
270.0
 51
313.202523
  0
LINE
  5
281
100
AcDbEntity
  8
0
  6
HIDDEN
 62
   174
100
AcDbLine
 10
187.588616
 20
156.93944
 30
0.0
 11
187.588616
 21
165.938745
 31
0.0
  0
LINE
  5
282
100
AcDbEntity
  8
0
  6
Continuous
 62
   174
100
AcDbLine
 10
187.188616
 20
193.273115
 30
0.0
 11
187.188616
 21
192.39893
 31
0.0
  0
ARC
  5
283
100
AcDbEntity
  8
0
  6
Continuous
 62
   174
100
AcDbCircle
 10
180.988616
 20
175.799274
 30
0.0
 40
10.0
100
AcDbArc
 50
66.421822
 51
90.0
  0
LINE
  5
284
100
AcDbEntity
  8
0
  6
Continuous
 62
   174
100
AcDbLine
 10
190.988616
 20
204.855323
 30
0.0
 11
190.988616
 21
209.838181
 31
0.0
  0
LINE
  5
285
100
AcDbEntity
  8
0
  6
HIDDEN
 62
   174
100
AcDbLine
 10
190.988616
 20
189.522529
 30
0.0
 11
190.988616
 21
188.855624
 31
0.0
  0
LINE
  5
286
100
AcDbEntity
  8
0
  6
HIDDEN
 62
   174
100
AcDbLine
 10
170.988616
 20
187.172742
 30
0.0
 11
170.988616
 21
188.183613
 31
0.0
  0
LINE
  5
287
100
AcDbEntity
  8
0
  6
HIDDEN
 62
   174
100
AcDbLine
 10
187.588616
 20
165.899274
 30
0.0
 11
174.388616
 21
165.899274
 31
0.0
  0
LINE
  5
288
100
AcDbEntity
  8
0
  6
Continuous
 62
   174
100
AcDbLine
 10
188.988616
 20
185.194782
 30
0.0
 11
184.988616
 21
185.194782
 31
0.0
  0
LINE
  5
289
100
AcDbEntity
  8
0
  6
HIDDEN
 62
   174
100
AcDbLine
 10
185.014315
 20
184.964426
 30
0.0
 11
181.01439
 21
184.964426
 31
0.0
  0
LINE
  5
28A
100
AcDbEntity
  8
0
  6
HIDDEN
 62
   174
100
AcDbLine
 10
190.988616
 20
185.699274
 30
0.0
 11
188.588616
 21
185.699274
 31
0.0
  0
LINE
  5
28B
100
AcDbEntity
  8
0
  6
Continuous
 62
   174
100
AcDbLine
 10
165.988616
 20
90.399274
 30
0.0
 11
165.988616
 21
179.399274
 31
0.0
  0
LINE
  5
28C
100
AcDbEntity
  8
0
  6
Continuous
 62
   174
100
AcDbLine
 10
174.988616
 20
192.854648
 30
0.0
 11
174.988616
 21
191.839571
 31
0.0
  0
LINE
  5
28D
100
AcDbEntity
  8
0
  6
Continuous
 62
   174
100
AcDbLine
 10
174.588616
 20
210.72288
 30
0.0
 11
174.588616
 21
199.506869
 31
0.0
  0
LINE
  5
28E
100
AcDbEntity
  8
0
  6
Continuous
 62
   174
100
AcDbLine
 10
190.988616
 20
182.121951
 30
0.0
 11
188.588616
 21
182.121951
 31
0.0
  0
LINE
  5
28F
100
AcDbEntity
  8
0
  6
HIDDEN
 62
   174
100
AcDbLine
 10
183.884913
 20
185.194782
 30
0.0
 11
180.988616
 21
185.194782
 31
0.0
  0
LINE
  5
290
100
AcDbEntity
  8
0
  6
HIDDEN
 62
   174
100
AcDbLine
 10
170.988616
 20
190.666498
 30
0.0
 11
170.988616
 21
189.912351
 31
0.0
  0
LINE
  5
291
100
AcDbEntity
  8
0
  6
HIDDEN
 62
   174
100
AcDbLine
 10
190.988616
 20
195.651369
 30
0.0
 11
188.588616
 21
195.651369
 31
0.0
  0
LINE
  5
292
100
AcDbEntity
  8
0
  6
Continuous
 62
   174
100
AcDbLine
 10
188.588616
 20
201.285582
 30
0.0
 11
188.588616
 21
204.855323
 31
0.0
  0
LINE
  5
293
100
AcDbEntity
  8
0
  6
Continuous
 62
   174
100
AcDbLine
 10
191.488616
 20
187.160436
 30
0.0
 11
191.488616
 21
188.805174
 31
0.0
  0
LINE
  5
294
100
AcDbEntity
  8
0
  6
Continuous
 62
   174
100
AcDbLine
 10
190.988616
 20
187.160436
 30
0.0
 11
190.988616
 21
188.805174
 31
0.0
  0
ARC
  5
295
100
AcDbEntity
  8
0
  6
Continuous
 62
   174
100
AcDbCircle
 10
180.988616
 20
147.399274
 30
0.0
 40
4.2
100
AcDbArc
 50
136.807651
 51
223.192349
  0
LINE
  5
296
100
AcDbEntity
  8
0
  6
HIDDEN
 62
   174
100
AcDbLine
 10
173.388616
 20
185.699274
 30
0.0
 11
170.988616
 21
185.699274
 31
0.0
  0
LINE
  5
297
100
AcDbEntity
  8
0
  6
Continuous
 62
   174
100
AcDbLine
 10
174.988616
 20
191.059628
 30
0.0
 11
173.388616
 21
191.059628
 31
0.0
  0
LINE
  5
298
100
AcDbEntity
  8
0
  6
HIDDEN
 62
   174
100
AcDbLine
 10
174.588616
 20
211.402003
 30
0.0
 11
174.988616
 21
211.802003
 31
0.0
  0
LINE
  5
299
100
AcDbEntity
  8
0
  6
HIDDEN
 62
   174
100
AcDbLine
 10
174.588616
 20
192.202003
 30
0.0
 11
174.988616
 21
191.802003
 31
0.0
  0
LINE
  5
29A
100
AcDbEntity
  8
0
  6
HIDDEN
 62
   174
100
AcDbLine
 10
170.988616
 20
180.799274
 30
0.0
 11
170.988616
 21
179.399274
 31
0.0
  0
ARC
  5
29B
100
AcDbEntity
  8
0
  6
Continuous
 62
   174
100
AcDbCircle
 10
180.988616
 20
107.399274
 30
0.0
 40
4.2
100
AcDbArc
 50
133.202523
 51
136.807651
  0
ARC
  5
29C
100
AcDbEntity
  8
0
  6
Continuous
 62
   174
100
AcDbCircle
 10
180.988616
 20
127.399274
 30
0.0
 40
4.2
100
AcDbArc
 50
43.192349
 51
46.797477
  0
LINE
  5
29D
100
AcDbEntity
  8
0
  6
HIDDEN
 62
   174
100
AcDbLine
 10
173.388616
 20
180.799274
 30
0.0
 11
173.388616
 21
179.399274
 31
0.0
  0
ARC
  5
29E
100
AcDbEntity
  8
0
  6
Continuous
 62
   174
100
AcDbCircle
 10
180.988616
 20
147.399274
 30
0.0
 40
4.2
100
AcDbArc
 50
270.0
 51
313.202523
  0
LINE
  5
29F
100
AcDbEntity
  8
0
  6
HIDDEN
 62
   174
100
AcDbLine
 10
188.588616
 20
189.522529
 30
0.0
 11
188.588616
 21
190.694718
 31
0.0
  0
LINE
  5
2A0
100
AcDbEntity
  8
0
  6
Continuous
 62
   174
100
AcDbLine
 10
170.488616
 20
182.121951
 30
0.0
 11
170.488616
 21
187.160436
 31
0.0
  0
LINE
  5
2A1
100
AcDbEntity
  8
0
  6
Continuous
 62
   174
100
AcDbLine
 10
178.092319
 20
185.194782
 30
0.0
 11
176.988616
 21
185.194782
 31
0.0
  0
LINE
  5
2A2
100
AcDbEntity
  8
0
  6
HIDDEN
 62
   174
100
AcDbLine
 10
188.588616
 20
189.912351
 30
0.0
 11
188.588616
 21
188.805174
 31
0.0
  0
LINE
  5
2A3
100
AcDbEntity
  8
0
  6
HIDDEN
 62
   174
100
AcDbLine
 10
190.988616
 20
198.802003
 30
0.0
 11
188.588616
 21
198.802003
 31
0.0
  0
ARC
  5
2A4
100
AcDbEntity
  8
0
  6
Continuous
 62
   174
100
AcDbCircle
 10
180.988616
 20
127.399274
 30
0.0
 40
4.2
100
AcDbArc
 50
226.797477
 51
270.0
  0
LINE
  5
2A5
100
AcDbEntity
  8
0
  6
HIDDEN
 62
   174
100
AcDbLine
 10
173.388616
 20
198.839064
 30
0.0
 11
173.388616
 21
201.285281
 31
0.0
  0
LINE
  5
2A6
100
AcDbEntity
  8
0
  6
HIDDEN
 62
   174
100
AcDbLine
 10
174.388616
 20
165.938745
 30
0.0
 11
174.388616
 21
156.93944
 31
0.0
  0
LINE
  5
2A7
100
AcDbEntity
  8
0
  6
HIDDEN
 62
   174
100
AcDbLine
 10
180.988616
 20
185.194782
 30
0.0
 11
178.092319
 21
185.194782
 31
0.0
  0
LINE
  5
2A8
100
AcDbEntity
  8
0
  6
HIDDEN
 62
   174
100
AcDbLine
 10
173.388616
 20
191.059628
 30
0.0
 11
173.388616
 21
187.553567
 31
0.0
  0
LINE
  5
2A9
100
AcDbEntity
  8
0
  6
Continuous
 62
   174
100
AcDbLine
 10
187.188616
 20
199.506869
 30
0.0
 11
187.188616
 21
193.273115
 31
0.0
  0
LINE
  5
2AA
100
AcDbEntity
  8
0
  6
Continuous
 62
   174
100
AcDbLine
 10
173.388616
 20
193.976669
 30
0.0
 11
173.388616
 21
198.779883
 31
0.0
  0
LINE
  5
2AB
100
AcDbEntity
  8
0
  6
HIDDEN
 62
   174
100
AcDbLine
 10
170.988616
 20
201.285281
 30
0.0
 11
170.988616
 21
204.8385
 31
0.0
  0
LINE
  5
2AC
100
AcDbEntity
  8
0
  6
Continuous
 62
   174
100
AcDbLine
 10
191.488616
 20
188.805174
 30
0.0
 11
191.488616
 21
189.912351
 31
0.0
  0
LINE
  5
2AD
100
AcDbEntity
  8
0
  6
Continuous
 62
   174
100
AcDbLine
 10
190.988616
 20
188.805174
 30
0.0
 11
190.988616
 21
189.912351
 31
0.0
  0
LINE
  5
2AE
100
AcDbEntity
  8
0
  6
HIDDEN
 62
   174
100
AcDbLine
 10
187.588616
 20
153.939571
 30
0.0
 11
187.588616
 21
168.938313
 31
0.0
  0
LINE
  5
2AF
100
AcDbEntity
  8
0
  6
Continuous
 62
   174
100
AcDbLine
 10
170.988616
 20
201.285582
 30
0.0
 11
170.988616
 21
204.855323
 31
0.0
  0
LINE
  5
2B0
100
AcDbEntity
  8
0
  6
HIDDEN
 62
   174
100
AcDbLine
 10
190.988616
 20
188.855624
 30
0.0
 11
190.988616
 21
188.183613
 31
0.0
  0
LINE
  5
2B1
100
AcDbEntity
  8
0
  6
HIDDEN
 62
   174
100
AcDbLine
 10
187.588616
 20
156.899274
 30
0.0
 11
174.388616
 21
156.899274
 31
0.0
  0
LINE
  5
2B2
100
AcDbEntity
  8
0
  6
Continuous
 62
   174
100
AcDbLine
 10
170.988616
 20
189.912351
 30
0.0
 11
170.988616
 21
188.805174
 31
0.0
  0
LINE
  5
2B3
100
AcDbEntity
  8
0
  6
HIDDEN
 62
   174
100
AcDbLine
 10
173.388616
 20
189.912351
 30
0.0
 11
170.988616
 21
189.912351
 31
0.0
  0
LINE
  5
2B4
100
AcDbEntity
  8
0
  6
Continuous
 62
   174
100
AcDbLine
 10
173.388616
 20
182.121951
 30
0.0
 11
173.388616
 21
180.799274
 31
0.0
  0
LINE
  5
2B5
100
AcDbEntity
  8
0
  6
Continuous
 62
   174
100
AcDbLine
 10
176.988616
 20
184.964426
 30
0.0
 11
176.988616
 21
179.399274
 31
0.0
  0
LINE
  5
2B6
100
AcDbEntity
  8
0
  6
Continuous
 62
   174
100
AcDbLine
 10
174.988616
 20
199.409537
 30
0.0
 11
174.988616
 21
192.854648
 31
0.0
  0
LINE
  5
2B7
100
AcDbEntity
  8
0
  6
HIDDEN
 62
   174
100
AcDbLine
 10
173.388616
 20
198.802003
 30
0.0
 11
170.988616
 21
198.802003
 31
0.0
  0
LINE
  5
2B8
100
AcDbEntity
  8
0
  6
Continuous
 62
   174
100
AcDbLine
 10
188.588616
 20
198.779883
 30
0.0
 11
188.588616
 21
201.285582
 31
0.0
  0
LINE
  5
2B9
100
AcDbEntity
  8
0
  6
HIDDEN
 62
   174
100
AcDbLine
 10
187.588616
 20
156.899274
 30
0.0
 11
174.388616
 21
156.899274
 31
0.0
  0
LINE
  5
2BA
100
AcDbEntity
  8
0
  6
Continuous
 62
   174
100
AcDbLine
 10
176.988616
 20
185.194782
 30
0.0
 11
172.988616
 21
185.194782
 31
0.0
  0
LINE
  5
2BB
100
AcDbEntity
  8
0
  6
HIDDEN
 62
   174
100
AcDbLine
 10
187.588616
 20
156.93944
 30
0.0
 11
187.588616
 21
165.938745
 31
0.0
  0
LWPOLYLINE
  5
2BC
100
AcDbEntity
  8
0
  6
Continuous
 62
   174
100
AcDbPolyline
 90
        4
 70
   128
 10
190.988616
 20
190.666498
 10
190.720667
 20
189.683671
 10
189.988616
 20
188.964191
 10
188.988616
 20
188.700844
  0
LINE
  5
2BD
100
AcDbEntity
  8
0
  6
Continuous
 62
   174
100
AcDbLine
 10
174.988616
 20
191.802003
 30
0.0
 11
186.788616
 21
191.802003
 31
0.0
  0
LINE
  5
2BE
100
AcDbEntity
  8
0
  6
HIDDEN
 62
   174
100
AcDbLine
 10
190.988616
 20
201.285281
 30
0.0
 11
190.988616
 21
198.839064
 31
0.0
  0
ARC
  5
2BF
100
AcDbEntity
  8
0
  6
Continuous
 62
   174
100
AcDbCircle
 10
180.988616
 20
147.399274
 30
0.0
 40
4.2
100
AcDbArc
 50
133.202523
 51
136.807651
  0
LINE
  5
2C0
100
AcDbEntity
  8
0
  6
Continuous
 62
   174
100
AcDbLine
 10
170.488616
 20
187.160436
 30
0.0
 11
170.488616
 21
188.805174
 31
0.0
  0
LINE
  5
2C1
100
AcDbEntity
  8
0
  6
HIDDEN
 62
   174
100
AcDbLine
 10
187.588616
 20
165.899274
 30
0.0
 11
174.388616
 21
165.899274
 31
0.0
  0
LINE
  5
2C2
100
AcDbEntity
  8
0
  6
HIDDEN
 62
   174
100
AcDbLine
 10
187.188616
 20
211.402003
 30
0.0
 11
186.788616
 21
211.802003
 31
0.0
  0
LINE
  5
2C3
100
AcDbEntity
  8
0
  6
HIDDEN
 62
   174
100
AcDbLine
 10
174.988616
 20
204.268026
 30
0.0
 11
174.988616
 21
191.839571
 31
0.0
  0
LINE
  5
2C4
100
AcDbEntity
  8
0
  6
Continuous
 62
   174
100
AcDbLine
 10
174.588616
 20
211.43815
 30
0.0
 11
174.588616
 21
210.72288
 31
0.0
  0
LINE
  5
2C5
100
AcDbEntity
  8
0
  6
HIDDEN
 62
   174
100
AcDbLine
 10
170.988616
 20
179.399274
 30
0.0
 11
170.988616
 21
179.152951
 31
0.0
  0
LINE
  5
2C6
100
AcDbEntity
  8
0
  6
Continuous
 62
   174
100
AcDbLine
 10
170.988616
 20
193.939387
 30
0.0
 11
170.988616
 21
192.46315
 31
0.0
  0
LINE
  5
2C7
100
AcDbEntity
  8
0
  6
Continuous
 62
   174
100
AcDbLine
 10
190.988616
 20
201.285582
 30
0.0
 11
190.988616
 21
204.855323
 31
0.0
  0
LINE
  5
2C8
100
AcDbEntity
  8
0
  6
HIDDEN
 62
   174
100
AcDbLine
 10
173.388616
 20
191.699274
 30
0.0
 11
170.988616
 21
191.699274
 31
0.0
  0
ARC
  5
2C9
100
AcDbEntity
  8
0
  6
Continuous
 62
   174
100
AcDbCircle
 10
180.988616
 20
107.399274
 30
0.0
 40
4.2
100
AcDbArc
 50
90.0
 51
133.202523
  0
LINE
  5
2CA
100
AcDbEntity
  8
0
  6
Continuous
 62
   174
100
AcDbLine
 10
191.488616
 20
189.912351
 30
0.0
 11
191.488616
 21
190.666498
 31
0.0
  0
LINE
  5
2CB
100
AcDbEntity
  8
0
  6
HIDDEN
 62
   174
100
AcDbLine
 10
173.388616
 20
179.399274
 30
0.0
 11
173.388616
 21
179.152951
 31
0.0
  0
LINE
  5
2CC
100
AcDbEntity
  8
0
  6
Continuous
 62
   174
100
AcDbLine
 10
165.988616
 20
198.399274
 30
0.0
 11
170.488616
 21
198.399274
 31
0.0
  0
ARC
  5
2CD
100
AcDbEntity
  8
0
  6
Continuous
 62
   174
100
AcDbCircle
 10
180.988616
 20
127.399274
 30
0.0
 40
4.2
100
AcDbArc
 50
-43.192349
 51
43.192349
  0
LINE
  5
2CE
100
AcDbEntity
  8
0
  6
HIDDEN
 62
   174
100
AcDbLine
 10
188.588616
 20
190.694718
 30
0.0
 11
188.588616
 21
191.157646
 31
0.0
  0
LINE
  5
2CF
100
AcDbEntity
  8
0
  6
Continuous
 62
   174
100
AcDbLine
 10
173.388616
 20
185.194782
 30
0.0
 11
173.388616
 21
182.121951
 31
0.0
  0
LINE
  5
2D0
100
AcDbEntity
  8
0
  6
Continuous
 62
   174
100
AcDbLine
 10
177.014165
 20
184.964426
 30
0.0
 11
181.01439
 21
184.964426
 31
0.0
  0
LINE
  5
2D1
100
AcDbEntity
  8
0
  6
HIDDEN
 62
   174
100
AcDbLine
 10
190.988616
 20
202.515869
 30
0.0
 11
188.588616
 21
202.515869
 31
0.0
  0
LINE
  5
2D2
100
AcDbEntity
  8
0
  6
HIDDEN
 62
   174
100
AcDbLine
 10
188.588616
 20
188.805174
 30
0.0
 11
188.588616
 21
185.194782
 31
0.0
  0
LINE
  5
2D3
100
AcDbEntity
  8
0
  6
HIDDEN
 62
   174
100
AcDbLine
 10
188.588616
 20
185.737095
 30
0.0
 11
188.588616
 21
186.088271
 31
0.0
  0
LINE
  5
2D4
100
AcDbEntity
  8
0
  6
HIDDEN
 62
   174
100
AcDbLine
 10
170.988616
 20
188.183613
 30
0.0
 11
170.988616
 21
189.522529
 31
0.0
  0
LINE
  5
2D5
100
AcDbEntity
  8
0
  6
Continuous
 62
   174
100
AcDbLine
 10
170.988616
 20
188.805174
 30
0.0
 11
170.988616
 21
187.160436
 31
0.0
  0
LINE
  5
2D6
100
AcDbEntity
  8
0
  6
Continuous
 62
   174
100
AcDbLine
 10
190.988616
 20
182.121951
 30
0.0
 11
190.988616
 21
180.799274
 31
0.0
  0
LINE
  5
2D7
100
AcDbEntity
  8
0
  6
HIDDEN
 62
   174
100
AcDbLine
 10
187.588616
 20
165.899274
 30
0.0
 11
174.388616
 21
165.899274
 31
0.0
  0
LINE
  5
2D8
100
AcDbEntity
  8
0
  6
Continuous
 62
   174
100
AcDbLine
 10
186.788616
 20
209.706602
 30
0.0
 11
186.788616
 21
199.409537
 31
0.0
  0
LINE
  5
2D9
100
AcDbEntity
  8
0
  6
HIDDEN
 62
   174
100
AcDbLine
 10
190.988616
 20
188.183613
 30
0.0
 11
190.988616
 21
187.172742
 31
0.0
  0
LINE
  5
2DA
100
AcDbEntity
  8
0
  6
HIDDEN
 62
   174
100
AcDbLine
 10
187.588616
 20
156.899274
 30
0.0
 11
174.388616
 21
156.899274
 31
0.0
  0
LINE
  5
2DB
100
AcDbEntity
  8
0
  6
Continuous
 62
   174
100
AcDbLine
 10
173.388616
 20
192.46315
 30
0.0
 11
173.388616
 21
191.059628
 31
0.0
  0
LINE
  5
2DC
100
AcDbEntity
  8
0
  6
Continuous
 62
   174
100
AcDbLine
 10
170.988616
 20
198.779883
 30
0.0
 11
170.988616
 21
201.285582
 31
0.0
  0
LINE
  5
2DD
100
AcDbEntity
  8
0
  6
HIDDEN
 62
   174
100
AcDbLine
 10
190.988616
 20
191.699274
 30
0.0
 11
188.588616
 21
191.699274
 31
0.0
  0
LINE
  5
2DE
100
AcDbEntity
  8
0
  6
HIDDEN
 62
   174
100
AcDbLine
 10
188.588616
 20
198.839064
 30
0.0
 11
188.588616
 21
201.285281
 31
0.0
  0
LINE
  5
2DF
100
AcDbEntity
  8
0
  6
Continuous
 62
   174
100
AcDbLine
 10
170.488616
 20
188.805174
 30
0.0
 11
170.488616
 21
189.912351
 31
0.0
  0
LINE
  5
2E0
100
AcDbEntity
  8
0
  6
HIDDEN
 62
   174
100
AcDbLine
 10
187.188616
 20
192.202003
 30
0.0
 11
186.788616
 21
191.802003
 31
0.0
  0
LINE
  5
2E1
100
AcDbEntity
  8
0
  6
Continuous
 62
   174
100
AcDbLine
 10
186.788616
 20
192.854648
 30
0.0
 11
186.788616
 21
191.839571
 31
0.0
  0
LINE
  5
2E2
100
AcDbEntity
  8
0
  6
Continuous
 62
   174
100
AcDbLine
 10
191.488616
 20
190.666498
 30
0.0
 11
191.488616
 21
192.46315
 31
0.0
  0
LINE
  5
2E3
100
AcDbEntity
  8
0
  6
HIDDEN
 62
   174
100
AcDbLine
 10
190.988616
 20
189.912351
 30
0.0
 11
190.988616
 21
190.666498
 31
0.0
  0
ARC
  5
2E4
100
AcDbEntity
  8
0
  6
Continuous
 62
   174
100
AcDbCircle
 10
180.988616
 20
127.399274
 30
0.0
 40
4.2
100
AcDbArc
 50
223.192349
 51
226.797477
  0
LINE
  5
2E5
100
AcDbEntity
  8
0
  6
HIDDEN
 62
   174
100
AcDbLine
 10
188.588616
 20
201.285281
 30
0.0
 11
188.588616
 21
204.8385
 31
0.0
  0
LINE
  5
2E6
100
AcDbEntity
  8
0
  6
HIDDEN
 62
   174
100
AcDbLine
 10
187.588616
 20
156.899274
 30
0.0
 11
174.388616
 21
156.899274
 31
0.0
  0
LINE
  5
2E7
100
AcDbEntity
  8
0
  6
HIDDEN
 62
   174
100
AcDbLine
 10
187.588616
 20
153.939571
 30
0.0
 11
187.588616
 21
168.938313
 31
0.0
  0
LINE
  5
2E8
100
AcDbEntity
  8
0
  6
Continuous
 62
   174
100
AcDbLine
 10
188.988616
 20
188.700844
 30
0.0
 11
188.988616
 21
185.194782
 31
0.0
  0
ARC
  5
2E9
100
AcDbEntity
  8
0
  6
Continuous
 62
   174
100
AcDbCircle
 10
180.988616
 20
147.399274
 30
0.0
 40
4.2
100
AcDbArc
 50
90.0
 51
133.202523
  0
LINE
  5
2EA
100
AcDbEntity
  8
0
  6
Continuous
 62
   174
100
AcDbLine
 10
188.588616
 20
193.976669
 30
0.0
 11
188.588616
 21
198.779883
 31
0.0
  0
LINE
  5
2EB
100
AcDbEntity
  8
0
  6
Continuous
 62
   174
100
AcDbLine
 10
190.988616
 20
189.912351
 30
0.0
 11
190.988616
 21
188.805174
 31
0.0
  0
LINE
  5
2EC
100
AcDbEntity
  8
0
  6
Continuous
 62
   174
100
AcDbLine
 10
172.988616
 20
188.700844
 30
0.0
 11
172.988616
 21
185.194782
 31
0.0
  0
LINE
  5
2ED
100
AcDbEntity
  8
0
  6
HIDDEN
 62
   174
100
AcDbLine
 10
195.988616
 20
168.938313
 30
0.0
 11
195.988616
 21
153.939571
 31
0.0
  0
LINE
  5
2EE
100
AcDbEntity
  8
0
  6
HIDDEN
 62
   174
100
AcDbLine
 10
177.014165
 20
184.964426
 30
0.0
 11
181.01439
 21
184.964426
 31
0.0
  0
LINE
  5
2EF
100
AcDbEntity
  8
0
  6
Continuous
 62
   174
100
AcDbLine
 10
190.988616
 20
187.160436
 30
0.0
 11
190.988616
 21
182.121951
 31
0.0
  0
LINE
  5
2F0
100
AcDbEntity
  8
0
  6
HIDDEN
 62
   174
100
AcDbLine
 10
173.388616
 20
188.183613
 30
0.0
 11
173.388616
 21
189.522529
 31
0.0
  0
LINE
  5
2F1
100
AcDbEntity
  8
0
  6
Continuous
 62
   174
100
AcDbLine
 10
190.988616
 20
198.779883
 30
0.0
 11
190.988616
 21
201.285582
 31
0.0
  0
ARC
  5
2F2
100
AcDbEntity
  8
0
  6
Continuous
 62
   174
100
AcDbCircle
 10
180.988616
 20
107.399274
 30
0.0
 40
4.2
100
AcDbArc
 50
46.797477
 51
90.0
  0
ARC
  5
2F3
100
AcDbEntity
  8
0
  6
Continuous
 62
   174
100
AcDbCircle
 10
180.988616
 20
127.399274
 30
0.0
 40
4.2
100
AcDbArc
 50
313.202523
 51
316.807651
  0
LINE
  5
2F4
100
AcDbEntity
  8
0
  6
HIDDEN
 62
   174
100
AcDbLine
 10
188.588616
 20
186.088271
 30
0.0
 11
188.588616
 21
186.954947
 31
0.0
  0
LINE
  5
2F5
100
AcDbEntity
  8
0
  6
Continuous
 62
   174
100
AcDbLine
 10
170.988616
 20
192.46315
 30
0.0
 11
170.988616
 21
190.666498
 31
0.0
  0
ENDBLK
  5
2F6
100
AcDbEntity
  8
0
100
AcDbBlockEnd
  0
BLOCK
  5
2F9
100
AcDbEntity
  8
0
100
AcDbBlockBegin
  2
*B4
 70
     0
 10
0.0
 20
0.0
 30
0.0
  3
*B4
  1

  0
LINE
  5
2FA
100
AcDbEntity
  8
0
  6
Continuous
 62
     0
100
AcDbLine
 10
166.014147
 20
71.046352
 30
0.0
 11
196.014333
 21
71.046352
 31
0.0
  0
SOLID
  5
2FB
100
AcDbEntity
  8
0
  6
Continuous
 62
     0
100
AcDbTrace
 10
171.014128
 20
72.046108
 30
0.0
 11
166.014147
 21
71.046352
 31
0.0
 12
171.014128
 22
70.046296
 32
0.0
 13
171.014128
 23
70.046296
 33
0.0
  0
SOLID
  5
2FC
100
AcDbEntity
  8
0
  6
Continuous
 62
     0
100
AcDbTrace
 10
191.014352
 20
70.046296
 30
0.0
 11
196.014333
 21
71.046352
 31
0.0
 12
191.014352
 22
72.046108
 32
0.0
 13
191.014352
 23
72.046108
 33
0.0
  0
ENDBLK
  5
2FD
100
AcDbEntity
  8
0
100
AcDbBlockEnd
  0
BLOCK
  5
300
100
AcDbEntity
  8
0
100
AcDbBlockBegin
  2
*B5
 70
     0
 10
0.0
 20
0.0
 30
0.0
  3
*B5
  1

  0
LINE
  5
301
100
AcDbEntity
  8
0
  6
Continuous
 62
     0
100
AcDbLine
 10
164.614248
 20
226.034946
 30
0.0
 11
197.21416
 21
226.034946
 31
0.0
  0
SOLID
  5
302
100
AcDbEntity
  8
0
  6
Continuous
 62
     0
100
AcDbTrace
 10
169.614229
 20
225.035191
 30
0.0
 11
174.61421
 21
226.034946
 31
0.0
 12
169.614229
 22
227.035003
 32
0.0
 13
169.614229
 23
227.035003
 33
0.0
  0
SOLID
  5
303
100
AcDbEntity
  8
0
  6
Continuous
 62
     0
100
AcDbTrace
 10
192.214179
 20
227.035003
 30
0.0
 11
187.214198
 21
226.034946
 31
0.0
 12
192.214179
 22
225.035191
 32
0.0
 13
192.214179
 23
225.035191
 33
0.0
  0
ENDBLK
  5
304
100
AcDbEntity
  8
0
100
AcDbBlockEnd
  0
BLOCK
  5
307
100
AcDbEntity
  8
0
100
AcDbBlockBegin
  2
*B6
 70
     0
 10
0.0
 20
0.0
 30
0.0
  3
*B6
  1

  0
LINE
  5
308
100
AcDbEntity
  8
0
  6
Continuous
 62
     0
100
AcDbLine
 10
153.025732
 20
113.242478
 30
0.0
 11
153.025732
 21
147.019987
 31
0.0
  0
SOLID
  5
309
100
AcDbEntity
  8
0
  6
Continuous
 62
     0
100
AcDbTrace
 10
154.025788
 20
118.242159
 30
0.0
 11
153.025732
 21
123.241839
 31
0.0
 12
152.025676
 22
118.242159
 32
0.0
 13
152.025676
 23
118.242159
 33
0.0
  0
SOLID
  5
30A
100
AcDbEntity
  8
0
  6
Continuous
 62
     0
100
AcDbTrace
 10
152.025676
 20
136.640911
 30
0.0
 11
153.025732
 21
131.641231
 31
0.0
 12
154.025788
 22
136.640911
 32
0.0
 13
154.025788
 23
136.640911
 33
0.0
  0
ENDBLK
  5
30B
100
AcDbEntity
  8
0
100
AcDbBlockEnd
  0
BLOCK
  5
30E
100
AcDbEntity
  8
0
100
AcDbBlockBegin
  2
*B7
 70
     0
 10
0.0
 20
0.0
 30
0.0
  3
*B7
  1

  0
LINE
  5
30F
100
AcDbEntity
  8
0
  6
Continuous
 62
     0
100
AcDbLine
 10
246.78709
 20
71.046352
 30
0.0
 11
296.7872
 21
71.046352
 31
0.0
  0
SOLID
  5
310
100
AcDbEntity
  8
0
  6
Continuous
 62
     0
100
AcDbTrace
 10
251.787071
 20
72.046108
 30
0.0
 11
246.78709
 21
71.046352
 31
0.0
 12
251.787071
 22
70.046296
 32
0.0
 13
251.787071
 23
70.046296
 33
0.0
  0
SOLID
  5
311
100
AcDbEntity
  8
0
  6
Continuous
 62
     0
100
AcDbTrace
 10
291.787219
 20
70.046296
 30
0.0
 11
296.7872
 21
71.046352
 31
0.0
 12
291.787219
 22
72.046108
 32
0.0
 13
291.787219
 23
72.046108
 33
0.0
  0
ENDBLK
  5
312
100
AcDbEntity
  8
0
100
AcDbBlockEnd
  0
BLOCK
  5
315
100
AcDbEntity
  8
0
100
AcDbBlockBegin
  2
*B8
 70
     0
 10
0.0
 20
0.0
 30
0.0
  3
*B8
  1

  0
LINE
  5
316
100
AcDbEntity
  8
0
  6
Continuous
 62
     0
100
AcDbLine
 10
215.025616
 20
198.436217
 30
0.0
 11
215.025616
 21
90.44426
 31
0.0
  0
SOLID
  5
317
100
AcDbEntity
  8
0
  6
Continuous
 62
     0
100
AcDbTrace
 10
216.025672
 20
193.436537
 30
0.0
 11
215.025616
 21
198.436217
 31
0.0
 12
214.025559
 22
193.436537
 32
0.0
 13
214.025559
 23
193.436537
 33
0.0
  0
SOLID
  5
318
100
AcDbEntity
  8
0
  6
Continuous
 62
     0
100
AcDbTrace
 10
214.025559
 20
95.44364
 30
0.0
 11
215.025616
 21
90.44426
 31
0.0
 12
216.025672
 22
95.44364
 32
0.0
 13
216.025672
 23
95.44364
 33
0.0
  0
ENDBLK
  5
319
100
AcDbEntity
  8
0
100
AcDbBlockEnd
  0
BLOCK
  5
31C
100
AcDbEntity
  8
0
100
AcDbBlockBegin
  2
*B9
 70
     0
 10
0.0
 20
0.0
 30
0.0
  3
*B9
  1

  0
LINE
  5
31D
100
AcDbEntity
  8
0
  6
Continuous
 62
     0
100
AcDbLine
 10
233.025727
 20
117.442174
 30
0.0
 11
233.025727
 21
90.44426
 31
0.0
  0
SOLID
  5
31E
100
AcDbEntity
  8
0
  6
Continuous
 62
     0
100
AcDbTrace
 10
234.025483
 20
112.442493
 30
0.0
 11
233.025727
 21
117.442174
 31
0.0
 12
232.025671
 22
112.442493
 32
0.0
 13
232.025671
 23
112.442493
 33
0.0
  0
SOLID
  5
31F
100
AcDbEntity
  8
0
  6
Continuous
 62
     0
100
AcDbTrace
 10
232.025671
 20
95.44364
 30
0.0
 11
233.025727
 21
90.44426
 31
0.0
 12
234.025483
 22
95.44364
 32
0.0
 13
234.025483
 23
95.44364
 33
0.0
  0
ENDBLK
  5
320
100
AcDbEntity
  8
0
100
AcDbBlockEnd
  0
BLOCK
  5
323
100
AcDbEntity
  8
0
100
AcDbBlockBegin
  2
*B10
 70
     0
 10
0.0
 20
0.0
 30
0.0
  3
*B10
  1

  0
LINE
  5
324
100
AcDbEntity
  8
0
  6
Continuous
 62
     0
100
AcDbLine
 10
233.025727
 20
137.440596
 30
0.0
 11
233.025727
 21
117.442174
 31
0.0
  0
SOLID
  5
325
100
AcDbEntity
  8
0
  6
Continuous
 62
     0
100
AcDbTrace
 10
234.025483
 20
132.441216
 30
0.0
 11
233.025727
 21
137.440596
 31
0.0
 12
232.025671
 22
132.441216
 32
0.0
 13
232.025671
 23
132.441216
 33
0.0
  0
SOLID
  5
326
100
AcDbEntity
  8
0
  6
Continuous
 62
     0
100
AcDbTrace
 10
232.025671
 20
122.441854
 30
0.0
 11
233.025727
 21
117.442174
 31
0.0
 12
234.025483
 22
122.441854
 32
0.0
 13
234.025483
 23
122.441854
 33
0.0
  0
ENDBLK
  5
327
100
AcDbEntity
  8
0
100
AcDbBlockEnd
  0
BLOCK
  5
32A
100
AcDbEntity
  8
0
100
AcDbBlockBegin
  2
*B11
 70
     0
 10
0.0
 20
0.0
 30
0.0
  3
*B11
  1

  0
LINE
  5
32B
100
AcDbEntity
  8
0
  6
Continuous
 62
     0
100
AcDbLine
 10
312.025666
 20
117.442174
 30
0.0
 11
312.025666
 21
80.444899
 31
0.0
  0
SOLID
  5
32C
100
AcDbEntity
  8
0
  6
Continuous
 62
     0
100
AcDbTrace
 10
311.02561
 20
112.442493
 30
0.0
 11
312.025666
 21
107.442813
 31
0.0
 12
313.025723
 22
112.442493
 32
0.0
 13
313.025723
 23
112.442493
 33
0.0
  0
SOLID
  5
32D
100
AcDbEntity
  8
0
  6
Continuous
 62
     0
100
AcDbTrace
 10
313.025723
 20
85.444579
 30
0.0
 11
312.025666
 21
90.44426
 31
0.0
 12
311.02561
 22
85.444579
 32
0.0
 13
311.02561
 23
85.444579
 33
0.0
  0
ENDBLK
  5
32E
100
AcDbEntity
  8
0
100
AcDbBlockEnd
  0
BLOCK
  5
331
100
AcDbEntity
  8
0
100
AcDbBlockBegin
  2
*B12
 70
     0
 10
0.0
 20
0.0
 30
0.0
  3
*B12
  1

  0
LINE
  5
332
100
AcDbEntity
  8
0
  6
Continuous
 62
     0
100
AcDbLine
 10
312.025666
 20
107.442813
 30
0.0
 11
312.025666
 21
127.441535
 31
0.0
  0
SOLID
  5
333
100
AcDbEntity
  8
0
  6
Continuous
 62
     0
100
AcDbTrace
 10
311.02561
 20
112.442493
 30
0.0
 11
312.025666
 21
107.442813
 31
0.0
 12
313.025723
 22
112.442493
 32
0.0
 13
313.025723
 23
112.442493
 33
0.0
  0
SOLID
  5
334
100
AcDbEntity
  8
0
  6
Continuous
 62
     0
100
AcDbTrace
 10
313.025723
 20
122.441854
 30
0.0
 11
312.025666
 21
127.441535
 31
0.0
 12
311.02561
 22
122.441854
 32
0.0
 13
311.02561
 23
122.441854
 33
0.0
  0
ENDBLK
  5
335
100
AcDbEntity
  8
0
100
AcDbBlockEnd
  0
BLOCK
  5
338
100
AcDbEntity
  8
0
100
AcDbBlockBegin
  2
*B13
 70
     0
 10
0.0
 20
0.0
 30
0.0
  3
*B13
  1

  0
LINE
  5
339
100
AcDbEntity
  8
0
  6
Continuous
 62
     0
100
AcDbLine
 10
312.025666
 20
127.441535
 30
0.0
 11
312.025666
 21
147.439957
 31
0.0
  0
SOLID
  5
33A
100
AcDbEntity
  8
0
  6
Continuous
 62
     0
100
AcDbTrace
 10
311.02561
 20
132.441216
 30
0.0
 11
312.025666
 21
127.441535
 31
0.0
 12
313.025723
 22
132.441216
 32
0.0
 13
313.025723
 23
132.441216
 33
0.0
  0
SOLID
  5
33B
100
AcDbEntity
  8
0
  6
Continuous
 62
     0
100
AcDbTrace
 10
313.025723
 20
142.440276
 30
0.0
 11
312.025666
 21
147.439957
 31
0.0
 12
311.02561
 22
142.440276
 32
0.0
 13
311.02561
 23
142.440276
 33
0.0
  0
ENDBLK
  5
33C
100
AcDbEntity
  8
0
100
AcDbBlockEnd
  0
BLOCK
  5
33F
100
AcDbEntity
  8
0
100
AcDbBlockBegin
  2
*B14
 70
     0
 10
0.0
 20
0.0
 30
0.0
  3
*B14
  1

  0
LINE
  5
340
100
AcDbEntity
  8
0
  6
Continuous
 62
     0
100
AcDbLine
 10
338.025627
 20
161.438942
 30
0.0
 11
338.025627
 21
90.44426
 31
0.0
  0
SOLID
  5
341
100
AcDbEntity
  8
0
  6
Continuous
 62
     0
100
AcDbTrace
 10
339.025683
 20
156.439261
 30
0.0
 11
338.025627
 21
161.438942
 31
0.0
 12
337.025571
 22
156.439261
 32
0.0
 13
337.025571
 23
156.439261
 33
0.0
  0
SOLID
  5
342
100
AcDbEntity
  8
0
  6
Continuous
 62
     0
100
AcDbTrace
 10
337.025571
 20
95.44364
 30
0.0
 11
338.025627
 21
90.44426
 31
0.0
 12
339.025683
 22
95.44364
 32
0.0
 13
339.025683
 23
95.44364
 33
0.0
  0
ENDBLK
  5
343
100
AcDbEntity
  8
0
100
AcDbBlockEnd
  0
BLOCK
  5
346
100
AcDbEntity
  8
0
100
AcDbBlockBegin
  2
*B15
 70
     0
 10
0.0
 20
0.0
 30
0.0
  3
*B15
  1

  0
LINE
  5
347
100
AcDbEntity
  8
0
  6
Continuous
 62
     0
100
AcDbLine
 10
291.990595
 20
236.034307
 30
0.0
 11
246.78709
 21
236.034307
 31
0.0
  0
SOLID
  5
348
100
AcDbEntity
  8
0
  6
Continuous
 62
     0
100
AcDbTrace
 10
286.990614
 20
235.034552
 30
0.0
 11
291.990595
 21
236.034307
 31
0.0
 12
286.990614
 22
237.034364
 32
0.0
 13
286.990614
 23
237.034364
 33
0.0
  0
SOLID
  5
349
100
AcDbEntity
  8
0
  6
Continuous
 62
     0
100
AcDbTrace
 10
251.787071
 20
237.034364
 30
0.0
 11
246.78709
 21
236.034307
 31
0.0
 12
251.787071
 22
235.034552
 32
0.0
 13
251.787071
 23
235.034552
 33
0.0
  0
ENDBLK
  5
34A
100
AcDbEntity
  8
0
100
AcDbBlockEnd
  0
BLOCK
  5
34D
100
AcDbEntity
  8
0
100
AcDbBlockBegin
  2
*B16
 70
     0
 10
0.0
 20
0.0
 30
0.0
  3
*B16
  1

  0
LINE
  5
34E
100
AcDbEntity
  8
0
  6
Continuous
 62
     0
100
AcDbLine
 10
311.990519
 20
218.035698
 30
0.0
 11
271.990671
 21
218.035698
 31
0.0
  0
SOLID
  5
34F
100
AcDbEntity
  8
0
  6
Continuous
 62
     0
100
AcDbTrace
 10
306.990538
 20
219.035454
 30
0.0
 11
301.990557
 21
218.035698
 31
0.0
 12
306.990538
 22
217.035642
 32
0.0
 13
306.990538
 23
217.035642
 33
0.0
  0
SOLID
  5
350
100
AcDbEntity
  8
0
  6
Continuous
 62
     0
100
AcDbTrace
 10
276.990652
 20
217.035642
 30
0.0
 11
281.990633
 21
218.035698
 31
0.0
 12
276.990652
 22
219.035454
 32
0.0
 13
276.990652
 23
219.035454
 33
0.0
  0
ENDBLK
  5
351
100
AcDbEntity
  8
0
100
AcDbBlockEnd
  0
BLOCK
  5
354
100
AcDbEntity
  8
0
100
AcDbBlockBegin
  2
*B17
 70
     0
 10
0.0
 20
0.0
 30
0.0
  3
*B17
  1

  0
LINE
  5
355
100
AcDbEntity
  8
0
  6
Continuous
 62
     0
100
AcDbLine
 10
328.025665
 20
189.837656
 30
0.0
 11
328.025665
 21
260.67853
 31
0.0
  0
SOLID
  5
356
100
AcDbEntity
  8
0
  6
Continuous
 62
     0
100
AcDbTrace
 10
329.025421
 20
194.837337
 30
0.0
 11
328.025665
 21
199.837017
 31
0.0
 12
327.025609
 22
194.837337
 32
0.0
 13
327.025609
 23
194.837337
 33
0.0
  0
SOLID
  5
357
100
AcDbEntity
  8
0
  6
Continuous
 62
     0
100
AcDbTrace
 10
327.025609
 20
208.836322
 30
0.0
 11
328.025665
 21
203.836641
 31
0.0
 12
329.025421
 22
208.836322
 32
0.0
 13
329.025421
 23
208.836322
 33
0.0
  0
ENDBLK
  5
358
100
AcDbEntity
  8
0
100
AcDbBlockEnd
  0
BLOCK
  5
35B
100
AcDbEntity
  8
0
100
AcDbBlockBegin
  2
*B18
 70
     0
 10
0.0
 20
0.0
 30
0.0
  3
*B18
  1

  0
LINE
  5
35C
100
AcDbEntity
  8
0
  6
Continuous
 62
     0
100
AcDbLine
 10
287.786994
 20
149.040527
 30
0.0
 11
255.786996
 21
149.040527
 31
0.0
  0
SOLID
  5
35D
100
AcDbEntity
  8
0
  6
Continuous
 62
     0
100
AcDbTrace
 10
282.787013
 20
148.040771
 30
0.0
 11
287.786994
 21
149.040527
 31
0.0
 12
282.787013
 22
150.040584
 32
0.0
 13
282.787013
 23
150.040584
 33
0.0
  0
SOLID
  5
35E
100
AcDbEntity
  8
0
  6
Continuous
 62
     0
100
AcDbTrace
 10
260.787277
 20
150.040584
 30
0.0
 11
255.786996
 21
149.040527
 31
0.0
 12
260.787277
 22
148.040771
 32
0.0
 13
260.787277
 23
148.040771
 33
0.0
  0
ENDBLK
  5
35F
100
AcDbEntity
  8
0
100
AcDbBlockEnd
  0
BLOCK
  5
362
100
AcDbEntity
  8
0
100
AcDbBlockBegin
  2
*B19
 70
     0
 10
0.0
 20
0.0
 30
0.0
  3
*B19
  1

  0
LINE
  5
363
100
AcDbEntity
  8
0
  6
Continuous
 62
     0
100
AcDbLine
 10
318.025703
 20
267.927961
 30
0.0
 11
318.025703
 21
193.83728
 31
0.0
  0
SOLID
  5
364
100
AcDbEntity
  8
0
  6
Continuous
 62
     0
100
AcDbTrace
 10
317.025647
 20
216.835871
 30
0.0
 11
318.025703
 21
211.83619
 31
0.0
 12
319.025459
 22
216.835871
 32
0.0
 13
319.025459
 23
216.835871
 33
0.0
  0
SOLID
  5
365
100
AcDbEntity
  8
0
  6
Continuous
 62
     0
100
AcDbTrace
 10
319.025459
 20
198.836961
 30
0.0
 11
318.025703
 21
203.836641
 31
0.0
 12
317.025647
 22
198.836961
 32
0.0
 13
317.025647
 23
198.836961
 33
0.0
  0
ENDBLK
  5
366
100
AcDbEntity
  8
0
100
AcDbBlockEnd
  0
BLOCK
  5
369
100
AcDbEntity
  8
0
100
AcDbBlockBegin
  2
*B20
 70
     0
 10
0.0
 20
0.0
 30
0.0
  3
*B20
  1

  0
LINE
  5
36A
100
AcDbEntity
  8
0
  6
Continuous
 62
     0
100
AcDbLine
 10
338.025627
 20
211.83619
 30
0.0
 11
338.025627
 21
161.438942
 31
0.0
  0
SOLID
  5
36B
100
AcDbEntity
  8
0
  6
Continuous
 62
     0
100
AcDbTrace
 10
339.025683
 20
206.83651
 30
0.0
 11
338.025627
 21
211.83619
 31
0.0
 12
337.025571
 22
206.83651
 32
0.0
 13
337.025571
 23
206.83651
 33
0.0
  0
SOLID
  5
36C
100
AcDbEntity
  8
0
  6
Continuous
 62
     0
100
AcDbTrace
 10
337.025571
 20
166.438622
 30
0.0
 11
338.025627
 21
161.438942
 31
0.0
 12
339.025683
 22
166.438622
 32
0.0
 13
339.025683
 23
166.438622
 33
0.0
  0
ENDBLK
  5
36D
100
AcDbEntity
  8
0
100
AcDbBlockEnd
  0
BLOCK
  5
370
100
AcDbEntity
  8
0
100
AcDbBlockBegin
  2
*B21
 70
     0
 10
0.0
 20
0.0
 30
0.0
  3
*B21
  1

  0
LINE
  5
371
100
AcDbEntity
  8
0
  6
Continuous
 62
     0
100
AcDbLine
 10
233.025727
 20
146.940079
 30
0.0
 11
233.025727
 21
187.967019
 31
0.0
  0
SOLID
  5
372
100
AcDbEntity
  8
0
  6
Continuous
 62
     0
100
AcDbTrace
 10
234.025483
 20
151.939759
 30
0.0
 11
233.025727
 21
156.93944
 31
0.0
 12
232.025671
 22
151.939759
 32
0.0
 13
232.025671
 23
151.939759
 33
0.0
  0
SOLID
  5
373
100
AcDbEntity
  8
0
  6
Continuous
 62
     0
100
AcDbTrace
 10
232.025671
 20
170.938425
 30
0.0
 11
233.025727
 21
165.938745
 31
0.0
 12
234.025483
 22
170.938425
 32
0.0
 13
234.025483
 23
170.938425
 33
0.0
  0
ENDBLK
  5
374
100
AcDbEntity
  8
0
100
AcDbBlockEnd
  0
BLOCK
  5
377
100
AcDbEntity
  8
0
100
AcDbBlockBegin
  2
*B22
 70
     0
 10
0.0
 20
0.0
 30
0.0
  3
*B22
  1

  0
LINE
  5
378
100
AcDbEntity
  8
0
  6
Continuous
 62
     8
100
AcDbLine
 10
162.014222
 20
161.438942
 30
0.0
 11
171.34758
 21
161.438942
 31
0.0
  0
LINE
  5
379
100
AcDbEntity
  8
0
  6
Continuous
 62
     8
100
AcDbLine
 10
173.347692
 20
161.438942
 30
0.0
 11
174.347448
 21
161.438942
 31
0.0
  0
LINE
  5
37A
100
AcDbEntity
  8
0
  6
Continuous
 62
     8
100
AcDbLine
 10
176.347561
 20
161.438942
 30
0.0
 11
185.680919
 21
161.438942
 31
0.0
  0
LINE
  5
37B
100
AcDbEntity
  8
0
  6
Continuous
 62
     8
100
AcDbLine
 10
187.681031
 20
161.438942
 30
0.0
 11
188.680787
 21
161.438942
 31
0.0
  0
LINE
  5
37C
100
AcDbEntity
  8
0
  6
Continuous
 62
     8
100
AcDbLine
 10
190.6809
 20
161.438942
 30
0.0
 11
200.014257
 21
161.438942
 31
0.0
  0
ENDBLK
  5
37D
100
AcDbEntity
  8
0
100
AcDbBlockEnd
  0
BLOCK
  5
380
100
AcDbEntity
  8
0
100
AcDbBlockBegin
  2
*B23
 70
     0
 10
0.0
 20
0.0
 30
0.0
  3
*B23
  1

  0
LINE
  5
381
100
AcDbEntity
  8
0
  6
Continuous
 62
     8
100
AcDbLine
 10
244.2871
 20
161.438942
 30
0.0
 11
252.787127
 21
161.438942
 31
0.0
  0
LINE
  5
382
100
AcDbEntity
  8
0
  6
Continuous
 62
     8
100
AcDbLine
 10
258.787165
 20
161.438942
 30
0.0
 11
267.287192
 21
161.438942
 31
0.0
  0
ENDBLK
  5
383
100
AcDbEntity
  8
0
100
AcDbBlockEnd
  0
BLOCK
  5
386
100
AcDbEntity
  8
0
100
AcDbBlockBegin
  2
*B24
 70
     0
 10
0.0
 20
0.0
 30
0.0
  3
*B24
  1

  0
LINE
  5
387
100
AcDbEntity
  8
0
  6
Continuous
 62
     8
100
AcDbLine
 10
336.025515
 20
161.438942
 30
0.0
 11
340.025439
 21
161.438942
 31
0.0
  0
LINE
  5
388
100
AcDbEntity
  8
0
  6
Continuous
 62
     8
100
AcDbLine
 10
276.287098
 20
161.438942
 30
0.0
 11
284.787126
 21
161.438942
 31
0.0
  0
LINE
  5
389
100
AcDbEntity
  8
0
  6
Continuous
 62
     8
100
AcDbLine
 10
290.787163
 20
161.438942
 30
0.0
 11
302.533393
 21
161.438942
 31
0.0
  0
LINE
  5
38A
100
AcDbEntity
  8
0
  6
Continuous
 62
     8
100
AcDbLine
 10
304.533205
 20
161.438942
 30
0.0
 11
305.533261
 21
161.438942
 31
0.0
  0
LINE
  5
38B
100
AcDbEntity
  8
0
  6
Continuous
 62
     8
100
AcDbLine
 10
307.533374
 20
161.438942
 30
0.0
 11
319.279304
 21
161.438942
 31
0.0
  0
LINE
  5
38C
100
AcDbEntity
  8
0
  6
Continuous
 62
     8
100
AcDbLine
 10
321.279416
 20
161.438942
 30
0.0
 11
322.279472
 21
161.438942
 31
0.0
  0
LINE
  5
38D
100
AcDbEntity
  8
0
  6
Continuous
 62
     8
100
AcDbLine
 10
324.279585
 20
161.438942
 30
0.0
 11
336.025515
 21
161.438942
 31
0.0
  0
ENDBLK
  5
38E
100
AcDbEntity
  8
0
100
AcDbBlockEnd
  0
BLOCK
  5
391
100
AcDbEntity
  8
0
100
AcDbBlockBegin
  2
*B25
 70
     0
 10
0.0
 20
0.0
 30
0.0
  3
*B25
  1

  0
LINE
  5
392
100
AcDbEntity
  8
0
  6
Continuous
 62
     8
100
AcDbLine
 10
294.187174
 20
211.83619
 30
0.0
 11
340.025439
 21
211.83619
 31
0.0
  0
ENDBLK
  5
393
100
AcDbEntity
  8
0
100
AcDbBlockEnd
  0
BLOCK
  5
396
100
AcDbEntity
  8
0
100
AcDbBlockBegin
  2
*B26
 70
     0
 10
0.0
 20
0.0
 30
0.0
  3
*B26
  1

  0
LINE
  5
397
100
AcDbEntity
  8
0
  6
Continuous
 62
     8
100
AcDbLine
 10
171.014128
 20
201.838932
 30
0.0
 11
178.414364
 21
201.838932
 31
0.0
  0
LINE
  5
398
100
AcDbEntity
  8
0
  6
Continuous
 62
     8
100
AcDbLine
 10
180.414176
 20
201.838932
 30
0.0
 11
181.414232
 21
201.838932
 31
0.0
  0
LINE
  5
399
100
AcDbEntity
  8
0
  6
Continuous
 62
     8
100
AcDbLine
 10
183.414345
 20
201.838932
 30
0.0
 11
190.814281
 21
201.838932
 31
0.0
  0
ENDBLK
  5
39A
100
AcDbEntity
  8
0
100
AcDbBlockEnd
  0
BLOCK
  5
39D
100
AcDbEntity
  8
0
100
AcDbBlockBegin
  2
*B27
 70
     0
 10
0.0
 20
0.0
 30
0.0
  3
*B27
  1

  0
LINE
  5
39E
100
AcDbEntity
  8
0
  6
Continuous
 62
     8
100
AcDbLine
 10
277.990708
 20
201.838932
 30
0.0
 11
288.990726
 21
201.838932
 31
0.0
  0
LINE
  5
39F
100
AcDbEntity
  8
0
  6
Continuous
 62
     8
100
AcDbLine
 10
294.990463
 20
201.838932
 30
0.0
 11
305.990481
 21
201.838932
 31
0.0
  0
ENDBLK
  5
3A0
100
AcDbEntity
  8
0
100
AcDbBlockEnd
  0
BLOCK
  5
3A3
100
AcDbEntity
  8
0
100
AcDbBlockBegin
  2
*B28
 70
     0
 10
0.0
 20
0.0
 30
0.0
  3
*B28
  1

  0
LINE
  5
3A4
100
AcDbEntity
  8
0
  6
Continuous
 62
     8
100
AcDbLine
 10
213.025503
 20
90.44426
 30
0.0
 11
244.787278
 21
90.44426
 31
0.0
  0
LINE
  5
3A5
100
AcDbEntity
  8
0
  6
Continuous
 62
     8
100
AcDbLine
 10
298.787012
 20
90.44426
 30
0.0
 11
340.025439
 21
90.44426
 31
0.0
  0
ENDBLK
  5
3A6
100
AcDbEntity
  8
0
100
AcDbBlockEnd
  0
BLOCK
  5
3A9
100
AcDbEntity
  8
0
100
AcDbBlockBegin
  2
*B29
 70
     0
 10
0.0
 20
0.0
 30
0.0
  3
*B29
  1

  0
LINE
  5
3AA
100
AcDbEntity
  8
0
  6
Continuous
 62
     8
100
AcDbLine
 10
287.786994
 20
147.040715
 30
0.0
 11
287.786994
 21
158.439074
 31
0.0
  0
LINE
  5
3AB
100
AcDbEntity
  8
0
  6
Continuous
 62
     8
100
AcDbLine
 10
287.786994
 20
164.43881
 30
0.0
 11
287.786994
 21
172.938237
 31
0.0
  0
ENDBLK
  5
3AC
100
AcDbEntity
  8
0
100
AcDbBlockEnd
  0
BLOCK
  5
3AF
100
AcDbEntity
  8
0
100
AcDbBlockBegin
  2
*B30
 70
     0
 10
0.0
 20
0.0
 30
0.0
  3
*B30
  1

  0
LINE
  5
3B0
100
AcDbEntity
  8
0
  6
Continuous
 62
     8
100
AcDbLine
 10
246.78709
 20
69.04624
 30
0.0
 11
246.78709
 21
88.444147
 31
0.0
  0
LINE
  5
3B1
100
AcDbEntity
  8
0
  6
Continuous
 62
     8
100
AcDbLine
 10
246.78709
 20
200.43633
 30
0.0
 11
246.78709
 21
238.03412
 31
0.0
  0
ENDBLK
  5
3B2
100
AcDbEntity
  8
0
100
AcDbBlockEnd
  0
BLOCK
  5
3B5
100
AcDbEntity
  8
0
100
AcDbBlockBegin
  2
*B31
 70
     0
 10
0.0
 20
0.0
 30
0.0
  3
*B31
  1

  0
LINE
  5
3B6
100
AcDbEntity
  8
0
  6
Continuous
 62
     8
100
AcDbLine
 10
306.387019
 20
199.837017
 30
0.0
 11
330.025477
 21
199.837017
 31
0.0
  0
ENDBLK
  5
3B7
100
AcDbEntity
  8
0
100
AcDbBlockEnd
  0
BLOCK
  5
3BA
100
AcDbEntity
  8
0
100
AcDbBlockBegin
  2
*B32
 70
     0
 10
0.0
 20
0.0
 30
0.0
  3
*B32
  1

  0
LINE
  5
3BB
100
AcDbEntity
  8
0
  6
Continuous
 62
     8
100
AcDbLine
 10
296.7872
 20
69.04624
 30
0.0
 11
296.7872
 21
88.444147
 31
0.0
  0
ENDBLK
  5
3BC
100
AcDbEntity
  8
0
100
AcDbBlockEnd
  0
BLOCK
  5
3BF
100
AcDbEntity
  8
0
100
AcDbBlockBegin
  2
*B33
 70
     0
 10
0.0
 20
0.0
 30
0.0
  3
*B33
  1

  0
LINE
  5
3C0
100
AcDbEntity
  8
0
  6
Continuous
 62
     8
100
AcDbLine
 10
255.786996
 20
147.040715
 30
0.0
 11
255.786996
 21
158.439074
 31
0.0
  0
LINE
  5
3C1
100
AcDbEntity
  8
0
  6
Continuous
 62
     8
100
AcDbLine
 10
255.786996
 20
164.43881
 30
0.0
 11
255.786996
 21
172.938237
 31
0.0
  0
ENDBLK
  5
3C2
100
AcDbEntity
  8
0
100
AcDbBlockEnd
  0
BLOCK
  5
3C5
100
AcDbEntity
  8
0
100
AcDbBlockBegin
  2
*B34
 70
     0
 10
0.0
 20
0.0
 30
0.0
  3
*B34
  1

  0
LINE
  5
3C6
100
AcDbEntity
  8
0
  6
Continuous
 62
     8
100
AcDbLine
 10
246.78709
 20
188.736963
 30
0.0
 11
250.787015
 21
188.736963
 31
0.0
  0
LINE
  5
3C7
100
AcDbEntity
  8
0
  6
Continuous
 62
     8
100
AcDbLine
 10
256.787052
 20
188.736963
 30
0.0
 11
260.787277
 21
188.736963
 31
0.0
  0
ENDBLK
  5
3C8
100
AcDbEntity
  8
0
100
AcDbBlockEnd
  0
BLOCK
  5
3CB
100
AcDbEntity
  8
0
100
AcDbBlockBegin
  2
*B35
 70
     0
 10
0.0
 20
0.0
 30
0.0
  3
*B35
  1

  0
LINE
  5
3CC
100
AcDbEntity
  8
0
  6
Continuous
 62
     8
100
AcDbLine
 10
151.02562
 20
123.241839
 30
0.0
 11
179.014277
 21
123.241839
 31
0.0
  0
ENDBLK
  5
3CD
100
AcDbEntity
  8
0
100
AcDbBlockEnd
  0
BLOCK
  5
3D0
100
AcDbEntity
  8
0
100
AcDbBlockBegin
  2
*B36
 70
     0
 10
0.0
 20
0.0
 30
0.0
  3
*B36
  1

  0
LINE
  5
3D1
100
AcDbEntity
  8
0
  6
Continuous
 62
     8
100
AcDbLine
 10
213.025503
 20
198.436217
 30
0.0
 11
244.787278
 21
198.436217
 31
0.0
  0
ENDBLK
  5
3D2
100
AcDbEntity
  8
0
100
AcDbBlockEnd
  0
BLOCK
  5
3D5
100
AcDbEntity
  8
0
100
AcDbBlockBegin
  2
*B37
 70
     0
 10
0.0
 20
0.0
 30
0.0
  3
*B37
  1

  0
LINE
  5
3D6
100
AcDbEntity
  8
0
  6
Continuous
 62
     8
100
AcDbLine
 10
187.214198
 20
213.437362
 30
0.0
 11
187.214198
 21
228.034759
 31
0.0
  0
ENDBLK
  5
3D7
100
AcDbEntity
  8
0
100
AcDbBlockEnd
  0
BLOCK
  5
3DA
100
AcDbEntity
  8
0
100
AcDbBlockBegin
  2
*B38
 70
     0
 10
0.0
 20
0.0
 30
0.0
  3
*B38
  1

  0
LINE
  5
3DB
100
AcDbEntity
  8
0
  6
Continuous
 62
     8
100
AcDbLine
 10
172.814169
 20
107.442813
 30
0.0
 11
178.014221
 21
107.442813
 31
0.0
  0
LINE
  5
3DC
100
AcDbEntity
  8
0
  6
Continuous
 62
     8
100
AcDbLine
 10
184.014258
 20
107.442813
 30
0.0
 11
189.214311
 21
107.442813
 31
0.0
  0
ENDBLK
  5
3DD
100
AcDbEntity
  8
0
100
AcDbBlockEnd
  0
BLOCK
  5
3E0
100
AcDbEntity
  8
0
100
AcDbBlockBegin
  2
*B39
 70
     0
 10
0.0
 20
0.0
 30
0.0
  3
*B39
  1

  0
LINE
  5
3E1
100
AcDbEntity
  8
0
  6
Continuous
 62
     8
100
AcDbLine
 10
231.025615
 20
156.93944
 30
0.0
 11
253.787184
 21
156.93944
 31
0.0
  0
ENDBLK
  5
3E2
100
AcDbEntity
  8
0
100
AcDbBlockEnd
  0
BLOCK
  5
3E5
100
AcDbEntity
  8
0
100
AcDbBlockBegin
  2
*B40
 70
     0
 10
0.0
 20
0.0
 30
0.0
  3
*B40
  1

  0
LINE
  5
3E6
100
AcDbEntity
  8
0
  6
Continuous
 62
     8
100
AcDbLine
 10
253.787184
 20
181.737471
 30
0.0
 11
253.787184
 21
185.737095
 31
0.0
  0
LINE
  5
3E7
100
AcDbEntity
  8
0
  6
Continuous
 62
     8
100
AcDbLine
 10
253.787184
 20
191.736832
 30
0.0
 11
253.787184
 21
195.736456
 31
0.0
  0
ENDBLK
  5
3E8
100
AcDbEntity
  8
0
100
AcDbBlockEnd
  0
BLOCK
  5
3EB
100
AcDbEntity
  8
0
100
AcDbBlockBegin
  2
*B41
 70
     0
 10
0.0
 20
0.0
 30
0.0
  3
*B41
  1

  0
LINE
  5
3EC
100
AcDbEntity
  8
0
  6
Continuous
 62
     8
100
AcDbLine
 10
181.01439
 20
86.444335
 30
0.0
 11
181.01439
 21
104.443245
 31
0.0
  0
LINE
  5
3ED
100
AcDbEntity
  8
0
  6
Continuous
 62
     8
100
AcDbLine
 10
181.01439
 20
110.442681
 30
0.0
 11
181.01439
 21
124.441667
 31
0.0
  0
LINE
  5
3EE
100
AcDbEntity
  8
0
  6
Continuous
 62
     8
100
AcDbLine
 10
181.01439
 20
130.441103
 30
0.0
 11
181.01439
 21
144.440088
 31
0.0
  0
LINE
  5
3EF
100
AcDbEntity
  8
0
  6
Continuous
 62
     8
100
AcDbLine
 10
181.01439
 20
150.439825
 30
0.0
 11
181.01439
 21
159.689069
 31
0.0
  0
LINE
  5
3F0
100
AcDbEntity
  8
0
  6
Continuous
 62
     8
100
AcDbLine
 10
181.01439
 20
161.688881
 30
0.0
 11
181.01439
 21
162.688937
 31
0.0
  0
LINE
  5
3F1
100
AcDbEntity
  8
0
  6
Continuous
 62
     8
100
AcDbLine
 10
181.01439
 20
164.688749
 30
0.0
 11
181.01439
 21
173.937993
 31
0.0
  0
LINE
  5
3F2
100
AcDbEntity
  8
0
  6
Continuous
 62
     8
100
AcDbLine
 10
181.01439
 20
175.937805
 30
0.0
 11
181.01439
 21
176.937861
 31
0.0
  0
LINE
  5
3F3
100
AcDbEntity
  8
0
  6
Continuous
 62
     8
100
AcDbLine
 10
181.01439
 20
178.937674
 30
0.0
 11
181.01439
 21
188.186917
 31
0.0
  0
LINE
  5
3F4
100
AcDbEntity
  8
0
  6
Continuous
 62
     8
100
AcDbLine
 10
181.01439
 20
190.18703
 30
0.0
 11
181.01439
 21
191.186786
 31
0.0
  0
LINE
  5
3F5
100
AcDbEntity
  8
0
  6
Continuous
 62
     8
100
AcDbLine
 10
181.01439
 20
193.186598
 30
0.0
 11
181.01439
 21
202.436142
 31
0.0
  0
ENDBLK
  5
3F6
100
AcDbEntity
  8
0
100
AcDbBlockEnd
  0
BLOCK
  5
3F9
100
AcDbEntity
  8
0
100
AcDbBlockBegin
  2
*B42
 70
     0
 10
0.0
 20
0.0
 30
0.0
  3
*B42
  1

  0
LINE
  5
3FA
100
AcDbEntity
  8
0
  6
Continuous
 62
     8
100
AcDbLine
 10
172.814169
 20
127.441535
 30
0.0
 11
178.014221
 21
127.441535
 31
0.0
  0
LINE
  5
3FB
100
AcDbEntity
  8
0
  6
Continuous
 62
     8
100
AcDbLine
 10
184.014258
 20
127.441535
 30
0.0
 11
189.214311
 21
127.441535
 31
0.0
  0
ENDBLK
  5
3FC
100
AcDbEntity
  8
0
100
AcDbBlockEnd
  0
BLOCK
  5
3FF
100
AcDbEntity
  8
0
100
AcDbBlockBegin
  2
*B43
 70
     0
 10
0.0
 20
0.0
 30
0.0
  3
*B43
  1

  0
LINE
  5
400
100
AcDbEntity
  8
0
  6
Continuous
 62
     8
100
AcDbLine
 10
231.025615
 20
165.938745
 30
0.0
 11
253.787184
 21
165.938745
 31
0.0
  0
ENDBLK
  5
401
100
AcDbEntity
  8
0
100
AcDbBlockEnd
  0
BLOCK
  5
404
100
AcDbEntity
  8
0
100
AcDbBlockBegin
  2
*B44
 70
     0
 10
0.0
 20
0.0
 30
0.0
  3
*B44
  1

  0
LINE
  5
405
100
AcDbEntity
  8
0
  6
Continuous
 62
     8
100
AcDbLine
 10
174.61421
 20
213.437362
 30
0.0
 11
174.61421
 21
228.034759
 31
0.0
  0
ENDBLK
  5
406
100
AcDbEntity
  8
0
100
AcDbBlockEnd
  0
BLOCK
  5
409
100
AcDbEntity
  8
0
100
AcDbBlockBegin
  2
*B45
 70
     0
 10
0.0
 20
0.0
 30
0.0
  3
*B45
  1

  0
LINE
  5
40A
100
AcDbEntity
  8
0
  6
Continuous
 62
     8
100
AcDbLine
 10
301.990557
 20
203.838744
 30
0.0
 11
301.990557
 21
220.03551
 31
0.0
  0
ENDBLK
  5
40B
100
AcDbEntity
  8
0
100
AcDbBlockEnd
  0
BLOCK
  5
40E
100
AcDbEntity
  8
0
100
AcDbBlockBegin
  2
*B46
 70
     0
 10
0.0
 20
0.0
 30
0.0
  3
*B46
  1

  0
LINE
  5
40F
100
AcDbEntity
  8
0
  6
Continuous
 62
     8
100
AcDbLine
 10
310.025554
 20
107.442813
 30
0.0
 11
314.025478
 21
107.442813
 31
0.0
  0
LINE
  5
410
100
AcDbEntity
  8
0
  6
Continuous
 62
     8
100
AcDbLine
 10
277.787032
 20
107.442813
 30
0.0
 11
291.406302
 21
107.442813
 31
0.0
  0
LINE
  5
411
100
AcDbEntity
  8
0
  6
Continuous
 62
     8
100
AcDbLine
 10
293.406415
 20
107.442813
 30
0.0
 11
294.406471
 21
107.442813
 31
0.0
  0
LINE
  5
412
100
AcDbEntity
  8
0
  6
Continuous
 62
     8
100
AcDbLine
 10
296.406283
 20
107.442813
 30
0.0
 11
310.025554
 21
107.442813
 31
0.0
  0
ENDBLK
  5
413
100
AcDbEntity
  8
0
100
AcDbBlockEnd
  0
BLOCK
  5
416
100
AcDbEntity
  8
0
100
AcDbBlockBegin
  2
*B47
 70
     0
 10
0.0
 20
0.0
 30
0.0
  3
*B47
  1

  0
LINE
  5
417
100
AcDbEntity
  8
0
  6
Continuous
 62
     8
100
AcDbLine
 10
231.025615
 20
117.442174
 30
0.0
 11
235.025539
 21
117.442174
 31
0.0
  0
LINE
  5
418
100
AcDbEntity
  8
0
  6
Continuous
 62
     8
100
AcDbLine
 10
235.025539
 20
117.442174
 30
0.0
 11
247.906408
 21
117.442174
 31
0.0
  0
LINE
  5
419
100
AcDbEntity
  8
0
  6
Continuous
 62
     8
100
AcDbLine
 10
249.906521
 20
117.442174
 30
0.0
 11
250.906277
 21
117.442174
 31
0.0
  0
LINE
  5
41A
100
AcDbEntity
  8
0
  6
Continuous
 62
     8
100
AcDbLine
 10
252.906389
 20
117.442174
 30
0.0
 11
265.787258
 21
117.442174
 31
0.0
  0
ENDBLK
  5
41B
100
AcDbEntity
  8
0
100
AcDbBlockEnd
  0
BLOCK
  5
41E
100
AcDbEntity
  8
0
100
AcDbBlockBegin
  2
*B48
 70
     0
 10
0.0
 20
0.0
 30
0.0
  3
*B48
  1

  0
LINE
  5
41F
100
AcDbEntity
  8
0
  6
Continuous
 62
     8
100
AcDbLine
 10
172.814169
 20
147.439957
 30
0.0
 11
178.014221
 21
147.439957
 31
0.0
  0
LINE
  5
420
100
AcDbEntity
  8
0
  6
Continuous
 62
     8
100
AcDbLine
 10
184.014258
 20
147.439957
 30
0.0
 11
189.214311
 21
147.439957
 31
0.0
  0
ENDBLK
  5
421
100
AcDbEntity
  8
0
100
AcDbBlockEnd
  0
BLOCK
  5
424
100
AcDbEntity
  8
0
100
AcDbBlockBegin
  2
*B49
 70
     0
 10
0.0
 20
0.0
 30
0.0
  3
*B49
  1

  0
LINE
  5
425
100
AcDbEntity
  8
0
  6
Continuous
 62
     8
100
AcDbLine
 10
271.786995
 20
86.444335
 30
0.0
 11
271.786995
 21
94.888186
 31
0.0
  0
LINE
  5
426
100
AcDbEntity
  8
0
  6
Continuous
 62
     8
100
AcDbLine
 10
271.786995
 20
96.887999
 30
0.0
 11
271.786995
 21
97.888055
 31
0.0
  0
LINE
  5
427
100
AcDbEntity
  8
0
  6
Continuous
 62
     8
100
AcDbLine
 10
271.786995
 20
99.887867
 30
0.0
 11
271.786995
 21
108.331718
 31
0.0
  0
LINE
  5
428
100
AcDbEntity
  8
0
  6
Continuous
 62
     8
100
AcDbLine
 10
271.786995
 20
110.331531
 30
0.0
 11
271.786995
 21
111.331587
 31
0.0
  0
LINE
  5
429
100
AcDbEntity
  8
0
  6
Continuous
 62
     8
100
AcDbLine
 10
271.786995
 20
113.331399
 30
0.0
 11
271.786995
 21
121.77525
 31
0.0
  0
LINE
  5
42A
100
AcDbEntity
  8
0
  6
Continuous
 62
     8
100
AcDbLine
 10
271.786995
 20
123.775063
 30
0.0
 11
271.786995
 21
124.774818
 31
0.0
  0
LINE
  5
42B
100
AcDbEntity
  8
0
  6
Continuous
 62
     8
100
AcDbLine
 10
271.786995
 20
126.774931
 30
0.0
 11
271.786995
 21
135.218782
 31
0.0
  0
LINE
  5
42C
100
AcDbEntity
  8
0
  6
Continuous
 62
     8
100
AcDbLine
 10
271.786995
 20
137.218595
 30
0.0
 11
271.786995
 21
138.21835
 31
0.0
  0
LINE
  5
42D
100
AcDbEntity
  8
0
  6
Continuous
 62
     8
100
AcDbLine
 10
271.786995
 20
140.218163
 30
0.0
 11
271.786995
 21
148.662014
 31
0.0
  0
LINE
  5
42E
100
AcDbEntity
  8
0
  6
Continuous
 62
     8
100
AcDbLine
 10
271.786995
 20
150.662127
 30
0.0
 11
271.786995
 21
151.661882
 31
0.0
  0
LINE
  5
42F
100
AcDbEntity
  8
0
  6
Continuous
 62
     8
100
AcDbLine
 10
271.786995
 20
153.661695
 30
0.0
 11
271.786995
 21
162.105546
 31
0.0
  0
LINE
  5
430
100
AcDbEntity
  8
0
  6
Continuous
 62
     8
100
AcDbLine
 10
271.786995
 20
164.105358
 30
0.0
 11
271.786995
 21
165.105414
 31
0.0
  0
LINE
  5
431
100
AcDbEntity
  8
0
  6
Continuous
 62
     8
100
AcDbLine
 10
271.786995
 20
167.105227
 30
0.0
 11
271.786995
 21
175.549078
 31
0.0
  0
LINE
  5
432
100
AcDbEntity
  8
0
  6
Continuous
 62
     8
100
AcDbLine
 10
271.786995
 20
177.54889
 30
0.0
 11
271.786995
 21
178.548946
 31
0.0
  0
LINE
  5
433
100
AcDbEntity
  8
0
  6
Continuous
 62
     8
100
AcDbLine
 10
271.786995
 20
180.548759
 30
0.0
 11
271.786995
 21
188.99261
 31
0.0
  0
LINE
  5
434
100
AcDbEntity
  8
0
  6
Continuous
 62
     8
100
AcDbLine
 10
271.786995
 20
190.992422
 30
0.0
 11
271.786995
 21
191.992478
 31
0.0
  0
LINE
  5
435
100
AcDbEntity
  8
0
  6
Continuous
 62
     8
100
AcDbLine
 10
271.786995
 20
193.99229
 30
0.0
 11
271.786995
 21
202.436142
 31
0.0
  0
ENDBLK
  5
436
100
AcDbEntity
  8
0
100
AcDbBlockEnd
  0
BLOCK
  5
439
100
AcDbEntity
  8
0
100
AcDbBlockBegin
  2
*B50
 70
     0
 10
0.0
 20
0.0
 30
0.0
  3
*B50
  1

  0
LINE
  5
43A
100
AcDbEntity
  8
0
  6
Continuous
 62
     8
100
AcDbLine
 10
281.990633
 20
203.838744
 30
0.0
 11
281.990633
 21
220.03551
 31
0.0
  0
ENDBLK
  5
43B
100
AcDbEntity
  8
0
100
AcDbBlockEnd
  0
BLOCK
  5
43E
100
AcDbEntity
  8
0
100
AcDbBlockBegin
  2
*B51
 70
     0
 10
0.0
 20
0.0
 30
0.0
  3
*B51
  1

  0
LINE
  5
43F
100
AcDbEntity
  8
0
  6
Continuous
 62
     8
100
AcDbLine
 10
310.025554
 20
127.441535
 30
0.0
 11
314.025478
 21
127.441535
 31
0.0
  0
LINE
  5
440
100
AcDbEntity
  8
0
  6
Continuous
 62
     8
100
AcDbLine
 10
277.787032
 20
127.441535
 30
0.0
 11
291.406302
 21
127.441535
 31
0.0
  0
LINE
  5
441
100
AcDbEntity
  8
0
  6
Continuous
 62
     8
100
AcDbLine
 10
293.406415
 20
127.441535
 30
0.0
 11
294.406471
 21
127.441535
 31
0.0
  0
LINE
  5
442
100
AcDbEntity
  8
0
  6
Continuous
 62
     8
100
AcDbLine
 10
296.406283
 20
127.441535
 30
0.0
 11
310.025554
 21
127.441535
 31
0.0
  0
ENDBLK
  5
443
100
AcDbEntity
  8
0
100
AcDbBlockEnd
  0
BLOCK
  5
446
100
AcDbEntity
  8
0
100
AcDbBlockBegin
  2
*B52
 70
     0
 10
0.0
 20
0.0
 30
0.0
  3
*B52
  1

  0
LINE
  5
447
100
AcDbEntity
  8
0
  6
Continuous
 62
     8
100
AcDbLine
 10
166.014147
 20
69.04624
 30
0.0
 11
166.014147
 21
88.444147
 31
0.0
  0
ENDBLK
  5
448
100
AcDbEntity
  8
0
100
AcDbBlockEnd
  0
BLOCK
  5
44B
100
AcDbEntity
  8
0
100
AcDbBlockBegin
  2
*B53
 70
     0
 10
0.0
 20
0.0
 30
0.0
  3
*B53
  1

  0
LINE
  5
44C
100
AcDbEntity
  8
0
  6
Continuous
 62
     8
100
AcDbLine
 10
196.014333
 20
69.04624
 30
0.0
 11
196.014333
 21
88.444147
 31
0.0
  0
ENDBLK
  5
44D
100
AcDbEntity
  8
0
100
AcDbBlockEnd
  0
BLOCK
  5
450
100
AcDbEntity
  8
0
100
AcDbBlockBegin
  2
*B54
 70
     0
 10
0.0
 20
0.0
 30
0.0
  3
*B54
  1

  0
LINE
  5
451
100
AcDbEntity
  8
0
  6
Continuous
 62
     8
100
AcDbLine
 10
291.990595
 20
234.034495
 30
0.0
 11
291.990595
 21
238.03412
 31
0.0
  0
LINE
  5
452
100
AcDbEntity
  8
0
  6
Continuous
 62
     8
100
AcDbLine
 10
291.990595
 20
187.839947
 30
0.0
 11
291.990595
 21
198.839064
 31
0.0
  0
LINE
  5
453
100
AcDbEntity
  8
0
  6
Continuous
 62
     8
100
AcDbLine
 10
291.990595
 20
204.8385
 30
0.0
 11
291.990595
 21
216.936808
 31
0.0
  0
LINE
  5
454
100
AcDbEntity
  8
0
  6
Continuous
 62
     8
100
AcDbLine
 10
291.990595
 20
218.93662
 30
0.0
 11
291.990595
 21
219.936376
 31
0.0
  0
LINE
  5
455
100
AcDbEntity
  8
0
  6
Continuous
 62
     8
100
AcDbLine
 10
291.990595
 20
221.936488
 30
0.0
 11
291.990595
 21
234.034495
 31
0.0
  0
ENDBLK
  5
456
100
AcDbEntity
  8
0
100
AcDbBlockEnd
  0
BLOCK
  5
459
100
AcDbEntity
  8
0
100
AcDbBlockBegin
  2
*B55
 70
     0
 10
0.0
 20
0.0
 30
0.0
  3
*B55
  1

  0
LINE
  5
45A
100
AcDbEntity
  8
0
  6
Continuous
 62
     8
100
AcDbLine
 10
231.025615
 20
137.440596
 30
0.0
 11
235.025539
 21
137.440596
 31
0.0
  0
LINE
  5
45B
100
AcDbEntity
  8
0
  6
Continuous
 62
     8
100
AcDbLine
 10
235.025539
 20
137.440596
 30
0.0
 11
247.906408
 21
137.440596
 31
0.0
  0
LINE
  5
45C
100
AcDbEntity
  8
0
  6
Continuous
 62
     8
100
AcDbLine
 10
249.906521
 20
137.440596
 30
0.0
 11
250.906277
 21
137.440596
 31
0.0
  0
LINE
  5
45D
100
AcDbEntity
  8
0
  6
Continuous
 62
     8
100
AcDbLine
 10
252.906389
 20
137.440596
 30
0.0
 11
265.787258
 21
137.440596
 31
0.0
  0
ENDBLK
  5
45E
100
AcDbEntity
  8
0
100
AcDbBlockEnd
  0
BLOCK
  5
461
100
AcDbEntity
  8
0
100
AcDbBlockBegin
  2
*B56
 70
     0
 10
0.0
 20
0.0
 30
0.0
  3
*B56
  1

  0
LINE
  5
462
100
AcDbEntity
  8
0
  6
Continuous
 62
     8
100
AcDbLine
 10
310.025554
 20
147.439957
 30
0.0
 11
314.025478
 21
147.439957
 31
0.0
  0
LINE
  5
463
100
AcDbEntity
  8
0
  6
Continuous
 62
     8
100
AcDbLine
 10
277.787032
 20
147.439957
 30
0.0
 11
291.406302
 21
147.439957
 31
0.0
  0
LINE
  5
464
100
AcDbEntity
  8
0
  6
Continuous
 62
     8
100
AcDbLine
 10
293.406415
 20
147.439957
 30
0.0
 11
294.406471
 21
147.439957
 31
0.0
  0
LINE
  5
465
100
AcDbEntity
  8
0
  6
Continuous
 62
     8
100
AcDbLine
 10
296.406283
 20
147.439957
 30
0.0
 11
310.025554
 21
147.439957
 31
0.0
  0
ENDBLK
  5
466
100
AcDbEntity
  8
0
100
AcDbBlockEnd
  0
BLOCK
  5
469
100
AcDbEntity
  8
0
100
AcDbBlockBegin
  2
*B57
 70
     0
 10
0.0
 20
0.0
 30
0.0
  3
*B57
  1

  0
LINE
  5
46A
100
AcDbEntity
  8
0
  6
Continuous
 62
     8
100
AcDbLine
 10
151.02562
 20
131.641231
 30
0.0
 11
179.014277
 21
131.641231
 31
0.0
  0
ENDBLK
  5
46B
100
AcDbEntity
  8
0
100
AcDbBlockEnd
  0
BLOCK
  5
46E
100
AcDbEntity
  8
0
100
AcDbBlockBegin
  2
*B58
 70
     0
 10
0.0
 20
0.0
 30
0.0
  3
*B58
  1

  0
LINE
  5
46F
100
AcDbEntity
  8
0
  6
Continuous
 62
     8
100
AcDbLine
 10
306.967106
 20
203.836641
 30
0.0
 11
330.025477
 21
203.836641
 31
0.0
  0
ENDBLK
  5
470
100
AcDbEntity
  8
0
100
AcDbBlockEnd
  0
BLOCK
  5
473
100
AcDbEntity
  8
0
100
AcDbBlockBegin
  2
*B59
 70
     0
 10
0.0
 20
0.0
 30
0.0
  3
*B59
  1

  0
LINE
  5
474
100
AcDbEntity
  8
0
  6
Continuous
 62
     6
100
AcDbLine
 10
180.014334
 20
127.441535
 30
0.0
 11
182.014146
 21
127.441535
 31
0.0
  0
LINE
  5
475
100
AcDbEntity
  8
0
  6
Continuous
 62
     6
100
AcDbLine
 10
181.01439
 20
126.441479
 30
0.0
 11
181.01439
 21
128.441291
 31
0.0
  0
ENDBLK
  5
476
100
AcDbEntity
  8
0
100
AcDbBlockEnd
  0
BLOCK
  5
479
100
AcDbEntity
  8
0
100
AcDbBlockBegin
  2
*B60
 70
     0
 10
0.0
 20
0.0
 30
0.0
  3
*B60
  1

  0
LINE
  5
47A
100
AcDbEntity
  8
0
  6
Continuous
 62
     6
100
AcDbLine
 10
180.014334
 20
147.439957
 30
0.0
 11
182.014146
 21
147.439957
 31
0.0
  0
LINE
  5
47B
100
AcDbEntity
  8
0
  6
Continuous
 62
     6
100
AcDbLine
 10
181.01439
 20
146.440201
 30
0.0
 11
181.01439
 21
148.440013
 31
0.0
  0
ENDBLK
  5
47C
100
AcDbEntity
  8
0
100
AcDbBlockEnd
  0
BLOCK
  5
47F
100
AcDbEntity
  8
0
100
AcDbBlockBegin
  2
*B61
 70
     0
 10
0.0
 20
0.0
 30
0.0
  3
*B61
  1

  0
LINE
  5
480
100
AcDbEntity
  8
0
  6
Continuous
 62
     6
100
AcDbLine
 10
286.787238
 20
161.438942
 30
0.0
 11
288.78705
 21
161.438942
 31
0.0
  0
LINE
  5
481
100
AcDbEntity
  8
0
  6
Continuous
 62
     6
100
AcDbLine
 10
287.786994
 20
160.439186
 30
0.0
 11
287.786994
 21
162.438998
 31
0.0
  0
ENDBLK
  5
482
100
AcDbEntity
  8
0
100
AcDbBlockEnd
  0
BLOCK
  5
485
100
AcDbEntity
  8
0
100
AcDbBlockBegin
  2
*B62
 70
     0
 10
0.0
 20
0.0
 30
0.0
  3
*B62
  1

  0
LINE
  5
486
100
AcDbEntity
  8
0
  6
Continuous
 62
     6
100
AcDbLine
 10
254.78724
 20
161.438942
 30
0.0
 11
256.787052
 21
161.438942
 31
0.0
  0
LINE
  5
487
100
AcDbEntity
  8
0
  6
Continuous
 62
     6
100
AcDbLine
 10
255.786996
 20
160.439186
 30
0.0
 11
255.786996
 21
162.438998
 31
0.0
  0
ENDBLK
  5
488
100
AcDbEntity
  8
0
100
AcDbBlockEnd
  0
BLOCK
  5
48B
100
AcDbEntity
  8
0
100
AcDbBlockBegin
  2
*B63
 70
     0
 10
0.0
 20
0.0
 30
0.0
  3
*B63
  1

  0
LINE
  5
48C
100
AcDbEntity
  8
0
  6
Continuous
 62
     6
100
AcDbLine
 10
290.990539
 20
201.838932
 30
0.0
 11
292.990651
 21
201.838932
 31
0.0
  0
LINE
  5
48D
100
AcDbEntity
  8
0
  6
Continuous
 62
     6
100
AcDbLine
 10
291.990595
 20
200.838876
 30
0.0
 11
291.990595
 21
202.838688
 31
0.0
  0
ENDBLK
  5
48E
100
AcDbEntity
  8
0
100
AcDbBlockEnd
  0
BLOCK
  5
491
100
AcDbEntity
  8
0
100
AcDbBlockBegin
  2
*B64
 70
     0
 10
0.0
 20
0.0
 30
0.0
  3
*B64
  1

  0
LINE
  5
492
100
AcDbEntity
  8
0
  6
Continuous
 62
     6
100
AcDbLine
 10
252.787127
 20
188.736963
 30
0.0
 11
254.78724
 21
188.736963
 31
0.0
  0
LINE
  5
493
100
AcDbEntity
  8
0
  6
Continuous
 62
     6
100
AcDbLine
 10
253.787184
 20
187.737207
 30
0.0
 11
253.787184
 21
189.73702
 31
0.0
  0
ENDBLK
  5
494
100
AcDbEntity
  8
0
100
AcDbBlockEnd
  0
BLOCK
  5
497
100
AcDbEntity
  8
0
100
AcDbBlockBegin
  2
*B65
 70
     0
 10
0.0
 20
0.0
 30
0.0
  3
*B65
  1

  0
LINE
  5
498
100
AcDbEntity
  8
0
  6
Continuous
 62
     6
100
AcDbLine
 10
180.014334
 20
107.442813
 30
0.0
 11
182.014146
 21
107.442813
 31
0.0
  0
LINE
  5
499
100
AcDbEntity
  8
0
  6
Continuous
 62
     6
100
AcDbLine
 10
181.01439
 20
106.443057
 30
0.0
 11
181.01439
 21
108.442869
 31
0.0
  0
ENDBLK
  5
49A
100
AcDbEntity
  8
0
100
AcDbBlockEnd
  0
BLOCK
  5
49D
100
AcDbEntity
  8
0
100
AcDbBlockBegin
  2
*B66
 70
     0
 10
0.0
 20
0.0
 30
0.0
  3
*B66
  1

  0
TEXT
  5
49E
100
AcDbEntity
  8
TEXT
  6
Continuous
 62
     0
100
AcDbText
 10
289.23575
 20
124.5
 30
0.0
 40
5.0
  1
1
100
AcDbText
  0
ENDBLK
  5
49F
100
AcDbEntity
  8
0
100
AcDbBlockEnd
  0
BLOCK
  5
4A2
100
AcDbEntity
  8
0
100
AcDbBlockBegin
  2
*B67
 70
     0
 10
0.0
 20
0.0
 30
0.0
  3
*B67
  1

  0
TEXT
  5
4A3
100
AcDbEntity
  8
TEXT
  6
Continuous
 62
     0
100
AcDbText
 10
250.23575
 20
115.5
 30
0.0
 40
5.0
  1
2
100
AcDbText
  0
ENDBLK
  5
4A4
100
AcDbEntity
  8
0
100
AcDbBlockEnd
  0
BLOCK
  5
4A7
100
AcDbEntity
  8
0
100
AcDbBlockBegin
  2
*B68
 70
     0
 10
0.0
 20
0.0
 30
0.0
  3
*B68
  1

  0
TEXT
  5
4A8
100
AcDbEntity
  8
TEXT
  6
Continuous
 62
     0
100
AcDbText
 10
289.23575
 20
105.5
 30
0.0
 40
5.0
  1
3
100
AcDbText
  0
ENDBLK
  5
4A9
100
AcDbEntity
  8
0
100
AcDbBlockEnd
  0
BLOCK
  5
4AC
100
AcDbEntity
  8
0
100
AcDbBlockBegin
  2
*B69
 70
     0
 10
0.0
 20
0.0
 30
0.0
  3
*B69
  1

  0
TEXT
  5
4AD
100
AcDbEntity
  8
TEXT
  6
Continuous
 62
     0
100
AcDbText
 10
250.23575
 20
135.5
 30
0.0
 40
5.0
  1
4
100
AcDbText
  0
ENDBLK
  5
4AE
100
AcDbEntity
  8
0
100
AcDbBlockEnd
  0
BLOCK
  5
4B1
100
AcDbEntity
  8
0
100
AcDbBlockBegin
  2
*B70
 70
     0
 10
0.0
 20
0.0
 30
0.0
  3
*B70
  1

  0
TEXT
  5
4B2
100
AcDbEntity
  8
TEXT
  6
Continuous
 62
     0
100
AcDbText
 10
289.23575
 20
145.5
 30
0.0
 40
5.0
  1
5
100
AcDbText
  0
ENDBLK
  5
4B3
100
AcDbEntity
  8
0
100
AcDbBlockEnd
  0
BLOCK
  5
4B6
100
AcDbEntity
  8
0
100
AcDbBlockBegin
  2
*B71
 70
     0
 10
0.0
 20
0.0
 30
0.0
  3
*B71
  1

  0
TEXT
  5
4B7
100
AcDbEntity
  8
TEXT
  6
Continuous
 62
     0
100
AcDbText
 10
177.655282
 20
72.75
 30
0.0
 40
3.5
  1
15
100
AcDbText
  0
ENDBLK
  5
4B8
100
AcDbEntity
  8
0
100
AcDbBlockEnd
  0
BLOCK
  5
4BB
100
AcDbEntity
  8
0
100
AcDbBlockBegin
  2
*B72
 70
     0
 10
0.0
 20
0.0
 30
0.0
  3
*B72
  1

  0
TEXT
  5
4BC
100
AcDbEntity
  8
TEXT
  6
Continuous
 62
     0
100
AcDbText
 10
179.221949
 20
227.75
 30
0.0
 40
3.5
  1
7
100
AcDbText
  0
ENDBLK
  5
4BD
100
AcDbEntity
  8
0
100
AcDbBlockEnd
  0
BLOCK
  5
4C0
100
AcDbEntity
  8
0
100
AcDbBlockBegin
  2
*B73
 70
     0
 10
0.0
 20
0.0
 30
0.0
  3
*B73
  1

  0
TEXT
  5
4C1
100
AcDbEntity
  8
TEXT
  6
Continuous
 62
     0
100
AcDbText
 10
151.25
 20
138.333333
 30
0.0
 40
3.5
  1
M5
 50
90.0
100
AcDbText
  0
ENDBLK
  5
4C2
100
AcDbEntity
  8
0
100
AcDbBlockEnd
  0
BLOCK
  5
4C5
100
AcDbEntity
  8
0
100
AcDbBlockBegin
  2
*B74
 70
     0
 10
0.0
 20
0.0
 30
0.0
  3
*B74
  1

  0
TEXT
  5
4C6
100
AcDbEntity
  8
TEXT
  6
Continuous
 62
     0
100
AcDbText
 10
268.428207
 20
72.75
 30
0.0
 40
3.5
  1
25
100
AcDbText
  0
ENDBLK
  5
4C7
100
AcDbEntity
  8
0
100
AcDbBlockEnd
  0
BLOCK
  5
4CA
100
AcDbEntity
  8
0
100
AcDbBlockBegin
  2
*B75
 70
     0
 10
0.0
 20
0.0
 30
0.0
  3
*B75
  1

  0
TEXT
  5
4CB
100
AcDbEntity
  8
TEXT
  6
Continuous
 62
     0
100
AcDbText
 10
213.25
 20
141.065941
 30
0.0
 40
3.5
  1
54
 50
90.0
100
AcDbText
  0
ENDBLK
  5
4CC
100
AcDbEntity
  8
0
100
AcDbBlockEnd
  0
BLOCK
  5
4CF
100
AcDbEntity
  8
0
100
AcDbBlockBegin
  2
*B76
 70
     0
 10
0.0
 20
0.0
 30
0.0
  3
*B76
  1

  0
TEXT
  5
4D0
100
AcDbEntity
  8
TEXT
  6
Continuous
 62
     0
100
AcDbText
 10
231.25
 20
98.065941
 30
0.0
 40
3.5
  1
13,5
 50
90.0
100
AcDbText
  0
ENDBLK
  5
4D1
100
AcDbEntity
  8
0
100
AcDbBlockEnd
  0
BLOCK
  5
4D4
100
AcDbEntity
  8
0
100
AcDbBlockBegin
  2
*B77
 70
     0
 10
0.0
 20
0.0
 30
0.0
  3
*B77
  1

  0
TEXT
  5
4D5
100
AcDbEntity
  8
TEXT
  6
Continuous
 62
     0
100
AcDbText
 10
231.25
 20
124.065941
 30
0.0
 40
3.5
  1
10
 50
90.0
100
AcDbText
  0
ENDBLK
  5
4D6
100
AcDbEntity
  8
0
100
AcDbBlockEnd
  0
BLOCK
  5
4D9
100
AcDbEntity
  8
0
100
AcDbBlockBegin
  2
*B78
 70
     0
 10
0.0
 20
0.0
 30
0.0
  3
*B78
  1

  0
TEXT
  5
4DA
100
AcDbEntity
  8
TEXT
  6
Continuous
 62
     0
100
AcDbText
 10
310.25
 20
94.732608
 30
0.0
 40
3.5
  1
8,5
 50
90.0
100
AcDbText
  0
ENDBLK
  5
4DB
100
AcDbEntity
  8
0
100
AcDbBlockEnd
  0
BLOCK
  5
4DE
100
AcDbEntity
  8
0
100
AcDbBlockBegin
  2
*B79
 70
     0
 10
0.0
 20
0.0
 30
0.0
  3
*B79
  1

  0
TEXT
  5
4DF
100
AcDbEntity
  8
TEXT
  6
Continuous
 62
     0
100
AcDbText
 10
310.25
 20
114.065941
 30
0.0
 40
3.5
  1
10
 50
90.0
100
AcDbText
  0
ENDBLK
  5
4E0
100
AcDbEntity
  8
0
100
AcDbBlockEnd
  0
BLOCK
  5
4E3
100
AcDbEntity
  8
0
100
AcDbBlockBegin
  2
*B80
 70
     0
 10
0.0
 20
0.0
 30
0.0
  3
*B80
  1

  0
TEXT
  5
4E4
100
AcDbEntity
  8
TEXT
  6
Continuous
 62
     0
100
AcDbText
 10
310.25
 20
134.065941
 30
0.0
 40
3.5
  1
10
 50
90.0
100
AcDbText
  0
ENDBLK
  5
4E5
100
AcDbEntity
  8
0
100
AcDbBlockEnd
  0
BLOCK
  5
4E8
100
AcDbEntity
  8
0
100
AcDbBlockBegin
  2
*B81
 70
     0
 10
0.0
 20
0.0
 30
0.0
  3
*B81
  1

  0
TEXT
  5
4E9
100
AcDbEntity
  8
TEXT
  6
Continuous
 62
     0
100
AcDbText
 10
336.25
 20
122.565941
 30
0.0
 40
3.5
  1
36
 50
90.0
100
AcDbText
  0
ENDBLK
  5
4EA
100
AcDbEntity
  8
0
100
AcDbBlockEnd
  0
BLOCK
  5
4ED
100
AcDbEntity
  8
0
100
AcDbBlockBegin
  2
*B82
 70
     0
 10
0.0
 20
0.0
 30
0.0
  3
*B82
  1

  0
TEXT
  5
4EE
100
AcDbEntity
  8
TEXT
  6
Continuous
 62
     0
100
AcDbText
 10
266.02994
 20
237.75
 30
0.0
 40
3.5
  1
21
100
AcDbText
  0
ENDBLK
  5
4EF
100
AcDbEntity
  8
0
100
AcDbBlockEnd
  0
BLOCK
  5
4F2
100
AcDbEntity
  8
0
100
AcDbBlockBegin
  2
*B83
 70
     0
 10
0.0
 20
0.0
 30
0.0
  3
*B83
  1

  0
TEXT
  5
4F3
100
AcDbEntity
  8
TEXT
  6
Continuous
 62
     0
100
AcDbText
 10
286.181672
 20
219.75
 30
0.0
 40
3.5
  1
%%c10
100
AcDbText
  0
ENDBLK
  5
4F4
100
AcDbEntity
  8
0
100
AcDbBlockEnd
  0
BLOCK
  5
4F7
100
AcDbEntity
  8
0
100
AcDbBlockBegin
  2
*B84
 70
     0
 10
0.0
 20
0.0
 30
0.0
  3
*B84
  1

  0
TEXT
  5
4F8
100
AcDbEntity
  8
TEXT
  6
Continuous
 62
     0
100
AcDbText
 10
326.25
 20
218.666667
 30
0.0
 40
3.5
  1
2
 50
90.0
100
AcDbText
  0
TEXT
  5
4F9
100
AcDbEntity
  8
TEXT
  6
Continuous
 62
     0
100
AcDbText
 10
326.25
 20
223.75
 30
0.0
 40
3.5
  1
Szabad l÷ket
 50
90.0
100
AcDbText
  0
ENDBLK
  5
4FA
100
AcDbEntity
  8
0
100
AcDbBlockEnd
  0
BLOCK
  5
4FD
100
AcDbEntity
  8
0
100
AcDbBlockBegin
  2
*B85
 70
     0
 10
0.0
 20
0.0
 30
0.0
  3
*B85
  1

  0
TEXT
  5
4FE
100
AcDbEntity
  8
TEXT
  6
Continuous
 62
     0
100
AcDbText
 10
268.428207
 20
150.75
 30
0.0
 40
3.5
  1
16
100
AcDbText
  0
ENDBLK
  5
4FF
100
AcDbEntity
  8
0
100
AcDbBlockEnd
  0
BLOCK
  5
502
100
AcDbEntity
  8
0
100
AcDbBlockBegin
  2
*B86
 70
     0
 10
0.0
 20
0.0
 30
0.0
  3
*B86
  1

  0
TEXT
  5
503
100
AcDbEntity
  8
TEXT
  6
Continuous
 62
     0
100
AcDbText
 10
316.25
 20
221.416667
 30
0.0
 40
3.5
  1
4
 50
90.0
100
AcDbText
  0
TEXT
  5
504
100
AcDbEntity
  8
TEXT
  6
Continuous
 62
     0
100
AcDbText
 10
316.25
 20
226.5
 30
0.0
 40
3.5
  1
Kapcsol¾ l÷ket
 50
90.0
100
AcDbText
  0
ENDBLK
  5
505
100
AcDbEntity
  8
0
100
AcDbBlockEnd
  0
BLOCK
  5
508
100
AcDbEntity
  8
0
100
AcDbBlockBegin
  2
*B87
 70
     0
 10
0.0
 20
0.0
 30
0.0
  3
*B87
  1

  0
TEXT
  5
509
100
AcDbEntity
  8
TEXT
  6
Continuous
 62
     0
100
AcDbText
 10
336.25
 20
183.266304
 30
0.0
 40
3.5
  1
26
 50
90.0
100
AcDbText
  0
ENDBLK
  5
50A
100
AcDbEntity
  8
0
100
AcDbBlockEnd
  0
BLOCK
  5
50D
100
AcDbEntity
  8
0
100
AcDbBlockBegin
  2
*B88
 70
     0
 10
0.0
 20
0.0
 30
0.0
  3
*B88
  1

  0
TEXT
  5
50E
100
AcDbEntity
  8
TEXT
  6
Continuous
 62
     0
100
AcDbText
 10
231.25
 20
173.383333
 30
0.0
 40
3.5
  1
%%c4,5
 50
90.0
100
AcDbText
  0
ENDBLK
  5
50F
100
AcDbEntity
  8
0
100
AcDbBlockEnd
  0
ENDSEC
  0
SECTION
  2
ENTITIES
  0
INSERT
  5
18D
100
AcDbEntity
  8
0
  6
Continuous
 62
   174
100
AcDbBlockReference
  2
*B1
 10
0.0
 20
0.0
 30
0.0
  0
INSERT
  5
194
100
AcDbEntity
  8
0
  6
Continuous
 62
    52
100
AcDbBlockReference
  2
*B2
 10
0.0
 20
0.0
 30
0.0
  0
INSERT
  5
2F7
100
AcDbEntity
  8
0
  6
Continuous
 62
   174
100
AcDbBlockReference
  2
*B3
 10
0.0
 20
0.0
 30
0.0
  0
INSERT
  5
2FE
100
AcDbEntity
  8
0
  6
Continuous
 62
     0
100
AcDbBlockReference
  2
*B4
 10
0.0
 20
0.0
 30
0.0
  0
INSERT
  5
305
100
AcDbEntity
  8
0
  6
Continuous
 62
     0
100
AcDbBlockReference
  2
*B5
 10
0.0
 20
0.0
 30
0.0
  0
INSERT
  5
30C
100
AcDbEntity
  8
0
  6
Continuous
 62
     0
100
AcDbBlockReference
  2
*B6
 10
0.0
 20
0.0
 30
0.0
  0
INSERT
  5
313
100
AcDbEntity
  8
0
  6
Continuous
 62
     0
100
AcDbBlockReference
  2
*B7
 10
0.0
 20
0.0
 30
0.0
  0
INSERT
  5
31A
100
AcDbEntity
  8
0
  6
Continuous
 62
     0
100
AcDbBlockReference
  2
*B8
 10
0.0
 20
0.0
 30
0.0
  0
INSERT
  5
321
100
AcDbEntity
  8
0
  6
Continuous
 62
     0
100
AcDbBlockReference
  2
*B9
 10
0.0
 20
0.0
 30
0.0
  0
INSERT
  5
328
100
AcDbEntity
  8
0
  6
Continuous
 62
     0
100
AcDbBlockReference
  2
*B10
 10
0.0
 20
0.0
 30
0.0
  0
INSERT
  5
32F
100
AcDbEntity
  8
0
  6
Continuous
 62
     0
100
AcDbBlockReference
  2
*B11
 10
0.0
 20
0.0
 30
0.0
  0
INSERT
  5
336
100
AcDbEntity
  8
0
  6
Continuous
 62
     0
100
AcDbBlockReference
  2
*B12
 10
0.0
 20
0.0
 30
0.0
  0
INSERT
  5
33D
100
AcDbEntity
  8
0
  6
Continuous
 62
     0
100
AcDbBlockReference
  2
*B13
 10
0.0
 20
0.0
 30
0.0
  0
INSERT
  5
344
100
AcDbEntity
  8
0
  6
Continuous
 62
     0
100
AcDbBlockReference
  2
*B14
 10
0.0
 20
0.0
 30
0.0
  0
INSERT
  5
34B
100
AcDbEntity
  8
0
  6
Continuous
 62
     0
100
AcDbBlockReference
  2
*B15
 10
0.0
 20
0.0
 30
0.0
  0
INSERT
  5
352
100
AcDbEntity
  8
0
  6
Continuous
 62
     0
100
AcDbBlockReference
  2
*B16
 10
0.0
 20
0.0
 30
0.0
  0
INSERT
  5
359
100
AcDbEntity
  8
0
  6
Continuous
 62
     0
100
AcDbBlockReference
  2
*B17
 10
0.0
 20
0.0
 30
0.0
  0
INSERT
  5
360
100
AcDbEntity
  8
0
  6
Continuous
 62
     0
100
AcDbBlockReference
  2
*B18
 10
0.0
 20
0.0
 30
0.0
  0
INSERT
  5
367
100
AcDbEntity
  8
0
  6
Continuous
 62
     0
100
AcDbBlockReference
  2
*B19
 10
0.0
 20
0.0
 30
0.0
  0
INSERT
  5
36E
100
AcDbEntity
  8
0
  6
Continuous
 62
     0
100
AcDbBlockReference
  2
*B20
 10
0.0
 20
0.0
 30
0.0
  0
INSERT
  5
375
100
AcDbEntity
  8
0
  6
Continuous
 62
     0
100
AcDbBlockReference
  2
*B21
 10
0.0
 20
0.0
 30
0.0
  0
INSERT
  5
37E
100
AcDbEntity
  8
0
  6
Continuous
 62
     8
100
AcDbBlockReference
  2
*B22
 10
0.0
 20
0.0
 30
0.0
  0
INSERT
  5
384
100
AcDbEntity
  8
0
  6
Continuous
 62
     8
100
AcDbBlockReference
  2
*B23
 10
0.0
 20
0.0
 30
0.0
  0
INSERT
  5
38F
100
AcDbEntity
  8
0
  6
Continuous
 62
     8
100
AcDbBlockReference
  2
*B24
 10
0.0
 20
0.0
 30
0.0
  0
INSERT
  5
394
100
AcDbEntity
  8
0
  6
Continuous
 62
     8
100
AcDbBlockReference
  2
*B25
 10
0.0
 20
0.0
 30
0.0
  0
INSERT
  5
39B
100
AcDbEntity
  8
0
  6
Continuous
 62
     8
100
AcDbBlockReference
  2
*B26
 10
0.0
 20
0.0
 30
0.0
  0
INSERT
  5
3A1
100
AcDbEntity
  8
0
  6
Continuous
 62
     8
100
AcDbBlockReference
  2
*B27
 10
0.0
 20
0.0
 30
0.0
  0
INSERT
  5
3A7
100
AcDbEntity
  8
0
  6
Continuous
 62
     8
100
AcDbBlockReference
  2
*B28
 10
0.0
 20
0.0
 30
0.0
  0
INSERT
  5
3AD
100
AcDbEntity
  8
0
  6
Continuous
 62
     8
100
AcDbBlockReference
  2
*B29
 10
0.0
 20
0.0
 30
0.0
  0
INSERT
  5
3B3
100
AcDbEntity
  8
0
  6
Continuous
 62
     8
100
AcDbBlockReference
  2
*B30
 10
0.0
 20
0.0
 30
0.0
  0
INSERT
  5
3B8
100
AcDbEntity
  8
0
  6
Continuous
 62
     8
100
AcDbBlockReference
  2
*B31
 10
0.0
 20
0.0
 30
0.0
  0
INSERT
  5
3BD
100
AcDbEntity
  8
0
  6
Continuous
 62
     8
100
AcDbBlockReference
  2
*B32
 10
0.0
 20
0.0
 30
0.0
  0
INSERT
  5
3C3
100
AcDbEntity
  8
0
  6
Continuous
 62
     8
100
AcDbBlockReference
  2
*B33
 10
0.0
 20
0.0
 30
0.0
  0
INSERT
  5
3C9
100
AcDbEntity
  8
0
  6
Continuous
 62
     8
100
AcDbBlockReference
  2
*B34
 10
0.0
 20
0.0
 30
0.0
  0
INSERT
  5
3CE
100
AcDbEntity
  8
0
  6
Continuous
 62
     8
100
AcDbBlockReference
  2
*B35
 10
0.0
 20
0.0
 30
0.0
  0
INSERT
  5
3D3
100
AcDbEntity
  8
0
  6
Continuous
 62
     8
100
AcDbBlockReference
  2
*B36
 10
0.0
 20
0.0
 30
0.0
  0
INSERT
  5
3D8
100
AcDbEntity
  8
0
  6
Continuous
 62
     8
100
AcDbBlockReference
  2
*B37
 10
0.0
 20
0.0
 30
0.0
  0
INSERT
  5
3DE
100
AcDbEntity
  8
0
  6
Continuous
 62
     8
100
AcDbBlockReference
  2
*B38
 10
0.0
 20
0.0
 30
0.0
  0
INSERT
  5
3E3
100
AcDbEntity
  8
0
  6
Continuous
 62
     8
100
AcDbBlockReference
  2
*B39
 10
0.0
 20
0.0
 30
0.0
  0
INSERT
  5
3E9
100
AcDbEntity
  8
0
  6
Continuous
 62
     8
100
AcDbBlockReference
  2
*B40
 10
0.0
 20
0.0
 30
0.0
  0
INSERT
  5
3F7
100
AcDbEntity
  8
0
  6
Continuous
 62
     8
100
AcDbBlockReference
  2
*B41
 10
0.0
 20
0.0
 30
0.0
  0
INSERT
  5
3FD
100
AcDbEntity
  8
0
  6
Continuous
 62
     8
100
AcDbBlockReference
  2
*B42
 10
0.0
 20
0.0
 30
0.0
  0
INSERT
  5
402
100
AcDbEntity
  8
0
  6
Continuous
 62
     8
100
AcDbBlockReference
  2
*B43
 10
0.0
 20
0.0
 30
0.0
  0
INSERT
  5
407
100
AcDbEntity
  8
0
  6
Continuous
 62
     8
100
AcDbBlockReference
  2
*B44
 10
0.0
 20
0.0
 30
0.0
  0
INSERT
  5
40C
100
AcDbEntity
  8
0
  6
Continuous
 62
     8
100
AcDbBlockReference
  2
*B45
 10
0.0
 20
0.0
 30
0.0
  0
INSERT
  5
414
100
AcDbEntity
  8
0
  6
Continuous
 62
     8
100
AcDbBlockReference
  2
*B46
 10
0.0
 20
0.0
 30
0.0
  0
INSERT
  5
41C
100
AcDbEntity
  8
0
  6
Continuous
 62
     8
100
AcDbBlockReference
  2
*B47
 10
0.0
 20
0.0
 30
0.0
  0
INSERT
  5
422
100
AcDbEntity
  8
0
  6
Continuous
 62
     8
100
AcDbBlockReference
  2
*B48
 10
0.0
 20
0.0
 30
0.0
  0
INSERT
  5
437
100
AcDbEntity
  8
0
  6
Continuous
 62
     8
100
AcDbBlockReference
  2
*B49
 10
0.0
 20
0.0
 30
0.0
  0
INSERT
  5
43C
100
AcDbEntity
  8
0
  6
Continuous
 62
     8
100
AcDbBlockReference
  2
*B50
 10
0.0
 20
0.0
 30
0.0
  0
INSERT
  5
444
100
AcDbEntity
  8
0
  6
Continuous
 62
     8
100
AcDbBlockReference
  2
*B51
 10
0.0
 20
0.0
 30
0.0
  0
INSERT
  5
449
100
AcDbEntity
  8
0
  6
Continuous
 62
     8
100
AcDbBlockReference
  2
*B52
 10
0.0
 20
0.0
 30
0.0
  0
INSERT
  5
44E
100
AcDbEntity
  8
0
  6
Continuous
 62
     8
100
AcDbBlockReference
  2
*B53
 10
0.0
 20
0.0
 30
0.0
  0
INSERT
  5
457
100
AcDbEntity
  8
0
  6
Continuous
 62
     8
100
AcDbBlockReference
  2
*B54
 10
0.0
 20
0.0
 30
0.0
  0
INSERT
  5
45F
100
AcDbEntity
  8
0
  6
Continuous
 62
     8
100
AcDbBlockReference
  2
*B55
 10
0.0
 20
0.0
 30
0.0
  0
INSERT
  5
467
100
AcDbEntity
  8
0
  6
Continuous
 62
     8
100
AcDbBlockReference
  2
*B56
 10
0.0
 20
0.0
 30
0.0
  0
INSERT
  5
46C
100
AcDbEntity
  8
0
  6
Continuous
 62
     8
100
AcDbBlockReference
  2
*B57
 10
0.0
 20
0.0
 30
0.0
  0
INSERT
  5
471
100
AcDbEntity
  8
0
  6
Continuous
 62
     8
100
AcDbBlockReference
  2
*B58
 10
0.0
 20
0.0
 30
0.0
  0
INSERT
  5
477
100
AcDbEntity
  8
0
  6
Continuous
 62
     6
100
AcDbBlockReference
  2
*B59
 10
0.0
 20
0.0
 30
0.0
  0
INSERT
  5
47D
100
AcDbEntity
  8
0
  6
Continuous
 62
     6
100
AcDbBlockReference
  2
*B60
 10
0.0
 20
0.0
 30
0.0
  0
INSERT
  5
483
100
AcDbEntity
  8
0
  6
Continuous
 62
     6
100
AcDbBlockReference
  2
*B61
 10
0.0
 20
0.0
 30
0.0
  0
INSERT
  5
489
100
AcDbEntity
  8
0
  6
Continuous
 62
     6
100
AcDbBlockReference
  2
*B62
 10
0.0
 20
0.0
 30
0.0
  0
INSERT
  5
48F
100
AcDbEntity
  8
0
  6
Continuous
 62
     6
100
AcDbBlockReference
  2
*B63
 10
0.0
 20
0.0
 30
0.0
  0
INSERT
  5
495
100
AcDbEntity
  8
0
  6
Continuous
 62
     6
100
AcDbBlockReference
  2
*B64
 10
0.0
 20
0.0
 30
0.0
  0
INSERT
  5
49B
100
AcDbEntity
  8
0
  6
Continuous
 62
     6
100
AcDbBlockReference
  2
*B65
 10
0.0
 20
0.0
 30
0.0
  0
INSERT
  5
4A0
100
AcDbEntity
  8
TEXT
  6
Continuous
 62
     0
100
AcDbBlockReference
  2
*B66
 10
0.0
 20
0.0
 30
0.0
  0
INSERT
  5
4A5
100
AcDbEntity
  8
TEXT
  6
Continuous
 62
     0
100
AcDbBlockReference
  2
*B67
 10
0.0
 20
0.0
 30
0.0
  0
INSERT
  5
4AA
100
AcDbEntity
  8
TEXT
  6
Continuous
 62
     0
100
AcDbBlockReference
  2
*B68
 10
0.0
 20
0.0
 30
0.0
  0
INSERT
  5
4AF
100
AcDbEntity
  8
TEXT
  6
Continuous
 62
     0
100
AcDbBlockReference
  2
*B69
 10
0.0
 20
0.0
 30
0.0
  0
INSERT
  5
4B4
100
AcDbEntity
  8
TEXT
  6
Continuous
 62
     0
100
AcDbBlockReference
  2
*B70
 10
0.0
 20
0.0
 30
0.0
  0
INSERT
  5
4B9
100
AcDbEntity
  8
TEXT
  6
Continuous
 62
     0
100
AcDbBlockReference
  2
*B71
 10
0.0
 20
0.0
 30
0.0
  0
INSERT
  5
4BE
100
AcDbEntity
  8
TEXT
  6
Continuous
 62
     0
100
AcDbBlockReference
  2
*B72
 10
0.0
 20
0.0
 30
0.0
  0
INSERT
  5
4C3
100
AcDbEntity
  8
TEXT
  6
Continuous
 62
     0
100
AcDbBlockReference
  2
*B73
 10
0.0
 20
0.0
 30
0.0
  0
INSERT
  5
4C8
100
AcDbEntity
  8
TEXT
  6
Continuous
 62
     0
100
AcDbBlockReference
  2
*B74
 10
0.0
 20
0.0
 30
0.0
  0
INSERT
  5
4CD
100
AcDbEntity
  8
TEXT
  6
Continuous
 62
     0
100
AcDbBlockReference
  2
*B75
 10
0.0
 20
0.0
 30
0.0
  0
INSERT
  5
4D2
100
AcDbEntity
  8
TEXT
  6
Continuous
 62
     0
100
AcDbBlockReference
  2
*B76
 10
0.0
 20
0.0
 30
0.0
  0
INSERT
  5
4D7
100
AcDbEntity
  8
TEXT
  6
Continuous
 62
     0
100
AcDbBlockReference
  2
*B77
 10
0.0
 20
0.0
 30
0.0
  0
INSERT
  5
4DC
100
AcDbEntity
  8
TEXT
  6
Continuous
 62
     0
100
AcDbBlockReference
  2
*B78
 10
0.0
 20
0.0
 30
0.0
  0
INSERT
  5
4E1
100
AcDbEntity
  8
TEXT
  6
Continuous
 62
     0
100
AcDbBlockReference
  2
*B79
 10
0.0
 20
0.0
 30
0.0
  0
INSERT
  5
4E6
100
AcDbEntity
  8
TEXT
  6
Continuous
 62
     0
100
AcDbBlockReference
  2
*B80
 10
0.0
 20
0.0
 30
0.0
  0
INSERT
  5
4EB
100
AcDbEntity
  8
TEXT
  6
Continuous
 62
     0
100
AcDbBlockReference
  2
*B81
 10
0.0
 20
0.0
 30
0.0
  0
INSERT
  5
4F0
100
AcDbEntity
  8
TEXT
  6
Continuous
 62
     0
100
AcDbBlockReference
  2
*B82
 10
0.0
 20
0.0
 30
0.0
  0
INSERT
  5
4F5
100
AcDbEntity
  8
TEXT
  6
Continuous
 62
     0
100
AcDbBlockReference
  2
*B83
 10
0.0
 20
0.0
 30
0.0
  0
INSERT
  5
4FB
100
AcDbEntity
  8
TEXT
  6
Continuous
 62
     0
100
AcDbBlockReference
  2
*B84
 10
0.0
 20
0.0
 30
0.0
  0
INSERT
  5
500
100
AcDbEntity
  8
TEXT
  6
Continuous
 62
     0
100
AcDbBlockReference
  2
*B85
 10
0.0
 20
0.0
 30
0.0
  0
INSERT
  5
506
100
AcDbEntity
  8
TEXT
  6
Continuous
 62
     0
100
AcDbBlockReference
  2
*B86
 10
0.0
 20
0.0
 30
0.0
  0
INSERT
  5
50B
100
AcDbEntity
  8
TEXT
  6
Continuous
 62
     0
100
AcDbBlockReference
  2
*B87
 10
0.0
 20
0.0
 30
0.0
  0
INSERT
  5
510
100
AcDbEntity
  8
TEXT
  6
Continuous
 62
     0
100
AcDbBlockReference
  2
*B88
 10
0.0
 20
0.0
 30
0.0
  0
ENDSEC
  0
SECTION
  2
OBJECTS
  0
DICTIONARY
  5
19
100
AcDbDictionary
280
     0
281
     1
  3
ACAD_GROUP
350
1A
  3
ACAD_MLINESTYLE
350
1B
  3
ACAD_LAYOUT
350
1E
  3
ACAD_PLOTSETTINGS
350
22
  3
ACAD_PLOTSTYLENAME
350
1F
  3
ACAD_WIPEOUT_VARS
350
23
  0
DICTIONARY
  5
1A
102
{ACAD_REACTORS
330
19
102
}
100
AcDbDictionary
280
     0
281
     1
  0
DICTIONARY
  5
1B
102
{ACAD_REACTORS
330
19
102
}
100
AcDbDictionary
280
     0
281
     1
  3
Standard
350
1C
  0
MLINESTYLE
  5
1C
102
{ACAD_REACTORS
330
1B
102
}
100
AcDbMlineStyle
  2
Standard
 70
     0
  3

 62
     0
 51
90.0
 52
90.0
 71
     2
 49
0.5
 62
   256
  6
BYLAYER
 49
-0.5
 62
   256
  6
BYLAYER
  0
ACDBDICTIONARYWDFLT
  5
1F
102
{ACAD_REACTORS
330
19
102
}
100
AcDbDictionary
281
     1
  3
Normal
350
1D
100
AcDbDictionaryWithDefault
340
1D
  0
ACDBPLACEHOLDER
  5
1D
102
{ACAD_REACTORS
330
1F
102
}
  0
LAYOUT
  5
20
102
{ACAD_REACTORS
330
1E
102
}
100
AcDbPlotSettings
  1

  2

  4

  6

 40
0.0
 41
0.0
 42
0.0
 43
0.0
 44
0.0
 45
0.0
 46
0.0
 47
0.0
 48
0.0
 49
0.0
140
0.0
141
0.0
142
1.0
143
1.0
 70
     0
 72
     0
 73
     0
 74
     0
  7

 75
     0
147
1.0
148
0.0
149
0.0
100
AcDbLayout
  1
Model
 70
     0
 71
     0
 10
0.0
 20
0.0
 11
0.0
 21
0.0
 12
0.0
 22
0.0
 32
0.0
 14
0.0
 24
0.0
 34
0.0
 15
0.0
 25
0.0
 35
0.0
146
0.0
 13
0.0
 23
0.0
 33
0.0
 16
0.0
 26
0.0
 36
0.0
 17
0.0
 27
0.0
 37
0.0
 76
     0
330
A
331
0
345
0
346
0
  0
LAYOUT
  5
21
102
{ACAD_REACTORS
330
1E
102
}
100
AcDbPlotSettings
  1

  2

  4

  6

 40
0.0
 41
0.0
 42
0.0
 43
0.0
 44
0.0
 45
0.0
 46
0.0
 47
0.0
 48
0.0
 49
0.0
140
0.0
141
0.0
142
1.0
143
1.0
 70
     0
 72
     0
 73
     0
 74
     0
  7

 75
     0
147
1.0
148
0.0
149
0.0
100
AcDbLayout
  1
Layout1
 70
     0
 71
     0
 10
0.0
 20
0.0
 11
0.0
 21
0.0
 12
0.0
 22
0.0
 32
0.0
 14
0.0
 24
0.0
 34
0.0
 15
0.0
 25
0.0
 35
0.0
146
0.0
 13
0.0
 23
0.0
 33
0.0
 16
0.0
 26
0.0
 36
0.0
 17
0.0
 27
0.0
 37
0.0
 76
     0
330
B
331
0
345
0
346
0
  0
DICTIONARY
  5
1E
102
{ACAD_REACTORS
330
19
102
}
100
AcDbDictionary
280
     0
281
     1
  3
Layout1
350
21
  3
Model
350
20
  0
DICTIONARY
  5
22
102
{ACAD_REACTORS
330
19
102
}
100
AcDbDictionary
280
     0
281
     1
  0
WIPEOUTVARIABLES
  5
23
100
AcDbWipeoutVariables
 70
     1
  0
ENDSEC
  0
EOF
