  0
SECTION
  2
HEADER
  9
$ACADVER
  1
AC1015
  9
$ACADMAINTVER
 70
     6
  9
$DWGCODEPAGE
  3
DOS850
  9
$INSBASE
 10
0.0
 20
0.0
 30
0.0
  9
$EXTMIN
 10
0.0
 20
0.0
 30
0.0
  9
$EXTMAX
 10
297.0
 20
210.0
 30
0.0
  9
$LIMMIN
 10
0.0
 20
0.0
  9
$LIMMAX
 10
297.0
 20
210.0
  9
$ORTHOMODE
 70
     0
  9
$REGENMODE
 70
     1
  9
$FILLMODE
 70
     1
  9
$QTEXTMODE
 70
     0
  9
$MIRRTEXT
 70
     1
  9
$LTSCALE
 40
25.4
  9
$ATTMODE
 70
     1
  9
$TEXTSIZE
 40
3.5
  9
$TRACEWID
 40
0.05
  9
$TEXTSTYLE
  7
Standard
  9
$CLAYER
  8
0
  9
$CELTYPE
  6
Continuous
  9
$CECOLOR
 62
   256
  9
$CELTSCALE
 40
1.0
  9
$DISPSILH
 70
     0
  9
$DIMSCALE
 40
1.0
  9
$DIMASZ
 40
5.0
  9
$DIMEXO
 40
3.0
  9
$DIMDLI
 40
0.38
  9
$DIMRND
 40
0.0
  9
$DIMDLE
 40
0.0
  9
$DIMEXE
 40
2.0
  9
$DIMTP
 40
0.0
  9
$DIMTM
 40
0.0
  9
$DIMTXT
 40
3.5
  9
$DIMCEN
 40
4.0
  9
$DIMTSZ
 40
0.0
  9
$DIMTOL
 70
     0
  9
$DIMLIM
 70
     0
  9
$DIMTIH
 70
     1
  9
$DIMTOH
 70
     1
  9
$DIMSE1
 70
     0
  9
$DIMSE2
 70
     0
  9
$DIMTAD
 70
     0
  9
$DIMZIN
 70
     0
  9
$DIMBLK
  1

  9
$DIMASO
 70
     1
  9
$DIMSHO
 70
     1
  9
$DIMPOST
  1

  9
$DIMAPOST
  1

  9
$DIMALT
 70
     0
  9
$DIMALTD
 70
     2
  9
$DIMALTF
 40
25.4
  9
$DIMLFAC
 40
1.0
  9
$DIMTOFL
 70
     0
  9
$DIMTVP
 40
0.0
  9
$DIMTIX
 70
     0
  9
$DIMSOXD
 70
     0
  9
$DIMSAH
 70
     0
  9
$DIMBLK1
  1

  9
$DIMBLK2
  1

  9
$DIMSTYLE
  2
Standard
  9
$DIMCLRD
 70
     0
  9
$DIMCLRE
 70
     0
  9
$DIMCLRT
 70
     0
  9
$DIMTFAC
 40
1.0
  9
$DIMGAP
 40
1.0
  9
$DIMJUST
 70
     0
  9
$DIMSD1
 70
     0
  9
$DIMSD2
 70
     0
  9
$DIMTOLJ
 70
     1
  9
$DIMTZIN
 70
     0
  9
$DIMALTZ
 70
     0
  9
$DIMALTTZ
 70
     0
  9
$DIMUPT
 70
     0
  9
$DIMDEC
 70
     4
  9
$DIMTDEC
 70
     4
  9
$DIMALTU
 70
     2
  9
$DIMALTTD
 70
     2
  9
$DIMTXSTY
  7
Standard
  9
$DIMAUNIT
 70
     0
  9
$DIMADEC
 70
     0
  9
$DIMALTRND
 40
0.0
  9
$DIMAZIN
 70
     0
  9
$DIMDSEP
 70
     0
  9
$DIMATFIT
 70
     3
  9
$DIMFRAC
 70
     0
  9
$DIMLDRBLK
  1

  9
$DIMLUNIT
 70
     2
  9
$DIMLWD
 70
     0
  9
$DIMLWE
 70
     0
  9
$DIMTMOVE
 70
     0
  9
$LUNITS
 70
     2
  9
$LUPREC
 70
     4
  9
$SKETCHINC
 40
0.1
  9
$FILLETRAD
 40
0.0
  9
$AUNITS
 70
     0
  9
$AUPREC
 70
     0
  9
$MENU
  1
acad
  9
$ELEVATION
 40
0.0
  9
$PELEVATION
 40
0.0
  9
$THICKNESS
 40
0.0
  9
$LIMCHECK
 70
     0
  9
$CHAMFERA
 40
0.0
  9
$CHAMFERB
 40
0.0
  9
$CHAMFERC
 40
0.0
  9
$CHAMFERD
 40
0.0
  9
$SKPOLY
 70
     0
  9
$TDCREATE
 40
0.000000000
  9
$TDUCREATE
 40
0.000000000
  9
$TDUPDATE
 40
0.000000000
  9
$TDUUPDATE
 40
0.000000000
  9
$TDINDWG
 40
0.0000000000
  9
$TDUSRTIMER
 40
0.0000000000
  9
$USRTIMER
 70
     1
  9
$ANGBASE
 50
0.0
  9
$ANGDIR
 70
     0
  9
$PDMODE
 70
     0
  9
$PDSIZE
 40
0.0
  9
$PLINEWID
 40
0.0
  9
$SPLFRAME
 70
     0
  9
$SPLINETYPE
 70
     6
  9
$SPLINESEGS
 70
     8
  9
$HANDSEED
  5
8A6
  9
$SURFTAB1
 70
     6
  9
$SURFTAB2
 70
     6
  9
$SURFTYPE
 70
     6
  9
$SURFU
 70
     6
  9
$SURFV
 70
     6
  9
$UCSBASE
  2

  9
$UCSNAME
  2

  9
$UCSORG
 10
0.0
 20
0.0
 30
0.0
  9
$UCSXDIR
 10
1.0
 20
0.0
 30
0.0
  9
$UCSYDIR
 10
0.0
 20
1.0
 30
0.0
  9
$UCSORTHOREF
  2

  9
$UCSORTHOVIEW
 70
     0
  9
$UCSORGTOP
 10
0.0
 20
0.0
 30
0.0
  9
$UCSORGBOTTOM
 10
0.0
 20
0.0
 30
0.0
  9
$UCSORGLEFT
 10
0.0
 20
0.0
 30
0.0
  9
$UCSORGRIGHT
 10
0.0
 20
0.0
 30
0.0
  9
$UCSORGFRONT
 10
0.0
 20
0.0
 30
0.0
  9
$UCSORGBACK
 10
0.0
 20
0.0
 30
0.0
  9
$PUCSBASE
  2

  9
$PUCSNAME
  2

  9
$PUCSORG
 10
0.0
 20
0.0
 30
0.0
  9
$PUCSXDIR
 10
1.0
 20
0.0
 30
0.0
  9
$PUCSYDIR
 10
0.0
 20
1.0
 30
0.0
  9
$PUCSORTHOREF
  2

  9
$PUCSORTHOVIEW
 70
     0
  9
$PUCSORGTOP
 10
0.0
 20
0.0
 30
0.0
  9
$PUCSORGBOTTOM
 10
0.0
 20
0.0
 30
0.0
  9
$PUCSORGLEFT
 10
0.0
 20
0.0
 30
0.0
  9
$PUCSORGRIGHT
 10
0.0
 20
0.0
 30
0.0
  9
$PUCSORGFRONT
 10
0.0
 20
0.0
 30
0.0
  9
$PUCSORGBACK
 10
0.0
 20
0.0
 30
0.0
  9
$USERI1
 70
     0
  9
$USERI2
 70
     0
  9
$USERI3
 70
     0
  9
$USERI4
 70
     0
  9
$USERI5
 70
     0
  9
$USERR1
 40
0.0
  9
$USERR2
 40
0.0
  9
$USERR3
 40
0.0
  9
$USERR4
 40
0.0
  9
$USERR5
 40
0.0
  9
$WORLDVIEW
 70
     1
  9
$SHADEDGE
 70
     3
  9
$SHADEDIF
 70
    70
  9
$TILEMODE
 70
     1
  9
$MAXACTVP
 70
    16
  9
$PINSBASE
 10
0.0
 20
0.0
 30
0.0
  9
$PLIMCHECK
 70
     0
  9
$PEXTMIN
 10
1.000000E+20
 20
1.000000E+20
 30
1.000000E+20
  9
$PEXTMAX
 10
-1.000000E+20
 20
-1.000000E+20
 30
-1.000000E+20
  9
$PLIMMIN
 10
0.0
 20
0.0
  9
$PLIMMAX
 10
297.0
 20
210.0
  9
$UNITMODE
 70
     0
  9
$VISRETAIN
 70
     0
  9
$PLINEGEN
 70
     1
  9
$PSLTSCALE
 70
     0
  9
$TREEDEPTH
 70
  3020
  9
$CMLSTYLE
  2
Standard
  9
$CMLJUST
 70
     0
  9
$CMLSCALE
 40
1.0
  9
$PROXYGRAPHICS
 70
     0
  9
$MEASUREMENT
 70
     0
  9
$CELWEIGHT
370
     0
  9
$ENDCAPS
280
     0
  9
$JOINSTYLE
280
     0
  9
$LWDISPLAY
290
     0
  9
$INSUNITS
 70
     0
  9
$HYPERLINKBASE
  1

  9
$XEDIT
290
     1
  9
$CEPSNTYPE
380
     0
  9
$PSTYLEMODE
290
     0
  9
$FINGERPRINTGUID
  2

  9
$VERSIONGUID
  2

  9
$EXTNAMES
290
     1
  9
$PSVPSCALE
 40
0.0
  0
ENDSEC
  0
SECTION
  2
CLASSES
  0
CLASS
  1
LWPOLYLINE
  2
AcDbPolyline
  3
"AutoCAD"
 90
        0
280
     0
281
     1
  0
CLASS
  1
IMAGE
  2
AcDbRasterImage
  3
ISM
 90
      127
280
     0
281
     1
  0
CLASS
  1
OLE2FRAME
  2
AcDbOle2Frame
  3
""
 90
        0
280
     0
281
     1
  0
CLASS
  1
HATCH
  2
AcDbHatch
  3
"ACAD_SEDONA"
 90
        0
280
     0
281
     1
  0
CLASS
  1
DICTIONARYVAR
  2
AcDbDictionaryVar
  3
"AutoCAD"
 90
        0
280
     0
281
     0
  0
CLASS
  1
RASTERVARIABLES
  2
AcDbRasterVariables
  3
ISM
 90
        0
280
     0
281
     0
  0
CLASS
  1
IMAGEDEF
  2
AcDbRasterImageDef
  3
ISM
 90
        0
280
     0
281
     0
  0
CLASS
  1
IMAGEDEF_REACTOR
  2
AcDbRasterImageDefReactor
  3
ISM
 90
        1
280
     0
281
     0
  0
CLASS
  1
IDBUFFER
  2
AcDbIdBuffer
  3
"Acad"
 90
        0
280
     0
281
     0
  0
CLASS
  1
SPATIAL_FILTER
  2
AcDbSpatialFilter
  3
"Acad"
 90
        0
280
     0
281
     0
  0
CLASS
  1
XRECORD
  2
AcDbXrecord
  3
"<Built In>"
 90
        0
280
     0
281
     0
  0
CLASS
  1
SORTENTSTABLE
  2
AcDbSortentsTable
  3
"AutoCAD"
 90
        0
280
     0
281
     0
  0
CLASS
  1
LAYER_INDEX
  2
AcDbLayerIndex
  3
"Acad"
 90
        0
280
     0
281
     0
  0
CLASS
  1
SPATIAL_INDEX
  2
AcDbSpatialIndex
  3
"Acad"
 90
        0
280
     0
281
     0
  0
CLASS
  1
OBJECT_PTR
  2
CAseDLPNTableRecord
  3
"ASE-LPNTableRecord"
 90
        1
280
     0
281
     0
  0
CLASS
  1
LAYOUT
  2
AcDbLayout
  3
"AutoCAD 2000"
 90
        1
280
     0
281
     0
  0
CLASS
  1
PLOTSETTINGS
  2
AcDbPlotSettings
  3
"AutoCAD 2000"
 90
        1
280
     0
281
     0
  0
CLASS
  1
ACDBDICTIONARYWDFLT
  2
AcDbDictionaryWithDefault
  3
"AutoCAD 2000"
 90
        1
280
     0
281
     0
  0
CLASS
  1
ACDBPLACEHOLDER
  2
AcDbPlaceHolder
  3
"AutoCAD 2000"
 90
        1
280
     0
281
     0
  0
CLASS
  1
VBA_PROJECT
  2
AcDbVbaProject
  3
"acadvba"
 90
        1
280
     0
281
     0
  0
CLASS
  1
WIPEOUT
  2
AcDbWipeout
  3
WipeOut|AutoCAD Express Tool|expresstools@autodesk.com
 90
      127
280
     0
281
     1
  0
CLASS
  1
WIPEOUTVARIABLES
  2
AcDbWipeoutVariables
  3
WipeOut|AutoCAD Express Tool|expresstools@autodesk.com
 90
        0
280
     0
281
     0
  0
CLASS
  1
RTEXT
  2
RText
  3
RText|AutoCAD Express Tool|expresstools@autodesk.com
 90
        0
280
     0
281
     1
  0
CLASS
  1
ARCALIGNEDTEXT
  2
AcDbArcAlignedText
  3
ATEXT|AutoCAD Express Tool|expresstools@autodesk.com
 90
        0
280
     0
281
     1
  0
ENDSEC
  0
SECTION
  2
TABLES
  0
TABLE
  2
VPORT
  5
7
100
AcDbSymbolTable
 70
     1
  0
VPORT
  5
15
100
AcDbSymbolTableRecord
100
AcDbViewportTableRecord
  2
*ACTIVE
 70
     0
 10
0.0
 20
0.0
 11
1.0
 21
1.0
 12
6.591288
 22
4.579184
 13
0.0
 23
0.0
 14
1.0
 24
1.0
 15
0.0
 25
0.0
 16
0.0
 26
0.0
 36
1.0
 17
0.0
 27
0.0
 37
0.0
 40
9.158369
 41
0.688564
 42
50.0
 43
0.0
 44
0.0
 50
0.0
 51
0.0
 71
     0
 72
   100
 73
     1
 74
     1
 75
     0
 76
     0
 77
     0
 78
     0
281
     0
 65
     0
110
0.0
120
0.0
130
0.0
111
1.0
121
0.0
131
0.0
112
0.0
122
1.0
132
0.0
345
0
346
0
 79
     0
146
0.0
  0
ENDTAB
  0
TABLE
  2
LTYPE
  5
4
100
AcDbSymbolTable
 70
     7
  0
LTYPE
  5
11
100
AcDbSymbolTableRecord
100
AcDbLinetypeTableRecord
  2
ByBlock
 70
    64
  3

 72
    65
 73
     0
 40
0.0
  0
LTYPE
  5
12
100
AcDbSymbolTableRecord
100
AcDbLinetypeTableRecord
  2
ByLayer
 70
    64
  3

 72
    65
 73
     0
 40
0.0
  0
LTYPE
  5
13
100
AcDbSymbolTableRecord
100
AcDbLinetypeTableRecord
  2
Continuous
 70
    64
  3
Solid line
 72
    65
 73
     0
 40
0.0
  0
LTYPE
  5
24
100
AcDbSymbolTableRecord
100
AcDbLinetypeTableRecord
  2
HIDDEN
 70
    64
  3
_ _ _ _ _ _ _ _ _ _ _ _ _ _ _ _ _ _ _ _ _ _ _ _
 72
    65
 73
     2
 40
0.1875
 49
0.125
 74
     0
 49
-0.0625
 74
     0
  0
LTYPE
  5
25
100
AcDbSymbolTableRecord
100
AcDbLinetypeTableRecord
  2
DOTTED
 70
    64
  3
...............................................
 72
    65
 73
     2
 40
0.125
 49
0.0
 74
     0
 49
-0.125
 74
     0
  0
LTYPE
  5
26
100
AcDbSymbolTableRecord
100
AcDbLinetypeTableRecord
  2
CENTER
 70
    64
  3
____ _ ____ _ ____ _ ____ _ ____ _ ____ _ ____ 
 72
    65
 73
     4
 40
1.125
 49
0.75
 74
     0
 49
-0.125
 74
     0
 49
0.125
 74
     0
 49
-0.125
 74
     0
  0
LTYPE
  5
27
100
AcDbSymbolTableRecord
100
AcDbLinetypeTableRecord
  2
PHANTOM
 70
    64
  3
______  __  __  ______  __  __  ______  __  __ 
 72
    65
 73
     6
 40
1.25
 49
0.625
 74
     0
 49
-0.125
 74
     0
 49
0.125
 74
     0
 49
-0.125
 74
     0
 49
0.125
 74
     0
 49
-0.125
 74
     0
  0
ENDTAB
  0
TABLE
  2
LAYER
  5
2
100
AcDbSymbolTable
 70
     2
  0
LAYER
  5
14
100
AcDbSymbolTableRecord
100
AcDbLayerTableRecord
  2
0
 70
     0
 62
     7
  6
Continuous
290
     1
370
    -3
390
1D
  0
LAYER
  5
28
100
AcDbSymbolTableRecord
100
AcDbLayerTableRecord
  2
TEXT
 70
     0
 62
     8
  6
Continuous
290
     1
370
    -3
390
1F
  0
ENDTAB
  0
TABLE
  2
STYLE
  5
3
100
AcDbSymbolTable
 70
     1
  0
STYLE
  5
17
100
AcDbSymbolTableRecord
100
AcDbTextStyleTableRecord
  2
Standard
 70
     0
 40
0.0
 41
1.0
 50
0.0
 71
     0
 42
0.0
  3
txt
  4

  0
ENDTAB
  0
TABLE
  2
VIEW
  5
5
100
AcDbSymbolTable
 70
     0
  0
ENDTAB
  0
TABLE
  2
UCS
  5
6
100
AcDbSymbolTable
 70
     0
  0
ENDTAB
  0
TABLE
  2
APPID
  5
8
100
AcDbSymbolTable
 70
     1
  0
APPID
  5
16
100
AcDbSymbolTableRecord
100
AcDbRegAppTableRecord
  2
ACAD
 70
     0
  0
ENDTAB
  0
TABLE
  2
DIMSTYLE
  5
9
100
AcDbSymbolTable
 70
     1
100
AcDbDimStyleTable
 71
     0
  0
DIMSTYLE
105
18
100
AcDbSymbolTableRecord
100
AcDbDimStyleTableRecord
  2
Standard
 70
     0
  3

  4

 40
1.0
 41
0.18
 42
0.0625
 43
0.38
 44
0.18
 45
0.0
 46
0.0
 47
0.0
 48
0.0
 71
     0
 72
     0
 73
     1
 74
     1
 75
     0
 76
     0
 77
     0
 78
     0
 79
     0
140
0.18
141
0.09
142
0.0
143
25.4
144
1.0
145
0.0
146
1.0
147
0.09
148
0.0
170
     0
171
     2
172
     0
173
     0
174
     0
175
     0
176
     0
177
     0
178
     0
179
     0
271
     4
272
     4
273
     2
274
     2
275
     0
276
     0
277
     2
278
    46
279
     0
280
     0
281
     0
282
     0
283
     1
284
     0
285
     0
286
     0
288
     0
340
17
341
0
342
0
343
0
344
0
371
    -2
372
    -2
  0
ENDTAB
  0
TABLE
  2
BLOCK_RECORD
  5
1
100
AcDbSymbolTable
 70
    80
  0
BLOCK_RECORD
  5
A
100
AcDbSymbolTableRecord
100
AcDbBlockTableRecord
  2
*MODEL_SPACE
340
20
  0
BLOCK_RECORD
  5
B
100
AcDbSymbolTableRecord
100
AcDbBlockTableRecord
  2
*PAPER_SPACE
340
21
  0
BLOCK_RECORD
  5
29
100
AcDbSymbolTableRecord
100
AcDbBlockTableRecord
  2
*B0
340
0
  0
BLOCK_RECORD
  5
2C
100
AcDbSymbolTableRecord
100
AcDbBlockTableRecord
  2
*B1
340
0
  0
BLOCK_RECORD
  5
2F
100
AcDbSymbolTableRecord
100
AcDbBlockTableRecord
  2
*B2
340
0
  0
BLOCK_RECORD
  5
1DE
100
AcDbSymbolTableRecord
100
AcDbBlockTableRecord
  2
*B3
340
0
  0
BLOCK_RECORD
  5
4C6
100
AcDbSymbolTableRecord
100
AcDbBlockTableRecord
  2
*B4
340
0
  0
BLOCK_RECORD
  5
676
100
AcDbSymbolTableRecord
100
AcDbBlockTableRecord
  2
*B5
340
0
  0
BLOCK_RECORD
  5
67D
100
AcDbSymbolTableRecord
100
AcDbBlockTableRecord
  2
*B6
340
0
  0
BLOCK_RECORD
  5
684
100
AcDbSymbolTableRecord
100
AcDbBlockTableRecord
  2
*B7
340
0
  0
BLOCK_RECORD
  5
68B
100
AcDbSymbolTableRecord
100
AcDbBlockTableRecord
  2
*B8
340
0
  0
BLOCK_RECORD
  5
692
100
AcDbSymbolTableRecord
100
AcDbBlockTableRecord
  2
*B9
340
0
  0
BLOCK_RECORD
  5
699
100
AcDbSymbolTableRecord
100
AcDbBlockTableRecord
  2
*B10
340
0
  0
BLOCK_RECORD
  5
6A0
100
AcDbSymbolTableRecord
100
AcDbBlockTableRecord
  2
*B11
340
0
  0
BLOCK_RECORD
  5
6A7
100
AcDbSymbolTableRecord
100
AcDbBlockTableRecord
  2
*B12
340
0
  0
BLOCK_RECORD
  5
6AE
100
AcDbSymbolTableRecord
100
AcDbBlockTableRecord
  2
*B13
340
0
  0
BLOCK_RECORD
  5
6B5
100
AcDbSymbolTableRecord
100
AcDbBlockTableRecord
  2
*B14
340
0
  0
BLOCK_RECORD
  5
6BC
100
AcDbSymbolTableRecord
100
AcDbBlockTableRecord
  2
*B15
340
0
  0
BLOCK_RECORD
  5
6C3
100
AcDbSymbolTableRecord
100
AcDbBlockTableRecord
  2
*B16
340
0
  0
BLOCK_RECORD
  5
6CA
100
AcDbSymbolTableRecord
100
AcDbBlockTableRecord
  2
*B17
340
0
  0
BLOCK_RECORD
  5
6D0
100
AcDbSymbolTableRecord
100
AcDbBlockTableRecord
  2
*B18
340
0
  0
BLOCK_RECORD
  5
6D6
100
AcDbSymbolTableRecord
100
AcDbBlockTableRecord
  2
*B19
340
0
  0
BLOCK_RECORD
  5
6DB
100
AcDbSymbolTableRecord
100
AcDbBlockTableRecord
  2
*B20
340
0
  0
BLOCK_RECORD
  5
6E0
100
AcDbSymbolTableRecord
100
AcDbBlockTableRecord
  2
*B21
340
0
  0
BLOCK_RECORD
  5
6E6
100
AcDbSymbolTableRecord
100
AcDbBlockTableRecord
  2
*B22
340
0
  0
BLOCK_RECORD
  5
6EC
100
AcDbSymbolTableRecord
100
AcDbBlockTableRecord
  2
*B23
340
0
  0
BLOCK_RECORD
  5
6F1
100
AcDbSymbolTableRecord
100
AcDbBlockTableRecord
  2
*B24
340
0
  0
BLOCK_RECORD
  5
70C
100
AcDbSymbolTableRecord
100
AcDbBlockTableRecord
  2
*B25
340
0
  0
BLOCK_RECORD
  5
711
100
AcDbSymbolTableRecord
100
AcDbBlockTableRecord
  2
*B26
340
0
  0
BLOCK_RECORD
  5
717
100
AcDbSymbolTableRecord
100
AcDbBlockTableRecord
  2
*B27
340
0
  0
BLOCK_RECORD
  5
732
100
AcDbSymbolTableRecord
100
AcDbBlockTableRecord
  2
*B28
340
0
  0
BLOCK_RECORD
  5
737
100
AcDbSymbolTableRecord
100
AcDbBlockTableRecord
  2
*B29
340
0
  0
BLOCK_RECORD
  5
73D
100
AcDbSymbolTableRecord
100
AcDbBlockTableRecord
  2
*B30
340
0
  0
BLOCK_RECORD
  5
742
100
AcDbSymbolTableRecord
100
AcDbBlockTableRecord
  2
*B31
340
0
  0
BLOCK_RECORD
  5
748
100
AcDbSymbolTableRecord
100
AcDbBlockTableRecord
  2
*B32
340
0
  0
BLOCK_RECORD
  5
74D
100
AcDbSymbolTableRecord
100
AcDbBlockTableRecord
  2
*B33
340
0
  0
BLOCK_RECORD
  5
753
100
AcDbSymbolTableRecord
100
AcDbBlockTableRecord
  2
*B34
340
0
  0
BLOCK_RECORD
  5
758
100
AcDbSymbolTableRecord
100
AcDbBlockTableRecord
  2
*B35
340
0
  0
BLOCK_RECORD
  5
75E
100
AcDbSymbolTableRecord
100
AcDbBlockTableRecord
  2
*B36
340
0
  0
BLOCK_RECORD
  5
764
100
AcDbSymbolTableRecord
100
AcDbBlockTableRecord
  2
*B37
340
0
  0
BLOCK_RECORD
  5
76A
100
AcDbSymbolTableRecord
100
AcDbBlockTableRecord
  2
*B38
340
0
  0
BLOCK_RECORD
  5
770
100
AcDbSymbolTableRecord
100
AcDbBlockTableRecord
  2
*B39
340
0
  0
BLOCK_RECORD
  5
779
100
AcDbSymbolTableRecord
100
AcDbBlockTableRecord
  2
*B40
340
0
  0
BLOCK_RECORD
  5
786
100
AcDbSymbolTableRecord
100
AcDbBlockTableRecord
  2
*B41
340
0
  0
BLOCK_RECORD
  5
7A4
100
AcDbSymbolTableRecord
100
AcDbBlockTableRecord
  2
*B42
340
0
  0
BLOCK_RECORD
  5
7B3
100
AcDbSymbolTableRecord
100
AcDbBlockTableRecord
  2
*B43
340
0
  0
BLOCK_RECORD
  5
7B9
100
AcDbSymbolTableRecord
100
AcDbBlockTableRecord
  2
*B44
340
0
  0
BLOCK_RECORD
  5
7BF
100
AcDbSymbolTableRecord
100
AcDbBlockTableRecord
  2
*B45
340
0
  0
BLOCK_RECORD
  5
7C4
100
AcDbSymbolTableRecord
100
AcDbBlockTableRecord
  2
*B46
340
0
  0
BLOCK_RECORD
  5
7CF
100
AcDbSymbolTableRecord
100
AcDbBlockTableRecord
  2
*B47
340
0
  0
BLOCK_RECORD
  5
7D5
100
AcDbSymbolTableRecord
100
AcDbBlockTableRecord
  2
*B48
340
0
  0
BLOCK_RECORD
  5
7E9
100
AcDbSymbolTableRecord
100
AcDbBlockTableRecord
  2
*B49
340
0
  0
BLOCK_RECORD
  5
7F9
100
AcDbSymbolTableRecord
100
AcDbBlockTableRecord
  2
*B50
340
0
  0
BLOCK_RECORD
  5
7FF
100
AcDbSymbolTableRecord
100
AcDbBlockTableRecord
  2
*B51
340
0
  0
BLOCK_RECORD
  5
805
100
AcDbSymbolTableRecord
100
AcDbBlockTableRecord
  2
*B52
340
0
  0
BLOCK_RECORD
  5
80B
100
AcDbSymbolTableRecord
100
AcDbBlockTableRecord
  2
*B53
340
0
  0
BLOCK_RECORD
  5
814
100
AcDbSymbolTableRecord
100
AcDbBlockTableRecord
  2
*B54
340
0
  0
BLOCK_RECORD
  5
81A
100
AcDbSymbolTableRecord
100
AcDbBlockTableRecord
  2
*B55
340
0
  0
BLOCK_RECORD
  5
820
100
AcDbSymbolTableRecord
100
AcDbBlockTableRecord
  2
*B56
340
0
  0
BLOCK_RECORD
  5
826
100
AcDbSymbolTableRecord
100
AcDbBlockTableRecord
  2
*B57
340
0
  0
BLOCK_RECORD
  5
82C
100
AcDbSymbolTableRecord
100
AcDbBlockTableRecord
  2
*B58
340
0
  0
BLOCK_RECORD
  5
832
100
AcDbSymbolTableRecord
100
AcDbBlockTableRecord
  2
*B59
340
0
  0
BLOCK_RECORD
  5
838
100
AcDbSymbolTableRecord
100
AcDbBlockTableRecord
  2
*B60
340
0
  0
BLOCK_RECORD
  5
83E
100
AcDbSymbolTableRecord
100
AcDbBlockTableRecord
  2
*B61
340
0
  0
BLOCK_RECORD
  5
844
100
AcDbSymbolTableRecord
100
AcDbBlockTableRecord
  2
*B62
340
0
  0
BLOCK_RECORD
  5
84A
100
AcDbSymbolTableRecord
100
AcDbBlockTableRecord
  2
*B63
340
0
  0
BLOCK_RECORD
  5
850
100
AcDbSymbolTableRecord
100
AcDbBlockTableRecord
  2
*B64
340
0
  0
BLOCK_RECORD
  5
856
100
AcDbSymbolTableRecord
100
AcDbBlockTableRecord
  2
*B65
340
0
  0
BLOCK_RECORD
  5
85C
100
AcDbSymbolTableRecord
100
AcDbBlockTableRecord
  2
*B66
340
0
  0
BLOCK_RECORD
  5
862
100
AcDbSymbolTableRecord
100
AcDbBlockTableRecord
  2
*B67
340
0
  0
BLOCK_RECORD
  5
868
100
AcDbSymbolTableRecord
100
AcDbBlockTableRecord
  2
*B68
340
0
  0
BLOCK_RECORD
  5
86D
100
AcDbSymbolTableRecord
100
AcDbBlockTableRecord
  2
*B69
340
0
  0
BLOCK_RECORD
  5
872
100
AcDbSymbolTableRecord
100
AcDbBlockTableRecord
  2
*B70
340
0
  0
BLOCK_RECORD
  5
877
100
AcDbSymbolTableRecord
100
AcDbBlockTableRecord
  2
*B71
340
0
  0
BLOCK_RECORD
  5
87C
100
AcDbSymbolTableRecord
100
AcDbBlockTableRecord
  2
*B72
340
0
  0
BLOCK_RECORD
  5
881
100
AcDbSymbolTableRecord
100
AcDbBlockTableRecord
  2
*B73
340
0
  0
BLOCK_RECORD
  5
886
100
AcDbSymbolTableRecord
100
AcDbBlockTableRecord
  2
*B74
340
0
  0
BLOCK_RECORD
  5
88B
100
AcDbSymbolTableRecord
100
AcDbBlockTableRecord
  2
*B75
340
0
  0
BLOCK_RECORD
  5
890
100
AcDbSymbolTableRecord
100
AcDbBlockTableRecord
  2
*B76
340
0
  0
BLOCK_RECORD
  5
895
100
AcDbSymbolTableRecord
100
AcDbBlockTableRecord
  2
*B77
340
0
  0
BLOCK_RECORD
  5
89A
100
AcDbSymbolTableRecord
100
AcDbBlockTableRecord
  2
*B78
340
0
  0
BLOCK_RECORD
  5
8A0
100
AcDbSymbolTableRecord
100
AcDbBlockTableRecord
  2
*B79
340
0
  0
ENDTAB
  0
ENDSEC
  0
SECTION
  2
BLOCKS
  0
BLOCK
  5
D
100
AcDbEntity
  8
0
100
AcDbBlockBegin
  2
*MODEL_SPACE
 70
     0
 10
0.0
 20
0.0
 30
0.0
  3
*MODEL_SPACE
  1

  0
ENDBLK
  5
E
100
AcDbEntity
  8
0
100
AcDbBlockEnd
  0
BLOCK
  5
F
100
AcDbEntity
 67
     1
  8
0
100
AcDbBlockBegin
  2
*PAPER_SPACE
 70
     0
 10
0.0
 20
0.0
 30
0.0
  3
*PAPER_SPACE
  1

  0
ENDBLK
  5
10
100
AcDbEntity
 67
     1
  8
0
100
AcDbBlockEnd
  0
BLOCK
  5
2A
100
AcDbEntity
  8
0
100
AcDbBlockBegin
  2
*B0
 70
     0
 10
0.0
 20
0.0
 30
0.0
  3
*B0
  1

  0
ENDBLK
  5
2B
100
AcDbEntity
  8
0
100
AcDbBlockEnd
  0
BLOCK
  5
2D
100
AcDbEntity
  8
0
100
AcDbBlockBegin
  2
*B1
 70
     0
 10
0.0
 20
0.0
 30
0.0
  3
*B1
  1

  0
ENDBLK
  5
2E
100
AcDbEntity
  8
0
100
AcDbBlockEnd
  0
BLOCK
  5
30
100
AcDbEntity
  8
0
100
AcDbBlockBegin
  2
*B2
 70
     0
 10
0.0
 20
0.0
 30
0.0
  3
*B2
  1

  0
LINE
  5
31
100
AcDbEntity
  8
0
  6
Continuous
 62
   174
100
AcDbLine
 10
192.967675
 20
53.656092
 30
0.0
 11
190.947678
 21
53.656092
 31
0.0
  0
LINE
  5
32
100
AcDbEntity
  8
0
  6
Continuous
 62
   174
100
AcDbLine
 10
110.957677
 20
52.170565
 30
0.0
 11
110.947678
 21
52.166747
 31
0.0
  0
LINE
  5
33
100
AcDbEntity
  8
0
  6
Continuous
 62
   174
100
AcDbLine
 10
110.957677
 20
49.979312
 30
0.0
 11
110.947678
 21
49.978537
 31
0.0
  0
LINE
  5
34
100
AcDbEntity
  8
0
  6
Continuous
 62
   174
100
AcDbLine
 10
188.967675
 20
45.19565
 30
0.0
 11
188.957677
 21
45.189773
 31
0.0
  0
LINE
  5
35
100
AcDbEntity
  8
0
  6
Continuous
 62
   174
100
AcDbLine
 10
190.957677
 20
53.677053
 30
0.0
 11
190.957677
 21
55.262851
 31
0.0
  0
LINE
  5
36
100
AcDbEntity
  8
0
  6
Continuous
 62
   174
100
AcDbLine
 10
108.957677
 20
56.439293
 30
0.0
 11
108.957677
 21
55.57916
 31
0.0
  0
LINE
  5
37
100
AcDbEntity
  8
0
  6
Continuous
 62
   174
100
AcDbLine
 10
192.957677
 20
56.28698
 30
0.0
 11
192.957677
 21
55.268799
 31
0.0
  0
LINE
  5
38
100
AcDbEntity
  8
0
  6
Continuous
 62
   174
100
AcDbLine
 10
190.957677
 20
56.625869
 30
0.0
 11
190.947678
 21
56.615871
 31
0.0
  0
LINE
  5
39
100
AcDbEntity
  8
0
  6
Continuous
 62
   174
100
AcDbLine
 10
106.957677
 20
54.115936
 30
0.0
 11
106.957677
 21
55.573849
 31
0.0
  0
LINE
  5
3A
100
AcDbEntity
  8
0
  6
Continuous
 62
   174
100
AcDbLine
 10
192.967675
 20
56.615871
 30
0.0
 11
192.957677
 21
56.625869
 31
0.0
  0
LINE
  5
3B
100
AcDbEntity
  8
0
  6
Continuous
 62
   174
100
AcDbLine
 10
106.947678
 20
54.094271
 30
0.0
 11
108.967675
 21
54.094271
 31
0.0
  0
LINE
  5
3C
100
AcDbEntity
  8
0
  6
Continuous
 62
   174
100
AcDbLine
 10
112.957677
 20
52.179807
 30
0.0
 11
112.967675
 21
52.175989
 31
0.0
  0
LINE
  5
3D
100
AcDbEntity
  8
0
  6
Continuous
 62
   174
100
AcDbLine
 10
190.957677
 20
56.625871
 30
0.0
 11
190.936356
 21
56.60455
 31
0.0
  0
LINE
  5
3E
100
AcDbEntity
  8
0
  6
Continuous
 62
   174
100
AcDbLine
 10
110.957677
 20
54.115936
 30
0.0
 11
110.957677
 21
55.573849
 31
0.0
  0
LINE
  5
3F
100
AcDbEntity
  8
0
  6
Continuous
 62
   174
100
AcDbLine
 10
192.978998
 20
42.247192
 30
0.0
 11
193.457677
 21
42.725871
 31
0.0
  0
LINE
  5
40
100
AcDbEntity
  8
0
  6
Continuous
 62
   174
100
AcDbLine
 10
192.967675
 20
51.652459
 30
0.0
 11
190.947678
 21
51.652459
 31
0.0
  0
LINE
  5
41
100
AcDbEntity
  8
0
  6
Continuous
 62
   174
100
AcDbLine
 10
186.960183
 20
56.625869
 30
0.0
 11
188.955171
 21
56.625869
 31
0.0
  0
LINE
  5
42
100
AcDbEntity
  8
0
  6
Continuous
 62
   174
100
AcDbLine
 10
112.957677
 20
56.625871
 30
0.0
 11
110.957677
 21
56.625871
 31
0.0
  0
LINE
  5
43
100
AcDbEntity
  8
0
  6
Continuous
 62
   174
100
AcDbLine
 10
186.957677
 20
56.625871
 30
0.0
 11
186.936356
 21
56.60455
 31
0.0
  0
LINE
  5
44
100
AcDbEntity
  8
0
  6
Continuous
 62
   174
100
AcDbLine
 10
106.957677
 20
52.195135
 30
0.0
 11
106.957677
 21
54.108288
 31
0.0
  0
LINE
  5
45
100
AcDbEntity
  8
0
  6
Continuous
 62
   174
100
AcDbLine
 10
113.457677
 20
56.125871
 30
0.0
 11
112.957677
 21
56.625871
 31
0.0
  0
LINE
  5
46
100
AcDbEntity
  8
0
  6
Continuous
 62
   174
100
AcDbLine
 10
189.457677
 20
56.125871
 30
0.0
 11
188.957677
 21
56.625871
 31
0.0
  0
LINE
  5
47
100
AcDbEntity
  8
0
  6
Continuous
 62
   174
100
AcDbLine
 10
110.457677
 20
42.725871
 30
0.0
 11
110.957677
 21
42.225871
 31
0.0
  0
LINE
  5
48
100
AcDbEntity
  8
0
  6
Continuous
 62
   174
100
AcDbLine
 10
188.957677
 20
56.28698
 30
0.0
 11
188.957677
 21
55.268799
 31
0.0
  0
LINE
  5
49
100
AcDbEntity
  8
0
  6
Continuous
 62
   174
100
AcDbLine
 10
108.957677
 20
42.225871
 30
0.0
 11
109.457677
 21
42.725871
 31
0.0
  0
LINE
  5
4A
100
AcDbEntity
  8
0
  6
Continuous
 62
   174
100
AcDbLine
 10
188.957677
 20
56.64089
 30
0.0
 11
188.957677
 21
56.289954
 31
0.0
  0
LINE
  5
4B
100
AcDbEntity
  8
0
  6
Continuous
 62
   174
100
AcDbLine
 10
112.957677
 20
55.573849
 30
0.0
 11
112.957677
 21
54.115936
 31
0.0
  0
LINE
  5
4C
100
AcDbEntity
  8
0
  6
Continuous
 62
   174
100
AcDbLine
 10
110.957677
 20
42.247173
 30
0.0
 11
110.947678
 21
42.257141
 31
0.0
  0
LWPOLYLINE
  5
4D
100
AcDbEntity
  8
0
  6
Continuous
 62
   174
100
AcDbPolyline
 90
        3
 70
   128
 10
108.967675
 20
52.175989
 10
108.967677
 20
52.171368
 10
108.967675
 20
52.166747
  0
LINE
  5
4E
100
AcDbEntity
  8
0
  6
Continuous
 62
   174
100
AcDbLine
 10
108.957677
 20
42.247949
 30
0.0
 11
108.967675
 21
42.257917
 31
0.0
  0
LINE
  5
4F
100
AcDbEntity
  8
0
  6
Continuous
 62
   174
100
AcDbLine
 10
106.947678
 20
49.988507
 30
0.0
 11
108.967675
 21
49.988507
 31
0.0
  0
LINE
  5
50
100
AcDbEntity
  8
0
  6
Continuous
 62
   174
100
AcDbLine
 10
106.957677
 20
50.00476
 30
0.0
 11
106.957677
 21
52.185788
 31
0.0
  0
LINE
  5
51
100
AcDbEntity
  8
0
  6
Continuous
 62
   174
100
AcDbLine
 10
112.957677
 20
42.247949
 30
0.0
 11
110.957677
 21
42.247949
 31
0.0
  0
LINE
  5
52
100
AcDbEntity
  8
0
  6
Continuous
 62
   174
100
AcDbLine
 10
108.957677
 20
52.179807
 30
0.0
 11
108.967675
 21
52.175989
 31
0.0
  0
LINE
  5
53
100
AcDbEntity
  8
0
  6
Continuous
 62
   174
100
AcDbLine
 10
108.957677
 20
55.573849
 30
0.0
 11
108.957677
 21
54.115936
 31
0.0
  0
LINE
  5
54
100
AcDbEntity
  8
0
  6
Continuous
 62
   174
100
AcDbLine
 10
192.957677
 20
56.64089
 30
0.0
 11
192.957677
 21
56.289954
 31
0.0
  0
LINE
  5
55
100
AcDbEntity
  8
0
  6
Continuous
 62
   174
100
AcDbLine
 10
108.957677
 20
42.247949
 30
0.0
 11
106.957677
 21
42.247949
 31
0.0
  0
LINE
  5
56
100
AcDbEntity
  8
0
  6
Continuous
 62
   174
100
AcDbLine
 10
110.947678
 20
52.175989
 30
0.0
 11
110.957677
 21
52.179807
 31
0.0
  0
LINE
  5
57
100
AcDbEntity
  8
0
  6
Continuous
 62
   174
100
AcDbLine
 10
110.957677
 20
42.225871
 30
0.0
 11
112.957677
 21
42.225871
 31
0.0
  0
LINE
  5
58
100
AcDbEntity
  8
0
  6
Continuous
 62
   174
100
AcDbLine
 10
190.457677
 20
42.725871
 30
0.0
 11
190.957677
 21
42.225871
 31
0.0
  0
LINE
  5
59
100
AcDbEntity
  8
0
  6
Continuous
 62
   174
100
AcDbLine
 10
110.957677
 20
52.195135
 30
0.0
 11
110.957677
 21
54.108288
 31
0.0
  0
ARC
  5
5A
100
AcDbEntity
  8
0
  6
Continuous
 62
   174
100
AcDbCircle
 10
149.957677
 20
58.925871
 30
0.0
 40
2.5
100
AcDbArc
 50
-195.0
 51
105.0
  0
LINE
  5
5B
100
AcDbEntity
  8
0
  6
Continuous
 62
   174
100
AcDbLine
 10
190.957677
 20
56.289954
 30
0.0
 11
190.957677
 21
56.64089
 31
0.0
  0
LINE
  5
5C
100
AcDbEntity
  8
0
  6
Continuous
 62
   174
100
AcDbLine
 10
186.457677
 20
42.725871
 30
0.0
 11
186.957677
 21
42.225871
 31
0.0
  0
LINE
  5
5D
100
AcDbEntity
  8
0
  6
Continuous
 62
   174
100
AcDbLine
 10
112.957677
 20
42.225871
 30
0.0
 11
113.457677
 21
42.725871
 31
0.0
  0
LINE
  5
5E
100
AcDbEntity
  8
0
  6
Continuous
 62
   174
100
AcDbLine
 10
188.967675
 20
56.615871
 30
0.0
 11
188.957677
 21
56.625869
 31
0.0
  0
LINE
  5
5F
100
AcDbEntity
  8
0
  6
Continuous
 62
   174
100
AcDbLine
 10
188.978998
 20
42.247192
 30
0.0
 11
189.457677
 21
42.725871
 31
0.0
  0
LINE
  5
60
100
AcDbEntity
  8
0
  6
Continuous
 62
   174
100
AcDbLine
 10
110.957677
 20
56.625871
 30
0.0
 11
110.457677
 21
56.125871
 31
0.0
  0
LINE
  5
61
100
AcDbEntity
  8
0
  6
Continuous
 62
   174
100
AcDbLine
 10
106.457677
 20
42.725871
 30
0.0
 11
106.957677
 21
42.225871
 31
0.0
  0
LWPOLYLINE
  5
62
100
AcDbEntity
  8
0
  6
Continuous
 62
   174
100
AcDbPolyline
 90
        3
 70
   128
 10
112.967675
 20
52.175989
 10
112.967677
 20
52.171368
 10
112.967675
 20
52.166747
  0
LINE
  5
63
100
AcDbEntity
  8
0
  6
Continuous
 62
   174
100
AcDbLine
 10
190.947678
 20
45.20374
 30
0.0
 11
190.957677
 21
45.197863
 31
0.0
  0
LINE
  5
64
100
AcDbEntity
  8
0
  6
Continuous
 62
   174
100
AcDbLine
 10
190.936356
 20
56.60455
 30
0.0
 11
190.457677
 21
56.125871
 31
0.0
  0
LINE
  5
65
100
AcDbEntity
  8
0
  6
Continuous
 62
   174
100
AcDbLine
 10
186.957677
 20
53.677053
 30
0.0
 11
186.957677
 21
55.262851
 31
0.0
  0
LINE
  5
66
100
AcDbEntity
  8
0
  6
Continuous
 62
   174
100
AcDbLine
 10
192.957677
 20
42.225871
 30
0.0
 11
192.978998
 21
42.247192
 31
0.0
  0
LINE
  5
67
100
AcDbEntity
  8
0
  6
Continuous
 62
   174
100
AcDbLine
 10
112.957677
 20
56.439293
 30
0.0
 11
112.957677
 21
55.57916
 31
0.0
  0
LINE
  5
68
100
AcDbEntity
  8
0
  6
Continuous
 62
   174
100
AcDbLine
 10
106.957677
 20
42.247173
 30
0.0
 11
106.947678
 21
42.257141
 31
0.0
  0
LWPOLYLINE
  5
69
100
AcDbEntity
  8
0
  6
Continuous
 62
   174
100
AcDbPolyline
 90
        3
 70
   128
 10
106.947678
 20
52.166747
 10
106.947677
 20
52.171368
 10
106.947678
 20
52.175989
  0
LINE
  5
6A
100
AcDbEntity
  8
0
  6
Continuous
 62
   174
100
AcDbLine
 10
112.957677
 20
52.179807
 30
0.0
 11
110.957677
 21
52.179807
 31
0.0
  0
LINE
  5
6B
100
AcDbEntity
  8
0
  6
Continuous
 62
   174
100
AcDbLine
 10
186.957677
 20
56.625869
 30
0.0
 11
186.947678
 21
56.615871
 31
0.0
  0
LINE
  5
6C
100
AcDbEntity
  8
0
  6
Continuous
 62
   174
100
AcDbLine
 10
186.936356
 20
56.60455
 30
0.0
 11
186.457677
 21
56.125871
 31
0.0
  0
LINE
  5
6D
100
AcDbEntity
  8
0
  6
Continuous
 62
   174
100
AcDbLine
 10
106.957677
 20
56.625871
 30
0.0
 11
106.457677
 21
56.125871
 31
0.0
  0
LINE
  5
6E
100
AcDbEntity
  8
0
  6
Continuous
 62
   174
100
AcDbLine
 10
108.967675
 20
42.257141
 30
0.0
 11
108.957677
 21
42.247173
 31
0.0
  0
LINE
  5
6F
100
AcDbEntity
  8
0
  6
Continuous
 62
   174
100
AcDbLine
 10
110.947678
 20
54.094271
 30
0.0
 11
112.967675
 21
54.094271
 31
0.0
  0
LINE
  5
70
100
AcDbEntity
  8
0
  6
Continuous
 62
   174
100
AcDbLine
 10
110.957677
 20
42.247173
 30
0.0
 11
112.957677
 21
42.247173
 31
0.0
  0
LINE
  5
71
100
AcDbEntity
  8
0
  6
Continuous
 62
   174
100
AcDbLine
 10
112.967675
 20
42.257141
 30
0.0
 11
112.957677
 21
42.247173
 31
0.0
  0
LINE
  5
72
100
AcDbEntity
  8
0
  6
Continuous
 62
   174
100
AcDbLine
 10
186.957677
 20
55.268799
 30
0.0
 11
186.957677
 21
56.28698
 31
0.0
  0
LINE
  5
73
100
AcDbEntity
  8
0
  6
Continuous
 62
   174
100
AcDbLine
 10
106.947678
 20
42.257917
 30
0.0
 11
106.957677
 21
42.247949
 31
0.0
  0
LINE
  5
74
100
AcDbEntity
  8
0
  6
Continuous
 62
   174
100
AcDbLine
 10
108.957677
 20
54.108288
 30
0.0
 11
108.957677
 21
52.195135
 31
0.0
  0
LINE
  5
75
100
AcDbEntity
  8
0
  6
Continuous
 62
   174
100
AcDbLine
 10
110.947678
 20
42.257917
 30
0.0
 11
110.957677
 21
42.247949
 31
0.0
  0
LINE
  5
76
100
AcDbEntity
  8
0
  6
Continuous
 62
   174
100
AcDbLine
 10
190.957677
 20
55.268799
 30
0.0
 11
190.957677
 21
56.28698
 31
0.0
  0
LINE
  5
77
100
AcDbEntity
  8
0
  6
Continuous
 62
   174
100
AcDbLine
 10
188.957677
 20
45.197863
 30
0.0
 11
186.957677
 21
45.197863
 31
0.0
  0
LINE
  5
78
100
AcDbEntity
  8
0
  6
Continuous
 62
   174
100
AcDbLine
 10
106.957677
 20
42.247173
 30
0.0
 11
108.957677
 21
42.247173
 31
0.0
  0
LINE
  5
79
100
AcDbEntity
  8
0
  6
Continuous
 62
   174
100
AcDbLine
 10
106.947678
 20
52.175989
 30
0.0
 11
108.967675
 21
52.175989
 31
0.0
  0
LINE
  5
7A
100
AcDbEntity
  8
0
  6
Continuous
 62
   174
100
AcDbLine
 10
193.457677
 20
56.125871
 30
0.0
 11
192.957677
 21
56.625871
 31
0.0
  0
LWPOLYLINE
  5
7B
100
AcDbEntity
  8
0
  6
Continuous
 62
   174
100
AcDbPolyline
 90
        2
 70
   129
 10
188.967675
 20
56.615871
 10
188.967677
 20
56.615871
  0
LWPOLYLINE
  5
7C
100
AcDbEntity
  8
0
  6
Continuous
 62
   174
100
AcDbPolyline
 90
        3
 70
   128
 10
110.947678
 20
52.166747
 10
110.947677
 20
52.171368
 10
110.947678
 20
52.175989
  0
LWPOLYLINE
  5
7D
100
AcDbEntity
  8
0
  6
Continuous
 62
   174
100
AcDbPolyline
 90
        2
 70
   129
 10
192.967675
 20
56.615871
 10
192.967677
 20
56.615871
  0
LINE
  5
7E
100
AcDbEntity
  8
0
  6
Continuous
 62
   174
100
AcDbLine
 10
112.957677
 20
42.247949
 30
0.0
 11
112.967675
 21
42.257917
 31
0.0
  0
ARC
  5
7F
100
AcDbEntity
  8
0
  6
Continuous
 62
   174
100
AcDbCircle
 10
149.957677
 20
26.925871
 30
0.0
 40
2.5
100
AcDbArc
 50
-195.0
 51
105.0
  0
LINE
  5
80
100
AcDbEntity
  8
0
  6
Continuous
 62
   174
100
AcDbLine
 10
106.947678
 20
52.175989
 30
0.0
 11
106.957677
 21
52.179807
 31
0.0
  0
LINE
  5
81
100
AcDbEntity
  8
0
  6
Continuous
 62
   174
100
AcDbLine
 10
192.957677
 20
45.197863
 30
0.0
 11
192.967675
 21
45.20374
 31
0.0
  0
LINE
  5
82
100
AcDbEntity
  8
0
  6
Continuous
 62
   174
100
AcDbLine
 10
188.957677
 20
42.225871
 30
0.0
 11
188.978998
 21
42.247192
 31
0.0
  0
LINE
  5
83
100
AcDbEntity
  8
0
  6
Continuous
 62
   174
100
AcDbLine
 10
109.457677
 20
56.125871
 30
0.0
 11
108.957677
 21
56.625871
 31
0.0
  0
LINE
  5
84
100
AcDbEntity
  8
0
  6
Continuous
 62
   174
100
AcDbLine
 10
186.947678
 20
47.208794
 30
0.0
 11
186.957677
 21
47.205705
 31
0.0
  0
LINE
  5
85
100
AcDbEntity
  8
0
  6
Continuous
 62
   174
100
AcDbLine
 10
112.957677
 20
45.662603
 30
0.0
 11
112.967675
 21
45.667835
 31
0.0
  0
LINE
  5
86
100
AcDbEntity
  8
0
  6
Continuous
 62
   174
100
AcDbLine
 10
106.957677
 20
47.759152
 30
0.0
 11
106.957677
 21
49.994775
 31
0.0
  0
LINE
  5
87
100
AcDbEntity
  8
0
  6
Continuous
 62
   174
100
AcDbLine
 10
106.957677
 20
54.093147
 30
0.0
 11
108.957677
 21
54.093147
 31
0.0
  0
LINE
  5
88
100
AcDbEntity
  8
0
  6
Continuous
 62
   174
100
AcDbLine
 10
190.947678
 20
56.265513
 30
0.0
 11
190.957677
 21
56.275022
 31
0.0
  0
LINE
  5
89
100
AcDbEntity
  8
0
  6
Continuous
 62
   174
100
AcDbLine
 10
188.967675
 20
51.652459
 30
0.0
 11
186.947678
 21
51.652459
 31
0.0
  0
LINE
  5
8A
100
AcDbEntity
  8
0
  6
Continuous
 62
   174
100
AcDbLine
 10
108.957677
 20
56.426584
 30
0.0
 11
106.957677
 21
56.426584
 31
0.0
  0
LINE
  5
8B
100
AcDbEntity
  8
0
  6
Continuous
 62
   174
100
AcDbLine
 10
188.957677
 20
53.661969
 30
0.0
 11
188.967675
 21
53.656092
 31
0.0
  0
LINE
  5
8C
100
AcDbEntity
  8
0
  6
Continuous
 62
   174
100
AcDbLine
 10
194.457677
 20
49.44118
 30
0.0
 11
194.457677
 21
42.841588
 31
0.0
  0
LINE
  5
8D
100
AcDbEntity
  8
0
  6
Continuous
 62
   174
100
AcDbLine
 10
190.957677
 20
42.595593
 30
0.0
 11
190.957677
 21
43.613774
 31
0.0
  0
LINE
  5
8E
100
AcDbEntity
  8
0
  6
Continuous
 62
   174
100
AcDbLine
 10
190.957677
 20
56.271931
 30
0.0
 11
192.957677
 21
56.271931
 31
0.0
  0
LINE
  5
8F
100
AcDbEntity
  8
0
  6
Continuous
 62
   174
100
AcDbLine
 10
192.967675
 20
43.6061
 30
0.0
 11
192.957677
 21
43.598011
 31
0.0
  0
LINE
  5
90
100
AcDbEntity
  8
0
  6
Continuous
 62
   174
100
AcDbLine
 10
108.957677
 20
55.564097
 30
0.0
 11
106.957677
 21
55.564097
 31
0.0
  0
LINE
  5
91
100
AcDbEntity
  8
0
  6
Continuous
 62
   174
100
AcDbLine
 10
110.957677
 20
55.558864
 30
0.0
 11
112.957677
 21
55.558864
 31
0.0
  0
LINE
  5
92
100
AcDbEntity
  8
0
  6
Continuous
 62
   174
100
AcDbLine
 10
108.957677
 20
52.179807
 30
0.0
 11
106.957677
 21
52.179807
 31
0.0
  0
LINE
  5
93
100
AcDbEntity
  8
0
  6
Continuous
 62
   174
100
AcDbLine
 10
192.957677
 20
45.197863
 30
0.0
 11
190.957677
 21
45.197863
 31
0.0
  0
LINE
  5
94
100
AcDbEntity
  8
0
  6
Continuous
 62
   174
100
AcDbLine
 10
108.967675
 20
42.778787
 30
0.0
 11
108.957677
 21
42.769546
 31
0.0
  0
CIRCLE
  5
95
100
AcDbEntity
  8
0
  6
Continuous
 62
   174
100
AcDbCircle
 10
132.957677
 20
42.925871
 30
0.0
 40
2.5
  0
LINE
  5
96
100
AcDbEntity
  8
0
  6
Continuous
 62
   174
100
AcDbLine
 10
104.957677
 20
43.325871
 30
0.0
 11
105.457677
 21
42.825871
 31
0.0
  0
LINE
  5
97
100
AcDbEntity
  8
0
  6
Continuous
 62
   174
100
AcDbLine
 10
112.957677
 20
42.262926
 30
0.0
 11
112.957677
 21
42.241683
 31
0.0
  0
LINE
  5
98
100
AcDbEntity
  8
0
  6
Continuous
 62
   174
100
AcDbLine
 10
188.957677
 20
43.613774
 30
0.0
 11
188.957677
 21
42.595593
 31
0.0
  0
LINE
  5
99
100
AcDbEntity
  8
0
  6
Continuous
 62
   174
100
AcDbLine
 10
112.967675
 20
49.978537
 30
0.0
 11
112.957677
 21
49.979312
 31
0.0
  0
LINE
  5
9A
100
AcDbEntity
  8
0
  6
Continuous
 62
   174
100
AcDbLine
 10
186.957677
 20
56.289954
 30
0.0
 11
186.957677
 21
56.64089
 31
0.0
  0
LINE
  5
9B
100
AcDbEntity
  8
0
  6
Continuous
 62
   174
100
AcDbLine
 10
110.957677
 20
42.263776
 30
0.0
 11
110.957677
 21
42.785294
 31
0.0
  0
LINE
  5
9C
100
AcDbEntity
  8
0
  6
Continuous
 62
   174
100
AcDbLine
 10
108.967675
 20
45.659313
 30
0.0
 11
108.957677
 21
45.654082
 31
0.0
  0
LINE
  5
9D
100
AcDbEntity
  8
0
  6
Continuous
 62
   174
100
AcDbLine
 10
108.957677
 20
42.785294
 30
0.0
 11
108.957677
 21
42.263776
 31
0.0
  0
LINE
  5
9E
100
AcDbEntity
  8
0
  6
Continuous
 62
   174
100
AcDbLine
 10
112.957677
 20
43.949975
 30
0.0
 11
112.967675
 21
43.957583
 31
0.0
  0
LINE
  5
9F
100
AcDbEntity
  8
0
  6
Continuous
 62
   174
100
AcDbLine
 10
108.957677
 20
43.949975
 30
0.0
 11
106.957677
 21
43.949975
 31
0.0
  0
LINE
  5
A0
100
AcDbEntity
  8
0
  6
Continuous
 62
   174
100
AcDbLine
 10
110.957677
 20
47.733885
 30
0.0
 11
110.947678
 21
47.736228
 31
0.0
  0
LINE
  5
A1
100
AcDbEntity
  8
0
  6
Continuous
 62
   174
100
AcDbLine
 10
186.957677
 20
55.247853
 30
0.0
 11
186.947678
 21
55.239764
 31
0.0
  0
LINE
  5
A2
100
AcDbEntity
  8
0
  6
Continuous
 62
   174
100
AcDbLine
 10
106.947678
 20
42.782606
 30
0.0
 11
106.957677
 21
42.773365
 31
0.0
  0
LINE
  5
A3
100
AcDbEntity
  8
0
  6
Continuous
 62
   174
100
AcDbLine
 10
186.947678
 20
51.652459
 30
0.0
 11
186.957677
 21
51.655548
 31
0.0
  0
LINE
  5
A4
100
AcDbEntity
  8
0
  6
Continuous
 62
   174
100
AcDbLine
 10
188.957677
 20
47.211717
 30
0.0
 11
188.957677
 21
45.213592
 31
0.0
  0
LINE
  5
A5
100
AcDbEntity
  8
0
  6
Continuous
 62
   174
100
AcDbLine
 10
112.957677
 20
42.773365
 30
0.0
 11
112.967675
 21
42.782606
 31
0.0
  0
LINE
  5
A6
100
AcDbEntity
  8
0
  6
Continuous
 62
   174
100
AcDbLine
 10
112.957677
 20
52.185788
 30
0.0
 11
112.957677
 21
50.00476
 31
0.0
  0
LINE
  5
A7
100
AcDbEntity
  8
0
  6
Continuous
 62
   174
100
AcDbLine
 10
106.947678
 20
47.74595
 30
0.0
 11
106.957677
 21
47.743607
 31
0.0
  0
LINE
  5
A8
100
AcDbEntity
  8
0
  6
Continuous
 62
   174
100
AcDbLine
 10
106.957677
 20
49.979312
 30
0.0
 11
108.957677
 21
49.979312
 31
0.0
  0
LINE
  5
A9
100
AcDbEntity
  8
0
  6
Continuous
 62
   174
100
AcDbLine
 10
188.957677
 20
55.253731
 30
0.0
 11
188.967675
 21
55.245642
 31
0.0
  0
LINE
  5
AA
100
AcDbEntity
  8
0
  6
Continuous
 62
   174
100
AcDbLine
 10
186.957677
 20
42.576721
 30
0.0
 11
188.957677
 21
42.576721
 31
0.0
  0
LINE
  5
AB
100
AcDbEntity
  8
0
  6
Continuous
 62
   174
100
AcDbLine
 10
108.967675
 20
52.166747
 30
0.0
 11
108.957677
 21
52.170565
 31
0.0
  0
LINE
  5
AC
100
AcDbEntity
  8
0
  6
Continuous
 62
   174
100
AcDbLine
 10
110.957677
 20
42.769546
 30
0.0
 11
110.947678
 21
42.778787
 31
0.0
  0
LINE
  5
AD
100
AcDbEntity
  8
0
  6
Continuous
 62
   174
100
AcDbLine
 10
112.967675
 20
47.736228
 30
0.0
 11
112.957677
 21
47.733885
 31
0.0
  0
LINE
  5
AE
100
AcDbEntity
  8
0
  6
Continuous
 62
   174
100
AcDbLine
 10
110.947678
 20
54.094271
 30
0.0
 11
110.957677
 21
54.100757
 31
0.0
  0
LINE
  5
AF
100
AcDbEntity
  8
0
  6
Continuous
 62
   174
100
AcDbLine
 10
106.957677
 20
42.225871
 30
0.0
 11
108.957677
 21
42.225871
 31
0.0
  0
LINE
  5
B0
100
AcDbEntity
  8
0
  6
Continuous
 62
   174
100
AcDbLine
 10
110.457677
 20
56.140828
 30
0.0
 11
110.457677
 21
42.741745
 31
0.0
  0
LINE
  5
B1
100
AcDbEntity
  8
0
  6
Continuous
 62
   174
100
AcDbLine
 10
188.957677
 20
45.205307
 30
0.0
 11
188.957677
 21
43.619722
 31
0.0
  0
LINE
  5
B2
100
AcDbEntity
  8
0
  6
Continuous
 62
   174
100
AcDbLine
 10
188.957677
 20
56.275022
 30
0.0
 11
188.967675
 21
56.265513
 31
0.0
  0
LINE
  5
B3
100
AcDbEntity
  8
0
  6
Continuous
 62
   174
100
AcDbLine
 10
186.957677
 20
47.196194
 30
0.0
 11
188.957677
 21
47.196194
 31
0.0
  0
LINE
  5
B4
100
AcDbEntity
  8
0
  6
Continuous
 62
   174
100
AcDbLine
 10
188.957677
 20
53.668981
 30
0.0
 11
188.957677
 21
51.670856
 31
0.0
  0
LINE
  5
B5
100
AcDbEntity
  8
0
  6
Continuous
 62
   174
100
AcDbLine
 10
109.457677
 20
43.249243
 30
0.0
 11
109.457677
 21
56.140828
 31
0.0
  0
LINE
  5
B6
100
AcDbEntity
  8
0
  6
Continuous
 62
   174
100
AcDbLine
 10
106.957677
 20
54.093147
 30
0.0
 11
106.947678
 21
54.086661
 31
0.0
  0
LWPOLYLINE
  5
B7
100
AcDbEntity
  8
0
  6
Continuous
 62
   174
100
AcDbPolyline
 90
        2
 70
   129
 10
190.947678
 20
42.235871
 10
190.947677
 20
42.235871
  0
LINE
  5
B8
100
AcDbEntity
  8
0
  6
Continuous
 62
   174
100
AcDbLine
 10
190.957677
 20
42.576721
 30
0.0
 11
190.947678
 21
42.58623
 31
0.0
  0
LINE
  5
B9
100
AcDbEntity
  8
0
  6
Continuous
 62
   174
100
AcDbLine
 10
190.957677
 20
43.598011
 30
0.0
 11
192.957677
 21
43.598011
 31
0.0
  0
LINE
  5
BA
100
AcDbEntity
  8
0
  6
Continuous
 62
   174
100
AcDbLine
 10
108.957677
 20
47.743607
 30
0.0
 11
108.967675
 21
47.74595
 31
0.0
  0
LINE
  5
BB
100
AcDbEntity
  8
0
  6
Continuous
 62
   174
100
AcDbLine
 10
192.957677
 20
49.436294
 30
0.0
 11
192.957677
 21
47.221277
 31
0.0
  0
LINE
  5
BC
100
AcDbEntity
  8
0
  6
Continuous
 62
   174
100
AcDbLine
 10
188.967675
 20
47.199284
 30
0.0
 11
186.947678
 21
47.199284
 31
0.0
  0
LINE
  5
BD
100
AcDbEntity
  8
0
  6
Continuous
 62
   174
100
AcDbLine
 10
112.957677
 20
56.64089
 30
0.0
 11
112.957677
 21
56.44163
 31
0.0
  0
LINE
  5
BE
100
AcDbEntity
  8
0
  6
Continuous
 62
   174
100
AcDbLine
 10
110.957677
 20
52.170565
 30
0.0
 11
112.957677
 21
52.170565
 31
0.0
  0
LINE
  5
BF
100
AcDbEntity
  8
0
  6
Continuous
 62
   174
100
AcDbLine
 10
106.957677
 20
42.769546
 30
0.0
 11
106.947678
 21
42.778787
 31
0.0
  0
LINE
  5
C0
100
AcDbEntity
  8
0
  6
Continuous
 62
   174
100
AcDbLine
 10
112.957677
 20
47.74938
 30
0.0
 11
112.957677
 21
45.678178
 31
0.0
  0
LINE
  5
C1
100
AcDbEntity
  8
0
  6
Continuous
 62
   174
100
AcDbLine
 10
190.957677
 20
53.653879
 30
0.0
 11
192.957677
 21
53.653879
 31
0.0
  0
LINE
  5
C2
100
AcDbEntity
  8
0
  6
Continuous
 62
   174
100
AcDbLine
 10
112.957677
 20
47.743607
 30
0.0
 11
112.967675
 21
47.74595
 31
0.0
  0
LINE
  5
C3
100
AcDbEntity
  8
0
  6
Continuous
 62
   174
100
AcDbLine
 10
190.947678
 20
42.235871
 30
0.0
 11
190.957677
 21
42.225873
 31
0.0
  0
LINE
  5
C4
100
AcDbEntity
  8
0
  6
Continuous
 62
   174
100
AcDbLine
 10
110.957677
 20
43.965772
 30
0.0
 11
110.957677
 21
45.669681
 31
0.0
  0
LINE
  5
C5
100
AcDbEntity
  8
0
  6
Continuous
 62
   174
100
AcDbLine
 10
194.457677
 20
56.040985
 30
0.0
 11
194.457677
 21
49.44118
 31
0.0
  0
LINE
  5
C6
100
AcDbEntity
  8
0
  6
Continuous
 62
   174
100
AcDbLine
 10
190.957677
 20
51.646038
 30
0.0
 11
192.957677
 21
51.646038
 31
0.0
  0
LINE
  5
C7
100
AcDbEntity
  8
0
  6
Continuous
 62
   174
100
AcDbLine
 10
188.957677
 20
51.655548
 30
0.0
 11
186.957677
 21
51.655548
 31
0.0
  0
LINE
  5
C8
100
AcDbEntity
  8
0
  6
Continuous
 62
   174
100
AcDbLine
 10
108.957677
 20
49.994775
 30
0.0
 11
108.957677
 21
47.759152
 31
0.0
  0
LINE
  5
C9
100
AcDbEntity
  8
0
  6
Continuous
 62
   174
100
AcDbLine
 10
108.957677
 20
56.625871
 30
0.0
 11
106.957677
 21
56.625871
 31
0.0
  0
LINE
  5
CA
100
AcDbEntity
  8
0
  6
Continuous
 62
   174
100
AcDbLine
 10
112.967675
 20
52.166747
 30
0.0
 11
112.957677
 21
52.170565
 31
0.0
  0
LINE
  5
CB
100
AcDbEntity
  8
0
  6
Continuous
 62
   174
100
AcDbLine
 10
112.957677
 20
42.773365
 30
0.0
 11
110.957677
 21
42.773365
 31
0.0
  0
LINE
  5
CC
100
AcDbEntity
  8
0
  6
Continuous
 62
   174
100
AcDbLine
 10
181.957677
 20
22.925871
 30
0.0
 11
181.957677
 21
62.925871
 31
0.0
  0
LWPOLYLINE
  5
CD
100
AcDbEntity
  8
0
  6
Continuous
 62
   174
100
AcDbPolyline
 90
        3
 70
   128
 10
186.947678
 20
49.420871
 10
186.947677
 20
49.425871
 10
186.947678
 20
49.430871
  0
LINE
  5
CE
100
AcDbEntity
  8
0
  6
Continuous
 62
   174
100
AcDbLine
 10
112.967675
 20
43.951096
 30
0.0
 11
112.957677
 21
43.943487
 31
0.0
  0
LINE
  5
CF
100
AcDbEntity
  8
0
  6
Continuous
 62
   174
100
AcDbLine
 10
106.947678
 20
47.736228
 30
0.0
 11
108.967675
 21
47.736228
 31
0.0
  0
LINE
  5
D0
100
AcDbEntity
  8
0
  6
Continuous
 62
   174
100
AcDbLine
 10
110.947678
 20
52.175989
 30
0.0
 11
112.967675
 21
52.175989
 31
0.0
  0
LINE
  5
D1
100
AcDbEntity
  8
0
  6
Continuous
 62
   174
100
AcDbLine
 10
110.957677
 20
45.654082
 30
0.0
 11
112.957677
 21
45.654082
 31
0.0
  0
LINE
  5
D2
100
AcDbEntity
  8
0
  6
Continuous
 62
   174
100
AcDbLine
 10
106.957677
 20
45.654082
 30
0.0
 11
106.947678
 21
45.659313
 31
0.0
  0
LINE
  5
D3
100
AcDbEntity
  8
0
  6
Continuous
 62
   174
100
AcDbLine
 10
108.967675
 20
43.951096
 30
0.0
 11
108.957677
 21
43.943487
 31
0.0
  0
LINE
  5
D4
100
AcDbEntity
  8
0
  6
Continuous
 62
   174
100
AcDbLine
 10
112.957677
 20
47.743607
 30
0.0
 11
110.957677
 21
47.743607
 31
0.0
  0
LINE
  5
D5
100
AcDbEntity
  8
0
  6
Continuous
 62
   174
100
AcDbLine
 10
190.957677
 20
55.247853
 30
0.0
 11
192.957677
 21
55.247853
 31
0.0
  0
LINE
  5
D6
100
AcDbEntity
  8
0
  6
Continuous
 62
   174
100
AcDbLine
 10
106.947678
 20
54.094271
 30
0.0
 11
106.957677
 21
54.100757
 31
0.0
  0
LINE
  5
D7
100
AcDbEntity
  8
0
  6
Continuous
 62
   174
100
AcDbLine
 10
106.947678
 20
49.988507
 30
0.0
 11
106.957677
 21
49.989282
 31
0.0
  0
LINE
  5
D8
100
AcDbEntity
  8
0
  6
Continuous
 62
   174
100
AcDbLine
 10
110.957677
 20
56.424241
 30
0.0
 11
112.957677
 21
56.424241
 31
0.0
  0
LWPOLYLINE
  5
D9
100
AcDbEntity
  8
0
  6
Continuous
 62
   174
100
AcDbPolyline
 90
        3
 70
   128
 10
188.967675
 20
49.430871
 10
188.967677
 20
49.425871
 10
188.967675
 20
49.420871
  0
LINE
  5
DA
100
AcDbEntity
  8
0
  6
Continuous
 62
   174
100
AcDbLine
 10
192.967675
 20
51.642948
 30
0.0
 11
192.957677
 21
51.646038
 31
0.0
  0
LINE
  5
DB
100
AcDbEntity
  8
0
  6
Continuous
 62
   174
100
AcDbLine
 10
112.967675
 20
54.086661
 30
0.0
 11
112.957677
 21
54.093147
 31
0.0
  0
LINE
  5
DC
100
AcDbEntity
  8
0
  6
Continuous
 62
   174
100
AcDbLine
 10
192.957677
 20
55.262851
 30
0.0
 11
192.957677
 21
53.677053
 31
0.0
  0
LINE
  5
DD
100
AcDbEntity
  8
0
  6
Continuous
 62
   174
100
AcDbLine
 10
110.957677
 20
49.979312
 30
0.0
 11
112.957677
 21
49.979312
 31
0.0
  0
LINE
  5
DE
100
AcDbEntity
  8
0
  6
Continuous
 62
   174
100
AcDbLine
 10
110.957677
 20
50.00476
 30
0.0
 11
110.957677
 21
52.185788
 31
0.0
  0
LINE
  5
DF
100
AcDbEntity
  8
0
  6
Continuous
 62
   174
100
AcDbLine
 10
188.957677
 20
47.205705
 30
0.0
 11
188.967675
 21
47.208794
 31
0.0
  0
LINE
  5
E0
100
AcDbEntity
  8
0
  6
Continuous
 62
   174
100
AcDbLine
 10
110.957677
 20
42.769546
 30
0.0
 11
112.957677
 21
42.769546
 31
0.0
  0
LINE
  5
E1
100
AcDbEntity
  8
0
  6
Continuous
 62
   174
100
AcDbLine
 10
110.947678
 20
45.667835
 30
0.0
 11
110.957677
 21
45.662603
 31
0.0
  0
LINE
  5
E2
100
AcDbEntity
  8
0
  6
Continuous
 62
   174
100
AcDbLine
 10
192.967675
 20
53.648002
 30
0.0
 11
192.957677
 21
53.653879
 31
0.0
  0
LINE
  5
E3
100
AcDbEntity
  8
0
  6
Continuous
 62
   174
100
AcDbLine
 10
110.957677
 20
45.678178
 30
0.0
 11
110.957677
 21
47.74938
 31
0.0
  0
LINE
  5
E4
100
AcDbEntity
  8
0
  6
Continuous
 62
   174
100
AcDbLine
 10
186.957677
 20
45.213592
 30
0.0
 11
186.957677
 21
47.211717
 31
0.0
  0
LINE
  5
E5
100
AcDbEntity
  8
0
  6
Continuous
 62
   174
100
AcDbLine
 10
113.457677
 20
43.249243
 30
0.0
 11
113.457677
 21
56.140828
 31
0.0
  0
LINE
  5
E6
100
AcDbEntity
  8
0
  6
Continuous
 62
   174
100
AcDbLine
 10
188.957677
 20
42.225873
 30
0.0
 11
188.967675
 21
42.235871
 31
0.0
  0
LINE
  5
E7
100
AcDbEntity
  8
0
  6
Continuous
 62
   174
100
AcDbLine
 10
186.957677
 20
47.221277
 30
0.0
 11
186.957677
 21
49.436294
 31
0.0
  0
LINE
  5
E8
100
AcDbEntity
  8
0
  6
Continuous
 62
   174
100
AcDbLine
 10
117.957677
 20
62.925871
 30
0.0
 11
117.957677
 21
22.925871
 31
0.0
  0
LINE
  5
E9
100
AcDbEntity
  8
0
  6
Continuous
 62
   174
100
AcDbLine
 10
192.957677
 20
43.613774
 30
0.0
 11
192.957677
 21
42.595593
 31
0.0
  0
LINE
  5
EA
100
AcDbEntity
  8
0
  6
Continuous
 62
   174
100
AcDbLine
 10
109.457677
 20
42.741745
 30
0.0
 11
109.457677
 21
43.249243
 31
0.0
  0
LINE
  5
EB
100
AcDbEntity
  8
0
  6
Continuous
 62
   174
100
AcDbLine
 10
112.957677
 20
49.994775
 30
0.0
 11
112.957677
 21
47.759152
 31
0.0
  0
LINE
  5
EC
100
AcDbEntity
  8
0
  6
Continuous
 62
   174
100
AcDbLine
 10
188.957677
 20
55.253731
 30
0.0
 11
186.957677
 21
55.253731
 31
0.0
  0
LINE
  5
ED
100
AcDbEntity
  8
0
  6
Continuous
 62
   174
100
AcDbLine
 10
192.967675
 20
47.199284
 30
0.0
 11
190.947678
 21
47.199284
 31
0.0
  0
LINE
  5
EE
100
AcDbEntity
  8
0
  6
Continuous
 62
   174
100
AcDbLine
 10
110.457677
 20
56.025871
 30
0.0
 11
109.457677
 21
56.025871
 31
0.0
  0
LINE
  5
EF
100
AcDbEntity
  8
0
  6
Continuous
 62
   174
100
AcDbLine
 10
192.957677
 20
53.661969
 30
0.0
 11
192.967675
 21
53.656092
 31
0.0
  0
LINE
  5
F0
100
AcDbEntity
  8
0
  6
Continuous
 62
   174
100
AcDbLine
 10
108.957677
 20
42.262926
 30
0.0
 11
108.957677
 21
42.241683
 31
0.0
  0
LINE
  5
F1
100
AcDbEntity
  8
0
  6
Continuous
 62
   174
100
AcDbLine
 10
186.947678
 20
43.611978
 30
0.0
 11
186.957677
 21
43.603889
 31
0.0
  0
LINE
  5
F2
100
AcDbEntity
  8
0
  6
Continuous
 62
   174
100
AcDbLine
 10
188.957677
 20
55.262851
 30
0.0
 11
188.957677
 21
53.677053
 31
0.0
  0
LINE
  5
F3
100
AcDbEntity
  8
0
  6
Continuous
 62
   174
100
AcDbLine
 10
115.957677
 20
56.025871
 30
0.0
 11
113.457677
 21
56.025871
 31
0.0
  0
CIRCLE
  5
F4
100
AcDbEntity
  8
0
  6
Continuous
 62
   174
100
AcDbCircle
 10
161.957677
 20
26.925871
 30
0.0
 40
2.75
  0
LINE
  5
F5
100
AcDbEntity
  8
0
  6
Continuous
 62
   174
100
AcDbLine
 10
188.957677
 20
42.579811
 30
0.0
 11
186.957677
 21
42.579811
 31
0.0
  0
LINE
  5
F6
100
AcDbEntity
  8
0
  6
Continuous
 62
   174
100
AcDbLine
 10
112.957677
 20
55.564097
 30
0.0
 11
110.957677
 21
55.564097
 31
0.0
  0
LINE
  5
F7
100
AcDbEntity
  8
0
  6
Continuous
 62
   174
100
AcDbLine
 10
110.947678
 20
55.555577
 30
0.0
 11
110.957677
 21
55.564097
 31
0.0
  0
LINE
  5
F8
100
AcDbEntity
  8
0
  6
Continuous
 62
   174
100
AcDbLine
 10
190.957677
 20
47.196194
 30
0.0
 11
192.957677
 21
47.196194
 31
0.0
  0
LINE
  5
F9
100
AcDbEntity
  8
0
  6
Continuous
 62
   174
100
AcDbLine
 10
110.957677
 20
45.654082
 30
0.0
 11
110.947678
 21
45.659313
 31
0.0
  0
LINE
  5
FA
100
AcDbEntity
  8
0
  6
Continuous
 62
   174
100
AcDbLine
 10
190.957677
 20
49.446279
 30
0.0
 11
190.957677
 21
51.661296
 31
0.0
  0
LINE
  5
FB
100
AcDbEntity
  8
0
  6
Continuous
 62
   174
100
AcDbLine
 10
108.957677
 20
56.426584
 30
0.0
 11
108.967675
 21
56.416865
 31
0.0
  0
LINE
  5
FC
100
AcDbEntity
  8
0
  6
Continuous
 62
   174
100
AcDbLine
 10
186.957677
 20
51.646038
 30
0.0
 11
186.947678
 21
51.642948
 31
0.0
  0
LINE
  5
FD
100
AcDbEntity
  8
0
  6
Continuous
 62
   174
100
AcDbLine
 10
192.957677
 20
49.430871
 30
0.0
 11
190.957677
 21
49.430871
 31
0.0
  0
LINE
  5
FE
100
AcDbEntity
  8
0
  6
Continuous
 62
   174
100
AcDbLine
 10
190.960183
 20
56.625869
 30
0.0
 11
192.955171
 21
56.625869
 31
0.0
  0
LINE
  5
FF
100
AcDbEntity
  8
0
  6
Continuous
 62
   174
100
AcDbLine
 10
186.957677
 20
51.670856
 30
0.0
 11
186.957677
 21
53.668981
 31
0.0
  0
LINE
  5
100
100
AcDbEntity
  8
0
  6
Continuous
 62
   174
100
AcDbLine
 10
106.957677
 20
42.263776
 30
0.0
 11
106.957677
 21
42.785294
 31
0.0
  0
LINE
  5
101
100
AcDbEntity
  8
0
  6
Continuous
 62
   174
100
AcDbLine
 10
110.947678
 20
42.782606
 30
0.0
 11
110.957677
 21
42.773365
 31
0.0
  0
LINE
  5
102
100
AcDbEntity
  8
0
  6
Continuous
 62
   174
100
AcDbLine
 10
106.957677
 20
47.733885
 30
0.0
 11
108.957677
 21
47.733885
 31
0.0
  0
LINE
  5
103
100
AcDbEntity
  8
0
  6
Continuous
 62
   174
100
AcDbLine
 10
190.947678
 20
53.656092
 30
0.0
 11
190.957677
 21
53.661969
 31
0.0
  0
LINE
  5
104
100
AcDbEntity
  8
0
  6
Continuous
 62
   174
100
AcDbLine
 10
190.947678
 20
42.58932
 30
0.0
 11
190.957677
 21
42.579811
 31
0.0
  0
LINE
  5
105
100
AcDbEntity
  8
0
  6
Continuous
 62
   174
100
AcDbLine
 10
186.957677
 20
43.619722
 30
0.0
 11
186.957677
 21
45.205307
 31
0.0
  0
LINE
  5
106
100
AcDbEntity
  8
0
  6
Continuous
 62
   174
100
AcDbLine
 10
108.957677
 20
43.949975
 30
0.0
 11
108.967675
 21
43.957583
 31
0.0
  0
LINE
  5
107
100
AcDbEntity
  8
0
  6
Continuous
 62
   174
100
AcDbLine
 10
188.967675
 20
42.58623
 30
0.0
 11
188.957677
 21
42.576721
 31
0.0
  0
LINE
  5
108
100
AcDbEntity
  8
0
  6
Continuous
 62
   174
100
AcDbLine
 10
106.957677
 20
52.170565
 30
0.0
 11
106.947678
 21
52.166747
 31
0.0
  0
CIRCLE
  5
109
100
AcDbEntity
  8
0
  6
Continuous
 62
   174
100
AcDbCircle
 10
149.957677
 20
26.925871
 30
0.0
 40
2.1
  0
LINE
  5
10A
100
AcDbEntity
  8
0
  6
Continuous
 62
   174
100
AcDbLine
 10
108.957677
 20
45.662603
 30
0.0
 11
108.967675
 21
45.667835
 31
0.0
  0
LINE
  5
10B
100
AcDbEntity
  8
0
  6
Continuous
 62
   174
100
AcDbLine
 10
106.957677
 20
47.733885
 30
0.0
 11
106.947678
 21
47.736228
 31
0.0
  0
LINE
  5
10C
100
AcDbEntity
  8
0
  6
Continuous
 62
   174
100
AcDbLine
 10
112.957677
 20
45.669681
 30
0.0
 11
112.957677
 21
43.965772
 31
0.0
  0
LINE
  5
10D
100
AcDbEntity
  8
0
  6
Continuous
 62
   174
100
AcDbLine
 10
108.957677
 20
45.669681
 30
0.0
 11
108.957677
 21
43.965772
 31
0.0
  0
LINE
  5
10E
100
AcDbEntity
  8
0
  6
Continuous
 62
   174
100
AcDbLine
 10
112.957677
 20
56.426584
 30
0.0
 11
112.967675
 21
56.416865
 31
0.0
  0
LINE
  5
10F
100
AcDbEntity
  8
0
  6
Continuous
 62
   174
100
AcDbLine
 10
190.957677
 20
43.619722
 30
0.0
 11
190.957677
 21
45.205307
 31
0.0
  0
LINE
  5
110
100
AcDbEntity
  8
0
  6
Continuous
 62
   174
100
AcDbLine
 10
106.957677
 20
55.558864
 30
0.0
 11
106.947678
 21
55.550344
 31
0.0
  0
LINE
  5
111
100
AcDbEntity
  8
0
  6
Continuous
 62
   174
100
AcDbLine
 10
188.957677
 20
49.430871
 30
0.0
 11
186.957677
 21
49.430871
 31
0.0
  0
LINE
  5
112
100
AcDbEntity
  8
0
  6
Continuous
 62
   174
100
AcDbLine
 10
106.957677
 20
42.789117
 30
0.0
 11
106.957677
 21
43.959187
 31
0.0
  0
LINE
  5
113
100
AcDbEntity
  8
0
  6
Continuous
 62
   174
100
AcDbLine
 10
110.947678
 20
47.74595
 30
0.0
 11
110.957677
 21
47.743607
 31
0.0
  0
LINE
  5
114
100
AcDbEntity
  8
0
  6
Continuous
 62
   174
100
AcDbLine
 10
112.957677
 20
54.100757
 30
0.0
 11
110.957677
 21
54.100757
 31
0.0
  0
LINE
  5
115
100
AcDbEntity
  8
0
  6
Continuous
 62
   174
100
AcDbLine
 10
109.457677
 20
42.825871
 30
0.0
 11
110.457677
 21
42.825871
 31
0.0
  0
LINE
  5
116
100
AcDbEntity
  8
0
  6
Continuous
 62
   174
100
AcDbLine
 10
110.947678
 20
45.659313
 30
0.0
 11
112.967675
 21
45.659313
 31
0.0
  0
LINE
  5
117
100
AcDbEntity
  8
0
  6
Continuous
 62
   174
100
AcDbLine
 10
112.957677
 20
49.989282
 30
0.0
 11
110.957677
 21
49.989282
 31
0.0
  0
LINE
  5
118
100
AcDbEntity
  8
0
  6
Continuous
 62
   174
100
AcDbLine
 10
113.457677
 20
42.825871
 30
0.0
 11
115.957677
 21
42.825871
 31
0.0
  0
LINE
  5
119
100
AcDbEntity
  8
0
  6
Continuous
 62
   174
100
AcDbLine
 10
106.957677
 20
43.965772
 30
0.0
 11
106.957677
 21
45.669681
 31
0.0
  0
LINE
  5
11A
100
AcDbEntity
  8
0
  6
Continuous
 62
   174
100
AcDbLine
 10
113.457677
 20
42.741745
 30
0.0
 11
113.457677
 21
43.249243
 31
0.0
  0
LINE
  5
11B
100
AcDbEntity
  8
0
  6
Continuous
 62
   174
100
AcDbLine
 10
190.947678
 20
43.611978
 30
0.0
 11
190.957677
 21
43.603889
 31
0.0
  0
LINE
  5
11C
100
AcDbEntity
  8
0
  6
Continuous
 62
   174
100
AcDbLine
 10
192.957677
 20
47.211717
 30
0.0
 11
192.957677
 21
45.213592
 31
0.0
  0
LINE
  5
11D
100
AcDbEntity
  8
0
  6
Continuous
 62
   174
100
AcDbLine
 10
112.967675
 20
55.550344
 30
0.0
 11
112.957677
 21
55.558864
 31
0.0
  0
LINE
  5
11E
100
AcDbEntity
  8
0
  6
Continuous
 62
   174
100
AcDbLine
 10
108.957677
 20
56.64089
 30
0.0
 11
108.957677
 21
56.44163
 31
0.0
  0
LINE
  5
11F
100
AcDbEntity
  8
0
  6
Continuous
 62
   174
100
AcDbLine
 10
188.957677
 20
47.205705
 30
0.0
 11
186.957677
 21
47.205705
 31
0.0
  0
LINE
  5
120
100
AcDbEntity
  8
0
  6
Continuous
 62
   174
100
AcDbLine
 10
190.957677
 20
47.196194
 30
0.0
 11
190.947678
 21
47.199284
 31
0.0
  0
LINE
  5
121
100
AcDbEntity
  8
0
  6
Continuous
 62
   174
100
AcDbLine
 10
181.957677
 20
62.925871
 30
0.0
 11
117.957677
 21
62.925871
 31
0.0
  0
LINE
  5
122
100
AcDbEntity
  8
0
  6
Continuous
 62
   174
100
AcDbLine
 10
194.457677
 20
42.825871
 30
0.0
 11
194.957677
 21
43.325871
 31
0.0
  0
LINE
  5
123
100
AcDbEntity
  8
0
  6
Continuous
 62
   174
100
AcDbLine
 10
186.957677
 20
43.598011
 30
0.0
 11
186.947678
 21
43.6061
 31
0.0
  0
LINE
  5
124
100
AcDbEntity
  8
0
  6
Continuous
 62
   174
100
AcDbLine
 10
188.967675
 20
56.262422
 30
0.0
 11
188.957677
 21
56.271931
 31
0.0
  0
LINE
  5
125
100
AcDbEntity
  8
0
  6
Continuous
 62
   174
100
AcDbLine
 10
108.957677
 20
55.564097
 30
0.0
 11
108.967675
 21
55.555577
 31
0.0
  0
LINE
  5
126
100
AcDbEntity
  8
0
  6
Continuous
 62
   174
100
AcDbLine
 10
106.457677
 20
56.025871
 30
0.0
 11
105.457677
 21
56.025871
 31
0.0
  0
LINE
  5
127
100
AcDbEntity
  8
0
  6
Continuous
 62
   174
100
AcDbLine
 10
106.457677
 20
56.140828
 30
0.0
 11
106.457677
 21
42.741745
 31
0.0
  0
LWPOLYLINE
  5
128
100
AcDbEntity
  8
0
  6
Continuous
 62
   174
100
AcDbPolyline
 90
        3
 70
   128
 10
190.947678
 20
49.420871
 10
190.947677
 20
49.425871
 10
190.947678
 20
49.430871
  0
LINE
  5
129
100
AcDbEntity
  8
0
  6
Continuous
 62
   174
100
AcDbLine
 10
186.947678
 20
42.235871
 30
0.0
 11
186.957677
 21
42.225873
 31
0.0
  0
LINE
  5
12A
100
AcDbEntity
  8
0
  6
Continuous
 62
   174
100
AcDbLine
 10
192.957677
 20
51.661296
 30
0.0
 11
192.957677
 21
49.446279
 31
0.0
  0
LINE
  5
12B
100
AcDbEntity
  8
0
  6
Continuous
 62
   174
100
AcDbLine
 10
190.957677
 20
45.189773
 30
0.0
 11
190.947678
 21
45.19565
 31
0.0
  0
LINE
  5
12C
100
AcDbEntity
  8
0
  6
Continuous
 62
   174
100
AcDbLine
 10
186.957677
 20
49.446279
 30
0.0
 11
186.957677
 21
51.661296
 31
0.0
  0
LWPOLYLINE
  5
12D
100
AcDbEntity
  8
0
  6
Continuous
 62
   174
100
AcDbPolyline
 90
        3
 70
   128
 10
108.967675
 20
42.782606
 10
108.967677
 20
42.780696
 10
108.967675
 20
42.778787
  0
LINE
  5
12E
100
AcDbEntity
  8
0
  6
Continuous
 62
   174
100
AcDbLine
 10
110.957677
 20
42.789117
 30
0.0
 11
110.957677
 21
43.959187
 31
0.0
  0
LINE
  5
12F
100
AcDbEntity
  8
0
  6
Continuous
 62
   174
100
AcDbLine
 10
110.947678
 20
56.416865
 30
0.0
 11
110.957677
 21
56.426584
 31
0.0
  0
LINE
  5
130
100
AcDbEntity
  8
0
  6
Continuous
 62
   174
100
AcDbLine
 10
192.957677
 20
56.275022
 30
0.0
 11
192.967675
 21
56.265513
 31
0.0
  0
LINE
  5
131
100
AcDbEntity
  8
0
  6
Continuous
 62
   174
100
AcDbLine
 10
188.957677
 20
45.197863
 30
0.0
 11
188.967675
 21
45.20374
 31
0.0
  0
LINE
  5
132
100
AcDbEntity
  8
0
  6
Continuous
 62
   174
100
AcDbLine
 10
190.947678
 20
47.208794
 30
0.0
 11
190.957677
 21
47.205705
 31
0.0
  0
LINE
  5
133
100
AcDbEntity
  8
0
  6
Continuous
 62
   174
100
AcDbLine
 10
115.957677
 20
42.825871
 30
0.0
 11
117.957677
 21
43.980572
 31
0.0
  0
LINE
  5
134
100
AcDbEntity
  8
0
  6
Continuous
 62
   174
100
AcDbLine
 10
112.957677
 20
42.785294
 30
0.0
 11
112.957677
 21
42.263776
 31
0.0
  0
LINE
  5
135
100
AcDbEntity
  8
0
  6
Continuous
 62
   174
100
AcDbLine
 10
186.957677
 20
43.598011
 30
0.0
 11
188.957677
 21
43.598011
 31
0.0
  0
LINE
  5
136
100
AcDbEntity
  8
0
  6
Continuous
 62
   174
100
AcDbLine
 10
192.967675
 20
56.262422
 30
0.0
 11
192.957677
 21
56.271931
 31
0.0
  0
LINE
  5
137
100
AcDbEntity
  8
0
  6
Continuous
 62
   174
100
AcDbLine
 10
106.957677
 20
55.57916
 30
0.0
 11
106.957677
 21
56.439293
 31
0.0
  0
LINE
  5
138
100
AcDbEntity
  8
0
  6
Continuous
 62
   174
100
AcDbLine
 10
106.957677
 20
42.769546
 30
0.0
 11
108.957677
 21
42.769546
 31
0.0
  0
LINE
  5
139
100
AcDbEntity
  8
0
  6
Continuous
 62
   174
100
AcDbLine
 10
110.957677
 20
43.943487
 30
0.0
 11
112.957677
 21
43.943487
 31
0.0
  0
LINE
  5
13A
100
AcDbEntity
  8
0
  6
Continuous
 62
   174
100
AcDbLine
 10
192.967675
 20
42.58623
 30
0.0
 11
192.957677
 21
42.576721
 31
0.0
  0
LINE
  5
13B
100
AcDbEntity
  8
0
  6
Continuous
 62
   174
100
AcDbLine
 10
104.957677
 20
55.540923
 30
0.0
 11
104.957677
 21
43.34165
 31
0.0
  0
LINE
  5
13C
100
AcDbEntity
  8
0
  6
Continuous
 62
   174
100
AcDbLine
 10
189.457677
 20
49.44118
 30
0.0
 11
189.457677
 21
56.140828
 31
0.0
  0
LINE
  5
13D
100
AcDbEntity
  8
0
  6
Continuous
 62
   174
100
AcDbLine
 10
192.957677
 20
42.579811
 30
0.0
 11
190.957677
 21
42.579811
 31
0.0
  0
LINE
  5
13E
100
AcDbEntity
  8
0
  6
Continuous
 62
   174
100
AcDbLine
 10
112.967675
 20
42.778787
 30
0.0
 11
112.957677
 21
42.769546
 31
0.0
  0
LINE
  5
13F
100
AcDbEntity
  8
0
  6
Continuous
 62
   174
100
AcDbLine
 10
108.957677
 20
45.662603
 30
0.0
 11
106.957677
 21
45.662603
 31
0.0
  0
LWPOLYLINE
  5
140
100
AcDbEntity
  8
0
  6
Continuous
 62
   174
100
AcDbPolyline
 90
        3
 70
   128
 10
192.967675
 20
49.430871
 10
192.967677
 20
49.425871
 10
192.967675
 20
49.420871
  0
LINE
  5
141
100
AcDbEntity
  8
0
  6
Continuous
 62
   174
100
AcDbLine
 10
192.957677
 20
55.253731
 30
0.0
 11
192.967675
 21
55.245642
 31
0.0
  0
LINE
  5
142
100
AcDbEntity
  8
0
  6
Continuous
 62
   174
100
AcDbLine
 10
108.967675
 20
49.978537
 30
0.0
 11
108.957677
 21
49.979312
 31
0.0
  0
LINE
  5
143
100
AcDbEntity
  8
0
  6
Continuous
 62
   174
100
AcDbLine
 10
186.957677
 20
42.576721
 30
0.0
 11
186.947678
 21
42.58623
 31
0.0
  0
LINE
  5
144
100
AcDbEntity
  8
0
  6
Continuous
 62
   174
100
AcDbLine
 10
194.957677
 20
55.525871
 30
0.0
 11
194.457677
 21
56.025871
 31
0.0
  0
LINE
  5
145
100
AcDbEntity
  8
0
  6
Continuous
 62
   174
100
AcDbLine
 10
186.957677
 20
56.271931
 30
0.0
 11
188.957677
 21
56.271931
 31
0.0
  0
LINE
  5
146
100
AcDbEntity
  8
0
  6
Continuous
 62
   174
100
AcDbLine
 10
106.957677
 20
52.170565
 30
0.0
 11
108.957677
 21
52.170565
 31
0.0
  0
LWPOLYLINE
  5
147
100
AcDbEntity
  8
0
  6
Continuous
 62
   174
100
AcDbPolyline
 90
        3
 70
   128
 10
106.947678
 20
42.778787
 10
106.947677
 20
42.780696
 10
106.947678
 20
42.782606
  0
LINE
  5
148
100
AcDbEntity
  8
0
  6
Continuous
 62
   174
100
AcDbLine
 10
105.457677
 20
42.825871
 30
0.0
 11
106.457677
 21
42.825871
 31
0.0
  0
LINE
  5
149
100
AcDbEntity
  8
0
  6
Continuous
 62
   174
100
AcDbLine
 10
192.957677
 20
56.275022
 30
0.0
 11
190.957677
 21
56.275022
 31
0.0
  0
LINE
  5
14A
100
AcDbEntity
  8
0
  6
Continuous
 62
   174
100
AcDbLine
 10
186.947678
 20
56.265513
 30
0.0
 11
186.957677
 21
56.275022
 31
0.0
  0
LINE
  5
14B
100
AcDbEntity
  8
0
  6
Continuous
 62
   174
100
AcDbLine
 10
183.957677
 20
42.825871
 30
0.0
 11
186.457677
 21
42.825871
 31
0.0
  0
LINE
  5
14C
100
AcDbEntity
  8
0
  6
Continuous
 62
   174
100
AcDbLine
 10
106.957677
 20
56.44163
 30
0.0
 11
106.957677
 21
56.64089
 31
0.0
  0
LINE
  5
14D
100
AcDbEntity
  8
0
  6
Continuous
 62
   174
100
AcDbLine
 10
192.957677
 20
51.655548
 30
0.0
 11
190.957677
 21
51.655548
 31
0.0
  0
LINE
  5
14E
100
AcDbEntity
  8
0
  6
Continuous
 62
   174
100
AcDbLine
 10
190.957677
 20
42.241683
 30
0.0
 11
190.957677
 21
42.592406
 31
0.0
  0
LINE
  5
14F
100
AcDbEntity
  8
0
  6
Continuous
 62
   174
100
AcDbLine
 10
192.957677
 20
55.253731
 30
0.0
 11
190.957677
 21
55.253731
 31
0.0
  0
LINE
  5
150
100
AcDbEntity
  8
0
  6
Continuous
 62
   174
100
AcDbLine
 10
106.947678
 20
43.957583
 30
0.0
 11
106.957677
 21
43.949975
 31
0.0
  0
LINE
  5
151
100
AcDbEntity
  8
0
  6
Continuous
 62
   174
100
AcDbLine
 10
186.947678
 20
42.58932
 30
0.0
 11
186.957677
 21
42.579811
 31
0.0
  0
CIRCLE
  5
152
100
AcDbEntity
  8
0
  6
Continuous
 62
   174
100
AcDbCircle
 10
149.957677
 20
58.925871
 30
0.0
 40
2.1
  0
LINE
  5
153
100
AcDbEntity
  8
0
  6
Continuous
 62
   174
100
AcDbLine
 10
112.957677
 20
43.959187
 30
0.0
 11
112.957677
 21
42.789117
 31
0.0
  0
LINE
  5
154
100
AcDbEntity
  8
0
  6
Continuous
 62
   174
100
AcDbLine
 10
186.957677
 20
47.196194
 30
0.0
 11
186.947678
 21
47.199284
 31
0.0
  0
LINE
  5
155
100
AcDbEntity
  8
0
  6
Continuous
 62
   174
100
AcDbLine
 10
117.957677
 20
54.871171
 30
0.0
 11
115.957677
 21
56.025871
 31
0.0
  0
LINE
  5
156
100
AcDbEntity
  8
0
  6
Continuous
 62
   174
100
AcDbLine
 10
106.957677
 20
42.241683
 30
0.0
 11
106.957677
 21
42.262926
 31
0.0
  0
LINE
  5
157
100
AcDbEntity
  8
0
  6
Continuous
 62
   174
100
AcDbLine
 10
112.957677
 20
56.426584
 30
0.0
 11
110.957677
 21
56.426584
 31
0.0
  0
LINE
  5
158
100
AcDbEntity
  8
0
  6
Continuous
 62
   174
100
AcDbLine
 10
190.957677
 20
45.213592
 30
0.0
 11
190.957677
 21
47.211717
 31
0.0
  0
LINE
  5
159
100
AcDbEntity
  8
0
  6
Continuous
 62
   174
100
AcDbLine
 10
188.967675
 20
53.648002
 30
0.0
 11
188.957677
 21
53.653879
 31
0.0
  0
LINE
  5
15A
100
AcDbEntity
  8
0
  6
Continuous
 62
   174
100
AcDbLine
 10
186.957677
 20
49.420871
 30
0.0
 11
188.957677
 21
49.420871
 31
0.0
  0
LINE
  5
15B
100
AcDbEntity
  8
0
  6
Continuous
 62
   174
100
AcDbLine
 10
192.957677
 20
47.205705
 30
0.0
 11
192.967675
 21
47.208794
 31
0.0
  0
LWPOLYLINE
  5
15C
100
AcDbEntity
  8
0
  6
Continuous
 62
   174
100
AcDbPolyline
 90
        2
 70
   129
 10
112.967675
 20
42.782606
 10
112.967677
 20
42.780696
  0
LINE
  5
15D
100
AcDbEntity
  8
0
  6
Continuous
 62
   174
100
AcDbLine
 10
112.957677
 20
43.949975
 30
0.0
 11
110.957677
 21
43.949975
 31
0.0
  0
LINE
  5
15E
100
AcDbEntity
  8
0
  6
Continuous
 62
   174
100
AcDbLine
 10
108.957677
 20
49.989282
 30
0.0
 11
106.957677
 21
49.989282
 31
0.0
  0
LINE
  5
15F
100
AcDbEntity
  8
0
  6
Continuous
 62
   174
100
AcDbLine
 10
112.957677
 20
55.564097
 30
0.0
 11
112.967675
 21
55.555577
 31
0.0
  0
LINE
  5
160
100
AcDbEntity
  8
0
  6
Continuous
 62
   174
100
AcDbLine
 10
106.957677
 20
56.424241
 30
0.0
 11
106.947678
 21
56.414521
 31
0.0
  0
LINE
  5
161
100
AcDbEntity
  8
0
  6
Continuous
 62
   174
100
AcDbLine
 10
192.957677
 20
43.603889
 30
0.0
 11
190.957677
 21
43.603889
 31
0.0
  0
LINE
  5
162
100
AcDbEntity
  8
0
  6
Continuous
 62
   174
100
AcDbLine
 10
108.957677
 20
42.773365
 30
0.0
 11
108.967675
 21
42.782606
 31
0.0
  0
LINE
  5
163
100
AcDbEntity
  8
0
  6
Continuous
 62
   174
100
AcDbLine
 10
106.957677
 20
56.424241
 30
0.0
 11
108.957677
 21
56.424241
 31
0.0
  0
LINE
  5
164
100
AcDbEntity
  8
0
  6
Continuous
 62
   174
100
AcDbLine
 10
193.457677
 20
49.44118
 30
0.0
 11
193.457677
 21
56.140828
 31
0.0
  0
LINE
  5
165
100
AcDbEntity
  8
0
  6
Continuous
 62
   174
100
AcDbLine
 10
189.457677
 20
42.741745
 30
0.0
 11
189.457677
 21
49.44118
 31
0.0
  0
LINE
  5
166
100
AcDbEntity
  8
0
  6
Continuous
 62
   174
100
AcDbLine
 10
188.955171
 20
42.225873
 30
0.0
 11
186.960183
 21
42.225873
 31
0.0
  0
LINE
  5
167
100
AcDbEntity
  8
0
  6
Continuous
 62
   174
100
AcDbLine
 10
108.957677
 20
54.100757
 30
0.0
 11
108.967675
 21
54.094271
 31
0.0
  0
LINE
  5
168
100
AcDbEntity
  8
0
  6
Continuous
 62
   174
100
AcDbLine
 10
186.957677
 20
55.247853
 30
0.0
 11
188.957677
 21
55.247853
 31
0.0
  0
LINE
  5
169
100
AcDbEntity
  8
0
  6
Continuous
 62
   174
100
AcDbLine
 10
188.957677
 20
51.661296
 30
0.0
 11
188.957677
 21
49.446279
 31
0.0
  0
LINE
  5
16A
100
AcDbEntity
  8
0
  6
Continuous
 62
   174
100
AcDbLine
 10
186.457677
 20
56.025871
 30
0.0
 11
183.957677
 21
56.025871
 31
0.0
  0
LINE
  5
16B
100
AcDbEntity
  8
0
  6
Continuous
 62
   174
100
AcDbLine
 10
117.957677
 20
22.925871
 30
0.0
 11
181.957677
 21
22.925871
 31
0.0
  0
LINE
  5
16C
100
AcDbEntity
  8
0
  6
Continuous
 62
   174
100
AcDbLine
 10
115.957677
 20
42.841588
 30
0.0
 11
115.957677
 21
56.040985
 31
0.0
  0
CIRCLE
  5
16D
100
AcDbEntity
  8
0
  6
Continuous
 62
   174
100
AcDbCircle
 10
137.957677
 20
58.925871
 30
0.0
 40
2.75
  0
LINE
  5
16E
100
AcDbEntity
  8
0
  6
Continuous
 62
   174
100
AcDbLine
 10
106.957677
 20
43.943487
 30
0.0
 11
106.947678
 21
43.951096
 31
0.0
  0
LINE
  5
16F
100
AcDbEntity
  8
0
  6
Continuous
 62
   174
100
AcDbLine
 10
188.957677
 20
42.592406
 30
0.0
 11
188.957677
 21
42.241683
 31
0.0
  0
LINE
  5
170
100
AcDbEntity
  8
0
  6
Continuous
 62
   174
100
AcDbLine
 10
106.947678
 20
45.659313
 30
0.0
 11
108.967675
 21
45.659313
 31
0.0
  0
LINE
  5
171
100
AcDbEntity
  8
0
  6
Continuous
 62
   174
100
AcDbLine
 10
112.957677
 20
54.100757
 30
0.0
 11
112.967675
 21
54.094271
 31
0.0
  0
LINE
  5
172
100
AcDbEntity
  8
0
  6
Continuous
 62
   174
100
AcDbLine
 10
110.957677
 20
47.733885
 30
0.0
 11
112.957677
 21
47.733885
 31
0.0
  0
LINE
  5
173
100
AcDbEntity
  8
0
  6
Continuous
 62
   174
100
AcDbLine
 10
189.457677
 20
42.825871
 30
0.0
 11
190.457677
 21
42.825871
 31
0.0
  0
LINE
  5
174
100
AcDbEntity
  8
0
  6
Continuous
 62
   174
100
AcDbLine
 10
193.457677
 20
42.825871
 30
0.0
 11
194.457677
 21
42.825871
 31
0.0
  0
LINE
  5
175
100
AcDbEntity
  8
0
  6
Continuous
 62
   174
100
AcDbLine
 10
190.457677
 20
56.140828
 30
0.0
 11
190.457677
 21
42.741745
 31
0.0
  0
LINE
  5
176
100
AcDbEntity
  8
0
  6
Continuous
 62
   174
100
AcDbLine
 10
188.957677
 20
51.655548
 30
0.0
 11
188.967675
 21
51.652459
 31
0.0
  0
LINE
  5
177
100
AcDbEntity
  8
0
  6
Continuous
 62
   174
100
AcDbLine
 10
186.957677
 20
45.189773
 30
0.0
 11
186.947678
 21
45.19565
 31
0.0
  0
LINE
  5
178
100
AcDbEntity
  8
0
  6
Continuous
 62
   174
100
AcDbLine
 10
188.957677
 20
53.661969
 30
0.0
 11
186.957677
 21
53.661969
 31
0.0
  0
LINE
  5
179
100
AcDbEntity
  8
0
  6
Continuous
 62
   174
100
AcDbLine
 10
186.957677
 20
53.653879
 30
0.0
 11
186.947678
 21
53.648002
 31
0.0
  0
LINE
  5
17A
100
AcDbEntity
  8
0
  6
Continuous
 62
   174
100
AcDbLine
 10
192.957677
 20
42.592406
 30
0.0
 11
192.957677
 21
42.241683
 31
0.0
  0
LINE
  5
17B
100
AcDbEntity
  8
0
  6
Continuous
 62
   174
100
AcDbLine
 10
108.957677
 20
54.100757
 30
0.0
 11
106.957677
 21
54.100757
 31
0.0
  0
LINE
  5
17C
100
AcDbEntity
  8
0
  6
Continuous
 62
   174
100
AcDbLine
 10
110.947678
 20
47.736228
 30
0.0
 11
112.967675
 21
47.736228
 31
0.0
  0
LINE
  5
17D
100
AcDbEntity
  8
0
  6
Continuous
 62
   174
100
AcDbLine
 10
186.947678
 20
55.245642
 30
0.0
 11
186.957677
 21
55.253731
 31
0.0
  0
LINE
  5
17E
100
AcDbEntity
  8
0
  6
Continuous
 62
   174
100
AcDbLine
 10
108.967675
 20
56.414521
 30
0.0
 11
108.957677
 21
56.424241
 31
0.0
  0
LINE
  5
17F
100
AcDbEntity
  8
0
  6
Continuous
 62
   174
100
AcDbLine
 10
108.957677
 20
47.743607
 30
0.0
 11
106.957677
 21
47.743607
 31
0.0
  0
LINE
  5
180
100
AcDbEntity
  8
0
  6
Continuous
 62
   174
100
AcDbLine
 10
190.957677
 20
55.247853
 30
0.0
 11
190.947678
 21
55.239764
 31
0.0
  0
LINE
  5
181
100
AcDbEntity
  8
0
  6
Continuous
 62
   174
100
AcDbLine
 10
188.967675
 20
53.656092
 30
0.0
 11
186.947678
 21
53.656092
 31
0.0
  0
LINE
  5
182
100
AcDbEntity
  8
0
  6
Continuous
 62
   174
100
AcDbLine
 10
192.957677
 20
47.205705
 30
0.0
 11
190.957677
 21
47.205705
 31
0.0
  0
LINE
  5
183
100
AcDbEntity
  8
0
  6
Continuous
 62
   174
100
AcDbLine
 10
112.967675
 20
45.659313
 30
0.0
 11
112.957677
 21
45.654082
 31
0.0
  0
LINE
  5
184
100
AcDbEntity
  8
0
  6
Continuous
 62
   174
100
AcDbLine
 10
105.457677
 20
42.841588
 30
0.0
 11
105.457677
 21
56.040985
 31
0.0
  0
LINE
  5
185
100
AcDbEntity
  8
0
  6
Continuous
 62
   174
100
AcDbLine
 10
188.957677
 20
42.579811
 30
0.0
 11
188.967675
 21
42.58932
 31
0.0
  0
LINE
  5
186
100
AcDbEntity
  8
0
  6
Continuous
 62
   174
100
AcDbLine
 10
186.457677
 20
56.140828
 30
0.0
 11
186.457677
 21
42.741745
 31
0.0
  0
LINE
  5
187
100
AcDbEntity
  8
0
  6
Continuous
 62
   174
100
AcDbLine
 10
190.957677
 20
51.646038
 30
0.0
 11
190.947678
 21
51.642948
 31
0.0
  0
LINE
  5
188
100
AcDbEntity
  8
0
  6
Continuous
 62
   174
100
AcDbLine
 10
112.957677
 20
54.108288
 30
0.0
 11
112.957677
 21
52.195135
 31
0.0
  0
LINE
  5
189
100
AcDbEntity
  8
0
  6
Continuous
 62
   174
100
AcDbLine
 10
190.957677
 20
43.598011
 30
0.0
 11
190.947678
 21
43.6061
 31
0.0
  0
LINE
  5
18A
100
AcDbEntity
  8
0
  6
Continuous
 62
   174
100
AcDbLine
 10
106.957677
 20
45.678178
 30
0.0
 11
106.957677
 21
47.74938
 31
0.0
  0
LINE
  5
18B
100
AcDbEntity
  8
0
  6
Continuous
 62
   174
100
AcDbLine
 10
190.957677
 20
51.670856
 30
0.0
 11
190.957677
 21
53.668981
 31
0.0
  0
LINE
  5
18C
100
AcDbEntity
  8
0
  6
Continuous
 62
   174
100
AcDbLine
 10
108.957677
 20
42.773365
 30
0.0
 11
106.957677
 21
42.773365
 31
0.0
  0
LINE
  5
18D
100
AcDbEntity
  8
0
  6
Continuous
 62
   174
100
AcDbLine
 10
190.457677
 20
56.025871
 30
0.0
 11
189.457677
 21
56.025871
 31
0.0
  0
LINE
  5
18E
100
AcDbEntity
  8
0
  6
Continuous
 62
   174
100
AcDbLine
 10
190.957677
 20
42.576721
 30
0.0
 11
192.957677
 21
42.576721
 31
0.0
  0
LINE
  5
18F
100
AcDbEntity
  8
0
  6
Continuous
 62
   174
100
AcDbLine
 10
192.957677
 20
53.661969
 30
0.0
 11
190.957677
 21
53.661969
 31
0.0
  0
LINE
  5
190
100
AcDbEntity
  8
0
  6
Continuous
 62
   174
100
AcDbLine
 10
108.957677
 20
52.185788
 30
0.0
 11
108.957677
 21
50.00476
 31
0.0
  0
LINE
  5
191
100
AcDbEntity
  8
0
  6
Continuous
 62
   174
100
AcDbLine
 10
194.457677
 20
56.025871
 30
0.0
 11
193.457677
 21
56.025871
 31
0.0
  0
LINE
  5
192
100
AcDbEntity
  8
0
  6
Continuous
 62
   174
100
AcDbLine
 10
110.957677
 20
56.424241
 30
0.0
 11
110.947678
 21
56.414521
 31
0.0
  0
LINE
  5
193
100
AcDbEntity
  8
0
  6
Continuous
 62
   174
100
AcDbLine
 10
186.957677
 20
51.646038
 30
0.0
 11
188.957677
 21
51.646038
 31
0.0
  0
LINE
  5
194
100
AcDbEntity
  8
0
  6
Continuous
 62
   174
100
AcDbLine
 10
186.957677
 20
42.595593
 30
0.0
 11
186.957677
 21
43.613774
 31
0.0
  0
CIRCLE
  5
195
100
AcDbEntity
  8
0
  6
Continuous
 62
   174
100
AcDbCircle
 10
159.957677
 20
41.925871
 30
0.0
 40
2.5
  0
LINE
  5
196
100
AcDbEntity
  8
0
  6
Continuous
 62
   174
100
AcDbLine
 10
188.967675
 20
43.6061
 30
0.0
 11
188.957677
 21
43.598011
 31
0.0
  0
LINE
  5
197
100
AcDbEntity
  8
0
  6
Continuous
 62
   174
100
AcDbLine
 10
188.967675
 20
55.239764
 30
0.0
 11
188.957677
 21
55.247853
 31
0.0
  0
LINE
  5
198
100
AcDbEntity
  8
0
  6
Continuous
 62
   174
100
AcDbLine
 10
106.947678
 20
45.667835
 30
0.0
 11
106.957677
 21
45.662603
 31
0.0
  0
LINE
  5
199
100
AcDbEntity
  8
0
  6
Continuous
 62
   174
100
AcDbLine
 10
193.457677
 20
42.741745
 30
0.0
 11
193.457677
 21
49.44118
 31
0.0
  0
LINE
  5
19A
100
AcDbEntity
  8
0
  6
Continuous
 62
   174
100
AcDbLine
 10
190.957677
 20
49.420871
 30
0.0
 11
192.957677
 21
49.420871
 31
0.0
  0
LINE
  5
19B
100
AcDbEntity
  8
0
  6
Continuous
 62
   174
100
AcDbLine
 10
110.957677
 20
56.44163
 30
0.0
 11
110.957677
 21
56.64089
 31
0.0
  0
LINE
  5
19C
100
AcDbEntity
  8
0
  6
Continuous
 62
   174
100
AcDbLine
 10
190.957677
 20
53.653879
 30
0.0
 11
190.947678
 21
53.648002
 31
0.0
  0
LINE
  5
19D
100
AcDbEntity
  8
0
  6
Continuous
 62
   174
100
AcDbLine
 10
108.967675
 20
55.550344
 30
0.0
 11
108.957677
 21
55.558864
 31
0.0
  0
LINE
  5
19E
100
AcDbEntity
  8
0
  6
Continuous
 62
   174
100
AcDbLine
 10
188.957677
 20
49.436294
 30
0.0
 11
188.957677
 21
47.221277
 31
0.0
  0
LINE
  5
19F
100
AcDbEntity
  8
0
  6
Continuous
 62
   174
100
AcDbLine
 10
106.947678
 20
55.555577
 30
0.0
 11
106.957677
 21
55.564097
 31
0.0
  0
LINE
  5
1A0
100
AcDbEntity
  8
0
  6
Continuous
 62
   174
100
AcDbLine
 10
110.947678
 20
49.988507
 30
0.0
 11
110.957677
 21
49.989282
 31
0.0
  0
LINE
  5
1A1
100
AcDbEntity
  8
0
  6
Continuous
 62
   174
100
AcDbLine
 10
190.957677
 20
45.189773
 30
0.0
 11
192.957677
 21
45.189773
 31
0.0
  0
LINE
  5
1A2
100
AcDbEntity
  8
0
  6
Continuous
 62
   174
100
AcDbLine
 10
186.957677
 20
42.241683
 30
0.0
 11
186.957677
 21
42.592406
 31
0.0
  0
LINE
  5
1A3
100
AcDbEntity
  8
0
  6
Continuous
 62
   174
100
AcDbLine
 10
192.955171
 20
42.225873
 30
0.0
 11
190.960183
 21
42.225873
 31
0.0
  0
LINE
  5
1A4
100
AcDbEntity
  8
0
  6
Continuous
 62
   174
100
AcDbLine
 10
110.957677
 20
54.093147
 30
0.0
 11
110.947678
 21
54.086661
 31
0.0
  0
LINE
  5
1A5
100
AcDbEntity
  8
0
  6
Continuous
 62
   174
100
AcDbLine
 10
112.967675
 20
56.414521
 30
0.0
 11
112.957677
 21
56.424241
 31
0.0
  0
LINE
  5
1A6
100
AcDbEntity
  8
0
  6
Continuous
 62
   174
100
AcDbLine
 10
194.957677
 20
49.44118
 30
0.0
 11
194.957677
 21
55.540923
 31
0.0
  0
LINE
  5
1A7
100
AcDbEntity
  8
0
  6
Continuous
 62
   174
100
AcDbLine
 10
192.957677
 20
51.655548
 30
0.0
 11
192.967675
 21
51.652459
 31
0.0
  0
LINE
  5
1A8
100
AcDbEntity
  8
0
  6
Continuous
 62
   174
100
AcDbLine
 10
110.957677
 20
54.093147
 30
0.0
 11
112.957677
 21
54.093147
 31
0.0
  0
LINE
  5
1A9
100
AcDbEntity
  8
0
  6
Continuous
 62
   174
100
AcDbLine
 10
110.957677
 20
55.558864
 30
0.0
 11
110.947678
 21
55.550344
 31
0.0
  0
LINE
  5
1AA
100
AcDbEntity
  8
0
  6
Continuous
 62
   174
100
AcDbLine
 10
192.967675
 20
45.19565
 30
0.0
 11
192.957677
 21
45.189773
 31
0.0
  0
LINE
  5
1AB
100
AcDbEntity
  8
0
  6
Continuous
 62
   174
100
AcDbLine
 10
188.967675
 20
47.199284
 30
0.0
 11
188.957677
 21
47.196194
 31
0.0
  0
LINE
  5
1AC
100
AcDbEntity
  8
0
  6
Continuous
 62
   174
100
AcDbLine
 10
183.957677
 20
56.025871
 30
0.0
 11
181.957677
 21
54.871171
 31
0.0
  0
LINE
  5
1AD
100
AcDbEntity
  8
0
  6
Continuous
 62
   174
100
AcDbLine
 10
183.957677
 20
49.44118
 30
0.0
 11
183.957677
 21
42.841588
 31
0.0
  0
LINE
  5
1AE
100
AcDbEntity
  8
0
  6
Continuous
 62
   174
100
AcDbLine
 10
110.947678
 20
49.988507
 30
0.0
 11
112.967675
 21
49.988507
 31
0.0
  0
LINE
  5
1AF
100
AcDbEntity
  8
0
  6
Continuous
 62
   174
100
AcDbLine
 10
188.967675
 20
51.642948
 30
0.0
 11
188.957677
 21
51.646038
 31
0.0
  0
LINE
  5
1B0
100
AcDbEntity
  8
0
  6
Continuous
 62
   174
100
AcDbLine
 10
190.947678
 20
51.652459
 30
0.0
 11
190.957677
 21
51.655548
 31
0.0
  0
LINE
  5
1B1
100
AcDbEntity
  8
0
  6
Continuous
 62
   174
100
AcDbLine
 10
110.957677
 20
55.57916
 30
0.0
 11
110.957677
 21
56.439293
 31
0.0
  0
LINE
  5
1B2
100
AcDbEntity
  8
0
  6
Continuous
 62
   174
100
AcDbLine
 10
192.957677
 20
43.603889
 30
0.0
 11
192.967675
 21
43.611978
 31
0.0
  0
LINE
  5
1B3
100
AcDbEntity
  8
0
  6
Continuous
 62
   174
100
AcDbLine
 10
108.967675
 20
54.086661
 30
0.0
 11
108.957677
 21
54.093147
 31
0.0
  0
LINE
  5
1B4
100
AcDbEntity
  8
0
  6
Continuous
 62
   174
100
AcDbLine
 10
192.957677
 20
53.668981
 30
0.0
 11
192.957677
 21
51.670856
 31
0.0
  0
LINE
  5
1B5
100
AcDbEntity
  8
0
  6
Continuous
 62
   174
100
AcDbLine
 10
192.957677
 20
42.579811
 30
0.0
 11
192.967675
 21
42.58932
 31
0.0
  0
LINE
  5
1B6
100
AcDbEntity
  8
0
  6
Continuous
 62
   174
100
AcDbLine
 10
110.947678
 20
43.957583
 30
0.0
 11
110.957677
 21
43.949975
 31
0.0
  0
LINE
  5
1B7
100
AcDbEntity
  8
0
  6
Continuous
 62
   174
100
AcDbLine
 10
192.957677
 20
42.225873
 30
0.0
 11
192.967675
 21
42.235871
 31
0.0
  0
LINE
  5
1B8
100
AcDbEntity
  8
0
  6
Continuous
 62
   174
100
AcDbLine
 10
112.957677
 20
49.989282
 30
0.0
 11
112.967675
 21
49.988507
 31
0.0
  0
LINE
  5
1B9
100
AcDbEntity
  8
0
  6
Continuous
 62
   174
100
AcDbLine
 10
186.957677
 20
45.189773
 30
0.0
 11
188.957677
 21
45.189773
 31
0.0
  0
LINE
  5
1BA
100
AcDbEntity
  8
0
  6
Continuous
 62
   174
100
AcDbLine
 10
192.967675
 20
45.19565
 30
0.0
 11
190.947678
 21
45.19565
 31
0.0
  0
LINE
  5
1BB
100
AcDbEntity
  8
0
  6
Continuous
 62
   174
100
AcDbLine
 10
108.967675
 20
47.736228
 30
0.0
 11
108.957677
 21
47.733885
 31
0.0
  0
LINE
  5
1BC
100
AcDbEntity
  8
0
  6
Continuous
 62
   174
100
AcDbLine
 10
110.957677
 20
43.943487
 30
0.0
 11
110.947678
 21
43.951096
 31
0.0
  0
LINE
  5
1BD
100
AcDbEntity
  8
0
  6
Continuous
 62
   174
100
AcDbLine
 10
110.957677
 20
47.759152
 30
0.0
 11
110.957677
 21
49.994775
 31
0.0
  0
LINE
  5
1BE
100
AcDbEntity
  8
0
  6
Continuous
 62
   174
100
AcDbLine
 10
106.957677
 20
43.943487
 30
0.0
 11
108.957677
 21
43.943487
 31
0.0
  0
LINE
  5
1BF
100
AcDbEntity
  8
0
  6
Continuous
 62
   174
100
AcDbLine
 10
186.957677
 20
53.653879
 30
0.0
 11
188.957677
 21
53.653879
 31
0.0
  0
LINE
  5
1C0
100
AcDbEntity
  8
0
  6
Continuous
 62
   174
100
AcDbLine
 10
188.967675
 20
45.19565
 30
0.0
 11
186.947678
 21
45.19565
 31
0.0
  0
LINE
  5
1C1
100
AcDbEntity
  8
0
  6
Continuous
 62
   174
100
AcDbLine
 10
190.957677
 20
56.271931
 30
0.0
 11
190.947678
 21
56.262422
 31
0.0
  0
LINE
  5
1C2
100
AcDbEntity
  8
0
  6
Continuous
 62
   174
100
AcDbLine
 10
190.957677
 20
47.221277
 30
0.0
 11
190.957677
 21
49.436294
 31
0.0
  0
LINE
  5
1C3
100
AcDbEntity
  8
0
  6
Continuous
 62
   174
100
AcDbLine
 10
106.947678
 20
56.416865
 30
0.0
 11
106.957677
 21
56.426584
 31
0.0
  0
LINE
  5
1C4
100
AcDbEntity
  8
0
  6
Continuous
 62
   174
100
AcDbLine
 10
190.947678
 20
55.245642
 30
0.0
 11
190.957677
 21
55.253731
 31
0.0
  0
LINE
  5
1C5
100
AcDbEntity
  8
0
  6
Continuous
 62
   174
100
AcDbLine
 10
192.967675
 20
55.239764
 30
0.0
 11
192.957677
 21
55.247853
 31
0.0
  0
LINE
  5
1C6
100
AcDbEntity
  8
0
  6
Continuous
 62
   174
100
AcDbLine
 10
192.967675
 20
47.199284
 30
0.0
 11
192.957677
 21
47.196194
 31
0.0
  0
LINE
  5
1C7
100
AcDbEntity
  8
0
  6
Continuous
 62
   174
100
AcDbLine
 10
181.957677
 20
43.980572
 30
0.0
 11
183.957677
 21
42.825871
 31
0.0
  0
LINE
  5
1C8
100
AcDbEntity
  8
0
  6
Continuous
 62
   174
100
AcDbLine
 10
106.957677
 20
55.558864
 30
0.0
 11
108.957677
 21
55.558864
 31
0.0
  0
LWPOLYLINE
  5
1C9
100
AcDbEntity
  8
0
  6
Continuous
 62
   174
100
AcDbPolyline
 90
        2
 70
   129
 10
186.947678
 20
42.235871
 10
186.947677
 20
42.235871
  0
LINE
  5
1CA
100
AcDbEntity
  8
0
  6
Continuous
 62
   174
100
AcDbLine
 10
186.947678
 20
45.20374
 30
0.0
 11
186.957677
 21
45.197863
 31
0.0
  0
LINE
  5
1CB
100
AcDbEntity
  8
0
  6
Continuous
 62
   174
100
AcDbLine
 10
108.957677
 20
43.959187
 30
0.0
 11
108.957677
 21
42.789117
 31
0.0
  0
LINE
  5
1CC
100
AcDbEntity
  8
0
  6
Continuous
 62
   174
100
AcDbLine
 10
106.957677
 20
45.654082
 30
0.0
 11
108.957677
 21
45.654082
 31
0.0
  0
LINE
  5
1CD
100
AcDbEntity
  8
0
  6
Continuous
 62
   174
100
AcDbLine
 10
105.457677
 20
56.025871
 30
0.0
 11
104.957677
 21
55.525871
 31
0.0
  0
LINE
  5
1CE
100
AcDbEntity
  8
0
  6
Continuous
 62
   174
100
AcDbLine
 10
186.947678
 20
53.656092
 30
0.0
 11
186.957677
 21
53.661969
 31
0.0
  0
LINE
  5
1CF
100
AcDbEntity
  8
0
  6
Continuous
 62
   174
100
AcDbLine
 10
188.957677
 20
43.603889
 30
0.0
 11
188.967675
 21
43.611978
 31
0.0
  0
LINE
  5
1D0
100
AcDbEntity
  8
0
  6
Continuous
 62
   174
100
AcDbLine
 10
108.957677
 20
49.989282
 30
0.0
 11
108.967675
 21
49.988507
 31
0.0
  0
LINE
  5
1D1
100
AcDbEntity
  8
0
  6
Continuous
 62
   174
100
AcDbLine
 10
108.957677
 20
47.74938
 30
0.0
 11
108.957677
 21
45.678178
 31
0.0
  0
LINE
  5
1D2
100
AcDbEntity
  8
0
  6
Continuous
 62
   174
100
AcDbLine
 10
194.957677
 20
43.34165
 30
0.0
 11
194.957677
 21
49.44118
 31
0.0
  0
LINE
  5
1D3
100
AcDbEntity
  8
0
  6
Continuous
 62
   174
100
AcDbLine
 10
192.957677
 20
45.205307
 30
0.0
 11
192.957677
 21
43.619722
 31
0.0
  0
LINE
  5
1D4
100
AcDbEntity
  8
0
  6
Continuous
 62
   174
100
AcDbLine
 10
188.957677
 20
56.275022
 30
0.0
 11
186.957677
 21
56.275022
 31
0.0
  0
LINE
  5
1D5
100
AcDbEntity
  8
0
  6
Continuous
 62
   174
100
AcDbLine
 10
106.957677
 20
49.979312
 30
0.0
 11
106.947678
 21
49.978537
 31
0.0
  0
LINE
  5
1D6
100
AcDbEntity
  8
0
  6
Continuous
 62
   174
100
AcDbLine
 10
112.957677
 20
45.662603
 30
0.0
 11
110.957677
 21
45.662603
 31
0.0
  0
LWPOLYLINE
  5
1D7
100
AcDbEntity
  8
0
  6
Continuous
 62
   174
100
AcDbPolyline
 90
        2
 70
   129
 10
110.947678
 20
42.778787
 10
110.947677
 20
42.780696
  0
LINE
  5
1D8
100
AcDbEntity
  8
0
  6
Continuous
 62
   174
100
AcDbLine
 10
186.957677
 20
56.271931
 30
0.0
 11
186.947678
 21
56.262422
 31
0.0
  0
LINE
  5
1D9
100
AcDbEntity
  8
0
  6
Continuous
 62
   174
100
AcDbLine
 10
183.957677
 20
56.040985
 30
0.0
 11
183.957677
 21
49.44118
 31
0.0
  0
LINE
  5
1DA
100
AcDbEntity
  8
0
  6
Continuous
 62
   174
100
AcDbLine
 10
110.957677
 20
42.241683
 30
0.0
 11
110.957677
 21
42.262926
 31
0.0
  0
LINE
  5
1DB
100
AcDbEntity
  8
0
  6
Continuous
 62
   174
100
AcDbLine
 10
188.957677
 20
43.603889
 30
0.0
 11
186.957677
 21
43.603889
 31
0.0
  0
ENDBLK
  5
1DC
100
AcDbEntity
  8
0
100
AcDbBlockEnd
  0
BLOCK
  5
1DF
100
AcDbEntity
  8
0
100
AcDbBlockBegin
  2
*B3
 70
     0
 10
0.0
 20
0.0
 30
0.0
  3
*B3
  1

  0
LINE
  5
1E0
100
AcDbEntity
  8
0
  6
HIDDEN
 62
   174
100
AcDbLine
 10
106.947678
 20
97.769697
 30
0.0
 11
108.967675
 21
97.769697
 31
0.0
  0
LINE
  5
1E1
100
AcDbEntity
  8
0
  6
HIDDEN
 62
   174
100
AcDbLine
 10
110.957677
 20
102.736378
 30
0.0
 11
110.947678
 21
102.727138
 31
0.0
  0
LINE
  5
1E2
100
AcDbEntity
  8
0
  6
HIDDEN
 62
   174
100
AcDbLine
 10
110.957677
 20
103.258751
 30
0.0
 11
110.947678
 21
103.248783
 31
0.0
  0
LINE
  5
1E3
100
AcDbEntity
  8
0
  6
Continuous
 62
   174
100
AcDbLine
 10
188.967675
 20
101.893947
 30
0.0
 11
188.957677
 21
101.902035
 31
0.0
  0
LINE
  5
1E4
100
AcDbEntity
  8
0
  6
HIDDEN
 62
   174
100
AcDbLine
 10
190.957677
 20
100.32859
 30
0.0
 11
190.957677
 21
101.914387
 31
0.0
  0
LINE
  5
1E5
100
AcDbEntity
  8
0
  6
HIDDEN
 62
   174
100
AcDbLine
 10
110.947678
 20
89.950348
 30
0.0
 11
110.957677
 21
89.941828
 31
0.0
  0
LINE
  5
1E6
100
AcDbEntity
  8
0
  6
HIDDEN
 62
   174
100
AcDbLine
 10
108.957677
 20
99.855932
 30
0.0
 11
108.957677
 21
97.78473
 31
0.0
  0
LINE
  5
1E7
100
AcDbEntity
  8
0
  6
HIDDEN
 62
   174
100
AcDbLine
 10
192.957677
 20
100.320518
 30
0.0
 11
192.957677
 21
98.322392
 31
0.0
  0
LINE
  5
1E8
100
AcDbEntity
  8
0
  6
HIDDEN
 62
   174
100
AcDbLine
 10
106.957677
 20
99.864429
 30
0.0
 11
106.957677
 21
101.568337
 31
0.0
  0
LINE
  5
1E9
100
AcDbEntity
  8
0
  6
HIDDEN
 62
   174
100
AcDbLine
 10
108.957677
 20
102.73256
 30
0.0
 11
108.967675
 21
102.723319
 31
0.0
  0
LINE
  5
1EA
100
AcDbEntity
  8
0
  6
HIDDEN
 62
   174
100
AcDbLine
 10
110.947678
 20
99.846611
 30
0.0
 11
112.967675
 21
99.846611
 31
0.0
  0
LINE
  5
1EB
100
AcDbEntity
  8
0
  6
HIDDEN
 62
   174
100
AcDbLine
 10
106.947678
 20
101.548341
 30
0.0
 11
108.967675
 21
101.548341
 31
0.0
  0
LINE
  5
1EC
100
AcDbEntity
  8
0
  6
HIDDEN
 62
   174
100
AcDbLine
 10
108.967675
 20
89.955581
 30
0.0
 11
108.957677
 21
89.94706
 31
0.0
  0
LINE
  5
1ED
100
AcDbEntity
  8
0
  6
Continuous
 62
   174
100
AcDbLine
 10
192.957677
 20
101.907913
 30
0.0
 11
192.967675
 21
101.899825
 31
0.0
  0
LINE
  5
1EE
100
AcDbEntity
  8
0
  6
HIDDEN
 62
   174
100
AcDbLine
 10
110.957677
 20
89.94706
 30
0.0
 11
112.957677
 21
89.94706
 31
0.0
  0
LINE
  5
1EF
100
AcDbEntity
  8
0
  6
HIDDEN
 62
   174
100
AcDbLine
 10
192.957677
 20
98.312833
 30
0.0
 11
192.957677
 21
96.097816
 31
0.0
  0
LINE
  5
1F0
100
AcDbEntity
  8
0
  6
Continuous
 62
   174
100
AcDbLine
 10
190.957677
 20
89.230903
 30
0.0
 11
192.957677
 21
89.230903
 31
0.0
  0
LINE
  5
1F1
100
AcDbEntity
  8
0
  6
Continuous
 62
   174
100
AcDbLine
 10
186.957677
 20
103.280052
 30
0.0
 11
186.947678
 21
103.270053
 31
0.0
  0
LINE
  5
1F2
100
AcDbEntity
  8
0
  6
Continuous
 62
   174
100
AcDbLine
 10
188.973906
 20
88.896283
 30
0.0
 11
189.457677
 21
89.380053
 31
0.0
  0
LINE
  5
1F3
100
AcDbEntity
  8
0
  6
Continuous
 62
   174
100
AcDbLine
 10
108.967675
 20
96.632719
 30
0.0
 11
108.957677
 21
96.633494
 31
0.0
  0
LWPOLYLINE
  5
1F4
100
AcDbEntity
  8
0
  6
HIDDEN
 62
   174
100
AcDbPolyline
 90
        2
 70
   129
 10
110.947678
 20
102.727138
 10
110.947677
 20
102.725228
  0
LINE
  5
1F5
100
AcDbEntity
  8
0
  6
HIDDEN
 62
   174
100
AcDbLine
 10
112.957677
 20
101.568337
 30
0.0
 11
112.957677
 21
99.864429
 31
0.0
  0
LINE
  5
1F6
100
AcDbEntity
  8
0
  6
Continuous
 62
   174
100
AcDbLine
 10
110.957677
 20
96.633494
 30
0.0
 11
110.947678
 21
96.632719
 31
0.0
  0
LINE
  5
1F7
100
AcDbEntity
  8
0
  6
HIDDEN
 62
   174
100
AcDbLine
 10
108.957677
 20
101.568337
 30
0.0
 11
108.957677
 21
99.864429
 31
0.0
  0
LINE
  5
1F8
100
AcDbEntity
  8
0
  6
Continuous
 62
   174
100
AcDbLine
 10
106.957677
 20
96.633494
 30
0.0
 11
108.957677
 21
96.633494
 31
0.0
  0
LINE
  5
1F9
100
AcDbEntity
  8
0
  6
Continuous
 62
   174
100
AcDbLine
 10
113.457677
 20
102.780053
 30
0.0
 11
112.957677
 21
103.280053
 31
0.0
  0
LINE
  5
1FA
100
AcDbEntity
  8
0
  6
HIDDEN
 62
   174
100
AcDbLine
 10
106.947678
 20
102.727138
 30
0.0
 11
108.967675
 21
102.727138
 31
0.0
  0
LINE
  5
1FB
100
AcDbEntity
  8
0
  6
Continuous
 62
   174
100
AcDbLine
 10
190.457677
 20
89.380053
 30
0.0
 11
190.941447
 21
88.896283
 31
0.0
  0
LINE
  5
1FC
100
AcDbEntity
  8
0
  6
HIDDEN
 62
   174
100
AcDbLine
 10
106.947678
 20
98.820929
 30
0.0
 11
108.967675
 21
98.820929
 31
0.0
  0
LINE
  5
1FD
100
AcDbEntity
  8
0
  6
Continuous
 62
   174
100
AcDbLine
 10
186.947678
 20
89.243502
 30
0.0
 11
186.957677
 21
89.233993
 31
0.0
  0
LWPOLYLINE
  5
1FE
100
AcDbEntity
  8
0
  6
HIDDEN
 62
   174
100
AcDbPolyline
 90
        2
 70
   129
 10
106.947678
 20
102.727138
 10
106.947677
 20
102.725228
  0
LINE
  5
1FF
100
AcDbEntity
  8
0
  6
HIDDEN
 62
   174
100
AcDbLine
 10
110.947678
 20
99.83809
 30
0.0
 11
112.967675
 21
99.83809
 31
0.0
  0
LINE
  5
200
100
AcDbEntity
  8
0
  6
Continuous
 62
   174
100
AcDbLine
 10
112.957677
 20
88.880053
 30
0.0
 11
113.457677
 21
89.380053
 31
0.0
  0
LINE
  5
201
100
AcDbEntity
  8
0
  6
HIDDEN
 62
   174
100
AcDbLine
 10
110.947678
 20
102.723319
 30
0.0
 11
110.957677
 21
102.73256
 31
0.0
  0
LINE
  5
202
100
AcDbEntity
  8
0
  6
Continuous
 62
   174
100
AcDbLine
 10
188.967675
 20
103.270053
 30
0.0
 11
188.957677
 21
103.280052
 31
0.0
  0
LINE
  5
203
100
AcDbEntity
  8
0
  6
HIDDEN
 62
   174
100
AcDbLine
 10
188.957677
 20
100.320518
 30
0.0
 11
188.957677
 21
98.322392
 31
0.0
  0
LINE
  5
204
100
AcDbEntity
  8
0
  6
Continuous
 62
   174
100
AcDbLine
 10
190.941447
 20
103.263824
 30
0.0
 11
190.457677
 21
102.780053
 31
0.0
  0
LINE
  5
205
100
AcDbEntity
  8
0
  6
Continuous
 62
   174
100
AcDbLine
 10
110.957677
 20
88.880053
 30
0.0
 11
112.957677
 21
88.880053
 31
0.0
  0
LINE
  5
206
100
AcDbEntity
  8
0
  6
HIDDEN
 62
   174
100
AcDbLine
 10
188.957677
 20
98.312833
 30
0.0
 11
188.957677
 21
96.097816
 31
0.0
  0
LINE
  5
207
100
AcDbEntity
  8
0
  6
HIDDEN
 62
   174
100
AcDbLine
 10
106.947678
 20
95.527388
 30
0.0
 11
108.967675
 21
95.527388
 31
0.0
  0
LWPOLYLINE
  5
208
100
AcDbEntity
  8
0
  6
HIDDEN
 62
   174
100
AcDbPolyline
 90
        2
 70
   129
 10
108.967675
 20
102.723319
 10
108.967677
 20
102.725228
  0
LINE
  5
209
100
AcDbEntity
  8
0
  6
Continuous
 62
   174
100
AcDbLine
 10
190.957677
 20
89.230903
 30
0.0
 11
190.947678
 21
89.240412
 31
0.0
  0
LINE
  5
20A
100
AcDbEntity
  8
0
  6
HIDDEN
 62
   174
100
AcDbLine
 10
112.957677
 20
102.73256
 30
0.0
 11
112.967675
 21
102.723319
 31
0.0
  0
LINE
  5
20B
100
AcDbEntity
  8
0
  6
HIDDEN
 62
   174
100
AcDbLine
 10
110.947678
 20
101.554829
 30
0.0
 11
112.967675
 21
101.554829
 31
0.0
  0
LINE
  5
20C
100
AcDbEntity
  8
0
  6
Continuous
 62
   174
100
AcDbLine
 10
193.457677
 20
102.780053
 30
0.0
 11
192.973906
 21
103.263824
 31
0.0
  0
LWPOLYLINE
  5
20D
100
AcDbEntity
  8
0
  6
HIDDEN
 62
   174
100
AcDbPolyline
 90
        3
 70
   128
 10
112.967675
 20
102.723319
 10
112.967677
 20
102.725228
 10
112.967675
 20
102.727138
  0
LINE
  5
20E
100
AcDbEntity
  8
0
  6
Continuous
 62
   174
100
AcDbLine
 10
192.957677
 20
89.233993
 30
0.0
 11
192.967675
 21
89.243502
 31
0.0
  0
LINE
  5
20F
100
AcDbEntity
  8
0
  6
Continuous
 62
   174
100
AcDbLine
 10
110.957677
 20
96.633494
 30
0.0
 11
112.957677
 21
96.633494
 31
0.0
  0
LINE
  5
210
100
AcDbEntity
  8
0
  6
Continuous
 62
   174
100
AcDbLine
 10
112.967675
 20
96.632719
 30
0.0
 11
112.957677
 21
96.633494
 31
0.0
  0
LINE
  5
211
100
AcDbEntity
  8
0
  6
HIDDEN
 62
   174
100
AcDbLine
 10
117.967677
 20
99.59273
 30
0.0
 11
117.967677
 21
92.592917
 31
0.0
  0
LINE
  5
212
100
AcDbEntity
  8
0
  6
HIDDEN
 62
   174
100
AcDbLine
 10
186.957677
 20
98.322392
 30
0.0
 11
186.957677
 21
100.320518
 31
0.0
  0
LINE
  5
213
100
AcDbEntity
  8
0
  6
Continuous
 62
   174
100
AcDbLine
 10
108.957677
 20
96.643464
 30
0.0
 11
108.967675
 21
96.642689
 31
0.0
  0
LINE
  5
214
100
AcDbEntity
  8
0
  6
HIDDEN
 62
   174
100
AcDbLine
 10
106.947678
 20
102.723319
 30
0.0
 11
106.957677
 21
102.73256
 31
0.0
  0
LINE
  5
215
100
AcDbEntity
  8
0
  6
HIDDEN
 62
   174
100
AcDbLine
 10
106.947678
 20
101.554829
 30
0.0
 11
108.967675
 21
101.554829
 31
0.0
  0
LINE
  5
216
100
AcDbEntity
  8
0
  6
Continuous
 62
   174
100
AcDbLine
 10
112.957677
 20
103.280053
 30
0.0
 11
110.957677
 21
103.280053
 31
0.0
  0
LINE
  5
217
100
AcDbEntity
  8
0
  6
HIDDEN
 62
   174
100
AcDbLine
 10
106.947678
 20
102.723319
 30
0.0
 11
108.967675
 21
102.723319
 31
0.0
  0
LINE
  5
218
100
AcDbEntity
  8
0
  6
Continuous
 62
   174
100
AcDbLine
 10
110.457677
 20
89.380053
 30
0.0
 11
110.957677
 21
88.880053
 31
0.0
  0
LINE
  5
219
100
AcDbEntity
  8
0
  6
Continuous
 62
   174
100
AcDbLine
 10
109.457677
 20
102.780053
 30
0.0
 11
108.957677
 21
103.280053
 31
0.0
  0
LINE
  5
21A
100
AcDbEntity
  8
0
  6
HIDDEN
 62
   174
100
AcDbLine
 10
186.957677
 20
100.32859
 30
0.0
 11
186.957677
 21
101.914387
 31
0.0
  0
LINE
  5
21B
100
AcDbEntity
  8
0
  6
Continuous
 62
   174
100
AcDbLine
 10
192.973906
 20
88.896283
 30
0.0
 11
193.457677
 21
89.380053
 31
0.0
  0
LINE
  5
21C
100
AcDbEntity
  8
0
  6
Continuous
 62
   174
100
AcDbLine
 10
106.947678
 20
98.830171
 30
0.0
 11
108.967675
 21
98.830171
 31
0.0
  0
LINE
  5
21D
100
AcDbEntity
  8
0
  6
Continuous
 62
   174
100
AcDbLine
 10
188.957677
 20
89.233993
 30
0.0
 11
186.957677
 21
89.233993
 31
0.0
  0
LINE
  5
21E
100
AcDbEntity
  8
0
  6
HIDDEN
 62
   174
100
AcDbLine
 10
106.947678
 20
103.248008
 30
0.0
 11
108.967675
 21
103.248008
 31
0.0
  0
LINE
  5
21F
100
AcDbEntity
  8
0
  6
HIDDEN
 62
   174
100
AcDbLine
 10
112.957677
 20
102.73256
 30
0.0
 11
110.957677
 21
102.73256
 31
0.0
  0
LINE
  5
220
100
AcDbEntity
  8
0
  6
Continuous
 62
   174
100
AcDbLine
 10
108.957677
 20
96.643464
 30
0.0
 11
106.957677
 21
96.643464
 31
0.0
  0
LINE
  5
221
100
AcDbEntity
  8
0
  6
HIDDEN
 62
   174
100
AcDbLine
 10
152.725747
 20
85.090053
 30
0.0
 11
171.975816
 21
85.090053
 31
0.0
  0
LINE
  5
222
100
AcDbEntity
  8
0
  6
HIDDEN
 62
   174
100
AcDbLine
 10
112.957677
 20
93.326118
 30
0.0
 11
112.967675
 21
93.329936
 31
0.0
  0
LINE
  5
223
100
AcDbEntity
  8
0
  6
Continuous
 62
   174
100
AcDbLine
 10
110.957677
 20
103.280053
 30
0.0
 11
110.457677
 21
102.780053
 31
0.0
  0
LINE
  5
224
100
AcDbEntity
  8
0
  6
HIDDEN
 62
   174
100
AcDbLine
 10
110.957677
 20
99.864429
 30
0.0
 11
110.957677
 21
101.568337
 31
0.0
  0
LINE
  5
225
100
AcDbEntity
  8
0
  6
Continuous
 62
   174
100
AcDbLine
 10
108.957677
 20
88.880053
 30
0.0
 11
109.457677
 21
89.380053
 31
0.0
  0
LINE
  5
226
100
AcDbEntity
  8
0
  6
Continuous
 62
   174
100
AcDbLine
 10
190.947678
 20
89.243502
 30
0.0
 11
190.957677
 21
89.233993
 31
0.0
  0
LINE
  5
227
100
AcDbEntity
  8
0
  6
Continuous
 62
   174
100
AcDbLine
 10
106.957677
 20
96.633494
 30
0.0
 11
106.947678
 21
96.632719
 31
0.0
  0
LINE
  5
228
100
AcDbEntity
  8
0
  6
HIDDEN
 62
   174
100
AcDbLine
 10
110.947678
 20
101.548341
 30
0.0
 11
112.967675
 21
101.548341
 31
0.0
  0
LINE
  5
229
100
AcDbEntity
  8
0
  6
HIDDEN
 62
   174
100
AcDbLine
 10
106.947678
 20
103.248783
 30
0.0
 11
108.967675
 21
103.248783
 31
0.0
  0
LINE
  5
22A
100
AcDbEntity
  8
0
  6
Continuous
 62
   174
100
AcDbLine
 10
192.967675
 20
89.240412
 30
0.0
 11
192.957677
 21
89.230903
 31
0.0
  0
LINE
  5
22B
100
AcDbEntity
  8
0
  6
HIDDEN
 62
   174
100
AcDbLine
 10
127.975842
 20
85.090053
 30
0.0
 11
147.22591
 21
85.090053
 31
0.0
  0
LINE
  5
22C
100
AcDbEntity
  8
0
  6
Continuous
 62
   174
100
AcDbLine
 10
190.947678
 20
101.899825
 30
0.0
 11
190.957677
 21
101.907913
 31
0.0
  0
LINE
  5
22D
100
AcDbEntity
  8
0
  6
HIDDEN
 62
   174
100
AcDbLine
 10
106.957677
 20
89.94706
 30
0.0
 11
106.947678
 21
89.955581
 31
0.0
  0
LINE
  5
22E
100
AcDbEntity
  8
0
  6
Continuous
 62
   174
100
AcDbLine
 10
188.957677
 20
101.907913
 30
0.0
 11
186.957677
 21
101.907913
 31
0.0
  0
LINE
  5
22F
100
AcDbEntity
  8
0
  6
Continuous
 62
   174
100
AcDbLine
 10
186.457677
 20
89.380053
 30
0.0
 11
186.941447
 21
88.896283
 31
0.0
  0
LINE
  5
230
100
AcDbEntity
  8
0
  6
HIDDEN
 62
   174
100
AcDbLine
 10
106.957677
 20
101.574923
 30
0.0
 11
106.957677
 21
102.744992
 31
0.0
  0
LINE
  5
231
100
AcDbEntity
  8
0
  6
Continuous
 62
   174
100
AcDbLine
 10
106.457677
 20
89.380053
 30
0.0
 11
106.957677
 21
88.880053
 31
0.0
  0
LINE
  5
232
100
AcDbEntity
  8
0
  6
HIDDEN
 62
   174
100
AcDbLine
 10
192.958865
 20
88.890053
 30
0.0
 11
190.956488
 21
88.890053
 31
0.0
  0
LINE
  5
233
100
AcDbEntity
  8
0
  6
HIDDEN
 62
   174
100
AcDbLine
 10
110.957677
 20
101.574923
 30
0.0
 11
110.957677
 21
102.744992
 31
0.0
  0
LINE
  5
234
100
AcDbEntity
  8
0
  6
HIDDEN
 62
   174
100
AcDbLine
 10
106.947678
 20
95.517418
 30
0.0
 11
108.967675
 21
95.517418
 31
0.0
  0
LINE
  5
235
100
AcDbEntity
  8
0
  6
Continuous
 62
   174
100
AcDbLine
 10
106.947678
 20
96.642689
 30
0.0
 11
106.957677
 21
96.643464
 31
0.0
  0
LINE
  5
236
100
AcDbEntity
  8
0
  6
HIDDEN
 62
   174
100
AcDbLine
 10
190.957677
 20
98.322392
 30
0.0
 11
190.957677
 21
100.320518
 31
0.0
  0
LINE
  5
237
100
AcDbEntity
  8
0
  6
Continuous
 62
   174
100
AcDbLine
 10
192.957677
 20
89.233993
 30
0.0
 11
190.957677
 21
89.233993
 31
0.0
  0
LINE
  5
238
100
AcDbEntity
  8
0
  6
Continuous
 62
   174
100
AcDbLine
 10
186.941447
 20
103.263824
 30
0.0
 11
186.457677
 21
102.780053
 31
0.0
  0
LINE
  5
239
100
AcDbEntity
  8
0
  6
Continuous
 62
   174
100
AcDbLine
 10
189.457677
 20
102.780053
 30
0.0
 11
188.973906
 21
103.263824
 31
0.0
  0
LINE
  5
23A
100
AcDbEntity
  8
0
  6
HIDDEN
 62
   174
100
AcDbLine
 10
110.947678
 20
93.329936
 30
0.0
 11
110.957677
 21
93.326118
 31
0.0
  0
LINE
  5
23B
100
AcDbEntity
  8
0
  6
HIDDEN
 62
   174
100
AcDbLine
 10
112.957677
 20
99.855932
 30
0.0
 11
112.957677
 21
97.78473
 31
0.0
  0
LINE
  5
23C
100
AcDbEntity
  8
0
  6
Continuous
 62
   174
100
AcDbLine
 10
106.957677
 20
103.280053
 30
0.0
 11
106.457677
 21
102.780053
 31
0.0
  0
LINE
  5
23D
100
AcDbEntity
  8
0
  6
Continuous
 62
   174
100
AcDbLine
 10
188.957677
 20
89.233993
 30
0.0
 11
188.967675
 21
89.243502
 31
0.0
  0
LINE
  5
23E
100
AcDbEntity
  8
0
  6
HIDDEN
 62
   174
100
AcDbLine
 10
192.957677
 20
96.087831
 30
0.0
 11
192.957677
 21
93.872814
 31
0.0
  0
LINE
  5
23F
100
AcDbEntity
  8
0
  6
HIDDEN
 62
   174
100
AcDbLine
 10
106.957677
 20
102.748816
 30
0.0
 11
106.957677
 21
103.270334
 31
0.0
  0
LINE
  5
240
100
AcDbEntity
  8
0
  6
HIDDEN
 62
   174
100
AcDbLine
 10
110.947678
 20
95.527388
 30
0.0
 11
112.967675
 21
95.527388
 31
0.0
  0
LINE
  5
241
100
AcDbEntity
  8
0
  6
Continuous
 62
   174
100
AcDbLine
 10
188.957677
 20
90.258071
 30
0.0
 11
188.967675
 21
90.26616
 31
0.0
  0
LINE
  5
242
100
AcDbEntity
  8
0
  6
Continuous
 62
   174
100
AcDbLine
 10
110.947678
 20
100.748453
 30
0.0
 11
112.967675
 21
100.748453
 31
0.0
  0
LINE
  5
243
100
AcDbEntity
  8
0
  6
HIDDEN
 62
   174
100
AcDbLine
 10
106.947678
 20
97.759975
 30
0.0
 11
106.957677
 21
97.762318
 31
0.0
  0
LINE
  5
244
100
AcDbEntity
  8
0
  6
HIDDEN
 62
   174
100
AcDbLine
 10
108.957677
 20
95.516643
 30
0.0
 11
106.957677
 21
95.516643
 31
0.0
  0
LINE
  5
245
100
AcDbEntity
  8
0
  6
Continuous
 62
   174
100
AcDbLine
 10
106.957677
 20
89.440654
 30
0.0
 11
106.957677
 21
90.610724
 31
0.0
  0
LINE
  5
246
100
AcDbEntity
  8
0
  6
HIDDEN
 62
   174
100
AcDbLine
 10
110.947678
 20
89.091403
 30
0.0
 11
112.967675
 21
89.091403
 31
0.0
  0
LINE
  5
247
100
AcDbEntity
  8
0
  6
HIDDEN
 62
   174
100
AcDbLine
 10
181.947677
 20
92.592917
 30
0.0
 11
181.947677
 21
99.59273
 31
0.0
  0
LINE
  5
248
100
AcDbEntity
  8
0
  6
HIDDEN
 62
   174
100
AcDbLine
 10
108.957677
 20
101.55595
 30
0.0
 11
108.967675
 21
101.548341
 31
0.0
  0
LINE
  5
249
100
AcDbEntity
  8
0
  6
HIDDEN
 62
   174
100
AcDbLine
 10
190.957677
 20
96.097816
 30
0.0
 11
190.957677
 21
98.312833
 31
0.0
  0
LINE
  5
24A
100
AcDbEntity
  8
0
  6
Continuous
 62
   174
100
AcDbLine
 10
186.457677
 20
102.680053
 30
0.0
 11
183.957677
 21
102.680053
 31
0.0
  0
LINE
  5
24B
100
AcDbEntity
  8
0
  6
Continuous
 62
   174
100
AcDbLine
 10
112.957677
 20
89.427547
 30
0.0
 11
110.957677
 21
89.427547
 31
0.0
  0
LWPOLYLINE
  5
24C
100
AcDbEntity
  8
0
  6
Continuous
 62
   174
100
AcDbPolyline
 90
        2
 70
   129
 10
112.967675
 20
98.830171
 10
112.967677
 20
98.82555
  0
LINE
  5
24D
100
AcDbEntity
  8
0
  6
Continuous
 62
   174
100
AcDbLine
 10
192.957677
 20
98.312833
 30
0.0
 11
192.957677
 21
96.097816
 31
0.0
  0
LINE
  5
24E
100
AcDbEntity
  8
0
  6
Continuous
 62
   174
100
AcDbLine
 10
110.947678
 20
103.071047
 30
0.0
 11
110.957677
 21
103.080767
 31
0.0
  0
LINE
  5
24F
100
AcDbEntity
  8
0
  6
Continuous
 62
   174
100
AcDbLine
 10
188.957677
 20
102.938517
 30
0.0
 11
188.957677
 21
101.920336
 31
0.0
  0
LINE
  5
250
100
AcDbEntity
  8
0
  6
Continuous
 62
   174
100
AcDbLine
 10
106.947678
 20
92.322017
 30
0.0
 11
106.957677
 21
92.316786
 31
0.0
  0
LINE
  5
251
100
AcDbEntity
  8
0
  6
HIDDEN
 62
   174
100
AcDbLine
 10
108.957677
 20
99.843321
 30
0.0
 11
106.957677
 21
99.843321
 31
0.0
  0
LINE
  5
252
100
AcDbEntity
  8
0
  6
Continuous
 62
   174
100
AcDbLine
 10
186.957677
 20
101.920336
 30
0.0
 11
186.957677
 21
102.938517
 31
0.0
  0
LINE
  5
253
100
AcDbEntity
  8
0
  6
HIDDEN
 62
   174
100
AcDbLine
 10
106.947678
 20
94.400132
 30
0.0
 11
108.967675
 21
94.400132
 31
0.0
  0
LINE
  5
254
100
AcDbEntity
  8
0
  6
Continuous
 62
   174
100
AcDbLine
 10
105.457677
 20
102.680053
 30
0.0
 11
104.957677
 21
102.180053
 31
0.0
  0
LINE
  5
255
100
AcDbEntity
  8
0
  6
Continuous
 62
   174
100
AcDbLine
 10
109.457677
 20
98.651023
 30
0.0
 11
109.457677
 21
102.792365
 31
0.0
  0
LINE
  5
256
100
AcDbEntity
  8
0
  6
Continuous
 62
   174
100
AcDbLine
 10
113.457677
 20
89.393282
 30
0.0
 11
113.457677
 21
98.651023
 31
0.0
  0
LINE
  5
257
100
AcDbEntity
  8
0
  6
Continuous
 62
   174
100
AcDbLine
 10
106.957677
 20
89.423729
 30
0.0
 11
106.947678
 21
89.432969
 31
0.0
  0
LINE
  5
258
100
AcDbEntity
  8
0
  6
HIDDEN
 62
   174
100
AcDbLine
 10
188.967675
 20
102.916605
 30
0.0
 11
186.947678
 21
102.916605
 31
0.0
  0
LINE
  5
259
100
AcDbEntity
  8
0
  6
Continuous
 62
   174
100
AcDbLine
 10
188.967675
 20
91.849832
 30
0.0
 11
186.947678
 21
91.849832
 31
0.0
  0
LINE
  5
25A
100
AcDbEntity
  8
0
  6
HIDDEN
 62
   174
100
AcDbLine
 10
106.957677
 20
102.736378
 30
0.0
 11
106.947678
 21
102.727138
 31
0.0
  0
LINE
  5
25B
100
AcDbEntity
  8
0
  6
Continuous
 62
   174
100
AcDbLine
 10
186.957677
 20
101.902035
 30
0.0
 11
186.947678
 21
101.893947
 31
0.0
  0
LINE
  5
25C
100
AcDbEntity
  8
0
  6
HIDDEN
 62
   174
100
AcDbLine
 10
192.958865
 20
103.270053
 30
0.0
 11
190.956488
 21
103.270053
 31
0.0
  0
LINE
  5
25D
100
AcDbEntity
  8
0
  6
Continuous
 62
   174
100
AcDbLine
 10
108.957677
 20
98.833989
 30
0.0
 11
108.967675
 21
98.830171
 31
0.0
  0
LINE
  5
25E
100
AcDbEntity
  8
0
  6
Continuous
 62
   174
100
AcDbLine
 10
112.957677
 20
88.902131
 30
0.0
 11
112.967675
 21
88.912099
 31
0.0
  0
LINE
  5
25F
100
AcDbEntity
  8
0
  6
HIDDEN
 62
   174
100
AcDbLine
 10
188.957677
 20
102.938517
 30
0.0
 11
188.957677
 21
101.920336
 31
0.0
  0
LINE
  5
260
100
AcDbEntity
  8
0
  6
Continuous
 62
   174
100
AcDbLine
 10
106.957677
 20
94.410689
 30
0.0
 11
106.957677
 21
96.646312
 31
0.0
  0
LINE
  5
261
100
AcDbEntity
  8
0
  6
Continuous
 62
   174
100
AcDbLine
 10
105.457677
 20
89.493125
 30
0.0
 11
105.457677
 21
102.692522
 31
0.0
  0
LINE
  5
262
100
AcDbEntity
  8
0
  6
Continuous
 62
   174
100
AcDbLine
 10
190.957677
 20
91.865129
 30
0.0
 11
190.957677
 21
93.863254
 31
0.0
  0
LINE
  5
263
100
AcDbEntity
  8
0
  6
Continuous
 62
   174
100
AcDbLine
 10
112.957677
 20
90.610724
 30
0.0
 11
112.957677
 21
89.440654
 31
0.0
  0
LINE
  5
264
100
AcDbEntity
  8
0
  6
HIDDEN
 62
   174
100
AcDbLine
 10
110.957677
 20
89.081683
 30
0.0
 11
112.957677
 21
89.081683
 31
0.0
  0
LINE
  5
265
100
AcDbEntity
  8
0
  6
HIDDEN
 62
   174
100
AcDbLine
 10
112.957677
 20
89.95495
 30
0.0
 11
112.957677
 21
89.094817
 31
0.0
  0
LINE
  5
266
100
AcDbEntity
  8
0
  6
HIDDEN
 62
   174
100
AcDbLine
 10
106.957677
 20
99.851843
 30
0.0
 11
106.947678
 21
99.846611
 31
0.0
  0
LINE
  5
267
100
AcDbEntity
  8
0
  6
HIDDEN
 62
   174
100
AcDbLine
 10
154.475754
 20
85.095053
 30
0.0
 11
169.475716
 21
85.095053
 31
0.0
  0
LINE
  5
268
100
AcDbEntity
  8
0
  6
HIDDEN
 62
   174
100
AcDbLine
 10
110.947678
 20
93.329936
 30
0.0
 11
112.967675
 21
93.329936
 31
0.0
  0
LINE
  5
269
100
AcDbEntity
  8
0
  6
HIDDEN
 62
   174
100
AcDbLine
 10
106.947678
 20
103.248008
 30
0.0
 11
106.957677
 21
103.257976
 31
0.0
  0
LINE
  5
26A
100
AcDbEntity
  8
0
  6
HIDDEN
 62
   174
100
AcDbLine
 10
106.947678
 20
89.091403
 30
0.0
 11
108.967675
 21
89.091403
 31
0.0
  0
LWPOLYLINE
  5
26B
100
AcDbEntity
  8
0
  6
Continuous
 62
   174
100
AcDbPolyline
 90
        3
 70
   128
 10
106.947678
 20
98.820929
 10
106.947677
 20
98.82555
 10
106.947678
 20
98.830171
  0
LINE
  5
26C
100
AcDbEntity
  8
0
  6
Continuous
 62
   174
100
AcDbLine
 10
194.457677
 20
102.680053
 30
0.0
 11
193.457677
 21
102.680053
 31
0.0
  0
LINE
  5
26D
100
AcDbEntity
  8
0
  6
HIDDEN
 62
   174
100
AcDbLine
 10
106.957677
 20
101.562438
 30
0.0
 11
106.947678
 21
101.554829
 31
0.0
  0
LINE
  5
26E
100
AcDbEntity
  8
0
  6
HIDDEN
 62
   174
100
AcDbLine
 10
106.957677
 20
103.258751
 30
0.0
 11
108.957677
 21
103.258751
 31
0.0
  0
LINE
  5
26F
100
AcDbEntity
  8
0
  6
HIDDEN
 62
   174
100
AcDbLine
 10
110.947678
 20
93.339178
 30
0.0
 11
112.967675
 21
93.339178
 31
0.0
  0
LINE
  5
270
100
AcDbEntity
  8
0
  6
Continuous
 62
   174
100
AcDbLine
 10
106.947678
 20
92.313496
 30
0.0
 11
108.967675
 21
92.313496
 31
0.0
  0
LINE
  5
271
100
AcDbEntity
  8
0
  6
Continuous
 62
   174
100
AcDbLine
 10
190.957677
 20
102.926114
 30
0.0
 11
192.957677
 21
102.926114
 31
0.0
  0
LINE
  5
272
100
AcDbEntity
  8
0
  6
Continuous
 62
   174
100
AcDbLine
 10
110.957677
 20
94.388067
 30
0.0
 11
112.957677
 21
94.388067
 31
0.0
  0
LINE
  5
273
100
AcDbEntity
  8
0
  6
Continuous
 62
   174
100
AcDbLine
 10
110.957677
 20
100.747329
 30
0.0
 11
112.957677
 21
100.747329
 31
0.0
  0
LWPOLYLINE
  5
274
100
AcDbEntity
  8
0
  6
Continuous
 62
   174
100
AcDbPolyline
 90
        2
 70
   129
 10
186.947678
 20
103.270053
 10
186.947677
 20
103.270053
  0
LINE
  5
275
100
AcDbEntity
  8
0
  6
Continuous
 62
   174
100
AcDbLine
 10
108.967675
 20
92.313496
 30
0.0
 11
108.957677
 21
92.308264
 31
0.0
  0
LINE
  5
276
100
AcDbEntity
  8
0
  6
Continuous
 62
   174
100
AcDbLine
 10
108.957677
 20
98.837325
 30
0.0
 11
108.957677
 21
96.656296
 31
0.0
  0
LINE
  5
277
100
AcDbEntity
  8
0
  6
Continuous
 62
   174
100
AcDbLine
 10
110.957677
 20
94.410689
 30
0.0
 11
110.957677
 21
96.646312
 31
0.0
  0
LINE
  5
278
100
AcDbEntity
  8
0
  6
HIDDEN
 62
   174
100
AcDbLine
 10
112.967675
 20
89.091403
 30
0.0
 11
112.957677
 21
89.081683
 31
0.0
  0
LINE
  5
279
100
AcDbEntity
  8
0
  6
HIDDEN
 62
   174
100
AcDbLine
 10
188.967675
 20
101.893947
 30
0.0
 11
186.947678
 21
101.893947
 31
0.0
  0
LINE
  5
27A
100
AcDbEntity
  8
0
  6
Continuous
 62
   174
100
AcDbLine
 10
188.957677
 20
93.863254
 30
0.0
 11
188.957677
 21
91.865129
 31
0.0
  0
LINE
  5
27B
100
AcDbEntity
  8
0
  6
Continuous
 62
   174
100
AcDbLine
 10
190.957677
 20
98.30022
 30
0.0
 11
190.947678
 21
98.29713
 31
0.0
  0
LINE
  5
27C
100
AcDbEntity
  8
0
  6
HIDDEN
 62
   174
100
AcDbLine
 10
110.947678
 20
103.248783
 30
0.0
 11
112.967675
 21
103.248783
 31
0.0
  0
LINE
  5
27D
100
AcDbEntity
  8
0
  6
HIDDEN
 62
   174
100
AcDbLine
 10
110.947678
 20
96.632719
 30
0.0
 11
112.967675
 21
96.632719
 31
0.0
  0
LINE
  5
27E
100
AcDbEntity
  8
0
  6
Continuous
 62
   174
100
AcDbLine
 10
110.457677
 20
102.792365
 30
0.0
 11
110.457677
 21
89.393282
 31
0.0
  0
LINE
  5
27F
100
AcDbEntity
  8
0
  6
Continuous
 62
   174
100
AcDbLine
 10
192.957677
 20
91.852046
 30
0.0
 11
190.957677
 21
91.852046
 31
0.0
  0
LINE
  5
280
100
AcDbEntity
  8
0
  6
Continuous
 62
   174
100
AcDbLine
 10
112.957677
 20
89.436831
 30
0.0
 11
112.957677
 21
88.915313
 31
0.0
  0
LINE
  5
281
100
AcDbEntity
  8
0
  6
HIDDEN
 62
   174
100
AcDbLine
 10
110.947678
 20
98.820929
 30
0.0
 11
112.967675
 21
98.820929
 31
0.0
  0
LWPOLYLINE
  5
282
100
AcDbEntity
  8
0
  6
Continuous
 62
   174
100
AcDbPolyline
 90
        2
 70
   129
 10
192.967675
 20
88.890053
 10
192.967677
 20
88.890053
  0
LINE
  5
283
100
AcDbEntity
  8
0
  6
Continuous
 62
   174
100
AcDbLine
 10
104.957677
 20
89.980053
 30
0.0
 11
105.457677
 21
89.480053
 31
0.0
  0
LINE
  5
284
100
AcDbEntity
  8
0
  6
HIDDEN
 62
   174
100
AcDbLine
 10
110.947678
 20
90.611766
 30
0.0
 11
112.967675
 21
90.611766
 31
0.0
  0
LINE
  5
285
100
AcDbEntity
  8
0
  6
Continuous
 62
   174
100
AcDbLine
 10
190.947678
 20
98.306641
 30
0.0
 11
190.957677
 21
98.309731
 31
0.0
  0
LINE
  5
286
100
AcDbEntity
  8
0
  6
Continuous
 62
   174
100
AcDbLine
 10
106.957677
 20
88.901356
 30
0.0
 11
106.947678
 21
88.911324
 31
0.0
  0
LINE
  5
287
100
AcDbEntity
  8
0
  6
Continuous
 62
   174
100
AcDbLine
 10
190.957677
 20
100.308061
 30
0.0
 11
190.947678
 21
100.302184
 31
0.0
  0
LINE
  5
288
100
AcDbEntity
  8
0
  6
Continuous
 62
   174
100
AcDbLine
 10
106.957677
 20
90.617309
 30
0.0
 11
106.957677
 21
92.321218
 31
0.0
  0
LINE
  5
289
100
AcDbEntity
  8
0
  6
HIDDEN
 62
   174
100
AcDbLine
 10
110.947678
 20
97.769697
 30
0.0
 11
112.967675
 21
97.769697
 31
0.0
  0
LINE
  5
28A
100
AcDbEntity
  8
0
  6
HIDDEN
 62
   174
100
AcDbLine
 10
152.475716
 20
107.070053
 30
0.0
 11
147.475729
 21
107.070053
 31
0.0
  0
LINE
  5
28B
100
AcDbEntity
  8
0
  6
HIDDEN
 62
   174
100
AcDbLine
 10
108.957677
 20
91.405168
 30
0.0
 11
106.957677
 21
91.405168
 31
0.0
  0
LINE
  5
28C
100
AcDbEntity
  8
0
  6
Continuous
 62
   174
100
AcDbLine
 10
106.947678
 20
102.209759
 30
0.0
 11
106.957677
 21
102.218279
 31
0.0
  0
LINE
  5
28D
100
AcDbEntity
  8
0
  6
HIDDEN
 62
   174
100
AcDbLine
 10
106.957677
 20
95.539335
 30
0.0
 11
106.957677
 21
97.774958
 31
0.0
  0
LINE
  5
28E
100
AcDbEntity
  8
0
  6
Continuous
 62
   174
100
AcDbLine
 10
108.967675
 20
94.39041
 30
0.0
 11
108.957677
 21
94.388067
 31
0.0
  0
LINE
  5
28F
100
AcDbEntity
  8
0
  6
HIDDEN
 62
   174
100
AcDbLine
 10
186.957677
 20
90.271259
 30
0.0
 11
186.957677
 21
91.857056
 31
0.0
  0
LINE
  5
290
100
AcDbEntity
  8
0
  6
HIDDEN
 62
   174
100
AcDbLine
 10
108.967675
 20
97.769697
 30
0.0
 11
108.957677
 21
97.772039
 31
0.0
  0
LINE
  5
291
100
AcDbEntity
  8
0
  6
Continuous
 62
   174
100
AcDbLine
 10
186.957677
 20
90.252194
 30
0.0
 11
188.957677
 21
90.252194
 31
0.0
  0
LINE
  5
292
100
AcDbEntity
  8
0
  6
Continuous
 62
   174
100
AcDbLine
 10
190.947678
 20
100.310274
 30
0.0
 11
190.957677
 21
100.316151
 31
0.0
  0
LINE
  5
293
100
AcDbEntity
  8
0
  6
HIDDEN
 62
   174
100
AcDbLine
 10
110.957677
 20
89.081683
 30
0.0
 11
110.947678
 21
89.091403
 31
0.0
  0
LINE
  5
294
100
AcDbEntity
  8
0
  6
Continuous
 62
   174
100
AcDbLine
 10
186.957677
 20
100.308061
 30
0.0
 11
188.957677
 21
100.308061
 31
0.0
  0
LINE
  5
295
100
AcDbEntity
  8
0
  6
Continuous
 62
   174
100
AcDbLine
 10
106.957677
 20
90.597669
 30
0.0
 11
106.947678
 21
90.605278
 31
0.0
  0
LINE
  5
296
100
AcDbEntity
  8
0
  6
Continuous
 62
   174
100
AcDbLine
 10
112.957677
 20
94.400917
 30
0.0
 11
112.957677
 21
92.329715
 31
0.0
  0
LINE
  5
297
100
AcDbEntity
  8
0
  6
HIDDEN
 62
   174
100
AcDbLine
 10
108.967675
 20
91.419264
 30
0.0
 11
108.957677
 21
91.412778
 31
0.0
  0
LINE
  5
298
100
AcDbEntity
  8
0
  6
HIDDEN
 62
   174
100
AcDbLine
 10
192.964426
 20
102.919695
 30
0.0
 11
190.950928
 21
102.919695
 31
0.0
  0
LINE
  5
299
100
AcDbEntity
  8
0
  6
Continuous
 62
   174
100
AcDbLine
 10
188.957677
 20
90.258071
 30
0.0
 11
186.957677
 21
90.258071
 31
0.0
  0
LINE
  5
29A
100
AcDbEntity
  8
0
  6
HIDDEN
 62
   174
100
AcDbLine
 10
106.957677
 20
97.772039
 30
0.0
 11
108.957677
 21
97.772039
 31
0.0
  0
LINE
  5
29B
100
AcDbEntity
  8
0
  6
Continuous
 62
   174
100
AcDbLine
 10
190.947678
 20
91.857923
 30
0.0
 11
190.957677
 21
91.852046
 31
0.0
  0
LINE
  5
29C
100
AcDbEntity
  8
0
  6
HIDDEN
 62
   174
100
AcDbLine
 10
108.957677
 20
95.516643
 30
0.0
 11
108.967675
 21
95.517418
 31
0.0
  0
LINE
  5
29D
100
AcDbEntity
  8
0
  6
Continuous
 62
   174
100
AcDbLine
 10
190.957677
 20
91.843956
 30
0.0
 11
192.957677
 21
91.843956
 31
0.0
  0
LINE
  5
29E
100
AcDbEntity
  8
0
  6
Continuous
 62
   174
100
AcDbLine
 10
110.957677
 20
102.230697
 30
0.0
 11
110.957677
 21
103.09083
 31
0.0
  0
LINE
  5
29F
100
AcDbEntity
  8
0
  6
Continuous
 62
   174
100
AcDbLine
 10
192.957677
 20
103.292427
 30
0.0
 11
192.957677
 21
102.941491
 31
0.0
  0
LINE
  5
2A0
100
AcDbEntity
  8
0
  6
HIDDEN
 62
   174
100
AcDbLine
 10
106.948456
 20
88.911324
 30
0.0
 11
108.966897
 21
88.911324
 31
0.0
  0
LINE
  5
2A1
100
AcDbEntity
  8
0
  6
HIDDEN
 62
   174
100
AcDbLine
 10
106.947678
 20
93.329936
 30
0.0
 11
106.957677
 21
93.326118
 31
0.0
  0
LINE
  5
2A2
100
AcDbEntity
  8
0
  6
Continuous
 62
   174
100
AcDbLine
 10
192.957677
 20
90.258071
 30
0.0
 11
192.967675
 21
90.26616
 31
0.0
  0
LINE
  5
2A3
100
AcDbEntity
  8
0
  6
Continuous
 62
   174
100
AcDbLine
 10
112.967675
 20
103.068704
 30
0.0
 11
112.957677
 21
103.078424
 31
0.0
  0
LINE
  5
2A4
100
AcDbEntity
  8
0
  6
Continuous
 62
   174
100
AcDbLine
 10
109.457677
 20
89.393282
 30
0.0
 11
109.457677
 21
98.651023
 31
0.0
  0
LINE
  5
2A5
100
AcDbEntity
  8
0
  6
Continuous
 62
   174
100
AcDbLine
 10
106.957677
 20
92.329715
 30
0.0
 11
106.957677
 21
94.400917
 31
0.0
  0
LINE
  5
2A6
100
AcDbEntity
  8
0
  6
HIDDEN
 62
   174
100
AcDbLine
 10
110.947678
 20
88.912099
 30
0.0
 11
112.967675
 21
88.912099
 31
0.0
  0
LINE
  5
2A7
100
AcDbEntity
  8
0
  6
HIDDEN
 62
   174
100
AcDbLine
 10
192.957677
 20
103.292427
 30
0.0
 11
192.957677
 21
102.941491
 31
0.0
  0
LINE
  5
2A8
100
AcDbEntity
  8
0
  6
Continuous
 62
   174
100
AcDbLine
 10
188.967675
 20
91.849832
 30
0.0
 11
188.957677
 21
91.843956
 31
0.0
  0
LINE
  5
2A9
100
AcDbEntity
  8
0
  6
HIDDEN
 62
   174
100
AcDbLine
 10
110.947678
 20
103.248008
 30
0.0
 11
110.957677
 21
103.257976
 31
0.0
  0
LINE
  5
2AA
100
AcDbEntity
  8
0
  6
Continuous
 62
   174
100
AcDbLine
 10
190.957677
 20
101.902035
 30
0.0
 11
190.947678
 21
101.893947
 31
0.0
  0
LINE
  5
2AB
100
AcDbEntity
  8
0
  6
Continuous
 62
   174
100
AcDbLine
 10
192.967675
 20
91.849832
 30
0.0
 11
190.947678
 21
91.849832
 31
0.0
  0
LINE
  5
2AC
100
AcDbEntity
  8
0
  6
HIDDEN
 62
   174
100
AcDbLine
 10
192.967675
 20
101.893947
 30
0.0
 11
190.947678
 21
101.893947
 31
0.0
  0
LINE
  5
2AD
100
AcDbEntity
  8
0
  6
HIDDEN
 62
   174
100
AcDbLine
 10
110.957677
 20
93.33536
 30
0.0
 11
110.947678
 21
93.339178
 31
0.0
  0
LINE
  5
2AE
100
AcDbEntity
  8
0
  6
Continuous
 62
   174
100
AcDbLine
 10
189.457677
 20
89.480053
 30
0.0
 11
190.457677
 21
89.480053
 31
0.0
  0
LINE
  5
2AF
100
AcDbEntity
  8
0
  6
Continuous
 62
   174
100
AcDbLine
 10
112.957677
 20
103.080767
 30
0.0
 11
112.967675
 21
103.071047
 31
0.0
  0
LINE
  5
2B0
100
AcDbEntity
  8
0
  6
HIDDEN
 62
   174
100
AcDbLine
 10
110.957677
 20
97.772039
 30
0.0
 11
110.947678
 21
97.769697
 31
0.0
  0
LINE
  5
2B1
100
AcDbEntity
  8
0
  6
Continuous
 62
   174
100
AcDbLine
 10
106.947678
 20
89.436788
 30
0.0
 11
106.957677
 21
89.427547
 31
0.0
  0
LINE
  5
2B2
100
AcDbEntity
  8
0
  6
HIDDEN
 62
   174
100
AcDbLine
 10
188.967675
 20
93.862977
 30
0.0
 11
186.947678
 21
93.862977
 31
0.0
  0
LWPOLYLINE
  5
2B3
100
AcDbEntity
  8
0
  6
Continuous
 62
   174
100
AcDbPolyline
 90
        2
 70
   129
 10
190.947678
 20
103.270053
 10
190.947677
 20
103.270053
  0
LINE
  5
2B4
100
AcDbEntity
  8
0
  6
Continuous
 62
   174
100
AcDbLine
 10
108.957677
 20
90.604157
 30
0.0
 11
108.967675
 21
90.611766
 31
0.0
  0
LINE
  5
2B5
100
AcDbEntity
  8
0
  6
Continuous
 62
   174
100
AcDbLine
 10
186.957677
 20
89.24713
 30
0.0
 11
186.957677
 21
90.265311
 31
0.0
  0
LINE
  5
2B6
100
AcDbEntity
  8
0
  6
Continuous
 62
   174
100
AcDbLine
 10
192.957677
 20
102.938517
 30
0.0
 11
192.957677
 21
101.920336
 31
0.0
  0
LWPOLYLINE
  5
2B7
100
AcDbEntity
  8
0
  6
Continuous
 62
   174
100
AcDbPolyline
 90
        3
 70
   128
 10
188.967675
 20
96.085053
 10
188.967677
 20
96.080053
 10
188.967675
 20
96.075053
  0
LINE
  5
2B8
100
AcDbEntity
  8
0
  6
Continuous
 62
   174
100
AcDbLine
 10
112.957677
 20
92.316786
 30
0.0
 11
112.967675
 21
92.322017
 31
0.0
  0
LINE
  5
2B9
100
AcDbEntity
  8
0
  6
Continuous
 62
   174
100
AcDbLine
 10
190.957677
 20
101.902035
 30
0.0
 11
192.957677
 21
101.902035
 31
0.0
  0
LINE
  5
2BA
100
AcDbEntity
  8
0
  6
HIDDEN
 62
   174
100
AcDbLine
 10
192.964426
 20
89.240412
 30
0.0
 11
190.950928
 21
89.240412
 31
0.0
  0
LINE
  5
2BB
100
AcDbEntity
  8
0
  6
Continuous
 62
   174
100
AcDbLine
 10
112.957677
 20
100.759825
 30
0.0
 11
112.957677
 21
98.846672
 31
0.0
  0
LINE
  5
2BC
100
AcDbEntity
  8
0
  6
Continuous
 62
   174
100
AcDbLine
 10
110.957677
 20
98.824747
 30
0.0
 11
112.957677
 21
98.824747
 31
0.0
  0
LINE
  5
2BD
100
AcDbEntity
  8
0
  6
Continuous
 62
   174
100
AcDbLine
 10
106.947678
 20
98.830171
 30
0.0
 11
106.957677
 21
98.833989
 31
0.0
  0
LINE
  5
2BE
100
AcDbEntity
  8
0
  6
HIDDEN
 62
   174
100
AcDbLine
 10
190.957677
 20
102.941491
 30
0.0
 11
190.957677
 21
103.292427
 31
0.0
  0
LINE
  5
2BF
100
AcDbEntity
  8
0
  6
Continuous
 62
   174
100
AcDbLine
 10
188.957677
 20
98.309731
 30
0.0
 11
186.957677
 21
98.309731
 31
0.0
  0
LINE
  5
2C0
100
AcDbEntity
  8
0
  6
Continuous
 62
   174
100
AcDbLine
 10
186.947678
 20
91.857923
 30
0.0
 11
186.957677
 21
91.852046
 31
0.0
  0
LINE
  5
2C1
100
AcDbEntity
  8
0
  6
Continuous
 62
   174
100
AcDbLine
 10
112.957677
 20
103.080767
 30
0.0
 11
110.957677
 21
103.080767
 31
0.0
  0
LINE
  5
2C2
100
AcDbEntity
  8
0
  6
Continuous
 62
   174
100
AcDbLine
 10
110.957677
 20
90.597669
 30
0.0
 11
110.947678
 21
90.605278
 31
0.0
  0
LINE
  5
2C3
100
AcDbEntity
  8
0
  6
Continuous
 62
   174
100
AcDbLine
 10
186.957677
 20
93.850376
 30
0.0
 11
186.947678
 21
93.853466
 31
0.0
  0
LINE
  5
2C4
100
AcDbEntity
  8
0
  6
Continuous
 62
   174
100
AcDbLine
 10
192.957677
 20
100.320518
 30
0.0
 11
192.957677
 21
98.322392
 31
0.0
  0
LINE
  5
2C5
100
AcDbEntity
  8
0
  6
HIDDEN
 62
   174
100
AcDbLine
 10
137.975816
 20
85.095053
 30
0.0
 11
145.475904
 21
85.095053
 31
0.0
  0
LINE
  5
2C6
100
AcDbEntity
  8
0
  6
HIDDEN
 62
   174
100
AcDbLine
 10
190.957677
 20
91.865129
 30
0.0
 11
190.957677
 21
93.863254
 31
0.0
  0
LINE
  5
2C7
100
AcDbEntity
  8
0
  6
Continuous
 62
   174
100
AcDbLine
 10
112.957677
 20
92.316786
 30
0.0
 11
110.957677
 21
92.316786
 31
0.0
  0
LINE
  5
2C8
100
AcDbEntity
  8
0
  6
Continuous
 62
   174
100
AcDbLine
 10
110.947678
 20
88.912099
 30
0.0
 11
110.957677
 21
88.902131
 31
0.0
  0
LINE
  5
2C9
100
AcDbEntity
  8
0
  6
HIDDEN
 62
   174
100
AcDbLine
 10
106.957677
 20
103.258751
 30
0.0
 11
106.947678
 21
103.248783
 31
0.0
  0
LINE
  5
2CA
100
AcDbEntity
  8
0
  6
HIDDEN
 62
   174
100
AcDbLine
 10
106.947678
 20
96.632719
 30
0.0
 11
108.967675
 21
96.632719
 31
0.0
  0
LINE
  5
2CB
100
AcDbEntity
  8
0
  6
Continuous
 62
   174
100
AcDbLine
 10
188.957677
 20
102.929204
 30
0.0
 11
188.967675
 21
102.919695
 31
0.0
  0
LINE
  5
2CC
100
AcDbEntity
  8
0
  6
HIDDEN
 62
   174
100
AcDbLine
 10
110.957677
 20
91.412778
 30
0.0
 11
110.947678
 21
91.419264
 31
0.0
  0
LINE
  5
2CD
100
AcDbEntity
  8
0
  6
Continuous
 62
   174
100
AcDbLine
 10
106.957677
 20
103.093167
 30
0.0
 11
106.957677
 21
103.292427
 31
0.0
  0
LINE
  5
2CE
100
AcDbEntity
  8
0
  6
Continuous
 62
   174
100
AcDbLine
 10
110.957677
 20
103.093167
 30
0.0
 11
110.957677
 21
103.292427
 31
0.0
  0
LINE
  5
2CF
100
AcDbEntity
  8
0
  6
Continuous
 62
   174
100
AcDbLine
 10
112.957677
 20
90.604157
 30
0.0
 11
110.957677
 21
90.604157
 31
0.0
  0
LINE
  5
2D0
100
AcDbEntity
  8
0
  6
Continuous
 62
   174
100
AcDbLine
 10
192.957677
 20
96.087831
 30
0.0
 11
192.957677
 21
93.872814
 31
0.0
  0
LINE
  5
2D1
100
AcDbEntity
  8
0
  6
Continuous
 62
   174
100
AcDbLine
 10
192.957677
 20
100.316151
 30
0.0
 11
192.967675
 21
100.310274
 31
0.0
  0
LINE
  5
2D2
100
AcDbEntity
  8
0
  6
Continuous
 62
   174
100
AcDbLine
 10
110.957677
 20
89.423729
 30
0.0
 11
112.957677
 21
89.423729
 31
0.0
  0
LINE
  5
2D3
100
AcDbEntity
  8
0
  6
HIDDEN
 62
   174
100
AcDbLine
 10
106.947678
 20
100.740843
 30
0.0
 11
108.967675
 21
100.740843
 31
0.0
  0
LINE
  5
2D4
100
AcDbEntity
  8
0
  6
Continuous
 62
   174
100
AcDbLine
 10
106.947678
 20
100.748453
 30
0.0
 11
106.957677
 21
100.754939
 31
0.0
  0
LINE
  5
2D5
100
AcDbEntity
  8
0
  6
HIDDEN
 62
   174
100
AcDbLine
 10
106.947678
 20
91.419264
 30
0.0
 11
108.967675
 21
91.419264
 31
0.0
  0
LINE
  5
2D6
100
AcDbEntity
  8
0
  6
HIDDEN
 62
   174
100
AcDbLine
 10
164.707677
 20
85.080053
 30
0.0
 11
164.707677
 21
107.080053
 31
0.0
  0
LINE
  5
2D7
100
AcDbEntity
  8
0
  6
HIDDEN
 62
   174
100
AcDbLine
 10
110.947678
 20
95.517418
 30
0.0
 11
112.967675
 21
95.517418
 31
0.0
  0
LINE
  5
2D8
100
AcDbEntity
  8
0
  6
HIDDEN
 62
   174
100
AcDbLine
 10
112.957677
 20
103.270334
 30
0.0
 11
112.957677
 21
102.748816
 31
0.0
  0
LINE
  5
2D9
100
AcDbEntity
  8
0
  6
HIDDEN
 62
   174
100
AcDbLine
 10
106.957677
 20
95.526612
 30
0.0
 11
106.947678
 21
95.527388
 31
0.0
  0
LINE
  5
2DA
100
AcDbEntity
  8
0
  6
Continuous
 62
   174
100
AcDbLine
 10
108.957677
 20
88.914463
 30
0.0
 11
108.957677
 21
88.89322
 31
0.0
  0
LINE
  5
2DB
100
AcDbEntity
  8
0
  6
Continuous
 62
   174
100
AcDbLine
 10
190.957677
 20
93.872814
 30
0.0
 11
190.957677
 21
96.087831
 31
0.0
  0
LINE
  5
2DC
100
AcDbEntity
  8
0
  6
Continuous
 62
   174
100
AcDbLine
 10
192.967675
 20
100.302184
 30
0.0
 11
192.957677
 21
100.308061
 31
0.0
  0
LINE
  5
2DD
100
AcDbEntity
  8
0
  6
HIDDEN
 62
   174
100
AcDbLine
 10
108.957677
 20
91.418174
 30
0.0
 11
108.957677
 21
89.96026
 31
0.0
  0
LINE
  5
2DE
100
AcDbEntity
  8
0
  6
Continuous
 62
   174
100
AcDbLine
 10
192.967675
 20
100.310274
 30
0.0
 11
190.947678
 21
100.310274
 31
0.0
  0
LINE
  5
2DF
100
AcDbEntity
  8
0
  6
Continuous
 62
   174
100
AcDbLine
 10
106.957677
 20
98.824747
 30
0.0
 11
108.957677
 21
98.824747
 31
0.0
  0
LINE
  5
2E0
100
AcDbEntity
  8
0
  6
HIDDEN
 62
   174
100
AcDbLine
 10
112.957677
 20
91.405168
 30
0.0
 11
110.957677
 21
91.405168
 31
0.0
  0
LINE
  5
2E1
100
AcDbEntity
  8
0
  6
Continuous
 62
   174
100
AcDbLine
 10
108.957677
 20
94.397789
 30
0.0
 11
106.957677
 21
94.397789
 31
0.0
  0
LINE
  5
2E2
100
AcDbEntity
  8
0
  6
Continuous
 62
   174
100
AcDbLine
 10
106.957677
 20
100.767473
 30
0.0
 11
106.957677
 21
102.225386
 31
0.0
  0
LINE
  5
2E3
100
AcDbEntity
  8
0
  6
Continuous
 62
   174
100
AcDbLine
 10
106.947678
 20
94.400132
 30
0.0
 11
106.957677
 21
94.397789
 31
0.0
  0
LINE
  5
2E4
100
AcDbEntity
  8
0
  6
HIDDEN
 62
   174
100
AcDbLine
 10
192.957677
 20
89.244156
 30
0.0
 11
192.957677
 21
88.89322
 31
0.0
  0
LINE
  5
2E5
100
AcDbEntity
  8
0
  6
Continuous
 62
   174
100
AcDbLine
 10
110.957677
 20
92.308264
 30
0.0
 11
112.957677
 21
92.308264
 31
0.0
  0
LINE
  5
2E6
100
AcDbEntity
  8
0
  6
HIDDEN
 62
   174
100
AcDbLine
 10
112.967675
 20
101.554829
 30
0.0
 11
112.957677
 21
101.562438
 31
0.0
  0
LINE
  5
2E7
100
AcDbEntity
  8
0
  6
HIDDEN
 62
   174
100
AcDbLine
 10
108.957677
 20
103.257976
 30
0.0
 11
106.957677
 21
103.257976
 31
0.0
  0
LINE
  5
2E8
100
AcDbEntity
  8
0
  6
HIDDEN
 62
   174
100
AcDbLine
 10
106.956204
 20
90.605278
 30
0.0
 11
108.95915
 21
90.605278
 31
0.0
  0
LINE
  5
2E9
100
AcDbEntity
  8
0
  6
HIDDEN
 62
   174
100
AcDbLine
 10
152.057677
 20
107.060053
 30
0.0
 11
152.057677
 21
107.080053
 31
0.0
  0
LINE
  5
2EA
100
AcDbEntity
  8
0
  6
HIDDEN
 62
   174
100
AcDbLine
 10
112.957677
 20
102.744992
 30
0.0
 11
112.957677
 21
101.574923
 31
0.0
  0
LINE
  5
2EB
100
AcDbEntity
  8
0
  6
HIDDEN
 62
   174
100
AcDbLine
 10
106.947678
 20
89.08906
 30
0.0
 11
108.967675
 21
89.08906
 31
0.0
  0
LINE
  5
2EC
100
AcDbEntity
  8
0
  6
Continuous
 62
   174
100
AcDbLine
 10
110.957677
 20
98.824747
 30
0.0
 11
110.947678
 21
98.820929
 31
0.0
  0
LINE
  5
2ED
100
AcDbEntity
  8
0
  6
Continuous
 62
   174
100
AcDbLine
 10
183.957677
 20
102.692522
 30
0.0
 11
183.957677
 21
89.493125
 31
0.0
  0
LINE
  5
2EE
100
AcDbEntity
  8
0
  6
HIDDEN
 62
   174
100
AcDbLine
 10
190.957677
 20
93.872814
 30
0.0
 11
190.957677
 21
96.087831
 31
0.0
  0
LINE
  5
2EF
100
AcDbEntity
  8
0
  6
Continuous
 62
   174
100
AcDbLine
 10
106.957677
 20
100.747329
 30
0.0
 11
108.957677
 21
100.747329
 31
0.0
  0
LINE
  5
2F0
100
AcDbEntity
  8
0
  6
Continuous
 62
   174
100
AcDbLine
 10
108.957677
 20
89.427547
 30
0.0
 11
106.957677
 21
89.427547
 31
0.0
  0
LINE
  5
2F1
100
AcDbEntity
  8
0
  6
Continuous
 62
   174
100
AcDbLine
 10
186.947678
 20
93.862977
 30
0.0
 11
186.957677
 21
93.859887
 31
0.0
  0
LINE
  5
2F2
100
AcDbEntity
  8
0
  6
Continuous
 62
   174
100
AcDbLine
 10
192.957677
 20
96.085053
 30
0.0
 11
190.957677
 21
96.085053
 31
0.0
  0
LINE
  5
2F3
100
AcDbEntity
  8
0
  6
Continuous
 62
   174
100
AcDbLine
 10
112.957677
 20
96.643464
 30
0.0
 11
112.967675
 21
96.642689
 31
0.0
  0
LINE
  5
2F4
100
AcDbEntity
  8
0
  6
Continuous
 62
   174
100
AcDbLine
 10
192.957677
 20
102.929204
 30
0.0
 11
190.957677
 21
102.929204
 31
0.0
  0
LINE
  5
2F5
100
AcDbEntity
  8
0
  6
Continuous
 62
   174
100
AcDbLine
 10
190.947678
 20
102.919695
 30
0.0
 11
190.957677
 21
102.929204
 31
0.0
  0
LINE
  5
2F6
100
AcDbEntity
  8
0
  6
HIDDEN
 62
   174
100
AcDbLine
 10
186.957677
 20
96.097816
 30
0.0
 11
186.957677
 21
98.312833
 31
0.0
  0
LINE
  5
2F7
100
AcDbEntity
  8
0
  6
Continuous
 62
   174
100
AcDbLine
 10
188.957677
 20
89.244156
 30
0.0
 11
188.957677
 21
88.89322
 31
0.0
  0
LINE
  5
2F8
100
AcDbEntity
  8
0
  6
Continuous
 62
   174
100
AcDbLine
 10
110.957677
 20
102.213046
 30
0.0
 11
112.957677
 21
102.213046
 31
0.0
  0
LINE
  5
2F9
100
AcDbEntity
  8
0
  6
Continuous
 62
   174
100
AcDbLine
 10
190.957677
 20
88.89322
 30
0.0
 11
190.957677
 21
89.244156
 31
0.0
  0
LINE
  5
2FA
100
AcDbEntity
  8
0
  6
Continuous
 62
   174
100
AcDbLine
 10
188.967675
 20
100.310274
 30
0.0
 11
186.947678
 21
100.310274
 31
0.0
  0
LINE
  5
2FB
100
AcDbEntity
  8
0
  6
Continuous
 62
   174
100
AcDbLine
 10
110.957677
 20
89.423729
 30
0.0
 11
110.947678
 21
89.432969
 31
0.0
  0
LINE
  5
2FC
100
AcDbEntity
  8
0
  6
Continuous
 62
   174
100
AcDbLine
 10
190.957677
 20
103.280052
 30
0.0
 11
192.957677
 21
103.280052
 31
0.0
  0
LINE
  5
2FD
100
AcDbEntity
  8
0
  6
Continuous
 62
   174
100
AcDbLine
 10
110.947678
 20
92.313496
 30
0.0
 11
112.967675
 21
92.313496
 31
0.0
  0
LINE
  5
2FE
100
AcDbEntity
  8
0
  6
HIDDEN
 62
   174
100
AcDbLine
 10
106.957677
 20
93.348322
 30
0.0
 11
106.957677
 21
95.52935
 31
0.0
  0
LINE
  5
2FF
100
AcDbEntity
  8
0
  6
HIDDEN
 62
   174
100
AcDbLine
 10
112.957677
 20
103.257976
 30
0.0
 11
112.967675
 21
103.248008
 31
0.0
  0
LINE
  5
300
100
AcDbEntity
  8
0
  6
Continuous
 62
   174
100
AcDbLine
 10
108.967675
 20
98.820929
 30
0.0
 11
108.957677
 21
98.824747
 31
0.0
  0
LINE
  5
301
100
AcDbEntity
  8
0
  6
HIDDEN
 62
   174
100
AcDbLine
 10
159.207677
 20
107.080053
 30
0.0
 11
159.207677
 21
85.080053
 31
0.0
  0
LINE
  5
302
100
AcDbEntity
  8
0
  6
Continuous
 62
   174
100
AcDbLine
 10
110.957677
 20
100.747329
 30
0.0
 11
110.947678
 21
100.740843
 31
0.0
  0
LINE
  5
303
100
AcDbEntity
  8
0
  6
Continuous
 62
   174
100
AcDbLine
 10
192.957677
 20
101.914387
 30
0.0
 11
192.957677
 21
100.32859
 31
0.0
  0
LINE
  5
304
100
AcDbEntity
  8
0
  6
Continuous
 62
   174
100
AcDbLine
 10
110.957677
 20
90.597669
 30
0.0
 11
112.957677
 21
90.597669
 31
0.0
  0
LINE
  5
305
100
AcDbEntity
  8
0
  6
HIDDEN
 62
   174
100
AcDbLine
 10
108.957677
 20
101.55595
 30
0.0
 11
106.957677
 21
101.55595
 31
0.0
  0
LINE
  5
306
100
AcDbEntity
  8
0
  6
HIDDEN
 62
   174
100
AcDbLine
 10
108.957677
 20
89.95495
 30
0.0
 11
108.957677
 21
89.094817
 31
0.0
  0
LINE
  5
307
100
AcDbEntity
  8
0
  6
HIDDEN
 62
   174
100
AcDbLine
 10
106.947678
 20
88.912099
 30
0.0
 11
108.967675
 21
88.912099
 31
0.0
  0
LINE
  5
308
100
AcDbEntity
  8
0
  6
HIDDEN
 62
   174
100
AcDbLine
 10
106.950089
 20
103.071047
 30
0.0
 11
108.965265
 21
103.071047
 31
0.0
  0
LINE
  5
309
100
AcDbEntity
  8
0
  6
HIDDEN
 62
   174
100
AcDbLine
 10
110.957677
 20
93.348322
 30
0.0
 11
110.957677
 21
95.52935
 31
0.0
  0
LINE
  5
30A
100
AcDbEntity
  8
0
  6
HIDDEN
 62
   174
100
AcDbLine
 10
112.957677
 20
89.941828
 30
0.0
 11
112.967675
 21
89.950348
 31
0.0
  0
LINE
  5
30B
100
AcDbEntity
  8
0
  6
Continuous
 62
   174
100
AcDbLine
 10
192.967675
 20
90.260282
 30
0.0
 11
192.957677
 21
90.252194
 31
0.0
  0
LWPOLYLINE
  5
30C
100
AcDbEntity
  8
0
  6
HIDDEN
 62
   174
100
AcDbPolyline
 90
        3
 70
   128
 10
108.967675
 20
93.329936
 10
108.967677
 20
93.334557
 10
108.967675
 20
93.339178
  0
LINE
  5
30D
100
AcDbEntity
  8
0
  6
Continuous
 62
   174
100
AcDbLine
 10
106.957677
 20
88.901356
 30
0.0
 11
108.957677
 21
88.901356
 31
0.0
  0
LINE
  5
30E
100
AcDbEntity
  8
0
  6
HIDDEN
 62
   174
100
AcDbLine
 10
192.957677
 20
101.914387
 30
0.0
 11
192.957677
 21
100.32859
 31
0.0
  0
LINE
  5
30F
100
AcDbEntity
  8
0
  6
Continuous
 62
   174
100
AcDbLine
 10
186.947678
 20
101.899825
 30
0.0
 11
186.957677
 21
101.907913
 31
0.0
  0
LINE
  5
310
100
AcDbEntity
  8
0
  6
HIDDEN
 62
   174
100
AcDbLine
 10
110.947678
 20
97.759975
 30
0.0
 11
112.967675
 21
97.759975
 31
0.0
  0
LINE
  5
311
100
AcDbEntity
  8
0
  6
Continuous
 62
   174
100
AcDbLine
 10
112.957677
 20
102.218279
 30
0.0
 11
112.967675
 21
102.209759
 31
0.0
  0
LINE
  5
312
100
AcDbEntity
  8
0
  6
Continuous
 62
   174
100
AcDbLine
 10
188.957677
 20
88.880055
 30
0.0
 11
188.967675
 21
88.890053
 31
0.0
  0
LINE
  5
313
100
AcDbEntity
  8
0
  6
Continuous
 62
   174
100
AcDbLine
 10
186.957677
 20
98.30022
 30
0.0
 11
186.947678
 21
98.29713
 31
0.0
  0
LINE
  5
314
100
AcDbEntity
  8
0
  6
Continuous
 62
   174
100
AcDbLine
 10
192.957677
 20
90.265311
 30
0.0
 11
192.957677
 21
89.24713
 31
0.0
  0
LWPOLYLINE
  5
315
100
AcDbEntity
  8
0
  6
Continuous
 62
   174
100
AcDbPolyline
 90
        2
 70
   129
 10
188.967675
 20
103.270053
 10
188.967677
 20
103.270053
  0
LINE
  5
316
100
AcDbEntity
  8
0
  6
HIDDEN
 62
   174
100
AcDbLine
 10
112.967675
 20
95.527388
 30
0.0
 11
112.957677
 21
95.526612
 31
0.0
  0
LINE
  5
317
100
AcDbEntity
  8
0
  6
Continuous
 62
   174
100
AcDbLine
 10
186.957677
 20
93.872814
 30
0.0
 11
186.957677
 21
96.087831
 31
0.0
  0
LINE
  5
318
100
AcDbEntity
  8
0
  6
Continuous
 62
   174
100
AcDbLine
 10
110.957677
 20
88.915313
 30
0.0
 11
110.957677
 21
89.436831
 31
0.0
  0
LINE
  5
319
100
AcDbEntity
  8
0
  6
Continuous
 62
   174
100
AcDbLine
 10
188.967675
 20
98.306641
 30
0.0
 11
186.947678
 21
98.306641
 31
0.0
  0
LINE
  5
31A
100
AcDbEntity
  8
0
  6
HIDDEN
 62
   174
100
AcDbLine
 10
110.947678
 20
92.322017
 30
0.0
 11
112.967675
 21
92.322017
 31
0.0
  0
LINE
  5
31B
100
AcDbEntity
  8
0
  6
Continuous
 62
   174
100
AcDbLine
 10
112.967675
 20
88.911324
 30
0.0
 11
112.957677
 21
88.901356
 31
0.0
  0
LINE
  5
31C
100
AcDbEntity
  8
0
  6
Continuous
 62
   174
100
AcDbLine
 10
188.967675
 20
98.29713
 30
0.0
 11
188.957677
 21
98.30022
 31
0.0
  0
LINE
  5
31D
100
AcDbEntity
  8
0
  6
Continuous
 62
   174
100
AcDbLine
 10
192.957677
 20
102.929204
 30
0.0
 11
192.967675
 21
102.919695
 31
0.0
  0
LINE
  5
31E
100
AcDbEntity
  8
0
  6
HIDDEN
 62
   174
100
AcDbLine
 10
152.075709
 20
107.060053
 30
0.0
 11
147.875736
 21
107.060053
 31
0.0
  0
LINE
  5
31F
100
AcDbEntity
  8
0
  6
HIDDEN
 62
   174
100
AcDbLine
 10
112.967675
 20
91.419264
 30
0.0
 11
112.957677
 21
91.412778
 31
0.0
  0
LINE
  5
320
100
AcDbEntity
  8
0
  6
Continuous
 62
   174
100
AcDbLine
 10
106.947678
 20
88.912099
 30
0.0
 11
106.957677
 21
88.902131
 31
0.0
  0
LINE
  5
321
100
AcDbEntity
  8
0
  6
Continuous
 62
   174
100
AcDbLine
 10
112.957677
 20
94.397789
 30
0.0
 11
112.967675
 21
94.400132
 31
0.0
  0
LINE
  5
322
100
AcDbEntity
  8
0
  6
HIDDEN
 62
   174
100
AcDbLine
 10
157.475703
 20
85.100053
 30
0.0
 11
162.475691
 21
85.100053
 31
0.0
  0
LINE
  5
323
100
AcDbEntity
  8
0
  6
HIDDEN
 62
   174
100
AcDbLine
 10
188.96041
 20
101.899825
 30
0.0
 11
186.954944
 21
101.899825
 31
0.0
  0
LINE
  5
324
100
AcDbEntity
  8
0
  6
Continuous
 62
   174
100
AcDbLine
 10
108.957677
 20
103.080767
 30
0.0
 11
106.957677
 21
103.080767
 31
0.0
  0
LINE
  5
325
100
AcDbEntity
  8
0
  6
Continuous
 62
   174
100
AcDbLine
 10
186.957677
 20
100.32859
 30
0.0
 11
186.957677
 21
101.914387
 31
0.0
  0
LINE
  5
326
100
AcDbEntity
  8
0
  6
HIDDEN
 62
   174
100
AcDbLine
 10
112.957677
 20
89.07934
 30
0.0
 11
112.967675
 21
89.08906
 31
0.0
  0
LINE
  5
327
100
AcDbEntity
  8
0
  6
HIDDEN
 62
   174
100
AcDbLine
 10
130.475729
 20
85.095053
 30
0.0
 11
137.975816
 21
85.095053
 31
0.0
  0
LINE
  5
328
100
AcDbEntity
  8
0
  6
Continuous
 62
   174
100
AcDbLine
 10
108.957677
 20
100.754939
 30
0.0
 11
108.967675
 21
100.748453
 31
0.0
  0
LINE
  5
329
100
AcDbEntity
  8
0
  6
Continuous
 62
   174
100
AcDbLine
 10
108.957677
 20
94.400917
 30
0.0
 11
108.957677
 21
92.329715
 31
0.0
  0
LINE
  5
32A
100
AcDbEntity
  8
0
  6
HIDDEN
 62
   174
100
AcDbLine
 10
108.967675
 20
102.727138
 30
0.0
 11
108.957677
 21
102.736378
 31
0.0
  0
LINE
  5
32B
100
AcDbEntity
  8
0
  6
HIDDEN
 62
   174
100
AcDbLine
 10
192.967675
 20
89.243502
 30
0.0
 11
190.947678
 21
89.243502
 31
0.0
  0
LINE
  5
32C
100
AcDbEntity
  8
0
  6
Continuous
 62
   174
100
AcDbLine
 10
110.947678
 20
96.642689
 30
0.0
 11
110.957677
 21
96.643464
 31
0.0
  0
LINE
  5
32D
100
AcDbEntity
  8
0
  6
HIDDEN
 62
   174
100
AcDbLine
 10
192.967675
 20
90.26616
 30
0.0
 11
190.947678
 21
90.26616
 31
0.0
  0
LINE
  5
32E
100
AcDbEntity
  8
0
  6
HIDDEN
 62
   174
100
AcDbLine
 10
188.958865
 20
88.890053
 30
0.0
 11
186.956488
 21
88.890053
 31
0.0
  0
LINE
  5
32F
100
AcDbEntity
  8
0
  6
Continuous
 62
   174
100
AcDbLine
 10
106.957677
 20
92.308264
 30
0.0
 11
106.947678
 21
92.313496
 31
0.0
  0
LWPOLYLINE
  5
330
100
AcDbEntity
  8
0
  6
Continuous
 62
   174
100
AcDbPolyline
 90
        2
 70
   129
 10
192.967675
 20
103.270053
 10
192.967677
 20
103.270053
  0
LINE
  5
331
100
AcDbEntity
  8
0
  6
HIDDEN
 62
   174
100
AcDbLine
 10
110.947678
 20
89.08906
 30
0.0
 11
112.967675
 21
89.08906
 31
0.0
  0
LINE
  5
332
100
AcDbEntity
  8
0
  6
Continuous
 62
   174
100
AcDbLine
 10
188.957677
 20
101.914387
 30
0.0
 11
188.957677
 21
100.32859
 31
0.0
  0
LINE
  5
333
100
AcDbEntity
  8
0
  6
HIDDEN
 62
   174
100
AcDbLine
 10
108.957677
 20
93.338975
 30
0.0
 11
108.957677
 21
91.425822
 31
0.0
  0
LINE
  5
334
100
AcDbEntity
  8
0
  6
Continuous
 62
   174
100
AcDbLine
 10
108.957677
 20
88.902131
 30
0.0
 11
106.957677
 21
88.902131
 31
0.0
  0
LINE
  5
335
100
AcDbEntity
  8
0
  6
Continuous
 62
   174
100
AcDbLine
 10
112.957677
 20
103.09083
 30
0.0
 11
112.957677
 21
102.230697
 31
0.0
  0
LINE
  5
336
100
AcDbEntity
  8
0
  6
HIDDEN
 62
   174
100
AcDbLine
 10
108.957677
 20
97.762318
 30
0.0
 11
106.957677
 21
97.762318
 31
0.0
  0
LINE
  5
337
100
AcDbEntity
  8
0
  6
Continuous
 62
   174
100
AcDbLine
 10
194.457677
 20
102.692522
 30
0.0
 11
194.457677
 21
89.493125
 31
0.0
  0
LINE
  5
338
100
AcDbEntity
  8
0
  6
Continuous
 62
   174
100
AcDbLine
 10
186.457677
 20
102.792365
 30
0.0
 11
186.457677
 21
89.393282
 31
0.0
  0
LINE
  5
339
100
AcDbEntity
  8
0
  6
Continuous
 62
   174
100
AcDbLine
 10
112.957677
 20
100.754939
 30
0.0
 11
110.957677
 21
100.754939
 31
0.0
  0
LINE
  5
33A
100
AcDbEntity
  8
0
  6
Continuous
 62
   174
100
AcDbLine
 10
106.957677
 20
102.230697
 30
0.0
 11
106.957677
 21
103.09083
 31
0.0
  0
LINE
  5
33B
100
AcDbEntity
  8
0
  6
Continuous
 62
   174
100
AcDbLine
 10
106.947678
 20
94.39041
 30
0.0
 11
108.967675
 21
94.39041
 31
0.0
  0
LINE
  5
33C
100
AcDbEntity
  8
0
  6
Continuous
 62
   174
100
AcDbLine
 10
186.957677
 20
102.926114
 30
0.0
 11
188.957677
 21
102.926114
 31
0.0
  0
LINE
  5
33D
100
AcDbEntity
  8
0
  6
Continuous
 62
   174
100
AcDbLine
 10
190.957677
 20
90.252194
 30
0.0
 11
192.957677
 21
90.252194
 31
0.0
  0
LINE
  5
33E
100
AcDbEntity
  8
0
  6
Continuous
 62
   174
100
AcDbLine
 10
117.957677
 20
85.080053
 30
0.0
 11
181.957677
 21
85.080053
 31
0.0
  0
LINE
  5
33F
100
AcDbEntity
  8
0
  6
HIDDEN
 62
   174
100
AcDbLine
 10
110.953819
 20
102.209759
 30
0.0
 11
112.961535
 21
102.209759
 31
0.0
  0
LINE
  5
340
100
AcDbEntity
  8
0
  6
Continuous
 62
   174
100
AcDbLine
 10
194.457677
 20
89.480053
 30
0.0
 11
194.957677
 21
89.980053
 31
0.0
  0
LINE
  5
341
100
AcDbEntity
  8
0
  6
HIDDEN
 62
   174
100
AcDbLine
 10
110.957677
 20
97.772039
 30
0.0
 11
112.957677
 21
97.772039
 31
0.0
  0
LINE
  5
342
100
AcDbEntity
  8
0
  6
Continuous
 62
   174
100
AcDbLine
 10
188.957677
 20
90.265311
 30
0.0
 11
188.957677
 21
89.24713
 31
0.0
  0
LINE
  5
343
100
AcDbEntity
  8
0
  6
HIDDEN
 62
   174
100
AcDbLine
 10
108.957677
 20
89.09248
 30
0.0
 11
108.957677
 21
88.914463
 31
0.0
  0
LINE
  5
344
100
AcDbEntity
  8
0
  6
HIDDEN
 62
   174
100
AcDbLine
 10
162.475691
 20
107.070053
 30
0.0
 11
157.475703
 21
107.070053
 31
0.0
  0
LINE
  5
345
100
AcDbEntity
  8
0
  6
Continuous
 62
   174
100
AcDbLine
 10
192.957677
 20
93.859887
 30
0.0
 11
190.957677
 21
93.859887
 31
0.0
  0
LINE
  5
346
100
AcDbEntity
  8
0
  6
HIDDEN
 62
   174
100
AcDbLine
 10
106.957677
 20
91.412778
 30
0.0
 11
106.947678
 21
91.419264
 31
0.0
  0
LINE
  5
347
100
AcDbEntity
  8
0
  6
HIDDEN
 62
   174
100
AcDbLine
 10
110.957677
 20
102.748816
 30
0.0
 11
110.957677
 21
103.270334
 31
0.0
  0
LINE
  5
348
100
AcDbEntity
  8
0
  6
Continuous
 62
   174
100
AcDbLine
 10
190.947678
 20
88.890053
 30
0.0
 11
190.957677
 21
88.880055
 31
0.0
  0
LINE
  5
349
100
AcDbEntity
  8
0
  6
Continuous
 62
   174
100
AcDbLine
 10
188.957677
 20
88.880055
 30
0.0
 11
186.957677
 21
88.880055
 31
0.0
  0
LINE
  5
34A
100
AcDbEntity
  8
0
  6
Continuous
 62
   174
100
AcDbLine
 10
190.947678
 20
90.26616
 30
0.0
 11
190.957677
 21
90.258071
 31
0.0
  0
LWPOLYLINE
  5
34B
100
AcDbEntity
  8
0
  6
Continuous
 62
   174
100
AcDbPolyline
 90
        2
 70
   129
 10
190.947678
 20
88.890053
 10
190.947677
 20
88.890053
  0
LINE
  5
34C
100
AcDbEntity
  8
0
  6
Continuous
 62
   174
100
AcDbLine
 10
186.957677
 20
93.850376
 30
0.0
 11
188.957677
 21
93.850376
 31
0.0
  0
LINE
  5
34D
100
AcDbEntity
  8
0
  6
HIDDEN
 62
   174
100
AcDbLine
 10
188.967675
 20
89.243502
 30
0.0
 11
186.947678
 21
89.243502
 31
0.0
  0
LINE
  5
34E
100
AcDbEntity
  8
0
  6
Continuous
 62
   174
100
AcDbLine
 10
110.947678
 20
94.39041
 30
0.0
 11
112.967675
 21
94.39041
 31
0.0
  0
LINE
  5
34F
100
AcDbEntity
  8
0
  6
HIDDEN
 62
   174
100
AcDbLine
 10
110.957677
 20
89.96026
 30
0.0
 11
110.957677
 21
91.418174
 31
0.0
  0
LINE
  5
350
100
AcDbEntity
  8
0
  6
Continuous
 62
   174
100
AcDbLine
 10
192.957677
 20
93.859887
 30
0.0
 11
192.967675
 21
93.862977
 31
0.0
  0
LINE
  5
351
100
AcDbEntity
  8
0
  6
HIDDEN
 62
   174
100
AcDbLine
 10
106.95181
 20
89.432969
 30
0.0
 11
108.963543
 21
89.432969
 31
0.0
  0
LINE
  5
352
100
AcDbEntity
  8
0
  6
Continuous
 62
   174
100
AcDbLine
 10
106.947678
 20
96.642689
 30
0.0
 11
108.967675
 21
96.642689
 31
0.0
  0
LINE
  5
353
100
AcDbEntity
  8
0
  6
Continuous
 62
   174
100
AcDbLine
 10
106.457677
 20
102.680053
 30
0.0
 11
105.457677
 21
102.680053
 31
0.0
  0
LINE
  5
354
100
AcDbEntity
  8
0
  6
HIDDEN
 62
   174
100
AcDbLine
 10
188.957677
 20
93.863254
 30
0.0
 11
188.957677
 21
91.865129
 31
0.0
  0
LWPOLYLINE
  5
355
100
AcDbEntity
  8
0
  6
HIDDEN
 62
   174
100
AcDbPolyline
 90
        3
 70
   128
 10
110.947678
 20
93.339178
 10
110.947677
 20
93.334557
 10
110.947678
 20
93.329936
  0
LINE
  5
356
100
AcDbEntity
  8
0
  6
HIDDEN
 62
   174
100
AcDbLine
 10
188.964426
 20
89.240412
 30
0.0
 11
186.950928
 21
89.240412
 31
0.0
  0
LINE
  5
357
100
AcDbEntity
  8
0
  6
Continuous
 62
   174
100
AcDbLine
 10
190.957677
 20
100.308061
 30
0.0
 11
192.957677
 21
100.308061
 31
0.0
  0
LINE
  5
358
100
AcDbEntity
  8
0
  6
Continuous
 62
   174
100
AcDbLine
 10
186.957677
 20
96.097816
 30
0.0
 11
186.957677
 21
98.312833
 31
0.0
  0
LINE
  5
359
100
AcDbEntity
  8
0
  6
HIDDEN
 62
   174
100
AcDbLine
 10
110.947678
 20
89.08906
 30
0.0
 11
110.957677
 21
89.07934
 31
0.0
  0
LINE
  5
35A
100
AcDbEntity
  8
0
  6
HIDDEN
 62
   174
100
AcDbLine
 10
110.947678
 20
102.723319
 30
0.0
 11
112.967675
 21
102.723319
 31
0.0
  0
LINE
  5
35B
100
AcDbEntity
  8
0
  6
HIDDEN
 62
   174
100
AcDbLine
 10
192.96041
 20
90.260282
 30
0.0
 11
190.954944
 21
90.260282
 31
0.0
  0
LINE
  5
35C
100
AcDbEntity
  8
0
  6
HIDDEN
 62
   174
100
AcDbLine
 10
112.957677
 20
95.52935
 30
0.0
 11
112.957677
 21
93.348322
 31
0.0
  0
LINE
  5
35D
100
AcDbEntity
  8
0
  6
HIDDEN
 62
   174
100
AcDbLine
 10
188.967675
 20
98.29713
 30
0.0
 11
186.947678
 21
98.29713
 31
0.0
  0
LINE
  5
35E
100
AcDbEntity
  8
0
  6
HIDDEN
 62
   174
100
AcDbLine
 10
110.957677
 20
99.851843
 30
0.0
 11
110.947678
 21
99.846611
 31
0.0
  0
LINE
  5
35F
100
AcDbEntity
  8
0
  6
HIDDEN
 62
   174
100
AcDbLine
 10
112.957677
 20
103.257976
 30
0.0
 11
110.957677
 21
103.257976
 31
0.0
  0
LINE
  5
360
100
AcDbEntity
  8
0
  6
HIDDEN
 62
   174
100
AcDbLine
 10
106.947678
 20
103.068704
 30
0.0
 11
108.967675
 21
103.068704
 31
0.0
  0
LINE
  5
361
100
AcDbEntity
  8
0
  6
HIDDEN
 62
   174
100
AcDbLine
 10
112.957677
 20
89.941828
 30
0.0
 11
110.957677
 21
89.941828
 31
0.0
  0
LINE
  5
362
100
AcDbEntity
  8
0
  6
Continuous
 62
   174
100
AcDbLine
 10
192.957677
 20
88.880055
 30
0.0
 11
190.957677
 21
88.880055
 31
0.0
  0
LINE
  5
363
100
AcDbEntity
  8
0
  6
Continuous
 62
   174
100
AcDbLine
 10
110.957677
 20
100.767473
 30
0.0
 11
110.957677
 21
102.225386
 31
0.0
  0
LWPOLYLINE
  5
364
100
AcDbEntity
  8
0
  6
Continuous
 62
   174
100
AcDbPolyline
 90
        2
 70
   129
 10
188.967675
 20
88.890053
 10
188.967677
 20
88.890053
  0
LINE
  5
365
100
AcDbEntity
  8
0
  6
Continuous
 62
   174
100
AcDbLine
 10
194.957677
 20
102.180053
 30
0.0
 11
194.457677
 21
102.680053
 31
0.0
  0
LINE
  5
366
100
AcDbEntity
  8
0
  6
Continuous
 62
   174
100
AcDbLine
 10
112.957677
 20
102.225386
 30
0.0
 11
112.957677
 21
100.767473
 31
0.0
  0
LINE
  5
367
100
AcDbEntity
  8
0
  6
HIDDEN
 62
   174
100
AcDbLine
 10
108.957677
 20
97.762318
 30
0.0
 11
108.967675
 21
97.759975
 31
0.0
  0
LINE
  5
368
100
AcDbEntity
  8
0
  6
Continuous
 62
   174
100
AcDbLine
 10
190.957677
 20
93.850376
 30
0.0
 11
190.947678
 21
93.853466
 31
0.0
  0
LINE
  5
369
100
AcDbEntity
  8
0
  6
HIDDEN
 62
   174
100
AcDbLine
 10
110.947678
 20
91.411654
 30
0.0
 11
112.967675
 21
91.411654
 31
0.0
  0
LINE
  5
36A
100
AcDbEntity
  8
0
  6
HIDDEN
 62
   174
100
AcDbLine
 10
108.957677
 20
99.843321
 30
0.0
 11
108.967675
 21
99.83809
 31
0.0
  0
LINE
  5
36B
100
AcDbEntity
  8
0
  6
HIDDEN
 62
   174
100
AcDbLine
 10
112.967675
 20
93.339178
 30
0.0
 11
112.957677
 21
93.33536
 31
0.0
  0
LINE
  5
36C
100
AcDbEntity
  8
0
  6
HIDDEN
 62
   174
100
AcDbLine
 10
112.957677
 20
91.405168
 30
0.0
 11
112.967675
 21
91.411654
 31
0.0
  0
LINE
  5
36D
100
AcDbEntity
  8
0
  6
Continuous
 62
   174
100
AcDbLine
 10
110.947678
 20
89.436788
 30
0.0
 11
110.957677
 21
89.427547
 31
0.0
  0
LINE
  5
36E
100
AcDbEntity
  8
0
  6
Continuous
 62
   174
100
AcDbLine
 10
112.957677
 20
98.837325
 30
0.0
 11
112.957677
 21
96.656296
 31
0.0
  0
LINE
  5
36F
100
AcDbEntity
  8
0
  6
Continuous
 62
   174
100
AcDbLine
 10
188.957677
 20
100.316151
 30
0.0
 11
186.957677
 21
100.316151
 31
0.0
  0
LINE
  5
370
100
AcDbEntity
  8
0
  6
Continuous
 62
   174
100
AcDbLine
 10
190.947678
 20
93.862977
 30
0.0
 11
190.957677
 21
93.859887
 31
0.0
  0
LINE
  5
371
100
AcDbEntity
  8
0
  6
HIDDEN
 62
   174
100
AcDbLine
 10
112.957677
 20
101.55595
 30
0.0
 11
110.957677
 21
101.55595
 31
0.0
  0
LINE
  5
372
100
AcDbEntity
  8
0
  6
Continuous
 62
   174
100
AcDbLine
 10
110.957677
 20
103.078424
 30
0.0
 11
110.947678
 21
103.068704
 31
0.0
  0
LINE
  5
373
100
AcDbEntity
  8
0
  6
HIDDEN
 62
   174
100
AcDbLine
 10
192.967675
 20
91.857923
 30
0.0
 11
190.947678
 21
91.857923
 31
0.0
  0
LINE
  5
374
100
AcDbEntity
  8
0
  6
Continuous
 62
   174
100
AcDbLine
 10
186.947678
 20
102.919695
 30
0.0
 11
186.957677
 21
102.929204
 31
0.0
  0
LINE
  5
375
100
AcDbEntity
  8
0
  6
HIDDEN
 62
   174
100
AcDbLine
 10
192.96041
 20
101.899825
 30
0.0
 11
190.954944
 21
101.899825
 31
0.0
  0
LINE
  5
376
100
AcDbEntity
  8
0
  6
Continuous
 62
   174
100
AcDbLine
 10
108.957677
 20
102.225386
 30
0.0
 11
108.957677
 21
100.767473
 31
0.0
  0
LINE
  5
377
100
AcDbEntity
  8
0
  6
HIDDEN
 62
   174
100
AcDbLine
 10
110.947678
 20
97.759975
 30
0.0
 11
110.957677
 21
97.762318
 31
0.0
  0
LINE
  5
378
100
AcDbEntity
  8
0
  6
Continuous
 62
   174
100
AcDbLine
 10
108.957677
 20
96.646312
 30
0.0
 11
108.957677
 21
94.410689
 31
0.0
  0
LINE
  5
379
100
AcDbEntity
  8
0
  6
Continuous
 62
   174
100
AcDbLine
 10
106.957677
 20
92.308264
 30
0.0
 11
108.957677
 21
92.308264
 31
0.0
  0
LINE
  5
37A
100
AcDbEntity
  8
0
  6
HIDDEN
 62
   174
100
AcDbLine
 10
106.957677
 20
101.562438
 30
0.0
 11
108.957677
 21
101.562438
 31
0.0
  0
LINE
  5
37B
100
AcDbEntity
  8
0
  6
Continuous
 62
   174
100
AcDbLine
 10
112.957677
 20
90.604157
 30
0.0
 11
112.967675
 21
90.611766
 31
0.0
  0
LINE
  5
37C
100
AcDbEntity
  8
0
  6
Continuous
 62
   174
100
AcDbLine
 10
108.957677
 20
89.436831
 30
0.0
 11
108.957677
 21
88.915313
 31
0.0
  0
LINE
  5
37D
100
AcDbEntity
  8
0
  6
Continuous
 62
   174
100
AcDbLine
 10
192.967675
 20
91.849832
 30
0.0
 11
192.957677
 21
91.843956
 31
0.0
  0
LINE
  5
37E
100
AcDbEntity
  8
0
  6
HIDDEN
 62
   174
100
AcDbLine
 10
106.947678
 20
102.204526
 30
0.0
 11
108.967675
 21
102.204526
 31
0.0
  0
LINE
  5
37F
100
AcDbEntity
  8
0
  6
HIDDEN
 62
   174
100
AcDbLine
 10
110.957677
 20
91.425822
 30
0.0
 11
110.957677
 21
93.338975
 31
0.0
  0
LINE
  5
380
100
AcDbEntity
  8
0
  6
HIDDEN
 62
   174
100
AcDbLine
 10
108.967675
 20
103.248783
 30
0.0
 11
108.957677
 21
103.258751
 31
0.0
  0
LINE
  5
381
100
AcDbEntity
  8
0
  6
HIDDEN
 62
   174
100
AcDbLine
 10
106.957677
 20
93.33536
 30
0.0
 11
106.947678
 21
93.339178
 31
0.0
  0
LINE
  5
382
100
AcDbEntity
  8
0
  6
Continuous
 62
   174
100
AcDbLine
 10
105.457677
 20
89.480053
 30
0.0
 11
106.457677
 21
89.480053
 31
0.0
  0
LINE
  5
383
100
AcDbEntity
  8
0
  6
Continuous
 62
   174
100
AcDbLine
 10
192.957677
 20
91.857056
 30
0.0
 11
192.957677
 21
90.271259
 31
0.0
  0
LINE
  5
384
100
AcDbEntity
  8
0
  6
Continuous
 62
   174
100
AcDbLine
 10
112.957677
 20
103.292427
 30
0.0
 11
112.957677
 21
103.093167
 31
0.0
  0
LINE
  5
385
100
AcDbEntity
  8
0
  6
Continuous
 62
   174
100
AcDbLine
 10
108.957677
 20
92.316786
 30
0.0
 11
108.967675
 21
92.322017
 31
0.0
  0
LINE
  5
386
100
AcDbEntity
  8
0
  6
HIDDEN
 62
   174
100
AcDbLine
 10
108.957677
 20
97.774958
 30
0.0
 11
108.957677
 21
95.539335
 31
0.0
  0
LINE
  5
387
100
AcDbEntity
  8
0
  6
HIDDEN
 62
   174
100
AcDbLine
 10
110.957677
 20
91.412778
 30
0.0
 11
112.957677
 21
91.412778
 31
0.0
  0
LINE
  5
388
100
AcDbEntity
  8
0
  6
HIDDEN
 62
   174
100
AcDbLine
 10
186.957677
 20
88.89322
 30
0.0
 11
186.957677
 21
89.244156
 31
0.0
  0
LWPOLYLINE
  5
389
100
AcDbEntity
  8
0
  6
HIDDEN
 62
   174
100
AcDbPolyline
 90
        3
 70
   128
 10
112.967675
 20
93.329936
 10
112.967677
 20
93.334557
 10
112.967675
 20
93.339178
  0
LINE
  5
38A
100
AcDbEntity
  8
0
  6
Continuous
 62
   174
100
AcDbLine
 10
188.967675
 20
93.853466
 30
0.0
 11
186.947678
 21
93.853466
 31
0.0
  0
LINE
  5
38B
100
AcDbEntity
  8
0
  6
Continuous
 62
   174
100
AcDbLine
 10
110.957677
 20
92.329715
 30
0.0
 11
110.957677
 21
94.400917
 31
0.0
  0
LINE
  5
38C
100
AcDbEntity
  8
0
  6
Continuous
 62
   174
100
AcDbLine
 10
188.957677
 20
98.312833
 30
0.0
 11
188.957677
 21
96.097816
 31
0.0
  0
LINE
  5
38D
100
AcDbEntity
  8
0
  6
Continuous
 62
   174
100
AcDbLine
 10
112.967675
 20
89.432969
 30
0.0
 11
112.957677
 21
89.423729
 31
0.0
  0
LWPOLYLINE
  5
38E
100
AcDbEntity
  8
0
  6
Continuous
 62
   174
100
AcDbPolyline
 90
        2
 70
   129
 10
108.967675
 20
89.436788
 10
108.967677
 20
89.434879
  0
LINE
  5
38F
100
AcDbEntity
  8
0
  6
Continuous
 62
   174
100
AcDbLine
 10
117.957677
 20
107.080053
 30
0.0
 11
117.957677
 21
85.080053
 31
0.0
  0
LINE
  5
390
100
AcDbEntity
  8
0
  6
HIDDEN
 62
   174
100
AcDbLine
 10
110.947678
 20
103.248008
 30
0.0
 11
112.967675
 21
103.248008
 31
0.0
  0
LINE
  5
391
100
AcDbEntity
  8
0
  6
Continuous
 62
   174
100
AcDbLine
 10
110.957677
 20
98.846672
 30
0.0
 11
110.957677
 21
100.759825
 31
0.0
  0
LINE
  5
392
100
AcDbEntity
  8
0
  6
HIDDEN
 62
   174
100
AcDbLine
 10
110.947678
 20
94.400132
 30
0.0
 11
112.967675
 21
94.400132
 31
0.0
  0
LINE
  5
393
100
AcDbEntity
  8
0
  6
HIDDEN
 62
   174
100
AcDbLine
 10
110.947678
 20
89.950348
 30
0.0
 11
112.967675
 21
89.950348
 31
0.0
  0
LINE
  5
394
100
AcDbEntity
  8
0
  6
Continuous
 62
   174
100
AcDbLine
 10
110.947678
 20
100.748453
 30
0.0
 11
110.957677
 21
100.754939
 31
0.0
  0
LINE
  5
395
100
AcDbEntity
  8
0
  6
HIDDEN
 62
   174
100
AcDbLine
 10
106.947678
 20
90.611766
 30
0.0
 11
108.967675
 21
90.611766
 31
0.0
  0
LINE
  5
396
100
AcDbEntity
  8
0
  6
HIDDEN
 62
   174
100
AcDbLine
 10
108.957677
 20
103.257976
 30
0.0
 11
108.967675
 21
103.248008
 31
0.0
  0
LINE
  5
397
100
AcDbEntity
  8
0
  6
HIDDEN
 62
   174
100
AcDbLine
 10
112.957677
 20
93.338975
 30
0.0
 11
112.957677
 21
91.425822
 31
0.0
  0
LINE
  5
398
100
AcDbEntity
  8
0
  6
HIDDEN
 62
   174
100
AcDbLine
 10
188.957677
 20
96.087831
 30
0.0
 11
188.957677
 21
93.872814
 31
0.0
  0
LINE
  5
399
100
AcDbEntity
  8
0
  6
HIDDEN
 62
   174
100
AcDbLine
 10
192.967675
 20
100.302184
 30
0.0
 11
190.947678
 21
100.302184
 31
0.0
  0
LINE
  5
39A
100
AcDbEntity
  8
0
  6
Continuous
 62
   174
100
AcDbLine
 10
186.957677
 20
90.252194
 30
0.0
 11
186.947678
 21
90.260282
 31
0.0
  0
LINE
  5
39B
100
AcDbEntity
  8
0
  6
Continuous
 62
   174
100
AcDbLine
 10
190.957677
 20
96.075053
 30
0.0
 11
192.957677
 21
96.075053
 31
0.0
  0
LINE
  5
39C
100
AcDbEntity
  8
0
  6
HIDDEN
 62
   174
100
AcDbLine
 10
188.967675
 20
90.26616
 30
0.0
 11
186.947678
 21
90.26616
 31
0.0
  0
LINE
  5
39D
100
AcDbEntity
  8
0
  6
Continuous
 62
   174
100
AcDbLine
 10
186.947678
 20
100.310274
 30
0.0
 11
186.957677
 21
100.316151
 31
0.0
  0
LINE
  5
39E
100
AcDbEntity
  8
0
  6
HIDDEN
 62
   174
100
AcDbLine
 10
106.957677
 20
93.33536
 30
0.0
 11
108.957677
 21
93.33536
 31
0.0
  0
LWPOLYLINE
  5
39F
100
AcDbEntity
  8
0
  6
Continuous
 62
   174
100
AcDbPolyline
 90
        3
 70
   128
 10
106.947678
 20
89.432969
 10
106.947677
 20
89.434879
 10
106.947678
 20
89.436788
  0
LINE
  5
3A0
100
AcDbEntity
  8
0
  6
Continuous
 62
   174
100
AcDbLine
 10
110.947678
 20
92.322017
 30
0.0
 11
110.957677
 21
92.316786
 31
0.0
  0
LINE
  5
3A1
100
AcDbEntity
  8
0
  6
Continuous
 62
   174
100
AcDbLine
 10
186.957677
 20
89.230903
 30
0.0
 11
188.957677
 21
89.230903
 31
0.0
  0
LINE
  5
3A2
100
AcDbEntity
  8
0
  6
HIDDEN
 62
   174
100
AcDbLine
 10
186.957677
 20
102.941491
 30
0.0
 11
186.957677
 21
103.292427
 31
0.0
  0
LINE
  5
3A3
100
AcDbEntity
  8
0
  6
Continuous
 62
   174
100
AcDbLine
 10
112.957677
 20
94.397789
 30
0.0
 11
110.957677
 21
94.397789
 31
0.0
  0
LINE
  5
3A4
100
AcDbEntity
  8
0
  6
Continuous
 62
   174
100
AcDbLine
 10
110.957677
 20
88.901356
 30
0.0
 11
110.947678
 21
88.911324
 31
0.0
  0
LINE
  5
3A5
100
AcDbEntity
  8
0
  6
HIDDEN
 62
   174
100
AcDbLine
 10
106.957677
 20
89.081683
 30
0.0
 11
108.957677
 21
89.081683
 31
0.0
  0
LINE
  5
3A6
100
AcDbEntity
  8
0
  6
HIDDEN
 62
   174
100
AcDbLine
 10
135.475717
 20
85.100053
 30
0.0
 11
140.475704
 21
85.100053
 31
0.0
  0
LINE
  5
3A7
100
AcDbEntity
  8
0
  6
HIDDEN
 62
   174
100
AcDbLine
 10
108.957677
 20
93.326118
 30
0.0
 11
106.957677
 21
93.326118
 31
0.0
  0
LWPOLYLINE
  5
3A8
100
AcDbEntity
  8
0
  6
Continuous
 62
   174
100
AcDbPolyline
 90
        2
 70
   129
 10
112.967675
 20
89.436788
 10
112.967677
 20
89.434879
  0
LINE
  5
3A9
100
AcDbEntity
  8
0
  6
Continuous
 62
   174
100
AcDbLine
 10
108.957677
 20
103.280053
 30
0.0
 11
106.957677
 21
103.280053
 31
0.0
  0
LINE
  5
3AA
100
AcDbEntity
  8
0
  6
HIDDEN
 62
   174
100
AcDbLine
 10
108.957677
 20
93.326118
 30
0.0
 11
108.967675
 21
93.329936
 31
0.0
  0
LINE
  5
3AB
100
AcDbEntity
  8
0
  6
Continuous
 62
   174
100
AcDbLine
 10
106.957677
 20
94.388067
 30
0.0
 11
108.957677
 21
94.388067
 31
0.0
  0
LINE
  5
3AC
100
AcDbEntity
  8
0
  6
Continuous
 62
   174
100
AcDbLine
 10
106.957677
 20
103.078424
 30
0.0
 11
106.947678
 21
103.068704
 31
0.0
  0
LINE
  5
3AD
100
AcDbEntity
  8
0
  6
HIDDEN
 62
   174
100
AcDbLine
 10
112.957677
 20
97.762318
 30
0.0
 11
112.967675
 21
97.759975
 31
0.0
  0
LINE
  5
3AE
100
AcDbEntity
  8
0
  6
Continuous
 62
   174
100
AcDbLine
 10
106.457677
 20
102.792365
 30
0.0
 11
106.457677
 21
89.393282
 31
0.0
  0
LINE
  5
3AF
100
AcDbEntity
  8
0
  6
Continuous
 62
   174
100
AcDbLine
 10
110.957677
 20
92.308264
 30
0.0
 11
110.947678
 21
92.313496
 31
0.0
  0
LINE
  5
3B0
100
AcDbEntity
  8
0
  6
Continuous
 62
   174
100
AcDbLine
 10
192.957677
 20
98.309731
 30
0.0
 11
192.967675
 21
98.306641
 31
0.0
  0
LINE
  5
3B1
100
AcDbEntity
  8
0
  6
Continuous
 62
   174
100
AcDbLine
 10
186.957677
 20
98.322392
 30
0.0
 11
186.957677
 21
100.320518
 31
0.0
  0
LINE
  5
3B2
100
AcDbEntity
  8
0
  6
HIDDEN
 62
   174
100
AcDbLine
 10
110.947678
 20
89.955581
 30
0.0
 11
112.967675
 21
89.955581
 31
0.0
  0
LWPOLYLINE
  5
3B3
100
AcDbEntity
  8
0
  6
Continuous
 62
   174
100
AcDbPolyline
 90
        2
 70
   129
 10
110.947678
 20
89.432969
 10
110.947677
 20
89.434879
  0
LINE
  5
3B4
100
AcDbEntity
  8
0
  6
HIDDEN
 62
   174
100
AcDbLine
 10
112.957677
 20
91.418174
 30
0.0
 11
112.957677
 21
89.96026
 31
0.0
  0
LINE
  5
3B5
100
AcDbEntity
  8
0
  6
HIDDEN
 62
   174
100
AcDbLine
 10
110.957677
 20
89.94706
 30
0.0
 11
110.947678
 21
89.955581
 31
0.0
  0
LINE
  5
3B6
100
AcDbEntity
  8
0
  6
HIDDEN
 62
   174
100
AcDbLine
 10
106.957677
 20
89.94706
 30
0.0
 11
108.957677
 21
89.94706
 31
0.0
  0
LINE
  5
3B7
100
AcDbEntity
  8
0
  6
HIDDEN
 62
   174
100
AcDbLine
 10
106.947678
 20
99.846611
 30
0.0
 11
108.967675
 21
99.846611
 31
0.0
  0
LWPOLYLINE
  5
3B8
100
AcDbEntity
  8
0
  6
Continuous
 62
   174
100
AcDbPolyline
 90
        2
 70
   129
 10
186.947678
 20
88.890053
 10
186.947677
 20
88.890053
  0
LINE
  5
3B9
100
AcDbEntity
  8
0
  6
Continuous
 62
   174
100
AcDbLine
 10
188.957677
 20
91.852046
 30
0.0
 11
186.957677
 21
91.852046
 31
0.0
  0
LINE
  5
3BA
100
AcDbEntity
  8
0
  6
Continuous
 62
   174
100
AcDbLine
 10
186.957677
 20
90.271259
 30
0.0
 11
186.957677
 21
91.857056
 31
0.0
  0
LINE
  5
3BB
100
AcDbEntity
  8
0
  6
HIDDEN
 62
   174
100
AcDbLine
 10
112.957677
 20
99.843321
 30
0.0
 11
110.957677
 21
99.843321
 31
0.0
  0
LINE
  5
3BC
100
AcDbEntity
  8
0
  6
HIDDEN
 62
   174
100
AcDbLine
 10
108.957677
 20
102.73256
 30
0.0
 11
106.957677
 21
102.73256
 31
0.0
  0
LINE
  5
3BD
100
AcDbEntity
  8
0
  6
HIDDEN
 62
   174
100
AcDbLine
 10
108.957677
 20
89.941828
 30
0.0
 11
106.957677
 21
89.941828
 31
0.0
  0
LINE
  5
3BE
100
AcDbEntity
  8
0
  6
HIDDEN
 62
   174
100
AcDbLine
 10
106.947678
 20
93.339178
 30
0.0
 11
108.967675
 21
93.339178
 31
0.0
  0
LINE
  5
3BF
100
AcDbEntity
  8
0
  6
HIDDEN
 62
   174
100
AcDbLine
 10
108.957677
 20
91.405168
 30
0.0
 11
108.967675
 21
91.411654
 31
0.0
  0
LINE
  5
3C0
100
AcDbEntity
  8
0
  6
HIDDEN
 62
   174
100
AcDbLine
 10
192.957677
 20
90.265311
 30
0.0
 11
192.957677
 21
89.24713
 31
0.0
  0
LINE
  5
3C1
100
AcDbEntity
  8
0
  6
Continuous
 62
   174
100
AcDbLine
 10
108.967675
 20
100.740843
 30
0.0
 11
108.957677
 21
100.747329
 31
0.0
  0
LINE
  5
3C2
100
AcDbEntity
  8
0
  6
HIDDEN
 62
   174
100
AcDbLine
 10
106.957677
 20
95.526612
 30
0.0
 11
108.957677
 21
95.526612
 31
0.0
  0
LINE
  5
3C3
100
AcDbEntity
  8
0
  6
Continuous
 62
   174
100
AcDbLine
 10
189.457677
 20
89.393282
 30
0.0
 11
189.457677
 21
102.792365
 31
0.0
  0
LINE
  5
3C4
100
AcDbEntity
  8
0
  6
Continuous
 62
   174
100
AcDbLine
 10
108.957677
 20
90.610724
 30
0.0
 11
108.957677
 21
89.440654
 31
0.0
  0
LINE
  5
3C5
100
AcDbEntity
  8
0
  6
Continuous
 62
   174
100
AcDbLine
 10
188.957677
 20
93.859887
 30
0.0
 11
186.957677
 21
93.859887
 31
0.0
  0
LINE
  5
3C6
100
AcDbEntity
  8
0
  6
HIDDEN
 62
   174
100
AcDbLine
 10
106.957677
 20
88.914463
 30
0.0
 11
106.957677
 21
89.09248
 31
0.0
  0
LINE
  5
3C7
100
AcDbEntity
  8
0
  6
HIDDEN
 62
   174
100
AcDbLine
 10
188.957677
 20
91.857056
 30
0.0
 11
188.957677
 21
90.271259
 31
0.0
  0
LINE
  5
3C8
100
AcDbEntity
  8
0
  6
HIDDEN
 62
   174
100
AcDbLine
 10
108.967675
 20
99.846611
 30
0.0
 11
108.957677
 21
99.851843
 31
0.0
  0
LINE
  5
3C9
100
AcDbEntity
  8
0
  6
HIDDEN
 62
   174
100
AcDbLine
 10
106.947678
 20
92.322017
 30
0.0
 11
108.967675
 21
92.322017
 31
0.0
  0
LINE
  5
3CA
100
AcDbEntity
  8
0
  6
HIDDEN
 62
   174
100
AcDbLine
 10
106.947678
 20
91.411654
 30
0.0
 11
108.967675
 21
91.411654
 31
0.0
  0
LINE
  5
3CB
100
AcDbEntity
  8
0
  6
HIDDEN
 62
   174
100
AcDbLine
 10
135.475717
 20
107.070053
 30
0.0
 11
130.475729
 21
107.070053
 31
0.0
  0
LINE
  5
3CC
100
AcDbEntity
  8
0
  6
Continuous
 62
   174
100
AcDbLine
 10
112.957677
 20
92.321218
 30
0.0
 11
112.957677
 21
90.617309
 31
0.0
  0
LINE
  5
3CD
100
AcDbEntity
  8
0
  6
Continuous
 62
   174
100
AcDbLine
 10
112.957677
 20
100.754939
 30
0.0
 11
112.967675
 21
100.748453
 31
0.0
  0
LINE
  5
3CE
100
AcDbEntity
  8
0
  6
Continuous
 62
   174
100
AcDbLine
 10
190.957677
 20
100.32859
 30
0.0
 11
190.957677
 21
101.914387
 31
0.0
  0
LINE
  5
3CF
100
AcDbEntity
  8
0
  6
HIDDEN
 62
   174
100
AcDbLine
 10
110.947678
 20
103.068704
 30
0.0
 11
112.967675
 21
103.068704
 31
0.0
  0
LINE
  5
3D0
100
AcDbEntity
  8
0
  6
HIDDEN
 62
   174
100
AcDbLine
 10
106.947678
 20
89.950348
 30
0.0
 11
106.957677
 21
89.941828
 31
0.0
  0
LINE
  5
3D1
100
AcDbEntity
  8
0
  6
HIDDEN
 62
   174
100
AcDbLine
 10
110.957677
 20
93.33536
 30
0.0
 11
112.957677
 21
93.33536
 31
0.0
  0
LINE
  5
3D2
100
AcDbEntity
  8
0
  6
Continuous
 62
   174
100
AcDbLine
 10
110.947678
 20
102.209759
 30
0.0
 11
110.957677
 21
102.218279
 31
0.0
  0
LINE
  5
3D3
100
AcDbEntity
  8
0
  6
Continuous
 62
   174
100
AcDbLine
 10
192.957677
 20
90.258071
 30
0.0
 11
190.957677
 21
90.258071
 31
0.0
  0
LINE
  5
3D4
100
AcDbEntity
  8
0
  6
Continuous
 62
   174
100
AcDbLine
 10
117.957677
 20
107.080053
 30
0.0
 11
181.957677
 21
107.080053
 31
0.0
  0
LWPOLYLINE
  5
3D5
100
AcDbEntity
  8
0
  6
Continuous
 62
   174
100
AcDbPolyline
 90
        3
 70
   128
 10
108.967675
 20
98.830171
 10
108.967677
 20
98.82555
 10
108.967675
 20
98.820929
  0
LINE
  5
3D6
100
AcDbEntity
  8
0
  6
HIDDEN
 62
   174
100
AcDbLine
 10
186.957677
 20
93.872814
 30
0.0
 11
186.957677
 21
96.087831
 31
0.0
  0
LINE
  5
3D7
100
AcDbEntity
  8
0
  6
Continuous
 62
   174
100
AcDbLine
 10
104.957677
 20
102.19246
 30
0.0
 11
104.957677
 21
89.993187
 31
0.0
  0
LINE
  5
3D8
100
AcDbEntity
  8
0
  6
Continuous
 62
   174
100
AcDbLine
 10
108.957677
 20
90.604157
 30
0.0
 11
106.957677
 21
90.604157
 31
0.0
  0
LINE
  5
3D9
100
AcDbEntity
  8
0
  6
HIDDEN
 62
   174
100
AcDbLine
 10
110.947678
 20
89.436788
 30
0.0
 11
112.967675
 21
89.436788
 31
0.0
  0
LINE
  5
3DA
100
AcDbEntity
  8
0
  6
HIDDEN
 62
   174
100
AcDbLine
 10
110.957677
 20
88.914463
 30
0.0
 11
110.957677
 21
89.09248
 31
0.0
  0
LINE
  5
3DB
100
AcDbEntity
  8
0
  6
Continuous
 62
   174
100
AcDbLine
 10
110.957677
 20
90.617309
 30
0.0
 11
110.957677
 21
92.321218
 31
0.0
  0
LINE
  5
3DC
100
AcDbEntity
  8
0
  6
HIDDEN
 62
   174
100
AcDbLine
 10
147.857677
 20
107.080053
 30
0.0
 11
147.857677
 21
107.060053
 31
0.0
  0
LINE
  5
3DD
100
AcDbEntity
  8
0
  6
HIDDEN
 62
   174
100
AcDbLine
 10
106.947678
 20
89.955581
 30
0.0
 11
108.967675
 21
89.955581
 31
0.0
  0
LINE
  5
3DE
100
AcDbEntity
  8
0
  6
Continuous
 62
   174
100
AcDbLine
 10
112.967675
 20
98.820929
 30
0.0
 11
112.957677
 21
98.824747
 31
0.0
  0
LINE
  5
3DF
100
AcDbEntity
  8
0
  6
Continuous
 62
   174
100
AcDbLine
 10
110.957677
 20
94.388067
 30
0.0
 11
110.947678
 21
94.39041
 31
0.0
  0
LINE
  5
3E0
100
AcDbEntity
  8
0
  6
HIDDEN
 62
   174
100
AcDbLine
 10
192.957677
 20
93.863254
 30
0.0
 11
192.957677
 21
91.865129
 31
0.0
  0
LINE
  5
3E1
100
AcDbEntity
  8
0
  6
Continuous
 62
   174
100
AcDbLine
 10
106.957677
 20
100.747329
 30
0.0
 11
106.947678
 21
100.740843
 31
0.0
  0
LINE
  5
3E2
100
AcDbEntity
  8
0
  6
HIDDEN
 62
   174
100
AcDbLine
 10
108.967675
 20
95.527388
 30
0.0
 11
108.957677
 21
95.526612
 31
0.0
  0
LINE
  5
3E3
100
AcDbEntity
  8
0
  6
HIDDEN
 62
   174
100
AcDbLine
 10
106.947678
 20
89.08906
 30
0.0
 11
106.957677
 21
89.07934
 31
0.0
  0
LINE
  5
3E4
100
AcDbEntity
  8
0
  6
Continuous
 62
   174
100
AcDbLine
 10
106.957677
 20
103.078424
 30
0.0
 11
108.957677
 21
103.078424
 31
0.0
  0
LINE
  5
3E5
100
AcDbEntity
  8
0
  6
Continuous
 62
   174
100
AcDbLine
 10
110.947678
 20
90.611766
 30
0.0
 11
110.957677
 21
90.604157
 31
0.0
  0
LINE
  5
3E6
100
AcDbEntity
  8
0
  6
Continuous
 62
   174
100
AcDbLine
 10
190.457677
 20
102.792365
 30
0.0
 11
190.457677
 21
89.393282
 31
0.0
  0
LINE
  5
3E7
100
AcDbEntity
  8
0
  6
Continuous
 62
   174
100
AcDbLine
 10
188.957677
 20
96.085053
 30
0.0
 11
186.957677
 21
96.085053
 31
0.0
  0
LINE
  5
3E8
100
AcDbEntity
  8
0
  6
HIDDEN
 62
   174
100
AcDbLine
 10
108.957677
 20
89.07934
 30
0.0
 11
108.967675
 21
89.08906
 31
0.0
  0
LINE
  5
3E9
100
AcDbEntity
  8
0
  6
HIDDEN
 62
   174
100
AcDbLine
 10
110.950089
 20
103.071047
 30
0.0
 11
112.965265
 21
103.071047
 31
0.0
  0
LINE
  5
3EA
100
AcDbEntity
  8
0
  6
HIDDEN
 62
   174
100
AcDbLine
 10
110.947678
 20
91.419264
 30
0.0
 11
112.967675
 21
91.419264
 31
0.0
  0
LINE
  5
3EB
100
AcDbEntity
  8
0
  6
HIDDEN
 62
   174
100
AcDbLine
 10
112.967675
 20
99.846611
 30
0.0
 11
112.957677
 21
99.851843
 31
0.0
  0
LINE
  5
3EC
100
AcDbEntity
  8
0
  6
HIDDEN
 62
   174
100
AcDbLine
 10
112.957677
 20
101.55595
 30
0.0
 11
112.967675
 21
101.548341
 31
0.0
  0
LINE
  5
3ED
100
AcDbEntity
  8
0
  6
HIDDEN
 62
   174
100
AcDbLine
 10
192.967675
 20
93.862977
 30
0.0
 11
190.947678
 21
93.862977
 31
0.0
  0
LINE
  5
3EE
100
AcDbEntity
  8
0
  6
Continuous
 62
   174
100
AcDbLine
 10
112.957677
 20
88.902131
 30
0.0
 11
110.957677
 21
88.902131
 31
0.0
  0
LINE
  5
3EF
100
AcDbEntity
  8
0
  6
Continuous
 62
   174
100
AcDbLine
 10
110.947678
 20
98.830171
 30
0.0
 11
112.967675
 21
98.830171
 31
0.0
  0
LINE
  5
3F0
100
AcDbEntity
  8
0
  6
Continuous
 62
   174
100
AcDbLine
 10
190.457677
 20
102.680053
 30
0.0
 11
189.457677
 21
102.680053
 31
0.0
  0
LINE
  5
3F1
100
AcDbEntity
  8
0
  6
HIDDEN
 62
   174
100
AcDbLine
 10
110.957677
 20
95.539335
 30
0.0
 11
110.957677
 21
97.774958
 31
0.0
  0
LINE
  5
3F2
100
AcDbEntity
  8
0
  6
HIDDEN
 62
   174
100
AcDbLine
 10
110.947678
 20
100.740843
 30
0.0
 11
112.967675
 21
100.740843
 31
0.0
  0
LINE
  5
3F3
100
AcDbEntity
  8
0
  6
Continuous
 62
   174
100
AcDbLine
 10
106.957677
 20
98.846672
 30
0.0
 11
106.957677
 21
100.759825
 31
0.0
  0
LINE
  5
3F4
100
AcDbEntity
  8
0
  6
HIDDEN
 62
   174
100
AcDbLine
 10
112.957677
 20
89.07934
 30
0.0
 11
110.957677
 21
89.07934
 31
0.0
  0
LINE
  5
3F5
100
AcDbEntity
  8
0
  6
Continuous
 62
   174
100
AcDbLine
 10
190.957677
 20
101.920336
 30
0.0
 11
190.957677
 21
102.938517
 31
0.0
  0
LINE
  5
3F6
100
AcDbEntity
  8
0
  6
HIDDEN
 62
   174
100
AcDbLine
 10
112.967675
 20
89.955581
 30
0.0
 11
112.957677
 21
89.94706
 31
0.0
  0
LINE
  5
3F7
100
AcDbEntity
  8
0
  6
Continuous
 62
   174
100
AcDbLine
 10
112.957677
 20
96.643464
 30
0.0
 11
110.957677
 21
96.643464
 31
0.0
  0
LINE
  5
3F8
100
AcDbEntity
  8
0
  6
HIDDEN
 62
   174
100
AcDbLine
 10
190.957677
 20
88.89322
 30
0.0
 11
190.957677
 21
89.244156
 31
0.0
  0
LINE
  5
3F9
100
AcDbEntity
  8
0
  6
Continuous
 62
   174
100
AcDbLine
 10
106.957677
 20
98.824747
 30
0.0
 11
106.947678
 21
98.820929
 31
0.0
  0
LINE
  5
3FA
100
AcDbEntity
  8
0
  6
Continuous
 62
   174
100
AcDbLine
 10
110.957677
 20
96.656296
 30
0.0
 11
110.957677
 21
98.837325
 31
0.0
  0
LINE
  5
3FB
100
AcDbEntity
  8
0
  6
Continuous
 62
   174
100
AcDbLine
 10
190.957677
 20
98.322392
 30
0.0
 11
190.957677
 21
100.320518
 31
0.0
  0
LINE
  5
3FC
100
AcDbEntity
  8
0
  6
Continuous
 62
   174
100
AcDbLine
 10
108.957677
 20
92.316786
 30
0.0
 11
106.957677
 21
92.316786
 31
0.0
  0
LINE
  5
3FD
100
AcDbEntity
  8
0
  6
Continuous
 62
   174
100
AcDbLine
 10
108.957677
 20
103.080767
 30
0.0
 11
108.967675
 21
103.071047
 31
0.0
  0
LINE
  5
3FE
100
AcDbEntity
  8
0
  6
HIDDEN
 62
   174
100
AcDbLine
 10
188.967675
 20
91.857923
 30
0.0
 11
186.947678
 21
91.857923
 31
0.0
  0
LINE
  5
3FF
100
AcDbEntity
  8
0
  6
HIDDEN
 62
   174
100
AcDbLine
 10
106.957677
 20
102.736378
 30
0.0
 11
108.957677
 21
102.736378
 31
0.0
  0
LINE
  5
400
100
AcDbEntity
  8
0
  6
Continuous
 62
   174
100
AcDbLine
 10
106.957677
 20
88.880053
 30
0.0
 11
108.957677
 21
88.880053
 31
0.0
  0
LINE
  5
401
100
AcDbEntity
  8
0
  6
Continuous
 62
   174
100
AcDbLine
 10
186.957677
 20
101.902035
 30
0.0
 11
188.957677
 21
101.902035
 31
0.0
  0
LINE
  5
402
100
AcDbEntity
  8
0
  6
Continuous
 62
   174
100
AcDbLine
 10
186.957677
 20
102.926114
 30
0.0
 11
186.947678
 21
102.916605
 31
0.0
  0
LINE
  5
403
100
AcDbEntity
  8
0
  6
Continuous
 62
   174
100
AcDbLine
 10
106.957677
 20
102.213046
 30
0.0
 11
108.957677
 21
102.213046
 31
0.0
  0
LINE
  5
404
100
AcDbEntity
  8
0
  6
Continuous
 62
   174
100
AcDbLine
 10
108.957677
 20
103.09083
 30
0.0
 11
108.957677
 21
102.230697
 31
0.0
  0
LINE
  5
405
100
AcDbEntity
  8
0
  6
HIDDEN
 62
   174
100
AcDbLine
 10
188.957677
 20
89.244156
 30
0.0
 11
188.957677
 21
88.89322
 31
0.0
  0
LINE
  5
406
100
AcDbEntity
  8
0
  6
Continuous
 62
   174
100
AcDbLine
 10
110.957677
 20
89.440654
 30
0.0
 11
110.957677
 21
90.610724
 31
0.0
  0
LINE
  5
407
100
AcDbEntity
  8
0
  6
Continuous
 62
   174
100
AcDbLine
 10
106.947678
 20
90.611766
 30
0.0
 11
106.957677
 21
90.604157
 31
0.0
  0
LINE
  5
408
100
AcDbEntity
  8
0
  6
Continuous
 62
   174
100
AcDbLine
 10
106.957677
 20
88.915313
 30
0.0
 11
106.957677
 21
89.436831
 31
0.0
  0
LINE
  5
409
100
AcDbEntity
  8
0
  6
Continuous
 62
   174
100
AcDbLine
 10
108.967675
 20
90.605278
 30
0.0
 11
108.957677
 21
90.597669
 31
0.0
  0
LINE
  5
40A
100
AcDbEntity
  8
0
  6
Continuous
 62
   174
100
AcDbLine
 10
192.967675
 20
98.306641
 30
0.0
 11
190.947678
 21
98.306641
 31
0.0
  0
LINE
  5
40B
100
AcDbEntity
  8
0
  6
HIDDEN
 62
   174
100
AcDbLine
 10
108.957677
 20
89.941828
 30
0.0
 11
108.967675
 21
89.950348
 31
0.0
  0
LINE
  5
40C
100
AcDbEntity
  8
0
  6
Continuous
 62
   174
100
AcDbLine
 10
110.457677
 20
102.680053
 30
0.0
 11
109.457677
 21
102.680053
 31
0.0
  0
LINE
  5
40D
100
AcDbEntity
  8
0
  6
Continuous
 62
   174
100
AcDbLine
 10
190.957677
 20
98.30022
 30
0.0
 11
192.957677
 21
98.30022
 31
0.0
  0
LINE
  5
40E
100
AcDbEntity
  8
0
  6
Continuous
 62
   174
100
AcDbLine
 10
115.957677
 20
89.493125
 30
0.0
 11
115.957677
 21
102.692522
 31
0.0
  0
LINE
  5
40F
100
AcDbEntity
  8
0
  6
Continuous
 62
   174
100
AcDbLine
 10
190.957677
 20
89.24713
 30
0.0
 11
190.957677
 21
90.265311
 31
0.0
  0
LINE
  5
410
100
AcDbEntity
  8
0
  6
HIDDEN
 62
   174
100
AcDbLine
 10
192.957677
 20
91.857056
 30
0.0
 11
192.957677
 21
90.271259
 31
0.0
  0
LINE
  5
411
100
AcDbEntity
  8
0
  6
HIDDEN
 62
   174
100
AcDbLine
 10
110.957677
 20
103.258751
 30
0.0
 11
112.957677
 21
103.258751
 31
0.0
  0
LINE
  5
412
100
AcDbEntity
  8
0
  6
HIDDEN
 62
   174
100
AcDbLine
 10
186.957677
 20
101.920336
 30
0.0
 11
186.957677
 21
102.938517
 31
0.0
  0
LINE
  5
413
100
AcDbEntity
  8
0
  6
Continuous
 62
   174
100
AcDbLine
 10
190.957677
 20
102.926114
 30
0.0
 11
190.947678
 21
102.916605
 31
0.0
  0
LINE
  5
414
100
AcDbEntity
  8
0
  6
Continuous
 62
   174
100
AcDbLine
 10
183.957677
 20
102.680053
 30
0.0
 11
181.957677
 21
101.525353
 31
0.0
  0
LINE
  5
415
100
AcDbEntity
  8
0
  6
Continuous
 62
   174
100
AcDbLine
 10
112.957677
 20
98.833989
 30
0.0
 11
110.957677
 21
98.833989
 31
0.0
  0
LINE
  5
416
100
AcDbEntity
  8
0
  6
HIDDEN
 62
   174
100
AcDbLine
 10
192.957677
 20
102.938517
 30
0.0
 11
192.957677
 21
101.920336
 31
0.0
  0
LINE
  5
417
100
AcDbEntity
  8
0
  6
HIDDEN
 62
   174
100
AcDbLine
 10
190.957677
 20
89.24713
 30
0.0
 11
190.957677
 21
90.265311
 31
0.0
  0
LINE
  5
418
100
AcDbEntity
  8
0
  6
Continuous
 62
   174
100
AcDbLine
 10
188.957677
 20
98.309731
 30
0.0
 11
188.967675
 21
98.306641
 31
0.0
  0
LINE
  5
419
100
AcDbEntity
  8
0
  6
HIDDEN
 62
   174
100
AcDbLine
 10
188.967675
 20
100.302184
 30
0.0
 11
186.947678
 21
100.302184
 31
0.0
  0
LINE
  5
41A
100
AcDbEntity
  8
0
  6
Continuous
 62
   174
100
AcDbLine
 10
106.957677
 20
88.89322
 30
0.0
 11
106.957677
 21
88.914463
 31
0.0
  0
LINE
  5
41B
100
AcDbEntity
  8
0
  6
Continuous
 62
   174
100
AcDbLine
 10
108.957677
 20
100.754939
 30
0.0
 11
106.957677
 21
100.754939
 31
0.0
  0
LINE
  5
41C
100
AcDbEntity
  8
0
  6
HIDDEN
 62
   174
100
AcDbLine
 10
110.957677
 20
99.851843
 30
0.0
 11
112.957677
 21
99.851843
 31
0.0
  0
LINE
  5
41D
100
AcDbEntity
  8
0
  6
Continuous
 62
   174
100
AcDbLine
 10
192.957677
 20
93.863254
 30
0.0
 11
192.957677
 21
91.865129
 31
0.0
  0
LINE
  5
41E
100
AcDbEntity
  8
0
  6
HIDDEN
 62
   174
100
AcDbLine
 10
188.957677
 20
103.292427
 30
0.0
 11
188.957677
 21
102.941491
 31
0.0
  0
LINE
  5
41F
100
AcDbEntity
  8
0
  6
HIDDEN
 62
   174
100
AcDbLine
 10
192.967675
 20
102.916605
 30
0.0
 11
190.947678
 21
102.916605
 31
0.0
  0
LINE
  5
420
100
AcDbEntity
  8
0
  6
Continuous
 62
   174
100
AcDbLine
 10
110.957677
 20
88.901356
 30
0.0
 11
112.957677
 21
88.901356
 31
0.0
  0
LINE
  5
421
100
AcDbEntity
  8
0
  6
HIDDEN
 62
   174
100
AcDbLine
 10
110.95181
 20
89.432969
 30
0.0
 11
112.963543
 21
89.432969
 31
0.0
  0
LINE
  5
422
100
AcDbEntity
  8
0
  6
Continuous
 62
   174
100
AcDbLine
 10
188.957677
 20
93.859887
 30
0.0
 11
188.967675
 21
93.862977
 31
0.0
  0
LINE
  5
423
100
AcDbEntity
  8
0
  6
Continuous
 62
   174
100
AcDbLine
 10
188.957677
 20
100.316151
 30
0.0
 11
188.967675
 21
100.310274
 31
0.0
  0
LINE
  5
424
100
AcDbEntity
  8
0
  6
HIDDEN
 62
   174
100
AcDbLine
 10
110.957677
 20
101.562438
 30
0.0
 11
110.947678
 21
101.554829
 31
0.0
  0
LINE
  5
425
100
AcDbEntity
  8
0
  6
HIDDEN
 62
   174
100
AcDbLine
 10
110.947678
 20
101.548341
 30
0.0
 11
110.957677
 21
101.55595
 31
0.0
  0
LINE
  5
426
100
AcDbEntity
  8
0
  6
Continuous
 62
   174
100
AcDbLine
 10
186.957677
 20
89.230903
 30
0.0
 11
186.947678
 21
89.240412
 31
0.0
  0
LINE
  5
427
100
AcDbEntity
  8
0
  6
HIDDEN
 62
   174
100
AcDbLine
 10
106.947678
 20
93.329936
 30
0.0
 11
108.967675
 21
93.329936
 31
0.0
  0
LINE
  5
428
100
AcDbEntity
  8
0
  6
HIDDEN
 62
   174
100
AcDbLine
 10
110.947678
 20
91.411654
 30
0.0
 11
110.957677
 21
91.405168
 31
0.0
  0
LINE
  5
429
100
AcDbEntity
  8
0
  6
Continuous
 62
   174
100
AcDbLine
 10
110.957677
 20
102.213046
 30
0.0
 11
110.947678
 21
102.204526
 31
0.0
  0
LWPOLYLINE
  5
42A
100
AcDbEntity
  8
0
  6
Continuous
 62
   174
100
AcDbPolyline
 90
        2
 70
   129
 10
110.947678
 20
98.820929
 10
110.947677
 20
98.82555
  0
LINE
  5
42B
100
AcDbEntity
  8
0
  6
HIDDEN
 62
   174
100
AcDbLine
 10
110.947678
 20
102.204526
 30
0.0
 11
112.967675
 21
102.204526
 31
0.0
  0
LINE
  5
42C
100
AcDbEntity
  8
0
  6
Continuous
 62
   174
100
AcDbLine
 10
192.967675
 20
98.29713
 30
0.0
 11
192.957677
 21
98.30022
 31
0.0
  0
LINE
  5
42D
100
AcDbEntity
  8
0
  6
Continuous
 62
   174
100
AcDbLine
 10
188.957677
 20
91.857056
 30
0.0
 11
188.957677
 21
90.271259
 31
0.0
  0
LINE
  5
42E
100
AcDbEntity
  8
0
  6
Continuous
 62
   174
100
AcDbLine
 10
192.967675
 20
93.853466
 30
0.0
 11
192.957677
 21
93.850376
 31
0.0
  0
LINE
  5
42F
100
AcDbEntity
  8
0
  6
Continuous
 62
   174
100
AcDbLine
 10
106.947678
 20
100.748453
 30
0.0
 11
108.967675
 21
100.748453
 31
0.0
  0
LINE
  5
430
100
AcDbEntity
  8
0
  6
HIDDEN
 62
   174
100
AcDbLine
 10
188.958865
 20
103.270053
 30
0.0
 11
186.956488
 21
103.270053
 31
0.0
  0
LINE
  5
431
100
AcDbEntity
  8
0
  6
Continuous
 62
   174
100
AcDbLine
 10
188.967675
 20
89.240412
 30
0.0
 11
188.957677
 21
89.230903
 31
0.0
  0
LINE
  5
432
100
AcDbEntity
  8
0
  6
Continuous
 62
   174
100
AcDbLine
 10
112.957677
 20
98.833989
 30
0.0
 11
112.967675
 21
98.830171
 31
0.0
  0
LINE
  5
433
100
AcDbEntity
  8
0
  6
Continuous
 62
   174
100
AcDbLine
 10
110.957677
 20
88.89322
 30
0.0
 11
110.957677
 21
88.914463
 31
0.0
  0
LINE
  5
434
100
AcDbEntity
  8
0
  6
Continuous
 62
   174
100
AcDbLine
 10
108.967675
 20
89.432969
 30
0.0
 11
108.957677
 21
89.423729
 31
0.0
  0
LINE
  5
435
100
AcDbEntity
  8
0
  6
HIDDEN
 62
   174
100
AcDbLine
 10
110.957677
 20
101.562438
 30
0.0
 11
112.957677
 21
101.562438
 31
0.0
  0
LINE
  5
436
100
AcDbEntity
  8
0
  6
HIDDEN
 62
   174
100
AcDbLine
 10
188.964426
 20
102.919695
 30
0.0
 11
186.950928
 21
102.919695
 31
0.0
  0
LINE
  5
437
100
AcDbEntity
  8
0
  6
Continuous
 62
   174
100
AcDbLine
 10
190.957677
 20
90.271259
 30
0.0
 11
190.957677
 21
91.857056
 31
0.0
  0
LINE
  5
438
100
AcDbEntity
  8
0
  6
Continuous
 62
   174
100
AcDbLine
 10
192.967675
 20
93.853466
 30
0.0
 11
190.947678
 21
93.853466
 31
0.0
  0
LINE
  5
439
100
AcDbEntity
  8
0
  6
Continuous
 62
   174
100
AcDbLine
 10
186.957677
 20
98.30022
 30
0.0
 11
188.957677
 21
98.30022
 31
0.0
  0
LINE
  5
43A
100
AcDbEntity
  8
0
  6
Continuous
 62
   174
100
AcDbLine
 10
109.457677
 20
89.480053
 30
0.0
 11
110.457677
 21
89.480053
 31
0.0
  0
LINE
  5
43B
100
AcDbEntity
  8
0
  6
HIDDEN
 62
   174
100
AcDbLine
 10
140.707677
 20
85.080053
 30
0.0
 11
140.707677
 21
107.080053
 31
0.0
  0
LINE
  5
43C
100
AcDbEntity
  8
0
  6
HIDDEN
 62
   174
100
AcDbLine
 10
112.957677
 20
97.762318
 30
0.0
 11
110.957677
 21
97.762318
 31
0.0
  0
LINE
  5
43D
100
AcDbEntity
  8
0
  6
HIDDEN
 62
   174
100
AcDbLine
 10
188.96041
 20
90.260282
 30
0.0
 11
186.954944
 21
90.260282
 31
0.0
  0
LINE
  5
43E
100
AcDbEntity
  8
0
  6
Continuous
 62
   174
100
AcDbLine
 10
112.957677
 20
88.914463
 30
0.0
 11
112.957677
 21
88.89322
 31
0.0
  0
LINE
  5
43F
100
AcDbEntity
  8
0
  6
Continuous
 62
   174
100
AcDbLine
 10
112.967675
 20
90.605278
 30
0.0
 11
112.957677
 21
90.597669
 31
0.0
  0
LINE
  5
440
100
AcDbEntity
  8
0
  6
Continuous
 62
   174
100
AcDbLine
 10
106.957677
 20
89.423729
 30
0.0
 11
108.957677
 21
89.423729
 31
0.0
  0
LINE
  5
441
100
AcDbEntity
  8
0
  6
Continuous
 62
   174
100
AcDbLine
 10
112.957677
 20
89.427547
 30
0.0
 11
112.967675
 21
89.436788
 31
0.0
  0
LINE
  5
442
100
AcDbEntity
  8
0
  6
Continuous
 62
   174
100
AcDbLine
 10
186.957677
 20
91.843956
 30
0.0
 11
186.947678
 21
91.849832
 31
0.0
  0
LINE
  5
443
100
AcDbEntity
  8
0
  6
HIDDEN
 62
   174
100
AcDbLine
 10
112.957677
 20
99.843321
 30
0.0
 11
112.967675
 21
99.83809
 31
0.0
  0
LINE
  5
444
100
AcDbEntity
  8
0
  6
HIDDEN
 62
   174
100
AcDbLine
 10
110.947678
 20
102.727138
 30
0.0
 11
112.967675
 21
102.727138
 31
0.0
  0
LINE
  5
445
100
AcDbEntity
  8
0
  6
Continuous
 62
   174
100
AcDbLine
 10
106.957677
 20
96.656296
 30
0.0
 11
106.957677
 21
98.837325
 31
0.0
  0
LINE
  5
446
100
AcDbEntity
  8
0
  6
HIDDEN
 62
   174
100
AcDbLine
 10
106.947678
 20
91.411654
 30
0.0
 11
106.957677
 21
91.405168
 31
0.0
  0
LINE
  5
447
100
AcDbEntity
  8
0
  6
Continuous
 62
   174
100
AcDbLine
 10
181.957677
 20
90.634754
 30
0.0
 11
183.957677
 21
89.480053
 31
0.0
  0
LINE
  5
448
100
AcDbEntity
  8
0
  6
Continuous
 62
   174
100
AcDbLine
 10
115.957677
 20
102.680053
 30
0.0
 11
113.457677
 21
102.680053
 31
0.0
  0
LINE
  5
449
100
AcDbEntity
  8
0
  6
Continuous
 62
   174
100
AcDbLine
 10
181.957677
 20
107.080053
 30
0.0
 11
181.957677
 21
85.080053
 31
0.0
  0
LINE
  5
44A
100
AcDbEntity
  8
0
  6
HIDDEN
 62
   174
100
AcDbLine
 10
186.957677
 20
89.24713
 30
0.0
 11
186.957677
 21
90.265311
 31
0.0
  0
LINE
  5
44B
100
AcDbEntity
  8
0
  6
Continuous
 62
   174
100
AcDbLine
 10
186.957677
 20
91.865129
 30
0.0
 11
186.957677
 21
93.863254
 31
0.0
  0
LINE
  5
44C
100
AcDbEntity
  8
0
  6
HIDDEN
 62
   174
100
AcDbLine
 10
106.957677
 20
89.96026
 30
0.0
 11
106.957677
 21
91.418174
 31
0.0
  0
LINE
  5
44D
100
AcDbEntity
  8
0
  6
Continuous
 62
   174
100
AcDbLine
 10
110.957677
 20
103.078424
 30
0.0
 11
112.957677
 21
103.078424
 31
0.0
  0
LINE
  5
44E
100
AcDbEntity
  8
0
  6
HIDDEN
 62
   174
100
AcDbLine
 10
192.967675
 20
98.29713
 30
0.0
 11
190.947678
 21
98.29713
 31
0.0
  0
LINE
  5
44F
100
AcDbEntity
  8
0
  6
Continuous
 62
   174
100
AcDbLine
 10
192.957677
 20
88.880055
 30
0.0
 11
192.967675
 21
88.890053
 31
0.0
  0
LINE
  5
450
100
AcDbEntity
  8
0
  6
Continuous
 62
   174
100
AcDbLine
 10
108.957677
 20
88.902131
 30
0.0
 11
108.967675
 21
88.912099
 31
0.0
  0
LINE
  5
451
100
AcDbEntity
  8
0
  6
Continuous
 62
   174
100
AcDbLine
 10
108.957677
 20
89.427547
 30
0.0
 11
108.967675
 21
89.436788
 31
0.0
  0
LINE
  5
452
100
AcDbEntity
  8
0
  6
Continuous
 62
   174
100
AcDbLine
 10
108.957677
 20
94.397789
 30
0.0
 11
108.967675
 21
94.400132
 31
0.0
  0
LINE
  5
453
100
AcDbEntity
  8
0
  6
Continuous
 62
   174
100
AcDbLine
 10
110.947678
 20
96.642689
 30
0.0
 11
112.967675
 21
96.642689
 31
0.0
  0
LINE
  5
454
100
AcDbEntity
  8
0
  6
Continuous
 62
   174
100
AcDbLine
 10
188.957677
 20
91.852046
 30
0.0
 11
188.967675
 21
91.857923
 31
0.0
  0
LINE
  5
455
100
AcDbEntity
  8
0
  6
Continuous
 62
   174
100
AcDbLine
 10
192.957677
 20
98.309731
 30
0.0
 11
190.957677
 21
98.309731
 31
0.0
  0
LINE
  5
456
100
AcDbEntity
  8
0
  6
HIDDEN
 62
   174
100
AcDbLine
 10
110.947678
 20
95.517418
 30
0.0
 11
110.957677
 21
95.516643
 31
0.0
  0
LINE
  5
457
100
AcDbEntity
  8
0
  6
HIDDEN
 62
   174
100
AcDbLine
 10
108.967675
 20
101.554829
 30
0.0
 11
108.957677
 21
101.562438
 31
0.0
  0
LINE
  5
458
100
AcDbEntity
  8
0
  6
HIDDEN
 62
   174
100
AcDbLine
 10
106.957677
 20
91.425822
 30
0.0
 11
106.957677
 21
93.338975
 31
0.0
  0
LINE
  5
459
100
AcDbEntity
  8
0
  6
HIDDEN
 62
   174
100
AcDbLine
 10
110.947678
 20
99.83809
 30
0.0
 11
110.957677
 21
99.843321
 31
0.0
  0
LINE
  5
45A
100
AcDbEntity
  8
0
  6
Continuous
 62
   174
100
AcDbLine
 10
192.957677
 20
101.907913
 30
0.0
 11
190.957677
 21
101.907913
 31
0.0
  0
LINE
  5
45B
100
AcDbEntity
  8
0
  6
HIDDEN
 62
   174
100
AcDbLine
 10
106.947678
 20
89.950348
 30
0.0
 11
108.967675
 21
89.950348
 31
0.0
  0
LINE
  5
45C
100
AcDbEntity
  8
0
  6
Continuous
 62
   174
100
AcDbLine
 10
192.957677
 20
89.244156
 30
0.0
 11
192.957677
 21
88.89322
 31
0.0
  0
LINE
  5
45D
100
AcDbEntity
  8
0
  6
Continuous
 62
   174
100
AcDbLine
 10
112.967675
 20
102.204526
 30
0.0
 11
112.957677
 21
102.213046
 31
0.0
  0
LINE
  5
45E
100
AcDbEntity
  8
0
  6
Continuous
 62
   174
100
AcDbLine
 10
108.957677
 20
102.218279
 30
0.0
 11
108.967675
 21
102.209759
 31
0.0
  0
LINE
  5
45F
100
AcDbEntity
  8
0
  6
Continuous
 62
   174
100
AcDbLine
 10
115.957677
 20
89.480053
 30
0.0
 11
117.957677
 21
90.634754
 31
0.0
  0
LINE
  5
460
100
AcDbEntity
  8
0
  6
Continuous
 62
   174
100
AcDbLine
 10
106.957677
 20
102.213046
 30
0.0
 11
106.947678
 21
102.204526
 31
0.0
  0
LINE
  5
461
100
AcDbEntity
  8
0
  6
Continuous
 62
   174
100
AcDbLine
 10
112.967675
 20
94.39041
 30
0.0
 11
112.957677
 21
94.388067
 31
0.0
  0
LINE
  5
462
100
AcDbEntity
  8
0
  6
HIDDEN
 62
   174
100
AcDbLine
 10
106.957677
 20
97.772039
 30
0.0
 11
106.947678
 21
97.769697
 31
0.0
  0
LINE
  5
463
100
AcDbEntity
  8
0
  6
Continuous
 62
   174
100
AcDbLine
 10
186.957677
 20
88.89322
 30
0.0
 11
186.957677
 21
89.244156
 31
0.0
  0
LINE
  5
464
100
AcDbEntity
  8
0
  6
HIDDEN
 62
   174
100
AcDbLine
 10
110.957677
 20
95.526612
 30
0.0
 11
112.957677
 21
95.526612
 31
0.0
  0
LINE
  5
465
100
AcDbEntity
  8
0
  6
HIDDEN
 62
   174
100
AcDbLine
 10
106.947678
 20
95.517418
 30
0.0
 11
106.957677
 21
95.516643
 31
0.0
  0
LINE
  5
466
100
AcDbEntity
  8
0
  6
HIDDEN
 62
   174
100
AcDbLine
 10
106.957677
 20
97.78473
 30
0.0
 11
106.957677
 21
99.855932
 31
0.0
  0
LINE
  5
467
100
AcDbEntity
  8
0
  6
Continuous
 62
   174
100
AcDbLine
 10
108.957677
 20
100.759825
 30
0.0
 11
108.957677
 21
98.846672
 31
0.0
  0
LINE
  5
468
100
AcDbEntity
  8
0
  6
HIDDEN
 62
   174
100
AcDbLine
 10
135.207677
 20
107.080053
 30
0.0
 11
135.207677
 21
85.080053
 31
0.0
  0
LINE
  5
469
100
AcDbEntity
  8
0
  6
Continuous
 62
   174
100
AcDbLine
 10
188.967675
 20
93.853466
 30
0.0
 11
188.957677
 21
93.850376
 31
0.0
  0
LINE
  5
46A
100
AcDbEntity
  8
0
  6
Continuous
 62
   174
100
AcDbLine
 10
112.967675
 20
100.740843
 30
0.0
 11
112.957677
 21
100.747329
 31
0.0
  0
LWPOLYLINE
  5
46B
100
AcDbEntity
  8
0
  6
HIDDEN
 62
   174
100
AcDbPolyline
 90
        2
 70
   129
 10
106.947678
 20
93.339178
 10
106.947677
 20
93.334557
  0
LINE
  5
46C
100
AcDbEntity
  8
0
  6
HIDDEN
 62
   174
100
AcDbLine
 10
108.967675
 20
89.091403
 30
0.0
 11
108.957677
 21
89.081683
 31
0.0
  0
LINE
  5
46D
100
AcDbEntity
  8
0
  6
Continuous
 62
   174
100
AcDbLine
 10
188.967675
 20
100.302184
 30
0.0
 11
188.957677
 21
100.308061
 31
0.0
  0
LINE
  5
46E
100
AcDbEntity
  8
0
  6
Continuous
 62
   174
100
AcDbLine
 10
108.957677
 20
103.292427
 30
0.0
 11
108.957677
 21
103.093167
 31
0.0
  0
LINE
  5
46F
100
AcDbEntity
  8
0
  6
HIDDEN
 62
   174
100
AcDbLine
 10
106.953819
 20
102.209759
 30
0.0
 11
108.961535
 21
102.209759
 31
0.0
  0
LINE
  5
470
100
AcDbEntity
  8
0
  6
Continuous
 62
   174
100
AcDbLine
 10
188.957677
 20
102.929204
 30
0.0
 11
186.957677
 21
102.929204
 31
0.0
  0
LINE
  5
471
100
AcDbEntity
  8
0
  6
Continuous
 62
   174
100
AcDbLine
 10
192.967675
 20
102.916605
 30
0.0
 11
192.957677
 21
102.926114
 31
0.0
  0
LINE
  5
472
100
AcDbEntity
  8
0
  6
Continuous
 62
   174
100
AcDbLine
 10
113.457677
 20
89.480053
 30
0.0
 11
115.957677
 21
89.480053
 31
0.0
  0
LINE
  5
473
100
AcDbEntity
  8
0
  6
Continuous
 62
   174
100
AcDbLine
 10
108.967675
 20
102.204526
 30
0.0
 11
108.957677
 21
102.213046
 31
0.0
  0
LINE
  5
474
100
AcDbEntity
  8
0
  6
HIDDEN
 62
   174
100
AcDbLine
 10
188.957677
 20
90.265311
 30
0.0
 11
188.957677
 21
89.24713
 31
0.0
  0
LINE
  5
475
100
AcDbEntity
  8
0
  6
HIDDEN
 62
   174
100
AcDbLine
 10
112.957677
 20
95.516643
 30
0.0
 11
112.967675
 21
95.517418
 31
0.0
  0
LINE
  5
476
100
AcDbEntity
  8
0
  6
HIDDEN
 62
   174
100
AcDbLine
 10
106.957677
 20
99.851843
 30
0.0
 11
108.957677
 21
99.851843
 31
0.0
  0
LINE
  5
477
100
AcDbEntity
  8
0
  6
Continuous
 62
   174
100
AcDbLine
 10
190.957677
 20
91.843956
 30
0.0
 11
190.947678
 21
91.849832
 31
0.0
  0
LINE
  5
478
100
AcDbEntity
  8
0
  6
HIDDEN
 62
   174
100
AcDbLine
 10
108.957677
 20
102.744992
 30
0.0
 11
108.957677
 21
101.574923
 31
0.0
  0
LINE
  5
479
100
AcDbEntity
  8
0
  6
Continuous
 62
   174
100
AcDbLine
 10
186.947678
 20
88.890053
 30
0.0
 11
186.957677
 21
88.880055
 31
0.0
  0
LINE
  5
47A
100
AcDbEntity
  8
0
  6
Continuous
 62
   174
100
AcDbLine
 10
106.957677
 20
94.388067
 30
0.0
 11
106.947678
 21
94.39041
 31
0.0
  0
LINE
  5
47B
100
AcDbEntity
  8
0
  6
Continuous
 62
   174
100
AcDbLine
 10
190.957677
 20
90.252194
 30
0.0
 11
190.947678
 21
90.260282
 31
0.0
  0
LINE
  5
47C
100
AcDbEntity
  8
0
  6
Continuous
 62
   174
100
AcDbLine
 10
194.957677
 20
89.993187
 30
0.0
 11
194.957677
 21
102.19246
 31
0.0
  0
LINE
  5
47D
100
AcDbEntity
  8
0
  6
Continuous
 62
   174
100
AcDbLine
 10
190.957677
 20
93.850376
 30
0.0
 11
192.957677
 21
93.850376
 31
0.0
  0
LINE
  5
47E
100
AcDbEntity
  8
0
  6
Continuous
 62
   174
100
AcDbLine
 10
192.957677
 20
100.316151
 30
0.0
 11
190.957677
 21
100.316151
 31
0.0
  0
LINE
  5
47F
100
AcDbEntity
  8
0
  6
HIDDEN
 62
   174
100
AcDbLine
 10
106.957677
 20
89.081683
 30
0.0
 11
106.947678
 21
89.091403
 31
0.0
  0
LINE
  5
480
100
AcDbEntity
  8
0
  6
HIDDEN
 62
   174
100
AcDbLine
 10
110.957677
 20
89.094817
 30
0.0
 11
110.957677
 21
89.95495
 31
0.0
  0
LINE
  5
481
100
AcDbEntity
  8
0
  6
Continuous
 62
   174
100
AcDbLine
 10
188.967675
 20
102.916605
 30
0.0
 11
188.957677
 21
102.926114
 31
0.0
  0
LINE
  5
482
100
AcDbEntity
  8
0
  6
Continuous
 62
   174
100
AcDbLine
 10
117.957677
 20
101.525353
 30
0.0
 11
115.957677
 21
102.680053
 31
0.0
  0
LINE
  5
483
100
AcDbEntity
  8
0
  6
HIDDEN
 62
   174
100
AcDbLine
 10
108.957677
 20
103.270334
 30
0.0
 11
108.957677
 21
102.748816
 31
0.0
  0
LINE
  5
484
100
AcDbEntity
  8
0
  6
Continuous
 62
   174
100
AcDbLine
 10
110.947678
 20
94.400132
 30
0.0
 11
110.957677
 21
94.397789
 31
0.0
  0
LINE
  5
485
100
AcDbEntity
  8
0
  6
HIDDEN
 62
   174
100
AcDbLine
 10
110.956204
 20
90.605278
 30
0.0
 11
112.95915
 21
90.605278
 31
0.0
  0
LINE
  5
486
100
AcDbEntity
  8
0
  6
Continuous
 62
   174
100
AcDbLine
 10
188.957677
 20
96.087831
 30
0.0
 11
188.957677
 21
93.872814
 31
0.0
  0
LINE
  5
487
100
AcDbEntity
  8
0
  6
Continuous
 62
   174
100
AcDbLine
 10
113.457677
 20
98.651023
 30
0.0
 11
113.457677
 21
102.792365
 31
0.0
  0
LINE
  5
488
100
AcDbEntity
  8
0
  6
Continuous
 62
   174
100
AcDbLine
 10
108.967675
 20
88.911324
 30
0.0
 11
108.957677
 21
88.901356
 31
0.0
  0
LWPOLYLINE
  5
489
100
AcDbEntity
  8
0
  6
Continuous
 62
   174
100
AcDbPolyline
 90
        3
 70
   128
 10
186.947678
 20
96.075053
 10
186.947677
 20
96.080053
 10
186.947678
 20
96.085053
  0
LINE
  5
48A
100
AcDbEntity
  8
0
  6
Continuous
 62
   174
100
AcDbLine
 10
186.957677
 20
91.843956
 30
0.0
 11
188.957677
 21
91.843956
 31
0.0
  0
LINE
  5
48B
100
AcDbEntity
  8
0
  6
Continuous
 62
   174
100
AcDbLine
 10
192.967675
 20
103.270053
 30
0.0
 11
192.957677
 21
103.280052
 31
0.0
  0
LINE
  5
48C
100
AcDbEntity
  8
0
  6
Continuous
 62
   174
100
AcDbLine
 10
108.957677
 20
98.833989
 30
0.0
 11
106.957677
 21
98.833989
 31
0.0
  0
LINE
  5
48D
100
AcDbEntity
  8
0
  6
Continuous
 62
   174
100
AcDbLine
 10
110.947678
 20
98.830171
 30
0.0
 11
110.957677
 21
98.833989
 31
0.0
  0
LINE
  5
48E
100
AcDbEntity
  8
0
  6
HIDDEN
 62
   174
100
AcDbLine
 10
108.957677
 20
95.52935
 30
0.0
 11
108.957677
 21
93.348322
 31
0.0
  0
LINE
  5
48F
100
AcDbEntity
  8
0
  6
Continuous
 62
   174
100
AcDbLine
 10
186.947678
 20
90.26616
 30
0.0
 11
186.957677
 21
90.258071
 31
0.0
  0
LINE
  5
490
100
AcDbEntity
  8
0
  6
Continuous
 62
   174
100
AcDbLine
 10
192.957677
 20
91.852046
 30
0.0
 11
192.967675
 21
91.857923
 31
0.0
  0
LINE
  5
491
100
AcDbEntity
  8
0
  6
Continuous
 62
   174
100
AcDbLine
 10
108.957677
 20
92.321218
 30
0.0
 11
108.957677
 21
90.617309
 31
0.0
  0
LINE
  5
492
100
AcDbEntity
  8
0
  6
HIDDEN
 62
   174
100
AcDbLine
 10
110.957677
 20
95.526612
 30
0.0
 11
110.947678
 21
95.527388
 31
0.0
  0
LINE
  5
493
100
AcDbEntity
  8
0
  6
HIDDEN
 62
   174
100
AcDbLine
 10
110.948456
 20
88.911324
 30
0.0
 11
112.966897
 21
88.911324
 31
0.0
  0
LINE
  5
494
100
AcDbEntity
  8
0
  6
Continuous
 62
   174
100
AcDbLine
 10
190.957677
 20
96.097816
 30
0.0
 11
190.957677
 21
98.312833
 31
0.0
  0
LINE
  5
495
100
AcDbEntity
  8
0
  6
Continuous
 62
   174
100
AcDbLine
 10
106.957677
 20
90.597669
 30
0.0
 11
108.957677
 21
90.597669
 31
0.0
  0
LINE
  5
496
100
AcDbEntity
  8
0
  6
Continuous
 62
   174
100
AcDbLine
 10
106.947678
 20
103.071047
 30
0.0
 11
106.957677
 21
103.080767
 31
0.0
  0
LINE
  5
497
100
AcDbEntity
  8
0
  6
HIDDEN
 62
   174
100
AcDbLine
 10
106.947678
 20
101.548341
 30
0.0
 11
106.957677
 21
101.55595
 31
0.0
  0
LINE
  5
498
100
AcDbEntity
  8
0
  6
Continuous
 62
   174
100
AcDbLine
 10
188.957677
 20
103.292427
 30
0.0
 11
188.957677
 21
102.941491
 31
0.0
  0
LWPOLYLINE
  5
499
100
AcDbEntity
  8
0
  6
Continuous
 62
   174
100
AcDbPolyline
 90
        3
 70
   128
 10
190.947678
 20
96.075053
 10
190.947677
 20
96.080053
 10
190.947678
 20
96.085053
  0
LINE
  5
49A
100
AcDbEntity
  8
0
  6
HIDDEN
 62
   174
100
AcDbLine
 10
106.947678
 20
89.436788
 30
0.0
 11
108.967675
 21
89.436788
 31
0.0
  0
LINE
  5
49B
100
AcDbEntity
  8
0
  6
Continuous
 62
   174
100
AcDbLine
 10
192.967675
 20
101.893947
 30
0.0
 11
192.957677
 21
101.902035
 31
0.0
  0
LINE
  5
49C
100
AcDbEntity
  8
0
  6
Continuous
 62
   174
100
AcDbLine
 10
108.967675
 20
103.068704
 30
0.0
 11
108.957677
 21
103.078424
 31
0.0
  0
LINE
  5
49D
100
AcDbEntity
  8
0
  6
HIDDEN
 62
   174
100
AcDbLine
 10
112.967675
 20
97.769697
 30
0.0
 11
112.957677
 21
97.772039
 31
0.0
  0
LINE
  5
49E
100
AcDbEntity
  8
0
  6
HIDDEN
 62
   174
100
AcDbLine
 10
112.957677
 20
89.09248
 30
0.0
 11
112.957677
 21
88.914463
 31
0.0
  0
LINE
  5
49F
100
AcDbEntity
  8
0
  6
HIDDEN
 62
   174
100
AcDbLine
 10
186.957677
 20
91.865129
 30
0.0
 11
186.957677
 21
93.863254
 31
0.0
  0
LINE
  5
4A0
100
AcDbEntity
  8
0
  6
Continuous
 62
   174
100
AcDbLine
 10
186.947678
 20
98.306641
 30
0.0
 11
186.957677
 21
98.309731
 31
0.0
  0
LINE
  5
4A1
100
AcDbEntity
  8
0
  6
HIDDEN
 62
   174
100
AcDbLine
 10
106.947678
 20
99.83809
 30
0.0
 11
106.957677
 21
99.843321
 31
0.0
  0
LINE
  5
4A2
100
AcDbEntity
  8
0
  6
HIDDEN
 62
   174
100
AcDbLine
 10
190.957677
 20
101.920336
 30
0.0
 11
190.957677
 21
102.938517
 31
0.0
  0
LINE
  5
4A3
100
AcDbEntity
  8
0
  6
Continuous
 62
   174
100
AcDbLine
 10
183.957677
 20
89.480053
 30
0.0
 11
186.457677
 21
89.480053
 31
0.0
  0
LINE
  5
4A4
100
AcDbEntity
  8
0
  6
HIDDEN
 62
   174
100
AcDbLine
 10
106.947678
 20
99.83809
 30
0.0
 11
108.967675
 21
99.83809
 31
0.0
  0
LINE
  5
4A5
100
AcDbEntity
  8
0
  6
HIDDEN
 62
   174
100
AcDbLine
 10
106.957677
 20
89.094817
 30
0.0
 11
106.957677
 21
89.95495
 31
0.0
  0
LINE
  5
4A6
100
AcDbEntity
  8
0
  6
HIDDEN
 62
   174
100
AcDbLine
 10
108.957677
 20
89.07934
 30
0.0
 11
106.957677
 21
89.07934
 31
0.0
  0
LINE
  5
4A7
100
AcDbEntity
  8
0
  6
Continuous
 62
   174
100
AcDbLine
 10
186.957677
 20
100.308061
 30
0.0
 11
186.947678
 21
100.302184
 31
0.0
  0
LWPOLYLINE
  5
4A8
100
AcDbEntity
  8
0
  6
Continuous
 62
   174
100
AcDbPolyline
 90
        3
 70
   128
 10
192.967675
 20
96.085053
 10
192.967677
 20
96.080053
 10
192.967675
 20
96.075053
  0
LINE
  5
4A9
100
AcDbEntity
  8
0
  6
Continuous
 62
   174
100
AcDbLine
 10
188.957677
 20
101.907913
 30
0.0
 11
188.967675
 21
101.899825
 31
0.0
  0
LINE
  5
4AA
100
AcDbEntity
  8
0
  6
HIDDEN
 62
   174
100
AcDbLine
 10
112.957677
 20
97.774958
 30
0.0
 11
112.957677
 21
95.539335
 31
0.0
  0
LINE
  5
4AB
100
AcDbEntity
  8
0
  6
HIDDEN
 62
   174
100
AcDbLine
 10
108.967675
 20
93.339178
 30
0.0
 11
108.957677
 21
93.33536
 31
0.0
  0
LINE
  5
4AC
100
AcDbEntity
  8
0
  6
HIDDEN
 62
   174
100
AcDbLine
 10
190.957677
 20
90.271259
 30
0.0
 11
190.957677
 21
91.857056
 31
0.0
  0
LINE
  5
4AD
100
AcDbEntity
  8
0
  6
HIDDEN
 62
   174
100
AcDbLine
 10
147.22591
 20
85.090053
 30
0.0
 11
152.725747
 21
85.090053
 31
0.0
  0
LINE
  5
4AE
100
AcDbEntity
  8
0
  6
Continuous
 62
   174
100
AcDbLine
 10
193.457677
 20
89.393282
 30
0.0
 11
193.457677
 21
102.792365
 31
0.0
  0
LINE
  5
4AF
100
AcDbEntity
  8
0
  6
Continuous
 62
   174
100
AcDbLine
 10
112.967675
 20
92.313496
 30
0.0
 11
112.957677
 21
92.308264
 31
0.0
  0
LINE
  5
4B0
100
AcDbEntity
  8
0
  6
Continuous
 62
   174
100
AcDbLine
 10
188.957677
 20
100.320518
 30
0.0
 11
188.957677
 21
98.322392
 31
0.0
  0
LINE
  5
4B1
100
AcDbEntity
  8
0
  6
Continuous
 62
   174
100
AcDbLine
 10
190.957677
 20
102.941491
 30
0.0
 11
190.957677
 21
103.292427
 31
0.0
  0
LINE
  5
4B2
100
AcDbEntity
  8
0
  6
Continuous
 62
   174
100
AcDbLine
 10
186.957677
 20
102.941491
 30
0.0
 11
186.957677
 21
103.292427
 31
0.0
  0
LINE
  5
4B3
100
AcDbEntity
  8
0
  6
HIDDEN
 62
   174
100
AcDbLine
 10
106.957677
 20
91.412778
 30
0.0
 11
108.957677
 21
91.412778
 31
0.0
  0
LINE
  5
4B4
100
AcDbEntity
  8
0
  6
Continuous
 62
   174
100
AcDbLine
 10
112.957677
 20
102.218279
 30
0.0
 11
110.957677
 21
102.218279
 31
0.0
  0
LINE
  5
4B5
100
AcDbEntity
  8
0
  6
Continuous
 62
   174
100
AcDbLine
 10
108.957677
 20
102.218279
 30
0.0
 11
106.957677
 21
102.218279
 31
0.0
  0
LINE
  5
4B6
100
AcDbEntity
  8
0
  6
Continuous
 62
   174
100
AcDbLine
 10
186.957677
 20
96.075053
 30
0.0
 11
188.957677
 21
96.075053
 31
0.0
  0
LINE
  5
4B7
100
AcDbEntity
  8
0
  6
Continuous
 62
   174
100
AcDbLine
 10
193.457677
 20
89.480053
 30
0.0
 11
194.457677
 21
89.480053
 31
0.0
  0
LINE
  5
4B8
100
AcDbEntity
  8
0
  6
Continuous
 62
   174
100
AcDbLine
 10
188.967675
 20
90.260282
 30
0.0
 11
188.957677
 21
90.252194
 31
0.0
  0
LINE
  5
4B9
100
AcDbEntity
  8
0
  6
Continuous
 62
   174
100
AcDbLine
 10
112.957677
 20
96.646312
 30
0.0
 11
112.957677
 21
94.410689
 31
0.0
  0
LINE
  5
4BA
100
AcDbEntity
  8
0
  6
HIDDEN
 62
   174
100
AcDbLine
 10
112.957677
 20
95.516643
 30
0.0
 11
110.957677
 21
95.516643
 31
0.0
  0
LINE
  5
4BB
100
AcDbEntity
  8
0
  6
Continuous
 62
   174
100
AcDbLine
 10
190.957677
 20
103.280052
 30
0.0
 11
190.947678
 21
103.270053
 31
0.0
  0
LINE
  5
4BC
100
AcDbEntity
  8
0
  6
HIDDEN
 62
   174
100
AcDbLine
 10
106.947678
 20
97.759975
 30
0.0
 11
108.967675
 21
97.759975
 31
0.0
  0
LINE
  5
4BD
100
AcDbEntity
  8
0
  6
HIDDEN
 62
   174
100
AcDbLine
 10
112.957677
 20
93.326118
 30
0.0
 11
110.957677
 21
93.326118
 31
0.0
  0
LINE
  5
4BE
100
AcDbEntity
  8
0
  6
HIDDEN
 62
   174
100
AcDbLine
 10
110.957677
 20
102.736378
 30
0.0
 11
112.957677
 21
102.736378
 31
0.0
  0
LINE
  5
4BF
100
AcDbEntity
  8
0
  6
Continuous
 62
   174
100
AcDbLine
 10
186.957677
 20
103.280052
 30
0.0
 11
188.957677
 21
103.280052
 31
0.0
  0
LINE
  5
4C0
100
AcDbEntity
  8
0
  6
HIDDEN
 62
   174
100
AcDbLine
 10
110.957677
 20
97.78473
 30
0.0
 11
110.957677
 21
99.855932
 31
0.0
  0
LINE
  5
4C1
100
AcDbEntity
  8
0
  6
HIDDEN
 62
   174
100
AcDbLine
 10
112.967675
 20
103.248783
 30
0.0
 11
112.957677
 21
103.258751
 31
0.0
  0
LINE
  5
4C2
100
AcDbEntity
  8
0
  6
HIDDEN
 62
   174
100
AcDbLine
 10
112.967675
 20
102.727138
 30
0.0
 11
112.957677
 21
102.736378
 31
0.0
  0
LINE
  5
4C3
100
AcDbEntity
  8
0
  6
HIDDEN
 62
   174
100
AcDbLine
 10
188.957677
 20
101.914387
 30
0.0
 11
188.957677
 21
100.32859
 31
0.0
  0
ENDBLK
  5
4C4
100
AcDbEntity
  8
0
100
AcDbBlockEnd
  0
BLOCK
  5
4C7
100
AcDbEntity
  8
0
100
AcDbBlockBegin
  2
*B4
 70
     0
 10
0.0
 20
0.0
 30
0.0
  3
*B4
  1

  0
LINE
  5
4C8
100
AcDbEntity
  8
0
  6
Continuous
 62
   174
100
AcDbLine
 10
188.957677
 20
138.187565
 30
0.0
 11
188.967675
 21
138.197563
 31
0.0
  0
LINE
  5
4C9
100
AcDbEntity
  8
0
  6
Continuous
 62
   174
100
AcDbLine
 10
188.957677
 20
138.541503
 30
0.0
 11
188.967675
 21
138.551012
 31
0.0
  0
LINE
  5
4CA
100
AcDbEntity
  8
0
  6
Continuous
 62
   174
100
AcDbLine
 10
110.947678
 20
141.629527
 30
0.0
 11
110.957677
 21
141.624296
 31
0.0
  0
LINE
  5
4CB
100
AcDbEntity
  8
0
  6
Continuous
 62
   174
100
AcDbLine
 10
108.967675
 20
141.621006
 30
0.0
 11
108.957677
 21
141.615774
 31
0.0
  0
LINE
  5
4CC
100
AcDbEntity
  8
0
  6
Continuous
 62
   174
100
AcDbLine
 10
106.957677
 20
141.615774
 30
0.0
 11
106.947678
 21
141.621006
 31
0.0
  0
LINE
  5
4CD
100
AcDbEntity
  8
0
  6
Continuous
 62
   174
100
AcDbLine
 10
192.957677
 20
147.617241
 30
0.0
 11
190.957677
 21
147.617241
 31
0.0
  0
LINE
  5
4CE
100
AcDbEntity
  8
0
  6
Continuous
 62
   174
100
AcDbLine
 10
110.957677
 20
141.615774
 30
0.0
 11
112.957677
 21
141.615774
 31
0.0
  0
LINE
  5
4CF
100
AcDbEntity
  8
0
  6
Continuous
 62
   174
100
AcDbLine
 10
110.957677
 20
138.187563
 30
0.0
 11
112.957677
 21
138.187563
 31
0.0
  0
LINE
  5
4D0
100
AcDbEntity
  8
0
  6
Continuous
 62
   174
100
AcDbLine
 10
186.936356
 20
152.566243
 30
0.0
 11
186.457677
 21
152.087563
 31
0.0
  0
LINE
  5
4D1
100
AcDbEntity
  8
0
  6
Continuous
 62
   174
100
AcDbLine
 10
186.957677
 20
152.587563
 30
0.0
 11
186.936356
 21
152.566243
 31
0.0
  0
LINE
  5
4D2
100
AcDbEntity
  8
0
  6
Continuous
 62
   174
100
AcDbLine
 10
186.457677
 20
138.687563
 30
0.0
 11
186.957677
 21
138.187563
 31
0.0
  0
LINE
  5
4D3
100
AcDbEntity
  8
0
  6
Continuous
 62
   174
100
AcDbLine
 10
190.457677
 20
138.687563
 30
0.0
 11
190.957677
 21
138.187563
 31
0.0
  0
LINE
  5
4D4
100
AcDbEntity
  8
0
  6
Continuous
 62
   174
100
AcDbLine
 10
186.947678
 20
147.614151
 30
0.0
 11
186.957677
 21
147.617241
 31
0.0
  0
LINE
  5
4D5
100
AcDbEntity
  8
0
  6
Continuous
 62
   174
100
AcDbLine
 10
188.957677
 20
147.617241
 30
0.0
 11
188.967675
 21
147.614151
 31
0.0
  0
LINE
  5
4D6
100
AcDbEntity
  8
0
  6
Continuous
 62
   174
100
AcDbLine
 10
192.957677
 20
145.392563
 30
0.0
 11
190.957677
 21
145.392563
 31
0.0
  0
LINE
  5
4D7
100
AcDbEntity
  8
0
  6
Continuous
 62
   174
100
AcDbLine
 10
106.947678
 20
143.69792
 30
0.0
 11
108.967675
 21
143.69792
 31
0.0
  0
LINE
  5
4D8
100
AcDbEntity
  8
0
  6
Continuous
 62
   174
100
AcDbLine
 10
106.947678
 20
141.621006
 30
0.0
 11
108.967675
 21
141.621006
 31
0.0
  0
LINE
  5
4D9
100
AcDbEntity
  8
0
  6
Continuous
 62
   174
100
AcDbLine
 10
192.957677
 20
147.617633
 30
0.0
 11
192.957677
 21
145.402615
 31
0.0
  0
LINE
  5
4DA
100
AcDbEntity
  8
0
  6
Continuous
 62
   174
100
AcDbLine
 10
186.947678
 20
141.165433
 30
0.0
 11
186.957677
 21
141.159556
 31
0.0
  0
LINE
  5
4DB
100
AcDbEntity
  8
0
  6
Continuous
 62
   174
100
AcDbLine
 10
110.947678
 20
139.919276
 30
0.0
 11
110.957677
 21
139.911667
 31
0.0
  0
LINE
  5
4DC
100
AcDbEntity
  8
0
  6
Continuous
 62
   174
100
AcDbLine
 10
189.457677
 20
152.087563
 30
0.0
 11
188.957677
 21
152.587563
 31
0.0
  0
LINE
  5
4DD
100
AcDbEntity
  8
0
  6
Continuous
 62
   174
100
AcDbLine
 10
109.457677
 20
152.087563
 30
0.0
 11
108.957677
 21
152.587563
 31
0.0
  0
LWPOLYLINE
  5
4DE
100
AcDbEntity
  8
0
  6
Continuous
 62
   174
100
AcDbPolyline
 90
        2
 70
   129
 10
190.947678
 20
138.197563
 10
190.947677
 20
138.197563
  0
LINE
  5
4DF
100
AcDbEntity
  8
0
  6
Continuous
 62
   174
100
AcDbLine
 10
190.957677
 20
145.382563
 30
0.0
 11
192.957677
 21
145.382563
 31
0.0
  0
LINE
  5
4E0
100
AcDbEntity
  8
0
  6
Continuous
 62
   174
100
AcDbLine
 10
186.957677
 20
143.177401
 30
0.0
 11
186.957677
 21
145.392631
 31
0.0
  0
LINE
  5
4E1
100
AcDbEntity
  8
0
  6
Continuous
 62
   174
100
AcDbLine
 10
188.957677
 20
145.392563
 30
0.0
 11
186.957677
 21
145.392563
 31
0.0
  0
LINE
  5
4E2
100
AcDbEntity
  8
0
  6
Continuous
 62
   174
100
AcDbLine
 10
186.957677
 20
141.151466
 30
0.0
 11
188.957677
 21
141.151466
 31
0.0
  0
LINE
  5
4E3
100
AcDbEntity
  8
0
  6
Continuous
 62
   174
100
AcDbLine
 10
113.457677
 20
152.087563
 30
0.0
 11
112.957677
 21
152.587563
 31
0.0
  0
LINE
  5
4E4
100
AcDbEntity
  8
0
  6
Continuous
 62
   174
100
AcDbLine
 10
110.457677
 20
138.687563
 30
0.0
 11
110.957677
 21
138.187563
 31
0.0
  0
LINE
  5
4E5
100
AcDbEntity
  8
0
  6
Continuous
 62
   174
100
AcDbLine
 10
190.936356
 20
152.566243
 30
0.0
 11
190.457677
 21
152.087563
 31
0.0
  0
CIRCLE
  5
4E6
100
AcDbEntity
  8
0
  6
Continuous
 62
   174
100
AcDbCircle
 10
161.957677
 20
151.887563
 30
0.0
 40
10.0
  0
LINE
  5
4E7
100
AcDbEntity
  8
0
  6
Continuous
 62
   174
100
AcDbLine
 10
192.957677
 20
138.187563
 30
0.0
 11
192.978998
 21
138.208884
 31
0.0
  0
LINE
  5
4E8
100
AcDbEntity
  8
0
  6
Continuous
 62
   174
100
AcDbLine
 10
190.957677
 20
147.60773
 30
0.0
 11
190.947678
 21
147.60464
 31
0.0
  0
LINE
  5
4E9
100
AcDbEntity
  8
0
  6
Continuous
 62
   174
100
AcDbLine
 10
192.957677
 20
138.548743
 30
0.0
 11
192.957677
 21
138.198019
 31
0.0
  0
LINE
  5
4EA
100
AcDbEntity
  8
0
  6
Continuous
 62
   174
100
AcDbLine
 10
188.957677
 20
138.548743
 30
0.0
 11
188.957677
 21
138.198019
 31
0.0
  0
LINE
  5
4EB
100
AcDbEntity
  8
0
  6
Continuous
 62
   174
100
AcDbLine
 10
112.967675
 20
138.740479
 30
0.0
 11
112.957677
 21
138.731239
 31
0.0
  0
LINE
  5
4EC
100
AcDbEntity
  8
0
  6
Continuous
 62
   174
100
AcDbLine
 10
190.957677
 20
141.151466
 30
0.0
 11
190.947678
 21
141.157342
 31
0.0
  0
LINE
  5
4ED
100
AcDbEntity
  8
0
  6
Continuous
 62
   174
100
AcDbLine
 10
112.957677
 20
138.735057
 30
0.0
 11
112.967675
 21
138.744298
 31
0.0
  0
LINE
  5
4EE
100
AcDbEntity
  8
0
  6
Continuous
 62
   174
100
AcDbLine
 10
188.978998
 20
138.208884
 30
0.0
 11
189.457677
 21
138.687563
 31
0.0
  0
LINE
  5
4EF
100
AcDbEntity
  8
0
  6
Continuous
 62
   174
100
AcDbLine
 10
112.957677
 20
152.587563
 30
0.0
 11
110.957677
 21
152.587563
 31
0.0
  0
LINE
  5
4F0
100
AcDbEntity
  8
0
  6
Continuous
 62
   174
100
AcDbLine
 10
110.947678
 20
138.744298
 30
0.0
 11
110.957677
 21
138.735057
 31
0.0
  0
LINE
  5
4F1
100
AcDbEntity
  8
0
  6
Continuous
 62
   174
100
AcDbLine
 10
108.957677
 20
138.187563
 30
0.0
 11
109.457677
 21
138.687563
 31
0.0
  0
LWPOLYLINE
  5
4F2
100
AcDbEntity
  8
0
  6
Continuous
 62
   174
100
AcDbPolyline
 90
        2
 70
   129
 10
186.947678
 20
138.197563
 10
186.947677
 20
138.197563
  0
LINE
  5
4F3
100
AcDbEntity
  8
0
  6
Continuous
 62
   174
100
AcDbLine
 10
192.967675
 20
147.614151
 30
0.0
 11
190.947678
 21
147.614151
 31
0.0
  0
LINE
  5
4F4
100
AcDbEntity
  8
0
  6
Continuous
 62
   174
100
AcDbLine
 10
186.957677
 20
141.151466
 30
0.0
 11
186.947678
 21
141.157342
 31
0.0
  0
LINE
  5
4F5
100
AcDbEntity
  8
0
  6
Continuous
 62
   174
100
AcDbLine
 10
112.957677
 20
139.911667
 30
0.0
 11
110.957677
 21
139.911667
 31
0.0
  0
LINE
  5
4F6
100
AcDbEntity
  8
0
  6
Continuous
 62
   174
100
AcDbLine
 10
112.957677
 20
138.187563
 30
0.0
 11
113.457677
 21
138.687563
 31
0.0
  0
LINE
  5
4F7
100
AcDbEntity
  8
0
  6
Continuous
 62
   174
100
AcDbLine
 10
110.957677
 20
152.587563
 30
0.0
 11
110.457677
 21
152.087563
 31
0.0
  0
LINE
  5
4F8
100
AcDbEntity
  8
0
  6
Continuous
 62
   174
100
AcDbLine
 10
193.457677
 20
152.087563
 30
0.0
 11
192.957677
 21
152.587563
 31
0.0
  0
LINE
  5
4F9
100
AcDbEntity
  8
0
  6
Continuous
 62
   174
100
AcDbLine
 10
190.957677
 20
143.177401
 30
0.0
 11
190.957677
 21
145.392631
 31
0.0
  0
LINE
  5
4FA
100
AcDbEntity
  8
0
  6
Continuous
 62
   174
100
AcDbLine
 10
110.957677
 20
139.905179
 30
0.0
 11
110.947678
 21
139.912788
 31
0.0
  0
LINE
  5
4FB
100
AcDbEntity
  8
0
  6
Continuous
 62
   174
100
AcDbLine
 10
112.957677
 20
139.911667
 30
0.0
 11
112.967675
 21
139.919276
 31
0.0
  0
LINE
  5
4FC
100
AcDbEntity
  8
0
  6
Continuous
 62
   174
100
AcDbLine
 10
190.957677
 20
147.60773
 30
0.0
 11
192.957677
 21
147.60773
 31
0.0
  0
LINE
  5
4FD
100
AcDbEntity
  8
0
  6
Continuous
 62
   174
100
AcDbLine
 10
190.947678
 20
147.614151
 30
0.0
 11
190.957677
 21
147.617241
 31
0.0
  0
LINE
  5
4FE
100
AcDbEntity
  8
0
  6
Continuous
 62
   174
100
AcDbLine
 10
106.457677
 20
138.687563
 30
0.0
 11
106.957677
 21
138.187563
 31
0.0
  0
LINE
  5
4FF
100
AcDbEntity
  8
0
  6
Continuous
 62
   174
100
AcDbLine
 10
192.957677
 20
147.617241
 30
0.0
 11
192.967675
 21
147.614151
 31
0.0
  0
LINE
  5
500
100
AcDbEntity
  8
0
  6
Continuous
 62
   174
100
AcDbLine
 10
188.967675
 20
147.60464
 30
0.0
 11
188.957677
 21
147.60773
 31
0.0
  0
LINE
  5
501
100
AcDbEntity
  8
0
  6
Continuous
 62
   174
100
AcDbLine
 10
106.957677
 20
139.905179
 30
0.0
 11
108.957677
 21
139.905179
 31
0.0
  0
LINE
  5
502
100
AcDbEntity
  8
0
  6
Continuous
 62
   174
100
AcDbLine
 10
108.957677
 20
139.911667
 30
0.0
 11
108.967675
 21
139.919276
 31
0.0
  0
LINE
  5
503
100
AcDbEntity
  8
0
  6
Continuous
 62
   174
100
AcDbLine
 10
106.947678
 20
139.919276
 30
0.0
 11
106.957677
 21
139.911667
 31
0.0
  0
LINE
  5
504
100
AcDbEntity
  8
0
  6
Continuous
 62
   174
100
AcDbLine
 10
188.957677
 20
147.617633
 30
0.0
 11
188.957677
 21
145.402615
 31
0.0
  0
LINE
  5
505
100
AcDbEntity
  8
0
  6
Continuous
 62
   174
100
AcDbLine
 10
110.957677
 20
138.731239
 30
0.0
 11
112.957677
 21
138.731239
 31
0.0
  0
LINE
  5
506
100
AcDbEntity
  8
0
  6
Continuous
 62
   174
100
AcDbLine
 10
188.967675
 20
141.157342
 30
0.0
 11
188.957677
 21
141.151466
 31
0.0
  0
CIRCLE
  5
507
100
AcDbEntity
  8
0
  6
Continuous
 62
   174
100
AcDbCircle
 10
137.957677
 20
151.887563
 30
0.0
 40
10.0
  0
LINE
  5
508
100
AcDbEntity
  8
0
  6
Continuous
 62
   174
100
AcDbLine
 10
190.957677
 20
152.587563
 30
0.0
 11
190.936356
 21
152.566243
 31
0.0
  0
LINE
  5
509
100
AcDbEntity
  8
0
  6
Continuous
 62
   174
100
AcDbLine
 10
192.978998
 20
138.208884
 30
0.0
 11
193.457677
 21
138.687563
 31
0.0
  0
LINE
  5
50A
100
AcDbEntity
  8
0
  6
Continuous
 62
   174
100
AcDbLine
 10
188.957677
 20
147.617241
 30
0.0
 11
186.957677
 21
147.617241
 31
0.0
  0
LINE
  5
50B
100
AcDbEntity
  8
0
  6
Continuous
 62
   174
100
AcDbLine
 10
192.967675
 20
147.60464
 30
0.0
 11
192.957677
 21
147.60773
 31
0.0
  0
LINE
  5
50C
100
AcDbEntity
  8
0
  6
Continuous
 62
   174
100
AcDbLine
 10
108.957677
 20
139.911667
 30
0.0
 11
106.957677
 21
139.911667
 31
0.0
  0
LINE
  5
50D
100
AcDbEntity
  8
0
  6
Continuous
 62
   174
100
AcDbLine
 10
108.967675
 20
139.912788
 30
0.0
 11
108.957677
 21
139.905179
 31
0.0
  0
LINE
  5
50E
100
AcDbEntity
  8
0
  6
Continuous
 62
   174
100
AcDbLine
 10
108.967675
 20
138.740479
 30
0.0
 11
108.957677
 21
138.731239
 31
0.0
  0
LINE
  5
50F
100
AcDbEntity
  8
0
  6
Continuous
 62
   174
100
AcDbLine
 10
190.957677
 20
141.151466
 30
0.0
 11
192.957677
 21
141.151466
 31
0.0
  0
LINE
  5
510
100
AcDbEntity
  8
0
  6
Continuous
 62
   174
100
AcDbLine
 10
188.957677
 20
138.187563
 30
0.0
 11
188.978998
 21
138.208884
 31
0.0
  0
LINE
  5
511
100
AcDbEntity
  8
0
  6
Continuous
 62
   174
100
AcDbLine
 10
106.957677
 20
152.587563
 30
0.0
 11
106.457677
 21
152.087563
 31
0.0
  0
LINE
  5
512
100
AcDbEntity
  8
0
  6
Continuous
 62
   174
100
AcDbLine
 10
186.957677
 20
147.60773
 30
0.0
 11
188.957677
 21
147.60773
 31
0.0
  0
LINE
  5
513
100
AcDbEntity
  8
0
  6
Continuous
 62
   174
100
AcDbLine
 10
186.957677
 20
147.60773
 30
0.0
 11
186.947678
 21
147.60464
 31
0.0
  0
LINE
  5
514
100
AcDbEntity
  8
0
  6
Continuous
 62
   174
100
AcDbLine
 10
192.967675
 20
149.617784
 30
0.0
 11
190.947678
 21
149.617784
 31
0.0
  0
LINE
  5
515
100
AcDbEntity
  8
0
  6
Continuous
 62
   174
100
AcDbLine
 10
106.957677
 20
139.905179
 30
0.0
 11
106.947678
 21
139.912788
 31
0.0
  0
LINE
  5
516
100
AcDbEntity
  8
0
  6
Continuous
 62
   174
100
AcDbLine
 10
110.957677
 20
139.905179
 30
0.0
 11
112.957677
 21
139.905179
 31
0.0
  0
LINE
  5
517
100
AcDbEntity
  8
0
  6
Continuous
 62
   174
100
AcDbLine
 10
112.967675
 20
139.912788
 30
0.0
 11
112.957677
 21
139.905179
 31
0.0
  0
LINE
  5
518
100
AcDbEntity
  8
0
  6
Continuous
 62
   174
100
AcDbLine
 10
106.957677
 20
138.731239
 30
0.0
 11
106.947678
 21
138.740479
 31
0.0
  0
LINE
  5
519
100
AcDbEntity
  8
0
  6
Continuous
 62
   174
100
AcDbLine
 10
186.457677
 20
151.987563
 30
0.0
 11
183.957677
 21
151.987563
 31
0.0
  0
LINE
  5
51A
100
AcDbEntity
  8
0
  6
Continuous
 62
   174
100
AcDbLine
 10
106.957677
 20
151.520556
 30
0.0
 11
106.947678
 21
151.512036
 31
0.0
  0
LINE
  5
51B
100
AcDbEntity
  8
0
  6
Continuous
 62
   174
100
AcDbLine
 10
110.957677
 20
138.208866
 30
0.0
 11
112.957677
 21
138.208866
 31
0.0
  0
LINE
  5
51C
100
AcDbEntity
  8
0
  6
Continuous
 62
   174
100
AcDbLine
 10
192.957677
 20
152.597227
 30
0.0
 11
192.957677
 21
152.246291
 31
0.0
  0
LINE
  5
51D
100
AcDbEntity
  8
0
  6
Continuous
 62
   174
100
AcDbLine
 10
106.957677
 20
145.941004
 30
0.0
 11
106.947678
 21
145.940229
 31
0.0
  0
LINE
  5
51E
100
AcDbEntity
  8
0
  6
Continuous
 62
   174
100
AcDbLine
 10
190.957677
 20
151.209545
 30
0.0
 11
190.947678
 21
151.201457
 31
0.0
  0
LINE
  5
51F
100
AcDbEntity
  8
0
  6
Continuous
 62
   174
100
AcDbLine
 10
108.957677
 20
138.735057
 30
0.0
 11
106.957677
 21
138.735057
 31
0.0
  0
CIRCLE
  5
520
100
AcDbEntity
  8
0
  6
Continuous
 62
   174
100
AcDbCircle
 10
159.957677
 20
152.887563
 30
0.0
 40
2.5
  0
LINE
  5
521
100
AcDbEntity
  8
0
  6
Continuous
 62
   174
100
AcDbLine
 10
112.957677
 20
145.950974
 30
0.0
 11
110.957677
 21
145.950974
 31
0.0
  0
LINE
  5
522
100
AcDbEntity
  8
0
  6
Continuous
 62
   174
100
AcDbLine
 10
186.957677
 20
138.538413
 30
0.0
 11
186.947678
 21
138.547922
 31
0.0
  0
LINE
  5
523
100
AcDbEntity
  8
0
  6
Continuous
 62
   174
100
AcDbLine
 10
108.957677
 20
141.624296
 30
0.0
 11
106.957677
 21
141.624296
 31
0.0
  0
LINE
  5
524
100
AcDbEntity
  8
0
  6
Continuous
 62
   174
100
AcDbLine
 10
190.947678
 20
149.617784
 30
0.0
 11
190.957677
 21
149.623661
 31
0.0
  0
LINE
  5
525
100
AcDbEntity
  8
0
  6
Continuous
 62
   174
100
AcDbLine
 10
190.947678
 20
139.57367
 30
0.0
 11
190.957677
 21
139.565581
 31
0.0
  0
LINE
  5
526
100
AcDbEntity
  8
0
  6
Continuous
 62
   174
100
AcDbLine
 10
192.957677
 20
143.167397
 30
0.0
 11
192.967675
 21
143.170487
 31
0.0
  0
LINE
  5
527
100
AcDbEntity
  8
0
  6
Continuous
 62
   174
100
AcDbLine
 10
110.957677
 20
143.695577
 30
0.0
 11
110.947678
 21
143.69792
 31
0.0
  0
LINE
  5
528
100
AcDbEntity
  8
0
  6
Continuous
 62
   174
100
AcDbLine
 10
190.957677
 20
139.559704
 30
0.0
 11
190.947678
 21
139.567792
 31
0.0
  0
LINE
  5
529
100
AcDbEntity
  8
0
  6
Continuous
 62
   174
100
AcDbLine
 10
190.957677
 20
139.559704
 30
0.0
 11
192.957677
 21
139.559704
 31
0.0
  0
LINE
  5
52A
100
AcDbEntity
  8
0
  6
Continuous
 62
   174
100
AcDbLine
 10
108.957677
 20
141.626018
 30
0.0
 11
108.957677
 21
139.921896
 31
0.0
  0
LWPOLYLINE
  5
52B
100
AcDbEntity
  8
0
  6
Continuous
 62
   174
100
AcDbPolyline
 90
        2
 70
   129
 10
108.967675
 20
148.137681
 10
108.967677
 20
148.13306
  0
LINE
  5
52C
100
AcDbEntity
  8
0
  6
Continuous
 62
   174
100
AcDbLine
 10
188.957677
 20
152.243317
 30
0.0
 11
188.957677
 21
151.225135
 31
0.0
  0
LINE
  5
52D
100
AcDbEntity
  8
0
  6
Continuous
 62
   174
100
AcDbLine
 10
108.957677
 20
145.950974
 30
0.0
 11
106.957677
 21
145.950974
 31
0.0
  0
LINE
  5
52E
100
AcDbEntity
  8
0
  6
Continuous
 62
   174
100
AcDbLine
 10
188.957677
 20
143.167397
 30
0.0
 11
188.967675
 21
143.170487
 31
0.0
  0
LINE
  5
52F
100
AcDbEntity
  8
0
  6
Continuous
 62
   174
100
AcDbLine
 10
186.957677
 20
149.615571
 30
0.0
 11
188.957677
 21
149.615571
 31
0.0
  0
LINE
  5
530
100
AcDbEntity
  8
0
  6
Continuous
 62
   174
100
AcDbLine
 10
188.967675
 20
147.614151
 30
0.0
 11
186.947678
 21
147.614151
 31
0.0
  0
LINE
  5
531
100
AcDbEntity
  8
0
  6
Continuous
 62
   174
100
AcDbLine
 10
188.957677
 20
151.219187
 30
0.0
 11
188.957677
 21
149.63339
 31
0.0
  0
LINE
  5
532
100
AcDbEntity
  8
0
  6
Continuous
 62
   174
100
AcDbLine
 10
110.957677
 20
141.615774
 30
0.0
 11
110.947678
 21
141.621006
 31
0.0
  0
LINE
  5
533
100
AcDbEntity
  8
0
  6
Continuous
 62
   174
100
AcDbLine
 10
186.957677
 20
139.575846
 30
0.0
 11
186.957677
 21
141.161644
 31
0.0
  0
LINE
  5
534
100
AcDbEntity
  8
0
  6
Continuous
 62
   174
100
AcDbLine
 10
190.957677
 20
141.169716
 30
0.0
 11
190.957677
 21
143.168054
 31
0.0
  0
LINE
  5
535
100
AcDbEntity
  8
0
  6
Continuous
 62
   174
100
AcDbLine
 10
190.957677
 20
152.233624
 30
0.0
 11
190.947678
 21
152.224115
 31
0.0
  0
LINE
  5
536
100
AcDbEntity
  8
0
  6
Continuous
 62
   174
100
AcDbLine
 10
190.947678
 20
143.170487
 30
0.0
 11
190.957677
 21
143.167397
 31
0.0
  0
LINE
  5
537
100
AcDbEntity
  8
0
  6
Continuous
 62
   174
100
AcDbLine
 10
110.957677
 20
151.520556
 30
0.0
 11
112.957677
 21
151.520556
 31
0.0
  0
LINE
  5
538
100
AcDbEntity
  8
0
  6
Continuous
 62
   174
100
AcDbLine
 10
106.957677
 20
143.695577
 30
0.0
 11
106.947678
 21
143.69792
 31
0.0
  0
LINE
  5
539
100
AcDbEntity
  8
0
  6
Continuous
 62
   174
100
AcDbLine
 10
112.957677
 20
148.141499
 30
0.0
 11
112.967675
 21
148.137681
 31
0.0
  0
LINE
  5
53A
100
AcDbEntity
  8
0
  6
Continuous
 62
   174
100
AcDbLine
 10
190.457677
 20
151.987563
 30
0.0
 11
189.457677
 21
151.987563
 31
0.0
  0
LINE
  5
53B
100
AcDbEntity
  8
0
  6
Continuous
 62
   174
100
AcDbLine
 10
188.967675
 20
149.617784
 30
0.0
 11
186.947678
 21
149.617784
 31
0.0
  0
LINE
  5
53C
100
AcDbEntity
  8
0
  6
Continuous
 62
   174
100
AcDbLine
 10
110.947678
 20
138.219609
 30
0.0
 11
110.957677
 21
138.209641
 31
0.0
  0
LINE
  5
53D
100
AcDbEntity
  8
0
  6
Continuous
 62
   174
100
AcDbLine
 10
110.957677
 20
148.132257
 30
0.0
 11
112.957677
 21
148.132257
 31
0.0
  0
LINE
  5
53E
100
AcDbEntity
  8
0
  6
Continuous
 62
   174
100
AcDbLine
 10
108.967675
 20
150.048353
 30
0.0
 11
108.957677
 21
150.054839
 31
0.0
  0
LINE
  5
53F
100
AcDbEntity
  8
0
  6
Continuous
 62
   174
100
AcDbLine
 10
188.967675
 20
141.157342
 30
0.0
 11
186.947678
 21
141.157342
 31
0.0
  0
LINE
  5
540
100
AcDbEntity
  8
0
  6
Continuous
 62
   174
100
AcDbLine
 10
190.957677
 20
138.198019
 30
0.0
 11
190.957677
 21
138.548743
 31
0.0
  0
LINE
  5
541
100
AcDbEntity
  8
0
  6
Continuous
 62
   174
100
AcDbLine
 10
110.957677
 20
145.941004
 30
0.0
 11
112.957677
 21
145.941004
 31
0.0
  0
LINE
  5
542
100
AcDbEntity
  8
0
  6
Continuous
 62
   174
100
AcDbLine
 10
108.957677
 20
138.209641
 30
0.0
 11
106.957677
 21
138.209641
 31
0.0
  0
LINE
  5
543
100
AcDbEntity
  8
0
  6
Continuous
 62
   174
100
AcDbLine
 10
112.957677
 20
150.062449
 30
0.0
 11
112.967675
 21
150.055963
 31
0.0
  0
LWPOLYLINE
  5
544
100
AcDbEntity
  8
0
  6
Continuous
 62
   174
100
AcDbPolyline
 90
        2
 70
   129
 10
192.967675
 20
152.577563
 10
192.967677
 20
152.577563
  0
LINE
  5
545
100
AcDbEntity
  8
0
  6
Continuous
 62
   174
100
AcDbLine
 10
106.947678
 20
145.950199
 30
0.0
 11
106.957677
 21
145.950974
 31
0.0
  0
LINE
  5
546
100
AcDbEntity
  8
0
  6
Continuous
 62
   174
100
AcDbLine
 10
186.957677
 20
141.169716
 30
0.0
 11
186.957677
 21
143.168054
 31
0.0
  0
LINE
  5
547
100
AcDbEntity
  8
0
  6
Continuous
 62
   174
100
AcDbLine
 10
186.957677
 20
145.402615
 30
0.0
 11
186.957677
 21
147.617633
 31
0.0
  0
LINE
  5
548
100
AcDbEntity
  8
0
  6
Continuous
 62
   174
100
AcDbLine
 10
108.957677
 20
152.597227
 30
0.0
 11
108.957677
 21
152.397966
 31
0.0
  0
LINE
  5
549
100
AcDbEntity
  8
0
  6
Continuous
 62
   174
100
AcDbLine
 10
108.967675
 20
148.128439
 30
0.0
 11
108.957677
 21
148.132257
 31
0.0
  0
LINE
  5
54A
100
AcDbEntity
  8
0
  6
Continuous
 62
   174
100
AcDbLine
 10
192.957677
 20
138.541503
 30
0.0
 11
190.957677
 21
138.541503
 31
0.0
  0
LINE
  5
54B
100
AcDbEntity
  8
0
  6
Continuous
 62
   174
100
AcDbLine
 10
186.957677
 20
151.209545
 30
0.0
 11
186.947678
 21
151.201457
 31
0.0
  0
LINE
  5
54C
100
AcDbEntity
  8
0
  6
Continuous
 62
   174
100
AcDbLine
 10
110.957677
 20
138.220112
 30
0.0
 11
110.957677
 21
138.74163
 31
0.0
  0
LINE
  5
54D
100
AcDbEntity
  8
0
  6
Continuous
 62
   174
100
AcDbLine
 10
112.957677
 20
141.624296
 30
0.0
 11
110.957677
 21
141.624296
 31
0.0
  0
LINE
  5
54E
100
AcDbEntity
  8
0
  6
Continuous
 62
   174
100
AcDbLine
 10
106.957677
 20
152.385933
 30
0.0
 11
108.957677
 21
152.385933
 31
0.0
  0
LINE
  5
54F
100
AcDbEntity
  8
0
  6
Continuous
 62
   174
100
AcDbLine
 10
192.957677
 20
141.159556
 30
0.0
 11
190.957677
 21
141.159556
 31
0.0
  0
LINE
  5
550
100
AcDbEntity
  8
0
  6
Continuous
 62
   174
100
AcDbLine
 10
188.957677
 20
143.168054
 30
0.0
 11
188.957677
 21
141.169716
 31
0.0
  0
LINE
  5
551
100
AcDbEntity
  8
0
  6
Continuous
 62
   174
100
AcDbLine
 10
106.457677
 20
151.987563
 30
0.0
 11
105.457677
 21
151.987563
 31
0.0
  0
LINE
  5
552
100
AcDbEntity
  8
0
  6
Continuous
 62
   174
100
AcDbLine
 10
106.947678
 20
148.137681
 30
0.0
 11
106.957677
 21
148.141499
 31
0.0
  0
LINE
  5
553
100
AcDbEntity
  8
0
  6
Continuous
 62
   174
100
AcDbLine
 10
190.957677
 20
152.246291
 30
0.0
 11
190.957677
 21
152.597227
 31
0.0
  0
LINE
  5
554
100
AcDbEntity
  8
0
  6
Continuous
 62
   174
100
AcDbLine
 10
110.957677
 20
148.132257
 30
0.0
 11
110.947678
 21
148.128439
 31
0.0
  0
LINE
  5
555
100
AcDbEntity
  8
0
  6
Continuous
 62
   174
100
AcDbLine
 10
106.947678
 20
151.517269
 30
0.0
 11
106.957677
 21
151.525789
 31
0.0
  0
LINE
  5
556
100
AcDbEntity
  8
0
  6
Continuous
 62
   174
100
AcDbLine
 10
106.957677
 20
150.054839
 30
0.0
 11
106.947678
 21
150.048353
 31
0.0
  0
LINE
  5
557
100
AcDbEntity
  8
0
  6
Continuous
 62
   174
100
AcDbLine
 10
106.947678
 20
150.055963
 30
0.0
 11
108.967675
 21
150.055963
 31
0.0
  0
LINE
  5
558
100
AcDbEntity
  8
0
  6
Continuous
 62
   174
100
AcDbLine
 10
112.957677
 20
138.735057
 30
0.0
 11
110.957677
 21
138.735057
 31
0.0
  0
LINE
  5
559
100
AcDbEntity
  8
0
  6
Continuous
 62
   174
100
AcDbLine
 10
108.957677
 20
145.950974
 30
0.0
 11
108.967675
 21
145.950199
 31
0.0
  0
LINE
  5
55A
100
AcDbEntity
  8
0
  6
Continuous
 62
   174
100
AcDbLine
 10
188.957677
 20
151.215423
 30
0.0
 11
188.967675
 21
151.207335
 31
0.0
  0
LINE
  5
55B
100
AcDbEntity
  8
0
  6
Continuous
 62
   174
100
AcDbLine
 10
108.957677
 20
151.530186
 30
0.0
 11
108.957677
 21
150.072272
 31
0.0
  0
LINE
  5
55C
100
AcDbEntity
  8
0
  6
Continuous
 62
   174
100
AcDbLine
 10
108.957677
 20
145.950899
 30
0.0
 11
108.957677
 21
143.715276
 31
0.0
  0
LINE
  5
55D
100
AcDbEntity
  8
0
  6
Continuous
 62
   174
100
AcDbLine
 10
108.957677
 20
152.587563
 30
0.0
 11
106.957677
 21
152.587563
 31
0.0
  0
LINE
  5
55E
100
AcDbEntity
  8
0
  6
Continuous
 62
   174
100
AcDbLine
 10
112.957677
 20
150.062449
 30
0.0
 11
110.957677
 21
150.062449
 31
0.0
  0
LINE
  5
55F
100
AcDbEntity
  8
0
  6
Continuous
 62
   174
100
AcDbLine
 10
190.957677
 20
152.233624
 30
0.0
 11
192.957677
 21
152.233624
 31
0.0
  0
LINE
  5
560
100
AcDbEntity
  8
0
  6
Continuous
 62
   174
100
AcDbLine
 10
112.957677
 20
151.525789
 30
0.0
 11
110.957677
 21
151.525789
 31
0.0
  0
LINE
  5
561
100
AcDbEntity
  8
0
  6
Continuous
 62
   174
100
AcDbLine
 10
110.947678
 20
151.517269
 30
0.0
 11
110.957677
 21
151.525789
 31
0.0
  0
LINE
  5
562
100
AcDbEntity
  8
0
  6
Continuous
 62
   174
100
AcDbLine
 10
108.957677
 20
138.735057
 30
0.0
 11
108.967675
 21
138.744298
 31
0.0
  0
LINE
  5
563
100
AcDbEntity
  8
0
  6
Continuous
 62
   174
100
AcDbLine
 10
192.957677
 20
143.168054
 30
0.0
 11
192.957677
 21
141.169716
 31
0.0
  0
LINE
  5
564
100
AcDbEntity
  8
0
  6
Continuous
 62
   174
100
AcDbLine
 10
110.957677
 20
138.198019
 30
0.0
 11
110.957677
 21
138.219262
 31
0.0
  0
LINE
  5
565
100
AcDbEntity
  8
0
  6
Continuous
 62
   174
100
AcDbLine
 10
112.957677
 20
152.388277
 30
0.0
 11
112.967675
 21
152.378557
 31
0.0
  0
LINE
  5
566
100
AcDbEntity
  8
0
  6
Continuous
 62
   174
100
AcDbLine
 10
183.957677
 20
151.987563
 30
0.0
 11
181.957677
 21
150.832863
 31
0.0
  0
LINE
  5
567
100
AcDbEntity
  8
0
  6
Continuous
 62
   174
100
AcDbLine
 10
188.967675
 20
149.609694
 30
0.0
 11
188.957677
 21
149.615571
 31
0.0
  0
LINE
  5
568
100
AcDbEntity
  8
0
  6
Continuous
 62
   174
100
AcDbLine
 10
109.457677
 20
138.697869
 30
0.0
 11
109.457677
 21
152.097164
 31
0.0
  0
LINE
  5
569
100
AcDbEntity
  8
0
  6
Continuous
 62
   174
100
AcDbLine
 10
186.957677
 20
152.587562
 30
0.0
 11
186.947678
 21
152.577563
 31
0.0
  0
LWPOLYLINE
  5
56A
100
AcDbEntity
  8
0
  6
Continuous
 62
   174
100
AcDbPolyline
 90
        3
 70
   128
 10
106.947678
 20
138.740479
 10
106.947677
 20
138.742389
 10
106.947678
 20
138.744298
  0
LINE
  5
56B
100
AcDbEntity
  8
0
  6
Continuous
 62
   174
100
AcDbLine
 10
112.957677
 20
145.950899
 30
0.0
 11
112.957677
 21
143.715276
 31
0.0
  0
LINE
  5
56C
100
AcDbEntity
  8
0
  6
Continuous
 62
   174
100
AcDbLine
 10
110.947678
 20
143.707642
 30
0.0
 11
110.957677
 21
143.705299
 31
0.0
  0
LINE
  5
56D
100
AcDbEntity
  8
0
  6
Continuous
 62
   174
100
AcDbLine
 10
188.957677
 20
139.565581
 30
0.0
 11
186.957677
 21
139.565581
 31
0.0
  0
LWPOLYLINE
  5
56E
100
AcDbEntity
  8
0
  6
Continuous
 62
   174
100
AcDbPolyline
 90
        3
 70
   128
 10
190.947678
 20
145.382563
 10
190.947677
 20
145.387563
 10
190.947678
 20
145.392563
  0
LINE
  5
56F
100
AcDbEntity
  8
0
  6
Continuous
 62
   174
100
AcDbLine
 10
105.457677
 20
138.787563
 30
0.0
 11
106.457677
 21
138.787563
 31
0.0
  0
LINE
  5
570
100
AcDbEntity
  8
0
  6
Continuous
 62
   174
100
AcDbLine
 10
106.957677
 20
141.634515
 30
0.0
 11
106.957677
 21
143.705717
 31
0.0
  0
LINE
  5
571
100
AcDbEntity
  8
0
  6
Continuous
 62
   174
100
AcDbLine
 10
188.957677
 20
152.236714
 30
0.0
 11
186.957677
 21
152.236714
 31
0.0
  0
LINE
  5
572
100
AcDbEntity
  8
0
  6
Continuous
 62
   174
100
AcDbLine
 10
190.947678
 20
152.227205
 30
0.0
 11
190.957677
 21
152.236714
 31
0.0
  0
LINE
  5
573
100
AcDbEntity
  8
0
  6
Continuous
 62
   174
100
AcDbLine
 10
106.957677
 20
138.745454
 30
0.0
 11
106.957677
 21
139.915524
 31
0.0
  0
LINE
  5
574
100
AcDbEntity
  8
0
  6
Continuous
 62
   174
100
AcDbLine
 10
190.957677
 20
149.615571
 30
0.0
 11
192.957677
 21
149.615571
 31
0.0
  0
LINE
  5
575
100
AcDbEntity
  8
0
  6
Continuous
 62
   174
100
AcDbLine
 10
106.957677
 20
138.198019
 30
0.0
 11
106.957677
 21
138.219262
 31
0.0
  0
LINE
  5
576
100
AcDbEntity
  8
0
  6
Continuous
 62
   174
100
AcDbLine
 10
192.957677
 20
139.565581
 30
0.0
 11
190.957677
 21
139.565581
 31
0.0
  0
LINE
  5
577
100
AcDbEntity
  8
0
  6
Continuous
 62
   174
100
AcDbLine
 10
194.957677
 20
139.297987
 30
0.0
 11
194.957677
 21
151.497259
 31
0.0
  0
LINE
  5
578
100
AcDbEntity
  8
0
  6
Continuous
 62
   174
100
AcDbLine
 10
110.957677
 20
152.397966
 30
0.0
 11
110.957677
 21
152.597227
 31
0.0
  0
LINE
  5
579
100
AcDbEntity
  8
0
  6
Continuous
 62
   174
100
AcDbLine
 10
112.957677
 20
152.597227
 30
0.0
 11
112.957677
 21
152.397966
 31
0.0
  0
LINE
  5
57A
100
AcDbEntity
  8
0
  6
Continuous
 62
   174
100
AcDbLine
 10
186.957677
 20
152.233624
 30
0.0
 11
186.947678
 21
152.224115
 31
0.0
  0
LINE
  5
57B
100
AcDbEntity
  8
0
  6
Continuous
 62
   174
100
AcDbLine
 10
112.957677
 20
143.705299
 30
0.0
 11
110.957677
 21
143.705299
 31
0.0
  0
CIRCLE
  5
57C
100
AcDbEntity
  8
0
  6
Continuous
 62
   174
100
AcDbCircle
 10
137.957677
 20
151.887563
 30
0.0
 40
7.5
  0
LINE
  5
57D
100
AcDbEntity
  8
0
  6
Continuous
 62
   174
100
AcDbLine
 10
106.957677
 20
141.615774
 30
0.0
 11
108.957677
 21
141.615774
 31
0.0
  0
LINE
  5
57E
100
AcDbEntity
  8
0
  6
Continuous
 62
   174
100
AcDbLine
 10
188.957677
 20
141.159556
 30
0.0
 11
186.957677
 21
141.159556
 31
0.0
  0
LINE
  5
57F
100
AcDbEntity
  8
0
  6
Continuous
 62
   174
100
AcDbLine
 10
192.957677
 20
145.392631
 30
0.0
 11
192.957677
 21
143.177401
 31
0.0
  0
LINE
  5
580
100
AcDbEntity
  8
0
  6
Continuous
 62
   174
100
AcDbLine
 10
108.957677
 20
138.209641
 30
0.0
 11
108.967675
 21
138.219609
 31
0.0
  0
LINE
  5
581
100
AcDbEntity
  8
0
  6
Continuous
 62
   174
100
AcDbLine
 10
112.957677
 20
143.705299
 30
0.0
 11
112.967675
 21
143.707642
 31
0.0
  0
LINE
  5
582
100
AcDbEntity
  8
0
  6
Continuous
 62
   174
100
AcDbLine
 10
112.957677
 20
152.39563
 30
0.0
 11
112.957677
 21
151.535497
 31
0.0
  0
LINE
  5
583
100
AcDbEntity
  8
0
  6
Continuous
 62
   174
100
AcDbLine
 10
181.957677
 20
139.942264
 30
0.0
 11
183.957677
 21
138.787563
 31
0.0
  0
LINE
  5
584
100
AcDbEntity
  8
0
  6
Continuous
 62
   174
100
AcDbLine
 10
194.457677
 20
138.787563
 30
0.0
 11
194.957677
 21
139.287563
 31
0.0
  0
LINE
  5
585
100
AcDbEntity
  8
0
  6
Continuous
 62
   174
100
AcDbLine
 10
188.957677
 20
152.597227
 30
0.0
 11
188.957677
 21
152.246291
 31
0.0
  0
LINE
  5
586
100
AcDbEntity
  8
0
  6
Continuous
 62
   174
100
AcDbLine
 10
110.957677
 20
143.715276
 30
0.0
 11
110.957677
 21
145.950899
 31
0.0
  0
LINE
  5
587
100
AcDbEntity
  8
0
  6
Continuous
 62
   174
100
AcDbLine
 10
188.967675
 20
151.201457
 30
0.0
 11
188.957677
 21
151.209545
 31
0.0
  0
LINE
  5
588
100
AcDbEntity
  8
0
  6
Continuous
 62
   174
100
AcDbLine
 10
188.957677
 20
139.570111
 30
0.0
 11
188.957677
 21
138.551929
 31
0.0
  0
LINE
  5
589
100
AcDbEntity
  8
0
  6
Continuous
 62
   174
100
AcDbLine
 10
190.957677
 20
149.63339
 30
0.0
 11
190.957677
 21
151.219187
 31
0.0
  0
LINE
  5
58A
100
AcDbEntity
  8
0
  6
Continuous
 62
   174
100
AcDbLine
 10
190.957677
 20
138.538413
 30
0.0
 11
190.947678
 21
138.547922
 31
0.0
  0
LINE
  5
58B
100
AcDbEntity
  8
0
  6
Continuous
 62
   174
100
AcDbLine
 10
188.957677
 20
149.623661
 30
0.0
 11
186.957677
 21
149.623661
 31
0.0
  0
LINE
  5
58C
100
AcDbEntity
  8
0
  6
Continuous
 62
   174
100
AcDbLine
 10
192.957677
 20
139.565581
 30
0.0
 11
192.967675
 21
139.57367
 31
0.0
  0
LINE
  5
58D
100
AcDbEntity
  8
0
  6
Continuous
 62
   174
100
AcDbLine
 10
186.457677
 20
145.397517
 30
0.0
 11
186.457677
 21
138.697869
 31
0.0
  0
LINE
  5
58E
100
AcDbEntity
  8
0
  6
Continuous
 62
   174
100
AcDbLine
 10
108.967675
 20
143.69792
 30
0.0
 11
108.957677
 21
143.695577
 31
0.0
  0
LINE
  5
58F
100
AcDbEntity
  8
0
  6
Continuous
 62
   174
100
AcDbLine
 10
106.957677
 20
152.397966
 30
0.0
 11
106.957677
 21
152.597227
 31
0.0
  0
LINE
  5
590
100
AcDbEntity
  8
0
  6
Continuous
 62
   174
100
AcDbLine
 10
186.957677
 20
143.157886
 30
0.0
 11
186.947678
 21
143.160976
 31
0.0
  0
LINE
  5
591
100
AcDbEntity
  8
0
  6
Continuous
 62
   174
100
AcDbLine
 10
112.957677
 20
138.209641
 30
0.0
 11
112.967675
 21
138.219609
 31
0.0
  0
LWPOLYLINE
  5
592
100
AcDbEntity
  8
0
  6
Continuous
 62
   174
100
AcDbPolyline
 90
        2
 70
   129
 10
112.967675
 20
148.137681
 10
112.967677
 20
148.13306
  0
LINE
  5
593
100
AcDbEntity
  8
0
  6
Continuous
 62
   174
100
AcDbLine
 10
106.957677
 20
143.715276
 30
0.0
 11
106.957677
 21
145.950899
 31
0.0
  0
LINE
  5
594
100
AcDbEntity
  8
0
  6
Continuous
 62
   174
100
AcDbLine
 10
106.957677
 20
138.220112
 30
0.0
 11
106.957677
 21
138.74163
 31
0.0
  0
LINE
  5
595
100
AcDbEntity
  8
0
  6
Continuous
 62
   174
100
AcDbLine
 10
192.957677
 20
138.541503
 30
0.0
 11
192.967675
 21
138.551012
 31
0.0
  0
LWPOLYLINE
  5
596
100
AcDbEntity
  8
0
  6
Continuous
 62
   174
100
AcDbPolyline
 90
        3
 70
   128
 10
186.947678
 20
145.382563
 10
186.947677
 20
145.387563
 10
186.947678
 20
145.392563
  0
LINE
  5
597
100
AcDbEntity
  8
0
  6
Continuous
 62
   174
100
AcDbLine
 10
112.957677
 20
152.388277
 30
0.0
 11
110.957677
 21
152.388277
 31
0.0
  0
LINE
  5
598
100
AcDbEntity
  8
0
  6
Continuous
 62
   174
100
AcDbLine
 10
110.957677
 20
151.535497
 30
0.0
 11
110.957677
 21
152.39563
 31
0.0
  0
LINE
  5
599
100
AcDbEntity
  8
0
  6
Continuous
 62
   174
100
AcDbLine
 10
110.957677
 20
143.695577
 30
0.0
 11
112.957677
 21
143.695577
 31
0.0
  0
LINE
  5
59A
100
AcDbEntity
  8
0
  6
Continuous
 62
   174
100
AcDbLine
 10
108.957677
 20
148.142125
 30
0.0
 11
108.957677
 21
145.960884
 31
0.0
  0
LINE
  5
59B
100
AcDbEntity
  8
0
  6
Continuous
 62
   174
100
AcDbLine
 10
183.957677
 20
151.997109
 30
0.0
 11
183.957677
 21
138.797924
 31
0.0
  0
LINE
  5
59C
100
AcDbEntity
  8
0
  6
Continuous
 62
   174
100
AcDbLine
 10
194.957677
 20
151.487563
 30
0.0
 11
194.457677
 21
151.987563
 31
0.0
  0
LINE
  5
59D
100
AcDbEntity
  8
0
  6
Continuous
 62
   174
100
AcDbLine
 10
106.957677
 20
148.132257
 30
0.0
 11
108.957677
 21
148.132257
 31
0.0
  0
LINE
  5
59E
100
AcDbEntity
  8
0
  6
Continuous
 62
   174
100
AcDbLine
 10
106.957677
 20
148.132257
 30
0.0
 11
106.947678
 21
148.128439
 31
0.0
  0
LINE
  5
59F
100
AcDbEntity
  8
0
  6
Continuous
 62
   174
100
AcDbLine
 10
192.957677
 20
149.623661
 30
0.0
 11
190.957677
 21
149.623661
 31
0.0
  0
LINE
  5
5A0
100
AcDbEntity
  8
0
  6
Continuous
 62
   174
100
AcDbLine
 10
192.957677
 20
141.159556
 30
0.0
 11
192.967675
 21
141.165433
 31
0.0
  0
LINE
  5
5A1
100
AcDbEntity
  8
0
  6
Continuous
 62
   174
100
AcDbLine
 10
188.967675
 20
152.577563
 30
0.0
 11
188.957677
 21
152.587562
 31
0.0
  0
LINE
  5
5A2
100
AcDbEntity
  8
0
  6
Continuous
 62
   174
100
AcDbLine
 10
110.947678
 20
148.137681
 30
0.0
 11
112.967675
 21
148.137681
 31
0.0
  0
LINE
  5
5A3
100
AcDbEntity
  8
0
  6
Continuous
 62
   174
100
AcDbLine
 10
192.967675
 20
151.201457
 30
0.0
 11
192.957677
 21
151.209545
 31
0.0
  0
LINE
  5
5A4
100
AcDbEntity
  8
0
  6
Continuous
 62
   174
100
AcDbLine
 10
192.967675
 20
143.160976
 30
0.0
 11
192.957677
 21
143.157886
 31
0.0
  0
LINE
  5
5A5
100
AcDbEntity
  8
0
  6
Continuous
 62
   174
100
AcDbLine
 10
115.957677
 20
151.987563
 30
0.0
 11
113.457677
 21
151.987563
 31
0.0
  0
LINE
  5
5A6
100
AcDbEntity
  8
0
  6
Continuous
 62
   174
100
AcDbLine
 10
190.957677
 20
151.209545
 30
0.0
 11
192.957677
 21
151.209545
 31
0.0
  0
LINE
  5
5A7
100
AcDbEntity
  8
0
  6
Continuous
 62
   174
100
AcDbLine
 10
188.967675
 20
143.160976
 30
0.0
 11
188.957677
 21
143.157886
 31
0.0
  0
LINE
  5
5A8
100
AcDbEntity
  8
0
  6
Continuous
 62
   174
100
AcDbLine
 10
188.967675
 20
138.547922
 30
0.0
 11
188.957677
 21
138.538413
 31
0.0
  0
LINE
  5
5A9
100
AcDbEntity
  8
0
  6
Continuous
 62
   174
100
AcDbLine
 10
192.957677
 20
139.570111
 30
0.0
 11
192.957677
 21
138.551929
 31
0.0
  0
LINE
  5
5AA
100
AcDbEntity
  8
0
  6
Continuous
 62
   174
100
AcDbLine
 10
108.967675
 20
151.512036
 30
0.0
 11
108.957677
 21
151.520556
 31
0.0
  0
LINE
  5
5AB
100
AcDbEntity
  8
0
  6
Continuous
 62
   174
100
AcDbLine
 10
186.947678
 20
151.207335
 30
0.0
 11
186.957677
 21
151.215423
 31
0.0
  0
LINE
  5
5AC
100
AcDbEntity
  8
0
  6
Continuous
 62
   174
100
AcDbLine
 10
189.457677
 20
138.697869
 30
0.0
 11
189.457677
 21
152.097164
 31
0.0
  0
LINE
  5
5AD
100
AcDbEntity
  8
0
  6
Continuous
 62
   174
100
AcDbLine
 10
186.957677
 20
147.627192
 30
0.0
 11
186.957677
 21
149.625318
 31
0.0
  0
LINE
  5
5AE
100
AcDbEntity
  8
0
  6
Continuous
 62
   174
100
AcDbLine
 10
106.947678
 20
145.950199
 30
0.0
 11
108.967675
 21
145.950199
 31
0.0
  0
LINE
  5
5AF
100
AcDbEntity
  8
0
  6
Continuous
 62
   174
100
AcDbLine
 10
190.957677
 20
149.615571
 30
0.0
 11
190.947678
 21
149.609694
 31
0.0
  0
LINE
  5
5B0
100
AcDbEntity
  8
0
  6
Continuous
 62
   174
100
AcDbLine
 10
194.457677
 20
151.997109
 30
0.0
 11
194.457677
 21
138.797924
 31
0.0
  0
LINE
  5
5B1
100
AcDbEntity
  8
0
  6
Continuous
 62
   174
100
AcDbLine
 10
110.947678
 20
145.950199
 30
0.0
 11
112.967675
 21
145.950199
 31
0.0
  0
LINE
  5
5B2
100
AcDbEntity
  8
0
  6
Continuous
 62
   174
100
AcDbLine
 10
192.967675
 20
141.157342
 30
0.0
 11
190.947678
 21
141.157342
 31
0.0
  0
LINE
  5
5B3
100
AcDbEntity
  8
0
  6
Continuous
 62
   174
100
AcDbLine
 10
106.947678
 20
148.137681
 30
0.0
 11
108.967675
 21
148.137681
 31
0.0
  0
LINE
  5
5B4
100
AcDbEntity
  8
0
  6
Continuous
 62
   174
100
AcDbLine
 10
181.957677
 20
171.887563
 30
0.0
 11
181.957677
 21
131.887563
 31
0.0
  0
LINE
  5
5B5
100
AcDbEntity
  8
0
  6
Continuous
 62
   174
100
AcDbLine
 10
188.957677
 20
149.623661
 30
0.0
 11
188.967675
 21
149.617784
 31
0.0
  0
LINE
  5
5B6
100
AcDbEntity
  8
0
  6
Continuous
 62
   174
100
AcDbLine
 10
190.957677
 20
145.402615
 30
0.0
 11
190.957677
 21
147.617633
 31
0.0
  0
LINE
  5
5B7
100
AcDbEntity
  8
0
  6
Continuous
 62
   174
100
AcDbLine
 10
186.457677
 20
152.097164
 30
0.0
 11
186.457677
 21
145.397517
 31
0.0
  0
LINE
  5
5B8
100
AcDbEntity
  8
0
  6
Continuous
 62
   174
100
AcDbLine
 10
190.957677
 20
151.225135
 30
0.0
 11
190.957677
 21
152.243317
 31
0.0
  0
LINE
  5
5B9
100
AcDbEntity
  8
0
  6
Continuous
 62
   174
100
AcDbLine
 10
110.957677
 20
145.960884
 30
0.0
 11
110.957677
 21
148.142125
 31
0.0
  0
LINE
  5
5BA
100
AcDbEntity
  8
0
  6
Continuous
 62
   174
100
AcDbLine
 10
112.967675
 20
145.940229
 30
0.0
 11
112.957677
 21
145.941004
 31
0.0
  0
LINE
  5
5BB
100
AcDbEntity
  8
0
  6
Continuous
 62
   174
100
AcDbLine
 10
188.955171
 20
138.187565
 30
0.0
 11
186.960183
 21
138.187565
 31
0.0
  0
LINE
  5
5BC
100
AcDbEntity
  8
0
  6
Continuous
 62
   174
100
AcDbLine
 10
188.967675
 20
152.224115
 30
0.0
 11
188.957677
 21
152.233624
 31
0.0
  0
LINE
  5
5BD
100
AcDbEntity
  8
0
  6
Continuous
 62
   174
100
AcDbLine
 10
112.967675
 20
151.512036
 30
0.0
 11
112.957677
 21
151.520556
 31
0.0
  0
LINE
  5
5BE
100
AcDbEntity
  8
0
  6
Continuous
 62
   174
100
AcDbLine
 10
186.957677
 20
143.157886
 30
0.0
 11
188.957677
 21
143.157886
 31
0.0
  0
LWPOLYLINE
  5
5BF
100
AcDbEntity
  8
0
  6
Continuous
 62
   174
100
AcDbPolyline
 90
        3
 70
   128
 10
188.967675
 20
145.392563
 10
188.967677
 20
145.387563
 10
188.967675
 20
145.382563
  0
LINE
  5
5C0
100
AcDbEntity
  8
0
  6
Continuous
 62
   174
100
AcDbLine
 10
186.957677
 20
138.198019
 30
0.0
 11
186.957677
 21
138.548743
 31
0.0
  0
LINE
  5
5C1
100
AcDbEntity
  8
0
  6
Continuous
 62
   174
100
AcDbLine
 10
110.957677
 20
150.054839
 30
0.0
 11
110.947678
 21
150.048353
 31
0.0
  0
LINE
  5
5C2
100
AcDbEntity
  8
0
  6
Continuous
 62
   174
100
AcDbLine
 10
190.957677
 20
138.538413
 30
0.0
 11
192.957677
 21
138.538413
 31
0.0
  0
LINE
  5
5C3
100
AcDbEntity
  8
0
  6
Continuous
 62
   174
100
AcDbLine
 10
106.957677
 20
150.072272
 30
0.0
 11
106.957677
 21
151.530186
 31
0.0
  0
LINE
  5
5C4
100
AcDbEntity
  8
0
  6
Continuous
 62
   174
100
AcDbLine
 10
190.947678
 20
138.197563
 30
0.0
 11
190.957677
 21
138.187565
 31
0.0
  0
LINE
  5
5C5
100
AcDbEntity
  8
0
  6
Continuous
 62
   174
100
AcDbLine
 10
113.457677
 20
138.787563
 30
0.0
 11
115.957677
 21
138.787563
 31
0.0
  0
LINE
  5
5C6
100
AcDbEntity
  8
0
  6
Continuous
 62
   174
100
AcDbLine
 10
186.957677
 20
138.551929
 30
0.0
 11
186.957677
 21
139.570111
 31
0.0
  0
LINE
  5
5C7
100
AcDbEntity
  8
0
  6
Continuous
 62
   174
100
AcDbLine
 10
181.957677
 20
131.887563
 30
0.0
 11
117.957677
 21
131.887563
 31
0.0
  0
LINE
  5
5C8
100
AcDbEntity
  8
0
  6
Continuous
 62
   174
100
AcDbLine
 10
108.957677
 20
148.141499
 30
0.0
 11
108.967675
 21
148.137681
 31
0.0
  0
LINE
  5
5C9
100
AcDbEntity
  8
0
  6
Continuous
 62
   174
100
AcDbLine
 10
186.957677
 20
139.559704
 30
0.0
 11
186.947678
 21
139.567792
 31
0.0
  0
LINE
  5
5CA
100
AcDbEntity
  8
0
  6
Continuous
 62
   174
100
AcDbLine
 10
192.957677
 20
149.625318
 30
0.0
 11
192.957677
 21
147.627192
 31
0.0
  0
LINE
  5
5CB
100
AcDbEntity
  8
0
  6
Continuous
 62
   174
100
AcDbLine
 10
190.960183
 20
152.587562
 30
0.0
 11
192.955171
 21
152.587562
 31
0.0
  0
LINE
  5
5CC
100
AcDbEntity
  8
0
  6
Continuous
 62
   174
100
AcDbLine
 10
193.457677
 20
138.697869
 30
0.0
 11
193.457677
 21
152.097164
 31
0.0
  0
LINE
  5
5CD
100
AcDbEntity
  8
0
  6
Continuous
 62
   174
100
AcDbLine
 10
188.957677
 20
151.215423
 30
0.0
 11
186.957677
 21
151.215423
 31
0.0
  0
LINE
  5
5CE
100
AcDbEntity
  8
0
  6
Continuous
 62
   174
100
AcDbLine
 10
192.967675
 20
143.160976
 30
0.0
 11
190.947678
 21
143.160976
 31
0.0
  0
LINE
  5
5CF
100
AcDbEntity
  8
0
  6
Continuous
 62
   174
100
AcDbLine
 10
186.957677
 20
151.209545
 30
0.0
 11
188.957677
 21
151.209545
 31
0.0
  0
LINE
  5
5D0
100
AcDbEntity
  8
0
  6
Continuous
 62
   174
100
AcDbLine
 10
106.947678
 20
150.055963
 30
0.0
 11
106.957677
 21
150.062449
 31
0.0
  0
LINE
  5
5D1
100
AcDbEntity
  8
0
  6
Continuous
 62
   174
100
AcDbLine
 10
106.957677
 20
151.520556
 30
0.0
 11
108.957677
 21
151.520556
 31
0.0
  0
LINE
  5
5D2
100
AcDbEntity
  8
0
  6
Continuous
 62
   174
100
AcDbLine
 10
188.957677
 20
141.161644
 30
0.0
 11
188.957677
 21
139.575846
 31
0.0
  0
LINE
  5
5D3
100
AcDbEntity
  8
0
  6
Continuous
 62
   174
100
AcDbLine
 10
106.957677
 20
138.187563
 30
0.0
 11
108.957677
 21
138.187563
 31
0.0
  0
LINE
  5
5D4
100
AcDbEntity
  8
0
  6
Continuous
 62
   174
100
AcDbLine
 10
188.957677
 20
149.625318
 30
0.0
 11
188.957677
 21
147.627192
 31
0.0
  0
LINE
  5
5D5
100
AcDbEntity
  8
0
  6
Continuous
 62
   174
100
AcDbLine
 10
110.957677
 20
138.208866
 30
0.0
 11
110.947678
 21
138.218834
 31
0.0
  0
LINE
  5
5D6
100
AcDbEntity
  8
0
  6
Continuous
 62
   174
100
AcDbLine
 10
112.957677
 20
150.064625
 30
0.0
 11
112.957677
 21
148.151259
 31
0.0
  0
LINE
  5
5D7
100
AcDbEntity
  8
0
  6
Continuous
 62
   174
100
AcDbLine
 10
108.957677
 20
150.062449
 30
0.0
 11
106.957677
 21
150.062449
 31
0.0
  0
LINE
  5
5D8
100
AcDbEntity
  8
0
  6
Continuous
 62
   174
100
AcDbLine
 10
108.957677
 20
143.705299
 30
0.0
 11
108.967675
 21
143.707642
 31
0.0
  0
LINE
  5
5D9
100
AcDbEntity
  8
0
  6
Continuous
 62
   174
100
AcDbLine
 10
112.957677
 20
143.705717
 30
0.0
 11
112.957677
 21
141.634515
 31
0.0
  0
LINE
  5
5DA
100
AcDbEntity
  8
0
  6
Continuous
 62
   174
100
AcDbLine
 10
190.957677
 20
143.157886
 30
0.0
 11
190.947678
 21
143.160976
 31
0.0
  0
LINE
  5
5DB
100
AcDbEntity
  8
0
  6
Continuous
 62
   174
100
AcDbLine
 10
186.957677
 20
138.538413
 30
0.0
 11
188.957677
 21
138.538413
 31
0.0
  0
LINE
  5
5DC
100
AcDbEntity
  8
0
  6
Continuous
 62
   174
100
AcDbLine
 10
112.957677
 20
138.219262
 30
0.0
 11
112.957677
 21
138.198019
 31
0.0
  0
LINE
  5
5DD
100
AcDbEntity
  8
0
  6
Continuous
 62
   174
100
AcDbLine
 10
108.957677
 20
138.74163
 30
0.0
 11
108.957677
 21
138.220112
 31
0.0
  0
LINE
  5
5DE
100
AcDbEntity
  8
0
  6
Continuous
 62
   174
100
AcDbLine
 10
186.947678
 20
149.617784
 30
0.0
 11
186.957677
 21
149.623661
 31
0.0
  0
LINE
  5
5DF
100
AcDbEntity
  8
0
  6
Continuous
 62
   174
100
AcDbLine
 10
188.967675
 20
143.160976
 30
0.0
 11
186.947678
 21
143.160976
 31
0.0
  0
LINE
  5
5E0
100
AcDbEntity
  8
0
  6
Continuous
 62
   174
100
AcDbLine
 10
188.967675
 20
139.567792
 30
0.0
 11
188.957677
 21
139.559704
 31
0.0
  0
LINE
  5
5E1
100
AcDbEntity
  8
0
  6
Continuous
 62
   174
100
AcDbLine
 10
192.957677
 20
152.236714
 30
0.0
 11
192.967675
 21
152.227205
 31
0.0
  0
LINE
  5
5E2
100
AcDbEntity
  8
0
  6
Continuous
 62
   174
100
AcDbLine
 10
110.947678
 20
145.950199
 30
0.0
 11
110.957677
 21
145.950974
 31
0.0
  0
LINE
  5
5E3
100
AcDbEntity
  8
0
  6
Continuous
 62
   174
100
AcDbLine
 10
106.957677
 20
152.385933
 30
0.0
 11
106.947678
 21
152.376214
 31
0.0
  0
LINE
  5
5E4
100
AcDbEntity
  8
0
  6
Continuous
 62
   174
100
AcDbLine
 10
115.957677
 20
139.297987
 30
0.0
 11
115.957677
 21
151.997109
 31
0.0
  0
LINE
  5
5E5
100
AcDbEntity
  8
0
  6
Continuous
 62
   174
100
AcDbLine
 10
117.957677
 20
131.887563
 30
0.0
 11
117.957677
 21
171.887563
 31
0.0
  0
LINE
  5
5E6
100
AcDbEntity
  8
0
  6
Continuous
 62
   174
100
AcDbLine
 10
106.947678
 20
152.378557
 30
0.0
 11
106.957677
 21
152.388277
 31
0.0
  0
LINE
  5
5E7
100
AcDbEntity
  8
0
  6
Continuous
 62
   174
100
AcDbLine
 10
186.957677
 20
149.63339
 30
0.0
 11
186.957677
 21
151.219187
 31
0.0
  0
LINE
  5
5E8
100
AcDbEntity
  8
0
  6
Continuous
 62
   174
100
AcDbLine
 10
186.947678
 20
138.551012
 30
0.0
 11
186.957677
 21
138.541503
 31
0.0
  0
LWPOLYLINE
  5
5E9
100
AcDbEntity
  8
0
  6
Continuous
 62
   174
100
AcDbPolyline
 90
        3
 70
   128
 10
110.947678
 20
138.740479
 10
110.947677
 20
138.742389
 10
110.947678
 20
138.744298
  0
LINE
  5
5EA
100
AcDbEntity
  8
0
  6
Continuous
 62
   174
100
AcDbLine
 10
110.957677
 20
145.941004
 30
0.0
 11
110.947678
 21
145.940229
 31
0.0
  0
CIRCLE
  5
5EB
100
AcDbEntity
  8
0
  6
Continuous
 62
   174
100
AcDbCircle
 10
137.957677
 20
135.887563
 30
0.0
 40
2.75
  0
LINE
  5
5EC
100
AcDbEntity
  8
0
  6
Continuous
 62
   174
100
AcDbLine
 10
190.957677
 20
147.627192
 30
0.0
 11
190.957677
 21
149.625318
 31
0.0
  0
LINE
  5
5ED
100
AcDbEntity
  8
0
  6
Continuous
 62
   174
100
AcDbLine
 10
106.957677
 20
145.941004
 30
0.0
 11
108.957677
 21
145.941004
 31
0.0
  0
LINE
  5
5EE
100
AcDbEntity
  8
0
  6
Continuous
 62
   174
100
AcDbLine
 10
110.947678
 20
143.69792
 30
0.0
 11
112.967675
 21
143.69792
 31
0.0
  0
LINE
  5
5EF
100
AcDbEntity
  8
0
  6
Continuous
 62
   174
100
AcDbLine
 10
110.457677
 20
151.987563
 30
0.0
 11
109.457677
 21
151.987563
 31
0.0
  0
LINE
  5
5F0
100
AcDbEntity
  8
0
  6
Continuous
 62
   174
100
AcDbLine
 10
192.967675
 20
152.577563
 30
0.0
 11
192.957677
 21
152.587562
 31
0.0
  0
LINE
  5
5F1
100
AcDbEntity
  8
0
  6
Continuous
 62
   174
100
AcDbLine
 10
188.957677
 20
152.236714
 30
0.0
 11
188.967675
 21
152.227205
 31
0.0
  0
LINE
  5
5F2
100
AcDbEntity
  8
0
  6
Continuous
 62
   174
100
AcDbLine
 10
192.957677
 20
141.161644
 30
0.0
 11
192.957677
 21
139.575846
 31
0.0
  0
LINE
  5
5F3
100
AcDbEntity
  8
0
  6
Continuous
 62
   174
100
AcDbLine
 10
190.947678
 20
141.165433
 30
0.0
 11
190.957677
 21
141.159556
 31
0.0
  0
CIRCLE
  5
5F4
100
AcDbEntity
  8
0
  6
Continuous
 62
   174
100
AcDbCircle
 10
161.957677
 20
167.887563
 30
0.0
 40
2.75
  0
LINE
  5
5F5
100
AcDbEntity
  8
0
  6
Continuous
 62
   174
100
AcDbLine
 10
186.957677
 20
152.233624
 30
0.0
 11
188.957677
 21
152.233624
 31
0.0
  0
LINE
  5
5F6
100
AcDbEntity
  8
0
  6
Continuous
 62
   174
100
AcDbLine
 10
190.457677
 20
145.397517
 30
0.0
 11
190.457677
 21
138.697869
 31
0.0
  0
LINE
  5
5F7
100
AcDbEntity
  8
0
  6
Continuous
 62
   174
100
AcDbLine
 10
110.457677
 20
139.205579
 30
0.0
 11
110.457677
 21
138.697869
 31
0.0
  0
LWPOLYLINE
  5
5F8
100
AcDbEntity
  8
0
  6
Continuous
 62
   174
100
AcDbPolyline
 90
        3
 70
   128
 10
108.967675
 20
138.744298
 10
108.967677
 20
138.742389
 10
108.967675
 20
138.740479
  0
LINE
  5
5F9
100
AcDbEntity
  8
0
  6
Continuous
 62
   174
100
AcDbLine
 10
186.957677
 20
139.559704
 30
0.0
 11
188.957677
 21
139.559704
 31
0.0
  0
LWPOLYLINE
  5
5FA
100
AcDbEntity
  8
0
  6
Continuous
 62
   174
100
AcDbPolyline
 90
        2
 70
   129
 10
110.947678
 20
148.128439
 10
110.947677
 20
148.13306
  0
LINE
  5
5FB
100
AcDbEntity
  8
0
  6
Continuous
 62
   174
100
AcDbLine
 10
115.957677
 20
138.787563
 30
0.0
 11
117.957677
 21
139.942264
 31
0.0
  0
LINE
  5
5FC
100
AcDbEntity
  8
0
  6
Continuous
 62
   174
100
AcDbLine
 10
110.957677
 20
138.731239
 30
0.0
 11
110.947678
 21
138.740479
 31
0.0
  0
LINE
  5
5FD
100
AcDbEntity
  8
0
  6
Continuous
 62
   174
100
AcDbLine
 10
112.957677
 20
148.141499
 30
0.0
 11
110.957677
 21
148.141499
 31
0.0
  0
LWPOLYLINE
  5
5FE
100
AcDbEntity
  8
0
  6
Continuous
 62
   174
100
AcDbPolyline
 90
        3
 70
   128
 10
192.967675
 20
145.392563
 10
192.967677
 20
145.387563
 10
192.967675
 20
145.382563
  0
LINE
  5
5FF
100
AcDbEntity
  8
0
  6
Continuous
 62
   174
100
AcDbLine
 10
192.967675
 20
152.224115
 30
0.0
 11
192.957677
 21
152.233624
 31
0.0
  0
CIRCLE
  5
600
100
AcDbEntity
  8
0
  6
Continuous
 62
   174
100
AcDbCircle
 10
137.957677
 20
156.887563
 30
0.0
 40
2.5
  0
LINE
  5
601
100
AcDbEntity
  8
0
  6
Continuous
 62
   174
100
AcDbLine
 10
188.957677
 20
139.565581
 30
0.0
 11
188.967675
 21
139.57367
 31
0.0
  0
LINE
  5
602
100
AcDbEntity
  8
0
  6
Continuous
 62
   174
100
AcDbLine
 10
192.957677
 20
151.215423
 30
0.0
 11
192.967675
 21
151.207335
 31
0.0
  0
LINE
  5
603
100
AcDbEntity
  8
0
  6
Continuous
 62
   174
100
AcDbLine
 10
106.957677
 20
148.151259
 30
0.0
 11
106.957677
 21
150.064625
 31
0.0
  0
LINE
  5
604
100
AcDbEntity
  8
0
  6
Continuous
 62
   174
100
AcDbLine
 10
108.957677
 20
150.064625
 30
0.0
 11
108.957677
 21
148.151259
 31
0.0
  0
LINE
  5
605
100
AcDbEntity
  8
0
  6
Continuous
 62
   174
100
AcDbLine
 10
190.957677
 20
143.157886
 30
0.0
 11
192.957677
 21
143.157886
 31
0.0
  0
LINE
  5
606
100
AcDbEntity
  8
0
  6
Continuous
 62
   174
100
AcDbLine
 10
112.957677
 20
141.626018
 30
0.0
 11
112.957677
 21
139.921896
 31
0.0
  0
LINE
  5
607
100
AcDbEntity
  8
0
  6
Continuous
 62
   174
100
AcDbLine
 10
117.957677
 20
171.887563
 30
0.0
 11
181.957677
 21
171.887563
 31
0.0
  0
LINE
  5
608
100
AcDbEntity
  8
0
  6
Continuous
 62
   174
100
AcDbLine
 10
190.947678
 20
151.207335
 30
0.0
 11
190.957677
 21
151.215423
 31
0.0
  0
LINE
  5
609
100
AcDbEntity
  8
0
  6
Continuous
 62
   174
100
AcDbLine
 10
110.957677
 20
151.520556
 30
0.0
 11
110.947678
 21
151.512036
 31
0.0
  0
LINE
  5
60A
100
AcDbEntity
  8
0
  6
Continuous
 62
   174
100
AcDbLine
 10
112.967675
 20
150.048353
 30
0.0
 11
112.957677
 21
150.054839
 31
0.0
  0
LINE
  5
60B
100
AcDbEntity
  8
0
  6
Continuous
 62
   174
100
AcDbLine
 10
110.957677
 20
139.921896
 30
0.0
 11
110.957677
 21
141.626018
 31
0.0
  0
LINE
  5
60C
100
AcDbEntity
  8
0
  6
Continuous
 62
   174
100
AcDbLine
 10
186.947678
 20
139.57367
 30
0.0
 11
186.957677
 21
139.565581
 31
0.0
  0
LINE
  5
60D
100
AcDbEntity
  8
0
  6
Continuous
 62
   174
100
AcDbLine
 10
192.957677
 20
143.167397
 30
0.0
 11
190.957677
 21
143.167397
 31
0.0
  0
LINE
  5
60E
100
AcDbEntity
  8
0
  6
Continuous
 62
   174
100
AcDbLine
 10
106.957677
 20
150.054839
 30
0.0
 11
108.957677
 21
150.054839
 31
0.0
  0
LINE
  5
60F
100
AcDbEntity
  8
0
  6
Continuous
 62
   174
100
AcDbLine
 10
106.957677
 20
138.731239
 30
0.0
 11
108.957677
 21
138.731239
 31
0.0
  0
LWPOLYLINE
  5
610
100
AcDbEntity
  8
0
  6
Continuous
 62
   174
100
AcDbPolyline
 90
        2
 70
   129
 10
106.947678
 20
148.128439
 10
106.947677
 20
148.13306
  0
LINE
  5
611
100
AcDbEntity
  8
0
  6
Continuous
 62
   174
100
AcDbLine
 10
192.967675
 20
138.547922
 30
0.0
 11
192.957677
 21
138.538413
 31
0.0
  0
LINE
  5
612
100
AcDbEntity
  8
0
  6
Continuous
 62
   174
100
AcDbLine
 10
108.957677
 20
138.219262
 30
0.0
 11
108.957677
 21
138.198019
 31
0.0
  0
LINE
  5
613
100
AcDbEntity
  8
0
  6
Continuous
 62
   174
100
AcDbLine
 10
109.457677
 20
138.787563
 30
0.0
 11
110.457677
 21
138.787563
 31
0.0
  0
LINE
  5
614
100
AcDbEntity
  8
0
  6
Continuous
 62
   174
100
AcDbLine
 10
190.957677
 20
139.575846
 30
0.0
 11
190.957677
 21
141.161644
 31
0.0
  0
LINE
  5
615
100
AcDbEntity
  8
0
  6
Continuous
 62
   174
100
AcDbLine
 10
188.957677
 20
143.167397
 30
0.0
 11
186.957677
 21
143.167397
 31
0.0
  0
LINE
  5
616
100
AcDbEntity
  8
0
  6
Continuous
 62
   174
100
AcDbLine
 10
112.957677
 20
151.530186
 30
0.0
 11
112.957677
 21
150.072272
 31
0.0
  0
LINE
  5
617
100
AcDbEntity
  8
0
  6
Continuous
 62
   174
100
AcDbLine
 10
186.947678
 20
138.197563
 30
0.0
 11
186.957677
 21
138.187565
 31
0.0
  0
LINE
  5
618
100
AcDbEntity
  8
0
  6
Continuous
 62
   174
100
AcDbLine
 10
115.957677
 20
138.797924
 30
0.0
 11
115.957677
 21
139.297987
 31
0.0
  0
LINE
  5
619
100
AcDbEntity
  8
0
  6
Continuous
 62
   174
100
AcDbLine
 10
106.457677
 20
139.205579
 30
0.0
 11
106.457677
 21
138.697869
 31
0.0
  0
LINE
  5
61A
100
AcDbEntity
  8
0
  6
Continuous
 62
   174
100
AcDbLine
 10
110.947678
 20
150.055963
 30
0.0
 11
112.967675
 21
150.055963
 31
0.0
  0
LINE
  5
61B
100
AcDbEntity
  8
0
  6
Continuous
 62
   174
100
AcDbLine
 10
108.957677
 20
150.062449
 30
0.0
 11
108.967675
 21
150.055963
 31
0.0
  0
LINE
  5
61C
100
AcDbEntity
  8
0
  6
Continuous
 62
   174
100
AcDbLine
 10
106.957677
 20
143.695577
 30
0.0
 11
108.957677
 21
143.695577
 31
0.0
  0
LINE
  5
61D
100
AcDbEntity
  8
0
  6
Continuous
 62
   174
100
AcDbLine
 10
112.957677
 20
148.142125
 30
0.0
 11
112.957677
 21
145.960884
 31
0.0
  0
LINE
  5
61E
100
AcDbEntity
  8
0
  6
Continuous
 62
   174
100
AcDbLine
 10
108.957677
 20
143.705717
 30
0.0
 11
108.957677
 21
141.634515
 31
0.0
  0
LINE
  5
61F
100
AcDbEntity
  8
0
  6
Continuous
 62
   174
100
AcDbLine
 10
192.967675
 20
139.567792
 30
0.0
 11
192.957677
 21
139.559704
 31
0.0
  0
LINE
  5
620
100
AcDbEntity
  8
0
  6
Continuous
 62
   174
100
AcDbLine
 10
106.947678
 20
138.744298
 30
0.0
 11
106.957677
 21
138.735057
 31
0.0
  0
LINE
  5
621
100
AcDbEntity
  8
0
  6
Continuous
 62
   174
100
AcDbLine
 10
117.957677
 20
150.832863
 30
0.0
 11
115.957677
 21
151.987563
 31
0.0
  0
LINE
  5
622
100
AcDbEntity
  8
0
  6
Continuous
 62
   174
100
AcDbLine
 10
112.957677
 20
145.950974
 30
0.0
 11
112.967675
 21
145.950199
 31
0.0
  0
LINE
  5
623
100
AcDbEntity
  8
0
  6
Continuous
 62
   174
100
AcDbLine
 10
110.957677
 20
141.634515
 30
0.0
 11
110.957677
 21
143.705717
 31
0.0
  0
LINE
  5
624
100
AcDbEntity
  8
0
  6
Continuous
 62
   174
100
AcDbLine
 10
186.957677
 20
145.382563
 30
0.0
 11
188.957677
 21
145.382563
 31
0.0
  0
LINE
  5
625
100
AcDbEntity
  8
0
  6
Continuous
 62
   174
100
AcDbLine
 10
108.957677
 20
148.141499
 30
0.0
 11
106.957677
 21
148.141499
 31
0.0
  0
LINE
  5
626
100
AcDbEntity
  8
0
  6
Continuous
 62
   174
100
AcDbLine
 10
104.957677
 20
139.760024
 30
0.0
 11
104.957677
 21
139.297987
 31
0.0
  0
LINE
  5
627
100
AcDbEntity
  8
0
  6
Continuous
 62
   174
100
AcDbLine
 10
108.957677
 20
152.388277
 30
0.0
 11
108.967675
 21
152.378557
 31
0.0
  0
LINE
  5
628
100
AcDbEntity
  8
0
  6
Continuous
 62
   174
100
AcDbLine
 10
106.957677
 20
138.208866
 30
0.0
 11
108.957677
 21
138.208866
 31
0.0
  0
LINE
  5
629
100
AcDbEntity
  8
0
  6
Continuous
 62
   174
100
AcDbLine
 10
105.457677
 20
139.297987
 30
0.0
 11
105.457677
 21
151.997109
 31
0.0
  0
LINE
  5
62A
100
AcDbEntity
  8
0
  6
Continuous
 62
   174
100
AcDbLine
 10
110.457677
 20
152.097164
 30
0.0
 11
110.457677
 21
139.205579
 31
0.0
  0
LINE
  5
62B
100
AcDbEntity
  8
0
  6
Continuous
 62
   174
100
AcDbLine
 10
112.957677
 20
151.525789
 30
0.0
 11
112.967675
 21
151.517269
 31
0.0
  0
LINE
  5
62C
100
AcDbEntity
  8
0
  6
Continuous
 62
   174
100
AcDbLine
 10
112.957677
 20
139.915524
 30
0.0
 11
112.957677
 21
138.745454
 31
0.0
  0
LINE
  5
62D
100
AcDbEntity
  8
0
  6
Continuous
 62
   174
100
AcDbLine
 10
186.957677
 20
149.615571
 30
0.0
 11
186.947678
 21
149.609694
 31
0.0
  0
LINE
  5
62E
100
AcDbEntity
  8
0
  6
Continuous
 62
   174
100
AcDbLine
 10
190.457677
 20
152.097164
 30
0.0
 11
190.457677
 21
145.397517
 31
0.0
  0
LINE
  5
62F
100
AcDbEntity
  8
0
  6
Continuous
 62
   174
100
AcDbLine
 10
113.457677
 20
138.697869
 30
0.0
 11
113.457677
 21
152.097164
 31
0.0
  0
LINE
  5
630
100
AcDbEntity
  8
0
  6
Continuous
 62
   174
100
AcDbLine
 10
106.947678
 20
138.219609
 30
0.0
 11
106.957677
 21
138.209641
 31
0.0
  0
LINE
  5
631
100
AcDbEntity
  8
0
  6
Continuous
 62
   174
100
AcDbLine
 10
190.957677
 20
152.587562
 30
0.0
 11
190.947678
 21
152.577563
 31
0.0
  0
LINE
  5
632
100
AcDbEntity
  8
0
  6
Continuous
 62
   174
100
AcDbLine
 10
193.457677
 20
138.787563
 30
0.0
 11
194.457677
 21
138.787563
 31
0.0
  0
LINE
  5
633
100
AcDbEntity
  8
0
  6
Continuous
 62
   174
100
AcDbLine
 10
192.957677
 20
151.219187
 30
0.0
 11
192.957677
 21
149.63339
 31
0.0
  0
LINE
  5
634
100
AcDbEntity
  8
0
  6
Continuous
 62
   174
100
AcDbLine
 10
112.967675
 20
138.218834
 30
0.0
 11
112.957677
 21
138.208866
 31
0.0
  0
LINE
  5
635
100
AcDbEntity
  8
0
  6
Continuous
 62
   174
100
AcDbLine
 10
186.947678
 20
152.227205
 30
0.0
 11
186.957677
 21
152.236714
 31
0.0
  0
LINE
  5
636
100
AcDbEntity
  8
0
  6
Continuous
 62
   174
100
AcDbLine
 10
190.957677
 20
138.551929
 30
0.0
 11
190.957677
 21
139.570111
 31
0.0
  0
LINE
  5
637
100
AcDbEntity
  8
0
  6
Continuous
 62
   174
100
AcDbLine
 10
112.967675
 20
148.128439
 30
0.0
 11
112.957677
 21
148.132257
 31
0.0
  0
LWPOLYLINE
  5
638
100
AcDbEntity
  8
0
  6
Continuous
 62
   174
100
AcDbPolyline
 90
        2
 70
   129
 10
188.967675
 20
152.577563
 10
188.967677
 20
152.577563
  0
CIRCLE
  5
639
100
AcDbEntity
  8
0
  6
Continuous
 62
   174
100
AcDbCircle
 10
161.957677
 20
151.887563
 30
0.0
 40
7.5
  0
LINE
  5
63A
100
AcDbEntity
  8
0
  6
Continuous
 62
   174
100
AcDbLine
 10
110.957677
 20
152.385933
 30
0.0
 11
110.947678
 21
152.376214
 31
0.0
  0
LINE
  5
63B
100
AcDbEntity
  8
0
  6
Continuous
 62
   174
100
AcDbLine
 10
188.957677
 20
145.392631
 30
0.0
 11
188.957677
 21
143.177401
 31
0.0
  0
LINE
  5
63C
100
AcDbEntity
  8
0
  6
Continuous
 62
   174
100
AcDbLine
 10
108.967675
 20
138.218834
 30
0.0
 11
108.957677
 21
138.208866
 31
0.0
  0
LINE
  5
63D
100
AcDbEntity
  8
0
  6
Continuous
 62
   174
100
AcDbLine
 10
106.957677
 20
139.921896
 30
0.0
 11
106.957677
 21
141.626018
 31
0.0
  0
LINE
  5
63E
100
AcDbEntity
  8
0
  6
Continuous
 62
   174
100
AcDbLine
 10
110.957677
 20
150.072272
 30
0.0
 11
110.957677
 21
151.530186
 31
0.0
  0
LINE
  5
63F
100
AcDbEntity
  8
0
  6
Continuous
 62
   174
100
AcDbLine
 10
112.957677
 20
138.74163
 30
0.0
 11
112.957677
 21
138.220112
 31
0.0
  0
LINE
  5
640
100
AcDbEntity
  8
0
  6
Continuous
 62
   174
100
AcDbLine
 10
192.967675
 20
149.609694
 30
0.0
 11
192.957677
 21
149.615571
 31
0.0
  0
LINE
  5
641
100
AcDbEntity
  8
0
  6
Continuous
 62
   174
100
AcDbLine
 10
192.957677
 20
152.236714
 30
0.0
 11
190.957677
 21
152.236714
 31
0.0
  0
LINE
  5
642
100
AcDbEntity
  8
0
  6
Continuous
 62
   174
100
AcDbLine
 10
188.957677
 20
138.541503
 30
0.0
 11
186.957677
 21
138.541503
 31
0.0
  0
LINE
  5
643
100
AcDbEntity
  8
0
  6
Continuous
 62
   174
100
AcDbLine
 10
192.967675
 20
141.157342
 30
0.0
 11
192.957677
 21
141.151466
 31
0.0
  0
LINE
  5
644
100
AcDbEntity
  8
0
  6
Continuous
 62
   174
100
AcDbLine
 10
186.947678
 20
143.170487
 30
0.0
 11
186.957677
 21
143.167397
 31
0.0
  0
LINE
  5
645
100
AcDbEntity
  8
0
  6
Continuous
 62
   174
100
AcDbLine
 10
186.957677
 20
152.246291
 30
0.0
 11
186.957677
 21
152.597227
 31
0.0
  0
LINE
  5
646
100
AcDbEntity
  8
0
  6
Continuous
 62
   174
100
AcDbLine
 10
108.957677
 20
143.705299
 30
0.0
 11
106.957677
 21
143.705299
 31
0.0
  0
LINE
  5
647
100
AcDbEntity
  8
0
  6
Continuous
 62
   174
100
AcDbLine
 10
108.957677
 20
151.525789
 30
0.0
 11
108.967675
 21
151.517269
 31
0.0
  0
LINE
  5
648
100
AcDbEntity
  8
0
  6
Continuous
 62
   174
100
AcDbLine
 10
106.947678
 20
141.629527
 30
0.0
 11
106.957677
 21
141.624296
 31
0.0
  0
LINE
  5
649
100
AcDbEntity
  8
0
  6
Continuous
 62
   174
100
AcDbLine
 10
112.957677
 20
141.624296
 30
0.0
 11
112.967675
 21
141.629527
 31
0.0
  0
LINE
  5
64A
100
AcDbEntity
  8
0
  6
Continuous
 62
   174
100
AcDbLine
 10
188.957677
 20
141.159556
 30
0.0
 11
188.967675
 21
141.165433
 31
0.0
  0
LINE
  5
64B
100
AcDbEntity
  8
0
  6
Continuous
 62
   174
100
AcDbLine
 10
108.967675
 20
152.376214
 30
0.0
 11
108.957677
 21
152.385933
 31
0.0
  0
LINE
  5
64C
100
AcDbEntity
  8
0
  6
Continuous
 62
   174
100
AcDbLine
 10
110.957677
 20
152.385933
 30
0.0
 11
112.957677
 21
152.385933
 31
0.0
  0
LINE
  5
64D
100
AcDbEntity
  8
0
  6
Continuous
 62
   174
100
AcDbLine
 10
112.957677
 20
138.209641
 30
0.0
 11
110.957677
 21
138.209641
 31
0.0
  0
LINE
  5
64E
100
AcDbEntity
  8
0
  6
Continuous
 62
   174
100
AcDbLine
 10
106.957677
 20
145.960884
 30
0.0
 11
106.957677
 21
148.142125
 31
0.0
  0
LINE
  5
64F
100
AcDbEntity
  8
0
  6
Continuous
 62
   174
100
AcDbLine
 10
192.955171
 20
138.187565
 30
0.0
 11
190.960183
 21
138.187565
 31
0.0
  0
LINE
  5
650
100
AcDbEntity
  8
0
  6
Continuous
 62
   174
100
AcDbLine
 10
105.457677
 20
151.987563
 30
0.0
 11
104.957677
 21
151.487563
 31
0.0
  0
LINE
  5
651
100
AcDbEntity
  8
0
  6
Continuous
 62
   174
100
AcDbLine
 10
106.457677
 20
152.097164
 30
0.0
 11
106.457677
 21
139.205579
 31
0.0
  0
LINE
  5
652
100
AcDbEntity
  8
0
  6
Continuous
 62
   174
100
AcDbLine
 10
112.967675
 20
141.621006
 30
0.0
 11
112.957677
 21
141.615774
 31
0.0
  0
LINE
  5
653
100
AcDbEntity
  8
0
  6
Continuous
 62
   174
100
AcDbLine
 10
183.957677
 20
138.787563
 30
0.0
 11
186.457677
 21
138.787563
 31
0.0
  0
LINE
  5
654
100
AcDbEntity
  8
0
  6
Continuous
 62
   174
100
AcDbLine
 10
192.957677
 20
149.623661
 30
0.0
 11
192.967675
 21
149.617784
 31
0.0
  0
LINE
  5
655
100
AcDbEntity
  8
0
  6
Continuous
 62
   174
100
AcDbLine
 10
194.457677
 20
151.987563
 30
0.0
 11
193.457677
 21
151.987563
 31
0.0
  0
LINE
  5
656
100
AcDbEntity
  8
0
  6
Continuous
 62
   174
100
AcDbLine
 10
110.947678
 20
150.055963
 30
0.0
 11
110.957677
 21
150.062449
 31
0.0
  0
LINE
  5
657
100
AcDbEntity
  8
0
  6
Continuous
 62
   174
100
AcDbLine
 10
104.957677
 20
151.497259
 30
0.0
 11
104.957677
 21
139.760024
 31
0.0
  0
LINE
  5
658
100
AcDbEntity
  8
0
  6
Continuous
 62
   174
100
AcDbLine
 10
186.957677
 20
151.225135
 30
0.0
 11
186.957677
 21
152.243317
 31
0.0
  0
LINE
  5
659
100
AcDbEntity
  8
0
  6
Continuous
 62
   174
100
AcDbLine
 10
112.967675
 20
152.376214
 30
0.0
 11
112.957677
 21
152.385933
 31
0.0
  0
LINE
  5
65A
100
AcDbEntity
  8
0
  6
Continuous
 62
   174
100
AcDbLine
 10
110.947678
 20
152.378557
 30
0.0
 11
110.957677
 21
152.388277
 31
0.0
  0
LINE
  5
65B
100
AcDbEntity
  8
0
  6
Continuous
 62
   174
100
AcDbLine
 10
108.967675
 20
145.940229
 30
0.0
 11
108.957677
 21
145.941004
 31
0.0
  0
LINE
  5
65C
100
AcDbEntity
  8
0
  6
Continuous
 62
   174
100
AcDbLine
 10
110.957677
 20
150.054839
 30
0.0
 11
112.957677
 21
150.054839
 31
0.0
  0
LINE
  5
65D
100
AcDbEntity
  8
0
  6
Continuous
 62
   174
100
AcDbLine
 10
110.957677
 20
138.745454
 30
0.0
 11
110.957677
 21
139.915524
 31
0.0
  0
LINE
  5
65E
100
AcDbEntity
  8
0
  6
Continuous
 62
   174
100
AcDbLine
 10
105.457677
 20
138.797924
 30
0.0
 11
105.457677
 21
139.297987
 31
0.0
  0
LINE
  5
65F
100
AcDbEntity
  8
0
  6
Continuous
 62
   174
100
AcDbLine
 10
112.967675
 20
143.69792
 30
0.0
 11
112.957677
 21
143.695577
 31
0.0
  0
LINE
  5
660
100
AcDbEntity
  8
0
  6
Continuous
 62
   174
100
AcDbLine
 10
110.947678
 20
148.137681
 30
0.0
 11
110.957677
 21
148.141499
 31
0.0
  0
LWPOLYLINE
  5
661
100
AcDbEntity
  8
0
  6
Continuous
 62
   174
100
AcDbPolyline
 90
        3
 70
   128
 10
112.967675
 20
138.744298
 10
112.967677
 20
138.742389
 10
112.967675
 20
138.740479
  0
LINE
  5
662
100
AcDbEntity
  8
0
  6
Continuous
 62
   174
100
AcDbLine
 10
110.957677
 20
148.151259
 30
0.0
 11
110.957677
 21
150.064625
 31
0.0
  0
LINE
  5
663
100
AcDbEntity
  8
0
  6
Continuous
 62
   174
100
AcDbLine
 10
108.957677
 20
151.525789
 30
0.0
 11
106.957677
 21
151.525789
 31
0.0
  0
LINE
  5
664
100
AcDbEntity
  8
0
  6
Continuous
 62
   174
100
AcDbLine
 10
110.947678
 20
141.621006
 30
0.0
 11
112.967675
 21
141.621006
 31
0.0
  0
LINE
  5
665
100
AcDbEntity
  8
0
  6
Continuous
 62
   174
100
AcDbLine
 10
108.957677
 20
152.388277
 30
0.0
 11
106.957677
 21
152.388277
 31
0.0
  0
LINE
  5
666
100
AcDbEntity
  8
0
  6
Continuous
 62
   174
100
AcDbLine
 10
186.960183
 20
152.587562
 30
0.0
 11
188.955171
 21
152.587562
 31
0.0
  0
CIRCLE
  5
667
100
AcDbEntity
  8
0
  6
Continuous
 62
   174
100
AcDbCircle
 10
149.957677
 20
167.887563
 30
0.0
 40
2.75
  0
LINE
  5
668
100
AcDbEntity
  8
0
  6
Continuous
 62
   174
100
AcDbLine
 10
106.957677
 20
138.208866
 30
0.0
 11
106.947678
 21
138.218834
 31
0.0
  0
LINE
  5
669
100
AcDbEntity
  8
0
  6
Continuous
 62
   174
100
AcDbLine
 10
106.947678
 20
143.707642
 30
0.0
 11
106.957677
 21
143.705299
 31
0.0
  0
LINE
  5
66A
100
AcDbEntity
  8
0
  6
Continuous
 62
   174
100
AcDbLine
 10
108.957677
 20
152.39563
 30
0.0
 11
108.957677
 21
151.535497
 31
0.0
  0
LINE
  5
66B
100
AcDbEntity
  8
0
  6
Continuous
 62
   174
100
AcDbLine
 10
192.957677
 20
152.243317
 30
0.0
 11
192.957677
 21
151.225135
 31
0.0
  0
LINE
  5
66C
100
AcDbEntity
  8
0
  6
Continuous
 62
   174
100
AcDbLine
 10
108.957677
 20
139.915524
 30
0.0
 11
108.957677
 21
138.745454
 31
0.0
  0
LINE
  5
66D
100
AcDbEntity
  8
0
  6
Continuous
 62
   174
100
AcDbLine
 10
108.957677
 20
141.624296
 30
0.0
 11
108.967675
 21
141.629527
 31
0.0
  0
LINE
  5
66E
100
AcDbEntity
  8
0
  6
Continuous
 62
   174
100
AcDbLine
 10
192.957677
 20
138.187565
 30
0.0
 11
192.967675
 21
138.197563
 31
0.0
  0
LINE
  5
66F
100
AcDbEntity
  8
0
  6
Continuous
 62
   174
100
AcDbLine
 10
189.457677
 20
138.787563
 30
0.0
 11
190.457677
 21
138.787563
 31
0.0
  0
LINE
  5
670
100
AcDbEntity
  8
0
  6
Continuous
 62
   174
100
AcDbLine
 10
104.957677
 20
139.287563
 30
0.0
 11
105.457677
 21
138.787563
 31
0.0
  0
LINE
  5
671
100
AcDbEntity
  8
0
  6
Continuous
 62
   174
100
AcDbLine
 10
106.957677
 20
151.535497
 30
0.0
 11
106.957677
 21
152.39563
 31
0.0
  0
LINE
  5
672
100
AcDbEntity
  8
0
  6
Continuous
 62
   174
100
AcDbLine
 10
192.957677
 20
151.215423
 30
0.0
 11
190.957677
 21
151.215423
 31
0.0
  0
LINE
  5
673
100
AcDbEntity
  8
0
  6
Continuous
 62
   174
100
AcDbLine
 10
190.947678
 20
138.551012
 30
0.0
 11
190.957677
 21
138.541503
 31
0.0
  0
ENDBLK
  5
674
100
AcDbEntity
  8
0
100
AcDbBlockEnd
  0
BLOCK
  5
677
100
AcDbEntity
  8
0
100
AcDbBlockBegin
  2
*B5
 70
     0
 10
0.0
 20
0.0
 30
0.0
  3
*B5
  1

  0
LINE
  5
678
100
AcDbEntity
  8
0
  6
Continuous
 62
     0
100
AcDbLine
 10
181.97579
 20
183.00778
 30
0.0
 11
117.975867
 21
183.00778
 31
0.0
  0
SOLID
  5
679
100
AcDbEntity
  8
0
  6
Continuous
 62
     0
100
AcDbTrace
 10
178.475778
 20
182.407875
 30
0.0
 11
181.97579
 21
183.00778
 31
0.0
 12
178.475778
 22
183.607897
 32
0.0
 13
178.475778
 23
183.607897
 33
0.0
  0
SOLID
  5
67A
100
AcDbEntity
  8
0
  6
Continuous
 62
     0
100
AcDbTrace
 10
121.475879
 20
183.607897
 30
0.0
 11
117.975867
 21
183.00778
 31
0.0
 12
121.475879
 22
182.407875
 32
0.0
 13
121.475879
 23
182.407875
 33
0.0
  0
ENDBLK
  5
67B
100
AcDbEntity
  8
0
100
AcDbBlockEnd
  0
BLOCK
  5
67E
100
AcDbEntity
  8
0
100
AcDbBlockBegin
  2
*B6
 70
     0
 10
0.0
 20
0.0
 30
0.0
  3
*B6
  1

  0
LINE
  5
67F
100
AcDbEntity
  8
0
  6
Continuous
 62
     0
100
AcDbLine
 10
140.875711
 20
10.859683
 30
0.0
 11
165.319929
 21
10.859683
 31
0.0
  0
SOLID
  5
680
100
AcDbEntity
  8
0
  6
Continuous
 62
     0
100
AcDbTrace
 10
144.375724
 20
10.259778
 30
0.0
 11
147.875736
 21
10.859683
 31
0.0
 12
144.375724
 22
11.459588
 32
0.0
 13
144.375724
 23
11.459588
 33
0.0
  0
SOLID
  5
681
100
AcDbEntity
  8
0
  6
Continuous
 62
     0
100
AcDbTrace
 10
155.575721
 20
11.459588
 30
0.0
 11
152.075709
 21
10.859683
 31
0.0
 12
155.575721
 22
10.259778
 32
0.0
 13
155.575721
 23
10.259778
 33
0.0
  0
ENDBLK
  5
682
100
AcDbEntity
  8
0
100
AcDbBlockEnd
  0
BLOCK
  5
685
100
AcDbEntity
  8
0
100
AcDbBlockBegin
  2
*B7
 70
     0
 10
0.0
 20
0.0
 30
0.0
  3
*B7
  1

  0
LINE
  5
686
100
AcDbEntity
  8
0
  6
Continuous
 62
     0
100
AcDbLine
 10
208.018126
 20
58.940668
 30
0.0
 11
208.018126
 21
26.942618
 31
0.0
  0
SOLID
  5
687
100
AcDbEntity
  8
0
  6
Continuous
 62
     0
100
AcDbTrace
 10
208.618031
 20
55.440868
 30
0.0
 11
208.018126
 21
58.940668
 31
0.0
 12
207.418008
 22
55.440868
 32
0.0
 13
207.418008
 23
55.440868
 33
0.0
  0
SOLID
  5
688
100
AcDbEntity
  8
0
  6
Continuous
 62
     0
100
AcDbTrace
 10
207.418008
 20
30.442418
 30
0.0
 11
208.018126
 21
26.942618
 31
0.0
 12
208.618031
 22
30.442418
 32
0.0
 13
208.618031
 23
30.442418
 33
0.0
  0
ENDBLK
  5
689
100
AcDbEntity
  8
0
100
AcDbBlockEnd
  0
BLOCK
  5
68C
100
AcDbEntity
  8
0
100
AcDbBlockBegin
  2
*B8
 70
     0
 10
0.0
 20
0.0
 30
0.0
  3
*B8
  1

  0
LINE
  5
68D
100
AcDbEntity
  8
0
  6
Continuous
 62
     0
100
AcDbLine
 10
152.225897
 20
73.698246
 30
0.0
 11
182.377072
 21
73.698246
 31
0.0
  0
SOLID
  5
68E
100
AcDbEntity
  8
0
  6
Continuous
 62
     0
100
AcDbTrace
 10
155.725697
 20
73.098341
 30
0.0
 11
159.22571
 21
73.698246
 31
0.0
 12
155.725697
 22
74.298151
 32
0.0
 13
155.725697
 23
74.298151
 33
0.0
  0
SOLID
  5
68F
100
AcDbEntity
  8
0
  6
Continuous
 62
     0
100
AcDbTrace
 10
168.225772
 20
74.298151
 30
0.0
 11
164.72576
 21
73.698246
 31
0.0
 12
168.225772
 22
73.098341
 32
0.0
 13
168.225772
 23
73.098341
 33
0.0
  0
ENDBLK
  5
690
100
AcDbEntity
  8
0
100
AcDbBlockEnd
  0
BLOCK
  5
693
100
AcDbEntity
  8
0
100
AcDbBlockBegin
  2
*B9
 70
     0
 10
0.0
 20
0.0
 30
0.0
  3
*B9
  1

  0
LINE
  5
694
100
AcDbEntity
  8
0
  6
Continuous
 62
     0
100
AcDbLine
 10
137.975816
 20
119.398942
 30
0.0
 11
117.975867
 21
119.398942
 31
0.0
  0
SOLID
  5
695
100
AcDbEntity
  8
0
  6
Continuous
 62
     0
100
AcDbTrace
 10
134.475804
 20
118.799037
 30
0.0
 11
137.975816
 21
119.398942
 31
0.0
 12
134.475804
 22
119.999059
 32
0.0
 13
134.475804
 23
119.999059
 33
0.0
  0
SOLID
  5
696
100
AcDbEntity
  8
0
  6
Continuous
 62
     0
100
AcDbTrace
 10
121.475879
 20
119.999059
 30
0.0
 11
117.975867
 21
119.398942
 31
0.0
 12
121.475879
 22
118.799037
 32
0.0
 13
121.475879
 23
118.799037
 33
0.0
  0
ENDBLK
  5
697
100
AcDbEntity
  8
0
100
AcDbBlockEnd
  0
BLOCK
  5
69A
100
AcDbEntity
  8
0
100
AcDbBlockBegin
  2
*B10
 70
     0
 10
0.0
 20
0.0
 30
0.0
  3
*B10
  1

  0
LINE
  5
69B
100
AcDbEntity
  8
0
  6
Continuous
 62
     0
100
AcDbLine
 10
137.975816
 20
119.398942
 30
0.0
 11
161.975841
 21
119.398942
 31
0.0
  0
SOLID
  5
69C
100
AcDbEntity
  8
0
  6
Continuous
 62
     0
100
AcDbTrace
 10
141.475829
 20
119.999059
 30
0.0
 11
137.975816
 21
119.398942
 31
0.0
 12
141.475829
 22
118.799037
 32
0.0
 13
141.475829
 23
118.799037
 33
0.0
  0
SOLID
  5
69D
100
AcDbEntity
  8
0
  6
Continuous
 62
     0
100
AcDbTrace
 10
158.475828
 20
118.799037
 30
0.0
 11
161.975841
 21
119.398942
 31
0.0
 12
158.475828
 22
119.999059
 32
0.0
 13
158.475828
 23
119.999059
 33
0.0
  0
ENDBLK
  5
69E
100
AcDbEntity
  8
0
100
AcDbBlockEnd
  0
BLOCK
  5
6A1
100
AcDbEntity
  8
0
100
AcDbBlockBegin
  2
*B11
 70
     0
 10
0.0
 20
0.0
 30
0.0
  3
*B11
  1

  0
LINE
  5
6A2
100
AcDbEntity
  8
0
  6
Continuous
 62
     0
100
AcDbLine
 10
161.975841
 20
119.398942
 30
0.0
 11
181.97579
 21
119.398942
 31
0.0
  0
SOLID
  5
6A3
100
AcDbEntity
  8
0
  6
Continuous
 62
     0
100
AcDbTrace
 10
165.475853
 20
119.999059
 30
0.0
 11
161.975841
 21
119.398942
 31
0.0
 12
165.475853
 22
118.799037
 32
0.0
 13
165.475853
 23
118.799037
 33
0.0
  0
SOLID
  5
6A4
100
AcDbEntity
  8
0
  6
Continuous
 62
     0
100
AcDbTrace
 10
178.475778
 20
118.799037
 30
0.0
 11
181.97579
 21
119.398942
 31
0.0
 12
178.475778
 22
119.999059
 32
0.0
 13
178.475778
 23
119.999059
 33
0.0
  0
ENDBLK
  5
6A5
100
AcDbEntity
  8
0
100
AcDbBlockEnd
  0
BLOCK
  5
6A8
100
AcDbEntity
  8
0
100
AcDbBlockBegin
  2
*B12
 70
     0
 10
0.0
 20
0.0
 30
0.0
  3
*B12
  1

  0
LINE
  5
6A9
100
AcDbEntity
  8
0
  6
Continuous
 62
     0
100
AcDbLine
 10
209.018038
 20
85.093467
 30
0.0
 11
209.018038
 21
107.09218
 31
0.0
  0
SOLID
  5
6AA
100
AcDbEntity
  8
0
  6
Continuous
 62
     0
100
AcDbTrace
 10
208.418133
 20
88.593267
 30
0.0
 11
209.018038
 21
85.093467
 31
0.0
 12
209.618156
 22
88.593267
 32
0.0
 13
209.618156
 23
88.593267
 33
0.0
  0
SOLID
  5
6AB
100
AcDbEntity
  8
0
  6
Continuous
 62
     0
100
AcDbTrace
 10
209.618156
 20
103.59238
 30
0.0
 11
209.018038
 21
107.09218
 31
0.0
 12
208.418133
 22
103.59238
 32
0.0
 13
208.418133
 23
103.59238
 33
0.0
  0
ENDBLK
  5
6AC
100
AcDbEntity
  8
0
100
AcDbBlockEnd
  0
BLOCK
  5
6AF
100
AcDbEntity
  8
0
100
AcDbBlockBegin
  2
*B13
 70
     0
 10
0.0
 20
0.0
 30
0.0
  3
*B13
  1

  0
LINE
  5
6B0
100
AcDbEntity
  8
0
  6
Continuous
 62
     0
100
AcDbLine
 10
93.018204
 20
145.397517
 30
0.0
 11
93.018204
 21
171.896154
 31
0.0
  0
SOLID
  5
6B1
100
AcDbEntity
  8
0
  6
Continuous
 62
     0
100
AcDbTrace
 10
92.418087
 20
148.897317
 30
0.0
 11
93.018204
 21
145.397517
 31
0.0
 12
93.618109
 22
148.897317
 32
0.0
 13
93.618109
 23
148.897317
 33
0.0
  0
SOLID
  5
6B2
100
AcDbEntity
  8
0
  6
Continuous
 62
     0
100
AcDbTrace
 10
93.618109
 20
168.396354
 30
0.0
 11
93.018204
 21
171.896154
 31
0.0
 12
92.418087
 22
168.396354
 32
0.0
 13
92.418087
 23
168.396354
 33
0.0
  0
ENDBLK
  5
6B3
100
AcDbEntity
  8
0
100
AcDbBlockEnd
  0
BLOCK
  5
6B6
100
AcDbEntity
  8
0
100
AcDbBlockBegin
  2
*B14
 70
     0
 10
0.0
 20
0.0
 30
0.0
  3
*B14
  1

  0
LINE
  5
6B7
100
AcDbEntity
  8
0
  6
Continuous
 62
     0
100
AcDbLine
 10
209.018038
 20
171.896154
 30
0.0
 11
209.018038
 21
131.898379
 31
0.0
  0
SOLID
  5
6B8
100
AcDbEntity
  8
0
  6
Continuous
 62
     0
100
AcDbTrace
 10
209.618156
 20
168.396354
 30
0.0
 11
209.018038
 21
171.896154
 31
0.0
 12
208.418133
 22
168.396354
 32
0.0
 13
208.418133
 23
168.396354
 33
0.0
  0
SOLID
  5
6B9
100
AcDbEntity
  8
0
  6
Continuous
 62
     0
100
AcDbTrace
 10
208.418133
 20
135.398179
 30
0.0
 11
209.018038
 21
131.898379
 31
0.0
 12
209.618156
 22
135.398179
 32
0.0
 13
209.618156
 23
135.398179
 33
0.0
  0
ENDBLK
  5
6BA
100
AcDbEntity
  8
0
100
AcDbBlockEnd
  0
BLOCK
  5
6BD
100
AcDbEntity
  8
0
100
AcDbBlockBegin
  2
*B15
 70
     0
 10
0.0
 20
0.0
 30
0.0
  3
*B15
  1

  0
LINE
  5
6BE
100
AcDbEntity
  8
0
  6
Continuous
 62
     0
100
AcDbLine
 10
174.975765
 20
183.00778
 30
0.0
 11
219.571608
 21
183.00778
 31
0.0
  0
SOLID
  5
6BF
100
AcDbEntity
  8
0
  6
Continuous
 62
     0
100
AcDbTrace
 10
178.475778
 20
182.407875
 30
0.0
 11
181.97579
 21
183.00778
 31
0.0
 12
178.475778
 22
183.607897
 32
0.0
 13
178.475778
 23
183.607897
 33
0.0
  0
SOLID
  5
6C0
100
AcDbEntity
  8
0
  6
Continuous
 62
     0
100
AcDbTrace
 10
198.475727
 20
183.607897
 30
0.0
 11
194.975715
 21
183.00778
 31
0.0
 12
198.475727
 22
182.407875
 32
0.0
 13
198.475727
 23
182.407875
 33
0.0
  0
ENDBLK
  5
6C1
100
AcDbEntity
  8
0
100
AcDbBlockEnd
  0
BLOCK
  5
6C4
100
AcDbEntity
  8
0
100
AcDbBlockBegin
  2
*B16
 70
     0
 10
0.0
 20
0.0
 30
0.0
  3
*B16
  1

  0
LINE
  5
6C5
100
AcDbEntity
  8
0
  6
Continuous
 62
     0
100
AcDbLine
 10
124.975892
 20
183.00778
 30
0.0
 11
80.464597
 21
183.00778
 31
0.0
  0
SOLID
  5
6C6
100
AcDbEntity
  8
0
  6
Continuous
 62
     0
100
AcDbTrace
 10
121.475879
 20
183.607897
 30
0.0
 11
117.975867
 21
183.00778
 31
0.0
 12
121.475879
 22
182.407875
 32
0.0
 13
121.475879
 23
182.407875
 33
0.0
  0
SOLID
  5
6C7
100
AcDbEntity
  8
0
  6
Continuous
 62
     0
100
AcDbTrace
 10
101.47593
 20
182.407875
 30
0.0
 11
104.97573
 21
183.00778
 31
0.0
 12
101.47593
 22
183.607897
 32
0.0
 13
101.47593
 23
183.607897
 33
0.0
  0
ENDBLK
  5
6C8
100
AcDbEntity
  8
0
100
AcDbBlockEnd
  0
BLOCK
  5
6CB
100
AcDbEntity
  8
0
100
AcDbBlockBegin
  2
*B17
 70
     0
 10
0.0
 20
0.0
 30
0.0
  3
*B17
  1

  0
LINE
  5
6CC
100
AcDbEntity
  8
0
  6
Continuous
 62
     8
100
AcDbLine
 10
127.475779
 20
42.941643
 30
0.0
 11
131.475854
 21
42.941643
 31
0.0
  0
LINE
  5
6CD
100
AcDbEntity
  8
0
  6
Continuous
 62
     8
100
AcDbLine
 10
134.475804
 20
42.941643
 30
0.0
 11
138.475879
 21
42.941643
 31
0.0
  0
ENDBLK
  5
6CE
100
AcDbEntity
  8
0
100
AcDbBlockEnd
  0
BLOCK
  5
6D1
100
AcDbEntity
  8
0
100
AcDbBlockBegin
  2
*B18
 70
     0
 10
0.0
 20
0.0
 30
0.0
  3
*B18
  1

  0
LINE
  5
6D2
100
AcDbEntity
  8
0
  6
Continuous
 62
     8
100
AcDbLine
 10
154.475754
 20
41.94173
 30
0.0
 11
158.475828
 21
41.94173
 31
0.0
  0
LINE
  5
6D3
100
AcDbEntity
  8
0
  6
Continuous
 62
     8
100
AcDbLine
 10
161.475778
 20
41.94173
 30
0.0
 11
165.475853
 21
41.94173
 31
0.0
  0
ENDBLK
  5
6D4
100
AcDbEntity
  8
0
100
AcDbBlockEnd
  0
BLOCK
  5
6D7
100
AcDbEntity
  8
0
100
AcDbBlockBegin
  2
*B19
 70
     0
 10
0.0
 20
0.0
 30
0.0
  3
*B19
  1

  0
LINE
  5
6D8
100
AcDbEntity
  8
0
  6
Continuous
 62
     8
100
AcDbLine
 10
104.97573
 20
152.497172
 30
0.0
 11
104.97573
 21
185.007817
 31
0.0
  0
ENDBLK
  5
6D9
100
AcDbEntity
  8
0
100
AcDbBlockEnd
  0
BLOCK
  5
6DC
100
AcDbEntity
  8
0
100
AcDbBlockBegin
  2
*B20
 70
     0
 10
0.0
 20
0.0
 30
0.0
  3
*B20
  1

  0
LINE
  5
6DD
100
AcDbEntity
  8
0
  6
Continuous
 62
     8
100
AcDbLine
 10
182.975703
 20
107.09218
 30
0.0
 11
211.018076
 21
107.09218
 31
0.0
  0
ENDBLK
  5
6DE
100
AcDbEntity
  8
0
100
AcDbBlockEnd
  0
BLOCK
  5
6E1
100
AcDbEntity
  8
0
100
AcDbBlockBegin
  2
*B21
 70
     0
 10
0.0
 20
0.0
 30
0.0
  3
*B21
  1

  0
LINE
  5
6E2
100
AcDbEntity
  8
0
  6
Continuous
 62
     8
100
AcDbLine
 10
156.22576
 20
167.896291
 30
0.0
 11
160.475866
 21
167.896291
 31
0.0
  0
LINE
  5
6E3
100
AcDbEntity
  8
0
  6
Continuous
 62
     8
100
AcDbLine
 10
163.475816
 20
167.896291
 30
0.0
 11
167.725709
 21
167.896291
 31
0.0
  0
ENDBLK
  5
6E4
100
AcDbEntity
  8
0
100
AcDbBlockEnd
  0
BLOCK
  5
6E7
100
AcDbEntity
  8
0
100
AcDbBlockBegin
  2
*B22
 70
     0
 10
0.0
 20
0.0
 30
0.0
  3
*B22
  1

  0
LINE
  5
6E8
100
AcDbEntity
  8
0
  6
Continuous
 62
     8
100
AcDbLine
 10
144.225748
 20
167.896291
 30
0.0
 11
148.475854
 21
167.896291
 31
0.0
  0
LINE
  5
6E9
100
AcDbEntity
  8
0
  6
Continuous
 62
     8
100
AcDbLine
 10
151.475804
 20
167.896291
 30
0.0
 11
155.725697
 21
167.896291
 31
0.0
  0
ENDBLK
  5
6EA
100
AcDbEntity
  8
0
100
AcDbBlockEnd
  0
BLOCK
  5
6ED
100
AcDbEntity
  8
0
100
AcDbBlockBegin
  2
*B23
 70
     0
 10
0.0
 20
0.0
 30
0.0
  3
*B23
  1

  0
LINE
  5
6EE
100
AcDbEntity
  8
0
  6
Continuous
 62
     8
100
AcDbLine
 10
194.975715
 20
152.497172
 30
0.0
 11
194.975715
 21
185.007817
 31
0.0
  0
ENDBLK
  5
6EF
100
AcDbEntity
  8
0
100
AcDbBlockEnd
  0
BLOCK
  5
6F2
100
AcDbEntity
  8
0
100
AcDbBlockBegin
  2
*B24
 70
     0
 10
0.0
 20
0.0
 30
0.0
  3
*B24
  1

  0
LINE
  5
6F3
100
AcDbEntity
  8
0
  6
Continuous
 62
     8
100
AcDbLine
 10
101.97578
 20
96.092717
 30
0.0
 11
107.225799
 21
96.092717
 31
0.0
  0
LINE
  5
6F4
100
AcDbEntity
  8
0
  6
Continuous
 62
     8
100
AcDbLine
 10
108.225924
 20
96.092717
 30
0.0
 11
109.225836
 21
96.092717
 31
0.0
  0
LINE
  5
6F5
100
AcDbEntity
  8
0
  6
Continuous
 62
     8
100
AcDbLine
 10
110.225749
 20
96.092717
 30
0.0
 11
115.475767
 21
96.092717
 31
0.0
  0
LINE
  5
6F6
100
AcDbEntity
  8
0
  6
Continuous
 62
     8
100
AcDbLine
 10
116.475892
 20
96.092717
 30
0.0
 11
117.475805
 21
96.092717
 31
0.0
  0
LINE
  5
6F7
100
AcDbEntity
  8
0
  6
Continuous
 62
     8
100
AcDbLine
 10
118.475717
 20
96.092717
 30
0.0
 11
123.725736
 21
96.092717
 31
0.0
  0
LINE
  5
6F8
100
AcDbEntity
  8
0
  6
Continuous
 62
     8
100
AcDbLine
 10
124.725861
 20
96.092717
 30
0.0
 11
125.725773
 21
96.092717
 31
0.0
  0
LINE
  5
6F9
100
AcDbEntity
  8
0
  6
Continuous
 62
     8
100
AcDbLine
 10
126.725898
 20
96.092717
 30
0.0
 11
131.975917
 21
96.092717
 31
0.0
  0
LINE
  5
6FA
100
AcDbEntity
  8
0
  6
Continuous
 62
     8
100
AcDbLine
 10
132.975829
 20
96.092717
 30
0.0
 11
133.975742
 21
96.092717
 31
0.0
  0
LINE
  5
6FB
100
AcDbEntity
  8
0
  6
Continuous
 62
     8
100
AcDbLine
 10
134.975867
 20
96.092717
 30
0.0
 11
140.225885
 21
96.092717
 31
0.0
  0
LINE
  5
6FC
100
AcDbEntity
  8
0
  6
Continuous
 62
     8
100
AcDbLine
 10
141.225798
 20
96.092717
 30
0.0
 11
142.22571
 21
96.092717
 31
0.0
  0
LINE
  5
6FD
100
AcDbEntity
  8
0
  6
Continuous
 62
     8
100
AcDbLine
 10
143.225835
 20
96.092717
 30
0.0
 11
148.475854
 21
96.092717
 31
0.0
  0
LINE
  5
6FE
100
AcDbEntity
  8
0
  6
Continuous
 62
     8
100
AcDbLine
 10
149.475766
 20
96.092717
 30
0.0
 11
150.475891
 21
96.092717
 31
0.0
  0
LINE
  5
6FF
100
AcDbEntity
  8
0
  6
Continuous
 62
     8
100
AcDbLine
 10
151.475804
 20
96.092717
 30
0.0
 11
156.725822
 21
96.092717
 31
0.0
  0
LINE
  5
700
100
AcDbEntity
  8
0
  6
Continuous
 62
     8
100
AcDbLine
 10
157.725735
 20
96.092717
 30
0.0
 11
158.72586
 21
96.092717
 31
0.0
  0
LINE
  5
701
100
AcDbEntity
  8
0
  6
Continuous
 62
     8
100
AcDbLine
 10
159.725772
 20
96.092717
 30
0.0
 11
164.975791
 21
96.092717
 31
0.0
  0
LINE
  5
702
100
AcDbEntity
  8
0
  6
Continuous
 62
     8
100
AcDbLine
 10
165.975703
 20
96.092717
 30
0.0
 11
166.975828
 21
96.092717
 31
0.0
  0
LINE
  5
703
100
AcDbEntity
  8
0
  6
Continuous
 62
     8
100
AcDbLine
 10
167.975741
 20
96.092717
 30
0.0
 11
173.225759
 21
96.092717
 31
0.0
  0
LINE
  5
704
100
AcDbEntity
  8
0
  6
Continuous
 62
     8
100
AcDbLine
 10
174.225884
 20
96.092717
 30
0.0
 11
175.225797
 21
96.092717
 31
0.0
  0
LINE
  5
705
100
AcDbEntity
  8
0
  6
Continuous
 62
     8
100
AcDbLine
 10
176.225709
 20
96.092717
 30
0.0
 11
181.475728
 21
96.092717
 31
0.0
  0
LINE
  5
706
100
AcDbEntity
  8
0
  6
Continuous
 62
     8
100
AcDbLine
 10
182.475853
 20
96.092717
 30
0.0
 11
183.475765
 21
96.092717
 31
0.0
  0
LINE
  5
707
100
AcDbEntity
  8
0
  6
Continuous
 62
     8
100
AcDbLine
 10
184.475678
 20
96.092717
 30
0.0
 11
189.725696
 21
96.092717
 31
0.0
  0
LINE
  5
708
100
AcDbEntity
  8
0
  6
Continuous
 62
     8
100
AcDbLine
 10
190.725821
 20
96.092717
 30
0.0
 11
191.725734
 21
96.092717
 31
0.0
  0
LINE
  5
709
100
AcDbEntity
  8
0
  6
Continuous
 62
     8
100
AcDbLine
 10
192.725859
 20
96.092717
 30
0.0
 11
197.975877
 21
96.092717
 31
0.0
  0
ENDBLK
  5
70A
100
AcDbEntity
  8
0
100
AcDbBlockEnd
  0
BLOCK
  5
70D
100
AcDbEntity
  8
0
100
AcDbBlockBegin
  2
*B25
 70
     0
 10
0.0
 20
0.0
 30
0.0
  3
*B25
  1

  0
LINE
  5
70E
100
AcDbEntity
  8
0
  6
Continuous
 62
     8
100
AcDbLine
 10
159.22571
 20
71.698421
 30
0.0
 11
159.22571
 21
84.093555
 31
0.0
  0
ENDBLK
  5
70F
100
AcDbEntity
  8
0
100
AcDbBlockEnd
  0
BLOCK
  5
712
100
AcDbEntity
  8
0
100
AcDbBlockBegin
  2
*B26
 70
     0
 10
0.0
 20
0.0
 30
0.0
  3
*B26
  1

  0
LINE
  5
713
100
AcDbEntity
  8
0
  6
Continuous
 62
     8
100
AcDbLine
 10
132.475767
 20
156.896829
 30
0.0
 11
136.475842
 21
156.896829
 31
0.0
  0
LINE
  5
714
100
AcDbEntity
  8
0
  6
Continuous
 62
     8
100
AcDbLine
 10
139.475791
 20
156.896829
 30
0.0
 11
143.475866
 21
156.896829
 31
0.0
  0
ENDBLK
  5
715
100
AcDbEntity
  8
0
100
AcDbBlockEnd
  0
BLOCK
  5
718
100
AcDbEntity
  8
0
100
AcDbBlockBegin
  2
*B27
 70
     0
 10
0.0
 20
0.0
 30
0.0
  3
*B27
  1

  0
LINE
  5
719
100
AcDbEntity
  8
0
  6
Continuous
 62
     8
100
AcDbLine
 10
101.97578
 20
49.44118
 30
0.0
 11
107.225799
 21
49.44118
 31
0.0
  0
LINE
  5
71A
100
AcDbEntity
  8
0
  6
Continuous
 62
     8
100
AcDbLine
 10
108.225924
 20
49.44118
 30
0.0
 11
109.225836
 21
49.44118
 31
0.0
  0
LINE
  5
71B
100
AcDbEntity
  8
0
  6
Continuous
 62
     8
100
AcDbLine
 10
110.225749
 20
49.44118
 30
0.0
 11
115.475767
 21
49.44118
 31
0.0
  0
LINE
  5
71C
100
AcDbEntity
  8
0
  6
Continuous
 62
     8
100
AcDbLine
 10
116.475892
 20
49.44118
 30
0.0
 11
117.475805
 21
49.44118
 31
0.0
  0
LINE
  5
71D
100
AcDbEntity
  8
0
  6
Continuous
 62
     8
100
AcDbLine
 10
118.475717
 20
49.44118
 30
0.0
 11
123.725736
 21
49.44118
 31
0.0
  0
LINE
  5
71E
100
AcDbEntity
  8
0
  6
Continuous
 62
     8
100
AcDbLine
 10
124.725861
 20
49.44118
 30
0.0
 11
125.725773
 21
49.44118
 31
0.0
  0
LINE
  5
71F
100
AcDbEntity
  8
0
  6
Continuous
 62
     8
100
AcDbLine
 10
126.725898
 20
49.44118
 30
0.0
 11
131.975917
 21
49.44118
 31
0.0
  0
LINE
  5
720
100
AcDbEntity
  8
0
  6
Continuous
 62
     8
100
AcDbLine
 10
132.975829
 20
49.44118
 30
0.0
 11
133.975742
 21
49.44118
 31
0.0
  0
LINE
  5
721
100
AcDbEntity
  8
0
  6
Continuous
 62
     8
100
AcDbLine
 10
134.975867
 20
49.44118
 30
0.0
 11
140.225885
 21
49.44118
 31
0.0
  0
LINE
  5
722
100
AcDbEntity
  8
0
  6
Continuous
 62
     8
100
AcDbLine
 10
141.225798
 20
49.44118
 30
0.0
 11
142.22571
 21
49.44118
 31
0.0
  0
LINE
  5
723
100
AcDbEntity
  8
0
  6
Continuous
 62
     8
100
AcDbLine
 10
143.225835
 20
49.44118
 30
0.0
 11
148.475854
 21
49.44118
 31
0.0
  0
LINE
  5
724
100
AcDbEntity
  8
0
  6
Continuous
 62
     8
100
AcDbLine
 10
149.475766
 20
49.44118
 30
0.0
 11
150.475891
 21
49.44118
 31
0.0
  0
LINE
  5
725
100
AcDbEntity
  8
0
  6
Continuous
 62
     8
100
AcDbLine
 10
151.475804
 20
49.44118
 30
0.0
 11
156.725822
 21
49.44118
 31
0.0
  0
LINE
  5
726
100
AcDbEntity
  8
0
  6
Continuous
 62
     8
100
AcDbLine
 10
157.725735
 20
49.44118
 30
0.0
 11
158.72586
 21
49.44118
 31
0.0
  0
LINE
  5
727
100
AcDbEntity
  8
0
  6
Continuous
 62
     8
100
AcDbLine
 10
159.725772
 20
49.44118
 30
0.0
 11
164.975791
 21
49.44118
 31
0.0
  0
LINE
  5
728
100
AcDbEntity
  8
0
  6
Continuous
 62
     8
100
AcDbLine
 10
165.975703
 20
49.44118
 30
0.0
 11
166.975828
 21
49.44118
 31
0.0
  0
LINE
  5
729
100
AcDbEntity
  8
0
  6
Continuous
 62
     8
100
AcDbLine
 10
167.975741
 20
49.44118
 30
0.0
 11
173.225759
 21
49.44118
 31
0.0
  0
LINE
  5
72A
100
AcDbEntity
  8
0
  6
Continuous
 62
     8
100
AcDbLine
 10
174.225884
 20
49.44118
 30
0.0
 11
175.225797
 21
49.44118
 31
0.0
  0
LINE
  5
72B
100
AcDbEntity
  8
0
  6
Continuous
 62
     8
100
AcDbLine
 10
176.225709
 20
49.44118
 30
0.0
 11
181.475728
 21
49.44118
 31
0.0
  0
LINE
  5
72C
100
AcDbEntity
  8
0
  6
Continuous
 62
     8
100
AcDbLine
 10
182.475853
 20
49.44118
 30
0.0
 11
183.475765
 21
49.44118
 31
0.0
  0
LINE
  5
72D
100
AcDbEntity
  8
0
  6
Continuous
 62
     8
100
AcDbLine
 10
184.475678
 20
49.44118
 30
0.0
 11
189.725696
 21
49.44118
 31
0.0
  0
LINE
  5
72E
100
AcDbEntity
  8
0
  6
Continuous
 62
     8
100
AcDbLine
 10
190.725821
 20
49.44118
 30
0.0
 11
191.725734
 21
49.44118
 31
0.0
  0
LINE
  5
72F
100
AcDbEntity
  8
0
  6
Continuous
 62
     8
100
AcDbLine
 10
192.725859
 20
49.44118
 30
0.0
 11
197.975877
 21
49.44118
 31
0.0
  0
ENDBLK
  5
730
100
AcDbEntity
  8
0
100
AcDbBlockEnd
  0
BLOCK
  5
733
100
AcDbEntity
  8
0
100
AcDbBlockBegin
  2
*B28
 70
     0
 10
0.0
 20
0.0
 30
0.0
  3
*B28
  1

  0
LINE
  5
734
100
AcDbEntity
  8
0
  6
Continuous
 62
     8
100
AcDbLine
 10
182.975703
 20
85.093467
 30
0.0
 11
211.018076
 21
85.093467
 31
0.0
  0
ENDBLK
  5
735
100
AcDbEntity
  8
0
100
AcDbBlockEnd
  0
BLOCK
  5
738
100
AcDbEntity
  8
0
100
AcDbBlockBegin
  2
*B29
 70
     0
 10
0.0
 20
0.0
 30
0.0
  3
*B29
  1

  0
LINE
  5
739
100
AcDbEntity
  8
0
  6
Continuous
 62
     8
100
AcDbLine
 10
132.975829
 20
37.442018
 30
0.0
 11
132.975829
 21
41.441668
 31
0.0
  0
LINE
  5
73A
100
AcDbEntity
  8
0
  6
Continuous
 62
     8
100
AcDbLine
 10
132.975829
 20
44.441618
 30
0.0
 11
132.975829
 21
48.441268
 31
0.0
  0
ENDBLK
  5
73B
100
AcDbEntity
  8
0
100
AcDbBlockEnd
  0
BLOCK
  5
73E
100
AcDbEntity
  8
0
100
AcDbBlockBegin
  2
*B30
 70
     0
 10
0.0
 20
0.0
 30
0.0
  3
*B30
  1

  0
LINE
  5
73F
100
AcDbEntity
  8
0
  6
Continuous
 62
     8
100
AcDbLine
 10
152.075709
 20
8.859858
 30
0.0
 11
152.075709
 21
25.942705
 31
0.0
  0
ENDBLK
  5
740
100
AcDbEntity
  8
0
100
AcDbBlockEnd
  0
BLOCK
  5
743
100
AcDbEntity
  8
0
100
AcDbBlockBegin
  2
*B31
 70
     0
 10
0.0
 20
0.0
 30
0.0
  3
*B31
  1

  0
LINE
  5
744
100
AcDbEntity
  8
0
  6
Continuous
 62
     8
100
AcDbLine
 10
159.975803
 20
147.397342
 30
0.0
 11
159.975803
 21
151.397204
 31
0.0
  0
LINE
  5
745
100
AcDbEntity
  8
0
  6
Continuous
 62
     8
100
AcDbLine
 10
159.975803
 20
154.396942
 30
0.0
 11
159.975803
 21
158.396804
 31
0.0
  0
ENDBLK
  5
746
100
AcDbEntity
  8
0
100
AcDbBlockEnd
  0
BLOCK
  5
749
100
AcDbEntity
  8
0
100
AcDbBlockBegin
  2
*B32
 70
     0
 10
0.0
 20
0.0
 30
0.0
  3
*B32
  1

  0
LINE
  5
74A
100
AcDbEntity
  8
0
  6
Continuous
 62
     8
100
AcDbLine
 10
182.975703
 20
131.898379
 30
0.0
 11
211.018076
 21
131.898379
 31
0.0
  0
ENDBLK
  5
74B
100
AcDbEntity
  8
0
100
AcDbBlockEnd
  0
BLOCK
  5
74E
100
AcDbEntity
  8
0
100
AcDbBlockBegin
  2
*B33
 70
     0
 10
0.0
 20
0.0
 30
0.0
  3
*B33
  1

  0
LINE
  5
74F
100
AcDbEntity
  8
0
  6
Continuous
 62
     8
100
AcDbLine
 10
117.975867
 20
117.399117
 30
0.0
 11
117.975867
 21
130.898467
 31
0.0
  0
LINE
  5
750
100
AcDbEntity
  8
0
  6
Continuous
 62
     8
100
AcDbLine
 10
117.975867
 20
172.896066
 30
0.0
 11
117.975867
 21
185.007817
 31
0.0
  0
ENDBLK
  5
751
100
AcDbEntity
  8
0
100
AcDbBlockEnd
  0
BLOCK
  5
754
100
AcDbEntity
  8
0
100
AcDbBlockBegin
  2
*B34
 70
     0
 10
0.0
 20
0.0
 30
0.0
  3
*B34
  1

  0
LINE
  5
755
100
AcDbEntity
  8
0
  6
Continuous
 62
     8
100
AcDbLine
 10
147.875736
 20
8.859858
 30
0.0
 11
147.875736
 21
25.942705
 31
0.0
  0
ENDBLK
  5
756
100
AcDbEntity
  8
0
100
AcDbBlockEnd
  0
BLOCK
  5
759
100
AcDbEntity
  8
0
100
AcDbBlockBegin
  2
*B35
 70
     0
 10
0.0
 20
0.0
 30
0.0
  3
*B35
  1

  0
LINE
  5
75A
100
AcDbEntity
  8
0
  6
Continuous
 62
     8
100
AcDbLine
 10
181.97579
 20
117.399117
 30
0.0
 11
181.97579
 21
130.898467
 31
0.0
  0
LINE
  5
75B
100
AcDbEntity
  8
0
  6
Continuous
 62
     8
100
AcDbLine
 10
181.97579
 20
172.896066
 30
0.0
 11
181.97579
 21
185.007817
 31
0.0
  0
ENDBLK
  5
75C
100
AcDbEntity
  8
0
100
AcDbBlockEnd
  0
BLOCK
  5
75F
100
AcDbEntity
  8
0
100
AcDbBlockBegin
  2
*B36
 70
     0
 10
0.0
 20
0.0
 30
0.0
  3
*B36
  1

  0
LINE
  5
760
100
AcDbEntity
  8
0
  6
Continuous
 62
     8
100
AcDbLine
 10
144.875786
 20
26.942618
 30
0.0
 11
148.475854
 21
26.942618
 31
0.0
  0
LINE
  5
761
100
AcDbEntity
  8
0
  6
Continuous
 62
     8
100
AcDbLine
 10
151.475804
 20
26.942618
 30
0.0
 11
155.075871
 21
26.942618
 31
0.0
  0
ENDBLK
  5
762
100
AcDbEntity
  8
0
100
AcDbBlockEnd
  0
BLOCK
  5
765
100
AcDbEntity
  8
0
100
AcDbBlockBegin
  2
*B37
 70
     0
 10
0.0
 20
0.0
 30
0.0
  3
*B37
  1

  0
LINE
  5
766
100
AcDbEntity
  8
0
  6
Continuous
 62
     8
100
AcDbLine
 10
149.975829
 20
53.84105
 30
0.0
 11
149.975829
 21
57.440905
 31
0.0
  0
LINE
  5
767
100
AcDbEntity
  8
0
  6
Continuous
 62
     8
100
AcDbLine
 10
149.975829
 20
60.440643
 30
0.0
 11
149.975829
 21
64.040498
 31
0.0
  0
ENDBLK
  5
768
100
AcDbEntity
  8
0
100
AcDbBlockEnd
  0
BLOCK
  5
76B
100
AcDbEntity
  8
0
100
AcDbBlockBegin
  2
*B38
 70
     0
 10
0.0
 20
0.0
 30
0.0
  3
*B38
  1

  0
LINE
  5
76C
100
AcDbEntity
  8
0
  6
Continuous
 62
     8
100
AcDbLine
 10
149.975829
 20
21.842788
 30
0.0
 11
149.975829
 21
25.442643
 31
0.0
  0
LINE
  5
76D
100
AcDbEntity
  8
0
  6
Continuous
 62
     8
100
AcDbLine
 10
149.975829
 20
28.44238
 30
0.0
 11
149.975829
 21
32.042235
 31
0.0
  0
ENDBLK
  5
76E
100
AcDbEntity
  8
0
100
AcDbBlockEnd
  0
BLOCK
  5
771
100
AcDbEntity
  8
0
100
AcDbBlockBegin
  2
*B39
 70
     0
 10
0.0
 20
0.0
 30
0.0
  3
*B39
  1

  0
LINE
  5
772
100
AcDbEntity
  8
0
  6
Continuous
 62
     8
100
AcDbLine
 10
137.975816
 20
82.093517
 30
0.0
 11
137.975816
 21
89.426634
 31
0.0
  0
LINE
  5
773
100
AcDbEntity
  8
0
  6
Continuous
 62
     8
100
AcDbLine
 10
137.975816
 20
90.426546
 30
0.0
 11
137.975816
 21
91.426459
 31
0.0
  0
LINE
  5
774
100
AcDbEntity
  8
0
  6
Continuous
 62
     8
100
AcDbLine
 10
137.975816
 20
92.426371
 30
0.0
 11
137.975816
 21
99.759275
 31
0.0
  0
LINE
  5
775
100
AcDbEntity
  8
0
  6
Continuous
 62
     8
100
AcDbLine
 10
137.975816
 20
100.759188
 30
0.0
 11
137.975816
 21
101.7591
 31
0.0
  0
LINE
  5
776
100
AcDbEntity
  8
0
  6
Continuous
 62
     8
100
AcDbLine
 10
137.975816
 20
102.759013
 30
0.0
 11
137.975816
 21
110.092129
 31
0.0
  0
ENDBLK
  5
777
100
AcDbEntity
  8
0
100
AcDbBlockEnd
  0
BLOCK
  5
77A
100
AcDbEntity
  8
0
100
AcDbBlockBegin
  2
*B40
 70
     0
 10
0.0
 20
0.0
 30
0.0
  3
*B40
  1

  0
LINE
  5
77B
100
AcDbEntity
  8
0
  6
Continuous
 62
     8
100
AcDbLine
 10
137.975816
 20
117.399117
 30
0.0
 11
137.975816
 21
121.398979
 31
0.0
  0
LINE
  5
77C
100
AcDbEntity
  8
0
  6
Continuous
 62
     8
100
AcDbLine
 10
137.975816
 20
121.398979
 30
0.0
 11
137.975816
 21
126.398542
 31
0.0
  0
LINE
  5
77D
100
AcDbEntity
  8
0
  6
Continuous
 62
     8
100
AcDbLine
 10
137.975816
 20
127.398667
 30
0.0
 11
137.975816
 21
128.398579
 31
0.0
  0
LINE
  5
77E
100
AcDbEntity
  8
0
  6
Continuous
 62
     8
100
AcDbLine
 10
137.975816
 20
129.398492
 30
0.0
 11
137.975816
 21
134.398267
 31
0.0
  0
LINE
  5
77F
100
AcDbEntity
  8
0
  6
Continuous
 62
     8
100
AcDbLine
 10
137.975816
 20
137.398004
 30
0.0
 11
137.975816
 21
142.397779
 31
0.0
  0
LINE
  5
780
100
AcDbEntity
  8
0
  6
Continuous
 62
     8
100
AcDbLine
 10
137.975816
 20
143.397692
 30
0.0
 11
137.975816
 21
144.397604
 31
0.0
  0
LINE
  5
781
100
AcDbEntity
  8
0
  6
Continuous
 62
     8
100
AcDbLine
 10
137.975816
 20
145.397517
 30
0.0
 11
137.975816
 21
150.397292
 31
0.0
  0
LINE
  5
782
100
AcDbEntity
  8
0
  6
Continuous
 62
     8
100
AcDbLine
 10
137.975816
 20
153.397029
 30
0.0
 11
137.975816
 21
155.397067
 31
0.0
  0
LINE
  5
783
100
AcDbEntity
  8
0
  6
Continuous
 62
     8
100
AcDbLine
 10
137.975816
 20
158.396804
 30
0.0
 11
137.975816
 21
164.896554
 31
0.0
  0
ENDBLK
  5
784
100
AcDbEntity
  8
0
100
AcDbBlockEnd
  0
BLOCK
  5
787
100
AcDbEntity
  8
0
100
AcDbBlockBegin
  2
*B41
 70
     0
 10
0.0
 20
0.0
 30
0.0
  3
*B41
  1

  0
LINE
  5
788
100
AcDbEntity
  8
0
  6
Continuous
 62
     8
100
AcDbLine
 10
91.018167
 20
145.397517
 30
0.0
 11
95.018241
 21
145.397517
 31
0.0
  0
LINE
  5
789
100
AcDbEntity
  8
0
  6
Continuous
 62
     8
100
AcDbLine
 10
95.018241
 20
145.397517
 30
0.0
 11
100.168842
 21
145.397517
 31
0.0
  0
LINE
  5
78A
100
AcDbEntity
  8
0
  6
Continuous
 62
     8
100
AcDbLine
 10
101.168755
 20
145.397517
 30
0.0
 11
102.168667
 21
145.397517
 31
0.0
  0
LINE
  5
78B
100
AcDbEntity
  8
0
  6
Continuous
 62
     8
100
AcDbLine
 10
103.168792
 20
145.397517
 30
0.0
 11
108.319393
 21
145.397517
 31
0.0
  0
LINE
  5
78C
100
AcDbEntity
  8
0
  6
Continuous
 62
     8
100
AcDbLine
 10
109.319306
 20
145.397517
 30
0.0
 11
110.319218
 21
145.397517
 31
0.0
  0
LINE
  5
78D
100
AcDbEntity
  8
0
  6
Continuous
 62
     8
100
AcDbLine
 10
111.319343
 20
145.397517
 30
0.0
 11
116.469944
 21
145.397517
 31
0.0
  0
LINE
  5
78E
100
AcDbEntity
  8
0
  6
Continuous
 62
     8
100
AcDbLine
 10
117.469857
 20
145.397517
 30
0.0
 11
118.469981
 21
145.397517
 31
0.0
  0
LINE
  5
78F
100
AcDbEntity
  8
0
  6
Continuous
 62
     8
100
AcDbLine
 10
119.469894
 20
145.397517
 30
0.0
 11
124.620495
 21
145.397517
 31
0.0
  0
LINE
  5
790
100
AcDbEntity
  8
0
  6
Continuous
 62
     8
100
AcDbLine
 10
125.620407
 20
145.397517
 30
0.0
 11
126.620532
 21
145.397517
 31
0.0
  0
LINE
  5
791
100
AcDbEntity
  8
0
  6
Continuous
 62
     8
100
AcDbLine
 10
127.620445
 20
145.397517
 30
0.0
 11
132.771046
 21
145.397517
 31
0.0
  0
LINE
  5
792
100
AcDbEntity
  8
0
  6
Continuous
 62
     8
100
AcDbLine
 10
133.771171
 20
145.397517
 30
0.0
 11
134.771083
 21
145.397517
 31
0.0
  0
LINE
  5
793
100
AcDbEntity
  8
0
  6
Continuous
 62
     8
100
AcDbLine
 10
135.770996
 20
145.397517
 30
0.0
 11
140.921597
 21
145.397517
 31
0.0
  0
LINE
  5
794
100
AcDbEntity
  8
0
  6
Continuous
 62
     8
100
AcDbLine
 10
141.921721
 20
145.397517
 30
0.0
 11
142.921634
 21
145.397517
 31
0.0
  0
LINE
  5
795
100
AcDbEntity
  8
0
  6
Continuous
 62
     8
100
AcDbLine
 10
143.921759
 20
145.397517
 30
0.0
 11
149.07236
 21
145.397517
 31
0.0
  0
LINE
  5
796
100
AcDbEntity
  8
0
  6
Continuous
 62
     8
100
AcDbLine
 10
150.072272
 20
145.397517
 30
0.0
 11
151.072185
 21
145.397517
 31
0.0
  0
LINE
  5
797
100
AcDbEntity
  8
0
  6
Continuous
 62
     8
100
AcDbLine
 10
152.07231
 20
145.397517
 30
0.0
 11
157.222911
 21
145.397517
 31
0.0
  0
LINE
  5
798
100
AcDbEntity
  8
0
  6
Continuous
 62
     8
100
AcDbLine
 10
158.222823
 20
145.397517
 30
0.0
 11
159.222736
 21
145.397517
 31
0.0
  0
LINE
  5
799
100
AcDbEntity
  8
0
  6
Continuous
 62
     8
100
AcDbLine
 10
160.222861
 20
145.397517
 30
0.0
 11
165.373461
 21
145.397517
 31
0.0
  0
LINE
  5
79A
100
AcDbEntity
  8
0
  6
Continuous
 62
     8
100
AcDbLine
 10
166.373374
 20
145.397517
 30
0.0
 11
167.373499
 21
145.397517
 31
0.0
  0
LINE
  5
79B
100
AcDbEntity
  8
0
  6
Continuous
 62
     8
100
AcDbLine
 10
168.373411
 20
145.397517
 30
0.0
 11
173.524012
 21
145.397517
 31
0.0
  0
LINE
  5
79C
100
AcDbEntity
  8
0
  6
Continuous
 62
     8
100
AcDbLine
 10
174.523925
 20
145.397517
 30
0.0
 11
175.52405
 21
145.397517
 31
0.0
  0
LINE
  5
79D
100
AcDbEntity
  8
0
  6
Continuous
 62
     8
100
AcDbLine
 10
176.523962
 20
145.397517
 30
0.0
 11
181.674563
 21
145.397517
 31
0.0
  0
LINE
  5
79E
100
AcDbEntity
  8
0
  6
Continuous
 62
     8
100
AcDbLine
 10
182.674688
 20
145.397517
 30
0.0
 11
183.674601
 21
145.397517
 31
0.0
  0
LINE
  5
79F
100
AcDbEntity
  8
0
  6
Continuous
 62
     8
100
AcDbLine
 10
184.674513
 20
145.397517
 30
0.0
 11
189.825114
 21
145.397517
 31
0.0
  0
LINE
  5
7A0
100
AcDbEntity
  8
0
  6
Continuous
 62
     8
100
AcDbLine
 10
190.825239
 20
145.397517
 30
0.0
 11
191.825151
 21
145.397517
 31
0.0
  0
LINE
  5
7A1
100
AcDbEntity
  8
0
  6
Continuous
 62
     8
100
AcDbLine
 10
192.825276
 20
145.397517
 30
0.0
 11
197.975877
 21
145.397517
 31
0.0
  0
ENDBLK
  5
7A2
100
AcDbEntity
  8
0
100
AcDbBlockEnd
  0
BLOCK
  5
7A5
100
AcDbEntity
  8
0
100
AcDbBlockBegin
  2
*B42
 70
     0
 10
0.0
 20
0.0
 30
0.0
  3
*B42
  1

  0
LINE
  5
7A6
100
AcDbEntity
  8
0
  6
Continuous
 62
     8
100
AcDbLine
 10
206.018088
 20
26.942618
 30
0.0
 11
210.018163
 21
26.942618
 31
0.0
  0
LINE
  5
7A7
100
AcDbEntity
  8
0
  6
Continuous
 62
     8
100
AcDbLine
 10
156.22576
 20
26.942618
 30
0.0
 11
160.475866
 21
26.942618
 31
0.0
  0
LINE
  5
7A8
100
AcDbEntity
  8
0
  6
Continuous
 62
     8
100
AcDbLine
 10
163.475816
 20
26.942618
 30
0.0
 11
169.584268
 21
26.942618
 31
0.0
  0
LINE
  5
7A9
100
AcDbEntity
  8
0
  6
Continuous
 62
     8
100
AcDbLine
 10
170.58418
 20
26.942618
 30
0.0
 11
171.584305
 21
26.942618
 31
0.0
  0
LINE
  5
7AA
100
AcDbEntity
  8
0
  6
Continuous
 62
     8
100
AcDbLine
 10
172.584218
 20
26.942618
 30
0.0
 11
178.69267
 21
26.942618
 31
0.0
  0
LINE
  5
7AB
100
AcDbEntity
  8
0
  6
Continuous
 62
     8
100
AcDbLine
 10
179.692795
 20
26.942618
 30
0.0
 11
180.692707
 21
26.942618
 31
0.0
  0
LINE
  5
7AC
100
AcDbEntity
  8
0
  6
Continuous
 62
     8
100
AcDbLine
 10
181.69262
 20
26.942618
 30
0.0
 11
187.801284
 21
26.942618
 31
0.0
  0
LINE
  5
7AD
100
AcDbEntity
  8
0
  6
Continuous
 62
     8
100
AcDbLine
 10
188.801197
 20
26.942618
 30
0.0
 11
189.801109
 21
26.942618
 31
0.0
  0
LINE
  5
7AE
100
AcDbEntity
  8
0
  6
Continuous
 62
     8
100
AcDbLine
 10
190.801234
 20
26.942618
 30
0.0
 11
196.909686
 21
26.942618
 31
0.0
  0
LINE
  5
7AF
100
AcDbEntity
  8
0
  6
Continuous
 62
     8
100
AcDbLine
 10
197.909599
 20
26.942618
 30
0.0
 11
198.909724
 21
26.942618
 31
0.0
  0
LINE
  5
7B0
100
AcDbEntity
  8
0
  6
Continuous
 62
     8
100
AcDbLine
 10
199.909636
 20
26.942618
 30
0.0
 11
206.018088
 21
26.942618
 31
0.0
  0
ENDBLK
  5
7B1
100
AcDbEntity
  8
0
100
AcDbBlockEnd
  0
BLOCK
  5
7B4
100
AcDbEntity
  8
0
100
AcDbBlockBegin
  2
*B43
 70
     0
 10
0.0
 20
0.0
 30
0.0
  3
*B43
  1

  0
LINE
  5
7B5
100
AcDbEntity
  8
0
  6
Continuous
 62
     8
100
AcDbLine
 10
159.975803
 20
36.442105
 30
0.0
 11
159.975803
 21
40.441755
 31
0.0
  0
LINE
  5
7B6
100
AcDbEntity
  8
0
  6
Continuous
 62
     8
100
AcDbLine
 10
159.975803
 20
43.441705
 30
0.0
 11
159.975803
 21
47.441355
 31
0.0
  0
ENDBLK
  5
7B7
100
AcDbEntity
  8
0
100
AcDbBlockEnd
  0
BLOCK
  5
7BA
100
AcDbEntity
  8
0
100
AcDbBlockBegin
  2
*B44
 70
     0
 10
0.0
 20
0.0
 30
0.0
  3
*B44
  1

  0
LINE
  5
7BB
100
AcDbEntity
  8
0
  6
Continuous
 62
     8
100
AcDbLine
 10
154.475754
 20
152.897179
 30
0.0
 11
158.475828
 21
152.897179
 31
0.0
  0
LINE
  5
7BC
100
AcDbEntity
  8
0
  6
Continuous
 62
     8
100
AcDbLine
 10
161.475778
 20
152.897179
 30
0.0
 11
165.475853
 21
152.897179
 31
0.0
  0
ENDBLK
  5
7BD
100
AcDbEntity
  8
0
100
AcDbBlockEnd
  0
BLOCK
  5
7C0
100
AcDbEntity
  8
0
100
AcDbBlockBegin
  2
*B45
 70
     0
 10
0.0
 20
0.0
 30
0.0
  3
*B45
  1

  0
LINE
  5
7C1
100
AcDbEntity
  8
0
  6
Continuous
 62
     8
100
AcDbLine
 10
164.72576
 20
71.698421
 30
0.0
 11
164.72576
 21
84.093555
 31
0.0
  0
ENDBLK
  5
7C2
100
AcDbEntity
  8
0
100
AcDbBlockEnd
  0
BLOCK
  5
7C5
100
AcDbEntity
  8
0
100
AcDbBlockBegin
  2
*B46
 70
     0
 10
0.0
 20
0.0
 30
0.0
  3
*B46
  1

  0
LINE
  5
7C6
100
AcDbEntity
  8
0
  6
Continuous
 62
     8
100
AcDbLine
 10
124.975892
 20
151.897267
 30
0.0
 11
136.475842
 21
151.897267
 31
0.0
  0
LINE
  5
7C7
100
AcDbEntity
  8
0
  6
Continuous
 62
     8
100
AcDbLine
 10
139.475791
 20
151.897267
 30
0.0
 11
144.475779
 21
151.897267
 31
0.0
  0
LINE
  5
7C8
100
AcDbEntity
  8
0
  6
Continuous
 62
     8
100
AcDbLine
 10
145.475904
 20
151.897267
 30
0.0
 11
146.475816
 21
151.897267
 31
0.0
  0
LINE
  5
7C9
100
AcDbEntity
  8
0
  6
Continuous
 62
     8
100
AcDbLine
 10
147.475729
 20
151.897267
 30
0.0
 11
152.475716
 21
151.897267
 31
0.0
  0
LINE
  5
7CA
100
AcDbEntity
  8
0
  6
Continuous
 62
     8
100
AcDbLine
 10
153.475841
 20
151.897267
 30
0.0
 11
154.475754
 21
151.897267
 31
0.0
  0
LINE
  5
7CB
100
AcDbEntity
  8
0
  6
Continuous
 62
     8
100
AcDbLine
 10
155.475878
 20
151.897267
 30
0.0
 11
160.475866
 21
151.897267
 31
0.0
  0
LINE
  5
7CC
100
AcDbEntity
  8
0
  6
Continuous
 62
     8
100
AcDbLine
 10
163.475816
 20
151.897267
 30
0.0
 11
174.975765
 21
151.897267
 31
0.0
  0
ENDBLK
  5
7CD
100
AcDbEntity
  8
0
100
AcDbBlockEnd
  0
BLOCK
  5
7D0
100
AcDbEntity
  8
0
100
AcDbBlockBegin
  2
*B47
 70
     0
 10
0.0
 20
0.0
 30
0.0
  3
*B47
  1

  0
LINE
  5
7D1
100
AcDbEntity
  8
0
  6
Continuous
 62
     8
100
AcDbLine
 10
91.018167
 20
171.896154
 30
0.0
 11
116.975742
 21
171.896154
 31
0.0
  0
LINE
  5
7D2
100
AcDbEntity
  8
0
  6
Continuous
 62
     8
100
AcDbLine
 10
182.975703
 20
171.896154
 30
0.0
 11
211.018076
 21
171.896154
 31
0.0
  0
ENDBLK
  5
7D3
100
AcDbEntity
  8
0
100
AcDbBlockEnd
  0
BLOCK
  5
7D6
100
AcDbEntity
  8
0
100
AcDbBlockBegin
  2
*B48
 70
     0
 10
0.0
 20
0.0
 30
0.0
  3
*B48
  1

  0
LINE
  5
7D7
100
AcDbEntity
  8
0
  6
Continuous
 62
     8
100
AcDbLine
 10
206.018088
 20
58.940668
 30
0.0
 11
210.018163
 21
58.940668
 31
0.0
  0
LINE
  5
7D8
100
AcDbEntity
  8
0
  6
Continuous
 62
     8
100
AcDbLine
 10
132.225735
 20
58.940668
 30
0.0
 11
136.475842
 21
58.940668
 31
0.0
  0
LINE
  5
7D9
100
AcDbEntity
  8
0
  6
Continuous
 62
     8
100
AcDbLine
 10
139.475791
 20
58.940668
 30
0.0
 11
148.475854
 21
58.940668
 31
0.0
  0
LINE
  5
7DA
100
AcDbEntity
  8
0
  6
Continuous
 62
     8
100
AcDbLine
 10
151.475804
 20
58.940668
 30
0.0
 11
156.696082
 21
58.940668
 31
0.0
  0
LINE
  5
7DB
100
AcDbEntity
  8
0
  6
Continuous
 62
     8
100
AcDbLine
 10
157.696207
 20
58.940668
 30
0.0
 11
158.696119
 21
58.940668
 31
0.0
  0
LINE
  5
7DC
100
AcDbEntity
  8
0
  6
Continuous
 62
     8
100
AcDbLine
 10
159.696032
 20
58.940668
 30
0.0
 11
164.916523
 21
58.940668
 31
0.0
  0
LINE
  5
7DD
100
AcDbEntity
  8
0
  6
Continuous
 62
     8
100
AcDbLine
 10
165.916435
 20
58.940668
 30
0.0
 11
166.91656
 21
58.940668
 31
0.0
  0
LINE
  5
7DE
100
AcDbEntity
  8
0
  6
Continuous
 62
     8
100
AcDbLine
 10
167.916472
 20
58.940668
 30
0.0
 11
173.136751
 21
58.940668
 31
0.0
  0
LINE
  5
7DF
100
AcDbEntity
  8
0
  6
Continuous
 62
     8
100
AcDbLine
 10
174.136876
 20
58.940668
 30
0.0
 11
175.136788
 21
58.940668
 31
0.0
  0
LINE
  5
7E0
100
AcDbEntity
  8
0
  6
Continuous
 62
     8
100
AcDbLine
 10
176.136701
 20
58.940668
 30
0.0
 11
181.357191
 21
58.940668
 31
0.0
  0
LINE
  5
7E1
100
AcDbEntity
  8
0
  6
Continuous
 62
     8
100
AcDbLine
 10
182.357104
 20
58.940668
 30
0.0
 11
183.357016
 21
58.940668
 31
0.0
  0
LINE
  5
7E2
100
AcDbEntity
  8
0
  6
Continuous
 62
     8
100
AcDbLine
 10
184.357141
 20
58.940668
 30
0.0
 11
189.57742
 21
58.940668
 31
0.0
  0
LINE
  5
7E3
100
AcDbEntity
  8
0
  6
Continuous
 62
     8
100
AcDbLine
 10
190.577544
 20
58.940668
 30
0.0
 11
191.577457
 21
58.940668
 31
0.0
  0
LINE
  5
7E4
100
AcDbEntity
  8
0
  6
Continuous
 62
     8
100
AcDbLine
 10
192.577369
 20
58.940668
 30
0.0
 11
197.79786
 21
58.940668
 31
0.0
  0
LINE
  5
7E5
100
AcDbEntity
  8
0
  6
Continuous
 62
     8
100
AcDbLine
 10
198.797773
 20
58.940668
 30
0.0
 11
199.797685
 21
58.940668
 31
0.0
  0
LINE
  5
7E6
100
AcDbEntity
  8
0
  6
Continuous
 62
     8
100
AcDbLine
 10
200.79781
 20
58.940668
 30
0.0
 11
206.018088
 21
58.940668
 31
0.0
  0
ENDBLK
  5
7E7
100
AcDbEntity
  8
0
100
AcDbBlockEnd
  0
BLOCK
  5
7EA
100
AcDbEntity
  8
0
100
AcDbBlockBegin
  2
*B49
 70
     0
 10
0.0
 20
0.0
 30
0.0
  3
*B49
  1

  0
LINE
  5
7EB
100
AcDbEntity
  8
0
  6
Continuous
 62
     8
100
AcDbLine
 10
161.975841
 20
117.399117
 30
0.0
 11
161.975841
 21
121.398979
 31
0.0
  0
LINE
  5
7EC
100
AcDbEntity
  8
0
  6
Continuous
 62
     8
100
AcDbLine
 10
161.975841
 20
121.398979
 30
0.0
 11
161.975841
 21
126.398542
 31
0.0
  0
LINE
  5
7ED
100
AcDbEntity
  8
0
  6
Continuous
 62
     8
100
AcDbLine
 10
161.975841
 20
127.398454
 30
0.0
 11
161.975841
 21
128.398579
 31
0.0
  0
LINE
  5
7EE
100
AcDbEntity
  8
0
  6
Continuous
 62
     8
100
AcDbLine
 10
161.975841
 20
129.398492
 30
0.0
 11
161.975841
 21
134.398267
 31
0.0
  0
LINE
  5
7EF
100
AcDbEntity
  8
0
  6
Continuous
 62
     8
100
AcDbLine
 10
161.975841
 20
135.398179
 30
0.0
 11
161.975841
 21
136.398092
 31
0.0
  0
LINE
  5
7F0
100
AcDbEntity
  8
0
  6
Continuous
 62
     8
100
AcDbLine
 10
161.975841
 20
137.398004
 30
0.0
 11
161.975841
 21
142.397779
 31
0.0
  0
LINE
  5
7F1
100
AcDbEntity
  8
0
  6
Continuous
 62
     8
100
AcDbLine
 10
161.975841
 20
143.397692
 30
0.0
 11
161.975841
 21
144.397604
 31
0.0
  0
LINE
  5
7F2
100
AcDbEntity
  8
0
  6
Continuous
 62
     8
100
AcDbLine
 10
161.975841
 20
145.397517
 30
0.0
 11
161.975841
 21
150.397292
 31
0.0
  0
LINE
  5
7F3
100
AcDbEntity
  8
0
  6
Continuous
 62
     8
100
AcDbLine
 10
161.975841
 20
153.397029
 30
0.0
 11
161.975841
 21
158.396804
 31
0.0
  0
LINE
  5
7F4
100
AcDbEntity
  8
0
  6
Continuous
 62
     8
100
AcDbLine
 10
161.975841
 20
159.396717
 30
0.0
 11
161.975841
 21
160.396629
 31
0.0
  0
LINE
  5
7F5
100
AcDbEntity
  8
0
  6
Continuous
 62
     8
100
AcDbLine
 10
161.975841
 20
161.396754
 30
0.0
 11
161.975841
 21
166.396317
 31
0.0
  0
LINE
  5
7F6
100
AcDbEntity
  8
0
  6
Continuous
 62
     8
100
AcDbLine
 10
161.975841
 20
169.396266
 30
0.0
 11
161.975841
 21
173.645948
 31
0.0
  0
ENDBLK
  5
7F7
100
AcDbEntity
  8
0
100
AcDbBlockEnd
  0
BLOCK
  5
7FA
100
AcDbEntity
  8
0
100
AcDbBlockBegin
  2
*B50
 70
     0
 10
0.0
 20
0.0
 30
0.0
  3
*B50
  1

  0
LINE
  5
7FB
100
AcDbEntity
  8
0
  6
Continuous
 62
     8
100
AcDbLine
 10
161.975841
 20
21.192962
 30
0.0
 11
161.975841
 21
25.442643
 31
0.0
  0
LINE
  5
7FC
100
AcDbEntity
  8
0
  6
Continuous
 62
     8
100
AcDbLine
 10
161.975841
 20
28.44238
 30
0.0
 11
161.975841
 21
32.692274
 31
0.0
  0
ENDBLK
  5
7FD
100
AcDbEntity
  8
0
100
AcDbBlockEnd
  0
BLOCK
  5
800
100
AcDbEntity
  8
0
100
AcDbBlockBegin
  2
*B51
 70
     0
 10
0.0
 20
0.0
 30
0.0
  3
*B51
  1

  0
LINE
  5
801
100
AcDbEntity
  8
0
  6
Continuous
 62
     8
100
AcDbLine
 10
137.975816
 20
53.191011
 30
0.0
 11
137.975816
 21
57.440905
 31
0.0
  0
LINE
  5
802
100
AcDbEntity
  8
0
  6
Continuous
 62
     8
100
AcDbLine
 10
137.975816
 20
60.440643
 30
0.0
 11
137.975816
 21
64.690324
 31
0.0
  0
ENDBLK
  5
803
100
AcDbEntity
  8
0
100
AcDbBlockEnd
  0
BLOCK
  5
806
100
AcDbEntity
  8
0
100
AcDbBlockBegin
  2
*B52
 70
     0
 10
0.0
 20
0.0
 30
0.0
  3
*B52
  1

  0
LINE
  5
807
100
AcDbEntity
  8
0
  6
Continuous
 62
     8
100
AcDbLine
 10
132.225735
 20
135.898029
 30
0.0
 11
136.475842
 21
135.898029
 31
0.0
  0
LINE
  5
808
100
AcDbEntity
  8
0
  6
Continuous
 62
     8
100
AcDbLine
 10
139.475791
 20
135.898029
 30
0.0
 11
143.725898
 21
135.898029
 31
0.0
  0
ENDBLK
  5
809
100
AcDbEntity
  8
0
100
AcDbBlockEnd
  0
BLOCK
  5
80C
100
AcDbEntity
  8
0
100
AcDbBlockBegin
  2
*B53
 70
     0
 10
0.0
 20
0.0
 30
0.0
  3
*B53
  1

  0
LINE
  5
80D
100
AcDbEntity
  8
0
  6
Continuous
 62
     8
100
AcDbLine
 10
161.975841
 20
82.093517
 30
0.0
 11
161.975841
 21
89.426634
 31
0.0
  0
LINE
  5
80E
100
AcDbEntity
  8
0
  6
Continuous
 62
     8
100
AcDbLine
 10
161.975841
 20
90.426546
 30
0.0
 11
161.975841
 21
91.426459
 31
0.0
  0
LINE
  5
80F
100
AcDbEntity
  8
0
  6
Continuous
 62
     8
100
AcDbLine
 10
161.975841
 20
92.426371
 30
0.0
 11
161.975841
 21
99.759275
 31
0.0
  0
LINE
  5
810
100
AcDbEntity
  8
0
  6
Continuous
 62
     8
100
AcDbLine
 10
161.975841
 20
100.759188
 30
0.0
 11
161.975841
 21
101.7591
 31
0.0
  0
LINE
  5
811
100
AcDbEntity
  8
0
  6
Continuous
 62
     8
100
AcDbLine
 10
161.975841
 20
102.759013
 30
0.0
 11
161.975841
 21
110.092129
 31
0.0
  0
ENDBLK
  5
812
100
AcDbEntity
  8
0
100
AcDbBlockEnd
  0
BLOCK
  5
815
100
AcDbEntity
  8
0
100
AcDbBlockBegin
  2
*B54
 70
     0
 10
0.0
 20
0.0
 30
0.0
  3
*B54
  1

  0
LINE
  5
816
100
AcDbEntity
  8
0
  6
Continuous
 62
     8
100
AcDbLine
 10
149.975829
 20
162.146635
 30
0.0
 11
149.975829
 21
166.396317
 31
0.0
  0
LINE
  5
817
100
AcDbEntity
  8
0
  6
Continuous
 62
     8
100
AcDbLine
 10
149.975829
 20
169.396266
 30
0.0
 11
149.975829
 21
173.645948
 31
0.0
  0
ENDBLK
  5
818
100
AcDbEntity
  8
0
100
AcDbBlockEnd
  0
BLOCK
  5
81B
100
AcDbEntity
  8
0
100
AcDbBlockBegin
  2
*B55
 70
     0
 10
0.0
 20
0.0
 30
0.0
  3
*B55
  1

  0
LINE
  5
81C
100
AcDbEntity
  8
0
  6
Continuous
 62
     6
100
AcDbLine
 10
149.475766
 20
58.940668
 30
0.0
 11
150.475891
 21
58.940668
 31
0.0
  0
LINE
  5
81D
100
AcDbEntity
  8
0
  6
Continuous
 62
     6
100
AcDbLine
 10
149.975829
 20
58.440818
 30
0.0
 11
149.975829
 21
59.44073
 31
0.0
  0
ENDBLK
  5
81E
100
AcDbEntity
  8
0
100
AcDbBlockEnd
  0
BLOCK
  5
821
100
AcDbEntity
  8
0
100
AcDbBlockBegin
  2
*B56
 70
     0
 10
0.0
 20
0.0
 30
0.0
  3
*B56
  1

  0
LINE
  5
822
100
AcDbEntity
  8
0
  6
Continuous
 62
     6
100
AcDbLine
 10
159.475741
 20
41.94173
 30
0.0
 11
160.475866
 21
41.94173
 31
0.0
  0
LINE
  5
823
100
AcDbEntity
  8
0
  6
Continuous
 62
     6
100
AcDbLine
 10
159.975803
 20
41.441668
 30
0.0
 11
159.975803
 21
42.44158
 31
0.0
  0
ENDBLK
  5
824
100
AcDbEntity
  8
0
100
AcDbBlockEnd
  0
BLOCK
  5
827
100
AcDbEntity
  8
0
100
AcDbBlockBegin
  2
*B57
 70
     0
 10
0.0
 20
0.0
 30
0.0
  3
*B57
  1

  0
LINE
  5
828
100
AcDbEntity
  8
0
  6
Continuous
 62
     6
100
AcDbLine
 10
132.475767
 20
42.941643
 30
0.0
 11
133.475892
 21
42.941643
 31
0.0
  0
LINE
  5
829
100
AcDbEntity
  8
0
  6
Continuous
 62
     6
100
AcDbLine
 10
132.975829
 20
42.44158
 30
0.0
 11
132.975829
 21
43.441705
 31
0.0
  0
ENDBLK
  5
82A
100
AcDbEntity
  8
0
100
AcDbBlockEnd
  0
BLOCK
  5
82D
100
AcDbEntity
  8
0
100
AcDbBlockBegin
  2
*B58
 70
     0
 10
0.0
 20
0.0
 30
0.0
  3
*B58
  1

  0
LINE
  5
82E
100
AcDbEntity
  8
0
  6
Continuous
 62
     6
100
AcDbLine
 10
149.475766
 20
167.896291
 30
0.0
 11
150.475891
 21
167.896291
 31
0.0
  0
LINE
  5
82F
100
AcDbEntity
  8
0
  6
Continuous
 62
     6
100
AcDbLine
 10
149.975829
 20
167.396229
 30
0.0
 11
149.975829
 21
168.396354
 31
0.0
  0
ENDBLK
  5
830
100
AcDbEntity
  8
0
100
AcDbBlockEnd
  0
BLOCK
  5
833
100
AcDbEntity
  8
0
100
AcDbBlockBegin
  2
*B59
 70
     0
 10
0.0
 20
0.0
 30
0.0
  3
*B59
  1

  0
LINE
  5
834
100
AcDbEntity
  8
0
  6
Continuous
 62
     6
100
AcDbLine
 10
161.975841
 20
151.397204
 30
0.0
 11
161.975841
 21
152.397117
 31
0.0
  0
LINE
  5
835
100
AcDbEntity
  8
0
  6
Continuous
 62
     6
100
AcDbLine
 10
161.475778
 20
151.897267
 30
0.0
 11
162.475691
 21
151.897267
 31
0.0
  0
ENDBLK
  5
836
100
AcDbEntity
  8
0
100
AcDbBlockEnd
  0
BLOCK
  5
839
100
AcDbEntity
  8
0
100
AcDbBlockBegin
  2
*B60
 70
     0
 10
0.0
 20
0.0
 30
0.0
  3
*B60
  1

  0
LINE
  5
83A
100
AcDbEntity
  8
0
  6
Continuous
 62
     6
100
AcDbLine
 10
161.475778
 20
167.896291
 30
0.0
 11
162.475691
 21
167.896291
 31
0.0
  0
LINE
  5
83B
100
AcDbEntity
  8
0
  6
Continuous
 62
     6
100
AcDbLine
 10
161.975841
 20
167.396229
 30
0.0
 11
161.975841
 21
168.396354
 31
0.0
  0
ENDBLK
  5
83C
100
AcDbEntity
  8
0
100
AcDbBlockEnd
  0
BLOCK
  5
83F
100
AcDbEntity
  8
0
100
AcDbBlockBegin
  2
*B61
 70
     0
 10
0.0
 20
0.0
 30
0.0
  3
*B61
  1

  0
LINE
  5
840
100
AcDbEntity
  8
0
  6
Continuous
 62
     6
100
AcDbLine
 10
137.475754
 20
58.940668
 30
0.0
 11
138.475879
 21
58.940668
 31
0.0
  0
LINE
  5
841
100
AcDbEntity
  8
0
  6
Continuous
 62
     6
100
AcDbLine
 10
137.975816
 20
58.440818
 30
0.0
 11
137.975816
 21
59.44073
 31
0.0
  0
ENDBLK
  5
842
100
AcDbEntity
  8
0
100
AcDbBlockEnd
  0
BLOCK
  5
845
100
AcDbEntity
  8
0
100
AcDbBlockBegin
  2
*B62
 70
     0
 10
0.0
 20
0.0
 30
0.0
  3
*B62
  1

  0
LINE
  5
846
100
AcDbEntity
  8
0
  6
Continuous
 62
     6
100
AcDbLine
 10
137.475754
 20
151.897267
 30
0.0
 11
138.475879
 21
151.897267
 31
0.0
  0
LINE
  5
847
100
AcDbEntity
  8
0
  6
Continuous
 62
     6
100
AcDbLine
 10
137.975816
 20
151.397204
 30
0.0
 11
137.975816
 21
152.397117
 31
0.0
  0
ENDBLK
  5
848
100
AcDbEntity
  8
0
100
AcDbBlockEnd
  0
BLOCK
  5
84B
100
AcDbEntity
  8
0
100
AcDbBlockBegin
  2
*B63
 70
     0
 10
0.0
 20
0.0
 30
0.0
  3
*B63
  1

  0
LINE
  5
84C
100
AcDbEntity
  8
0
  6
Continuous
 62
     6
100
AcDbLine
 10
149.475766
 20
26.942618
 30
0.0
 11
150.475891
 21
26.942618
 31
0.0
  0
LINE
  5
84D
100
AcDbEntity
  8
0
  6
Continuous
 62
     6
100
AcDbLine
 10
149.975829
 20
26.442555
 30
0.0
 11
149.975829
 21
27.442468
 31
0.0
  0
ENDBLK
  5
84E
100
AcDbEntity
  8
0
100
AcDbBlockEnd
  0
BLOCK
  5
851
100
AcDbEntity
  8
0
100
AcDbBlockBegin
  2
*B64
 70
     0
 10
0.0
 20
0.0
 30
0.0
  3
*B64
  1

  0
LINE
  5
852
100
AcDbEntity
  8
0
  6
Continuous
 62
     6
100
AcDbLine
 10
137.475754
 20
135.898029
 30
0.0
 11
138.475879
 21
135.898029
 31
0.0
  0
LINE
  5
853
100
AcDbEntity
  8
0
  6
Continuous
 62
     6
100
AcDbLine
 10
137.975816
 20
135.398179
 30
0.0
 11
137.975816
 21
136.398092
 31
0.0
  0
ENDBLK
  5
854
100
AcDbEntity
  8
0
100
AcDbBlockEnd
  0
BLOCK
  5
857
100
AcDbEntity
  8
0
100
AcDbBlockBegin
  2
*B65
 70
     0
 10
0.0
 20
0.0
 30
0.0
  3
*B65
  1

  0
LINE
  5
858
100
AcDbEntity
  8
0
  6
Continuous
 62
     6
100
AcDbLine
 10
161.975841
 20
26.442555
 30
0.0
 11
161.975841
 21
27.442468
 31
0.0
  0
LINE
  5
859
100
AcDbEntity
  8
0
  6
Continuous
 62
     6
100
AcDbLine
 10
161.475778
 20
26.942618
 30
0.0
 11
162.475691
 21
26.942618
 31
0.0
  0
ENDBLK
  5
85A
100
AcDbEntity
  8
0
100
AcDbBlockEnd
  0
BLOCK
  5
85D
100
AcDbEntity
  8
0
100
AcDbBlockBegin
  2
*B66
 70
     0
 10
0.0
 20
0.0
 30
0.0
  3
*B66
  1

  0
LINE
  5
85E
100
AcDbEntity
  8
0
  6
Continuous
 62
     6
100
AcDbLine
 10
137.475754
 20
156.896829
 30
0.0
 11
138.475879
 21
156.896829
 31
0.0
  0
LINE
  5
85F
100
AcDbEntity
  8
0
  6
Continuous
 62
     6
100
AcDbLine
 10
137.975816
 20
156.396979
 30
0.0
 11
137.975816
 21
157.396892
 31
0.0
  0
ENDBLK
  5
860
100
AcDbEntity
  8
0
100
AcDbBlockEnd
  0
BLOCK
  5
863
100
AcDbEntity
  8
0
100
AcDbBlockBegin
  2
*B67
 70
     0
 10
0.0
 20
0.0
 30
0.0
  3
*B67
  1

  0
LINE
  5
864
100
AcDbEntity
  8
0
  6
Continuous
 62
     6
100
AcDbLine
 10
159.975803
 20
152.397117
 30
0.0
 11
159.975803
 21
153.397029
 31
0.0
  0
LINE
  5
865
100
AcDbEntity
  8
0
  6
Continuous
 62
     6
100
AcDbLine
 10
159.475741
 20
152.897179
 30
0.0
 11
160.475866
 21
152.897179
 31
0.0
  0
ENDBLK
  5
866
100
AcDbEntity
  8
0
100
AcDbBlockEnd
  0
BLOCK
  5
869
100
AcDbEntity
  8
0
100
AcDbBlockBegin
  2
*B68
 70
     0
 10
0.0
 20
0.0
 30
0.0
  3
*B68
  1

  0
TEXT
  5
86A
100
AcDbEntity
  8
TEXT
  6
Continuous
 62
     0
100
AcDbText
 10
147.663034
 20
184.5
 30
0.0
 40
3.0
  1
64
100
AcDbText
  0
ENDBLK
  5
86B
100
AcDbEntity
  8
0
100
AcDbBlockEnd
  0
BLOCK
  5
86E
100
AcDbEntity
  8
0
100
AcDbBlockBegin
  2
*B69
 70
     0
 10
0.0
 20
0.0
 30
0.0
  3
*B69
  1

  0
TEXT
  5
86F
100
AcDbEntity
  8
TEXT
  6
Continuous
 62
     0
100
AcDbText
 10
157.891071
 20
12.342105
 30
0.0
 40
3.0
  1
M5
100
AcDbText
  0
ENDBLK
  5
870
100
AcDbEntity
  8
0
100
AcDbBlockEnd
  0
BLOCK
  5
873
100
AcDbEntity
  8
0
100
AcDbBlockBegin
  2
*B70
 70
     0
 10
0.0
 20
0.0
 30
0.0
  3
*B70
  1

  0
TEXT
  5
874
100
AcDbEntity
  8
TEXT
  6
Continuous
 62
     0
100
AcDbText
 10
206.5
 20
40.631228
 30
0.0
 40
3.0
  1
32
 50
90.0
100
AcDbText
  0
ENDBLK
  5
875
100
AcDbEntity
  8
0
100
AcDbBlockEnd
  0
BLOCK
  5
878
100
AcDbEntity
  8
0
100
AcDbBlockBegin
  2
*B71
 70
     0
 10
0.0
 20
0.0
 30
0.0
  3
*B71
  1

  0
TEXT
  5
879
100
AcDbEntity
  8
TEXT
  6
Continuous
 62
     0
100
AcDbText
 10
169.891071
 20
75.18421
 30
0.0
 40
3.0
  1
%%c5,5
100
AcDbText
  0
ENDBLK
  5
87A
100
AcDbEntity
  8
0
100
AcDbBlockEnd
  0
BLOCK
  5
87D
100
AcDbEntity
  8
0
100
AcDbBlockBegin
  2
*B72
 70
     0
 10
0.0
 20
0.0
 30
0.0
  3
*B72
  1

  0
TEXT
  5
87E
100
AcDbEntity
  8
TEXT
  6
Continuous
 62
     0
100
AcDbText
 10
125.663034
 20
120.887559
 30
0.0
 40
3.0
  1
20
100
AcDbText
  0
ENDBLK
  5
87F
100
AcDbEntity
  8
0
100
AcDbBlockEnd
  0
BLOCK
  5
882
100
AcDbEntity
  8
0
100
AcDbBlockBegin
  2
*B73
 70
     0
 10
0.0
 20
0.0
 30
0.0
  3
*B73
  1

  0
TEXT
  5
883
100
AcDbEntity
  8
TEXT
  6
Continuous
 62
     0
100
AcDbText
 10
147.663034
 20
120.887559
 30
0.0
 40
3.0
  1
24
100
AcDbText
  0
ENDBLK
  5
884
100
AcDbEntity
  8
0
100
AcDbBlockEnd
  0
BLOCK
  5
887
100
AcDbEntity
  8
0
100
AcDbBlockBegin
  2
*B74
 70
     0
 10
0.0
 20
0.0
 30
0.0
  3
*B74
  1

  0
TEXT
  5
888
100
AcDbEntity
  8
TEXT
  6
Continuous
 62
     0
100
AcDbText
 10
169.663034
 20
120.887559
 30
0.0
 40
3.0
  1
20
100
AcDbText
  0
ENDBLK
  5
889
100
AcDbEntity
  8
0
100
AcDbBlockEnd
  0
BLOCK
  5
88C
100
AcDbEntity
  8
0
100
AcDbBlockBegin
  2
*B75
 70
     0
 10
0.0
 20
0.0
 30
0.0
  3
*B75
  1

  0
TEXT
  5
88D
100
AcDbEntity
  8
TEXT
  6
Continuous
 62
     0
100
AcDbText
 10
207.5
 20
93.785411
 30
0.0
 40
3.0
  1
22
 50
90.0
100
AcDbText
  0
ENDBLK
  5
88E
100
AcDbEntity
  8
0
100
AcDbBlockEnd
  0
BLOCK
  5
891
100
AcDbEntity
  8
0
100
AcDbBlockBegin
  2
*B76
 70
     0
 10
0.0
 20
0.0
 30
0.0
  3
*B76
  1

  0
TEXT
  5
892
100
AcDbEntity
  8
TEXT
  6
Continuous
 62
     0
100
AcDbText
 10
91.5
 20
154.200063
 30
0.0
 40
3.0
  1
26,5
 50
90.0
100
AcDbText
  0
ENDBLK
  5
893
100
AcDbEntity
  8
0
100
AcDbBlockEnd
  0
BLOCK
  5
896
100
AcDbEntity
  8
0
100
AcDbBlockBegin
  2
*B77
 70
     0
 10
0.0
 20
0.0
 30
0.0
  3
*B77
  1

  0
TEXT
  5
897
100
AcDbEntity
  8
TEXT
  6
Continuous
 62
     0
100
AcDbText
 10
207.5
 20
149.592921
 30
0.0
 40
3.0
  1
40
 50
90.0
100
AcDbText
  0
ENDBLK
  5
898
100
AcDbEntity
  8
0
100
AcDbBlockEnd
  0
BLOCK
  5
89B
100
AcDbEntity
  8
0
100
AcDbBlockBegin
  2
*B78
 70
     0
 10
0.0
 20
0.0
 30
0.0
  3
*B78
  1

  0
TEXT
  5
89C
100
AcDbEntity
  8
TEXT
  6
Continuous
 62
     0
100
AcDbText
 10
199.571429
 20
190.5
 30
0.0
 40
3.0
  1
min. 13
100
AcDbText
  0
TEXT
  5
89D
100
AcDbEntity
  8
TEXT
  6
Continuous
 62
     0
100
AcDbText
 10
199.571429
 20
184.5
 30
0.0
 40
3.0
  1
max. 20
100
AcDbText
  0
ENDBLK
  5
89E
100
AcDbEntity
  8
0
100
AcDbBlockEnd
  0
BLOCK
  5
8A1
100
AcDbEntity
  8
0
100
AcDbBlockBegin
  2
*B79
 70
     0
 10
0.0
 20
0.0
 30
0.0
  3
*B79
  1

  0
TEXT
  5
8A2
100
AcDbEntity
  8
TEXT
  6
Continuous
 62
     0
100
AcDbText
 10
81.571429
 20
190.5
 30
0.0
 40
3.0
  1
min. 13
100
AcDbText
  0
TEXT
  5
8A3
100
AcDbEntity
  8
TEXT
  6
Continuous
 62
     0
100
AcDbText
 10
81.571429
 20
184.5
 30
0.0
 40
3.0
  1
max. 20
100
AcDbText
  0
ENDBLK
  5
8A4
100
AcDbEntity
  8
0
100
AcDbBlockEnd
  0
ENDSEC
  0
SECTION
  2
ENTITIES
  0
INSERT
  5
1DD
100
AcDbEntity
  8
0
  6
Continuous
 62
   174
100
AcDbBlockReference
  2
*B2
 10
0.0
 20
0.0
 30
0.0
  0
INSERT
  5
4C5
100
AcDbEntity
  8
0
  6
HIDDEN
 62
   174
100
AcDbBlockReference
  2
*B3
 10
0.0
 20
0.0
 30
0.0
  0
INSERT
  5
675
100
AcDbEntity
  8
0
  6
Continuous
 62
   174
100
AcDbBlockReference
  2
*B4
 10
0.0
 20
0.0
 30
0.0
  0
INSERT
  5
67C
100
AcDbEntity
  8
0
  6
Continuous
 62
     0
100
AcDbBlockReference
  2
*B5
 10
0.0
 20
0.0
 30
0.0
  0
INSERT
  5
683
100
AcDbEntity
  8
0
  6
Continuous
 62
     0
100
AcDbBlockReference
  2
*B6
 10
0.0
 20
0.0
 30
0.0
  0
INSERT
  5
68A
100
AcDbEntity
  8
0
  6
Continuous
 62
     0
100
AcDbBlockReference
  2
*B7
 10
0.0
 20
0.0
 30
0.0
  0
INSERT
  5
691
100
AcDbEntity
  8
0
  6
Continuous
 62
     0
100
AcDbBlockReference
  2
*B8
 10
0.0
 20
0.0
 30
0.0
  0
INSERT
  5
698
100
AcDbEntity
  8
0
  6
Continuous
 62
     0
100
AcDbBlockReference
  2
*B9
 10
0.0
 20
0.0
 30
0.0
  0
INSERT
  5
69F
100
AcDbEntity
  8
0
  6
Continuous
 62
     0
100
AcDbBlockReference
  2
*B10
 10
0.0
 20
0.0
 30
0.0
  0
INSERT
  5
6A6
100
AcDbEntity
  8
0
  6
Continuous
 62
     0
100
AcDbBlockReference
  2
*B11
 10
0.0
 20
0.0
 30
0.0
  0
INSERT
  5
6AD
100
AcDbEntity
  8
0
  6
Continuous
 62
     0
100
AcDbBlockReference
  2
*B12
 10
0.0
 20
0.0
 30
0.0
  0
INSERT
  5
6B4
100
AcDbEntity
  8
0
  6
Continuous
 62
     0
100
AcDbBlockReference
  2
*B13
 10
0.0
 20
0.0
 30
0.0
  0
INSERT
  5
6BB
100
AcDbEntity
  8
0
  6
Continuous
 62
     0
100
AcDbBlockReference
  2
*B14
 10
0.0
 20
0.0
 30
0.0
  0
INSERT
  5
6C2
100
AcDbEntity
  8
0
  6
Continuous
 62
     0
100
AcDbBlockReference
  2
*B15
 10
0.0
 20
0.0
 30
0.0
  0
INSERT
  5
6C9
100
AcDbEntity
  8
0
  6
Continuous
 62
     0
100
AcDbBlockReference
  2
*B16
 10
0.0
 20
0.0
 30
0.0
  0
INSERT
  5
6CF
100
AcDbEntity
  8
0
  6
Continuous
 62
     8
100
AcDbBlockReference
  2
*B17
 10
0.0
 20
0.0
 30
0.0
  0
INSERT
  5
6D5
100
AcDbEntity
  8
0
  6
Continuous
 62
     8
100
AcDbBlockReference
  2
*B18
 10
0.0
 20
0.0
 30
0.0
  0
INSERT
  5
6DA
100
AcDbEntity
  8
0
  6
Continuous
 62
     8
100
AcDbBlockReference
  2
*B19
 10
0.0
 20
0.0
 30
0.0
  0
INSERT
  5
6DF
100
AcDbEntity
  8
0
  6
Continuous
 62
     8
100
AcDbBlockReference
  2
*B20
 10
0.0
 20
0.0
 30
0.0
  0
INSERT
  5
6E5
100
AcDbEntity
  8
0
  6
Continuous
 62
     8
100
AcDbBlockReference
  2
*B21
 10
0.0
 20
0.0
 30
0.0
  0
INSERT
  5
6EB
100
AcDbEntity
  8
0
  6
Continuous
 62
     8
100
AcDbBlockReference
  2
*B22
 10
0.0
 20
0.0
 30
0.0
  0
INSERT
  5
6F0
100
AcDbEntity
  8
0
  6
Continuous
 62
     8
100
AcDbBlockReference
  2
*B23
 10
0.0
 20
0.0
 30
0.0
  0
INSERT
  5
70B
100
AcDbEntity
  8
0
  6
Continuous
 62
     8
100
AcDbBlockReference
  2
*B24
 10
0.0
 20
0.0
 30
0.0
  0
INSERT
  5
710
100
AcDbEntity
  8
0
  6
Continuous
 62
     8
100
AcDbBlockReference
  2
*B25
 10
0.0
 20
0.0
 30
0.0
  0
INSERT
  5
716
100
AcDbEntity
  8
0
  6
Continuous
 62
     8
100
AcDbBlockReference
  2
*B26
 10
0.0
 20
0.0
 30
0.0
  0
INSERT
  5
731
100
AcDbEntity
  8
0
  6
Continuous
 62
     8
100
AcDbBlockReference
  2
*B27
 10
0.0
 20
0.0
 30
0.0
  0
INSERT
  5
736
100
AcDbEntity
  8
0
  6
Continuous
 62
     8
100
AcDbBlockReference
  2
*B28
 10
0.0
 20
0.0
 30
0.0
  0
INSERT
  5
73C
100
AcDbEntity
  8
0
  6
Continuous
 62
     8
100
AcDbBlockReference
  2
*B29
 10
0.0
 20
0.0
 30
0.0
  0
INSERT
  5
741
100
AcDbEntity
  8
0
  6
Continuous
 62
     8
100
AcDbBlockReference
  2
*B30
 10
0.0
 20
0.0
 30
0.0
  0
INSERT
  5
747
100
AcDbEntity
  8
0
  6
Continuous
 62
     8
100
AcDbBlockReference
  2
*B31
 10
0.0
 20
0.0
 30
0.0
  0
INSERT
  5
74C
100
AcDbEntity
  8
0
  6
Continuous
 62
     8
100
AcDbBlockReference
  2
*B32
 10
0.0
 20
0.0
 30
0.0
  0
INSERT
  5
752
100
AcDbEntity
  8
0
  6
Continuous
 62
     8
100
AcDbBlockReference
  2
*B33
 10
0.0
 20
0.0
 30
0.0
  0
INSERT
  5
757
100
AcDbEntity
  8
0
  6
Continuous
 62
     8
100
AcDbBlockReference
  2
*B34
 10
0.0
 20
0.0
 30
0.0
  0
INSERT
  5
75D
100
AcDbEntity
  8
0
  6
Continuous
 62
     8
100
AcDbBlockReference
  2
*B35
 10
0.0
 20
0.0
 30
0.0
  0
INSERT
  5
763
100
AcDbEntity
  8
0
  6
Continuous
 62
     8
100
AcDbBlockReference
  2
*B36
 10
0.0
 20
0.0
 30
0.0
  0
INSERT
  5
769
100
AcDbEntity
  8
0
  6
Continuous
 62
     8
100
AcDbBlockReference
  2
*B37
 10
0.0
 20
0.0
 30
0.0
  0
INSERT
  5
76F
100
AcDbEntity
  8
0
  6
Continuous
 62
     8
100
AcDbBlockReference
  2
*B38
 10
0.0
 20
0.0
 30
0.0
  0
INSERT
  5
778
100
AcDbEntity
  8
0
  6
Continuous
 62
     8
100
AcDbBlockReference
  2
*B39
 10
0.0
 20
0.0
 30
0.0
  0
INSERT
  5
785
100
AcDbEntity
  8
0
  6
Continuous
 62
     8
100
AcDbBlockReference
  2
*B40
 10
0.0
 20
0.0
 30
0.0
  0
INSERT
  5
7A3
100
AcDbEntity
  8
0
  6
Continuous
 62
     8
100
AcDbBlockReference
  2
*B41
 10
0.0
 20
0.0
 30
0.0
  0
INSERT
  5
7B2
100
AcDbEntity
  8
0
  6
Continuous
 62
     8
100
AcDbBlockReference
  2
*B42
 10
0.0
 20
0.0
 30
0.0
  0
INSERT
  5
7B8
100
AcDbEntity
  8
0
  6
Continuous
 62
     8
100
AcDbBlockReference
  2
*B43
 10
0.0
 20
0.0
 30
0.0
  0
INSERT
  5
7BE
100
AcDbEntity
  8
0
  6
Continuous
 62
     8
100
AcDbBlockReference
  2
*B44
 10
0.0
 20
0.0
 30
0.0
  0
INSERT
  5
7C3
100
AcDbEntity
  8
0
  6
Continuous
 62
     8
100
AcDbBlockReference
  2
*B45
 10
0.0
 20
0.0
 30
0.0
  0
INSERT
  5
7CE
100
AcDbEntity
  8
0
  6
Continuous
 62
     8
100
AcDbBlockReference
  2
*B46
 10
0.0
 20
0.0
 30
0.0
  0
INSERT
  5
7D4
100
AcDbEntity
  8
0
  6
Continuous
 62
     8
100
AcDbBlockReference
  2
*B47
 10
0.0
 20
0.0
 30
0.0
  0
INSERT
  5
7E8
100
AcDbEntity
  8
0
  6
Continuous
 62
     8
100
AcDbBlockReference
  2
*B48
 10
0.0
 20
0.0
 30
0.0
  0
INSERT
  5
7F8
100
AcDbEntity
  8
0
  6
Continuous
 62
     8
100
AcDbBlockReference
  2
*B49
 10
0.0
 20
0.0
 30
0.0
  0
INSERT
  5
7FE
100
AcDbEntity
  8
0
  6
Continuous
 62
     8
100
AcDbBlockReference
  2
*B50
 10
0.0
 20
0.0
 30
0.0
  0
INSERT
  5
804
100
AcDbEntity
  8
0
  6
Continuous
 62
     8
100
AcDbBlockReference
  2
*B51
 10
0.0
 20
0.0
 30
0.0
  0
INSERT
  5
80A
100
AcDbEntity
  8
0
  6
Continuous
 62
     8
100
AcDbBlockReference
  2
*B52
 10
0.0
 20
0.0
 30
0.0
  0
INSERT
  5
813
100
AcDbEntity
  8
0
  6
Continuous
 62
     8
100
AcDbBlockReference
  2
*B53
 10
0.0
 20
0.0
 30
0.0
  0
INSERT
  5
819
100
AcDbEntity
  8
0
  6
Continuous
 62
     8
100
AcDbBlockReference
  2
*B54
 10
0.0
 20
0.0
 30
0.0
  0
INSERT
  5
81F
100
AcDbEntity
  8
0
  6
Continuous
 62
     6
100
AcDbBlockReference
  2
*B55
 10
0.0
 20
0.0
 30
0.0
  0
INSERT
  5
825
100
AcDbEntity
  8
0
  6
Continuous
 62
     6
100
AcDbBlockReference
  2
*B56
 10
0.0
 20
0.0
 30
0.0
  0
INSERT
  5
82B
100
AcDbEntity
  8
0
  6
Continuous
 62
     6
100
AcDbBlockReference
  2
*B57
 10
0.0
 20
0.0
 30
0.0
  0
INSERT
  5
831
100
AcDbEntity
  8
0
  6
Continuous
 62
     6
100
AcDbBlockReference
  2
*B58
 10
0.0
 20
0.0
 30
0.0
  0
INSERT
  5
837
100
AcDbEntity
  8
0
  6
Continuous
 62
     6
100
AcDbBlockReference
  2
*B59
 10
0.0
 20
0.0
 30
0.0
  0
INSERT
  5
83D
100
AcDbEntity
  8
0
  6
Continuous
 62
     6
100
AcDbBlockReference
  2
*B60
 10
0.0
 20
0.0
 30
0.0
  0
INSERT
  5
843
100
AcDbEntity
  8
0
  6
Continuous
 62
     6
100
AcDbBlockReference
  2
*B61
 10
0.0
 20
0.0
 30
0.0
  0
INSERT
  5
849
100
AcDbEntity
  8
0
  6
Continuous
 62
     6
100
AcDbBlockReference
  2
*B62
 10
0.0
 20
0.0
 30
0.0
  0
INSERT
  5
84F
100
AcDbEntity
  8
0
  6
Continuous
 62
     6
100
AcDbBlockReference
  2
*B63
 10
0.0
 20
0.0
 30
0.0
  0
INSERT
  5
855
100
AcDbEntity
  8
0
  6
Continuous
 62
     6
100
AcDbBlockReference
  2
*B64
 10
0.0
 20
0.0
 30
0.0
  0
INSERT
  5
85B
100
AcDbEntity
  8
0
  6
Continuous
 62
     6
100
AcDbBlockReference
  2
*B65
 10
0.0
 20
0.0
 30
0.0
  0
INSERT
  5
861
100
AcDbEntity
  8
0
  6
Continuous
 62
     6
100
AcDbBlockReference
  2
*B66
 10
0.0
 20
0.0
 30
0.0
  0
INSERT
  5
867
100
AcDbEntity
  8
0
  6
Continuous
 62
     6
100
AcDbBlockReference
  2
*B67
 10
0.0
 20
0.0
 30
0.0
  0
INSERT
  5
86C
100
AcDbEntity
  8
TEXT
  6
Continuous
 62
     0
100
AcDbBlockReference
  2
*B68
 10
0.0
 20
0.0
 30
0.0
  0
INSERT
  5
871
100
AcDbEntity
  8
TEXT
  6
Continuous
 62
     0
100
AcDbBlockReference
  2
*B69
 10
0.0
 20
0.0
 30
0.0
  0
INSERT
  5
876
100
AcDbEntity
  8
TEXT
  6
Continuous
 62
     0
100
AcDbBlockReference
  2
*B70
 10
0.0
 20
0.0
 30
0.0
  0
INSERT
  5
87B
100
AcDbEntity
  8
TEXT
  6
Continuous
 62
     0
100
AcDbBlockReference
  2
*B71
 10
0.0
 20
0.0
 30
0.0
  0
INSERT
  5
880
100
AcDbEntity
  8
TEXT
  6
Continuous
 62
     0
100
AcDbBlockReference
  2
*B72
 10
0.0
 20
0.0
 30
0.0
  0
INSERT
  5
885
100
AcDbEntity
  8
TEXT
  6
Continuous
 62
     0
100
AcDbBlockReference
  2
*B73
 10
0.0
 20
0.0
 30
0.0
  0
INSERT
  5
88A
100
AcDbEntity
  8
TEXT
  6
Continuous
 62
     0
100
AcDbBlockReference
  2
*B74
 10
0.0
 20
0.0
 30
0.0
  0
INSERT
  5
88F
100
AcDbEntity
  8
TEXT
  6
Continuous
 62
     0
100
AcDbBlockReference
  2
*B75
 10
0.0
 20
0.0
 30
0.0
  0
INSERT
  5
894
100
AcDbEntity
  8
TEXT
  6
Continuous
 62
     0
100
AcDbBlockReference
  2
*B76
 10
0.0
 20
0.0
 30
0.0
  0
INSERT
  5
899
100
AcDbEntity
  8
TEXT
  6
Continuous
 62
     0
100
AcDbBlockReference
  2
*B77
 10
0.0
 20
0.0
 30
0.0
  0
INSERT
  5
89F
100
AcDbEntity
  8
TEXT
  6
Continuous
 62
     0
100
AcDbBlockReference
  2
*B78
 10
0.0
 20
0.0
 30
0.0
  0
INSERT
  5
8A5
100
AcDbEntity
  8
TEXT
  6
Continuous
 62
     0
100
AcDbBlockReference
  2
*B79
 10
0.0
 20
0.0
 30
0.0
  0
ENDSEC
  0
SECTION
  2
OBJECTS
  0
DICTIONARY
  5
19
100
AcDbDictionary
280
     0
281
     1
  3
ACAD_GROUP
350
1A
  3
ACAD_MLINESTYLE
350
1B
  3
ACAD_LAYOUT
350
1E
  3
ACAD_PLOTSETTINGS
350
22
  3
ACAD_PLOTSTYLENAME
350
1F
  3
ACAD_WIPEOUT_VARS
350
23
  0
DICTIONARY
  5
1A
102
{ACAD_REACTORS
330
19
102
}
100
AcDbDictionary
280
     0
281
     1
  0
DICTIONARY
  5
1B
102
{ACAD_REACTORS
330
19
102
}
100
AcDbDictionary
280
     0
281
     1
  3
Standard
350
1C
  0
MLINESTYLE
  5
1C
102
{ACAD_REACTORS
330
1B
102
}
100
AcDbMlineStyle
  2
Standard
 70
     0
  3

 62
     0
 51
90.0
 52
90.0
 71
     2
 49
0.5
 62
   256
  6
BYLAYER
 49
-0.5
 62
   256
  6
BYLAYER
  0
ACDBDICTIONARYWDFLT
  5
1F
102
{ACAD_REACTORS
330
19
102
}
100
AcDbDictionary
281
     1
  3
Normal
350
1D
100
AcDbDictionaryWithDefault
340
1D
  0
ACDBPLACEHOLDER
  5
1D
102
{ACAD_REACTORS
330
1F
102
}
  0
LAYOUT
  5
20
102
{ACAD_REACTORS
330
1E
102
}
100
AcDbPlotSettings
  1

  2

  4

  6

 40
0.0
 41
0.0
 42
0.0
 43
0.0
 44
0.0
 45
0.0
 46
0.0
 47
0.0
 48
0.0
 49
0.0
140
0.0
141
0.0
142
1.0
143
1.0
 70
     0
 72
     0
 73
     0
 74
     0
  7

 75
     0
147
1.0
148
0.0
149
0.0
100
AcDbLayout
  1
Model
 70
     0
 71
     0
 10
0.0
 20
0.0
 11
0.0
 21
0.0
 12
0.0
 22
0.0
 32
0.0
 14
0.0
 24
0.0
 34
0.0
 15
0.0
 25
0.0
 35
0.0
146
0.0
 13
0.0
 23
0.0
 33
0.0
 16
0.0
 26
0.0
 36
0.0
 17
0.0
 27
0.0
 37
0.0
 76
     0
330
A
331
0
345
0
346
0
  0
LAYOUT
  5
21
102
{ACAD_REACTORS
330
1E
102
}
100
AcDbPlotSettings
  1

  2

  4

  6

 40
0.0
 41
0.0
 42
0.0
 43
0.0
 44
0.0
 45
0.0
 46
0.0
 47
0.0
 48
0.0
 49
0.0
140
0.0
141
0.0
142
1.0
143
1.0
 70
     0
 72
     0
 73
     0
 74
     0
  7

 75
     0
147
1.0
148
0.0
149
0.0
100
AcDbLayout
  1
Layout1
 70
     0
 71
     0
 10
0.0
 20
0.0
 11
0.0
 21
0.0
 12
0.0
 22
0.0
 32
0.0
 14
0.0
 24
0.0
 34
0.0
 15
0.0
 25
0.0
 35
0.0
146
0.0
 13
0.0
 23
0.0
 33
0.0
 16
0.0
 26
0.0
 36
0.0
 17
0.0
 27
0.0
 37
0.0
 76
     0
330
B
331
0
345
0
346
0
  0
DICTIONARY
  5
1E
102
{ACAD_REACTORS
330
19
102
}
100
AcDbDictionary
280
     0
281
     1
  3
Layout1
350
21
  3
Model
350
20
  0
DICTIONARY
  5
22
102
{ACAD_REACTORS
330
19
102
}
100
AcDbDictionary
280
     0
281
     1
  0
WIPEOUTVARIABLES
  5
23
100
AcDbWipeoutVariables
 70
     1
  0
ENDSEC
  0
EOF
