  0
SECTION
  2
HEADER
  9
$ACADVER
  1
AC1015
  9
$ACADMAINTVER
 70
     6
  9
$DWGCODEPAGE
  3
DOS850
  9
$INSBASE
 10
0.0
 20
0.0
 30
0.0
  9
$EXTMIN
 10
0.0
 20
0.0
 30
0.0
  9
$EXTMAX
 10
297.0
 20
210.0
 30
0.0
  9
$LIMMIN
 10
0.0
 20
0.0
  9
$LIMMAX
 10
297.0
 20
210.0
  9
$ORTHOMODE
 70
     0
  9
$REGENMODE
 70
     1
  9
$FILLMODE
 70
     1
  9
$QTEXTMODE
 70
     0
  9
$MIRRTEXT
 70
     1
  9
$LTSCALE
 40
25.4
  9
$ATTMODE
 70
     1
  9
$TEXTSIZE
 40
3.5
  9
$TRACEWID
 40
0.05
  9
$TEXTSTYLE
  7
Standard
  9
$CLAYER
  8
0
  9
$CELTYPE
  6
Continuous
  9
$CECOLOR
 62
   256
  9
$CELTSCALE
 40
1.0
  9
$DISPSILH
 70
     0
  9
$DIMSCALE
 40
1.0
  9
$DIMASZ
 40
5.0
  9
$DIMEXO
 40
3.0
  9
$DIMDLI
 40
0.38
  9
$DIMRND
 40
0.0
  9
$DIMDLE
 40
0.0
  9
$DIMEXE
 40
2.0
  9
$DIMTP
 40
0.0
  9
$DIMTM
 40
0.0
  9
$DIMTXT
 40
3.5
  9
$DIMCEN
 40
4.0
  9
$DIMTSZ
 40
0.0
  9
$DIMTOL
 70
     0
  9
$DIMLIM
 70
     0
  9
$DIMTIH
 70
     1
  9
$DIMTOH
 70
     1
  9
$DIMSE1
 70
     0
  9
$DIMSE2
 70
     0
  9
$DIMTAD
 70
     0
  9
$DIMZIN
 70
     0
  9
$DIMBLK
  1

  9
$DIMASO
 70
     1
  9
$DIMSHO
 70
     1
  9
$DIMPOST
  1

  9
$DIMAPOST
  1

  9
$DIMALT
 70
     0
  9
$DIMALTD
 70
     2
  9
$DIMALTF
 40
25.4
  9
$DIMLFAC
 40
1.0
  9
$DIMTOFL
 70
     0
  9
$DIMTVP
 40
0.0
  9
$DIMTIX
 70
     0
  9
$DIMSOXD
 70
     0
  9
$DIMSAH
 70
     0
  9
$DIMBLK1
  1

  9
$DIMBLK2
  1

  9
$DIMSTYLE
  2
Standard
  9
$DIMCLRD
 70
     0
  9
$DIMCLRE
 70
     0
  9
$DIMCLRT
 70
     0
  9
$DIMTFAC
 40
1.0
  9
$DIMGAP
 40
1.0
  9
$DIMJUST
 70
     0
  9
$DIMSD1
 70
     0
  9
$DIMSD2
 70
     0
  9
$DIMTOLJ
 70
     1
  9
$DIMTZIN
 70
     0
  9
$DIMALTZ
 70
     0
  9
$DIMALTTZ
 70
     0
  9
$DIMUPT
 70
     0
  9
$DIMDEC
 70
     4
  9
$DIMTDEC
 70
     4
  9
$DIMALTU
 70
     2
  9
$DIMALTTD
 70
     2
  9
$DIMTXSTY
  7
Standard
  9
$DIMAUNIT
 70
     0
  9
$DIMADEC
 70
     0
  9
$DIMALTRND
 40
0.0
  9
$DIMAZIN
 70
     0
  9
$DIMDSEP
 70
     0
  9
$DIMATFIT
 70
     3
  9
$DIMFRAC
 70
     0
  9
$DIMLDRBLK
  1

  9
$DIMLUNIT
 70
     2
  9
$DIMLWD
 70
     0
  9
$DIMLWE
 70
     0
  9
$DIMTMOVE
 70
     0
  9
$LUNITS
 70
     2
  9
$LUPREC
 70
     4
  9
$SKETCHINC
 40
0.1
  9
$FILLETRAD
 40
0.0
  9
$AUNITS
 70
     0
  9
$AUPREC
 70
     0
  9
$MENU
  1
acad
  9
$ELEVATION
 40
0.0
  9
$PELEVATION
 40
0.0
  9
$THICKNESS
 40
0.0
  9
$LIMCHECK
 70
     0
  9
$CHAMFERA
 40
0.0
  9
$CHAMFERB
 40
0.0
  9
$CHAMFERC
 40
0.0
  9
$CHAMFERD
 40
0.0
  9
$SKPOLY
 70
     0
  9
$TDCREATE
 40
0.000000000
  9
$TDUCREATE
 40
0.000000000
  9
$TDUPDATE
 40
0.000000000
  9
$TDUUPDATE
 40
0.000000000
  9
$TDINDWG
 40
0.0000000000
  9
$TDUSRTIMER
 40
0.0000000000
  9
$USRTIMER
 70
     1
  9
$ANGBASE
 50
0.0
  9
$ANGDIR
 70
     0
  9
$PDMODE
 70
     0
  9
$PDSIZE
 40
0.0
  9
$PLINEWID
 40
0.0
  9
$SPLFRAME
 70
     0
  9
$SPLINETYPE
 70
     6
  9
$SPLINESEGS
 70
     8
  9
$HANDSEED
  5
881
  9
$SURFTAB1
 70
     6
  9
$SURFTAB2
 70
     6
  9
$SURFTYPE
 70
     6
  9
$SURFU
 70
     6
  9
$SURFV
 70
     6
  9
$UCSBASE
  2

  9
$UCSNAME
  2

  9
$UCSORG
 10
0.0
 20
0.0
 30
0.0
  9
$UCSXDIR
 10
1.0
 20
0.0
 30
0.0
  9
$UCSYDIR
 10
0.0
 20
1.0
 30
0.0
  9
$UCSORTHOREF
  2

  9
$UCSORTHOVIEW
 70
     0
  9
$UCSORGTOP
 10
0.0
 20
0.0
 30
0.0
  9
$UCSORGBOTTOM
 10
0.0
 20
0.0
 30
0.0
  9
$UCSORGLEFT
 10
0.0
 20
0.0
 30
0.0
  9
$UCSORGRIGHT
 10
0.0
 20
0.0
 30
0.0
  9
$UCSORGFRONT
 10
0.0
 20
0.0
 30
0.0
  9
$UCSORGBACK
 10
0.0
 20
0.0
 30
0.0
  9
$PUCSBASE
  2

  9
$PUCSNAME
  2

  9
$PUCSORG
 10
0.0
 20
0.0
 30
0.0
  9
$PUCSXDIR
 10
1.0
 20
0.0
 30
0.0
  9
$PUCSYDIR
 10
0.0
 20
1.0
 30
0.0
  9
$PUCSORTHOREF
  2

  9
$PUCSORTHOVIEW
 70
     0
  9
$PUCSORGTOP
 10
0.0
 20
0.0
 30
0.0
  9
$PUCSORGBOTTOM
 10
0.0
 20
0.0
 30
0.0
  9
$PUCSORGLEFT
 10
0.0
 20
0.0
 30
0.0
  9
$PUCSORGRIGHT
 10
0.0
 20
0.0
 30
0.0
  9
$PUCSORGFRONT
 10
0.0
 20
0.0
 30
0.0
  9
$PUCSORGBACK
 10
0.0
 20
0.0
 30
0.0
  9
$USERI1
 70
     0
  9
$USERI2
 70
     0
  9
$USERI3
 70
     0
  9
$USERI4
 70
     0
  9
$USERI5
 70
     0
  9
$USERR1
 40
0.0
  9
$USERR2
 40
0.0
  9
$USERR3
 40
0.0
  9
$USERR4
 40
0.0
  9
$USERR5
 40
0.0
  9
$WORLDVIEW
 70
     1
  9
$SHADEDGE
 70
     3
  9
$SHADEDIF
 70
    70
  9
$TILEMODE
 70
     1
  9
$MAXACTVP
 70
    16
  9
$PINSBASE
 10
0.0
 20
0.0
 30
0.0
  9
$PLIMCHECK
 70
     0
  9
$PEXTMIN
 10
1.000000E+20
 20
1.000000E+20
 30
1.000000E+20
  9
$PEXTMAX
 10
-1.000000E+20
 20
-1.000000E+20
 30
-1.000000E+20
  9
$PLIMMIN
 10
0.0
 20
0.0
  9
$PLIMMAX
 10
297.0
 20
210.0
  9
$UNITMODE
 70
     0
  9
$VISRETAIN
 70
     0
  9
$PLINEGEN
 70
     1
  9
$PSLTSCALE
 70
     0
  9
$TREEDEPTH
 70
  3020
  9
$CMLSTYLE
  2
Standard
  9
$CMLJUST
 70
     0
  9
$CMLSCALE
 40
1.0
  9
$PROXYGRAPHICS
 70
     0
  9
$MEASUREMENT
 70
     0
  9
$CELWEIGHT
370
     0
  9
$ENDCAPS
280
     0
  9
$JOINSTYLE
280
     0
  9
$LWDISPLAY
290
     0
  9
$INSUNITS
 70
     0
  9
$HYPERLINKBASE
  1

  9
$XEDIT
290
     1
  9
$CEPSNTYPE
380
     0
  9
$PSTYLEMODE
290
     0
  9
$FINGERPRINTGUID
  2

  9
$VERSIONGUID
  2

  9
$EXTNAMES
290
     1
  9
$PSVPSCALE
 40
0.0
  0
ENDSEC
  0
SECTION
  2
CLASSES
  0
CLASS
  1
LWPOLYLINE
  2
AcDbPolyline
  3
"AutoCAD"
 90
        0
280
     0
281
     1
  0
CLASS
  1
IMAGE
  2
AcDbRasterImage
  3
ISM
 90
      127
280
     0
281
     1
  0
CLASS
  1
OLE2FRAME
  2
AcDbOle2Frame
  3
""
 90
        0
280
     0
281
     1
  0
CLASS
  1
HATCH
  2
AcDbHatch
  3
"ACAD_SEDONA"
 90
        0
280
     0
281
     1
  0
CLASS
  1
DICTIONARYVAR
  2
AcDbDictionaryVar
  3
"AutoCAD"
 90
        0
280
     0
281
     0
  0
CLASS
  1
RASTERVARIABLES
  2
AcDbRasterVariables
  3
ISM
 90
        0
280
     0
281
     0
  0
CLASS
  1
IMAGEDEF
  2
AcDbRasterImageDef
  3
ISM
 90
        0
280
     0
281
     0
  0
CLASS
  1
IMAGEDEF_REACTOR
  2
AcDbRasterImageDefReactor
  3
ISM
 90
        1
280
     0
281
     0
  0
CLASS
  1
IDBUFFER
  2
AcDbIdBuffer
  3
"Acad"
 90
        0
280
     0
281
     0
  0
CLASS
  1
SPATIAL_FILTER
  2
AcDbSpatialFilter
  3
"Acad"
 90
        0
280
     0
281
     0
  0
CLASS
  1
XRECORD
  2
AcDbXrecord
  3
"<Built In>"
 90
        0
280
     0
281
     0
  0
CLASS
  1
SORTENTSTABLE
  2
AcDbSortentsTable
  3
"AutoCAD"
 90
        0
280
     0
281
     0
  0
CLASS
  1
LAYER_INDEX
  2
AcDbLayerIndex
  3
"Acad"
 90
        0
280
     0
281
     0
  0
CLASS
  1
SPATIAL_INDEX
  2
AcDbSpatialIndex
  3
"Acad"
 90
        0
280
     0
281
     0
  0
CLASS
  1
OBJECT_PTR
  2
CAseDLPNTableRecord
  3
"ASE-LPNTableRecord"
 90
        1
280
     0
281
     0
  0
CLASS
  1
LAYOUT
  2
AcDbLayout
  3
"AutoCAD 2000"
 90
        1
280
     0
281
     0
  0
CLASS
  1
PLOTSETTINGS
  2
AcDbPlotSettings
  3
"AutoCAD 2000"
 90
        1
280
     0
281
     0
  0
CLASS
  1
ACDBDICTIONARYWDFLT
  2
AcDbDictionaryWithDefault
  3
"AutoCAD 2000"
 90
        1
280
     0
281
     0
  0
CLASS
  1
ACDBPLACEHOLDER
  2
AcDbPlaceHolder
  3
"AutoCAD 2000"
 90
        1
280
     0
281
     0
  0
CLASS
  1
VBA_PROJECT
  2
AcDbVbaProject
  3
"acadvba"
 90
        1
280
     0
281
     0
  0
CLASS
  1
WIPEOUT
  2
AcDbWipeout
  3
WipeOut|AutoCAD Express Tool|expresstools@autodesk.com
 90
      127
280
     0
281
     1
  0
CLASS
  1
WIPEOUTVARIABLES
  2
AcDbWipeoutVariables
  3
WipeOut|AutoCAD Express Tool|expresstools@autodesk.com
 90
        0
280
     0
281
     0
  0
CLASS
  1
RTEXT
  2
RText
  3
RText|AutoCAD Express Tool|expresstools@autodesk.com
 90
        0
280
     0
281
     1
  0
CLASS
  1
ARCALIGNEDTEXT
  2
AcDbArcAlignedText
  3
ATEXT|AutoCAD Express Tool|expresstools@autodesk.com
 90
        0
280
     0
281
     1
  0
ENDSEC
  0
SECTION
  2
TABLES
  0
TABLE
  2
VPORT
  5
7
100
AcDbSymbolTable
 70
     1
  0
VPORT
  5
15
100
AcDbSymbolTableRecord
100
AcDbViewportTableRecord
  2
*ACTIVE
 70
     0
 10
0.0
 20
0.0
 11
1.0
 21
1.0
 12
6.591288
 22
4.579184
 13
0.0
 23
0.0
 14
1.0
 24
1.0
 15
0.0
 25
0.0
 16
0.0
 26
0.0
 36
1.0
 17
0.0
 27
0.0
 37
0.0
 40
9.158369
 41
0.688564
 42
50.0
 43
0.0
 44
0.0
 50
0.0
 51
0.0
 71
     0
 72
   100
 73
     1
 74
     1
 75
     0
 76
     0
 77
     0
 78
     0
281
     0
 65
     0
110
0.0
120
0.0
130
0.0
111
1.0
121
0.0
131
0.0
112
0.0
122
1.0
132
0.0
345
0
346
0
 79
     0
146
0.0
  0
ENDTAB
  0
TABLE
  2
LTYPE
  5
4
100
AcDbSymbolTable
 70
     7
  0
LTYPE
  5
11
100
AcDbSymbolTableRecord
100
AcDbLinetypeTableRecord
  2
ByBlock
 70
    64
  3

 72
    65
 73
     0
 40
0.0
  0
LTYPE
  5
12
100
AcDbSymbolTableRecord
100
AcDbLinetypeTableRecord
  2
ByLayer
 70
    64
  3

 72
    65
 73
     0
 40
0.0
  0
LTYPE
  5
13
100
AcDbSymbolTableRecord
100
AcDbLinetypeTableRecord
  2
Continuous
 70
    64
  3
Solid line
 72
    65
 73
     0
 40
0.0
  0
LTYPE
  5
24
100
AcDbSymbolTableRecord
100
AcDbLinetypeTableRecord
  2
HIDDEN
 70
    64
  3
_ _ _ _ _ _ _ _ _ _ _ _ _ _ _ _ _ _ _ _ _ _ _ _
 72
    65
 73
     2
 40
0.1875
 49
0.125
 74
     0
 49
-0.0625
 74
     0
  0
LTYPE
  5
25
100
AcDbSymbolTableRecord
100
AcDbLinetypeTableRecord
  2
DOTTED
 70
    64
  3
...............................................
 72
    65
 73
     2
 40
0.125
 49
0.0
 74
     0
 49
-0.125
 74
     0
  0
LTYPE
  5
26
100
AcDbSymbolTableRecord
100
AcDbLinetypeTableRecord
  2
CENTER
 70
    64
  3
____ _ ____ _ ____ _ ____ _ ____ _ ____ _ ____ 
 72
    65
 73
     4
 40
1.125
 49
0.75
 74
     0
 49
-0.125
 74
     0
 49
0.125
 74
     0
 49
-0.125
 74
     0
  0
LTYPE
  5
27
100
AcDbSymbolTableRecord
100
AcDbLinetypeTableRecord
  2
PHANTOM
 70
    64
  3
______  __  __  ______  __  __  ______  __  __ 
 72
    65
 73
     6
 40
1.25
 49
0.625
 74
     0
 49
-0.125
 74
     0
 49
0.125
 74
     0
 49
-0.125
 74
     0
 49
0.125
 74
     0
 49
-0.125
 74
     0
  0
ENDTAB
  0
TABLE
  2
LAYER
  5
2
100
AcDbSymbolTable
 70
     2
  0
LAYER
  5
14
100
AcDbSymbolTableRecord
100
AcDbLayerTableRecord
  2
0
 70
     0
 62
     7
  6
Continuous
290
     1
370
    -3
390
1D
  0
LAYER
  5
28
100
AcDbSymbolTableRecord
100
AcDbLayerTableRecord
  2
TEXT
 70
     0
 62
     8
  6
Continuous
290
     1
370
    -3
390
1F
  0
ENDTAB
  0
TABLE
  2
STYLE
  5
3
100
AcDbSymbolTable
 70
     1
  0
STYLE
  5
17
100
AcDbSymbolTableRecord
100
AcDbTextStyleTableRecord
  2
Standard
 70
     0
 40
0.0
 41
1.0
 50
0.0
 71
     0
 42
0.0
  3
txt
  4

  0
ENDTAB
  0
TABLE
  2
VIEW
  5
5
100
AcDbSymbolTable
 70
     0
  0
ENDTAB
  0
TABLE
  2
UCS
  5
6
100
AcDbSymbolTable
 70
     0
  0
ENDTAB
  0
TABLE
  2
APPID
  5
8
100
AcDbSymbolTable
 70
     1
  0
APPID
  5
16
100
AcDbSymbolTableRecord
100
AcDbRegAppTableRecord
  2
ACAD
 70
     0
  0
ENDTAB
  0
TABLE
  2
DIMSTYLE
  5
9
100
AcDbSymbolTable
 70
     1
100
AcDbDimStyleTable
 71
     0
  0
DIMSTYLE
105
18
100
AcDbSymbolTableRecord
100
AcDbDimStyleTableRecord
  2
Standard
 70
     0
  3

  4

 40
1.0
 41
0.18
 42
0.0625
 43
0.38
 44
0.18
 45
0.0
 46
0.0
 47
0.0
 48
0.0
 71
     0
 72
     0
 73
     1
 74
     1
 75
     0
 76
     0
 77
     0
 78
     0
 79
     0
140
0.18
141
0.09
142
0.0
143
25.4
144
1.0
145
0.0
146
1.0
147
0.09
148
0.0
170
     0
171
     2
172
     0
173
     0
174
     0
175
     0
176
     0
177
     0
178
     0
179
     0
271
     4
272
     4
273
     2
274
     2
275
     0
276
     0
277
     2
278
    46
279
     0
280
     0
281
     0
282
     0
283
     1
284
     0
285
     0
286
     0
288
     0
340
17
341
0
342
0
343
0
344
0
371
    -2
372
    -2
  0
ENDTAB
  0
TABLE
  2
BLOCK_RECORD
  5
1
100
AcDbSymbolTable
 70
    76
  0
BLOCK_RECORD
  5
A
100
AcDbSymbolTableRecord
100
AcDbBlockTableRecord
  2
*MODEL_SPACE
340
20
  0
BLOCK_RECORD
  5
B
100
AcDbSymbolTableRecord
100
AcDbBlockTableRecord
  2
*PAPER_SPACE
340
21
  0
BLOCK_RECORD
  5
29
100
AcDbSymbolTableRecord
100
AcDbBlockTableRecord
  2
*B0
340
0
  0
BLOCK_RECORD
  5
2C
100
AcDbSymbolTableRecord
100
AcDbBlockTableRecord
  2
*B1
340
0
  0
BLOCK_RECORD
  5
2F
100
AcDbSymbolTableRecord
100
AcDbBlockTableRecord
  2
*B2
340
0
  0
BLOCK_RECORD
  5
1DE
100
AcDbSymbolTableRecord
100
AcDbBlockTableRecord
  2
*B3
340
0
  0
BLOCK_RECORD
  5
4C5
100
AcDbSymbolTableRecord
100
AcDbBlockTableRecord
  2
*B4
340
0
  0
BLOCK_RECORD
  5
675
100
AcDbSymbolTableRecord
100
AcDbBlockTableRecord
  2
*B5
340
0
  0
BLOCK_RECORD
  5
67C
100
AcDbSymbolTableRecord
100
AcDbBlockTableRecord
  2
*B6
340
0
  0
BLOCK_RECORD
  5
683
100
AcDbSymbolTableRecord
100
AcDbBlockTableRecord
  2
*B7
340
0
  0
BLOCK_RECORD
  5
68A
100
AcDbSymbolTableRecord
100
AcDbBlockTableRecord
  2
*B8
340
0
  0
BLOCK_RECORD
  5
691
100
AcDbSymbolTableRecord
100
AcDbBlockTableRecord
  2
*B9
340
0
  0
BLOCK_RECORD
  5
698
100
AcDbSymbolTableRecord
100
AcDbBlockTableRecord
  2
*B10
340
0
  0
BLOCK_RECORD
  5
69F
100
AcDbSymbolTableRecord
100
AcDbBlockTableRecord
  2
*B11
340
0
  0
BLOCK_RECORD
  5
6A6
100
AcDbSymbolTableRecord
100
AcDbBlockTableRecord
  2
*B12
340
0
  0
BLOCK_RECORD
  5
6AD
100
AcDbSymbolTableRecord
100
AcDbBlockTableRecord
  2
*B13
340
0
  0
BLOCK_RECORD
  5
6B4
100
AcDbSymbolTableRecord
100
AcDbBlockTableRecord
  2
*B14
340
0
  0
BLOCK_RECORD
  5
6BB
100
AcDbSymbolTableRecord
100
AcDbBlockTableRecord
  2
*B15
340
0
  0
BLOCK_RECORD
  5
6C2
100
AcDbSymbolTableRecord
100
AcDbBlockTableRecord
  2
*B16
340
0
  0
BLOCK_RECORD
  5
6C9
100
AcDbSymbolTableRecord
100
AcDbBlockTableRecord
  2
*B17
340
0
  0
BLOCK_RECORD
  5
6CF
100
AcDbSymbolTableRecord
100
AcDbBlockTableRecord
  2
*B18
340
0
  0
BLOCK_RECORD
  5
6D5
100
AcDbSymbolTableRecord
100
AcDbBlockTableRecord
  2
*B19
340
0
  0
BLOCK_RECORD
  5
6DA
100
AcDbSymbolTableRecord
100
AcDbBlockTableRecord
  2
*B20
340
0
  0
BLOCK_RECORD
  5
6E0
100
AcDbSymbolTableRecord
100
AcDbBlockTableRecord
  2
*B21
340
0
  0
BLOCK_RECORD
  5
6E5
100
AcDbSymbolTableRecord
100
AcDbBlockTableRecord
  2
*B22
340
0
  0
BLOCK_RECORD
  5
6EB
100
AcDbSymbolTableRecord
100
AcDbBlockTableRecord
  2
*B23
340
0
  0
BLOCK_RECORD
  5
6FE
100
AcDbSymbolTableRecord
100
AcDbBlockTableRecord
  2
*B24
340
0
  0
BLOCK_RECORD
  5
703
100
AcDbSymbolTableRecord
100
AcDbBlockTableRecord
  2
*B25
340
0
  0
BLOCK_RECORD
  5
708
100
AcDbSymbolTableRecord
100
AcDbBlockTableRecord
  2
*B26
340
0
  0
BLOCK_RECORD
  5
70E
100
AcDbSymbolTableRecord
100
AcDbBlockTableRecord
  2
*B27
340
0
  0
BLOCK_RECORD
  5
71E
100
AcDbSymbolTableRecord
100
AcDbBlockTableRecord
  2
*B28
340
0
  0
BLOCK_RECORD
  5
723
100
AcDbSymbolTableRecord
100
AcDbBlockTableRecord
  2
*B29
340
0
  0
BLOCK_RECORD
  5
731
100
AcDbSymbolTableRecord
100
AcDbBlockTableRecord
  2
*B30
340
0
  0
BLOCK_RECORD
  5
737
100
AcDbSymbolTableRecord
100
AcDbBlockTableRecord
  2
*B31
340
0
  0
BLOCK_RECORD
  5
752
100
AcDbSymbolTableRecord
100
AcDbBlockTableRecord
  2
*B32
340
0
  0
BLOCK_RECORD
  5
76E
100
AcDbSymbolTableRecord
100
AcDbBlockTableRecord
  2
*B33
340
0
  0
BLOCK_RECORD
  5
779
100
AcDbSymbolTableRecord
100
AcDbBlockTableRecord
  2
*B34
340
0
  0
BLOCK_RECORD
  5
77E
100
AcDbSymbolTableRecord
100
AcDbBlockTableRecord
  2
*B35
340
0
  0
BLOCK_RECORD
  5
784
100
AcDbSymbolTableRecord
100
AcDbBlockTableRecord
  2
*B36
340
0
  0
BLOCK_RECORD
  5
78A
100
AcDbSymbolTableRecord
100
AcDbBlockTableRecord
  2
*B37
340
0
  0
BLOCK_RECORD
  5
790
100
AcDbSymbolTableRecord
100
AcDbBlockTableRecord
  2
*B38
340
0
  0
BLOCK_RECORD
  5
795
100
AcDbSymbolTableRecord
100
AcDbBlockTableRecord
  2
*B39
340
0
  0
BLOCK_RECORD
  5
79B
100
AcDbSymbolTableRecord
100
AcDbBlockTableRecord
  2
*B40
340
0
  0
BLOCK_RECORD
  5
7A0
100
AcDbSymbolTableRecord
100
AcDbBlockTableRecord
  2
*B41
340
0
  0
BLOCK_RECORD
  5
7A9
100
AcDbSymbolTableRecord
100
AcDbBlockTableRecord
  2
*B42
340
0
  0
BLOCK_RECORD
  5
7AF
100
AcDbSymbolTableRecord
100
AcDbBlockTableRecord
  2
*B43
340
0
  0
BLOCK_RECORD
  5
7B4
100
AcDbSymbolTableRecord
100
AcDbBlockTableRecord
  2
*B44
340
0
  0
BLOCK_RECORD
  5
7CD
100
AcDbSymbolTableRecord
100
AcDbBlockTableRecord
  2
*B45
340
0
  0
BLOCK_RECORD
  5
7D3
100
AcDbSymbolTableRecord
100
AcDbBlockTableRecord
  2
*B46
340
0
  0
BLOCK_RECORD
  5
7D9
100
AcDbSymbolTableRecord
100
AcDbBlockTableRecord
  2
*B47
340
0
  0
BLOCK_RECORD
  5
7E3
100
AcDbSymbolTableRecord
100
AcDbBlockTableRecord
  2
*B48
340
0
  0
BLOCK_RECORD
  5
7E9
100
AcDbSymbolTableRecord
100
AcDbBlockTableRecord
  2
*B49
340
0
  0
BLOCK_RECORD
  5
7EF
100
AcDbSymbolTableRecord
100
AcDbBlockTableRecord
  2
*B50
340
0
  0
BLOCK_RECORD
  5
7F5
100
AcDbSymbolTableRecord
100
AcDbBlockTableRecord
  2
*B51
340
0
  0
BLOCK_RECORD
  5
7FB
100
AcDbSymbolTableRecord
100
AcDbBlockTableRecord
  2
*B52
340
0
  0
BLOCK_RECORD
  5
801
100
AcDbSymbolTableRecord
100
AcDbBlockTableRecord
  2
*B53
340
0
  0
BLOCK_RECORD
  5
807
100
AcDbSymbolTableRecord
100
AcDbBlockTableRecord
  2
*B54
340
0
  0
BLOCK_RECORD
  5
80D
100
AcDbSymbolTableRecord
100
AcDbBlockTableRecord
  2
*B55
340
0
  0
BLOCK_RECORD
  5
813
100
AcDbSymbolTableRecord
100
AcDbBlockTableRecord
  2
*B56
340
0
  0
BLOCK_RECORD
  5
819
100
AcDbSymbolTableRecord
100
AcDbBlockTableRecord
  2
*B57
340
0
  0
BLOCK_RECORD
  5
81F
100
AcDbSymbolTableRecord
100
AcDbBlockTableRecord
  2
*B58
340
0
  0
BLOCK_RECORD
  5
825
100
AcDbSymbolTableRecord
100
AcDbBlockTableRecord
  2
*B59
340
0
  0
BLOCK_RECORD
  5
82B
100
AcDbSymbolTableRecord
100
AcDbBlockTableRecord
  2
*B60
340
0
  0
BLOCK_RECORD
  5
831
100
AcDbSymbolTableRecord
100
AcDbBlockTableRecord
  2
*B61
340
0
  0
BLOCK_RECORD
  5
837
100
AcDbSymbolTableRecord
100
AcDbBlockTableRecord
  2
*B62
340
0
  0
BLOCK_RECORD
  5
83D
100
AcDbSymbolTableRecord
100
AcDbBlockTableRecord
  2
*B63
340
0
  0
BLOCK_RECORD
  5
843
100
AcDbSymbolTableRecord
100
AcDbBlockTableRecord
  2
*B64
340
0
  0
BLOCK_RECORD
  5
848
100
AcDbSymbolTableRecord
100
AcDbBlockTableRecord
  2
*B65
340
0
  0
BLOCK_RECORD
  5
84D
100
AcDbSymbolTableRecord
100
AcDbBlockTableRecord
  2
*B66
340
0
  0
BLOCK_RECORD
  5
852
100
AcDbSymbolTableRecord
100
AcDbBlockTableRecord
  2
*B67
340
0
  0
BLOCK_RECORD
  5
857
100
AcDbSymbolTableRecord
100
AcDbBlockTableRecord
  2
*B68
340
0
  0
BLOCK_RECORD
  5
85C
100
AcDbSymbolTableRecord
100
AcDbBlockTableRecord
  2
*B69
340
0
  0
BLOCK_RECORD
  5
861
100
AcDbSymbolTableRecord
100
AcDbBlockTableRecord
  2
*B70
340
0
  0
BLOCK_RECORD
  5
866
100
AcDbSymbolTableRecord
100
AcDbBlockTableRecord
  2
*B71
340
0
  0
BLOCK_RECORD
  5
86B
100
AcDbSymbolTableRecord
100
AcDbBlockTableRecord
  2
*B72
340
0
  0
BLOCK_RECORD
  5
870
100
AcDbSymbolTableRecord
100
AcDbBlockTableRecord
  2
*B73
340
0
  0
BLOCK_RECORD
  5
875
100
AcDbSymbolTableRecord
100
AcDbBlockTableRecord
  2
*B74
340
0
  0
BLOCK_RECORD
  5
87B
100
AcDbSymbolTableRecord
100
AcDbBlockTableRecord
  2
*B75
340
0
  0
ENDTAB
  0
ENDSEC
  0
SECTION
  2
BLOCKS
  0
BLOCK
  5
D
100
AcDbEntity
  8
0
100
AcDbBlockBegin
  2
*MODEL_SPACE
 70
     0
 10
0.0
 20
0.0
 30
0.0
  3
*MODEL_SPACE
  1

  0
ENDBLK
  5
E
100
AcDbEntity
  8
0
100
AcDbBlockEnd
  0
BLOCK
  5
F
100
AcDbEntity
 67
     1
  8
0
100
AcDbBlockBegin
  2
*PAPER_SPACE
 70
     0
 10
0.0
 20
0.0
 30
0.0
  3
*PAPER_SPACE
  1

  0
ENDBLK
  5
10
100
AcDbEntity
 67
     1
  8
0
100
AcDbBlockEnd
  0
BLOCK
  5
2A
100
AcDbEntity
  8
0
100
AcDbBlockBegin
  2
*B0
 70
     0
 10
0.0
 20
0.0
 30
0.0
  3
*B0
  1

  0
ENDBLK
  5
2B
100
AcDbEntity
  8
0
100
AcDbBlockEnd
  0
BLOCK
  5
2D
100
AcDbEntity
  8
0
100
AcDbBlockBegin
  2
*B1
 70
     0
 10
0.0
 20
0.0
 30
0.0
  3
*B1
  1

  0
ENDBLK
  5
2E
100
AcDbEntity
  8
0
100
AcDbBlockEnd
  0
BLOCK
  5
30
100
AcDbEntity
  8
0
100
AcDbBlockBegin
  2
*B2
 70
     0
 10
0.0
 20
0.0
 30
0.0
  3
*B2
  1

  0
LINE
  5
31
100
AcDbEntity
  8
0
  6
Continuous
 62
   174
100
AcDbLine
 10
110.670595
 20
51.30932
 30
0.0
 11
110.660597
 21
51.305503
 31
0.0
  0
LINE
  5
32
100
AcDbEntity
  8
0
  6
Continuous
 62
   174
100
AcDbLine
 10
110.670595
 20
49.118068
 30
0.0
 11
110.660597
 21
49.117293
 31
0.0
  0
LINE
  5
33
100
AcDbEntity
  8
0
  6
Continuous
 62
   174
100
AcDbLine
 10
192.680594
 20
52.794848
 30
0.0
 11
190.660597
 21
52.794848
 31
0.0
  0
LINE
  5
34
100
AcDbEntity
  8
0
  6
Continuous
 62
   174
100
AcDbLine
 10
108.670595
 20
55.578098
 30
0.0
 11
108.670595
 21
54.717965
 31
0.0
  0
LINE
  5
35
100
AcDbEntity
  8
0
  6
Continuous
 62
   174
100
AcDbLine
 10
190.670595
 20
52.815858
 30
0.0
 11
190.670595
 21
54.401655
 31
0.0
  0
LINE
  5
36
100
AcDbEntity
  8
0
  6
Continuous
 62
   174
100
AcDbLine
 10
188.680594
 20
44.334406
 30
0.0
 11
188.670595
 21
44.328529
 31
0.0
  0
LINE
  5
37
100
AcDbEntity
  8
0
  6
Continuous
 62
   174
100
AcDbLine
 10
108.670595
 20
51.318563
 30
0.0
 11
108.680594
 21
51.314745
 31
0.0
  0
LINE
  5
38
100
AcDbEntity
  8
0
  6
Continuous
 62
   174
100
AcDbLine
 10
106.670595
 20
53.254741
 30
0.0
 11
106.670595
 21
54.712654
 31
0.0
  0
LINE
  5
39
100
AcDbEntity
  8
0
  6
Continuous
 62
   174
100
AcDbLine
 10
190.670595
 20
55.764625
 30
0.0
 11
190.660597
 21
55.754627
 31
0.0
  0
LINE
  5
3A
100
AcDbEntity
  8
0
  6
Continuous
 62
   174
100
AcDbLine
 10
108.670595
 20
41.386705
 30
0.0
 11
106.670595
 21
41.386705
 31
0.0
  0
LINE
  5
3B
100
AcDbEntity
  8
0
  6
Continuous
 62
   174
100
AcDbLine
 10
106.670595
 20
51.33394
 30
0.0
 11
106.670595
 21
53.247093
 31
0.0
  0
LINE
  5
3C
100
AcDbEntity
  8
0
  6
Continuous
 62
   174
100
AcDbLine
 10
192.670592
 20
41.364624
 30
0.0
 11
192.691916
 21
41.385948
 31
0.0
  0
LINE
  5
3D
100
AcDbEntity
  8
0
  6
Continuous
 62
   174
100
AcDbLine
 10
192.680594
 20
50.791215
 30
0.0
 11
190.660597
 21
50.791215
 31
0.0
  0
LINE
  5
3E
100
AcDbEntity
  8
0
  6
Continuous
 62
   174
100
AcDbLine
 10
186.670595
 20
54.407604
 30
0.0
 11
186.670595
 21
55.425785
 31
0.0
  0
LWPOLYLINE
  5
3F
100
AcDbEntity
  8
0
  6
Continuous
 62
   174
100
AcDbPolyline
 90
        2
 70
   129
 10
192.680594
 20
55.754627
 10
192.680595
 20
55.754627
  0
LINE
  5
40
100
AcDbEntity
  8
0
  6
Continuous
 62
   174
100
AcDbLine
 10
106.660597
 20
49.127263
 30
0.0
 11
108.680594
 21
49.127263
 31
0.0
  0
LINE
  5
41
100
AcDbEntity
  8
0
  6
Continuous
 62
   174
100
AcDbLine
 10
106.660597
 20
41.396673
 30
0.0
 11
106.670595
 21
41.386705
 31
0.0
  0
LINE
  5
42
100
AcDbEntity
  8
0
  6
Continuous
 62
   174
100
AcDbLine
 10
108.670595
 20
53.247093
 30
0.0
 11
108.670595
 21
51.33394
 31
0.0
  0
LINE
  5
43
100
AcDbEntity
  8
0
  6
Continuous
 62
   174
100
AcDbLine
 10
190.670595
 20
55.428759
 30
0.0
 11
190.670595
 21
55.779695
 31
0.0
  0
LINE
  5
44
100
AcDbEntity
  8
0
  6
Continuous
 62
   174
100
AcDbLine
 10
192.670595
 20
44.336619
 30
0.0
 11
192.680594
 21
44.342496
 31
0.0
  0
LINE
  5
45
100
AcDbEntity
  8
0
  6
Continuous
 62
   174
100
AcDbLine
 10
188.670592
 20
41.364624
 30
0.0
 11
188.691916
 21
41.385948
 31
0.0
  0
LINE
  5
46
100
AcDbEntity
  8
0
  6
Continuous
 62
   174
100
AcDbLine
 10
109.170595
 20
55.264627
 30
0.0
 11
108.670595
 21
55.764627
 31
0.0
  0
LINE
  5
47
100
AcDbEntity
  8
0
  6
Continuous
 62
   174
100
AcDbLine
 10
190.170595
 20
41.864627
 30
0.0
 11
190.670599
 21
41.364624
 31
0.0
  0
LWPOLYLINE
  5
48
100
AcDbEntity
  8
0
  6
Continuous
 62
   174
100
AcDbPolyline
 90
        3
 70
   128
 10
112.680594
 20
51.314745
 10
112.680595
 20
51.310124
 10
112.680594
 20
51.305503
  0
LINE
  5
49
100
AcDbEntity
  8
0
  6
Continuous
 62
   174
100
AcDbLine
 10
110.670595
 20
41.385929
 30
0.0
 11
112.670595
 21
41.385929
 31
0.0
  0
LINE
  5
4A
100
AcDbEntity
  8
0
  6
Continuous
 62
   174
100
AcDbLine
 10
188.670595
 20
55.779695
 30
0.0
 11
188.670595
 21
55.428759
 31
0.0
  0
LINE
  5
4B
100
AcDbEntity
  8
0
  6
Continuous
 62
   174
100
AcDbLine
 10
112.680594
 20
41.395897
 30
0.0
 11
112.670595
 21
41.385929
 31
0.0
  0
LINE
  5
4C
100
AcDbEntity
  8
0
  6
Continuous
 62
   174
100
AcDbLine
 10
108.670595
 20
41.386705
 30
0.0
 11
108.680594
 21
41.396673
 31
0.0
  0
LINE
  5
4D
100
AcDbEntity
  8
0
  6
Continuous
 62
   174
100
AcDbLine
 10
108.670595
 20
54.712654
 30
0.0
 11
108.670595
 21
53.254741
 31
0.0
  0
LINE
  5
4E
100
AcDbEntity
  8
0
  6
Continuous
 62
   174
100
AcDbLine
 10
190.670595
 20
54.407604
 30
0.0
 11
190.670595
 21
55.425785
 31
0.0
  0
LINE
  5
4F
100
AcDbEntity
  8
0
  6
Continuous
 62
   174
100
AcDbLine
 10
106.660597
 20
53.233026
 30
0.0
 11
108.680594
 21
53.233026
 31
0.0
  0
LINE
  5
50
100
AcDbEntity
  8
0
  6
Continuous
 62
   174
100
AcDbLine
 10
110.660597
 20
51.314745
 30
0.0
 11
110.670595
 21
51.318563
 31
0.0
  0
LINE
  5
51
100
AcDbEntity
  8
0
  6
Continuous
 62
   174
100
AcDbLine
 10
188.680594
 20
55.754627
 30
0.0
 11
188.670595
 21
55.764625
 31
0.0
  0
LINE
  5
52
100
AcDbEntity
  8
0
  6
Continuous
 62
   174
100
AcDbLine
 10
108.670595
 20
41.364627
 30
0.0
 11
109.170595
 21
41.864627
 31
0.0
  0
LINE
  5
53
100
AcDbEntity
  8
0
  6
Continuous
 62
   174
100
AcDbLine
 10
190.670599
 20
55.76463
 30
0.0
 11
190.649275
 21
55.743306
 31
0.0
  0
LINE
  5
54
100
AcDbEntity
  8
0
  6
Continuous
 62
   174
100
AcDbLine
 10
112.670595
 20
54.712654
 30
0.0
 11
112.670595
 21
53.254741
 31
0.0
  0
LINE
  5
55
100
AcDbEntity
  8
0
  6
Continuous
 62
   174
100
AcDbLine
 10
106.670595
 20
49.143352
 30
0.0
 11
106.670595
 21
51.324593
 31
0.0
  0
LINE
  5
56
100
AcDbEntity
  8
0
  6
Continuous
 62
   174
100
AcDbLine
 10
110.660597
 20
41.396673
 30
0.0
 11
110.670595
 21
41.386705
 31
0.0
  0
LINE
  5
57
100
AcDbEntity
  8
0
  6
Continuous
 62
   174
100
AcDbLine
 10
112.670595
 20
51.318563
 30
0.0
 11
112.680594
 21
51.314745
 31
0.0
  0
LINE
  5
58
100
AcDbEntity
  8
0
  6
Continuous
 62
   174
100
AcDbLine
 10
186.649275
 20
55.743306
 30
0.0
 11
186.170595
 21
55.264627
 31
0.0
  0
LINE
  5
59
100
AcDbEntity
  8
0
  6
Continuous
 62
   174
100
AcDbLine
 10
192.670595
 20
55.779695
 30
0.0
 11
192.670595
 21
55.428759
 31
0.0
  0
LINE
  5
5A
100
AcDbEntity
  8
0
  6
Continuous
 62
   174
100
AcDbLine
 10
110.170595
 20
41.864627
 30
0.0
 11
110.670595
 21
41.364627
 31
0.0
  0
LINE
  5
5B
100
AcDbEntity
  8
0
  6
Continuous
 62
   174
100
AcDbLine
 10
192.691916
 20
41.385948
 30
0.0
 11
193.170595
 21
41.864627
 31
0.0
  0
LWPOLYLINE
  5
5C
100
AcDbEntity
  8
0
  6
Continuous
 62
   174
100
AcDbPolyline
 90
        3
 70
   128
 10
108.680594
 20
51.314745
 10
108.680595
 20
51.310124
 10
108.680594
 20
51.305503
  0
LINE
  5
5D
100
AcDbEntity
  8
0
  6
Continuous
 62
   174
100
AcDbLine
 10
112.670595
 20
41.386705
 30
0.0
 11
110.670595
 21
41.386705
 31
0.0
  0
LINE
  5
5E
100
AcDbEntity
  8
0
  6
Continuous
 62
   174
100
AcDbLine
 10
112.670595
 20
41.386705
 30
0.0
 11
112.680594
 21
41.396673
 31
0.0
  0
LINE
  5
5F
100
AcDbEntity
  8
0
  6
Continuous
 62
   174
100
AcDbLine
 10
106.660597
 20
51.314745
 30
0.0
 11
106.670595
 21
51.318563
 31
0.0
  0
LINE
  5
60
100
AcDbEntity
  8
0
  6
Continuous
 62
   174
100
AcDbLine
 10
190.660597
 20
44.342496
 30
0.0
 11
190.670595
 21
44.336619
 31
0.0
  0
LINE
  5
61
100
AcDbEntity
  8
0
  6
Continuous
 62
   174
100
AcDbLine
 10
186.673101
 20
55.764625
 30
0.0
 11
188.668089
 21
55.764625
 31
0.0
  0
LINE
  5
62
100
AcDbEntity
  8
0
  6
Continuous
 62
   174
100
AcDbLine
 10
186.670595
 20
55.764625
 30
0.0
 11
186.660597
 21
55.754627
 31
0.0
  0
LINE
  5
63
100
AcDbEntity
  8
0
  6
Continuous
 62
   174
100
AcDbLine
 10
186.170595
 20
41.864627
 30
0.0
 11
186.670599
 21
41.364624
 31
0.0
  0
LINE
  5
64
100
AcDbEntity
  8
0
  6
Continuous
 62
   174
100
AcDbLine
 10
190.649275
 20
55.743306
 30
0.0
 11
190.170595
 21
55.264627
 31
0.0
  0
LINE
  5
65
100
AcDbEntity
  8
0
  6
Continuous
 62
   174
100
AcDbLine
 10
106.170595
 20
41.864627
 30
0.0
 11
106.670595
 21
41.364627
 31
0.0
  0
LINE
  5
66
100
AcDbEntity
  8
0
  6
Continuous
 62
   174
100
AcDbLine
 10
186.670595
 20
52.815858
 30
0.0
 11
186.670595
 21
54.401655
 31
0.0
  0
LWPOLYLINE
  5
67
100
AcDbEntity
  8
0
  6
Continuous
 62
   174
100
AcDbPolyline
 90
        2
 70
   129
 10
188.680594
 20
55.754627
 10
188.680595
 20
55.754627
  0
LINE
  5
68
100
AcDbEntity
  8
0
  6
Continuous
 62
   174
100
AcDbLine
 10
110.670595
 20
41.385929
 30
0.0
 11
110.660597
 21
41.395897
 31
0.0
  0
LINE
  5
69
100
AcDbEntity
  8
0
  6
Continuous
 62
   174
100
AcDbLine
 10
192.670595
 20
46.344461
 30
0.0
 11
190.670595
 21
46.344461
 31
0.0
  0
LINE
  5
6A
100
AcDbEntity
  8
0
  6
Continuous
 62
   174
100
AcDbLine
 10
192.680594
 20
55.754627
 30
0.0
 11
192.670595
 21
55.764625
 31
0.0
  0
LINE
  5
6B
100
AcDbEntity
  8
0
  6
Continuous
 62
   174
100
AcDbLine
 10
112.670595
 20
55.764627
 30
0.0
 11
110.670595
 21
55.764627
 31
0.0
  0
LINE
  5
6C
100
AcDbEntity
  8
0
  6
Continuous
 62
   174
100
AcDbLine
 10
106.670595
 20
41.385929
 30
0.0
 11
108.670595
 21
41.385929
 31
0.0
  0
LINE
  5
6D
100
AcDbEntity
  8
0
  6
Continuous
 62
   174
100
AcDbLine
 10
112.670595
 20
41.364627
 30
0.0
 11
113.170595
 21
41.864627
 31
0.0
  0
LINE
  5
6E
100
AcDbEntity
  8
0
  6
Continuous
 62
   174
100
AcDbLine
 10
106.660597
 20
51.314745
 30
0.0
 11
108.680594
 21
51.314745
 31
0.0
  0
LINE
  5
6F
100
AcDbEntity
  8
0
  6
Continuous
 62
   174
100
AcDbLine
 10
110.670595
 20
55.764627
 30
0.0
 11
110.170595
 21
55.264627
 31
0.0
  0
LINE
  5
70
100
AcDbEntity
  8
0
  6
Continuous
 62
   174
100
AcDbLine
 10
110.670595
 20
41.364627
 30
0.0
 11
112.670595
 21
41.364627
 31
0.0
  0
LINE
  5
71
100
AcDbEntity
  8
0
  6
Continuous
 62
   174
100
AcDbLine
 10
188.670595
 20
55.425785
 30
0.0
 11
188.670595
 21
54.407604
 31
0.0
  0
LINE
  5
72
100
AcDbEntity
  8
0
  6
Continuous
 62
   174
100
AcDbLine
 10
112.670595
 20
55.578098
 30
0.0
 11
112.670595
 21
54.717965
 31
0.0
  0
LINE
  5
73
100
AcDbEntity
  8
0
  6
Continuous
 62
   174
100
AcDbLine
 10
108.680594
 20
41.395897
 30
0.0
 11
108.670595
 21
41.385929
 31
0.0
  0
LINE
  5
74
100
AcDbEntity
  8
0
  6
Continuous
 62
   174
100
AcDbLine
 10
193.170595
 20
55.264627
 30
0.0
 11
192.670592
 21
55.76463
 31
0.0
  0
LWPOLYLINE
  5
75
100
AcDbEntity
  8
0
  6
Continuous
 62
   174
100
AcDbPolyline
 90
        3
 70
   128
 10
106.660597
 20
51.305503
 10
106.660595
 20
51.310124
 10
106.660597
 20
51.314745
  0
LINE
  5
76
100
AcDbEntity
  8
0
  6
Continuous
 62
   174
100
AcDbLine
 10
110.660597
 20
51.314745
 30
0.0
 11
112.680594
 21
51.314745
 31
0.0
  0
LINE
  5
77
100
AcDbEntity
  8
0
  6
Continuous
 62
   174
100
AcDbLine
 10
192.670595
 20
55.425785
 30
0.0
 11
192.670595
 21
54.407604
 31
0.0
  0
LINE
  5
78
100
AcDbEntity
  8
0
  6
Continuous
 62
   174
100
AcDbLine
 10
112.670595
 20
51.318563
 30
0.0
 11
110.670595
 21
51.318563
 31
0.0
  0
LINE
  5
79
100
AcDbEntity
  8
0
  6
Continuous
 62
   174
100
AcDbLine
 10
188.670595
 20
44.336619
 30
0.0
 11
186.670595
 21
44.336619
 31
0.0
  0
LINE
  5
7A
100
AcDbEntity
  8
0
  6
Continuous
 62
   174
100
AcDbLine
 10
113.170595
 20
55.264627
 30
0.0
 11
112.670595
 21
55.764627
 31
0.0
  0
LINE
  5
7B
100
AcDbEntity
  8
0
  6
Continuous
 62
   174
100
AcDbLine
 10
186.670599
 20
55.76463
 30
0.0
 11
186.649275
 21
55.743306
 31
0.0
  0
LINE
  5
7C
100
AcDbEntity
  8
0
  6
Continuous
 62
   174
100
AcDbLine
 10
188.691916
 20
41.385948
 30
0.0
 11
189.170595
 21
41.864627
 31
0.0
  0
LINE
  5
7D
100
AcDbEntity
  8
0
  6
Continuous
 62
   174
100
AcDbLine
 10
189.170595
 20
55.264627
 30
0.0
 11
188.670592
 21
55.76463
 31
0.0
  0
LINE
  5
7E
100
AcDbEntity
  8
0
  6
Continuous
 62
   174
100
AcDbLine
 10
110.670595
 20
53.254741
 30
0.0
 11
110.670595
 21
54.712654
 31
0.0
  0
LINE
  5
7F
100
AcDbEntity
  8
0
  6
Continuous
 62
   174
100
AcDbLine
 10
106.670595
 20
55.764627
 30
0.0
 11
106.170595
 21
55.264627
 31
0.0
  0
LINE
  5
80
100
AcDbEntity
  8
0
  6
Continuous
 62
   174
100
AcDbLine
 10
106.670595
 20
41.385929
 30
0.0
 11
106.660597
 21
41.395897
 31
0.0
  0
LINE
  5
81
100
AcDbEntity
  8
0
  6
Continuous
 62
   174
100
AcDbLine
 10
110.660597
 20
53.233026
 30
0.0
 11
112.680594
 21
53.233026
 31
0.0
  0
LWPOLYLINE
  5
82
100
AcDbEntity
  8
0
  6
Continuous
 62
   174
100
AcDbPolyline
 90
        3
 70
   128
 10
110.660597
 20
51.305503
 10
110.660595
 20
51.310124
 10
110.660597
 20
51.314745
  0
LINE
  5
83
100
AcDbEntity
  8
0
  6
Continuous
 62
   174
100
AcDbLine
 10
110.670595
 20
51.33394
 30
0.0
 11
110.670595
 21
53.247093
 31
0.0
  0
LINE
  5
84
100
AcDbEntity
  8
0
  6
Continuous
 62
   174
100
AcDbLine
 10
112.680594
 20
41.917543
 30
0.0
 11
112.670595
 21
41.908302
 31
0.0
  0
LWPOLYLINE
  5
85
100
AcDbEntity
  8
0
  6
Continuous
 62
   174
100
AcDbPolyline
 90
        2
 70
   129
 10
112.680594
 20
41.921362
 10
112.680595
 20
41.919452
  0
LINE
  5
86
100
AcDbEntity
  8
0
  6
Continuous
 62
   174
100
AcDbLine
 10
189.170595
 20
41.88055
 30
0.0
 11
189.170595
 21
48.579985
 31
0.0
  0
LINE
  5
87
100
AcDbEntity
  8
0
  6
Continuous
 62
   174
100
AcDbLine
 10
190.670595
 20
50.784794
 30
0.0
 11
190.660597
 21
50.781704
 31
0.0
  0
LINE
  5
88
100
AcDbEntity
  8
0
  6
Continuous
 62
   174
100
AcDbLine
 10
112.670595
 20
43.088731
 30
0.0
 11
110.670595
 21
43.088731
 31
0.0
  0
LINE
  5
89
100
AcDbEntity
  8
0
  6
Continuous
 62
   174
100
AcDbLine
 10
106.660597
 20
44.798069
 30
0.0
 11
108.680594
 21
44.798069
 31
0.0
  0
LINE
  5
8A
100
AcDbEntity
  8
0
  6
Continuous
 62
   174
100
AcDbLine
 10
188.680594
 20
52.794848
 30
0.0
 11
186.660597
 21
52.794848
 31
0.0
  0
LINE
  5
8B
100
AcDbEntity
  8
0
  6
Continuous
 62
   174
100
AcDbLine
 10
194.170595
 20
41.964627
 30
0.0
 11
194.670595
 21
42.464627
 31
0.0
  0
LINE
  5
8C
100
AcDbEntity
  8
0
  6
Continuous
 62
   174
100
AcDbLine
 10
112.670595
 20
51.324593
 30
0.0
 11
112.670595
 21
49.143352
 31
0.0
  0
LINE
  5
8D
100
AcDbEntity
  8
0
  6
Continuous
 62
   174
100
AcDbLine
 10
112.670595
 20
53.239513
 30
0.0
 11
112.680594
 21
53.233026
 31
0.0
  0
LINE
  5
8E
100
AcDbEntity
  8
0
  6
Continuous
 62
   174
100
AcDbLine
 10
110.660597
 20
41.921362
 30
0.0
 11
110.670595
 21
41.912121
 31
0.0
  0
LINE
  5
8F
100
AcDbEntity
  8
0
  6
Continuous
 62
   174
100
AcDbLine
 10
109.170595
 20
41.964627
 30
0.0
 11
110.170595
 21
41.964627
 31
0.0
  0
LINE
  5
90
100
AcDbEntity
  8
0
  6
Continuous
 62
   174
100
AcDbLine
 10
108.670595
 20
51.324593
 30
0.0
 11
108.670595
 21
49.143352
 31
0.0
  0
LINE
  5
91
100
AcDbEntity
  8
0
  6
Continuous
 62
   174
100
AcDbLine
 10
110.670595
 20
41.380488
 30
0.0
 11
110.670595
 21
41.401731
 31
0.0
  0
LINE
  5
92
100
AcDbEntity
  8
0
  6
Continuous
 62
   174
100
AcDbLine
 10
110.660597
 20
49.127263
 30
0.0
 11
110.670595
 21
49.128038
 31
0.0
  0
LINE
  5
93
100
AcDbEntity
  8
0
  6
Continuous
 62
   174
100
AcDbLine
 10
112.680594
 20
44.798069
 30
0.0
 11
112.670595
 21
44.792838
 31
0.0
  0
LINE
  5
94
100
AcDbEntity
  8
0
  6
Continuous
 62
   174
100
AcDbLine
 10
112.670595
 20
55.56534
 30
0.0
 11
112.680594
 21
55.555621
 31
0.0
  0
LINE
  5
95
100
AcDbEntity
  8
0
  6
Continuous
 62
   174
100
AcDbLine
 10
192.670595
 20
42.752579
 30
0.0
 11
192.670595
 21
41.734398
 31
0.0
  0
LINE
  5
96
100
AcDbEntity
  8
0
  6
Continuous
 62
   174
100
AcDbLine
 10
115.670595
 20
41.964627
 30
0.0
 11
117.670595
 21
43.119328
 31
0.0
  0
LINE
  5
97
100
AcDbEntity
  8
0
  6
Continuous
 62
   174
100
AcDbLine
 10
112.670595
 20
41.924098
 30
0.0
 11
112.670595
 21
41.40258
 31
0.0
  0
LINE
  5
98
100
AcDbEntity
  8
0
  6
Continuous
 62
   174
100
AcDbLine
 10
188.680594
 20
54.37852
 30
0.0
 11
188.670595
 21
54.386609
 31
0.0
  0
CIRCLE
  5
99
100
AcDbEntity
  8
0
  6
Continuous
 62
   174
100
AcDbCircle
 10
137.670595
 20
64.564627
 30
0.0
 40
2.75
  0
ARC
  5
9A
100
AcDbEntity
  8
0
  6
Continuous
 62
   174
100
AcDbCircle
 10
149.670595
 20
64.564627
 30
0.0
 40
2.5
100
AcDbArc
 50
-195.0
 51
105.0
  0
LINE
  5
9B
100
AcDbEntity
  8
0
  6
Continuous
 62
   174
100
AcDbLine
 10
108.670595
 20
41.924098
 30
0.0
 11
108.670595
 21
41.40258
 31
0.0
  0
LINE
  5
9C
100
AcDbEntity
  8
0
  6
Continuous
 62
   174
100
AcDbLine
 10
106.670595
 20
41.927922
 30
0.0
 11
106.670595
 21
43.097992
 31
0.0
  0
LINE
  5
9D
100
AcDbEntity
  8
0
  6
Continuous
 62
   174
100
AcDbLine
 10
112.670595
 20
43.088731
 30
0.0
 11
112.680594
 21
43.096339
 31
0.0
  0
LINE
  5
9E
100
AcDbEntity
  8
0
  6
Continuous
 62
   174
100
AcDbLine
 10
190.670595
 20
42.736767
 30
0.0
 11
192.670595
 21
42.736767
 31
0.0
  0
LINE
  5
9F
100
AcDbEntity
  8
0
  6
Continuous
 62
   174
100
AcDbLine
 10
112.670595
 20
54.702853
 30
0.0
 11
110.670595
 21
54.702853
 31
0.0
  0
CIRCLE
  5
A0
100
AcDbEntity
  8
0
  6
Continuous
 62
   174
100
AcDbCircle
 10
139.670595
 20
48.564627
 30
0.0
 40
2.5
  0
LINE
  5
A1
100
AcDbEntity
  8
0
  6
Continuous
 62
   174
100
AcDbLine
 10
108.670595
 20
53.239513
 30
0.0
 11
106.670595
 21
53.239513
 31
0.0
  0
LINE
  5
A2
100
AcDbEntity
  8
0
  6
Continuous
 62
   174
100
AcDbLine
 10
190.670595
 20
44.352397
 30
0.0
 11
190.670595
 21
46.350522
 31
0.0
  0
LINE
  5
A3
100
AcDbEntity
  8
0
  6
Continuous
 62
   174
100
AcDbLine
 10
106.660597
 20
49.127263
 30
0.0
 11
106.670595
 21
49.128038
 31
0.0
  0
LINE
  5
A4
100
AcDbEntity
  8
0
  6
Continuous
 62
   174
100
AcDbLine
 10
186.670595
 20
44.328529
 30
0.0
 11
188.670595
 21
44.328529
 31
0.0
  0
LINE
  5
A5
100
AcDbEntity
  8
0
  6
Continuous
 62
   174
100
AcDbLine
 10
106.670595
 20
46.872641
 30
0.0
 11
108.670595
 21
46.872641
 31
0.0
  0
LINE
  5
A6
100
AcDbEntity
  8
0
  6
Continuous
 62
   174
100
AcDbLine
 10
194.670595
 20
54.664627
 30
0.0
 11
194.170595
 21
55.164627
 31
0.0
  0
LINE
  5
A7
100
AcDbEntity
  8
0
  6
Continuous
 62
   174
100
AcDbLine
 10
112.680594
 20
53.225417
 30
0.0
 11
112.670595
 21
53.231903
 31
0.0
  0
LINE
  5
A8
100
AcDbEntity
  8
0
  6
Continuous
 62
   174
100
AcDbLine
 10
190.670595
 20
48.559627
 30
0.0
 11
192.670595
 21
48.559627
 31
0.0
  0
LINE
  5
A9
100
AcDbEntity
  8
0
  6
Continuous
 62
   174
100
AcDbLine
 10
192.680594
 20
44.334406
 30
0.0
 11
192.670595
 21
44.328529
 31
0.0
  0
LINE
  5
AA
100
AcDbEntity
  8
0
  6
Continuous
 62
   174
100
AcDbLine
 10
110.670595
 20
54.717965
 30
0.0
 11
110.670595
 21
55.578098
 31
0.0
  0
LINE
  5
AB
100
AcDbEntity
  8
0
  6
Continuous
 62
   174
100
AcDbLine
 10
186.670595
 20
46.33495
 30
0.0
 11
188.670595
 21
46.33495
 31
0.0
  0
LINE
  5
AC
100
AcDbEntity
  8
0
  6
Continuous
 62
   174
100
AcDbLine
 10
112.670595
 20
41.912121
 30
0.0
 11
110.670595
 21
41.912121
 31
0.0
  0
LINE
  5
AD
100
AcDbEntity
  8
0
  6
Continuous
 62
   174
100
AcDbLine
 10
192.670595
 20
52.800725
 30
0.0
 11
190.670595
 21
52.800725
 31
0.0
  0
LINE
  5
AE
100
AcDbEntity
  8
0
  6
Continuous
 62
   174
100
AcDbLine
 10
110.660597
 20
44.798069
 30
0.0
 11
112.680594
 21
44.798069
 31
0.0
  0
LINE
  5
AF
100
AcDbEntity
  8
0
  6
Continuous
 62
   174
100
AcDbLine
 10
190.670595
 20
41.734398
 30
0.0
 11
190.670595
 21
42.752579
 31
0.0
  0
LINE
  5
B0
100
AcDbEntity
  8
0
  6
Continuous
 62
   174
100
AcDbLine
 10
106.670595
 20
54.69762
 30
0.0
 11
108.670595
 21
54.69762
 31
0.0
  0
LINE
  5
B1
100
AcDbEntity
  8
0
  6
Continuous
 62
   174
100
AcDbLine
 10
108.680594
 20
54.6891
 30
0.0
 11
108.670595
 21
54.69762
 31
0.0
  0
LINE
  5
B2
100
AcDbEntity
  8
0
  6
Continuous
 62
   174
100
AcDbLine
 10
108.670595
 20
49.128038
 30
0.0
 11
106.670595
 21
49.128038
 31
0.0
  0
LINE
  5
B3
100
AcDbEntity
  8
0
  6
Continuous
 62
   174
100
AcDbLine
 10
112.670595
 20
49.128038
 30
0.0
 11
112.680594
 21
49.127263
 31
0.0
  0
LINE
  5
B4
100
AcDbEntity
  8
0
  6
Continuous
 62
   174
100
AcDbLine
 10
192.670595
 20
52.807786
 30
0.0
 11
192.670595
 21
50.80966
 31
0.0
  0
LINE
  5
B5
100
AcDbEntity
  8
0
  6
Continuous
 62
   174
100
AcDbLine
 10
117.670595
 20
28.564627
 30
0.0
 11
181.670595
 21
28.564627
 31
0.0
  0
LINE
  5
B6
100
AcDbEntity
  8
0
  6
Continuous
 62
   174
100
AcDbLine
 10
192.680594
 20
50.781704
 30
0.0
 11
192.670595
 21
50.784794
 31
0.0
  0
LINE
  5
B7
100
AcDbEntity
  8
0
  6
Continuous
 62
   174
100
AcDbLine
 10
188.680594
 20
55.401178
 30
0.0
 11
188.670595
 21
55.410687
 31
0.0
  0
LINE
  5
B8
100
AcDbEntity
  8
0
  6
Continuous
 62
   174
100
AcDbLine
 10
117.670595
 20
54.009927
 30
0.0
 11
115.670595
 21
55.164627
 31
0.0
  0
LINE
  5
B9
100
AcDbEntity
  8
0
  6
Continuous
 62
   174
100
AcDbLine
 10
192.670595
 20
55.413777
 30
0.0
 11
190.670595
 21
55.413777
 31
0.0
  0
LINE
  5
BA
100
AcDbEntity
  8
0
  6
Continuous
 62
   174
100
AcDbLine
 10
188.670595
 20
41.364629
 30
0.0
 11
188.680594
 21
41.374627
 31
0.0
  0
LINE
  5
BB
100
AcDbEntity
  8
0
  6
Continuous
 62
   174
100
AcDbLine
 10
188.670595
 20
54.392487
 30
0.0
 11
188.680594
 21
54.384398
 31
0.0
  0
LINE
  5
BC
100
AcDbEntity
  8
0
  6
Continuous
 62
   174
100
AcDbLine
 10
186.660597
 20
44.342496
 30
0.0
 11
186.670595
 21
44.336619
 31
0.0
  0
LINE
  5
BD
100
AcDbEntity
  8
0
  6
Continuous
 62
   174
100
AcDbLine
 10
110.670595
 20
41.908302
 30
0.0
 11
110.660597
 21
41.917543
 31
0.0
  0
LINE
  5
BE
100
AcDbEntity
  8
0
  6
Continuous
 62
   174
100
AcDbLine
 10
106.670595
 20
44.792838
 30
0.0
 11
106.660597
 21
44.798069
 31
0.0
  0
LINE
  5
BF
100
AcDbEntity
  8
0
  6
Continuous
 62
   174
100
AcDbLine
 10
106.670595
 20
43.104577
 30
0.0
 11
106.670595
 21
44.808486
 31
0.0
  0
LINE
  5
C0
100
AcDbEntity
  8
0
  6
Continuous
 62
   174
100
AcDbLine
 10
104.670595
 20
54.679728
 30
0.0
 11
104.670595
 21
42.480455
 31
0.0
  0
LINE
  5
C1
100
AcDbEntity
  8
0
  6
Continuous
 62
   174
100
AcDbLine
 10
110.170595
 20
55.279633
 30
0.0
 11
110.170595
 21
41.88055
 31
0.0
  0
LINE
  5
C2
100
AcDbEntity
  8
0
  6
Continuous
 62
   174
100
AcDbLine
 10
186.670595
 20
41.380488
 30
0.0
 11
186.670595
 21
41.731211
 31
0.0
  0
LINE
  5
C3
100
AcDbEntity
  8
0
  6
Continuous
 62
   174
100
AcDbLine
 10
112.670595
 20
44.808486
 30
0.0
 11
112.670595
 21
43.104577
 31
0.0
  0
LINE
  5
C4
100
AcDbEntity
  8
0
  6
Continuous
 62
   174
100
AcDbLine
 10
106.170595
 20
55.164627
 30
0.0
 11
105.170595
 21
55.164627
 31
0.0
  0
LINE
  5
C5
100
AcDbEntity
  8
0
  6
Continuous
 62
   174
100
AcDbLine
 10
108.670595
 20
55.764627
 30
0.0
 11
106.670595
 21
55.764627
 31
0.0
  0
LINE
  5
C6
100
AcDbEntity
  8
0
  6
Continuous
 62
   174
100
AcDbLine
 10
106.660597
 20
46.874984
 30
0.0
 11
108.680594
 21
46.874984
 31
0.0
  0
LINE
  5
C7
100
AcDbEntity
  8
0
  6
Continuous
 62
   174
100
AcDbLine
 10
190.660597
 20
46.34755
 30
0.0
 11
190.670595
 21
46.344461
 31
0.0
  0
LINE
  5
C8
100
AcDbEntity
  8
0
  6
Continuous
 62
   174
100
AcDbLine
 10
106.670595
 20
55.562997
 30
0.0
 11
106.660597
 21
55.553277
 31
0.0
  0
LINE
  5
C9
100
AcDbEntity
  8
0
  6
Continuous
 62
   174
100
AcDbLine
 10
190.670595
 20
52.792635
 30
0.0
 11
190.660597
 21
52.786758
 31
0.0
  0
LINE
  5
CA
100
AcDbEntity
  8
0
  6
Continuous
 62
   174
100
AcDbLine
 10
193.170595
 20
48.579985
 30
0.0
 11
193.170595
 21
55.279633
 31
0.0
  0
LINE
  5
CB
100
AcDbEntity
  8
0
  6
Continuous
 62
   174
100
AcDbLine
 10
186.660597
 20
50.791215
 30
0.0
 11
186.670595
 21
50.794304
 31
0.0
  0
LINE
  5
CC
100
AcDbEntity
  8
0
  6
Continuous
 62
   174
100
AcDbLine
 10
190.660597
 20
42.750734
 30
0.0
 11
190.670595
 21
42.742645
 31
0.0
  0
LINE
  5
CD
100
AcDbEntity
  8
0
  6
Continuous
 62
   174
100
AcDbLine
 10
186.670595
 20
42.736767
 30
0.0
 11
188.670595
 21
42.736767
 31
0.0
  0
LINE
  5
CE
100
AcDbEntity
  8
0
  6
Continuous
 62
   174
100
AcDbLine
 10
192.680594
 20
54.37852
 30
0.0
 11
192.670595
 21
54.386609
 31
0.0
  0
LINE
  5
CF
100
AcDbEntity
  8
0
  6
Continuous
 62
   174
100
AcDbLine
 10
108.670595
 20
44.801359
 30
0.0
 11
108.680594
 21
44.806591
 31
0.0
  0
LINE
  5
D0
100
AcDbEntity
  8
0
  6
Continuous
 62
   174
100
AcDbLine
 10
112.670595
 20
46.888185
 30
0.0
 11
112.670595
 21
44.816983
 31
0.0
  0
LINE
  5
D1
100
AcDbEntity
  8
0
  6
Continuous
 62
   174
100
AcDbLine
 10
192.670595
 20
52.800725
 30
0.0
 11
192.680594
 21
52.794848
 31
0.0
  0
LINE
  5
D2
100
AcDbEntity
  8
0
  6
Continuous
 62
   174
100
AcDbLine
 10
108.680594
 20
43.089852
 30
0.0
 11
108.670595
 21
43.082243
 31
0.0
  0
LINE
  5
D3
100
AcDbEntity
  8
0
  6
Continuous
 62
   174
100
AcDbLine
 10
192.670595
 20
46.350522
 30
0.0
 11
192.670595
 21
44.352397
 31
0.0
  0
LINE
  5
D4
100
AcDbEntity
  8
0
  6
Continuous
 62
   174
100
AcDbLine
 10
192.670595
 20
55.413777
 30
0.0
 11
192.680594
 21
55.404269
 31
0.0
  0
LINE
  5
D5
100
AcDbEntity
  8
0
  6
Continuous
 62
   174
100
AcDbLine
 10
188.670595
 20
55.413777
 30
0.0
 11
188.680594
 21
55.404269
 31
0.0
  0
LINE
  5
D6
100
AcDbEntity
  8
0
  6
Continuous
 62
   174
100
AcDbLine
 10
188.680594
 20
46.33804
 30
0.0
 11
186.660597
 21
46.33804
 31
0.0
  0
LINE
  5
D7
100
AcDbEntity
  8
0
  6
Continuous
 62
   174
100
AcDbLine
 10
192.670595
 20
44.336619
 30
0.0
 11
190.670595
 21
44.336619
 31
0.0
  0
LINE
  5
D8
100
AcDbEntity
  8
0
  6
Continuous
 62
   174
100
AcDbLine
 10
115.670595
 20
55.164627
 30
0.0
 11
113.170595
 21
55.164627
 31
0.0
  0
LINE
  5
D9
100
AcDbEntity
  8
0
  6
Continuous
 62
   174
100
AcDbLine
 10
109.170595
 20
42.388048
 30
0.0
 11
109.170595
 21
55.279633
 31
0.0
  0
LINE
  5
DA
100
AcDbEntity
  8
0
  6
Continuous
 62
   174
100
AcDbLine
 10
188.670595
 20
55.413777
 30
0.0
 11
186.670595
 21
55.413777
 31
0.0
  0
LINE
  5
DB
100
AcDbEntity
  8
0
  6
Continuous
 62
   174
100
AcDbLine
 10
108.670595
 20
53.239513
 30
0.0
 11
108.680594
 21
53.233026
 31
0.0
  0
LINE
  5
DC
100
AcDbEntity
  8
0
  6
Continuous
 62
   174
100
AcDbLine
 10
108.670595
 20
51.318563
 30
0.0
 11
106.670595
 21
51.318563
 31
0.0
  0
LINE
  5
DD
100
AcDbEntity
  8
0
  6
Continuous
 62
   174
100
AcDbLine
 10
188.670595
 20
50.800101
 30
0.0
 11
188.670595
 21
48.585083
 31
0.0
  0
LINE
  5
DE
100
AcDbEntity
  8
0
  6
Continuous
 62
   174
100
AcDbLine
 10
112.670595
 20
44.801359
 30
0.0
 11
112.680594
 21
44.806591
 31
0.0
  0
LINE
  5
DF
100
AcDbEntity
  8
0
  6
Continuous
 62
   174
100
AcDbLine
 10
106.670595
 20
55.562997
 30
0.0
 11
108.670595
 21
55.562997
 31
0.0
  0
LINE
  5
E0
100
AcDbEntity
  8
0
  6
Continuous
 62
   174
100
AcDbLine
 10
188.670595
 20
52.807786
 30
0.0
 11
188.670595
 21
50.80966
 31
0.0
  0
LINE
  5
E1
100
AcDbEntity
  8
0
  6
Continuous
 62
   174
100
AcDbLine
 10
192.680594
 20
41.724986
 30
0.0
 11
192.670595
 21
41.715477
 31
0.0
  0
LINE
  5
E2
100
AcDbEntity
  8
0
  6
Continuous
 62
   174
100
AcDbLine
 10
192.670595
 20
50.794304
 30
0.0
 11
190.670595
 21
50.794304
 31
0.0
  0
LINE
  5
E3
100
AcDbEntity
  8
0
  6
Continuous
 62
   174
100
AcDbLine
 10
105.170595
 20
41.980393
 30
0.0
 11
105.170595
 21
55.17979
 31
0.0
  0
LINE
  5
E4
100
AcDbEntity
  8
0
  6
Continuous
 62
   174
100
AcDbLine
 10
190.660597
 20
41.728076
 30
0.0
 11
190.670595
 21
41.718567
 31
0.0
  0
LINE
  5
E5
100
AcDbEntity
  8
0
  6
Continuous
 62
   174
100
AcDbLine
 10
190.670595
 20
42.758527
 30
0.0
 11
190.670595
 21
44.344324
 31
0.0
  0
LINE
  5
E6
100
AcDbEntity
  8
0
  6
Continuous
 62
   174
100
AcDbLine
 10
108.670595
 20
43.088731
 30
0.0
 11
108.680594
 21
43.096339
 31
0.0
  0
LINE
  5
E7
100
AcDbEntity
  8
0
  6
Continuous
 62
   174
100
AcDbLine
 10
186.660597
 20
41.374627
 30
0.0
 11
186.670595
 21
41.364629
 31
0.0
  0
LINE
  5
E8
100
AcDbEntity
  8
0
  6
Continuous
 62
   174
100
AcDbLine
 10
190.670595
 20
41.715477
 30
0.0
 11
190.660597
 21
41.724986
 31
0.0
  0
LINE
  5
E9
100
AcDbEntity
  8
0
  6
Continuous
 62
   174
100
AcDbLine
 10
188.670595
 20
42.742645
 30
0.0
 11
188.680594
 21
42.750734
 31
0.0
  0
LINE
  5
EA
100
AcDbEntity
  8
0
  6
Continuous
 62
   174
100
AcDbLine
 10
192.670595
 20
48.575099
 30
0.0
 11
192.670595
 21
46.360082
 31
0.0
  0
LINE
  5
EB
100
AcDbEntity
  8
0
  6
Continuous
 62
   174
100
AcDbLine
 10
186.670595
 20
44.352397
 30
0.0
 11
186.670595
 21
46.350522
 31
0.0
  0
LINE
  5
EC
100
AcDbEntity
  8
0
  6
Continuous
 62
   174
100
AcDbLine
 10
105.170595
 20
41.964627
 30
0.0
 11
106.170595
 21
41.964627
 31
0.0
  0
LINE
  5
ED
100
AcDbEntity
  8
0
  6
Continuous
 62
   174
100
AcDbLine
 10
110.670595
 20
54.69762
 30
0.0
 11
110.660597
 21
54.6891
 31
0.0
  0
LINE
  5
EE
100
AcDbEntity
  8
0
  6
Continuous
 62
   174
100
AcDbLine
 10
190.670595
 20
54.386609
 30
0.0
 11
190.660597
 21
54.37852
 31
0.0
  0
LINE
  5
EF
100
AcDbEntity
  8
0
  6
Continuous
 62
   174
100
AcDbLine
 10
186.670595
 20
54.386609
 30
0.0
 11
186.660597
 21
54.37852
 31
0.0
  0
LINE
  5
F0
100
AcDbEntity
  8
0
  6
Continuous
 62
   174
100
AcDbLine
 10
186.670595
 20
48.559627
 30
0.0
 11
188.670595
 21
48.559627
 31
0.0
  0
LINE
  5
F1
100
AcDbEntity
  8
0
  6
Continuous
 62
   174
100
AcDbLine
 10
112.680594
 20
49.117293
 30
0.0
 11
112.670595
 21
49.118068
 31
0.0
  0
LINE
  5
F2
100
AcDbEntity
  8
0
  6
Continuous
 62
   174
100
AcDbLine
 10
112.670595
 20
44.801359
 30
0.0
 11
110.670595
 21
44.801359
 31
0.0
  0
LINE
  5
F3
100
AcDbEntity
  8
0
  6
Continuous
 62
   174
100
AcDbLine
 10
186.670595
 20
50.784794
 30
0.0
 11
186.660597
 21
50.781704
 31
0.0
  0
LINE
  5
F4
100
AcDbEntity
  8
0
  6
Continuous
 62
   174
100
AcDbLine
 10
108.670595
 20
41.912121
 30
0.0
 11
108.680594
 21
41.921362
 31
0.0
  0
LINE
  5
F5
100
AcDbEntity
  8
0
  6
Continuous
 62
   174
100
AcDbLine
 10
110.660597
 20
54.694333
 30
0.0
 11
110.670595
 21
54.702853
 31
0.0
  0
LINE
  5
F6
100
AcDbEntity
  8
0
  6
Continuous
 62
   174
100
AcDbLine
 10
113.170595
 20
41.964627
 30
0.0
 11
115.670595
 21
41.964627
 31
0.0
  0
ARC
  5
F7
100
AcDbEntity
  8
0
  6
Continuous
 62
   174
100
AcDbCircle
 10
149.670595
 20
32.564627
 30
0.0
 40
2.5
100
AcDbArc
 50
-195.0
 51
105.0
  0
LWPOLYLINE
  5
F8
100
AcDbEntity
  8
0
  6
Continuous
 62
   174
100
AcDbPolyline
 90
        2
 70
   129
 10
190.660597
 20
48.559627
 10
190.660595
 20
48.564627
  0
LINE
  5
F9
100
AcDbEntity
  8
0
  6
Continuous
 62
   174
100
AcDbLine
 10
112.670595
 20
49.13358
 30
0.0
 11
112.670595
 21
46.897957
 31
0.0
  0
LINE
  5
FA
100
AcDbEntity
  8
0
  6
Continuous
 62
   174
100
AcDbLine
 10
190.670595
 20
46.360082
 30
0.0
 11
190.670595
 21
48.575099
 31
0.0
  0
LINE
  5
FB
100
AcDbEntity
  8
0
  6
Continuous
 62
   174
100
AcDbLine
 10
192.670595
 20
46.344461
 30
0.0
 11
192.680594
 21
46.34755
 31
0.0
  0
LINE
  5
FC
100
AcDbEntity
  8
0
  6
Continuous
 62
   174
100
AcDbLine
 10
188.680594
 20
50.791215
 30
0.0
 11
186.660597
 21
50.791215
 31
0.0
  0
LINE
  5
FD
100
AcDbEntity
  8
0
  6
Continuous
 62
   174
100
AcDbLine
 10
108.670595
 20
55.56534
 30
0.0
 11
108.680594
 21
55.555621
 31
0.0
  0
LINE
  5
FE
100
AcDbEntity
  8
0
  6
Continuous
 62
   174
100
AcDbLine
 10
106.670595
 20
53.231903
 30
0.0
 11
106.660597
 21
53.225417
 31
0.0
  0
LINE
  5
FF
100
AcDbEntity
  8
0
  6
Continuous
 62
   174
100
AcDbLine
 10
188.670595
 20
54.392487
 30
0.0
 11
186.670595
 21
54.392487
 31
0.0
  0
LINE
  5
100
100
AcDbEntity
  8
0
  6
Continuous
 62
   174
100
AcDbLine
 10
110.670595
 20
46.872641
 30
0.0
 11
112.670595
 21
46.872641
 31
0.0
  0
LINE
  5
101
100
AcDbEntity
  8
0
  6
Continuous
 62
   174
100
AcDbLine
 10
186.670595
 20
55.428759
 30
0.0
 11
186.670595
 21
55.779695
 31
0.0
  0
LINE
  5
102
100
AcDbEntity
  8
0
  6
Continuous
 62
   174
100
AcDbLine
 10
105.170595
 20
55.164627
 30
0.0
 11
104.670595
 21
54.664627
 31
0.0
  0
CIRCLE
  5
103
100
AcDbEntity
  8
0
  6
Continuous
 62
   174
100
AcDbCircle
 10
159.670595
 20
48.564627
 30
0.0
 40
2.5
  0
LINE
  5
104
100
AcDbEntity
  8
0
  6
Continuous
 62
   174
100
AcDbLine
 10
188.680594
 20
52.786758
 30
0.0
 11
188.670595
 21
52.792635
 31
0.0
  0
LINE
  5
105
100
AcDbEntity
  8
0
  6
Continuous
 62
   174
100
AcDbLine
 10
193.170595
 20
41.88055
 30
0.0
 11
193.170595
 21
48.579985
 31
0.0
  0
LINE
  5
106
100
AcDbEntity
  8
0
  6
Continuous
 62
   174
100
AcDbLine
 10
188.670595
 20
42.742645
 30
0.0
 11
186.670595
 21
42.742645
 31
0.0
  0
LINE
  5
107
100
AcDbEntity
  8
0
  6
Continuous
 62
   174
100
AcDbLine
 10
110.660597
 20
46.874984
 30
0.0
 11
112.680594
 21
46.874984
 31
0.0
  0
LINE
  5
108
100
AcDbEntity
  8
0
  6
Continuous
 62
   174
100
AcDbLine
 10
192.680594
 20
55.401178
 30
0.0
 11
192.670595
 21
55.410687
 31
0.0
  0
LINE
  5
109
100
AcDbEntity
  8
0
  6
Continuous
 62
   174
100
AcDbLine
 10
186.670595
 20
46.33495
 30
0.0
 11
186.660597
 21
46.33804
 31
0.0
  0
LINE
  5
10A
100
AcDbEntity
  8
0
  6
Continuous
 62
   174
100
AcDbLine
 10
110.670595
 20
43.082243
 30
0.0
 11
112.670595
 21
43.082243
 31
0.0
  0
LINE
  5
10B
100
AcDbEntity
  8
0
  6
Continuous
 62
   174
100
AcDbLine
 10
190.660597
 20
52.794848
 30
0.0
 11
190.670595
 21
52.800725
 31
0.0
  0
LINE
  5
10C
100
AcDbEntity
  8
0
  6
Continuous
 62
   174
100
AcDbLine
 10
110.670595
 20
55.562997
 30
0.0
 11
112.670595
 21
55.562997
 31
0.0
  0
LINE
  5
10D
100
AcDbEntity
  8
0
  6
Continuous
 62
   174
100
AcDbLine
 10
108.670595
 20
44.808486
 30
0.0
 11
108.670595
 21
43.104577
 31
0.0
  0
LINE
  5
10E
100
AcDbEntity
  8
0
  6
Continuous
 62
   174
100
AcDbLine
 10
108.670595
 20
46.882363
 30
0.0
 11
106.670595
 21
46.882363
 31
0.0
  0
LINE
  5
10F
100
AcDbEntity
  8
0
  6
Continuous
 62
   174
100
AcDbLine
 10
192.670595
 20
54.392487
 30
0.0
 11
192.680594
 21
54.384398
 31
0.0
  0
LINE
  5
110
100
AcDbEntity
  8
0
  6
Continuous
 62
   174
100
AcDbLine
 10
192.670595
 20
54.401655
 30
0.0
 11
192.670595
 21
52.815858
 31
0.0
  0
LINE
  5
111
100
AcDbEntity
  8
0
  6
Continuous
 62
   174
100
AcDbLine
 10
186.670595
 20
44.328529
 30
0.0
 11
186.660597
 21
44.334406
 31
0.0
  0
LINE
  5
112
100
AcDbEntity
  8
0
  6
Continuous
 62
   174
100
AcDbLine
 10
192.680594
 20
46.33804
 30
0.0
 11
190.660597
 21
46.33804
 31
0.0
  0
LINE
  5
113
100
AcDbEntity
  8
0
  6
Continuous
 62
   174
100
AcDbLine
 10
108.670595
 20
46.888185
 30
0.0
 11
108.670595
 21
44.816983
 31
0.0
  0
LINE
  5
114
100
AcDbEntity
  8
0
  6
Continuous
 62
   174
100
AcDbLine
 10
109.170595
 20
41.88055
 30
0.0
 11
109.170595
 21
42.388048
 31
0.0
  0
LINE
  5
115
100
AcDbEntity
  8
0
  6
Continuous
 62
   174
100
AcDbLine
 10
112.670595
 20
41.401731
 30
0.0
 11
112.670595
 21
41.380488
 31
0.0
  0
LINE
  5
116
100
AcDbEntity
  8
0
  6
Continuous
 62
   174
100
AcDbLine
 10
115.670595
 20
41.980393
 30
0.0
 11
115.670595
 21
55.17979
 31
0.0
  0
CIRCLE
  5
117
100
AcDbEntity
  8
0
  6
Continuous
 62
   174
100
AcDbCircle
 10
149.670595
 20
64.564627
 30
0.0
 40
2.1
  0
LINE
  5
118
100
AcDbEntity
  8
0
  6
Continuous
 62
   174
100
AcDbLine
 10
186.670595
 20
41.734398
 30
0.0
 11
186.670595
 21
42.752579
 31
0.0
  0
LINE
  5
119
100
AcDbEntity
  8
0
  6
Continuous
 62
   174
100
AcDbLine
 10
186.670595
 20
55.410687
 30
0.0
 11
188.670595
 21
55.410687
 31
0.0
  0
LINE
  5
11A
100
AcDbEntity
  8
0
  6
Continuous
 62
   174
100
AcDbLine
 10
186.660597
 20
41.728076
 30
0.0
 11
186.670595
 21
41.718567
 31
0.0
  0
LINE
  5
11B
100
AcDbEntity
  8
0
  6
Continuous
 62
   174
100
AcDbLine
 10
190.670595
 20
50.80966
 30
0.0
 11
190.670595
 21
52.807786
 31
0.0
  0
LINE
  5
11C
100
AcDbEntity
  8
0
  6
Continuous
 62
   174
100
AcDbLine
 10
110.660597
 20
44.806591
 30
0.0
 11
110.670595
 21
44.801359
 31
0.0
  0
LINE
  5
11D
100
AcDbEntity
  8
0
  6
Continuous
 62
   174
100
AcDbLine
 10
188.670595
 20
41.731211
 30
0.0
 11
188.670595
 21
41.380488
 31
0.0
  0
LINE
  5
11E
100
AcDbEntity
  8
0
  6
Continuous
 62
   174
100
AcDbLine
 10
108.680594
 20
49.117293
 30
0.0
 11
108.670595
 21
49.118068
 31
0.0
  0
LINE
  5
11F
100
AcDbEntity
  8
0
  6
Continuous
 62
   174
100
AcDbLine
 10
112.680594
 20
51.305503
 30
0.0
 11
112.670595
 21
51.30932
 31
0.0
  0
LWPOLYLINE
  5
120
100
AcDbEntity
  8
0
  6
Continuous
 62
   174
100
AcDbPolyline
 90
        2
 70
   129
 10
110.660597
 20
41.917543
 10
110.660595
 20
41.919452
  0
LINE
  5
121
100
AcDbEntity
  8
0
  6
Continuous
 62
   174
100
AcDbLine
 10
186.670595
 20
52.792635
 30
0.0
 11
186.660597
 21
52.786758
 31
0.0
  0
LINE
  5
122
100
AcDbEntity
  8
0
  6
Continuous
 62
   174
100
AcDbLine
 10
190.670595
 20
42.736767
 30
0.0
 11
190.660597
 21
42.744856
 31
0.0
  0
LINE
  5
123
100
AcDbEntity
  8
0
  6
Continuous
 62
   174
100
AcDbLine
 10
108.670595
 20
44.801359
 30
0.0
 11
106.670595
 21
44.801359
 31
0.0
  0
LINE
  5
124
100
AcDbEntity
  8
0
  6
Continuous
 62
   174
100
AcDbLine
 10
104.670595
 20
42.464627
 30
0.0
 11
105.170595
 21
41.964627
 31
0.0
  0
LINE
  5
125
100
AcDbEntity
  8
0
  6
Continuous
 62
   174
100
AcDbLine
 10
186.670595
 20
52.792635
 30
0.0
 11
188.670595
 21
52.792635
 31
0.0
  0
LINE
  5
126
100
AcDbEntity
  8
0
  6
Continuous
 62
   174
100
AcDbLine
 10
190.670595
 20
54.386609
 30
0.0
 11
192.670595
 21
54.386609
 31
0.0
  0
LINE
  5
127
100
AcDbEntity
  8
0
  6
Continuous
 62
   174
100
AcDbLine
 10
110.660597
 20
53.233026
 30
0.0
 11
110.670595
 21
53.239513
 31
0.0
  0
LINE
  5
128
100
AcDbEntity
  8
0
  6
Continuous
 62
   174
100
AcDbLine
 10
106.670595
 20
44.792838
 30
0.0
 11
108.670595
 21
44.792838
 31
0.0
  0
LINE
  5
129
100
AcDbEntity
  8
0
  6
Continuous
 62
   174
100
AcDbLine
 10
108.680594
 20
46.874984
 30
0.0
 11
108.670595
 21
46.872641
 31
0.0
  0
LINE
  5
12A
100
AcDbEntity
  8
0
  6
Continuous
 62
   174
100
AcDbLine
 10
110.670595
 20
41.927922
 30
0.0
 11
110.670595
 21
43.097992
 31
0.0
  0
LINE
  5
12B
100
AcDbEntity
  8
0
  6
Continuous
 62
   174
100
AcDbLine
 10
113.170595
 20
42.388048
 30
0.0
 11
113.170595
 21
55.279633
 31
0.0
  0
LINE
  5
12C
100
AcDbEntity
  8
0
  6
Continuous
 62
   174
100
AcDbLine
 10
192.670595
 20
42.742645
 30
0.0
 11
192.680594
 21
42.750734
 31
0.0
  0
LINE
  5
12D
100
AcDbEntity
  8
0
  6
Continuous
 62
   174
100
AcDbLine
 10
106.660597
 20
54.694333
 30
0.0
 11
106.670595
 21
54.702853
 31
0.0
  0
LINE
  5
12E
100
AcDbEntity
  8
0
  6
Continuous
 62
   174
100
AcDbLine
 10
108.680594
 20
41.917543
 30
0.0
 11
108.670595
 21
41.908302
 31
0.0
  0
LINE
  5
12F
100
AcDbEntity
  8
0
  6
Continuous
 62
   174
100
AcDbLine
 10
188.670595
 20
52.800725
 30
0.0
 11
188.680594
 21
52.794848
 31
0.0
  0
LINE
  5
130
100
AcDbEntity
  8
0
  6
Continuous
 62
   174
100
AcDbLine
 10
188.670595
 20
41.718567
 30
0.0
 11
188.680594
 21
41.728076
 31
0.0
  0
LINE
  5
131
100
AcDbEntity
  8
0
  6
Continuous
 62
   174
100
AcDbLine
 10
190.660597
 20
41.374627
 30
0.0
 11
190.670595
 21
41.364629
 31
0.0
  0
LINE
  5
132
100
AcDbEntity
  8
0
  6
Continuous
 62
   174
100
AcDbLine
 10
110.670595
 20
53.231903
 30
0.0
 11
110.660597
 21
53.225417
 31
0.0
  0
LINE
  5
133
100
AcDbEntity
  8
0
  6
Continuous
 62
   174
100
AcDbLine
 10
110.670595
 20
54.69762
 30
0.0
 11
112.670595
 21
54.69762
 31
0.0
  0
LINE
  5
134
100
AcDbEntity
  8
0
  6
Continuous
 62
   174
100
AcDbLine
 10
181.670595
 20
68.564627
 30
0.0
 11
117.670595
 21
68.564627
 31
0.0
  0
LINE
  5
135
100
AcDbEntity
  8
0
  6
Continuous
 62
   174
100
AcDbLine
 10
186.660597
 20
52.794848
 30
0.0
 11
186.670595
 21
52.800725
 31
0.0
  0
LINE
  5
136
100
AcDbEntity
  8
0
  6
Continuous
 62
   174
100
AcDbLine
 10
108.670595
 20
41.401731
 30
0.0
 11
108.670595
 21
41.380488
 31
0.0
  0
LINE
  5
137
100
AcDbEntity
  8
0
  6
Continuous
 62
   174
100
AcDbLine
 10
110.670595
 20
53.231903
 30
0.0
 11
112.670595
 21
53.231903
 31
0.0
  0
LINE
  5
138
100
AcDbEntity
  8
0
  6
Continuous
 62
   174
100
AcDbLine
 10
192.670595
 20
48.569627
 30
0.0
 11
190.670595
 21
48.569627
 31
0.0
  0
LINE
  5
139
100
AcDbEntity
  8
0
  6
Continuous
 62
   174
100
AcDbLine
 10
106.670595
 20
41.908302
 30
0.0
 11
106.660597
 21
41.917543
 31
0.0
  0
LINE
  5
13A
100
AcDbEntity
  8
0
  6
Continuous
 62
   174
100
AcDbLine
 10
186.670595
 20
48.585083
 30
0.0
 11
186.670595
 21
50.800101
 31
0.0
  0
LWPOLYLINE
  5
13B
100
AcDbEntity
  8
0
  6
Continuous
 62
   174
100
AcDbPolyline
 90
        2
 70
   129
 10
186.660597
 20
48.559627
 10
186.660595
 20
48.564627
  0
LINE
  5
13C
100
AcDbEntity
  8
0
  6
Continuous
 62
   174
100
AcDbLine
 10
110.660597
 20
49.127263
 30
0.0
 11
112.680594
 21
49.127263
 31
0.0
  0
LINE
  5
13D
100
AcDbEntity
  8
0
  6
Continuous
 62
   174
100
AcDbLine
 10
108.670595
 20
43.088731
 30
0.0
 11
106.670595
 21
43.088731
 31
0.0
  0
LINE
  5
13E
100
AcDbEntity
  8
0
  6
Continuous
 62
   174
100
AcDbLine
 10
112.670595
 20
49.128038
 30
0.0
 11
110.670595
 21
49.128038
 31
0.0
  0
LINE
  5
13F
100
AcDbEntity
  8
0
  6
Continuous
 62
   174
100
AcDbLine
 10
190.670595
 20
44.328529
 30
0.0
 11
190.660597
 21
44.334406
 31
0.0
  0
LINE
  5
140
100
AcDbEntity
  8
0
  6
Continuous
 62
   174
100
AcDbLine
 10
110.670595
 20
49.143352
 30
0.0
 11
110.670595
 21
51.324593
 31
0.0
  0
CIRCLE
  5
141
100
AcDbEntity
  8
0
  6
Continuous
 62
   174
100
AcDbCircle
 10
161.670595
 20
32.564627
 30
0.0
 40
2.75
  0
LINE
  5
142
100
AcDbEntity
  8
0
  6
Continuous
 62
   174
100
AcDbLine
 10
108.670595
 20
46.882363
 30
0.0
 11
108.680594
 21
46.884706
 31
0.0
  0
LINE
  5
143
100
AcDbEntity
  8
0
  6
Continuous
 62
   174
100
AcDbLine
 10
189.170595
 20
41.964627
 30
0.0
 11
190.170595
 21
41.964627
 31
0.0
  0
LINE
  5
144
100
AcDbEntity
  8
0
  6
Continuous
 62
   174
100
AcDbLine
 10
110.670595
 20
46.897957
 30
0.0
 11
110.670595
 21
49.13358
 31
0.0
  0
LINE
  5
145
100
AcDbEntity
  8
0
  6
Continuous
 62
   174
100
AcDbLine
 10
112.670595
 20
53.239513
 30
0.0
 11
110.670595
 21
53.239513
 31
0.0
  0
LINE
  5
146
100
AcDbEntity
  8
0
  6
Continuous
 62
   174
100
AcDbLine
 10
108.670595
 20
54.702853
 30
0.0
 11
108.680594
 21
54.694333
 31
0.0
  0
LINE
  5
147
100
AcDbEntity
  8
0
  6
Continuous
 62
   174
100
AcDbLine
 10
106.670595
 20
49.118068
 30
0.0
 11
106.660597
 21
49.117293
 31
0.0
  0
LINE
  5
148
100
AcDbEntity
  8
0
  6
Continuous
 62
   174
100
AcDbLine
 10
188.670595
 20
48.569627
 30
0.0
 11
186.670595
 21
48.569627
 31
0.0
  0
LWPOLYLINE
  5
149
100
AcDbEntity
  8
0
  6
Continuous
 62
   174
100
AcDbPolyline
 90
        2
 70
   129
 10
188.680594
 20
48.569627
 10
188.680595
 20
48.564627
  0
LINE
  5
14A
100
AcDbEntity
  8
0
  6
Continuous
 62
   174
100
AcDbLine
 10
188.670595
 20
41.718567
 30
0.0
 11
186.670595
 21
41.718567
 31
0.0
  0
LINE
  5
14B
100
AcDbEntity
  8
0
  6
Continuous
 62
   174
100
AcDbLine
 10
106.670595
 20
54.717965
 30
0.0
 11
106.670595
 21
55.578098
 31
0.0
  0
LINE
  5
14C
100
AcDbEntity
  8
0
  6
Continuous
 62
   174
100
AcDbLine
 10
106.660597
 20
41.921362
 30
0.0
 11
106.670595
 21
41.912121
 31
0.0
  0
LINE
  5
14D
100
AcDbEntity
  8
0
  6
Continuous
 62
   174
100
AcDbLine
 10
106.670595
 20
55.580435
 30
0.0
 11
106.670595
 21
55.779695
 31
0.0
  0
LINE
  5
14E
100
AcDbEntity
  8
0
  6
Continuous
 62
   174
100
AcDbLine
 10
117.670595
 20
68.564627
 30
0.0
 11
117.670595
 21
28.564627
 31
0.0
  0
LINE
  5
14F
100
AcDbEntity
  8
0
  6
Continuous
 62
   174
100
AcDbLine
 10
112.670595
 20
46.882363
 30
0.0
 11
112.680594
 21
46.884706
 31
0.0
  0
LINE
  5
150
100
AcDbEntity
  8
0
  6
Continuous
 62
   174
100
AcDbLine
 10
190.660597
 20
50.791215
 30
0.0
 11
190.670595
 21
50.794304
 31
0.0
  0
LINE
  5
151
100
AcDbEntity
  8
0
  6
Continuous
 62
   174
100
AcDbLine
 10
192.670595
 20
42.742645
 30
0.0
 11
190.670595
 21
42.742645
 31
0.0
  0
LINE
  5
152
100
AcDbEntity
  8
0
  6
Continuous
 62
   174
100
AcDbLine
 10
190.670595
 20
41.380488
 30
0.0
 11
190.670595
 21
41.731211
 31
0.0
  0
LINE
  5
153
100
AcDbEntity
  8
0
  6
Continuous
 62
   174
100
AcDbLine
 10
108.670595
 20
54.702853
 30
0.0
 11
106.670595
 21
54.702853
 31
0.0
  0
LINE
  5
154
100
AcDbEntity
  8
0
  6
Continuous
 62
   174
100
AcDbLine
 10
106.670595
 20
46.872641
 30
0.0
 11
106.660597
 21
46.874984
 31
0.0
  0
LINE
  5
155
100
AcDbEntity
  8
0
  6
Continuous
 62
   174
100
AcDbLine
 10
110.670595
 20
55.580435
 30
0.0
 11
110.670595
 21
55.779695
 31
0.0
  0
LINE
  5
156
100
AcDbEntity
  8
0
  6
Continuous
 62
   174
100
AcDbLine
 10
194.170595
 20
48.579985
 30
0.0
 11
194.170595
 21
41.980393
 31
0.0
  0
LINE
  5
157
100
AcDbEntity
  8
0
  6
Continuous
 62
   174
100
AcDbLine
 10
192.670595
 20
41.731211
 30
0.0
 11
192.670595
 21
41.380488
 31
0.0
  0
LINE
  5
158
100
AcDbEntity
  8
0
  6
Continuous
 62
   174
100
AcDbLine
 10
188.668089
 20
41.364629
 30
0.0
 11
186.673101
 21
41.364629
 31
0.0
  0
LINE
  5
159
100
AcDbEntity
  8
0
  6
Continuous
 62
   174
100
AcDbLine
 10
112.670595
 20
54.702853
 30
0.0
 11
112.680594
 21
54.694333
 31
0.0
  0
LINE
  5
15A
100
AcDbEntity
  8
0
  6
Continuous
 62
   174
100
AcDbLine
 10
113.170595
 20
41.88055
 30
0.0
 11
113.170595
 21
42.388048
 31
0.0
  0
LINE
  5
15B
100
AcDbEntity
  8
0
  6
Continuous
 62
   174
100
AcDbLine
 10
112.670595
 20
46.882363
 30
0.0
 11
110.670595
 21
46.882363
 31
0.0
  0
LINE
  5
15C
100
AcDbEntity
  8
0
  6
Continuous
 62
   174
100
AcDbLine
 10
192.680594
 20
42.744856
 30
0.0
 11
192.670595
 21
42.736767
 31
0.0
  0
LINE
  5
15D
100
AcDbEntity
  8
0
  6
Continuous
 62
   174
100
AcDbLine
 10
106.670595
 20
49.118068
 30
0.0
 11
108.670595
 21
49.118068
 31
0.0
  0
LINE
  5
15E
100
AcDbEntity
  8
0
  6
Continuous
 62
   174
100
AcDbLine
 10
192.670595
 20
50.800101
 30
0.0
 11
192.670595
 21
48.585083
 31
0.0
  0
LINE
  5
15F
100
AcDbEntity
  8
0
  6
Continuous
 62
   174
100
AcDbLine
 10
110.670595
 20
55.562997
 30
0.0
 11
110.660597
 21
55.553277
 31
0.0
  0
LINE
  5
160
100
AcDbEntity
  8
0
  6
Continuous
 62
   174
100
AcDbLine
 10
110.660597
 20
55.555621
 30
0.0
 11
110.670595
 21
55.56534
 31
0.0
  0
LWPOLYLINE
  5
161
100
AcDbEntity
  8
0
  6
Continuous
 62
   174
100
AcDbPolyline
 90
        2
 70
   129
 10
192.680594
 20
48.569627
 10
192.680595
 20
48.564627
  0
LINE
  5
162
100
AcDbEntity
  8
0
  6
Continuous
 62
   174
100
AcDbLine
 10
186.670595
 20
42.736767
 30
0.0
 11
186.660597
 21
42.744856
 31
0.0
  0
LINE
  5
163
100
AcDbEntity
  8
0
  6
Continuous
 62
   174
100
AcDbLine
 10
106.660597
 20
53.233026
 30
0.0
 11
106.670595
 21
53.239513
 31
0.0
  0
LINE
  5
164
100
AcDbEntity
  8
0
  6
Continuous
 62
   174
100
AcDbLine
 10
112.680594
 20
55.553277
 30
0.0
 11
112.670595
 21
55.562997
 31
0.0
  0
LINE
  5
165
100
AcDbEntity
  8
0
  6
Continuous
 62
   174
100
AcDbLine
 10
186.660597
 20
55.404269
 30
0.0
 11
186.670595
 21
55.413777
 31
0.0
  0
LINE
  5
166
100
AcDbEntity
  8
0
  6
Continuous
 62
   174
100
AcDbLine
 10
106.670595
 20
54.69762
 30
0.0
 11
106.660597
 21
54.6891
 31
0.0
  0
LINE
  5
167
100
AcDbEntity
  8
0
  6
Continuous
 62
   174
100
AcDbLine
 10
190.670595
 20
44.328529
 30
0.0
 11
192.670595
 21
44.328529
 31
0.0
  0
LINE
  5
168
100
AcDbEntity
  8
0
  6
Continuous
 62
   174
100
AcDbLine
 10
106.670595
 20
41.908302
 30
0.0
 11
108.670595
 21
41.908302
 31
0.0
  0
LINE
  5
169
100
AcDbEntity
  8
0
  6
Continuous
 62
   174
100
AcDbLine
 10
190.670595
 20
46.33495
 30
0.0
 11
190.660597
 21
46.33804
 31
0.0
  0
LINE
  5
16A
100
AcDbEntity
  8
0
  6
Continuous
 62
   174
100
AcDbLine
 10
106.670595
 20
43.082243
 30
0.0
 11
106.660597
 21
43.089852
 31
0.0
  0
LINE
  5
16B
100
AcDbEntity
  8
0
  6
Continuous
 62
   174
100
AcDbLine
 10
192.670595
 20
54.392487
 30
0.0
 11
190.670595
 21
54.392487
 31
0.0
  0
LINE
  5
16C
100
AcDbEntity
  8
0
  6
Continuous
 62
   174
100
AcDbLine
 10
106.670595
 20
51.30932
 30
0.0
 11
108.670595
 21
51.30932
 31
0.0
  0
LINE
  5
16D
100
AcDbEntity
  8
0
  6
Continuous
 62
   174
100
AcDbLine
 10
188.670595
 20
46.344461
 30
0.0
 11
188.680594
 21
46.34755
 31
0.0
  0
LINE
  5
16E
100
AcDbEntity
  8
0
  6
Continuous
 62
   174
100
AcDbLine
 10
106.670595
 20
46.897957
 30
0.0
 11
106.670595
 21
49.13358
 31
0.0
  0
LINE
  5
16F
100
AcDbEntity
  8
0
  6
Continuous
 62
   174
100
AcDbLine
 10
106.170595
 20
55.279633
 30
0.0
 11
106.170595
 21
41.88055
 31
0.0
  0
LINE
  5
170
100
AcDbEntity
  8
0
  6
Continuous
 62
   174
100
AcDbLine
 10
186.670595
 20
55.410687
 30
0.0
 11
186.660597
 21
55.401178
 31
0.0
  0
LINE
  5
171
100
AcDbEntity
  8
0
  6
Continuous
 62
   174
100
AcDbLine
 10
186.670595
 20
41.715477
 30
0.0
 11
188.670595
 21
41.715477
 31
0.0
  0
LINE
  5
172
100
AcDbEntity
  8
0
  6
Continuous
 62
   174
100
AcDbLine
 10
112.670595
 20
53.247093
 30
0.0
 11
112.670595
 21
51.33394
 31
0.0
  0
LINE
  5
173
100
AcDbEntity
  8
0
  6
Continuous
 62
   174
100
AcDbLine
 10
183.670595
 20
55.164627
 30
0.0
 11
181.670595
 21
54.009927
 31
0.0
  0
LINE
  5
174
100
AcDbEntity
  8
0
  6
Continuous
 62
   174
100
AcDbLine
 10
108.680594
 20
51.305503
 30
0.0
 11
108.670595
 21
51.30932
 31
0.0
  0
LINE
  5
175
100
AcDbEntity
  8
0
  6
Continuous
 62
   174
100
AcDbLine
 10
110.670595
 20
41.908302
 30
0.0
 11
112.670595
 21
41.908302
 31
0.0
  0
LINE
  5
176
100
AcDbEntity
  8
0
  6
Continuous
 62
   174
100
AcDbLine
 10
190.670595
 20
52.792635
 30
0.0
 11
192.670595
 21
52.792635
 31
0.0
  0
LINE
  5
177
100
AcDbEntity
  8
0
  6
Continuous
 62
   174
100
AcDbLine
 10
194.670595
 20
48.579985
 30
0.0
 11
194.670595
 21
54.679728
 31
0.0
  0
LINE
  5
178
100
AcDbEntity
  8
0
  6
Continuous
 62
   174
100
AcDbLine
 10
192.670595
 20
50.794304
 30
0.0
 11
192.680594
 21
50.791215
 31
0.0
  0
LINE
  5
179
100
AcDbEntity
  8
0
  6
Continuous
 62
   174
100
AcDbLine
 10
192.670595
 20
41.718567
 30
0.0
 11
190.670595
 21
41.718567
 31
0.0
  0
LINE
  5
17A
100
AcDbEntity
  8
0
  6
Continuous
 62
   174
100
AcDbLine
 10
106.660597
 20
44.806591
 30
0.0
 11
106.670595
 21
44.801359
 31
0.0
  0
LINE
  5
17B
100
AcDbEntity
  8
0
  6
Continuous
 62
   174
100
AcDbLine
 10
110.660597
 20
43.096339
 30
0.0
 11
110.670595
 21
43.088731
 31
0.0
  0
LINE
  5
17C
100
AcDbEntity
  8
0
  6
Continuous
 62
   174
100
AcDbLine
 10
106.660597
 20
43.096339
 30
0.0
 11
106.670595
 21
43.088731
 31
0.0
  0
LINE
  5
17D
100
AcDbEntity
  8
0
  6
Continuous
 62
   174
100
AcDbLine
 10
194.170595
 20
55.17979
 30
0.0
 11
194.170595
 21
48.579985
 31
0.0
  0
LINE
  5
17E
100
AcDbEntity
  8
0
  6
Continuous
 62
   174
100
AcDbLine
 10
192.670595
 20
41.364629
 30
0.0
 11
192.680594
 21
41.374627
 31
0.0
  0
LINE
  5
17F
100
AcDbEntity
  8
0
  6
Continuous
 62
   174
100
AcDbLine
 10
108.670595
 20
55.779695
 30
0.0
 11
108.670595
 21
55.580435
 31
0.0
  0
LINE
  5
180
100
AcDbEntity
  8
0
  6
Continuous
 62
   174
100
AcDbLine
 10
106.670595
 20
41.380488
 30
0.0
 11
106.670595
 21
41.401731
 31
0.0
  0
LINE
  5
181
100
AcDbEntity
  8
0
  6
Continuous
 62
   174
100
AcDbLine
 10
190.670595
 20
50.784794
 30
0.0
 11
192.670595
 21
50.784794
 31
0.0
  0
LINE
  5
182
100
AcDbEntity
  8
0
  6
Continuous
 62
   174
100
AcDbLine
 10
188.680594
 20
50.781704
 30
0.0
 11
188.670595
 21
50.784794
 31
0.0
  0
LINE
  5
183
100
AcDbEntity
  8
0
  6
Continuous
 62
   174
100
AcDbLine
 10
188.680594
 20
44.334406
 30
0.0
 11
186.660597
 21
44.334406
 31
0.0
  0
LINE
  5
184
100
AcDbEntity
  8
0
  6
Continuous
 62
   174
100
AcDbLine
 10
110.670595
 20
44.816983
 30
0.0
 11
110.670595
 21
46.888185
 31
0.0
  0
LINE
  5
185
100
AcDbEntity
  8
0
  6
Continuous
 62
   174
100
AcDbLine
 10
186.660597
 20
54.384398
 30
0.0
 11
186.670595
 21
54.392487
 31
0.0
  0
LINE
  5
186
100
AcDbEntity
  8
0
  6
Continuous
 62
   174
100
AcDbLine
 10
181.670595
 20
28.564627
 30
0.0
 11
181.670595
 21
68.564627
 31
0.0
  0
LINE
  5
187
100
AcDbEntity
  8
0
  6
Continuous
 62
   174
100
AcDbLine
 10
193.170595
 20
41.964627
 30
0.0
 11
194.170595
 21
41.964627
 31
0.0
  0
LINE
  5
188
100
AcDbEntity
  8
0
  6
Continuous
 62
   174
100
AcDbLine
 10
190.660597
 20
55.404269
 30
0.0
 11
190.670595
 21
55.413777
 31
0.0
  0
LINE
  5
189
100
AcDbEntity
  8
0
  6
Continuous
 62
   174
100
AcDbLine
 10
186.670595
 20
42.758527
 30
0.0
 11
186.670595
 21
44.344324
 31
0.0
  0
LWPOLYLINE
  5
18A
100
AcDbEntity
  8
0
  6
Continuous
 62
   174
100
AcDbPolyline
 90
        2
 70
   129
 10
186.660597
 20
41.374627
 10
186.660595
 20
41.374627
  0
LINE
  5
18B
100
AcDbEntity
  8
0
  6
Continuous
 62
   174
100
AcDbLine
 10
192.680594
 20
46.33804
 30
0.0
 11
192.670595
 21
46.33495
 31
0.0
  0
LINE
  5
18C
100
AcDbEntity
  8
0
  6
Continuous
 62
   174
100
AcDbLine
 10
181.670595
 20
43.119328
 30
0.0
 11
183.670595
 21
41.964627
 31
0.0
  0
LWPOLYLINE
  5
18D
100
AcDbEntity
  8
0
  6
Continuous
 62
   174
100
AcDbPolyline
 90
        3
 70
   128
 10
108.680594
 20
41.921362
 10
108.680595
 20
41.919452
 10
108.680594
 20
41.917543
  0
LINE
  5
18E
100
AcDbEntity
  8
0
  6
Continuous
 62
   174
100
AcDbLine
 10
112.680594
 20
46.874984
 30
0.0
 11
112.670595
 21
46.872641
 31
0.0
  0
LINE
  5
18F
100
AcDbEntity
  8
0
  6
Continuous
 62
   174
100
AcDbLine
 10
108.670595
 20
49.13358
 30
0.0
 11
108.670595
 21
46.897957
 31
0.0
  0
LINE
  5
190
100
AcDbEntity
  8
0
  6
Continuous
 62
   174
100
AcDbLine
 10
186.670595
 20
46.360082
 30
0.0
 11
186.670595
 21
48.575099
 31
0.0
  0
LINE
  5
191
100
AcDbEntity
  8
0
  6
Continuous
 62
   174
100
AcDbLine
 10
186.670595
 20
50.80966
 30
0.0
 11
186.670595
 21
52.807786
 31
0.0
  0
LINE
  5
192
100
AcDbEntity
  8
0
  6
Continuous
 62
   174
100
AcDbLine
 10
110.670595
 20
51.30932
 30
0.0
 11
112.670595
 21
51.30932
 31
0.0
  0
LINE
  5
193
100
AcDbEntity
  8
0
  6
Continuous
 62
   174
100
AcDbLine
 10
192.680594
 20
44.334406
 30
0.0
 11
190.660597
 21
44.334406
 31
0.0
  0
LINE
  5
194
100
AcDbEntity
  8
0
  6
Continuous
 62
   174
100
AcDbLine
 10
108.670595
 20
43.097992
 30
0.0
 11
108.670595
 21
41.927922
 31
0.0
  0
LINE
  5
195
100
AcDbEntity
  8
0
  6
Continuous
 62
   174
100
AcDbLine
 10
183.670595
 20
41.964627
 30
0.0
 11
186.170595
 21
41.964627
 31
0.0
  0
LINE
  5
196
100
AcDbEntity
  8
0
  6
Continuous
 62
   174
100
AcDbLine
 10
190.170595
 20
55.164627
 30
0.0
 11
189.170595
 21
55.164627
 31
0.0
  0
LINE
  5
197
100
AcDbEntity
  8
0
  6
Continuous
 62
   174
100
AcDbLine
 10
108.670595
 20
55.56534
 30
0.0
 11
106.670595
 21
55.56534
 31
0.0
  0
LINE
  5
198
100
AcDbEntity
  8
0
  6
Continuous
 62
   174
100
AcDbLine
 10
192.680594
 20
52.786758
 30
0.0
 11
192.670595
 21
52.792635
 31
0.0
  0
LINE
  5
199
100
AcDbEntity
  8
0
  6
Continuous
 62
   174
100
AcDbLine
 10
188.670595
 20
50.794304
 30
0.0
 11
188.680594
 21
50.791215
 31
0.0
  0
LINE
  5
19A
100
AcDbEntity
  8
0
  6
Continuous
 62
   174
100
AcDbLine
 10
188.670595
 20
42.752579
 30
0.0
 11
188.670595
 21
41.734398
 31
0.0
  0
LINE
  5
19B
100
AcDbEntity
  8
0
  6
Continuous
 62
   174
100
AcDbLine
 10
186.670595
 20
54.386609
 30
0.0
 11
188.670595
 21
54.386609
 31
0.0
  0
LINE
  5
19C
100
AcDbEntity
  8
0
  6
Continuous
 62
   174
100
AcDbLine
 10
186.170595
 20
55.279633
 30
0.0
 11
186.170595
 21
41.88055
 31
0.0
  0
LINE
  5
19D
100
AcDbEntity
  8
0
  6
Continuous
 62
   174
100
AcDbLine
 10
186.660597
 20
42.750734
 30
0.0
 11
186.670595
 21
42.742645
 31
0.0
  0
LINE
  5
19E
100
AcDbEntity
  8
0
  6
Continuous
 62
   174
100
AcDbLine
 10
190.670595
 20
55.410687
 30
0.0
 11
192.670595
 21
55.410687
 31
0.0
  0
LINE
  5
19F
100
AcDbEntity
  8
0
  6
Continuous
 62
   174
100
AcDbLine
 10
188.670595
 20
48.575099
 30
0.0
 11
188.670595
 21
46.360082
 31
0.0
  0
LINE
  5
1A0
100
AcDbEntity
  8
0
  6
Continuous
 62
   174
100
AcDbLine
 10
108.670595
 20
49.128038
 30
0.0
 11
108.680594
 21
49.127263
 31
0.0
  0
LINE
  5
1A1
100
AcDbEntity
  8
0
  6
Continuous
 62
   174
100
AcDbLine
 10
110.670595
 20
49.118068
 30
0.0
 11
112.670595
 21
49.118068
 31
0.0
  0
LINE
  5
1A2
100
AcDbEntity
  8
0
  6
Continuous
 62
   174
100
AcDbLine
 10
110.670595
 20
41.40258
 30
0.0
 11
110.670595
 21
41.924098
 31
0.0
  0
LINE
  5
1A3
100
AcDbEntity
  8
0
  6
Continuous
 62
   174
100
AcDbLine
 10
110.670595
 20
44.792838
 30
0.0
 11
112.670595
 21
44.792838
 31
0.0
  0
LINE
  5
1A4
100
AcDbEntity
  8
0
  6
Continuous
 62
   174
100
AcDbLine
 10
186.670595
 20
41.715477
 30
0.0
 11
186.660597
 21
41.724986
 31
0.0
  0
LINE
  5
1A5
100
AcDbEntity
  8
0
  6
Continuous
 62
   174
100
AcDbLine
 10
183.670595
 20
48.579985
 30
0.0
 11
183.670595
 21
41.980393
 31
0.0
  0
LINE
  5
1A6
100
AcDbEntity
  8
0
  6
Continuous
 62
   174
100
AcDbLine
 10
194.670595
 20
42.480455
 30
0.0
 11
194.670595
 21
48.579985
 31
0.0
  0
LINE
  5
1A7
100
AcDbEntity
  8
0
  6
Continuous
 62
   174
100
AcDbLine
 10
189.170595
 20
48.579985
 30
0.0
 11
189.170595
 21
55.279633
 31
0.0
  0
LINE
  5
1A8
100
AcDbEntity
  8
0
  6
Continuous
 62
   174
100
AcDbLine
 10
192.670595
 20
41.718567
 30
0.0
 11
192.680594
 21
41.728076
 31
0.0
  0
LINE
  5
1A9
100
AcDbEntity
  8
0
  6
Continuous
 62
   174
100
AcDbLine
 10
190.660597
 20
54.384398
 30
0.0
 11
190.670595
 21
54.392487
 31
0.0
  0
LWPOLYLINE
  5
1AA
100
AcDbEntity
  8
0
  6
Continuous
 62
   174
100
AcDbPolyline
 90
        2
 70
   129
 10
190.660597
 20
41.374627
 10
190.660595
 20
41.374627
  0
LINE
  5
1AB
100
AcDbEntity
  8
0
  6
Continuous
 62
   174
100
AcDbLine
 10
106.670595
 20
41.40258
 30
0.0
 11
106.670595
 21
41.924098
 31
0.0
  0
LINE
  5
1AC
100
AcDbEntity
  8
0
  6
Continuous
 62
   174
100
AcDbLine
 10
186.170595
 20
55.164627
 30
0.0
 11
183.670595
 21
55.164627
 31
0.0
  0
LINE
  5
1AD
100
AcDbEntity
  8
0
  6
Continuous
 62
   174
100
AcDbLine
 10
108.680594
 20
55.553277
 30
0.0
 11
108.670595
 21
55.562997
 31
0.0
  0
LINE
  5
1AE
100
AcDbEntity
  8
0
  6
Continuous
 62
   174
100
AcDbLine
 10
194.170595
 20
55.164627
 30
0.0
 11
193.170595
 21
55.164627
 31
0.0
  0
CIRCLE
  5
1AF
100
AcDbEntity
  8
0
  6
Continuous
 62
   174
100
AcDbCircle
 10
149.670595
 20
32.564627
 30
0.0
 40
2.1
  0
LINE
  5
1B0
100
AcDbEntity
  8
0
  6
Continuous
 62
   174
100
AcDbLine
 10
190.170595
 20
55.279633
 30
0.0
 11
190.170595
 21
41.88055
 31
0.0
  0
LINE
  5
1B1
100
AcDbEntity
  8
0
  6
Continuous
 62
   174
100
AcDbLine
 10
188.670595
 20
46.344461
 30
0.0
 11
186.670595
 21
46.344461
 31
0.0
  0
LINE
  5
1B2
100
AcDbEntity
  8
0
  6
Continuous
 62
   174
100
AcDbLine
 10
190.670595
 20
41.715477
 30
0.0
 11
192.670595
 21
41.715477
 31
0.0
  0
LINE
  5
1B3
100
AcDbEntity
  8
0
  6
Continuous
 62
   174
100
AcDbLine
 10
192.670595
 20
44.344324
 30
0.0
 11
192.670595
 21
42.758527
 31
0.0
  0
LINE
  5
1B4
100
AcDbEntity
  8
0
  6
Continuous
 62
   174
100
AcDbLine
 10
112.680594
 20
54.6891
 30
0.0
 11
112.670595
 21
54.69762
 31
0.0
  0
LINE
  5
1B5
100
AcDbEntity
  8
0
  6
Continuous
 62
   174
100
AcDbLine
 10
190.673101
 20
55.764625
 30
0.0
 11
192.668089
 21
55.764625
 31
0.0
  0
LINE
  5
1B6
100
AcDbEntity
  8
0
  6
Continuous
 62
   174
100
AcDbLine
 10
106.670595
 20
41.364627
 30
0.0
 11
108.670595
 21
41.364627
 31
0.0
  0
LINE
  5
1B7
100
AcDbEntity
  8
0
  6
Continuous
 62
   174
100
AcDbLine
 10
188.680594
 20
46.33804
 30
0.0
 11
188.670595
 21
46.33495
 31
0.0
  0
LINE
  5
1B8
100
AcDbEntity
  8
0
  6
Continuous
 62
   174
100
AcDbLine
 10
112.670595
 20
41.912121
 30
0.0
 11
112.680594
 21
41.921362
 31
0.0
  0
LINE
  5
1B9
100
AcDbEntity
  8
0
  6
Continuous
 62
   174
100
AcDbLine
 10
108.680594
 20
53.225417
 30
0.0
 11
108.670595
 21
53.231903
 31
0.0
  0
LINE
  5
1BA
100
AcDbEntity
  8
0
  6
Continuous
 62
   174
100
AcDbLine
 10
188.670595
 20
54.401655
 30
0.0
 11
188.670595
 21
52.815858
 31
0.0
  0
LINE
  5
1BB
100
AcDbEntity
  8
0
  6
Continuous
 62
   174
100
AcDbLine
 10
108.670595
 20
41.912121
 30
0.0
 11
106.670595
 21
41.912121
 31
0.0
  0
LINE
  5
1BC
100
AcDbEntity
  8
0
  6
Continuous
 62
   174
100
AcDbLine
 10
112.670595
 20
43.097992
 30
0.0
 11
112.670595
 21
41.927922
 31
0.0
  0
LINE
  5
1BD
100
AcDbEntity
  8
0
  6
Continuous
 62
   174
100
AcDbLine
 10
110.670595
 20
44.792838
 30
0.0
 11
110.660597
 21
44.798069
 31
0.0
  0
LINE
  5
1BE
100
AcDbEntity
  8
0
  6
Continuous
 62
   174
100
AcDbLine
 10
110.170595
 20
55.164627
 30
0.0
 11
109.170595
 21
55.164627
 31
0.0
  0
LINE
  5
1BF
100
AcDbEntity
  8
0
  6
Continuous
 62
   174
100
AcDbLine
 10
110.670595
 20
43.104577
 30
0.0
 11
110.670595
 21
44.808486
 31
0.0
  0
LINE
  5
1C0
100
AcDbEntity
  8
0
  6
Continuous
 62
   174
100
AcDbLine
 10
110.670595
 20
43.082243
 30
0.0
 11
110.660597
 21
43.089852
 31
0.0
  0
LINE
  5
1C1
100
AcDbEntity
  8
0
  6
Continuous
 62
   174
100
AcDbLine
 10
188.670595
 20
52.800725
 30
0.0
 11
186.670595
 21
52.800725
 31
0.0
  0
LINE
  5
1C2
100
AcDbEntity
  8
0
  6
Continuous
 62
   174
100
AcDbLine
 10
106.660597
 20
55.555621
 30
0.0
 11
106.670595
 21
55.56534
 31
0.0
  0
LINE
  5
1C3
100
AcDbEntity
  8
0
  6
Continuous
 62
   174
100
AcDbLine
 10
112.670595
 20
55.56534
 30
0.0
 11
110.670595
 21
55.56534
 31
0.0
  0
LINE
  5
1C4
100
AcDbEntity
  8
0
  6
Continuous
 62
   174
100
AcDbLine
 10
112.680594
 20
43.089852
 30
0.0
 11
112.670595
 21
43.082243
 31
0.0
  0
LINE
  5
1C5
100
AcDbEntity
  8
0
  6
Continuous
 62
   174
100
AcDbLine
 10
106.670595
 20
53.231903
 30
0.0
 11
108.670595
 21
53.231903
 31
0.0
  0
LINE
  5
1C6
100
AcDbEntity
  8
0
  6
Continuous
 62
   174
100
AcDbLine
 10
106.670595
 20
44.816983
 30
0.0
 11
106.670595
 21
46.888185
 31
0.0
  0
LINE
  5
1C7
100
AcDbEntity
  8
0
  6
Continuous
 62
   174
100
AcDbLine
 10
110.670595
 20
46.872641
 30
0.0
 11
110.660597
 21
46.874984
 31
0.0
  0
LINE
  5
1C8
100
AcDbEntity
  8
0
  6
Continuous
 62
   174
100
AcDbLine
 10
188.670595
 20
44.336619
 30
0.0
 11
188.680594
 21
44.342496
 31
0.0
  0
LINE
  5
1C9
100
AcDbEntity
  8
0
  6
Continuous
 62
   174
100
AcDbLine
 10
190.670595
 20
46.33495
 30
0.0
 11
192.670595
 21
46.33495
 31
0.0
  0
LINE
  5
1CA
100
AcDbEntity
  8
0
  6
Continuous
 62
   174
100
AcDbLine
 10
190.670595
 20
48.585083
 30
0.0
 11
190.670595
 21
50.800101
 31
0.0
  0
LINE
  5
1CB
100
AcDbEntity
  8
0
  6
Continuous
 62
   174
100
AcDbLine
 10
106.670595
 20
43.082243
 30
0.0
 11
108.670595
 21
43.082243
 31
0.0
  0
LINE
  5
1CC
100
AcDbEntity
  8
0
  6
Continuous
 62
   174
100
AcDbLine
 10
188.670595
 20
50.794304
 30
0.0
 11
186.670595
 21
50.794304
 31
0.0
  0
LINE
  5
1CD
100
AcDbEntity
  8
0
  6
Continuous
 62
   174
100
AcDbLine
 10
188.680594
 20
42.744856
 30
0.0
 11
188.670595
 21
42.736767
 31
0.0
  0
LINE
  5
1CE
100
AcDbEntity
  8
0
  6
Continuous
 62
   174
100
AcDbLine
 10
188.680594
 20
41.724986
 30
0.0
 11
188.670595
 21
41.715477
 31
0.0
  0
LINE
  5
1CF
100
AcDbEntity
  8
0
  6
Continuous
 62
   174
100
AcDbLine
 10
186.660597
 20
46.34755
 30
0.0
 11
186.670595
 21
46.344461
 31
0.0
  0
LWPOLYLINE
  5
1D0
100
AcDbEntity
  8
0
  6
Continuous
 62
   174
100
AcDbPolyline
 90
        3
 70
   128
 10
106.660597
 20
41.917543
 10
106.660595
 20
41.919452
 10
106.660597
 20
41.921362
  0
LINE
  5
1D1
100
AcDbEntity
  8
0
  6
Continuous
 62
   174
100
AcDbLine
 10
188.670595
 20
44.344324
 30
0.0
 11
188.670595
 21
42.758527
 31
0.0
  0
LINE
  5
1D2
100
AcDbEntity
  8
0
  6
Continuous
 62
   174
100
AcDbLine
 10
110.660597
 20
46.884706
 30
0.0
 11
110.670595
 21
46.882363
 31
0.0
  0
LINE
  5
1D3
100
AcDbEntity
  8
0
  6
Continuous
 62
   174
100
AcDbLine
 10
188.670595
 20
46.350522
 30
0.0
 11
188.670595
 21
44.352397
 31
0.0
  0
LINE
  5
1D4
100
AcDbEntity
  8
0
  6
Continuous
 62
   174
100
AcDbLine
 10
106.660597
 20
46.884706
 30
0.0
 11
106.670595
 21
46.882363
 31
0.0
  0
LINE
  5
1D5
100
AcDbEntity
  8
0
  6
Continuous
 62
   174
100
AcDbLine
 10
106.670595
 20
51.30932
 30
0.0
 11
106.660597
 21
51.305503
 31
0.0
  0
LINE
  5
1D6
100
AcDbEntity
  8
0
  6
Continuous
 62
   174
100
AcDbLine
 10
108.680594
 20
44.798069
 30
0.0
 11
108.670595
 21
44.792838
 31
0.0
  0
LINE
  5
1D7
100
AcDbEntity
  8
0
  6
Continuous
 62
   174
100
AcDbLine
 10
183.670595
 20
55.17979
 30
0.0
 11
183.670595
 21
48.579985
 31
0.0
  0
LINE
  5
1D8
100
AcDbEntity
  8
0
  6
Continuous
 62
   174
100
AcDbLine
 10
186.670595
 20
50.784794
 30
0.0
 11
188.670595
 21
50.784794
 31
0.0
  0
LINE
  5
1D9
100
AcDbEntity
  8
0
  6
Continuous
 62
   174
100
AcDbLine
 10
192.668089
 20
41.364629
 30
0.0
 11
190.673101
 21
41.364629
 31
0.0
  0
LINE
  5
1DA
100
AcDbEntity
  8
0
  6
Continuous
 62
   174
100
AcDbLine
 10
190.670595
 20
55.410687
 30
0.0
 11
190.660597
 21
55.401178
 31
0.0
  0
LINE
  5
1DB
100
AcDbEntity
  8
0
  6
Continuous
 62
   174
100
AcDbLine
 10
112.670595
 20
55.779695
 30
0.0
 11
112.670595
 21
55.580435
 31
0.0
  0
ENDBLK
  5
1DC
100
AcDbEntity
  8
0
100
AcDbBlockEnd
  0
BLOCK
  5
1DF
100
AcDbEntity
  8
0
100
AcDbBlockBegin
  2
*B3
 70
     0
 10
0.0
 20
0.0
 30
0.0
  3
*B3
  1

  0
LINE
  5
1E0
100
AcDbEntity
  8
0
  6
HIDDEN
 62
   174
100
AcDbLine
 10
110.957677
 20
107.32968
 30
0.0
 11
110.947678
 21
107.320439
 31
0.0
  0
LINE
  5
1E1
100
AcDbEntity
  8
0
  6
HIDDEN
 62
   174
100
AcDbLine
 10
110.957677
 20
107.852053
 30
0.0
 11
110.947678
 21
107.842085
 31
0.0
  0
LINE
  5
1E2
100
AcDbEntity
  8
0
  6
HIDDEN
 62
   174
100
AcDbLine
 10
106.947678
 20
102.362998
 30
0.0
 11
108.967675
 21
102.362998
 31
0.0
  0
LINE
  5
1E3
100
AcDbEntity
  8
0
  6
HIDDEN
 62
   174
100
AcDbLine
 10
108.957677
 20
104.448901
 30
0.0
 11
108.957677
 21
102.377699
 31
0.0
  0
LINE
  5
1E4
100
AcDbEntity
  8
0
  6
HIDDEN
 62
   174
100
AcDbLine
 10
110.947678
 20
94.54365
 30
0.0
 11
110.957677
 21
94.535129
 31
0.0
  0
LINE
  5
1E5
100
AcDbEntity
  8
0
  6
HIDDEN
 62
   174
100
AcDbLine
 10
190.957677
 20
104.921772
 30
0.0
 11
190.957677
 21
106.50757
 31
0.0
  0
LINE
  5
1E6
100
AcDbEntity
  8
0
  6
Continuous
 62
   174
100
AcDbLine
 10
188.967675
 20
106.487248
 30
0.0
 11
188.957677
 21
106.495337
 31
0.0
  0
LINE
  5
1E7
100
AcDbEntity
  8
0
  6
HIDDEN
 62
   174
100
AcDbLine
 10
108.957677
 20
107.325861
 30
0.0
 11
108.967675
 21
107.316621
 31
0.0
  0
LINE
  5
1E8
100
AcDbEntity
  8
0
  6
HIDDEN
 62
   174
100
AcDbLine
 10
106.957677
 20
104.457398
 30
0.0
 11
106.957677
 21
106.16152
 31
0.0
  0
LINE
  5
1E9
100
AcDbEntity
  8
0
  6
HIDDEN
 62
   174
100
AcDbLine
 10
192.957677
 20
104.9137
 30
0.0
 11
192.957677
 21
102.915362
 31
0.0
  0
LINE
  5
1EA
100
AcDbEntity
  8
0
  6
HIDDEN
 62
   174
100
AcDbLine
 10
110.947678
 20
104.439913
 30
0.0
 11
112.967675
 21
104.439913
 31
0.0
  0
LINE
  5
1EB
100
AcDbEntity
  8
0
  6
HIDDEN
 62
   174
100
AcDbLine
 10
106.947678
 20
106.148131
 30
0.0
 11
108.967675
 21
106.148131
 31
0.0
  0
LINE
  5
1EC
100
AcDbEntity
  8
0
  6
Continuous
 62
   174
100
AcDbLine
 10
106.957677
 20
101.226796
 30
0.0
 11
108.957677
 21
101.226796
 31
0.0
  0
LINE
  5
1ED
100
AcDbEntity
  8
0
  6
HIDDEN
 62
   174
100
AcDbLine
 10
192.957677
 20
102.906015
 30
0.0
 11
192.957677
 21
100.690785
 31
0.0
  0
LINE
  5
1EE
100
AcDbEntity
  8
0
  6
HIDDEN
 62
   174
100
AcDbLine
 10
106.947678
 20
107.320439
 30
0.0
 11
108.967675
 21
107.320439
 31
0.0
  0
LINE
  5
1EF
100
AcDbEntity
  8
0
  6
Continuous
 62
   174
100
AcDbLine
 10
186.957677
 20
107.873353
 30
0.0
 11
186.947678
 21
107.863355
 31
0.0
  0
LINE
  5
1F0
100
AcDbEntity
  8
0
  6
Continuous
 62
   174
100
AcDbLine
 10
108.957677
 20
93.473355
 30
0.0
 11
109.457677
 21
93.973355
 31
0.0
  0
LINE
  5
1F1
100
AcDbEntity
  8
0
  6
Continuous
 62
   174
100
AcDbLine
 10
108.967675
 20
101.226021
 30
0.0
 11
108.957677
 21
101.226796
 31
0.0
  0
LINE
  5
1F2
100
AcDbEntity
  8
0
  6
Continuous
 62
   174
100
AcDbLine
 10
193.457677
 20
107.373355
 30
0.0
 11
192.973906
 21
107.857126
 31
0.0
  0
LINE
  5
1F3
100
AcDbEntity
  8
0
  6
Continuous
 62
   174
100
AcDbLine
 10
110.957677
 20
93.473355
 30
0.0
 11
112.957677
 21
93.473355
 31
0.0
  0
LINE
  5
1F4
100
AcDbEntity
  8
0
  6
HIDDEN
 62
   174
100
AcDbLine
 10
106.947678
 20
103.414231
 30
0.0
 11
108.967675
 21
103.414231
 31
0.0
  0
LINE
  5
1F5
100
AcDbEntity
  8
0
  6
HIDDEN
 62
   174
100
AcDbLine
 10
110.947678
 20
106.141643
 30
0.0
 11
112.967675
 21
106.141643
 31
0.0
  0
LINE
  5
1F6
100
AcDbEntity
  8
0
  6
Continuous
 62
   174
100
AcDbLine
 10
188.957677
 20
93.827295
 30
0.0
 11
186.957677
 21
93.827295
 31
0.0
  0
LINE
  5
1F7
100
AcDbEntity
  8
0
  6
Continuous
 62
   174
100
AcDbLine
 10
112.967675
 20
101.226021
 30
0.0
 11
112.957677
 21
101.226796
 31
0.0
  0
LINE
  5
1F8
100
AcDbEntity
  8
0
  6
Continuous
 62
   174
100
AcDbLine
 10
188.957677
 20
93.827295
 30
0.0
 11
188.967675
 21
93.836804
 31
0.0
  0
LWPOLYLINE
  5
1F9
100
AcDbEntity
  8
0
  6
HIDDEN
 62
   174
100
AcDbPolyline
 90
        2
 70
   129
 10
106.947678
 20
107.320439
 10
106.947677
 20
107.31853
  0
LINE
  5
1FA
100
AcDbEntity
  8
0
  6
Continuous
 62
   174
100
AcDbLine
 10
106.947678
 20
101.235991
 30
0.0
 11
106.957677
 21
101.236766
 31
0.0
  0
LINE
  5
1FB
100
AcDbEntity
  8
0
  6
HIDDEN
 62
   174
100
AcDbLine
 10
192.957677
 20
100.680801
 30
0.0
 11
192.957677
 21
98.465783
 31
0.0
  0
LINE
  5
1FC
100
AcDbEntity
  8
0
  6
HIDDEN
 62
   174
100
AcDbLine
 10
106.947678
 20
107.316621
 30
0.0
 11
106.957677
 21
107.325861
 31
0.0
  0
LINE
  5
1FD
100
AcDbEntity
  8
0
  6
HIDDEN
 62
   174
100
AcDbLine
 10
112.957677
 20
107.325861
 30
0.0
 11
110.957677
 21
107.325861
 31
0.0
  0
LINE
  5
1FE
100
AcDbEntity
  8
0
  6
Continuous
 62
   174
100
AcDbLine
 10
192.957677
 20
106.501215
 30
0.0
 11
192.967675
 21
106.493126
 31
0.0
  0
LINE
  5
1FF
100
AcDbEntity
  8
0
  6
HIDDEN
 62
   174
100
AcDbLine
 10
106.957677
 20
106.167892
 30
0.0
 11
106.957677
 21
107.337962
 31
0.0
  0
LINE
  5
200
100
AcDbEntity
  8
0
  6
HIDDEN
 62
   174
100
AcDbLine
 10
110.947678
 20
107.316621
 30
0.0
 11
110.957677
 21
107.325861
 31
0.0
  0
LINE
  5
201
100
AcDbEntity
  8
0
  6
HIDDEN
 62
   174
100
AcDbLine
 10
112.957677
 20
97.91942
 30
0.0
 11
112.967675
 21
97.923237
 31
0.0
  0
LINE
  5
202
100
AcDbEntity
  8
0
  6
HIDDEN
 62
   174
100
AcDbLine
 10
110.947678
 20
97.923237
 30
0.0
 11
110.957677
 21
97.91942
 31
0.0
  0
LINE
  5
203
100
AcDbEntity
  8
0
  6
Continuous
 62
   174
100
AcDbLine
 10
189.457677
 20
107.373355
 30
0.0
 11
188.973906
 21
107.857126
 31
0.0
  0
LINE
  5
204
100
AcDbEntity
  8
0
  6
HIDDEN
 62
   174
100
AcDbLine
 10
112.957677
 20
104.448901
 30
0.0
 11
112.957677
 21
102.377699
 31
0.0
  0
LWPOLYLINE
  5
205
100
AcDbEntity
  8
0
  6
HIDDEN
 62
   174
100
AcDbPolyline
 90
        3
 70
   128
 10
112.967675
 20
107.316621
 10
112.967677
 20
107.31853
 10
112.967675
 20
107.320439
  0
LINE
  5
206
100
AcDbEntity
  8
0
  6
HIDDEN
 62
   174
100
AcDbLine
 10
192.958865
 20
93.483355
 30
0.0
 11
190.956488
 21
93.483355
 31
0.0
  0
LINE
  5
207
100
AcDbEntity
  8
0
  6
Continuous
 62
   174
100
AcDbLine
 10
110.957677
 20
101.226796
 30
0.0
 11
112.957677
 21
101.226796
 31
0.0
  0
LWPOLYLINE
  5
208
100
AcDbEntity
  8
0
  6
HIDDEN
 62
   174
100
AcDbPolyline
 90
        2
 70
   129
 10
110.947678
 20
107.320439
 10
110.947677
 20
107.31853
  0
LINE
  5
209
100
AcDbEntity
  8
0
  6
HIDDEN
 62
   174
100
AcDbLine
 10
188.957677
 20
102.906015
 30
0.0
 11
188.957677
 21
100.690785
 31
0.0
  0
LINE
  5
20A
100
AcDbEntity
  8
0
  6
HIDDEN
 62
   174
100
AcDbLine
 10
117.967677
 20
104.185699
 30
0.0
 11
117.967677
 21
97.186099
 31
0.0
  0
LINE
  5
20B
100
AcDbEntity
  8
0
  6
HIDDEN
 62
   174
100
AcDbLine
 10
186.957677
 20
102.915362
 30
0.0
 11
186.957677
 21
104.9137
 31
0.0
  0
LINE
  5
20C
100
AcDbEntity
  8
0
  6
HIDDEN
 62
   174
100
AcDbLine
 10
108.957677
 20
107.337962
 30
0.0
 11
108.957677
 21
106.167892
 31
0.0
  0
LINE
  5
20D
100
AcDbEntity
  8
0
  6
Continuous
 62
   174
100
AcDbLine
 10
190.947678
 20
106.493126
 30
0.0
 11
190.957677
 21
106.501215
 31
0.0
  0
LINE
  5
20E
100
AcDbEntity
  8
0
  6
HIDDEN
 62
   174
100
AcDbLine
 10
112.957677
 20
107.325861
 30
0.0
 11
112.967675
 21
107.316621
 31
0.0
  0
LINE
  5
20F
100
AcDbEntity
  8
0
  6
HIDDEN
 62
   174
100
AcDbLine
 10
106.957677
 20
94.540362
 30
0.0
 11
106.947678
 21
94.548882
 31
0.0
  0
LINE
  5
210
100
AcDbEntity
  8
0
  6
Continuous
 62
   174
100
AcDbLine
 10
188.967675
 20
107.863355
 30
0.0
 11
188.957677
 21
107.873353
 31
0.0
  0
LINE
  5
211
100
AcDbEntity
  8
0
  6
Continuous
 62
   174
100
AcDbLine
 10
192.973906
 20
93.489585
 30
0.0
 11
193.457677
 21
93.973355
 31
0.0
  0
LINE
  5
212
100
AcDbEntity
  8
0
  6
Continuous
 62
   174
100
AcDbLine
 10
190.947678
 20
93.836804
 30
0.0
 11
190.957677
 21
93.827295
 31
0.0
  0
LINE
  5
213
100
AcDbEntity
  8
0
  6
HIDDEN
 62
   174
100
AcDbLine
 10
108.967675
 20
94.548882
 30
0.0
 11
108.957677
 21
94.540362
 31
0.0
  0
LINE
  5
214
100
AcDbEntity
  8
0
  6
HIDDEN
 62
   174
100
AcDbLine
 10
110.947678
 20
104.431391
 30
0.0
 11
112.967675
 21
104.431391
 31
0.0
  0
LINE
  5
215
100
AcDbEntity
  8
0
  6
Continuous
 62
   174
100
AcDbLine
 10
192.957677
 20
93.827295
 30
0.0
 11
190.957677
 21
93.827295
 31
0.0
  0
LINE
  5
216
100
AcDbEntity
  8
0
  6
Continuous
 62
   174
100
AcDbLine
 10
113.457677
 20
107.373355
 30
0.0
 11
112.957677
 21
107.873355
 31
0.0
  0
LINE
  5
217
100
AcDbEntity
  8
0
  6
Continuous
 62
   174
100
AcDbLine
 10
186.457677
 20
93.973355
 30
0.0
 11
186.941447
 21
93.489585
 31
0.0
  0
LINE
  5
218
100
AcDbEntity
  8
0
  6
Continuous
 62
   174
100
AcDbLine
 10
188.973906
 20
93.489585
 30
0.0
 11
189.457677
 21
93.973355
 31
0.0
  0
LINE
  5
219
100
AcDbEntity
  8
0
  6
HIDDEN
 62
   174
100
AcDbLine
 10
188.957677
 20
104.9137
 30
0.0
 11
188.957677
 21
102.915362
 31
0.0
  0
LINE
  5
21A
100
AcDbEntity
  8
0
  6
Continuous
 62
   174
100
AcDbLine
 10
190.457677
 20
93.973355
 30
0.0
 11
190.941447
 21
93.489585
 31
0.0
  0
LINE
  5
21B
100
AcDbEntity
  8
0
  6
Continuous
 62
   174
100
AcDbLine
 10
106.457677
 20
93.973355
 30
0.0
 11
106.957677
 21
93.473355
 31
0.0
  0
LINE
  5
21C
100
AcDbEntity
  8
0
  6
Continuous
 62
   174
100
AcDbLine
 10
192.957677
 20
93.827295
 30
0.0
 11
192.967675
 21
93.836804
 31
0.0
  0
LINE
  5
21D
100
AcDbEntity
  8
0
  6
HIDDEN
 62
   174
100
AcDbLine
 10
106.947678
 20
107.842085
 30
0.0
 11
108.967675
 21
107.842085
 31
0.0
  0
LINE
  5
21E
100
AcDbEntity
  8
0
  6
HIDDEN
 62
   174
100
AcDbLine
 10
106.947678
 20
106.141643
 30
0.0
 11
108.967675
 21
106.141643
 31
0.0
  0
LINE
  5
21F
100
AcDbEntity
  8
0
  6
HIDDEN
 62
   174
100
AcDbLine
 10
108.957677
 20
106.16152
 30
0.0
 11
108.957677
 21
104.457398
 31
0.0
  0
LINE
  5
220
100
AcDbEntity
  8
0
  6
HIDDEN
 62
   174
100
AcDbLine
 10
110.957677
 20
94.540362
 30
0.0
 11
112.957677
 21
94.540362
 31
0.0
  0
LINE
  5
221
100
AcDbEntity
  8
0
  6
HIDDEN
 62
   174
100
AcDbLine
 10
190.957677
 20
102.915362
 30
0.0
 11
190.957677
 21
104.9137
 31
0.0
  0
LINE
  5
222
100
AcDbEntity
  8
0
  6
Continuous
 62
   174
100
AcDbLine
 10
188.957677
 20
106.501215
 30
0.0
 11
186.957677
 21
106.501215
 31
0.0
  0
LINE
  5
223
100
AcDbEntity
  8
0
  6
Continuous
 62
   174
100
AcDbLine
 10
112.957677
 20
107.873355
 30
0.0
 11
110.957677
 21
107.873355
 31
0.0
  0
LINE
  5
224
100
AcDbEntity
  8
0
  6
Continuous
 62
   174
100
AcDbLine
 10
108.957677
 20
101.236766
 30
0.0
 11
106.957677
 21
101.236766
 31
0.0
  0
LINE
  5
225
100
AcDbEntity
  8
0
  6
Continuous
 62
   174
100
AcDbLine
 10
190.957677
 20
93.824205
 30
0.0
 11
192.957677
 21
93.824205
 31
0.0
  0
LINE
  5
226
100
AcDbEntity
  8
0
  6
Continuous
 62
   174
100
AcDbLine
 10
110.457677
 20
93.973355
 30
0.0
 11
110.957677
 21
93.473355
 31
0.0
  0
LINE
  5
227
100
AcDbEntity
  8
0
  6
HIDDEN
 62
   174
100
AcDbLine
 10
106.947678
 20
100.12069
 30
0.0
 11
108.967675
 21
100.12069
 31
0.0
  0
LINE
  5
228
100
AcDbEntity
  8
0
  6
Continuous
 62
   174
100
AcDbLine
 10
186.947678
 20
93.836804
 30
0.0
 11
186.957677
 21
93.827295
 31
0.0
  0
LINE
  5
229
100
AcDbEntity
  8
0
  6
HIDDEN
 62
   174
100
AcDbLine
 10
106.957677
 20
107.341786
 30
0.0
 11
106.957677
 21
107.863304
 31
0.0
  0
LINE
  5
22A
100
AcDbEntity
  8
0
  6
Continuous
 62
   174
100
AcDbLine
 10
192.967675
 20
93.833714
 30
0.0
 11
192.957677
 21
93.824205
 31
0.0
  0
LINE
  5
22B
100
AcDbEntity
  8
0
  6
Continuous
 62
   174
100
AcDbLine
 10
112.957677
 20
93.473355
 30
0.0
 11
113.457677
 21
93.973355
 31
0.0
  0
LINE
  5
22C
100
AcDbEntity
  8
0
  6
Continuous
 62
   174
100
AcDbLine
 10
186.941447
 20
107.857126
 30
0.0
 11
186.457677
 21
107.373355
 31
0.0
  0
LINE
  5
22D
100
AcDbEntity
  8
0
  6
HIDDEN
 62
   174
100
AcDbLine
 10
110.947678
 20
106.148131
 30
0.0
 11
112.967675
 21
106.148131
 31
0.0
  0
LINE
  5
22E
100
AcDbEntity
  8
0
  6
Continuous
 62
   174
100
AcDbLine
 10
190.941447
 20
107.857126
 30
0.0
 11
190.457677
 21
107.373355
 31
0.0
  0
LINE
  5
22F
100
AcDbEntity
  8
0
  6
Continuous
 62
   174
100
AcDbLine
 10
106.957677
 20
107.873355
 30
0.0
 11
106.457677
 21
107.373355
 31
0.0
  0
LINE
  5
230
100
AcDbEntity
  8
0
  6
HIDDEN
 62
   174
100
AcDbLine
 10
110.957677
 20
106.167892
 30
0.0
 11
110.957677
 21
107.337962
 31
0.0
  0
LINE
  5
231
100
AcDbEntity
  8
0
  6
HIDDEN
 62
   174
100
AcDbLine
 10
112.957677
 20
106.16152
 30
0.0
 11
112.957677
 21
104.457398
 31
0.0
  0
LINE
  5
232
100
AcDbEntity
  8
0
  6
Continuous
 62
   174
100
AcDbLine
 10
110.957677
 20
101.226796
 30
0.0
 11
110.947678
 21
101.226021
 31
0.0
  0
LINE
  5
233
100
AcDbEntity
  8
0
  6
HIDDEN
 62
   174
100
AcDbLine
 10
106.947678
 20
100.11072
 30
0.0
 11
108.967675
 21
100.11072
 31
0.0
  0
LINE
  5
234
100
AcDbEntity
  8
0
  6
Continuous
 62
   174
100
AcDbLine
 10
112.957677
 20
101.236766
 30
0.0
 11
110.957677
 21
101.236766
 31
0.0
  0
LINE
  5
235
100
AcDbEntity
  8
0
  6
Continuous
 62
   174
100
AcDbLine
 10
110.957677
 20
107.873355
 30
0.0
 11
110.457677
 21
107.373355
 31
0.0
  0
LINE
  5
236
100
AcDbEntity
  8
0
  6
HIDDEN
 62
   174
100
AcDbLine
 10
110.957677
 20
104.457398
 30
0.0
 11
110.957677
 21
106.16152
 31
0.0
  0
LINE
  5
237
100
AcDbEntity
  8
0
  6
Continuous
 62
   174
100
AcDbLine
 10
109.457677
 20
107.373355
 30
0.0
 11
108.957677
 21
107.873355
 31
0.0
  0
LINE
  5
238
100
AcDbEntity
  8
0
  6
HIDDEN
 62
   174
100
AcDbLine
 10
186.957677
 20
104.921772
 30
0.0
 11
186.957677
 21
106.50757
 31
0.0
  0
LWPOLYLINE
  5
239
100
AcDbEntity
  8
0
  6
HIDDEN
 62
   174
100
AcDbPolyline
 90
        2
 70
   129
 10
108.967675
 20
107.316621
 10
108.967677
 20
107.31853
  0
LINE
  5
23A
100
AcDbEntity
  8
0
  6
Continuous
 62
   174
100
AcDbLine
 10
190.957677
 20
93.824205
 30
0.0
 11
190.947678
 21
93.833714
 31
0.0
  0
LINE
  5
23B
100
AcDbEntity
  8
0
  6
HIDDEN
 62
   174
100
AcDbLine
 10
106.947678
 20
107.316621
 30
0.0
 11
108.967675
 21
107.316621
 31
0.0
  0
LINE
  5
23C
100
AcDbEntity
  8
0
  6
Continuous
 62
   174
100
AcDbLine
 10
106.957677
 20
101.226796
 30
0.0
 11
106.947678
 21
101.226021
 31
0.0
  0
LINE
  5
23D
100
AcDbEntity
  8
0
  6
Continuous
 62
   174
100
AcDbLine
 10
106.947678
 20
103.423473
 30
0.0
 11
108.967675
 21
103.423473
 31
0.0
  0
LINE
  5
23E
100
AcDbEntity
  8
0
  6
Continuous
 62
   174
100
AcDbLine
 10
108.957677
 20
101.236766
 30
0.0
 11
108.967675
 21
101.235991
 31
0.0
  0
LINE
  5
23F
100
AcDbEntity
  8
0
  6
HIDDEN
 62
   174
100
AcDbLine
 10
106.947678
 20
107.841309
 30
0.0
 11
108.967675
 21
107.841309
 31
0.0
  0
LINE
  5
240
100
AcDbEntity
  8
0
  6
Continuous
 62
   174
100
AcDbLine
 10
190.957677
 20
107.519415
 30
0.0
 11
192.957677
 21
107.519415
 31
0.0
  0
LINE
  5
241
100
AcDbEntity
  8
0
  6
HIDDEN
 62
   174
100
AcDbLine
 10
106.947678
 20
104.439913
 30
0.0
 11
108.967675
 21
104.439913
 31
0.0
  0
LINE
  5
242
100
AcDbEntity
  8
0
  6
Continuous
 62
   174
100
AcDbLine
 10
194.457677
 20
94.073355
 30
0.0
 11
194.957677
 21
94.573355
 31
0.0
  0
LINE
  5
243
100
AcDbEntity
  8
0
  6
Continuous
 62
   174
100
AcDbLine
 10
194.457677
 20
107.285492
 30
0.0
 11
194.457677
 21
94.086307
 31
0.0
  0
LINE
  5
244
100
AcDbEntity
  8
0
  6
Continuous
 62
   174
100
AcDbLine
 10
188.957677
 20
94.858281
 30
0.0
 11
188.957677
 21
93.840099
 31
0.0
  0
LWPOLYLINE
  5
245
100
AcDbEntity
  8
0
  6
Continuous
 62
   174
100
AcDbPolyline
 90
        2
 70
   129
 10
192.967675
 20
107.863355
 10
192.967677
 20
107.863355
  0
LINE
  5
246
100
AcDbEntity
  8
0
  6
Continuous
 62
   174
100
AcDbLine
 10
106.957677
 20
96.901566
 30
0.0
 11
108.957677
 21
96.901566
 31
0.0
  0
LINE
  5
247
100
AcDbEntity
  8
0
  6
HIDDEN
 62
   174
100
AcDbLine
 10
110.957677
 20
97.941291
 30
0.0
 11
110.957677
 21
100.122532
 31
0.0
  0
LINE
  5
248
100
AcDbEntity
  8
0
  6
Continuous
 62
   174
100
AcDbLine
 10
186.957677
 20
93.824205
 30
0.0
 11
188.957677
 21
93.824205
 31
0.0
  0
LINE
  5
249
100
AcDbEntity
  8
0
  6
HIDDEN
 62
   174
100
AcDbLine
 10
192.96041
 20
94.853584
 30
0.0
 11
190.954944
 21
94.853584
 31
0.0
  0
LINE
  5
24A
100
AcDbEntity
  8
0
  6
Continuous
 62
   174
100
AcDbLine
 10
188.957677
 20
107.522505
 30
0.0
 11
188.967675
 21
107.512997
 31
0.0
  0
LINE
  5
24B
100
AcDbEntity
  8
0
  6
Continuous
 62
   174
100
AcDbLine
 10
192.967675
 20
107.509906
 30
0.0
 11
192.957677
 21
107.519415
 31
0.0
  0
LINE
  5
24C
100
AcDbEntity
  8
0
  6
Continuous
 62
   174
100
AcDbLine
 10
181.957677
 20
95.228056
 30
0.0
 11
183.957677
 21
94.073355
 31
0.0
  0
LINE
  5
24D
100
AcDbEntity
  8
0
  6
HIDDEN
 62
   174
100
AcDbLine
 10
106.957677
 20
102.365341
 30
0.0
 11
108.957677
 21
102.365341
 31
0.0
  0
LINE
  5
24E
100
AcDbEntity
  8
0
  6
Continuous
 62
   174
100
AcDbLine
 10
108.957677
 20
103.430507
 30
0.0
 11
108.957677
 21
101.249266
 31
0.0
  0
LINE
  5
24F
100
AcDbEntity
  8
0
  6
HIDDEN
 62
   174
100
AcDbLine
 10
110.947678
 20
93.505401
 30
0.0
 11
112.967675
 21
93.505401
 31
0.0
  0
LINE
  5
250
100
AcDbEntity
  8
0
  6
HIDDEN
 62
   174
100
AcDbLine
 10
108.957677
 20
93.672642
 30
0.0
 11
108.967675
 21
93.682362
 31
0.0
  0
LINE
  5
251
100
AcDbEntity
  8
0
  6
Continuous
 62
   174
100
AcDbLine
 10
106.947678
 20
107.664349
 30
0.0
 11
106.957677
 21
107.674068
 31
0.0
  0
LINE
  5
252
100
AcDbEntity
  8
0
  6
Continuous
 62
   174
100
AcDbLine
 10
112.967675
 20
94.026271
 30
0.0
 11
112.957677
 21
94.01703
 31
0.0
  0
LINE
  5
253
100
AcDbEntity
  8
0
  6
HIDDEN
 62
   174
100
AcDbLine
 10
152.725747
 20
89.683355
 30
0.0
 11
171.975816
 21
89.683355
 31
0.0
  0
LINE
  5
254
100
AcDbEntity
  8
0
  6
Continuous
 62
   174
100
AcDbLine
 10
108.967675
 20
106.797828
 30
0.0
 11
108.957677
 21
106.806348
 31
0.0
  0
LINE
  5
255
100
AcDbEntity
  8
0
  6
Continuous
 62
   174
100
AcDbLine
 10
190.947678
 20
94.859462
 30
0.0
 11
190.957677
 21
94.851373
 31
0.0
  0
LINE
  5
256
100
AcDbEntity
  8
0
  6
Continuous
 62
   174
100
AcDbLine
 10
104.957677
 20
106.785429
 30
0.0
 11
104.957677
 21
94.586157
 31
0.0
  0
LINE
  5
257
100
AcDbEntity
  8
0
  6
Continuous
 62
   174
100
AcDbLine
 10
110.957677
 20
96.922897
 30
0.0
 11
110.957677
 21
98.993887
 31
0.0
  0
LINE
  5
258
100
AcDbEntity
  8
0
  6
Continuous
 62
   174
100
AcDbLine
 10
106.957677
 20
93.494657
 30
0.0
 11
106.947678
 21
93.504625
 31
0.0
  0
LINE
  5
259
100
AcDbEntity
  8
0
  6
Continuous
 62
   174
100
AcDbLine
 10
190.957677
 20
107.534673
 30
0.0
 11
190.957677
 21
107.885397
 31
0.0
  0
LINE
  5
25A
100
AcDbEntity
  8
0
  6
HIDDEN
 62
   174
100
AcDbLine
 10
106.957677
 20
97.928662
 30
0.0
 11
106.947678
 21
97.93248
 31
0.0
  0
LINE
  5
25B
100
AcDbEntity
  8
0
  6
HIDDEN
 62
   174
100
AcDbLine
 10
110.947678
 20
96.004956
 30
0.0
 11
110.957677
 21
95.998469
 31
0.0
  0
LINE
  5
25C
100
AcDbEntity
  8
0
  6
HIDDEN
 62
   174
100
AcDbLine
 10
110.957677
 20
100.132517
 30
0.0
 11
110.957677
 21
102.36814
 31
0.0
  0
LWPOLYLINE
  5
25D
100
AcDbEntity
  8
0
  6
Continuous
 62
   174
100
AcDbPolyline
 90
        2
 70
   129
 10
186.947678
 20
107.863355
 10
186.947677
 20
107.863355
  0
LINE
  5
25E
100
AcDbEntity
  8
0
  6
HIDDEN
 62
   174
100
AcDbLine
 10
188.964426
 20
93.833714
 30
0.0
 11
186.950928
 21
93.833714
 31
0.0
  0
LINE
  5
25F
100
AcDbEntity
  8
0
  6
HIDDEN
 62
   174
100
AcDbLine
 10
110.957677
 20
94.55323
 30
0.0
 11
110.957677
 21
96.011144
 31
0.0
  0
LINE
  5
260
100
AcDbEntity
  8
0
  6
Continuous
 62
   174
100
AcDbLine
 10
106.947678
 20
96.915319
 30
0.0
 11
106.957677
 21
96.910087
 31
0.0
  0
LINE
  5
261
100
AcDbEntity
  8
0
  6
Continuous
 62
   174
100
AcDbLine
 10
106.957677
 20
95.190971
 30
0.0
 11
106.947678
 21
95.19858
 31
0.0
  0
LINE
  5
262
100
AcDbEntity
  8
0
  6
HIDDEN
 62
   174
100
AcDbLine
 10
110.947678
 20
103.414231
 30
0.0
 11
112.967675
 21
103.414231
 31
0.0
  0
LINE
  5
263
100
AcDbEntity
  8
0
  6
HIDDEN
 62
   174
100
AcDbLine
 10
108.967675
 20
106.148131
 30
0.0
 11
108.957677
 21
106.155739
 31
0.0
  0
LINE
  5
264
100
AcDbEntity
  8
0
  6
HIDDEN
 62
   174
100
AcDbLine
 10
108.957677
 20
96.011144
 30
0.0
 11
108.957677
 21
94.55323
 31
0.0
  0
LINE
  5
265
100
AcDbEntity
  8
0
  6
HIDDEN
 62
   174
100
AcDbLine
 10
106.948456
 20
93.504625
 30
0.0
 11
108.966897
 21
93.504625
 31
0.0
  0
LINE
  5
266
100
AcDbEntity
  8
0
  6
Continuous
 62
   174
100
AcDbLine
 10
192.957677
 20
107.522505
 30
0.0
 11
190.957677
 21
107.522505
 31
0.0
  0
LINE
  5
267
100
AcDbEntity
  8
0
  6
HIDDEN
 62
   174
100
AcDbLine
 10
110.957677
 20
107.341786
 30
0.0
 11
110.957677
 21
107.863304
 31
0.0
  0
LINE
  5
268
100
AcDbEntity
  8
0
  6
Continuous
 62
   174
100
AcDbLine
 10
190.957677
 20
102.893522
 30
0.0
 11
190.947678
 21
102.890432
 31
0.0
  0
LINE
  5
269
100
AcDbEntity
  8
0
  6
Continuous
 62
   174
100
AcDbLine
 10
108.967675
 20
107.662005
 30
0.0
 11
108.957677
 21
107.671725
 31
0.0
  0
LINE
  5
26A
100
AcDbEntity
  8
0
  6
HIDDEN
 62
   174
100
AcDbLine
 10
112.957677
 20
107.863304
 30
0.0
 11
112.957677
 21
107.341786
 31
0.0
  0
LWPOLYLINE
  5
26B
100
AcDbEntity
  8
0
  6
HIDDEN
 62
   174
100
AcDbPolyline
 90
        2
 70
   129
 10
110.947678
 20
97.93248
 10
110.947677
 20
97.927859
  0
LINE
  5
26C
100
AcDbEntity
  8
0
  6
Continuous
 62
   174
100
AcDbLine
 10
193.457677
 20
93.986252
 30
0.0
 11
193.457677
 21
107.385547
 31
0.0
  0
LINE
  5
26D
100
AcDbEntity
  8
0
  6
Continuous
 62
   174
100
AcDbLine
 10
110.957677
 20
95.190971
 30
0.0
 11
112.957677
 21
95.190971
 31
0.0
  0
LINE
  5
26E
100
AcDbEntity
  8
0
  6
Continuous
 62
   174
100
AcDbLine
 10
110.957677
 20
94.01703
 30
0.0
 11
112.957677
 21
94.01703
 31
0.0
  0
LINE
  5
26F
100
AcDbEntity
  8
0
  6
Continuous
 62
   174
100
AcDbLine
 10
190.957677
 20
104.921772
 30
0.0
 11
190.957677
 21
106.50757
 31
0.0
  0
LINE
  5
270
100
AcDbEntity
  8
0
  6
Continuous
 62
   174
100
AcDbLine
 10
110.947678
 20
105.341754
 30
0.0
 11
110.957677
 21
105.348241
 31
0.0
  0
LINE
  5
271
100
AcDbEntity
  8
0
  6
HIDDEN
 62
   174
100
AcDbLine
 10
112.957677
 20
96.011144
 30
0.0
 11
112.957677
 21
94.55323
 31
0.0
  0
LINE
  5
272
100
AcDbEntity
  8
0
  6
Continuous
 62
   174
100
AcDbLine
 10
110.957677
 20
95.210279
 30
0.0
 11
110.957677
 21
96.914188
 31
0.0
  0
LINE
  5
273
100
AcDbEntity
  8
0
  6
HIDDEN
 62
   174
100
AcDbLine
 10
106.957677
 20
94.540362
 30
0.0
 11
108.957677
 21
94.540362
 31
0.0
  0
LINE
  5
274
100
AcDbEntity
  8
0
  6
HIDDEN
 62
   174
100
AcDbLine
 10
152.057677
 20
111.653355
 30
0.0
 11
152.057677
 21
111.673355
 31
0.0
  0
LINE
  5
275
100
AcDbEntity
  8
0
  6
Continuous
 62
   174
100
AcDbLine
 10
194.957677
 20
106.773355
 30
0.0
 11
194.457677
 21
107.273355
 31
0.0
  0
LINE
  5
276
100
AcDbEntity
  8
0
  6
Continuous
 62
   174
100
AcDbLine
 10
192.957677
 20
96.445347
 30
0.0
 11
192.967675
 21
96.451224
 31
0.0
  0
LINE
  5
277
100
AcDbEntity
  8
0
  6
Continuous
 62
   174
100
AcDbLine
 10
112.957677
 20
105.348241
 30
0.0
 11
112.967675
 21
105.341754
 31
0.0
  0
LINE
  5
278
100
AcDbEntity
  8
0
  6
HIDDEN
 62
   174
100
AcDbLine
 10
110.947678
 20
107.841309
 30
0.0
 11
110.957677
 21
107.851277
 31
0.0
  0
LINE
  5
279
100
AcDbEntity
  8
0
  6
Continuous
 62
   174
100
AcDbLine
 10
188.957677
 20
94.851373
 30
0.0
 11
188.967675
 21
94.859462
 31
0.0
  0
LINE
  5
27A
100
AcDbEntity
  8
0
  6
HIDDEN
 62
   174
100
AcDbLine
 10
110.953819
 20
106.803061
 30
0.0
 11
112.961535
 21
106.803061
 31
0.0
  0
LINE
  5
27B
100
AcDbEntity
  8
0
  6
HIDDEN
 62
   174
100
AcDbLine
 10
112.967675
 20
102.362998
 30
0.0
 11
112.957677
 21
102.365341
 31
0.0
  0
LINE
  5
27C
100
AcDbEntity
  8
0
  6
HIDDEN
 62
   174
100
AcDbLine
 10
108.967675
 20
100.12069
 30
0.0
 11
108.957677
 21
100.119914
 31
0.0
  0
LINE
  5
27D
100
AcDbEntity
  8
0
  6
Continuous
 62
   174
100
AcDbLine
 10
190.947678
 20
102.899943
 30
0.0
 11
190.957677
 21
102.903032
 31
0.0
  0
LINE
  5
27E
100
AcDbEntity
  8
0
  6
Continuous
 62
   174
100
AcDbLine
 10
108.957677
 20
96.910087
 30
0.0
 11
106.957677
 21
96.910087
 31
0.0
  0
LINE
  5
27F
100
AcDbEntity
  8
0
  6
Continuous
 62
   174
100
AcDbLine
 10
192.957677
 20
102.906015
 30
0.0
 11
192.957677
 21
100.690785
 31
0.0
  0
LINE
  5
280
100
AcDbEntity
  8
0
  6
HIDDEN
 62
   174
100
AcDbLine
 10
110.957677
 20
93.674985
 30
0.0
 11
110.947678
 21
93.684705
 31
0.0
  0
LINE
  5
281
100
AcDbEntity
  8
0
  6
Continuous
 62
   174
100
AcDbLine
 10
112.957677
 20
107.885397
 30
0.0
 11
112.957677
 21
107.686136
 31
0.0
  0
LWPOLYLINE
  5
282
100
AcDbEntity
  8
0
  6
Continuous
 62
   174
100
AcDbPolyline
 90
        2
 70
   129
 10
190.947678
 20
100.668355
 10
190.947677
 20
100.673355
  0
LINE
  5
283
100
AcDbEntity
  8
0
  6
Continuous
 62
   174
100
AcDbLine
 10
110.947678
 20
93.505401
 30
0.0
 11
110.957677
 21
93.495433
 31
0.0
  0
LINE
  5
284
100
AcDbEntity
  8
0
  6
HIDDEN
 62
   174
100
AcDbLine
 10
106.947678
 20
93.505401
 30
0.0
 11
108.967675
 21
93.505401
 31
0.0
  0
LINE
  5
285
100
AcDbEntity
  8
0
  6
HIDDEN
 62
   174
100
AcDbLine
 10
106.947678
 20
97.923237
 30
0.0
 11
106.957677
 21
97.91942
 31
0.0
  0
LINE
  5
286
100
AcDbEntity
  8
0
  6
HIDDEN
 62
   174
100
AcDbLine
 10
110.947678
 20
107.316621
 30
0.0
 11
112.967675
 21
107.316621
 31
0.0
  0
LINE
  5
287
100
AcDbEntity
  8
0
  6
HIDDEN
 62
   174
100
AcDbLine
 10
108.967675
 20
97.93248
 30
0.0
 11
108.957677
 21
97.928662
 31
0.0
  0
LINE
  5
288
100
AcDbEntity
  8
0
  6
Continuous
 62
   174
100
AcDbLine
 10
188.957677
 20
94.851373
 30
0.0
 11
186.957677
 21
94.851373
 31
0.0
  0
LINE
  5
289
100
AcDbEntity
  8
0
  6
Continuous
 62
   174
100
AcDbLine
 10
106.957677
 20
105.340631
 30
0.0
 11
106.947678
 21
105.334145
 31
0.0
  0
LINE
  5
28A
100
AcDbEntity
  8
0
  6
Continuous
 62
   174
100
AcDbLine
 10
113.457677
 20
103.244205
 30
0.0
 11
113.457677
 21
107.385547
 31
0.0
  0
LINE
  5
28B
100
AcDbEntity
  8
0
  6
Continuous
 62
   174
100
AcDbLine
 10
108.957677
 20
95.197459
 30
0.0
 11
108.967675
 21
95.205067
 31
0.0
  0
LINE
  5
28C
100
AcDbEntity
  8
0
  6
Continuous
 62
   174
100
AcDbLine
 10
108.957677
 20
95.203694
 30
0.0
 11
108.957677
 21
94.033836
 31
0.0
  0
LINE
  5
28D
100
AcDbEntity
  8
0
  6
HIDDEN
 62
   174
100
AcDbLine
 10
190.957677
 20
100.690785
 30
0.0
 11
190.957677
 21
102.906015
 31
0.0
  0
LINE
  5
28E
100
AcDbEntity
  8
0
  6
Continuous
 62
   174
100
AcDbLine
 10
186.957677
 20
93.824205
 30
0.0
 11
186.947678
 21
93.833714
 31
0.0
  0
LINE
  5
28F
100
AcDbEntity
  8
0
  6
HIDDEN
 62
   174
100
AcDbLine
 10
186.957677
 20
93.486189
 30
0.0
 11
186.957677
 21
93.837125
 31
0.0
  0
LINE
  5
290
100
AcDbEntity
  8
0
  6
Continuous
 62
   174
100
AcDbLine
 10
110.957677
 20
103.418048
 30
0.0
 11
112.957677
 21
103.418048
 31
0.0
  0
LINE
  5
291
100
AcDbEntity
  8
0
  6
HIDDEN
 62
   174
100
AcDbLine
 10
188.967675
 20
93.836804
 30
0.0
 11
186.947678
 21
93.836804
 31
0.0
  0
LINE
  5
292
100
AcDbEntity
  8
0
  6
HIDDEN
 62
   174
100
AcDbLine
 10
112.957677
 20
100.109944
 30
0.0
 11
112.967675
 21
100.11072
 31
0.0
  0
LINE
  5
293
100
AcDbEntity
  8
0
  6
HIDDEN
 62
   174
100
AcDbLine
 10
112.967675
 20
106.148131
 30
0.0
 11
112.957677
 21
106.155739
 31
0.0
  0
LINE
  5
294
100
AcDbEntity
  8
0
  6
Continuous
 62
   174
100
AcDbLine
 10
108.957677
 20
96.910087
 30
0.0
 11
108.967675
 21
96.915319
 31
0.0
  0
LINE
  5
295
100
AcDbEntity
  8
0
  6
Continuous
 62
   174
100
AcDbLine
 10
106.957677
 20
106.823667
 30
0.0
 11
106.957677
 21
107.6838
 31
0.0
  0
LINE
  5
296
100
AcDbEntity
  8
0
  6
HIDDEN
 62
   174
100
AcDbLine
 10
190.957677
 20
93.486189
 30
0.0
 11
190.957677
 21
93.837125
 31
0.0
  0
LINE
  5
297
100
AcDbEntity
  8
0
  6
Continuous
 62
   174
100
AcDbLine
 10
110.947678
 20
106.803061
 30
0.0
 11
110.957677
 21
106.811581
 31
0.0
  0
LINE
  5
298
100
AcDbEntity
  8
0
  6
Continuous
 62
   174
100
AcDbLine
 10
190.957677
 20
102.893522
 30
0.0
 11
192.957677
 21
102.893522
 31
0.0
  0
LINE
  5
299
100
AcDbEntity
  8
0
  6
HIDDEN
 62
   174
100
AcDbLine
 10
110.957677
 20
102.365341
 30
0.0
 11
110.947678
 21
102.362998
 31
0.0
  0
LINE
  5
29A
100
AcDbEntity
  8
0
  6
Continuous
 62
   174
100
AcDbLine
 10
106.957677
 20
94.033836
 30
0.0
 11
106.957677
 21
95.203694
 31
0.0
  0
LINE
  5
29B
100
AcDbEntity
  8
0
  6
HIDDEN
 62
   174
100
AcDbLine
 10
108.957677
 20
106.149252
 30
0.0
 11
106.957677
 21
106.149252
 31
0.0
  0
LINE
  5
29C
100
AcDbEntity
  8
0
  6
Continuous
 62
   174
100
AcDbLine
 10
108.957677
 20
94.030013
 30
0.0
 11
108.957677
 21
93.508282
 31
0.0
  0
LINE
  5
29D
100
AcDbEntity
  8
0
  6
Continuous
 62
   174
100
AcDbLine
 10
190.957677
 20
100.690785
 30
0.0
 11
190.957677
 21
102.906015
 31
0.0
  0
LINE
  5
29E
100
AcDbEntity
  8
0
  6
HIDDEN
 62
   174
100
AcDbLine
 10
106.957677
 20
106.155739
 30
0.0
 11
106.947678
 21
106.148131
 31
0.0
  0
LINE
  5
29F
100
AcDbEntity
  8
0
  6
Continuous
 62
   174
100
AcDbLine
 10
108.957677
 20
105.348241
 30
0.0
 11
106.957677
 21
105.348241
 31
0.0
  0
LINE
  5
2A0
100
AcDbEntity
  8
0
  6
HIDDEN
 62
   174
100
AcDbLine
 10
154.475754
 20
89.688355
 30
0.0
 11
169.475716
 21
89.688355
 31
0.0
  0
LINE
  5
2A1
100
AcDbEntity
  8
0
  6
HIDDEN
 62
   174
100
AcDbLine
 10
188.958865
 20
107.863355
 30
0.0
 11
186.956488
 21
107.863355
 31
0.0
  0
LINE
  5
2A2
100
AcDbEntity
  8
0
  6
HIDDEN
 62
   174
100
AcDbLine
 10
188.967675
 20
96.451224
 30
0.0
 11
186.947678
 21
96.451224
 31
0.0
  0
LINE
  5
2A3
100
AcDbEntity
  8
0
  6
Continuous
 62
   174
100
AcDbLine
 10
112.957677
 20
103.427291
 30
0.0
 11
110.957677
 21
103.427291
 31
0.0
  0
LINE
  5
2A4
100
AcDbEntity
  8
0
  6
Continuous
 62
   174
100
AcDbLine
 10
186.957677
 20
102.893522
 30
0.0
 11
186.947678
 21
102.890432
 31
0.0
  0
LINE
  5
2A5
100
AcDbEntity
  8
0
  6
Continuous
 62
   174
100
AcDbLine
 10
106.957677
 20
107.671725
 30
0.0
 11
108.957677
 21
107.671725
 31
0.0
  0
LINE
  5
2A6
100
AcDbEntity
  8
0
  6
Continuous
 62
   174
100
AcDbLine
 10
192.967675
 20
94.853584
 30
0.0
 11
192.957677
 21
94.845495
 31
0.0
  0
LINE
  5
2A7
100
AcDbEntity
  8
0
  6
Continuous
 62
   174
100
AcDbLine
 10
109.457677
 20
103.244205
 30
0.0
 11
109.457677
 21
107.385547
 31
0.0
  0
LINE
  5
2A8
100
AcDbEntity
  8
0
  6
Continuous
 62
   174
100
AcDbLine
 10
188.957677
 20
96.445347
 30
0.0
 11
186.957677
 21
96.445347
 31
0.0
  0
LINE
  5
2A9
100
AcDbEntity
  8
0
  6
HIDDEN
 62
   174
100
AcDbLine
 10
112.957677
 20
93.672642
 30
0.0
 11
112.967675
 21
93.682362
 31
0.0
  0
LWPOLYLINE
  5
2AA
100
AcDbEntity
  8
0
  6
Continuous
 62
   174
100
AcDbPolyline
 90
        2
 70
   129
 10
188.967675
 20
100.678355
 10
188.967677
 20
100.673355
  0
LINE
  5
2AB
100
AcDbEntity
  8
0
  6
HIDDEN
 62
   174
100
AcDbLine
 10
112.957677
 20
106.149252
 30
0.0
 11
112.967675
 21
106.141643
 31
0.0
  0
LINE
  5
2AC
100
AcDbEntity
  8
0
  6
Continuous
 62
   174
100
AcDbLine
 10
188.957677
 20
106.501215
 30
0.0
 11
188.967675
 21
106.493126
 31
0.0
  0
LINE
  5
2AD
100
AcDbEntity
  8
0
  6
Continuous
 62
   174
100
AcDbLine
 10
106.957677
 20
103.418048
 30
0.0
 11
108.957677
 21
103.418048
 31
0.0
  0
LINE
  5
2AE
100
AcDbEntity
  8
0
  6
Continuous
 62
   174
100
AcDbLine
 10
190.947678
 20
93.483355
 30
0.0
 11
190.957677
 21
93.473357
 31
0.0
  0
LINE
  5
2AF
100
AcDbEntity
  8
0
  6
Continuous
 62
   174
100
AcDbLine
 10
112.967675
 20
106.797828
 30
0.0
 11
112.957677
 21
106.806348
 31
0.0
  0
LINE
  5
2B0
100
AcDbEntity
  8
0
  6
Continuous
 62
   174
100
AcDbLine
 10
190.957677
 20
94.845495
 30
0.0
 11
192.957677
 21
94.845495
 31
0.0
  0
LINE
  5
2B1
100
AcDbEntity
  8
0
  6
HIDDEN
 62
   174
100
AcDbLine
 10
147.857677
 20
111.673355
 30
0.0
 11
147.857677
 21
111.653355
 31
0.0
  0
LINE
  5
2B2
100
AcDbEntity
  8
0
  6
HIDDEN
 62
   174
100
AcDbLine
 10
112.957677
 20
102.35562
 30
0.0
 11
110.957677
 21
102.35562
 31
0.0
  0
LINE
  5
2B3
100
AcDbEntity
  8
0
  6
HIDDEN
 62
   174
100
AcDbLine
 10
110.947678
 20
93.682362
 30
0.0
 11
112.967675
 21
93.682362
 31
0.0
  0
LINE
  5
2B4
100
AcDbEntity
  8
0
  6
Continuous
 62
   174
100
AcDbLine
 10
110.957677
 20
95.190971
 30
0.0
 11
110.947678
 21
95.19858
 31
0.0
  0
LINE
  5
2B5
100
AcDbEntity
  8
0
  6
Continuous
 62
   174
100
AcDbLine
 10
108.967675
 20
95.19858
 30
0.0
 11
108.957677
 21
95.190971
 31
0.0
  0
LINE
  5
2B6
100
AcDbEntity
  8
0
  6
Continuous
 62
   174
100
AcDbLine
 10
186.957677
 20
94.864229
 30
0.0
 11
186.957677
 21
96.450026
 31
0.0
  0
LINE
  5
2B7
100
AcDbEntity
  8
0
  6
HIDDEN
 62
   174
100
AcDbLine
 10
112.957677
 20
97.932157
 30
0.0
 11
112.957677
 21
96.018791
 31
0.0
  0
LINE
  5
2B8
100
AcDbEntity
  8
0
  6
HIDDEN
 62
   174
100
AcDbLine
 10
108.967675
 20
107.842085
 30
0.0
 11
108.957677
 21
107.852053
 31
0.0
  0
LINE
  5
2B9
100
AcDbEntity
  8
0
  6
Continuous
 62
   174
100
AcDbLine
 10
192.957677
 20
94.851373
 30
0.0
 11
192.967675
 21
94.859462
 31
0.0
  0
LINE
  5
2BA
100
AcDbEntity
  8
0
  6
HIDDEN
 62
   174
100
AcDbLine
 10
110.947678
 20
100.12069
 30
0.0
 11
112.967675
 21
100.12069
 31
0.0
  0
LINE
  5
2BB
100
AcDbEntity
  8
0
  6
Continuous
 62
   174
100
AcDbLine
 10
188.967675
 20
98.446768
 30
0.0
 11
188.957677
 21
98.443678
 31
0.0
  0
LINE
  5
2BC
100
AcDbEntity
  8
0
  6
HIDDEN
 62
   174
100
AcDbLine
 10
112.957677
 20
100.109944
 30
0.0
 11
110.957677
 21
100.109944
 31
0.0
  0
LINE
  5
2BD
100
AcDbEntity
  8
0
  6
HIDDEN
 62
   174
100
AcDbLine
 10
112.967675
 20
93.684705
 30
0.0
 11
112.957677
 21
93.674985
 31
0.0
  0
LINE
  5
2BE
100
AcDbEntity
  8
0
  6
Continuous
 62
   174
100
AcDbLine
 10
190.957677
 20
94.864229
 30
0.0
 11
190.957677
 21
96.450026
 31
0.0
  0
LINE
  5
2BF
100
AcDbEntity
  8
0
  6
HIDDEN
 62
   174
100
AcDbLine
 10
192.967675
 20
107.509906
 30
0.0
 11
190.947678
 21
107.509906
 31
0.0
  0
LINE
  5
2C0
100
AcDbEntity
  8
0
  6
Continuous
 62
   174
100
AcDbLine
 10
106.947678
 20
93.505401
 30
0.0
 11
106.957677
 21
93.495433
 31
0.0
  0
LINE
  5
2C1
100
AcDbEntity
  8
0
  6
Continuous
 62
   174
100
AcDbLine
 10
112.957677
 20
106.818568
 30
0.0
 11
112.957677
 21
105.360442
 31
0.0
  0
LINE
  5
2C2
100
AcDbEntity
  8
0
  6
Continuous
 62
   174
100
AcDbLine
 10
188.957677
 20
102.903032
 30
0.0
 11
188.967675
 21
102.899943
 31
0.0
  0
LINE
  5
2C3
100
AcDbEntity
  8
0
  6
Continuous
 62
   174
100
AcDbLine
 10
108.957677
 20
96.914188
 30
0.0
 11
108.957677
 21
95.210279
 31
0.0
  0
LINE
  5
2C4
100
AcDbEntity
  8
0
  6
Continuous
 62
   174
100
AcDbLine
 10
192.967675
 20
98.446768
 30
0.0
 11
192.957677
 21
98.443678
 31
0.0
  0
LINE
  5
2C5
100
AcDbEntity
  8
0
  6
HIDDEN
 62
   174
100
AcDbLine
 10
110.95181
 20
94.026271
 30
0.0
 11
112.963543
 21
94.026271
 31
0.0
  0
LINE
  5
2C6
100
AcDbEntity
  8
0
  6
HIDDEN
 62
   174
100
AcDbLine
 10
110.947678
 20
96.012566
 30
0.0
 11
112.967675
 21
96.012566
 31
0.0
  0
LINE
  5
2C7
100
AcDbEntity
  8
0
  6
Continuous
 62
   174
100
AcDbLine
 10
110.947678
 20
96.915319
 30
0.0
 11
110.957677
 21
96.910087
 31
0.0
  0
LINE
  5
2C8
100
AcDbEntity
  8
0
  6
Continuous
 62
   174
100
AcDbLine
 10
186.957677
 20
106.495337
 30
0.0
 11
186.947678
 21
106.487248
 31
0.0
  0
LINE
  5
2C9
100
AcDbEntity
  8
0
  6
HIDDEN
 62
   174
100
AcDbLine
 10
164.475728
 20
89.693355
 30
0.0
 11
169.475716
 21
89.693355
 31
0.0
  0
LWPOLYLINE
  5
2CA
100
AcDbEntity
  8
0
  6
Continuous
 62
   174
100
AcDbPolyline
 90
        2
 70
   129
 10
188.967675
 20
93.483355
 10
188.967677
 20
93.483355
  0
LINE
  5
2CB
100
AcDbEntity
  8
0
  6
HIDDEN
 62
   174
100
AcDbLine
 10
190.957677
 20
98.465783
 30
0.0
 11
190.957677
 21
100.680801
 31
0.0
  0
LINE
  5
2CC
100
AcDbEntity
  8
0
  6
HIDDEN
 62
   174
100
AcDbLine
 10
152.075709
 20
111.653355
 30
0.0
 11
147.875736
 21
111.653355
 31
0.0
  0
LINE
  5
2CD
100
AcDbEntity
  8
0
  6
HIDDEN
 62
   174
100
AcDbLine
 10
186.957677
 20
98.465783
 30
0.0
 11
186.957677
 21
100.680801
 31
0.0
  0
LINE
  5
2CE
100
AcDbEntity
  8
0
  6
HIDDEN
 62
   174
100
AcDbLine
 10
110.947678
 20
98.993434
 30
0.0
 11
112.967675
 21
98.993434
 31
0.0
  0
LINE
  5
2CF
100
AcDbEntity
  8
0
  6
Continuous
 62
   174
100
AcDbLine
 10
112.957677
 20
101.239282
 30
0.0
 11
112.957677
 21
99.003659
 31
0.0
  0
LINE
  5
2D0
100
AcDbEntity
  8
0
  6
Continuous
 62
   174
100
AcDbLine
 10
190.957677
 20
104.901363
 30
0.0
 11
192.957677
 21
104.901363
 31
0.0
  0
LINE
  5
2D1
100
AcDbEntity
  8
0
  6
Continuous
 62
   174
100
AcDbLine
 10
186.947678
 20
106.493126
 30
0.0
 11
186.957677
 21
106.501215
 31
0.0
  0
LINE
  5
2D2
100
AcDbEntity
  8
0
  6
HIDDEN
 62
   174
100
AcDbLine
 10
108.957677
 20
94.535129
 30
0.0
 11
106.957677
 21
94.535129
 31
0.0
  0
LINE
  5
2D3
100
AcDbEntity
  8
0
  6
HIDDEN
 62
   174
100
AcDbLine
 10
106.947678
 20
97.923237
 30
0.0
 11
108.967675
 21
97.923237
 31
0.0
  0
LINE
  5
2D4
100
AcDbEntity
  8
0
  6
HIDDEN
 62
   174
100
AcDbLine
 10
112.957677
 20
95.998469
 30
0.0
 11
110.957677
 21
95.998469
 31
0.0
  0
LINE
  5
2D5
100
AcDbEntity
  8
0
  6
Continuous
 62
   174
100
AcDbLine
 10
106.947678
 20
106.803061
 30
0.0
 11
106.957677
 21
106.811581
 31
0.0
  0
LINE
  5
2D6
100
AcDbEntity
  8
0
  6
HIDDEN
 62
   174
100
AcDbLine
 10
188.957677
 20
94.858281
 30
0.0
 11
188.957677
 21
93.840099
 31
0.0
  0
LINE
  5
2D7
100
AcDbEntity
  8
0
  6
Continuous
 62
   174
100
AcDbLine
 10
108.957677
 20
101.239282
 30
0.0
 11
108.957677
 21
99.003659
 31
0.0
  0
LINE
  5
2D8
100
AcDbEntity
  8
0
  6
Continuous
 62
   174
100
AcDbLine
 10
189.457677
 20
93.986252
 30
0.0
 11
189.457677
 21
107.385547
 31
0.0
  0
LINE
  5
2D9
100
AcDbEntity
  8
0
  6
Continuous
 62
   174
100
AcDbLine
 10
112.957677
 20
95.203694
 30
0.0
 11
112.957677
 21
94.033836
 31
0.0
  0
LINE
  5
2DA
100
AcDbEntity
  8
0
  6
HIDDEN
 62
   174
100
AcDbLine
 10
110.947678
 20
94.54365
 30
0.0
 11
112.967675
 21
94.54365
 31
0.0
  0
LINE
  5
2DB
100
AcDbEntity
  8
0
  6
HIDDEN
 62
   174
100
AcDbLine
 10
106.947678
 20
107.841309
 30
0.0
 11
106.957677
 21
107.851277
 31
0.0
  0
LINE
  5
2DC
100
AcDbEntity
  8
0
  6
HIDDEN
 62
   174
100
AcDbLine
 10
106.957677
 20
107.32968
 30
0.0
 11
108.957677
 21
107.32968
 31
0.0
  0
LINE
  5
2DD
100
AcDbEntity
  8
0
  6
HIDDEN
 62
   174
100
AcDbLine
 10
108.957677
 20
95.998469
 30
0.0
 11
106.957677
 21
95.998469
 31
0.0
  0
LINE
  5
2DE
100
AcDbEntity
  8
0
  6
HIDDEN
 62
   174
100
AcDbLine
 10
112.957677
 20
107.337962
 30
0.0
 11
112.957677
 21
106.167892
 31
0.0
  0
LINE
  5
2DF
100
AcDbEntity
  8
0
  6
HIDDEN
 62
   174
100
AcDbLine
 10
192.967675
 20
104.895486
 30
0.0
 11
190.947678
 21
104.895486
 31
0.0
  0
LINE
  5
2E0
100
AcDbEntity
  8
0
  6
Continuous
 62
   174
100
AcDbLine
 10
189.457677
 20
94.073355
 30
0.0
 11
190.457677
 21
94.073355
 31
0.0
  0
LINE
  5
2E1
100
AcDbEntity
  8
0
  6
Continuous
 62
   174
100
AcDbLine
 10
106.457677
 20
107.273355
 30
0.0
 11
105.457677
 21
107.273355
 31
0.0
  0
LINE
  5
2E2
100
AcDbEntity
  8
0
  6
Continuous
 62
   174
100
AcDbLine
 10
188.967675
 20
94.853584
 30
0.0
 11
188.957677
 21
94.845495
 31
0.0
  0
LINE
  5
2E3
100
AcDbEntity
  8
0
  6
Continuous
 62
   174
100
AcDbLine
 10
186.957677
 20
98.443678
 30
0.0
 11
186.947678
 21
98.446768
 31
0.0
  0
LINE
  5
2E4
100
AcDbEntity
  8
0
  6
HIDDEN
 62
   174
100
AcDbLine
 10
110.957677
 20
106.155739
 30
0.0
 11
110.947678
 21
106.148131
 31
0.0
  0
LINE
  5
2E5
100
AcDbEntity
  8
0
  6
HIDDEN
 62
   174
100
AcDbLine
 10
192.967675
 20
98.456278
 30
0.0
 11
190.947678
 21
98.456278
 31
0.0
  0
LINE
  5
2E6
100
AcDbEntity
  8
0
  6
Continuous
 62
   174
100
AcDbLine
 10
112.957677
 20
93.495433
 30
0.0
 11
110.957677
 21
93.495433
 31
0.0
  0
LINE
  5
2E7
100
AcDbEntity
  8
0
  6
HIDDEN
 62
   174
100
AcDbLine
 10
192.957677
 20
107.885397
 30
0.0
 11
192.957677
 21
107.534673
 31
0.0
  0
LINE
  5
2E8
100
AcDbEntity
  8
0
  6
Continuous
 62
   174
100
AcDbLine
 10
106.947678
 20
101.235991
 30
0.0
 11
108.967675
 21
101.235991
 31
0.0
  0
LINE
  5
2E9
100
AcDbEntity
  8
0
  6
HIDDEN
 62
   174
100
AcDbLine
 10
110.957677
 20
97.928662
 30
0.0
 11
112.957677
 21
97.928662
 31
0.0
  0
LINE
  5
2EA
100
AcDbEntity
  8
0
  6
Continuous
 62
   174
100
AcDbLine
 10
110.957677
 20
106.806348
 30
0.0
 11
110.947678
 21
106.797828
 31
0.0
  0
LWPOLYLINE
  5
2EB
100
AcDbEntity
  8
0
  6
Continuous
 62
   174
100
AcDbPolyline
 90
        2
 70
   129
 10
186.947678
 20
93.483355
 10
186.947677
 20
93.483355
  0
LINE
  5
2EC
100
AcDbEntity
  8
0
  6
HIDDEN
 62
   174
100
AcDbLine
 10
152.475716
 20
111.663355
 30
0.0
 11
147.475729
 21
111.663355
 31
0.0
  0
LWPOLYLINE
  5
2ED
100
AcDbEntity
  8
0
  6
Continuous
 62
   174
100
AcDbPolyline
 90
        2
 70
   129
 10
188.967675
 20
107.863355
 10
188.967677
 20
107.863355
  0
LINE
  5
2EE
100
AcDbEntity
  8
0
  6
Continuous
 62
   174
100
AcDbLine
 10
194.957677
 20
94.586157
 30
0.0
 11
194.957677
 21
106.785429
 31
0.0
  0
LINE
  5
2EF
100
AcDbEntity
  8
0
  6
Continuous
 62
   174
100
AcDbLine
 10
113.457677
 20
93.986252
 30
0.0
 11
113.457677
 21
103.244205
 31
0.0
  0
LINE
  5
2F0
100
AcDbEntity
  8
0
  6
Continuous
 62
   174
100
AcDbLine
 10
110.957677
 20
93.508282
 30
0.0
 11
110.957677
 21
94.030013
 31
0.0
  0
LINE
  5
2F1
100
AcDbEntity
  8
0
  6
HIDDEN
 62
   174
100
AcDbLine
 10
147.22591
 20
89.683355
 30
0.0
 11
152.725747
 21
89.683355
 31
0.0
  0
LINE
  5
2F2
100
AcDbEntity
  8
0
  6
Continuous
 62
   174
100
AcDbLine
 10
188.957677
 20
104.9137
 30
0.0
 11
188.957677
 21
102.915362
 31
0.0
  0
LINE
  5
2F3
100
AcDbEntity
  8
0
  6
Continuous
 62
   174
100
AcDbLine
 10
106.957677
 20
95.190971
 30
0.0
 11
108.957677
 21
95.190971
 31
0.0
  0
LINE
  5
2F4
100
AcDbEntity
  8
0
  6
HIDDEN
 62
   174
100
AcDbLine
 10
112.957677
 20
94.547919
 30
0.0
 11
112.957677
 21
93.687999
 31
0.0
  0
LINE
  5
2F5
100
AcDbEntity
  8
0
  6
HIDDEN
 62
   174
100
AcDbLine
 10
106.953819
 20
106.803061
 30
0.0
 11
108.961535
 21
106.803061
 31
0.0
  0
LWPOLYLINE
  5
2F6
100
AcDbEntity
  8
0
  6
Continuous
 62
   174
100
AcDbPolyline
 90
        2
 70
   129
 10
192.967675
 20
100.678355
 10
192.967677
 20
100.673355
  0
LINE
  5
2F7
100
AcDbEntity
  8
0
  6
HIDDEN
 62
   174
100
AcDbLine
 10
110.957677
 20
107.852053
 30
0.0
 11
112.957677
 21
107.852053
 31
0.0
  0
LINE
  5
2F8
100
AcDbEntity
  8
0
  6
HIDDEN
 62
   174
100
AcDbLine
 10
192.96041
 20
106.493126
 30
0.0
 11
190.954944
 21
106.493126
 31
0.0
  0
LINE
  5
2F9
100
AcDbEntity
  8
0
  6
Continuous
 62
   174
100
AcDbLine
 10
115.957677
 20
107.273355
 30
0.0
 11
113.457677
 21
107.273355
 31
0.0
  0
LINE
  5
2FA
100
AcDbEntity
  8
0
  6
Continuous
 62
   174
100
AcDbLine
 10
186.957677
 20
100.668355
 30
0.0
 11
188.957677
 21
100.668355
 31
0.0
  0
LINE
  5
2FB
100
AcDbEntity
  8
0
  6
HIDDEN
 62
   174
100
AcDbLine
 10
190.957677
 20
107.534673
 30
0.0
 11
190.957677
 21
107.885397
 31
0.0
  0
LINE
  5
2FC
100
AcDbEntity
  8
0
  6
Continuous
 62
   174
100
AcDbLine
 10
112.967675
 20
98.983712
 30
0.0
 11
112.957677
 21
98.981369
 31
0.0
  0
LWPOLYLINE
  5
2FD
100
AcDbEntity
  8
0
  6
Continuous
 62
   174
100
AcDbPolyline
 90
        3
 70
   128
 10
106.947678
 20
103.414231
 10
106.947677
 20
103.418852
 10
106.947678
 20
103.423473
  0
LINE
  5
2FE
100
AcDbEntity
  8
0
  6
Continuous
 62
   174
100
AcDbLine
 10
106.957677
 20
99.003659
 30
0.0
 11
106.957677
 21
101.239282
 31
0.0
  0
LINE
  5
2FF
100
AcDbEntity
  8
0
  6
HIDDEN
 62
   174
100
AcDbLine
 10
106.957677
 20
104.445145
 30
0.0
 11
106.947678
 21
104.439913
 31
0.0
  0
LINE
  5
300
100
AcDbEntity
  8
0
  6
Continuous
 62
   174
100
AcDbLine
 10
106.957677
 20
95.210279
 30
0.0
 11
106.957677
 21
96.914188
 31
0.0
  0
LINE
  5
301
100
AcDbEntity
  8
0
  6
HIDDEN
 62
   174
100
AcDbLine
 10
106.947678
 20
93.684705
 30
0.0
 11
108.967675
 21
93.684705
 31
0.0
  0
LINE
  5
302
100
AcDbEntity
  8
0
  6
Continuous
 62
   174
100
AcDbLine
 10
188.957677
 20
93.473357
 30
0.0
 11
188.967675
 21
93.483355
 31
0.0
  0
LINE
  5
303
100
AcDbEntity
  8
0
  6
Continuous
 62
   174
100
AcDbLine
 10
106.947678
 20
98.993434
 30
0.0
 11
106.957677
 21
98.991091
 31
0.0
  0
LINE
  5
304
100
AcDbEntity
  8
0
  6
Continuous
 62
   174
100
AcDbLine
 10
106.947678
 20
94.03009
 30
0.0
 11
106.957677
 21
94.020849
 31
0.0
  0
LINE
  5
305
100
AcDbEntity
  8
0
  6
HIDDEN
 62
   174
100
AcDbLine
 10
108.957677
 20
100.109944
 30
0.0
 11
106.957677
 21
100.109944
 31
0.0
  0
LINE
  5
306
100
AcDbEntity
  8
0
  6
Continuous
 62
   174
100
AcDbLine
 10
109.457677
 20
93.986252
 30
0.0
 11
109.457677
 21
103.244205
 31
0.0
  0
LINE
  5
307
100
AcDbEntity
  8
0
  6
Continuous
 62
   174
100
AcDbLine
 10
108.957677
 20
93.507645
 30
0.0
 11
108.957677
 21
93.486189
 31
0.0
  0
LINE
  5
308
100
AcDbEntity
  8
0
  6
Continuous
 62
   174
100
AcDbLine
 10
190.947678
 20
104.903576
 30
0.0
 11
190.957677
 21
104.909453
 31
0.0
  0
LINE
  5
309
100
AcDbEntity
  8
0
  6
HIDDEN
 62
   174
100
AcDbLine
 10
110.957677
 20
93.674985
 30
0.0
 11
112.957677
 21
93.674985
 31
0.0
  0
LINE
  5
30A
100
AcDbEntity
  8
0
  6
Continuous
 62
   174
100
AcDbLine
 10
188.967675
 20
104.895486
 30
0.0
 11
188.957677
 21
104.901363
 31
0.0
  0
LINE
  5
30B
100
AcDbEntity
  8
0
  6
HIDDEN
 62
   174
100
AcDbLine
 10
110.957677
 20
96.018791
 30
0.0
 11
110.957677
 21
97.932157
 31
0.0
  0
LINE
  5
30C
100
AcDbEntity
  8
0
  6
HIDDEN
 62
   174
100
AcDbLine
 10
106.947678
 20
107.662005
 30
0.0
 11
108.967675
 21
107.662005
 31
0.0
  0
LINE
  5
30D
100
AcDbEntity
  8
0
  6
HIDDEN
 62
   174
100
AcDbLine
 10
192.967675
 20
96.451224
 30
0.0
 11
190.947678
 21
96.451224
 31
0.0
  0
LINE
  5
30E
100
AcDbEntity
  8
0
  6
HIDDEN
 62
   174
100
AcDbLine
 10
106.947678
 20
96.004956
 30
0.0
 11
106.957677
 21
95.998469
 31
0.0
  0
LINE
  5
30F
100
AcDbEntity
  8
0
  6
Continuous
 62
   174
100
AcDbLine
 10
110.957677
 20
105.340631
 30
0.0
 11
112.957677
 21
105.340631
 31
0.0
  0
LINE
  5
310
100
AcDbEntity
  8
0
  6
HIDDEN
 62
   174
100
AcDbLine
 10
190.957677
 20
93.840099
 30
0.0
 11
190.957677
 21
94.858281
 31
0.0
  0
LINE
  5
311
100
AcDbEntity
  8
0
  6
HIDDEN
 62
   174
100
AcDbLine
 10
106.957677
 20
106.155739
 30
0.0
 11
108.957677
 21
106.155739
 31
0.0
  0
LINE
  5
312
100
AcDbEntity
  8
0
  6
HIDDEN
 62
   174
100
AcDbLine
 10
110.950089
 20
107.664349
 30
0.0
 11
112.965265
 21
107.664349
 31
0.0
  0
LWPOLYLINE
  5
313
100
AcDbEntity
  8
0
  6
Continuous
 62
   174
100
AcDbPolyline
 90
        2
 70
   129
 10
112.967675
 20
94.03009
 10
112.967677
 20
94.02818
  0
LINE
  5
314
100
AcDbEntity
  8
0
  6
HIDDEN
 62
   174
100
AcDbLine
 10
110.947678
 20
102.362998
 30
0.0
 11
112.967675
 21
102.362998
 31
0.0
  0
LINE
  5
315
100
AcDbEntity
  8
0
  6
HIDDEN
 62
   174
100
AcDbLine
 10
110.957677
 20
96.006079
 30
0.0
 11
110.947678
 21
96.012566
 31
0.0
  0
LINE
  5
316
100
AcDbEntity
  8
0
  6
Continuous
 62
   174
100
AcDbLine
 10
106.957677
 20
103.418048
 30
0.0
 11
106.947678
 21
103.414231
 31
0.0
  0
LINE
  5
317
100
AcDbEntity
  8
0
  6
Continuous
 62
   174
100
AcDbLine
 10
110.957677
 20
98.981369
 30
0.0
 11
112.957677
 21
98.981369
 31
0.0
  0
LINE
  5
318
100
AcDbEntity
  8
0
  6
HIDDEN
 62
   174
100
AcDbLine
 10
162.475691
 20
111.663355
 30
0.0
 11
157.475703
 21
111.663355
 31
0.0
  0
LINE
  5
319
100
AcDbEntity
  8
0
  6
Continuous
 62
   174
100
AcDbLine
 10
106.957677
 20
107.686136
 30
0.0
 11
106.957677
 21
107.885397
 31
0.0
  0
LINE
  5
31A
100
AcDbEntity
  8
0
  6
Continuous
 62
   174
100
AcDbLine
 10
112.967675
 20
96.906797
 30
0.0
 11
112.957677
 21
96.901566
 31
0.0
  0
LWPOLYLINE
  5
31B
100
AcDbEntity
  8
0
  6
HIDDEN
 62
   174
100
AcDbPolyline
 90
        2
 70
   129
 10
106.947678
 20
97.93248
 10
106.947677
 20
97.927859
  0
LINE
  5
31C
100
AcDbEntity
  8
0
  6
Continuous
 62
   174
100
AcDbLine
 10
112.957677
 20
94.030013
 30
0.0
 11
112.957677
 21
93.508282
 31
0.0
  0
LINE
  5
31D
100
AcDbEntity
  8
0
  6
HIDDEN
 62
   174
100
AcDbLine
 10
110.957677
 20
93.687999
 30
0.0
 11
110.957677
 21
94.547919
 31
0.0
  0
LINE
  5
31E
100
AcDbEntity
  8
0
  6
Continuous
 62
   174
100
AcDbLine
 10
112.967675
 20
95.19858
 30
0.0
 11
112.957677
 21
95.190971
 31
0.0
  0
LINE
  5
31F
100
AcDbEntity
  8
0
  6
Continuous
 62
   174
100
AcDbLine
 10
186.947678
 20
98.456278
 30
0.0
 11
186.957677
 21
98.453189
 31
0.0
  0
LINE
  5
320
100
AcDbEntity
  8
0
  6
HIDDEN
 62
   174
100
AcDbLine
 10
188.967675
 20
107.509906
 30
0.0
 11
186.947678
 21
107.509906
 31
0.0
  0
LINE
  5
321
100
AcDbEntity
  8
0
  6
HIDDEN
 62
   174
100
AcDbLine
 10
106.950089
 20
107.664349
 30
0.0
 11
108.965265
 21
107.664349
 31
0.0
  0
LINE
  5
322
100
AcDbEntity
  8
0
  6
Continuous
 62
   174
100
AcDbLine
 10
192.967675
 20
107.863355
 30
0.0
 11
192.957677
 21
107.873353
 31
0.0
  0
LINE
  5
323
100
AcDbEntity
  8
0
  6
Continuous
 62
   174
100
AcDbLine
 10
190.457677
 20
107.273355
 30
0.0
 11
189.457677
 21
107.273355
 31
0.0
  0
LINE
  5
324
100
AcDbEntity
  8
0
  6
Continuous
 62
   174
100
AcDbLine
 10
105.457677
 20
94.073355
 30
0.0
 11
106.457677
 21
94.073355
 31
0.0
  0
LINE
  5
325
100
AcDbEntity
  8
0
  6
Continuous
 62
   174
100
AcDbLine
 10
186.957677
 20
96.458098
 30
0.0
 11
186.957677
 21
98.456224
 31
0.0
  0
LINE
  5
326
100
AcDbEntity
  8
0
  6
HIDDEN
 62
   174
100
AcDbLine
 10
106.947678
 20
106.141643
 30
0.0
 11
106.957677
 21
106.149252
 31
0.0
  0
LINE
  5
327
100
AcDbEntity
  8
0
  6
HIDDEN
 62
   174
100
AcDbLine
 10
108.957677
 20
97.932157
 30
0.0
 11
108.957677
 21
96.018791
 31
0.0
  0
LINE
  5
328
100
AcDbEntity
  8
0
  6
HIDDEN
 62
   174
100
AcDbLine
 10
190.957677
 20
106.513305
 30
0.0
 11
190.957677
 21
107.531487
 31
0.0
  0
LINE
  5
329
100
AcDbEntity
  8
0
  6
HIDDEN
 62
   174
100
AcDbLine
 10
110.947678
 20
107.320439
 30
0.0
 11
112.967675
 21
107.320439
 31
0.0
  0
LINE
  5
32A
100
AcDbEntity
  8
0
  6
Continuous
 62
   174
100
AcDbLine
 10
108.957677
 20
94.020849
 30
0.0
 11
106.957677
 21
94.020849
 31
0.0
  0
LINE
  5
32B
100
AcDbEntity
  8
0
  6
Continuous
 62
   174
100
AcDbLine
 10
192.957677
 20
96.445347
 30
0.0
 11
190.957677
 21
96.445347
 31
0.0
  0
LINE
  5
32C
100
AcDbEntity
  8
0
  6
HIDDEN
 62
   174
100
AcDbLine
 10
110.947678
 20
96.915319
 30
0.0
 11
112.967675
 21
96.915319
 31
0.0
  0
LINE
  5
32D
100
AcDbEntity
  8
0
  6
Continuous
 62
   174
100
AcDbLine
 10
186.947678
 20
102.899943
 30
0.0
 11
186.957677
 21
102.903032
 31
0.0
  0
LINE
  5
32E
100
AcDbEntity
  8
0
  6
HIDDEN
 62
   174
100
AcDbLine
 10
106.947678
 20
94.03009
 30
0.0
 11
108.967675
 21
94.03009
 31
0.0
  0
LINE
  5
32F
100
AcDbEntity
  8
0
  6
Continuous
 62
   174
100
AcDbLine
 10
108.957677
 20
107.873355
 30
0.0
 11
106.957677
 21
107.873355
 31
0.0
  0
LINE
  5
330
100
AcDbEntity
  8
0
  6
Continuous
 62
   174
100
AcDbLine
 10
192.967675
 20
106.487248
 30
0.0
 11
192.957677
 21
106.495337
 31
0.0
  0
LINE
  5
331
100
AcDbEntity
  8
0
  6
HIDDEN
 62
   174
100
AcDbLine
 10
112.957677
 20
102.36814
 30
0.0
 11
112.957677
 21
100.132517
 31
0.0
  0
LINE
  5
332
100
AcDbEntity
  8
0
  6
Continuous
 62
   174
100
AcDbLine
 10
190.947678
 20
107.512997
 30
0.0
 11
190.957677
 21
107.522505
 31
0.0
  0
LINE
  5
333
100
AcDbEntity
  8
0
  6
HIDDEN
 62
   174
100
AcDbLine
 10
140.707677
 20
89.673355
 30
0.0
 11
140.707677
 21
111.673355
 31
0.0
  0
LINE
  5
334
100
AcDbEntity
  8
0
  6
Continuous
 62
   174
100
AcDbLine
 10
112.957677
 20
106.811581
 30
0.0
 11
112.967675
 21
106.803061
 31
0.0
  0
LINE
  5
335
100
AcDbEntity
  8
0
  6
Continuous
 62
   174
100
AcDbLine
 10
192.957677
 20
94.851373
 30
0.0
 11
190.957677
 21
94.851373
 31
0.0
  0
LINE
  5
336
100
AcDbEntity
  8
0
  6
Continuous
 62
   174
100
AcDbLine
 10
113.457677
 20
94.073355
 30
0.0
 11
115.957677
 21
94.073355
 31
0.0
  0
LINE
  5
337
100
AcDbEntity
  8
0
  6
HIDDEN
 62
   174
100
AcDbLine
 10
188.957677
 20
107.531487
 30
0.0
 11
188.957677
 21
106.513305
 31
0.0
  0
LINE
  5
338
100
AcDbEntity
  8
0
  6
Continuous
 62
   174
100
AcDbLine
 10
192.957677
 20
100.678355
 30
0.0
 11
190.957677
 21
100.678355
 31
0.0
  0
LINE
  5
339
100
AcDbEntity
  8
0
  6
HIDDEN
 62
   174
100
AcDbLine
 10
181.947677
 20
97.186099
 30
0.0
 11
181.947677
 21
104.185699
 31
0.0
  0
LINE
  5
33A
100
AcDbEntity
  8
0
  6
HIDDEN
 62
   174
100
AcDbLine
 10
106.947678
 20
106.797828
 30
0.0
 11
108.967675
 21
106.797828
 31
0.0
  0
LINE
  5
33B
100
AcDbEntity
  8
0
  6
HIDDEN
 62
   174
100
AcDbLine
 10
110.947678
 20
97.93248
 30
0.0
 11
112.967675
 21
97.93248
 31
0.0
  0
LINE
  5
33C
100
AcDbEntity
  8
0
  6
Continuous
 62
   174
100
AcDbLine
 10
112.957677
 20
101.236766
 30
0.0
 11
112.967675
 21
101.235991
 31
0.0
  0
LINE
  5
33D
100
AcDbEntity
  8
0
  6
Continuous
 62
   174
100
AcDbLine
 10
186.947678
 20
107.512997
 30
0.0
 11
186.957677
 21
107.522505
 31
0.0
  0
LINE
  5
33E
100
AcDbEntity
  8
0
  6
Continuous
 62
   174
100
AcDbLine
 10
110.957677
 20
101.249266
 30
0.0
 11
110.957677
 21
103.430507
 31
0.0
  0
LINE
  5
33F
100
AcDbEntity
  8
0
  6
Continuous
 62
   174
100
AcDbLine
 10
115.957677
 20
94.073355
 30
0.0
 11
117.957677
 21
95.228056
 31
0.0
  0
LINE
  5
340
100
AcDbEntity
  8
0
  6
HIDDEN
 62
   174
100
AcDbLine
 10
106.957677
 20
100.132517
 30
0.0
 11
106.957677
 21
102.36814
 31
0.0
  0
LINE
  5
341
100
AcDbEntity
  8
0
  6
HIDDEN
 62
   174
100
AcDbLine
 10
110.957677
 20
102.365341
 30
0.0
 11
112.957677
 21
102.365341
 31
0.0
  0
LINE
  5
342
100
AcDbEntity
  8
0
  6
HIDDEN
 62
   174
100
AcDbLine
 10
110.947678
 20
105.334145
 30
0.0
 11
112.967675
 21
105.334145
 31
0.0
  0
LINE
  5
343
100
AcDbEntity
  8
0
  6
HIDDEN
 62
   174
100
AcDbLine
 10
188.967675
 20
94.859462
 30
0.0
 11
186.947678
 21
94.859462
 31
0.0
  0
LINE
  5
344
100
AcDbEntity
  8
0
  6
HIDDEN
 62
   174
100
AcDbLine
 10
188.957677
 20
96.450026
 30
0.0
 11
188.957677
 21
94.864229
 31
0.0
  0
LINE
  5
345
100
AcDbEntity
  8
0
  6
Continuous
 62
   174
100
AcDbLine
 10
192.967675
 20
98.446768
 30
0.0
 11
190.947678
 21
98.446768
 31
0.0
  0
LINE
  5
346
100
AcDbEntity
  8
0
  6
Continuous
 62
   174
100
AcDbLine
 10
192.957677
 20
107.522505
 30
0.0
 11
192.967675
 21
107.512997
 31
0.0
  0
LINE
  5
347
100
AcDbEntity
  8
0
  6
HIDDEN
 62
   174
100
AcDbLine
 10
192.964426
 20
107.512997
 30
0.0
 11
190.950928
 21
107.512997
 31
0.0
  0
LINE
  5
348
100
AcDbEntity
  8
0
  6
Continuous
 62
   174
100
AcDbLine
 10
105.457677
 20
107.273355
 30
0.0
 11
104.957677
 21
106.773355
 31
0.0
  0
LINE
  5
349
100
AcDbEntity
  8
0
  6
Continuous
 62
   174
100
AcDbLine
 10
193.457677
 20
94.073355
 30
0.0
 11
194.457677
 21
94.073355
 31
0.0
  0
LINE
  5
34A
100
AcDbEntity
  8
0
  6
Continuous
 62
   174
100
AcDbLine
 10
186.957677
 20
94.845495
 30
0.0
 11
188.957677
 21
94.845495
 31
0.0
  0
LINE
  5
34B
100
AcDbEntity
  8
0
  6
Continuous
 62
   174
100
AcDbLine
 10
186.957677
 20
98.443678
 30
0.0
 11
188.957677
 21
98.443678
 31
0.0
  0
LINE
  5
34C
100
AcDbEntity
  8
0
  6
HIDDEN
 62
   174
100
AcDbLine
 10
106.947678
 20
100.11072
 30
0.0
 11
106.957677
 21
100.109944
 31
0.0
  0
LINE
  5
34D
100
AcDbEntity
  8
0
  6
Continuous
 62
   174
100
AcDbLine
 10
112.957677
 20
93.507645
 30
0.0
 11
112.957677
 21
93.486189
 31
0.0
  0
LINE
  5
34E
100
AcDbEntity
  8
0
  6
Continuous
 62
   174
100
AcDbLine
 10
188.957677
 20
107.531487
 30
0.0
 11
188.957677
 21
106.513305
 31
0.0
  0
LINE
  5
34F
100
AcDbEntity
  8
0
  6
Continuous
 62
   174
100
AcDbLine
 10
108.957677
 20
107.885397
 30
0.0
 11
108.957677
 21
107.686136
 31
0.0
  0
LINE
  5
350
100
AcDbEntity
  8
0
  6
HIDDEN
 62
   174
100
AcDbLine
 10
106.957677
 20
107.32968
 30
0.0
 11
106.947678
 21
107.320439
 31
0.0
  0
LINE
  5
351
100
AcDbEntity
  8
0
  6
Continuous
 62
   174
100
AcDbLine
 10
106.957677
 20
107.671725
 30
0.0
 11
106.947678
 21
107.662005
 31
0.0
  0
LINE
  5
352
100
AcDbEntity
  8
0
  6
HIDDEN
 62
   174
100
AcDbLine
 10
110.947678
 20
107.842085
 30
0.0
 11
112.967675
 21
107.842085
 31
0.0
  0
LINE
  5
353
100
AcDbEntity
  8
0
  6
Continuous
 62
   174
100
AcDbLine
 10
190.957677
 20
93.840099
 30
0.0
 11
190.957677
 21
94.858281
 31
0.0
  0
LINE
  5
354
100
AcDbEntity
  8
0
  6
Continuous
 62
   174
100
AcDbLine
 10
192.957677
 20
96.450026
 30
0.0
 11
192.957677
 21
94.864229
 31
0.0
  0
LINE
  5
355
100
AcDbEntity
  8
0
  6
Continuous
 62
   174
100
AcDbLine
 10
190.957677
 20
98.443678
 30
0.0
 11
192.957677
 21
98.443678
 31
0.0
  0
LINE
  5
356
100
AcDbEntity
  8
0
  6
HIDDEN
 62
   174
100
AcDbLine
 10
110.957677
 20
94.540362
 30
0.0
 11
110.947678
 21
94.548882
 31
0.0
  0
LINE
  5
357
100
AcDbEntity
  8
0
  6
Continuous
 62
   174
100
AcDbLine
 10
188.957677
 20
107.522505
 30
0.0
 11
186.957677
 21
107.522505
 31
0.0
  0
LINE
  5
358
100
AcDbEntity
  8
0
  6
HIDDEN
 62
   174
100
AcDbLine
 10
164.707677
 20
89.673355
 30
0.0
 11
164.707677
 21
111.673355
 31
0.0
  0
LINE
  5
359
100
AcDbEntity
  8
0
  6
Continuous
 62
   174
100
AcDbLine
 10
110.957677
 20
103.418048
 30
0.0
 11
110.947678
 21
103.414231
 31
0.0
  0
LINE
  5
35A
100
AcDbEntity
  8
0
  6
HIDDEN
 62
   174
100
AcDbLine
 10
192.957677
 20
94.858281
 30
0.0
 11
192.957677
 21
93.840099
 31
0.0
  0
LINE
  5
35B
100
AcDbEntity
  8
0
  6
HIDDEN
 62
   174
100
AcDbLine
 10
186.957677
 20
107.534673
 30
0.0
 11
186.957677
 21
107.885397
 31
0.0
  0
LINE
  5
35C
100
AcDbEntity
  8
0
  6
Continuous
 62
   174
100
AcDbLine
 10
106.957677
 20
103.439642
 30
0.0
 11
106.957677
 21
105.352795
 31
0.0
  0
LINE
  5
35D
100
AcDbEntity
  8
0
  6
HIDDEN
 62
   174
100
AcDbLine
 10
106.957677
 20
93.674985
 30
0.0
 11
108.957677
 21
93.674985
 31
0.0
  0
LINE
  5
35E
100
AcDbEntity
  8
0
  6
Continuous
 62
   174
100
AcDbLine
 10
188.967675
 20
104.903576
 30
0.0
 11
186.947678
 21
104.903576
 31
0.0
  0
LINE
  5
35F
100
AcDbEntity
  8
0
  6
Continuous
 62
   174
100
AcDbLine
 10
188.957677
 20
100.678355
 30
0.0
 11
186.957677
 21
100.678355
 31
0.0
  0
LINE
  5
360
100
AcDbEntity
  8
0
  6
Continuous
 62
   174
100
AcDbLine
 10
188.957677
 20
98.456224
 30
0.0
 11
188.957677
 21
96.458098
 31
0.0
  0
LINE
  5
361
100
AcDbEntity
  8
0
  6
Continuous
 62
   174
100
AcDbLine
 10
110.957677
 20
107.671725
 30
0.0
 11
110.947678
 21
107.662005
 31
0.0
  0
LINE
  5
362
100
AcDbEntity
  8
0
  6
HIDDEN
 62
   174
100
AcDbLine
 10
108.957677
 20
107.325861
 30
0.0
 11
106.957677
 21
107.325861
 31
0.0
  0
LINE
  5
363
100
AcDbEntity
  8
0
  6
Continuous
 62
   174
100
AcDbLine
 10
106.947678
 20
96.906797
 30
0.0
 11
108.967675
 21
96.906797
 31
0.0
  0
LINE
  5
364
100
AcDbEntity
  8
0
  6
Continuous
 62
   174
100
AcDbLine
 10
108.957677
 20
105.352795
 30
0.0
 11
108.957677
 21
103.439642
 31
0.0
  0
LINE
  5
365
100
AcDbEntity
  8
0
  6
Continuous
 62
   174
100
AcDbLine
 10
112.957677
 20
105.352795
 30
0.0
 11
112.957677
 21
103.439642
 31
0.0
  0
LINE
  5
366
100
AcDbEntity
  8
0
  6
HIDDEN
 62
   174
100
AcDbLine
 10
130.475729
 20
89.693355
 30
0.0
 11
135.475717
 21
89.693355
 31
0.0
  0
LINE
  5
367
100
AcDbEntity
  8
0
  6
Continuous
 62
   174
100
AcDbLine
 10
108.957677
 20
94.020849
 30
0.0
 11
108.967675
 21
94.03009
 31
0.0
  0
LINE
  5
368
100
AcDbEntity
  8
0
  6
Continuous
 62
   174
100
AcDbLine
 10
190.957677
 20
94.845495
 30
0.0
 11
190.947678
 21
94.853584
 31
0.0
  0
LINE
  5
369
100
AcDbEntity
  8
0
  6
HIDDEN
 62
   174
100
AcDbLine
 10
112.957677
 20
102.35562
 30
0.0
 11
112.967675
 21
102.353277
 31
0.0
  0
LINE
  5
36A
100
AcDbEntity
  8
0
  6
Continuous
 62
   174
100
AcDbLine
 10
186.957677
 20
93.486189
 30
0.0
 11
186.957677
 21
93.837125
 31
0.0
  0
LINE
  5
36B
100
AcDbEntity
  8
0
  6
Continuous
 62
   174
100
AcDbLine
 10
188.957677
 20
96.445347
 30
0.0
 11
188.967675
 21
96.451224
 31
0.0
  0
LINE
  5
36C
100
AcDbEntity
  8
0
  6
HIDDEN
 62
   174
100
AcDbLine
 10
108.957677
 20
93.68545
 30
0.0
 11
108.957677
 21
93.507645
 31
0.0
  0
LINE
  5
36D
100
AcDbEntity
  8
0
  6
Continuous
 62
   174
100
AcDbLine
 10
192.957677
 20
106.50757
 30
0.0
 11
192.957677
 21
104.921772
 31
0.0
  0
LINE
  5
36E
100
AcDbEntity
  8
0
  6
HIDDEN
 62
   174
100
AcDbLine
 10
106.957677
 20
93.674985
 30
0.0
 11
106.947678
 21
93.684705
 31
0.0
  0
LINE
  5
36F
100
AcDbEntity
  8
0
  6
Continuous
 62
   174
100
AcDbLine
 10
192.957677
 20
107.531487
 30
0.0
 11
192.957677
 21
106.513305
 31
0.0
  0
LINE
  5
370
100
AcDbEntity
  8
0
  6
Continuous
 62
   174
100
AcDbLine
 10
190.957677
 20
96.437257
 30
0.0
 11
190.947678
 21
96.443134
 31
0.0
  0
LWPOLYLINE
  5
371
100
AcDbEntity
  8
0
  6
Continuous
 62
   174
100
AcDbPolyline
 90
        2
 70
   129
 10
110.947678
 20
94.026271
 10
110.947677
 20
94.02818
  0
LINE
  5
372
100
AcDbEntity
  8
0
  6
HIDDEN
 62
   174
100
AcDbLine
 10
135.207677
 20
111.673355
 30
0.0
 11
135.207677
 21
89.673355
 31
0.0
  0
LINE
  5
373
100
AcDbEntity
  8
0
  6
HIDDEN
 62
   174
100
AcDbLine
 10
106.947678
 20
96.004956
 30
0.0
 11
108.967675
 21
96.004956
 31
0.0
  0
LINE
  5
374
100
AcDbEntity
  8
0
  6
Continuous
 62
   174
100
AcDbLine
 10
108.967675
 20
98.983712
 30
0.0
 11
108.957677
 21
98.981369
 31
0.0
  0
LINE
  5
375
100
AcDbEntity
  8
0
  6
Continuous
 62
   174
100
AcDbLine
 10
106.957677
 20
105.340631
 30
0.0
 11
108.957677
 21
105.340631
 31
0.0
  0
LINE
  5
376
100
AcDbEntity
  8
0
  6
HIDDEN
 62
   174
100
AcDbLine
 10
110.956204
 20
95.19858
 30
0.0
 11
112.95915
 21
95.19858
 31
0.0
  0
LINE
  5
377
100
AcDbEntity
  8
0
  6
Continuous
 62
   174
100
AcDbLine
 10
112.957677
 20
94.020849
 30
0.0
 11
112.967675
 21
94.03009
 31
0.0
  0
LINE
  5
378
100
AcDbEntity
  8
0
  6
HIDDEN
 62
   174
100
AcDbLine
 10
106.957677
 20
97.928662
 30
0.0
 11
108.957677
 21
97.928662
 31
0.0
  0
LINE
  5
379
100
AcDbEntity
  8
0
  6
HIDDEN
 62
   174
100
AcDbLine
 10
108.957677
 20
107.851277
 30
0.0
 11
106.957677
 21
107.851277
 31
0.0
  0
LINE
  5
37A
100
AcDbEntity
  8
0
  6
HIDDEN
 62
   174
100
AcDbLine
 10
110.957677
 20
104.445145
 30
0.0
 11
110.947678
 21
104.439913
 31
0.0
  0
LINE
  5
37B
100
AcDbEntity
  8
0
  6
Continuous
 62
   174
100
AcDbLine
 10
190.957677
 20
106.495337
 30
0.0
 11
192.957677
 21
106.495337
 31
0.0
  0
LINE
  5
37C
100
AcDbEntity
  8
0
  6
Continuous
 62
   174
100
AcDbLine
 10
117.957677
 20
106.118655
 30
0.0
 11
115.957677
 21
107.273355
 31
0.0
  0
LINE
  5
37D
100
AcDbEntity
  8
0
  6
Continuous
 62
   174
100
AcDbLine
 10
186.957677
 20
94.845495
 30
0.0
 11
186.947678
 21
94.853584
 31
0.0
  0
LINE
  5
37E
100
AcDbEntity
  8
0
  6
Continuous
 62
   174
100
AcDbLine
 10
188.967675
 20
98.446768
 30
0.0
 11
186.947678
 21
98.446768
 31
0.0
  0
LINE
  5
37F
100
AcDbEntity
  8
0
  6
Continuous
 62
   174
100
AcDbLine
 10
190.957677
 20
98.443678
 30
0.0
 11
190.947678
 21
98.446768
 31
0.0
  0
LINE
  5
380
100
AcDbEntity
  8
0
  6
Continuous
 62
   174
100
AcDbLine
 10
190.957677
 20
98.465783
 30
0.0
 11
190.957677
 21
100.680801
 31
0.0
  0
LINE
  5
381
100
AcDbEntity
  8
0
  6
Continuous
 62
   174
100
AcDbLine
 10
192.957677
 20
104.9137
 30
0.0
 11
192.957677
 21
102.915362
 31
0.0
  0
LINE
  5
382
100
AcDbEntity
  8
0
  6
HIDDEN
 62
   174
100
AcDbLine
 10
108.957677
 20
106.149252
 30
0.0
 11
108.967675
 21
106.141643
 31
0.0
  0
LINE
  5
383
100
AcDbEntity
  8
0
  6
HIDDEN
 62
   174
100
AcDbLine
 10
108.957677
 20
104.436623
 30
0.0
 11
108.967675
 21
104.431391
 31
0.0
  0
LINE
  5
384
100
AcDbEntity
  8
0
  6
Continuous
 62
   174
100
AcDbLine
 10
186.957677
 20
107.519415
 30
0.0
 11
186.947678
 21
107.509906
 31
0.0
  0
LINE
  5
385
100
AcDbEntity
  8
0
  6
Continuous
 62
   174
100
AcDbLine
 10
106.957677
 20
98.981369
 30
0.0
 11
108.957677
 21
98.981369
 31
0.0
  0
LINE
  5
386
100
AcDbEntity
  8
0
  6
HIDDEN
 62
   174
100
AcDbLine
 10
190.957677
 20
94.864229
 30
0.0
 11
190.957677
 21
96.450026
 31
0.0
  0
LINE
  5
387
100
AcDbEntity
  8
0
  6
Continuous
 62
   174
100
AcDbLine
 10
104.957677
 20
94.573355
 30
0.0
 11
105.457677
 21
94.073355
 31
0.0
  0
LINE
  5
388
100
AcDbEntity
  8
0
  6
Continuous
 62
   174
100
AcDbLine
 10
194.457677
 20
107.273355
 30
0.0
 11
193.457677
 21
107.273355
 31
0.0
  0
LINE
  5
389
100
AcDbEntity
  8
0
  6
Continuous
 62
   174
100
AcDbLine
 10
110.947678
 20
95.205067
 30
0.0
 11
110.957677
 21
95.197459
 31
0.0
  0
LINE
  5
38A
100
AcDbEntity
  8
0
  6
HIDDEN
 62
   174
100
AcDbLine
 10
110.957677
 20
100.119914
 30
0.0
 11
110.947678
 21
100.12069
 31
0.0
  0
LINE
  5
38B
100
AcDbEntity
  8
0
  6
HIDDEN
 62
   174
100
AcDbLine
 10
110.947678
 20
94.03009
 30
0.0
 11
112.967675
 21
94.03009
 31
0.0
  0
LINE
  5
38C
100
AcDbEntity
  8
0
  6
Continuous
 62
   174
100
AcDbLine
 10
186.957677
 20
104.901363
 30
0.0
 11
188.957677
 21
104.901363
 31
0.0
  0
LINE
  5
38D
100
AcDbEntity
  8
0
  6
HIDDEN
 62
   174
100
AcDbLine
 10
108.967675
 20
104.439913
 30
0.0
 11
108.957677
 21
104.445145
 31
0.0
  0
LINE
  5
38E
100
AcDbEntity
  8
0
  6
Continuous
 62
   174
100
AcDbLine
 10
112.957677
 20
96.910087
 30
0.0
 11
110.957677
 21
96.910087
 31
0.0
  0
LINE
  5
38F
100
AcDbEntity
  8
0
  6
HIDDEN
 62
   174
100
AcDbLine
 10
127.975842
 20
89.683355
 30
0.0
 11
147.22591
 21
89.683355
 31
0.0
  0
LINE
  5
390
100
AcDbEntity
  8
0
  6
HIDDEN
 62
   174
100
AcDbLine
 10
192.967675
 20
94.859462
 30
0.0
 11
190.947678
 21
94.859462
 31
0.0
  0
LINE
  5
391
100
AcDbEntity
  8
0
  6
Continuous
 62
   174
100
AcDbLine
 10
106.957677
 20
106.806348
 30
0.0
 11
108.957677
 21
106.806348
 31
0.0
  0
LINE
  5
392
100
AcDbEntity
  8
0
  6
HIDDEN
 62
   174
100
AcDbLine
 10
108.967675
 20
102.362998
 30
0.0
 11
108.957677
 21
102.365341
 31
0.0
  0
LINE
  5
393
100
AcDbEntity
  8
0
  6
Continuous
 62
   174
100
AcDbLine
 10
190.457677
 20
107.385547
 30
0.0
 11
190.457677
 21
93.986252
 31
0.0
  0
LINE
  5
394
100
AcDbEntity
  8
0
  6
Continuous
 62
   174
100
AcDbLine
 10
188.967675
 20
102.899943
 30
0.0
 11
186.947678
 21
102.899943
 31
0.0
  0
LINE
  5
395
100
AcDbEntity
  8
0
  6
HIDDEN
 62
   174
100
AcDbLine
 10
108.957677
 20
94.547919
 30
0.0
 11
108.957677
 21
93.687999
 31
0.0
  0
LINE
  5
396
100
AcDbEntity
  8
0
  6
HIDDEN
 62
   174
100
AcDbLine
 10
112.967675
 20
104.439913
 30
0.0
 11
112.957677
 21
104.445145
 31
0.0
  0
LWPOLYLINE
  5
397
100
AcDbEntity
  8
0
  6
Continuous
 62
   174
100
AcDbPolyline
 90
        2
 70
   129
 10
108.967675
 20
94.03009
 10
108.967677
 20
94.02818
  0
LINE
  5
398
100
AcDbEntity
  8
0
  6
HIDDEN
 62
   174
100
AcDbLine
 10
192.967675
 20
93.836804
 30
0.0
 11
190.947678
 21
93.836804
 31
0.0
  0
LINE
  5
399
100
AcDbEntity
  8
0
  6
HIDDEN
 62
   174
100
AcDbLine
 10
106.947678
 20
98.993434
 30
0.0
 11
108.967675
 21
98.993434
 31
0.0
  0
LINE
  5
39A
100
AcDbEntity
  8
0
  6
HIDDEN
 62
   174
100
AcDbLine
 10
159.207677
 20
111.673355
 30
0.0
 11
159.207677
 21
89.673355
 31
0.0
  0
LINE
  5
39B
100
AcDbEntity
  8
0
  6
Continuous
 62
   174
100
AcDbLine
 10
108.957677
 20
106.811581
 30
0.0
 11
108.967675
 21
106.803061
 31
0.0
  0
LINE
  5
39C
100
AcDbEntity
  8
0
  6
HIDDEN
 62
   174
100
AcDbLine
 10
110.947678
 20
102.353277
 30
0.0
 11
110.957677
 21
102.35562
 31
0.0
  0
LWPOLYLINE
  5
39D
100
AcDbEntity
  8
0
  6
Continuous
 62
   174
100
AcDbPolyline
 90
        2
 70
   129
 10
190.947678
 20
107.863355
 10
190.947677
 20
107.863355
  0
LINE
  5
39E
100
AcDbEntity
  8
0
  6
Continuous
 62
   174
100
AcDbLine
 10
192.967675
 20
104.895486
 30
0.0
 11
192.957677
 21
104.901363
 31
0.0
  0
LINE
  5
39F
100
AcDbEntity
  8
0
  6
HIDDEN
 62
   174
100
AcDbLine
 10
112.967675
 20
94.548882
 30
0.0
 11
112.957677
 21
94.540362
 31
0.0
  0
LINE
  5
3A0
100
AcDbEntity
  8
0
  6
Continuous
 62
   174
100
AcDbLine
 10
186.957677
 20
106.495337
 30
0.0
 11
188.957677
 21
106.495337
 31
0.0
  0
LINE
  5
3A1
100
AcDbEntity
  8
0
  6
Continuous
 62
   174
100
AcDbLine
 10
112.957677
 20
94.020849
 30
0.0
 11
110.957677
 21
94.020849
 31
0.0
  0
LINE
  5
3A2
100
AcDbEntity
  8
0
  6
Continuous
 62
   174
100
AcDbLine
 10
110.957677
 20
98.981369
 30
0.0
 11
110.947678
 21
98.983712
 31
0.0
  0
LWPOLYLINE
  5
3A3
100
AcDbEntity
  8
0
  6
Continuous
 62
   174
100
AcDbPolyline
 90
        2
 70
   129
 10
190.947678
 20
93.483355
 10
190.947677
 20
93.483355
  0
LINE
  5
3A4
100
AcDbEntity
  8
0
  6
Continuous
 62
   174
100
AcDbLine
 10
190.957677
 20
93.486189
 30
0.0
 11
190.957677
 21
93.837125
 31
0.0
  0
LINE
  5
3A5
100
AcDbEntity
  8
0
  6
Continuous
 62
   174
100
AcDbLine
 10
108.967675
 20
93.504625
 30
0.0
 11
108.957677
 21
93.494657
 31
0.0
  0
LINE
  5
3A6
100
AcDbEntity
  8
0
  6
HIDDEN
 62
   174
100
AcDbLine
 10
112.957677
 20
93.68545
 30
0.0
 11
112.957677
 21
93.507645
 31
0.0
  0
LINE
  5
3A7
100
AcDbEntity
  8
0
  6
HIDDEN
 62
   174
100
AcDbLine
 10
188.96041
 20
106.493126
 30
0.0
 11
186.954944
 21
106.493126
 31
0.0
  0
LINE
  5
3A8
100
AcDbEntity
  8
0
  6
Continuous
 62
   174
100
AcDbLine
 10
108.957677
 20
107.674068
 30
0.0
 11
106.957677
 21
107.674068
 31
0.0
  0
LINE
  5
3A9
100
AcDbEntity
  8
0
  6
Continuous
 62
   174
100
AcDbLine
 10
112.967675
 20
107.662005
 30
0.0
 11
112.957677
 21
107.671725
 31
0.0
  0
LINE
  5
3AA
100
AcDbEntity
  8
0
  6
Continuous
 62
   174
100
AcDbLine
 10
190.957677
 20
100.668355
 30
0.0
 11
192.957677
 21
100.668355
 31
0.0
  0
LINE
  5
3AB
100
AcDbEntity
  8
0
  6
Continuous
 62
   174
100
AcDbLine
 10
188.957677
 20
96.450026
 30
0.0
 11
188.957677
 21
94.864229
 31
0.0
  0
LINE
  5
3AC
100
AcDbEntity
  8
0
  6
Continuous
 62
   174
100
AcDbLine
 10
106.957677
 20
93.494657
 30
0.0
 11
108.957677
 21
93.494657
 31
0.0
  0
LINE
  5
3AD
100
AcDbEntity
  8
0
  6
HIDDEN
 62
   174
100
AcDbLine
 10
108.967675
 20
93.684705
 30
0.0
 11
108.957677
 21
93.674985
 31
0.0
  0
LINE
  5
3AE
100
AcDbEntity
  8
0
  6
Continuous
 62
   174
100
AcDbLine
 10
192.957677
 20
107.885397
 30
0.0
 11
192.957677
 21
107.534673
 31
0.0
  0
LINE
  5
3AF
100
AcDbEntity
  8
0
  6
HIDDEN
 62
   174
100
AcDbLine
 10
106.957677
 20
97.941291
 30
0.0
 11
106.957677
 21
100.122532
 31
0.0
  0
LINE
  5
3B0
100
AcDbEntity
  8
0
  6
Continuous
 62
   174
100
AcDbLine
 10
106.957677
 20
93.473355
 30
0.0
 11
108.957677
 21
93.473355
 31
0.0
  0
LINE
  5
3B1
100
AcDbEntity
  8
0
  6
HIDDEN
 62
   174
100
AcDbLine
 10
106.957677
 20
107.852053
 30
0.0
 11
106.947678
 21
107.842085
 31
0.0
  0
LINE
  5
3B2
100
AcDbEntity
  8
0
  6
HIDDEN
 62
   174
100
AcDbLine
 10
188.957677
 20
100.680801
 30
0.0
 11
188.957677
 21
98.465783
 31
0.0
  0
LINE
  5
3B3
100
AcDbEntity
  8
0
  6
Continuous
 62
   174
100
AcDbLine
 10
186.947678
 20
93.483355
 30
0.0
 11
186.957677
 21
93.473357
 31
0.0
  0
LINE
  5
3B4
100
AcDbEntity
  8
0
  6
HIDDEN
 62
   174
100
AcDbLine
 10
110.947678
 20
106.797828
 30
0.0
 11
112.967675
 21
106.797828
 31
0.0
  0
LINE
  5
3B5
100
AcDbEntity
  8
0
  6
Continuous
 62
   174
100
AcDbLine
 10
110.957677
 20
93.494657
 30
0.0
 11
112.957677
 21
93.494657
 31
0.0
  0
LINE
  5
3B6
100
AcDbEntity
  8
0
  6
Continuous
 62
   174
100
AcDbLine
 10
190.957677
 20
96.458098
 30
0.0
 11
190.957677
 21
98.456224
 31
0.0
  0
LINE
  5
3B7
100
AcDbEntity
  8
0
  6
Continuous
 62
   174
100
AcDbLine
 10
188.957677
 20
98.453189
 30
0.0
 11
186.957677
 21
98.453189
 31
0.0
  0
LINE
  5
3B8
100
AcDbEntity
  8
0
  6
HIDDEN
 62
   174
100
AcDbLine
 10
110.947678
 20
107.662005
 30
0.0
 11
112.967675
 21
107.662005
 31
0.0
  0
LINE
  5
3B9
100
AcDbEntity
  8
0
  6
Continuous
 62
   174
100
AcDbLine
 10
192.967675
 20
96.443134
 30
0.0
 11
192.957677
 21
96.437257
 31
0.0
  0
LINE
  5
3BA
100
AcDbEntity
  8
0
  6
HIDDEN
 62
   174
100
AcDbLine
 10
192.957677
 20
106.50757
 30
0.0
 11
192.957677
 21
104.921772
 31
0.0
  0
LINE
  5
3BB
100
AcDbEntity
  8
0
  6
Continuous
 62
   174
100
AcDbLine
 10
190.957677
 20
106.495337
 30
0.0
 11
190.947678
 21
106.487248
 31
0.0
  0
LINE
  5
3BC
100
AcDbEntity
  8
0
  6
Continuous
 62
   174
100
AcDbLine
 10
192.957677
 20
93.473357
 30
0.0
 11
190.957677
 21
93.473357
 31
0.0
  0
LINE
  5
3BD
100
AcDbEntity
  8
0
  6
Continuous
 62
   174
100
AcDbLine
 10
190.957677
 20
107.519415
 30
0.0
 11
190.947678
 21
107.509906
 31
0.0
  0
LINE
  5
3BE
100
AcDbEntity
  8
0
  6
HIDDEN
 62
   174
100
AcDbLine
 10
110.957677
 20
97.928662
 30
0.0
 11
110.947678
 21
97.93248
 31
0.0
  0
LINE
  5
3BF
100
AcDbEntity
  8
0
  6
Continuous
 62
   174
100
AcDbLine
 10
112.957677
 20
107.6838
 30
0.0
 11
112.957677
 21
106.823667
 31
0.0
  0
LINE
  5
3C0
100
AcDbEntity
  8
0
  6
Continuous
 62
   174
100
AcDbLine
 10
108.957677
 20
98.991091
 30
0.0
 11
108.967675
 21
98.993434
 31
0.0
  0
LINE
  5
3C1
100
AcDbEntity
  8
0
  6
HIDDEN
 62
   174
100
AcDbLine
 10
188.957677
 20
93.837125
 30
0.0
 11
188.957677
 21
93.486189
 31
0.0
  0
LINE
  5
3C2
100
AcDbEntity
  8
0
  6
Continuous
 62
   174
100
AcDbLine
 10
188.957677
 20
100.680801
 30
0.0
 11
188.957677
 21
98.465783
 31
0.0
  0
LINE
  5
3C3
100
AcDbEntity
  8
0
  6
Continuous
 62
   174
100
AcDbLine
 10
106.957677
 20
93.508282
 30
0.0
 11
106.957677
 21
94.030013
 31
0.0
  0
LINE
  5
3C4
100
AcDbEntity
  8
0
  6
HIDDEN
 62
   174
100
AcDbLine
 10
110.957677
 20
93.507645
 30
0.0
 11
110.957677
 21
93.68545
 31
0.0
  0
LINE
  5
3C5
100
AcDbEntity
  8
0
  6
Continuous
 62
   174
100
AcDbLine
 10
190.957677
 20
106.513305
 30
0.0
 11
190.957677
 21
107.531487
 31
0.0
  0
LINE
  5
3C6
100
AcDbEntity
  8
0
  6
Continuous
 62
   174
100
AcDbLine
 10
192.957677
 20
98.453189
 30
0.0
 11
192.967675
 21
98.456278
 31
0.0
  0
LINE
  5
3C7
100
AcDbEntity
  8
0
  6
HIDDEN
 62
   174
100
AcDbLine
 10
192.958865
 20
107.863355
 30
0.0
 11
190.956488
 21
107.863355
 31
0.0
  0
LINE
  5
3C8
100
AcDbEntity
  8
0
  6
Continuous
 62
   174
100
AcDbLine
 10
112.957677
 20
93.495433
 30
0.0
 11
112.967675
 21
93.505401
 31
0.0
  0
LINE
  5
3C9
100
AcDbEntity
  8
0
  6
HIDDEN
 62
   174
100
AcDbLine
 10
188.957677
 20
98.456224
 30
0.0
 11
188.957677
 21
96.458098
 31
0.0
  0
LINE
  5
3CA
100
AcDbEntity
  8
0
  6
Continuous
 62
   174
100
AcDbLine
 10
110.957677
 20
99.003659
 30
0.0
 11
110.957677
 21
101.239282
 31
0.0
  0
LINE
  5
3CB
100
AcDbEntity
  8
0
  6
HIDDEN
 62
   174
100
AcDbLine
 10
106.957677
 20
100.119914
 30
0.0
 11
106.947678
 21
100.12069
 31
0.0
  0
LINE
  5
3CC
100
AcDbEntity
  8
0
  6
Continuous
 62
   174
100
AcDbLine
 10
186.457677
 20
107.385547
 30
0.0
 11
186.457677
 21
93.986252
 31
0.0
  0
LINE
  5
3CD
100
AcDbEntity
  8
0
  6
Continuous
 62
   174
100
AcDbLine
 10
186.957677
 20
106.513305
 30
0.0
 11
186.957677
 21
107.531487
 31
0.0
  0
LINE
  5
3CE
100
AcDbEntity
  8
0
  6
HIDDEN
 62
   174
100
AcDbLine
 10
106.95181
 20
94.026271
 30
0.0
 11
108.963543
 21
94.026271
 31
0.0
  0
LINE
  5
3CF
100
AcDbEntity
  8
0
  6
Continuous
 62
   174
100
AcDbLine
 10
108.967675
 20
103.414231
 30
0.0
 11
108.957677
 21
103.418048
 31
0.0
  0
LINE
  5
3D0
100
AcDbEntity
  8
0
  6
Continuous
 62
   174
100
AcDbLine
 10
183.957677
 20
94.073355
 30
0.0
 11
186.457677
 21
94.073355
 31
0.0
  0
LINE
  5
3D1
100
AcDbEntity
  8
0
  6
Continuous
 62
   174
100
AcDbLine
 10
108.957677
 20
93.495433
 30
0.0
 11
106.957677
 21
93.495433
 31
0.0
  0
LINE
  5
3D2
100
AcDbEntity
  8
0
  6
HIDDEN
 62
   174
100
AcDbLine
 10
112.957677
 20
100.122532
 30
0.0
 11
112.957677
 21
97.941291
 31
0.0
  0
LINE
  5
3D3
100
AcDbEntity
  8
0
  6
Continuous
 62
   174
100
AcDbLine
 10
112.957677
 20
107.674068
 30
0.0
 11
112.967675
 21
107.664349
 31
0.0
  0
LINE
  5
3D4
100
AcDbEntity
  8
0
  6
Continuous
 62
   174
100
AcDbLine
 10
112.957677
 20
98.991091
 30
0.0
 11
110.957677
 21
98.991091
 31
0.0
  0
LINE
  5
3D5
100
AcDbEntity
  8
0
  6
Continuous
 62
   174
100
AcDbLine
 10
105.457677
 20
94.086307
 30
0.0
 11
105.457677
 21
107.285492
 31
0.0
  0
LINE
  5
3D6
100
AcDbEntity
  8
0
  6
HIDDEN
 62
   174
100
AcDbLine
 10
192.957677
 20
93.837125
 30
0.0
 11
192.957677
 21
93.486189
 31
0.0
  0
LINE
  5
3D7
100
AcDbEntity
  8
0
  6
Continuous
 62
   174
100
AcDbLine
 10
112.967675
 20
105.334145
 30
0.0
 11
112.957677
 21
105.340631
 31
0.0
  0
LINE
  5
3D8
100
AcDbEntity
  8
0
  6
Continuous
 62
   174
100
AcDbLine
 10
192.957677
 20
100.680801
 30
0.0
 11
192.957677
 21
98.465783
 31
0.0
  0
LINE
  5
3D9
100
AcDbEntity
  8
0
  6
HIDDEN
 62
   174
100
AcDbLine
 10
108.957677
 20
97.91942
 30
0.0
 11
106.957677
 21
97.91942
 31
0.0
  0
LINE
  5
3DA
100
AcDbEntity
  8
0
  6
HIDDEN
 62
   174
100
AcDbLine
 10
110.947678
 20
96.004956
 30
0.0
 11
112.967675
 21
96.004956
 31
0.0
  0
LINE
  5
3DB
100
AcDbEntity
  8
0
  6
HIDDEN
 62
   174
100
AcDbLine
 10
112.957677
 20
106.149252
 30
0.0
 11
110.957677
 21
106.149252
 31
0.0
  0
LINE
  5
3DC
100
AcDbEntity
  8
0
  6
Continuous
 62
   174
100
AcDbLine
 10
112.957677
 20
98.993887
 30
0.0
 11
112.957677
 21
96.922897
 31
0.0
  0
LINE
  5
3DD
100
AcDbEntity
  8
0
  6
Continuous
 62
   174
100
AcDbLine
 10
110.957677
 20
107.671725
 30
0.0
 11
112.957677
 21
107.671725
 31
0.0
  0
LINE
  5
3DE
100
AcDbEntity
  8
0
  6
HIDDEN
 62
   174
100
AcDbLine
 10
108.967675
 20
96.012566
 30
0.0
 11
108.957677
 21
96.006079
 31
0.0
  0
LINE
  5
3DF
100
AcDbEntity
  8
0
  6
Continuous
 62
   174
100
AcDbLine
 10
192.957677
 20
93.837125
 30
0.0
 11
192.957677
 21
93.486189
 31
0.0
  0
LINE
  5
3E0
100
AcDbEntity
  8
0
  6
HIDDEN
 62
   174
100
AcDbLine
 10
112.957677
 20
95.998469
 30
0.0
 11
112.967675
 21
96.004956
 31
0.0
  0
LINE
  5
3E1
100
AcDbEntity
  8
0
  6
Continuous
 62
   174
100
AcDbLine
 10
110.957677
 20
106.806348
 30
0.0
 11
112.957677
 21
106.806348
 31
0.0
  0
LINE
  5
3E2
100
AcDbEntity
  8
0
  6
Continuous
 62
   174
100
AcDbLine
 10
112.957677
 20
103.427291
 30
0.0
 11
112.967675
 21
103.423473
 31
0.0
  0
LINE
  5
3E3
100
AcDbEntity
  8
0
  6
Continuous
 62
   174
100
AcDbLine
 10
186.947678
 20
94.859462
 30
0.0
 11
186.957677
 21
94.851373
 31
0.0
  0
LINE
  5
3E4
100
AcDbEntity
  8
0
  6
HIDDEN
 62
   174
100
AcDbLine
 10
106.957677
 20
100.119914
 30
0.0
 11
108.957677
 21
100.119914
 31
0.0
  0
LINE
  5
3E5
100
AcDbEntity
  8
0
  6
Continuous
 62
   174
100
AcDbLine
 10
106.947678
 20
95.205067
 30
0.0
 11
106.957677
 21
95.197459
 31
0.0
  0
LINE
  5
3E6
100
AcDbEntity
  8
0
  6
Continuous
 62
   174
100
AcDbLine
 10
188.957677
 20
102.906015
 30
0.0
 11
188.957677
 21
100.690785
 31
0.0
  0
LINE
  5
3E7
100
AcDbEntity
  8
0
  6
Continuous
 62
   174
100
AcDbLine
 10
190.957677
 20
96.437257
 30
0.0
 11
192.957677
 21
96.437257
 31
0.0
  0
LINE
  5
3E8
100
AcDbEntity
  8
0
  6
Continuous
 62
   174
100
AcDbLine
 10
188.957677
 20
104.909453
 30
0.0
 11
188.967675
 21
104.903576
 31
0.0
  0
LINE
  5
3E9
100
AcDbEntity
  8
0
  6
Continuous
 62
   174
100
AcDbLine
 10
108.957677
 20
107.674068
 30
0.0
 11
108.967675
 21
107.664349
 31
0.0
  0
LINE
  5
3EA
100
AcDbEntity
  8
0
  6
HIDDEN
 62
   174
100
AcDbLine
 10
186.957677
 20
96.458098
 30
0.0
 11
186.957677
 21
98.456224
 31
0.0
  0
LINE
  5
3EB
100
AcDbEntity
  8
0
  6
Continuous
 62
   174
100
AcDbLine
 10
108.957677
 20
105.348241
 30
0.0
 11
108.967675
 21
105.341754
 31
0.0
  0
LINE
  5
3EC
100
AcDbEntity
  8
0
  6
Continuous
 62
   174
100
AcDbLine
 10
108.957677
 20
98.993887
 30
0.0
 11
108.957677
 21
96.922897
 31
0.0
  0
LINE
  5
3ED
100
AcDbEntity
  8
0
  6
Continuous
 62
   174
100
AcDbLine
 10
188.967675
 20
93.833714
 30
0.0
 11
188.957677
 21
93.824205
 31
0.0
  0
LINE
  5
3EE
100
AcDbEntity
  8
0
  6
HIDDEN
 62
   174
100
AcDbLine
 10
192.967675
 20
106.487248
 30
0.0
 11
190.947678
 21
106.487248
 31
0.0
  0
LWPOLYLINE
  5
3EF
100
AcDbEntity
  8
0
  6
HIDDEN
 62
   174
100
AcDbPolyline
 90
        3
 70
   128
 10
112.967675
 20
97.923237
 10
112.967677
 20
97.927859
 10
112.967675
 20
97.93248
  0
LINE
  5
3F0
100
AcDbEntity
  8
0
  6
Continuous
 62
   174
100
AcDbLine
 10
110.957677
 20
93.494657
 30
0.0
 11
110.947678
 21
93.504625
 31
0.0
  0
LINE
  5
3F1
100
AcDbEntity
  8
0
  6
Continuous
 62
   174
100
AcDbLine
 10
188.957677
 20
98.453189
 30
0.0
 11
188.967675
 21
98.456278
 31
0.0
  0
LINE
  5
3F2
100
AcDbEntity
  8
0
  6
HIDDEN
 62
   174
100
AcDbLine
 10
188.957677
 20
107.885397
 30
0.0
 11
188.957677
 21
107.534673
 31
0.0
  0
LINE
  5
3F3
100
AcDbEntity
  8
0
  6
HIDDEN
 62
   174
100
AcDbLine
 10
106.957677
 20
96.006079
 30
0.0
 11
106.947678
 21
96.012566
 31
0.0
  0
LINE
  5
3F4
100
AcDbEntity
  8
0
  6
Continuous
 62
   174
100
AcDbLine
 10
108.957677
 20
103.427291
 30
0.0
 11
108.967675
 21
103.423473
 31
0.0
  0
LINE
  5
3F5
100
AcDbEntity
  8
0
  6
Continuous
 62
   174
100
AcDbLine
 10
192.957677
 20
104.909453
 30
0.0
 11
190.957677
 21
104.909453
 31
0.0
  0
LINE
  5
3F6
100
AcDbEntity
  8
0
  6
Continuous
 62
   174
100
AcDbLine
 10
192.957677
 20
98.453189
 30
0.0
 11
190.957677
 21
98.453189
 31
0.0
  0
LINE
  5
3F7
100
AcDbEntity
  8
0
  6
HIDDEN
 62
   174
100
AcDbLine
 10
188.967675
 20
106.487248
 30
0.0
 11
186.947678
 21
106.487248
 31
0.0
  0
LINE
  5
3F8
100
AcDbEntity
  8
0
  6
HIDDEN
 62
   174
100
AcDbLine
 10
110.957677
 20
106.155739
 30
0.0
 11
112.957677
 21
106.155739
 31
0.0
  0
LINE
  5
3F9
100
AcDbEntity
  8
0
  6
HIDDEN
 62
   174
100
AcDbLine
 10
112.957677
 20
104.436623
 30
0.0
 11
112.967675
 21
104.431391
 31
0.0
  0
LINE
  5
3FA
100
AcDbEntity
  8
0
  6
Continuous
 62
   174
100
AcDbLine
 10
192.957677
 20
106.501215
 30
0.0
 11
190.957677
 21
106.501215
 31
0.0
  0
LINE
  5
3FB
100
AcDbEntity
  8
0
  6
HIDDEN
 62
   174
100
AcDbLine
 10
188.958865
 20
93.483355
 30
0.0
 11
186.956488
 21
93.483355
 31
0.0
  0
LINE
  5
3FC
100
AcDbEntity
  8
0
  6
Continuous
 62
   174
100
AcDbLine
 10
108.957677
 20
93.495433
 30
0.0
 11
108.967675
 21
93.505401
 31
0.0
  0
LINE
  5
3FD
100
AcDbEntity
  8
0
  6
Continuous
 62
   174
100
AcDbLine
 10
110.957677
 20
105.360442
 30
0.0
 11
110.957677
 21
106.818568
 31
0.0
  0
LINE
  5
3FE
100
AcDbEntity
  8
0
  6
HIDDEN
 62
   174
100
AcDbLine
 10
142.475741
 20
111.663355
 30
0.0
 11
137.475754
 21
111.663355
 31
0.0
  0
LINE
  5
3FF
100
AcDbEntity
  8
0
  6
Continuous
 62
   174
100
AcDbLine
 10
190.947678
 20
96.451224
 30
0.0
 11
190.957677
 21
96.445347
 31
0.0
  0
LINE
  5
400
100
AcDbEntity
  8
0
  6
Continuous
 62
   174
100
AcDbLine
 10
110.947678
 20
98.993434
 30
0.0
 11
110.957677
 21
98.991091
 31
0.0
  0
LINE
  5
401
100
AcDbEntity
  8
0
  6
Continuous
 62
   174
100
AcDbLine
 10
110.947678
 20
98.983712
 30
0.0
 11
112.967675
 21
98.983712
 31
0.0
  0
LINE
  5
402
100
AcDbEntity
  8
0
  6
Continuous
 62
   174
100
AcDbLine
 10
192.967675
 20
102.899943
 30
0.0
 11
190.947678
 21
102.899943
 31
0.0
  0
LINE
  5
403
100
AcDbEntity
  8
0
  6
HIDDEN
 62
   174
100
AcDbLine
 10
110.947678
 20
104.431391
 30
0.0
 11
110.957677
 21
104.436623
 31
0.0
  0
LINE
  5
404
100
AcDbEntity
  8
0
  6
HIDDEN
 62
   174
100
AcDbLine
 10
108.957677
 20
97.91942
 30
0.0
 11
108.967675
 21
97.923237
 31
0.0
  0
LWPOLYLINE
  5
405
100
AcDbEntity
  8
0
  6
Continuous
 62
   174
100
AcDbPolyline
 90
        3
 70
   128
 10
110.947678
 20
103.414231
 10
110.947677
 20
103.418852
 10
110.947678
 20
103.423473
  0
LINE
  5
406
100
AcDbEntity
  8
0
  6
Continuous
 62
   174
100
AcDbLine
 10
110.947678
 20
94.03009
 30
0.0
 11
110.957677
 21
94.020849
 31
0.0
  0
LINE
  5
407
100
AcDbEntity
  8
0
  6
Continuous
 62
   174
100
AcDbLine
 10
192.957677
 20
102.903032
 30
0.0
 11
192.967675
 21
102.899943
 31
0.0
  0
LINE
  5
408
100
AcDbEntity
  8
0
  6
HIDDEN
 62
   174
100
AcDbLine
 10
110.947678
 20
93.684705
 30
0.0
 11
112.967675
 21
93.684705
 31
0.0
  0
LINE
  5
409
100
AcDbEntity
  8
0
  6
Continuous
 62
   174
100
AcDbLine
 10
186.957677
 20
100.690785
 30
0.0
 11
186.957677
 21
102.906015
 31
0.0
  0
LINE
  5
40A
100
AcDbEntity
  8
0
  6
Continuous
 62
   174
100
AcDbLine
 10
112.957677
 20
95.197459
 30
0.0
 11
112.967675
 21
95.205067
 31
0.0
  0
LINE
  5
40B
100
AcDbEntity
  8
0
  6
Continuous
 62
   174
100
AcDbLine
 10
186.957677
 20
104.901363
 30
0.0
 11
186.947678
 21
104.895486
 31
0.0
  0
LINE
  5
40C
100
AcDbEntity
  8
0
  6
HIDDEN
 62
   174
100
AcDbLine
 10
108.967675
 20
107.320439
 30
0.0
 11
108.957677
 21
107.32968
 31
0.0
  0
LINE
  5
40D
100
AcDbEntity
  8
0
  6
Continuous
 62
   174
100
AcDbLine
 10
112.967675
 20
103.414231
 30
0.0
 11
112.957677
 21
103.418048
 31
0.0
  0
LINE
  5
40E
100
AcDbEntity
  8
0
  6
Continuous
 62
   174
100
AcDbLine
 10
186.457677
 20
107.273355
 30
0.0
 11
183.957677
 21
107.273355
 31
0.0
  0
LINE
  5
40F
100
AcDbEntity
  8
0
  6
Continuous
 62
   174
100
AcDbLine
 10
108.957677
 20
98.991091
 30
0.0
 11
106.957677
 21
98.991091
 31
0.0
  0
LINE
  5
410
100
AcDbEntity
  8
0
  6
Continuous
 62
   174
100
AcDbLine
 10
192.967675
 20
102.890432
 30
0.0
 11
192.957677
 21
102.893522
 31
0.0
  0
LINE
  5
411
100
AcDbEntity
  8
0
  6
HIDDEN
 62
   174
100
AcDbLine
 10
110.947678
 20
107.841309
 30
0.0
 11
112.967675
 21
107.841309
 31
0.0
  0
LINE
  5
412
100
AcDbEntity
  8
0
  6
Continuous
 62
   174
100
AcDbLine
 10
186.957677
 20
107.534673
 30
0.0
 11
186.957677
 21
107.885397
 31
0.0
  0
LINE
  5
413
100
AcDbEntity
  8
0
  6
HIDDEN
 62
   174
100
AcDbLine
 10
106.947678
 20
97.93248
 30
0.0
 11
108.967675
 21
97.93248
 31
0.0
  0
LINE
  5
414
100
AcDbEntity
  8
0
  6
Continuous
 62
   174
100
AcDbLine
 10
110.947678
 20
103.423473
 30
0.0
 11
112.967675
 21
103.423473
 31
0.0
  0
LINE
  5
415
100
AcDbEntity
  8
0
  6
Continuous
 62
   174
100
AcDbLine
 10
112.957677
 20
106.811581
 30
0.0
 11
110.957677
 21
106.811581
 31
0.0
  0
LINE
  5
416
100
AcDbEntity
  8
0
  6
HIDDEN
 62
   174
100
AcDbLine
 10
108.957677
 20
100.122532
 30
0.0
 11
108.957677
 21
97.941291
 31
0.0
  0
LINE
  5
417
100
AcDbEntity
  8
0
  6
HIDDEN
 62
   174
100
AcDbLine
 10
106.947678
 20
102.353277
 30
0.0
 11
106.957677
 21
102.35562
 31
0.0
  0
LINE
  5
418
100
AcDbEntity
  8
0
  6
Continuous
 62
   174
100
AcDbLine
 10
186.947678
 20
104.903576
 30
0.0
 11
186.957677
 21
104.909453
 31
0.0
  0
LINE
  5
419
100
AcDbEntity
  8
0
  6
HIDDEN
 62
   174
100
AcDbLine
 10
188.967675
 20
102.890432
 30
0.0
 11
186.947678
 21
102.890432
 31
0.0
  0
LINE
  5
41A
100
AcDbEntity
  8
0
  6
Continuous
 62
   174
100
AcDbLine
 10
110.957677
 20
93.486189
 30
0.0
 11
110.957677
 21
93.507645
 31
0.0
  0
LINE
  5
41B
100
AcDbEntity
  8
0
  6
Continuous
 62
   174
100
AcDbLine
 10
190.957677
 20
107.873353
 30
0.0
 11
192.957677
 21
107.873353
 31
0.0
  0
LINE
  5
41C
100
AcDbEntity
  8
0
  6
HIDDEN
 62
   174
100
AcDbLine
 10
106.947678
 20
105.334145
 30
0.0
 11
108.967675
 21
105.334145
 31
0.0
  0
LINE
  5
41D
100
AcDbEntity
  8
0
  6
Continuous
 62
   174
100
AcDbLine
 10
110.947678
 20
96.906797
 30
0.0
 11
112.967675
 21
96.906797
 31
0.0
  0
LINE
  5
41E
100
AcDbEntity
  8
0
  6
Continuous
 62
   174
100
AcDbLine
 10
110.457677
 20
107.273355
 30
0.0
 11
109.457677
 21
107.273355
 31
0.0
  0
LWPOLYLINE
  5
41F
100
AcDbEntity
  8
0
  6
Continuous
 62
   174
100
AcDbPolyline
 90
        3
 70
   128
 10
112.967675
 20
103.423473
 10
112.967677
 20
103.418852
 10
112.967675
 20
103.414231
  0
LINE
  5
420
100
AcDbEntity
  8
0
  6
Continuous
 62
   174
100
AcDbLine
 10
186.947678
 20
96.451224
 30
0.0
 11
186.957677
 21
96.445347
 31
0.0
  0
LINE
  5
421
100
AcDbEntity
  8
0
  6
HIDDEN
 62
   174
100
AcDbLine
 10
106.957677
 20
96.018791
 30
0.0
 11
106.957677
 21
97.932157
 31
0.0
  0
LINE
  5
422
100
AcDbEntity
  8
0
  6
HIDDEN
 62
   174
100
AcDbLine
 10
110.957677
 20
104.445145
 30
0.0
 11
112.957677
 21
104.445145
 31
0.0
  0
LINE
  5
423
100
AcDbEntity
  8
0
  6
Continuous
 62
   174
100
AcDbLine
 10
188.957677
 20
107.885397
 30
0.0
 11
188.957677
 21
107.534673
 31
0.0
  0
LINE
  5
424
100
AcDbEntity
  8
0
  6
HIDDEN
 62
   174
100
AcDbLine
 10
112.957677
 20
104.436623
 30
0.0
 11
110.957677
 21
104.436623
 31
0.0
  0
LINE
  5
425
100
AcDbEntity
  8
0
  6
HIDDEN
 62
   174
100
AcDbLine
 10
110.957677
 20
96.006079
 30
0.0
 11
112.957677
 21
96.006079
 31
0.0
  0
LINE
  5
426
100
AcDbEntity
  8
0
  6
HIDDEN
 62
   174
100
AcDbLine
 10
106.947678
 20
96.012566
 30
0.0
 11
108.967675
 21
96.012566
 31
0.0
  0
LINE
  5
427
100
AcDbEntity
  8
0
  6
HIDDEN
 62
   174
100
AcDbLine
 10
108.957677
 20
107.863304
 30
0.0
 11
108.957677
 21
107.341786
 31
0.0
  0
LINE
  5
428
100
AcDbEntity
  8
0
  6
Continuous
 62
   174
100
AcDbLine
 10
108.957677
 20
106.818568
 30
0.0
 11
108.957677
 21
105.360442
 31
0.0
  0
LINE
  5
429
100
AcDbEntity
  8
0
  6
HIDDEN
 62
   174
100
AcDbLine
 10
108.957677
 20
100.109944
 30
0.0
 11
108.967675
 21
100.11072
 31
0.0
  0
LINE
  5
42A
100
AcDbEntity
  8
0
  6
HIDDEN
 62
   174
100
AcDbLine
 10
110.947678
 20
100.11072
 30
0.0
 11
110.957677
 21
100.109944
 31
0.0
  0
LINE
  5
42B
100
AcDbEntity
  8
0
  6
HIDDEN
 62
   174
100
AcDbLine
 10
130.475729
 20
89.688355
 30
0.0
 11
145.475904
 21
89.688355
 31
0.0
  0
LINE
  5
42C
100
AcDbEntity
  8
0
  6
HIDDEN
 62
   174
100
AcDbLine
 10
192.957677
 20
96.450026
 30
0.0
 11
192.957677
 21
94.864229
 31
0.0
  0
LINE
  5
42D
100
AcDbEntity
  8
0
  6
Continuous
 62
   174
100
AcDbLine
 10
106.957677
 20
94.01703
 30
0.0
 11
106.947678
 21
94.026271
 31
0.0
  0
LINE
  5
42E
100
AcDbEntity
  8
0
  6
HIDDEN
 62
   174
100
AcDbLine
 10
110.947678
 20
97.923237
 30
0.0
 11
112.967675
 21
97.923237
 31
0.0
  0
LINE
  5
42F
100
AcDbEntity
  8
0
  6
HIDDEN
 62
   174
100
AcDbLine
 10
106.957677
 20
102.377699
 30
0.0
 11
106.957677
 21
104.448901
 31
0.0
  0
LINE
  5
430
100
AcDbEntity
  8
0
  6
HIDDEN
 62
   174
100
AcDbLine
 10
186.957677
 20
106.513305
 30
0.0
 11
186.957677
 21
107.531487
 31
0.0
  0
LINE
  5
431
100
AcDbEntity
  8
0
  6
Continuous
 62
   174
100
AcDbLine
 10
106.947678
 20
98.983712
 30
0.0
 11
108.967675
 21
98.983712
 31
0.0
  0
LINE
  5
432
100
AcDbEntity
  8
0
  6
Continuous
 62
   174
100
AcDbLine
 10
110.947678
 20
103.423473
 30
0.0
 11
110.957677
 21
103.427291
 31
0.0
  0
LINE
  5
433
100
AcDbEntity
  8
0
  6
Continuous
 62
   174
100
AcDbLine
 10
115.957677
 20
94.086307
 30
0.0
 11
115.957677
 21
107.285492
 31
0.0
  0
LINE
  5
434
100
AcDbEntity
  8
0
  6
HIDDEN
 62
   174
100
AcDbLine
 10
186.957677
 20
94.864229
 30
0.0
 11
186.957677
 21
96.450026
 31
0.0
  0
LINE
  5
435
100
AcDbEntity
  8
0
  6
HIDDEN
 62
   174
100
AcDbLine
 10
108.957677
 20
102.35562
 30
0.0
 11
108.967675
 21
102.353277
 31
0.0
  0
LINE
  5
436
100
AcDbEntity
  8
0
  6
Continuous
 62
   174
100
AcDbLine
 10
110.957677
 20
96.901566
 30
0.0
 11
110.947678
 21
96.906797
 31
0.0
  0
LINE
  5
437
100
AcDbEntity
  8
0
  6
Continuous
 62
   174
100
AcDbLine
 10
186.957677
 20
98.465783
 30
0.0
 11
186.957677
 21
100.680801
 31
0.0
  0
LINE
  5
438
100
AcDbEntity
  8
0
  6
Continuous
 62
   174
100
AcDbLine
 10
188.957677
 20
104.909453
 30
0.0
 11
186.957677
 21
104.909453
 31
0.0
  0
LINE
  5
439
100
AcDbEntity
  8
0
  6
Continuous
 62
   174
100
AcDbLine
 10
186.957677
 20
102.915362
 30
0.0
 11
186.957677
 21
104.9137
 31
0.0
  0
LINE
  5
43A
100
AcDbEntity
  8
0
  6
HIDDEN
 62
   174
100
AcDbLine
 10
106.957677
 20
94.55323
 30
0.0
 11
106.957677
 21
96.011144
 31
0.0
  0
LINE
  5
43B
100
AcDbEntity
  8
0
  6
Continuous
 62
   174
100
AcDbLine
 10
190.947678
 20
98.456278
 30
0.0
 11
190.957677
 21
98.453189
 31
0.0
  0
LINE
  5
43C
100
AcDbEntity
  8
0
  6
Continuous
 62
   174
100
AcDbLine
 10
188.967675
 20
96.443134
 30
0.0
 11
186.947678
 21
96.443134
 31
0.0
  0
LINE
  5
43D
100
AcDbEntity
  8
0
  6
HIDDEN
 62
   174
100
AcDbLine
 10
106.956204
 20
95.19858
 30
0.0
 11
108.95915
 21
95.19858
 31
0.0
  0
LINE
  5
43E
100
AcDbEntity
  8
0
  6
HIDDEN
 62
   174
100
AcDbLine
 10
106.947678
 20
101.226021
 30
0.0
 11
108.967675
 21
101.226021
 31
0.0
  0
LINE
  5
43F
100
AcDbEntity
  8
0
  6
HIDDEN
 62
   174
100
AcDbLine
 10
106.947678
 20
94.54365
 30
0.0
 11
108.967675
 21
94.54365
 31
0.0
  0
LINE
  5
440
100
AcDbEntity
  8
0
  6
Continuous
 62
   174
100
AcDbLine
 10
108.957677
 20
106.811581
 30
0.0
 11
106.957677
 21
106.811581
 31
0.0
  0
LINE
  5
441
100
AcDbEntity
  8
0
  6
Continuous
 62
   174
100
AcDbLine
 10
112.957677
 20
98.991091
 30
0.0
 11
112.967675
 21
98.993434
 31
0.0
  0
LINE
  5
442
100
AcDbEntity
  8
0
  6
Continuous
 62
   174
100
AcDbLine
 10
112.957677
 20
96.914188
 30
0.0
 11
112.957677
 21
95.210279
 31
0.0
  0
LINE
  5
443
100
AcDbEntity
  8
0
  6
HIDDEN
 62
   174
100
AcDbLine
 10
188.967675
 20
98.456278
 30
0.0
 11
186.947678
 21
98.456278
 31
0.0
  0
LINE
  5
444
100
AcDbEntity
  8
0
  6
Continuous
 62
   174
100
AcDbLine
 10
106.957677
 20
96.922897
 30
0.0
 11
106.957677
 21
98.993887
 31
0.0
  0
LINE
  5
445
100
AcDbEntity
  8
0
  6
HIDDEN
 62
   174
100
AcDbLine
 10
106.957677
 20
93.507645
 30
0.0
 11
106.957677
 21
93.68545
 31
0.0
  0
LINE
  5
446
100
AcDbEntity
  8
0
  6
Continuous
 62
   174
100
AcDbLine
 10
108.967675
 20
94.026271
 30
0.0
 11
108.957677
 21
94.01703
 31
0.0
  0
LINE
  5
447
100
AcDbEntity
  8
0
  6
HIDDEN
 62
   174
100
AcDbLine
 10
108.957677
 20
102.36814
 30
0.0
 11
108.957677
 21
100.132517
 31
0.0
  0
LINE
  5
448
100
AcDbEntity
  8
0
  6
HIDDEN
 62
   174
100
AcDbLine
 10
112.957677
 20
94.535129
 30
0.0
 11
110.957677
 21
94.535129
 31
0.0
  0
LINE
  5
449
100
AcDbEntity
  8
0
  6
Continuous
 62
   174
100
AcDbLine
 10
188.957677
 20
93.473357
 30
0.0
 11
186.957677
 21
93.473357
 31
0.0
  0
LINE
  5
44A
100
AcDbEntity
  8
0
  6
HIDDEN
 62
   174
100
AcDbLine
 10
106.947678
 20
104.431391
 30
0.0
 11
108.967675
 21
104.431391
 31
0.0
  0
LINE
  5
44B
100
AcDbEntity
  8
0
  6
Continuous
 62
   174
100
AcDbLine
 10
106.957677
 20
98.981369
 30
0.0
 11
106.947678
 21
98.983712
 31
0.0
  0
LINE
  5
44C
100
AcDbEntity
  8
0
  6
HIDDEN
 62
   174
100
AcDbLine
 10
108.957677
 20
102.35562
 30
0.0
 11
106.957677
 21
102.35562
 31
0.0
  0
LWPOLYLINE
  5
44D
100
AcDbEntity
  8
0
  6
Continuous
 62
   174
100
AcDbPolyline
 90
        2
 70
   129
 10
192.967675
 20
93.483355
 10
192.967677
 20
93.483355
  0
LINE
  5
44E
100
AcDbEntity
  8
0
  6
Continuous
 62
   174
100
AcDbLine
 10
188.957677
 20
102.903032
 30
0.0
 11
186.957677
 21
102.903032
 31
0.0
  0
LINE
  5
44F
100
AcDbEntity
  8
0
  6
Continuous
 62
   174
100
AcDbLine
 10
192.957677
 20
102.903032
 30
0.0
 11
190.957677
 21
102.903032
 31
0.0
  0
LINE
  5
450
100
AcDbEntity
  8
0
  6
Continuous
 62
   174
100
AcDbLine
 10
186.957677
 20
104.921772
 30
0.0
 11
186.957677
 21
106.50757
 31
0.0
  0
LINE
  5
451
100
AcDbEntity
  8
0
  6
Continuous
 62
   174
100
AcDbLine
 10
112.967675
 20
93.504625
 30
0.0
 11
112.957677
 21
93.494657
 31
0.0
  0
LINE
  5
452
100
AcDbEntity
  8
0
  6
HIDDEN
 62
   174
100
AcDbLine
 10
112.957677
 20
107.851277
 30
0.0
 11
112.967675
 21
107.841309
 31
0.0
  0
LINE
  5
453
100
AcDbEntity
  8
0
  6
HIDDEN
 62
   174
100
AcDbLine
 10
110.957677
 20
107.32968
 30
0.0
 11
112.957677
 21
107.32968
 31
0.0
  0
LINE
  5
454
100
AcDbEntity
  8
0
  6
Continuous
 62
   174
100
AcDbLine
 10
110.947678
 20
105.341754
 30
0.0
 11
112.967675
 21
105.341754
 31
0.0
  0
LINE
  5
455
100
AcDbEntity
  8
0
  6
Continuous
 62
   174
100
AcDbLine
 10
108.967675
 20
105.334145
 30
0.0
 11
108.957677
 21
105.340631
 31
0.0
  0
LINE
  5
456
100
AcDbEntity
  8
0
  6
Continuous
 62
   174
100
AcDbLine
 10
106.457677
 20
107.385547
 30
0.0
 11
106.457677
 21
93.986252
 31
0.0
  0
LINE
  5
457
100
AcDbEntity
  8
0
  6
Continuous
 62
   174
100
AcDbLine
 10
110.957677
 20
96.901566
 30
0.0
 11
112.957677
 21
96.901566
 31
0.0
  0
LINE
  5
458
100
AcDbEntity
  8
0
  6
HIDDEN
 62
   174
100
AcDbLine
 10
112.967675
 20
100.12069
 30
0.0
 11
112.957677
 21
100.119914
 31
0.0
  0
LINE
  5
459
100
AcDbEntity
  8
0
  6
Continuous
 62
   174
100
AcDbLine
 10
190.957677
 20
102.915362
 30
0.0
 11
190.957677
 21
104.9137
 31
0.0
  0
LINE
  5
45A
100
AcDbEntity
  8
0
  6
Continuous
 62
   174
100
AcDbLine
 10
112.957677
 20
107.674068
 30
0.0
 11
110.957677
 21
107.674068
 31
0.0
  0
LINE
  5
45B
100
AcDbEntity
  8
0
  6
Continuous
 62
   174
100
AcDbLine
 10
190.957677
 20
104.901363
 30
0.0
 11
190.947678
 21
104.895486
 31
0.0
  0
LINE
  5
45C
100
AcDbEntity
  8
0
  6
Continuous
 62
   174
100
AcDbLine
 10
106.957677
 20
94.01703
 30
0.0
 11
108.957677
 21
94.01703
 31
0.0
  0
LINE
  5
45D
100
AcDbEntity
  8
0
  6
HIDDEN
 62
   174
100
AcDbLine
 10
106.947678
 20
95.205067
 30
0.0
 11
108.967675
 21
95.205067
 31
0.0
  0
LINE
  5
45E
100
AcDbEntity
  8
0
  6
HIDDEN
 62
   174
100
AcDbLine
 10
108.957677
 20
107.851277
 30
0.0
 11
108.967675
 21
107.841309
 31
0.0
  0
LINE
  5
45F
100
AcDbEntity
  8
0
  6
HIDDEN
 62
   174
100
AcDbLine
 10
192.967675
 20
102.890432
 30
0.0
 11
190.947678
 21
102.890432
 31
0.0
  0
LINE
  5
460
100
AcDbEntity
  8
0
  6
Continuous
 62
   174
100
AcDbLine
 10
190.957677
 20
107.873353
 30
0.0
 11
190.947678
 21
107.863355
 31
0.0
  0
LINE
  5
461
100
AcDbEntity
  8
0
  6
Continuous
 62
   174
100
AcDbLine
 10
192.967675
 20
96.443134
 30
0.0
 11
190.947678
 21
96.443134
 31
0.0
  0
LINE
  5
462
100
AcDbEntity
  8
0
  6
HIDDEN
 62
   174
100
AcDbLine
 10
106.957677
 20
96.006079
 30
0.0
 11
108.957677
 21
96.006079
 31
0.0
  0
LINE
  5
463
100
AcDbEntity
  8
0
  6
HIDDEN
 62
   174
100
AcDbLine
 10
106.947678
 20
93.682362
 30
0.0
 11
108.967675
 21
93.682362
 31
0.0
  0
LINE
  5
464
100
AcDbEntity
  8
0
  6
HIDDEN
 62
   174
100
AcDbLine
 10
112.967675
 20
97.93248
 30
0.0
 11
112.957677
 21
97.928662
 31
0.0
  0
LINE
  5
465
100
AcDbEntity
  8
0
  6
Continuous
 62
   174
100
AcDbLine
 10
109.457677
 20
94.073355
 30
0.0
 11
110.457677
 21
94.073355
 31
0.0
  0
LWPOLYLINE
  5
466
100
AcDbEntity
  8
0
  6
Continuous
 62
   174
100
AcDbPolyline
 90
        3
 70
   128
 10
108.967675
 20
103.423473
 10
108.967677
 20
103.418852
 10
108.967675
 20
103.414231
  0
LINE
  5
467
100
AcDbEntity
  8
0
  6
HIDDEN
 62
   174
100
AcDbLine
 10
192.957677
 20
98.456224
 30
0.0
 11
192.957677
 21
96.458098
 31
0.0
  0
LINE
  5
468
100
AcDbEntity
  8
0
  6
HIDDEN
 62
   174
100
AcDbLine
 10
108.957677
 20
93.672642
 30
0.0
 11
106.957677
 21
93.672642
 31
0.0
  0
LINE
  5
469
100
AcDbEntity
  8
0
  6
Continuous
 62
   174
100
AcDbLine
 10
110.957677
 20
106.823667
 30
0.0
 11
110.957677
 21
107.6838
 31
0.0
  0
LINE
  5
46A
100
AcDbEntity
  8
0
  6
HIDDEN
 62
   174
100
AcDbLine
 10
188.964426
 20
107.512997
 30
0.0
 11
186.950928
 21
107.512997
 31
0.0
  0
LINE
  5
46B
100
AcDbEntity
  8
0
  6
HIDDEN
 62
   174
100
AcDbLine
 10
106.947678
 20
94.54365
 30
0.0
 11
106.957677
 21
94.535129
 31
0.0
  0
LINE
  5
46C
100
AcDbEntity
  8
0
  6
HIDDEN
 62
   174
100
AcDbLine
 10
108.957677
 20
95.998469
 30
0.0
 11
108.967675
 21
96.004956
 31
0.0
  0
LINE
  5
46D
100
AcDbEntity
  8
0
  6
Continuous
 62
   174
100
AcDbLine
 10
117.957677
 20
111.673355
 30
0.0
 11
117.957677
 21
89.673355
 31
0.0
  0
LINE
  5
46E
100
AcDbEntity
  8
0
  6
Continuous
 62
   174
100
AcDbLine
 10
112.957677
 20
95.197459
 30
0.0
 11
110.957677
 21
95.197459
 31
0.0
  0
LINE
  5
46F
100
AcDbEntity
  8
0
  6
HIDDEN
 62
   174
100
AcDbLine
 10
188.96041
 20
94.853584
 30
0.0
 11
186.954944
 21
94.853584
 31
0.0
  0
LINE
  5
470
100
AcDbEntity
  8
0
  6
HIDDEN
 62
   174
100
AcDbLine
 10
106.947678
 20
94.548882
 30
0.0
 11
108.967675
 21
94.548882
 31
0.0
  0
LINE
  5
471
100
AcDbEntity
  8
0
  6
HIDDEN
 62
   174
100
AcDbLine
 10
110.947678
 20
100.11072
 30
0.0
 11
112.967675
 21
100.11072
 31
0.0
  0
LINE
  5
472
100
AcDbEntity
  8
0
  6
HIDDEN
 62
   174
100
AcDbLine
 10
186.957677
 20
93.840099
 30
0.0
 11
186.957677
 21
94.858281
 31
0.0
  0
LINE
  5
473
100
AcDbEntity
  8
0
  6
Continuous
 62
   174
100
AcDbLine
 10
108.957677
 20
95.197459
 30
0.0
 11
106.957677
 21
95.197459
 31
0.0
  0
LINE
  5
474
100
AcDbEntity
  8
0
  6
Continuous
 62
   174
100
AcDbLine
 10
188.957677
 20
106.50757
 30
0.0
 11
188.957677
 21
104.921772
 31
0.0
  0
LINE
  5
475
100
AcDbEntity
  8
0
  6
Continuous
 62
   174
100
AcDbLine
 10
110.947678
 20
107.664349
 30
0.0
 11
110.957677
 21
107.674068
 31
0.0
  0
LINE
  5
476
100
AcDbEntity
  8
0
  6
HIDDEN
 62
   174
100
AcDbLine
 10
106.957677
 20
107.852053
 30
0.0
 11
108.957677
 21
107.852053
 31
0.0
  0
LINE
  5
477
100
AcDbEntity
  8
0
  6
Continuous
 62
   174
100
AcDbLine
 10
112.957677
 20
96.910087
 30
0.0
 11
112.967675
 21
96.915319
 31
0.0
  0
LWPOLYLINE
  5
478
100
AcDbEntity
  8
0
  6
Continuous
 62
   174
100
AcDbPolyline
 90
        3
 70
   128
 10
106.947678
 20
94.026271
 10
106.947677
 20
94.02818
 10
106.947678
 20
94.03009
  0
LINE
  5
479
100
AcDbEntity
  8
0
  6
Continuous
 62
   174
100
AcDbLine
 10
192.957677
 20
93.473357
 30
0.0
 11
192.967675
 21
93.483355
 31
0.0
  0
LINE
  5
47A
100
AcDbEntity
  8
0
  6
Continuous
 62
   174
100
AcDbLine
 10
110.947678
 20
101.235991
 30
0.0
 11
112.967675
 21
101.235991
 31
0.0
  0
LINE
  5
47B
100
AcDbEntity
  8
0
  6
HIDDEN
 62
   174
100
AcDbLine
 10
110.947678
 20
95.205067
 30
0.0
 11
112.967675
 21
95.205067
 31
0.0
  0
LINE
  5
47C
100
AcDbEntity
  8
0
  6
Continuous
 62
   174
100
AcDbLine
 10
106.947678
 20
105.341754
 30
0.0
 11
108.967675
 21
105.341754
 31
0.0
  0
LINE
  5
47D
100
AcDbEntity
  8
0
  6
Continuous
 62
   174
100
AcDbLine
 10
186.957677
 20
96.437257
 30
0.0
 11
186.947678
 21
96.443134
 31
0.0
  0
LINE
  5
47E
100
AcDbEntity
  8
0
  6
Continuous
 62
   174
100
AcDbLine
 10
188.967675
 20
96.443134
 30
0.0
 11
188.957677
 21
96.437257
 31
0.0
  0
LINE
  5
47F
100
AcDbEntity
  8
0
  6
HIDDEN
 62
   174
100
AcDbLine
 10
192.964426
 20
93.833714
 30
0.0
 11
190.950928
 21
93.833714
 31
0.0
  0
LINE
  5
480
100
AcDbEntity
  8
0
  6
Continuous
 62
   174
100
AcDbLine
 10
192.967675
 20
104.903576
 30
0.0
 11
190.947678
 21
104.903576
 31
0.0
  0
LINE
  5
481
100
AcDbEntity
  8
0
  6
Continuous
 62
   174
100
AcDbLine
 10
188.967675
 20
107.509906
 30
0.0
 11
188.957677
 21
107.519415
 31
0.0
  0
LINE
  5
482
100
AcDbEntity
  8
0
  6
Continuous
 62
   174
100
AcDbLine
 10
183.957677
 20
107.273355
 30
0.0
 11
181.957677
 21
106.118655
 31
0.0
  0
LINE
  5
483
100
AcDbEntity
  8
0
  6
Continuous
 62
   174
100
AcDbLine
 10
106.957677
 20
106.806348
 30
0.0
 11
106.947678
 21
106.797828
 31
0.0
  0
LINE
  5
484
100
AcDbEntity
  8
0
  6
Continuous
 62
   174
100
AcDbLine
 10
110.957677
 20
94.033836
 30
0.0
 11
110.957677
 21
95.203694
 31
0.0
  0
LINE
  5
485
100
AcDbEntity
  8
0
  6
Continuous
 62
   174
100
AcDbLine
 10
110.457677
 20
107.385547
 30
0.0
 11
110.457677
 21
93.986252
 31
0.0
  0
LINE
  5
486
100
AcDbEntity
  8
0
  6
Continuous
 62
   174
100
AcDbLine
 10
186.957677
 20
93.840099
 30
0.0
 11
186.957677
 21
94.858281
 31
0.0
  0
LINE
  5
487
100
AcDbEntity
  8
0
  6
HIDDEN
 62
   174
100
AcDbLine
 10
106.957677
 20
93.687999
 30
0.0
 11
106.957677
 21
94.547919
 31
0.0
  0
LINE
  5
488
100
AcDbEntity
  8
0
  6
HIDDEN
 62
   174
100
AcDbLine
 10
188.967675
 20
104.895486
 30
0.0
 11
186.947678
 21
104.895486
 31
0.0
  0
LINE
  5
489
100
AcDbEntity
  8
0
  6
HIDDEN
 62
   174
100
AcDbLine
 10
110.947678
 20
94.548882
 30
0.0
 11
112.967675
 21
94.548882
 31
0.0
  0
LINE
  5
48A
100
AcDbEntity
  8
0
  6
HIDDEN
 62
   174
100
AcDbLine
 10
106.957677
 20
104.445145
 30
0.0
 11
108.957677
 21
104.445145
 31
0.0
  0
LINE
  5
48B
100
AcDbEntity
  8
0
  6
Continuous
 62
   174
100
AcDbLine
 10
186.957677
 20
96.437257
 30
0.0
 11
188.957677
 21
96.437257
 31
0.0
  0
LINE
  5
48C
100
AcDbEntity
  8
0
  6
HIDDEN
 62
   174
100
AcDbLine
 10
108.957677
 20
94.535129
 30
0.0
 11
108.967675
 21
94.54365
 31
0.0
  0
LINE
  5
48D
100
AcDbEntity
  8
0
  6
Continuous
 62
   174
100
AcDbLine
 10
110.947678
 20
101.235991
 30
0.0
 11
110.957677
 21
101.236766
 31
0.0
  0
LINE
  5
48E
100
AcDbEntity
  8
0
  6
Continuous
 62
   174
100
AcDbLine
 10
108.957677
 20
103.427291
 30
0.0
 11
106.957677
 21
103.427291
 31
0.0
  0
LINE
  5
48F
100
AcDbEntity
  8
0
  6
Continuous
 62
   174
100
AcDbLine
 10
117.957677
 20
111.673355
 30
0.0
 11
181.957677
 21
111.673355
 31
0.0
  0
LINE
  5
490
100
AcDbEntity
  8
0
  6
Continuous
 62
   174
100
AcDbLine
 10
106.957677
 20
105.360442
 30
0.0
 11
106.957677
 21
106.818568
 31
0.0
  0
LINE
  5
491
100
AcDbEntity
  8
0
  6
Continuous
 62
   174
100
AcDbLine
 10
110.957677
 20
103.439642
 30
0.0
 11
110.957677
 21
105.352795
 31
0.0
  0
LINE
  5
492
100
AcDbEntity
  8
0
  6
HIDDEN
 62
   174
100
AcDbLine
 10
110.947678
 20
101.226021
 30
0.0
 11
112.967675
 21
101.226021
 31
0.0
  0
LINE
  5
493
100
AcDbEntity
  8
0
  6
Continuous
 62
   174
100
AcDbLine
 10
112.957677
 20
105.348241
 30
0.0
 11
110.957677
 21
105.348241
 31
0.0
  0
LINE
  5
494
100
AcDbEntity
  8
0
  6
HIDDEN
 62
   174
100
AcDbLine
 10
110.947678
 20
93.682362
 30
0.0
 11
110.957677
 21
93.672642
 31
0.0
  0
LINE
  5
495
100
AcDbEntity
  8
0
  6
HIDDEN
 62
   174
100
AcDbLine
 10
106.947678
 20
104.431391
 30
0.0
 11
106.957677
 21
104.436623
 31
0.0
  0
LINE
  5
496
100
AcDbEntity
  8
0
  6
HIDDEN
 62
   174
100
AcDbLine
 10
186.957677
 20
100.690785
 30
0.0
 11
186.957677
 21
102.906015
 31
0.0
  0
LINE
  5
497
100
AcDbEntity
  8
0
  6
Continuous
 62
   174
100
AcDbLine
 10
188.957677
 20
93.837125
 30
0.0
 11
188.957677
 21
93.486189
 31
0.0
  0
LINE
  5
498
100
AcDbEntity
  8
0
  6
Continuous
 62
   174
100
AcDbLine
 10
186.957677
 20
107.519415
 30
0.0
 11
188.957677
 21
107.519415
 31
0.0
  0
LINE
  5
499
100
AcDbEntity
  8
0
  6
Continuous
 62
   174
100
AcDbLine
 10
106.947678
 20
103.423473
 30
0.0
 11
106.957677
 21
103.427291
 31
0.0
  0
LINE
  5
49A
100
AcDbEntity
  8
0
  6
HIDDEN
 62
   174
100
AcDbLine
 10
192.957677
 20
107.531487
 30
0.0
 11
192.957677
 21
106.513305
 31
0.0
  0
LINE
  5
49B
100
AcDbEntity
  8
0
  6
Continuous
 62
   174
100
AcDbLine
 10
106.957677
 20
96.901566
 30
0.0
 11
106.947678
 21
96.906797
 31
0.0
  0
LINE
  5
49C
100
AcDbEntity
  8
0
  6
Continuous
 62
   174
100
AcDbLine
 10
110.957677
 20
107.686136
 30
0.0
 11
110.957677
 21
107.885397
 31
0.0
  0
LINE
  5
49D
100
AcDbEntity
  8
0
  6
HIDDEN
 62
   174
100
AcDbLine
 10
110.957677
 20
100.119914
 30
0.0
 11
112.957677
 21
100.119914
 31
0.0
  0
LINE
  5
49E
100
AcDbEntity
  8
0
  6
HIDDEN
 62
   174
100
AcDbLine
 10
110.948456
 20
93.504625
 30
0.0
 11
112.966897
 21
93.504625
 31
0.0
  0
LINE
  5
49F
100
AcDbEntity
  8
0
  6
HIDDEN
 62
   174
100
AcDbLine
 10
106.947678
 20
93.682362
 30
0.0
 11
106.957677
 21
93.672642
 31
0.0
  0
LINE
  5
4A0
100
AcDbEntity
  8
0
  6
HIDDEN
 62
   174
100
AcDbLine
 10
108.957677
 20
104.436623
 30
0.0
 11
106.957677
 21
104.436623
 31
0.0
  0
LINE
  5
4A1
100
AcDbEntity
  8
0
  6
HIDDEN
 62
   174
100
AcDbLine
 10
110.947678
 20
106.141643
 30
0.0
 11
110.957677
 21
106.149252
 31
0.0
  0
LINE
  5
4A2
100
AcDbEntity
  8
0
  6
Continuous
 62
   174
100
AcDbLine
 10
186.957677
 20
102.893522
 30
0.0
 11
188.957677
 21
102.893522
 31
0.0
  0
LINE
  5
4A3
100
AcDbEntity
  8
0
  6
HIDDEN
 62
   174
100
AcDbLine
 10
110.947678
 20
102.353277
 30
0.0
 11
112.967675
 21
102.353277
 31
0.0
  0
LINE
  5
4A4
100
AcDbEntity
  8
0
  6
Continuous
 62
   174
100
AcDbLine
 10
108.957677
 20
107.6838
 30
0.0
 11
108.957677
 21
106.823667
 31
0.0
  0
LINE
  5
4A5
100
AcDbEntity
  8
0
  6
Continuous
 62
   174
100
AcDbLine
 10
110.957677
 20
105.340631
 30
0.0
 11
110.947678
 21
105.334145
 31
0.0
  0
LINE
  5
4A6
100
AcDbEntity
  8
0
  6
HIDDEN
 62
   174
100
AcDbLine
 10
106.957677
 20
102.365341
 30
0.0
 11
106.947678
 21
102.362998
 31
0.0
  0
LINE
  5
4A7
100
AcDbEntity
  8
0
  6
Continuous
 62
   174
100
AcDbLine
 10
108.967675
 20
96.906797
 30
0.0
 11
108.957677
 21
96.901566
 31
0.0
  0
LINE
  5
4A8
100
AcDbEntity
  8
0
  6
Continuous
 62
   174
100
AcDbLine
 10
192.957677
 20
94.858281
 30
0.0
 11
192.957677
 21
93.840099
 31
0.0
  0
LWPOLYLINE
  5
4A9
100
AcDbEntity
  8
0
  6
HIDDEN
 62
   174
100
AcDbPolyline
 90
        2
 70
   129
 10
108.967675
 20
97.923237
 10
108.967677
 20
97.927859
  0
LINE
  5
4AA
100
AcDbEntity
  8
0
  6
Continuous
 62
   174
100
AcDbLine
 10
106.957677
 20
93.486189
 30
0.0
 11
106.957677
 21
93.507645
 31
0.0
  0
LINE
  5
4AB
100
AcDbEntity
  8
0
  6
HIDDEN
 62
   174
100
AcDbLine
 10
112.957677
 20
93.672642
 30
0.0
 11
110.957677
 21
93.672642
 31
0.0
  0
LINE
  5
4AC
100
AcDbEntity
  8
0
  6
HIDDEN
 62
   174
100
AcDbLine
 10
190.957677
 20
96.458098
 30
0.0
 11
190.957677
 21
98.456224
 31
0.0
  0
LWPOLYLINE
  5
4AD
100
AcDbEntity
  8
0
  6
Continuous
 62
   174
100
AcDbPolyline
 90
        2
 70
   129
 10
186.947678
 20
100.668355
 10
186.947677
 20
100.673355
  0
LINE
  5
4AE
100
AcDbEntity
  8
0
  6
Continuous
 62
   174
100
AcDbLine
 10
106.947678
 20
105.341754
 30
0.0
 11
106.957677
 21
105.348241
 31
0.0
  0
LINE
  5
4AF
100
AcDbEntity
  8
0
  6
HIDDEN
 62
   174
100
AcDbLine
 10
112.957677
 20
94.535129
 30
0.0
 11
112.967675
 21
94.54365
 31
0.0
  0
LINE
  5
4B0
100
AcDbEntity
  8
0
  6
HIDDEN
 62
   174
100
AcDbLine
 10
112.967675
 20
96.012566
 30
0.0
 11
112.957677
 21
96.006079
 31
0.0
  0
LINE
  5
4B1
100
AcDbEntity
  8
0
  6
Continuous
 62
   174
100
AcDbLine
 10
106.957677
 20
101.249266
 30
0.0
 11
106.957677
 21
103.430507
 31
0.0
  0
LINE
  5
4B2
100
AcDbEntity
  8
0
  6
Continuous
 62
   174
100
AcDbLine
 10
181.957677
 20
111.673355
 30
0.0
 11
181.957677
 21
89.673355
 31
0.0
  0
LINE
  5
4B3
100
AcDbEntity
  8
0
  6
Continuous
 62
   174
100
AcDbLine
 10
117.957677
 20
89.673355
 30
0.0
 11
181.957677
 21
89.673355
 31
0.0
  0
LINE
  5
4B4
100
AcDbEntity
  8
0
  6
Continuous
 62
   174
100
AcDbLine
 10
183.957677
 20
107.285492
 30
0.0
 11
183.957677
 21
94.086307
 31
0.0
  0
LINE
  5
4B5
100
AcDbEntity
  8
0
  6
Continuous
 62
   174
100
AcDbLine
 10
112.957677
 20
103.430507
 30
0.0
 11
112.957677
 21
101.249266
 31
0.0
  0
LINE
  5
4B6
100
AcDbEntity
  8
0
  6
Continuous
 62
   174
100
AcDbLine
 10
192.957677
 20
104.909453
 30
0.0
 11
192.967675
 21
104.903576
 31
0.0
  0
LINE
  5
4B7
100
AcDbEntity
  8
0
  6
Continuous
 62
   174
100
AcDbLine
 10
110.957677
 20
94.01703
 30
0.0
 11
110.947678
 21
94.026271
 31
0.0
  0
LINE
  5
4B8
100
AcDbEntity
  8
0
  6
Continuous
 62
   174
100
AcDbLine
 10
192.957677
 20
98.456224
 30
0.0
 11
192.957677
 21
96.458098
 31
0.0
  0
LINE
  5
4B9
100
AcDbEntity
  8
0
  6
Continuous
 62
   174
100
AcDbLine
 10
188.967675
 20
102.890432
 30
0.0
 11
188.957677
 21
102.893522
 31
0.0
  0
LINE
  5
4BA
100
AcDbEntity
  8
0
  6
HIDDEN
 62
   174
100
AcDbLine
 10
112.957677
 20
107.851277
 30
0.0
 11
110.957677
 21
107.851277
 31
0.0
  0
LINE
  5
4BB
100
AcDbEntity
  8
0
  6
HIDDEN
 62
   174
100
AcDbLine
 10
106.947678
 20
96.915319
 30
0.0
 11
108.967675
 21
96.915319
 31
0.0
  0
LINE
  5
4BC
100
AcDbEntity
  8
0
  6
HIDDEN
 62
   174
100
AcDbLine
 10
188.957677
 20
106.50757
 30
0.0
 11
188.957677
 21
104.921772
 31
0.0
  0
LINE
  5
4BD
100
AcDbEntity
  8
0
  6
HIDDEN
 62
   174
100
AcDbLine
 10
110.957677
 20
102.377699
 30
0.0
 11
110.957677
 21
104.448901
 31
0.0
  0
LINE
  5
4BE
100
AcDbEntity
  8
0
  6
HIDDEN
 62
   174
100
AcDbLine
 10
112.967675
 20
107.842085
 30
0.0
 11
112.957677
 21
107.852053
 31
0.0
  0
LINE
  5
4BF
100
AcDbEntity
  8
0
  6
HIDDEN
 62
   174
100
AcDbLine
 10
112.967675
 20
107.320439
 30
0.0
 11
112.957677
 21
107.32968
 31
0.0
  0
LINE
  5
4C0
100
AcDbEntity
  8
0
  6
Continuous
 62
   174
100
AcDbLine
 10
186.957677
 20
107.873353
 30
0.0
 11
188.957677
 21
107.873353
 31
0.0
  0
LINE
  5
4C1
100
AcDbEntity
  8
0
  6
HIDDEN
 62
   174
100
AcDbLine
 10
112.957677
 20
97.91942
 30
0.0
 11
110.957677
 21
97.91942
 31
0.0
  0
LINE
  5
4C2
100
AcDbEntity
  8
0
  6
HIDDEN
 62
   174
100
AcDbLine
 10
106.947678
 20
102.353277
 30
0.0
 11
108.967675
 21
102.353277
 31
0.0
  0
ENDBLK
  5
4C3
100
AcDbEntity
  8
0
100
AcDbBlockEnd
  0
BLOCK
  5
4C6
100
AcDbEntity
  8
0
100
AcDbBlockBegin
  2
*B4
 70
     0
 10
0.0
 20
0.0
 30
0.0
  3
*B4
  1

  0
LINE
  5
4C7
100
AcDbEntity
  8
0
  6
Continuous
 62
   174
100
AcDbLine
 10
188.957677
 20
145.364599
 30
0.0
 11
188.967675
 21
145.374597
 31
0.0
  0
LINE
  5
4C8
100
AcDbEntity
  8
0
  6
Continuous
 62
   174
100
AcDbLine
 10
188.957677
 20
145.718537
 30
0.0
 11
188.967675
 21
145.728046
 31
0.0
  0
LINE
  5
4C9
100
AcDbEntity
  8
0
  6
Continuous
 62
   174
100
AcDbLine
 10
110.947678
 20
148.806561
 30
0.0
 11
110.957677
 21
148.801329
 31
0.0
  0
LINE
  5
4CA
100
AcDbEntity
  8
0
  6
Continuous
 62
   174
100
AcDbLine
 10
108.967675
 20
148.79804
 30
0.0
 11
108.957677
 21
148.792808
 31
0.0
  0
LINE
  5
4CB
100
AcDbEntity
  8
0
  6
Continuous
 62
   174
100
AcDbLine
 10
106.957677
 20
148.792808
 30
0.0
 11
106.947678
 21
148.79804
 31
0.0
  0
LINE
  5
4CC
100
AcDbEntity
  8
0
  6
Continuous
 62
   174
100
AcDbLine
 10
110.957677
 20
145.364597
 30
0.0
 11
112.957677
 21
145.364597
 31
0.0
  0
LINE
  5
4CD
100
AcDbEntity
  8
0
  6
Continuous
 62
   174
100
AcDbLine
 10
110.957677
 20
148.792808
 30
0.0
 11
112.957677
 21
148.792808
 31
0.0
  0
LINE
  5
4CE
100
AcDbEntity
  8
0
  6
Continuous
 62
   174
100
AcDbLine
 10
192.957677
 20
154.794274
 30
0.0
 11
190.957677
 21
154.794274
 31
0.0
  0
LINE
  5
4CF
100
AcDbEntity
  8
0
  6
Continuous
 62
   174
100
AcDbLine
 10
112.957677
 20
145.364597
 30
0.0
 11
113.457677
 21
145.864597
 31
0.0
  0
LINE
  5
4D0
100
AcDbEntity
  8
0
  6
Continuous
 62
   174
100
AcDbLine
 10
113.457677
 20
159.264597
 30
0.0
 11
112.957677
 21
159.764597
 31
0.0
  0
LINE
  5
4D1
100
AcDbEntity
  8
0
  6
Continuous
 62
   174
100
AcDbLine
 10
186.936356
 20
159.743277
 30
0.0
 11
186.457677
 21
159.264597
 31
0.0
  0
LINE
  5
4D2
100
AcDbEntity
  8
0
  6
Continuous
 62
   174
100
AcDbLine
 10
108.957677
 20
145.364597
 30
0.0
 11
109.457677
 21
145.864597
 31
0.0
  0
CIRCLE
  5
4D3
100
AcDbEntity
  8
0
  6
Continuous
 62
   174
100
AcDbCircle
 10
161.957677
 20
168.564597
 30
0.0
 40
2.75
  0
LINE
  5
4D4
100
AcDbEntity
  8
0
  6
Continuous
 62
   174
100
AcDbLine
 10
108.957677
 20
147.088701
 30
0.0
 11
108.967675
 21
147.096309
 31
0.0
  0
LINE
  5
4D5
100
AcDbEntity
  8
0
  6
Continuous
 62
   174
100
AcDbLine
 10
188.967675
 20
148.334376
 30
0.0
 11
188.957677
 21
148.328499
 31
0.0
  0
LINE
  5
4D6
100
AcDbEntity
  8
0
  6
Continuous
 62
   174
100
AcDbLine
 10
186.95768
 20
159.764601
 30
0.0
 11
186.936356
 21
159.743277
 31
0.0
  0
LINE
  5
4D7
100
AcDbEntity
  8
0
  6
Continuous
 62
   174
100
AcDbLine
 10
190.95768
 20
159.764601
 30
0.0
 11
190.936356
 21
159.743277
 31
0.0
  0
LINE
  5
4D8
100
AcDbEntity
  8
0
  6
Continuous
 62
   174
100
AcDbLine
 10
186.957677
 20
150.354168
 30
0.0
 11
186.957677
 21
152.569186
 31
0.0
  0
LINE
  5
4D9
100
AcDbEntity
  8
0
  6
Continuous
 62
   174
100
AcDbLine
 10
190.957677
 20
154.784764
 30
0.0
 11
192.957677
 21
154.784764
 31
0.0
  0
LINE
  5
4DA
100
AcDbEntity
  8
0
  6
Continuous
 62
   174
100
AcDbLine
 10
106.457677
 20
145.864597
 30
0.0
 11
106.957677
 21
145.364597
 31
0.0
  0
LWPOLYLINE
  5
4DB
100
AcDbEntity
  8
0
  6
Continuous
 62
   174
100
AcDbPolyline
 90
        2
 70
   129
 10
186.947678
 20
145.374597
 10
186.947677
 20
145.374597
  0
LINE
  5
4DC
100
AcDbEntity
  8
0
  6
Continuous
 62
   174
100
AcDbLine
 10
110.957677
 20
147.082213
 30
0.0
 11
110.947678
 21
147.089822
 31
0.0
  0
LINE
  5
4DD
100
AcDbEntity
  8
0
  6
Continuous
 62
   174
100
AcDbLine
 10
110.957677
 20
145.908273
 30
0.0
 11
112.957677
 21
145.908273
 31
0.0
  0
LINE
  5
4DE
100
AcDbEntity
  8
0
  6
Continuous
 62
   174
100
AcDbLine
 10
190.957677
 20
148.328499
 30
0.0
 11
190.947678
 21
148.334376
 31
0.0
  0
LINE
  5
4DF
100
AcDbEntity
  8
0
  6
Continuous
 62
   174
100
AcDbLine
 10
110.457677
 20
145.864597
 30
0.0
 11
110.957677
 21
145.364597
 31
0.0
  0
LINE
  5
4E0
100
AcDbEntity
  8
0
  6
Continuous
 62
   174
100
AcDbLine
 10
110.947678
 20
145.921332
 30
0.0
 11
110.957677
 21
145.912091
 31
0.0
  0
LINE
  5
4E1
100
AcDbEntity
  8
0
  6
Continuous
 62
   174
100
AcDbLine
 10
189.457677
 20
159.264597
 30
0.0
 11
188.957673
 21
159.764601
 31
0.0
  0
LINE
  5
4E2
100
AcDbEntity
  8
0
  6
Continuous
 62
   174
100
AcDbLine
 10
190.936356
 20
159.743277
 30
0.0
 11
190.457677
 21
159.264597
 31
0.0
  0
LINE
  5
4E3
100
AcDbEntity
  8
0
  6
Continuous
 62
   174
100
AcDbLine
 10
193.457677
 20
159.264597
 30
0.0
 11
192.957673
 21
159.764601
 31
0.0
  0
LINE
  5
4E4
100
AcDbEntity
  8
0
  6
Continuous
 62
   174
100
AcDbLine
 10
192.967675
 20
154.781674
 30
0.0
 11
192.957677
 21
154.784764
 31
0.0
  0
LINE
  5
4E5
100
AcDbEntity
  8
0
  6
Continuous
 62
   174
100
AcDbLine
 10
110.957677
 20
147.082213
 30
0.0
 11
112.957677
 21
147.082213
 31
0.0
  0
CIRCLE
  5
4E6
100
AcDbEntity
  8
0
  6
Continuous
 62
   174
100
AcDbCircle
 10
137.957677
 20
136.564597
 30
0.0
 40
2.75
  0
LINE
  5
4E7
100
AcDbEntity
  8
0
  6
Continuous
 62
   174
100
AcDbLine
 10
192.957677
 20
154.794188
 30
0.0
 11
192.957677
 21
152.57917
 31
0.0
  0
LINE
  5
4E8
100
AcDbEntity
  8
0
  6
Continuous
 62
   174
100
AcDbLine
 10
112.967675
 20
145.917513
 30
0.0
 11
112.957677
 21
145.908273
 31
0.0
  0
LINE
  5
4E9
100
AcDbEntity
  8
0
  6
Continuous
 62
   174
100
AcDbLine
 10
190.957677
 20
148.328499
 30
0.0
 11
192.957677
 21
148.328499
 31
0.0
  0
LINE
  5
4EA
100
AcDbEntity
  8
0
  6
Continuous
 62
   174
100
AcDbLine
 10
112.957677
 20
159.764597
 30
0.0
 11
110.957677
 21
159.764597
 31
0.0
  0
LINE
  5
4EB
100
AcDbEntity
  8
0
  6
Continuous
 62
   174
100
AcDbLine
 10
106.957677
 20
159.764597
 30
0.0
 11
106.457677
 21
159.264597
 31
0.0
  0
LINE
  5
4EC
100
AcDbEntity
  8
0
  6
Continuous
 62
   174
100
AcDbLine
 10
186.957677
 20
154.784764
 30
0.0
 11
188.957677
 21
154.784764
 31
0.0
  0
LINE
  5
4ED
100
AcDbEntity
  8
0
  6
Continuous
 62
   174
100
AcDbLine
 10
186.957677
 20
154.784764
 30
0.0
 11
186.947678
 21
154.781674
 31
0.0
  0
LINE
  5
4EE
100
AcDbEntity
  8
0
  6
Continuous
 62
   174
100
AcDbLine
 10
108.967675
 20
145.917513
 30
0.0
 11
108.957677
 21
145.908273
 31
0.0
  0
LINE
  5
4EF
100
AcDbEntity
  8
0
  6
Continuous
 62
   174
100
AcDbLine
 10
112.967675
 20
147.089822
 30
0.0
 11
112.957677
 21
147.082213
 31
0.0
  0
LINE
  5
4F0
100
AcDbEntity
  8
0
  6
Continuous
 62
   174
100
AcDbLine
 10
112.957677
 20
147.088701
 30
0.0
 11
110.957677
 21
147.088701
 31
0.0
  0
LINE
  5
4F1
100
AcDbEntity
  8
0
  6
Continuous
 62
   174
100
AcDbLine
 10
186.957677
 20
148.328499
 30
0.0
 11
186.947678
 21
148.334376
 31
0.0
  0
LINE
  5
4F2
100
AcDbEntity
  8
0
  6
Continuous
 62
   174
100
AcDbLine
 10
110.957677
 20
159.764597
 30
0.0
 11
110.457677
 21
159.264597
 31
0.0
  0
LINE
  5
4F3
100
AcDbEntity
  8
0
  6
Continuous
 62
   174
100
AcDbLine
 10
188.957673
 20
145.364594
 30
0.0
 11
188.978998
 21
145.385918
 31
0.0
  0
LINE
  5
4F4
100
AcDbEntity
  8
0
  6
Continuous
 62
   174
100
AcDbLine
 10
192.957673
 20
145.364594
 30
0.0
 11
192.978998
 21
145.385918
 31
0.0
  0
LINE
  5
4F5
100
AcDbEntity
  8
0
  6
Continuous
 62
   174
100
AcDbLine
 10
192.957677
 20
154.794274
 30
0.0
 11
192.967675
 21
154.791185
 31
0.0
  0
LINE
  5
4F6
100
AcDbEntity
  8
0
  6
Continuous
 62
   174
100
AcDbLine
 10
188.957677
 20
154.794274
 30
0.0
 11
186.957677
 21
154.794274
 31
0.0
  0
LINE
  5
4F7
100
AcDbEntity
  8
0
  6
Continuous
 62
   174
100
AcDbLine
 10
188.957677
 20
154.794274
 30
0.0
 11
188.967675
 21
154.791185
 31
0.0
  0
LINE
  5
4F8
100
AcDbEntity
  8
0
  6
Continuous
 62
   174
100
AcDbLine
 10
188.967675
 20
154.781674
 30
0.0
 11
188.957677
 21
154.784764
 31
0.0
  0
LINE
  5
4F9
100
AcDbEntity
  8
0
  6
Continuous
 62
   174
100
AcDbLine
 10
192.967675
 20
154.791185
 30
0.0
 11
190.947678
 21
154.791185
 31
0.0
  0
LINE
  5
4FA
100
AcDbEntity
  8
0
  6
Continuous
 62
   174
100
AcDbLine
 10
106.957677
 20
145.908273
 30
0.0
 11
106.947678
 21
145.917513
 31
0.0
  0
LINE
  5
4FB
100
AcDbEntity
  8
0
  6
Continuous
 62
   174
100
AcDbLine
 10
192.957677
 20
152.569597
 30
0.0
 11
190.957677
 21
152.569597
 31
0.0
  0
LINE
  5
4FC
100
AcDbEntity
  8
0
  6
Continuous
 62
   174
100
AcDbLine
 10
106.947678
 20
147.096309
 30
0.0
 11
106.957677
 21
147.088701
 31
0.0
  0
LINE
  5
4FD
100
AcDbEntity
  8
0
  6
Continuous
 62
   174
100
AcDbLine
 10
112.957677
 20
147.088701
 30
0.0
 11
112.967675
 21
147.096309
 31
0.0
  0
LINE
  5
4FE
100
AcDbEntity
  8
0
  6
Continuous
 62
   174
100
AcDbLine
 10
112.957677
 20
145.912091
 30
0.0
 11
112.967675
 21
145.921332
 31
0.0
  0
LINE
  5
4FF
100
AcDbEntity
  8
0
  6
Continuous
 62
   174
100
AcDbLine
 10
109.457677
 20
159.264597
 30
0.0
 11
108.957677
 21
159.764597
 31
0.0
  0
LINE
  5
500
100
AcDbEntity
  8
0
  6
Continuous
 62
   174
100
AcDbLine
 10
186.947678
 20
154.791185
 30
0.0
 11
186.957677
 21
154.794274
 31
0.0
  0
LWPOLYLINE
  5
501
100
AcDbEntity
  8
0
  6
Continuous
 62
   174
100
AcDbPolyline
 90
        2
 70
   129
 10
190.947678
 20
145.374597
 10
190.947677
 20
145.374597
  0
LINE
  5
502
100
AcDbEntity
  8
0
  6
Continuous
 62
   174
100
AcDbLine
 10
106.957677
 20
147.082213
 30
0.0
 11
108.957677
 21
147.082213
 31
0.0
  0
LINE
  5
503
100
AcDbEntity
  8
0
  6
Continuous
 62
   174
100
AcDbLine
 10
108.957677
 20
147.088701
 30
0.0
 11
106.957677
 21
147.088701
 31
0.0
  0
LINE
  5
504
100
AcDbEntity
  8
0
  6
Continuous
 62
   174
100
AcDbLine
 10
106.957677
 20
147.082213
 30
0.0
 11
106.947678
 21
147.089822
 31
0.0
  0
LINE
  5
505
100
AcDbEntity
  8
0
  6
Continuous
 62
   174
100
AcDbLine
 10
106.947678
 20
150.874954
 30
0.0
 11
108.967675
 21
150.874954
 31
0.0
  0
LINE
  5
506
100
AcDbEntity
  8
0
  6
Continuous
 62
   174
100
AcDbLine
 10
190.957677
 20
152.559597
 30
0.0
 11
192.957677
 21
152.559597
 31
0.0
  0
LINE
  5
507
100
AcDbEntity
  8
0
  6
Continuous
 62
   174
100
AcDbLine
 10
106.947678
 20
148.79804
 30
0.0
 11
108.967675
 21
148.79804
 31
0.0
  0
LINE
  5
508
100
AcDbEntity
  8
0
  6
Continuous
 62
   174
100
AcDbLine
 10
190.957677
 20
150.354168
 30
0.0
 11
190.957677
 21
152.569186
 31
0.0
  0
LINE
  5
509
100
AcDbEntity
  8
0
  6
Continuous
 62
   174
100
AcDbLine
 10
188.957677
 20
154.794188
 30
0.0
 11
188.957677
 21
152.57917
 31
0.0
  0
LINE
  5
50A
100
AcDbEntity
  8
0
  6
Continuous
 62
   174
100
AcDbLine
 10
188.957677
 20
152.569597
 30
0.0
 11
186.957677
 21
152.569597
 31
0.0
  0
LINE
  5
50B
100
AcDbEntity
  8
0
  6
Continuous
 62
   174
100
AcDbLine
 10
110.947678
 20
147.096309
 30
0.0
 11
110.957677
 21
147.088701
 31
0.0
  0
LINE
  5
50C
100
AcDbEntity
  8
0
  6
Continuous
 62
   174
100
AcDbLine
 10
186.947678
 20
148.342466
 30
0.0
 11
186.957677
 21
148.33659
 31
0.0
  0
LINE
  5
50D
100
AcDbEntity
  8
0
  6
Continuous
 62
   174
100
AcDbLine
 10
186.457677
 20
145.864597
 30
0.0
 11
186.95768
 21
145.364594
 31
0.0
  0
LINE
  5
50E
100
AcDbEntity
  8
0
  6
Continuous
 62
   174
100
AcDbLine
 10
188.978998
 20
145.385918
 30
0.0
 11
189.457677
 21
145.864597
 31
0.0
  0
LINE
  5
50F
100
AcDbEntity
  8
0
  6
Continuous
 62
   174
100
AcDbLine
 10
190.457677
 20
145.864597
 30
0.0
 11
190.95768
 21
145.364594
 31
0.0
  0
LINE
  5
510
100
AcDbEntity
  8
0
  6
Continuous
 62
   174
100
AcDbLine
 10
192.978998
 20
145.385918
 30
0.0
 11
193.457677
 21
145.864597
 31
0.0
  0
LINE
  5
511
100
AcDbEntity
  8
0
  6
Continuous
 62
   174
100
AcDbLine
 10
190.947678
 20
154.791185
 30
0.0
 11
190.957677
 21
154.794274
 31
0.0
  0
LINE
  5
512
100
AcDbEntity
  8
0
  6
Continuous
 62
   174
100
AcDbLine
 10
190.957677
 20
154.784764
 30
0.0
 11
190.947678
 21
154.781674
 31
0.0
  0
LINE
  5
513
100
AcDbEntity
  8
0
  6
Continuous
 62
   174
100
AcDbLine
 10
192.957677
 20
145.72551
 30
0.0
 11
192.957677
 21
145.374574
 31
0.0
  0
LINE
  5
514
100
AcDbEntity
  8
0
  6
Continuous
 62
   174
100
AcDbLine
 10
108.967675
 20
147.089822
 30
0.0
 11
108.957677
 21
147.082213
 31
0.0
  0
LINE
  5
515
100
AcDbEntity
  8
0
  6
Continuous
 62
   174
100
AcDbLine
 10
192.967675
 20
156.794818
 30
0.0
 11
190.947678
 21
156.794818
 31
0.0
  0
LINE
  5
516
100
AcDbEntity
  8
0
  6
Continuous
 62
   174
100
AcDbLine
 10
188.957677
 20
145.72551
 30
0.0
 11
188.957677
 21
145.374574
 31
0.0
  0
LINE
  5
517
100
AcDbEntity
  8
0
  6
Continuous
 62
   174
100
AcDbLine
 10
186.957677
 20
148.328499
 30
0.0
 11
188.957677
 21
148.328499
 31
0.0
  0
LINE
  5
518
100
AcDbEntity
  8
0
  6
Continuous
 62
   174
100
AcDbLine
 10
106.957677
 20
159.562967
 30
0.0
 11
106.947678
 21
159.553247
 31
0.0
  0
LINE
  5
519
100
AcDbEntity
  8
0
  6
Continuous
 62
   174
100
AcDbLine
 10
110.957677
 20
158.712052
 30
0.0
 11
110.957677
 21
159.572185
 31
0.0
  0
LINE
  5
51A
100
AcDbEntity
  8
0
  6
Continuous
 62
   174
100
AcDbLine
 10
192.967675
 20
146.744826
 30
0.0
 11
192.957677
 21
146.736737
 31
0.0
  0
LINE
  5
51B
100
AcDbEntity
  8
0
  6
Continuous
 62
   174
100
AcDbLine
 10
186.957677
 20
156.809945
 30
0.0
 11
186.957677
 21
158.395742
 31
0.0
  0
LINE
  5
51C
100
AcDbEntity
  8
0
  6
Continuous
 62
   174
100
AcDbLine
 10
188.957677
 20
146.742615
 30
0.0
 11
186.957677
 21
146.742615
 31
0.0
  0
LINE
  5
51D
100
AcDbEntity
  8
0
  6
Continuous
 62
   174
100
AcDbLine
 10
186.957677
 20
145.715447
 30
0.0
 11
186.947678
 21
145.724956
 31
0.0
  0
CIRCLE
  5
51E
100
AcDbEntity
  8
0
  6
Continuous
 62
   174
100
AcDbCircle
 10
161.957677
 20
152.564597
 30
0.0
 40
10.0
  0
LINE
  5
51F
100
AcDbEntity
  8
0
  6
Continuous
 62
   174
100
AcDbLine
 10
186.960183
 20
159.764596
 30
0.0
 11
188.955171
 21
159.764596
 31
0.0
  0
LINE
  5
520
100
AcDbEntity
  8
0
  6
Continuous
 62
   174
100
AcDbLine
 10
188.957677
 20
146.746666
 30
0.0
 11
188.957677
 21
145.728484
 31
0.0
  0
LINE
  5
521
100
AcDbEntity
  8
0
  6
Continuous
 62
   174
100
AcDbLine
 10
112.957677
 20
157.239483
 30
0.0
 11
110.957677
 21
157.239483
 31
0.0
  0
LINE
  5
522
100
AcDbEntity
  8
0
  6
Continuous
 62
   174
100
AcDbLine
 10
110.957677
 20
153.118038
 30
0.0
 11
110.947678
 21
153.117263
 31
0.0
  0
LINE
  5
523
100
AcDbEntity
  8
0
  6
Continuous
 62
   174
100
AcDbLine
 10
110.957677
 20
150.872611
 30
0.0
 11
112.957677
 21
150.872611
 31
0.0
  0
LINE
  5
524
100
AcDbEntity
  8
0
  6
Continuous
 62
   174
100
AcDbLine
 10
108.967675
 20
157.225387
 30
0.0
 11
108.957677
 21
157.231873
 31
0.0
  0
LWPOLYLINE
  5
525
100
AcDbEntity
  8
0
  6
Continuous
 62
   174
100
AcDbPolyline
 90
        2
 70
   129
 10
188.967675
 20
152.569597
 10
188.967677
 20
152.564597
  0
LINE
  5
526
100
AcDbEntity
  8
0
  6
Continuous
 62
   174
100
AcDbLine
 10
105.457677
 20
145.974479
 30
0.0
 11
105.457677
 21
146.474542
 31
0.0
  0
LINE
  5
527
100
AcDbEntity
  8
0
  6
Continuous
 62
   174
100
AcDbLine
 10
188.957677
 20
158.392457
 30
0.0
 11
188.967675
 21
158.384368
 31
0.0
  0
LINE
  5
528
100
AcDbEntity
  8
0
  6
Continuous
 62
   174
100
AcDbLine
 10
186.957677
 20
159.423058
 30
0.0
 11
186.957677
 21
159.773782
 31
0.0
  0
LINE
  5
529
100
AcDbEntity
  8
0
  6
Continuous
 62
   174
100
AcDbLine
 10
112.957677
 20
157.239483
 30
0.0
 11
112.967675
 21
157.232997
 31
0.0
  0
LINE
  5
52A
100
AcDbEntity
  8
0
  6
Continuous
 62
   174
100
AcDbLine
 10
186.457677
 20
159.164597
 30
0.0
 11
183.957677
 21
159.164597
 31
0.0
  0
LINE
  5
52B
100
AcDbEntity
  8
0
  6
Continuous
 62
   174
100
AcDbLine
 10
110.957677
 20
158.69759
 30
0.0
 11
112.957677
 21
158.69759
 31
0.0
  0
LINE
  5
52C
100
AcDbEntity
  8
0
  6
Continuous
 62
   174
100
AcDbLine
 10
108.957677
 20
153.127667
 30
0.0
 11
108.957677
 21
150.892043
 31
0.0
  0
LINE
  5
52D
100
AcDbEntity
  8
0
  6
Continuous
 62
   174
100
AcDbLine
 10
112.957677
 20
150.882333
 30
0.0
 11
112.967675
 21
150.884676
 31
0.0
  0
CIRCLE
  5
52E
100
AcDbEntity
  8
0
  6
Continuous
 62
   174
100
AcDbCircle
 10
137.957677
 20
152.564597
 30
0.0
 40
7.5
  0
LINE
  5
52F
100
AcDbEntity
  8
0
  6
Continuous
 62
   174
100
AcDbLine
 10
112.957677
 20
145.395817
 30
0.0
 11
112.957677
 21
145.374574
 31
0.0
  0
LINE
  5
530
100
AcDbEntity
  8
0
  6
Continuous
 62
   174
100
AcDbLine
 10
192.957677
 20
150.344431
 30
0.0
 11
190.957677
 21
150.344431
 31
0.0
  0
LINE
  5
531
100
AcDbEntity
  8
0
  6
Continuous
 62
   174
100
AcDbLine
 10
106.957677
 20
155.328027
 30
0.0
 11
106.957677
 21
157.24118
 31
0.0
  0
LINE
  5
532
100
AcDbEntity
  8
0
  6
Continuous
 62
   174
100
AcDbLine
 10
188.967675
 20
146.744826
 30
0.0
 11
188.957677
 21
146.736737
 31
0.0
  0
LINE
  5
533
100
AcDbEntity
  8
0
  6
Continuous
 62
   174
100
AcDbLine
 10
106.957677
 20
155.309291
 30
0.0
 11
108.957677
 21
155.309291
 31
0.0
  0
LINE
  5
534
100
AcDbEntity
  8
0
  6
Continuous
 62
   174
100
AcDbLine
 10
186.957677
 20
159.764596
 30
0.0
 11
186.947678
 21
159.754597
 31
0.0
  0
LINE
  5
535
100
AcDbEntity
  8
0
  6
Continuous
 62
   174
100
AcDbLine
 10
106.947678
 20
148.806561
 30
0.0
 11
106.957677
 21
148.801329
 31
0.0
  0
LWPOLYLINE
  5
536
100
AcDbEntity
  8
0
  6
Continuous
 62
   174
100
AcDbPolyline
 90
        2
 70
   129
 10
192.967675
 20
152.569597
 10
192.967677
 20
152.564597
  0
LINE
  5
537
100
AcDbEntity
  8
0
  6
Continuous
 62
   174
100
AcDbLine
 10
194.957677
 20
158.664597
 30
0.0
 11
194.457677
 21
159.164597
 31
0.0
  0
LINE
  5
538
100
AcDbEntity
  8
0
  6
Continuous
 62
   174
100
AcDbLine
 10
194.457677
 20
159.173877
 30
0.0
 11
194.457677
 21
145.974479
 31
0.0
  0
LINE
  5
539
100
AcDbEntity
  8
0
  6
Continuous
 62
   174
100
AcDbLine
 10
190.957677
 20
150.33492
 30
0.0
 11
190.947678
 21
150.33801
 31
0.0
  0
LINE
  5
53A
100
AcDbEntity
  8
0
  6
Continuous
 62
   174
100
AcDbLine
 10
192.957677
 20
159.419872
 30
0.0
 11
192.957677
 21
158.40169
 31
0.0
  0
LINE
  5
53B
100
AcDbEntity
  8
0
  6
Continuous
 62
   174
100
AcDbLine
 10
186.957677
 20
158.386579
 30
0.0
 11
186.947678
 21
158.378491
 31
0.0
  0
LINE
  5
53C
100
AcDbEntity
  8
0
  6
Continuous
 62
   174
100
AcDbLine
 10
108.967675
 20
159.553247
 30
0.0
 11
108.957677
 21
159.562967
 31
0.0
  0
LINE
  5
53D
100
AcDbEntity
  8
0
  6
Continuous
 62
   174
100
AcDbLine
 10
190.960183
 20
159.764596
 30
0.0
 11
192.955171
 21
159.764596
 31
0.0
  0
LINE
  5
53E
100
AcDbEntity
  8
0
  6
Continuous
 62
   174
100
AcDbLine
 10
106.947678
 20
145.396643
 30
0.0
 11
106.957677
 21
145.386675
 31
0.0
  0
LINE
  5
53F
100
AcDbEntity
  8
0
  6
Continuous
 62
   174
100
AcDbLine
 10
192.957677
 20
148.338411
 30
0.0
 11
192.957677
 21
146.752614
 31
0.0
  0
LINE
  5
540
100
AcDbEntity
  8
0
  6
Continuous
 62
   174
100
AcDbLine
 10
110.947678
 20
158.694303
 30
0.0
 11
110.957677
 21
158.702823
 31
0.0
  0
LINE
  5
541
100
AcDbEntity
  8
0
  6
Continuous
 62
   174
100
AcDbLine
 10
183.957677
 20
159.164597
 30
0.0
 11
181.957677
 21
158.009897
 31
0.0
  0
LINE
  5
542
100
AcDbEntity
  8
0
  6
Continuous
 62
   174
100
AcDbLine
 10
188.967675
 20
150.33801
 30
0.0
 11
186.947678
 21
150.33801
 31
0.0
  0
LINE
  5
543
100
AcDbEntity
  8
0
  6
Continuous
 62
   174
100
AcDbLine
 10
190.957677
 20
145.715447
 30
0.0
 11
190.947678
 21
145.724956
 31
0.0
  0
LINE
  5
544
100
AcDbEntity
  8
0
  6
Continuous
 62
   174
100
AcDbLine
 10
110.457677
 20
159.273719
 30
0.0
 11
110.457677
 21
146.382134
 31
0.0
  0
LINE
  5
545
100
AcDbEntity
  8
0
  6
Continuous
 62
   174
100
AcDbLine
 10
190.957677
 20
154.803747
 30
0.0
 11
190.957677
 21
156.801872
 31
0.0
  0
LINE
  5
546
100
AcDbEntity
  8
0
  6
Continuous
 62
   174
100
AcDbLine
 10
188.957677
 20
159.419872
 30
0.0
 11
188.957677
 21
158.40169
 31
0.0
  0
LWPOLYLINE
  5
547
100
AcDbEntity
  8
0
  6
Continuous
 62
   174
100
AcDbPolyline
 90
        2
 70
   129
 10
186.947678
 20
152.559597
 10
186.947677
 20
152.564597
  0
LINE
  5
548
100
AcDbEntity
  8
0
  6
Continuous
 62
   174
100
AcDbLine
 10
112.957677
 20
158.706741
 30
0.0
 11
112.957677
 21
157.248827
 31
0.0
  0
LINE
  5
549
100
AcDbEntity
  8
0
  6
Continuous
 62
   174
100
AcDbLine
 10
108.957677
 20
158.702823
 30
0.0
 11
106.957677
 21
158.702823
 31
0.0
  0
LINE
  5
54A
100
AcDbEntity
  8
0
  6
Continuous
 62
   174
100
AcDbLine
 10
112.957677
 20
150.882272
 30
0.0
 11
112.957677
 21
148.81107
 31
0.0
  0
LINE
  5
54B
100
AcDbEntity
  8
0
  6
Continuous
 62
   174
100
AcDbLine
 10
188.957677
 20
145.718537
 30
0.0
 11
186.957677
 21
145.718537
 31
0.0
  0
LINE
  5
54C
100
AcDbEntity
  8
0
  6
Continuous
 62
   174
100
AcDbLine
 10
112.967675
 20
159.553247
 30
0.0
 11
112.957677
 21
159.562967
 31
0.0
  0
LINE
  5
54D
100
AcDbEntity
  8
0
  6
Continuous
 62
   174
100
AcDbLine
 10
188.967675
 20
159.401149
 30
0.0
 11
188.957677
 21
159.410657
 31
0.0
  0
LINE
  5
54E
100
AcDbEntity
  8
0
  6
Continuous
 62
   174
100
AcDbLine
 10
188.957677
 20
159.773782
 30
0.0
 11
188.957677
 21
159.423058
 31
0.0
  0
LINE
  5
54F
100
AcDbEntity
  8
0
  6
Continuous
 62
   174
100
AcDbLine
 10
106.957677
 20
158.712052
 30
0.0
 11
106.957677
 21
159.572185
 31
0.0
  0
LINE
  5
550
100
AcDbEntity
  8
0
  6
Continuous
 62
   174
100
AcDbLine
 10
110.957677
 20
155.309291
 30
0.0
 11
112.957677
 21
155.309291
 31
0.0
  0
LINE
  5
551
100
AcDbEntity
  8
0
  6
Continuous
 62
   174
100
AcDbLine
 10
192.957677
 20
159.413748
 30
0.0
 11
190.957677
 21
159.413748
 31
0.0
  0
LINE
  5
552
100
AcDbEntity
  8
0
  6
Continuous
 62
   174
100
AcDbLine
 10
110.957677
 20
159.562967
 30
0.0
 11
110.947678
 21
159.553247
 31
0.0
  0
LINE
  5
553
100
AcDbEntity
  8
0
  6
Continuous
 62
   174
100
AcDbLine
 10
193.457677
 20
145.964597
 30
0.0
 11
194.457677
 21
145.964597
 31
0.0
  0
LINE
  5
554
100
AcDbEntity
  8
0
  6
Continuous
 62
   174
100
AcDbLine
 10
109.457677
 20
145.874637
 30
0.0
 11
109.457677
 21
159.273719
 31
0.0
  0
LINE
  5
555
100
AcDbEntity
  8
0
  6
Continuous
 62
   174
100
AcDbLine
 10
188.967675
 20
156.794818
 30
0.0
 11
186.947678
 21
156.794818
 31
0.0
  0
LINE
  5
556
100
AcDbEntity
  8
0
  6
Continuous
 62
   174
100
AcDbLine
 10
188.957677
 20
159.413748
 30
0.0
 11
186.957677
 21
159.413748
 31
0.0
  0
LINE
  5
557
100
AcDbEntity
  8
0
  6
Continuous
 62
   174
100
AcDbLine
 10
110.957677
 20
150.892043
 30
0.0
 11
110.957677
 21
153.127667
 31
0.0
  0
LINE
  5
558
100
AcDbEntity
  8
0
  6
Continuous
 62
   174
100
AcDbLine
 10
186.947678
 20
159.404239
 30
0.0
 11
186.957677
 21
159.413748
 31
0.0
  0
LINE
  5
559
100
AcDbEntity
  8
0
  6
Continuous
 62
   174
100
AcDbLine
 10
115.957677
 20
159.164597
 30
0.0
 11
113.457677
 21
159.164597
 31
0.0
  0
LINE
  5
55A
100
AcDbEntity
  8
0
  6
Continuous
 62
   174
100
AcDbLine
 10
106.957677
 20
159.574521
 30
0.0
 11
106.957677
 21
159.773782
 31
0.0
  0
LINE
  5
55B
100
AcDbEntity
  8
0
  6
Continuous
 62
   174
100
AcDbLine
 10
194.957677
 20
146.474542
 30
0.0
 11
194.957677
 21
158.673814
 31
0.0
  0
LINE
  5
55C
100
AcDbEntity
  8
0
  6
Continuous
 62
   174
100
AcDbLine
 10
192.967675
 20
159.401149
 30
0.0
 11
192.957677
 21
159.410657
 31
0.0
  0
LINE
  5
55D
100
AcDbEntity
  8
0
  6
Continuous
 62
   174
100
AcDbLine
 10
108.967675
 20
150.874954
 30
0.0
 11
108.957677
 21
150.872611
 31
0.0
  0
LINE
  5
55E
100
AcDbEntity
  8
0
  6
Continuous
 62
   174
100
AcDbLine
 10
110.947678
 20
153.127233
 30
0.0
 11
112.967675
 21
153.127233
 31
0.0
  0
LINE
  5
55F
100
AcDbEntity
  8
0
  6
Continuous
 62
   174
100
AcDbLine
 10
112.957677
 20
150.882333
 30
0.0
 11
110.957677
 21
150.882333
 31
0.0
  0
LINE
  5
560
100
AcDbEntity
  8
0
  6
Continuous
 62
   174
100
AcDbLine
 10
112.957677
 20
159.572185
 30
0.0
 11
112.957677
 21
158.712052
 31
0.0
  0
LINE
  5
561
100
AcDbEntity
  8
0
  6
Continuous
 62
   174
100
AcDbLine
 10
110.957677
 20
145.396667
 30
0.0
 11
110.957677
 21
145.918185
 31
0.0
  0
LINE
  5
562
100
AcDbEntity
  8
0
  6
Continuous
 62
   174
100
AcDbLine
 10
181.957677
 20
147.119298
 30
0.0
 11
183.957677
 21
145.964597
 31
0.0
  0
LINE
  5
563
100
AcDbEntity
  8
0
  6
Continuous
 62
   174
100
AcDbLine
 10
189.457677
 20
145.964597
 30
0.0
 11
190.457677
 21
145.964597
 31
0.0
  0
LINE
  5
564
100
AcDbEntity
  8
0
  6
Continuous
 62
   174
100
AcDbLine
 10
186.957677
 20
146.736737
 30
0.0
 11
186.947678
 21
146.744826
 31
0.0
  0
LINE
  5
565
100
AcDbEntity
  8
0
  6
Continuous
 62
   174
100
AcDbLine
 10
108.957677
 20
157.239483
 30
0.0
 11
108.967675
 21
157.232997
 31
0.0
  0
LINE
  5
566
100
AcDbEntity
  8
0
  6
Continuous
 62
   174
100
AcDbLine
 10
108.967675
 20
153.117263
 30
0.0
 11
108.957677
 21
153.118038
 31
0.0
  0
LINE
  5
567
100
AcDbEntity
  8
0
  6
Continuous
 62
   174
100
AcDbLine
 10
190.957677
 20
150.33492
 30
0.0
 11
192.957677
 21
150.33492
 31
0.0
  0
LINE
  5
568
100
AcDbEntity
  8
0
  6
Continuous
 62
   174
100
AcDbLine
 10
112.957677
 20
158.702823
 30
0.0
 11
112.967675
 21
158.694303
 31
0.0
  0
LINE
  5
569
100
AcDbEntity
  8
0
  6
Continuous
 62
   174
100
AcDbLine
 10
108.957677
 20
147.092078
 30
0.0
 11
108.957677
 21
145.922009
 31
0.0
  0
LINE
  5
56A
100
AcDbEntity
  8
0
  6
Continuous
 62
   174
100
AcDbLine
 10
112.957677
 20
153.128008
 30
0.0
 11
112.967675
 21
153.127233
 31
0.0
  0
LINE
  5
56B
100
AcDbEntity
  8
0
  6
Continuous
 62
   174
100
AcDbLine
 10
190.957677
 20
159.764596
 30
0.0
 11
190.947678
 21
159.754597
 31
0.0
  0
LINE
  5
56C
100
AcDbEntity
  8
0
  6
Continuous
 62
   174
100
AcDbLine
 10
190.947678
 20
158.384368
 30
0.0
 11
190.957677
 21
158.392457
 31
0.0
  0
LINE
  5
56D
100
AcDbEntity
  8
0
  6
Continuous
 62
   174
100
AcDbLine
 10
186.957677
 20
146.736737
 30
0.0
 11
188.957677
 21
146.736737
 31
0.0
  0
LINE
  5
56E
100
AcDbEntity
  8
0
  6
Continuous
 62
   174
100
AcDbLine
 10
112.957677
 20
153.128008
 30
0.0
 11
110.957677
 21
153.128008
 31
0.0
  0
LINE
  5
56F
100
AcDbEntity
  8
0
  6
Continuous
 62
   174
100
AcDbLine
 10
112.957677
 20
155.318533
 30
0.0
 11
110.957677
 21
155.318533
 31
0.0
  0
LINE
  5
570
100
AcDbEntity
  8
0
  6
Continuous
 62
   174
100
AcDbLine
 10
110.957677
 20
159.562967
 30
0.0
 11
112.957677
 21
159.562967
 31
0.0
  0
LINE
  5
571
100
AcDbEntity
  8
0
  6
Continuous
 62
   174
100
AcDbLine
 10
108.957677
 20
159.565311
 30
0.0
 11
108.967675
 21
159.555591
 31
0.0
  0
LINE
  5
572
100
AcDbEntity
  8
0
  6
Continuous
 62
   174
100
AcDbLine
 10
188.957677
 20
158.392457
 30
0.0
 11
186.957677
 21
158.392457
 31
0.0
  0
LWPOLYLINE
  5
573
100
AcDbEntity
  8
0
  6
Continuous
 62
   174
100
AcDbPolyline
 90
        2
 70
   129
 10
106.947678
 20
145.917513
 10
106.947677
 20
145.919422
  0
LWPOLYLINE
  5
574
100
AcDbEntity
  8
0
  6
Continuous
 62
   174
100
AcDbPolyline
 90
        2
 70
   129
 10
188.967675
 20
159.754597
 10
188.967677
 20
159.754597
  0
LINE
  5
575
100
AcDbEntity
  8
0
  6
Continuous
 62
   174
100
AcDbLine
 10
106.947678
 20
157.232997
 30
0.0
 11
108.967675
 21
157.232997
 31
0.0
  0
LINE
  5
576
100
AcDbEntity
  8
0
  6
Continuous
 62
   174
100
AcDbLine
 10
194.457677
 20
159.164597
 30
0.0
 11
193.457677
 21
159.164597
 31
0.0
  0
LINE
  5
577
100
AcDbEntity
  8
0
  6
Continuous
 62
   174
100
AcDbLine
 10
106.947678
 20
155.314715
 30
0.0
 11
106.957677
 21
155.318533
 31
0.0
  0
LINE
  5
578
100
AcDbEntity
  8
0
  6
Continuous
 62
   174
100
AcDbLine
 10
188.967675
 20
145.724956
 30
0.0
 11
188.957677
 21
145.715447
 31
0.0
  0
LINE
  5
579
100
AcDbEntity
  8
0
  6
Continuous
 62
   174
100
AcDbLine
 10
192.957677
 20
145.364599
 30
0.0
 11
192.967675
 21
145.374597
 31
0.0
  0
LINE
  5
57A
100
AcDbEntity
  8
0
  6
Continuous
 62
   174
100
AcDbLine
 10
113.457677
 20
145.964597
 30
0.0
 11
115.957677
 21
145.964597
 31
0.0
  0
LINE
  5
57B
100
AcDbEntity
  8
0
  6
Continuous
 62
   174
100
AcDbLine
 10
115.957677
 20
146.474542
 30
0.0
 11
115.957677
 21
159.173877
 31
0.0
  0
LINE
  5
57C
100
AcDbEntity
  8
0
  6
Continuous
 62
   174
100
AcDbLine
 10
190.957677
 20
148.346483
 30
0.0
 11
190.957677
 21
150.344609
 31
0.0
  0
LINE
  5
57D
100
AcDbEntity
  8
0
  6
Continuous
 62
   174
100
AcDbLine
 10
192.957677
 20
158.392457
 30
0.0
 11
190.957677
 21
158.392457
 31
0.0
  0
LINE
  5
57E
100
AcDbEntity
  8
0
  6
Continuous
 62
   174
100
AcDbLine
 10
112.967675
 20
150.874954
 30
0.0
 11
112.957677
 21
150.872611
 31
0.0
  0
LINE
  5
57F
100
AcDbEntity
  8
0
  6
Continuous
 62
   174
100
AcDbLine
 10
106.957677
 20
150.892043
 30
0.0
 11
106.957677
 21
153.127667
 31
0.0
  0
LINE
  5
580
100
AcDbEntity
  8
0
  6
Continuous
 62
   174
100
AcDbLine
 10
190.957677
 20
145.715447
 30
0.0
 11
192.957677
 21
145.715447
 31
0.0
  0
LINE
  5
581
100
AcDbEntity
  8
0
  6
Continuous
 62
   174
100
AcDbLine
 10
190.457677
 20
159.164597
 30
0.0
 11
189.457677
 21
159.164597
 31
0.0
  0
LINE
  5
582
100
AcDbEntity
  8
0
  6
Continuous
 62
   174
100
AcDbLine
 10
192.957677
 20
150.344609
 30
0.0
 11
192.957677
 21
148.346483
 31
0.0
  0
LINE
  5
583
100
AcDbEntity
  8
0
  6
Continuous
 62
   174
100
AcDbLine
 10
110.957677
 20
157.231873
 30
0.0
 11
112.957677
 21
157.231873
 31
0.0
  0
LINE
  5
584
100
AcDbEntity
  8
0
  6
Continuous
 62
   174
100
AcDbLine
 10
108.957677
 20
150.882333
 30
0.0
 11
108.967675
 21
150.884676
 31
0.0
  0
LINE
  5
585
100
AcDbEntity
  8
0
  6
Continuous
 62
   174
100
AcDbLine
 10
117.957677
 20
132.564597
 30
0.0
 11
117.957677
 21
172.564597
 31
0.0
  0
LINE
  5
586
100
AcDbEntity
  8
0
  6
Continuous
 62
   174
100
AcDbLine
 10
108.957677
 20
159.773782
 30
0.0
 11
108.957677
 21
159.574521
 31
0.0
  0
LINE
  5
587
100
AcDbEntity
  8
0
  6
Continuous
 62
   174
100
AcDbLine
 10
106.957677
 20
145.385899
 30
0.0
 11
106.947678
 21
145.395868
 31
0.0
  0
LINE
  5
588
100
AcDbEntity
  8
0
  6
Continuous
 62
   174
100
AcDbLine
 10
110.947678
 20
155.314715
 30
0.0
 11
112.967675
 21
155.314715
 31
0.0
  0
LINE
  5
589
100
AcDbEntity
  8
0
  6
Continuous
 62
   174
100
AcDbLine
 10
110.947678
 20
150.874954
 30
0.0
 11
112.967675
 21
150.874954
 31
0.0
  0
LINE
  5
58A
100
AcDbEntity
  8
0
  6
Continuous
 62
   174
100
AcDbLine
 10
110.947678
 20
150.884676
 30
0.0
 11
110.957677
 21
150.882333
 31
0.0
  0
LINE
  5
58B
100
AcDbEntity
  8
0
  6
Continuous
 62
   174
100
AcDbLine
 10
110.957677
 20
157.248827
 30
0.0
 11
110.957677
 21
158.706741
 31
0.0
  0
LINE
  5
58C
100
AcDbEntity
  8
0
  6
Continuous
 62
   174
100
AcDbLine
 10
110.957677
 20
145.374574
 30
0.0
 11
110.957677
 21
145.395817
 31
0.0
  0
LWPOLYLINE
  5
58D
100
AcDbEntity
  8
0
  6
Continuous
 62
   174
100
AcDbPolyline
 90
        2
 70
   129
 10
110.947678
 20
145.917513
 10
110.947677
 20
145.919422
  0
LINE
  5
58E
100
AcDbEntity
  8
0
  6
Continuous
 62
   174
100
AcDbLine
 10
190.957677
 20
146.736737
 30
0.0
 11
190.947678
 21
146.744826
 31
0.0
  0
LINE
  5
58F
100
AcDbEntity
  8
0
  6
Continuous
 62
   174
100
AcDbLine
 10
190.957677
 20
158.386579
 30
0.0
 11
190.947678
 21
158.378491
 31
0.0
  0
LINE
  5
590
100
AcDbEntity
  8
0
  6
Continuous
 62
   174
100
AcDbLine
 10
188.955171
 20
145.364599
 30
0.0
 11
186.960183
 21
145.364599
 31
0.0
  0
LINE
  5
591
100
AcDbEntity
  8
0
  6
Continuous
 62
   174
100
AcDbLine
 10
190.957677
 20
145.374574
 30
0.0
 11
190.957677
 21
145.72551
 31
0.0
  0
LINE
  5
592
100
AcDbEntity
  8
0
  6
Continuous
 62
   174
100
AcDbLine
 10
112.957677
 20
159.565311
 30
0.0
 11
112.967675
 21
159.555591
 31
0.0
  0
LINE
  5
593
100
AcDbEntity
  8
0
  6
Continuous
 62
   174
100
AcDbLine
 10
110.957677
 20
158.69759
 30
0.0
 11
110.947678
 21
158.68907
 31
0.0
  0
LINE
  5
594
100
AcDbEntity
  8
0
  6
Continuous
 62
   174
100
AcDbLine
 10
113.457677
 20
145.874637
 30
0.0
 11
113.457677
 21
159.273719
 31
0.0
  0
LINE
  5
595
100
AcDbEntity
  8
0
  6
Continuous
 62
   174
100
AcDbLine
 10
190.957677
 20
145.728484
 30
0.0
 11
190.957677
 21
146.746666
 31
0.0
  0
LINE
  5
596
100
AcDbEntity
  8
0
  6
Continuous
 62
   174
100
AcDbLine
 10
110.957677
 20
145.922009
 30
0.0
 11
110.957677
 21
147.092078
 31
0.0
  0
LINE
  5
597
100
AcDbEntity
  8
0
  6
Continuous
 62
   174
100
AcDbLine
 10
108.957677
 20
145.912091
 30
0.0
 11
108.967675
 21
145.921332
 31
0.0
  0
LINE
  5
598
100
AcDbEntity
  8
0
  6
Continuous
 62
   174
100
AcDbLine
 10
108.957677
 20
145.918185
 30
0.0
 11
108.957677
 21
145.396667
 31
0.0
  0
LINE
  5
599
100
AcDbEntity
  8
0
  6
Continuous
 62
   174
100
AcDbLine
 10
110.957677
 20
153.118038
 30
0.0
 11
112.957677
 21
153.118038
 31
0.0
  0
LINE
  5
59A
100
AcDbEntity
  8
0
  6
Continuous
 62
   174
100
AcDbLine
 10
112.957677
 20
157.24118
 30
0.0
 11
112.957677
 21
155.328027
 31
0.0
  0
LINE
  5
59B
100
AcDbEntity
  8
0
  6
Continuous
 62
   174
100
AcDbLine
 10
106.957677
 20
150.872611
 30
0.0
 11
108.957677
 21
150.872611
 31
0.0
  0
LINE
  5
59C
100
AcDbEntity
  8
0
  6
Continuous
 62
   174
100
AcDbLine
 10
186.957677
 20
159.410657
 30
0.0
 11
186.947678
 21
159.401149
 31
0.0
  0
LINE
  5
59D
100
AcDbEntity
  8
0
  6
Continuous
 62
   174
100
AcDbLine
 10
181.957677
 20
172.564597
 30
0.0
 11
181.957677
 21
132.564597
 31
0.0
  0
LINE
  5
59E
100
AcDbEntity
  8
0
  6
Continuous
 62
   174
100
AcDbLine
 10
108.957677
 20
155.318533
 30
0.0
 11
108.967675
 21
155.314715
 31
0.0
  0
LINE
  5
59F
100
AcDbEntity
  8
0
  6
Continuous
 62
   174
100
AcDbLine
 10
188.957677
 20
152.569186
 30
0.0
 11
188.957677
 21
150.354168
 31
0.0
  0
LINE
  5
5A0
100
AcDbEntity
  8
0
  6
Continuous
 62
   174
100
AcDbLine
 10
112.957677
 20
145.386675
 30
0.0
 11
112.967675
 21
145.396643
 31
0.0
  0
LINE
  5
5A1
100
AcDbEntity
  8
0
  6
Continuous
 62
   174
100
AcDbLine
 10
112.967675
 20
153.117263
 30
0.0
 11
112.957677
 21
153.118038
 31
0.0
  0
CIRCLE
  5
5A2
100
AcDbEntity
  8
0
  6
Continuous
 62
   174
100
AcDbCircle
 10
137.957677
 20
152.564597
 30
0.0
 40
10.0
  0
LINE
  5
5A3
100
AcDbEntity
  8
0
  6
Continuous
 62
   174
100
AcDbLine
 10
192.967675
 20
156.786728
 30
0.0
 11
192.957677
 21
156.792605
 31
0.0
  0
LINE
  5
5A4
100
AcDbEntity
  8
0
  6
Continuous
 62
   174
100
AcDbLine
 10
112.957677
 20
159.565311
 30
0.0
 11
110.957677
 21
159.565311
 31
0.0
  0
LINE
  5
5A5
100
AcDbEntity
  8
0
  6
Continuous
 62
   174
100
AcDbLine
 10
105.457677
 20
146.474542
 30
0.0
 11
105.457677
 21
159.173877
 31
0.0
  0
LINE
  5
5A6
100
AcDbEntity
  8
0
  6
Continuous
 62
   174
100
AcDbLine
 10
186.957677
 20
152.57917
 30
0.0
 11
186.957677
 21
154.794188
 31
0.0
  0
CIRCLE
  5
5A7
100
AcDbEntity
  8
0
  6
Continuous
 62
   174
100
AcDbCircle
 10
132.957677
 20
152.564597
 30
0.0
 40
2.5
  0
LINE
  5
5A8
100
AcDbEntity
  8
0
  6
Continuous
 62
   174
100
AcDbLine
 10
108.957677
 20
159.764597
 30
0.0
 11
106.957677
 21
159.764597
 31
0.0
  0
LINE
  5
5A9
100
AcDbEntity
  8
0
  6
Continuous
 62
   174
100
AcDbLine
 10
192.957677
 20
148.33659
 30
0.0
 11
190.957677
 21
148.33659
 31
0.0
  0
LINE
  5
5AA
100
AcDbEntity
  8
0
  6
Continuous
 62
   174
100
AcDbLine
 10
110.957677
 20
145.385899
 30
0.0
 11
110.947678
 21
145.395868
 31
0.0
  0
LINE
  5
5AB
100
AcDbEntity
  8
0
  6
Continuous
 62
   174
100
AcDbLine
 10
190.957677
 20
159.423058
 30
0.0
 11
190.957677
 21
159.773782
 31
0.0
  0
LWPOLYLINE
  5
5AC
100
AcDbEntity
  8
0
  6
Continuous
 62
   174
100
AcDbPolyline
 90
        2
 70
   129
 10
110.947678
 20
155.305473
 10
110.947677
 20
155.310094
  0
LINE
  5
5AD
100
AcDbEntity
  8
0
  6
Continuous
 62
   174
100
AcDbLine
 10
106.957677
 20
157.248827
 30
0.0
 11
106.957677
 21
158.706741
 31
0.0
  0
LWPOLYLINE
  5
5AE
100
AcDbEntity
  8
0
  6
Continuous
 62
   174
100
AcDbPolyline
 90
        2
 70
   129
 10
192.967675
 20
159.754597
 10
192.967677
 20
159.754597
  0
LINE
  5
5AF
100
AcDbEntity
  8
0
  6
Continuous
 62
   174
100
AcDbLine
 10
186.957677
 20
145.715447
 30
0.0
 11
188.957677
 21
145.715447
 31
0.0
  0
LINE
  5
5B0
100
AcDbEntity
  8
0
  6
Continuous
 62
   174
100
AcDbLine
 10
110.957677
 20
148.81107
 30
0.0
 11
110.957677
 21
150.882272
 31
0.0
  0
LINE
  5
5B1
100
AcDbEntity
  8
0
  6
Continuous
 62
   174
100
AcDbLine
 10
106.957677
 20
145.908273
 30
0.0
 11
108.957677
 21
145.908273
 31
0.0
  0
LWPOLYLINE
  5
5B2
100
AcDbEntity
  8
0
  6
Continuous
 62
   174
100
AcDbPolyline
 90
        2
 70
   129
 10
112.967675
 20
155.314715
 10
112.967677
 20
155.310094
  0
LINE
  5
5B3
100
AcDbEntity
  8
0
  6
Continuous
 62
   174
100
AcDbLine
 10
192.967675
 20
148.334376
 30
0.0
 11
192.957677
 21
148.328499
 31
0.0
  0
LINE
  5
5B4
100
AcDbEntity
  8
0
  6
Continuous
 62
   174
100
AcDbLine
 10
115.957677
 20
145.974479
 30
0.0
 11
115.957677
 21
146.474542
 31
0.0
  0
LINE
  5
5B5
100
AcDbEntity
  8
0
  6
Continuous
 62
   174
100
AcDbLine
 10
188.957677
 20
150.344431
 30
0.0
 11
186.957677
 21
150.344431
 31
0.0
  0
LINE
  5
5B6
100
AcDbEntity
  8
0
  6
Continuous
 62
   174
100
AcDbLine
 10
110.457677
 20
146.382134
 30
0.0
 11
110.457677
 21
145.874637
 31
0.0
  0
LINE
  5
5B7
100
AcDbEntity
  8
0
  6
Continuous
 62
   174
100
AcDbLine
 10
112.967675
 20
145.395868
 30
0.0
 11
112.957677
 21
145.385899
 31
0.0
  0
LINE
  5
5B8
100
AcDbEntity
  8
0
  6
Continuous
 62
   174
100
AcDbLine
 10
108.957677
 20
155.31868
 30
0.0
 11
108.957677
 21
153.137651
 31
0.0
  0
LINE
  5
5B9
100
AcDbEntity
  8
0
  6
Continuous
 62
   174
100
AcDbLine
 10
108.957677
 20
148.802572
 30
0.0
 11
108.957677
 21
147.098664
 31
0.0
  0
LINE
  5
5BA
100
AcDbEntity
  8
0
  6
Continuous
 62
   174
100
AcDbLine
 10
106.947678
 20
157.232997
 30
0.0
 11
106.957677
 21
157.239483
 31
0.0
  0
LINE
  5
5BB
100
AcDbEntity
  8
0
  6
Continuous
 62
   174
100
AcDbLine
 10
106.957677
 20
147.098664
 30
0.0
 11
106.957677
 21
148.802572
 31
0.0
  0
LINE
  5
5BC
100
AcDbEntity
  8
0
  6
Continuous
 62
   174
100
AcDbLine
 10
110.957677
 20
147.098664
 30
0.0
 11
110.957677
 21
148.802572
 31
0.0
  0
LINE
  5
5BD
100
AcDbEntity
  8
0
  6
Continuous
 62
   174
100
AcDbLine
 10
108.957677
 20
158.702823
 30
0.0
 11
108.967675
 21
158.694303
 31
0.0
  0
LINE
  5
5BE
100
AcDbEntity
  8
0
  6
Continuous
 62
   174
100
AcDbLine
 10
115.957677
 20
145.964597
 30
0.0
 11
117.957677
 21
147.119298
 31
0.0
  0
LINE
  5
5BF
100
AcDbEntity
  8
0
  6
Continuous
 62
   174
100
AcDbLine
 10
188.967675
 20
156.786728
 30
0.0
 11
188.957677
 21
156.792605
 31
0.0
  0
LINE
  5
5C0
100
AcDbEntity
  8
0
  6
Continuous
 62
   174
100
AcDbLine
 10
110.947678
 20
157.232997
 30
0.0
 11
110.957677
 21
157.239483
 31
0.0
  0
LINE
  5
5C1
100
AcDbEntity
  8
0
  6
Continuous
 62
   174
100
AcDbLine
 10
188.957677
 20
156.801872
 30
0.0
 11
188.957677
 21
154.803747
 31
0.0
  0
LINE
  5
5C2
100
AcDbEntity
  8
0
  6
Continuous
 62
   174
100
AcDbLine
 10
193.457677
 20
145.874637
 30
0.0
 11
193.457677
 21
159.273719
 31
0.0
  0
LINE
  5
5C3
100
AcDbEntity
  8
0
  6
Continuous
 62
   174
100
AcDbLine
 10
106.957677
 20
157.231873
 30
0.0
 11
108.957677
 21
157.231873
 31
0.0
  0
LINE
  5
5C4
100
AcDbEntity
  8
0
  6
Continuous
 62
   174
100
AcDbLine
 10
108.957677
 20
153.128008
 30
0.0
 11
106.957677
 21
153.128008
 31
0.0
  0
LINE
  5
5C5
100
AcDbEntity
  8
0
  6
Continuous
 62
   174
100
AcDbLine
 10
104.957677
 20
146.936791
 30
0.0
 11
104.957677
 21
146.474542
 31
0.0
  0
LINE
  5
5C6
100
AcDbEntity
  8
0
  6
Continuous
 62
   174
100
AcDbLine
 10
110.957677
 20
155.328027
 30
0.0
 11
110.957677
 21
157.24118
 31
0.0
  0
LINE
  5
5C7
100
AcDbEntity
  8
0
  6
Continuous
 62
   174
100
AcDbLine
 10
106.957677
 20
153.118038
 30
0.0
 11
108.957677
 21
153.118038
 31
0.0
  0
LINE
  5
5C8
100
AcDbEntity
  8
0
  6
Continuous
 62
   174
100
AcDbLine
 10
192.957677
 20
146.746666
 30
0.0
 11
192.957677
 21
145.728484
 31
0.0
  0
LINE
  5
5C9
100
AcDbEntity
  8
0
  6
Continuous
 62
   174
100
AcDbLine
 10
186.947678
 20
158.384368
 30
0.0
 11
186.957677
 21
158.392457
 31
0.0
  0
LINE
  5
5CA
100
AcDbEntity
  8
0
  6
Continuous
 62
   174
100
AcDbLine
 10
192.957677
 20
158.395742
 30
0.0
 11
192.957677
 21
156.809945
 31
0.0
  0
LINE
  5
5CB
100
AcDbEntity
  8
0
  6
Continuous
 62
   174
100
AcDbLine
 10
110.957677
 20
153.137651
 30
0.0
 11
110.957677
 21
155.31868
 31
0.0
  0
CIRCLE
  5
5CC
100
AcDbEntity
  8
0
  6
Continuous
 62
   174
100
AcDbCircle
 10
161.957677
 20
152.564597
 30
0.0
 40
7.5
  0
LINE
  5
5CD
100
AcDbEntity
  8
0
  6
Continuous
 62
   174
100
AcDbLine
 10
188.957677
 20
146.742615
 30
0.0
 11
188.967675
 21
146.750704
 31
0.0
  0
LINE
  5
5CE
100
AcDbEntity
  8
0
  6
Continuous
 62
   174
100
AcDbLine
 10
106.957677
 20
145.374574
 30
0.0
 11
106.957677
 21
145.395817
 31
0.0
  0
LINE
  5
5CF
100
AcDbEntity
  8
0
  6
Continuous
 62
   174
100
AcDbLine
 10
192.957677
 20
146.742615
 30
0.0
 11
190.957677
 21
146.742615
 31
0.0
  0
LINE
  5
5D0
100
AcDbEntity
  8
0
  6
Continuous
 62
   174
100
AcDbLine
 10
188.967675
 20
159.754597
 30
0.0
 11
188.957677
 21
159.764596
 31
0.0
  0
LINE
  5
5D1
100
AcDbEntity
  8
0
  6
Continuous
 62
   174
100
AcDbLine
 10
186.947678
 20
146.750704
 30
0.0
 11
186.957677
 21
146.742615
 31
0.0
  0
LINE
  5
5D2
100
AcDbEntity
  8
0
  6
Continuous
 62
   174
100
AcDbLine
 10
106.957677
 20
148.792808
 30
0.0
 11
108.957677
 21
148.792808
 31
0.0
  0
LINE
  5
5D3
100
AcDbEntity
  8
0
  6
Continuous
 62
   174
100
AcDbLine
 10
105.457677
 20
159.164597
 30
0.0
 11
104.957677
 21
158.664597
 31
0.0
  0
LINE
  5
5D4
100
AcDbEntity
  8
0
  6
Continuous
 62
   174
100
AcDbLine
 10
106.957677
 20
158.69759
 30
0.0
 11
106.947678
 21
158.68907
 31
0.0
  0
LINE
  5
5D5
100
AcDbEntity
  8
0
  6
Continuous
 62
   174
100
AcDbLine
 10
186.957677
 20
150.33492
 30
0.0
 11
186.947678
 21
150.33801
 31
0.0
  0
LINE
  5
5D6
100
AcDbEntity
  8
0
  6
Continuous
 62
   174
100
AcDbLine
 10
192.957677
 20
159.413748
 30
0.0
 11
192.967675
 21
159.404239
 31
0.0
  0
LINE
  5
5D7
100
AcDbEntity
  8
0
  6
Continuous
 62
   174
100
AcDbLine
 10
112.967675
 20
148.79804
 30
0.0
 11
112.957677
 21
148.792808
 31
0.0
  0
LINE
  5
5D8
100
AcDbEntity
  8
0
  6
Continuous
 62
   174
100
AcDbLine
 10
190.957677
 20
156.792605
 30
0.0
 11
192.957677
 21
156.792605
 31
0.0
  0
LINE
  5
5D9
100
AcDbEntity
  8
0
  6
Continuous
 62
   174
100
AcDbLine
 10
192.957677
 20
156.800695
 30
0.0
 11
192.967675
 21
156.794818
 31
0.0
  0
LINE
  5
5DA
100
AcDbEntity
  8
0
  6
Continuous
 62
   174
100
AcDbLine
 10
190.957677
 20
159.410657
 30
0.0
 11
192.957677
 21
159.410657
 31
0.0
  0
LINE
  5
5DB
100
AcDbEntity
  8
0
  6
Continuous
 62
   174
100
AcDbLine
 10
117.957677
 20
158.009897
 30
0.0
 11
115.957677
 21
159.164597
 31
0.0
  0
LINE
  5
5DC
100
AcDbEntity
  8
0
  6
Continuous
 62
   174
100
AcDbLine
 10
192.957677
 20
150.344431
 30
0.0
 11
192.967675
 21
150.34752
 31
0.0
  0
LINE
  5
5DD
100
AcDbEntity
  8
0
  6
Continuous
 62
   174
100
AcDbLine
 10
112.957677
 20
155.31868
 30
0.0
 11
112.957677
 21
153.137651
 31
0.0
  0
LWPOLYLINE
  5
5DE
100
AcDbEntity
  8
0
  6
Continuous
 62
   174
100
AcDbPolyline
 90
        2
 70
   129
 10
106.947678
 20
155.305473
 10
106.947677
 20
155.310094
  0
LINE
  5
5DF
100
AcDbEntity
  8
0
  6
Continuous
 62
   174
100
AcDbLine
 10
112.957677
 20
145.912091
 30
0.0
 11
110.957677
 21
145.912091
 31
0.0
  0
LINE
  5
5E0
100
AcDbEntity
  8
0
  6
Continuous
 62
   174
100
AcDbLine
 10
192.957677
 20
156.800695
 30
0.0
 11
190.957677
 21
156.800695
 31
0.0
  0
LINE
  5
5E1
100
AcDbEntity
  8
0
  6
Continuous
 62
   174
100
AcDbLine
 10
188.957677
 20
150.344431
 30
0.0
 11
188.967675
 21
150.34752
 31
0.0
  0
LINE
  5
5E2
100
AcDbEntity
  8
0
  6
Continuous
 62
   174
100
AcDbLine
 10
190.457677
 20
152.574284
 30
0.0
 11
190.457677
 21
145.874637
 31
0.0
  0
LWPOLYLINE
  5
5E3
100
AcDbEntity
  8
0
  6
Continuous
 62
   174
100
AcDbPolyline
 90
        2
 70
   129
 10
108.967675
 20
145.921332
 10
108.967677
 20
145.919422
  0
LINE
  5
5E4
100
AcDbEntity
  8
0
  6
Continuous
 62
   174
100
AcDbLine
 10
108.957677
 20
145.386675
 30
0.0
 11
108.967675
 21
145.396643
 31
0.0
  0
LINE
  5
5E5
100
AcDbEntity
  8
0
  6
Continuous
 62
   174
100
AcDbLine
 10
106.957677
 20
150.872611
 30
0.0
 11
106.947678
 21
150.874954
 31
0.0
  0
LINE
  5
5E6
100
AcDbEntity
  8
0
  6
Continuous
 62
   174
100
AcDbLine
 10
192.957677
 20
145.718537
 30
0.0
 11
190.957677
 21
145.718537
 31
0.0
  0
LINE
  5
5E7
100
AcDbEntity
  8
0
  6
Continuous
 62
   174
100
AcDbLine
 10
190.957677
 20
156.809945
 30
0.0
 11
190.957677
 21
158.395742
 31
0.0
  0
LINE
  5
5E8
100
AcDbEntity
  8
0
  6
Continuous
 62
   174
100
AcDbLine
 10
117.957677
 20
172.564597
 30
0.0
 11
181.957677
 21
172.564597
 31
0.0
  0
LINE
  5
5E9
100
AcDbEntity
  8
0
  6
Continuous
 62
   174
100
AcDbLine
 10
108.957677
 20
150.882333
 30
0.0
 11
106.957677
 21
150.882333
 31
0.0
  0
LINE
  5
5EA
100
AcDbEntity
  8
0
  6
Continuous
 62
   174
100
AcDbLine
 10
188.957677
 20
148.338411
 30
0.0
 11
188.957677
 21
146.752614
 31
0.0
  0
LINE
  5
5EB
100
AcDbEntity
  8
0
  6
Continuous
 62
   174
100
AcDbLine
 10
186.957677
 20
158.386579
 30
0.0
 11
188.957677
 21
158.386579
 31
0.0
  0
LINE
  5
5EC
100
AcDbEntity
  8
0
  6
Continuous
 62
   174
100
AcDbLine
 10
192.967675
 20
145.724956
 30
0.0
 11
192.957677
 21
145.715447
 31
0.0
  0
LINE
  5
5ED
100
AcDbEntity
  8
0
  6
Continuous
 62
   174
100
AcDbLine
 10
190.947678
 20
150.34752
 30
0.0
 11
190.957677
 21
150.344431
 31
0.0
  0
LINE
  5
5EE
100
AcDbEntity
  8
0
  6
Continuous
 62
   174
100
AcDbLine
 10
106.957677
 20
145.385899
 30
0.0
 11
108.957677
 21
145.385899
 31
0.0
  0
LINE
  5
5EF
100
AcDbEntity
  8
0
  6
Continuous
 62
   174
100
AcDbLine
 10
110.957677
 20
155.309291
 30
0.0
 11
110.947678
 21
155.305473
 31
0.0
  0
LINE
  5
5F0
100
AcDbEntity
  8
0
  6
Continuous
 62
   174
100
AcDbLine
 10
108.967675
 20
155.305473
 30
0.0
 11
108.957677
 21
155.309291
 31
0.0
  0
LINE
  5
5F1
100
AcDbEntity
  8
0
  6
Continuous
 62
   174
100
AcDbLine
 10
108.957677
 20
148.801329
 30
0.0
 11
108.967675
 21
148.806561
 31
0.0
  0
LINE
  5
5F2
100
AcDbEntity
  8
0
  6
Continuous
 62
   174
100
AcDbLine
 10
181.957677
 20
132.564597
 30
0.0
 11
117.957677
 21
132.564597
 31
0.0
  0
LINE
  5
5F3
100
AcDbEntity
  8
0
  6
Continuous
 62
   174
100
AcDbLine
 10
104.957677
 20
146.464597
 30
0.0
 11
105.457677
 21
145.964597
 31
0.0
  0
LINE
  5
5F4
100
AcDbEntity
  8
0
  6
Continuous
 62
   174
100
AcDbLine
 10
108.967675
 20
158.68907
 30
0.0
 11
108.957677
 21
158.69759
 31
0.0
  0
LINE
  5
5F5
100
AcDbEntity
  8
0
  6
Continuous
 62
   174
100
AcDbLine
 10
108.957677
 20
155.318533
 30
0.0
 11
106.957677
 21
155.318533
 31
0.0
  0
LINE
  5
5F6
100
AcDbEntity
  8
0
  6
Continuous
 62
   174
100
AcDbLine
 10
110.947678
 20
157.232997
 30
0.0
 11
112.967675
 21
157.232997
 31
0.0
  0
LINE
  5
5F7
100
AcDbEntity
  8
0
  6
Continuous
 62
   174
100
AcDbLine
 10
106.957677
 20
153.118038
 30
0.0
 11
106.947678
 21
153.117263
 31
0.0
  0
LINE
  5
5F8
100
AcDbEntity
  8
0
  6
Continuous
 62
   174
100
AcDbLine
 10
112.967675
 20
157.225387
 30
0.0
 11
112.957677
 21
157.231873
 31
0.0
  0
LINE
  5
5F9
100
AcDbEntity
  8
0
  6
Continuous
 62
   174
100
AcDbLine
 10
112.957677
 20
148.801329
 30
0.0
 11
110.957677
 21
148.801329
 31
0.0
  0
LINE
  5
5FA
100
AcDbEntity
  8
0
  6
Continuous
 62
   174
100
AcDbLine
 10
186.947678
 20
156.794818
 30
0.0
 11
186.957677
 21
156.800695
 31
0.0
  0
LWPOLYLINE
  5
5FB
100
AcDbEntity
  8
0
  6
Continuous
 62
   174
100
AcDbPolyline
 90
        2
 70
   129
 10
190.947678
 20
152.559597
 10
190.947677
 20
152.564597
  0
LINE
  5
5FC
100
AcDbEntity
  8
0
  6
Continuous
 62
   174
100
AcDbLine
 10
104.957677
 20
158.673814
 30
0.0
 11
104.957677
 21
146.936791
 31
0.0
  0
LINE
  5
5FD
100
AcDbEntity
  8
0
  6
Continuous
 62
   174
100
AcDbLine
 10
106.957677
 20
145.396667
 30
0.0
 11
106.957677
 21
145.918185
 31
0.0
  0
LINE
  5
5FE
100
AcDbEntity
  8
0
  6
Continuous
 62
   174
100
AcDbLine
 10
192.955171
 20
145.364599
 30
0.0
 11
190.960183
 21
145.364599
 31
0.0
  0
LINE
  5
5FF
100
AcDbEntity
  8
0
  6
Continuous
 62
   174
100
AcDbLine
 10
106.947678
 20
159.555591
 30
0.0
 11
106.957677
 21
159.565311
 31
0.0
  0
LINE
  5
600
100
AcDbEntity
  8
0
  6
Continuous
 62
   174
100
AcDbLine
 10
106.457677
 20
159.164597
 30
0.0
 11
105.457677
 21
159.164597
 31
0.0
  0
LINE
  5
601
100
AcDbEntity
  8
0
  6
Continuous
 62
   174
100
AcDbLine
 10
108.957677
 20
145.386675
 30
0.0
 11
106.957677
 21
145.386675
 31
0.0
  0
LINE
  5
602
100
AcDbEntity
  8
0
  6
Continuous
 62
   174
100
AcDbLine
 10
108.957677
 20
145.395817
 30
0.0
 11
108.957677
 21
145.374574
 31
0.0
  0
LINE
  5
603
100
AcDbEntity
  8
0
  6
Continuous
 62
   174
100
AcDbLine
 10
112.957677
 20
148.801329
 30
0.0
 11
112.967675
 21
148.806561
 31
0.0
  0
LINE
  5
604
100
AcDbEntity
  8
0
  6
Continuous
 62
   174
100
AcDbLine
 10
108.967675
 20
145.395868
 30
0.0
 11
108.957677
 21
145.385899
 31
0.0
  0
LINE
  5
605
100
AcDbEntity
  8
0
  6
Continuous
 62
   174
100
AcDbLine
 10
190.957677
 20
158.40169
 30
0.0
 11
190.957677
 21
159.419872
 31
0.0
  0
LINE
  5
606
100
AcDbEntity
  8
0
  6
Continuous
 62
   174
100
AcDbLine
 10
188.957677
 20
158.395742
 30
0.0
 11
188.957677
 21
156.809945
 31
0.0
  0
LINE
  5
607
100
AcDbEntity
  8
0
  6
Continuous
 62
   174
100
AcDbLine
 10
192.967675
 20
148.334376
 30
0.0
 11
190.947678
 21
148.334376
 31
0.0
  0
LINE
  5
608
100
AcDbEntity
  8
0
  6
Continuous
 62
   174
100
AcDbLine
 10
190.947678
 20
148.342466
 30
0.0
 11
190.957677
 21
148.33659
 31
0.0
  0
LINE
  5
609
100
AcDbEntity
  8
0
  6
Continuous
 62
   174
100
AcDbLine
 10
190.957677
 20
146.752614
 30
0.0
 11
190.957677
 21
148.338411
 31
0.0
  0
LINE
  5
60A
100
AcDbEntity
  8
0
  6
Continuous
 62
   174
100
AcDbLine
 10
106.947678
 20
153.127233
 30
0.0
 11
106.957677
 21
153.128008
 31
0.0
  0
LINE
  5
60B
100
AcDbEntity
  8
0
  6
Continuous
 62
   174
100
AcDbLine
 10
186.457677
 20
152.574284
 30
0.0
 11
186.457677
 21
145.874637
 31
0.0
  0
LINE
  5
60C
100
AcDbEntity
  8
0
  6
Continuous
 62
   174
100
AcDbLine
 10
190.957677
 20
158.386579
 30
0.0
 11
192.957677
 21
158.386579
 31
0.0
  0
LINE
  5
60D
100
AcDbEntity
  8
0
  6
Continuous
 62
   174
100
AcDbLine
 10
186.947678
 20
145.728046
 30
0.0
 11
186.957677
 21
145.718537
 31
0.0
  0
LINE
  5
60E
100
AcDbEntity
  8
0
  6
Continuous
 62
   174
100
AcDbLine
 10
188.957677
 20
148.33659
 30
0.0
 11
186.957677
 21
148.33659
 31
0.0
  0
LINE
  5
60F
100
AcDbEntity
  8
0
  6
Continuous
 62
   174
100
AcDbLine
 10
110.457677
 20
159.164597
 30
0.0
 11
109.457677
 21
159.164597
 31
0.0
  0
LINE
  5
610
100
AcDbEntity
  8
0
  6
Continuous
 62
   174
100
AcDbLine
 10
112.957677
 20
145.918185
 30
0.0
 11
112.957677
 21
145.396667
 31
0.0
  0
LINE
  5
611
100
AcDbEntity
  8
0
  6
Continuous
 62
   174
100
AcDbLine
 10
186.957677
 20
159.410657
 30
0.0
 11
188.957677
 21
159.410657
 31
0.0
  0
LINE
  5
612
100
AcDbEntity
  8
0
  6
Continuous
 62
   174
100
AcDbLine
 10
192.957677
 20
146.742615
 30
0.0
 11
192.967675
 21
146.750704
 31
0.0
  0
LINE
  5
613
100
AcDbEntity
  8
0
  6
Continuous
 62
   174
100
AcDbLine
 10
186.957677
 20
156.792605
 30
0.0
 11
188.957677
 21
156.792605
 31
0.0
  0
LINE
  5
614
100
AcDbEntity
  8
0
  6
Continuous
 62
   174
100
AcDbLine
 10
190.457677
 20
159.273719
 30
0.0
 11
190.457677
 21
152.574284
 31
0.0
  0
LINE
  5
615
100
AcDbEntity
  8
0
  6
Continuous
 62
   174
100
AcDbLine
 10
186.957677
 20
154.803747
 30
0.0
 11
186.957677
 21
156.801872
 31
0.0
  0
LINE
  5
616
100
AcDbEntity
  8
0
  6
Continuous
 62
   174
100
AcDbLine
 10
106.957677
 20
153.137651
 30
0.0
 11
106.957677
 21
155.31868
 31
0.0
  0
LINE
  5
617
100
AcDbEntity
  8
0
  6
Continuous
 62
   174
100
AcDbLine
 10
112.967675
 20
155.305473
 30
0.0
 11
112.957677
 21
155.309291
 31
0.0
  0
LINE
  5
618
100
AcDbEntity
  8
0
  6
Continuous
 62
   174
100
AcDbLine
 10
110.947678
 20
159.555591
 30
0.0
 11
110.957677
 21
159.565311
 31
0.0
  0
LINE
  5
619
100
AcDbEntity
  8
0
  6
Continuous
 62
   174
100
AcDbLine
 10
188.967675
 20
154.791185
 30
0.0
 11
186.947678
 21
154.791185
 31
0.0
  0
LINE
  5
61A
100
AcDbEntity
  8
0
  6
Continuous
 62
   174
100
AcDbLine
 10
192.957677
 20
159.773782
 30
0.0
 11
192.957677
 21
159.423058
 31
0.0
  0
LINE
  5
61B
100
AcDbEntity
  8
0
  6
Continuous
 62
   174
100
AcDbLine
 10
106.957677
 20
158.69759
 30
0.0
 11
108.957677
 21
158.69759
 31
0.0
  0
LINE
  5
61C
100
AcDbEntity
  8
0
  6
Continuous
 62
   174
100
AcDbLine
 10
110.957677
 20
150.872611
 30
0.0
 11
110.947678
 21
150.874954
 31
0.0
  0
LINE
  5
61D
100
AcDbEntity
  8
0
  6
Continuous
 62
   174
100
AcDbLine
 10
106.947678
 20
150.884676
 30
0.0
 11
106.957677
 21
150.882333
 31
0.0
  0
LINE
  5
61E
100
AcDbEntity
  8
0
  6
Continuous
 62
   174
100
AcDbLine
 10
110.947678
 20
153.127233
 30
0.0
 11
110.957677
 21
153.128008
 31
0.0
  0
LINE
  5
61F
100
AcDbEntity
  8
0
  6
Continuous
 62
   174
100
AcDbLine
 10
112.957677
 20
147.092078
 30
0.0
 11
112.957677
 21
145.922009
 31
0.0
  0
LINE
  5
620
100
AcDbEntity
  8
0
  6
Continuous
 62
   174
100
AcDbLine
 10
192.957677
 20
145.718537
 30
0.0
 11
192.967675
 21
145.728046
 31
0.0
  0
LINE
  5
621
100
AcDbEntity
  8
0
  6
Continuous
 62
   174
100
AcDbLine
 10
190.947678
 20
146.750704
 30
0.0
 11
190.957677
 21
146.742615
 31
0.0
  0
LINE
  5
622
100
AcDbEntity
  8
0
  6
Continuous
 62
   174
100
AcDbLine
 10
105.457677
 20
145.964597
 30
0.0
 11
106.457677
 21
145.964597
 31
0.0
  0
LINE
  5
623
100
AcDbEntity
  8
0
  6
Continuous
 62
   174
100
AcDbLine
 10
192.967675
 20
159.754597
 30
0.0
 11
192.957677
 21
159.764596
 31
0.0
  0
LINE
  5
624
100
AcDbEntity
  8
0
  6
Continuous
 62
   174
100
AcDbLine
 10
188.957677
 20
159.413748
 30
0.0
 11
188.967675
 21
159.404239
 31
0.0
  0
LINE
  5
625
100
AcDbEntity
  8
0
  6
Continuous
 62
   174
100
AcDbLine
 10
190.947678
 20
159.404239
 30
0.0
 11
190.957677
 21
159.413748
 31
0.0
  0
LWPOLYLINE
  5
626
100
AcDbEntity
  8
0
  6
Continuous
 62
   174
100
AcDbPolyline
 90
        2
 70
   129
 10
108.967675
 20
155.314715
 10
108.967677
 20
155.310094
  0
LINE
  5
627
100
AcDbEntity
  8
0
  6
Continuous
 62
   174
100
AcDbLine
 10
190.957677
 20
156.792605
 30
0.0
 11
190.947678
 21
156.786728
 31
0.0
  0
LINE
  5
628
100
AcDbEntity
  8
0
  6
Continuous
 62
   174
100
AcDbLine
 10
188.967675
 20
150.33801
 30
0.0
 11
188.957677
 21
150.33492
 31
0.0
  0
LINE
  5
629
100
AcDbEntity
  8
0
  6
Continuous
 62
   174
100
AcDbLine
 10
186.957677
 20
146.752614
 30
0.0
 11
186.957677
 21
148.338411
 31
0.0
  0
LINE
  5
62A
100
AcDbEntity
  8
0
  6
Continuous
 62
   174
100
AcDbLine
 10
110.957677
 20
159.574521
 30
0.0
 11
110.957677
 21
159.773782
 31
0.0
  0
LINE
  5
62B
100
AcDbEntity
  8
0
  6
Continuous
 62
   174
100
AcDbLine
 10
106.457677
 20
146.382134
 30
0.0
 11
106.457677
 21
145.874637
 31
0.0
  0
CIRCLE
  5
62C
100
AcDbEntity
  8
0
  6
Continuous
 62
   174
100
AcDbCircle
 10
149.957677
 20
168.564597
 30
0.0
 40
2.75
  0
LINE
  5
62D
100
AcDbEntity
  8
0
  6
Continuous
 62
   174
100
AcDbLine
 10
192.967675
 20
158.378491
 30
0.0
 11
192.957677
 21
158.386579
 31
0.0
  0
LINE
  5
62E
100
AcDbEntity
  8
0
  6
Continuous
 62
   174
100
AcDbLine
 10
106.947678
 20
145.921332
 30
0.0
 11
106.957677
 21
145.912091
 31
0.0
  0
LINE
  5
62F
100
AcDbEntity
  8
0
  6
Continuous
 62
   174
100
AcDbLine
 10
109.457677
 20
145.964597
 30
0.0
 11
110.457677
 21
145.964597
 31
0.0
  0
LINE
  5
630
100
AcDbEntity
  8
0
  6
Continuous
 62
   174
100
AcDbLine
 10
189.457677
 20
145.874637
 30
0.0
 11
189.457677
 21
159.273719
 31
0.0
  0
LINE
  5
631
100
AcDbEntity
  8
0
  6
Continuous
 62
   174
100
AcDbLine
 10
106.957677
 20
157.231873
 30
0.0
 11
106.947678
 21
157.225387
 31
0.0
  0
LINE
  5
632
100
AcDbEntity
  8
0
  6
Continuous
 62
   174
100
AcDbLine
 10
112.957677
 20
148.802572
 30
0.0
 11
112.957677
 21
147.098664
 31
0.0
  0
LINE
  5
633
100
AcDbEntity
  8
0
  6
Continuous
 62
   174
100
AcDbLine
 10
192.957677
 20
148.33659
 30
0.0
 11
192.967675
 21
148.342466
 31
0.0
  0
LINE
  5
634
100
AcDbEntity
  8
0
  6
Continuous
 62
   174
100
AcDbLine
 10
110.957677
 20
145.908273
 30
0.0
 11
110.947678
 21
145.917513
 31
0.0
  0
LINE
  5
635
100
AcDbEntity
  8
0
  6
Continuous
 62
   174
100
AcDbLine
 10
188.967675
 20
148.334376
 30
0.0
 11
186.947678
 21
148.334376
 31
0.0
  0
LINE
  5
636
100
AcDbEntity
  8
0
  6
Continuous
 62
   174
100
AcDbLine
 10
186.957677
 20
152.559597
 30
0.0
 11
188.957677
 21
152.559597
 31
0.0
  0
LWPOLYLINE
  5
637
100
AcDbEntity
  8
0
  6
Continuous
 62
   174
100
AcDbPolyline
 90
        2
 70
   129
 10
112.967675
 20
145.921332
 10
112.967677
 20
145.919422
  0
LINE
  5
638
100
AcDbEntity
  8
0
  6
Continuous
 62
   174
100
AcDbLine
 10
190.957677
 20
152.57917
 30
0.0
 11
190.957677
 21
154.794188
 31
0.0
  0
LINE
  5
639
100
AcDbEntity
  8
0
  6
Continuous
 62
   174
100
AcDbLine
 10
186.957677
 20
158.40169
 30
0.0
 11
186.957677
 21
159.419872
 31
0.0
  0
LINE
  5
63A
100
AcDbEntity
  8
0
  6
Continuous
 62
   174
100
AcDbLine
 10
110.947678
 20
145.396643
 30
0.0
 11
110.957677
 21
145.386675
 31
0.0
  0
LINE
  5
63B
100
AcDbEntity
  8
0
  6
Continuous
 62
   174
100
AcDbLine
 10
106.957677
 20
145.364597
 30
0.0
 11
108.957677
 21
145.364597
 31
0.0
  0
LINE
  5
63C
100
AcDbEntity
  8
0
  6
Continuous
 62
   174
100
AcDbLine
 10
186.947678
 20
145.374597
 30
0.0
 11
186.957677
 21
145.364599
 31
0.0
  0
LINE
  5
63D
100
AcDbEntity
  8
0
  6
Continuous
 62
   174
100
AcDbLine
 10
106.957677
 20
159.562967
 30
0.0
 11
108.957677
 21
159.562967
 31
0.0
  0
LINE
  5
63E
100
AcDbEntity
  8
0
  6
Continuous
 62
   174
100
AcDbLine
 10
192.957677
 20
158.392457
 30
0.0
 11
192.967675
 21
158.384368
 31
0.0
  0
LINE
  5
63F
100
AcDbEntity
  8
0
  6
Continuous
 62
   174
100
AcDbLine
 10
186.457677
 20
159.273719
 30
0.0
 11
186.457677
 21
152.574284
 31
0.0
  0
LINE
  5
640
100
AcDbEntity
  8
0
  6
Continuous
 62
   174
100
AcDbLine
 10
108.957677
 20
150.882272
 30
0.0
 11
108.957677
 21
148.81107
 31
0.0
  0
LINE
  5
641
100
AcDbEntity
  8
0
  6
Continuous
 62
   174
100
AcDbLine
 10
192.967675
 20
150.33801
 30
0.0
 11
190.947678
 21
150.33801
 31
0.0
  0
LINE
  5
642
100
AcDbEntity
  8
0
  6
Continuous
 62
   174
100
AcDbLine
 10
110.957677
 20
148.792808
 30
0.0
 11
110.947678
 21
148.79804
 31
0.0
  0
LINE
  5
643
100
AcDbEntity
  8
0
  6
Continuous
 62
   174
100
AcDbLine
 10
188.957677
 20
156.800695
 30
0.0
 11
188.967675
 21
156.794818
 31
0.0
  0
LINE
  5
644
100
AcDbEntity
  8
0
  6
Continuous
 62
   174
100
AcDbLine
 10
110.957677
 20
145.385899
 30
0.0
 11
112.957677
 21
145.385899
 31
0.0
  0
LINE
  5
645
100
AcDbEntity
  8
0
  6
Continuous
 62
   174
100
AcDbLine
 10
108.957677
 20
157.239483
 30
0.0
 11
106.957677
 21
157.239483
 31
0.0
  0
LINE
  5
646
100
AcDbEntity
  8
0
  6
Continuous
 62
   174
100
AcDbLine
 10
108.957677
 20
157.24118
 30
0.0
 11
108.957677
 21
155.328027
 31
0.0
  0
CIRCLE
  5
647
100
AcDbEntity
  8
0
  6
Continuous
 62
   174
100
AcDbCircle
 10
166.957677
 20
152.564597
 30
0.0
 40
2.5
  0
LINE
  5
648
100
AcDbEntity
  8
0
  6
Continuous
 62
   174
100
AcDbLine
 10
106.947678
 20
155.314715
 30
0.0
 11
108.967675
 21
155.314715
 31
0.0
  0
LINE
  5
649
100
AcDbEntity
  8
0
  6
Continuous
 62
   174
100
AcDbLine
 10
106.947678
 20
153.127233
 30
0.0
 11
108.967675
 21
153.127233
 31
0.0
  0
LINE
  5
64A
100
AcDbEntity
  8
0
  6
Continuous
 62
   174
100
AcDbLine
 10
108.957677
 20
153.128008
 30
0.0
 11
108.967675
 21
153.127233
 31
0.0
  0
LINE
  5
64B
100
AcDbEntity
  8
0
  6
Continuous
 62
   174
100
AcDbLine
 10
192.957677
 20
156.801872
 30
0.0
 11
192.957677
 21
154.803747
 31
0.0
  0
LINE
  5
64C
100
AcDbEntity
  8
0
  6
Continuous
 62
   174
100
AcDbLine
 10
112.957677
 20
153.127667
 30
0.0
 11
112.957677
 21
150.892043
 31
0.0
  0
LINE
  5
64D
100
AcDbEntity
  8
0
  6
Continuous
 62
   174
100
AcDbLine
 10
186.957677
 20
145.728484
 30
0.0
 11
186.957677
 21
146.746666
 31
0.0
  0
LINE
  5
64E
100
AcDbEntity
  8
0
  6
Continuous
 62
   174
100
AcDbLine
 10
190.957677
 20
146.736737
 30
0.0
 11
192.957677
 21
146.736737
 31
0.0
  0
LINE
  5
64F
100
AcDbEntity
  8
0
  6
Continuous
 62
   174
100
AcDbLine
 10
190.947678
 20
145.374597
 30
0.0
 11
190.957677
 21
145.364599
 31
0.0
  0
LINE
  5
650
100
AcDbEntity
  8
0
  6
Continuous
 62
   174
100
AcDbLine
 10
188.957677
 20
156.800695
 30
0.0
 11
186.957677
 21
156.800695
 31
0.0
  0
LINE
  5
651
100
AcDbEntity
  8
0
  6
Continuous
 62
   174
100
AcDbLine
 10
186.957677
 20
156.792605
 30
0.0
 11
186.947678
 21
156.786728
 31
0.0
  0
LINE
  5
652
100
AcDbEntity
  8
0
  6
Continuous
 62
   174
100
AcDbLine
 10
192.957677
 20
152.569186
 30
0.0
 11
192.957677
 21
150.354168
 31
0.0
  0
LINE
  5
653
100
AcDbEntity
  8
0
  6
Continuous
 62
   174
100
AcDbLine
 10
112.967675
 20
158.68907
 30
0.0
 11
112.957677
 21
158.69759
 31
0.0
  0
LINE
  5
654
100
AcDbEntity
  8
0
  6
Continuous
 62
   174
100
AcDbLine
 10
110.957677
 20
157.231873
 30
0.0
 11
110.947678
 21
157.225387
 31
0.0
  0
LINE
  5
655
100
AcDbEntity
  8
0
  6
Continuous
 62
   174
100
AcDbLine
 10
110.947678
 20
148.79804
 30
0.0
 11
112.967675
 21
148.79804
 31
0.0
  0
LINE
  5
656
100
AcDbEntity
  8
0
  6
Continuous
 62
   174
100
AcDbLine
 10
106.957677
 20
145.922009
 30
0.0
 11
106.957677
 21
147.092078
 31
0.0
  0
LINE
  5
657
100
AcDbEntity
  8
0
  6
Continuous
 62
   174
100
AcDbLine
 10
108.957677
 20
159.572185
 30
0.0
 11
108.957677
 21
158.712052
 31
0.0
  0
LINE
  5
658
100
AcDbEntity
  8
0
  6
Continuous
 62
   174
100
AcDbLine
 10
190.957677
 20
159.410657
 30
0.0
 11
190.947678
 21
159.401149
 31
0.0
  0
LINE
  5
659
100
AcDbEntity
  8
0
  6
Continuous
 62
   174
100
AcDbLine
 10
112.957677
 20
159.773782
 30
0.0
 11
112.957677
 21
159.574521
 31
0.0
  0
LINE
  5
65A
100
AcDbEntity
  8
0
  6
Continuous
 62
   174
100
AcDbLine
 10
186.957677
 20
150.33492
 30
0.0
 11
188.957677
 21
150.33492
 31
0.0
  0
LINE
  5
65B
100
AcDbEntity
  8
0
  6
Continuous
 62
   174
100
AcDbLine
 10
106.947678
 20
158.694303
 30
0.0
 11
106.957677
 21
158.702823
 31
0.0
  0
LINE
  5
65C
100
AcDbEntity
  8
0
  6
Continuous
 62
   174
100
AcDbLine
 10
186.957677
 20
148.346483
 30
0.0
 11
186.957677
 21
150.344609
 31
0.0
  0
LINE
  5
65D
100
AcDbEntity
  8
0
  6
Continuous
 62
   174
100
AcDbLine
 10
186.947678
 20
150.34752
 30
0.0
 11
186.957677
 21
150.344431
 31
0.0
  0
LINE
  5
65E
100
AcDbEntity
  8
0
  6
Continuous
 62
   174
100
AcDbLine
 10
190.947678
 20
145.728046
 30
0.0
 11
190.957677
 21
145.718537
 31
0.0
  0
LINE
  5
65F
100
AcDbEntity
  8
0
  6
Continuous
 62
   174
100
AcDbLine
 10
108.957677
 20
148.801329
 30
0.0
 11
106.957677
 21
148.801329
 31
0.0
  0
LINE
  5
660
100
AcDbEntity
  8
0
  6
Continuous
 62
   174
100
AcDbLine
 10
108.957677
 20
159.565311
 30
0.0
 11
106.957677
 21
159.565311
 31
0.0
  0
LINE
  5
661
100
AcDbEntity
  8
0
  6
Continuous
 62
   174
100
AcDbLine
 10
110.947678
 20
155.314715
 30
0.0
 11
110.957677
 21
155.318533
 31
0.0
  0
LINE
  5
662
100
AcDbEntity
  8
0
  6
Continuous
 62
   174
100
AcDbLine
 10
106.457677
 20
159.273719
 30
0.0
 11
106.457677
 21
146.382134
 31
0.0
  0
LINE
  5
663
100
AcDbEntity
  8
0
  6
Continuous
 62
   174
100
AcDbLine
 10
112.957677
 20
145.386675
 30
0.0
 11
110.957677
 21
145.386675
 31
0.0
  0
LINE
  5
664
100
AcDbEntity
  8
0
  6
Continuous
 62
   174
100
AcDbLine
 10
108.957677
 20
145.912091
 30
0.0
 11
106.957677
 21
145.912091
 31
0.0
  0
LINE
  5
665
100
AcDbEntity
  8
0
  6
Continuous
 62
   174
100
AcDbLine
 10
183.957677
 20
145.964597
 30
0.0
 11
186.457677
 21
145.964597
 31
0.0
  0
LINE
  5
666
100
AcDbEntity
  8
0
  6
Continuous
 62
   174
100
AcDbLine
 10
106.957677
 20
148.81107
 30
0.0
 11
106.957677
 21
150.882272
 31
0.0
  0
LINE
  5
667
100
AcDbEntity
  8
0
  6
Continuous
 62
   174
100
AcDbLine
 10
112.957677
 20
158.702823
 30
0.0
 11
110.957677
 21
158.702823
 31
0.0
  0
LINE
  5
668
100
AcDbEntity
  8
0
  6
Continuous
 62
   174
100
AcDbLine
 10
188.967675
 20
158.378491
 30
0.0
 11
188.957677
 21
158.386579
 31
0.0
  0
LINE
  5
669
100
AcDbEntity
  8
0
  6
Continuous
 62
   174
100
AcDbLine
 10
188.957677
 20
148.33659
 30
0.0
 11
188.967675
 21
148.342466
 31
0.0
  0
LINE
  5
66A
100
AcDbEntity
  8
0
  6
Continuous
 62
   174
100
AcDbLine
 10
190.947678
 20
156.794818
 30
0.0
 11
190.957677
 21
156.800695
 31
0.0
  0
LINE
  5
66B
100
AcDbEntity
  8
0
  6
Continuous
 62
   174
100
AcDbLine
 10
183.957677
 20
159.173877
 30
0.0
 11
183.957677
 21
145.974479
 31
0.0
  0
LINE
  5
66C
100
AcDbEntity
  8
0
  6
Continuous
 62
   174
100
AcDbLine
 10
112.957677
 20
155.318533
 30
0.0
 11
112.967675
 21
155.314715
 31
0.0
  0
LINE
  5
66D
100
AcDbEntity
  8
0
  6
Continuous
 62
   174
100
AcDbLine
 10
188.957677
 20
150.344609
 30
0.0
 11
188.957677
 21
148.346483
 31
0.0
  0
LINE
  5
66E
100
AcDbEntity
  8
0
  6
Continuous
 62
   174
100
AcDbLine
 10
194.457677
 20
145.964597
 30
0.0
 11
194.957677
 21
146.464597
 31
0.0
  0
LINE
  5
66F
100
AcDbEntity
  8
0
  6
Continuous
 62
   174
100
AcDbLine
 10
186.957677
 20
145.374574
 30
0.0
 11
186.957677
 21
145.72551
 31
0.0
  0
LINE
  5
670
100
AcDbEntity
  8
0
  6
Continuous
 62
   174
100
AcDbLine
 10
108.957677
 20
158.706741
 30
0.0
 11
108.957677
 21
157.248827
 31
0.0
  0
LINE
  5
671
100
AcDbEntity
  8
0
  6
Continuous
 62
   174
100
AcDbLine
 10
106.957677
 20
155.309291
 30
0.0
 11
106.947678
 21
155.305473
 31
0.0
  0
LINE
  5
672
100
AcDbEntity
  8
0
  6
Continuous
 62
   174
100
AcDbLine
 10
192.967675
 20
150.33801
 30
0.0
 11
192.957677
 21
150.33492
 31
0.0
  0
ENDBLK
  5
673
100
AcDbEntity
  8
0
100
AcDbBlockEnd
  0
BLOCK
  5
676
100
AcDbEntity
  8
0
100
AcDbBlockBegin
  2
*B5
 70
     0
 10
0.0
 20
0.0
 30
0.0
  3
*B5
  1

  0
LINE
  5
677
100
AcDbEntity
  8
0
  6
Continuous
 62
     0
100
AcDbLine
 10
181.97579
 20
184.007905
 30
0.0
 11
117.975867
 21
184.007905
 31
0.0
  0
SOLID
  5
678
100
AcDbEntity
  8
0
  6
Continuous
 62
     0
100
AcDbTrace
 10
178.475778
 20
183.407787
 30
0.0
 11
181.97579
 21
184.007905
 31
0.0
 12
178.475778
 22
184.60781
 32
0.0
 13
178.475778
 23
184.60781
 33
0.0
  0
SOLID
  5
679
100
AcDbEntity
  8
0
  6
Continuous
 62
     0
100
AcDbTrace
 10
121.475879
 20
184.60781
 30
0.0
 11
117.975867
 21
184.007905
 31
0.0
 12
121.475879
 22
183.407787
 32
0.0
 13
121.475879
 23
183.407787
 33
0.0
  0
ENDBLK
  5
67A
100
AcDbEntity
  8
0
100
AcDbBlockEnd
  0
BLOCK
  5
67D
100
AcDbEntity
  8
0
100
AcDbBlockBegin
  2
*B6
 70
     0
 10
0.0
 20
0.0
 30
0.0
  3
*B6
  1

  0
LINE
  5
67E
100
AcDbEntity
  8
0
  6
Continuous
 62
     0
100
AcDbLine
 10
182.377072
 20
79.013693
 30
0.0
 11
152.225897
 21
79.013693
 31
0.0
  0
SOLID
  5
67F
100
AcDbEntity
  8
0
  6
Continuous
 62
     0
100
AcDbTrace
 10
168.225772
 20
79.613598
 30
0.0
 11
164.72576
 21
79.013693
 31
0.0
 12
168.225772
 22
78.413788
 32
0.0
 13
168.225772
 23
78.413788
 33
0.0
  0
SOLID
  5
680
100
AcDbEntity
  8
0
  6
Continuous
 62
     0
100
AcDbTrace
 10
155.725697
 20
78.413788
 30
0.0
 11
159.22571
 21
79.013693
 31
0.0
 12
155.725697
 22
79.613598
 32
0.0
 13
155.725697
 23
79.613598
 33
0.0
  0
ENDBLK
  5
681
100
AcDbEntity
  8
0
100
AcDbBlockEnd
  0
BLOCK
  5
684
100
AcDbEntity
  8
0
100
AcDbBlockBegin
  2
*B7
 70
     0
 10
0.0
 20
0.0
 30
0.0
  3
*B7
  1

  0
LINE
  5
685
100
AcDbEntity
  8
0
  6
Continuous
 62
     0
100
AcDbLine
 10
208.018126
 20
64.579222
 30
0.0
 11
208.018126
 21
32.58096
 31
0.0
  0
SOLID
  5
686
100
AcDbEntity
  8
0
  6
Continuous
 62
     0
100
AcDbTrace
 10
208.618031
 20
61.079422
 30
0.0
 11
208.018126
 21
64.579222
 31
0.0
 12
207.418008
 22
61.079422
 32
0.0
 13
207.418008
 23
61.079422
 33
0.0
  0
SOLID
  5
687
100
AcDbEntity
  8
0
  6
Continuous
 62
     0
100
AcDbTrace
 10
207.418008
 20
36.08076
 30
0.0
 11
208.018126
 21
32.58096
 31
0.0
 12
208.618031
 22
36.08076
 32
0.0
 13
208.618031
 23
36.08076
 33
0.0
  0
ENDBLK
  5
688
100
AcDbEntity
  8
0
100
AcDbBlockEnd
  0
BLOCK
  5
68B
100
AcDbEntity
  8
0
100
AcDbBlockBegin
  2
*B8
 70
     0
 10
0.0
 20
0.0
 30
0.0
  3
*B8
  1

  0
LINE
  5
68C
100
AcDbEntity
  8
0
  6
Continuous
 62
     0
100
AcDbLine
 10
208.018126
 20
111.685149
 30
0.0
 11
208.018126
 21
89.686437
 31
0.0
  0
SOLID
  5
68D
100
AcDbEntity
  8
0
  6
Continuous
 62
     0
100
AcDbTrace
 10
208.618031
 20
108.185349
 30
0.0
 11
208.018126
 21
111.685149
 31
0.0
 12
207.418008
 22
108.185349
 32
0.0
 13
207.418008
 23
108.185349
 33
0.0
  0
SOLID
  5
68E
100
AcDbEntity
  8
0
  6
Continuous
 62
     0
100
AcDbTrace
 10
207.418008
 20
93.186237
 30
0.0
 11
208.018126
 21
89.686437
 31
0.0
 12
208.618031
 22
93.186237
 32
0.0
 13
208.618031
 23
93.186237
 33
0.0
  0
ENDBLK
  5
68F
100
AcDbEntity
  8
0
100
AcDbBlockEnd
  0
BLOCK
  5
692
100
AcDbEntity
  8
0
100
AcDbBlockBegin
  2
*B9
 70
     0
 10
0.0
 20
0.0
 30
0.0
  3
*B9
  1

  0
LINE
  5
693
100
AcDbEntity
  8
0
  6
Continuous
 62
     0
100
AcDbLine
 10
208.018126
 20
172.572959
 30
0.0
 11
208.018126
 21
132.575397
 31
0.0
  0
SOLID
  5
694
100
AcDbEntity
  8
0
  6
Continuous
 62
     0
100
AcDbTrace
 10
208.618031
 20
169.073159
 30
0.0
 11
208.018126
 21
172.572959
 31
0.0
 12
207.418008
 22
169.073159
 32
0.0
 13
207.418008
 23
169.073159
 33
0.0
  0
SOLID
  5
695
100
AcDbEntity
  8
0
  6
Continuous
 62
     0
100
AcDbTrace
 10
207.418008
 20
136.075197
 30
0.0
 11
208.018126
 21
132.575397
 31
0.0
 12
208.618031
 22
136.075197
 32
0.0
 13
208.618031
 23
136.075197
 33
0.0
  0
ENDBLK
  5
696
100
AcDbEntity
  8
0
100
AcDbBlockEnd
  0
BLOCK
  5
699
100
AcDbEntity
  8
0
100
AcDbBlockBegin
  2
*B10
 70
     0
 10
0.0
 20
0.0
 30
0.0
  3
*B10
  1

  0
LINE
  5
69A
100
AcDbEntity
  8
0
  6
Continuous
 62
     0
100
AcDbLine
 10
92.018079
 20
152.574284
 30
0.0
 11
92.018079
 21
172.572959
 31
0.0
  0
SOLID
  5
69B
100
AcDbEntity
  8
0
  6
Continuous
 62
     0
100
AcDbTrace
 10
91.418174
 20
156.074084
 30
0.0
 11
92.018079
 21
152.574284
 31
0.0
 12
92.618196
 22
156.074084
 32
0.0
 13
92.618196
 23
156.074084
 33
0.0
  0
SOLID
  5
69C
100
AcDbEntity
  8
0
  6
Continuous
 62
     0
100
AcDbTrace
 10
92.618196
 20
169.073159
 30
0.0
 11
92.018079
 21
172.572959
 31
0.0
 12
91.418174
 22
169.073159
 32
0.0
 13
91.418174
 23
169.073159
 33
0.0
  0
ENDBLK
  5
69D
100
AcDbEntity
  8
0
100
AcDbBlockEnd
  0
BLOCK
  5
6A0
100
AcDbEntity
  8
0
100
AcDbBlockBegin
  2
*B11
 70
     0
 10
0.0
 20
0.0
 30
0.0
  3
*B11
  1

  0
LINE
  5
6A1
100
AcDbEntity
  8
0
  6
Continuous
 62
     0
100
AcDbLine
 10
137.975816
 20
123.02089
 30
0.0
 11
117.975867
 21
123.02089
 31
0.0
  0
SOLID
  5
6A2
100
AcDbEntity
  8
0
  6
Continuous
 62
     0
100
AcDbTrace
 10
134.475804
 20
122.420772
 30
0.0
 11
137.975816
 21
123.02089
 31
0.0
 12
134.475804
 22
123.620795
 32
0.0
 13
134.475804
 23
123.620795
 33
0.0
  0
SOLID
  5
6A3
100
AcDbEntity
  8
0
  6
Continuous
 62
     0
100
AcDbTrace
 10
121.475879
 20
123.620795
 30
0.0
 11
117.975867
 21
123.02089
 31
0.0
 12
121.475879
 22
122.420772
 32
0.0
 13
121.475879
 23
122.420772
 33
0.0
  0
ENDBLK
  5
6A4
100
AcDbEntity
  8
0
100
AcDbBlockEnd
  0
BLOCK
  5
6A7
100
AcDbEntity
  8
0
100
AcDbBlockBegin
  2
*B12
 70
     0
 10
0.0
 20
0.0
 30
0.0
  3
*B12
  1

  0
LINE
  5
6A8
100
AcDbEntity
  8
0
  6
Continuous
 62
     0
100
AcDbLine
 10
137.975816
 20
123.02089
 30
0.0
 11
161.975841
 21
123.02089
 31
0.0
  0
SOLID
  5
6A9
100
AcDbEntity
  8
0
  6
Continuous
 62
     0
100
AcDbTrace
 10
141.475829
 20
123.620795
 30
0.0
 11
137.975816
 21
123.02089
 31
0.0
 12
141.475829
 22
122.420772
 32
0.0
 13
141.475829
 23
122.420772
 33
0.0
  0
SOLID
  5
6AA
100
AcDbEntity
  8
0
  6
Continuous
 62
     0
100
AcDbTrace
 10
158.475828
 20
122.420772
 30
0.0
 11
161.975841
 21
123.02089
 31
0.0
 12
158.475828
 22
123.620795
 32
0.0
 13
158.475828
 23
123.620795
 33
0.0
  0
ENDBLK
  5
6AB
100
AcDbEntity
  8
0
100
AcDbBlockEnd
  0
BLOCK
  5
6AE
100
AcDbEntity
  8
0
100
AcDbBlockBegin
  2
*B13
 70
     0
 10
0.0
 20
0.0
 30
0.0
  3
*B13
  1

  0
LINE
  5
6AF
100
AcDbEntity
  8
0
  6
Continuous
 62
     0
100
AcDbLine
 10
161.975841
 20
123.02089
 30
0.0
 11
181.97579
 21
123.02089
 31
0.0
  0
SOLID
  5
6B0
100
AcDbEntity
  8
0
  6
Continuous
 62
     0
100
AcDbTrace
 10
165.475853
 20
123.620795
 30
0.0
 11
161.975841
 21
123.02089
 31
0.0
 12
165.475853
 22
122.420772
 32
0.0
 13
165.475853
 23
122.420772
 33
0.0
  0
SOLID
  5
6B1
100
AcDbEntity
  8
0
  6
Continuous
 62
     0
100
AcDbTrace
 10
178.475778
 20
122.420772
 30
0.0
 11
181.97579
 21
123.02089
 31
0.0
 12
178.475778
 22
123.620795
 32
0.0
 13
178.475778
 23
123.620795
 33
0.0
  0
ENDBLK
  5
6B2
100
AcDbEntity
  8
0
100
AcDbBlockEnd
  0
BLOCK
  5
6B5
100
AcDbEntity
  8
0
100
AcDbBlockBegin
  2
*B14
 70
     0
 10
0.0
 20
0.0
 30
0.0
  3
*B14
  1

  0
LINE
  5
6B6
100
AcDbEntity
  8
0
  6
Continuous
 62
     0
100
AcDbLine
 10
165.28594
 20
17.294641
 30
0.0
 11
140.588717
 21
17.294641
 31
0.0
  0
SOLID
  5
6B7
100
AcDbEntity
  8
0
  6
Continuous
 62
     0
100
AcDbTrace
 10
155.288727
 20
17.894759
 30
0.0
 11
151.788714
 21
17.294641
 31
0.0
 12
155.288727
 22
16.694736
 32
0.0
 13
155.288727
 23
16.694736
 33
0.0
  0
SOLID
  5
6B8
100
AcDbEntity
  8
0
  6
Continuous
 62
     0
100
AcDbTrace
 10
144.08873
 20
16.694736
 30
0.0
 11
147.588742
 21
17.294641
 31
0.0
 12
144.08873
 22
17.894759
 32
0.0
 13
144.08873
 23
17.894759
 33
0.0
  0
ENDBLK
  5
6B9
100
AcDbEntity
  8
0
100
AcDbBlockEnd
  0
BLOCK
  5
6BC
100
AcDbEntity
  8
0
100
AcDbBlockBegin
  2
*B15
 70
     0
 10
0.0
 20
0.0
 30
0.0
  3
*B15
  1

  0
LINE
  5
6BD
100
AcDbEntity
  8
0
  6
Continuous
 62
     0
100
AcDbLine
 10
174.975765
 20
184.007905
 30
0.0
 11
219.571608
 21
184.007905
 31
0.0
  0
SOLID
  5
6BE
100
AcDbEntity
  8
0
  6
Continuous
 62
     0
100
AcDbTrace
 10
178.475778
 20
183.407787
 30
0.0
 11
181.97579
 21
184.007905
 31
0.0
 12
178.475778
 22
184.60781
 32
0.0
 13
178.475778
 23
184.60781
 33
0.0
  0
SOLID
  5
6BF
100
AcDbEntity
  8
0
  6
Continuous
 62
     0
100
AcDbTrace
 10
198.475727
 20
184.60781
 30
0.0
 11
194.975715
 21
184.007905
 31
0.0
 12
198.475727
 22
183.407787
 32
0.0
 13
198.475727
 23
183.407787
 33
0.0
  0
ENDBLK
  5
6C0
100
AcDbEntity
  8
0
100
AcDbBlockEnd
  0
BLOCK
  5
6C3
100
AcDbEntity
  8
0
100
AcDbBlockBegin
  2
*B16
 70
     0
 10
0.0
 20
0.0
 30
0.0
  3
*B16
  1

  0
LINE
  5
6C4
100
AcDbEntity
  8
0
  6
Continuous
 62
     0
100
AcDbLine
 10
124.975892
 20
184.007905
 30
0.0
 11
80.464597
 21
184.007905
 31
0.0
  0
SOLID
  5
6C5
100
AcDbEntity
  8
0
  6
Continuous
 62
     0
100
AcDbTrace
 10
121.475879
 20
184.60781
 30
0.0
 11
117.975867
 21
184.007905
 31
0.0
 12
121.475879
 22
183.407787
 32
0.0
 13
121.475879
 23
183.407787
 33
0.0
  0
SOLID
  5
6C6
100
AcDbEntity
  8
0
  6
Continuous
 62
     0
100
AcDbTrace
 10
101.47593
 20
183.407787
 30
0.0
 11
104.97573
 21
184.007905
 31
0.0
 12
101.47593
 22
184.60781
 32
0.0
 13
101.47593
 23
184.60781
 33
0.0
  0
ENDBLK
  5
6C7
100
AcDbEntity
  8
0
100
AcDbBlockEnd
  0
BLOCK
  5
6CA
100
AcDbEntity
  8
0
100
AcDbBlockBegin
  2
*B17
 70
     0
 10
0.0
 20
0.0
 30
0.0
  3
*B17
  1

  0
LINE
  5
6CB
100
AcDbEntity
  8
0
  6
Continuous
 62
     8
100
AcDbLine
 10
166.975828
 20
147.074447
 30
0.0
 11
166.975828
 21
151.074309
 31
0.0
  0
LINE
  5
6CC
100
AcDbEntity
  8
0
  6
Continuous
 62
     8
100
AcDbLine
 10
166.975828
 20
154.074047
 30
0.0
 11
166.975828
 21
158.073909
 31
0.0
  0
ENDBLK
  5
6CD
100
AcDbEntity
  8
0
100
AcDbBlockEnd
  0
BLOCK
  5
6D0
100
AcDbEntity
  8
0
100
AcDbBlockBegin
  2
*B18
 70
     0
 10
0.0
 20
0.0
 30
0.0
  3
*B18
  1

  0
LINE
  5
6D1
100
AcDbEntity
  8
0
  6
Continuous
 62
     8
100
AcDbLine
 10
137.688822
 20
58.829566
 30
0.0
 11
137.688822
 21
63.079247
 31
0.0
  0
LINE
  5
6D2
100
AcDbEntity
  8
0
  6
Continuous
 62
     8
100
AcDbLine
 10
137.688822
 20
66.079197
 30
0.0
 11
137.688822
 21
70.328879
 31
0.0
  0
ENDBLK
  5
6D3
100
AcDbEntity
  8
0
100
AcDbBlockEnd
  0
BLOCK
  5
6D6
100
AcDbEntity
  8
0
100
AcDbBlockBegin
  2
*B19
 70
     0
 10
0.0
 20
0.0
 30
0.0
  3
*B19
  1

  0
LINE
  5
6D7
100
AcDbEntity
  8
0
  6
Continuous
 62
     8
100
AcDbLine
 10
147.588742
 20
15.294816
 30
0.0
 11
147.588742
 21
31.581048
 31
0.0
  0
ENDBLK
  5
6D8
100
AcDbEntity
  8
0
100
AcDbBlockEnd
  0
BLOCK
  5
6DB
100
AcDbEntity
  8
0
100
AcDbBlockBegin
  2
*B20
 70
     0
 10
0.0
 20
0.0
 30
0.0
  3
*B20
  1

  0
LINE
  5
6DC
100
AcDbEntity
  8
0
  6
Continuous
 62
     8
100
AcDbLine
 10
132.225735
 20
136.575047
 30
0.0
 11
136.475842
 21
136.575047
 31
0.0
  0
LINE
  5
6DD
100
AcDbEntity
  8
0
  6
Continuous
 62
     8
100
AcDbLine
 10
139.475791
 20
136.575047
 30
0.0
 11
143.725898
 21
136.575047
 31
0.0
  0
ENDBLK
  5
6DE
100
AcDbEntity
  8
0
100
AcDbBlockEnd
  0
BLOCK
  5
6E1
100
AcDbEntity
  8
0
100
AcDbBlockBegin
  2
*B21
 70
     0
 10
0.0
 20
0.0
 30
0.0
  3
*B21
  1

  0
LINE
  5
6E2
100
AcDbEntity
  8
0
  6
Continuous
 62
     8
100
AcDbLine
 10
104.97573
 20
159.673727
 30
0.0
 11
104.97573
 21
186.00773
 31
0.0
  0
ENDBLK
  5
6E3
100
AcDbEntity
  8
0
100
AcDbBlockEnd
  0
BLOCK
  5
6E6
100
AcDbEntity
  8
0
100
AcDbBlockBegin
  2
*B22
 70
     0
 10
0.0
 20
0.0
 30
0.0
  3
*B22
  1

  0
LINE
  5
6E7
100
AcDbEntity
  8
0
  6
Continuous
 62
     8
100
AcDbLine
 10
131.938741
 20
64.579222
 30
0.0
 11
136.188635
 21
64.579222
 31
0.0
  0
LINE
  5
6E8
100
AcDbEntity
  8
0
  6
Continuous
 62
     8
100
AcDbLine
 10
139.188797
 20
64.579222
 30
0.0
 11
143.438691
 21
64.579222
 31
0.0
  0
ENDBLK
  5
6E9
100
AcDbEntity
  8
0
100
AcDbBlockEnd
  0
BLOCK
  5
6EC
100
AcDbEntity
  8
0
100
AcDbBlockBegin
  2
*B23
 70
     0
 10
0.0
 20
0.0
 30
0.0
  3
*B23
  1

  0
LINE
  5
6ED
100
AcDbEntity
  8
0
  6
Continuous
 62
     8
100
AcDbLine
 10
206.018088
 20
64.579222
 30
0.0
 11
210.018163
 21
64.579222
 31
0.0
  0
LINE
  5
6EE
100
AcDbEntity
  8
0
  6
Continuous
 62
     8
100
AcDbLine
 10
144.588792
 20
64.579222
 30
0.0
 11
148.188647
 21
64.579222
 31
0.0
  0
LINE
  5
6EF
100
AcDbEntity
  8
0
  6
Continuous
 62
     8
100
AcDbLine
 10
151.188809
 20
64.579222
 30
0.0
 11
156.450087
 21
64.579222
 31
0.0
  0
LINE
  5
6F0
100
AcDbEntity
  8
0
  6
Continuous
 62
     8
100
AcDbLine
 10
157.449999
 20
64.579222
 30
0.0
 11
158.450124
 21
64.579222
 31
0.0
  0
LINE
  5
6F1
100
AcDbEntity
  8
0
  6
Continuous
 62
     8
100
AcDbLine
 10
159.450037
 20
64.579222
 30
0.0
 11
164.711314
 21
64.579222
 31
0.0
  0
LINE
  5
6F2
100
AcDbEntity
  8
0
  6
Continuous
 62
     8
100
AcDbLine
 10
165.711439
 20
64.579222
 30
0.0
 11
166.711352
 21
64.579222
 31
0.0
  0
LINE
  5
6F3
100
AcDbEntity
  8
0
  6
Continuous
 62
     8
100
AcDbLine
 10
167.711477
 20
64.579222
 30
0.0
 11
172.972754
 21
64.579222
 31
0.0
  0
LINE
  5
6F4
100
AcDbEntity
  8
0
  6
Continuous
 62
     8
100
AcDbLine
 10
173.972667
 20
64.579222
 30
0.0
 11
174.972791
 21
64.579222
 31
0.0
  0
LINE
  5
6F5
100
AcDbEntity
  8
0
  6
Continuous
 62
     8
100
AcDbLine
 10
175.972704
 20
64.579222
 30
0.0
 11
181.233981
 21
64.579222
 31
0.0
  0
LINE
  5
6F6
100
AcDbEntity
  8
0
  6
Continuous
 62
     8
100
AcDbLine
 10
182.234106
 20
64.579222
 30
0.0
 11
183.234019
 21
64.579222
 31
0.0
  0
LINE
  5
6F7
100
AcDbEntity
  8
0
  6
Continuous
 62
     8
100
AcDbLine
 10
184.234144
 20
64.579222
 30
0.0
 11
189.495421
 21
64.579222
 31
0.0
  0
LINE
  5
6F8
100
AcDbEntity
  8
0
  6
Continuous
 62
     8
100
AcDbLine
 10
190.495334
 20
64.579222
 30
0.0
 11
191.495459
 21
64.579222
 31
0.0
  0
LINE
  5
6F9
100
AcDbEntity
  8
0
  6
Continuous
 62
     8
100
AcDbLine
 10
192.495371
 20
64.579222
 30
0.0
 11
197.756861
 21
64.579222
 31
0.0
  0
LINE
  5
6FA
100
AcDbEntity
  8
0
  6
Continuous
 62
     8
100
AcDbLine
 10
198.756773
 20
64.579222
 30
0.0
 11
199.756686
 21
64.579222
 31
0.0
  0
LINE
  5
6FB
100
AcDbEntity
  8
0
  6
Continuous
 62
     8
100
AcDbLine
 10
200.756811
 20
64.579222
 30
0.0
 11
206.018088
 21
64.579222
 31
0.0
  0
ENDBLK
  5
6FC
100
AcDbEntity
  8
0
100
AcDbBlockEnd
  0
BLOCK
  5
6FF
100
AcDbEntity
  8
0
100
AcDbBlockBegin
  2
*B24
 70
     0
 10
0.0
 20
0.0
 30
0.0
  3
*B24
  1

  0
LINE
  5
700
100
AcDbEntity
  8
0
  6
Continuous
 62
     8
100
AcDbLine
 10
194.975715
 20
159.673727
 30
0.0
 11
194.975715
 21
186.00773
 31
0.0
  0
ENDBLK
  5
701
100
AcDbEntity
  8
0
100
AcDbBlockEnd
  0
BLOCK
  5
704
100
AcDbEntity
  8
0
100
AcDbBlockBegin
  2
*B25
 70
     0
 10
0.0
 20
0.0
 30
0.0
  3
*B25
  1

  0
LINE
  5
705
100
AcDbEntity
  8
0
  6
Continuous
 62
     8
100
AcDbLine
 10
159.22571
 20
77.013868
 30
0.0
 11
159.22571
 21
88.686524
 31
0.0
  0
ENDBLK
  5
706
100
AcDbEntity
  8
0
100
AcDbBlockEnd
  0
BLOCK
  5
709
100
AcDbEntity
  8
0
100
AcDbBlockBegin
  2
*B26
 70
     0
 10
0.0
 20
0.0
 30
0.0
  3
*B26
  1

  0
LINE
  5
70A
100
AcDbEntity
  8
0
  6
Continuous
 62
     8
100
AcDbLine
 10
132.975829
 20
147.074447
 30
0.0
 11
132.975829
 21
151.074309
 31
0.0
  0
LINE
  5
70B
100
AcDbEntity
  8
0
  6
Continuous
 62
     8
100
AcDbLine
 10
132.975829
 20
154.074047
 30
0.0
 11
132.975829
 21
158.073909
 31
0.0
  0
ENDBLK
  5
70C
100
AcDbEntity
  8
0
100
AcDbBlockEnd
  0
BLOCK
  5
70F
100
AcDbEntity
  8
0
100
AcDbBlockBegin
  2
*B27
 70
     0
 10
0.0
 20
0.0
 30
0.0
  3
*B27
  1

  0
LINE
  5
710
100
AcDbEntity
  8
0
  6
Continuous
 62
     8
100
AcDbLine
 10
206.018088
 20
32.58096
 30
0.0
 11
210.018163
 21
32.58096
 31
0.0
  0
LINE
  5
711
100
AcDbEntity
  8
0
  6
Continuous
 62
     8
100
AcDbLine
 10
144.588792
 20
32.58096
 30
0.0
 11
148.188647
 21
32.58096
 31
0.0
  0
LINE
  5
712
100
AcDbEntity
  8
0
  6
Continuous
 62
     8
100
AcDbLine
 10
151.188809
 20
32.58096
 30
0.0
 11
160.188659
 21
32.58096
 31
0.0
  0
LINE
  5
713
100
AcDbEntity
  8
0
  6
Continuous
 62
     8
100
AcDbLine
 10
163.188609
 20
32.58096
 30
0.0
 11
169.35463
 21
32.58096
 31
0.0
  0
LINE
  5
714
100
AcDbEntity
  8
0
  6
Continuous
 62
     8
100
AcDbLine
 10
170.354542
 20
32.58096
 30
0.0
 11
171.354667
 21
32.58096
 31
0.0
  0
LINE
  5
715
100
AcDbEntity
  8
0
  6
Continuous
 62
     8
100
AcDbLine
 10
172.35458
 20
32.58096
 30
0.0
 11
178.520388
 21
32.58096
 31
0.0
  0
LINE
  5
716
100
AcDbEntity
  8
0
  6
Continuous
 62
     8
100
AcDbLine
 10
179.520513
 20
32.58096
 30
0.0
 11
180.520426
 21
32.58096
 31
0.0
  0
LINE
  5
717
100
AcDbEntity
  8
0
  6
Continuous
 62
     8
100
AcDbLine
 10
181.520551
 20
32.58096
 30
0.0
 11
187.686359
 21
32.58096
 31
0.0
  0
LINE
  5
718
100
AcDbEntity
  8
0
  6
Continuous
 62
     8
100
AcDbLine
 10
188.686272
 20
32.58096
 30
0.0
 11
189.686397
 21
32.58096
 31
0.0
  0
LINE
  5
719
100
AcDbEntity
  8
0
  6
Continuous
 62
     8
100
AcDbLine
 10
190.686309
 20
32.58096
 30
0.0
 11
196.85233
 21
32.58096
 31
0.0
  0
LINE
  5
71A
100
AcDbEntity
  8
0
  6
Continuous
 62
     8
100
AcDbLine
 10
197.852242
 20
32.58096
 30
0.0
 11
198.852155
 21
32.58096
 31
0.0
  0
LINE
  5
71B
100
AcDbEntity
  8
0
  6
Continuous
 62
     8
100
AcDbLine
 10
199.85228
 20
32.58096
 30
0.0
 11
206.018088
 21
32.58096
 31
0.0
  0
ENDBLK
  5
71C
100
AcDbEntity
  8
0
100
AcDbBlockEnd
  0
BLOCK
  5
71F
100
AcDbEntity
  8
0
100
AcDbBlockBegin
  2
*B28
 70
     0
 10
0.0
 20
0.0
 30
0.0
  3
*B28
  1

  0
LINE
  5
720
100
AcDbEntity
  8
0
  6
Continuous
 62
     8
100
AcDbLine
 10
182.975703
 20
132.575397
 30
0.0
 11
210.018163
 21
132.575397
 31
0.0
  0
ENDBLK
  5
721
100
AcDbEntity
  8
0
100
AcDbBlockEnd
  0
BLOCK
  5
724
100
AcDbEntity
  8
0
100
AcDbBlockBegin
  2
*B29
 70
     0
 10
0.0
 20
0.0
 30
0.0
  3
*B29
  1

  0
LINE
  5
725
100
AcDbEntity
  8
0
  6
Continuous
 62
     8
100
AcDbLine
 10
161.975841
 20
121.020852
 30
0.0
 11
161.975841
 21
125.020715
 31
0.0
  0
LINE
  5
726
100
AcDbEntity
  8
0
  6
Continuous
 62
     8
100
AcDbLine
 10
161.975841
 20
125.020715
 30
0.0
 11
161.975841
 21
131.70528
 31
0.0
  0
LINE
  5
727
100
AcDbEntity
  8
0
  6
Continuous
 62
     8
100
AcDbLine
 10
161.975841
 20
132.705192
 30
0.0
 11
161.975841
 21
133.705317
 31
0.0
  0
LINE
  5
728
100
AcDbEntity
  8
0
  6
Continuous
 62
     8
100
AcDbLine
 10
161.975841
 20
134.70523
 30
0.0
 11
161.975841
 21
141.389794
 31
0.0
  0
LINE
  5
729
100
AcDbEntity
  8
0
  6
Continuous
 62
     8
100
AcDbLine
 10
161.975841
 20
142.389707
 30
0.0
 11
161.975841
 21
143.389619
 31
0.0
  0
LINE
  5
72A
100
AcDbEntity
  8
0
  6
Continuous
 62
     8
100
AcDbLine
 10
161.975841
 20
144.389532
 30
0.0
 11
161.975841
 21
151.074309
 31
0.0
  0
LINE
  5
72B
100
AcDbEntity
  8
0
  6
Continuous
 62
     8
100
AcDbLine
 10
161.975841
 20
154.074047
 30
0.0
 11
161.975841
 21
159.073822
 31
0.0
  0
LINE
  5
72C
100
AcDbEntity
  8
0
  6
Continuous
 62
     8
100
AcDbLine
 10
161.975841
 20
160.073734
 30
0.0
 11
161.975841
 21
161.073647
 31
0.0
  0
LINE
  5
72D
100
AcDbEntity
  8
0
  6
Continuous
 62
     8
100
AcDbLine
 10
161.975841
 20
162.073559
 30
0.0
 11
161.975841
 21
167.073334
 31
0.0
  0
LINE
  5
72E
100
AcDbEntity
  8
0
  6
Continuous
 62
     8
100
AcDbLine
 10
161.975841
 20
170.073284
 30
0.0
 11
161.975841
 21
174.322965
 31
0.0
  0
ENDBLK
  5
72F
100
AcDbEntity
  8
0
100
AcDbBlockEnd
  0
BLOCK
  5
732
100
AcDbEntity
  8
0
100
AcDbBlockBegin
  2
*B30
 70
     0
 10
0.0
 20
0.0
 30
0.0
  3
*B30
  1

  0
LINE
  5
733
100
AcDbEntity
  8
0
  6
Continuous
 62
     8
100
AcDbLine
 10
90.018254
 20
172.572959
 30
0.0
 11
116.975742
 21
172.572959
 31
0.0
  0
LINE
  5
734
100
AcDbEntity
  8
0
  6
Continuous
 62
     8
100
AcDbLine
 10
182.975703
 20
172.572959
 30
0.0
 11
210.018163
 21
172.572959
 31
0.0
  0
ENDBLK
  5
735
100
AcDbEntity
  8
0
100
AcDbBlockEnd
  0
BLOCK
  5
738
100
AcDbEntity
  8
0
100
AcDbBlockBegin
  2
*B31
 70
     0
 10
0.0
 20
0.0
 30
0.0
  3
*B31
  1

  0
LINE
  5
739
100
AcDbEntity
  8
0
  6
Continuous
 62
     8
100
AcDbLine
 10
101.97578
 20
100.685899
 30
0.0
 11
107.225799
 21
100.685899
 31
0.0
  0
LINE
  5
73A
100
AcDbEntity
  8
0
  6
Continuous
 62
     8
100
AcDbLine
 10
108.225924
 20
100.685899
 30
0.0
 11
109.225836
 21
100.685899
 31
0.0
  0
LINE
  5
73B
100
AcDbEntity
  8
0
  6
Continuous
 62
     8
100
AcDbLine
 10
110.225749
 20
100.685899
 30
0.0
 11
115.475767
 21
100.685899
 31
0.0
  0
LINE
  5
73C
100
AcDbEntity
  8
0
  6
Continuous
 62
     8
100
AcDbLine
 10
116.475892
 20
100.685899
 30
0.0
 11
117.475805
 21
100.685899
 31
0.0
  0
LINE
  5
73D
100
AcDbEntity
  8
0
  6
Continuous
 62
     8
100
AcDbLine
 10
118.475717
 20
100.685899
 30
0.0
 11
123.725736
 21
100.685899
 31
0.0
  0
LINE
  5
73E
100
AcDbEntity
  8
0
  6
Continuous
 62
     8
100
AcDbLine
 10
124.725861
 20
100.685899
 30
0.0
 11
125.725773
 21
100.685899
 31
0.0
  0
LINE
  5
73F
100
AcDbEntity
  8
0
  6
Continuous
 62
     8
100
AcDbLine
 10
126.725898
 20
100.685899
 30
0.0
 11
131.975917
 21
100.685899
 31
0.0
  0
LINE
  5
740
100
AcDbEntity
  8
0
  6
Continuous
 62
     8
100
AcDbLine
 10
132.975829
 20
100.685899
 30
0.0
 11
133.975742
 21
100.685899
 31
0.0
  0
LINE
  5
741
100
AcDbEntity
  8
0
  6
Continuous
 62
     8
100
AcDbLine
 10
134.975867
 20
100.685899
 30
0.0
 11
140.225885
 21
100.685899
 31
0.0
  0
LINE
  5
742
100
AcDbEntity
  8
0
  6
Continuous
 62
     8
100
AcDbLine
 10
141.225798
 20
100.685899
 30
0.0
 11
142.22571
 21
100.685899
 31
0.0
  0
LINE
  5
743
100
AcDbEntity
  8
0
  6
Continuous
 62
     8
100
AcDbLine
 10
143.225835
 20
100.685899
 30
0.0
 11
148.475854
 21
100.685899
 31
0.0
  0
LINE
  5
744
100
AcDbEntity
  8
0
  6
Continuous
 62
     8
100
AcDbLine
 10
149.475766
 20
100.685899
 30
0.0
 11
150.475891
 21
100.685899
 31
0.0
  0
LINE
  5
745
100
AcDbEntity
  8
0
  6
Continuous
 62
     8
100
AcDbLine
 10
151.475804
 20
100.685899
 30
0.0
 11
156.725822
 21
100.685899
 31
0.0
  0
LINE
  5
746
100
AcDbEntity
  8
0
  6
Continuous
 62
     8
100
AcDbLine
 10
157.725735
 20
100.685899
 30
0.0
 11
158.72586
 21
100.685899
 31
0.0
  0
LINE
  5
747
100
AcDbEntity
  8
0
  6
Continuous
 62
     8
100
AcDbLine
 10
159.725772
 20
100.685899
 30
0.0
 11
164.975791
 21
100.685899
 31
0.0
  0
LINE
  5
748
100
AcDbEntity
  8
0
  6
Continuous
 62
     8
100
AcDbLine
 10
165.975703
 20
100.685899
 30
0.0
 11
166.975828
 21
100.685899
 31
0.0
  0
LINE
  5
749
100
AcDbEntity
  8
0
  6
Continuous
 62
     8
100
AcDbLine
 10
167.975741
 20
100.685899
 30
0.0
 11
173.225759
 21
100.685899
 31
0.0
  0
LINE
  5
74A
100
AcDbEntity
  8
0
  6
Continuous
 62
     8
100
AcDbLine
 10
174.225884
 20
100.685899
 30
0.0
 11
175.225797
 21
100.685899
 31
0.0
  0
LINE
  5
74B
100
AcDbEntity
  8
0
  6
Continuous
 62
     8
100
AcDbLine
 10
176.225709
 20
100.685899
 30
0.0
 11
181.475728
 21
100.685899
 31
0.0
  0
LINE
  5
74C
100
AcDbEntity
  8
0
  6
Continuous
 62
     8
100
AcDbLine
 10
182.475853
 20
100.685899
 30
0.0
 11
183.475765
 21
100.685899
 31
0.0
  0
LINE
  5
74D
100
AcDbEntity
  8
0
  6
Continuous
 62
     8
100
AcDbLine
 10
184.475678
 20
100.685899
 30
0.0
 11
189.725696
 21
100.685899
 31
0.0
  0
LINE
  5
74E
100
AcDbEntity
  8
0
  6
Continuous
 62
     8
100
AcDbLine
 10
190.725821
 20
100.685899
 30
0.0
 11
191.725734
 21
100.685899
 31
0.0
  0
LINE
  5
74F
100
AcDbEntity
  8
0
  6
Continuous
 62
     8
100
AcDbLine
 10
192.725859
 20
100.685899
 30
0.0
 11
197.975877
 21
100.685899
 31
0.0
  0
ENDBLK
  5
750
100
AcDbEntity
  8
0
100
AcDbBlockEnd
  0
BLOCK
  5
753
100
AcDbEntity
  8
0
100
AcDbBlockBegin
  2
*B32
 70
     0
 10
0.0
 20
0.0
 30
0.0
  3
*B32
  1

  0
LINE
  5
754
100
AcDbEntity
  8
0
  6
Continuous
 62
     8
100
AcDbLine
 10
90.018254
 20
152.574284
 30
0.0
 11
94.018116
 21
152.574284
 31
0.0
  0
LINE
  5
755
100
AcDbEntity
  8
0
  6
Continuous
 62
     8
100
AcDbLine
 10
94.018116
 20
152.574284
 30
0.0
 11
99.109662
 21
152.574284
 31
0.0
  0
LINE
  5
756
100
AcDbEntity
  8
0
  6
Continuous
 62
     8
100
AcDbLine
 10
100.109787
 20
152.574284
 30
0.0
 11
101.109699
 21
152.574284
 31
0.0
  0
LINE
  5
757
100
AcDbEntity
  8
0
  6
Continuous
 62
     8
100
AcDbLine
 10
102.109612
 20
152.574284
 30
0.0
 11
107.201157
 21
152.574284
 31
0.0
  0
LINE
  5
758
100
AcDbEntity
  8
0
  6
Continuous
 62
     8
100
AcDbLine
 10
108.201282
 20
152.574284
 30
0.0
 11
109.201194
 21
152.574284
 31
0.0
  0
LINE
  5
759
100
AcDbEntity
  8
0
  6
Continuous
 62
     8
100
AcDbLine
 10
110.201107
 20
152.574284
 30
0.0
 11
115.292652
 21
152.574284
 31
0.0
  0
LINE
  5
75A
100
AcDbEntity
  8
0
  6
Continuous
 62
     8
100
AcDbLine
 10
116.292777
 20
152.574284
 30
0.0
 11
117.292689
 21
152.574284
 31
0.0
  0
LINE
  5
75B
100
AcDbEntity
  8
0
  6
Continuous
 62
     8
100
AcDbLine
 10
118.292814
 20
152.574284
 30
0.0
 11
123.384359
 21
152.574284
 31
0.0
  0
LINE
  5
75C
100
AcDbEntity
  8
0
  6
Continuous
 62
     8
100
AcDbLine
 10
124.384272
 20
152.574284
 30
0.0
 11
125.384184
 21
152.574284
 31
0.0
  0
LINE
  5
75D
100
AcDbEntity
  8
0
  6
Continuous
 62
     8
100
AcDbLine
 10
126.384309
 20
152.574284
 30
0.0
 11
131.475854
 21
152.574284
 31
0.0
  0
LINE
  5
75E
100
AcDbEntity
  8
0
  6
Continuous
 62
     8
100
AcDbLine
 10
134.475804
 20
152.574284
 30
0.0
 11
136.475842
 21
152.574284
 31
0.0
  0
LINE
  5
75F
100
AcDbEntity
  8
0
  6
Continuous
 62
     8
100
AcDbLine
 10
139.475791
 20
152.574284
 30
0.0
 11
144.475779
 21
152.574284
 31
0.0
  0
LINE
  5
760
100
AcDbEntity
  8
0
  6
Continuous
 62
     8
100
AcDbLine
 10
145.475904
 20
152.574284
 30
0.0
 11
146.475816
 21
152.574284
 31
0.0
  0
LINE
  5
761
100
AcDbEntity
  8
0
  6
Continuous
 62
     8
100
AcDbLine
 10
147.475729
 20
152.574284
 30
0.0
 11
152.475716
 21
152.574284
 31
0.0
  0
LINE
  5
762
100
AcDbEntity
  8
0
  6
Continuous
 62
     8
100
AcDbLine
 10
153.475841
 20
152.574284
 30
0.0
 11
154.475754
 21
152.574284
 31
0.0
  0
LINE
  5
763
100
AcDbEntity
  8
0
  6
Continuous
 62
     8
100
AcDbLine
 10
155.475878
 20
152.574284
 30
0.0
 11
160.475866
 21
152.574284
 31
0.0
  0
LINE
  5
764
100
AcDbEntity
  8
0
  6
Continuous
 62
     8
100
AcDbLine
 10
163.475816
 20
152.574284
 30
0.0
 11
165.475853
 21
152.574284
 31
0.0
  0
LINE
  5
765
100
AcDbEntity
  8
0
  6
Continuous
 62
     8
100
AcDbLine
 10
168.475803
 20
152.574284
 30
0.0
 11
173.6007
 21
152.574284
 31
0.0
  0
LINE
  5
766
100
AcDbEntity
  8
0
  6
Continuous
 62
     8
100
AcDbLine
 10
174.600825
 20
152.574284
 30
0.0
 11
175.600737
 21
152.574284
 31
0.0
  0
LINE
  5
767
100
AcDbEntity
  8
0
  6
Continuous
 62
     8
100
AcDbLine
 10
176.600862
 20
152.574284
 30
0.0
 11
181.725759
 21
152.574284
 31
0.0
  0
LINE
  5
768
100
AcDbEntity
  8
0
  6
Continuous
 62
     8
100
AcDbLine
 10
182.725884
 20
152.574284
 30
0.0
 11
183.725796
 21
152.574284
 31
0.0
  0
LINE
  5
769
100
AcDbEntity
  8
0
  6
Continuous
 62
     8
100
AcDbLine
 10
184.725709
 20
152.574284
 30
0.0
 11
189.850818
 21
152.574284
 31
0.0
  0
LINE
  5
76A
100
AcDbEntity
  8
0
  6
Continuous
 62
     8
100
AcDbLine
 10
190.850731
 20
152.574284
 30
0.0
 11
191.850856
 21
152.574284
 31
0.0
  0
LINE
  5
76B
100
AcDbEntity
  8
0
  6
Continuous
 62
     8
100
AcDbLine
 10
192.850768
 20
152.574284
 30
0.0
 11
197.975877
 21
152.574284
 31
0.0
  0
ENDBLK
  5
76C
100
AcDbEntity
  8
0
100
AcDbBlockEnd
  0
BLOCK
  5
76F
100
AcDbEntity
  8
0
100
AcDbBlockBegin
  2
*B33
 70
     0
 10
0.0
 20
0.0
 30
0.0
  3
*B33
  1

  0
LINE
  5
770
100
AcDbEntity
  8
0
  6
Continuous
 62
     8
100
AcDbLine
 10
161.975841
 20
86.686699
 30
0.0
 11
161.975841
 21
91.436443
 31
0.0
  0
LINE
  5
771
100
AcDbEntity
  8
0
  6
Continuous
 62
     8
100
AcDbLine
 10
161.975841
 20
92.436356
 30
0.0
 11
161.975841
 21
93.436268
 31
0.0
  0
LINE
  5
772
100
AcDbEntity
  8
0
  6
Continuous
 62
     8
100
AcDbLine
 10
161.975841
 20
94.436181
 30
0.0
 11
161.975841
 21
99.185924
 31
0.0
  0
LINE
  5
773
100
AcDbEntity
  8
0
  6
Continuous
 62
     8
100
AcDbLine
 10
161.975841
 20
100.185837
 30
0.0
 11
161.975841
 21
101.185749
 31
0.0
  0
LINE
  5
774
100
AcDbEntity
  8
0
  6
Continuous
 62
     8
100
AcDbLine
 10
161.975841
 20
102.185874
 30
0.0
 11
161.975841
 21
106.935618
 31
0.0
  0
LINE
  5
775
100
AcDbEntity
  8
0
  6
Continuous
 62
     8
100
AcDbLine
 10
161.975841
 20
107.93553
 30
0.0
 11
161.975841
 21
108.935443
 31
0.0
  0
LINE
  5
776
100
AcDbEntity
  8
0
  6
Continuous
 62
     8
100
AcDbLine
 10
161.975841
 20
109.935355
 30
0.0
 11
161.975841
 21
114.685099
 31
0.0
  0
ENDBLK
  5
777
100
AcDbEntity
  8
0
100
AcDbBlockEnd
  0
BLOCK
  5
77A
100
AcDbEntity
  8
0
100
AcDbBlockBegin
  2
*B34
 70
     0
 10
0.0
 20
0.0
 30
0.0
  3
*B34
  1

  0
LINE
  5
77B
100
AcDbEntity
  8
0
  6
Continuous
 62
     8
100
AcDbLine
 10
151.788714
 20
15.294816
 30
0.0
 11
151.788714
 21
31.581048
 31
0.0
  0
ENDBLK
  5
77C
100
AcDbEntity
  8
0
100
AcDbBlockEnd
  0
BLOCK
  5
77F
100
AcDbEntity
  8
0
100
AcDbBlockBegin
  2
*B35
 70
     0
 10
0.0
 20
0.0
 30
0.0
  3
*B35
  1

  0
LINE
  5
780
100
AcDbEntity
  8
0
  6
Continuous
 62
     8
100
AcDbLine
 10
149.975829
 20
162.823653
 30
0.0
 11
149.975829
 21
167.073334
 31
0.0
  0
LINE
  5
781
100
AcDbEntity
  8
0
  6
Continuous
 62
     8
100
AcDbLine
 10
149.975829
 20
170.073284
 30
0.0
 11
149.975829
 21
174.322965
 31
0.0
  0
ENDBLK
  5
782
100
AcDbEntity
  8
0
100
AcDbBlockEnd
  0
BLOCK
  5
785
100
AcDbEntity
  8
0
100
AcDbBlockBegin
  2
*B36
 70
     0
 10
0.0
 20
0.0
 30
0.0
  3
*B36
  1

  0
LINE
  5
786
100
AcDbEntity
  8
0
  6
Continuous
 62
     8
100
AcDbLine
 10
149.688622
 20
59.479393
 30
0.0
 11
149.688622
 21
63.079247
 31
0.0
  0
LINE
  5
787
100
AcDbEntity
  8
0
  6
Continuous
 62
     8
100
AcDbLine
 10
149.688622
 20
66.079197
 30
0.0
 11
149.688622
 21
69.67884
 31
0.0
  0
ENDBLK
  5
788
100
AcDbEntity
  8
0
100
AcDbBlockEnd
  0
BLOCK
  5
78B
100
AcDbEntity
  8
0
100
AcDbBlockBegin
  2
*B37
 70
     0
 10
0.0
 20
0.0
 30
0.0
  3
*B37
  1

  0
LINE
  5
78C
100
AcDbEntity
  8
0
  6
Continuous
 62
     8
100
AcDbLine
 10
181.97579
 20
121.020852
 30
0.0
 11
181.97579
 21
131.575272
 31
0.0
  0
LINE
  5
78D
100
AcDbEntity
  8
0
  6
Continuous
 62
     8
100
AcDbLine
 10
181.97579
 20
173.573084
 30
0.0
 11
181.97579
 21
186.00773
 31
0.0
  0
ENDBLK
  5
78E
100
AcDbEntity
  8
0
100
AcDbBlockEnd
  0
BLOCK
  5
791
100
AcDbEntity
  8
0
100
AcDbBlockBegin
  2
*B38
 70
     0
 10
0.0
 20
0.0
 30
0.0
  3
*B38
  1

  0
LINE
  5
792
100
AcDbEntity
  8
0
  6
Continuous
 62
     8
100
AcDbLine
 10
182.975703
 20
111.685149
 30
0.0
 11
210.018163
 21
111.685149
 31
0.0
  0
ENDBLK
  5
793
100
AcDbEntity
  8
0
100
AcDbBlockEnd
  0
BLOCK
  5
796
100
AcDbEntity
  8
0
100
AcDbBlockBegin
  2
*B39
 70
     0
 10
0.0
 20
0.0
 30
0.0
  3
*B39
  1

  0
LINE
  5
797
100
AcDbEntity
  8
0
  6
Continuous
 62
     8
100
AcDbLine
 10
161.688634
 20
26.831304
 30
0.0
 11
161.688634
 21
31.080985
 31
0.0
  0
LINE
  5
798
100
AcDbEntity
  8
0
  6
Continuous
 62
     8
100
AcDbLine
 10
161.688634
 20
34.080935
 30
0.0
 11
161.688634
 21
38.330616
 31
0.0
  0
ENDBLK
  5
799
100
AcDbEntity
  8
0
100
AcDbBlockEnd
  0
BLOCK
  5
79C
100
AcDbEntity
  8
0
100
AcDbBlockBegin
  2
*B40
 70
     0
 10
0.0
 20
0.0
 30
0.0
  3
*B40
  1

  0
LINE
  5
79D
100
AcDbEntity
  8
0
  6
Continuous
 62
     8
100
AcDbLine
 10
182.975703
 20
89.686437
 30
0.0
 11
210.018163
 21
89.686437
 31
0.0
  0
ENDBLK
  5
79E
100
AcDbEntity
  8
0
100
AcDbBlockEnd
  0
BLOCK
  5
7A1
100
AcDbEntity
  8
0
100
AcDbBlockBegin
  2
*B41
 70
     0
 10
0.0
 20
0.0
 30
0.0
  3
*B41
  1

  0
LINE
  5
7A2
100
AcDbEntity
  8
0
  6
Continuous
 62
     8
100
AcDbLine
 10
137.975816
 20
86.686699
 30
0.0
 11
137.975816
 21
94.019603
 31
0.0
  0
LINE
  5
7A3
100
AcDbEntity
  8
0
  6
Continuous
 62
     8
100
AcDbLine
 10
137.975816
 20
95.019516
 30
0.0
 11
137.975816
 21
96.019428
 31
0.0
  0
LINE
  5
7A4
100
AcDbEntity
  8
0
  6
Continuous
 62
     8
100
AcDbLine
 10
137.975816
 20
97.019341
 30
0.0
 11
137.975816
 21
104.352245
 31
0.0
  0
LINE
  5
7A5
100
AcDbEntity
  8
0
  6
Continuous
 62
     8
100
AcDbLine
 10
137.975816
 20
105.352158
 30
0.0
 11
137.975816
 21
106.352283
 31
0.0
  0
LINE
  5
7A6
100
AcDbEntity
  8
0
  6
Continuous
 62
     8
100
AcDbLine
 10
137.975816
 20
107.352195
 30
0.0
 11
137.975816
 21
114.685099
 31
0.0
  0
ENDBLK
  5
7A7
100
AcDbEntity
  8
0
100
AcDbBlockEnd
  0
BLOCK
  5
7AA
100
AcDbEntity
  8
0
100
AcDbBlockBegin
  2
*B42
 70
     0
 10
0.0
 20
0.0
 30
0.0
  3
*B42
  1

  0
LINE
  5
7AB
100
AcDbEntity
  8
0
  6
Continuous
 62
     8
100
AcDbLine
 10
156.22576
 20
168.573309
 30
0.0
 11
160.475866
 21
168.573309
 31
0.0
  0
LINE
  5
7AC
100
AcDbEntity
  8
0
  6
Continuous
 62
     8
100
AcDbLine
 10
163.475816
 20
168.573309
 30
0.0
 11
167.725709
 21
168.573309
 31
0.0
  0
ENDBLK
  5
7AD
100
AcDbEntity
  8
0
100
AcDbBlockEnd
  0
BLOCK
  5
7B0
100
AcDbEntity
  8
0
100
AcDbBlockBegin
  2
*B43
 70
     0
 10
0.0
 20
0.0
 30
0.0
  3
*B43
  1

  0
LINE
  5
7B1
100
AcDbEntity
  8
0
  6
Continuous
 62
     8
100
AcDbLine
 10
164.72576
 20
77.013868
 30
0.0
 11
164.72576
 21
88.686524
 31
0.0
  0
ENDBLK
  5
7B2
100
AcDbEntity
  8
0
100
AcDbBlockEnd
  0
BLOCK
  5
7B5
100
AcDbEntity
  8
0
100
AcDbBlockBegin
  2
*B44
 70
     0
 10
0.0
 20
0.0
 30
0.0
  3
*B44
  1

  0
LINE
  5
7B6
100
AcDbEntity
  8
0
  6
Continuous
 62
     8
100
AcDbLine
 10
101.688786
 20
48.579985
 30
0.0
 11
106.588718
 21
48.579985
 31
0.0
  0
LINE
  5
7B7
100
AcDbEntity
  8
0
  6
Continuous
 62
     8
100
AcDbLine
 10
107.588843
 20
48.579985
 30
0.0
 11
108.588756
 21
48.579985
 31
0.0
  0
LINE
  5
7B8
100
AcDbEntity
  8
0
  6
Continuous
 62
     8
100
AcDbLine
 10
109.588668
 20
48.579985
 30
0.0
 11
114.488813
 21
48.579985
 31
0.0
  0
LINE
  5
7B9
100
AcDbEntity
  8
0
  6
Continuous
 62
     8
100
AcDbLine
 10
115.488725
 20
48.579985
 30
0.0
 11
116.488638
 21
48.579985
 31
0.0
  0
LINE
  5
7BA
100
AcDbEntity
  8
0
  6
Continuous
 62
     8
100
AcDbLine
 10
117.488763
 20
48.579985
 30
0.0
 11
122.388695
 21
48.579985
 31
0.0
  0
LINE
  5
7BB
100
AcDbEntity
  8
0
  6
Continuous
 62
     8
100
AcDbLine
 10
123.38882
 20
48.579985
 30
0.0
 11
124.388733
 21
48.579985
 31
0.0
  0
LINE
  5
7BC
100
AcDbEntity
  8
0
  6
Continuous
 62
     8
100
AcDbLine
 10
125.388645
 20
48.579985
 30
0.0
 11
130.28879
 21
48.579985
 31
0.0
  0
LINE
  5
7BD
100
AcDbEntity
  8
0
  6
Continuous
 62
     8
100
AcDbLine
 10
131.288702
 20
48.579985
 30
0.0
 11
132.288827
 21
48.579985
 31
0.0
  0
LINE
  5
7BE
100
AcDbEntity
  8
0
  6
Continuous
 62
     8
100
AcDbLine
 10
133.28874
 20
48.579985
 30
0.0
 11
138.188672
 21
48.579985
 31
0.0
  0
LINE
  5
7BF
100
AcDbEntity
  8
0
  6
Continuous
 62
     8
100
AcDbLine
 10
141.188622
 20
48.579985
 30
0.0
 11
148.188647
 21
48.579985
 31
0.0
  0
LINE
  5
7C0
100
AcDbEntity
  8
0
  6
Continuous
 62
     8
100
AcDbLine
 10
149.188772
 20
48.579985
 30
0.0
 11
150.188684
 21
48.579985
 31
0.0
  0
LINE
  5
7C1
100
AcDbEntity
  8
0
  6
Continuous
 62
     8
100
AcDbLine
 10
151.188809
 20
48.579985
 30
0.0
 11
158.188622
 21
48.579985
 31
0.0
  0
LINE
  5
7C2
100
AcDbEntity
  8
0
  6
Continuous
 62
     8
100
AcDbLine
 10
161.188784
 20
48.579985
 30
0.0
 11
166.088717
 21
48.579985
 31
0.0
  0
LINE
  5
7C3
100
AcDbEntity
  8
0
  6
Continuous
 62
     8
100
AcDbLine
 10
167.088629
 20
48.579985
 30
0.0
 11
168.088754
 21
48.579985
 31
0.0
  0
LINE
  5
7C4
100
AcDbEntity
  8
0
  6
Continuous
 62
     8
100
AcDbLine
 10
169.088666
 20
48.579985
 30
0.0
 11
173.988811
 21
48.579985
 31
0.0
  0
LINE
  5
7C5
100
AcDbEntity
  8
0
  6
Continuous
 62
     8
100
AcDbLine
 10
174.988724
 20
48.579985
 30
0.0
 11
175.988636
 21
48.579985
 31
0.0
  0
LINE
  5
7C6
100
AcDbEntity
  8
0
  6
Continuous
 62
     8
100
AcDbLine
 10
176.988761
 20
48.579985
 30
0.0
 11
181.888694
 21
48.579985
 31
0.0
  0
LINE
  5
7C7
100
AcDbEntity
  8
0
  6
Continuous
 62
     8
100
AcDbLine
 10
182.888606
 20
48.579985
 30
0.0
 11
183.888731
 21
48.579985
 31
0.0
  0
LINE
  5
7C8
100
AcDbEntity
  8
0
  6
Continuous
 62
     8
100
AcDbLine
 10
184.888644
 20
48.579985
 30
0.0
 11
189.788788
 21
48.579985
 31
0.0
  0
LINE
  5
7C9
100
AcDbEntity
  8
0
  6
Continuous
 62
     8
100
AcDbLine
 10
190.788701
 20
48.579985
 30
0.0
 11
191.788613
 21
48.579985
 31
0.0
  0
LINE
  5
7CA
100
AcDbEntity
  8
0
  6
Continuous
 62
     8
100
AcDbLine
 10
192.788738
 20
48.579985
 30
0.0
 11
197.688671
 21
48.579985
 31
0.0
  0
ENDBLK
  5
7CB
100
AcDbEntity
  8
0
100
AcDbBlockEnd
  0
BLOCK
  5
7CE
100
AcDbEntity
  8
0
100
AcDbBlockBegin
  2
*B45
 70
     0
 10
0.0
 20
0.0
 30
0.0
  3
*B45
  1

  0
LINE
  5
7CF
100
AcDbEntity
  8
0
  6
Continuous
 62
     8
100
AcDbLine
 10
159.688809
 20
43.08036
 30
0.0
 11
159.688809
 21
47.080223
 31
0.0
  0
LINE
  5
7D0
100
AcDbEntity
  8
0
  6
Continuous
 62
     8
100
AcDbLine
 10
159.688809
 20
50.07996
 30
0.0
 11
159.688809
 21
54.079823
 31
0.0
  0
ENDBLK
  5
7D1
100
AcDbEntity
  8
0
100
AcDbBlockEnd
  0
BLOCK
  5
7D4
100
AcDbEntity
  8
0
100
AcDbBlockBegin
  2
*B46
 70
     0
 10
0.0
 20
0.0
 30
0.0
  3
*B46
  1

  0
LINE
  5
7D5
100
AcDbEntity
  8
0
  6
Continuous
 62
     8
100
AcDbLine
 10
139.688647
 20
43.08036
 30
0.0
 11
139.688647
 21
47.080223
 31
0.0
  0
LINE
  5
7D6
100
AcDbEntity
  8
0
  6
Continuous
 62
     8
100
AcDbLine
 10
139.688647
 20
50.07996
 30
0.0
 11
139.688647
 21
54.079823
 31
0.0
  0
ENDBLK
  5
7D7
100
AcDbEntity
  8
0
100
AcDbBlockEnd
  0
BLOCK
  5
7DA
100
AcDbEntity
  8
0
100
AcDbBlockBegin
  2
*B47
 70
     0
 10
0.0
 20
0.0
 30
0.0
  3
*B47
  1

  0
LINE
  5
7DB
100
AcDbEntity
  8
0
  6
Continuous
 62
     8
100
AcDbLine
 10
137.975816
 20
121.020852
 30
0.0
 11
137.975816
 21
125.020715
 31
0.0
  0
LINE
  5
7DC
100
AcDbEntity
  8
0
  6
Continuous
 62
     8
100
AcDbLine
 10
137.975816
 20
125.020715
 30
0.0
 11
137.975816
 21
135.075072
 31
0.0
  0
LINE
  5
7DD
100
AcDbEntity
  8
0
  6
Continuous
 62
     8
100
AcDbLine
 10
137.975816
 20
138.075022
 30
0.0
 11
137.975816
 21
143.074797
 31
0.0
  0
LINE
  5
7DE
100
AcDbEntity
  8
0
  6
Continuous
 62
     8
100
AcDbLine
 10
137.975816
 20
144.074709
 30
0.0
 11
137.975816
 21
145.074622
 31
0.0
  0
LINE
  5
7DF
100
AcDbEntity
  8
0
  6
Continuous
 62
     8
100
AcDbLine
 10
137.975816
 20
146.074534
 30
0.0
 11
137.975816
 21
151.074309
 31
0.0
  0
LINE
  5
7E0
100
AcDbEntity
  8
0
  6
Continuous
 62
     8
100
AcDbLine
 10
137.975816
 20
154.074047
 30
0.0
 11
137.975816
 21
165.573359
 31
0.0
  0
ENDBLK
  5
7E1
100
AcDbEntity
  8
0
100
AcDbBlockEnd
  0
BLOCK
  5
7E4
100
AcDbEntity
  8
0
100
AcDbBlockBegin
  2
*B48
 70
     0
 10
0.0
 20
0.0
 30
0.0
  3
*B48
  1

  0
LINE
  5
7E5
100
AcDbEntity
  8
0
  6
Continuous
 62
     8
100
AcDbLine
 10
149.688622
 20
27.481343
 30
0.0
 11
149.688622
 21
31.080985
 31
0.0
  0
LINE
  5
7E6
100
AcDbEntity
  8
0
  6
Continuous
 62
     8
100
AcDbLine
 10
149.688622
 20
34.080935
 30
0.0
 11
149.688622
 21
37.68079
 31
0.0
  0
ENDBLK
  5
7E7
100
AcDbEntity
  8
0
100
AcDbBlockEnd
  0
BLOCK
  5
7EA
100
AcDbEntity
  8
0
100
AcDbBlockBegin
  2
*B49
 70
     0
 10
0.0
 20
0.0
 30
0.0
  3
*B49
  1

  0
LINE
  5
7EB
100
AcDbEntity
  8
0
  6
Continuous
 62
     8
100
AcDbLine
 10
117.975867
 20
121.020852
 30
0.0
 11
117.975867
 21
131.575272
 31
0.0
  0
LINE
  5
7EC
100
AcDbEntity
  8
0
  6
Continuous
 62
     8
100
AcDbLine
 10
117.975867
 20
173.573084
 30
0.0
 11
117.975867
 21
186.00773
 31
0.0
  0
ENDBLK
  5
7ED
100
AcDbEntity
  8
0
100
AcDbBlockEnd
  0
BLOCK
  5
7F0
100
AcDbEntity
  8
0
100
AcDbBlockBegin
  2
*B50
 70
     0
 10
0.0
 20
0.0
 30
0.0
  3
*B50
  1

  0
LINE
  5
7F1
100
AcDbEntity
  8
0
  6
Continuous
 62
     8
100
AcDbLine
 10
144.225748
 20
168.573309
 30
0.0
 11
148.475854
 21
168.573309
 31
0.0
  0
LINE
  5
7F2
100
AcDbEntity
  8
0
  6
Continuous
 62
     8
100
AcDbLine
 10
151.475804
 20
168.573309
 30
0.0
 11
155.725697
 21
168.573309
 31
0.0
  0
ENDBLK
  5
7F3
100
AcDbEntity
  8
0
100
AcDbBlockEnd
  0
BLOCK
  5
7F6
100
AcDbEntity
  8
0
100
AcDbBlockBegin
  2
*B51
 70
     0
 10
0.0
 20
0.0
 30
0.0
  3
*B51
  1

  0
LINE
  5
7F7
100
AcDbEntity
  8
0
  6
Continuous
 62
     6
100
AcDbLine
 10
137.688822
 20
64.07916
 30
0.0
 11
137.688822
 21
65.079072
 31
0.0
  0
LINE
  5
7F8
100
AcDbEntity
  8
0
  6
Continuous
 62
     6
100
AcDbLine
 10
137.18876
 20
64.579222
 30
0.0
 11
138.188672
 21
64.579222
 31
0.0
  0
ENDBLK
  5
7F9
100
AcDbEntity
  8
0
100
AcDbBlockEnd
  0
BLOCK
  5
7FC
100
AcDbEntity
  8
0
100
AcDbBlockBegin
  2
*B52
 70
     0
 10
0.0
 20
0.0
 30
0.0
  3
*B52
  1

  0
LINE
  5
7FD
100
AcDbEntity
  8
0
  6
Continuous
 62
     6
100
AcDbLine
 10
149.188772
 20
32.58096
 30
0.0
 11
150.188684
 21
32.58096
 31
0.0
  0
LINE
  5
7FE
100
AcDbEntity
  8
0
  6
Continuous
 62
     6
100
AcDbLine
 10
149.688622
 20
32.08111
 30
0.0
 11
149.688622
 21
33.081023
 31
0.0
  0
ENDBLK
  5
7FF
100
AcDbEntity
  8
0
100
AcDbBlockEnd
  0
BLOCK
  5
802
100
AcDbEntity
  8
0
100
AcDbBlockBegin
  2
*B53
 70
     0
 10
0.0
 20
0.0
 30
0.0
  3
*B53
  1

  0
LINE
  5
803
100
AcDbEntity
  8
0
  6
Continuous
 62
     6
100
AcDbLine
 10
139.188797
 20
48.579985
 30
0.0
 11
140.18871
 21
48.579985
 31
0.0
  0
LINE
  5
804
100
AcDbEntity
  8
0
  6
Continuous
 62
     6
100
AcDbLine
 10
139.688647
 20
48.080135
 30
0.0
 11
139.688647
 21
49.080048
 31
0.0
  0
ENDBLK
  5
805
100
AcDbEntity
  8
0
100
AcDbBlockEnd
  0
BLOCK
  5
808
100
AcDbEntity
  8
0
100
AcDbBlockBegin
  2
*B54
 70
     0
 10
0.0
 20
0.0
 30
0.0
  3
*B54
  1

  0
LINE
  5
809
100
AcDbEntity
  8
0
  6
Continuous
 62
     6
100
AcDbLine
 10
161.975841
 20
152.074222
 30
0.0
 11
161.975841
 21
153.074134
 31
0.0
  0
LINE
  5
80A
100
AcDbEntity
  8
0
  6
Continuous
 62
     6
100
AcDbLine
 10
161.475778
 20
152.574284
 30
0.0
 11
162.475691
 21
152.574284
 31
0.0
  0
ENDBLK
  5
80B
100
AcDbEntity
  8
0
100
AcDbBlockEnd
  0
BLOCK
  5
80E
100
AcDbEntity
  8
0
100
AcDbBlockBegin
  2
*B55
 70
     0
 10
0.0
 20
0.0
 30
0.0
  3
*B55
  1

  0
LINE
  5
80F
100
AcDbEntity
  8
0
  6
Continuous
 62
     6
100
AcDbLine
 10
166.975828
 20
152.074222
 30
0.0
 11
166.975828
 21
153.074134
 31
0.0
  0
LINE
  5
810
100
AcDbEntity
  8
0
  6
Continuous
 62
     6
100
AcDbLine
 10
166.475766
 20
152.574284
 30
0.0
 11
167.475891
 21
152.574284
 31
0.0
  0
ENDBLK
  5
811
100
AcDbEntity
  8
0
100
AcDbBlockEnd
  0
BLOCK
  5
814
100
AcDbEntity
  8
0
100
AcDbBlockBegin
  2
*B56
 70
     0
 10
0.0
 20
0.0
 30
0.0
  3
*B56
  1

  0
LINE
  5
815
100
AcDbEntity
  8
0
  6
Continuous
 62
     6
100
AcDbLine
 10
132.975829
 20
152.074222
 30
0.0
 11
132.975829
 21
153.074134
 31
0.0
  0
LINE
  5
816
100
AcDbEntity
  8
0
  6
Continuous
 62
     6
100
AcDbLine
 10
132.475767
 20
152.574284
 30
0.0
 11
133.475892
 21
152.574284
 31
0.0
  0
ENDBLK
  5
817
100
AcDbEntity
  8
0
100
AcDbBlockEnd
  0
BLOCK
  5
81A
100
AcDbEntity
  8
0
100
AcDbBlockBegin
  2
*B57
 70
     0
 10
0.0
 20
0.0
 30
0.0
  3
*B57
  1

  0
LINE
  5
81B
100
AcDbEntity
  8
0
  6
Continuous
 62
     6
100
AcDbLine
 10
149.188772
 20
64.579222
 30
0.0
 11
150.188684
 21
64.579222
 31
0.0
  0
LINE
  5
81C
100
AcDbEntity
  8
0
  6
Continuous
 62
     6
100
AcDbLine
 10
149.688622
 20
64.07916
 30
0.0
 11
149.688622
 21
65.079072
 31
0.0
  0
ENDBLK
  5
81D
100
AcDbEntity
  8
0
100
AcDbBlockEnd
  0
BLOCK
  5
820
100
AcDbEntity
  8
0
100
AcDbBlockBegin
  2
*B58
 70
     0
 10
0.0
 20
0.0
 30
0.0
  3
*B58
  1

  0
LINE
  5
821
100
AcDbEntity
  8
0
  6
Continuous
 62
     6
100
AcDbLine
 10
161.975841
 20
168.073246
 30
0.0
 11
161.975841
 21
169.073159
 31
0.0
  0
LINE
  5
822
100
AcDbEntity
  8
0
  6
Continuous
 62
     6
100
AcDbLine
 10
161.475778
 20
168.573309
 30
0.0
 11
162.475691
 21
168.573309
 31
0.0
  0
ENDBLK
  5
823
100
AcDbEntity
  8
0
100
AcDbBlockEnd
  0
BLOCK
  5
826
100
AcDbEntity
  8
0
100
AcDbBlockBegin
  2
*B59
 70
     0
 10
0.0
 20
0.0
 30
0.0
  3
*B59
  1

  0
LINE
  5
827
100
AcDbEntity
  8
0
  6
Continuous
 62
     6
100
AcDbLine
 10
137.475754
 20
136.575047
 30
0.0
 11
138.475879
 21
136.575047
 31
0.0
  0
LINE
  5
828
100
AcDbEntity
  8
0
  6
Continuous
 62
     6
100
AcDbLine
 10
137.975816
 20
136.075197
 30
0.0
 11
137.975816
 21
137.075109
 31
0.0
  0
ENDBLK
  5
829
100
AcDbEntity
  8
0
100
AcDbBlockEnd
  0
BLOCK
  5
82C
100
AcDbEntity
  8
0
100
AcDbBlockBegin
  2
*B60
 70
     0
 10
0.0
 20
0.0
 30
0.0
  3
*B60
  1

  0
LINE
  5
82D
100
AcDbEntity
  8
0
  6
Continuous
 62
     6
100
AcDbLine
 10
161.188784
 20
32.58096
 30
0.0
 11
162.188697
 21
32.58096
 31
0.0
  0
LINE
  5
82E
100
AcDbEntity
  8
0
  6
Continuous
 62
     6
100
AcDbLine
 10
161.688634
 20
32.08111
 30
0.0
 11
161.688634
 21
33.081023
 31
0.0
  0
ENDBLK
  5
82F
100
AcDbEntity
  8
0
100
AcDbBlockEnd
  0
BLOCK
  5
832
100
AcDbEntity
  8
0
100
AcDbBlockBegin
  2
*B61
 70
     0
 10
0.0
 20
0.0
 30
0.0
  3
*B61
  1

  0
LINE
  5
833
100
AcDbEntity
  8
0
  6
Continuous
 62
     6
100
AcDbLine
 10
149.975829
 20
168.073246
 30
0.0
 11
149.975829
 21
169.073159
 31
0.0
  0
LINE
  5
834
100
AcDbEntity
  8
0
  6
Continuous
 62
     6
100
AcDbLine
 10
149.475766
 20
168.573309
 30
0.0
 11
150.475891
 21
168.573309
 31
0.0
  0
ENDBLK
  5
835
100
AcDbEntity
  8
0
100
AcDbBlockEnd
  0
BLOCK
  5
838
100
AcDbEntity
  8
0
100
AcDbBlockBegin
  2
*B62
 70
     0
 10
0.0
 20
0.0
 30
0.0
  3
*B62
  1

  0
LINE
  5
839
100
AcDbEntity
  8
0
  6
Continuous
 62
     6
100
AcDbLine
 10
159.188747
 20
48.579985
 30
0.0
 11
160.188659
 21
48.579985
 31
0.0
  0
LINE
  5
83A
100
AcDbEntity
  8
0
  6
Continuous
 62
     6
100
AcDbLine
 10
159.688809
 20
48.080135
 30
0.0
 11
159.688809
 21
49.080048
 31
0.0
  0
ENDBLK
  5
83B
100
AcDbEntity
  8
0
100
AcDbBlockEnd
  0
BLOCK
  5
83E
100
AcDbEntity
  8
0
100
AcDbBlockBegin
  2
*B63
 70
     0
 10
0.0
 20
0.0
 30
0.0
  3
*B63
  1

  0
LINE
  5
83F
100
AcDbEntity
  8
0
  6
Continuous
 62
     6
100
AcDbLine
 10
137.475754
 20
152.574284
 30
0.0
 11
138.475879
 21
152.574284
 31
0.0
  0
LINE
  5
840
100
AcDbEntity
  8
0
  6
Continuous
 62
     6
100
AcDbLine
 10
137.975816
 20
152.074222
 30
0.0
 11
137.975816
 21
153.074134
 31
0.0
  0
ENDBLK
  5
841
100
AcDbEntity
  8
0
100
AcDbBlockEnd
  0
BLOCK
  5
844
100
AcDbEntity
  8
0
100
AcDbBlockBegin
  2
*B64
 70
     0
 10
0.0
 20
0.0
 30
0.0
  3
*B64
  1

  0
TEXT
  5
845
100
AcDbEntity
  8
TEXT
  6
Continuous
 62
     0
100
AcDbText
 10
147.663034
 20
185.5
 30
0.0
 40
3.0
  1
64
100
AcDbText
  0
ENDBLK
  5
846
100
AcDbEntity
  8
0
100
AcDbBlockEnd
  0
BLOCK
  5
849
100
AcDbEntity
  8
0
100
AcDbBlockBegin
  2
*B65
 70
     0
 10
0.0
 20
0.0
 30
0.0
  3
*B65
  1

  0
TEXT
  5
84A
100
AcDbEntity
  8
TEXT
  6
Continuous
 62
     0
100
AcDbText
 10
169.891071
 20
80.5
 30
0.0
 40
3.0
  1
%%c5,5
100
AcDbText
  0
ENDBLK
  5
84B
100
AcDbEntity
  8
0
100
AcDbBlockEnd
  0
BLOCK
  5
84E
100
AcDbEntity
  8
0
100
AcDbBlockBegin
  2
*B66
 70
     0
 10
0.0
 20
0.0
 30
0.0
  3
*B66
  1

  0
TEXT
  5
84F
100
AcDbEntity
  8
TEXT
  6
Continuous
 62
     0
100
AcDbText
 10
206.5
 20
46.269984
 30
0.0
 40
3.0
  1
32
 50
90.0
100
AcDbText
  0
ENDBLK
  5
850
100
AcDbEntity
  8
0
100
AcDbBlockEnd
  0
BLOCK
  5
853
100
AcDbEntity
  8
0
100
AcDbBlockBegin
  2
*B67
 70
     0
 10
0.0
 20
0.0
 30
0.0
  3
*B67
  1

  0
TEXT
  5
854
100
AcDbEntity
  8
TEXT
  6
Continuous
 62
     0
100
AcDbText
 10
206.5
 20
98.378712
 30
0.0
 40
3.0
  1
22
 50
90.0
100
AcDbText
  0
ENDBLK
  5
855
100
AcDbEntity
  8
0
100
AcDbBlockEnd
  0
BLOCK
  5
858
100
AcDbEntity
  8
0
100
AcDbBlockBegin
  2
*B68
 70
     0
 10
0.0
 20
0.0
 30
0.0
  3
*B68
  1

  0
TEXT
  5
859
100
AcDbEntity
  8
TEXT
  6
Continuous
 62
     0
100
AcDbText
 10
206.5
 20
150.269954
 30
0.0
 40
3.0
  1
40
 50
90.0
100
AcDbText
  0
ENDBLK
  5
85A
100
AcDbEntity
  8
0
100
AcDbBlockEnd
  0
BLOCK
  5
85D
100
AcDbEntity
  8
0
100
AcDbBlockBegin
  2
*B69
 70
     0
 10
0.0
 20
0.0
 30
0.0
  3
*B69
  1

  0
TEXT
  5
85E
100
AcDbEntity
  8
TEXT
  6
Continuous
 62
     0
100
AcDbText
 10
90.5
 20
160.269954
 30
0.0
 40
3.0
  1
20
 50
90.0
100
AcDbText
  0
ENDBLK
  5
85F
100
AcDbEntity
  8
0
100
AcDbBlockEnd
  0
BLOCK
  5
862
100
AcDbEntity
  8
0
100
AcDbBlockBegin
  2
*B70
 70
     0
 10
0.0
 20
0.0
 30
0.0
  3
*B70
  1

  0
TEXT
  5
863
100
AcDbEntity
  8
TEXT
  6
Continuous
 62
     0
100
AcDbText
 10
125.663034
 20
124.509569
 30
0.0
 40
3.0
  1
20
100
AcDbText
  0
ENDBLK
  5
864
100
AcDbEntity
  8
0
100
AcDbBlockEnd
  0
BLOCK
  5
867
100
AcDbEntity
  8
0
100
AcDbBlockBegin
  2
*B71
 70
     0
 10
0.0
 20
0.0
 30
0.0
  3
*B71
  1

  0
TEXT
  5
868
100
AcDbEntity
  8
TEXT
  6
Continuous
 62
     0
100
AcDbText
 10
147.663034
 20
124.509569
 30
0.0
 40
3.0
  1
24
100
AcDbText
  0
ENDBLK
  5
869
100
AcDbEntity
  8
0
100
AcDbBlockEnd
  0
BLOCK
  5
86C
100
AcDbEntity
  8
0
100
AcDbBlockBegin
  2
*B72
 70
     0
 10
0.0
 20
0.0
 30
0.0
  3
*B72
  1

  0
TEXT
  5
86D
100
AcDbEntity
  8
TEXT
  6
Continuous
 62
     0
100
AcDbText
 10
169.663034
 20
124.509569
 30
0.0
 40
3.0
  1
20
100
AcDbText
  0
ENDBLK
  5
86E
100
AcDbEntity
  8
0
100
AcDbBlockEnd
  0
BLOCK
  5
871
100
AcDbEntity
  8
0
100
AcDbBlockBegin
  2
*B73
 70
     0
 10
0.0
 20
0.0
 30
0.0
  3
*B73
  1

  0
TEXT
  5
872
100
AcDbEntity
  8
TEXT
  6
Continuous
 62
     0
100
AcDbText
 10
157.857143
 20
18.777512
 30
0.0
 40
3.0
  1
M5
100
AcDbText
  0
ENDBLK
  5
873
100
AcDbEntity
  8
0
100
AcDbBlockEnd
  0
BLOCK
  5
876
100
AcDbEntity
  8
0
100
AcDbBlockBegin
  2
*B74
 70
     0
 10
0.0
 20
0.0
 30
0.0
  3
*B74
  1

  0
TEXT
  5
877
100
AcDbEntity
  8
TEXT
  6
Continuous
 62
     0
100
AcDbText
 10
199.571429
 20
191.5
 30
0.0
 40
3.0
  1
min. 13
100
AcDbText
  0
TEXT
  5
878
100
AcDbEntity
  8
TEXT
  6
Continuous
 62
     0
100
AcDbText
 10
199.571429
 20
185.5
 30
0.0
 40
3.0
  1
max. 20
100
AcDbText
  0
ENDBLK
  5
879
100
AcDbEntity
  8
0
100
AcDbBlockEnd
  0
BLOCK
  5
87C
100
AcDbEntity
  8
0
100
AcDbBlockBegin
  2
*B75
 70
     0
 10
0.0
 20
0.0
 30
0.0
  3
*B75
  1

  0
TEXT
  5
87D
100
AcDbEntity
  8
TEXT
  6
Continuous
 62
     0
100
AcDbText
 10
81.571429
 20
191.5
 30
0.0
 40
3.0
  1
min. 13
100
AcDbText
  0
TEXT
  5
87E
100
AcDbEntity
  8
TEXT
  6
Continuous
 62
     0
100
AcDbText
 10
81.571429
 20
185.5
 30
0.0
 40
3.0
  1
max. 20
100
AcDbText
  0
ENDBLK
  5
87F
100
AcDbEntity
  8
0
100
AcDbBlockEnd
  0
ENDSEC
  0
SECTION
  2
ENTITIES
  0
INSERT
  5
1DD
100
AcDbEntity
  8
0
  6
Continuous
 62
   174
100
AcDbBlockReference
  2
*B2
 10
0.0
 20
0.0
 30
0.0
  0
INSERT
  5
4C4
100
AcDbEntity
  8
0
  6
HIDDEN
 62
   174
100
AcDbBlockReference
  2
*B3
 10
0.0
 20
0.0
 30
0.0
  0
INSERT
  5
674
100
AcDbEntity
  8
0
  6
Continuous
 62
   174
100
AcDbBlockReference
  2
*B4
 10
0.0
 20
0.0
 30
0.0
  0
INSERT
  5
67B
100
AcDbEntity
  8
0
  6
Continuous
 62
     0
100
AcDbBlockReference
  2
*B5
 10
0.0
 20
0.0
 30
0.0
  0
INSERT
  5
682
100
AcDbEntity
  8
0
  6
Continuous
 62
     0
100
AcDbBlockReference
  2
*B6
 10
0.0
 20
0.0
 30
0.0
  0
INSERT
  5
689
100
AcDbEntity
  8
0
  6
Continuous
 62
     0
100
AcDbBlockReference
  2
*B7
 10
0.0
 20
0.0
 30
0.0
  0
INSERT
  5
690
100
AcDbEntity
  8
0
  6
Continuous
 62
     0
100
AcDbBlockReference
  2
*B8
 10
0.0
 20
0.0
 30
0.0
  0
INSERT
  5
697
100
AcDbEntity
  8
0
  6
Continuous
 62
     0
100
AcDbBlockReference
  2
*B9
 10
0.0
 20
0.0
 30
0.0
  0
INSERT
  5
69E
100
AcDbEntity
  8
0
  6
Continuous
 62
     0
100
AcDbBlockReference
  2
*B10
 10
0.0
 20
0.0
 30
0.0
  0
INSERT
  5
6A5
100
AcDbEntity
  8
0
  6
Continuous
 62
     0
100
AcDbBlockReference
  2
*B11
 10
0.0
 20
0.0
 30
0.0
  0
INSERT
  5
6AC
100
AcDbEntity
  8
0
  6
Continuous
 62
     0
100
AcDbBlockReference
  2
*B12
 10
0.0
 20
0.0
 30
0.0
  0
INSERT
  5
6B3
100
AcDbEntity
  8
0
  6
Continuous
 62
     0
100
AcDbBlockReference
  2
*B13
 10
0.0
 20
0.0
 30
0.0
  0
INSERT
  5
6BA
100
AcDbEntity
  8
0
  6
Continuous
 62
     0
100
AcDbBlockReference
  2
*B14
 10
0.0
 20
0.0
 30
0.0
  0
INSERT
  5
6C1
100
AcDbEntity
  8
0
  6
Continuous
 62
     0
100
AcDbBlockReference
  2
*B15
 10
0.0
 20
0.0
 30
0.0
  0
INSERT
  5
6C8
100
AcDbEntity
  8
0
  6
Continuous
 62
     0
100
AcDbBlockReference
  2
*B16
 10
0.0
 20
0.0
 30
0.0
  0
INSERT
  5
6CE
100
AcDbEntity
  8
0
  6
Continuous
 62
     8
100
AcDbBlockReference
  2
*B17
 10
0.0
 20
0.0
 30
0.0
  0
INSERT
  5
6D4
100
AcDbEntity
  8
0
  6
Continuous
 62
     8
100
AcDbBlockReference
  2
*B18
 10
0.0
 20
0.0
 30
0.0
  0
INSERT
  5
6D9
100
AcDbEntity
  8
0
  6
Continuous
 62
     8
100
AcDbBlockReference
  2
*B19
 10
0.0
 20
0.0
 30
0.0
  0
INSERT
  5
6DF
100
AcDbEntity
  8
0
  6
Continuous
 62
     8
100
AcDbBlockReference
  2
*B20
 10
0.0
 20
0.0
 30
0.0
  0
INSERT
  5
6E4
100
AcDbEntity
  8
0
  6
Continuous
 62
     8
100
AcDbBlockReference
  2
*B21
 10
0.0
 20
0.0
 30
0.0
  0
INSERT
  5
6EA
100
AcDbEntity
  8
0
  6
Continuous
 62
     8
100
AcDbBlockReference
  2
*B22
 10
0.0
 20
0.0
 30
0.0
  0
INSERT
  5
6FD
100
AcDbEntity
  8
0
  6
Continuous
 62
     8
100
AcDbBlockReference
  2
*B23
 10
0.0
 20
0.0
 30
0.0
  0
INSERT
  5
702
100
AcDbEntity
  8
0
  6
Continuous
 62
     8
100
AcDbBlockReference
  2
*B24
 10
0.0
 20
0.0
 30
0.0
  0
INSERT
  5
707
100
AcDbEntity
  8
0
  6
Continuous
 62
     8
100
AcDbBlockReference
  2
*B25
 10
0.0
 20
0.0
 30
0.0
  0
INSERT
  5
70D
100
AcDbEntity
  8
0
  6
Continuous
 62
     8
100
AcDbBlockReference
  2
*B26
 10
0.0
 20
0.0
 30
0.0
  0
INSERT
  5
71D
100
AcDbEntity
  8
0
  6
Continuous
 62
     8
100
AcDbBlockReference
  2
*B27
 10
0.0
 20
0.0
 30
0.0
  0
INSERT
  5
722
100
AcDbEntity
  8
0
  6
Continuous
 62
     8
100
AcDbBlockReference
  2
*B28
 10
0.0
 20
0.0
 30
0.0
  0
INSERT
  5
730
100
AcDbEntity
  8
0
  6
Continuous
 62
     8
100
AcDbBlockReference
  2
*B29
 10
0.0
 20
0.0
 30
0.0
  0
INSERT
  5
736
100
AcDbEntity
  8
0
  6
Continuous
 62
     8
100
AcDbBlockReference
  2
*B30
 10
0.0
 20
0.0
 30
0.0
  0
INSERT
  5
751
100
AcDbEntity
  8
0
  6
Continuous
 62
     8
100
AcDbBlockReference
  2
*B31
 10
0.0
 20
0.0
 30
0.0
  0
INSERT
  5
76D
100
AcDbEntity
  8
0
  6
Continuous
 62
     8
100
AcDbBlockReference
  2
*B32
 10
0.0
 20
0.0
 30
0.0
  0
INSERT
  5
778
100
AcDbEntity
  8
0
  6
Continuous
 62
     8
100
AcDbBlockReference
  2
*B33
 10
0.0
 20
0.0
 30
0.0
  0
INSERT
  5
77D
100
AcDbEntity
  8
0
  6
Continuous
 62
     8
100
AcDbBlockReference
  2
*B34
 10
0.0
 20
0.0
 30
0.0
  0
INSERT
  5
783
100
AcDbEntity
  8
0
  6
Continuous
 62
     8
100
AcDbBlockReference
  2
*B35
 10
0.0
 20
0.0
 30
0.0
  0
INSERT
  5
789
100
AcDbEntity
  8
0
  6
Continuous
 62
     8
100
AcDbBlockReference
  2
*B36
 10
0.0
 20
0.0
 30
0.0
  0
INSERT
  5
78F
100
AcDbEntity
  8
0
  6
Continuous
 62
     8
100
AcDbBlockReference
  2
*B37
 10
0.0
 20
0.0
 30
0.0
  0
INSERT
  5
794
100
AcDbEntity
  8
0
  6
Continuous
 62
     8
100
AcDbBlockReference
  2
*B38
 10
0.0
 20
0.0
 30
0.0
  0
INSERT
  5
79A
100
AcDbEntity
  8
0
  6
Continuous
 62
     8
100
AcDbBlockReference
  2
*B39
 10
0.0
 20
0.0
 30
0.0
  0
INSERT
  5
79F
100
AcDbEntity
  8
0
  6
Continuous
 62
     8
100
AcDbBlockReference
  2
*B40
 10
0.0
 20
0.0
 30
0.0
  0
INSERT
  5
7A8
100
AcDbEntity
  8
0
  6
Continuous
 62
     8
100
AcDbBlockReference
  2
*B41
 10
0.0
 20
0.0
 30
0.0
  0
INSERT
  5
7AE
100
AcDbEntity
  8
0
  6
Continuous
 62
     8
100
AcDbBlockReference
  2
*B42
 10
0.0
 20
0.0
 30
0.0
  0
INSERT
  5
7B3
100
AcDbEntity
  8
0
  6
Continuous
 62
     8
100
AcDbBlockReference
  2
*B43
 10
0.0
 20
0.0
 30
0.0
  0
INSERT
  5
7CC
100
AcDbEntity
  8
0
  6
Continuous
 62
     8
100
AcDbBlockReference
  2
*B44
 10
0.0
 20
0.0
 30
0.0
  0
INSERT
  5
7D2
100
AcDbEntity
  8
0
  6
Continuous
 62
     8
100
AcDbBlockReference
  2
*B45
 10
0.0
 20
0.0
 30
0.0
  0
INSERT
  5
7D8
100
AcDbEntity
  8
0
  6
Continuous
 62
     8
100
AcDbBlockReference
  2
*B46
 10
0.0
 20
0.0
 30
0.0
  0
INSERT
  5
7E2
100
AcDbEntity
  8
0
  6
Continuous
 62
     8
100
AcDbBlockReference
  2
*B47
 10
0.0
 20
0.0
 30
0.0
  0
INSERT
  5
7E8
100
AcDbEntity
  8
0
  6
Continuous
 62
     8
100
AcDbBlockReference
  2
*B48
 10
0.0
 20
0.0
 30
0.0
  0
INSERT
  5
7EE
100
AcDbEntity
  8
0
  6
Continuous
 62
     8
100
AcDbBlockReference
  2
*B49
 10
0.0
 20
0.0
 30
0.0
  0
INSERT
  5
7F4
100
AcDbEntity
  8
0
  6
Continuous
 62
     8
100
AcDbBlockReference
  2
*B50
 10
0.0
 20
0.0
 30
0.0
  0
INSERT
  5
7FA
100
AcDbEntity
  8
0
  6
Continuous
 62
     6
100
AcDbBlockReference
  2
*B51
 10
0.0
 20
0.0
 30
0.0
  0
INSERT
  5
800
100
AcDbEntity
  8
0
  6
Continuous
 62
     6
100
AcDbBlockReference
  2
*B52
 10
0.0
 20
0.0
 30
0.0
  0
INSERT
  5
806
100
AcDbEntity
  8
0
  6
Continuous
 62
     6
100
AcDbBlockReference
  2
*B53
 10
0.0
 20
0.0
 30
0.0
  0
INSERT
  5
80C
100
AcDbEntity
  8
0
  6
Continuous
 62
     6
100
AcDbBlockReference
  2
*B54
 10
0.0
 20
0.0
 30
0.0
  0
INSERT
  5
812
100
AcDbEntity
  8
0
  6
Continuous
 62
     6
100
AcDbBlockReference
  2
*B55
 10
0.0
 20
0.0
 30
0.0
  0
INSERT
  5
818
100
AcDbEntity
  8
0
  6
Continuous
 62
     6
100
AcDbBlockReference
  2
*B56
 10
0.0
 20
0.0
 30
0.0
  0
INSERT
  5
81E
100
AcDbEntity
  8
0
  6
Continuous
 62
     6
100
AcDbBlockReference
  2
*B57
 10
0.0
 20
0.0
 30
0.0
  0
INSERT
  5
824
100
AcDbEntity
  8
0
  6
Continuous
 62
     6
100
AcDbBlockReference
  2
*B58
 10
0.0
 20
0.0
 30
0.0
  0
INSERT
  5
82A
100
AcDbEntity
  8
0
  6
Continuous
 62
     6
100
AcDbBlockReference
  2
*B59
 10
0.0
 20
0.0
 30
0.0
  0
INSERT
  5
830
100
AcDbEntity
  8
0
  6
Continuous
 62
     6
100
AcDbBlockReference
  2
*B60
 10
0.0
 20
0.0
 30
0.0
  0
INSERT
  5
836
100
AcDbEntity
  8
0
  6
Continuous
 62
     6
100
AcDbBlockReference
  2
*B61
 10
0.0
 20
0.0
 30
0.0
  0
INSERT
  5
83C
100
AcDbEntity
  8
0
  6
Continuous
 62
     6
100
AcDbBlockReference
  2
*B62
 10
0.0
 20
0.0
 30
0.0
  0
INSERT
  5
842
100
AcDbEntity
  8
0
  6
Continuous
 62
     6
100
AcDbBlockReference
  2
*B63
 10
0.0
 20
0.0
 30
0.0
  0
INSERT
  5
847
100
AcDbEntity
  8
TEXT
  6
Continuous
 62
     0
100
AcDbBlockReference
  2
*B64
 10
0.0
 20
0.0
 30
0.0
  0
INSERT
  5
84C
100
AcDbEntity
  8
TEXT
  6
Continuous
 62
     0
100
AcDbBlockReference
  2
*B65
 10
0.0
 20
0.0
 30
0.0
  0
INSERT
  5
851
100
AcDbEntity
  8
TEXT
  6
Continuous
 62
     0
100
AcDbBlockReference
  2
*B66
 10
0.0
 20
0.0
 30
0.0
  0
INSERT
  5
856
100
AcDbEntity
  8
TEXT
  6
Continuous
 62
     0
100
AcDbBlockReference
  2
*B67
 10
0.0
 20
0.0
 30
0.0
  0
INSERT
  5
85B
100
AcDbEntity
  8
TEXT
  6
Continuous
 62
     0
100
AcDbBlockReference
  2
*B68
 10
0.0
 20
0.0
 30
0.0
  0
INSERT
  5
860
100
AcDbEntity
  8
TEXT
  6
Continuous
 62
     0
100
AcDbBlockReference
  2
*B69
 10
0.0
 20
0.0
 30
0.0
  0
INSERT
  5
865
100
AcDbEntity
  8
TEXT
  6
Continuous
 62
     0
100
AcDbBlockReference
  2
*B70
 10
0.0
 20
0.0
 30
0.0
  0
INSERT
  5
86A
100
AcDbEntity
  8
TEXT
  6
Continuous
 62
     0
100
AcDbBlockReference
  2
*B71
 10
0.0
 20
0.0
 30
0.0
  0
INSERT
  5
86F
100
AcDbEntity
  8
TEXT
  6
Continuous
 62
     0
100
AcDbBlockReference
  2
*B72
 10
0.0
 20
0.0
 30
0.0
  0
INSERT
  5
874
100
AcDbEntity
  8
TEXT
  6
Continuous
 62
     0
100
AcDbBlockReference
  2
*B73
 10
0.0
 20
0.0
 30
0.0
  0
INSERT
  5
87A
100
AcDbEntity
  8
TEXT
  6
Continuous
 62
     0
100
AcDbBlockReference
  2
*B74
 10
0.0
 20
0.0
 30
0.0
  0
INSERT
  5
880
100
AcDbEntity
  8
TEXT
  6
Continuous
 62
     0
100
AcDbBlockReference
  2
*B75
 10
0.0
 20
0.0
 30
0.0
  0
ENDSEC
  0
SECTION
  2
OBJECTS
  0
DICTIONARY
  5
19
100
AcDbDictionary
280
     0
281
     1
  3
ACAD_GROUP
350
1A
  3
ACAD_MLINESTYLE
350
1B
  3
ACAD_LAYOUT
350
1E
  3
ACAD_PLOTSETTINGS
350
22
  3
ACAD_PLOTSTYLENAME
350
1F
  3
ACAD_WIPEOUT_VARS
350
23
  0
DICTIONARY
  5
1A
102
{ACAD_REACTORS
330
19
102
}
100
AcDbDictionary
280
     0
281
     1
  0
DICTIONARY
  5
1B
102
{ACAD_REACTORS
330
19
102
}
100
AcDbDictionary
280
     0
281
     1
  3
Standard
350
1C
  0
MLINESTYLE
  5
1C
102
{ACAD_REACTORS
330
1B
102
}
100
AcDbMlineStyle
  2
Standard
 70
     0
  3

 62
     0
 51
90.0
 52
90.0
 71
     2
 49
0.5
 62
   256
  6
BYLAYER
 49
-0.5
 62
   256
  6
BYLAYER
  0
ACDBDICTIONARYWDFLT
  5
1F
102
{ACAD_REACTORS
330
19
102
}
100
AcDbDictionary
281
     1
  3
Normal
350
1D
100
AcDbDictionaryWithDefault
340
1D
  0
ACDBPLACEHOLDER
  5
1D
102
{ACAD_REACTORS
330
1F
102
}
  0
LAYOUT
  5
20
102
{ACAD_REACTORS
330
1E
102
}
100
AcDbPlotSettings
  1

  2

  4

  6

 40
0.0
 41
0.0
 42
0.0
 43
0.0
 44
0.0
 45
0.0
 46
0.0
 47
0.0
 48
0.0
 49
0.0
140
0.0
141
0.0
142
1.0
143
1.0
 70
     0
 72
     0
 73
     0
 74
     0
  7

 75
     0
147
1.0
148
0.0
149
0.0
100
AcDbLayout
  1
Model
 70
     0
 71
     0
 10
0.0
 20
0.0
 11
0.0
 21
0.0
 12
0.0
 22
0.0
 32
0.0
 14
0.0
 24
0.0
 34
0.0
 15
0.0
 25
0.0
 35
0.0
146
0.0
 13
0.0
 23
0.0
 33
0.0
 16
0.0
 26
0.0
 36
0.0
 17
0.0
 27
0.0
 37
0.0
 76
     0
330
A
331
0
345
0
346
0
  0
LAYOUT
  5
21
102
{ACAD_REACTORS
330
1E
102
}
100
AcDbPlotSettings
  1

  2

  4

  6

 40
0.0
 41
0.0
 42
0.0
 43
0.0
 44
0.0
 45
0.0
 46
0.0
 47
0.0
 48
0.0
 49
0.0
140
0.0
141
0.0
142
1.0
143
1.0
 70
     0
 72
     0
 73
     0
 74
     0
  7

 75
     0
147
1.0
148
0.0
149
0.0
100
AcDbLayout
  1
Layout1
 70
     0
 71
     0
 10
0.0
 20
0.0
 11
0.0
 21
0.0
 12
0.0
 22
0.0
 32
0.0
 14
0.0
 24
0.0
 34
0.0
 15
0.0
 25
0.0
 35
0.0
146
0.0
 13
0.0
 23
0.0
 33
0.0
 16
0.0
 26
0.0
 36
0.0
 17
0.0
 27
0.0
 37
0.0
 76
     0
330
B
331
0
345
0
346
0
  0
DICTIONARY
  5
1E
102
{ACAD_REACTORS
330
19
102
}
100
AcDbDictionary
280
     0
281
     1
  3
Layout1
350
21
  3
Model
350
20
  0
DICTIONARY
  5
22
102
{ACAD_REACTORS
330
19
102
}
100
AcDbDictionary
280
     0
281
     1
  0
WIPEOUTVARIABLES
  5
23
100
AcDbWipeoutVariables
 70
     1
  0
ENDSEC
  0
EOF
