  0
SECTION
  2
HEADER
  9
$ACADVER
  1
AC1015
  9
$ACADMAINTVER
 70
     6
  9
$DWGCODEPAGE
  3
DOS850
  9
$INSBASE
 10
0.0
 20
0.0
 30
0.0
  9
$EXTMIN
 10
0.0
 20
0.0
 30
0.0
  9
$EXTMAX
 10
297.0
 20
210.0
 30
0.0
  9
$LIMMIN
 10
0.0
 20
0.0
  9
$LIMMAX
 10
297.0
 20
210.0
  9
$ORTHOMODE
 70
     0
  9
$REGENMODE
 70
     1
  9
$FILLMODE
 70
     1
  9
$QTEXTMODE
 70
     0
  9
$MIRRTEXT
 70
     1
  9
$LTSCALE
 40
25.4
  9
$ATTMODE
 70
     1
  9
$TEXTSIZE
 40
3.5
  9
$TRACEWID
 40
0.05
  9
$TEXTSTYLE
  7
Standard
  9
$CLAYER
  8
0
  9
$CELTYPE
  6
Continuous
  9
$CECOLOR
 62
   256
  9
$CELTSCALE
 40
1.0
  9
$DISPSILH
 70
     0
  9
$DIMSCALE
 40
1.0
  9
$DIMASZ
 40
5.0
  9
$DIMEXO
 40
3.0
  9
$DIMDLI
 40
0.38
  9
$DIMRND
 40
0.0
  9
$DIMDLE
 40
0.0
  9
$DIMEXE
 40
2.0
  9
$DIMTP
 40
0.0
  9
$DIMTM
 40
0.0
  9
$DIMTXT
 40
3.5
  9
$DIMCEN
 40
4.0
  9
$DIMTSZ
 40
0.0
  9
$DIMTOL
 70
     0
  9
$DIMLIM
 70
     0
  9
$DIMTIH
 70
     1
  9
$DIMTOH
 70
     1
  9
$DIMSE1
 70
     0
  9
$DIMSE2
 70
     0
  9
$DIMTAD
 70
     0
  9
$DIMZIN
 70
     0
  9
$DIMBLK
  1

  9
$DIMASO
 70
     1
  9
$DIMSHO
 70
     1
  9
$DIMPOST
  1

  9
$DIMAPOST
  1

  9
$DIMALT
 70
     0
  9
$DIMALTD
 70
     2
  9
$DIMALTF
 40
25.4
  9
$DIMLFAC
 40
1.0
  9
$DIMTOFL
 70
     0
  9
$DIMTVP
 40
0.0
  9
$DIMTIX
 70
     0
  9
$DIMSOXD
 70
     0
  9
$DIMSAH
 70
     0
  9
$DIMBLK1
  1

  9
$DIMBLK2
  1

  9
$DIMSTYLE
  2
Standard
  9
$DIMCLRD
 70
     0
  9
$DIMCLRE
 70
     0
  9
$DIMCLRT
 70
     0
  9
$DIMTFAC
 40
1.0
  9
$DIMGAP
 40
1.0
  9
$DIMJUST
 70
     0
  9
$DIMSD1
 70
     0
  9
$DIMSD2
 70
     0
  9
$DIMTOLJ
 70
     1
  9
$DIMTZIN
 70
     0
  9
$DIMALTZ
 70
     0
  9
$DIMALTTZ
 70
     0
  9
$DIMUPT
 70
     0
  9
$DIMDEC
 70
     4
  9
$DIMTDEC
 70
     4
  9
$DIMALTU
 70
     2
  9
$DIMALTTD
 70
     2
  9
$DIMTXSTY
  7
Standard
  9
$DIMAUNIT
 70
     0
  9
$DIMADEC
 70
     0
  9
$DIMALTRND
 40
0.0
  9
$DIMAZIN
 70
     0
  9
$DIMDSEP
 70
     0
  9
$DIMATFIT
 70
     3
  9
$DIMFRAC
 70
     0
  9
$DIMLDRBLK
  1

  9
$DIMLUNIT
 70
     2
  9
$DIMLWD
 70
     0
  9
$DIMLWE
 70
     0
  9
$DIMTMOVE
 70
     0
  9
$LUNITS
 70
     2
  9
$LUPREC
 70
     4
  9
$SKETCHINC
 40
0.1
  9
$FILLETRAD
 40
0.0
  9
$AUNITS
 70
     0
  9
$AUPREC
 70
     0
  9
$MENU
  1
acad
  9
$ELEVATION
 40
0.0
  9
$PELEVATION
 40
0.0
  9
$THICKNESS
 40
0.0
  9
$LIMCHECK
 70
     0
  9
$CHAMFERA
 40
0.0
  9
$CHAMFERB
 40
0.0
  9
$CHAMFERC
 40
0.0
  9
$CHAMFERD
 40
0.0
  9
$SKPOLY
 70
     0
  9
$TDCREATE
 40
0.000000000
  9
$TDUCREATE
 40
0.000000000
  9
$TDUPDATE
 40
0.000000000
  9
$TDUUPDATE
 40
0.000000000
  9
$TDINDWG
 40
0.0000000000
  9
$TDUSRTIMER
 40
0.0000000000
  9
$USRTIMER
 70
     1
  9
$ANGBASE
 50
0.0
  9
$ANGDIR
 70
     0
  9
$PDMODE
 70
     0
  9
$PDSIZE
 40
0.0
  9
$PLINEWID
 40
0.0
  9
$SPLFRAME
 70
     0
  9
$SPLINETYPE
 70
     6
  9
$SPLINESEGS
 70
     8
  9
$HANDSEED
  5
2C9
  9
$SURFTAB1
 70
     6
  9
$SURFTAB2
 70
     6
  9
$SURFTYPE
 70
     6
  9
$SURFU
 70
     6
  9
$SURFV
 70
     6
  9
$UCSBASE
  2

  9
$UCSNAME
  2

  9
$UCSORG
 10
0.0
 20
0.0
 30
0.0
  9
$UCSXDIR
 10
1.0
 20
0.0
 30
0.0
  9
$UCSYDIR
 10
0.0
 20
1.0
 30
0.0
  9
$UCSORTHOREF
  2

  9
$UCSORTHOVIEW
 70
     0
  9
$UCSORGTOP
 10
0.0
 20
0.0
 30
0.0
  9
$UCSORGBOTTOM
 10
0.0
 20
0.0
 30
0.0
  9
$UCSORGLEFT
 10
0.0
 20
0.0
 30
0.0
  9
$UCSORGRIGHT
 10
0.0
 20
0.0
 30
0.0
  9
$UCSORGFRONT
 10
0.0
 20
0.0
 30
0.0
  9
$UCSORGBACK
 10
0.0
 20
0.0
 30
0.0
  9
$PUCSBASE
  2

  9
$PUCSNAME
  2

  9
$PUCSORG
 10
0.0
 20
0.0
 30
0.0
  9
$PUCSXDIR
 10
1.0
 20
0.0
 30
0.0
  9
$PUCSYDIR
 10
0.0
 20
1.0
 30
0.0
  9
$PUCSORTHOREF
  2

  9
$PUCSORTHOVIEW
 70
     0
  9
$PUCSORGTOP
 10
0.0
 20
0.0
 30
0.0
  9
$PUCSORGBOTTOM
 10
0.0
 20
0.0
 30
0.0
  9
$PUCSORGLEFT
 10
0.0
 20
0.0
 30
0.0
  9
$PUCSORGRIGHT
 10
0.0
 20
0.0
 30
0.0
  9
$PUCSORGFRONT
 10
0.0
 20
0.0
 30
0.0
  9
$PUCSORGBACK
 10
0.0
 20
0.0
 30
0.0
  9
$USERI1
 70
     0
  9
$USERI2
 70
     0
  9
$USERI3
 70
     0
  9
$USERI4
 70
     0
  9
$USERI5
 70
     0
  9
$USERR1
 40
0.0
  9
$USERR2
 40
0.0
  9
$USERR3
 40
0.0
  9
$USERR4
 40
0.0
  9
$USERR5
 40
0.0
  9
$WORLDVIEW
 70
     1
  9
$SHADEDGE
 70
     3
  9
$SHADEDIF
 70
    70
  9
$TILEMODE
 70
     1
  9
$MAXACTVP
 70
    16
  9
$PINSBASE
 10
0.0
 20
0.0
 30
0.0
  9
$PLIMCHECK
 70
     0
  9
$PEXTMIN
 10
1.000000E+20
 20
1.000000E+20
 30
1.000000E+20
  9
$PEXTMAX
 10
-1.000000E+20
 20
-1.000000E+20
 30
-1.000000E+20
  9
$PLIMMIN
 10
0.0
 20
0.0
  9
$PLIMMAX
 10
297.0
 20
210.0
  9
$UNITMODE
 70
     0
  9
$VISRETAIN
 70
     0
  9
$PLINEGEN
 70
     1
  9
$PSLTSCALE
 70
     0
  9
$TREEDEPTH
 70
  3020
  9
$CMLSTYLE
  2
Standard
  9
$CMLJUST
 70
     0
  9
$CMLSCALE
 40
1.0
  9
$PROXYGRAPHICS
 70
     0
  9
$MEASUREMENT
 70
     0
  9
$CELWEIGHT
370
     0
  9
$ENDCAPS
280
     0
  9
$JOINSTYLE
280
     0
  9
$LWDISPLAY
290
     0
  9
$INSUNITS
 70
     0
  9
$HYPERLINKBASE
  1

  9
$XEDIT
290
     1
  9
$CEPSNTYPE
380
     0
  9
$PSTYLEMODE
290
     0
  9
$FINGERPRINTGUID
  2

  9
$VERSIONGUID
  2

  9
$EXTNAMES
290
     1
  9
$PSVPSCALE
 40
0.0
  0
ENDSEC
  0
SECTION
  2
CLASSES
  0
CLASS
  1
LWPOLYLINE
  2
AcDbPolyline
  3
"AutoCAD"
 90
        0
280
     0
281
     1
  0
CLASS
  1
IMAGE
  2
AcDbRasterImage
  3
ISM
 90
      127
280
     0
281
     1
  0
CLASS
  1
OLE2FRAME
  2
AcDbOle2Frame
  3
""
 90
        0
280
     0
281
     1
  0
CLASS
  1
HATCH
  2
AcDbHatch
  3
"ACAD_SEDONA"
 90
        0
280
     0
281
     1
  0
CLASS
  1
DICTIONARYVAR
  2
AcDbDictionaryVar
  3
"AutoCAD"
 90
        0
280
     0
281
     0
  0
CLASS
  1
RASTERVARIABLES
  2
AcDbRasterVariables
  3
ISM
 90
        0
280
     0
281
     0
  0
CLASS
  1
IMAGEDEF
  2
AcDbRasterImageDef
  3
ISM
 90
        0
280
     0
281
     0
  0
CLASS
  1
IMAGEDEF_REACTOR
  2
AcDbRasterImageDefReactor
  3
ISM
 90
        1
280
     0
281
     0
  0
CLASS
  1
IDBUFFER
  2
AcDbIdBuffer
  3
"Acad"
 90
        0
280
     0
281
     0
  0
CLASS
  1
SPATIAL_FILTER
  2
AcDbSpatialFilter
  3
"Acad"
 90
        0
280
     0
281
     0
  0
CLASS
  1
XRECORD
  2
AcDbXrecord
  3
"<Built In>"
 90
        0
280
     0
281
     0
  0
CLASS
  1
SORTENTSTABLE
  2
AcDbSortentsTable
  3
"AutoCAD"
 90
        0
280
     0
281
     0
  0
CLASS
  1
LAYER_INDEX
  2
AcDbLayerIndex
  3
"Acad"
 90
        0
280
     0
281
     0
  0
CLASS
  1
SPATIAL_INDEX
  2
AcDbSpatialIndex
  3
"Acad"
 90
        0
280
     0
281
     0
  0
CLASS
  1
OBJECT_PTR
  2
CAseDLPNTableRecord
  3
"ASE-LPNTableRecord"
 90
        1
280
     0
281
     0
  0
CLASS
  1
LAYOUT
  2
AcDbLayout
  3
"AutoCAD 2000"
 90
        1
280
     0
281
     0
  0
CLASS
  1
PLOTSETTINGS
  2
AcDbPlotSettings
  3
"AutoCAD 2000"
 90
        1
280
     0
281
     0
  0
CLASS
  1
ACDBDICTIONARYWDFLT
  2
AcDbDictionaryWithDefault
  3
"AutoCAD 2000"
 90
        1
280
     0
281
     0
  0
CLASS
  1
ACDBPLACEHOLDER
  2
AcDbPlaceHolder
  3
"AutoCAD 2000"
 90
        1
280
     0
281
     0
  0
CLASS
  1
VBA_PROJECT
  2
AcDbVbaProject
  3
"acadvba"
 90
        1
280
     0
281
     0
  0
CLASS
  1
WIPEOUT
  2
AcDbWipeout
  3
WipeOut|AutoCAD Express Tool|expresstools@autodesk.com
 90
      127
280
     0
281
     1
  0
CLASS
  1
WIPEOUTVARIABLES
  2
AcDbWipeoutVariables
  3
WipeOut|AutoCAD Express Tool|expresstools@autodesk.com
 90
        0
280
     0
281
     0
  0
CLASS
  1
RTEXT
  2
RText
  3
RText|AutoCAD Express Tool|expresstools@autodesk.com
 90
        0
280
     0
281
     1
  0
CLASS
  1
ARCALIGNEDTEXT
  2
AcDbArcAlignedText
  3
ATEXT|AutoCAD Express Tool|expresstools@autodesk.com
 90
        0
280
     0
281
     1
  0
ENDSEC
  0
SECTION
  2
TABLES
  0
TABLE
  2
VPORT
  5
7
100
AcDbSymbolTable
 70
     1
  0
VPORT
  5
15
100
AcDbSymbolTableRecord
100
AcDbViewportTableRecord
  2
*ACTIVE
 70
     0
 10
0.0
 20
0.0
 11
1.0
 21
1.0
 12
6.591288
 22
4.579184
 13
0.0
 23
0.0
 14
1.0
 24
1.0
 15
0.0
 25
0.0
 16
0.0
 26
0.0
 36
1.0
 17
0.0
 27
0.0
 37
0.0
 40
9.158369
 41
0.688564
 42
50.0
 43
0.0
 44
0.0
 50
0.0
 51
0.0
 71
     0
 72
   100
 73
     1
 74
     1
 75
     0
 76
     0
 77
     0
 78
     0
281
     0
 65
     0
110
0.0
120
0.0
130
0.0
111
1.0
121
0.0
131
0.0
112
0.0
122
1.0
132
0.0
345
0
346
0
 79
     0
146
0.0
  0
ENDTAB
  0
TABLE
  2
LTYPE
  5
4
100
AcDbSymbolTable
 70
     7
  0
LTYPE
  5
11
100
AcDbSymbolTableRecord
100
AcDbLinetypeTableRecord
  2
ByBlock
 70
    64
  3

 72
    65
 73
     0
 40
0.0
  0
LTYPE
  5
12
100
AcDbSymbolTableRecord
100
AcDbLinetypeTableRecord
  2
ByLayer
 70
    64
  3

 72
    65
 73
     0
 40
0.0
  0
LTYPE
  5
13
100
AcDbSymbolTableRecord
100
AcDbLinetypeTableRecord
  2
Continuous
 70
    64
  3
Solid line
 72
    65
 73
     0
 40
0.0
  0
LTYPE
  5
24
100
AcDbSymbolTableRecord
100
AcDbLinetypeTableRecord
  2
HIDDEN
 70
    64
  3
_ _ _ _ _ _ _ _ _ _ _ _ _ _ _ _ _ _ _ _ _ _ _ _
 72
    65
 73
     2
 40
0.1875
 49
0.125
 74
     0
 49
-0.0625
 74
     0
  0
LTYPE
  5
25
100
AcDbSymbolTableRecord
100
AcDbLinetypeTableRecord
  2
DOTTED
 70
    64
  3
...............................................
 72
    65
 73
     2
 40
0.125
 49
0.0
 74
     0
 49
-0.125
 74
     0
  0
LTYPE
  5
26
100
AcDbSymbolTableRecord
100
AcDbLinetypeTableRecord
  2
CENTER
 70
    64
  3
____ _ ____ _ ____ _ ____ _ ____ _ ____ _ ____ 
 72
    65
 73
     4
 40
1.125
 49
0.75
 74
     0
 49
-0.125
 74
     0
 49
0.125
 74
     0
 49
-0.125
 74
     0
  0
LTYPE
  5
27
100
AcDbSymbolTableRecord
100
AcDbLinetypeTableRecord
  2
PHANTOM
 70
    64
  3
______  __  __  ______  __  __  ______  __  __ 
 72
    65
 73
     6
 40
1.25
 49
0.625
 74
     0
 49
-0.125
 74
     0
 49
0.125
 74
     0
 49
-0.125
 74
     0
 49
0.125
 74
     0
 49
-0.125
 74
     0
  0
ENDTAB
  0
TABLE
  2
LAYER
  5
2
100
AcDbSymbolTable
 70
     2
  0
LAYER
  5
14
100
AcDbSymbolTableRecord
100
AcDbLayerTableRecord
  2
0
 70
     0
 62
     7
  6
Continuous
290
     1
370
    -3
390
1D
  0
LAYER
  5
28
100
AcDbSymbolTableRecord
100
AcDbLayerTableRecord
  2
TEXT
 70
     0
 62
     8
  6
Continuous
290
     1
370
    -3
390
1F
  0
ENDTAB
  0
TABLE
  2
STYLE
  5
3
100
AcDbSymbolTable
 70
     1
  0
STYLE
  5
17
100
AcDbSymbolTableRecord
100
AcDbTextStyleTableRecord
  2
Standard
 70
     0
 40
0.0
 41
1.0
 50
0.0
 71
     0
 42
0.0
  3
txt
  4

  0
ENDTAB
  0
TABLE
  2
VIEW
  5
5
100
AcDbSymbolTable
 70
     0
  0
ENDTAB
  0
TABLE
  2
UCS
  5
6
100
AcDbSymbolTable
 70
     0
  0
ENDTAB
  0
TABLE
  2
APPID
  5
8
100
AcDbSymbolTable
 70
     1
  0
APPID
  5
16
100
AcDbSymbolTableRecord
100
AcDbRegAppTableRecord
  2
ACAD
 70
     0
  0
ENDTAB
  0
TABLE
  2
DIMSTYLE
  5
9
100
AcDbSymbolTable
 70
     1
100
AcDbDimStyleTable
 71
     0
  0
DIMSTYLE
105
18
100
AcDbSymbolTableRecord
100
AcDbDimStyleTableRecord
  2
Standard
 70
     0
  3

  4

 40
1.0
 41
0.18
 42
0.0625
 43
0.38
 44
0.18
 45
0.0
 46
0.0
 47
0.0
 48
0.0
 71
     0
 72
     0
 73
     1
 74
     1
 75
     0
 76
     0
 77
     0
 78
     0
 79
     0
140
0.18
141
0.09
142
0.0
143
25.4
144
1.0
145
0.0
146
1.0
147
0.09
148
0.0
170
     0
171
     2
172
     0
173
     0
174
     0
175
     0
176
     0
177
     0
178
     0
179
     0
271
     4
272
     4
273
     2
274
     2
275
     0
276
     0
277
     2
278
    46
279
     0
280
     0
281
     0
282
     0
283
     1
284
     0
285
     0
286
     0
288
     0
340
17
341
0
342
0
343
0
344
0
371
    -2
372
    -2
  0
ENDTAB
  0
TABLE
  2
BLOCK_RECORD
  5
1
100
AcDbSymbolTable
 70
    54
  0
BLOCK_RECORD
  5
A
100
AcDbSymbolTableRecord
100
AcDbBlockTableRecord
  2
*MODEL_SPACE
340
20
  0
BLOCK_RECORD
  5
B
100
AcDbSymbolTableRecord
100
AcDbBlockTableRecord
  2
*PAPER_SPACE
340
21
  0
BLOCK_RECORD
  5
29
100
AcDbSymbolTableRecord
100
AcDbBlockTableRecord
  2
*B0
340
0
  0
BLOCK_RECORD
  5
35
100
AcDbSymbolTableRecord
100
AcDbBlockTableRecord
  2
*B1
340
0
  0
BLOCK_RECORD
  5
38
100
AcDbSymbolTableRecord
100
AcDbBlockTableRecord
  2
*B2
340
0
  0
BLOCK_RECORD
  5
48
100
AcDbSymbolTableRecord
100
AcDbBlockTableRecord
  2
*B3
340
0
  0
BLOCK_RECORD
  5
E3
100
AcDbSymbolTableRecord
100
AcDbBlockTableRecord
  2
*B4
340
0
  0
BLOCK_RECORD
  5
180
100
AcDbSymbolTableRecord
100
AcDbBlockTableRecord
  2
*B5
340
0
  0
BLOCK_RECORD
  5
187
100
AcDbSymbolTableRecord
100
AcDbBlockTableRecord
  2
*B6
340
0
  0
BLOCK_RECORD
  5
18E
100
AcDbSymbolTableRecord
100
AcDbBlockTableRecord
  2
*B7
340
0
  0
BLOCK_RECORD
  5
195
100
AcDbSymbolTableRecord
100
AcDbBlockTableRecord
  2
*B8
340
0
  0
BLOCK_RECORD
  5
19C
100
AcDbSymbolTableRecord
100
AcDbBlockTableRecord
  2
*B9
340
0
  0
BLOCK_RECORD
  5
1A3
100
AcDbSymbolTableRecord
100
AcDbBlockTableRecord
  2
*B10
340
0
  0
BLOCK_RECORD
  5
1AA
100
AcDbSymbolTableRecord
100
AcDbBlockTableRecord
  2
*B11
340
0
  0
BLOCK_RECORD
  5
1B1
100
AcDbSymbolTableRecord
100
AcDbBlockTableRecord
  2
*B12
340
0
  0
BLOCK_RECORD
  5
1B8
100
AcDbSymbolTableRecord
100
AcDbBlockTableRecord
  2
*B13
340
0
  0
BLOCK_RECORD
  5
1BF
100
AcDbSymbolTableRecord
100
AcDbBlockTableRecord
  2
*B14
340
0
  0
BLOCK_RECORD
  5
1C6
100
AcDbSymbolTableRecord
100
AcDbBlockTableRecord
  2
*B15
340
0
  0
BLOCK_RECORD
  5
1CB
100
AcDbSymbolTableRecord
100
AcDbBlockTableRecord
  2
*B16
340
0
  0
BLOCK_RECORD
  5
1D0
100
AcDbSymbolTableRecord
100
AcDbBlockTableRecord
  2
*B17
340
0
  0
BLOCK_RECORD
  5
1D5
100
AcDbSymbolTableRecord
100
AcDbBlockTableRecord
  2
*B18
340
0
  0
BLOCK_RECORD
  5
1DA
100
AcDbSymbolTableRecord
100
AcDbBlockTableRecord
  2
*B19
340
0
  0
BLOCK_RECORD
  5
1E1
100
AcDbSymbolTableRecord
100
AcDbBlockTableRecord
  2
*B20
340
0
  0
BLOCK_RECORD
  5
1E6
100
AcDbSymbolTableRecord
100
AcDbBlockTableRecord
  2
*B21
340
0
  0
BLOCK_RECORD
  5
1F5
100
AcDbSymbolTableRecord
100
AcDbBlockTableRecord
  2
*B22
340
0
  0
BLOCK_RECORD
  5
1FA
100
AcDbSymbolTableRecord
100
AcDbBlockTableRecord
  2
*B23
340
0
  0
BLOCK_RECORD
  5
1FF
100
AcDbSymbolTableRecord
100
AcDbBlockTableRecord
  2
*B24
340
0
  0
BLOCK_RECORD
  5
204
100
AcDbSymbolTableRecord
100
AcDbBlockTableRecord
  2
*B25
340
0
  0
BLOCK_RECORD
  5
209
100
AcDbSymbolTableRecord
100
AcDbBlockTableRecord
  2
*B26
340
0
  0
BLOCK_RECORD
  5
20E
100
AcDbSymbolTableRecord
100
AcDbBlockTableRecord
  2
*B27
340
0
  0
BLOCK_RECORD
  5
213
100
AcDbSymbolTableRecord
100
AcDbBlockTableRecord
  2
*B28
340
0
  0
BLOCK_RECORD
  5
21D
100
AcDbSymbolTableRecord
100
AcDbBlockTableRecord
  2
*B29
340
0
  0
BLOCK_RECORD
  5
222
100
AcDbSymbolTableRecord
100
AcDbBlockTableRecord
  2
*B30
340
0
  0
BLOCK_RECORD
  5
228
100
AcDbSymbolTableRecord
100
AcDbBlockTableRecord
  2
*B31
340
0
  0
BLOCK_RECORD
  5
234
100
AcDbSymbolTableRecord
100
AcDbBlockTableRecord
  2
*B32
340
0
  0
BLOCK_RECORD
  5
23B
100
AcDbSymbolTableRecord
100
AcDbBlockTableRecord
  2
*B33
340
0
  0
BLOCK_RECORD
  5
240
100
AcDbSymbolTableRecord
100
AcDbBlockTableRecord
  2
*B34
340
0
  0
BLOCK_RECORD
  5
247
100
AcDbSymbolTableRecord
100
AcDbBlockTableRecord
  2
*B35
340
0
  0
BLOCK_RECORD
  5
24D
100
AcDbSymbolTableRecord
100
AcDbBlockTableRecord
  2
*B36
340
0
  0
BLOCK_RECORD
  5
253
100
AcDbSymbolTableRecord
100
AcDbBlockTableRecord
  2
*B37
340
0
  0
BLOCK_RECORD
  5
259
100
AcDbSymbolTableRecord
100
AcDbBlockTableRecord
  2
*B38
340
0
  0
BLOCK_RECORD
  5
26D
100
AcDbSymbolTableRecord
100
AcDbBlockTableRecord
  2
*B39
340
0
  0
BLOCK_RECORD
  5
281
100
AcDbSymbolTableRecord
100
AcDbBlockTableRecord
  2
*B40
340
0
  0
BLOCK_RECORD
  5
288
100
AcDbSymbolTableRecord
100
AcDbBlockTableRecord
  2
*B41
340
0
  0
BLOCK_RECORD
  5
28D
100
AcDbSymbolTableRecord
100
AcDbBlockTableRecord
  2
*B42
340
0
  0
BLOCK_RECORD
  5
292
100
AcDbSymbolTableRecord
100
AcDbBlockTableRecord
  2
*B43
340
0
  0
BLOCK_RECORD
  5
297
100
AcDbSymbolTableRecord
100
AcDbBlockTableRecord
  2
*B44
340
0
  0
BLOCK_RECORD
  5
29C
100
AcDbSymbolTableRecord
100
AcDbBlockTableRecord
  2
*B45
340
0
  0
BLOCK_RECORD
  5
2A1
100
AcDbSymbolTableRecord
100
AcDbBlockTableRecord
  2
*B46
340
0
  0
BLOCK_RECORD
  5
2A6
100
AcDbSymbolTableRecord
100
AcDbBlockTableRecord
  2
*B47
340
0
  0
BLOCK_RECORD
  5
2AB
100
AcDbSymbolTableRecord
100
AcDbBlockTableRecord
  2
*B48
340
0
  0
BLOCK_RECORD
  5
2B0
100
AcDbSymbolTableRecord
100
AcDbBlockTableRecord
  2
*B49
340
0
  0
BLOCK_RECORD
  5
2B5
100
AcDbSymbolTableRecord
100
AcDbBlockTableRecord
  2
*B50
340
0
  0
BLOCK_RECORD
  5
2BA
100
AcDbSymbolTableRecord
100
AcDbBlockTableRecord
  2
*B51
340
0
  0
BLOCK_RECORD
  5
2BF
100
AcDbSymbolTableRecord
100
AcDbBlockTableRecord
  2
*B52
340
0
  0
BLOCK_RECORD
  5
2C4
100
AcDbSymbolTableRecord
100
AcDbBlockTableRecord
  2
*B53
340
0
  0
ENDTAB
  0
ENDSEC
  0
SECTION
  2
BLOCKS
  0
BLOCK
  5
D
100
AcDbEntity
  8
0
100
AcDbBlockBegin
  2
*MODEL_SPACE
 70
     0
 10
0.0
 20
0.0
 30
0.0
  3
*MODEL_SPACE
  1

  0
ENDBLK
  5
E
100
AcDbEntity
  8
0
100
AcDbBlockEnd
  0
BLOCK
  5
F
100
AcDbEntity
 67
     1
  8
0
100
AcDbBlockBegin
  2
*PAPER_SPACE
 70
     0
 10
0.0
 20
0.0
 30
0.0
  3
*PAPER_SPACE
  1

  0
ENDBLK
  5
10
100
AcDbEntity
 67
     1
  8
0
100
AcDbBlockEnd
  0
BLOCK
  5
2A
100
AcDbEntity
  8
0
100
AcDbBlockBegin
  2
*B0
 70
     0
 10
0.0
 20
0.0
 30
0.0
  3
*B0
  1

  0
LINE
  5
2B
100
AcDbEntity
  8
0
  6
Continuous
 62
   172
100
AcDbLine
 10
111.05
 20
164.7
 30
0.0
 11
111.05
 21
153.92
 31
0.0
  0
LINE
  5
2C
100
AcDbEntity
  8
0
  6
Continuous
 62
   172
100
AcDbLine
 10
111.05
 20
153.92
 30
0.0
 11
131.42
 21
153.92
 31
0.0
  0
LINE
  5
2D
100
AcDbEntity
  8
0
  6
Continuous
 62
   172
100
AcDbLine
 10
131.42
 20
153.92
 30
0.0
 11
131.42
 21
164.7
 31
0.0
  0
LINE
  5
2E
100
AcDbEntity
  8
0
  6
Continuous
 62
   172
100
AcDbLine
 10
131.42
 20
164.7
 30
0.0
 11
111.05
 21
164.7
 31
0.0
  0
LINE
  5
2F
100
AcDbEntity
  8
0
  6
Continuous
 62
   172
100
AcDbLine
 10
189.6
 20
164.7
 30
0.0
 11
189.6
 21
153.92
 31
0.0
  0
LINE
  5
30
100
AcDbEntity
  8
0
  6
Continuous
 62
   172
100
AcDbLine
 10
189.6
 20
153.92
 30
0.0
 11
209.97
 21
153.92
 31
0.0
  0
LINE
  5
31
100
AcDbEntity
  8
0
  6
Continuous
 62
   172
100
AcDbLine
 10
209.97
 20
153.92
 30
0.0
 11
209.97
 21
164.7
 31
0.0
  0
LINE
  5
32
100
AcDbEntity
  8
0
  6
Continuous
 62
   172
100
AcDbLine
 10
209.97
 20
164.7
 30
0.0
 11
189.6
 21
164.7
 31
0.0
  0
ENDBLK
  5
33
100
AcDbEntity
  8
0
100
AcDbBlockEnd
  0
BLOCK
  5
36
100
AcDbEntity
  8
0
100
AcDbBlockBegin
  2
*B1
 70
     0
 10
0.0
 20
0.0
 30
0.0
  3
*B1
  1

  0
ENDBLK
  5
37
100
AcDbEntity
  8
0
100
AcDbBlockEnd
  0
BLOCK
  5
39
100
AcDbEntity
  8
0
100
AcDbBlockBegin
  2
*B2
 70
     0
 10
0.0
 20
0.0
 30
0.0
  3
*B2
  1

  0
LINE
  5
3A
100
AcDbEntity
  8
0
  6
Continuous
 62
   112
100
AcDbLine
 10
110.2
 20
140.3
 30
0.0
 11
110.2
 21
137.3
 31
0.0
  0
LINE
  5
3B
100
AcDbEntity
  8
0
  6
Continuous
 62
   112
100
AcDbLine
 10
110.2
 20
127.3
 30
0.0
 11
110.2
 21
124.3
 31
0.0
  0
LINE
  5
3C
100
AcDbEntity
  8
0
  6
Continuous
 62
   112
100
AcDbLine
 10
116.0
 20
149.3
 30
0.0
 11
116.0
 21
146.3
 31
0.0
  0
LINE
  5
3D
100
AcDbEntity
  8
0
  6
Continuous
 62
   112
100
AcDbLine
 10
126.4
 20
149.3
 30
0.0
 11
126.4
 21
146.25
 31
0.0
  0
LINE
  5
3E
100
AcDbEntity
  8
0
  6
Continuous
 62
   112
100
AcDbLine
 10
132.2
 20
127.3
 30
0.0
 11
132.2
 21
124.3
 31
0.0
  0
LINE
  5
3F
100
AcDbEntity
  8
0
  6
Continuous
 62
   112
100
AcDbLine
 10
132.2
 20
140.3
 30
0.0
 11
132.2
 21
137.3
 31
0.0
  0
LINE
  5
40
100
AcDbEntity
  8
0
  6
Continuous
 62
   112
100
AcDbLine
 10
188.74
 20
140.2875
 30
0.0
 11
188.74
 21
137.3125
 31
0.0
  0
LINE
  5
41
100
AcDbEntity
  8
0
  6
Continuous
 62
   112
100
AcDbLine
 10
188.74
 20
127.3
 30
0.0
 11
188.74
 21
124.3
 31
0.0
  0
LINE
  5
42
100
AcDbEntity
  8
0
  6
Continuous
 62
   112
100
AcDbLine
 10
194.54
 20
149.3
 30
0.0
 11
194.54
 21
146.2
 31
0.0
  0
LINE
  5
43
100
AcDbEntity
  8
0
  6
Continuous
 62
   112
100
AcDbLine
 10
204.94
 20
149.3
 30
0.0
 11
204.94
 21
146.2
 31
0.0
  0
LINE
  5
44
100
AcDbEntity
  8
0
  6
Continuous
 62
   112
100
AcDbLine
 10
210.74
 20
127.3
 30
0.0
 11
210.74
 21
124.3
 31
0.0
  0
LINE
  5
45
100
AcDbEntity
  8
0
  6
Continuous
 62
   112
100
AcDbLine
 10
210.74
 20
140.2875
 30
0.0
 11
210.74
 21
137.3125
 31
0.0
  0
ENDBLK
  5
46
100
AcDbEntity
  8
0
100
AcDbBlockEnd
  0
BLOCK
  5
49
100
AcDbEntity
  8
0
100
AcDbBlockBegin
  2
*B3
 70
     0
 10
0.0
 20
0.0
 30
0.0
  3
*B3
  1

  0
LINE
  5
4A
100
AcDbEntity
  8
0
  6
Continuous
 62
   174
100
AcDbLine
 10
110.227273
 20
140.311005
 30
0.0
 11
109.227273
 21
139.311005
 31
0.0
  0
LINE
  5
4B
100
AcDbEntity
  8
0
  6
Continuous
 62
   174
100
AcDbLine
 10
132.227273
 20
140.311005
 30
0.0
 11
133.227273
 21
139.311005
 31
0.0
  0
LINE
  5
4C
100
AcDbEntity
  8
0
  6
Continuous
 62
   174
100
AcDbLine
 10
133.227273
 20
124.311005
 30
0.0
 11
133.227273
 21
127.311005
 31
0.0
  0
LINE
  5
4D
100
AcDbEntity
  8
0
  6
Continuous
 62
   174
100
AcDbLine
 10
109.227273
 20
137.311005
 30
0.0
 11
109.227273
 21
139.311005
 31
0.0
  0
LINE
  5
4E
100
AcDbEntity
  8
0
  6
Continuous
 62
   174
100
AcDbLine
 10
109.227273
 20
124.311005
 30
0.0
 11
109.227273
 21
127.311005
 31
0.0
  0
LINE
  5
4F
100
AcDbEntity
  8
0
  6
Continuous
 62
   174
100
AcDbLine
 10
133.227273
 20
137.311005
 30
0.0
 11
133.227273
 21
139.311005
 31
0.0
  0
LINE
  5
50
100
AcDbEntity
  8
0
  6
Continuous
 62
   174
100
AcDbLine
 10
116.443178
 20
140.311005
 30
0.0
 11
121.245392
 21
140.311005
 31
0.0
  0
LINE
  5
51
100
AcDbEntity
  8
0
  6
Continuous
 62
   174
100
AcDbLine
 10
121.245392
 20
140.311005
 30
0.0
 11
126.047606
 21
140.311005
 31
0.0
  0
LINE
  5
52
100
AcDbEntity
  8
0
  6
Continuous
 62
   174
100
AcDbLine
 10
126.047606
 20
140.311005
 30
0.0
 11
128.122632
 21
140.311005
 31
0.0
  0
LINE
  5
53
100
AcDbEntity
  8
0
  6
Continuous
 62
   174
100
AcDbLine
 10
128.122632
 20
140.311005
 30
0.0
 11
129.851395
 21
140.311005
 31
0.0
  0
LINE
  5
54
100
AcDbEntity
  8
0
  6
Continuous
 62
   174
100
AcDbLine
 10
129.851395
 20
140.311005
 30
0.0
 11
131.159332
 21
140.311005
 31
0.0
  0
LINE
  5
55
100
AcDbEntity
  8
0
  6
Continuous
 62
   174
100
AcDbLine
 10
131.159332
 20
140.311005
 30
0.0
 11
131.970606
 21
140.311005
 31
0.0
  0
LINE
  5
56
100
AcDbEntity
  8
0
  6
Continuous
 62
   174
100
AcDbLine
 10
131.970606
 20
140.311005
 30
0.0
 11
132.245492
 21
140.311005
 31
0.0
  0
LINE
  5
57
100
AcDbEntity
  8
0
  6
Continuous
 62
   174
100
AcDbLine
 10
115.996648
 20
139.311005
 30
0.0
 11
116.463571
 21
139.311005
 31
0.0
  0
ARC
  5
58
100
AcDbEntity
  8
0
  6
Continuous
 62
   174
100
AcDbCircle
 10
97.227273
 20
116.311005
 30
0.0
 40
4.5
100
AcDbArc
 50
0.0
 51
180.0
  0
ARC
  5
59
100
AcDbEntity
  8
0
  6
Continuous
 62
   174
100
AcDbCircle
 10
145.227273
 20
116.311005
 30
0.0
 40
4.5
100
AcDbArc
 50
0.0
 51
180.0
  0
LINE
  5
5A
100
AcDbEntity
  8
0
  6
Continuous
 62
   174
100
AcDbLine
 10
89.227273
 20
124.311005
 30
0.0
 11
89.227273
 21
80.311005
 31
0.0
  0
LINE
  5
5B
100
AcDbEntity
  8
0
  6
Continuous
 62
   174
100
AcDbLine
 10
153.227273
 20
124.311005
 30
0.0
 11
153.227273
 21
80.311005
 31
0.0
  0
LINE
  5
5C
100
AcDbEntity
  8
0
  6
Continuous
 62
   174
100
AcDbLine
 10
129.245329
 20
149.911005
 30
0.0
 11
128.660507
 21
149.911005
 31
0.0
  0
LINE
  5
5D
100
AcDbEntity
  8
0
  6
Continuous
 62
   174
100
AcDbLine
 10
126.513042
 20
149.911005
 30
0.0
 11
124.321604
 21
149.911005
 31
0.0
  0
LINE
  5
5E
100
AcDbEntity
  8
0
  6
Continuous
 62
   174
100
AcDbLine
 10
121.245392
 20
153.911005
 30
0.0
 11
130.13499
 21
153.911005
 31
0.0
  0
LINE
  5
5F
100
AcDbEntity
  8
0
  6
Continuous
 62
   174
100
AcDbLine
 10
130.072535
 20
153.311005
 30
0.0
 11
130.757838
 21
153.311005
 31
0.0
  0
LINE
  5
60
100
AcDbEntity
  8
0
  6
Continuous
 62
   174
100
AcDbLine
 10
140.857182
 20
135.792627
 30
0.0
 11
140.857182
 21
128.829384
 31
0.0
  0
LINE
  5
61
100
AcDbEntity
  8
0
  6
Continuous
 62
   174
100
AcDbLine
 10
135.967919
 20
127.311005
 30
0.0
 11
121.245392
 21
127.311005
 31
0.0
  0
LINE
  5
62
100
AcDbEntity
  8
0
  6
Continuous
 62
   174
100
AcDbLine
 10
116.965333
 20
146.311005
 30
0.0
 11
113.451088
 21
146.311005
 31
0.0
  0
LINE
  5
63
100
AcDbEntity
  8
0
  6
Continuous
 62
   174
100
AcDbLine
 10
110.245505
 20
140.311005
 30
0.0
 11
110.520178
 21
140.311005
 31
0.0
  0
LINE
  5
64
100
AcDbEntity
  8
0
  6
Continuous
 62
   174
100
AcDbLine
 10
110.425858
 20
139.311005
 30
0.0
 11
111.842985
 21
139.311005
 31
0.0
  0
LINE
  5
65
100
AcDbEntity
  8
0
  6
Continuous
 62
   174
100
AcDbLine
 10
115.72941
 20
139.311005
 30
0.0
 11
115.996648
 21
139.311005
 31
0.0
  0
LINE
  5
66
100
AcDbEntity
  8
0
  6
Continuous
 62
   174
100
AcDbLine
 10
116.463571
 20
139.311005
 30
0.0
 11
121.245392
 21
139.311005
 31
0.0
  0
LINE
  5
67
100
AcDbEntity
  8
0
  6
Continuous
 62
   174
100
AcDbLine
 10
135.227273
 20
124.311005
 30
0.0
 11
153.227273
 21
124.311005
 31
0.0
  0
LINE
  5
68
100
AcDbEntity
  8
0
  6
Continuous
 62
   174
100
AcDbLine
 10
113.827273
 20
149.311005
 30
0.0
 11
113.227273
 21
149.911005
 31
0.0
  0
LINE
  5
69
100
AcDbEntity
  8
0
  6
Continuous
 62
   174
100
AcDbLine
 10
131.427273
 20
153.911005
 30
0.0
 11
131.427273
 21
164.711005
 31
0.0
  0
LINE
  5
6A
100
AcDbEntity
  8
0
  6
Continuous
 62
   174
100
AcDbLine
 10
128.645424
 20
149.311005
 30
0.0
 11
128.147061
 21
149.311005
 31
0.0
  0
LINE
  5
6B
100
AcDbEntity
  8
0
  6
Continuous
 62
   174
100
AcDbLine
 10
128.147061
 20
149.311005
 30
0.0
 11
127.659532
 21
149.311005
 31
0.0
  0
LINE
  5
6C
100
AcDbEntity
  8
0
  6
Continuous
 62
   174
100
AcDbLine
 10
126.022752
 20
149.311005
 30
0.0
 11
124.748378
 21
149.311005
 31
0.0
  0
LINE
  5
6D
100
AcDbEntity
  8
0
  6
Continuous
 62
   174
100
AcDbLine
 10
124.748378
 20
149.311005
 30
0.0
 11
123.141763
 21
149.311005
 31
0.0
  0
LINE
  5
6E
100
AcDbEntity
  8
0
  6
Continuous
 62
   174
100
AcDbLine
 10
115.548631
 20
149.311005
 30
0.0
 11
114.855681
 21
149.311005
 31
0.0
  0
LINE
  5
6F
100
AcDbEntity
  8
0
  6
Continuous
 62
   174
100
AcDbLine
 10
114.362417
 20
149.311005
 30
0.0
 11
114.03676
 21
149.311005
 31
0.0
  0
LINE
  5
70
100
AcDbEntity
  8
0
  6
Continuous
 62
   174
100
AcDbLine
 10
130.13499
 20
164.711005
 30
0.0
 11
131.445477
 21
164.711005
 31
0.0
  0
LINE
  5
71
100
AcDbEntity
  8
0
  6
Continuous
 62
   174
100
AcDbLine
 10
101.597364
 20
135.792627
 30
0.0
 11
101.597364
 21
128.829384
 31
0.0
  0
LINE
  5
72
100
AcDbEntity
  8
0
  6
Continuous
 62
   174
100
AcDbLine
 10
131.619578
 20
145.507158
 30
0.0
 11
131.619578
 21
141.114853
 31
0.0
  0
LINE
  5
73
100
AcDbEntity
  8
0
  6
Continuous
 62
   174
100
AcDbLine
 10
129.039696
 20
146.311005
 30
0.0
 11
126.724199
 21
146.311005
 31
0.0
  0
LINE
  5
74
100
AcDbEntity
  8
0
  6
Continuous
 62
   174
100
AcDbLine
 10
130.647798
 20
139.311005
 30
0.0
 11
132.064925
 21
139.311005
 31
0.0
  0
LINE
  5
75
100
AcDbEntity
  8
0
  6
Continuous
 62
   174
100
AcDbLine
 10
124.321604
 20
149.911005
 30
0.0
 11
121.245392
 21
149.911005
 31
0.0
  0
LINE
  5
76
100
AcDbEntity
  8
0
  6
Continuous
 62
   174
100
AcDbLine
 10
118.169179
 20
149.911005
 30
0.0
 11
115.977741
 21
149.911005
 31
0.0
  0
LINE
  5
77
100
AcDbEntity
  8
0
  6
Continuous
 62
   174
100
AcDbLine
 10
114.03676
 20
149.311005
 30
0.0
 11
113.84536
 21
149.311005
 31
0.0
  0
LINE
  5
78
100
AcDbEntity
  8
0
  6
Continuous
 62
   174
100
AcDbLine
 10
121.245392
 20
164.711005
 30
0.0
 11
130.13499
 21
164.711005
 31
0.0
  0
LINE
  5
79
100
AcDbEntity
  8
0
  6
Continuous
 62
   174
100
AcDbLine
 10
110.834968
 20
145.507158
 30
0.0
 11
110.834968
 21
141.114853
 31
0.0
  0
LINE
  5
7A
100
AcDbEntity
  8
0
  6
Continuous
 62
   174
100
AcDbLine
 10
135.967919
 20
137.311005
 30
0.0
 11
121.245392
 21
137.311005
 31
0.0
  0
LINE
  5
7B
100
AcDbEntity
  8
0
  6
Continuous
 62
   174
100
AcDbLine
 10
121.245392
 20
127.311005
 30
0.0
 11
106.523077
 21
127.311005
 31
0.0
  0
LINE
  5
7C
100
AcDbEntity
  8
0
  6
Continuous
 62
   174
100
AcDbLine
 10
110.520178
 20
140.311005
 30
0.0
 11
112.639389
 21
140.311005
 31
0.0
  0
LINE
  5
7D
100
AcDbEntity
  8
0
  6
Continuous
 62
   174
100
AcDbLine
 10
112.639389
 20
140.311005
 30
0.0
 11
114.368365
 21
140.311005
 31
0.0
  0
ARC
  5
7E
100
AcDbEntity
  8
0
  6
Continuous
 62
   174
100
AcDbCircle
 10
97.227273
 20
116.311005
 30
0.0
 40
4.5
100
AcDbArc
 50
180.0
 51
360.0
  0
ARC
  5
7F
100
AcDbEntity
  8
0
  6
Continuous
 62
   174
100
AcDbCircle
 10
145.227273
 20
116.311005
 30
0.0
 40
4.5
100
AcDbArc
 50
-180.0
 51
0.0
  0
LINE
  5
80
100
AcDbEntity
  8
0
  6
Continuous
 62
   174
100
AcDbLine
 10
121.227273
 20
124.311005
 30
0.0
 11
135.227273
 21
124.311005
 31
0.0
  0
LINE
  5
81
100
AcDbEntity
  8
0
  6
Continuous
 62
   174
100
AcDbLine
 10
115.513155
 20
149.911005
 30
0.0
 11
113.245455
 21
149.911005
 31
0.0
  0
LINE
  5
82
100
AcDbEntity
  8
0
  6
Continuous
 62
   174
100
AcDbLine
 10
126.977629
 20
149.911005
 30
0.0
 11
126.513042
 21
149.911005
 31
0.0
  0
LINE
  5
83
100
AcDbEntity
  8
0
  6
Continuous
 62
   174
100
AcDbLine
 10
121.245392
 20
149.911005
 30
0.0
 11
118.169179
 21
149.911005
 31
0.0
  0
LINE
  5
84
100
AcDbEntity
  8
0
  6
Continuous
 62
   174
100
AcDbLine
 10
113.671803
 20
153.311005
 30
0.0
 11
121.245392
 21
153.311005
 31
0.0
  0
LINE
  5
85
100
AcDbEntity
  8
0
  6
Continuous
 62
   174
100
AcDbLine
 10
121.245392
 20
153.311005
 30
0.0
 11
128.81898
 21
153.311005
 31
0.0
  0
LINE
  5
86
100
AcDbEntity
  8
0
  6
Continuous
 62
   174
100
AcDbLine
 10
111.842985
 20
139.311005
 30
0.0
 11
113.727248
 21
139.311005
 31
0.0
  0
LINE
  5
87
100
AcDbEntity
  8
0
  6
Continuous
 62
   174
100
AcDbLine
 10
126.494136
 20
139.311005
 30
0.0
 11
126.761374
 21
139.311005
 31
0.0
  0
LINE
  5
88
100
AcDbEntity
  8
0
  6
Continuous
 62
   174
100
AcDbLine
 10
128.627273
 20
149.311005
 30
0.0
 11
129.227273
 21
149.911005
 31
0.0
  0
LINE
  5
89
100
AcDbEntity
  8
0
  6
Continuous
 62
   174
100
AcDbLine
 10
111.627273
 20
153.311005
 30
0.0
 11
111.027273
 21
153.911005
 31
0.0
  0
LINE
  5
8A
100
AcDbEntity
  8
0
  6
Continuous
 62
   174
100
AcDbLine
 10
130.827273
 20
153.311005
 30
0.0
 11
131.427273
 21
153.911005
 31
0.0
  0
LINE
  5
8B
100
AcDbEntity
  8
0
  6
Continuous
 62
   174
100
AcDbLine
 10
130.827273
 20
165.311005
 30
0.0
 11
131.427273
 21
164.711005
 31
0.0
  0
LINE
  5
8C
100
AcDbEntity
  8
0
  6
Continuous
 62
   174
100
AcDbLine
 10
128.81898
 20
153.311005
 30
0.0
 11
130.072535
 21
153.311005
 31
0.0
  0
LINE
  5
8D
100
AcDbEntity
  8
0
  6
Continuous
 62
   174
100
AcDbLine
 10
130.757838
 20
153.311005
 30
0.0
 11
130.845359
 21
153.311005
 31
0.0
  0
LINE
  5
8E
100
AcDbEntity
  8
0
  6
Continuous
 62
   174
100
AcDbLine
 10
111.645425
 20
153.311005
 30
0.0
 11
112.418248
 21
153.311005
 31
0.0
  0
LINE
  5
8F
100
AcDbEntity
  8
0
  6
Continuous
 62
   174
100
AcDbLine
 10
130.757838
 20
165.311005
 30
0.0
 11
130.845359
 21
165.311005
 31
0.0
  0
LINE
  5
90
100
AcDbEntity
  8
0
  6
Continuous
 62
   174
100
AcDbLine
 10
131.042227
 20
135.792627
 30
0.0
 11
131.042227
 21
128.829384
 31
0.0
  0
LINE
  5
91
100
AcDbEntity
  8
0
  6
Continuous
 62
   174
100
AcDbLine
 10
121.245392
 20
137.311005
 30
0.0
 11
106.523077
 21
137.311005
 31
0.0
  0
LINE
  5
92
100
AcDbEntity
  8
0
  6
Continuous
 62
   174
100
AcDbLine
 10
114.368365
 20
140.311005
 30
0.0
 11
116.443178
 21
140.311005
 31
0.0
  0
LINE
  5
93
100
AcDbEntity
  8
0
  6
Continuous
 62
   174
100
AcDbLine
 10
109.24538
 20
139.311005
 30
0.0
 11
110.425858
 21
139.311005
 31
0.0
  0
LINE
  5
94
100
AcDbEntity
  8
0
  6
Continuous
 62
   174
100
AcDbLine
 10
113.727248
 20
139.311005
 30
0.0
 11
115.72941
 21
139.311005
 31
0.0
  0
LINE
  5
95
100
AcDbEntity
  8
0
  6
Continuous
 62
   174
100
AcDbLine
 10
107.227273
 20
124.311005
 30
0.0
 11
121.227273
 21
124.311005
 31
0.0
  0
LINE
  5
96
100
AcDbEntity
  8
0
  6
Continuous
 62
   174
100
AcDbLine
 10
111.627273
 20
165.311005
 30
0.0
 11
111.027273
 21
164.711005
 31
0.0
  0
LINE
  5
97
100
AcDbEntity
  8
0
  6
Continuous
 62
   174
100
AcDbLine
 10
111.027273
 20
153.911005
 30
0.0
 11
111.027273
 21
164.711005
 31
0.0
  0
LINE
  5
98
100
AcDbEntity
  8
0
  6
Continuous
 62
   174
100
AcDbLine
 10
113.227273
 20
149.911005
 30
0.0
 11
113.227273
 21
153.311005
 31
0.0
  0
LINE
  5
99
100
AcDbEntity
  8
0
  6
Continuous
 62
   174
100
AcDbLine
 10
123.141763
 20
149.311005
 30
0.0
 11
121.245392
 21
149.311005
 31
0.0
  0
LINE
  5
9A
100
AcDbEntity
  8
0
  6
Continuous
 62
   174
100
AcDbLine
 10
121.245392
 20
149.311005
 30
0.0
 11
119.349233
 21
149.311005
 31
0.0
  0
LINE
  5
9B
100
AcDbEntity
  8
0
  6
Continuous
 62
   174
100
AcDbLine
 10
117.751752
 20
149.311005
 30
0.0
 11
116.48885
 21
149.311005
 31
0.0
  0
LINE
  5
9C
100
AcDbEntity
  8
0
  6
Continuous
 62
   174
100
AcDbLine
 10
114.855681
 20
149.311005
 30
0.0
 11
114.362417
 21
149.311005
 31
0.0
  0
LINE
  5
9D
100
AcDbEntity
  8
0
  6
Continuous
 62
   174
100
AcDbLine
 10
112.355794
 20
153.911005
 30
0.0
 11
121.245392
 21
153.911005
 31
0.0
  0
LINE
  5
9E
100
AcDbEntity
  8
0
  6
Continuous
 62
   174
100
AcDbLine
 10
111.045307
 20
153.911005
 30
0.0
 11
112.355794
 21
153.911005
 31
0.0
  0
LINE
  5
9F
100
AcDbEntity
  8
0
  6
Continuous
 62
   174
100
AcDbLine
 10
112.418248
 20
165.311005
 30
0.0
 11
121.245392
 21
165.311005
 31
0.0
  0
LINE
  5
A0
100
AcDbEntity
  8
0
  6
Continuous
 62
   174
100
AcDbLine
 10
126.423425
 20
145.507158
 30
0.0
 11
126.423425
 21
141.114853
 31
0.0
  0
LINE
  5
A1
100
AcDbEntity
  8
0
  6
Continuous
 62
   174
100
AcDbLine
 10
121.245392
 20
139.311005
 30
0.0
 11
126.494136
 21
139.311005
 31
0.0
  0
LINE
  5
A2
100
AcDbEntity
  8
0
  6
Continuous
 62
   174
100
AcDbLine
 10
128.763748
 20
139.311005
 30
0.0
 11
130.647798
 21
139.311005
 31
0.0
  0
LINE
  5
A3
100
AcDbEntity
  8
0
  6
Continuous
 62
   174
100
AcDbLine
 10
89.227273
 20
124.311005
 30
0.0
 11
107.227273
 21
124.311005
 31
0.0
  0
LINE
  5
A4
100
AcDbEntity
  8
0
  6
Continuous
 62
   174
100
AcDbLine
 10
127.659532
 20
149.311005
 30
0.0
 11
126.968069
 21
149.311005
 31
0.0
  0
LINE
  5
A5
100
AcDbEntity
  8
0
  6
Continuous
 62
   174
100
AcDbLine
 10
126.968069
 20
149.311005
 30
0.0
 11
126.022752
 21
149.311005
 31
0.0
  0
LINE
  5
A6
100
AcDbEntity
  8
0
  6
Continuous
 62
   174
100
AcDbLine
 10
119.349233
 20
149.311005
 30
0.0
 11
117.751752
 21
149.311005
 31
0.0
  0
LINE
  5
A7
100
AcDbEntity
  8
0
  6
Continuous
 62
   174
100
AcDbLine
 10
121.245392
 20
165.311005
 30
0.0
 11
130.072535
 21
165.311005
 31
0.0
  0
LINE
  5
A8
100
AcDbEntity
  8
0
  6
Continuous
 62
   174
100
AcDbLine
 10
111.412318
 20
135.792627
 30
0.0
 11
111.412318
 21
128.829384
 31
0.0
  0
LWPOLYLINE
  5
A9
100
AcDbEntity
  8
0
  6
Continuous
 62
   174
100
AcDbPolyline
 90
        9
 70
   128
 10
135.949705
 20
127.311005
 10
136.571868
 20
127.337263
 10
137.193172
 20
127.415473
 10
137.81232
 20
127.543892
 10
138.428395
 20
127.719808
 10
139.04057
 20
127.93977
 10
139.649143
 20
128.200308
 10
140.254431
 20
128.497909
 10
140.857182
 20
128.829384
  0
LINE
  5
AA
100
AcDbEntity
  8
0
  6
Continuous
 62
   174
100
AcDbLine
 10
132.064925
 20
139.311005
 30
0.0
 11
133.245404
 21
139.311005
 31
0.0
  0
LINE
  5
AB
100
AcDbEntity
  8
0
  6
Continuous
 62
   174
100
AcDbLine
 10
126.761374
 20
139.311005
 30
0.0
 11
128.763748
 21
139.311005
 31
0.0
  0
LINE
  5
AC
100
AcDbEntity
  8
0
  6
Continuous
 62
   174
100
AcDbLine
 10
89.227273
 20
80.311005
 30
0.0
 11
153.227273
 21
80.311005
 31
0.0
  0
LINE
  5
AD
100
AcDbEntity
  8
0
  6
Continuous
 62
   174
100
AcDbLine
 10
129.227273
 20
149.911005
 30
0.0
 11
129.227273
 21
153.311005
 31
0.0
  0
LINE
  5
AE
100
AcDbEntity
  8
0
  6
Continuous
 62
   174
100
AcDbLine
 10
128.660507
 20
149.911005
 30
0.0
 11
126.977629
 21
149.911005
 31
0.0
  0
LINE
  5
AF
100
AcDbEntity
  8
0
  6
Continuous
 62
   174
100
AcDbLine
 10
115.977741
 20
149.911005
 30
0.0
 11
115.513155
 21
149.911005
 31
0.0
  0
LINE
  5
B0
100
AcDbEntity
  8
0
  6
Continuous
 62
   174
100
AcDbLine
 10
116.48885
 20
149.311005
 30
0.0
 11
115.548631
 21
149.311005
 31
0.0
  0
LINE
  5
B1
100
AcDbEntity
  8
0
  6
Continuous
 62
   174
100
AcDbLine
 10
112.355794
 20
164.711005
 30
0.0
 11
121.245392
 21
164.711005
 31
0.0
  0
LINE
  5
B2
100
AcDbEntity
  8
0
  6
Continuous
 62
   174
100
AcDbLine
 10
111.045307
 20
164.711005
 30
0.0
 11
112.355794
 21
164.711005
 31
0.0
  0
LINE
  5
B3
100
AcDbEntity
  8
0
  6
Continuous
 62
   174
100
AcDbLine
 10
130.13499
 20
153.911005
 30
0.0
 11
131.445477
 21
153.911005
 31
0.0
  0
LINE
  5
B4
100
AcDbEntity
  8
0
  6
Continuous
 62
   174
100
AcDbLine
 10
112.418248
 20
153.311005
 30
0.0
 11
113.671803
 21
153.311005
 31
0.0
  0
LINE
  5
B5
100
AcDbEntity
  8
0
  6
Continuous
 62
   174
100
AcDbLine
 10
130.072535
 20
165.311005
 30
0.0
 11
130.757838
 21
165.311005
 31
0.0
  0
LINE
  5
B6
100
AcDbEntity
  8
0
  6
Continuous
 62
   174
100
AcDbLine
 10
111.645425
 20
165.311005
 30
0.0
 11
112.418248
 21
165.311005
 31
0.0
  0
LINE
  5
B7
100
AcDbEntity
  8
0
  6
Continuous
 62
   174
100
AcDbLine
 10
116.03112
 20
145.507158
 30
0.0
 11
116.03112
 21
141.114853
 31
0.0
  0
LWPOLYLINE
  5
B8
100
AcDbEntity
  8
0
  6
Continuous
 62
   174
100
AcDbPolyline
 90
        9
 70
   128
 10
140.857182
 20
135.792627
 10
140.253961
 20
136.124347
 10
139.647644
 20
136.422393
 10
139.03803
 20
136.683243
 10
138.425367
 20
136.903181
 10
137.809749
 20
137.078754
 10
137.19164
 20
137.206793
 10
136.571386
 20
137.284789
 10
135.949705
 20
137.311005
  0
LWPOLYLINE
  5
B9
100
AcDbEntity
  8
0
  6
Continuous
 62
   174
100
AcDbPolyline
 90
        7
 70
   128
 10
106.504841
 20
137.311005
 10
105.882677
 20
137.284748
 10
105.261374
 20
137.206537
 10
104.642225
 20
137.078119
 10
104.026151
 20
136.902203
 10
103.413975
 20
136.682241
 10
102.805403
 20
136.421703
  0
LWPOLYLINE
  5
BA
100
AcDbEntity
  8
0
  6
Continuous
 62
   174
100
AcDbPolyline
 90
        9
 70
   128
 10
111.412318
 20
135.792627
 10
112.618761
 20
136.124347
 10
113.831395
 20
136.422393
 10
115.050623
 20
136.683243
 10
116.275948
 20
136.903181
 10
117.507184
 20
137.078754
 10
118.743403
 20
137.206793
 10
119.98391
 20
137.284789
 10
121.227273
 20
137.311005
  0
LWPOLYLINE
  5
BB
100
AcDbEntity
  8
0
  6
Continuous
 62
   174
100
AcDbPolyline
 90
        9
 70
   128
 10
111.412318
 20
128.829384
 10
112.618761
 20
128.497664
 10
113.831395
 20
128.199617
 10
115.050623
 20
127.938768
 10
116.275948
 20
127.71883
 10
117.507184
 20
127.543257
 10
118.743403
 20
127.415218
 10
119.98391
 20
127.337222
 10
121.227273
 20
127.311005
  0
LWPOLYLINE
  5
BC
100
AcDbEntity
  8
0
  6
Continuous
 62
   174
100
AcDbPolyline
 90
        9
 70
   128
 10
116.03112
 20
145.507158
 10
115.687106
 20
145.695584
 10
115.352903
 20
145.857868
 10
115.026605
 20
145.994816
 10
114.705904
 20
146.107136
 10
114.388305
 20
146.195219
 10
114.07177
 20
146.258924
 10
113.754036
 20
146.297803
 10
113.433044
 20
146.311005
  0
LINE
  5
BD
100
AcDbEntity
  8
0
  6
Continuous
 62
   174
100
AcDbLine
 10
121.245392
 20
148.511005
 30
0.0
 11
117.06029
 21
148.511005
 31
0.0
  0
LINE
  5
BE
100
AcDbEntity
  8
0
  6
Continuous
 62
   174
100
AcDbLine
 10
125.430919
 20
148.511005
 30
0.0
 11
121.245392
 21
148.511005
 31
0.0
  0
LINE
  5
BF
100
AcDbEntity
  8
0
  6
Continuous
 62
   174
100
AcDbLine
 10
110.834968
 20
141.114853
 30
0.0
 11
111.178982
 21
140.926427
 31
0.0
  0
LWPOLYLINE
  5
C0
100
AcDbEntity
  8
0
  6
Continuous
 62
   174
100
AcDbPolyline
 90
        9
 70
   128
 10
121.227273
 20
137.311005
 10
122.4716
 20
137.284748
 10
123.714206
 20
137.206537
 10
124.952504
 20
137.078119
 10
126.184653
 20
136.902203
 10
127.409004
 20
136.682241
 10
128.62615
 20
136.421703
 10
129.836726
 20
136.124101
 10
131.042227
 20
135.792627
  0
LINE
  5
C1
100
AcDbEntity
  8
0
  6
Continuous
 62
   174
100
AcDbLine
 10
117.06029
 20
148.511005
 30
0.0
 11
115.96712
 21
148.511005
 31
0.0
  0
LWPOLYLINE
  5
C2
100
AcDbEntity
  8
0
  6
Continuous
 62
   174
100
AcDbPolyline
 90
        9
 70
   128
 10
129.021502
 20
146.311005
 10
129.342465
 20
146.297805
 10
129.660161
 20
146.258934
 10
129.976657
 20
146.195244
 10
130.294226
 20
146.107179
 10
130.614913
 20
145.994873
 10
130.941224
 20
145.85793
 10
131.275474
 20
145.69563
 10
131.619578
 20
145.507158
  0
LINE
  5
C3
100
AcDbEntity
  8
0
  6
Continuous
 62
   174
100
AcDbLine
 10
101.597364
 20
128.829384
 30
0.0
 11
102.806902
 21
128.199617
 31
0.0
  0
LWPOLYLINE
  5
C4
100
AcDbEntity
  8
0
  6
Continuous
 62
   174
100
AcDbPolyline
 90
        7
 70
   128
 10
102.806902
 20
128.199617
 10
103.416516
 20
127.938768
 10
104.029179
 20
127.71883
 10
104.644797
 20
127.543257
 10
105.262906
 20
127.415218
 10
105.883159
 20
127.337222
 10
106.504841
 20
127.311005
  0
LWPOLYLINE
  5
C5
100
AcDbEntity
  8
0
  6
Continuous
 62
   174
100
AcDbPolyline
 90
        9
 70
   128
 10
126.423425
 20
145.507158
 10
126.767439
 20
145.695584
 10
127.101643
 20
145.857868
 10
127.427941
 20
145.994816
 10
127.748642
 20
146.107136
 10
128.066241
 20
146.195219
 10
128.382775
 20
146.258924
 10
128.70051
 20
146.297803
 10
129.021502
 20
146.311005
  0
LWPOLYLINE
  5
C6
100
AcDbEntity
  8
0
  6
Continuous
 62
   174
100
AcDbPolyline
 90
        9
 70
   128
 10
126.423425
 20
145.507158
 10
125.735397
 20
145.695584
 10
125.06699
 20
145.857868
 10
124.414394
 20
145.994816
 10
123.772993
 20
146.107136
 10
123.137794
 20
146.195219
 10
122.504725
 20
146.258924
 10
121.869257
 20
146.297803
 10
121.227273
 20
146.311005
  0
LWPOLYLINE
  5
C7
100
AcDbEntity
  8
0
  6
Continuous
 62
   174
100
AcDbPolyline
 90
        9
 70
   128
 10
116.03112
 20
141.114853
 10
116.719149
 20
140.926427
 10
117.387556
 20
140.764143
 10
118.040152
 20
140.627195
 10
118.681553
 20
140.514874
 10
119.316752
 20
140.426792
 10
119.949821
 20
140.363087
 10
120.585289
 20
140.324208
 10
121.227273
 20
140.311005
  0
LWPOLYLINE
  5
C8
100
AcDbEntity
  8
0
  6
Continuous
 62
   174
100
AcDbPolyline
 90
        9
 70
   128
 10
106.504841
 20
127.311005
 10
107.127005
 20
127.337263
 10
107.748308
 20
127.415473
 10
108.367457
 20
127.543892
 10
108.983531
 20
127.719808
 10
109.595707
 20
127.93977
 10
110.204279
 20
128.200308
 10
110.809567
 20
128.497909
 10
111.412318
 20
128.829384
  0
LWPOLYLINE
  5
C9
100
AcDbEntity
  8
0
  6
Continuous
 62
   174
100
AcDbPolyline
 90
        9
 70
   128
 10
111.412318
 20
135.792627
 10
110.809097
 20
136.124347
 10
110.20278
 20
136.422393
 10
109.593166
 20
136.683243
 10
108.980504
 20
136.903181
 10
108.364885
 20
137.078754
 10
107.746776
 20
137.206793
 10
107.126523
 20
137.284789
 10
106.504841
 20
137.311005
  0
LWPOLYLINE
  5
CA
100
AcDbEntity
  8
0
  6
Continuous
 62
   174
100
AcDbPolyline
 90
        9
 70
   128
 10
126.423425
 20
141.114853
 10
126.767439
 20
140.926427
 10
127.101643
 20
140.764143
 10
127.427941
 20
140.627195
 10
127.748642
 20
140.514874
 10
128.066241
 20
140.426792
 10
128.382775
 20
140.363087
 10
128.70051
 20
140.324208
 10
129.021502
 20
140.311005
  0
LWPOLYLINE
  5
CB
100
AcDbEntity
  8
0
  6
Continuous
 62
   174
100
AcDbPolyline
 90
        9
 70
   128
 10
121.227273
 20
127.311005
 10
122.4716
 20
127.337263
 10
123.714206
 20
127.415473
 10
124.952504
 20
127.543892
 10
126.184653
 20
127.719808
 10
127.409004
 20
127.93977
 10
128.62615
 20
128.200308
 10
129.836726
 20
128.497909
 10
131.042227
 20
128.829384
  0
LWPOLYLINE
  5
CC
100
AcDbEntity
  8
0
  6
Continuous
 62
   174
100
AcDbPolyline
 90
        9
 70
   128
 10
121.227273
 20
140.311005
 10
121.8692
 20
140.324206
 10
122.504593
 20
140.363076
 10
123.137584
 20
140.426767
 10
123.772722
 20
140.514832
 10
124.414096
 20
140.627137
 10
125.066717
 20
140.764081
 10
125.735219
 20
140.926381
 10
126.423425
 20
141.114853
  0
LINE
  5
CD
100
AcDbEntity
  8
0
  6
Continuous
 62
   174
100
AcDbLine
 10
115.96712
 20
148.511005
 30
0.0
 11
115.245492
 21
148.511005
 31
0.0
  0
LINE
  5
CE
100
AcDbEntity
  8
0
  6
Continuous
 62
   174
100
AcDbLine
 10
127.245504
 20
148.511005
 30
0.0
 11
126.784317
 21
148.511005
 31
0.0
  0
LINE
  5
CF
100
AcDbEntity
  8
0
  6
Continuous
 62
   174
100
AcDbLine
 10
116.027273
 20
149.311005
 30
0.0
 11
115.227273
 21
148.511005
 31
0.0
  0
LINE
  5
D0
100
AcDbEntity
  8
0
  6
Continuous
 62
   174
100
AcDbLine
 10
126.784317
 20
148.511005
 30
0.0
 11
125.430919
 21
148.511005
 31
0.0
  0
LINE
  5
D1
100
AcDbEntity
  8
0
  6
Continuous
 62
   174
100
AcDbLine
 10
126.427273
 20
149.311005
 30
0.0
 11
127.227273
 21
148.511005
 31
0.0
  0
LINE
  5
D2
100
AcDbEntity
  8
0
  6
Continuous
 62
   174
100
AcDbLine
 10
127.227273
 20
148.511005
 30
0.0
 11
127.227273
 21
146.311005
 31
0.0
  0
LINE
  5
D3
100
AcDbEntity
  8
0
  6
Continuous
 62
   174
100
AcDbLine
 10
115.227273
 20
148.511005
 30
0.0
 11
115.227273
 21
146.311005
 31
0.0
  0
LINE
  5
D4
100
AcDbEntity
  8
0
  6
Continuous
 62
   174
100
AcDbLine
 10
127.227273
 20
148.511005
 30
0.0
 11
127.227273
 21
146.311005
 31
0.0
  0
LINE
  5
D5
100
AcDbEntity
  8
0
  6
Continuous
 62
   174
100
AcDbLine
 10
126.427273
 20
149.311005
 30
0.0
 11
127.227273
 21
148.511005
 31
0.0
  0
LINE
  5
D6
100
AcDbEntity
  8
0
  6
Continuous
 62
   174
100
AcDbLine
 10
115.227273
 20
148.511005
 30
0.0
 11
115.227273
 21
146.311005
 31
0.0
  0
LWPOLYLINE
  5
D7
100
AcDbEntity
  8
0
  6
Continuous
 62
   174
100
AcDbPolyline
 90
        9
 70
   128
 10
131.042227
 20
128.829384
 10
131.645449
 20
128.497664
 10
132.251766
 20
128.199617
 10
132.86138
 20
127.938768
 10
133.474042
 20
127.71883
 10
134.08966
 20
127.543257
 10
134.70777
 20
127.415218
 10
135.328023
 20
127.337222
 10
135.949705
 20
127.311005
  0
LINE
  5
D8
100
AcDbEntity
  8
0
  6
Continuous
 62
   174
100
AcDbLine
 10
116.027273
 20
149.311005
 30
0.0
 11
115.227273
 21
148.511005
 31
0.0
  0
LWPOLYLINE
  5
D9
100
AcDbEntity
  8
0
  6
Continuous
 62
   174
100
AcDbPolyline
 90
        5
 70
   128
 10
130.294226
 20
140.514832
 10
130.614913
 20
140.627137
 10
130.941224
 20
140.764081
 10
131.275474
 20
140.926381
 10
131.619578
 20
141.114853
  0
LWPOLYLINE
  5
DA
100
AcDbEntity
  8
0
  6
Continuous
 62
   174
100
AcDbPolyline
 90
        9
 70
   128
 10
135.949705
 20
137.311005
 10
135.327541
 20
137.284748
 10
134.706238
 20
137.206537
 10
134.087089
 20
137.078119
 10
133.471015
 20
136.902203
 10
132.858839
 20
136.682241
 10
132.250266
 20
136.421703
 10
131.644978
 20
136.124101
 10
131.042227
 20
135.792627
  0
LWPOLYLINE
  5
DB
100
AcDbEntity
  8
0
  6
Continuous
 62
   174
100
AcDbPolyline
 90
        8
 70
   128
 10
113.433044
 20
146.311005
 10
113.112081
 20
146.297805
 10
112.794384
 20
146.258934
 10
112.477889
 20
146.195244
 10
112.16032
 20
146.107179
 10
111.839633
 20
145.994873
 10
111.513322
 20
145.85793
 10
111.179071
 20
145.69563
  0
LINE
  5
DC
100
AcDbEntity
  8
0
  6
Continuous
 62
   174
100
AcDbLine
 10
111.179071
 20
145.69563
 30
0.0
 11
110.834968
 21
145.507158
 31
0.0
  0
LINE
  5
DD
100
AcDbEntity
  8
0
  6
Continuous
 62
   174
100
AcDbLine
 10
102.805403
 20
136.421703
 30
0.0
 11
101.597364
 21
135.792627
 31
0.0
  0
LWPOLYLINE
  5
DE
100
AcDbEntity
  8
0
  6
Continuous
 62
   174
100
AcDbPolyline
 90
        9
 70
   128
 10
121.227273
 20
146.311005
 10
120.585346
 20
146.297805
 10
119.949953
 20
146.258934
 10
119.316962
 20
146.195244
 10
118.681824
 20
146.107179
 10
118.04045
 20
145.994873
 10
117.387829
 20
145.85793
 10
116.719327
 20
145.69563
 10
116.03112
 20
145.507158
  0
LWPOLYLINE
  5
DF
100
AcDbEntity
  8
0
  6
Continuous
 62
   174
100
AcDbPolyline
 90
        9
 70
   128
 10
113.433044
 20
140.311005
 10
113.754008
 20
140.324206
 10
114.071704
 20
140.363076
 10
114.3882
 20
140.426767
 10
114.705769
 20
140.514832
 10
115.026456
 20
140.627137
 10
115.352766
 20
140.764081
 10
115.687017
 20
140.926381
 10
116.03112
 20
141.114853
  0
LWPOLYLINE
  5
E0
100
AcDbEntity
  8
0
  6
Continuous
 62
   174
100
AcDbPolyline
 90
        4
 70
   128
 10
111.178982
 20
140.926427
 10
111.513186
 20
140.764143
 10
111.839484
 20
140.627195
 10
112.160184
 20
140.514874
  0
ENDBLK
  5
E1
100
AcDbEntity
  8
0
100
AcDbBlockEnd
  0
BLOCK
  5
E4
100
AcDbEntity
  8
0
100
AcDbBlockBegin
  2
*B4
 70
     0
 10
0.0
 20
0.0
 30
0.0
  3
*B4
  1

  0
ARC
  5
E5
100
AcDbEntity
  8
0
  6
Continuous
 62
   174
100
AcDbCircle
 10
199.762443
 20
100.311005
 30
0.0
 40
9.73
100
AcDbArc
 50
-180.0
 51
-178.974602
  0
ARC
  5
E6
100
AcDbEntity
  8
0
  6
Continuous
 62
   174
100
AcDbCircle
 10
199.762443
 20
100.311005
 30
0.0
 40
9.73
100
AcDbArc
 50
-358.974602
 51
-241.189941
  0
ARC
  5
E7
100
AcDbEntity
  8
0
  6
Continuous
 62
   174
100
AcDbCircle
 10
199.762443
 20
100.311005
 30
0.0
 40
9.73
100
AcDbArc
 50
0.0
 51
1.025398
  0
ARC
  5
E8
100
AcDbEntity
  8
0
  6
Continuous
 62
   174
100
AcDbCircle
 10
199.762443
 20
100.311005
 30
0.0
 40
9.73
100
AcDbArc
 50
-1.025398
 51
0.0
  0
ARC
  5
E9
100
AcDbEntity
  8
0
  6
Continuous
 62
   174
100
AcDbCircle
 10
199.762443
 20
100.311005
 30
0.0
 40
9.73
100
AcDbArc
 50
-178.974602
 51
-1.025398
  0
ARC
  5
EA
100
AcDbEntity
  8
0
  6
Continuous
 62
   174
100
AcDbCircle
 10
199.762443
 20
100.311005
 30
0.0
 40
8.75
100
AcDbArc
 50
0.0
 51
180.0
  0
ARC
  5
EB
100
AcDbEntity
  8
0
  6
Continuous
 62
   174
100
AcDbCircle
 10
199.762443
 20
100.311005
 30
0.0
 40
8.75
100
AcDbArc
 50
180.0
 51
360.0
  0
LINE
  5
EC
100
AcDbEntity
  8
0
  6
Continuous
 62
   174
100
AcDbLine
 10
188.762443
 20
140.311005
 30
0.0
 11
187.762443
 21
139.311005
 31
0.0
  0
LINE
  5
ED
100
AcDbEntity
  8
0
  6
Continuous
 62
   174
100
AcDbLine
 10
210.762443
 20
140.311005
 30
0.0
 11
211.762443
 21
139.311005
 31
0.0
  0
LINE
  5
EE
100
AcDbEntity
  8
0
  6
Continuous
 62
   174
100
AcDbLine
 10
188.762443
 20
140.311005
 30
0.0
 11
187.762443
 21
139.311005
 31
0.0
  0
LINE
  5
EF
100
AcDbEntity
  8
0
  6
Continuous
 62
   174
100
AcDbLine
 10
210.762443
 20
140.311005
 30
0.0
 11
211.762443
 21
139.311005
 31
0.0
  0
LINE
  5
F0
100
AcDbEntity
  8
0
  6
Continuous
 62
   174
100
AcDbLine
 10
211.762443
 20
124.311005
 30
0.0
 11
211.762443
 21
127.311005
 31
0.0
  0
LINE
  5
F1
100
AcDbEntity
  8
0
  6
Continuous
 62
   174
100
AcDbLine
 10
187.762443
 20
137.311005
 30
0.0
 11
187.762443
 21
139.311005
 31
0.0
  0
LINE
  5
F2
100
AcDbEntity
  8
0
  6
Continuous
 62
   174
100
AcDbLine
 10
211.762443
 20
124.311005
 30
0.0
 11
211.762443
 21
127.311005
 31
0.0
  0
LINE
  5
F3
100
AcDbEntity
  8
0
  6
Continuous
 62
   174
100
AcDbLine
 10
191.195506
 20
140.311005
 30
0.0
 11
192.92958
 21
140.311005
 31
0.0
  0
LINE
  5
F4
100
AcDbEntity
  8
0
  6
Continuous
 62
   174
100
AcDbLine
 10
208.365663
 20
140.311005
 30
0.0
 11
210.503356
 21
140.311005
 31
0.0
  0
LINE
  5
F5
100
AcDbEntity
  8
0
  6
Continuous
 62
   174
100
AcDbLine
 10
190.427781
 20
139.311005
 30
0.0
 11
192.324364
 21
139.311005
 31
0.0
  0
LINE
  5
F6
100
AcDbEntity
  8
0
  6
Continuous
 62
   174
100
AcDbLine
 10
215.762443
 20
124.311005
 30
0.0
 11
215.762443
 21
80.311005
 31
0.0
  0
LINE
  5
F7
100
AcDbEntity
  8
0
  6
Continuous
 62
   174
100
AcDbLine
 10
209.362443
 20
153.311005
 30
0.0
 11
209.962443
 21
153.911005
 31
0.0
  0
LINE
  5
F8
100
AcDbEntity
  8
0
  6
Continuous
 62
   174
100
AcDbLine
 10
190.162443
 20
153.311005
 30
0.0
 11
189.562443
 21
153.911005
 31
0.0
  0
LINE
  5
F9
100
AcDbEntity
  8
0
  6
Continuous
 62
   174
100
AcDbLine
 10
207.762443
 20
149.911005
 30
0.0
 11
207.762443
 21
153.311005
 31
0.0
  0
LINE
  5
FA
100
AcDbEntity
  8
0
  6
Continuous
 62
   174
100
AcDbLine
 10
191.762443
 20
149.911005
 30
0.0
 11
191.762443
 21
153.311005
 31
0.0
  0
LINE
  5
FB
100
AcDbEntity
  8
0
  6
Continuous
 62
   174
100
AcDbLine
 10
207.195168
 20
149.911005
 30
0.0
 11
205.361039
 21
149.911005
 31
0.0
  0
LINE
  5
FC
100
AcDbEntity
  8
0
  6
Continuous
 62
   174
100
AcDbLine
 10
194.681073
 20
149.911005
 30
0.0
 11
194.20013
 21
149.911005
 31
0.0
  0
LINE
  5
FD
100
AcDbEntity
  8
0
  6
Continuous
 62
   174
100
AcDbLine
 10
196.089915
 20
149.311005
 30
0.0
 11
195.088941
 21
149.311005
 31
0.0
  0
LINE
  5
FE
100
AcDbEntity
  8
0
  6
Continuous
 62
   174
100
AcDbLine
 10
190.163304
 20
153.911005
 30
0.0
 11
192.043743
 21
153.911005
 31
0.0
  0
LINE
  5
FF
100
AcDbEntity
  8
0
  6
Continuous
 62
   174
100
AcDbLine
 10
192.92958
 20
140.311005
 30
0.0
 11
195.01459
 21
140.311005
 31
0.0
  0
LINE
  5
100
100
AcDbEntity
  8
0
  6
Continuous
 62
   174
100
AcDbLine
 10
204.546579
 20
140.311005
 30
0.0
 11
206.631589
 21
140.311005
 31
0.0
  0
LINE
  5
101
100
AcDbEntity
  8
0
  6
Continuous
 62
   174
100
AcDbLine
 10
192.324364
 20
139.311005
 30
0.0
 11
194.590365
 21
139.311005
 31
0.0
  0
LINE
  5
102
100
AcDbEntity
  8
0
  6
Continuous
 62
   174
100
AcDbLine
 10
207.236592
 20
139.311005
 30
0.0
 11
208.812618
 21
139.311005
 31
0.0
  0
LINE
  5
103
100
AcDbEntity
  8
0
  6
Continuous
 62
   174
100
AcDbLine
 10
209.362443
 20
153.311005
 30
0.0
 11
209.962443
 21
153.911005
 31
0.0
  0
LINE
  5
104
100
AcDbEntity
  8
0
  6
Continuous
 62
   174
100
AcDbLine
 10
209.362443
 20
165.311005
 30
0.0
 11
209.962443
 21
164.711005
 31
0.0
  0
LINE
  5
105
100
AcDbEntity
  8
0
  6
Continuous
 62
   174
100
AcDbLine
 10
194.20013
 20
149.911005
 30
0.0
 11
192.395529
 21
149.911005
 31
0.0
  0
LINE
  5
106
100
AcDbEntity
  8
0
  6
Continuous
 62
   174
100
AcDbLine
 10
206.30402
 20
149.311005
 30
0.0
 11
205.449411
 21
149.311005
 31
0.0
  0
LINE
  5
107
100
AcDbEntity
  8
0
  6
Continuous
 62
   174
100
AcDbLine
 10
193.262247
 20
149.311005
 30
0.0
 11
192.627716
 21
149.311005
 31
0.0
  0
LINE
  5
108
100
AcDbEntity
  8
0
  6
Continuous
 62
   174
100
AcDbLine
 10
192.043743
 20
153.911005
 30
0.0
 11
207.517426
 21
153.911005
 31
0.0
  0
LINE
  5
109
100
AcDbEntity
  8
0
  6
Continuous
 62
   174
100
AcDbLine
 10
190.180511
 20
165.311005
 30
0.0
 11
190.728583
 21
165.311005
 31
0.0
  0
LINE
  5
10A
100
AcDbEntity
  8
0
  6
Continuous
 62
   174
100
AcDbLine
 10
187.762443
 20
137.311005
 30
0.0
 11
187.762443
 21
139.311005
 31
0.0
  0
LINE
  5
10B
100
AcDbEntity
  8
0
  6
Continuous
 62
   174
100
AcDbLine
 10
210.503356
 20
140.311005
 30
0.0
 11
210.780578
 21
140.311005
 31
0.0
  0
LINE
  5
10C
100
AcDbEntity
  8
0
  6
Continuous
 62
   174
100
AcDbLine
 10
195.01459
 20
140.311005
 30
0.0
 11
195.269932
 21
140.311005
 31
0.0
  0
LINE
  5
10D
100
AcDbEntity
  8
0
  6
Continuous
 62
   174
100
AcDbLine
 10
183.762443
 20
124.311005
 30
0.0
 11
215.762443
 21
124.311005
 31
0.0
  0
LINE
  5
10E
100
AcDbEntity
  8
0
  6
Continuous
 62
   174
100
AcDbLine
 10
190.162443
 20
165.311005
 30
0.0
 11
189.562443
 21
164.711005
 31
0.0
  0
LINE
  5
10F
100
AcDbEntity
  8
0
  6
Continuous
 62
   174
100
AcDbLine
 10
207.762443
 20
149.911005
 30
0.0
 11
207.762443
 21
153.311005
 31
0.0
  0
LINE
  5
110
100
AcDbEntity
  8
0
  6
Continuous
 62
   174
100
AcDbLine
 10
192.395529
 20
149.911005
 30
0.0
 11
191.780541
 21
149.911005
 31
0.0
  0
LINE
  5
111
100
AcDbEntity
  8
0
  6
Continuous
 62
   174
100
AcDbLine
 10
205.361039
 20
149.911005
 30
0.0
 11
204.879883
 21
149.911005
 31
0.0
  0
LINE
  5
112
100
AcDbEntity
  8
0
  6
Continuous
 62
   174
100
AcDbLine
 10
205.449411
 20
149.311005
 30
0.0
 11
204.503456
 21
149.311005
 31
0.0
  0
LINE
  5
113
100
AcDbEntity
  8
0
  6
Continuous
 62
   174
100
AcDbLine
 10
187.762443
 20
124.311005
 30
0.0
 11
187.762443
 21
127.311005
 31
0.0
  0
LINE
  5
114
100
AcDbEntity
  8
0
  6
Continuous
 62
   174
100
AcDbLine
 10
195.269932
 20
140.311005
 30
0.0
 11
202.223647
 21
140.311005
 31
0.0
  0
LINE
  5
115
100
AcDbEntity
  8
0
  6
Continuous
 62
   174
100
AcDbLine
 10
194.590365
 20
139.311005
 30
0.0
 11
197.122117
 21
139.311005
 31
0.0
  0
LINE
  5
116
100
AcDbEntity
  8
0
  6
Continuous
 62
   174
100
AcDbLine
 10
208.812618
 20
139.311005
 30
0.0
 11
209.133388
 21
139.311005
 31
0.0
  0
LINE
  5
117
100
AcDbEntity
  8
0
  6
Continuous
 62
   174
100
AcDbLine
 10
209.362443
 20
165.311005
 30
0.0
 11
209.962443
 21
164.711005
 31
0.0
  0
LINE
  5
118
100
AcDbEntity
  8
0
  6
Continuous
 62
   174
100
AcDbLine
 10
189.562443
 20
153.911005
 30
0.0
 11
189.562443
 21
164.711005
 31
0.0
  0
LINE
  5
119
100
AcDbEntity
  8
0
  6
Continuous
 62
   174
100
AcDbLine
 10
189.562443
 20
153.911005
 30
0.0
 11
189.562443
 21
164.711005
 31
0.0
  0
LINE
  5
11A
100
AcDbEntity
  8
0
  6
Continuous
 62
   174
100
AcDbLine
 10
189.580606
 20
164.711005
 30
0.0
 11
190.163304
 21
164.711005
 31
0.0
  0
LINE
  5
11B
100
AcDbEntity
  8
0
  6
Continuous
 62
   174
100
AcDbLine
 10
192.09069
 20
153.311005
 30
0.0
 11
207.470479
 21
153.311005
 31
0.0
  0
LINE
  5
11C
100
AcDbEntity
  8
0
  6
Continuous
 62
   174
100
AcDbLine
 10
190.728583
 20
165.311005
 30
0.0
 11
208.832374
 21
165.311005
 31
0.0
  0
LINE
  5
11D
100
AcDbEntity
  8
0
  6
Continuous
 62
   174
100
AcDbLine
 10
199.762443
 20
135.792627
 30
0.0
 11
199.762443
 21
128.829384
 31
0.0
  0
LINE
  5
11E
100
AcDbEntity
  8
0
  6
Continuous
 62
   174
100
AcDbLine
 10
202.223647
 20
140.311005
 30
0.0
 11
202.539319
 21
140.311005
 31
0.0
  0
LINE
  5
11F
100
AcDbEntity
  8
0
  6
Continuous
 62
   174
100
AcDbLine
 10
197.122117
 20
139.311005
 30
0.0
 11
202.533583
 21
139.311005
 31
0.0
  0
LINE
  5
120
100
AcDbEntity
  8
0
  6
Continuous
 62
   174
100
AcDbLine
 10
209.133388
 20
139.311005
 30
0.0
 11
210.571758
 21
139.311005
 31
0.0
  0
LINE
  5
121
100
AcDbEntity
  8
0
  6
Continuous
 62
   174
100
AcDbLine
 10
190.162443
 20
165.311005
 30
0.0
 11
189.562443
 21
164.711005
 31
0.0
  0
LINE
  5
122
100
AcDbEntity
  8
0
  6
Continuous
 62
   174
100
AcDbLine
 10
209.962443
 20
153.911005
 30
0.0
 11
209.962443
 21
164.711005
 31
0.0
  0
LINE
  5
123
100
AcDbEntity
  8
0
  6
Continuous
 62
   174
100
AcDbLine
 10
204.879883
 20
149.911005
 30
0.0
 11
202.78319
 21
149.911005
 31
0.0
  0
LINE
  5
124
100
AcDbEntity
  8
0
  6
Continuous
 62
   174
100
AcDbLine
 10
204.503456
 20
149.311005
 30
0.0
 11
203.51289
 21
149.311005
 31
0.0
  0
LINE
  5
125
100
AcDbEntity
  8
0
  6
Continuous
 62
   174
100
AcDbLine
 10
195.088941
 20
149.311005
 30
0.0
 11
194.12939
 21
149.311005
 31
0.0
  0
LINE
  5
126
100
AcDbEntity
  8
0
  6
Continuous
 62
   174
100
AcDbLine
 10
190.163304
 20
164.711005
 30
0.0
 11
192.043743
 21
164.711005
 31
0.0
  0
LINE
  5
127
100
AcDbEntity
  8
0
  6
Continuous
 62
   174
100
AcDbLine
 10
207.470479
 20
153.311005
 30
0.0
 11
208.832374
 21
153.311005
 31
0.0
  0
LINE
  5
128
100
AcDbEntity
  8
0
  6
Continuous
 62
   174
100
AcDbLine
 10
208.832374
 20
165.311005
 30
0.0
 11
209.380445
 21
165.311005
 31
0.0
  0
LINE
  5
129
100
AcDbEntity
  8
0
  6
Continuous
 62
   174
100
AcDbLine
 10
211.762443
 20
137.311005
 30
0.0
 11
211.762443
 21
139.311005
 31
0.0
  0
LINE
  5
12A
100
AcDbEntity
  8
0
  6
Continuous
 62
   174
100
AcDbLine
 10
187.762443
 20
124.311005
 30
0.0
 11
187.762443
 21
127.311005
 31
0.0
  0
LINE
  5
12B
100
AcDbEntity
  8
0
  6
Continuous
 62
   174
100
AcDbLine
 10
210.571758
 20
139.311005
 30
0.0
 11
211.78049
 21
139.311005
 31
0.0
  0
LINE
  5
12C
100
AcDbEntity
  8
0
  6
Continuous
 62
   174
100
AcDbLine
 10
183.762443
 20
80.311005
 30
0.0
 11
215.762443
 21
80.311005
 31
0.0
  0
LINE
  5
12D
100
AcDbEntity
  8
0
  6
Continuous
 62
   174
100
AcDbLine
 10
192.362443
 20
149.311005
 30
0.0
 11
191.762443
 21
149.911005
 31
0.0
  0
LINE
  5
12E
100
AcDbEntity
  8
0
  6
Continuous
 62
   174
100
AcDbLine
 10
209.962443
 20
153.911005
 30
0.0
 11
209.962443
 21
164.711005
 31
0.0
  0
LINE
  5
12F
100
AcDbEntity
  8
0
  6
Continuous
 62
   174
100
AcDbLine
 10
202.78319
 20
149.911005
 30
0.0
 11
196.777767
 21
149.911005
 31
0.0
  0
LINE
  5
130
100
AcDbEntity
  8
0
  6
Continuous
 62
   174
100
AcDbLine
 10
192.627716
 20
149.311005
 30
0.0
 11
192.380446
 21
149.311005
 31
0.0
  0
LINE
  5
131
100
AcDbEntity
  8
0
  6
Continuous
 62
   174
100
AcDbLine
 10
192.043743
 20
164.711005
 30
0.0
 11
207.517426
 21
164.711005
 31
0.0
  0
LINE
  5
132
100
AcDbEntity
  8
0
  6
Continuous
 62
   174
100
AcDbLine
 10
207.517426
 20
153.911005
 30
0.0
 11
209.362814
 21
153.911005
 31
0.0
  0
LINE
  5
133
100
AcDbEntity
  8
0
  6
Continuous
 62
   174
100
AcDbLine
 10
208.832374
 20
153.311005
 30
0.0
 11
209.380445
 21
153.311005
 31
0.0
  0
LINE
  5
134
100
AcDbEntity
  8
0
  6
Continuous
 62
   174
100
AcDbLine
 10
190.180511
 20
153.311005
 30
0.0
 11
190.728583
 21
153.311005
 31
0.0
  0
LINE
  5
135
100
AcDbEntity
  8
0
  6
Continuous
 62
   174
100
AcDbLine
 10
199.762443
 20
145.507158
 30
0.0
 11
199.762443
 21
141.114853
 31
0.0
  0
LINE
  5
136
100
AcDbEntity
  8
0
  6
Continuous
 62
   174
100
AcDbLine
 10
188.780591
 20
140.311005
 30
0.0
 11
189.057813
 21
140.311005
 31
0.0
  0
LINE
  5
137
100
AcDbEntity
  8
0
  6
Continuous
 62
   174
100
AcDbLine
 10
202.539319
 20
140.311005
 30
0.0
 11
204.291237
 21
140.311005
 31
0.0
  0
LINE
  5
138
100
AcDbEntity
  8
0
  6
Continuous
 62
   174
100
AcDbLine
 10
187.780466
 20
139.311005
 30
0.0
 11
188.083393
 21
139.311005
 31
0.0
  0
LINE
  5
139
100
AcDbEntity
  8
0
  6
Continuous
 62
   174
100
AcDbLine
 10
202.533583
 20
139.311005
 30
0.0
 11
204.970804
 21
139.311005
 31
0.0
  0
LINE
  5
13A
100
AcDbEntity
  8
0
  6
Continuous
 62
   174
100
AcDbLine
 10
183.762443
 20
124.311005
 30
0.0
 11
183.762443
 21
80.311005
 31
0.0
  0
LINE
  5
13B
100
AcDbEntity
  8
0
  6
Continuous
 62
   174
100
AcDbLine
 10
207.162443
 20
149.311005
 30
0.0
 11
207.762443
 21
149.911005
 31
0.0
  0
LINE
  5
13C
100
AcDbEntity
  8
0
  6
Continuous
 62
   174
100
AcDbLine
 10
192.362443
 20
149.311005
 30
0.0
 11
191.762443
 21
149.911005
 31
0.0
  0
LINE
  5
13D
100
AcDbEntity
  8
0
  6
Continuous
 62
   174
100
AcDbLine
 10
191.762443
 20
149.911005
 30
0.0
 11
191.762443
 21
153.311005
 31
0.0
  0
LINE
  5
13E
100
AcDbEntity
  8
0
  6
Continuous
 62
   174
100
AcDbLine
 10
207.517426
 20
164.711005
 30
0.0
 11
209.362814
 21
164.711005
 31
0.0
  0
LINE
  5
13F
100
AcDbEntity
  8
0
  6
Continuous
 62
   174
100
AcDbLine
 10
209.362814
 20
153.911005
 30
0.0
 11
209.980563
 21
153.911005
 31
0.0
  0
LINE
  5
140
100
AcDbEntity
  8
0
  6
Continuous
 62
   174
100
AcDbLine
 10
190.728583
 20
153.311005
 30
0.0
 11
192.09069
 21
153.311005
 31
0.0
  0
LINE
  5
141
100
AcDbEntity
  8
0
  6
Continuous
 62
   174
100
AcDbLine
 10
216.762443
 20
135.792627
 30
0.0
 11
216.762443
 21
128.829384
 31
0.0
  0
LINE
  5
142
100
AcDbEntity
  8
0
  6
Continuous
 62
   174
100
AcDbLine
 10
211.762443
 20
137.311005
 30
0.0
 11
211.762443
 21
139.311005
 31
0.0
  0
LINE
  5
143
100
AcDbEntity
  8
0
  6
Continuous
 62
   174
100
AcDbLine
 10
189.057813
 20
140.311005
 30
0.0
 11
191.195506
 21
140.311005
 31
0.0
  0
LINE
  5
144
100
AcDbEntity
  8
0
  6
Continuous
 62
   174
100
AcDbLine
 10
204.291237
 20
140.311005
 30
0.0
 11
204.546579
 21
140.311005
 31
0.0
  0
LINE
  5
145
100
AcDbEntity
  8
0
  6
Continuous
 62
   174
100
AcDbLine
 10
206.631589
 20
140.311005
 30
0.0
 11
208.365663
 21
140.311005
 31
0.0
  0
LINE
  5
146
100
AcDbEntity
  8
0
  6
Continuous
 62
   174
100
AcDbLine
 10
188.083393
 20
139.311005
 30
0.0
 11
190.427781
 21
139.311005
 31
0.0
  0
LINE
  5
147
100
AcDbEntity
  8
0
  6
Continuous
 62
   174
100
AcDbLine
 10
204.970804
 20
139.311005
 30
0.0
 11
207.236592
 21
139.311005
 31
0.0
  0
LINE
  5
148
100
AcDbEntity
  8
0
  6
Continuous
 62
   174
100
AcDbLine
 10
207.162443
 20
149.311005
 30
0.0
 11
207.762443
 21
149.911005
 31
0.0
  0
LINE
  5
149
100
AcDbEntity
  8
0
  6
Continuous
 62
   174
100
AcDbLine
 10
190.162443
 20
153.311005
 30
0.0
 11
189.562443
 21
153.911005
 31
0.0
  0
LINE
  5
14A
100
AcDbEntity
  8
0
  6
Continuous
 62
   174
100
AcDbLine
 10
207.780628
 20
149.911005
 30
0.0
 11
207.195168
 21
149.911005
 31
0.0
  0
LINE
  5
14B
100
AcDbEntity
  8
0
  6
Continuous
 62
   174
100
AcDbLine
 10
196.777767
 20
149.911005
 30
0.0
 11
194.681073
 21
149.911005
 31
0.0
  0
LINE
  5
14C
100
AcDbEntity
  8
0
  6
Continuous
 62
   174
100
AcDbLine
 10
207.180511
 20
149.311005
 30
0.0
 11
206.30402
 21
149.311005
 31
0.0
  0
LINE
  5
14D
100
AcDbEntity
  8
0
  6
Continuous
 62
   174
100
AcDbLine
 10
203.51289
 20
149.311005
 30
0.0
 11
196.089915
 21
149.311005
 31
0.0
  0
LINE
  5
14E
100
AcDbEntity
  8
0
  6
Continuous
 62
   174
100
AcDbLine
 10
194.12939
 20
149.311005
 30
0.0
 11
193.262247
 21
149.311005
 31
0.0
  0
LINE
  5
14F
100
AcDbEntity
  8
0
  6
Continuous
 62
   174
100
AcDbLine
 10
209.362814
 20
164.711005
 30
0.0
 11
209.980563
 21
164.711005
 31
0.0
  0
LINE
  5
150
100
AcDbEntity
  8
0
  6
Continuous
 62
   174
100
AcDbLine
 10
189.580606
 20
153.911005
 30
0.0
 11
190.163304
 21
153.911005
 31
0.0
  0
LINE
  5
151
100
AcDbEntity
  8
0
  6
Continuous
 62
   174
100
AcDbLine
 10
182.762443
 20
135.792627
 30
0.0
 11
182.762443
 21
128.829384
 31
0.0
  0
LINE
  5
152
100
AcDbEntity
  8
0
  6
Continuous
 62
   174
100
AcDbLine
 10
208.762443
 20
145.507158
 30
0.0
 11
208.762443
 21
141.114853
 31
0.0
  0
LINE
  5
153
100
AcDbEntity
  8
0
  6
Continuous
 62
   174
100
AcDbLine
 10
191.280478
 20
137.311005
 30
0.0
 11
182.780479
 21
137.311005
 31
0.0
  0
LINE
  5
154
100
AcDbEntity
  8
0
  6
Continuous
 62
   174
100
AcDbLine
 10
191.280478
 20
127.311005
 30
0.0
 11
182.780479
 21
127.311005
 31
0.0
  0
LINE
  5
155
100
AcDbEntity
  8
0
  6
Continuous
 62
   174
100
AcDbLine
 10
208.280478
 20
127.311005
 30
0.0
 11
191.280478
 21
127.311005
 31
0.0
  0
LWPOLYLINE
  5
156
100
AcDbEntity
  8
0
  6
Continuous
 62
   174
100
AcDbPolyline
 90
        9
 70
   128
 10
195.262443
 20
140.311005
 10
194.706518
 20
140.324206
 10
194.156252
 20
140.363076
 10
193.608065
 20
140.426767
 10
193.05802
 20
140.514832
 10
192.502573
 20
140.627137
 10
191.937387
 20
140.764081
 10
191.358447
 20
140.926381
 10
190.762443
 20
141.114853
  0
LWPOLYLINE
  5
157
100
AcDbEntity
  8
0
  6
Continuous
 62
   174
100
AcDbPolyline
 90
        9
 70
   128
 10
204.262443
 20
140.311005
 10
204.818368
 20
140.324206
 10
205.368634
 20
140.363076
 10
205.916821
 20
140.426767
 10
206.466866
 20
140.514832
 10
207.022313
 20
140.627137
 10
207.587499
 20
140.764081
 10
208.166439
 20
140.926381
 10
208.762443
 20
141.114853
  0
LINE
  5
158
100
AcDbEntity
  8
0
  6
Continuous
 62
   174
100
AcDbLine
 10
216.780478
 20
127.311005
 30
0.0
 11
208.280478
 21
127.311005
 31
0.0
  0
LWPOLYLINE
  5
159
100
AcDbEntity
  8
0
  6
Continuous
 62
   174
100
AcDbPolyline
 90
        9
 70
   128
 10
216.762443
 20
128.829384
 10
216.762443
 20
128.497664
 10
216.762443
 20
128.199617
 10
216.762443
 20
127.938768
 10
216.762443
 20
127.71883
 10
216.762443
 20
127.543257
 10
216.762443
 20
127.415218
 10
216.762443
 20
127.337222
 10
216.762443
 20
127.311005
  0
LINE
  5
15A
100
AcDbEntity
  8
0
  6
Continuous
 62
   174
100
AcDbLine
 10
191.465718
 20
146.311005
 30
0.0
 11
190.780628
 21
146.311005
 31
0.0
  0
LINE
  5
15B
100
AcDbEntity
  8
0
  6
Continuous
 62
   174
100
AcDbLine
 10
193.762443
 20
148.511005
 30
0.0
 11
193.762443
 21
146.311005
 31
0.0
  0
LWPOLYLINE
  5
15C
100
AcDbEntity
  8
0
  6
Continuous
 62
   174
100
AcDbPolyline
 90
        9
 70
   128
 10
182.762443
 20
128.829384
 10
183.807253
 20
128.497664
 10
184.857425
 20
128.199617
 10
185.913307
 20
127.938768
 10
186.97447
 20
127.71883
 10
188.040752
 20
127.543257
 10
189.111348
 20
127.415218
 10
190.185659
 20
127.337222
 10
191.262443
 20
127.311005
  0
LWPOLYLINE
  5
15D
100
AcDbEntity
  8
0
  6
Continuous
 62
   174
100
AcDbPolyline
 90
        9
 70
   128
 10
182.762443
 20
128.829384
 10
182.762443
 20
128.497664
 10
182.762443
 20
128.199617
 10
182.762443
 20
127.938768
 10
182.762443
 20
127.71883
 10
182.762443
 20
127.543257
 10
182.762443
 20
127.415218
 10
182.762443
 20
127.337222
 10
182.762443
 20
127.311005
  0
LINE
  5
15E
100
AcDbEntity
  8
0
  6
Continuous
 62
   174
100
AcDbLine
 10
205.762443
 20
148.511005
 30
0.0
 11
205.762443
 21
146.311005
 31
0.0
  0
LWPOLYLINE
  5
15F
100
AcDbEntity
  8
0
  6
Continuous
 62
   174
100
AcDbPolyline
 90
        9
 70
   128
 10
216.762443
 20
135.792627
 10
216.762443
 20
136.124347
 10
216.762443
 20
136.422393
 10
216.762443
 20
136.683243
 10
216.762443
 20
136.903181
 10
216.762443
 20
137.078754
 10
216.762443
 20
137.206793
 10
216.762443
 20
137.284789
 10
216.762443
 20
137.311005
  0
LINE
  5
160
100
AcDbEntity
  8
0
  6
Continuous
 62
   174
100
AcDbLine
 10
190.762443
 20
145.507158
 30
0.0
 11
190.762443
 21
141.114853
 31
0.0
  0
LWPOLYLINE
  5
161
100
AcDbEntity
  8
0
  6
Continuous
 62
   174
100
AcDbPolyline
 90
        9
 70
   128
 10
199.762443
 20
145.507158
 10
199.166593
 20
145.695584
 10
198.587735
 20
145.857868
 10
198.022571
 20
145.994816
 10
197.467101
 20
146.107136
 10
196.917003
 20
146.195219
 10
196.368749
 20
146.258924
 10
195.818417
 20
146.297803
 10
195.262443
 20
146.311005
  0
LWPOLYLINE
  5
162
100
AcDbEntity
  8
0
  6
Continuous
 62
   174
100
AcDbPolyline
 90
        9
 70
   128
 10
208.762443
 20
141.114853
 10
208.762443
 20
140.926427
 10
208.762443
 20
140.764143
 10
208.762443
 20
140.627195
 10
208.762443
 20
140.514874
 10
208.762443
 20
140.426792
 10
208.762443
 20
140.363087
 10
208.762443
 20
140.324208
 10
208.762443
 20
140.311005
  0
LWPOLYLINE
  5
163
100
AcDbEntity
  8
0
  6
Continuous
 62
   174
100
AcDbPolyline
 90
        9
 70
   128
 10
199.762443
 20
141.114853
 10
199.166593
 20
140.926427
 10
198.587735
 20
140.764143
 10
198.022571
 20
140.627195
 10
197.467101
 20
140.514874
 10
196.917003
 20
140.426792
 10
196.368749
 20
140.363087
 10
195.818417
 20
140.324208
 10
195.262443
 20
140.311005
  0
LWPOLYLINE
  5
164
100
AcDbEntity
  8
0
  6
Continuous
 62
   174
100
AcDbPolyline
 90
        9
 70
   128
 10
195.262443
 20
146.311005
 10
194.706518
 20
146.297805
 10
194.156252
 20
146.258934
 10
193.608065
 20
146.195244
 10
193.05802
 20
146.107179
 10
192.502573
 20
145.994873
 10
191.937387
 20
145.85793
 10
191.358447
 20
145.69563
 10
190.762443
 20
145.507158
  0
LWPOLYLINE
  5
165
100
AcDbEntity
  8
0
  6
Continuous
 62
   174
100
AcDbPolyline
 90
        9
 70
   128
 10
191.262443
 20
137.311005
 10
190.184824
 20
137.284748
 10
189.108695
 20
137.206537
 10
188.036298
 20
137.078119
 10
186.969226
 20
136.902203
 10
185.908907
 20
136.682241
 10
184.854828
 20
136.421703
 10
183.806438
 20
136.124101
 10
182.762443
 20
135.792627
  0
LINE
  5
166
100
AcDbEntity
  8
0
  6
Continuous
 62
   174
100
AcDbLine
 10
200.428393
 20
146.311005
 30
0.0
 11
195.280553
 21
146.311005
 31
0.0
  0
LWPOLYLINE
  5
167
100
AcDbEntity
  8
0
  6
Continuous
 62
   174
100
AcDbPolyline
 90
        9
 70
   128
 10
182.762443
 20
135.792627
 10
182.762443
 20
136.124347
 10
182.762443
 20
136.422393
 10
182.762443
 20
136.683243
 10
182.762443
 20
136.903181
 10
182.762443
 20
137.078754
 10
182.762443
 20
137.206793
 10
182.762443
 20
137.284789
 10
182.762443
 20
137.311005
  0
LINE
  5
168
100
AcDbEntity
  8
0
  6
Continuous
 62
   174
100
AcDbLine
 10
204.280616
 20
146.311005
 30
0.0
 11
200.428393
 21
146.311005
 31
0.0
  0
LINE
  5
169
100
AcDbEntity
  8
0
  6
Continuous
 62
   174
100
AcDbLine
 10
208.78054
 20
146.311005
 30
0.0
 11
204.280616
 21
146.311005
 31
0.0
  0
LWPOLYLINE
  5
16A
100
AcDbEntity
  8
0
  6
Continuous
 62
   174
100
AcDbPolyline
 90
        9
 70
   128
 10
191.262443
 20
127.311005
 10
192.340062
 20
127.337263
 10
193.416191
 20
127.415473
 10
194.488588
 20
127.543892
 10
195.55566
 20
127.719808
 10
196.615979
 20
127.93977
 10
197.670058
 20
128.200308
 10
198.718448
 20
128.497909
 10
199.762443
 20
128.829384
  0
LWPOLYLINE
  5
16B
100
AcDbEntity
  8
0
  6
Continuous
 62
   174
100
AcDbPolyline
 90
        9
 70
   128
 10
208.262443
 20
127.311005
 10
209.340062
 20
127.337263
 10
210.416191
 20
127.415473
 10
211.488588
 20
127.543892
 10
212.55566
 20
127.719808
 10
213.615979
 20
127.93977
 10
214.670058
 20
128.200308
 10
215.718448
 20
128.497909
 10
216.762443
 20
128.829384
  0
LINE
  5
16C
100
AcDbEntity
  8
0
  6
Continuous
 62
   174
100
AcDbLine
 10
199.780903
 20
148.511005
 30
0.0
 11
195.481513
 21
148.511005
 31
0.0
  0
LWPOLYLINE
  5
16D
100
AcDbEntity
  8
0
  6
Continuous
 62
   174
100
AcDbPolyline
 90
        9
 70
   128
 10
199.762443
 20
141.114853
 10
200.358293
 20
140.926427
 10
200.937151
 20
140.764143
 10
201.502315
 20
140.627195
 10
202.057785
 20
140.514874
 10
202.607883
 20
140.426792
 10
203.156137
 20
140.363087
 10
203.706469
 20
140.324208
 10
204.262443
 20
140.311005
  0
LINE
  5
16E
100
AcDbEntity
  8
0
  6
Continuous
 62
   174
100
AcDbLine
 10
195.481513
 20
148.511005
 30
0.0
 11
193.780578
 21
148.511005
 31
0.0
  0
LWPOLYLINE
  5
16F
100
AcDbEntity
  8
0
  6
Continuous
 62
   174
100
AcDbPolyline
 90
        9
 70
   128
 10
208.762443
 20
145.507158
 10
208.166593
 20
145.695584
 10
207.587735
 20
145.857868
 10
207.022571
 20
145.994816
 10
206.467101
 20
146.107136
 10
205.917003
 20
146.195219
 10
205.368749
 20
146.258924
 10
204.818417
 20
146.297803
 10
204.262443
 20
146.311005
  0
LINE
  5
170
100
AcDbEntity
  8
0
  6
Continuous
 62
   174
100
AcDbLine
 10
205.780591
 20
148.511005
 30
0.0
 11
204.079868
 21
148.511005
 31
0.0
  0
LINE
  5
171
100
AcDbEntity
  8
0
  6
Continuous
 62
   174
100
AcDbLine
 10
204.962443
 20
149.311005
 30
0.0
 11
205.762443
 21
148.511005
 31
0.0
  0
LINE
  5
172
100
AcDbEntity
  8
0
  6
Continuous
 62
   174
100
AcDbLine
 10
194.562443
 20
149.311005
 30
0.0
 11
193.762443
 21
148.511005
 31
0.0
  0
LINE
  5
173
100
AcDbEntity
  8
0
  6
Continuous
 62
   174
100
AcDbLine
 10
204.079868
 20
148.511005
 30
0.0
 11
199.780903
 21
148.511005
 31
0.0
  0
LWPOLYLINE
  5
174
100
AcDbEntity
  8
0
  6
Continuous
 62
   174
100
AcDbPolyline
 90
        9
 70
   128
 10
199.762443
 20
128.829384
 10
200.807253
 20
128.497664
 10
201.857425
 20
128.199617
 10
202.913307
 20
127.938768
 10
203.97447
 20
127.71883
 10
205.040752
 20
127.543257
 10
206.111348
 20
127.415218
 10
207.185659
 20
127.337222
 10
208.262443
 20
127.311005
  0
LWPOLYLINE
  5
175
100
AcDbEntity
  8
0
  6
Continuous
 62
   174
100
AcDbPolyline
 90
        9
 70
   128
 10
204.262443
 20
146.311005
 10
203.706518
 20
146.297805
 10
203.156252
 20
146.258934
 10
202.608065
 20
146.195244
 10
202.05802
 20
146.107179
 10
201.502573
 20
145.994873
 10
200.937387
 20
145.85793
 10
200.358447
 20
145.69563
 10
199.762443
 20
145.507158
  0
LWPOLYLINE
  5
176
100
AcDbEntity
  8
0
  6
Continuous
 62
   174
100
AcDbPolyline
 90
        9
 70
   128
 10
199.762443
 20
135.792627
 10
198.717633
 20
136.124347
 10
197.667461
 20
136.422393
 10
196.611579
 20
136.683243
 10
195.550416
 20
136.903181
 10
194.484134
 20
137.078754
 10
193.413538
 20
137.206793
 10
192.339227
 20
137.284789
 10
191.262443
 20
137.311005
  0
LWPOLYLINE
  5
177
100
AcDbEntity
  8
0
  6
Continuous
 62
   174
100
AcDbPolyline
 90
        9
 70
   128
 10
208.762443
 20
146.311005
 10
208.762443
 20
146.297805
 10
208.762443
 20
146.258934
 10
208.762443
 20
146.195244
 10
208.762443
 20
146.107179
 10
208.762443
 20
145.994873
 10
208.762443
 20
145.85793
 10
208.762443
 20
145.69563
 10
208.762443
 20
145.507158
  0
LWPOLYLINE
  5
178
100
AcDbEntity
  8
0
  6
Continuous
 62
   174
100
AcDbPolyline
 90
        9
 70
   128
 10
190.762443
 20
140.311005
 10
190.762443
 20
140.324206
 10
190.762443
 20
140.363076
 10
190.762443
 20
140.426767
 10
190.762443
 20
140.514832
 10
190.762443
 20
140.627137
 10
190.762443
 20
140.764081
 10
190.762443
 20
140.926381
 10
190.762443
 20
141.114853
  0
LWPOLYLINE
  5
179
100
AcDbEntity
  8
0
  6
Continuous
 62
   174
100
AcDbPolyline
 90
        9
 70
   128
 10
208.262443
 20
137.311005
 10
207.184824
 20
137.284748
 10
206.108695
 20
137.206537
 10
205.036298
 20
137.078119
 10
203.969226
 20
136.902203
 10
202.908907
 20
136.682241
 10
201.854828
 20
136.421703
 10
200.806438
 20
136.124101
 10
199.762443
 20
135.792627
  0
LINE
  5
17A
100
AcDbEntity
  8
0
  6
Continuous
 62
   174
100
AcDbLine
 10
216.780478
 20
137.311005
 30
0.0
 11
208.280478
 21
137.311005
 31
0.0
  0
LWPOLYLINE
  5
17B
100
AcDbEntity
  8
0
  6
Continuous
 62
   174
100
AcDbPolyline
 90
        9
 70
   128
 10
216.762443
 20
135.792627
 10
215.717633
 20
136.124347
 10
214.667461
 20
136.422393
 10
213.611579
 20
136.683243
 10
212.550416
 20
136.903181
 10
211.484134
 20
137.078754
 10
210.413538
 20
137.206793
 10
209.339227
 20
137.284789
 10
208.262443
 20
137.311005
  0
LINE
  5
17C
100
AcDbEntity
  8
0
  6
Continuous
 62
   174
100
AcDbLine
 10
208.280478
 20
137.311005
 30
0.0
 11
191.280478
 21
137.311005
 31
0.0
  0
LWPOLYLINE
  5
17D
100
AcDbEntity
  8
0
  6
Continuous
 62
   174
100
AcDbPolyline
 90
        9
 70
   128
 10
190.762443
 20
145.507158
 10
190.762443
 20
145.695584
 10
190.762443
 20
145.857868
 10
190.762443
 20
145.994816
 10
190.762443
 20
146.107136
 10
190.762443
 20
146.195219
 10
190.762443
 20
146.258924
 10
190.762443
 20
146.297803
 10
190.762443
 20
146.311005
  0
ENDBLK
  5
17E
100
AcDbEntity
  8
0
100
AcDbBlockEnd
  0
BLOCK
  5
181
100
AcDbEntity
  8
0
100
AcDbBlockBegin
  2
*B5
 70
     0
 10
0.0
 20
0.0
 30
0.0
  3
*B5
  1

  0
LINE
  5
182
100
AcDbEntity
  8
0
  6
Continuous
 62
     0
100
AcDbLine
 10
172.518152
 20
124.322242
 30
0.0
 11
172.518152
 21
80.324605
 31
0.0
  0
SOLID
  5
183
100
AcDbEntity
  8
0
  6
Continuous
 62
     0
100
AcDbTrace
 10
173.518064
 20
119.322467
 30
0.0
 11
172.518152
 21
124.322242
 31
0.0
 12
171.518027
 22
119.322467
 32
0.0
 13
171.518027
 23
119.322467
 33
0.0
  0
SOLID
  5
184
100
AcDbEntity
  8
0
  6
Continuous
 62
     0
100
AcDbTrace
 10
171.518027
 20
85.32438
 30
0.0
 11
172.518152
 21
80.324605
 31
0.0
 12
173.518064
 22
85.32438
 32
0.0
 13
173.518064
 23
85.32438
 33
0.0
  0
ENDBLK
  5
185
100
AcDbEntity
  8
0
100
AcDbBlockEnd
  0
BLOCK
  5
188
100
AcDbEntity
  8
0
100
AcDbBlockBegin
  2
*B6
 70
     0
 10
0.0
 20
0.0
 30
0.0
  3
*B6
  1

  0
LINE
  5
189
100
AcDbEntity
  8
0
  6
Continuous
 62
     0
100
AcDbLine
 10
172.518152
 20
124.322242
 30
0.0
 11
172.518152
 21
165.319929
 31
0.0
  0
SOLID
  5
18A
100
AcDbEntity
  8
0
  6
Continuous
 62
     0
100
AcDbTrace
 10
171.518027
 20
129.321804
 30
0.0
 11
172.518152
 21
124.322242
 31
0.0
 12
173.518064
 22
129.321804
 32
0.0
 13
173.518064
 23
129.321804
 33
0.0
  0
SOLID
  5
18B
100
AcDbEntity
  8
0
  6
Continuous
 62
     0
100
AcDbTrace
 10
173.518064
 20
160.320154
 30
0.0
 11
172.518152
 21
165.319929
 31
0.0
 12
171.518027
 22
160.320154
 32
0.0
 13
171.518027
 23
160.320154
 33
0.0
  0
ENDBLK
  5
18C
100
AcDbEntity
  8
0
100
AcDbBlockEnd
  0
BLOCK
  5
18F
100
AcDbEntity
  8
0
100
AcDbBlockBegin
  2
*B7
 70
     0
 10
0.0
 20
0.0
 30
0.0
  3
*B7
  1

  0
LINE
  5
190
100
AcDbEntity
  8
0
  6
Continuous
 62
     0
100
AcDbLine
 10
99.245405
 20
106.012181
 30
0.0
 11
143.245379
 21
106.012181
 31
0.0
  0
SOLID
  5
191
100
AcDbEntity
  8
0
  6
Continuous
 62
     0
100
AcDbTrace
 10
104.245392
 20
105.012268
 30
0.0
 11
109.24538
 21
106.012181
 31
0.0
 12
104.245392
 22
107.012093
 32
0.0
 13
104.245392
 23
107.012093
 33
0.0
  0
SOLID
  5
192
100
AcDbEntity
  8
0
  6
Continuous
 62
     0
100
AcDbTrace
 10
138.245391
 20
107.012093
 30
0.0
 11
133.245404
 21
106.012181
 31
0.0
 12
138.245391
 22
105.012268
 32
0.0
 13
138.245391
 23
105.012268
 33
0.0
  0
ENDBLK
  5
193
100
AcDbEntity
  8
0
100
AcDbBlockEnd
  0
BLOCK
  5
196
100
AcDbEntity
  8
0
100
AcDbBlockBegin
  2
*B8
 70
     0
 10
0.0
 20
0.0
 30
0.0
  3
*B8
  1

  0
LINE
  5
197
100
AcDbEntity
  8
0
  6
Continuous
 62
     0
100
AcDbLine
 10
97.245368
 20
92.012981
 30
0.0
 11
145.245416
 21
92.012981
 31
0.0
  0
SOLID
  5
198
100
AcDbEntity
  8
0
  6
Continuous
 62
     0
100
AcDbTrace
 10
102.245355
 20
93.012893
 30
0.0
 11
97.245368
 21
92.012981
 31
0.0
 12
102.245355
 22
91.013068
 32
0.0
 13
102.245355
 23
91.013068
 33
0.0
  0
SOLID
  5
199
100
AcDbEntity
  8
0
  6
Continuous
 62
     0
100
AcDbTrace
 10
140.245429
 20
91.013068
 30
0.0
 11
145.245416
 21
92.012981
 31
0.0
 12
140.245429
 22
93.012893
 32
0.0
 13
140.245429
 23
93.012893
 33
0.0
  0
ENDBLK
  5
19A
100
AcDbEntity
  8
0
100
AcDbBlockEnd
  0
BLOCK
  5
19D
100
AcDbEntity
  8
0
100
AcDbBlockBegin
  2
*B9
 70
     0
 10
0.0
 20
0.0
 30
0.0
  3
*B9
  1

  0
LINE
  5
19E
100
AcDbEntity
  8
0
  6
Continuous
 62
     0
100
AcDbLine
 10
80.018067
 20
106.323179
 30
0.0
 11
80.018067
 21
134.321579
 31
0.0
  0
SOLID
  5
19F
100
AcDbEntity
  8
0
  6
Continuous
 62
     0
100
AcDbTrace
 10
81.018192
 20
111.322954
 30
0.0
 11
80.018067
 21
116.322729
 31
0.0
 12
79.018154
 22
111.322954
 32
0.0
 13
79.018154
 23
111.322954
 33
0.0
  0
SOLID
  5
1A0
100
AcDbEntity
  8
0
  6
Continuous
 62
     0
100
AcDbTrace
 10
79.018154
 20
129.321804
 30
0.0
 11
80.018067
 21
124.322242
 31
0.0
 12
81.018192
 22
129.321804
 32
0.0
 13
81.018192
 23
129.321804
 33
0.0
  0
ENDBLK
  5
1A1
100
AcDbEntity
  8
0
100
AcDbBlockEnd
  0
BLOCK
  5
1A4
100
AcDbEntity
  8
0
100
AcDbBlockBegin
  2
*B10
 70
     0
 10
0.0
 20
0.0
 30
0.0
  3
*B10
  1

  0
LINE
  5
1A5
100
AcDbEntity
  8
0
  6
Continuous
 62
     0
100
AcDbLine
 10
229.017988
 20
100.323492
 30
0.0
 11
229.017988
 21
80.324605
 31
0.0
  0
SOLID
  5
1A6
100
AcDbEntity
  8
0
  6
Continuous
 62
     0
100
AcDbTrace
 10
230.018113
 20
95.323717
 30
0.0
 11
229.017988
 21
100.323492
 31
0.0
 12
228.018075
 22
95.323717
 32
0.0
 13
228.018075
 23
95.323717
 33
0.0
  0
SOLID
  5
1A7
100
AcDbEntity
  8
0
  6
Continuous
 62
     0
100
AcDbTrace
 10
228.018075
 20
85.32438
 30
0.0
 11
229.017988
 21
80.324605
 31
0.0
 12
230.018113
 22
85.32438
 32
0.0
 13
230.018113
 23
85.32438
 33
0.0
  0
ENDBLK
  5
1A8
100
AcDbEntity
  8
0
100
AcDbBlockEnd
  0
BLOCK
  5
1AB
100
AcDbEntity
  8
0
100
AcDbBlockBegin
  2
*B11
 70
     0
 10
0.0
 20
0.0
 30
0.0
  3
*B11
  1

  0
LINE
  5
1AC
100
AcDbEntity
  8
0
  6
Continuous
 62
     0
100
AcDbLine
 10
229.017988
 20
114.322692
 30
0.0
 11
229.017988
 21
151.822066
 31
0.0
  0
SOLID
  5
1AD
100
AcDbEntity
  8
0
  6
Continuous
 62
     0
100
AcDbTrace
 10
230.018113
 20
119.322467
 30
0.0
 11
229.017988
 21
124.322242
 31
0.0
 12
228.018075
 22
119.322467
 32
0.0
 13
228.018075
 23
119.322467
 33
0.0
  0
SOLID
  5
1AE
100
AcDbEntity
  8
0
  6
Continuous
 62
     0
100
AcDbTrace
 10
228.018075
 20
132.321754
 30
0.0
 11
229.017988
 21
127.321979
 31
0.0
 12
230.018113
 22
132.321754
 32
0.0
 13
230.018113
 23
132.321754
 33
0.0
  0
ENDBLK
  5
1AF
100
AcDbEntity
  8
0
100
AcDbBlockEnd
  0
BLOCK
  5
1B2
100
AcDbEntity
  8
0
100
AcDbBlockBegin
  2
*B12
 70
     0
 10
0.0
 20
0.0
 30
0.0
  3
*B12
  1

  0
LINE
  5
1B3
100
AcDbEntity
  8
0
  6
Continuous
 62
     0
100
AcDbLine
 10
181.030473
 20
116.01173
 30
0.0
 11
218.530484
 21
116.01173
 31
0.0
  0
SOLID
  5
1B4
100
AcDbEntity
  8
0
  6
Continuous
 62
     0
100
AcDbTrace
 10
186.03046
 20
115.011606
 30
0.0
 11
191.030447
 21
116.01173
 31
0.0
 12
186.03046
 22
117.011643
 32
0.0
 13
186.03046
 23
117.011643
 33
0.0
  0
SOLID
  5
1B5
100
AcDbEntity
  8
0
  6
Continuous
 62
     0
100
AcDbTrace
 10
213.530497
 20
117.011643
 30
0.0
 11
208.530509
 21
116.01173
 31
0.0
 12
213.530497
 22
115.011606
 32
0.0
 13
213.530497
 23
115.011606
 33
0.0
  0
ENDBLK
  5
1B6
100
AcDbEntity
  8
0
100
AcDbBlockEnd
  0
BLOCK
  5
1B9
100
AcDbEntity
  8
0
100
AcDbBlockBegin
  2
*B13
 70
     0
 10
0.0
 20
0.0
 30
0.0
  3
*B13
  1

  0
LINE
  5
1BA
100
AcDbEntity
  8
0
  6
Continuous
 62
     0
100
AcDbLine
 10
153.245353
 20
67.014318
 30
0.0
 11
89.24543
 21
67.014318
 31
0.0
  0
SOLID
  5
1BB
100
AcDbEntity
  8
0
  6
Continuous
 62
     0
100
AcDbTrace
 10
148.245366
 20
66.014406
 30
0.0
 11
153.245353
 21
67.014318
 31
0.0
 12
148.245366
 22
68.014443
 32
0.0
 13
148.245366
 23
68.014443
 33
0.0
  0
SOLID
  5
1BC
100
AcDbEntity
  8
0
  6
Continuous
 62
     0
100
AcDbTrace
 10
94.245418
 20
68.014443
 30
0.0
 11
89.24543
 21
67.014318
 31
0.0
 12
94.245418
 22
66.014406
 32
0.0
 13
94.245418
 23
66.014406
 33
0.0
  0
ENDBLK
  5
1BD
100
AcDbEntity
  8
0
100
AcDbBlockEnd
  0
BLOCK
  5
1C0
100
AcDbEntity
  8
0
100
AcDbBlockBegin
  2
*B14
 70
     0
 10
0.0
 20
0.0
 30
0.0
  3
*B14
  1

  0
LINE
  5
1C1
100
AcDbEntity
  8
0
  6
Continuous
 62
     0
100
AcDbLine
 10
215.780565
 20
67.014318
 30
0.0
 11
183.780604
 21
67.014318
 31
0.0
  0
SOLID
  5
1C2
100
AcDbEntity
  8
0
  6
Continuous
 62
     0
100
AcDbTrace
 10
210.780578
 20
66.014406
 30
0.0
 11
215.780565
 21
67.014318
 31
0.0
 12
210.780578
 22
68.014443
 32
0.0
 13
210.780578
 23
68.014443
 33
0.0
  0
SOLID
  5
1C3
100
AcDbEntity
  8
0
  6
Continuous
 62
     0
100
AcDbTrace
 10
188.780591
 20
68.014443
 30
0.0
 11
183.780604
 21
67.014318
 31
0.0
 12
188.780591
 22
66.014406
 32
0.0
 13
188.780591
 23
66.014406
 33
0.0
  0
ENDBLK
  5
1C4
100
AcDbEntity
  8
0
100
AcDbBlockEnd
  0
BLOCK
  5
1C7
100
AcDbEntity
  8
0
100
AcDbBlockBegin
  2
*B15
 70
     0
 10
0.0
 20
0.0
 30
0.0
  3
*B15
  1

  0
LINE
  5
1C8
100
AcDbEntity
  8
0
  6
Continuous
 62
     8
100
AcDbLine
 10
133.245404
 20
104.012356
 30
0.0
 11
133.245404
 21
121.322292
 31
0.0
  0
ENDBLK
  5
1C9
100
AcDbEntity
  8
0
100
AcDbBlockEnd
  0
BLOCK
  5
1CC
100
AcDbEntity
  8
0
100
AcDbBlockBegin
  2
*B16
 70
     0
 10
0.0
 20
0.0
 30
0.0
  3
*B16
  1

  0
LINE
  5
1CD
100
AcDbEntity
  8
0
  6
Continuous
 62
     8
100
AcDbLine
 10
153.245353
 20
65.014493
 30
0.0
 11
153.245353
 21
77.324867
 31
0.0
  0
ENDBLK
  5
1CE
100
AcDbEntity
  8
0
100
AcDbBlockEnd
  0
BLOCK
  5
1D1
100
AcDbEntity
  8
0
100
AcDbBlockBegin
  2
*B17
 70
     0
 10
0.0
 20
0.0
 30
0.0
  3
*B17
  1

  0
LINE
  5
1D2
100
AcDbEntity
  8
0
  6
Continuous
 62
     8
100
AcDbLine
 10
218.780515
 20
80.324605
 30
0.0
 11
231.018025
 21
80.324605
 31
0.0
  0
ENDBLK
  5
1D3
100
AcDbEntity
  8
0
100
AcDbBlockEnd
  0
BLOCK
  5
1D6
100
AcDbEntity
  8
0
100
AcDbBlockBegin
  2
*B18
 70
     0
 10
0.0
 20
0.0
 30
0.0
  3
*B18
  1

  0
LINE
  5
1D7
100
AcDbEntity
  8
0
  6
Continuous
 62
     8
100
AcDbLine
 10
156.245303
 20
80.324605
 30
0.0
 11
174.518189
 21
80.324605
 31
0.0
  0
ENDBLK
  5
1D8
100
AcDbEntity
  8
0
100
AcDbBlockEnd
  0
BLOCK
  5
1DB
100
AcDbEntity
  8
0
100
AcDbBlockBegin
  2
*B19
 70
     0
 10
0.0
 20
0.0
 30
0.0
  3
*B19
  1

  0
LINE
  5
1DC
100
AcDbEntity
  8
0
  6
Continuous
 62
     8
100
AcDbLine
 10
227.018163
 20
100.323492
 30
0.0
 11
231.018025
 21
100.323492
 31
0.0
  0
LINE
  5
1DD
100
AcDbEntity
  8
0
  6
Continuous
 62
     8
100
AcDbLine
 10
185.030547
 20
100.323492
 30
0.0
 11
194.780491
 21
100.323492
 31
0.0
  0
LINE
  5
1DE
100
AcDbEntity
  8
0
  6
Continuous
 62
     8
100
AcDbLine
 10
204.780466
 20
100.323492
 30
0.0
 11
227.018163
 21
100.323492
 31
0.0
  0
ENDBLK
  5
1DF
100
AcDbEntity
  8
0
100
AcDbBlockEnd
  0
BLOCK
  5
1E2
100
AcDbEntity
  8
0
100
AcDbBlockBegin
  2
*B20
 70
     0
 10
0.0
 20
0.0
 30
0.0
  3
*B20
  1

  0
LINE
  5
1E3
100
AcDbEntity
  8
0
  6
Continuous
 62
     8
100
AcDbLine
 10
191.030447
 20
103.323442
 30
0.0
 11
191.030447
 21
118.011555
 31
0.0
  0
ENDBLK
  5
1E4
100
AcDbEntity
  8
0
100
AcDbBlockEnd
  0
BLOCK
  5
1E7
100
AcDbEntity
  8
0
100
AcDbBlockBegin
  2
*B21
 70
     0
 10
0.0
 20
0.0
 30
0.0
  3
*B21
  1

  0
LINE
  5
1E8
100
AcDbEntity
  8
0
  6
Continuous
 62
     8
100
AcDbLine
 10
121.245392
 20
74.324917
 30
0.0
 11
121.245392
 21
84.557716
 31
0.0
  0
LINE
  5
1E9
100
AcDbEntity
  8
0
  6
Continuous
 62
     8
100
AcDbLine
 10
121.245392
 20
87.557666
 30
0.0
 11
121.245392
 21
88.557579
 31
0.0
  0
LINE
  5
1EA
100
AcDbEntity
  8
0
  6
Continuous
 62
     8
100
AcDbLine
 10
121.245392
 20
91.557316
 30
0.0
 11
121.245392
 21
101.790115
 31
0.0
  0
LINE
  5
1EB
100
AcDbEntity
  8
0
  6
Continuous
 62
     8
100
AcDbLine
 10
121.245392
 20
104.789853
 30
0.0
 11
121.245392
 21
105.789978
 31
0.0
  0
LINE
  5
1EC
100
AcDbEntity
  8
0
  6
Continuous
 62
     8
100
AcDbLine
 10
121.245392
 20
108.789715
 30
0.0
 11
121.245392
 21
119.022514
 31
0.0
  0
LINE
  5
1ED
100
AcDbEntity
  8
0
  6
Continuous
 62
     8
100
AcDbLine
 10
121.245392
 20
122.022252
 30
0.0
 11
121.245392
 21
123.022164
 31
0.0
  0
LINE
  5
1EE
100
AcDbEntity
  8
0
  6
Continuous
 62
     8
100
AcDbLine
 10
121.245392
 20
126.022114
 30
0.0
 11
121.245392
 21
136.254913
 31
0.0
  0
LINE
  5
1EF
100
AcDbEntity
  8
0
  6
Continuous
 62
     8
100
AcDbLine
 10
121.245392
 20
139.254651
 30
0.0
 11
121.245392
 21
140.254563
 31
0.0
  0
LINE
  5
1F0
100
AcDbEntity
  8
0
  6
Continuous
 62
     8
100
AcDbLine
 10
121.245392
 20
143.254513
 30
0.0
 11
121.245392
 21
153.4871
 31
0.0
  0
LINE
  5
1F1
100
AcDbEntity
  8
0
  6
Continuous
 62
     8
100
AcDbLine
 10
121.245392
 20
156.48705
 30
0.0
 11
121.245392
 21
157.486962
 31
0.0
  0
LINE
  5
1F2
100
AcDbEntity
  8
0
  6
Continuous
 62
     8
100
AcDbLine
 10
121.245392
 20
160.486912
 30
0.0
 11
121.245392
 21
170.719499
 31
0.0
  0
ENDBLK
  5
1F3
100
AcDbEntity
  8
0
100
AcDbBlockEnd
  0
BLOCK
  5
1F6
100
AcDbEntity
  8
0
100
AcDbBlockBegin
  2
*B22
 70
     0
 10
0.0
 20
0.0
 30
0.0
  3
*B22
  1

  0
LINE
  5
1F7
100
AcDbEntity
  8
0
  6
Continuous
 62
     8
100
AcDbLine
 10
215.780565
 20
65.014493
 30
0.0
 11
215.780565
 21
77.324867
 31
0.0
  0
ENDBLK
  5
1F8
100
AcDbEntity
  8
0
100
AcDbBlockEnd
  0
BLOCK
  5
1FB
100
AcDbEntity
  8
0
100
AcDbBlockBegin
  2
*B23
 70
     0
 10
0.0
 20
0.0
 30
0.0
  3
*B23
  1

  0
LINE
  5
1FC
100
AcDbEntity
  8
0
  6
Continuous
 62
     8
100
AcDbLine
 10
183.780604
 20
65.014493
 30
0.0
 11
183.780604
 21
77.324867
 31
0.0
  0
ENDBLK
  5
1FD
100
AcDbEntity
  8
0
100
AcDbBlockEnd
  0
BLOCK
  5
200
100
AcDbEntity
  8
0
100
AcDbBlockBegin
  2
*B24
 70
     0
 10
0.0
 20
0.0
 30
0.0
  3
*B24
  1

  0
LINE
  5
201
100
AcDbEntity
  8
0
  6
Continuous
 62
     8
100
AcDbLine
 10
89.24543
 20
65.014493
 30
0.0
 11
89.24543
 21
77.324867
 31
0.0
  0
ENDBLK
  5
202
100
AcDbEntity
  8
0
100
AcDbBlockEnd
  0
BLOCK
  5
205
100
AcDbEntity
  8
0
100
AcDbBlockBegin
  2
*B25
 70
     0
 10
0.0
 20
0.0
 30
0.0
  3
*B25
  1

  0
LINE
  5
206
100
AcDbEntity
  8
0
  6
Continuous
 62
     8
100
AcDbLine
 10
109.24538
 20
104.012356
 30
0.0
 11
109.24538
 21
121.322292
 31
0.0
  0
ENDBLK
  5
207
100
AcDbEntity
  8
0
100
AcDbBlockEnd
  0
BLOCK
  5
20A
100
AcDbEntity
  8
0
100
AcDbBlockBegin
  2
*B26
 70
     0
 10
0.0
 20
0.0
 30
0.0
  3
*B26
  1

  0
LINE
  5
20B
100
AcDbEntity
  8
0
  6
Continuous
 62
     8
100
AcDbLine
 10
208.530509
 20
103.323442
 30
0.0
 11
208.530509
 21
118.011555
 31
0.0
  0
ENDBLK
  5
20C
100
AcDbEntity
  8
0
100
AcDbBlockEnd
  0
BLOCK
  5
20F
100
AcDbEntity
  8
0
100
AcDbBlockBegin
  2
*B27
 70
     0
 10
0.0
 20
0.0
 30
0.0
  3
*B27
  1

  0
LINE
  5
210
100
AcDbEntity
  8
0
  6
Continuous
 62
     8
100
AcDbLine
 10
219.78064
 20
127.321979
 30
0.0
 11
231.018025
 21
127.321979
 31
0.0
  0
ENDBLK
  5
211
100
AcDbEntity
  8
0
100
AcDbBlockEnd
  0
BLOCK
  5
214
100
AcDbEntity
  8
0
100
AcDbBlockBegin
  2
*B28
 70
     0
 10
0.0
 20
0.0
 30
0.0
  3
*B28
  1

  0
LINE
  5
215
100
AcDbEntity
  8
0
  6
Continuous
 62
     8
100
AcDbLine
 10
78.018242
 20
116.322729
 30
0.0
 11
82.018104
 21
116.322729
 31
0.0
  0
LINE
  5
216
100
AcDbEntity
  8
0
  6
Continuous
 62
     8
100
AcDbLine
 10
82.018104
 20
116.322729
 30
0.0
 11
92.24538
 21
116.322729
 31
0.0
  0
LINE
  5
217
100
AcDbEntity
  8
0
  6
Continuous
 62
     8
100
AcDbLine
 10
102.245355
 20
116.322729
 30
0.0
 11
117.745379
 21
116.322729
 31
0.0
  0
LINE
  5
218
100
AcDbEntity
  8
0
  6
Continuous
 62
     8
100
AcDbLine
 10
120.745329
 20
116.322729
 30
0.0
 11
121.745454
 21
116.322729
 31
0.0
  0
LINE
  5
219
100
AcDbEntity
  8
0
  6
Continuous
 62
     8
100
AcDbLine
 10
124.745404
 20
116.322729
 30
0.0
 11
140.245429
 21
116.322729
 31
0.0
  0
LINE
  5
21A
100
AcDbEntity
  8
0
  6
Continuous
 62
     8
100
AcDbLine
 10
150.245404
 20
116.322729
 30
0.0
 11
155.745453
 21
116.322729
 31
0.0
  0
ENDBLK
  5
21B
100
AcDbEntity
  8
0
100
AcDbBlockEnd
  0
BLOCK
  5
21E
100
AcDbEntity
  8
0
100
AcDbBlockBegin
  2
*B29
 70
     0
 10
0.0
 20
0.0
 30
0.0
  3
*B29
  1

  0
LINE
  5
21F
100
AcDbEntity
  8
0
  6
Continuous
 62
     8
100
AcDbLine
 10
133.84361
 20
165.319929
 30
0.0
 11
174.518189
 21
165.319929
 31
0.0
  0
ENDBLK
  5
220
100
AcDbEntity
  8
0
100
AcDbBlockEnd
  0
BLOCK
  5
223
100
AcDbEntity
  8
0
100
AcDbBlockBegin
  2
*B30
 70
     0
 10
0.0
 20
0.0
 30
0.0
  3
*B30
  1

  0
LINE
  5
224
100
AcDbEntity
  8
0
  6
Continuous
 62
     8
100
AcDbLine
 10
78.018242
 20
124.322242
 30
0.0
 11
86.24548
 21
124.322242
 31
0.0
  0
LINE
  5
225
100
AcDbEntity
  8
0
  6
Continuous
 62
     8
100
AcDbLine
 10
156.245303
 20
124.322242
 30
0.0
 11
174.518189
 21
124.322242
 31
0.0
  0
ENDBLK
  5
226
100
AcDbEntity
  8
0
100
AcDbBlockEnd
  0
BLOCK
  5
229
100
AcDbEntity
  8
0
100
AcDbBlockBegin
  2
*B31
 70
     0
 10
0.0
 20
0.0
 30
0.0
  3
*B31
  1

  0
LINE
  5
22A
100
AcDbEntity
  8
0
  6
Continuous
 62
     8
100
AcDbLine
 10
199.780478
 20
74.324917
 30
0.0
 11
199.780478
 21
95.323717
 31
0.0
  0
LINE
  5
22B
100
AcDbEntity
  8
0
  6
Continuous
 62
     8
100
AcDbLine
 10
199.780478
 20
105.323267
 30
0.0
 11
199.780478
 21
116.422572
 31
0.0
  0
LINE
  5
22C
100
AcDbEntity
  8
0
  6
Continuous
 62
     8
100
AcDbLine
 10
199.780478
 20
119.422522
 30
0.0
 11
199.780478
 21
120.422434
 31
0.0
  0
LINE
  5
22D
100
AcDbEntity
  8
0
  6
Continuous
 62
     8
100
AcDbLine
 10
199.780478
 20
123.422172
 30
0.0
 11
199.780478
 21
134.521689
 31
0.0
  0
LINE
  5
22E
100
AcDbEntity
  8
0
  6
Continuous
 62
     8
100
AcDbLine
 10
199.780478
 20
137.521427
 30
0.0
 11
199.780478
 21
138.521339
 31
0.0
  0
LINE
  5
22F
100
AcDbEntity
  8
0
  6
Continuous
 62
     8
100
AcDbLine
 10
199.780478
 20
141.521289
 30
0.0
 11
199.780478
 21
152.620594
 31
0.0
  0
LINE
  5
230
100
AcDbEntity
  8
0
  6
Continuous
 62
     8
100
AcDbLine
 10
199.780478
 20
155.620332
 30
0.0
 11
199.780478
 21
156.620456
 31
0.0
  0
LINE
  5
231
100
AcDbEntity
  8
0
  6
Continuous
 62
     8
100
AcDbLine
 10
199.780478
 20
159.620194
 30
0.0
 11
199.780478
 21
170.719499
 31
0.0
  0
ENDBLK
  5
232
100
AcDbEntity
  8
0
100
AcDbBlockEnd
  0
BLOCK
  5
235
100
AcDbEntity
  8
0
100
AcDbBlockBegin
  2
*B32
 70
     0
 10
0.0
 20
0.0
 30
0.0
  3
*B32
  1

  0
LINE
  5
236
100
AcDbEntity
  8
0
  6
Continuous
 62
     8
100
AcDbLine
 10
97.245368
 20
90.013156
 30
0.0
 11
97.245368
 21
94.012806
 31
0.0
  0
LINE
  5
237
100
AcDbEntity
  8
0
  6
Continuous
 62
     8
100
AcDbLine
 10
97.245368
 20
94.012806
 30
0.0
 11
97.245368
 21
111.322954
 31
0.0
  0
LINE
  5
238
100
AcDbEntity
  8
0
  6
Continuous
 62
     8
100
AcDbLine
 10
97.245368
 20
121.322292
 30
0.0
 11
97.245368
 21
126.822129
 31
0.0
  0
ENDBLK
  5
239
100
AcDbEntity
  8
0
100
AcDbBlockEnd
  0
BLOCK
  5
23C
100
AcDbEntity
  8
0
100
AcDbBlockBegin
  2
*B33
 70
     0
 10
0.0
 20
0.0
 30
0.0
  3
*B33
  1

  0
LINE
  5
23D
100
AcDbEntity
  8
0
  6
Continuous
 62
     8
100
AcDbLine
 10
218.780515
 20
124.322242
 30
0.0
 11
231.018025
 21
124.322242
 31
0.0
  0
ENDBLK
  5
23E
100
AcDbEntity
  8
0
100
AcDbBlockEnd
  0
BLOCK
  5
241
100
AcDbEntity
  8
0
100
AcDbBlockBegin
  2
*B34
 70
     0
 10
0.0
 20
0.0
 30
0.0
  3
*B34
  1

  0
LINE
  5
242
100
AcDbEntity
  8
0
  6
Continuous
 62
     8
100
AcDbLine
 10
145.245416
 20
90.013156
 30
0.0
 11
145.245416
 21
94.012806
 31
0.0
  0
LINE
  5
243
100
AcDbEntity
  8
0
  6
Continuous
 62
     8
100
AcDbLine
 10
145.245416
 20
94.012806
 30
0.0
 11
145.245416
 21
111.322954
 31
0.0
  0
LINE
  5
244
100
AcDbEntity
  8
0
  6
Continuous
 62
     8
100
AcDbLine
 10
145.245416
 20
121.322292
 30
0.0
 11
145.245416
 21
126.822129
 31
0.0
  0
ENDBLK
  5
245
100
AcDbEntity
  8
0
100
AcDbBlockEnd
  0
BLOCK
  5
248
100
AcDbEntity
  8
0
100
AcDbBlockBegin
  2
*B35
 70
     0
 10
0.0
 20
0.0
 30
0.0
  3
*B35
  1

  0
LINE
  5
249
100
AcDbEntity
  8
0
  6
Continuous
 62
     6
100
AcDbLine
 10
95.24533
 20
116.322729
 30
0.0
 11
99.245405
 21
116.322729
 31
0.0
  0
LINE
  5
24A
100
AcDbEntity
  8
0
  6
Continuous
 62
     6
100
AcDbLine
 10
97.245368
 20
114.322692
 30
0.0
 11
97.245368
 21
118.322554
 31
0.0
  0
ENDBLK
  5
24B
100
AcDbEntity
  8
0
100
AcDbBlockEnd
  0
BLOCK
  5
24E
100
AcDbEntity
  8
0
100
AcDbBlockBegin
  2
*B36
 70
     0
 10
0.0
 20
0.0
 30
0.0
  3
*B36
  1

  0
LINE
  5
24F
100
AcDbEntity
  8
0
  6
Continuous
 62
     6
100
AcDbLine
 10
143.245379
 20
116.322729
 30
0.0
 11
147.245454
 21
116.322729
 31
0.0
  0
LINE
  5
250
100
AcDbEntity
  8
0
  6
Continuous
 62
     6
100
AcDbLine
 10
145.245416
 20
114.322692
 30
0.0
 11
145.245416
 21
118.322554
 31
0.0
  0
ENDBLK
  5
251
100
AcDbEntity
  8
0
100
AcDbBlockEnd
  0
BLOCK
  5
254
100
AcDbEntity
  8
0
100
AcDbBlockBegin
  2
*B37
 70
     0
 10
0.0
 20
0.0
 30
0.0
  3
*B37
  1

  0
LINE
  5
255
100
AcDbEntity
  8
0
  6
Continuous
 62
     6
100
AcDbLine
 10
197.780653
 20
100.323492
 30
0.0
 11
201.780516
 21
100.323492
 31
0.0
  0
LINE
  5
256
100
AcDbEntity
  8
0
  6
Continuous
 62
     6
100
AcDbLine
 10
199.780478
 20
98.323667
 30
0.0
 11
199.780478
 21
102.323529
 31
0.0
  0
ENDBLK
  5
257
100
AcDbEntity
  8
0
100
AcDbBlockEnd
  0
BLOCK
  5
25A
100
AcDbEntity
  8
0
100
AcDbBlockBegin
  2
*B38
 70
     0
 10
0.0
 20
0.0
 30
0.0
  3
*B38
  1

  0
LINE
  5
25B
100
AcDbEntity
  8
0
  6
Continuous
 62
     0
100
AcDbLine
 10
161.018202
 20
142.635065
 30
0.0
 11
144.018203
 21
142.635065
 31
0.0
  0
LINE
  5
25C
100
AcDbEntity
  8
0
  6
Continuous
 62
     0
100
AcDbLine
 10
144.018203
 20
142.635065
 30
0.0
 11
137.018178
 21
132.010755
 31
0.0
  0
SOLID
  5
25D
100
AcDbEntity
  8
0
  6
Continuous
 62
     0
100
AcDbTrace
 10
137.94204
 20
132.393343
 30
0.0
 11
137.725148
 21
132.717726
 31
0.0
 12
137.400766
 22
132.934618
 32
0.0
 13
137.400766
 23
132.934618
 33
0.0
  0
SOLID
  5
25E
100
AcDbEntity
  8
0
  6
Continuous
 62
     0
100
AcDbTrace
 10
137.94204
 20
132.393343
 30
0.0
 11
137.400766
 21
132.934618
 31
0.0
 12
137.018178
 22
133.010668
 32
0.0
 13
137.018178
 23
133.010668
 33
0.0
  0
SOLID
  5
25F
100
AcDbEntity
  8
0
  6
Continuous
 62
     0
100
AcDbTrace
 10
137.94204
 20
132.393343
 30
0.0
 11
137.018178
 21
133.010668
 31
0.0
 12
136.635377
 22
132.934618
 32
0.0
 13
136.635377
 23
132.934618
 33
0.0
  0
SOLID
  5
260
100
AcDbEntity
  8
0
  6
Continuous
 62
     0
100
AcDbTrace
 10
137.94204
 20
132.393343
 30
0.0
 11
136.635377
 21
132.934618
 31
0.0
 12
136.310995
 22
132.717726
 32
0.0
 13
136.310995
 23
132.717726
 33
0.0
  0
SOLID
  5
261
100
AcDbEntity
  8
0
  6
Continuous
 62
     0
100
AcDbTrace
 10
137.94204
 20
132.393343
 30
0.0
 11
136.310995
 21
132.717726
 31
0.0
 12
136.094316
 22
132.393343
 32
0.0
 13
136.094316
 23
132.393343
 33
0.0
  0
SOLID
  5
262
100
AcDbEntity
  8
0
  6
Continuous
 62
     0
100
AcDbTrace
 10
137.94204
 20
132.393343
 30
0.0
 11
136.094316
 21
132.393343
 31
0.0
 12
136.018053
 22
132.010755
 32
0.0
 13
136.018053
 23
132.010755
 33
0.0
  0
SOLID
  5
263
100
AcDbEntity
  8
0
  6
Continuous
 62
     0
100
AcDbTrace
 10
137.94204
 20
132.393343
 30
0.0
 11
136.018053
 21
132.010755
 31
0.0
 12
136.094316
 22
131.628167
 32
0.0
 13
136.094316
 23
131.628167
 33
0.0
  0
SOLID
  5
264
100
AcDbEntity
  8
0
  6
Continuous
 62
     0
100
AcDbTrace
 10
137.94204
 20
132.393343
 30
0.0
 11
136.094316
 21
131.628167
 31
0.0
 12
136.310995
 22
131.303573
 32
0.0
 13
136.310995
 23
131.303573
 33
0.0
  0
SOLID
  5
265
100
AcDbEntity
  8
0
  6
Continuous
 62
     0
100
AcDbTrace
 10
137.94204
 20
132.393343
 30
0.0
 11
136.310995
 21
131.303573
 31
0.0
 12
136.635377
 22
131.086893
 32
0.0
 13
136.635377
 23
131.086893
 33
0.0
  0
SOLID
  5
266
100
AcDbEntity
  8
0
  6
Continuous
 62
     0
100
AcDbTrace
 10
137.94204
 20
132.393343
 30
0.0
 11
136.635377
 21
131.086893
 31
0.0
 12
137.018178
 22
131.010843
 32
0.0
 13
137.018178
 23
131.010843
 33
0.0
  0
SOLID
  5
267
100
AcDbEntity
  8
0
  6
Continuous
 62
     0
100
AcDbTrace
 10
137.94204
 20
132.393343
 30
0.0
 11
137.018178
 21
131.010843
 31
0.0
 12
137.400766
 22
131.086893
 32
0.0
 13
137.400766
 23
131.086893
 33
0.0
  0
SOLID
  5
268
100
AcDbEntity
  8
0
  6
Continuous
 62
     0
100
AcDbTrace
 10
137.94204
 20
132.393343
 30
0.0
 11
137.400766
 21
131.086893
 31
0.0
 12
137.725148
 22
131.303573
 32
0.0
 13
137.725148
 23
131.303573
 33
0.0
  0
SOLID
  5
269
100
AcDbEntity
  8
0
  6
Continuous
 62
     0
100
AcDbTrace
 10
137.94204
 20
132.393343
 30
0.0
 11
137.725148
 21
131.303573
 31
0.0
 12
137.94204
 22
131.628167
 32
0.0
 13
137.94204
 23
131.628167
 33
0.0
  0
SOLID
  5
26A
100
AcDbEntity
  8
0
  6
Continuous
 62
     0
100
AcDbTrace
 10
137.94204
 20
132.393343
 30
0.0
 11
137.94204
 21
131.628167
 31
0.0
 12
138.01809
 22
132.010755
 32
0.0
 13
138.01809
 23
132.010755
 33
0.0
  0
ENDBLK
  5
26B
100
AcDbEntity
  8
0
100
AcDbBlockEnd
  0
BLOCK
  5
26E
100
AcDbEntity
  8
0
100
AcDbBlockBegin
  2
*B39
 70
     0
 10
0.0
 20
0.0
 30
0.0
  3
*B39
  1

  0
LINE
  5
26F
100
AcDbEntity
  8
0
  6
Continuous
 62
     0
100
AcDbLine
 10
150.851469
 20
155.634352
 30
0.0
 11
137.184724
 21
155.634352
 31
0.0
  0
LINE
  5
270
100
AcDbEntity
  8
0
  6
Continuous
 62
     0
100
AcDbLine
 10
137.184724
 20
155.634352
 30
0.0
 11
129.018028
 21
143.510068
 31
0.0
  0
SOLID
  5
271
100
AcDbEntity
  8
0
  6
Continuous
 62
     0
100
AcDbTrace
 10
129.942103
 20
143.892656
 30
0.0
 11
129.725211
 21
144.21725
 31
0.0
 12
129.400829
 22
144.43393
 32
0.0
 13
129.400829
 23
144.43393
 33
0.0
  0
SOLID
  5
272
100
AcDbEntity
  8
0
  6
Continuous
 62
     0
100
AcDbTrace
 10
129.942103
 20
143.892656
 30
0.0
 11
129.400829
 21
144.43393
 31
0.0
 12
129.018028
 22
144.50998
 32
0.0
 13
129.018028
 23
144.50998
 33
0.0
  0
SOLID
  5
273
100
AcDbEntity
  8
0
  6
Continuous
 62
     0
100
AcDbTrace
 10
129.942103
 20
143.892656
 30
0.0
 11
129.018028
 21
144.50998
 31
0.0
 12
128.63544
 22
144.43393
 32
0.0
 13
128.63544
 23
144.43393
 33
0.0
  0
SOLID
  5
274
100
AcDbEntity
  8
0
  6
Continuous
 62
     0
100
AcDbTrace
 10
129.942103
 20
143.892656
 30
0.0
 11
128.63544
 21
144.43393
 31
0.0
 12
128.311058
 22
144.21725
 32
0.0
 13
128.311058
 23
144.21725
 33
0.0
  0
SOLID
  5
275
100
AcDbEntity
  8
0
  6
Continuous
 62
     0
100
AcDbTrace
 10
129.942103
 20
143.892656
 30
0.0
 11
128.311058
 21
144.21725
 31
0.0
 12
128.094166
 22
143.892656
 32
0.0
 13
128.094166
 23
143.892656
 33
0.0
  0
SOLID
  5
276
100
AcDbEntity
  8
0
  6
Continuous
 62
     0
100
AcDbTrace
 10
129.942103
 20
143.892656
 30
0.0
 11
128.094166
 21
143.892656
 31
0.0
 12
128.018116
 22
143.510068
 32
0.0
 13
128.018116
 23
143.510068
 33
0.0
  0
SOLID
  5
277
100
AcDbEntity
  8
0
  6
Continuous
 62
     0
100
AcDbTrace
 10
129.942103
 20
143.892656
 30
0.0
 11
128.018116
 21
143.510068
 31
0.0
 12
128.094166
 22
143.12748
 32
0.0
 13
128.094166
 23
143.12748
 33
0.0
  0
SOLID
  5
278
100
AcDbEntity
  8
0
  6
Continuous
 62
     0
100
AcDbTrace
 10
129.942103
 20
143.892656
 30
0.0
 11
128.094166
 21
143.12748
 31
0.0
 12
128.311058
 22
142.803097
 32
0.0
 13
128.311058
 23
142.803097
 33
0.0
  0
SOLID
  5
279
100
AcDbEntity
  8
0
  6
Continuous
 62
     0
100
AcDbTrace
 10
129.942103
 20
143.892656
 30
0.0
 11
128.311058
 21
142.803097
 31
0.0
 12
128.63544
 22
142.586205
 32
0.0
 13
128.63544
 23
142.586205
 33
0.0
  0
SOLID
  5
27A
100
AcDbEntity
  8
0
  6
Continuous
 62
     0
100
AcDbTrace
 10
129.942103
 20
143.892656
 30
0.0
 11
128.63544
 21
142.586205
 31
0.0
 12
129.018028
 22
142.510155
 32
0.0
 13
129.018028
 23
142.510155
 33
0.0
  0
SOLID
  5
27B
100
AcDbEntity
  8
0
  6
Continuous
 62
     0
100
AcDbTrace
 10
129.942103
 20
143.892656
 30
0.0
 11
129.018028
 21
142.510155
 31
0.0
 12
129.400829
 22
142.586205
 32
0.0
 13
129.400829
 23
142.586205
 33
0.0
  0
SOLID
  5
27C
100
AcDbEntity
  8
0
  6
Continuous
 62
     0
100
AcDbTrace
 10
129.942103
 20
143.892656
 30
0.0
 11
129.400829
 21
142.586205
 31
0.0
 12
129.725211
 22
142.803097
 32
0.0
 13
129.725211
 23
142.803097
 33
0.0
  0
SOLID
  5
27D
100
AcDbEntity
  8
0
  6
Continuous
 62
     0
100
AcDbTrace
 10
129.942103
 20
143.892656
 30
0.0
 11
129.725211
 21
142.803097
 31
0.0
 12
129.942103
 22
143.12748
 32
0.0
 13
129.942103
 23
143.12748
 33
0.0
  0
SOLID
  5
27E
100
AcDbEntity
  8
0
  6
Continuous
 62
     0
100
AcDbTrace
 10
129.942103
 20
143.892656
 30
0.0
 11
129.942103
 21
143.12748
 31
0.0
 12
130.018153
 22
143.510068
 32
0.0
 13
130.018153
 23
143.510068
 33
0.0
  0
ENDBLK
  5
27F
100
AcDbEntity
  8
0
100
AcDbBlockEnd
  0
BLOCK
  5
282
100
AcDbEntity
  8
0
100
AcDbBlockBegin
  2
*B40
 70
     0
 10
0.0
 20
0.0
 30
0.0
  3
*B40
  1

  0
LINE
  5
283
100
AcDbEntity
  8
0
  6
Continuous
 62
     0
100
AcDbLine
 10
73.091118
 20
136.63559
 30
0.0
 11
89.324455
 21
136.63559
 31
0.0
  0
LINE
  5
284
100
AcDbEntity
  8
0
  6
Continuous
 62
     0
100
AcDbLine
 10
89.324455
 20
136.63559
 30
0.0
 11
95.610711
 21
120.514842
 31
0.0
  0
SOLID
  5
285
100
AcDbEntity
  8
0
  6
Continuous
 62
     0
100
AcDbTrace
 10
92.862492
 20
124.809771
 30
0.0
 11
95.610711
 21
120.514842
 31
0.0
 12
94.725936
 22
125.536285
 32
0.0
 13
94.725936
 23
125.536285
 33
0.0
  0
ENDBLK
  5
286
100
AcDbEntity
  8
0
100
AcDbBlockEnd
  0
BLOCK
  5
289
100
AcDbEntity
  8
0
100
AcDbBlockBegin
  2
*B41
 70
     0
 10
0.0
 20
0.0
 30
0.0
  3
*B41
  1

  0
TEXT
  5
28A
100
AcDbEntity
  8
TEXT
  6
Continuous
 62
     0
100
AcDbText
 10
147.0
 20
145.25
 30
0.0
 40
3.5
  1
SW17
100
AcDbText
  0
ENDBLK
  5
28B
100
AcDbEntity
  8
0
100
AcDbBlockEnd
  0
BLOCK
  5
28E
100
AcDbEntity
  8
0
100
AcDbBlockBegin
  2
*B42
 70
     0
 10
0.0
 20
0.0
 30
0.0
  3
*B42
  1

  0
TEXT
  5
28F
100
AcDbEntity
  8
TEXT
  6
Continuous
 62
     0
100
AcDbText
 10
140.166667
 20
158.25
 30
0.0
 40
3.5
  1
SW9
100
AcDbText
  0
ENDBLK
  5
290
100
AcDbEntity
  8
0
100
AcDbBlockEnd
  0
BLOCK
  5
293
100
AcDbEntity
  8
0
100
AcDbBlockBegin
  2
*B43
 70
     0
 10
0.0
 20
0.0
 30
0.0
  3
*B43
  1

  0
TEXT
  5
294
100
AcDbEntity
  8
TEXT
  6
Continuous
 62
     0
100
AcDbText
 10
73.072917
 20
139.25
 30
0.0
 40
3.5
  1
%%c4,5
100
AcDbText
  0
ENDBLK
  5
295
100
AcDbEntity
  8
0
100
AcDbBlockEnd
  0
BLOCK
  5
298
100
AcDbEntity
  8
0
100
AcDbBlockBegin
  2
*B44
 70
     0
 10
0.0
 20
0.0
 30
0.0
  3
*B44
  1

  0
TEXT
  5
299
100
AcDbEntity
  8
TEXT
  6
Continuous
 62
     0
100
AcDbText
 10
170.75
 20
98.977672
 30
0.0
 40
3.5
  1
22
 50
90.0
100
AcDbText
  0
ENDBLK
  5
29A
100
AcDbEntity
  8
0
100
AcDbBlockEnd
  0
BLOCK
  5
29D
100
AcDbEntity
  8
0
100
AcDbBlockBegin
  2
*B45
 70
     0
 10
0.0
 20
0.0
 30
0.0
  3
*B45
  1

  0
TEXT
  5
29E
100
AcDbEntity
  8
TEXT
  6
Continuous
 62
     0
100
AcDbText
 10
170.75
 20
132.977672
 30
0.0
 40
3.5
  1
21 ... 27
 50
90.0
100
AcDbText
  0
ENDBLK
  5
29F
100
AcDbEntity
  8
0
100
AcDbBlockEnd
  0
BLOCK
  5
2A2
100
AcDbEntity
  8
0
100
AcDbBlockBegin
  2
*B46
 70
     0
 10
0.0
 20
0.0
 30
0.0
  3
*B46
  1

  0
TEXT
  5
2A3
100
AcDbEntity
  8
TEXT
  6
Continuous
 62
     0
100
AcDbText
 10
112.810606
 20
107.75
 30
0.0
 40
3.5
  1
M12x1
100
AcDbText
  0
ENDBLK
  5
2A4
100
AcDbEntity
  8
0
100
AcDbBlockEnd
  0
BLOCK
  5
2A7
100
AcDbEntity
  8
0
100
AcDbBlockBegin
  2
*B47
 70
     0
 10
0.0
 20
0.0
 30
0.0
  3
*B47
  1

  0
TEXT
  5
2A8
100
AcDbEntity
  8
TEXT
  6
Continuous
 62
     0
100
AcDbText
 10
117.89394
 20
93.75
 30
0.0
 40
3.5
  1
24
100
AcDbText
  0
ENDBLK
  5
2A9
100
AcDbEntity
  8
0
100
AcDbBlockEnd
  0
BLOCK
  5
2AC
100
AcDbEntity
  8
0
100
AcDbBlockBegin
  2
*B48
 70
     0
 10
0.0
 20
0.0
 30
0.0
  3
*B48
  1

  0
TEXT
  5
2AD
100
AcDbEntity
  8
TEXT
  6
Continuous
 62
     0
100
AcDbText
 10
78.25
 20
118.644339
 30
0.0
 40
3.5
  1
4
 50
90.0
100
AcDbText
  0
ENDBLK
  5
2AE
100
AcDbEntity
  8
0
100
AcDbBlockEnd
  0
BLOCK
  5
2B1
100
AcDbEntity
  8
0
100
AcDbBlockBegin
  2
*B49
 70
     0
 10
0.0
 20
0.0
 30
0.0
  3
*B49
  1

  0
TEXT
  5
2B2
100
AcDbEntity
  8
TEXT
  6
Continuous
 62
     0
100
AcDbText
 10
227.25
 20
86.166667
 30
0.0
 40
3.5
  1
10
 50
90.0
100
AcDbText
  0
ENDBLK
  5
2B3
100
AcDbEntity
  8
0
100
AcDbBlockEnd
  0
BLOCK
  5
2B6
100
AcDbEntity
  8
0
100
AcDbBlockBegin
  2
*B50
 70
     0
 10
0.0
 20
0.0
 30
0.0
  3
*B50
  1

  0
TEXT
  5
2B7
100
AcDbEntity
  8
TEXT
  6
Continuous
 62
     0
100
AcDbText
 10
227.25
 20
133.5
 30
0.0
 40
3.5
  1
0 ... 3
 50
90.0
100
AcDbText
  0
ENDBLK
  5
2B8
100
AcDbEntity
  8
0
100
AcDbBlockEnd
  0
BLOCK
  5
2BB
100
AcDbEntity
  8
0
100
AcDbBlockBegin
  2
*B51
 70
     0
 10
0.0
 20
0.0
 30
0.0
  3
*B51
  1

  0
TEXT
  5
2BC
100
AcDbEntity
  8
TEXT
  6
Continuous
 62
     0
100
AcDbText
 10
192.25
 20
117.75
 30
0.0
 40
3.5
  1
G1/8"
100
AcDbText
  0
ENDBLK
  5
2BD
100
AcDbEntity
  8
0
100
AcDbBlockEnd
  0
BLOCK
  5
2C0
100
AcDbEntity
  8
0
100
AcDbBlockBegin
  2
*B52
 70
     0
 10
0.0
 20
0.0
 30
0.0
  3
*B52
  1

  0
TEXT
  5
2C1
100
AcDbEntity
  8
TEXT
  6
Continuous
 62
     0
100
AcDbText
 10
117.89394
 20
68.75
 30
0.0
 40
3.5
  1
32
100
AcDbText
  0
ENDBLK
  5
2C2
100
AcDbEntity
  8
0
100
AcDbBlockEnd
  0
BLOCK
  5
2C5
100
AcDbEntity
  8
0
100
AcDbBlockBegin
  2
*B53
 70
     0
 10
0.0
 20
0.0
 30
0.0
  3
*B53
  1

  0
TEXT
  5
2C6
100
AcDbEntity
  8
TEXT
  6
Continuous
 62
     0
100
AcDbText
 10
196.42911
 20
68.75
 30
0.0
 40
3.5
  1
16
100
AcDbText
  0
ENDBLK
  5
2C7
100
AcDbEntity
  8
0
100
AcDbBlockEnd
  0
ENDSEC
  0
SECTION
  2
ENTITIES
  0
INSERT
  5
34
100
AcDbEntity
  8
0
  6
Continuous
 62
   172
100
AcDbBlockReference
  2
*B0
 10
0.0
 20
0.0
 30
0.0
  0
INSERT
  5
47
100
AcDbEntity
  8
0
  6
Continuous
 62
   112
100
AcDbBlockReference
  2
*B2
 10
0.0
 20
0.0
 30
0.0
  0
INSERT
  5
E2
100
AcDbEntity
  8
0
  6
Continuous
 62
   174
100
AcDbBlockReference
  2
*B3
 10
0.0
 20
0.0
 30
0.0
  0
INSERT
  5
17F
100
AcDbEntity
  8
0
  6
Continuous
 62
   174
100
AcDbBlockReference
  2
*B4
 10
0.0
 20
0.0
 30
0.0
  0
INSERT
  5
186
100
AcDbEntity
  8
0
  6
Continuous
 62
     0
100
AcDbBlockReference
  2
*B5
 10
0.0
 20
0.0
 30
0.0
  0
INSERT
  5
18D
100
AcDbEntity
  8
0
  6
Continuous
 62
     0
100
AcDbBlockReference
  2
*B6
 10
0.0
 20
0.0
 30
0.0
  0
INSERT
  5
194
100
AcDbEntity
  8
0
  6
Continuous
 62
     0
100
AcDbBlockReference
  2
*B7
 10
0.0
 20
0.0
 30
0.0
  0
INSERT
  5
19B
100
AcDbEntity
  8
0
  6
Continuous
 62
     0
100
AcDbBlockReference
  2
*B8
 10
0.0
 20
0.0
 30
0.0
  0
INSERT
  5
1A2
100
AcDbEntity
  8
0
  6
Continuous
 62
     0
100
AcDbBlockReference
  2
*B9
 10
0.0
 20
0.0
 30
0.0
  0
INSERT
  5
1A9
100
AcDbEntity
  8
0
  6
Continuous
 62
     0
100
AcDbBlockReference
  2
*B10
 10
0.0
 20
0.0
 30
0.0
  0
INSERT
  5
1B0
100
AcDbEntity
  8
0
  6
Continuous
 62
     0
100
AcDbBlockReference
  2
*B11
 10
0.0
 20
0.0
 30
0.0
  0
INSERT
  5
1B7
100
AcDbEntity
  8
0
  6
Continuous
 62
     0
100
AcDbBlockReference
  2
*B12
 10
0.0
 20
0.0
 30
0.0
  0
INSERT
  5
1BE
100
AcDbEntity
  8
0
  6
Continuous
 62
     0
100
AcDbBlockReference
  2
*B13
 10
0.0
 20
0.0
 30
0.0
  0
INSERT
  5
1C5
100
AcDbEntity
  8
0
  6
Continuous
 62
     0
100
AcDbBlockReference
  2
*B14
 10
0.0
 20
0.0
 30
0.0
  0
INSERT
  5
1CA
100
AcDbEntity
  8
0
  6
Continuous
 62
     8
100
AcDbBlockReference
  2
*B15
 10
0.0
 20
0.0
 30
0.0
  0
INSERT
  5
1CF
100
AcDbEntity
  8
0
  6
Continuous
 62
     8
100
AcDbBlockReference
  2
*B16
 10
0.0
 20
0.0
 30
0.0
  0
INSERT
  5
1D4
100
AcDbEntity
  8
0
  6
Continuous
 62
     8
100
AcDbBlockReference
  2
*B17
 10
0.0
 20
0.0
 30
0.0
  0
INSERT
  5
1D9
100
AcDbEntity
  8
0
  6
Continuous
 62
     8
100
AcDbBlockReference
  2
*B18
 10
0.0
 20
0.0
 30
0.0
  0
INSERT
  5
1E0
100
AcDbEntity
  8
0
  6
Continuous
 62
     8
100
AcDbBlockReference
  2
*B19
 10
0.0
 20
0.0
 30
0.0
  0
INSERT
  5
1E5
100
AcDbEntity
  8
0
  6
Continuous
 62
     8
100
AcDbBlockReference
  2
*B20
 10
0.0
 20
0.0
 30
0.0
  0
INSERT
  5
1F4
100
AcDbEntity
  8
0
  6
Continuous
 62
     8
100
AcDbBlockReference
  2
*B21
 10
0.0
 20
0.0
 30
0.0
  0
INSERT
  5
1F9
100
AcDbEntity
  8
0
  6
Continuous
 62
     8
100
AcDbBlockReference
  2
*B22
 10
0.0
 20
0.0
 30
0.0
  0
INSERT
  5
1FE
100
AcDbEntity
  8
0
  6
Continuous
 62
     8
100
AcDbBlockReference
  2
*B23
 10
0.0
 20
0.0
 30
0.0
  0
INSERT
  5
203
100
AcDbEntity
  8
0
  6
Continuous
 62
     8
100
AcDbBlockReference
  2
*B24
 10
0.0
 20
0.0
 30
0.0
  0
INSERT
  5
208
100
AcDbEntity
  8
0
  6
Continuous
 62
     8
100
AcDbBlockReference
  2
*B25
 10
0.0
 20
0.0
 30
0.0
  0
INSERT
  5
20D
100
AcDbEntity
  8
0
  6
Continuous
 62
     8
100
AcDbBlockReference
  2
*B26
 10
0.0
 20
0.0
 30
0.0
  0
INSERT
  5
212
100
AcDbEntity
  8
0
  6
Continuous
 62
     8
100
AcDbBlockReference
  2
*B27
 10
0.0
 20
0.0
 30
0.0
  0
INSERT
  5
21C
100
AcDbEntity
  8
0
  6
Continuous
 62
     8
100
AcDbBlockReference
  2
*B28
 10
0.0
 20
0.0
 30
0.0
  0
INSERT
  5
221
100
AcDbEntity
  8
0
  6
Continuous
 62
     8
100
AcDbBlockReference
  2
*B29
 10
0.0
 20
0.0
 30
0.0
  0
INSERT
  5
227
100
AcDbEntity
  8
0
  6
Continuous
 62
     8
100
AcDbBlockReference
  2
*B30
 10
0.0
 20
0.0
 30
0.0
  0
INSERT
  5
233
100
AcDbEntity
  8
0
  6
Continuous
 62
     8
100
AcDbBlockReference
  2
*B31
 10
0.0
 20
0.0
 30
0.0
  0
INSERT
  5
23A
100
AcDbEntity
  8
0
  6
Continuous
 62
     8
100
AcDbBlockReference
  2
*B32
 10
0.0
 20
0.0
 30
0.0
  0
INSERT
  5
23F
100
AcDbEntity
  8
0
  6
Continuous
 62
     8
100
AcDbBlockReference
  2
*B33
 10
0.0
 20
0.0
 30
0.0
  0
INSERT
  5
246
100
AcDbEntity
  8
0
  6
Continuous
 62
     8
100
AcDbBlockReference
  2
*B34
 10
0.0
 20
0.0
 30
0.0
  0
INSERT
  5
24C
100
AcDbEntity
  8
0
  6
Continuous
 62
     6
100
AcDbBlockReference
  2
*B35
 10
0.0
 20
0.0
 30
0.0
  0
INSERT
  5
252
100
AcDbEntity
  8
0
  6
Continuous
 62
     6
100
AcDbBlockReference
  2
*B36
 10
0.0
 20
0.0
 30
0.0
  0
INSERT
  5
258
100
AcDbEntity
  8
0
  6
Continuous
 62
     6
100
AcDbBlockReference
  2
*B37
 10
0.0
 20
0.0
 30
0.0
  0
INSERT
  5
26C
100
AcDbEntity
  8
0
  6
Continuous
 62
     0
100
AcDbBlockReference
  2
*B38
 10
0.0
 20
0.0
 30
0.0
  0
INSERT
  5
280
100
AcDbEntity
  8
0
  6
Continuous
 62
     0
100
AcDbBlockReference
  2
*B39
 10
0.0
 20
0.0
 30
0.0
  0
INSERT
  5
287
100
AcDbEntity
  8
0
  6
Continuous
 62
     0
100
AcDbBlockReference
  2
*B40
 10
0.0
 20
0.0
 30
0.0
  0
INSERT
  5
28C
100
AcDbEntity
  8
TEXT
  6
Continuous
 62
     0
100
AcDbBlockReference
  2
*B41
 10
0.0
 20
0.0
 30
0.0
  0
INSERT
  5
291
100
AcDbEntity
  8
TEXT
  6
Continuous
 62
     0
100
AcDbBlockReference
  2
*B42
 10
0.0
 20
0.0
 30
0.0
  0
INSERT
  5
296
100
AcDbEntity
  8
TEXT
  6
Continuous
 62
     0
100
AcDbBlockReference
  2
*B43
 10
0.0
 20
0.0
 30
0.0
  0
INSERT
  5
29B
100
AcDbEntity
  8
TEXT
  6
Continuous
 62
     0
100
AcDbBlockReference
  2
*B44
 10
0.0
 20
0.0
 30
0.0
  0
INSERT
  5
2A0
100
AcDbEntity
  8
TEXT
  6
Continuous
 62
     0
100
AcDbBlockReference
  2
*B45
 10
0.0
 20
0.0
 30
0.0
  0
INSERT
  5
2A5
100
AcDbEntity
  8
TEXT
  6
Continuous
 62
     0
100
AcDbBlockReference
  2
*B46
 10
0.0
 20
0.0
 30
0.0
  0
INSERT
  5
2AA
100
AcDbEntity
  8
TEXT
  6
Continuous
 62
     0
100
AcDbBlockReference
  2
*B47
 10
0.0
 20
0.0
 30
0.0
  0
INSERT
  5
2AF
100
AcDbEntity
  8
TEXT
  6
Continuous
 62
     0
100
AcDbBlockReference
  2
*B48
 10
0.0
 20
0.0
 30
0.0
  0
INSERT
  5
2B4
100
AcDbEntity
  8
TEXT
  6
Continuous
 62
     0
100
AcDbBlockReference
  2
*B49
 10
0.0
 20
0.0
 30
0.0
  0
INSERT
  5
2B9
100
AcDbEntity
  8
TEXT
  6
Continuous
 62
     0
100
AcDbBlockReference
  2
*B50
 10
0.0
 20
0.0
 30
0.0
  0
INSERT
  5
2BE
100
AcDbEntity
  8
TEXT
  6
Continuous
 62
     0
100
AcDbBlockReference
  2
*B51
 10
0.0
 20
0.0
 30
0.0
  0
INSERT
  5
2C3
100
AcDbEntity
  8
TEXT
  6
Continuous
 62
     0
100
AcDbBlockReference
  2
*B52
 10
0.0
 20
0.0
 30
0.0
  0
INSERT
  5
2C8
100
AcDbEntity
  8
TEXT
  6
Continuous
 62
     0
100
AcDbBlockReference
  2
*B53
 10
0.0
 20
0.0
 30
0.0
  0
ENDSEC
  0
SECTION
  2
OBJECTS
  0
DICTIONARY
  5
19
100
AcDbDictionary
280
     0
281
     1
  3
ACAD_GROUP
350
1A
  3
ACAD_MLINESTYLE
350
1B
  3
ACAD_LAYOUT
350
1E
  3
ACAD_PLOTSETTINGS
350
22
  3
ACAD_PLOTSTYLENAME
350
1F
  3
ACAD_WIPEOUT_VARS
350
23
  0
DICTIONARY
  5
1A
102
{ACAD_REACTORS
330
19
102
}
100
AcDbDictionary
280
     0
281
     1
  0
DICTIONARY
  5
1B
102
{ACAD_REACTORS
330
19
102
}
100
AcDbDictionary
280
     0
281
     1
  3
Standard
350
1C
  0
MLINESTYLE
  5
1C
102
{ACAD_REACTORS
330
1B
102
}
100
AcDbMlineStyle
  2
Standard
 70
     0
  3

 62
     0
 51
90.0
 52
90.0
 71
     2
 49
0.5
 62
   256
  6
BYLAYER
 49
-0.5
 62
   256
  6
BYLAYER
  0
ACDBDICTIONARYWDFLT
  5
1F
102
{ACAD_REACTORS
330
19
102
}
100
AcDbDictionary
281
     1
  3
Normal
350
1D
100
AcDbDictionaryWithDefault
340
1D
  0
ACDBPLACEHOLDER
  5
1D
102
{ACAD_REACTORS
330
1F
102
}
  0
LAYOUT
  5
20
102
{ACAD_REACTORS
330
1E
102
}
100
AcDbPlotSettings
  1

  2

  4

  6

 40
0.0
 41
0.0
 42
0.0
 43
0.0
 44
0.0
 45
0.0
 46
0.0
 47
0.0
 48
0.0
 49
0.0
140
0.0
141
0.0
142
1.0
143
1.0
 70
     0
 72
     0
 73
     0
 74
     0
  7

 75
     0
147
1.0
148
0.0
149
0.0
100
AcDbLayout
  1
Model
 70
     0
 71
     0
 10
0.0
 20
0.0
 11
0.0
 21
0.0
 12
0.0
 22
0.0
 32
0.0
 14
0.0
 24
0.0
 34
0.0
 15
0.0
 25
0.0
 35
0.0
146
0.0
 13
0.0
 23
0.0
 33
0.0
 16
0.0
 26
0.0
 36
0.0
 17
0.0
 27
0.0
 37
0.0
 76
     0
330
A
331
0
345
0
346
0
  0
LAYOUT
  5
21
102
{ACAD_REACTORS
330
1E
102
}
100
AcDbPlotSettings
  1

  2

  4

  6

 40
0.0
 41
0.0
 42
0.0
 43
0.0
 44
0.0
 45
0.0
 46
0.0
 47
0.0
 48
0.0
 49
0.0
140
0.0
141
0.0
142
1.0
143
1.0
 70
     0
 72
     0
 73
     0
 74
     0
  7

 75
     0
147
1.0
148
0.0
149
0.0
100
AcDbLayout
  1
Layout1
 70
     0
 71
     0
 10
0.0
 20
0.0
 11
0.0
 21
0.0
 12
0.0
 22
0.0
 32
0.0
 14
0.0
 24
0.0
 34
0.0
 15
0.0
 25
0.0
 35
0.0
146
0.0
 13
0.0
 23
0.0
 33
0.0
 16
0.0
 26
0.0
 36
0.0
 17
0.0
 27
0.0
 37
0.0
 76
     0
330
B
331
0
345
0
346
0
  0
DICTIONARY
  5
1E
102
{ACAD_REACTORS
330
19
102
}
100
AcDbDictionary
280
     0
281
     1
  3
Layout1
350
21
  3
Model
350
20
  0
DICTIONARY
  5
22
102
{ACAD_REACTORS
330
19
102
}
100
AcDbDictionary
280
     0
281
     1
  0
WIPEOUTVARIABLES
  5
23
100
AcDbWipeoutVariables
 70
     1
  0
ENDSEC
  0
EOF
