  0
SECTION
  2
HEADER
  9
$ACADVER
  1
AC1015
  9
$ACADMAINTVER
 70
     6
  9
$DWGCODEPAGE
  3
DOS850
  9
$INSBASE
 10
0.0
 20
0.0
 30
0.0
  9
$EXTMIN
 10
0.0
 20
0.0
 30
0.0
  9
$EXTMAX
 10
297.0
 20
210.0
 30
0.0
  9
$LIMMIN
 10
0.0
 20
0.0
  9
$LIMMAX
 10
297.0
 20
210.0
  9
$ORTHOMODE
 70
     0
  9
$REGENMODE
 70
     1
  9
$FILLMODE
 70
     1
  9
$QTEXTMODE
 70
     0
  9
$MIRRTEXT
 70
     1
  9
$LTSCALE
 40
25.4
  9
$ATTMODE
 70
     1
  9
$TEXTSIZE
 40
3.5
  9
$TRACEWID
 40
0.05
  9
$TEXTSTYLE
  7
Standard
  9
$CLAYER
  8
0
  9
$CELTYPE
  6
Continuous
  9
$CECOLOR
 62
   256
  9
$CELTSCALE
 40
1.0
  9
$DISPSILH
 70
     0
  9
$DIMSCALE
 40
1.0
  9
$DIMASZ
 40
5.0
  9
$DIMEXO
 40
3.0
  9
$DIMDLI
 40
0.38
  9
$DIMRND
 40
0.0
  9
$DIMDLE
 40
0.0
  9
$DIMEXE
 40
2.0
  9
$DIMTP
 40
0.0
  9
$DIMTM
 40
0.0
  9
$DIMTXT
 40
3.5
  9
$DIMCEN
 40
4.0
  9
$DIMTSZ
 40
0.0
  9
$DIMTOL
 70
     0
  9
$DIMLIM
 70
     0
  9
$DIMTIH
 70
     1
  9
$DIMTOH
 70
     1
  9
$DIMSE1
 70
     0
  9
$DIMSE2
 70
     0
  9
$DIMTAD
 70
     0
  9
$DIMZIN
 70
     0
  9
$DIMBLK
  1

  9
$DIMASO
 70
     1
  9
$DIMSHO
 70
     1
  9
$DIMPOST
  1

  9
$DIMAPOST
  1

  9
$DIMALT
 70
     0
  9
$DIMALTD
 70
     2
  9
$DIMALTF
 40
25.4
  9
$DIMLFAC
 40
1.0
  9
$DIMTOFL
 70
     0
  9
$DIMTVP
 40
0.0
  9
$DIMTIX
 70
     0
  9
$DIMSOXD
 70
     0
  9
$DIMSAH
 70
     0
  9
$DIMBLK1
  1

  9
$DIMBLK2
  1

  9
$DIMSTYLE
  2
Standard
  9
$DIMCLRD
 70
     0
  9
$DIMCLRE
 70
     0
  9
$DIMCLRT
 70
     0
  9
$DIMTFAC
 40
1.0
  9
$DIMGAP
 40
1.0
  9
$DIMJUST
 70
     0
  9
$DIMSD1
 70
     0
  9
$DIMSD2
 70
     0
  9
$DIMTOLJ
 70
     1
  9
$DIMTZIN
 70
     0
  9
$DIMALTZ
 70
     0
  9
$DIMALTTZ
 70
     0
  9
$DIMUPT
 70
     0
  9
$DIMDEC
 70
     4
  9
$DIMTDEC
 70
     4
  9
$DIMALTU
 70
     2
  9
$DIMALTTD
 70
     2
  9
$DIMTXSTY
  7
Standard
  9
$DIMAUNIT
 70
     0
  9
$DIMADEC
 70
     0
  9
$DIMALTRND
 40
0.0
  9
$DIMAZIN
 70
     0
  9
$DIMDSEP
 70
     0
  9
$DIMATFIT
 70
     3
  9
$DIMFRAC
 70
     0
  9
$DIMLDRBLK
  1

  9
$DIMLUNIT
 70
     2
  9
$DIMLWD
 70
     0
  9
$DIMLWE
 70
     0
  9
$DIMTMOVE
 70
     0
  9
$LUNITS
 70
     2
  9
$LUPREC
 70
     4
  9
$SKETCHINC
 40
0.1
  9
$FILLETRAD
 40
0.0
  9
$AUNITS
 70
     0
  9
$AUPREC
 70
     0
  9
$MENU
  1
acad
  9
$ELEVATION
 40
0.0
  9
$PELEVATION
 40
0.0
  9
$THICKNESS
 40
0.0
  9
$LIMCHECK
 70
     0
  9
$CHAMFERA
 40
0.0
  9
$CHAMFERB
 40
0.0
  9
$CHAMFERC
 40
0.0
  9
$CHAMFERD
 40
0.0
  9
$SKPOLY
 70
     0
  9
$TDCREATE
 40
0.000000000
  9
$TDUCREATE
 40
0.000000000
  9
$TDUPDATE
 40
0.000000000
  9
$TDUUPDATE
 40
0.000000000
  9
$TDINDWG
 40
0.0000000000
  9
$TDUSRTIMER
 40
0.0000000000
  9
$USRTIMER
 70
     1
  9
$ANGBASE
 50
0.0
  9
$ANGDIR
 70
     0
  9
$PDMODE
 70
     0
  9
$PDSIZE
 40
0.0
  9
$PLINEWID
 40
0.0
  9
$SPLFRAME
 70
     0
  9
$SPLINETYPE
 70
     6
  9
$SPLINESEGS
 70
     8
  9
$HANDSEED
  5
2F3
  9
$SURFTAB1
 70
     6
  9
$SURFTAB2
 70
     6
  9
$SURFTYPE
 70
     6
  9
$SURFU
 70
     6
  9
$SURFV
 70
     6
  9
$UCSBASE
  2

  9
$UCSNAME
  2

  9
$UCSORG
 10
0.0
 20
0.0
 30
0.0
  9
$UCSXDIR
 10
1.0
 20
0.0
 30
0.0
  9
$UCSYDIR
 10
0.0
 20
1.0
 30
0.0
  9
$UCSORTHOREF
  2

  9
$UCSORTHOVIEW
 70
     0
  9
$UCSORGTOP
 10
0.0
 20
0.0
 30
0.0
  9
$UCSORGBOTTOM
 10
0.0
 20
0.0
 30
0.0
  9
$UCSORGLEFT
 10
0.0
 20
0.0
 30
0.0
  9
$UCSORGRIGHT
 10
0.0
 20
0.0
 30
0.0
  9
$UCSORGFRONT
 10
0.0
 20
0.0
 30
0.0
  9
$UCSORGBACK
 10
0.0
 20
0.0
 30
0.0
  9
$PUCSBASE
  2

  9
$PUCSNAME
  2

  9
$PUCSORG
 10
0.0
 20
0.0
 30
0.0
  9
$PUCSXDIR
 10
1.0
 20
0.0
 30
0.0
  9
$PUCSYDIR
 10
0.0
 20
1.0
 30
0.0
  9
$PUCSORTHOREF
  2

  9
$PUCSORTHOVIEW
 70
     0
  9
$PUCSORGTOP
 10
0.0
 20
0.0
 30
0.0
  9
$PUCSORGBOTTOM
 10
0.0
 20
0.0
 30
0.0
  9
$PUCSORGLEFT
 10
0.0
 20
0.0
 30
0.0
  9
$PUCSORGRIGHT
 10
0.0
 20
0.0
 30
0.0
  9
$PUCSORGFRONT
 10
0.0
 20
0.0
 30
0.0
  9
$PUCSORGBACK
 10
0.0
 20
0.0
 30
0.0
  9
$USERI1
 70
     0
  9
$USERI2
 70
     0
  9
$USERI3
 70
     0
  9
$USERI4
 70
     0
  9
$USERI5
 70
     0
  9
$USERR1
 40
0.0
  9
$USERR2
 40
0.0
  9
$USERR3
 40
0.0
  9
$USERR4
 40
0.0
  9
$USERR5
 40
0.0
  9
$WORLDVIEW
 70
     1
  9
$SHADEDGE
 70
     3
  9
$SHADEDIF
 70
    70
  9
$TILEMODE
 70
     1
  9
$MAXACTVP
 70
    16
  9
$PINSBASE
 10
0.0
 20
0.0
 30
0.0
  9
$PLIMCHECK
 70
     0
  9
$PEXTMIN
 10
1.000000E+20
 20
1.000000E+20
 30
1.000000E+20
  9
$PEXTMAX
 10
-1.000000E+20
 20
-1.000000E+20
 30
-1.000000E+20
  9
$PLIMMIN
 10
0.0
 20
0.0
  9
$PLIMMAX
 10
297.0
 20
210.0
  9
$UNITMODE
 70
     0
  9
$VISRETAIN
 70
     0
  9
$PLINEGEN
 70
     1
  9
$PSLTSCALE
 70
     0
  9
$TREEDEPTH
 70
  3020
  9
$CMLSTYLE
  2
Standard
  9
$CMLJUST
 70
     0
  9
$CMLSCALE
 40
1.0
  9
$PROXYGRAPHICS
 70
     0
  9
$MEASUREMENT
 70
     0
  9
$CELWEIGHT
370
     0
  9
$ENDCAPS
280
     0
  9
$JOINSTYLE
280
     0
  9
$LWDISPLAY
290
     0
  9
$INSUNITS
 70
     0
  9
$HYPERLINKBASE
  1

  9
$XEDIT
290
     1
  9
$CEPSNTYPE
380
     0
  9
$PSTYLEMODE
290
     0
  9
$FINGERPRINTGUID
  2

  9
$VERSIONGUID
  2

  9
$EXTNAMES
290
     1
  9
$PSVPSCALE
 40
0.0
  0
ENDSEC
  0
SECTION
  2
CLASSES
  0
CLASS
  1
LWPOLYLINE
  2
AcDbPolyline
  3
"AutoCAD"
 90
        0
280
     0
281
     1
  0
CLASS
  1
IMAGE
  2
AcDbRasterImage
  3
ISM
 90
      127
280
     0
281
     1
  0
CLASS
  1
OLE2FRAME
  2
AcDbOle2Frame
  3
""
 90
        0
280
     0
281
     1
  0
CLASS
  1
HATCH
  2
AcDbHatch
  3
"ACAD_SEDONA"
 90
        0
280
     0
281
     1
  0
CLASS
  1
DICTIONARYVAR
  2
AcDbDictionaryVar
  3
"AutoCAD"
 90
        0
280
     0
281
     0
  0
CLASS
  1
RASTERVARIABLES
  2
AcDbRasterVariables
  3
ISM
 90
        0
280
     0
281
     0
  0
CLASS
  1
IMAGEDEF
  2
AcDbRasterImageDef
  3
ISM
 90
        0
280
     0
281
     0
  0
CLASS
  1
IMAGEDEF_REACTOR
  2
AcDbRasterImageDefReactor
  3
ISM
 90
        1
280
     0
281
     0
  0
CLASS
  1
IDBUFFER
  2
AcDbIdBuffer
  3
"Acad"
 90
        0
280
     0
281
     0
  0
CLASS
  1
SPATIAL_FILTER
  2
AcDbSpatialFilter
  3
"Acad"
 90
        0
280
     0
281
     0
  0
CLASS
  1
XRECORD
  2
AcDbXrecord
  3
"<Built In>"
 90
        0
280
     0
281
     0
  0
CLASS
  1
SORTENTSTABLE
  2
AcDbSortentsTable
  3
"AutoCAD"
 90
        0
280
     0
281
     0
  0
CLASS
  1
LAYER_INDEX
  2
AcDbLayerIndex
  3
"Acad"
 90
        0
280
     0
281
     0
  0
CLASS
  1
SPATIAL_INDEX
  2
AcDbSpatialIndex
  3
"Acad"
 90
        0
280
     0
281
     0
  0
CLASS
  1
OBJECT_PTR
  2
CAseDLPNTableRecord
  3
"ASE-LPNTableRecord"
 90
        1
280
     0
281
     0
  0
CLASS
  1
LAYOUT
  2
AcDbLayout
  3
"AutoCAD 2000"
 90
        1
280
     0
281
     0
  0
CLASS
  1
PLOTSETTINGS
  2
AcDbPlotSettings
  3
"AutoCAD 2000"
 90
        1
280
     0
281
     0
  0
CLASS
  1
ACDBDICTIONARYWDFLT
  2
AcDbDictionaryWithDefault
  3
"AutoCAD 2000"
 90
        1
280
     0
281
     0
  0
CLASS
  1
ACDBPLACEHOLDER
  2
AcDbPlaceHolder
  3
"AutoCAD 2000"
 90
        1
280
     0
281
     0
  0
CLASS
  1
VBA_PROJECT
  2
AcDbVbaProject
  3
"acadvba"
 90
        1
280
     0
281
     0
  0
CLASS
  1
WIPEOUT
  2
AcDbWipeout
  3
WipeOut|AutoCAD Express Tool|expresstools@autodesk.com
 90
      127
280
     0
281
     1
  0
CLASS
  1
WIPEOUTVARIABLES
  2
AcDbWipeoutVariables
  3
WipeOut|AutoCAD Express Tool|expresstools@autodesk.com
 90
        0
280
     0
281
     0
  0
CLASS
  1
RTEXT
  2
RText
  3
RText|AutoCAD Express Tool|expresstools@autodesk.com
 90
        0
280
     0
281
     1
  0
CLASS
  1
ARCALIGNEDTEXT
  2
AcDbArcAlignedText
  3
ATEXT|AutoCAD Express Tool|expresstools@autodesk.com
 90
        0
280
     0
281
     1
  0
ENDSEC
  0
SECTION
  2
TABLES
  0
TABLE
  2
VPORT
  5
7
100
AcDbSymbolTable
 70
     1
  0
VPORT
  5
15
100
AcDbSymbolTableRecord
100
AcDbViewportTableRecord
  2
*ACTIVE
 70
     0
 10
0.0
 20
0.0
 11
1.0
 21
1.0
 12
6.591288
 22
4.579184
 13
0.0
 23
0.0
 14
1.0
 24
1.0
 15
0.0
 25
0.0
 16
0.0
 26
0.0
 36
1.0
 17
0.0
 27
0.0
 37
0.0
 40
9.158369
 41
0.688564
 42
50.0
 43
0.0
 44
0.0
 50
0.0
 51
0.0
 71
     0
 72
   100
 73
     1
 74
     1
 75
     0
 76
     0
 77
     0
 78
     0
281
     0
 65
     0
110
0.0
120
0.0
130
0.0
111
1.0
121
0.0
131
0.0
112
0.0
122
1.0
132
0.0
345
0
346
0
 79
     0
146
0.0
  0
ENDTAB
  0
TABLE
  2
LTYPE
  5
4
100
AcDbSymbolTable
 70
     7
  0
LTYPE
  5
11
100
AcDbSymbolTableRecord
100
AcDbLinetypeTableRecord
  2
ByBlock
 70
    64
  3

 72
    65
 73
     0
 40
0.0
  0
LTYPE
  5
12
100
AcDbSymbolTableRecord
100
AcDbLinetypeTableRecord
  2
ByLayer
 70
    64
  3

 72
    65
 73
     0
 40
0.0
  0
LTYPE
  5
13
100
AcDbSymbolTableRecord
100
AcDbLinetypeTableRecord
  2
Continuous
 70
    64
  3
Solid line
 72
    65
 73
     0
 40
0.0
  0
LTYPE
  5
24
100
AcDbSymbolTableRecord
100
AcDbLinetypeTableRecord
  2
HIDDEN
 70
    64
  3
_ _ _ _ _ _ _ _ _ _ _ _ _ _ _ _ _ _ _ _ _ _ _ _
 72
    65
 73
     2
 40
0.1875
 49
0.125
 74
     0
 49
-0.0625
 74
     0
  0
LTYPE
  5
25
100
AcDbSymbolTableRecord
100
AcDbLinetypeTableRecord
  2
DOTTED
 70
    64
  3
...............................................
 72
    65
 73
     2
 40
0.125
 49
0.0
 74
     0
 49
-0.125
 74
     0
  0
LTYPE
  5
26
100
AcDbSymbolTableRecord
100
AcDbLinetypeTableRecord
  2
CENTER
 70
    64
  3
____ _ ____ _ ____ _ ____ _ ____ _ ____ _ ____ 
 72
    65
 73
     4
 40
1.125
 49
0.75
 74
     0
 49
-0.125
 74
     0
 49
0.125
 74
     0
 49
-0.125
 74
     0
  0
LTYPE
  5
27
100
AcDbSymbolTableRecord
100
AcDbLinetypeTableRecord
  2
PHANTOM
 70
    64
  3
______  __  __  ______  __  __  ______  __  __ 
 72
    65
 73
     6
 40
1.25
 49
0.625
 74
     0
 49
-0.125
 74
     0
 49
0.125
 74
     0
 49
-0.125
 74
     0
 49
0.125
 74
     0
 49
-0.125
 74
     0
  0
ENDTAB
  0
TABLE
  2
LAYER
  5
2
100
AcDbSymbolTable
 70
     2
  0
LAYER
  5
14
100
AcDbSymbolTableRecord
100
AcDbLayerTableRecord
  2
0
 70
     0
 62
     7
  6
Continuous
290
     1
370
    -3
390
1D
  0
LAYER
  5
28
100
AcDbSymbolTableRecord
100
AcDbLayerTableRecord
  2
TEXT
 70
     0
 62
     8
  6
Continuous
290
     1
370
    -3
390
1F
  0
ENDTAB
  0
TABLE
  2
STYLE
  5
3
100
AcDbSymbolTable
 70
     1
  0
STYLE
  5
17
100
AcDbSymbolTableRecord
100
AcDbTextStyleTableRecord
  2
Standard
 70
     0
 40
0.0
 41
1.0
 50
0.0
 71
     0
 42
0.0
  3
txt
  4

  0
ENDTAB
  0
TABLE
  2
VIEW
  5
5
100
AcDbSymbolTable
 70
     0
  0
ENDTAB
  0
TABLE
  2
UCS
  5
6
100
AcDbSymbolTable
 70
     0
  0
ENDTAB
  0
TABLE
  2
APPID
  5
8
100
AcDbSymbolTable
 70
     1
  0
APPID
  5
16
100
AcDbSymbolTableRecord
100
AcDbRegAppTableRecord
  2
ACAD
 70
     0
  0
ENDTAB
  0
TABLE
  2
DIMSTYLE
  5
9
100
AcDbSymbolTable
 70
     1
100
AcDbDimStyleTable
 71
     0
  0
DIMSTYLE
105
18
100
AcDbSymbolTableRecord
100
AcDbDimStyleTableRecord
  2
Standard
 70
     0
  3

  4

 40
1.0
 41
0.18
 42
0.0625
 43
0.38
 44
0.18
 45
0.0
 46
0.0
 47
0.0
 48
0.0
 71
     0
 72
     0
 73
     1
 74
     1
 75
     0
 76
     0
 77
     0
 78
     0
 79
     0
140
0.18
141
0.09
142
0.0
143
25.4
144
1.0
145
0.0
146
1.0
147
0.09
148
0.0
170
     0
171
     2
172
     0
173
     0
174
     0
175
     0
176
     0
177
     0
178
     0
179
     0
271
     4
272
     4
273
     2
274
     2
275
     0
276
     0
277
     2
278
    46
279
     0
280
     0
281
     0
282
     0
283
     1
284
     0
285
     0
286
     0
288
     0
340
17
341
0
342
0
343
0
344
0
371
    -2
372
    -2
  0
ENDTAB
  0
TABLE
  2
BLOCK_RECORD
  5
1
100
AcDbSymbolTable
 70
    54
  0
BLOCK_RECORD
  5
A
100
AcDbSymbolTableRecord
100
AcDbBlockTableRecord
  2
*MODEL_SPACE
340
20
  0
BLOCK_RECORD
  5
B
100
AcDbSymbolTableRecord
100
AcDbBlockTableRecord
  2
*PAPER_SPACE
340
21
  0
BLOCK_RECORD
  5
29
100
AcDbSymbolTableRecord
100
AcDbBlockTableRecord
  2
*B0
340
0
  0
BLOCK_RECORD
  5
35
100
AcDbSymbolTableRecord
100
AcDbBlockTableRecord
  2
*B1
340
0
  0
BLOCK_RECORD
  5
38
100
AcDbSymbolTableRecord
100
AcDbBlockTableRecord
  2
*B2
340
0
  0
BLOCK_RECORD
  5
48
100
AcDbSymbolTableRecord
100
AcDbBlockTableRecord
  2
*B3
340
0
  0
BLOCK_RECORD
  5
E3
100
AcDbSymbolTableRecord
100
AcDbBlockTableRecord
  2
*B4
340
0
  0
BLOCK_RECORD
  5
19A
100
AcDbSymbolTableRecord
100
AcDbBlockTableRecord
  2
*B5
340
0
  0
BLOCK_RECORD
  5
1A1
100
AcDbSymbolTableRecord
100
AcDbBlockTableRecord
  2
*B6
340
0
  0
BLOCK_RECORD
  5
1A8
100
AcDbSymbolTableRecord
100
AcDbBlockTableRecord
  2
*B7
340
0
  0
BLOCK_RECORD
  5
1AF
100
AcDbSymbolTableRecord
100
AcDbBlockTableRecord
  2
*B8
340
0
  0
BLOCK_RECORD
  5
1B6
100
AcDbSymbolTableRecord
100
AcDbBlockTableRecord
  2
*B9
340
0
  0
BLOCK_RECORD
  5
1BD
100
AcDbSymbolTableRecord
100
AcDbBlockTableRecord
  2
*B10
340
0
  0
BLOCK_RECORD
  5
1C4
100
AcDbSymbolTableRecord
100
AcDbBlockTableRecord
  2
*B11
340
0
  0
BLOCK_RECORD
  5
1CB
100
AcDbSymbolTableRecord
100
AcDbBlockTableRecord
  2
*B12
340
0
  0
BLOCK_RECORD
  5
1D2
100
AcDbSymbolTableRecord
100
AcDbBlockTableRecord
  2
*B13
340
0
  0
BLOCK_RECORD
  5
1D9
100
AcDbSymbolTableRecord
100
AcDbBlockTableRecord
  2
*B14
340
0
  0
BLOCK_RECORD
  5
1E0
100
AcDbSymbolTableRecord
100
AcDbBlockTableRecord
  2
*B15
340
0
  0
BLOCK_RECORD
  5
1E5
100
AcDbSymbolTableRecord
100
AcDbBlockTableRecord
  2
*B16
340
0
  0
BLOCK_RECORD
  5
1EA
100
AcDbSymbolTableRecord
100
AcDbBlockTableRecord
  2
*B17
340
0
  0
BLOCK_RECORD
  5
1FC
100
AcDbSymbolTableRecord
100
AcDbBlockTableRecord
  2
*B18
340
0
  0
BLOCK_RECORD
  5
201
100
AcDbSymbolTableRecord
100
AcDbBlockTableRecord
  2
*B19
340
0
  0
BLOCK_RECORD
  5
206
100
AcDbSymbolTableRecord
100
AcDbBlockTableRecord
  2
*B20
340
0
  0
BLOCK_RECORD
  5
20C
100
AcDbSymbolTableRecord
100
AcDbBlockTableRecord
  2
*B21
340
0
  0
BLOCK_RECORD
  5
211
100
AcDbSymbolTableRecord
100
AcDbBlockTableRecord
  2
*B22
340
0
  0
BLOCK_RECORD
  5
216
100
AcDbSymbolTableRecord
100
AcDbBlockTableRecord
  2
*B23
340
0
  0
BLOCK_RECORD
  5
21D
100
AcDbSymbolTableRecord
100
AcDbBlockTableRecord
  2
*B24
340
0
  0
BLOCK_RECORD
  5
222
100
AcDbSymbolTableRecord
100
AcDbBlockTableRecord
  2
*B25
340
0
  0
BLOCK_RECORD
  5
227
100
AcDbSymbolTableRecord
100
AcDbBlockTableRecord
  2
*B26
340
0
  0
BLOCK_RECORD
  5
22E
100
AcDbSymbolTableRecord
100
AcDbBlockTableRecord
  2
*B27
340
0
  0
BLOCK_RECORD
  5
237
100
AcDbSymbolTableRecord
100
AcDbBlockTableRecord
  2
*B28
340
0
  0
BLOCK_RECORD
  5
24A
100
AcDbSymbolTableRecord
100
AcDbBlockTableRecord
  2
*B29
340
0
  0
BLOCK_RECORD
  5
24F
100
AcDbSymbolTableRecord
100
AcDbBlockTableRecord
  2
*B30
340
0
  0
BLOCK_RECORD
  5
254
100
AcDbSymbolTableRecord
100
AcDbBlockTableRecord
  2
*B31
340
0
  0
BLOCK_RECORD
  5
259
100
AcDbSymbolTableRecord
100
AcDbBlockTableRecord
  2
*B32
340
0
  0
BLOCK_RECORD
  5
267
100
AcDbSymbolTableRecord
100
AcDbBlockTableRecord
  2
*B33
340
0
  0
BLOCK_RECORD
  5
26C
100
AcDbSymbolTableRecord
100
AcDbBlockTableRecord
  2
*B34
340
0
  0
BLOCK_RECORD
  5
271
100
AcDbSymbolTableRecord
100
AcDbBlockTableRecord
  2
*B35
340
0
  0
BLOCK_RECORD
  5
277
100
AcDbSymbolTableRecord
100
AcDbBlockTableRecord
  2
*B36
340
0
  0
BLOCK_RECORD
  5
27D
100
AcDbSymbolTableRecord
100
AcDbBlockTableRecord
  2
*B37
340
0
  0
BLOCK_RECORD
  5
283
100
AcDbSymbolTableRecord
100
AcDbBlockTableRecord
  2
*B38
340
0
  0
BLOCK_RECORD
  5
297
100
AcDbSymbolTableRecord
100
AcDbBlockTableRecord
  2
*B39
340
0
  0
BLOCK_RECORD
  5
2AB
100
AcDbSymbolTableRecord
100
AcDbBlockTableRecord
  2
*B40
340
0
  0
BLOCK_RECORD
  5
2B2
100
AcDbSymbolTableRecord
100
AcDbBlockTableRecord
  2
*B41
340
0
  0
BLOCK_RECORD
  5
2B7
100
AcDbSymbolTableRecord
100
AcDbBlockTableRecord
  2
*B42
340
0
  0
BLOCK_RECORD
  5
2BC
100
AcDbSymbolTableRecord
100
AcDbBlockTableRecord
  2
*B43
340
0
  0
BLOCK_RECORD
  5
2C1
100
AcDbSymbolTableRecord
100
AcDbBlockTableRecord
  2
*B44
340
0
  0
BLOCK_RECORD
  5
2C6
100
AcDbSymbolTableRecord
100
AcDbBlockTableRecord
  2
*B45
340
0
  0
BLOCK_RECORD
  5
2CB
100
AcDbSymbolTableRecord
100
AcDbBlockTableRecord
  2
*B46
340
0
  0
BLOCK_RECORD
  5
2D0
100
AcDbSymbolTableRecord
100
AcDbBlockTableRecord
  2
*B47
340
0
  0
BLOCK_RECORD
  5
2D5
100
AcDbSymbolTableRecord
100
AcDbBlockTableRecord
  2
*B48
340
0
  0
BLOCK_RECORD
  5
2DA
100
AcDbSymbolTableRecord
100
AcDbBlockTableRecord
  2
*B49
340
0
  0
BLOCK_RECORD
  5
2DF
100
AcDbSymbolTableRecord
100
AcDbBlockTableRecord
  2
*B50
340
0
  0
BLOCK_RECORD
  5
2E4
100
AcDbSymbolTableRecord
100
AcDbBlockTableRecord
  2
*B51
340
0
  0
BLOCK_RECORD
  5
2E9
100
AcDbSymbolTableRecord
100
AcDbBlockTableRecord
  2
*B52
340
0
  0
BLOCK_RECORD
  5
2EE
100
AcDbSymbolTableRecord
100
AcDbBlockTableRecord
  2
*B53
340
0
  0
ENDTAB
  0
ENDSEC
  0
SECTION
  2
BLOCKS
  0
BLOCK
  5
D
100
AcDbEntity
  8
0
100
AcDbBlockBegin
  2
*MODEL_SPACE
 70
     0
 10
0.0
 20
0.0
 30
0.0
  3
*MODEL_SPACE
  1

  0
ENDBLK
  5
E
100
AcDbEntity
  8
0
100
AcDbBlockEnd
  0
BLOCK
  5
F
100
AcDbEntity
 67
     1
  8
0
100
AcDbBlockBegin
  2
*PAPER_SPACE
 70
     0
 10
0.0
 20
0.0
 30
0.0
  3
*PAPER_SPACE
  1

  0
ENDBLK
  5
10
100
AcDbEntity
 67
     1
  8
0
100
AcDbBlockEnd
  0
BLOCK
  5
2A
100
AcDbEntity
  8
0
100
AcDbBlockBegin
  2
*B0
 70
     0
 10
0.0
 20
0.0
 30
0.0
  3
*B0
  1

  0
LINE
  5
2B
100
AcDbEntity
  8
0
  6
Continuous
 62
   172
100
AcDbLine
 10
95.0
 20
175.8
 30
0.0
 11
95.0
 21
157.8
 31
0.0
  0
LINE
  5
2C
100
AcDbEntity
  8
0
  6
Continuous
 62
   172
100
AcDbLine
 10
95.0
 20
157.8
 30
0.0
 11
127.0
 21
157.8
 31
0.0
  0
LINE
  5
2D
100
AcDbEntity
  8
0
  6
Continuous
 62
   172
100
AcDbLine
 10
127.0
 20
157.8
 30
0.0
 11
127.0
 21
175.8
 31
0.0
  0
LINE
  5
2E
100
AcDbEntity
  8
0
  6
Continuous
 62
   172
100
AcDbLine
 10
127.0
 20
175.8
 30
0.0
 11
95.0
 21
175.8
 31
0.0
  0
LINE
  5
2F
100
AcDbEntity
  8
0
  6
Continuous
 62
   172
100
AcDbLine
 10
198.6
 20
175.8
 30
0.0
 11
198.6
 21
157.8
 31
0.0
  0
LINE
  5
30
100
AcDbEntity
  8
0
  6
Continuous
 62
   172
100
AcDbLine
 10
198.6
 20
157.8
 30
0.0
 11
230.6
 21
157.8
 31
0.0
  0
LINE
  5
31
100
AcDbEntity
  8
0
  6
Continuous
 62
   172
100
AcDbLine
 10
230.6
 20
157.8
 30
0.0
 11
230.6
 21
175.8
 31
0.0
  0
LINE
  5
32
100
AcDbEntity
  8
0
  6
Continuous
 62
   172
100
AcDbLine
 10
230.6
 20
175.8
 30
0.0
 11
198.6
 21
175.8
 31
0.0
  0
ENDBLK
  5
33
100
AcDbEntity
  8
0
100
AcDbBlockEnd
  0
BLOCK
  5
36
100
AcDbEntity
  8
0
100
AcDbBlockBegin
  2
*B1
 70
     0
 10
0.0
 20
0.0
 30
0.0
  3
*B1
  1

  0
ENDBLK
  5
37
100
AcDbEntity
  8
0
100
AcDbBlockEnd
  0
BLOCK
  5
39
100
AcDbEntity
  8
0
100
AcDbBlockBegin
  2
*B2
 70
     0
 10
0.0
 20
0.0
 30
0.0
  3
*B2
  1

  0
LINE
  5
3A
100
AcDbEntity
  8
0
  6
Continuous
 62
   112
100
AcDbLine
 10
93.0
 20
136.775
 30
0.0
 11
93.0
 21
132.825
 31
0.0
  0
LINE
  5
3B
100
AcDbEntity
  8
0
  6
Continuous
 62
   112
100
AcDbLine
 10
93.0
 20
120.825
 30
0.0
 11
93.0
 21
116.825
 31
0.0
  0
LINE
  5
3C
100
AcDbEntity
  8
0
  6
Continuous
 62
   112
100
AcDbLine
 10
129.0
 20
136.775
 30
0.0
 11
129.0
 21
132.825
 31
0.0
  0
LINE
  5
3D
100
AcDbEntity
  8
0
  6
Continuous
 62
   112
100
AcDbLine
 10
129.0
 20
120.825
 30
0.0
 11
129.0
 21
116.825
 31
0.0
  0
LINE
  5
3E
100
AcDbEntity
  8
0
  6
Continuous
 62
   112
100
AcDbLine
 10
104.0
 20
148.8
 30
0.0
 11
104.0
 21
144.8
 31
0.0
  0
LINE
  5
3F
100
AcDbEntity
  8
0
  6
Continuous
 62
   112
100
AcDbLine
 10
118.0
 20
148.8
 30
0.0
 11
118.0
 21
144.8
 31
0.0
  0
LINE
  5
40
100
AcDbEntity
  8
0
  6
Continuous
 62
   112
100
AcDbLine
 10
196.4
 20
136.775
 30
0.0
 11
196.4
 21
132.825
 31
0.0
  0
LINE
  5
41
100
AcDbEntity
  8
0
  6
Continuous
 62
   112
100
AcDbLine
 10
196.4
 20
120.825
 30
0.0
 11
196.4
 21
116.825
 31
0.0
  0
LINE
  5
42
100
AcDbEntity
  8
0
  6
Continuous
 62
   112
100
AcDbLine
 10
232.4
 20
136.775
 30
0.0
 11
232.4
 21
132.825
 31
0.0
  0
LINE
  5
43
100
AcDbEntity
  8
0
  6
Continuous
 62
   112
100
AcDbLine
 10
232.4
 20
120.825
 30
0.0
 11
232.4
 21
116.825
 31
0.0
  0
LINE
  5
44
100
AcDbEntity
  8
0
  6
Continuous
 62
   112
100
AcDbLine
 10
207.4
 20
148.8
 30
0.0
 11
207.4
 21
144.8
 31
0.0
  0
LINE
  5
45
100
AcDbEntity
  8
0
  6
Continuous
 62
   112
100
AcDbLine
 10
221.4
 20
148.8
 30
0.0
 11
221.4
 21
144.8
 31
0.0
  0
ENDBLK
  5
46
100
AcDbEntity
  8
0
100
AcDbBlockEnd
  0
BLOCK
  5
49
100
AcDbEntity
  8
0
100
AcDbBlockBegin
  2
*B3
 70
     0
 10
0.0
 20
0.0
 30
0.0
  3
*B3
  1

  0
LINE
  5
4A
100
AcDbEntity
  8
0
  6
Continuous
 62
   174
100
AcDbLine
 10
120.388314
 20
112.791624
 30
0.0
 11
110.796651
 21
112.791624
 31
0.0
  0
LINE
  5
4B
100
AcDbEntity
  8
0
  6
Continuous
 62
   174
100
AcDbLine
 10
110.796651
 20
112.791624
 30
0.0
 11
101.204988
 21
112.791624
 31
0.0
  0
LINE
  5
4C
100
AcDbEntity
  8
0
  6
Continuous
 62
   174
100
AcDbLine
 10
117.796651
 20
148.791624
 30
0.0
 11
118.796651
 21
147.791624
 31
0.0
  0
LINE
  5
4D
100
AcDbEntity
  8
0
  6
Continuous
 62
   174
100
AcDbLine
 10
103.796651
 20
148.791624
 30
0.0
 11
103.101739
 21
148.096712
 31
0.0
  0
LINE
  5
4E
100
AcDbEntity
  8
0
  6
Continuous
 62
   174
100
AcDbLine
 10
102.796651
 20
147.791624
 30
0.0
 11
102.796651
 21
144.791624
 31
0.0
  0
LINE
  5
4F
100
AcDbEntity
  8
0
  6
Continuous
 62
   174
100
AcDbLine
 10
118.796651
 20
147.791624
 30
0.0
 11
118.796651
 21
144.791624
 31
0.0
  0
LINE
  5
50
100
AcDbEntity
  8
0
  6
Continuous
 62
   174
100
AcDbLine
 10
104.583582
 20
147.791624
 30
0.0
 11
103.424984
 21
147.791624
 31
0.0
  0
LINE
  5
51
100
AcDbEntity
  8
0
  6
Continuous
 62
   174
100
AcDbLine
 10
103.424984
 20
147.791624
 30
0.0
 11
102.814882
 21
147.791624
 31
0.0
  0
LINE
  5
52
100
AcDbEntity
  8
0
  6
Continuous
 62
   174
100
AcDbLine
 10
118.814757
 20
147.791624
 30
0.0
 11
118.676889
 21
147.791624
 31
0.0
  0
LINE
  5
53
100
AcDbEntity
  8
0
  6
Continuous
 62
   174
100
AcDbLine
 10
118.676889
 20
147.791624
 30
0.0
 11
116.901816
 21
147.791624
 31
0.0
  0
LINE
  5
54
100
AcDbEntity
  8
0
  6
Continuous
 62
   174
100
AcDbLine
 10
116.901816
 20
147.791624
 30
0.0
 11
116.624594
 21
147.791624
 31
0.0
  0
LINE
  5
55
100
AcDbEntity
  8
0
  6
Continuous
 62
   174
100
AcDbLine
 10
116.624594
 20
147.791624
 30
0.0
 11
106.30661
 21
147.791624
 31
0.0
  0
LINE
  5
56
100
AcDbEntity
  8
0
  6
Continuous
 62
   174
100
AcDbLine
 10
106.30661
 20
147.791624
 30
0.0
 11
104.739719
 21
147.791624
 31
0.0
  0
LINE
  5
57
100
AcDbEntity
  8
0
  6
Continuous
 62
   174
100
AcDbLine
 10
130.796651
 20
116.791624
 30
0.0
 11
130.796651
 21
120.791624
 31
0.0
  0
LINE
  5
58
100
AcDbEntity
  8
0
  6
Continuous
 62
   174
100
AcDbLine
 10
103.778682
 20
136.791624
 30
0.0
 11
104.736108
 21
136.791624
 31
0.0
  0
LINE
  5
59
100
AcDbEntity
  8
0
  6
Continuous
 62
   174
100
AcDbLine
 10
134.814844
 20
120.791624
 30
0.0
 11
131.599489
 21
120.791624
 31
0.0
  0
LINE
  5
5A
100
AcDbEntity
  8
0
  6
Continuous
 62
   174
100
AcDbLine
 10
126.796651
 20
157.791624
 30
0.0
 11
126.796651
 21
175.791624
 31
0.0
  0
LINE
  5
5B
100
AcDbEntity
  8
0
  6
Continuous
 62
   174
100
AcDbLine
 10
123.053179
 20
157.791624
 30
0.0
 11
125.426033
 21
157.791624
 31
0.0
  0
LINE
  5
5C
100
AcDbEntity
  8
0
  6
Continuous
 62
   174
100
AcDbLine
 10
125.426033
 20
157.791624
 30
0.0
 11
126.814694
 21
157.791624
 31
0.0
  0
LINE
  5
5D
100
AcDbEntity
  8
0
  6
Continuous
 62
   174
100
AcDbLine
 10
98.576247
 20
157.791624
 30
0.0
 11
98.781031
 21
157.791624
 31
0.0
  0
LINE
  5
5E
100
AcDbEntity
  8
0
  6
Continuous
 62
   174
100
AcDbLine
 10
99.478442
 20
156.791624
 30
0.0
 11
110.81482
 21
156.791624
 31
0.0
  0
LINE
  5
5F
100
AcDbEntity
  8
0
  6
Continuous
 62
   174
100
AcDbLine
 10
95.814857
 20
156.791624
 30
0.0
 11
99.478442
 21
156.791624
 31
0.0
  0
LINE
  5
60
100
AcDbEntity
  8
0
  6
Continuous
 62
   174
100
AcDbLine
 10
110.81482
 20
176.791624
 30
0.0
 11
125.814782
 21
176.791624
 31
0.0
  0
LWPOLYLINE
  5
61
100
AcDbEntity
  8
0
  6
Continuous
 62
   174
100
AcDbPolyline
 90
        9
 70
   128
 10
110.796651
 20
136.791624
 10
111.748191
 20
136.811703
 10
112.698415
 20
136.871511
 10
113.645343
 20
136.969712
 10
114.587571
 20
137.104235
 10
115.523838
 20
137.27244
 10
116.454599
 20
137.471675
 10
117.380339
 20
137.699254
 10
118.302204
 20
137.952737
  0
LWPOLYLINE
  5
62
100
AcDbEntity
  8
0
  6
Continuous
 62
   174
100
AcDbPolyline
 90
        9
 70
   128
 10
99.53832
 20
136.791624
 10
100.014091
 20
136.811703
 10
100.489202
 20
136.871511
 10
100.962667
 20
136.969712
 10
101.433781
 20
137.104235
 10
101.901914
 20
137.27244
 10
102.367294
 20
137.471675
 10
102.830165
 20
137.699254
 10
103.291097
 20
137.952737
  0
LINE
  5
63
100
AcDbEntity
  8
0
  6
Continuous
 62
   174
100
AcDbLine
 10
98.761912
 20
136.791624
 30
0.0
 11
99.507757
 21
136.791624
 31
0.0
  0
LINE
  5
64
100
AcDbEntity
  8
0
  6
Continuous
 62
   174
100
AcDbLine
 10
108.925884
 20
136.791624
 30
0.0
 11
112.703756
 21
136.791624
 31
0.0
  0
LINE
  5
65
100
AcDbEntity
  8
0
  6
Continuous
 62
   174
100
AcDbLine
 10
119.821042
 20
136.791624
 30
0.0
 11
122.12167
 21
136.791624
 31
0.0
  0
LINE
  5
66
100
AcDbEntity
  8
0
  6
Continuous
 62
   174
100
AcDbLine
 10
122.867727
 20
136.791624
 30
0.0
 11
125.369314
 21
136.791624
 31
0.0
  0
LINE
  5
67
100
AcDbEntity
  8
0
  6
Continuous
 62
   174
100
AcDbLine
 10
83.083838
 20
130.648031
 30
0.0
 11
83.083838
 21
122.935218
 31
0.0
  0
LINE
  5
68
100
AcDbEntity
  8
0
  6
Continuous
 62
   174
100
AcDbLine
 10
122.073023
 20
144.791624
 30
0.0
 11
110.81482
 21
144.791624
 31
0.0
  0
LINE
  5
69
100
AcDbEntity
  8
0
  6
Continuous
 62
   174
100
AcDbLine
 10
96.203606
 20
175.791624
 30
0.0
 11
110.81482
 21
175.791624
 31
0.0
  0
LINE
  5
6A
100
AcDbEntity
  8
0
  6
Continuous
 62
   174
100
AcDbLine
 10
94.814733
 20
175.791624
 30
0.0
 11
96.203606
 21
175.791624
 31
0.0
  0
LINE
  5
6B
100
AcDbEntity
  8
0
  6
Continuous
 62
   174
100
AcDbLine
 10
110.81482
 20
157.791624
 30
0.0
 11
122.848608
 21
157.791624
 31
0.0
  0
LINE
  5
6C
100
AcDbEntity
  8
0
  6
Continuous
 62
   174
100
AcDbLine
 10
96.203606
 20
157.791624
 30
0.0
 11
98.576247
 21
157.791624
 31
0.0
  0
LINE
  5
6D
100
AcDbEntity
  8
0
  6
Continuous
 62
   174
100
AcDbLine
 10
122.151197
 20
156.791624
 30
0.0
 11
125.814782
 21
156.791624
 31
0.0
  0
LINE
  5
6E
100
AcDbEntity
  8
0
  6
Continuous
 62
   174
100
AcDbLine
 10
128.796651
 20
136.791624
 30
0.0
 11
130.796651
 21
134.791624
 31
0.0
  0
LINE
  5
6F
100
AcDbEntity
  8
0
  6
Continuous
 62
   174
100
AcDbLine
 10
130.796651
 20
116.791624
 30
0.0
 11
130.796651
 21
120.791624
 31
0.0
  0
LINE
  5
70
100
AcDbEntity
  8
0
  6
Continuous
 62
   174
100
AcDbLine
 10
130.796651
 20
132.791624
 30
0.0
 11
130.796651
 21
134.791624
 31
0.0
  0
LINE
  5
71
100
AcDbEntity
  8
0
  6
Continuous
 62
   174
100
AcDbLine
 10
125.369314
 20
136.791624
 30
0.0
 11
128.814732
 21
136.791624
 31
0.0
  0
LINE
  5
72
100
AcDbEntity
  8
0
  6
Continuous
 62
   174
100
AcDbLine
 10
131.599489
 20
132.791624
 30
0.0
 11
110.81482
 21
132.791624
 31
0.0
  0
LINE
  5
73
100
AcDbEntity
  8
0
  6
Continuous
 62
   174
100
AcDbLine
 10
95.796651
 20
156.791624
 30
0.0
 11
94.796651
 21
157.791624
 31
0.0
  0
LINE
  5
74
100
AcDbEntity
  8
0
  6
Continuous
 62
   174
100
AcDbLine
 10
94.796651
 20
157.791624
 30
0.0
 11
94.796651
 21
175.791624
 31
0.0
  0
LWPOLYLINE
  5
75
100
AcDbEntity
  8
0
  6
Continuous
 62
   174
100
AcDbPolyline
 90
        9
 70
   128
 10
131.58126
 20
120.791624
 10
132.459662
 20
120.828698
 10
133.336922
 20
120.939139
 10
134.21114
 20
121.120481
 10
135.080942
 20
121.368871
 10
135.945119
 20
121.679404
 10
136.804147
 20
122.04718
 10
137.658551
 20
122.467269
 10
138.509464
 20
122.935218
  0
LINE
  5
76
100
AcDbEntity
  8
0
  6
Continuous
 62
   174
100
AcDbLine
 10
120.445377
 20
116.791624
 30
0.0
 11
101.184262
 21
116.791624
 31
0.0
  0
LINE
  5
77
100
AcDbEntity
  8
0
  6
Continuous
 62
   174
100
AcDbLine
 10
92.796651
 20
136.791624
 30
0.0
 11
90.796651
 21
134.791624
 31
0.0
  0
LINE
  5
78
100
AcDbEntity
  8
0
  6
Continuous
 62
   174
100
AcDbLine
 10
130.796651
 20
132.791624
 30
0.0
 11
130.796651
 21
134.791624
 31
0.0
  0
LINE
  5
79
100
AcDbEntity
  8
0
  6
Continuous
 62
   174
100
AcDbLine
 10
101.808597
 20
136.791624
 30
0.0
 11
102.388746
 21
136.791624
 31
0.0
  0
LINE
  5
7A
100
AcDbEntity
  8
0
  6
Continuous
 62
   174
100
AcDbLine
 10
105.259963
 20
136.791624
 30
0.0
 11
108.925884
 21
136.791624
 31
0.0
  0
LINE
  5
7B
100
AcDbEntity
  8
0
  6
Continuous
 62
   174
100
AcDbLine
 10
112.703756
 20
136.791624
 30
0.0
 11
116.369677
 21
136.791624
 31
0.0
  0
LINE
  5
7C
100
AcDbEntity
  8
0
  6
Continuous
 62
   174
100
AcDbLine
 10
96.940244
 20
130.648031
 30
0.0
 11
96.940244
 21
122.935218
 31
0.0
  0
LINE
  5
7D
100
AcDbEntity
  8
0
  6
Continuous
 62
   174
100
AcDbLine
 10
110.81482
 20
132.791624
 30
0.0
 11
90.03015
 21
132.791624
 31
0.0
  0
LINE
  5
7E
100
AcDbEntity
  8
0
  6
Continuous
 62
   174
100
AcDbLine
 10
98.781031
 20
157.791624
 30
0.0
 11
110.81482
 21
157.791624
 31
0.0
  0
LWPOLYLINE
  5
7F
100
AcDbEntity
  8
0
  6
Continuous
 62
   174
100
AcDbPolyline
 90
        9
 70
   128
 10
124.653057
 20
122.935218
 10
125.504629
 20
122.466925
 10
126.360476
 20
122.046211
 10
127.220962
 20
121.677999
 10
128.085823
 20
121.3675
 10
128.954986
 20
121.11959
 10
129.827746
 20
120.93878
 10
130.703534
 20
120.828641
 10
131.58126
 20
120.791624
  0
LINE
  5
80
100
AcDbEntity
  8
0
  6
Continuous
 62
   174
100
AcDbLine
 10
104.739719
 20
147.791624
 30
0.0
 11
104.583582
 21
147.791624
 31
0.0
  0
LINE
  5
81
100
AcDbEntity
  8
0
  6
Continuous
 62
   174
100
AcDbLine
 10
60.796651
 20
44.791624
 30
0.0
 11
160.796651
 21
44.791624
 31
0.0
  0
LINE
  5
82
100
AcDbEntity
  8
0
  6
Continuous
 62
   174
100
AcDbLine
 10
128.796651
 20
136.791624
 30
0.0
 11
130.796651
 21
134.791624
 31
0.0
  0
LINE
  5
83
100
AcDbEntity
  8
0
  6
Continuous
 62
   174
100
AcDbLine
 10
90.796651
 20
132.791624
 30
0.0
 11
90.796651
 21
134.791624
 31
0.0
  0
LINE
  5
84
100
AcDbEntity
  8
0
  6
Continuous
 62
   174
100
AcDbLine
 10
90.796651
 20
132.791624
 30
0.0
 11
90.796651
 21
134.791624
 31
0.0
  0
LINE
  5
85
100
AcDbEntity
  8
0
  6
Continuous
 62
   174
100
AcDbLine
 10
90.796651
 20
116.791624
 30
0.0
 11
90.796651
 21
120.791624
 31
0.0
  0
LINE
  5
86
100
AcDbEntity
  8
0
  6
Continuous
 62
   174
100
AcDbLine
 10
102.388746
 20
136.791624
 30
0.0
 11
103.778682
 21
136.791624
 31
0.0
  0
LINE
  5
87
100
AcDbEntity
  8
0
  6
Continuous
 62
   174
100
AcDbLine
 10
117.850958
 20
136.791624
 30
0.0
 11
119.240681
 21
136.791624
 31
0.0
  0
LINE
  5
88
100
AcDbEntity
  8
0
  6
Continuous
 62
   174
100
AcDbLine
 10
122.12167
 20
136.791624
 30
0.0
 11
122.867727
 21
136.791624
 31
0.0
  0
LINE
  5
89
100
AcDbEntity
  8
0
  6
Continuous
 62
   174
100
AcDbLine
 10
95.785544
 20
143.630511
 30
0.0
 11
95.785544
 21
137.952737
 31
0.0
  0
LINE
  5
8A
100
AcDbEntity
  8
0
  6
Continuous
 62
   174
100
AcDbLine
 10
110.81482
 20
144.791624
 30
0.0
 11
99.556404
 21
144.791624
 31
0.0
  0
LINE
  5
8B
100
AcDbEntity
  8
0
  6
Continuous
 62
   174
100
AcDbLine
 10
122.848608
 20
157.791624
 30
0.0
 11
123.053179
 21
157.791624
 31
0.0
  0
LINE
  5
8C
100
AcDbEntity
  8
0
  6
Continuous
 62
   174
100
AcDbLine
 10
122.796651
 20
149.791624
 30
0.0
 11
122.796651
 21
156.791624
 31
0.0
  0
LINE
  5
8D
100
AcDbEntity
  8
0
  6
Continuous
 62
   174
100
AcDbLine
 10
122.814832
 20
149.791624
 30
0.0
 11
122.251465
 21
149.791624
 31
0.0
  0
LINE
  5
8E
100
AcDbEntity
  8
0
  6
Continuous
 62
   174
100
AcDbLine
 10
122.251465
 20
149.791624
 30
0.0
 11
120.618721
 21
149.791624
 31
0.0
  0
LINE
  5
8F
100
AcDbEntity
  8
0
  6
Continuous
 62
   174
100
AcDbLine
 10
92.796651
 20
136.791624
 30
0.0
 11
90.796651
 21
134.791624
 31
0.0
  0
LINE
  5
90
100
AcDbEntity
  8
0
  6
Continuous
 62
   174
100
AcDbLine
 10
90.796651
 20
116.791624
 30
0.0
 11
90.796651
 21
120.791624
 31
0.0
  0
LINE
  5
91
100
AcDbEntity
  8
0
  6
Continuous
 62
   174
100
AcDbLine
 10
92.814908
 20
136.791624
 30
0.0
 11
96.260325
 21
136.791624
 31
0.0
  0
LINE
  5
92
100
AcDbEntity
  8
0
  6
Continuous
 62
   174
100
AcDbLine
 10
116.369677
 20
136.791624
 30
0.0
 11
117.850958
 21
136.791624
 31
0.0
  0
LINE
  5
93
100
AcDbEntity
  8
0
  6
Continuous
 62
   174
100
AcDbLine
 10
118.302204
 20
143.630511
 30
0.0
 11
118.302204
 21
137.952737
 31
0.0
  0
LINE
  5
94
100
AcDbEntity
  8
0
  6
Continuous
 62
   174
100
AcDbLine
 10
125.807758
 20
143.630511
 30
0.0
 11
125.807758
 21
137.952737
 31
0.0
  0
LINE
  5
95
100
AcDbEntity
  8
0
  6
Continuous
 62
   174
100
AcDbLine
 10
125.796651
 20
156.791624
 30
0.0
 11
126.796651
 21
157.791624
 31
0.0
  0
LINE
  5
96
100
AcDbEntity
  8
0
  6
Continuous
 62
   174
100
AcDbLine
 10
110.81482
 20
175.791624
 30
0.0
 11
125.426033
 21
175.791624
 31
0.0
  0
LINE
  5
97
100
AcDbEntity
  8
0
  6
Continuous
 62
   174
100
AcDbLine
 10
125.426033
 20
175.791624
 30
0.0
 11
126.814694
 21
175.791624
 31
0.0
  0
LINE
  5
98
100
AcDbEntity
  8
0
  6
Continuous
 62
   174
100
AcDbLine
 10
94.814733
 20
157.791624
 30
0.0
 11
96.203606
 21
157.791624
 31
0.0
  0
LWPOLYLINE
  5
99
100
AcDbEntity
  8
0
  6
Continuous
 62
   174
100
AcDbPolyline
 90
        9
 70
   128
 10
118.302204
 20
137.952737
 10
118.763496
 20
137.699067
 10
119.227151
 20
137.471148
 10
119.693326
 20
137.271676
 10
120.161831
 20
137.103489
 10
120.632597
 20
136.969228
 10
121.105268
 20
136.871316
 10
121.579578
 20
136.811672
 10
122.054981
 20
136.791624
  0
LINE
  5
9A
100
AcDbEntity
  8
0
  6
Continuous
 62
   174
100
AcDbLine
 10
121.796651
 20
148.791624
 30
0.0
 11
122.796651
 21
149.791624
 31
0.0
  0
LINE
  5
9B
100
AcDbEntity
  8
0
  6
Continuous
 62
   174
100
AcDbLine
 10
95.785544
 20
137.952737
 30
0.0
 11
96.246835
 21
137.699067
 31
0.0
  0
LINE
  5
9C
100
AcDbEntity
  8
0
  6
Continuous
 62
   174
100
AcDbLine
 10
120.618721
 20
149.791624
 30
0.0
 11
116.880998
 21
149.791624
 31
0.0
  0
LINE
  5
9D
100
AcDbEntity
  8
0
  6
Continuous
 62
   174
100
AcDbLine
 10
60.796651
 20
116.791624
 30
0.0
 11
60.796651
 21
44.791624
 31
0.0
  0
LINE
  5
9E
100
AcDbEntity
  8
0
  6
Continuous
 62
   174
100
AcDbLine
 10
96.260325
 20
136.791624
 30
0.0
 11
98.761912
 21
136.791624
 31
0.0
  0
LINE
  5
9F
100
AcDbEntity
  8
0
  6
Continuous
 62
   174
100
AcDbLine
 10
99.507757
 20
136.791624
 30
0.0
 11
101.808597
 21
136.791624
 31
0.0
  0
LINE
  5
A0
100
AcDbEntity
  8
0
  6
Continuous
 62
   174
100
AcDbLine
 10
104.736108
 20
136.791624
 30
0.0
 11
105.259963
 21
136.791624
 31
0.0
  0
LINE
  5
A1
100
AcDbEntity
  8
0
  6
Continuous
 62
   174
100
AcDbLine
 10
124.653057
 20
130.648031
 30
0.0
 11
124.653057
 21
122.935218
 31
0.0
  0
LINE
  5
A2
100
AcDbEntity
  8
0
  6
Continuous
 62
   174
100
AcDbLine
 10
95.796651
 20
176.791624
 30
0.0
 11
94.796651
 21
175.791624
 31
0.0
  0
LINE
  5
A3
100
AcDbEntity
  8
0
  6
Continuous
 62
   174
100
AcDbLine
 10
131.599489
 20
120.791624
 30
0.0
 11
110.81482
 21
120.791624
 31
0.0
  0
LWPOLYLINE
  5
A4
100
AcDbEntity
  8
0
  6
Continuous
 62
   174
100
AcDbPolyline
 90
        9
 70
   128
 10
90.012041
 20
120.791624
 10
90.890443
 20
120.828698
 10
91.767703
 20
120.939139
 10
92.64192
 20
121.120481
 10
93.511722
 20
121.368871
 10
94.3759
 20
121.679404
 10
95.234928
 20
122.04718
 10
96.089332
 20
122.467269
 10
96.940244
 20
122.935218
  0
LWPOLYLINE
  5
A5
100
AcDbEntity
  8
0
  6
Continuous
 62
   174
100
AcDbPolyline
 90
        4
 70
   128
 10
83.083838
 20
122.935218
 10
83.93541
 20
122.466925
 10
84.791256
 20
122.046211
 10
85.651743
 20
121.677999
  0
LINE
  5
A6
100
AcDbEntity
  8
0
  6
Continuous
 62
   174
100
AcDbLine
 10
110.81482
 20
156.791624
 30
0.0
 11
122.151197
 21
156.791624
 31
0.0
  0
LINE
  5
A7
100
AcDbEntity
  8
0
  6
Continuous
 62
   174
100
AcDbLine
 10
125.346825
 20
137.699254
 30
0.0
 11
125.807758
 21
137.952737
 31
0.0
  0
LINE
  5
A8
100
AcDbEntity
  8
0
  6
Continuous
 62
   174
100
AcDbLine
 10
98.796651
 20
149.791624
 30
0.0
 11
98.796651
 21
156.791624
 31
0.0
  0
LINE
  5
A9
100
AcDbEntity
  8
0
  6
Continuous
 62
   174
100
AcDbLine
 10
99.71339
 20
149.791624
 30
0.0
 11
98.814807
 21
149.791624
 31
0.0
  0
LINE
  5
AA
100
AcDbEntity
  8
0
  6
Continuous
 62
   174
100
AcDbLine
 10
160.796651
 20
116.791624
 30
0.0
 11
160.796651
 21
44.791624
 31
0.0
  0
LINE
  5
AB
100
AcDbEntity
  8
0
  6
Continuous
 62
   174
100
AcDbLine
 10
119.240681
 20
136.791624
 30
0.0
 11
119.821042
 21
136.791624
 31
0.0
  0
LINE
  5
AC
100
AcDbEntity
  8
0
  6
Continuous
 62
   174
100
AcDbLine
 10
90.81487
 20
134.791624
 30
0.0
 11
130.814769
 21
134.791624
 31
0.0
  0
LINE
  5
AD
100
AcDbEntity
  8
0
  6
Continuous
 62
   174
100
AcDbLine
 10
138.509464
 20
130.648031
 30
0.0
 11
138.509464
 21
122.935218
 31
0.0
  0
LINE
  5
AE
100
AcDbEntity
  8
0
  6
Continuous
 62
   174
100
AcDbLine
 10
103.291097
 20
143.630511
 30
0.0
 11
103.291097
 21
137.952737
 31
0.0
  0
LINE
  5
AF
100
AcDbEntity
  8
0
  6
Continuous
 62
   174
100
AcDbLine
 10
134.814844
 20
132.791624
 30
0.0
 11
131.599489
 21
132.791624
 31
0.0
  0
LINE
  5
B0
100
AcDbEntity
  8
0
  6
Continuous
 62
   174
100
AcDbLine
 10
125.796651
 20
176.791624
 30
0.0
 11
126.796651
 21
175.791624
 31
0.0
  0
LINE
  5
B1
100
AcDbEntity
  8
0
  6
Continuous
 62
   174
100
AcDbLine
 10
110.81482
 20
120.791624
 30
0.0
 11
90.03015
 21
120.791624
 31
0.0
  0
LWPOLYLINE
  5
B2
100
AcDbEntity
  8
0
  6
Continuous
 62
   174
100
AcDbPolyline
 90
        6
 70
   128
 10
85.651743
 20
121.677999
 10
86.516604
 20
121.3675
 10
87.385767
 20
121.11959
 10
88.258527
 20
120.93878
 10
89.134315
 20
120.828641
 10
90.012041
 20
120.791624
  0
LINE
  5
B3
100
AcDbEntity
  8
0
  6
Continuous
 62
   174
100
AcDbLine
 10
95.814857
 20
176.791624
 30
0.0
 11
110.81482
 21
176.791624
 31
0.0
  0
LWPOLYLINE
  5
B4
100
AcDbEntity
  8
0
  6
Continuous
 62
   174
100
AcDbPolyline
 90
        8
 70
   128
 10
122.054981
 20
136.791624
 10
122.530751
 20
136.811703
 10
123.005863
 20
136.871511
 10
123.479327
 20
136.969712
 10
123.950441
 20
137.104235
 10
124.418575
 20
137.27244
 10
124.883955
 20
137.471675
 10
125.346825
 20
137.699254
  0
LINE
  5
B5
100
AcDbEntity
  8
0
  6
Continuous
 62
   174
100
AcDbLine
 10
99.796651
 20
148.791624
 30
0.0
 11
98.796651
 21
149.791624
 31
0.0
  0
LWPOLYLINE
  5
B6
100
AcDbEntity
  8
0
  6
Continuous
 62
   174
100
AcDbPolyline
 90
        9
 70
   128
 10
103.291097
 20
137.952737
 10
104.213681
 20
137.699067
 10
105.140991
 20
137.471148
 10
106.073341
 20
137.271676
 10
107.010351
 20
137.103489
 10
107.951882
 20
136.969228
 10
108.897224
 20
136.871316
 10
109.845846
 20
136.811672
 10
110.796651
 20
136.791624
  0
LWPOLYLINE
  5
B7
100
AcDbEntity
  8
0
  6
Continuous
 62
   174
100
AcDbPolyline
 90
        8
 70
   128
 10
96.246835
 20
137.699067
 10
96.710491
 20
137.471148
 10
97.176665
 20
137.271676
 10
97.645171
 20
137.103489
 10
98.115936
 20
136.969228
 10
98.588607
 20
136.871316
 10
99.062918
 20
136.811672
 10
99.53832
 20
136.791624
  0
LINE
  5
B8
100
AcDbEntity
  8
0
  6
Continuous
 62
   174
100
AcDbLine
 10
104.748641
 20
149.791624
 30
0.0
 11
101.010919
 21
149.791624
 31
0.0
  0
ARC
  5
B9
100
AcDbEntity
  8
0
  6
Continuous
 62
   174
100
AcDbCircle
 10
145.796651
 20
100.791624
 30
0.0
 40
6.6
100
AcDbArc
 50
-180.0
 51
0.0
  0
LINE
  5
BA
100
AcDbEntity
  8
0
  6
Continuous
 62
   174
100
AcDbLine
 10
101.010919
 20
149.791624
 30
0.0
 11
99.71339
 21
149.791624
 31
0.0
  0
LINE
  5
BB
100
AcDbEntity
  8
0
  6
Continuous
 62
   174
100
AcDbLine
 10
121.277681
 20
148.791624
 30
0.0
 11
119.706542
 21
148.791624
 31
0.0
  0
LINE
  5
BC
100
AcDbEntity
  8
0
  6
Continuous
 62
   174
100
AcDbLine
 10
116.898417
 20
148.791624
 30
0.0
 11
110.81482
 21
148.791624
 31
0.0
  0
LINE
  5
BD
100
AcDbEntity
  8
0
  6
Continuous
 62
   174
100
AcDbLine
 10
116.880998
 20
149.791624
 30
0.0
 11
110.81482
 21
149.791624
 31
0.0
  0
LWPOLYLINE
  5
BE
100
AcDbEntity
  8
0
  6
Continuous
 62
   174
100
AcDbPolyline
 90
        6
 70
   128
 10
135.941559
 20
131.905249
 10
135.076697
 20
132.215748
 10
134.207535
 20
132.463658
 10
133.334775
 20
132.644469
 10
132.458986
 20
132.754608
 10
131.58126
 20
132.791624
  0
LINE
  5
BF
100
AcDbEntity
  8
0
  6
Continuous
 62
   174
100
AcDbLine
 10
60.796651
 20
116.791624
 30
0.0
 11
88.796651
 21
116.791624
 31
0.0
  0
LINE
  5
C0
100
AcDbEntity
  8
0
  6
Continuous
 62
   174
100
AcDbLine
 10
104.345872
 20
148.791624
 30
0.0
 11
101.923097
 21
148.791624
 31
0.0
  0
LINE
  5
C1
100
AcDbEntity
  8
0
  6
Continuous
 62
   174
100
AcDbLine
 10
119.706542
 20
148.791624
 30
0.0
 11
117.283767
 21
148.791624
 31
0.0
  0
LINE
  5
C2
100
AcDbEntity
  8
0
  6
Continuous
 62
   174
100
AcDbLine
 10
110.81482
 20
149.791624
 30
0.0
 11
104.748641
 21
149.791624
 31
0.0
  0
LWPOLYLINE
  5
C3
100
AcDbEntity
  8
0
  6
Continuous
 62
   174
100
AcDbPolyline
 90
        9
 70
   128
 10
110.796651
 20
120.791624
 10
109.039846
 20
120.828698
 10
107.285327
 20
120.939139
 10
105.536892
 20
121.120481
 10
103.797288
 20
121.368871
 10
102.068933
 20
121.679404
 10
100.350878
 20
122.04718
 10
98.642069
 20
122.467269
 10
96.940244
 20
122.935218
  0
ARC
  5
C4
100
AcDbEntity
  8
0
  6
Continuous
 62
   174
100
AcDbCircle
 10
145.796651
 20
100.791624
 30
0.0
 40
6.6
100
AcDbArc
 50
0.0
 51
180.0
  0
LINE
  5
C5
100
AcDbEntity
  8
0
  6
Continuous
 62
   174
100
AcDbLine
 10
121.814707
 20
148.791624
 30
0.0
 11
121.277681
 21
148.791624
 31
0.0
  0
LINE
  5
C6
100
AcDbEntity
  8
0
  6
Continuous
 62
   174
100
AcDbLine
 10
101.923097
 20
148.791624
 30
0.0
 11
100.351958
 21
148.791624
 31
0.0
  0
LINE
  5
C7
100
AcDbEntity
  8
0
  6
Continuous
 62
   174
100
AcDbLine
 10
101.204988
 20
116.791624
 30
0.0
 11
101.204988
 21
112.791624
 31
0.0
  0
ARC
  5
C8
100
AcDbEntity
  8
0
  6
Continuous
 62
   174
100
AcDbCircle
 10
75.796651
 20
100.791624
 30
0.0
 40
6.6
100
AcDbArc
 50
0.0
 51
180.0
  0
LINE
  5
C9
100
AcDbEntity
  8
0
  6
Continuous
 62
   174
100
AcDbLine
 10
88.796651
 20
116.791624
 30
0.0
 11
101.204988
 21
116.791624
 31
0.0
  0
LWPOLYLINE
  5
CA
100
AcDbEntity
  8
0
  6
Continuous
 62
   174
100
AcDbPolyline
 90
        9
 70
   128
 10
124.653057
 20
130.648031
 10
122.949913
 20
131.116323
 10
121.23822
 20
131.537037
 10
119.517247
 20
131.905249
 10
117.787525
 20
132.215748
 10
116.049199
 20
132.463658
 10
114.303679
 20
132.644469
 10
112.552102
 20
132.754608
 10
110.796651
 20
132.791624
  0
ARC
  5
CB
100
AcDbEntity
  8
0
  6
Continuous
 62
   174
100
AcDbCircle
 10
75.796651
 20
100.791624
 30
0.0
 40
6.6
100
AcDbArc
 50
-180.0
 51
0.0
  0
LINE
  5
CC
100
AcDbEntity
  8
0
  6
Continuous
 62
   174
100
AcDbLine
 10
104.731009
 20
148.791624
 30
0.0
 11
104.345872
 21
148.791624
 31
0.0
  0
LINE
  5
CD
100
AcDbEntity
  8
0
  6
Continuous
 62
   174
100
AcDbLine
 10
100.351958
 20
148.791624
 30
0.0
 11
99.81472
 21
148.791624
 31
0.0
  0
LINE
  5
CE
100
AcDbEntity
  8
0
  6
Continuous
 62
   174
100
AcDbLine
 10
117.283767
 20
148.791624
 30
0.0
 11
116.898417
 21
148.791624
 31
0.0
  0
LWPOLYLINE
  5
CF
100
AcDbEntity
  8
0
  6
Continuous
 62
   174
100
AcDbPolyline
 90
        9
 70
   128
 10
103.291097
 20
143.630511
 10
102.829806
 20
143.884182
 10
102.36615
 20
144.1121
 10
101.899976
 20
144.311573
 10
101.43147
 20
144.47976
 10
100.960705
 20
144.614021
 10
100.488034
 20
144.711933
 10
100.013723
 20
144.771576
 10
99.53832
 20
144.791624
  0
LINE
  5
D0
100
AcDbEntity
  8
0
  6
Continuous
 62
   174
100
AcDbLine
 10
120.388314
 20
116.791624
 30
0.0
 11
132.796651
 21
116.791624
 31
0.0
  0
LWPOLYLINE
  5
D1
100
AcDbEntity
  8
0
  6
Continuous
 62
   174
100
AcDbPolyline
 90
        9
 70
   128
 10
99.53832
 20
144.791624
 10
99.06255
 20
144.771545
 10
98.587438
 20
144.711738
 10
98.113974
 20
144.613536
 10
97.64286
 20
144.479013
 10
97.174727
 20
144.310808
 10
96.709346
 20
144.111573
 10
96.246476
 20
143.883995
 10
95.785544
 20
143.630511
  0
LWPOLYLINE
  5
D2
100
AcDbEntity
  8
0
  6
Continuous
 62
   174
100
AcDbPolyline
 90
        9
 70
   128
 10
110.796651
 20
132.791624
 10
109.039846
 20
132.754551
 10
107.285327
 20
132.64411
 10
105.536892
 20
132.462768
 10
103.797288
 20
132.214377
 10
102.068933
 20
131.903845
 10
100.350878
 20
131.536069
 10
98.642069
 20
131.115979
 10
96.940244
 20
130.648031
  0
LWPOLYLINE
  5
D3
100
AcDbEntity
  8
0
  6
Continuous
 62
   174
100
AcDbPolyline
 90
        8
 70
   128
 10
122.054981
 20
144.791624
 10
122.530751
 20
144.771545
 10
123.005863
 20
144.711738
 10
123.479327
 20
144.613536
 10
123.950441
 20
144.479013
 10
124.418575
 20
144.310808
 10
124.883955
 20
144.111573
 10
125.346825
 20
143.883995
  0
LWPOLYLINE
  5
D4
100
AcDbEntity
  8
0
  6
Continuous
 62
   174
100
AcDbPolyline
 90
        9
 70
   128
 10
118.302204
 20
143.630511
 10
118.763496
 20
143.884182
 10
119.227151
 20
144.1121
 10
119.693326
 20
144.311573
 10
120.161831
 20
144.47976
 10
120.632597
 20
144.614021
 10
121.105268
 20
144.711933
 10
121.579578
 20
144.771576
 10
122.054981
 20
144.791624
  0
LINE
  5
D5
100
AcDbEntity
  8
0
  6
Continuous
 62
   174
100
AcDbLine
 10
132.796651
 20
116.791624
 30
0.0
 11
160.796651
 21
116.791624
 31
0.0
  0
LWPOLYLINE
  5
D6
100
AcDbEntity
  8
0
  6
Continuous
 62
   174
100
AcDbPolyline
 90
        9
 70
   128
 10
96.940244
 20
130.648031
 10
96.088672
 20
131.116323
 10
95.232826
 20
131.537037
 10
94.372339
 20
131.905249
 10
93.507478
 20
132.215748
 10
92.638315
 20
132.463658
 10
91.765555
 20
132.644469
 10
90.889767
 20
132.754608
 10
90.012041
 20
132.791624
  0
LWPOLYLINE
  5
D7
100
AcDbEntity
  8
0
  6
Continuous
 62
   174
100
AcDbPolyline
 90
        9
 70
   128
 10
124.653057
 20
122.935218
 10
122.949913
 20
122.466925
 10
121.23822
 20
122.046211
 10
119.517247
 20
121.677999
 10
117.787525
 20
121.3675
 10
116.049199
 20
121.11959
 10
114.303679
 20
120.93878
 10
112.552102
 20
120.828641
 10
110.796651
 20
120.791624
  0
LWPOLYLINE
  5
D8
100
AcDbEntity
  8
0
  6
Continuous
 62
   174
100
AcDbPolyline
 90
        4
 70
   128
 10
138.509464
 20
130.648031
 10
137.657892
 20
131.116323
 10
136.802045
 20
131.537037
 10
135.941559
 20
131.905249
  0
LINE
  5
D9
100
AcDbEntity
  8
0
  6
Continuous
 62
   174
100
AcDbLine
 10
120.388314
 20
116.791624
 30
0.0
 11
120.388314
 21
112.791624
 31
0.0
  0
LWPOLYLINE
  5
DA
100
AcDbEntity
  8
0
  6
Continuous
 62
   174
100
AcDbPolyline
 90
        4
 70
   128
 10
85.648182
 20
131.903845
 10
84.789155
 20
131.536069
 10
83.93475
 20
131.115979
 10
83.083838
 20
130.648031
  0
LWPOLYLINE
  5
DB
100
AcDbEntity
  8
0
  6
Continuous
 62
   174
100
AcDbPolyline
 90
        9
 70
   128
 10
118.302204
 20
143.630511
 10
117.379621
 20
143.884182
 10
116.45231
 20
144.1121
 10
115.519961
 20
144.311573
 10
114.58295
 20
144.47976
 10
113.641419
 20
144.614021
 10
112.696077
 20
144.711933
 10
111.747456
 20
144.771576
 10
110.796651
 20
144.791624
  0
LINE
  5
DC
100
AcDbEntity
  8
0
  6
Continuous
 62
   174
100
AcDbLine
 10
125.346825
 20
143.883995
 30
0.0
 11
125.807758
 21
143.630511
 31
0.0
  0
LWPOLYLINE
  5
DD
100
AcDbEntity
  8
0
  6
Continuous
 62
   174
100
AcDbPolyline
 90
        6
 70
   128
 10
90.012041
 20
132.791624
 10
89.133639
 20
132.754551
 10
88.256379
 20
132.64411
 10
87.382162
 20
132.462768
 10
86.51236
 20
132.214377
 10
85.648182
 20
131.903845
  0
LINE
  5
DE
100
AcDbEntity
  8
0
  6
Continuous
 62
   174
100
AcDbLine
 10
110.81482
 20
148.791624
 30
0.0
 11
104.731009
 21
148.791624
 31
0.0
  0
LWPOLYLINE
  5
DF
100
AcDbEntity
  8
0
  6
Continuous
 62
   174
100
AcDbPolyline
 90
        9
 70
   128
 10
131.58126
 20
132.791624
 10
130.702858
 20
132.754551
 10
129.825598
 20
132.64411
 10
128.951381
 20
132.462768
 10
128.081579
 20
132.214377
 10
127.217401
 20
131.903845
 10
126.358374
 20
131.536069
 10
125.50397
 20
131.115979
 10
124.653057
 20
130.648031
  0
LWPOLYLINE
  5
E0
100
AcDbEntity
  8
0
  6
Continuous
 62
   174
100
AcDbPolyline
 90
        9
 70
   128
 10
110.796651
 20
144.791624
 10
109.84511
 20
144.771545
 10
108.894887
 20
144.711738
 10
107.947958
 20
144.613536
 10
107.00573
 20
144.479013
 10
106.069463
 20
144.310808
 10
105.138703
 20
144.111573
 10
104.212962
 20
143.883995
 10
103.291097
 20
143.630511
  0
ENDBLK
  5
E1
100
AcDbEntity
  8
0
100
AcDbBlockEnd
  0
BLOCK
  5
E4
100
AcDbEntity
  8
0
100
AcDbBlockBegin
  2
*B4
 70
     0
 10
0.0
 20
0.0
 30
0.0
  3
*B4
  1

  0
LINE
  5
E5
100
AcDbEntity
  8
0
  6
Continuous
 62
   174
100
AcDbLine
 10
220.76537
 20
63.9855
 30
0.0
 11
220.267378
 21
65.048488
 31
0.0
  0
LINE
  5
E6
100
AcDbEntity
  8
0
  6
Continuous
 62
   174
100
AcDbLine
 10
208.612916
 20
65.08263
 30
0.0
 11
208.111612
 21
64.024022
 31
0.0
  0
LINE
  5
E7
100
AcDbEntity
  8
0
  6
Continuous
 62
   174
100
AcDbLine
 10
209.230778
 20
66.057307
 30
0.0
 11
208.612916
 21
65.08263
 31
0.0
  0
LWPOLYLINE
  5
E8
100
AcDbEntity
  8
0
  6
Continuous
 62
   174
100
AcDbPolyline
 90
        6
 70
   128
 10
214.430799
 20
68.995285
 10
212.954096
 20
68.791401
 10
211.798376
 20
68.33214
 10
210.839819
 20
67.721053
 10
209.978194
 20
66.951349
 10
209.230778
 20
66.057307
  0
LWPOLYLINE
  5
E9
100
AcDbEntity
  8
0
  6
Continuous
 62
   174
100
AcDbPolyline
 90
        6
 70
   128
 10
219.648251
 20
66.033236
 10
218.899104
 20
66.935
 10
218.035089
 20
67.71089
 10
217.073256
 20
68.326894
 10
215.913532
 20
68.789715
 10
214.430799
 20
68.995285
  0
LINE
  5
EA
100
AcDbEntity
  8
0
  6
Continuous
 62
   174
100
AcDbLine
 10
220.267378
 20
65.048488
 30
0.0
 11
219.648251
 21
66.033236
 31
0.0
  0
LINE
  5
EB
100
AcDbEntity
  8
0
  6
Continuous
 62
   174
100
AcDbLine
 10
221.430799
 20
148.791624
 30
0.0
 11
222.430799
 21
147.791624
 31
0.0
  0
LINE
  5
EC
100
AcDbEntity
  8
0
  6
Continuous
 62
   174
100
AcDbLine
 10
207.430799
 20
148.791624
 30
0.0
 11
206.430799
 21
147.791624
 31
0.0
  0
LINE
  5
ED
100
AcDbEntity
  8
0
  6
Continuous
 62
   174
100
AcDbLine
 10
206.430799
 20
147.791624
 30
0.0
 11
206.430799
 21
144.791624
 31
0.0
  0
LINE
  5
EE
100
AcDbEntity
  8
0
  6
Continuous
 62
   174
100
AcDbLine
 10
222.430799
 20
147.791624
 30
0.0
 11
222.430799
 21
144.791624
 31
0.0
  0
LINE
  5
EF
100
AcDbEntity
  8
0
  6
Continuous
 62
   174
100
AcDbLine
 10
207.555451
 20
147.791624
 30
0.0
 11
206.448898
 21
147.791624
 31
0.0
  0
LINE
  5
F0
100
AcDbEntity
  8
0
  6
Continuous
 62
   174
100
AcDbLine
 10
222.448985
 20
147.791624
 30
0.0
 11
222.075319
 21
147.791624
 31
0.0
  0
LINE
  5
F1
100
AcDbEntity
  8
0
  6
Continuous
 62
   174
100
AcDbLine
 10
222.075319
 20
147.791624
 30
0.0
 11
221.057775
 21
147.791624
 31
0.0
  0
LINE
  5
F2
100
AcDbEntity
  8
0
  6
Continuous
 62
   174
100
AcDbLine
 10
215.31343
 20
147.791624
 30
0.0
 11
208.949423
 21
147.791624
 31
0.0
  0
LWPOLYLINE
  5
F3
100
AcDbEntity
  8
0
  6
Continuous
 62
   174
100
AcDbPolyline
 90
        5
 70
   128
 10
217.367737
 20
73.4035
 10
219.032663
 20
72.254882
 10
220.327846
 20
70.655259
 10
221.149223
 20
68.733155
 10
221.430799
 20
66.643005
  0
LWPOLYLINE
  5
F4
100
AcDbEntity
  8
0
  6
Continuous
 62
   174
100
AcDbPolyline
 90
        5
 70
   128
 10
207.430799
 20
66.643005
 10
207.712375
 20
68.733155
 10
208.533752
 20
70.655259
 10
209.828935
 20
72.254882
 10
211.49386
 20
73.4035
  0
LWPOLYLINE
  5
F5
100
AcDbEntity
  8
0
  6
Continuous
 62
   174
100
AcDbPolyline
 90
       13
 70
   128
 10
214.430799
 20
73.638392
 10
214.171522
 20
73.6422
 10
213.915922
 20
73.650749
 10
213.669223
 20
73.658752
 10
213.42866
 20
73.662749
 10
213.192861
 20
73.660908
 10
212.956678
 20
73.652082
 10
212.71614
 20
73.635063
 10
212.472348
 20
73.608908
 10
212.22727
 20
73.573044
 10
211.981957
 20
73.527047
 10
211.737191
 20
73.470594
 10
211.49386
 20
73.4035
  0
LINE
  5
F6
100
AcDbEntity
  8
0
  6
Continuous
 62
   174
100
AcDbLine
 10
236.430799
 20
116.791624
 30
0.0
 11
236.430799
 21
44.791624
 31
0.0
  0
LINE
  5
F7
100
AcDbEntity
  8
0
  6
Continuous
 62
   174
100
AcDbLine
 10
194.430799
 20
116.791624
 30
0.0
 11
194.430799
 21
120.791624
 31
0.0
  0
LINE
  5
F8
100
AcDbEntity
  8
0
  6
Continuous
 62
   174
100
AcDbLine
 10
194.448886
 20
134.791624
 30
0.0
 11
214.448836
 21
134.791624
 31
0.0
  0
LINE
  5
F9
100
AcDbEntity
  8
0
  6
Continuous
 62
   174
100
AcDbLine
 10
190.430799
 20
130.648031
 30
0.0
 11
190.430799
 21
122.935218
 31
0.0
  0
LINE
  5
FA
100
AcDbEntity
  8
0
  6
Continuous
 62
   174
100
AcDbLine
 10
214.430799
 20
130.648031
 30
0.0
 11
214.430799
 21
122.935218
 31
0.0
  0
LINE
  5
FB
100
AcDbEntity
  8
0
  6
Continuous
 62
   174
100
AcDbLine
 10
199.430799
 20
156.791624
 30
0.0
 11
198.430799
 21
157.791624
 31
0.0
  0
LWPOLYLINE
  5
FC
100
AcDbEntity
  8
0
  6
Continuous
 62
   174
100
AcDbPolyline
 90
        9
 70
   128
 10
214.430799
 20
122.935218
 10
215.905765
 20
122.466925
 10
217.388134
 20
122.046211
 10
218.878541
 20
121.677999
 10
220.376524
 20
121.3675
 10
221.881959
 20
121.11959
 10
223.393623
 20
120.93878
 10
224.910533
 20
120.828641
 10
226.430799
 20
120.791624
  0
LINE
  5
FD
100
AcDbEntity
  8
0
  6
Continuous
 62
   174
100
AcDbLine
 10
201.057401
 20
157.791624
 30
0.0
 11
202.330924
 21
157.791624
 31
0.0
  0
LINE
  5
FE
100
AcDbEntity
  8
0
  6
Continuous
 62
   174
100
AcDbLine
 10
202.330924
 20
157.791624
 30
0.0
 11
226.566959
 21
157.791624
 31
0.0
  0
LWPOLYLINE
  5
FF
100
AcDbEntity
  8
0
  6
Continuous
 62
   174
100
AcDbPolyline
 90
        9
 70
   128
 10
202.430799
 20
120.791624
 10
203.952236
 20
120.828698
 10
205.471695
 20
120.939139
 10
206.985884
 20
121.120481
 10
208.492425
 20
121.368871
 10
209.989225
 20
121.679404
 10
211.477104
 20
122.04718
 10
212.956975
 20
122.467269
 10
214.430799
 20
122.935218
  0
LINE
  5
100
100
AcDbEntity
  8
0
  6
Continuous
 62
   174
100
AcDbLine
 10
217.513365
 20
147.791624
 30
0.0
 11
217.148196
 21
147.791624
 31
0.0
  0
LINE
  5
101
100
AcDbEntity
  8
0
  6
Continuous
 62
   174
100
AcDbLine
 10
214.218635
 20
69.089403
 30
0.0
 11
213.620543
 21
66.791624
 31
0.0
  0
LINE
  5
102
100
AcDbEntity
  8
0
  6
Continuous
 62
   174
100
AcDbLine
 10
234.430799
 20
132.791624
 30
0.0
 11
234.430799
 21
134.791624
 31
0.0
  0
LINE
  5
103
100
AcDbEntity
  8
0
  6
Continuous
 62
   174
100
AcDbLine
 10
227.817753
 20
136.791624
 30
0.0
 11
232.44896
 21
136.791624
 31
0.0
  0
LINE
  5
104
100
AcDbEntity
  8
0
  6
Continuous
 62
   174
100
AcDbLine
 10
229.430799
 20
176.791624
 30
0.0
 11
230.430799
 21
175.791624
 31
0.0
  0
LINE
  5
105
100
AcDbEntity
  8
0
  6
Continuous
 62
   174
100
AcDbLine
 10
229.430799
 20
176.791624
 30
0.0
 11
230.430799
 21
175.791624
 31
0.0
  0
LINE
  5
106
100
AcDbEntity
  8
0
  6
Continuous
 62
   174
100
AcDbLine
 10
230.430799
 20
157.791624
 30
0.0
 11
230.430799
 21
175.791624
 31
0.0
  0
LWPOLYLINE
  5
107
100
AcDbEntity
  8
0
  6
Continuous
 62
   174
100
AcDbPolyline
 90
        9
 70
   128
 10
226.430799
 20
120.791624
 10
227.952236
 20
120.828698
 10
229.471695
 20
120.939139
 10
230.985884
 20
121.120481
 10
232.492425
 20
121.368871
 10
233.989225
 20
121.679404
 10
235.477104
 20
122.04718
 10
236.956975
 20
122.467269
 10
238.430799
 20
122.935218
  0
LINE
  5
108
100
AcDbEntity
  8
0
  6
Continuous
 62
   174
100
AcDbLine
 10
229.546091
 20
175.791624
 30
0.0
 11
230.448923
 21
175.791624
 31
0.0
  0
LINE
  5
109
100
AcDbEntity
  8
0
  6
Continuous
 62
   174
100
AcDbLine
 10
227.840483
 20
175.791624
 30
0.0
 11
229.546091
 21
175.791624
 31
0.0
  0
LINE
  5
10A
100
AcDbEntity
  8
0
  6
Continuous
 62
   174
100
AcDbLine
 10
198.448961
 20
157.791624
 30
0.0
 11
199.093477
 21
157.791624
 31
0.0
  0
LINE
  5
10B
100
AcDbEntity
  8
0
  6
Continuous
 62
   174
100
AcDbLine
 10
201.845095
 20
156.791624
 30
0.0
 11
202.369374
 21
156.791624
 31
0.0
  0
ARC
  5
10C
100
AcDbEntity
  8
0
  6
Continuous
 62
   174
100
AcDbCircle
 10
214.430799
 20
72.791624
 30
0.0
 40
3.0
100
AcDbArc
 50
11.76854
 51
168.23146
  0
LINE
  5
10D
100
AcDbEntity
  8
0
  6
Continuous
 62
   174
100
AcDbLine
 10
192.430799
 20
44.791624
 30
0.0
 11
236.430799
 21
44.791624
 31
0.0
  0
LINE
  5
10E
100
AcDbEntity
  8
0
  6
Continuous
 62
   174
100
AcDbLine
 10
219.201818
 20
62.698966
 30
0.0
 11
218.970864
 21
62.108025
 31
0.0
  0
LINE
  5
10F
100
AcDbEntity
  8
0
  6
Continuous
 62
   174
100
AcDbLine
 10
207.921682
 20
136.791624
 30
0.0
 11
214.448836
 21
136.791624
 31
0.0
  0
LINE
  5
110
100
AcDbEntity
  8
0
  6
Continuous
 62
   174
100
AcDbLine
 10
217.952247
 20
136.791624
 30
0.0
 11
218.193993
 21
136.791624
 31
0.0
  0
LINE
  5
111
100
AcDbEntity
  8
0
  6
Continuous
 62
   174
100
AcDbLine
 10
221.462031
 20
136.791624
 30
0.0
 11
221.798309
 21
136.791624
 31
0.0
  0
LINE
  5
112
100
AcDbEntity
  8
0
  6
Continuous
 62
   174
100
AcDbLine
 10
196.448924
 20
136.791624
 30
0.0
 11
201.079918
 21
136.791624
 31
0.0
  0
LINE
  5
113
100
AcDbEntity
  8
0
  6
Continuous
 62
   174
100
AcDbLine
 10
201.079918
 20
136.791624
 30
0.0
 11
201.418321
 21
136.791624
 31
0.0
  0
LINE
  5
114
100
AcDbEntity
  8
0
  6
Continuous
 62
   174
100
AcDbLine
 10
238.430799
 20
130.648031
 30
0.0
 11
238.430799
 21
122.935218
 31
0.0
  0
LINE
  5
115
100
AcDbEntity
  8
0
  6
Continuous
 62
   174
100
AcDbLine
 10
229.430799
 20
156.791624
 30
0.0
 11
230.430799
 21
157.791624
 31
0.0
  0
LINE
  5
116
100
AcDbEntity
  8
0
  6
Continuous
 62
   174
100
AcDbLine
 10
230.430799
 20
157.791624
 30
0.0
 11
230.430799
 21
175.791624
 31
0.0
  0
LINE
  5
117
100
AcDbEntity
  8
0
  6
Continuous
 62
   174
100
AcDbLine
 10
198.430799
 20
157.791624
 30
0.0
 11
198.430799
 21
175.791624
 31
0.0
  0
LINE
  5
118
100
AcDbEntity
  8
0
  6
Continuous
 62
   174
100
AcDbLine
 10
229.546091
 20
157.791624
 30
0.0
 11
230.448923
 21
157.791624
 31
0.0
  0
LINE
  5
119
100
AcDbEntity
  8
0
  6
Continuous
 62
   174
100
AcDbLine
 10
219.466242
 20
147.791624
 30
0.0
 11
217.513365
 21
147.791624
 31
0.0
  0
LINE
  5
11A
100
AcDbEntity
  8
0
  6
Continuous
 62
   174
100
AcDbLine
 10
217.148196
 20
147.791624
 30
0.0
 11
215.31343
 21
147.791624
 31
0.0
  0
LWPOLYLINE
  5
11B
100
AcDbEntity
  8
0
  6
Continuous
 62
   174
100
AcDbPolyline
 90
        3
 70
   128
 10
221.430799
 20
66.643005
 10
221.14973
 20
64.55194
 10
220.328397
 20
62.628906
  0
LWPOLYLINE
  5
11C
100
AcDbEntity
  8
0
  6
Continuous
 62
   174
100
AcDbPolyline
 90
        3
 70
   128
 10
208.533201
 20
62.628906
 10
207.711868
 20
64.55194
 10
207.430799
 20
66.643005
  0
LINE
  5
11D
100
AcDbEntity
  8
0
  6
Continuous
 62
   174
100
AcDbLine
 10
192.430799
 20
116.791624
 30
0.0
 11
236.430799
 21
116.791624
 31
0.0
  0
LINE
  5
11E
100
AcDbEntity
  8
0
  6
Continuous
 62
   174
100
AcDbLine
 10
214.448836
 20
136.791624
 30
0.0
 11
217.952247
 21
136.791624
 31
0.0
  0
LINE
  5
11F
100
AcDbEntity
  8
0
  6
Continuous
 62
   174
100
AcDbLine
 10
222.893178
 20
136.791624
 30
0.0
 11
227.479563
 21
136.791624
 31
0.0
  0
LINE
  5
120
100
AcDbEntity
  8
0
  6
Continuous
 62
   174
100
AcDbLine
 10
227.479563
 20
136.791624
 30
0.0
 11
227.817753
 21
136.791624
 31
0.0
  0
LINE
  5
121
100
AcDbEntity
  8
0
  6
Continuous
 62
   174
100
AcDbLine
 10
206.004705
 20
136.791624
 30
0.0
 11
207.099362
 21
136.791624
 31
0.0
  0
LINE
  5
122
100
AcDbEntity
  8
0
  6
Continuous
 62
   174
100
AcDbLine
 10
214.430799
 20
143.630511
 30
0.0
 11
214.430799
 21
137.952737
 31
0.0
  0
LINE
  5
123
100
AcDbEntity
  8
0
  6
Continuous
 62
   174
100
AcDbLine
 10
201.430799
 20
143.630511
 30
0.0
 11
201.430799
 21
137.952737
 31
0.0
  0
LINE
  5
124
100
AcDbEntity
  8
0
  6
Continuous
 62
   174
100
AcDbLine
 10
226.448848
 20
132.791624
 30
0.0
 11
202.448823
 21
132.791624
 31
0.0
  0
LINE
  5
125
100
AcDbEntity
  8
0
  6
Continuous
 62
   174
100
AcDbLine
 10
238.44886
 20
132.791624
 30
0.0
 11
226.448848
 21
132.791624
 31
0.0
  0
LINE
  5
126
100
AcDbEntity
  8
0
  6
Continuous
 62
   174
100
AcDbLine
 10
199.093477
 20
175.791624
 30
0.0
 11
201.057401
 21
175.791624
 31
0.0
  0
LINE
  5
127
100
AcDbEntity
  8
0
  6
Continuous
 62
   174
100
AcDbLine
 10
199.093477
 20
157.791624
 30
0.0
 11
201.057401
 21
157.791624
 31
0.0
  0
LINE
  5
128
100
AcDbEntity
  8
0
  6
Continuous
 62
   174
100
AcDbLine
 10
227.840483
 20
157.791624
 30
0.0
 11
229.546091
 21
157.791624
 31
0.0
  0
LINE
  5
129
100
AcDbEntity
  8
0
  6
Continuous
 62
   174
100
AcDbLine
 10
199.448874
 20
156.791624
 30
0.0
 11
200.060887
 21
156.791624
 31
0.0
  0
LINE
  5
12A
100
AcDbEntity
  8
0
  6
Continuous
 62
   174
100
AcDbLine
 10
200.060887
 20
156.791624
 30
0.0
 11
201.845095
 21
156.791624
 31
0.0
  0
LINE
  5
12B
100
AcDbEntity
  8
0
  6
Continuous
 62
   174
100
AcDbLine
 10
208.949423
 20
147.791624
 30
0.0
 11
207.555451
 21
147.791624
 31
0.0
  0
LWPOLYLINE
  5
12C
100
AcDbEntity
  8
0
  6
Continuous
 62
   174
100
AcDbPolyline
 90
       13
 70
   128
 10
217.367737
 20
73.4035
 10
217.124535
 20
73.470561
 10
216.881775
 20
73.526601
 10
216.638509
 20
73.572346
 10
216.393607
 20
73.608355
 10
216.146786
 20
73.634946
 10
215.90133
 20
73.652273
 10
215.660349
 20
73.661087
 10
215.421911
 20
73.662683
 10
215.182516
 20
73.658489
 10
214.93964
 20
73.650532
 10
214.688168
 20
73.642148
 10
214.430799
 20
73.638392
  0
LINE
  5
12D
100
AcDbEntity
  8
0
  6
Continuous
 62
   174
100
AcDbLine
 10
215.898642
 20
68.790641
 30
0.0
 11
214.841974
 21
61.211523
 31
0.0
  0
LINE
  5
12E
100
AcDbEntity
  8
0
  6
Continuous
 62
   174
100
AcDbLine
 10
209.841208
 20
66.791624
 30
0.0
 11
213.638624
 21
66.791624
 31
0.0
  0
LINE
  5
12F
100
AcDbEntity
  8
0
  6
Continuous
 62
   174
100
AcDbLine
 10
207.099362
 20
136.791624
 30
0.0
 11
207.435853
 21
136.791624
 31
0.0
  0
LINE
  5
130
100
AcDbEntity
  8
0
  6
Continuous
 62
   174
100
AcDbLine
 10
214.448836
 20
134.791624
 30
0.0
 11
234.448997
 21
134.791624
 31
0.0
  0
LINE
  5
131
100
AcDbEntity
  8
0
  6
Continuous
 62
   174
100
AcDbLine
 10
202.448823
 20
120.791624
 30
0.0
 11
190.448811
 21
120.791624
 31
0.0
  0
LINE
  5
132
100
AcDbEntity
  8
0
  6
Continuous
 62
   174
100
AcDbLine
 10
227.448973
 20
144.791624
 30
0.0
 11
220.948798
 21
144.791624
 31
0.0
  0
LINE
  5
133
100
AcDbEntity
  8
0
  6
Continuous
 62
   174
100
AcDbLine
 10
199.430799
 20
176.791624
 30
0.0
 11
198.430799
 21
175.791624
 31
0.0
  0
LINE
  5
134
100
AcDbEntity
  8
0
  6
Continuous
 62
   174
100
AcDbLine
 10
198.430799
 20
157.791624
 30
0.0
 11
198.430799
 21
175.791624
 31
0.0
  0
LINE
  5
135
100
AcDbEntity
  8
0
  6
Continuous
 62
   174
100
AcDbLine
 10
198.448961
 20
175.791624
 30
0.0
 11
199.093477
 21
175.791624
 31
0.0
  0
LINE
  5
136
100
AcDbEntity
  8
0
  6
Continuous
 62
   174
100
AcDbLine
 10
221.057775
 20
147.791624
 30
0.0
 11
219.466242
 21
147.791624
 31
0.0
  0
LINE
  5
137
100
AcDbEntity
  8
0
  6
Continuous
 62
   174
100
AcDbLine
 10
219.976276
 20
64.699538
 30
0.0
 11
219.323369
 21
63.011159
 31
0.0
  0
LWPOLYLINE
  5
138
100
AcDbEntity
  8
0
  6
Continuous
 62
   174
100
AcDbPolyline
 90
        4
 70
   128
 10
213.377961
 20
61.203384
 10
213.439665
 20
62.698966
 10
213.526488
 20
64.699538
 10
213.620543
 20
66.791624
  0
LWPOLYLINE
  5
139
100
AcDbEntity
  8
0
  6
Continuous
 62
   174
100
AcDbPolyline
 90
        4
 70
   128
 10
211.608737
 20
61.497189
 10
211.067892
 20
62.698966
 10
210.171971
 20
64.699538
 10
209.452907
 20
66.311139
  0
LINE
  5
13A
100
AcDbEntity
  8
0
  6
Continuous
 62
   174
100
AcDbLine
 10
196.430799
 20
136.791624
 30
0.0
 11
194.430799
 21
134.791624
 31
0.0
  0
LINE
  5
13B
100
AcDbEntity
  8
0
  6
Continuous
 62
   174
100
AcDbLine
 10
194.430799
 20
132.791624
 30
0.0
 11
194.430799
 21
134.791624
 31
0.0
  0
LINE
  5
13C
100
AcDbEntity
  8
0
  6
Continuous
 62
   174
100
AcDbLine
 10
218.193993
 20
136.791624
 30
0.0
 11
220.976202
 21
136.791624
 31
0.0
  0
LINE
  5
13D
100
AcDbEntity
  8
0
  6
Continuous
 62
   174
100
AcDbLine
 10
220.976202
 20
136.791624
 30
0.0
 11
221.462031
 21
136.791624
 31
0.0
  0
LINE
  5
13E
100
AcDbEntity
  8
0
  6
Continuous
 62
   174
100
AcDbLine
 10
221.798309
 20
136.791624
 30
0.0
 11
222.893178
 21
136.791624
 31
0.0
  0
LINE
  5
13F
100
AcDbEntity
  8
0
  6
Continuous
 62
   174
100
AcDbLine
 10
227.430799
 20
143.630511
 30
0.0
 11
227.430799
 21
137.952737
 31
0.0
  0
LINE
  5
140
100
AcDbEntity
  8
0
  6
Continuous
 62
   174
100
AcDbLine
 10
226.448848
 20
120.791624
 30
0.0
 11
202.448823
 21
120.791624
 31
0.0
  0
LINE
  5
141
100
AcDbEntity
  8
0
  6
Continuous
 62
   174
100
AcDbLine
 10
226.566959
 20
157.791624
 30
0.0
 11
227.840483
 21
157.791624
 31
0.0
  0
LINE
  5
142
100
AcDbEntity
  8
0
  6
Continuous
 62
   174
100
AcDbLine
 10
192.430799
 20
116.791624
 30
0.0
 11
192.430799
 21
44.791624
 31
0.0
  0
LINE
  5
143
100
AcDbEntity
  8
0
  6
Continuous
 62
   174
100
AcDbLine
 10
232.430799
 20
136.791624
 30
0.0
 11
234.430799
 21
134.791624
 31
0.0
  0
LINE
  5
144
100
AcDbEntity
  8
0
  6
Continuous
 62
   174
100
AcDbLine
 10
234.430799
 20
116.791624
 30
0.0
 11
234.430799
 21
120.791624
 31
0.0
  0
LINE
  5
145
100
AcDbEntity
  8
0
  6
Continuous
 62
   174
100
AcDbLine
 10
201.418321
 20
136.791624
 30
0.0
 11
206.004705
 21
136.791624
 31
0.0
  0
LINE
  5
146
100
AcDbEntity
  8
0
  6
Continuous
 62
   174
100
AcDbLine
 10
207.435853
 20
136.791624
 30
0.0
 11
207.921682
 21
136.791624
 31
0.0
  0
LINE
  5
147
100
AcDbEntity
  8
0
  6
Continuous
 62
   174
100
AcDbLine
 10
207.948873
 20
144.791624
 30
0.0
 11
201.448911
 21
144.791624
 31
0.0
  0
LWPOLYLINE
  5
148
100
AcDbEntity
  8
0
  6
Continuous
 62
   174
100
AcDbPolyline
 90
        9
 70
   128
 10
201.430799
 20
136.791624
 10
201.430799
 20
136.811703
 10
201.430799
 20
136.871511
 10
201.430799
 20
136.969712
 10
201.430799
 20
137.104235
 10
201.430799
 20
137.27244
 10
201.430799
 20
137.471675
 10
201.430799
 20
137.699254
 10
201.430799
 20
137.952737
  0
LINE
  5
149
100
AcDbEntity
  8
0
  6
Continuous
 62
   174
100
AcDbLine
 10
228.836997
 20
156.791624
 30
0.0
 11
229.448798
 21
156.791624
 31
0.0
  0
LINE
  5
14A
100
AcDbEntity
  8
0
  6
Continuous
 62
   174
100
AcDbLine
 10
220.167002
 20
65.195742
 30
0.0
 11
219.976276
 21
64.699538
 31
0.0
  0
LINE
  5
14B
100
AcDbEntity
  8
0
  6
Continuous
 62
   174
100
AcDbLine
 10
219.32336
 20
63.011137
 30
0.0
 11
219.201818
 21
62.698966
 31
0.0
  0
LINE
  5
14C
100
AcDbEntity
  8
0
  6
Continuous
 62
   174
100
AcDbLine
 10
202.448823
 20
132.791624
 30
0.0
 11
190.448811
 21
132.791624
 31
0.0
  0
LINE
  5
14D
100
AcDbEntity
  8
0
  6
Continuous
 62
   174
100
AcDbLine
 10
220.948798
 20
144.791624
 30
0.0
 11
207.948873
 21
144.791624
 31
0.0
  0
LINE
  5
14E
100
AcDbEntity
  8
0
  6
Continuous
 62
   174
100
AcDbLine
 10
229.430799
 20
156.791624
 30
0.0
 11
230.430799
 21
157.791624
 31
0.0
  0
LINE
  5
14F
100
AcDbEntity
  8
0
  6
Continuous
 62
   174
100
AcDbLine
 10
199.430799
 20
156.791624
 30
0.0
 11
198.430799
 21
157.791624
 31
0.0
  0
LINE
  5
150
100
AcDbEntity
  8
0
  6
Continuous
 62
   174
100
AcDbLine
 10
199.430799
 20
176.791624
 30
0.0
 11
198.430799
 21
175.791624
 31
0.0
  0
LINE
  5
151
100
AcDbEntity
  8
0
  6
Continuous
 62
   174
100
AcDbLine
 10
238.44886
 20
120.791624
 30
0.0
 11
226.448848
 21
120.791624
 31
0.0
  0
LINE
  5
152
100
AcDbEntity
  8
0
  6
Continuous
 62
   174
100
AcDbLine
 10
201.057401
 20
175.791624
 30
0.0
 11
227.840483
 21
175.791624
 31
0.0
  0
LINE
  5
153
100
AcDbEntity
  8
0
  6
Continuous
 62
   174
100
AcDbLine
 10
214.430799
 20
137.952737
 30
0.0
 11
215.22978
 21
137.699067
 31
0.0
  0
LINE
  5
154
100
AcDbEntity
  8
0
  6
Continuous
 62
   174
100
AcDbLine
 10
220.493558
 20
149.791624
 30
0.0
 11
208.404325
 21
149.791624
 31
0.0
  0
LWPOLYLINE
  5
155
100
AcDbEntity
  8
0
  6
Continuous
 62
   174
100
AcDbPolyline
 90
        9
 70
   128
 10
207.930799
 20
144.791624
 10
207.106741
 20
144.771545
 10
206.283823
 20
144.711738
 10
205.463759
 20
144.613536
 10
204.647766
 20
144.479013
 10
203.836934
 20
144.310808
 10
203.030872
 20
144.111573
 10
202.229158
 20
143.883995
 10
201.430799
 20
143.630511
  0
LINE
  5
156
100
AcDbEntity
  8
0
  6
Continuous
 62
   174
100
AcDbLine
 10
203.430799
 20
148.791624
 30
0.0
 11
202.430799
 21
149.791624
 31
0.0
  0
ARC
  5
157
100
AcDbEntity
  8
0
  6
Continuous
 62
   174
100
AcDbCircle
 10
214.430799
 20
72.791624
 30
0.0
 40
13.15
100
AcDbArc
 50
180.974651
 51
359.025349
  0
LWPOLYLINE
  5
158
100
AcDbEntity
  8
0
  6
Continuous
 62
   174
100
AcDbPolyline
 90
        9
 70
   128
 10
207.930799
 20
136.791624
 10
207.106741
 20
136.811703
 10
206.283823
 20
136.871511
 10
205.463759
 20
136.969712
 10
204.647766
 20
137.104235
 10
203.836934
 20
137.27244
 10
203.030872
 20
137.471675
 10
202.229158
 20
137.699254
 10
201.430799
 20
137.952737
  0
LINE
  5
159
100
AcDbEntity
  8
0
  6
Continuous
 62
   174
100
AcDbLine
 10
208.363751
 20
148.791624
 30
0.0
 11
207.97309
 21
148.791624
 31
0.0
  0
LINE
  5
15A
100
AcDbEntity
  8
0
  6
Continuous
 62
   174
100
AcDbLine
 10
217.148408
 20
148.791624
 30
0.0
 11
208.363751
 21
148.791624
 31
0.0
  0
LWPOLYLINE
  5
15B
100
AcDbEntity
  8
0
  6
Continuous
 62
   174
100
AcDbPolyline
 90
        9
 70
   128
 10
227.430799
 20
144.791624
 10
227.430799
 20
144.771545
 10
227.430799
 20
144.711738
 10
227.430799
 20
144.613536
 10
227.430799
 20
144.479013
 10
227.430799
 20
144.310808
 10
227.430799
 20
144.111573
 10
227.430799
 20
143.883995
 10
227.430799
 20
143.630511
  0
LWPOLYLINE
  5
15C
100
AcDbEntity
  8
0
  6
Continuous
 62
   174
100
AcDbPolyline
 90
        9
 70
   128
 10
190.430799
 20
122.935218
 10
191.905765
 20
122.466925
 10
193.388134
 20
122.046211
 10
194.878541
 20
121.677999
 10
196.376524
 20
121.3675
 10
197.881959
 20
121.11959
 10
199.393623
 20
120.93878
 10
200.910533
 20
120.828641
 10
202.430799
 20
120.791624
  0
LINE
  5
15D
100
AcDbEntity
  8
0
  6
Continuous
 62
   174
100
AcDbLine
 10
220.924793
 20
148.791624
 30
0.0
 11
220.53392
 21
148.791624
 31
0.0
  0
LINE
  5
15E
100
AcDbEntity
  8
0
  6
Continuous
 62
   174
100
AcDbLine
 10
226.430799
 20
149.791624
 30
0.0
 11
226.430799
 21
156.791624
 31
0.0
  0
LINE
  5
15F
100
AcDbEntity
  8
0
  6
Continuous
 62
   174
100
AcDbLine
 10
225.430799
 20
148.791624
 30
0.0
 11
226.430799
 21
149.791624
 31
0.0
  0
LWPOLYLINE
  5
160
100
AcDbEntity
  8
0
  6
Continuous
 62
   174
100
AcDbPolyline
 90
        9
 70
   128
 10
202.430799
 20
132.791624
 10
200.909362
 20
132.754551
 10
199.389903
 20
132.64411
 10
197.875714
 20
132.462768
 10
196.369173
 20
132.214377
 10
194.872373
 20
131.903845
 10
193.384494
 20
131.536069
 10
191.904623
 20
131.115979
 10
190.430799
 20
130.648031
  0
LWPOLYLINE
  5
161
100
AcDbEntity
  8
0
  6
Continuous
 62
   174
100
AcDbPolyline
 90
        9
 70
   128
 10
190.430799
 20
132.791624
 10
190.430799
 20
132.754551
 10
190.430799
 20
132.64411
 10
190.430799
 20
132.462768
 10
190.430799
 20
132.214377
 10
190.430799
 20
131.903845
 10
190.430799
 20
131.536069
 10
190.430799
 20
131.115979
 10
190.430799
 20
130.648031
  0
ARC
  5
162
100
AcDbEntity
  8
0
  6
Continuous
 62
   174
100
AcDbCircle
 10
214.430799
 20
72.791624
 30
0.0
 40
11.75
100
AcDbArc
 50
-19.052953
 51
0.0
  0
LINE
  5
163
100
AcDbEntity
  8
0
  6
Continuous
 62
   174
100
AcDbLine
 10
203.34507
 20
149.791624
 30
0.0
 11
202.448823
 21
149.791624
 31
0.0
  0
ARC
  5
164
100
AcDbEntity
  8
0
  6
Continuous
 62
   174
100
AcDbCircle
 10
214.430799
 20
72.791624
 30
0.0
 40
11.75
100
AcDbArc
 50
199.052953
 51
340.947047
  0
LINE
  5
165
100
AcDbEntity
  8
0
  6
Continuous
 62
   174
100
AcDbLine
 10
225.862113
 20
149.791624
 30
0.0
 11
224.088315
 21
149.791624
 31
0.0
  0
LINE
  5
166
100
AcDbEntity
  8
0
  6
Continuous
 62
   174
100
AcDbLine
 10
217.844544
 20
148.791624
 30
0.0
 11
217.148408
 21
148.791624
 31
0.0
  0
LINE
  5
167
100
AcDbEntity
  8
0
  6
Continuous
 62
   174
100
AcDbLine
 10
207.97309
 20
148.791624
 30
0.0
 11
205.552015
 21
148.791624
 31
0.0
  0
LINE
  5
168
100
AcDbEntity
  8
0
  6
Continuous
 62
   174
100
AcDbLine
 10
226.448848
 20
149.791624
 30
0.0
 11
225.862113
 21
149.791624
 31
0.0
  0
LWPOLYLINE
  5
169
100
AcDbEntity
  8
0
  6
Continuous
 62
   174
100
AcDbPolyline
 90
        9
 70
   128
 10
238.430799
 20
130.648031
 10
236.955833
 20
131.116323
 10
235.473464
 20
131.537037
 10
233.983057
 20
131.905249
 10
232.485073
 20
132.215748
 10
230.979639
 20
132.463658
 10
229.467975
 20
132.644469
 10
227.951065
 20
132.754608
 10
226.430799
 20
132.791624
  0
LINE
  5
16A
100
AcDbEntity
  8
0
  6
Continuous
 62
   174
100
AcDbLine
 10
225.430799
 20
148.791624
 30
0.0
 11
226.430799
 21
149.791624
 31
0.0
  0
LINE
  5
16B
100
AcDbEntity
  8
0
  6
Continuous
 62
   174
100
AcDbLine
 10
205.552015
 20
148.791624
 30
0.0
 11
203.448948
 21
148.791624
 31
0.0
  0
LWPOLYLINE
  5
16C
100
AcDbEntity
  8
0
  6
Continuous
 62
   174
100
AcDbPolyline
 90
        9
 70
   128
 10
238.430799
 20
132.791624
 10
238.430799
 20
132.754551
 10
238.430799
 20
132.64411
 10
238.430799
 20
132.462768
 10
238.430799
 20
132.214377
 10
238.430799
 20
131.903845
 10
238.430799
 20
131.536069
 10
238.430799
 20
131.115979
 10
238.430799
 20
130.648031
  0
LINE
  5
16D
100
AcDbEntity
  8
0
  6
Continuous
 62
   174
100
AcDbLine
 10
208.404325
 20
149.791624
 30
0.0
 11
207.52911
 21
149.791624
 31
0.0
  0
ARC
  5
16E
100
AcDbEntity
  8
0
  6
Continuous
 62
   174
100
AcDbCircle
 10
214.430799
 20
72.791624
 30
0.0
 40
11.75
100
AcDbArc
 50
180.0
 51
199.052953
  0
LINE
  5
16F
100
AcDbEntity
  8
0
  6
Continuous
 62
   174
100
AcDbLine
 10
202.369374
 20
156.791624
 30
0.0
 11
226.528509
 21
156.791624
 31
0.0
  0
LINE
  5
170
100
AcDbEntity
  8
0
  6
Continuous
 62
   174
100
AcDbLine
 10
227.052577
 20
156.791624
 30
0.0
 11
228.836997
 21
156.791624
 31
0.0
  0
LWPOLYLINE
  5
171
100
AcDbEntity
  8
0
  6
Continuous
 62
   174
100
AcDbPolyline
 90
        7
 70
   128
 10
216.032854
 20
137.471148
 10
216.840292
 20
137.271676
 10
217.651767
 20
137.103489
 10
218.467157
 20
136.969228
 10
219.285847
 20
136.871316
 10
220.107378
 20
136.811672
 10
220.930799
 20
136.791624
  0
LWPOLYLINE
  5
172
100
AcDbEntity
  8
0
  6
Continuous
 62
   174
100
AcDbPolyline
 90
        9
 70
   128
 10
214.430799
 20
143.630511
 10
213.631818
 20
143.884182
 10
212.828744
 20
144.1121
 10
212.021306
 20
144.311573
 10
211.209831
 20
144.47976
 10
210.394441
 20
144.614021
 10
209.57575
 20
144.711933
 10
208.75422
 20
144.771576
 10
207.930799
 20
144.791624
  0
LWPOLYLINE
  5
173
100
AcDbEntity
  8
0
  6
Continuous
 62
   174
100
AcDbPolyline
 90
        9
 70
   128
 10
220.930799
 20
136.791624
 10
221.754857
 20
136.811703
 10
222.577775
 20
136.871511
 10
223.397839
 20
136.969712
 10
224.213832
 20
137.104235
 10
225.024663
 20
137.27244
 10
225.830726
 20
137.471675
 10
226.63244
 20
137.699254
 10
227.430799
 20
137.952737
  0
LINE
  5
174
100
AcDbEntity
  8
0
  6
Continuous
 62
   174
100
AcDbLine
 10
226.430799
 20
149.791624
 30
0.0
 11
226.430799
 21
156.791624
 31
0.0
  0
LINE
  5
175
100
AcDbEntity
  8
0
  6
Continuous
 62
   174
100
AcDbLine
 10
220.53392
 20
148.791624
 30
0.0
 11
217.844544
 21
148.791624
 31
0.0
  0
LWPOLYLINE
  5
176
100
AcDbEntity
  8
0
  6
Continuous
 62
   174
100
AcDbPolyline
 90
        9
 70
   128
 10
227.430799
 20
143.630511
 10
226.631818
 20
143.884182
 10
225.828744
 20
144.1121
 10
225.021306
 20
144.311573
 10
224.209831
 20
144.47976
 10
223.394441
 20
144.614021
 10
222.57575
 20
144.711933
 10
221.75422
 20
144.771576
 10
220.930799
 20
144.791624
  0
LINE
  5
177
100
AcDbEntity
  8
0
  6
Continuous
 62
   174
100
AcDbLine
 10
223.345656
 20
148.791624
 30
0.0
 11
220.924793
 21
148.791624
 31
0.0
  0
ARC
  5
178
100
AcDbEntity
  8
0
  6
Continuous
 62
   174
100
AcDbCircle
 10
214.430799
 20
72.791624
 30
0.0
 40
13.15
100
AcDbArc
 50
0.974651
 51
179.025349
  0
LWPOLYLINE
  5
179
100
AcDbEntity
  8
0
  6
Continuous
 62
   174
100
AcDbPolyline
 90
        9
 70
   128
 10
201.430799
 20
143.630511
 10
201.430799
 20
143.884182
 10
201.430799
 20
144.1121
 10
201.430799
 20
144.311573
 10
201.430799
 20
144.47976
 10
201.430799
 20
144.614021
 10
201.430799
 20
144.711933
 10
201.430799
 20
144.771576
 10
201.430799
 20
144.791624
  0
LINE
  5
17A
100
AcDbEntity
  8
0
  6
Continuous
 62
   174
100
AcDbLine
 10
214.430799
 20
137.952737
 30
0.0
 11
213.631818
 21
137.699067
 31
0.0
  0
LINE
  5
17B
100
AcDbEntity
  8
0
  6
Continuous
 62
   174
100
AcDbLine
 10
215.22978
 20
137.699067
 30
0.0
 11
216.032854
 21
137.471148
 31
0.0
  0
LINE
  5
17C
100
AcDbEntity
  8
0
  6
Continuous
 62
   174
100
AcDbLine
 10
213.631818
 20
137.699067
 30
0.0
 11
212.828744
 21
137.471148
 31
0.0
  0
LINE
  5
17D
100
AcDbEntity
  8
0
  6
Continuous
 62
   174
100
AcDbLine
 10
225.448935
 20
148.791624
 30
0.0
 11
224.907449
 21
148.791624
 31
0.0
  0
LINE
  5
17E
100
AcDbEntity
  8
0
  6
Continuous
 62
   174
100
AcDbLine
 10
228.836997
 20
176.791624
 30
0.0
 11
229.448798
 21
176.791624
 31
0.0
  0
ARC
  5
17F
100
AcDbEntity
  8
0
  6
Continuous
 62
   174
100
AcDbCircle
 10
214.430799
 20
72.791624
 30
0.0
 40
13.15
100
AcDbArc
 50
-0.974651
 51
0.0
  0
LINE
  5
180
100
AcDbEntity
  8
0
  6
Continuous
 62
   174
100
AcDbLine
 10
224.907449
 20
148.791624
 30
0.0
 11
223.345656
 21
148.791624
 31
0.0
  0
LINE
  5
181
100
AcDbEntity
  8
0
  6
Continuous
 62
   174
100
AcDbLine
 10
202.430799
 20
149.791624
 30
0.0
 11
202.430799
 21
156.791624
 31
0.0
  0
LINE
  5
182
100
AcDbEntity
  8
0
  6
Continuous
 62
   174
100
AcDbLine
 10
204.809569
 20
149.791624
 30
0.0
 11
203.34507
 21
149.791624
 31
0.0
  0
LWPOLYLINE
  5
183
100
AcDbEntity
  8
0
  6
Continuous
 62
   174
100
AcDbPolyline
 90
        9
 70
   128
 10
220.930799
 20
144.791624
 10
220.106741
 20
144.771545
 10
219.283823
 20
144.711738
 10
218.463759
 20
144.613536
 10
217.647766
 20
144.479013
 10
216.836934
 20
144.310808
 10
216.030872
 20
144.111573
 10
215.229158
 20
143.883995
 10
214.430799
 20
143.630511
  0
LINE
  5
184
100
AcDbEntity
  8
0
  6
Continuous
 62
   174
100
AcDbLine
 10
207.52911
 20
149.791624
 30
0.0
 11
204.809569
 21
149.791624
 31
0.0
  0
ARC
  5
185
100
AcDbEntity
  8
0
  6
Continuous
 62
   174
100
AcDbCircle
 10
214.430799
 20
72.791624
 30
0.0
 40
11.75
100
AcDbArc
 50
0.0
 51
19.052953
  0
LWPOLYLINE
  5
186
100
AcDbEntity
  8
0
  6
Continuous
 62
   174
100
AcDbPolyline
 90
        7
 70
   128
 10
212.828744
 20
137.471148
 10
212.021306
 20
137.271676
 10
211.209831
 20
137.103489
 10
210.394441
 20
136.969228
 10
209.57575
 20
136.871316
 10
208.75422
 20
136.811672
 10
207.930799
 20
136.791624
  0
ARC
  5
187
100
AcDbEntity
  8
0
  6
Continuous
 62
   174
100
AcDbCircle
 10
214.430799
 20
72.791624
 30
0.0
 40
13.15
100
AcDbArc
 50
179.025349
 51
180.0
  0
LINE
  5
188
100
AcDbEntity
  8
0
  6
Continuous
 62
   174
100
AcDbLine
 10
221.368562
 20
149.791624
 30
0.0
 11
220.493558
 21
149.791624
 31
0.0
  0
LWPOLYLINE
  5
189
100
AcDbEntity
  8
0
  6
Continuous
 62
   174
100
AcDbPolyline
 90
        9
 70
   128
 10
238.430799
 20
120.791624
 10
238.430799
 20
120.828698
 10
238.430799
 20
120.939139
 10
238.430799
 20
121.120481
 10
238.430799
 20
121.368871
 10
238.430799
 20
121.679404
 10
238.430799
 20
122.04718
 10
238.430799
 20
122.467269
 10
238.430799
 20
122.935218
  0
ARC
  5
18A
100
AcDbEntity
  8
0
  6
Continuous
 62
   174
100
AcDbCircle
 10
214.430799
 20
72.791624
 30
0.0
 40
11.75
100
AcDbArc
 50
19.052953
 51
160.947047
  0
LINE
  5
18B
100
AcDbEntity
  8
0
  6
Continuous
 62
   174
100
AcDbLine
 10
200.060887
 20
176.791624
 30
0.0
 11
228.836997
 21
176.791624
 31
0.0
  0
LINE
  5
18C
100
AcDbEntity
  8
0
  6
Continuous
 62
   174
100
AcDbLine
 10
203.430799
 20
148.791624
 30
0.0
 11
202.430799
 21
149.791624
 31
0.0
  0
LWPOLYLINE
  5
18D
100
AcDbEntity
  8
0
  6
Continuous
 62
   174
100
AcDbPolyline
 90
        9
 70
   128
 10
190.430799
 20
120.791624
 10
190.430799
 20
120.828698
 10
190.430799
 20
120.939139
 10
190.430799
 20
121.120481
 10
190.430799
 20
121.368871
 10
190.430799
 20
121.679404
 10
190.430799
 20
122.04718
 10
190.430799
 20
122.467269
 10
190.430799
 20
122.935218
  0
ARC
  5
18E
100
AcDbEntity
  8
0
  6
Continuous
 62
   174
100
AcDbCircle
 10
214.430799
 20
72.791624
 30
0.0
 40
11.75
100
AcDbArc
 50
160.947047
 51
180.0
  0
LINE
  5
18F
100
AcDbEntity
  8
0
  6
Continuous
 62
   174
100
AcDbLine
 10
199.448874
 20
176.791624
 30
0.0
 11
200.060887
 21
176.791624
 31
0.0
  0
LWPOLYLINE
  5
190
100
AcDbEntity
  8
0
  6
Continuous
 62
   174
100
AcDbPolyline
 90
        9
 70
   128
 10
226.430799
 20
132.791624
 10
224.909362
 20
132.754551
 10
223.389903
 20
132.64411
 10
221.875714
 20
132.462768
 10
220.369173
 20
132.214377
 10
218.872373
 20
131.903845
 10
217.384494
 20
131.536069
 10
215.904623
 20
131.115979
 10
214.430799
 20
130.648031
  0
ARC
  5
191
100
AcDbEntity
  8
0
  6
Continuous
 62
   174
100
AcDbCircle
 10
214.430799
 20
72.791624
 30
0.0
 40
13.15
100
AcDbArc
 50
180.0
 51
180.974651
  0
LWPOLYLINE
  5
192
100
AcDbEntity
  8
0
  6
Continuous
 62
   174
100
AcDbPolyline
 90
        9
 70
   128
 10
227.430799
 20
137.952737
 10
227.430799
 20
137.699067
 10
227.430799
 20
137.471148
 10
227.430799
 20
137.271676
 10
227.430799
 20
137.103489
 10
227.430799
 20
136.969228
 10
227.430799
 20
136.871316
 10
227.430799
 20
136.811672
 10
227.430799
 20
136.791624
  0
ARC
  5
193
100
AcDbEntity
  8
0
  6
Continuous
 62
   174
100
AcDbCircle
 10
214.430799
 20
72.791624
 30
0.0
 40
13.15
100
AcDbArc
 50
0.0
 51
0.974651
  0
LINE
  5
194
100
AcDbEntity
  8
0
  6
Continuous
 62
   174
100
AcDbLine
 10
202.430799
 20
149.791624
 30
0.0
 11
202.430799
 21
156.791624
 31
0.0
  0
LINE
  5
195
100
AcDbEntity
  8
0
  6
Continuous
 62
   174
100
AcDbLine
 10
224.088315
 20
149.791624
 30
0.0
 11
221.368562
 21
149.791624
 31
0.0
  0
LINE
  5
196
100
AcDbEntity
  8
0
  6
Continuous
 62
   174
100
AcDbLine
 10
226.528509
 20
156.791624
 30
0.0
 11
227.052577
 21
156.791624
 31
0.0
  0
LWPOLYLINE
  5
197
100
AcDbEntity
  8
0
  6
Continuous
 62
   174
100
AcDbPolyline
 90
        9
 70
   128
 10
214.430799
 20
130.648031
 10
212.955833
 20
131.116323
 10
211.473464
 20
131.537037
 10
209.983057
 20
131.905249
 10
208.485073
 20
132.215748
 10
206.979639
 20
132.463658
 10
205.467975
 20
132.644469
 10
203.951065
 20
132.754608
 10
202.430799
 20
132.791624
  0
ENDBLK
  5
198
100
AcDbEntity
  8
0
100
AcDbBlockEnd
  0
BLOCK
  5
19B
100
AcDbEntity
  8
0
100
AcDbBlockBegin
  2
*B5
 70
     0
 10
0.0
 20
0.0
 30
0.0
  3
*B5
  1

  0
LINE
  5
19C
100
AcDbEntity
  8
0
  6
Continuous
 62
     0
100
AcDbLine
 10
90.81487
 20
90.013156
 30
0.0
 11
130.814769
 21
90.013156
 31
0.0
  0
SOLID
  5
19D
100
AcDbEntity
  8
0
  6
Continuous
 62
     0
100
AcDbTrace
 10
95.814857
 20
91.013068
 30
0.0
 11
90.81487
 21
90.013156
 31
0.0
 12
95.814857
 22
89.013243
 32
0.0
 13
95.814857
 23
89.013243
 33
0.0
  0
SOLID
  5
19E
100
AcDbEntity
  8
0
  6
Continuous
 62
     0
100
AcDbTrace
 10
125.814782
 20
89.013243
 30
0.0
 11
130.814769
 21
90.013156
 31
0.0
 12
125.814782
 22
91.013068
 32
0.0
 13
125.814782
 23
91.013068
 33
0.0
  0
ENDBLK
  5
19F
100
AcDbEntity
  8
0
100
AcDbBlockEnd
  0
BLOCK
  5
1A2
100
AcDbEntity
  8
0
100
AcDbBlockBegin
  2
*B6
 70
     0
 10
0.0
 20
0.0
 30
0.0
  3
*B6
  1

  0
LINE
  5
1A3
100
AcDbEntity
  8
0
  6
Continuous
 62
     0
100
AcDbLine
 10
48.018105
 20
90.804673
 30
0.0
 11
48.018105
 21
126.802586
 31
0.0
  0
SOLID
  5
1A4
100
AcDbEntity
  8
0
  6
Continuous
 62
     0
100
AcDbTrace
 10
49.01823
 20
95.804448
 30
0.0
 11
48.018105
 21
100.804223
 31
0.0
 12
47.018193
 22
95.804448
 32
0.0
 13
47.018193
 23
95.804448
 33
0.0
  0
SOLID
  5
1A5
100
AcDbEntity
  8
0
  6
Continuous
 62
     0
100
AcDbTrace
 10
47.018193
 20
121.803023
 30
0.0
 11
48.018105
 21
116.803248
 31
0.0
 12
49.01823
 22
121.803023
 32
0.0
 13
49.01823
 23
121.803023
 33
0.0
  0
ENDBLK
  5
1A6
100
AcDbEntity
  8
0
100
AcDbBlockEnd
  0
BLOCK
  5
1A9
100
AcDbEntity
  8
0
100
AcDbBlockBegin
  2
*B7
 70
     0
 10
0.0
 20
0.0
 30
0.0
  3
*B7
  1

  0
LINE
  5
1AA
100
AcDbEntity
  8
0
  6
Continuous
 62
     0
100
AcDbLine
 10
75.814908
 20
74.013918
 30
0.0
 11
145.814731
 21
74.013918
 31
0.0
  0
SOLID
  5
1AB
100
AcDbEntity
  8
0
  6
Continuous
 62
     0
100
AcDbTrace
 10
80.814895
 20
75.014043
 30
0.0
 11
75.814908
 21
74.013918
 31
0.0
 12
80.814895
 22
73.014006
 32
0.0
 13
80.814895
 23
73.014006
 33
0.0
  0
SOLID
  5
1AC
100
AcDbEntity
  8
0
  6
Continuous
 62
     0
100
AcDbTrace
 10
140.814744
 20
73.014006
 30
0.0
 11
145.814731
 21
74.013918
 31
0.0
 12
140.814744
 22
75.014043
 32
0.0
 13
140.814744
 23
75.014043
 33
0.0
  0
ENDBLK
  5
1AD
100
AcDbEntity
  8
0
100
AcDbBlockEnd
  0
BLOCK
  5
1B0
100
AcDbEntity
  8
0
100
AcDbBlockBegin
  2
*B8
 70
     0
 10
0.0
 20
0.0
 30
0.0
  3
*B8
  1

  0
LINE
  5
1B1
100
AcDbEntity
  8
0
  6
Continuous
 62
     0
100
AcDbLine
 10
160.814693
 20
27.016756
 30
0.0
 11
60.814734
 21
27.016756
 31
0.0
  0
SOLID
  5
1B2
100
AcDbEntity
  8
0
  6
Continuous
 62
     0
100
AcDbTrace
 10
155.814706
 20
26.016631
 30
0.0
 11
160.814693
 21
27.016756
 31
0.0
 12
155.814706
 22
28.016669
 32
0.0
 13
155.814706
 23
28.016669
 33
0.0
  0
SOLID
  5
1B3
100
AcDbEntity
  8
0
  6
Continuous
 62
     0
100
AcDbTrace
 10
65.814721
 20
28.016669
 30
0.0
 11
60.814734
 21
27.016756
 31
0.0
 12
65.814721
 22
26.016631
 32
0.0
 13
65.814721
 23
26.016631
 33
0.0
  0
ENDBLK
  5
1B4
100
AcDbEntity
  8
0
100
AcDbBlockEnd
  0
BLOCK
  5
1B7
100
AcDbEntity
  8
0
100
AcDbBlockBegin
  2
*B9
 70
     0
 10
0.0
 20
0.0
 30
0.0
  3
*B9
  1

  0
LINE
  5
1B8
100
AcDbEntity
  8
0
  6
Continuous
 62
     0
100
AcDbLine
 10
178.018202
 20
116.803248
 30
0.0
 11
178.018202
 21
44.807211
 31
0.0
  0
SOLID
  5
1B9
100
AcDbEntity
  8
0
  6
Continuous
 62
     0
100
AcDbTrace
 10
179.018114
 20
111.803473
 30
0.0
 11
178.018202
 21
116.803248
 31
0.0
 12
177.018077
 22
111.803473
 32
0.0
 13
177.018077
 23
111.803473
 33
0.0
  0
SOLID
  5
1BA
100
AcDbEntity
  8
0
  6
Continuous
 62
     0
100
AcDbTrace
 10
177.018077
 20
49.806986
 30
0.0
 11
178.018202
 21
44.807211
 31
0.0
 12
179.018114
 22
49.806986
 32
0.0
 13
179.018114
 23
49.806986
 33
0.0
  0
ENDBLK
  5
1BB
100
AcDbEntity
  8
0
100
AcDbBlockEnd
  0
BLOCK
  5
1BE
100
AcDbEntity
  8
0
100
AcDbBlockBegin
  2
*B10
 70
     0
 10
0.0
 20
0.0
 30
0.0
  3
*B10
  1

  0
LINE
  5
1BF
100
AcDbEntity
  8
0
  6
Continuous
 62
     0
100
AcDbLine
 10
178.018202
 20
116.803248
 30
0.0
 11
178.018202
 21
176.79991
 31
0.0
  0
SOLID
  5
1C0
100
AcDbEntity
  8
0
  6
Continuous
 62
     0
100
AcDbTrace
 10
177.018077
 20
121.803023
 30
0.0
 11
178.018202
 21
116.803248
 31
0.0
 12
179.018114
 22
121.803023
 32
0.0
 13
179.018114
 23
121.803023
 33
0.0
  0
SOLID
  5
1C1
100
AcDbEntity
  8
0
  6
Continuous
 62
     0
100
AcDbTrace
 10
179.018114
 20
171.800135
 30
0.0
 11
178.018202
 21
176.79991
 31
0.0
 12
177.018077
 22
171.800135
 32
0.0
 13
177.018077
 23
171.800135
 33
0.0
  0
ENDBLK
  5
1C2
100
AcDbEntity
  8
0
100
AcDbBlockEnd
  0
BLOCK
  5
1C5
100
AcDbEntity
  8
0
100
AcDbBlockBegin
  2
*B11
 70
     0
 10
0.0
 20
0.0
 30
0.0
  3
*B11
  1

  0
LINE
  5
1C6
100
AcDbEntity
  8
0
  6
Continuous
 62
     0
100
AcDbLine
 10
236.199004
 20
101.012406
 30
0.0
 11
192.69888
 21
101.012406
 31
0.0
  0
SOLID
  5
1C7
100
AcDbEntity
  8
0
  6
Continuous
 62
     0
100
AcDbTrace
 10
231.198804
 20
102.012531
 30
0.0
 11
226.198817
 21
101.012406
 31
0.0
 12
231.198804
 22
100.012493
 32
0.0
 13
231.198804
 23
100.012493
 33
0.0
  0
SOLID
  5
1C8
100
AcDbEntity
  8
0
  6
Continuous
 62
     0
100
AcDbTrace
 10
197.698867
 20
100.012493
 30
0.0
 11
202.698855
 21
101.012406
 31
0.0
 12
197.698867
 22
102.012531
 32
0.0
 13
197.698867
 23
102.012531
 33
0.0
  0
ENDBLK
  5
1C9
100
AcDbEntity
  8
0
100
AcDbBlockEnd
  0
BLOCK
  5
1CC
100
AcDbEntity
  8
0
100
AcDbBlockBegin
  2
*B12
 70
     0
 10
0.0
 20
0.0
 30
0.0
  3
*B12
  1

  0
LINE
  5
1CD
100
AcDbEntity
  8
0
  6
Continuous
 62
     0
100
AcDbLine
 10
236.448822
 20
27.016756
 30
0.0
 11
192.448849
 21
27.016756
 31
0.0
  0
SOLID
  5
1CE
100
AcDbEntity
  8
0
  6
Continuous
 62
     0
100
AcDbTrace
 10
231.448835
 20
26.016631
 30
0.0
 11
236.448822
 21
27.016756
 31
0.0
 12
231.448835
 22
28.016669
 32
0.0
 13
231.448835
 23
28.016669
 33
0.0
  0
SOLID
  5
1CF
100
AcDbEntity
  8
0
  6
Continuous
 62
     0
100
AcDbTrace
 10
197.448836
 20
28.016669
 30
0.0
 11
192.448849
 21
27.016756
 31
0.0
 12
197.448836
 22
26.016631
 32
0.0
 13
197.448836
 23
26.016631
 33
0.0
  0
ENDBLK
  5
1D0
100
AcDbEntity
  8
0
100
AcDbBlockEnd
  0
BLOCK
  5
1D3
100
AcDbEntity
  8
0
100
AcDbBlockBegin
  2
*B13
 70
     0
 10
0.0
 20
0.0
 30
0.0
  3
*B13
  1

  0
LINE
  5
1D4
100
AcDbEntity
  8
0
  6
Continuous
 62
     0
100
AcDbLine
 10
251.017975
 20
72.805611
 30
0.0
 11
251.017975
 21
44.807211
 31
0.0
  0
SOLID
  5
1D5
100
AcDbEntity
  8
0
  6
Continuous
 62
     0
100
AcDbTrace
 10
252.0181
 20
67.806049
 30
0.0
 11
251.017975
 21
72.805611
 31
0.0
 12
250.018062
 22
67.806049
 32
0.0
 13
250.018062
 23
67.806049
 33
0.0
  0
SOLID
  5
1D6
100
AcDbEntity
  8
0
  6
Continuous
 62
     0
100
AcDbTrace
 10
250.018062
 20
49.806986
 30
0.0
 11
251.017975
 21
44.807211
 31
0.0
 12
252.0181
 22
49.806986
 32
0.0
 13
252.0181
 23
49.806986
 33
0.0
  0
ENDBLK
  5
1D7
100
AcDbEntity
  8
0
100
AcDbBlockEnd
  0
BLOCK
  5
1DA
100
AcDbEntity
  8
0
100
AcDbBlockBegin
  2
*B14
 70
     0
 10
0.0
 20
0.0
 30
0.0
  3
*B14
  1

  0
LINE
  5
1DB
100
AcDbEntity
  8
0
  6
Continuous
 62
     0
100
AcDbLine
 10
251.017975
 20
106.803698
 30
0.0
 11
251.017975
 21
145.822379
 31
0.0
  0
SOLID
  5
1DC
100
AcDbEntity
  8
0
  6
Continuous
 62
     0
100
AcDbTrace
 10
252.0181
 20
111.803473
 30
0.0
 11
251.017975
 21
116.803248
 31
0.0
 12
250.018062
 22
111.803473
 32
0.0
 13
250.018062
 23
111.803473
 33
0.0
  0
SOLID
  5
1DD
100
AcDbEntity
  8
0
  6
Continuous
 62
     0
100
AcDbTrace
 10
250.018062
 20
125.802673
 30
0.0
 11
251.017975
 21
120.802898
 31
0.0
 12
252.0181
 22
125.802673
 32
0.0
 13
252.0181
 23
125.802673
 33
0.0
  0
ENDBLK
  5
1DE
100
AcDbEntity
  8
0
100
AcDbBlockEnd
  0
BLOCK
  5
1E1
100
AcDbEntity
  8
0
100
AcDbBlockBegin
  2
*B15
 70
     0
 10
0.0
 20
0.0
 30
0.0
  3
*B15
  1

  0
LINE
  5
1E2
100
AcDbEntity
  8
0
  6
Continuous
 62
     8
100
AcDbLine
 10
130.814769
 20
88.013331
 30
0.0
 11
130.814769
 21
113.803298
 31
0.0
  0
ENDBLK
  5
1E3
100
AcDbEntity
  8
0
100
AcDbBlockEnd
  0
BLOCK
  5
1E6
100
AcDbEntity
  8
0
100
AcDbBlockBegin
  2
*B16
 70
     0
 10
0.0
 20
0.0
 30
0.0
  3
*B16
  1

  0
LINE
  5
1E7
100
AcDbEntity
  8
0
  6
Continuous
 62
     8
100
AcDbLine
 10
160.814693
 20
25.016719
 30
0.0
 11
160.814693
 21
41.807474
 31
0.0
  0
ENDBLK
  5
1E8
100
AcDbEntity
  8
0
100
AcDbBlockEnd
  0
BLOCK
  5
1EB
100
AcDbEntity
  8
0
100
AcDbBlockBegin
  2
*B17
 70
     0
 10
0.0
 20
0.0
 30
0.0
  3
*B17
  1

  0
LINE
  5
1EC
100
AcDbEntity
  8
0
  6
Continuous
 62
     8
100
AcDbLine
 10
214.448836
 20
38.807736
 30
0.0
 11
214.448836
 21
49.806986
 31
0.0
  0
LINE
  5
1ED
100
AcDbEntity
  8
0
  6
Continuous
 62
     8
100
AcDbLine
 10
214.448836
 20
52.806936
 30
0.0
 11
214.448836
 21
53.806849
 31
0.0
  0
LINE
  5
1EE
100
AcDbEntity
  8
0
  6
Continuous
 62
     8
100
AcDbLine
 10
214.448836
 20
56.806586
 30
0.0
 11
214.448836
 21
67.806049
 31
0.0
  0
LINE
  5
1EF
100
AcDbEntity
  8
0
  6
Continuous
 62
     8
100
AcDbLine
 10
214.448836
 20
77.805386
 30
0.0
 11
214.448836
 21
89.304698
 31
0.0
  0
LINE
  5
1F0
100
AcDbEntity
  8
0
  6
Continuous
 62
     8
100
AcDbLine
 10
214.448836
 20
92.304648
 30
0.0
 11
214.448836
 21
93.304561
 31
0.0
  0
LINE
  5
1F1
100
AcDbEntity
  8
0
  6
Continuous
 62
     8
100
AcDbLine
 10
214.448836
 20
96.304298
 30
0.0
 11
214.448836
 21
107.803823
 31
0.0
  0
LINE
  5
1F2
100
AcDbEntity
  8
0
  6
Continuous
 62
     8
100
AcDbLine
 10
214.448836
 20
110.803561
 30
0.0
 11
214.448836
 21
111.803473
 31
0.0
  0
LINE
  5
1F3
100
AcDbEntity
  8
0
  6
Continuous
 62
     8
100
AcDbLine
 10
214.448836
 20
114.803423
 30
0.0
 11
214.448836
 21
126.302736
 31
0.0
  0
LINE
  5
1F4
100
AcDbEntity
  8
0
  6
Continuous
 62
     8
100
AcDbLine
 10
214.448836
 20
129.302473
 30
0.0
 11
214.448836
 21
130.302386
 31
0.0
  0
LINE
  5
1F5
100
AcDbEntity
  8
0
  6
Continuous
 62
     8
100
AcDbLine
 10
214.448836
 20
133.302336
 30
0.0
 11
214.448836
 21
144.801648
 31
0.0
  0
LINE
  5
1F6
100
AcDbEntity
  8
0
  6
Continuous
 62
     8
100
AcDbLine
 10
214.448836
 20
147.801385
 30
0.0
 11
214.448836
 21
148.80151
 31
0.0
  0
LINE
  5
1F7
100
AcDbEntity
  8
0
  6
Continuous
 62
     8
100
AcDbLine
 10
214.448836
 20
151.801248
 30
0.0
 11
214.448836
 21
163.30056
 31
0.0
  0
LINE
  5
1F8
100
AcDbEntity
  8
0
  6
Continuous
 62
     8
100
AcDbLine
 10
214.448836
 20
166.30051
 30
0.0
 11
214.448836
 21
167.300423
 31
0.0
  0
LINE
  5
1F9
100
AcDbEntity
  8
0
  6
Continuous
 62
     8
100
AcDbLine
 10
214.448836
 20
170.30016
 30
0.0
 11
214.448836
 21
181.799473
 31
0.0
  0
ENDBLK
  5
1FA
100
AcDbEntity
  8
0
100
AcDbBlockEnd
  0
BLOCK
  5
1FD
100
AcDbEntity
  8
0
100
AcDbBlockBegin
  2
*B18
 70
     0
 10
0.0
 20
0.0
 30
0.0
  3
*B18
  1

  0
LINE
  5
1FE
100
AcDbEntity
  8
0
  6
Continuous
 62
     8
100
AcDbLine
 10
192.448849
 20
25.016719
 30
0.0
 11
192.448849
 21
41.807474
 31
0.0
  0
ENDBLK
  5
1FF
100
AcDbEntity
  8
0
100
AcDbBlockEnd
  0
BLOCK
  5
202
100
AcDbEntity
  8
0
100
AcDbBlockBegin
  2
*B19
 70
     0
 10
0.0
 20
0.0
 30
0.0
  3
*B19
  1

  0
LINE
  5
203
100
AcDbEntity
  8
0
  6
Continuous
 62
     8
100
AcDbLine
 10
239.448772
 20
116.803248
 30
0.0
 11
253.018012
 21
116.803248
 31
0.0
  0
ENDBLK
  5
204
100
AcDbEntity
  8
0
100
AcDbBlockEnd
  0
BLOCK
  5
207
100
AcDbEntity
  8
0
100
AcDbBlockBegin
  2
*B20
 70
     0
 10
0.0
 20
0.0
 30
0.0
  3
*B20
  1

  0
LINE
  5
208
100
AcDbEntity
  8
0
  6
Continuous
 62
     8
100
AcDbLine
 10
46.018068
 20
116.803248
 30
0.0
 11
57.814784
 21
116.803248
 31
0.0
  0
LINE
  5
209
100
AcDbEntity
  8
0
  6
Continuous
 62
     8
100
AcDbLine
 10
163.814856
 20
116.803248
 30
0.0
 11
180.018027
 21
116.803248
 31
0.0
  0
ENDBLK
  5
20A
100
AcDbEntity
  8
0
100
AcDbBlockEnd
  0
BLOCK
  5
20D
100
AcDbEntity
  8
0
100
AcDbBlockBegin
  2
*B21
 70
     0
 10
0.0
 20
0.0
 30
0.0
  3
*B21
  1

  0
LINE
  5
20E
100
AcDbEntity
  8
0
  6
Continuous
 62
     8
100
AcDbLine
 10
128.811333
 20
176.79991
 30
0.0
 11
180.018027
 21
176.79991
 31
0.0
  0
ENDBLK
  5
20F
100
AcDbEntity
  8
0
100
AcDbBlockEnd
  0
BLOCK
  5
212
100
AcDbEntity
  8
0
100
AcDbBlockBegin
  2
*B22
 70
     0
 10
0.0
 20
0.0
 30
0.0
  3
*B22
  1

  0
LINE
  5
213
100
AcDbEntity
  8
0
  6
Continuous
 62
     8
100
AcDbLine
 10
226.198817
 20
75.805561
 30
0.0
 11
226.198817
 21
103.012443
 31
0.0
  0
ENDBLK
  5
214
100
AcDbEntity
  8
0
100
AcDbBlockEnd
  0
BLOCK
  5
217
100
AcDbEntity
  8
0
100
AcDbBlockBegin
  2
*B23
 70
     0
 10
0.0
 20
0.0
 30
0.0
  3
*B23
  1

  0
LINE
  5
218
100
AcDbEntity
  8
0
  6
Continuous
 62
     8
100
AcDbLine
 10
75.814908
 20
72.014093
 30
0.0
 11
75.814908
 21
76.013956
 31
0.0
  0
LINE
  5
219
100
AcDbEntity
  8
0
  6
Continuous
 62
     8
100
AcDbLine
 10
75.814908
 20
76.013956
 30
0.0
 11
75.814908
 21
95.804448
 31
0.0
  0
LINE
  5
21A
100
AcDbEntity
  8
0
  6
Continuous
 62
     8
100
AcDbLine
 10
75.814908
 20
105.803786
 30
0.0
 11
75.814908
 21
113.403503
 31
0.0
  0
ENDBLK
  5
21B
100
AcDbEntity
  8
0
100
AcDbBlockEnd
  0
BLOCK
  5
21E
100
AcDbEntity
  8
0
100
AcDbBlockBegin
  2
*B24
 70
     0
 10
0.0
 20
0.0
 30
0.0
  3
*B24
  1

  0
LINE
  5
21F
100
AcDbEntity
  8
0
  6
Continuous
 62
     8
100
AcDbLine
 10
239.448772
 20
44.807211
 30
0.0
 11
253.018012
 21
44.807211
 31
0.0
  0
ENDBLK
  5
220
100
AcDbEntity
  8
0
100
AcDbBlockEnd
  0
BLOCK
  5
223
100
AcDbEntity
  8
0
100
AcDbBlockBegin
  2
*B25
 70
     0
 10
0.0
 20
0.0
 30
0.0
  3
*B25
  1

  0
LINE
  5
224
100
AcDbEntity
  8
0
  6
Continuous
 62
     8
100
AcDbLine
 10
163.814856
 20
44.807211
 30
0.0
 11
180.018027
 21
44.807211
 31
0.0
  0
ENDBLK
  5
225
100
AcDbEntity
  8
0
100
AcDbBlockEnd
  0
BLOCK
  5
228
100
AcDbEntity
  8
0
100
AcDbBlockBegin
  2
*B26
 70
     0
 10
0.0
 20
0.0
 30
0.0
  3
*B26
  1

  0
LINE
  5
229
100
AcDbEntity
  8
0
  6
Continuous
 62
     8
100
AcDbLine
 10
145.814731
 20
72.014093
 30
0.0
 11
145.814731
 21
76.013956
 31
0.0
  0
LINE
  5
22A
100
AcDbEntity
  8
0
  6
Continuous
 62
     8
100
AcDbLine
 10
145.814731
 20
76.013956
 30
0.0
 11
145.814731
 21
95.804448
 31
0.0
  0
LINE
  5
22B
100
AcDbEntity
  8
0
  6
Continuous
 62
     8
100
AcDbLine
 10
145.814731
 20
105.803786
 30
0.0
 11
145.814731
 21
113.403503
 31
0.0
  0
ENDBLK
  5
22C
100
AcDbEntity
  8
0
100
AcDbBlockEnd
  0
BLOCK
  5
22F
100
AcDbEntity
  8
0
100
AcDbBlockBegin
  2
*B27
 70
     0
 10
0.0
 20
0.0
 30
0.0
  3
*B27
  1

  0
LINE
  5
230
100
AcDbEntity
  8
0
  6
Continuous
 62
     8
100
AcDbLine
 10
249.01815
 20
72.805611
 30
0.0
 11
253.018012
 21
72.805611
 31
0.0
  0
LINE
  5
231
100
AcDbEntity
  8
0
  6
Continuous
 62
     8
100
AcDbLine
 10
196.698955
 20
72.805611
 30
0.0
 11
209.448848
 21
72.805611
 31
0.0
  0
LINE
  5
232
100
AcDbEntity
  8
0
  6
Continuous
 62
     8
100
AcDbLine
 10
219.448823
 20
72.805611
 30
0.0
 11
230.73358
 21
72.805611
 31
0.0
  0
LINE
  5
233
100
AcDbEntity
  8
0
  6
Continuous
 62
     8
100
AcDbLine
 10
233.73353
 20
72.805611
 30
0.0
 11
234.733443
 21
72.805611
 31
0.0
  0
LINE
  5
234
100
AcDbEntity
  8
0
  6
Continuous
 62
     8
100
AcDbLine
 10
237.733392
 20
72.805611
 30
0.0
 11
249.01815
 21
72.805611
 31
0.0
  0
ENDBLK
  5
235
100
AcDbEntity
  8
0
100
AcDbBlockEnd
  0
BLOCK
  5
238
100
AcDbEntity
  8
0
100
AcDbBlockBegin
  2
*B28
 70
     0
 10
0.0
 20
0.0
 30
0.0
  3
*B28
  1

  0
LINE
  5
239
100
AcDbEntity
  8
0
  6
Continuous
 62
     8
100
AcDbLine
 10
110.81482
 20
38.807736
 30
0.0
 11
110.81482
 21
50.556868
 31
0.0
  0
LINE
  5
23A
100
AcDbEntity
  8
0
  6
Continuous
 62
     8
100
AcDbLine
 10
110.81482
 20
53.556818
 30
0.0
 11
110.81482
 21
54.55673
 31
0.0
  0
LINE
  5
23B
100
AcDbEntity
  8
0
  6
Continuous
 62
     8
100
AcDbLine
 10
110.81482
 20
57.556468
 30
0.0
 11
110.81482
 21
69.305811
 31
0.0
  0
LINE
  5
23C
100
AcDbEntity
  8
0
  6
Continuous
 62
     8
100
AcDbLine
 10
110.81482
 20
72.305761
 30
0.0
 11
110.81482
 21
73.305674
 31
0.0
  0
LINE
  5
23D
100
AcDbEntity
  8
0
  6
Continuous
 62
     8
100
AcDbLine
 10
110.81482
 20
76.305411
 30
0.0
 11
110.81482
 21
88.054755
 31
0.0
  0
LINE
  5
23E
100
AcDbEntity
  8
0
  6
Continuous
 62
     8
100
AcDbLine
 10
110.81482
 20
91.054705
 30
0.0
 11
110.81482
 21
92.054617
 31
0.0
  0
LINE
  5
23F
100
AcDbEntity
  8
0
  6
Continuous
 62
     8
100
AcDbLine
 10
110.81482
 20
95.054355
 30
0.0
 11
110.81482
 21
106.803698
 31
0.0
  0
LINE
  5
240
100
AcDbEntity
  8
0
  6
Continuous
 62
     8
100
AcDbLine
 10
110.81482
 20
109.803648
 30
0.0
 11
110.81482
 21
110.803561
 31
0.0
  0
LINE
  5
241
100
AcDbEntity
  8
0
  6
Continuous
 62
     8
100
AcDbLine
 10
110.81482
 20
113.803298
 30
0.0
 11
110.81482
 21
125.552642
 31
0.0
  0
LINE
  5
242
100
AcDbEntity
  8
0
  6
Continuous
 62
     8
100
AcDbLine
 10
110.81482
 20
128.552592
 30
0.0
 11
110.81482
 21
129.552504
 31
0.0
  0
LINE
  5
243
100
AcDbEntity
  8
0
  6
Continuous
 62
     8
100
AcDbLine
 10
110.81482
 20
132.552242
 30
0.0
 11
110.81482
 21
144.301585
 31
0.0
  0
LINE
  5
244
100
AcDbEntity
  8
0
  6
Continuous
 62
     8
100
AcDbLine
 10
110.81482
 20
147.301535
 30
0.0
 11
110.81482
 21
148.301448
 31
0.0
  0
LINE
  5
245
100
AcDbEntity
  8
0
  6
Continuous
 62
     8
100
AcDbLine
 10
110.81482
 20
151.301185
 30
0.0
 11
110.81482
 21
163.050529
 31
0.0
  0
LINE
  5
246
100
AcDbEntity
  8
0
  6
Continuous
 62
     8
100
AcDbLine
 10
110.81482
 20
166.050479
 30
0.0
 11
110.81482
 21
167.050391
 31
0.0
  0
LINE
  5
247
100
AcDbEntity
  8
0
  6
Continuous
 62
     8
100
AcDbLine
 10
110.81482
 20
170.050129
 30
0.0
 11
110.81482
 21
181.799473
 31
0.0
  0
ENDBLK
  5
248
100
AcDbEntity
  8
0
100
AcDbBlockEnd
  0
BLOCK
  5
24B
100
AcDbEntity
  8
0
100
AcDbBlockBegin
  2
*B29
 70
     0
 10
0.0
 20
0.0
 30
0.0
  3
*B29
  1

  0
LINE
  5
24C
100
AcDbEntity
  8
0
  6
Continuous
 62
     8
100
AcDbLine
 10
202.698855
 20
75.805561
 30
0.0
 11
202.698855
 21
103.012443
 31
0.0
  0
ENDBLK
  5
24D
100
AcDbEntity
  8
0
100
AcDbBlockEnd
  0
BLOCK
  5
250
100
AcDbEntity
  8
0
100
AcDbBlockBegin
  2
*B30
 70
     0
 10
0.0
 20
0.0
 30
0.0
  3
*B30
  1

  0
LINE
  5
251
100
AcDbEntity
  8
0
  6
Continuous
 62
     8
100
AcDbLine
 10
236.448822
 20
25.016719
 30
0.0
 11
236.448822
 21
41.807474
 31
0.0
  0
ENDBLK
  5
252
100
AcDbEntity
  8
0
100
AcDbBlockEnd
  0
BLOCK
  5
255
100
AcDbEntity
  8
0
100
AcDbBlockBegin
  2
*B31
 70
     0
 10
0.0
 20
0.0
 30
0.0
  3
*B31
  1

  0
LINE
  5
256
100
AcDbEntity
  8
0
  6
Continuous
 62
     8
100
AcDbLine
 10
60.814734
 20
25.016719
 30
0.0
 11
60.814734
 21
41.807474
 31
0.0
  0
ENDBLK
  5
257
100
AcDbEntity
  8
0
100
AcDbBlockEnd
  0
BLOCK
  5
25A
100
AcDbEntity
  8
0
100
AcDbBlockBegin
  2
*B32
 70
     0
 10
0.0
 20
0.0
 30
0.0
  3
*B32
  1

  0
LINE
  5
25B
100
AcDbEntity
  8
0
  6
Continuous
 62
     8
100
AcDbLine
 10
46.018068
 20
100.804223
 30
0.0
 11
50.018143
 21
100.804223
 31
0.0
  0
LINE
  5
25C
100
AcDbEntity
  8
0
  6
Continuous
 62
     8
100
AcDbLine
 10
50.018143
 20
100.804223
 30
0.0
 11
70.814921
 21
100.804223
 31
0.0
  0
LINE
  5
25D
100
AcDbEntity
  8
0
  6
Continuous
 62
     8
100
AcDbLine
 10
80.814895
 20
100.804223
 30
0.0
 11
90.564839
 21
100.804223
 31
0.0
  0
LINE
  5
25E
100
AcDbEntity
  8
0
  6
Continuous
 62
     8
100
AcDbLine
 10
93.564789
 20
100.804223
 30
0.0
 11
94.564914
 21
100.804223
 31
0.0
  0
LINE
  5
25F
100
AcDbEntity
  8
0
  6
Continuous
 62
     8
100
AcDbLine
 10
97.564864
 20
100.804223
 30
0.0
 11
107.314807
 21
100.804223
 31
0.0
  0
LINE
  5
260
100
AcDbEntity
  8
0
  6
Continuous
 62
     8
100
AcDbLine
 10
110.314757
 20
100.804223
 30
0.0
 11
111.314882
 21
100.804223
 31
0.0
  0
LINE
  5
261
100
AcDbEntity
  8
0
  6
Continuous
 62
     8
100
AcDbLine
 10
114.314832
 20
100.804223
 30
0.0
 11
124.064775
 21
100.804223
 31
0.0
  0
LINE
  5
262
100
AcDbEntity
  8
0
  6
Continuous
 62
     8
100
AcDbLine
 10
127.064725
 20
100.804223
 30
0.0
 11
128.06485
 21
100.804223
 31
0.0
  0
LINE
  5
263
100
AcDbEntity
  8
0
  6
Continuous
 62
     8
100
AcDbLine
 10
131.0648
 20
100.804223
 30
0.0
 11
140.814744
 21
100.804223
 31
0.0
  0
LINE
  5
264
100
AcDbEntity
  8
0
  6
Continuous
 62
     8
100
AcDbLine
 10
150.814718
 20
100.804223
 30
0.0
 11
158.414861
 21
100.804223
 31
0.0
  0
ENDBLK
  5
265
100
AcDbEntity
  8
0
100
AcDbBlockEnd
  0
BLOCK
  5
268
100
AcDbEntity
  8
0
100
AcDbBlockBegin
  2
*B33
 70
     0
 10
0.0
 20
0.0
 30
0.0
  3
*B33
  1

  0
LINE
  5
269
100
AcDbEntity
  8
0
  6
Continuous
 62
     8
100
AcDbLine
 10
241.44881
 20
120.802898
 30
0.0
 11
253.018012
 21
120.802898
 31
0.0
  0
ENDBLK
  5
26A
100
AcDbEntity
  8
0
100
AcDbBlockEnd
  0
BLOCK
  5
26D
100
AcDbEntity
  8
0
100
AcDbBlockBegin
  2
*B34
 70
     0
 10
0.0
 20
0.0
 30
0.0
  3
*B34
  1

  0
LINE
  5
26E
100
AcDbEntity
  8
0
  6
Continuous
 62
     8
100
AcDbLine
 10
90.81487
 20
88.013331
 30
0.0
 11
90.81487
 21
113.803298
 31
0.0
  0
ENDBLK
  5
26F
100
AcDbEntity
  8
0
100
AcDbBlockEnd
  0
BLOCK
  5
272
100
AcDbEntity
  8
0
100
AcDbBlockBegin
  2
*B35
 70
     0
 10
0.0
 20
0.0
 30
0.0
  3
*B35
  1

  0
LINE
  5
273
100
AcDbEntity
  8
0
  6
Continuous
 62
     6
100
AcDbLine
 10
145.814731
 20
98.804186
 30
0.0
 11
145.814731
 21
102.804048
 31
0.0
  0
LINE
  5
274
100
AcDbEntity
  8
0
  6
Continuous
 62
     6
100
AcDbLine
 10
143.814694
 20
100.804223
 30
0.0
 11
147.814769
 21
100.804223
 31
0.0
  0
ENDBLK
  5
275
100
AcDbEntity
  8
0
100
AcDbBlockEnd
  0
BLOCK
  5
278
100
AcDbEntity
  8
0
100
AcDbBlockBegin
  2
*B36
 70
     0
 10
0.0
 20
0.0
 30
0.0
  3
*B36
  1

  0
LINE
  5
279
100
AcDbEntity
  8
0
  6
Continuous
 62
     6
100
AcDbLine
 10
75.814908
 20
98.804186
 30
0.0
 11
75.814908
 21
102.804048
 31
0.0
  0
LINE
  5
27A
100
AcDbEntity
  8
0
  6
Continuous
 62
     6
100
AcDbLine
 10
73.814871
 20
100.804223
 30
0.0
 11
77.814733
 21
100.804223
 31
0.0
  0
ENDBLK
  5
27B
100
AcDbEntity
  8
0
100
AcDbBlockEnd
  0
BLOCK
  5
27E
100
AcDbEntity
  8
0
100
AcDbBlockBegin
  2
*B37
 70
     0
 10
0.0
 20
0.0
 30
0.0
  3
*B37
  1

  0
LINE
  5
27F
100
AcDbEntity
  8
0
  6
Continuous
 62
     6
100
AcDbLine
 10
214.448836
 20
70.805786
 30
0.0
 11
214.448836
 21
74.805649
 31
0.0
  0
LINE
  5
280
100
AcDbEntity
  8
0
  6
Continuous
 62
     6
100
AcDbLine
 10
212.448798
 20
72.805611
 30
0.0
 11
216.448873
 21
72.805611
 31
0.0
  0
ENDBLK
  5
281
100
AcDbEntity
  8
0
100
AcDbBlockEnd
  0
BLOCK
  5
284
100
AcDbEntity
  8
0
100
AcDbBlockBegin
  2
*B38
 70
     0
 10
0.0
 20
0.0
 30
0.0
  3
*B38
  1

  0
LINE
  5
285
100
AcDbEntity
  8
0
  6
Continuous
 62
     0
100
AcDbLine
 10
163.351544
 20
146.634927
 30
0.0
 11
146.351544
 21
146.634927
 31
0.0
  0
LINE
  5
286
100
AcDbEntity
  8
0
  6
Continuous
 62
     0
100
AcDbLine
 10
146.351544
 20
146.634927
 30
0.0
 11
132.01819
 21
127.01098
 31
0.0
  0
SOLID
  5
287
100
AcDbEntity
  8
0
  6
Continuous
 62
     0
100
AcDbTrace
 10
132.942053
 20
127.393781
 30
0.0
 11
132.725161
 21
127.718163
 31
0.0
 12
132.400779
 22
127.934843
 32
0.0
 13
132.400779
 23
127.934843
 33
0.0
  0
SOLID
  5
288
100
AcDbEntity
  8
0
  6
Continuous
 62
     0
100
AcDbTrace
 10
132.942053
 20
127.393781
 30
0.0
 11
132.400779
 21
127.934843
 31
0.0
 12
132.01819
 22
128.010893
 32
0.0
 13
132.01819
 23
128.010893
 33
0.0
  0
SOLID
  5
289
100
AcDbEntity
  8
0
  6
Continuous
 62
     0
100
AcDbTrace
 10
132.942053
 20
127.393781
 30
0.0
 11
132.01819
 21
128.010893
 31
0.0
 12
131.63539
 22
127.934843
 32
0.0
 13
131.63539
 23
127.934843
 33
0.0
  0
SOLID
  5
28A
100
AcDbEntity
  8
0
  6
Continuous
 62
     0
100
AcDbTrace
 10
132.942053
 20
127.393781
 30
0.0
 11
131.63539
 21
127.934843
 31
0.0
 12
131.311008
 22
127.718163
 32
0.0
 13
131.311008
 23
127.718163
 33
0.0
  0
SOLID
  5
28B
100
AcDbEntity
  8
0
  6
Continuous
 62
     0
100
AcDbTrace
 10
132.942053
 20
127.393781
 30
0.0
 11
131.311008
 21
127.718163
 31
0.0
 12
131.094328
 22
127.393781
 32
0.0
 13
131.094328
 23
127.393781
 33
0.0
  0
SOLID
  5
28C
100
AcDbEntity
  8
0
  6
Continuous
 62
     0
100
AcDbTrace
 10
132.942053
 20
127.393781
 30
0.0
 11
131.094328
 21
127.393781
 31
0.0
 12
131.018065
 22
127.01098
 32
0.0
 13
131.018065
 23
127.01098
 33
0.0
  0
SOLID
  5
28D
100
AcDbEntity
  8
0
  6
Continuous
 62
     0
100
AcDbTrace
 10
132.942053
 20
127.393781
 30
0.0
 11
131.018065
 21
127.01098
 31
0.0
 12
131.094328
 22
126.628392
 32
0.0
 13
131.094328
 23
126.628392
 33
0.0
  0
SOLID
  5
28E
100
AcDbEntity
  8
0
  6
Continuous
 62
     0
100
AcDbTrace
 10
132.942053
 20
127.393781
 30
0.0
 11
131.094328
 21
126.628392
 31
0.0
 12
131.311008
 22
126.30401
 32
0.0
 13
131.311008
 23
126.30401
 33
0.0
  0
SOLID
  5
28F
100
AcDbEntity
  8
0
  6
Continuous
 62
     0
100
AcDbTrace
 10
132.942053
 20
127.393781
 30
0.0
 11
131.311008
 21
126.30401
 31
0.0
 12
131.63539
 22
126.087118
 32
0.0
 13
131.63539
 23
126.087118
 33
0.0
  0
SOLID
  5
290
100
AcDbEntity
  8
0
  6
Continuous
 62
     0
100
AcDbTrace
 10
132.942053
 20
127.393781
 30
0.0
 11
131.63539
 21
126.087118
 31
0.0
 12
132.01819
 22
126.011068
 32
0.0
 13
132.01819
 23
126.011068
 33
0.0
  0
SOLID
  5
291
100
AcDbEntity
  8
0
  6
Continuous
 62
     0
100
AcDbTrace
 10
132.942053
 20
127.393781
 30
0.0
 11
132.01819
 21
126.011068
 31
0.0
 12
132.400779
 22
126.087118
 32
0.0
 13
132.400779
 23
126.087118
 33
0.0
  0
SOLID
  5
292
100
AcDbEntity
  8
0
  6
Continuous
 62
     0
100
AcDbTrace
 10
132.942053
 20
127.393781
 30
0.0
 11
132.400779
 21
126.087118
 31
0.0
 12
132.725161
 22
126.30401
 32
0.0
 13
132.725161
 23
126.30401
 33
0.0
  0
SOLID
  5
293
100
AcDbEntity
  8
0
  6
Continuous
 62
     0
100
AcDbTrace
 10
132.942053
 20
127.393781
 30
0.0
 11
132.725161
 21
126.30401
 31
0.0
 12
132.942053
 22
126.628392
 32
0.0
 13
132.942053
 23
126.628392
 33
0.0
  0
SOLID
  5
294
100
AcDbEntity
  8
0
  6
Continuous
 62
     0
100
AcDbTrace
 10
132.942053
 20
127.393781
 30
0.0
 11
132.942053
 21
126.628392
 31
0.0
 12
133.018103
 22
127.01098
 32
0.0
 13
133.018103
 23
127.01098
 33
0.0
  0
ENDBLK
  5
295
100
AcDbEntity
  8
0
100
AcDbBlockEnd
  0
BLOCK
  5
298
100
AcDbEntity
  8
0
100
AcDbBlockBegin
  2
*B39
 70
     0
 10
0.0
 20
0.0
 30
0.0
  3
*B39
  1

  0
LINE
  5
299
100
AcDbEntity
  8
0
  6
Continuous
 62
     0
100
AcDbLine
 10
157.351431
 20
165.633902
 30
0.0
 11
140.351432
 21
165.633902
 31
0.0
  0
LINE
  5
29A
100
AcDbEntity
  8
0
  6
Continuous
 62
     0
100
AcDbLine
 10
140.351432
 20
165.633902
 30
0.0
 11
121.018091
 21
141.01018
 31
0.0
  0
SOLID
  5
29B
100
AcDbEntity
  8
0
  6
Continuous
 62
     0
100
AcDbTrace
 10
121.941953
 20
141.392981
 30
0.0
 11
121.725273
 21
141.717363
 31
0.0
 12
121.400891
 22
141.934042
 32
0.0
 13
121.400891
 23
141.934042
 33
0.0
  0
SOLID
  5
29C
100
AcDbEntity
  8
0
  6
Continuous
 62
     0
100
AcDbTrace
 10
121.941953
 20
141.392981
 30
0.0
 11
121.400891
 21
141.934042
 31
0.0
 12
121.018091
 22
142.010093
 32
0.0
 13
121.018091
 23
142.010093
 33
0.0
  0
SOLID
  5
29D
100
AcDbEntity
  8
0
  6
Continuous
 62
     0
100
AcDbTrace
 10
121.941953
 20
141.392981
 30
0.0
 11
121.018091
 21
142.010093
 31
0.0
 12
120.635503
 22
141.934042
 32
0.0
 13
120.635503
 23
141.934042
 33
0.0
  0
SOLID
  5
29E
100
AcDbEntity
  8
0
  6
Continuous
 62
     0
100
AcDbTrace
 10
121.941953
 20
141.392981
 30
0.0
 11
120.635503
 21
141.934042
 31
0.0
 12
120.311121
 22
141.717363
 32
0.0
 13
120.311121
 23
141.717363
 33
0.0
  0
SOLID
  5
29F
100
AcDbEntity
  8
0
  6
Continuous
 62
     0
100
AcDbTrace
 10
121.941953
 20
141.392981
 30
0.0
 11
120.311121
 21
141.717363
 31
0.0
 12
120.094229
 22
141.392981
 32
0.0
 13
120.094229
 23
141.392981
 33
0.0
  0
SOLID
  5
2A0
100
AcDbEntity
  8
0
  6
Continuous
 62
     0
100
AcDbTrace
 10
121.941953
 20
141.392981
 30
0.0
 11
120.094229
 21
141.392981
 31
0.0
 12
120.018178
 22
141.01018
 32
0.0
 13
120.018178
 23
141.01018
 33
0.0
  0
SOLID
  5
2A1
100
AcDbEntity
  8
0
  6
Continuous
 62
     0
100
AcDbTrace
 10
121.941953
 20
141.392981
 30
0.0
 11
120.018178
 21
141.01018
 31
0.0
 12
120.094229
 22
140.627592
 32
0.0
 13
120.094229
 23
140.627592
 33
0.0
  0
SOLID
  5
2A2
100
AcDbEntity
  8
0
  6
Continuous
 62
     0
100
AcDbTrace
 10
121.941953
 20
141.392981
 30
0.0
 11
120.094229
 21
140.627592
 31
0.0
 12
120.311121
 22
140.30321
 32
0.0
 13
120.311121
 23
140.30321
 33
0.0
  0
SOLID
  5
2A3
100
AcDbEntity
  8
0
  6
Continuous
 62
     0
100
AcDbTrace
 10
121.941953
 20
141.392981
 30
0.0
 11
120.311121
 21
140.30321
 31
0.0
 12
120.635503
 22
140.086318
 32
0.0
 13
120.635503
 23
140.086318
 33
0.0
  0
SOLID
  5
2A4
100
AcDbEntity
  8
0
  6
Continuous
 62
     0
100
AcDbTrace
 10
121.941953
 20
141.392981
 30
0.0
 11
120.635503
 21
140.086318
 31
0.0
 12
121.018091
 22
140.010268
 32
0.0
 13
121.018091
 23
140.010268
 33
0.0
  0
SOLID
  5
2A5
100
AcDbEntity
  8
0
  6
Continuous
 62
     0
100
AcDbTrace
 10
121.941953
 20
141.392981
 30
0.0
 11
121.018091
 21
140.010268
 31
0.0
 12
121.400891
 22
140.086318
 32
0.0
 13
121.400891
 23
140.086318
 33
0.0
  0
SOLID
  5
2A6
100
AcDbEntity
  8
0
  6
Continuous
 62
     0
100
AcDbTrace
 10
121.941953
 20
141.392981
 30
0.0
 11
121.400891
 21
140.086318
 31
0.0
 12
121.725273
 22
140.30321
 32
0.0
 13
121.725273
 23
140.30321
 33
0.0
  0
SOLID
  5
2A7
100
AcDbEntity
  8
0
  6
Continuous
 62
     0
100
AcDbTrace
 10
121.941953
 20
141.392981
 30
0.0
 11
121.725273
 21
140.30321
 31
0.0
 12
121.941953
 22
140.627592
 32
0.0
 13
121.941953
 23
140.627592
 33
0.0
  0
SOLID
  5
2A8
100
AcDbEntity
  8
0
  6
Continuous
 62
     0
100
AcDbTrace
 10
121.941953
 20
141.392981
 30
0.0
 11
121.941953
 21
140.627592
 31
0.0
 12
122.018216
 22
141.01018
 32
0.0
 13
122.018216
 23
141.01018
 33
0.0
  0
ENDBLK
  5
2A9
100
AcDbEntity
  8
0
100
AcDbBlockEnd
  0
BLOCK
  5
2AC
100
AcDbEntity
  8
0
100
AcDbBlockBegin
  2
*B40
 70
     0
 10
0.0
 20
0.0
 30
0.0
  3
*B40
  1

  0
LINE
  5
2AD
100
AcDbEntity
  8
0
  6
Continuous
 62
     0
100
AcDbLine
 10
48.05783
 20
131.635815
 30
0.0
 11
64.291166
 21
131.635815
 31
0.0
  0
LINE
  5
2AE
100
AcDbEntity
  8
0
  6
Continuous
 62
     0
100
AcDbLine
 10
64.291166
 20
131.635815
 30
0.0
 11
73.504297
 21
106.986176
 31
0.0
  0
SOLID
  5
2AF
100
AcDbEntity
  8
0
  6
Continuous
 62
     0
100
AcDbTrace
 10
70.817045
 20
111.319343
 30
0.0
 11
73.504297
 21
106.986176
 31
0.0
 12
72.690474
 22
112.019516
 32
0.0
 13
72.690474
 23
112.019516
 33
0.0
  0
ENDBLK
  5
2B0
100
AcDbEntity
  8
0
100
AcDbBlockEnd
  0
BLOCK
  5
2B3
100
AcDbEntity
  8
0
100
AcDbBlockBegin
  2
*B41
 70
     0
 10
0.0
 20
0.0
 30
0.0
  3
*B41
  1

  0
TEXT
  5
2B4
100
AcDbEntity
  8
TEXT
  6
Continuous
 62
     0
100
AcDbText
 10
149.333333
 20
149.25
 30
0.0
 40
3.5
  1
SW24
100
AcDbText
  0
ENDBLK
  5
2B5
100
AcDbEntity
  8
0
100
AcDbBlockEnd
  0
BLOCK
  5
2B8
100
AcDbEntity
  8
0
100
AcDbBlockBegin
  2
*B42
 70
     0
 10
0.0
 20
0.0
 30
0.0
  3
*B42
  1

  0
TEXT
  5
2B9
100
AcDbEntity
  8
TEXT
  6
Continuous
 62
     0
100
AcDbText
 10
143.333333
 20
168.25
 30
0.0
 40
3.5
  1
SW13
100
AcDbText
  0
ENDBLK
  5
2BA
100
AcDbEntity
  8
0
100
AcDbBlockEnd
  0
BLOCK
  5
2BD
100
AcDbEntity
  8
0
100
AcDbBlockBegin
  2
*B43
 70
     0
 10
0.0
 20
0.0
 30
0.0
  3
*B43
  1

  0
TEXT
  5
2BE
100
AcDbEntity
  8
TEXT
  6
Continuous
 62
     0
100
AcDbText
 10
48.039583
 20
134.25
 30
0.0
 40
3.5
  1
%%c6,6
100
AcDbText
  0
ENDBLK
  5
2BF
100
AcDbEntity
  8
0
100
AcDbBlockEnd
  0
BLOCK
  5
2C2
100
AcDbEntity
  8
0
100
AcDbBlockBegin
  2
*B44
 70
     0
 10
0.0
 20
0.0
 30
0.0
  3
*B44
  1

  0
TEXT
  5
2C3
100
AcDbEntity
  8
TEXT
  6
Continuous
 62
     0
100
AcDbText
 10
102.379984
 20
91.75
 30
0.0
 40
3.5
  1
M20x1
100
AcDbText
  0
ENDBLK
  5
2C4
100
AcDbEntity
  8
0
100
AcDbBlockEnd
  0
BLOCK
  5
2C7
100
AcDbEntity
  8
0
100
AcDbBlockBegin
  2
*B45
 70
     0
 10
0.0
 20
0.0
 30
0.0
  3
*B45
  1

  0
TEXT
  5
2C8
100
AcDbEntity
  8
TEXT
  6
Continuous
 62
     0
100
AcDbText
 10
46.25
 20
107.124958
 30
0.0
 40
3.5
  1
8
 50
90.0
100
AcDbText
  0
ENDBLK
  5
2C9
100
AcDbEntity
  8
0
100
AcDbBlockEnd
  0
BLOCK
  5
2CC
100
AcDbEntity
  8
0
100
AcDbBlockBegin
  2
*B46
 70
     0
 10
0.0
 20
0.0
 30
0.0
  3
*B46
  1

  0
TEXT
  5
2CD
100
AcDbEntity
  8
TEXT
  6
Continuous
 62
     0
100
AcDbText
 10
107.463317
 20
75.75
 30
0.0
 40
3.5
  1
35
100
AcDbText
  0
ENDBLK
  5
2CE
100
AcDbEntity
  8
0
100
AcDbBlockEnd
  0
BLOCK
  5
2D1
100
AcDbEntity
  8
0
100
AcDbBlockBegin
  2
*B47
 70
     0
 10
0.0
 20
0.0
 30
0.0
  3
*B47
  1

  0
TEXT
  5
2D2
100
AcDbEntity
  8
TEXT
  6
Continuous
 62
     0
100
AcDbText
 10
107.463317
 20
28.75
 30
0.0
 40
3.5
  1
50
100
AcDbText
  0
ENDBLK
  5
2D3
100
AcDbEntity
  8
0
100
AcDbBlockEnd
  0
BLOCK
  5
2D6
100
AcDbEntity
  8
0
100
AcDbBlockBegin
  2
*B48
 70
     0
 10
0.0
 20
0.0
 30
0.0
  3
*B48
  1

  0
TEXT
  5
2D7
100
AcDbEntity
  8
TEXT
  6
Continuous
 62
     0
100
AcDbText
 10
176.25
 20
77.458291
 30
0.0
 40
3.5
  1
36
 50
90.0
100
AcDbText
  0
ENDBLK
  5
2D8
100
AcDbEntity
  8
0
100
AcDbBlockEnd
  0
BLOCK
  5
2DB
100
AcDbEntity
  8
0
100
AcDbBlockBegin
  2
*B49
 70
     0
 10
0.0
 20
0.0
 30
0.0
  3
*B49
  1

  0
TEXT
  5
2DC
100
AcDbEntity
  8
TEXT
  6
Continuous
 62
     0
100
AcDbText
 10
176.25
 20
134.958291
 30
0.0
 40
3.5
  1
28 ... 38
 50
90.0
100
AcDbText
  0
ENDBLK
  5
2DD
100
AcDbEntity
  8
0
100
AcDbBlockEnd
  0
BLOCK
  5
2E0
100
AcDbEntity
  8
0
100
AcDbBlockBegin
  2
*B50
 70
     0
 10
0.0
 20
0.0
 30
0.0
  3
*B50
  1

  0
TEXT
  5
2E1
100
AcDbEntity
  8
TEXT
  6
Continuous
 62
     0
100
AcDbText
 10
206.75
 20
102.75
 30
0.0
 40
3.5
  1
G1/4"
100
AcDbText
  0
ENDBLK
  5
2E2
100
AcDbEntity
  8
0
100
AcDbBlockEnd
  0
BLOCK
  5
2E5
100
AcDbEntity
  8
0
100
AcDbBlockBegin
  2
*B51
 70
     0
 10
0.0
 20
0.0
 30
0.0
  3
*B51
  1

  0
TEXT
  5
2E6
100
AcDbEntity
  8
TEXT
  6
Continuous
 62
     0
100
AcDbText
 10
211.097466
 20
28.75
 30
0.0
 40
3.5
  1
22
100
AcDbText
  0
ENDBLK
  5
2E7
100
AcDbEntity
  8
0
100
AcDbBlockEnd
  0
BLOCK
  5
2EA
100
AcDbEntity
  8
0
100
AcDbBlockBegin
  2
*B52
 70
     0
 10
0.0
 20
0.0
 30
0.0
  3
*B52
  1

  0
TEXT
  5
2EB
100
AcDbEntity
  8
TEXT
  6
Continuous
 62
     0
100
AcDbText
 10
249.25
 20
55.458291
 30
0.0
 40
3.5
  1
14
 50
90.0
100
AcDbText
  0
ENDBLK
  5
2EC
100
AcDbEntity
  8
0
100
AcDbBlockEnd
  0
BLOCK
  5
2EF
100
AcDbEntity
  8
0
100
AcDbBlockBegin
  2
*B53
 70
     0
 10
0.0
 20
0.0
 30
0.0
  3
*B53
  1

  0
TEXT
  5
2F0
100
AcDbEntity
  8
TEXT
  6
Continuous
 62
     0
100
AcDbText
 10
249.25
 20
127.5
 30
0.0
 40
3.5
  1
0 ... 4
 50
90.0
100
AcDbText
  0
ENDBLK
  5
2F1
100
AcDbEntity
  8
0
100
AcDbBlockEnd
  0
ENDSEC
  0
SECTION
  2
ENTITIES
  0
INSERT
  5
34
100
AcDbEntity
  8
0
  6
Continuous
 62
   172
100
AcDbBlockReference
  2
*B0
 10
0.0
 20
0.0
 30
0.0
  0
INSERT
  5
47
100
AcDbEntity
  8
0
  6
Continuous
 62
   112
100
AcDbBlockReference
  2
*B2
 10
0.0
 20
0.0
 30
0.0
  0
INSERT
  5
E2
100
AcDbEntity
  8
0
  6
Continuous
 62
   174
100
AcDbBlockReference
  2
*B3
 10
0.0
 20
0.0
 30
0.0
  0
INSERT
  5
199
100
AcDbEntity
  8
0
  6
Continuous
 62
   174
100
AcDbBlockReference
  2
*B4
 10
0.0
 20
0.0
 30
0.0
  0
INSERT
  5
1A0
100
AcDbEntity
  8
0
  6
Continuous
 62
     0
100
AcDbBlockReference
  2
*B5
 10
0.0
 20
0.0
 30
0.0
  0
INSERT
  5
1A7
100
AcDbEntity
  8
0
  6
Continuous
 62
     0
100
AcDbBlockReference
  2
*B6
 10
0.0
 20
0.0
 30
0.0
  0
INSERT
  5
1AE
100
AcDbEntity
  8
0
  6
Continuous
 62
     0
100
AcDbBlockReference
  2
*B7
 10
0.0
 20
0.0
 30
0.0
  0
INSERT
  5
1B5
100
AcDbEntity
  8
0
  6
Continuous
 62
     0
100
AcDbBlockReference
  2
*B8
 10
0.0
 20
0.0
 30
0.0
  0
INSERT
  5
1BC
100
AcDbEntity
  8
0
  6
Continuous
 62
     0
100
AcDbBlockReference
  2
*B9
 10
0.0
 20
0.0
 30
0.0
  0
INSERT
  5
1C3
100
AcDbEntity
  8
0
  6
Continuous
 62
     0
100
AcDbBlockReference
  2
*B10
 10
0.0
 20
0.0
 30
0.0
  0
INSERT
  5
1CA
100
AcDbEntity
  8
0
  6
Continuous
 62
     0
100
AcDbBlockReference
  2
*B11
 10
0.0
 20
0.0
 30
0.0
  0
INSERT
  5
1D1
100
AcDbEntity
  8
0
  6
Continuous
 62
     0
100
AcDbBlockReference
  2
*B12
 10
0.0
 20
0.0
 30
0.0
  0
INSERT
  5
1D8
100
AcDbEntity
  8
0
  6
Continuous
 62
     0
100
AcDbBlockReference
  2
*B13
 10
0.0
 20
0.0
 30
0.0
  0
INSERT
  5
1DF
100
AcDbEntity
  8
0
  6
Continuous
 62
     0
100
AcDbBlockReference
  2
*B14
 10
0.0
 20
0.0
 30
0.0
  0
INSERT
  5
1E4
100
AcDbEntity
  8
0
  6
Continuous
 62
     8
100
AcDbBlockReference
  2
*B15
 10
0.0
 20
0.0
 30
0.0
  0
INSERT
  5
1E9
100
AcDbEntity
  8
0
  6
Continuous
 62
     8
100
AcDbBlockReference
  2
*B16
 10
0.0
 20
0.0
 30
0.0
  0
INSERT
  5
1FB
100
AcDbEntity
  8
0
  6
Continuous
 62
     8
100
AcDbBlockReference
  2
*B17
 10
0.0
 20
0.0
 30
0.0
  0
INSERT
  5
200
100
AcDbEntity
  8
0
  6
Continuous
 62
     8
100
AcDbBlockReference
  2
*B18
 10
0.0
 20
0.0
 30
0.0
  0
INSERT
  5
205
100
AcDbEntity
  8
0
  6
Continuous
 62
     8
100
AcDbBlockReference
  2
*B19
 10
0.0
 20
0.0
 30
0.0
  0
INSERT
  5
20B
100
AcDbEntity
  8
0
  6
Continuous
 62
     8
100
AcDbBlockReference
  2
*B20
 10
0.0
 20
0.0
 30
0.0
  0
INSERT
  5
210
100
AcDbEntity
  8
0
  6
Continuous
 62
     8
100
AcDbBlockReference
  2
*B21
 10
0.0
 20
0.0
 30
0.0
  0
INSERT
  5
215
100
AcDbEntity
  8
0
  6
Continuous
 62
     8
100
AcDbBlockReference
  2
*B22
 10
0.0
 20
0.0
 30
0.0
  0
INSERT
  5
21C
100
AcDbEntity
  8
0
  6
Continuous
 62
     8
100
AcDbBlockReference
  2
*B23
 10
0.0
 20
0.0
 30
0.0
  0
INSERT
  5
221
100
AcDbEntity
  8
0
  6
Continuous
 62
     8
100
AcDbBlockReference
  2
*B24
 10
0.0
 20
0.0
 30
0.0
  0
INSERT
  5
226
100
AcDbEntity
  8
0
  6
Continuous
 62
     8
100
AcDbBlockReference
  2
*B25
 10
0.0
 20
0.0
 30
0.0
  0
INSERT
  5
22D
100
AcDbEntity
  8
0
  6
Continuous
 62
     8
100
AcDbBlockReference
  2
*B26
 10
0.0
 20
0.0
 30
0.0
  0
INSERT
  5
236
100
AcDbEntity
  8
0
  6
Continuous
 62
     8
100
AcDbBlockReference
  2
*B27
 10
0.0
 20
0.0
 30
0.0
  0
INSERT
  5
249
100
AcDbEntity
  8
0
  6
Continuous
 62
     8
100
AcDbBlockReference
  2
*B28
 10
0.0
 20
0.0
 30
0.0
  0
INSERT
  5
24E
100
AcDbEntity
  8
0
  6
Continuous
 62
     8
100
AcDbBlockReference
  2
*B29
 10
0.0
 20
0.0
 30
0.0
  0
INSERT
  5
253
100
AcDbEntity
  8
0
  6
Continuous
 62
     8
100
AcDbBlockReference
  2
*B30
 10
0.0
 20
0.0
 30
0.0
  0
INSERT
  5
258
100
AcDbEntity
  8
0
  6
Continuous
 62
     8
100
AcDbBlockReference
  2
*B31
 10
0.0
 20
0.0
 30
0.0
  0
INSERT
  5
266
100
AcDbEntity
  8
0
  6
Continuous
 62
     8
100
AcDbBlockReference
  2
*B32
 10
0.0
 20
0.0
 30
0.0
  0
INSERT
  5
26B
100
AcDbEntity
  8
0
  6
Continuous
 62
     8
100
AcDbBlockReference
  2
*B33
 10
0.0
 20
0.0
 30
0.0
  0
INSERT
  5
270
100
AcDbEntity
  8
0
  6
Continuous
 62
     8
100
AcDbBlockReference
  2
*B34
 10
0.0
 20
0.0
 30
0.0
  0
INSERT
  5
276
100
AcDbEntity
  8
0
  6
Continuous
 62
     6
100
AcDbBlockReference
  2
*B35
 10
0.0
 20
0.0
 30
0.0
  0
INSERT
  5
27C
100
AcDbEntity
  8
0
  6
Continuous
 62
     6
100
AcDbBlockReference
  2
*B36
 10
0.0
 20
0.0
 30
0.0
  0
INSERT
  5
282
100
AcDbEntity
  8
0
  6
Continuous
 62
     6
100
AcDbBlockReference
  2
*B37
 10
0.0
 20
0.0
 30
0.0
  0
INSERT
  5
296
100
AcDbEntity
  8
0
  6
Continuous
 62
     0
100
AcDbBlockReference
  2
*B38
 10
0.0
 20
0.0
 30
0.0
  0
INSERT
  5
2AA
100
AcDbEntity
  8
0
  6
Continuous
 62
     0
100
AcDbBlockReference
  2
*B39
 10
0.0
 20
0.0
 30
0.0
  0
INSERT
  5
2B1
100
AcDbEntity
  8
0
  6
Continuous
 62
     0
100
AcDbBlockReference
  2
*B40
 10
0.0
 20
0.0
 30
0.0
  0
INSERT
  5
2B6
100
AcDbEntity
  8
TEXT
  6
Continuous
 62
     0
100
AcDbBlockReference
  2
*B41
 10
0.0
 20
0.0
 30
0.0
  0
INSERT
  5
2BB
100
AcDbEntity
  8
TEXT
  6
Continuous
 62
     0
100
AcDbBlockReference
  2
*B42
 10
0.0
 20
0.0
 30
0.0
  0
INSERT
  5
2C0
100
AcDbEntity
  8
TEXT
  6
Continuous
 62
     0
100
AcDbBlockReference
  2
*B43
 10
0.0
 20
0.0
 30
0.0
  0
INSERT
  5
2C5
100
AcDbEntity
  8
TEXT
  6
Continuous
 62
     0
100
AcDbBlockReference
  2
*B44
 10
0.0
 20
0.0
 30
0.0
  0
INSERT
  5
2CA
100
AcDbEntity
  8
TEXT
  6
Continuous
 62
     0
100
AcDbBlockReference
  2
*B45
 10
0.0
 20
0.0
 30
0.0
  0
INSERT
  5
2CF
100
AcDbEntity
  8
TEXT
  6
Continuous
 62
     0
100
AcDbBlockReference
  2
*B46
 10
0.0
 20
0.0
 30
0.0
  0
INSERT
  5
2D4
100
AcDbEntity
  8
TEXT
  6
Continuous
 62
     0
100
AcDbBlockReference
  2
*B47
 10
0.0
 20
0.0
 30
0.0
  0
INSERT
  5
2D9
100
AcDbEntity
  8
TEXT
  6
Continuous
 62
     0
100
AcDbBlockReference
  2
*B48
 10
0.0
 20
0.0
 30
0.0
  0
INSERT
  5
2DE
100
AcDbEntity
  8
TEXT
  6
Continuous
 62
     0
100
AcDbBlockReference
  2
*B49
 10
0.0
 20
0.0
 30
0.0
  0
INSERT
  5
2E3
100
AcDbEntity
  8
TEXT
  6
Continuous
 62
     0
100
AcDbBlockReference
  2
*B50
 10
0.0
 20
0.0
 30
0.0
  0
INSERT
  5
2E8
100
AcDbEntity
  8
TEXT
  6
Continuous
 62
     0
100
AcDbBlockReference
  2
*B51
 10
0.0
 20
0.0
 30
0.0
  0
INSERT
  5
2ED
100
AcDbEntity
  8
TEXT
  6
Continuous
 62
     0
100
AcDbBlockReference
  2
*B52
 10
0.0
 20
0.0
 30
0.0
  0
INSERT
  5
2F2
100
AcDbEntity
  8
TEXT
  6
Continuous
 62
     0
100
AcDbBlockReference
  2
*B53
 10
0.0
 20
0.0
 30
0.0
  0
ENDSEC
  0
SECTION
  2
OBJECTS
  0
DICTIONARY
  5
19
100
AcDbDictionary
280
     0
281
     1
  3
ACAD_GROUP
350
1A
  3
ACAD_MLINESTYLE
350
1B
  3
ACAD_LAYOUT
350
1E
  3
ACAD_PLOTSETTINGS
350
22
  3
ACAD_PLOTSTYLENAME
350
1F
  3
ACAD_WIPEOUT_VARS
350
23
  0
DICTIONARY
  5
1A
102
{ACAD_REACTORS
330
19
102
}
100
AcDbDictionary
280
     0
281
     1
  0
DICTIONARY
  5
1B
102
{ACAD_REACTORS
330
19
102
}
100
AcDbDictionary
280
     0
281
     1
  3
Standard
350
1C
  0
MLINESTYLE
  5
1C
102
{ACAD_REACTORS
330
1B
102
}
100
AcDbMlineStyle
  2
Standard
 70
     0
  3

 62
     0
 51
90.0
 52
90.0
 71
     2
 49
0.5
 62
   256
  6
BYLAYER
 49
-0.5
 62
   256
  6
BYLAYER
  0
ACDBDICTIONARYWDFLT
  5
1F
102
{ACAD_REACTORS
330
19
102
}
100
AcDbDictionary
281
     1
  3
Normal
350
1D
100
AcDbDictionaryWithDefault
340
1D
  0
ACDBPLACEHOLDER
  5
1D
102
{ACAD_REACTORS
330
1F
102
}
  0
LAYOUT
  5
20
102
{ACAD_REACTORS
330
1E
102
}
100
AcDbPlotSettings
  1

  2

  4

  6

 40
0.0
 41
0.0
 42
0.0
 43
0.0
 44
0.0
 45
0.0
 46
0.0
 47
0.0
 48
0.0
 49
0.0
140
0.0
141
0.0
142
1.0
143
1.0
 70
     0
 72
     0
 73
     0
 74
     0
  7

 75
     0
147
1.0
148
0.0
149
0.0
100
AcDbLayout
  1
Model
 70
     0
 71
     0
 10
0.0
 20
0.0
 11
0.0
 21
0.0
 12
0.0
 22
0.0
 32
0.0
 14
0.0
 24
0.0
 34
0.0
 15
0.0
 25
0.0
 35
0.0
146
0.0
 13
0.0
 23
0.0
 33
0.0
 16
0.0
 26
0.0
 36
0.0
 17
0.0
 27
0.0
 37
0.0
 76
     0
330
A
331
0
345
0
346
0
  0
LAYOUT
  5
21
102
{ACAD_REACTORS
330
1E
102
}
100
AcDbPlotSettings
  1

  2

  4

  6

 40
0.0
 41
0.0
 42
0.0
 43
0.0
 44
0.0
 45
0.0
 46
0.0
 47
0.0
 48
0.0
 49
0.0
140
0.0
141
0.0
142
1.0
143
1.0
 70
     0
 72
     0
 73
     0
 74
     0
  7

 75
     0
147
1.0
148
0.0
149
0.0
100
AcDbLayout
  1
Layout1
 70
     0
 71
     0
 10
0.0
 20
0.0
 11
0.0
 21
0.0
 12
0.0
 22
0.0
 32
0.0
 14
0.0
 24
0.0
 34
0.0
 15
0.0
 25
0.0
 35
0.0
146
0.0
 13
0.0
 23
0.0
 33
0.0
 16
0.0
 26
0.0
 36
0.0
 17
0.0
 27
0.0
 37
0.0
 76
     0
330
B
331
0
345
0
346
0
  0
DICTIONARY
  5
1E
102
{ACAD_REACTORS
330
19
102
}
100
AcDbDictionary
280
     0
281
     1
  3
Layout1
350
21
  3
Model
350
20
  0
DICTIONARY
  5
22
102
{ACAD_REACTORS
330
19
102
}
100
AcDbDictionary
280
     0
281
     1
  0
WIPEOUTVARIABLES
  5
23
100
AcDbWipeoutVariables
 70
     1
  0
ENDSEC
  0
EOF
