  0
SECTION
  2
HEADER
  9
$ACADVER
  1
AC1015
  9
$ACADMAINTVER
 70
     6
  9
$DWGCODEPAGE
  3
DOS850
  9
$INSBASE
 10
0.0
 20
0.0
 30
0.0
  9
$EXTMIN
 10
0.0
 20
0.0
 30
0.0
  9
$EXTMAX
 10
420.0
 20
297.0
 30
0.0
  9
$LIMMIN
 10
0.0
 20
0.0
  9
$LIMMAX
 10
420.0
 20
297.0
  9
$ORTHOMODE
 70
     0
  9
$REGENMODE
 70
     1
  9
$FILLMODE
 70
     1
  9
$QTEXTMODE
 70
     0
  9
$MIRRTEXT
 70
     1
  9
$LTSCALE
 40
25.4
  9
$ATTMODE
 70
     1
  9
$TEXTSIZE
 40
3.5
  9
$TRACEWID
 40
0.05
  9
$TEXTSTYLE
  7
Standard
  9
$CLAYER
  8
0
  9
$CELTYPE
  6
Continuous
  9
$CECOLOR
 62
   256
  9
$CELTSCALE
 40
1.0
  9
$DISPSILH
 70
     0
  9
$DIMSCALE
 40
1.0
  9
$DIMASZ
 40
5.0
  9
$DIMEXO
 40
3.0
  9
$DIMDLI
 40
0.38
  9
$DIMRND
 40
0.0
  9
$DIMDLE
 40
0.0
  9
$DIMEXE
 40
2.0
  9
$DIMTP
 40
0.0
  9
$DIMTM
 40
0.0
  9
$DIMTXT
 40
3.5
  9
$DIMCEN
 40
4.0
  9
$DIMTSZ
 40
0.0
  9
$DIMTOL
 70
     0
  9
$DIMLIM
 70
     0
  9
$DIMTIH
 70
     1
  9
$DIMTOH
 70
     1
  9
$DIMSE1
 70
     0
  9
$DIMSE2
 70
     0
  9
$DIMTAD
 70
     0
  9
$DIMZIN
 70
     0
  9
$DIMBLK
  1

  9
$DIMASO
 70
     1
  9
$DIMSHO
 70
     1
  9
$DIMPOST
  1

  9
$DIMAPOST
  1

  9
$DIMALT
 70
     0
  9
$DIMALTD
 70
     2
  9
$DIMALTF
 40
25.4
  9
$DIMLFAC
 40
1.0
  9
$DIMTOFL
 70
     0
  9
$DIMTVP
 40
0.0
  9
$DIMTIX
 70
     0
  9
$DIMSOXD
 70
     0
  9
$DIMSAH
 70
     0
  9
$DIMBLK1
  1

  9
$DIMBLK2
  1

  9
$DIMSTYLE
  2
Standard
  9
$DIMCLRD
 70
     0
  9
$DIMCLRE
 70
     0
  9
$DIMCLRT
 70
     0
  9
$DIMTFAC
 40
1.0
  9
$DIMGAP
 40
1.0
  9
$DIMJUST
 70
     0
  9
$DIMSD1
 70
     0
  9
$DIMSD2
 70
     0
  9
$DIMTOLJ
 70
     1
  9
$DIMTZIN
 70
     0
  9
$DIMALTZ
 70
     0
  9
$DIMALTTZ
 70
     0
  9
$DIMUPT
 70
     0
  9
$DIMDEC
 70
     4
  9
$DIMTDEC
 70
     4
  9
$DIMALTU
 70
     2
  9
$DIMALTTD
 70
     2
  9
$DIMTXSTY
  7
Standard
  9
$DIMAUNIT
 70
     0
  9
$DIMADEC
 70
     0
  9
$DIMALTRND
 40
0.0
  9
$DIMAZIN
 70
     0
  9
$DIMDSEP
 70
     0
  9
$DIMATFIT
 70
     3
  9
$DIMFRAC
 70
     0
  9
$DIMLDRBLK
  1

  9
$DIMLUNIT
 70
     2
  9
$DIMLWD
 70
     0
  9
$DIMLWE
 70
     0
  9
$DIMTMOVE
 70
     0
  9
$LUNITS
 70
     2
  9
$LUPREC
 70
     4
  9
$SKETCHINC
 40
0.1
  9
$FILLETRAD
 40
0.0
  9
$AUNITS
 70
     0
  9
$AUPREC
 70
     0
  9
$MENU
  1
acad
  9
$ELEVATION
 40
0.0
  9
$PELEVATION
 40
0.0
  9
$THICKNESS
 40
0.0
  9
$LIMCHECK
 70
     0
  9
$CHAMFERA
 40
0.0
  9
$CHAMFERB
 40
0.0
  9
$CHAMFERC
 40
0.0
  9
$CHAMFERD
 40
0.0
  9
$SKPOLY
 70
     0
  9
$TDCREATE
 40
0.000000000
  9
$TDUCREATE
 40
0.000000000
  9
$TDUPDATE
 40
0.000000000
  9
$TDUUPDATE
 40
0.000000000
  9
$TDINDWG
 40
0.0000000000
  9
$TDUSRTIMER
 40
0.0000000000
  9
$USRTIMER
 70
     1
  9
$ANGBASE
 50
0.0
  9
$ANGDIR
 70
     0
  9
$PDMODE
 70
     0
  9
$PDSIZE
 40
0.0
  9
$PLINEWID
 40
0.0
  9
$SPLFRAME
 70
     0
  9
$SPLINETYPE
 70
     6
  9
$SPLINESEGS
 70
     8
  9
$HANDSEED
  5
2EE
  9
$SURFTAB1
 70
     6
  9
$SURFTAB2
 70
     6
  9
$SURFTYPE
 70
     6
  9
$SURFU
 70
     6
  9
$SURFV
 70
     6
  9
$UCSBASE
  2

  9
$UCSNAME
  2

  9
$UCSORG
 10
0.0
 20
0.0
 30
0.0
  9
$UCSXDIR
 10
1.0
 20
0.0
 30
0.0
  9
$UCSYDIR
 10
0.0
 20
1.0
 30
0.0
  9
$UCSORTHOREF
  2

  9
$UCSORTHOVIEW
 70
     0
  9
$UCSORGTOP
 10
0.0
 20
0.0
 30
0.0
  9
$UCSORGBOTTOM
 10
0.0
 20
0.0
 30
0.0
  9
$UCSORGLEFT
 10
0.0
 20
0.0
 30
0.0
  9
$UCSORGRIGHT
 10
0.0
 20
0.0
 30
0.0
  9
$UCSORGFRONT
 10
0.0
 20
0.0
 30
0.0
  9
$UCSORGBACK
 10
0.0
 20
0.0
 30
0.0
  9
$PUCSBASE
  2

  9
$PUCSNAME
  2

  9
$PUCSORG
 10
0.0
 20
0.0
 30
0.0
  9
$PUCSXDIR
 10
1.0
 20
0.0
 30
0.0
  9
$PUCSYDIR
 10
0.0
 20
1.0
 30
0.0
  9
$PUCSORTHOREF
  2

  9
$PUCSORTHOVIEW
 70
     0
  9
$PUCSORGTOP
 10
0.0
 20
0.0
 30
0.0
  9
$PUCSORGBOTTOM
 10
0.0
 20
0.0
 30
0.0
  9
$PUCSORGLEFT
 10
0.0
 20
0.0
 30
0.0
  9
$PUCSORGRIGHT
 10
0.0
 20
0.0
 30
0.0
  9
$PUCSORGFRONT
 10
0.0
 20
0.0
 30
0.0
  9
$PUCSORGBACK
 10
0.0
 20
0.0
 30
0.0
  9
$USERI1
 70
     0
  9
$USERI2
 70
     0
  9
$USERI3
 70
     0
  9
$USERI4
 70
     0
  9
$USERI5
 70
     0
  9
$USERR1
 40
0.0
  9
$USERR2
 40
0.0
  9
$USERR3
 40
0.0
  9
$USERR4
 40
0.0
  9
$USERR5
 40
0.0
  9
$WORLDVIEW
 70
     1
  9
$SHADEDGE
 70
     3
  9
$SHADEDIF
 70
    70
  9
$TILEMODE
 70
     1
  9
$MAXACTVP
 70
    16
  9
$PINSBASE
 10
0.0
 20
0.0
 30
0.0
  9
$PLIMCHECK
 70
     0
  9
$PEXTMIN
 10
1.000000E+20
 20
1.000000E+20
 30
1.000000E+20
  9
$PEXTMAX
 10
-1.000000E+20
 20
-1.000000E+20
 30
-1.000000E+20
  9
$PLIMMIN
 10
0.0
 20
0.0
  9
$PLIMMAX
 10
420.0
 20
297.0
  9
$UNITMODE
 70
     0
  9
$VISRETAIN
 70
     0
  9
$PLINEGEN
 70
     1
  9
$PSLTSCALE
 70
     0
  9
$TREEDEPTH
 70
  3020
  9
$CMLSTYLE
  2
Standard
  9
$CMLJUST
 70
     0
  9
$CMLSCALE
 40
1.0
  9
$PROXYGRAPHICS
 70
     0
  9
$MEASUREMENT
 70
     0
  9
$CELWEIGHT
370
     0
  9
$ENDCAPS
280
     0
  9
$JOINSTYLE
280
     0
  9
$LWDISPLAY
290
     0
  9
$INSUNITS
 70
     0
  9
$HYPERLINKBASE
  1

  9
$XEDIT
290
     1
  9
$CEPSNTYPE
380
     0
  9
$PSTYLEMODE
290
     0
  9
$FINGERPRINTGUID
  2

  9
$VERSIONGUID
  2

  9
$EXTNAMES
290
     1
  9
$PSVPSCALE
 40
0.0
  0
ENDSEC
  0
SECTION
  2
CLASSES
  0
CLASS
  1
LWPOLYLINE
  2
AcDbPolyline
  3
"AutoCAD"
 90
        0
280
     0
281
     1
  0
CLASS
  1
IMAGE
  2
AcDbRasterImage
  3
ISM
 90
      127
280
     0
281
     1
  0
CLASS
  1
OLE2FRAME
  2
AcDbOle2Frame
  3
""
 90
        0
280
     0
281
     1
  0
CLASS
  1
HATCH
  2
AcDbHatch
  3
"ACAD_SEDONA"
 90
        0
280
     0
281
     1
  0
CLASS
  1
DICTIONARYVAR
  2
AcDbDictionaryVar
  3
"AutoCAD"
 90
        0
280
     0
281
     0
  0
CLASS
  1
RASTERVARIABLES
  2
AcDbRasterVariables
  3
ISM
 90
        0
280
     0
281
     0
  0
CLASS
  1
IMAGEDEF
  2
AcDbRasterImageDef
  3
ISM
 90
        0
280
     0
281
     0
  0
CLASS
  1
IMAGEDEF_REACTOR
  2
AcDbRasterImageDefReactor
  3
ISM
 90
        1
280
     0
281
     0
  0
CLASS
  1
IDBUFFER
  2
AcDbIdBuffer
  3
"Acad"
 90
        0
280
     0
281
     0
  0
CLASS
  1
SPATIAL_FILTER
  2
AcDbSpatialFilter
  3
"Acad"
 90
        0
280
     0
281
     0
  0
CLASS
  1
XRECORD
  2
AcDbXrecord
  3
"<Built In>"
 90
        0
280
     0
281
     0
  0
CLASS
  1
SORTENTSTABLE
  2
AcDbSortentsTable
  3
"AutoCAD"
 90
        0
280
     0
281
     0
  0
CLASS
  1
LAYER_INDEX
  2
AcDbLayerIndex
  3
"Acad"
 90
        0
280
     0
281
     0
  0
CLASS
  1
SPATIAL_INDEX
  2
AcDbSpatialIndex
  3
"Acad"
 90
        0
280
     0
281
     0
  0
CLASS
  1
OBJECT_PTR
  2
CAseDLPNTableRecord
  3
"ASE-LPNTableRecord"
 90
        1
280
     0
281
     0
  0
CLASS
  1
LAYOUT
  2
AcDbLayout
  3
"AutoCAD 2000"
 90
        1
280
     0
281
     0
  0
CLASS
  1
PLOTSETTINGS
  2
AcDbPlotSettings
  3
"AutoCAD 2000"
 90
        1
280
     0
281
     0
  0
CLASS
  1
ACDBDICTIONARYWDFLT
  2
AcDbDictionaryWithDefault
  3
"AutoCAD 2000"
 90
        1
280
     0
281
     0
  0
CLASS
  1
ACDBPLACEHOLDER
  2
AcDbPlaceHolder
  3
"AutoCAD 2000"
 90
        1
280
     0
281
     0
  0
CLASS
  1
VBA_PROJECT
  2
AcDbVbaProject
  3
"acadvba"
 90
        1
280
     0
281
     0
  0
CLASS
  1
WIPEOUT
  2
AcDbWipeout
  3
WipeOut|AutoCAD Express Tool|expresstools@autodesk.com
 90
      127
280
     0
281
     1
  0
CLASS
  1
WIPEOUTVARIABLES
  2
AcDbWipeoutVariables
  3
WipeOut|AutoCAD Express Tool|expresstools@autodesk.com
 90
        0
280
     0
281
     0
  0
CLASS
  1
RTEXT
  2
RText
  3
RText|AutoCAD Express Tool|expresstools@autodesk.com
 90
        0
280
     0
281
     1
  0
CLASS
  1
ARCALIGNEDTEXT
  2
AcDbArcAlignedText
  3
ATEXT|AutoCAD Express Tool|expresstools@autodesk.com
 90
        0
280
     0
281
     1
  0
ENDSEC
  0
SECTION
  2
TABLES
  0
TABLE
  2
VPORT
  5
7
100
AcDbSymbolTable
 70
     1
  0
VPORT
  5
15
100
AcDbSymbolTableRecord
100
AcDbViewportTableRecord
  2
*ACTIVE
 70
     0
 10
0.0
 20
0.0
 11
1.0
 21
1.0
 12
6.591288
 22
4.579184
 13
0.0
 23
0.0
 14
1.0
 24
1.0
 15
0.0
 25
0.0
 16
0.0
 26
0.0
 36
1.0
 17
0.0
 27
0.0
 37
0.0
 40
9.158369
 41
0.688564
 42
50.0
 43
0.0
 44
0.0
 50
0.0
 51
0.0
 71
     0
 72
   100
 73
     1
 74
     1
 75
     0
 76
     0
 77
     0
 78
     0
281
     0
 65
     0
110
0.0
120
0.0
130
0.0
111
1.0
121
0.0
131
0.0
112
0.0
122
1.0
132
0.0
345
0
346
0
 79
     0
146
0.0
  0
ENDTAB
  0
TABLE
  2
LTYPE
  5
4
100
AcDbSymbolTable
 70
     7
  0
LTYPE
  5
11
100
AcDbSymbolTableRecord
100
AcDbLinetypeTableRecord
  2
ByBlock
 70
    64
  3

 72
    65
 73
     0
 40
0.0
  0
LTYPE
  5
12
100
AcDbSymbolTableRecord
100
AcDbLinetypeTableRecord
  2
ByLayer
 70
    64
  3

 72
    65
 73
     0
 40
0.0
  0
LTYPE
  5
13
100
AcDbSymbolTableRecord
100
AcDbLinetypeTableRecord
  2
Continuous
 70
    64
  3
Solid line
 72
    65
 73
     0
 40
0.0
  0
LTYPE
  5
24
100
AcDbSymbolTableRecord
100
AcDbLinetypeTableRecord
  2
HIDDEN
 70
    64
  3
_ _ _ _ _ _ _ _ _ _ _ _ _ _ _ _ _ _ _ _ _ _ _ _
 72
    65
 73
     2
 40
0.1875
 49
0.125
 74
     0
 49
-0.0625
 74
     0
  0
LTYPE
  5
25
100
AcDbSymbolTableRecord
100
AcDbLinetypeTableRecord
  2
DOTTED
 70
    64
  3
...............................................
 72
    65
 73
     2
 40
0.125
 49
0.0
 74
     0
 49
-0.125
 74
     0
  0
LTYPE
  5
26
100
AcDbSymbolTableRecord
100
AcDbLinetypeTableRecord
  2
CENTER
 70
    64
  3
____ _ ____ _ ____ _ ____ _ ____ _ ____ _ ____ 
 72
    65
 73
     4
 40
1.125
 49
0.75
 74
     0
 49
-0.125
 74
     0
 49
0.125
 74
     0
 49
-0.125
 74
     0
  0
LTYPE
  5
27
100
AcDbSymbolTableRecord
100
AcDbLinetypeTableRecord
  2
PHANTOM
 70
    64
  3
______  __  __  ______  __  __  ______  __  __ 
 72
    65
 73
     6
 40
1.25
 49
0.625
 74
     0
 49
-0.125
 74
     0
 49
0.125
 74
     0
 49
-0.125
 74
     0
 49
0.125
 74
     0
 49
-0.125
 74
     0
  0
ENDTAB
  0
TABLE
  2
LAYER
  5
2
100
AcDbSymbolTable
 70
     2
  0
LAYER
  5
14
100
AcDbSymbolTableRecord
100
AcDbLayerTableRecord
  2
0
 70
     0
 62
     7
  6
Continuous
290
     1
370
    -3
390
1D
  0
LAYER
  5
28
100
AcDbSymbolTableRecord
100
AcDbLayerTableRecord
  2
TEXT
 70
     0
 62
     8
  6
Continuous
290
     1
370
    -3
390
1F
  0
ENDTAB
  0
TABLE
  2
STYLE
  5
3
100
AcDbSymbolTable
 70
     1
  0
STYLE
  5
17
100
AcDbSymbolTableRecord
100
AcDbTextStyleTableRecord
  2
Standard
 70
     0
 40
0.0
 41
1.0
 50
0.0
 71
     0
 42
0.0
  3
txt
  4

  0
ENDTAB
  0
TABLE
  2
VIEW
  5
5
100
AcDbSymbolTable
 70
     0
  0
ENDTAB
  0
TABLE
  2
UCS
  5
6
100
AcDbSymbolTable
 70
     0
  0
ENDTAB
  0
TABLE
  2
APPID
  5
8
100
AcDbSymbolTable
 70
     1
  0
APPID
  5
16
100
AcDbSymbolTableRecord
100
AcDbRegAppTableRecord
  2
ACAD
 70
     0
  0
ENDTAB
  0
TABLE
  2
DIMSTYLE
  5
9
100
AcDbSymbolTable
 70
     1
100
AcDbDimStyleTable
 71
     0
  0
DIMSTYLE
105
18
100
AcDbSymbolTableRecord
100
AcDbDimStyleTableRecord
  2
Standard
 70
     0
  3

  4

 40
1.0
 41
0.18
 42
0.0625
 43
0.38
 44
0.18
 45
0.0
 46
0.0
 47
0.0
 48
0.0
 71
     0
 72
     0
 73
     1
 74
     1
 75
     0
 76
     0
 77
     0
 78
     0
 79
     0
140
0.18
141
0.09
142
0.0
143
25.4
144
1.0
145
0.0
146
1.0
147
0.09
148
0.0
170
     0
171
     2
172
     0
173
     0
174
     0
175
     0
176
     0
177
     0
178
     0
179
     0
271
     4
272
     4
273
     2
274
     2
275
     0
276
     0
277
     2
278
    46
279
     0
280
     0
281
     0
282
     0
283
     1
284
     0
285
     0
286
     0
288
     0
340
17
341
0
342
0
343
0
344
0
371
    -2
372
    -2
  0
ENDTAB
  0
TABLE
  2
BLOCK_RECORD
  5
1
100
AcDbSymbolTable
 70
    84
  0
BLOCK_RECORD
  5
A
100
AcDbSymbolTableRecord
100
AcDbBlockTableRecord
  2
*MODEL_SPACE
340
20
  0
BLOCK_RECORD
  5
B
100
AcDbSymbolTableRecord
100
AcDbBlockTableRecord
  2
*PAPER_SPACE
340
21
  0
BLOCK_RECORD
  5
29
100
AcDbSymbolTableRecord
100
AcDbBlockTableRecord
  2
*B0
340
0
  0
BLOCK_RECORD
  5
30
100
AcDbSymbolTableRecord
100
AcDbBlockTableRecord
  2
*B1
340
0
  0
BLOCK_RECORD
  5
38
100
AcDbSymbolTableRecord
100
AcDbBlockTableRecord
  2
*B2
340
0
  0
BLOCK_RECORD
  5
7E
100
AcDbSymbolTableRecord
100
AcDbBlockTableRecord
  2
*B3
340
0
  0
BLOCK_RECORD
  5
9C
100
AcDbSymbolTableRecord
100
AcDbBlockTableRecord
  2
*B4
340
0
  0
BLOCK_RECORD
  5
A3
100
AcDbSymbolTableRecord
100
AcDbBlockTableRecord
  2
*B5
340
0
  0
BLOCK_RECORD
  5
AA
100
AcDbSymbolTableRecord
100
AcDbBlockTableRecord
  2
*B6
340
0
  0
BLOCK_RECORD
  5
B1
100
AcDbSymbolTableRecord
100
AcDbBlockTableRecord
  2
*B7
340
0
  0
BLOCK_RECORD
  5
B8
100
AcDbSymbolTableRecord
100
AcDbBlockTableRecord
  2
*B8
340
0
  0
BLOCK_RECORD
  5
BF
100
AcDbSymbolTableRecord
100
AcDbBlockTableRecord
  2
*B9
340
0
  0
BLOCK_RECORD
  5
C6
100
AcDbSymbolTableRecord
100
AcDbBlockTableRecord
  2
*B10
340
0
  0
BLOCK_RECORD
  5
CD
100
AcDbSymbolTableRecord
100
AcDbBlockTableRecord
  2
*B11
340
0
  0
BLOCK_RECORD
  5
D4
100
AcDbSymbolTableRecord
100
AcDbBlockTableRecord
  2
*B12
340
0
  0
BLOCK_RECORD
  5
DB
100
AcDbSymbolTableRecord
100
AcDbBlockTableRecord
  2
*B13
340
0
  0
BLOCK_RECORD
  5
E2
100
AcDbSymbolTableRecord
100
AcDbBlockTableRecord
  2
*B14
340
0
  0
BLOCK_RECORD
  5
E9
100
AcDbSymbolTableRecord
100
AcDbBlockTableRecord
  2
*B15
340
0
  0
BLOCK_RECORD
  5
F0
100
AcDbSymbolTableRecord
100
AcDbBlockTableRecord
  2
*B16
340
0
  0
BLOCK_RECORD
  5
F7
100
AcDbSymbolTableRecord
100
AcDbBlockTableRecord
  2
*B17
340
0
  0
BLOCK_RECORD
  5
FE
100
AcDbSymbolTableRecord
100
AcDbBlockTableRecord
  2
*B18
340
0
  0
BLOCK_RECORD
  5
105
100
AcDbSymbolTableRecord
100
AcDbBlockTableRecord
  2
*B19
340
0
  0
BLOCK_RECORD
  5
10B
100
AcDbSymbolTableRecord
100
AcDbBlockTableRecord
  2
*B20
340
0
  0
BLOCK_RECORD
  5
110
100
AcDbSymbolTableRecord
100
AcDbBlockTableRecord
  2
*B21
340
0
  0
BLOCK_RECORD
  5
116
100
AcDbSymbolTableRecord
100
AcDbBlockTableRecord
  2
*B22
340
0
  0
BLOCK_RECORD
  5
129
100
AcDbSymbolTableRecord
100
AcDbBlockTableRecord
  2
*B23
340
0
  0
BLOCK_RECORD
  5
12E
100
AcDbSymbolTableRecord
100
AcDbBlockTableRecord
  2
*B24
340
0
  0
BLOCK_RECORD
  5
133
100
AcDbSymbolTableRecord
100
AcDbBlockTableRecord
  2
*B25
340
0
  0
BLOCK_RECORD
  5
139
100
AcDbSymbolTableRecord
100
AcDbBlockTableRecord
  2
*B26
340
0
  0
BLOCK_RECORD
  5
13E
100
AcDbSymbolTableRecord
100
AcDbBlockTableRecord
  2
*B27
340
0
  0
BLOCK_RECORD
  5
147
100
AcDbSymbolTableRecord
100
AcDbBlockTableRecord
  2
*B28
340
0
  0
BLOCK_RECORD
  5
156
100
AcDbSymbolTableRecord
100
AcDbBlockTableRecord
  2
*B29
340
0
  0
BLOCK_RECORD
  5
162
100
AcDbSymbolTableRecord
100
AcDbBlockTableRecord
  2
*B30
340
0
  0
BLOCK_RECORD
  5
167
100
AcDbSymbolTableRecord
100
AcDbBlockTableRecord
  2
*B31
340
0
  0
BLOCK_RECORD
  5
16C
100
AcDbSymbolTableRecord
100
AcDbBlockTableRecord
  2
*B32
340
0
  0
BLOCK_RECORD
  5
177
100
AcDbSymbolTableRecord
100
AcDbBlockTableRecord
  2
*B33
340
0
  0
BLOCK_RECORD
  5
17D
100
AcDbSymbolTableRecord
100
AcDbBlockTableRecord
  2
*B34
340
0
  0
BLOCK_RECORD
  5
182
100
AcDbSymbolTableRecord
100
AcDbBlockTableRecord
  2
*B35
340
0
  0
BLOCK_RECORD
  5
18C
100
AcDbSymbolTableRecord
100
AcDbBlockTableRecord
  2
*B36
340
0
  0
BLOCK_RECORD
  5
192
100
AcDbSymbolTableRecord
100
AcDbBlockTableRecord
  2
*B37
340
0
  0
BLOCK_RECORD
  5
19F
100
AcDbSymbolTableRecord
100
AcDbBlockTableRecord
  2
*B38
340
0
  0
BLOCK_RECORD
  5
1A4
100
AcDbSymbolTableRecord
100
AcDbBlockTableRecord
  2
*B39
340
0
  0
BLOCK_RECORD
  5
1A9
100
AcDbSymbolTableRecord
100
AcDbBlockTableRecord
  2
*B40
340
0
  0
BLOCK_RECORD
  5
1AE
100
AcDbSymbolTableRecord
100
AcDbBlockTableRecord
  2
*B41
340
0
  0
BLOCK_RECORD
  5
1C1
100
AcDbSymbolTableRecord
100
AcDbBlockTableRecord
  2
*B42
340
0
  0
BLOCK_RECORD
  5
1CB
100
AcDbSymbolTableRecord
100
AcDbBlockTableRecord
  2
*B43
340
0
  0
BLOCK_RECORD
  5
1D0
100
AcDbSymbolTableRecord
100
AcDbBlockTableRecord
  2
*B44
340
0
  0
BLOCK_RECORD
  5
1DB
100
AcDbSymbolTableRecord
100
AcDbBlockTableRecord
  2
*B45
340
0
  0
BLOCK_RECORD
  5
1F4
100
AcDbSymbolTableRecord
100
AcDbBlockTableRecord
  2
*B46
340
0
  0
BLOCK_RECORD
  5
1F9
100
AcDbSymbolTableRecord
100
AcDbBlockTableRecord
  2
*B47
340
0
  0
BLOCK_RECORD
  5
1FE
100
AcDbSymbolTableRecord
100
AcDbBlockTableRecord
  2
*B48
340
0
  0
BLOCK_RECORD
  5
211
100
AcDbSymbolTableRecord
100
AcDbBlockTableRecord
  2
*B49
340
0
  0
BLOCK_RECORD
  5
216
100
AcDbSymbolTableRecord
100
AcDbBlockTableRecord
  2
*B50
340
0
  0
BLOCK_RECORD
  5
22F
100
AcDbSymbolTableRecord
100
AcDbBlockTableRecord
  2
*B51
340
0
  0
BLOCK_RECORD
  5
235
100
AcDbSymbolTableRecord
100
AcDbBlockTableRecord
  2
*B52
340
0
  0
BLOCK_RECORD
  5
249
100
AcDbSymbolTableRecord
100
AcDbBlockTableRecord
  2
*B53
340
0
  0
BLOCK_RECORD
  5
24F
100
AcDbSymbolTableRecord
100
AcDbBlockTableRecord
  2
*B54
340
0
  0
BLOCK_RECORD
  5
255
100
AcDbSymbolTableRecord
100
AcDbBlockTableRecord
  2
*B55
340
0
  0
BLOCK_RECORD
  5
25B
100
AcDbSymbolTableRecord
100
AcDbBlockTableRecord
  2
*B56
340
0
  0
BLOCK_RECORD
  5
261
100
AcDbSymbolTableRecord
100
AcDbBlockTableRecord
  2
*B57
340
0
  0
BLOCK_RECORD
  5
267
100
AcDbSymbolTableRecord
100
AcDbBlockTableRecord
  2
*B58
340
0
  0
BLOCK_RECORD
  5
26D
100
AcDbSymbolTableRecord
100
AcDbBlockTableRecord
  2
*B59
340
0
  0
BLOCK_RECORD
  5
273
100
AcDbSymbolTableRecord
100
AcDbBlockTableRecord
  2
*B60
340
0
  0
BLOCK_RECORD
  5
279
100
AcDbSymbolTableRecord
100
AcDbBlockTableRecord
  2
*B61
340
0
  0
BLOCK_RECORD
  5
27F
100
AcDbSymbolTableRecord
100
AcDbBlockTableRecord
  2
*B62
340
0
  0
BLOCK_RECORD
  5
285
100
AcDbSymbolTableRecord
100
AcDbBlockTableRecord
  2
*B63
340
0
  0
BLOCK_RECORD
  5
28A
100
AcDbSymbolTableRecord
100
AcDbBlockTableRecord
  2
*B64
340
0
  0
BLOCK_RECORD
  5
28F
100
AcDbSymbolTableRecord
100
AcDbBlockTableRecord
  2
*B65
340
0
  0
BLOCK_RECORD
  5
294
100
AcDbSymbolTableRecord
100
AcDbBlockTableRecord
  2
*B66
340
0
  0
BLOCK_RECORD
  5
299
100
AcDbSymbolTableRecord
100
AcDbBlockTableRecord
  2
*B67
340
0
  0
BLOCK_RECORD
  5
29E
100
AcDbSymbolTableRecord
100
AcDbBlockTableRecord
  2
*B68
340
0
  0
BLOCK_RECORD
  5
2A3
100
AcDbSymbolTableRecord
100
AcDbBlockTableRecord
  2
*B69
340
0
  0
BLOCK_RECORD
  5
2A8
100
AcDbSymbolTableRecord
100
AcDbBlockTableRecord
  2
*B70
340
0
  0
BLOCK_RECORD
  5
2AD
100
AcDbSymbolTableRecord
100
AcDbBlockTableRecord
  2
*B71
340
0
  0
BLOCK_RECORD
  5
2B2
100
AcDbSymbolTableRecord
100
AcDbBlockTableRecord
  2
*B72
340
0
  0
BLOCK_RECORD
  5
2B7
100
AcDbSymbolTableRecord
100
AcDbBlockTableRecord
  2
*B73
340
0
  0
BLOCK_RECORD
  5
2BC
100
AcDbSymbolTableRecord
100
AcDbBlockTableRecord
  2
*B74
340
0
  0
BLOCK_RECORD
  5
2C1
100
AcDbSymbolTableRecord
100
AcDbBlockTableRecord
  2
*B75
340
0
  0
BLOCK_RECORD
  5
2C6
100
AcDbSymbolTableRecord
100
AcDbBlockTableRecord
  2
*B76
340
0
  0
BLOCK_RECORD
  5
2CB
100
AcDbSymbolTableRecord
100
AcDbBlockTableRecord
  2
*B77
340
0
  0
BLOCK_RECORD
  5
2D0
100
AcDbSymbolTableRecord
100
AcDbBlockTableRecord
  2
*B78
340
0
  0
BLOCK_RECORD
  5
2D5
100
AcDbSymbolTableRecord
100
AcDbBlockTableRecord
  2
*B79
340
0
  0
BLOCK_RECORD
  5
2DA
100
AcDbSymbolTableRecord
100
AcDbBlockTableRecord
  2
*B80
340
0
  0
BLOCK_RECORD
  5
2DF
100
AcDbSymbolTableRecord
100
AcDbBlockTableRecord
  2
*B81
340
0
  0
BLOCK_RECORD
  5
2E4
100
AcDbSymbolTableRecord
100
AcDbBlockTableRecord
  2
*B82
340
0
  0
BLOCK_RECORD
  5
2E9
100
AcDbSymbolTableRecord
100
AcDbBlockTableRecord
  2
*B83
340
0
  0
ENDTAB
  0
ENDSEC
  0
SECTION
  2
BLOCKS
  0
BLOCK
  5
D
100
AcDbEntity
  8
0
100
AcDbBlockBegin
  2
*MODEL_SPACE
 70
     0
 10
0.0
 20
0.0
 30
0.0
  3
*MODEL_SPACE
  1

  0
ENDBLK
  5
E
100
AcDbEntity
  8
0
100
AcDbBlockEnd
  0
BLOCK
  5
F
100
AcDbEntity
 67
     1
  8
0
100
AcDbBlockBegin
  2
*PAPER_SPACE
 70
     0
 10
0.0
 20
0.0
 30
0.0
  3
*PAPER_SPACE
  1

  0
ENDBLK
  5
10
100
AcDbEntity
 67
     1
  8
0
100
AcDbBlockEnd
  0
BLOCK
  5
2A
100
AcDbEntity
  8
0
100
AcDbBlockBegin
  2
*B0
 70
     0
 10
0.0
 20
0.0
 30
0.0
  3
*B0
  1

  0
LINE
  5
2B
100
AcDbEntity
  8
0
  6
CENTER
 62
   172
100
AcDbLine
 10
89.27729
 20
197.936681
 30
0.0
 11
77.209463
 21
270.343643
 31
0.0
  0
LINE
  5
2C
100
AcDbEntity
  8
0
  6
CENTER
 62
   172
100
AcDbLine
 10
79.750003
 20
255.1004
 30
0.0
 11
93.939192
 21
257.465265
 31
0.0
  0
LINE
  5
2D
100
AcDbEntity
  8
0
  6
CENTER
 62
   172
100
AcDbLine
 10
79.750003
 20
255.1004
 30
0.0
 11
65.560814
 21
252.735535
 31
0.0
  0
ENDBLK
  5
2E
100
AcDbEntity
  8
0
100
AcDbBlockEnd
  0
BLOCK
  5
31
100
AcDbEntity
  8
0
100
AcDbBlockBegin
  2
*B1
 70
     0
 10
0.0
 20
0.0
 30
0.0
  3
*B1
  1

  0
ARC
  5
32
100
AcDbEntity
  8
0
  6
HIDDEN
 62
   192
100
AcDbCircle
 10
79.750003
 20
255.1004
 30
0.0
 40
12.5
100
AcDbArc
 50
-61.874753
 51
260.799397
  0
LINE
  5
33
100
AcDbEntity
  8
0
  6
HIDDEN
 62
   192
100
AcDbLine
 10
85.64251
 20
244.07641
 30
0.0
 11
89.266718
 21
222.331162
 31
0.0
  0
LINE
  5
34
100
AcDbEntity
  8
0
  6
HIDDEN
 62
   192
100
AcDbLine
 10
77.751359
 20
242.761218
 30
0.0
 11
81.375566
 21
221.01597
 31
0.0
  0
LINE
  5
35
100
AcDbEntity
  8
0
  6
HIDDEN
 62
   192
100
AcDbLine
 10
77.751359
 20
242.761218
 30
0.0
 11
85.64251
 21
244.07641
 31
0.0
  0
ENDBLK
  5
36
100
AcDbEntity
  8
0
100
AcDbBlockEnd
  0
BLOCK
  5
39
100
AcDbEntity
  8
0
100
AcDbBlockBegin
  2
*B2
 70
     0
 10
0.0
 20
0.0
 30
0.0
  3
*B2
  1

  0
LINE
  5
3A
100
AcDbEntity
  8
0
  6
HIDDEN
 62
   174
100
AcDbLine
 10
117.525248
 20
69.139033
 30
0.0
 11
117.525248
 21
55.139033
 31
0.0
  0
LINE
  5
3B
100
AcDbEntity
  8
0
  6
HIDDEN
 62
   174
100
AcDbLine
 10
116.720896
 20
67.139033
 30
0.0
 11
133.38089
 21
67.139033
 31
0.0
  0
LINE
  5
3C
100
AcDbEntity
  8
0
  6
HIDDEN
 62
   174
100
AcDbLine
 10
116.695248
 20
67.139033
 30
0.0
 11
116.695248
 21
55.139033
 31
0.0
  0
LINE
  5
3D
100
AcDbEntity
  8
0
  6
HIDDEN
 62
   174
100
AcDbLine
 10
133.355248
 20
55.139033
 30
0.0
 11
133.355248
 21
67.139033
 31
0.0
  0
LINE
  5
3E
100
AcDbEntity
  8
0
  6
HIDDEN
 62
   174
100
AcDbLine
 10
132.525248
 20
55.139033
 30
0.0
 11
132.525248
 21
69.139033
 31
0.0
  0
LINE
  5
3F
100
AcDbEntity
  8
0
  6
HIDDEN
 62
   174
100
AcDbLine
 10
117.550921
 20
69.139033
 30
0.0
 11
132.550864
 21
69.139033
 31
0.0
  0
LINE
  5
40
100
AcDbEntity
  8
0
  6
HIDDEN
 62
   174
100
AcDbLine
 10
145.525248
 20
69.139033
 30
0.0
 11
145.525248
 21
55.139033
 31
0.0
  0
LINE
  5
41
100
AcDbEntity
  8
0
  6
HIDDEN
 62
   174
100
AcDbLine
 10
144.720969
 20
67.139033
 30
0.0
 11
161.380963
 21
67.139033
 31
0.0
  0
LINE
  5
42
100
AcDbEntity
  8
0
  6
HIDDEN
 62
   174
100
AcDbLine
 10
144.695248
 20
67.139033
 30
0.0
 11
144.695248
 21
55.139033
 31
0.0
  0
LINE
  5
43
100
AcDbEntity
  8
0
  6
HIDDEN
 62
   174
100
AcDbLine
 10
161.355248
 20
55.139033
 30
0.0
 11
161.355248
 21
67.139033
 31
0.0
  0
LINE
  5
44
100
AcDbEntity
  8
0
  6
HIDDEN
 62
   174
100
AcDbLine
 10
160.525248
 20
55.139033
 30
0.0
 11
160.525248
 21
69.139033
 31
0.0
  0
LINE
  5
45
100
AcDbEntity
  8
0
  6
HIDDEN
 62
   174
100
AcDbLine
 10
145.550995
 20
69.139033
 30
0.0
 11
160.550938
 21
69.139033
 31
0.0
  0
LINE
  5
46
100
AcDbEntity
  8
0
  6
Continuous
 62
   174
100
AcDbLine
 10
106.025248
 20
55.139033
 30
0.0
 11
172.025248
 21
55.139033
 31
0.0
  0
LWPOLYLINE
  5
47
100
AcDbEntity
  8
0
  6
HIDDEN
 62
   174
100
AcDbPolyline
 90
        5
 70
   128
 10
104.209098
 20
80.139033
 10
103.908365
 20
81.669767
 10
103.051949
 20
82.96746
 10
101.770233
 20
83.834551
 10
100.258345
 20
84.139033
  0
CIRCLE
  5
48
100
AcDbEntity
  8
0
  6
Continuous
 62
   174
100
AcDbCircle
 10
139.025248
 20
62.139033
 30
0.0
 40
3.3
  0
LINE
  5
49
100
AcDbEntity
  8
0
  6
Continuous
 62
   174
100
AcDbLine
 10
106.025248
 20
105.139033
 30
0.0
 11
76.025248
 21
105.139033
 31
0.0
  0
LINE
  5
4A
100
AcDbEntity
  8
0
  6
Continuous
 62
   174
100
AcDbLine
 10
173.025248
 20
89.139033
 30
0.0
 11
172.025248
 21
89.139033
 31
0.0
  0
LINE
  5
4B
100
AcDbEntity
  8
0
  6
HIDDEN
 62
   174
100
AcDbLine
 10
131.525248
 20
105.139033
 30
0.0
 11
131.525248
 21
91.139033
 31
0.0
  0
LINE
  5
4C
100
AcDbEntity
  8
0
  6
HIDDEN
 62
   174
100
AcDbLine
 10
146.551051
 20
91.139033
 30
0.0
 11
131.550808
 21
91.139033
 31
0.0
  0
LINE
  5
4D
100
AcDbEntity
  8
0
  6
HIDDEN
 62
   174
100
AcDbLine
 10
106.025248
 20
68.285523
 30
0.0
 11
106.025248
 21
80.139033
 31
0.0
  0
LINE
  5
4E
100
AcDbEntity
  8
0
  6
Continuous
 62
   174
100
AcDbLine
 10
172.025248
 20
55.139033
 30
0.0
 11
172.025248
 21
105.139033
 31
0.0
  0
LINE
  5
4F
100
AcDbEntity
  8
0
  6
Continuous
 62
   174
100
AcDbLine
 10
76.025248
 20
55.139033
 30
0.0
 11
106.025248
 21
55.139033
 31
0.0
  0
LINE
  5
50
100
AcDbEntity
  8
0
  6
HIDDEN
 62
   174
100
AcDbLine
 10
93.562567
 20
76.139033
 30
0.0
 11
100.258345
 21
76.139033
 31
0.0
  0
ARC
  5
51
100
AcDbEntity
  8
0
  6
HIDDEN
 62
   174
100
AcDbCircle
 10
91.025248
 20
80.139033
 30
0.0
 40
8.0
100
AcDbArc
 50
-80.393367
 51
-30.0
  0
LWPOLYLINE
  5
52
100
AcDbEntity
  8
0
  6
HIDDEN
 62
   174
100
AcDbPolyline
 90
        5
 70
   128
 10
93.562567
 20
76.139033
 10
95.112381
 20
76.443515
 10
96.426251
 20
77.310606
 10
97.30415
 20
78.6083
 10
97.612427
 20
80.139033
  0
LINE
  5
53
100
AcDbEntity
  8
0
  6
Continuous
 62
   174
100
AcDbLine
 10
173.025248
 20
71.185141
 30
0.0
 11
173.025248
 21
89.184051
 31
0.0
  0
ARC
  5
54
100
AcDbEntity
  8
0
  6
HIDDEN
 62
   174
100
AcDbCircle
 10
91.025248
 20
80.139033
 30
0.0
 40
15.0
100
AcDbArc
 50
-54.867887
 51
0.0
  0
ARC
  5
55
100
AcDbEntity
  8
0
  6
Continuous
 62
   174
100
AcDbCircle
 10
91.025248
 20
100.139033
 30
0.0
 40
2.5
100
AcDbArc
 50
-195.0
 51
105.0
  0
CIRCLE
  5
56
100
AcDbEntity
  8
0
  6
Continuous
 62
   174
100
AcDbCircle
 10
91.025248
 20
100.139033
 30
0.0
 40
2.1
  0
CIRCLE
  5
57
100
AcDbEntity
  8
0
  6
Continuous
 62
   174
100
AcDbCircle
 10
91.025248
 20
60.139033
 30
0.0
 40
2.1
  0
ARC
  5
58
100
AcDbEntity
  8
0
  6
HIDDEN
 62
   174
100
AcDbCircle
 10
91.025248
 20
80.139033
 30
0.0
 40
8.0
100
AcDbArc
 50
-30.0
 51
0.0
  0
LINE
  5
59
100
AcDbEntity
  8
0
  6
Continuous
 62
   174
100
AcDbLine
 10
172.025248
 20
71.139033
 30
0.0
 11
173.025248
 21
71.139033
 31
0.0
  0
LINE
  5
5A
100
AcDbEntity
  8
0
  6
Continuous
 62
   174
100
AcDbLine
 10
106.025248
 20
91.992544
 30
0.0
 11
106.025248
 21
105.139033
 31
0.0
  0
LINE
  5
5B
100
AcDbEntity
  8
0
  6
HIDDEN
 62
   174
100
AcDbLine
 10
146.525248
 20
91.139033
 30
0.0
 11
146.525248
 21
105.139033
 31
0.0
  0
LINE
  5
5C
100
AcDbEntity
  8
0
  6
HIDDEN
 62
   174
100
AcDbLine
 10
147.380776
 20
93.139033
 30
0.0
 11
130.720782
 21
93.139033
 31
0.0
  0
ARC
  5
5D
100
AcDbEntity
  8
0
  6
Continuous
 62
   174
100
AcDbCircle
 10
91.025248
 20
80.139033
 30
0.0
 40
15.0
100
AcDbArc
 50
54.867887
 51
305.132113
  0
LINE
  5
5E
100
AcDbEntity
  8
0
  6
Continuous
 62
   174
100
AcDbLine
 10
172.025248
 20
105.139033
 30
0.0
 11
106.025248
 21
105.139033
 31
0.0
  0
LINE
  5
5F
100
AcDbEntity
  8
0
  6
HIDDEN
 62
   174
100
AcDbLine
 10
100.258345
 20
84.139033
 30
0.0
 11
93.562567
 21
84.139033
 31
0.0
  0
LINE
  5
60
100
AcDbEntity
  8
0
  6
HIDDEN
 62
   174
100
AcDbLine
 10
106.025248
 20
68.285523
 30
0.0
 11
106.025248
 21
80.139033
 31
0.0
  0
ARC
  5
61
100
AcDbEntity
  8
0
  6
HIDDEN
 62
   174
100
AcDbCircle
 10
91.025248
 20
80.139033
 30
0.0
 40
14.5
100
AcDbArc
 50
0.0
 51
56.687609
  0
LINE
  5
62
100
AcDbEntity
  8
0
  6
Continuous
 62
   174
100
AcDbLine
 10
106.025248
 20
91.992544
 30
0.0
 11
106.025248
 21
105.139033
 31
0.0
  0
CIRCLE
  5
63
100
AcDbEntity
  8
0
  6
Continuous
 62
   174
100
AcDbCircle
 10
102.057341
 20
80.139033
 30
0.0
 40
12.5
  0
LWPOLYLINE
  5
64
100
AcDbEntity
  8
0
  6
HIDDEN
 62
   174
100
AcDbPolyline
 90
       16
 70
   129
 10
98.406668
 20
84.6651
 10
96.836892
 20
83.603135
 10
95.788001
 20
82.013792
 10
95.41968
 20
80.139033
 10
95.788001
 20
78.264275
 10
96.836892
 20
76.674932
 10
98.406668
 20
75.612966
 10
100.258345
 20
75.240054
 10
102.110022
 20
75.612966
 10
103.679798
 20
76.674932
 10
104.728688
 20
78.264275
 10
105.09701
 20
80.139033
 10
104.728688
 20
82.013792
 10
103.679798
 20
83.603135
 10
102.110022
 20
84.6651
 10
100.258345
 20
85.038013
  0
CIRCLE
  5
65
100
AcDbEntity
  8
0
  6
Continuous
 62
   174
100
AcDbCircle
 10
153.025248
 20
98.139033
 30
0.0
 40
3.3
  0
ARC
  5
66
100
AcDbEntity
  8
0
  6
HIDDEN
 62
   174
100
AcDbCircle
 10
91.025248
 20
80.139033
 30
0.0
 40
8.0
100
AcDbArc
 50
0.0
 51
30.0
  0
LWPOLYLINE
  5
67
100
AcDbEntity
  8
0
  6
HIDDEN
 62
   174
100
AcDbPolyline
 90
        5
 70
   128
 10
97.612427
 20
80.139033
 10
97.30415
 20
81.669767
 10
96.426251
 20
82.96746
 10
95.112381
 20
83.834551
 10
93.562567
 20
84.139033
  0
LWPOLYLINE
  5
68
100
AcDbEntity
  8
0
  6
HIDDEN
 62
   174
100
AcDbPolyline
 90
        5
 70
   128
 10
89.577751
 20
79.425014
 10
90.062802
 20
78.126229
 10
90.967028
 20
77.068522
 10
92.182128
 20
76.378578
 10
93.562567
 20
76.139033
  0
LINE
  5
69
100
AcDbEntity
  8
0
  6
Continuous
 62
   174
100
AcDbLine
 10
76.025248
 20
80.139033
 30
0.0
 11
76.025248
 21
55.139033
 31
0.0
  0
LINE
  5
6A
100
AcDbEntity
  8
0
  6
HIDDEN
 62
   174
100
AcDbLine
 10
106.025248
 20
80.139033
 30
0.0
 11
106.025248
 21
91.992544
 31
0.0
  0
LINE
  5
6B
100
AcDbEntity
  8
0
  6
HIDDEN
 62
   174
100
AcDbLine
 10
147.355248
 20
93.139033
 30
0.0
 11
147.355248
 21
105.139033
 31
0.0
  0
ARC
  5
6C
100
AcDbEntity
  8
0
  6
Continuous
 62
   174
100
AcDbCircle
 10
91.025248
 20
80.139033
 30
0.0
 40
14.5
100
AcDbArc
 50
-303.312391
 51
-56.687609
  0
ARC
  5
6D
100
AcDbEntity
  8
0
  6
HIDDEN
 62
   174
100
AcDbCircle
 10
91.025248
 20
80.139033
 30
0.0
 40
15.0
100
AcDbArc
 50
0.0
 51
54.867887
  0
LWPOLYLINE
  5
6E
100
AcDbEntity
  8
0
  6
HIDDEN
 62
   174
100
AcDbPolyline
 90
        5
 70
   128
 10
100.258345
 20
76.139033
 10
101.770233
 20
76.443515
 10
103.051949
 20
77.310606
 10
103.908365
 20
78.6083
 10
104.209098
 20
80.139033
  0
LINE
  5
6F
100
AcDbEntity
  8
0
  6
Continuous
 62
   174
100
AcDbLine
 10
76.025248
 20
105.139033
 30
0.0
 11
76.025248
 21
80.139033
 31
0.0
  0
LINE
  5
70
100
AcDbEntity
  8
0
  6
Continuous
 62
   174
100
AcDbLine
 10
106.025248
 20
55.139033
 30
0.0
 11
106.025248
 21
68.285523
 31
0.0
  0
LINE
  5
71
100
AcDbEntity
  8
0
  6
HIDDEN
 62
   174
100
AcDbLine
 10
106.025248
 20
80.139033
 30
0.0
 11
106.025248
 21
91.992544
 31
0.0
  0
LWPOLYLINE
  5
72
100
AcDbEntity
  8
0
  6
HIDDEN
 62
   174
100
AcDbPolyline
 90
       10
 70
   128
 10
100.258345
 20
84.139033
 10
98.907108
 20
83.897804
 10
97.71885
 20
83.203211
 10
96.836892
 20
82.139033
 10
96.367612
 20
80.833626
 10
96.367612
 20
79.444441
 10
96.836892
 20
78.139033
 10
97.71885
 20
77.074856
 10
98.907108
 20
76.380263
 10
100.258345
 20
76.139033
  0
ARC
  5
73
100
AcDbEntity
  8
0
  6
Continuous
 62
   174
100
AcDbCircle
 10
91.025248
 20
60.139033
 30
0.0
 40
2.5
100
AcDbArc
 50
-195.0
 51
105.0
  0
ARC
  5
74
100
AcDbEntity
  8
0
  6
HIDDEN
 62
   174
100
AcDbCircle
 10
91.025248
 20
80.139033
 30
0.0
 40
8.0
100
AcDbArc
 50
-330.0
 51
-279.606633
  0
LINE
  5
75
100
AcDbEntity
  8
0
  6
HIDDEN
 62
   174
100
AcDbLine
 10
130.695248
 20
105.139033
 30
0.0
 11
130.695248
 21
93.139033
 31
0.0
  0
ARC
  5
76
100
AcDbEntity
  8
0
  6
HIDDEN
 62
   174
100
AcDbCircle
 10
91.025248
 20
80.139033
 30
0.0
 40
14.5
100
AcDbArc
 50
-56.687609
 51
0.0
  0
LINE
  5
77
100
AcDbEntity
  8
0
  6
Continuous
 62
   174
100
AcDbLine
 10
106.025248
 20
55.139033
 30
0.0
 11
106.025248
 21
68.285523
 31
0.0
  0
CIRCLE
  5
78
100
AcDbEntity
  8
0
  6
Continuous
 62
   174
100
AcDbCircle
 10
125.025248
 20
98.139033
 30
0.0
 40
3.3
  0
ARC
  5
79
100
AcDbEntity
  8
0
  6
Continuous
 62
   174
100
AcDbCircle
 10
91.025248
 20
80.139033
 30
0.0
 40
8.0
100
AcDbArc
 50
-279.606633
 51
-80.393367
  0
LINE
  5
7A
100
AcDbEntity
  8
0
  6
Continuous
 62
   174
100
AcDbLine
 10
89.577751
 20
80.853053
 30
0.0
 11
89.577751
 21
79.425014
 31
0.0
  0
LWPOLYLINE
  5
7B
100
AcDbEntity
  8
0
  6
HIDDEN
 62
   174
100
AcDbPolyline
 90
        5
 70
   128
 10
93.562567
 20
84.139033
 10
92.182128
 20
83.899488
 10
90.967028
 20
83.209544
 10
90.062802
 20
82.151838
 10
89.577751
 20
80.853053
  0
ENDBLK
  5
7C
100
AcDbEntity
  8
0
100
AcDbBlockEnd
  0
BLOCK
  5
7F
100
AcDbEntity
  8
0
100
AcDbBlockBegin
  2
*B3
 70
     0
 10
0.0
 20
0.0
 30
0.0
  3
*B3
  1

  0
ARC
  5
80
100
AcDbEntity
  8
0
  6
Continuous
 62
   174
100
AcDbCircle
 10
125.025248
 20
170.437461
 30
0.0
 40
8.33
100
AcDbArc
 50
-285.0
 51
15.0
  0
ARC
  5
81
100
AcDbEntity
  8
0
  6
Continuous
 62
   174
100
AcDbCircle
 10
153.025248
 20
170.437461
 30
0.0
 40
8.33
100
AcDbArc
 50
-285.0
 51
15.0
  0
CIRCLE
  5
82
100
AcDbEntity
  8
0
  6
Continuous
 62
   174
100
AcDbCircle
 10
125.025248
 20
170.437461
 30
0.0
 40
7.5
  0
CIRCLE
  5
83
100
AcDbEntity
  8
0
  6
Continuous
 62
   174
100
AcDbCircle
 10
153.025248
 20
170.437461
 30
0.0
 40
7.5
  0
LINE
  5
84
100
AcDbEntity
  8
0
  6
Continuous
 62
   174
100
AcDbLine
 10
106.025248
 20
185.437461
 30
0.0
 11
172.025248
 21
185.437461
 31
0.0
  0
LINE
  5
85
100
AcDbEntity
  8
0
  6
Continuous
 62
   174
100
AcDbLine
 10
106.025248
 20
155.437461
 30
0.0
 11
172.025248
 21
155.437461
 31
0.0
  0
LINE
  5
86
100
AcDbEntity
  8
0
  6
Continuous
 62
   174
100
AcDbLine
 10
106.025248
 20
185.437461
 30
0.0
 11
106.025248
 21
155.437461
 31
0.0
  0
ARC
  5
87
100
AcDbEntity
  8
0
  6
Continuous
 62
   174
100
AcDbCircle
 10
102.057341
 20
255.091357
 30
0.0
 40
12.5
100
AcDbArc
 50
-75.926082
 51
237.926082
  0
LINE
  5
88
100
AcDbEntity
  8
0
  6
Continuous
 62
   174
100
AcDbLine
 10
105.116901
 20
242.963421
 30
0.0
 11
95.439586
 21
244.496157
 31
0.0
  0
LINE
  5
89
100
AcDbEntity
  8
0
  6
Continuous
 62
   174
100
AcDbLine
 10
76.025248
 20
185.437461
 30
0.0
 11
76.025248
 21
155.437461
 31
0.0
  0
LINE
  5
8A
100
AcDbEntity
  8
0
  6
Continuous
 62
   174
100
AcDbLine
 10
106.025248
 20
185.437461
 30
0.0
 11
106.025248
 21
155.437461
 31
0.0
  0
LINE
  5
8B
100
AcDbEntity
  8
0
  6
Continuous
 62
   174
100
AcDbLine
 10
172.025248
 20
185.437461
 30
0.0
 11
172.025248
 21
155.437461
 31
0.0
  0
LINE
  5
8C
100
AcDbEntity
  8
0
  6
Continuous
 62
   174
100
AcDbLine
 10
76.025248
 20
185.437461
 30
0.0
 11
106.025248
 21
185.437461
 31
0.0
  0
LINE
  5
8D
100
AcDbEntity
  8
0
  6
Continuous
 62
   174
100
AcDbLine
 10
172.025248
 20
161.437461
 30
0.0
 11
173.025248
 21
161.437461
 31
0.0
  0
LINE
  5
8E
100
AcDbEntity
  8
0
  6
Continuous
 62
   174
100
AcDbLine
 10
106.025248
 20
185.437461
 30
0.0
 11
106.025248
 21
200.937461
 31
0.0
  0
ARC
  5
8F
100
AcDbEntity
  8
0
  6
Continuous
 62
   174
100
AcDbCircle
 10
76.525248
 20
200.937461
 30
0.0
 40
0.5
100
AcDbArc
 50
-270.0
 51
-180.0
  0
LINE
  5
90
100
AcDbEntity
  8
0
  6
Continuous
 62
   174
100
AcDbLine
 10
97.612427
 20
201.457461
 30
0.0
 11
104.209098
 21
243.107203
 31
0.0
  0
LINE
  5
91
100
AcDbEntity
  8
0
  6
Continuous
 62
   174
100
AcDbLine
 10
99.050932
 20
201.457461
 30
0.0
 11
83.050933
 21
201.457461
 31
0.0
  0
ARC
  5
92
100
AcDbEntity
  8
0
  6
Continuous
 62
   174
100
AcDbCircle
 10
105.525248
 20
200.937461
 30
0.0
 40
0.5
100
AcDbArc
 50
0.0
 51
90.0
  0
LINE
  5
93
100
AcDbEntity
  8
0
  6
Continuous
 62
   174
100
AcDbLine
 10
76.025248
 20
155.437461
 30
0.0
 11
106.025248
 21
155.437461
 31
0.0
  0
LINE
  5
94
100
AcDbEntity
  8
0
  6
Continuous
 62
   174
100
AcDbLine
 10
96.307592
 20
244.358679
 30
0.0
 11
89.512706
 21
201.457461
 31
0.0
  0
LINE
  5
95
100
AcDbEntity
  8
0
  6
Continuous
 62
   174
100
AcDbLine
 10
173.025248
 20
179.437461
 30
0.0
 11
172.025248
 21
179.437461
 31
0.0
  0
LINE
  5
96
100
AcDbEntity
  8
0
  6
Continuous
 62
   174
100
AcDbLine
 10
76.025248
 20
200.937461
 30
0.0
 11
76.025248
 21
185.437461
 31
0.0
  0
LINE
  5
97
100
AcDbEntity
  8
0
  6
Continuous
 62
   174
100
AcDbLine
 10
76.050839
 20
200.937461
 30
0.0
 11
106.051025
 21
200.937461
 31
0.0
  0
LINE
  5
98
100
AcDbEntity
  8
0
  6
Continuous
 62
   174
100
AcDbLine
 10
173.025248
 20
161.477094
 30
0.0
 11
173.025248
 21
179.476004
 31
0.0
  0
LINE
  5
99
100
AcDbEntity
  8
0
  6
Continuous
 62
   174
100
AcDbLine
 10
105.550847
 20
201.437461
 30
0.0
 11
76.551018
 21
201.437461
 31
0.0
  0
ENDBLK
  5
9A
100
AcDbEntity
  8
0
100
AcDbBlockEnd
  0
BLOCK
  5
9D
100
AcDbEntity
  8
0
100
AcDbBlockBegin
  2
*B4
 70
     0
 10
0.0
 20
0.0
 30
0.0
  3
*B4
  1

  0
LINE
  5
9E
100
AcDbEntity
  8
0
  6
Continuous
 62
     0
100
AcDbLine
 10
53.826399
 20
267.623348
 30
0.0
 11
53.826399
 21
155.477657
 31
0.0
  0
SOLID
  5
9F
100
AcDbEntity
  8
0
  6
Continuous
 62
     0
100
AcDbTrace
 10
54.426312
 20
264.123602
 30
0.0
 11
53.826399
 21
267.623348
 31
0.0
 12
53.226485
 22
264.123602
 32
0.0
 13
53.226485
 23
264.123602
 33
0.0
  0
SOLID
  5
A0
100
AcDbEntity
  8
0
  6
Continuous
 62
     0
100
AcDbTrace
 10
53.226485
 20
158.977404
 30
0.0
 11
53.826399
 21
155.477657
 31
0.0
 12
54.426312
 22
158.977404
 32
0.0
 13
54.426312
 23
158.977404
 33
0.0
  0
ENDBLK
  5
A1
100
AcDbEntity
  8
0
100
AcDbBlockEnd
  0
BLOCK
  5
A4
100
AcDbEntity
  8
0
100
AcDbBlockBegin
  2
*B5
 70
     0
 10
0.0
 20
0.0
 30
0.0
  3
*B5
  1

  0
LINE
  5
A5
100
AcDbEntity
  8
0
  6
Continuous
 62
     0
100
AcDbLine
 10
65.826473
 20
185.47544
 30
0.0
 11
65.826473
 21
201.474237
 31
0.0
  0
SOLID
  5
A6
100
AcDbEntity
  8
0
  6
Continuous
 62
     0
100
AcDbTrace
 10
65.226259
 20
188.975186
 30
0.0
 11
65.826473
 21
185.47544
 31
0.0
 12
66.426387
 22
188.975186
 32
0.0
 13
66.426387
 23
188.975186
 33
0.0
  0
SOLID
  5
A7
100
AcDbEntity
  8
0
  6
Continuous
 62
     0
100
AcDbTrace
 10
66.426387
 20
197.974491
 30
0.0
 11
65.826473
 21
201.474237
 31
0.0
 12
65.226259
 22
197.974491
 32
0.0
 13
65.226259
 23
197.974491
 33
0.0
  0
ENDBLK
  5
A8
100
AcDbEntity
  8
0
100
AcDbBlockEnd
  0
BLOCK
  5
AB
100
AcDbEntity
  8
0
100
AcDbBlockBegin
  2
*B6
 70
     0
 10
0.0
 20
0.0
 30
0.0
  3
*B6
  1

  0
LINE
  5
AC
100
AcDbEntity
  8
0
  6
Continuous
 62
     0
100
AcDbLine
 10
186.025786
 20
98.183355
 30
0.0
 11
186.025786
 21
62.185836
 31
0.0
  0
SOLID
  5
AD
100
AcDbEntity
  8
0
  6
Continuous
 62
     0
100
AcDbTrace
 10
186.6257
 20
94.683609
 30
0.0
 11
186.025786
 21
98.183355
 31
0.0
 12
185.425572
 22
94.683609
 32
0.0
 13
185.425572
 23
94.683609
 33
0.0
  0
SOLID
  5
AE
100
AcDbEntity
  8
0
  6
Continuous
 62
     0
100
AcDbTrace
 10
185.425572
 20
65.685582
 30
0.0
 11
186.025786
 21
62.185836
 31
0.0
 12
186.6257
 22
65.685582
 32
0.0
 13
186.6257
 23
65.685582
 33
0.0
  0
ENDBLK
  5
AF
100
AcDbEntity
  8
0
100
AcDbBlockEnd
  0
BLOCK
  5
B2
100
AcDbEntity
  8
0
100
AcDbBlockBegin
  2
*B7
 70
     0
 10
0.0
 20
0.0
 30
0.0
  3
*B7
  1

  0
LINE
  5
B3
100
AcDbEntity
  8
0
  6
Continuous
 62
     0
100
AcDbLine
 10
198.02556
 20
55.186343
 30
0.0
 11
198.02556
 21
105.182848
 31
0.0
  0
SOLID
  5
B4
100
AcDbEntity
  8
0
  6
Continuous
 62
     0
100
AcDbTrace
 10
197.425647
 20
58.68609
 30
0.0
 11
198.02556
 21
55.186343
 31
0.0
 12
198.625774
 22
58.68609
 32
0.0
 13
198.625774
 23
58.68609
 33
0.0
  0
SOLID
  5
B5
100
AcDbEntity
  8
0
  6
Continuous
 62
     0
100
AcDbTrace
 10
198.625774
 20
101.683102
 30
0.0
 11
198.02556
 21
105.182848
 31
0.0
 12
197.425647
 22
101.683102
 32
0.0
 13
197.425647
 23
101.683102
 33
0.0
  0
ENDBLK
  5
B6
100
AcDbEntity
  8
0
100
AcDbBlockEnd
  0
BLOCK
  5
B9
100
AcDbEntity
  8
0
100
AcDbBlockBegin
  2
*B8
 70
     0
 10
0.0
 20
0.0
 30
0.0
  3
*B8
  1

  0
LINE
  5
BA
100
AcDbEntity
  8
0
  6
Continuous
 62
     0
100
AcDbLine
 10
198.02556
 20
185.47544
 30
0.0
 11
198.02556
 21
155.477657
 31
0.0
  0
SOLID
  5
BB
100
AcDbEntity
  8
0
  6
Continuous
 62
     0
100
AcDbTrace
 10
198.625774
 20
181.975694
 30
0.0
 11
198.02556
 21
185.47544
 31
0.0
 12
197.425647
 22
181.975694
 32
0.0
 13
197.425647
 23
181.975694
 33
0.0
  0
SOLID
  5
BC
100
AcDbEntity
  8
0
  6
Continuous
 62
     0
100
AcDbTrace
 10
197.425647
 20
158.977404
 30
0.0
 11
198.02556
 21
155.477657
 31
0.0
 12
198.625774
 22
158.977404
 32
0.0
 13
198.625774
 23
158.977404
 33
0.0
  0
ENDBLK
  5
BD
100
AcDbEntity
  8
0
100
AcDbBlockEnd
  0
BLOCK
  5
C0
100
AcDbEntity
  8
0
100
AcDbBlockBegin
  2
*B9
 70
     0
 10
0.0
 20
0.0
 30
0.0
  3
*B9
  1

  0
LINE
  5
C1
100
AcDbEntity
  8
0
  6
Continuous
 62
     0
100
AcDbLine
 10
106.051025
 20
142.041035
 30
0.0
 11
76.050839
 21
142.041035
 31
0.0
  0
SOLID
  5
C2
100
AcDbEntity
  8
0
  6
Continuous
 62
     0
100
AcDbTrace
 10
102.550979
 20
141.441121
 30
0.0
 11
106.051025
 21
142.041035
 31
0.0
 12
102.550979
 22
142.640948
 32
0.0
 13
102.550979
 23
142.640948
 33
0.0
  0
SOLID
  5
C3
100
AcDbEntity
  8
0
  6
Continuous
 62
     0
100
AcDbTrace
 10
79.550886
 20
142.640948
 30
0.0
 11
76.050839
 21
142.041035
 31
0.0
 12
79.550886
 22
141.441121
 32
0.0
 13
79.550886
 23
141.441121
 33
0.0
  0
ENDBLK
  5
C4
100
AcDbEntity
  8
0
100
AcDbBlockEnd
  0
BLOCK
  5
C7
100
AcDbEntity
  8
0
100
AcDbBlockBegin
  2
*B10
 70
     0
 10
0.0
 20
0.0
 30
0.0
  3
*B10
  1

  0
LINE
  5
C8
100
AcDbEntity
  8
0
  6
Continuous
 62
     0
100
AcDbLine
 10
172.050834
 20
142.041035
 30
0.0
 11
106.051025
 21
142.041035
 31
0.0
  0
SOLID
  5
C9
100
AcDbEntity
  8
0
  6
Continuous
 62
     0
100
AcDbTrace
 10
168.550787
 20
141.441121
 30
0.0
 11
172.050834
 21
142.041035
 31
0.0
 12
168.550787
 22
142.640948
 32
0.0
 13
168.550787
 23
142.640948
 33
0.0
  0
SOLID
  5
CA
100
AcDbEntity
  8
0
  6
Continuous
 62
     0
100
AcDbTrace
 10
109.550772
 20
142.640948
 30
0.0
 11
106.051025
 21
142.041035
 31
0.0
 12
109.550772
 22
141.441121
 32
0.0
 13
109.550772
 23
141.441121
 33
0.0
  0
ENDBLK
  5
CB
100
AcDbEntity
  8
0
100
AcDbBlockEnd
  0
BLOCK
  5
CE
100
AcDbEntity
  8
0
100
AcDbBlockBegin
  2
*B11
 70
     0
 10
0.0
 20
0.0
 30
0.0
  3
*B11
  1

  0
LINE
  5
CF
100
AcDbEntity
  8
0
  6
Continuous
 62
     0
100
AcDbLine
 10
165.051041
 20
142.041035
 30
0.0
 11
183.141575
 21
142.041035
 31
0.0
  0
SOLID
  5
D0
100
AcDbEntity
  8
0
  6
Continuous
 62
     0
100
AcDbTrace
 10
168.550787
 20
141.441121
 30
0.0
 11
172.050834
 21
142.041035
 31
0.0
 12
168.550787
 22
142.640948
 32
0.0
 13
168.550787
 23
142.640948
 33
0.0
  0
SOLID
  5
D1
100
AcDbEntity
  8
0
  6
Continuous
 62
     0
100
AcDbTrace
 10
176.550937
 20
142.640948
 30
0.0
 11
173.05089
 21
142.041035
 31
0.0
 12
176.550937
 22
141.441121
 32
0.0
 13
176.550937
 23
141.441121
 33
0.0
  0
ENDBLK
  5
D2
100
AcDbEntity
  8
0
100
AcDbBlockEnd
  0
BLOCK
  5
D5
100
AcDbEntity
  8
0
100
AcDbBlockBegin
  2
*B12
 70
     0
 10
0.0
 20
0.0
 30
0.0
  3
*B12
  1

  0
LINE
  5
D6
100
AcDbEntity
  8
0
  6
Continuous
 62
     0
100
AcDbLine
 10
139.050779
 20
118.042989
 30
0.0
 11
172.050834
 21
118.042989
 31
0.0
  0
SOLID
  5
D7
100
AcDbEntity
  8
0
  6
Continuous
 62
     0
100
AcDbTrace
 10
142.550826
 20
118.642902
 30
0.0
 11
139.050779
 21
118.042989
 31
0.0
 12
142.550826
 22
117.442775
 32
0.0
 13
142.550826
 23
117.442775
 33
0.0
  0
SOLID
  5
D8
100
AcDbEntity
  8
0
  6
Continuous
 62
     0
100
AcDbTrace
 10
168.550787
 20
117.442775
 30
0.0
 11
172.050834
 21
118.042989
 31
0.0
 12
168.550787
 22
118.642902
 32
0.0
 13
168.550787
 23
118.642902
 33
0.0
  0
ENDBLK
  5
D9
100
AcDbEntity
  8
0
100
AcDbBlockEnd
  0
BLOCK
  5
DC
100
AcDbEntity
  8
0
100
AcDbBlockBegin
  2
*B13
 70
     0
 10
0.0
 20
0.0
 30
0.0
  3
*B13
  1

  0
LINE
  5
DD
100
AcDbEntity
  8
0
  6
Continuous
 62
     0
100
AcDbLine
 10
153.050966
 20
42.048326
 30
0.0
 11
172.050834
 21
42.048326
 31
0.0
  0
SOLID
  5
DE
100
AcDbEntity
  8
0
  6
Continuous
 62
     0
100
AcDbTrace
 10
156.551013
 20
42.648239
 30
0.0
 11
153.050966
 21
42.048326
 31
0.0
 12
156.551013
 22
41.448412
 32
0.0
 13
156.551013
 23
41.448412
 33
0.0
  0
SOLID
  5
DF
100
AcDbEntity
  8
0
  6
Continuous
 62
     0
100
AcDbTrace
 10
168.550787
 20
41.448412
 30
0.0
 11
172.050834
 21
42.048326
 31
0.0
 12
168.550787
 22
42.648239
 32
0.0
 13
168.550787
 23
42.648239
 33
0.0
  0
ENDBLK
  5
E0
100
AcDbEntity
  8
0
100
AcDbBlockEnd
  0
BLOCK
  5
E3
100
AcDbEntity
  8
0
100
AcDbBlockBegin
  2
*B14
 70
     0
 10
0.0
 20
0.0
 30
0.0
  3
*B14
  1

  0
LINE
  5
E4
100
AcDbEntity
  8
0
  6
Continuous
 62
     0
100
AcDbLine
 10
125.050893
 20
42.048326
 30
0.0
 11
153.050966
 21
42.048326
 31
0.0
  0
SOLID
  5
E5
100
AcDbEntity
  8
0
  6
Continuous
 62
     0
100
AcDbTrace
 10
128.55094
 20
42.648239
 30
0.0
 11
125.050893
 21
42.048326
 31
0.0
 12
128.55094
 22
41.448412
 32
0.0
 13
128.55094
 23
41.448412
 33
0.0
  0
SOLID
  5
E6
100
AcDbEntity
  8
0
  6
Continuous
 62
     0
100
AcDbTrace
 10
149.55092
 20
41.448412
 30
0.0
 11
153.050966
 21
42.048326
 31
0.0
 12
149.55092
 22
42.648239
 32
0.0
 13
149.55092
 23
42.648239
 33
0.0
  0
ENDBLK
  5
E7
100
AcDbEntity
  8
0
100
AcDbBlockEnd
  0
BLOCK
  5
EA
100
AcDbEntity
  8
0
100
AcDbBlockBegin
  2
*B15
 70
     0
 10
0.0
 20
0.0
 30
0.0
  3
*B15
  1

  0
LINE
  5
EB
100
AcDbEntity
  8
0
  6
Continuous
 62
     0
100
AcDbLine
 10
135.350962
 20
118.042989
 30
0.0
 11
103.791661
 21
118.042989
 31
0.0
  0
SOLID
  5
EC
100
AcDbEntity
  8
0
  6
Continuous
 62
     0
100
AcDbTrace
 10
131.850915
 20
118.642902
 30
0.0
 11
128.350868
 21
118.042989
 31
0.0
 12
131.850915
 22
117.442775
 32
0.0
 13
131.850915
 23
117.442775
 33
0.0
  0
SOLID
  5
ED
100
AcDbEntity
  8
0
  6
Continuous
 62
     0
100
AcDbTrace
 10
118.250871
 20
117.442775
 30
0.0
 11
121.750917
 21
118.042989
 31
0.0
 12
118.250871
 22
118.642902
 32
0.0
 13
118.250871
 23
118.642902
 33
0.0
  0
ENDBLK
  5
EE
100
AcDbEntity
  8
0
100
AcDbBlockEnd
  0
BLOCK
  5
F1
100
AcDbEntity
  8
0
100
AcDbBlockBegin
  2
*B16
 70
     0
 10
0.0
 20
0.0
 30
0.0
  3
*B16
  1

  0
LINE
  5
F2
100
AcDbEntity
  8
0
  6
Continuous
 62
     0
100
AcDbLine
 10
183.364778
 20
202.036901
 30
0.0
 11
138.550901
 21
202.036901
 31
0.0
  0
SOLID
  5
F3
100
AcDbEntity
  8
0
  6
Continuous
 62
     0
100
AcDbTrace
 10
164.050984
 20
202.636814
 30
0.0
 11
160.550938
 21
202.036901
 31
0.0
 12
164.050984
 22
201.436687
 32
0.0
 13
164.050984
 23
201.436687
 33
0.0
  0
SOLID
  5
F4
100
AcDbEntity
  8
0
  6
Continuous
 62
     0
100
AcDbTrace
 10
142.050948
 20
201.436687
 30
0.0
 11
145.550995
 21
202.036901
 31
0.0
 12
142.050948
 22
202.636814
 32
0.0
 13
142.050948
 23
202.636814
 33
0.0
  0
ENDBLK
  5
F5
100
AcDbEntity
  8
0
100
AcDbBlockEnd
  0
BLOCK
  5
F8
100
AcDbEntity
  8
0
100
AcDbBlockBegin
  2
*B17
 70
     0
 10
0.0
 20
0.0
 30
0.0
  3
*B17
  1

  0
LINE
  5
F9
100
AcDbEntity
  8
0
  6
Continuous
 62
     0
100
AcDbLine
 10
100.151024
 20
42.048326
 30
0.0
 11
75.757942
 21
42.048326
 31
0.0
  0
SOLID
  5
FA
100
AcDbEntity
  8
0
  6
Continuous
 62
     0
100
AcDbTrace
 10
96.650977
 20
42.648239
 30
0.0
 11
93.15093
 21
42.048326
 31
0.0
 12
96.650977
 22
41.448412
 32
0.0
 13
96.650977
 23
41.448412
 33
0.0
  0
SOLID
  5
FB
100
AcDbEntity
  8
0
  6
Continuous
 62
     0
100
AcDbTrace
 10
85.450888
 20
41.448412
 30
0.0
 11
88.950934
 21
42.048326
 31
0.0
 12
85.450888
 22
42.648239
 32
0.0
 13
85.450888
 23
42.648239
 33
0.0
  0
ENDBLK
  5
FC
100
AcDbEntity
  8
0
100
AcDbBlockEnd
  0
BLOCK
  5
FF
100
AcDbEntity
  8
0
100
AcDbBlockBegin
  2
*B18
 70
     0
 10
0.0
 20
0.0
 30
0.0
  3
*B18
  1

  0
LINE
  5
100
100
AcDbEntity
  8
0
  6
Continuous
 62
     0
100
AcDbLine
 10
66.025643
 20
100.183167
 30
0.0
 11
66.025643
 21
60.186024
 31
0.0
  0
SOLID
  5
101
100
AcDbEntity
  8
0
  6
Continuous
 62
     0
100
AcDbTrace
 10
66.625557
 20
96.683421
 30
0.0
 11
66.025643
 21
100.183167
 31
0.0
 12
65.42573
 22
96.683421
 32
0.0
 13
65.42573
 23
96.683421
 33
0.0
  0
SOLID
  5
102
100
AcDbEntity
  8
0
  6
Continuous
 62
     0
100
AcDbTrace
 10
65.42573
 20
63.68577
 30
0.0
 11
66.025643
 21
60.186024
 31
0.0
 12
66.625557
 22
63.68577
 32
0.0
 13
66.625557
 23
63.68577
 33
0.0
  0
ENDBLK
  5
103
100
AcDbEntity
  8
0
100
AcDbBlockEnd
  0
BLOCK
  5
106
100
AcDbEntity
  8
0
100
AcDbBlockBegin
  2
*B19
 70
     0
 10
0.0
 20
0.0
 30
0.0
  3
*B19
  1

  0
LINE
  5
107
100
AcDbEntity
  8
0
  6
Continuous
 62
     8
100
AcDbLine
 10
63.826361
 20
185.47544
 30
0.0
 11
75.051084
 21
185.47544
 31
0.0
  0
LINE
  5
108
100
AcDbEntity
  8
0
  6
Continuous
 62
     8
100
AcDbLine
 10
173.05089
 20
185.47544
 30
0.0
 11
200.025673
 21
185.47544
 31
0.0
  0
ENDBLK
  5
109
100
AcDbEntity
  8
0
100
AcDbBlockEnd
  0
BLOCK
  5
10C
100
AcDbEntity
  8
0
100
AcDbBlockBegin
  2
*B20
 70
     0
 10
0.0
 20
0.0
 30
0.0
  3
*B20
  1

  0
LINE
  5
10D
100
AcDbEntity
  8
0
  6
Continuous
 62
     8
100
AcDbLine
 10
93.15093
 20
40.048513
 30
0.0
 11
93.15093
 21
59.186268
 31
0.0
  0
ENDBLK
  5
10E
100
AcDbEntity
  8
0
100
AcDbBlockEnd
  0
BLOCK
  5
111
100
AcDbEntity
  8
0
100
AcDbBlockBegin
  2
*B21
 70
     0
 10
0.0
 20
0.0
 30
0.0
  3
*B21
  1

  0
LINE
  5
112
100
AcDbEntity
  8
0
  6
Continuous
 62
     8
100
AcDbLine
 10
153.050966
 20
159.97716
 30
0.0
 11
153.050966
 21
168.976765
 31
0.0
  0
LINE
  5
113
100
AcDbEntity
  8
0
  6
Continuous
 62
     8
100
AcDbLine
 10
153.050966
 20
171.976333
 30
0.0
 11
153.050966
 21
180.975637
 31
0.0
  0
ENDBLK
  5
114
100
AcDbEntity
  8
0
100
AcDbBlockEnd
  0
BLOCK
  5
117
100
AcDbEntity
  8
0
100
AcDbBlockBegin
  2
*B22
 70
     0
 10
0.0
 20
0.0
 30
0.0
  3
*B22
  1

  0
LINE
  5
118
100
AcDbEntity
  8
0
  6
Continuous
 62
     8
100
AcDbLine
 10
153.050966
 20
40.048513
 30
0.0
 11
153.050966
 21
44.048138
 31
0.0
  0
LINE
  5
119
100
AcDbEntity
  8
0
  6
Continuous
 62
     8
100
AcDbLine
 10
153.050966
 20
44.048138
 30
0.0
 11
153.050966
 21
48.996148
 31
0.0
  0
LINE
  5
11A
100
AcDbEntity
  8
0
  6
Continuous
 62
     8
100
AcDbLine
 10
153.050966
 20
49.996204
 30
0.0
 11
153.050966
 21
50.996261
 31
0.0
  0
LINE
  5
11B
100
AcDbEntity
  8
0
  6
Continuous
 62
     8
100
AcDbLine
 10
153.050966
 20
51.996017
 30
0.0
 11
153.050966
 21
56.944027
 31
0.0
  0
LINE
  5
11C
100
AcDbEntity
  8
0
  6
Continuous
 62
     8
100
AcDbLine
 10
153.050966
 20
57.944083
 30
0.0
 11
153.050966
 21
58.943839
 31
0.0
  0
LINE
  5
11D
100
AcDbEntity
  8
0
  6
Continuous
 62
     8
100
AcDbLine
 10
153.050966
 20
59.943895
 30
0.0
 11
153.050966
 21
64.891906
 31
0.0
  0
LINE
  5
11E
100
AcDbEntity
  8
0
  6
Continuous
 62
     8
100
AcDbLine
 10
153.050966
 20
65.891962
 30
0.0
 11
153.050966
 21
66.891718
 31
0.0
  0
LINE
  5
11F
100
AcDbEntity
  8
0
  6
Continuous
 62
     8
100
AcDbLine
 10
153.050966
 20
67.891774
 30
0.0
 11
153.050966
 21
72.839785
 31
0.0
  0
LINE
  5
120
100
AcDbEntity
  8
0
  6
Continuous
 62
     8
100
AcDbLine
 10
153.050966
 20
73.839841
 30
0.0
 11
153.050966
 21
74.839597
 31
0.0
  0
LINE
  5
121
100
AcDbEntity
  8
0
  6
Continuous
 62
     8
100
AcDbLine
 10
153.050966
 20
75.839653
 30
0.0
 11
153.050966
 21
80.787663
 31
0.0
  0
LINE
  5
122
100
AcDbEntity
  8
0
  6
Continuous
 62
     8
100
AcDbLine
 10
153.050966
 20
81.78772
 30
0.0
 11
153.050966
 21
82.787476
 31
0.0
  0
LINE
  5
123
100
AcDbEntity
  8
0
  6
Continuous
 62
     8
100
AcDbLine
 10
153.050966
 20
83.787532
 30
0.0
 11
153.050966
 21
88.735542
 31
0.0
  0
LINE
  5
124
100
AcDbEntity
  8
0
  6
Continuous
 62
     8
100
AcDbLine
 10
153.050966
 20
89.735599
 30
0.0
 11
153.050966
 21
90.735354
 31
0.0
  0
LINE
  5
125
100
AcDbEntity
  8
0
  6
Continuous
 62
     8
100
AcDbLine
 10
153.050966
 20
91.735411
 30
0.0
 11
153.050966
 21
96.683421
 31
0.0
  0
LINE
  5
126
100
AcDbEntity
  8
0
  6
Continuous
 62
     8
100
AcDbLine
 10
153.050966
 20
99.68329
 30
0.0
 11
153.050966
 21
104.482899
 31
0.0
  0
ENDBLK
  5
127
100
AcDbEntity
  8
0
100
AcDbBlockEnd
  0
BLOCK
  5
12A
100
AcDbEntity
  8
0
100
AcDbBlockBegin
  2
*B23
 70
     0
 10
0.0
 20
0.0
 30
0.0
  3
*B23
  1

  0
LINE
  5
12B
100
AcDbEntity
  8
0
  6
Continuous
 62
     8
100
AcDbLine
 10
173.05089
 20
140.041223
 30
0.0
 11
173.05089
 21
160.477338
 31
0.0
  0
ENDBLK
  5
12C
100
AcDbEntity
  8
0
100
AcDbBlockEnd
  0
BLOCK
  5
12F
100
AcDbEntity
  8
0
100
AcDbBlockBegin
  2
*B24
 70
     0
 10
0.0
 20
0.0
 30
0.0
  3
*B24
  1

  0
LINE
  5
130
100
AcDbEntity
  8
0
  6
Continuous
 62
     8
100
AcDbLine
 10
121.750917
 20
99.183111
 30
0.0
 11
121.750917
 21
120.042801
 31
0.0
  0
ENDBLK
  5
131
100
AcDbEntity
  8
0
100
AcDbBlockEnd
  0
BLOCK
  5
134
100
AcDbEntity
  8
0
100
AcDbBlockBegin
  2
*B25
 70
     0
 10
0.0
 20
0.0
 30
0.0
  3
*B25
  1

  0
LINE
  5
135
100
AcDbEntity
  8
0
  6
Continuous
 62
     8
100
AcDbLine
 10
172.050834
 20
40.048513
 30
0.0
 11
172.050834
 21
54.186587
 31
0.0
  0
LINE
  5
136
100
AcDbEntity
  8
0
  6
Continuous
 62
     8
100
AcDbLine
 10
172.050834
 20
106.182604
 30
0.0
 11
172.050834
 21
120.042801
 31
0.0
  0
ENDBLK
  5
137
100
AcDbEntity
  8
0
100
AcDbBlockEnd
  0
BLOCK
  5
13A
100
AcDbEntity
  8
0
100
AcDbBlockBegin
  2
*B26
 70
     0
 10
0.0
 20
0.0
 30
0.0
  3
*B26
  1

  0
LINE
  5
13B
100
AcDbEntity
  8
0
  6
Continuous
 62
     8
100
AcDbLine
 10
172.050834
 20
140.041223
 30
0.0
 11
172.050834
 21
154.477601
 31
0.0
  0
ENDBLK
  5
13C
100
AcDbEntity
  8
0
100
AcDbBlockEnd
  0
BLOCK
  5
13F
100
AcDbEntity
  8
0
100
AcDbBlockBegin
  2
*B27
 70
     0
 10
0.0
 20
0.0
 30
0.0
  3
*B27
  1

  0
LINE
  5
140
100
AcDbEntity
  8
0
  6
Continuous
 62
     8
100
AcDbLine
 10
91.051083
 20
182.475572
 30
0.0
 11
91.051083
 21
187.641978
 31
0.0
  0
LINE
  5
141
100
AcDbEntity
  8
0
  6
Continuous
 62
     8
100
AcDbLine
 10
91.051083
 20
188.642035
 30
0.0
 11
91.051083
 21
189.64179
 31
0.0
  0
LINE
  5
142
100
AcDbEntity
  8
0
  6
Continuous
 62
     8
100
AcDbLine
 10
91.051083
 20
190.641847
 30
0.0
 11
91.051083
 21
195.807953
 31
0.0
  0
LINE
  5
143
100
AcDbEntity
  8
0
  6
Continuous
 62
     8
100
AcDbLine
 10
91.051083
 20
196.808009
 30
0.0
 11
91.051083
 21
197.807765
 31
0.0
  0
LINE
  5
144
100
AcDbEntity
  8
0
  6
Continuous
 62
     8
100
AcDbLine
 10
91.051083
 20
198.807821
 30
0.0
 11
91.051083
 21
203.974228
 31
0.0
  0
ENDBLK
  5
145
100
AcDbEntity
  8
0
100
AcDbBlockEnd
  0
BLOCK
  5
148
100
AcDbEntity
  8
0
100
AcDbBlockBegin
  2
*B28
 70
     0
 10
0.0
 20
0.0
 30
0.0
  3
*B28
  1

  0
LINE
  5
149
100
AcDbEntity
  8
0
  6
Continuous
 62
     8
100
AcDbLine
 10
184.025674
 20
62.185836
 30
0.0
 11
188.025599
 21
62.185836
 31
0.0
  0
LINE
  5
14A
100
AcDbEntity
  8
0
  6
Continuous
 62
     8
100
AcDbLine
 10
132.750936
 20
62.185836
 30
0.0
 11
137.550845
 21
62.185836
 31
0.0
  0
LINE
  5
14B
100
AcDbEntity
  8
0
  6
Continuous
 62
     8
100
AcDbLine
 10
140.551014
 20
62.185836
 30
0.0
 11
146.845751
 21
62.185836
 31
0.0
  0
LINE
  5
14C
100
AcDbEntity
  8
0
  6
Continuous
 62
     8
100
AcDbLine
 10
147.845807
 20
62.185836
 30
0.0
 11
148.845863
 21
62.185836
 31
0.0
  0
LINE
  5
14D
100
AcDbEntity
  8
0
  6
Continuous
 62
     8
100
AcDbLine
 10
149.84592
 20
62.185836
 30
0.0
 11
156.140656
 21
62.185836
 31
0.0
  0
LINE
  5
14E
100
AcDbEntity
  8
0
  6
Continuous
 62
     8
100
AcDbLine
 10
157.140713
 20
62.185836
 30
0.0
 11
158.140769
 21
62.185836
 31
0.0
  0
LINE
  5
14F
100
AcDbEntity
  8
0
  6
Continuous
 62
     8
100
AcDbLine
 10
159.140825
 20
62.185836
 30
0.0
 11
165.435863
 21
62.185836
 31
0.0
  0
LINE
  5
150
100
AcDbEntity
  8
0
  6
Continuous
 62
     8
100
AcDbLine
 10
166.435618
 20
62.185836
 30
0.0
 11
167.435675
 21
62.185836
 31
0.0
  0
LINE
  5
151
100
AcDbEntity
  8
0
  6
Continuous
 62
     8
100
AcDbLine
 10
168.435731
 20
62.185836
 30
0.0
 11
174.730768
 21
62.185836
 31
0.0
  0
LINE
  5
152
100
AcDbEntity
  8
0
  6
Continuous
 62
     8
100
AcDbLine
 10
175.730824
 20
62.185836
 30
0.0
 11
176.73058
 21
62.185836
 31
0.0
  0
LINE
  5
153
100
AcDbEntity
  8
0
  6
Continuous
 62
     8
100
AcDbLine
 10
177.730637
 20
62.185836
 30
0.0
 11
184.025674
 21
62.185836
 31
0.0
  0
ENDBLK
  5
154
100
AcDbEntity
  8
0
100
AcDbBlockEnd
  0
BLOCK
  5
157
100
AcDbEntity
  8
0
100
AcDbBlockBegin
  2
*B29
 70
     0
 10
0.0
 20
0.0
 30
0.0
  3
*B29
  1

  0
LINE
  5
158
100
AcDbEntity
  8
0
  6
Continuous
 62
     8
100
AcDbLine
 10
91.051083
 20
55.086308
 30
0.0
 11
91.051083
 21
58.68609
 31
0.0
  0
LINE
  5
159
100
AcDbEntity
  8
0
  6
Continuous
 62
     8
100
AcDbLine
 10
91.051083
 20
61.685958
 30
0.0
 11
91.051083
 21
68.685451
 31
0.0
  0
LINE
  5
15A
100
AcDbEntity
  8
0
  6
Continuous
 62
     8
100
AcDbLine
 10
91.051083
 20
69.685507
 30
0.0
 11
91.051083
 21
70.685263
 31
0.0
  0
LINE
  5
15B
100
AcDbEntity
  8
0
  6
Continuous
 62
     8
100
AcDbLine
 10
91.051083
 20
71.685319
 30
0.0
 11
91.051083
 21
78.684812
 31
0.0
  0
LINE
  5
15C
100
AcDbEntity
  8
0
  6
Continuous
 62
     8
100
AcDbLine
 10
91.051083
 20
81.68438
 30
0.0
 11
91.051083
 21
88.683872
 31
0.0
  0
LINE
  5
15D
100
AcDbEntity
  8
0
  6
Continuous
 62
     8
100
AcDbLine
 10
91.051083
 20
89.683928
 30
0.0
 11
91.051083
 21
90.683985
 31
0.0
  0
LINE
  5
15E
100
AcDbEntity
  8
0
  6
Continuous
 62
     8
100
AcDbLine
 10
91.051083
 20
91.683741
 30
0.0
 11
91.051083
 21
98.683233
 31
0.0
  0
LINE
  5
15F
100
AcDbEntity
  8
0
  6
Continuous
 62
     8
100
AcDbLine
 10
91.051083
 20
101.683102
 30
0.0
 11
91.051083
 21
105.282884
 31
0.0
  0
ENDBLK
  5
160
100
AcDbEntity
  8
0
100
AcDbBlockEnd
  0
BLOCK
  5
163
100
AcDbEntity
  8
0
100
AcDbBlockBegin
  2
*B30
 70
     0
 10
0.0
 20
0.0
 30
0.0
  3
*B30
  1

  0
LINE
  5
164
100
AcDbEntity
  8
0
  6
Continuous
 62
     8
100
AcDbLine
 10
160.550938
 20
171.476455
 30
0.0
 11
160.550938
 21
204.036713
 31
0.0
  0
ENDBLK
  5
165
100
AcDbEntity
  8
0
100
AcDbBlockEnd
  0
BLOCK
  5
168
100
AcDbEntity
  8
0
100
AcDbBlockBegin
  2
*B31
 70
     0
 10
0.0
 20
0.0
 30
0.0
  3
*B31
  1

  0
LINE
  5
169
100
AcDbEntity
  8
0
  6
Continuous
 62
     8
100
AcDbLine
 10
51.826286
 20
267.623348
 30
0.0
 11
101.082888
 21
267.623348
 31
0.0
  0
ENDBLK
  5
16A
100
AcDbEntity
  8
0
100
AcDbBlockEnd
  0
BLOCK
  5
16D
100
AcDbEntity
  8
0
100
AcDbBlockBegin
  2
*B32
 70
     0
 10
0.0
 20
0.0
 30
0.0
  3
*B32
  1

  0
LINE
  5
16E
100
AcDbEntity
  8
0
  6
Continuous
 62
     8
100
AcDbLine
 10
64.025831
 20
100.183167
 30
0.0
 11
68.025756
 21
100.183167
 31
0.0
  0
LINE
  5
16F
100
AcDbEntity
  8
0
  6
Continuous
 62
     8
100
AcDbLine
 10
68.025756
 20
100.183167
 30
0.0
 11
73.200874
 21
100.183167
 31
0.0
  0
LINE
  5
170
100
AcDbEntity
  8
0
  6
Continuous
 62
     8
100
AcDbLine
 10
74.20063
 20
100.183167
 30
0.0
 11
75.200686
 21
100.183167
 31
0.0
  0
LINE
  5
171
100
AcDbEntity
  8
0
  6
Continuous
 62
     8
100
AcDbLine
 10
76.200743
 20
100.183167
 30
0.0
 11
81.375861
 21
100.183167
 31
0.0
  0
LINE
  5
172
100
AcDbEntity
  8
0
  6
Continuous
 62
     8
100
AcDbLine
 10
82.375917
 20
100.183167
 30
0.0
 11
83.375974
 21
100.183167
 31
0.0
  0
LINE
  5
173
100
AcDbEntity
  8
0
  6
Continuous
 62
     8
100
AcDbLine
 10
84.37573
 20
100.183167
 30
0.0
 11
89.550848
 21
100.183167
 31
0.0
  0
LINE
  5
174
100
AcDbEntity
  8
0
  6
Continuous
 62
     8
100
AcDbLine
 10
92.551017
 20
100.183167
 30
0.0
 11
96.150799
 21
100.183167
 31
0.0
  0
ENDBLK
  5
175
100
AcDbEntity
  8
0
100
AcDbBlockEnd
  0
BLOCK
  5
178
100
AcDbEntity
  8
0
100
AcDbBlockBegin
  2
*B33
 70
     0
 10
0.0
 20
0.0
 30
0.0
  3
*B33
  1

  0
LINE
  5
179
100
AcDbEntity
  8
0
  6
Continuous
 62
     8
100
AcDbLine
 10
118.751049
 20
98.183355
 30
0.0
 11
123.550959
 21
98.183355
 31
0.0
  0
LINE
  5
17A
100
AcDbEntity
  8
0
  6
Continuous
 62
     8
100
AcDbLine
 10
126.550827
 20
98.183355
 30
0.0
 11
131.351037
 21
98.183355
 31
0.0
  0
ENDBLK
  5
17B
100
AcDbEntity
  8
0
100
AcDbBlockEnd
  0
BLOCK
  5
17E
100
AcDbEntity
  8
0
100
AcDbBlockBegin
  2
*B34
 70
     0
 10
0.0
 20
0.0
 30
0.0
  3
*B34
  1

  0
LINE
  5
17F
100
AcDbEntity
  8
0
  6
Continuous
 62
     8
100
AcDbLine
 10
88.950934
 20
40.048513
 30
0.0
 11
88.950934
 21
59.186268
 31
0.0
  0
ENDBLK
  5
180
100
AcDbEntity
  8
0
100
AcDbBlockEnd
  0
BLOCK
  5
183
100
AcDbEntity
  8
0
100
AcDbBlockBegin
  2
*B35
 70
     0
 10
0.0
 20
0.0
 30
0.0
  3
*B35
  1

  0
LINE
  5
184
100
AcDbEntity
  8
0
  6
Continuous
 62
     8
100
AcDbLine
 10
102.082944
 20
64.685826
 30
0.0
 11
102.082944
 21
70.185385
 31
0.0
  0
LINE
  5
185
100
AcDbEntity
  8
0
  6
Continuous
 62
     8
100
AcDbLine
 10
102.082944
 20
71.185141
 30
0.0
 11
102.082944
 21
72.185197
 31
0.0
  0
LINE
  5
186
100
AcDbEntity
  8
0
  6
Continuous
 62
     8
100
AcDbLine
 10
102.082944
 20
73.185253
 30
0.0
 11
102.082944
 21
78.684812
 31
0.0
  0
LINE
  5
187
100
AcDbEntity
  8
0
  6
Continuous
 62
     8
100
AcDbLine
 10
102.082944
 20
81.68438
 30
0.0
 11
102.082944
 21
87.184238
 31
0.0
  0
LINE
  5
188
100
AcDbEntity
  8
0
  6
Continuous
 62
     8
100
AcDbLine
 10
102.082944
 20
88.183994
 30
0.0
 11
102.082944
 21
89.184051
 31
0.0
  0
LINE
  5
189
100
AcDbEntity
  8
0
  6
Continuous
 62
     8
100
AcDbLine
 10
102.082944
 20
90.183806
 30
0.0
 11
102.082944
 21
95.683365
 31
0.0
  0
ENDBLK
  5
18A
100
AcDbEntity
  8
0
100
AcDbBlockEnd
  0
BLOCK
  5
18D
100
AcDbEntity
  8
0
100
AcDbBlockBegin
  2
*B36
 70
     0
 10
0.0
 20
0.0
 30
0.0
  3
*B36
  1

  0
LINE
  5
18E
100
AcDbEntity
  8
0
  6
Continuous
 62
     8
100
AcDbLine
 10
51.826286
 20
155.477657
 30
0.0
 11
75.051084
 21
155.477657
 31
0.0
  0
LINE
  5
18F
100
AcDbEntity
  8
0
  6
Continuous
 62
     8
100
AcDbLine
 10
173.05089
 20
155.477657
 30
0.0
 11
200.025673
 21
155.477657
 31
0.0
  0
ENDBLK
  5
190
100
AcDbEntity
  8
0
100
AcDbBlockEnd
  0
BLOCK
  5
193
100
AcDbEntity
  8
0
100
AcDbBlockBegin
  2
*B37
 70
     0
 10
0.0
 20
0.0
 30
0.0
  3
*B37
  1

  0
LINE
  5
194
100
AcDbEntity
  8
0
  6
Continuous
 62
     8
100
AcDbLine
 10
184.025674
 20
98.183355
 30
0.0
 11
188.025599
 21
98.183355
 31
0.0
  0
LINE
  5
195
100
AcDbEntity
  8
0
  6
Continuous
 62
     8
100
AcDbLine
 10
146.750822
 20
98.183355
 30
0.0
 11
151.551032
 21
98.183355
 31
0.0
  0
LINE
  5
196
100
AcDbEntity
  8
0
  6
Continuous
 62
     8
100
AcDbLine
 10
154.5509
 20
98.183355
 30
0.0
 11
159.669542
 21
98.183355
 31
0.0
  0
LINE
  5
197
100
AcDbEntity
  8
0
  6
Continuous
 62
     8
100
AcDbLine
 10
160.669599
 20
98.183355
 30
0.0
 11
161.669655
 21
98.183355
 31
0.0
  0
LINE
  5
198
100
AcDbEntity
  8
0
  6
Continuous
 62
     8
100
AcDbLine
 10
162.669711
 20
98.183355
 30
0.0
 11
167.788353
 21
98.183355
 31
0.0
  0
LINE
  5
199
100
AcDbEntity
  8
0
  6
Continuous
 62
     8
100
AcDbLine
 10
168.788409
 20
98.183355
 30
0.0
 11
169.788165
 21
98.183355
 31
0.0
  0
LINE
  5
19A
100
AcDbEntity
  8
0
  6
Continuous
 62
     8
100
AcDbLine
 10
170.788221
 20
98.183355
 30
0.0
 11
175.906863
 21
98.183355
 31
0.0
  0
LINE
  5
19B
100
AcDbEntity
  8
0
  6
Continuous
 62
     8
100
AcDbLine
 10
176.906919
 20
98.183355
 30
0.0
 11
177.906976
 21
98.183355
 31
0.0
  0
LINE
  5
19C
100
AcDbEntity
  8
0
  6
Continuous
 62
     8
100
AcDbLine
 10
178.907032
 20
98.183355
 30
0.0
 11
184.025674
 21
98.183355
 31
0.0
  0
ENDBLK
  5
19D
100
AcDbEntity
  8
0
100
AcDbBlockEnd
  0
BLOCK
  5
1A0
100
AcDbEntity
  8
0
100
AcDbBlockBegin
  2
*B38
 70
     0
 10
0.0
 20
0.0
 30
0.0
  3
*B38
  1

  0
LINE
  5
1A1
100
AcDbEntity
  8
0
  6
Continuous
 62
     8
100
AcDbLine
 10
106.051025
 20
140.041223
 30
0.0
 11
106.051025
 21
154.477601
 31
0.0
  0
ENDBLK
  5
1A2
100
AcDbEntity
  8
0
100
AcDbBlockEnd
  0
BLOCK
  5
1A5
100
AcDbEntity
  8
0
100
AcDbBlockBegin
  2
*B39
 70
     0
 10
0.0
 20
0.0
 30
0.0
  3
*B39
  1

  0
LINE
  5
1A6
100
AcDbEntity
  8
0
  6
Continuous
 62
     8
100
AcDbLine
 10
145.550995
 20
171.476455
 30
0.0
 11
145.550995
 21
204.036713
 31
0.0
  0
ENDBLK
  5
1A7
100
AcDbEntity
  8
0
100
AcDbBlockEnd
  0
BLOCK
  5
1AA
100
AcDbEntity
  8
0
100
AcDbBlockBegin
  2
*B40
 70
     0
 10
0.0
 20
0.0
 30
0.0
  3
*B40
  1

  0
LINE
  5
1AB
100
AcDbEntity
  8
0
  6
Continuous
 62
     8
100
AcDbLine
 10
63.826361
 20
201.474237
 30
0.0
 11
75.550961
 21
201.474237
 31
0.0
  0
ENDBLK
  5
1AC
100
AcDbEntity
  8
0
100
AcDbBlockEnd
  0
BLOCK
  5
1AF
100
AcDbEntity
  8
0
100
AcDbBlockBegin
  2
*B41
 70
     0
 10
0.0
 20
0.0
 30
0.0
  3
*B41
  1

  0
LINE
  5
1B0
100
AcDbEntity
  8
0
  6
Continuous
 62
     8
100
AcDbLine
 10
139.050779
 20
116.042876
 30
0.0
 11
139.050779
 21
120.042801
 31
0.0
  0
LINE
  5
1B1
100
AcDbEntity
  8
0
  6
Continuous
 62
     8
100
AcDbLine
 10
139.050779
 20
55.886292
 30
0.0
 11
139.050779
 21
60.685902
 31
0.0
  0
LINE
  5
1B2
100
AcDbEntity
  8
0
  6
Continuous
 62
     8
100
AcDbLine
 10
139.050779
 20
63.68577
 30
0.0
 11
139.050779
 21
68.594127
 31
0.0
  0
LINE
  5
1B3
100
AcDbEntity
  8
0
  6
Continuous
 62
     8
100
AcDbLine
 10
139.050779
 20
69.594183
 30
0.0
 11
139.050779
 21
70.593939
 31
0.0
  0
LINE
  5
1B4
100
AcDbEntity
  8
0
  6
Continuous
 62
     8
100
AcDbLine
 10
139.050779
 20
71.593995
 30
0.0
 11
139.050779
 21
76.502352
 31
0.0
  0
LINE
  5
1B5
100
AcDbEntity
  8
0
  6
Continuous
 62
     8
100
AcDbLine
 10
139.050779
 20
77.502108
 30
0.0
 11
139.050779
 21
78.502164
 31
0.0
  0
LINE
  5
1B6
100
AcDbEntity
  8
0
  6
Continuous
 62
     8
100
AcDbLine
 10
139.050779
 20
79.50222
 30
0.0
 11
139.050779
 21
84.410577
 31
0.0
  0
LINE
  5
1B7
100
AcDbEntity
  8
0
  6
Continuous
 62
     8
100
AcDbLine
 10
139.050779
 20
85.410333
 30
0.0
 11
139.050779
 21
86.410389
 31
0.0
  0
LINE
  5
1B8
100
AcDbEntity
  8
0
  6
Continuous
 62
     8
100
AcDbLine
 10
139.050779
 20
87.410145
 30
0.0
 11
139.050779
 21
92.318501
 31
0.0
  0
LINE
  5
1B9
100
AcDbEntity
  8
0
  6
Continuous
 62
     8
100
AcDbLine
 10
139.050779
 20
93.318558
 30
0.0
 11
139.050779
 21
94.318314
 31
0.0
  0
LINE
  5
1BA
100
AcDbEntity
  8
0
  6
Continuous
 62
     8
100
AcDbLine
 10
139.050779
 20
95.31837
 30
0.0
 11
139.050779
 21
100.226727
 31
0.0
  0
LINE
  5
1BB
100
AcDbEntity
  8
0
  6
Continuous
 62
     8
100
AcDbLine
 10
139.050779
 20
101.226783
 30
0.0
 11
139.050779
 21
102.226539
 31
0.0
  0
LINE
  5
1BC
100
AcDbEntity
  8
0
  6
Continuous
 62
     8
100
AcDbLine
 10
139.050779
 20
103.226595
 30
0.0
 11
139.050779
 21
108.134952
 31
0.0
  0
LINE
  5
1BD
100
AcDbEntity
  8
0
  6
Continuous
 62
     8
100
AcDbLine
 10
139.050779
 20
109.134707
 30
0.0
 11
139.050779
 21
110.134764
 31
0.0
  0
LINE
  5
1BE
100
AcDbEntity
  8
0
  6
Continuous
 62
     8
100
AcDbLine
 10
139.050779
 20
111.13452
 30
0.0
 11
139.050779
 21
116.042876
 31
0.0
  0
ENDBLK
  5
1BF
100
AcDbEntity
  8
0
100
AcDbBlockEnd
  0
BLOCK
  5
1C2
100
AcDbEntity
  8
0
100
AcDbBlockBegin
  2
*B42
 70
     0
 10
0.0
 20
0.0
 30
0.0
  3
*B42
  1

  0
LINE
  5
1C3
100
AcDbEntity
  8
0
  6
Continuous
 62
     8
100
AcDbLine
 10
86.773882
 20
257.548885
 30
0.0
 11
92.206149
 21
256.688519
 31
0.0
  0
LINE
  5
1C4
100
AcDbEntity
  8
0
  6
Continuous
 62
     8
100
AcDbLine
 10
93.193889
 20
256.532006
 30
0.0
 11
94.181628
 21
256.375794
 31
0.0
  0
LINE
  5
1C5
100
AcDbEntity
  8
0
  6
Continuous
 62
     8
100
AcDbLine
 10
95.169067
 20
256.219282
 30
0.0
 11
100.601635
 21
255.358915
 31
0.0
  0
LINE
  5
1C6
100
AcDbEntity
  8
0
  6
Continuous
 62
     8
100
AcDbLine
 10
103.564553
 20
254.889679
 30
0.0
 11
108.99682
 21
254.029312
 31
0.0
  0
LINE
  5
1C7
100
AcDbEntity
  8
0
  6
Continuous
 62
     8
100
AcDbLine
 10
109.98456
 20
253.8728
 30
0.0
 11
110.9723
 21
253.716588
 31
0.0
  0
LINE
  5
1C8
100
AcDbEntity
  8
0
  6
Continuous
 62
     8
100
AcDbLine
 10
111.960039
 20
253.560076
 30
0.0
 11
117.392306
 21
252.699709
 31
0.0
  0
ENDBLK
  5
1C9
100
AcDbEntity
  8
0
100
AcDbBlockEnd
  0
BLOCK
  5
1CC
100
AcDbEntity
  8
0
100
AcDbBlockBegin
  2
*B43
 70
     0
 10
0.0
 20
0.0
 30
0.0
  3
*B43
  1

  0
LINE
  5
1CD
100
AcDbEntity
  8
0
  6
Continuous
 62
     8
100
AcDbLine
 10
173.05089
 20
105.182848
 30
0.0
 11
200.025673
 21
105.182848
 31
0.0
  0
ENDBLK
  5
1CE
100
AcDbEntity
  8
0
100
AcDbBlockEnd
  0
BLOCK
  5
1D1
100
AcDbEntity
  8
0
100
AcDbBlockBegin
  2
*B44
 70
     0
 10
0.0
 20
0.0
 30
0.0
  3
*B44
  1

  0
LINE
  5
1D2
100
AcDbEntity
  8
0
  6
Continuous
 62
     8
100
AcDbLine
 10
64.025831
 20
60.186024
 30
0.0
 11
68.025756
 21
60.186024
 31
0.0
  0
LINE
  5
1D3
100
AcDbEntity
  8
0
  6
Continuous
 62
     8
100
AcDbLine
 10
68.025756
 20
60.186024
 30
0.0
 11
73.200874
 21
60.186024
 31
0.0
  0
LINE
  5
1D4
100
AcDbEntity
  8
0
  6
Continuous
 62
     8
100
AcDbLine
 10
74.20063
 20
60.186024
 30
0.0
 11
75.200686
 21
60.186024
 31
0.0
  0
LINE
  5
1D5
100
AcDbEntity
  8
0
  6
Continuous
 62
     8
100
AcDbLine
 10
76.200743
 20
60.186024
 30
0.0
 11
81.375861
 21
60.186024
 31
0.0
  0
LINE
  5
1D6
100
AcDbEntity
  8
0
  6
Continuous
 62
     8
100
AcDbLine
 10
82.375917
 20
60.186024
 30
0.0
 11
83.375974
 21
60.186024
 31
0.0
  0
LINE
  5
1D7
100
AcDbEntity
  8
0
  6
Continuous
 62
     8
100
AcDbLine
 10
84.37573
 20
60.186024
 30
0.0
 11
89.550848
 21
60.186024
 31
0.0
  0
LINE
  5
1D8
100
AcDbEntity
  8
0
  6
Continuous
 62
     8
100
AcDbLine
 10
92.551017
 20
60.186024
 30
0.0
 11
96.150799
 21
60.186024
 31
0.0
  0
ENDBLK
  5
1D9
100
AcDbEntity
  8
0
100
AcDbBlockEnd
  0
BLOCK
  5
1DC
100
AcDbEntity
  8
0
100
AcDbBlockBegin
  2
*B45
 70
     0
 10
0.0
 20
0.0
 30
0.0
  3
*B45
  1

  0
LINE
  5
1DD
100
AcDbEntity
  8
0
  6
Continuous
 62
     8
100
AcDbLine
 10
73.050971
 20
170.476398
 30
0.0
 11
78.967495
 21
170.476398
 31
0.0
  0
LINE
  5
1DE
100
AcDbEntity
  8
0
  6
Continuous
 62
     8
100
AcDbLine
 10
79.967551
 20
170.476398
 30
0.0
 11
80.967607
 21
170.476398
 31
0.0
  0
LINE
  5
1DF
100
AcDbEntity
  8
0
  6
Continuous
 62
     8
100
AcDbLine
 10
81.967664
 20
170.476398
 30
0.0
 11
87.884188
 21
170.476398
 31
0.0
  0
LINE
  5
1E0
100
AcDbEntity
  8
0
  6
Continuous
 62
     8
100
AcDbLine
 10
88.884244
 20
170.476398
 30
0.0
 11
89.8843
 21
170.476398
 31
0.0
  0
LINE
  5
1E1
100
AcDbEntity
  8
0
  6
Continuous
 62
     8
100
AcDbLine
 10
90.884356
 20
170.476398
 30
0.0
 11
96.80088
 21
170.476398
 31
0.0
  0
LINE
  5
1E2
100
AcDbEntity
  8
0
  6
Continuous
 62
     8
100
AcDbLine
 10
97.800937
 20
170.476398
 30
0.0
 11
98.800993
 21
170.476398
 31
0.0
  0
LINE
  5
1E3
100
AcDbEntity
  8
0
  6
Continuous
 62
     8
100
AcDbLine
 10
99.801049
 20
170.476398
 30
0.0
 11
105.717573
 21
170.476398
 31
0.0
  0
LINE
  5
1E4
100
AcDbEntity
  8
0
  6
Continuous
 62
     8
100
AcDbLine
 10
106.717629
 20
170.476398
 30
0.0
 11
107.717686
 21
170.476398
 31
0.0
  0
LINE
  5
1E5
100
AcDbEntity
  8
0
  6
Continuous
 62
     8
100
AcDbLine
 10
108.717442
 20
170.476398
 30
0.0
 11
114.634266
 21
170.476398
 31
0.0
  0
LINE
  5
1E6
100
AcDbEntity
  8
0
  6
Continuous
 62
     8
100
AcDbLine
 10
115.634322
 20
170.476398
 30
0.0
 11
116.634378
 21
170.476398
 31
0.0
  0
LINE
  5
1E7
100
AcDbEntity
  8
0
  6
Continuous
 62
     8
100
AcDbLine
 10
117.634134
 20
170.476398
 30
0.0
 11
123.550959
 21
170.476398
 31
0.0
  0
LINE
  5
1E8
100
AcDbEntity
  8
0
  6
Continuous
 62
     8
100
AcDbLine
 10
126.550827
 20
170.476398
 30
0.0
 11
132.884316
 21
170.476398
 31
0.0
  0
LINE
  5
1E9
100
AcDbEntity
  8
0
  6
Continuous
 62
     8
100
AcDbLine
 10
133.884373
 20
170.476398
 30
0.0
 11
134.884129
 21
170.476398
 31
0.0
  0
LINE
  5
1EA
100
AcDbEntity
  8
0
  6
Continuous
 62
     8
100
AcDbLine
 10
135.884185
 20
170.476398
 30
0.0
 11
142.217674
 21
170.476398
 31
0.0
  0
LINE
  5
1EB
100
AcDbEntity
  8
0
  6
Continuous
 62
     8
100
AcDbLine
 10
143.217731
 20
170.476398
 30
0.0
 11
144.217486
 21
170.476398
 31
0.0
  0
LINE
  5
1EC
100
AcDbEntity
  8
0
  6
Continuous
 62
     8
100
AcDbLine
 10
145.217543
 20
170.476398
 30
0.0
 11
151.551032
 21
170.476398
 31
0.0
  0
LINE
  5
1ED
100
AcDbEntity
  8
0
  6
Continuous
 62
     8
100
AcDbLine
 10
154.5509
 20
170.476398
 30
0.0
 11
159.384155
 21
170.476398
 31
0.0
  0
LINE
  5
1EE
100
AcDbEntity
  8
0
  6
Continuous
 62
     8
100
AcDbLine
 10
160.384212
 20
170.476398
 30
0.0
 11
161.384268
 21
170.476398
 31
0.0
  0
LINE
  5
1EF
100
AcDbEntity
  8
0
  6
Continuous
 62
     8
100
AcDbLine
 10
162.384324
 20
170.476398
 30
0.0
 11
167.217579
 21
170.476398
 31
0.0
  0
LINE
  5
1F0
100
AcDbEntity
  8
0
  6
Continuous
 62
     8
100
AcDbLine
 10
168.217635
 20
170.476398
 30
0.0
 11
169.217691
 21
170.476398
 31
0.0
  0
LINE
  5
1F1
100
AcDbEntity
  8
0
  6
Continuous
 62
     8
100
AcDbLine
 10
170.217447
 20
170.476398
 30
0.0
 11
175.051003
 21
170.476398
 31
0.0
  0
ENDBLK
  5
1F2
100
AcDbEntity
  8
0
100
AcDbBlockEnd
  0
BLOCK
  5
1F5
100
AcDbEntity
  8
0
100
AcDbBlockBegin
  2
*B46
 70
     0
 10
0.0
 20
0.0
 30
0.0
  3
*B46
  1

  0
LINE
  5
1F6
100
AcDbEntity
  8
0
  6
Continuous
 62
     8
100
AcDbLine
 10
128.350868
 20
99.183111
 30
0.0
 11
128.350868
 21
120.042801
 31
0.0
  0
ENDBLK
  5
1F7
100
AcDbEntity
  8
0
100
AcDbBlockEnd
  0
BLOCK
  5
1FA
100
AcDbEntity
  8
0
100
AcDbBlockBegin
  2
*B47
 70
     0
 10
0.0
 20
0.0
 30
0.0
  3
*B47
  1

  0
LINE
  5
1FB
100
AcDbEntity
  8
0
  6
Continuous
 62
     8
100
AcDbLine
 10
76.050839
 20
140.041223
 30
0.0
 11
76.050839
 21
154.477601
 31
0.0
  0
ENDBLK
  5
1FC
100
AcDbEntity
  8
0
100
AcDbBlockEnd
  0
BLOCK
  5
1FF
100
AcDbEntity
  8
0
100
AcDbBlockBegin
  2
*B48
 70
     0
 10
0.0
 20
0.0
 30
0.0
  3
*B48
  1

  0
LINE
  5
200
100
AcDbEntity
  8
0
  6
Continuous
 62
     8
100
AcDbLine
 10
125.050893
 20
40.048513
 30
0.0
 11
125.050893
 21
44.048138
 31
0.0
  0
LINE
  5
201
100
AcDbEntity
  8
0
  6
Continuous
 62
     8
100
AcDbLine
 10
125.050893
 20
44.048138
 30
0.0
 11
125.050893
 21
48.996148
 31
0.0
  0
LINE
  5
202
100
AcDbEntity
  8
0
  6
Continuous
 62
     8
100
AcDbLine
 10
125.050893
 20
49.996204
 30
0.0
 11
125.050893
 21
50.996261
 31
0.0
  0
LINE
  5
203
100
AcDbEntity
  8
0
  6
Continuous
 62
     8
100
AcDbLine
 10
125.050893
 20
51.996017
 30
0.0
 11
125.050893
 21
56.944027
 31
0.0
  0
LINE
  5
204
100
AcDbEntity
  8
0
  6
Continuous
 62
     8
100
AcDbLine
 10
125.050893
 20
57.944083
 30
0.0
 11
125.050893
 21
58.943839
 31
0.0
  0
LINE
  5
205
100
AcDbEntity
  8
0
  6
Continuous
 62
     8
100
AcDbLine
 10
125.050893
 20
59.943895
 30
0.0
 11
125.050893
 21
64.891906
 31
0.0
  0
LINE
  5
206
100
AcDbEntity
  8
0
  6
Continuous
 62
     8
100
AcDbLine
 10
125.050893
 20
65.891962
 30
0.0
 11
125.050893
 21
66.891718
 31
0.0
  0
LINE
  5
207
100
AcDbEntity
  8
0
  6
Continuous
 62
     8
100
AcDbLine
 10
125.050893
 20
67.891774
 30
0.0
 11
125.050893
 21
72.839785
 31
0.0
  0
LINE
  5
208
100
AcDbEntity
  8
0
  6
Continuous
 62
     8
100
AcDbLine
 10
125.050893
 20
73.839841
 30
0.0
 11
125.050893
 21
74.839597
 31
0.0
  0
LINE
  5
209
100
AcDbEntity
  8
0
  6
Continuous
 62
     8
100
AcDbLine
 10
125.050893
 20
75.839653
 30
0.0
 11
125.050893
 21
80.787663
 31
0.0
  0
LINE
  5
20A
100
AcDbEntity
  8
0
  6
Continuous
 62
     8
100
AcDbLine
 10
125.050893
 20
81.78772
 30
0.0
 11
125.050893
 21
82.787476
 31
0.0
  0
LINE
  5
20B
100
AcDbEntity
  8
0
  6
Continuous
 62
     8
100
AcDbLine
 10
125.050893
 20
83.787532
 30
0.0
 11
125.050893
 21
88.735542
 31
0.0
  0
LINE
  5
20C
100
AcDbEntity
  8
0
  6
Continuous
 62
     8
100
AcDbLine
 10
125.050893
 20
89.735599
 30
0.0
 11
125.050893
 21
90.735354
 31
0.0
  0
LINE
  5
20D
100
AcDbEntity
  8
0
  6
Continuous
 62
     8
100
AcDbLine
 10
125.050893
 20
91.735411
 30
0.0
 11
125.050893
 21
96.683421
 31
0.0
  0
LINE
  5
20E
100
AcDbEntity
  8
0
  6
Continuous
 62
     8
100
AcDbLine
 10
125.050893
 20
99.68329
 30
0.0
 11
125.050893
 21
104.482899
 31
0.0
  0
ENDBLK
  5
20F
100
AcDbEntity
  8
0
100
AcDbBlockEnd
  0
BLOCK
  5
212
100
AcDbEntity
  8
0
100
AcDbBlockBegin
  2
*B49
 70
     0
 10
0.0
 20
0.0
 30
0.0
  3
*B49
  1

  0
LINE
  5
213
100
AcDbEntity
  8
0
  6
Continuous
 62
     8
100
AcDbLine
 10
173.05089
 20
55.186343
 30
0.0
 11
200.025673
 21
55.186343
 31
0.0
  0
ENDBLK
  5
214
100
AcDbEntity
  8
0
100
AcDbBlockEnd
  0
BLOCK
  5
217
100
AcDbEntity
  8
0
100
AcDbBlockBegin
  2
*B50
 70
     0
 10
0.0
 20
0.0
 30
0.0
  3
*B50
  1

  0
LINE
  5
218
100
AcDbEntity
  8
0
  6
Continuous
 62
     8
100
AcDbLine
 10
73.050971
 20
80.184746
 30
0.0
 11
79.800825
 21
80.184746
 31
0.0
  0
LINE
  5
219
100
AcDbEntity
  8
0
  6
Continuous
 62
     8
100
AcDbLine
 10
80.800881
 20
80.184746
 30
0.0
 11
81.800938
 21
80.184746
 31
0.0
  0
LINE
  5
21A
100
AcDbEntity
  8
0
  6
Continuous
 62
     8
100
AcDbLine
 10
82.800994
 20
80.184746
 30
0.0
 11
89.550848
 21
80.184746
 31
0.0
  0
LINE
  5
21B
100
AcDbEntity
  8
0
  6
Continuous
 62
     8
100
AcDbLine
 10
92.551017
 20
80.184746
 30
0.0
 11
100.58301
 21
80.184746
 31
0.0
  0
LINE
  5
21C
100
AcDbEntity
  8
0
  6
Continuous
 62
     8
100
AcDbLine
 10
103.582878
 20
80.184746
 30
0.0
 11
108.857131
 21
80.184746
 31
0.0
  0
LINE
  5
21D
100
AcDbEntity
  8
0
  6
Continuous
 62
     8
100
AcDbLine
 10
109.857187
 20
80.184746
 30
0.0
 11
110.857244
 21
80.184746
 31
0.0
  0
LINE
  5
21E
100
AcDbEntity
  8
0
  6
Continuous
 62
     8
100
AcDbLine
 10
111.8573
 20
80.184746
 30
0.0
 11
117.131553
 21
80.184746
 31
0.0
  0
LINE
  5
21F
100
AcDbEntity
  8
0
  6
Continuous
 62
     8
100
AcDbLine
 10
118.131309
 20
80.184746
 30
0.0
 11
119.131365
 21
80.184746
 31
0.0
  0
LINE
  5
220
100
AcDbEntity
  8
0
  6
Continuous
 62
     8
100
AcDbLine
 10
120.131421
 20
80.184746
 30
0.0
 11
125.405674
 21
80.184746
 31
0.0
  0
LINE
  5
221
100
AcDbEntity
  8
0
  6
Continuous
 62
     8
100
AcDbLine
 10
126.40573
 20
80.184746
 30
0.0
 11
127.405787
 21
80.184746
 31
0.0
  0
LINE
  5
222
100
AcDbEntity
  8
0
  6
Continuous
 62
     8
100
AcDbLine
 10
128.405542
 20
80.184746
 30
0.0
 11
133.679795
 21
80.184746
 31
0.0
  0
LINE
  5
223
100
AcDbEntity
  8
0
  6
Continuous
 62
     8
100
AcDbLine
 10
134.679852
 20
80.184746
 30
0.0
 11
135.679908
 21
80.184746
 31
0.0
  0
LINE
  5
224
100
AcDbEntity
  8
0
  6
Continuous
 62
     8
100
AcDbLine
 10
136.679964
 20
80.184746
 30
0.0
 11
141.954217
 21
80.184746
 31
0.0
  0
LINE
  5
225
100
AcDbEntity
  8
0
  6
Continuous
 62
     8
100
AcDbLine
 10
142.953973
 20
80.184746
 30
0.0
 11
143.954029
 21
80.184746
 31
0.0
  0
LINE
  5
226
100
AcDbEntity
  8
0
  6
Continuous
 62
     8
100
AcDbLine
 10
144.954085
 20
80.184746
 30
0.0
 11
150.228338
 21
80.184746
 31
0.0
  0
LINE
  5
227
100
AcDbEntity
  8
0
  6
Continuous
 62
     8
100
AcDbLine
 10
151.228395
 20
80.184746
 30
0.0
 11
152.22815
 21
80.184746
 31
0.0
  0
LINE
  5
228
100
AcDbEntity
  8
0
  6
Continuous
 62
     8
100
AcDbLine
 10
153.228207
 20
80.184746
 30
0.0
 11
158.50246
 21
80.184746
 31
0.0
  0
LINE
  5
229
100
AcDbEntity
  8
0
  6
Continuous
 62
     8
100
AcDbLine
 10
159.502516
 20
80.184746
 30
0.0
 11
160.502572
 21
80.184746
 31
0.0
  0
LINE
  5
22A
100
AcDbEntity
  8
0
  6
Continuous
 62
     8
100
AcDbLine
 10
161.502628
 20
80.184746
 30
0.0
 11
166.776581
 21
80.184746
 31
0.0
  0
LINE
  5
22B
100
AcDbEntity
  8
0
  6
Continuous
 62
     8
100
AcDbLine
 10
167.776637
 20
80.184746
 30
0.0
 11
168.776693
 21
80.184746
 31
0.0
  0
LINE
  5
22C
100
AcDbEntity
  8
0
  6
Continuous
 62
     8
100
AcDbLine
 10
169.77675
 20
80.184746
 30
0.0
 11
175.051003
 21
80.184746
 31
0.0
  0
ENDBLK
  5
22D
100
AcDbEntity
  8
0
100
AcDbBlockEnd
  0
BLOCK
  5
230
100
AcDbEntity
  8
0
100
AcDbBlockBegin
  2
*B51
 70
     0
 10
0.0
 20
0.0
 30
0.0
  3
*B51
  1

  0
LINE
  5
231
100
AcDbEntity
  8
0
  6
Continuous
 62
     8
100
AcDbLine
 10
125.050893
 20
159.97716
 30
0.0
 11
125.050893
 21
168.976765
 31
0.0
  0
LINE
  5
232
100
AcDbEntity
  8
0
  6
Continuous
 62
     8
100
AcDbLine
 10
125.050893
 20
171.976333
 30
0.0
 11
125.050893
 21
180.975637
 31
0.0
  0
ENDBLK
  5
233
100
AcDbEntity
  8
0
100
AcDbBlockEnd
  0
BLOCK
  5
236
100
AcDbEntity
  8
0
100
AcDbBlockBegin
  2
*B52
 70
     0
 10
0.0
 20
0.0
 30
0.0
  3
*B52
  1

  0
LINE
  5
237
100
AcDbEntity
  8
0
  6
Continuous
 62
     8
100
AcDbLine
 10
93.019953
 20
197.905698
 30
0.0
 11
93.878818
 21
203.328652
 31
0.0
  0
LINE
  5
238
100
AcDbEntity
  8
0
  6
Continuous
 62
     8
100
AcDbLine
 10
94.03533
 20
204.316092
 30
0.0
 11
94.191542
 21
205.303831
 31
0.0
  0
LINE
  5
239
100
AcDbEntity
  8
0
  6
Continuous
 62
     8
100
AcDbLine
 10
94.348054
 20
206.291571
 30
0.0
 11
95.206919
 21
211.714225
 31
0.0
  0
LINE
  5
23A
100
AcDbEntity
  8
0
  6
Continuous
 62
     8
100
AcDbLine
 10
95.363431
 20
212.701964
 30
0.0
 11
95.519943
 21
213.689404
 31
0.0
  0
LINE
  5
23B
100
AcDbEntity
  8
0
  6
Continuous
 62
     8
100
AcDbLine
 10
95.676455
 20
214.677143
 30
0.0
 11
96.53532
 21
220.100098
 31
0.0
  0
LINE
  5
23C
100
AcDbEntity
  8
0
  6
Continuous
 62
     8
100
AcDbLine
 10
96.691833
 20
221.087537
 30
0.0
 11
96.848345
 21
222.075276
 31
0.0
  0
LINE
  5
23D
100
AcDbEntity
  8
0
  6
Continuous
 62
     8
100
AcDbLine
 10
97.004557
 20
223.063016
 30
0.0
 11
97.863722
 21
228.48567
 31
0.0
  0
LINE
  5
23E
100
AcDbEntity
  8
0
  6
Continuous
 62
     8
100
AcDbLine
 10
98.019934
 20
229.47341
 30
0.0
 11
98.176446
 21
230.460849
 31
0.0
  0
LINE
  5
23F
100
AcDbEntity
  8
0
  6
Continuous
 62
     8
100
AcDbLine
 10
98.332958
 20
231.448588
 30
0.0
 11
99.191823
 21
236.871543
 31
0.0
  0
LINE
  5
240
100
AcDbEntity
  8
0
  6
Continuous
 62
     8
100
AcDbLine
 10
99.348335
 20
237.858982
 30
0.0
 11
99.504848
 21
238.846722
 31
0.0
  0
LINE
  5
241
100
AcDbEntity
  8
0
  6
Continuous
 62
     8
100
AcDbLine
 10
99.661059
 20
239.834161
 30
0.0
 11
100.520225
 21
245.257115
 31
0.0
  0
LINE
  5
242
100
AcDbEntity
  8
0
  6
Continuous
 62
     8
100
AcDbLine
 10
100.676436
 20
246.244855
 30
0.0
 11
100.832949
 21
247.232294
 31
0.0
  0
LINE
  5
243
100
AcDbEntity
  8
0
  6
Continuous
 62
     8
100
AcDbLine
 10
100.989461
 20
248.220034
 30
0.0
 11
101.848326
 21
253.642988
 31
0.0
  0
LINE
  5
244
100
AcDbEntity
  8
0
  6
Continuous
 62
     8
100
AcDbLine
 10
102.317562
 20
256.605606
 30
0.0
 11
103.177929
 21
262.037573
 31
0.0
  0
LINE
  5
245
100
AcDbEntity
  8
0
  6
Continuous
 62
     8
100
AcDbLine
 10
103.334441
 20
263.025312
 30
0.0
 11
103.490953
 21
264.012752
 31
0.0
  0
LINE
  5
246
100
AcDbEntity
  8
0
  6
Continuous
 62
     8
100
AcDbLine
 10
103.647466
 20
265.000491
 30
0.0
 11
104.507833
 21
270.432458
 31
0.0
  0
ENDBLK
  5
247
100
AcDbEntity
  8
0
100
AcDbBlockEnd
  0
BLOCK
  5
24A
100
AcDbEntity
  8
0
100
AcDbBlockBegin
  2
*B53
 70
     0
 10
0.0
 20
0.0
 30
0.0
  3
*B53
  1

  0
LINE
  5
24B
100
AcDbEntity
  8
0
  6
Continuous
 62
     6
100
AcDbLine
 10
152.550788
 20
98.183355
 30
0.0
 11
153.550844
 21
98.183355
 31
0.0
  0
LINE
  5
24C
100
AcDbEntity
  8
0
  6
Continuous
 62
     6
100
AcDbLine
 10
153.050966
 20
97.683477
 30
0.0
 11
153.050966
 21
98.683233
 31
0.0
  0
ENDBLK
  5
24D
100
AcDbEntity
  8
0
100
AcDbBlockEnd
  0
BLOCK
  5
250
100
AcDbEntity
  8
0
100
AcDbBlockBegin
  2
*B54
 70
     0
 10
0.0
 20
0.0
 30
0.0
  3
*B54
  1

  0
LINE
  5
251
100
AcDbEntity
  8
0
  6
Continuous
 62
     6
100
AcDbLine
 10
138.550901
 20
62.185836
 30
0.0
 11
139.550958
 21
62.185836
 31
0.0
  0
LINE
  5
252
100
AcDbEntity
  8
0
  6
Continuous
 62
     6
100
AcDbLine
 10
139.050779
 20
61.685958
 30
0.0
 11
139.050779
 21
62.686014
 31
0.0
  0
ENDBLK
  5
253
100
AcDbEntity
  8
0
100
AcDbBlockEnd
  0
BLOCK
  5
256
100
AcDbEntity
  8
0
100
AcDbBlockBegin
  2
*B55
 70
     0
 10
0.0
 20
0.0
 30
0.0
  3
*B55
  1

  0
LINE
  5
257
100
AcDbEntity
  8
0
  6
Continuous
 62
     6
100
AcDbLine
 10
91.051083
 20
79.684567
 30
0.0
 11
91.051083
 21
80.684624
 31
0.0
  0
LINE
  5
258
100
AcDbEntity
  8
0
  6
Continuous
 62
     6
100
AcDbLine
 10
90.550904
 20
80.184746
 30
0.0
 11
91.550961
 21
80.184746
 31
0.0
  0
ENDBLK
  5
259
100
AcDbEntity
  8
0
100
AcDbBlockEnd
  0
BLOCK
  5
25C
100
AcDbEntity
  8
0
100
AcDbBlockBegin
  2
*B56
 70
     0
 10
0.0
 20
0.0
 30
0.0
  3
*B56
  1

  0
LINE
  5
25D
100
AcDbEntity
  8
0
  6
Continuous
 62
     6
100
AcDbLine
 10
125.050893
 20
169.976521
 30
0.0
 11
125.050893
 21
170.976577
 31
0.0
  0
LINE
  5
25E
100
AcDbEntity
  8
0
  6
Continuous
 62
     6
100
AcDbLine
 10
124.551015
 20
170.476398
 30
0.0
 11
125.551071
 21
170.476398
 31
0.0
  0
ENDBLK
  5
25F
100
AcDbEntity
  8
0
100
AcDbBlockEnd
  0
BLOCK
  5
262
100
AcDbEntity
  8
0
100
AcDbBlockBegin
  2
*B57
 70
     0
 10
0.0
 20
0.0
 30
0.0
  3
*B57
  1

  0
LINE
  5
263
100
AcDbEntity
  8
0
  6
Continuous
 62
     6
100
AcDbLine
 10
101.583066
 20
80.184746
 30
0.0
 11
102.583122
 21
80.184746
 31
0.0
  0
LINE
  5
264
100
AcDbEntity
  8
0
  6
Continuous
 62
     6
100
AcDbLine
 10
102.082944
 20
79.684567
 30
0.0
 11
102.082944
 21
80.684624
 31
0.0
  0
ENDBLK
  5
265
100
AcDbEntity
  8
0
100
AcDbBlockEnd
  0
BLOCK
  5
268
100
AcDbEntity
  8
0
100
AcDbBlockBegin
  2
*B58
 70
     0
 10
0.0
 20
0.0
 30
0.0
  3
*B58
  1

  0
LINE
  5
269
100
AcDbEntity
  8
0
  6
Continuous
 62
     6
100
AcDbLine
 10
90.550904
 20
100.183167
 30
0.0
 11
91.550961
 21
100.183167
 31
0.0
  0
LINE
  5
26A
100
AcDbEntity
  8
0
  6
Continuous
 62
     6
100
AcDbLine
 10
91.051083
 20
99.68329
 30
0.0
 11
91.051083
 21
100.683045
 31
0.0
  0
ENDBLK
  5
26B
100
AcDbEntity
  8
0
100
AcDbBlockEnd
  0
BLOCK
  5
26E
100
AcDbEntity
  8
0
100
AcDbBlockBegin
  2
*B59
 70
     0
 10
0.0
 20
0.0
 30
0.0
  3
*B59
  1

  0
LINE
  5
26F
100
AcDbEntity
  8
0
  6
Continuous
 62
     6
100
AcDbLine
 10
91.051083
 20
59.686146
 30
0.0
 11
91.051083
 21
60.685902
 31
0.0
  0
LINE
  5
270
100
AcDbEntity
  8
0
  6
Continuous
 62
     6
100
AcDbLine
 10
90.550904
 20
60.186024
 30
0.0
 11
91.550961
 21
60.186024
 31
0.0
  0
ENDBLK
  5
271
100
AcDbEntity
  8
0
100
AcDbBlockEnd
  0
BLOCK
  5
274
100
AcDbEntity
  8
0
100
AcDbBlockBegin
  2
*B60
 70
     0
 10
0.0
 20
0.0
 30
0.0
  3
*B60
  1

  0
LINE
  5
275
100
AcDbEntity
  8
0
  6
Continuous
 62
     6
100
AcDbLine
 10
153.050966
 20
169.976521
 30
0.0
 11
153.050966
 21
170.976577
 31
0.0
  0
LINE
  5
276
100
AcDbEntity
  8
0
  6
Continuous
 62
     6
100
AcDbLine
 10
152.550788
 20
170.476398
 30
0.0
 11
153.550844
 21
170.476398
 31
0.0
  0
ENDBLK
  5
277
100
AcDbEntity
  8
0
100
AcDbBlockEnd
  0
BLOCK
  5
27A
100
AcDbEntity
  8
0
100
AcDbBlockBegin
  2
*B61
 70
     0
 10
0.0
 20
0.0
 30
0.0
  3
*B61
  1

  0
LINE
  5
27B
100
AcDbEntity
  8
0
  6
Continuous
 62
     6
100
AcDbLine
 10
124.551015
 20
98.183355
 30
0.0
 11
125.551071
 21
98.183355
 31
0.0
  0
LINE
  5
27C
100
AcDbEntity
  8
0
  6
Continuous
 62
     6
100
AcDbLine
 10
125.050893
 20
97.683477
 30
0.0
 11
125.050893
 21
98.683233
 31
0.0
  0
ENDBLK
  5
27D
100
AcDbEntity
  8
0
100
AcDbBlockEnd
  0
BLOCK
  5
280
100
AcDbEntity
  8
0
100
AcDbBlockBegin
  2
*B62
 70
     0
 10
0.0
 20
0.0
 30
0.0
  3
*B62
  1

  0
LINE
  5
281
100
AcDbEntity
  8
0
  6
Continuous
 62
     6
100
AcDbLine
 10
101.589074
 20
255.202403
 30
0.0
 11
102.576814
 21
255.046191
 31
0.0
  0
LINE
  5
282
100
AcDbEntity
  8
0
  6
Continuous
 62
     6
100
AcDbLine
 10
102.004838
 20
254.630427
 30
0.0
 11
102.16135
 21
255.618167
 31
0.0
  0
ENDBLK
  5
283
100
AcDbEntity
  8
0
100
AcDbBlockEnd
  0
BLOCK
  5
286
100
AcDbEntity
  8
0
100
AcDbBlockBegin
  2
*B63
 70
     0
 10
0.0
 20
0.0
 30
0.0
  3
*B63
  1

  0
TEXT
  5
287
100
AcDbEntity
  8
TEXT
  6
Continuous
 62
     0
100
AcDbText
 10
151.23575
 20
59.9
 30
0.0
 40
5.0
  1
1
100
AcDbText
  0
ENDBLK
  5
288
100
AcDbEntity
  8
0
100
AcDbBlockEnd
  0
BLOCK
  5
28B
100
AcDbEntity
  8
0
100
AcDbBlockBegin
  2
*B64
 70
     0
 10
0.0
 20
0.0
 30
0.0
  3
*B64
  1

  0
TEXT
  5
28C
100
AcDbEntity
  8
TEXT
  6
Continuous
 62
     0
100
AcDbText
 10
137.23575
 20
95.9
 30
0.0
 40
5.0
  1
2
100
AcDbText
  0
ENDBLK
  5
28D
100
AcDbEntity
  8
0
100
AcDbBlockEnd
  0
BLOCK
  5
290
100
AcDbEntity
  8
0
100
AcDbBlockBegin
  2
*B65
 70
     0
 10
0.0
 20
0.0
 30
0.0
  3
*B65
  1

  0
TEXT
  5
291
100
AcDbEntity
  8
TEXT
  6
Continuous
 62
     0
100
AcDbText
 10
122.73575
 20
59.9
 30
0.0
 40
5.0
  1
3
100
AcDbText
  0
ENDBLK
  5
292
100
AcDbEntity
  8
0
100
AcDbBlockEnd
  0
BLOCK
  5
295
100
AcDbEntity
  8
0
100
AcDbBlockBegin
  2
*B66
 70
     0
 10
0.0
 20
0.0
 30
0.0
  3
*B66
  1

  0
TEXT
  5
296
100
AcDbEntity
  8
TEXT
  6
Continuous
 62
     0
100
AcDbText
 10
161.971499
 20
78.0
 30
0.0
 40
5.0
  1
10
100
AcDbText
  0
ENDBLK
  5
297
100
AcDbEntity
  8
0
100
AcDbBlockEnd
  0
BLOCK
  5
29A
100
AcDbEntity
  8
0
100
AcDbBlockBegin
  2
*B67
 70
     0
 10
0.0
 20
0.0
 30
0.0
  3
*B67
  1

  0
TEXT
  5
29B
100
AcDbEntity
  8
TEXT
  6
Continuous
 62
     0
100
AcDbText
 10
67.071499
 20
235.9
 30
0.0
 40
5.0
  1
12
100
AcDbText
  0
ENDBLK
  5
29C
100
AcDbEntity
  8
0
100
AcDbBlockEnd
  0
BLOCK
  5
29F
100
AcDbEntity
  8
0
100
AcDbBlockBegin
  2
*B68
 70
     0
 10
0.0
 20
0.0
 30
0.0
  3
*B68
  1

  0
TEXT
  5
2A0
100
AcDbEntity
  8
TEXT
  6
Continuous
 62
     0
100
AcDbText
 10
107.071499
 20
236.9
 30
0.0
 40
5.0
  1
10
100
AcDbText
  0
ENDBLK
  5
2A1
100
AcDbEntity
  8
0
100
AcDbBlockEnd
  0
BLOCK
  5
2A4
100
AcDbEntity
  8
0
100
AcDbBlockBegin
  2
*B69
 70
     0
 10
0.0
 20
0.0
 30
0.0
  3
*B69
  1

  0
TEXT
  5
2A5
100
AcDbEntity
  8
TEXT
  6
Continuous
 62
     0
100
AcDbText
 10
52.300647
 20
207.228695
 30
0.0
 40
3.0
  1
112
 50
90.0
100
AcDbText
  0
ENDBLK
  5
2A6
100
AcDbEntity
  8
0
100
AcDbBlockEnd
  0
BLOCK
  5
2A9
100
AcDbEntity
  8
0
100
AcDbBlockBegin
  2
*B70
 70
     0
 10
0.0
 20
0.0
 30
0.0
  3
*B70
  1

  0
TEXT
  5
2AA
100
AcDbEntity
  8
TEXT
  6
Continuous
 62
     0
100
AcDbText
 10
64.300647
 20
191.142818
 30
0.0
 40
3.0
  1
16
 50
90.0
100
AcDbText
  0
ENDBLK
  5
2AB
100
AcDbEntity
  8
0
100
AcDbBlockEnd
  0
BLOCK
  5
2AE
100
AcDbEntity
  8
0
100
AcDbBlockBegin
  2
*B71
 70
     0
 10
0.0
 20
0.0
 30
0.0
  3
*B71
  1

  0
TEXT
  5
2AF
100
AcDbEntity
  8
TEXT
  6
Continuous
 62
     0
100
AcDbText
 10
184.5
 20
77.84439
 30
0.0
 40
3.0
  1
36
 50
90.0
100
AcDbText
  0
ENDBLK
  5
2B0
100
AcDbEntity
  8
0
100
AcDbBlockEnd
  0
BLOCK
  5
2B3
100
AcDbEntity
  8
0
100
AcDbBlockBegin
  2
*B72
 70
     0
 10
0.0
 20
0.0
 30
0.0
  3
*B72
  1

  0
TEXT
  5
2B4
100
AcDbEntity
  8
TEXT
  6
Continuous
 62
     0
100
AcDbText
 10
196.5
 20
77.84439
 30
0.0
 40
3.0
  1
50
 50
90.0
100
AcDbText
  0
ENDBLK
  5
2B5
100
AcDbEntity
  8
0
100
AcDbBlockEnd
  0
BLOCK
  5
2B8
100
AcDbEntity
  8
0
100
AcDbBlockBegin
  2
*B73
 70
     0
 10
0.0
 20
0.0
 30
0.0
  3
*B73
  1

  0
TEXT
  5
2B9
100
AcDbEntity
  8
TEXT
  6
Continuous
 62
     0
100
AcDbText
 10
196.5
 20
168.142818
 30
0.0
 40
3.0
  1
30
 50
90.0
100
AcDbText
  0
ENDBLK
  5
2BA
100
AcDbEntity
  8
0
100
AcDbBlockEnd
  0
BLOCK
  5
2BD
100
AcDbEntity
  8
0
100
AcDbBlockBegin
  2
*B74
 70
     0
 10
0.0
 20
0.0
 30
0.0
  3
*B74
  1

  0
TEXT
  5
2BE
100
AcDbEntity
  8
TEXT
  6
Continuous
 62
     0
100
AcDbText
 10
88.730605
 20
143.5
 30
0.0
 40
3.0
  1
30
100
AcDbText
  0
ENDBLK
  5
2BF
100
AcDbEntity
  8
0
100
AcDbBlockEnd
  0
BLOCK
  5
2C2
100
AcDbEntity
  8
0
100
AcDbBlockBegin
  2
*B75
 70
     0
 10
0.0
 20
0.0
 30
0.0
  3
*B75
  1

  0
TEXT
  5
2C3
100
AcDbEntity
  8
TEXT
  6
Continuous
 62
     0
100
AcDbText
 10
136.730605
 20
143.5
 30
0.0
 40
3.0
  1
66
100
AcDbText
  0
ENDBLK
  5
2C4
100
AcDbEntity
  8
0
100
AcDbBlockEnd
  0
BLOCK
  5
2C7
100
AcDbEntity
  8
0
100
AcDbBlockBegin
  2
*B76
 70
     0
 10
0.0
 20
0.0
 30
0.0
  3
*B76
  1

  0
TEXT
  5
2C8
100
AcDbEntity
  8
TEXT
  6
Continuous
 62
     0
100
AcDbText
 10
179.133929
 20
143.5
 30
0.0
 40
3.0
  1
1
100
AcDbText
  0
ENDBLK
  5
2C9
100
AcDbEntity
  8
0
100
AcDbBlockEnd
  0
BLOCK
  5
2CC
100
AcDbEntity
  8
0
100
AcDbBlockBegin
  2
*B77
 70
     0
 10
0.0
 20
0.0
 30
0.0
  3
*B77
  1

  0
TEXT
  5
2CD
100
AcDbEntity
  8
TEXT
  6
Continuous
 62
     0
100
AcDbText
 10
153.230605
 20
119.5
 30
0.0
 40
3.0
  1
33
100
AcDbText
  0
ENDBLK
  5
2CE
100
AcDbEntity
  8
0
100
AcDbBlockEnd
  0
BLOCK
  5
2D1
100
AcDbEntity
  8
0
100
AcDbBlockBegin
  2
*B78
 70
     0
 10
0.0
 20
0.0
 30
0.0
  3
*B78
  1

  0
TEXT
  5
2D2
100
AcDbEntity
  8
TEXT
  6
Continuous
 62
     0
100
AcDbText
 10
160.230605
 20
43.5
 30
0.0
 40
3.0
  1
19
100
AcDbText
  0
ENDBLK
  5
2D3
100
AcDbEntity
  8
0
100
AcDbBlockEnd
  0
BLOCK
  5
2D6
100
AcDbEntity
  8
0
100
AcDbBlockBegin
  2
*B79
 70
     0
 10
0.0
 20
0.0
 30
0.0
  3
*B79
  1

  0
TEXT
  5
2D7
100
AcDbEntity
  8
TEXT
  6
Continuous
 62
     0
100
AcDbText
 10
136.730605
 20
43.5
 30
0.0
 40
3.0
  1
28
100
AcDbText
  0
ENDBLK
  5
2D8
100
AcDbEntity
  8
0
100
AcDbBlockEnd
  0
BLOCK
  5
2DB
100
AcDbEntity
  8
0
100
AcDbBlockBegin
  2
*B80
 70
     0
 10
0.0
 20
0.0
 30
0.0
  3
*B80
  1

  0
TEXT
  5
2DC
100
AcDbEntity
  8
TEXT
  6
Continuous
 62
     0
100
AcDbText
 10
104.891071
 20
119.5
 30
0.0
 40
3.0
  1
%%c6,6
100
AcDbText
  0
ENDBLK
  5
2DD
100
AcDbEntity
  8
0
100
AcDbBlockEnd
  0
BLOCK
  5
2E0
100
AcDbEntity
  8
0
100
AcDbBlockBegin
  2
*B81
 70
     0
 10
0.0
 20
0.0
 30
0.0
  3
*B81
  1

  0
TEXT
  5
2E1
100
AcDbEntity
  8
TEXT
  6
Continuous
 62
     0
100
AcDbText
 10
165.785714
 20
203.5
 30
0.0
 40
3.0
  1
G 3/8"
100
AcDbText
  0
ENDBLK
  5
2E2
100
AcDbEntity
  8
0
100
AcDbBlockEnd
  0
BLOCK
  5
2E5
100
AcDbEntity
  8
0
100
AcDbBlockBegin
  2
*B82
 70
     0
 10
0.0
 20
0.0
 30
0.0
  3
*B82
  1

  0
TEXT
  5
2E6
100
AcDbEntity
  8
TEXT
  6
Continuous
 62
     0
100
AcDbText
 10
76.857143
 20
43.5
 30
0.0
 40
3.0
  1
M5
100
AcDbText
  0
ENDBLK
  5
2E7
100
AcDbEntity
  8
0
100
AcDbBlockEnd
  0
BLOCK
  5
2EA
100
AcDbEntity
  8
0
100
AcDbBlockBegin
  2
*B83
 70
     0
 10
0.0
 20
0.0
 30
0.0
  3
*B83
  1

  0
TEXT
  5
2EB
100
AcDbEntity
  8
TEXT
  6
Continuous
 62
     0
100
AcDbText
 10
64.5
 20
77.84439
 30
0.0
 40
3.0
  1
40
 50
90.0
100
AcDbText
  0
ENDBLK
  5
2EC
100
AcDbEntity
  8
0
100
AcDbBlockEnd
  0
ENDSEC
  0
SECTION
  2
ENTITIES
  0
INSERT
  5
2F
100
AcDbEntity
  8
0
  6
CENTER
 62
   172
100
AcDbBlockReference
  2
*B0
 10
0.0
 20
0.0
 30
0.0
  0
INSERT
  5
37
100
AcDbEntity
  8
0
  6
HIDDEN
 62
   192
100
AcDbBlockReference
  2
*B1
 10
0.0
 20
0.0
 30
0.0
  0
INSERT
  5
7D
100
AcDbEntity
  8
0
  6
HIDDEN
 62
   174
100
AcDbBlockReference
  2
*B2
 10
0.0
 20
0.0
 30
0.0
  0
INSERT
  5
9B
100
AcDbEntity
  8
0
  6
Continuous
 62
   174
100
AcDbBlockReference
  2
*B3
 10
0.0
 20
0.0
 30
0.0
  0
INSERT
  5
A2
100
AcDbEntity
  8
0
  6
Continuous
 62
     0
100
AcDbBlockReference
  2
*B4
 10
0.0
 20
0.0
 30
0.0
  0
INSERT
  5
A9
100
AcDbEntity
  8
0
  6
Continuous
 62
     0
100
AcDbBlockReference
  2
*B5
 10
0.0
 20
0.0
 30
0.0
  0
INSERT
  5
B0
100
AcDbEntity
  8
0
  6
Continuous
 62
     0
100
AcDbBlockReference
  2
*B6
 10
0.0
 20
0.0
 30
0.0
  0
INSERT
  5
B7
100
AcDbEntity
  8
0
  6
Continuous
 62
     0
100
AcDbBlockReference
  2
*B7
 10
0.0
 20
0.0
 30
0.0
  0
INSERT
  5
BE
100
AcDbEntity
  8
0
  6
Continuous
 62
     0
100
AcDbBlockReference
  2
*B8
 10
0.0
 20
0.0
 30
0.0
  0
INSERT
  5
C5
100
AcDbEntity
  8
0
  6
Continuous
 62
     0
100
AcDbBlockReference
  2
*B9
 10
0.0
 20
0.0
 30
0.0
  0
INSERT
  5
CC
100
AcDbEntity
  8
0
  6
Continuous
 62
     0
100
AcDbBlockReference
  2
*B10
 10
0.0
 20
0.0
 30
0.0
  0
INSERT
  5
D3
100
AcDbEntity
  8
0
  6
Continuous
 62
     0
100
AcDbBlockReference
  2
*B11
 10
0.0
 20
0.0
 30
0.0
  0
INSERT
  5
DA
100
AcDbEntity
  8
0
  6
Continuous
 62
     0
100
AcDbBlockReference
  2
*B12
 10
0.0
 20
0.0
 30
0.0
  0
INSERT
  5
E1
100
AcDbEntity
  8
0
  6
Continuous
 62
     0
100
AcDbBlockReference
  2
*B13
 10
0.0
 20
0.0
 30
0.0
  0
INSERT
  5
E8
100
AcDbEntity
  8
0
  6
Continuous
 62
     0
100
AcDbBlockReference
  2
*B14
 10
0.0
 20
0.0
 30
0.0
  0
INSERT
  5
EF
100
AcDbEntity
  8
0
  6
Continuous
 62
     0
100
AcDbBlockReference
  2
*B15
 10
0.0
 20
0.0
 30
0.0
  0
INSERT
  5
F6
100
AcDbEntity
  8
0
  6
Continuous
 62
     0
100
AcDbBlockReference
  2
*B16
 10
0.0
 20
0.0
 30
0.0
  0
INSERT
  5
FD
100
AcDbEntity
  8
0
  6
Continuous
 62
     0
100
AcDbBlockReference
  2
*B17
 10
0.0
 20
0.0
 30
0.0
  0
INSERT
  5
104
100
AcDbEntity
  8
0
  6
Continuous
 62
     0
100
AcDbBlockReference
  2
*B18
 10
0.0
 20
0.0
 30
0.0
  0
INSERT
  5
10A
100
AcDbEntity
  8
0
  6
Continuous
 62
     8
100
AcDbBlockReference
  2
*B19
 10
0.0
 20
0.0
 30
0.0
  0
INSERT
  5
10F
100
AcDbEntity
  8
0
  6
Continuous
 62
     8
100
AcDbBlockReference
  2
*B20
 10
0.0
 20
0.0
 30
0.0
  0
INSERT
  5
115
100
AcDbEntity
  8
0
  6
Continuous
 62
     8
100
AcDbBlockReference
  2
*B21
 10
0.0
 20
0.0
 30
0.0
  0
INSERT
  5
128
100
AcDbEntity
  8
0
  6
Continuous
 62
     8
100
AcDbBlockReference
  2
*B22
 10
0.0
 20
0.0
 30
0.0
  0
INSERT
  5
12D
100
AcDbEntity
  8
0
  6
Continuous
 62
     8
100
AcDbBlockReference
  2
*B23
 10
0.0
 20
0.0
 30
0.0
  0
INSERT
  5
132
100
AcDbEntity
  8
0
  6
Continuous
 62
     8
100
AcDbBlockReference
  2
*B24
 10
0.0
 20
0.0
 30
0.0
  0
INSERT
  5
138
100
AcDbEntity
  8
0
  6
Continuous
 62
     8
100
AcDbBlockReference
  2
*B25
 10
0.0
 20
0.0
 30
0.0
  0
INSERT
  5
13D
100
AcDbEntity
  8
0
  6
Continuous
 62
     8
100
AcDbBlockReference
  2
*B26
 10
0.0
 20
0.0
 30
0.0
  0
INSERT
  5
146
100
AcDbEntity
  8
0
  6
Continuous
 62
     8
100
AcDbBlockReference
  2
*B27
 10
0.0
 20
0.0
 30
0.0
  0
INSERT
  5
155
100
AcDbEntity
  8
0
  6
Continuous
 62
     8
100
AcDbBlockReference
  2
*B28
 10
0.0
 20
0.0
 30
0.0
  0
INSERT
  5
161
100
AcDbEntity
  8
0
  6
Continuous
 62
     8
100
AcDbBlockReference
  2
*B29
 10
0.0
 20
0.0
 30
0.0
  0
INSERT
  5
166
100
AcDbEntity
  8
0
  6
Continuous
 62
     8
100
AcDbBlockReference
  2
*B30
 10
0.0
 20
0.0
 30
0.0
  0
INSERT
  5
16B
100
AcDbEntity
  8
0
  6
Continuous
 62
     8
100
AcDbBlockReference
  2
*B31
 10
0.0
 20
0.0
 30
0.0
  0
INSERT
  5
176
100
AcDbEntity
  8
0
  6
Continuous
 62
     8
100
AcDbBlockReference
  2
*B32
 10
0.0
 20
0.0
 30
0.0
  0
INSERT
  5
17C
100
AcDbEntity
  8
0
  6
Continuous
 62
     8
100
AcDbBlockReference
  2
*B33
 10
0.0
 20
0.0
 30
0.0
  0
INSERT
  5
181
100
AcDbEntity
  8
0
  6
Continuous
 62
     8
100
AcDbBlockReference
  2
*B34
 10
0.0
 20
0.0
 30
0.0
  0
INSERT
  5
18B
100
AcDbEntity
  8
0
  6
Continuous
 62
     8
100
AcDbBlockReference
  2
*B35
 10
0.0
 20
0.0
 30
0.0
  0
INSERT
  5
191
100
AcDbEntity
  8
0
  6
Continuous
 62
     8
100
AcDbBlockReference
  2
*B36
 10
0.0
 20
0.0
 30
0.0
  0
INSERT
  5
19E
100
AcDbEntity
  8
0
  6
Continuous
 62
     8
100
AcDbBlockReference
  2
*B37
 10
0.0
 20
0.0
 30
0.0
  0
INSERT
  5
1A3
100
AcDbEntity
  8
0
  6
Continuous
 62
     8
100
AcDbBlockReference
  2
*B38
 10
0.0
 20
0.0
 30
0.0
  0
INSERT
  5
1A8
100
AcDbEntity
  8
0
  6
Continuous
 62
     8
100
AcDbBlockReference
  2
*B39
 10
0.0
 20
0.0
 30
0.0
  0
INSERT
  5
1AD
100
AcDbEntity
  8
0
  6
Continuous
 62
     8
100
AcDbBlockReference
  2
*B40
 10
0.0
 20
0.0
 30
0.0
  0
INSERT
  5
1C0
100
AcDbEntity
  8
0
  6
Continuous
 62
     8
100
AcDbBlockReference
  2
*B41
 10
0.0
 20
0.0
 30
0.0
  0
INSERT
  5
1CA
100
AcDbEntity
  8
0
  6
Continuous
 62
     8
100
AcDbBlockReference
  2
*B42
 10
0.0
 20
0.0
 30
0.0
  0
INSERT
  5
1CF
100
AcDbEntity
  8
0
  6
Continuous
 62
     8
100
AcDbBlockReference
  2
*B43
 10
0.0
 20
0.0
 30
0.0
  0
INSERT
  5
1DA
100
AcDbEntity
  8
0
  6
Continuous
 62
     8
100
AcDbBlockReference
  2
*B44
 10
0.0
 20
0.0
 30
0.0
  0
INSERT
  5
1F3
100
AcDbEntity
  8
0
  6
Continuous
 62
     8
100
AcDbBlockReference
  2
*B45
 10
0.0
 20
0.0
 30
0.0
  0
INSERT
  5
1F8
100
AcDbEntity
  8
0
  6
Continuous
 62
     8
100
AcDbBlockReference
  2
*B46
 10
0.0
 20
0.0
 30
0.0
  0
INSERT
  5
1FD
100
AcDbEntity
  8
0
  6
Continuous
 62
     8
100
AcDbBlockReference
  2
*B47
 10
0.0
 20
0.0
 30
0.0
  0
INSERT
  5
210
100
AcDbEntity
  8
0
  6
Continuous
 62
     8
100
AcDbBlockReference
  2
*B48
 10
0.0
 20
0.0
 30
0.0
  0
INSERT
  5
215
100
AcDbEntity
  8
0
  6
Continuous
 62
     8
100
AcDbBlockReference
  2
*B49
 10
0.0
 20
0.0
 30
0.0
  0
INSERT
  5
22E
100
AcDbEntity
  8
0
  6
Continuous
 62
     8
100
AcDbBlockReference
  2
*B50
 10
0.0
 20
0.0
 30
0.0
  0
INSERT
  5
234
100
AcDbEntity
  8
0
  6
Continuous
 62
     8
100
AcDbBlockReference
  2
*B51
 10
0.0
 20
0.0
 30
0.0
  0
INSERT
  5
248
100
AcDbEntity
  8
0
  6
Continuous
 62
     8
100
AcDbBlockReference
  2
*B52
 10
0.0
 20
0.0
 30
0.0
  0
INSERT
  5
24E
100
AcDbEntity
  8
0
  6
Continuous
 62
     6
100
AcDbBlockReference
  2
*B53
 10
0.0
 20
0.0
 30
0.0
  0
INSERT
  5
254
100
AcDbEntity
  8
0
  6
Continuous
 62
     6
100
AcDbBlockReference
  2
*B54
 10
0.0
 20
0.0
 30
0.0
  0
INSERT
  5
25A
100
AcDbEntity
  8
0
  6
Continuous
 62
     6
100
AcDbBlockReference
  2
*B55
 10
0.0
 20
0.0
 30
0.0
  0
INSERT
  5
260
100
AcDbEntity
  8
0
  6
Continuous
 62
     6
100
AcDbBlockReference
  2
*B56
 10
0.0
 20
0.0
 30
0.0
  0
INSERT
  5
266
100
AcDbEntity
  8
0
  6
Continuous
 62
     6
100
AcDbBlockReference
  2
*B57
 10
0.0
 20
0.0
 30
0.0
  0
INSERT
  5
26C
100
AcDbEntity
  8
0
  6
Continuous
 62
     6
100
AcDbBlockReference
  2
*B58
 10
0.0
 20
0.0
 30
0.0
  0
INSERT
  5
272
100
AcDbEntity
  8
0
  6
Continuous
 62
     6
100
AcDbBlockReference
  2
*B59
 10
0.0
 20
0.0
 30
0.0
  0
INSERT
  5
278
100
AcDbEntity
  8
0
  6
Continuous
 62
     6
100
AcDbBlockReference
  2
*B60
 10
0.0
 20
0.0
 30
0.0
  0
INSERT
  5
27E
100
AcDbEntity
  8
0
  6
Continuous
 62
     6
100
AcDbBlockReference
  2
*B61
 10
0.0
 20
0.0
 30
0.0
  0
INSERT
  5
284
100
AcDbEntity
  8
0
  6
Continuous
 62
     6
100
AcDbBlockReference
  2
*B62
 10
0.0
 20
0.0
 30
0.0
  0
INSERT
  5
289
100
AcDbEntity
  8
TEXT
  6
Continuous
 62
     0
100
AcDbBlockReference
  2
*B63
 10
0.0
 20
0.0
 30
0.0
  0
INSERT
  5
28E
100
AcDbEntity
  8
TEXT
  6
Continuous
 62
     0
100
AcDbBlockReference
  2
*B64
 10
0.0
 20
0.0
 30
0.0
  0
INSERT
  5
293
100
AcDbEntity
  8
TEXT
  6
Continuous
 62
     0
100
AcDbBlockReference
  2
*B65
 10
0.0
 20
0.0
 30
0.0
  0
INSERT
  5
298
100
AcDbEntity
  8
TEXT
  6
Continuous
 62
     0
100
AcDbBlockReference
  2
*B66
 10
0.0
 20
0.0
 30
0.0
  0
INSERT
  5
29D
100
AcDbEntity
  8
TEXT
  6
Continuous
 62
     0
100
AcDbBlockReference
  2
*B67
 10
0.0
 20
0.0
 30
0.0
  0
INSERT
  5
2A2
100
AcDbEntity
  8
TEXT
  6
Continuous
 62
     0
100
AcDbBlockReference
  2
*B68
 10
0.0
 20
0.0
 30
0.0
  0
INSERT
  5
2A7
100
AcDbEntity
  8
TEXT
  6
Continuous
 62
     0
100
AcDbBlockReference
  2
*B69
 10
0.0
 20
0.0
 30
0.0
  0
INSERT
  5
2AC
100
AcDbEntity
  8
TEXT
  6
Continuous
 62
     0
100
AcDbBlockReference
  2
*B70
 10
0.0
 20
0.0
 30
0.0
  0
INSERT
  5
2B1
100
AcDbEntity
  8
TEXT
  6
Continuous
 62
     0
100
AcDbBlockReference
  2
*B71
 10
0.0
 20
0.0
 30
0.0
  0
INSERT
  5
2B6
100
AcDbEntity
  8
TEXT
  6
Continuous
 62
     0
100
AcDbBlockReference
  2
*B72
 10
0.0
 20
0.0
 30
0.0
  0
INSERT
  5
2BB
100
AcDbEntity
  8
TEXT
  6
Continuous
 62
     0
100
AcDbBlockReference
  2
*B73
 10
0.0
 20
0.0
 30
0.0
  0
INSERT
  5
2C0
100
AcDbEntity
  8
TEXT
  6
Continuous
 62
     0
100
AcDbBlockReference
  2
*B74
 10
0.0
 20
0.0
 30
0.0
  0
INSERT
  5
2C5
100
AcDbEntity
  8
TEXT
  6
Continuous
 62
     0
100
AcDbBlockReference
  2
*B75
 10
0.0
 20
0.0
 30
0.0
  0
INSERT
  5
2CA
100
AcDbEntity
  8
TEXT
  6
Continuous
 62
     0
100
AcDbBlockReference
  2
*B76
 10
0.0
 20
0.0
 30
0.0
  0
INSERT
  5
2CF
100
AcDbEntity
  8
TEXT
  6
Continuous
 62
     0
100
AcDbBlockReference
  2
*B77
 10
0.0
 20
0.0
 30
0.0
  0
INSERT
  5
2D4
100
AcDbEntity
  8
TEXT
  6
Continuous
 62
     0
100
AcDbBlockReference
  2
*B78
 10
0.0
 20
0.0
 30
0.0
  0
INSERT
  5
2D9
100
AcDbEntity
  8
TEXT
  6
Continuous
 62
     0
100
AcDbBlockReference
  2
*B79
 10
0.0
 20
0.0
 30
0.0
  0
INSERT
  5
2DE
100
AcDbEntity
  8
TEXT
  6
Continuous
 62
     0
100
AcDbBlockReference
  2
*B80
 10
0.0
 20
0.0
 30
0.0
  0
INSERT
  5
2E3
100
AcDbEntity
  8
TEXT
  6
Continuous
 62
     0
100
AcDbBlockReference
  2
*B81
 10
0.0
 20
0.0
 30
0.0
  0
INSERT
  5
2E8
100
AcDbEntity
  8
TEXT
  6
Continuous
 62
     0
100
AcDbBlockReference
  2
*B82
 10
0.0
 20
0.0
 30
0.0
  0
INSERT
  5
2ED
100
AcDbEntity
  8
TEXT
  6
Continuous
 62
     0
100
AcDbBlockReference
  2
*B83
 10
0.0
 20
0.0
 30
0.0
  0
ENDSEC
  0
SECTION
  2
OBJECTS
  0
DICTIONARY
  5
19
100
AcDbDictionary
280
     0
281
     1
  3
ACAD_GROUP
350
1A
  3
ACAD_MLINESTYLE
350
1B
  3
ACAD_LAYOUT
350
1E
  3
ACAD_PLOTSETTINGS
350
22
  3
ACAD_PLOTSTYLENAME
350
1F
  3
ACAD_WIPEOUT_VARS
350
23
  0
DICTIONARY
  5
1A
102
{ACAD_REACTORS
330
19
102
}
100
AcDbDictionary
280
     0
281
     1
  0
DICTIONARY
  5
1B
102
{ACAD_REACTORS
330
19
102
}
100
AcDbDictionary
280
     0
281
     1
  3
Standard
350
1C
  0
MLINESTYLE
  5
1C
102
{ACAD_REACTORS
330
1B
102
}
100
AcDbMlineStyle
  2
Standard
 70
     0
  3

 62
     0
 51
90.0
 52
90.0
 71
     2
 49
0.5
 62
   256
  6
BYLAYER
 49
-0.5
 62
   256
  6
BYLAYER
  0
ACDBDICTIONARYWDFLT
  5
1F
102
{ACAD_REACTORS
330
19
102
}
100
AcDbDictionary
281
     1
  3
Normal
350
1D
100
AcDbDictionaryWithDefault
340
1D
  0
ACDBPLACEHOLDER
  5
1D
102
{ACAD_REACTORS
330
1F
102
}
  0
LAYOUT
  5
20
102
{ACAD_REACTORS
330
1E
102
}
100
AcDbPlotSettings
  1

  2

  4

  6

 40
0.0
 41
0.0
 42
0.0
 43
0.0
 44
0.0
 45
0.0
 46
0.0
 47
0.0
 48
0.0
 49
0.0
140
0.0
141
0.0
142
1.0
143
1.0
 70
     0
 72
     0
 73
     0
 74
     0
  7

 75
     0
147
1.0
148
0.0
149
0.0
100
AcDbLayout
  1
Model
 70
     0
 71
     0
 10
0.0
 20
0.0
 11
0.0
 21
0.0
 12
0.0
 22
0.0
 32
0.0
 14
0.0
 24
0.0
 34
0.0
 15
0.0
 25
0.0
 35
0.0
146
0.0
 13
0.0
 23
0.0
 33
0.0
 16
0.0
 26
0.0
 36
0.0
 17
0.0
 27
0.0
 37
0.0
 76
     0
330
A
331
0
345
0
346
0
  0
LAYOUT
  5
21
102
{ACAD_REACTORS
330
1E
102
}
100
AcDbPlotSettings
  1

  2

  4

  6

 40
0.0
 41
0.0
 42
0.0
 43
0.0
 44
0.0
 45
0.0
 46
0.0
 47
0.0
 48
0.0
 49
0.0
140
0.0
141
0.0
142
1.0
143
1.0
 70
     0
 72
     0
 73
     0
 74
     0
  7

 75
     0
147
1.0
148
0.0
149
0.0
100
AcDbLayout
  1
Layout1
 70
     0
 71
     0
 10
0.0
 20
0.0
 11
0.0
 21
0.0
 12
0.0
 22
0.0
 32
0.0
 14
0.0
 24
0.0
 34
0.0
 15
0.0
 25
0.0
 35
0.0
146
0.0
 13
0.0
 23
0.0
 33
0.0
 16
0.0
 26
0.0
 36
0.0
 17
0.0
 27
0.0
 37
0.0
 76
     0
330
B
331
0
345
0
346
0
  0
DICTIONARY
  5
1E
102
{ACAD_REACTORS
330
19
102
}
100
AcDbDictionary
280
     0
281
     1
  3
Layout1
350
21
  3
Model
350
20
  0
DICTIONARY
  5
22
102
{ACAD_REACTORS
330
19
102
}
100
AcDbDictionary
280
     0
281
     1
  0
WIPEOUTVARIABLES
  5
23
100
AcDbWipeoutVariables
 70
     1
  0
ENDSEC
  0
EOF
