  0
SECTION
  2
HEADER
  9
$ACADVER
  1
AC1015
  9
$ACADMAINTVER
 70
     6
  9
$DWGCODEPAGE
  3
DOS850
  9
$INSBASE
 10
0.0
 20
0.0
 30
0.0
  9
$EXTMIN
 10
0.0
 20
0.0
 30
0.0
  9
$EXTMAX
 10
420.0
 20
297.0
 30
0.0
  9
$LIMMIN
 10
0.0
 20
0.0
  9
$LIMMAX
 10
420.0
 20
297.0
  9
$ORTHOMODE
 70
     0
  9
$REGENMODE
 70
     1
  9
$FILLMODE
 70
     1
  9
$QTEXTMODE
 70
     0
  9
$MIRRTEXT
 70
     1
  9
$LTSCALE
 40
25.4
  9
$ATTMODE
 70
     1
  9
$TEXTSIZE
 40
3.5
  9
$TRACEWID
 40
0.05
  9
$TEXTSTYLE
  7
Standard
  9
$CLAYER
  8
0
  9
$CELTYPE
  6
Continuous
  9
$CECOLOR
 62
   256
  9
$CELTSCALE
 40
1.0
  9
$DISPSILH
 70
     0
  9
$DIMSCALE
 40
1.0
  9
$DIMASZ
 40
5.0
  9
$DIMEXO
 40
3.0
  9
$DIMDLI
 40
0.38
  9
$DIMRND
 40
0.0
  9
$DIMDLE
 40
0.0
  9
$DIMEXE
 40
2.0
  9
$DIMTP
 40
0.0
  9
$DIMTM
 40
0.0
  9
$DIMTXT
 40
3.5
  9
$DIMCEN
 40
4.0
  9
$DIMTSZ
 40
0.0
  9
$DIMTOL
 70
     0
  9
$DIMLIM
 70
     0
  9
$DIMTIH
 70
     1
  9
$DIMTOH
 70
     1
  9
$DIMSE1
 70
     0
  9
$DIMSE2
 70
     0
  9
$DIMTAD
 70
     0
  9
$DIMZIN
 70
     0
  9
$DIMBLK
  1

  9
$DIMASO
 70
     1
  9
$DIMSHO
 70
     1
  9
$DIMPOST
  1

  9
$DIMAPOST
  1

  9
$DIMALT
 70
     0
  9
$DIMALTD
 70
     2
  9
$DIMALTF
 40
25.4
  9
$DIMLFAC
 40
1.0
  9
$DIMTOFL
 70
     0
  9
$DIMTVP
 40
0.0
  9
$DIMTIX
 70
     0
  9
$DIMSOXD
 70
     0
  9
$DIMSAH
 70
     0
  9
$DIMBLK1
  1

  9
$DIMBLK2
  1

  9
$DIMSTYLE
  2
Standard
  9
$DIMCLRD
 70
     0
  9
$DIMCLRE
 70
     0
  9
$DIMCLRT
 70
     0
  9
$DIMTFAC
 40
1.0
  9
$DIMGAP
 40
1.0
  9
$DIMJUST
 70
     0
  9
$DIMSD1
 70
     0
  9
$DIMSD2
 70
     0
  9
$DIMTOLJ
 70
     1
  9
$DIMTZIN
 70
     0
  9
$DIMALTZ
 70
     0
  9
$DIMALTTZ
 70
     0
  9
$DIMUPT
 70
     0
  9
$DIMDEC
 70
     4
  9
$DIMTDEC
 70
     4
  9
$DIMALTU
 70
     2
  9
$DIMALTTD
 70
     2
  9
$DIMTXSTY
  7
Standard
  9
$DIMAUNIT
 70
     0
  9
$DIMADEC
 70
     0
  9
$DIMALTRND
 40
0.0
  9
$DIMAZIN
 70
     0
  9
$DIMDSEP
 70
     0
  9
$DIMATFIT
 70
     3
  9
$DIMFRAC
 70
     0
  9
$DIMLDRBLK
  1

  9
$DIMLUNIT
 70
     2
  9
$DIMLWD
 70
     0
  9
$DIMLWE
 70
     0
  9
$DIMTMOVE
 70
     0
  9
$LUNITS
 70
     2
  9
$LUPREC
 70
     4
  9
$SKETCHINC
 40
0.1
  9
$FILLETRAD
 40
0.0
  9
$AUNITS
 70
     0
  9
$AUPREC
 70
     0
  9
$MENU
  1
acad
  9
$ELEVATION
 40
0.0
  9
$PELEVATION
 40
0.0
  9
$THICKNESS
 40
0.0
  9
$LIMCHECK
 70
     0
  9
$CHAMFERA
 40
0.0
  9
$CHAMFERB
 40
0.0
  9
$CHAMFERC
 40
0.0
  9
$CHAMFERD
 40
0.0
  9
$SKPOLY
 70
     0
  9
$TDCREATE
 40
0.000000000
  9
$TDUCREATE
 40
0.000000000
  9
$TDUPDATE
 40
0.000000000
  9
$TDUUPDATE
 40
0.000000000
  9
$TDINDWG
 40
0.0000000000
  9
$TDUSRTIMER
 40
0.0000000000
  9
$USRTIMER
 70
     1
  9
$ANGBASE
 50
0.0
  9
$ANGDIR
 70
     0
  9
$PDMODE
 70
     0
  9
$PDSIZE
 40
0.0
  9
$PLINEWID
 40
0.0
  9
$SPLFRAME
 70
     0
  9
$SPLINETYPE
 70
     6
  9
$SPLINESEGS
 70
     8
  9
$HANDSEED
  5
362
  9
$SURFTAB1
 70
     6
  9
$SURFTAB2
 70
     6
  9
$SURFTYPE
 70
     6
  9
$SURFU
 70
     6
  9
$SURFV
 70
     6
  9
$UCSBASE
  2

  9
$UCSNAME
  2

  9
$UCSORG
 10
0.0
 20
0.0
 30
0.0
  9
$UCSXDIR
 10
1.0
 20
0.0
 30
0.0
  9
$UCSYDIR
 10
0.0
 20
1.0
 30
0.0
  9
$UCSORTHOREF
  2

  9
$UCSORTHOVIEW
 70
     0
  9
$UCSORGTOP
 10
0.0
 20
0.0
 30
0.0
  9
$UCSORGBOTTOM
 10
0.0
 20
0.0
 30
0.0
  9
$UCSORGLEFT
 10
0.0
 20
0.0
 30
0.0
  9
$UCSORGRIGHT
 10
0.0
 20
0.0
 30
0.0
  9
$UCSORGFRONT
 10
0.0
 20
0.0
 30
0.0
  9
$UCSORGBACK
 10
0.0
 20
0.0
 30
0.0
  9
$PUCSBASE
  2

  9
$PUCSNAME
  2

  9
$PUCSORG
 10
0.0
 20
0.0
 30
0.0
  9
$PUCSXDIR
 10
1.0
 20
0.0
 30
0.0
  9
$PUCSYDIR
 10
0.0
 20
1.0
 30
0.0
  9
$PUCSORTHOREF
  2

  9
$PUCSORTHOVIEW
 70
     0
  9
$PUCSORGTOP
 10
0.0
 20
0.0
 30
0.0
  9
$PUCSORGBOTTOM
 10
0.0
 20
0.0
 30
0.0
  9
$PUCSORGLEFT
 10
0.0
 20
0.0
 30
0.0
  9
$PUCSORGRIGHT
 10
0.0
 20
0.0
 30
0.0
  9
$PUCSORGFRONT
 10
0.0
 20
0.0
 30
0.0
  9
$PUCSORGBACK
 10
0.0
 20
0.0
 30
0.0
  9
$USERI1
 70
     0
  9
$USERI2
 70
     0
  9
$USERI3
 70
     0
  9
$USERI4
 70
     0
  9
$USERI5
 70
     0
  9
$USERR1
 40
0.0
  9
$USERR2
 40
0.0
  9
$USERR3
 40
0.0
  9
$USERR4
 40
0.0
  9
$USERR5
 40
0.0
  9
$WORLDVIEW
 70
     1
  9
$SHADEDGE
 70
     3
  9
$SHADEDIF
 70
    70
  9
$TILEMODE
 70
     1
  9
$MAXACTVP
 70
    16
  9
$PINSBASE
 10
0.0
 20
0.0
 30
0.0
  9
$PLIMCHECK
 70
     0
  9
$PEXTMIN
 10
1.000000E+20
 20
1.000000E+20
 30
1.000000E+20
  9
$PEXTMAX
 10
-1.000000E+20
 20
-1.000000E+20
 30
-1.000000E+20
  9
$PLIMMIN
 10
0.0
 20
0.0
  9
$PLIMMAX
 10
420.0
 20
297.0
  9
$UNITMODE
 70
     0
  9
$VISRETAIN
 70
     0
  9
$PLINEGEN
 70
     1
  9
$PSLTSCALE
 70
     0
  9
$TREEDEPTH
 70
  3020
  9
$CMLSTYLE
  2
Standard
  9
$CMLJUST
 70
     0
  9
$CMLSCALE
 40
1.0
  9
$PROXYGRAPHICS
 70
     0
  9
$MEASUREMENT
 70
     0
  9
$CELWEIGHT
370
     0
  9
$ENDCAPS
280
     0
  9
$JOINSTYLE
280
     0
  9
$LWDISPLAY
290
     0
  9
$INSUNITS
 70
     0
  9
$HYPERLINKBASE
  1

  9
$XEDIT
290
     1
  9
$CEPSNTYPE
380
     0
  9
$PSTYLEMODE
290
     0
  9
$FINGERPRINTGUID
  2

  9
$VERSIONGUID
  2

  9
$EXTNAMES
290
     1
  9
$PSVPSCALE
 40
0.0
  0
ENDSEC
  0
SECTION
  2
CLASSES
  0
CLASS
  1
LWPOLYLINE
  2
AcDbPolyline
  3
"AutoCAD"
 90
        0
280
     0
281
     1
  0
CLASS
  1
IMAGE
  2
AcDbRasterImage
  3
ISM
 90
      127
280
     0
281
     1
  0
CLASS
  1
OLE2FRAME
  2
AcDbOle2Frame
  3
""
 90
        0
280
     0
281
     1
  0
CLASS
  1
HATCH
  2
AcDbHatch
  3
"ACAD_SEDONA"
 90
        0
280
     0
281
     1
  0
CLASS
  1
DICTIONARYVAR
  2
AcDbDictionaryVar
  3
"AutoCAD"
 90
        0
280
     0
281
     0
  0
CLASS
  1
RASTERVARIABLES
  2
AcDbRasterVariables
  3
ISM
 90
        0
280
     0
281
     0
  0
CLASS
  1
IMAGEDEF
  2
AcDbRasterImageDef
  3
ISM
 90
        0
280
     0
281
     0
  0
CLASS
  1
IMAGEDEF_REACTOR
  2
AcDbRasterImageDefReactor
  3
ISM
 90
        1
280
     0
281
     0
  0
CLASS
  1
IDBUFFER
  2
AcDbIdBuffer
  3
"Acad"
 90
        0
280
     0
281
     0
  0
CLASS
  1
SPATIAL_FILTER
  2
AcDbSpatialFilter
  3
"Acad"
 90
        0
280
     0
281
     0
  0
CLASS
  1
XRECORD
  2
AcDbXrecord
  3
"<Built In>"
 90
        0
280
     0
281
     0
  0
CLASS
  1
SORTENTSTABLE
  2
AcDbSortentsTable
  3
"AutoCAD"
 90
        0
280
     0
281
     0
  0
CLASS
  1
LAYER_INDEX
  2
AcDbLayerIndex
  3
"Acad"
 90
        0
280
     0
281
     0
  0
CLASS
  1
SPATIAL_INDEX
  2
AcDbSpatialIndex
  3
"Acad"
 90
        0
280
     0
281
     0
  0
CLASS
  1
OBJECT_PTR
  2
CAseDLPNTableRecord
  3
"ASE-LPNTableRecord"
 90
        1
280
     0
281
     0
  0
CLASS
  1
LAYOUT
  2
AcDbLayout
  3
"AutoCAD 2000"
 90
        1
280
     0
281
     0
  0
CLASS
  1
PLOTSETTINGS
  2
AcDbPlotSettings
  3
"AutoCAD 2000"
 90
        1
280
     0
281
     0
  0
CLASS
  1
ACDBDICTIONARYWDFLT
  2
AcDbDictionaryWithDefault
  3
"AutoCAD 2000"
 90
        1
280
     0
281
     0
  0
CLASS
  1
ACDBPLACEHOLDER
  2
AcDbPlaceHolder
  3
"AutoCAD 2000"
 90
        1
280
     0
281
     0
  0
CLASS
  1
VBA_PROJECT
  2
AcDbVbaProject
  3
"acadvba"
 90
        1
280
     0
281
     0
  0
CLASS
  1
WIPEOUT
  2
AcDbWipeout
  3
WipeOut|AutoCAD Express Tool|expresstools@autodesk.com
 90
      127
280
     0
281
     1
  0
CLASS
  1
WIPEOUTVARIABLES
  2
AcDbWipeoutVariables
  3
WipeOut|AutoCAD Express Tool|expresstools@autodesk.com
 90
        0
280
     0
281
     0
  0
CLASS
  1
RTEXT
  2
RText
  3
RText|AutoCAD Express Tool|expresstools@autodesk.com
 90
        0
280
     0
281
     1
  0
CLASS
  1
ARCALIGNEDTEXT
  2
AcDbArcAlignedText
  3
ATEXT|AutoCAD Express Tool|expresstools@autodesk.com
 90
        0
280
     0
281
     1
  0
ENDSEC
  0
SECTION
  2
TABLES
  0
TABLE
  2
VPORT
  5
7
100
AcDbSymbolTable
 70
     1
  0
VPORT
  5
15
100
AcDbSymbolTableRecord
100
AcDbViewportTableRecord
  2
*ACTIVE
 70
     0
 10
0.0
 20
0.0
 11
1.0
 21
1.0
 12
6.591288
 22
4.579184
 13
0.0
 23
0.0
 14
1.0
 24
1.0
 15
0.0
 25
0.0
 16
0.0
 26
0.0
 36
1.0
 17
0.0
 27
0.0
 37
0.0
 40
9.158369
 41
0.688564
 42
50.0
 43
0.0
 44
0.0
 50
0.0
 51
0.0
 71
     0
 72
   100
 73
     1
 74
     1
 75
     0
 76
     0
 77
     0
 78
     0
281
     0
 65
     0
110
0.0
120
0.0
130
0.0
111
1.0
121
0.0
131
0.0
112
0.0
122
1.0
132
0.0
345
0
346
0
 79
     0
146
0.0
  0
ENDTAB
  0
TABLE
  2
LTYPE
  5
4
100
AcDbSymbolTable
 70
     7
  0
LTYPE
  5
11
100
AcDbSymbolTableRecord
100
AcDbLinetypeTableRecord
  2
ByBlock
 70
    64
  3

 72
    65
 73
     0
 40
0.0
  0
LTYPE
  5
12
100
AcDbSymbolTableRecord
100
AcDbLinetypeTableRecord
  2
ByLayer
 70
    64
  3

 72
    65
 73
     0
 40
0.0
  0
LTYPE
  5
13
100
AcDbSymbolTableRecord
100
AcDbLinetypeTableRecord
  2
Continuous
 70
    64
  3
Solid line
 72
    65
 73
     0
 40
0.0
  0
LTYPE
  5
24
100
AcDbSymbolTableRecord
100
AcDbLinetypeTableRecord
  2
HIDDEN
 70
    64
  3
_ _ _ _ _ _ _ _ _ _ _ _ _ _ _ _ _ _ _ _ _ _ _ _
 72
    65
 73
     2
 40
0.1875
 49
0.125
 74
     0
 49
-0.0625
 74
     0
  0
LTYPE
  5
25
100
AcDbSymbolTableRecord
100
AcDbLinetypeTableRecord
  2
DOTTED
 70
    64
  3
...............................................
 72
    65
 73
     2
 40
0.125
 49
0.0
 74
     0
 49
-0.125
 74
     0
  0
LTYPE
  5
26
100
AcDbSymbolTableRecord
100
AcDbLinetypeTableRecord
  2
CENTER
 70
    64
  3
____ _ ____ _ ____ _ ____ _ ____ _ ____ _ ____ 
 72
    65
 73
     4
 40
1.125
 49
0.75
 74
     0
 49
-0.125
 74
     0
 49
0.125
 74
     0
 49
-0.125
 74
     0
  0
LTYPE
  5
27
100
AcDbSymbolTableRecord
100
AcDbLinetypeTableRecord
  2
PHANTOM
 70
    64
  3
______  __  __  ______  __  __  ______  __  __ 
 72
    65
 73
     6
 40
1.25
 49
0.625
 74
     0
 49
-0.125
 74
     0
 49
0.125
 74
     0
 49
-0.125
 74
     0
 49
0.125
 74
     0
 49
-0.125
 74
     0
  0
ENDTAB
  0
TABLE
  2
LAYER
  5
2
100
AcDbSymbolTable
 70
     2
  0
LAYER
  5
14
100
AcDbSymbolTableRecord
100
AcDbLayerTableRecord
  2
0
 70
     0
 62
     7
  6
Continuous
290
     1
370
    -3
390
1D
  0
LAYER
  5
28
100
AcDbSymbolTableRecord
100
AcDbLayerTableRecord
  2
TEXT
 70
     0
 62
     8
  6
Continuous
290
     1
370
    -3
390
1F
  0
ENDTAB
  0
TABLE
  2
STYLE
  5
3
100
AcDbSymbolTable
 70
     1
  0
STYLE
  5
17
100
AcDbSymbolTableRecord
100
AcDbTextStyleTableRecord
  2
Standard
 70
     0
 40
0.0
 41
1.0
 50
0.0
 71
     0
 42
0.0
  3
txt
  4

  0
ENDTAB
  0
TABLE
  2
VIEW
  5
5
100
AcDbSymbolTable
 70
     0
  0
ENDTAB
  0
TABLE
  2
UCS
  5
6
100
AcDbSymbolTable
 70
     0
  0
ENDTAB
  0
TABLE
  2
APPID
  5
8
100
AcDbSymbolTable
 70
     1
  0
APPID
  5
16
100
AcDbSymbolTableRecord
100
AcDbRegAppTableRecord
  2
ACAD
 70
     0
  0
ENDTAB
  0
TABLE
  2
DIMSTYLE
  5
9
100
AcDbSymbolTable
 70
     1
100
AcDbDimStyleTable
 71
     0
  0
DIMSTYLE
105
18
100
AcDbSymbolTableRecord
100
AcDbDimStyleTableRecord
  2
Standard
 70
     0
  3

  4

 40
1.0
 41
0.18
 42
0.0625
 43
0.38
 44
0.18
 45
0.0
 46
0.0
 47
0.0
 48
0.0
 71
     0
 72
     0
 73
     1
 74
     1
 75
     0
 76
     0
 77
     0
 78
     0
 79
     0
140
0.18
141
0.09
142
0.0
143
25.4
144
1.0
145
0.0
146
1.0
147
0.09
148
0.0
170
     0
171
     2
172
     0
173
     0
174
     0
175
     0
176
     0
177
     0
178
     0
179
     0
271
     4
272
     4
273
     2
274
     2
275
     0
276
     0
277
     2
278
    46
279
     0
280
     0
281
     0
282
     0
283
     1
284
     0
285
     0
286
     0
288
     0
340
17
341
0
342
0
343
0
344
0
371
    -2
372
    -2
  0
ENDTAB
  0
TABLE
  2
BLOCK_RECORD
  5
1
100
AcDbSymbolTable
 70
   102
  0
BLOCK_RECORD
  5
A
100
AcDbSymbolTableRecord
100
AcDbBlockTableRecord
  2
*MODEL_SPACE
340
20
  0
BLOCK_RECORD
  5
B
100
AcDbSymbolTableRecord
100
AcDbBlockTableRecord
  2
*PAPER_SPACE
340
21
  0
BLOCK_RECORD
  5
29
100
AcDbSymbolTableRecord
100
AcDbBlockTableRecord
  2
*B0
340
0
  0
BLOCK_RECORD
  5
2C
100
AcDbSymbolTableRecord
100
AcDbBlockTableRecord
  2
*B1
340
0
  0
BLOCK_RECORD
  5
54
100
AcDbSymbolTableRecord
100
AcDbBlockTableRecord
  2
*B2
340
0
  0
BLOCK_RECORD
  5
60
100
AcDbSymbolTableRecord
100
AcDbBlockTableRecord
  2
*B3
340
0
  0
BLOCK_RECORD
  5
D5
100
AcDbSymbolTableRecord
100
AcDbBlockTableRecord
  2
*B4
340
0
  0
BLOCK_RECORD
  5
DC
100
AcDbSymbolTableRecord
100
AcDbBlockTableRecord
  2
*B5
340
0
  0
BLOCK_RECORD
  5
E3
100
AcDbSymbolTableRecord
100
AcDbBlockTableRecord
  2
*B6
340
0
  0
BLOCK_RECORD
  5
EA
100
AcDbSymbolTableRecord
100
AcDbBlockTableRecord
  2
*B7
340
0
  0
BLOCK_RECORD
  5
F1
100
AcDbSymbolTableRecord
100
AcDbBlockTableRecord
  2
*B8
340
0
  0
BLOCK_RECORD
  5
F8
100
AcDbSymbolTableRecord
100
AcDbBlockTableRecord
  2
*B9
340
0
  0
BLOCK_RECORD
  5
FF
100
AcDbSymbolTableRecord
100
AcDbBlockTableRecord
  2
*B10
340
0
  0
BLOCK_RECORD
  5
106
100
AcDbSymbolTableRecord
100
AcDbBlockTableRecord
  2
*B11
340
0
  0
BLOCK_RECORD
  5
10D
100
AcDbSymbolTableRecord
100
AcDbBlockTableRecord
  2
*B12
340
0
  0
BLOCK_RECORD
  5
114
100
AcDbSymbolTableRecord
100
AcDbBlockTableRecord
  2
*B13
340
0
  0
BLOCK_RECORD
  5
11B
100
AcDbSymbolTableRecord
100
AcDbBlockTableRecord
  2
*B14
340
0
  0
BLOCK_RECORD
  5
122
100
AcDbSymbolTableRecord
100
AcDbBlockTableRecord
  2
*B15
340
0
  0
BLOCK_RECORD
  5
129
100
AcDbSymbolTableRecord
100
AcDbBlockTableRecord
  2
*B16
340
0
  0
BLOCK_RECORD
  5
130
100
AcDbSymbolTableRecord
100
AcDbBlockTableRecord
  2
*B17
340
0
  0
BLOCK_RECORD
  5
137
100
AcDbSymbolTableRecord
100
AcDbBlockTableRecord
  2
*B18
340
0
  0
BLOCK_RECORD
  5
13E
100
AcDbSymbolTableRecord
100
AcDbBlockTableRecord
  2
*B19
340
0
  0
BLOCK_RECORD
  5
145
100
AcDbSymbolTableRecord
100
AcDbBlockTableRecord
  2
*B20
340
0
  0
BLOCK_RECORD
  5
14C
100
AcDbSymbolTableRecord
100
AcDbBlockTableRecord
  2
*B21
340
0
  0
BLOCK_RECORD
  5
153
100
AcDbSymbolTableRecord
100
AcDbBlockTableRecord
  2
*B22
340
0
  0
BLOCK_RECORD
  5
15E
100
AcDbSymbolTableRecord
100
AcDbBlockTableRecord
  2
*B23
340
0
  0
BLOCK_RECORD
  5
164
100
AcDbSymbolTableRecord
100
AcDbBlockTableRecord
  2
*B24
340
0
  0
BLOCK_RECORD
  5
174
100
AcDbSymbolTableRecord
100
AcDbBlockTableRecord
  2
*B25
340
0
  0
BLOCK_RECORD
  5
17A
100
AcDbSymbolTableRecord
100
AcDbBlockTableRecord
  2
*B26
340
0
  0
BLOCK_RECORD
  5
181
100
AcDbSymbolTableRecord
100
AcDbBlockTableRecord
  2
*B27
340
0
  0
BLOCK_RECORD
  5
187
100
AcDbSymbolTableRecord
100
AcDbBlockTableRecord
  2
*B28
340
0
  0
BLOCK_RECORD
  5
194
100
AcDbSymbolTableRecord
100
AcDbBlockTableRecord
  2
*B29
340
0
  0
BLOCK_RECORD
  5
199
100
AcDbSymbolTableRecord
100
AcDbBlockTableRecord
  2
*B30
340
0
  0
BLOCK_RECORD
  5
1A7
100
AcDbSymbolTableRecord
100
AcDbBlockTableRecord
  2
*B31
340
0
  0
BLOCK_RECORD
  5
1AC
100
AcDbSymbolTableRecord
100
AcDbBlockTableRecord
  2
*B32
340
0
  0
BLOCK_RECORD
  5
1B1
100
AcDbSymbolTableRecord
100
AcDbBlockTableRecord
  2
*B33
340
0
  0
BLOCK_RECORD
  5
1B6
100
AcDbSymbolTableRecord
100
AcDbBlockTableRecord
  2
*B34
340
0
  0
BLOCK_RECORD
  5
1BC
100
AcDbSymbolTableRecord
100
AcDbBlockTableRecord
  2
*B35
340
0
  0
BLOCK_RECORD
  5
1C4
100
AcDbSymbolTableRecord
100
AcDbBlockTableRecord
  2
*B36
340
0
  0
BLOCK_RECORD
  5
1CF
100
AcDbSymbolTableRecord
100
AcDbBlockTableRecord
  2
*B37
340
0
  0
BLOCK_RECORD
  5
1D5
100
AcDbSymbolTableRecord
100
AcDbBlockTableRecord
  2
*B38
340
0
  0
BLOCK_RECORD
  5
1DA
100
AcDbSymbolTableRecord
100
AcDbBlockTableRecord
  2
*B39
340
0
  0
BLOCK_RECORD
  5
1DF
100
AcDbSymbolTableRecord
100
AcDbBlockTableRecord
  2
*B40
340
0
  0
BLOCK_RECORD
  5
1E5
100
AcDbSymbolTableRecord
100
AcDbBlockTableRecord
  2
*B41
340
0
  0
BLOCK_RECORD
  5
1EA
100
AcDbSymbolTableRecord
100
AcDbBlockTableRecord
  2
*B42
340
0
  0
BLOCK_RECORD
  5
1EF
100
AcDbSymbolTableRecord
100
AcDbBlockTableRecord
  2
*B43
340
0
  0
BLOCK_RECORD
  5
1F4
100
AcDbSymbolTableRecord
100
AcDbBlockTableRecord
  2
*B44
340
0
  0
BLOCK_RECORD
  5
1FD
100
AcDbSymbolTableRecord
100
AcDbBlockTableRecord
  2
*B45
340
0
  0
BLOCK_RECORD
  5
209
100
AcDbSymbolTableRecord
100
AcDbBlockTableRecord
  2
*B46
340
0
  0
BLOCK_RECORD
  5
20F
100
AcDbSymbolTableRecord
100
AcDbBlockTableRecord
  2
*B47
340
0
  0
BLOCK_RECORD
  5
21F
100
AcDbSymbolTableRecord
100
AcDbBlockTableRecord
  2
*B48
340
0
  0
BLOCK_RECORD
  5
228
100
AcDbSymbolTableRecord
100
AcDbBlockTableRecord
  2
*B49
340
0
  0
BLOCK_RECORD
  5
22D
100
AcDbSymbolTableRecord
100
AcDbBlockTableRecord
  2
*B50
340
0
  0
BLOCK_RECORD
  5
232
100
AcDbSymbolTableRecord
100
AcDbBlockTableRecord
  2
*B51
340
0
  0
BLOCK_RECORD
  5
239
100
AcDbSymbolTableRecord
100
AcDbBlockTableRecord
  2
*B52
340
0
  0
BLOCK_RECORD
  5
24B
100
AcDbSymbolTableRecord
100
AcDbBlockTableRecord
  2
*B53
340
0
  0
BLOCK_RECORD
  5
256
100
AcDbSymbolTableRecord
100
AcDbBlockTableRecord
  2
*B54
340
0
  0
BLOCK_RECORD
  5
25E
100
AcDbSymbolTableRecord
100
AcDbBlockTableRecord
  2
*B55
340
0
  0
BLOCK_RECORD
  5
263
100
AcDbSymbolTableRecord
100
AcDbBlockTableRecord
  2
*B56
340
0
  0
BLOCK_RECORD
  5
269
100
AcDbSymbolTableRecord
100
AcDbBlockTableRecord
  2
*B57
340
0
  0
BLOCK_RECORD
  5
26F
100
AcDbSymbolTableRecord
100
AcDbBlockTableRecord
  2
*B58
340
0
  0
BLOCK_RECORD
  5
274
100
AcDbSymbolTableRecord
100
AcDbBlockTableRecord
  2
*B59
340
0
  0
BLOCK_RECORD
  5
279
100
AcDbSymbolTableRecord
100
AcDbBlockTableRecord
  2
*B60
340
0
  0
BLOCK_RECORD
  5
286
100
AcDbSymbolTableRecord
100
AcDbBlockTableRecord
  2
*B61
340
0
  0
BLOCK_RECORD
  5
28C
100
AcDbSymbolTableRecord
100
AcDbBlockTableRecord
  2
*B62
340
0
  0
BLOCK_RECORD
  5
292
100
AcDbSymbolTableRecord
100
AcDbBlockTableRecord
  2
*B63
340
0
  0
BLOCK_RECORD
  5
298
100
AcDbSymbolTableRecord
100
AcDbBlockTableRecord
  2
*B64
340
0
  0
BLOCK_RECORD
  5
29E
100
AcDbSymbolTableRecord
100
AcDbBlockTableRecord
  2
*B65
340
0
  0
BLOCK_RECORD
  5
2A4
100
AcDbSymbolTableRecord
100
AcDbBlockTableRecord
  2
*B66
340
0
  0
BLOCK_RECORD
  5
2AA
100
AcDbSymbolTableRecord
100
AcDbBlockTableRecord
  2
*B67
340
0
  0
BLOCK_RECORD
  5
2B0
100
AcDbSymbolTableRecord
100
AcDbBlockTableRecord
  2
*B68
340
0
  0
BLOCK_RECORD
  5
2B6
100
AcDbSymbolTableRecord
100
AcDbBlockTableRecord
  2
*B69
340
0
  0
BLOCK_RECORD
  5
2BC
100
AcDbSymbolTableRecord
100
AcDbBlockTableRecord
  2
*B70
340
0
  0
BLOCK_RECORD
  5
2C2
100
AcDbSymbolTableRecord
100
AcDbBlockTableRecord
  2
*B71
340
0
  0
BLOCK_RECORD
  5
2C8
100
AcDbSymbolTableRecord
100
AcDbBlockTableRecord
  2
*B72
340
0
  0
BLOCK_RECORD
  5
2CE
100
AcDbSymbolTableRecord
100
AcDbBlockTableRecord
  2
*B73
340
0
  0
BLOCK_RECORD
  5
2D4
100
AcDbSymbolTableRecord
100
AcDbBlockTableRecord
  2
*B74
340
0
  0
BLOCK_RECORD
  5
2DA
100
AcDbSymbolTableRecord
100
AcDbBlockTableRecord
  2
*B75
340
0
  0
BLOCK_RECORD
  5
2E0
100
AcDbSymbolTableRecord
100
AcDbBlockTableRecord
  2
*B76
340
0
  0
BLOCK_RECORD
  5
2E5
100
AcDbSymbolTableRecord
100
AcDbBlockTableRecord
  2
*B77
340
0
  0
BLOCK_RECORD
  5
2EA
100
AcDbSymbolTableRecord
100
AcDbBlockTableRecord
  2
*B78
340
0
  0
BLOCK_RECORD
  5
2EF
100
AcDbSymbolTableRecord
100
AcDbBlockTableRecord
  2
*B79
340
0
  0
BLOCK_RECORD
  5
2F4
100
AcDbSymbolTableRecord
100
AcDbBlockTableRecord
  2
*B80
340
0
  0
BLOCK_RECORD
  5
2F9
100
AcDbSymbolTableRecord
100
AcDbBlockTableRecord
  2
*B81
340
0
  0
BLOCK_RECORD
  5
2FE
100
AcDbSymbolTableRecord
100
AcDbBlockTableRecord
  2
*B82
340
0
  0
BLOCK_RECORD
  5
303
100
AcDbSymbolTableRecord
100
AcDbBlockTableRecord
  2
*B83
340
0
  0
BLOCK_RECORD
  5
308
100
AcDbSymbolTableRecord
100
AcDbBlockTableRecord
  2
*B84
340
0
  0
BLOCK_RECORD
  5
30D
100
AcDbSymbolTableRecord
100
AcDbBlockTableRecord
  2
*B85
340
0
  0
BLOCK_RECORD
  5
312
100
AcDbSymbolTableRecord
100
AcDbBlockTableRecord
  2
*B86
340
0
  0
BLOCK_RECORD
  5
317
100
AcDbSymbolTableRecord
100
AcDbBlockTableRecord
  2
*B87
340
0
  0
BLOCK_RECORD
  5
31C
100
AcDbSymbolTableRecord
100
AcDbBlockTableRecord
  2
*B88
340
0
  0
BLOCK_RECORD
  5
321
100
AcDbSymbolTableRecord
100
AcDbBlockTableRecord
  2
*B89
340
0
  0
BLOCK_RECORD
  5
326
100
AcDbSymbolTableRecord
100
AcDbBlockTableRecord
  2
*B90
340
0
  0
BLOCK_RECORD
  5
32B
100
AcDbSymbolTableRecord
100
AcDbBlockTableRecord
  2
*B91
340
0
  0
BLOCK_RECORD
  5
330
100
AcDbSymbolTableRecord
100
AcDbBlockTableRecord
  2
*B92
340
0
  0
BLOCK_RECORD
  5
335
100
AcDbSymbolTableRecord
100
AcDbBlockTableRecord
  2
*B93
340
0
  0
BLOCK_RECORD
  5
33A
100
AcDbSymbolTableRecord
100
AcDbBlockTableRecord
  2
*B94
340
0
  0
BLOCK_RECORD
  5
33F
100
AcDbSymbolTableRecord
100
AcDbBlockTableRecord
  2
*B95
340
0
  0
BLOCK_RECORD
  5
344
100
AcDbSymbolTableRecord
100
AcDbBlockTableRecord
  2
*B96
340
0
  0
BLOCK_RECORD
  5
349
100
AcDbSymbolTableRecord
100
AcDbBlockTableRecord
  2
*B97
340
0
  0
BLOCK_RECORD
  5
34E
100
AcDbSymbolTableRecord
100
AcDbBlockTableRecord
  2
*B98
340
0
  0
BLOCK_RECORD
  5
353
100
AcDbSymbolTableRecord
100
AcDbBlockTableRecord
  2
*B99
340
0
  0
BLOCK_RECORD
  5
358
100
AcDbSymbolTableRecord
100
AcDbBlockTableRecord
  2
*B100
340
0
  0
BLOCK_RECORD
  5
35D
100
AcDbSymbolTableRecord
100
AcDbBlockTableRecord
  2
*B101
340
0
  0
ENDTAB
  0
ENDSEC
  0
SECTION
  2
BLOCKS
  0
BLOCK
  5
D
100
AcDbEntity
  8
0
100
AcDbBlockBegin
  2
*MODEL_SPACE
 70
     0
 10
0.0
 20
0.0
 30
0.0
  3
*MODEL_SPACE
  1

  0
ENDBLK
  5
E
100
AcDbEntity
  8
0
100
AcDbBlockEnd
  0
BLOCK
  5
F
100
AcDbEntity
 67
     1
  8
0
100
AcDbBlockBegin
  2
*PAPER_SPACE
 70
     0
 10
0.0
 20
0.0
 30
0.0
  3
*PAPER_SPACE
  1

  0
ENDBLK
  5
10
100
AcDbEntity
 67
     1
  8
0
100
AcDbBlockEnd
  0
BLOCK
  5
2A
100
AcDbEntity
  8
0
100
AcDbBlockBegin
  2
*B0
 70
     0
 10
0.0
 20
0.0
 30
0.0
  3
*B0
  1

  0
ENDBLK
  5
2B
100
AcDbEntity
  8
0
100
AcDbBlockEnd
  0
BLOCK
  5
2D
100
AcDbEntity
  8
0
100
AcDbBlockBegin
  2
*B1
 70
     0
 10
0.0
 20
0.0
 30
0.0
  3
*B1
  1

  0
LINE
  5
2E
100
AcDbEntity
  8
0
  6
Continuous
 62
   174
100
AcDbLine
 10
151.919858
 20
159.442964
 30
0.0
 11
181.919858
 21
159.442964
 31
0.0
  0
LINE
  5
2F
100
AcDbEntity
  8
0
  6
Continuous
 62
   174
100
AcDbLine
 10
261.919858
 20
189.442964
 30
0.0
 11
181.919858
 21
189.442964
 31
0.0
  0
LINE
  5
30
100
AcDbEntity
  8
0
  6
Continuous
 62
   174
100
AcDbLine
 10
261.919858
 20
159.442964
 30
0.0
 11
181.919858
 21
159.442964
 31
0.0
  0
LINE
  5
31
100
AcDbEntity
  8
0
  6
Continuous
 62
   174
100
AcDbLine
 10
151.919858
 20
189.442964
 30
0.0
 11
181.919858
 21
189.442964
 31
0.0
  0
LINE
  5
32
100
AcDbEntity
  8
0
  6
Continuous
 62
   174
100
AcDbLine
 10
181.919858
 20
189.442964
 30
0.0
 11
181.919858
 21
159.442964
 31
0.0
  0
LINE
  5
33
100
AcDbEntity
  8
0
  6
Continuous
 62
   174
100
AcDbLine
 10
151.919858
 20
159.442964
 30
0.0
 11
151.919858
 21
189.442964
 31
0.0
  0
LINE
  5
34
100
AcDbEntity
  8
0
  6
Continuous
 62
   174
100
AcDbLine
 10
181.919858
 20
159.442964
 30
0.0
 11
181.919858
 21
189.442964
 31
0.0
  0
LINE
  5
35
100
AcDbEntity
  8
0
  6
Continuous
 62
   174
100
AcDbLine
 10
261.919858
 20
189.442964
 30
0.0
 11
261.919858
 21
159.442964
 31
0.0
  0
LINE
  5
36
100
AcDbEntity
  8
0
  6
Continuous
 62
   174
100
AcDbLine
 10
151.919858
 20
203.442964
 30
0.0
 11
151.919858
 21
189.442964
 31
0.0
  0
LINE
  5
37
100
AcDbEntity
  8
0
  6
Continuous
 62
   174
100
AcDbLine
 10
181.919858
 20
203.442964
 30
0.0
 11
181.919858
 21
189.442964
 31
0.0
  0
LINE
  5
38
100
AcDbEntity
  8
0
  6
Continuous
 62
   174
100
AcDbLine
 10
151.919858
 20
203.442964
 30
0.0
 11
151.919858
 21
189.442964
 31
0.0
  0
LINE
  5
39
100
AcDbEntity
  8
0
  6
Continuous
 62
   174
100
AcDbLine
 10
181.919858
 20
203.442964
 30
0.0
 11
181.919858
 21
189.442964
 31
0.0
  0
LINE
  5
3A
100
AcDbEntity
  8
0
  6
Continuous
 62
   174
100
AcDbLine
 10
170.958853
 20
203.442964
 30
0.0
 11
181.945353
 21
203.442964
 31
0.0
  0
LINE
  5
3B
100
AcDbEntity
  8
0
  6
Continuous
 62
   174
100
AcDbLine
 10
162.932267
 20
203.442964
 30
0.0
 11
170.958853
 21
203.442964
 31
0.0
  0
LINE
  5
3C
100
AcDbEntity
  8
0
  6
Continuous
 62
   174
100
AcDbLine
 10
151.945467
 20
203.442964
 30
0.0
 11
162.932267
 21
203.442964
 31
0.0
  0
ARC
  5
3D
100
AcDbEntity
  8
0
  6
Continuous
 62
   174
100
AcDbCircle
 10
199.919858
 20
174.442964
 30
0.0
 40
5.875
100
AcDbArc
 50
-180.0
 51
0.0
  0
ARC
  5
3E
100
AcDbEntity
  8
0
  6
Continuous
 62
   174
100
AcDbCircle
 10
243.919858
 20
174.442964
 30
0.0
 40
5.875
100
AcDbArc
 50
-180.0
 51
0.0
  0
LINE
  5
3F
100
AcDbEntity
  8
0
  6
Continuous
 62
   174
100
AcDbLine
 10
170.945635
 20
245.100244
 30
0.0
 11
162.945485
 21
245.100244
 31
0.0
  0
LINE
  5
40
100
AcDbEntity
  8
0
  6
Continuous
 62
   174
100
AcDbLine
 10
162.919858
 20
245.100244
 30
0.0
 11
162.919858
 21
203.442964
 31
0.0
  0
ARC
  5
41
100
AcDbEntity
  8
0
  6
Continuous
 62
   174
100
AcDbCircle
 10
221.919858
 20
174.442964
 30
0.0
 40
6.58
100
AcDbArc
 50
0.0
 51
180.0
  0
ARC
  5
42
100
AcDbEntity
  8
0
  6
Continuous
 62
   174
100
AcDbCircle
 10
199.919858
 20
174.442964
 30
0.0
 40
6.58
100
AcDbArc
 50
0.0
 51
180.0
  0
ARC
  5
43
100
AcDbEntity
  8
0
  6
Continuous
 62
   174
100
AcDbCircle
 10
243.919858
 20
174.442964
 30
0.0
 40
6.58
100
AcDbArc
 50
0.0
 51
180.0
  0
LINE
  5
44
100
AcDbEntity
  8
0
  6
Continuous
 62
   174
100
AcDbLine
 10
170.919858
 20
245.100244
 30
0.0
 11
170.919858
 21
203.442964
 31
0.0
  0
ARC
  5
45
100
AcDbEntity
  8
0
  6
Continuous
 62
   174
100
AcDbCircle
 10
243.919858
 20
174.442964
 30
0.0
 40
6.58
100
AcDbArc
 50
-180.0
 51
-61.210326
  0
ARC
  5
46
100
AcDbEntity
  8
0
  6
Continuous
 62
   174
100
AcDbCircle
 10
199.919858
 20
174.442964
 30
0.0
 40
6.58
100
AcDbArc
 50
-180.0
 51
-61.194706
  0
ARC
  5
47
100
AcDbEntity
  8
0
  6
Continuous
 62
   174
100
AcDbCircle
 10
166.919858
 20
256.942964
 30
0.0
 40
12.5
100
AcDbArc
 50
-71.337075
 51
90.0
  0
ARC
  5
48
100
AcDbEntity
  8
0
  6
Continuous
 62
   174
100
AcDbCircle
 10
166.919858
 20
256.942964
 30
0.0
 40
12.5
100
AcDbArc
 50
-270.0
 51
-108.662925
  0
ARC
  5
49
100
AcDbEntity
  8
0
  6
Continuous
 62
   174
100
AcDbCircle
 10
166.919858
 20
256.942964
 30
0.0
 40
12.5
100
AcDbArc
 50
-71.337075
 51
90.0
  0
LINE
  5
4A
100
AcDbEntity
  8
0
  6
Continuous
 62
   174
100
AcDbLine
 10
162.919858
 20
245.100244
 30
0.0
 11
162.919858
 21
203.442964
 31
0.0
  0
ARC
  5
4B
100
AcDbEntity
  8
0
  6
Continuous
 62
   174
100
AcDbCircle
 10
221.919858
 20
174.442964
 30
0.0
 40
6.58
100
AcDbArc
 50
-180.0
 51
-61.210326
  0
ARC
  5
4C
100
AcDbEntity
  8
0
  6
Continuous
 62
   174
100
AcDbCircle
 10
221.919858
 20
174.442964
 30
0.0
 40
5.875
100
AcDbArc
 50
0.0
 51
180.0
  0
ARC
  5
4D
100
AcDbEntity
  8
0
  6
Continuous
 62
   174
100
AcDbCircle
 10
221.919858
 20
174.442964
 30
0.0
 40
5.875
100
AcDbArc
 50
-180.0
 51
0.0
  0
ARC
  5
4E
100
AcDbEntity
  8
0
  6
Continuous
 62
   174
100
AcDbCircle
 10
166.919858
 20
256.942964
 30
0.0
 40
12.5
100
AcDbArc
 50
-270.0
 51
-108.662925
  0
ARC
  5
4F
100
AcDbEntity
  8
0
  6
Continuous
 62
   174
100
AcDbCircle
 10
243.919858
 20
174.442964
 30
0.0
 40
5.875
100
AcDbArc
 50
0.0
 51
180.0
  0
LINE
  5
50
100
AcDbEntity
  8
0
  6
Continuous
 62
   174
100
AcDbLine
 10
170.919858
 20
245.100244
 30
0.0
 11
170.919858
 21
203.442964
 31
0.0
  0
ARC
  5
51
100
AcDbEntity
  8
0
  6
Continuous
 62
   174
100
AcDbCircle
 10
199.919858
 20
174.442964
 30
0.0
 40
5.875
100
AcDbArc
 50
0.0
 51
180.0
  0
ENDBLK
  5
52
100
AcDbEntity
  8
0
100
AcDbBlockEnd
  0
BLOCK
  5
55
100
AcDbEntity
  8
0
100
AcDbBlockBegin
  2
*B2
 70
     0
 10
0.0
 20
0.0
 30
0.0
  3
*B2
  1

  0
ARC
  5
56
100
AcDbEntity
  8
0
  6
HIDDEN
 62
   172
100
AcDbCircle
 10
180.702207
 20
255.19607
 30
0.0
 40
12.486793
100
AcDbArc
 50
-87.365213
 51
237.365213
  0
LINE
  5
57
100
AcDbEntity
  8
0
  6
HIDDEN
 62
   172
100
AcDbLine
 10
173.835831
 20
244.716124
 30
0.0
 11
181.582556
 21
242.640395
 31
0.0
  0
LINE
  5
58
100
AcDbEntity
  8
0
  6
HIDDEN
 62
   172
100
AcDbLine
 10
167.867756
 20
222.442964
 30
0.0
 11
173.835831
 21
244.716124
 31
0.0
  0
LINE
  5
59
100
AcDbEntity
  8
0
  6
HIDDEN
 62
   172
100
AcDbLine
 10
181.582556
 20
242.640395
 30
0.0
 11
176.170671
 21
222.442964
 31
0.0
  0
ARC
  5
5A
100
AcDbEntity
  8
0
  6
HIDDEN
 62
   172
100
AcDbCircle
 10
153.137509
 20
255.19607
 30
0.0
 40
12.486793
100
AcDbArc
 50
-57.365213
 51
267.365213
  0
LINE
  5
5B
100
AcDbEntity
  8
0
  6
HIDDEN
 62
   172
100
AcDbLine
 10
160.003885
 20
244.716124
 30
0.0
 11
152.25716
 21
242.640395
 31
0.0
  0
LINE
  5
5C
100
AcDbEntity
  8
0
  6
HIDDEN
 62
   172
100
AcDbLine
 10
165.97196
 20
222.442964
 30
0.0
 11
160.003885
 21
244.716124
 31
0.0
  0
LINE
  5
5D
100
AcDbEntity
  8
0
  6
HIDDEN
 62
   172
100
AcDbLine
 10
152.25716
 20
242.640395
 30
0.0
 11
157.669046
 21
222.442964
 31
0.0
  0
ENDBLK
  5
5E
100
AcDbEntity
  8
0
100
AcDbBlockEnd
  0
BLOCK
  5
61
100
AcDbEntity
  8
0
100
AcDbBlockBegin
  2
*B3
 70
     0
 10
0.0
 20
0.0
 30
0.0
  3
*B3
  1

  0
LINE
  5
62
100
AcDbEntity
  8
0
  6
Continuous
 62
   174
100
AcDbLine
 10
181.919858
 20
52.190254
 30
0.0
 11
181.919858
 21
77.190254
 31
0.0
  0
LINE
  5
63
100
AcDbEntity
  8
0
  6
Continuous
 62
   174
100
AcDbLine
 10
181.919858
 20
77.190254
 30
0.0
 11
181.919858
 21
102.190254
 31
0.0
  0
LINE
  5
64
100
AcDbEntity
  8
0
  6
Continuous
 62
   174
100
AcDbLine
 10
181.919858
 20
102.190254
 30
0.0
 11
261.919858
 21
102.190254
 31
0.0
  0
LINE
  5
65
100
AcDbEntity
  8
0
  6
Continuous
 62
   174
100
AcDbLine
 10
261.919858
 20
102.190254
 30
0.0
 11
261.919858
 21
52.190254
 31
0.0
  0
LINE
  5
66
100
AcDbEntity
  8
0
  6
Continuous
 62
   174
100
AcDbLine
 10
261.919858
 20
52.190254
 30
0.0
 11
181.919858
 21
52.190254
 31
0.0
  0
LINE
  5
67
100
AcDbEntity
  8
0
  6
Continuous
 62
   174
100
AcDbLine
 10
181.919858
 20
102.190254
 30
0.0
 11
151.919858
 21
102.190254
 31
0.0
  0
LINE
  5
68
100
AcDbEntity
  8
0
  6
Continuous
 62
   174
100
AcDbLine
 10
181.919858
 20
52.190254
 30
0.0
 11
181.919858
 21
77.190254
 31
0.0
  0
LINE
  5
69
100
AcDbEntity
  8
0
  6
Continuous
 62
   174
100
AcDbLine
 10
181.919858
 20
77.190254
 30
0.0
 11
181.919858
 21
102.190254
 31
0.0
  0
LINE
  5
6A
100
AcDbEntity
  8
0
  6
Continuous
 62
   174
100
AcDbLine
 10
151.919858
 20
52.190254
 30
0.0
 11
181.919858
 21
52.190254
 31
0.0
  0
LINE
  5
6B
100
AcDbEntity
  8
0
  6
Continuous
 62
   174
100
AcDbLine
 10
151.919858
 20
102.190254
 30
0.0
 11
151.919858
 21
77.190254
 31
0.0
  0
LINE
  5
6C
100
AcDbEntity
  8
0
  6
Continuous
 62
   174
100
AcDbLine
 10
151.919858
 20
77.190254
 30
0.0
 11
151.919858
 21
52.190254
 31
0.0
  0
LINE
  5
6D
100
AcDbEntity
  8
0
  6
HIDDEN
 62
   174
100
AcDbLine
 10
205.820532
 20
64.190254
 30
0.0
 11
194.070396
 21
64.190254
 31
0.0
  0
ARC
  5
6E
100
AcDbEntity
  8
0
  6
Continuous
 62
   174
100
AcDbCircle
 10
166.919858
 20
77.190254
 30
0.0
 40
15.0
100
AcDbArc
 50
-360.0
 51
-180.0
  0
ARC
  5
6F
100
AcDbEntity
  8
0
  6
Continuous
 62
   174
100
AcDbCircle
 10
166.919858
 20
77.190254
 30
0.0
 40
15.0
100
AcDbArc
 50
-180.0
 51
0.0
  0
LINE
  5
70
100
AcDbEntity
  8
0
  6
HIDDEN
 62
   174
100
AcDbLine
 10
227.794858
 20
62.190254
 30
0.0
 11
227.794858
 21
52.190254
 31
0.0
  0
LINE
  5
71
100
AcDbEntity
  8
0
  6
HIDDEN
 62
   174
100
AcDbLine
 10
216.044858
 20
52.190254
 30
0.0
 11
216.044858
 21
64.190254
 31
0.0
  0
LINE
  5
72
100
AcDbEntity
  8
0
  6
HIDDEN
 62
   174
100
AcDbLine
 10
215.339858
 20
62.190254
 30
0.0
 11
215.339858
 21
52.190254
 31
0.0
  0
LINE
  5
73
100
AcDbEntity
  8
0
  6
HIDDEN
 62
   174
100
AcDbLine
 10
205.820532
 20
52.190254
 30
0.0
 11
194.070396
 21
52.190254
 31
0.0
  0
LINE
  5
74
100
AcDbEntity
  8
0
  6
HIDDEN
 62
   174
100
AcDbLine
 10
205.044858
 20
92.190254
 30
0.0
 11
205.044858
 21
102.190254
 31
0.0
  0
LINE
  5
75
100
AcDbEntity
  8
0
  6
HIDDEN
 62
   174
100
AcDbLine
 10
216.794858
 20
102.190254
 30
0.0
 11
216.794858
 21
90.190254
 31
0.0
  0
LINE
  5
76
100
AcDbEntity
  8
0
  6
HIDDEN
 62
   174
100
AcDbLine
 10
238.794858
 20
92.190254
 30
0.0
 11
238.794858
 21
102.190254
 31
0.0
  0
LINE
  5
77
100
AcDbEntity
  8
0
  6
HIDDEN
 62
   174
100
AcDbLine
 10
227.044858
 20
102.190254
 30
0.0
 11
227.044858
 21
90.190254
 31
0.0
  0
LINE
  5
78
100
AcDbEntity
  8
0
  6
HIDDEN
 62
   174
100
AcDbLine
 10
238.794858
 20
102.190254
 30
0.0
 11
238.794858
 21
90.190254
 31
0.0
  0
ARC
  5
79
100
AcDbEntity
  8
0
  6
Continuous
 62
   174
100
AcDbCircle
 10
166.919858
 20
57.190254
 30
0.0
 40
2.1
100
AcDbArc
 50
90.0
 51
270.0
  0
ARC
  5
7A
100
AcDbEntity
  8
0
  6
Continuous
 62
   174
100
AcDbCircle
 10
166.919858
 20
57.190254
 30
0.0
 40
2.1
100
AcDbArc
 50
-90.0
 51
90.0
  0
ARC
  5
7B
100
AcDbEntity
  8
0
  6
Continuous
 62
   174
100
AcDbCircle
 10
166.919858
 20
97.190254
 30
0.0
 40
2.1
100
AcDbArc
 50
90.0
 51
270.0
  0
ARC
  5
7C
100
AcDbEntity
  8
0
  6
Continuous
 62
   174
100
AcDbCircle
 10
166.919858
 20
97.190254
 30
0.0
 40
2.1
100
AcDbArc
 50
-90.0
 51
90.0
  0
LINE
  5
7D
100
AcDbEntity
  8
0
  6
HIDDEN
 62
   174
100
AcDbLine
 10
238.044858
 20
62.190254
 30
0.0
 11
238.044858
 21
52.190254
 31
0.0
  0
LINE
  5
7E
100
AcDbEntity
  8
0
  6
HIDDEN
 62
   174
100
AcDbLine
 10
249.794858
 20
52.190254
 30
0.0
 11
249.794858
 21
64.190254
 31
0.0
  0
LINE
  5
7F
100
AcDbEntity
  8
0
  6
HIDDEN
 62
   174
100
AcDbLine
 10
237.365413
 20
62.190254
 30
0.0
 11
250.52536
 21
62.190254
 31
0.0
  0
LINE
  5
80
100
AcDbEntity
  8
0
  6
HIDDEN
 62
   174
100
AcDbLine
 10
250.499858
 20
62.190254
 30
0.0
 11
250.499858
 21
52.190254
 31
0.0
  0
LINE
  5
81
100
AcDbEntity
  8
0
  6
HIDDEN
 62
   174
100
AcDbLine
 10
228.499858
 20
62.190254
 30
0.0
 11
228.499858
 21
52.190254
 31
0.0
  0
LINE
  5
82
100
AcDbEntity
  8
0
  6
HIDDEN
 62
   174
100
AcDbLine
 10
194.044858
 20
62.190254
 30
0.0
 11
194.044858
 21
52.190254
 31
0.0
  0
LINE
  5
83
100
AcDbEntity
  8
0
  6
HIDDEN
 62
   174
100
AcDbLine
 10
205.794858
 20
52.190254
 30
0.0
 11
205.794858
 21
64.190254
 31
0.0
  0
LINE
  5
84
100
AcDbEntity
  8
0
  6
HIDDEN
 62
   174
100
AcDbLine
 10
193.365641
 20
52.190254
 30
0.0
 11
206.525588
 21
52.190254
 31
0.0
  0
LINE
  5
85
100
AcDbEntity
  8
0
  6
HIDDEN
 62
   174
100
AcDbLine
 10
206.499858
 20
62.190254
 30
0.0
 11
206.499858
 21
52.190254
 31
0.0
  0
LINE
  5
86
100
AcDbEntity
  8
0
  6
HIDDEN
 62
   174
100
AcDbLine
 10
227.820568
 20
52.190254
 30
0.0
 11
216.070433
 21
52.190254
 31
0.0
  0
LINE
  5
87
100
AcDbEntity
  8
0
  6
HIDDEN
 62
   174
100
AcDbLine
 10
249.820604
 20
52.190254
 30
0.0
 11
238.070469
 21
52.190254
 31
0.0
  0
LINE
  5
88
100
AcDbEntity
  8
0
  6
HIDDEN
 62
   174
100
AcDbLine
 10
216.794858
 20
92.190254
 30
0.0
 11
216.794858
 21
102.190254
 31
0.0
  0
LINE
  5
89
100
AcDbEntity
  8
0
  6
HIDDEN
 62
   174
100
AcDbLine
 10
217.525606
 20
92.190254
 30
0.0
 11
204.365358
 21
92.190254
 31
0.0
  0
ARC
  5
8A
100
AcDbEntity
  8
0
  6
Continuous
 62
   174
100
AcDbCircle
 10
166.919858
 20
77.190254
 30
0.0
 40
12.5
100
AcDbArc
 50
-180.0
 51
0.0
  0
LINE
  5
8B
100
AcDbEntity
  8
0
  6
HIDDEN
 62
   174
100
AcDbLine
 10
226.339858
 20
92.190254
 30
0.0
 11
226.339858
 21
102.190254
 31
0.0
  0
ARC
  5
8C
100
AcDbEntity
  8
0
  6
Continuous
 62
   174
100
AcDbCircle
 10
210.919858
 20
59.190254
 30
0.0
 40
2.75
100
AcDbArc
 50
-180.0
 51
0.0
  0
ARC
  5
8D
100
AcDbEntity
  8
0
  6
Continuous
 62
   174
100
AcDbCircle
 10
210.919858
 20
59.190254
 30
0.0
 40
2.75
100
AcDbArc
 50
-360.0
 51
-180.0
  0
LINE
  5
8E
100
AcDbEntity
  8
0
  6
HIDDEN
 62
   174
100
AcDbLine
 10
216.044858
 20
62.190254
 30
0.0
 11
216.044858
 21
52.190254
 31
0.0
  0
LINE
  5
8F
100
AcDbEntity
  8
0
  6
HIDDEN
 62
   174
100
AcDbLine
 10
227.794858
 20
52.190254
 30
0.0
 11
227.794858
 21
64.190254
 31
0.0
  0
LINE
  5
90
100
AcDbEntity
  8
0
  6
HIDDEN
 62
   174
100
AcDbLine
 10
216.794858
 20
92.190254
 30
0.0
 11
216.794858
 21
102.190254
 31
0.0
  0
LINE
  5
91
100
AcDbEntity
  8
0
  6
HIDDEN
 62
   174
100
AcDbLine
 10
205.044858
 20
102.190254
 30
0.0
 11
205.044858
 21
90.190254
 31
0.0
  0
LINE
  5
92
100
AcDbEntity
  8
0
  6
HIDDEN
 62
   174
100
AcDbLine
 10
217.525606
 20
102.190254
 30
0.0
 11
204.365358
 21
102.190254
 31
0.0
  0
LINE
  5
93
100
AcDbEntity
  8
0
  6
HIDDEN
 62
   174
100
AcDbLine
 10
227.044858
 20
92.190254
 30
0.0
 11
227.044858
 21
102.190254
 31
0.0
  0
LINE
  5
94
100
AcDbEntity
  8
0
  6
HIDDEN
 62
   174
100
AcDbLine
 10
227.044858
 20
102.190254
 30
0.0
 11
227.044858
 21
90.190254
 31
0.0
  0
LINE
  5
95
100
AcDbEntity
  8
0
  6
HIDDEN
 62
   174
100
AcDbLine
 10
227.070451
 20
102.190254
 30
0.0
 11
238.820586
 21
102.190254
 31
0.0
  0
LINE
  5
96
100
AcDbEntity
  8
0
  6
HIDDEN
 62
   174
100
AcDbLine
 10
238.044858
 20
62.190254
 30
0.0
 11
238.044858
 21
52.190254
 31
0.0
  0
LINE
  5
97
100
AcDbEntity
  8
0
  6
HIDDEN
 62
   174
100
AcDbLine
 10
249.794858
 20
62.190254
 30
0.0
 11
249.794858
 21
52.190254
 31
0.0
  0
LINE
  5
98
100
AcDbEntity
  8
0
  6
HIDDEN
 62
   174
100
AcDbLine
 10
237.365413
 20
52.190254
 30
0.0
 11
250.52536
 21
52.190254
 31
0.0
  0
LINE
  5
99
100
AcDbEntity
  8
0
  6
HIDDEN
 62
   174
100
AcDbLine
 10
205.794858
 20
62.190254
 30
0.0
 11
205.794858
 21
52.190254
 31
0.0
  0
LINE
  5
9A
100
AcDbEntity
  8
0
  6
HIDDEN
 62
   174
100
AcDbLine
 10
194.044858
 20
52.190254
 30
0.0
 11
194.044858
 21
64.190254
 31
0.0
  0
LINE
  5
9B
100
AcDbEntity
  8
0
  6
HIDDEN
 62
   174
100
AcDbLine
 10
193.339858
 20
62.190254
 30
0.0
 11
193.339858
 21
52.190254
 31
0.0
  0
LINE
  5
9C
100
AcDbEntity
  8
0
  6
HIDDEN
 62
   174
100
AcDbLine
 10
204.339858
 20
92.190254
 30
0.0
 11
204.339858
 21
102.190254
 31
0.0
  0
ARC
  5
9D
100
AcDbEntity
  8
0
  6
Continuous
 62
   174
100
AcDbCircle
 10
166.919858
 20
77.190254
 30
0.0
 40
12.5
100
AcDbArc
 50
0.0
 51
180.0
  0
LINE
  5
9E
100
AcDbEntity
  8
0
  6
HIDDEN
 62
   174
100
AcDbLine
 10
239.525342
 20
92.190254
 30
0.0
 11
226.365395
 21
92.190254
 31
0.0
  0
LINE
  5
9F
100
AcDbEntity
  8
0
  6
HIDDEN
 62
   174
100
AcDbLine
 10
205.070415
 20
102.190254
 30
0.0
 11
216.82055
 21
102.190254
 31
0.0
  0
ARC
  5
A0
100
AcDbEntity
  8
0
  6
Continuous
 62
   174
100
AcDbCircle
 10
166.919858
 20
57.190254
 30
0.0
 40
2.5
100
AcDbArc
 50
-270.0
 51
-90.0
  0
ARC
  5
A1
100
AcDbEntity
  8
0
  6
Continuous
 62
   174
100
AcDbCircle
 10
199.919858
 20
95.190254
 30
0.0
 40
2.75
100
AcDbArc
 50
-180.0
 51
0.0
  0
LINE
  5
A2
100
AcDbEntity
  8
0
  6
HIDDEN
 62
   174
100
AcDbLine
 10
227.820568
 20
64.190254
 30
0.0
 11
216.070433
 21
64.190254
 31
0.0
  0
LINE
  5
A3
100
AcDbEntity
  8
0
  6
HIDDEN
 62
   174
100
AcDbLine
 10
238.044858
 20
52.190254
 30
0.0
 11
238.044858
 21
64.190254
 31
0.0
  0
LINE
  5
A4
100
AcDbEntity
  8
0
  6
HIDDEN
 62
   174
100
AcDbLine
 10
237.339858
 20
62.190254
 30
0.0
 11
237.339858
 21
52.190254
 31
0.0
  0
LINE
  5
A5
100
AcDbEntity
  8
0
  6
HIDDEN
 62
   174
100
AcDbLine
 10
216.044858
 20
52.190254
 30
0.0
 11
216.044858
 21
64.190254
 31
0.0
  0
LINE
  5
A6
100
AcDbEntity
  8
0
  6
HIDDEN
 62
   174
100
AcDbLine
 10
215.339858
 20
62.190254
 30
0.0
 11
215.339858
 21
52.190254
 31
0.0
  0
LINE
  5
A7
100
AcDbEntity
  8
0
  6
HIDDEN
 62
   174
100
AcDbLine
 10
205.044858
 20
92.190254
 30
0.0
 11
205.044858
 21
102.190254
 31
0.0
  0
LINE
  5
A8
100
AcDbEntity
  8
0
  6
HIDDEN
 62
   174
100
AcDbLine
 10
216.794858
 20
102.190254
 30
0.0
 11
216.794858
 21
90.190254
 31
0.0
  0
LINE
  5
A9
100
AcDbEntity
  8
0
  6
HIDDEN
 62
   174
100
AcDbLine
 10
217.499858
 20
92.190254
 30
0.0
 11
217.499858
 21
102.190254
 31
0.0
  0
LINE
  5
AA
100
AcDbEntity
  8
0
  6
HIDDEN
 62
   174
100
AcDbLine
 10
238.794858
 20
92.190254
 30
0.0
 11
238.794858
 21
102.190254
 31
0.0
  0
LINE
  5
AB
100
AcDbEntity
  8
0
  6
HIDDEN
 62
   174
100
AcDbLine
 10
238.794858
 20
102.190254
 30
0.0
 11
238.794858
 21
90.190254
 31
0.0
  0
LINE
  5
AC
100
AcDbEntity
  8
0
  6
HIDDEN
 62
   174
100
AcDbLine
 10
239.525342
 20
102.190254
 30
0.0
 11
226.365395
 21
102.190254
 31
0.0
  0
ARC
  5
AD
100
AcDbEntity
  8
0
  6
Continuous
 62
   174
100
AcDbCircle
 10
232.919858
 20
59.190254
 30
0.0
 40
2.75
100
AcDbArc
 50
-180.0
 51
0.0
  0
LINE
  5
AE
100
AcDbEntity
  8
0
  6
HIDDEN
 62
   174
100
AcDbLine
 10
249.794858
 20
52.190254
 30
0.0
 11
249.794858
 21
64.190254
 31
0.0
  0
LINE
  5
AF
100
AcDbEntity
  8
0
  6
HIDDEN
 62
   174
100
AcDbLine
 10
250.499858
 20
62.190254
 30
0.0
 11
250.499858
 21
52.190254
 31
0.0
  0
LINE
  5
B0
100
AcDbEntity
  8
0
  6
HIDDEN
 62
   174
100
AcDbLine
 10
227.794858
 20
62.190254
 30
0.0
 11
227.794858
 21
52.190254
 31
0.0
  0
LINE
  5
B1
100
AcDbEntity
  8
0
  6
HIDDEN
 62
   174
100
AcDbLine
 10
228.499858
 20
62.190254
 30
0.0
 11
228.499858
 21
52.190254
 31
0.0
  0
LINE
  5
B2
100
AcDbEntity
  8
0
  6
HIDDEN
 62
   174
100
AcDbLine
 10
205.794858
 20
52.190254
 30
0.0
 11
205.794858
 21
64.190254
 31
0.0
  0
LINE
  5
B3
100
AcDbEntity
  8
0
  6
HIDDEN
 62
   174
100
AcDbLine
 10
193.339858
 20
62.190254
 30
0.0
 11
193.339858
 21
52.190254
 31
0.0
  0
LINE
  5
B4
100
AcDbEntity
  8
0
  6
HIDDEN
 62
   174
100
AcDbLine
 10
206.499858
 20
62.190254
 30
0.0
 11
206.499858
 21
52.190254
 31
0.0
  0
LINE
  5
B5
100
AcDbEntity
  8
0
  6
HIDDEN
 62
   174
100
AcDbLine
 10
227.070451
 20
90.190254
 30
0.0
 11
238.820586
 21
90.190254
 31
0.0
  0
LINE
  5
B6
100
AcDbEntity
  8
0
  6
HIDDEN
 62
   174
100
AcDbLine
 10
205.070415
 20
90.190254
 30
0.0
 11
216.82055
 21
90.190254
 31
0.0
  0
LINE
  5
B7
100
AcDbEntity
  8
0
  6
HIDDEN
 62
   174
100
AcDbLine
 10
217.499858
 20
92.190254
 30
0.0
 11
217.499858
 21
102.190254
 31
0.0
  0
LINE
  5
B8
100
AcDbEntity
  8
0
  6
HIDDEN
 62
   174
100
AcDbLine
 10
226.339858
 20
92.190254
 30
0.0
 11
226.339858
 21
102.190254
 31
0.0
  0
ARC
  5
B9
100
AcDbEntity
  8
0
  6
Continuous
 62
   174
100
AcDbCircle
 10
166.919858
 20
57.190254
 30
0.0
 40
2.5
100
AcDbArc
 50
-90.0
 51
28.774077
  0
ARC
  5
BA
100
AcDbEntity
  8
0
  6
Continuous
 62
   174
100
AcDbCircle
 10
232.919858
 20
59.190254
 30
0.0
 40
2.75
100
AcDbArc
 50
-360.0
 51
-180.0
  0
LINE
  5
BB
100
AcDbEntity
  8
0
  6
HIDDEN
 62
   174
100
AcDbLine
 10
227.794858
 20
52.190254
 30
0.0
 11
227.794858
 21
64.190254
 31
0.0
  0
LINE
  5
BC
100
AcDbEntity
  8
0
  6
HIDDEN
 62
   174
100
AcDbLine
 10
215.365376
 20
62.190254
 30
0.0
 11
228.525624
 21
62.190254
 31
0.0
  0
LINE
  5
BD
100
AcDbEntity
  8
0
  6
HIDDEN
 62
   174
100
AcDbLine
 10
205.044858
 20
102.190254
 30
0.0
 11
205.044858
 21
90.190254
 31
0.0
  0
LINE
  5
BE
100
AcDbEntity
  8
0
  6
HIDDEN
 62
   174
100
AcDbLine
 10
227.044858
 20
92.190254
 30
0.0
 11
227.044858
 21
102.190254
 31
0.0
  0
LINE
  5
BF
100
AcDbEntity
  8
0
  6
HIDDEN
 62
   174
100
AcDbLine
 10
239.499858
 20
92.190254
 30
0.0
 11
239.499858
 21
102.190254
 31
0.0
  0
ARC
  5
C0
100
AcDbEntity
  8
0
  6
HIDDEN
 62
   174
100
AcDbCircle
 10
166.919858
 20
77.190254
 30
0.0
 40
4.0
100
AcDbArc
 50
-180.0
 51
0.0
  0
ARC
  5
C1
100
AcDbEntity
  8
0
  6
Continuous
 62
   174
100
AcDbCircle
 10
166.919858
 20
97.190254
 30
0.0
 40
2.5
100
AcDbArc
 50
-270.0
 51
-90.0
  0
LINE
  5
C2
100
AcDbEntity
  8
0
  6
HIDDEN
 62
   174
100
AcDbLine
 10
249.820604
 20
64.190254
 30
0.0
 11
238.070469
 21
64.190254
 31
0.0
  0
LINE
  5
C3
100
AcDbEntity
  8
0
  6
HIDDEN
 62
   174
100
AcDbLine
 10
249.794858
 20
62.190254
 30
0.0
 11
249.794858
 21
52.190254
 31
0.0
  0
LINE
  5
C4
100
AcDbEntity
  8
0
  6
HIDDEN
 62
   174
100
AcDbLine
 10
238.044858
 20
52.190254
 30
0.0
 11
238.044858
 21
64.190254
 31
0.0
  0
LINE
  5
C5
100
AcDbEntity
  8
0
  6
HIDDEN
 62
   174
100
AcDbLine
 10
237.339858
 20
62.190254
 30
0.0
 11
237.339858
 21
52.190254
 31
0.0
  0
LINE
  5
C6
100
AcDbEntity
  8
0
  6
HIDDEN
 62
   174
100
AcDbLine
 10
216.044858
 20
62.190254
 30
0.0
 11
216.044858
 21
52.190254
 31
0.0
  0
LINE
  5
C7
100
AcDbEntity
  8
0
  6
HIDDEN
 62
   174
100
AcDbLine
 10
215.365376
 20
52.190254
 30
0.0
 11
228.525624
 21
52.190254
 31
0.0
  0
LINE
  5
C8
100
AcDbEntity
  8
0
  6
HIDDEN
 62
   174
100
AcDbLine
 10
194.044858
 20
62.190254
 30
0.0
 11
194.044858
 21
52.190254
 31
0.0
  0
LINE
  5
C9
100
AcDbEntity
  8
0
  6
HIDDEN
 62
   174
100
AcDbLine
 10
205.794858
 20
62.190254
 30
0.0
 11
205.794858
 21
52.190254
 31
0.0
  0
LINE
  5
CA
100
AcDbEntity
  8
0
  6
HIDDEN
 62
   174
100
AcDbLine
 10
194.044858
 20
52.190254
 30
0.0
 11
194.044858
 21
64.190254
 31
0.0
  0
LINE
  5
CB
100
AcDbEntity
  8
0
  6
HIDDEN
 62
   174
100
AcDbLine
 10
193.365641
 20
62.190254
 30
0.0
 11
206.525588
 21
62.190254
 31
0.0
  0
LINE
  5
CC
100
AcDbEntity
  8
0
  6
HIDDEN
 62
   174
100
AcDbLine
 10
204.339858
 20
92.190254
 30
0.0
 11
204.339858
 21
102.190254
 31
0.0
  0
LINE
  5
CD
100
AcDbEntity
  8
0
  6
HIDDEN
 62
   174
100
AcDbLine
 10
239.499858
 20
92.190254
 30
0.0
 11
239.499858
 21
102.190254
 31
0.0
  0
ARC
  5
CE
100
AcDbEntity
  8
0
  6
HIDDEN
 62
   174
100
AcDbCircle
 10
166.919858
 20
77.190254
 30
0.0
 40
4.0
100
AcDbArc
 50
0.0
 51
180.0
  0
ARC
  5
CF
100
AcDbEntity
  8
0
  6
Continuous
 62
   174
100
AcDbCircle
 10
166.919858
 20
97.190254
 30
0.0
 40
2.5
100
AcDbArc
 50
-90.0
 51
28.810059
  0
ARC
  5
D0
100
AcDbEntity
  8
0
  6
Continuous
 62
   174
100
AcDbCircle
 10
243.919858
 20
95.190254
 30
0.0
 40
2.75
100
AcDbArc
 50
-360.0
 51
-180.0
  0
ARC
  5
D1
100
AcDbEntity
  8
0
  6
Continuous
 62
   174
100
AcDbCircle
 10
199.919858
 20
95.190254
 30
0.0
 40
2.75
100
AcDbArc
 50
-360.0
 51
-180.0
  0
ARC
  5
D2
100
AcDbEntity
  8
0
  6
Continuous
 62
   174
100
AcDbCircle
 10
243.919858
 20
95.190254
 30
0.0
 40
2.75
100
AcDbArc
 50
-180.0
 51
0.0
  0
ENDBLK
  5
D3
100
AcDbEntity
  8
0
100
AcDbBlockEnd
  0
BLOCK
  5
D6
100
AcDbEntity
  8
0
100
AcDbBlockBegin
  2
*B4
 70
     0
 10
0.0
 20
0.0
 30
0.0
  3
*B4
  1

  0
LINE
  5
D7
100
AcDbEntity
  8
0
  6
Continuous
 62
     0
100
AcDbLine
 10
122.945638
 20
269.474759
 30
0.0
 11
122.945638
 21
159.482689
 31
0.0
  0
SOLID
  5
D8
100
AcDbEntity
  8
0
  6
Continuous
 62
     0
100
AcDbTrace
 10
123.945394
 20
264.475079
 30
0.0
 11
122.945638
 21
269.474759
 31
0.0
 12
121.945581
 22
264.475079
 32
0.0
 13
121.945581
 23
264.475079
 33
0.0
  0
SOLID
  5
D9
100
AcDbEntity
  8
0
  6
Continuous
 62
     0
100
AcDbTrace
 10
121.945581
 20
164.482369
 30
0.0
 11
122.945638
 21
159.482689
 31
0.0
 12
123.945394
 22
164.482369
 32
0.0
 13
123.945394
 23
164.482369
 33
0.0
  0
ENDBLK
  5
DA
100
AcDbEntity
  8
0
100
AcDbBlockEnd
  0
BLOCK
  5
DD
100
AcDbEntity
  8
0
100
AcDbBlockBegin
  2
*B5
 70
     0
 10
0.0
 20
0.0
 30
0.0
  3
*B5
  1

  0
LINE
  5
DE
100
AcDbEntity
  8
0
  6
Continuous
 62
     0
100
AcDbLine
 10
138.945637
 20
179.481411
 30
0.0
 11
138.945637
 21
213.478818
 31
0.0
  0
SOLID
  5
DF
100
AcDbEntity
  8
0
  6
Continuous
 62
     0
100
AcDbTrace
 10
139.945393
 20
184.481091
 30
0.0
 11
138.945637
 21
189.480772
 31
0.0
 12
137.94558
 22
184.481091
 32
0.0
 13
137.94558
 23
184.481091
 33
0.0
  0
SOLID
  5
E0
100
AcDbEntity
  8
0
  6
Continuous
 62
     0
100
AcDbTrace
 10
137.94558
 20
208.479137
 30
0.0
 11
138.945637
 21
203.479757
 31
0.0
 12
139.945393
 22
208.479137
 32
0.0
 13
139.945393
 23
208.479137
 33
0.0
  0
ENDBLK
  5
E1
100
AcDbEntity
  8
0
100
AcDbBlockEnd
  0
BLOCK
  5
E4
100
AcDbEntity
  8
0
100
AcDbBlockBegin
  2
*B6
 70
     0
 10
0.0
 20
0.0
 30
0.0
  3
*B6
  1

  0
LINE
  5
E5
100
AcDbEntity
  8
0
  6
Continuous
 62
     0
100
AcDbLine
 10
290.945477
 20
189.480772
 30
0.0
 11
290.945477
 21
159.482689
 31
0.0
  0
SOLID
  5
E6
100
AcDbEntity
  8
0
  6
Continuous
 62
     0
100
AcDbTrace
 10
291.945534
 20
184.481091
 30
0.0
 11
290.945477
 21
189.480772
 31
0.0
 12
289.945421
 22
184.481091
 32
0.0
 13
289.945421
 23
184.481091
 33
0.0
  0
SOLID
  5
E7
100
AcDbEntity
  8
0
  6
Continuous
 62
     0
100
AcDbTrace
 10
289.945421
 20
164.482369
 30
0.0
 11
290.945477
 21
159.482689
 31
0.0
 12
291.945534
 22
164.482369
 32
0.0
 13
291.945534
 23
164.482369
 33
0.0
  0
ENDBLK
  5
E8
100
AcDbEntity
  8
0
100
AcDbBlockEnd
  0
BLOCK
  5
EB
100
AcDbEntity
  8
0
100
AcDbBlockBegin
  2
*B7
 70
     0
 10
0.0
 20
0.0
 30
0.0
  3
*B7
  1

  0
LINE
  5
EC
100
AcDbEntity
  8
0
  6
Continuous
 62
     0
100
AcDbLine
 10
181.945353
 20
144.040847
 30
0.0
 11
261.945348
 21
144.040847
 31
0.0
  0
SOLID
  5
ED
100
AcDbEntity
  8
0
  6
Continuous
 62
     0
100
AcDbTrace
 10
186.945634
 20
145.040903
 30
0.0
 11
181.945353
 21
144.040847
 31
0.0
 12
186.945634
 22
143.041091
 32
0.0
 13
186.945634
 23
143.041091
 33
0.0
  0
SOLID
  5
EE
100
AcDbEntity
  8
0
  6
Continuous
 62
     0
100
AcDbTrace
 10
256.945367
 20
143.041091
 30
0.0
 11
261.945348
 21
144.040847
 31
0.0
 12
256.945367
 22
145.040903
 32
0.0
 13
256.945367
 23
145.040903
 33
0.0
  0
ENDBLK
  5
EF
100
AcDbEntity
  8
0
100
AcDbBlockEnd
  0
BLOCK
  5
F2
100
AcDbEntity
  8
0
100
AcDbBlockBegin
  2
*B8
 70
     0
 10
0.0
 20
0.0
 30
0.0
  3
*B8
  1

  0
LINE
  5
F3
100
AcDbEntity
  8
0
  6
Continuous
 62
     0
100
AcDbLine
 10
181.945353
 20
144.040847
 30
0.0
 11
151.945467
 21
144.040847
 31
0.0
  0
SOLID
  5
F4
100
AcDbEntity
  8
0
  6
Continuous
 62
     0
100
AcDbTrace
 10
176.945372
 20
143.041091
 30
0.0
 11
181.945353
 21
144.040847
 31
0.0
 12
176.945372
 22
145.040903
 32
0.0
 13
176.945372
 23
145.040903
 33
0.0
  0
SOLID
  5
F5
100
AcDbEntity
  8
0
  6
Continuous
 62
     0
100
AcDbTrace
 10
156.945448
 20
145.040903
 30
0.0
 11
151.945467
 21
144.040847
 31
0.0
 12
156.945448
 22
143.041091
 32
0.0
 13
156.945448
 23
143.041091
 33
0.0
  0
ENDBLK
  5
F6
100
AcDbEntity
  8
0
100
AcDbBlockEnd
  0
BLOCK
  5
F9
100
AcDbEntity
  8
0
100
AcDbBlockBegin
  2
*B9
 70
     0
 10
0.0
 20
0.0
 30
0.0
  3
*B9
  1

  0
LINE
  5
FA
100
AcDbEntity
  8
0
  6
Continuous
 62
     0
100
AcDbLine
 10
291.025686
 20
102.234349
 30
0.0
 11
291.025686
 21
52.237844
 31
0.0
  0
SOLID
  5
FB
100
AcDbEntity
  8
0
  6
Continuous
 62
     0
100
AcDbTrace
 10
292.025442
 20
97.234669
 30
0.0
 11
291.025686
 21
102.234349
 31
0.0
 12
290.02563
 22
97.234669
 32
0.0
 13
290.02563
 23
97.234669
 33
0.0
  0
SOLID
  5
FC
100
AcDbEntity
  8
0
  6
Continuous
 62
     0
100
AcDbTrace
 10
290.02563
 20
57.237525
 30
0.0
 11
291.025686
 21
52.237844
 31
0.0
 12
292.025442
 22
57.237525
 32
0.0
 13
292.025442
 23
57.237525
 33
0.0
  0
ENDBLK
  5
FD
100
AcDbEntity
  8
0
100
AcDbBlockEnd
  0
BLOCK
  5
100
100
AcDbEntity
  8
0
100
AcDbBlockBegin
  2
*B10
 70
     0
 10
0.0
 20
0.0
 30
0.0
  3
*B10
  1

  0
LINE
  5
101
100
AcDbEntity
  8
0
  6
Continuous
 62
     0
100
AcDbLine
 10
277.025499
 20
59.237337
 30
0.0
 11
277.025499
 21
95.234857
 31
0.0
  0
SOLID
  5
102
100
AcDbEntity
  8
0
  6
Continuous
 62
     0
100
AcDbTrace
 10
276.025743
 20
64.237018
 30
0.0
 11
277.025499
 21
59.237337
 31
0.0
 12
278.025556
 22
64.237018
 32
0.0
 13
278.025556
 23
64.237018
 33
0.0
  0
SOLID
  5
103
100
AcDbEntity
  8
0
  6
Continuous
 62
     0
100
AcDbTrace
 10
278.025556
 20
90.235176
 30
0.0
 11
277.025499
 21
95.234857
 31
0.0
 12
276.025743
 22
90.235176
 32
0.0
 13
276.025743
 23
90.235176
 33
0.0
  0
ENDBLK
  5
104
100
AcDbEntity
  8
0
100
AcDbBlockEnd
  0
BLOCK
  5
107
100
AcDbEntity
  8
0
100
AcDbBlockBegin
  2
*B11
 70
     0
 10
0.0
 20
0.0
 30
0.0
  3
*B11
  1

  0
LINE
  5
108
100
AcDbEntity
  8
0
  6
Continuous
 62
     0
100
AcDbLine
 10
243.945537
 20
35.27534
 30
0.0
 11
261.945348
 21
35.27534
 31
0.0
  0
SOLID
  5
109
100
AcDbEntity
  8
0
  6
Continuous
 62
     0
100
AcDbTrace
 10
248.945518
 20
36.275396
 30
0.0
 11
243.945537
 21
35.27534
 31
0.0
 12
248.945518
 22
34.275284
 32
0.0
 13
248.945518
 23
34.275284
 33
0.0
  0
SOLID
  5
10A
100
AcDbEntity
  8
0
  6
Continuous
 62
     0
100
AcDbTrace
 10
256.945367
 20
34.275284
 30
0.0
 11
261.945348
 21
35.27534
 31
0.0
 12
256.945367
 22
36.275396
 32
0.0
 13
256.945367
 23
36.275396
 33
0.0
  0
ENDBLK
  5
10B
100
AcDbEntity
  8
0
100
AcDbBlockEnd
  0
BLOCK
  5
10E
100
AcDbEntity
  8
0
100
AcDbBlockBegin
  2
*B12
 70
     0
 10
0.0
 20
0.0
 30
0.0
  3
*B12
  1

  0
LINE
  5
10F
100
AcDbEntity
  8
0
  6
Continuous
 62
     0
100
AcDbLine
 10
221.9455
 20
35.27534
 30
0.0
 11
243.945537
 21
35.27534
 31
0.0
  0
SOLID
  5
110
100
AcDbEntity
  8
0
  6
Continuous
 62
     0
100
AcDbTrace
 10
226.945481
 20
36.275396
 30
0.0
 11
221.9455
 21
35.27534
 31
0.0
 12
226.945481
 22
34.275284
 32
0.0
 13
226.945481
 23
34.275284
 33
0.0
  0
SOLID
  5
111
100
AcDbEntity
  8
0
  6
Continuous
 62
     0
100
AcDbTrace
 10
238.945556
 20
34.275284
 30
0.0
 11
243.945537
 21
35.27534
 31
0.0
 12
238.945556
 22
36.275396
 32
0.0
 13
238.945556
 23
36.275396
 33
0.0
  0
ENDBLK
  5
112
100
AcDbEntity
  8
0
100
AcDbBlockEnd
  0
BLOCK
  5
115
100
AcDbEntity
  8
0
100
AcDbBlockBegin
  2
*B13
 70
     0
 10
0.0
 20
0.0
 30
0.0
  3
*B13
  1

  0
LINE
  5
116
100
AcDbEntity
  8
0
  6
Continuous
 62
     0
100
AcDbLine
 10
199.945464
 20
35.27534
 30
0.0
 11
221.9455
 21
35.27534
 31
0.0
  0
SOLID
  5
117
100
AcDbEntity
  8
0
  6
Continuous
 62
     0
100
AcDbTrace
 10
204.945445
 20
36.275396
 30
0.0
 11
199.945464
 21
35.27534
 31
0.0
 12
204.945445
 22
34.275284
 32
0.0
 13
204.945445
 23
34.275284
 33
0.0
  0
SOLID
  5
118
100
AcDbEntity
  8
0
  6
Continuous
 62
     0
100
AcDbTrace
 10
216.945519
 20
34.275284
 30
0.0
 11
221.9455
 21
35.27534
 31
0.0
 12
216.945519
 22
36.275396
 32
0.0
 13
216.945519
 23
36.275396
 33
0.0
  0
ENDBLK
  5
119
100
AcDbEntity
  8
0
100
AcDbBlockEnd
  0
BLOCK
  5
11C
100
AcDbEntity
  8
0
100
AcDbBlockBegin
  2
*B14
 70
     0
 10
0.0
 20
0.0
 30
0.0
  3
*B14
  1

  0
LINE
  5
11D
100
AcDbEntity
  8
0
  6
Continuous
 62
     0
100
AcDbLine
 10
232.945518
 20
117.26944
 30
0.0
 11
210.945482
 21
117.26944
 31
0.0
  0
SOLID
  5
11E
100
AcDbEntity
  8
0
  6
Continuous
 62
     0
100
AcDbTrace
 10
227.945538
 20
116.269383
 30
0.0
 11
232.945518
 21
117.26944
 31
0.0
 12
227.945538
 22
118.269196
 32
0.0
 13
227.945538
 23
118.269196
 33
0.0
  0
SOLID
  5
11F
100
AcDbEntity
  8
0
  6
Continuous
 62
     0
100
AcDbTrace
 10
215.945463
 20
118.269196
 30
0.0
 11
210.945482
 21
117.26944
 31
0.0
 12
215.945463
 22
116.269383
 32
0.0
 13
215.945463
 23
116.269383
 33
0.0
  0
ENDBLK
  5
120
100
AcDbEntity
  8
0
100
AcDbBlockEnd
  0
BLOCK
  5
123
100
AcDbEntity
  8
0
100
AcDbBlockBegin
  2
*B15
 70
     0
 10
0.0
 20
0.0
 30
0.0
  3
*B15
  1

  0
LINE
  5
124
100
AcDbEntity
  8
0
  6
Continuous
 62
     0
100
AcDbLine
 10
232.945518
 20
117.26944
 30
0.0
 11
261.945348
 21
117.26944
 31
0.0
  0
SOLID
  5
125
100
AcDbEntity
  8
0
  6
Continuous
 62
     0
100
AcDbTrace
 10
237.945499
 20
118.269196
 30
0.0
 11
232.945518
 21
117.26944
 31
0.0
 12
237.945499
 22
116.269383
 32
0.0
 13
237.945499
 23
116.269383
 33
0.0
  0
SOLID
  5
126
100
AcDbEntity
  8
0
  6
Continuous
 62
     0
100
AcDbTrace
 10
256.945367
 20
116.269383
 30
0.0
 11
261.945348
 21
117.26944
 31
0.0
 12
256.945367
 22
118.269196
 32
0.0
 13
256.945367
 23
118.269196
 33
0.0
  0
ENDBLK
  5
127
100
AcDbEntity
  8
0
100
AcDbBlockEnd
  0
BLOCK
  5
12A
100
AcDbEntity
  8
0
100
AcDbBlockBegin
  2
*B16
 70
     0
 10
0.0
 20
0.0
 30
0.0
  3
*B16
  1

  0
LINE
  5
12B
100
AcDbEntity
  8
0
  6
Continuous
 62
     0
100
AcDbLine
 10
243.945537
 20
130.805197
 30
0.0
 11
199.945464
 21
130.805197
 31
0.0
  0
SOLID
  5
12C
100
AcDbEntity
  8
0
  6
Continuous
 62
     0
100
AcDbTrace
 10
238.945556
 20
129.80514
 30
0.0
 11
243.945537
 21
130.805197
 31
0.0
 12
238.945556
 22
131.804953
 32
0.0
 13
238.945556
 23
131.804953
 33
0.0
  0
SOLID
  5
12D
100
AcDbEntity
  8
0
  6
Continuous
 62
     0
100
AcDbTrace
 10
204.945445
 20
131.804953
 30
0.0
 11
199.945464
 21
130.805197
 31
0.0
 12
204.945445
 22
129.80514
 32
0.0
 13
204.945445
 23
129.80514
 33
0.0
  0
ENDBLK
  5
12E
100
AcDbEntity
  8
0
100
AcDbBlockEnd
  0
BLOCK
  5
131
100
AcDbEntity
  8
0
100
AcDbBlockBegin
  2
*B17
 70
     0
 10
0.0
 20
0.0
 30
0.0
  3
*B17
  1

  0
LINE
  5
132
100
AcDbEntity
  8
0
  6
Continuous
 62
     0
100
AcDbLine
 10
144.63295
 20
35.27534
 30
0.0
 11
179.04552
 21
35.27534
 31
0.0
  0
SOLID
  5
133
100
AcDbEntity
  8
0
  6
Continuous
 62
     0
100
AcDbTrace
 10
159.845581
 20
34.275284
 30
0.0
 11
164.845562
 21
35.27534
 31
0.0
 12
159.845581
 22
36.275396
 32
0.0
 13
159.845581
 23
36.275396
 33
0.0
  0
SOLID
  5
134
100
AcDbEntity
  8
0
  6
Continuous
 62
     0
100
AcDbTrace
 10
174.045539
 20
36.275396
 30
0.0
 11
169.045558
 21
35.27534
 31
0.0
 12
174.045539
 22
34.275284
 32
0.0
 13
174.045539
 23
34.275284
 33
0.0
  0
ENDBLK
  5
135
100
AcDbEntity
  8
0
100
AcDbBlockEnd
  0
BLOCK
  5
138
100
AcDbEntity
  8
0
100
AcDbBlockBegin
  2
*B18
 70
     0
 10
0.0
 20
0.0
 30
0.0
  3
*B18
  1

  0
LINE
  5
139
100
AcDbEntity
  8
0
  6
Continuous
 62
     0
100
AcDbLine
 10
228.070507
 20
201.486855
 30
0.0
 11
276.84135
 21
201.486855
 31
0.0
  0
SOLID
  5
13A
100
AcDbEntity
  8
0
  6
Continuous
 62
     0
100
AcDbTrace
 10
233.070488
 20
200.486798
 30
0.0
 11
238.070469
 21
201.486855
 31
0.0
 12
233.070488
 22
202.48661
 32
0.0
 13
233.070488
 23
202.48661
 33
0.0
  0
SOLID
  5
13B
100
AcDbEntity
  8
0
  6
Continuous
 62
     0
100
AcDbTrace
 10
254.820585
 20
202.48661
 30
0.0
 11
249.820604
 21
201.486855
 31
0.0
 12
254.820585
 22
200.486798
 32
0.0
 13
254.820585
 23
200.486798
 33
0.0
  0
ENDBLK
  5
13C
100
AcDbEntity
  8
0
100
AcDbBlockEnd
  0
BLOCK
  5
13F
100
AcDbEntity
  8
0
100
AcDbBlockBegin
  2
*B19
 70
     0
 10
0.0
 20
0.0
 30
0.0
  3
*B19
  1

  0
LINE
  5
140
100
AcDbEntity
  8
0
  6
Continuous
 62
     0
100
AcDbLine
 10
199.945464
 20
35.498843
 30
0.0
 11
181.945353
 21
35.498843
 31
0.0
  0
SOLID
  5
141
100
AcDbEntity
  8
0
  6
Continuous
 62
     0
100
AcDbTrace
 10
194.945483
 20
34.498787
 30
0.0
 11
199.945464
 21
35.498843
 31
0.0
 12
194.945483
 22
36.498599
 32
0.0
 13
194.945483
 23
36.498599
 33
0.0
  0
SOLID
  5
142
100
AcDbEntity
  8
0
  6
Continuous
 62
     0
100
AcDbTrace
 10
186.945634
 20
36.498599
 30
0.0
 11
181.945353
 21
35.498843
 31
0.0
 12
186.945634
 22
34.498787
 32
0.0
 13
186.945634
 23
34.498787
 33
0.0
  0
ENDBLK
  5
143
100
AcDbEntity
  8
0
100
AcDbBlockEnd
  0
BLOCK
  5
146
100
AcDbEntity
  8
0
100
AcDbBlockBegin
  2
*B20
 70
     0
 10
0.0
 20
0.0
 30
0.0
  3
*B20
  1

  0
LINE
  5
147
100
AcDbEntity
  8
0
  6
Continuous
 62
     0
100
AcDbLine
 10
126.945562
 20
57.237525
 30
0.0
 11
126.945562
 21
97.234669
 31
0.0
  0
SOLID
  5
148
100
AcDbEntity
  8
0
  6
Continuous
 62
     0
100
AcDbTrace
 10
125.945506
 20
62.237206
 30
0.0
 11
126.945562
 21
57.237525
 31
0.0
 12
127.945619
 22
62.237206
 32
0.0
 13
127.945619
 23
62.237206
 33
0.0
  0
SOLID
  5
149
100
AcDbEntity
  8
0
  6
Continuous
 62
     0
100
AcDbTrace
 10
127.945619
 20
92.234988
 30
0.0
 11
126.945562
 21
97.234669
 31
0.0
 12
125.945506
 22
92.234988
 32
0.0
 13
125.945506
 23
92.234988
 33
0.0
  0
ENDBLK
  5
14A
100
AcDbEntity
  8
0
100
AcDbBlockEnd
  0
BLOCK
  5
14D
100
AcDbEntity
  8
0
100
AcDbBlockBegin
  2
*B21
 70
     0
 10
0.0
 20
0.0
 30
0.0
  3
*B21
  1

  0
LINE
  5
14E
100
AcDbEntity
  8
0
  6
Continuous
 62
     0
100
AcDbLine
 10
173.096552
 20
117.26944
 30
0.0
 11
212.695355
 21
117.26944
 31
0.0
  0
SOLID
  5
14F
100
AcDbEntity
  8
0
  6
Continuous
 62
     0
100
AcDbTrace
 10
192.195554
 20
116.269383
 30
0.0
 11
197.195535
 21
117.26944
 31
0.0
 12
192.195554
 22
118.269196
 32
0.0
 13
192.195554
 23
118.269196
 33
0.0
  0
SOLID
  5
150
100
AcDbEntity
  8
0
  6
Continuous
 62
     0
100
AcDbTrace
 10
207.695374
 20
118.269196
 30
0.0
 11
202.695394
 21
117.26944
 31
0.0
 12
207.695374
 22
116.269383
 32
0.0
 13
207.695374
 23
116.269383
 33
0.0
  0
ENDBLK
  5
151
100
AcDbEntity
  8
0
100
AcDbBlockEnd
  0
BLOCK
  5
154
100
AcDbEntity
  8
0
100
AcDbBlockBegin
  2
*B22
 70
     0
 10
0.0
 20
0.0
 30
0.0
  3
*B22
  1

  0
LINE
  5
155
100
AcDbEntity
  8
0
  6
Continuous
 62
     8
100
AcDbLine
 10
275.025687
 20
59.237337
 30
0.0
 11
279.025612
 21
59.237337
 31
0.0
  0
LINE
  5
156
100
AcDbEntity
  8
0
  6
Continuous
 62
     8
100
AcDbLine
 10
226.195364
 20
59.237337
 30
0.0
 11
229.94535
 21
59.237337
 31
0.0
  0
LINE
  5
157
100
AcDbEntity
  8
0
  6
Continuous
 62
     8
100
AcDbLine
 10
235.945387
 20
59.237337
 30
0.0
 11
245.638933
 21
59.237337
 31
0.0
  0
LINE
  5
158
100
AcDbEntity
  8
0
  6
Continuous
 62
     8
100
AcDbLine
 10
247.638745
 20
59.237337
 30
0.0
 11
248.638802
 21
59.237337
 31
0.0
  0
LINE
  5
159
100
AcDbEntity
  8
0
  6
Continuous
 62
     8
100
AcDbLine
 10
250.638914
 20
59.237337
 30
0.0
 11
260.33216
 21
59.237337
 31
0.0
  0
LINE
  5
15A
100
AcDbEntity
  8
0
  6
Continuous
 62
     8
100
AcDbLine
 10
262.332273
 20
59.237337
 30
0.0
 11
263.332329
 21
59.237337
 31
0.0
  0
LINE
  5
15B
100
AcDbEntity
  8
0
  6
Continuous
 62
     8
100
AcDbLine
 10
265.332141
 20
59.237337
 30
0.0
 11
275.025687
 21
59.237337
 31
0.0
  0
ENDBLK
  5
15C
100
AcDbEntity
  8
0
100
AcDbBlockEnd
  0
BLOCK
  5
15F
100
AcDbEntity
  8
0
100
AcDbBlockBegin
  2
*B23
 70
     0
 10
0.0
 20
0.0
 30
0.0
  3
*B23
  1

  0
LINE
  5
160
100
AcDbEntity
  8
0
  6
Continuous
 62
     8
100
AcDbLine
 10
204.195628
 20
59.237337
 30
0.0
 11
207.945614
 21
59.237337
 31
0.0
  0
LINE
  5
161
100
AcDbEntity
  8
0
  6
Continuous
 62
     8
100
AcDbLine
 10
213.945351
 20
59.237337
 30
0.0
 11
217.695336
 21
59.237337
 31
0.0
  0
ENDBLK
  5
162
100
AcDbEntity
  8
0
100
AcDbBlockEnd
  0
BLOCK
  5
165
100
AcDbEntity
  8
0
100
AcDbBlockBegin
  2
*B24
 70
     0
 10
0.0
 20
0.0
 30
0.0
  3
*B24
  1

  0
LINE
  5
166
100
AcDbEntity
  8
0
  6
Continuous
 62
     8
100
AcDbLine
 10
243.945537
 20
33.275528
 30
0.0
 11
243.945537
 21
37.275152
 31
0.0
  0
LINE
  5
167
100
AcDbEntity
  8
0
  6
Continuous
 62
     8
100
AcDbLine
 10
243.945537
 20
128.805385
 30
0.0
 11
243.945537
 21
132.805009
 31
0.0
  0
LINE
  5
168
100
AcDbEntity
  8
0
  6
Continuous
 62
     8
100
AcDbLine
 10
243.945537
 20
37.275152
 30
0.0
 11
243.945537
 21
47.265501
 31
0.0
  0
LINE
  5
169
100
AcDbEntity
  8
0
  6
Continuous
 62
     8
100
AcDbLine
 10
243.945537
 20
49.265313
 30
0.0
 11
243.945537
 21
50.265069
 31
0.0
  0
LINE
  5
16A
100
AcDbEntity
  8
0
  6
Continuous
 62
     8
100
AcDbLine
 10
243.945537
 20
52.264881
 30
0.0
 11
243.945537
 21
62.25523
 31
0.0
  0
LINE
  5
16B
100
AcDbEntity
  8
0
  6
Continuous
 62
     8
100
AcDbLine
 10
243.945537
 20
64.255042
 30
0.0
 11
243.945537
 21
65.255098
 31
0.0
  0
LINE
  5
16C
100
AcDbEntity
  8
0
  6
Continuous
 62
     8
100
AcDbLine
 10
243.945537
 20
67.25491
 30
0.0
 11
243.945537
 21
77.245259
 31
0.0
  0
LINE
  5
16D
100
AcDbEntity
  8
0
  6
Continuous
 62
     8
100
AcDbLine
 10
243.945537
 20
79.245071
 30
0.0
 11
243.945537
 21
80.244827
 31
0.0
  0
LINE
  5
16E
100
AcDbEntity
  8
0
  6
Continuous
 62
     8
100
AcDbLine
 10
243.945537
 20
82.244639
 30
0.0
 11
243.945537
 21
92.234988
 31
0.0
  0
LINE
  5
16F
100
AcDbEntity
  8
0
  6
Continuous
 62
     8
100
AcDbLine
 10
243.945537
 20
98.234425
 30
0.0
 11
243.945537
 21
111.020064
 31
0.0
  0
LINE
  5
170
100
AcDbEntity
  8
0
  6
Continuous
 62
     8
100
AcDbLine
 10
243.945537
 20
113.019876
 30
0.0
 11
243.945537
 21
114.019933
 31
0.0
  0
LINE
  5
171
100
AcDbEntity
  8
0
  6
Continuous
 62
     8
100
AcDbLine
 10
243.945537
 20
116.019745
 30
0.0
 11
243.945537
 21
128.805385
 31
0.0
  0
ENDBLK
  5
172
100
AcDbEntity
  8
0
100
AcDbBlockEnd
  0
BLOCK
  5
175
100
AcDbEntity
  8
0
100
AcDbBlockBegin
  2
*B25
 70
     0
 10
0.0
 20
0.0
 30
0.0
  3
*B25
  1

  0
LINE
  5
176
100
AcDbEntity
  8
0
  6
Continuous
 62
     8
100
AcDbLine
 10
243.945537
 20
164.607339
 30
0.0
 11
243.945537
 21
171.481862
 31
0.0
  0
LINE
  5
177
100
AcDbEntity
  8
0
  6
Continuous
 62
     8
100
AcDbLine
 10
243.945537
 20
177.481599
 30
0.0
 11
243.945537
 21
184.356122
 31
0.0
  0
ENDBLK
  5
178
100
AcDbEntity
  8
0
100
AcDbBlockEnd
  0
BLOCK
  5
17B
100
AcDbEntity
  8
0
100
AcDbBlockBegin
  2
*B26
 70
     0
 10
0.0
 20
0.0
 30
0.0
  3
*B26
  1

  0
LINE
  5
17C
100
AcDbEntity
  8
0
  6
Continuous
 62
     8
100
AcDbLine
 10
170.731444
 20
217.576976
 30
0.0
 11
174.103818
 21
230.161643
 31
0.0
  0
LINE
  5
17D
100
AcDbEntity
  8
0
  6
Continuous
 62
     8
100
AcDbLine
 10
174.62142
 20
232.093263
 30
0.0
 11
174.880071
 21
233.059072
 31
0.0
  0
LINE
  5
17E
100
AcDbEntity
  8
0
  6
Continuous
 62
     8
100
AcDbLine
 10
175.397973
 20
234.990993
 30
0.0
 11
178.770046
 21
247.575359
 31
0.0
  0
ENDBLK
  5
17F
100
AcDbEntity
  8
0
100
AcDbBlockEnd
  0
BLOCK
  5
182
100
AcDbEntity
  8
0
100
AcDbBlockBegin
  2
*B27
 70
     0
 10
0.0
 20
0.0
 30
0.0
  3
*B27
  1

  0
LINE
  5
183
100
AcDbEntity
  8
0
  6
Continuous
 62
     8
100
AcDbLine
 10
180.727801
 20
238.743382
 30
0.0
 11
180.727801
 21
252.229271
 31
0.0
  0
LINE
  5
184
100
AcDbEntity
  8
0
  6
Continuous
 62
     8
100
AcDbLine
 10
180.727801
 20
258.228707
 30
0.0
 11
180.727801
 21
271.714597
 31
0.0
  0
ENDBLK
  5
185
100
AcDbEntity
  8
0
100
AcDbBlockEnd
  0
BLOCK
  5
188
100
AcDbEntity
  8
0
100
AcDbBlockBegin
  2
*B28
 70
     0
 10
0.0
 20
0.0
 30
0.0
  3
*B28
  1

  0
LINE
  5
189
100
AcDbEntity
  8
0
  6
Continuous
 62
     8
100
AcDbLine
 10
232.945518
 20
115.269628
 30
0.0
 11
232.945518
 21
119.269252
 31
0.0
  0
LINE
  5
18A
100
AcDbEntity
  8
0
  6
Continuous
 62
     8
100
AcDbLine
 10
232.945518
 20
52.487783
 30
0.0
 11
232.945518
 21
56.237469
 31
0.0
  0
LINE
  5
18B
100
AcDbEntity
  8
0
  6
Continuous
 62
     8
100
AcDbLine
 10
232.945518
 20
62.237206
 30
0.0
 11
232.945518
 21
71.7454
 31
0.0
  0
LINE
  5
18C
100
AcDbEntity
  8
0
  6
Continuous
 62
     8
100
AcDbLine
 10
232.945518
 20
73.745513
 30
0.0
 11
232.945518
 21
74.745269
 31
0.0
  0
LINE
  5
18D
100
AcDbEntity
  8
0
  6
Continuous
 62
     8
100
AcDbLine
 10
232.945518
 20
76.745081
 30
0.0
 11
232.945518
 21
86.253576
 31
0.0
  0
LINE
  5
18E
100
AcDbEntity
  8
0
  6
Continuous
 62
     8
100
AcDbLine
 10
232.945518
 20
88.253388
 30
0.0
 11
232.945518
 21
89.253445
 31
0.0
  0
LINE
  5
18F
100
AcDbEntity
  8
0
  6
Continuous
 62
     8
100
AcDbLine
 10
232.945518
 20
91.253257
 30
0.0
 11
232.945518
 21
100.761452
 31
0.0
  0
LINE
  5
190
100
AcDbEntity
  8
0
  6
Continuous
 62
     8
100
AcDbLine
 10
232.945518
 20
102.761264
 30
0.0
 11
232.945518
 21
103.76132
 31
0.0
  0
LINE
  5
191
100
AcDbEntity
  8
0
  6
Continuous
 62
     8
100
AcDbLine
 10
232.945518
 20
105.761132
 30
0.0
 11
232.945518
 21
115.269628
 31
0.0
  0
ENDBLK
  5
192
100
AcDbEntity
  8
0
100
AcDbBlockEnd
  0
BLOCK
  5
195
100
AcDbEntity
  8
0
100
AcDbBlockBegin
  2
*B29
 70
     0
 10
0.0
 20
0.0
 30
0.0
  3
*B29
  1

  0
LINE
  5
196
100
AcDbEntity
  8
0
  6
Continuous
 62
     8
100
AcDbLine
 10
151.945467
 20
142.041035
 30
0.0
 11
151.945467
 21
157.482877
 31
0.0
  0
ENDBLK
  5
197
100
AcDbEntity
  8
0
100
AcDbBlockEnd
  0
BLOCK
  5
19A
100
AcDbEntity
  8
0
100
AcDbBlockBegin
  2
*B30
 70
     0
 10
0.0
 20
0.0
 30
0.0
  3
*B30
  1

  0
LINE
  5
19B
100
AcDbEntity
  8
0
  6
Continuous
 62
     8
100
AcDbLine
 10
147.945542
 20
174.48173
 30
0.0
 11
156.44557
 21
174.48173
 31
0.0
  0
LINE
  5
19C
100
AcDbEntity
  8
0
  6
Continuous
 62
     8
100
AcDbLine
 10
158.445382
 20
174.48173
 30
0.0
 11
159.445438
 21
174.48173
 31
0.0
  0
LINE
  5
19D
100
AcDbEntity
  8
0
  6
Continuous
 62
     8
100
AcDbLine
 10
161.445551
 20
174.48173
 30
0.0
 11
169.945579
 21
174.48173
 31
0.0
  0
LINE
  5
19E
100
AcDbEntity
  8
0
  6
Continuous
 62
     8
100
AcDbLine
 10
171.945391
 20
174.48173
 30
0.0
 11
172.945447
 21
174.48173
 31
0.0
  0
LINE
  5
19F
100
AcDbEntity
  8
0
  6
Continuous
 62
     8
100
AcDbLine
 10
174.94556
 20
174.48173
 30
0.0
 11
183.445587
 21
174.48173
 31
0.0
  0
LINE
  5
1A0
100
AcDbEntity
  8
0
  6
Continuous
 62
     8
100
AcDbLine
 10
185.445399
 20
174.48173
 30
0.0
 11
186.445456
 21
174.48173
 31
0.0
  0
LINE
  5
1A1
100
AcDbEntity
  8
0
  6
Continuous
 62
     8
100
AcDbLine
 10
188.445568
 20
174.48173
 30
0.0
 11
196.945596
 21
174.48173
 31
0.0
  0
LINE
  5
1A2
100
AcDbEntity
  8
0
  6
Continuous
 62
     8
100
AcDbLine
 10
202.945633
 20
174.48173
 30
0.0
 11
218.945332
 21
174.48173
 31
0.0
  0
LINE
  5
1A3
100
AcDbEntity
  8
0
  6
Continuous
 62
     8
100
AcDbLine
 10
224.945369
 20
174.48173
 30
0.0
 11
240.945368
 21
174.48173
 31
0.0
  0
LINE
  5
1A4
100
AcDbEntity
  8
0
  6
Continuous
 62
     8
100
AcDbLine
 10
246.945405
 20
174.48173
 30
0.0
 11
265.945573
 21
174.48173
 31
0.0
  0
ENDBLK
  5
1A5
100
AcDbEntity
  8
0
100
AcDbBlockEnd
  0
BLOCK
  5
1A8
100
AcDbEntity
  8
0
100
AcDbBlockBegin
  2
*B31
 70
     0
 10
0.0
 20
0.0
 30
0.0
  3
*B31
  1

  0
LINE
  5
1A9
100
AcDbEntity
  8
0
  6
Continuous
 62
     8
100
AcDbLine
 10
197.195535
 20
97.234669
 30
0.0
 11
197.195535
 21
119.269252
 31
0.0
  0
ENDBLK
  5
1AA
100
AcDbEntity
  8
0
100
AcDbBlockEnd
  0
BLOCK
  5
1AD
100
AcDbEntity
  8
0
100
AcDbBlockBegin
  2
*B32
 70
     0
 10
0.0
 20
0.0
 30
0.0
  3
*B32
  1

  0
LINE
  5
1AE
100
AcDbEntity
  8
0
  6
Continuous
 62
     8
100
AcDbLine
 10
181.945353
 20
142.041035
 30
0.0
 11
181.945353
 21
157.482877
 31
0.0
  0
ENDBLK
  5
1AF
100
AcDbEntity
  8
0
100
AcDbBlockEnd
  0
BLOCK
  5
1B2
100
AcDbEntity
  8
0
100
AcDbBlockBegin
  2
*B33
 70
     0
 10
0.0
 20
0.0
 30
0.0
  3
*B33
  1

  0
LINE
  5
1B3
100
AcDbEntity
  8
0
  6
Continuous
 62
     8
100
AcDbLine
 10
181.945353
 20
33.499031
 30
0.0
 11
181.945353
 21
50.238032
 31
0.0
  0
ENDBLK
  5
1B4
100
AcDbEntity
  8
0
100
AcDbBlockEnd
  0
BLOCK
  5
1B7
100
AcDbEntity
  8
0
100
AcDbBlockBegin
  2
*B34
 70
     0
 10
0.0
 20
0.0
 30
0.0
  3
*B34
  1

  0
LINE
  5
1B8
100
AcDbEntity
  8
0
  6
Continuous
 62
     8
100
AcDbLine
 10
153.163319
 20
238.743382
 30
0.0
 11
153.163319
 21
252.229271
 31
0.0
  0
LINE
  5
1B9
100
AcDbEntity
  8
0
  6
Continuous
 62
     8
100
AcDbLine
 10
153.163319
 20
258.228707
 30
0.0
 11
153.163319
 21
271.714597
 31
0.0
  0
ENDBLK
  5
1BA
100
AcDbEntity
  8
0
100
AcDbBlockEnd
  0
BLOCK
  5
1BD
100
AcDbEntity
  8
0
100
AcDbBlockBegin
  2
*B35
 70
     0
 10
0.0
 20
0.0
 30
0.0
  3
*B35
  1

  0
LINE
  5
1BE
100
AcDbEntity
  8
0
  6
Continuous
 62
     8
100
AcDbLine
 10
221.9455
 20
33.275528
 30
0.0
 11
221.9455
 21
37.275152
 31
0.0
  0
LINE
  5
1BF
100
AcDbEntity
  8
0
  6
Continuous
 62
     8
100
AcDbLine
 10
221.9455
 20
37.275152
 30
0.0
 11
221.9455
 21
50.256057
 31
0.0
  0
LINE
  5
1C0
100
AcDbEntity
  8
0
  6
Continuous
 62
     8
100
AcDbLine
 10
221.9455
 20
52.255869
 30
0.0
 11
221.9455
 21
53.255925
 31
0.0
  0
LINE
  5
1C1
100
AcDbEntity
  8
0
  6
Continuous
 62
     8
100
AcDbLine
 10
221.9455
 20
55.255737
 30
0.0
 11
221.9455
 21
68.236642
 31
0.0
  0
ENDBLK
  5
1C2
100
AcDbEntity
  8
0
100
AcDbBlockEnd
  0
BLOCK
  5
1C5
100
AcDbEntity
  8
0
100
AcDbBlockBegin
  2
*B36
 70
     0
 10
0.0
 20
0.0
 30
0.0
  3
*B36
  1

  0
LINE
  5
1C6
100
AcDbEntity
  8
0
  6
Continuous
 62
     8
100
AcDbLine
 10
124.94545
 20
57.237525
 30
0.0
 11
128.945675
 21
57.237525
 31
0.0
  0
LINE
  5
1C7
100
AcDbEntity
  8
0
  6
Continuous
 62
     8
100
AcDbLine
 10
128.945675
 20
57.237525
 30
0.0
 11
137.278976
 21
57.237525
 31
0.0
  0
LINE
  5
1C8
100
AcDbEntity
  8
0
  6
Continuous
 62
     8
100
AcDbLine
 10
139.278789
 20
57.237525
 30
0.0
 11
140.278845
 21
57.237525
 31
0.0
  0
LINE
  5
1C9
100
AcDbEntity
  8
0
  6
Continuous
 62
     8
100
AcDbLine
 10
142.278957
 20
57.237525
 30
0.0
 11
150.612259
 21
57.237525
 31
0.0
  0
LINE
  5
1CA
100
AcDbEntity
  8
0
  6
Continuous
 62
     8
100
AcDbLine
 10
152.612071
 20
57.237525
 30
0.0
 11
153.612127
 21
57.237525
 31
0.0
  0
LINE
  5
1CB
100
AcDbEntity
  8
0
  6
Continuous
 62
     8
100
AcDbLine
 10
155.61224
 20
57.237525
 30
0.0
 11
163.945541
 21
57.237525
 31
0.0
  0
LINE
  5
1CC
100
AcDbEntity
  8
0
  6
Continuous
 62
     8
100
AcDbLine
 10
169.945579
 20
57.237525
 30
0.0
 11
173.045483
 21
57.237525
 31
0.0
  0
ENDBLK
  5
1CD
100
AcDbEntity
  8
0
100
AcDbBlockEnd
  0
BLOCK
  5
1D0
100
AcDbEntity
  8
0
100
AcDbBlockBegin
  2
*B37
 70
     0
 10
0.0
 20
0.0
 30
0.0
  3
*B37
  1

  0
LINE
  5
1D1
100
AcDbEntity
  8
0
  6
Continuous
 62
     8
100
AcDbLine
 10
199.945464
 20
164.607339
 30
0.0
 11
199.945464
 21
171.481862
 31
0.0
  0
LINE
  5
1D2
100
AcDbEntity
  8
0
  6
Continuous
 62
     8
100
AcDbLine
 10
199.945464
 20
177.481599
 30
0.0
 11
199.945464
 21
184.356122
 31
0.0
  0
ENDBLK
  5
1D3
100
AcDbEntity
  8
0
100
AcDbBlockEnd
  0
BLOCK
  5
1D6
100
AcDbEntity
  8
0
100
AcDbBlockBegin
  2
*B38
 70
     0
 10
0.0
 20
0.0
 30
0.0
  3
*B38
  1

  0
LINE
  5
1D7
100
AcDbEntity
  8
0
  6
Continuous
 62
     8
100
AcDbLine
 10
202.695394
 20
97.234669
 30
0.0
 11
202.695394
 21
119.269252
 31
0.0
  0
ENDBLK
  5
1D8
100
AcDbEntity
  8
0
100
AcDbBlockEnd
  0
BLOCK
  5
1DB
100
AcDbEntity
  8
0
100
AcDbBlockBegin
  2
*B39
 70
     0
 10
0.0
 20
0.0
 30
0.0
  3
*B39
  1

  0
LINE
  5
1DC
100
AcDbEntity
  8
0
  6
Continuous
 62
     8
100
AcDbLine
 10
263.94546
 20
52.237844
 30
0.0
 11
293.025498
 21
52.237844
 31
0.0
  0
ENDBLK
  5
1DD
100
AcDbEntity
  8
0
100
AcDbBlockEnd
  0
BLOCK
  5
1E0
100
AcDbEntity
  8
0
100
AcDbBlockBegin
  2
*B40
 70
     0
 10
0.0
 20
0.0
 30
0.0
  3
*B40
  1

  0
LINE
  5
1E1
100
AcDbEntity
  8
0
  6
Continuous
 62
     8
100
AcDbLine
 10
221.9455
 20
164.607339
 30
0.0
 11
221.9455
 21
171.481862
 31
0.0
  0
LINE
  5
1E2
100
AcDbEntity
  8
0
  6
Continuous
 62
     8
100
AcDbLine
 10
221.9455
 20
177.481599
 30
0.0
 11
221.9455
 21
184.356122
 31
0.0
  0
ENDBLK
  5
1E3
100
AcDbEntity
  8
0
100
AcDbBlockEnd
  0
BLOCK
  5
1E6
100
AcDbEntity
  8
0
100
AcDbBlockBegin
  2
*B41
 70
     0
 10
0.0
 20
0.0
 30
0.0
  3
*B41
  1

  0
LINE
  5
1E7
100
AcDbEntity
  8
0
  6
Continuous
 62
     8
100
AcDbLine
 10
261.945348
 20
142.041035
 30
0.0
 11
261.945348
 21
157.482877
 31
0.0
  0
ENDBLK
  5
1E8
100
AcDbEntity
  8
0
100
AcDbBlockEnd
  0
BLOCK
  5
1EB
100
AcDbEntity
  8
0
100
AcDbBlockBegin
  2
*B42
 70
     0
 10
0.0
 20
0.0
 30
0.0
  3
*B42
  1

  0
LINE
  5
1EC
100
AcDbEntity
  8
0
  6
Continuous
 62
     8
100
AcDbLine
 10
136.945524
 20
203.479757
 30
0.0
 11
149.945655
 21
203.479757
 31
0.0
  0
ENDBLK
  5
1ED
100
AcDbEntity
  8
0
100
AcDbBlockEnd
  0
BLOCK
  5
1F0
100
AcDbEntity
  8
0
100
AcDbBlockBegin
  2
*B43
 70
     0
 10
0.0
 20
0.0
 30
0.0
  3
*B43
  1

  0
LINE
  5
1F1
100
AcDbEntity
  8
0
  6
Continuous
 62
     8
100
AcDbLine
 10
169.045558
 20
33.275528
 30
0.0
 11
169.045558
 21
55.237713
 31
0.0
  0
ENDBLK
  5
1F2
100
AcDbEntity
  8
0
100
AcDbBlockEnd
  0
BLOCK
  5
1F5
100
AcDbEntity
  8
0
100
AcDbBlockBegin
  2
*B44
 70
     0
 10
0.0
 20
0.0
 30
0.0
  3
*B44
  1

  0
LINE
  5
1F6
100
AcDbEntity
  8
0
  6
Continuous
 62
     8
100
AcDbLine
 10
275.025687
 20
95.234857
 30
0.0
 11
279.025612
 21
95.234857
 31
0.0
  0
LINE
  5
1F7
100
AcDbEntity
  8
0
  6
Continuous
 62
     8
100
AcDbLine
 10
237.195382
 20
95.234857
 30
0.0
 11
240.945368
 21
95.234857
 31
0.0
  0
LINE
  5
1F8
100
AcDbEntity
  8
0
  6
Continuous
 62
     8
100
AcDbLine
 10
246.945405
 20
95.234857
 30
0.0
 11
258.485556
 21
95.234857
 31
0.0
  0
LINE
  5
1F9
100
AcDbEntity
  8
0
  6
Continuous
 62
     8
100
AcDbLine
 10
260.485668
 20
95.234857
 30
0.0
 11
261.485424
 21
95.234857
 31
0.0
  0
LINE
  5
1FA
100
AcDbEntity
  8
0
  6
Continuous
 62
     8
100
AcDbLine
 10
263.485537
 20
95.234857
 30
0.0
 11
275.025687
 21
95.234857
 31
0.0
  0
ENDBLK
  5
1FB
100
AcDbEntity
  8
0
100
AcDbBlockEnd
  0
BLOCK
  5
1FE
100
AcDbEntity
  8
0
100
AcDbBlockBegin
  2
*B45
 70
     0
 10
0.0
 20
0.0
 30
0.0
  3
*B45
  1

  0
LINE
  5
1FF
100
AcDbEntity
  8
0
  6
Continuous
 62
     8
100
AcDbLine
 10
166.94541
 20
199.479833
 30
0.0
 11
166.94541
 21
209.354224
 31
0.0
  0
LINE
  5
200
100
AcDbEntity
  8
0
  6
Continuous
 62
     8
100
AcDbLine
 10
166.94541
 20
211.354036
 30
0.0
 11
166.94541
 21
212.354093
 31
0.0
  0
LINE
  5
201
100
AcDbEntity
  8
0
  6
Continuous
 62
     8
100
AcDbLine
 10
166.94541
 20
214.353905
 30
0.0
 11
166.94541
 21
224.228296
 31
0.0
  0
LINE
  5
202
100
AcDbEntity
  8
0
  6
Continuous
 62
     8
100
AcDbLine
 10
166.94541
 20
226.228108
 30
0.0
 11
166.94541
 21
227.227864
 31
0.0
  0
LINE
  5
203
100
AcDbEntity
  8
0
  6
Continuous
 62
     8
100
AcDbLine
 10
166.94541
 20
229.227676
 30
0.0
 11
166.94541
 21
239.102068
 31
0.0
  0
LINE
  5
204
100
AcDbEntity
  8
0
  6
Continuous
 62
     8
100
AcDbLine
 10
166.94541
 20
241.10188
 30
0.0
 11
166.94541
 21
242.101936
 31
0.0
  0
LINE
  5
205
100
AcDbEntity
  8
0
  6
Continuous
 62
     8
100
AcDbLine
 10
166.94541
 20
244.101748
 30
0.0
 11
166.94541
 21
253.97614
 31
0.0
  0
LINE
  5
206
100
AcDbEntity
  8
0
  6
Continuous
 62
     8
100
AcDbLine
 10
166.94541
 20
259.975576
 30
0.0
 11
166.94541
 21
273.474684
 31
0.0
  0
ENDBLK
  5
207
100
AcDbEntity
  8
0
100
AcDbBlockEnd
  0
BLOCK
  5
20A
100
AcDbEntity
  8
0
100
AcDbBlockBegin
  2
*B46
 70
     0
 10
0.0
 20
0.0
 30
0.0
  3
*B46
  1

  0
LINE
  5
20B
100
AcDbEntity
  8
0
  6
Continuous
 62
     8
100
AcDbLine
 10
261.945348
 20
33.275528
 30
0.0
 11
261.945348
 21
50.238032
 31
0.0
  0
LINE
  5
20C
100
AcDbEntity
  8
0
  6
Continuous
 62
     8
100
AcDbLine
 10
261.945348
 20
104.234161
 30
0.0
 11
261.945348
 21
119.269252
 31
0.0
  0
ENDBLK
  5
20D
100
AcDbEntity
  8
0
100
AcDbBlockEnd
  0
BLOCK
  5
210
100
AcDbEntity
  8
0
100
AcDbBlockBegin
  2
*B47
 70
     0
 10
0.0
 20
0.0
 30
0.0
  3
*B47
  1

  0
LINE
  5
211
100
AcDbEntity
  8
0
  6
Continuous
 62
     8
100
AcDbLine
 10
199.945464
 20
33.275528
 30
0.0
 11
199.945464
 21
37.498655
 31
0.0
  0
LINE
  5
212
100
AcDbEntity
  8
0
  6
Continuous
 62
     8
100
AcDbLine
 10
199.945464
 20
128.805385
 30
0.0
 11
199.945464
 21
132.805009
 31
0.0
  0
LINE
  5
213
100
AcDbEntity
  8
0
  6
Continuous
 62
     8
100
AcDbLine
 10
199.945464
 20
37.498655
 30
0.0
 11
199.945464
 21
47.433128
 31
0.0
  0
LINE
  5
214
100
AcDbEntity
  8
0
  6
Continuous
 62
     8
100
AcDbLine
 10
199.945464
 20
49.43294
 30
0.0
 11
199.945464
 21
50.432696
 31
0.0
  0
LINE
  5
215
100
AcDbEntity
  8
0
  6
Continuous
 62
     8
100
AcDbLine
 10
199.945464
 20
52.432508
 30
0.0
 11
199.945464
 21
62.366982
 31
0.0
  0
LINE
  5
216
100
AcDbEntity
  8
0
  6
Continuous
 62
     8
100
AcDbLine
 10
199.945464
 20
64.366794
 30
0.0
 11
199.945464
 21
65.36685
 31
0.0
  0
LINE
  5
217
100
AcDbEntity
  8
0
  6
Continuous
 62
     8
100
AcDbLine
 10
199.945464
 20
67.366662
 30
0.0
 11
199.945464
 21
77.300835
 31
0.0
  0
LINE
  5
218
100
AcDbEntity
  8
0
  6
Continuous
 62
     8
100
AcDbLine
 10
199.945464
 20
79.300947
 30
0.0
 11
199.945464
 21
80.300703
 31
0.0
  0
LINE
  5
219
100
AcDbEntity
  8
0
  6
Continuous
 62
     8
100
AcDbLine
 10
199.945464
 20
82.300515
 30
0.0
 11
199.945464
 21
92.234988
 31
0.0
  0
LINE
  5
21A
100
AcDbEntity
  8
0
  6
Continuous
 62
     8
100
AcDbLine
 10
199.945464
 20
98.234425
 30
0.0
 11
199.945464
 21
111.020064
 31
0.0
  0
LINE
  5
21B
100
AcDbEntity
  8
0
  6
Continuous
 62
     8
100
AcDbLine
 10
199.945464
 20
113.019876
 30
0.0
 11
199.945464
 21
114.019933
 31
0.0
  0
LINE
  5
21C
100
AcDbEntity
  8
0
  6
Continuous
 62
     8
100
AcDbLine
 10
199.945464
 20
116.019745
 30
0.0
 11
199.945464
 21
128.805385
 31
0.0
  0
ENDBLK
  5
21D
100
AcDbEntity
  8
0
100
AcDbBlockEnd
  0
BLOCK
  5
220
100
AcDbEntity
  8
0
100
AcDbBlockBegin
  2
*B48
 70
     0
 10
0.0
 20
0.0
 30
0.0
  3
*B48
  1

  0
LINE
  5
221
100
AcDbEntity
  8
0
  6
Continuous
 62
     8
100
AcDbLine
 10
136.676359
 20
255.229139
 30
0.0
 11
150.16315
 21
255.229139
 31
0.0
  0
LINE
  5
222
100
AcDbEntity
  8
0
  6
Continuous
 62
     8
100
AcDbLine
 10
156.163187
 20
255.229139
 30
0.0
 11
164.445419
 21
255.229139
 31
0.0
  0
LINE
  5
223
100
AcDbEntity
  8
0
  6
Continuous
 62
     8
100
AcDbLine
 10
166.445532
 20
255.229139
 30
0.0
 11
167.445588
 21
255.229139
 31
0.0
  0
LINE
  5
224
100
AcDbEntity
  8
0
  6
Continuous
 62
     8
100
AcDbLine
 10
169.4454
 20
255.229139
 30
0.0
 11
177.727933
 21
255.229139
 31
0.0
  0
LINE
  5
225
100
AcDbEntity
  8
0
  6
Continuous
 62
     8
100
AcDbLine
 10
183.72797
 20
255.229139
 30
0.0
 11
197.214761
 21
255.229139
 31
0.0
  0
ENDBLK
  5
226
100
AcDbEntity
  8
0
100
AcDbBlockEnd
  0
BLOCK
  5
229
100
AcDbEntity
  8
0
100
AcDbBlockBegin
  2
*B49
 70
     0
 10
0.0
 20
0.0
 30
0.0
  3
*B49
  1

  0
LINE
  5
22A
100
AcDbEntity
  8
0
  6
Continuous
 62
     8
100
AcDbLine
 10
238.070469
 20
176.481543
 30
0.0
 11
238.070469
 21
203.486667
 31
0.0
  0
ENDBLK
  5
22B
100
AcDbEntity
  8
0
100
AcDbBlockEnd
  0
BLOCK
  5
22E
100
AcDbEntity
  8
0
100
AcDbBlockBegin
  2
*B50
 70
     0
 10
0.0
 20
0.0
 30
0.0
  3
*B50
  1

  0
LINE
  5
22F
100
AcDbEntity
  8
0
  6
Continuous
 62
     8
100
AcDbLine
 10
164.845562
 20
33.275528
 30
0.0
 11
164.845562
 21
55.237713
 31
0.0
  0
ENDBLK
  5
230
100
AcDbEntity
  8
0
100
AcDbBlockEnd
  0
BLOCK
  5
233
100
AcDbEntity
  8
0
100
AcDbBlockBegin
  2
*B51
 70
     0
 10
0.0
 20
0.0
 30
0.0
  3
*B51
  1

  0
LINE
  5
234
100
AcDbEntity
  8
0
  6
Continuous
 62
     8
100
AcDbLine
 10
155.120773
 20
247.575359
 30
0.0
 11
158.493147
 21
234.990993
 31
0.0
  0
LINE
  5
235
100
AcDbEntity
  8
0
  6
Continuous
 62
     8
100
AcDbLine
 10
159.010749
 20
233.059072
 30
0.0
 11
159.2697
 21
232.093263
 31
0.0
  0
LINE
  5
236
100
AcDbEntity
  8
0
  6
Continuous
 62
     8
100
AcDbLine
 10
159.787302
 20
230.161643
 30
0.0
 11
163.159676
 21
217.576976
 31
0.0
  0
ENDBLK
  5
237
100
AcDbEntity
  8
0
100
AcDbBlockEnd
  0
BLOCK
  5
23A
100
AcDbEntity
  8
0
100
AcDbBlockBegin
  2
*B52
 70
     0
 10
0.0
 20
0.0
 30
0.0
  3
*B52
  1

  0
LINE
  5
23B
100
AcDbEntity
  8
0
  6
Continuous
 62
     8
100
AcDbLine
 10
147.945542
 20
77.235947
 30
0.0
 11
163.945541
 21
77.235947
 31
0.0
  0
LINE
  5
23C
100
AcDbEntity
  8
0
  6
Continuous
 62
     8
100
AcDbLine
 10
169.945579
 20
77.235947
 30
0.0
 11
179.374166
 21
77.235947
 31
0.0
  0
LINE
  5
23D
100
AcDbEntity
  8
0
  6
Continuous
 62
     8
100
AcDbLine
 10
181.373978
 20
77.235947
 30
0.0
 11
182.374034
 21
77.235947
 31
0.0
  0
LINE
  5
23E
100
AcDbEntity
  8
0
  6
Continuous
 62
     8
100
AcDbLine
 10
184.374146
 20
77.235947
 30
0.0
 11
193.802733
 21
77.235947
 31
0.0
  0
LINE
  5
23F
100
AcDbEntity
  8
0
  6
Continuous
 62
     8
100
AcDbLine
 10
195.802546
 20
77.235947
 30
0.0
 11
196.802602
 21
77.235947
 31
0.0
  0
LINE
  5
240
100
AcDbEntity
  8
0
  6
Continuous
 62
     8
100
AcDbLine
 10
198.802714
 20
77.235947
 30
0.0
 11
208.231301
 21
77.235947
 31
0.0
  0
LINE
  5
241
100
AcDbEntity
  8
0
  6
Continuous
 62
     8
100
AcDbLine
 10
210.231113
 20
77.235947
 30
0.0
 11
211.23117
 21
77.235947
 31
0.0
  0
LINE
  5
242
100
AcDbEntity
  8
0
  6
Continuous
 62
     8
100
AcDbLine
 10
213.231282
 20
77.235947
 30
0.0
 11
222.659869
 21
77.235947
 31
0.0
  0
LINE
  5
243
100
AcDbEntity
  8
0
  6
Continuous
 62
     8
100
AcDbLine
 10
224.659681
 20
77.235947
 30
0.0
 11
225.659738
 21
77.235947
 31
0.0
  0
LINE
  5
244
100
AcDbEntity
  8
0
  6
Continuous
 62
     8
100
AcDbLine
 10
227.65985
 20
77.235947
 30
0.0
 11
237.088437
 21
77.235947
 31
0.0
  0
LINE
  5
245
100
AcDbEntity
  8
0
  6
Continuous
 62
     8
100
AcDbLine
 10
239.088249
 20
77.235947
 30
0.0
 11
240.088305
 21
77.235947
 31
0.0
  0
LINE
  5
246
100
AcDbEntity
  8
0
  6
Continuous
 62
     8
100
AcDbLine
 10
242.088418
 20
77.235947
 30
0.0
 11
251.517005
 21
77.235947
 31
0.0
  0
LINE
  5
247
100
AcDbEntity
  8
0
  6
Continuous
 62
     8
100
AcDbLine
 10
253.516817
 20
77.235947
 30
0.0
 11
254.516873
 21
77.235947
 31
0.0
  0
LINE
  5
248
100
AcDbEntity
  8
0
  6
Continuous
 62
     8
100
AcDbLine
 10
256.516986
 20
77.235947
 30
0.0
 11
265.945573
 21
77.235947
 31
0.0
  0
ENDBLK
  5
249
100
AcDbEntity
  8
0
100
AcDbBlockEnd
  0
BLOCK
  5
24C
100
AcDbEntity
  8
0
100
AcDbBlockBegin
  2
*B53
 70
     0
 10
0.0
 20
0.0
 30
0.0
  3
*B53
  1

  0
LINE
  5
24D
100
AcDbEntity
  8
0
  6
Continuous
 62
     8
100
AcDbLine
 10
124.94545
 20
97.234669
 30
0.0
 11
128.945675
 21
97.234669
 31
0.0
  0
LINE
  5
24E
100
AcDbEntity
  8
0
  6
Continuous
 62
     8
100
AcDbLine
 10
128.945675
 20
97.234669
 30
0.0
 11
137.278976
 21
97.234669
 31
0.0
  0
LINE
  5
24F
100
AcDbEntity
  8
0
  6
Continuous
 62
     8
100
AcDbLine
 10
139.278789
 20
97.234669
 30
0.0
 11
140.278845
 21
97.234669
 31
0.0
  0
LINE
  5
250
100
AcDbEntity
  8
0
  6
Continuous
 62
     8
100
AcDbLine
 10
142.278957
 20
97.234669
 30
0.0
 11
150.612259
 21
97.234669
 31
0.0
  0
LINE
  5
251
100
AcDbEntity
  8
0
  6
Continuous
 62
     8
100
AcDbLine
 10
152.612071
 20
97.234669
 30
0.0
 11
153.612127
 21
97.234669
 31
0.0
  0
LINE
  5
252
100
AcDbEntity
  8
0
  6
Continuous
 62
     8
100
AcDbLine
 10
155.61224
 20
97.234669
 30
0.0
 11
163.945541
 21
97.234669
 31
0.0
  0
LINE
  5
253
100
AcDbEntity
  8
0
  6
Continuous
 62
     8
100
AcDbLine
 10
169.945579
 20
97.234669
 30
0.0
 11
173.045483
 21
97.234669
 31
0.0
  0
ENDBLK
  5
254
100
AcDbEntity
  8
0
100
AcDbBlockEnd
  0
BLOCK
  5
257
100
AcDbEntity
  8
0
100
AcDbBlockBegin
  2
*B54
 70
     0
 10
0.0
 20
0.0
 30
0.0
  3
*B54
  1

  0
LINE
  5
258
100
AcDbEntity
  8
0
  6
Continuous
 62
     8
100
AcDbLine
 10
166.94541
 20
51.138053
 30
0.0
 11
166.94541
 21
54.237657
 31
0.0
  0
LINE
  5
259
100
AcDbEntity
  8
0
  6
Continuous
 62
     8
100
AcDbLine
 10
166.94541
 20
60.237393
 30
0.0
 11
166.94541
 21
74.236379
 31
0.0
  0
LINE
  5
25A
100
AcDbEntity
  8
0
  6
Continuous
 62
     8
100
AcDbLine
 10
166.94541
 20
80.235815
 30
0.0
 11
166.94541
 21
94.2348
 31
0.0
  0
LINE
  5
25B
100
AcDbEntity
  8
0
  6
Continuous
 62
     8
100
AcDbLine
 10
166.94541
 20
100.234237
 30
0.0
 11
166.94541
 21
103.334141
 31
0.0
  0
ENDBLK
  5
25C
100
AcDbEntity
  8
0
100
AcDbBlockEnd
  0
BLOCK
  5
25F
100
AcDbEntity
  8
0
100
AcDbBlockBegin
  2
*B55
 70
     0
 10
0.0
 20
0.0
 30
0.0
  3
*B55
  1

  0
LINE
  5
260
100
AcDbEntity
  8
0
  6
Continuous
 62
     8
100
AcDbLine
 10
263.94546
 20
102.234349
 30
0.0
 11
293.025498
 21
102.234349
 31
0.0
  0
ENDBLK
  5
261
100
AcDbEntity
  8
0
100
AcDbBlockEnd
  0
BLOCK
  5
264
100
AcDbEntity
  8
0
100
AcDbBlockBegin
  2
*B56
 70
     0
 10
0.0
 20
0.0
 30
0.0
  3
*B56
  1

  0
LINE
  5
265
100
AcDbEntity
  8
0
  6
Continuous
 62
     8
100
AcDbLine
 10
150.445533
 20
256.975708
 30
0.0
 11
163.945541
 21
256.975708
 31
0.0
  0
LINE
  5
266
100
AcDbEntity
  8
0
  6
Continuous
 62
     8
100
AcDbLine
 10
169.945579
 20
256.975708
 30
0.0
 11
183.445587
 21
256.975708
 31
0.0
  0
ENDBLK
  5
267
100
AcDbEntity
  8
0
100
AcDbBlockEnd
  0
BLOCK
  5
26A
100
AcDbEntity
  8
0
100
AcDbBlockBegin
  2
*B57
 70
     0
 10
0.0
 20
0.0
 30
0.0
  3
*B57
  1

  0
LINE
  5
26B
100
AcDbEntity
  8
0
  6
Continuous
 62
     8
100
AcDbLine
 10
136.945524
 20
189.480772
 30
0.0
 11
149.945655
 21
189.480772
 31
0.0
  0
LINE
  5
26C
100
AcDbEntity
  8
0
  6
Continuous
 62
     8
100
AcDbLine
 10
263.94546
 20
189.480772
 30
0.0
 11
292.94529
 21
189.480772
 31
0.0
  0
ENDBLK
  5
26D
100
AcDbEntity
  8
0
100
AcDbBlockEnd
  0
BLOCK
  5
270
100
AcDbEntity
  8
0
100
AcDbBlockBegin
  2
*B58
 70
     0
 10
0.0
 20
0.0
 30
0.0
  3
*B58
  1

  0
LINE
  5
271
100
AcDbEntity
  8
0
  6
Continuous
 62
     8
100
AcDbLine
 10
120.945525
 20
269.474759
 30
0.0
 11
164.945598
 21
269.474759
 31
0.0
  0
ENDBLK
  5
272
100
AcDbEntity
  8
0
100
AcDbBlockEnd
  0
BLOCK
  5
275
100
AcDbEntity
  8
0
100
AcDbBlockBegin
  2
*B59
 70
     0
 10
0.0
 20
0.0
 30
0.0
  3
*B59
  1

  0
LINE
  5
276
100
AcDbEntity
  8
0
  6
Continuous
 62
     8
100
AcDbLine
 10
249.820604
 20
176.481543
 30
0.0
 11
249.820604
 21
203.486667
 31
0.0
  0
ENDBLK
  5
277
100
AcDbEntity
  8
0
100
AcDbBlockEnd
  0
BLOCK
  5
27A
100
AcDbEntity
  8
0
100
AcDbBlockBegin
  2
*B60
 70
     0
 10
0.0
 20
0.0
 30
0.0
  3
*B60
  1

  0
LINE
  5
27B
100
AcDbEntity
  8
0
  6
Continuous
 62
     8
100
AcDbLine
 10
210.945482
 20
115.269628
 30
0.0
 11
210.945482
 21
119.269252
 31
0.0
  0
LINE
  5
27C
100
AcDbEntity
  8
0
  6
Continuous
 62
     8
100
AcDbLine
 10
210.945482
 20
52.487783
 30
0.0
 11
210.945482
 21
56.237469
 31
0.0
  0
LINE
  5
27D
100
AcDbEntity
  8
0
  6
Continuous
 62
     8
100
AcDbLine
 10
210.945482
 20
62.237206
 30
0.0
 11
210.945482
 21
71.7454
 31
0.0
  0
LINE
  5
27E
100
AcDbEntity
  8
0
  6
Continuous
 62
     8
100
AcDbLine
 10
210.945482
 20
73.745513
 30
0.0
 11
210.945482
 21
74.745269
 31
0.0
  0
LINE
  5
27F
100
AcDbEntity
  8
0
  6
Continuous
 62
     8
100
AcDbLine
 10
210.945482
 20
76.745081
 30
0.0
 11
210.945482
 21
86.253576
 31
0.0
  0
LINE
  5
280
100
AcDbEntity
  8
0
  6
Continuous
 62
     8
100
AcDbLine
 10
210.945482
 20
88.253388
 30
0.0
 11
210.945482
 21
89.253445
 31
0.0
  0
LINE
  5
281
100
AcDbEntity
  8
0
  6
Continuous
 62
     8
100
AcDbLine
 10
210.945482
 20
91.253257
 30
0.0
 11
210.945482
 21
100.761452
 31
0.0
  0
LINE
  5
282
100
AcDbEntity
  8
0
  6
Continuous
 62
     8
100
AcDbLine
 10
210.945482
 20
102.761264
 30
0.0
 11
210.945482
 21
103.76132
 31
0.0
  0
LINE
  5
283
100
AcDbEntity
  8
0
  6
Continuous
 62
     8
100
AcDbLine
 10
210.945482
 20
105.761132
 30
0.0
 11
210.945482
 21
115.269628
 31
0.0
  0
ENDBLK
  5
284
100
AcDbEntity
  8
0
100
AcDbBlockEnd
  0
BLOCK
  5
287
100
AcDbEntity
  8
0
100
AcDbBlockBegin
  2
*B61
 70
     0
 10
0.0
 20
0.0
 30
0.0
  3
*B61
  1

  0
LINE
  5
288
100
AcDbEntity
  8
0
  6
Continuous
 62
     8
100
AcDbLine
 10
193.19561
 20
95.234857
 30
0.0
 11
196.945596
 21
95.234857
 31
0.0
  0
LINE
  5
289
100
AcDbEntity
  8
0
  6
Continuous
 62
     8
100
AcDbLine
 10
202.945633
 20
95.234857
 30
0.0
 11
206.695619
 21
95.234857
 31
0.0
  0
ENDBLK
  5
28A
100
AcDbEntity
  8
0
100
AcDbBlockEnd
  0
BLOCK
  5
28D
100
AcDbEntity
  8
0
100
AcDbBlockBegin
  2
*B62
 70
     0
 10
0.0
 20
0.0
 30
0.0
  3
*B62
  1

  0
LINE
  5
28E
100
AcDbEntity
  8
0
  6
Continuous
 62
     8
100
AcDbLine
 10
120.945525
 20
159.482689
 30
0.0
 11
179.94554
 21
159.482689
 31
0.0
  0
LINE
  5
28F
100
AcDbEntity
  8
0
  6
Continuous
 62
     8
100
AcDbLine
 10
263.94546
 20
159.482689
 30
0.0
 11
292.94529
 21
159.482689
 31
0.0
  0
ENDBLK
  5
290
100
AcDbEntity
  8
0
100
AcDbBlockEnd
  0
BLOCK
  5
293
100
AcDbEntity
  8
0
100
AcDbBlockBegin
  2
*B63
 70
     0
 10
0.0
 20
0.0
 30
0.0
  3
*B63
  1

  0
LINE
  5
294
100
AcDbEntity
  8
0
  6
Continuous
 62
     6
100
AcDbLine
 10
243.945537
 20
173.481674
 30
0.0
 11
243.945537
 21
175.481787
 31
0.0
  0
LINE
  5
295
100
AcDbEntity
  8
0
  6
Continuous
 62
     6
100
AcDbLine
 10
242.94548
 20
174.48173
 30
0.0
 11
244.945593
 21
174.48173
 31
0.0
  0
ENDBLK
  5
296
100
AcDbEntity
  8
0
100
AcDbBlockEnd
  0
BLOCK
  5
299
100
AcDbEntity
  8
0
100
AcDbBlockBegin
  2
*B64
 70
     0
 10
0.0
 20
0.0
 30
0.0
  3
*B64
  1

  0
LINE
  5
29A
100
AcDbEntity
  8
0
  6
Continuous
 62
     6
100
AcDbLine
 10
165.945654
 20
57.237525
 30
0.0
 11
167.945466
 21
57.237525
 31
0.0
  0
LINE
  5
29B
100
AcDbEntity
  8
0
  6
Continuous
 62
     6
100
AcDbLine
 10
166.94541
 20
56.237469
 30
0.0
 11
166.94541
 21
58.237281
 31
0.0
  0
ENDBLK
  5
29C
100
AcDbEntity
  8
0
100
AcDbBlockEnd
  0
BLOCK
  5
29F
100
AcDbEntity
  8
0
100
AcDbBlockBegin
  2
*B65
 70
     0
 10
0.0
 20
0.0
 30
0.0
  3
*B65
  1

  0
LINE
  5
2A0
100
AcDbEntity
  8
0
  6
Continuous
 62
     6
100
AcDbLine
 10
166.94541
 20
255.975952
 30
0.0
 11
166.94541
 21
257.975764
 31
0.0
  0
LINE
  5
2A1
100
AcDbEntity
  8
0
  6
Continuous
 62
     6
100
AcDbLine
 10
165.945654
 20
256.975708
 30
0.0
 11
167.945466
 21
256.975708
 31
0.0
  0
ENDBLK
  5
2A2
100
AcDbEntity
  8
0
100
AcDbBlockEnd
  0
BLOCK
  5
2A5
100
AcDbEntity
  8
0
100
AcDbBlockBegin
  2
*B66
 70
     0
 10
0.0
 20
0.0
 30
0.0
  3
*B66
  1

  0
LINE
  5
2A6
100
AcDbEntity
  8
0
  6
Continuous
 62
     6
100
AcDbLine
 10
199.945464
 20
173.481674
 30
0.0
 11
199.945464
 21
175.481787
 31
0.0
  0
LINE
  5
2A7
100
AcDbEntity
  8
0
  6
Continuous
 62
     6
100
AcDbLine
 10
198.945408
 20
174.48173
 30
0.0
 11
200.94552
 21
174.48173
 31
0.0
  0
ENDBLK
  5
2A8
100
AcDbEntity
  8
0
100
AcDbBlockEnd
  0
BLOCK
  5
2AB
100
AcDbEntity
  8
0
100
AcDbBlockBegin
  2
*B67
 70
     0
 10
0.0
 20
0.0
 30
0.0
  3
*B67
  1

  0
LINE
  5
2AC
100
AcDbEntity
  8
0
  6
Continuous
 62
     6
100
AcDbLine
 10
243.945537
 20
94.2348
 30
0.0
 11
243.945537
 21
96.234612
 31
0.0
  0
LINE
  5
2AD
100
AcDbEntity
  8
0
  6
Continuous
 62
     6
100
AcDbLine
 10
242.94548
 20
95.234857
 30
0.0
 11
244.945593
 21
95.234857
 31
0.0
  0
ENDBLK
  5
2AE
100
AcDbEntity
  8
0
100
AcDbBlockEnd
  0
BLOCK
  5
2B1
100
AcDbEntity
  8
0
100
AcDbBlockBegin
  2
*B68
 70
     0
 10
0.0
 20
0.0
 30
0.0
  3
*B68
  1

  0
LINE
  5
2B2
100
AcDbEntity
  8
0
  6
Continuous
 62
     6
100
AcDbLine
 10
209.945426
 20
59.237337
 30
0.0
 11
211.945539
 21
59.237337
 31
0.0
  0
LINE
  5
2B3
100
AcDbEntity
  8
0
  6
Continuous
 62
     6
100
AcDbLine
 10
210.945482
 20
58.237281
 30
0.0
 11
210.945482
 21
60.237393
 31
0.0
  0
ENDBLK
  5
2B4
100
AcDbEntity
  8
0
100
AcDbBlockEnd
  0
BLOCK
  5
2B7
100
AcDbEntity
  8
0
100
AcDbBlockBegin
  2
*B69
 70
     0
 10
0.0
 20
0.0
 30
0.0
  3
*B69
  1

  0
LINE
  5
2B8
100
AcDbEntity
  8
0
  6
Continuous
 62
     6
100
AcDbLine
 10
231.945462
 20
59.237337
 30
0.0
 11
233.945575
 21
59.237337
 31
0.0
  0
LINE
  5
2B9
100
AcDbEntity
  8
0
  6
Continuous
 62
     6
100
AcDbLine
 10
232.945518
 20
58.237281
 30
0.0
 11
232.945518
 21
60.237393
 31
0.0
  0
ENDBLK
  5
2BA
100
AcDbEntity
  8
0
100
AcDbBlockEnd
  0
BLOCK
  5
2BD
100
AcDbEntity
  8
0
100
AcDbBlockBegin
  2
*B70
 70
     0
 10
0.0
 20
0.0
 30
0.0
  3
*B70
  1

  0
LINE
  5
2BE
100
AcDbEntity
  8
0
  6
Continuous
 62
     6
100
AcDbLine
 10
165.945654
 20
97.234669
 30
0.0
 11
167.945466
 21
97.234669
 31
0.0
  0
LINE
  5
2BF
100
AcDbEntity
  8
0
  6
Continuous
 62
     6
100
AcDbLine
 10
166.94541
 20
96.234612
 30
0.0
 11
166.94541
 21
98.234425
 31
0.0
  0
ENDBLK
  5
2C0
100
AcDbEntity
  8
0
100
AcDbBlockEnd
  0
BLOCK
  5
2C3
100
AcDbEntity
  8
0
100
AcDbBlockBegin
  2
*B71
 70
     0
 10
0.0
 20
0.0
 30
0.0
  3
*B71
  1

  0
LINE
  5
2C4
100
AcDbEntity
  8
0
  6
Continuous
 62
     6
100
AcDbLine
 10
153.163319
 20
254.229083
 30
0.0
 11
153.163319
 21
256.228895
 31
0.0
  0
LINE
  5
2C5
100
AcDbEntity
  8
0
  6
Continuous
 62
     6
100
AcDbLine
 10
152.163262
 20
255.229139
 30
0.0
 11
154.163074
 21
255.229139
 31
0.0
  0
ENDBLK
  5
2C6
100
AcDbEntity
  8
0
100
AcDbBlockEnd
  0
BLOCK
  5
2C9
100
AcDbEntity
  8
0
100
AcDbBlockBegin
  2
*B72
 70
     0
 10
0.0
 20
0.0
 30
0.0
  3
*B72
  1

  0
LINE
  5
2CA
100
AcDbEntity
  8
0
  6
Continuous
 62
     6
100
AcDbLine
 10
199.945464
 20
94.2348
 30
0.0
 11
199.945464
 21
96.234612
 31
0.0
  0
LINE
  5
2CB
100
AcDbEntity
  8
0
  6
Continuous
 62
     6
100
AcDbLine
 10
198.945408
 20
95.234857
 30
0.0
 11
200.94552
 21
95.234857
 31
0.0
  0
ENDBLK
  5
2CC
100
AcDbEntity
  8
0
100
AcDbBlockEnd
  0
BLOCK
  5
2CF
100
AcDbEntity
  8
0
100
AcDbBlockBegin
  2
*B73
 70
     0
 10
0.0
 20
0.0
 30
0.0
  3
*B73
  1

  0
LINE
  5
2D0
100
AcDbEntity
  8
0
  6
Continuous
 62
     6
100
AcDbLine
 10
165.945654
 20
77.235947
 30
0.0
 11
167.945466
 21
77.235947
 31
0.0
  0
LINE
  5
2D1
100
AcDbEntity
  8
0
  6
Continuous
 62
     6
100
AcDbLine
 10
166.94541
 20
76.236191
 30
0.0
 11
166.94541
 21
78.236003
 31
0.0
  0
ENDBLK
  5
2D2
100
AcDbEntity
  8
0
100
AcDbBlockEnd
  0
BLOCK
  5
2D5
100
AcDbEntity
  8
0
100
AcDbBlockBegin
  2
*B74
 70
     0
 10
0.0
 20
0.0
 30
0.0
  3
*B74
  1

  0
LINE
  5
2D6
100
AcDbEntity
  8
0
  6
Continuous
 62
     6
100
AcDbLine
 10
180.727801
 20
254.229083
 30
0.0
 11
180.727801
 21
256.228895
 31
0.0
  0
LINE
  5
2D7
100
AcDbEntity
  8
0
  6
Continuous
 62
     6
100
AcDbLine
 10
179.727745
 20
255.229139
 30
0.0
 11
181.727858
 21
255.229139
 31
0.0
  0
ENDBLK
  5
2D8
100
AcDbEntity
  8
0
100
AcDbBlockEnd
  0
BLOCK
  5
2DB
100
AcDbEntity
  8
0
100
AcDbBlockBegin
  2
*B75
 70
     0
 10
0.0
 20
0.0
 30
0.0
  3
*B75
  1

  0
LINE
  5
2DC
100
AcDbEntity
  8
0
  6
Continuous
 62
     6
100
AcDbLine
 10
221.9455
 20
173.481674
 30
0.0
 11
221.9455
 21
175.481787
 31
0.0
  0
LINE
  5
2DD
100
AcDbEntity
  8
0
  6
Continuous
 62
     6
100
AcDbLine
 10
220.945444
 20
174.48173
 30
0.0
 11
222.945557
 21
174.48173
 31
0.0
  0
ENDBLK
  5
2DE
100
AcDbEntity
  8
0
100
AcDbBlockEnd
  0
BLOCK
  5
2E1
100
AcDbEntity
  8
0
100
AcDbBlockBegin
  2
*B76
 70
     0
 10
0.0
 20
0.0
 30
0.0
  3
*B76
  1

  0
TEXT
  5
2E2
100
AcDbEntity
  8
TEXT
  6
Continuous
 62
     0
100
AcDbText
 10
250.391358
 20
74.95
 30
0.0
 40
5.0
  1
12
100
AcDbText
  0
ENDBLK
  5
2E3
100
AcDbEntity
  8
0
100
AcDbBlockEnd
  0
BLOCK
  5
2E6
100
AcDbEntity
  8
0
100
AcDbBlockBegin
  2
*B77
 70
     0
 10
0.0
 20
0.0
 30
0.0
  3
*B77
  1

  0
TEXT
  5
2E7
100
AcDbEntity
  8
TEXT
  6
Continuous
 62
     0
100
AcDbText
 10
140.685657
 20
232.45
 30
0.0
 40
6.0
  1
14
100
AcDbText
  0
ENDBLK
  5
2E8
100
AcDbEntity
  8
0
100
AcDbBlockEnd
  0
BLOCK
  5
2EB
100
AcDbEntity
  8
0
100
AcDbBlockBegin
  2
*B78
 70
     0
 10
0.0
 20
0.0
 30
0.0
  3
*B78
  1

  0
TEXT
  5
2EC
100
AcDbEntity
  8
TEXT
  6
Continuous
 62
     0
100
AcDbText
 10
184.685657
 20
232.45
 30
0.0
 40
6.0
  1
12
100
AcDbText
  0
ENDBLK
  5
2ED
100
AcDbEntity
  8
0
100
AcDbBlockEnd
  0
BLOCK
  5
2F0
100
AcDbEntity
  8
0
100
AcDbBlockBegin
  2
*B79
 70
     0
 10
0.0
 20
0.0
 30
0.0
  3
*B79
  1

  0
TEXT
  5
2F1
100
AcDbEntity
  8
TEXT
  6
Continuous
 62
     0
100
AcDbText
 10
220.155608
 20
54.95
 30
0.0
 40
5.0
  1
1
100
AcDbText
  0
ENDBLK
  5
2F2
100
AcDbEntity
  8
0
100
AcDbBlockEnd
  0
BLOCK
  5
2F5
100
AcDbEntity
  8
0
100
AcDbBlockBegin
  2
*B80
 70
     0
 10
0.0
 20
0.0
 30
0.0
  3
*B80
  1

  0
TEXT
  5
2F6
100
AcDbEntity
  8
TEXT
  6
Continuous
 62
     0
100
AcDbText
 10
231.155608
 20
94.45
 30
0.0
 40
5.0
  1
2
100
AcDbText
  0
ENDBLK
  5
2F7
100
AcDbEntity
  8
0
100
AcDbBlockEnd
  0
BLOCK
  5
2FA
100
AcDbEntity
  8
0
100
AcDbBlockBegin
  2
*B81
 70
     0
 10
0.0
 20
0.0
 30
0.0
  3
*B81
  1

  0
TEXT
  5
2FB
100
AcDbEntity
  8
TEXT
  6
Continuous
 62
     0
100
AcDbText
 10
242.155608
 20
54.95
 30
0.0
 40
5.0
  1
3
100
AcDbText
  0
ENDBLK
  5
2FC
100
AcDbEntity
  8
0
100
AcDbBlockEnd
  0
BLOCK
  5
2FF
100
AcDbEntity
  8
0
100
AcDbBlockBegin
  2
*B82
 70
     0
 10
0.0
 20
0.0
 30
0.0
  3
*B82
  1

  0
TEXT
  5
300
100
AcDbEntity
  8
TEXT
  6
Continuous
 62
     0
100
AcDbText
 10
209.155608
 20
94.45
 30
0.0
 40
5.0
  1
4
100
AcDbText
  0
ENDBLK
  5
301
100
AcDbEntity
  8
0
100
AcDbBlockEnd
  0
BLOCK
  5
304
100
AcDbEntity
  8
0
100
AcDbBlockBegin
  2
*B83
 70
     0
 10
0.0
 20
0.0
 30
0.0
  3
*B83
  1

  0
TEXT
  5
305
100
AcDbEntity
  8
TEXT
  6
Continuous
 62
     0
100
AcDbText
 10
198.155608
 20
54.95
 30
0.0
 40
5.0
  1
5
100
AcDbText
  0
ENDBLK
  5
306
100
AcDbEntity
  8
0
100
AcDbBlockEnd
  0
BLOCK
  5
309
100
AcDbEntity
  8
0
100
AcDbBlockBegin
  2
*B84
 70
     0
 10
0.0
 20
0.0
 30
0.0
  3
*B84
  1

  0
TEXT
  5
30A
100
AcDbEntity
  8
TEXT
  6
Continuous
 62
     0
100
AcDbText
 10
121.169858
 20
209.442964
 30
0.0
 40
3.5
  1
110
 50
90.0
100
AcDbText
  0
ENDBLK
  5
30B
100
AcDbEntity
  8
0
100
AcDbBlockEnd
  0
BLOCK
  5
30E
100
AcDbEntity
  8
0
100
AcDbBlockBegin
  2
*B85
 70
     0
 10
0.0
 20
0.0
 30
0.0
  3
*B85
  1

  0
TEXT
  5
30F
100
AcDbEntity
  8
TEXT
  6
Continuous
 62
     0
100
AcDbText
 10
137.169858
 20
193.10963
 30
0.0
 40
3.5
  1
14
 50
90.0
100
AcDbText
  0
ENDBLK
  5
310
100
AcDbEntity
  8
0
100
AcDbBlockEnd
  0
BLOCK
  5
313
100
AcDbEntity
  8
0
100
AcDbBlockBegin
  2
*B86
 70
     0
 10
0.0
 20
0.0
 30
0.0
  3
*B86
  1

  0
TEXT
  5
314
100
AcDbEntity
  8
TEXT
  6
Continuous
 62
     0
100
AcDbText
 10
289.169858
 20
171.10963
 30
0.0
 40
3.5
  1
30
 50
90.0
100
AcDbText
  0
ENDBLK
  5
315
100
AcDbEntity
  8
0
100
AcDbBlockEnd
  0
BLOCK
  5
318
100
AcDbEntity
  8
0
100
AcDbBlockBegin
  2
*B87
 70
     0
 10
0.0
 20
0.0
 30
0.0
  3
*B87
  1

  0
TEXT
  5
319
100
AcDbEntity
  8
TEXT
  6
Continuous
 62
     0
100
AcDbText
 10
218.586525
 20
145.75
 30
0.0
 40
3.5
  1
80
100
AcDbText
  0
ENDBLK
  5
31A
100
AcDbEntity
  8
0
100
AcDbBlockEnd
  0
BLOCK
  5
31D
100
AcDbEntity
  8
0
100
AcDbBlockBegin
  2
*B88
 70
     0
 10
0.0
 20
0.0
 30
0.0
  3
*B88
  1

  0
TEXT
  5
31E
100
AcDbEntity
  8
TEXT
  6
Continuous
 62
     0
100
AcDbText
 10
163.586525
 20
145.75
 30
0.0
 40
3.5
  1
30
100
AcDbText
  0
ENDBLK
  5
31F
100
AcDbEntity
  8
0
100
AcDbBlockEnd
  0
BLOCK
  5
322
100
AcDbEntity
  8
0
100
AcDbBlockBegin
  2
*B89
 70
     0
 10
0.0
 20
0.0
 30
0.0
  3
*B89
  1

  0
TEXT
  5
323
100
AcDbEntity
  8
TEXT
  6
Continuous
 62
     0
100
AcDbText
 10
289.25
 20
73.856921
 30
0.0
 40
3.5
  1
50
 50
90.0
100
AcDbText
  0
ENDBLK
  5
324
100
AcDbEntity
  8
0
100
AcDbBlockEnd
  0
BLOCK
  5
327
100
AcDbEntity
  8
0
100
AcDbBlockBegin
  2
*B90
 70
     0
 10
0.0
 20
0.0
 30
0.0
  3
*B90
  1

  0
TEXT
  5
328
100
AcDbEntity
  8
TEXT
  6
Continuous
 62
     0
100
AcDbText
 10
275.25
 20
73.856921
 30
0.0
 40
3.5
  1
36
 50
90.0
100
AcDbText
  0
ENDBLK
  5
329
100
AcDbEntity
  8
0
100
AcDbBlockEnd
  0
BLOCK
  5
32C
100
AcDbEntity
  8
0
100
AcDbBlockBegin
  2
*B91
 70
     0
 10
0.0
 20
0.0
 30
0.0
  3
*B91
  1

  0
TEXT
  5
32D
100
AcDbEntity
  8
TEXT
  6
Continuous
 62
     0
100
AcDbText
 10
249.586525
 20
36.976498
 30
0.0
 40
3.5
  1
18
100
AcDbText
  0
ENDBLK
  5
32E
100
AcDbEntity
  8
0
100
AcDbBlockEnd
  0
BLOCK
  5
331
100
AcDbEntity
  8
0
100
AcDbBlockBegin
  2
*B92
 70
     0
 10
0.0
 20
0.0
 30
0.0
  3
*B92
  1

  0
TEXT
  5
332
100
AcDbEntity
  8
TEXT
  6
Continuous
 62
     0
100
AcDbText
 10
229.586525
 20
36.976498
 30
0.0
 40
3.5
  1
22
100
AcDbText
  0
ENDBLK
  5
333
100
AcDbEntity
  8
0
100
AcDbBlockEnd
  0
BLOCK
  5
336
100
AcDbEntity
  8
0
100
AcDbBlockBegin
  2
*B93
 70
     0
 10
0.0
 20
0.0
 30
0.0
  3
*B93
  1

  0
TEXT
  5
337
100
AcDbEntity
  8
TEXT
  6
Continuous
 62
     0
100
AcDbText
 10
207.586525
 20
36.976498
 30
0.0
 40
3.5
  1
22
100
AcDbText
  0
ENDBLK
  5
338
100
AcDbEntity
  8
0
100
AcDbBlockEnd
  0
BLOCK
  5
33B
100
AcDbEntity
  8
0
100
AcDbBlockBegin
  2
*B94
 70
     0
 10
0.0
 20
0.0
 30
0.0
  3
*B94
  1

  0
TEXT
  5
33C
100
AcDbEntity
  8
TEXT
  6
Continuous
 62
     0
100
AcDbText
 10
218.586525
 20
118.976498
 30
0.0
 40
3.5
  1
22
100
AcDbText
  0
ENDBLK
  5
33D
100
AcDbEntity
  8
0
100
AcDbBlockEnd
  0
BLOCK
  5
340
100
AcDbEntity
  8
0
100
AcDbBlockBegin
  2
*B95
 70
     0
 10
0.0
 20
0.0
 30
0.0
  3
*B95
  1

  0
TEXT
  5
341
100
AcDbEntity
  8
TEXT
  6
Continuous
 62
     0
100
AcDbText
 10
244.086525
 20
118.976498
 30
0.0
 40
3.5
  1
29
100
AcDbText
  0
ENDBLK
  5
342
100
AcDbEntity
  8
0
100
AcDbBlockEnd
  0
BLOCK
  5
345
100
AcDbEntity
  8
0
100
AcDbBlockBegin
  2
*B96
 70
     0
 10
0.0
 20
0.0
 30
0.0
  3
*B96
  1

  0
TEXT
  5
346
100
AcDbEntity
  8
TEXT
  6
Continuous
 62
     0
100
AcDbText
 10
218.586525
 20
132.513225
 30
0.0
 40
3.5
  1
44
100
AcDbText
  0
ENDBLK
  5
347
100
AcDbEntity
  8
0
100
AcDbBlockEnd
  0
BLOCK
  5
34A
100
AcDbEntity
  8
0
100
AcDbBlockBegin
  2
*B97
 70
     0
 10
0.0
 20
0.0
 30
0.0
  3
*B97
  1

  0
TEXT
  5
34B
100
AcDbEntity
  8
TEXT
  6
Continuous
 62
     0
100
AcDbText
 10
145.919858
 20
36.976498
 30
0.0
 40
3.5
  1
M 5
100
AcDbText
  0
ENDBLK
  5
34C
100
AcDbEntity
  8
0
100
AcDbBlockEnd
  0
BLOCK
  5
34F
100
AcDbEntity
  8
0
100
AcDbBlockBegin
  2
*B98
 70
     0
 10
0.0
 20
0.0
 30
0.0
  3
*B98
  1

  0
TEXT
  5
350
100
AcDbEntity
  8
TEXT
  6
Continuous
 62
     0
100
AcDbText
 10
256.336525
 20
203.2
 30
0.0
 40
3.5
  1
G 1/4"
100
AcDbText
  0
ENDBLK
  5
351
100
AcDbEntity
  8
0
100
AcDbBlockEnd
  0
BLOCK
  5
354
100
AcDbEntity
  8
0
100
AcDbBlockBegin
  2
*B99
 70
     0
 10
0.0
 20
0.0
 30
0.0
  3
*B99
  1

  0
TEXT
  5
355
100
AcDbEntity
  8
TEXT
  6
Continuous
 62
     0
100
AcDbText
 10
187.586525
 20
37.2
 30
0.0
 40
3.5
  1
18
100
AcDbText
  0
ENDBLK
  5
356
100
AcDbEntity
  8
0
100
AcDbBlockEnd
  0
BLOCK
  5
359
100
AcDbEntity
  8
0
100
AcDbBlockBegin
  2
*B100
 70
     0
 10
0.0
 20
0.0
 30
0.0
  3
*B100
  1

  0
TEXT
  5
35A
100
AcDbEntity
  8
TEXT
  6
Continuous
 62
     0
100
AcDbText
 10
125.169858
 20
73.856921
 30
0.0
 40
3.5
  1
40
 50
90.0
100
AcDbText
  0
ENDBLK
  5
35B
100
AcDbEntity
  8
0
100
AcDbBlockEnd
  0
BLOCK
  5
35E
100
AcDbEntity
  8
0
100
AcDbBlockBegin
  2
*B101
 70
     0
 10
0.0
 20
0.0
 30
0.0
  3
*B101
  1

  0
TEXT
  5
35F
100
AcDbEntity
  8
TEXT
  6
Continuous
 62
     0
100
AcDbText
 10
174.383333
 20
118.976498
 30
0.0
 40
3.5
  1
%%c5,5
100
AcDbText
  0
ENDBLK
  5
360
100
AcDbEntity
  8
0
100
AcDbBlockEnd
  0
ENDSEC
  0
SECTION
  2
ENTITIES
  0
INSERT
  5
53
100
AcDbEntity
  8
0
  6
Continuous
 62
   174
100
AcDbBlockReference
  2
*B1
 10
0.0
 20
0.0
 30
0.0
  0
INSERT
  5
5F
100
AcDbEntity
  8
0
  6
HIDDEN
 62
   172
100
AcDbBlockReference
  2
*B2
 10
0.0
 20
0.0
 30
0.0
  0
INSERT
  5
D4
100
AcDbEntity
  8
0
  6
Continuous
 62
   174
100
AcDbBlockReference
  2
*B3
 10
0.0
 20
0.0
 30
0.0
  0
INSERT
  5
DB
100
AcDbEntity
  8
0
  6
Continuous
 62
     0
100
AcDbBlockReference
  2
*B4
 10
0.0
 20
0.0
 30
0.0
  0
INSERT
  5
E2
100
AcDbEntity
  8
0
  6
Continuous
 62
     0
100
AcDbBlockReference
  2
*B5
 10
0.0
 20
0.0
 30
0.0
  0
INSERT
  5
E9
100
AcDbEntity
  8
0
  6
Continuous
 62
     0
100
AcDbBlockReference
  2
*B6
 10
0.0
 20
0.0
 30
0.0
  0
INSERT
  5
F0
100
AcDbEntity
  8
0
  6
Continuous
 62
     0
100
AcDbBlockReference
  2
*B7
 10
0.0
 20
0.0
 30
0.0
  0
INSERT
  5
F7
100
AcDbEntity
  8
0
  6
Continuous
 62
     0
100
AcDbBlockReference
  2
*B8
 10
0.0
 20
0.0
 30
0.0
  0
INSERT
  5
FE
100
AcDbEntity
  8
0
  6
Continuous
 62
     0
100
AcDbBlockReference
  2
*B9
 10
0.0
 20
0.0
 30
0.0
  0
INSERT
  5
105
100
AcDbEntity
  8
0
  6
Continuous
 62
     0
100
AcDbBlockReference
  2
*B10
 10
0.0
 20
0.0
 30
0.0
  0
INSERT
  5
10C
100
AcDbEntity
  8
0
  6
Continuous
 62
     0
100
AcDbBlockReference
  2
*B11
 10
0.0
 20
0.0
 30
0.0
  0
INSERT
  5
113
100
AcDbEntity
  8
0
  6
Continuous
 62
     0
100
AcDbBlockReference
  2
*B12
 10
0.0
 20
0.0
 30
0.0
  0
INSERT
  5
11A
100
AcDbEntity
  8
0
  6
Continuous
 62
     0
100
AcDbBlockReference
  2
*B13
 10
0.0
 20
0.0
 30
0.0
  0
INSERT
  5
121
100
AcDbEntity
  8
0
  6
Continuous
 62
     0
100
AcDbBlockReference
  2
*B14
 10
0.0
 20
0.0
 30
0.0
  0
INSERT
  5
128
100
AcDbEntity
  8
0
  6
Continuous
 62
     0
100
AcDbBlockReference
  2
*B15
 10
0.0
 20
0.0
 30
0.0
  0
INSERT
  5
12F
100
AcDbEntity
  8
0
  6
Continuous
 62
     0
100
AcDbBlockReference
  2
*B16
 10
0.0
 20
0.0
 30
0.0
  0
INSERT
  5
136
100
AcDbEntity
  8
0
  6
Continuous
 62
     0
100
AcDbBlockReference
  2
*B17
 10
0.0
 20
0.0
 30
0.0
  0
INSERT
  5
13D
100
AcDbEntity
  8
0
  6
Continuous
 62
     0
100
AcDbBlockReference
  2
*B18
 10
0.0
 20
0.0
 30
0.0
  0
INSERT
  5
144
100
AcDbEntity
  8
0
  6
Continuous
 62
     0
100
AcDbBlockReference
  2
*B19
 10
0.0
 20
0.0
 30
0.0
  0
INSERT
  5
14B
100
AcDbEntity
  8
0
  6
Continuous
 62
     0
100
AcDbBlockReference
  2
*B20
 10
0.0
 20
0.0
 30
0.0
  0
INSERT
  5
152
100
AcDbEntity
  8
0
  6
Continuous
 62
     0
100
AcDbBlockReference
  2
*B21
 10
0.0
 20
0.0
 30
0.0
  0
INSERT
  5
15D
100
AcDbEntity
  8
0
  6
Continuous
 62
     8
100
AcDbBlockReference
  2
*B22
 10
0.0
 20
0.0
 30
0.0
  0
INSERT
  5
163
100
AcDbEntity
  8
0
  6
Continuous
 62
     8
100
AcDbBlockReference
  2
*B23
 10
0.0
 20
0.0
 30
0.0
  0
INSERT
  5
173
100
AcDbEntity
  8
0
  6
Continuous
 62
     8
100
AcDbBlockReference
  2
*B24
 10
0.0
 20
0.0
 30
0.0
  0
INSERT
  5
179
100
AcDbEntity
  8
0
  6
Continuous
 62
     8
100
AcDbBlockReference
  2
*B25
 10
0.0
 20
0.0
 30
0.0
  0
INSERT
  5
180
100
AcDbEntity
  8
0
  6
Continuous
 62
     8
100
AcDbBlockReference
  2
*B26
 10
0.0
 20
0.0
 30
0.0
  0
INSERT
  5
186
100
AcDbEntity
  8
0
  6
Continuous
 62
     8
100
AcDbBlockReference
  2
*B27
 10
0.0
 20
0.0
 30
0.0
  0
INSERT
  5
193
100
AcDbEntity
  8
0
  6
Continuous
 62
     8
100
AcDbBlockReference
  2
*B28
 10
0.0
 20
0.0
 30
0.0
  0
INSERT
  5
198
100
AcDbEntity
  8
0
  6
Continuous
 62
     8
100
AcDbBlockReference
  2
*B29
 10
0.0
 20
0.0
 30
0.0
  0
INSERT
  5
1A6
100
AcDbEntity
  8
0
  6
Continuous
 62
     8
100
AcDbBlockReference
  2
*B30
 10
0.0
 20
0.0
 30
0.0
  0
INSERT
  5
1AB
100
AcDbEntity
  8
0
  6
Continuous
 62
     8
100
AcDbBlockReference
  2
*B31
 10
0.0
 20
0.0
 30
0.0
  0
INSERT
  5
1B0
100
AcDbEntity
  8
0
  6
Continuous
 62
     8
100
AcDbBlockReference
  2
*B32
 10
0.0
 20
0.0
 30
0.0
  0
INSERT
  5
1B5
100
AcDbEntity
  8
0
  6
Continuous
 62
     8
100
AcDbBlockReference
  2
*B33
 10
0.0
 20
0.0
 30
0.0
  0
INSERT
  5
1BB
100
AcDbEntity
  8
0
  6
Continuous
 62
     8
100
AcDbBlockReference
  2
*B34
 10
0.0
 20
0.0
 30
0.0
  0
INSERT
  5
1C3
100
AcDbEntity
  8
0
  6
Continuous
 62
     8
100
AcDbBlockReference
  2
*B35
 10
0.0
 20
0.0
 30
0.0
  0
INSERT
  5
1CE
100
AcDbEntity
  8
0
  6
Continuous
 62
     8
100
AcDbBlockReference
  2
*B36
 10
0.0
 20
0.0
 30
0.0
  0
INSERT
  5
1D4
100
AcDbEntity
  8
0
  6
Continuous
 62
     8
100
AcDbBlockReference
  2
*B37
 10
0.0
 20
0.0
 30
0.0
  0
INSERT
  5
1D9
100
AcDbEntity
  8
0
  6
Continuous
 62
     8
100
AcDbBlockReference
  2
*B38
 10
0.0
 20
0.0
 30
0.0
  0
INSERT
  5
1DE
100
AcDbEntity
  8
0
  6
Continuous
 62
     8
100
AcDbBlockReference
  2
*B39
 10
0.0
 20
0.0
 30
0.0
  0
INSERT
  5
1E4
100
AcDbEntity
  8
0
  6
Continuous
 62
     8
100
AcDbBlockReference
  2
*B40
 10
0.0
 20
0.0
 30
0.0
  0
INSERT
  5
1E9
100
AcDbEntity
  8
0
  6
Continuous
 62
     8
100
AcDbBlockReference
  2
*B41
 10
0.0
 20
0.0
 30
0.0
  0
INSERT
  5
1EE
100
AcDbEntity
  8
0
  6
Continuous
 62
     8
100
AcDbBlockReference
  2
*B42
 10
0.0
 20
0.0
 30
0.0
  0
INSERT
  5
1F3
100
AcDbEntity
  8
0
  6
Continuous
 62
     8
100
AcDbBlockReference
  2
*B43
 10
0.0
 20
0.0
 30
0.0
  0
INSERT
  5
1FC
100
AcDbEntity
  8
0
  6
Continuous
 62
     8
100
AcDbBlockReference
  2
*B44
 10
0.0
 20
0.0
 30
0.0
  0
INSERT
  5
208
100
AcDbEntity
  8
0
  6
Continuous
 62
     8
100
AcDbBlockReference
  2
*B45
 10
0.0
 20
0.0
 30
0.0
  0
INSERT
  5
20E
100
AcDbEntity
  8
0
  6
Continuous
 62
     8
100
AcDbBlockReference
  2
*B46
 10
0.0
 20
0.0
 30
0.0
  0
INSERT
  5
21E
100
AcDbEntity
  8
0
  6
Continuous
 62
     8
100
AcDbBlockReference
  2
*B47
 10
0.0
 20
0.0
 30
0.0
  0
INSERT
  5
227
100
AcDbEntity
  8
0
  6
Continuous
 62
     8
100
AcDbBlockReference
  2
*B48
 10
0.0
 20
0.0
 30
0.0
  0
INSERT
  5
22C
100
AcDbEntity
  8
0
  6
Continuous
 62
     8
100
AcDbBlockReference
  2
*B49
 10
0.0
 20
0.0
 30
0.0
  0
INSERT
  5
231
100
AcDbEntity
  8
0
  6
Continuous
 62
     8
100
AcDbBlockReference
  2
*B50
 10
0.0
 20
0.0
 30
0.0
  0
INSERT
  5
238
100
AcDbEntity
  8
0
  6
Continuous
 62
     8
100
AcDbBlockReference
  2
*B51
 10
0.0
 20
0.0
 30
0.0
  0
INSERT
  5
24A
100
AcDbEntity
  8
0
  6
Continuous
 62
     8
100
AcDbBlockReference
  2
*B52
 10
0.0
 20
0.0
 30
0.0
  0
INSERT
  5
255
100
AcDbEntity
  8
0
  6
Continuous
 62
     8
100
AcDbBlockReference
  2
*B53
 10
0.0
 20
0.0
 30
0.0
  0
INSERT
  5
25D
100
AcDbEntity
  8
0
  6
Continuous
 62
     8
100
AcDbBlockReference
  2
*B54
 10
0.0
 20
0.0
 30
0.0
  0
INSERT
  5
262
100
AcDbEntity
  8
0
  6
Continuous
 62
     8
100
AcDbBlockReference
  2
*B55
 10
0.0
 20
0.0
 30
0.0
  0
INSERT
  5
268
100
AcDbEntity
  8
0
  6
Continuous
 62
     8
100
AcDbBlockReference
  2
*B56
 10
0.0
 20
0.0
 30
0.0
  0
INSERT
  5
26E
100
AcDbEntity
  8
0
  6
Continuous
 62
     8
100
AcDbBlockReference
  2
*B57
 10
0.0
 20
0.0
 30
0.0
  0
INSERT
  5
273
100
AcDbEntity
  8
0
  6
Continuous
 62
     8
100
AcDbBlockReference
  2
*B58
 10
0.0
 20
0.0
 30
0.0
  0
INSERT
  5
278
100
AcDbEntity
  8
0
  6
Continuous
 62
     8
100
AcDbBlockReference
  2
*B59
 10
0.0
 20
0.0
 30
0.0
  0
INSERT
  5
285
100
AcDbEntity
  8
0
  6
Continuous
 62
     8
100
AcDbBlockReference
  2
*B60
 10
0.0
 20
0.0
 30
0.0
  0
INSERT
  5
28B
100
AcDbEntity
  8
0
  6
Continuous
 62
     8
100
AcDbBlockReference
  2
*B61
 10
0.0
 20
0.0
 30
0.0
  0
INSERT
  5
291
100
AcDbEntity
  8
0
  6
Continuous
 62
     8
100
AcDbBlockReference
  2
*B62
 10
0.0
 20
0.0
 30
0.0
  0
INSERT
  5
297
100
AcDbEntity
  8
0
  6
Continuous
 62
     6
100
AcDbBlockReference
  2
*B63
 10
0.0
 20
0.0
 30
0.0
  0
INSERT
  5
29D
100
AcDbEntity
  8
0
  6
Continuous
 62
     6
100
AcDbBlockReference
  2
*B64
 10
0.0
 20
0.0
 30
0.0
  0
INSERT
  5
2A3
100
AcDbEntity
  8
0
  6
Continuous
 62
     6
100
AcDbBlockReference
  2
*B65
 10
0.0
 20
0.0
 30
0.0
  0
INSERT
  5
2A9
100
AcDbEntity
  8
0
  6
Continuous
 62
     6
100
AcDbBlockReference
  2
*B66
 10
0.0
 20
0.0
 30
0.0
  0
INSERT
  5
2AF
100
AcDbEntity
  8
0
  6
Continuous
 62
     6
100
AcDbBlockReference
  2
*B67
 10
0.0
 20
0.0
 30
0.0
  0
INSERT
  5
2B5
100
AcDbEntity
  8
0
  6
Continuous
 62
     6
100
AcDbBlockReference
  2
*B68
 10
0.0
 20
0.0
 30
0.0
  0
INSERT
  5
2BB
100
AcDbEntity
  8
0
  6
Continuous
 62
     6
100
AcDbBlockReference
  2
*B69
 10
0.0
 20
0.0
 30
0.0
  0
INSERT
  5
2C1
100
AcDbEntity
  8
0
  6
Continuous
 62
     6
100
AcDbBlockReference
  2
*B70
 10
0.0
 20
0.0
 30
0.0
  0
INSERT
  5
2C7
100
AcDbEntity
  8
0
  6
Continuous
 62
     6
100
AcDbBlockReference
  2
*B71
 10
0.0
 20
0.0
 30
0.0
  0
INSERT
  5
2CD
100
AcDbEntity
  8
0
  6
Continuous
 62
     6
100
AcDbBlockReference
  2
*B72
 10
0.0
 20
0.0
 30
0.0
  0
INSERT
  5
2D3
100
AcDbEntity
  8
0
  6
Continuous
 62
     6
100
AcDbBlockReference
  2
*B73
 10
0.0
 20
0.0
 30
0.0
  0
INSERT
  5
2D9
100
AcDbEntity
  8
0
  6
Continuous
 62
     6
100
AcDbBlockReference
  2
*B74
 10
0.0
 20
0.0
 30
0.0
  0
INSERT
  5
2DF
100
AcDbEntity
  8
0
  6
Continuous
 62
     6
100
AcDbBlockReference
  2
*B75
 10
0.0
 20
0.0
 30
0.0
  0
INSERT
  5
2E4
100
AcDbEntity
  8
TEXT
  6
Continuous
 62
     0
100
AcDbBlockReference
  2
*B76
 10
0.0
 20
0.0
 30
0.0
  0
INSERT
  5
2E9
100
AcDbEntity
  8
TEXT
  6
Continuous
 62
     0
100
AcDbBlockReference
  2
*B77
 10
0.0
 20
0.0
 30
0.0
  0
INSERT
  5
2EE
100
AcDbEntity
  8
TEXT
  6
Continuous
 62
     0
100
AcDbBlockReference
  2
*B78
 10
0.0
 20
0.0
 30
0.0
  0
INSERT
  5
2F3
100
AcDbEntity
  8
TEXT
  6
Continuous
 62
     0
100
AcDbBlockReference
  2
*B79
 10
0.0
 20
0.0
 30
0.0
  0
INSERT
  5
2F8
100
AcDbEntity
  8
TEXT
  6
Continuous
 62
     0
100
AcDbBlockReference
  2
*B80
 10
0.0
 20
0.0
 30
0.0
  0
INSERT
  5
2FD
100
AcDbEntity
  8
TEXT
  6
Continuous
 62
     0
100
AcDbBlockReference
  2
*B81
 10
0.0
 20
0.0
 30
0.0
  0
INSERT
  5
302
100
AcDbEntity
  8
TEXT
  6
Continuous
 62
     0
100
AcDbBlockReference
  2
*B82
 10
0.0
 20
0.0
 30
0.0
  0
INSERT
  5
307
100
AcDbEntity
  8
TEXT
  6
Continuous
 62
     0
100
AcDbBlockReference
  2
*B83
 10
0.0
 20
0.0
 30
0.0
  0
INSERT
  5
30C
100
AcDbEntity
  8
TEXT
  6
Continuous
 62
     0
100
AcDbBlockReference
  2
*B84
 10
0.0
 20
0.0
 30
0.0
  0
INSERT
  5
311
100
AcDbEntity
  8
TEXT
  6
Continuous
 62
     0
100
AcDbBlockReference
  2
*B85
 10
0.0
 20
0.0
 30
0.0
  0
INSERT
  5
316
100
AcDbEntity
  8
TEXT
  6
Continuous
 62
     0
100
AcDbBlockReference
  2
*B86
 10
0.0
 20
0.0
 30
0.0
  0
INSERT
  5
31B
100
AcDbEntity
  8
TEXT
  6
Continuous
 62
     0
100
AcDbBlockReference
  2
*B87
 10
0.0
 20
0.0
 30
0.0
  0
INSERT
  5
320
100
AcDbEntity
  8
TEXT
  6
Continuous
 62
     0
100
AcDbBlockReference
  2
*B88
 10
0.0
 20
0.0
 30
0.0
  0
INSERT
  5
325
100
AcDbEntity
  8
TEXT
  6
Continuous
 62
     0
100
AcDbBlockReference
  2
*B89
 10
0.0
 20
0.0
 30
0.0
  0
INSERT
  5
32A
100
AcDbEntity
  8
TEXT
  6
Continuous
 62
     0
100
AcDbBlockReference
  2
*B90
 10
0.0
 20
0.0
 30
0.0
  0
INSERT
  5
32F
100
AcDbEntity
  8
TEXT
  6
Continuous
 62
     0
100
AcDbBlockReference
  2
*B91
 10
0.0
 20
0.0
 30
0.0
  0
INSERT
  5
334
100
AcDbEntity
  8
TEXT
  6
Continuous
 62
     0
100
AcDbBlockReference
  2
*B92
 10
0.0
 20
0.0
 30
0.0
  0
INSERT
  5
339
100
AcDbEntity
  8
TEXT
  6
Continuous
 62
     0
100
AcDbBlockReference
  2
*B93
 10
0.0
 20
0.0
 30
0.0
  0
INSERT
  5
33E
100
AcDbEntity
  8
TEXT
  6
Continuous
 62
     0
100
AcDbBlockReference
  2
*B94
 10
0.0
 20
0.0
 30
0.0
  0
INSERT
  5
343
100
AcDbEntity
  8
TEXT
  6
Continuous
 62
     0
100
AcDbBlockReference
  2
*B95
 10
0.0
 20
0.0
 30
0.0
  0
INSERT
  5
348
100
AcDbEntity
  8
TEXT
  6
Continuous
 62
     0
100
AcDbBlockReference
  2
*B96
 10
0.0
 20
0.0
 30
0.0
  0
INSERT
  5
34D
100
AcDbEntity
  8
TEXT
  6
Continuous
 62
     0
100
AcDbBlockReference
  2
*B97
 10
0.0
 20
0.0
 30
0.0
  0
INSERT
  5
352
100
AcDbEntity
  8
TEXT
  6
Continuous
 62
     0
100
AcDbBlockReference
  2
*B98
 10
0.0
 20
0.0
 30
0.0
  0
INSERT
  5
357
100
AcDbEntity
  8
TEXT
  6
Continuous
 62
     0
100
AcDbBlockReference
  2
*B99
 10
0.0
 20
0.0
 30
0.0
  0
INSERT
  5
35C
100
AcDbEntity
  8
TEXT
  6
Continuous
 62
     0
100
AcDbBlockReference
  2
*B100
 10
0.0
 20
0.0
 30
0.0
  0
INSERT
  5
361
100
AcDbEntity
  8
TEXT
  6
Continuous
 62
     0
100
AcDbBlockReference
  2
*B101
 10
0.0
 20
0.0
 30
0.0
  0
ENDSEC
  0
SECTION
  2
OBJECTS
  0
DICTIONARY
  5
19
100
AcDbDictionary
280
     0
281
     1
  3
ACAD_GROUP
350
1A
  3
ACAD_MLINESTYLE
350
1B
  3
ACAD_LAYOUT
350
1E
  3
ACAD_PLOTSETTINGS
350
22
  3
ACAD_PLOTSTYLENAME
350
1F
  3
ACAD_WIPEOUT_VARS
350
23
  0
DICTIONARY
  5
1A
102
{ACAD_REACTORS
330
19
102
}
100
AcDbDictionary
280
     0
281
     1
  0
DICTIONARY
  5
1B
102
{ACAD_REACTORS
330
19
102
}
100
AcDbDictionary
280
     0
281
     1
  3
Standard
350
1C
  0
MLINESTYLE
  5
1C
102
{ACAD_REACTORS
330
1B
102
}
100
AcDbMlineStyle
  2
Standard
 70
     0
  3

 62
     0
 51
90.0
 52
90.0
 71
     2
 49
0.5
 62
   256
  6
BYLAYER
 49
-0.5
 62
   256
  6
BYLAYER
  0
ACDBDICTIONARYWDFLT
  5
1F
102
{ACAD_REACTORS
330
19
102
}
100
AcDbDictionary
281
     1
  3
Normal
350
1D
100
AcDbDictionaryWithDefault
340
1D
  0
ACDBPLACEHOLDER
  5
1D
102
{ACAD_REACTORS
330
1F
102
}
  0
LAYOUT
  5
20
102
{ACAD_REACTORS
330
1E
102
}
100
AcDbPlotSettings
  1

  2

  4

  6

 40
0.0
 41
0.0
 42
0.0
 43
0.0
 44
0.0
 45
0.0
 46
0.0
 47
0.0
 48
0.0
 49
0.0
140
0.0
141
0.0
142
1.0
143
1.0
 70
     0
 72
     0
 73
     0
 74
     0
  7

 75
     0
147
1.0
148
0.0
149
0.0
100
AcDbLayout
  1
Model
 70
     0
 71
     0
 10
0.0
 20
0.0
 11
0.0
 21
0.0
 12
0.0
 22
0.0
 32
0.0
 14
0.0
 24
0.0
 34
0.0
 15
0.0
 25
0.0
 35
0.0
146
0.0
 13
0.0
 23
0.0
 33
0.0
 16
0.0
 26
0.0
 36
0.0
 17
0.0
 27
0.0
 37
0.0
 76
     0
330
A
331
0
345
0
346
0
  0
LAYOUT
  5
21
102
{ACAD_REACTORS
330
1E
102
}
100
AcDbPlotSettings
  1

  2

  4

  6

 40
0.0
 41
0.0
 42
0.0
 43
0.0
 44
0.0
 45
0.0
 46
0.0
 47
0.0
 48
0.0
 49
0.0
140
0.0
141
0.0
142
1.0
143
1.0
 70
     0
 72
     0
 73
     0
 74
     0
  7

 75
     0
147
1.0
148
0.0
149
0.0
100
AcDbLayout
  1
Layout1
 70
     0
 71
     0
 10
0.0
 20
0.0
 11
0.0
 21
0.0
 12
0.0
 22
0.0
 32
0.0
 14
0.0
 24
0.0
 34
0.0
 15
0.0
 25
0.0
 35
0.0
146
0.0
 13
0.0
 23
0.0
 33
0.0
 16
0.0
 26
0.0
 36
0.0
 17
0.0
 27
0.0
 37
0.0
 76
     0
330
B
331
0
345
0
346
0
  0
DICTIONARY
  5
1E
102
{ACAD_REACTORS
330
19
102
}
100
AcDbDictionary
280
     0
281
     1
  3
Layout1
350
21
  3
Model
350
20
  0
DICTIONARY
  5
22
102
{ACAD_REACTORS
330
19
102
}
100
AcDbDictionary
280
     0
281
     1
  0
WIPEOUTVARIABLES
  5
23
100
AcDbWipeoutVariables
 70
     1
  0
ENDSEC
  0
EOF
