  0
SECTION
  2
HEADER
  9
$ACADVER
  1
AC1015
  9
$ACADMAINTVER
 70
     6
  9
$DWGCODEPAGE
  3
DOS850
  9
$INSBASE
 10
0.0
 20
0.0
 30
0.0
  9
$EXTMIN
 10
0.0
 20
0.0
 30
0.0
  9
$EXTMAX
 10
420.0
 20
297.0
 30
0.0
  9
$LIMMIN
 10
0.0
 20
0.0
  9
$LIMMAX
 10
420.0
 20
297.0
  9
$ORTHOMODE
 70
     0
  9
$REGENMODE
 70
     1
  9
$FILLMODE
 70
     1
  9
$QTEXTMODE
 70
     0
  9
$MIRRTEXT
 70
     1
  9
$LTSCALE
 40
25.4
  9
$ATTMODE
 70
     1
  9
$TEXTSIZE
 40
3.5
  9
$TRACEWID
 40
0.05
  9
$TEXTSTYLE
  7
Standard
  9
$CLAYER
  8
0
  9
$CELTYPE
  6
Continuous
  9
$CECOLOR
 62
   256
  9
$CELTSCALE
 40
1.0
  9
$DISPSILH
 70
     0
  9
$DIMSCALE
 40
1.0
  9
$DIMASZ
 40
5.0
  9
$DIMEXO
 40
3.0
  9
$DIMDLI
 40
0.38
  9
$DIMRND
 40
0.0
  9
$DIMDLE
 40
0.0
  9
$DIMEXE
 40
2.0
  9
$DIMTP
 40
0.0
  9
$DIMTM
 40
0.0
  9
$DIMTXT
 40
3.5
  9
$DIMCEN
 40
4.0
  9
$DIMTSZ
 40
0.0
  9
$DIMTOL
 70
     0
  9
$DIMLIM
 70
     0
  9
$DIMTIH
 70
     1
  9
$DIMTOH
 70
     1
  9
$DIMSE1
 70
     0
  9
$DIMSE2
 70
     0
  9
$DIMTAD
 70
     0
  9
$DIMZIN
 70
     0
  9
$DIMBLK
  1

  9
$DIMASO
 70
     1
  9
$DIMSHO
 70
     1
  9
$DIMPOST
  1

  9
$DIMAPOST
  1

  9
$DIMALT
 70
     0
  9
$DIMALTD
 70
     2
  9
$DIMALTF
 40
25.4
  9
$DIMLFAC
 40
1.0
  9
$DIMTOFL
 70
     0
  9
$DIMTVP
 40
0.0
  9
$DIMTIX
 70
     0
  9
$DIMSOXD
 70
     0
  9
$DIMSAH
 70
     0
  9
$DIMBLK1
  1

  9
$DIMBLK2
  1

  9
$DIMSTYLE
  2
Standard
  9
$DIMCLRD
 70
     0
  9
$DIMCLRE
 70
     0
  9
$DIMCLRT
 70
     0
  9
$DIMTFAC
 40
1.0
  9
$DIMGAP
 40
1.0
  9
$DIMJUST
 70
     0
  9
$DIMSD1
 70
     0
  9
$DIMSD2
 70
     0
  9
$DIMTOLJ
 70
     1
  9
$DIMTZIN
 70
     0
  9
$DIMALTZ
 70
     0
  9
$DIMALTTZ
 70
     0
  9
$DIMUPT
 70
     0
  9
$DIMDEC
 70
     4
  9
$DIMTDEC
 70
     4
  9
$DIMALTU
 70
     2
  9
$DIMALTTD
 70
     2
  9
$DIMTXSTY
  7
Standard
  9
$DIMAUNIT
 70
     0
  9
$DIMADEC
 70
     0
  9
$DIMALTRND
 40
0.0
  9
$DIMAZIN
 70
     0
  9
$DIMDSEP
 70
     0
  9
$DIMATFIT
 70
     3
  9
$DIMFRAC
 70
     0
  9
$DIMLDRBLK
  1

  9
$DIMLUNIT
 70
     2
  9
$DIMLWD
 70
     0
  9
$DIMLWE
 70
     0
  9
$DIMTMOVE
 70
     0
  9
$LUNITS
 70
     2
  9
$LUPREC
 70
     4
  9
$SKETCHINC
 40
0.1
  9
$FILLETRAD
 40
0.0
  9
$AUNITS
 70
     0
  9
$AUPREC
 70
     0
  9
$MENU
  1
acad
  9
$ELEVATION
 40
0.0
  9
$PELEVATION
 40
0.0
  9
$THICKNESS
 40
0.0
  9
$LIMCHECK
 70
     0
  9
$CHAMFERA
 40
0.0
  9
$CHAMFERB
 40
0.0
  9
$CHAMFERC
 40
0.0
  9
$CHAMFERD
 40
0.0
  9
$SKPOLY
 70
     0
  9
$TDCREATE
 40
0.000000000
  9
$TDUCREATE
 40
0.000000000
  9
$TDUPDATE
 40
0.000000000
  9
$TDUUPDATE
 40
0.000000000
  9
$TDINDWG
 40
0.0000000000
  9
$TDUSRTIMER
 40
0.0000000000
  9
$USRTIMER
 70
     1
  9
$ANGBASE
 50
0.0
  9
$ANGDIR
 70
     0
  9
$PDMODE
 70
     0
  9
$PDSIZE
 40
0.0
  9
$PLINEWID
 40
0.0
  9
$SPLFRAME
 70
     0
  9
$SPLINETYPE
 70
     6
  9
$SPLINESEGS
 70
     8
  9
$HANDSEED
  5
331
  9
$SURFTAB1
 70
     6
  9
$SURFTAB2
 70
     6
  9
$SURFTYPE
 70
     6
  9
$SURFU
 70
     6
  9
$SURFV
 70
     6
  9
$UCSBASE
  2

  9
$UCSNAME
  2

  9
$UCSORG
 10
0.0
 20
0.0
 30
0.0
  9
$UCSXDIR
 10
1.0
 20
0.0
 30
0.0
  9
$UCSYDIR
 10
0.0
 20
1.0
 30
0.0
  9
$UCSORTHOREF
  2

  9
$UCSORTHOVIEW
 70
     0
  9
$UCSORGTOP
 10
0.0
 20
0.0
 30
0.0
  9
$UCSORGBOTTOM
 10
0.0
 20
0.0
 30
0.0
  9
$UCSORGLEFT
 10
0.0
 20
0.0
 30
0.0
  9
$UCSORGRIGHT
 10
0.0
 20
0.0
 30
0.0
  9
$UCSORGFRONT
 10
0.0
 20
0.0
 30
0.0
  9
$UCSORGBACK
 10
0.0
 20
0.0
 30
0.0
  9
$PUCSBASE
  2

  9
$PUCSNAME
  2

  9
$PUCSORG
 10
0.0
 20
0.0
 30
0.0
  9
$PUCSXDIR
 10
1.0
 20
0.0
 30
0.0
  9
$PUCSYDIR
 10
0.0
 20
1.0
 30
0.0
  9
$PUCSORTHOREF
  2

  9
$PUCSORTHOVIEW
 70
     0
  9
$PUCSORGTOP
 10
0.0
 20
0.0
 30
0.0
  9
$PUCSORGBOTTOM
 10
0.0
 20
0.0
 30
0.0
  9
$PUCSORGLEFT
 10
0.0
 20
0.0
 30
0.0
  9
$PUCSORGRIGHT
 10
0.0
 20
0.0
 30
0.0
  9
$PUCSORGFRONT
 10
0.0
 20
0.0
 30
0.0
  9
$PUCSORGBACK
 10
0.0
 20
0.0
 30
0.0
  9
$USERI1
 70
     0
  9
$USERI2
 70
     0
  9
$USERI3
 70
     0
  9
$USERI4
 70
     0
  9
$USERI5
 70
     0
  9
$USERR1
 40
0.0
  9
$USERR2
 40
0.0
  9
$USERR3
 40
0.0
  9
$USERR4
 40
0.0
  9
$USERR5
 40
0.0
  9
$WORLDVIEW
 70
     1
  9
$SHADEDGE
 70
     3
  9
$SHADEDIF
 70
    70
  9
$TILEMODE
 70
     1
  9
$MAXACTVP
 70
    16
  9
$PINSBASE
 10
0.0
 20
0.0
 30
0.0
  9
$PLIMCHECK
 70
     0
  9
$PEXTMIN
 10
1.000000E+20
 20
1.000000E+20
 30
1.000000E+20
  9
$PEXTMAX
 10
-1.000000E+20
 20
-1.000000E+20
 30
-1.000000E+20
  9
$PLIMMIN
 10
0.0
 20
0.0
  9
$PLIMMAX
 10
420.0
 20
297.0
  9
$UNITMODE
 70
     0
  9
$VISRETAIN
 70
     0
  9
$PLINEGEN
 70
     1
  9
$PSLTSCALE
 70
     0
  9
$TREEDEPTH
 70
  3020
  9
$CMLSTYLE
  2
Standard
  9
$CMLJUST
 70
     0
  9
$CMLSCALE
 40
1.0
  9
$PROXYGRAPHICS
 70
     0
  9
$MEASUREMENT
 70
     0
  9
$CELWEIGHT
370
     0
  9
$ENDCAPS
280
     0
  9
$JOINSTYLE
280
     0
  9
$LWDISPLAY
290
     0
  9
$INSUNITS
 70
     0
  9
$HYPERLINKBASE
  1

  9
$XEDIT
290
     1
  9
$CEPSNTYPE
380
     0
  9
$PSTYLEMODE
290
     0
  9
$FINGERPRINTGUID
  2

  9
$VERSIONGUID
  2

  9
$EXTNAMES
290
     1
  9
$PSVPSCALE
 40
0.0
  0
ENDSEC
  0
SECTION
  2
CLASSES
  0
CLASS
  1
LWPOLYLINE
  2
AcDbPolyline
  3
"AutoCAD"
 90
        0
280
     0
281
     1
  0
CLASS
  1
IMAGE
  2
AcDbRasterImage
  3
ISM
 90
      127
280
     0
281
     1
  0
CLASS
  1
OLE2FRAME
  2
AcDbOle2Frame
  3
""
 90
        0
280
     0
281
     1
  0
CLASS
  1
HATCH
  2
AcDbHatch
  3
"ACAD_SEDONA"
 90
        0
280
     0
281
     1
  0
CLASS
  1
DICTIONARYVAR
  2
AcDbDictionaryVar
  3
"AutoCAD"
 90
        0
280
     0
281
     0
  0
CLASS
  1
RASTERVARIABLES
  2
AcDbRasterVariables
  3
ISM
 90
        0
280
     0
281
     0
  0
CLASS
  1
IMAGEDEF
  2
AcDbRasterImageDef
  3
ISM
 90
        0
280
     0
281
     0
  0
CLASS
  1
IMAGEDEF_REACTOR
  2
AcDbRasterImageDefReactor
  3
ISM
 90
        1
280
     0
281
     0
  0
CLASS
  1
IDBUFFER
  2
AcDbIdBuffer
  3
"Acad"
 90
        0
280
     0
281
     0
  0
CLASS
  1
SPATIAL_FILTER
  2
AcDbSpatialFilter
  3
"Acad"
 90
        0
280
     0
281
     0
  0
CLASS
  1
XRECORD
  2
AcDbXrecord
  3
"<Built In>"
 90
        0
280
     0
281
     0
  0
CLASS
  1
SORTENTSTABLE
  2
AcDbSortentsTable
  3
"AutoCAD"
 90
        0
280
     0
281
     0
  0
CLASS
  1
LAYER_INDEX
  2
AcDbLayerIndex
  3
"Acad"
 90
        0
280
     0
281
     0
  0
CLASS
  1
SPATIAL_INDEX
  2
AcDbSpatialIndex
  3
"Acad"
 90
        0
280
     0
281
     0
  0
CLASS
  1
OBJECT_PTR
  2
CAseDLPNTableRecord
  3
"ASE-LPNTableRecord"
 90
        1
280
     0
281
     0
  0
CLASS
  1
LAYOUT
  2
AcDbLayout
  3
"AutoCAD 2000"
 90
        1
280
     0
281
     0
  0
CLASS
  1
PLOTSETTINGS
  2
AcDbPlotSettings
  3
"AutoCAD 2000"
 90
        1
280
     0
281
     0
  0
CLASS
  1
ACDBDICTIONARYWDFLT
  2
AcDbDictionaryWithDefault
  3
"AutoCAD 2000"
 90
        1
280
     0
281
     0
  0
CLASS
  1
ACDBPLACEHOLDER
  2
AcDbPlaceHolder
  3
"AutoCAD 2000"
 90
        1
280
     0
281
     0
  0
CLASS
  1
VBA_PROJECT
  2
AcDbVbaProject
  3
"acadvba"
 90
        1
280
     0
281
     0
  0
CLASS
  1
WIPEOUT
  2
AcDbWipeout
  3
WipeOut|AutoCAD Express Tool|expresstools@autodesk.com
 90
      127
280
     0
281
     1
  0
CLASS
  1
WIPEOUTVARIABLES
  2
AcDbWipeoutVariables
  3
WipeOut|AutoCAD Express Tool|expresstools@autodesk.com
 90
        0
280
     0
281
     0
  0
CLASS
  1
RTEXT
  2
RText
  3
RText|AutoCAD Express Tool|expresstools@autodesk.com
 90
        0
280
     0
281
     1
  0
CLASS
  1
ARCALIGNEDTEXT
  2
AcDbArcAlignedText
  3
ATEXT|AutoCAD Express Tool|expresstools@autodesk.com
 90
        0
280
     0
281
     1
  0
ENDSEC
  0
SECTION
  2
TABLES
  0
TABLE
  2
VPORT
  5
7
100
AcDbSymbolTable
 70
     1
  0
VPORT
  5
15
100
AcDbSymbolTableRecord
100
AcDbViewportTableRecord
  2
*ACTIVE
 70
     0
 10
0.0
 20
0.0
 11
1.0
 21
1.0
 12
6.591288
 22
4.579184
 13
0.0
 23
0.0
 14
1.0
 24
1.0
 15
0.0
 25
0.0
 16
0.0
 26
0.0
 36
1.0
 17
0.0
 27
0.0
 37
0.0
 40
9.158369
 41
0.688564
 42
50.0
 43
0.0
 44
0.0
 50
0.0
 51
0.0
 71
     0
 72
   100
 73
     1
 74
     1
 75
     0
 76
     0
 77
     0
 78
     0
281
     0
 65
     0
110
0.0
120
0.0
130
0.0
111
1.0
121
0.0
131
0.0
112
0.0
122
1.0
132
0.0
345
0
346
0
 79
     0
146
0.0
  0
ENDTAB
  0
TABLE
  2
LTYPE
  5
4
100
AcDbSymbolTable
 70
     7
  0
LTYPE
  5
11
100
AcDbSymbolTableRecord
100
AcDbLinetypeTableRecord
  2
ByBlock
 70
    64
  3

 72
    65
 73
     0
 40
0.0
  0
LTYPE
  5
12
100
AcDbSymbolTableRecord
100
AcDbLinetypeTableRecord
  2
ByLayer
 70
    64
  3

 72
    65
 73
     0
 40
0.0
  0
LTYPE
  5
13
100
AcDbSymbolTableRecord
100
AcDbLinetypeTableRecord
  2
Continuous
 70
    64
  3
Solid line
 72
    65
 73
     0
 40
0.0
  0
LTYPE
  5
24
100
AcDbSymbolTableRecord
100
AcDbLinetypeTableRecord
  2
HIDDEN
 70
    64
  3
_ _ _ _ _ _ _ _ _ _ _ _ _ _ _ _ _ _ _ _ _ _ _ _
 72
    65
 73
     2
 40
0.1875
 49
0.125
 74
     0
 49
-0.0625
 74
     0
  0
LTYPE
  5
25
100
AcDbSymbolTableRecord
100
AcDbLinetypeTableRecord
  2
DOTTED
 70
    64
  3
...............................................
 72
    65
 73
     2
 40
0.125
 49
0.0
 74
     0
 49
-0.125
 74
     0
  0
LTYPE
  5
26
100
AcDbSymbolTableRecord
100
AcDbLinetypeTableRecord
  2
CENTER
 70
    64
  3
____ _ ____ _ ____ _ ____ _ ____ _ ____ _ ____ 
 72
    65
 73
     4
 40
1.125
 49
0.75
 74
     0
 49
-0.125
 74
     0
 49
0.125
 74
     0
 49
-0.125
 74
     0
  0
LTYPE
  5
27
100
AcDbSymbolTableRecord
100
AcDbLinetypeTableRecord
  2
PHANTOM
 70
    64
  3
______  __  __  ______  __  __  ______  __  __ 
 72
    65
 73
     6
 40
1.25
 49
0.625
 74
     0
 49
-0.125
 74
     0
 49
0.125
 74
     0
 49
-0.125
 74
     0
 49
0.125
 74
     0
 49
-0.125
 74
     0
  0
ENDTAB
  0
TABLE
  2
LAYER
  5
2
100
AcDbSymbolTable
 70
     2
  0
LAYER
  5
14
100
AcDbSymbolTableRecord
100
AcDbLayerTableRecord
  2
0
 70
     0
 62
     7
  6
Continuous
290
     1
370
    -3
390
1D
  0
LAYER
  5
28
100
AcDbSymbolTableRecord
100
AcDbLayerTableRecord
  2
TEXT
 70
     0
 62
     8
  6
Continuous
290
     1
370
    -3
390
1F
  0
ENDTAB
  0
TABLE
  2
STYLE
  5
3
100
AcDbSymbolTable
 70
     1
  0
STYLE
  5
17
100
AcDbSymbolTableRecord
100
AcDbTextStyleTableRecord
  2
Standard
 70
     0
 40
0.0
 41
1.0
 50
0.0
 71
     0
 42
0.0
  3
txt
  4

  0
ENDTAB
  0
TABLE
  2
VIEW
  5
5
100
AcDbSymbolTable
 70
     0
  0
ENDTAB
  0
TABLE
  2
UCS
  5
6
100
AcDbSymbolTable
 70
     0
  0
ENDTAB
  0
TABLE
  2
APPID
  5
8
100
AcDbSymbolTable
 70
     1
  0
APPID
  5
16
100
AcDbSymbolTableRecord
100
AcDbRegAppTableRecord
  2
ACAD
 70
     0
  0
ENDTAB
  0
TABLE
  2
DIMSTYLE
  5
9
100
AcDbSymbolTable
 70
     1
100
AcDbDimStyleTable
 71
     0
  0
DIMSTYLE
105
18
100
AcDbSymbolTableRecord
100
AcDbDimStyleTableRecord
  2
Standard
 70
     0
  3

  4

 40
1.0
 41
0.18
 42
0.0625
 43
0.38
 44
0.18
 45
0.0
 46
0.0
 47
0.0
 48
0.0
 71
     0
 72
     0
 73
     1
 74
     1
 75
     0
 76
     0
 77
     0
 78
     0
 79
     0
140
0.18
141
0.09
142
0.0
143
25.4
144
1.0
145
0.0
146
1.0
147
0.09
148
0.0
170
     0
171
     2
172
     0
173
     0
174
     0
175
     0
176
     0
177
     0
178
     0
179
     0
271
     4
272
     4
273
     2
274
     2
275
     0
276
     0
277
     2
278
    46
279
     0
280
     0
281
     0
282
     0
283
     1
284
     0
285
     0
286
     0
288
     0
340
17
341
0
342
0
343
0
344
0
371
    -2
372
    -2
  0
ENDTAB
  0
TABLE
  2
BLOCK_RECORD
  5
1
100
AcDbSymbolTable
 70
    90
  0
BLOCK_RECORD
  5
A
100
AcDbSymbolTableRecord
100
AcDbBlockTableRecord
  2
*MODEL_SPACE
340
20
  0
BLOCK_RECORD
  5
B
100
AcDbSymbolTableRecord
100
AcDbBlockTableRecord
  2
*PAPER_SPACE
340
21
  0
BLOCK_RECORD
  5
29
100
AcDbSymbolTableRecord
100
AcDbBlockTableRecord
  2
*B0
340
0
  0
BLOCK_RECORD
  5
2C
100
AcDbSymbolTableRecord
100
AcDbBlockTableRecord
  2
*B1
340
0
  0
BLOCK_RECORD
  5
A9
100
AcDbSymbolTableRecord
100
AcDbBlockTableRecord
  2
*B2
340
0
  0
BLOCK_RECORD
  5
D3
100
AcDbSymbolTableRecord
100
AcDbBlockTableRecord
  2
*B3
340
0
  0
BLOCK_RECORD
  5
DB
100
AcDbSymbolTableRecord
100
AcDbBlockTableRecord
  2
*B4
340
0
  0
BLOCK_RECORD
  5
E2
100
AcDbSymbolTableRecord
100
AcDbBlockTableRecord
  2
*B5
340
0
  0
BLOCK_RECORD
  5
E9
100
AcDbSymbolTableRecord
100
AcDbBlockTableRecord
  2
*B6
340
0
  0
BLOCK_RECORD
  5
F0
100
AcDbSymbolTableRecord
100
AcDbBlockTableRecord
  2
*B7
340
0
  0
BLOCK_RECORD
  5
F7
100
AcDbSymbolTableRecord
100
AcDbBlockTableRecord
  2
*B8
340
0
  0
BLOCK_RECORD
  5
FE
100
AcDbSymbolTableRecord
100
AcDbBlockTableRecord
  2
*B9
340
0
  0
BLOCK_RECORD
  5
105
100
AcDbSymbolTableRecord
100
AcDbBlockTableRecord
  2
*B10
340
0
  0
BLOCK_RECORD
  5
10C
100
AcDbSymbolTableRecord
100
AcDbBlockTableRecord
  2
*B11
340
0
  0
BLOCK_RECORD
  5
113
100
AcDbSymbolTableRecord
100
AcDbBlockTableRecord
  2
*B12
340
0
  0
BLOCK_RECORD
  5
11A
100
AcDbSymbolTableRecord
100
AcDbBlockTableRecord
  2
*B13
340
0
  0
BLOCK_RECORD
  5
121
100
AcDbSymbolTableRecord
100
AcDbBlockTableRecord
  2
*B14
340
0
  0
BLOCK_RECORD
  5
128
100
AcDbSymbolTableRecord
100
AcDbBlockTableRecord
  2
*B15
340
0
  0
BLOCK_RECORD
  5
12F
100
AcDbSymbolTableRecord
100
AcDbBlockTableRecord
  2
*B16
340
0
  0
BLOCK_RECORD
  5
136
100
AcDbSymbolTableRecord
100
AcDbBlockTableRecord
  2
*B17
340
0
  0
BLOCK_RECORD
  5
13D
100
AcDbSymbolTableRecord
100
AcDbBlockTableRecord
  2
*B18
340
0
  0
BLOCK_RECORD
  5
144
100
AcDbSymbolTableRecord
100
AcDbBlockTableRecord
  2
*B19
340
0
  0
BLOCK_RECORD
  5
14A
100
AcDbSymbolTableRecord
100
AcDbBlockTableRecord
  2
*B20
340
0
  0
BLOCK_RECORD
  5
150
100
AcDbSymbolTableRecord
100
AcDbBlockTableRecord
  2
*B21
340
0
  0
BLOCK_RECORD
  5
15A
100
AcDbSymbolTableRecord
100
AcDbBlockTableRecord
  2
*B22
340
0
  0
BLOCK_RECORD
  5
160
100
AcDbSymbolTableRecord
100
AcDbBlockTableRecord
  2
*B23
340
0
  0
BLOCK_RECORD
  5
166
100
AcDbSymbolTableRecord
100
AcDbBlockTableRecord
  2
*B24
340
0
  0
BLOCK_RECORD
  5
16C
100
AcDbSymbolTableRecord
100
AcDbBlockTableRecord
  2
*B25
340
0
  0
BLOCK_RECORD
  5
180
100
AcDbSymbolTableRecord
100
AcDbBlockTableRecord
  2
*B26
340
0
  0
BLOCK_RECORD
  5
185
100
AcDbSymbolTableRecord
100
AcDbBlockTableRecord
  2
*B27
340
0
  0
BLOCK_RECORD
  5
18B
100
AcDbSymbolTableRecord
100
AcDbBlockTableRecord
  2
*B28
340
0
  0
BLOCK_RECORD
  5
198
100
AcDbSymbolTableRecord
100
AcDbBlockTableRecord
  2
*B29
340
0
  0
BLOCK_RECORD
  5
1AF
100
AcDbSymbolTableRecord
100
AcDbBlockTableRecord
  2
*B30
340
0
  0
BLOCK_RECORD
  5
1B5
100
AcDbSymbolTableRecord
100
AcDbBlockTableRecord
  2
*B31
340
0
  0
BLOCK_RECORD
  5
1C0
100
AcDbSymbolTableRecord
100
AcDbBlockTableRecord
  2
*B32
340
0
  0
BLOCK_RECORD
  5
1CB
100
AcDbSymbolTableRecord
100
AcDbBlockTableRecord
  2
*B33
340
0
  0
BLOCK_RECORD
  5
1DA
100
AcDbSymbolTableRecord
100
AcDbBlockTableRecord
  2
*B34
340
0
  0
BLOCK_RECORD
  5
1DF
100
AcDbSymbolTableRecord
100
AcDbBlockTableRecord
  2
*B35
340
0
  0
BLOCK_RECORD
  5
1E4
100
AcDbSymbolTableRecord
100
AcDbBlockTableRecord
  2
*B36
340
0
  0
BLOCK_RECORD
  5
1EA
100
AcDbSymbolTableRecord
100
AcDbBlockTableRecord
  2
*B37
340
0
  0
BLOCK_RECORD
  5
1F5
100
AcDbSymbolTableRecord
100
AcDbBlockTableRecord
  2
*B38
340
0
  0
BLOCK_RECORD
  5
1FA
100
AcDbSymbolTableRecord
100
AcDbBlockTableRecord
  2
*B39
340
0
  0
BLOCK_RECORD
  5
1FF
100
AcDbSymbolTableRecord
100
AcDbBlockTableRecord
  2
*B40
340
0
  0
BLOCK_RECORD
  5
204
100
AcDbSymbolTableRecord
100
AcDbBlockTableRecord
  2
*B41
340
0
  0
BLOCK_RECORD
  5
209
100
AcDbSymbolTableRecord
100
AcDbBlockTableRecord
  2
*B42
340
0
  0
BLOCK_RECORD
  5
20E
100
AcDbSymbolTableRecord
100
AcDbBlockTableRecord
  2
*B43
340
0
  0
BLOCK_RECORD
  5
214
100
AcDbSymbolTableRecord
100
AcDbBlockTableRecord
  2
*B44
340
0
  0
BLOCK_RECORD
  5
21A
100
AcDbSymbolTableRecord
100
AcDbBlockTableRecord
  2
*B45
340
0
  0
BLOCK_RECORD
  5
21F
100
AcDbSymbolTableRecord
100
AcDbBlockTableRecord
  2
*B46
340
0
  0
BLOCK_RECORD
  5
224
100
AcDbSymbolTableRecord
100
AcDbBlockTableRecord
  2
*B47
340
0
  0
BLOCK_RECORD
  5
229
100
AcDbSymbolTableRecord
100
AcDbBlockTableRecord
  2
*B48
340
0
  0
BLOCK_RECORD
  5
23D
100
AcDbSymbolTableRecord
100
AcDbBlockTableRecord
  2
*B49
340
0
  0
BLOCK_RECORD
  5
243
100
AcDbSymbolTableRecord
100
AcDbBlockTableRecord
  2
*B50
340
0
  0
BLOCK_RECORD
  5
252
100
AcDbSymbolTableRecord
100
AcDbBlockTableRecord
  2
*B51
340
0
  0
BLOCK_RECORD
  5
257
100
AcDbSymbolTableRecord
100
AcDbBlockTableRecord
  2
*B52
340
0
  0
BLOCK_RECORD
  5
25D
100
AcDbSymbolTableRecord
100
AcDbBlockTableRecord
  2
*B53
340
0
  0
BLOCK_RECORD
  5
263
100
AcDbSymbolTableRecord
100
AcDbBlockTableRecord
  2
*B54
340
0
  0
BLOCK_RECORD
  5
268
100
AcDbSymbolTableRecord
100
AcDbBlockTableRecord
  2
*B55
340
0
  0
BLOCK_RECORD
  5
27C
100
AcDbSymbolTableRecord
100
AcDbBlockTableRecord
  2
*B56
340
0
  0
BLOCK_RECORD
  5
282
100
AcDbSymbolTableRecord
100
AcDbBlockTableRecord
  2
*B57
340
0
  0
BLOCK_RECORD
  5
288
100
AcDbSymbolTableRecord
100
AcDbBlockTableRecord
  2
*B58
340
0
  0
BLOCK_RECORD
  5
28E
100
AcDbSymbolTableRecord
100
AcDbBlockTableRecord
  2
*B59
340
0
  0
BLOCK_RECORD
  5
294
100
AcDbSymbolTableRecord
100
AcDbBlockTableRecord
  2
*B60
340
0
  0
BLOCK_RECORD
  5
29A
100
AcDbSymbolTableRecord
100
AcDbBlockTableRecord
  2
*B61
340
0
  0
BLOCK_RECORD
  5
2A0
100
AcDbSymbolTableRecord
100
AcDbBlockTableRecord
  2
*B62
340
0
  0
BLOCK_RECORD
  5
2A6
100
AcDbSymbolTableRecord
100
AcDbBlockTableRecord
  2
*B63
340
0
  0
BLOCK_RECORD
  5
2AC
100
AcDbSymbolTableRecord
100
AcDbBlockTableRecord
  2
*B64
340
0
  0
BLOCK_RECORD
  5
2B2
100
AcDbSymbolTableRecord
100
AcDbBlockTableRecord
  2
*B65
340
0
  0
BLOCK_RECORD
  5
2B8
100
AcDbSymbolTableRecord
100
AcDbBlockTableRecord
  2
*B66
340
0
  0
BLOCK_RECORD
  5
2BE
100
AcDbSymbolTableRecord
100
AcDbBlockTableRecord
  2
*B67
340
0
  0
BLOCK_RECORD
  5
2C3
100
AcDbSymbolTableRecord
100
AcDbBlockTableRecord
  2
*B68
340
0
  0
BLOCK_RECORD
  5
2C8
100
AcDbSymbolTableRecord
100
AcDbBlockTableRecord
  2
*B69
340
0
  0
BLOCK_RECORD
  5
2CD
100
AcDbSymbolTableRecord
100
AcDbBlockTableRecord
  2
*B70
340
0
  0
BLOCK_RECORD
  5
2D2
100
AcDbSymbolTableRecord
100
AcDbBlockTableRecord
  2
*B71
340
0
  0
BLOCK_RECORD
  5
2D7
100
AcDbSymbolTableRecord
100
AcDbBlockTableRecord
  2
*B72
340
0
  0
BLOCK_RECORD
  5
2DC
100
AcDbSymbolTableRecord
100
AcDbBlockTableRecord
  2
*B73
340
0
  0
BLOCK_RECORD
  5
2E1
100
AcDbSymbolTableRecord
100
AcDbBlockTableRecord
  2
*B74
340
0
  0
BLOCK_RECORD
  5
2E6
100
AcDbSymbolTableRecord
100
AcDbBlockTableRecord
  2
*B75
340
0
  0
BLOCK_RECORD
  5
2EB
100
AcDbSymbolTableRecord
100
AcDbBlockTableRecord
  2
*B76
340
0
  0
BLOCK_RECORD
  5
2F0
100
AcDbSymbolTableRecord
100
AcDbBlockTableRecord
  2
*B77
340
0
  0
BLOCK_RECORD
  5
2F5
100
AcDbSymbolTableRecord
100
AcDbBlockTableRecord
  2
*B78
340
0
  0
BLOCK_RECORD
  5
2FA
100
AcDbSymbolTableRecord
100
AcDbBlockTableRecord
  2
*B79
340
0
  0
BLOCK_RECORD
  5
2FF
100
AcDbSymbolTableRecord
100
AcDbBlockTableRecord
  2
*B80
340
0
  0
BLOCK_RECORD
  5
304
100
AcDbSymbolTableRecord
100
AcDbBlockTableRecord
  2
*B81
340
0
  0
BLOCK_RECORD
  5
309
100
AcDbSymbolTableRecord
100
AcDbBlockTableRecord
  2
*B82
340
0
  0
BLOCK_RECORD
  5
30E
100
AcDbSymbolTableRecord
100
AcDbBlockTableRecord
  2
*B83
340
0
  0
BLOCK_RECORD
  5
313
100
AcDbSymbolTableRecord
100
AcDbBlockTableRecord
  2
*B84
340
0
  0
BLOCK_RECORD
  5
318
100
AcDbSymbolTableRecord
100
AcDbBlockTableRecord
  2
*B85
340
0
  0
BLOCK_RECORD
  5
31D
100
AcDbSymbolTableRecord
100
AcDbBlockTableRecord
  2
*B86
340
0
  0
BLOCK_RECORD
  5
322
100
AcDbSymbolTableRecord
100
AcDbBlockTableRecord
  2
*B87
340
0
  0
BLOCK_RECORD
  5
327
100
AcDbSymbolTableRecord
100
AcDbBlockTableRecord
  2
*B88
340
0
  0
BLOCK_RECORD
  5
32C
100
AcDbSymbolTableRecord
100
AcDbBlockTableRecord
  2
*B89
340
0
  0
ENDTAB
  0
ENDSEC
  0
SECTION
  2
BLOCKS
  0
BLOCK
  5
D
100
AcDbEntity
  8
0
100
AcDbBlockBegin
  2
*MODEL_SPACE
 70
     0
 10
0.0
 20
0.0
 30
0.0
  3
*MODEL_SPACE
  1

  0
ENDBLK
  5
E
100
AcDbEntity
  8
0
100
AcDbBlockEnd
  0
BLOCK
  5
F
100
AcDbEntity
 67
     1
  8
0
100
AcDbBlockBegin
  2
*PAPER_SPACE
 70
     0
 10
0.0
 20
0.0
 30
0.0
  3
*PAPER_SPACE
  1

  0
ENDBLK
  5
10
100
AcDbEntity
 67
     1
  8
0
100
AcDbBlockEnd
  0
BLOCK
  5
2A
100
AcDbEntity
  8
0
100
AcDbBlockBegin
  2
*B0
 70
     0
 10
0.0
 20
0.0
 30
0.0
  3
*B0
  1

  0
ENDBLK
  5
2B
100
AcDbEntity
  8
0
100
AcDbBlockEnd
  0
BLOCK
  5
2D
100
AcDbEntity
  8
0
100
AcDbBlockBegin
  2
*B1
 70
     0
 10
0.0
 20
0.0
 30
0.0
  3
*B1
  1

  0
LINE
  5
2E
100
AcDbEntity
  8
0
  6
HIDDEN
 62
   174
100
AcDbLine
 10
237.631588
 20
49.476861
 30
0.0
 11
237.631588
 21
35.476861
 31
0.0
  0
LINE
  5
2F
100
AcDbEntity
  8
0
  6
HIDDEN
 62
   174
100
AcDbLine
 10
257.511588
 20
49.476861
 30
0.0
 11
257.511588
 21
35.476861
 31
0.0
  0
LINE
  5
30
100
AcDbEntity
  8
0
  6
HIDDEN
 62
   174
100
AcDbLine
 10
236.577144
 20
49.476861
 30
0.0
 11
257.537169
 21
49.476861
 31
0.0
  0
LINE
  5
31
100
AcDbEntity
  8
0
  6
HIDDEN
 62
   174
100
AcDbLine
 10
236.577144
 20
35.476861
 30
0.0
 11
257.537169
 21
35.476861
 31
0.0
  0
LINE
  5
32
100
AcDbEntity
  8
0
  6
HIDDEN
 62
   174
100
AcDbLine
 10
236.551588
 20
49.476861
 30
0.0
 11
236.551588
 21
35.476861
 31
0.0
  0
LINE
  5
33
100
AcDbEntity
  8
0
  6
HIDDEN
 62
   174
100
AcDbLine
 10
257.511588
 20
49.476861
 30
0.0
 11
257.511588
 21
35.476861
 31
0.0
  0
LINE
  5
34
100
AcDbEntity
  8
0
  6
HIDDEN
 62
   174
100
AcDbLine
 10
236.551588
 20
49.476861
 30
0.0
 11
236.551588
 21
35.476861
 31
0.0
  0
LINE
  5
35
100
AcDbEntity
  8
0
  6
HIDDEN
 62
   174
100
AcDbLine
 10
237.631588
 20
35.476861
 30
0.0
 11
237.631588
 21
50.476861
 31
0.0
  0
LINE
  5
36
100
AcDbEntity
  8
0
  6
HIDDEN
 62
   174
100
AcDbLine
 10
256.431588
 20
35.476861
 30
0.0
 11
256.431588
 21
50.476861
 31
0.0
  0
LINE
  5
37
100
AcDbEntity
  8
0
  6
HIDDEN
 62
   174
100
AcDbLine
 10
237.631588
 20
35.476861
 30
0.0
 11
237.631588
 21
50.476861
 31
0.0
  0
LINE
  5
38
100
AcDbEntity
  8
0
  6
HIDDEN
 62
   174
100
AcDbLine
 10
256.431588
 20
35.476861
 30
0.0
 11
256.431588
 21
50.476861
 31
0.0
  0
LINE
  5
39
100
AcDbEntity
  8
0
  6
HIDDEN
 62
   174
100
AcDbLine
 10
256.431588
 20
49.476861
 30
0.0
 11
256.431588
 21
35.476861
 31
0.0
  0
LINE
  5
3A
100
AcDbEntity
  8
0
  6
HIDDEN
 62
   174
100
AcDbLine
 10
237.631588
 20
49.476861
 30
0.0
 11
237.631588
 21
35.476861
 31
0.0
  0
LINE
  5
3B
100
AcDbEntity
  8
0
  6
HIDDEN
 62
   174
100
AcDbLine
 10
204.551588
 20
49.476861
 30
0.0
 11
204.551588
 21
35.476861
 31
0.0
  0
LINE
  5
3C
100
AcDbEntity
  8
0
  6
HIDDEN
 62
   174
100
AcDbLine
 10
224.431588
 20
35.476861
 30
0.0
 11
224.431588
 21
50.476861
 31
0.0
  0
LINE
  5
3D
100
AcDbEntity
  8
0
  6
HIDDEN
 62
   174
100
AcDbLine
 10
205.631588
 20
49.476861
 30
0.0
 11
205.631588
 21
35.476861
 31
0.0
  0
LINE
  5
3E
100
AcDbEntity
  8
0
  6
HIDDEN
 62
   174
100
AcDbLine
 10
172.577147
 20
49.476861
 30
0.0
 11
193.537173
 21
49.476861
 31
0.0
  0
LINE
  5
3F
100
AcDbEntity
  8
0
  6
HIDDEN
 62
   174
100
AcDbLine
 10
172.551588
 20
49.476861
 30
0.0
 11
172.551588
 21
35.476861
 31
0.0
  0
LINE
  5
40
100
AcDbEntity
  8
0
  6
HIDDEN
 62
   174
100
AcDbLine
 10
241.53717
 20
81.476861
 30
0.0
 11
220.577145
 21
81.476861
 31
0.0
  0
LINE
  5
41
100
AcDbEntity
  8
0
  6
HIDDEN
 62
   174
100
AcDbLine
 10
188.551588
 20
81.476861
 30
0.0
 11
188.551588
 21
95.476861
 31
0.0
  0
LINE
  5
42
100
AcDbEntity
  8
0
  6
HIDDEN
 62
   174
100
AcDbLine
 10
208.431588
 20
95.476861
 30
0.0
 11
208.431588
 21
80.476861
 31
0.0
  0
ARC
  5
43
100
AcDbEntity
  8
0
  6
Continuous
 62
   174
100
AcDbCircle
 10
159.62459
 20
65.476861
 30
0.0
 40
12.5
100
AcDbArc
 50
0.0
 51
180.0
  0
LINE
  5
44
100
AcDbEntity
  8
0
  6
HIDDEN
 62
   174
100
AcDbLine
 10
205.65711
 20
50.476861
 30
0.0
 11
224.457207
 21
50.476861
 31
0.0
  0
LWPOLYLINE
  5
45
100
AcDbEntity
  8
0
  6
HIDDEN
 62
   174
100
AcDbPolyline
 90
        5
 70
   128
 10
160.423172
 20
65.476861
 10
160.129066
 20
63.946127
 10
159.29152
 20
62.648434
 10
158.038044
 20
61.781343
 10
156.559469
 20
61.476861
  0
LINE
  5
46
100
AcDbEntity
  8
0
  6
HIDDEN
 62
   174
100
AcDbLine
 10
225.511588
 20
49.476861
 30
0.0
 11
225.511588
 21
35.476861
 31
0.0
  0
LINE
  5
47
100
AcDbEntity
  8
0
  6
HIDDEN
 62
   174
100
AcDbLine
 10
173.631588
 20
49.476861
 30
0.0
 11
173.631588
 21
35.476861
 31
0.0
  0
LINE
  5
48
100
AcDbEntity
  8
0
  6
HIDDEN
 62
   174
100
AcDbLine
 10
193.511588
 20
49.476861
 30
0.0
 11
193.511588
 21
35.476861
 31
0.0
  0
LINE
  5
49
100
AcDbEntity
  8
0
  6
HIDDEN
 62
   174
100
AcDbLine
 10
172.551588
 20
49.476861
 30
0.0
 11
172.551588
 21
35.476861
 31
0.0
  0
LINE
  5
4A
100
AcDbEntity
  8
0
  6
HIDDEN
 62
   174
100
AcDbLine
 10
192.431588
 20
35.476861
 30
0.0
 11
192.431588
 21
50.476861
 31
0.0
  0
LINE
  5
4B
100
AcDbEntity
  8
0
  6
HIDDEN
 62
   174
100
AcDbLine
 10
224.457207
 20
35.476861
 30
0.0
 11
205.65711
 21
35.476861
 31
0.0
  0
LINE
  5
4C
100
AcDbEntity
  8
0
  6
HIDDEN
 62
   174
100
AcDbLine
 10
240.457206
 20
80.476861
 30
0.0
 11
221.657109
 21
80.476861
 31
0.0
  0
LINE
  5
4D
100
AcDbEntity
  8
0
  6
HIDDEN
 62
   174
100
AcDbLine
 10
241.511588
 20
81.476861
 30
0.0
 11
241.511588
 21
95.476861
 31
0.0
  0
LINE
  5
4E
100
AcDbEntity
  8
0
  6
HIDDEN
 62
   174
100
AcDbLine
 10
240.431588
 20
81.476861
 30
0.0
 11
240.431588
 21
95.476861
 31
0.0
  0
LINE
  5
4F
100
AcDbEntity
  8
0
  6
HIDDEN
 62
   174
100
AcDbLine
 10
189.631588
 20
81.476861
 30
0.0
 11
189.631588
 21
95.476861
 31
0.0
  0
LINE
  5
50
100
AcDbEntity
  8
0
  6
HIDDEN
 62
   174
100
AcDbLine
 10
158.031588
 20
65.476861
 30
0.0
 11
158.031588
 21
77.844339
 31
0.0
  0
ARC
  5
51
100
AcDbEntity
  8
0
  6
Continuous
 62
   174
100
AcDbCircle
 10
247.031588
 20
85.476861
 30
0.0
 40
3.3
100
AcDbArc
 50
0.0
 51
180.0
  0
LINE
  5
52
100
AcDbEntity
  8
0
  6
HIDDEN
 62
   174
100
AcDbLine
 10
225.511588
 20
49.476861
 30
0.0
 11
225.511588
 21
35.476861
 31
0.0
  0
LINE
  5
53
100
AcDbEntity
  8
0
  6
HIDDEN
 62
   174
100
AcDbLine
 10
205.631588
 20
35.476861
 30
0.0
 11
205.631588
 21
50.476861
 31
0.0
  0
LINE
  5
54
100
AcDbEntity
  8
0
  6
HIDDEN
 62
   174
100
AcDbLine
 10
220.551588
 20
81.476861
 30
0.0
 11
220.551588
 21
95.476861
 31
0.0
  0
LINE
  5
55
100
AcDbEntity
  8
0
  6
HIDDEN
 62
   174
100
AcDbLine
 10
221.631588
 20
95.476861
 30
0.0
 11
221.631588
 21
80.476861
 31
0.0
  0
LINE
  5
56
100
AcDbEntity
  8
0
  6
HIDDEN
 62
   174
100
AcDbLine
 10
209.511588
 20
81.476861
 30
0.0
 11
209.511588
 21
95.476861
 31
0.0
  0
LINE
  5
57
100
AcDbEntity
  8
0
  6
HIDDEN
 62
   174
100
AcDbLine
 10
189.631588
 20
95.476861
 30
0.0
 11
189.631588
 21
80.476861
 31
0.0
  0
LINE
  5
58
100
AcDbEntity
  8
0
  6
Continuous
 62
   174
100
AcDbLine
 10
128.031588
 20
65.476861
 30
0.0
 11
128.031588
 21
35.476861
 31
0.0
  0
LINE
  5
59
100
AcDbEntity
  8
0
  6
Continuous
 62
   174
100
AcDbLine
 10
272.031588
 20
35.476861
 30
0.0
 11
272.031588
 21
95.476861
 31
0.0
  0
ARC
  5
5A
100
AcDbEntity
  8
0
  6
Continuous
 62
   174
100
AcDbCircle
 10
143.031588
 20
65.476861
 30
0.0
 40
15.0
100
AcDbArc
 50
-313.686501
 51
-180.0
  0
ARC
  5
5B
100
AcDbEntity
  8
0
  6
Continuous
 62
   174
100
AcDbCircle
 10
183.031588
 20
85.476861
 30
0.0
 40
3.3
100
AcDbArc
 50
-180.0
 51
0.0
  0
LINE
  5
5C
100
AcDbEntity
  8
0
  6
HIDDEN
 62
   174
100
AcDbLine
 10
256.431588
 20
49.476861
 30
0.0
 11
256.431588
 21
35.476861
 31
0.0
  0
LINE
  5
5D
100
AcDbEntity
  8
0
  6
HIDDEN
 62
   174
100
AcDbLine
 10
173.631588
 20
35.476861
 30
0.0
 11
173.631588
 21
50.476861
 31
0.0
  0
LINE
  5
5E
100
AcDbEntity
  8
0
  6
HIDDEN
 62
   174
100
AcDbLine
 10
192.431588
 20
49.476861
 30
0.0
 11
192.431588
 21
35.476861
 31
0.0
  0
LINE
  5
5F
100
AcDbEntity
  8
0
  6
HIDDEN
 62
   174
100
AcDbLine
 10
220.551588
 20
81.476861
 30
0.0
 11
220.551588
 21
95.476861
 31
0.0
  0
LINE
  5
60
100
AcDbEntity
  8
0
  6
HIDDEN
 62
   174
100
AcDbLine
 10
221.631588
 20
81.476861
 30
0.0
 11
221.631588
 21
95.476861
 31
0.0
  0
LINE
  5
61
100
AcDbEntity
  8
0
  6
HIDDEN
 62
   174
100
AcDbLine
 10
158.031588
 20
77.844339
 30
0.0
 11
158.031588
 21
65.476861
 31
0.0
  0
LINE
  5
62
100
AcDbEntity
  8
0
  6
Continuous
 62
   174
100
AcDbLine
 10
158.031588
 20
53.121157
 30
0.0
 11
158.031588
 21
35.476861
 31
0.0
  0
LINE
  5
63
100
AcDbEntity
  8
0
  6
Continuous
 62
   174
100
AcDbLine
 10
272.031588
 20
95.476861
 30
0.0
 11
158.031588
 21
95.476861
 31
0.0
  0
LINE
  5
64
100
AcDbEntity
  8
0
  6
Continuous
 62
   174
100
AcDbLine
 10
158.031588
 20
95.476861
 30
0.0
 11
128.031588
 21
95.476861
 31
0.0
  0
LINE
  5
65
100
AcDbEntity
  8
0
  6
HIDDEN
 62
   174
100
AcDbLine
 10
158.031588
 20
53.121157
 30
0.0
 11
158.031588
 21
65.476861
 31
0.0
  0
ARC
  5
66
100
AcDbEntity
  8
0
  6
Continuous
 62
   174
100
AcDbCircle
 10
143.031588
 20
65.476861
 30
0.0
 40
15.0
100
AcDbArc
 50
180.0
 51
313.643263
  0
ARC
  5
67
100
AcDbEntity
  8
0
  6
Continuous
 62
   174
100
AcDbCircle
 10
247.031588
 20
85.476861
 30
0.0
 40
3.3
100
AcDbArc
 50
-180.0
 51
0.0
  0
ARC
  5
68
100
AcDbEntity
  8
0
  6
Continuous
 62
   174
100
AcDbCircle
 10
231.031588
 20
45.476861
 30
0.0
 40
3.3
100
AcDbArc
 50
0.0
 51
180.0
  0
LINE
  5
69
100
AcDbEntity
  8
0
  6
HIDDEN
 62
   174
100
AcDbLine
 10
204.551588
 20
49.476861
 30
0.0
 11
204.551588
 21
35.476861
 31
0.0
  0
LINE
  5
6A
100
AcDbEntity
  8
0
  6
HIDDEN
 62
   174
100
AcDbLine
 10
224.431588
 20
35.476861
 30
0.0
 11
224.431588
 21
50.476861
 31
0.0
  0
LINE
  5
6B
100
AcDbEntity
  8
0
  6
HIDDEN
 62
   174
100
AcDbLine
 10
224.431588
 20
49.476861
 30
0.0
 11
224.431588
 21
35.476861
 31
0.0
  0
LINE
  5
6C
100
AcDbEntity
  8
0
  6
HIDDEN
 62
   174
100
AcDbLine
 10
209.537172
 20
95.476861
 30
0.0
 11
188.577147
 21
95.476861
 31
0.0
  0
LINE
  5
6D
100
AcDbEntity
  8
0
  6
HIDDEN
 62
   174
100
AcDbLine
 10
208.431588
 20
95.476861
 30
0.0
 11
208.431588
 21
80.476861
 31
0.0
  0
LINE
  5
6E
100
AcDbEntity
  8
0
  6
HIDDEN
 62
   174
100
AcDbLine
 10
189.631588
 20
81.476861
 30
0.0
 11
189.631588
 21
95.476861
 31
0.0
  0
LINE
  5
6F
100
AcDbEntity
  8
0
  6
Continuous
 62
   174
100
AcDbLine
 10
128.031588
 20
35.476861
 30
0.0
 11
158.031588
 21
35.476861
 31
0.0
  0
LINE
  5
70
100
AcDbEntity
  8
0
  6
Continuous
 62
   174
100
AcDbLine
 10
128.031588
 20
95.476861
 30
0.0
 11
128.031588
 21
65.476861
 31
0.0
  0
ARC
  5
71
100
AcDbEntity
  8
0
  6
Continuous
 62
   174
100
AcDbCircle
 10
231.031588
 20
45.476861
 30
0.0
 40
3.3
100
AcDbArc
 50
-180.0
 51
0.0
  0
LWPOLYLINE
  5
72
100
AcDbEntity
  8
0
  6
HIDDEN
 62
   174
100
AcDbPolyline
 90
        6
 70
   128
 10
156.559469
 20
61.476861
 10
155.365519
 20
61.672635
 10
154.288441
 20
62.240793
 10
153.433668
 20
63.12572
 10
152.884869
 20
64.240793
 10
152.695766
 20
65.476861
  0
LINE
  5
73
100
AcDbEntity
  8
0
  6
HIDDEN
 62
   174
100
AcDbLine
 10
192.431588
 20
35.476861
 30
0.0
 11
192.431588
 21
50.476861
 31
0.0
  0
LINE
  5
74
100
AcDbEntity
  8
0
  6
HIDDEN
 62
   174
100
AcDbLine
 10
173.631588
 20
49.476861
 30
0.0
 11
173.631588
 21
35.476861
 31
0.0
  0
LINE
  5
75
100
AcDbEntity
  8
0
  6
HIDDEN
 62
   174
100
AcDbLine
 10
256.457205
 20
35.476861
 30
0.0
 11
237.657108
 21
35.476861
 31
0.0
  0
LINE
  5
76
100
AcDbEntity
  8
0
  6
HIDDEN
 62
   174
100
AcDbLine
 10
240.431588
 20
81.476861
 30
0.0
 11
240.431588
 21
95.476861
 31
0.0
  0
LINE
  5
77
100
AcDbEntity
  8
0
  6
HIDDEN
 62
   174
100
AcDbLine
 10
241.511588
 20
81.476861
 30
0.0
 11
241.511588
 21
95.476861
 31
0.0
  0
LINE
  5
78
100
AcDbEntity
  8
0
  6
HIDDEN
 62
   174
100
AcDbLine
 10
221.631588
 20
95.476861
 30
0.0
 11
221.631588
 21
80.476861
 31
0.0
  0
LINE
  5
79
100
AcDbEntity
  8
0
  6
HIDDEN
 62
   174
100
AcDbLine
 10
208.431588
 20
81.476861
 30
0.0
 11
208.431588
 21
95.476861
 31
0.0
  0
LINE
  5
7A
100
AcDbEntity
  8
0
  6
Continuous
 62
   174
100
AcDbLine
 10
158.031588
 20
95.476861
 30
0.0
 11
158.031588
 21
77.844339
 31
0.0
  0
LINE
  5
7B
100
AcDbEntity
  8
0
  6
Continuous
 62
   174
100
AcDbLine
 10
158.031588
 20
35.476861
 30
0.0
 11
272.031588
 21
35.476861
 31
0.0
  0
LINE
  5
7C
100
AcDbEntity
  8
0
  6
Continuous
 62
   174
100
AcDbLine
 10
158.031588
 20
77.844339
 30
0.0
 11
158.031588
 21
95.476861
 31
0.0
  0
ARC
  5
7D
100
AcDbEntity
  8
0
  6
Continuous
 62
   174
100
AcDbCircle
 10
199.031588
 20
45.476861
 30
0.0
 40
3.3
100
AcDbArc
 50
0.0
 51
180.0
  0
LINE
  5
7E
100
AcDbEntity
  8
0
  6
HIDDEN
 62
   174
100
AcDbLine
 10
204.577146
 20
35.476861
 30
0.0
 11
225.537171
 21
35.476861
 31
0.0
  0
LINE
  5
7F
100
AcDbEntity
  8
0
  6
HIDDEN
 62
   174
100
AcDbLine
 10
205.631588
 20
35.476861
 30
0.0
 11
205.631588
 21
50.476861
 31
0.0
  0
LINE
  5
80
100
AcDbEntity
  8
0
  6
HIDDEN
 62
   174
100
AcDbLine
 10
224.431588
 20
49.476861
 30
0.0
 11
224.431588
 21
35.476861
 31
0.0
  0
LINE
  5
81
100
AcDbEntity
  8
0
  6
HIDDEN
 62
   174
100
AcDbLine
 10
172.577147
 20
35.476861
 30
0.0
 11
193.537173
 21
35.476861
 31
0.0
  0
LINE
  5
82
100
AcDbEntity
  8
0
  6
HIDDEN
 62
   174
100
AcDbLine
 10
240.431588
 20
95.476861
 30
0.0
 11
240.431588
 21
80.476861
 31
0.0
  0
LINE
  5
83
100
AcDbEntity
  8
0
  6
HIDDEN
 62
   174
100
AcDbLine
 10
209.537172
 20
81.476861
 30
0.0
 11
188.577147
 21
81.476861
 31
0.0
  0
LINE
  5
84
100
AcDbEntity
  8
0
  6
HIDDEN
 62
   174
100
AcDbLine
 10
209.511588
 20
81.476861
 30
0.0
 11
209.511588
 21
95.476861
 31
0.0
  0
LINE
  5
85
100
AcDbEntity
  8
0
  6
HIDDEN
 62
   174
100
AcDbLine
 10
189.631588
 20
95.476861
 30
0.0
 11
189.631588
 21
80.476861
 31
0.0
  0
LINE
  5
86
100
AcDbEntity
  8
0
  6
HIDDEN
 62
   174
100
AcDbLine
 10
208.431588
 20
81.476861
 30
0.0
 11
208.431588
 21
95.476861
 31
0.0
  0
LINE
  5
87
100
AcDbEntity
  8
0
  6
HIDDEN
 62
   174
100
AcDbLine
 10
221.657109
 20
95.476861
 30
0.0
 11
240.457206
 21
95.476861
 31
0.0
  0
ARC
  5
88
100
AcDbEntity
  8
0
  6
HIDDEN
 62
   174
100
AcDbCircle
 10
143.031588
 20
65.476861
 30
0.0
 40
15.0
100
AcDbArc
 50
0.0
 51
46.313499
  0
ARC
  5
89
100
AcDbEntity
  8
0
  6
Continuous
 62
   174
100
AcDbCircle
 10
159.62459
 20
65.476861
 30
0.0
 40
12.5
100
AcDbArc
 50
-180.0
 51
0.0
  0
LINE
  5
8A
100
AcDbEntity
  8
0
  6
HIDDEN
 62
   174
100
AcDbLine
 10
205.631588
 20
49.476861
 30
0.0
 11
205.631588
 21
35.476861
 31
0.0
  0
LINE
  5
8B
100
AcDbEntity
  8
0
  6
HIDDEN
 62
   174
100
AcDbLine
 10
204.577146
 20
49.476861
 30
0.0
 11
225.537171
 21
49.476861
 31
0.0
  0
LINE
  5
8C
100
AcDbEntity
  8
0
  6
HIDDEN
 62
   174
100
AcDbLine
 10
193.511588
 20
49.476861
 30
0.0
 11
193.511588
 21
35.476861
 31
0.0
  0
LINE
  5
8D
100
AcDbEntity
  8
0
  6
HIDDEN
 62
   174
100
AcDbLine
 10
173.631588
 20
35.476861
 30
0.0
 11
173.631588
 21
50.476861
 31
0.0
  0
LINE
  5
8E
100
AcDbEntity
  8
0
  6
HIDDEN
 62
   174
100
AcDbLine
 10
192.431588
 20
49.476861
 30
0.0
 11
192.431588
 21
35.476861
 31
0.0
  0
LINE
  5
8F
100
AcDbEntity
  8
0
  6
HIDDEN
 62
   174
100
AcDbLine
 10
192.457209
 20
35.476861
 30
0.0
 11
173.657112
 21
35.476861
 31
0.0
  0
LINE
  5
90
100
AcDbEntity
  8
0
  6
HIDDEN
 62
   174
100
AcDbLine
 10
208.457208
 20
80.476861
 30
0.0
 11
189.657111
 21
80.476861
 31
0.0
  0
LINE
  5
91
100
AcDbEntity
  8
0
  6
HIDDEN
 62
   174
100
AcDbLine
 10
241.53717
 20
95.476861
 30
0.0
 11
220.577145
 21
95.476861
 31
0.0
  0
LINE
  5
92
100
AcDbEntity
  8
0
  6
HIDDEN
 62
   174
100
AcDbLine
 10
240.431588
 20
95.476861
 30
0.0
 11
240.431588
 21
80.476861
 31
0.0
  0
LINE
  5
93
100
AcDbEntity
  8
0
  6
HIDDEN
 62
   174
100
AcDbLine
 10
221.631588
 20
81.476861
 30
0.0
 11
221.631588
 21
95.476861
 31
0.0
  0
LINE
  5
94
100
AcDbEntity
  8
0
  6
HIDDEN
 62
   174
100
AcDbLine
 10
188.551588
 20
81.476861
 30
0.0
 11
188.551588
 21
95.476861
 31
0.0
  0
LINE
  5
95
100
AcDbEntity
  8
0
  6
HIDDEN
 62
   174
100
AcDbLine
 10
189.657111
 20
95.476861
 30
0.0
 11
208.457208
 21
95.476861
 31
0.0
  0
LINE
  5
96
100
AcDbEntity
  8
0
  6
HIDDEN
 62
   174
100
AcDbLine
 10
158.031588
 20
65.476861
 30
0.0
 11
158.031588
 21
53.121157
 31
0.0
  0
LINE
  5
97
100
AcDbEntity
  8
0
  6
Continuous
 62
   174
100
AcDbLine
 10
158.031588
 20
35.476861
 30
0.0
 11
158.031588
 21
53.121157
 31
0.0
  0
ARC
  5
98
100
AcDbEntity
  8
0
  6
HIDDEN
 62
   174
100
AcDbCircle
 10
143.031588
 20
65.476861
 30
0.0
 40
15.0
100
AcDbArc
 50
-46.356737
 51
0.0
  0
ARC
  5
99
100
AcDbEntity
  8
0
  6
Continuous
 62
   174
100
AcDbCircle
 10
183.031588
 20
85.476861
 30
0.0
 40
3.3
100
AcDbArc
 50
0.0
 51
180.0
  0
ARC
  5
9A
100
AcDbEntity
  8
0
  6
Continuous
 62
   174
100
AcDbCircle
 10
199.031588
 20
45.476861
 30
0.0
 40
3.3
100
AcDbArc
 50
-180.0
 51
0.0
  0
LWPOLYLINE
  5
9B
100
AcDbEntity
  8
0
  6
HIDDEN
 62
   174
100
AcDbPolyline
 90
        6
 70
   128
 10
156.559469
 20
69.476861
 10
155.365519
 20
69.281087
 10
154.288441
 20
68.712929
 10
153.433668
 20
67.828002
 10
152.884869
 20
66.712929
 10
152.695766
 20
65.476861
  0
LWPOLYLINE
  5
9C
100
AcDbEntity
  8
0
  6
HIDDEN
 62
   174
100
AcDbPolyline
 90
        5
 70
   128
 10
148.24449
 20
65.476861
 10
147.929267
 20
67.007594
 10
147.031589
 20
68.305287
 10
145.688119
 20
69.172378
 10
144.103387
 20
69.476861
  0
LWPOLYLINE
  5
9D
100
AcDbEntity
  8
0
  6
HIDDEN
 62
   174
100
AcDbPolyline
 90
        6
 70
   128
 10
144.103383
 20
61.476861
 10
145.383055
 20
61.672634
 10
146.537464
 20
62.240792
 10
147.453609
 20
63.125719
 10
148.04181
 20
64.240793
 10
148.24449
 20
65.476861
  0
LWPOLYLINE
  5
9E
100
AcDbEntity
  8
0
  6
Continuous
 62
   174
100
AcDbPolyline
 90
        5
 70
   128
 10
139.96228
 20
65.476861
 10
140.277503
 20
63.946128
 10
141.175181
 20
62.648435
 10
142.518651
 20
61.781344
 10
144.103383
 20
61.476861
  0
LINE
  5
9F
100
AcDbEntity
  8
0
  6
HIDDEN
 62
   174
100
AcDbLine
 10
237.657108
 20
50.476861
 30
0.0
 11
256.457205
 21
50.476861
 31
0.0
  0
LWPOLYLINE
  5
A0
100
AcDbEntity
  8
0
  6
HIDDEN
 62
   174
100
AcDbPolyline
 90
        5
 70
   128
 10
160.423172
 20
65.476861
 10
160.129066
 20
67.007595
 10
159.29152
 20
68.305288
 10
158.038044
 20
69.172379
 10
156.559469
 20
69.476861
  0
LWPOLYLINE
  5
A1
100
AcDbEntity
  8
0
  6
Continuous
 62
   174
100
AcDbPolyline
 90
        6
 70
   128
 10
144.103387
 20
69.476861
 10
142.823715
 20
69.281088
 10
141.669306
 20
68.71293
 10
140.753162
 20
67.828003
 10
140.164961
 20
66.71293
 10
139.96228
 20
65.476861
  0
LINE
  5
A2
100
AcDbEntity
  8
0
  6
HIDDEN
 62
   174
100
AcDbLine
 10
147.804157
 20
61.476861
 30
0.0
 11
156.559469
 21
61.476861
 31
0.0
  0
LINE
  5
A3
100
AcDbEntity
  8
0
  6
HIDDEN
 62
   174
100
AcDbLine
 10
147.806874
 20
69.476861
 30
0.0
 11
156.559469
 21
69.476861
 31
0.0
  0
LINE
  5
A4
100
AcDbEntity
  8
0
  6
Continuous
 62
   174
100
AcDbLine
 10
144.103385
 20
61.476861
 30
0.0
 11
147.804157
 21
61.476861
 31
0.0
  0
LINE
  5
A5
100
AcDbEntity
  8
0
  6
HIDDEN
 62
   174
100
AcDbLine
 10
173.657112
 20
50.476861
 30
0.0
 11
192.457209
 21
50.476861
 31
0.0
  0
LINE
  5
A6
100
AcDbEntity
  8
0
  6
Continuous
 62
   174
100
AcDbLine
 10
144.103385
 20
69.476861
 30
0.0
 11
147.806874
 21
69.476861
 31
0.0
  0
ENDBLK
  5
A7
100
AcDbEntity
  8
0
100
AcDbBlockEnd
  0
BLOCK
  5
AA
100
AcDbEntity
  8
0
100
AcDbBlockBegin
  2
*B2
 70
     0
 10
0.0
 20
0.0
 30
0.0
  3
*B2
  1

  0
ARC
  5
AB
100
AcDbEntity
  8
0
  6
Continuous
 62
   174
100
AcDbCircle
 10
247.031588
 20
170.586282
 30
0.0
 40
10.48
100
AcDbArc
 50
-180.0
 51
0.0
  0
ARC
  5
AC
100
AcDbEntity
  8
0
  6
Continuous
 62
   174
100
AcDbCircle
 10
247.031588
 20
170.586282
 30
0.0
 40
10.48
100
AcDbArc
 50
0.0
 51
118.794868
  0
ARC
  5
AD
100
AcDbEntity
  8
0
  6
Continuous
 62
   174
100
AcDbCircle
 10
215.031588
 20
170.586282
 30
0.0
 40
10.48
100
AcDbArc
 50
-180.0
 51
0.0
  0
ARC
  5
AE
100
AcDbEntity
  8
0
  6
Continuous
 62
   174
100
AcDbCircle
 10
215.031588
 20
170.586282
 30
0.0
 40
10.48
100
AcDbArc
 50
0.0
 51
118.805294
  0
ARC
  5
AF
100
AcDbEntity
  8
0
  6
Continuous
 62
   174
100
AcDbCircle
 10
183.031588
 20
170.586282
 30
0.0
 40
10.48
100
AcDbArc
 50
-180.0
 51
0.0
  0
ARC
  5
B0
100
AcDbEntity
  8
0
  6
Continuous
 62
   174
100
AcDbCircle
 10
183.031588
 20
170.586282
 30
0.0
 40
10.48
100
AcDbArc
 50
0.0
 51
118.802641
  0
ARC
  5
B1
100
AcDbEntity
  8
0
  6
Continuous
 62
   174
100
AcDbCircle
 10
215.031588
 20
170.586282
 30
0.0
 40
9.4
100
AcDbArc
 50
-166.660067
 51
0.0
  0
ARC
  5
B2
100
AcDbEntity
  8
0
  6
Continuous
 62
   174
100
AcDbCircle
 10
215.031588
 20
170.586282
 30
0.0
 40
9.4
100
AcDbArc
 50
0.0
 51
166.660067
  0
ARC
  5
B3
100
AcDbEntity
  8
0
  6
Continuous
 62
   174
100
AcDbCircle
 10
215.031588
 20
170.586282
 30
0.0
 40
9.4
100
AcDbArc
 50
166.660067
 51
180.0
  0
ARC
  5
B4
100
AcDbEntity
  8
0
  6
Continuous
 62
   174
100
AcDbCircle
 10
215.031588
 20
170.586282
 30
0.0
 40
9.4
100
AcDbArc
 50
180.0
 51
193.339933
  0
ARC
  5
B5
100
AcDbEntity
  8
0
  6
Continuous
 62
   174
100
AcDbCircle
 10
247.031588
 20
170.586282
 30
0.0
 40
9.4
100
AcDbArc
 50
-180.0
 51
0.0
  0
ARC
  5
B6
100
AcDbEntity
  8
0
  6
Continuous
 62
   174
100
AcDbCircle
 10
247.031588
 20
170.586282
 30
0.0
 40
9.4
100
AcDbArc
 50
0.0
 51
180.0
  0
ARC
  5
B7
100
AcDbEntity
  8
0
  6
Continuous
 62
   174
100
AcDbCircle
 10
183.031588
 20
170.586282
 30
0.0
 40
9.4
100
AcDbArc
 50
-180.0
 51
0.0
  0
ARC
  5
B8
100
AcDbEntity
  8
0
  6
Continuous
 62
   174
100
AcDbCircle
 10
183.031588
 20
170.586282
 30
0.0
 40
9.4
100
AcDbArc
 50
0.0
 51
180.0
  0
LINE
  5
B9
100
AcDbEntity
  8
0
  6
Continuous
 62
   174
100
AcDbLine
 10
158.031588
 20
155.586282
 30
0.0
 11
158.031588
 21
185.586282
 31
0.0
  0
LINE
  5
BA
100
AcDbEntity
  8
0
  6
Continuous
 62
   174
100
AcDbLine
 10
158.031588
 20
205.586282
 30
0.0
 11
158.031588
 21
185.586282
 31
0.0
  0
LINE
  5
BB
100
AcDbEntity
  8
0
  6
Continuous
 62
   174
100
AcDbLine
 10
139.96228
 20
205.586282
 30
0.0
 11
152.695766
 21
253.108297
 31
0.0
  0
LINE
  5
BC
100
AcDbEntity
  8
0
  6
Continuous
 62
   174
100
AcDbLine
 10
158.031588
 20
155.586282
 30
0.0
 11
158.031588
 21
185.586282
 31
0.0
  0
LINE
  5
BD
100
AcDbEntity
  8
0
  6
Continuous
 62
   174
100
AcDbLine
 10
272.031588
 20
155.586282
 30
0.0
 11
272.031588
 21
185.586282
 31
0.0
  0
ARC
  5
BE
100
AcDbEntity
  8
0
  6
Continuous
 62
   174
100
AcDbCircle
 10
159.62459
 20
263.512209
 30
0.0
 40
12.5
100
AcDbArc
 50
75.0
 51
236.337075
  0
LINE
  5
BF
100
AcDbEntity
  8
0
  6
Continuous
 62
   174
100
AcDbLine
 10
128.031588
 20
205.586282
 30
0.0
 11
128.031588
 21
185.586282
 31
0.0
  0
LINE
  5
C0
100
AcDbEntity
  8
0
  6
Continuous
 62
   174
100
AcDbLine
 10
152.711448
 20
253.104095
 30
0.0
 11
160.438794
 21
251.033559
 31
0.0
  0
LINE
  5
C1
100
AcDbEntity
  8
0
  6
Continuous
 62
   174
100
AcDbLine
 10
148.24449
 20
205.586282
 30
0.0
 11
160.423172
 21
251.037745
 31
0.0
  0
LINE
  5
C2
100
AcDbEntity
  8
0
  6
Continuous
 62
   174
100
AcDbLine
 10
158.031588
 20
155.586282
 30
0.0
 11
272.031588
 21
155.586282
 31
0.0
  0
ARC
  5
C3
100
AcDbEntity
  8
0
  6
Continuous
 62
   174
100
AcDbCircle
 10
159.62459
 20
263.512209
 30
0.0
 40
12.5
100
AcDbArc
 50
-86.337075
 51
75.0
  0
LINE
  5
C4
100
AcDbEntity
  8
0
  6
Continuous
 62
   174
100
AcDbLine
 10
128.031588
 20
185.586282
 30
0.0
 11
158.031588
 21
185.586282
 31
0.0
  0
LINE
  5
C5
100
AcDbEntity
  8
0
  6
Continuous
 62
   174
100
AcDbLine
 10
158.031588
 20
185.586282
 30
0.0
 11
272.031588
 21
185.586282
 31
0.0
  0
LINE
  5
C6
100
AcDbEntity
  8
0
  6
Continuous
 62
   174
100
AcDbLine
 10
158.031588
 20
205.586282
 30
0.0
 11
158.031588
 21
185.586282
 31
0.0
  0
LINE
  5
C7
100
AcDbEntity
  8
0
  6
Continuous
 62
   174
100
AcDbLine
 10
148.301525
 20
205.586282
 30
0.0
 11
158.057256
 21
205.586282
 31
0.0
  0
ARC
  5
C8
100
AcDbEntity
  8
0
  6
Continuous
 62
   174
100
AcDbCircle
 10
159.62459
 20
263.512209
 30
0.0
 40
12.5
100
AcDbArc
 50
75.0
 51
236.337075
  0
LINE
  5
C9
100
AcDbEntity
  8
0
  6
Continuous
 62
   174
100
AcDbLine
 10
139.96228
 20
205.586282
 30
0.0
 11
152.695766
 21
253.108297
 31
0.0
  0
LINE
  5
CA
100
AcDbEntity
  8
0
  6
Continuous
 62
   174
100
AcDbLine
 10
128.031588
 20
155.586282
 30
0.0
 11
128.031588
 21
185.586282
 31
0.0
  0
LINE
  5
CB
100
AcDbEntity
  8
0
  6
Continuous
 62
   174
100
AcDbLine
 10
128.031588
 20
205.586282
 30
0.0
 11
128.031588
 21
185.586282
 31
0.0
  0
LINE
  5
CC
100
AcDbEntity
  8
0
  6
Continuous
 62
   174
100
AcDbLine
 10
139.982944
 20
205.586282
 30
0.0
 11
148.301525
 21
205.586282
 31
0.0
  0
ARC
  5
CD
100
AcDbEntity
  8
0
  6
Continuous
 62
   174
100
AcDbCircle
 10
159.62459
 20
263.512209
 30
0.0
 40
12.5
100
AcDbArc
 50
-86.337075
 51
75.0
  0
LINE
  5
CE
100
AcDbEntity
  8
0
  6
Continuous
 62
   174
100
AcDbLine
 10
148.24449
 20
205.586282
 30
0.0
 11
160.423172
 21
251.037745
 31
0.0
  0
LINE
  5
CF
100
AcDbEntity
  8
0
  6
Continuous
 62
   174
100
AcDbLine
 10
128.031588
 20
155.586282
 30
0.0
 11
158.031588
 21
155.586282
 31
0.0
  0
LINE
  5
D0
100
AcDbEntity
  8
0
  6
Continuous
 62
   174
100
AcDbLine
 10
128.05737
 20
205.586282
 30
0.0
 11
139.982944
 21
205.586282
 31
0.0
  0
ENDBLK
  5
D1
100
AcDbEntity
  8
0
100
AcDbBlockEnd
  0
BLOCK
  5
D4
100
AcDbEntity
  8
0
100
AcDbBlockBegin
  2
*B3
 70
     0
 10
0.0
 20
0.0
 30
0.0
  3
*B3
  1

  0
ARC
  5
D5
100
AcDbEntity
  8
0
  6
HIDDEN
 62
   172
100
AcDbCircle
 10
126.463159
 20
263.400001
 30
0.0
 40
12.525175
100
AcDbArc
 50
-56.380974
 51
266.46205
  0
LINE
  5
D6
100
AcDbEntity
  8
0
  6
HIDDEN
 62
   172
100
AcDbLine
 10
125.663177
 20
251.0
 30
0.0
 11
137.763177
 21
205.7
 31
0.0
  0
LINE
  5
D7
100
AcDbEntity
  8
0
  6
HIDDEN
 62
   172
100
AcDbLine
 10
133.363177
 20
253.1
 30
0.0
 11
125.663177
 21
251.0
 31
0.0
  0
LINE
  5
D8
100
AcDbEntity
  8
0
  6
HIDDEN
 62
   172
100
AcDbLine
 10
146.051638
 20
205.596916
 30
0.0
 11
133.363177
 21
253.1
 31
0.0
  0
ENDBLK
  5
D9
100
AcDbEntity
  8
0
100
AcDbBlockEnd
  0
BLOCK
  5
DC
100
AcDbEntity
  8
0
100
AcDbBlockBegin
  2
*B4
 70
     0
 10
0.0
 20
0.0
 30
0.0
  3
*B4
  1

  0
LINE
  5
DD
100
AcDbEntity
  8
0
  6
Continuous
 62
     0
100
AcDbLine
 10
302.025704
 20
95.521445
 30
0.0
 11
302.025704
 21
35.525579
 31
0.0
  0
SOLID
  5
DE
100
AcDbEntity
  8
0
  6
Continuous
 62
     0
100
AcDbTrace
 10
303.02546
 20
90.521765
 30
0.0
 11
302.025704
 21
95.521445
 31
0.0
 12
301.025648
 22
90.521765
 32
0.0
 13
301.025648
 23
90.521765
 33
0.0
  0
SOLID
  5
DF
100
AcDbEntity
  8
0
  6
Continuous
 62
     0
100
AcDbTrace
 10
301.025648
 20
40.52526
 30
0.0
 11
302.025704
 21
35.525579
 31
0.0
 12
303.02546
 22
40.52526
 32
0.0
 13
303.02546
 23
40.52526
 33
0.0
  0
ENDBLK
  5
E0
100
AcDbEntity
  8
0
100
AcDbBlockEnd
  0
BLOCK
  5
E3
100
AcDbEntity
  8
0
100
AcDbBlockBegin
  2
*B5
 70
     0
 10
0.0
 20
0.0
 30
0.0
  3
*B5
  1

  0
LINE
  5
E4
100
AcDbEntity
  8
0
  6
Continuous
 62
     0
100
AcDbLine
 10
287.025461
 20
85.522084
 30
0.0
 11
287.025461
 21
45.52494
 31
0.0
  0
SOLID
  5
E5
100
AcDbEntity
  8
0
  6
Continuous
 62
     0
100
AcDbTrace
 10
288.025517
 20
80.522404
 30
0.0
 11
287.025461
 21
85.522084
 31
0.0
 12
286.025705
 22
80.522404
 32
0.0
 13
286.025705
 23
80.522404
 33
0.0
  0
SOLID
  5
E6
100
AcDbEntity
  8
0
  6
Continuous
 62
     0
100
AcDbTrace
 10
286.025705
 20
50.524621
 30
0.0
 11
287.025461
 21
45.52494
 31
0.0
 12
288.025517
 22
50.524621
 32
0.0
 13
288.025517
 23
50.524621
 33
0.0
  0
ENDBLK
  5
E7
100
AcDbEntity
  8
0
100
AcDbBlockEnd
  0
BLOCK
  5
EA
100
AcDbEntity
  8
0
100
AcDbBlockBegin
  2
*B6
 70
     0
 10
0.0
 20
0.0
 30
0.0
  3
*B6
  1

  0
LINE
  5
EB
100
AcDbEntity
  8
0
  6
Continuous
 62
     0
100
AcDbLine
 10
199.057159
 20
110.386205
 30
0.0
 11
231.057158
 21
110.386205
 31
0.0
  0
SOLID
  5
EC
100
AcDbEntity
  8
0
  6
Continuous
 62
     0
100
AcDbTrace
 10
204.05714
 20
111.385961
 30
0.0
 11
199.057159
 21
110.386205
 31
0.0
 12
204.05714
 22
109.386148
 32
0.0
 13
204.05714
 23
109.386148
 33
0.0
  0
SOLID
  5
ED
100
AcDbEntity
  8
0
  6
Continuous
 62
     0
100
AcDbTrace
 10
226.057177
 20
109.386148
 30
0.0
 11
231.057158
 21
110.386205
 31
0.0
 12
226.057177
 22
111.385961
 32
0.0
 13
226.057177
 23
111.385961
 33
0.0
  0
ENDBLK
  5
EE
100
AcDbEntity
  8
0
100
AcDbBlockEnd
  0
BLOCK
  5
F1
100
AcDbEntity
  8
0
100
AcDbBlockBegin
  2
*B7
 70
     0
 10
0.0
 20
0.0
 30
0.0
  3
*B7
  1

  0
LINE
  5
F2
100
AcDbEntity
  8
0
  6
Continuous
 62
     0
100
AcDbLine
 10
231.057158
 20
110.386205
 30
0.0
 11
272.057061
 21
110.386205
 31
0.0
  0
SOLID
  5
F3
100
AcDbEntity
  8
0
  6
Continuous
 62
     0
100
AcDbTrace
 10
236.057138
 20
111.385961
 30
0.0
 11
231.057158
 21
110.386205
 31
0.0
 12
236.057138
 22
109.386148
 32
0.0
 13
236.057138
 23
109.386148
 33
0.0
  0
SOLID
  5
F4
100
AcDbEntity
  8
0
  6
Continuous
 62
     0
100
AcDbTrace
 10
267.05708
 20
109.386148
 30
0.0
 11
272.057061
 21
110.386205
 31
0.0
 12
267.05708
 22
111.385961
 32
0.0
 13
267.05708
 23
111.385961
 33
0.0
  0
ENDBLK
  5
F5
100
AcDbEntity
  8
0
100
AcDbBlockEnd
  0
BLOCK
  5
F8
100
AcDbEntity
  8
0
100
AcDbBlockBegin
  2
*B8
 70
     0
 10
0.0
 20
0.0
 30
0.0
  3
*B8
  1

  0
LINE
  5
F9
100
AcDbEntity
  8
0
  6
Continuous
 62
     0
100
AcDbLine
 10
247.057157
 20
18.392744
 30
0.0
 11
272.057061
 21
18.392744
 31
0.0
  0
SOLID
  5
FA
100
AcDbEntity
  8
0
  6
Continuous
 62
     0
100
AcDbTrace
 10
252.057137
 20
19.3928
 30
0.0
 11
247.057157
 21
18.392744
 31
0.0
 12
252.057137
 22
17.392988
 32
0.0
 13
252.057137
 23
17.392988
 33
0.0
  0
SOLID
  5
FB
100
AcDbEntity
  8
0
  6
Continuous
 62
     0
100
AcDbTrace
 10
267.05708
 20
17.392988
 30
0.0
 11
272.057061
 21
18.392744
 31
0.0
 12
267.05708
 22
19.3928
 32
0.0
 13
267.05708
 23
19.3928
 33
0.0
  0
ENDBLK
  5
FC
100
AcDbEntity
  8
0
100
AcDbBlockEnd
  0
BLOCK
  5
FF
100
AcDbEntity
  8
0
100
AcDbBlockBegin
  2
*B9
 70
     0
 10
0.0
 20
0.0
 30
0.0
  3
*B9
  1

  0
LINE
  5
100
100
AcDbEntity
  8
0
  6
Continuous
 62
     0
100
AcDbLine
 10
158.057256
 20
138.04141
 30
0.0
 11
272.057061
 21
138.04141
 31
0.0
  0
SOLID
  5
101
100
AcDbEntity
  8
0
  6
Continuous
 62
     0
100
AcDbTrace
 10
163.057237
 20
139.041467
 30
0.0
 11
158.057256
 21
138.04141
 31
0.0
 12
163.057237
 22
137.041354
 32
0.0
 13
163.057237
 23
137.041354
 33
0.0
  0
SOLID
  5
102
100
AcDbEntity
  8
0
  6
Continuous
 62
     0
100
AcDbTrace
 10
267.05708
 20
137.041354
 30
0.0
 11
272.057061
 21
138.04141
 31
0.0
 12
267.05708
 22
139.041467
 32
0.0
 13
267.05708
 23
139.041467
 33
0.0
  0
ENDBLK
  5
103
100
AcDbEntity
  8
0
100
AcDbBlockEnd
  0
BLOCK
  5
106
100
AcDbEntity
  8
0
100
AcDbBlockBegin
  2
*B10
 70
     0
 10
0.0
 20
0.0
 30
0.0
  3
*B10
  1

  0
LINE
  5
107
100
AcDbEntity
  8
0
  6
Continuous
 62
     0
100
AcDbLine
 10
158.057256
 20
138.04141
 30
0.0
 11
128.05737
 21
138.04141
 31
0.0
  0
SOLID
  5
108
100
AcDbEntity
  8
0
  6
Continuous
 62
     0
100
AcDbTrace
 10
153.057275
 20
137.041354
 30
0.0
 11
158.057256
 21
138.04141
 31
0.0
 12
153.057275
 22
139.041467
 32
0.0
 13
153.057275
 23
139.041467
 33
0.0
  0
SOLID
  5
109
100
AcDbEntity
  8
0
  6
Continuous
 62
     0
100
AcDbTrace
 10
133.057351
 20
139.041467
 30
0.0
 11
128.05737
 21
138.04141
 31
0.0
 12
133.057351
 22
137.041354
 32
0.0
 13
133.057351
 23
137.041354
 33
0.0
  0
ENDBLK
  5
10A
100
AcDbEntity
  8
0
100
AcDbBlockEnd
  0
BLOCK
  5
10D
100
AcDbEntity
  8
0
100
AcDbBlockBegin
  2
*B11
 70
     0
 10
0.0
 20
0.0
 30
0.0
  3
*B11
  1

  0
LINE
  5
10E
100
AcDbEntity
  8
0
  6
Continuous
 62
     0
100
AcDbLine
 10
114.02564
 20
175.625081
 30
0.0
 11
114.02564
 21
215.622225
 31
0.0
  0
SOLID
  5
10F
100
AcDbEntity
  8
0
  6
Continuous
 62
     0
100
AcDbTrace
 10
115.025697
 20
180.624461
 30
0.0
 11
114.02564
 21
185.624142
 31
0.0
 12
113.025584
 22
180.624461
 32
0.0
 13
113.025584
 23
180.624461
 33
0.0
  0
SOLID
  5
110
100
AcDbEntity
  8
0
  6
Continuous
 62
     0
100
AcDbTrace
 10
113.025584
 20
210.622544
 30
0.0
 11
114.02564
 21
205.622864
 31
0.0
 12
115.025697
 22
210.622544
 32
0.0
 13
115.025697
 23
210.622544
 33
0.0
  0
ENDBLK
  5
111
100
AcDbEntity
  8
0
100
AcDbBlockEnd
  0
BLOCK
  5
114
100
AcDbEntity
  8
0
100
AcDbBlockBegin
  2
*B12
 70
     0
 10
0.0
 20
0.0
 30
0.0
  3
*B12
  1

  0
LINE
  5
115
100
AcDbEntity
  8
0
  6
Continuous
 62
     0
100
AcDbLine
 10
98.025641
 20
276.043768
 30
0.0
 11
98.025641
 21
155.626359
 31
0.0
  0
SOLID
  5
116
100
AcDbEntity
  8
0
  6
Continuous
 62
     0
100
AcDbTrace
 10
99.025698
 20
271.044087
 30
0.0
 11
98.025641
 21
276.043768
 31
0.0
 12
97.025585
 22
271.044087
 32
0.0
 13
97.025585
 23
271.044087
 33
0.0
  0
SOLID
  5
117
100
AcDbEntity
  8
0
  6
Continuous
 62
     0
100
AcDbTrace
 10
97.025585
 20
160.62604
 30
0.0
 11
98.025641
 21
155.626359
 31
0.0
 12
99.025698
 22
160.62604
 32
0.0
 13
99.025698
 23
160.62604
 33
0.0
  0
ENDBLK
  5
118
100
AcDbEntity
  8
0
100
AcDbBlockEnd
  0
BLOCK
  5
11B
100
AcDbEntity
  8
0
100
AcDbBlockBegin
  2
*B13
 70
     0
 10
0.0
 20
0.0
 30
0.0
  3
*B13
  1

  0
LINE
  5
11C
100
AcDbEntity
  8
0
  6
Continuous
 62
     0
100
AcDbLine
 10
300.025592
 20
185.624142
 30
0.0
 11
300.025592
 21
155.626359
 31
0.0
  0
SOLID
  5
11D
100
AcDbEntity
  8
0
  6
Continuous
 62
     0
100
AcDbTrace
 10
301.025648
 20
180.624461
 30
0.0
 11
300.025592
 21
185.624142
 31
0.0
 12
299.025536
 22
180.624461
 32
0.0
 13
299.025536
 23
180.624461
 33
0.0
  0
SOLID
  5
11E
100
AcDbEntity
  8
0
  6
Continuous
 62
     0
100
AcDbTrace
 10
299.025536
 20
160.62604
 30
0.0
 11
300.025592
 21
155.626359
 31
0.0
 12
301.025648
 22
160.62604
 32
0.0
 13
301.025648
 23
160.62604
 33
0.0
  0
ENDBLK
  5
11F
100
AcDbEntity
  8
0
100
AcDbBlockEnd
  0
BLOCK
  5
122
100
AcDbEntity
  8
0
100
AcDbBlockBegin
  2
*B14
 70
     0
 10
0.0
 20
0.0
 30
0.0
  3
*B14
  1

  0
LINE
  5
123
100
AcDbEntity
  8
0
  6
Continuous
 62
     0
100
AcDbLine
 10
247.057157
 20
18.392744
 30
0.0
 11
215.057158
 21
18.392744
 31
0.0
  0
SOLID
  5
124
100
AcDbEntity
  8
0
  6
Continuous
 62
     0
100
AcDbTrace
 10
242.057176
 20
17.392988
 30
0.0
 11
247.057157
 21
18.392744
 31
0.0
 12
242.057176
 22
19.3928
 32
0.0
 13
242.057176
 23
19.3928
 33
0.0
  0
SOLID
  5
125
100
AcDbEntity
  8
0
  6
Continuous
 62
     0
100
AcDbTrace
 10
220.057139
 20
19.3928
 30
0.0
 11
215.057158
 21
18.392744
 31
0.0
 12
220.057139
 22
17.392988
 32
0.0
 13
220.057139
 23
17.392988
 33
0.0
  0
ENDBLK
  5
126
100
AcDbEntity
  8
0
100
AcDbBlockEnd
  0
BLOCK
  5
129
100
AcDbEntity
  8
0
100
AcDbBlockBegin
  2
*B15
 70
     0
 10
0.0
 20
0.0
 30
0.0
  3
*B15
  1

  0
LINE
  5
12A
100
AcDbEntity
  8
0
  6
Continuous
 62
     0
100
AcDbLine
 10
183.05716
 20
18.392744
 30
0.0
 11
215.057158
 21
18.392744
 31
0.0
  0
SOLID
  5
12B
100
AcDbEntity
  8
0
  6
Continuous
 62
     0
100
AcDbTrace
 10
188.057141
 20
19.3928
 30
0.0
 11
183.05716
 21
18.392744
 31
0.0
 12
188.057141
 22
17.392988
 32
0.0
 13
188.057141
 23
17.392988
 33
0.0
  0
SOLID
  5
12C
100
AcDbEntity
  8
0
  6
Continuous
 62
     0
100
AcDbTrace
 10
210.057178
 20
17.392988
 30
0.0
 11
215.057158
 21
18.392744
 31
0.0
 12
210.057178
 22
19.3928
 32
0.0
 13
210.057178
 23
19.3928
 33
0.0
  0
ENDBLK
  5
12D
100
AcDbEntity
  8
0
100
AcDbBlockEnd
  0
BLOCK
  5
130
100
AcDbEntity
  8
0
100
AcDbBlockBegin
  2
*B16
 70
     0
 10
0.0
 20
0.0
 30
0.0
  3
*B16
  1

  0
LINE
  5
131
100
AcDbEntity
  8
0
  6
Continuous
 62
     0
100
AcDbLine
 10
196.357098
 20
110.04344
 30
0.0
 11
158.096609
 21
110.04344
 31
0.0
  0
SOLID
  5
132
100
AcDbEntity
  8
0
  6
Continuous
 62
     0
100
AcDbTrace
 10
191.357117
 20
111.043496
 30
0.0
 11
186.357136
 21
110.04344
 31
0.0
 12
191.357117
 22
109.043384
 32
0.0
 13
191.357117
 23
109.043384
 33
0.0
  0
SOLID
  5
133
100
AcDbEntity
  8
0
  6
Continuous
 62
     0
100
AcDbTrace
 10
174.757204
 20
109.043384
 30
0.0
 11
179.757185
 21
110.04344
 31
0.0
 12
174.757204
 22
111.043496
 32
0.0
 13
174.757204
 23
111.043496
 33
0.0
  0
ENDBLK
  5
134
100
AcDbEntity
  8
0
100
AcDbBlockEnd
  0
BLOCK
  5
137
100
AcDbEntity
  8
0
100
AcDbBlockBegin
  2
*B17
 70
     0
 10
0.0
 20
0.0
 30
0.0
  3
*B17
  1

  0
LINE
  5
138
100
AcDbEntity
  8
0
  6
Continuous
 62
     0
100
AcDbLine
 10
227.657146
 20
198.036976
 30
0.0
 11
284.921408
 21
198.036976
 31
0.0
  0
SOLID
  5
139
100
AcDbEntity
  8
0
  6
Continuous
 62
     0
100
AcDbTrace
 10
232.657127
 20
197.03722
 30
0.0
 11
237.657108
 21
198.036976
 31
0.0
 12
232.657127
 22
199.037032
 32
0.0
 13
232.657127
 23
199.037032
 33
0.0
  0
SOLID
  5
13A
100
AcDbEntity
  8
0
  6
Continuous
 62
     0
100
AcDbTrace
 10
261.457186
 20
199.037032
 30
0.0
 11
256.457205
 21
198.036976
 31
0.0
 12
261.457186
 22
197.03722
 32
0.0
 13
261.457186
 23
197.03722
 33
0.0
  0
ENDBLK
  5
13B
100
AcDbEntity
  8
0
100
AcDbBlockEnd
  0
BLOCK
  5
13E
100
AcDbEntity
  8
0
100
AcDbBlockBegin
  2
*B18
 70
     0
 10
0.0
 20
0.0
 30
0.0
  3
*B18
  1

  0
LINE
  5
13F
100
AcDbEntity
  8
0
  6
Continuous
 62
     0
100
AcDbLine
 10
183.05716
 20
124.042425
 30
0.0
 11
247.057157
 21
124.042425
 31
0.0
  0
SOLID
  5
140
100
AcDbEntity
  8
0
  6
Continuous
 62
     0
100
AcDbTrace
 10
188.057141
 20
125.042481
 30
0.0
 11
183.05716
 21
124.042425
 31
0.0
 12
188.057141
 22
123.042369
 32
0.0
 13
188.057141
 23
123.042369
 33
0.0
  0
SOLID
  5
141
100
AcDbEntity
  8
0
  6
Continuous
 62
     0
100
AcDbTrace
 10
242.057176
 20
123.042369
 30
0.0
 11
247.057157
 21
124.042425
 31
0.0
 12
242.057176
 22
125.042481
 32
0.0
 13
242.057176
 23
125.042481
 33
0.0
  0
ENDBLK
  5
142
100
AcDbEntity
  8
0
100
AcDbBlockEnd
  0
BLOCK
  5
145
100
AcDbEntity
  8
0
100
AcDbBlockBegin
  2
*B19
 70
     0
 10
0.0
 20
0.0
 30
0.0
  3
*B19
  1

  0
LINE
  5
146
100
AcDbEntity
  8
0
  6
Continuous
 62
     8
100
AcDbLine
 10
215.057158
 20
157.226329
 30
0.0
 11
215.057158
 21
167.625532
 31
0.0
  0
LINE
  5
147
100
AcDbEntity
  8
0
  6
Continuous
 62
     8
100
AcDbLine
 10
215.057158
 20
173.624969
 30
0.0
 11
215.057158
 21
184.024472
 31
0.0
  0
ENDBLK
  5
148
100
AcDbEntity
  8
0
100
AcDbBlockEnd
  0
BLOCK
  5
14B
100
AcDbEntity
  8
0
100
AcDbBlockBegin
  2
*B20
 70
     0
 10
0.0
 20
0.0
 30
0.0
  3
*B20
  1

  0
LINE
  5
14C
100
AcDbEntity
  8
0
  6
Continuous
 62
     8
100
AcDbLine
 10
143.150139
 20
263.544717
 30
0.0
 11
156.650147
 21
263.544717
 31
0.0
  0
LINE
  5
14D
100
AcDbEntity
  8
0
  6
Continuous
 62
     8
100
AcDbLine
 10
162.650185
 20
263.544717
 30
0.0
 11
176.150193
 21
263.544717
 31
0.0
  0
ENDBLK
  5
14E
100
AcDbEntity
  8
0
100
AcDbBlockEnd
  0
BLOCK
  5
151
100
AcDbEntity
  8
0
100
AcDbBlockBegin
  2
*B21
 70
     0
 10
0.0
 20
0.0
 30
0.0
  3
*B21
  1

  0
LINE
  5
152
100
AcDbEntity
  8
0
  6
Continuous
 62
     8
100
AcDbLine
 10
215.057158
 20
16.392932
 30
0.0
 11
215.057158
 21
20.392556
 31
0.0
  0
LINE
  5
153
100
AcDbEntity
  8
0
  6
Continuous
 62
     8
100
AcDbLine
 10
215.057158
 20
20.392556
 30
0.0
 11
215.057158
 21
28.436866
 31
0.0
  0
LINE
  5
154
100
AcDbEntity
  8
0
  6
Continuous
 62
     8
100
AcDbLine
 10
215.057158
 20
30.436678
 30
0.0
 11
215.057158
 21
31.436434
 31
0.0
  0
LINE
  5
155
100
AcDbEntity
  8
0
  6
Continuous
 62
     8
100
AcDbLine
 10
215.057158
 20
33.436546
 30
0.0
 11
215.057158
 21
41.480556
 31
0.0
  0
LINE
  5
156
100
AcDbEntity
  8
0
  6
Continuous
 62
     8
100
AcDbLine
 10
215.057158
 20
43.480368
 30
0.0
 11
215.057158
 21
44.480424
 31
0.0
  0
LINE
  5
157
100
AcDbEntity
  8
0
  6
Continuous
 62
     8
100
AcDbLine
 10
215.057158
 20
46.480236
 30
0.0
 11
215.057158
 21
54.524245
 31
0.0
  0
ENDBLK
  5
158
100
AcDbEntity
  8
0
100
AcDbBlockEnd
  0
BLOCK
  5
15B
100
AcDbEntity
  8
0
100
AcDbBlockBegin
  2
*B22
 70
     0
 10
0.0
 20
0.0
 30
0.0
  3
*B22
  1

  0
LINE
  5
15C
100
AcDbEntity
  8
0
  6
Continuous
 62
     8
100
AcDbLine
 10
126.488943
 20
246.908455
 30
0.0
 11
126.488943
 21
260.432496
 31
0.0
  0
LINE
  5
15D
100
AcDbEntity
  8
0
  6
Continuous
 62
     8
100
AcDbLine
 10
126.488943
 20
266.432233
 30
0.0
 11
126.488943
 21
279.956274
 31
0.0
  0
ENDBLK
  5
15E
100
AcDbEntity
  8
0
100
AcDbBlockEnd
  0
BLOCK
  5
161
100
AcDbEntity
  8
0
100
AcDbBlockBegin
  2
*B23
 70
     0
 10
0.0
 20
0.0
 30
0.0
  3
*B23
  1

  0
LINE
  5
162
100
AcDbEntity
  8
0
  6
Continuous
 62
     8
100
AcDbLine
 10
143.057313
 20
46.524997
 30
0.0
 11
143.057313
 21
62.523794
 31
0.0
  0
LINE
  5
163
100
AcDbEntity
  8
0
  6
Continuous
 62
     8
100
AcDbLine
 10
143.057313
 20
68.523231
 30
0.0
 11
143.057313
 21
84.522028
 31
0.0
  0
ENDBLK
  5
164
100
AcDbEntity
  8
0
100
AcDbBlockEnd
  0
BLOCK
  5
167
100
AcDbEntity
  8
0
100
AcDbBlockBegin
  2
*B24
 70
     0
 10
0.0
 20
0.0
 30
0.0
  3
*B24
  1

  0
LINE
  5
168
100
AcDbEntity
  8
0
  6
Continuous
 62
     8
100
AcDbLine
 10
183.05716
 20
157.226329
 30
0.0
 11
183.05716
 21
167.625532
 31
0.0
  0
LINE
  5
169
100
AcDbEntity
  8
0
  6
Continuous
 62
     8
100
AcDbLine
 10
183.05716
 20
173.624969
 30
0.0
 11
183.05716
 21
184.024472
 31
0.0
  0
ENDBLK
  5
16A
100
AcDbEntity
  8
0
100
AcDbBlockEnd
  0
BLOCK
  5
16D
100
AcDbEntity
  8
0
100
AcDbBlockBegin
  2
*B25
 70
     0
 10
0.0
 20
0.0
 30
0.0
  3
*B25
  1

  0
LINE
  5
16E
100
AcDbEntity
  8
0
  6
Continuous
 62
     8
100
AcDbLine
 10
183.05716
 20
16.392932
 30
0.0
 11
183.05716
 21
20.392556
 31
0.0
  0
LINE
  5
16F
100
AcDbEntity
  8
0
  6
Continuous
 62
     8
100
AcDbLine
 10
183.05716
 20
122.042613
 30
0.0
 11
183.05716
 21
126.042237
 31
0.0
  0
LINE
  5
170
100
AcDbEntity
  8
0
  6
Continuous
 62
     8
100
AcDbLine
 10
183.05716
 20
20.392556
 30
0.0
 11
183.05716
 21
28.818984
 31
0.0
  0
LINE
  5
171
100
AcDbEntity
  8
0
  6
Continuous
 62
     8
100
AcDbLine
 10
183.05716
 20
30.818796
 30
0.0
 11
183.05716
 21
31.818552
 31
0.0
  0
LINE
  5
172
100
AcDbEntity
  8
0
  6
Continuous
 62
     8
100
AcDbLine
 10
183.05716
 20
33.818364
 30
0.0
 11
183.05716
 21
42.244792
 31
0.0
  0
LINE
  5
173
100
AcDbEntity
  8
0
  6
Continuous
 62
     8
100
AcDbLine
 10
183.05716
 20
44.244604
 30
0.0
 11
183.05716
 21
45.24436
 31
0.0
  0
LINE
  5
174
100
AcDbEntity
  8
0
  6
Continuous
 62
     8
100
AcDbLine
 10
183.05716
 20
47.244473
 30
0.0
 11
183.05716
 21
55.6706
 31
0.0
  0
LINE
  5
175
100
AcDbEntity
  8
0
  6
Continuous
 62
     8
100
AcDbLine
 10
183.05716
 20
57.670412
 30
0.0
 11
183.05716
 21
58.670468
 31
0.0
  0
LINE
  5
176
100
AcDbEntity
  8
0
  6
Continuous
 62
     8
100
AcDbLine
 10
183.05716
 20
60.67028
 30
0.0
 11
183.05716
 21
69.096408
 31
0.0
  0
LINE
  5
177
100
AcDbEntity
  8
0
  6
Continuous
 62
     8
100
AcDbLine
 10
183.05716
 20
71.09622
 30
0.0
 11
183.05716
 21
72.096276
 31
0.0
  0
LINE
  5
178
100
AcDbEntity
  8
0
  6
Continuous
 62
     8
100
AcDbLine
 10
183.05716
 20
74.096088
 30
0.0
 11
183.05716
 21
82.522216
 31
0.0
  0
LINE
  5
179
100
AcDbEntity
  8
0
  6
Continuous
 62
     8
100
AcDbLine
 10
183.05716
 20
88.521953
 30
0.0
 11
183.05716
 21
96.362286
 31
0.0
  0
LINE
  5
17A
100
AcDbEntity
  8
0
  6
Continuous
 62
     8
100
AcDbLine
 10
183.05716
 20
98.362098
 30
0.0
 11
183.05716
 21
99.362154
 31
0.0
  0
LINE
  5
17B
100
AcDbEntity
  8
0
  6
Continuous
 62
     8
100
AcDbLine
 10
183.05716
 20
101.361966
 30
0.0
 11
183.05716
 21
109.202299
 31
0.0
  0
LINE
  5
17C
100
AcDbEntity
  8
0
  6
Continuous
 62
     8
100
AcDbLine
 10
183.05716
 20
111.202412
 30
0.0
 11
183.05716
 21
112.202168
 31
0.0
  0
LINE
  5
17D
100
AcDbEntity
  8
0
  6
Continuous
 62
     8
100
AcDbLine
 10
183.05716
 20
114.20198
 30
0.0
 11
183.05716
 21
122.042613
 31
0.0
  0
ENDBLK
  5
17E
100
AcDbEntity
  8
0
100
AcDbBlockEnd
  0
BLOCK
  5
181
100
AcDbEntity
  8
0
100
AcDbBlockBegin
  2
*B26
 70
     0
 10
0.0
 20
0.0
 30
0.0
  3
*B26
  1

  0
LINE
  5
182
100
AcDbEntity
  8
0
  6
Continuous
 62
     8
100
AcDbLine
 10
274.057174
 20
35.525579
 30
0.0
 11
304.025517
 21
35.525579
 31
0.0
  0
ENDBLK
  5
183
100
AcDbEntity
  8
0
100
AcDbBlockEnd
  0
BLOCK
  5
186
100
AcDbEntity
  8
0
100
AcDbBlockBegin
  2
*B27
 70
     0
 10
0.0
 20
0.0
 30
0.0
  3
*B27
  1

  0
LINE
  5
187
100
AcDbEntity
  8
0
  6
Continuous
 62
     8
100
AcDbLine
 10
191.757259
 20
45.52494
 30
0.0
 11
196.057291
 21
45.52494
 31
0.0
  0
LINE
  5
188
100
AcDbEntity
  8
0
  6
Continuous
 62
     8
100
AcDbLine
 10
202.057328
 20
45.52494
 30
0.0
 11
206.35736
 21
45.52494
 31
0.0
  0
ENDBLK
  5
189
100
AcDbEntity
  8
0
100
AcDbBlockEnd
  0
BLOCK
  5
18C
100
AcDbEntity
  8
0
100
AcDbBlockBegin
  2
*B28
 70
     0
 10
0.0
 20
0.0
 30
0.0
  3
*B28
  1

  0
LINE
  5
18D
100
AcDbEntity
  8
0
  6
Continuous
 62
     8
100
AcDbLine
 10
285.025649
 20
45.52494
 30
0.0
 11
289.025574
 21
45.52494
 31
0.0
  0
LINE
  5
18E
100
AcDbEntity
  8
0
  6
Continuous
 62
     8
100
AcDbLine
 10
223.757257
 20
45.52494
 30
0.0
 11
228.057289
 21
45.52494
 31
0.0
  0
LINE
  5
18F
100
AcDbEntity
  8
0
  6
Continuous
 62
     8
100
AcDbLine
 10
234.057326
 20
45.52494
 30
0.0
 11
243.049421
 21
45.52494
 31
0.0
  0
LINE
  5
190
100
AcDbEntity
  8
0
  6
Continuous
 62
     8
100
AcDbLine
 10
245.049233
 20
45.52494
 30
0.0
 11
246.04929
 21
45.52494
 31
0.0
  0
LINE
  5
191
100
AcDbEntity
  8
0
  6
Continuous
 62
     8
100
AcDbLine
 10
248.049402
 20
45.52494
 30
0.0
 11
257.041497
 21
45.52494
 31
0.0
  0
LINE
  5
192
100
AcDbEntity
  8
0
  6
Continuous
 62
     8
100
AcDbLine
 10
259.041309
 20
45.52494
 30
0.0
 11
260.041366
 21
45.52494
 31
0.0
  0
LINE
  5
193
100
AcDbEntity
  8
0
  6
Continuous
 62
     8
100
AcDbLine
 10
262.041478
 20
45.52494
 30
0.0
 11
271.033573
 21
45.52494
 31
0.0
  0
LINE
  5
194
100
AcDbEntity
  8
0
  6
Continuous
 62
     8
100
AcDbLine
 10
273.033385
 20
45.52494
 30
0.0
 11
274.033442
 21
45.52494
 31
0.0
  0
LINE
  5
195
100
AcDbEntity
  8
0
  6
Continuous
 62
     8
100
AcDbLine
 10
276.033554
 20
45.52494
 30
0.0
 11
285.025649
 21
45.52494
 31
0.0
  0
ENDBLK
  5
196
100
AcDbEntity
  8
0
100
AcDbBlockEnd
  0
BLOCK
  5
199
100
AcDbEntity
  8
0
100
AcDbBlockBegin
  2
*B29
 70
     0
 10
0.0
 20
0.0
 30
0.0
  3
*B29
  1

  0
LINE
  5
19A
100
AcDbEntity
  8
0
  6
Continuous
 62
     8
100
AcDbLine
 10
124.057145
 20
65.523362
 30
0.0
 11
140.057144
 21
65.523362
 31
0.0
  0
LINE
  5
19B
100
AcDbEntity
  8
0
  6
Continuous
 62
     8
100
AcDbLine
 10
146.057181
 20
65.523362
 30
0.0
 11
156.650147
 21
65.523362
 31
0.0
  0
LINE
  5
19C
100
AcDbEntity
  8
0
  6
Continuous
 62
     8
100
AcDbLine
 10
162.650185
 20
65.523362
 30
0.0
 11
170.806546
 21
65.523362
 31
0.0
  0
LINE
  5
19D
100
AcDbEntity
  8
0
  6
Continuous
 62
     8
100
AcDbLine
 10
172.806659
 20
65.523362
 30
0.0
 11
173.806415
 21
65.523362
 31
0.0
  0
LINE
  5
19E
100
AcDbEntity
  8
0
  6
Continuous
 62
     8
100
AcDbLine
 10
175.806527
 20
65.523362
 30
0.0
 11
183.962889
 21
65.523362
 31
0.0
  0
LINE
  5
19F
100
AcDbEntity
  8
0
  6
Continuous
 62
     8
100
AcDbLine
 10
185.963001
 20
65.523362
 30
0.0
 11
186.962757
 21
65.523362
 31
0.0
  0
LINE
  5
1A0
100
AcDbEntity
  8
0
  6
Continuous
 62
     8
100
AcDbLine
 10
188.96287
 20
65.523362
 30
0.0
 11
197.119231
 21
65.523362
 31
0.0
  0
LINE
  5
1A1
100
AcDbEntity
  8
0
  6
Continuous
 62
     8
100
AcDbLine
 10
199.119344
 20
65.523362
 30
0.0
 11
200.1191
 21
65.523362
 31
0.0
  0
LINE
  5
1A2
100
AcDbEntity
  8
0
  6
Continuous
 62
     8
100
AcDbLine
 10
202.119212
 20
65.523362
 30
0.0
 11
210.275574
 21
65.523362
 31
0.0
  0
LINE
  5
1A3
100
AcDbEntity
  8
0
  6
Continuous
 62
     8
100
AcDbLine
 10
212.275686
 20
65.523362
 30
0.0
 11
213.275442
 21
65.523362
 31
0.0
  0
LINE
  5
1A4
100
AcDbEntity
  8
0
  6
Continuous
 62
     8
100
AcDbLine
 10
215.275555
 20
65.523362
 30
0.0
 11
223.431916
 21
65.523362
 31
0.0
  0
LINE
  5
1A5
100
AcDbEntity
  8
0
  6
Continuous
 62
     8
100
AcDbLine
 10
225.432029
 20
65.523362
 30
0.0
 11
226.431785
 21
65.523362
 31
0.0
  0
LINE
  5
1A6
100
AcDbEntity
  8
0
  6
Continuous
 62
     8
100
AcDbLine
 10
228.431897
 20
65.523362
 30
0.0
 11
236.588259
 21
65.523362
 31
0.0
  0
LINE
  5
1A7
100
AcDbEntity
  8
0
  6
Continuous
 62
     8
100
AcDbLine
 10
238.588071
 20
65.523362
 30
0.0
 11
239.588127
 21
65.523362
 31
0.0
  0
LINE
  5
1A8
100
AcDbEntity
  8
0
  6
Continuous
 62
     8
100
AcDbLine
 10
241.58824
 20
65.523362
 30
0.0
 11
249.744601
 21
65.523362
 31
0.0
  0
LINE
  5
1A9
100
AcDbEntity
  8
0
  6
Continuous
 62
     8
100
AcDbLine
 10
251.744413
 20
65.523362
 30
0.0
 11
252.74447
 21
65.523362
 31
0.0
  0
LINE
  5
1AA
100
AcDbEntity
  8
0
  6
Continuous
 62
     8
100
AcDbLine
 10
254.744582
 20
65.523362
 30
0.0
 11
262.900944
 21
65.523362
 31
0.0
  0
LINE
  5
1AB
100
AcDbEntity
  8
0
  6
Continuous
 62
     8
100
AcDbLine
 10
264.900756
 20
65.523362
 30
0.0
 11
265.900812
 21
65.523362
 31
0.0
  0
LINE
  5
1AC
100
AcDbEntity
  8
0
  6
Continuous
 62
     8
100
AcDbLine
 10
267.900925
 20
65.523362
 30
0.0
 11
276.057286
 21
65.523362
 31
0.0
  0
ENDBLK
  5
1AD
100
AcDbEntity
  8
0
100
AcDbBlockEnd
  0
BLOCK
  5
1B0
100
AcDbEntity
  8
0
100
AcDbBlockBegin
  2
*B30
 70
     0
 10
0.0
 20
0.0
 30
0.0
  3
*B30
  1

  0
LINE
  5
1B1
100
AcDbEntity
  8
0
  6
Continuous
 62
     8
100
AcDbLine
 10
175.75726
 20
85.522084
 30
0.0
 11
180.057292
 21
85.522084
 31
0.0
  0
LINE
  5
1B2
100
AcDbEntity
  8
0
  6
Continuous
 62
     8
100
AcDbLine
 10
186.057329
 20
85.522084
 30
0.0
 11
190.357361
 21
85.522084
 31
0.0
  0
ENDBLK
  5
1B3
100
AcDbEntity
  8
0
100
AcDbBlockEnd
  0
BLOCK
  5
1B6
100
AcDbEntity
  8
0
100
AcDbBlockBegin
  2
*B31
 70
     0
 10
0.0
 20
0.0
 30
0.0
  3
*B31
  1

  0
LINE
  5
1B7
100
AcDbEntity
  8
0
  6
Continuous
 62
     8
100
AcDbLine
 10
285.025649
 20
85.522084
 30
0.0
 11
289.025574
 21
85.522084
 31
0.0
  0
LINE
  5
1B8
100
AcDbEntity
  8
0
  6
Continuous
 62
     8
100
AcDbLine
 10
239.757257
 20
85.522084
 30
0.0
 11
244.057288
 21
85.522084
 31
0.0
  0
LINE
  5
1B9
100
AcDbEntity
  8
0
  6
Continuous
 62
     8
100
AcDbLine
 10
250.057325
 20
85.522084
 30
0.0
 11
258.380113
 21
85.522084
 31
0.0
  0
LINE
  5
1BA
100
AcDbEntity
  8
0
  6
Continuous
 62
     8
100
AcDbLine
 10
260.379925
 20
85.522084
 30
0.0
 11
261.379981
 21
85.522084
 31
0.0
  0
LINE
  5
1BB
100
AcDbEntity
  8
0
  6
Continuous
 62
     8
100
AcDbLine
 10
263.380094
 20
85.522084
 30
0.0
 11
271.702881
 21
85.522084
 31
0.0
  0
LINE
  5
1BC
100
AcDbEntity
  8
0
  6
Continuous
 62
     8
100
AcDbLine
 10
273.702693
 20
85.522084
 30
0.0
 11
274.702749
 21
85.522084
 31
0.0
  0
LINE
  5
1BD
100
AcDbEntity
  8
0
  6
Continuous
 62
     8
100
AcDbLine
 10
276.702862
 20
85.522084
 30
0.0
 11
285.025649
 21
85.522084
 31
0.0
  0
ENDBLK
  5
1BE
100
AcDbEntity
  8
0
100
AcDbBlockEnd
  0
BLOCK
  5
1C1
100
AcDbEntity
  8
0
100
AcDbBlockBegin
  2
*B32
 70
     0
 10
0.0
 20
0.0
 30
0.0
  3
*B32
  1

  0
LINE
  5
1C2
100
AcDbEntity
  8
0
  6
Continuous
 62
     8
100
AcDbLine
 10
142.816386
 20
200.72412
 30
0.0
 11
145.546789
 21
210.913639
 31
0.0
  0
LINE
  5
1C3
100
AcDbEntity
  8
0
  6
Continuous
 62
     8
100
AcDbLine
 10
146.064391
 20
212.845259
 30
0.0
 11
146.323342
 21
213.811069
 31
0.0
  0
LINE
  5
1C4
100
AcDbEntity
  8
0
  6
Continuous
 62
     8
100
AcDbLine
 10
146.840944
 20
215.742989
 30
0.0
 11
149.571347
 21
225.932207
 31
0.0
  0
LINE
  5
1C5
100
AcDbEntity
  8
0
  6
Continuous
 62
     8
100
AcDbLine
 10
150.088949
 20
227.864127
 30
0.0
 11
150.3479
 21
228.829937
 31
0.0
  0
LINE
  5
1C6
100
AcDbEntity
  8
0
  6
Continuous
 62
     8
100
AcDbLine
 10
150.865502
 20
230.761557
 30
0.0
 11
153.595905
 21
240.951076
 31
0.0
  0
LINE
  5
1C7
100
AcDbEntity
  8
0
  6
Continuous
 62
     8
100
AcDbLine
 10
154.113507
 20
242.882695
 30
0.0
 11
154.372458
 21
243.848505
 31
0.0
  0
LINE
  5
1C8
100
AcDbEntity
  8
0
  6
Continuous
 62
     8
100
AcDbLine
 10
154.89006
 20
245.780125
 30
0.0
 11
157.620463
 21
255.969644
 31
0.0
  0
ENDBLK
  5
1C9
100
AcDbEntity
  8
0
100
AcDbBlockEnd
  0
BLOCK
  5
1CC
100
AcDbEntity
  8
0
100
AcDbBlockBegin
  2
*B33
 70
     0
 10
0.0
 20
0.0
 30
0.0
  3
*B33
  1

  0
LINE
  5
1CD
100
AcDbEntity
  8
0
  6
Continuous
 62
     8
100
AcDbLine
 10
231.057158
 20
108.386393
 30
0.0
 11
231.057158
 21
112.386017
 31
0.0
  0
LINE
  5
1CE
100
AcDbEntity
  8
0
  6
Continuous
 62
     8
100
AcDbLine
 10
231.057158
 20
38.225341
 30
0.0
 11
231.057158
 21
42.525072
 31
0.0
  0
LINE
  5
1CF
100
AcDbEntity
  8
0
  6
Continuous
 62
     8
100
AcDbLine
 10
231.057158
 20
48.524809
 30
0.0
 11
231.057158
 21
56.497321
 31
0.0
  0
LINE
  5
1D0
100
AcDbEntity
  8
0
  6
Continuous
 62
     8
100
AcDbLine
 10
231.057158
 20
58.497133
 30
0.0
 11
231.057158
 21
59.49719
 31
0.0
  0
LINE
  5
1D1
100
AcDbEntity
  8
0
  6
Continuous
 62
     8
100
AcDbLine
 10
231.057158
 20
61.497002
 30
0.0
 11
231.057158
 21
69.469514
 31
0.0
  0
LINE
  5
1D2
100
AcDbEntity
  8
0
  6
Continuous
 62
     8
100
AcDbLine
 10
231.057158
 20
71.469326
 30
0.0
 11
231.057158
 21
72.469382
 31
0.0
  0
LINE
  5
1D3
100
AcDbEntity
  8
0
  6
Continuous
 62
     8
100
AcDbLine
 10
231.057158
 20
74.469194
 30
0.0
 11
231.057158
 21
82.441707
 31
0.0
  0
LINE
  5
1D4
100
AcDbEntity
  8
0
  6
Continuous
 62
     8
100
AcDbLine
 10
231.057158
 20
84.441819
 30
0.0
 11
231.057158
 21
85.441575
 31
0.0
  0
LINE
  5
1D5
100
AcDbEntity
  8
0
  6
Continuous
 62
     8
100
AcDbLine
 10
231.057158
 20
87.441387
 30
0.0
 11
231.057158
 21
95.4142
 31
0.0
  0
LINE
  5
1D6
100
AcDbEntity
  8
0
  6
Continuous
 62
     8
100
AcDbLine
 10
231.057158
 20
97.414012
 30
0.0
 11
231.057158
 21
98.413768
 31
0.0
  0
LINE
  5
1D7
100
AcDbEntity
  8
0
  6
Continuous
 62
     8
100
AcDbLine
 10
231.057158
 20
100.41358
 30
0.0
 11
231.057158
 21
108.386393
 31
0.0
  0
ENDBLK
  5
1D8
100
AcDbEntity
  8
0
100
AcDbBlockEnd
  0
BLOCK
  5
1DB
100
AcDbEntity
  8
0
100
AcDbBlockBegin
  2
*B34
 70
     0
 10
0.0
 20
0.0
 30
0.0
  3
*B34
  1

  0
LINE
  5
1DC
100
AcDbEntity
  8
0
  6
Continuous
 62
     8
100
AcDbLine
 10
112.025528
 20
205.622864
 30
0.0
 11
126.057258
 21
205.622864
 31
0.0
  0
ENDBLK
  5
1DD
100
AcDbEntity
  8
0
100
AcDbBlockEnd
  0
BLOCK
  5
1E0
100
AcDbEntity
  8
0
100
AcDbBlockBegin
  2
*B35
 70
     0
 10
0.0
 20
0.0
 30
0.0
  3
*B35
  1

  0
LINE
  5
1E1
100
AcDbEntity
  8
0
  6
Continuous
 62
     8
100
AcDbLine
 10
256.457205
 20
172.625213
 30
0.0
 11
256.457205
 21
200.037088
 31
0.0
  0
ENDBLK
  5
1E2
100
AcDbEntity
  8
0
100
AcDbBlockEnd
  0
BLOCK
  5
1E5
100
AcDbEntity
  8
0
100
AcDbBlockBegin
  2
*B36
 70
     0
 10
0.0
 20
0.0
 30
0.0
  3
*B36
  1

  0
LINE
  5
1E6
100
AcDbEntity
  8
0
  6
Continuous
 62
     8
100
AcDbLine
 10
159.650316
 20
49.024687
 30
0.0
 11
159.650316
 21
62.523794
 31
0.0
  0
LINE
  5
1E7
100
AcDbEntity
  8
0
  6
Continuous
 62
     8
100
AcDbLine
 10
159.650316
 20
68.523231
 30
0.0
 11
159.650316
 21
82.022338
 31
0.0
  0
ENDBLK
  5
1E8
100
AcDbEntity
  8
0
100
AcDbBlockEnd
  0
BLOCK
  5
1EB
100
AcDbEntity
  8
0
100
AcDbBlockBegin
  2
*B37
 70
     0
 10
0.0
 20
0.0
 30
0.0
  3
*B37
  1

  0
LINE
  5
1EC
100
AcDbEntity
  8
0
  6
Continuous
 62
     8
100
AcDbLine
 10
128.501072
 20
255.967541
 30
0.0
 11
131.221862
 21
245.783429
 31
0.0
  0
LINE
  5
1ED
100
AcDbEntity
  8
0
  6
Continuous
 62
     8
100
AcDbLine
 10
131.737962
 20
243.851209
 30
0.0
 11
131.996012
 21
242.885098
 31
0.0
  0
LINE
  5
1EE
100
AcDbEntity
  8
0
  6
Continuous
 62
     8
100
AcDbLine
 10
132.512112
 20
240.952878
 30
0.0
 11
135.232601
 21
230.768766
 31
0.0
  0
LINE
  5
1EF
100
AcDbEntity
  8
0
  6
Continuous
 62
     8
100
AcDbLine
 10
135.748701
 20
228.836546
 30
0.0
 11
136.006751
 21
227.870436
 31
0.0
  0
LINE
  5
1F0
100
AcDbEntity
  8
0
  6
Continuous
 62
     8
100
AcDbLine
 10
136.522851
 20
225.938516
 30
0.0
 11
139.24334
 21
215.754104
 31
0.0
  0
LINE
  5
1F1
100
AcDbEntity
  8
0
  6
Continuous
 62
     8
100
AcDbLine
 10
139.75944
 20
213.821883
 30
0.0
 11
140.01749
 21
212.855773
 31
0.0
  0
LINE
  5
1F2
100
AcDbEntity
  8
0
  6
Continuous
 62
     8
100
AcDbLine
 10
140.53359
 20
210.923853
 30
0.0
 11
143.25408
 21
200.739441
 31
0.0
  0
ENDBLK
  5
1F3
100
AcDbEntity
  8
0
100
AcDbBlockEnd
  0
BLOCK
  5
1F6
100
AcDbEntity
  8
0
100
AcDbBlockBegin
  2
*B38
 70
     0
 10
0.0
 20
0.0
 30
0.0
  3
*B38
  1

  0
LINE
  5
1F7
100
AcDbEntity
  8
0
  6
Continuous
 62
     8
100
AcDbLine
 10
272.057061
 20
136.041598
 30
0.0
 11
272.057061
 21
153.626547
 31
0.0
  0
ENDBLK
  5
1F8
100
AcDbEntity
  8
0
100
AcDbBlockEnd
  0
BLOCK
  5
1FB
100
AcDbEntity
  8
0
100
AcDbBlockBegin
  2
*B39
 70
     0
 10
0.0
 20
0.0
 30
0.0
  3
*B39
  1

  0
LINE
  5
1FC
100
AcDbEntity
  8
0
  6
Continuous
 62
     8
100
AcDbLine
 10
186.357136
 20
87.521896
 30
0.0
 11
186.357136
 21
112.043252
 31
0.0
  0
ENDBLK
  5
1FD
100
AcDbEntity
  8
0
100
AcDbBlockEnd
  0
BLOCK
  5
200
100
AcDbEntity
  8
0
100
AcDbBlockBegin
  2
*B40
 70
     0
 10
0.0
 20
0.0
 30
0.0
  3
*B40
  1

  0
LINE
  5
201
100
AcDbEntity
  8
0
  6
Continuous
 62
     8
100
AcDbLine
 10
274.057174
 20
95.521445
 30
0.0
 11
304.025517
 21
95.521445
 31
0.0
  0
ENDBLK
  5
202
100
AcDbEntity
  8
0
100
AcDbBlockEnd
  0
BLOCK
  5
205
100
AcDbEntity
  8
0
100
AcDbBlockBegin
  2
*B41
 70
     0
 10
0.0
 20
0.0
 30
0.0
  3
*B41
  1

  0
LINE
  5
206
100
AcDbEntity
  8
0
  6
Continuous
 62
     8
100
AcDbLine
 10
112.025528
 20
185.624142
 30
0.0
 11
126.057258
 21
185.624142
 31
0.0
  0
ENDBLK
  5
207
100
AcDbEntity
  8
0
100
AcDbBlockEnd
  0
BLOCK
  5
20A
100
AcDbEntity
  8
0
100
AcDbBlockBegin
  2
*B42
 70
     0
 10
0.0
 20
0.0
 30
0.0
  3
*B42
  1

  0
LINE
  5
20B
100
AcDbEntity
  8
0
  6
Continuous
 62
     8
100
AcDbLine
 10
96.025829
 20
276.043768
 30
0.0
 11
157.650204
 21
276.043768
 31
0.0
  0
ENDBLK
  5
20C
100
AcDbEntity
  8
0
100
AcDbBlockEnd
  0
BLOCK
  5
20F
100
AcDbEntity
  8
0
100
AcDbBlockBegin
  2
*B43
 70
     0
 10
0.0
 20
0.0
 30
0.0
  3
*B43
  1

  0
LINE
  5
210
100
AcDbEntity
  8
0
  6
Continuous
 62
     8
100
AcDbLine
 10
247.057157
 20
157.226329
 30
0.0
 11
247.057157
 21
167.625532
 31
0.0
  0
LINE
  5
211
100
AcDbEntity
  8
0
  6
Continuous
 62
     8
100
AcDbLine
 10
247.057157
 20
173.624969
 30
0.0
 11
247.057157
 21
184.024472
 31
0.0
  0
ENDBLK
  5
212
100
AcDbEntity
  8
0
100
AcDbBlockEnd
  0
BLOCK
  5
215
100
AcDbEntity
  8
0
100
AcDbBlockBegin
  2
*B44
 70
     0
 10
0.0
 20
0.0
 30
0.0
  3
*B44
  1

  0
LINE
  5
216
100
AcDbEntity
  8
0
  6
Continuous
 62
     8
100
AcDbLine
 10
109.963531
 20
263.432364
 30
0.0
 11
123.488774
 21
263.432364
 31
0.0
  0
LINE
  5
217
100
AcDbEntity
  8
0
  6
Continuous
 62
     8
100
AcDbLine
 10
129.488811
 20
263.432364
 30
0.0
 11
143.014054
 21
263.432364
 31
0.0
  0
ENDBLK
  5
218
100
AcDbEntity
  8
0
100
AcDbBlockEnd
  0
BLOCK
  5
21B
100
AcDbEntity
  8
0
100
AcDbBlockBegin
  2
*B45
 70
     0
 10
0.0
 20
0.0
 30
0.0
  3
*B45
  1

  0
LINE
  5
21C
100
AcDbEntity
  8
0
  6
Continuous
 62
     8
100
AcDbLine
 10
274.057174
 20
185.624142
 30
0.0
 11
302.025704
 21
185.624142
 31
0.0
  0
ENDBLK
  5
21D
100
AcDbEntity
  8
0
100
AcDbBlockEnd
  0
BLOCK
  5
220
100
AcDbEntity
  8
0
100
AcDbBlockBegin
  2
*B46
 70
     0
 10
0.0
 20
0.0
 30
0.0
  3
*B46
  1

  0
LINE
  5
221
100
AcDbEntity
  8
0
  6
Continuous
 62
     8
100
AcDbLine
 10
158.057256
 20
136.041598
 30
0.0
 11
158.057256
 21
153.626547
 31
0.0
  0
ENDBLK
  5
222
100
AcDbEntity
  8
0
100
AcDbBlockEnd
  0
BLOCK
  5
225
100
AcDbEntity
  8
0
100
AcDbBlockBegin
  2
*B47
 70
     0
 10
0.0
 20
0.0
 30
0.0
  3
*B47
  1

  0
LINE
  5
226
100
AcDbEntity
  8
0
  6
Continuous
 62
     8
100
AcDbLine
 10
237.657108
 20
172.625213
 30
0.0
 11
237.657108
 21
200.037088
 31
0.0
  0
ENDBLK
  5
227
100
AcDbEntity
  8
0
100
AcDbBlockEnd
  0
BLOCK
  5
22A
100
AcDbEntity
  8
0
100
AcDbBlockBegin
  2
*B48
 70
     0
 10
0.0
 20
0.0
 30
0.0
  3
*B48
  1

  0
LINE
  5
22B
100
AcDbEntity
  8
0
  6
Continuous
 62
     8
100
AcDbLine
 10
247.057157
 20
16.392932
 30
0.0
 11
247.057157
 21
20.392556
 31
0.0
  0
LINE
  5
22C
100
AcDbEntity
  8
0
  6
Continuous
 62
     8
100
AcDbLine
 10
247.057157
 20
122.042613
 30
0.0
 11
247.057157
 21
126.042237
 31
0.0
  0
LINE
  5
22D
100
AcDbEntity
  8
0
  6
Continuous
 62
     8
100
AcDbLine
 10
247.057157
 20
20.392556
 30
0.0
 11
247.057157
 21
28.818984
 31
0.0
  0
LINE
  5
22E
100
AcDbEntity
  8
0
  6
Continuous
 62
     8
100
AcDbLine
 10
247.057157
 20
30.818796
 30
0.0
 11
247.057157
 21
31.818552
 31
0.0
  0
LINE
  5
22F
100
AcDbEntity
  8
0
  6
Continuous
 62
     8
100
AcDbLine
 10
247.057157
 20
33.818364
 30
0.0
 11
247.057157
 21
42.244792
 31
0.0
  0
LINE
  5
230
100
AcDbEntity
  8
0
  6
Continuous
 62
     8
100
AcDbLine
 10
247.057157
 20
44.244604
 30
0.0
 11
247.057157
 21
45.24436
 31
0.0
  0
LINE
  5
231
100
AcDbEntity
  8
0
  6
Continuous
 62
     8
100
AcDbLine
 10
247.057157
 20
47.244473
 30
0.0
 11
247.057157
 21
55.6706
 31
0.0
  0
LINE
  5
232
100
AcDbEntity
  8
0
  6
Continuous
 62
     8
100
AcDbLine
 10
247.057157
 20
57.670412
 30
0.0
 11
247.057157
 21
58.670468
 31
0.0
  0
LINE
  5
233
100
AcDbEntity
  8
0
  6
Continuous
 62
     8
100
AcDbLine
 10
247.057157
 20
60.67028
 30
0.0
 11
247.057157
 21
69.096408
 31
0.0
  0
LINE
  5
234
100
AcDbEntity
  8
0
  6
Continuous
 62
     8
100
AcDbLine
 10
247.057157
 20
71.09622
 30
0.0
 11
247.057157
 21
72.096276
 31
0.0
  0
LINE
  5
235
100
AcDbEntity
  8
0
  6
Continuous
 62
     8
100
AcDbLine
 10
247.057157
 20
74.096088
 30
0.0
 11
247.057157
 21
82.522216
 31
0.0
  0
LINE
  5
236
100
AcDbEntity
  8
0
  6
Continuous
 62
     8
100
AcDbLine
 10
247.057157
 20
88.521953
 30
0.0
 11
247.057157
 21
96.362286
 31
0.0
  0
LINE
  5
237
100
AcDbEntity
  8
0
  6
Continuous
 62
     8
100
AcDbLine
 10
247.057157
 20
98.362098
 30
0.0
 11
247.057157
 21
99.362154
 31
0.0
  0
LINE
  5
238
100
AcDbEntity
  8
0
  6
Continuous
 62
     8
100
AcDbLine
 10
247.057157
 20
101.361966
 30
0.0
 11
247.057157
 21
109.202299
 31
0.0
  0
LINE
  5
239
100
AcDbEntity
  8
0
  6
Continuous
 62
     8
100
AcDbLine
 10
247.057157
 20
111.202412
 30
0.0
 11
247.057157
 21
112.202168
 31
0.0
  0
LINE
  5
23A
100
AcDbEntity
  8
0
  6
Continuous
 62
     8
100
AcDbLine
 10
247.057157
 20
114.20198
 30
0.0
 11
247.057157
 21
122.042613
 31
0.0
  0
ENDBLK
  5
23B
100
AcDbEntity
  8
0
100
AcDbBlockEnd
  0
BLOCK
  5
23E
100
AcDbEntity
  8
0
100
AcDbBlockBegin
  2
*B49
 70
     0
 10
0.0
 20
0.0
 30
0.0
  3
*B49
  1

  0
LINE
  5
23F
100
AcDbEntity
  8
0
  6
Continuous
 62
     8
100
AcDbLine
 10
159.650316
 20
247.045741
 30
0.0
 11
159.650316
 21
260.544848
 31
0.0
  0
LINE
  5
240
100
AcDbEntity
  8
0
  6
Continuous
 62
     8
100
AcDbLine
 10
159.650316
 20
266.544285
 30
0.0
 11
159.650316
 21
280.043392
 31
0.0
  0
ENDBLK
  5
241
100
AcDbEntity
  8
0
100
AcDbBlockEnd
  0
BLOCK
  5
244
100
AcDbEntity
  8
0
100
AcDbBlockBegin
  2
*B50
 70
     0
 10
0.0
 20
0.0
 30
0.0
  3
*B50
  1

  0
LINE
  5
245
100
AcDbEntity
  8
0
  6
Continuous
 62
     8
100
AcDbLine
 10
199.057159
 20
108.386393
 30
0.0
 11
199.057159
 21
112.386017
 31
0.0
  0
LINE
  5
246
100
AcDbEntity
  8
0
  6
Continuous
 62
     8
100
AcDbLine
 10
199.057159
 20
38.225341
 30
0.0
 11
199.057159
 21
42.525072
 31
0.0
  0
LINE
  5
247
100
AcDbEntity
  8
0
  6
Continuous
 62
     8
100
AcDbLine
 10
199.057159
 20
48.524809
 30
0.0
 11
199.057159
 21
56.497321
 31
0.0
  0
LINE
  5
248
100
AcDbEntity
  8
0
  6
Continuous
 62
     8
100
AcDbLine
 10
199.057159
 20
58.497133
 30
0.0
 11
199.057159
 21
59.49719
 31
0.0
  0
LINE
  5
249
100
AcDbEntity
  8
0
  6
Continuous
 62
     8
100
AcDbLine
 10
199.057159
 20
61.497002
 30
0.0
 11
199.057159
 21
69.469514
 31
0.0
  0
LINE
  5
24A
100
AcDbEntity
  8
0
  6
Continuous
 62
     8
100
AcDbLine
 10
199.057159
 20
71.469326
 30
0.0
 11
199.057159
 21
72.469382
 31
0.0
  0
LINE
  5
24B
100
AcDbEntity
  8
0
  6
Continuous
 62
     8
100
AcDbLine
 10
199.057159
 20
74.469194
 30
0.0
 11
199.057159
 21
82.441707
 31
0.0
  0
LINE
  5
24C
100
AcDbEntity
  8
0
  6
Continuous
 62
     8
100
AcDbLine
 10
199.057159
 20
84.441819
 30
0.0
 11
199.057159
 21
85.441575
 31
0.0
  0
LINE
  5
24D
100
AcDbEntity
  8
0
  6
Continuous
 62
     8
100
AcDbLine
 10
199.057159
 20
87.441387
 30
0.0
 11
199.057159
 21
95.4142
 31
0.0
  0
LINE
  5
24E
100
AcDbEntity
  8
0
  6
Continuous
 62
     8
100
AcDbLine
 10
199.057159
 20
97.414012
 30
0.0
 11
199.057159
 21
98.413768
 31
0.0
  0
LINE
  5
24F
100
AcDbEntity
  8
0
  6
Continuous
 62
     8
100
AcDbLine
 10
199.057159
 20
100.41358
 30
0.0
 11
199.057159
 21
108.386393
 31
0.0
  0
ENDBLK
  5
250
100
AcDbEntity
  8
0
100
AcDbBlockEnd
  0
BLOCK
  5
253
100
AcDbEntity
  8
0
100
AcDbBlockBegin
  2
*B51
 70
     0
 10
0.0
 20
0.0
 30
0.0
  3
*B51
  1

  0
LINE
  5
254
100
AcDbEntity
  8
0
  6
Continuous
 62
     8
100
AcDbLine
 10
128.05737
 20
136.041598
 30
0.0
 11
128.05737
 21
153.626547
 31
0.0
  0
ENDBLK
  5
255
100
AcDbEntity
  8
0
100
AcDbBlockEnd
  0
BLOCK
  5
258
100
AcDbEntity
  8
0
100
AcDbBlockBegin
  2
*B52
 70
     0
 10
0.0
 20
0.0
 30
0.0
  3
*B52
  1

  0
LINE
  5
259
100
AcDbEntity
  8
0
  6
Continuous
 62
     8
100
AcDbLine
 10
272.057061
 20
16.392932
 30
0.0
 11
272.057061
 21
33.525767
 31
0.0
  0
LINE
  5
25A
100
AcDbEntity
  8
0
  6
Continuous
 62
     8
100
AcDbLine
 10
272.057061
 20
97.521257
 30
0.0
 11
272.057061
 21
112.386017
 31
0.0
  0
ENDBLK
  5
25B
100
AcDbEntity
  8
0
100
AcDbBlockEnd
  0
BLOCK
  5
25E
100
AcDbEntity
  8
0
100
AcDbBlockBegin
  2
*B53
 70
     0
 10
0.0
 20
0.0
 30
0.0
  3
*B53
  1

  0
LINE
  5
25F
100
AcDbEntity
  8
0
  6
Continuous
 62
     8
100
AcDbLine
 10
96.025829
 20
155.626359
 30
0.0
 11
126.057258
 21
155.626359
 31
0.0
  0
LINE
  5
260
100
AcDbEntity
  8
0
  6
Continuous
 62
     8
100
AcDbLine
 10
274.057174
 20
155.626359
 30
0.0
 11
302.025704
 21
155.626359
 31
0.0
  0
ENDBLK
  5
261
100
AcDbEntity
  8
0
100
AcDbBlockEnd
  0
BLOCK
  5
264
100
AcDbEntity
  8
0
100
AcDbBlockBegin
  2
*B54
 70
     0
 10
0.0
 20
0.0
 30
0.0
  3
*B54
  1

  0
LINE
  5
265
100
AcDbEntity
  8
0
  6
Continuous
 62
     8
100
AcDbLine
 10
179.757185
 20
87.521896
 30
0.0
 11
179.757185
 21
112.043252
 31
0.0
  0
ENDBLK
  5
266
100
AcDbEntity
  8
0
100
AcDbBlockEnd
  0
BLOCK
  5
269
100
AcDbEntity
  8
0
100
AcDbBlockBegin
  2
*B55
 70
     0
 10
0.0
 20
0.0
 30
0.0
  3
*B55
  1

  0
LINE
  5
26A
100
AcDbEntity
  8
0
  6
Continuous
 62
     8
100
AcDbLine
 10
124.057145
 20
170.625401
 30
0.0
 11
134.307346
 21
170.625401
 31
0.0
  0
LINE
  5
26B
100
AcDbEntity
  8
0
  6
Continuous
 62
     8
100
AcDbLine
 10
136.307158
 20
170.625401
 30
0.0
 11
137.307215
 21
170.625401
 31
0.0
  0
LINE
  5
26C
100
AcDbEntity
  8
0
  6
Continuous
 62
     8
100
AcDbLine
 10
139.307327
 20
170.625401
 30
0.0
 11
149.557228
 21
170.625401
 31
0.0
  0
LINE
  5
26D
100
AcDbEntity
  8
0
  6
Continuous
 62
     8
100
AcDbLine
 10
151.557341
 20
170.625401
 30
0.0
 11
152.557397
 21
170.625401
 31
0.0
  0
LINE
  5
26E
100
AcDbEntity
  8
0
  6
Continuous
 62
     8
100
AcDbLine
 10
154.557209
 20
170.625401
 30
0.0
 11
164.80711
 21
170.625401
 31
0.0
  0
LINE
  5
26F
100
AcDbEntity
  8
0
  6
Continuous
 62
     8
100
AcDbLine
 10
166.807222
 20
170.625401
 30
0.0
 11
167.807279
 21
170.625401
 31
0.0
  0
LINE
  5
270
100
AcDbEntity
  8
0
  6
Continuous
 62
     8
100
AcDbLine
 10
169.807091
 20
170.625401
 30
0.0
 11
180.057292
 21
170.625401
 31
0.0
  0
LINE
  5
271
100
AcDbEntity
  8
0
  6
Continuous
 62
     8
100
AcDbLine
 10
186.057329
 20
170.625401
 30
0.0
 11
196.557169
 21
170.625401
 31
0.0
  0
LINE
  5
272
100
AcDbEntity
  8
0
  6
Continuous
 62
     8
100
AcDbLine
 10
198.557281
 20
170.625401
 30
0.0
 11
199.557338
 21
170.625401
 31
0.0
  0
LINE
  5
273
100
AcDbEntity
  8
0
  6
Continuous
 62
     8
100
AcDbLine
 10
201.55715
 20
170.625401
 30
0.0
 11
212.05729
 21
170.625401
 31
0.0
  0
LINE
  5
274
100
AcDbEntity
  8
0
  6
Continuous
 62
     8
100
AcDbLine
 10
218.057327
 20
170.625401
 30
0.0
 11
228.557167
 21
170.625401
 31
0.0
  0
LINE
  5
275
100
AcDbEntity
  8
0
  6
Continuous
 62
     8
100
AcDbLine
 10
230.55728
 20
170.625401
 30
0.0
 11
231.557336
 21
170.625401
 31
0.0
  0
LINE
  5
276
100
AcDbEntity
  8
0
  6
Continuous
 62
     8
100
AcDbLine
 10
233.557148
 20
170.625401
 30
0.0
 11
244.057288
 21
170.625401
 31
0.0
  0
LINE
  5
277
100
AcDbEntity
  8
0
  6
Continuous
 62
     8
100
AcDbLine
 10
250.057325
 20
170.625401
 30
0.0
 11
260.557165
 21
170.625401
 31
0.0
  0
LINE
  5
278
100
AcDbEntity
  8
0
  6
Continuous
 62
     8
100
AcDbLine
 10
262.557278
 20
170.625401
 30
0.0
 11
263.557334
 21
170.625401
 31
0.0
  0
LINE
  5
279
100
AcDbEntity
  8
0
  6
Continuous
 62
     8
100
AcDbLine
 10
265.557146
 20
170.625401
 30
0.0
 11
276.057286
 21
170.625401
 31
0.0
  0
ENDBLK
  5
27A
100
AcDbEntity
  8
0
100
AcDbBlockEnd
  0
BLOCK
  5
27D
100
AcDbEntity
  8
0
100
AcDbBlockBegin
  2
*B56
 70
     0
 10
0.0
 20
0.0
 30
0.0
  3
*B56
  1

  0
LINE
  5
27E
100
AcDbEntity
  8
0
  6
Continuous
 62
     6
100
AcDbLine
 10
158.65026
 20
263.544717
 30
0.0
 11
160.650373
 21
263.544717
 31
0.0
  0
LINE
  5
27F
100
AcDbEntity
  8
0
  6
Continuous
 62
     6
100
AcDbLine
 10
159.650316
 20
262.544661
 30
0.0
 11
159.650316
 21
264.544473
 31
0.0
  0
ENDBLK
  5
280
100
AcDbEntity
  8
0
100
AcDbBlockEnd
  0
BLOCK
  5
283
100
AcDbEntity
  8
0
100
AcDbBlockBegin
  2
*B57
 70
     0
 10
0.0
 20
0.0
 30
0.0
  3
*B57
  1

  0
LINE
  5
284
100
AcDbEntity
  8
0
  6
Continuous
 62
     6
100
AcDbLine
 10
143.057313
 20
64.523606
 30
0.0
 11
143.057313
 21
66.523418
 31
0.0
  0
LINE
  5
285
100
AcDbEntity
  8
0
  6
Continuous
 62
     6
100
AcDbLine
 10
142.057257
 20
65.523362
 30
0.0
 11
144.057369
 21
65.523362
 31
0.0
  0
ENDBLK
  5
286
100
AcDbEntity
  8
0
100
AcDbBlockEnd
  0
BLOCK
  5
289
100
AcDbEntity
  8
0
100
AcDbBlockBegin
  2
*B58
 70
     0
 10
0.0
 20
0.0
 30
0.0
  3
*B58
  1

  0
LINE
  5
28A
100
AcDbEntity
  8
0
  6
Continuous
 62
     6
100
AcDbLine
 10
198.057103
 20
45.52494
 30
0.0
 11
200.057216
 21
45.52494
 31
0.0
  0
LINE
  5
28B
100
AcDbEntity
  8
0
  6
Continuous
 62
     6
100
AcDbLine
 10
199.057159
 20
44.524884
 30
0.0
 11
199.057159
 21
46.524997
 31
0.0
  0
ENDBLK
  5
28C
100
AcDbEntity
  8
0
100
AcDbBlockEnd
  0
BLOCK
  5
28F
100
AcDbEntity
  8
0
100
AcDbBlockBegin
  2
*B59
 70
     0
 10
0.0
 20
0.0
 30
0.0
  3
*B59
  1

  0
LINE
  5
290
100
AcDbEntity
  8
0
  6
Continuous
 62
     6
100
AcDbLine
 10
246.0571
 20
85.522084
 30
0.0
 11
248.057213
 21
85.522084
 31
0.0
  0
LINE
  5
291
100
AcDbEntity
  8
0
  6
Continuous
 62
     6
100
AcDbLine
 10
247.057157
 20
84.522028
 30
0.0
 11
247.057157
 21
86.52184
 31
0.0
  0
ENDBLK
  5
292
100
AcDbEntity
  8
0
100
AcDbBlockEnd
  0
BLOCK
  5
295
100
AcDbEntity
  8
0
100
AcDbBlockBegin
  2
*B60
 70
     0
 10
0.0
 20
0.0
 30
0.0
  3
*B60
  1

  0
LINE
  5
296
100
AcDbEntity
  8
0
  6
Continuous
 62
     6
100
AcDbLine
 10
247.057157
 20
169.625344
 30
0.0
 11
247.057157
 21
171.625156
 31
0.0
  0
LINE
  5
297
100
AcDbEntity
  8
0
  6
Continuous
 62
     6
100
AcDbLine
 10
246.0571
 20
170.625401
 30
0.0
 11
248.057213
 21
170.625401
 31
0.0
  0
ENDBLK
  5
298
100
AcDbEntity
  8
0
100
AcDbBlockEnd
  0
BLOCK
  5
29B
100
AcDbEntity
  8
0
100
AcDbBlockBegin
  2
*B61
 70
     0
 10
0.0
 20
0.0
 30
0.0
  3
*B61
  1

  0
LINE
  5
29C
100
AcDbEntity
  8
0
  6
Continuous
 62
     6
100
AcDbLine
 10
158.65026
 20
65.523362
 30
0.0
 11
160.650373
 21
65.523362
 31
0.0
  0
LINE
  5
29D
100
AcDbEntity
  8
0
  6
Continuous
 62
     6
100
AcDbLine
 10
159.650316
 20
64.523606
 30
0.0
 11
159.650316
 21
66.523418
 31
0.0
  0
ENDBLK
  5
29E
100
AcDbEntity
  8
0
100
AcDbBlockEnd
  0
BLOCK
  5
2A1
100
AcDbEntity
  8
0
100
AcDbBlockBegin
  2
*B62
 70
     0
 10
0.0
 20
0.0
 30
0.0
  3
*B62
  1

  0
LINE
  5
2A2
100
AcDbEntity
  8
0
  6
Continuous
 62
     6
100
AcDbLine
 10
183.05716
 20
84.522028
 30
0.0
 11
183.05716
 21
86.52184
 31
0.0
  0
LINE
  5
2A3
100
AcDbEntity
  8
0
  6
Continuous
 62
     6
100
AcDbLine
 10
182.057104
 20
85.522084
 30
0.0
 11
184.057217
 21
85.522084
 31
0.0
  0
ENDBLK
  5
2A4
100
AcDbEntity
  8
0
100
AcDbBlockEnd
  0
BLOCK
  5
2A7
100
AcDbEntity
  8
0
100
AcDbBlockBegin
  2
*B63
 70
     0
 10
0.0
 20
0.0
 30
0.0
  3
*B63
  1

  0
LINE
  5
2A8
100
AcDbEntity
  8
0
  6
Continuous
 62
     6
100
AcDbLine
 10
230.057101
 20
45.52494
 30
0.0
 11
232.057214
 21
45.52494
 31
0.0
  0
LINE
  5
2A9
100
AcDbEntity
  8
0
  6
Continuous
 62
     6
100
AcDbLine
 10
231.057158
 20
44.524884
 30
0.0
 11
231.057158
 21
46.524997
 31
0.0
  0
ENDBLK
  5
2AA
100
AcDbEntity
  8
0
100
AcDbBlockEnd
  0
BLOCK
  5
2AD
100
AcDbEntity
  8
0
100
AcDbBlockBegin
  2
*B64
 70
     0
 10
0.0
 20
0.0
 30
0.0
  3
*B64
  1

  0
LINE
  5
2AE
100
AcDbEntity
  8
0
  6
Continuous
 62
     6
100
AcDbLine
 10
183.05716
 20
169.625344
 30
0.0
 11
183.05716
 21
171.625156
 31
0.0
  0
LINE
  5
2AF
100
AcDbEntity
  8
0
  6
Continuous
 62
     6
100
AcDbLine
 10
182.057104
 20
170.625401
 30
0.0
 11
184.057217
 21
170.625401
 31
0.0
  0
ENDBLK
  5
2B0
100
AcDbEntity
  8
0
100
AcDbBlockEnd
  0
BLOCK
  5
2B3
100
AcDbEntity
  8
0
100
AcDbBlockBegin
  2
*B65
 70
     0
 10
0.0
 20
0.0
 30
0.0
  3
*B65
  1

  0
LINE
  5
2B4
100
AcDbEntity
  8
0
  6
Continuous
 62
     6
100
AcDbLine
 10
215.057158
 20
169.625344
 30
0.0
 11
215.057158
 21
171.625156
 31
0.0
  0
LINE
  5
2B5
100
AcDbEntity
  8
0
  6
Continuous
 62
     6
100
AcDbLine
 10
214.057102
 20
170.625401
 30
0.0
 11
216.057215
 21
170.625401
 31
0.0
  0
ENDBLK
  5
2B6
100
AcDbEntity
  8
0
100
AcDbBlockEnd
  0
BLOCK
  5
2B9
100
AcDbEntity
  8
0
100
AcDbBlockBegin
  2
*B66
 70
     0
 10
0.0
 20
0.0
 30
0.0
  3
*B66
  1

  0
LINE
  5
2BA
100
AcDbEntity
  8
0
  6
Continuous
 62
     6
100
AcDbLine
 10
126.488943
 20
262.432308
 30
0.0
 11
126.488943
 21
264.432421
 31
0.0
  0
LINE
  5
2BB
100
AcDbEntity
  8
0
  6
Continuous
 62
     6
100
AcDbLine
 10
125.488887
 20
263.432364
 30
0.0
 11
127.488699
 21
263.432364
 31
0.0
  0
ENDBLK
  5
2BC
100
AcDbEntity
  8
0
100
AcDbBlockEnd
  0
BLOCK
  5
2BF
100
AcDbEntity
  8
0
100
AcDbBlockBegin
  2
*B67
 70
     0
 10
0.0
 20
0.0
 30
0.0
  3
*B67
  1

  0
TEXT
  5
2C0
100
AcDbEntity
  8
TEXT
  6
Continuous
 62
     0
100
AcDbText
 10
257.471499
 20
63.5
 30
0.0
 40
5.0
  1
12
100
AcDbText
  0
ENDBLK
  5
2C1
100
AcDbEntity
  8
0
100
AcDbBlockEnd
  0
BLOCK
  5
2C4
100
AcDbEntity
  8
0
100
AcDbBlockBegin
  2
*B68
 70
     0
 10
0.0
 20
0.0
 30
0.0
  3
*B68
  1

  0
TEXT
  5
2C5
100
AcDbEntity
  8
TEXT
  6
Continuous
 62
     0
100
AcDbText
 10
113.265799
 20
242.0
 30
0.0
 40
6.0
  1
14
100
AcDbText
  0
ENDBLK
  5
2C6
100
AcDbEntity
  8
0
100
AcDbBlockEnd
  0
BLOCK
  5
2C9
100
AcDbEntity
  8
0
100
AcDbBlockBegin
  2
*B69
 70
     0
 10
0.0
 20
0.0
 30
0.0
  3
*B69
  1

  0
TEXT
  5
2CA
100
AcDbEntity
  8
TEXT
  6
Continuous
 62
     0
100
AcDbText
 10
164.265799
 20
242.0
 30
0.0
 40
6.0
  1
12
100
AcDbText
  0
ENDBLK
  5
2CB
100
AcDbEntity
  8
0
100
AcDbBlockEnd
  0
BLOCK
  5
2CE
100
AcDbEntity
  8
0
100
AcDbBlockBegin
  2
*B70
 70
     0
 10
0.0
 20
0.0
 30
0.0
  3
*B70
  1

  0
TEXT
  5
2CF
100
AcDbEntity
  8
TEXT
  6
Continuous
 62
     0
100
AcDbText
 10
213.23575
 20
40.5
 30
0.0
 40
5.0
  1
1
100
AcDbText
  0
ENDBLK
  5
2D0
100
AcDbEntity
  8
0
100
AcDbBlockEnd
  0
BLOCK
  5
2D3
100
AcDbEntity
  8
0
100
AcDbBlockBegin
  2
*B71
 70
     0
 10
0.0
 20
0.0
 30
0.0
  3
*B71
  1

  0
TEXT
  5
2D4
100
AcDbEntity
  8
TEXT
  6
Continuous
 62
     0
100
AcDbText
 10
229.23575
 20
86.5
 30
0.0
 40
5.0
  1
2
100
AcDbText
  0
ENDBLK
  5
2D5
100
AcDbEntity
  8
0
100
AcDbBlockEnd
  0
BLOCK
  5
2D8
100
AcDbEntity
  8
0
100
AcDbBlockBegin
  2
*B72
 70
     0
 10
0.0
 20
0.0
 30
0.0
  3
*B72
  1

  0
TEXT
  5
2D9
100
AcDbEntity
  8
TEXT
  6
Continuous
 62
     0
100
AcDbText
 10
245.23575
 20
40.5
 30
0.0
 40
5.0
  1
3
100
AcDbText
  0
ENDBLK
  5
2DA
100
AcDbEntity
  8
0
100
AcDbBlockEnd
  0
BLOCK
  5
2DD
100
AcDbEntity
  8
0
100
AcDbBlockBegin
  2
*B73
 70
     0
 10
0.0
 20
0.0
 30
0.0
  3
*B73
  1

  0
TEXT
  5
2DE
100
AcDbEntity
  8
TEXT
  6
Continuous
 62
     0
100
AcDbText
 10
197.23575
 20
86.5
 30
0.0
 40
5.0
  1
4
100
AcDbText
  0
ENDBLK
  5
2DF
100
AcDbEntity
  8
0
100
AcDbBlockEnd
  0
BLOCK
  5
2E2
100
AcDbEntity
  8
0
100
AcDbBlockBegin
  2
*B74
 70
     0
 10
0.0
 20
0.0
 30
0.0
  3
*B74
  1

  0
TEXT
  5
2E3
100
AcDbEntity
  8
TEXT
  6
Continuous
 62
     0
100
AcDbText
 10
181.23575
 20
40.5
 30
0.0
 40
5.0
  1
5
100
AcDbText
  0
ENDBLK
  5
2E4
100
AcDbEntity
  8
0
100
AcDbBlockEnd
  0
BLOCK
  5
2E7
100
AcDbEntity
  8
0
100
AcDbBlockBegin
  2
*B75
 70
     0
 10
0.0
 20
0.0
 30
0.0
  3
*B75
  1

  0
TEXT
  5
2E8
100
AcDbEntity
  8
TEXT
  6
Continuous
 62
     0
100
AcDbText
 10
300.25
 20
62.143528
 30
0.0
 40
3.5
  1
60
 50
90.0
100
AcDbText
  0
ENDBLK
  5
2E9
100
AcDbEntity
  8
0
100
AcDbBlockEnd
  0
BLOCK
  5
2EC
100
AcDbEntity
  8
0
100
AcDbBlockBegin
  2
*B76
 70
     0
 10
0.0
 20
0.0
 30
0.0
  3
*B76
  1

  0
TEXT
  5
2ED
100
AcDbEntity
  8
TEXT
  6
Continuous
 62
     0
100
AcDbText
 10
285.25
 20
62.143528
 30
0.0
 40
3.5
  1
40
 50
90.0
100
AcDbText
  0
ENDBLK
  5
2EE
100
AcDbEntity
  8
0
100
AcDbBlockEnd
  0
BLOCK
  5
2F1
100
AcDbEntity
  8
0
100
AcDbBlockBegin
  2
*B77
 70
     0
 10
0.0
 20
0.0
 30
0.0
  3
*B77
  1

  0
TEXT
  5
2F2
100
AcDbEntity
  8
TEXT
  6
Continuous
 62
     0
100
AcDbText
 10
211.698255
 20
112.092753
 30
0.0
 40
3.5
  1
32
100
AcDbText
  0
ENDBLK
  5
2F3
100
AcDbEntity
  8
0
100
AcDbBlockEnd
  0
BLOCK
  5
2F6
100
AcDbEntity
  8
0
100
AcDbBlockBegin
  2
*B78
 70
     0
 10
0.0
 20
0.0
 30
0.0
  3
*B78
  1

  0
TEXT
  5
2F7
100
AcDbEntity
  8
TEXT
  6
Continuous
 62
     0
100
AcDbText
 10
248.198255
 20
112.092753
 30
0.0
 40
3.5
  1
41
100
AcDbText
  0
ENDBLK
  5
2F8
100
AcDbEntity
  8
0
100
AcDbBlockEnd
  0
BLOCK
  5
2FB
100
AcDbEntity
  8
0
100
AcDbBlockBegin
  2
*B79
 70
     0
 10
0.0
 20
0.0
 30
0.0
  3
*B79
  1

  0
TEXT
  5
2FC
100
AcDbEntity
  8
TEXT
  6
Continuous
 62
     0
100
AcDbText
 10
256.198255
 20
20.092753
 30
0.0
 40
3.5
  1
25
100
AcDbText
  0
ENDBLK
  5
2FD
100
AcDbEntity
  8
0
100
AcDbBlockEnd
  0
BLOCK
  5
300
100
AcDbEntity
  8
0
100
AcDbBlockBegin
  2
*B80
 70
     0
 10
0.0
 20
0.0
 30
0.0
  3
*B80
  1

  0
TEXT
  5
301
100
AcDbEntity
  8
TEXT
  6
Continuous
 62
     0
100
AcDbText
 10
210.031588
 20
139.75
 30
0.0
 40
3.5
  1
114
100
AcDbText
  0
ENDBLK
  5
302
100
AcDbEntity
  8
0
100
AcDbBlockEnd
  0
BLOCK
  5
305
100
AcDbEntity
  8
0
100
AcDbBlockBegin
  2
*B81
 70
     0
 10
0.0
 20
0.0
 30
0.0
  3
*B81
  1

  0
TEXT
  5
306
100
AcDbEntity
  8
TEXT
  6
Continuous
 62
     0
100
AcDbText
 10
139.698255
 20
139.75
 30
0.0
 40
3.5
  1
30
100
AcDbText
  0
ENDBLK
  5
307
100
AcDbEntity
  8
0
100
AcDbBlockEnd
  0
BLOCK
  5
30A
100
AcDbEntity
  8
0
100
AcDbBlockBegin
  2
*B82
 70
     0
 10
0.0
 20
0.0
 30
0.0
  3
*B82
  1

  0
TEXT
  5
30B
100
AcDbEntity
  8
TEXT
  6
Continuous
 62
     0
100
AcDbText
 10
112.25
 20
192.252949
 30
0.0
 40
3.5
  1
20
 50
90.0
100
AcDbText
  0
ENDBLK
  5
30C
100
AcDbEntity
  8
0
100
AcDbBlockEnd
  0
BLOCK
  5
30F
100
AcDbEntity
  8
0
100
AcDbBlockBegin
  2
*B83
 70
     0
 10
0.0
 20
0.0
 30
0.0
  3
*B83
  1

  0
TEXT
  5
310
100
AcDbEntity
  8
TEXT
  6
Continuous
 62
     0
100
AcDbText
 10
96.25
 20
210.799246
 30
0.0
 40
3.5
  1
120
 50
90.0
100
AcDbText
  0
ENDBLK
  5
311
100
AcDbEntity
  8
0
100
AcDbBlockEnd
  0
BLOCK
  5
314
100
AcDbEntity
  8
0
100
AcDbBlockBegin
  2
*B84
 70
     0
 10
0.0
 20
0.0
 30
0.0
  3
*B84
  1

  0
TEXT
  5
315
100
AcDbEntity
  8
TEXT
  6
Continuous
 62
     0
100
AcDbText
 10
298.25
 20
167.252949
 30
0.0
 40
3.5
  1
30
 50
90.0
100
AcDbText
  0
ENDBLK
  5
316
100
AcDbEntity
  8
0
100
AcDbBlockEnd
  0
BLOCK
  5
319
100
AcDbEntity
  8
0
100
AcDbBlockBegin
  2
*B85
 70
     0
 10
0.0
 20
0.0
 30
0.0
  3
*B85
  1

  0
TEXT
  5
31A
100
AcDbEntity
  8
TEXT
  6
Continuous
 62
     0
100
AcDbText
 10
227.698255
 20
20.092753
 30
0.0
 40
3.5
  1
32
100
AcDbText
  0
ENDBLK
  5
31B
100
AcDbEntity
  8
0
100
AcDbBlockEnd
  0
BLOCK
  5
31E
100
AcDbEntity
  8
0
100
AcDbBlockBegin
  2
*B86
 70
     0
 10
0.0
 20
0.0
 30
0.0
  3
*B86
  1

  0
TEXT
  5
31F
100
AcDbEntity
  8
TEXT
  6
Continuous
 62
     0
100
AcDbText
 10
195.698255
 20
20.092753
 30
0.0
 40
3.5
  1
32
100
AcDbText
  0
ENDBLK
  5
320
100
AcDbEntity
  8
0
100
AcDbBlockEnd
  0
BLOCK
  5
323
100
AcDbEntity
  8
0
100
AcDbBlockBegin
  2
*B87
 70
     0
 10
0.0
 20
0.0
 30
0.0
  3
*B87
  1

  0
TEXT
  5
324
100
AcDbEntity
  8
TEXT
  6
Continuous
 62
     0
100
AcDbText
 10
159.383333
 20
111.75
 30
0.0
 40
3.5
  1
%%c6,6
100
AcDbText
  0
ENDBLK
  5
325
100
AcDbEntity
  8
0
100
AcDbBlockEnd
  0
BLOCK
  5
328
100
AcDbEntity
  8
0
100
AcDbBlockBegin
  2
*B88
 70
     0
 10
0.0
 20
0.0
 30
0.0
  3
*B88
  1

  0
TEXT
  5
329
100
AcDbEntity
  8
TEXT
  6
Continuous
 62
     0
100
AcDbText
 10
264.416667
 20
199.75
 30
0.0
 40
3.5
  1
G 1/2"
100
AcDbText
  0
ENDBLK
  5
32A
100
AcDbEntity
  8
0
100
AcDbBlockEnd
  0
BLOCK
  5
32D
100
AcDbEntity
  8
0
100
AcDbBlockBegin
  2
*B89
 70
     0
 10
0.0
 20
0.0
 30
0.0
  3
*B89
  1

  0
TEXT
  5
32E
100
AcDbEntity
  8
TEXT
  6
Continuous
 62
     0
100
AcDbText
 10
211.698255
 20
125.75
 30
0.0
 40
3.5
  1
64
100
AcDbText
  0
ENDBLK
  5
32F
100
AcDbEntity
  8
0
100
AcDbBlockEnd
  0
ENDSEC
  0
SECTION
  2
ENTITIES
  0
INSERT
  5
A8
100
AcDbEntity
  8
0
  6
Continuous
 62
   174
100
AcDbBlockReference
  2
*B1
 10
0.0
 20
0.0
 30
0.0
  0
INSERT
  5
D2
100
AcDbEntity
  8
0
  6
Continuous
 62
   174
100
AcDbBlockReference
  2
*B2
 10
0.0
 20
0.0
 30
0.0
  0
INSERT
  5
DA
100
AcDbEntity
  8
0
  6
HIDDEN
 62
   172
100
AcDbBlockReference
  2
*B3
 10
0.0
 20
0.0
 30
0.0
  0
INSERT
  5
E1
100
AcDbEntity
  8
0
  6
Continuous
 62
     0
100
AcDbBlockReference
  2
*B4
 10
0.0
 20
0.0
 30
0.0
  0
INSERT
  5
E8
100
AcDbEntity
  8
0
  6
Continuous
 62
     0
100
AcDbBlockReference
  2
*B5
 10
0.0
 20
0.0
 30
0.0
  0
INSERT
  5
EF
100
AcDbEntity
  8
0
  6
Continuous
 62
     0
100
AcDbBlockReference
  2
*B6
 10
0.0
 20
0.0
 30
0.0
  0
INSERT
  5
F6
100
AcDbEntity
  8
0
  6
Continuous
 62
     0
100
AcDbBlockReference
  2
*B7
 10
0.0
 20
0.0
 30
0.0
  0
INSERT
  5
FD
100
AcDbEntity
  8
0
  6
Continuous
 62
     0
100
AcDbBlockReference
  2
*B8
 10
0.0
 20
0.0
 30
0.0
  0
INSERT
  5
104
100
AcDbEntity
  8
0
  6
Continuous
 62
     0
100
AcDbBlockReference
  2
*B9
 10
0.0
 20
0.0
 30
0.0
  0
INSERT
  5
10B
100
AcDbEntity
  8
0
  6
Continuous
 62
     0
100
AcDbBlockReference
  2
*B10
 10
0.0
 20
0.0
 30
0.0
  0
INSERT
  5
112
100
AcDbEntity
  8
0
  6
Continuous
 62
     0
100
AcDbBlockReference
  2
*B11
 10
0.0
 20
0.0
 30
0.0
  0
INSERT
  5
119
100
AcDbEntity
  8
0
  6
Continuous
 62
     0
100
AcDbBlockReference
  2
*B12
 10
0.0
 20
0.0
 30
0.0
  0
INSERT
  5
120
100
AcDbEntity
  8
0
  6
Continuous
 62
     0
100
AcDbBlockReference
  2
*B13
 10
0.0
 20
0.0
 30
0.0
  0
INSERT
  5
127
100
AcDbEntity
  8
0
  6
Continuous
 62
     0
100
AcDbBlockReference
  2
*B14
 10
0.0
 20
0.0
 30
0.0
  0
INSERT
  5
12E
100
AcDbEntity
  8
0
  6
Continuous
 62
     0
100
AcDbBlockReference
  2
*B15
 10
0.0
 20
0.0
 30
0.0
  0
INSERT
  5
135
100
AcDbEntity
  8
0
  6
Continuous
 62
     0
100
AcDbBlockReference
  2
*B16
 10
0.0
 20
0.0
 30
0.0
  0
INSERT
  5
13C
100
AcDbEntity
  8
0
  6
Continuous
 62
     0
100
AcDbBlockReference
  2
*B17
 10
0.0
 20
0.0
 30
0.0
  0
INSERT
  5
143
100
AcDbEntity
  8
0
  6
Continuous
 62
     0
100
AcDbBlockReference
  2
*B18
 10
0.0
 20
0.0
 30
0.0
  0
INSERT
  5
149
100
AcDbEntity
  8
0
  6
Continuous
 62
     8
100
AcDbBlockReference
  2
*B19
 10
0.0
 20
0.0
 30
0.0
  0
INSERT
  5
14F
100
AcDbEntity
  8
0
  6
Continuous
 62
     8
100
AcDbBlockReference
  2
*B20
 10
0.0
 20
0.0
 30
0.0
  0
INSERT
  5
159
100
AcDbEntity
  8
0
  6
Continuous
 62
     8
100
AcDbBlockReference
  2
*B21
 10
0.0
 20
0.0
 30
0.0
  0
INSERT
  5
15F
100
AcDbEntity
  8
0
  6
Continuous
 62
     8
100
AcDbBlockReference
  2
*B22
 10
0.0
 20
0.0
 30
0.0
  0
INSERT
  5
165
100
AcDbEntity
  8
0
  6
Continuous
 62
     8
100
AcDbBlockReference
  2
*B23
 10
0.0
 20
0.0
 30
0.0
  0
INSERT
  5
16B
100
AcDbEntity
  8
0
  6
Continuous
 62
     8
100
AcDbBlockReference
  2
*B24
 10
0.0
 20
0.0
 30
0.0
  0
INSERT
  5
17F
100
AcDbEntity
  8
0
  6
Continuous
 62
     8
100
AcDbBlockReference
  2
*B25
 10
0.0
 20
0.0
 30
0.0
  0
INSERT
  5
184
100
AcDbEntity
  8
0
  6
Continuous
 62
     8
100
AcDbBlockReference
  2
*B26
 10
0.0
 20
0.0
 30
0.0
  0
INSERT
  5
18A
100
AcDbEntity
  8
0
  6
Continuous
 62
     8
100
AcDbBlockReference
  2
*B27
 10
0.0
 20
0.0
 30
0.0
  0
INSERT
  5
197
100
AcDbEntity
  8
0
  6
Continuous
 62
     8
100
AcDbBlockReference
  2
*B28
 10
0.0
 20
0.0
 30
0.0
  0
INSERT
  5
1AE
100
AcDbEntity
  8
0
  6
Continuous
 62
     8
100
AcDbBlockReference
  2
*B29
 10
0.0
 20
0.0
 30
0.0
  0
INSERT
  5
1B4
100
AcDbEntity
  8
0
  6
Continuous
 62
     8
100
AcDbBlockReference
  2
*B30
 10
0.0
 20
0.0
 30
0.0
  0
INSERT
  5
1BF
100
AcDbEntity
  8
0
  6
Continuous
 62
     8
100
AcDbBlockReference
  2
*B31
 10
0.0
 20
0.0
 30
0.0
  0
INSERT
  5
1CA
100
AcDbEntity
  8
0
  6
Continuous
 62
     8
100
AcDbBlockReference
  2
*B32
 10
0.0
 20
0.0
 30
0.0
  0
INSERT
  5
1D9
100
AcDbEntity
  8
0
  6
Continuous
 62
     8
100
AcDbBlockReference
  2
*B33
 10
0.0
 20
0.0
 30
0.0
  0
INSERT
  5
1DE
100
AcDbEntity
  8
0
  6
Continuous
 62
     8
100
AcDbBlockReference
  2
*B34
 10
0.0
 20
0.0
 30
0.0
  0
INSERT
  5
1E3
100
AcDbEntity
  8
0
  6
Continuous
 62
     8
100
AcDbBlockReference
  2
*B35
 10
0.0
 20
0.0
 30
0.0
  0
INSERT
  5
1E9
100
AcDbEntity
  8
0
  6
Continuous
 62
     8
100
AcDbBlockReference
  2
*B36
 10
0.0
 20
0.0
 30
0.0
  0
INSERT
  5
1F4
100
AcDbEntity
  8
0
  6
Continuous
 62
     8
100
AcDbBlockReference
  2
*B37
 10
0.0
 20
0.0
 30
0.0
  0
INSERT
  5
1F9
100
AcDbEntity
  8
0
  6
Continuous
 62
     8
100
AcDbBlockReference
  2
*B38
 10
0.0
 20
0.0
 30
0.0
  0
INSERT
  5
1FE
100
AcDbEntity
  8
0
  6
Continuous
 62
     8
100
AcDbBlockReference
  2
*B39
 10
0.0
 20
0.0
 30
0.0
  0
INSERT
  5
203
100
AcDbEntity
  8
0
  6
Continuous
 62
     8
100
AcDbBlockReference
  2
*B40
 10
0.0
 20
0.0
 30
0.0
  0
INSERT
  5
208
100
AcDbEntity
  8
0
  6
Continuous
 62
     8
100
AcDbBlockReference
  2
*B41
 10
0.0
 20
0.0
 30
0.0
  0
INSERT
  5
20D
100
AcDbEntity
  8
0
  6
Continuous
 62
     8
100
AcDbBlockReference
  2
*B42
 10
0.0
 20
0.0
 30
0.0
  0
INSERT
  5
213
100
AcDbEntity
  8
0
  6
Continuous
 62
     8
100
AcDbBlockReference
  2
*B43
 10
0.0
 20
0.0
 30
0.0
  0
INSERT
  5
219
100
AcDbEntity
  8
0
  6
Continuous
 62
     8
100
AcDbBlockReference
  2
*B44
 10
0.0
 20
0.0
 30
0.0
  0
INSERT
  5
21E
100
AcDbEntity
  8
0
  6
Continuous
 62
     8
100
AcDbBlockReference
  2
*B45
 10
0.0
 20
0.0
 30
0.0
  0
INSERT
  5
223
100
AcDbEntity
  8
0
  6
Continuous
 62
     8
100
AcDbBlockReference
  2
*B46
 10
0.0
 20
0.0
 30
0.0
  0
INSERT
  5
228
100
AcDbEntity
  8
0
  6
Continuous
 62
     8
100
AcDbBlockReference
  2
*B47
 10
0.0
 20
0.0
 30
0.0
  0
INSERT
  5
23C
100
AcDbEntity
  8
0
  6
Continuous
 62
     8
100
AcDbBlockReference
  2
*B48
 10
0.0
 20
0.0
 30
0.0
  0
INSERT
  5
242
100
AcDbEntity
  8
0
  6
Continuous
 62
     8
100
AcDbBlockReference
  2
*B49
 10
0.0
 20
0.0
 30
0.0
  0
INSERT
  5
251
100
AcDbEntity
  8
0
  6
Continuous
 62
     8
100
AcDbBlockReference
  2
*B50
 10
0.0
 20
0.0
 30
0.0
  0
INSERT
  5
256
100
AcDbEntity
  8
0
  6
Continuous
 62
     8
100
AcDbBlockReference
  2
*B51
 10
0.0
 20
0.0
 30
0.0
  0
INSERT
  5
25C
100
AcDbEntity
  8
0
  6
Continuous
 62
     8
100
AcDbBlockReference
  2
*B52
 10
0.0
 20
0.0
 30
0.0
  0
INSERT
  5
262
100
AcDbEntity
  8
0
  6
Continuous
 62
     8
100
AcDbBlockReference
  2
*B53
 10
0.0
 20
0.0
 30
0.0
  0
INSERT
  5
267
100
AcDbEntity
  8
0
  6
Continuous
 62
     8
100
AcDbBlockReference
  2
*B54
 10
0.0
 20
0.0
 30
0.0
  0
INSERT
  5
27B
100
AcDbEntity
  8
0
  6
Continuous
 62
     8
100
AcDbBlockReference
  2
*B55
 10
0.0
 20
0.0
 30
0.0
  0
INSERT
  5
281
100
AcDbEntity
  8
0
  6
Continuous
 62
     6
100
AcDbBlockReference
  2
*B56
 10
0.0
 20
0.0
 30
0.0
  0
INSERT
  5
287
100
AcDbEntity
  8
0
  6
Continuous
 62
     6
100
AcDbBlockReference
  2
*B57
 10
0.0
 20
0.0
 30
0.0
  0
INSERT
  5
28D
100
AcDbEntity
  8
0
  6
Continuous
 62
     6
100
AcDbBlockReference
  2
*B58
 10
0.0
 20
0.0
 30
0.0
  0
INSERT
  5
293
100
AcDbEntity
  8
0
  6
Continuous
 62
     6
100
AcDbBlockReference
  2
*B59
 10
0.0
 20
0.0
 30
0.0
  0
INSERT
  5
299
100
AcDbEntity
  8
0
  6
Continuous
 62
     6
100
AcDbBlockReference
  2
*B60
 10
0.0
 20
0.0
 30
0.0
  0
INSERT
  5
29F
100
AcDbEntity
  8
0
  6
Continuous
 62
     6
100
AcDbBlockReference
  2
*B61
 10
0.0
 20
0.0
 30
0.0
  0
INSERT
  5
2A5
100
AcDbEntity
  8
0
  6
Continuous
 62
     6
100
AcDbBlockReference
  2
*B62
 10
0.0
 20
0.0
 30
0.0
  0
INSERT
  5
2AB
100
AcDbEntity
  8
0
  6
Continuous
 62
     6
100
AcDbBlockReference
  2
*B63
 10
0.0
 20
0.0
 30
0.0
  0
INSERT
  5
2B1
100
AcDbEntity
  8
0
  6
Continuous
 62
     6
100
AcDbBlockReference
  2
*B64
 10
0.0
 20
0.0
 30
0.0
  0
INSERT
  5
2B7
100
AcDbEntity
  8
0
  6
Continuous
 62
     6
100
AcDbBlockReference
  2
*B65
 10
0.0
 20
0.0
 30
0.0
  0
INSERT
  5
2BD
100
AcDbEntity
  8
0
  6
Continuous
 62
     6
100
AcDbBlockReference
  2
*B66
 10
0.0
 20
0.0
 30
0.0
  0
INSERT
  5
2C2
100
AcDbEntity
  8
TEXT
  6
Continuous
 62
     0
100
AcDbBlockReference
  2
*B67
 10
0.0
 20
0.0
 30
0.0
  0
INSERT
  5
2C7
100
AcDbEntity
  8
TEXT
  6
Continuous
 62
     0
100
AcDbBlockReference
  2
*B68
 10
0.0
 20
0.0
 30
0.0
  0
INSERT
  5
2CC
100
AcDbEntity
  8
TEXT
  6
Continuous
 62
     0
100
AcDbBlockReference
  2
*B69
 10
0.0
 20
0.0
 30
0.0
  0
INSERT
  5
2D1
100
AcDbEntity
  8
TEXT
  6
Continuous
 62
     0
100
AcDbBlockReference
  2
*B70
 10
0.0
 20
0.0
 30
0.0
  0
INSERT
  5
2D6
100
AcDbEntity
  8
TEXT
  6
Continuous
 62
     0
100
AcDbBlockReference
  2
*B71
 10
0.0
 20
0.0
 30
0.0
  0
INSERT
  5
2DB
100
AcDbEntity
  8
TEXT
  6
Continuous
 62
     0
100
AcDbBlockReference
  2
*B72
 10
0.0
 20
0.0
 30
0.0
  0
INSERT
  5
2E0
100
AcDbEntity
  8
TEXT
  6
Continuous
 62
     0
100
AcDbBlockReference
  2
*B73
 10
0.0
 20
0.0
 30
0.0
  0
INSERT
  5
2E5
100
AcDbEntity
  8
TEXT
  6
Continuous
 62
     0
100
AcDbBlockReference
  2
*B74
 10
0.0
 20
0.0
 30
0.0
  0
INSERT
  5
2EA
100
AcDbEntity
  8
TEXT
  6
Continuous
 62
     0
100
AcDbBlockReference
  2
*B75
 10
0.0
 20
0.0
 30
0.0
  0
INSERT
  5
2EF
100
AcDbEntity
  8
TEXT
  6
Continuous
 62
     0
100
AcDbBlockReference
  2
*B76
 10
0.0
 20
0.0
 30
0.0
  0
INSERT
  5
2F4
100
AcDbEntity
  8
TEXT
  6
Continuous
 62
     0
100
AcDbBlockReference
  2
*B77
 10
0.0
 20
0.0
 30
0.0
  0
INSERT
  5
2F9
100
AcDbEntity
  8
TEXT
  6
Continuous
 62
     0
100
AcDbBlockReference
  2
*B78
 10
0.0
 20
0.0
 30
0.0
  0
INSERT
  5
2FE
100
AcDbEntity
  8
TEXT
  6
Continuous
 62
     0
100
AcDbBlockReference
  2
*B79
 10
0.0
 20
0.0
 30
0.0
  0
INSERT
  5
303
100
AcDbEntity
  8
TEXT
  6
Continuous
 62
     0
100
AcDbBlockReference
  2
*B80
 10
0.0
 20
0.0
 30
0.0
  0
INSERT
  5
308
100
AcDbEntity
  8
TEXT
  6
Continuous
 62
     0
100
AcDbBlockReference
  2
*B81
 10
0.0
 20
0.0
 30
0.0
  0
INSERT
  5
30D
100
AcDbEntity
  8
TEXT
  6
Continuous
 62
     0
100
AcDbBlockReference
  2
*B82
 10
0.0
 20
0.0
 30
0.0
  0
INSERT
  5
312
100
AcDbEntity
  8
TEXT
  6
Continuous
 62
     0
100
AcDbBlockReference
  2
*B83
 10
0.0
 20
0.0
 30
0.0
  0
INSERT
  5
317
100
AcDbEntity
  8
TEXT
  6
Continuous
 62
     0
100
AcDbBlockReference
  2
*B84
 10
0.0
 20
0.0
 30
0.0
  0
INSERT
  5
31C
100
AcDbEntity
  8
TEXT
  6
Continuous
 62
     0
100
AcDbBlockReference
  2
*B85
 10
0.0
 20
0.0
 30
0.0
  0
INSERT
  5
321
100
AcDbEntity
  8
TEXT
  6
Continuous
 62
     0
100
AcDbBlockReference
  2
*B86
 10
0.0
 20
0.0
 30
0.0
  0
INSERT
  5
326
100
AcDbEntity
  8
TEXT
  6
Continuous
 62
     0
100
AcDbBlockReference
  2
*B87
 10
0.0
 20
0.0
 30
0.0
  0
INSERT
  5
32B
100
AcDbEntity
  8
TEXT
  6
Continuous
 62
     0
100
AcDbBlockReference
  2
*B88
 10
0.0
 20
0.0
 30
0.0
  0
INSERT
  5
330
100
AcDbEntity
  8
TEXT
  6
Continuous
 62
     0
100
AcDbBlockReference
  2
*B89
 10
0.0
 20
0.0
 30
0.0
  0
ENDSEC
  0
SECTION
  2
OBJECTS
  0
DICTIONARY
  5
19
100
AcDbDictionary
280
     0
281
     1
  3
ACAD_GROUP
350
1A
  3
ACAD_MLINESTYLE
350
1B
  3
ACAD_LAYOUT
350
1E
  3
ACAD_PLOTSETTINGS
350
22
  3
ACAD_PLOTSTYLENAME
350
1F
  3
ACAD_WIPEOUT_VARS
350
23
  0
DICTIONARY
  5
1A
102
{ACAD_REACTORS
330
19
102
}
100
AcDbDictionary
280
     0
281
     1
  0
DICTIONARY
  5
1B
102
{ACAD_REACTORS
330
19
102
}
100
AcDbDictionary
280
     0
281
     1
  3
Standard
350
1C
  0
MLINESTYLE
  5
1C
102
{ACAD_REACTORS
330
1B
102
}
100
AcDbMlineStyle
  2
Standard
 70
     0
  3

 62
     0
 51
90.0
 52
90.0
 71
     2
 49
0.5
 62
   256
  6
BYLAYER
 49
-0.5
 62
   256
  6
BYLAYER
  0
ACDBDICTIONARYWDFLT
  5
1F
102
{ACAD_REACTORS
330
19
102
}
100
AcDbDictionary
281
     1
  3
Normal
350
1D
100
AcDbDictionaryWithDefault
340
1D
  0
ACDBPLACEHOLDER
  5
1D
102
{ACAD_REACTORS
330
1F
102
}
  0
LAYOUT
  5
20
102
{ACAD_REACTORS
330
1E
102
}
100
AcDbPlotSettings
  1

  2

  4

  6

 40
0.0
 41
0.0
 42
0.0
 43
0.0
 44
0.0
 45
0.0
 46
0.0
 47
0.0
 48
0.0
 49
0.0
140
0.0
141
0.0
142
1.0
143
1.0
 70
     0
 72
     0
 73
     0
 74
     0
  7

 75
     0
147
1.0
148
0.0
149
0.0
100
AcDbLayout
  1
Model
 70
     0
 71
     0
 10
0.0
 20
0.0
 11
0.0
 21
0.0
 12
0.0
 22
0.0
 32
0.0
 14
0.0
 24
0.0
 34
0.0
 15
0.0
 25
0.0
 35
0.0
146
0.0
 13
0.0
 23
0.0
 33
0.0
 16
0.0
 26
0.0
 36
0.0
 17
0.0
 27
0.0
 37
0.0
 76
     0
330
A
331
0
345
0
346
0
  0
LAYOUT
  5
21
102
{ACAD_REACTORS
330
1E
102
}
100
AcDbPlotSettings
  1

  2

  4

  6

 40
0.0
 41
0.0
 42
0.0
 43
0.0
 44
0.0
 45
0.0
 46
0.0
 47
0.0
 48
0.0
 49
0.0
140
0.0
141
0.0
142
1.0
143
1.0
 70
     0
 72
     0
 73
     0
 74
     0
  7

 75
     0
147
1.0
148
0.0
149
0.0
100
AcDbLayout
  1
Layout1
 70
     0
 71
     0
 10
0.0
 20
0.0
 11
0.0
 21
0.0
 12
0.0
 22
0.0
 32
0.0
 14
0.0
 24
0.0
 34
0.0
 15
0.0
 25
0.0
 35
0.0
146
0.0
 13
0.0
 23
0.0
 33
0.0
 16
0.0
 26
0.0
 36
0.0
 17
0.0
 27
0.0
 37
0.0
 76
     0
330
B
331
0
345
0
346
0
  0
DICTIONARY
  5
1E
102
{ACAD_REACTORS
330
19
102
}
100
AcDbDictionary
280
     0
281
     1
  3
Layout1
350
21
  3
Model
350
20
  0
DICTIONARY
  5
22
102
{ACAD_REACTORS
330
19
102
}
100
AcDbDictionary
280
     0
281
     1
  0
WIPEOUTVARIABLES
  5
23
100
AcDbWipeoutVariables
 70
     1
  0
ENDSEC
  0
EOF
