  0
SECTION
  2
HEADER
  9
$ACADVER
  1
AC1015
  9
$ACADMAINTVER
 70
     6
  9
$DWGCODEPAGE
  3
DOS850
  9
$INSBASE
 10
0.0
 20
0.0
 30
0.0
  9
$EXTMIN
 10
0.0
 20
0.0
 30
0.0
  9
$EXTMAX
 10
595.0
 20
420.0
 30
0.0
  9
$LIMMIN
 10
0.0
 20
0.0
  9
$LIMMAX
 10
595.0
 20
420.0
  9
$ORTHOMODE
 70
     0
  9
$REGENMODE
 70
     1
  9
$FILLMODE
 70
     1
  9
$QTEXTMODE
 70
     0
  9
$MIRRTEXT
 70
     1
  9
$LTSCALE
 40
25.4
  9
$ATTMODE
 70
     1
  9
$TEXTSIZE
 40
3.5
  9
$TRACEWID
 40
0.05
  9
$TEXTSTYLE
  7
Standard
  9
$CLAYER
  8
0
  9
$CELTYPE
  6
Continuous
  9
$CECOLOR
 62
   256
  9
$CELTSCALE
 40
1.0
  9
$DISPSILH
 70
     0
  9
$DIMSCALE
 40
1.0
  9
$DIMASZ
 40
5.0
  9
$DIMEXO
 40
3.0
  9
$DIMDLI
 40
0.38
  9
$DIMRND
 40
0.0
  9
$DIMDLE
 40
0.0
  9
$DIMEXE
 40
2.0
  9
$DIMTP
 40
0.0
  9
$DIMTM
 40
0.0
  9
$DIMTXT
 40
3.5
  9
$DIMCEN
 40
4.0
  9
$DIMTSZ
 40
0.0
  9
$DIMTOL
 70
     0
  9
$DIMLIM
 70
     0
  9
$DIMTIH
 70
     1
  9
$DIMTOH
 70
     1
  9
$DIMSE1
 70
     0
  9
$DIMSE2
 70
     0
  9
$DIMTAD
 70
     0
  9
$DIMZIN
 70
     0
  9
$DIMBLK
  1

  9
$DIMASO
 70
     1
  9
$DIMSHO
 70
     1
  9
$DIMPOST
  1

  9
$DIMAPOST
  1

  9
$DIMALT
 70
     0
  9
$DIMALTD
 70
     2
  9
$DIMALTF
 40
25.4
  9
$DIMLFAC
 40
1.0
  9
$DIMTOFL
 70
     0
  9
$DIMTVP
 40
0.0
  9
$DIMTIX
 70
     0
  9
$DIMSOXD
 70
     0
  9
$DIMSAH
 70
     0
  9
$DIMBLK1
  1

  9
$DIMBLK2
  1

  9
$DIMSTYLE
  2
Standard
  9
$DIMCLRD
 70
     0
  9
$DIMCLRE
 70
     0
  9
$DIMCLRT
 70
     0
  9
$DIMTFAC
 40
1.0
  9
$DIMGAP
 40
1.0
  9
$DIMJUST
 70
     0
  9
$DIMSD1
 70
     0
  9
$DIMSD2
 70
     0
  9
$DIMTOLJ
 70
     1
  9
$DIMTZIN
 70
     0
  9
$DIMALTZ
 70
     0
  9
$DIMALTTZ
 70
     0
  9
$DIMUPT
 70
     0
  9
$DIMDEC
 70
     4
  9
$DIMTDEC
 70
     4
  9
$DIMALTU
 70
     2
  9
$DIMALTTD
 70
     2
  9
$DIMTXSTY
  7
Standard
  9
$DIMAUNIT
 70
     0
  9
$DIMADEC
 70
     0
  9
$DIMALTRND
 40
0.0
  9
$DIMAZIN
 70
     0
  9
$DIMDSEP
 70
     0
  9
$DIMATFIT
 70
     3
  9
$DIMFRAC
 70
     0
  9
$DIMLDRBLK
  1

  9
$DIMLUNIT
 70
     2
  9
$DIMLWD
 70
     0
  9
$DIMLWE
 70
     0
  9
$DIMTMOVE
 70
     0
  9
$LUNITS
 70
     2
  9
$LUPREC
 70
     4
  9
$SKETCHINC
 40
0.1
  9
$FILLETRAD
 40
0.0
  9
$AUNITS
 70
     0
  9
$AUPREC
 70
     0
  9
$MENU
  1
acad
  9
$ELEVATION
 40
0.0
  9
$PELEVATION
 40
0.0
  9
$THICKNESS
 40
0.0
  9
$LIMCHECK
 70
     0
  9
$CHAMFERA
 40
0.0
  9
$CHAMFERB
 40
0.0
  9
$CHAMFERC
 40
0.0
  9
$CHAMFERD
 40
0.0
  9
$SKPOLY
 70
     0
  9
$TDCREATE
 40
0.000000000
  9
$TDUCREATE
 40
0.000000000
  9
$TDUPDATE
 40
0.000000000
  9
$TDUUPDATE
 40
0.000000000
  9
$TDINDWG
 40
0.0000000000
  9
$TDUSRTIMER
 40
0.0000000000
  9
$USRTIMER
 70
     1
  9
$ANGBASE
 50
0.0
  9
$ANGDIR
 70
     0
  9
$PDMODE
 70
     0
  9
$PDSIZE
 40
0.0
  9
$PLINEWID
 40
0.0
  9
$SPLFRAME
 70
     0
  9
$SPLINETYPE
 70
     6
  9
$SPLINESEGS
 70
     8
  9
$HANDSEED
  5
32D
  9
$SURFTAB1
 70
     6
  9
$SURFTAB2
 70
     6
  9
$SURFTYPE
 70
     6
  9
$SURFU
 70
     6
  9
$SURFV
 70
     6
  9
$UCSBASE
  2

  9
$UCSNAME
  2

  9
$UCSORG
 10
0.0
 20
0.0
 30
0.0
  9
$UCSXDIR
 10
1.0
 20
0.0
 30
0.0
  9
$UCSYDIR
 10
0.0
 20
1.0
 30
0.0
  9
$UCSORTHOREF
  2

  9
$UCSORTHOVIEW
 70
     0
  9
$UCSORGTOP
 10
0.0
 20
0.0
 30
0.0
  9
$UCSORGBOTTOM
 10
0.0
 20
0.0
 30
0.0
  9
$UCSORGLEFT
 10
0.0
 20
0.0
 30
0.0
  9
$UCSORGRIGHT
 10
0.0
 20
0.0
 30
0.0
  9
$UCSORGFRONT
 10
0.0
 20
0.0
 30
0.0
  9
$UCSORGBACK
 10
0.0
 20
0.0
 30
0.0
  9
$PUCSBASE
  2

  9
$PUCSNAME
  2

  9
$PUCSORG
 10
0.0
 20
0.0
 30
0.0
  9
$PUCSXDIR
 10
1.0
 20
0.0
 30
0.0
  9
$PUCSYDIR
 10
0.0
 20
1.0
 30
0.0
  9
$PUCSORTHOREF
  2

  9
$PUCSORTHOVIEW
 70
     0
  9
$PUCSORGTOP
 10
0.0
 20
0.0
 30
0.0
  9
$PUCSORGBOTTOM
 10
0.0
 20
0.0
 30
0.0
  9
$PUCSORGLEFT
 10
0.0
 20
0.0
 30
0.0
  9
$PUCSORGRIGHT
 10
0.0
 20
0.0
 30
0.0
  9
$PUCSORGFRONT
 10
0.0
 20
0.0
 30
0.0
  9
$PUCSORGBACK
 10
0.0
 20
0.0
 30
0.0
  9
$USERI1
 70
     0
  9
$USERI2
 70
     0
  9
$USERI3
 70
     0
  9
$USERI4
 70
     0
  9
$USERI5
 70
     0
  9
$USERR1
 40
0.0
  9
$USERR2
 40
0.0
  9
$USERR3
 40
0.0
  9
$USERR4
 40
0.0
  9
$USERR5
 40
0.0
  9
$WORLDVIEW
 70
     1
  9
$SHADEDGE
 70
     3
  9
$SHADEDIF
 70
    70
  9
$TILEMODE
 70
     1
  9
$MAXACTVP
 70
    16
  9
$PINSBASE
 10
0.0
 20
0.0
 30
0.0
  9
$PLIMCHECK
 70
     0
  9
$PEXTMIN
 10
1.000000E+20
 20
1.000000E+20
 30
1.000000E+20
  9
$PEXTMAX
 10
-1.000000E+20
 20
-1.000000E+20
 30
-1.000000E+20
  9
$PLIMMIN
 10
0.0
 20
0.0
  9
$PLIMMAX
 10
595.0
 20
420.0
  9
$UNITMODE
 70
     0
  9
$VISRETAIN
 70
     0
  9
$PLINEGEN
 70
     1
  9
$PSLTSCALE
 70
     0
  9
$TREEDEPTH
 70
  3020
  9
$CMLSTYLE
  2
Standard
  9
$CMLJUST
 70
     0
  9
$CMLSCALE
 40
1.0
  9
$PROXYGRAPHICS
 70
     0
  9
$MEASUREMENT
 70
     0
  9
$CELWEIGHT
370
     0
  9
$ENDCAPS
280
     0
  9
$JOINSTYLE
280
     0
  9
$LWDISPLAY
290
     0
  9
$INSUNITS
 70
     0
  9
$HYPERLINKBASE
  1

  9
$XEDIT
290
     1
  9
$CEPSNTYPE
380
     0
  9
$PSTYLEMODE
290
     0
  9
$FINGERPRINTGUID
  2

  9
$VERSIONGUID
  2

  9
$EXTNAMES
290
     1
  9
$PSVPSCALE
 40
0.0
  0
ENDSEC
  0
SECTION
  2
CLASSES
  0
CLASS
  1
LWPOLYLINE
  2
AcDbPolyline
  3
"AutoCAD"
 90
        0
280
     0
281
     1
  0
CLASS
  1
IMAGE
  2
AcDbRasterImage
  3
ISM
 90
      127
280
     0
281
     1
  0
CLASS
  1
OLE2FRAME
  2
AcDbOle2Frame
  3
""
 90
        0
280
     0
281
     1
  0
CLASS
  1
HATCH
  2
AcDbHatch
  3
"ACAD_SEDONA"
 90
        0
280
     0
281
     1
  0
CLASS
  1
DICTIONARYVAR
  2
AcDbDictionaryVar
  3
"AutoCAD"
 90
        0
280
     0
281
     0
  0
CLASS
  1
RASTERVARIABLES
  2
AcDbRasterVariables
  3
ISM
 90
        0
280
     0
281
     0
  0
CLASS
  1
IMAGEDEF
  2
AcDbRasterImageDef
  3
ISM
 90
        0
280
     0
281
     0
  0
CLASS
  1
IMAGEDEF_REACTOR
  2
AcDbRasterImageDefReactor
  3
ISM
 90
        1
280
     0
281
     0
  0
CLASS
  1
IDBUFFER
  2
AcDbIdBuffer
  3
"Acad"
 90
        0
280
     0
281
     0
  0
CLASS
  1
SPATIAL_FILTER
  2
AcDbSpatialFilter
  3
"Acad"
 90
        0
280
     0
281
     0
  0
CLASS
  1
XRECORD
  2
AcDbXrecord
  3
"<Built In>"
 90
        0
280
     0
281
     0
  0
CLASS
  1
SORTENTSTABLE
  2
AcDbSortentsTable
  3
"AutoCAD"
 90
        0
280
     0
281
     0
  0
CLASS
  1
LAYER_INDEX
  2
AcDbLayerIndex
  3
"Acad"
 90
        0
280
     0
281
     0
  0
CLASS
  1
SPATIAL_INDEX
  2
AcDbSpatialIndex
  3
"Acad"
 90
        0
280
     0
281
     0
  0
CLASS
  1
OBJECT_PTR
  2
CAseDLPNTableRecord
  3
"ASE-LPNTableRecord"
 90
        1
280
     0
281
     0
  0
CLASS
  1
LAYOUT
  2
AcDbLayout
  3
"AutoCAD 2000"
 90
        1
280
     0
281
     0
  0
CLASS
  1
PLOTSETTINGS
  2
AcDbPlotSettings
  3
"AutoCAD 2000"
 90
        1
280
     0
281
     0
  0
CLASS
  1
ACDBDICTIONARYWDFLT
  2
AcDbDictionaryWithDefault
  3
"AutoCAD 2000"
 90
        1
280
     0
281
     0
  0
CLASS
  1
ACDBPLACEHOLDER
  2
AcDbPlaceHolder
  3
"AutoCAD 2000"
 90
        1
280
     0
281
     0
  0
CLASS
  1
VBA_PROJECT
  2
AcDbVbaProject
  3
"acadvba"
 90
        1
280
     0
281
     0
  0
CLASS
  1
WIPEOUT
  2
AcDbWipeout
  3
WipeOut|AutoCAD Express Tool|expresstools@autodesk.com
 90
      127
280
     0
281
     1
  0
CLASS
  1
WIPEOUTVARIABLES
  2
AcDbWipeoutVariables
  3
WipeOut|AutoCAD Express Tool|expresstools@autodesk.com
 90
        0
280
     0
281
     0
  0
CLASS
  1
RTEXT
  2
RText
  3
RText|AutoCAD Express Tool|expresstools@autodesk.com
 90
        0
280
     0
281
     1
  0
CLASS
  1
ARCALIGNEDTEXT
  2
AcDbArcAlignedText
  3
ATEXT|AutoCAD Express Tool|expresstools@autodesk.com
 90
        0
280
     0
281
     1
  0
ENDSEC
  0
SECTION
  2
TABLES
  0
TABLE
  2
VPORT
  5
7
100
AcDbSymbolTable
 70
     1
  0
VPORT
  5
15
100
AcDbSymbolTableRecord
100
AcDbViewportTableRecord
  2
*ACTIVE
 70
     0
 10
0.0
 20
0.0
 11
1.0
 21
1.0
 12
6.591288
 22
4.579184
 13
0.0
 23
0.0
 14
1.0
 24
1.0
 15
0.0
 25
0.0
 16
0.0
 26
0.0
 36
1.0
 17
0.0
 27
0.0
 37
0.0
 40
9.158369
 41
0.688564
 42
50.0
 43
0.0
 44
0.0
 50
0.0
 51
0.0
 71
     0
 72
   100
 73
     1
 74
     1
 75
     0
 76
     0
 77
     0
 78
     0
281
     0
 65
     0
110
0.0
120
0.0
130
0.0
111
1.0
121
0.0
131
0.0
112
0.0
122
1.0
132
0.0
345
0
346
0
 79
     0
146
0.0
  0
ENDTAB
  0
TABLE
  2
LTYPE
  5
4
100
AcDbSymbolTable
 70
     7
  0
LTYPE
  5
11
100
AcDbSymbolTableRecord
100
AcDbLinetypeTableRecord
  2
ByBlock
 70
    64
  3

 72
    65
 73
     0
 40
0.0
  0
LTYPE
  5
12
100
AcDbSymbolTableRecord
100
AcDbLinetypeTableRecord
  2
ByLayer
 70
    64
  3

 72
    65
 73
     0
 40
0.0
  0
LTYPE
  5
13
100
AcDbSymbolTableRecord
100
AcDbLinetypeTableRecord
  2
Continuous
 70
    64
  3
Solid line
 72
    65
 73
     0
 40
0.0
  0
LTYPE
  5
24
100
AcDbSymbolTableRecord
100
AcDbLinetypeTableRecord
  2
HIDDEN
 70
    64
  3
_ _ _ _ _ _ _ _ _ _ _ _ _ _ _ _ _ _ _ _ _ _ _ _
 72
    65
 73
     2
 40
0.1875
 49
0.125
 74
     0
 49
-0.0625
 74
     0
  0
LTYPE
  5
25
100
AcDbSymbolTableRecord
100
AcDbLinetypeTableRecord
  2
DOTTED
 70
    64
  3
...............................................
 72
    65
 73
     2
 40
0.125
 49
0.0
 74
     0
 49
-0.125
 74
     0
  0
LTYPE
  5
26
100
AcDbSymbolTableRecord
100
AcDbLinetypeTableRecord
  2
CENTER
 70
    64
  3
____ _ ____ _ ____ _ ____ _ ____ _ ____ _ ____ 
 72
    65
 73
     4
 40
1.125
 49
0.75
 74
     0
 49
-0.125
 74
     0
 49
0.125
 74
     0
 49
-0.125
 74
     0
  0
LTYPE
  5
27
100
AcDbSymbolTableRecord
100
AcDbLinetypeTableRecord
  2
PHANTOM
 70
    64
  3
______  __  __  ______  __  __  ______  __  __ 
 72
    65
 73
     6
 40
1.25
 49
0.625
 74
     0
 49
-0.125
 74
     0
 49
0.125
 74
     0
 49
-0.125
 74
     0
 49
0.125
 74
     0
 49
-0.125
 74
     0
  0
ENDTAB
  0
TABLE
  2
LAYER
  5
2
100
AcDbSymbolTable
 70
     2
  0
LAYER
  5
14
100
AcDbSymbolTableRecord
100
AcDbLayerTableRecord
  2
0
 70
     0
 62
     7
  6
Continuous
290
     1
370
    -3
390
1D
  0
LAYER
  5
28
100
AcDbSymbolTableRecord
100
AcDbLayerTableRecord
  2
TEXT
 70
     0
 62
     8
  6
Continuous
290
     1
370
    -3
390
1F
  0
ENDTAB
  0
TABLE
  2
STYLE
  5
3
100
AcDbSymbolTable
 70
     1
  0
STYLE
  5
17
100
AcDbSymbolTableRecord
100
AcDbTextStyleTableRecord
  2
Standard
 70
     0
 40
0.0
 41
1.0
 50
0.0
 71
     0
 42
0.0
  3
txt
  4

  0
ENDTAB
  0
TABLE
  2
VIEW
  5
5
100
AcDbSymbolTable
 70
     0
  0
ENDTAB
  0
TABLE
  2
UCS
  5
6
100
AcDbSymbolTable
 70
     0
  0
ENDTAB
  0
TABLE
  2
APPID
  5
8
100
AcDbSymbolTable
 70
     1
  0
APPID
  5
16
100
AcDbSymbolTableRecord
100
AcDbRegAppTableRecord
  2
ACAD
 70
     0
  0
ENDTAB
  0
TABLE
  2
DIMSTYLE
  5
9
100
AcDbSymbolTable
 70
     1
100
AcDbDimStyleTable
 71
     0
  0
DIMSTYLE
105
18
100
AcDbSymbolTableRecord
100
AcDbDimStyleTableRecord
  2
Standard
 70
     0
  3

  4

 40
1.0
 41
0.18
 42
0.0625
 43
0.38
 44
0.18
 45
0.0
 46
0.0
 47
0.0
 48
0.0
 71
     0
 72
     0
 73
     1
 74
     1
 75
     0
 76
     0
 77
     0
 78
     0
 79
     0
140
0.18
141
0.09
142
0.0
143
25.4
144
1.0
145
0.0
146
1.0
147
0.09
148
0.0
170
     0
171
     2
172
     0
173
     0
174
     0
175
     0
176
     0
177
     0
178
     0
179
     0
271
     4
272
     4
273
     2
274
     2
275
     0
276
     0
277
     2
278
    46
279
     0
280
     0
281
     0
282
     0
283
     1
284
     0
285
     0
286
     0
288
     0
340
17
341
0
342
0
343
0
344
0
371
    -2
372
    -2
  0
ENDTAB
  0
TABLE
  2
BLOCK_RECORD
  5
1
100
AcDbSymbolTable
 70
    72
  0
BLOCK_RECORD
  5
A
100
AcDbSymbolTableRecord
100
AcDbBlockTableRecord
  2
*MODEL_SPACE
340
20
  0
BLOCK_RECORD
  5
B
100
AcDbSymbolTableRecord
100
AcDbBlockTableRecord
  2
*PAPER_SPACE
340
21
  0
BLOCK_RECORD
  5
29
100
AcDbSymbolTableRecord
100
AcDbBlockTableRecord
  2
*B0
340
0
  0
BLOCK_RECORD
  5
2C
100
AcDbSymbolTableRecord
100
AcDbBlockTableRecord
  2
*B1
340
0
  0
BLOCK_RECORD
  5
32
100
AcDbSymbolTableRecord
100
AcDbBlockTableRecord
  2
*B2
340
0
  0
BLOCK_RECORD
  5
3D
100
AcDbSymbolTableRecord
100
AcDbBlockTableRecord
  2
*B3
340
0
  0
BLOCK_RECORD
  5
40
100
AcDbSymbolTableRecord
100
AcDbBlockTableRecord
  2
*B4
340
0
  0
BLOCK_RECORD
  5
115
100
AcDbSymbolTableRecord
100
AcDbBlockTableRecord
  2
*B5
340
0
  0
BLOCK_RECORD
  5
167
100
AcDbSymbolTableRecord
100
AcDbBlockTableRecord
  2
*B6
340
0
  0
BLOCK_RECORD
  5
16E
100
AcDbSymbolTableRecord
100
AcDbBlockTableRecord
  2
*B7
340
0
  0
BLOCK_RECORD
  5
175
100
AcDbSymbolTableRecord
100
AcDbBlockTableRecord
  2
*B8
340
0
  0
BLOCK_RECORD
  5
17C
100
AcDbSymbolTableRecord
100
AcDbBlockTableRecord
  2
*B9
340
0
  0
BLOCK_RECORD
  5
183
100
AcDbSymbolTableRecord
100
AcDbBlockTableRecord
  2
*B10
340
0
  0
BLOCK_RECORD
  5
18A
100
AcDbSymbolTableRecord
100
AcDbBlockTableRecord
  2
*B11
340
0
  0
BLOCK_RECORD
  5
191
100
AcDbSymbolTableRecord
100
AcDbBlockTableRecord
  2
*B12
340
0
  0
BLOCK_RECORD
  5
198
100
AcDbSymbolTableRecord
100
AcDbBlockTableRecord
  2
*B13
340
0
  0
BLOCK_RECORD
  5
19F
100
AcDbSymbolTableRecord
100
AcDbBlockTableRecord
  2
*B14
340
0
  0
BLOCK_RECORD
  5
1A6
100
AcDbSymbolTableRecord
100
AcDbBlockTableRecord
  2
*B15
340
0
  0
BLOCK_RECORD
  5
1AD
100
AcDbSymbolTableRecord
100
AcDbBlockTableRecord
  2
*B16
340
0
  0
BLOCK_RECORD
  5
1B4
100
AcDbSymbolTableRecord
100
AcDbBlockTableRecord
  2
*B17
340
0
  0
BLOCK_RECORD
  5
1BB
100
AcDbSymbolTableRecord
100
AcDbBlockTableRecord
  2
*B18
340
0
  0
BLOCK_RECORD
  5
1C2
100
AcDbSymbolTableRecord
100
AcDbBlockTableRecord
  2
*B19
340
0
  0
BLOCK_RECORD
  5
1C9
100
AcDbSymbolTableRecord
100
AcDbBlockTableRecord
  2
*B20
340
0
  0
BLOCK_RECORD
  5
1E2
100
AcDbSymbolTableRecord
100
AcDbBlockTableRecord
  2
*B21
340
0
  0
BLOCK_RECORD
  5
1E7
100
AcDbSymbolTableRecord
100
AcDbBlockTableRecord
  2
*B22
340
0
  0
BLOCK_RECORD
  5
1EC
100
AcDbSymbolTableRecord
100
AcDbBlockTableRecord
  2
*B23
340
0
  0
BLOCK_RECORD
  5
1F1
100
AcDbSymbolTableRecord
100
AcDbBlockTableRecord
  2
*B24
340
0
  0
BLOCK_RECORD
  5
1F6
100
AcDbSymbolTableRecord
100
AcDbBlockTableRecord
  2
*B25
340
0
  0
BLOCK_RECORD
  5
1FB
100
AcDbSymbolTableRecord
100
AcDbBlockTableRecord
  2
*B26
340
0
  0
BLOCK_RECORD
  5
206
100
AcDbSymbolTableRecord
100
AcDbBlockTableRecord
  2
*B27
340
0
  0
BLOCK_RECORD
  5
215
100
AcDbSymbolTableRecord
100
AcDbBlockTableRecord
  2
*B28
340
0
  0
BLOCK_RECORD
  5
21A
100
AcDbSymbolTableRecord
100
AcDbBlockTableRecord
  2
*B29
340
0
  0
BLOCK_RECORD
  5
228
100
AcDbSymbolTableRecord
100
AcDbBlockTableRecord
  2
*B30
340
0
  0
BLOCK_RECORD
  5
22D
100
AcDbSymbolTableRecord
100
AcDbBlockTableRecord
  2
*B31
340
0
  0
BLOCK_RECORD
  5
232
100
AcDbSymbolTableRecord
100
AcDbBlockTableRecord
  2
*B32
340
0
  0
BLOCK_RECORD
  5
23D
100
AcDbSymbolTableRecord
100
AcDbBlockTableRecord
  2
*B33
340
0
  0
BLOCK_RECORD
  5
247
100
AcDbSymbolTableRecord
100
AcDbBlockTableRecord
  2
*B34
340
0
  0
BLOCK_RECORD
  5
24C
100
AcDbSymbolTableRecord
100
AcDbBlockTableRecord
  2
*B35
340
0
  0
BLOCK_RECORD
  5
251
100
AcDbSymbolTableRecord
100
AcDbBlockTableRecord
  2
*B36
340
0
  0
BLOCK_RECORD
  5
25C
100
AcDbSymbolTableRecord
100
AcDbBlockTableRecord
  2
*B37
340
0
  0
BLOCK_RECORD
  5
261
100
AcDbSymbolTableRecord
100
AcDbBlockTableRecord
  2
*B38
340
0
  0
BLOCK_RECORD
  5
266
100
AcDbSymbolTableRecord
100
AcDbBlockTableRecord
  2
*B39
340
0
  0
BLOCK_RECORD
  5
26E
100
AcDbSymbolTableRecord
100
AcDbBlockTableRecord
  2
*B40
340
0
  0
BLOCK_RECORD
  5
284
100
AcDbSymbolTableRecord
100
AcDbBlockTableRecord
  2
*B41
340
0
  0
BLOCK_RECORD
  5
289
100
AcDbSymbolTableRecord
100
AcDbBlockTableRecord
  2
*B42
340
0
  0
BLOCK_RECORD
  5
28E
100
AcDbSymbolTableRecord
100
AcDbBlockTableRecord
  2
*B43
340
0
  0
BLOCK_RECORD
  5
293
100
AcDbSymbolTableRecord
100
AcDbBlockTableRecord
  2
*B44
340
0
  0
BLOCK_RECORD
  5
298
100
AcDbSymbolTableRecord
100
AcDbBlockTableRecord
  2
*B45
340
0
  0
BLOCK_RECORD
  5
2A4
100
AcDbSymbolTableRecord
100
AcDbBlockTableRecord
  2
*B46
340
0
  0
BLOCK_RECORD
  5
2AA
100
AcDbSymbolTableRecord
100
AcDbBlockTableRecord
  2
*B47
340
0
  0
BLOCK_RECORD
  5
2B0
100
AcDbSymbolTableRecord
100
AcDbBlockTableRecord
  2
*B48
340
0
  0
BLOCK_RECORD
  5
2B6
100
AcDbSymbolTableRecord
100
AcDbBlockTableRecord
  2
*B49
340
0
  0
BLOCK_RECORD
  5
2BC
100
AcDbSymbolTableRecord
100
AcDbBlockTableRecord
  2
*B50
340
0
  0
BLOCK_RECORD
  5
2C2
100
AcDbSymbolTableRecord
100
AcDbBlockTableRecord
  2
*B51
340
0
  0
BLOCK_RECORD
  5
2C9
100
AcDbSymbolTableRecord
100
AcDbBlockTableRecord
  2
*B52
340
0
  0
BLOCK_RECORD
  5
2CE
100
AcDbSymbolTableRecord
100
AcDbBlockTableRecord
  2
*B53
340
0
  0
BLOCK_RECORD
  5
2D3
100
AcDbSymbolTableRecord
100
AcDbBlockTableRecord
  2
*B54
340
0
  0
BLOCK_RECORD
  5
2D8
100
AcDbSymbolTableRecord
100
AcDbBlockTableRecord
  2
*B55
340
0
  0
BLOCK_RECORD
  5
2DD
100
AcDbSymbolTableRecord
100
AcDbBlockTableRecord
  2
*B56
340
0
  0
BLOCK_RECORD
  5
2E2
100
AcDbSymbolTableRecord
100
AcDbBlockTableRecord
  2
*B57
340
0
  0
BLOCK_RECORD
  5
2E7
100
AcDbSymbolTableRecord
100
AcDbBlockTableRecord
  2
*B58
340
0
  0
BLOCK_RECORD
  5
2EC
100
AcDbSymbolTableRecord
100
AcDbBlockTableRecord
  2
*B59
340
0
  0
BLOCK_RECORD
  5
2F1
100
AcDbSymbolTableRecord
100
AcDbBlockTableRecord
  2
*B60
340
0
  0
BLOCK_RECORD
  5
2F6
100
AcDbSymbolTableRecord
100
AcDbBlockTableRecord
  2
*B61
340
0
  0
BLOCK_RECORD
  5
2FB
100
AcDbSymbolTableRecord
100
AcDbBlockTableRecord
  2
*B62
340
0
  0
BLOCK_RECORD
  5
300
100
AcDbSymbolTableRecord
100
AcDbBlockTableRecord
  2
*B63
340
0
  0
BLOCK_RECORD
  5
305
100
AcDbSymbolTableRecord
100
AcDbBlockTableRecord
  2
*B64
340
0
  0
BLOCK_RECORD
  5
30A
100
AcDbSymbolTableRecord
100
AcDbBlockTableRecord
  2
*B65
340
0
  0
BLOCK_RECORD
  5
30F
100
AcDbSymbolTableRecord
100
AcDbBlockTableRecord
  2
*B66
340
0
  0
BLOCK_RECORD
  5
314
100
AcDbSymbolTableRecord
100
AcDbBlockTableRecord
  2
*B67
340
0
  0
BLOCK_RECORD
  5
319
100
AcDbSymbolTableRecord
100
AcDbBlockTableRecord
  2
*B68
340
0
  0
BLOCK_RECORD
  5
31E
100
AcDbSymbolTableRecord
100
AcDbBlockTableRecord
  2
*B69
340
0
  0
BLOCK_RECORD
  5
323
100
AcDbSymbolTableRecord
100
AcDbBlockTableRecord
  2
*B70
340
0
  0
BLOCK_RECORD
  5
328
100
AcDbSymbolTableRecord
100
AcDbBlockTableRecord
  2
*B71
340
0
  0
ENDTAB
  0
ENDSEC
  0
SECTION
  2
BLOCKS
  0
BLOCK
  5
D
100
AcDbEntity
  8
0
100
AcDbBlockBegin
  2
*MODEL_SPACE
 70
     0
 10
0.0
 20
0.0
 30
0.0
  3
*MODEL_SPACE
  1

  0
ENDBLK
  5
E
100
AcDbEntity
  8
0
100
AcDbBlockEnd
  0
BLOCK
  5
F
100
AcDbEntity
 67
     1
  8
0
100
AcDbBlockBegin
  2
*PAPER_SPACE
 70
     0
 10
0.0
 20
0.0
 30
0.0
  3
*PAPER_SPACE
  1

  0
ENDBLK
  5
10
100
AcDbEntity
 67
     1
  8
0
100
AcDbBlockEnd
  0
BLOCK
  5
2A
100
AcDbEntity
  8
0
100
AcDbBlockBegin
  2
*B0
 70
     0
 10
0.0
 20
0.0
 30
0.0
  3
*B0
  1

  0
ENDBLK
  5
2B
100
AcDbEntity
  8
0
100
AcDbBlockEnd
  0
BLOCK
  5
2D
100
AcDbEntity
  8
0
100
AcDbBlockBegin
  2
*B1
 70
     0
 10
0.0
 20
0.0
 30
0.0
  3
*B1
  1

  0
LINE
  5
2E
100
AcDbEntity
  8
0
  6
Continuous
 62
   172
100
AcDbLine
 10
214.475897
 20
298.989457
 30
0.0
 11
174.670137
 21
231.298313
 31
0.0
  0
LINE
  5
2F
100
AcDbEntity
  8
0
  6
Continuous
 62
   172
100
AcDbLine
 10
174.670137
 20
231.298313
 30
0.0
 11
155.750897
 21
231.298313
 31
0.0
  0
ENDBLK
  5
30
100
AcDbEntity
  8
0
100
AcDbBlockEnd
  0
BLOCK
  5
33
100
AcDbEntity
  8
0
100
AcDbBlockBegin
  2
*B2
 70
     0
 10
0.0
 20
0.0
 30
0.0
  3
*B2
  1

  0
LINE
  5
34
100
AcDbEntity
  8
0
  6
Continuous
 62
   172
100
AcDbLine
 10
170.739036
 20
235.401318
 30
0.0
 11
166.689036
 21
236.889457
 31
0.0
  0
LINE
  5
35
100
AcDbEntity
  8
0
  6
Continuous
 62
   172
100
AcDbLine
 10
170.739036
 20
235.401318
 30
0.0
 11
166.689036
 21
234.189457
 31
0.0
  0
LINE
  5
36
100
AcDbEntity
  8
0
  6
Continuous
 62
   172
100
AcDbLine
 10
168.039036
 20
235.401318
 30
0.0
 11
170.739036
 21
235.401318
 31
0.0
  0
LINE
  5
37
100
AcDbEntity
  8
0
  6
Continuous
 62
   172
100
AcDbLine
 10
170.739036
 20
258.627596
 30
0.0
 11
166.689036
 21
257.139457
 31
0.0
  0
LINE
  5
38
100
AcDbEntity
  8
0
  6
Continuous
 62
   172
100
AcDbLine
 10
170.739036
 20
258.627596
 30
0.0
 11
166.689036
 21
259.839457
 31
0.0
  0
LINE
  5
39
100
AcDbEntity
  8
0
  6
Continuous
 62
   172
100
AcDbLine
 10
168.039036
 20
258.627596
 30
0.0
 11
170.739036
 21
258.627596
 31
0.0
  0
ARC
  5
3A
100
AcDbEntity
  8
0
  6
Continuous
 62
   172
100
AcDbCircle
 10
168.039036
 20
247.014457
 30
0.0
 40
11.613139
100
AcDbArc
 50
-270.0
 51
-90.0
  0
ENDBLK
  5
3B
100
AcDbEntity
  8
0
100
AcDbBlockEnd
  0
BLOCK
  5
3E
100
AcDbEntity
  8
0
100
AcDbBlockBegin
  2
*B3
 70
     0
 10
0.0
 20
0.0
 30
0.0
  3
*B3
  1

  0
ENDBLK
  5
3F
100
AcDbEntity
  8
0
100
AcDbBlockEnd
  0
BLOCK
  5
41
100
AcDbEntity
  8
0
100
AcDbBlockBegin
  2
*B4
 70
     0
 10
0.0
 20
0.0
 30
0.0
  3
*B4
  1

  0
LINE
  5
42
100
AcDbEntity
  8
0
  6
Continuous
 62
   174
100
AcDbLine
 10
133.993691
 20
172.242056
 30
0.0
 11
133.993691
 21
154.242056
 31
0.0
  0
LINE
  5
43
100
AcDbEntity
  8
0
  6
HIDDEN
 62
   174
100
AcDbLine
 10
163.639101
 20
187.092056
 30
0.0
 11
162.825823
 21
187.092056
 31
0.0
  0
LINE
  5
44
100
AcDbEntity
  8
0
  6
HIDDEN
 62
   174
100
AcDbLine
 10
170.029993
 20
187.092056
 30
0.0
 11
163.639101
 21
187.092056
 31
0.0
  0
LINE
  5
45
100
AcDbEntity
  8
0
  6
HIDDEN
 62
   174
100
AcDbLine
 10
176.420885
 20
187.092056
 30
0.0
 11
170.029993
 21
187.092056
 31
0.0
  0
LINE
  5
46
100
AcDbEntity
  8
0
  6
HIDDEN
 62
   174
100
AcDbLine
 10
177.234163
 20
187.092056
 30
0.0
 11
176.420885
 21
187.092056
 31
0.0
  0
LINE
  5
47
100
AcDbEntity
  8
0
  6
Continuous
 62
   174
100
AcDbLine
 10
162.825823
 20
187.092056
 30
0.0
 11
161.704853
 21
187.092056
 31
0.0
  0
LINE
  5
48
100
AcDbEntity
  8
0
  6
Continuous
 62
   174
100
AcDbLine
 10
178.355134
 20
187.092056
 30
0.0
 11
177.234163
 21
187.092056
 31
0.0
  0
LINE
  5
49
100
AcDbEntity
  8
0
  6
Continuous
 62
   174
100
AcDbLine
 10
140.743691
 20
55.242056
 30
0.0
 11
259.993691
 21
55.242056
 31
0.0
  0
LINE
  5
4A
100
AcDbEntity
  8
0
  6
HIDDEN
 62
   174
100
AcDbLine
 10
163.954879
 20
187.092056
 30
0.0
 11
170.029993
 21
187.092056
 31
0.0
  0
LINE
  5
4B
100
AcDbEntity
  8
0
  6
HIDDEN
 62
   174
100
AcDbLine
 10
170.029993
 20
187.092056
 30
0.0
 11
176.105107
 21
187.092056
 31
0.0
  0
LINE
  5
4C
100
AcDbEntity
  8
0
  6
Continuous
 62
   174
100
AcDbLine
 10
205.993691
 20
154.242056
 30
0.0
 11
205.993691
 21
172.242056
 31
0.0
  0
LINE
  5
4D
100
AcDbEntity
  8
0
  6
Continuous
 62
   174
100
AcDbLine
 10
259.993691
 20
154.242056
 30
0.0
 11
205.993691
 21
154.242056
 31
0.0
  0
LINE
  5
4E
100
AcDbEntity
  8
0
  6
HIDDEN
 62
   174
100
AcDbLine
 10
163.918691
 20
180.342056
 30
0.0
 11
163.918691
 21
187.092056
 31
0.0
  0
LINE
  5
4F
100
AcDbEntity
  8
0
  6
Continuous
 62
   174
100
AcDbLine
 10
205.993691
 20
172.242056
 30
0.0
 11
133.993691
 21
172.242056
 31
0.0
  0
LINE
  5
50
100
AcDbEntity
  8
0
  6
HIDDEN
 62
   174
100
AcDbLine
 10
170.029993
 20
180.342056
 30
0.0
 11
161.704853
 21
180.342056
 31
0.0
  0
ARC
  5
51
100
AcDbEntity
  8
0
  6
Continuous
 62
   174
100
AcDbCircle
 10
133.993691
 20
135.117056
 30
0.0
 40
2.25
100
AcDbArc
 50
180.0
 51
225.0
  0
ARC
  5
52
100
AcDbEntity
  8
0
  6
Continuous
 62
   174
100
AcDbCircle
 10
133.993691
 20
58.617056
 30
0.0
 40
2.25
100
AcDbArc
 50
180.0
 51
225.0
  0
ARC
  5
53
100
AcDbEntity
  8
0
  6
HIDDEN
 62
   174
100
AcDbCircle
 10
133.993691
 20
58.617056
 30
0.0
 40
2.25
100
AcDbArc
 50
180.0
 51
270.0
  0
LINE
  5
54
100
AcDbEntity
  8
0
  6
HIDDEN
 62
   174
100
AcDbLine
 10
185.743691
 20
206.667056
 30
0.0
 11
189.343691
 21
206.667056
 31
0.0
  0
LINE
  5
55
100
AcDbEntity
  8
0
  6
HIDDEN
 62
   174
100
AcDbLine
 10
133.993691
 20
77.742056
 30
0.0
 11
140.743691
 21
77.742056
 31
0.0
  0
LINE
  5
56
100
AcDbEntity
  8
0
  6
HIDDEN
 62
   174
100
AcDbLine
 10
133.993691
 20
132.867056
 30
0.0
 11
140.743691
 21
132.867056
 31
0.0
  0
LINE
  5
57
100
AcDbEntity
  8
0
  6
HIDDEN
 62
   174
100
AcDbLine
 10
189.343691
 20
206.664101
 30
0.0
 11
189.343691
 21
212.513659
 31
0.0
  0
LINE
  5
58
100
AcDbEntity
  8
0
  6
Continuous
 62
   174
100
AcDbLine
 10
133.993691
 20
56.367056
 30
0.0
 11
140.743691
 21
56.367056
 31
0.0
  0
LINE
  5
59
100
AcDbEntity
  8
0
  6
Continuous
 62
   174
100
AcDbLine
 10
133.993691
 20
55.242056
 30
0.0
 11
133.993691
 21
56.367056
 31
0.0
  0
LINE
  5
5A
100
AcDbEntity
  8
0
  6
HIDDEN
 62
   174
100
AcDbLine
 10
177.193691
 20
172.242056
 30
0.0
 11
177.193691
 21
180.342056
 31
0.0
  0
LINE
  5
5B
100
AcDbEntity
  8
0
  6
HIDDEN
 62
   174
100
AcDbLine
 10
176.068691
 20
180.342056
 30
0.0
 11
176.068691
 21
187.092056
 31
0.0
  0
LINE
  5
5C
100
AcDbEntity
  8
0
  6
Continuous
 62
   174
100
AcDbLine
 10
140.743691
 20
55.242056
 30
0.0
 11
140.743691
 21
56.367056
 31
0.0
  0
LINE
  5
5D
100
AcDbEntity
  8
0
  6
HIDDEN
 62
   174
100
AcDbLine
 10
170.029993
 20
180.342056
 30
0.0
 11
163.954879
 21
180.342056
 31
0.0
  0
LINE
  5
5E
100
AcDbEntity
  8
0
  6
Continuous
 62
   174
100
AcDbLine
 10
140.743691
 20
154.242056
 30
0.0
 11
140.743691
 21
153.117056
 31
0.0
  0
LINE
  5
5F
100
AcDbEntity
  8
0
  6
HIDDEN
 62
   174
100
AcDbLine
 10
377.029874
 20
55.242056
 30
0.0
 11
350.029982
 21
55.242056
 31
0.0
  0
LINE
  5
60
100
AcDbEntity
  8
0
  6
HIDDEN
 62
   174
100
AcDbLine
 10
140.743691
 20
153.114578
 30
0.0
 11
140.743691
 21
132.865191
 31
0.0
  0
ARC
  5
61
100
AcDbEntity
  8
0
  6
Continuous
 62
   174
100
AcDbCircle
 10
133.993691
 20
58.617056
 30
0.0
 40
2.25
100
AcDbArc
 50
225.0
 51
270.0
  0
ARC
  5
62
100
AcDbEntity
  8
0
  6
HIDDEN
 62
   174
100
AcDbCircle
 10
133.993691
 20
150.867056
 30
0.0
 40
2.25
100
AcDbArc
 50
-270.0
 51
-180.0
  0
LINE
  5
63
100
AcDbEntity
  8
0
  6
HIDDEN
 62
   174
100
AcDbLine
 10
133.993691
 20
56.367056
 30
0.0
 11
140.743691
 21
56.367056
 31
0.0
  0
LINE
  5
64
100
AcDbEntity
  8
0
  6
Continuous
 62
   174
100
AcDbLine
 10
158.743691
 20
172.242056
 30
0.0
 11
158.743691
 21
180.342056
 31
0.0
  0
LINE
  5
65
100
AcDbEntity
  8
0
  6
Continuous
 62
   174
100
AcDbLine
 10
133.993691
 20
132.867056
 30
0.0
 11
140.743691
 21
132.867056
 31
0.0
  0
LINE
  5
66
100
AcDbEntity
  8
0
  6
HIDDEN
 62
   174
100
AcDbLine
 10
162.793691
 20
172.242056
 30
0.0
 11
162.793691
 21
180.342056
 31
0.0
  0
LINE
  5
67
100
AcDbEntity
  8
0
  6
Continuous
 62
   174
100
AcDbLine
 10
131.743691
 20
150.864977
 30
0.0
 11
131.743691
 21
135.115217
 31
0.0
  0
LINE
  5
68
100
AcDbEntity
  8
0
  6
Continuous
 62
   174
100
AcDbLine
 10
133.993691
 20
153.114578
 30
0.0
 11
133.993691
 21
142.990097
 31
0.0
  0
LINE
  5
69
100
AcDbEntity
  8
0
  6
HIDDEN
 62
   174
100
AcDbLine
 10
176.105107
 20
180.342056
 30
0.0
 11
170.029993
 21
180.342056
 31
0.0
  0
LINE
  5
6A
100
AcDbEntity
  8
0
  6
Continuous
 62
   174
100
AcDbLine
 10
259.993691
 20
154.242056
 30
0.0
 11
295.993691
 21
154.242056
 31
0.0
  0
LINE
  5
6B
100
AcDbEntity
  8
0
  6
Continuous
 62
   174
100
AcDbLine
 10
259.993691
 20
55.242056
 30
0.0
 11
259.993691
 21
154.242056
 31
0.0
  0
LINE
  5
6C
100
AcDbEntity
  8
0
  6
HIDDEN
 62
   174
100
AcDbLine
 10
343.279903
 20
60.642056
 30
0.0
 11
329.78017
 21
60.642056
 31
0.0
  0
ARC
  5
6D
100
AcDbEntity
  8
0
  6
Continuous
 62
   174
100
AcDbCircle
 10
133.993691
 20
135.117056
 30
0.0
 40
2.25
100
AcDbArc
 50
225.0
 51
270.0
  0
ARC
  5
6E
100
AcDbEntity
  8
0
  6
HIDDEN
 62
   174
100
AcDbCircle
 10
133.993691
 20
74.367056
 30
0.0
 40
2.25
100
AcDbArc
 50
-270.0
 51
-180.0
  0
ARC
  5
6F
100
AcDbEntity
  8
0
  6
HIDDEN
 62
   174
100
AcDbCircle
 10
133.993691
 20
135.117056
 30
0.0
 40
2.25
100
AcDbArc
 50
180.0
 51
270.0
  0
LINE
  5
70
100
AcDbEntity
  8
0
  6
HIDDEN
 62
   174
100
AcDbLine
 10
185.743691
 20
212.517056
 30
0.0
 11
189.343691
 21
212.517056
 31
0.0
  0
LINE
  5
71
100
AcDbEntity
  8
0
  6
HIDDEN
 62
   174
100
AcDbLine
 10
133.993691
 20
153.117056
 30
0.0
 11
140.743691
 21
153.117056
 31
0.0
  0
LINE
  5
72
100
AcDbEntity
  8
0
  6
Continuous
 62
   174
100
AcDbLine
 10
133.993691
 20
76.617056
 30
0.0
 11
140.743691
 21
76.617056
 31
0.0
  0
LINE
  5
73
100
AcDbEntity
  8
0
  6
HIDDEN
 62
   174
100
AcDbLine
 10
133.993691
 20
56.367056
 30
0.0
 11
133.993691
 21
66.492056
 31
0.0
  0
LINE
  5
74
100
AcDbEntity
  8
0
  6
Continuous
 62
   174
100
AcDbLine
 10
133.993691
 20
142.990097
 30
0.0
 11
133.993691
 21
132.865191
 31
0.0
  0
LINE
  5
75
100
AcDbEntity
  8
0
  6
Continuous
 62
   174
100
AcDbLine
 10
161.668691
 20
180.342056
 30
0.0
 11
161.668691
 21
187.092056
 31
0.0
  0
LINE
  5
76
100
AcDbEntity
  8
0
  6
HIDDEN
 62
   174
100
AcDbLine
 10
140.743691
 20
153.114578
 30
0.0
 11
140.743691
 21
132.865191
 31
0.0
  0
LINE
  5
77
100
AcDbEntity
  8
0
  6
Continuous
 62
   174
100
AcDbLine
 10
295.993691
 20
154.242056
 30
0.0
 11
295.993691
 21
55.242056
 31
0.0
  0
ARC
  5
78
100
AcDbEntity
  8
0
  6
Continuous
 62
   174
100
AcDbCircle
 10
133.993691
 20
150.867056
 30
0.0
 40
2.25
100
AcDbArc
 50
-270.0
 51
-180.0
  0
ARC
  5
79
100
AcDbEntity
  8
0
  6
Continuous
 62
   174
100
AcDbCircle
 10
133.993691
 20
74.367056
 30
0.0
 40
2.25
100
AcDbArc
 50
-270.0
 51
-180.0
  0
ARC
  5
7A
100
AcDbEntity
  8
0
  6
HIDDEN
 62
   174
100
AcDbCircle
 10
133.993691
 20
58.617056
 30
0.0
 40
2.25
100
AcDbArc
 50
180.0
 51
270.0
  0
LINE
  5
7B
100
AcDbEntity
  8
0
  6
HIDDEN
 62
   174
100
AcDbLine
 10
133.993691
 20
76.617056
 30
0.0
 11
140.743691
 21
76.617056
 31
0.0
  0
LINE
  5
7C
100
AcDbEntity
  8
0
  6
Continuous
 62
   174
100
AcDbLine
 10
181.243691
 20
172.242056
 30
0.0
 11
181.243691
 21
180.342056
 31
0.0
  0
LINE
  5
7D
100
AcDbEntity
  8
0
  6
Continuous
 62
   174
100
AcDbLine
 10
133.993691
 20
153.117056
 30
0.0
 11
140.743691
 21
153.117056
 31
0.0
  0
LINE
  5
7E
100
AcDbEntity
  8
0
  6
Continuous
 62
   174
100
AcDbLine
 10
133.993691
 20
77.742056
 30
0.0
 11
140.743691
 21
77.742056
 31
0.0
  0
ARC
  5
7F
100
AcDbEntity
  8
0
  6
Continuous
 62
   174
100
AcDbCircle
 10
133.993691
 20
58.617056
 30
0.0
 40
2.25
100
AcDbArc
 50
180.0
 51
225.0
  0
ARC
  5
80
100
AcDbEntity
  8
0
  6
HIDDEN
 62
   174
100
AcDbCircle
 10
133.993691
 20
150.867056
 30
0.0
 40
2.25
100
AcDbArc
 50
-270.0
 51
-180.0
  0
LINE
  5
81
100
AcDbEntity
  8
0
  6
HIDDEN
 62
   174
100
AcDbLine
 10
185.743691
 20
206.667056
 30
0.0
 11
189.343691
 21
206.667056
 31
0.0
  0
LINE
  5
82
100
AcDbEntity
  8
0
  6
HIDDEN
 62
   174
100
AcDbLine
 10
133.993691
 20
132.867056
 30
0.0
 11
140.743691
 21
132.867056
 31
0.0
  0
LINE
  5
83
100
AcDbEntity
  8
0
  6
HIDDEN
 62
   174
100
AcDbLine
 10
133.993691
 20
154.242056
 30
0.0
 11
140.743691
 21
154.242056
 31
0.0
  0
LINE
  5
84
100
AcDbEntity
  8
0
  6
Continuous
 62
   174
100
AcDbLine
 10
133.993691
 20
56.367056
 30
0.0
 11
140.743691
 21
56.367056
 31
0.0
  0
LINE
  5
85
100
AcDbEntity
  8
0
  6
HIDDEN
 62
   174
100
AcDbLine
 10
177.193691
 20
180.342056
 30
0.0
 11
177.193691
 21
187.092056
 31
0.0
  0
LINE
  5
86
100
AcDbEntity
  8
0
  6
Continuous
 62
   174
100
AcDbLine
 10
140.743691
 20
56.367056
 30
0.0
 11
140.743691
 21
76.617056
 31
0.0
  0
LINE
  5
87
100
AcDbEntity
  8
0
  6
Continuous
 62
   174
100
AcDbLine
 10
259.993691
 20
55.242056
 30
0.0
 11
259.993691
 21
154.242056
 31
0.0
  0
LINE
  5
88
100
AcDbEntity
  8
0
  6
HIDDEN
 62
   174
100
AcDbLine
 10
430.993691
 20
73.240979
 30
0.0
 11
430.993691
 21
113.740178
 31
0.0
  0
LINE
  5
89
100
AcDbEntity
  8
0
  6
Continuous
 62
   174
100
AcDbLine
 10
140.743691
 20
153.117056
 30
0.0
 11
140.743691
 21
132.867056
 31
0.0
  0
LINE
  5
8A
100
AcDbEntity
  8
0
  6
Continuous
 62
   174
100
AcDbLine
 10
133.993691
 20
154.242056
 30
0.0
 11
140.743691
 21
154.242056
 31
0.0
  0
LINE
  5
8B
100
AcDbEntity
  8
0
  6
Continuous
 62
   174
100
AcDbLine
 10
430.993691
 20
55.242056
 30
0.0
 11
430.993691
 21
154.242056
 31
0.0
  0
LINE
  5
8C
100
AcDbEntity
  8
0
  6
Continuous
 62
   174
100
AcDbLine
 10
295.993691
 20
55.242056
 30
0.0
 11
430.993691
 21
55.242056
 31
0.0
  0
LINE
  5
8D
100
AcDbEntity
  8
0
  6
HIDDEN
 62
   174
100
AcDbLine
 10
140.743691
 20
76.615806
 30
0.0
 11
140.743691
 21
56.366419
 31
0.0
  0
LINE
  5
8E
100
AcDbEntity
  8
0
  6
HIDDEN
 62
   174
100
AcDbLine
 10
140.743691
 20
76.615806
 30
0.0
 11
140.743691
 21
56.366419
 31
0.0
  0
ARC
  5
8F
100
AcDbEntity
  8
0
  6
Continuous
 62
   174
100
AcDbCircle
 10
133.993691
 20
135.117056
 30
0.0
 40
2.25
100
AcDbArc
 50
225.0
 51
270.0
  0
ARC
  5
90
100
AcDbEntity
  8
0
  6
Continuous
 62
   174
100
AcDbCircle
 10
133.993691
 20
135.117056
 30
0.0
 40
2.25
100
AcDbArc
 50
180.0
 51
225.0
  0
ARC
  5
91
100
AcDbEntity
  8
0
  6
Continuous
 62
   174
100
AcDbCircle
 10
133.993691
 20
58.617056
 30
0.0
 40
2.25
100
AcDbArc
 50
225.0
 51
270.0
  0
ARC
  5
92
100
AcDbEntity
  8
0
  6
HIDDEN
 62
   174
100
AcDbCircle
 10
133.993691
 20
74.367056
 30
0.0
 40
2.25
100
AcDbArc
 50
-270.0
 51
-180.0
  0
ARC
  5
93
100
AcDbEntity
  8
0
  6
HIDDEN
 62
   174
100
AcDbCircle
 10
133.993691
 20
135.117056
 30
0.0
 40
2.25
100
AcDbArc
 50
180.0
 51
225.0
  0
LINE
  5
94
100
AcDbEntity
  8
0
  6
HIDDEN
 62
   174
100
AcDbLine
 10
133.993691
 20
56.367056
 30
0.0
 11
140.743691
 21
56.367056
 31
0.0
  0
LINE
  5
95
100
AcDbEntity
  8
0
  6
Continuous
 62
   174
100
AcDbLine
 10
133.993691
 20
132.867056
 30
0.0
 11
140.743691
 21
132.867056
 31
0.0
  0
LINE
  5
96
100
AcDbEntity
  8
0
  6
HIDDEN
 62
   174
100
AcDbLine
 10
162.793691
 20
180.342056
 30
0.0
 11
162.793691
 21
187.092056
 31
0.0
  0
LINE
  5
97
100
AcDbEntity
  8
0
  6
Continuous
 62
   174
100
AcDbLine
 10
178.318691
 20
180.342056
 30
0.0
 11
178.318691
 21
187.092056
 31
0.0
  0
LINE
  5
98
100
AcDbEntity
  8
0
  6
Continuous
 62
   174
100
AcDbLine
 10
133.993691
 20
55.242056
 30
0.0
 11
140.743691
 21
55.242056
 31
0.0
  0
LINE
  5
99
100
AcDbEntity
  8
0
  6
Continuous
 62
   174
100
AcDbLine
 10
133.993691
 20
131.742056
 30
0.0
 11
140.743691
 21
131.742056
 31
0.0
  0
LINE
  5
9A
100
AcDbEntity
  8
0
  6
Continuous
 62
   174
100
AcDbLine
 10
133.993691
 20
131.742056
 30
0.0
 11
133.993691
 21
77.742056
 31
0.0
  0
LINE
  5
9B
100
AcDbEntity
  8
0
  6
HIDDEN
 62
   174
100
AcDbLine
 10
370.279795
 20
60.642056
 30
0.0
 11
356.780062
 21
60.642056
 31
0.0
  0
LINE
  5
9C
100
AcDbEntity
  8
0
  6
Continuous
 62
   174
100
AcDbLine
 10
295.993691
 20
55.242056
 30
0.0
 11
295.993691
 21
154.242056
 31
0.0
  0
ARC
  5
9D
100
AcDbEntity
  8
0
  6
Continuous
 62
   174
100
AcDbCircle
 10
133.993691
 20
74.367056
 30
0.0
 40
2.25
100
AcDbArc
 50
-270.0
 51
-180.0
  0
LINE
  5
9E
100
AcDbEntity
  8
0
  6
HIDDEN
 62
   174
100
AcDbLine
 10
185.743691
 20
212.517056
 30
0.0
 11
189.343691
 21
212.517056
 31
0.0
  0
LINE
  5
9F
100
AcDbEntity
  8
0
  6
HIDDEN
 62
   174
100
AcDbLine
 10
133.993691
 20
153.117056
 30
0.0
 11
140.743691
 21
153.117056
 31
0.0
  0
LINE
  5
A0
100
AcDbEntity
  8
0
  6
HIDDEN
 62
   174
100
AcDbLine
 10
185.743691
 20
206.664101
 30
0.0
 11
185.743691
 21
212.513659
 31
0.0
  0
LINE
  5
A1
100
AcDbEntity
  8
0
  6
Continuous
 62
   174
100
AcDbLine
 10
133.993691
 20
76.617056
 30
0.0
 11
140.743691
 21
76.617056
 31
0.0
  0
LINE
  5
A2
100
AcDbEntity
  8
0
  6
HIDDEN
 62
   174
100
AcDbLine
 10
177.193691
 20
187.092056
 30
0.0
 11
177.193691
 21
209.592056
 31
0.0
  0
LINE
  5
A3
100
AcDbEntity
  8
0
  6
HIDDEN
 62
   174
100
AcDbLine
 10
131.743691
 20
74.366205
 30
0.0
 11
131.743691
 21
58.616445
 31
0.0
  0
LINE
  5
A4
100
AcDbEntity
  8
0
  6
Continuous
 62
   174
100
AcDbLine
 10
140.743691
 20
76.617056
 30
0.0
 11
140.743691
 21
77.742056
 31
0.0
  0
LINE
  5
A5
100
AcDbEntity
  8
0
  6
HIDDEN
 62
   174
100
AcDbLine
 10
178.355134
 20
180.342056
 30
0.0
 11
170.029993
 21
180.342056
 31
0.0
  0
LINE
  5
A6
100
AcDbEntity
  8
0
  6
Continuous
 62
   174
100
AcDbLine
 10
140.743691
 20
132.867056
 30
0.0
 11
140.743691
 21
131.742056
 31
0.0
  0
LINE
  5
A7
100
AcDbEntity
  8
0
  6
Continuous
 62
   174
100
AcDbLine
 10
259.993691
 20
55.242056
 30
0.0
 11
295.993691
 21
55.242056
 31
0.0
  0
ARC
  5
A8
100
AcDbEntity
  8
0
  6
Continuous
 62
   174
100
AcDbCircle
 10
133.993691
 20
150.867056
 30
0.0
 40
2.25
100
AcDbArc
 50
-270.0
 51
-180.0
  0
ARC
  5
A9
100
AcDbEntity
  8
0
  6
HIDDEN
 62
   174
100
AcDbCircle
 10
133.993691
 20
135.117056
 30
0.0
 40
2.25
100
AcDbArc
 50
225.0
 51
270.0
  0
LINE
  5
AA
100
AcDbEntity
  8
0
  6
HIDDEN
 62
   174
100
AcDbLine
 10
133.993691
 20
76.617056
 30
0.0
 11
140.743691
 21
76.617056
 31
0.0
  0
LINE
  5
AB
100
AcDbEntity
  8
0
  6
HIDDEN
 62
   174
100
AcDbLine
 10
133.993691
 20
131.742056
 30
0.0
 11
140.743691
 21
131.742056
 31
0.0
  0
LINE
  5
AC
100
AcDbEntity
  8
0
  6
Continuous
 62
   174
100
AcDbLine
 10
133.993691
 20
153.117056
 30
0.0
 11
140.743691
 21
153.117056
 31
0.0
  0
LINE
  5
AD
100
AcDbEntity
  8
0
  6
HIDDEN
 62
   174
100
AcDbLine
 10
162.793691
 20
187.092056
 30
0.0
 11
162.793691
 21
209.592056
 31
0.0
  0
LINE
  5
AE
100
AcDbEntity
  8
0
  6
HIDDEN
 62
   174
100
AcDbLine
 10
131.743691
 20
150.864977
 30
0.0
 11
131.743691
 21
135.115217
 31
0.0
  0
LINE
  5
AF
100
AcDbEntity
  8
0
  6
HIDDEN
 62
   174
100
AcDbLine
 10
133.993691
 20
153.114578
 30
0.0
 11
133.993691
 21
132.865191
 31
0.0
  0
LINE
  5
B0
100
AcDbEntity
  8
0
  6
HIDDEN
 62
   174
100
AcDbLine
 10
345.943691
 20
154.242056
 30
0.0
 11
345.943691
 21
148.842056
 31
0.0
  0
LINE
  5
B1
100
AcDbEntity
  8
0
  6
HIDDEN
 62
   174
100
AcDbLine
 10
178.064464
 20
180.342056
 30
0.0
 11
170.029993
 21
180.342056
 31
0.0
  0
LINE
  5
B2
100
AcDbEntity
  8
0
  6
Continuous
 62
   174
100
AcDbLine
 10
189.343691
 20
172.242056
 30
0.0
 11
189.343691
 21
220.392056
 31
0.0
  0
LINE
  5
B3
100
AcDbEntity
  8
0
  6
HIDDEN
 62
   174
100
AcDbLine
 10
333.612285
 20
154.242056
 30
0.0
 11
333.612285
 21
148.842056
 31
0.0
  0
LINE
  5
B4
100
AcDbEntity
  8
0
  6
HIDDEN
 62
   174
100
AcDbLine
 10
389.11201
 20
148.842056
 30
0.0
 11
391.947631
 21
148.842056
 31
0.0
  0
LINE
  5
B5
100
AcDbEntity
  8
0
  6
HIDDEN
 62
   174
100
AcDbLine
 10
381.043691
 20
154.242056
 30
0.0
 11
381.043691
 21
148.842056
 31
0.0
  0
LINE
  5
B6
100
AcDbEntity
  8
0
  6
HIDDEN
 62
   174
100
AcDbLine
 10
140.743691
 20
154.239804
 30
0.0
 11
140.743691
 21
142.990097
 31
0.0
  0
LINE
  5
B7
100
AcDbEntity
  8
0
  6
HIDDEN
 62
   174
100
AcDbLine
 10
342.343691
 20
148.842056
 30
0.0
 11
342.343691
 21
55.242056
 31
0.0
  0
LINE
  5
B8
100
AcDbEntity
  8
0
  6
HIDDEN
 62
   174
100
AcDbLine
 10
286.993691
 20
154.242056
 30
0.0
 11
286.993691
 21
153.792056
 31
0.0
  0
LWPOLYLINE
  5
B9
100
AcDbEntity
  8
0
  6
HIDDEN
 62
   174
100
AcDbPolyline
 90
       10
 70
   128
 10
327.023667
 20
154.242056
 10
327.318221
 20
154.242056
 10
328.461977
 20
154.242056
 10
329.884849
 20
154.242056
 10
331.476758
 20
154.242056
 10
332.846109
 20
154.242056
 10
333.521336
 20
154.242056
 10
333.864906
 20
154.242056
 10
333.890622
 20
154.242056
 10
333.612285
 20
154.242056
  0
LINE
  5
BA
100
AcDbEntity
  8
0
  6
HIDDEN
 62
   174
100
AcDbLine
 10
133.993691
 20
153.114578
 30
0.0
 11
133.993691
 21
142.990097
 31
0.0
  0
LINE
  5
BB
100
AcDbEntity
  8
0
  6
HIDDEN
 62
   174
100
AcDbLine
 10
131.743691
 20
74.366205
 30
0.0
 11
131.743691
 21
58.616445
 31
0.0
  0
LINE
  5
BC
100
AcDbEntity
  8
0
  6
HIDDEN
 62
   174
100
AcDbLine
 10
399.943691
 20
154.242056
 30
0.0
 11
399.943691
 21
148.842056
 31
0.0
  0
LWPOLYLINE
  5
BD
100
AcDbEntity
  8
0
  6
HIDDEN
 62
   174
100
AcDbPolyline
 90
        7
 70
   128
 10
339.375097
 20
154.242056
 10
341.264251
 20
154.242056
 10
342.817485
 20
154.242056
 10
344.069047
 20
154.242056
 10
345.405145
 20
154.242056
 10
345.951934
 20
154.242056
 10
345.95581
 20
154.242056
  0
LINE
  5
BE
100
AcDbEntity
  8
0
  6
HIDDEN
 62
   174
100
AcDbLine
 10
269.029881
 20
154.242056
 30
0.0
 11
287.030092
 21
154.242056
 31
0.0
  0
LINE
  5
BF
100
AcDbEntity
  8
0
  6
Continuous
 62
   174
100
AcDbLine
 10
131.743691
 20
74.366205
 30
0.0
 11
131.743691
 21
58.616445
 31
0.0
  0
LINE
  5
C0
100
AcDbEntity
  8
0
  6
HIDDEN
 62
   174
100
AcDbLine
 10
396.380017
 20
55.242056
 30
0.0
 11
384.680049
 21
55.242056
 31
0.0
  0
LINE
  5
C1
100
AcDbEntity
  8
0
  6
HIDDEN
 62
   174
100
AcDbLine
 10
342.379807
 20
55.242056
 30
0.0
 11
330.67984
 21
55.242056
 31
0.0
  0
LINE
  5
C2
100
AcDbEntity
  8
0
  6
HIDDEN
 62
   174
100
AcDbLine
 10
387.725905
 20
148.842056
 30
0.0
 11
389.11201
 21
148.842056
 31
0.0
  0
LINE
  5
C3
100
AcDbEntity
  8
0
  6
HIDDEN
 62
   174
100
AcDbLine
 10
133.993691
 20
131.742056
 30
0.0
 11
140.743691
 21
131.742056
 31
0.0
  0
LINE
  5
C4
100
AcDbEntity
  8
0
  6
HIDDEN
 62
   174
100
AcDbLine
 10
330.643691
 20
148.842056
 30
0.0
 11
330.643691
 21
55.242056
 31
0.0
  0
LINE
  5
C5
100
AcDbEntity
  8
0
  6
HIDDEN
 62
   174
100
AcDbLine
 10
170.029993
 20
180.342056
 30
0.0
 11
161.995522
 21
180.342056
 31
0.0
  0
LINE
  5
C6
100
AcDbEntity
  8
0
  6
HIDDEN
 62
   174
100
AcDbLine
 10
384.643691
 20
148.842056
 30
0.0
 11
384.643691
 21
55.242056
 31
0.0
  0
LINE
  5
C7
100
AcDbEntity
  8
0
  6
HIDDEN
 62
   174
100
AcDbLine
 10
133.993691
 20
142.990097
 30
0.0
 11
133.993691
 21
132.865191
 31
0.0
  0
LINE
  5
C8
100
AcDbEntity
  8
0
  6
HIDDEN
 62
   174
100
AcDbLine
 10
133.993691
 20
154.242056
 30
0.0
 11
140.743691
 21
154.242056
 31
0.0
  0
LINE
  5
C9
100
AcDbEntity
  8
0
  6
HIDDEN
 62
   174
100
AcDbLine
 10
342.343691
 20
148.842056
 30
0.0
 11
342.343691
 21
55.242056
 31
0.0
  0
LINE
  5
CA
100
AcDbEntity
  8
0
  6
HIDDEN
 62
   174
100
AcDbLine
 10
131.743691
 20
74.366205
 30
0.0
 11
131.743691
 21
58.616445
 31
0.0
  0
LINE
  5
CB
100
AcDbEntity
  8
0
  6
HIDDEN
 62
   174
100
AcDbLine
 10
131.743691
 20
150.864977
 30
0.0
 11
131.743691
 21
135.115217
 31
0.0
  0
LWPOLYLINE
  5
CC
100
AcDbEntity
  8
0
  6
HIDDEN
 62
   174
100
AcDbPolyline
 90
        5
 70
   128
 10
381.031573
 20
154.242056
 10
381.446449
 20
154.242056
 10
382.670425
 20
154.242056
 10
384.672037
 20
154.242056
 10
387.220083
 20
154.242056
  0
LINE
  5
CD
100
AcDbEntity
  8
0
  6
Continuous
 62
   174
100
AcDbLine
 10
393.375097
 20
154.242056
 30
0.0
 11
393.375097
 21
148.842056
 31
0.0
  0
LINE
  5
CE
100
AcDbEntity
  8
0
  6
HIDDEN
 62
   174
100
AcDbLine
 10
162.793691
 20
209.592056
 30
0.0
 11
177.193691
 21
209.592056
 31
0.0
  0
LINE
  5
CF
100
AcDbEntity
  8
0
  6
HIDDEN
 62
   174
100
AcDbLine
 10
140.743691
 20
77.741032
 30
0.0
 11
140.743691
 21
66.491325
 31
0.0
  0
LINE
  5
D0
100
AcDbEntity
  8
0
  6
Continuous
 62
   174
100
AcDbLine
 10
430.993691
 20
73.242056
 30
0.0
 11
435.493691
 21
73.242056
 31
0.0
  0
LINE
  5
D1
100
AcDbEntity
  8
0
  6
HIDDEN
 62
   174
100
AcDbLine
 10
185.743691
 20
172.242056
 30
0.0
 11
189.343691
 21
172.242056
 31
0.0
  0
LINE
  5
D2
100
AcDbEntity
  8
0
  6
HIDDEN
 62
   174
100
AcDbLine
 10
396.343691
 20
148.842056
 30
0.0
 11
396.343691
 21
55.242056
 31
0.0
  0
LINE
  5
D3
100
AcDbEntity
  8
0
  6
HIDDEN
 62
   174
100
AcDbLine
 10
350.029982
 20
55.242056
 30
0.0
 11
323.03009
 21
55.242056
 31
0.0
  0
LINE
  5
D4
100
AcDbEntity
  8
0
  6
Continuous
 62
   174
100
AcDbLine
 10
181.280125
 20
180.342056
 30
0.0
 11
178.895617
 21
180.342056
 31
0.0
  0
LINE
  5
D5
100
AcDbEntity
  8
0
  6
HIDDEN
 62
   174
100
AcDbLine
 10
287.030092
 20
153.792056
 30
0.0
 11
269.029881
 21
153.792056
 31
0.0
  0
LINE
  5
D6
100
AcDbEntity
  8
0
  6
Continuous
 62
   174
100
AcDbLine
 10
162.793691
 20
209.592056
 30
0.0
 11
177.193691
 21
209.592056
 31
0.0
  0
LINE
  5
D7
100
AcDbEntity
  8
0
  6
HIDDEN
 62
   174
100
AcDbLine
 10
133.993691
 20
142.990097
 30
0.0
 11
133.993691
 21
153.795075
 31
0.0
  0
LINE
  5
D8
100
AcDbEntity
  8
0
  6
Continuous
 62
   174
100
AcDbLine
 10
430.993691
 20
113.742056
 30
0.0
 11
435.493691
 21
113.742056
 31
0.0
  0
LINE
  5
D9
100
AcDbEntity
  8
0
  6
HIDDEN
 62
   174
100
AcDbLine
 10
384.643691
 20
148.842056
 30
0.0
 11
384.643691
 21
55.242056
 31
0.0
  0
LINE
  5
DA
100
AcDbEntity
  8
0
  6
Continuous
 62
   174
100
AcDbLine
 10
387.612285
 20
148.842056
 30
0.0
 11
393.375097
 21
148.842056
 31
0.0
  0
LINE
  5
DB
100
AcDbEntity
  8
0
  6
HIDDEN
 62
   174
100
AcDbLine
 10
133.993691
 20
76.615806
 30
0.0
 11
133.993691
 21
56.366419
 31
0.0
  0
LINE
  5
DC
100
AcDbEntity
  8
0
  6
HIDDEN
 62
   174
100
AcDbLine
 10
131.743691
 20
150.864977
 30
0.0
 11
131.743691
 21
135.115217
 31
0.0
  0
LINE
  5
DD
100
AcDbEntity
  8
0
  6
HIDDEN
 62
   174
100
AcDbLine
 10
140.743691
 20
55.242056
 30
0.0
 11
140.743691
 21
66.492056
 31
0.0
  0
LINE
  5
DE
100
AcDbEntity
  8
0
  6
Continuous
 62
   174
100
AcDbLine
 10
162.793691
 20
172.242056
 30
0.0
 11
162.793691
 21
209.592056
 31
0.0
  0
LWPOLYLINE
  5
DF
100
AcDbEntity
  8
0
  6
Continuous
 62
   174
100
AcDbPolyline
 90
        3
 70
   128
 10
387.220083
 20
154.242056
 10
390.083216
 20
154.242056
 10
392.988633
 20
154.242056
  0
LINE
  5
E0
100
AcDbEntity
  8
0
  6
HIDDEN
 62
   174
100
AcDbLine
 10
133.993691
 20
66.491325
 30
0.0
 11
133.993691
 21
77.295878
 31
0.0
  0
LINE
  5
E1
100
AcDbEntity
  8
0
  6
Continuous
 62
   174
100
AcDbLine
 10
178.895617
 20
180.342056
 30
0.0
 11
178.064464
 21
180.342056
 31
0.0
  0
LINE
  5
E2
100
AcDbEntity
  8
0
  6
Continuous
 62
   174
100
AcDbLine
 10
430.993691
 20
73.242056
 30
0.0
 11
435.493691
 21
73.242056
 31
0.0
  0
LINE
  5
E3
100
AcDbEntity
  8
0
  6
HIDDEN
 62
   174
100
AcDbLine
 10
133.993691
 20
131.742056
 30
0.0
 11
140.743691
 21
131.742056
 31
0.0
  0
LINE
  5
E4
100
AcDbEntity
  8
0
  6
HIDDEN
 62
   174
100
AcDbLine
 10
396.343691
 20
148.842056
 30
0.0
 11
396.343691
 21
55.242056
 31
0.0
  0
LWPOLYLINE
  5
E5
100
AcDbEntity
  8
0
  6
HIDDEN
 62
   174
100
AcDbPolyline
 90
        6
 70
   128
 10
392.988633
 20
154.242056
 10
395.656946
 20
154.242056
 10
397.823895
 20
154.242056
 10
399.268489
 20
154.242056
 10
399.927683
 20
154.242056
 10
399.963716
 20
154.242056
  0
LINE
  5
E6
100
AcDbEntity
  8
0
  6
HIDDEN
 62
   174
100
AcDbLine
 10
133.993691
 20
66.492056
 30
0.0
 11
140.743691
 21
66.492056
 31
0.0
  0
LINE
  5
E7
100
AcDbEntity
  8
0
  6
Continuous
 62
   174
100
AcDbLine
 10
133.993691
 20
131.739964
 30
0.0
 11
133.993691
 21
132.181288
 31
0.0
  0
LWPOLYLINE
  5
E8
100
AcDbEntity
  8
0
  6
HIDDEN
 62
   174
100
AcDbPolyline
 90
       12
 70
   128
 10
327.031573
 20
148.842056
 10
327.446448
 20
148.842056
 10
328.670425
 20
148.842056
 10
330.672037
 20
148.842056
 10
333.220083
 20
148.842056
 10
336.083216
 20
148.842056
 10
338.988633
 20
148.842056
 10
341.656946
 20
148.842056
 10
343.823895
 20
148.842056
 10
345.268489
 20
148.842056
 10
345.927683
 20
148.842056
 10
345.963716
 20
148.842056
  0
LINE
  5
E9
100
AcDbEntity
  8
0
  6
HIDDEN
 62
   174
100
AcDbLine
 10
384.680049
 20
148.842056
 30
0.0
 11
387.725905
 21
148.842056
 31
0.0
  0
LINE
  5
EA
100
AcDbEntity
  8
0
  6
Continuous
 62
   174
100
AcDbLine
 10
133.993691
 20
76.615806
 30
0.0
 11
133.993691
 21
66.491325
 31
0.0
  0
LINE
  5
EB
100
AcDbEntity
  8
0
  6
Continuous
 62
   174
100
AcDbLine
 10
177.193691
 20
172.242056
 30
0.0
 11
177.193691
 21
209.592056
 31
0.0
  0
LINE
  5
EC
100
AcDbEntity
  8
0
  6
Continuous
 62
   174
100
AcDbLine
 10
430.993691
 20
113.742056
 30
0.0
 11
435.493691
 21
113.742056
 31
0.0
  0
LINE
  5
ED
100
AcDbEntity
  8
0
  6
Continuous
 62
   174
100
AcDbLine
 10
435.493691
 20
73.240979
 30
0.0
 11
435.493691
 21
113.740178
 31
0.0
  0
LINE
  5
EE
100
AcDbEntity
  8
0
  6
HIDDEN
 62
   174
100
AcDbLine
 10
133.993691
 20
76.615806
 30
0.0
 11
133.993691
 21
56.366419
 31
0.0
  0
LINE
  5
EF
100
AcDbEntity
  8
0
  6
HIDDEN
 62
   174
100
AcDbLine
 10
133.993691
 20
77.742056
 30
0.0
 11
140.743691
 21
77.742056
 31
0.0
  0
LINE
  5
F0
100
AcDbEntity
  8
0
  6
Continuous
 62
   174
100
AcDbLine
 10
133.993691
 20
77.295878
 30
0.0
 11
133.993691
 21
77.741032
 31
0.0
  0
LINE
  5
F1
100
AcDbEntity
  8
0
  6
Continuous
 62
   174
100
AcDbLine
 10
161.995522
 20
180.342056
 30
0.0
 11
161.164795
 21
180.342056
 31
0.0
  0
LINE
  5
F2
100
AcDbEntity
  8
0
  6
HIDDEN
 62
   174
100
AcDbLine
 10
181.280125
 20
172.242056
 30
0.0
 11
170.029993
 21
172.242056
 31
0.0
  0
LINE
  5
F3
100
AcDbEntity
  8
0
  6
Continuous
 62
   174
100
AcDbLine
 10
430.993691
 20
154.242056
 30
0.0
 11
393.375097
 21
154.242056
 31
0.0
  0
LINE
  5
F4
100
AcDbEntity
  8
0
  6
HIDDEN
 62
   174
100
AcDbLine
 10
404.030192
 20
55.242056
 30
0.0
 11
396.38938
 21
55.242056
 31
0.0
  0
LINE
  5
F5
100
AcDbEntity
  8
0
  6
Continuous
 62
   174
100
AcDbLine
 10
133.993691
 20
153.795075
 30
0.0
 11
133.993691
 21
154.239804
 31
0.0
  0
LINE
  5
F6
100
AcDbEntity
  8
0
  6
HIDDEN
 62
   174
100
AcDbLine
 10
393.415446
 20
148.842056
 30
0.0
 11
396.380017
 21
148.842056
 31
0.0
  0
LINE
  5
F7
100
AcDbEntity
  8
0
  6
HIDDEN
 62
   174
100
AcDbLine
 10
330.67984
 20
148.842056
 30
0.0
 11
342.379807
 21
148.842056
 31
0.0
  0
LINE
  5
F8
100
AcDbEntity
  8
0
  6
Continuous
 62
   174
100
AcDbLine
 10
133.993691
 20
66.491325
 30
0.0
 11
133.993691
 21
56.366419
 31
0.0
  0
LINE
  5
F9
100
AcDbEntity
  8
0
  6
Continuous
 62
   174
100
AcDbLine
 10
185.743691
 20
172.242056
 30
0.0
 11
185.743691
 21
220.392056
 31
0.0
  0
LINE
  5
FA
100
AcDbEntity
  8
0
  6
HIDDEN
 62
   174
100
AcDbLine
 10
339.375097
 20
154.242056
 30
0.0
 11
339.375097
 21
148.842056
 31
0.0
  0
LWPOLYLINE
  5
FB
100
AcDbEntity
  8
0
  6
HIDDEN
 62
   174
100
AcDbPolyline
 90
       10
 70
   128
 10
381.023667
 20
148.842056
 10
381.318221
 20
148.842056
 10
382.461977
 20
148.842056
 10
383.884849
 20
148.842056
 10
385.476758
 20
148.842056
 10
386.846109
 20
148.842056
 10
387.521336
 20
148.842056
 10
387.864906
 20
148.842056
 10
387.890622
 20
148.842056
 10
387.612285
 20
148.842056
  0
LINE
  5
FC
100
AcDbEntity
  8
0
  6
HIDDEN
 62
   174
100
AcDbLine
 10
133.993691
 20
76.615806
 30
0.0
 11
133.993691
 21
66.491325
 31
0.0
  0
LINE
  5
FD
100
AcDbEntity
  8
0
  6
HIDDEN
 62
   174
100
AcDbLine
 10
133.993691
 20
66.492056
 30
0.0
 11
140.743691
 21
66.492056
 31
0.0
  0
LINE
  5
FE
100
AcDbEntity
  8
0
  6
HIDDEN
 62
   174
100
AcDbLine
 10
268.993691
 20
154.242056
 30
0.0
 11
268.993691
 21
153.792056
 31
0.0
  0
LINE
  5
FF
100
AcDbEntity
  8
0
  6
HIDDEN
 62
   174
100
AcDbLine
 10
170.029993
 20
172.242056
 30
0.0
 11
158.780286
 21
172.242056
 31
0.0
  0
LINE
  5
100
100
AcDbEntity
  8
0
  6
Continuous
 62
   174
100
AcDbLine
 10
161.164795
 20
180.342056
 30
0.0
 11
158.780286
 21
180.342056
 31
0.0
  0
LWPOLYLINE
  5
101
100
AcDbEntity
  8
0
  6
HIDDEN
 62
   174
100
AcDbPolyline
 90
        7
 70
   128
 10
393.375097
 20
148.842056
 10
395.264251
 20
148.842056
 10
396.817485
 20
148.842056
 10
398.069047
 20
148.842056
 10
399.405145
 20
148.842056
 10
399.951934
 20
148.842056
 10
399.95581
 20
148.842056
  0
LINE
  5
102
100
AcDbEntity
  8
0
  6
HIDDEN
 62
   174
100
AcDbLine
 10
162.793691
 20
172.242056
 30
0.0
 11
177.193691
 21
172.242056
 31
0.0
  0
LINE
  5
103
100
AcDbEntity
  8
0
  6
HIDDEN
 62
   174
100
AcDbLine
 10
384.694945
 20
55.242056
 30
0.0
 11
377.029874
 21
55.242056
 31
0.0
  0
LINE
  5
104
100
AcDbEntity
  8
0
  6
HIDDEN
 62
   174
100
AcDbLine
 10
162.793691
 20
172.242056
 30
0.0
 11
177.193691
 21
172.242056
 31
0.0
  0
LINE
  5
105
100
AcDbEntity
  8
0
  6
HIDDEN
 62
   174
100
AcDbLine
 10
133.993691
 20
132.181288
 30
0.0
 11
133.993691
 21
142.990097
 31
0.0
  0
LINE
  5
106
100
AcDbEntity
  8
0
  6
HIDDEN
 62
   174
100
AcDbLine
 10
391.947631
 20
148.842056
 30
0.0
 11
393.415446
 21
148.842056
 31
0.0
  0
LINE
  5
107
100
AcDbEntity
  8
0
  6
Continuous
 62
   174
100
AcDbLine
 10
387.612285
 20
154.242056
 30
0.0
 11
387.612285
 21
148.842056
 31
0.0
  0
LINE
  5
108
100
AcDbEntity
  8
0
  6
Continuous
 62
   174
100
AcDbLine
 10
185.743691
 20
220.392056
 30
0.0
 11
189.343691
 21
220.392056
 31
0.0
  0
LINE
  5
109
100
AcDbEntity
  8
0
  6
HIDDEN
 62
   174
100
AcDbLine
 10
286.993691
 20
154.242056
 30
0.0
 11
286.993691
 21
153.792056
 31
0.0
  0
LINE
  5
10A
100
AcDbEntity
  8
0
  6
HIDDEN
 62
   174
100
AcDbLine
 10
140.743691
 20
142.990097
 30
0.0
 11
140.743691
 21
131.739964
 31
0.0
  0
LINE
  5
10B
100
AcDbEntity
  8
0
  6
HIDDEN
 62
   174
100
AcDbLine
 10
327.043691
 20
154.242056
 30
0.0
 11
327.043691
 21
148.842056
 31
0.0
  0
LINE
  5
10C
100
AcDbEntity
  8
0
  6
HIDDEN
 62
   174
100
AcDbLine
 10
397.280113
 20
60.642056
 30
0.0
 11
383.779954
 21
60.642056
 31
0.0
  0
LINE
  5
10D
100
AcDbEntity
  8
0
  6
HIDDEN
 62
   174
100
AcDbLine
 10
133.993691
 20
66.491325
 30
0.0
 11
133.993691
 21
56.366419
 31
0.0
  0
LINE
  5
10E
100
AcDbEntity
  8
0
  6
HIDDEN
 62
   174
100
AcDbLine
 10
133.993691
 20
153.114578
 30
0.0
 11
133.993691
 21
132.865191
 31
0.0
  0
LINE
  5
10F
100
AcDbEntity
  8
0
  6
HIDDEN
 62
   174
100
AcDbLine
 10
396.38938
 20
55.242056
 30
0.0
 11
384.694945
 21
55.242056
 31
0.0
  0
LINE
  5
110
100
AcDbEntity
  8
0
  6
HIDDEN
 62
   174
100
AcDbLine
 10
330.643691
 20
148.842056
 30
0.0
 11
330.643691
 21
55.242056
 31
0.0
  0
LINE
  5
111
100
AcDbEntity
  8
0
  6
HIDDEN
 62
   174
100
AcDbLine
 10
268.993691
 20
154.242056
 30
0.0
 11
268.993691
 21
153.792056
 31
0.0
  0
LINE
  5
112
100
AcDbEntity
  8
0
  6
Continuous
 62
   174
100
AcDbLine
 10
387.612285
 20
154.242056
 30
0.0
 11
295.993691
 21
154.242056
 31
0.0
  0
ENDBLK
  5
113
100
AcDbEntity
  8
0
100
AcDbBlockEnd
  0
BLOCK
  5
116
100
AcDbEntity
  8
0
100
AcDbBlockBegin
  2
*B5
 70
     0
 10
0.0
 20
0.0
 30
0.0
  3
*B5
  1

  0
LINE
  5
117
100
AcDbEntity
  8
0
  6
Continuous
 62
   174
100
AcDbLine
 10
140.743691
 20
344.113964
 30
0.0
 11
259.993691
 21
344.113964
 31
0.0
  0
LINE
  5
118
100
AcDbEntity
  8
0
  6
Continuous
 62
   174
100
AcDbLine
 10
259.993691
 20
344.113964
 30
0.0
 11
259.993691
 21
272.113964
 31
0.0
  0
LINE
  5
119
100
AcDbEntity
  8
0
  6
Continuous
 62
   174
100
AcDbLine
 10
140.743691
 20
272.113964
 30
0.0
 11
259.993691
 21
272.113964
 31
0.0
  0
LINE
  5
11A
100
AcDbEntity
  8
0
  6
Continuous
 62
   174
100
AcDbLine
 10
133.993691
 20
321.613964
 30
0.0
 11
133.993691
 21
294.613964
 31
0.0
  0
LINE
  5
11B
100
AcDbEntity
  8
0
  6
Continuous
 62
   174
100
AcDbLine
 10
140.743691
 20
344.113964
 30
0.0
 11
140.743691
 21
342.985394
 31
0.0
  0
LINE
  5
11C
100
AcDbEntity
  8
0
  6
Continuous
 62
   174
100
AcDbLine
 10
140.743691
 20
342.985394
 30
0.0
 11
140.743691
 21
332.863964
 31
0.0
  0
LINE
  5
11D
100
AcDbEntity
  8
0
  6
Continuous
 62
   174
100
AcDbLine
 10
140.743691
 20
332.863964
 30
0.0
 11
140.743691
 21
322.742535
 31
0.0
  0
LINE
  5
11E
100
AcDbEntity
  8
0
  6
Continuous
 62
   174
100
AcDbLine
 10
140.743691
 20
322.742535
 30
0.0
 11
140.743691
 21
321.613964
 31
0.0
  0
LINE
  5
11F
100
AcDbEntity
  8
0
  6
Continuous
 62
   174
100
AcDbLine
 10
133.993691
 20
321.613964
 30
0.0
 11
140.743691
 21
321.613964
 31
0.0
  0
LINE
  5
120
100
AcDbEntity
  8
0
  6
Continuous
 62
   174
100
AcDbLine
 10
133.993691
 20
344.113964
 30
0.0
 11
140.743691
 21
344.113964
 31
0.0
  0
LINE
  5
121
100
AcDbEntity
  8
0
  6
Continuous
 62
   174
100
AcDbLine
 10
140.743691
 20
272.113964
 30
0.0
 11
140.743691
 21
273.242535
 31
0.0
  0
LINE
  5
122
100
AcDbEntity
  8
0
  6
Continuous
 62
   174
100
AcDbLine
 10
140.743691
 20
273.242535
 30
0.0
 11
140.743691
 21
283.363964
 31
0.0
  0
LINE
  5
123
100
AcDbEntity
  8
0
  6
Continuous
 62
   174
100
AcDbLine
 10
140.743691
 20
283.363964
 30
0.0
 11
140.743691
 21
293.485394
 31
0.0
  0
LINE
  5
124
100
AcDbEntity
  8
0
  6
Continuous
 62
   174
100
AcDbLine
 10
295.993691
 20
272.113964
 30
0.0
 11
430.993691
 21
272.113964
 31
0.0
  0
ARC
  5
125
100
AcDbEntity
  8
0
  6
Continuous
 62
   174
100
AcDbCircle
 10
390.493691
 20
335.113964
 30
0.0
 40
5.85
100
AcDbArc
 50
180.0
 51
360.0
  0
ARC
  5
126
100
AcDbEntity
  8
0
  6
Continuous
 62
   174
100
AcDbCircle
 10
390.493691
 20
335.113964
 30
0.0
 40
5.85
100
AcDbArc
 50
0.0
 51
180.0
  0
LINE
  5
127
100
AcDbEntity
  8
0
  6
Continuous
 62
   174
100
AcDbLine
 10
133.993691
 20
294.613964
 30
0.0
 11
140.743691
 21
294.613964
 31
0.0
  0
LINE
  5
128
100
AcDbEntity
  8
0
  6
Continuous
 62
   174
100
AcDbLine
 10
295.993691
 20
344.113964
 30
0.0
 11
295.993691
 21
272.113964
 31
0.0
  0
LINE
  5
129
100
AcDbEntity
  8
0
  6
Continuous
 62
   174
100
AcDbLine
 10
133.993691
 20
273.238964
 30
0.0
 11
140.743691
 21
273.238964
 31
0.0
  0
LINE
  5
12A
100
AcDbEntity
  8
0
  6
Continuous
 62
   174
100
AcDbLine
 10
133.993691
 20
344.113964
 30
0.0
 11
133.993691
 21
342.988964
 31
0.0
  0
LINE
  5
12B
100
AcDbEntity
  8
0
  6
Continuous
 62
   174
100
AcDbLine
 10
430.993691
 20
287.863964
 30
0.0
 11
435.493691
 21
287.863964
 31
0.0
  0
LINE
  5
12C
100
AcDbEntity
  8
0
  6
Continuous
 62
   174
100
AcDbLine
 10
259.993691
 20
272.113964
 30
0.0
 11
259.993691
 21
344.113964
 31
0.0
  0
ARC
  5
12D
100
AcDbEntity
  8
0
  6
Continuous
 62
   174
100
AcDbCircle
 10
363.493691
 20
326.113964
 30
0.0
 40
6.75
100
AcDbArc
 50
0.0
 51
180.0
  0
LINE
  5
12E
100
AcDbEntity
  8
0
  6
Continuous
 62
   174
100
AcDbLine
 10
140.743691
 20
293.485394
 30
0.0
 11
140.743691
 21
294.613964
 31
0.0
  0
LINE
  5
12F
100
AcDbEntity
  8
0
  6
Continuous
 62
   174
100
AcDbLine
 10
133.993691
 20
272.113964
 30
0.0
 11
140.743691
 21
272.113964
 31
0.0
  0
LINE
  5
130
100
AcDbEntity
  8
0
  6
Continuous
 62
   174
100
AcDbLine
 10
295.993691
 20
272.113964
 30
0.0
 11
295.993691
 21
344.113964
 31
0.0
  0
ARC
  5
131
100
AcDbEntity
  8
0
  6
Continuous
 62
   174
100
AcDbCircle
 10
133.993691
 20
324.988964
 30
0.0
 40
2.25
100
AcDbArc
 50
180.0
 51
270.0
  0
LINE
  5
132
100
AcDbEntity
  8
0
  6
Continuous
 62
   174
100
AcDbLine
 10
131.743691
 20
325.369488
 30
0.0
 11
131.743691
 21
324.983915
 31
0.0
  0
LINE
  5
133
100
AcDbEntity
  8
0
  6
Continuous
 62
   174
100
AcDbLine
 10
131.743691
 20
332.858795
 30
0.0
 11
131.743691
 21
324.983915
 31
0.0
  0
LINE
  5
134
100
AcDbEntity
  8
0
  6
Continuous
 62
   174
100
AcDbLine
 10
131.743691
 20
332.858795
 30
0.0
 11
131.743691
 21
325.369488
 31
0.0
  0
ARC
  5
135
100
AcDbEntity
  8
0
  6
Continuous
 62
   174
100
AcDbCircle
 10
133.993691
 20
340.738964
 30
0.0
 40
2.25
100
AcDbArc
 50
-270.0
 51
-180.0
  0
LINE
  5
136
100
AcDbEntity
  8
0
  6
Continuous
 62
   174
100
AcDbLine
 10
131.743691
 20
340.733675
 30
0.0
 11
131.743691
 21
340.348102
 31
0.0
  0
LINE
  5
137
100
AcDbEntity
  8
0
  6
Continuous
 62
   174
100
AcDbLine
 10
131.743691
 20
340.733675
 30
0.0
 11
131.743691
 21
332.858795
 31
0.0
  0
LINE
  5
138
100
AcDbEntity
  8
0
  6
Continuous
 62
   174
100
AcDbLine
 10
131.743691
 20
340.348102
 30
0.0
 11
131.743691
 21
332.858795
 31
0.0
  0
LINE
  5
139
100
AcDbEntity
  8
0
  6
Continuous
 62
   174
100
AcDbLine
 10
133.993691
 20
322.738964
 30
0.0
 11
140.743691
 21
322.738964
 31
0.0
  0
LINE
  5
13A
100
AcDbEntity
  8
0
  6
Continuous
 62
   174
100
AcDbLine
 10
133.993691
 20
293.484396
 30
0.0
 11
133.993691
 21
283.359489
 31
0.0
  0
LINE
  5
13B
100
AcDbEntity
  8
0
  6
Continuous
 62
   174
100
AcDbLine
 10
133.993691
 20
283.359489
 30
0.0
 11
133.993691
 21
273.234583
 31
0.0
  0
ARC
  5
13C
100
AcDbEntity
  8
0
  6
Continuous
 62
   174
100
AcDbCircle
 10
336.493691
 20
281.113964
 30
0.0
 40
5.85
100
AcDbArc
 50
-180.0
 51
0.0
  0
ARC
  5
13D
100
AcDbEntity
  8
0
  6
Continuous
 62
   174
100
AcDbCircle
 10
336.493691
 20
281.113964
 30
0.0
 40
5.85
100
AcDbArc
 50
0.0
 51
180.0
  0
LINE
  5
13E
100
AcDbEntity
  8
0
  6
Continuous
 62
   174
100
AcDbLine
 10
259.993691
 20
272.113964
 30
0.0
 11
295.993691
 21
272.113964
 31
0.0
  0
LINE
  5
13F
100
AcDbEntity
  8
0
  6
Continuous
 62
   174
100
AcDbLine
 10
430.993691
 20
344.113964
 30
0.0
 11
430.993691
 21
272.113964
 31
0.0
  0
ARC
  5
140
100
AcDbEntity
  8
0
  6
Continuous
 62
   174
100
AcDbCircle
 10
133.993691
 20
275.488964
 30
0.0
 40
2.25
100
AcDbArc
 50
180.0
 51
270.0
  0
LINE
  5
141
100
AcDbEntity
  8
0
  6
Continuous
 62
   174
100
AcDbLine
 10
131.743691
 20
275.870183
 30
0.0
 11
131.743691
 21
275.48461
 31
0.0
  0
LINE
  5
142
100
AcDbEntity
  8
0
  6
Continuous
 62
   174
100
AcDbLine
 10
131.743691
 20
283.359489
 30
0.0
 11
131.743691
 21
275.48461
 31
0.0
  0
LINE
  5
143
100
AcDbEntity
  8
0
  6
Continuous
 62
   174
100
AcDbLine
 10
131.743691
 20
283.359489
 30
0.0
 11
131.743691
 21
275.870183
 31
0.0
  0
ARC
  5
144
100
AcDbEntity
  8
0
  6
Continuous
 62
   174
100
AcDbCircle
 10
133.993691
 20
291.238964
 30
0.0
 40
2.25
100
AcDbArc
 50
-270.0
 51
-180.0
  0
LINE
  5
145
100
AcDbEntity
  8
0
  6
Continuous
 62
   174
100
AcDbLine
 10
131.743691
 20
291.234369
 30
0.0
 11
131.743691
 21
290.849222
 31
0.0
  0
LINE
  5
146
100
AcDbEntity
  8
0
  6
Continuous
 62
   174
100
AcDbLine
 10
131.743691
 20
291.234369
 30
0.0
 11
131.743691
 21
283.359489
 31
0.0
  0
LINE
  5
147
100
AcDbEntity
  8
0
  6
Continuous
 62
   174
100
AcDbLine
 10
131.743691
 20
290.849222
 30
0.0
 11
131.743691
 21
283.359489
 31
0.0
  0
LINE
  5
148
100
AcDbEntity
  8
0
  6
Continuous
 62
   174
100
AcDbLine
 10
131.743691
 20
332.858795
 30
0.0
 11
131.743691
 21
324.983915
 31
0.0
  0
LINE
  5
149
100
AcDbEntity
  8
0
  6
Continuous
 62
   174
100
AcDbLine
 10
131.743691
 20
338.858582
 30
0.0
 11
131.743691
 21
332.858795
 31
0.0
  0
LINE
  5
14A
100
AcDbEntity
  8
0
  6
Continuous
 62
   174
100
AcDbLine
 10
131.743691
 20
340.733249
 30
0.0
 11
131.743691
 21
338.858582
 31
0.0
  0
ARC
  5
14B
100
AcDbEntity
  8
0
  6
Continuous
 62
   174
100
AcDbCircle
 10
336.493691
 20
308.113964
 30
0.0
 40
13.5
100
AcDbArc
 50
-180.0
 51
0.0
  0
ARC
  5
14C
100
AcDbEntity
  8
0
  6
Continuous
 62
   174
100
AcDbCircle
 10
336.493691
 20
308.113964
 30
0.0
 40
13.5
100
AcDbArc
 50
0.0
 51
180.0
  0
LINE
  5
14D
100
AcDbEntity
  8
0
  6
Continuous
 62
   174
100
AcDbLine
 10
435.493691
 20
287.859542
 30
0.0
 11
435.493691
 21
308.109355
 31
0.0
  0
LINE
  5
14E
100
AcDbEntity
  8
0
  6
Continuous
 62
   174
100
AcDbLine
 10
435.493691
 20
308.109355
 30
0.0
 11
435.493691
 21
328.358742
 31
0.0
  0
LINE
  5
14F
100
AcDbEntity
  8
0
  6
Continuous
 62
   174
100
AcDbLine
 10
295.993691
 20
344.113964
 30
0.0
 11
430.993691
 21
344.113964
 31
0.0
  0
LINE
  5
150
100
AcDbEntity
  8
0
  6
Continuous
 62
   174
100
AcDbLine
 10
133.993691
 20
293.488964
 30
0.0
 11
140.743691
 21
293.488964
 31
0.0
  0
LINE
  5
151
100
AcDbEntity
  8
0
  6
Continuous
 62
   174
100
AcDbLine
 10
133.993691
 20
342.983701
 30
0.0
 11
133.993691
 21
332.858795
 31
0.0
  0
LINE
  5
152
100
AcDbEntity
  8
0
  6
Continuous
 62
   174
100
AcDbLine
 10
133.993691
 20
332.858795
 30
0.0
 11
133.993691
 21
322.733889
 31
0.0
  0
ARC
  5
153
100
AcDbEntity
  8
0
  6
Continuous
 62
   174
100
AcDbCircle
 10
390.493691
 20
308.113964
 30
0.0
 40
13.5
100
AcDbArc
 50
-180.0
 51
0.0
  0
ARC
  5
154
100
AcDbEntity
  8
0
  6
Continuous
 62
   174
100
AcDbCircle
 10
390.493691
 20
308.113964
 30
0.0
 40
13.5
100
AcDbArc
 50
0.0
 51
180.0
  0
LINE
  5
155
100
AcDbEntity
  8
0
  6
Continuous
 62
   174
100
AcDbLine
 10
430.993691
 20
328.363964
 30
0.0
 11
435.493691
 21
328.363964
 31
0.0
  0
ARC
  5
156
100
AcDbEntity
  8
0
  6
Continuous
 62
   174
100
AcDbCircle
 10
363.493691
 20
326.113964
 30
0.0
 40
6.75
100
AcDbArc
 50
-180.0
 51
0.0
  0
ARC
  5
157
100
AcDbEntity
  8
0
  6
Continuous
 62
   174
100
AcDbCircle
 10
363.493691
 20
326.113964
 30
0.0
 40
13.5
100
AcDbArc
 50
-180.0
 51
0.0
  0
ARC
  5
158
100
AcDbEntity
  8
0
  6
Continuous
 62
   174
100
AcDbCircle
 10
363.493691
 20
326.113964
 30
0.0
 40
13.5
100
AcDbArc
 50
0.0
 51
180.0
  0
LINE
  5
159
100
AcDbEntity
  8
0
  6
Continuous
 62
   174
100
AcDbLine
 10
133.993691
 20
272.113964
 30
0.0
 11
133.993691
 21
273.238964
 31
0.0
  0
ARC
  5
15A
100
AcDbEntity
  8
0
  6
Continuous
 62
   174
100
AcDbCircle
 10
390.493691
 20
308.113964
 30
0.0
 40
6.75
100
AcDbArc
 50
-180.0
 51
0.0
  0
ARC
  5
15B
100
AcDbEntity
  8
0
  6
Continuous
 62
   174
100
AcDbCircle
 10
390.493691
 20
308.113964
 30
0.0
 40
6.75
100
AcDbArc
 50
0.0
 51
180.0
  0
LINE
  5
15C
100
AcDbEntity
  8
0
  6
Continuous
 62
   174
100
AcDbLine
 10
133.993691
 20
321.609088
 30
0.0
 11
133.993691
 21
322.050412
 31
0.0
  0
LINE
  5
15D
100
AcDbEntity
  8
0
  6
Continuous
 62
   174
100
AcDbLine
 10
259.993691
 20
344.113964
 30
0.0
 11
295.993691
 21
344.113964
 31
0.0
  0
ARC
  5
15E
100
AcDbEntity
  8
0
  6
Continuous
 62
   174
100
AcDbCircle
 10
336.493691
 20
308.113964
 30
0.0
 40
6.75
100
AcDbArc
 50
-180.0
 51
0.0
  0
ARC
  5
15F
100
AcDbEntity
  8
0
  6
Continuous
 62
   174
100
AcDbCircle
 10
336.493691
 20
308.113964
 30
0.0
 40
6.75
100
AcDbArc
 50
0.0
 51
180.0
  0
LINE
  5
160
100
AcDbEntity
  8
0
  6
Continuous
 62
   174
100
AcDbLine
 10
133.993691
 20
342.988964
 30
0.0
 11
140.743691
 21
342.988964
 31
0.0
  0
LINE
  5
161
100
AcDbEntity
  8
0
  6
Continuous
 62
   174
100
AcDbLine
 10
131.743691
 20
283.359489
 30
0.0
 11
131.743691
 21
275.48461
 31
0.0
  0
LINE
  5
162
100
AcDbEntity
  8
0
  6
Continuous
 62
   174
100
AcDbLine
 10
131.743691
 20
289.359276
 30
0.0
 11
131.743691
 21
283.359489
 31
0.0
  0
LINE
  5
163
100
AcDbEntity
  8
0
  6
Continuous
 62
   174
100
AcDbLine
 10
131.743691
 20
291.233944
 30
0.0
 11
131.743691
 21
289.359276
 31
0.0
  0
LINE
  5
164
100
AcDbEntity
  8
0
  6
Continuous
 62
   174
100
AcDbLine
 10
133.993691
 20
294.164468
 30
0.0
 11
133.993691
 21
294.609196
 31
0.0
  0
ENDBLK
  5
165
100
AcDbEntity
  8
0
100
AcDbBlockEnd
  0
BLOCK
  5
168
100
AcDbEntity
  8
0
100
AcDbBlockBegin
  2
*B6
 70
     0
 10
0.0
 20
0.0
 30
0.0
  3
*B6
  1

  0
LINE
  5
169
100
AcDbEntity
  8
0
  6
Continuous
 62
     0
100
AcDbLine
 10
296.490673
 20
369.994233
 30
0.0
 11
363.279902
 21
369.994233
 31
0.0
  0
SOLID
  5
16A
100
AcDbEntity
  8
0
  6
Continuous
 62
     0
100
AcDbTrace
 10
319.779958
 20
367.994446
 30
0.0
 11
329.78017
 21
369.994233
 31
0.0
 12
319.779958
 22
371.99402
 32
0.0
 13
319.779958
 23
371.99402
 33
0.0
  0
SOLID
  5
16B
100
AcDbEntity
  8
0
  6
Continuous
 62
     0
100
AcDbTrace
 10
353.280115
 20
371.99402
 30
0.0
 11
343.279903
 21
369.994233
 31
0.0
 12
353.280115
 22
367.994446
 32
0.0
 13
353.280115
 23
367.994446
 33
0.0
  0
ENDBLK
  5
16C
100
AcDbEntity
  8
0
100
AcDbBlockEnd
  0
BLOCK
  5
16F
100
AcDbEntity
  8
0
100
AcDbBlockBegin
  2
*B7
 70
     0
 10
0.0
 20
0.0
 30
0.0
  3
*B7
  1

  0
LINE
  5
170
100
AcDbEntity
  8
0
  6
Continuous
 62
     0
100
AcDbLine
 10
316.529825
 20
247.996155
 30
0.0
 11
383.53014
 21
247.996155
 31
0.0
  0
SOLID
  5
171
100
AcDbEntity
  8
0
  6
Continuous
 62
     0
100
AcDbTrace
 10
326.530037
 20
245.996368
 30
0.0
 11
336.529824
 21
247.996155
 31
0.0
 12
326.530037
 22
249.995942
 32
0.0
 13
326.530037
 23
249.995942
 33
0.0
  0
SOLID
  5
172
100
AcDbEntity
  8
0
  6
Continuous
 62
     0
100
AcDbTrace
 10
373.529928
 20
249.995942
 30
0.0
 11
363.530141
 21
247.996155
 31
0.0
 12
373.529928
 22
245.996368
 32
0.0
 13
373.529928
 23
245.996368
 33
0.0
  0
ENDBLK
  5
173
100
AcDbEntity
  8
0
100
AcDbBlockEnd
  0
BLOCK
  5
176
100
AcDbEntity
  8
0
100
AcDbBlockBegin
  2
*B8
 70
     0
 10
0.0
 20
0.0
 30
0.0
  3
*B8
  1

  0
LINE
  5
177
100
AcDbEntity
  8
0
  6
Continuous
 62
     0
100
AcDbLine
 10
343.530142
 20
397.993805
 30
0.0
 11
410.530032
 21
397.993805
 31
0.0
  0
SOLID
  5
178
100
AcDbEntity
  8
0
  6
Continuous
 62
     0
100
AcDbTrace
 10
353.529929
 20
395.994018
 30
0.0
 11
363.530141
 21
397.993805
 31
0.0
 12
353.529929
 22
399.993593
 32
0.0
 13
353.529929
 23
399.993593
 33
0.0
  0
SOLID
  5
179
100
AcDbEntity
  8
0
  6
Continuous
 62
     0
100
AcDbTrace
 10
400.52982
 20
399.993593
 30
0.0
 11
390.530033
 21
397.993805
 31
0.0
 12
400.52982
 22
395.994018
 32
0.0
 13
400.52982
 23
395.994018
 33
0.0
  0
ENDBLK
  5
17A
100
AcDbEntity
  8
0
100
AcDbBlockEnd
  0
BLOCK
  5
17D
100
AcDbEntity
  8
0
100
AcDbBlockBegin
  2
*B9
 70
     0
 10
0.0
 20
0.0
 30
0.0
  3
*B9
  1

  0
LINE
  5
17E
100
AcDbEntity
  8
0
  6
Continuous
 62
     0
100
AcDbLine
 10
462.036359
 20
346.108714
 30
0.0
 11
462.036359
 21
288.109356
 31
0.0
  0
SOLID
  5
17F
100
AcDbEntity
  8
0
  6
Continuous
 62
     0
100
AcDbTrace
 10
460.036147
 20
336.108928
 30
0.0
 11
462.036359
 21
326.108716
 31
0.0
 12
464.036146
 22
336.108928
 32
0.0
 13
464.036146
 23
336.108928
 33
0.0
  0
SOLID
  5
180
100
AcDbEntity
  8
0
  6
Continuous
 62
     0
100
AcDbTrace
 10
464.036146
 20
298.109143
 30
0.0
 11
462.036359
 21
308.109355
 31
0.0
 12
460.036147
 22
298.109143
 32
0.0
 13
460.036147
 23
298.109143
 33
0.0
  0
ENDBLK
  5
181
100
AcDbEntity
  8
0
100
AcDbBlockEnd
  0
BLOCK
  5
184
100
AcDbEntity
  8
0
100
AcDbBlockBegin
  2
*B10
 70
     0
 10
0.0
 20
0.0
 30
0.0
  3
*B10
  1

  0
LINE
  5
185
100
AcDbEntity
  8
0
  6
Continuous
 62
     0
100
AcDbLine
 10
492.036145
 20
281.109463
 30
0.0
 11
492.036145
 21
335.108821
 31
0.0
  0
SOLID
  5
186
100
AcDbEntity
  8
0
  6
Continuous
 62
     0
100
AcDbTrace
 10
490.036358
 20
291.10925
 30
0.0
 11
492.036145
 21
281.109463
 31
0.0
 12
494.036357
 22
291.10925
 32
0.0
 13
494.036357
 23
291.10925
 33
0.0
  0
SOLID
  5
187
100
AcDbEntity
  8
0
  6
Continuous
 62
     0
100
AcDbTrace
 10
494.036357
 20
325.109035
 30
0.0
 11
492.036145
 21
335.108821
 31
0.0
 12
490.036358
 22
325.109035
 32
0.0
 13
490.036358
 23
325.109035
 33
0.0
  0
ENDBLK
  5
188
100
AcDbEntity
  8
0
100
AcDbBlockEnd
  0
BLOCK
  5
18B
100
AcDbEntity
  8
0
100
AcDbBlockBegin
  2
*B11
 70
     0
 10
0.0
 20
0.0
 30
0.0
  3
*B11
  1

  0
LINE
  5
18C
100
AcDbEntity
  8
0
  6
Continuous
 62
     0
100
AcDbLine
 10
102.036381
 20
272.109783
 30
0.0
 11
102.036381
 21
344.108502
 31
0.0
  0
SOLID
  5
18D
100
AcDbEntity
  8
0
  6
Continuous
 62
     0
100
AcDbTrace
 10
100.036594
 20
282.109569
 30
0.0
 11
102.036381
 21
272.109783
 31
0.0
 12
104.036593
 22
282.109569
 32
0.0
 13
104.036593
 23
282.109569
 33
0.0
  0
SOLID
  5
18E
100
AcDbEntity
  8
0
  6
Continuous
 62
     0
100
AcDbTrace
 10
104.036593
 20
334.108715
 30
0.0
 11
102.036381
 21
344.108502
 31
0.0
 12
100.036594
 22
334.108715
 32
0.0
 13
100.036594
 23
334.108715
 33
0.0
  0
ENDBLK
  5
18F
100
AcDbEntity
  8
0
100
AcDbBlockEnd
  0
BLOCK
  5
192
100
AcDbEntity
  8
0
100
AcDbBlockBegin
  2
*B12
 70
     0
 10
0.0
 20
0.0
 30
0.0
  3
*B12
  1

  0
LINE
  5
193
100
AcDbEntity
  8
0
  6
Continuous
 62
     0
100
AcDbLine
 10
390.530033
 20
221.996795
 30
0.0
 11
431.030084
 21
221.996795
 31
0.0
  0
SOLID
  5
194
100
AcDbEntity
  8
0
  6
Continuous
 62
     0
100
AcDbTrace
 10
400.52982
 20
223.996582
 30
0.0
 11
390.530033
 21
221.996795
 31
0.0
 12
400.52982
 22
219.996582
 32
0.0
 13
400.52982
 23
219.996582
 33
0.0
  0
SOLID
  5
195
100
AcDbEntity
  8
0
  6
Continuous
 62
     0
100
AcDbTrace
 10
421.029872
 20
219.996582
 30
0.0
 11
431.030084
 21
221.996795
 31
0.0
 12
421.029872
 22
223.996582
 32
0.0
 13
421.029872
 23
223.996582
 33
0.0
  0
ENDBLK
  5
196
100
AcDbEntity
  8
0
100
AcDbBlockEnd
  0
BLOCK
  5
199
100
AcDbEntity
  8
0
100
AcDbBlockBegin
  2
*B13
 70
     0
 10
0.0
 20
0.0
 30
0.0
  3
*B13
  1

  0
LINE
  5
19A
100
AcDbEntity
  8
0
  6
Continuous
 62
     0
100
AcDbLine
 10
336.529824
 20
221.996795
 30
0.0
 11
390.530033
 21
221.996795
 31
0.0
  0
SOLID
  5
19B
100
AcDbEntity
  8
0
  6
Continuous
 62
     0
100
AcDbTrace
 10
346.530036
 20
223.996582
 30
0.0
 11
336.529824
 21
221.996795
 31
0.0
 12
346.530036
 22
219.996582
 32
0.0
 13
346.530036
 23
219.996582
 33
0.0
  0
SOLID
  5
19C
100
AcDbEntity
  8
0
  6
Continuous
 62
     0
100
AcDbTrace
 10
380.529821
 20
219.996582
 30
0.0
 11
390.530033
 21
221.996795
 31
0.0
 12
380.529821
 22
223.996582
 32
0.0
 13
380.529821
 23
223.996582
 33
0.0
  0
ENDBLK
  5
19D
100
AcDbEntity
  8
0
100
AcDbBlockEnd
  0
BLOCK
  5
1A0
100
AcDbEntity
  8
0
100
AcDbBlockBegin
  2
*B14
 70
     0
 10
0.0
 20
0.0
 30
0.0
  3
*B14
  1

  0
LINE
  5
1A1
100
AcDbEntity
  8
0
  6
Continuous
 62
     0
100
AcDbLine
 10
296.030198
 20
193.997222
 30
0.0
 11
431.030084
 21
193.997222
 31
0.0
  0
SOLID
  5
1A2
100
AcDbEntity
  8
0
  6
Continuous
 62
     0
100
AcDbTrace
 10
306.029985
 20
195.997009
 30
0.0
 11
296.030198
 21
193.997222
 31
0.0
 12
306.029985
 22
191.99701
 32
0.0
 13
306.029985
 23
191.99701
 33
0.0
  0
SOLID
  5
1A3
100
AcDbEntity
  8
0
  6
Continuous
 62
     0
100
AcDbTrace
 10
421.029872
 20
191.99701
 30
0.0
 11
431.030084
 21
193.997222
 31
0.0
 12
421.029872
 22
195.997009
 32
0.0
 13
421.029872
 23
195.997009
 33
0.0
  0
ENDBLK
  5
1A4
100
AcDbEntity
  8
0
100
AcDbBlockEnd
  0
BLOCK
  5
1A7
100
AcDbEntity
  8
0
100
AcDbBlockBegin
  2
*B15
 70
     0
 10
0.0
 20
0.0
 30
0.0
  3
*B15
  1

  0
LINE
  5
1A8
100
AcDbEntity
  8
0
  6
Continuous
 62
     0
100
AcDbLine
 10
464.036146
 20
154.239804
 30
0.0
 11
464.036146
 21
55.241193
 31
0.0
  0
SOLID
  5
1A9
100
AcDbEntity
  8
0
  6
Continuous
 62
     0
100
AcDbTrace
 10
466.036359
 20
144.240017
 30
0.0
 11
464.036146
 21
154.239804
 31
0.0
 12
462.036359
 22
144.240017
 32
0.0
 13
462.036359
 23
144.240017
 33
0.0
  0
SOLID
  5
1AA
100
AcDbEntity
  8
0
  6
Continuous
 62
     0
100
AcDbTrace
 10
462.036359
 20
65.240979
 30
0.0
 11
464.036146
 21
55.241193
 31
0.0
 12
466.036359
 22
65.240979
 32
0.0
 13
466.036359
 23
65.240979
 33
0.0
  0
ENDBLK
  5
1AB
100
AcDbEntity
  8
0
100
AcDbBlockEnd
  0
BLOCK
  5
1AE
100
AcDbEntity
  8
0
100
AcDbBlockBegin
  2
*B16
 70
     0
 10
0.0
 20
0.0
 30
0.0
  3
*B16
  1

  0
LINE
  5
1AF
100
AcDbEntity
  8
0
  6
Continuous
 62
     0
100
AcDbLine
 10
102.036381
 20
172.23959
 30
0.0
 11
102.036381
 21
55.241193
 31
0.0
  0
SOLID
  5
1B0
100
AcDbEntity
  8
0
  6
Continuous
 62
     0
100
AcDbTrace
 10
104.036593
 20
162.239803
 30
0.0
 11
102.036381
 21
172.23959
 31
0.0
 12
100.036594
 22
162.239803
 32
0.0
 13
100.036594
 23
162.239803
 33
0.0
  0
SOLID
  5
1B1
100
AcDbEntity
  8
0
  6
Continuous
 62
     0
100
AcDbTrace
 10
100.036594
 20
65.240979
 30
0.0
 11
102.036381
 21
55.241193
 31
0.0
 12
104.036593
 22
65.240979
 32
0.0
 13
104.036593
 23
65.240979
 33
0.0
  0
ENDBLK
  5
1B2
100
AcDbEntity
  8
0
100
AcDbBlockEnd
  0
BLOCK
  5
1B5
100
AcDbEntity
  8
0
100
AcDbBlockBegin
  2
*B17
 70
     0
 10
0.0
 20
0.0
 30
0.0
  3
*B17
  1

  0
LINE
  5
1B6
100
AcDbEntity
  8
0
  6
Continuous
 62
     0
100
AcDbLine
 10
431.030084
 20
27.999573
 30
0.0
 11
134.029995
 21
27.999573
 31
0.0
  0
SOLID
  5
1B7
100
AcDbEntity
  8
0
  6
Continuous
 62
     0
100
AcDbTrace
 10
421.029872
 20
25.999786
 30
0.0
 11
431.030084
 21
27.999573
 31
0.0
 12
421.029872
 22
29.999785
 32
0.0
 13
421.029872
 23
29.999785
 33
0.0
  0
SOLID
  5
1B8
100
AcDbEntity
  8
0
  6
Continuous
 62
     0
100
AcDbTrace
 10
144.030207
 20
29.999785
 30
0.0
 11
134.029995
 21
27.999573
 31
0.0
 12
144.030207
 22
25.999786
 32
0.0
 13
144.030207
 23
25.999786
 33
0.0
  0
ENDBLK
  5
1B9
100
AcDbEntity
  8
0
100
AcDbBlockEnd
  0
BLOCK
  5
1BC
100
AcDbEntity
  8
0
100
AcDbBlockBegin
  2
*B18
 70
     0
 10
0.0
 20
0.0
 30
0.0
  3
*B18
  1

  0
LINE
  5
1BD
100
AcDbEntity
  8
0
  6
Continuous
 62
     0
100
AcDbLine
 10
411.030085
 20
27.999573
 30
0.0
 11
459.307133
 21
27.999573
 31
0.0
  0
SOLID
  5
1BE
100
AcDbEntity
  8
0
  6
Continuous
 62
     0
100
AcDbTrace
 10
421.029872
 20
25.999786
 30
0.0
 11
431.030084
 21
27.999573
 31
0.0
 12
421.029872
 22
29.999785
 32
0.0
 13
421.029872
 23
29.999785
 33
0.0
  0
SOLID
  5
1BF
100
AcDbEntity
  8
0
  6
Continuous
 62
     0
100
AcDbTrace
 10
445.529923
 20
29.999785
 30
0.0
 11
435.530137
 21
27.999573
 31
0.0
 12
445.529923
 22
25.999786
 32
0.0
 13
445.529923
 23
25.999786
 33
0.0
  0
ENDBLK
  5
1C0
100
AcDbEntity
  8
0
100
AcDbBlockEnd
  0
BLOCK
  5
1C3
100
AcDbEntity
  8
0
100
AcDbBlockBegin
  2
*B19
 70
     0
 10
0.0
 20
0.0
 30
0.0
  3
*B19
  1

  0
LINE
  5
1C4
100
AcDbEntity
  8
0
  6
Continuous
 62
     0
100
AcDbLine
 10
282.03637
 20
274.609623
 30
0.0
 11
282.03637
 21
341.608661
 31
0.0
  0
SOLID
  5
1C5
100
AcDbEntity
  8
0
  6
Continuous
 62
     0
100
AcDbTrace
 10
284.036157
 20
284.60941
 30
0.0
 11
282.03637
 21
294.609196
 31
0.0
 12
280.036157
 22
284.60941
 32
0.0
 13
280.036157
 23
284.60941
 33
0.0
  0
SOLID
  5
1C6
100
AcDbEntity
  8
0
  6
Continuous
 62
     0
100
AcDbTrace
 10
280.036157
 20
331.608875
 30
0.0
 11
282.03637
 21
321.609088
 31
0.0
 12
284.036157
 22
331.608875
 32
0.0
 13
284.036157
 23
331.608875
 33
0.0
  0
ENDBLK
  5
1C7
100
AcDbEntity
  8
0
100
AcDbBlockEnd
  0
BLOCK
  5
1CA
100
AcDbEntity
  8
0
100
AcDbBlockBegin
  2
*B20
 70
     0
 10
0.0
 20
0.0
 30
0.0
  3
*B20
  1

  0
LINE
  5
1CB
100
AcDbEntity
  8
0
  6
Continuous
 62
     8
100
AcDbLine
 10
128.030208
 20
104.740498
 30
0.0
 11
143.393544
 21
104.740498
 31
0.0
  0
LINE
  5
1CC
100
AcDbEntity
  8
0
  6
Continuous
 62
     8
100
AcDbLine
 10
149.393756
 20
104.740498
 30
0.0
 11
151.393543
 21
104.740498
 31
0.0
  0
LINE
  5
1CD
100
AcDbEntity
  8
0
  6
Continuous
 62
     8
100
AcDbLine
 10
157.393756
 20
104.740498
 30
0.0
 11
172.757517
 21
104.740498
 31
0.0
  0
LINE
  5
1CE
100
AcDbEntity
  8
0
  6
Continuous
 62
     8
100
AcDbLine
 10
178.757304
 20
104.740498
 30
0.0
 11
180.757517
 21
104.740498
 31
0.0
  0
LINE
  5
1CF
100
AcDbEntity
  8
0
  6
Continuous
 62
     8
100
AcDbLine
 10
186.757303
 20
104.740498
 30
0.0
 11
202.121065
 21
104.740498
 31
0.0
  0
LINE
  5
1D0
100
AcDbEntity
  8
0
  6
Continuous
 62
     8
100
AcDbLine
 10
208.120852
 20
104.740498
 30
0.0
 11
210.121064
 21
104.740498
 31
0.0
  0
LINE
  5
1D1
100
AcDbEntity
  8
0
  6
Continuous
 62
     8
100
AcDbLine
 10
216.120851
 20
104.740498
 30
0.0
 11
231.484612
 21
104.740498
 31
0.0
  0
LINE
  5
1D2
100
AcDbEntity
  8
0
  6
Continuous
 62
     8
100
AcDbLine
 10
237.484399
 20
104.740498
 30
0.0
 11
239.484612
 21
104.740498
 31
0.0
  0
LINE
  5
1D3
100
AcDbEntity
  8
0
  6
Continuous
 62
     8
100
AcDbLine
 10
245.484399
 20
104.740498
 30
0.0
 11
260.84816
 21
104.740498
 31
0.0
  0
LINE
  5
1D4
100
AcDbEntity
  8
0
  6
Continuous
 62
     8
100
AcDbLine
 10
266.848372
 20
104.740498
 30
0.0
 11
268.848159
 21
104.740498
 31
0.0
  0
LINE
  5
1D5
100
AcDbEntity
  8
0
  6
Continuous
 62
     8
100
AcDbLine
 10
274.848372
 20
104.740498
 30
0.0
 11
290.211707
 21
104.740498
 31
0.0
  0
LINE
  5
1D6
100
AcDbEntity
  8
0
  6
Continuous
 62
     8
100
AcDbLine
 10
296.21192
 20
104.740498
 30
0.0
 11
298.211707
 21
104.740498
 31
0.0
  0
LINE
  5
1D7
100
AcDbEntity
  8
0
  6
Continuous
 62
     8
100
AcDbLine
 10
304.211919
 20
104.740498
 30
0.0
 11
319.57568
 21
104.740498
 31
0.0
  0
LINE
  5
1D8
100
AcDbEntity
  8
0
  6
Continuous
 62
     8
100
AcDbLine
 10
325.575467
 20
104.740498
 30
0.0
 11
327.575254
 21
104.740498
 31
0.0
  0
LINE
  5
1D9
100
AcDbEntity
  8
0
  6
Continuous
 62
     8
100
AcDbLine
 10
333.575467
 20
104.740498
 30
0.0
 11
348.939228
 21
104.740498
 31
0.0
  0
LINE
  5
1DA
100
AcDbEntity
  8
0
  6
Continuous
 62
     8
100
AcDbLine
 10
354.939015
 20
104.740498
 30
0.0
 11
356.939228
 21
104.740498
 31
0.0
  0
LINE
  5
1DB
100
AcDbEntity
  8
0
  6
Continuous
 62
     8
100
AcDbLine
 10
362.939014
 20
104.740498
 30
0.0
 11
378.302776
 21
104.740498
 31
0.0
  0
LINE
  5
1DC
100
AcDbEntity
  8
0
  6
Continuous
 62
     8
100
AcDbLine
 10
384.302562
 20
104.740498
 30
0.0
 11
386.302775
 21
104.740498
 31
0.0
  0
LINE
  5
1DD
100
AcDbEntity
  8
0
  6
Continuous
 62
     8
100
AcDbLine
 10
392.302562
 20
104.740498
 30
0.0
 11
407.666323
 21
104.740498
 31
0.0
  0
LINE
  5
1DE
100
AcDbEntity
  8
0
  6
Continuous
 62
     8
100
AcDbLine
 10
413.666536
 20
104.740498
 30
0.0
 11
415.666323
 21
104.740498
 31
0.0
  0
LINE
  5
1DF
100
AcDbEntity
  8
0
  6
Continuous
 62
     8
100
AcDbLine
 10
421.66611
 20
104.740498
 30
0.0
 11
437.029871
 21
104.740498
 31
0.0
  0
ENDBLK
  5
1E0
100
AcDbEntity
  8
0
100
AcDbBlockEnd
  0
BLOCK
  5
1E3
100
AcDbEntity
  8
0
100
AcDbBlockBegin
  2
*B21
 70
     0
 10
0.0
 20
0.0
 30
0.0
  3
*B21
  1

  0
LINE
  5
1E4
100
AcDbEntity
  8
0
  6
Continuous
 62
     8
100
AcDbLine
 10
100.036594
 20
344.108502
 30
0.0
 11
128.030208
 21
344.108502
 31
0.0
  0
ENDBLK
  5
1E5
100
AcDbEntity
  8
0
100
AcDbBlockEnd
  0
BLOCK
  5
1E8
100
AcDbEntity
  8
0
100
AcDbBlockBegin
  2
*B22
 70
     0
 10
0.0
 20
0.0
 30
0.0
  3
*B22
  1

  0
LINE
  5
1E9
100
AcDbEntity
  8
0
  6
Continuous
 62
     8
100
AcDbLine
 10
437.029871
 20
154.239804
 30
0.0
 11
466.036359
 21
154.239804
 31
0.0
  0
ENDBLK
  5
1EA
100
AcDbEntity
  8
0
100
AcDbBlockEnd
  0
BLOCK
  5
1ED
100
AcDbEntity
  8
0
100
AcDbBlockBegin
  2
*B23
 70
     0
 10
0.0
 20
0.0
 30
0.0
  3
*B23
  1

  0
LINE
  5
1EE
100
AcDbEntity
  8
0
  6
Continuous
 62
     8
100
AcDbLine
 10
100.036594
 20
272.109783
 30
0.0
 11
128.030208
 21
272.109783
 31
0.0
  0
ENDBLK
  5
1EF
100
AcDbEntity
  8
0
100
AcDbBlockEnd
  0
BLOCK
  5
1F2
100
AcDbEntity
  8
0
100
AcDbBlockBegin
  2
*B24
 70
     0
 10
0.0
 20
0.0
 30
0.0
  3
*B24
  1

  0
LINE
  5
1F3
100
AcDbEntity
  8
0
  6
Continuous
 62
     8
100
AcDbLine
 10
431.030084
 20
191.99701
 30
0.0
 11
431.030084
 21
266.109996
 31
0.0
  0
ENDBLK
  5
1F4
100
AcDbEntity
  8
0
100
AcDbBlockEnd
  0
BLOCK
  5
1F7
100
AcDbEntity
  8
0
100
AcDbBlockBegin
  2
*B25
 70
     0
 10
0.0
 20
0.0
 30
0.0
  3
*B25
  1

  0
LINE
  5
1F8
100
AcDbEntity
  8
0
  6
Continuous
 62
     8
100
AcDbLine
 10
431.030084
 20
25.999786
 30
0.0
 11
431.030084
 21
49.241406
 31
0.0
  0
ENDBLK
  5
1F9
100
AcDbEntity
  8
0
100
AcDbBlockEnd
  0
BLOCK
  5
1FC
100
AcDbEntity
  8
0
100
AcDbBlockBegin
  2
*B26
 70
     0
 10
0.0
 20
0.0
 30
0.0
  3
*B26
  1

  0
LINE
  5
1FD
100
AcDbEntity
  8
0
  6
Continuous
 62
     8
100
AcDbLine
 10
390.530033
 20
49.241406
 30
0.0
 11
390.530033
 21
66.491325
 31
0.0
  0
LINE
  5
1FE
100
AcDbEntity
  8
0
  6
Continuous
 62
     8
100
AcDbLine
 10
390.530033
 20
72.491112
 30
0.0
 11
390.530033
 21
74.490899
 31
0.0
  0
LINE
  5
1FF
100
AcDbEntity
  8
0
  6
Continuous
 62
     8
100
AcDbLine
 10
390.530033
 20
80.491111
 30
0.0
 11
390.530033
 21
97.740605
 31
0.0
  0
LINE
  5
200
100
AcDbEntity
  8
0
  6
Continuous
 62
     8
100
AcDbLine
 10
390.530033
 20
103.740392
 30
0.0
 11
390.530033
 21
105.740604
 31
0.0
  0
LINE
  5
201
100
AcDbEntity
  8
0
  6
Continuous
 62
     8
100
AcDbLine
 10
390.530033
 20
111.740391
 30
0.0
 11
390.530033
 21
128.99031
 31
0.0
  0
LINE
  5
202
100
AcDbEntity
  8
0
  6
Continuous
 62
     8
100
AcDbLine
 10
390.530033
 20
134.990097
 30
0.0
 11
390.530033
 21
136.989884
 31
0.0
  0
LINE
  5
203
100
AcDbEntity
  8
0
  6
Continuous
 62
     8
100
AcDbLine
 10
390.530033
 20
142.990097
 30
0.0
 11
390.530033
 21
160.23959
 31
0.0
  0
ENDBLK
  5
204
100
AcDbEntity
  8
0
100
AcDbBlockEnd
  0
BLOCK
  5
207
100
AcDbEntity
  8
0
100
AcDbBlockBegin
  2
*B27
 70
     0
 10
0.0
 20
0.0
 30
0.0
  3
*B27
  1

  0
LINE
  5
208
100
AcDbEntity
  8
0
  6
Continuous
 62
     8
100
AcDbLine
 10
390.530033
 20
219.996582
 30
0.0
 11
390.530033
 21
223.996582
 31
0.0
  0
LINE
  5
209
100
AcDbEntity
  8
0
  6
Continuous
 62
     8
100
AcDbLine
 10
390.530033
 20
395.994018
 30
0.0
 11
390.530033
 21
399.993593
 31
0.0
  0
LINE
  5
20A
100
AcDbEntity
  8
0
  6
Continuous
 62
     8
100
AcDbLine
 10
390.530033
 20
223.996582
 30
0.0
 11
390.530033
 21
240.034457
 31
0.0
  0
LINE
  5
20B
100
AcDbEntity
  8
0
  6
Continuous
 62
     8
100
AcDbLine
 10
390.530033
 20
246.034244
 30
0.0
 11
390.530033
 21
248.034031
 31
0.0
  0
LINE
  5
20C
100
AcDbEntity
  8
0
  6
Continuous
 62
     8
100
AcDbLine
 10
390.530033
 20
254.034244
 30
0.0
 11
390.530033
 21
270.071694
 31
0.0
  0
LINE
  5
20D
100
AcDbEntity
  8
0
  6
Continuous
 62
     8
100
AcDbLine
 10
390.530033
 20
276.071906
 30
0.0
 11
390.530033
 21
278.071693
 31
0.0
  0
LINE
  5
20E
100
AcDbEntity
  8
0
  6
Continuous
 62
     8
100
AcDbLine
 10
390.530033
 20
284.07148
 30
0.0
 11
390.530033
 21
300.109355
 31
0.0
  0
LINE
  5
20F
100
AcDbEntity
  8
0
  6
Continuous
 62
     8
100
AcDbLine
 10
390.530033
 20
316.108929
 30
0.0
 11
390.530033
 21
327.108822
 31
0.0
  0
LINE
  5
210
100
AcDbEntity
  8
0
  6
Continuous
 62
     8
100
AcDbLine
 10
390.530033
 20
343.108821
 30
0.0
 11
390.530033
 21
362.551314
 31
0.0
  0
LINE
  5
211
100
AcDbEntity
  8
0
  6
Continuous
 62
     8
100
AcDbLine
 10
390.530033
 20
368.5511
 30
0.0
 11
390.530033
 21
370.551313
 31
0.0
  0
LINE
  5
212
100
AcDbEntity
  8
0
  6
Continuous
 62
     8
100
AcDbLine
 10
390.530033
 20
376.5511
 30
0.0
 11
390.530033
 21
395.994018
 31
0.0
  0
ENDBLK
  5
213
100
AcDbEntity
  8
0
100
AcDbBlockEnd
  0
BLOCK
  5
216
100
AcDbEntity
  8
0
100
AcDbBlockBegin
  2
*B28
 70
     0
 10
0.0
 20
0.0
 30
0.0
  3
*B28
  1

  0
LINE
  5
217
100
AcDbEntity
  8
0
  6
Continuous
 62
     8
100
AcDbLine
 10
280.036157
 20
321.609088
 30
0.0
 11
330.530037
 21
321.609088
 31
0.0
  0
ENDBLK
  5
218
100
AcDbEntity
  8
0
100
AcDbBlockEnd
  0
BLOCK
  5
21B
100
AcDbEntity
  8
0
100
AcDbBlockBegin
  2
*B29
 70
     0
 10
0.0
 20
0.0
 30
0.0
  3
*B29
  1

  0
LINE
  5
21C
100
AcDbEntity
  8
0
  6
Continuous
 62
     8
100
AcDbLine
 10
490.036358
 20
281.109463
 30
0.0
 11
494.036357
 21
281.109463
 31
0.0
  0
LINE
  5
21D
100
AcDbEntity
  8
0
  6
Continuous
 62
     8
100
AcDbLine
 10
344.529823
 20
281.109463
 30
0.0
 11
362.431301
 21
281.109463
 31
0.0
  0
LINE
  5
21E
100
AcDbEntity
  8
0
  6
Continuous
 62
     8
100
AcDbLine
 10
368.431088
 20
281.109463
 30
0.0
 11
370.4313
 21
281.109463
 31
0.0
  0
LINE
  5
21F
100
AcDbEntity
  8
0
  6
Continuous
 62
     8
100
AcDbLine
 10
376.431087
 20
281.109463
 30
0.0
 11
394.332565
 21
281.109463
 31
0.0
  0
LINE
  5
220
100
AcDbEntity
  8
0
  6
Continuous
 62
     8
100
AcDbLine
 10
400.332352
 20
281.109463
 30
0.0
 11
402.332565
 21
281.109463
 31
0.0
  0
LINE
  5
221
100
AcDbEntity
  8
0
  6
Continuous
 62
     8
100
AcDbLine
 10
408.332351
 20
281.109463
 30
0.0
 11
426.233829
 21
281.109463
 31
0.0
  0
LINE
  5
222
100
AcDbEntity
  8
0
  6
Continuous
 62
     8
100
AcDbLine
 10
432.233616
 20
281.109463
 30
0.0
 11
434.233829
 21
281.109463
 31
0.0
  0
LINE
  5
223
100
AcDbEntity
  8
0
  6
Continuous
 62
     8
100
AcDbLine
 10
440.233616
 20
281.109463
 30
0.0
 11
458.135093
 21
281.109463
 31
0.0
  0
LINE
  5
224
100
AcDbEntity
  8
0
  6
Continuous
 62
     8
100
AcDbLine
 10
464.13488
 20
281.109463
 30
0.0
 11
466.135093
 21
281.109463
 31
0.0
  0
LINE
  5
225
100
AcDbEntity
  8
0
  6
Continuous
 62
     8
100
AcDbLine
 10
472.13488
 20
281.109463
 30
0.0
 11
490.036358
 21
281.109463
 31
0.0
  0
ENDBLK
  5
226
100
AcDbEntity
  8
0
100
AcDbBlockEnd
  0
BLOCK
  5
229
100
AcDbEntity
  8
0
100
AcDbBlockBegin
  2
*B30
 70
     0
 10
0.0
 20
0.0
 30
0.0
  3
*B30
  1

  0
LINE
  5
22A
100
AcDbEntity
  8
0
  6
Continuous
 62
     8
100
AcDbLine
 10
100.036594
 20
172.23959
 30
0.0
 11
128.030208
 21
172.23959
 31
0.0
  0
ENDBLK
  5
22B
100
AcDbEntity
  8
0
100
AcDbBlockEnd
  0
BLOCK
  5
22E
100
AcDbEntity
  8
0
100
AcDbBlockBegin
  2
*B31
 70
     0
 10
0.0
 20
0.0
 30
0.0
  3
*B31
  1

  0
LINE
  5
22F
100
AcDbEntity
  8
0
  6
Continuous
 62
     8
100
AcDbLine
 10
343.279903
 20
314.109142
 30
0.0
 11
343.279903
 21
371.99402
 31
0.0
  0
ENDBLK
  5
230
100
AcDbEntity
  8
0
100
AcDbBlockEnd
  0
BLOCK
  5
233
100
AcDbEntity
  8
0
100
AcDbBlockBegin
  2
*B32
 70
     0
 10
0.0
 20
0.0
 30
0.0
  3
*B32
  1

  0
LINE
  5
234
100
AcDbEntity
  8
0
  6
Continuous
 62
     8
100
AcDbLine
 10
336.529824
 20
49.241406
 30
0.0
 11
336.529824
 21
66.491325
 31
0.0
  0
LINE
  5
235
100
AcDbEntity
  8
0
  6
Continuous
 62
     8
100
AcDbLine
 10
336.529824
 20
72.491112
 30
0.0
 11
336.529824
 21
74.490899
 31
0.0
  0
LINE
  5
236
100
AcDbEntity
  8
0
  6
Continuous
 62
     8
100
AcDbLine
 10
336.529824
 20
80.491111
 30
0.0
 11
336.529824
 21
97.740605
 31
0.0
  0
LINE
  5
237
100
AcDbEntity
  8
0
  6
Continuous
 62
     8
100
AcDbLine
 10
336.529824
 20
103.740392
 30
0.0
 11
336.529824
 21
105.740604
 31
0.0
  0
LINE
  5
238
100
AcDbEntity
  8
0
  6
Continuous
 62
     8
100
AcDbLine
 10
336.529824
 20
111.740391
 30
0.0
 11
336.529824
 21
128.99031
 31
0.0
  0
LINE
  5
239
100
AcDbEntity
  8
0
  6
Continuous
 62
     8
100
AcDbLine
 10
336.529824
 20
134.990097
 30
0.0
 11
336.529824
 21
136.989884
 31
0.0
  0
LINE
  5
23A
100
AcDbEntity
  8
0
  6
Continuous
 62
     8
100
AcDbLine
 10
336.529824
 20
142.990097
 30
0.0
 11
336.529824
 21
160.23959
 31
0.0
  0
ENDBLK
  5
23B
100
AcDbEntity
  8
0
100
AcDbBlockEnd
  0
BLOCK
  5
23E
100
AcDbEntity
  8
0
100
AcDbBlockBegin
  2
*B33
 70
     0
 10
0.0
 20
0.0
 30
0.0
  3
*B33
  1

  0
LINE
  5
23F
100
AcDbEntity
  8
0
  6
Continuous
 62
     8
100
AcDbLine
 10
490.036358
 20
335.108821
 30
0.0
 11
494.036357
 21
335.108821
 31
0.0
  0
LINE
  5
240
100
AcDbEntity
  8
0
  6
Continuous
 62
     8
100
AcDbLine
 10
398.530033
 20
335.108821
 30
0.0
 11
419.698666
 21
335.108821
 31
0.0
  0
LINE
  5
241
100
AcDbEntity
  8
0
  6
Continuous
 62
     8
100
AcDbLine
 10
425.698879
 20
335.108821
 30
0.0
 11
427.698666
 21
335.108821
 31
0.0
  0
LINE
  5
242
100
AcDbEntity
  8
0
  6
Continuous
 62
     8
100
AcDbLine
 10
433.698878
 20
335.108821
 30
0.0
 11
454.867512
 21
335.108821
 31
0.0
  0
LINE
  5
243
100
AcDbEntity
  8
0
  6
Continuous
 62
     8
100
AcDbLine
 10
460.867299
 20
335.108821
 30
0.0
 11
462.867512
 21
335.108821
 31
0.0
  0
LINE
  5
244
100
AcDbEntity
  8
0
  6
Continuous
 62
     8
100
AcDbLine
 10
468.867724
 20
335.108821
 30
0.0
 11
490.036358
 21
335.108821
 31
0.0
  0
ENDBLK
  5
245
100
AcDbEntity
  8
0
100
AcDbBlockEnd
  0
BLOCK
  5
248
100
AcDbEntity
  8
0
100
AcDbBlockBegin
  2
*B34
 70
     0
 10
0.0
 20
0.0
 30
0.0
  3
*B34
  1

  0
LINE
  5
249
100
AcDbEntity
  8
0
  6
Continuous
 62
     8
100
AcDbLine
 10
280.036157
 20
294.609196
 30
0.0
 11
330.530037
 21
294.609196
 31
0.0
  0
ENDBLK
  5
24A
100
AcDbEntity
  8
0
100
AcDbBlockEnd
  0
BLOCK
  5
24D
100
AcDbEntity
  8
0
100
AcDbBlockBegin
  2
*B35
 70
     0
 10
0.0
 20
0.0
 30
0.0
  3
*B35
  1

  0
LINE
  5
24E
100
AcDbEntity
  8
0
  6
Continuous
 62
     8
100
AcDbLine
 10
425.029871
 20
93.490791
 30
0.0
 11
441.529924
 21
93.490791
 31
0.0
  0
ENDBLK
  5
24F
100
AcDbEntity
  8
0
100
AcDbBlockEnd
  0
BLOCK
  5
252
100
AcDbEntity
  8
0
100
AcDbBlockBegin
  2
*B36
 70
     0
 10
0.0
 20
0.0
 30
0.0
  3
*B36
  1

  0
LINE
  5
253
100
AcDbEntity
  8
0
  6
Continuous
 62
     8
100
AcDbLine
 10
460.036147
 20
326.108716
 30
0.0
 11
464.036146
 21
326.108716
 31
0.0
  0
LINE
  5
254
100
AcDbEntity
  8
0
  6
Continuous
 62
     8
100
AcDbLine
 10
344.030195
 20
326.108716
 30
0.0
 11
355.530142
 21
326.108716
 31
0.0
  0
LINE
  5
255
100
AcDbEntity
  8
0
  6
Continuous
 62
     8
100
AcDbLine
 10
371.530141
 20
326.108716
 30
0.0
 11
391.698668
 21
326.108716
 31
0.0
  0
LINE
  5
256
100
AcDbEntity
  8
0
  6
Continuous
 62
     8
100
AcDbLine
 10
397.69888
 20
326.108716
 30
0.0
 11
399.698668
 21
326.108716
 31
0.0
  0
LINE
  5
257
100
AcDbEntity
  8
0
  6
Continuous
 62
     8
100
AcDbLine
 10
405.69888
 20
326.108716
 30
0.0
 11
425.867407
 21
326.108716
 31
0.0
  0
LINE
  5
258
100
AcDbEntity
  8
0
  6
Continuous
 62
     8
100
AcDbLine
 10
431.86762
 20
326.108716
 30
0.0
 11
433.867407
 21
326.108716
 31
0.0
  0
LINE
  5
259
100
AcDbEntity
  8
0
  6
Continuous
 62
     8
100
AcDbLine
 10
439.867619
 20
326.108716
 30
0.0
 11
460.036147
 21
326.108716
 31
0.0
  0
ENDBLK
  5
25A
100
AcDbEntity
  8
0
100
AcDbBlockEnd
  0
BLOCK
  5
25D
100
AcDbEntity
  8
0
100
AcDbBlockBegin
  2
*B37
 70
     0
 10
0.0
 20
0.0
 30
0.0
  3
*B37
  1

  0
LINE
  5
25E
100
AcDbEntity
  8
0
  6
Continuous
 62
     8
100
AcDbLine
 10
296.030198
 20
191.99701
 30
0.0
 11
296.030198
 21
266.109996
 31
0.0
  0
ENDBLK
  5
25F
100
AcDbEntity
  8
0
100
AcDbBlockEnd
  0
BLOCK
  5
262
100
AcDbEntity
  8
0
100
AcDbBlockBegin
  2
*B38
 70
     0
 10
0.0
 20
0.0
 30
0.0
  3
*B38
  1

  0
LINE
  5
263
100
AcDbEntity
  8
0
  6
Continuous
 62
     8
100
AcDbLine
 10
437.029871
 20
55.241193
 30
0.0
 11
466.036359
 21
55.241193
 31
0.0
  0
ENDBLK
  5
264
100
AcDbEntity
  8
0
100
AcDbBlockEnd
  0
BLOCK
  5
267
100
AcDbEntity
  8
0
100
AcDbBlockBegin
  2
*B39
 70
     0
 10
0.0
 20
0.0
 30
0.0
  3
*B39
  1

  0
LINE
  5
268
100
AcDbEntity
  8
0
  6
Continuous
 62
     8
100
AcDbLine
 10
336.529824
 20
219.996582
 30
0.0
 11
336.529824
 21
249.995942
 31
0.0
  0
LINE
  5
269
100
AcDbEntity
  8
0
  6
Continuous
 62
     8
100
AcDbLine
 10
336.529824
 20
249.995942
 30
0.0
 11
336.529824
 21
273.109889
 31
0.0
  0
LINE
  5
26A
100
AcDbEntity
  8
0
  6
Continuous
 62
     8
100
AcDbLine
 10
336.529824
 20
289.109462
 30
0.0
 11
336.529824
 21
300.109355
 31
0.0
  0
LINE
  5
26B
100
AcDbEntity
  8
0
  6
Continuous
 62
     8
100
AcDbLine
 10
336.529824
 20
316.108929
 30
0.0
 11
336.529824
 21
327.608875
 31
0.0
  0
ENDBLK
  5
26C
100
AcDbEntity
  8
0
100
AcDbBlockEnd
  0
BLOCK
  5
26F
100
AcDbEntity
  8
0
100
AcDbBlockBegin
  2
*B40
 70
     0
 10
0.0
 20
0.0
 30
0.0
  3
*B40
  1

  0
LINE
  5
270
100
AcDbEntity
  8
0
  6
Continuous
 62
     8
100
AcDbLine
 10
460.036147
 20
308.109355
 30
0.0
 11
464.036146
 21
308.109355
 31
0.0
  0
LINE
  5
271
100
AcDbEntity
  8
0
  6
Continuous
 62
     8
100
AcDbLine
 10
128.030208
 20
308.109355
 30
0.0
 11
144.672829
 21
308.109355
 31
0.0
  0
LINE
  5
272
100
AcDbEntity
  8
0
  6
Continuous
 62
     8
100
AcDbLine
 10
150.673041
 20
308.109355
 30
0.0
 11
152.672828
 21
308.109355
 31
0.0
  0
LINE
  5
273
100
AcDbEntity
  8
0
  6
Continuous
 62
     8
100
AcDbLine
 10
158.673041
 20
308.109355
 30
0.0
 11
175.315661
 21
308.109355
 31
0.0
  0
LINE
  5
274
100
AcDbEntity
  8
0
  6
Continuous
 62
     8
100
AcDbLine
 10
181.315874
 20
308.109355
 30
0.0
 11
183.315661
 21
308.109355
 31
0.0
  0
LINE
  5
275
100
AcDbEntity
  8
0
  6
Continuous
 62
     8
100
AcDbLine
 10
189.315873
 20
308.109355
 30
0.0
 11
205.958494
 21
308.109355
 31
0.0
  0
LINE
  5
276
100
AcDbEntity
  8
0
  6
Continuous
 62
     8
100
AcDbLine
 10
211.958706
 20
308.109355
 30
0.0
 11
213.958493
 21
308.109355
 31
0.0
  0
LINE
  5
277
100
AcDbEntity
  8
0
  6
Continuous
 62
     8
100
AcDbLine
 10
219.958706
 20
308.109355
 30
0.0
 11
236.601326
 21
308.109355
 31
0.0
  0
LINE
  5
278
100
AcDbEntity
  8
0
  6
Continuous
 62
     8
100
AcDbLine
 10
242.601539
 20
308.109355
 30
0.0
 11
244.601326
 21
308.109355
 31
0.0
  0
LINE
  5
279
100
AcDbEntity
  8
0
  6
Continuous
 62
     8
100
AcDbLine
 10
250.601538
 20
308.109355
 30
0.0
 11
267.244159
 21
308.109355
 31
0.0
  0
LINE
  5
27A
100
AcDbEntity
  8
0
  6
Continuous
 62
     8
100
AcDbLine
 10
273.244371
 20
308.109355
 30
0.0
 11
275.244159
 21
308.109355
 31
0.0
  0
LINE
  5
27B
100
AcDbEntity
  8
0
  6
Continuous
 62
     8
100
AcDbLine
 10
281.244371
 20
308.109355
 30
0.0
 11
297.886992
 21
308.109355
 31
0.0
  0
LINE
  5
27C
100
AcDbEntity
  8
0
  6
Continuous
 62
     8
100
AcDbLine
 10
303.887204
 20
308.109355
 30
0.0
 11
305.886991
 21
308.109355
 31
0.0
  0
LINE
  5
27D
100
AcDbEntity
  8
0
  6
Continuous
 62
     8
100
AcDbLine
 10
311.887203
 20
308.109355
 30
0.0
 11
328.529824
 21
308.109355
 31
0.0
  0
LINE
  5
27E
100
AcDbEntity
  8
0
  6
Continuous
 62
     8
100
AcDbLine
 10
344.529823
 20
308.109355
 30
0.0
 11
382.530034
 21
308.109355
 31
0.0
  0
LINE
  5
27F
100
AcDbEntity
  8
0
  6
Continuous
 62
     8
100
AcDbLine
 10
398.530033
 20
308.109355
 30
0.0
 11
422.283196
 21
308.109355
 31
0.0
  0
LINE
  5
280
100
AcDbEntity
  8
0
  6
Continuous
 62
     8
100
AcDbLine
 10
428.282983
 20
308.109355
 30
0.0
 11
430.283196
 21
308.109355
 31
0.0
  0
LINE
  5
281
100
AcDbEntity
  8
0
  6
Continuous
 62
     8
100
AcDbLine
 10
436.282983
 20
308.109355
 30
0.0
 11
460.036147
 21
308.109355
 31
0.0
  0
ENDBLK
  5
282
100
AcDbEntity
  8
0
100
AcDbBlockEnd
  0
BLOCK
  5
285
100
AcDbEntity
  8
0
100
AcDbBlockBegin
  2
*B41
 70
     0
 10
0.0
 20
0.0
 30
0.0
  3
*B41
  1

  0
LINE
  5
286
100
AcDbEntity
  8
0
  6
Continuous
 62
     8
100
AcDbLine
 10
329.78017
 20
314.109142
 30
0.0
 11
329.78017
 21
371.99402
 31
0.0
  0
ENDBLK
  5
287
100
AcDbEntity
  8
0
100
AcDbBlockEnd
  0
BLOCK
  5
28A
100
AcDbEntity
  8
0
100
AcDbBlockBegin
  2
*B42
 70
     0
 10
0.0
 20
0.0
 30
0.0
  3
*B42
  1

  0
LINE
  5
28B
100
AcDbEntity
  8
0
  6
Continuous
 62
     8
100
AcDbLine
 10
435.530137
 20
25.999786
 30
0.0
 11
435.530137
 21
67.241192
 31
0.0
  0
ENDBLK
  5
28C
100
AcDbEntity
  8
0
100
AcDbBlockEnd
  0
BLOCK
  5
28F
100
AcDbEntity
  8
0
100
AcDbBlockBegin
  2
*B43
 70
     0
 10
0.0
 20
0.0
 30
0.0
  3
*B43
  1

  0
LINE
  5
290
100
AcDbEntity
  8
0
  6
Continuous
 62
     8
100
AcDbLine
 10
100.036594
 20
55.241193
 30
0.0
 11
128.030208
 21
55.241193
 31
0.0
  0
ENDBLK
  5
291
100
AcDbEntity
  8
0
100
AcDbBlockEnd
  0
BLOCK
  5
294
100
AcDbEntity
  8
0
100
AcDbBlockBegin
  2
*B44
 70
     0
 10
0.0
 20
0.0
 30
0.0
  3
*B44
  1

  0
LINE
  5
295
100
AcDbEntity
  8
0
  6
Continuous
 62
     8
100
AcDbLine
 10
134.029995
 20
25.999786
 30
0.0
 11
134.029995
 21
49.241406
 31
0.0
  0
ENDBLK
  5
296
100
AcDbEntity
  8
0
100
AcDbBlockEnd
  0
BLOCK
  5
299
100
AcDbEntity
  8
0
100
AcDbBlockBegin
  2
*B45
 70
     0
 10
0.0
 20
0.0
 30
0.0
  3
*B45
  1

  0
LINE
  5
29A
100
AcDbEntity
  8
0
  6
Continuous
 62
     8
100
AcDbLine
 10
363.530141
 20
245.996368
 30
0.0
 11
363.530141
 21
249.995942
 31
0.0
  0
LINE
  5
29B
100
AcDbEntity
  8
0
  6
Continuous
 62
     8
100
AcDbLine
 10
363.530141
 20
395.994018
 30
0.0
 11
363.530141
 21
399.993593
 31
0.0
  0
LINE
  5
29C
100
AcDbEntity
  8
0
  6
Continuous
 62
     8
100
AcDbLine
 10
363.530141
 20
249.995942
 30
0.0
 11
363.530141
 21
277.052861
 31
0.0
  0
LINE
  5
29D
100
AcDbEntity
  8
0
  6
Continuous
 62
     8
100
AcDbLine
 10
363.530141
 20
283.052648
 30
0.0
 11
363.530141
 21
285.052435
 31
0.0
  0
LINE
  5
29E
100
AcDbEntity
  8
0
  6
Continuous
 62
     8
100
AcDbLine
 10
363.530141
 20
291.052648
 30
0.0
 11
363.530141
 21
318.109142
 31
0.0
  0
LINE
  5
29F
100
AcDbEntity
  8
0
  6
Continuous
 62
     8
100
AcDbLine
 10
363.530141
 20
334.108715
 30
0.0
 11
363.530141
 21
358.051261
 31
0.0
  0
LINE
  5
2A0
100
AcDbEntity
  8
0
  6
Continuous
 62
     8
100
AcDbLine
 10
363.530141
 20
364.051473
 30
0.0
 11
363.530141
 21
366.05126
 31
0.0
  0
LINE
  5
2A1
100
AcDbEntity
  8
0
  6
Continuous
 62
     8
100
AcDbLine
 10
363.530141
 20
372.051047
 30
0.0
 11
363.530141
 21
395.994018
 31
0.0
  0
ENDBLK
  5
2A2
100
AcDbEntity
  8
0
100
AcDbBlockEnd
  0
BLOCK
  5
2A5
100
AcDbEntity
  8
0
100
AcDbBlockBegin
  2
*B46
 70
     0
 10
0.0
 20
0.0
 30
0.0
  3
*B46
  1

  0
LINE
  5
2A6
100
AcDbEntity
  8
0
  6
Continuous
 62
     6
100
AcDbLine
 10
361.529928
 20
326.108716
 30
0.0
 11
365.529928
 21
326.108716
 31
0.0
  0
LINE
  5
2A7
100
AcDbEntity
  8
0
  6
Continuous
 62
     6
100
AcDbLine
 10
363.530141
 20
324.108928
 30
0.0
 11
363.530141
 21
328.108928
 31
0.0
  0
ENDBLK
  5
2A8
100
AcDbEntity
  8
0
100
AcDbBlockEnd
  0
BLOCK
  5
2AB
100
AcDbEntity
  8
0
100
AcDbBlockBegin
  2
*B47
 70
     0
 10
0.0
 20
0.0
 30
0.0
  3
*B47
  1

  0
LINE
  5
2AC
100
AcDbEntity
  8
0
  6
Continuous
 62
     6
100
AcDbLine
 10
390.530033
 20
306.109142
 30
0.0
 11
390.530033
 21
310.109142
 31
0.0
  0
LINE
  5
2AD
100
AcDbEntity
  8
0
  6
Continuous
 62
     6
100
AcDbLine
 10
388.52982
 20
308.109355
 30
0.0
 11
392.52982
 21
308.109355
 31
0.0
  0
ENDBLK
  5
2AE
100
AcDbEntity
  8
0
100
AcDbBlockEnd
  0
BLOCK
  5
2B1
100
AcDbEntity
  8
0
100
AcDbBlockBegin
  2
*B48
 70
     0
 10
0.0
 20
0.0
 30
0.0
  3
*B48
  1

  0
LINE
  5
2B2
100
AcDbEntity
  8
0
  6
Continuous
 62
     6
100
AcDbLine
 10
336.529824
 20
306.109142
 30
0.0
 11
336.529824
 21
310.109142
 31
0.0
  0
LINE
  5
2B3
100
AcDbEntity
  8
0
  6
Continuous
 62
     6
100
AcDbLine
 10
334.530036
 20
308.109355
 30
0.0
 11
338.530036
 21
308.109355
 31
0.0
  0
ENDBLK
  5
2B4
100
AcDbEntity
  8
0
100
AcDbBlockEnd
  0
BLOCK
  5
2B7
100
AcDbEntity
  8
0
100
AcDbBlockBegin
  2
*B49
 70
     0
 10
0.0
 20
0.0
 30
0.0
  3
*B49
  1

  0
LINE
  5
2B8
100
AcDbEntity
  8
0
  6
Continuous
 62
     6
100
AcDbLine
 10
390.530033
 20
333.108609
 30
0.0
 11
390.530033
 21
337.108608
 31
0.0
  0
LINE
  5
2B9
100
AcDbEntity
  8
0
  6
Continuous
 62
     6
100
AcDbLine
 10
388.52982
 20
335.108821
 30
0.0
 11
392.52982
 21
335.108821
 31
0.0
  0
ENDBLK
  5
2BA
100
AcDbEntity
  8
0
100
AcDbBlockEnd
  0
BLOCK
  5
2BD
100
AcDbEntity
  8
0
100
AcDbBlockBegin
  2
*B50
 70
     0
 10
0.0
 20
0.0
 30
0.0
  3
*B50
  1

  0
LINE
  5
2BE
100
AcDbEntity
  8
0
  6
Continuous
 62
     6
100
AcDbLine
 10
334.530036
 20
281.109463
 30
0.0
 11
338.530036
 21
281.109463
 31
0.0
  0
LINE
  5
2BF
100
AcDbEntity
  8
0
  6
Continuous
 62
     6
100
AcDbLine
 10
336.529824
 20
279.109676
 30
0.0
 11
336.529824
 21
283.109676
 31
0.0
  0
ENDBLK
  5
2C0
100
AcDbEntity
  8
0
100
AcDbBlockEnd
  0
BLOCK
  5
2C3
100
AcDbEntity
  8
0
100
AcDbBlockBegin
  2
*B51
 70
     0
 10
0.0
 20
0.0
 30
0.0
  3
*B51
  1

  0
LINE
  5
2C4
100
AcDbEntity
  8
0
  6
Continuous
 62
     0
100
AcDbLine
 10
441.981887
 20
371.244153
 30
0.0
 11
412.515349
 21
371.244153
 31
0.0
  0
LINE
  5
2C5
100
AcDbEntity
  8
0
  6
Continuous
 62
     0
100
AcDbLine
 10
412.515349
 20
371.244153
 30
0.0
 11
393.570782
 21
340.106374
 31
0.0
  0
SOLID
  5
2C6
100
AcDbEntity
  8
0
  6
Continuous
 62
     0
100
AcDbTrace
 10
397.059664
 20
349.688669
 30
0.0
 11
393.570782
 21
340.106374
 31
0.0
 12
400.477048
 22
347.609725
 32
0.0
 13
400.477048
 23
347.609725
 33
0.0
  0
ENDBLK
  5
2C7
100
AcDbEntity
  8
0
100
AcDbBlockEnd
  0
BLOCK
  5
2CA
100
AcDbEntity
  8
0
100
AcDbBlockBegin
  2
*B52
 70
     0
 10
0.0
 20
0.0
 30
0.0
  3
*B52
  1

  0
TEXT
  5
2CB
100
AcDbEntity
  8
TEXT
  6
Continuous
 62
     0
100
AcDbText
 10
301.531599
 20
98.0
 30
0.0
 40
12.0
  1
12
100
AcDbText
  0
ENDBLK
  5
2CC
100
AcDbEntity
  8
0
100
AcDbBlockEnd
  0
BLOCK
  5
2CF
100
AcDbEntity
  8
0
100
AcDbBlockBegin
  2
*B53
 70
     0
 10
0.0
 20
0.0
 30
0.0
  3
*B53
  1

  0
TEXT
  5
2D0
100
AcDbEntity
  8
TEXT
  6
Continuous
 62
     0
100
AcDbText
 10
332.765799
 20
326.5
 30
0.0
 40
12.0
  1
1
100
AcDbText
  0
ENDBLK
  5
2D1
100
AcDbEntity
  8
0
100
AcDbBlockEnd
  0
BLOCK
  5
2D4
100
AcDbEntity
  8
0
100
AcDbBlockBegin
  2
*B54
 70
     0
 10
0.0
 20
0.0
 30
0.0
  3
*B54
  1

  0
TEXT
  5
2D5
100
AcDbEntity
  8
TEXT
  6
Continuous
 62
     0
100
AcDbText
 10
386.565799
 20
277.8
 30
0.0
 40
12.0
  1
3
100
AcDbText
  0
ENDBLK
  5
2D6
100
AcDbEntity
  8
0
100
AcDbBlockEnd
  0
BLOCK
  5
2D9
100
AcDbEntity
  8
0
100
AcDbBlockBegin
  2
*B55
 70
     0
 10
0.0
 20
0.0
 30
0.0
  3
*B55
  1

  0
TEXT
  5
2DA
100
AcDbEntity
  8
TEXT
  6
Continuous
 62
     0
100
AcDbText
 10
358.765799
 20
295.5
 30
0.0
 40
12.0
  1
2
100
AcDbText
  0
ENDBLK
  5
2DB
100
AcDbEntity
  8
0
100
AcDbBlockEnd
  0
BLOCK
  5
2DE
100
AcDbEntity
  8
0
100
AcDbBlockBegin
  2
*B56
 70
     0
 10
0.0
 20
0.0
 30
0.0
  3
*B56
  1

  0
TEXT
  5
2DF
100
AcDbEntity
  8
TEXT
  6
Continuous
 62
     0
100
AcDbText
 10
116.380297
 20
241.0
 30
0.0
 40
14.0
  1
180%%d
100
AcDbText
  0
ENDBLK
  5
2E0
100
AcDbEntity
  8
0
100
AcDbBlockEnd
  0
BLOCK
  5
2E3
100
AcDbEntity
  8
0
100
AcDbBlockBegin
  2
*B57
 70
     0
 10
0.0
 20
0.0
 30
0.0
  3
*B57
  1

  0
TEXT
  5
2E4
100
AcDbEntity
  8
TEXT
  6
Continuous
 62
     0
100
AcDbText
 10
415.479167
 20
376.5
 30
0.0
 40
7.0
  1
%%c2,6
100
AcDbText
  0
ENDBLK
  5
2E5
100
AcDbEntity
  8
0
100
AcDbBlockEnd
  0
BLOCK
  5
2E8
100
AcDbEntity
  8
0
100
AcDbBlockBegin
  2
*B58
 70
     0
 10
0.0
 20
0.0
 30
0.0
  3
*B58
  1

  0
TEXT
  5
2E9
100
AcDbEntity
  8
TEXT
  6
Continuous
 62
     0
100
AcDbText
 10
299.079167
 20
373.5
 30
0.0
 40
7.0
  1
%%c3
100
AcDbText
  0
ENDBLK
  5
2EA
100
AcDbEntity
  8
0
100
AcDbBlockEnd
  0
BLOCK
  5
2ED
100
AcDbEntity
  8
0
100
AcDbBlockBegin
  2
*B59
 70
     0
 10
0.0
 20
0.0
 30
0.0
  3
*B59
  1

  0
TEXT
  5
2EE
100
AcDbEntity
  8
TEXT
  6
Continuous
 62
     0
100
AcDbText
 10
346.660358
 20
251.5
 30
0.0
 40
7.0
  1
6
100
AcDbText
  0
ENDBLK
  5
2EF
100
AcDbEntity
  8
0
100
AcDbBlockEnd
  0
BLOCK
  5
2F2
100
AcDbEntity
  8
0
100
AcDbBlockBegin
  2
*B60
 70
     0
 10
0.0
 20
0.0
 30
0.0
  3
*B60
  1

  0
TEXT
  5
2F3
100
AcDbEntity
  8
TEXT
  6
Continuous
 62
     0
100
AcDbText
 10
373.660358
 20
401.5
 30
0.0
 40
7.0
  1
6
100
AcDbText
  0
ENDBLK
  5
2F4
100
AcDbEntity
  8
0
100
AcDbBlockEnd
  0
BLOCK
  5
2F7
100
AcDbEntity
  8
0
100
AcDbBlockBegin
  2
*B61
 70
     0
 10
0.0
 20
0.0
 30
0.0
  3
*B61
  1

  0
TEXT
  5
2F8
100
AcDbEntity
  8
TEXT
  6
Continuous
 62
     0
100
AcDbText
 10
458.5
 20
313.780631
 30
0.0
 40
7.0
  1
4
 50
90.0
100
AcDbText
  0
ENDBLK
  5
2F9
100
AcDbEntity
  8
0
100
AcDbBlockEnd
  0
BLOCK
  5
2FC
100
AcDbEntity
  8
0
100
AcDbBlockBegin
  2
*B62
 70
     0
 10
0.0
 20
0.0
 30
0.0
  3
*B62
  1

  0
TEXT
  5
2FD
100
AcDbEntity
  8
TEXT
  6
Continuous
 62
     0
100
AcDbText
 10
488.5
 20
301.447298
 30
0.0
 40
7.0
  1
12
 50
90.0
100
AcDbText
  0
ENDBLK
  5
2FE
100
AcDbEntity
  8
0
100
AcDbBlockEnd
  0
BLOCK
  5
301
100
AcDbEntity
  8
0
100
AcDbBlockBegin
  2
*B63
 70
     0
 10
0.0
 20
0.0
 30
0.0
  3
*B63
  1

  0
TEXT
  5
302
100
AcDbEntity
  8
TEXT
  6
Continuous
 62
     0
100
AcDbText
 10
98.5
 20
301.447298
 30
0.0
 40
7.0
  1
16
 50
90.0
100
AcDbText
  0
ENDBLK
  5
303
100
AcDbEntity
  8
0
100
AcDbBlockEnd
  0
BLOCK
  5
306
100
AcDbEntity
  8
0
100
AcDbBlockBegin
  2
*B64
 70
     0
 10
0.0
 20
0.0
 30
0.0
  3
*B64
  1

  0
TEXT
  5
307
100
AcDbEntity
  8
TEXT
  6
Continuous
 62
     0
100
AcDbText
 10
407.410358
 20
225.5
 30
0.0
 40
7.0
  1
9
100
AcDbText
  0
ENDBLK
  5
308
100
AcDbEntity
  8
0
100
AcDbBlockEnd
  0
BLOCK
  5
30B
100
AcDbEntity
  8
0
100
AcDbBlockBegin
  2
*B65
 70
     0
 10
0.0
 20
0.0
 30
0.0
  3
*B65
  1

  0
TEXT
  5
30C
100
AcDbEntity
  8
TEXT
  6
Continuous
 62
     0
100
AcDbText
 10
356.827025
 20
225.5
 30
0.0
 40
7.0
  1
12
100
AcDbText
  0
ENDBLK
  5
30D
100
AcDbEntity
  8
0
100
AcDbBlockEnd
  0
BLOCK
  5
310
100
AcDbEntity
  8
0
100
AcDbBlockBegin
  2
*B66
 70
     0
 10
0.0
 20
0.0
 30
0.0
  3
*B66
  1

  0
TEXT
  5
311
100
AcDbEntity
  8
TEXT
  6
Continuous
 62
     0
100
AcDbText
 10
356.827025
 20
197.5
 30
0.0
 40
7.0
  1
30
100
AcDbText
  0
ENDBLK
  5
312
100
AcDbEntity
  8
0
100
AcDbBlockEnd
  0
BLOCK
  5
315
100
AcDbEntity
  8
0
100
AcDbBlockBegin
  2
*B67
 70
     0
 10
0.0
 20
0.0
 30
0.0
  3
*B67
  1

  0
TEXT
  5
316
100
AcDbEntity
  8
TEXT
  6
Continuous
 62
     0
100
AcDbText
 10
460.5
 20
98.075389
 30
0.0
 40
7.0
  1
22
 50
90.0
100
AcDbText
  0
ENDBLK
  5
317
100
AcDbEntity
  8
0
100
AcDbBlockEnd
  0
BLOCK
  5
31A
100
AcDbEntity
  8
0
100
AcDbBlockBegin
  2
*B68
 70
     0
 10
0.0
 20
0.0
 30
0.0
  3
*B68
  1

  0
TEXT
  5
31B
100
AcDbEntity
  8
TEXT
  6
Continuous
 62
     0
100
AcDbText
 10
98.5
 20
107.075389
 30
0.0
 40
7.0
  1
26
 50
90.0
100
AcDbText
  0
ENDBLK
  5
31C
100
AcDbEntity
  8
0
100
AcDbBlockEnd
  0
BLOCK
  5
31F
100
AcDbEntity
  8
0
100
AcDbBlockBegin
  2
*B69
 70
     0
 10
0.0
 20
0.0
 30
0.0
  3
*B69
  1

  0
TEXT
  5
320
100
AcDbEntity
  8
TEXT
  6
Continuous
 62
     0
100
AcDbText
 10
275.827025
 20
31.5
 30
0.0
 40
7.0
  1
66
100
AcDbText
  0
ENDBLK
  5
321
100
AcDbEntity
  8
0
100
AcDbBlockEnd
  0
BLOCK
  5
324
100
AcDbEntity
  8
0
100
AcDbBlockBegin
  2
*B70
 70
     0
 10
0.0
 20
0.0
 30
0.0
  3
*B70
  1

  0
TEXT
  5
325
100
AcDbEntity
  8
TEXT
  6
Continuous
 62
     0
100
AcDbText
 10
449.979167
 20
31.5
 30
0.0
 40
7.0
  1
1
100
AcDbText
  0
ENDBLK
  5
326
100
AcDbEntity
  8
0
100
AcDbBlockEnd
  0
BLOCK
  5
329
100
AcDbEntity
  8
0
100
AcDbBlockBegin
  2
*B71
 70
     0
 10
0.0
 20
0.0
 30
0.0
  3
*B71
  1

  0
TEXT
  5
32A
100
AcDbEntity
  8
TEXT
  6
Continuous
 62
     0
100
AcDbText
 10
278.5
 20
299.880631
 30
0.0
 40
7.0
  1
%%c6
 50
90.0
100
AcDbText
  0
ENDBLK
  5
32B
100
AcDbEntity
  8
0
100
AcDbBlockEnd
  0
ENDSEC
  0
SECTION
  2
ENTITIES
  0
INSERT
  5
31
100
AcDbEntity
  8
0
  6
Continuous
 62
   172
100
AcDbBlockReference
  2
*B1
 10
0.0
 20
0.0
 30
0.0
  0
INSERT
  5
3C
100
AcDbEntity
  8
0
  6
Continuous
 62
   172
100
AcDbBlockReference
  2
*B2
 10
0.0
 20
0.0
 30
0.0
  0
INSERT
  5
114
100
AcDbEntity
  8
0
  6
Continuous
 62
   174
100
AcDbBlockReference
  2
*B4
 10
0.0
 20
0.0
 30
0.0
  0
INSERT
  5
166
100
AcDbEntity
  8
0
  6
Continuous
 62
   174
100
AcDbBlockReference
  2
*B5
 10
0.0
 20
0.0
 30
0.0
  0
INSERT
  5
16D
100
AcDbEntity
  8
0
  6
Continuous
 62
     0
100
AcDbBlockReference
  2
*B6
 10
0.0
 20
0.0
 30
0.0
  0
INSERT
  5
174
100
AcDbEntity
  8
0
  6
Continuous
 62
     0
100
AcDbBlockReference
  2
*B7
 10
0.0
 20
0.0
 30
0.0
  0
INSERT
  5
17B
100
AcDbEntity
  8
0
  6
Continuous
 62
     0
100
AcDbBlockReference
  2
*B8
 10
0.0
 20
0.0
 30
0.0
  0
INSERT
  5
182
100
AcDbEntity
  8
0
  6
Continuous
 62
     0
100
AcDbBlockReference
  2
*B9
 10
0.0
 20
0.0
 30
0.0
  0
INSERT
  5
189
100
AcDbEntity
  8
0
  6
Continuous
 62
     0
100
AcDbBlockReference
  2
*B10
 10
0.0
 20
0.0
 30
0.0
  0
INSERT
  5
190
100
AcDbEntity
  8
0
  6
Continuous
 62
     0
100
AcDbBlockReference
  2
*B11
 10
0.0
 20
0.0
 30
0.0
  0
INSERT
  5
197
100
AcDbEntity
  8
0
  6
Continuous
 62
     0
100
AcDbBlockReference
  2
*B12
 10
0.0
 20
0.0
 30
0.0
  0
INSERT
  5
19E
100
AcDbEntity
  8
0
  6
Continuous
 62
     0
100
AcDbBlockReference
  2
*B13
 10
0.0
 20
0.0
 30
0.0
  0
INSERT
  5
1A5
100
AcDbEntity
  8
0
  6
Continuous
 62
     0
100
AcDbBlockReference
  2
*B14
 10
0.0
 20
0.0
 30
0.0
  0
INSERT
  5
1AC
100
AcDbEntity
  8
0
  6
Continuous
 62
     0
100
AcDbBlockReference
  2
*B15
 10
0.0
 20
0.0
 30
0.0
  0
INSERT
  5
1B3
100
AcDbEntity
  8
0
  6
Continuous
 62
     0
100
AcDbBlockReference
  2
*B16
 10
0.0
 20
0.0
 30
0.0
  0
INSERT
  5
1BA
100
AcDbEntity
  8
0
  6
Continuous
 62
     0
100
AcDbBlockReference
  2
*B17
 10
0.0
 20
0.0
 30
0.0
  0
INSERT
  5
1C1
100
AcDbEntity
  8
0
  6
Continuous
 62
     0
100
AcDbBlockReference
  2
*B18
 10
0.0
 20
0.0
 30
0.0
  0
INSERT
  5
1C8
100
AcDbEntity
  8
0
  6
Continuous
 62
     0
100
AcDbBlockReference
  2
*B19
 10
0.0
 20
0.0
 30
0.0
  0
INSERT
  5
1E1
100
AcDbEntity
  8
0
  6
Continuous
 62
     8
100
AcDbBlockReference
  2
*B20
 10
0.0
 20
0.0
 30
0.0
  0
INSERT
  5
1E6
100
AcDbEntity
  8
0
  6
Continuous
 62
     8
100
AcDbBlockReference
  2
*B21
 10
0.0
 20
0.0
 30
0.0
  0
INSERT
  5
1EB
100
AcDbEntity
  8
0
  6
Continuous
 62
     8
100
AcDbBlockReference
  2
*B22
 10
0.0
 20
0.0
 30
0.0
  0
INSERT
  5
1F0
100
AcDbEntity
  8
0
  6
Continuous
 62
     8
100
AcDbBlockReference
  2
*B23
 10
0.0
 20
0.0
 30
0.0
  0
INSERT
  5
1F5
100
AcDbEntity
  8
0
  6
Continuous
 62
     8
100
AcDbBlockReference
  2
*B24
 10
0.0
 20
0.0
 30
0.0
  0
INSERT
  5
1FA
100
AcDbEntity
  8
0
  6
Continuous
 62
     8
100
AcDbBlockReference
  2
*B25
 10
0.0
 20
0.0
 30
0.0
  0
INSERT
  5
205
100
AcDbEntity
  8
0
  6
Continuous
 62
     8
100
AcDbBlockReference
  2
*B26
 10
0.0
 20
0.0
 30
0.0
  0
INSERT
  5
214
100
AcDbEntity
  8
0
  6
Continuous
 62
     8
100
AcDbBlockReference
  2
*B27
 10
0.0
 20
0.0
 30
0.0
  0
INSERT
  5
219
100
AcDbEntity
  8
0
  6
Continuous
 62
     8
100
AcDbBlockReference
  2
*B28
 10
0.0
 20
0.0
 30
0.0
  0
INSERT
  5
227
100
AcDbEntity
  8
0
  6
Continuous
 62
     8
100
AcDbBlockReference
  2
*B29
 10
0.0
 20
0.0
 30
0.0
  0
INSERT
  5
22C
100
AcDbEntity
  8
0
  6
Continuous
 62
     8
100
AcDbBlockReference
  2
*B30
 10
0.0
 20
0.0
 30
0.0
  0
INSERT
  5
231
100
AcDbEntity
  8
0
  6
Continuous
 62
     8
100
AcDbBlockReference
  2
*B31
 10
0.0
 20
0.0
 30
0.0
  0
INSERT
  5
23C
100
AcDbEntity
  8
0
  6
Continuous
 62
     8
100
AcDbBlockReference
  2
*B32
 10
0.0
 20
0.0
 30
0.0
  0
INSERT
  5
246
100
AcDbEntity
  8
0
  6
Continuous
 62
     8
100
AcDbBlockReference
  2
*B33
 10
0.0
 20
0.0
 30
0.0
  0
INSERT
  5
24B
100
AcDbEntity
  8
0
  6
Continuous
 62
     8
100
AcDbBlockReference
  2
*B34
 10
0.0
 20
0.0
 30
0.0
  0
INSERT
  5
250
100
AcDbEntity
  8
0
  6
Continuous
 62
     8
100
AcDbBlockReference
  2
*B35
 10
0.0
 20
0.0
 30
0.0
  0
INSERT
  5
25B
100
AcDbEntity
  8
0
  6
Continuous
 62
     8
100
AcDbBlockReference
  2
*B36
 10
0.0
 20
0.0
 30
0.0
  0
INSERT
  5
260
100
AcDbEntity
  8
0
  6
Continuous
 62
     8
100
AcDbBlockReference
  2
*B37
 10
0.0
 20
0.0
 30
0.0
  0
INSERT
  5
265
100
AcDbEntity
  8
0
  6
Continuous
 62
     8
100
AcDbBlockReference
  2
*B38
 10
0.0
 20
0.0
 30
0.0
  0
INSERT
  5
26D
100
AcDbEntity
  8
0
  6
Continuous
 62
     8
100
AcDbBlockReference
  2
*B39
 10
0.0
 20
0.0
 30
0.0
  0
INSERT
  5
283
100
AcDbEntity
  8
0
  6
Continuous
 62
     8
100
AcDbBlockReference
  2
*B40
 10
0.0
 20
0.0
 30
0.0
  0
INSERT
  5
288
100
AcDbEntity
  8
0
  6
Continuous
 62
     8
100
AcDbBlockReference
  2
*B41
 10
0.0
 20
0.0
 30
0.0
  0
INSERT
  5
28D
100
AcDbEntity
  8
0
  6
Continuous
 62
     8
100
AcDbBlockReference
  2
*B42
 10
0.0
 20
0.0
 30
0.0
  0
INSERT
  5
292
100
AcDbEntity
  8
0
  6
Continuous
 62
     8
100
AcDbBlockReference
  2
*B43
 10
0.0
 20
0.0
 30
0.0
  0
INSERT
  5
297
100
AcDbEntity
  8
0
  6
Continuous
 62
     8
100
AcDbBlockReference
  2
*B44
 10
0.0
 20
0.0
 30
0.0
  0
INSERT
  5
2A3
100
AcDbEntity
  8
0
  6
Continuous
 62
     8
100
AcDbBlockReference
  2
*B45
 10
0.0
 20
0.0
 30
0.0
  0
INSERT
  5
2A9
100
AcDbEntity
  8
0
  6
Continuous
 62
     6
100
AcDbBlockReference
  2
*B46
 10
0.0
 20
0.0
 30
0.0
  0
INSERT
  5
2AF
100
AcDbEntity
  8
0
  6
Continuous
 62
     6
100
AcDbBlockReference
  2
*B47
 10
0.0
 20
0.0
 30
0.0
  0
INSERT
  5
2B5
100
AcDbEntity
  8
0
  6
Continuous
 62
     6
100
AcDbBlockReference
  2
*B48
 10
0.0
 20
0.0
 30
0.0
  0
INSERT
  5
2BB
100
AcDbEntity
  8
0
  6
Continuous
 62
     6
100
AcDbBlockReference
  2
*B49
 10
0.0
 20
0.0
 30
0.0
  0
INSERT
  5
2C1
100
AcDbEntity
  8
0
  6
Continuous
 62
     6
100
AcDbBlockReference
  2
*B50
 10
0.0
 20
0.0
 30
0.0
  0
INSERT
  5
2C8
100
AcDbEntity
  8
0
  6
Continuous
 62
     0
100
AcDbBlockReference
  2
*B51
 10
0.0
 20
0.0
 30
0.0
  0
INSERT
  5
2CD
100
AcDbEntity
  8
TEXT
  6
Continuous
 62
     0
100
AcDbBlockReference
  2
*B52
 10
0.0
 20
0.0
 30
0.0
  0
INSERT
  5
2D2
100
AcDbEntity
  8
TEXT
  6
Continuous
 62
     0
100
AcDbBlockReference
  2
*B53
 10
0.0
 20
0.0
 30
0.0
  0
INSERT
  5
2D7
100
AcDbEntity
  8
TEXT
  6
Continuous
 62
     0
100
AcDbBlockReference
  2
*B54
 10
0.0
 20
0.0
 30
0.0
  0
INSERT
  5
2DC
100
AcDbEntity
  8
TEXT
  6
Continuous
 62
     0
100
AcDbBlockReference
  2
*B55
 10
0.0
 20
0.0
 30
0.0
  0
INSERT
  5
2E1
100
AcDbEntity
  8
TEXT
  6
Continuous
 62
     0
100
AcDbBlockReference
  2
*B56
 10
0.0
 20
0.0
 30
0.0
  0
INSERT
  5
2E6
100
AcDbEntity
  8
TEXT
  6
Continuous
 62
     0
100
AcDbBlockReference
  2
*B57
 10
0.0
 20
0.0
 30
0.0
  0
INSERT
  5
2EB
100
AcDbEntity
  8
TEXT
  6
Continuous
 62
     0
100
AcDbBlockReference
  2
*B58
 10
0.0
 20
0.0
 30
0.0
  0
INSERT
  5
2F0
100
AcDbEntity
  8
TEXT
  6
Continuous
 62
     0
100
AcDbBlockReference
  2
*B59
 10
0.0
 20
0.0
 30
0.0
  0
INSERT
  5
2F5
100
AcDbEntity
  8
TEXT
  6
Continuous
 62
     0
100
AcDbBlockReference
  2
*B60
 10
0.0
 20
0.0
 30
0.0
  0
INSERT
  5
2FA
100
AcDbEntity
  8
TEXT
  6
Continuous
 62
     0
100
AcDbBlockReference
  2
*B61
 10
0.0
 20
0.0
 30
0.0
  0
INSERT
  5
2FF
100
AcDbEntity
  8
TEXT
  6
Continuous
 62
     0
100
AcDbBlockReference
  2
*B62
 10
0.0
 20
0.0
 30
0.0
  0
INSERT
  5
304
100
AcDbEntity
  8
TEXT
  6
Continuous
 62
     0
100
AcDbBlockReference
  2
*B63
 10
0.0
 20
0.0
 30
0.0
  0
INSERT
  5
309
100
AcDbEntity
  8
TEXT
  6
Continuous
 62
     0
100
AcDbBlockReference
  2
*B64
 10
0.0
 20
0.0
 30
0.0
  0
INSERT
  5
30E
100
AcDbEntity
  8
TEXT
  6
Continuous
 62
     0
100
AcDbBlockReference
  2
*B65
 10
0.0
 20
0.0
 30
0.0
  0
INSERT
  5
313
100
AcDbEntity
  8
TEXT
  6
Continuous
 62
     0
100
AcDbBlockReference
  2
*B66
 10
0.0
 20
0.0
 30
0.0
  0
INSERT
  5
318
100
AcDbEntity
  8
TEXT
  6
Continuous
 62
     0
100
AcDbBlockReference
  2
*B67
 10
0.0
 20
0.0
 30
0.0
  0
INSERT
  5
31D
100
AcDbEntity
  8
TEXT
  6
Continuous
 62
     0
100
AcDbBlockReference
  2
*B68
 10
0.0
 20
0.0
 30
0.0
  0
INSERT
  5
322
100
AcDbEntity
  8
TEXT
  6
Continuous
 62
     0
100
AcDbBlockReference
  2
*B69
 10
0.0
 20
0.0
 30
0.0
  0
INSERT
  5
327
100
AcDbEntity
  8
TEXT
  6
Continuous
 62
     0
100
AcDbBlockReference
  2
*B70
 10
0.0
 20
0.0
 30
0.0
  0
INSERT
  5
32C
100
AcDbEntity
  8
TEXT
  6
Continuous
 62
     0
100
AcDbBlockReference
  2
*B71
 10
0.0
 20
0.0
 30
0.0
  0
ENDSEC
  0
SECTION
  2
OBJECTS
  0
DICTIONARY
  5
19
100
AcDbDictionary
280
     0
281
     1
  3
ACAD_GROUP
350
1A
  3
ACAD_MLINESTYLE
350
1B
  3
ACAD_LAYOUT
350
1E
  3
ACAD_PLOTSETTINGS
350
22
  3
ACAD_PLOTSTYLENAME
350
1F
  3
ACAD_WIPEOUT_VARS
350
23
  0
DICTIONARY
  5
1A
102
{ACAD_REACTORS
330
19
102
}
100
AcDbDictionary
280
     0
281
     1
  0
DICTIONARY
  5
1B
102
{ACAD_REACTORS
330
19
102
}
100
AcDbDictionary
280
     0
281
     1
  3
Standard
350
1C
  0
MLINESTYLE
  5
1C
102
{ACAD_REACTORS
330
1B
102
}
100
AcDbMlineStyle
  2
Standard
 70
     0
  3

 62
     0
 51
90.0
 52
90.0
 71
     2
 49
0.5
 62
   256
  6
BYLAYER
 49
-0.5
 62
   256
  6
BYLAYER
  0
ACDBDICTIONARYWDFLT
  5
1F
102
{ACAD_REACTORS
330
19
102
}
100
AcDbDictionary
281
     1
  3
Normal
350
1D
100
AcDbDictionaryWithDefault
340
1D
  0
ACDBPLACEHOLDER
  5
1D
102
{ACAD_REACTORS
330
1F
102
}
  0
LAYOUT
  5
20
102
{ACAD_REACTORS
330
1E
102
}
100
AcDbPlotSettings
  1

  2

  4

  6

 40
0.0
 41
0.0
 42
0.0
 43
0.0
 44
0.0
 45
0.0
 46
0.0
 47
0.0
 48
0.0
 49
0.0
140
0.0
141
0.0
142
1.0
143
1.0
 70
     0
 72
     0
 73
     0
 74
     0
  7

 75
     0
147
1.0
148
0.0
149
0.0
100
AcDbLayout
  1
Model
 70
     0
 71
     0
 10
0.0
 20
0.0
 11
0.0
 21
0.0
 12
0.0
 22
0.0
 32
0.0
 14
0.0
 24
0.0
 34
0.0
 15
0.0
 25
0.0
 35
0.0
146
0.0
 13
0.0
 23
0.0
 33
0.0
 16
0.0
 26
0.0
 36
0.0
 17
0.0
 27
0.0
 37
0.0
 76
     0
330
A
331
0
345
0
346
0
  0
LAYOUT
  5
21
102
{ACAD_REACTORS
330
1E
102
}
100
AcDbPlotSettings
  1

  2

  4

  6

 40
0.0
 41
0.0
 42
0.0
 43
0.0
 44
0.0
 45
0.0
 46
0.0
 47
0.0
 48
0.0
 49
0.0
140
0.0
141
0.0
142
1.0
143
1.0
 70
     0
 72
     0
 73
     0
 74
     0
  7

 75
     0
147
1.0
148
0.0
149
0.0
100
AcDbLayout
  1
Layout1
 70
     0
 71
     0
 10
0.0
 20
0.0
 11
0.0
 21
0.0
 12
0.0
 22
0.0
 32
0.0
 14
0.0
 24
0.0
 34
0.0
 15
0.0
 25
0.0
 35
0.0
146
0.0
 13
0.0
 23
0.0
 33
0.0
 16
0.0
 26
0.0
 36
0.0
 17
0.0
 27
0.0
 37
0.0
 76
     0
330
B
331
0
345
0
346
0
  0
DICTIONARY
  5
1E
102
{ACAD_REACTORS
330
19
102
}
100
AcDbDictionary
280
     0
281
     1
  3
Layout1
350
21
  3
Model
350
20
  0
DICTIONARY
  5
22
102
{ACAD_REACTORS
330
19
102
}
100
AcDbDictionary
280
     0
281
     1
  0
WIPEOUTVARIABLES
  5
23
100
AcDbWipeoutVariables
 70
     1
  0
ENDSEC
  0
EOF
