  0
SECTION
  2
HEADER
  9
$ACADVER
  1
AC1015
  9
$ACADMAINTVER
 70
     6
  9
$DWGCODEPAGE
  3
DOS850
  9
$INSBASE
 10
0.0
 20
0.0
 30
0.0
  9
$EXTMIN
 10
0.0
 20
0.0
 30
0.0
  9
$EXTMAX
 10
841.0
 20
595.0
 30
0.0
  9
$LIMMIN
 10
0.0
 20
0.0
  9
$LIMMAX
 10
841.0
 20
595.0
  9
$ORTHOMODE
 70
     0
  9
$REGENMODE
 70
     1
  9
$FILLMODE
 70
     1
  9
$QTEXTMODE
 70
     0
  9
$MIRRTEXT
 70
     1
  9
$LTSCALE
 40
25.4
  9
$ATTMODE
 70
     1
  9
$TEXTSIZE
 40
3.5
  9
$TRACEWID
 40
0.05
  9
$TEXTSTYLE
  7
Standard
  9
$CLAYER
  8
0
  9
$CELTYPE
  6
Continuous
  9
$CECOLOR
 62
   256
  9
$CELTSCALE
 40
1.0
  9
$DISPSILH
 70
     0
  9
$DIMSCALE
 40
1.0
  9
$DIMASZ
 40
5.0
  9
$DIMEXO
 40
3.0
  9
$DIMDLI
 40
0.38
  9
$DIMRND
 40
0.0
  9
$DIMDLE
 40
0.0
  9
$DIMEXE
 40
2.0
  9
$DIMTP
 40
0.0
  9
$DIMTM
 40
0.0
  9
$DIMTXT
 40
3.5
  9
$DIMCEN
 40
4.0
  9
$DIMTSZ
 40
0.0
  9
$DIMTOL
 70
     0
  9
$DIMLIM
 70
     0
  9
$DIMTIH
 70
     1
  9
$DIMTOH
 70
     1
  9
$DIMSE1
 70
     0
  9
$DIMSE2
 70
     0
  9
$DIMTAD
 70
     0
  9
$DIMZIN
 70
     0
  9
$DIMBLK
  1

  9
$DIMASO
 70
     1
  9
$DIMSHO
 70
     1
  9
$DIMPOST
  1

  9
$DIMAPOST
  1

  9
$DIMALT
 70
     0
  9
$DIMALTD
 70
     2
  9
$DIMALTF
 40
25.4
  9
$DIMLFAC
 40
1.0
  9
$DIMTOFL
 70
     0
  9
$DIMTVP
 40
0.0
  9
$DIMTIX
 70
     0
  9
$DIMSOXD
 70
     0
  9
$DIMSAH
 70
     0
  9
$DIMBLK1
  1

  9
$DIMBLK2
  1

  9
$DIMSTYLE
  2
Standard
  9
$DIMCLRD
 70
     0
  9
$DIMCLRE
 70
     0
  9
$DIMCLRT
 70
     0
  9
$DIMTFAC
 40
1.0
  9
$DIMGAP
 40
1.0
  9
$DIMJUST
 70
     0
  9
$DIMSD1
 70
     0
  9
$DIMSD2
 70
     0
  9
$DIMTOLJ
 70
     1
  9
$DIMTZIN
 70
     0
  9
$DIMALTZ
 70
     0
  9
$DIMALTTZ
 70
     0
  9
$DIMUPT
 70
     0
  9
$DIMDEC
 70
     4
  9
$DIMTDEC
 70
     4
  9
$DIMALTU
 70
     2
  9
$DIMALTTD
 70
     2
  9
$DIMTXSTY
  7
Standard
  9
$DIMAUNIT
 70
     0
  9
$DIMADEC
 70
     0
  9
$DIMALTRND
 40
0.0
  9
$DIMAZIN
 70
     0
  9
$DIMDSEP
 70
     0
  9
$DIMATFIT
 70
     3
  9
$DIMFRAC
 70
     0
  9
$DIMLDRBLK
  1

  9
$DIMLUNIT
 70
     2
  9
$DIMLWD
 70
     0
  9
$DIMLWE
 70
     0
  9
$DIMTMOVE
 70
     0
  9
$LUNITS
 70
     2
  9
$LUPREC
 70
     4
  9
$SKETCHINC
 40
0.1
  9
$FILLETRAD
 40
0.0
  9
$AUNITS
 70
     0
  9
$AUPREC
 70
     0
  9
$MENU
  1
acad
  9
$ELEVATION
 40
0.0
  9
$PELEVATION
 40
0.0
  9
$THICKNESS
 40
0.0
  9
$LIMCHECK
 70
     0
  9
$CHAMFERA
 40
0.0
  9
$CHAMFERB
 40
0.0
  9
$CHAMFERC
 40
0.0
  9
$CHAMFERD
 40
0.0
  9
$SKPOLY
 70
     0
  9
$TDCREATE
 40
0.000000000
  9
$TDUCREATE
 40
0.000000000
  9
$TDUPDATE
 40
0.000000000
  9
$TDUUPDATE
 40
0.000000000
  9
$TDINDWG
 40
0.0000000000
  9
$TDUSRTIMER
 40
0.0000000000
  9
$USRTIMER
 70
     1
  9
$ANGBASE
 50
0.0
  9
$ANGDIR
 70
     0
  9
$PDMODE
 70
     0
  9
$PDSIZE
 40
0.0
  9
$PLINEWID
 40
0.0
  9
$SPLFRAME
 70
     0
  9
$SPLINETYPE
 70
     6
  9
$SPLINESEGS
 70
     8
  9
$HANDSEED
  5
3B6
  9
$SURFTAB1
 70
     6
  9
$SURFTAB2
 70
     6
  9
$SURFTYPE
 70
     6
  9
$SURFU
 70
     6
  9
$SURFV
 70
     6
  9
$UCSBASE
  2

  9
$UCSNAME
  2

  9
$UCSORG
 10
0.0
 20
0.0
 30
0.0
  9
$UCSXDIR
 10
1.0
 20
0.0
 30
0.0
  9
$UCSYDIR
 10
0.0
 20
1.0
 30
0.0
  9
$UCSORTHOREF
  2

  9
$UCSORTHOVIEW
 70
     0
  9
$UCSORGTOP
 10
0.0
 20
0.0
 30
0.0
  9
$UCSORGBOTTOM
 10
0.0
 20
0.0
 30
0.0
  9
$UCSORGLEFT
 10
0.0
 20
0.0
 30
0.0
  9
$UCSORGRIGHT
 10
0.0
 20
0.0
 30
0.0
  9
$UCSORGFRONT
 10
0.0
 20
0.0
 30
0.0
  9
$UCSORGBACK
 10
0.0
 20
0.0
 30
0.0
  9
$PUCSBASE
  2

  9
$PUCSNAME
  2

  9
$PUCSORG
 10
0.0
 20
0.0
 30
0.0
  9
$PUCSXDIR
 10
1.0
 20
0.0
 30
0.0
  9
$PUCSYDIR
 10
0.0
 20
1.0
 30
0.0
  9
$PUCSORTHOREF
  2

  9
$PUCSORTHOVIEW
 70
     0
  9
$PUCSORGTOP
 10
0.0
 20
0.0
 30
0.0
  9
$PUCSORGBOTTOM
 10
0.0
 20
0.0
 30
0.0
  9
$PUCSORGLEFT
 10
0.0
 20
0.0
 30
0.0
  9
$PUCSORGRIGHT
 10
0.0
 20
0.0
 30
0.0
  9
$PUCSORGFRONT
 10
0.0
 20
0.0
 30
0.0
  9
$PUCSORGBACK
 10
0.0
 20
0.0
 30
0.0
  9
$USERI1
 70
     0
  9
$USERI2
 70
     0
  9
$USERI3
 70
     0
  9
$USERI4
 70
     0
  9
$USERI5
 70
     0
  9
$USERR1
 40
0.0
  9
$USERR2
 40
0.0
  9
$USERR3
 40
0.0
  9
$USERR4
 40
0.0
  9
$USERR5
 40
0.0
  9
$WORLDVIEW
 70
     1
  9
$SHADEDGE
 70
     3
  9
$SHADEDIF
 70
    70
  9
$TILEMODE
 70
     1
  9
$MAXACTVP
 70
    16
  9
$PINSBASE
 10
0.0
 20
0.0
 30
0.0
  9
$PLIMCHECK
 70
     0
  9
$PEXTMIN
 10
1.000000E+20
 20
1.000000E+20
 30
1.000000E+20
  9
$PEXTMAX
 10
-1.000000E+20
 20
-1.000000E+20
 30
-1.000000E+20
  9
$PLIMMIN
 10
0.0
 20
0.0
  9
$PLIMMAX
 10
841.0
 20
595.0
  9
$UNITMODE
 70
     0
  9
$VISRETAIN
 70
     0
  9
$PLINEGEN
 70
     1
  9
$PSLTSCALE
 70
     0
  9
$TREEDEPTH
 70
  3020
  9
$CMLSTYLE
  2
Standard
  9
$CMLJUST
 70
     0
  9
$CMLSCALE
 40
1.0
  9
$PROXYGRAPHICS
 70
     0
  9
$MEASUREMENT
 70
     0
  9
$CELWEIGHT
370
     0
  9
$ENDCAPS
280
     0
  9
$JOINSTYLE
280
     0
  9
$LWDISPLAY
290
     0
  9
$INSUNITS
 70
     0
  9
$HYPERLINKBASE
  1

  9
$XEDIT
290
     1
  9
$CEPSNTYPE
380
     0
  9
$PSTYLEMODE
290
     0
  9
$FINGERPRINTGUID
  2

  9
$VERSIONGUID
  2

  9
$EXTNAMES
290
     1
  9
$PSVPSCALE
 40
0.0
  0
ENDSEC
  0
SECTION
  2
CLASSES
  0
CLASS
  1
LWPOLYLINE
  2
AcDbPolyline
  3
"AutoCAD"
 90
        0
280
     0
281
     1
  0
CLASS
  1
IMAGE
  2
AcDbRasterImage
  3
ISM
 90
      127
280
     0
281
     1
  0
CLASS
  1
OLE2FRAME
  2
AcDbOle2Frame
  3
""
 90
        0
280
     0
281
     1
  0
CLASS
  1
HATCH
  2
AcDbHatch
  3
"ACAD_SEDONA"
 90
        0
280
     0
281
     1
  0
CLASS
  1
DICTIONARYVAR
  2
AcDbDictionaryVar
  3
"AutoCAD"
 90
        0
280
     0
281
     0
  0
CLASS
  1
RASTERVARIABLES
  2
AcDbRasterVariables
  3
ISM
 90
        0
280
     0
281
     0
  0
CLASS
  1
IMAGEDEF
  2
AcDbRasterImageDef
  3
ISM
 90
        0
280
     0
281
     0
  0
CLASS
  1
IMAGEDEF_REACTOR
  2
AcDbRasterImageDefReactor
  3
ISM
 90
        1
280
     0
281
     0
  0
CLASS
  1
IDBUFFER
  2
AcDbIdBuffer
  3
"Acad"
 90
        0
280
     0
281
     0
  0
CLASS
  1
SPATIAL_FILTER
  2
AcDbSpatialFilter
  3
"Acad"
 90
        0
280
     0
281
     0
  0
CLASS
  1
XRECORD
  2
AcDbXrecord
  3
"<Built In>"
 90
        0
280
     0
281
     0
  0
CLASS
  1
SORTENTSTABLE
  2
AcDbSortentsTable
  3
"AutoCAD"
 90
        0
280
     0
281
     0
  0
CLASS
  1
LAYER_INDEX
  2
AcDbLayerIndex
  3
"Acad"
 90
        0
280
     0
281
     0
  0
CLASS
  1
SPATIAL_INDEX
  2
AcDbSpatialIndex
  3
"Acad"
 90
        0
280
     0
281
     0
  0
CLASS
  1
OBJECT_PTR
  2
CAseDLPNTableRecord
  3
"ASE-LPNTableRecord"
 90
        1
280
     0
281
     0
  0
CLASS
  1
LAYOUT
  2
AcDbLayout
  3
"AutoCAD 2000"
 90
        1
280
     0
281
     0
  0
CLASS
  1
PLOTSETTINGS
  2
AcDbPlotSettings
  3
"AutoCAD 2000"
 90
        1
280
     0
281
     0
  0
CLASS
  1
ACDBDICTIONARYWDFLT
  2
AcDbDictionaryWithDefault
  3
"AutoCAD 2000"
 90
        1
280
     0
281
     0
  0
CLASS
  1
ACDBPLACEHOLDER
  2
AcDbPlaceHolder
  3
"AutoCAD 2000"
 90
        1
280
     0
281
     0
  0
CLASS
  1
VBA_PROJECT
  2
AcDbVbaProject
  3
"acadvba"
 90
        1
280
     0
281
     0
  0
CLASS
  1
WIPEOUT
  2
AcDbWipeout
  3
WipeOut|AutoCAD Express Tool|expresstools@autodesk.com
 90
      127
280
     0
281
     1
  0
CLASS
  1
WIPEOUTVARIABLES
  2
AcDbWipeoutVariables
  3
WipeOut|AutoCAD Express Tool|expresstools@autodesk.com
 90
        0
280
     0
281
     0
  0
CLASS
  1
RTEXT
  2
RText
  3
RText|AutoCAD Express Tool|expresstools@autodesk.com
 90
        0
280
     0
281
     1
  0
CLASS
  1
ARCALIGNEDTEXT
  2
AcDbArcAlignedText
  3
ATEXT|AutoCAD Express Tool|expresstools@autodesk.com
 90
        0
280
     0
281
     1
  0
ENDSEC
  0
SECTION
  2
TABLES
  0
TABLE
  2
VPORT
  5
7
100
AcDbSymbolTable
 70
     1
  0
VPORT
  5
15
100
AcDbSymbolTableRecord
100
AcDbViewportTableRecord
  2
*ACTIVE
 70
     0
 10
0.0
 20
0.0
 11
1.0
 21
1.0
 12
6.591288
 22
4.579184
 13
0.0
 23
0.0
 14
1.0
 24
1.0
 15
0.0
 25
0.0
 16
0.0
 26
0.0
 36
1.0
 17
0.0
 27
0.0
 37
0.0
 40
9.158369
 41
0.688564
 42
50.0
 43
0.0
 44
0.0
 50
0.0
 51
0.0
 71
     0
 72
   100
 73
     1
 74
     1
 75
     0
 76
     0
 77
     0
 78
     0
281
     0
 65
     0
110
0.0
120
0.0
130
0.0
111
1.0
121
0.0
131
0.0
112
0.0
122
1.0
132
0.0
345
0
346
0
 79
     0
146
0.0
  0
ENDTAB
  0
TABLE
  2
LTYPE
  5
4
100
AcDbSymbolTable
 70
     7
  0
LTYPE
  5
11
100
AcDbSymbolTableRecord
100
AcDbLinetypeTableRecord
  2
ByBlock
 70
    64
  3

 72
    65
 73
     0
 40
0.0
  0
LTYPE
  5
12
100
AcDbSymbolTableRecord
100
AcDbLinetypeTableRecord
  2
ByLayer
 70
    64
  3

 72
    65
 73
     0
 40
0.0
  0
LTYPE
  5
13
100
AcDbSymbolTableRecord
100
AcDbLinetypeTableRecord
  2
Continuous
 70
    64
  3
Solid line
 72
    65
 73
     0
 40
0.0
  0
LTYPE
  5
24
100
AcDbSymbolTableRecord
100
AcDbLinetypeTableRecord
  2
HIDDEN
 70
    64
  3
_ _ _ _ _ _ _ _ _ _ _ _ _ _ _ _ _ _ _ _ _ _ _ _
 72
    65
 73
     2
 40
0.1875
 49
0.125
 74
     0
 49
-0.0625
 74
     0
  0
LTYPE
  5
25
100
AcDbSymbolTableRecord
100
AcDbLinetypeTableRecord
  2
DOTTED
 70
    64
  3
...............................................
 72
    65
 73
     2
 40
0.125
 49
0.0
 74
     0
 49
-0.125
 74
     0
  0
LTYPE
  5
26
100
AcDbSymbolTableRecord
100
AcDbLinetypeTableRecord
  2
CENTER
 70
    64
  3
____ _ ____ _ ____ _ ____ _ ____ _ ____ _ ____ 
 72
    65
 73
     4
 40
1.125
 49
0.75
 74
     0
 49
-0.125
 74
     0
 49
0.125
 74
     0
 49
-0.125
 74
     0
  0
LTYPE
  5
27
100
AcDbSymbolTableRecord
100
AcDbLinetypeTableRecord
  2
PHANTOM
 70
    64
  3
______  __  __  ______  __  __  ______  __  __ 
 72
    65
 73
     6
 40
1.25
 49
0.625
 74
     0
 49
-0.125
 74
     0
 49
0.125
 74
     0
 49
-0.125
 74
     0
 49
0.125
 74
     0
 49
-0.125
 74
     0
  0
ENDTAB
  0
TABLE
  2
LAYER
  5
2
100
AcDbSymbolTable
 70
     2
  0
LAYER
  5
14
100
AcDbSymbolTableRecord
100
AcDbLayerTableRecord
  2
0
 70
     0
 62
     7
  6
Continuous
290
     1
370
    -3
390
1D
  0
LAYER
  5
28
100
AcDbSymbolTableRecord
100
AcDbLayerTableRecord
  2
TEXT
 70
     0
 62
     8
  6
Continuous
290
     1
370
    -3
390
1F
  0
ENDTAB
  0
TABLE
  2
STYLE
  5
3
100
AcDbSymbolTable
 70
     1
  0
STYLE
  5
17
100
AcDbSymbolTableRecord
100
AcDbTextStyleTableRecord
  2
Standard
 70
     0
 40
0.0
 41
1.0
 50
0.0
 71
     0
 42
0.0
  3
txt
  4

  0
ENDTAB
  0
TABLE
  2
VIEW
  5
5
100
AcDbSymbolTable
 70
     0
  0
ENDTAB
  0
TABLE
  2
UCS
  5
6
100
AcDbSymbolTable
 70
     0
  0
ENDTAB
  0
TABLE
  2
APPID
  5
8
100
AcDbSymbolTable
 70
     1
  0
APPID
  5
16
100
AcDbSymbolTableRecord
100
AcDbRegAppTableRecord
  2
ACAD
 70
     0
  0
ENDTAB
  0
TABLE
  2
DIMSTYLE
  5
9
100
AcDbSymbolTable
 70
     1
100
AcDbDimStyleTable
 71
     0
  0
DIMSTYLE
105
18
100
AcDbSymbolTableRecord
100
AcDbDimStyleTableRecord
  2
Standard
 70
     0
  3

  4

 40
1.0
 41
0.18
 42
0.0625
 43
0.38
 44
0.18
 45
0.0
 46
0.0
 47
0.0
 48
0.0
 71
     0
 72
     0
 73
     1
 74
     1
 75
     0
 76
     0
 77
     0
 78
     0
 79
     0
140
0.18
141
0.09
142
0.0
143
25.4
144
1.0
145
0.0
146
1.0
147
0.09
148
0.0
170
     0
171
     2
172
     0
173
     0
174
     0
175
     0
176
     0
177
     0
178
     0
179
     0
271
     4
272
     4
273
     2
274
     2
275
     0
276
     0
277
     2
278
    46
279
     0
280
     0
281
     0
282
     0
283
     1
284
     0
285
     0
286
     0
288
     0
340
17
341
0
342
0
343
0
344
0
371
    -2
372
    -2
  0
ENDTAB
  0
TABLE
  2
BLOCK_RECORD
  5
1
100
AcDbSymbolTable
 70
    77
  0
BLOCK_RECORD
  5
A
100
AcDbSymbolTableRecord
100
AcDbBlockTableRecord
  2
*MODEL_SPACE
340
20
  0
BLOCK_RECORD
  5
B
100
AcDbSymbolTableRecord
100
AcDbBlockTableRecord
  2
*PAPER_SPACE
340
21
  0
BLOCK_RECORD
  5
29
100
AcDbSymbolTableRecord
100
AcDbBlockTableRecord
  2
*B0
340
0
  0
BLOCK_RECORD
  5
2C
100
AcDbSymbolTableRecord
100
AcDbBlockTableRecord
  2
*B1
340
0
  0
BLOCK_RECORD
  5
175
100
AcDbSymbolTableRecord
100
AcDbBlockTableRecord
  2
*B2
340
0
  0
BLOCK_RECORD
  5
1D0
100
AcDbSymbolTableRecord
100
AcDbBlockTableRecord
  2
*B3
340
0
  0
BLOCK_RECORD
  5
1D6
100
AcDbSymbolTableRecord
100
AcDbBlockTableRecord
  2
*B4
340
0
  0
BLOCK_RECORD
  5
1E1
100
AcDbSymbolTableRecord
100
AcDbBlockTableRecord
  2
*B5
340
0
  0
BLOCK_RECORD
  5
1E4
100
AcDbSymbolTableRecord
100
AcDbBlockTableRecord
  2
*B6
340
0
  0
BLOCK_RECORD
  5
1EB
100
AcDbSymbolTableRecord
100
AcDbBlockTableRecord
  2
*B7
340
0
  0
BLOCK_RECORD
  5
1F2
100
AcDbSymbolTableRecord
100
AcDbBlockTableRecord
  2
*B8
340
0
  0
BLOCK_RECORD
  5
1F9
100
AcDbSymbolTableRecord
100
AcDbBlockTableRecord
  2
*B9
340
0
  0
BLOCK_RECORD
  5
200
100
AcDbSymbolTableRecord
100
AcDbBlockTableRecord
  2
*B10
340
0
  0
BLOCK_RECORD
  5
207
100
AcDbSymbolTableRecord
100
AcDbBlockTableRecord
  2
*B11
340
0
  0
BLOCK_RECORD
  5
20E
100
AcDbSymbolTableRecord
100
AcDbBlockTableRecord
  2
*B12
340
0
  0
BLOCK_RECORD
  5
215
100
AcDbSymbolTableRecord
100
AcDbBlockTableRecord
  2
*B13
340
0
  0
BLOCK_RECORD
  5
21C
100
AcDbSymbolTableRecord
100
AcDbBlockTableRecord
  2
*B14
340
0
  0
BLOCK_RECORD
  5
223
100
AcDbSymbolTableRecord
100
AcDbBlockTableRecord
  2
*B15
340
0
  0
BLOCK_RECORD
  5
22A
100
AcDbSymbolTableRecord
100
AcDbBlockTableRecord
  2
*B16
340
0
  0
BLOCK_RECORD
  5
231
100
AcDbSymbolTableRecord
100
AcDbBlockTableRecord
  2
*B17
340
0
  0
BLOCK_RECORD
  5
238
100
AcDbSymbolTableRecord
100
AcDbBlockTableRecord
  2
*B18
340
0
  0
BLOCK_RECORD
  5
23F
100
AcDbSymbolTableRecord
100
AcDbBlockTableRecord
  2
*B19
340
0
  0
BLOCK_RECORD
  5
246
100
AcDbSymbolTableRecord
100
AcDbBlockTableRecord
  2
*B20
340
0
  0
BLOCK_RECORD
  5
24D
100
AcDbSymbolTableRecord
100
AcDbBlockTableRecord
  2
*B21
340
0
  0
BLOCK_RECORD
  5
252
100
AcDbSymbolTableRecord
100
AcDbBlockTableRecord
  2
*B22
340
0
  0
BLOCK_RECORD
  5
257
100
AcDbSymbolTableRecord
100
AcDbBlockTableRecord
  2
*B23
340
0
  0
BLOCK_RECORD
  5
25C
100
AcDbSymbolTableRecord
100
AcDbBlockTableRecord
  2
*B24
340
0
  0
BLOCK_RECORD
  5
265
100
AcDbSymbolTableRecord
100
AcDbBlockTableRecord
  2
*B25
340
0
  0
BLOCK_RECORD
  5
26A
100
AcDbSymbolTableRecord
100
AcDbBlockTableRecord
  2
*B26
340
0
  0
BLOCK_RECORD
  5
26F
100
AcDbSymbolTableRecord
100
AcDbBlockTableRecord
  2
*B27
340
0
  0
BLOCK_RECORD
  5
279
100
AcDbSymbolTableRecord
100
AcDbBlockTableRecord
  2
*B28
340
0
  0
BLOCK_RECORD
  5
27F
100
AcDbSymbolTableRecord
100
AcDbBlockTableRecord
  2
*B29
340
0
  0
BLOCK_RECORD
  5
298
100
AcDbSymbolTableRecord
100
AcDbBlockTableRecord
  2
*B30
340
0
  0
BLOCK_RECORD
  5
29D
100
AcDbSymbolTableRecord
100
AcDbBlockTableRecord
  2
*B31
340
0
  0
BLOCK_RECORD
  5
2A2
100
AcDbSymbolTableRecord
100
AcDbBlockTableRecord
  2
*B32
340
0
  0
BLOCK_RECORD
  5
2A7
100
AcDbSymbolTableRecord
100
AcDbBlockTableRecord
  2
*B33
340
0
  0
BLOCK_RECORD
  5
2AC
100
AcDbSymbolTableRecord
100
AcDbBlockTableRecord
  2
*B34
340
0
  0
BLOCK_RECORD
  5
2B1
100
AcDbSymbolTableRecord
100
AcDbBlockTableRecord
  2
*B35
340
0
  0
BLOCK_RECORD
  5
2B7
100
AcDbSymbolTableRecord
100
AcDbBlockTableRecord
  2
*B36
340
0
  0
BLOCK_RECORD
  5
2BE
100
AcDbSymbolTableRecord
100
AcDbBlockTableRecord
  2
*B37
340
0
  0
BLOCK_RECORD
  5
2C4
100
AcDbSymbolTableRecord
100
AcDbBlockTableRecord
  2
*B38
340
0
  0
BLOCK_RECORD
  5
2CA
100
AcDbSymbolTableRecord
100
AcDbBlockTableRecord
  2
*B39
340
0
  0
BLOCK_RECORD
  5
2CF
100
AcDbSymbolTableRecord
100
AcDbBlockTableRecord
  2
*B40
340
0
  0
BLOCK_RECORD
  5
2DB
100
AcDbSymbolTableRecord
100
AcDbBlockTableRecord
  2
*B41
340
0
  0
BLOCK_RECORD
  5
2E0
100
AcDbSymbolTableRecord
100
AcDbBlockTableRecord
  2
*B42
340
0
  0
BLOCK_RECORD
  5
2F0
100
AcDbSymbolTableRecord
100
AcDbBlockTableRecord
  2
*B43
340
0
  0
BLOCK_RECORD
  5
2FB
100
AcDbSymbolTableRecord
100
AcDbBlockTableRecord
  2
*B44
340
0
  0
BLOCK_RECORD
  5
307
100
AcDbSymbolTableRecord
100
AcDbBlockTableRecord
  2
*B45
340
0
  0
BLOCK_RECORD
  5
30C
100
AcDbSymbolTableRecord
100
AcDbBlockTableRecord
  2
*B46
340
0
  0
BLOCK_RECORD
  5
311
100
AcDbSymbolTableRecord
100
AcDbBlockTableRecord
  2
*B47
340
0
  0
BLOCK_RECORD
  5
31E
100
AcDbSymbolTableRecord
100
AcDbBlockTableRecord
  2
*B48
340
0
  0
BLOCK_RECORD
  5
323
100
AcDbSymbolTableRecord
100
AcDbBlockTableRecord
  2
*B49
340
0
  0
BLOCK_RECORD
  5
328
100
AcDbSymbolTableRecord
100
AcDbBlockTableRecord
  2
*B50
340
0
  0
BLOCK_RECORD
  5
32E
100
AcDbSymbolTableRecord
100
AcDbBlockTableRecord
  2
*B51
340
0
  0
BLOCK_RECORD
  5
334
100
AcDbSymbolTableRecord
100
AcDbBlockTableRecord
  2
*B52
340
0
  0
BLOCK_RECORD
  5
33A
100
AcDbSymbolTableRecord
100
AcDbBlockTableRecord
  2
*B53
340
0
  0
BLOCK_RECORD
  5
340
100
AcDbSymbolTableRecord
100
AcDbBlockTableRecord
  2
*B54
340
0
  0
BLOCK_RECORD
  5
346
100
AcDbSymbolTableRecord
100
AcDbBlockTableRecord
  2
*B55
340
0
  0
BLOCK_RECORD
  5
34D
100
AcDbSymbolTableRecord
100
AcDbBlockTableRecord
  2
*B56
340
0
  0
BLOCK_RECORD
  5
352
100
AcDbSymbolTableRecord
100
AcDbBlockTableRecord
  2
*B57
340
0
  0
BLOCK_RECORD
  5
357
100
AcDbSymbolTableRecord
100
AcDbBlockTableRecord
  2
*B58
340
0
  0
BLOCK_RECORD
  5
35C
100
AcDbSymbolTableRecord
100
AcDbBlockTableRecord
  2
*B59
340
0
  0
BLOCK_RECORD
  5
361
100
AcDbSymbolTableRecord
100
AcDbBlockTableRecord
  2
*B60
340
0
  0
BLOCK_RECORD
  5
366
100
AcDbSymbolTableRecord
100
AcDbBlockTableRecord
  2
*B61
340
0
  0
BLOCK_RECORD
  5
36B
100
AcDbSymbolTableRecord
100
AcDbBlockTableRecord
  2
*B62
340
0
  0
BLOCK_RECORD
  5
370
100
AcDbSymbolTableRecord
100
AcDbBlockTableRecord
  2
*B63
340
0
  0
BLOCK_RECORD
  5
375
100
AcDbSymbolTableRecord
100
AcDbBlockTableRecord
  2
*B64
340
0
  0
BLOCK_RECORD
  5
37A
100
AcDbSymbolTableRecord
100
AcDbBlockTableRecord
  2
*B65
340
0
  0
BLOCK_RECORD
  5
37F
100
AcDbSymbolTableRecord
100
AcDbBlockTableRecord
  2
*B66
340
0
  0
BLOCK_RECORD
  5
384
100
AcDbSymbolTableRecord
100
AcDbBlockTableRecord
  2
*B67
340
0
  0
BLOCK_RECORD
  5
389
100
AcDbSymbolTableRecord
100
AcDbBlockTableRecord
  2
*B68
340
0
  0
BLOCK_RECORD
  5
38E
100
AcDbSymbolTableRecord
100
AcDbBlockTableRecord
  2
*B69
340
0
  0
BLOCK_RECORD
  5
393
100
AcDbSymbolTableRecord
100
AcDbBlockTableRecord
  2
*B70
340
0
  0
BLOCK_RECORD
  5
398
100
AcDbSymbolTableRecord
100
AcDbBlockTableRecord
  2
*B71
340
0
  0
BLOCK_RECORD
  5
39D
100
AcDbSymbolTableRecord
100
AcDbBlockTableRecord
  2
*B72
340
0
  0
BLOCK_RECORD
  5
3A2
100
AcDbSymbolTableRecord
100
AcDbBlockTableRecord
  2
*B73
340
0
  0
BLOCK_RECORD
  5
3A7
100
AcDbSymbolTableRecord
100
AcDbBlockTableRecord
  2
*B74
340
0
  0
BLOCK_RECORD
  5
3AC
100
AcDbSymbolTableRecord
100
AcDbBlockTableRecord
  2
*B75
340
0
  0
BLOCK_RECORD
  5
3B1
100
AcDbSymbolTableRecord
100
AcDbBlockTableRecord
  2
*B76
340
0
  0
ENDTAB
  0
ENDSEC
  0
SECTION
  2
BLOCKS
  0
BLOCK
  5
D
100
AcDbEntity
  8
0
100
AcDbBlockBegin
  2
*MODEL_SPACE
 70
     0
 10
0.0
 20
0.0
 30
0.0
  3
*MODEL_SPACE
  1

  0
ENDBLK
  5
E
100
AcDbEntity
  8
0
100
AcDbBlockEnd
  0
BLOCK
  5
F
100
AcDbEntity
 67
     1
  8
0
100
AcDbBlockBegin
  2
*PAPER_SPACE
 70
     0
 10
0.0
 20
0.0
 30
0.0
  3
*PAPER_SPACE
  1

  0
ENDBLK
  5
10
100
AcDbEntity
 67
     1
  8
0
100
AcDbBlockEnd
  0
BLOCK
  5
2A
100
AcDbEntity
  8
0
100
AcDbBlockBegin
  2
*B0
 70
     0
 10
0.0
 20
0.0
 30
0.0
  3
*B0
  1

  0
ENDBLK
  5
2B
100
AcDbEntity
  8
0
100
AcDbBlockEnd
  0
BLOCK
  5
2D
100
AcDbEntity
  8
0
100
AcDbBlockBegin
  2
*B1
 70
     0
 10
0.0
 20
0.0
 30
0.0
  3
*B1
  1

  0
LINE
  5
2E
100
AcDbEntity
  8
0
  6
Continuous
 62
   174
100
AcDbLine
 10
600.09446
 20
399.290056
 30
0.0
 11
562.475866
 21
399.290056
 31
0.0
  0
LINE
  5
2F
100
AcDbEntity
  8
0
  6
HIDDEN
 62
   174
100
AcDbLine
 10
541.59446
 20
417.740056
 30
0.0
 11
541.59446
 21
429.890056
 31
0.0
  0
LINE
  5
30
100
AcDbEntity
  8
0
  6
HIDDEN
 62
   174
100
AcDbLine
 10
523.59446
 20
417.740056
 30
0.0
 11
523.59446
 21
429.890056
 31
0.0
  0
LINE
  5
31
100
AcDbEntity
  8
0
  6
HIDDEN
 62
   174
100
AcDbLine
 10
541.59446
 20
417.740056
 30
0.0
 11
541.59446
 21
429.890056
 31
0.0
  0
LINE
  5
32
100
AcDbEntity
  8
0
  6
HIDDEN
 62
   174
100
AcDbLine
 10
523.59446
 20
417.740056
 30
0.0
 11
523.59446
 21
429.890056
 31
0.0
  0
LINE
  5
33
100
AcDbEntity
  8
0
  6
HIDDEN
 62
   174
100
AcDbLine
 10
541.561136
 20
429.890056
 30
0.0
 11
523.562153
 21
429.890056
 31
0.0
  0
LINE
  5
34
100
AcDbEntity
  8
0
  6
HIDDEN
 62
   174
100
AcDbLine
 10
541.561136
 20
417.740056
 30
0.0
 11
537.280648
 21
417.740056
 31
0.0
  0
LINE
  5
35
100
AcDbEntity
  8
0
  6
HIDDEN
 62
   174
100
AcDbLine
 10
527.843242
 20
417.740056
 30
0.0
 11
523.562153
 21
417.740056
 31
0.0
  0
LINE
  5
36
100
AcDbEntity
  8
0
  6
HIDDEN
 62
   174
100
AcDbLine
 10
528.288976
 20
417.740056
 30
0.0
 11
527.843242
 21
417.740056
 31
0.0
  0
LINE
  5
37
100
AcDbEntity
  8
0
  6
HIDDEN
 62
   174
100
AcDbLine
 10
532.561644
 20
417.740056
 30
0.0
 11
528.288976
 21
417.740056
 31
0.0
  0
LINE
  5
38
100
AcDbEntity
  8
0
  6
HIDDEN
 62
   174
100
AcDbLine
 10
536.834914
 20
417.740056
 30
0.0
 11
532.561644
 21
417.740056
 31
0.0
  0
LINE
  5
39
100
AcDbEntity
  8
0
  6
HIDDEN
 62
   174
100
AcDbLine
 10
537.280648
 20
417.740056
 30
0.0
 11
536.834914
 21
417.740056
 31
0.0
  0
LINE
  5
3A
100
AcDbEntity
  8
0
  6
HIDDEN
 62
   174
100
AcDbLine
 10
550.110683
 20
399.290056
 30
0.0
 11
554.835701
 21
399.290056
 31
0.0
  0
LINE
  5
3B
100
AcDbEntity
  8
0
  6
Continuous
 62
   174
100
AcDbLine
 10
556.713054
 20
399.290056
 30
0.0
 11
556.713054
 21
393.890056
 31
0.0
  0
LINE
  5
3C
100
AcDbEntity
  8
0
  6
HIDDEN
 62
   174
100
AcDbLine
 10
498.814003
 20
305.690056
 30
0.0
 11
512.312939
 21
305.690056
 31
0.0
  0
LINE
  5
3D
100
AcDbEntity
  8
0
  6
HIDDEN
 62
   174
100
AcDbLine
 10
518.778786
 20
300.290056
 30
0.0
 11
516.445451
 21
300.290056
 31
0.0
  0
LINE
  5
3E
100
AcDbEntity
  8
0
  6
HIDDEN
 62
   174
100
AcDbLine
 10
553.283754
 20
300.290056
 30
0.0
 11
546.061182
 21
300.290056
 31
0.0
  0
LINE
  5
3F
100
AcDbEntity
  8
0
  6
Continuous
 62
   174
100
AcDbLine
 10
375.09446
 20
417.290056
 30
0.0
 11
303.09446
 21
417.290056
 31
0.0
  0
LINE
  5
40
100
AcDbEntity
  8
0
  6
HIDDEN
 62
   174
100
AcDbLine
 10
345.148333
 20
425.390056
 30
0.0
 11
339.074082
 21
425.390056
 31
0.0
  0
LINE
  5
41
100
AcDbEntity
  8
0
  6
Continuous
 62
   174
100
AcDbLine
 10
303.09446
 20
322.790056
 30
0.0
 11
309.84446
 21
322.790056
 31
0.0
  0
LINE
  5
42
100
AcDbEntity
  8
0
  6
Continuous
 62
   174
100
AcDbLine
 10
303.09446
 20
376.790056
 30
0.0
 11
303.09446
 21
322.790056
 31
0.0
  0
LINE
  5
43
100
AcDbEntity
  8
0
  6
HIDDEN
 62
   174
100
AcDbLine
 10
566.878334
 20
305.690056
 30
0.0
 11
566.418765
 21
305.690056
 31
0.0
  0
LINE
  5
44
100
AcDbEntity
  8
0
  6
HIDDEN
 62
   174
100
AcDbLine
 10
550.110683
 20
393.890056
 30
0.0
 11
556.67879
 21
393.890056
 31
0.0
  0
LINE
  5
45
100
AcDbEntity
  8
0
  6
HIDDEN
 62
   174
100
AcDbLine
 10
492.348757
 20
300.290056
 30
0.0
 11
492.064234
 21
300.290056
 31
0.0
  0
LINE
  5
46
100
AcDbEntity
  8
0
  6
HIDDEN
 62
   174
100
AcDbLine
 10
346.277405
 20
432.140056
 30
0.0
 11
345.464136
 21
432.140056
 31
0.0
  0
LINE
  5
47
100
AcDbEntity
  8
0
  6
HIDDEN
 62
   174
100
AcDbLine
 10
339.074082
 20
432.140056
 30
0.0
 11
345.148333
 21
432.140056
 31
0.0
  0
LINE
  5
48
100
AcDbEntity
  8
0
  6
Continuous
 62
   174
100
AcDbLine
 10
309.84446
 20
321.665056
 30
0.0
 11
309.84446
 21
322.790056
 31
0.0
  0
LINE
  5
49
100
AcDbEntity
  8
0
  6
Continuous
 62
   174
100
AcDbLine
 10
429.09446
 20
300.290056
 30
0.0
 11
465.09446
 21
300.290056
 31
0.0
  0
LINE
  5
4A
100
AcDbEntity
  8
0
  6
Continuous
 62
   174
100
AcDbLine
 10
429.09446
 20
399.290056
 30
0.0
 11
465.09446
 21
399.290056
 31
0.0
  0
ARC
  5
4B
100
AcDbEntity
  8
0
  6
Continuous
 62
   174
100
AcDbCircle
 10
569.94446
 20
302.540056
 30
0.0
 40
3.15
100
AcDbArc
 50
-90.0
 51
-46.10297
  0
LINE
  5
4C
100
AcDbEntity
  8
0
  6
Continuous
 62
   174
100
AcDbLine
 10
565.639182
 20
299.390056
 30
0.0
 11
559.560119
 21
299.390056
 31
0.0
  0
ARC
  5
4D
100
AcDbEntity
  8
0
  6
HIDDEN
 62
   174
100
AcDbCircle
 10
549.24446
 20
302.540056
 30
0.0
 40
3.15
100
AcDbArc
 50
90.0
 51
180.0
  0
LINE
  5
4E
100
AcDbEntity
  8
0
  6
HIDDEN
 62
   174
100
AcDbLine
 10
552.702074
 20
305.690056
 30
0.0
 11
552.241904
 21
305.690056
 31
0.0
  0
ARC
  5
4F
100
AcDbEntity
  8
0
  6
HIDDEN
 62
   174
100
AcDbCircle
 10
549.24446
 20
302.540056
 30
0.0
 40
3.15
100
AcDbArc
 50
180.0
 51
226.10297
  0
LINE
  5
50
100
AcDbEntity
  8
0
  6
HIDDEN
 62
   174
100
AcDbLine
 10
554.835701
 20
399.290056
 30
0.0
 11
556.508557
 21
399.290056
 31
0.0
  0
LINE
  5
51
100
AcDbEntity
  8
0
  6
HIDDEN
 62
   174
100
AcDbLine
 10
552.81035
 20
305.690056
 30
0.0
 11
566.309888
 21
305.690056
 31
0.0
  0
LINE
  5
52
100
AcDbEntity
  8
0
  6
Continuous
 62
   174
100
AcDbLine
 10
331.870158
 20
432.140056
 30
0.0
 11
330.749507
 21
432.140056
 31
0.0
  0
LINE
  5
53
100
AcDbEntity
  8
0
  6
Continuous
 62
   174
100
AcDbLine
 10
375.09446
 20
399.290056
 30
0.0
 11
375.09446
 21
417.290056
 31
0.0
  0
LINE
  5
54
100
AcDbEntity
  8
0
  6
Continuous
 62
   174
100
AcDbLine
 10
347.41946
 20
425.390056
 30
0.0
 11
347.41946
 21
432.140056
 31
0.0
  0
LINE
  5
55
100
AcDbEntity
  8
0
  6
Continuous
 62
   174
100
AcDbLine
 10
330.76946
 20
425.390056
 30
0.0
 11
330.76946
 21
432.140056
 31
0.0
  0
LINE
  5
56
100
AcDbEntity
  8
0
  6
HIDDEN
 62
   174
100
AcDbLine
 10
339.074082
 20
425.390056
 30
0.0
 11
330.749507
 21
425.390056
 31
0.0
  0
LINE
  5
57
100
AcDbEntity
  8
0
  6
HIDDEN
 62
   174
100
AcDbLine
 10
552.81035
 20
322.790056
 30
0.0
 11
566.309888
 21
322.790056
 31
0.0
  0
ARC
  5
58
100
AcDbEntity
  8
0
  6
HIDDEN
 62
   174
100
AcDbCircle
 10
569.94446
 20
302.540056
 30
0.0
 40
3.15
100
AcDbArc
 50
-180.0
 51
-90.0
  0
LINE
  5
59
100
AcDbEntity
  8
0
  6
Continuous
 62
   174
100
AcDbLine
 10
565.639182
 20
299.390056
 30
0.0
 11
559.560119
 21
299.390056
 31
0.0
  0
LINE
  5
5A
100
AcDbEntity
  8
0
  6
Continuous
 62
   174
100
AcDbLine
 10
569.909444
 20
299.390056
 30
0.0
 11
565.639182
 21
299.390056
 31
0.0
  0
LINE
  5
5B
100
AcDbEntity
  8
0
  6
Continuous
 62
   174
100
AcDbLine
 10
569.909444
 20
299.390056
 30
0.0
 11
569.402955
 21
299.390056
 31
0.0
  0
LINE
  5
5C
100
AcDbEntity
  8
0
  6
Continuous
 62
   174
100
AcDbLine
 10
569.402955
 20
299.390056
 30
0.0
 11
565.639182
 21
299.390056
 31
0.0
  0
LINE
  5
5D
100
AcDbEntity
  8
0
  6
HIDDEN
 62
   174
100
AcDbLine
 10
552.241904
 20
305.690056
 30
0.0
 11
549.717282
 21
305.690056
 31
0.0
  0
LINE
  5
5E
100
AcDbEntity
  8
0
  6
HIDDEN
 62
   174
100
AcDbLine
 10
564.285137
 20
399.290056
 30
0.0
 11
569.009555
 21
399.290056
 31
0.0
  0
LINE
  5
5F
100
AcDbEntity
  8
0
  6
Continuous
 62
   174
100
AcDbLine
 10
347.398055
 20
432.140056
 30
0.0
 11
346.277405
 21
432.140056
 31
0.0
  0
LINE
  5
60
100
AcDbEntity
  8
0
  6
HIDDEN
 62
   174
100
AcDbLine
 10
345.16946
 20
425.390056
 30
0.0
 11
345.16946
 21
432.140056
 31
0.0
  0
LINE
  5
61
100
AcDbEntity
  8
0
  6
Continuous
 62
   174
100
AcDbLine
 10
303.09446
 20
300.290056
 30
0.0
 11
309.84446
 21
300.290056
 31
0.0
  0
LINE
  5
62
100
AcDbEntity
  8
0
  6
HIDDEN
 62
   174
100
AcDbLine
 10
498.84446
 20
305.690056
 30
0.0
 11
498.84446
 21
322.790056
 31
0.0
  0
LINE
  5
63
100
AcDbEntity
  8
0
  6
Continuous
 62
   174
100
AcDbLine
 10
309.84446
 20
377.915056
 30
0.0
 11
309.84446
 21
376.790056
 31
0.0
  0
LINE
  5
64
100
AcDbEntity
  8
0
  6
HIDDEN
 62
   174
100
AcDbLine
 10
566.34446
 20
305.690056
 30
0.0
 11
566.34446
 21
322.790056
 31
0.0
  0
LINE
  5
65
100
AcDbEntity
  8
0
  6
Continuous
 62
   174
100
AcDbLine
 10
553.481657
 20
299.390056
 30
0.0
 11
549.210794
 21
299.390056
 31
0.0
  0
LINE
  5
66
100
AcDbEntity
  8
0
  6
Continuous
 62
   174
100
AcDbLine
 10
553.481657
 20
299.390056
 30
0.0
 11
549.717282
 21
299.390056
 31
0.0
  0
LINE
  5
67
100
AcDbEntity
  8
0
  6
Continuous
 62
   174
100
AcDbLine
 10
559.560119
 20
299.390056
 30
0.0
 11
553.481657
 21
299.390056
 31
0.0
  0
LINE
  5
68
100
AcDbEntity
  8
0
  6
HIDDEN
 62
   174
100
AcDbLine
 10
559.560119
 20
305.690056
 30
0.0
 11
552.702074
 21
305.690056
 31
0.0
  0
LINE
  5
69
100
AcDbEntity
  8
0
  6
HIDDEN
 62
   174
100
AcDbLine
 10
566.418765
 20
305.690056
 30
0.0
 11
559.560119
 21
305.690056
 31
0.0
  0
LINE
  5
6A
100
AcDbEntity
  8
0
  6
Continuous
 62
   174
100
AcDbLine
 10
562.475866
 20
399.290056
 30
0.0
 11
562.475866
 21
393.890056
 31
0.0
  0
LINE
  5
6B
100
AcDbEntity
  8
0
  6
HIDDEN
 62
   174
100
AcDbLine
 10
546.061182
 20
305.690056
 30
0.0
 11
573.059657
 21
305.690056
 31
0.0
  0
LINE
  5
6C
100
AcDbEntity
  8
0
  6
Continuous
 62
   174
100
AcDbLine
 10
303.09446
 20
417.290056
 30
0.0
 11
303.09446
 21
399.290056
 31
0.0
  0
LINE
  5
6D
100
AcDbEntity
  8
0
  6
HIDDEN
 62
   174
100
AcDbLine
 10
345.464136
 20
432.140056
 30
0.0
 11
339.074082
 21
432.140056
 31
0.0
  0
LINE
  5
6E
100
AcDbEntity
  8
0
  6
HIDDEN
 62
   174
100
AcDbLine
 10
332.99923
 20
432.140056
 30
0.0
 11
339.074082
 21
432.140056
 31
0.0
  0
LINE
  5
6F
100
AcDbEntity
  8
0
  6
Continuous
 62
   174
100
AcDbLine
 10
429.09446
 20
399.290056
 30
0.0
 11
375.09446
 21
399.290056
 31
0.0
  0
LINE
  5
70
100
AcDbEntity
  8
0
  6
Continuous
 62
   174
100
AcDbLine
 10
309.84446
 20
301.415056
 30
0.0
 11
309.84446
 21
321.665056
 31
0.0
  0
LINE
  5
71
100
AcDbEntity
  8
0
  6
Continuous
 62
   174
100
AcDbLine
 10
429.09446
 20
300.290056
 30
0.0
 11
429.09446
 21
399.290056
 31
0.0
  0
LINE
  5
72
100
AcDbEntity
  8
0
  6
Continuous
 62
   174
100
AcDbLine
 10
309.84446
 20
398.165056
 30
0.0
 11
309.84446
 21
377.915056
 31
0.0
  0
LINE
  5
73
100
AcDbEntity
  8
0
  6
Continuous
 62
   174
100
AcDbLine
 10
303.09446
 20
399.290056
 30
0.0
 11
309.84446
 21
399.290056
 31
0.0
  0
LINE
  5
74
100
AcDbEntity
  8
0
  6
HIDDEN
 62
   174
100
AcDbLine
 10
552.84446
 20
305.690056
 30
0.0
 11
552.84446
 21
322.790056
 31
0.0
  0
ARC
  5
75
100
AcDbEntity
  8
0
  6
Continuous
 62
   174
100
AcDbCircle
 10
549.24446
 20
302.540056
 30
0.0
 40
3.15
100
AcDbArc
 50
226.10297
 51
270.0
  0
LINE
  5
76
100
AcDbEntity
  8
0
  6
Continuous
 62
   174
100
AcDbLine
 10
559.560119
 20
299.390056
 30
0.0
 11
553.481657
 21
299.390056
 31
0.0
  0
LINE
  5
77
100
AcDbEntity
  8
0
  6
HIDDEN
 62
   174
100
AcDbLine
 10
552.702074
 20
305.690056
 30
0.0
 11
552.241904
 21
305.690056
 31
0.0
  0
LINE
  5
78
100
AcDbEntity
  8
0
  6
HIDDEN
 62
   174
100
AcDbLine
 10
552.241904
 20
305.690056
 30
0.0
 11
549.212598
 21
305.690056
 31
0.0
  0
ARC
  5
79
100
AcDbEntity
  8
0
  6
HIDDEN
 62
   174
100
AcDbCircle
 10
569.94446
 20
302.540056
 30
0.0
 40
3.15
100
AcDbArc
 50
0.0
 51
90.0
  0
LINE
  5
7A
100
AcDbEntity
  8
0
  6
Continuous
 62
   174
100
AcDbLine
 10
556.508557
 20
399.290056
 30
0.0
 11
562.611681
 21
399.290056
 31
0.0
  0
LINE
  5
7B
100
AcDbEntity
  8
0
  6
HIDDEN
 62
   174
100
AcDbLine
 10
562.611681
 20
399.290056
 30
0.0
 11
564.285137
 21
399.290056
 31
0.0
  0
LINE
  5
7C
100
AcDbEntity
  8
0
  6
HIDDEN
 62
   174
100
AcDbLine
 10
562.441448
 20
393.890056
 30
0.0
 11
569.009555
 21
393.890056
 31
0.0
  0
LINE
  5
7D
100
AcDbEntity
  8
0
  6
Continuous
 62
   174
100
AcDbLine
 10
562.475866
 20
393.890056
 30
0.0
 11
556.713054
 21
393.890056
 31
0.0
  0
LINE
  5
7E
100
AcDbEntity
  8
0
  6
HIDDEN
 62
   174
100
AcDbLine
 10
494.682092
 20
300.290056
 30
0.0
 11
492.348757
 21
300.290056
 31
0.0
  0
LINE
  5
7F
100
AcDbEntity
  8
0
  6
HIDDEN
 62
   174
100
AcDbLine
 10
496.018091
 20
300.290056
 30
0.0
 11
495.497166
 21
300.290056
 31
0.0
  0
LINE
  5
80
100
AcDbEntity
  8
0
  6
HIDDEN
 62
   174
100
AcDbLine
 10
505.563771
 20
300.290056
 30
0.0
 11
496.018091
 21
300.290056
 31
0.0
  0
LINE
  5
81
100
AcDbEntity
  8
0
  6
HIDDEN
 62
   174
100
AcDbLine
 10
515.108851
 20
300.290056
 30
0.0
 11
505.563771
 21
300.290056
 31
0.0
  0
LINE
  5
82
100
AcDbEntity
  8
0
  6
HIDDEN
 62
   174
100
AcDbLine
 10
565.837085
 20
300.290056
 30
0.0
 11
553.283754
 21
300.290056
 31
0.0
  0
LINE
  5
83
100
AcDbEntity
  8
0
  6
HIDDEN
 62
   174
100
AcDbLine
 10
332.683426
 20
432.140056
 30
0.0
 11
331.870158
 21
432.140056
 31
0.0
  0
LINE
  5
84
100
AcDbEntity
  8
0
  6
HIDDEN
 62
   174
100
AcDbLine
 10
333.01946
 20
425.390056
 30
0.0
 11
333.01946
 21
432.140056
 31
0.0
  0
LINE
  5
85
100
AcDbEntity
  8
0
  6
HIDDEN
 62
   174
100
AcDbLine
 10
347.398055
 20
425.390056
 30
0.0
 11
339.074082
 21
425.390056
 31
0.0
  0
LINE
  5
86
100
AcDbEntity
  8
0
  6
Continuous
 62
   174
100
AcDbLine
 10
303.09446
 20
376.790056
 30
0.0
 11
309.84446
 21
376.790056
 31
0.0
  0
LINE
  5
87
100
AcDbEntity
  8
0
  6
Continuous
 62
   174
100
AcDbLine
 10
549.717282
 20
299.390056
 30
0.0
 11
549.210794
 21
299.390056
 31
0.0
  0
LINE
  5
88
100
AcDbEntity
  8
0
  6
HIDDEN
 62
   174
100
AcDbLine
 10
559.560119
 20
305.690056
 30
0.0
 11
552.702074
 21
305.690056
 31
0.0
  0
LINE
  5
89
100
AcDbEntity
  8
0
  6
HIDDEN
 62
   174
100
AcDbLine
 10
515.629776
 20
300.290056
 30
0.0
 11
515.108851
 21
300.290056
 31
0.0
  0
LINE
  5
8A
100
AcDbEntity
  8
0
  6
HIDDEN
 62
   174
100
AcDbLine
 10
516.445451
 20
300.290056
 30
0.0
 11
515.629776
 21
300.290056
 31
0.0
  0
LINE
  5
8B
100
AcDbEntity
  8
0
  6
HIDDEN
 62
   174
100
AcDbLine
 10
573.059657
 20
300.290056
 30
0.0
 11
565.837085
 21
300.290056
 31
0.0
  0
LINE
  5
8C
100
AcDbEntity
  8
0
  6
HIDDEN
 62
   174
100
AcDbLine
 10
339.074082
 20
425.390056
 30
0.0
 11
332.99923
 21
425.390056
 31
0.0
  0
LINE
  5
8D
100
AcDbEntity
  8
0
  6
HIDDEN
 62
   174
100
AcDbLine
 10
498.84446
 20
305.690056
 30
0.0
 11
498.84446
 21
322.790056
 31
0.0
  0
LINE
  5
8E
100
AcDbEntity
  8
0
  6
Continuous
 62
   174
100
AcDbLine
 10
309.84446
 20
399.290056
 30
0.0
 11
309.84446
 21
398.165056
 31
0.0
  0
LINE
  5
8F
100
AcDbEntity
  8
0
  6
HIDDEN
 62
   174
100
AcDbLine
 10
566.34446
 20
305.690056
 30
0.0
 11
566.34446
 21
322.790056
 31
0.0
  0
LINE
  5
90
100
AcDbEntity
  8
0
  6
HIDDEN
 62
   174
100
AcDbLine
 10
552.84446
 20
305.690056
 30
0.0
 11
552.84446
 21
322.790056
 31
0.0
  0
LINE
  5
91
100
AcDbEntity
  8
0
  6
Continuous
 62
   174
100
AcDbLine
 10
556.713054
 20
399.290056
 30
0.0
 11
465.09446
 21
399.290056
 31
0.0
  0
LINE
  5
92
100
AcDbEntity
  8
0
  6
HIDDEN
 62
   174
100
AcDbLine
 10
492.064234
 20
305.690056
 30
0.0
 11
519.062708
 21
305.690056
 31
0.0
  0
LINE
  5
93
100
AcDbEntity
  8
0
  6
HIDDEN
 62
   174
100
AcDbLine
 10
519.062708
 20
300.290056
 30
0.0
 11
518.778786
 21
300.290056
 31
0.0
  0
LINE
  5
94
100
AcDbEntity
  8
0
  6
HIDDEN
 62
   174
100
AcDbLine
 10
495.497166
 20
300.290056
 30
0.0
 11
494.682092
 21
300.290056
 31
0.0
  0
LINE
  5
95
100
AcDbEntity
  8
0
  6
Continuous
 62
   174
100
AcDbLine
 10
309.84446
 20
300.290056
 30
0.0
 11
429.09446
 21
300.290056
 31
0.0
  0
LINE
  5
96
100
AcDbEntity
  8
0
  6
HIDDEN
 62
   174
100
AcDbLine
 10
339.074082
 20
432.140056
 30
0.0
 11
332.683426
 21
432.140056
 31
0.0
  0
LINE
  5
97
100
AcDbEntity
  8
0
  6
Continuous
 62
   174
100
AcDbLine
 10
309.84446
 20
300.290056
 30
0.0
 11
309.84446
 21
301.415056
 31
0.0
  0
LINE
  5
98
100
AcDbEntity
  8
0
  6
HIDDEN
 62
   174
100
AcDbLine
 10
600.09446
 20
318.377838
 30
0.0
 11
600.09446
 21
358.876452
 31
0.0
  0
LINE
  5
99
100
AcDbEntity
  8
0
  6
HIDDEN
 62
   174
100
AcDbLine
 10
512.34446
 20
305.690056
 30
0.0
 11
512.34446
 21
322.790056
 31
0.0
  0
LINE
  5
9A
100
AcDbEntity
  8
0
  6
HIDDEN
 62
   174
100
AcDbLine
 10
512.34446
 20
305.690056
 30
0.0
 11
512.34446
 21
322.790056
 31
0.0
  0
LINE
  5
9B
100
AcDbEntity
  8
0
  6
HIDDEN
 62
   174
100
AcDbLine
 10
498.814003
 20
322.790056
 30
0.0
 11
512.312939
 21
322.790056
 31
0.0
  0
ARC
  5
9C
100
AcDbEntity
  8
0
  6
Continuous
 62
   174
100
AcDbCircle
 10
515.94446
 20
302.540068
 30
0.0
 40
3.15
100
AcDbArc
 50
-90.0
 51
-46.10351
  0
LINE
  5
9D
100
AcDbEntity
  8
0
  6
Continuous
 62
   174
100
AcDbLine
 10
515.406608
 20
299.390068
 30
0.0
 11
505.563771
 21
299.390068
 31
0.0
  0
LINE
  5
9E
100
AcDbEntity
  8
0
  6
HIDDEN
 62
   174
100
AcDbLine
 10
512.881385
 20
305.690068
 30
0.0
 11
512.421816
 21
305.690068
 31
0.0
  0
LINE
  5
9F
100
AcDbEntity
  8
0
  6
HIDDEN
 62
   174
100
AcDbLine
 10
303.09446
 20
398.165056
 30
0.0
 11
309.84446
 21
398.165056
 31
0.0
  0
LINE
  5
A0
100
AcDbEntity
  8
0
  6
HIDDEN
 62
   174
100
AcDbLine
 10
303.09446
 20
321.753023
 30
0.0
 11
303.09446
 21
301.503716
 31
0.0
  0
LINE
  5
A1
100
AcDbEntity
  8
0
  6
Continuous
 62
   174
100
AcDbLine
 10
546.176676
 20
417.740056
 30
0.0
 11
541.634522
 21
417.740056
 31
0.0
  0
LINE
  5
A2
100
AcDbEntity
  8
0
  6
Continuous
 62
   174
100
AcDbLine
 10
347.938831
 20
425.390056
 30
0.0
 11
347.107516
 21
425.390056
 31
0.0
  0
LINE
  5
A3
100
AcDbEntity
  8
0
  6
Continuous
 62
   174
100
AcDbLine
 10
519.09446
 20
417.740056
 30
0.0
 11
519.09446
 21
423.140056
 31
0.0
  0
ARC
  5
A4
100
AcDbEntity
  8
0
  6
HIDDEN
 62
   174
100
AcDbCircle
 10
303.09446
 20
380.165056
 30
0.0
 40
2.25
100
AcDbArc
 50
180.0
 51
225.0
  0
LINE
  5
A5
100
AcDbEntity
  8
0
  6
HIDDEN
 62
   174
100
AcDbLine
 10
354.84446
 20
457.565056
 30
0.0
 11
358.44446
 21
457.565056
 31
0.0
  0
LINE
  5
A6
100
AcDbEntity
  8
0
  6
Continuous
 62
   174
100
AcDbLine
 10
600.09446
 20
318.290056
 30
0.0
 11
604.59446
 21
318.290056
 31
0.0
  0
ARC
  5
A7
100
AcDbEntity
  8
0
  6
HIDDEN
 62
   174
100
AcDbCircle
 10
303.09446
 20
395.915056
 30
0.0
 40
2.25
100
AcDbArc
 50
-270.0
 51
-180.0
  0
ARC
  5
A8
100
AcDbEntity
  8
0
  6
HIDDEN
 62
   174
100
AcDbCircle
 10
303.09446
 20
380.165056
 30
0.0
 40
2.25
100
AcDbArc
 50
225.0
 51
270.0
  0
LINE
  5
A9
100
AcDbEntity
  8
0
  6
Continuous
 62
   174
100
AcDbLine
 10
541.634522
 20
417.740056
 30
0.0
 11
532.561644
 21
417.740056
 31
0.0
  0
LINE
  5
AA
100
AcDbEntity
  8
0
  6
HIDDEN
 62
   174
100
AcDbLine
 10
438.09446
 20
399.290056
 30
0.0
 11
438.09446
 21
398.840056
 31
0.0
  0
ARC
  5
AB
100
AcDbEntity
  8
0
  6
Continuous
 62
   174
100
AcDbCircle
 10
303.09446
 20
380.165056
 30
0.0
 40
2.25
100
AcDbArc
 50
180.0
 51
270.0
  0
LINE
  5
AC
100
AcDbEntity
  8
0
  6
Continuous
 62
   174
100
AcDbLine
 10
331.89446
 20
454.640056
 30
0.0
 11
346.29446
 21
454.640056
 31
0.0
  0
ARC
  5
AD
100
AcDbEntity
  8
0
  6
Continuous
 62
   174
100
AcDbCircle
 10
303.09446
 20
303.665056
 30
0.0
 40
2.25
100
AcDbArc
 50
180.0
 51
225.0
  0
LINE
  5
AE
100
AcDbEntity
  8
0
  6
Continuous
 62
   174
100
AcDbLine
 10
350.34446
 20
417.290056
 30
0.0
 11
350.34446
 21
425.390056
 31
0.0
  0
LINE
  5
AF
100
AcDbEntity
  8
0
  6
HIDDEN
 62
   174
100
AcDbLine
 10
537.258391
 20
417.740056
 30
0.0
 11
536.853561
 21
417.740056
 31
0.0
  0
LINE
  5
B0
100
AcDbEntity
  8
0
  6
HIDDEN
 62
   174
100
AcDbLine
 10
505.563771
 20
305.690068
 30
0.0
 11
498.705126
 21
305.690068
 31
0.0
  0
LINE
  5
B1
100
AcDbEntity
  8
0
  6
HIDDEN
 62
   174
100
AcDbLine
 10
346.29446
 20
425.390056
 30
0.0
 11
346.29446
 21
432.140056
 31
0.0
  0
LINE
  5
B2
100
AcDbEntity
  8
0
  6
HIDDEN
 62
   174
100
AcDbLine
 10
300.84446
 20
319.503301
 30
0.0
 11
300.84446
 21
303.753439
 31
0.0
  0
LINE
  5
B3
100
AcDbEntity
  8
0
  6
HIDDEN
 62
   174
100
AcDbLine
 10
505.563771
 20
305.690068
 30
0.0
 11
498.705126
 21
305.690068
 31
0.0
  0
LINE
  5
B4
100
AcDbEntity
  8
0
  6
HIDDEN
 62
   174
100
AcDbLine
 10
309.84446
 20
398.249603
 30
0.0
 11
309.84446
 21
378.000296
 31
0.0
  0
LINE
  5
B5
100
AcDbEntity
  8
0
  6
HIDDEN
 62
   174
100
AcDbLine
 10
300.84446
 20
319.503301
 30
0.0
 11
300.84446
 21
303.753439
 31
0.0
  0
LINE
  5
B6
100
AcDbEntity
  8
0
  6
HIDDEN
 62
   174
100
AcDbLine
 10
523.562153
 20
399.290056
 30
0.0
 11
532.561644
 21
399.290056
 31
0.0
  0
LINE
  5
B7
100
AcDbEntity
  8
0
  6
HIDDEN
 62
   174
100
AcDbLine
 10
303.09446
 20
311.628671
 30
0.0
 11
303.09446
 21
322.432752
 31
0.0
  0
LINE
  5
B8
100
AcDbEntity
  8
0
  6
HIDDEN
 62
   174
100
AcDbLine
 10
512.421816
 20
305.690068
 30
0.0
 11
505.563771
 21
305.690068
 31
0.0
  0
LINE
  5
B9
100
AcDbEntity
  8
0
  6
Continuous
 62
   174
100
AcDbLine
 10
600.09446
 20
318.290056
 30
0.0
 11
604.59446
 21
318.290056
 31
0.0
  0
LINE
  5
BA
100
AcDbEntity
  8
0
  6
HIDDEN
 62
   174
100
AcDbLine
 10
532.561644
 20
417.740056
 30
0.0
 11
522.454736
 21
417.740056
 31
0.0
  0
LINE
  5
BB
100
AcDbEntity
  8
0
  6
HIDDEN
 62
   174
100
AcDbLine
 10
541.561136
 20
417.740056
 30
0.0
 11
537.258391
 21
417.740056
 31
0.0
  0
LINE
  5
BC
100
AcDbEntity
  8
0
  6
Continuous
 62
   174
100
AcDbLine
 10
600.09446
 20
358.790056
 30
0.0
 11
604.59446
 21
358.790056
 31
0.0
  0
LINE
  5
BD
100
AcDbEntity
  8
0
  6
Continuous
 62
   174
100
AcDbLine
 10
327.84446
 20
417.290056
 30
0.0
 11
327.84446
 21
425.390056
 31
0.0
  0
LINE
  5
BE
100
AcDbEntity
  8
0
  6
Continuous
 62
   174
100
AcDbLine
 10
505.563771
 20
299.390068
 30
0.0
 11
495.214447
 21
299.390068
 31
0.0
  0
LINE
  5
BF
100
AcDbEntity
  8
0
  6
HIDDEN
 62
   174
100
AcDbLine
 10
303.09446
 20
321.665056
 30
0.0
 11
309.84446
 21
321.665056
 31
0.0
  0
LINE
  5
C0
100
AcDbEntity
  8
0
  6
Continuous
 62
   174
100
AcDbLine
 10
532.561644
 20
417.740056
 30
0.0
 11
523.489368
 21
417.740056
 31
0.0
  0
LINE
  5
C1
100
AcDbEntity
  8
0
  6
HIDDEN
 62
   174
100
AcDbLine
 10
569.04446
 20
399.290056
 30
0.0
 11
569.04446
 21
393.890056
 31
0.0
  0
ARC
  5
C2
100
AcDbEntity
  8
0
  6
HIDDEN
 62
   174
100
AcDbCircle
 10
495.24446
 20
302.540068
 30
0.0
 40
3.15
100
AcDbArc
 50
180.0
 51
226.10351
  0
ARC
  5
C3
100
AcDbEntity
  8
0
  6
Continuous
 62
   174
100
AcDbCircle
 10
303.09446
 20
319.415056
 30
0.0
 40
2.25
100
AcDbArc
 50
-270.0
 51
-180.0
  0
ARC
  5
C4
100
AcDbEntity
  8
0
  6
HIDDEN
 62
   174
100
AcDbCircle
 10
303.09446
 20
395.915056
 30
0.0
 40
2.25
100
AcDbArc
 50
-270.0
 51
-180.0
  0
LINE
  5
C5
100
AcDbEntity
  8
0
  6
HIDDEN
 62
   174
100
AcDbLine
 10
354.84446
 20
451.715056
 30
0.0
 11
358.44446
 21
451.715056
 31
0.0
  0
LINE
  5
C6
100
AcDbEntity
  8
0
  6
Continuous
 62
   174
100
AcDbLine
 10
303.09446
 20
377.915056
 30
0.0
 11
309.84446
 21
377.915056
 31
0.0
  0
ARC
  5
C7
100
AcDbEntity
  8
0
  6
HIDDEN
 62
   174
100
AcDbCircle
 10
515.94446
 20
302.540068
 30
0.0
 40
3.15
100
AcDbArc
 50
-46.10351
 51
0.0
  0
LINE
  5
C8
100
AcDbEntity
  8
0
  6
Continuous
 62
   174
100
AcDbLine
 10
303.09446
 20
321.665056
 30
0.0
 11
309.84446
 21
321.665056
 31
0.0
  0
LINE
  5
C9
100
AcDbEntity
  8
0
  6
HIDDEN
 62
   174
100
AcDbLine
 10
354.84446
 20
451.796607
 30
0.0
 11
354.84446
 21
457.646487
 31
0.0
  0
LINE
  5
CA
100
AcDbEntity
  8
0
  6
Continuous
 62
   174
100
AcDbLine
 10
541.854081
 20
429.890056
 30
0.0
 11
523.269809
 21
429.890056
 31
0.0
  0
ARC
  5
CB
100
AcDbEntity
  8
0
  6
HIDDEN
 62
   174
100
AcDbCircle
 10
303.09446
 20
319.415056
 30
0.0
 40
2.25
100
AcDbArc
 50
-270.0
 51
-180.0
  0
LINE
  5
CC
100
AcDbEntity
  8
0
  6
Continuous
 62
   174
100
AcDbLine
 10
303.09446
 20
322.432752
 30
0.0
 11
303.09446
 21
322.877885
 31
0.0
  0
LINE
  5
CD
100
AcDbEntity
  8
0
  6
HIDDEN
 62
   174
100
AcDbLine
 10
438.067886
 20
399.290056
 30
0.0
 11
456.066869
 21
399.290056
 31
0.0
  0
LINE
  5
CE
100
AcDbEntity
  8
0
  6
Continuous
 62
   174
100
AcDbLine
 10
358.44446
 20
417.290056
 30
0.0
 11
358.44446
 21
465.440056
 31
0.0
  0
LINE
  5
CF
100
AcDbEntity
  8
0
  6
Continuous
 62
   174
100
AcDbLine
 10
600.09446
 20
358.790056
 30
0.0
 11
604.59446
 21
358.790056
 31
0.0
  0
ARC
  5
D0
100
AcDbEntity
  8
0
  6
HIDDEN
 62
   174
100
AcDbCircle
 10
569.94446
 20
302.540056
 30
0.0
 40
3.15
100
AcDbArc
 50
-46.10297
 51
0.0
  0
ARC
  5
D1
100
AcDbEntity
  8
0
  6
HIDDEN
 62
   174
100
AcDbCircle
 10
303.09446
 20
303.665056
 30
0.0
 40
2.25
100
AcDbArc
 50
180.0
 51
225.0
  0
LINE
  5
D2
100
AcDbEntity
  8
0
  6
HIDDEN
 62
   174
100
AcDbLine
 10
346.29446
 20
417.290056
 30
0.0
 11
346.29446
 21
425.390056
 31
0.0
  0
LINE
  5
D3
100
AcDbEntity
  8
0
  6
HIDDEN
 62
   174
100
AcDbLine
 10
532.561644
 20
417.740056
 30
0.0
 11
528.270329
 21
417.740056
 31
0.0
  0
LINE
  5
D4
100
AcDbEntity
  8
0
  6
Continuous
 62
   174
100
AcDbLine
 10
510.09446
 20
399.290056
 30
0.0
 11
510.09446
 21
417.740056
 31
0.0
  0
LINE
  5
D5
100
AcDbEntity
  8
0
  6
HIDDEN
 62
   174
100
AcDbLine
 10
303.09446
 20
377.316958
 30
0.0
 11
303.09446
 21
388.124649
 31
0.0
  0
LINE
  5
D6
100
AcDbEntity
  8
0
  6
HIDDEN
 62
   174
100
AcDbLine
 10
519.062708
 20
423.140056
 30
0.0
 11
546.061182
 21
423.140056
 31
0.0
  0
ARC
  5
D7
100
AcDbEntity
  8
0
  6
Continuous
 62
   174
100
AcDbCircle
 10
303.09446
 20
303.665056
 30
0.0
 40
2.25
100
AcDbArc
 50
180.0
 51
225.0
  0
LINE
  5
D8
100
AcDbEntity
  8
0
  6
HIDDEN
 62
   174
100
AcDbLine
 10
303.09446
 20
398.249603
 30
0.0
 11
303.09446
 21
378.000296
 31
0.0
  0
LINE
  5
D9
100
AcDbEntity
  8
0
  6
HIDDEN
 62
   174
100
AcDbLine
 10
438.09446
 20
399.290056
 30
0.0
 11
438.09446
 21
398.840056
 31
0.0
  0
LINE
  5
DA
100
AcDbEntity
  8
0
  6
HIDDEN
 62
   174
100
AcDbLine
 10
546.09446
 20
300.290056
 30
0.0
 11
546.09446
 21
305.690056
 31
0.0
  0
LINE
  5
DB
100
AcDbEntity
  8
0
  6
Continuous
 62
   174
100
AcDbLine
 10
303.09446
 20
398.929332
 30
0.0
 11
303.09446
 21
399.374464
 31
0.0
  0
LINE
  5
DC
100
AcDbEntity
  8
0
  6
HIDDEN
 62
   174
100
AcDbLine
 10
339.074082
 20
417.290056
 30
0.0
 11
327.824266
 21
417.290056
 31
0.0
  0
LINE
  5
DD
100
AcDbEntity
  8
0
  6
HIDDEN
 62
   174
100
AcDbLine
 10
346.29446
 20
432.140056
 30
0.0
 11
346.29446
 21
454.640056
 31
0.0
  0
LINE
  5
DE
100
AcDbEntity
  8
0
  6
HIDDEN
 62
   174
100
AcDbLine
 10
331.89446
 20
417.290056
 30
0.0
 11
346.29446
 21
417.290056
 31
0.0
  0
LINE
  5
DF
100
AcDbEntity
  8
0
  6
HIDDEN
 62
   174
100
AcDbLine
 10
555.060674
 20
399.290056
 30
0.0
 11
552.03979
 21
399.290056
 31
0.0
  0
LINE
  5
E0
100
AcDbEntity
  8
0
  6
HIDDEN
 62
   174
100
AcDbLine
 10
331.89446
 20
417.290056
 30
0.0
 11
346.29446
 21
417.290056
 31
0.0
  0
LINE
  5
E1
100
AcDbEntity
  8
0
  6
Continuous
 62
   174
100
AcDbLine
 10
519.09446
 20
417.740056
 30
0.0
 11
519.09446
 21
423.140056
 31
0.0
  0
LINE
  5
E2
100
AcDbEntity
  8
0
  6
Continuous
 62
   174
100
AcDbLine
 10
429.09446
 20
300.290056
 30
0.0
 11
429.09446
 21
399.290056
 31
0.0
  0
LINE
  5
E3
100
AcDbEntity
  8
0
  6
HIDDEN
 62
   174
100
AcDbLine
 10
573.09446
 20
300.290056
 30
0.0
 11
573.09446
 21
305.690056
 31
0.0
  0
LINE
  5
E4
100
AcDbEntity
  8
0
  6
HIDDEN
 62
   174
100
AcDbLine
 10
350.323296
 20
417.290056
 30
0.0
 11
339.074082
 21
417.290056
 31
0.0
  0
ARC
  5
E5
100
AcDbEntity
  8
0
  6
Continuous
 62
   174
100
AcDbCircle
 10
303.09446
 20
303.665056
 30
0.0
 40
2.25
100
AcDbArc
 50
225.0
 51
270.0
  0
LINE
  5
E6
100
AcDbEntity
  8
0
  6
HIDDEN
 62
   174
100
AcDbLine
 10
303.09446
 20
399.290056
 30
0.0
 11
309.84446
 21
399.290056
 31
0.0
  0
ARC
  5
E7
100
AcDbEntity
  8
0
  6
HIDDEN
 62
   174
100
AcDbCircle
 10
569.94446
 20
302.540056
 30
0.0
 40
3.15
100
AcDbArc
 50
-270.0
 51
-180.0
  0
LINE
  5
E8
100
AcDbEntity
  8
0
  6
HIDDEN
 62
   174
100
AcDbLine
 10
303.09446
 20
388.124649
 30
0.0
 11
303.09446
 21
378.000296
 31
0.0
  0
LINE
  5
E9
100
AcDbEntity
  8
0
  6
HIDDEN
 62
   174
100
AcDbLine
 10
573.09446
 20
300.290056
 30
0.0
 11
573.09446
 21
305.690056
 31
0.0
  0
LINE
  5
EA
100
AcDbEntity
  8
0
  6
Continuous
 62
   174
100
AcDbLine
 10
331.040046
 20
425.390056
 30
0.0
 11
330.208732
 21
425.390056
 31
0.0
  0
LINE
  5
EB
100
AcDbEntity
  8
0
  6
Continuous
 62
   174
100
AcDbLine
 10
547.327403
 20
423.140056
 30
0.0
 11
517.796487
 21
423.140056
 31
0.0
  0
ARC
  5
EC
100
AcDbEntity
  8
0
  6
HIDDEN
 62
   174
100
AcDbCircle
 10
549.24446
 20
302.540056
 30
0.0
 40
3.15
100
AcDbArc
 50
-90.0
 51
0.0
  0
LINE
  5
ED
100
AcDbEntity
  8
0
  6
Continuous
 62
   174
100
AcDbLine
 10
515.913096
 20
299.390068
 30
0.0
 11
515.406608
 21
299.390068
 31
0.0
  0
LINE
  5
EE
100
AcDbEntity
  8
0
  6
HIDDEN
 62
   174
100
AcDbLine
 10
546.09446
 20
300.290056
 30
0.0
 11
546.09446
 21
305.690056
 31
0.0
  0
LINE
  5
EF
100
AcDbEntity
  8
0
  6
HIDDEN
 62
   174
100
AcDbLine
 10
515.406608
 20
305.690068
 30
0.0
 11
505.563771
 21
305.690068
 31
0.0
  0
LINE
  5
F0
100
AcDbEntity
  8
0
  6
Continuous
 62
   174
100
AcDbLine
 10
303.09446
 20
301.415056
 30
0.0
 11
309.84446
 21
301.415056
 31
0.0
  0
LINE
  5
F1
100
AcDbEntity
  8
0
  6
HIDDEN
 62
   174
100
AcDbLine
 10
303.09446
 20
376.790056
 30
0.0
 11
309.84446
 21
376.790056
 31
0.0
  0
LINE
  5
F2
100
AcDbEntity
  8
0
  6
Continuous
 62
   174
100
AcDbLine
 10
555.060674
 20
429.890056
 30
0.0
 11
541.854081
 21
429.890056
 31
0.0
  0
LINE
  5
F3
100
AcDbEntity
  8
0
  6
Continuous
 62
   174
100
AcDbLine
 10
523.489368
 20
417.740056
 30
0.0
 11
518.947214
 21
417.740056
 31
0.0
  0
LINE
  5
F4
100
AcDbEntity
  8
0
  6
Continuous
 62
   174
100
AcDbLine
 10
354.84446
 20
417.290056
 30
0.0
 11
354.84446
 21
465.440056
 31
0.0
  0
LINE
  5
F5
100
AcDbEntity
  8
0
  6
Continuous
 62
   174
100
AcDbLine
 10
303.09446
 20
301.415056
 30
0.0
 11
309.84446
 21
301.415056
 31
0.0
  0
LINE
  5
F6
100
AcDbEntity
  8
0
  6
HIDDEN
 62
   174
100
AcDbLine
 10
303.09446
 20
321.753023
 30
0.0
 11
303.09446
 21
301.503716
 31
0.0
  0
LINE
  5
F7
100
AcDbEntity
  8
0
  6
Continuous
 62
   174
100
AcDbLine
 10
523.269809
 20
429.890056
 30
0.0
 11
510.063216
 21
429.890056
 31
0.0
  0
LINE
  5
F8
100
AcDbEntity
  8
0
  6
HIDDEN
 62
   174
100
AcDbLine
 10
569.402955
 20
305.690056
 30
0.0
 11
559.560119
 21
305.690056
 31
0.0
  0
LINE
  5
F9
100
AcDbEntity
  8
0
  6
HIDDEN
 62
   174
100
AcDbLine
 10
498.245557
 20
305.690068
 30
0.0
 11
495.720935
 21
305.690068
 31
0.0
  0
LINE
  5
FA
100
AcDbEntity
  8
0
  6
HIDDEN
 62
   174
100
AcDbLine
 10
303.09446
 20
377.915056
 30
0.0
 11
309.84446
 21
377.915056
 31
0.0
  0
LINE
  5
FB
100
AcDbEntity
  8
0
  6
HIDDEN
 62
   174
100
AcDbLine
 10
358.44446
 20
451.796607
 30
0.0
 11
358.44446
 21
457.646487
 31
0.0
  0
LINE
  5
FC
100
AcDbEntity
  8
0
  6
HIDDEN
 62
   174
100
AcDbLine
 10
303.09446
 20
376.790056
 30
0.0
 11
309.84446
 21
376.790056
 31
0.0
  0
LINE
  5
FD
100
AcDbEntity
  8
0
  6
Continuous
 62
   174
100
AcDbLine
 10
330.208732
 20
425.390056
 30
0.0
 11
327.824266
 21
425.390056
 31
0.0
  0
LINE
  5
FE
100
AcDbEntity
  8
0
  6
HIDDEN
 62
   174
100
AcDbLine
 10
309.84446
 20
321.753023
 30
0.0
 11
309.84446
 21
301.503716
 31
0.0
  0
LINE
  5
FF
100
AcDbEntity
  8
0
  6
HIDDEN
 62
   174
100
AcDbLine
 10
303.09446
 20
301.415056
 30
0.0
 11
309.84446
 21
301.415056
 31
0.0
  0
LINE
  5
100
100
AcDbEntity
  8
0
  6
Continuous
 62
   174
100
AcDbLine
 10
300.84446
 20
319.503301
 30
0.0
 11
300.84446
 21
303.753439
 31
0.0
  0
LINE
  5
101
100
AcDbEntity
  8
0
  6
Continuous
 62
   174
100
AcDbLine
 10
518.947214
 20
417.740056
 30
0.0
 11
510.063216
 21
417.740056
 31
0.0
  0
LINE
  5
102
100
AcDbEntity
  8
0
  6
HIDDEN
 62
   174
100
AcDbLine
 10
303.09446
 20
301.415056
 30
0.0
 11
309.84446
 21
301.415056
 31
0.0
  0
LINE
  5
103
100
AcDbEntity
  8
0
  6
HIDDEN
 62
   174
100
AcDbLine
 10
303.09446
 20
377.915056
 30
0.0
 11
309.84446
 21
377.915056
 31
0.0
  0
LINE
  5
104
100
AcDbEntity
  8
0
  6
HIDDEN
 62
   174
100
AcDbLine
 10
300.84446
 20
319.503301
 30
0.0
 11
300.84446
 21
303.753439
 31
0.0
  0
LINE
  5
105
100
AcDbEntity
  8
0
  6
HIDDEN
 62
   174
100
AcDbLine
 10
522.454736
 20
417.740056
 30
0.0
 11
519.062708
 21
417.740056
 31
0.0
  0
ARC
  5
106
100
AcDbEntity
  8
0
  6
HIDDEN
 62
   174
100
AcDbCircle
 10
515.94446
 20
302.540068
 30
0.0
 40
3.15
100
AcDbArc
 50
-180.0
 51
-90.0
  0
LINE
  5
107
100
AcDbEntity
  8
0
  6
HIDDEN
 62
   174
100
AcDbLine
 10
309.84446
 20
398.249603
 30
0.0
 11
309.84446
 21
378.000296
 31
0.0
  0
LINE
  5
108
100
AcDbEntity
  8
0
  6
HIDDEN
 62
   174
100
AcDbLine
 10
498.245557
 20
305.690068
 30
0.0
 11
495.216251
 21
305.690068
 31
0.0
  0
ARC
  5
109
100
AcDbEntity
  8
0
  6
HIDDEN
 62
   174
100
AcDbCircle
 10
515.94446
 20
302.540068
 30
0.0
 40
3.15
100
AcDbArc
 50
0.0
 51
90.0
  0
LINE
  5
10A
100
AcDbEntity
  8
0
  6
Continuous
 62
   174
100
AcDbLine
 10
600.09446
 20
300.290056
 30
0.0
 11
600.09446
 21
399.290056
 31
0.0
  0
LINE
  5
10B
100
AcDbEntity
  8
0
  6
HIDDEN
 62
   174
100
AcDbLine
 10
331.89446
 20
454.640056
 30
0.0
 11
346.29446
 21
454.640056
 31
0.0
  0
LINE
  5
10C
100
AcDbEntity
  8
0
  6
HIDDEN
 62
   174
100
AcDbLine
 10
347.107516
 20
425.390056
 30
0.0
 11
339.074082
 21
425.390056
 31
0.0
  0
LINE
  5
10D
100
AcDbEntity
  8
0
  6
HIDDEN
 62
   174
100
AcDbLine
 10
527.864897
 20
417.740056
 30
0.0
 11
523.562153
 21
417.740056
 31
0.0
  0
LINE
  5
10E
100
AcDbEntity
  8
0
  6
HIDDEN
 62
   174
100
AcDbLine
 10
303.09446
 20
301.415056
 30
0.0
 11
303.09446
 21
311.540056
 31
0.0
  0
LINE
  5
10F
100
AcDbEntity
  8
0
  6
HIDDEN
 62
   174
100
AcDbLine
 10
300.84446
 20
395.999279
 30
0.0
 11
300.84446
 21
380.250019
 31
0.0
  0
LINE
  5
110
100
AcDbEntity
  8
0
  6
Continuous
 62
   174
100
AcDbLine
 10
510.09446
 20
423.140056
 30
0.0
 11
510.09446
 21
429.890056
 31
0.0
  0
LINE
  5
111
100
AcDbEntity
  8
0
  6
HIDDEN
 62
   174
100
AcDbLine
 10
492.09446
 20
300.290056
 30
0.0
 11
492.09446
 21
305.690056
 31
0.0
  0
LINE
  5
112
100
AcDbEntity
  8
0
  6
HIDDEN
 62
   174
100
AcDbLine
 10
309.84446
 20
388.124649
 30
0.0
 11
309.84446
 21
376.875435
 31
0.0
  0
LINE
  5
113
100
AcDbEntity
  8
0
  6
Continuous
 62
   174
100
AcDbLine
 10
303.09446
 20
376.875435
 30
0.0
 11
303.09446
 21
377.316958
 31
0.0
  0
LINE
  5
114
100
AcDbEntity
  8
0
  6
HIDDEN
 62
   174
100
AcDbLine
 10
456.09446
 20
399.290056
 30
0.0
 11
456.09446
 21
398.840056
 31
0.0
  0
LINE
  5
115
100
AcDbEntity
  8
0
  6
HIDDEN
 62
   174
100
AcDbLine
 10
519.09446
 20
300.290056
 30
0.0
 11
519.09446
 21
305.690056
 31
0.0
  0
LINE
  5
116
100
AcDbEntity
  8
0
  6
HIDDEN
 62
   174
100
AcDbLine
 10
303.09446
 20
399.290056
 30
0.0
 11
309.84446
 21
399.290056
 31
0.0
  0
LINE
  5
117
100
AcDbEntity
  8
0
  6
HIDDEN
 62
   174
100
AcDbLine
 10
303.09446
 20
388.124649
 30
0.0
 11
303.09446
 21
398.929332
 31
0.0
  0
LINE
  5
118
100
AcDbEntity
  8
0
  6
HIDDEN
 62
   174
100
AcDbLine
 10
532.561644
 20
399.290056
 30
0.0
 11
523.489368
 21
399.290056
 31
0.0
  0
LINE
  5
119
100
AcDbEntity
  8
0
  6
Continuous
 62
   174
100
AcDbLine
 10
303.09446
 20
300.290056
 30
0.0
 11
303.09446
 21
301.415056
 31
0.0
  0
LINE
  5
11A
100
AcDbEntity
  8
0
  6
Continuous
 62
   174
100
AcDbLine
 10
546.09446
 20
417.740056
 30
0.0
 11
546.09446
 21
423.140056
 31
0.0
  0
ARC
  5
11B
100
AcDbEntity
  8
0
  6
HIDDEN
 62
   174
100
AcDbCircle
 10
495.24446
 20
302.540068
 30
0.0
 40
3.15
100
AcDbArc
 50
0.0
 51
90.0
  0
LINE
  5
11C
100
AcDbEntity
  8
0
  6
HIDDEN
 62
   174
100
AcDbLine
 10
303.09446
 20
321.665056
 30
0.0
 11
309.84446
 21
321.665056
 31
0.0
  0
LINE
  5
11D
100
AcDbEntity
  8
0
  6
Continuous
 62
   174
100
AcDbLine
 10
517.796487
 20
423.140056
 30
0.0
 11
510.063216
 21
423.140056
 31
0.0
  0
ARC
  5
11E
100
AcDbEntity
  8
0
  6
Continuous
 62
   174
100
AcDbCircle
 10
495.24446
 20
302.540068
 30
0.0
 40
3.15
100
AcDbArc
 50
226.10351
 51
270.0
  0
LINE
  5
11F
100
AcDbEntity
  8
0
  6
HIDDEN
 62
   174
100
AcDbLine
 10
541.59446
 20
399.290056
 30
0.0
 11
541.59446
 21
417.740056
 31
0.0
  0
LINE
  5
120
100
AcDbEntity
  8
0
  6
HIDDEN
 62
   174
100
AcDbLine
 10
331.89446
 20
432.140056
 30
0.0
 11
331.89446
 21
454.640056
 31
0.0
  0
LINE
  5
121
100
AcDbEntity
  8
0
  6
Continuous
 62
   174
100
AcDbLine
 10
303.09446
 20
321.753023
 30
0.0
 11
303.09446
 21
311.628671
 31
0.0
  0
LINE
  5
122
100
AcDbEntity
  8
0
  6
HIDDEN
 62
   174
100
AcDbLine
 10
303.09446
 20
398.249603
 30
0.0
 11
303.09446
 21
388.124649
 31
0.0
  0
LINE
  5
123
100
AcDbEntity
  8
0
  6
Continuous
 62
   174
100
AcDbLine
 10
346.29446
 20
417.290056
 30
0.0
 11
346.29446
 21
454.640056
 31
0.0
  0
ARC
  5
124
100
AcDbEntity
  8
0
  6
Continuous
 62
   174
100
AcDbCircle
 10
303.09446
 20
319.415056
 30
0.0
 40
2.25
100
AcDbArc
 50
-270.0
 51
-180.0
  0
LINE
  5
125
100
AcDbEntity
  8
0
  6
HIDDEN
 62
   174
100
AcDbLine
 10
546.061182
 20
417.740056
 30
0.0
 11
542.668553
 21
417.740056
 31
0.0
  0
LINE
  5
126
100
AcDbEntity
  8
0
  6
HIDDEN
 62
   174
100
AcDbLine
 10
569.907639
 20
305.690056
 30
0.0
 11
566.878334
 21
305.690056
 31
0.0
  0
LINE
  5
127
100
AcDbEntity
  8
0
  6
HIDDEN
 62
   174
100
AcDbLine
 10
515.91069
 20
305.690068
 30
0.0
 11
512.881385
 21
305.690068
 31
0.0
  0
LINE
  5
128
100
AcDbEntity
  8
0
  6
HIDDEN
 62
   174
100
AcDbLine
 10
303.09446
 20
399.290056
 30
0.0
 11
309.84446
 21
399.290056
 31
0.0
  0
LINE
  5
129
100
AcDbEntity
  8
0
  6
HIDDEN
 62
   174
100
AcDbLine
 10
528.270329
 20
417.740056
 30
0.0
 11
527.864897
 21
417.740056
 31
0.0
  0
ARC
  5
12A
100
AcDbEntity
  8
0
  6
HIDDEN
 62
   174
100
AcDbCircle
 10
549.24446
 20
302.540056
 30
0.0
 40
3.15
100
AcDbArc
 50
0.0
 51
90.0
  0
LINE
  5
12B
100
AcDbEntity
  8
0
  6
HIDDEN
 62
   174
100
AcDbLine
 10
331.89446
 20
425.390056
 30
0.0
 11
331.89446
 21
432.140056
 31
0.0
  0
LINE
  5
12C
100
AcDbEntity
  8
0
  6
Continuous
 62
   174
100
AcDbLine
 10
303.09446
 20
311.628671
 30
0.0
 11
303.09446
 21
301.503716
 31
0.0
  0
LINE
  5
12D
100
AcDbEntity
  8
0
  6
HIDDEN
 62
   174
100
AcDbLine
 10
542.668553
 20
417.740056
 30
0.0
 11
532.561644
 21
417.740056
 31
0.0
  0
ARC
  5
12E
100
AcDbEntity
  8
0
  6
HIDDEN
 62
   174
100
AcDbCircle
 10
303.09446
 20
303.665056
 30
0.0
 40
2.25
100
AcDbArc
 50
225.0
 51
270.0
  0
ARC
  5
12F
100
AcDbEntity
  8
0
  6
HIDDEN
 62
   174
100
AcDbCircle
 10
303.09446
 20
380.165056
 30
0.0
 40
2.25
100
AcDbArc
 50
225.0
 51
270.0
  0
LINE
  5
130
100
AcDbEntity
  8
0
  6
HIDDEN
 62
   174
100
AcDbLine
 10
303.09446
 20
321.753023
 30
0.0
 11
303.09446
 21
311.628671
 31
0.0
  0
LINE
  5
131
100
AcDbEntity
  8
0
  6
HIDDEN
 62
   174
100
AcDbLine
 10
354.84446
 20
417.290056
 30
0.0
 11
358.44446
 21
417.290056
 31
0.0
  0
LINE
  5
132
100
AcDbEntity
  8
0
  6
Continuous
 62
   174
100
AcDbLine
 10
465.09446
 20
300.290056
 30
0.0
 11
465.09446
 21
399.290056
 31
0.0
  0
LINE
  5
133
100
AcDbEntity
  8
0
  6
HIDDEN
 62
   174
100
AcDbLine
 10
552.03979
 20
399.290056
 30
0.0
 11
532.561644
 21
399.290056
 31
0.0
  0
LINE
  5
134
100
AcDbEntity
  8
0
  6
Continuous
 62
   174
100
AcDbLine
 10
555.060674
 20
423.140056
 30
0.0
 11
547.327403
 21
423.140056
 31
0.0
  0
LINE
  5
135
100
AcDbEntity
  8
0
  6
HIDDEN
 62
   174
100
AcDbLine
 10
498.705126
 20
305.690068
 30
0.0
 11
498.245557
 21
305.690068
 31
0.0
  0
LINE
  5
136
100
AcDbEntity
  8
0
  6
Continuous
 62
   174
100
AcDbLine
 10
465.09446
 20
300.290056
 30
0.0
 11
600.09446
 21
300.290056
 31
0.0
  0
LINE
  5
137
100
AcDbEntity
  8
0
  6
Continuous
 62
   174
100
AcDbLine
 10
303.09446
 20
321.665056
 30
0.0
 11
309.84446
 21
321.665056
 31
0.0
  0
ARC
  5
138
100
AcDbEntity
  8
0
  6
HIDDEN
 62
   174
100
AcDbCircle
 10
495.24446
 20
302.540068
 30
0.0
 40
3.15
100
AcDbArc
 50
90.0
 51
180.0
  0
LINE
  5
139
100
AcDbEntity
  8
0
  6
HIDDEN
 62
   174
100
AcDbLine
 10
456.066869
 20
398.840056
 30
0.0
 11
438.067886
 21
398.840056
 31
0.0
  0
LINE
  5
13A
100
AcDbEntity
  8
0
  6
Continuous
 62
   174
100
AcDbLine
 10
465.09446
 20
399.290056
 30
0.0
 11
465.09446
 21
300.290056
 31
0.0
  0
LINE
  5
13B
100
AcDbEntity
  8
0
  6
HIDDEN
 62
   174
100
AcDbLine
 10
303.09446
 20
322.790056
 30
0.0
 11
309.84446
 21
322.790056
 31
0.0
  0
LINE
  5
13C
100
AcDbEntity
  8
0
  6
HIDDEN
 62
   174
100
AcDbLine
 10
309.84446
 20
322.877885
 30
0.0
 11
309.84446
 21
311.628671
 31
0.0
  0
LINE
  5
13D
100
AcDbEntity
  8
0
  6
HIDDEN
 62
   174
100
AcDbLine
 10
523.59446
 20
399.290056
 30
0.0
 11
523.59446
 21
417.740056
 31
0.0
  0
LINE
  5
13E
100
AcDbEntity
  8
0
  6
Continuous
 62
   174
100
AcDbLine
 10
555.09446
 20
423.140056
 30
0.0
 11
555.09446
 21
429.890056
 31
0.0
  0
LINE
  5
13F
100
AcDbEntity
  8
0
  6
Continuous
 62
   174
100
AcDbLine
 10
546.09446
 20
417.740056
 30
0.0
 11
546.09446
 21
423.140056
 31
0.0
  0
LINE
  5
140
100
AcDbEntity
  8
0
  6
Continuous
 62
   174
100
AcDbLine
 10
303.09446
 20
398.249603
 30
0.0
 11
303.09446
 21
388.124649
 31
0.0
  0
LINE
  5
141
100
AcDbEntity
  8
0
  6
HIDDEN
 62
   174
100
AcDbLine
 10
532.561644
 20
399.290056
 30
0.0
 11
541.561136
 21
399.290056
 31
0.0
  0
LINE
  5
142
100
AcDbEntity
  8
0
  6
Continuous
 62
   174
100
AcDbLine
 10
604.59446
 20
318.377838
 30
0.0
 11
604.59446
 21
358.876452
 31
0.0
  0
LINE
  5
143
100
AcDbEntity
  8
0
  6
Continuous
 62
   174
100
AcDbLine
 10
303.09446
 20
388.124649
 30
0.0
 11
303.09446
 21
378.000296
 31
0.0
  0
LINE
  5
144
100
AcDbEntity
  8
0
  6
HIDDEN
 62
   174
100
AcDbLine
 10
303.09446
 20
311.540056
 30
0.0
 11
309.84446
 21
311.540056
 31
0.0
  0
LINE
  5
145
100
AcDbEntity
  8
0
  6
HIDDEN
 62
   174
100
AcDbLine
 10
303.09446
 20
322.790056
 30
0.0
 11
309.84446
 21
322.790056
 31
0.0
  0
LINE
  5
146
100
AcDbEntity
  8
0
  6
HIDDEN
 62
   174
100
AcDbLine
 10
519.09446
 20
300.290056
 30
0.0
 11
519.09446
 21
305.690056
 31
0.0
  0
LINE
  5
147
100
AcDbEntity
  8
0
  6
HIDDEN
 62
   174
100
AcDbLine
 10
339.074082
 20
425.390056
 30
0.0
 11
331.040046
 21
425.390056
 31
0.0
  0
LINE
  5
148
100
AcDbEntity
  8
0
  6
Continuous
 62
   174
100
AcDbLine
 10
510.09446
 20
423.140056
 30
0.0
 11
510.09446
 21
429.890056
 31
0.0
  0
LINE
  5
149
100
AcDbEntity
  8
0
  6
HIDDEN
 62
   174
100
AcDbLine
 10
300.84446
 20
395.999279
 30
0.0
 11
300.84446
 21
380.250019
 31
0.0
  0
LINE
  5
14A
100
AcDbEntity
  8
0
  6
Continuous
 62
   174
100
AcDbLine
 10
331.89446
 20
417.290056
 30
0.0
 11
331.89446
 21
454.640056
 31
0.0
  0
LINE
  5
14B
100
AcDbEntity
  8
0
  6
HIDDEN
 62
   174
100
AcDbLine
 10
303.09446
 20
311.540056
 30
0.0
 11
309.84446
 21
311.540056
 31
0.0
  0
LINE
  5
14C
100
AcDbEntity
  8
0
  6
Continuous
 62
   174
100
AcDbLine
 10
515.913096
 20
299.390068
 30
0.0
 11
505.563771
 21
299.390068
 31
0.0
  0
LINE
  5
14D
100
AcDbEntity
  8
0
  6
Continuous
 62
   174
100
AcDbLine
 10
303.09446
 20
377.915056
 30
0.0
 11
309.84446
 21
377.915056
 31
0.0
  0
LINE
  5
14E
100
AcDbEntity
  8
0
  6
Continuous
 62
   174
100
AcDbLine
 10
555.09446
 20
423.140056
 30
0.0
 11
555.09446
 21
429.890056
 31
0.0
  0
LINE
  5
14F
100
AcDbEntity
  8
0
  6
HIDDEN
 62
   174
100
AcDbLine
 10
536.853561
 20
417.740056
 30
0.0
 11
532.561644
 21
417.740056
 31
0.0
  0
LINE
  5
150
100
AcDbEntity
  8
0
  6
Continuous
 62
   174
100
AcDbLine
 10
505.563771
 20
299.390068
 30
0.0
 11
495.720935
 21
299.390068
 31
0.0
  0
ARC
  5
151
100
AcDbEntity
  8
0
  6
Continuous
 62
   174
100
AcDbCircle
 10
303.09446
 20
395.915056
 30
0.0
 40
2.25
100
AcDbArc
 50
-270.0
 51
-180.0
  0
LINE
  5
152
100
AcDbEntity
  8
0
  6
HIDDEN
 62
   174
100
AcDbLine
 10
303.09446
 20
398.165056
 30
0.0
 11
309.84446
 21
398.165056
 31
0.0
  0
LINE
  5
153
100
AcDbEntity
  8
0
  6
Continuous
 62
   174
100
AcDbLine
 10
303.09446
 20
398.165056
 30
0.0
 11
309.84446
 21
398.165056
 31
0.0
  0
LINE
  5
154
100
AcDbEntity
  8
0
  6
Continuous
 62
   174
100
AcDbLine
 10
555.09446
 20
399.290056
 30
0.0
 11
555.09446
 21
417.740056
 31
0.0
  0
LINE
  5
155
100
AcDbEntity
  8
0
  6
Continuous
 62
   174
100
AcDbLine
 10
354.84446
 20
465.440056
 30
0.0
 11
358.44446
 21
465.440056
 31
0.0
  0
LINE
  5
156
100
AcDbEntity
  8
0
  6
Continuous
 62
   174
100
AcDbLine
 10
495.720935
 20
299.390068
 30
0.0
 11
495.214447
 21
299.390068
 31
0.0
  0
ARC
  5
157
100
AcDbEntity
  8
0
  6
Continuous
 62
   174
100
AcDbCircle
 10
303.09446
 20
303.665056
 30
0.0
 40
2.25
100
AcDbArc
 50
225.0
 51
270.0
  0
ARC
  5
158
100
AcDbEntity
  8
0
  6
HIDDEN
 62
   174
100
AcDbCircle
 10
303.09446
 20
303.665056
 30
0.0
 40
2.25
100
AcDbArc
 50
180.0
 51
225.0
  0
LINE
  5
159
100
AcDbEntity
  8
0
  6
HIDDEN
 62
   174
100
AcDbLine
 10
354.84446
 20
451.715056
 30
0.0
 11
358.44446
 21
451.715056
 31
0.0
  0
LINE
  5
15A
100
AcDbEntity
  8
0
  6
HIDDEN
 62
   174
100
AcDbLine
 10
331.89446
 20
417.290056
 30
0.0
 11
331.89446
 21
425.390056
 31
0.0
  0
LINE
  5
15B
100
AcDbEntity
  8
0
  6
HIDDEN
 62
   174
100
AcDbLine
 10
498.705126
 20
305.690068
 30
0.0
 11
498.245557
 21
305.690068
 31
0.0
  0
LINE
  5
15C
100
AcDbEntity
  8
0
  6
Continuous
 62
   174
100
AcDbLine
 10
303.09446
 20
398.165056
 30
0.0
 11
309.84446
 21
398.165056
 31
0.0
  0
LINE
  5
15D
100
AcDbEntity
  8
0
  6
HIDDEN
 62
   174
100
AcDbLine
 10
300.84446
 20
395.999279
 30
0.0
 11
300.84446
 21
380.250019
 31
0.0
  0
LINE
  5
15E
100
AcDbEntity
  8
0
  6
Continuous
 62
   174
100
AcDbLine
 10
555.060674
 20
417.740056
 30
0.0
 11
546.176676
 21
417.740056
 31
0.0
  0
LINE
  5
15F
100
AcDbEntity
  8
0
  6
HIDDEN
 62
   174
100
AcDbLine
 10
309.84446
 20
321.753023
 30
0.0
 11
309.84446
 21
301.503716
 31
0.0
  0
ARC
  5
160
100
AcDbEntity
  8
0
  6
Continuous
 62
   174
100
AcDbCircle
 10
303.09446
 20
380.165056
 30
0.0
 40
2.25
100
AcDbArc
 50
180.0
 51
270.0
  0
ARC
  5
161
100
AcDbEntity
  8
0
  6
HIDDEN
 62
   174
100
AcDbCircle
 10
303.09446
 20
380.165056
 30
0.0
 40
2.25
100
AcDbArc
 50
180.0
 51
225.0
  0
LINE
  5
162
100
AcDbEntity
  8
0
  6
HIDDEN
 62
   174
100
AcDbLine
 10
303.09446
 20
311.628671
 30
0.0
 11
303.09446
 21
301.503716
 31
0.0
  0
ARC
  5
163
100
AcDbEntity
  8
0
  6
HIDDEN
 62
   174
100
AcDbCircle
 10
303.09446
 20
303.665056
 30
0.0
 40
2.25
100
AcDbArc
 50
225.0
 51
270.0
  0
ARC
  5
164
100
AcDbEntity
  8
0
  6
HIDDEN
 62
   174
100
AcDbCircle
 10
303.09446
 20
319.415056
 30
0.0
 40
2.25
100
AcDbArc
 50
-270.0
 51
-180.0
  0
LINE
  5
165
100
AcDbEntity
  8
0
  6
Continuous
 62
   174
100
AcDbLine
 10
300.84446
 20
395.999279
 30
0.0
 11
300.84446
 21
380.250019
 31
0.0
  0
LINE
  5
166
100
AcDbEntity
  8
0
  6
HIDDEN
 62
   174
100
AcDbLine
 10
309.84446
 20
300.290056
 30
0.0
 11
309.84446
 21
311.540056
 31
0.0
  0
LINE
  5
167
100
AcDbEntity
  8
0
  6
HIDDEN
 62
   174
100
AcDbLine
 10
492.09446
 20
300.290056
 30
0.0
 11
492.09446
 21
305.690056
 31
0.0
  0
ARC
  5
168
100
AcDbEntity
  8
0
  6
HIDDEN
 62
   174
100
AcDbCircle
 10
515.94446
 20
302.540068
 30
0.0
 40
3.15
100
AcDbArc
 50
-270.0
 51
-180.0
  0
LINE
  5
169
100
AcDbEntity
  8
0
  6
HIDDEN
 62
   174
100
AcDbLine
 10
456.09446
 20
399.290056
 30
0.0
 11
456.09446
 21
398.840056
 31
0.0
  0
LINE
  5
16A
100
AcDbEntity
  8
0
  6
Continuous
 62
   174
100
AcDbLine
 10
350.323296
 20
425.390056
 30
0.0
 11
347.938831
 21
425.390056
 31
0.0
  0
ARC
  5
16B
100
AcDbEntity
  8
0
  6
Continuous
 62
   174
100
AcDbCircle
 10
303.09446
 20
395.915056
 30
0.0
 40
2.25
100
AcDbArc
 50
-270.0
 51
-180.0
  0
LINE
  5
16C
100
AcDbEntity
  8
0
  6
HIDDEN
 62
   174
100
AcDbLine
 10
354.84446
 20
457.565056
 30
0.0
 11
358.44446
 21
457.565056
 31
0.0
  0
LINE
  5
16D
100
AcDbEntity
  8
0
  6
HIDDEN
 62
   174
100
AcDbLine
 10
303.09446
 20
398.249603
 30
0.0
 11
303.09446
 21
378.000296
 31
0.0
  0
LINE
  5
16E
100
AcDbEntity
  8
0
  6
HIDDEN
 62
   174
100
AcDbLine
 10
550.14446
 20
399.290056
 30
0.0
 11
550.14446
 21
393.890056
 31
0.0
  0
ARC
  5
16F
100
AcDbEntity
  8
0
  6
HIDDEN
 62
   174
100
AcDbCircle
 10
495.24446
 20
302.540068
 30
0.0
 40
3.15
100
AcDbArc
 50
-90.0
 51
0.0
  0
LINE
  5
170
100
AcDbEntity
  8
0
  6
HIDDEN
 62
   174
100
AcDbLine
 10
523.489368
 20
399.290056
 30
0.0
 11
510.063216
 21
399.290056
 31
0.0
  0
LINE
  5
171
100
AcDbEntity
  8
0
  6
HIDDEN
 62
   174
100
AcDbLine
 10
309.84446
 20
399.374464
 30
0.0
 11
309.84446
 21
388.124649
 31
0.0
  0
LINE
  5
172
100
AcDbEntity
  8
0
  6
HIDDEN
 62
   174
100
AcDbLine
 10
303.09446
 20
322.790056
 30
0.0
 11
309.84446
 21
322.790056
 31
0.0
  0
ENDBLK
  5
173
100
AcDbEntity
  8
0
100
AcDbBlockEnd
  0
BLOCK
  5
176
100
AcDbEntity
  8
0
100
AcDbBlockBegin
  2
*B2
 70
     0
 10
0.0
 20
0.0
 30
0.0
  3
*B2
  1

  0
LINE
  5
177
100
AcDbEntity
  8
0
  6
Continuous
 62
   174
100
AcDbLine
 10
502.713054
 20
206.334183
 30
0.0
 11
465.09446
 21
206.334183
 31
0.0
  0
LINE
  5
178
100
AcDbEntity
  8
0
  6
Continuous
 62
   174
100
AcDbLine
 10
600.09446
 20
134.334183
 30
0.0
 11
562.475866
 21
134.334183
 31
0.0
  0
LINE
  5
179
100
AcDbEntity
  8
0
  6
Continuous
 62
   174
100
AcDbLine
 10
600.09446
 20
206.334183
 30
0.0
 11
508.475866
 21
206.334183
 31
0.0
  0
ARC
  5
17A
100
AcDbEntity
  8
0
  6
Continuous
 62
   174
100
AcDbCircle
 10
532.59446
 20
170.334183
 30
0.0
 40
9.0
100
AcDbArc
 50
0.0
 51
180.0
  0
ARC
  5
17B
100
AcDbEntity
  8
0
  6
Continuous
 62
   174
100
AcDbCircle
 10
532.59446
 20
170.334183
 30
0.0
 40
9.0
100
AcDbArc
 50
-180.0
 51
0.0
  0
ARC
  5
17C
100
AcDbEntity
  8
0
  6
Continuous
 62
   174
100
AcDbCircle
 10
559.59446
 20
143.334183
 30
0.0
 40
9.45
100
AcDbArc
 50
180.0
 51
252.24721
  0
ARC
  5
17D
100
AcDbEntity
  8
0
  6
Continuous
 62
   174
100
AcDbCircle
 10
559.59446
 20
143.334183
 30
0.0
 40
9.45
100
AcDbArc
 50
-72.24721
 51
0.0
  0
ARC
  5
17E
100
AcDbEntity
  8
0
  6
Continuous
 62
   174
100
AcDbCircle
 10
559.59446
 20
143.334183
 30
0.0
 40
9.45
100
AcDbArc
 50
0.0
 51
180.0
  0
ARC
  5
17F
100
AcDbEntity
  8
0
  6
Continuous
 62
   174
100
AcDbCircle
 10
505.59446
 20
197.334183
 30
0.0
 40
9.45
100
AcDbArc
 50
107.75279
 51
180.0
  0
ARC
  5
180
100
AcDbEntity
  8
0
  6
Continuous
 62
   174
100
AcDbCircle
 10
505.59446
 20
197.334183
 30
0.0
 40
9.45
100
AcDbArc
 50
-180.0
 51
0.0
  0
ARC
  5
181
100
AcDbEntity
  8
0
  6
Continuous
 62
   174
100
AcDbCircle
 10
505.59446
 20
197.334183
 30
0.0
 40
9.45
100
AcDbArc
 50
0.0
 51
72.24721
  0
LINE
  5
182
100
AcDbEntity
  8
0
  6
Continuous
 62
   174
100
AcDbLine
 10
556.713054
 20
134.334183
 30
0.0
 11
465.09446
 21
134.334183
 31
0.0
  0
LINE
  5
183
100
AcDbEntity
  8
0
  6
Continuous
 62
   174
100
AcDbLine
 10
562.475866
 20
134.334183
 30
0.0
 11
556.713054
 21
134.334183
 31
0.0
  0
ARC
  5
184
100
AcDbEntity
  8
0
  6
Continuous
 62
   174
100
AcDbCircle
 10
339.09446
 20
170.334183
 30
0.0
 40
8.325
100
AcDbArc
 50
-90.0
 51
90.0
  0
ARC
  5
185
100
AcDbEntity
  8
0
  6
Continuous
 62
   174
100
AcDbCircle
 10
339.09446
 20
170.334183
 30
0.0
 40
8.325
100
AcDbArc
 50
-270.0
 51
-90.0
  0
LINE
  5
186
100
AcDbEntity
  8
0
  6
Continuous
 62
   174
100
AcDbLine
 10
375.09446
 20
134.334183
 30
0.0
 11
303.09446
 21
134.334183
 31
0.0
  0
ARC
  5
187
100
AcDbEntity
  8
0
  6
Continuous
 62
   174
100
AcDbCircle
 10
303.09446
 20
202.959183
 30
0.0
 40
2.25
100
AcDbArc
 50
-270.0
 51
-180.0
  0
LINE
  5
188
100
AcDbEntity
  8
0
  6
Continuous
 62
   174
100
AcDbLine
 10
300.84446
 20
187.688812
 30
0.0
 11
300.84446
 21
187.303232
 31
0.0
  0
LINE
  5
189
100
AcDbEntity
  8
0
  6
Continuous
 62
   174
100
AcDbLine
 10
300.84446
 20
153.554387
 30
0.0
 11
300.84446
 21
151.678816
 31
0.0
  0
ARC
  5
18A
100
AcDbEntity
  8
0
  6
Continuous
 62
   174
100
AcDbCircle
 10
447.09446
 20
170.334183
 30
0.0
 40
9.0
100
AcDbArc
 50
0.0
 51
180.0
  0
LINE
  5
18B
100
AcDbEntity
  8
0
  6
Continuous
 62
   174
100
AcDbLine
 10
354.84446
 20
163.134183
 30
0.0
 11
358.44446
 21
163.134183
 31
0.0
  0
LINE
  5
18C
100
AcDbEntity
  8
0
  6
Continuous
 62
   174
100
AcDbLine
 10
358.44446
 20
163.134183
 30
0.0
 11
358.44446
 21
177.534183
 31
0.0
  0
ARC
  5
18D
100
AcDbEntity
  8
0
  6
Continuous
 62
   174
100
AcDbCircle
 10
532.59446
 20
170.334183
 30
0.0
 40
22.5
100
AcDbArc
 50
0.0
 51
180.0
  0
LINE
  5
18E
100
AcDbEntity
  8
0
  6
Continuous
 62
   174
100
AcDbLine
 10
604.59446
 20
170.42911
 30
0.0
 11
604.59446
 21
190.678417
 31
0.0
  0
LINE
  5
18F
100
AcDbEntity
  8
0
  6
Continuous
 62
   174
100
AcDbLine
 10
375.09446
 20
134.334183
 30
0.0
 11
375.09446
 21
206.334183
 31
0.0
  0
LINE
  5
190
100
AcDbEntity
  8
0
  6
Continuous
 62
   174
100
AcDbLine
 10
331.89446
 20
150.759183
 30
0.0
 11
346.29446
 21
150.759183
 31
0.0
  0
LINE
  5
191
100
AcDbEntity
  8
0
  6
Continuous
 62
   174
100
AcDbLine
 10
346.29446
 20
150.759183
 30
0.0
 11
346.29446
 21
154.359183
 31
0.0
  0
LINE
  5
192
100
AcDbEntity
  8
0
  6
Continuous
 62
   174
100
AcDbLine
 10
600.09446
 20
150.084183
 30
0.0
 11
604.59446
 21
150.084183
 31
0.0
  0
ARC
  5
193
100
AcDbEntity
  8
0
  6
Continuous
 62
   174
100
AcDbCircle
 10
505.59446
 20
197.334183
 30
0.0
 40
5.85
100
AcDbArc
 50
-180.0
 51
0.0
  0
LINE
  5
194
100
AcDbEntity
  8
0
  6
Continuous
 62
   174
100
AcDbLine
 10
303.09446
 20
134.334183
 30
0.0
 11
303.09446
 21
206.334183
 31
0.0
  0
ARC
  5
195
100
AcDbEntity
  8
0
  6
Continuous
 62
   174
100
AcDbCircle
 10
339.09446
 20
170.334183
 30
0.0
 40
6.075
100
AcDbArc
 50
-90.0
 51
90.0
  0
ARC
  5
196
100
AcDbEntity
  8
0
  6
Continuous
 62
   174
100
AcDbCircle
 10
303.09446
 20
153.459183
 30
0.0
 40
2.25
100
AcDbArc
 50
-270.0
 51
-180.0
  0
LINE
  5
197
100
AcDbEntity
  8
0
  6
Continuous
 62
   174
100
AcDbLine
 10
300.84446
 20
195.177862
 30
0.0
 11
300.84446
 21
187.688812
 31
0.0
  0
LINE
  5
198
100
AcDbEntity
  8
0
  6
Continuous
 62
   174
100
AcDbLine
 10
300.84446
 20
203.052492
 30
0.0
 11
300.84446
 21
202.666911
 31
0.0
  0
LINE
  5
199
100
AcDbEntity
  8
0
  6
Continuous
 62
   174
100
AcDbLine
 10
300.84446
 20
203.051891
 30
0.0
 11
300.84446
 21
201.17632
 31
0.0
  0
ARC
  5
19A
100
AcDbEntity
  8
0
  6
Continuous
 62
   174
100
AcDbCircle
 10
505.59446
 20
197.334183
 30
0.0
 40
5.85
100
AcDbArc
 50
0.0
 51
180.0
  0
LINE
  5
19B
100
AcDbEntity
  8
0
  6
Continuous
 62
   174
100
AcDbLine
 10
429.09446
 20
134.334183
 30
0.0
 11
375.09446
 21
134.334183
 31
0.0
  0
LINE
  5
19C
100
AcDbEntity
  8
0
  6
Continuous
 62
   174
100
AcDbLine
 10
429.09446
 20
206.334183
 30
0.0
 11
375.09446
 21
206.334183
 31
0.0
  0
LINE
  5
19D
100
AcDbEntity
  8
0
  6
Continuous
 62
   174
100
AcDbLine
 10
375.09446
 20
206.334183
 30
0.0
 11
303.09446
 21
206.334183
 31
0.0
  0
LINE
  5
19E
100
AcDbEntity
  8
0
  6
Continuous
 62
   174
100
AcDbLine
 10
600.09446
 20
206.334183
 30
0.0
 11
600.09446
 21
134.334183
 31
0.0
  0
LINE
  5
19F
100
AcDbEntity
  8
0
  6
Continuous
 62
   174
100
AcDbLine
 10
300.84446
 20
153.554988
 30
0.0
 11
300.84446
 21
145.680358
 31
0.0
  0
LINE
  5
1A0
100
AcDbEntity
  8
0
  6
Continuous
 62
   174
100
AcDbLine
 10
300.84446
 20
201.17632
 30
0.0
 11
300.84446
 21
195.177862
 31
0.0
  0
ARC
  5
1A1
100
AcDbEntity
  8
0
  6
Continuous
 62
   174
100
AcDbCircle
 10
532.59446
 20
170.334183
 30
0.0
 40
22.5
100
AcDbArc
 50
-90.0
 51
-60.017377
  0
ARC
  5
1A2
100
AcDbEntity
  8
0
  6
Continuous
 62
   174
100
AcDbCircle
 10
532.59446
 20
170.334183
 30
0.0
 40
22.5
100
AcDbArc
 50
-270.0
 51
-239.989167
  0
ARC
  5
1A3
100
AcDbEntity
  8
0
  6
Continuous
 62
   174
100
AcDbCircle
 10
339.09446
 20
170.334183
 30
0.0
 40
11.25
100
AcDbArc
 50
-90.0
 51
-81.359702
  0
LINE
  5
1A4
100
AcDbEntity
  8
0
  6
Continuous
 62
   174
100
AcDbLine
 10
429.09446
 20
134.334183
 30
0.0
 11
429.09446
 21
206.334183
 31
0.0
  0
LINE
  5
1A5
100
AcDbEntity
  8
0
  6
Continuous
 62
   174
100
AcDbLine
 10
429.09446
 20
134.334183
 30
0.0
 11
465.09446
 21
134.334183
 31
0.0
  0
LINE
  5
1A6
100
AcDbEntity
  8
0
  6
Continuous
 62
   174
100
AcDbLine
 10
429.09446
 20
134.334183
 30
0.0
 11
429.09446
 21
206.334183
 31
0.0
  0
LINE
  5
1A7
100
AcDbEntity
  8
0
  6
Continuous
 62
   174
100
AcDbLine
 10
465.09446
 20
134.334183
 30
0.0
 11
465.09446
 21
206.334183
 31
0.0
  0
LINE
  5
1A8
100
AcDbEntity
  8
0
  6
Continuous
 62
   174
100
AcDbLine
 10
300.84446
 20
153.554988
 30
0.0
 11
300.84446
 21
153.169408
 31
0.0
  0
LINE
  5
1A9
100
AcDbEntity
  8
0
  6
Continuous
 62
   174
100
AcDbLine
 10
300.84446
 20
138.191309
 30
0.0
 11
300.84446
 21
137.805728
 31
0.0
  0
LINE
  5
1AA
100
AcDbEntity
  8
0
  6
Continuous
 62
   174
100
AcDbLine
 10
300.84446
 20
202.666911
 30
0.0
 11
300.84446
 21
195.177862
 31
0.0
  0
ARC
  5
1AB
100
AcDbEntity
  8
0
  6
Continuous
 62
   174
100
AcDbCircle
 10
339.09446
 20
170.334183
 30
0.0
 40
11.25
100
AcDbArc
 50
-98.640298
 51
-90.0
  0
ARC
  5
1AC
100
AcDbEntity
  8
0
  6
Continuous
 62
   174
100
AcDbCircle
 10
447.09446
 20
170.334183
 30
0.0
 40
9.0
100
AcDbArc
 50
-180.0
 51
0.0
  0
ARC
  5
1AD
100
AcDbEntity
  8
0
  6
Continuous
 62
   174
100
AcDbCircle
 10
559.59446
 20
143.334183
 30
0.0
 40
5.85
100
AcDbArc
 50
0.0
 51
180.0
  0
LINE
  5
1AE
100
AcDbEntity
  8
0
  6
Continuous
 62
   174
100
AcDbLine
 10
429.09446
 20
206.334183
 30
0.0
 11
465.09446
 21
206.334183
 31
0.0
  0
LINE
  5
1AF
100
AcDbEntity
  8
0
  6
Continuous
 62
   174
100
AcDbLine
 10
300.84446
 20
153.169408
 30
0.0
 11
300.84446
 21
145.680358
 31
0.0
  0
ARC
  5
1B0
100
AcDbEntity
  8
0
  6
Continuous
 62
   174
100
AcDbCircle
 10
303.09446
 20
137.709183
 30
0.0
 40
2.25
100
AcDbArc
 50
180.0
 51
270.0
  0
LINE
  5
1B1
100
AcDbEntity
  8
0
  6
Continuous
 62
   174
100
AcDbLine
 10
300.84446
 20
203.052492
 30
0.0
 11
300.84446
 21
195.177862
 31
0.0
  0
ARC
  5
1B2
100
AcDbEntity
  8
0
  6
Continuous
 62
   174
100
AcDbCircle
 10
303.09446
 20
187.209183
 30
0.0
 40
2.25
100
AcDbArc
 50
180.0
 51
270.0
  0
LINE
  5
1B3
100
AcDbEntity
  8
0
  6
Continuous
 62
   174
100
AcDbLine
 10
300.84446
 20
151.678816
 30
0.0
 11
300.84446
 21
145.680358
 31
0.0
  0
LINE
  5
1B4
100
AcDbEntity
  8
0
  6
Continuous
 62
   174
100
AcDbLine
 10
331.89446
 20
186.309183
 30
0.0
 11
346.29446
 21
186.309183
 31
0.0
  0
LINE
  5
1B5
100
AcDbEntity
  8
0
  6
Continuous
 62
   174
100
AcDbLine
 10
331.89446
 20
189.909183
 30
0.0
 11
331.89446
 21
186.309183
 31
0.0
  0
ARC
  5
1B6
100
AcDbEntity
  8
0
  6
Continuous
 62
   174
100
AcDbCircle
 10
532.59446
 20
170.334183
 30
0.0
 40
22.5
100
AcDbArc
 50
-120.010833
 51
-90.0
  0
ARC
  5
1B7
100
AcDbEntity
  8
0
  6
Continuous
 62
   174
100
AcDbCircle
 10
339.09446
 20
170.334183
 30
0.0
 40
11.25
100
AcDbArc
 50
-261.359702
 51
-98.640298
  0
LINE
  5
1B8
100
AcDbEntity
  8
0
  6
Continuous
 62
   174
100
AcDbLine
 10
600.09446
 20
190.584183
 30
0.0
 11
604.59446
 21
190.584183
 31
0.0
  0
ARC
  5
1B9
100
AcDbEntity
  8
0
  6
Continuous
 62
   174
100
AcDbCircle
 10
532.59446
 20
170.334183
 30
0.0
 40
22.5
100
AcDbArc
 50
-180.0
 51
0.0
  0
LINE
  5
1BA
100
AcDbEntity
  8
0
  6
Continuous
 62
   174
100
AcDbLine
 10
465.09446
 20
206.334183
 30
0.0
 11
465.09446
 21
134.334183
 31
0.0
  0
LINE
  5
1BB
100
AcDbEntity
  8
0
  6
Continuous
 62
   174
100
AcDbLine
 10
300.84446
 20
145.680358
 30
0.0
 11
300.84446
 21
138.191309
 31
0.0
  0
LINE
  5
1BC
100
AcDbEntity
  8
0
  6
Continuous
 62
   174
100
AcDbLine
 10
300.84446
 20
145.680358
 30
0.0
 11
300.84446
 21
137.805728
 31
0.0
  0
LINE
  5
1BD
100
AcDbEntity
  8
0
  6
Continuous
 62
   174
100
AcDbLine
 10
300.84446
 20
195.177862
 30
0.0
 11
300.84446
 21
187.303232
 31
0.0
  0
LINE
  5
1BE
100
AcDbEntity
  8
0
  6
Continuous
 62
   174
100
AcDbLine
 10
346.29446
 20
189.909183
 30
0.0
 11
331.89446
 21
189.909183
 31
0.0
  0
LINE
  5
1BF
100
AcDbEntity
  8
0
  6
Continuous
 62
   174
100
AcDbLine
 10
346.29446
 20
186.309183
 30
0.0
 11
346.29446
 21
189.909183
 31
0.0
  0
ARC
  5
1C0
100
AcDbEntity
  8
0
  6
Continuous
 62
   174
100
AcDbCircle
 10
339.09446
 20
170.334183
 30
0.0
 40
11.25
100
AcDbArc
 50
-270.0
 51
-261.359702
  0
ARC
  5
1C1
100
AcDbEntity
  8
0
  6
Continuous
 62
   174
100
AcDbCircle
 10
339.09446
 20
170.334183
 30
0.0
 40
11.25
100
AcDbArc
 50
-81.359702
 51
81.359702
  0
ARC
  5
1C2
100
AcDbEntity
  8
0
  6
Continuous
 62
   174
100
AcDbCircle
 10
559.59446
 20
143.334183
 30
0.0
 40
5.85
100
AcDbArc
 50
-180.0
 51
0.0
  0
LINE
  5
1C3
100
AcDbEntity
  8
0
  6
Continuous
 62
   174
100
AcDbLine
 10
604.59446
 20
150.179803
 30
0.0
 11
604.59446
 21
170.42911
 31
0.0
  0
LINE
  5
1C4
100
AcDbEntity
  8
0
  6
Continuous
 62
   174
100
AcDbLine
 10
508.475866
 20
206.334183
 30
0.0
 11
502.713054
 21
206.334183
 31
0.0
  0
ARC
  5
1C5
100
AcDbEntity
  8
0
  6
Continuous
 62
   174
100
AcDbCircle
 10
339.09446
 20
170.334183
 30
0.0
 40
6.075
100
AcDbArc
 50
90.0
 51
270.0
  0
LINE
  5
1C6
100
AcDbEntity
  8
0
  6
Continuous
 62
   174
100
AcDbLine
 10
300.84446
 20
145.680358
 30
0.0
 11
300.84446
 21
137.805728
 31
0.0
  0
LINE
  5
1C7
100
AcDbEntity
  8
0
  6
Continuous
 62
   174
100
AcDbLine
 10
300.84446
 20
195.177862
 30
0.0
 11
300.84446
 21
187.303232
 31
0.0
  0
ARC
  5
1C8
100
AcDbEntity
  8
0
  6
Continuous
 62
   174
100
AcDbCircle
 10
532.59446
 20
170.334183
 30
0.0
 40
22.5
100
AcDbArc
 50
-299.982623
 51
-270.0
  0
LINE
  5
1C9
100
AcDbEntity
  8
0
  6
Continuous
 62
   174
100
AcDbLine
 10
346.29446
 20
154.359183
 30
0.0
 11
331.89446
 21
154.359183
 31
0.0
  0
LINE
  5
1CA
100
AcDbEntity
  8
0
  6
Continuous
 62
   174
100
AcDbLine
 10
331.89446
 20
154.359183
 30
0.0
 11
331.89446
 21
150.759183
 31
0.0
  0
ARC
  5
1CB
100
AcDbEntity
  8
0
  6
Continuous
 62
   174
100
AcDbCircle
 10
339.09446
 20
170.334183
 30
0.0
 40
11.25
100
AcDbArc
 50
-278.640298
 51
-270.0
  0
LINE
  5
1CC
100
AcDbEntity
  8
0
  6
Continuous
 62
   174
100
AcDbLine
 10
354.84446
 20
177.534183
 30
0.0
 11
354.84446
 21
163.134183
 31
0.0
  0
LINE
  5
1CD
100
AcDbEntity
  8
0
  6
Continuous
 62
   174
100
AcDbLine
 10
358.44446
 20
177.534183
 30
0.0
 11
354.84446
 21
177.534183
 31
0.0
  0
ENDBLK
  5
1CE
100
AcDbEntity
  8
0
100
AcDbBlockEnd
  0
BLOCK
  5
1D1
100
AcDbEntity
  8
0
100
AcDbBlockBegin
  2
*B3
 70
     0
 10
0.0
 20
0.0
 30
0.0
  3
*B3
  1

  0
LINE
  5
1D2
100
AcDbEntity
  8
0
  6
Continuous
 62
   172
100
AcDbLine
 10
403.428732
 20
331.123678
 30
0.0
 11
363.622972
 21
263.432534
 31
0.0
  0
LINE
  5
1D3
100
AcDbEntity
  8
0
  6
Continuous
 62
   172
100
AcDbLine
 10
363.622972
 20
263.432534
 30
0.0
 11
344.703732
 21
263.432534
 31
0.0
  0
ENDBLK
  5
1D4
100
AcDbEntity
  8
0
100
AcDbBlockEnd
  0
BLOCK
  5
1D7
100
AcDbEntity
  8
0
100
AcDbBlockBegin
  2
*B4
 70
     0
 10
0.0
 20
0.0
 30
0.0
  3
*B4
  1

  0
LINE
  5
1D8
100
AcDbEntity
  8
0
  6
Continuous
 62
   172
100
AcDbLine
 10
359.691871
 20
267.535539
 30
0.0
 11
355.641871
 21
269.023678
 31
0.0
  0
LINE
  5
1D9
100
AcDbEntity
  8
0
  6
Continuous
 62
   172
100
AcDbLine
 10
359.691871
 20
267.535539
 30
0.0
 11
355.641871
 21
266.323678
 31
0.0
  0
LINE
  5
1DA
100
AcDbEntity
  8
0
  6
Continuous
 62
   172
100
AcDbLine
 10
356.991871
 20
267.535539
 30
0.0
 11
359.691871
 21
267.535539
 31
0.0
  0
LINE
  5
1DB
100
AcDbEntity
  8
0
  6
Continuous
 62
   172
100
AcDbLine
 10
359.691871
 20
290.761817
 30
0.0
 11
355.641871
 21
289.273678
 31
0.0
  0
LINE
  5
1DC
100
AcDbEntity
  8
0
  6
Continuous
 62
   172
100
AcDbLine
 10
359.691871
 20
290.761817
 30
0.0
 11
355.641871
 21
291.973678
 31
0.0
  0
LINE
  5
1DD
100
AcDbEntity
  8
0
  6
Continuous
 62
   172
100
AcDbLine
 10
356.991871
 20
290.761817
 30
0.0
 11
359.691871
 21
290.761817
 31
0.0
  0
ARC
  5
1DE
100
AcDbEntity
  8
0
  6
Continuous
 62
   172
100
AcDbCircle
 10
356.991871
 20
279.148678
 30
0.0
 40
11.613139
100
AcDbArc
 50
-270.0
 51
-90.0
  0
ENDBLK
  5
1DF
100
AcDbEntity
  8
0
100
AcDbBlockEnd
  0
BLOCK
  5
1E2
100
AcDbEntity
  8
0
100
AcDbBlockBegin
  2
*B5
 70
     0
 10
0.0
 20
0.0
 30
0.0
  3
*B5
  1

  0
ENDBLK
  5
1E3
100
AcDbEntity
  8
0
100
AcDbBlockEnd
  0
BLOCK
  5
1E5
100
AcDbEntity
  8
0
100
AcDbBlockBegin
  2
*B6
 70
     0
 10
0.0
 20
0.0
 30
0.0
  3
*B6
  1

  0
LINE
  5
1E6
100
AcDbEntity
  8
0
  6
Continuous
 62
     0
100
AcDbLine
 10
586.308357
 20
360.086129
 30
0.0
 11
519.422423
 21
360.086129
 31
0.0
  0
SOLID
  5
1E7
100
AcDbEntity
  8
0
  6
Continuous
 62
     0
100
AcDbTrace
 10
576.309122
 20
362.086216
 30
0.0
 11
566.309888
 21
360.086129
 31
0.0
 12
576.309122
 22
358.086041
 32
0.0
 13
576.309122
 23
358.086041
 33
0.0
  0
SOLID
  5
1E8
100
AcDbEntity
  8
0
  6
Continuous
 62
     0
100
AcDbTrace
 10
542.811115
 20
358.086041
 30
0.0
 11
552.81035
 21
360.086129
 31
0.0
 12
542.811115
 22
362.086216
 32
0.0
 13
542.811115
 23
362.086216
 33
0.0
  0
ENDBLK
  5
1E9
100
AcDbEntity
  8
0
100
AcDbBlockEnd
  0
BLOCK
  5
1EC
100
AcDbEntity
  8
0
100
AcDbBlockBegin
  2
*B7
 70
     0
 10
0.0
 20
0.0
 30
0.0
  3
*B7
  1

  0
LINE
  5
1ED
100
AcDbEntity
  8
0
  6
Continuous
 62
     0
100
AcDbLine
 10
600.057529
 20
251.091285
 30
0.0
 11
465.065759
 21
251.091285
 31
0.0
  0
SOLID
  5
1EE
100
AcDbEntity
  8
0
  6
Continuous
 62
     0
100
AcDbTrace
 10
590.058295
 20
249.091198
 30
0.0
 11
600.057529
 21
251.091285
 31
0.0
 12
590.058295
 22
253.090771
 32
0.0
 13
590.058295
 23
253.090771
 33
0.0
  0
SOLID
  5
1EF
100
AcDbEntity
  8
0
  6
Continuous
 62
     0
100
AcDbTrace
 10
475.065595
 20
253.090771
 30
0.0
 11
465.065759
 21
251.091285
 31
0.0
 12
475.065595
 22
249.091198
 32
0.0
 13
475.065595
 23
249.091198
 33
0.0
  0
ENDBLK
  5
1F0
100
AcDbEntity
  8
0
100
AcDbBlockEnd
  0
BLOCK
  5
1F3
100
AcDbEntity
  8
0
100
AcDbBlockBegin
  2
*B8
 70
     0
 10
0.0
 20
0.0
 30
0.0
  3
*B8
  1

  0
LINE
  5
1F4
100
AcDbEntity
  8
0
  6
Continuous
 62
     0
100
AcDbLine
 10
559.560119
 20
274.93293
 30
0.0
 11
600.057529
 21
274.93293
 31
0.0
  0
SOLID
  5
1F5
100
AcDbEntity
  8
0
  6
Continuous
 62
     0
100
AcDbTrace
 10
569.559353
 20
276.933017
 30
0.0
 11
559.560119
 21
274.93293
 31
0.0
 12
569.559353
 22
272.933444
 32
0.0
 13
569.559353
 23
272.933444
 33
0.0
  0
SOLID
  5
1F6
100
AcDbEntity
  8
0
  6
Continuous
 62
     0
100
AcDbTrace
 10
590.058295
 20
272.933444
 30
0.0
 11
600.057529
 21
274.93293
 31
0.0
 12
590.058295
 22
276.933017
 32
0.0
 13
590.058295
 23
276.933017
 33
0.0
  0
ENDBLK
  5
1F7
100
AcDbEntity
  8
0
100
AcDbBlockEnd
  0
BLOCK
  5
1FA
100
AcDbEntity
  8
0
100
AcDbBlockBegin
  2
*B9
 70
     0
 10
0.0
 20
0.0
 30
0.0
  3
*B9
  1

  0
LINE
  5
1FB
100
AcDbEntity
  8
0
  6
Continuous
 62
     0
100
AcDbLine
 10
505.563771
 20
274.93293
 30
0.0
 11
559.560119
 21
274.93293
 31
0.0
  0
SOLID
  5
1FC
100
AcDbEntity
  8
0
  6
Continuous
 62
     0
100
AcDbTrace
 10
515.563006
 20
276.933017
 30
0.0
 11
505.563771
 21
274.93293
 31
0.0
 12
515.563006
 22
272.933444
 32
0.0
 13
515.563006
 23
272.933444
 33
0.0
  0
SOLID
  5
1FD
100
AcDbEntity
  8
0
  6
Continuous
 62
     0
100
AcDbTrace
 10
549.560884
 20
272.933444
 30
0.0
 11
559.560119
 21
274.93293
 31
0.0
 12
549.560884
 22
276.933017
 32
0.0
 13
549.560884
 23
276.933017
 33
0.0
  0
ENDBLK
  5
1FE
100
AcDbEntity
  8
0
100
AcDbBlockEnd
  0
BLOCK
  5
201
100
AcDbEntity
  8
0
100
AcDbBlockBegin
  2
*B10
 70
     0
 10
0.0
 20
0.0
 30
0.0
  3
*B10
  1

  0
LINE
  5
202
100
AcDbEntity
  8
0
  6
Continuous
 62
     0
100
AcDbLine
 10
632.961225
 20
399.374464
 30
0.0
 11
632.961225
 21
300.378855
 31
0.0
  0
SOLID
  5
203
100
AcDbEntity
  8
0
  6
Continuous
 62
     0
100
AcDbTrace
 10
634.961312
 20
389.374628
 30
0.0
 11
632.961225
 21
399.374464
 31
0.0
 12
630.961137
 22
389.374628
 32
0.0
 13
630.961137
 23
389.374628
 33
0.0
  0
SOLID
  5
204
100
AcDbEntity
  8
0
  6
Continuous
 62
     0
100
AcDbTrace
 10
630.961137
 20
310.378691
 30
0.0
 11
632.961225
 21
300.378855
 31
0.0
 12
634.961312
 22
310.378691
 32
0.0
 13
634.961312
 23
310.378691
 33
0.0
  0
ENDBLK
  5
205
100
AcDbEntity
  8
0
100
AcDbBlockEnd
  0
BLOCK
  5
208
100
AcDbEntity
  8
0
100
AcDbBlockBegin
  2
*B11
 70
     0
 10
0.0
 20
0.0
 30
0.0
  3
*B11
  1

  0
LINE
  5
209
100
AcDbEntity
  8
0
  6
Continuous
 62
     0
100
AcDbLine
 10
532.561644
 20
473.080546
 30
0.0
 11
600.057529
 21
473.080546
 31
0.0
  0
SOLID
  5
20A
100
AcDbEntity
  8
0
  6
Continuous
 62
     0
100
AcDbTrace
 10
542.56148
 20
475.080633
 30
0.0
 11
532.561644
 21
473.080546
 31
0.0
 12
542.56148
 22
471.08106
 32
0.0
 13
542.56148
 23
471.08106
 33
0.0
  0
SOLID
  5
20B
100
AcDbEntity
  8
0
  6
Continuous
 62
     0
100
AcDbTrace
 10
590.058295
 20
471.08106
 30
0.0
 11
600.057529
 21
473.080546
 31
0.0
 12
590.058295
 22
475.080633
 32
0.0
 13
590.058295
 23
475.080633
 33
0.0
  0
ENDBLK
  5
20C
100
AcDbEntity
  8
0
100
AcDbBlockEnd
  0
BLOCK
  5
20F
100
AcDbEntity
  8
0
100
AcDbBlockBegin
  2
*B12
 70
     0
 10
0.0
 20
0.0
 30
0.0
  3
*B12
  1

  0
LINE
  5
210
100
AcDbEntity
  8
0
  6
Continuous
 62
     0
100
AcDbLine
 10
630.961137
 20
197.427584
 30
0.0
 11
630.961137
 21
143.430636
 31
0.0
  0
SOLID
  5
211
100
AcDbEntity
  8
0
  6
Continuous
 62
     0
100
AcDbTrace
 10
632.961225
 20
187.42835
 30
0.0
 11
630.961137
 21
197.427584
 31
0.0
 12
628.961651
 22
187.42835
 32
0.0
 13
628.961651
 23
187.42835
 33
0.0
  0
SOLID
  5
212
100
AcDbEntity
  8
0
  6
Continuous
 62
     0
100
AcDbTrace
 10
628.961651
 20
153.42987
 30
0.0
 11
630.961137
 21
143.430636
 31
0.0
 12
632.961225
 22
153.42987
 32
0.0
 13
632.961225
 23
153.42987
 33
0.0
  0
ENDBLK
  5
213
100
AcDbEntity
  8
0
100
AcDbBlockEnd
  0
BLOCK
  5
216
100
AcDbEntity
  8
0
100
AcDbBlockBegin
  2
*B13
 70
     0
 10
0.0
 20
0.0
 30
0.0
  3
*B13
  1

  0
LINE
  5
217
100
AcDbEntity
  8
0
  6
Continuous
 62
     0
100
AcDbLine
 10
505.563771
 20
111.097793
 30
0.0
 11
559.560119
 21
111.097793
 31
0.0
  0
SOLID
  5
218
100
AcDbEntity
  8
0
  6
Continuous
 62
     0
100
AcDbTrace
 10
515.563006
 20
113.097279
 30
0.0
 11
505.563771
 21
111.097793
 31
0.0
 12
515.563006
 22
109.097705
 32
0.0
 13
515.563006
 23
109.097705
 33
0.0
  0
SOLID
  5
219
100
AcDbEntity
  8
0
  6
Continuous
 62
     0
100
AcDbTrace
 10
549.560884
 20
109.097705
 30
0.0
 11
559.560119
 21
111.097793
 31
0.0
 12
549.560884
 22
113.097279
 32
0.0
 13
549.560884
 23
113.097279
 33
0.0
  0
ENDBLK
  5
21A
100
AcDbEntity
  8
0
100
AcDbBlockEnd
  0
BLOCK
  5
21D
100
AcDbEntity
  8
0
100
AcDbBlockBegin
  2
*B14
 70
     0
 10
0.0
 20
0.0
 30
0.0
  3
*B14
  1

  0
LINE
  5
21E
100
AcDbEntity
  8
0
  6
Continuous
 62
     0
100
AcDbLine
 10
559.560119
 20
111.097793
 30
0.0
 11
600.057529
 21
111.097793
 31
0.0
  0
SOLID
  5
21F
100
AcDbEntity
  8
0
  6
Continuous
 62
     0
100
AcDbTrace
 10
569.559353
 20
113.097279
 30
0.0
 11
559.560119
 21
111.097793
 31
0.0
 12
569.559353
 22
109.097705
 32
0.0
 13
569.559353
 23
109.097705
 33
0.0
  0
SOLID
  5
220
100
AcDbEntity
  8
0
  6
Continuous
 62
     0
100
AcDbTrace
 10
590.058295
 20
109.097705
 30
0.0
 11
600.057529
 21
111.097793
 31
0.0
 12
590.058295
 22
113.097279
 32
0.0
 13
590.058295
 23
113.097279
 33
0.0
  0
ENDBLK
  5
221
100
AcDbEntity
  8
0
100
AcDbBlockEnd
  0
BLOCK
  5
224
100
AcDbEntity
  8
0
100
AcDbBlockBegin
  2
*B15
 70
     0
 10
0.0
 20
0.0
 30
0.0
  3
*B15
  1

  0
LINE
  5
225
100
AcDbEntity
  8
0
  6
Continuous
 62
     0
100
AcDbLine
 10
580.059061
 20
449.081902
 30
0.0
 11
628.232597
 21
449.081902
 31
0.0
  0
SOLID
  5
226
100
AcDbEntity
  8
0
  6
Continuous
 62
     0
100
AcDbTrace
 10
590.058295
 20
447.081815
 30
0.0
 11
600.057529
 21
449.081902
 31
0.0
 12
590.058295
 22
451.08199
 32
0.0
 13
590.058295
 23
451.08199
 33
0.0
  0
SOLID
  5
227
100
AcDbEntity
  8
0
  6
Continuous
 62
     0
100
AcDbTrace
 10
614.55681
 20
451.08199
 30
0.0
 11
604.557576
 21
449.081902
 31
0.0
 12
614.55681
 22
447.081815
 32
0.0
 13
614.55681
 23
447.081815
 33
0.0
  0
ENDBLK
  5
228
100
AcDbEntity
  8
0
100
AcDbBlockEnd
  0
BLOCK
  5
22B
100
AcDbEntity
  8
0
100
AcDbBlockBegin
  2
*B16
 70
     0
 10
0.0
 20
0.0
 30
0.0
  3
*B16
  1

  0
LINE
  5
22C
100
AcDbEntity
  8
0
  6
Continuous
 62
     0
100
AcDbLine
 10
490.424463
 20
448.924903
 30
0.0
 11
561.560206
 21
448.924903
 31
0.0
  0
SOLID
  5
22D
100
AcDbEntity
  8
0
  6
Continuous
 62
     0
100
AcDbTrace
 10
513.562918
 20
446.925417
 30
0.0
 11
523.562153
 21
448.924903
 31
0.0
 12
513.562918
 22
450.92499
 32
0.0
 13
513.562918
 23
450.92499
 33
0.0
  0
SOLID
  5
22E
100
AcDbEntity
  8
0
  6
Continuous
 62
     0
100
AcDbTrace
 10
551.560972
 20
450.92499
 30
0.0
 11
541.561136
 21
448.924903
 31
0.0
 12
551.560972
 22
446.925417
 32
0.0
 13
551.560972
 23
446.925417
 33
0.0
  0
ENDBLK
  5
22F
100
AcDbEntity
  8
0
100
AcDbBlockEnd
  0
BLOCK
  5
232
100
AcDbEntity
  8
0
100
AcDbBlockBegin
  2
*B17
 70
     0
 10
0.0
 20
0.0
 30
0.0
  3
*B17
  1

  0
LINE
  5
233
100
AcDbEntity
  8
0
  6
Continuous
 62
     0
100
AcDbLine
 10
303.076116
 20
497.079791
 30
0.0
 11
600.057529
 21
497.079791
 31
0.0
  0
SOLID
  5
234
100
AcDbEntity
  8
0
  6
Continuous
 62
     0
100
AcDbTrace
 10
313.075351
 20
499.079277
 30
0.0
 11
303.076116
 21
497.079791
 31
0.0
 12
313.075351
 22
495.079704
 32
0.0
 13
313.075351
 23
495.079704
 33
0.0
  0
SOLID
  5
235
100
AcDbEntity
  8
0
  6
Continuous
 62
     0
100
AcDbTrace
 10
590.058295
 20
495.079704
 30
0.0
 11
600.057529
 21
497.079791
 31
0.0
 12
590.058295
 22
499.079277
 32
0.0
 13
590.058295
 23
499.079277
 33
0.0
  0
ENDBLK
  5
236
100
AcDbEntity
  8
0
100
AcDbBlockEnd
  0
BLOCK
  5
239
100
AcDbEntity
  8
0
100
AcDbBlockBegin
  2
*B18
 70
     0
 10
0.0
 20
0.0
 30
0.0
  3
*B18
  1

  0
LINE
  5
23A
100
AcDbEntity
  8
0
  6
Continuous
 62
     0
100
AcDbLine
 10
280.983119
 20
300.378855
 30
0.0
 11
280.983119
 21
417.373447
 31
0.0
  0
SOLID
  5
23B
100
AcDbEntity
  8
0
  6
Continuous
 62
     0
100
AcDbTrace
 10
278.983032
 20
310.378691
 30
0.0
 11
280.983119
 21
300.378855
 31
0.0
 12
282.982605
 22
310.378691
 32
0.0
 13
282.982605
 23
310.378691
 33
0.0
  0
SOLID
  5
23C
100
AcDbEntity
  8
0
  6
Continuous
 62
     0
100
AcDbTrace
 10
282.982605
 20
407.373611
 30
0.0
 11
280.983119
 21
417.373447
 31
0.0
 12
278.983032
 22
407.373611
 32
0.0
 13
278.983032
 23
407.373611
 33
0.0
  0
ENDBLK
  5
23D
100
AcDbEntity
  8
0
100
AcDbBlockEnd
  0
BLOCK
  5
240
100
AcDbEntity
  8
0
100
AcDbBlockBegin
  2
*B19
 70
     0
 10
0.0
 20
0.0
 30
0.0
  3
*B19
  1

  0
LINE
  5
241
100
AcDbEntity
  8
0
  6
Continuous
 62
     0
100
AcDbLine
 10
632.961225
 20
379.375394
 30
0.0
 11
632.961225
 21
449.972167
 31
0.0
  0
SOLID
  5
242
100
AcDbEntity
  8
0
  6
Continuous
 62
     0
100
AcDbTrace
 10
634.961312
 20
389.374628
 30
0.0
 11
632.961225
 21
399.374464
 31
0.0
 12
630.961137
 22
389.374628
 32
0.0
 13
630.961137
 23
389.374628
 33
0.0
  0
SOLID
  5
243
100
AcDbEntity
  8
0
  6
Continuous
 62
     0
100
AcDbTrace
 10
630.961137
 20
439.972331
 30
0.0
 11
632.961225
 21
429.973096
 31
0.0
 12
634.961312
 22
439.972331
 32
0.0
 13
634.961312
 23
439.972331
 33
0.0
  0
ENDBLK
  5
244
100
AcDbEntity
  8
0
100
AcDbBlockEnd
  0
BLOCK
  5
247
100
AcDbEntity
  8
0
100
AcDbBlockBegin
  2
*B20
 70
     0
 10
0.0
 20
0.0
 30
0.0
  3
*B20
  1

  0
LINE
  5
248
100
AcDbEntity
  8
0
  6
Continuous
 62
     0
100
AcDbLine
 10
279.982775
 20
134.430543
 30
0.0
 11
279.982775
 21
206.427677
 31
0.0
  0
SOLID
  5
249
100
AcDbEntity
  8
0
  6
Continuous
 62
     0
100
AcDbTrace
 10
277.983289
 20
144.430379
 30
0.0
 11
279.982775
 21
134.430543
 31
0.0
 12
281.982862
 22
144.430379
 32
0.0
 13
281.982862
 23
144.430379
 33
0.0
  0
SOLID
  5
24A
100
AcDbEntity
  8
0
  6
Continuous
 62
     0
100
AcDbTrace
 10
281.982862
 20
196.427841
 30
0.0
 11
279.982775
 21
206.427677
 31
0.0
 12
277.983289
 22
196.427841
 32
0.0
 13
277.983289
 23
196.427841
 33
0.0
  0
ENDBLK
  5
24B
100
AcDbEntity
  8
0
100
AcDbBlockEnd
  0
BLOCK
  5
24E
100
AcDbEntity
  8
0
100
AcDbBlockBegin
  2
*B21
 70
     0
 10
0.0
 20
0.0
 30
0.0
  3
*B21
  1

  0
LINE
  5
24F
100
AcDbEntity
  8
0
  6
Continuous
 62
     8
100
AcDbLine
 10
277.983289
 20
134.430543
 30
0.0
 11
297.076455
 21
134.430543
 31
0.0
  0
ENDBLK
  5
250
100
AcDbEntity
  8
0
100
AcDbBlockEnd
  0
BLOCK
  5
253
100
AcDbEntity
  8
0
100
AcDbBlockBegin
  2
*B22
 70
     0
 10
0.0
 20
0.0
 30
0.0
  3
*B22
  1

  0
LINE
  5
254
100
AcDbEntity
  8
0
  6
Continuous
 62
     8
100
AcDbLine
 10
604.557576
 20
364.876113
 30
0.0
 11
604.557576
 21
451.08199
 31
0.0
  0
ENDBLK
  5
255
100
AcDbEntity
  8
0
100
AcDbBlockEnd
  0
BLOCK
  5
258
100
AcDbEntity
  8
0
100
AcDbBlockBegin
  2
*B23
 70
     0
 10
0.0
 20
0.0
 30
0.0
  3
*B23
  1

  0
LINE
  5
259
100
AcDbEntity
  8
0
  6
Continuous
 62
     8
100
AcDbLine
 10
523.562153
 20
435.972757
 30
0.0
 11
523.562153
 21
450.92499
 31
0.0
  0
ENDBLK
  5
25A
100
AcDbEntity
  8
0
100
AcDbBlockEnd
  0
BLOCK
  5
25D
100
AcDbEntity
  8
0
100
AcDbBlockBegin
  2
*B24
 70
     0
 10
0.0
 20
0.0
 30
0.0
  3
*B24
  1

  0
LINE
  5
25E
100
AcDbEntity
  8
0
  6
Continuous
 62
     8
100
AcDbLine
 10
628.961651
 20
143.430636
 30
0.0
 11
632.961225
 21
143.430636
 31
0.0
  0
LINE
  5
25F
100
AcDbEntity
  8
0
  6
Continuous
 62
     8
100
AcDbLine
 10
544.111022
 20
143.430636
 30
0.0
 11
551.560972
 21
143.430636
 31
0.0
  0
LINE
  5
260
100
AcDbEntity
  8
0
  6
Continuous
 62
     8
100
AcDbLine
 10
567.559867
 20
143.430636
 30
0.0
 11
591.260754
 21
143.430636
 31
0.0
  0
LINE
  5
261
100
AcDbEntity
  8
0
  6
Continuous
 62
     8
100
AcDbLine
 10
597.260415
 20
143.430636
 30
0.0
 11
599.260502
 21
143.430636
 31
0.0
  0
LINE
  5
262
100
AcDbEntity
  8
0
  6
Continuous
 62
     8
100
AcDbLine
 10
605.260163
 20
143.430636
 30
0.0
 11
628.961651
 21
143.430636
 31
0.0
  0
ENDBLK
  5
263
100
AcDbEntity
  8
0
100
AcDbBlockEnd
  0
BLOCK
  5
266
100
AcDbEntity
  8
0
100
AcDbBlockBegin
  2
*B25
 70
     0
 10
0.0
 20
0.0
 30
0.0
  3
*B25
  1

  0
LINE
  5
267
100
AcDbEntity
  8
0
  6
Continuous
 62
     8
100
AcDbLine
 10
606.05719
 20
300.378855
 30
0.0
 11
634.961312
 21
300.378855
 31
0.0
  0
ENDBLK
  5
268
100
AcDbEntity
  8
0
100
AcDbBlockEnd
  0
BLOCK
  5
26B
100
AcDbEntity
  8
0
100
AcDbBlockBegin
  2
*B26
 70
     0
 10
0.0
 20
0.0
 30
0.0
  3
*B26
  1

  0
LINE
  5
26C
100
AcDbEntity
  8
0
  6
Continuous
 62
     8
100
AcDbLine
 10
278.983032
 20
300.378855
 30
0.0
 11
297.076455
 21
300.378855
 31
0.0
  0
ENDBLK
  5
26D
100
AcDbEntity
  8
0
100
AcDbBlockEnd
  0
BLOCK
  5
270
100
AcDbEntity
  8
0
100
AcDbBlockBegin
  2
*B27
 70
     0
 10
0.0
 20
0.0
 30
0.0
  3
*B27
  1

  0
LINE
  5
271
100
AcDbEntity
  8
0
  6
Continuous
 62
     8
100
AcDbLine
 10
532.561644
 20
471.08106
 30
0.0
 11
532.561644
 21
475.080633
 31
0.0
  0
LINE
  5
272
100
AcDbEntity
  8
0
  6
Continuous
 62
     8
100
AcDbLine
 10
532.561644
 20
393.374803
 30
0.0
 11
532.561644
 21
409.943949
 31
0.0
  0
LINE
  5
273
100
AcDbEntity
  8
0
  6
Continuous
 62
     8
100
AcDbLine
 10
532.561644
 20
415.94361
 30
0.0
 11
532.561644
 21
417.943096
 31
0.0
  0
LINE
  5
274
100
AcDbEntity
  8
0
  6
Continuous
 62
     8
100
AcDbLine
 10
532.561644
 20
423.943359
 30
0.0
 11
532.561644
 21
440.512505
 31
0.0
  0
LINE
  5
275
100
AcDbEntity
  8
0
  6
Continuous
 62
     8
100
AcDbLine
 10
532.561644
 20
446.512166
 30
0.0
 11
532.561644
 21
448.512253
 31
0.0
  0
LINE
  5
276
100
AcDbEntity
  8
0
  6
Continuous
 62
     8
100
AcDbLine
 10
532.561644
 20
454.511914
 30
0.0
 11
532.561644
 21
471.08106
 31
0.0
  0
ENDBLK
  5
277
100
AcDbEntity
  8
0
100
AcDbBlockEnd
  0
BLOCK
  5
27A
100
AcDbEntity
  8
0
100
AcDbBlockBegin
  2
*B28
 70
     0
 10
0.0
 20
0.0
 30
0.0
  3
*B28
  1

  0
LINE
  5
27B
100
AcDbEntity
  8
0
  6
Continuous
 62
     8
100
AcDbLine
 10
532.561644
 20
141.93042
 30
0.0
 11
532.561644
 21
162.429362
 31
0.0
  0
LINE
  5
27C
100
AcDbEntity
  8
0
  6
Continuous
 62
     8
100
AcDbLine
 10
532.561644
 20
178.428859
 30
0.0
 11
532.561644
 21
198.9278
 31
0.0
  0
ENDBLK
  5
27D
100
AcDbEntity
  8
0
100
AcDbBlockEnd
  0
BLOCK
  5
280
100
AcDbEntity
  8
0
100
AcDbBlockBegin
  2
*B29
 70
     0
 10
0.0
 20
0.0
 30
0.0
  3
*B29
  1

  0
LINE
  5
281
100
AcDbEntity
  8
0
  6
Continuous
 62
     8
100
AcDbLine
 10
297.076455
 20
349.876359
 30
0.0
 11
312.438932
 21
349.876359
 31
0.0
  0
LINE
  5
282
100
AcDbEntity
  8
0
  6
Continuous
 62
     8
100
AcDbLine
 10
318.438593
 20
349.876359
 30
0.0
 11
320.43868
 21
349.876359
 31
0.0
  0
LINE
  5
283
100
AcDbEntity
  8
0
  6
Continuous
 62
     8
100
AcDbLine
 10
326.438341
 20
349.876359
 30
0.0
 11
341.800818
 21
349.876359
 31
0.0
  0
LINE
  5
284
100
AcDbEntity
  8
0
  6
Continuous
 62
     8
100
AcDbLine
 10
347.800479
 20
349.876359
 30
0.0
 11
349.800566
 21
349.876359
 31
0.0
  0
LINE
  5
285
100
AcDbEntity
  8
0
  6
Continuous
 62
     8
100
AcDbLine
 10
355.800227
 20
349.876359
 30
0.0
 11
371.162704
 21
349.876359
 31
0.0
  0
LINE
  5
286
100
AcDbEntity
  8
0
  6
Continuous
 62
     8
100
AcDbLine
 10
377.162365
 20
349.876359
 30
0.0
 11
379.162452
 21
349.876359
 31
0.0
  0
LINE
  5
287
100
AcDbEntity
  8
0
  6
Continuous
 62
     8
100
AcDbLine
 10
385.162113
 20
349.876359
 30
0.0
 11
400.52459
 21
349.876359
 31
0.0
  0
LINE
  5
288
100
AcDbEntity
  8
0
  6
Continuous
 62
     8
100
AcDbLine
 10
406.524251
 20
349.876359
 30
0.0
 11
408.524338
 21
349.876359
 31
0.0
  0
LINE
  5
289
100
AcDbEntity
  8
0
  6
Continuous
 62
     8
100
AcDbLine
 10
414.523398
 20
349.876359
 30
0.0
 11
429.886476
 21
349.876359
 31
0.0
  0
LINE
  5
28A
100
AcDbEntity
  8
0
  6
Continuous
 62
     8
100
AcDbLine
 10
435.886137
 20
349.876359
 30
0.0
 11
437.885623
 21
349.876359
 31
0.0
  0
LINE
  5
28B
100
AcDbEntity
  8
0
  6
Continuous
 62
     8
100
AcDbLine
 10
443.885284
 20
349.876359
 30
0.0
 11
459.248362
 21
349.876359
 31
0.0
  0
LINE
  5
28C
100
AcDbEntity
  8
0
  6
Continuous
 62
     8
100
AcDbLine
 10
465.248023
 20
349.876359
 30
0.0
 11
467.247509
 21
349.876359
 31
0.0
  0
LINE
  5
28D
100
AcDbEntity
  8
0
  6
Continuous
 62
     8
100
AcDbLine
 10
473.24717
 20
349.876359
 30
0.0
 11
488.610248
 21
349.876359
 31
0.0
  0
LINE
  5
28E
100
AcDbEntity
  8
0
  6
Continuous
 62
     8
100
AcDbLine
 10
494.609909
 20
349.876359
 30
0.0
 11
496.609395
 21
349.876359
 31
0.0
  0
LINE
  5
28F
100
AcDbEntity
  8
0
  6
Continuous
 62
     8
100
AcDbLine
 10
502.609056
 20
349.876359
 30
0.0
 11
517.972134
 21
349.876359
 31
0.0
  0
LINE
  5
290
100
AcDbEntity
  8
0
  6
Continuous
 62
     8
100
AcDbLine
 10
523.971795
 20
349.876359
 30
0.0
 11
525.971281
 21
349.876359
 31
0.0
  0
LINE
  5
291
100
AcDbEntity
  8
0
  6
Continuous
 62
     8
100
AcDbLine
 10
531.970942
 20
349.876359
 30
0.0
 11
547.33402
 21
349.876359
 31
0.0
  0
LINE
  5
292
100
AcDbEntity
  8
0
  6
Continuous
 62
     8
100
AcDbLine
 10
553.333079
 20
349.876359
 30
0.0
 11
555.333167
 21
349.876359
 31
0.0
  0
LINE
  5
293
100
AcDbEntity
  8
0
  6
Continuous
 62
     8
100
AcDbLine
 10
561.332828
 20
349.876359
 30
0.0
 11
576.695304
 21
349.876359
 31
0.0
  0
LINE
  5
294
100
AcDbEntity
  8
0
  6
Continuous
 62
     8
100
AcDbLine
 10
582.694965
 20
349.876359
 30
0.0
 11
584.695053
 21
349.876359
 31
0.0
  0
LINE
  5
295
100
AcDbEntity
  8
0
  6
Continuous
 62
     8
100
AcDbLine
 10
590.694714
 20
349.876359
 30
0.0
 11
606.05719
 21
349.876359
 31
0.0
  0
ENDBLK
  5
296
100
AcDbEntity
  8
0
100
AcDbBlockEnd
  0
BLOCK
  5
299
100
AcDbEntity
  8
0
100
AcDbBlockBegin
  2
*B30
 70
     0
 10
0.0
 20
0.0
 30
0.0
  3
*B30
  1

  0
LINE
  5
29A
100
AcDbEntity
  8
0
  6
Continuous
 62
     8
100
AcDbLine
 10
541.561136
 20
435.972757
 30
0.0
 11
541.561136
 21
450.92499
 31
0.0
  0
ENDBLK
  5
29B
100
AcDbEntity
  8
0
100
AcDbBlockEnd
  0
BLOCK
  5
29E
100
AcDbEntity
  8
0
100
AcDbBlockBegin
  2
*B31
 70
     0
 10
0.0
 20
0.0
 30
0.0
  3
*B31
  1

  0
LINE
  5
29F
100
AcDbEntity
  8
0
  6
Continuous
 62
     8
100
AcDbLine
 10
561.060335
 20
429.973096
 30
0.0
 11
634.961312
 21
429.973096
 31
0.0
  0
ENDBLK
  5
2A0
100
AcDbEntity
  8
0
100
AcDbBlockEnd
  0
BLOCK
  5
2A3
100
AcDbEntity
  8
0
100
AcDbBlockBegin
  2
*B32
 70
     0
 10
0.0
 20
0.0
 30
0.0
  3
*B32
  1

  0
LINE
  5
2A4
100
AcDbEntity
  8
0
  6
Continuous
 62
     8
100
AcDbLine
 10
606.05719
 20
399.374464
 30
0.0
 11
634.961312
 21
399.374464
 31
0.0
  0
ENDBLK
  5
2A5
100
AcDbEntity
  8
0
100
AcDbBlockEnd
  0
BLOCK
  5
2A8
100
AcDbEntity
  8
0
100
AcDbBlockBegin
  2
*B33
 70
     0
 10
0.0
 20
0.0
 30
0.0
  3
*B33
  1

  0
LINE
  5
2A9
100
AcDbEntity
  8
0
  6
Continuous
 62
     8
100
AcDbLine
 10
566.309888
 20
328.877546
 30
0.0
 11
566.309888
 21
362.086216
 31
0.0
  0
ENDBLK
  5
2AA
100
AcDbEntity
  8
0
100
AcDbBlockEnd
  0
BLOCK
  5
2AD
100
AcDbEntity
  8
0
100
AcDbBlockBegin
  2
*B34
 70
     0
 10
0.0
 20
0.0
 30
0.0
  3
*B34
  1

  0
LINE
  5
2AE
100
AcDbEntity
  8
0
  6
Continuous
 62
     8
100
AcDbLine
 10
600.057529
 20
109.097705
 30
0.0
 11
600.057529
 21
128.430882
 31
0.0
  0
ENDBLK
  5
2AF
100
AcDbEntity
  8
0
100
AcDbBlockEnd
  0
BLOCK
  5
2B2
100
AcDbEntity
  8
0
100
AcDbBlockBegin
  2
*B35
 70
     0
 10
0.0
 20
0.0
 30
0.0
  3
*B35
  1

  0
LINE
  5
2B3
100
AcDbEntity
  8
0
  6
Continuous
 62
     8
100
AcDbLine
 10
339.074082
 20
153.179634
 30
0.0
 11
339.074082
 21
162.429362
 31
0.0
  0
LINE
  5
2B4
100
AcDbEntity
  8
0
  6
Continuous
 62
     8
100
AcDbLine
 10
339.074082
 20
178.428859
 30
0.0
 11
339.074082
 21
187.677985
 31
0.0
  0
ENDBLK
  5
2B5
100
AcDbEntity
  8
0
100
AcDbBlockEnd
  0
BLOCK
  5
2B8
100
AcDbEntity
  8
0
100
AcDbBlockBegin
  2
*B36
 70
     0
 10
0.0
 20
0.0
 30
0.0
  3
*B36
  1

  0
LINE
  5
2B9
100
AcDbEntity
  8
0
  6
Continuous
 62
     8
100
AcDbLine
 10
559.560119
 20
109.097705
 30
0.0
 11
559.560119
 21
113.097279
 31
0.0
  0
LINE
  5
2BA
100
AcDbEntity
  8
0
  6
Continuous
 62
     8
100
AcDbLine
 10
559.560119
 20
113.097279
 30
0.0
 11
559.560119
 21
135.430887
 31
0.0
  0
LINE
  5
2BB
100
AcDbEntity
  8
0
  6
Continuous
 62
     8
100
AcDbLine
 10
559.560119
 20
151.429783
 30
0.0
 11
559.560119
 21
158.879733
 31
0.0
  0
ENDBLK
  5
2BC
100
AcDbEntity
  8
0
100
AcDbBlockEnd
  0
BLOCK
  5
2BF
100
AcDbEntity
  8
0
100
AcDbBlockBegin
  2
*B37
 70
     0
 10
0.0
 20
0.0
 30
0.0
  3
*B37
  1

  0
LINE
  5
2C0
100
AcDbEntity
  8
0
  6
Continuous
 62
     8
100
AcDbLine
 10
447.067378
 20
155.429958
 30
0.0
 11
447.067378
 21
162.429362
 31
0.0
  0
LINE
  5
2C1
100
AcDbEntity
  8
0
  6
Continuous
 62
     8
100
AcDbLine
 10
447.067378
 20
178.428859
 30
0.0
 11
447.067378
 21
185.428262
 31
0.0
  0
ENDBLK
  5
2C2
100
AcDbEntity
  8
0
100
AcDbBlockEnd
  0
BLOCK
  5
2C5
100
AcDbEntity
  8
0
100
AcDbBlockBegin
  2
*B38
 70
     0
 10
0.0
 20
0.0
 30
0.0
  3
*B38
  1

  0
LINE
  5
2C6
100
AcDbEntity
  8
0
  6
Continuous
 62
     8
100
AcDbLine
 10
600.057529
 20
249.091198
 30
0.0
 11
600.057529
 21
294.379194
 31
0.0
  0
LINE
  5
2C7
100
AcDbEntity
  8
0
  6
Continuous
 62
     8
100
AcDbLine
 10
600.057529
 20
405.374125
 30
0.0
 11
600.057529
 21
499.079277
 31
0.0
  0
ENDBLK
  5
2C8
100
AcDbEntity
  8
0
100
AcDbBlockEnd
  0
BLOCK
  5
2CB
100
AcDbEntity
  8
0
100
AcDbBlockBegin
  2
*B39
 70
     0
 10
0.0
 20
0.0
 30
0.0
  3
*B39
  1

  0
LINE
  5
2CC
100
AcDbEntity
  8
0
  6
Continuous
 62
     8
100
AcDbLine
 10
278.983032
 20
417.373447
 30
0.0
 11
297.076455
 21
417.373447
 31
0.0
  0
ENDBLK
  5
2CD
100
AcDbEntity
  8
0
100
AcDbBlockEnd
  0
BLOCK
  5
2D0
100
AcDbEntity
  8
0
100
AcDbBlockBegin
  2
*B40
 70
     0
 10
0.0
 20
0.0
 30
0.0
  3
*B40
  1

  0
LINE
  5
2D1
100
AcDbEntity
  8
0
  6
Continuous
 62
     8
100
AcDbLine
 10
505.563771
 20
272.933444
 30
0.0
 11
505.563771
 21
276.933017
 31
0.0
  0
LINE
  5
2D2
100
AcDbEntity
  8
0
  6
Continuous
 62
     8
100
AcDbLine
 10
505.563771
 20
276.933017
 30
0.0
 11
505.563771
 21
297.193753
 31
0.0
  0
LINE
  5
2D3
100
AcDbEntity
  8
0
  6
Continuous
 62
     8
100
AcDbLine
 10
505.563771
 20
303.193414
 30
0.0
 11
505.563771
 21
305.193502
 31
0.0
  0
LINE
  5
2D4
100
AcDbEntity
  8
0
  6
Continuous
 62
     8
100
AcDbLine
 10
505.563771
 20
311.193163
 30
0.0
 11
505.563771
 21
331.453899
 31
0.0
  0
LINE
  5
2D5
100
AcDbEntity
  8
0
  6
Continuous
 62
     8
100
AcDbLine
 10
505.563771
 20
337.45356
 30
0.0
 11
505.563771
 21
339.453647
 31
0.0
  0
LINE
  5
2D6
100
AcDbEntity
  8
0
  6
Continuous
 62
     8
100
AcDbLine
 10
505.563771
 20
345.453308
 30
0.0
 11
505.563771
 21
365.714044
 31
0.0
  0
LINE
  5
2D7
100
AcDbEntity
  8
0
  6
Continuous
 62
     8
100
AcDbLine
 10
505.563771
 20
371.713705
 30
0.0
 11
505.563771
 21
373.713793
 31
0.0
  0
LINE
  5
2D8
100
AcDbEntity
  8
0
  6
Continuous
 62
     8
100
AcDbLine
 10
505.563771
 20
379.713454
 30
0.0
 11
505.563771
 21
399.97419
 31
0.0
  0
ENDBLK
  5
2D9
100
AcDbEntity
  8
0
100
AcDbBlockEnd
  0
BLOCK
  5
2DC
100
AcDbEntity
  8
0
100
AcDbBlockBegin
  2
*B41
 70
     0
 10
0.0
 20
0.0
 30
0.0
  3
*B41
  1

  0
LINE
  5
2DD
100
AcDbEntity
  8
0
  6
Continuous
 62
     8
100
AcDbLine
 10
465.065759
 20
249.091198
 30
0.0
 11
465.065759
 21
294.379194
 31
0.0
  0
ENDBLK
  5
2DE
100
AcDbEntity
  8
0
100
AcDbBlockEnd
  0
BLOCK
  5
2E1
100
AcDbEntity
  8
0
100
AcDbBlockBegin
  2
*B42
 70
     0
 10
0.0
 20
0.0
 30
0.0
  3
*B42
  1

  0
LINE
  5
2E2
100
AcDbEntity
  8
0
  6
Continuous
 62
     8
100
AcDbLine
 10
297.076455
 20
170.42911
 30
0.0
 11
331.074333
 21
170.42911
 31
0.0
  0
LINE
  5
2E3
100
AcDbEntity
  8
0
  6
Continuous
 62
     8
100
AcDbLine
 10
347.073229
 20
170.42911
 30
0.0
 11
368.40529
 21
170.42911
 31
0.0
  0
LINE
  5
2E4
100
AcDbEntity
  8
0
  6
Continuous
 62
     8
100
AcDbLine
 10
374.404951
 20
170.42911
 30
0.0
 11
376.405038
 21
170.42911
 31
0.0
  0
LINE
  5
2E5
100
AcDbEntity
  8
0
  6
Continuous
 62
     8
100
AcDbLine
 10
382.404699
 20
170.42911
 30
0.0
 11
403.73676
 21
170.42911
 31
0.0
  0
LINE
  5
2E6
100
AcDbEntity
  8
0
  6
Continuous
 62
     8
100
AcDbLine
 10
409.73582
 20
170.42911
 30
0.0
 11
411.735907
 21
170.42911
 31
0.0
  0
LINE
  5
2E7
100
AcDbEntity
  8
0
  6
Continuous
 62
     8
100
AcDbLine
 10
417.735568
 20
170.42911
 30
0.0
 11
439.067629
 21
170.42911
 31
0.0
  0
LINE
  5
2E8
100
AcDbEntity
  8
0
  6
Continuous
 62
     8
100
AcDbLine
 10
455.066525
 20
170.42911
 30
0.0
 11
482.815107
 21
170.42911
 31
0.0
  0
LINE
  5
2E9
100
AcDbEntity
  8
0
  6
Continuous
 62
     8
100
AcDbLine
 10
488.814768
 20
170.42911
 30
0.0
 11
490.814254
 21
170.42911
 31
0.0
  0
LINE
  5
2EA
100
AcDbEntity
  8
0
  6
Continuous
 62
     8
100
AcDbLine
 10
496.813915
 20
170.42911
 30
0.0
 11
524.562497
 21
170.42911
 31
0.0
  0
LINE
  5
2EB
100
AcDbEntity
  8
0
  6
Continuous
 62
     8
100
AcDbLine
 10
540.561393
 20
170.42911
 30
0.0
 11
568.55961
 21
170.42911
 31
0.0
  0
LINE
  5
2EC
100
AcDbEntity
  8
0
  6
Continuous
 62
     8
100
AcDbLine
 10
574.559271
 20
170.42911
 30
0.0
 11
576.559359
 21
170.42911
 31
0.0
  0
LINE
  5
2ED
100
AcDbEntity
  8
0
  6
Continuous
 62
     8
100
AcDbLine
 10
582.55902
 20
170.42911
 30
0.0
 11
610.557237
 21
170.42911
 31
0.0
  0
ENDBLK
  5
2EE
100
AcDbEntity
  8
0
100
AcDbBlockEnd
  0
BLOCK
  5
2F1
100
AcDbEntity
  8
0
100
AcDbBlockBegin
  2
*B43
 70
     0
 10
0.0
 20
0.0
 30
0.0
  3
*B43
  1

  0
LINE
  5
2F2
100
AcDbEntity
  8
0
  6
Continuous
 62
     8
100
AcDbLine
 10
505.563771
 20
109.097705
 30
0.0
 11
505.563771
 21
113.097279
 31
0.0
  0
LINE
  5
2F3
100
AcDbEntity
  8
0
  6
Continuous
 62
     8
100
AcDbLine
 10
505.563771
 20
113.097279
 30
0.0
 11
505.563771
 21
129.208059
 31
0.0
  0
LINE
  5
2F4
100
AcDbEntity
  8
0
  6
Continuous
 62
     8
100
AcDbLine
 10
505.563771
 20
135.20772
 30
0.0
 11
505.563771
 21
137.207807
 31
0.0
  0
LINE
  5
2F5
100
AcDbEntity
  8
0
  6
Continuous
 62
     8
100
AcDbLine
 10
505.563771
 20
143.207468
 30
0.0
 11
505.563771
 21
159.318248
 31
0.0
  0
LINE
  5
2F6
100
AcDbEntity
  8
0
  6
Continuous
 62
     8
100
AcDbLine
 10
505.563771
 20
165.317909
 30
0.0
 11
505.563771
 21
167.317997
 31
0.0
  0
LINE
  5
2F7
100
AcDbEntity
  8
0
  6
Continuous
 62
     8
100
AcDbLine
 10
505.563771
 20
173.317657
 30
0.0
 11
505.563771
 21
189.428437
 31
0.0
  0
LINE
  5
2F8
100
AcDbEntity
  8
0
  6
Continuous
 62
     8
100
AcDbLine
 10
505.563771
 20
205.427333
 30
0.0
 11
505.563771
 21
212.877283
 31
0.0
  0
ENDBLK
  5
2F9
100
AcDbEntity
  8
0
100
AcDbBlockEnd
  0
BLOCK
  5
2FC
100
AcDbEntity
  8
0
100
AcDbBlockBegin
  2
*B44
 70
     0
 10
0.0
 20
0.0
 30
0.0
  3
*B44
  1

  0
LINE
  5
2FD
100
AcDbEntity
  8
0
  6
Continuous
 62
     8
100
AcDbLine
 10
559.560119
 20
272.933444
 30
0.0
 11
559.560119
 21
276.933017
 31
0.0
  0
LINE
  5
2FE
100
AcDbEntity
  8
0
  6
Continuous
 62
     8
100
AcDbLine
 10
559.560119
 20
276.933017
 30
0.0
 11
559.560119
 21
297.193753
 31
0.0
  0
LINE
  5
2FF
100
AcDbEntity
  8
0
  6
Continuous
 62
     8
100
AcDbLine
 10
559.560119
 20
303.193414
 30
0.0
 11
559.560119
 21
305.193502
 31
0.0
  0
LINE
  5
300
100
AcDbEntity
  8
0
  6
Continuous
 62
     8
100
AcDbLine
 10
559.560119
 20
311.193163
 30
0.0
 11
559.560119
 21
331.453899
 31
0.0
  0
LINE
  5
301
100
AcDbEntity
  8
0
  6
Continuous
 62
     8
100
AcDbLine
 10
559.560119
 20
337.45356
 30
0.0
 11
559.560119
 21
339.453647
 31
0.0
  0
LINE
  5
302
100
AcDbEntity
  8
0
  6
Continuous
 62
     8
100
AcDbLine
 10
559.560119
 20
345.453308
 30
0.0
 11
559.560119
 21
365.714044
 31
0.0
  0
LINE
  5
303
100
AcDbEntity
  8
0
  6
Continuous
 62
     8
100
AcDbLine
 10
559.560119
 20
371.713705
 30
0.0
 11
559.560119
 21
373.713793
 31
0.0
  0
LINE
  5
304
100
AcDbEntity
  8
0
  6
Continuous
 62
     8
100
AcDbLine
 10
559.560119
 20
379.713454
 30
0.0
 11
559.560119
 21
399.97419
 31
0.0
  0
ENDBLK
  5
305
100
AcDbEntity
  8
0
100
AcDbBlockEnd
  0
BLOCK
  5
308
100
AcDbEntity
  8
0
100
AcDbBlockBegin
  2
*B45
 70
     0
 10
0.0
 20
0.0
 30
0.0
  3
*B45
  1

  0
LINE
  5
309
100
AcDbEntity
  8
0
  6
Continuous
 62
     8
100
AcDbLine
 10
277.983289
 20
206.427677
 30
0.0
 11
297.076455
 21
206.427677
 31
0.0
  0
ENDBLK
  5
30A
100
AcDbEntity
  8
0
100
AcDbBlockEnd
  0
BLOCK
  5
30D
100
AcDbEntity
  8
0
100
AcDbBlockBegin
  2
*B46
 70
     0
 10
0.0
 20
0.0
 30
0.0
  3
*B46
  1

  0
LINE
  5
30E
100
AcDbEntity
  8
0
  6
Continuous
 62
     8
100
AcDbLine
 10
552.81035
 20
328.877546
 30
0.0
 11
552.81035
 21
362.086216
 31
0.0
  0
ENDBLK
  5
30F
100
AcDbEntity
  8
0
100
AcDbBlockEnd
  0
BLOCK
  5
312
100
AcDbEntity
  8
0
100
AcDbBlockBegin
  2
*B47
 70
     0
 10
0.0
 20
0.0
 30
0.0
  3
*B47
  1

  0
LINE
  5
313
100
AcDbEntity
  8
0
  6
Continuous
 62
     8
100
AcDbLine
 10
628.961651
 20
197.427584
 30
0.0
 11
632.961225
 21
197.427584
 31
0.0
  0
LINE
  5
314
100
AcDbEntity
  8
0
  6
Continuous
 62
     8
100
AcDbLine
 10
490.114675
 20
197.427584
 30
0.0
 11
497.564023
 21
197.427584
 31
0.0
  0
LINE
  5
315
100
AcDbEntity
  8
0
  6
Continuous
 62
     8
100
AcDbLine
 10
513.562918
 20
197.427584
 30
0.0
 11
531.913195
 21
197.427584
 31
0.0
  0
LINE
  5
316
100
AcDbEntity
  8
0
  6
Continuous
 62
     8
100
AcDbLine
 10
537.912856
 20
197.427584
 30
0.0
 11
539.912943
 21
197.427584
 31
0.0
  0
LINE
  5
317
100
AcDbEntity
  8
0
  6
Continuous
 62
     8
100
AcDbLine
 10
545.912604
 20
197.427584
 30
0.0
 11
564.262881
 21
197.427584
 31
0.0
  0
LINE
  5
318
100
AcDbEntity
  8
0
  6
Continuous
 62
     8
100
AcDbLine
 10
570.262542
 20
197.427584
 30
0.0
 11
572.262028
 21
197.427584
 31
0.0
  0
LINE
  5
319
100
AcDbEntity
  8
0
  6
Continuous
 62
     8
100
AcDbLine
 10
578.261689
 20
197.427584
 30
0.0
 11
596.611965
 21
197.427584
 31
0.0
  0
LINE
  5
31A
100
AcDbEntity
  8
0
  6
Continuous
 62
     8
100
AcDbLine
 10
602.611626
 20
197.427584
 30
0.0
 11
604.611714
 21
197.427584
 31
0.0
  0
LINE
  5
31B
100
AcDbEntity
  8
0
  6
Continuous
 62
     8
100
AcDbLine
 10
610.611375
 20
197.427584
 30
0.0
 11
628.961651
 21
197.427584
 31
0.0
  0
ENDBLK
  5
31C
100
AcDbEntity
  8
0
100
AcDbBlockEnd
  0
BLOCK
  5
31F
100
AcDbEntity
  8
0
100
AcDbBlockBegin
  2
*B48
 70
     0
 10
0.0
 20
0.0
 30
0.0
  3
*B48
  1

  0
LINE
  5
320
100
AcDbEntity
  8
0
  6
Continuous
 62
     8
100
AcDbLine
 10
594.057868
 20
338.627145
 30
0.0
 11
610.557237
 21
338.627145
 31
0.0
  0
ENDBLK
  5
321
100
AcDbEntity
  8
0
100
AcDbBlockEnd
  0
BLOCK
  5
324
100
AcDbEntity
  8
0
100
AcDbBlockBegin
  2
*B49
 70
     0
 10
0.0
 20
0.0
 30
0.0
  3
*B49
  1

  0
LINE
  5
325
100
AcDbEntity
  8
0
  6
Continuous
 62
     8
100
AcDbLine
 10
303.076116
 20
423.373108
 30
0.0
 11
303.076116
 21
499.079277
 31
0.0
  0
ENDBLK
  5
326
100
AcDbEntity
  8
0
100
AcDbBlockEnd
  0
BLOCK
  5
329
100
AcDbEntity
  8
0
100
AcDbBlockBegin
  2
*B50
 70
     0
 10
0.0
 20
0.0
 30
0.0
  3
*B50
  1

  0
LINE
  5
32A
100
AcDbEntity
  8
0
  6
Continuous
 62
     6
100
AcDbLine
 10
445.06729
 20
170.42911
 30
0.0
 11
449.066864
 21
170.42911
 31
0.0
  0
LINE
  5
32B
100
AcDbEntity
  8
0
  6
Continuous
 62
     6
100
AcDbLine
 10
447.067378
 20
168.429023
 30
0.0
 11
447.067378
 21
172.429198
 31
0.0
  0
ENDBLK
  5
32C
100
AcDbEntity
  8
0
100
AcDbBlockEnd
  0
BLOCK
  5
32F
100
AcDbEntity
  8
0
100
AcDbBlockBegin
  2
*B51
 70
     0
 10
0.0
 20
0.0
 30
0.0
  3
*B51
  1

  0
LINE
  5
330
100
AcDbEntity
  8
0
  6
Continuous
 62
     6
100
AcDbLine
 10
557.560633
 20
143.430636
 30
0.0
 11
561.560206
 21
143.430636
 31
0.0
  0
LINE
  5
331
100
AcDbEntity
  8
0
  6
Continuous
 62
     6
100
AcDbLine
 10
559.560119
 20
141.430548
 30
0.0
 11
559.560119
 21
145.430122
 31
0.0
  0
ENDBLK
  5
332
100
AcDbEntity
  8
0
100
AcDbBlockEnd
  0
BLOCK
  5
335
100
AcDbEntity
  8
0
100
AcDbBlockBegin
  2
*B52
 70
     0
 10
0.0
 20
0.0
 30
0.0
  3
*B52
  1

  0
LINE
  5
336
100
AcDbEntity
  8
0
  6
Continuous
 62
     6
100
AcDbLine
 10
503.563684
 20
197.427584
 30
0.0
 11
507.563257
 21
197.427584
 31
0.0
  0
LINE
  5
337
100
AcDbEntity
  8
0
  6
Continuous
 62
     6
100
AcDbLine
 10
505.563771
 20
195.428098
 30
0.0
 11
505.563771
 21
199.427672
 31
0.0
  0
ENDBLK
  5
338
100
AcDbEntity
  8
0
100
AcDbBlockEnd
  0
BLOCK
  5
33B
100
AcDbEntity
  8
0
100
AcDbBlockBegin
  2
*B53
 70
     0
 10
0.0
 20
0.0
 30
0.0
  3
*B53
  1

  0
LINE
  5
33C
100
AcDbEntity
  8
0
  6
Continuous
 62
     6
100
AcDbLine
 10
532.561644
 20
168.429023
 30
0.0
 11
532.561644
 21
172.429198
 31
0.0
  0
LINE
  5
33D
100
AcDbEntity
  8
0
  6
Continuous
 62
     6
100
AcDbLine
 10
530.562158
 20
170.42911
 30
0.0
 11
534.561732
 21
170.42911
 31
0.0
  0
ENDBLK
  5
33E
100
AcDbEntity
  8
0
100
AcDbBlockEnd
  0
BLOCK
  5
341
100
AcDbEntity
  8
0
100
AcDbBlockBegin
  2
*B54
 70
     0
 10
0.0
 20
0.0
 30
0.0
  3
*B54
  1

  0
LINE
  5
342
100
AcDbEntity
  8
0
  6
Continuous
 62
     6
100
AcDbLine
 10
339.074082
 20
168.429023
 30
0.0
 11
339.074082
 21
172.429198
 31
0.0
  0
LINE
  5
343
100
AcDbEntity
  8
0
  6
Continuous
 62
     6
100
AcDbLine
 10
337.073994
 20
170.42911
 30
0.0
 11
341.073568
 21
170.42911
 31
0.0
  0
ENDBLK
  5
344
100
AcDbEntity
  8
0
100
AcDbBlockEnd
  0
BLOCK
  5
347
100
AcDbEntity
  8
0
100
AcDbBlockBegin
  2
*B55
 70
     0
 10
0.0
 20
0.0
 30
0.0
  3
*B55
  1

  0
LINE
  5
348
100
AcDbEntity
  8
0
  6
Continuous
 62
     0
100
AcDbLine
 10
552.912008
 20
224.342446
 30
0.0
 11
523.447261
 21
224.342446
 31
0.0
  0
LINE
  5
349
100
AcDbEntity
  8
0
  6
Continuous
 62
     0
100
AcDbLine
 10
523.447261
 20
224.342446
 30
0.0
 11
508.801206
 21
202.299978
 31
0.0
  0
SOLID
  5
34A
100
AcDbEntity
  8
0
  6
Continuous
 62
     0
100
AcDbTrace
 10
512.669045
 20
211.735579
 30
0.0
 11
508.801206
 21
202.299978
 31
0.0
 12
516.000318
 22
209.521948
 32
0.0
 13
516.000318
 23
209.521948
 33
0.0
  0
ENDBLK
  5
34B
100
AcDbEntity
  8
0
100
AcDbBlockEnd
  0
BLOCK
  5
34E
100
AcDbEntity
  8
0
100
AcDbBlockBegin
  2
*B56
 70
     0
 10
0.0
 20
0.0
 30
0.0
  3
*B56
  1

  0
TEXT
  5
34F
100
AcDbEntity
  8
TEXT
  6
Continuous
 62
     0
100
AcDbText
 10
528.765799
 20
379.0
 30
0.0
 40
12.0
  1
2
100
AcDbText
  0
ENDBLK
  5
350
100
AcDbEntity
  8
0
100
AcDbBlockEnd
  0
BLOCK
  5
353
100
AcDbEntity
  8
0
100
AcDbBlockBegin
  2
*B57
 70
     0
 10
0.0
 20
0.0
 30
0.0
  3
*B57
  1

  0
TEXT
  5
354
100
AcDbEntity
  8
TEXT
  6
Continuous
 62
     0
100
AcDbText
 10
555.765799
 20
309.0
 30
0.0
 40
12.0
  1
3
100
AcDbText
  0
ENDBLK
  5
355
100
AcDbEntity
  8
0
100
AcDbBlockEnd
  0
BLOCK
  5
358
100
AcDbEntity
  8
0
100
AcDbBlockBegin
  2
*B58
 70
     0
 10
0.0
 20
0.0
 30
0.0
  3
*B58
  1

  0
TEXT
  5
359
100
AcDbEntity
  8
TEXT
  6
Continuous
 62
     0
100
AcDbText
 10
470.531599
 20
345.0
 30
0.0
 40
12.0
  1
12
100
AcDbText
  0
ENDBLK
  5
35A
100
AcDbEntity
  8
0
100
AcDbBlockEnd
  0
BLOCK
  5
35D
100
AcDbEntity
  8
0
100
AcDbBlockBegin
  2
*B59
 70
     0
 10
0.0
 20
0.0
 30
0.0
  3
*B59
  1

  0
TEXT
  5
35E
100
AcDbEntity
  8
TEXT
  6
Continuous
 62
     0
100
AcDbText
 10
500.765799
 20
309.0
 30
0.0
 40
12.0
  1
1
100
AcDbText
  0
ENDBLK
  5
35F
100
AcDbEntity
  8
0
100
AcDbBlockEnd
  0
BLOCK
  5
362
100
AcDbEntity
  8
0
100
AcDbBlockBegin
  2
*B60
 70
     0
 10
0.0
 20
0.0
 30
0.0
  3
*B60
  1

  0
TEXT
  5
363
100
AcDbEntity
  8
TEXT
  6
Continuous
 62
     0
100
AcDbText
 10
526.479167
 20
229.5
 30
0.0
 40
7.0
  1
%%c2,6
100
AcDbText
  0
ENDBLK
  5
364
100
AcDbEntity
  8
0
100
AcDbBlockEnd
  0
BLOCK
  5
367
100
AcDbEntity
  8
0
100
AcDbBlockBegin
  2
*B61
 70
     0
 10
0.0
 20
0.0
 30
0.0
  3
*B61
  1

  0
TEXT
  5
368
100
AcDbEntity
  8
TEXT
  6
Continuous
 62
     0
100
AcDbText
 10
304.380297
 20
273.0
 30
0.0
 40
14.0
  1
180%%d
100
AcDbText
  0
ENDBLK
  5
369
100
AcDbEntity
  8
0
100
AcDbBlockEnd
  0
BLOCK
  5
36C
100
AcDbEntity
  8
0
100
AcDbBlockBegin
  2
*B62
 70
     0
 10
0.0
 20
0.0
 30
0.0
  3
*B62
  1

  0
TEXT
  5
36D
100
AcDbEntity
  8
TEXT
  6
Continuous
 62
     0
100
AcDbText
 10
522.079167
 20
363.5
 30
0.0
 40
7.0
  1
%%c3
100
AcDbText
  0
ENDBLK
  5
36E
100
AcDbEntity
  8
0
100
AcDbBlockEnd
  0
BLOCK
  5
371
100
AcDbEntity
  8
0
100
AcDbBlockBegin
  2
*B63
 70
     0
 10
0.0
 20
0.0
 30
0.0
  3
*B63
  1

  0
TEXT
  5
372
100
AcDbEntity
  8
TEXT
  6
Continuous
 62
     0
100
AcDbText
 10
525.927793
 20
254.5
 30
0.0
 40
7.0
  1
30
100
AcDbText
  0
ENDBLK
  5
373
100
AcDbEntity
  8
0
100
AcDbBlockEnd
  0
BLOCK
  5
376
100
AcDbEntity
  8
0
100
AcDbBlockBegin
  2
*B64
 70
     0
 10
0.0
 20
0.0
 30
0.0
  3
*B64
  1

  0
TEXT
  5
377
100
AcDbEntity
  8
TEXT
  6
Continuous
 62
     0
100
AcDbText
 10
576.511127
 20
278.343187
 30
0.0
 40
7.0
  1
9
100
AcDbText
  0
ENDBLK
  5
378
100
AcDbEntity
  8
0
100
AcDbBlockEnd
  0
BLOCK
  5
37B
100
AcDbEntity
  8
0
100
AcDbBlockBegin
  2
*B65
 70
     0
 10
0.0
 20
0.0
 30
0.0
  3
*B65
  1

  0
TEXT
  5
37C
100
AcDbEntity
  8
TEXT
  6
Continuous
 62
     0
100
AcDbText
 10
525.927793
 20
278.343187
 30
0.0
 40
7.0
  1
12
100
AcDbText
  0
ENDBLK
  5
37D
100
AcDbEntity
  8
0
100
AcDbBlockEnd
  0
BLOCK
  5
380
100
AcDbEntity
  8
0
100
AcDbBlockBegin
  2
*B66
 70
     0
 10
0.0
 20
0.0
 30
0.0
  3
*B66
  1

  0
TEXT
  5
381
100
AcDbEntity
  8
TEXT
  6
Continuous
 62
     0
100
AcDbText
 10
629.5
 20
343.12339
 30
0.0
 40
7.0
  1
22
 50
90.0
100
AcDbText
  0
ENDBLK
  5
382
100
AcDbEntity
  8
0
100
AcDbBlockEnd
  0
BLOCK
  5
385
100
AcDbEntity
  8
0
100
AcDbBlockBegin
  2
*B67
 70
     0
 10
0.0
 20
0.0
 30
0.0
  3
*B67
  1

  0
TEXT
  5
386
100
AcDbEntity
  8
TEXT
  6
Continuous
 62
     0
100
AcDbText
 10
559.677793
 20
476.5
 30
0.0
 40
7.0
  1
15
100
AcDbText
  0
ENDBLK
  5
387
100
AcDbEntity
  8
0
100
AcDbBlockEnd
  0
BLOCK
  5
38A
100
AcDbEntity
  8
0
100
AcDbBlockBegin
  2
*B68
 70
     0
 10
0.0
 20
0.0
 30
0.0
  3
*B68
  1

  0
TEXT
  5
38B
100
AcDbEntity
  8
TEXT
  6
Continuous
 62
     0
100
AcDbText
 10
627.5
 20
163.667517
 30
0.0
 40
7.0
  1
12
 50
90.0
100
AcDbText
  0
ENDBLK
  5
38C
100
AcDbEntity
  8
0
100
AcDbBlockEnd
  0
BLOCK
  5
38F
100
AcDbEntity
  8
0
100
AcDbBlockBegin
  2
*B69
 70
     0
 10
0.0
 20
0.0
 30
0.0
  3
*B69
  1

  0
TEXT
  5
390
100
AcDbEntity
  8
TEXT
  6
Continuous
 62
     0
100
AcDbText
 10
525.927793
 20
114.5
 30
0.0
 40
7.0
  1
12
100
AcDbText
  0
ENDBLK
  5
391
100
AcDbEntity
  8
0
100
AcDbBlockEnd
  0
BLOCK
  5
394
100
AcDbEntity
  8
0
100
AcDbBlockBegin
  2
*B70
 70
     0
 10
0.0
 20
0.0
 30
0.0
  3
*B70
  1

  0
TEXT
  5
395
100
AcDbEntity
  8
TEXT
  6
Continuous
 62
     0
100
AcDbText
 10
576.511127
 20
114.5
 30
0.0
 40
7.0
  1
9
100
AcDbText
  0
ENDBLK
  5
396
100
AcDbEntity
  8
0
100
AcDbBlockEnd
  0
BLOCK
  5
399
100
AcDbEntity
  8
0
100
AcDbBlockBegin
  2
*B71
 70
     0
 10
0.0
 20
0.0
 30
0.0
  3
*B71
  1

  0
TEXT
  5
39A
100
AcDbEntity
  8
TEXT
  6
Continuous
 62
     0
100
AcDbText
 10
618.979167
 20
452.5
 30
0.0
 40
7.0
  1
1
100
AcDbText
  0
ENDBLK
  5
39B
100
AcDbEntity
  8
0
100
AcDbBlockEnd
  0
BLOCK
  5
39E
100
AcDbEntity
  8
0
100
AcDbBlockBegin
  2
*B72
 70
     0
 10
0.0
 20
0.0
 30
0.0
  3
*B72
  1

  0
TEXT
  5
39F
100
AcDbEntity
  8
TEXT
  6
Continuous
 62
     0
100
AcDbText
 10
493.079167
 20
452.343187
 30
0.0
 40
7.0
  1
%%c4
100
AcDbText
  0
ENDBLK
  5
3A0
100
AcDbEntity
  8
0
100
AcDbBlockEnd
  0
BLOCK
  5
3A3
100
AcDbEntity
  8
0
100
AcDbBlockBegin
  2
*B73
 70
     0
 10
0.0
 20
0.0
 30
0.0
  3
*B73
  1

  0
TEXT
  5
3A4
100
AcDbEntity
  8
TEXT
  6
Continuous
 62
     0
100
AcDbText
 10
444.927793
 20
500.5
 30
0.0
 40
7.0
  1
66
100
AcDbText
  0
ENDBLK
  5
3A5
100
AcDbEntity
  8
0
100
AcDbBlockEnd
  0
BLOCK
  5
3A8
100
AcDbEntity
  8
0
100
AcDbBlockBegin
  2
*B74
 70
     0
 10
0.0
 20
0.0
 30
0.0
  3
*B74
  1

  0
TEXT
  5
3A9
100
AcDbEntity
  8
TEXT
  6
Continuous
 62
     0
100
AcDbText
 10
277.5
 20
352.12339
 30
0.0
 40
7.0
  1
26
 50
90.0
100
AcDbText
  0
ENDBLK
  5
3AA
100
AcDbEntity
  8
0
100
AcDbBlockEnd
  0
BLOCK
  5
3AD
100
AcDbEntity
  8
0
100
AcDbBlockBegin
  2
*B75
 70
     0
 10
0.0
 20
0.0
 30
0.0
  3
*B75
  1

  0
TEXT
  5
3AE
100
AcDbEntity
  8
TEXT
  6
Continuous
 62
     0
100
AcDbText
 10
629.5
 20
411.256723
 30
0.0
 40
7.0
  1
6
 50
90.0
100
AcDbText
  0
ENDBLK
  5
3AF
100
AcDbEntity
  8
0
100
AcDbBlockEnd
  0
BLOCK
  5
3B2
100
AcDbEntity
  8
0
100
AcDbBlockBegin
  2
*B76
 70
     0
 10
0.0
 20
0.0
 30
0.0
  3
*B76
  1

  0
TEXT
  5
3B3
100
AcDbEntity
  8
TEXT
  6
Continuous
 62
     0
100
AcDbText
 10
276.5
 20
163.667517
 30
0.0
 40
7.0
  1
16
 50
90.0
100
AcDbText
  0
ENDBLK
  5
3B4
100
AcDbEntity
  8
0
100
AcDbBlockEnd
  0
ENDSEC
  0
SECTION
  2
ENTITIES
  0
INSERT
  5
174
100
AcDbEntity
  8
0
  6
HIDDEN
 62
   174
100
AcDbBlockReference
  2
*B1
 10
0.0
 20
0.0
 30
0.0
  0
INSERT
  5
1CF
100
AcDbEntity
  8
0
  6
Continuous
 62
   174
100
AcDbBlockReference
  2
*B2
 10
0.0
 20
0.0
 30
0.0
  0
INSERT
  5
1D5
100
AcDbEntity
  8
0
  6
Continuous
 62
   172
100
AcDbBlockReference
  2
*B3
 10
0.0
 20
0.0
 30
0.0
  0
INSERT
  5
1E0
100
AcDbEntity
  8
0
  6
Continuous
 62
   172
100
AcDbBlockReference
  2
*B4
 10
0.0
 20
0.0
 30
0.0
  0
INSERT
  5
1EA
100
AcDbEntity
  8
0
  6
Continuous
 62
     0
100
AcDbBlockReference
  2
*B6
 10
0.0
 20
0.0
 30
0.0
  0
INSERT
  5
1F1
100
AcDbEntity
  8
0
  6
Continuous
 62
     0
100
AcDbBlockReference
  2
*B7
 10
0.0
 20
0.0
 30
0.0
  0
INSERT
  5
1F8
100
AcDbEntity
  8
0
  6
Continuous
 62
     0
100
AcDbBlockReference
  2
*B8
 10
0.0
 20
0.0
 30
0.0
  0
INSERT
  5
1FF
100
AcDbEntity
  8
0
  6
Continuous
 62
     0
100
AcDbBlockReference
  2
*B9
 10
0.0
 20
0.0
 30
0.0
  0
INSERT
  5
206
100
AcDbEntity
  8
0
  6
Continuous
 62
     0
100
AcDbBlockReference
  2
*B10
 10
0.0
 20
0.0
 30
0.0
  0
INSERT
  5
20D
100
AcDbEntity
  8
0
  6
Continuous
 62
     0
100
AcDbBlockReference
  2
*B11
 10
0.0
 20
0.0
 30
0.0
  0
INSERT
  5
214
100
AcDbEntity
  8
0
  6
Continuous
 62
     0
100
AcDbBlockReference
  2
*B12
 10
0.0
 20
0.0
 30
0.0
  0
INSERT
  5
21B
100
AcDbEntity
  8
0
  6
Continuous
 62
     0
100
AcDbBlockReference
  2
*B13
 10
0.0
 20
0.0
 30
0.0
  0
INSERT
  5
222
100
AcDbEntity
  8
0
  6
Continuous
 62
     0
100
AcDbBlockReference
  2
*B14
 10
0.0
 20
0.0
 30
0.0
  0
INSERT
  5
229
100
AcDbEntity
  8
0
  6
Continuous
 62
     0
100
AcDbBlockReference
  2
*B15
 10
0.0
 20
0.0
 30
0.0
  0
INSERT
  5
230
100
AcDbEntity
  8
0
  6
Continuous
 62
     0
100
AcDbBlockReference
  2
*B16
 10
0.0
 20
0.0
 30
0.0
  0
INSERT
  5
237
100
AcDbEntity
  8
0
  6
Continuous
 62
     0
100
AcDbBlockReference
  2
*B17
 10
0.0
 20
0.0
 30
0.0
  0
INSERT
  5
23E
100
AcDbEntity
  8
0
  6
Continuous
 62
     0
100
AcDbBlockReference
  2
*B18
 10
0.0
 20
0.0
 30
0.0
  0
INSERT
  5
245
100
AcDbEntity
  8
0
  6
Continuous
 62
     0
100
AcDbBlockReference
  2
*B19
 10
0.0
 20
0.0
 30
0.0
  0
INSERT
  5
24C
100
AcDbEntity
  8
0
  6
Continuous
 62
     0
100
AcDbBlockReference
  2
*B20
 10
0.0
 20
0.0
 30
0.0
  0
INSERT
  5
251
100
AcDbEntity
  8
0
  6
Continuous
 62
     8
100
AcDbBlockReference
  2
*B21
 10
0.0
 20
0.0
 30
0.0
  0
INSERT
  5
256
100
AcDbEntity
  8
0
  6
Continuous
 62
     8
100
AcDbBlockReference
  2
*B22
 10
0.0
 20
0.0
 30
0.0
  0
INSERT
  5
25B
100
AcDbEntity
  8
0
  6
Continuous
 62
     8
100
AcDbBlockReference
  2
*B23
 10
0.0
 20
0.0
 30
0.0
  0
INSERT
  5
264
100
AcDbEntity
  8
0
  6
Continuous
 62
     8
100
AcDbBlockReference
  2
*B24
 10
0.0
 20
0.0
 30
0.0
  0
INSERT
  5
269
100
AcDbEntity
  8
0
  6
Continuous
 62
     8
100
AcDbBlockReference
  2
*B25
 10
0.0
 20
0.0
 30
0.0
  0
INSERT
  5
26E
100
AcDbEntity
  8
0
  6
Continuous
 62
     8
100
AcDbBlockReference
  2
*B26
 10
0.0
 20
0.0
 30
0.0
  0
INSERT
  5
278
100
AcDbEntity
  8
0
  6
Continuous
 62
     8
100
AcDbBlockReference
  2
*B27
 10
0.0
 20
0.0
 30
0.0
  0
INSERT
  5
27E
100
AcDbEntity
  8
0
  6
Continuous
 62
     8
100
AcDbBlockReference
  2
*B28
 10
0.0
 20
0.0
 30
0.0
  0
INSERT
  5
297
100
AcDbEntity
  8
0
  6
Continuous
 62
     8
100
AcDbBlockReference
  2
*B29
 10
0.0
 20
0.0
 30
0.0
  0
INSERT
  5
29C
100
AcDbEntity
  8
0
  6
Continuous
 62
     8
100
AcDbBlockReference
  2
*B30
 10
0.0
 20
0.0
 30
0.0
  0
INSERT
  5
2A1
100
AcDbEntity
  8
0
  6
Continuous
 62
     8
100
AcDbBlockReference
  2
*B31
 10
0.0
 20
0.0
 30
0.0
  0
INSERT
  5
2A6
100
AcDbEntity
  8
0
  6
Continuous
 62
     8
100
AcDbBlockReference
  2
*B32
 10
0.0
 20
0.0
 30
0.0
  0
INSERT
  5
2AB
100
AcDbEntity
  8
0
  6
Continuous
 62
     8
100
AcDbBlockReference
  2
*B33
 10
0.0
 20
0.0
 30
0.0
  0
INSERT
  5
2B0
100
AcDbEntity
  8
0
  6
Continuous
 62
     8
100
AcDbBlockReference
  2
*B34
 10
0.0
 20
0.0
 30
0.0
  0
INSERT
  5
2B6
100
AcDbEntity
  8
0
  6
Continuous
 62
     8
100
AcDbBlockReference
  2
*B35
 10
0.0
 20
0.0
 30
0.0
  0
INSERT
  5
2BD
100
AcDbEntity
  8
0
  6
Continuous
 62
     8
100
AcDbBlockReference
  2
*B36
 10
0.0
 20
0.0
 30
0.0
  0
INSERT
  5
2C3
100
AcDbEntity
  8
0
  6
Continuous
 62
     8
100
AcDbBlockReference
  2
*B37
 10
0.0
 20
0.0
 30
0.0
  0
INSERT
  5
2C9
100
AcDbEntity
  8
0
  6
Continuous
 62
     8
100
AcDbBlockReference
  2
*B38
 10
0.0
 20
0.0
 30
0.0
  0
INSERT
  5
2CE
100
AcDbEntity
  8
0
  6
Continuous
 62
     8
100
AcDbBlockReference
  2
*B39
 10
0.0
 20
0.0
 30
0.0
  0
INSERT
  5
2DA
100
AcDbEntity
  8
0
  6
Continuous
 62
     8
100
AcDbBlockReference
  2
*B40
 10
0.0
 20
0.0
 30
0.0
  0
INSERT
  5
2DF
100
AcDbEntity
  8
0
  6
Continuous
 62
     8
100
AcDbBlockReference
  2
*B41
 10
0.0
 20
0.0
 30
0.0
  0
INSERT
  5
2EF
100
AcDbEntity
  8
0
  6
Continuous
 62
     8
100
AcDbBlockReference
  2
*B42
 10
0.0
 20
0.0
 30
0.0
  0
INSERT
  5
2FA
100
AcDbEntity
  8
0
  6
Continuous
 62
     8
100
AcDbBlockReference
  2
*B43
 10
0.0
 20
0.0
 30
0.0
  0
INSERT
  5
306
100
AcDbEntity
  8
0
  6
Continuous
 62
     8
100
AcDbBlockReference
  2
*B44
 10
0.0
 20
0.0
 30
0.0
  0
INSERT
  5
30B
100
AcDbEntity
  8
0
  6
Continuous
 62
     8
100
AcDbBlockReference
  2
*B45
 10
0.0
 20
0.0
 30
0.0
  0
INSERT
  5
310
100
AcDbEntity
  8
0
  6
Continuous
 62
     8
100
AcDbBlockReference
  2
*B46
 10
0.0
 20
0.0
 30
0.0
  0
INSERT
  5
31D
100
AcDbEntity
  8
0
  6
Continuous
 62
     8
100
AcDbBlockReference
  2
*B47
 10
0.0
 20
0.0
 30
0.0
  0
INSERT
  5
322
100
AcDbEntity
  8
0
  6
Continuous
 62
     8
100
AcDbBlockReference
  2
*B48
 10
0.0
 20
0.0
 30
0.0
  0
INSERT
  5
327
100
AcDbEntity
  8
0
  6
Continuous
 62
     8
100
AcDbBlockReference
  2
*B49
 10
0.0
 20
0.0
 30
0.0
  0
INSERT
  5
32D
100
AcDbEntity
  8
0
  6
Continuous
 62
     6
100
AcDbBlockReference
  2
*B50
 10
0.0
 20
0.0
 30
0.0
  0
INSERT
  5
333
100
AcDbEntity
  8
0
  6
Continuous
 62
     6
100
AcDbBlockReference
  2
*B51
 10
0.0
 20
0.0
 30
0.0
  0
INSERT
  5
339
100
AcDbEntity
  8
0
  6
Continuous
 62
     6
100
AcDbBlockReference
  2
*B52
 10
0.0
 20
0.0
 30
0.0
  0
INSERT
  5
33F
100
AcDbEntity
  8
0
  6
Continuous
 62
     6
100
AcDbBlockReference
  2
*B53
 10
0.0
 20
0.0
 30
0.0
  0
INSERT
  5
345
100
AcDbEntity
  8
0
  6
Continuous
 62
     6
100
AcDbBlockReference
  2
*B54
 10
0.0
 20
0.0
 30
0.0
  0
INSERT
  5
34C
100
AcDbEntity
  8
0
  6
Continuous
 62
     0
100
AcDbBlockReference
  2
*B55
 10
0.0
 20
0.0
 30
0.0
  0
INSERT
  5
351
100
AcDbEntity
  8
TEXT
  6
Continuous
 62
     0
100
AcDbBlockReference
  2
*B56
 10
0.0
 20
0.0
 30
0.0
  0
INSERT
  5
356
100
AcDbEntity
  8
TEXT
  6
Continuous
 62
     0
100
AcDbBlockReference
  2
*B57
 10
0.0
 20
0.0
 30
0.0
  0
INSERT
  5
35B
100
AcDbEntity
  8
TEXT
  6
Continuous
 62
     0
100
AcDbBlockReference
  2
*B58
 10
0.0
 20
0.0
 30
0.0
  0
INSERT
  5
360
100
AcDbEntity
  8
TEXT
  6
Continuous
 62
     0
100
AcDbBlockReference
  2
*B59
 10
0.0
 20
0.0
 30
0.0
  0
INSERT
  5
365
100
AcDbEntity
  8
TEXT
  6
Continuous
 62
     0
100
AcDbBlockReference
  2
*B60
 10
0.0
 20
0.0
 30
0.0
  0
INSERT
  5
36A
100
AcDbEntity
  8
TEXT
  6
Continuous
 62
     0
100
AcDbBlockReference
  2
*B61
 10
0.0
 20
0.0
 30
0.0
  0
INSERT
  5
36F
100
AcDbEntity
  8
TEXT
  6
Continuous
 62
     0
100
AcDbBlockReference
  2
*B62
 10
0.0
 20
0.0
 30
0.0
  0
INSERT
  5
374
100
AcDbEntity
  8
TEXT
  6
Continuous
 62
     0
100
AcDbBlockReference
  2
*B63
 10
0.0
 20
0.0
 30
0.0
  0
INSERT
  5
379
100
AcDbEntity
  8
TEXT
  6
Continuous
 62
     0
100
AcDbBlockReference
  2
*B64
 10
0.0
 20
0.0
 30
0.0
  0
INSERT
  5
37E
100
AcDbEntity
  8
TEXT
  6
Continuous
 62
     0
100
AcDbBlockReference
  2
*B65
 10
0.0
 20
0.0
 30
0.0
  0
INSERT
  5
383
100
AcDbEntity
  8
TEXT
  6
Continuous
 62
     0
100
AcDbBlockReference
  2
*B66
 10
0.0
 20
0.0
 30
0.0
  0
INSERT
  5
388
100
AcDbEntity
  8
TEXT
  6
Continuous
 62
     0
100
AcDbBlockReference
  2
*B67
 10
0.0
 20
0.0
 30
0.0
  0
INSERT
  5
38D
100
AcDbEntity
  8
TEXT
  6
Continuous
 62
     0
100
AcDbBlockReference
  2
*B68
 10
0.0
 20
0.0
 30
0.0
  0
INSERT
  5
392
100
AcDbEntity
  8
TEXT
  6
Continuous
 62
     0
100
AcDbBlockReference
  2
*B69
 10
0.0
 20
0.0
 30
0.0
  0
INSERT
  5
397
100
AcDbEntity
  8
TEXT
  6
Continuous
 62
     0
100
AcDbBlockReference
  2
*B70
 10
0.0
 20
0.0
 30
0.0
  0
INSERT
  5
39C
100
AcDbEntity
  8
TEXT
  6
Continuous
 62
     0
100
AcDbBlockReference
  2
*B71
 10
0.0
 20
0.0
 30
0.0
  0
INSERT
  5
3A1
100
AcDbEntity
  8
TEXT
  6
Continuous
 62
     0
100
AcDbBlockReference
  2
*B72
 10
0.0
 20
0.0
 30
0.0
  0
INSERT
  5
3A6
100
AcDbEntity
  8
TEXT
  6
Continuous
 62
     0
100
AcDbBlockReference
  2
*B73
 10
0.0
 20
0.0
 30
0.0
  0
INSERT
  5
3AB
100
AcDbEntity
  8
TEXT
  6
Continuous
 62
     0
100
AcDbBlockReference
  2
*B74
 10
0.0
 20
0.0
 30
0.0
  0
INSERT
  5
3B0
100
AcDbEntity
  8
TEXT
  6
Continuous
 62
     0
100
AcDbBlockReference
  2
*B75
 10
0.0
 20
0.0
 30
0.0
  0
INSERT
  5
3B5
100
AcDbEntity
  8
TEXT
  6
Continuous
 62
     0
100
AcDbBlockReference
  2
*B76
 10
0.0
 20
0.0
 30
0.0
  0
ENDSEC
  0
SECTION
  2
OBJECTS
  0
DICTIONARY
  5
19
100
AcDbDictionary
280
     0
281
     1
  3
ACAD_GROUP
350
1A
  3
ACAD_MLINESTYLE
350
1B
  3
ACAD_LAYOUT
350
1E
  3
ACAD_PLOTSETTINGS
350
22
  3
ACAD_PLOTSTYLENAME
350
1F
  3
ACAD_WIPEOUT_VARS
350
23
  0
DICTIONARY
  5
1A
102
{ACAD_REACTORS
330
19
102
}
100
AcDbDictionary
280
     0
281
     1
  0
DICTIONARY
  5
1B
102
{ACAD_REACTORS
330
19
102
}
100
AcDbDictionary
280
     0
281
     1
  3
Standard
350
1C
  0
MLINESTYLE
  5
1C
102
{ACAD_REACTORS
330
1B
102
}
100
AcDbMlineStyle
  2
Standard
 70
     0
  3

 62
     0
 51
90.0
 52
90.0
 71
     2
 49
0.5
 62
   256
  6
BYLAYER
 49
-0.5
 62
   256
  6
BYLAYER
  0
ACDBDICTIONARYWDFLT
  5
1F
102
{ACAD_REACTORS
330
19
102
}
100
AcDbDictionary
281
     1
  3
Normal
350
1D
100
AcDbDictionaryWithDefault
340
1D
  0
ACDBPLACEHOLDER
  5
1D
102
{ACAD_REACTORS
330
1F
102
}
  0
LAYOUT
  5
20
102
{ACAD_REACTORS
330
1E
102
}
100
AcDbPlotSettings
  1

  2

  4

  6

 40
0.0
 41
0.0
 42
0.0
 43
0.0
 44
0.0
 45
0.0
 46
0.0
 47
0.0
 48
0.0
 49
0.0
140
0.0
141
0.0
142
1.0
143
1.0
 70
     0
 72
     0
 73
     0
 74
     0
  7

 75
     0
147
1.0
148
0.0
149
0.0
100
AcDbLayout
  1
Model
 70
     0
 71
     0
 10
0.0
 20
0.0
 11
0.0
 21
0.0
 12
0.0
 22
0.0
 32
0.0
 14
0.0
 24
0.0
 34
0.0
 15
0.0
 25
0.0
 35
0.0
146
0.0
 13
0.0
 23
0.0
 33
0.0
 16
0.0
 26
0.0
 36
0.0
 17
0.0
 27
0.0
 37
0.0
 76
     0
330
A
331
0
345
0
346
0
  0
LAYOUT
  5
21
102
{ACAD_REACTORS
330
1E
102
}
100
AcDbPlotSettings
  1

  2

  4

  6

 40
0.0
 41
0.0
 42
0.0
 43
0.0
 44
0.0
 45
0.0
 46
0.0
 47
0.0
 48
0.0
 49
0.0
140
0.0
141
0.0
142
1.0
143
1.0
 70
     0
 72
     0
 73
     0
 74
     0
  7

 75
     0
147
1.0
148
0.0
149
0.0
100
AcDbLayout
  1
Layout1
 70
     0
 71
     0
 10
0.0
 20
0.0
 11
0.0
 21
0.0
 12
0.0
 22
0.0
 32
0.0
 14
0.0
 24
0.0
 34
0.0
 15
0.0
 25
0.0
 35
0.0
146
0.0
 13
0.0
 23
0.0
 33
0.0
 16
0.0
 26
0.0
 36
0.0
 17
0.0
 27
0.0
 37
0.0
 76
     0
330
B
331
0
345
0
346
0
  0
DICTIONARY
  5
1E
102
{ACAD_REACTORS
330
19
102
}
100
AcDbDictionary
280
     0
281
     1
  3
Layout1
350
21
  3
Model
350
20
  0
DICTIONARY
  5
22
102
{ACAD_REACTORS
330
19
102
}
100
AcDbDictionary
280
     0
281
     1
  0
WIPEOUTVARIABLES
  5
23
100
AcDbWipeoutVariables
 70
     1
  0
ENDSEC
  0
EOF
