  0
SECTION
  2
HEADER
  9
$ACADVER
  1
AC1015
  9
$ACADMAINTVER
 70
     6
  9
$DWGCODEPAGE
  3
DOS850
  9
$INSBASE
 10
0.0
 20
0.0
 30
0.0
  9
$EXTMIN
 10
0.0
 20
0.0
 30
0.0
  9
$EXTMAX
 10
841.0
 20
595.0
 30
0.0
  9
$LIMMIN
 10
0.0
 20
0.0
  9
$LIMMAX
 10
841.0
 20
595.0
  9
$ORTHOMODE
 70
     0
  9
$REGENMODE
 70
     1
  9
$FILLMODE
 70
     1
  9
$QTEXTMODE
 70
     0
  9
$MIRRTEXT
 70
     1
  9
$LTSCALE
 40
25.4
  9
$ATTMODE
 70
     1
  9
$TEXTSIZE
 40
3.5
  9
$TRACEWID
 40
0.05
  9
$TEXTSTYLE
  7
Standard
  9
$CLAYER
  8
0
  9
$CELTYPE
  6
Continuous
  9
$CECOLOR
 62
   256
  9
$CELTSCALE
 40
1.0
  9
$DISPSILH
 70
     0
  9
$DIMSCALE
 40
1.0
  9
$DIMASZ
 40
5.0
  9
$DIMEXO
 40
3.0
  9
$DIMDLI
 40
0.38
  9
$DIMRND
 40
0.0
  9
$DIMDLE
 40
0.0
  9
$DIMEXE
 40
2.0
  9
$DIMTP
 40
0.0
  9
$DIMTM
 40
0.0
  9
$DIMTXT
 40
3.5
  9
$DIMCEN
 40
4.0
  9
$DIMTSZ
 40
0.0
  9
$DIMTOL
 70
     0
  9
$DIMLIM
 70
     0
  9
$DIMTIH
 70
     1
  9
$DIMTOH
 70
     1
  9
$DIMSE1
 70
     0
  9
$DIMSE2
 70
     0
  9
$DIMTAD
 70
     0
  9
$DIMZIN
 70
     0
  9
$DIMBLK
  1

  9
$DIMASO
 70
     1
  9
$DIMSHO
 70
     1
  9
$DIMPOST
  1

  9
$DIMAPOST
  1

  9
$DIMALT
 70
     0
  9
$DIMALTD
 70
     2
  9
$DIMALTF
 40
25.4
  9
$DIMLFAC
 40
1.0
  9
$DIMTOFL
 70
     0
  9
$DIMTVP
 40
0.0
  9
$DIMTIX
 70
     0
  9
$DIMSOXD
 70
     0
  9
$DIMSAH
 70
     0
  9
$DIMBLK1
  1

  9
$DIMBLK2
  1

  9
$DIMSTYLE
  2
Standard
  9
$DIMCLRD
 70
     0
  9
$DIMCLRE
 70
     0
  9
$DIMCLRT
 70
     0
  9
$DIMTFAC
 40
1.0
  9
$DIMGAP
 40
1.0
  9
$DIMJUST
 70
     0
  9
$DIMSD1
 70
     0
  9
$DIMSD2
 70
     0
  9
$DIMTOLJ
 70
     1
  9
$DIMTZIN
 70
     0
  9
$DIMALTZ
 70
     0
  9
$DIMALTTZ
 70
     0
  9
$DIMUPT
 70
     0
  9
$DIMDEC
 70
     4
  9
$DIMTDEC
 70
     4
  9
$DIMALTU
 70
     2
  9
$DIMALTTD
 70
     2
  9
$DIMTXSTY
  7
Standard
  9
$DIMAUNIT
 70
     0
  9
$DIMADEC
 70
     0
  9
$DIMALTRND
 40
0.0
  9
$DIMAZIN
 70
     0
  9
$DIMDSEP
 70
     0
  9
$DIMATFIT
 70
     3
  9
$DIMFRAC
 70
     0
  9
$DIMLDRBLK
  1

  9
$DIMLUNIT
 70
     2
  9
$DIMLWD
 70
     0
  9
$DIMLWE
 70
     0
  9
$DIMTMOVE
 70
     0
  9
$LUNITS
 70
     2
  9
$LUPREC
 70
     4
  9
$SKETCHINC
 40
0.1
  9
$FILLETRAD
 40
0.0
  9
$AUNITS
 70
     0
  9
$AUPREC
 70
     0
  9
$MENU
  1
acad
  9
$ELEVATION
 40
0.0
  9
$PELEVATION
 40
0.0
  9
$THICKNESS
 40
0.0
  9
$LIMCHECK
 70
     0
  9
$CHAMFERA
 40
0.0
  9
$CHAMFERB
 40
0.0
  9
$CHAMFERC
 40
0.0
  9
$CHAMFERD
 40
0.0
  9
$SKPOLY
 70
     0
  9
$TDCREATE
 40
0.000000000
  9
$TDUCREATE
 40
0.000000000
  9
$TDUPDATE
 40
0.000000000
  9
$TDUUPDATE
 40
0.000000000
  9
$TDINDWG
 40
0.0000000000
  9
$TDUSRTIMER
 40
0.0000000000
  9
$USRTIMER
 70
     1
  9
$ANGBASE
 50
0.0
  9
$ANGDIR
 70
     0
  9
$PDMODE
 70
     0
  9
$PDSIZE
 40
0.0
  9
$PLINEWID
 40
0.0
  9
$SPLFRAME
 70
     0
  9
$SPLINETYPE
 70
     6
  9
$SPLINESEGS
 70
     8
  9
$HANDSEED
  5
357
  9
$SURFTAB1
 70
     6
  9
$SURFTAB2
 70
     6
  9
$SURFTYPE
 70
     6
  9
$SURFU
 70
     6
  9
$SURFV
 70
     6
  9
$UCSBASE
  2

  9
$UCSNAME
  2

  9
$UCSORG
 10
0.0
 20
0.0
 30
0.0
  9
$UCSXDIR
 10
1.0
 20
0.0
 30
0.0
  9
$UCSYDIR
 10
0.0
 20
1.0
 30
0.0
  9
$UCSORTHOREF
  2

  9
$UCSORTHOVIEW
 70
     0
  9
$UCSORGTOP
 10
0.0
 20
0.0
 30
0.0
  9
$UCSORGBOTTOM
 10
0.0
 20
0.0
 30
0.0
  9
$UCSORGLEFT
 10
0.0
 20
0.0
 30
0.0
  9
$UCSORGRIGHT
 10
0.0
 20
0.0
 30
0.0
  9
$UCSORGFRONT
 10
0.0
 20
0.0
 30
0.0
  9
$UCSORGBACK
 10
0.0
 20
0.0
 30
0.0
  9
$PUCSBASE
  2

  9
$PUCSNAME
  2

  9
$PUCSORG
 10
0.0
 20
0.0
 30
0.0
  9
$PUCSXDIR
 10
1.0
 20
0.0
 30
0.0
  9
$PUCSYDIR
 10
0.0
 20
1.0
 30
0.0
  9
$PUCSORTHOREF
  2

  9
$PUCSORTHOVIEW
 70
     0
  9
$PUCSORGTOP
 10
0.0
 20
0.0
 30
0.0
  9
$PUCSORGBOTTOM
 10
0.0
 20
0.0
 30
0.0
  9
$PUCSORGLEFT
 10
0.0
 20
0.0
 30
0.0
  9
$PUCSORGRIGHT
 10
0.0
 20
0.0
 30
0.0
  9
$PUCSORGFRONT
 10
0.0
 20
0.0
 30
0.0
  9
$PUCSORGBACK
 10
0.0
 20
0.0
 30
0.0
  9
$USERI1
 70
     0
  9
$USERI2
 70
     0
  9
$USERI3
 70
     0
  9
$USERI4
 70
     0
  9
$USERI5
 70
     0
  9
$USERR1
 40
0.0
  9
$USERR2
 40
0.0
  9
$USERR3
 40
0.0
  9
$USERR4
 40
0.0
  9
$USERR5
 40
0.0
  9
$WORLDVIEW
 70
     1
  9
$SHADEDGE
 70
     3
  9
$SHADEDIF
 70
    70
  9
$TILEMODE
 70
     1
  9
$MAXACTVP
 70
    16
  9
$PINSBASE
 10
0.0
 20
0.0
 30
0.0
  9
$PLIMCHECK
 70
     0
  9
$PEXTMIN
 10
1.000000E+20
 20
1.000000E+20
 30
1.000000E+20
  9
$PEXTMAX
 10
-1.000000E+20
 20
-1.000000E+20
 30
-1.000000E+20
  9
$PLIMMIN
 10
0.0
 20
0.0
  9
$PLIMMAX
 10
841.0
 20
595.0
  9
$UNITMODE
 70
     0
  9
$VISRETAIN
 70
     0
  9
$PLINEGEN
 70
     1
  9
$PSLTSCALE
 70
     0
  9
$TREEDEPTH
 70
  3020
  9
$CMLSTYLE
  2
Standard
  9
$CMLJUST
 70
     0
  9
$CMLSCALE
 40
1.0
  9
$PROXYGRAPHICS
 70
     0
  9
$MEASUREMENT
 70
     0
  9
$CELWEIGHT
370
     0
  9
$ENDCAPS
280
     0
  9
$JOINSTYLE
280
     0
  9
$LWDISPLAY
290
     0
  9
$INSUNITS
 70
     0
  9
$HYPERLINKBASE
  1

  9
$XEDIT
290
     1
  9
$CEPSNTYPE
380
     0
  9
$PSTYLEMODE
290
     0
  9
$FINGERPRINTGUID
  2

  9
$VERSIONGUID
  2

  9
$EXTNAMES
290
     1
  9
$PSVPSCALE
 40
0.0
  0
ENDSEC
  0
SECTION
  2
CLASSES
  0
CLASS
  1
LWPOLYLINE
  2
AcDbPolyline
  3
"AutoCAD"
 90
        0
280
     0
281
     1
  0
CLASS
  1
IMAGE
  2
AcDbRasterImage
  3
ISM
 90
      127
280
     0
281
     1
  0
CLASS
  1
OLE2FRAME
  2
AcDbOle2Frame
  3
""
 90
        0
280
     0
281
     1
  0
CLASS
  1
HATCH
  2
AcDbHatch
  3
"ACAD_SEDONA"
 90
        0
280
     0
281
     1
  0
CLASS
  1
DICTIONARYVAR
  2
AcDbDictionaryVar
  3
"AutoCAD"
 90
        0
280
     0
281
     0
  0
CLASS
  1
RASTERVARIABLES
  2
AcDbRasterVariables
  3
ISM
 90
        0
280
     0
281
     0
  0
CLASS
  1
IMAGEDEF
  2
AcDbRasterImageDef
  3
ISM
 90
        0
280
     0
281
     0
  0
CLASS
  1
IMAGEDEF_REACTOR
  2
AcDbRasterImageDefReactor
  3
ISM
 90
        1
280
     0
281
     0
  0
CLASS
  1
IDBUFFER
  2
AcDbIdBuffer
  3
"Acad"
 90
        0
280
     0
281
     0
  0
CLASS
  1
SPATIAL_FILTER
  2
AcDbSpatialFilter
  3
"Acad"
 90
        0
280
     0
281
     0
  0
CLASS
  1
XRECORD
  2
AcDbXrecord
  3
"<Built In>"
 90
        0
280
     0
281
     0
  0
CLASS
  1
SORTENTSTABLE
  2
AcDbSortentsTable
  3
"AutoCAD"
 90
        0
280
     0
281
     0
  0
CLASS
  1
LAYER_INDEX
  2
AcDbLayerIndex
  3
"Acad"
 90
        0
280
     0
281
     0
  0
CLASS
  1
SPATIAL_INDEX
  2
AcDbSpatialIndex
  3
"Acad"
 90
        0
280
     0
281
     0
  0
CLASS
  1
OBJECT_PTR
  2
CAseDLPNTableRecord
  3
"ASE-LPNTableRecord"
 90
        1
280
     0
281
     0
  0
CLASS
  1
LAYOUT
  2
AcDbLayout
  3
"AutoCAD 2000"
 90
        1
280
     0
281
     0
  0
CLASS
  1
PLOTSETTINGS
  2
AcDbPlotSettings
  3
"AutoCAD 2000"
 90
        1
280
     0
281
     0
  0
CLASS
  1
ACDBDICTIONARYWDFLT
  2
AcDbDictionaryWithDefault
  3
"AutoCAD 2000"
 90
        1
280
     0
281
     0
  0
CLASS
  1
ACDBPLACEHOLDER
  2
AcDbPlaceHolder
  3
"AutoCAD 2000"
 90
        1
280
     0
281
     0
  0
CLASS
  1
VBA_PROJECT
  2
AcDbVbaProject
  3
"acadvba"
 90
        1
280
     0
281
     0
  0
CLASS
  1
WIPEOUT
  2
AcDbWipeout
  3
WipeOut|AutoCAD Express Tool|expresstools@autodesk.com
 90
      127
280
     0
281
     1
  0
CLASS
  1
WIPEOUTVARIABLES
  2
AcDbWipeoutVariables
  3
WipeOut|AutoCAD Express Tool|expresstools@autodesk.com
 90
        0
280
     0
281
     0
  0
CLASS
  1
RTEXT
  2
RText
  3
RText|AutoCAD Express Tool|expresstools@autodesk.com
 90
        0
280
     0
281
     1
  0
CLASS
  1
ARCALIGNEDTEXT
  2
AcDbArcAlignedText
  3
ATEXT|AutoCAD Express Tool|expresstools@autodesk.com
 90
        0
280
     0
281
     1
  0
ENDSEC
  0
SECTION
  2
TABLES
  0
TABLE
  2
VPORT
  5
7
100
AcDbSymbolTable
 70
     1
  0
VPORT
  5
15
100
AcDbSymbolTableRecord
100
AcDbViewportTableRecord
  2
*ACTIVE
 70
     0
 10
0.0
 20
0.0
 11
1.0
 21
1.0
 12
6.591288
 22
4.579184
 13
0.0
 23
0.0
 14
1.0
 24
1.0
 15
0.0
 25
0.0
 16
0.0
 26
0.0
 36
1.0
 17
0.0
 27
0.0
 37
0.0
 40
9.158369
 41
0.688564
 42
50.0
 43
0.0
 44
0.0
 50
0.0
 51
0.0
 71
     0
 72
   100
 73
     1
 74
     1
 75
     0
 76
     0
 77
     0
 78
     0
281
     0
 65
     0
110
0.0
120
0.0
130
0.0
111
1.0
121
0.0
131
0.0
112
0.0
122
1.0
132
0.0
345
0
346
0
 79
     0
146
0.0
  0
ENDTAB
  0
TABLE
  2
LTYPE
  5
4
100
AcDbSymbolTable
 70
     7
  0
LTYPE
  5
11
100
AcDbSymbolTableRecord
100
AcDbLinetypeTableRecord
  2
ByBlock
 70
    64
  3

 72
    65
 73
     0
 40
0.0
  0
LTYPE
  5
12
100
AcDbSymbolTableRecord
100
AcDbLinetypeTableRecord
  2
ByLayer
 70
    64
  3

 72
    65
 73
     0
 40
0.0
  0
LTYPE
  5
13
100
AcDbSymbolTableRecord
100
AcDbLinetypeTableRecord
  2
Continuous
 70
    64
  3
Solid line
 72
    65
 73
     0
 40
0.0
  0
LTYPE
  5
24
100
AcDbSymbolTableRecord
100
AcDbLinetypeTableRecord
  2
HIDDEN
 70
    64
  3
_ _ _ _ _ _ _ _ _ _ _ _ _ _ _ _ _ _ _ _ _ _ _ _
 72
    65
 73
     2
 40
0.1875
 49
0.125
 74
     0
 49
-0.0625
 74
     0
  0
LTYPE
  5
25
100
AcDbSymbolTableRecord
100
AcDbLinetypeTableRecord
  2
DOTTED
 70
    64
  3
...............................................
 72
    65
 73
     2
 40
0.125
 49
0.0
 74
     0
 49
-0.125
 74
     0
  0
LTYPE
  5
26
100
AcDbSymbolTableRecord
100
AcDbLinetypeTableRecord
  2
CENTER
 70
    64
  3
____ _ ____ _ ____ _ ____ _ ____ _ ____ _ ____ 
 72
    65
 73
     4
 40
1.125
 49
0.75
 74
     0
 49
-0.125
 74
     0
 49
0.125
 74
     0
 49
-0.125
 74
     0
  0
LTYPE
  5
27
100
AcDbSymbolTableRecord
100
AcDbLinetypeTableRecord
  2
PHANTOM
 70
    64
  3
______  __  __  ______  __  __  ______  __  __ 
 72
    65
 73
     6
 40
1.25
 49
0.625
 74
     0
 49
-0.125
 74
     0
 49
0.125
 74
     0
 49
-0.125
 74
     0
 49
0.125
 74
     0
 49
-0.125
 74
     0
  0
ENDTAB
  0
TABLE
  2
LAYER
  5
2
100
AcDbSymbolTable
 70
     2
  0
LAYER
  5
14
100
AcDbSymbolTableRecord
100
AcDbLayerTableRecord
  2
0
 70
     0
 62
     7
  6
Continuous
290
     1
370
    -3
390
1D
  0
LAYER
  5
28
100
AcDbSymbolTableRecord
100
AcDbLayerTableRecord
  2
TEXT
 70
     0
 62
     8
  6
Continuous
290
     1
370
    -3
390
1F
  0
ENDTAB
  0
TABLE
  2
STYLE
  5
3
100
AcDbSymbolTable
 70
     1
  0
STYLE
  5
17
100
AcDbSymbolTableRecord
100
AcDbTextStyleTableRecord
  2
Standard
 70
     0
 40
0.0
 41
1.0
 50
0.0
 71
     0
 42
0.0
  3
txt
  4

  0
ENDTAB
  0
TABLE
  2
VIEW
  5
5
100
AcDbSymbolTable
 70
     0
  0
ENDTAB
  0
TABLE
  2
UCS
  5
6
100
AcDbSymbolTable
 70
     0
  0
ENDTAB
  0
TABLE
  2
APPID
  5
8
100
AcDbSymbolTable
 70
     1
  0
APPID
  5
16
100
AcDbSymbolTableRecord
100
AcDbRegAppTableRecord
  2
ACAD
 70
     0
  0
ENDTAB
  0
TABLE
  2
DIMSTYLE
  5
9
100
AcDbSymbolTable
 70
     1
100
AcDbDimStyleTable
 71
     0
  0
DIMSTYLE
105
18
100
AcDbSymbolTableRecord
100
AcDbDimStyleTableRecord
  2
Standard
 70
     0
  3

  4

 40
1.0
 41
0.18
 42
0.0625
 43
0.38
 44
0.18
 45
0.0
 46
0.0
 47
0.0
 48
0.0
 71
     0
 72
     0
 73
     1
 74
     1
 75
     0
 76
     0
 77
     0
 78
     0
 79
     0
140
0.18
141
0.09
142
0.0
143
25.4
144
1.0
145
0.0
146
1.0
147
0.09
148
0.0
170
     0
171
     2
172
     0
173
     0
174
     0
175
     0
176
     0
177
     0
178
     0
179
     0
271
     4
272
     4
273
     2
274
     2
275
     0
276
     0
277
     2
278
    46
279
     0
280
     0
281
     0
282
     0
283
     1
284
     0
285
     0
286
     0
288
     0
340
17
341
0
342
0
343
0
344
0
371
    -2
372
    -2
  0
ENDTAB
  0
TABLE
  2
BLOCK_RECORD
  5
1
100
AcDbSymbolTable
 70
    74
  0
BLOCK_RECORD
  5
A
100
AcDbSymbolTableRecord
100
AcDbBlockTableRecord
  2
*MODEL_SPACE
340
20
  0
BLOCK_RECORD
  5
B
100
AcDbSymbolTableRecord
100
AcDbBlockTableRecord
  2
*PAPER_SPACE
340
21
  0
BLOCK_RECORD
  5
29
100
AcDbSymbolTableRecord
100
AcDbBlockTableRecord
  2
*B0
340
0
  0
BLOCK_RECORD
  5
2C
100
AcDbSymbolTableRecord
100
AcDbBlockTableRecord
  2
*B1
340
0
  0
BLOCK_RECORD
  5
111
100
AcDbSymbolTableRecord
100
AcDbBlockTableRecord
  2
*B2
340
0
  0
BLOCK_RECORD
  5
17F
100
AcDbSymbolTableRecord
100
AcDbBlockTableRecord
  2
*B3
340
0
  0
BLOCK_RECORD
  5
185
100
AcDbSymbolTableRecord
100
AcDbBlockTableRecord
  2
*B4
340
0
  0
BLOCK_RECORD
  5
190
100
AcDbSymbolTableRecord
100
AcDbBlockTableRecord
  2
*B5
340
0
  0
BLOCK_RECORD
  5
193
100
AcDbSymbolTableRecord
100
AcDbBlockTableRecord
  2
*B6
340
0
  0
BLOCK_RECORD
  5
199
100
AcDbSymbolTableRecord
100
AcDbBlockTableRecord
  2
*B7
340
0
  0
BLOCK_RECORD
  5
1A4
100
AcDbSymbolTableRecord
100
AcDbBlockTableRecord
  2
*B8
340
0
  0
BLOCK_RECORD
  5
1A7
100
AcDbSymbolTableRecord
100
AcDbBlockTableRecord
  2
*B9
340
0
  0
BLOCK_RECORD
  5
1AE
100
AcDbSymbolTableRecord
100
AcDbBlockTableRecord
  2
*B10
340
0
  0
BLOCK_RECORD
  5
1B5
100
AcDbSymbolTableRecord
100
AcDbBlockTableRecord
  2
*B11
340
0
  0
BLOCK_RECORD
  5
1BC
100
AcDbSymbolTableRecord
100
AcDbBlockTableRecord
  2
*B12
340
0
  0
BLOCK_RECORD
  5
1C3
100
AcDbSymbolTableRecord
100
AcDbBlockTableRecord
  2
*B13
340
0
  0
BLOCK_RECORD
  5
1CA
100
AcDbSymbolTableRecord
100
AcDbBlockTableRecord
  2
*B14
340
0
  0
BLOCK_RECORD
  5
1D1
100
AcDbSymbolTableRecord
100
AcDbBlockTableRecord
  2
*B15
340
0
  0
BLOCK_RECORD
  5
1D8
100
AcDbSymbolTableRecord
100
AcDbBlockTableRecord
  2
*B16
340
0
  0
BLOCK_RECORD
  5
1DF
100
AcDbSymbolTableRecord
100
AcDbBlockTableRecord
  2
*B17
340
0
  0
BLOCK_RECORD
  5
1E6
100
AcDbSymbolTableRecord
100
AcDbBlockTableRecord
  2
*B18
340
0
  0
BLOCK_RECORD
  5
1ED
100
AcDbSymbolTableRecord
100
AcDbBlockTableRecord
  2
*B19
340
0
  0
BLOCK_RECORD
  5
1F4
100
AcDbSymbolTableRecord
100
AcDbBlockTableRecord
  2
*B20
340
0
  0
BLOCK_RECORD
  5
1FB
100
AcDbSymbolTableRecord
100
AcDbBlockTableRecord
  2
*B21
340
0
  0
BLOCK_RECORD
  5
202
100
AcDbSymbolTableRecord
100
AcDbBlockTableRecord
  2
*B22
340
0
  0
BLOCK_RECORD
  5
207
100
AcDbSymbolTableRecord
100
AcDbBlockTableRecord
  2
*B23
340
0
  0
BLOCK_RECORD
  5
20D
100
AcDbSymbolTableRecord
100
AcDbBlockTableRecord
  2
*B24
340
0
  0
BLOCK_RECORD
  5
21C
100
AcDbSymbolTableRecord
100
AcDbBlockTableRecord
  2
*B25
340
0
  0
BLOCK_RECORD
  5
222
100
AcDbSymbolTableRecord
100
AcDbBlockTableRecord
  2
*B26
340
0
  0
BLOCK_RECORD
  5
227
100
AcDbSymbolTableRecord
100
AcDbBlockTableRecord
  2
*B27
340
0
  0
BLOCK_RECORD
  5
22C
100
AcDbSymbolTableRecord
100
AcDbBlockTableRecord
  2
*B28
340
0
  0
BLOCK_RECORD
  5
231
100
AcDbSymbolTableRecord
100
AcDbBlockTableRecord
  2
*B29
340
0
  0
BLOCK_RECORD
  5
236
100
AcDbSymbolTableRecord
100
AcDbBlockTableRecord
  2
*B30
340
0
  0
BLOCK_RECORD
  5
23B
100
AcDbSymbolTableRecord
100
AcDbBlockTableRecord
  2
*B31
340
0
  0
BLOCK_RECORD
  5
240
100
AcDbSymbolTableRecord
100
AcDbBlockTableRecord
  2
*B32
340
0
  0
BLOCK_RECORD
  5
249
100
AcDbSymbolTableRecord
100
AcDbBlockTableRecord
  2
*B33
340
0
  0
BLOCK_RECORD
  5
24F
100
AcDbSymbolTableRecord
100
AcDbBlockTableRecord
  2
*B34
340
0
  0
BLOCK_RECORD
  5
254
100
AcDbSymbolTableRecord
100
AcDbBlockTableRecord
  2
*B35
340
0
  0
BLOCK_RECORD
  5
25F
100
AcDbSymbolTableRecord
100
AcDbBlockTableRecord
  2
*B36
340
0
  0
BLOCK_RECORD
  5
267
100
AcDbSymbolTableRecord
100
AcDbBlockTableRecord
  2
*B37
340
0
  0
BLOCK_RECORD
  5
26D
100
AcDbSymbolTableRecord
100
AcDbBlockTableRecord
  2
*B38
340
0
  0
BLOCK_RECORD
  5
274
100
AcDbSymbolTableRecord
100
AcDbBlockTableRecord
  2
*B39
340
0
  0
BLOCK_RECORD
  5
279
100
AcDbSymbolTableRecord
100
AcDbBlockTableRecord
  2
*B40
340
0
  0
BLOCK_RECORD
  5
28D
100
AcDbSymbolTableRecord
100
AcDbBlockTableRecord
  2
*B41
340
0
  0
BLOCK_RECORD
  5
295
100
AcDbSymbolTableRecord
100
AcDbBlockTableRecord
  2
*B42
340
0
  0
BLOCK_RECORD
  5
29A
100
AcDbSymbolTableRecord
100
AcDbBlockTableRecord
  2
*B43
340
0
  0
BLOCK_RECORD
  5
2A0
100
AcDbSymbolTableRecord
100
AcDbBlockTableRecord
  2
*B44
340
0
  0
BLOCK_RECORD
  5
2BB
100
AcDbSymbolTableRecord
100
AcDbBlockTableRecord
  2
*B45
340
0
  0
BLOCK_RECORD
  5
2C1
100
AcDbSymbolTableRecord
100
AcDbBlockTableRecord
  2
*B46
340
0
  0
BLOCK_RECORD
  5
2C8
100
AcDbSymbolTableRecord
100
AcDbBlockTableRecord
  2
*B47
340
0
  0
BLOCK_RECORD
  5
2CE
100
AcDbSymbolTableRecord
100
AcDbBlockTableRecord
  2
*B48
340
0
  0
BLOCK_RECORD
  5
2D4
100
AcDbSymbolTableRecord
100
AcDbBlockTableRecord
  2
*B49
340
0
  0
BLOCK_RECORD
  5
2DA
100
AcDbSymbolTableRecord
100
AcDbBlockTableRecord
  2
*B50
340
0
  0
BLOCK_RECORD
  5
2E0
100
AcDbSymbolTableRecord
100
AcDbBlockTableRecord
  2
*B51
340
0
  0
BLOCK_RECORD
  5
2E6
100
AcDbSymbolTableRecord
100
AcDbBlockTableRecord
  2
*B52
340
0
  0
BLOCK_RECORD
  5
2EC
100
AcDbSymbolTableRecord
100
AcDbBlockTableRecord
  2
*B53
340
0
  0
BLOCK_RECORD
  5
2F3
100
AcDbSymbolTableRecord
100
AcDbBlockTableRecord
  2
*B54
340
0
  0
BLOCK_RECORD
  5
2F8
100
AcDbSymbolTableRecord
100
AcDbBlockTableRecord
  2
*B55
340
0
  0
BLOCK_RECORD
  5
2FD
100
AcDbSymbolTableRecord
100
AcDbBlockTableRecord
  2
*B56
340
0
  0
BLOCK_RECORD
  5
302
100
AcDbSymbolTableRecord
100
AcDbBlockTableRecord
  2
*B57
340
0
  0
BLOCK_RECORD
  5
307
100
AcDbSymbolTableRecord
100
AcDbBlockTableRecord
  2
*B58
340
0
  0
BLOCK_RECORD
  5
30C
100
AcDbSymbolTableRecord
100
AcDbBlockTableRecord
  2
*B59
340
0
  0
BLOCK_RECORD
  5
311
100
AcDbSymbolTableRecord
100
AcDbBlockTableRecord
  2
*B60
340
0
  0
BLOCK_RECORD
  5
316
100
AcDbSymbolTableRecord
100
AcDbBlockTableRecord
  2
*B61
340
0
  0
BLOCK_RECORD
  5
31B
100
AcDbSymbolTableRecord
100
AcDbBlockTableRecord
  2
*B62
340
0
  0
BLOCK_RECORD
  5
320
100
AcDbSymbolTableRecord
100
AcDbBlockTableRecord
  2
*B63
340
0
  0
BLOCK_RECORD
  5
325
100
AcDbSymbolTableRecord
100
AcDbBlockTableRecord
  2
*B64
340
0
  0
BLOCK_RECORD
  5
32A
100
AcDbSymbolTableRecord
100
AcDbBlockTableRecord
  2
*B65
340
0
  0
BLOCK_RECORD
  5
32F
100
AcDbSymbolTableRecord
100
AcDbBlockTableRecord
  2
*B66
340
0
  0
BLOCK_RECORD
  5
334
100
AcDbSymbolTableRecord
100
AcDbBlockTableRecord
  2
*B67
340
0
  0
BLOCK_RECORD
  5
339
100
AcDbSymbolTableRecord
100
AcDbBlockTableRecord
  2
*B68
340
0
  0
BLOCK_RECORD
  5
33E
100
AcDbSymbolTableRecord
100
AcDbBlockTableRecord
  2
*B69
340
0
  0
BLOCK_RECORD
  5
343
100
AcDbSymbolTableRecord
100
AcDbBlockTableRecord
  2
*B70
340
0
  0
BLOCK_RECORD
  5
348
100
AcDbSymbolTableRecord
100
AcDbBlockTableRecord
  2
*B71
340
0
  0
BLOCK_RECORD
  5
34D
100
AcDbSymbolTableRecord
100
AcDbBlockTableRecord
  2
*B72
340
0
  0
BLOCK_RECORD
  5
352
100
AcDbSymbolTableRecord
100
AcDbBlockTableRecord
  2
*B73
340
0
  0
ENDTAB
  0
ENDSEC
  0
SECTION
  2
BLOCKS
  0
BLOCK
  5
D
100
AcDbEntity
  8
0
100
AcDbBlockBegin
  2
*MODEL_SPACE
 70
     0
 10
0.0
 20
0.0
 30
0.0
  3
*MODEL_SPACE
  1

  0
ENDBLK
  5
E
100
AcDbEntity
  8
0
100
AcDbBlockEnd
  0
BLOCK
  5
F
100
AcDbEntity
 67
     1
  8
0
100
AcDbBlockBegin
  2
*PAPER_SPACE
 70
     0
 10
0.0
 20
0.0
 30
0.0
  3
*PAPER_SPACE
  1

  0
ENDBLK
  5
10
100
AcDbEntity
 67
     1
  8
0
100
AcDbBlockEnd
  0
BLOCK
  5
2A
100
AcDbEntity
  8
0
100
AcDbBlockBegin
  2
*B0
 70
     0
 10
0.0
 20
0.0
 30
0.0
  3
*B0
  1

  0
ENDBLK
  5
2B
100
AcDbEntity
  8
0
100
AcDbBlockEnd
  0
BLOCK
  5
2D
100
AcDbEntity
  8
0
100
AcDbBlockBegin
  2
*B1
 70
     0
 10
0.0
 20
0.0
 30
0.0
  3
*B1
  1

  0
LINE
  5
2E
100
AcDbEntity
  8
0
  6
Continuous
 62
   174
100
AcDbLine
 10
270.601703
 20
420.588622
 30
0.0
 11
270.601703
 21
402.588622
 31
0.0
  0
LINE
  5
2F
100
AcDbEntity
  8
0
  6
HIDDEN
 62
   174
100
AcDbLine
 10
300.192381
 20
435.438622
 30
0.0
 11
299.379112
 21
435.438622
 31
0.0
  0
LINE
  5
30
100
AcDbEntity
  8
0
  6
HIDDEN
 62
   174
100
AcDbLine
 10
306.583036
 20
435.438622
 30
0.0
 11
300.192381
 21
435.438622
 31
0.0
  0
LINE
  5
31
100
AcDbEntity
  8
0
  6
HIDDEN
 62
   174
100
AcDbLine
 10
312.973692
 20
435.438622
 30
0.0
 11
306.583036
 21
435.438622
 31
0.0
  0
LINE
  5
32
100
AcDbEntity
  8
0
  6
HIDDEN
 62
   174
100
AcDbLine
 10
313.786961
 20
435.438622
 30
0.0
 11
312.973692
 21
435.438622
 31
0.0
  0
LINE
  5
33
100
AcDbEntity
  8
0
  6
Continuous
 62
   174
100
AcDbLine
 10
299.379112
 20
435.438622
 30
0.0
 11
298.258462
 21
435.438622
 31
0.0
  0
LINE
  5
34
100
AcDbEntity
  8
0
  6
Continuous
 62
   174
100
AcDbLine
 10
314.907611
 20
435.438622
 30
0.0
 11
313.786961
 21
435.438622
 31
0.0
  0
LINE
  5
35
100
AcDbEntity
  8
0
  6
Continuous
 62
   174
100
AcDbLine
 10
277.351703
 20
303.588622
 30
0.0
 11
396.601703
 21
303.588622
 31
0.0
  0
LINE
  5
36
100
AcDbEntity
  8
0
  6
HIDDEN
 62
   174
100
AcDbLine
 10
300.508184
 20
435.438622
 30
0.0
 11
306.583036
 21
435.438622
 31
0.0
  0
LINE
  5
37
100
AcDbEntity
  8
0
  6
HIDDEN
 62
   174
100
AcDbLine
 10
306.583036
 20
435.438622
 30
0.0
 11
312.657889
 21
435.438622
 31
0.0
  0
LINE
  5
38
100
AcDbEntity
  8
0
  6
Continuous
 62
   174
100
AcDbLine
 10
342.601703
 20
402.588622
 30
0.0
 11
342.601703
 21
420.588622
 31
0.0
  0
LINE
  5
39
100
AcDbEntity
  8
0
  6
Continuous
 62
   174
100
AcDbLine
 10
396.601703
 20
402.588622
 30
0.0
 11
342.601703
 21
402.588622
 31
0.0
  0
LINE
  5
3A
100
AcDbEntity
  8
0
  6
HIDDEN
 62
   174
100
AcDbLine
 10
300.526703
 20
428.688622
 30
0.0
 11
300.526703
 21
435.438622
 31
0.0
  0
LINE
  5
3B
100
AcDbEntity
  8
0
  6
Continuous
 62
   174
100
AcDbLine
 10
277.351703
 20
303.588622
 30
0.0
 11
277.351703
 21
304.713622
 31
0.0
  0
LINE
  5
3C
100
AcDbEntity
  8
0
  6
HIDDEN
 62
   174
100
AcDbLine
 10
457.914203
 20
321.588622
 30
0.0
 11
457.914203
 21
285.588622
 31
0.0
  0
LINE
  5
3D
100
AcDbEntity
  8
0
  6
HIDDEN
 62
   174
100
AcDbLine
 10
497.289203
 20
285.588622
 30
0.0
 11
497.289203
 21
326.088622
 31
0.0
  0
LINE
  5
3E
100
AcDbEntity
  8
0
  6
HIDDEN
 62
   174
100
AcDbLine
 10
535.461621
 20
384.588622
 30
0.0
 11
491.679254
 21
384.588622
 31
0.0
  0
LINE
  5
3F
100
AcDbEntity
  8
0
  6
HIDDEN
 62
   174
100
AcDbLine
 10
457.886498
 20
326.088622
 30
0.0
 11
497.259047
 21
326.088622
 31
0.0
  0
LINE
  5
40
100
AcDbEntity
  8
0
  6
Continuous
 62
   174
100
AcDbLine
 10
270.601703
 20
402.588622
 30
0.0
 11
277.351703
 21
402.588622
 31
0.0
  0
LINE
  5
41
100
AcDbEntity
  8
0
  6
HIDDEN
 62
   174
100
AcDbLine
 10
527.709203
 20
321.588622
 30
0.0
 11
527.709203
 21
285.588622
 31
0.0
  0
LINE
  5
42
100
AcDbEntity
  8
0
  6
Continuous
 62
   174
100
AcDbLine
 10
270.601703
 20
380.088622
 30
0.0
 11
270.601703
 21
326.088622
 31
0.0
  0
LINE
  5
43
100
AcDbEntity
  8
0
  6
HIDDEN
 62
   174
100
AcDbLine
 10
513.570137
 20
380.088622
 30
0.0
 11
493.883862
 21
380.088622
 31
0.0
  0
LINE
  5
44
100
AcDbEntity
  8
0
  6
HIDDEN
 62
   174
100
AcDbLine
 10
493.883862
 20
420.588622
 30
0.0
 11
513.570137
 21
420.588622
 31
0.0
  0
LINE
  5
45
100
AcDbEntity
  8
0
  6
HIDDEN
 62
   174
100
AcDbLine
 10
513.570137
 20
420.588622
 30
0.0
 11
533.256412
 21
420.588622
 31
0.0
  0
LINE
  5
46
100
AcDbEntity
  8
0
  6
Continuous
 62
   174
100
AcDbLine
 10
396.601703
 20
303.588622
 30
0.0
 11
396.601703
 21
402.588622
 31
0.0
  0
LINE
  5
47
100
AcDbEntity
  8
0
  6
Continuous
 62
   174
100
AcDbLine
 10
432.601703
 20
303.588622
 30
0.0
 11
432.601703
 21
402.588622
 31
0.0
  0
LINE
  5
48
100
AcDbEntity
  8
0
  6
Continuous
 62
   174
100
AcDbLine
 10
432.601703
 20
420.588622
 30
0.0
 11
432.601703
 21
402.588622
 31
0.0
  0
ARC
  5
49
100
AcDbEntity
  8
0
  6
Continuous
 62
   174
100
AcDbCircle
 10
270.601703
 20
322.713622
 30
0.0
 40
2.25
100
AcDbArc
 50
-270.0
 51
-180.0
  0
LINE
  5
4A
100
AcDbEntity
  8
0
  6
Continuous
 62
   174
100
AcDbLine
 10
314.926703
 20
428.688622
 30
0.0
 11
314.926703
 21
435.438622
 31
0.0
  0
LINE
  5
4B
100
AcDbEntity
  8
0
  6
Continuous
 62
   174
100
AcDbLine
 10
396.601703
 20
303.588622
 30
0.0
 11
396.601703
 21
402.588622
 31
0.0
  0
LINE
  5
4C
100
AcDbEntity
  8
0
  6
HIDDEN
 62
   174
100
AcDbLine
 10
306.583036
 20
428.688622
 30
0.0
 11
298.258462
 21
428.688622
 31
0.0
  0
LINE
  5
4D
100
AcDbEntity
  8
0
  6
HIDDEN
 62
   174
100
AcDbLine
 10
455.681288
 20
321.588622
 30
0.0
 11
499.463655
 21
321.588622
 31
0.0
  0
LINE
  5
4E
100
AcDbEntity
  8
0
  6
HIDDEN
 62
   174
100
AcDbLine
 10
493.914203
 20
420.588622
 30
0.0
 11
493.914203
 21
380.088622
 31
0.0
  0
LINE
  5
4F
100
AcDbEntity
  8
0
  6
HIDDEN
 62
   174
100
AcDbLine
 10
529.914203
 20
321.588622
 30
0.0
 11
529.914203
 21
285.588622
 31
0.0
  0
LINE
  5
50
100
AcDbEntity
  8
0
  6
HIDDEN
 62
   174
100
AcDbLine
 10
277.351703
 20
325.051213
 30
0.0
 11
277.351703
 21
304.802507
 31
0.0
  0
ARC
  5
51
100
AcDbEntity
  8
0
  6
Continuous
 62
   174
100
AcDbCircle
 10
270.601703
 20
383.463622
 30
0.0
 40
2.25
100
AcDbArc
 50
180.0
 51
225.0
  0
LINE
  5
52
100
AcDbEntity
  8
0
  6
HIDDEN
 62
   174
100
AcDbLine
 10
314.907611
 20
428.688622
 30
0.0
 11
306.583036
 21
428.688622
 31
0.0
  0
LINE
  5
53
100
AcDbEntity
  8
0
  6
HIDDEN
 62
   174
100
AcDbLine
 10
457.914203
 20
285.588622
 30
0.0
 11
457.914203
 21
326.088622
 31
0.0
  0
LINE
  5
54
100
AcDbEntity
  8
0
  6
Continuous
 62
   174
100
AcDbLine
 10
277.351703
 20
381.213622
 30
0.0
 11
277.351703
 21
380.088622
 31
0.0
  0
LINE
  5
55
100
AcDbEntity
  8
0
  6
HIDDEN
 62
   174
100
AcDbLine
 10
535.461621
 20
420.588622
 30
0.0
 11
491.679254
 21
420.588622
 31
0.0
  0
LINE
  5
56
100
AcDbEntity
  8
0
  6
HIDDEN
 62
   174
100
AcDbLine
 10
491.709203
 20
384.588622
 30
0.0
 11
491.709203
 21
420.588622
 31
0.0
  0
LINE
  5
57
100
AcDbEntity
  8
0
  6
HIDDEN
 62
   174
100
AcDbLine
 10
571.494203
 20
321.588622
 30
0.0
 11
571.494203
 21
285.588622
 31
0.0
  0
LINE
  5
58
100
AcDbEntity
  8
0
  6
HIDDEN
 62
   174
100
AcDbLine
 10
527.676619
 20
285.588622
 30
0.0
 11
571.458985
 21
285.588622
 31
0.0
  0
LINE
  5
59
100
AcDbEntity
  8
0
  6
HIDDEN
 62
   174
100
AcDbLine
 10
533.256412
 20
380.088622
 30
0.0
 11
513.570137
 21
380.088622
 31
0.0
  0
LINE
  5
5A
100
AcDbEntity
  8
0
  6
HIDDEN
 62
   174
100
AcDbLine
 10
529.881828
 20
326.088622
 30
0.0
 11
569.254377
 21
326.088622
 31
0.0
  0
LINE
  5
5B
100
AcDbEntity
  8
0
  6
HIDDEN
 62
   174
100
AcDbLine
 10
569.254377
 20
285.588622
 30
0.0
 11
529.881828
 21
285.588622
 31
0.0
  0
ARC
  5
5C
100
AcDbEntity
  8
0
  6
Continuous
 62
   174
100
AcDbCircle
 10
270.601703
 20
383.463622
 30
0.0
 40
2.25
100
AcDbArc
 50
225.0
 51
270.0
  0
LINE
  5
5D
100
AcDbEntity
  8
0
  6
HIDDEN
 62
   174
100
AcDbLine
 10
312.676703
 20
428.688622
 30
0.0
 11
312.676703
 21
435.438622
 31
0.0
  0
LINE
  5
5E
100
AcDbEntity
  8
0
  6
Continuous
 62
   174
100
AcDbLine
 10
270.601703
 20
303.588622
 30
0.0
 11
277.351703
 21
303.588622
 31
0.0
  0
LINE
  5
5F
100
AcDbEntity
  8
0
  6
HIDDEN
 62
   174
100
AcDbLine
 10
457.914203
 20
321.588622
 30
0.0
 11
457.914203
 21
285.588622
 31
0.0
  0
LINE
  5
60
100
AcDbEntity
  8
0
  6
HIDDEN
 62
   174
100
AcDbLine
 10
499.494203
 20
321.588622
 30
0.0
 11
499.494203
 21
285.588622
 31
0.0
  0
LINE
  5
61
100
AcDbEntity
  8
0
  6
Continuous
 62
   174
100
AcDbLine
 10
277.351703
 20
401.463622
 30
0.0
 11
277.351703
 21
381.213622
 31
0.0
  0
LINE
  5
62
100
AcDbEntity
  8
0
  6
HIDDEN
 62
   174
100
AcDbLine
 10
493.914203
 20
384.588622
 30
0.0
 11
493.914203
 21
420.588622
 31
0.0
  0
LINE
  5
63
100
AcDbEntity
  8
0
  6
HIDDEN
 62
   174
100
AcDbLine
 10
533.289203
 20
420.588622
 30
0.0
 11
533.289203
 21
380.088622
 31
0.0
  0
LINE
  5
64
100
AcDbEntity
  8
0
  6
HIDDEN
 62
   174
100
AcDbLine
 10
535.494203
 20
384.588622
 30
0.0
 11
535.494203
 21
420.588622
 31
0.0
  0
LINE
  5
65
100
AcDbEntity
  8
0
  6
HIDDEN
 62
   174
100
AcDbLine
 10
569.289203
 20
321.588622
 30
0.0
 11
569.289203
 21
285.588622
 31
0.0
  0
LINE
  5
66
100
AcDbEntity
  8
0
  6
HIDDEN
 62
   174
100
AcDbLine
 10
529.914203
 20
285.588622
 30
0.0
 11
529.914203
 21
326.088622
 31
0.0
  0
LINE
  5
67
100
AcDbEntity
  8
0
  6
Continuous
 62
   174
100
AcDbLine
 10
270.601703
 20
380.088622
 30
0.0
 11
277.351703
 21
380.088622
 31
0.0
  0
LINE
  5
68
100
AcDbEntity
  8
0
  6
Continuous
 62
   174
100
AcDbLine
 10
396.601703
 20
402.588622
 30
0.0
 11
432.601703
 21
402.588622
 31
0.0
  0
LINE
  5
69
100
AcDbEntity
  8
0
  6
Continuous
 62
   174
100
AcDbLine
 10
277.351703
 20
304.713622
 30
0.0
 11
277.351703
 21
324.963622
 31
0.0
  0
LINE
  5
6A
100
AcDbEntity
  8
0
  6
HIDDEN
 62
   174
100
AcDbLine
 10
497.289203
 20
321.588622
 30
0.0
 11
497.289203
 21
285.588622
 31
0.0
  0
LINE
  5
6B
100
AcDbEntity
  8
0
  6
HIDDEN
 62
   174
100
AcDbLine
 10
497.289203
 20
285.588622
 30
0.0
 11
497.289203
 21
326.088622
 31
0.0
  0
LINE
  5
6C
100
AcDbEntity
  8
0
  6
HIDDEN
 62
   174
100
AcDbLine
 10
455.709203
 20
321.588622
 30
0.0
 11
455.709203
 21
285.588622
 31
0.0
  0
LINE
  5
6D
100
AcDbEntity
  8
0
  6
Continuous
 62
   174
100
AcDbLine
 10
277.351703
 20
402.588622
 30
0.0
 11
277.351703
 21
401.463622
 31
0.0
  0
LINE
  5
6E
100
AcDbEntity
  8
0
  6
HIDDEN
 62
   174
100
AcDbLine
 10
533.289203
 20
384.588622
 30
0.0
 11
533.289203
 21
420.588622
 31
0.0
  0
LINE
  5
6F
100
AcDbEntity
  8
0
  6
HIDDEN
 62
   174
100
AcDbLine
 10
529.914203
 20
321.588622
 30
0.0
 11
529.914203
 21
285.588622
 31
0.0
  0
LINE
  5
70
100
AcDbEntity
  8
0
  6
HIDDEN
 62
   174
100
AcDbLine
 10
527.709203
 20
321.588622
 30
0.0
 11
527.709203
 21
285.588622
 31
0.0
  0
LINE
  5
71
100
AcDbEntity
  8
0
  6
HIDDEN
 62
   174
100
AcDbLine
 10
571.494203
 20
321.588622
 30
0.0
 11
571.494203
 21
285.588622
 31
0.0
  0
LINE
  5
72
100
AcDbEntity
  8
0
  6
HIDDEN
 62
   174
100
AcDbLine
 10
277.351703
 20
401.547792
 30
0.0
 11
277.351703
 21
381.298486
 31
0.0
  0
LINE
  5
73
100
AcDbEntity
  8
0
  6
HIDDEN
 62
   174
100
AcDbLine
 10
277.351703
 20
401.547792
 30
0.0
 11
277.351703
 21
381.298486
 31
0.0
  0
LINE
  5
74
100
AcDbEntity
  8
0
  6
Continuous
 62
   174
100
AcDbLine
 10
432.601703
 20
402.588622
 30
0.0
 11
432.601703
 21
303.588622
 31
0.0
  0
LINE
  5
75
100
AcDbEntity
  8
0
  6
Continuous
 62
   174
100
AcDbLine
 10
594.601703
 20
420.588622
 30
0.0
 11
432.601703
 21
420.588622
 31
0.0
  0
ARC
  5
76
100
AcDbEntity
  8
0
  6
Continuous
 62
   174
100
AcDbCircle
 10
270.601703
 20
399.213622
 30
0.0
 40
2.25
100
AcDbArc
 50
-270.0
 51
-180.0
  0
ARC
  5
77
100
AcDbEntity
  8
0
  6
HIDDEN
 62
   174
100
AcDbCircle
 10
270.601703
 20
306.963622
 30
0.0
 40
2.25
100
AcDbArc
 50
225.0
 51
270.0
  0
LINE
  5
78
100
AcDbEntity
  8
0
  6
HIDDEN
 62
   174
100
AcDbLine
 10
306.583036
 20
428.688622
 30
0.0
 11
300.508184
 21
428.688622
 31
0.0
  0
LINE
  5
79
100
AcDbEntity
  8
0
  6
HIDDEN
 62
   174
100
AcDbLine
 10
312.657889
 20
428.688622
 30
0.0
 11
306.583036
 21
428.688622
 31
0.0
  0
LINE
  5
7A
100
AcDbEntity
  8
0
  6
Continuous
 62
   174
100
AcDbLine
 10
270.601703
 20
326.088622
 30
0.0
 11
277.351703
 21
326.088622
 31
0.0
  0
LINE
  5
7B
100
AcDbEntity
  8
0
  6
HIDDEN
 62
   174
100
AcDbLine
 10
497.289203
 20
321.588622
 30
0.0
 11
497.289203
 21
285.588622
 31
0.0
  0
LINE
  5
7C
100
AcDbEntity
  8
0
  6
HIDDEN
 62
   174
100
AcDbLine
 10
455.709203
 20
321.588622
 30
0.0
 11
455.709203
 21
285.588622
 31
0.0
  0
LINE
  5
7D
100
AcDbEntity
  8
0
  6
HIDDEN
 62
   174
100
AcDbLine
 10
533.289203
 20
384.588622
 30
0.0
 11
533.289203
 21
420.588622
 31
0.0
  0
LINE
  5
7E
100
AcDbEntity
  8
0
  6
HIDDEN
 62
   174
100
AcDbLine
 10
535.494203
 20
384.588622
 30
0.0
 11
535.494203
 21
420.588622
 31
0.0
  0
LINE
  5
7F
100
AcDbEntity
  8
0
  6
HIDDEN
 62
   174
100
AcDbLine
 10
569.289203
 20
285.588622
 30
0.0
 11
569.289203
 21
326.088622
 31
0.0
  0
LINE
  5
80
100
AcDbEntity
  8
0
  6
HIDDEN
 62
   174
100
AcDbLine
 10
569.289203
 20
285.588622
 30
0.0
 11
569.289203
 21
326.088622
 31
0.0
  0
LINE
  5
81
100
AcDbEntity
  8
0
  6
HIDDEN
 62
   174
100
AcDbLine
 10
277.351703
 20
325.051213
 30
0.0
 11
277.351703
 21
304.802507
 31
0.0
  0
LINE
  5
82
100
AcDbEntity
  8
0
  6
Continuous
 62
   174
100
AcDbLine
 10
594.601703
 20
285.588622
 30
0.0
 11
594.601703
 21
420.588622
 31
0.0
  0
LINE
  5
83
100
AcDbEntity
  8
0
  6
Continuous
 62
   174
100
AcDbLine
 10
432.601703
 20
285.588622
 30
0.0
 11
594.601703
 21
285.588622
 31
0.0
  0
ARC
  5
84
100
AcDbEntity
  8
0
  6
Continuous
 62
   174
100
AcDbCircle
 10
270.601703
 20
383.463622
 30
0.0
 40
2.25
100
AcDbArc
 50
180.0
 51
225.0
  0
ARC
  5
85
100
AcDbEntity
  8
0
  6
Continuous
 62
   174
100
AcDbCircle
 10
270.601703
 20
306.963622
 30
0.0
 40
2.25
100
AcDbArc
 50
180.0
 51
270.0
  0
ARC
  5
86
100
AcDbEntity
  8
0
  6
Continuous
 62
   174
100
AcDbCircle
 10
270.601703
 20
322.713622
 30
0.0
 40
2.25
100
AcDbArc
 50
-270.0
 51
-180.0
  0
ARC
  5
87
100
AcDbEntity
  8
0
  6
HIDDEN
 62
   174
100
AcDbCircle
 10
270.601703
 20
322.713622
 30
0.0
 40
2.25
100
AcDbArc
 50
-270.0
 51
-180.0
  0
ARC
  5
88
100
AcDbEntity
  8
0
  6
HIDDEN
 62
   174
100
AcDbCircle
 10
270.601703
 20
306.963622
 30
0.0
 40
2.25
100
AcDbArc
 50
225.0
 51
270.0
  0
LINE
  5
89
100
AcDbEntity
  8
0
  6
Continuous
 62
   174
100
AcDbLine
 10
277.351703
 20
324.963622
 30
0.0
 11
277.351703
 21
326.088622
 31
0.0
  0
LINE
  5
8A
100
AcDbEntity
  8
0
  6
HIDDEN
 62
   174
100
AcDbLine
 10
457.914203
 20
285.588622
 30
0.0
 11
457.914203
 21
326.088622
 31
0.0
  0
LINE
  5
8B
100
AcDbEntity
  8
0
  6
HIDDEN
 62
   174
100
AcDbLine
 10
455.681288
 20
285.588622
 30
0.0
 11
499.463655
 21
285.588622
 31
0.0
  0
LINE
  5
8C
100
AcDbEntity
  8
0
  6
HIDDEN
 62
   174
100
AcDbLine
 10
527.676619
 20
321.588622
 30
0.0
 11
571.458985
 21
321.588622
 31
0.0
  0
LINE
  5
8D
100
AcDbEntity
  8
0
  6
HIDDEN
 62
   174
100
AcDbLine
 10
497.259047
 20
285.588622
 30
0.0
 11
457.886498
 21
285.588622
 31
0.0
  0
LINE
  5
8E
100
AcDbEntity
  8
0
  6
Continuous
 62
   174
100
AcDbLine
 10
396.601703
 20
303.588622
 30
0.0
 11
432.601703
 21
303.588622
 31
0.0
  0
LINE
  5
8F
100
AcDbEntity
  8
0
  6
Continuous
 62
   174
100
AcDbLine
 10
432.601703
 20
303.588622
 30
0.0
 11
432.601703
 21
285.588622
 31
0.0
  0
ARC
  5
90
100
AcDbEntity
  8
0
  6
Continuous
 62
   174
100
AcDbCircle
 10
270.601703
 20
383.463622
 30
0.0
 40
2.25
100
AcDbArc
 50
225.0
 51
270.0
  0
ARC
  5
91
100
AcDbEntity
  8
0
  6
Continuous
 62
   174
100
AcDbCircle
 10
270.601703
 20
306.963622
 30
0.0
 40
2.25
100
AcDbArc
 50
180.0
 51
270.0
  0
ARC
  5
92
100
AcDbEntity
  8
0
  6
HIDDEN
 62
   174
100
AcDbCircle
 10
270.601703
 20
306.963622
 30
0.0
 40
2.25
100
AcDbArc
 50
180.0
 51
225.0
  0
LINE
  5
93
100
AcDbEntity
  8
0
  6
Continuous
 62
   174
100
AcDbLine
 10
342.601703
 20
420.588622
 30
0.0
 11
270.601703
 21
420.588622
 31
0.0
  0
LINE
  5
94
100
AcDbEntity
  8
0
  6
Continuous
 62
   174
100
AcDbLine
 10
298.276703
 20
428.688622
 30
0.0
 11
298.276703
 21
435.438622
 31
0.0
  0
LINE
  5
95
100
AcDbEntity
  8
0
  6
HIDDEN
 62
   174
100
AcDbLine
 10
594.601703
 20
332.925843
 30
0.0
 11
594.601703
 21
373.423855
 31
0.0
  0
LINE
  5
96
100
AcDbEntity
  8
0
  6
HIDDEN
 62
   174
100
AcDbLine
 10
499.494203
 20
321.588622
 30
0.0
 11
499.494203
 21
285.588622
 31
0.0
  0
LINE
  5
97
100
AcDbEntity
  8
0
  6
HIDDEN
 62
   174
100
AcDbLine
 10
493.914203
 20
384.588622
 30
0.0
 11
493.914203
 21
420.588622
 31
0.0
  0
LINE
  5
98
100
AcDbEntity
  8
0
  6
HIDDEN
 62
   174
100
AcDbLine
 10
491.709203
 20
384.588622
 30
0.0
 11
491.709203
 21
420.588622
 31
0.0
  0
LINE
  5
99
100
AcDbEntity
  8
0
  6
HIDDEN
 62
   174
100
AcDbLine
 10
569.289203
 20
321.588622
 30
0.0
 11
569.289203
 21
285.588622
 31
0.0
  0
LINE
  5
9A
100
AcDbEntity
  8
0
  6
HIDDEN
 62
   174
100
AcDbLine
 10
529.914203
 20
285.588622
 30
0.0
 11
529.914203
 21
326.088622
 31
0.0
  0
ARC
  5
9B
100
AcDbEntity
  8
0
  6
Continuous
 62
   174
100
AcDbCircle
 10
270.601703
 20
399.213622
 30
0.0
 40
2.25
100
AcDbArc
 50
-270.0
 51
-180.0
  0
LINE
  5
9C
100
AcDbEntity
  8
0
  6
HIDDEN
 62
   174
100
AcDbLine
 10
270.601703
 20
304.713622
 30
0.0
 11
270.601703
 21
314.838622
 31
0.0
  0
LINE
  5
9D
100
AcDbEntity
  8
0
  6
HIDDEN
 62
   174
100
AcDbLine
 10
270.601703
 20
326.088622
 30
0.0
 11
277.351703
 21
326.088622
 31
0.0
  0
LINE
  5
9E
100
AcDbEntity
  8
0
  6
HIDDEN
 62
   174
100
AcDbLine
 10
306.583036
 20
428.688622
 30
0.0
 11
298.549001
 21
428.688622
 31
0.0
  0
LINE
  5
9F
100
AcDbEntity
  8
0
  6
HIDDEN
 62
   174
100
AcDbLine
 10
322.351703
 20
455.095398
 30
0.0
 11
322.351703
 21
460.944677
 31
0.0
  0
LINE
  5
A0
100
AcDbEntity
  8
0
  6
Continuous
 62
   174
100
AcDbLine
 10
270.601703
 20
304.713622
 30
0.0
 11
277.351703
 21
304.713622
 31
0.0
  0
ARC
  5
A1
100
AcDbEntity
  8
0
  6
Continuous
 62
   174
100
AcDbCircle
 10
477.601703
 20
389.088622
 30
0.0
 40
10.125
100
AcDbArc
 50
-180.0
 51
0.0
  0
LINE
  5
A2
100
AcDbEntity
  8
0
  6
HIDDEN
 62
   174
100
AcDbLine
 10
270.601703
 20
380.615147
 30
0.0
 11
270.601703
 21
391.42344
 31
0.0
  0
ARC
  5
A3
100
AcDbEntity
  8
0
  6
HIDDEN
 62
   174
100
AcDbCircle
 10
270.601703
 20
399.213622
 30
0.0
 40
2.25
100
AcDbArc
 50
-270.0
 51
-180.0
  0
LINE
  5
A4
100
AcDbEntity
  8
0
  6
Continuous
 62
   174
100
AcDbLine
 10
594.601703
 20
332.838622
 30
0.0
 11
599.101703
 21
332.838622
 31
0.0
  0
LINE
  5
A5
100
AcDbEntity
  8
0
  6
HIDDEN
 62
   174
100
AcDbLine
 10
299.401703
 20
420.588622
 30
0.0
 11
313.801703
 21
420.588622
 31
0.0
  0
LINE
  5
A6
100
AcDbEntity
  8
0
  6
Continuous
 62
   174
100
AcDbLine
 10
295.351703
 20
420.588622
 30
0.0
 11
295.351703
 21
428.688622
 31
0.0
  0
LINE
  5
A7
100
AcDbEntity
  8
0
  6
Continuous
 62
   174
100
AcDbLine
 10
599.101703
 20
332.925843
 30
0.0
 11
599.101703
 21
373.423855
 31
0.0
  0
ARC
  5
A8
100
AcDbEntity
  8
0
  6
Continuous
 62
   174
100
AcDbCircle
 10
549.601703
 20
389.088622
 30
0.0
 40
10.125
100
AcDbArc
 50
0.0
 51
180.0
  0
LINE
  5
A9
100
AcDbEntity
  8
0
  6
Continuous
 62
   174
100
AcDbLine
 10
270.601703
 20
303.588622
 30
0.0
 11
270.601703
 21
304.713622
 31
0.0
  0
LINE
  5
AA
100
AcDbEntity
  8
0
  6
Continuous
 62
   174
100
AcDbLine
 10
270.601703
 20
324.963622
 30
0.0
 11
277.351703
 21
324.963622
 31
0.0
  0
LINE
  5
AB
100
AcDbEntity
  8
0
  6
Continuous
 62
   174
100
AcDbLine
 10
270.601703
 20
325.051213
 30
0.0
 11
270.601703
 21
314.92686
 31
0.0
  0
LINE
  5
AC
100
AcDbEntity
  8
0
  6
Continuous
 62
   174
100
AcDbLine
 10
322.351703
 20
420.588622
 30
0.0
 11
322.351703
 21
468.738622
 31
0.0
  0
LINE
  5
AD
100
AcDbEntity
  8
0
  6
Continuous
 62
   174
100
AcDbLine
 10
594.601703
 20
373.338622
 30
0.0
 11
599.101703
 21
373.338622
 31
0.0
  0
LINE
  5
AE
100
AcDbEntity
  8
0
  6
HIDDEN
 62
   174
100
AcDbLine
 10
270.601703
 20
401.547792
 30
0.0
 11
270.601703
 21
381.298486
 31
0.0
  0
LINE
  5
AF
100
AcDbEntity
  8
0
  6
HIDDEN
 62
   174
100
AcDbLine
 10
270.601703
 20
325.051213
 30
0.0
 11
270.601703
 21
314.92686
 31
0.0
  0
LINE
  5
B0
100
AcDbEntity
  8
0
  6
Continuous
 62
   174
100
AcDbLine
 10
270.601703
 20
402.228123
 30
0.0
 11
270.601703
 21
402.672654
 31
0.0
  0
LINE
  5
B1
100
AcDbEntity
  8
0
  6
Continuous
 62
   174
100
AcDbLine
 10
317.83225
 20
428.688622
 30
0.0
 11
315.447785
 21
428.688622
 31
0.0
  0
LINE
  5
B2
100
AcDbEntity
  8
0
  6
HIDDEN
 62
   174
100
AcDbLine
 10
270.601703
 20
380.088622
 30
0.0
 11
277.351703
 21
380.088622
 31
0.0
  0
ARC
  5
B3
100
AcDbEntity
  8
0
  6
HIDDEN
 62
   174
100
AcDbCircle
 10
270.601703
 20
383.463622
 30
0.0
 40
2.25
100
AcDbArc
 50
180.0
 51
225.0
  0
LINE
  5
B4
100
AcDbEntity
  8
0
  6
HIDDEN
 62
   174
100
AcDbLine
 10
270.601703
 20
304.713622
 30
0.0
 11
277.351703
 21
304.713622
 31
0.0
  0
LINE
  5
B5
100
AcDbEntity
  8
0
  6
HIDDEN
 62
   174
100
AcDbLine
 10
270.601703
 20
401.463622
 30
0.0
 11
277.351703
 21
401.463622
 31
0.0
  0
LINE
  5
B6
100
AcDbEntity
  8
0
  6
HIDDEN
 62
   174
100
AcDbLine
 10
299.401703
 20
420.588622
 30
0.0
 11
299.401703
 21
428.688622
 31
0.0
  0
LINE
  5
B7
100
AcDbEntity
  8
0
  6
HIDDEN
 62
   174
100
AcDbLine
 10
270.601703
 20
326.088622
 30
0.0
 11
277.351703
 21
326.088622
 31
0.0
  0
LINE
  5
B8
100
AcDbEntity
  8
0
  6
Continuous
 62
   174
100
AcDbLine
 10
270.601703
 20
314.92686
 30
0.0
 11
270.601703
 21
304.802507
 31
0.0
  0
LINE
  5
B9
100
AcDbEntity
  8
0
  6
HIDDEN
 62
   174
100
AcDbLine
 10
423.575824
 20
402.138622
 30
0.0
 11
405.576841
 21
402.138622
 31
0.0
  0
LINE
  5
BA
100
AcDbEntity
  8
0
  6
HIDDEN
 62
   174
100
AcDbLine
 10
270.601703
 20
402.588622
 30
0.0
 11
277.351703
 21
402.588622
 31
0.0
  0
LINE
  5
BB
100
AcDbEntity
  8
0
  6
HIDDEN
 62
   174
100
AcDbLine
 10
299.401703
 20
420.588622
 30
0.0
 11
313.801703
 21
420.588622
 31
0.0
  0
LINE
  5
BC
100
AcDbEntity
  8
0
  6
HIDDEN
 62
   174
100
AcDbLine
 10
270.601703
 20
314.838622
 30
0.0
 11
277.351703
 21
314.838622
 31
0.0
  0
LINE
  5
BD
100
AcDbEntity
  8
0
  6
Continuous
 62
   174
100
AcDbLine
 10
270.601703
 20
380.173624
 30
0.0
 11
270.601703
 21
380.615147
 31
0.0
  0
ARC
  5
BE
100
AcDbEntity
  8
0
  6
Continuous
 62
   174
100
AcDbCircle
 10
513.601703
 20
317.088622
 30
0.0
 40
10.125
100
AcDbArc
 50
-180.0
 51
0.0
  0
LINE
  5
BF
100
AcDbEntity
  8
0
  6
Continuous
 62
   174
100
AcDbLine
 10
270.601703
 20
401.547792
 30
0.0
 11
270.601703
 21
391.42344
 31
0.0
  0
LINE
  5
C0
100
AcDbEntity
  8
0
  6
HIDDEN
 62
   174
100
AcDbLine
 10
270.601703
 20
314.92686
 30
0.0
 11
270.601703
 21
304.802507
 31
0.0
  0
LINE
  5
C1
100
AcDbEntity
  8
0
  6
HIDDEN
 62
   174
100
AcDbLine
 10
270.601703
 20
324.963622
 30
0.0
 11
277.351703
 21
324.963622
 31
0.0
  0
LINE
  5
C2
100
AcDbEntity
  8
0
  6
HIDDEN
 62
   174
100
AcDbLine
 10
277.351703
 20
391.42344
 30
0.0
 11
277.351703
 21
380.173624
 31
0.0
  0
LINE
  5
C3
100
AcDbEntity
  8
0
  6
Continuous
 62
   174
100
AcDbLine
 10
315.447785
 20
428.688622
 30
0.0
 11
314.617072
 21
428.688622
 31
0.0
  0
LINE
  5
C4
100
AcDbEntity
  8
0
  6
HIDDEN
 62
   174
100
AcDbLine
 10
299.401703
 20
435.438622
 30
0.0
 11
299.401703
 21
457.938622
 31
0.0
  0
LINE
  5
C5
100
AcDbEntity
  8
0
  6
HIDDEN
 62
   174
100
AcDbLine
 10
270.601703
 20
304.713622
 30
0.0
 11
277.351703
 21
304.713622
 31
0.0
  0
LINE
  5
C6
100
AcDbEntity
  8
0
  6
Continuous
 62
   174
100
AcDbLine
 10
270.601703
 20
381.213622
 30
0.0
 11
277.351703
 21
381.213622
 31
0.0
  0
LINE
  5
C7
100
AcDbEntity
  8
0
  6
Continuous
 62
   174
100
AcDbLine
 10
270.601703
 20
401.463622
 30
0.0
 11
277.351703
 21
401.463622
 31
0.0
  0
LINE
  5
C8
100
AcDbEntity
  8
0
  6
HIDDEN
 62
   174
100
AcDbLine
 10
270.601703
 20
314.838622
 30
0.0
 11
277.351703
 21
314.838622
 31
0.0
  0
LINE
  5
C9
100
AcDbEntity
  8
0
  6
HIDDEN
 62
   174
100
AcDbLine
 10
270.601703
 20
391.42344
 30
0.0
 11
270.601703
 21
402.228123
 31
0.0
  0
ARC
  5
CA
100
AcDbEntity
  8
0
  6
HIDDEN
 62
   174
100
AcDbCircle
 10
270.601703
 20
383.463622
 30
0.0
 40
2.25
100
AcDbArc
 50
225.0
 51
270.0
  0
LINE
  5
CB
100
AcDbEntity
  8
0
  6
HIDDEN
 62
   174
100
AcDbLine
 10
270.601703
 20
401.547792
 30
0.0
 11
270.601703
 21
381.298486
 31
0.0
  0
LINE
  5
CC
100
AcDbEntity
  8
0
  6
Continuous
 62
   174
100
AcDbLine
 10
299.401703
 20
420.588622
 30
0.0
 11
299.401703
 21
457.938622
 31
0.0
  0
ARC
  5
CD
100
AcDbEntity
  8
0
  6
Continuous
 62
   174
100
AcDbCircle
 10
513.601703
 20
317.088622
 30
0.0
 40
10.125
100
AcDbArc
 50
0.0
 51
180.0
  0
LINE
  5
CE
100
AcDbEntity
  8
0
  6
HIDDEN
 62
   174
100
AcDbLine
 10
299.401703
 20
428.688622
 30
0.0
 11
299.401703
 21
435.438622
 31
0.0
  0
LINE
  5
CF
100
AcDbEntity
  8
0
  6
HIDDEN
 62
   174
100
AcDbLine
 10
277.351703
 20
402.672654
 30
0.0
 11
277.351703
 21
391.42344
 31
0.0
  0
LINE
  5
D0
100
AcDbEntity
  8
0
  6
HIDDEN
 62
   174
100
AcDbLine
 10
317.83225
 20
420.588622
 30
0.0
 11
306.583036
 21
420.588622
 31
0.0
  0
LINE
  5
D1
100
AcDbEntity
  8
0
  6
Continuous
 62
   174
100
AcDbLine
 10
270.601703
 20
391.42344
 30
0.0
 11
270.601703
 21
381.298486
 31
0.0
  0
LINE
  5
D2
100
AcDbEntity
  8
0
  6
HIDDEN
 62
   174
100
AcDbLine
 10
268.351703
 20
322.80149
 30
0.0
 11
268.351703
 21
307.05223
 31
0.0
  0
ARC
  5
D3
100
AcDbEntity
  8
0
  6
HIDDEN
 62
   174
100
AcDbCircle
 10
270.601703
 20
306.963622
 30
0.0
 40
2.25
100
AcDbArc
 50
180.0
 51
225.0
  0
LINE
  5
D4
100
AcDbEntity
  8
0
  6
Continuous
 62
   174
100
AcDbLine
 10
298.549001
 20
428.688622
 30
0.0
 11
297.718288
 21
428.688622
 31
0.0
  0
LINE
  5
D5
100
AcDbEntity
  8
0
  6
HIDDEN
 62
   174
100
AcDbLine
 10
270.601703
 20
324.963622
 30
0.0
 11
277.351703
 21
324.963622
 31
0.0
  0
LINE
  5
D6
100
AcDbEntity
  8
0
  6
HIDDEN
 62
   174
100
AcDbLine
 10
268.351703
 20
399.29807
 30
0.0
 11
268.351703
 21
383.54881
 31
0.0
  0
LINE
  5
D7
100
AcDbEntity
  8
0
  6
Continuous
 62
   174
100
AcDbLine
 10
270.601703
 20
381.213622
 30
0.0
 11
277.351703
 21
381.213622
 31
0.0
  0
ARC
  5
D8
100
AcDbEntity
  8
0
  6
HIDDEN
 62
   174
100
AcDbCircle
 10
270.601703
 20
399.213622
 30
0.0
 40
2.25
100
AcDbArc
 50
-270.0
 51
-180.0
  0
LINE
  5
D9
100
AcDbEntity
  8
0
  6
HIDDEN
 62
   174
100
AcDbLine
 10
270.601703
 20
381.213622
 30
0.0
 11
277.351703
 21
381.213622
 31
0.0
  0
LINE
  5
DA
100
AcDbEntity
  8
0
  6
Continuous
 62
   174
100
AcDbLine
 10
313.801703
 20
420.588622
 30
0.0
 11
313.801703
 21
457.938622
 31
0.0
  0
LINE
  5
DB
100
AcDbEntity
  8
0
  6
HIDDEN
 62
   174
100
AcDbLine
 10
277.351703
 20
326.176074
 30
0.0
 11
277.351703
 21
314.92686
 31
0.0
  0
LINE
  5
DC
100
AcDbEntity
  8
0
  6
HIDDEN
 62
   174
100
AcDbLine
 10
313.801703
 20
420.588622
 30
0.0
 11
313.801703
 21
428.688622
 31
0.0
  0
LINE
  5
DD
100
AcDbEntity
  8
0
  6
HIDDEN
 62
   174
100
AcDbLine
 10
270.601703
 20
401.547792
 30
0.0
 11
270.601703
 21
391.42344
 31
0.0
  0
LINE
  5
DE
100
AcDbEntity
  8
0
  6
HIDDEN
 62
   174
100
AcDbLine
 10
405.601703
 20
402.588622
 30
0.0
 11
405.601703
 21
402.138622
 31
0.0
  0
LINE
  5
DF
100
AcDbEntity
  8
0
  6
HIDDEN
 62
   174
100
AcDbLine
 10
306.583036
 20
420.588622
 30
0.0
 11
295.333822
 21
420.588622
 31
0.0
  0
LINE
  5
E0
100
AcDbEntity
  8
0
  6
Continuous
 62
   174
100
AcDbLine
 10
270.601703
 20
401.463622
 30
0.0
 11
277.351703
 21
401.463622
 31
0.0
  0
LINE
  5
E1
100
AcDbEntity
  8
0
  6
Continuous
 62
   174
100
AcDbLine
 10
297.718288
 20
428.688622
 30
0.0
 11
295.333822
 21
428.688622
 31
0.0
  0
LINE
  5
E2
100
AcDbEntity
  8
0
  6
HIDDEN
 62
   174
100
AcDbLine
 10
322.351703
 20
455.013622
 30
0.0
 11
325.951703
 21
455.013622
 31
0.0
  0
LINE
  5
E3
100
AcDbEntity
  8
0
  6
HIDDEN
 62
   174
100
AcDbLine
 10
270.601703
 20
402.588622
 30
0.0
 11
277.351703
 21
402.588622
 31
0.0
  0
LINE
  5
E4
100
AcDbEntity
  8
0
  6
HIDDEN
 62
   174
100
AcDbLine
 10
270.601703
 20
401.463622
 30
0.0
 11
277.351703
 21
401.463622
 31
0.0
  0
LINE
  5
E5
100
AcDbEntity
  8
0
  6
HIDDEN
 62
   174
100
AcDbLine
 10
268.351703
 20
322.80149
 30
0.0
 11
268.351703
 21
307.05223
 31
0.0
  0
LINE
  5
E6
100
AcDbEntity
  8
0
  6
HIDDEN
 62
   174
100
AcDbLine
 10
268.351703
 20
399.29807
 30
0.0
 11
268.351703
 21
383.54881
 31
0.0
  0
LINE
  5
E7
100
AcDbEntity
  8
0
  6
HIDDEN
 62
   174
100
AcDbLine
 10
313.801703
 20
435.438622
 30
0.0
 11
313.801703
 21
457.938622
 31
0.0
  0
LINE
  5
E8
100
AcDbEntity
  8
0
  6
Continuous
 62
   174
100
AcDbLine
 10
268.351703
 20
322.80149
 30
0.0
 11
268.351703
 21
307.05223
 31
0.0
  0
ARC
  5
E9
100
AcDbEntity
  8
0
  6
HIDDEN
 62
   174
100
AcDbCircle
 10
270.601703
 20
383.463622
 30
0.0
 40
2.25
100
AcDbArc
 50
180.0
 51
225.0
  0
LINE
  5
EA
100
AcDbEntity
  8
0
  6
HIDDEN
 62
   174
100
AcDbLine
 10
423.601703
 20
402.588622
 30
0.0
 11
423.601703
 21
402.138622
 31
0.0
  0
LINE
  5
EB
100
AcDbEntity
  8
0
  6
HIDDEN
 62
   174
100
AcDbLine
 10
322.351703
 20
460.863622
 30
0.0
 11
325.951703
 21
460.863622
 31
0.0
  0
LINE
  5
EC
100
AcDbEntity
  8
0
  6
HIDDEN
 62
   174
100
AcDbLine
 10
270.601703
 20
402.588622
 30
0.0
 11
277.351703
 21
402.588622
 31
0.0
  0
LINE
  5
ED
100
AcDbEntity
  8
0
  6
HIDDEN
 62
   174
100
AcDbLine
 10
270.601703
 20
391.42344
 30
0.0
 11
270.601703
 21
381.298486
 31
0.0
  0
LINE
  5
EE
100
AcDbEntity
  8
0
  6
HIDDEN
 62
   174
100
AcDbLine
 10
270.601703
 20
381.213622
 30
0.0
 11
277.351703
 21
381.213622
 31
0.0
  0
LINE
  5
EF
100
AcDbEntity
  8
0
  6
HIDDEN
 62
   174
100
AcDbLine
 10
270.601703
 20
314.92686
 30
0.0
 11
270.601703
 21
325.731543
 31
0.0
  0
LINE
  5
F0
100
AcDbEntity
  8
0
  6
Continuous
 62
   174
100
AcDbLine
 10
325.951703
 20
420.588622
 30
0.0
 11
325.951703
 21
468.738622
 31
0.0
  0
LINE
  5
F1
100
AcDbEntity
  8
0
  6
HIDDEN
 62
   174
100
AcDbLine
 10
313.801703
 20
428.688622
 30
0.0
 11
313.801703
 21
435.438622
 31
0.0
  0
LINE
  5
F2
100
AcDbEntity
  8
0
  6
Continuous
 62
   174
100
AcDbLine
 10
299.401703
 20
457.938622
 30
0.0
 11
313.801703
 21
457.938622
 31
0.0
  0
LINE
  5
F3
100
AcDbEntity
  8
0
  6
HIDDEN
 62
   174
100
AcDbLine
 10
405.601703
 20
402.588622
 30
0.0
 11
405.601703
 21
402.138622
 31
0.0
  0
LINE
  5
F4
100
AcDbEntity
  8
0
  6
HIDDEN
 62
   174
100
AcDbLine
 10
314.617072
 20
428.688622
 30
0.0
 11
306.583036
 21
428.688622
 31
0.0
  0
LINE
  5
F5
100
AcDbEntity
  8
0
  6
HIDDEN
 62
   174
100
AcDbLine
 10
405.576841
 20
402.588622
 30
0.0
 11
423.575824
 21
402.588622
 31
0.0
  0
ARC
  5
F6
100
AcDbEntity
  8
0
  6
Continuous
 62
   174
100
AcDbCircle
 10
477.601703
 20
389.088622
 30
0.0
 40
10.125
100
AcDbArc
 50
0.0
 51
180.0
  0
ARC
  5
F7
100
AcDbEntity
  8
0
  6
HIDDEN
 62
   174
100
AcDbCircle
 10
270.601703
 20
383.463622
 30
0.0
 40
2.25
100
AcDbArc
 50
225.0
 51
270.0
  0
LINE
  5
F8
100
AcDbEntity
  8
0
  6
HIDDEN
 62
   174
100
AcDbLine
 10
322.351703
 20
455.013622
 30
0.0
 11
325.951703
 21
455.013622
 31
0.0
  0
LINE
  5
F9
100
AcDbEntity
  8
0
  6
HIDDEN
 62
   174
100
AcDbLine
 10
268.351703
 20
322.80149
 30
0.0
 11
268.351703
 21
307.05223
 31
0.0
  0
LINE
  5
FA
100
AcDbEntity
  8
0
  6
Continuous
 62
   174
100
AcDbLine
 10
322.351703
 20
468.738622
 30
0.0
 11
325.951703
 21
468.738622
 31
0.0
  0
LINE
  5
FB
100
AcDbEntity
  8
0
  6
Continuous
 62
   174
100
AcDbLine
 10
270.601703
 20
304.713622
 30
0.0
 11
277.351703
 21
304.713622
 31
0.0
  0
LINE
  5
FC
100
AcDbEntity
  8
0
  6
HIDDEN
 62
   174
100
AcDbLine
 10
268.351703
 20
399.29807
 30
0.0
 11
268.351703
 21
383.54881
 31
0.0
  0
LINE
  5
FD
100
AcDbEntity
  8
0
  6
HIDDEN
 62
   174
100
AcDbLine
 10
299.401703
 20
457.938622
 30
0.0
 11
313.801703
 21
457.938622
 31
0.0
  0
LINE
  5
FE
100
AcDbEntity
  8
0
  6
HIDDEN
 62
   174
100
AcDbLine
 10
270.601703
 20
326.088622
 30
0.0
 11
277.351703
 21
326.088622
 31
0.0
  0
LINE
  5
FF
100
AcDbEntity
  8
0
  6
HIDDEN
 62
   174
100
AcDbLine
 10
423.601703
 20
402.588622
 30
0.0
 11
423.601703
 21
402.138622
 31
0.0
  0
LINE
  5
100
100
AcDbEntity
  8
0
  6
Continuous
 62
   174
100
AcDbLine
 10
594.601703
 20
332.838622
 30
0.0
 11
599.101703
 21
332.838622
 31
0.0
  0
LINE
  5
101
100
AcDbEntity
  8
0
  6
Continuous
 62
   174
100
AcDbLine
 10
270.601703
 20
325.731543
 30
0.0
 11
270.601703
 21
326.176074
 31
0.0
  0
LINE
  5
102
100
AcDbEntity
  8
0
  6
HIDDEN
 62
   174
100
AcDbLine
 10
270.601703
 20
380.088622
 30
0.0
 11
277.351703
 21
380.088622
 31
0.0
  0
LINE
  5
103
100
AcDbEntity
  8
0
  6
HIDDEN
 62
   174
100
AcDbLine
 10
322.351703
 20
460.863622
 30
0.0
 11
325.951703
 21
460.863622
 31
0.0
  0
LINE
  5
104
100
AcDbEntity
  8
0
  6
HIDDEN
 62
   174
100
AcDbLine
 10
277.351703
 20
303.588622
 30
0.0
 11
277.351703
 21
314.838622
 31
0.0
  0
LINE
  5
105
100
AcDbEntity
  8
0
  6
Continuous
 62
   174
100
AcDbLine
 10
270.601703
 20
324.963622
 30
0.0
 11
277.351703
 21
324.963622
 31
0.0
  0
LINE
  5
106
100
AcDbEntity
  8
0
  6
HIDDEN
 62
   174
100
AcDbLine
 10
322.351703
 20
420.588622
 30
0.0
 11
325.951703
 21
420.588622
 31
0.0
  0
ARC
  5
107
100
AcDbEntity
  8
0
  6
Continuous
 62
   174
100
AcDbCircle
 10
549.601703
 20
389.088622
 30
0.0
 40
10.125
100
AcDbArc
 50
-180.0
 51
0.0
  0
LINE
  5
108
100
AcDbEntity
  8
0
  6
Continuous
 62
   174
100
AcDbLine
 10
594.601703
 20
373.338622
 30
0.0
 11
599.101703
 21
373.338622
 31
0.0
  0
ARC
  5
109
100
AcDbEntity
  8
0
  6
HIDDEN
 62
   174
100
AcDbCircle
 10
270.601703
 20
322.713622
 30
0.0
 40
2.25
100
AcDbArc
 50
-270.0
 51
-180.0
  0
LINE
  5
10A
100
AcDbEntity
  8
0
  6
Continuous
 62
   174
100
AcDbLine
 10
268.351703
 20
399.29807
 30
0.0
 11
268.351703
 21
383.54881
 31
0.0
  0
LINE
  5
10B
100
AcDbEntity
  8
0
  6
HIDDEN
 62
   174
100
AcDbLine
 10
270.601703
 20
325.051213
 30
0.0
 11
270.601703
 21
304.802507
 31
0.0
  0
LINE
  5
10C
100
AcDbEntity
  8
0
  6
Continuous
 62
   174
100
AcDbLine
 10
317.851703
 20
420.588622
 30
0.0
 11
317.851703
 21
428.688622
 31
0.0
  0
LINE
  5
10D
100
AcDbEntity
  8
0
  6
HIDDEN
 62
   174
100
AcDbLine
 10
325.951703
 20
455.095398
 30
0.0
 11
325.951703
 21
460.944677
 31
0.0
  0
LINE
  5
10E
100
AcDbEntity
  8
0
  6
HIDDEN
 62
   174
100
AcDbLine
 10
270.601703
 20
325.051213
 30
0.0
 11
270.601703
 21
304.802507
 31
0.0
  0
ENDBLK
  5
10F
100
AcDbEntity
  8
0
100
AcDbBlockEnd
  0
BLOCK
  5
112
100
AcDbEntity
  8
0
100
AcDbBlockBegin
  2
*B2
 70
     0
 10
0.0
 20
0.0
 30
0.0
  3
*B2
  1

  0
LINE
  5
113
100
AcDbEntity
  8
0
  6
Continuous
 62
   174
100
AcDbLine
 10
342.601703
 20
120.835533
 30
0.0
 11
342.601703
 21
192.835533
 31
0.0
  0
LINE
  5
114
100
AcDbEntity
  8
0
  6
Continuous
 62
   174
100
AcDbLine
 10
270.601703
 20
120.835533
 30
0.0
 11
270.601703
 21
192.835533
 31
0.0
  0
ARC
  5
115
100
AcDbEntity
  8
0
  6
Continuous
 62
   174
100
AcDbCircle
 10
306.601703
 20
156.835533
 30
0.0
 40
8.325
100
AcDbArc
 50
-90.0
 51
90.0
  0
ARC
  5
116
100
AcDbEntity
  8
0
  6
Continuous
 62
   174
100
AcDbCircle
 10
306.601703
 20
156.835533
 30
0.0
 40
8.325
100
AcDbArc
 50
-270.0
 51
-90.0
  0
ARC
  5
117
100
AcDbEntity
  8
0
  6
Continuous
 62
   174
100
AcDbCircle
 10
306.601703
 20
156.835533
 30
0.0
 40
6.075
100
AcDbArc
 50
90.0
 51
270.0
  0
ARC
  5
118
100
AcDbEntity
  8
0
  6
Continuous
 62
   174
100
AcDbCircle
 10
306.601703
 20
156.835533
 30
0.0
 40
6.075
100
AcDbArc
 50
-90.0
 51
90.0
  0
LINE
  5
119
100
AcDbEntity
  8
0
  6
Continuous
 62
   174
100
AcDbLine
 10
396.601703
 20
120.835533
 30
0.0
 11
396.601703
 21
192.835533
 31
0.0
  0
LINE
  5
11A
100
AcDbEntity
  8
0
  6
Continuous
 62
   174
100
AcDbLine
 10
396.601703
 20
120.835533
 30
0.0
 11
342.601703
 21
120.835533
 31
0.0
  0
LINE
  5
11B
100
AcDbEntity
  8
0
  6
Continuous
 62
   174
100
AcDbLine
 10
342.601703
 20
120.835533
 30
0.0
 11
270.601703
 21
120.835533
 31
0.0
  0
LINE
  5
11C
100
AcDbEntity
  8
0
  6
Continuous
 62
   174
100
AcDbLine
 10
396.601703
 20
192.835533
 30
0.0
 11
342.601703
 21
192.835533
 31
0.0
  0
LINE
  5
11D
100
AcDbEntity
  8
0
  6
Continuous
 62
   174
100
AcDbLine
 10
342.601703
 20
192.835533
 30
0.0
 11
270.601703
 21
192.835533
 31
0.0
  0
ARC
  5
11E
100
AcDbEntity
  8
0
  6
Continuous
 62
   174
100
AcDbCircle
 10
513.601703
 20
156.835533
 30
0.0
 40
21.8925
100
AcDbArc
 50
0.0
 51
180.0
  0
ARC
  5
11F
100
AcDbEntity
  8
0
  6
Continuous
 62
   174
100
AcDbCircle
 10
513.601703
 20
156.835533
 30
0.0
 40
21.8925
100
AcDbArc
 50
-180.0
 51
-61.192829
  0
ARC
  5
120
100
AcDbEntity
  8
0
  6
Continuous
 62
   174
100
AcDbCircle
 10
513.601703
 20
156.835533
 30
0.0
 40
19.6875
100
AcDbArc
 50
285.967157
 51
291.322506
  0
ARC
  5
121
100
AcDbEntity
  8
0
  6
Continuous
 62
   174
100
AcDbCircle
 10
513.601703
 20
156.835533
 30
0.0
 40
19.6875
100
AcDbArc
 50
195.03773
 51
198.954728
  0
LINE
  5
122
100
AcDbEntity
  8
0
  6
Continuous
 62
   174
100
AcDbLine
 10
268.351703
 20
124.692974
 30
0.0
 11
268.351703
 21
124.307393
 31
0.0
  0
LINE
  5
123
100
AcDbEntity
  8
0
  6
Continuous
 62
   174
100
AcDbLine
 10
268.351703
 20
181.680129
 30
0.0
 11
268.351703
 21
174.190478
 31
0.0
  0
LINE
  5
124
100
AcDbEntity
  8
0
  6
Continuous
 62
   174
100
AcDbLine
 10
268.351703
 20
138.182887
 30
0.0
 11
268.351703
 21
132.182023
 31
0.0
  0
LINE
  5
125
100
AcDbEntity
  8
0
  6
Continuous
 62
   174
100
AcDbLine
 10
299.401703
 20
176.410533
 30
0.0
 11
299.401703
 21
172.810533
 31
0.0
  0
LINE
  5
126
100
AcDbEntity
  8
0
  6
Continuous
 62
   174
100
AcDbLine
 10
599.101703
 20
156.930775
 30
0.0
 11
599.101703
 21
177.180082
 31
0.0
  0
LINE
  5
127
100
AcDbEntity
  8
0
  6
Continuous
 62
   174
100
AcDbLine
 10
599.101703
 20
136.68207
 30
0.0
 11
599.101703
 21
156.930775
 31
0.0
  0
ARC
  5
128
100
AcDbEntity
  8
0
  6
Continuous
 62
   174
100
AcDbCircle
 10
513.601703
 20
156.835533
 30
0.0
 40
19.6875
100
AcDbArc
 50
74.054488
 51
90.0
  0
ARC
  5
129
100
AcDbEntity
  8
0
  6
Continuous
 62
   174
100
AcDbCircle
 10
513.601703
 20
156.835533
 30
0.0
 40
19.6875
100
AcDbArc
 50
18.954728
 51
35.117219
  0
LINE
  5
12A
100
AcDbEntity
  8
0
  6
Continuous
 62
   174
100
AcDbLine
 10
396.601703
 20
192.835533
 30
0.0
 11
432.601703
 21
192.835533
 31
0.0
  0
LINE
  5
12B
100
AcDbEntity
  8
0
  6
Continuous
 62
   174
100
AcDbLine
 10
396.601703
 20
120.835533
 30
0.0
 11
432.601703
 21
120.835533
 31
0.0
  0
ARC
  5
12C
100
AcDbEntity
  8
0
  6
Continuous
 62
   174
100
AcDbCircle
 10
270.601703
 20
139.960533
 30
0.0
 40
2.25
100
AcDbArc
 50
-270.0
 51
-180.0
  0
ARC
  5
12D
100
AcDbEntity
  8
0
  6
Continuous
 62
   174
100
AcDbCircle
 10
270.601703
 20
189.460533
 30
0.0
 40
2.25
100
AcDbArc
 50
-270.0
 51
-180.0
  0
LINE
  5
12E
100
AcDbEntity
  8
0
  6
Continuous
 62
   174
100
AcDbLine
 10
268.351703
 20
132.182023
 30
0.0
 11
268.351703
 21
124.307393
 31
0.0
  0
LINE
  5
12F
100
AcDbEntity
  8
0
  6
Continuous
 62
   174
100
AcDbLine
 10
313.801703
 20
176.410533
 30
0.0
 11
299.401703
 21
176.410533
 31
0.0
  0
LINE
  5
130
100
AcDbEntity
  8
0
  6
Continuous
 62
   174
100
AcDbLine
 10
313.801703
 20
172.810533
 30
0.0
 11
313.801703
 21
176.410533
 31
0.0
  0
ARC
  5
131
100
AcDbEntity
  8
0
  6
Continuous
 62
   174
100
AcDbCircle
 10
513.601703
 20
156.835533
 30
0.0
 40
19.6875
100
AcDbArc
 50
57.16693
 51
68.553687
  0
ARC
  5
132
100
AcDbEntity
  8
0
  6
Continuous
 62
   174
100
AcDbCircle
 10
513.601703
 20
156.835533
 30
0.0
 40
19.6875
100
AcDbArc
 50
51.491816
 51
57.16693
  0
ARC
  5
133
100
AcDbEntity
  8
0
  6
Continuous
 62
   174
100
AcDbCircle
 10
513.601703
 20
156.835533
 30
0.0
 40
19.6875
100
AcDbArc
 50
38.960434
 51
51.491816
  0
ARC
  5
134
100
AcDbEntity
  8
0
  6
Continuous
 62
   174
100
AcDbCircle
 10
513.601703
 20
156.835533
 30
0.0
 40
19.6875
100
AcDbArc
 50
35.117219
 51
38.960434
  0
ARC
  5
135
100
AcDbEntity
  8
0
  6
Continuous
 62
   174
100
AcDbCircle
 10
513.601703
 20
156.835533
 30
0.0
 40
19.6875
100
AcDbArc
 50
198.954728
 51
215.117219
  0
LINE
  5
136
100
AcDbEntity
  8
0
  6
Continuous
 62
   174
100
AcDbLine
 10
299.401703
 20
172.810533
 30
0.0
 11
313.801703
 21
172.810533
 31
0.0
  0
LINE
  5
137
100
AcDbEntity
  8
0
  6
Continuous
 62
   174
100
AcDbLine
 10
268.351703
 20
181.680129
 30
0.0
 11
268.351703
 21
173.805498
 31
0.0
  0
ARC
  5
138
100
AcDbEntity
  8
0
  6
Continuous
 62
   174
100
AcDbCircle
 10
513.601703
 20
156.835533
 30
0.0
 40
19.6875
100
AcDbArc
 50
68.553687
 51
74.054488
  0
ARC
  5
139
100
AcDbEntity
  8
0
  6
Continuous
 62
   174
100
AcDbCircle
 10
513.601703
 20
156.835533
 30
0.0
 40
19.6875
100
AcDbArc
 50
-2.695864
 51
0.001849
  0
ARC
  5
13A
100
AcDbEntity
  8
0
  6
Continuous
 62
   174
100
AcDbCircle
 10
513.601703
 20
156.835533
 30
0.0
 40
19.6875
100
AcDbArc
 50
324.595886
 51
340.743425
  0
ARC
  5
13B
100
AcDbEntity
  8
0
  6
Continuous
 62
   174
100
AcDbCircle
 10
513.601703
 20
156.835533
 30
0.0
 40
19.6875
100
AcDbArc
 50
321.563877
 51
324.595886
  0
ARC
  5
13C
100
AcDbEntity
  8
0
  6
Continuous
 62
   174
100
AcDbCircle
 10
513.601703
 20
156.835533
 30
0.0
 40
19.6875
100
AcDbArc
 50
308.293446
 51
321.563877
  0
ARC
  5
13D
100
AcDbEntity
  8
0
  6
Continuous
 62
   174
100
AcDbCircle
 10
513.601703
 20
156.835533
 30
0.0
 40
19.6875
100
AcDbArc
 50
302.855221
 51
308.293446
  0
ARC
  5
13E
100
AcDbEntity
  8
0
  6
Continuous
 62
   174
100
AcDbCircle
 10
513.601703
 20
156.835533
 30
0.0
 40
19.6875
100
AcDbArc
 50
291.322506
 51
302.855221
  0
ARC
  5
13F
100
AcDbEntity
  8
0
  6
Continuous
 62
   174
100
AcDbCircle
 10
513.601703
 20
156.835533
 30
0.0
 40
19.6875
100
AcDbArc
 50
248.553687
 51
254.054488
  0
ARC
  5
140
100
AcDbEntity
  8
0
  6
Continuous
 62
   174
100
AcDbCircle
 10
513.601703
 20
156.835533
 30
0.0
 40
19.6875
100
AcDbArc
 50
237.16693
 51
248.553687
  0
ARC
  5
141
100
AcDbEntity
  8
0
  6
Continuous
 62
   174
100
AcDbCircle
 10
513.601703
 20
156.835533
 30
0.0
 40
19.6875
100
AcDbArc
 50
231.491816
 51
237.16693
  0
ARC
  5
142
100
AcDbEntity
  8
0
  6
Continuous
 62
   174
100
AcDbCircle
 10
513.601703
 20
156.835533
 30
0.0
 40
19.6875
100
AcDbArc
 50
215.117219
 51
218.960434
  0
ARC
  5
143
100
AcDbEntity
  8
0
  6
Continuous
 62
   174
100
AcDbCircle
 10
513.601703
 20
156.835533
 30
0.0
 40
19.6875
100
AcDbArc
 50
90.0
 51
105.967157
  0
LINE
  5
144
100
AcDbEntity
  8
0
  6
Continuous
 62
   174
100
AcDbLine
 10
594.601703
 20
120.835533
 30
0.0
 11
594.601703
 21
192.835533
 31
0.0
  0
LINE
  5
145
100
AcDbEntity
  8
0
  6
Continuous
 62
   174
100
AcDbLine
 10
268.351703
 20
140.056653
 30
0.0
 11
268.351703
 21
132.182023
 31
0.0
  0
LINE
  5
146
100
AcDbEntity
  8
0
  6
Continuous
 62
   174
100
AcDbLine
 10
268.351703
 20
189.554759
 30
0.0
 11
268.351703
 21
181.680129
 31
0.0
  0
LINE
  5
147
100
AcDbEntity
  8
0
  6
Continuous
 62
   174
100
AcDbLine
 10
268.351703
 20
140.056052
 30
0.0
 11
268.351703
 21
138.182887
 31
0.0
  0
LINE
  5
148
100
AcDbEntity
  8
0
  6
Continuous
 62
   174
100
AcDbLine
 10
268.351703
 20
189.554157
 30
0.0
 11
268.351703
 21
187.680391
 31
0.0
  0
ARC
  5
149
100
AcDbEntity
  8
0
  6
Continuous
 62
   174
100
AcDbCircle
 10
414.601703
 20
156.835533
 30
0.0
 40
9.0
100
AcDbArc
 50
-180.0
 51
0.0
  0
LINE
  5
14A
100
AcDbEntity
  8
0
  6
Continuous
 62
   174
100
AcDbLine
 10
594.601703
 20
177.085533
 30
0.0
 11
599.101703
 21
177.085533
 31
0.0
  0
LINE
  5
14B
100
AcDbEntity
  8
0
  6
Continuous
 62
   174
100
AcDbLine
 10
322.351703
 20
149.635533
 30
0.0
 11
325.951703
 21
149.635533
 31
0.0
  0
ARC
  5
14C
100
AcDbEntity
  8
0
  6
Continuous
 62
   174
100
AcDbCircle
 10
513.601703
 20
156.835533
 30
0.0
 40
19.6875
100
AcDbArc
 50
0.001849
 51
2.486293
  0
ARC
  5
14D
100
AcDbEntity
  8
0
  6
Continuous
 62
   174
100
AcDbCircle
 10
513.601703
 20
156.835533
 30
0.0
 40
19.6875
100
AcDbArc
 50
340.743425
 51
345.147085
  0
ARC
  5
14E
100
AcDbEntity
  8
0
  6
Continuous
 62
   174
100
AcDbCircle
 10
513.601703
 20
156.835533
 30
0.0
 40
19.6875
100
AcDbArc
 50
160.743425
 51
165.147085
  0
ARC
  5
14F
100
AcDbEntity
  8
0
  6
Continuous
 62
   174
100
AcDbCircle
 10
513.601703
 20
156.835533
 30
0.0
 40
19.6875
100
AcDbArc
 50
144.595886
 51
160.743425
  0
ARC
  5
150
100
AcDbEntity
  8
0
  6
Continuous
 62
   174
100
AcDbCircle
 10
513.601703
 20
156.835533
 30
0.0
 40
19.6875
100
AcDbArc
 50
141.563877
 51
144.595886
  0
ARC
  5
151
100
AcDbEntity
  8
0
  6
Continuous
 62
   174
100
AcDbCircle
 10
513.601703
 20
156.835533
 30
0.0
 40
19.6875
100
AcDbArc
 50
128.293446
 51
141.563877
  0
ARC
  5
152
100
AcDbEntity
  8
0
  6
Continuous
 62
   174
100
AcDbCircle
 10
513.601703
 20
156.835533
 30
0.0
 40
19.6875
100
AcDbArc
 50
122.855221
 51
128.293446
  0
ARC
  5
153
100
AcDbEntity
  8
0
  6
Continuous
 62
   174
100
AcDbCircle
 10
513.601703
 20
156.835533
 30
0.0
 40
19.6875
100
AcDbArc
 50
105.967157
 51
111.322506
  0
LINE
  5
154
100
AcDbEntity
  8
0
  6
Continuous
 62
   174
100
AcDbLine
 10
396.601703
 20
120.835533
 30
0.0
 11
396.601703
 21
192.835533
 31
0.0
  0
LINE
  5
155
100
AcDbEntity
  8
0
  6
Continuous
 62
   174
100
AcDbLine
 10
432.601703
 20
120.835533
 30
0.0
 11
432.601703
 21
192.835533
 31
0.0
  0
LINE
  5
156
100
AcDbEntity
  8
0
  6
Continuous
 62
   174
100
AcDbLine
 10
594.601703
 20
120.835533
 30
0.0
 11
432.601703
 21
120.835533
 31
0.0
  0
LINE
  5
157
100
AcDbEntity
  8
0
  6
Continuous
 62
   174
100
AcDbLine
 10
268.351703
 20
132.182023
 30
0.0
 11
268.351703
 21
124.692974
 31
0.0
  0
LINE
  5
158
100
AcDbEntity
  8
0
  6
Continuous
 62
   174
100
AcDbLine
 10
268.351703
 20
189.554759
 30
0.0
 11
268.351703
 21
189.169178
 31
0.0
  0
LINE
  5
159
100
AcDbEntity
  8
0
  6
Continuous
 62
   174
100
AcDbLine
 10
299.401703
 20
137.260533
 30
0.0
 11
313.801703
 21
137.260533
 31
0.0
  0
LINE
  5
15A
100
AcDbEntity
  8
0
  6
Continuous
 62
   174
100
AcDbLine
 10
313.801703
 20
137.260533
 30
0.0
 11
313.801703
 21
140.860533
 31
0.0
  0
LINE
  5
15B
100
AcDbEntity
  8
0
  6
Continuous
 62
   174
100
AcDbLine
 10
322.351703
 20
164.035533
 30
0.0
 11
322.351703
 21
149.635533
 31
0.0
  0
LINE
  5
15C
100
AcDbEntity
  8
0
  6
Continuous
 62
   174
100
AcDbLine
 10
325.951703
 20
164.035533
 30
0.0
 11
322.351703
 21
164.035533
 31
0.0
  0
ARC
  5
15D
100
AcDbEntity
  8
0
  6
Continuous
 62
   174
100
AcDbCircle
 10
513.601703
 20
156.835533
 30
0.0
 40
19.6875
100
AcDbArc
 50
254.054488
 51
270.0
  0
ARC
  5
15E
100
AcDbEntity
  8
0
  6
Continuous
 62
   174
100
AcDbCircle
 10
513.601703
 20
156.835533
 30
0.0
 40
19.6875
100
AcDbArc
 50
218.960434
 51
231.491816
  0
ARC
  5
15F
100
AcDbEntity
  8
0
  6
Continuous
 62
   174
100
AcDbCircle
 10
513.601703
 20
156.835533
 30
0.0
 40
19.6875
100
AcDbArc
 50
180.001849
 51
182.486293
  0
LINE
  5
160
100
AcDbEntity
  8
0
  6
Continuous
 62
   174
100
AcDbLine
 10
268.351703
 20
140.056653
 30
0.0
 11
268.351703
 21
139.671674
 31
0.0
  0
LINE
  5
161
100
AcDbEntity
  8
0
  6
Continuous
 62
   174
100
AcDbLine
 10
594.601703
 20
192.835533
 30
0.0
 11
432.601703
 21
192.835533
 31
0.0
  0
LINE
  5
162
100
AcDbEntity
  8
0
  6
Continuous
 62
   174
100
AcDbLine
 10
268.351703
 20
187.680391
 30
0.0
 11
268.351703
 21
181.680129
 31
0.0
  0
LINE
  5
163
100
AcDbEntity
  8
0
  6
Continuous
 62
   174
100
AcDbLine
 10
313.801703
 20
140.860533
 30
0.0
 11
299.401703
 21
140.860533
 31
0.0
  0
LINE
  5
164
100
AcDbEntity
  8
0
  6
Continuous
 62
   174
100
AcDbLine
 10
299.401703
 20
140.860533
 30
0.0
 11
299.401703
 21
137.260533
 31
0.0
  0
ARC
  5
165
100
AcDbEntity
  8
0
  6
Continuous
 62
   174
100
AcDbCircle
 10
306.601703
 20
156.835533
 30
0.0
 40
11.25
100
AcDbArc
 50
-81.359702
 51
81.359702
  0
ARC
  5
166
100
AcDbEntity
  8
0
  6
Continuous
 62
   174
100
AcDbCircle
 10
306.601703
 20
156.835533
 30
0.0
 40
11.25
100
AcDbArc
 50
-278.640298
 51
-270.0
  0
ARC
  5
167
100
AcDbEntity
  8
0
  6
Continuous
 62
   174
100
AcDbCircle
 10
306.601703
 20
156.835533
 30
0.0
 40
11.25
100
AcDbArc
 50
-270.0
 51
-261.359702
  0
ARC
  5
168
100
AcDbEntity
  8
0
  6
Continuous
 62
   174
100
AcDbCircle
 10
306.601703
 20
156.835533
 30
0.0
 40
11.25
100
AcDbArc
 50
-261.359702
 51
-98.640298
  0
LINE
  5
169
100
AcDbEntity
  8
0
  6
Continuous
 62
   174
100
AcDbLine
 10
325.951703
 20
149.635533
 30
0.0
 11
325.951703
 21
164.035533
 31
0.0
  0
ARC
  5
16A
100
AcDbEntity
  8
0
  6
Continuous
 62
   174
100
AcDbCircle
 10
513.601703
 20
156.835533
 30
0.0
 40
19.6875
100
AcDbArc
 50
2.486293
 51
15.03773
  0
ARC
  5
16B
100
AcDbEntity
  8
0
  6
Continuous
 62
   174
100
AcDbCircle
 10
513.601703
 20
156.835533
 30
0.0
 40
19.6875
100
AcDbArc
 50
345.147085
 51
357.304136
  0
ARC
  5
16C
100
AcDbEntity
  8
0
  6
Continuous
 62
   174
100
AcDbCircle
 10
513.601703
 20
156.835533
 30
0.0
 40
19.6875
100
AcDbArc
 50
270.0
 51
285.967157
  0
ARC
  5
16D
100
AcDbEntity
  8
0
  6
Continuous
 62
   174
100
AcDbCircle
 10
513.601703
 20
156.835533
 30
0.0
 40
19.6875
100
AcDbArc
 50
165.147085
 51
177.304136
  0
ARC
  5
16E
100
AcDbEntity
  8
0
  6
Continuous
 62
   174
100
AcDbCircle
 10
513.601703
 20
156.835533
 30
0.0
 40
19.6875
100
AcDbArc
 50
111.322506
 51
122.855221
  0
LINE
  5
16F
100
AcDbEntity
  8
0
  6
Continuous
 62
   174
100
AcDbLine
 10
268.351703
 20
132.182023
 30
0.0
 11
268.351703
 21
124.307393
 31
0.0
  0
LINE
  5
170
100
AcDbEntity
  8
0
  6
Continuous
 62
   174
100
AcDbLine
 10
268.351703
 20
139.671674
 30
0.0
 11
268.351703
 21
132.182023
 31
0.0
  0
LINE
  5
171
100
AcDbEntity
  8
0
  6
Continuous
 62
   174
100
AcDbLine
 10
268.351703
 20
174.190478
 30
0.0
 11
268.351703
 21
173.805498
 31
0.0
  0
LINE
  5
172
100
AcDbEntity
  8
0
  6
Continuous
 62
   174
100
AcDbLine
 10
268.351703
 20
181.680129
 30
0.0
 11
268.351703
 21
173.805498
 31
0.0
  0
LINE
  5
173
100
AcDbEntity
  8
0
  6
Continuous
 62
   174
100
AcDbLine
 10
268.351703
 20
189.169178
 30
0.0
 11
268.351703
 21
181.680129
 31
0.0
  0
ARC
  5
174
100
AcDbEntity
  8
0
  6
Continuous
 62
   174
100
AcDbCircle
 10
306.601703
 20
156.835533
 30
0.0
 40
11.25
100
AcDbArc
 50
-90.0
 51
-81.359702
  0
ARC
  5
175
100
AcDbEntity
  8
0
  6
Continuous
 62
   174
100
AcDbCircle
 10
414.601703
 20
156.835533
 30
0.0
 40
9.0
100
AcDbArc
 50
0.0
 51
180.0
  0
LINE
  5
176
100
AcDbEntity
  8
0
  6
Continuous
 62
   174
100
AcDbLine
 10
594.601703
 20
136.585533
 30
0.0
 11
599.101703
 21
136.585533
 31
0.0
  0
ARC
  5
177
100
AcDbEntity
  8
0
  6
Continuous
 62
   174
100
AcDbCircle
 10
513.601703
 20
156.835533
 30
0.0
 40
19.6875
100
AcDbArc
 50
15.03773
 51
18.954728
  0
ARC
  5
178
100
AcDbEntity
  8
0
  6
Continuous
 62
   174
100
AcDbCircle
 10
513.601703
 20
156.835533
 30
0.0
 40
19.6875
100
AcDbArc
 50
182.486293
 51
195.03773
  0
ARC
  5
179
100
AcDbEntity
  8
0
  6
Continuous
 62
   174
100
AcDbCircle
 10
513.601703
 20
156.835533
 30
0.0
 40
19.6875
100
AcDbArc
 50
177.304136
 51
180.001849
  0
ARC
  5
17A
100
AcDbEntity
  8
0
  6
Continuous
 62
   174
100
AcDbCircle
 10
270.601703
 20
124.210533
 30
0.0
 40
2.25
100
AcDbArc
 50
180.0
 51
270.0
  0
ARC
  5
17B
100
AcDbEntity
  8
0
  6
Continuous
 62
   174
100
AcDbCircle
 10
270.601703
 20
173.710533
 30
0.0
 40
2.25
100
AcDbArc
 50
180.0
 51
270.0
  0
ARC
  5
17C
100
AcDbEntity
  8
0
  6
Continuous
 62
   174
100
AcDbCircle
 10
306.601703
 20
156.835533
 30
0.0
 40
11.25
100
AcDbArc
 50
-98.640298
 51
-90.0
  0
ENDBLK
  5
17D
100
AcDbEntity
  8
0
100
AcDbBlockEnd
  0
BLOCK
  5
180
100
AcDbEntity
  8
0
100
AcDbBlockBegin
  2
*B3
 70
     0
 10
0.0
 20
0.0
 30
0.0
  3
*B3
  1

  0
LINE
  5
181
100
AcDbEntity
  8
0
  6
Continuous
 62
   172
100
AcDbLine
 10
378.405982
 20
319.716792
 30
0.0
 11
338.600221
 21
252.025648
 31
0.0
  0
LINE
  5
182
100
AcDbEntity
  8
0
  6
Continuous
 62
   172
100
AcDbLine
 10
338.600221
 20
252.025648
 30
0.0
 11
319.680982
 21
252.025648
 31
0.0
  0
ENDBLK
  5
183
100
AcDbEntity
  8
0
100
AcDbBlockEnd
  0
BLOCK
  5
186
100
AcDbEntity
  8
0
100
AcDbBlockBegin
  2
*B4
 70
     0
 10
0.0
 20
0.0
 30
0.0
  3
*B4
  1

  0
LINE
  5
187
100
AcDbEntity
  8
0
  6
Continuous
 62
   172
100
AcDbLine
 10
334.669121
 20
256.128653
 30
0.0
 11
330.619121
 21
257.616792
 31
0.0
  0
LINE
  5
188
100
AcDbEntity
  8
0
  6
Continuous
 62
   172
100
AcDbLine
 10
334.669121
 20
256.128653
 30
0.0
 11
330.619121
 21
254.916792
 31
0.0
  0
LINE
  5
189
100
AcDbEntity
  8
0
  6
Continuous
 62
   172
100
AcDbLine
 10
331.969121
 20
256.128653
 30
0.0
 11
334.669121
 21
256.128653
 31
0.0
  0
LINE
  5
18A
100
AcDbEntity
  8
0
  6
Continuous
 62
   172
100
AcDbLine
 10
334.669121
 20
279.354931
 30
0.0
 11
330.619121
 21
277.866792
 31
0.0
  0
LINE
  5
18B
100
AcDbEntity
  8
0
  6
Continuous
 62
   172
100
AcDbLine
 10
334.669121
 20
279.354931
 30
0.0
 11
330.619121
 21
280.566792
 31
0.0
  0
LINE
  5
18C
100
AcDbEntity
  8
0
  6
Continuous
 62
   172
100
AcDbLine
 10
331.969121
 20
279.354931
 30
0.0
 11
334.669121
 21
279.354931
 31
0.0
  0
ARC
  5
18D
100
AcDbEntity
  8
0
  6
Continuous
 62
   172
100
AcDbCircle
 10
331.969121
 20
267.741792
 30
0.0
 40
11.613139
100
AcDbArc
 50
-270.0
 51
-90.0
  0
ENDBLK
  5
18E
100
AcDbEntity
  8
0
100
AcDbBlockEnd
  0
BLOCK
  5
191
100
AcDbEntity
  8
0
100
AcDbBlockBegin
  2
*B5
 70
     0
 10
0.0
 20
0.0
 30
0.0
  3
*B5
  1

  0
ENDBLK
  5
192
100
AcDbEntity
  8
0
100
AcDbBlockEnd
  0
BLOCK
  5
194
100
AcDbEntity
  8
0
100
AcDbBlockBegin
  2
*B6
 70
     0
 10
0.0
 20
0.0
 30
0.0
  3
*B6
  1

  0
LINE
  5
195
100
AcDbEntity
  8
0
  6
Continuous
 62
   172
100
AcDbLine
 10
399.261182
 20
215.846478
 30
0.0
 11
380.341942
 21
215.846478
 31
0.0
  0
LINE
  5
196
100
AcDbEntity
  8
0
  6
Continuous
 62
   172
100
AcDbLine
 10
425.056184
 20
171.981138
 30
0.0
 11
399.261182
 21
215.846478
 31
0.0
  0
ENDBLK
  5
197
100
AcDbEntity
  8
0
100
AcDbBlockEnd
  0
BLOCK
  5
19A
100
AcDbEntity
  8
0
100
AcDbBlockBegin
  2
*B7
 70
     0
 10
0.0
 20
0.0
 30
0.0
  3
*B7
  1

  0
LINE
  5
19B
100
AcDbEntity
  8
0
  6
Continuous
 62
   172
100
AcDbLine
 10
395.330081
 20
219.949483
 30
0.0
 11
391.280081
 21
221.437622
 31
0.0
  0
LINE
  5
19C
100
AcDbEntity
  8
0
  6
Continuous
 62
   172
100
AcDbLine
 10
395.330081
 20
219.949483
 30
0.0
 11
391.280081
 21
218.737622
 31
0.0
  0
LINE
  5
19D
100
AcDbEntity
  8
0
  6
Continuous
 62
   172
100
AcDbLine
 10
392.630081
 20
219.949483
 30
0.0
 11
395.330081
 21
219.949483
 31
0.0
  0
LINE
  5
19E
100
AcDbEntity
  8
0
  6
Continuous
 62
   172
100
AcDbLine
 10
395.330081
 20
243.175761
 30
0.0
 11
391.280081
 21
241.687622
 31
0.0
  0
LINE
  5
19F
100
AcDbEntity
  8
0
  6
Continuous
 62
   172
100
AcDbLine
 10
395.330081
 20
243.175761
 30
0.0
 11
391.280081
 21
244.387622
 31
0.0
  0
LINE
  5
1A0
100
AcDbEntity
  8
0
  6
Continuous
 62
   172
100
AcDbLine
 10
392.630081
 20
243.175761
 30
0.0
 11
395.330081
 21
243.175761
 31
0.0
  0
ARC
  5
1A1
100
AcDbEntity
  8
0
  6
Continuous
 62
   172
100
AcDbCircle
 10
392.630081
 20
231.562622
 30
0.0
 40
11.613139
100
AcDbArc
 50
-270.0
 51
-90.0
  0
ENDBLK
  5
1A2
100
AcDbEntity
  8
0
100
AcDbBlockEnd
  0
BLOCK
  5
1A5
100
AcDbEntity
  8
0
100
AcDbBlockBegin
  2
*B8
 70
     0
 10
0.0
 20
0.0
 30
0.0
  3
*B8
  1

  0
ENDBLK
  5
1A6
100
AcDbEntity
  8
0
100
AcDbBlockEnd
  0
BLOCK
  5
1A8
100
AcDbEntity
  8
0
100
AcDbBlockBegin
  2
*B9
 70
     0
 10
0.0
 20
0.0
 30
0.0
  3
*B9
  1

  0
LINE
  5
1A9
100
AcDbEntity
  8
0
  6
Continuous
 62
     0
100
AcDbLine
 10
650.960207
 20
285.678062
 30
0.0
 11
650.960207
 21
420.671637
 31
0.0
  0
SOLID
  5
1AA
100
AcDbEntity
  8
0
  6
Continuous
 62
     0
100
AcDbTrace
 10
648.96012
 20
295.677898
 30
0.0
 11
650.960207
 21
285.678062
 31
0.0
 12
652.960295
 22
295.677898
 32
0.0
 13
652.960295
 23
295.677898
 33
0.0
  0
SOLID
  5
1AB
100
AcDbEntity
  8
0
  6
Continuous
 62
     0
100
AcDbTrace
 10
652.960295
 20
410.672402
 30
0.0
 11
650.960207
 21
420.671637
 31
0.0
 12
648.96012
 22
410.672402
 32
0.0
 13
648.96012
 23
410.672402
 33
0.0
  0
ENDBLK
  5
1AC
100
AcDbEntity
  8
0
100
AcDbBlockEnd
  0
BLOCK
  5
1AF
100
AcDbEntity
  8
0
100
AcDbBlockBegin
  2
*B10
 70
     0
 10
0.0
 20
0.0
 30
0.0
  3
*B10
  1

  0
LINE
  5
1B0
100
AcDbEntity
  8
0
  6
Continuous
 62
     0
100
AcDbLine
 10
624.961476
 20
317.176583
 30
0.0
 11
624.961476
 21
389.173116
 31
0.0
  0
SOLID
  5
1B1
100
AcDbEntity
  8
0
  6
Continuous
 62
     0
100
AcDbTrace
 10
622.96199
 20
327.176419
 30
0.0
 11
624.961476
 21
317.176583
 31
0.0
 12
626.961564
 22
327.176419
 32
0.0
 13
626.961564
 23
327.176419
 33
0.0
  0
SOLID
  5
1B2
100
AcDbEntity
  8
0
  6
Continuous
 62
     0
100
AcDbTrace
 10
626.961564
 20
379.173881
 30
0.0
 11
624.961476
 21
389.173116
 31
0.0
 12
622.96199
 22
379.173881
 32
0.0
 13
622.96199
 23
379.173881
 33
0.0
  0
ENDBLK
  5
1B3
100
AcDbEntity
  8
0
100
AcDbBlockEnd
  0
BLOCK
  5
1B6
100
AcDbEntity
  8
0
100
AcDbBlockBegin
  2
*B11
 70
     0
 10
0.0
 20
0.0
 30
0.0
  3
*B11
  1

  0
LINE
  5
1B7
100
AcDbEntity
  8
0
  6
Continuous
 62
     0
100
AcDbLine
 10
477.572773
 20
340.087059
 30
0.0
 11
549.568103
 21
340.087059
 31
0.0
  0
SOLID
  5
1B8
100
AcDbEntity
  8
0
  6
Continuous
 62
     0
100
AcDbTrace
 10
487.572007
 20
342.087146
 30
0.0
 11
477.572773
 21
340.087059
 31
0.0
 12
487.572007
 22
338.086971
 32
0.0
 13
487.572007
 23
338.086971
 33
0.0
  0
SOLID
  5
1B9
100
AcDbEntity
  8
0
  6
Continuous
 62
     0
100
AcDbTrace
 10
539.568868
 20
338.086971
 30
0.0
 11
549.568103
 21
340.087059
 31
0.0
 12
539.568868
 22
342.087146
 32
0.0
 13
539.568868
 23
342.087146
 33
0.0
  0
ENDBLK
  5
1BA
100
AcDbEntity
  8
0
100
AcDbBlockEnd
  0
BLOCK
  5
1BD
100
AcDbEntity
  8
0
100
AcDbBlockBegin
  2
*B12
 70
     0
 10
0.0
 20
0.0
 30
0.0
  3
*B12
  1

  0
LINE
  5
1BE
100
AcDbEntity
  8
0
  6
Continuous
 62
     0
100
AcDbLine
 10
513.570137
 20
471.08106
 30
0.0
 11
594.56556
 21
471.08106
 31
0.0
  0
SOLID
  5
1BF
100
AcDbEntity
  8
0
  6
Continuous
 62
     0
100
AcDbTrace
 10
523.569973
 20
473.080546
 30
0.0
 11
513.570137
 21
471.08106
 31
0.0
 12
523.569973
 22
469.080972
 32
0.0
 13
523.569973
 23
469.080972
 33
0.0
  0
SOLID
  5
1C0
100
AcDbEntity
  8
0
  6
Continuous
 62
     0
100
AcDbTrace
 10
584.565724
 20
469.080972
 30
0.0
 11
594.56556
 21
471.08106
 31
0.0
 12
584.565724
 22
473.080546
 32
0.0
 13
584.565724
 23
473.080546
 33
0.0
  0
ENDBLK
  5
1C1
100
AcDbEntity
  8
0
100
AcDbBlockEnd
  0
BLOCK
  5
1C4
100
AcDbEntity
  8
0
100
AcDbBlockBegin
  2
*B13
 70
     0
 10
0.0
 20
0.0
 30
0.0
  3
*B13
  1

  0
LINE
  5
1C5
100
AcDbEntity
  8
0
  6
Continuous
 62
     0
100
AcDbLine
 10
549.568103
 20
258.80651
 30
0.0
 11
594.56556
 21
258.80651
 31
0.0
  0
SOLID
  5
1C6
100
AcDbEntity
  8
0
  6
Continuous
 62
     0
100
AcDbTrace
 10
559.567337
 20
260.805996
 30
0.0
 11
549.568103
 21
258.80651
 31
0.0
 12
559.567337
 22
256.806423
 32
0.0
 13
559.567337
 23
256.806423
 33
0.0
  0
SOLID
  5
1C7
100
AcDbEntity
  8
0
  6
Continuous
 62
     0
100
AcDbTrace
 10
584.565724
 20
256.806423
 30
0.0
 11
594.56556
 21
258.80651
 31
0.0
 12
584.565724
 22
260.805996
 32
0.0
 13
584.565724
 23
260.805996
 33
0.0
  0
ENDBLK
  5
1C8
100
AcDbEntity
  8
0
100
AcDbBlockEnd
  0
BLOCK
  5
1CB
100
AcDbEntity
  8
0
100
AcDbBlockBegin
  2
*B14
 70
     0
 10
0.0
 20
0.0
 30
0.0
  3
*B14
  1

  0
LINE
  5
1CC
100
AcDbEntity
  8
0
  6
Continuous
 62
     0
100
AcDbLine
 10
477.572773
 20
258.80651
 30
0.0
 11
549.568103
 21
258.80651
 31
0.0
  0
SOLID
  5
1CD
100
AcDbEntity
  8
0
  6
Continuous
 62
     0
100
AcDbTrace
 10
487.572007
 20
260.805996
 30
0.0
 11
477.572773
 21
258.80651
 31
0.0
 12
487.572007
 22
256.806423
 32
0.0
 13
487.572007
 23
256.806423
 33
0.0
  0
SOLID
  5
1CE
100
AcDbEntity
  8
0
  6
Continuous
 62
     0
100
AcDbTrace
 10
539.568868
 20
256.806423
 30
0.0
 11
549.568103
 21
258.80651
 31
0.0
 12
539.568868
 22
260.805996
 32
0.0
 13
539.568868
 23
260.805996
 33
0.0
  0
ENDBLK
  5
1CF
100
AcDbEntity
  8
0
100
AcDbBlockEnd
  0
BLOCK
  5
1D2
100
AcDbEntity
  8
0
100
AcDbBlockBegin
  2
*B15
 70
     0
 10
0.0
 20
0.0
 30
0.0
  3
*B15
  1

  0
LINE
  5
1D3
100
AcDbEntity
  8
0
  6
Continuous
 62
     0
100
AcDbLine
 10
594.56556
 20
233.091701
 30
0.0
 11
432.575315
 21
233.091701
 31
0.0
  0
SOLID
  5
1D4
100
AcDbEntity
  8
0
  6
Continuous
 62
     0
100
AcDbTrace
 10
584.565724
 20
231.092215
 30
0.0
 11
594.56556
 21
233.091701
 31
0.0
 12
584.565724
 22
235.091789
 32
0.0
 13
584.565724
 23
235.091789
 33
0.0
  0
SOLID
  5
1D5
100
AcDbEntity
  8
0
  6
Continuous
 62
     0
100
AcDbTrace
 10
442.57455
 20
235.091789
 30
0.0
 11
432.575315
 21
233.091701
 31
0.0
 12
442.57455
 22
231.092215
 32
0.0
 13
442.57455
 23
231.092215
 33
0.0
  0
ENDBLK
  5
1D6
100
AcDbEntity
  8
0
100
AcDbBlockEnd
  0
BLOCK
  5
1D9
100
AcDbEntity
  8
0
100
AcDbBlockBegin
  2
*B16
 70
     0
 10
0.0
 20
0.0
 30
0.0
  3
*B16
  1

  0
LINE
  5
1DA
100
AcDbEntity
  8
0
  6
Continuous
 62
     0
100
AcDbLine
 10
574.566489
 20
447.081815
 30
0.0
 11
624.232422
 21
447.081815
 31
0.0
  0
SOLID
  5
1DB
100
AcDbEntity
  8
0
  6
Continuous
 62
     0
100
AcDbTrace
 10
584.565724
 20
445.082329
 30
0.0
 11
594.56556
 21
447.081815
 31
0.0
 12
584.565724
 22
449.081902
 32
0.0
 13
584.565724
 23
449.081902
 33
0.0
  0
SOLID
  5
1DC
100
AcDbEntity
  8
0
  6
Continuous
 62
     0
100
AcDbTrace
 10
609.064239
 20
449.081902
 30
0.0
 11
599.065005
 21
447.081815
 31
0.0
 12
609.064239
 22
445.082329
 32
0.0
 13
609.064239
 23
445.082329
 33
0.0
  0
ENDBLK
  5
1DD
100
AcDbEntity
  8
0
100
AcDbBlockEnd
  0
BLOCK
  5
1E0
100
AcDbEntity
  8
0
100
AcDbBlockBegin
  2
*B17
 70
     0
 10
0.0
 20
0.0
 30
0.0
  3
*B17
  1

  0
LINE
  5
1E1
100
AcDbEntity
  8
0
  6
Continuous
 62
     0
100
AcDbLine
 10
444.847732
 20
447.081815
 30
0.0
 11
553.255482
 21
447.081815
 31
0.0
  0
SOLID
  5
1E2
100
AcDbEntity
  8
0
  6
Continuous
 62
     0
100
AcDbTrace
 10
483.884628
 20
445.082329
 30
0.0
 11
493.883862
 21
447.081815
 31
0.0
 12
483.884628
 22
449.081902
 32
0.0
 13
483.884628
 23
449.081902
 33
0.0
  0
SOLID
  5
1E3
100
AcDbEntity
  8
0
  6
Continuous
 62
     0
100
AcDbTrace
 10
543.256248
 20
449.081902
 30
0.0
 11
533.256412
 21
447.081815
 31
0.0
 12
543.256248
 22
445.082329
 32
0.0
 13
543.256248
 23
445.082329
 33
0.0
  0
ENDBLK
  5
1E4
100
AcDbEntity
  8
0
100
AcDbBlockEnd
  0
BLOCK
  5
1E7
100
AcDbEntity
  8
0
100
AcDbBlockBegin
  2
*B18
 70
     0
 10
0.0
 20
0.0
 30
0.0
  3
*B18
  1

  0
LINE
  5
1E8
100
AcDbEntity
  8
0
  6
Continuous
 62
     0
100
AcDbLine
 10
270.585071
 20
495.079704
 30
0.0
 11
594.56556
 21
495.079704
 31
0.0
  0
SOLID
  5
1E9
100
AcDbEntity
  8
0
  6
Continuous
 62
     0
100
AcDbTrace
 10
280.584907
 20
497.079791
 30
0.0
 11
270.585071
 21
495.079704
 31
0.0
 12
280.584907
 22
493.079616
 32
0.0
 13
280.584907
 23
493.079616
 33
0.0
  0
SOLID
  5
1EA
100
AcDbEntity
  8
0
  6
Continuous
 62
     0
100
AcDbTrace
 10
584.565724
 20
493.079616
 30
0.0
 11
594.56556
 21
495.079704
 31
0.0
 12
584.565724
 22
497.079791
 32
0.0
 13
584.565724
 23
497.079791
 33
0.0
  0
ENDBLK
  5
1EB
100
AcDbEntity
  8
0
100
AcDbBlockEnd
  0
BLOCK
  5
1EE
100
AcDbEntity
  8
0
100
AcDbBlockBegin
  2
*B19
 70
     0
 10
0.0
 20
0.0
 30
0.0
  3
*B19
  1

  0
LINE
  5
1EF
100
AcDbEntity
  8
0
  6
Continuous
 62
     0
100
AcDbLine
 10
246.985241
 20
303.677045
 30
0.0
 11
246.985241
 21
420.671637
 31
0.0
  0
SOLID
  5
1F0
100
AcDbEntity
  8
0
  6
Continuous
 62
     0
100
AcDbTrace
 10
244.985154
 20
313.676881
 30
0.0
 11
246.985241
 21
303.677045
 31
0.0
 12
248.984727
 22
313.676881
 32
0.0
 13
248.984727
 23
313.676881
 33
0.0
  0
SOLID
  5
1F1
100
AcDbEntity
  8
0
  6
Continuous
 62
     0
100
AcDbTrace
 10
248.984727
 20
410.672402
 30
0.0
 11
246.985241
 21
420.671637
 31
0.0
 12
244.985154
 22
410.672402
 32
0.0
 13
244.985154
 23
410.672402
 33
0.0
  0
ENDBLK
  5
1F2
100
AcDbEntity
  8
0
100
AcDbBlockEnd
  0
BLOCK
  5
1F5
100
AcDbEntity
  8
0
100
AcDbBlockBegin
  2
*B20
 70
     0
 10
0.0
 20
0.0
 30
0.0
  3
*B20
  1

  0
LINE
  5
1F6
100
AcDbEntity
  8
0
  6
Continuous
 62
     0
100
AcDbLine
 10
246.985241
 20
323.676115
 30
0.0
 11
246.985241
 21
253.132879
 31
0.0
  0
SOLID
  5
1F7
100
AcDbEntity
  8
0
  6
Continuous
 62
     0
100
AcDbTrace
 10
244.985154
 20
313.676881
 30
0.0
 11
246.985241
 21
303.677045
 31
0.0
 12
248.984727
 22
313.676881
 32
0.0
 13
248.984727
 23
313.676881
 33
0.0
  0
SOLID
  5
1F8
100
AcDbEntity
  8
0
  6
Continuous
 62
     0
100
AcDbTrace
 10
248.984727
 20
275.678827
 30
0.0
 11
246.985241
 21
285.678062
 31
0.0
 12
244.985154
 22
275.678827
 32
0.0
 13
244.985154
 23
275.678827
 33
0.0
  0
ENDBLK
  5
1F9
100
AcDbEntity
  8
0
100
AcDbBlockEnd
  0
BLOCK
  5
1FC
100
AcDbEntity
  8
0
100
AcDbBlockBegin
  2
*B21
 70
     0
 10
0.0
 20
0.0
 30
0.0
  3
*B21
  1

  0
LINE
  5
1FD
100
AcDbEntity
  8
0
  6
Continuous
 62
     0
100
AcDbLine
 10
247.984984
 20
120.932809
 30
0.0
 11
247.984984
 21
192.929343
 31
0.0
  0
SOLID
  5
1FE
100
AcDbEntity
  8
0
  6
Continuous
 62
     0
100
AcDbTrace
 10
245.984897
 20
130.932044
 30
0.0
 11
247.984984
 21
120.932809
 31
0.0
 12
249.985072
 22
130.932044
 32
0.0
 13
249.985072
 23
130.932044
 33
0.0
  0
SOLID
  5
1FF
100
AcDbEntity
  8
0
  6
Continuous
 62
     0
100
AcDbTrace
 10
249.985072
 20
182.930108
 30
0.0
 11
247.984984
 21
192.929343
 31
0.0
 12
245.984897
 22
182.930108
 32
0.0
 13
245.984897
 23
182.930108
 33
0.0
  0
ENDBLK
  5
200
100
AcDbEntity
  8
0
100
AcDbBlockEnd
  0
BLOCK
  5
203
100
AcDbEntity
  8
0
100
AcDbBlockBegin
  2
*B22
 70
     0
 10
0.0
 20
0.0
 30
0.0
  3
*B22
  1

  0
LINE
  5
204
100
AcDbEntity
  8
0
  6
Continuous
 62
     8
100
AcDbLine
 10
533.256412
 20
426.671298
 30
0.0
 11
533.256412
 21
449.081902
 31
0.0
  0
ENDBLK
  5
205
100
AcDbEntity
  8
0
100
AcDbBlockEnd
  0
BLOCK
  5
208
100
AcDbEntity
  8
0
100
AcDbBlockBegin
  2
*B23
 70
     0
 10
0.0
 20
0.0
 30
0.0
  3
*B23
  1

  0
LINE
  5
209
100
AcDbEntity
  8
0
  6
Continuous
 62
     8
100
AcDbLine
 10
594.56556
 20
231.092215
 30
0.0
 11
594.56556
 21
279.678401
 31
0.0
  0
LINE
  5
20A
100
AcDbEntity
  8
0
  6
Continuous
 62
     8
100
AcDbLine
 10
594.56556
 20
426.671298
 30
0.0
 11
594.56556
 21
497.079791
 31
0.0
  0
ENDBLK
  5
20B
100
AcDbEntity
  8
0
100
AcDbBlockEnd
  0
BLOCK
  5
20E
100
AcDbEntity
  8
0
100
AcDbBlockBegin
  2
*B24
 70
     0
 10
0.0
 20
0.0
 30
0.0
  3
*B24
  1

  0
LINE
  5
20F
100
AcDbEntity
  8
0
  6
Continuous
 62
     8
100
AcDbLine
 10
513.570137
 20
469.080972
 30
0.0
 11
513.570137
 21
473.080546
 31
0.0
  0
LINE
  5
210
100
AcDbEntity
  8
0
  6
Continuous
 62
     8
100
AcDbLine
 10
513.570137
 20
301.052569
 30
0.0
 11
513.570137
 21
309.176834
 31
0.0
  0
LINE
  5
211
100
AcDbEntity
  8
0
  6
Continuous
 62
     8
100
AcDbLine
 10
513.570137
 20
325.176331
 30
0.0
 11
513.570137
 21
342.757852
 31
0.0
  0
LINE
  5
212
100
AcDbEntity
  8
0
  6
Continuous
 62
     8
100
AcDbLine
 10
513.570137
 20
348.757513
 30
0.0
 11
513.570137
 21
350.757601
 31
0.0
  0
LINE
  5
213
100
AcDbEntity
  8
0
  6
Continuous
 62
     8
100
AcDbLine
 10
513.570137
 20
356.757262
 30
0.0
 11
513.570137
 21
374.338783
 31
0.0
  0
LINE
  5
214
100
AcDbEntity
  8
0
  6
Continuous
 62
     8
100
AcDbLine
 10
513.570137
 20
380.338444
 30
0.0
 11
513.570137
 21
382.337929
 31
0.0
  0
LINE
  5
215
100
AcDbEntity
  8
0
  6
Continuous
 62
     8
100
AcDbLine
 10
513.570137
 20
388.338192
 30
0.0
 11
513.570137
 21
405.919111
 31
0.0
  0
LINE
  5
216
100
AcDbEntity
  8
0
  6
Continuous
 62
     8
100
AcDbLine
 10
513.570137
 20
411.919374
 30
0.0
 11
513.570137
 21
413.91886
 31
0.0
  0
LINE
  5
217
100
AcDbEntity
  8
0
  6
Continuous
 62
     8
100
AcDbLine
 10
513.570137
 20
419.918521
 30
0.0
 11
513.570137
 21
437.500042
 31
0.0
  0
LINE
  5
218
100
AcDbEntity
  8
0
  6
Continuous
 62
     8
100
AcDbLine
 10
513.570137
 20
443.499703
 30
0.0
 11
513.570137
 21
445.49979
 31
0.0
  0
LINE
  5
219
100
AcDbEntity
  8
0
  6
Continuous
 62
     8
100
AcDbLine
 10
513.570137
 20
451.499451
 30
0.0
 11
513.570137
 21
469.080972
 31
0.0
  0
ENDBLK
  5
21A
100
AcDbEntity
  8
0
100
AcDbBlockEnd
  0
BLOCK
  5
21D
100
AcDbEntity
  8
0
100
AcDbBlockBegin
  2
*B25
 70
     0
 10
0.0
 20
0.0
 30
0.0
  3
*B25
  1

  0
LINE
  5
21E
100
AcDbEntity
  8
0
  6
Continuous
 62
     8
100
AcDbLine
 10
513.570137
 20
131.244839
 30
0.0
 11
513.570137
 21
148.931628
 31
0.0
  0
LINE
  5
21F
100
AcDbEntity
  8
0
  6
Continuous
 62
     8
100
AcDbLine
 10
513.570137
 20
164.930524
 30
0.0
 11
513.570137
 21
182.617312
 31
0.0
  0
ENDBLK
  5
220
100
AcDbEntity
  8
0
100
AcDbBlockEnd
  0
BLOCK
  5
223
100
AcDbEntity
  8
0
100
AcDbBlockBegin
  2
*B26
 70
     0
 10
0.0
 20
0.0
 30
0.0
  3
*B26
  1

  0
LINE
  5
224
100
AcDbEntity
  8
0
  6
Continuous
 62
     8
100
AcDbLine
 10
432.575315
 20
231.092215
 30
0.0
 11
432.575315
 21
279.678401
 31
0.0
  0
ENDBLK
  5
225
100
AcDbEntity
  8
0
100
AcDbBlockEnd
  0
BLOCK
  5
228
100
AcDbEntity
  8
0
100
AcDbBlockBegin
  2
*B27
 70
     0
 10
0.0
 20
0.0
 30
0.0
  3
*B27
  1

  0
LINE
  5
229
100
AcDbEntity
  8
0
  6
Continuous
 62
     8
100
AcDbLine
 10
270.585071
 20
426.671298
 30
0.0
 11
270.585071
 21
497.079791
 31
0.0
  0
ENDBLK
  5
22A
100
AcDbEntity
  8
0
100
AcDbBlockEnd
  0
BLOCK
  5
22D
100
AcDbEntity
  8
0
100
AcDbBlockBegin
  2
*B28
 70
     0
 10
0.0
 20
0.0
 30
0.0
  3
*B28
  1

  0
LINE
  5
22E
100
AcDbEntity
  8
0
  6
Continuous
 62
     8
100
AcDbLine
 10
244.985154
 20
420.671637
 30
0.0
 11
264.58541
 21
420.671637
 31
0.0
  0
ENDBLK
  5
22F
100
AcDbEntity
  8
0
100
AcDbBlockEnd
  0
BLOCK
  5
232
100
AcDbEntity
  8
0
100
AcDbBlockBegin
  2
*B29
 70
     0
 10
0.0
 20
0.0
 30
0.0
  3
*B29
  1

  0
LINE
  5
233
100
AcDbEntity
  8
0
  6
Continuous
 62
     8
100
AcDbLine
 10
600.565221
 20
420.671637
 30
0.0
 11
652.960295
 21
420.671637
 31
0.0
  0
ENDBLK
  5
234
100
AcDbEntity
  8
0
100
AcDbBlockEnd
  0
BLOCK
  5
237
100
AcDbEntity
  8
0
100
AcDbBlockBegin
  2
*B30
 70
     0
 10
0.0
 20
0.0
 30
0.0
  3
*B30
  1

  0
LINE
  5
238
100
AcDbEntity
  8
0
  6
Continuous
 62
     8
100
AcDbLine
 10
493.883862
 20
426.671298
 30
0.0
 11
493.883862
 21
449.081902
 31
0.0
  0
ENDBLK
  5
239
100
AcDbEntity
  8
0
100
AcDbBlockEnd
  0
BLOCK
  5
23C
100
AcDbEntity
  8
0
100
AcDbBlockBegin
  2
*B31
 70
     0
 10
0.0
 20
0.0
 30
0.0
  3
*B31
  1

  0
LINE
  5
23D
100
AcDbEntity
  8
0
  6
Continuous
 62
     8
100
AcDbLine
 10
245.984897
 20
192.929343
 30
0.0
 11
264.58541
 21
192.929343
 31
0.0
  0
ENDBLK
  5
23E
100
AcDbEntity
  8
0
100
AcDbBlockEnd
  0
BLOCK
  5
241
100
AcDbEntity
  8
0
100
AcDbBlockBegin
  2
*B32
 70
     0
 10
0.0
 20
0.0
 30
0.0
  3
*B32
  1

  0
LINE
  5
242
100
AcDbEntity
  8
0
  6
Continuous
 62
     8
100
AcDbLine
 10
622.96199
 20
389.173116
 30
0.0
 11
626.961564
 21
389.173116
 31
0.0
  0
LINE
  5
243
100
AcDbEntity
  8
0
  6
Continuous
 62
     8
100
AcDbLine
 10
533.444089
 20
389.173116
 30
0.0
 11
541.568354
 21
389.173116
 31
0.0
  0
LINE
  5
244
100
AcDbEntity
  8
0
  6
Continuous
 62
     8
100
AcDbLine
 10
557.567851
 20
389.173116
 30
0.0
 11
583.265216
 21
389.173116
 31
0.0
  0
LINE
  5
245
100
AcDbEntity
  8
0
  6
Continuous
 62
     8
100
AcDbLine
 10
589.264877
 20
389.173116
 30
0.0
 11
591.264363
 21
389.173116
 31
0.0
  0
LINE
  5
246
100
AcDbEntity
  8
0
  6
Continuous
 62
     8
100
AcDbLine
 10
597.264024
 20
389.173116
 30
0.0
 11
622.96199
 21
389.173116
 31
0.0
  0
ENDBLK
  5
247
100
AcDbEntity
  8
0
100
AcDbBlockEnd
  0
BLOCK
  5
24A
100
AcDbEntity
  8
0
100
AcDbBlockBegin
  2
*B33
 70
     0
 10
0.0
 20
0.0
 30
0.0
  3
*B33
  1

  0
LINE
  5
24B
100
AcDbEntity
  8
0
  6
Continuous
 62
     8
100
AcDbLine
 10
461.448759
 20
389.173116
 30
0.0
 11
469.573024
 21
389.173116
 31
0.0
  0
LINE
  5
24C
100
AcDbEntity
  8
0
  6
Continuous
 62
     8
100
AcDbLine
 10
485.571919
 20
389.173116
 30
0.0
 11
493.696786
 21
389.173116
 31
0.0
  0
ENDBLK
  5
24D
100
AcDbEntity
  8
0
100
AcDbBlockEnd
  0
BLOCK
  5
250
100
AcDbEntity
  8
0
100
AcDbBlockBegin
  2
*B34
 70
     0
 10
0.0
 20
0.0
 30
0.0
  3
*B34
  1

  0
LINE
  5
251
100
AcDbEntity
  8
0
  6
Continuous
 62
     8
100
AcDbLine
 10
245.984897
 20
120.932809
 30
0.0
 11
264.58541
 21
120.932809
 31
0.0
  0
ENDBLK
  5
252
100
AcDbEntity
  8
0
100
AcDbBlockEnd
  0
BLOCK
  5
255
100
AcDbEntity
  8
0
100
AcDbBlockBegin
  2
*B35
 70
     0
 10
0.0
 20
0.0
 30
0.0
  3
*B35
  1

  0
LINE
  5
256
100
AcDbEntity
  8
0
  6
Continuous
 62
     8
100
AcDbLine
 10
622.96199
 20
317.176583
 30
0.0
 11
626.961564
 21
317.176583
 31
0.0
  0
LINE
  5
257
100
AcDbEntity
  8
0
  6
Continuous
 62
     8
100
AcDbLine
 10
497.446123
 20
317.176583
 30
0.0
 11
505.57099
 21
317.176583
 31
0.0
  0
LINE
  5
258
100
AcDbEntity
  8
0
  6
Continuous
 62
     8
100
AcDbLine
 10
521.569885
 20
317.176583
 30
0.0
 11
546.034113
 21
317.176583
 31
0.0
  0
LINE
  5
259
100
AcDbEntity
  8
0
  6
Continuous
 62
     8
100
AcDbLine
 10
552.033774
 20
317.176583
 30
0.0
 11
554.033862
 21
317.176583
 31
0.0
  0
LINE
  5
25A
100
AcDbEntity
  8
0
  6
Continuous
 62
     8
100
AcDbLine
 10
560.033523
 20
317.176583
 30
0.0
 11
584.498353
 21
317.176583
 31
0.0
  0
LINE
  5
25B
100
AcDbEntity
  8
0
  6
Continuous
 62
     8
100
AcDbLine
 10
590.498013
 20
317.176583
 30
0.0
 11
592.497499
 21
317.176583
 31
0.0
  0
LINE
  5
25C
100
AcDbEntity
  8
0
  6
Continuous
 62
     8
100
AcDbLine
 10
598.49716
 20
317.176583
 30
0.0
 11
622.96199
 21
317.176583
 31
0.0
  0
ENDBLK
  5
25D
100
AcDbEntity
  8
0
100
AcDbBlockEnd
  0
BLOCK
  5
260
100
AcDbEntity
  8
0
100
AcDbBlockBegin
  2
*B36
 70
     0
 10
0.0
 20
0.0
 30
0.0
  3
*B36
  1

  0
LINE
  5
261
100
AcDbEntity
  8
0
  6
Continuous
 62
     8
100
AcDbLine
 10
477.572773
 20
256.806423
 30
0.0
 11
477.572773
 21
260.805996
 31
0.0
  0
LINE
  5
262
100
AcDbEntity
  8
0
  6
Continuous
 62
     8
100
AcDbLine
 10
477.572773
 20
260.805996
 30
0.0
 11
477.572773
 21
289.491161
 31
0.0
  0
LINE
  5
263
100
AcDbEntity
  8
0
  6
Continuous
 62
     8
100
AcDbLine
 10
477.572773
 20
295.491423
 30
0.0
 11
477.572773
 21
297.490909
 31
0.0
  0
LINE
  5
264
100
AcDbEntity
  8
0
  6
Continuous
 62
     8
100
AcDbLine
 10
477.572773
 20
303.49057
 30
0.0
 11
477.572773
 21
332.175735
 31
0.0
  0
ENDBLK
  5
265
100
AcDbEntity
  8
0
100
AcDbBlockEnd
  0
BLOCK
  5
268
100
AcDbEntity
  8
0
100
AcDbBlockBegin
  2
*B37
 70
     0
 10
0.0
 20
0.0
 30
0.0
  3
*B37
  1

  0
LINE
  5
269
100
AcDbEntity
  8
0
  6
Continuous
 62
     8
100
AcDbLine
 10
244.985154
 20
285.678062
 30
0.0
 11
426.575654
 21
285.678062
 31
0.0
  0
LINE
  5
26A
100
AcDbEntity
  8
0
  6
Continuous
 62
     8
100
AcDbLine
 10
600.565221
 20
285.678062
 30
0.0
 11
652.960295
 21
285.678062
 31
0.0
  0
ENDBLK
  5
26B
100
AcDbEntity
  8
0
100
AcDbBlockEnd
  0
BLOCK
  5
26E
100
AcDbEntity
  8
0
100
AcDbBlockBegin
  2
*B38
 70
     0
 10
0.0
 20
0.0
 30
0.0
  3
*B38
  1

  0
LINE
  5
26F
100
AcDbEntity
  8
0
  6
Continuous
 62
     8
100
AcDbLine
 10
549.568103
 20
338.086971
 30
0.0
 11
549.568103
 21
342.087146
 31
0.0
  0
LINE
  5
270
100
AcDbEntity
  8
0
  6
Continuous
 62
     8
100
AcDbLine
 10
549.568103
 20
342.087146
 30
0.0
 11
549.568103
 21
381.173969
 31
0.0
  0
LINE
  5
271
100
AcDbEntity
  8
0
  6
Continuous
 62
     8
100
AcDbLine
 10
549.568103
 20
397.172864
 30
0.0
 11
549.568103
 21
405.297731
 31
0.0
  0
ENDBLK
  5
272
100
AcDbEntity
  8
0
100
AcDbBlockEnd
  0
BLOCK
  5
275
100
AcDbEntity
  8
0
100
AcDbBlockBegin
  2
*B39
 70
     0
 10
0.0
 20
0.0
 30
0.0
  3
*B39
  1

  0
LINE
  5
276
100
AcDbEntity
  8
0
  6
Continuous
 62
     8
100
AcDbLine
 10
599.065005
 20
379.423516
 30
0.0
 11
599.065005
 21
449.081902
 31
0.0
  0
ENDBLK
  5
277
100
AcDbEntity
  8
0
100
AcDbBlockEnd
  0
BLOCK
  5
27A
100
AcDbEntity
  8
0
100
AcDbBlockBegin
  2
*B40
 70
     0
 10
0.0
 20
0.0
 30
0.0
  3
*B40
  1

  0
LINE
  5
27B
100
AcDbEntity
  8
0
  6
Continuous
 62
     8
100
AcDbLine
 10
264.58541
 20
156.930775
 30
0.0
 11
298.583288
 21
156.930775
 31
0.0
  0
LINE
  5
27C
100
AcDbEntity
  8
0
  6
Continuous
 62
     8
100
AcDbLine
 10
314.582785
 20
156.930775
 30
0.0
 11
335.914846
 21
156.930775
 31
0.0
  0
LINE
  5
27D
100
AcDbEntity
  8
0
  6
Continuous
 62
     8
100
AcDbLine
 10
341.913905
 20
156.930775
 30
0.0
 11
343.913993
 21
156.930775
 31
0.0
  0
LINE
  5
27E
100
AcDbEntity
  8
0
  6
Continuous
 62
     8
100
AcDbLine
 10
349.913654
 20
156.930775
 30
0.0
 11
371.245715
 21
156.930775
 31
0.0
  0
LINE
  5
27F
100
AcDbEntity
  8
0
  6
Continuous
 62
     8
100
AcDbLine
 10
377.245376
 20
156.930775
 30
0.0
 11
379.245463
 21
156.930775
 31
0.0
  0
LINE
  5
280
100
AcDbEntity
  8
0
  6
Continuous
 62
     8
100
AcDbLine
 10
385.245124
 20
156.930775
 30
0.0
 11
406.576584
 21
156.930775
 31
0.0
  0
LINE
  5
281
100
AcDbEntity
  8
0
  6
Continuous
 62
     8
100
AcDbLine
 10
422.576081
 20
156.930775
 30
0.0
 11
440.908311
 21
156.930775
 31
0.0
  0
LINE
  5
282
100
AcDbEntity
  8
0
  6
Continuous
 62
     8
100
AcDbLine
 10
446.907972
 20
156.930775
 30
0.0
 11
448.907458
 21
156.930775
 31
0.0
  0
LINE
  5
283
100
AcDbEntity
  8
0
  6
Continuous
 62
     8
100
AcDbLine
 10
454.907119
 20
156.930775
 30
0.0
 11
473.23935
 21
156.930775
 31
0.0
  0
LINE
  5
284
100
AcDbEntity
  8
0
  6
Continuous
 62
     8
100
AcDbLine
 10
479.239011
 20
156.930775
 30
0.0
 11
481.239098
 21
156.930775
 31
0.0
  0
LINE
  5
285
100
AcDbEntity
  8
0
  6
Continuous
 62
     8
100
AcDbLine
 10
487.238759
 20
156.930775
 30
0.0
 11
505.57099
 21
156.930775
 31
0.0
  0
LINE
  5
286
100
AcDbEntity
  8
0
  6
Continuous
 62
     8
100
AcDbLine
 10
521.569885
 20
156.930775
 30
0.0
 11
540.06874
 21
156.930775
 31
0.0
  0
LINE
  5
287
100
AcDbEntity
  8
0
  6
Continuous
 62
     8
100
AcDbLine
 10
546.068401
 20
156.930775
 30
0.0
 11
548.068488
 21
156.930775
 31
0.0
  0
LINE
  5
288
100
AcDbEntity
  8
0
  6
Continuous
 62
     8
100
AcDbLine
 10
554.067548
 20
156.930775
 30
0.0
 11
572.566402
 21
156.930775
 31
0.0
  0
LINE
  5
289
100
AcDbEntity
  8
0
  6
Continuous
 62
     8
100
AcDbLine
 10
578.566063
 20
156.930775
 30
0.0
 11
580.56615
 21
156.930775
 31
0.0
  0
LINE
  5
28A
100
AcDbEntity
  8
0
  6
Continuous
 62
     8
100
AcDbLine
 10
586.565811
 20
156.930775
 30
0.0
 11
605.064666
 21
156.930775
 31
0.0
  0
ENDBLK
  5
28B
100
AcDbEntity
  8
0
100
AcDbBlockEnd
  0
BLOCK
  5
28E
100
AcDbEntity
  8
0
100
AcDbBlockBegin
  2
*B41
 70
     0
 10
0.0
 20
0.0
 30
0.0
  3
*B41
  1

  0
LINE
  5
28F
100
AcDbEntity
  8
0
  6
Continuous
 62
     8
100
AcDbLine
 10
549.568103
 20
256.806423
 30
0.0
 11
549.568103
 21
260.805996
 31
0.0
  0
LINE
  5
290
100
AcDbEntity
  8
0
  6
Continuous
 62
     8
100
AcDbLine
 10
549.568103
 20
260.805996
 30
0.0
 11
549.568103
 21
289.491161
 31
0.0
  0
LINE
  5
291
100
AcDbEntity
  8
0
  6
Continuous
 62
     8
100
AcDbLine
 10
549.568103
 20
295.491423
 30
0.0
 11
549.568103
 21
297.490909
 31
0.0
  0
LINE
  5
292
100
AcDbEntity
  8
0
  6
Continuous
 62
     8
100
AcDbLine
 10
549.568103
 20
303.49057
 30
0.0
 11
549.568103
 21
332.175735
 31
0.0
  0
ENDBLK
  5
293
100
AcDbEntity
  8
0
100
AcDbBlockEnd
  0
BLOCK
  5
296
100
AcDbEntity
  8
0
100
AcDbBlockBegin
  2
*B42
 70
     0
 10
0.0
 20
0.0
 30
0.0
  3
*B42
  1

  0
LINE
  5
297
100
AcDbEntity
  8
0
  6
Continuous
 62
     8
100
AcDbLine
 10
244.985154
 20
303.677045
 30
0.0
 11
264.58541
 21
303.677045
 31
0.0
  0
ENDBLK
  5
298
100
AcDbEntity
  8
0
100
AcDbBlockEnd
  0
BLOCK
  5
29B
100
AcDbEntity
  8
0
100
AcDbBlockBegin
  2
*B43
 70
     0
 10
0.0
 20
0.0
 30
0.0
  3
*B43
  1

  0
LINE
  5
29C
100
AcDbEntity
  8
0
  6
Continuous
 62
     8
100
AcDbLine
 10
306.583036
 20
139.6819
 30
0.0
 11
306.583036
 21
148.931628
 31
0.0
  0
LINE
  5
29D
100
AcDbEntity
  8
0
  6
Continuous
 62
     8
100
AcDbLine
 10
306.583036
 20
164.930524
 30
0.0
 11
306.583036
 21
174.180252
 31
0.0
  0
ENDBLK
  5
29E
100
AcDbEntity
  8
0
100
AcDbBlockEnd
  0
BLOCK
  5
2A1
100
AcDbEntity
  8
0
100
AcDbBlockBegin
  2
*B44
 70
     0
 10
0.0
 20
0.0
 30
0.0
  3
*B44
  1

  0
LINE
  5
2A2
100
AcDbEntity
  8
0
  6
Continuous
 62
     8
100
AcDbLine
 10
264.58541
 20
353.17515
 30
0.0
 11
280.126541
 21
353.17515
 31
0.0
  0
LINE
  5
2A3
100
AcDbEntity
  8
0
  6
Continuous
 62
     8
100
AcDbLine
 10
286.126202
 20
353.17515
 30
0.0
 11
288.125688
 21
353.17515
 31
0.0
  0
LINE
  5
2A4
100
AcDbEntity
  8
0
  6
Continuous
 62
     8
100
AcDbLine
 10
294.125349
 20
353.17515
 30
0.0
 11
309.66648
 21
353.17515
 31
0.0
  0
LINE
  5
2A5
100
AcDbEntity
  8
0
  6
Continuous
 62
     8
100
AcDbLine
 10
315.665539
 20
353.17515
 30
0.0
 11
317.665627
 21
353.17515
 31
0.0
  0
LINE
  5
2A6
100
AcDbEntity
  8
0
  6
Continuous
 62
     8
100
AcDbLine
 10
323.665287
 20
353.17515
 30
0.0
 11
339.205817
 21
353.17515
 31
0.0
  0
LINE
  5
2A7
100
AcDbEntity
  8
0
  6
Continuous
 62
     8
100
AcDbLine
 10
345.205478
 20
353.17515
 30
0.0
 11
347.205565
 21
353.17515
 31
0.0
  0
LINE
  5
2A8
100
AcDbEntity
  8
0
  6
Continuous
 62
     8
100
AcDbLine
 10
353.205226
 20
353.17515
 30
0.0
 11
368.745756
 21
353.17515
 31
0.0
  0
LINE
  5
2A9
100
AcDbEntity
  8
0
  6
Continuous
 62
     8
100
AcDbLine
 10
374.745417
 20
353.17515
 30
0.0
 11
376.745504
 21
353.17515
 31
0.0
  0
LINE
  5
2AA
100
AcDbEntity
  8
0
  6
Continuous
 62
     8
100
AcDbLine
 10
382.745165
 20
353.17515
 30
0.0
 11
398.285695
 21
353.17515
 31
0.0
  0
LINE
  5
2AB
100
AcDbEntity
  8
0
  6
Continuous
 62
     8
100
AcDbLine
 10
404.285356
 20
353.17515
 30
0.0
 11
406.285443
 21
353.17515
 31
0.0
  0
LINE
  5
2AC
100
AcDbEntity
  8
0
  6
Continuous
 62
     8
100
AcDbLine
 10
412.285104
 20
353.17515
 30
0.0
 11
427.825634
 21
353.17515
 31
0.0
  0
LINE
  5
2AD
100
AcDbEntity
  8
0
  6
Continuous
 62
     8
100
AcDbLine
 10
433.825295
 20
353.17515
 30
0.0
 11
435.824781
 21
353.17515
 31
0.0
  0
LINE
  5
2AE
100
AcDbEntity
  8
0
  6
Continuous
 62
     8
100
AcDbLine
 10
441.824442
 20
353.17515
 30
0.0
 11
457.365573
 21
353.17515
 31
0.0
  0
LINE
  5
2AF
100
AcDbEntity
  8
0
  6
Continuous
 62
     8
100
AcDbLine
 10
463.365234
 20
353.17515
 30
0.0
 11
465.36472
 21
353.17515
 31
0.0
  0
LINE
  5
2B0
100
AcDbEntity
  8
0
  6
Continuous
 62
     8
100
AcDbLine
 10
471.364381
 20
353.17515
 30
0.0
 11
486.905512
 21
353.17515
 31
0.0
  0
LINE
  5
2B1
100
AcDbEntity
  8
0
  6
Continuous
 62
     8
100
AcDbLine
 10
492.905173
 20
353.17515
 30
0.0
 11
494.904659
 21
353.17515
 31
0.0
  0
LINE
  5
2B2
100
AcDbEntity
  8
0
  6
Continuous
 62
     8
100
AcDbLine
 10
500.90432
 20
353.17515
 30
0.0
 11
516.444849
 21
353.17515
 31
0.0
  0
LINE
  5
2B3
100
AcDbEntity
  8
0
  6
Continuous
 62
     8
100
AcDbLine
 10
522.44451
 20
353.17515
 30
0.0
 11
524.444597
 21
353.17515
 31
0.0
  0
LINE
  5
2B4
100
AcDbEntity
  8
0
  6
Continuous
 62
     8
100
AcDbLine
 10
530.444258
 20
353.17515
 30
0.0
 11
545.984788
 21
353.17515
 31
0.0
  0
LINE
  5
2B5
100
AcDbEntity
  8
0
  6
Continuous
 62
     8
100
AcDbLine
 10
551.984449
 20
353.17515
 30
0.0
 11
553.984536
 21
353.17515
 31
0.0
  0
LINE
  5
2B6
100
AcDbEntity
  8
0
  6
Continuous
 62
     8
100
AcDbLine
 10
559.984197
 20
353.17515
 30
0.0
 11
575.524727
 21
353.17515
 31
0.0
  0
LINE
  5
2B7
100
AcDbEntity
  8
0
  6
Continuous
 62
     8
100
AcDbLine
 10
581.524388
 20
353.17515
 30
0.0
 11
583.524475
 21
353.17515
 31
0.0
  0
LINE
  5
2B8
100
AcDbEntity
  8
0
  6
Continuous
 62
     8
100
AcDbLine
 10
589.524136
 20
353.17515
 30
0.0
 11
605.064666
 21
353.17515
 31
0.0
  0
ENDBLK
  5
2B9
100
AcDbEntity
  8
0
100
AcDbBlockEnd
  0
BLOCK
  5
2BC
100
AcDbEntity
  8
0
100
AcDbBlockBegin
  2
*B45
 70
     0
 10
0.0
 20
0.0
 30
0.0
  3
*B45
  1

  0
LINE
  5
2BD
100
AcDbEntity
  8
0
  6
Continuous
 62
     8
100
AcDbLine
 10
414.576332
 20
141.931623
 30
0.0
 11
414.576332
 21
148.931628
 31
0.0
  0
LINE
  5
2BE
100
AcDbEntity
  8
0
  6
Continuous
 62
     8
100
AcDbLine
 10
414.576332
 20
164.930524
 30
0.0
 11
414.576332
 21
171.930529
 31
0.0
  0
ENDBLK
  5
2BF
100
AcDbEntity
  8
0
100
AcDbBlockEnd
  0
BLOCK
  5
2C2
100
AcDbEntity
  8
0
100
AcDbBlockBegin
  2
*B46
 70
     0
 10
0.0
 20
0.0
 30
0.0
  3
*B46
  1

  0
LINE
  5
2C3
100
AcDbEntity
  8
0
  6
Continuous
 62
     8
100
AcDbLine
 10
477.572773
 20
338.086971
 30
0.0
 11
477.572773
 21
342.087146
 31
0.0
  0
LINE
  5
2C4
100
AcDbEntity
  8
0
  6
Continuous
 62
     8
100
AcDbLine
 10
477.572773
 20
342.087146
 30
0.0
 11
477.572773
 21
381.173969
 31
0.0
  0
LINE
  5
2C5
100
AcDbEntity
  8
0
  6
Continuous
 62
     8
100
AcDbLine
 10
477.572773
 20
397.172864
 30
0.0
 11
477.572773
 21
405.297731
 31
0.0
  0
ENDBLK
  5
2C6
100
AcDbEntity
  8
0
100
AcDbBlockEnd
  0
BLOCK
  5
2C9
100
AcDbEntity
  8
0
100
AcDbBlockBegin
  2
*B47
 70
     0
 10
0.0
 20
0.0
 30
0.0
  3
*B47
  1

  0
LINE
  5
2CA
100
AcDbEntity
  8
0
  6
Continuous
 62
     6
100
AcDbLine
 10
475.572685
 20
389.173116
 30
0.0
 11
479.572258
 21
389.173116
 31
0.0
  0
LINE
  5
2CB
100
AcDbEntity
  8
0
  6
Continuous
 62
     6
100
AcDbLine
 10
477.572773
 20
387.17363
 30
0.0
 11
477.572773
 21
391.173203
 31
0.0
  0
ENDBLK
  5
2CC
100
AcDbEntity
  8
0
100
AcDbBlockEnd
  0
BLOCK
  5
2CF
100
AcDbEntity
  8
0
100
AcDbBlockBegin
  2
*B48
 70
     0
 10
0.0
 20
0.0
 30
0.0
  3
*B48
  1

  0
LINE
  5
2D0
100
AcDbEntity
  8
0
  6
Continuous
 62
     6
100
AcDbLine
 10
513.570137
 20
154.931289
 30
0.0
 11
513.570137
 21
158.930863
 31
0.0
  0
LINE
  5
2D1
100
AcDbEntity
  8
0
  6
Continuous
 62
     6
100
AcDbLine
 10
511.570651
 20
156.930775
 30
0.0
 11
515.570224
 21
156.930775
 31
0.0
  0
ENDBLK
  5
2D2
100
AcDbEntity
  8
0
100
AcDbBlockEnd
  0
BLOCK
  5
2D5
100
AcDbEntity
  8
0
100
AcDbBlockBegin
  2
*B49
 70
     0
 10
0.0
 20
0.0
 30
0.0
  3
*B49
  1

  0
LINE
  5
2D6
100
AcDbEntity
  8
0
  6
Continuous
 62
     6
100
AcDbLine
 10
547.568015
 20
389.173116
 30
0.0
 11
551.56819
 21
389.173116
 31
0.0
  0
LINE
  5
2D7
100
AcDbEntity
  8
0
  6
Continuous
 62
     6
100
AcDbLine
 10
549.568103
 20
387.17363
 30
0.0
 11
549.568103
 21
391.173203
 31
0.0
  0
ENDBLK
  5
2D8
100
AcDbEntity
  8
0
100
AcDbBlockEnd
  0
BLOCK
  5
2DB
100
AcDbEntity
  8
0
100
AcDbBlockBegin
  2
*B50
 70
     0
 10
0.0
 20
0.0
 30
0.0
  3
*B50
  1

  0
LINE
  5
2DC
100
AcDbEntity
  8
0
  6
Continuous
 62
     6
100
AcDbLine
 10
511.570651
 20
317.176583
 30
0.0
 11
515.570224
 21
317.176583
 31
0.0
  0
LINE
  5
2DD
100
AcDbEntity
  8
0
  6
Continuous
 62
     6
100
AcDbLine
 10
513.570137
 20
315.176495
 30
0.0
 11
513.570137
 21
319.17667
 31
0.0
  0
ENDBLK
  5
2DE
100
AcDbEntity
  8
0
100
AcDbBlockEnd
  0
BLOCK
  5
2E1
100
AcDbEntity
  8
0
100
AcDbBlockBegin
  2
*B51
 70
     0
 10
0.0
 20
0.0
 30
0.0
  3
*B51
  1

  0
LINE
  5
2E2
100
AcDbEntity
  8
0
  6
Continuous
 62
     6
100
AcDbLine
 10
412.576245
 20
156.930775
 30
0.0
 11
416.57642
 21
156.930775
 31
0.0
  0
LINE
  5
2E3
100
AcDbEntity
  8
0
  6
Continuous
 62
     6
100
AcDbLine
 10
414.576332
 20
154.931289
 30
0.0
 11
414.576332
 21
158.930863
 31
0.0
  0
ENDBLK
  5
2E4
100
AcDbEntity
  8
0
100
AcDbBlockEnd
  0
BLOCK
  5
2E7
100
AcDbEntity
  8
0
100
AcDbBlockBegin
  2
*B52
 70
     0
 10
0.0
 20
0.0
 30
0.0
  3
*B52
  1

  0
LINE
  5
2E8
100
AcDbEntity
  8
0
  6
Continuous
 62
     6
100
AcDbLine
 10
306.583036
 20
154.931289
 30
0.0
 11
306.583036
 21
158.930863
 31
0.0
  0
LINE
  5
2E9
100
AcDbEntity
  8
0
  6
Continuous
 62
     6
100
AcDbLine
 10
304.582949
 20
156.930775
 30
0.0
 11
308.583124
 21
156.930775
 31
0.0
  0
ENDBLK
  5
2EA
100
AcDbEntity
  8
0
100
AcDbBlockEnd
  0
BLOCK
  5
2ED
100
AcDbEntity
  8
0
100
AcDbBlockBegin
  2
*B53
 70
     0
 10
0.0
 20
0.0
 30
0.0
  3
*B53
  1

  0
LINE
  5
2EE
100
AcDbEntity
  8
0
  6
Continuous
 62
     0
100
AcDbLine
 10
402.74183
 20
447.332051
 30
0.0
 11
432.207179
 21
447.332051
 31
0.0
  0
LINE
  5
2EF
100
AcDbEntity
  8
0
  6
Continuous
 62
     0
100
AcDbLine
 10
432.207179
 20
447.332051
 30
0.0
 11
471.345733
 21
397.156623
 31
0.0
  0
SOLID
  5
2F0
100
AcDbEntity
  8
0
  6
Continuous
 62
     0
100
AcDbTrace
 10
463.618478
 20
403.810749
 30
0.0
 11
471.345733
 21
397.156623
 31
0.0
 12
466.7723
 22
406.271007
 32
0.0
 13
466.7723
 23
406.271007
 33
0.0
  0
ENDBLK
  5
2F1
100
AcDbEntity
  8
0
100
AcDbBlockEnd
  0
BLOCK
  5
2F4
100
AcDbEntity
  8
0
100
AcDbBlockBegin
  2
*B54
 70
     0
 10
0.0
 20
0.0
 30
0.0
  3
*B54
  1

  0
TEXT
  5
2F5
100
AcDbEntity
  8
TEXT
  6
Continuous
 62
     0
100
AcDbText
 10
508.765799
 20
401.0
 30
0.0
 40
12.0
  1
2
100
AcDbText
  0
ENDBLK
  5
2F6
100
AcDbEntity
  8
0
100
AcDbBlockEnd
  0
BLOCK
  5
2F9
100
AcDbEntity
  8
0
100
AcDbBlockBegin
  2
*B55
 70
     0
 10
0.0
 20
0.0
 30
0.0
  3
*B55
  1

  0
TEXT
  5
2FA
100
AcDbEntity
  8
TEXT
  6
Continuous
 62
     0
100
AcDbText
 10
544.765799
 20
295.0
 30
0.0
 40
12.0
  1
3
100
AcDbText
  0
ENDBLK
  5
2FB
100
AcDbEntity
  8
0
100
AcDbBlockEnd
  0
BLOCK
  5
2FE
100
AcDbEntity
  8
0
100
AcDbBlockBegin
  2
*B56
 70
     0
 10
0.0
 20
0.0
 30
0.0
  3
*B56
  1

  0
TEXT
  5
2FF
100
AcDbEntity
  8
TEXT
  6
Continuous
 62
     0
100
AcDbText
 10
437.531599
 20
348.0
 30
0.0
 40
12.0
  1
12
100
AcDbText
  0
ENDBLK
  5
300
100
AcDbEntity
  8
0
100
AcDbBlockEnd
  0
BLOCK
  5
303
100
AcDbEntity
  8
0
100
AcDbBlockBegin
  2
*B57
 70
     0
 10
0.0
 20
0.0
 30
0.0
  3
*B57
  1

  0
TEXT
  5
304
100
AcDbEntity
  8
TEXT
  6
Continuous
 62
     0
100
AcDbText
 10
471.765799
 20
295.0
 30
0.0
 40
12.0
  1
1
100
AcDbText
  0
ENDBLK
  5
305
100
AcDbEntity
  8
0
100
AcDbBlockEnd
  0
BLOCK
  5
308
100
AcDbEntity
  8
0
100
AcDbBlockBegin
  2
*B58
 70
     0
 10
0.0
 20
0.0
 30
0.0
  3
*B58
  1

  0
TEXT
  5
309
100
AcDbEntity
  8
TEXT
  6
Continuous
 62
     0
100
AcDbText
 10
402.766667
 20
452.5
 30
0.0
 40
7.0
  1
%%c4,4
100
AcDbText
  0
ENDBLK
  5
30A
100
AcDbEntity
  8
0
100
AcDbBlockEnd
  0
BLOCK
  5
30D
100
AcDbEntity
  8
0
100
AcDbBlockBegin
  2
*B59
 70
     0
 10
0.0
 20
0.0
 30
0.0
  3
*B59
  1

  0
TEXT
  5
30E
100
AcDbEntity
  8
TEXT
  6
Continuous
 62
     0
100
AcDbText
 10
280.380297
 20
261.0
 30
0.0
 40
14.0
  1
180%%d
100
AcDbText
  0
ENDBLK
  5
30F
100
AcDbEntity
  8
0
100
AcDbBlockEnd
  0
BLOCK
  5
312
100
AcDbEntity
  8
0
100
AcDbBlockBegin
  2
*B60
 70
     0
 10
0.0
 20
0.0
 30
0.0
  3
*B60
  1

  0
TEXT
  5
313
100
AcDbEntity
  8
TEXT
  6
Continuous
 62
     0
100
AcDbText
 10
340.380297
 20
225.0
 30
0.0
 40
14.0
  1
180%%d
100
AcDbText
  0
ENDBLK
  5
314
100
AcDbEntity
  8
0
100
AcDbBlockEnd
  0
BLOCK
  5
317
100
AcDbEntity
  8
0
100
AcDbBlockBegin
  2
*B61
 70
     0
 10
0.0
 20
0.0
 30
0.0
  3
*B61
  1

  0
TEXT
  5
318
100
AcDbEntity
  8
TEXT
  6
Continuous
 62
     0
100
AcDbText
 10
647.5
 20
346.421955
 30
0.0
 40
7.0
  1
30
 50
90.0
100
AcDbText
  0
ENDBLK
  5
319
100
AcDbEntity
  8
0
100
AcDbBlockEnd
  0
BLOCK
  5
31C
100
AcDbEntity
  8
0
100
AcDbBlockBegin
  2
*B62
 70
     0
 10
0.0
 20
0.0
 30
0.0
  3
*B62
  1

  0
TEXT
  5
31D
100
AcDbEntity
  8
TEXT
  6
Continuous
 62
     0
100
AcDbText
 10
621.5
 20
346.421955
 30
0.0
 40
7.0
  1
16
 50
90.0
100
AcDbText
  0
ENDBLK
  5
31E
100
AcDbEntity
  8
0
100
AcDbBlockEnd
  0
BLOCK
  5
321
100
AcDbEntity
  8
0
100
AcDbBlockBegin
  2
*B63
 70
     0
 10
0.0
 20
0.0
 30
0.0
  3
*B63
  1

  0
TEXT
  5
322
100
AcDbEntity
  8
TEXT
  6
Continuous
 62
     0
100
AcDbText
 10
506.935037
 20
343.5
 30
0.0
 40
7.0
  1
16
100
AcDbText
  0
ENDBLK
  5
323
100
AcDbEntity
  8
0
100
AcDbBlockEnd
  0
BLOCK
  5
326
100
AcDbEntity
  8
0
100
AcDbBlockBegin
  2
*B64
 70
     0
 10
0.0
 20
0.0
 30
0.0
  3
*B64
  1

  0
TEXT
  5
327
100
AcDbEntity
  8
TEXT
  6
Continuous
 62
     0
100
AcDbText
 10
547.435037
 20
474.5
 30
0.0
 40
7.0
  1
18
100
AcDbText
  0
ENDBLK
  5
328
100
AcDbEntity
  8
0
100
AcDbBlockEnd
  0
BLOCK
  5
32B
100
AcDbEntity
  8
0
100
AcDbBlockBegin
  2
*B65
 70
     0
 10
0.0
 20
0.0
 30
0.0
  3
*B65
  1

  0
TEXT
  5
32C
100
AcDbEntity
  8
TEXT
  6
Continuous
 62
     0
100
AcDbText
 10
565.435037
 20
262.21555
 30
0.0
 40
7.0
  1
10
100
AcDbText
  0
ENDBLK
  5
32D
100
AcDbEntity
  8
0
100
AcDbBlockEnd
  0
BLOCK
  5
330
100
AcDbEntity
  8
0
100
AcDbBlockBegin
  2
*B66
 70
     0
 10
0.0
 20
0.0
 30
0.0
  3
*B66
  1

  0
TEXT
  5
331
100
AcDbEntity
  8
TEXT
  6
Continuous
 62
     0
100
AcDbText
 10
506.935037
 20
262.21555
 30
0.0
 40
7.0
  1
16
100
AcDbText
  0
ENDBLK
  5
332
100
AcDbEntity
  8
0
100
AcDbBlockEnd
  0
BLOCK
  5
335
100
AcDbEntity
  8
0
100
AcDbBlockBegin
  2
*B67
 70
     0
 10
0.0
 20
0.0
 30
0.0
  3
*B67
  1

  0
TEXT
  5
336
100
AcDbEntity
  8
TEXT
  6
Continuous
 62
     0
100
AcDbText
 10
506.935037
 20
236.5
 30
0.0
 40
7.0
  1
36
100
AcDbText
  0
ENDBLK
  5
337
100
AcDbEntity
  8
0
100
AcDbBlockEnd
  0
BLOCK
  5
33A
100
AcDbEntity
  8
0
100
AcDbBlockBegin
  2
*B68
 70
     0
 10
0.0
 20
0.0
 30
0.0
  3
*B68
  1

  0
TEXT
  5
33B
100
AcDbEntity
  8
TEXT
  6
Continuous
 62
     0
100
AcDbText
 10
614.979167
 20
450.5
 30
0.0
 40
7.0
  1
1
100
AcDbText
  0
ENDBLK
  5
33C
100
AcDbEntity
  8
0
100
AcDbBlockEnd
  0
BLOCK
  5
33F
100
AcDbEntity
  8
0
100
AcDbBlockBegin
  2
*B69
 70
     0
 10
0.0
 20
0.0
 30
0.0
  3
*B69
  1

  0
TEXT
  5
340
100
AcDbEntity
  8
TEXT
  6
Continuous
 62
     0
100
AcDbText
 10
447.5
 20
450.5
 30
0.0
 40
7.0
  1
G1/8"
100
AcDbText
  0
ENDBLK
  5
341
100
AcDbEntity
  8
0
100
AcDbBlockEnd
  0
BLOCK
  5
344
100
AcDbEntity
  8
0
100
AcDbBlockBegin
  2
*B70
 70
     0
 10
0.0
 20
0.0
 30
0.0
  3
*B70
  1

  0
TEXT
  5
345
100
AcDbEntity
  8
TEXT
  6
Continuous
 62
     0
100
AcDbText
 10
425.935037
 20
498.5
 30
0.0
 40
7.0
  1
72
100
AcDbText
  0
ENDBLK
  5
346
100
AcDbEntity
  8
0
100
AcDbBlockEnd
  0
BLOCK
  5
349
100
AcDbEntity
  8
0
100
AcDbBlockBegin
  2
*B71
 70
     0
 10
0.0
 20
0.0
 30
0.0
  3
*B71
  1

  0
TEXT
  5
34A
100
AcDbEntity
  8
TEXT
  6
Continuous
 62
     0
100
AcDbText
 10
243.5
 20
355.421955
 30
0.0
 40
7.0
  1
26
 50
90.0
100
AcDbText
  0
ENDBLK
  5
34B
100
AcDbEntity
  8
0
100
AcDbBlockEnd
  0
BLOCK
  5
34E
100
AcDbEntity
  8
0
100
AcDbBlockBegin
  2
*B72
 70
     0
 10
0.0
 20
0.0
 30
0.0
  3
*B72
  1

  0
TEXT
  5
34F
100
AcDbEntity
  8
TEXT
  6
Continuous
 62
     0
100
AcDbText
 10
243.5
 20
255.666667
 30
0.0
 40
7.0
  1
4
 50
90.0
100
AcDbText
  0
ENDBLK
  5
350
100
AcDbEntity
  8
0
100
AcDbBlockEnd
  0
BLOCK
  5
353
100
AcDbEntity
  8
0
100
AcDbBlockBegin
  2
*B73
 70
     0
 10
0.0
 20
0.0
 30
0.0
  3
*B73
  1

  0
TEXT
  5
354
100
AcDbEntity
  8
TEXT
  6
Continuous
 62
     0
100
AcDbText
 10
244.5
 20
150.168866
 30
0.0
 40
7.0
  1
16
 50
90.0
100
AcDbText
  0
ENDBLK
  5
355
100
AcDbEntity
  8
0
100
AcDbBlockEnd
  0
ENDSEC
  0
SECTION
  2
ENTITIES
  0
INSERT
  5
110
100
AcDbEntity
  8
0
  6
HIDDEN
 62
   174
100
AcDbBlockReference
  2
*B1
 10
0.0
 20
0.0
 30
0.0
  0
INSERT
  5
17E
100
AcDbEntity
  8
0
  6
Continuous
 62
   174
100
AcDbBlockReference
  2
*B2
 10
0.0
 20
0.0
 30
0.0
  0
INSERT
  5
184
100
AcDbEntity
  8
0
  6
Continuous
 62
   172
100
AcDbBlockReference
  2
*B3
 10
0.0
 20
0.0
 30
0.0
  0
INSERT
  5
18F
100
AcDbEntity
  8
0
  6
Continuous
 62
   172
100
AcDbBlockReference
  2
*B4
 10
0.0
 20
0.0
 30
0.0
  0
INSERT
  5
198
100
AcDbEntity
  8
0
  6
Continuous
 62
   172
100
AcDbBlockReference
  2
*B6
 10
0.0
 20
0.0
 30
0.0
  0
INSERT
  5
1A3
100
AcDbEntity
  8
0
  6
Continuous
 62
   172
100
AcDbBlockReference
  2
*B7
 10
0.0
 20
0.0
 30
0.0
  0
INSERT
  5
1AD
100
AcDbEntity
  8
0
  6
Continuous
 62
     0
100
AcDbBlockReference
  2
*B9
 10
0.0
 20
0.0
 30
0.0
  0
INSERT
  5
1B4
100
AcDbEntity
  8
0
  6
Continuous
 62
     0
100
AcDbBlockReference
  2
*B10
 10
0.0
 20
0.0
 30
0.0
  0
INSERT
  5
1BB
100
AcDbEntity
  8
0
  6
Continuous
 62
     0
100
AcDbBlockReference
  2
*B11
 10
0.0
 20
0.0
 30
0.0
  0
INSERT
  5
1C2
100
AcDbEntity
  8
0
  6
Continuous
 62
     0
100
AcDbBlockReference
  2
*B12
 10
0.0
 20
0.0
 30
0.0
  0
INSERT
  5
1C9
100
AcDbEntity
  8
0
  6
Continuous
 62
     0
100
AcDbBlockReference
  2
*B13
 10
0.0
 20
0.0
 30
0.0
  0
INSERT
  5
1D0
100
AcDbEntity
  8
0
  6
Continuous
 62
     0
100
AcDbBlockReference
  2
*B14
 10
0.0
 20
0.0
 30
0.0
  0
INSERT
  5
1D7
100
AcDbEntity
  8
0
  6
Continuous
 62
     0
100
AcDbBlockReference
  2
*B15
 10
0.0
 20
0.0
 30
0.0
  0
INSERT
  5
1DE
100
AcDbEntity
  8
0
  6
Continuous
 62
     0
100
AcDbBlockReference
  2
*B16
 10
0.0
 20
0.0
 30
0.0
  0
INSERT
  5
1E5
100
AcDbEntity
  8
0
  6
Continuous
 62
     0
100
AcDbBlockReference
  2
*B17
 10
0.0
 20
0.0
 30
0.0
  0
INSERT
  5
1EC
100
AcDbEntity
  8
0
  6
Continuous
 62
     0
100
AcDbBlockReference
  2
*B18
 10
0.0
 20
0.0
 30
0.0
  0
INSERT
  5
1F3
100
AcDbEntity
  8
0
  6
Continuous
 62
     0
100
AcDbBlockReference
  2
*B19
 10
0.0
 20
0.0
 30
0.0
  0
INSERT
  5
1FA
100
AcDbEntity
  8
0
  6
Continuous
 62
     0
100
AcDbBlockReference
  2
*B20
 10
0.0
 20
0.0
 30
0.0
  0
INSERT
  5
201
100
AcDbEntity
  8
0
  6
Continuous
 62
     0
100
AcDbBlockReference
  2
*B21
 10
0.0
 20
0.0
 30
0.0
  0
INSERT
  5
206
100
AcDbEntity
  8
0
  6
Continuous
 62
     8
100
AcDbBlockReference
  2
*B22
 10
0.0
 20
0.0
 30
0.0
  0
INSERT
  5
20C
100
AcDbEntity
  8
0
  6
Continuous
 62
     8
100
AcDbBlockReference
  2
*B23
 10
0.0
 20
0.0
 30
0.0
  0
INSERT
  5
21B
100
AcDbEntity
  8
0
  6
Continuous
 62
     8
100
AcDbBlockReference
  2
*B24
 10
0.0
 20
0.0
 30
0.0
  0
INSERT
  5
221
100
AcDbEntity
  8
0
  6
Continuous
 62
     8
100
AcDbBlockReference
  2
*B25
 10
0.0
 20
0.0
 30
0.0
  0
INSERT
  5
226
100
AcDbEntity
  8
0
  6
Continuous
 62
     8
100
AcDbBlockReference
  2
*B26
 10
0.0
 20
0.0
 30
0.0
  0
INSERT
  5
22B
100
AcDbEntity
  8
0
  6
Continuous
 62
     8
100
AcDbBlockReference
  2
*B27
 10
0.0
 20
0.0
 30
0.0
  0
INSERT
  5
230
100
AcDbEntity
  8
0
  6
Continuous
 62
     8
100
AcDbBlockReference
  2
*B28
 10
0.0
 20
0.0
 30
0.0
  0
INSERT
  5
235
100
AcDbEntity
  8
0
  6
Continuous
 62
     8
100
AcDbBlockReference
  2
*B29
 10
0.0
 20
0.0
 30
0.0
  0
INSERT
  5
23A
100
AcDbEntity
  8
0
  6
Continuous
 62
     8
100
AcDbBlockReference
  2
*B30
 10
0.0
 20
0.0
 30
0.0
  0
INSERT
  5
23F
100
AcDbEntity
  8
0
  6
Continuous
 62
     8
100
AcDbBlockReference
  2
*B31
 10
0.0
 20
0.0
 30
0.0
  0
INSERT
  5
248
100
AcDbEntity
  8
0
  6
Continuous
 62
     8
100
AcDbBlockReference
  2
*B32
 10
0.0
 20
0.0
 30
0.0
  0
INSERT
  5
24E
100
AcDbEntity
  8
0
  6
Continuous
 62
     8
100
AcDbBlockReference
  2
*B33
 10
0.0
 20
0.0
 30
0.0
  0
INSERT
  5
253
100
AcDbEntity
  8
0
  6
Continuous
 62
     8
100
AcDbBlockReference
  2
*B34
 10
0.0
 20
0.0
 30
0.0
  0
INSERT
  5
25E
100
AcDbEntity
  8
0
  6
Continuous
 62
     8
100
AcDbBlockReference
  2
*B35
 10
0.0
 20
0.0
 30
0.0
  0
INSERT
  5
266
100
AcDbEntity
  8
0
  6
Continuous
 62
     8
100
AcDbBlockReference
  2
*B36
 10
0.0
 20
0.0
 30
0.0
  0
INSERT
  5
26C
100
AcDbEntity
  8
0
  6
Continuous
 62
     8
100
AcDbBlockReference
  2
*B37
 10
0.0
 20
0.0
 30
0.0
  0
INSERT
  5
273
100
AcDbEntity
  8
0
  6
Continuous
 62
     8
100
AcDbBlockReference
  2
*B38
 10
0.0
 20
0.0
 30
0.0
  0
INSERT
  5
278
100
AcDbEntity
  8
0
  6
Continuous
 62
     8
100
AcDbBlockReference
  2
*B39
 10
0.0
 20
0.0
 30
0.0
  0
INSERT
  5
28C
100
AcDbEntity
  8
0
  6
Continuous
 62
     8
100
AcDbBlockReference
  2
*B40
 10
0.0
 20
0.0
 30
0.0
  0
INSERT
  5
294
100
AcDbEntity
  8
0
  6
Continuous
 62
     8
100
AcDbBlockReference
  2
*B41
 10
0.0
 20
0.0
 30
0.0
  0
INSERT
  5
299
100
AcDbEntity
  8
0
  6
Continuous
 62
     8
100
AcDbBlockReference
  2
*B42
 10
0.0
 20
0.0
 30
0.0
  0
INSERT
  5
29F
100
AcDbEntity
  8
0
  6
Continuous
 62
     8
100
AcDbBlockReference
  2
*B43
 10
0.0
 20
0.0
 30
0.0
  0
INSERT
  5
2BA
100
AcDbEntity
  8
0
  6
Continuous
 62
     8
100
AcDbBlockReference
  2
*B44
 10
0.0
 20
0.0
 30
0.0
  0
INSERT
  5
2C0
100
AcDbEntity
  8
0
  6
Continuous
 62
     8
100
AcDbBlockReference
  2
*B45
 10
0.0
 20
0.0
 30
0.0
  0
INSERT
  5
2C7
100
AcDbEntity
  8
0
  6
Continuous
 62
     8
100
AcDbBlockReference
  2
*B46
 10
0.0
 20
0.0
 30
0.0
  0
INSERT
  5
2CD
100
AcDbEntity
  8
0
  6
Continuous
 62
     6
100
AcDbBlockReference
  2
*B47
 10
0.0
 20
0.0
 30
0.0
  0
INSERT
  5
2D3
100
AcDbEntity
  8
0
  6
Continuous
 62
     6
100
AcDbBlockReference
  2
*B48
 10
0.0
 20
0.0
 30
0.0
  0
INSERT
  5
2D9
100
AcDbEntity
  8
0
  6
Continuous
 62
     6
100
AcDbBlockReference
  2
*B49
 10
0.0
 20
0.0
 30
0.0
  0
INSERT
  5
2DF
100
AcDbEntity
  8
0
  6
Continuous
 62
     6
100
AcDbBlockReference
  2
*B50
 10
0.0
 20
0.0
 30
0.0
  0
INSERT
  5
2E5
100
AcDbEntity
  8
0
  6
Continuous
 62
     6
100
AcDbBlockReference
  2
*B51
 10
0.0
 20
0.0
 30
0.0
  0
INSERT
  5
2EB
100
AcDbEntity
  8
0
  6
Continuous
 62
     6
100
AcDbBlockReference
  2
*B52
 10
0.0
 20
0.0
 30
0.0
  0
INSERT
  5
2F2
100
AcDbEntity
  8
0
  6
Continuous
 62
     0
100
AcDbBlockReference
  2
*B53
 10
0.0
 20
0.0
 30
0.0
  0
INSERT
  5
2F7
100
AcDbEntity
  8
TEXT
  6
Continuous
 62
     0
100
AcDbBlockReference
  2
*B54
 10
0.0
 20
0.0
 30
0.0
  0
INSERT
  5
2FC
100
AcDbEntity
  8
TEXT
  6
Continuous
 62
     0
100
AcDbBlockReference
  2
*B55
 10
0.0
 20
0.0
 30
0.0
  0
INSERT
  5
301
100
AcDbEntity
  8
TEXT
  6
Continuous
 62
     0
100
AcDbBlockReference
  2
*B56
 10
0.0
 20
0.0
 30
0.0
  0
INSERT
  5
306
100
AcDbEntity
  8
TEXT
  6
Continuous
 62
     0
100
AcDbBlockReference
  2
*B57
 10
0.0
 20
0.0
 30
0.0
  0
INSERT
  5
30B
100
AcDbEntity
  8
TEXT
  6
Continuous
 62
     0
100
AcDbBlockReference
  2
*B58
 10
0.0
 20
0.0
 30
0.0
  0
INSERT
  5
310
100
AcDbEntity
  8
TEXT
  6
Continuous
 62
     0
100
AcDbBlockReference
  2
*B59
 10
0.0
 20
0.0
 30
0.0
  0
INSERT
  5
315
100
AcDbEntity
  8
TEXT
  6
Continuous
 62
     0
100
AcDbBlockReference
  2
*B60
 10
0.0
 20
0.0
 30
0.0
  0
INSERT
  5
31A
100
AcDbEntity
  8
TEXT
  6
Continuous
 62
     0
100
AcDbBlockReference
  2
*B61
 10
0.0
 20
0.0
 30
0.0
  0
INSERT
  5
31F
100
AcDbEntity
  8
TEXT
  6
Continuous
 62
     0
100
AcDbBlockReference
  2
*B62
 10
0.0
 20
0.0
 30
0.0
  0
INSERT
  5
324
100
AcDbEntity
  8
TEXT
  6
Continuous
 62
     0
100
AcDbBlockReference
  2
*B63
 10
0.0
 20
0.0
 30
0.0
  0
INSERT
  5
329
100
AcDbEntity
  8
TEXT
  6
Continuous
 62
     0
100
AcDbBlockReference
  2
*B64
 10
0.0
 20
0.0
 30
0.0
  0
INSERT
  5
32E
100
AcDbEntity
  8
TEXT
  6
Continuous
 62
     0
100
AcDbBlockReference
  2
*B65
 10
0.0
 20
0.0
 30
0.0
  0
INSERT
  5
333
100
AcDbEntity
  8
TEXT
  6
Continuous
 62
     0
100
AcDbBlockReference
  2
*B66
 10
0.0
 20
0.0
 30
0.0
  0
INSERT
  5
338
100
AcDbEntity
  8
TEXT
  6
Continuous
 62
     0
100
AcDbBlockReference
  2
*B67
 10
0.0
 20
0.0
 30
0.0
  0
INSERT
  5
33D
100
AcDbEntity
  8
TEXT
  6
Continuous
 62
     0
100
AcDbBlockReference
  2
*B68
 10
0.0
 20
0.0
 30
0.0
  0
INSERT
  5
342
100
AcDbEntity
  8
TEXT
  6
Continuous
 62
     0
100
AcDbBlockReference
  2
*B69
 10
0.0
 20
0.0
 30
0.0
  0
INSERT
  5
347
100
AcDbEntity
  8
TEXT
  6
Continuous
 62
     0
100
AcDbBlockReference
  2
*B70
 10
0.0
 20
0.0
 30
0.0
  0
INSERT
  5
34C
100
AcDbEntity
  8
TEXT
  6
Continuous
 62
     0
100
AcDbBlockReference
  2
*B71
 10
0.0
 20
0.0
 30
0.0
  0
INSERT
  5
351
100
AcDbEntity
  8
TEXT
  6
Continuous
 62
     0
100
AcDbBlockReference
  2
*B72
 10
0.0
 20
0.0
 30
0.0
  0
INSERT
  5
356
100
AcDbEntity
  8
TEXT
  6
Continuous
 62
     0
100
AcDbBlockReference
  2
*B73
 10
0.0
 20
0.0
 30
0.0
  0
ENDSEC
  0
SECTION
  2
OBJECTS
  0
DICTIONARY
  5
19
100
AcDbDictionary
280
     0
281
     1
  3
ACAD_GROUP
350
1A
  3
ACAD_MLINESTYLE
350
1B
  3
ACAD_LAYOUT
350
1E
  3
ACAD_PLOTSETTINGS
350
22
  3
ACAD_PLOTSTYLENAME
350
1F
  3
ACAD_WIPEOUT_VARS
350
23
  0
DICTIONARY
  5
1A
102
{ACAD_REACTORS
330
19
102
}
100
AcDbDictionary
280
     0
281
     1
  0
DICTIONARY
  5
1B
102
{ACAD_REACTORS
330
19
102
}
100
AcDbDictionary
280
     0
281
     1
  3
Standard
350
1C
  0
MLINESTYLE
  5
1C
102
{ACAD_REACTORS
330
1B
102
}
100
AcDbMlineStyle
  2
Standard
 70
     0
  3

 62
     0
 51
90.0
 52
90.0
 71
     2
 49
0.5
 62
   256
  6
BYLAYER
 49
-0.5
 62
   256
  6
BYLAYER
  0
ACDBDICTIONARYWDFLT
  5
1F
102
{ACAD_REACTORS
330
19
102
}
100
AcDbDictionary
281
     1
  3
Normal
350
1D
100
AcDbDictionaryWithDefault
340
1D
  0
ACDBPLACEHOLDER
  5
1D
102
{ACAD_REACTORS
330
1F
102
}
  0
LAYOUT
  5
20
102
{ACAD_REACTORS
330
1E
102
}
100
AcDbPlotSettings
  1

  2

  4

  6

 40
0.0
 41
0.0
 42
0.0
 43
0.0
 44
0.0
 45
0.0
 46
0.0
 47
0.0
 48
0.0
 49
0.0
140
0.0
141
0.0
142
1.0
143
1.0
 70
     0
 72
     0
 73
     0
 74
     0
  7

 75
     0
147
1.0
148
0.0
149
0.0
100
AcDbLayout
  1
Model
 70
     0
 71
     0
 10
0.0
 20
0.0
 11
0.0
 21
0.0
 12
0.0
 22
0.0
 32
0.0
 14
0.0
 24
0.0
 34
0.0
 15
0.0
 25
0.0
 35
0.0
146
0.0
 13
0.0
 23
0.0
 33
0.0
 16
0.0
 26
0.0
 36
0.0
 17
0.0
 27
0.0
 37
0.0
 76
     0
330
A
331
0
345
0
346
0
  0
LAYOUT
  5
21
102
{ACAD_REACTORS
330
1E
102
}
100
AcDbPlotSettings
  1

  2

  4

  6

 40
0.0
 41
0.0
 42
0.0
 43
0.0
 44
0.0
 45
0.0
 46
0.0
 47
0.0
 48
0.0
 49
0.0
140
0.0
141
0.0
142
1.0
143
1.0
 70
     0
 72
     0
 73
     0
 74
     0
  7

 75
     0
147
1.0
148
0.0
149
0.0
100
AcDbLayout
  1
Layout1
 70
     0
 71
     0
 10
0.0
 20
0.0
 11
0.0
 21
0.0
 12
0.0
 22
0.0
 32
0.0
 14
0.0
 24
0.0
 34
0.0
 15
0.0
 25
0.0
 35
0.0
146
0.0
 13
0.0
 23
0.0
 33
0.0
 16
0.0
 26
0.0
 36
0.0
 17
0.0
 27
0.0
 37
0.0
 76
     0
330
B
331
0
345
0
346
0
  0
DICTIONARY
  5
1E
102
{ACAD_REACTORS
330
19
102
}
100
AcDbDictionary
280
     0
281
     1
  3
Layout1
350
21
  3
Model
350
20
  0
DICTIONARY
  5
22
102
{ACAD_REACTORS
330
19
102
}
100
AcDbDictionary
280
     0
281
     1
  0
WIPEOUTVARIABLES
  5
23
100
AcDbWipeoutVariables
 70
     1
  0
ENDSEC
  0
EOF
