  0
SECTION
  2
HEADER
  9
$ACADVER
  1
AC1015
  9
$ACADMAINTVER
 70
     6
  9
$DWGCODEPAGE
  3
DOS850
  9
$INSBASE
 10
0.0
 20
0.0
 30
0.0
  9
$EXTMIN
 10
0.0
 20
0.0
 30
0.0
  9
$EXTMAX
 10
595.0
 20
420.0
 30
0.0
  9
$LIMMIN
 10
0.0
 20
0.0
  9
$LIMMAX
 10
595.0
 20
420.0
  9
$ORTHOMODE
 70
     0
  9
$REGENMODE
 70
     1
  9
$FILLMODE
 70
     1
  9
$QTEXTMODE
 70
     0
  9
$MIRRTEXT
 70
     1
  9
$LTSCALE
 40
25.4
  9
$ATTMODE
 70
     1
  9
$TEXTSIZE
 40
3.5
  9
$TRACEWID
 40
0.05
  9
$TEXTSTYLE
  7
Standard
  9
$CLAYER
  8
0
  9
$CELTYPE
  6
Continuous
  9
$CECOLOR
 62
   256
  9
$CELTSCALE
 40
1.0
  9
$DISPSILH
 70
     0
  9
$DIMSCALE
 40
1.0
  9
$DIMASZ
 40
5.0
  9
$DIMEXO
 40
3.0
  9
$DIMDLI
 40
0.38
  9
$DIMRND
 40
0.0
  9
$DIMDLE
 40
0.0
  9
$DIMEXE
 40
2.0
  9
$DIMTP
 40
0.0
  9
$DIMTM
 40
0.0
  9
$DIMTXT
 40
3.5
  9
$DIMCEN
 40
4.0
  9
$DIMTSZ
 40
0.0
  9
$DIMTOL
 70
     0
  9
$DIMLIM
 70
     0
  9
$DIMTIH
 70
     1
  9
$DIMTOH
 70
     1
  9
$DIMSE1
 70
     0
  9
$DIMSE2
 70
     0
  9
$DIMTAD
 70
     0
  9
$DIMZIN
 70
     0
  9
$DIMBLK
  1

  9
$DIMASO
 70
     1
  9
$DIMSHO
 70
     1
  9
$DIMPOST
  1

  9
$DIMAPOST
  1

  9
$DIMALT
 70
     0
  9
$DIMALTD
 70
     2
  9
$DIMALTF
 40
25.4
  9
$DIMLFAC
 40
1.0
  9
$DIMTOFL
 70
     0
  9
$DIMTVP
 40
0.0
  9
$DIMTIX
 70
     0
  9
$DIMSOXD
 70
     0
  9
$DIMSAH
 70
     0
  9
$DIMBLK1
  1

  9
$DIMBLK2
  1

  9
$DIMSTYLE
  2
Standard
  9
$DIMCLRD
 70
     0
  9
$DIMCLRE
 70
     0
  9
$DIMCLRT
 70
     0
  9
$DIMTFAC
 40
1.0
  9
$DIMGAP
 40
1.0
  9
$DIMJUST
 70
     0
  9
$DIMSD1
 70
     0
  9
$DIMSD2
 70
     0
  9
$DIMTOLJ
 70
     1
  9
$DIMTZIN
 70
     0
  9
$DIMALTZ
 70
     0
  9
$DIMALTTZ
 70
     0
  9
$DIMUPT
 70
     0
  9
$DIMDEC
 70
     4
  9
$DIMTDEC
 70
     4
  9
$DIMALTU
 70
     2
  9
$DIMALTTD
 70
     2
  9
$DIMTXSTY
  7
Standard
  9
$DIMAUNIT
 70
     0
  9
$DIMADEC
 70
     0
  9
$DIMALTRND
 40
0.0
  9
$DIMAZIN
 70
     0
  9
$DIMDSEP
 70
     0
  9
$DIMATFIT
 70
     3
  9
$DIMFRAC
 70
     0
  9
$DIMLDRBLK
  1

  9
$DIMLUNIT
 70
     2
  9
$DIMLWD
 70
     0
  9
$DIMLWE
 70
     0
  9
$DIMTMOVE
 70
     0
  9
$LUNITS
 70
     2
  9
$LUPREC
 70
     4
  9
$SKETCHINC
 40
0.1
  9
$FILLETRAD
 40
0.0
  9
$AUNITS
 70
     0
  9
$AUPREC
 70
     0
  9
$MENU
  1
acad
  9
$ELEVATION
 40
0.0
  9
$PELEVATION
 40
0.0
  9
$THICKNESS
 40
0.0
  9
$LIMCHECK
 70
     0
  9
$CHAMFERA
 40
0.0
  9
$CHAMFERB
 40
0.0
  9
$CHAMFERC
 40
0.0
  9
$CHAMFERD
 40
0.0
  9
$SKPOLY
 70
     0
  9
$TDCREATE
 40
0.000000000
  9
$TDUCREATE
 40
0.000000000
  9
$TDUPDATE
 40
0.000000000
  9
$TDUUPDATE
 40
0.000000000
  9
$TDINDWG
 40
0.0000000000
  9
$TDUSRTIMER
 40
0.0000000000
  9
$USRTIMER
 70
     1
  9
$ANGBASE
 50
0.0
  9
$ANGDIR
 70
     0
  9
$PDMODE
 70
     0
  9
$PDSIZE
 40
0.0
  9
$PLINEWID
 40
0.0
  9
$SPLFRAME
 70
     0
  9
$SPLINETYPE
 70
     6
  9
$SPLINESEGS
 70
     8
  9
$HANDSEED
  5
3D2
  9
$SURFTAB1
 70
     6
  9
$SURFTAB2
 70
     6
  9
$SURFTYPE
 70
     6
  9
$SURFU
 70
     6
  9
$SURFV
 70
     6
  9
$UCSBASE
  2

  9
$UCSNAME
  2

  9
$UCSORG
 10
0.0
 20
0.0
 30
0.0
  9
$UCSXDIR
 10
1.0
 20
0.0
 30
0.0
  9
$UCSYDIR
 10
0.0
 20
1.0
 30
0.0
  9
$UCSORTHOREF
  2

  9
$UCSORTHOVIEW
 70
     0
  9
$UCSORGTOP
 10
0.0
 20
0.0
 30
0.0
  9
$UCSORGBOTTOM
 10
0.0
 20
0.0
 30
0.0
  9
$UCSORGLEFT
 10
0.0
 20
0.0
 30
0.0
  9
$UCSORGRIGHT
 10
0.0
 20
0.0
 30
0.0
  9
$UCSORGFRONT
 10
0.0
 20
0.0
 30
0.0
  9
$UCSORGBACK
 10
0.0
 20
0.0
 30
0.0
  9
$PUCSBASE
  2

  9
$PUCSNAME
  2

  9
$PUCSORG
 10
0.0
 20
0.0
 30
0.0
  9
$PUCSXDIR
 10
1.0
 20
0.0
 30
0.0
  9
$PUCSYDIR
 10
0.0
 20
1.0
 30
0.0
  9
$PUCSORTHOREF
  2

  9
$PUCSORTHOVIEW
 70
     0
  9
$PUCSORGTOP
 10
0.0
 20
0.0
 30
0.0
  9
$PUCSORGBOTTOM
 10
0.0
 20
0.0
 30
0.0
  9
$PUCSORGLEFT
 10
0.0
 20
0.0
 30
0.0
  9
$PUCSORGRIGHT
 10
0.0
 20
0.0
 30
0.0
  9
$PUCSORGFRONT
 10
0.0
 20
0.0
 30
0.0
  9
$PUCSORGBACK
 10
0.0
 20
0.0
 30
0.0
  9
$USERI1
 70
     0
  9
$USERI2
 70
     0
  9
$USERI3
 70
     0
  9
$USERI4
 70
     0
  9
$USERI5
 70
     0
  9
$USERR1
 40
0.0
  9
$USERR2
 40
0.0
  9
$USERR3
 40
0.0
  9
$USERR4
 40
0.0
  9
$USERR5
 40
0.0
  9
$WORLDVIEW
 70
     1
  9
$SHADEDGE
 70
     3
  9
$SHADEDIF
 70
    70
  9
$TILEMODE
 70
     1
  9
$MAXACTVP
 70
    16
  9
$PINSBASE
 10
0.0
 20
0.0
 30
0.0
  9
$PLIMCHECK
 70
     0
  9
$PEXTMIN
 10
1.000000E+20
 20
1.000000E+20
 30
1.000000E+20
  9
$PEXTMAX
 10
-1.000000E+20
 20
-1.000000E+20
 30
-1.000000E+20
  9
$PLIMMIN
 10
0.0
 20
0.0
  9
$PLIMMAX
 10
595.0
 20
420.0
  9
$UNITMODE
 70
     0
  9
$VISRETAIN
 70
     0
  9
$PLINEGEN
 70
     1
  9
$PSLTSCALE
 70
     0
  9
$TREEDEPTH
 70
  3020
  9
$CMLSTYLE
  2
Standard
  9
$CMLJUST
 70
     0
  9
$CMLSCALE
 40
1.0
  9
$PROXYGRAPHICS
 70
     0
  9
$MEASUREMENT
 70
     0
  9
$CELWEIGHT
370
     0
  9
$ENDCAPS
280
     0
  9
$JOINSTYLE
280
     0
  9
$LWDISPLAY
290
     0
  9
$INSUNITS
 70
     0
  9
$HYPERLINKBASE
  1

  9
$XEDIT
290
     1
  9
$CEPSNTYPE
380
     0
  9
$PSTYLEMODE
290
     0
  9
$FINGERPRINTGUID
  2

  9
$VERSIONGUID
  2

  9
$EXTNAMES
290
     1
  9
$PSVPSCALE
 40
0.0
  0
ENDSEC
  0
SECTION
  2
CLASSES
  0
CLASS
  1
LWPOLYLINE
  2
AcDbPolyline
  3
"AutoCAD"
 90
        0
280
     0
281
     1
  0
CLASS
  1
IMAGE
  2
AcDbRasterImage
  3
ISM
 90
      127
280
     0
281
     1
  0
CLASS
  1
OLE2FRAME
  2
AcDbOle2Frame
  3
""
 90
        0
280
     0
281
     1
  0
CLASS
  1
HATCH
  2
AcDbHatch
  3
"ACAD_SEDONA"
 90
        0
280
     0
281
     1
  0
CLASS
  1
DICTIONARYVAR
  2
AcDbDictionaryVar
  3
"AutoCAD"
 90
        0
280
     0
281
     0
  0
CLASS
  1
RASTERVARIABLES
  2
AcDbRasterVariables
  3
ISM
 90
        0
280
     0
281
     0
  0
CLASS
  1
IMAGEDEF
  2
AcDbRasterImageDef
  3
ISM
 90
        0
280
     0
281
     0
  0
CLASS
  1
IMAGEDEF_REACTOR
  2
AcDbRasterImageDefReactor
  3
ISM
 90
        1
280
     0
281
     0
  0
CLASS
  1
IDBUFFER
  2
AcDbIdBuffer
  3
"Acad"
 90
        0
280
     0
281
     0
  0
CLASS
  1
SPATIAL_FILTER
  2
AcDbSpatialFilter
  3
"Acad"
 90
        0
280
     0
281
     0
  0
CLASS
  1
XRECORD
  2
AcDbXrecord
  3
"<Built In>"
 90
        0
280
     0
281
     0
  0
CLASS
  1
SORTENTSTABLE
  2
AcDbSortentsTable
  3
"AutoCAD"
 90
        0
280
     0
281
     0
  0
CLASS
  1
LAYER_INDEX
  2
AcDbLayerIndex
  3
"Acad"
 90
        0
280
     0
281
     0
  0
CLASS
  1
SPATIAL_INDEX
  2
AcDbSpatialIndex
  3
"Acad"
 90
        0
280
     0
281
     0
  0
CLASS
  1
OBJECT_PTR
  2
CAseDLPNTableRecord
  3
"ASE-LPNTableRecord"
 90
        1
280
     0
281
     0
  0
CLASS
  1
LAYOUT
  2
AcDbLayout
  3
"AutoCAD 2000"
 90
        1
280
     0
281
     0
  0
CLASS
  1
PLOTSETTINGS
  2
AcDbPlotSettings
  3
"AutoCAD 2000"
 90
        1
280
     0
281
     0
  0
CLASS
  1
ACDBDICTIONARYWDFLT
  2
AcDbDictionaryWithDefault
  3
"AutoCAD 2000"
 90
        1
280
     0
281
     0
  0
CLASS
  1
ACDBPLACEHOLDER
  2
AcDbPlaceHolder
  3
"AutoCAD 2000"
 90
        1
280
     0
281
     0
  0
CLASS
  1
VBA_PROJECT
  2
AcDbVbaProject
  3
"acadvba"
 90
        1
280
     0
281
     0
  0
CLASS
  1
WIPEOUT
  2
AcDbWipeout
  3
WipeOut|AutoCAD Express Tool|expresstools@autodesk.com
 90
      127
280
     0
281
     1
  0
CLASS
  1
WIPEOUTVARIABLES
  2
AcDbWipeoutVariables
  3
WipeOut|AutoCAD Express Tool|expresstools@autodesk.com
 90
        0
280
     0
281
     0
  0
CLASS
  1
RTEXT
  2
RText
  3
RText|AutoCAD Express Tool|expresstools@autodesk.com
 90
        0
280
     0
281
     1
  0
CLASS
  1
ARCALIGNEDTEXT
  2
AcDbArcAlignedText
  3
ATEXT|AutoCAD Express Tool|expresstools@autodesk.com
 90
        0
280
     0
281
     1
  0
ENDSEC
  0
SECTION
  2
TABLES
  0
TABLE
  2
VPORT
  5
7
100
AcDbSymbolTable
 70
     1
  0
VPORT
  5
15
100
AcDbSymbolTableRecord
100
AcDbViewportTableRecord
  2
*ACTIVE
 70
     0
 10
0.0
 20
0.0
 11
1.0
 21
1.0
 12
6.591288
 22
4.579184
 13
0.0
 23
0.0
 14
1.0
 24
1.0
 15
0.0
 25
0.0
 16
0.0
 26
0.0
 36
1.0
 17
0.0
 27
0.0
 37
0.0
 40
9.158369
 41
0.688564
 42
50.0
 43
0.0
 44
0.0
 50
0.0
 51
0.0
 71
     0
 72
   100
 73
     1
 74
     1
 75
     0
 76
     0
 77
     0
 78
     0
281
     0
 65
     0
110
0.0
120
0.0
130
0.0
111
1.0
121
0.0
131
0.0
112
0.0
122
1.0
132
0.0
345
0
346
0
 79
     0
146
0.0
  0
ENDTAB
  0
TABLE
  2
LTYPE
  5
4
100
AcDbSymbolTable
 70
     7
  0
LTYPE
  5
11
100
AcDbSymbolTableRecord
100
AcDbLinetypeTableRecord
  2
ByBlock
 70
    64
  3

 72
    65
 73
     0
 40
0.0
  0
LTYPE
  5
12
100
AcDbSymbolTableRecord
100
AcDbLinetypeTableRecord
  2
ByLayer
 70
    64
  3

 72
    65
 73
     0
 40
0.0
  0
LTYPE
  5
13
100
AcDbSymbolTableRecord
100
AcDbLinetypeTableRecord
  2
Continuous
 70
    64
  3
Solid line
 72
    65
 73
     0
 40
0.0
  0
LTYPE
  5
24
100
AcDbSymbolTableRecord
100
AcDbLinetypeTableRecord
  2
HIDDEN
 70
    64
  3
_ _ _ _ _ _ _ _ _ _ _ _ _ _ _ _ _ _ _ _ _ _ _ _
 72
    65
 73
     2
 40
0.1875
 49
0.125
 74
     0
 49
-0.0625
 74
     0
  0
LTYPE
  5
25
100
AcDbSymbolTableRecord
100
AcDbLinetypeTableRecord
  2
DOTTED
 70
    64
  3
...............................................
 72
    65
 73
     2
 40
0.125
 49
0.0
 74
     0
 49
-0.125
 74
     0
  0
LTYPE
  5
26
100
AcDbSymbolTableRecord
100
AcDbLinetypeTableRecord
  2
CENTER
 70
    64
  3
____ _ ____ _ ____ _ ____ _ ____ _ ____ _ ____ 
 72
    65
 73
     4
 40
1.125
 49
0.75
 74
     0
 49
-0.125
 74
     0
 49
0.125
 74
     0
 49
-0.125
 74
     0
  0
LTYPE
  5
27
100
AcDbSymbolTableRecord
100
AcDbLinetypeTableRecord
  2
PHANTOM
 70
    64
  3
______  __  __  ______  __  __  ______  __  __ 
 72
    65
 73
     6
 40
1.25
 49
0.625
 74
     0
 49
-0.125
 74
     0
 49
0.125
 74
     0
 49
-0.125
 74
     0
 49
0.125
 74
     0
 49
-0.125
 74
     0
  0
ENDTAB
  0
TABLE
  2
LAYER
  5
2
100
AcDbSymbolTable
 70
     2
  0
LAYER
  5
14
100
AcDbSymbolTableRecord
100
AcDbLayerTableRecord
  2
0
 70
     0
 62
     7
  6
Continuous
290
     1
370
    -3
390
1D
  0
LAYER
  5
28
100
AcDbSymbolTableRecord
100
AcDbLayerTableRecord
  2
TEXT
 70
     0
 62
     8
  6
Continuous
290
     1
370
    -3
390
1F
  0
ENDTAB
  0
TABLE
  2
STYLE
  5
3
100
AcDbSymbolTable
 70
     1
  0
STYLE
  5
17
100
AcDbSymbolTableRecord
100
AcDbTextStyleTableRecord
  2
Standard
 70
     0
 40
0.0
 41
1.0
 50
0.0
 71
     0
 42
0.0
  3
txt
  4

  0
ENDTAB
  0
TABLE
  2
VIEW
  5
5
100
AcDbSymbolTable
 70
     0
  0
ENDTAB
  0
TABLE
  2
UCS
  5
6
100
AcDbSymbolTable
 70
     0
  0
ENDTAB
  0
TABLE
  2
APPID
  5
8
100
AcDbSymbolTable
 70
     1
  0
APPID
  5
16
100
AcDbSymbolTableRecord
100
AcDbRegAppTableRecord
  2
ACAD
 70
     0
  0
ENDTAB
  0
TABLE
  2
DIMSTYLE
  5
9
100
AcDbSymbolTable
 70
     1
100
AcDbDimStyleTable
 71
     0
  0
DIMSTYLE
105
18
100
AcDbSymbolTableRecord
100
AcDbDimStyleTableRecord
  2
Standard
 70
     0
  3

  4

 40
1.0
 41
0.18
 42
0.0625
 43
0.38
 44
0.18
 45
0.0
 46
0.0
 47
0.0
 48
0.0
 71
     0
 72
     0
 73
     1
 74
     1
 75
     0
 76
     0
 77
     0
 78
     0
 79
     0
140
0.18
141
0.09
142
0.0
143
25.4
144
1.0
145
0.0
146
1.0
147
0.09
148
0.0
170
     0
171
     2
172
     0
173
     0
174
     0
175
     0
176
     0
177
     0
178
     0
179
     0
271
     4
272
     4
273
     2
274
     2
275
     0
276
     0
277
     2
278
    46
279
     0
280
     0
281
     0
282
     0
283
     1
284
     0
285
     0
286
     0
288
     0
340
17
341
0
342
0
343
0
344
0
371
    -2
372
    -2
  0
ENDTAB
  0
TABLE
  2
BLOCK_RECORD
  5
1
100
AcDbSymbolTable
 70
    85
  0
BLOCK_RECORD
  5
A
100
AcDbSymbolTableRecord
100
AcDbBlockTableRecord
  2
*MODEL_SPACE
340
20
  0
BLOCK_RECORD
  5
B
100
AcDbSymbolTableRecord
100
AcDbBlockTableRecord
  2
*PAPER_SPACE
340
21
  0
BLOCK_RECORD
  5
29
100
AcDbSymbolTableRecord
100
AcDbBlockTableRecord
  2
*B0
340
0
  0
BLOCK_RECORD
  5
2C
100
AcDbSymbolTableRecord
100
AcDbBlockTableRecord
  2
*B1
340
0
  0
BLOCK_RECORD
  5
132
100
AcDbSymbolTableRecord
100
AcDbBlockTableRecord
  2
*B2
340
0
  0
BLOCK_RECORD
  5
1B6
100
AcDbSymbolTableRecord
100
AcDbBlockTableRecord
  2
*B3
340
0
  0
BLOCK_RECORD
  5
1BC
100
AcDbSymbolTableRecord
100
AcDbBlockTableRecord
  2
*B4
340
0
  0
BLOCK_RECORD
  5
1C7
100
AcDbSymbolTableRecord
100
AcDbBlockTableRecord
  2
*B5
340
0
  0
BLOCK_RECORD
  5
1CA
100
AcDbSymbolTableRecord
100
AcDbBlockTableRecord
  2
*B6
340
0
  0
BLOCK_RECORD
  5
1D0
100
AcDbSymbolTableRecord
100
AcDbBlockTableRecord
  2
*B7
340
0
  0
BLOCK_RECORD
  5
1DB
100
AcDbSymbolTableRecord
100
AcDbBlockTableRecord
  2
*B8
340
0
  0
BLOCK_RECORD
  5
1DE
100
AcDbSymbolTableRecord
100
AcDbBlockTableRecord
  2
*B9
340
0
  0
BLOCK_RECORD
  5
1E5
100
AcDbSymbolTableRecord
100
AcDbBlockTableRecord
  2
*B10
340
0
  0
BLOCK_RECORD
  5
1EC
100
AcDbSymbolTableRecord
100
AcDbBlockTableRecord
  2
*B11
340
0
  0
BLOCK_RECORD
  5
1F3
100
AcDbSymbolTableRecord
100
AcDbBlockTableRecord
  2
*B12
340
0
  0
BLOCK_RECORD
  5
1FA
100
AcDbSymbolTableRecord
100
AcDbBlockTableRecord
  2
*B13
340
0
  0
BLOCK_RECORD
  5
201
100
AcDbSymbolTableRecord
100
AcDbBlockTableRecord
  2
*B14
340
0
  0
BLOCK_RECORD
  5
208
100
AcDbSymbolTableRecord
100
AcDbBlockTableRecord
  2
*B15
340
0
  0
BLOCK_RECORD
  5
20F
100
AcDbSymbolTableRecord
100
AcDbBlockTableRecord
  2
*B16
340
0
  0
BLOCK_RECORD
  5
216
100
AcDbSymbolTableRecord
100
AcDbBlockTableRecord
  2
*B17
340
0
  0
BLOCK_RECORD
  5
21D
100
AcDbSymbolTableRecord
100
AcDbBlockTableRecord
  2
*B18
340
0
  0
BLOCK_RECORD
  5
224
100
AcDbSymbolTableRecord
100
AcDbBlockTableRecord
  2
*B19
340
0
  0
BLOCK_RECORD
  5
22B
100
AcDbSymbolTableRecord
100
AcDbBlockTableRecord
  2
*B20
340
0
  0
BLOCK_RECORD
  5
232
100
AcDbSymbolTableRecord
100
AcDbBlockTableRecord
  2
*B21
340
0
  0
BLOCK_RECORD
  5
239
100
AcDbSymbolTableRecord
100
AcDbBlockTableRecord
  2
*B22
340
0
  0
BLOCK_RECORD
  5
240
100
AcDbSymbolTableRecord
100
AcDbBlockTableRecord
  2
*B23
340
0
  0
BLOCK_RECORD
  5
247
100
AcDbSymbolTableRecord
100
AcDbBlockTableRecord
  2
*B24
340
0
  0
BLOCK_RECORD
  5
24D
100
AcDbSymbolTableRecord
100
AcDbBlockTableRecord
  2
*B25
340
0
  0
BLOCK_RECORD
  5
257
100
AcDbSymbolTableRecord
100
AcDbBlockTableRecord
  2
*B26
340
0
  0
BLOCK_RECORD
  5
25F
100
AcDbSymbolTableRecord
100
AcDbBlockTableRecord
  2
*B27
340
0
  0
BLOCK_RECORD
  5
265
100
AcDbSymbolTableRecord
100
AcDbBlockTableRecord
  2
*B28
340
0
  0
BLOCK_RECORD
  5
276
100
AcDbSymbolTableRecord
100
AcDbBlockTableRecord
  2
*B29
340
0
  0
BLOCK_RECORD
  5
283
100
AcDbSymbolTableRecord
100
AcDbBlockTableRecord
  2
*B30
340
0
  0
BLOCK_RECORD
  5
289
100
AcDbSymbolTableRecord
100
AcDbBlockTableRecord
  2
*B31
340
0
  0
BLOCK_RECORD
  5
294
100
AcDbSymbolTableRecord
100
AcDbBlockTableRecord
  2
*B32
340
0
  0
BLOCK_RECORD
  5
29A
100
AcDbSymbolTableRecord
100
AcDbBlockTableRecord
  2
*B33
340
0
  0
BLOCK_RECORD
  5
2A0
100
AcDbSymbolTableRecord
100
AcDbBlockTableRecord
  2
*B34
340
0
  0
BLOCK_RECORD
  5
2A5
100
AcDbSymbolTableRecord
100
AcDbBlockTableRecord
  2
*B35
340
0
  0
BLOCK_RECORD
  5
2AD
100
AcDbSymbolTableRecord
100
AcDbBlockTableRecord
  2
*B36
340
0
  0
BLOCK_RECORD
  5
2B3
100
AcDbSymbolTableRecord
100
AcDbBlockTableRecord
  2
*B37
340
0
  0
BLOCK_RECORD
  5
2B8
100
AcDbSymbolTableRecord
100
AcDbBlockTableRecord
  2
*B38
340
0
  0
BLOCK_RECORD
  5
2C5
100
AcDbSymbolTableRecord
100
AcDbBlockTableRecord
  2
*B39
340
0
  0
BLOCK_RECORD
  5
2CF
100
AcDbSymbolTableRecord
100
AcDbBlockTableRecord
  2
*B40
340
0
  0
BLOCK_RECORD
  5
2D4
100
AcDbSymbolTableRecord
100
AcDbBlockTableRecord
  2
*B41
340
0
  0
BLOCK_RECORD
  5
2D9
100
AcDbSymbolTableRecord
100
AcDbBlockTableRecord
  2
*B42
340
0
  0
BLOCK_RECORD
  5
2DE
100
AcDbSymbolTableRecord
100
AcDbBlockTableRecord
  2
*B43
340
0
  0
BLOCK_RECORD
  5
2E3
100
AcDbSymbolTableRecord
100
AcDbBlockTableRecord
  2
*B44
340
0
  0
BLOCK_RECORD
  5
2E8
100
AcDbSymbolTableRecord
100
AcDbBlockTableRecord
  2
*B45
340
0
  0
BLOCK_RECORD
  5
2EE
100
AcDbSymbolTableRecord
100
AcDbBlockTableRecord
  2
*B46
340
0
  0
BLOCK_RECORD
  5
2F4
100
AcDbSymbolTableRecord
100
AcDbBlockTableRecord
  2
*B47
340
0
  0
BLOCK_RECORD
  5
30F
100
AcDbSymbolTableRecord
100
AcDbBlockTableRecord
  2
*B48
340
0
  0
BLOCK_RECORD
  5
314
100
AcDbSymbolTableRecord
100
AcDbBlockTableRecord
  2
*B49
340
0
  0
BLOCK_RECORD
  5
319
100
AcDbSymbolTableRecord
100
AcDbBlockTableRecord
  2
*B50
340
0
  0
BLOCK_RECORD
  5
31F
100
AcDbSymbolTableRecord
100
AcDbBlockTableRecord
  2
*B51
340
0
  0
BLOCK_RECORD
  5
324
100
AcDbSymbolTableRecord
100
AcDbBlockTableRecord
  2
*B52
340
0
  0
BLOCK_RECORD
  5
32A
100
AcDbSymbolTableRecord
100
AcDbBlockTableRecord
  2
*B53
340
0
  0
BLOCK_RECORD
  5
330
100
AcDbSymbolTableRecord
100
AcDbBlockTableRecord
  2
*B54
340
0
  0
BLOCK_RECORD
  5
336
100
AcDbSymbolTableRecord
100
AcDbBlockTableRecord
  2
*B55
340
0
  0
BLOCK_RECORD
  5
33C
100
AcDbSymbolTableRecord
100
AcDbBlockTableRecord
  2
*B56
340
0
  0
BLOCK_RECORD
  5
342
100
AcDbSymbolTableRecord
100
AcDbBlockTableRecord
  2
*B57
340
0
  0
BLOCK_RECORD
  5
348
100
AcDbSymbolTableRecord
100
AcDbBlockTableRecord
  2
*B58
340
0
  0
BLOCK_RECORD
  5
34E
100
AcDbSymbolTableRecord
100
AcDbBlockTableRecord
  2
*B59
340
0
  0
BLOCK_RECORD
  5
355
100
AcDbSymbolTableRecord
100
AcDbBlockTableRecord
  2
*B60
340
0
  0
BLOCK_RECORD
  5
35A
100
AcDbSymbolTableRecord
100
AcDbBlockTableRecord
  2
*B61
340
0
  0
BLOCK_RECORD
  5
35F
100
AcDbSymbolTableRecord
100
AcDbBlockTableRecord
  2
*B62
340
0
  0
BLOCK_RECORD
  5
364
100
AcDbSymbolTableRecord
100
AcDbBlockTableRecord
  2
*B63
340
0
  0
BLOCK_RECORD
  5
369
100
AcDbSymbolTableRecord
100
AcDbBlockTableRecord
  2
*B64
340
0
  0
BLOCK_RECORD
  5
36E
100
AcDbSymbolTableRecord
100
AcDbBlockTableRecord
  2
*B65
340
0
  0
BLOCK_RECORD
  5
373
100
AcDbSymbolTableRecord
100
AcDbBlockTableRecord
  2
*B66
340
0
  0
BLOCK_RECORD
  5
378
100
AcDbSymbolTableRecord
100
AcDbBlockTableRecord
  2
*B67
340
0
  0
BLOCK_RECORD
  5
37D
100
AcDbSymbolTableRecord
100
AcDbBlockTableRecord
  2
*B68
340
0
  0
BLOCK_RECORD
  5
382
100
AcDbSymbolTableRecord
100
AcDbBlockTableRecord
  2
*B69
340
0
  0
BLOCK_RECORD
  5
387
100
AcDbSymbolTableRecord
100
AcDbBlockTableRecord
  2
*B70
340
0
  0
BLOCK_RECORD
  5
38C
100
AcDbSymbolTableRecord
100
AcDbBlockTableRecord
  2
*B71
340
0
  0
BLOCK_RECORD
  5
391
100
AcDbSymbolTableRecord
100
AcDbBlockTableRecord
  2
*B72
340
0
  0
BLOCK_RECORD
  5
396
100
AcDbSymbolTableRecord
100
AcDbBlockTableRecord
  2
*B73
340
0
  0
BLOCK_RECORD
  5
39B
100
AcDbSymbolTableRecord
100
AcDbBlockTableRecord
  2
*B74
340
0
  0
BLOCK_RECORD
  5
3A0
100
AcDbSymbolTableRecord
100
AcDbBlockTableRecord
  2
*B75
340
0
  0
BLOCK_RECORD
  5
3A5
100
AcDbSymbolTableRecord
100
AcDbBlockTableRecord
  2
*B76
340
0
  0
BLOCK_RECORD
  5
3AA
100
AcDbSymbolTableRecord
100
AcDbBlockTableRecord
  2
*B77
340
0
  0
BLOCK_RECORD
  5
3AF
100
AcDbSymbolTableRecord
100
AcDbBlockTableRecord
  2
*B78
340
0
  0
BLOCK_RECORD
  5
3B4
100
AcDbSymbolTableRecord
100
AcDbBlockTableRecord
  2
*B79
340
0
  0
BLOCK_RECORD
  5
3B9
100
AcDbSymbolTableRecord
100
AcDbBlockTableRecord
  2
*B80
340
0
  0
BLOCK_RECORD
  5
3BE
100
AcDbSymbolTableRecord
100
AcDbBlockTableRecord
  2
*B81
340
0
  0
BLOCK_RECORD
  5
3C3
100
AcDbSymbolTableRecord
100
AcDbBlockTableRecord
  2
*B82
340
0
  0
BLOCK_RECORD
  5
3C8
100
AcDbSymbolTableRecord
100
AcDbBlockTableRecord
  2
*B83
340
0
  0
BLOCK_RECORD
  5
3CD
100
AcDbSymbolTableRecord
100
AcDbBlockTableRecord
  2
*B84
340
0
  0
ENDTAB
  0
ENDSEC
  0
SECTION
  2
BLOCKS
  0
BLOCK
  5
D
100
AcDbEntity
  8
0
100
AcDbBlockBegin
  2
*MODEL_SPACE
 70
     0
 10
0.0
 20
0.0
 30
0.0
  3
*MODEL_SPACE
  1

  0
ENDBLK
  5
E
100
AcDbEntity
  8
0
100
AcDbBlockEnd
  0
BLOCK
  5
F
100
AcDbEntity
 67
     1
  8
0
100
AcDbBlockBegin
  2
*PAPER_SPACE
 70
     0
 10
0.0
 20
0.0
 30
0.0
  3
*PAPER_SPACE
  1

  0
ENDBLK
  5
10
100
AcDbEntity
 67
     1
  8
0
100
AcDbBlockEnd
  0
BLOCK
  5
2A
100
AcDbEntity
  8
0
100
AcDbBlockBegin
  2
*B0
 70
     0
 10
0.0
 20
0.0
 30
0.0
  3
*B0
  1

  0
ENDBLK
  5
2B
100
AcDbEntity
  8
0
100
AcDbBlockEnd
  0
BLOCK
  5
2D
100
AcDbEntity
  8
0
100
AcDbBlockBegin
  2
*B1
 70
     0
 10
0.0
 20
0.0
 30
0.0
  3
*B1
  1

  0
ARC
  5
2E
100
AcDbEntity
  8
0
  6
Continuous
 62
   174
100
AcDbCircle
 10
374.98287
 20
288.973503
 30
0.0
 40
7.425
100
AcDbArc
 50
0.0
 51
180.0
  0
ARC
  5
2F
100
AcDbEntity
  8
0
  6
Continuous
 62
   174
100
AcDbCircle
 10
374.98287
 20
288.973503
 30
0.0
 40
7.425
100
AcDbArc
 50
-180.0
 51
0.0
  0
ARC
  5
30
100
AcDbEntity
  8
0
  6
Continuous
 62
   174
100
AcDbCircle
 10
346.85787
 20
232.723503
 30
0.0
 40
7.425
100
AcDbArc
 50
-180.0
 51
0.0
  0
ARC
  5
31
100
AcDbEntity
  8
0
  6
Continuous
 62
   174
100
AcDbCircle
 10
346.85787
 20
232.723503
 30
0.0
 40
7.425
100
AcDbArc
 50
0.0
 51
180.0
  0
ARC
  5
32
100
AcDbEntity
  8
0
  6
Continuous
 62
   174
100
AcDbCircle
 10
403.10787
 20
232.723503
 30
0.0
 40
7.425
100
AcDbArc
 50
-180.0
 51
0.0
  0
ARC
  5
33
100
AcDbEntity
  8
0
  6
Continuous
 62
   174
100
AcDbCircle
 10
403.10787
 20
232.723503
 30
0.0
 40
7.425
100
AcDbArc
 50
0.0
 51
180.0
  0
LINE
  5
34
100
AcDbEntity
  8
0
  6
Continuous
 62
   174
100
AcDbLine
 10
122.98287
 20
328.348503
 30
0.0
 11
122.98287
 21
310.348503
 31
0.0
  0
LINE
  5
35
100
AcDbEntity
  8
0
  6
Continuous
 62
   174
100
AcDbLine
 10
129.73287
 20
211.348503
 30
0.0
 11
248.98287
 21
211.348503
 31
0.0
  0
LINE
  5
36
100
AcDbEntity
  8
0
  6
HIDDEN
 62
   174
100
AcDbLine
 10
152.628143
 20
343.198503
 30
0.0
 11
151.814865
 21
343.198503
 31
0.0
  0
LINE
  5
37
100
AcDbEntity
  8
0
  6
Continuous
 62
   174
100
AcDbLine
 10
167.344176
 20
343.198503
 30
0.0
 11
166.223631
 21
343.198503
 31
0.0
  0
LINE
  5
38
100
AcDbEntity
  8
0
  6
Continuous
 62
   174
100
AcDbLine
 10
151.814865
 20
343.198503
 30
0.0
 11
150.69432
 21
343.198503
 31
0.0
  0
LINE
  5
39
100
AcDbEntity
  8
0
  6
HIDDEN
 62
   174
100
AcDbLine
 10
166.223631
 20
343.198503
 30
0.0
 11
165.410353
 21
343.198503
 31
0.0
  0
LINE
  5
3A
100
AcDbEntity
  8
0
  6
HIDDEN
 62
   174
100
AcDbLine
 10
165.410353
 20
343.198503
 30
0.0
 11
159.019461
 21
343.198503
 31
0.0
  0
LINE
  5
3B
100
AcDbEntity
  8
0
  6
HIDDEN
 62
   174
100
AcDbLine
 10
159.019461
 20
343.198503
 30
0.0
 11
152.628143
 21
343.198503
 31
0.0
  0
LINE
  5
3C
100
AcDbEntity
  8
0
  6
HIDDEN
 62
   174
100
AcDbLine
 10
152.944347
 20
343.198503
 30
0.0
 11
159.019461
 21
343.198503
 31
0.0
  0
LINE
  5
3D
100
AcDbEntity
  8
0
  6
HIDDEN
 62
   174
100
AcDbLine
 10
159.019461
 20
343.198503
 30
0.0
 11
165.094149
 21
343.198503
 31
0.0
  0
LINE
  5
3E
100
AcDbEntity
  8
0
  6
Continuous
 62
   174
100
AcDbLine
 10
248.98287
 20
211.348503
 30
0.0
 11
248.98287
 21
310.348503
 31
0.0
  0
LINE
  5
3F
100
AcDbEntity
  8
0
  6
Continuous
 62
   174
100
AcDbLine
 10
122.98287
 20
233.848503
 30
0.0
 11
129.73287
 21
233.848503
 31
0.0
  0
LINE
  5
40
100
AcDbEntity
  8
0
  6
Continuous
 62
   174
100
AcDbLine
 10
129.73287
 20
310.348503
 30
0.0
 11
129.73287
 21
309.223503
 31
0.0
  0
LINE
  5
41
100
AcDbEntity
  8
0
  6
Continuous
 62
   174
100
AcDbLine
 10
284.98287
 20
204.598503
 30
0.0
 11
464.98287
 21
204.598503
 31
0.0
  0
LINE
  5
42
100
AcDbEntity
  8
0
  6
HIDDEN
 62
   174
100
AcDbLine
 10
390.73287
 20
290.098503
 30
0.0
 11
390.73287
 21
317.098503
 31
0.0
  0
LINE
  5
43
100
AcDbEntity
  8
0
  6
HIDDEN
 62
   174
100
AcDbLine
 10
413.23287
 20
290.098503
 30
0.0
 11
413.23287
 21
317.098503
 31
0.0
  0
LINE
  5
44
100
AcDbEntity
  8
0
  6
HIDDEN
 62
   174
100
AcDbLine
 10
402.01934
 20
285.598503
 30
0.0
 11
392.568973
 21
285.598503
 31
0.0
  0
LINE
  5
45
100
AcDbEntity
  8
0
  6
HIDDEN
 62
   174
100
AcDbLine
 10
129.73287
 20
309.218835
 30
0.0
 11
129.73287
 21
288.969022
 31
0.0
  0
ARC
  5
46
100
AcDbEntity
  8
0
  6
Continuous
 62
   174
100
AcDbCircle
 10
122.98287
 20
230.473503
 30
0.0
 40
2.25
100
AcDbArc
 50
-270.0
 51
-180.0
  0
ARC
  5
47
100
AcDbEntity
  8
0
  6
HIDDEN
 62
   174
100
AcDbCircle
 10
122.98287
 20
230.473503
 30
0.0
 40
2.25
100
AcDbArc
 50
-270.0
 51
-180.0
  0
ARC
  5
48
100
AcDbEntity
  8
0
  6
HIDDEN
 62
   174
100
AcDbCircle
 10
122.98287
 20
306.973503
 30
0.0
 40
2.25
100
AcDbArc
 50
-270.0
 51
-180.0
  0
LINE
  5
49
100
AcDbEntity
  8
0
  6
Continuous
 62
   174
100
AcDbLine
 10
194.98287
 20
310.348503
 30
0.0
 11
194.98287
 21
328.348503
 31
0.0
  0
LINE
  5
4A
100
AcDbEntity
  8
0
  6
HIDDEN
 62
   174
100
AcDbLine
 10
159.019461
 20
336.448503
 30
0.0
 11
152.944347
 21
336.448503
 31
0.0
  0
LINE
  5
4B
100
AcDbEntity
  8
0
  6
HIDDEN
 62
   174
100
AcDbLine
 10
159.019461
 20
336.448503
 30
0.0
 11
150.69432
 21
336.448503
 31
0.0
  0
LINE
  5
4C
100
AcDbEntity
  8
0
  6
Continuous
 62
   174
100
AcDbLine
 10
129.73287
 20
309.223503
 30
0.0
 11
129.73287
 21
288.973503
 31
0.0
  0
LINE
  5
4D
100
AcDbEntity
  8
0
  6
HIDDEN
 62
   174
100
AcDbLine
 10
129.73287
 20
309.218835
 30
0.0
 11
129.73287
 21
288.969022
 31
0.0
  0
LINE
  5
4E
100
AcDbEntity
  8
0
  6
Continuous
 62
   174
100
AcDbLine
 10
464.98287
 20
317.098503
 30
0.0
 11
284.98287
 21
317.098503
 31
0.0
  0
LINE
  5
4F
100
AcDbEntity
  8
0
  6
HIDDEN
 62
   174
100
AcDbLine
 10
413.23287
 20
290.098503
 30
0.0
 11
413.23287
 21
317.098503
 31
0.0
  0
LINE
  5
50
100
AcDbEntity
  8
0
  6
HIDDEN
 62
   174
100
AcDbLine
 10
392.53287
 20
290.098503
 30
0.0
 11
392.53287
 21
317.098503
 31
0.0
  0
LINE
  5
51
100
AcDbEntity
  8
0
  6
HIDDEN
 62
   174
100
AcDbLine
 10
359.269263
 20
317.098503
 30
0.0
 11
336.768998
 21
317.098503
 31
0.0
  0
LINE
  5
52
100
AcDbEntity
  8
0
  6
HIDDEN
 62
   174
100
AcDbLine
 10
402.01934
 20
317.098503
 30
0.0
 11
411.469281
 21
317.098503
 31
0.0
  0
ARC
  5
53
100
AcDbEntity
  8
0
  6
Continuous
 62
   174
100
AcDbCircle
 10
122.98287
 20
291.223503
 30
0.0
 40
2.25
100
AcDbArc
 50
225.0
 51
270.0
  0
ARC
  5
54
100
AcDbEntity
  8
0
  6
Continuous
 62
   174
100
AcDbCircle
 10
122.98287
 20
306.973503
 30
0.0
 40
2.25
100
AcDbArc
 50
-270.0
 51
-180.0
  0
ARC
  5
55
100
AcDbEntity
  8
0
  6
HIDDEN
 62
   174
100
AcDbCircle
 10
122.98287
 20
214.723503
 30
0.0
 40
2.25
100
AcDbArc
 50
225.0
 51
270.0
  0
ARC
  5
56
100
AcDbEntity
  8
0
  6
HIDDEN
 62
   174
100
AcDbCircle
 10
122.98287
 20
214.723503
 30
0.0
 40
2.25
100
AcDbArc
 50
180.0
 51
225.0
  0
ARC
  5
57
100
AcDbEntity
  8
0
  6
HIDDEN
 62
   174
100
AcDbCircle
 10
122.98287
 20
230.473503
 30
0.0
 40
2.25
100
AcDbArc
 50
-270.0
 51
-180.0
  0
ARC
  5
58
100
AcDbEntity
  8
0
  6
HIDDEN
 62
   174
100
AcDbCircle
 10
122.98287
 20
306.973503
 30
0.0
 40
2.25
100
AcDbArc
 50
-270.0
 51
-180.0
  0
LINE
  5
59
100
AcDbEntity
  8
0
  6
Continuous
 62
   174
100
AcDbLine
 10
129.73287
 20
232.723503
 30
0.0
 11
129.73287
 21
233.848503
 31
0.0
  0
LINE
  5
5A
100
AcDbEntity
  8
0
  6
Continuous
 62
   174
100
AcDbLine
 10
129.73287
 20
212.473503
 30
0.0
 11
129.73287
 21
232.723503
 31
0.0
  0
LINE
  5
5B
100
AcDbEntity
  8
0
  6
Continuous
 62
   174
100
AcDbLine
 10
122.98287
 20
211.348503
 30
0.0
 11
129.73287
 21
211.348503
 31
0.0
  0
LINE
  5
5C
100
AcDbEntity
  8
0
  6
HIDDEN
 62
   174
100
AcDbLine
 10
129.73287
 20
232.720063
 30
0.0
 11
129.73287
 21
212.47025
 31
0.0
  0
LINE
  5
5D
100
AcDbEntity
  8
0
  6
HIDDEN
 62
   174
100
AcDbLine
 10
357.43287
 20
290.098503
 30
0.0
 11
357.43287
 21
317.098503
 31
0.0
  0
ARC
  5
5E
100
AcDbEntity
  8
0
  6
Continuous
 62
   174
100
AcDbCircle
 10
122.98287
 20
291.223503
 30
0.0
 40
2.25
100
AcDbArc
 50
180.0
 51
225.0
  0
ARC
  5
5F
100
AcDbEntity
  8
0
  6
HIDDEN
 62
   174
100
AcDbCircle
 10
122.98287
 20
214.723503
 30
0.0
 40
2.25
100
AcDbArc
 50
225.0
 51
270.0
  0
LINE
  5
60
100
AcDbEntity
  8
0
  6
Continuous
 62
   174
100
AcDbLine
 10
248.98287
 20
310.348503
 30
0.0
 11
194.98287
 21
310.348503
 31
0.0
  0
LINE
  5
61
100
AcDbEntity
  8
0
  6
HIDDEN
 62
   174
100
AcDbLine
 10
152.90787
 20
336.448503
 30
0.0
 11
152.90787
 21
343.198503
 31
0.0
  0
LINE
  5
62
100
AcDbEntity
  8
0
  6
Continuous
 62
   174
100
AcDbLine
 10
129.73287
 20
211.348503
 30
0.0
 11
129.73287
 21
212.473503
 31
0.0
  0
LINE
  5
63
100
AcDbEntity
  8
0
  6
HIDDEN
 62
   174
100
AcDbLine
 10
167.344176
 20
336.448503
 30
0.0
 11
159.019461
 21
336.448503
 31
0.0
  0
LINE
  5
64
100
AcDbEntity
  8
0
  6
Continuous
 62
   174
100
AcDbLine
 10
122.98287
 20
310.348503
 30
0.0
 11
129.73287
 21
310.348503
 31
0.0
  0
LINE
  5
65
100
AcDbEntity
  8
0
  6
Continuous
 62
   174
100
AcDbLine
 10
122.98287
 20
287.848503
 30
0.0
 11
129.73287
 21
287.848503
 31
0.0
  0
LINE
  5
66
100
AcDbEntity
  8
0
  6
Continuous
 62
   174
100
AcDbLine
 10
122.98287
 20
287.848503
 30
0.0
 11
122.98287
 21
233.848503
 31
0.0
  0
LINE
  5
67
100
AcDbEntity
  8
0
  6
Continuous
 62
   174
100
AcDbLine
 10
284.98287
 20
211.348503
 30
0.0
 11
284.98287
 21
204.598503
 31
0.0
  0
LINE
  5
68
100
AcDbEntity
  8
0
  6
Continuous
 62
   174
100
AcDbLine
 10
284.98287
 20
211.348503
 30
0.0
 11
284.98287
 21
310.348503
 31
0.0
  0
LINE
  5
69
100
AcDbEntity
  8
0
  6
HIDDEN
 62
   174
100
AcDbLine
 10
413.269047
 20
290.098503
 30
0.0
 11
390.769207
 21
290.098503
 31
0.0
  0
LINE
  5
6A
100
AcDbEntity
  8
0
  6
HIDDEN
 62
   174
100
AcDbLine
 10
392.53287
 20
317.098503
 30
0.0
 11
392.53287
 21
285.598503
 31
0.0
  0
LINE
  5
6B
100
AcDbEntity
  8
0
  6
HIDDEN
 62
   174
100
AcDbLine
 10
411.43287
 20
290.098503
 30
0.0
 11
411.43287
 21
317.098503
 31
0.0
  0
LINE
  5
6C
100
AcDbEntity
  8
0
  6
HIDDEN
 62
   174
100
AcDbLine
 10
129.73287
 20
232.720063
 30
0.0
 11
129.73287
 21
212.47025
 31
0.0
  0
LINE
  5
6D
100
AcDbEntity
  8
0
  6
HIDDEN
 62
   174
100
AcDbLine
 10
336.73287
 20
290.098503
 30
0.0
 11
336.73287
 21
317.098503
 31
0.0
  0
LINE
  5
6E
100
AcDbEntity
  8
0
  6
HIDDEN
 62
   174
100
AcDbLine
 10
359.23287
 20
290.098503
 30
0.0
 11
359.23287
 21
317.098503
 31
0.0
  0
LINE
  5
6F
100
AcDbEntity
  8
0
  6
HIDDEN
 62
   174
100
AcDbLine
 10
336.73287
 20
290.098503
 30
0.0
 11
336.73287
 21
317.098503
 31
0.0
  0
LINE
  5
70
100
AcDbEntity
  8
0
  6
HIDDEN
 62
   174
100
AcDbLine
 10
357.43287
 20
317.098503
 30
0.0
 11
357.43287
 21
285.598503
 31
0.0
  0
ARC
  5
71
100
AcDbEntity
  8
0
  6
Continuous
 62
   174
100
AcDbCircle
 10
122.98287
 20
214.723503
 30
0.0
 40
2.25
100
AcDbArc
 50
225.0
 51
270.0
  0
ARC
  5
72
100
AcDbEntity
  8
0
  6
HIDDEN
 62
   174
100
AcDbCircle
 10
122.98287
 20
291.223503
 30
0.0
 40
2.25
100
AcDbArc
 50
180.0
 51
225.0
  0
LINE
  5
73
100
AcDbEntity
  8
0
  6
Continuous
 62
   174
100
AcDbLine
 10
167.30787
 20
336.448503
 30
0.0
 11
167.30787
 21
343.198503
 31
0.0
  0
LINE
  5
74
100
AcDbEntity
  8
0
  6
Continuous
 62
   174
100
AcDbLine
 10
194.98287
 20
328.348503
 30
0.0
 11
122.98287
 21
328.348503
 31
0.0
  0
LINE
  5
75
100
AcDbEntity
  8
0
  6
HIDDEN
 62
   174
100
AcDbLine
 10
165.094149
 20
336.448503
 30
0.0
 11
159.019461
 21
336.448503
 31
0.0
  0
LINE
  5
76
100
AcDbEntity
  8
0
  6
Continuous
 62
   174
100
AcDbLine
 10
464.98287
 20
204.598503
 30
0.0
 11
464.98287
 21
317.098503
 31
0.0
  0
LINE
  5
77
100
AcDbEntity
  8
0
  6
HIDDEN
 62
   174
100
AcDbLine
 10
411.43287
 20
317.098503
 30
0.0
 11
411.43287
 21
285.598503
 31
0.0
  0
LINE
  5
78
100
AcDbEntity
  8
0
  6
HIDDEN
 62
   174
100
AcDbLine
 10
411.469281
 20
285.598503
 30
0.0
 11
402.01934
 21
285.598503
 31
0.0
  0
LINE
  5
79
100
AcDbEntity
  8
0
  6
HIDDEN
 62
   174
100
AcDbLine
 10
359.269263
 20
290.098503
 30
0.0
 11
336.768998
 21
290.098503
 31
0.0
  0
LINE
  5
7A
100
AcDbEntity
  8
0
  6
HIDDEN
 62
   174
100
AcDbLine
 10
338.53287
 20
317.098503
 30
0.0
 11
338.53287
 21
285.598503
 31
0.0
  0
LINE
  5
7B
100
AcDbEntity
  8
0
  6
HIDDEN
 62
   174
100
AcDbLine
 10
348.01913
 20
285.598503
 30
0.0
 11
338.569189
 21
285.598503
 31
0.0
  0
LINE
  5
7C
100
AcDbEntity
  8
0
  6
HIDDEN
 62
   174
100
AcDbLine
 10
357.469071
 20
285.598503
 30
0.0
 11
348.01913
 21
285.598503
 31
0.0
  0
ARC
  5
7D
100
AcDbEntity
  8
0
  6
Continuous
 62
   174
100
AcDbCircle
 10
122.98287
 20
306.973503
 30
0.0
 40
2.25
100
AcDbArc
 50
-270.0
 51
-180.0
  0
ARC
  5
7E
100
AcDbEntity
  8
0
  6
Continuous
 62
   174
100
AcDbCircle
 10
122.98287
 20
291.223503
 30
0.0
 40
2.25
100
AcDbArc
 50
180.0
 51
225.0
  0
ARC
  5
7F
100
AcDbEntity
  8
0
  6
HIDDEN
 62
   174
100
AcDbCircle
 10
122.98287
 20
291.223503
 30
0.0
 40
2.25
100
AcDbArc
 50
180.0
 51
270.0
  0
LINE
  5
80
100
AcDbEntity
  8
0
  6
Continuous
 62
   174
100
AcDbLine
 10
248.98287
 20
211.348503
 30
0.0
 11
284.98287
 21
211.348503
 31
0.0
  0
LINE
  5
81
100
AcDbEntity
  8
0
  6
Continuous
 62
   174
100
AcDbLine
 10
284.98287
 20
310.348503
 30
0.0
 11
284.98287
 21
211.348503
 31
0.0
  0
LINE
  5
82
100
AcDbEntity
  8
0
  6
HIDDEN
 62
   174
100
AcDbLine
 10
390.73287
 20
290.098503
 30
0.0
 11
390.73287
 21
317.098503
 31
0.0
  0
LINE
  5
83
100
AcDbEntity
  8
0
  6
HIDDEN
 62
   174
100
AcDbLine
 10
338.53287
 20
290.098503
 30
0.0
 11
338.53287
 21
317.098503
 31
0.0
  0
LINE
  5
84
100
AcDbEntity
  8
0
  6
HIDDEN
 62
   174
100
AcDbLine
 10
357.43287
 20
290.098503
 30
0.0
 11
357.43287
 21
317.098503
 31
0.0
  0
LINE
  5
85
100
AcDbEntity
  8
0
  6
HIDDEN
 62
   174
100
AcDbLine
 10
338.53287
 20
290.098503
 30
0.0
 11
338.53287
 21
317.098503
 31
0.0
  0
LINE
  5
86
100
AcDbEntity
  8
0
  6
HIDDEN
 62
   174
100
AcDbLine
 10
338.569189
 20
317.098503
 30
0.0
 11
348.01913
 21
317.098503
 31
0.0
  0
ARC
  5
87
100
AcDbEntity
  8
0
  6
Continuous
 62
   174
100
AcDbCircle
 10
122.98287
 20
291.223503
 30
0.0
 40
2.25
100
AcDbArc
 50
225.0
 51
270.0
  0
ARC
  5
88
100
AcDbEntity
  8
0
  6
Continuous
 62
   174
100
AcDbCircle
 10
122.98287
 20
214.723503
 30
0.0
 40
2.25
100
AcDbArc
 50
180.0
 51
225.0
  0
LINE
  5
89
100
AcDbEntity
  8
0
  6
HIDDEN
 62
   174
100
AcDbLine
 10
165.05787
 20
336.448503
 30
0.0
 11
165.05787
 21
343.198503
 31
0.0
  0
LINE
  5
8A
100
AcDbEntity
  8
0
  6
HIDDEN
 62
   174
100
AcDbLine
 10
464.98287
 20
240.594943
 30
0.0
 11
464.98287
 21
281.094142
 31
0.0
  0
LINE
  5
8B
100
AcDbEntity
  8
0
  6
Continuous
 62
   174
100
AcDbLine
 10
248.98287
 20
211.348503
 30
0.0
 11
248.98287
 21
310.348503
 31
0.0
  0
LINE
  5
8C
100
AcDbEntity
  8
0
  6
HIDDEN
 62
   174
100
AcDbLine
 10
411.43287
 20
290.098503
 30
0.0
 11
411.43287
 21
317.098503
 31
0.0
  0
LINE
  5
8D
100
AcDbEntity
  8
0
  6
HIDDEN
 62
   174
100
AcDbLine
 10
413.269047
 20
317.098503
 30
0.0
 11
390.769207
 21
317.098503
 31
0.0
  0
LINE
  5
8E
100
AcDbEntity
  8
0
  6
HIDDEN
 62
   174
100
AcDbLine
 10
392.53287
 20
290.098503
 30
0.0
 11
392.53287
 21
317.098503
 31
0.0
  0
LINE
  5
8F
100
AcDbEntity
  8
0
  6
HIDDEN
 62
   174
100
AcDbLine
 10
359.23287
 20
290.098503
 30
0.0
 11
359.23287
 21
317.098503
 31
0.0
  0
LINE
  5
90
100
AcDbEntity
  8
0
  6
HIDDEN
 62
   174
100
AcDbLine
 10
348.01913
 20
317.098503
 30
0.0
 11
357.469071
 21
317.098503
 31
0.0
  0
ARC
  5
91
100
AcDbEntity
  8
0
  6
Continuous
 62
   174
100
AcDbCircle
 10
122.98287
 20
214.723503
 30
0.0
 40
2.25
100
AcDbArc
 50
225.0
 51
270.0
  0
ARC
  5
92
100
AcDbEntity
  8
0
  6
Continuous
 62
   174
100
AcDbCircle
 10
122.98287
 20
230.473503
 30
0.0
 40
2.25
100
AcDbArc
 50
-270.0
 51
-180.0
  0
ARC
  5
93
100
AcDbEntity
  8
0
  6
HIDDEN
 62
   174
100
AcDbCircle
 10
122.98287
 20
214.723503
 30
0.0
 40
2.25
100
AcDbArc
 50
180.0
 51
225.0
  0
LINE
  5
94
100
AcDbEntity
  8
0
  6
Continuous
 62
   174
100
AcDbLine
 10
170.23287
 20
328.348503
 30
0.0
 11
170.23287
 21
336.448503
 31
0.0
  0
LINE
  5
95
100
AcDbEntity
  8
0
  6
Continuous
 62
   174
100
AcDbLine
 10
150.65787
 20
336.448503
 30
0.0
 11
150.65787
 21
343.198503
 31
0.0
  0
LINE
  5
96
100
AcDbEntity
  8
0
  6
Continuous
 62
   174
100
AcDbLine
 10
129.73287
 20
288.973503
 30
0.0
 11
129.73287
 21
287.848503
 31
0.0
  0
LINE
  5
97
100
AcDbEntity
  8
0
  6
Continuous
 62
   174
100
AcDbLine
 10
248.98287
 20
310.348503
 30
0.0
 11
284.98287
 21
310.348503
 31
0.0
  0
LINE
  5
98
100
AcDbEntity
  8
0
  6
Continuous
 62
   174
100
AcDbLine
 10
284.98287
 20
317.098503
 30
0.0
 11
284.98287
 21
310.348503
 31
0.0
  0
LINE
  5
99
100
AcDbEntity
  8
0
  6
HIDDEN
 62
   174
100
AcDbLine
 10
392.568973
 20
317.098503
 30
0.0
 11
402.01934
 21
317.098503
 31
0.0
  0
ARC
  5
9A
100
AcDbEntity
  8
0
  6
Continuous
 62
   174
100
AcDbCircle
 10
122.98287
 20
214.723503
 30
0.0
 40
2.25
100
AcDbArc
 50
180.0
 51
225.0
  0
ARC
  5
9B
100
AcDbEntity
  8
0
  6
HIDDEN
 62
   174
100
AcDbCircle
 10
122.98287
 20
291.223503
 30
0.0
 40
2.25
100
AcDbArc
 50
225.0
 51
270.0
  0
LINE
  5
9C
100
AcDbEntity
  8
0
  6
HIDDEN
 62
   174
100
AcDbLine
 10
122.98287
 20
309.223503
 30
0.0
 11
129.73287
 21
309.223503
 31
0.0
  0
LINE
  5
9D
100
AcDbEntity
  8
0
  6
HIDDEN
 62
   174
100
AcDbLine
 10
363.769315
 20
231.598503
 30
0.0
 11
386.269155
 21
231.598503
 31
0.0
  0
LINE
  5
9E
100
AcDbEntity
  8
0
  6
Continuous
 62
   174
100
AcDbLine
 10
122.98287
 20
309.223503
 30
0.0
 11
129.73287
 21
309.223503
 31
0.0
  0
LINE
  5
9F
100
AcDbEntity
  8
0
  6
HIDDEN
 62
   174
100
AcDbLine
 10
440.23287
 20
231.598503
 30
0.0
 11
440.23287
 21
204.598503
 31
0.0
  0
LINE
  5
A0
100
AcDbEntity
  8
0
  6
HIDDEN
 62
   174
100
AcDbLine
 10
122.98287
 20
212.473503
 30
0.0
 11
129.73287
 21
212.473503
 31
0.0
  0
LINE
  5
A1
100
AcDbEntity
  8
0
  6
HIDDEN
 62
   174
100
AcDbLine
 10
311.53287
 20
204.598503
 30
0.0
 11
311.53287
 21
236.098503
 31
0.0
  0
LINE
  5
A2
100
AcDbEntity
  8
0
  6
HIDDEN
 62
   174
100
AcDbLine
 10
122.98287
 20
288.285545
 30
0.0
 11
122.98287
 21
299.093928
 31
0.0
  0
LINE
  5
A3
100
AcDbEntity
  8
0
  6
HIDDEN
 62
   174
100
AcDbLine
 10
438.43287
 20
204.598503
 30
0.0
 11
438.43287
 21
236.098503
 31
0.0
  0
LINE
  5
A4
100
AcDbEntity
  8
0
  6
HIDDEN
 62
   174
100
AcDbLine
 10
384.43287
 20
204.598503
 30
0.0
 11
384.43287
 21
236.098503
 31
0.0
  0
LINE
  5
A5
100
AcDbEntity
  8
0
  6
Continuous
 62
   174
100
AcDbLine
 10
122.98287
 20
309.898907
 30
0.0
 11
122.98287
 21
310.343635
 31
0.0
  0
LINE
  5
A6
100
AcDbEntity
  8
0
  6
HIDDEN
 62
   174
100
AcDbLine
 10
151.78287
 20
328.348503
 30
0.0
 11
151.78287
 21
336.448503
 31
0.0
  0
LINE
  5
A7
100
AcDbEntity
  8
0
  6
HIDDEN
 62
   174
100
AcDbLine
 10
309.73287
 20
231.598503
 30
0.0
 11
309.73287
 21
204.598503
 31
0.0
  0
LINE
  5
A8
100
AcDbEntity
  8
0
  6
Continuous
 62
   174
100
AcDbLine
 10
174.73287
 20
328.348503
 30
0.0
 11
174.73287
 21
376.498503
 31
0.0
  0
LINE
  5
A9
100
AcDbEntity
  8
0
  6
Continuous
 62
   174
100
AcDbLine
 10
122.98287
 20
309.218835
 30
0.0
 11
122.98287
 21
299.079459
 31
0.0
  0
LINE
  5
AA
100
AcDbEntity
  8
0
  6
HIDDEN
 62
   174
100
AcDbLine
 10
363.769315
 20
204.598503
 30
0.0
 11
386.269155
 21
204.598503
 31
0.0
  0
LINE
  5
AB
100
AcDbEntity
  8
0
  6
HIDDEN
 62
   174
100
AcDbLine
 10
440.23287
 20
231.598503
 30
0.0
 11
440.23287
 21
204.598503
 31
0.0
  0
LINE
  5
AC
100
AcDbEntity
  8
0
  6
Continuous
 62
   174
100
AcDbLine
 10
122.98287
 20
212.473503
 30
0.0
 11
129.73287
 21
212.473503
 31
0.0
  0
LINE
  5
AD
100
AcDbEntity
  8
0
  6
Continuous
 62
   174
100
AcDbLine
 10
122.98287
 20
299.079459
 30
0.0
 11
122.98287
 21
288.969022
 31
0.0
  0
LINE
  5
AE
100
AcDbEntity
  8
0
  6
HIDDEN
 62
   174
100
AcDbLine
 10
122.98287
 20
232.720063
 30
0.0
 11
122.98287
 21
222.581112
 31
0.0
  0
LINE
  5
AF
100
AcDbEntity
  8
0
  6
HIDDEN
 62
   174
100
AcDbLine
 10
438.43287
 20
204.598503
 30
0.0
 11
438.43287
 21
236.098503
 31
0.0
  0
LINE
  5
B0
100
AcDbEntity
  8
0
  6
Continuous
 62
   174
100
AcDbLine
 10
122.98287
 20
288.973503
 30
0.0
 11
129.73287
 21
288.973503
 31
0.0
  0
LINE
  5
B1
100
AcDbEntity
  8
0
  6
HIDDEN
 62
   174
100
AcDbLine
 10
363.73287
 20
231.598503
 30
0.0
 11
363.73287
 21
204.598503
 31
0.0
  0
LINE
  5
B2
100
AcDbEntity
  8
0
  6
HIDDEN
 62
   174
100
AcDbLine
 10
122.98287
 20
287.848503
 30
0.0
 11
129.73287
 21
287.848503
 31
0.0
  0
LINE
  5
B3
100
AcDbEntity
  8
0
  6
HIDDEN
 62
   174
100
AcDbLine
 10
276.019135
 20
309.898503
 30
0.0
 11
258.019348
 21
309.898503
 31
0.0
  0
LINE
  5
B4
100
AcDbEntity
  8
0
  6
Continuous
 62
   174
100
AcDbLine
 10
174.73287
 20
376.498503
 30
0.0
 11
178.33287
 21
376.498503
 31
0.0
  0
LINE
  5
B5
100
AcDbEntity
  8
0
  6
HIDDEN
 62
   174
100
AcDbLine
 10
332.23287
 20
231.598503
 30
0.0
 11
332.23287
 21
204.598503
 31
0.0
  0
LINE
  5
B6
100
AcDbEntity
  8
0
  6
HIDDEN
 62
   174
100
AcDbLine
 10
309.73287
 20
231.598503
 30
0.0
 11
309.73287
 21
204.598503
 31
0.0
  0
LINE
  5
B7
100
AcDbEntity
  8
0
  6
HIDDEN
 62
   174
100
AcDbLine
 10
151.78287
 20
365.698503
 30
0.0
 11
166.18287
 21
365.698503
 31
0.0
  0
LINE
  5
B8
100
AcDbEntity
  8
0
  6
HIDDEN
 62
   174
100
AcDbLine
 10
417.73287
 20
231.598503
 30
0.0
 11
417.73287
 21
204.598503
 31
0.0
  0
LINE
  5
B9
100
AcDbEntity
  8
0
  6
Continuous
 62
   174
100
AcDbLine
 10
122.98287
 20
212.473503
 30
0.0
 11
129.73287
 21
212.473503
 31
0.0
  0
LINE
  5
BA
100
AcDbEntity
  8
0
  6
HIDDEN
 62
   174
100
AcDbLine
 10
417.769099
 20
204.598503
 30
0.0
 11
440.268939
 21
204.598503
 31
0.0
  0
LINE
  5
BB
100
AcDbEntity
  8
0
  6
HIDDEN
 62
   174
100
AcDbLine
 10
174.73287
 20
368.623503
 30
0.0
 11
178.33287
 21
368.623503
 31
0.0
  0
LINE
  5
BC
100
AcDbEntity
  8
0
  6
Continuous
 62
   174
100
AcDbLine
 10
122.98287
 20
232.723503
 30
0.0
 11
129.73287
 21
232.723503
 31
0.0
  0
LINE
  5
BD
100
AcDbEntity
  8
0
  6
HIDDEN
 62
   174
100
AcDbLine
 10
330.43287
 20
231.598503
 30
0.0
 11
330.43287
 21
204.598503
 31
0.0
  0
LINE
  5
BE
100
AcDbEntity
  8
0
  6
HIDDEN
 62
   174
100
AcDbLine
 10
330.43287
 20
231.598503
 30
0.0
 11
330.43287
 21
204.598503
 31
0.0
  0
LINE
  5
BF
100
AcDbEntity
  8
0
  6
Continuous
 62
   174
100
AcDbLine
 10
167.884659
 20
336.448503
 30
0.0
 11
167.053506
 21
336.448503
 31
0.0
  0
LINE
  5
C0
100
AcDbEntity
  8
0
  6
HIDDEN
 62
   174
100
AcDbLine
 10
438.43287
 20
231.598503
 30
0.0
 11
438.43287
 21
204.598503
 31
0.0
  0
LINE
  5
C1
100
AcDbEntity
  8
0
  6
HIDDEN
 62
   174
100
AcDbLine
 10
419.53287
 20
231.598503
 30
0.0
 11
419.53287
 21
204.598503
 31
0.0
  0
LINE
  5
C2
100
AcDbEntity
  8
0
  6
HIDDEN
 62
   174
100
AcDbLine
 10
363.73287
 20
231.598503
 30
0.0
 11
363.73287
 21
204.598503
 31
0.0
  0
LINE
  5
C3
100
AcDbEntity
  8
0
  6
Continuous
 62
   174
100
AcDbLine
 10
178.33287
 20
328.348503
 30
0.0
 11
178.33287
 21
376.498503
 31
0.0
  0
LINE
  5
C4
100
AcDbEntity
  8
0
  6
HIDDEN
 62
   174
100
AcDbLine
 10
174.73287
 20
368.623503
 30
0.0
 11
178.33287
 21
368.623503
 31
0.0
  0
LINE
  5
C5
100
AcDbEntity
  8
0
  6
HIDDEN
 62
   174
100
AcDbLine
 10
122.98287
 20
309.218835
 30
0.0
 11
122.98287
 21
288.969022
 31
0.0
  0
LINE
  5
C6
100
AcDbEntity
  8
0
  6
Continuous
 62
   174
100
AcDbLine
 10
122.98287
 20
232.720063
 30
0.0
 11
122.98287
 21
222.595156
 31
0.0
  0
LINE
  5
C7
100
AcDbEntity
  8
0
  6
HIDDEN
 62
   174
100
AcDbLine
 10
120.73287
 20
230.470036
 30
0.0
 11
120.73287
 21
214.720277
 31
0.0
  0
LINE
  5
C8
100
AcDbEntity
  8
0
  6
HIDDEN
 62
   174
100
AcDbLine
 10
386.23287
 20
231.598503
 30
0.0
 11
386.23287
 21
204.598503
 31
0.0
  0
LINE
  5
C9
100
AcDbEntity
  8
0
  6
HIDDEN
 62
   174
100
AcDbLine
 10
384.43287
 20
204.598503
 30
0.0
 11
384.43287
 21
236.098503
 31
0.0
  0
LINE
  5
CA
100
AcDbEntity
  8
0
  6
HIDDEN
 62
   174
100
AcDbLine
 10
129.73287
 20
233.844863
 30
0.0
 11
129.73287
 21
222.595156
 31
0.0
  0
LINE
  5
CB
100
AcDbEntity
  8
0
  6
HIDDEN
 62
   174
100
AcDbLine
 10
122.98287
 20
288.973503
 30
0.0
 11
129.73287
 21
288.973503
 31
0.0
  0
LINE
  5
CC
100
AcDbEntity
  8
0
  6
HIDDEN
 62
   174
100
AcDbLine
 10
122.98287
 20
310.348503
 30
0.0
 11
129.73287
 21
310.348503
 31
0.0
  0
LINE
  5
CD
100
AcDbEntity
  8
0
  6
HIDDEN
 62
   174
100
AcDbLine
 10
174.73287
 20
362.773503
 30
0.0
 11
178.33287
 21
362.773503
 31
0.0
  0
LINE
  5
CE
100
AcDbEntity
  8
0
  6
Continuous
 62
   174
100
AcDbLine
 10
151.78287
 20
365.698503
 30
0.0
 11
166.18287
 21
365.698503
 31
0.0
  0
LINE
  5
CF
100
AcDbEntity
  8
0
  6
HIDDEN
 62
   174
100
AcDbLine
 10
122.98287
 20
299.093928
 30
0.0
 11
122.98287
 21
309.898907
 31
0.0
  0
LINE
  5
D0
100
AcDbEntity
  8
0
  6
Continuous
 62
   174
100
AcDbLine
 10
150.984989
 20
336.448503
 30
0.0
 11
150.153837
 21
336.448503
 31
0.0
  0
LINE
  5
D1
100
AcDbEntity
  8
0
  6
HIDDEN
 62
   174
100
AcDbLine
 10
120.73287
 20
306.968808
 30
0.0
 11
120.73287
 21
291.219049
 31
0.0
  0
LINE
  5
D2
100
AcDbEntity
  8
0
  6
HIDDEN
 62
   174
100
AcDbLine
 10
311.53287
 20
231.598503
 30
0.0
 11
311.53287
 21
204.598503
 31
0.0
  0
LINE
  5
D3
100
AcDbEntity
  8
0
  6
HIDDEN
 62
   174
100
AcDbLine
 10
122.98287
 20
232.720063
 30
0.0
 11
122.98287
 21
212.47025
 31
0.0
  0
LINE
  5
D4
100
AcDbEntity
  8
0
  6
HIDDEN
 62
   174
100
AcDbLine
 10
257.98287
 20
310.348503
 30
0.0
 11
257.98287
 21
309.898503
 31
0.0
  0
LINE
  5
D5
100
AcDbEntity
  8
0
  6
Continuous
 62
   174
100
AcDbLine
 10
464.98287
 20
281.098503
 30
0.0
 11
469.48287
 21
281.098503
 31
0.0
  0
LINE
  5
D6
100
AcDbEntity
  8
0
  6
HIDDEN
 62
   174
100
AcDbLine
 10
384.43287
 20
231.598503
 30
0.0
 11
384.43287
 21
204.598503
 31
0.0
  0
LINE
  5
D7
100
AcDbEntity
  8
0
  6
HIDDEN
 62
   174
100
AcDbLine
 10
384.468963
 20
204.598503
 30
0.0
 11
365.569081
 21
204.598503
 31
0.0
  0
LINE
  5
D8
100
AcDbEntity
  8
0
  6
HIDDEN
 62
   174
100
AcDbLine
 10
120.73287
 20
306.968808
 30
0.0
 11
120.73287
 21
291.219049
 31
0.0
  0
LINE
  5
D9
100
AcDbEntity
  8
0
  6
HIDDEN
 62
   174
100
AcDbLine
 10
258.019348
 20
310.348503
 30
0.0
 11
276.019135
 21
310.348503
 31
0.0
  0
LINE
  5
DA
100
AcDbEntity
  8
0
  6
Continuous
 62
   174
100
AcDbLine
 10
170.269167
 20
336.448503
 30
0.0
 11
167.884659
 21
336.448503
 31
0.0
  0
LINE
  5
DB
100
AcDbEntity
  8
0
  6
HIDDEN
 62
   174
100
AcDbLine
 10
122.98287
 20
233.848503
 30
0.0
 11
129.73287
 21
233.848503
 31
0.0
  0
LINE
  5
DC
100
AcDbEntity
  8
0
  6
Continuous
 62
   174
100
AcDbLine
 10
122.98287
 20
287.844222
 30
0.0
 11
122.98287
 21
288.285545
 31
0.0
  0
LINE
  5
DD
100
AcDbEntity
  8
0
  6
HIDDEN
 62
   174
100
AcDbLine
 10
151.78287
 20
343.198503
 30
0.0
 11
151.78287
 21
365.698503
 31
0.0
  0
LINE
  5
DE
100
AcDbEntity
  8
0
  6
HIDDEN
 62
   174
100
AcDbLine
 10
275.98287
 20
310.348503
 30
0.0
 11
275.98287
 21
309.898503
 31
0.0
  0
LINE
  5
DF
100
AcDbEntity
  8
0
  6
HIDDEN
 62
   174
100
AcDbLine
 10
159.019461
 20
328.348503
 30
0.0
 11
147.769328
 21
328.348503
 31
0.0
  0
LINE
  5
E0
100
AcDbEntity
  8
0
  6
Continuous
 62
   174
100
AcDbLine
 10
122.98287
 20
222.595156
 30
0.0
 11
122.98287
 21
212.47025
 31
0.0
  0
LINE
  5
E1
100
AcDbEntity
  8
0
  6
HIDDEN
 62
   174
100
AcDbLine
 10
120.73287
 20
306.968808
 30
0.0
 11
120.73287
 21
291.219049
 31
0.0
  0
LINE
  5
E2
100
AcDbEntity
  8
0
  6
HIDDEN
 62
   174
100
AcDbLine
 10
122.98287
 20
299.079459
 30
0.0
 11
122.98287
 21
288.969022
 31
0.0
  0
LINE
  5
E3
100
AcDbEntity
  8
0
  6
HIDDEN
 62
   174
100
AcDbLine
 10
365.569081
 20
236.098503
 30
0.0
 11
384.468963
 21
236.098503
 31
0.0
  0
LINE
  5
E4
100
AcDbEntity
  8
0
  6
Continuous
 62
   174
100
AcDbLine
 10
464.98287
 20
240.598503
 30
0.0
 11
469.48287
 21
240.598503
 31
0.0
  0
LINE
  5
E5
100
AcDbEntity
  8
0
  6
Continuous
 62
   174
100
AcDbLine
 10
120.73287
 20
306.968808
 30
0.0
 11
120.73287
 21
291.219049
 31
0.0
  0
LINE
  5
E6
100
AcDbEntity
  8
0
  6
HIDDEN
 62
   174
100
AcDbLine
 10
365.53287
 20
231.598503
 30
0.0
 11
365.53287
 21
204.598503
 31
0.0
  0
LINE
  5
E7
100
AcDbEntity
  8
0
  6
HIDDEN
 62
   174
100
AcDbLine
 10
384.43287
 20
231.598503
 30
0.0
 11
384.43287
 21
204.598503
 31
0.0
  0
LINE
  5
E8
100
AcDbEntity
  8
0
  6
Continuous
 62
   174
100
AcDbLine
 10
166.18287
 20
328.348503
 30
0.0
 11
166.18287
 21
365.698503
 31
0.0
  0
LINE
  5
E9
100
AcDbEntity
  8
0
  6
Continuous
 62
   174
100
AcDbLine
 10
469.48287
 20
240.594943
 30
0.0
 11
469.48287
 21
281.094142
 31
0.0
  0
LINE
  5
EA
100
AcDbEntity
  8
0
  6
HIDDEN
 62
   174
100
AcDbLine
 10
174.73287
 20
362.773503
 30
0.0
 11
178.33287
 21
362.773503
 31
0.0
  0
LINE
  5
EB
100
AcDbEntity
  8
0
  6
HIDDEN
 62
   174
100
AcDbLine
 10
122.98287
 20
309.218835
 30
0.0
 11
122.98287
 21
288.969022
 31
0.0
  0
LINE
  5
EC
100
AcDbEntity
  8
0
  6
HIDDEN
 62
   174
100
AcDbLine
 10
122.98287
 20
310.348503
 30
0.0
 11
129.73287
 21
310.348503
 31
0.0
  0
LINE
  5
ED
100
AcDbEntity
  8
0
  6
Continuous
 62
   174
100
AcDbLine
 10
122.98287
 20
232.723503
 30
0.0
 11
129.73287
 21
232.723503
 31
0.0
  0
LINE
  5
EE
100
AcDbEntity
  8
0
  6
HIDDEN
 62
   174
100
AcDbLine
 10
311.53287
 20
204.598503
 30
0.0
 11
311.53287
 21
236.098503
 31
0.0
  0
LINE
  5
EF
100
AcDbEntity
  8
0
  6
HIDDEN
 62
   174
100
AcDbLine
 10
419.53287
 20
204.598503
 30
0.0
 11
419.53287
 21
236.098503
 31
0.0
  0
LINE
  5
F0
100
AcDbEntity
  8
0
  6
HIDDEN
 62
   174
100
AcDbLine
 10
365.53287
 20
204.598503
 30
0.0
 11
365.53287
 21
236.098503
 31
0.0
  0
LINE
  5
F1
100
AcDbEntity
  8
0
  6
HIDDEN
 62
   174
100
AcDbLine
 10
330.469179
 20
204.598503
 30
0.0
 11
311.569297
 21
204.598503
 31
0.0
  0
LINE
  5
F2
100
AcDbEntity
  8
0
  6
HIDDEN
 62
   174
100
AcDbLine
 10
122.98287
 20
233.848503
 30
0.0
 11
129.73287
 21
233.848503
 31
0.0
  0
LINE
  5
F3
100
AcDbEntity
  8
0
  6
HIDDEN
 62
   174
100
AcDbLine
 10
122.98287
 20
310.348503
 30
0.0
 11
129.73287
 21
310.348503
 31
0.0
  0
LINE
  5
F4
100
AcDbEntity
  8
0
  6
Continuous
 62
   174
100
AcDbLine
 10
151.78287
 20
328.348503
 30
0.0
 11
151.78287
 21
365.698503
 31
0.0
  0
LINE
  5
F5
100
AcDbEntity
  8
0
  6
HIDDEN
 62
   174
100
AcDbLine
 10
159.019461
 20
336.448503
 30
0.0
 11
150.984989
 21
336.448503
 31
0.0
  0
LINE
  5
F6
100
AcDbEntity
  8
0
  6
HIDDEN
 62
   174
100
AcDbLine
 10
166.18287
 20
343.198503
 30
0.0
 11
166.18287
 21
365.698503
 31
0.0
  0
LINE
  5
F7
100
AcDbEntity
  8
0
  6
HIDDEN
 62
   174
100
AcDbLine
 10
419.53287
 20
231.598503
 30
0.0
 11
419.53287
 21
204.598503
 31
0.0
  0
LINE
  5
F8
100
AcDbEntity
  8
0
  6
HIDDEN
 62
   174
100
AcDbLine
 10
275.98287
 20
310.348503
 30
0.0
 11
275.98287
 21
309.898503
 31
0.0
  0
LINE
  5
F9
100
AcDbEntity
  8
0
  6
HIDDEN
 62
   174
100
AcDbLine
 10
122.98287
 20
222.581112
 30
0.0
 11
122.98287
 21
212.47025
 31
0.0
  0
LINE
  5
FA
100
AcDbEntity
  8
0
  6
HIDDEN
 62
   174
100
AcDbLine
 10
122.98287
 20
288.973503
 30
0.0
 11
129.73287
 21
288.973503
 31
0.0
  0
LINE
  5
FB
100
AcDbEntity
  8
0
  6
HIDDEN
 62
   174
100
AcDbLine
 10
417.769099
 20
231.598503
 30
0.0
 11
440.268939
 21
231.598503
 31
0.0
  0
LINE
  5
FC
100
AcDbEntity
  8
0
  6
HIDDEN
 62
   174
100
AcDbLine
 10
120.73287
 20
230.470036
 30
0.0
 11
120.73287
 21
214.720277
 31
0.0
  0
LINE
  5
FD
100
AcDbEntity
  8
0
  6
HIDDEN
 62
   174
100
AcDbLine
 10
330.43287
 20
204.598503
 30
0.0
 11
330.43287
 21
236.098503
 31
0.0
  0
LINE
  5
FE
100
AcDbEntity
  8
0
  6
HIDDEN
 62
   174
100
AcDbLine
 10
419.53287
 20
204.598503
 30
0.0
 11
419.53287
 21
236.098503
 31
0.0
  0
LINE
  5
FF
100
AcDbEntity
  8
0
  6
HIDDEN
 62
   174
100
AcDbLine
 10
419.569291
 20
236.098503
 30
0.0
 11
438.469173
 21
236.098503
 31
0.0
  0
LINE
  5
100
100
AcDbEntity
  8
0
  6
HIDDEN
 62
   174
100
AcDbLine
 10
122.98287
 20
222.595156
 30
0.0
 11
122.98287
 21
233.400135
 31
0.0
  0
LINE
  5
101
100
AcDbEntity
  8
0
  6
HIDDEN
 62
   174
100
AcDbLine
 10
309.769106
 20
231.598503
 30
0.0
 11
332.269371
 21
231.598503
 31
0.0
  0
LINE
  5
102
100
AcDbEntity
  8
0
  6
HIDDEN
 62
   174
100
AcDbLine
 10
417.73287
 20
231.598503
 30
0.0
 11
417.73287
 21
204.598503
 31
0.0
  0
LINE
  5
103
100
AcDbEntity
  8
0
  6
HIDDEN
 62
   174
100
AcDbLine
 10
170.269167
 20
328.348503
 30
0.0
 11
159.019461
 21
328.348503
 31
0.0
  0
LINE
  5
104
100
AcDbEntity
  8
0
  6
HIDDEN
 62
   174
100
AcDbLine
 10
438.469173
 20
204.598503
 30
0.0
 11
419.569291
 21
204.598503
 31
0.0
  0
LINE
  5
105
100
AcDbEntity
  8
0
  6
HIDDEN
 62
   174
100
AcDbLine
 10
257.98287
 20
310.348503
 30
0.0
 11
257.98287
 21
309.898503
 31
0.0
  0
LINE
  5
106
100
AcDbEntity
  8
0
  6
HIDDEN
 62
   174
100
AcDbLine
 10
311.53287
 20
231.598503
 30
0.0
 11
311.53287
 21
204.598503
 31
0.0
  0
LINE
  5
107
100
AcDbEntity
  8
0
  6
HIDDEN
 62
   174
100
AcDbLine
 10
129.73287
 20
310.343635
 30
0.0
 11
129.73287
 21
299.093928
 31
0.0
  0
LINE
  5
108
100
AcDbEntity
  8
0
  6
HIDDEN
 62
   174
100
AcDbLine
 10
122.98287
 20
222.598503
 30
0.0
 11
129.73287
 21
222.598503
 31
0.0
  0
LINE
  5
109
100
AcDbEntity
  8
0
  6
HIDDEN
 62
   174
100
AcDbLine
 10
167.053506
 20
336.448503
 30
0.0
 11
159.019461
 21
336.448503
 31
0.0
  0
LINE
  5
10A
100
AcDbEntity
  8
0
  6
Continuous
 62
   174
100
AcDbLine
 10
120.73287
 20
230.470036
 30
0.0
 11
120.73287
 21
214.720277
 31
0.0
  0
LINE
  5
10B
100
AcDbEntity
  8
0
  6
HIDDEN
 62
   174
100
AcDbLine
 10
330.43287
 20
204.598503
 30
0.0
 11
330.43287
 21
236.098503
 31
0.0
  0
LINE
  5
10C
100
AcDbEntity
  8
0
  6
HIDDEN
 62
   174
100
AcDbLine
 10
122.98287
 20
212.473503
 30
0.0
 11
129.73287
 21
212.473503
 31
0.0
  0
LINE
  5
10D
100
AcDbEntity
  8
0
  6
HIDDEN
 62
   174
100
AcDbLine
 10
178.33287
 20
362.767932
 30
0.0
 11
178.33287
 21
368.617916
 31
0.0
  0
LINE
  5
10E
100
AcDbEntity
  8
0
  6
HIDDEN
 62
   174
100
AcDbLine
 10
174.73287
 20
362.767932
 30
0.0
 11
174.73287
 21
368.617916
 31
0.0
  0
LINE
  5
10F
100
AcDbEntity
  8
0
  6
HIDDEN
 62
   174
100
AcDbLine
 10
151.78287
 20
328.348503
 30
0.0
 11
166.18287
 21
328.348503
 31
0.0
  0
LINE
  5
110
100
AcDbEntity
  8
0
  6
HIDDEN
 62
   174
100
AcDbLine
 10
129.73287
 20
211.348503
 30
0.0
 11
129.73287
 21
222.598503
 31
0.0
  0
LINE
  5
111
100
AcDbEntity
  8
0
  6
HIDDEN
 62
   174
100
AcDbLine
 10
365.53287
 20
204.598503
 30
0.0
 11
365.53287
 21
236.098503
 31
0.0
  0
LINE
  5
112
100
AcDbEntity
  8
0
  6
Continuous
 62
   174
100
AcDbLine
 10
122.98287
 20
211.348503
 30
0.0
 11
122.98287
 21
212.473503
 31
0.0
  0
LINE
  5
113
100
AcDbEntity
  8
0
  6
HIDDEN
 62
   174
100
AcDbLine
 10
166.18287
 20
336.448503
 30
0.0
 11
166.18287
 21
343.198503
 31
0.0
  0
LINE
  5
114
100
AcDbEntity
  8
0
  6
HIDDEN
 62
   174
100
AcDbLine
 10
122.98287
 20
232.720063
 30
0.0
 11
122.98287
 21
212.47025
 31
0.0
  0
LINE
  5
115
100
AcDbEntity
  8
0
  6
Continuous
 62
   174
100
AcDbLine
 10
464.98287
 20
240.598503
 30
0.0
 11
469.48287
 21
240.598503
 31
0.0
  0
LINE
  5
116
100
AcDbEntity
  8
0
  6
HIDDEN
 62
   174
100
AcDbLine
 10
122.98287
 20
309.223503
 30
0.0
 11
129.73287
 21
309.223503
 31
0.0
  0
LINE
  5
117
100
AcDbEntity
  8
0
  6
Continuous
 62
   174
100
AcDbLine
 10
122.98287
 20
309.223503
 30
0.0
 11
129.73287
 21
309.223503
 31
0.0
  0
LINE
  5
118
100
AcDbEntity
  8
0
  6
HIDDEN
 62
   174
100
AcDbLine
 10
151.78287
 20
328.348503
 30
0.0
 11
166.18287
 21
328.348503
 31
0.0
  0
LINE
  5
119
100
AcDbEntity
  8
0
  6
Continuous
 62
   174
100
AcDbLine
 10
464.98287
 20
281.098503
 30
0.0
 11
469.48287
 21
281.098503
 31
0.0
  0
LINE
  5
11A
100
AcDbEntity
  8
0
  6
HIDDEN
 62
   174
100
AcDbLine
 10
332.23287
 20
231.598503
 30
0.0
 11
332.23287
 21
204.598503
 31
0.0
  0
LINE
  5
11B
100
AcDbEntity
  8
0
  6
HIDDEN
 62
   174
100
AcDbLine
 10
311.569297
 20
236.098503
 30
0.0
 11
330.469179
 21
236.098503
 31
0.0
  0
LINE
  5
11C
100
AcDbEntity
  8
0
  6
HIDDEN
 62
   174
100
AcDbLine
 10
365.53287
 20
231.598503
 30
0.0
 11
365.53287
 21
204.598503
 31
0.0
  0
LINE
  5
11D
100
AcDbEntity
  8
0
  6
HIDDEN
 62
   174
100
AcDbLine
 10
166.18287
 20
328.348503
 30
0.0
 11
166.18287
 21
336.448503
 31
0.0
  0
LINE
  5
11E
100
AcDbEntity
  8
0
  6
HIDDEN
 62
   174
100
AcDbLine
 10
122.98287
 20
222.598503
 30
0.0
 11
129.73287
 21
222.598503
 31
0.0
  0
LINE
  5
11F
100
AcDbEntity
  8
0
  6
Continuous
 62
   174
100
AcDbLine
 10
150.153837
 20
336.448503
 30
0.0
 11
147.769328
 21
336.448503
 31
0.0
  0
LINE
  5
120
100
AcDbEntity
  8
0
  6
HIDDEN
 62
   174
100
AcDbLine
 10
309.769106
 20
204.598503
 30
0.0
 11
332.269371
 21
204.598503
 31
0.0
  0
LINE
  5
121
100
AcDbEntity
  8
0
  6
HIDDEN
 62
   174
100
AcDbLine
 10
122.98287
 20
309.218835
 30
0.0
 11
122.98287
 21
299.079459
 31
0.0
  0
LINE
  5
122
100
AcDbEntity
  8
0
  6
HIDDEN
 62
   174
100
AcDbLine
 10
122.98287
 20
233.848503
 30
0.0
 11
129.73287
 21
233.848503
 31
0.0
  0
LINE
  5
123
100
AcDbEntity
  8
0
  6
HIDDEN
 62
   174
100
AcDbLine
 10
122.98287
 20
232.723503
 30
0.0
 11
129.73287
 21
232.723503
 31
0.0
  0
LINE
  5
124
100
AcDbEntity
  8
0
  6
HIDDEN
 62
   174
100
AcDbLine
 10
120.73287
 20
230.470036
 30
0.0
 11
120.73287
 21
214.720277
 31
0.0
  0
LINE
  5
125
100
AcDbEntity
  8
0
  6
Continuous
 62
   174
100
AcDbLine
 10
122.98287
 20
288.973503
 30
0.0
 11
129.73287
 21
288.973503
 31
0.0
  0
LINE
  5
126
100
AcDbEntity
  8
0
  6
HIDDEN
 62
   174
100
AcDbLine
 10
122.98287
 20
212.473503
 30
0.0
 11
122.98287
 21
222.598503
 31
0.0
  0
LINE
  5
127
100
AcDbEntity
  8
0
  6
HIDDEN
 62
   174
100
AcDbLine
 10
386.23287
 20
231.598503
 30
0.0
 11
386.23287
 21
204.598503
 31
0.0
  0
LINE
  5
128
100
AcDbEntity
  8
0
  6
HIDDEN
 62
   174
100
AcDbLine
 10
174.73287
 20
328.348503
 30
0.0
 11
178.33287
 21
328.348503
 31
0.0
  0
LINE
  5
129
100
AcDbEntity
  8
0
  6
Continuous
 62
   174
100
AcDbLine
 10
147.73287
 20
328.348503
 30
0.0
 11
147.73287
 21
336.448503
 31
0.0
  0
LINE
  5
12A
100
AcDbEntity
  8
0
  6
HIDDEN
 62
   174
100
AcDbLine
 10
151.78287
 20
336.448503
 30
0.0
 11
151.78287
 21
343.198503
 31
0.0
  0
LINE
  5
12B
100
AcDbEntity
  8
0
  6
Continuous
 62
   174
100
AcDbLine
 10
122.98287
 20
233.400135
 30
0.0
 11
122.98287
 21
233.844863
 31
0.0
  0
LINE
  5
12C
100
AcDbEntity
  8
0
  6
HIDDEN
 62
   174
100
AcDbLine
 10
122.98287
 20
287.848503
 30
0.0
 11
129.73287
 21
287.848503
 31
0.0
  0
LINE
  5
12D
100
AcDbEntity
  8
0
  6
HIDDEN
 62
   174
100
AcDbLine
 10
438.43287
 20
231.598503
 30
0.0
 11
438.43287
 21
204.598503
 31
0.0
  0
LINE
  5
12E
100
AcDbEntity
  8
0
  6
HIDDEN
 62
   174
100
AcDbLine
 10
122.98287
 20
232.723503
 30
0.0
 11
129.73287
 21
232.723503
 31
0.0
  0
LINE
  5
12F
100
AcDbEntity
  8
0
  6
HIDDEN
 62
   174
100
AcDbLine
 10
129.73287
 20
299.093928
 30
0.0
 11
129.73287
 21
287.844222
 31
0.0
  0
ENDBLK
  5
130
100
AcDbEntity
  8
0
100
AcDbBlockEnd
  0
BLOCK
  5
133
100
AcDbEntity
  8
0
100
AcDbBlockBegin
  2
*B2
 70
     0
 10
0.0
 20
0.0
 30
0.0
  3
*B2
  1

  0
LINE
  5
134
100
AcDbEntity
  8
0
  6
Continuous
 62
   174
100
AcDbLine
 10
194.98287
 20
32.692445
 30
0.0
 11
194.98287
 21
104.692445
 31
0.0
  0
LINE
  5
135
100
AcDbEntity
  8
0
  6
Continuous
 62
   174
100
AcDbLine
 10
122.98287
 20
32.692445
 30
0.0
 11
122.98287
 21
104.692445
 31
0.0
  0
ARC
  5
136
100
AcDbEntity
  8
0
  6
Continuous
 62
   174
100
AcDbCircle
 10
158.98287
 20
68.692445
 30
0.0
 40
8.325
100
AcDbArc
 50
-90.0
 51
90.0
  0
ARC
  5
137
100
AcDbEntity
  8
0
  6
Continuous
 62
   174
100
AcDbCircle
 10
158.98287
 20
68.692445
 30
0.0
 40
8.325
100
AcDbArc
 50
-270.0
 51
-90.0
  0
ARC
  5
138
100
AcDbEntity
  8
0
  6
Continuous
 62
   174
100
AcDbCircle
 10
158.98287
 20
68.692445
 30
0.0
 40
6.075
100
AcDbArc
 50
90.0
 51
270.0
  0
ARC
  5
139
100
AcDbEntity
  8
0
  6
Continuous
 62
   174
100
AcDbCircle
 10
158.98287
 20
68.692445
 30
0.0
 40
6.075
100
AcDbArc
 50
-90.0
 51
90.0
  0
LINE
  5
13A
100
AcDbEntity
  8
0
  6
Continuous
 62
   174
100
AcDbLine
 10
248.98287
 20
32.692445
 30
0.0
 11
248.98287
 21
104.692445
 31
0.0
  0
LINE
  5
13B
100
AcDbEntity
  8
0
  6
Continuous
 62
   174
100
AcDbLine
 10
248.98287
 20
32.692445
 30
0.0
 11
194.98287
 21
32.692445
 31
0.0
  0
LINE
  5
13C
100
AcDbEntity
  8
0
  6
Continuous
 62
   174
100
AcDbLine
 10
194.98287
 20
32.692445
 30
0.0
 11
122.98287
 21
32.692445
 31
0.0
  0
LINE
  5
13D
100
AcDbEntity
  8
0
  6
Continuous
 62
   174
100
AcDbLine
 10
248.98287
 20
104.692445
 30
0.0
 11
194.98287
 21
104.692445
 31
0.0
  0
LINE
  5
13E
100
AcDbEntity
  8
0
  6
Continuous
 62
   174
100
AcDbLine
 10
194.98287
 20
104.692445
 30
0.0
 11
122.98287
 21
104.692445
 31
0.0
  0
LINE
  5
13F
100
AcDbEntity
  8
0
  6
Continuous
 62
   174
100
AcDbLine
 10
248.98287
 20
104.692445
 30
0.0
 11
284.98287
 21
104.692445
 31
0.0
  0
LINE
  5
140
100
AcDbEntity
  8
0
  6
Continuous
 62
   174
100
AcDbLine
 10
284.98287
 20
32.692445
 30
0.0
 11
284.98287
 21
104.692445
 31
0.0
  0
ARC
  5
141
100
AcDbEntity
  8
0
  6
Continuous
 62
   174
100
AcDbCircle
 10
401.98287
 20
68.692445
 30
0.0
 40
9.45
100
AcDbArc
 50
0.0
 51
7.366994
  0
ARC
  5
142
100
AcDbEntity
  8
0
  6
Continuous
 62
   174
100
AcDbCircle
 10
347.98287
 20
68.692445
 30
0.0
 40
9.45
100
AcDbArc
 50
117.563094
 51
140.723836
  0
ARC
  5
143
100
AcDbEntity
  8
0
  6
Continuous
 62
   174
100
AcDbCircle
 10
347.98287
 20
68.692445
 30
0.0
 40
9.45
100
AcDbArc
 50
164.185594
 51
171.695563
  0
ARC
  5
144
100
AcDbEntity
  8
0
  6
Continuous
 62
   174
100
AcDbCircle
 10
347.98287
 20
68.692445
 30
0.0
 40
9.45
100
AcDbArc
 50
351.695563
 51
360.0
  0
ARC
  5
145
100
AcDbEntity
  8
0
  6
Continuous
 62
   174
100
AcDbCircle
 10
347.98287
 20
68.692445
 30
0.0
 40
9.45
100
AcDbArc
 50
0.0
 51
8.304437
  0
LINE
  5
146
100
AcDbEntity
  8
0
  6
Continuous
 62
   174
100
AcDbLine
 10
120.73287
 20
51.431426
 30
0.0
 11
120.73287
 21
43.941693
 31
0.0
  0
LINE
  5
147
100
AcDbEntity
  8
0
  6
Continuous
 62
   174
100
AcDbLine
 10
120.73287
 20
100.930731
 30
0.0
 11
120.73287
 21
93.440999
 31
0.0
  0
ARC
  5
148
100
AcDbEntity
  8
0
  6
Continuous
 62
   174
100
AcDbCircle
 10
401.98287
 20
68.692445
 30
0.0
 40
9.45
100
AcDbArc
 50
122.252827
 51
138.385919
  0
ARC
  5
149
100
AcDbEntity
  8
0
  6
Continuous
 62
   174
100
AcDbCircle
 10
401.98287
 20
68.692445
 30
0.0
 40
9.45
100
AcDbArc
 50
138.385919
 51
147.708096
  0
ARC
  5
14A
100
AcDbEntity
  8
0
  6
Continuous
 62
   174
100
AcDbCircle
 10
401.98287
 20
68.692445
 30
0.0
 40
9.45
100
AcDbArc
 50
212.291904
 51
221.614081
  0
ARC
  5
14B
100
AcDbEntity
  8
0
  6
Continuous
 62
   174
100
AcDbCircle
 10
401.98287
 20
68.692445
 30
0.0
 40
9.45
100
AcDbArc
 50
7.366994
 51
17.180404
  0
ARC
  5
14C
100
AcDbEntity
  8
0
  6
Continuous
 62
   174
100
AcDbCircle
 10
401.98287
 20
68.692445
 30
0.0
 40
9.45
100
AcDbArc
 50
32.291904
 51
41.614081
  0
ARC
  5
14D
100
AcDbEntity
  8
0
  6
Continuous
 62
   174
100
AcDbCircle
 10
401.98287
 20
68.692445
 30
0.0
 40
9.45
100
AcDbArc
 50
41.614081
 51
57.747173
  0
ARC
  5
14E
100
AcDbEntity
  8
0
  6
Continuous
 62
   174
100
AcDbCircle
 10
347.98287
 20
68.692445
 30
0.0
 40
9.45
100
AcDbArc
 50
90.0
 51
94.049558
  0
ARC
  5
14F
100
AcDbEntity
  8
0
  6
Continuous
 62
   174
100
AcDbCircle
 10
347.98287
 20
68.692445
 30
0.0
 40
9.45
100
AcDbArc
 50
242.436906
 51
248.929895
  0
ARC
  5
150
100
AcDbEntity
  8
0
  6
Continuous
 62
   174
100
AcDbCircle
 10
347.98287
 20
68.692445
 30
0.0
 40
9.45
100
AcDbArc
 50
8.304437
 51
15.814406
  0
ARC
  5
151
100
AcDbEntity
  8
0
  6
Continuous
 62
   174
100
AcDbCircle
 10
347.98287
 20
68.692445
 30
0.0
 40
9.45
100
AcDbArc
 50
15.814406
 51
35.84324
  0
ARC
  5
152
100
AcDbEntity
  8
0
  6
Continuous
 62
   174
100
AcDbCircle
 10
347.98287
 20
68.692445
 30
0.0
 40
9.45
100
AcDbArc
 50
35.84324
 51
39.276164
  0
LINE
  5
153
100
AcDbEntity
  8
0
  6
Continuous
 62
   174
100
AcDbLine
 10
151.78287
 20
88.267445
 30
0.0
 11
151.78287
 21
84.667445
 31
0.0
  0
LINE
  5
154
100
AcDbEntity
  8
0
  6
Continuous
 62
   174
100
AcDbLine
 10
166.18287
 20
84.667445
 30
0.0
 11
166.18287
 21
88.267445
 31
0.0
  0
LINE
  5
155
100
AcDbEntity
  8
0
  6
Continuous
 62
   174
100
AcDbLine
 10
166.18287
 20
49.117445
 30
0.0
 11
166.18287
 21
52.717445
 31
0.0
  0
ARC
  5
156
100
AcDbEntity
  8
0
  6
Continuous
 62
   174
100
AcDbCircle
 10
401.98287
 20
68.692445
 30
0.0
 40
9.45
100
AcDbArc
 50
147.708096
 51
162.819596
  0
ARC
  5
157
100
AcDbEntity
  8
0
  6
Continuous
 62
   174
100
AcDbCircle
 10
401.98287
 20
68.692445
 30
0.0
 40
9.45
100
AcDbArc
 50
187.366994
 51
197.180404
  0
ARC
  5
158
100
AcDbEntity
  8
0
  6
Continuous
 62
   174
100
AcDbCircle
 10
401.98287
 20
68.692445
 30
0.0
 40
9.45
100
AcDbArc
 50
221.614081
 51
237.747173
  0
ARC
  5
159
100
AcDbEntity
  8
0
  6
Continuous
 62
   174
100
AcDbCircle
 10
401.98287
 20
68.692445
 30
0.0
 40
9.45
100
AcDbArc
 50
57.747173
 51
65.771173
  0
ARC
  5
15A
100
AcDbEntity
  8
0
  6
Continuous
 62
   174
100
AcDbCircle
 10
347.98287
 20
68.692445
 30
0.0
 40
9.45
100
AcDbArc
 50
140.723836
 51
144.15676
  0
ARC
  5
15B
100
AcDbEntity
  8
0
  6
Continuous
 62
   174
100
AcDbCircle
 10
347.98287
 20
68.692445
 30
0.0
 40
9.45
100
AcDbArc
 50
144.15676
 51
164.185594
  0
ARC
  5
15C
100
AcDbEntity
  8
0
  6
Continuous
 62
   174
100
AcDbCircle
 10
347.98287
 20
68.692445
 30
0.0
 40
9.45
100
AcDbArc
 50
39.276164
 51
62.436906
  0
ARC
  5
15D
100
AcDbEntity
  8
0
  6
Continuous
 62
   174
100
AcDbCircle
 10
347.98287
 20
68.692445
 30
0.0
 40
9.45
100
AcDbArc
 50
62.436906
 51
68.929895
  0
LINE
  5
15E
100
AcDbEntity
  8
0
  6
Continuous
 62
   174
100
AcDbLine
 10
120.73287
 20
101.315879
 30
0.0
 11
120.73287
 21
93.440999
 31
0.0
  0
LINE
  5
15F
100
AcDbEntity
  8
0
  6
Continuous
 62
   174
100
AcDbLine
 10
151.78287
 20
49.117445
 30
0.0
 11
166.18287
 21
49.117445
 31
0.0
  0
LINE
  5
160
100
AcDbEntity
  8
0
  6
Continuous
 62
   174
100
AcDbLine
 10
464.98287
 20
32.692445
 30
0.0
 11
284.98287
 21
32.692445
 31
0.0
  0
LINE
  5
161
100
AcDbEntity
  8
0
  6
Continuous
 62
   174
100
AcDbLine
 10
464.98287
 20
104.692445
 30
0.0
 11
284.98287
 21
104.692445
 31
0.0
  0
ARC
  5
162
100
AcDbEntity
  8
0
  6
Continuous
 62
   174
100
AcDbCircle
 10
401.98287
 20
68.692445
 30
0.0
 40
9.45
100
AcDbArc
 50
65.771173
 51
90.0
  0
ARC
  5
163
100
AcDbEntity
  8
0
  6
Continuous
 62
   174
100
AcDbCircle
 10
401.98287
 20
68.692445
 30
0.0
 40
9.45
100
AcDbArc
 50
114.228827
 51
122.252827
  0
ARC
  5
164
100
AcDbEntity
  8
0
  6
Continuous
 62
   174
100
AcDbCircle
 10
401.98287
 20
68.692445
 30
0.0
 40
9.45
100
AcDbArc
 50
327.708096
 51
342.819596
  0
ARC
  5
165
100
AcDbEntity
  8
0
  6
Continuous
 62
   174
100
AcDbCircle
 10
347.98287
 20
68.692445
 30
0.0
 40
9.45
100
AcDbArc
 50
111.070105
 51
117.563094
  0
ARC
  5
166
100
AcDbEntity
  8
0
  6
Continuous
 62
   174
100
AcDbCircle
 10
347.98287
 20
68.692445
 30
0.0
 40
9.45
100
AcDbArc
 50
180.0
 51
188.304437
  0
ARC
  5
167
100
AcDbEntity
  8
0
  6
Continuous
 62
   174
100
AcDbCircle
 10
122.98287
 20
36.067445
 30
0.0
 40
2.25
100
AcDbArc
 50
180.0
 51
270.0
  0
ARC
  5
168
100
AcDbEntity
  8
0
  6
Continuous
 62
   174
100
AcDbCircle
 10
122.98287
 20
85.567445
 30
0.0
 40
2.25
100
AcDbArc
 50
180.0
 51
270.0
  0
LINE
  5
169
100
AcDbEntity
  8
0
  6
Continuous
 62
   174
100
AcDbLine
 10
166.18287
 20
88.267445
 30
0.0
 11
151.78287
 21
88.267445
 31
0.0
  0
LINE
  5
16A
100
AcDbEntity
  8
0
  6
Continuous
 62
   174
100
AcDbLine
 10
248.98287
 20
32.692445
 30
0.0
 11
248.98287
 21
104.692445
 31
0.0
  0
ARC
  5
16B
100
AcDbEntity
  8
0
  6
Continuous
 62
   174
100
AcDbCircle
 10
347.98287
 20
68.692445
 30
0.0
 40
11.25
100
AcDbArc
 50
-180.0
 51
-61.189941
  0
ARC
  5
16C
100
AcDbEntity
  8
0
  6
Continuous
 62
   174
100
AcDbCircle
 10
401.98287
 20
68.692445
 30
0.0
 40
9.45
100
AcDbArc
 50
90.0
 51
114.228827
  0
ARC
  5
16D
100
AcDbEntity
  8
0
  6
Continuous
 62
   174
100
AcDbCircle
 10
401.98287
 20
68.692445
 30
0.0
 40
9.45
100
AcDbArc
 50
270.0
 51
294.228827
  0
ARC
  5
16E
100
AcDbEntity
  8
0
  6
Continuous
 62
   174
100
AcDbCircle
 10
401.98287
 20
68.692445
 30
0.0
 40
9.45
100
AcDbArc
 50
294.228827
 51
302.252827
  0
ARC
  5
16F
100
AcDbEntity
  8
0
  6
Continuous
 62
   174
100
AcDbCircle
 10
401.98287
 20
68.692445
 30
0.0
 40
9.45
100
AcDbArc
 50
302.252827
 51
318.385919
  0
ARC
  5
170
100
AcDbEntity
  8
0
  6
Continuous
 62
   174
100
AcDbCircle
 10
347.98287
 20
68.692445
 30
0.0
 40
9.45
100
AcDbArc
 50
85.950442
 51
90.0
  0
ARC
  5
171
100
AcDbEntity
  8
0
  6
Continuous
 62
   174
100
AcDbCircle
 10
347.98287
 20
68.692445
 30
0.0
 40
9.45
100
AcDbArc
 50
171.695563
 51
180.0
  0
ARC
  5
172
100
AcDbEntity
  8
0
  6
Continuous
 62
   174
100
AcDbCircle
 10
347.98287
 20
68.692445
 30
0.0
 40
9.45
100
AcDbArc
 50
188.304437
 51
195.814406
  0
ARC
  5
173
100
AcDbEntity
  8
0
  6
Continuous
 62
   174
100
AcDbCircle
 10
347.98287
 20
68.692445
 30
0.0
 40
9.45
100
AcDbArc
 50
195.814406
 51
215.84324
  0
ARC
  5
174
100
AcDbEntity
  8
0
  6
Continuous
 62
   174
100
AcDbCircle
 10
347.98287
 20
68.692445
 30
0.0
 40
9.45
100
AcDbArc
 50
265.950442
 51
270.0
  0
ARC
  5
175
100
AcDbEntity
  8
0
  6
Continuous
 62
   174
100
AcDbCircle
 10
347.98287
 20
68.692445
 30
0.0
 40
9.45
100
AcDbArc
 50
270.0
 51
274.049558
  0
ARC
  5
176
100
AcDbEntity
  8
0
  6
Continuous
 62
   174
100
AcDbCircle
 10
347.98287
 20
68.692445
 30
0.0
 40
9.45
100
AcDbArc
 50
291.070105
 51
297.563094
  0
ARC
  5
177
100
AcDbEntity
  8
0
  6
Continuous
 62
   174
100
AcDbCircle
 10
347.98287
 20
68.692445
 30
0.0
 40
9.45
100
AcDbArc
 50
324.15676
 51
344.185594
  0
ARC
  5
178
100
AcDbEntity
  8
0
  6
Continuous
 62
   174
100
AcDbCircle
 10
347.98287
 20
68.692445
 30
0.0
 40
9.45
100
AcDbArc
 50
68.929895
 51
85.950442
  0
LINE
  5
179
100
AcDbEntity
  8
0
  6
Continuous
 62
   174
100
AcDbLine
 10
120.73287
 20
43.941693
 30
0.0
 11
120.73287
 21
36.066813
 31
0.0
  0
ARC
  5
17A
100
AcDbEntity
  8
0
  6
Continuous
 62
   174
100
AcDbCircle
 10
122.98287
 20
101.317445
 30
0.0
 40
2.25
100
AcDbArc
 50
-270.0
 51
-180.0
  0
LINE
  5
17B
100
AcDbEntity
  8
0
  6
Continuous
 62
   174
100
AcDbLine
 10
120.73287
 20
101.315879
 30
0.0
 11
120.73287
 21
100.930731
 31
0.0
  0
LINE
  5
17C
100
AcDbEntity
  8
0
  6
Continuous
 62
   174
100
AcDbLine
 10
120.73287
 20
43.941693
 30
0.0
 11
120.73287
 21
36.066813
 31
0.0
  0
LINE
  5
17D
100
AcDbEntity
  8
0
  6
Continuous
 62
   174
100
AcDbLine
 10
120.73287
 20
51.816573
 30
0.0
 11
120.73287
 21
50.282793
 31
0.0
  0
LINE
  5
17E
100
AcDbEntity
  8
0
  6
Continuous
 62
   174
100
AcDbLine
 10
120.73287
 20
93.440999
 30
0.0
 11
120.73287
 21
85.566119
 31
0.0
  0
ARC
  5
17F
100
AcDbEntity
  8
0
  6
Continuous
 62
   174
100
AcDbCircle
 10
401.98287
 20
68.692445
 30
0.0
 40
11.25
100
AcDbArc
 50
0.0
 51
180.0
  0
ARC
  5
180
100
AcDbEntity
  8
0
  6
Continuous
 62
   174
100
AcDbCircle
 10
401.98287
 20
68.692445
 30
0.0
 40
9.45
100
AcDbArc
 50
162.819596
 51
172.633006
  0
ARC
  5
181
100
AcDbEntity
  8
0
  6
Continuous
 62
   174
100
AcDbCircle
 10
401.98287
 20
68.692445
 30
0.0
 40
9.45
100
AcDbArc
 50
352.633006
 51
360.0
  0
ARC
  5
182
100
AcDbEntity
  8
0
  6
Continuous
 62
   174
100
AcDbCircle
 10
401.98287
 20
68.692445
 30
0.0
 40
9.45
100
AcDbArc
 50
17.180404
 51
32.291904
  0
ARC
  5
183
100
AcDbEntity
  8
0
  6
Continuous
 62
   174
100
AcDbCircle
 10
347.98287
 20
68.692445
 30
0.0
 40
9.45
100
AcDbArc
 50
215.84324
 51
219.276164
  0
ARC
  5
184
100
AcDbEntity
  8
0
  6
Continuous
 62
   174
100
AcDbCircle
 10
347.98287
 20
68.692445
 30
0.0
 40
9.45
100
AcDbArc
 50
248.929895
 51
265.950442
  0
ARC
  5
185
100
AcDbEntity
  8
0
  6
Continuous
 62
   174
100
AcDbCircle
 10
347.98287
 20
68.692445
 30
0.0
 40
9.45
100
AcDbArc
 50
274.049558
 51
291.070105
  0
LINE
  5
186
100
AcDbEntity
  8
0
  6
Continuous
 62
   174
100
AcDbLine
 10
120.73287
 20
51.816573
 30
0.0
 11
120.73287
 21
43.941693
 31
0.0
  0
LINE
  5
187
100
AcDbEntity
  8
0
  6
Continuous
 62
   174
100
AcDbLine
 10
120.73287
 20
36.452386
 30
0.0
 11
120.73287
 21
36.066813
 31
0.0
  0
ARC
  5
188
100
AcDbEntity
  8
0
  6
Continuous
 62
   174
100
AcDbCircle
 10
122.98287
 20
51.817445
 30
0.0
 40
2.25
100
AcDbArc
 50
-270.0
 51
-180.0
  0
LINE
  5
189
100
AcDbEntity
  8
0
  6
Continuous
 62
   174
100
AcDbLine
 10
120.73287
 20
93.440999
 30
0.0
 11
120.73287
 21
85.951692
 31
0.0
  0
LINE
  5
18A
100
AcDbEntity
  8
0
  6
Continuous
 62
   174
100
AcDbLine
 10
120.73287
 20
93.440999
 30
0.0
 11
120.73287
 21
85.566119
 31
0.0
  0
ARC
  5
18B
100
AcDbEntity
  8
0
  6
Continuous
 62
   174
100
AcDbCircle
 10
347.98287
 20
68.692445
 30
0.0
 40
9.45
100
AcDbArc
 50
219.276164
 51
242.436906
  0
ARC
  5
18C
100
AcDbEntity
  8
0
  6
Continuous
 62
   174
100
AcDbCircle
 10
347.98287
 20
68.692445
 30
0.0
 40
9.45
100
AcDbArc
 50
297.563094
 51
320.723836
  0
ARC
  5
18D
100
AcDbEntity
  8
0
  6
Continuous
 62
   174
100
AcDbCircle
 10
347.98287
 20
68.692445
 30
0.0
 40
9.45
100
AcDbArc
 50
320.723836
 51
324.15676
  0
LINE
  5
18E
100
AcDbEntity
  8
0
  6
Continuous
 62
   174
100
AcDbLine
 10
120.73287
 20
43.941693
 30
0.0
 11
120.73287
 21
36.452386
 31
0.0
  0
LINE
  5
18F
100
AcDbEntity
  8
0
  6
Continuous
 62
   174
100
AcDbLine
 10
151.78287
 20
84.667445
 30
0.0
 11
166.18287
 21
84.667445
 31
0.0
  0
LINE
  5
190
100
AcDbEntity
  8
0
  6
Continuous
 62
   174
100
AcDbLine
 10
248.98287
 20
32.692445
 30
0.0
 11
284.98287
 21
32.692445
 31
0.0
  0
LINE
  5
191
100
AcDbEntity
  8
0
  6
Continuous
 62
   174
100
AcDbLine
 10
464.98287
 20
32.692445
 30
0.0
 11
464.98287
 21
104.692445
 31
0.0
  0
ARC
  5
192
100
AcDbEntity
  8
0
  6
Continuous
 62
   174
100
AcDbCircle
 10
401.98287
 20
68.692445
 30
0.0
 40
11.25
100
AcDbArc
 50
-180.0
 51
-61.189941
  0
ARC
  5
193
100
AcDbEntity
  8
0
  6
Continuous
 62
   174
100
AcDbCircle
 10
347.98287
 20
68.692445
 30
0.0
 40
11.25
100
AcDbArc
 50
0.0
 51
180.0
  0
ARC
  5
194
100
AcDbEntity
  8
0
  6
Continuous
 62
   174
100
AcDbCircle
 10
401.98287
 20
68.692445
 30
0.0
 40
9.45
100
AcDbArc
 50
172.633006
 51
180.0
  0
ARC
  5
195
100
AcDbEntity
  8
0
  6
Continuous
 62
   174
100
AcDbCircle
 10
401.98287
 20
68.692445
 30
0.0
 40
9.45
100
AcDbArc
 50
180.0
 51
187.366994
  0
ARC
  5
196
100
AcDbEntity
  8
0
  6
Continuous
 62
   174
100
AcDbCircle
 10
401.98287
 20
68.692445
 30
0.0
 40
9.45
100
AcDbArc
 50
197.180404
 51
212.291904
  0
ARC
  5
197
100
AcDbEntity
  8
0
  6
Continuous
 62
   174
100
AcDbCircle
 10
401.98287
 20
68.692445
 30
0.0
 40
9.45
100
AcDbArc
 50
237.747173
 51
245.771173
  0
ARC
  5
198
100
AcDbEntity
  8
0
  6
Continuous
 62
   174
100
AcDbCircle
 10
401.98287
 20
68.692445
 30
0.0
 40
9.45
100
AcDbArc
 50
245.771173
 51
270.0
  0
ARC
  5
199
100
AcDbEntity
  8
0
  6
Continuous
 62
   174
100
AcDbCircle
 10
401.98287
 20
68.692445
 30
0.0
 40
9.45
100
AcDbArc
 50
318.385919
 51
327.708096
  0
ARC
  5
19A
100
AcDbEntity
  8
0
  6
Continuous
 62
   174
100
AcDbCircle
 10
401.98287
 20
68.692445
 30
0.0
 40
9.45
100
AcDbArc
 50
342.819596
 51
352.633006
  0
ARC
  5
19B
100
AcDbEntity
  8
0
  6
Continuous
 62
   174
100
AcDbCircle
 10
347.98287
 20
68.692445
 30
0.0
 40
9.45
100
AcDbArc
 50
94.049558
 51
111.070105
  0
ARC
  5
19C
100
AcDbEntity
  8
0
  6
Continuous
 62
   174
100
AcDbCircle
 10
347.98287
 20
68.692445
 30
0.0
 40
9.45
100
AcDbArc
 50
344.185594
 51
351.695563
  0
LINE
  5
19D
100
AcDbEntity
  8
0
  6
Continuous
 62
   174
100
AcDbLine
 10
120.73287
 20
51.816573
 30
0.0
 11
120.73287
 21
51.431426
 31
0.0
  0
LINE
  5
19E
100
AcDbEntity
  8
0
  6
Continuous
 62
   174
100
AcDbLine
 10
120.73287
 20
85.951692
 30
0.0
 11
120.73287
 21
85.566119
 31
0.0
  0
LINE
  5
19F
100
AcDbEntity
  8
0
  6
Continuous
 62
   174
100
AcDbLine
 10
120.73287
 20
50.282793
 30
0.0
 11
120.73287
 21
43.941693
 31
0.0
  0
LINE
  5
1A0
100
AcDbEntity
  8
0
  6
Continuous
 62
   174
100
AcDbLine
 10
120.73287
 20
101.315879
 30
0.0
 11
120.73287
 21
99.782099
 31
0.0
  0
LINE
  5
1A1
100
AcDbEntity
  8
0
  6
Continuous
 62
   174
100
AcDbLine
 10
120.73287
 20
99.782099
 30
0.0
 11
120.73287
 21
93.440999
 31
0.0
  0
ARC
  5
1A2
100
AcDbEntity
  8
0
  6
Continuous
 62
   174
100
AcDbCircle
 10
158.98287
 20
68.692445
 30
0.0
 40
11.25
100
AcDbArc
 50
-90.0
 51
-81.359702
  0
LINE
  5
1A3
100
AcDbEntity
  8
0
  6
Continuous
 62
   174
100
AcDbLine
 10
178.33287
 20
75.892445
 30
0.0
 11
174.73287
 21
75.892445
 31
0.0
  0
LINE
  5
1A4
100
AcDbEntity
  8
0
  6
Continuous
 62
   174
100
AcDbLine
 10
469.48287
 20
48.441746
 30
0.0
 11
469.48287
 21
68.691559
 31
0.0
  0
ARC
  5
1A5
100
AcDbEntity
  8
0
  6
Continuous
 62
   174
100
AcDbCircle
 10
158.98287
 20
68.692445
 30
0.0
 40
11.25
100
AcDbArc
 50
-98.640298
 51
-90.0
  0
LINE
  5
1A6
100
AcDbEntity
  8
0
  6
Continuous
 62
   174
100
AcDbLine
 10
464.98287
 20
88.942445
 30
0.0
 11
469.48287
 21
88.942445
 31
0.0
  0
ARC
  5
1A7
100
AcDbEntity
  8
0
  6
Continuous
 62
   174
100
AcDbCircle
 10
158.98287
 20
68.692445
 30
0.0
 40
11.25
100
AcDbArc
 50
-270.0
 51
-261.359702
  0
LINE
  5
1A8
100
AcDbEntity
  8
0
  6
Continuous
 62
   174
100
AcDbLine
 10
464.98287
 20
48.442445
 30
0.0
 11
469.48287
 21
48.442445
 31
0.0
  0
LINE
  5
1A9
100
AcDbEntity
  8
0
  6
Continuous
 62
   174
100
AcDbLine
 10
174.73287
 20
61.492445
 30
0.0
 11
178.33287
 21
61.492445
 31
0.0
  0
ARC
  5
1AA
100
AcDbEntity
  8
0
  6
Continuous
 62
   174
100
AcDbCircle
 10
266.98287
 20
68.692445
 30
0.0
 40
9.0
100
AcDbArc
 50
0.0
 51
180.0
  0
LINE
  5
1AB
100
AcDbEntity
  8
0
  6
Continuous
 62
   174
100
AcDbLine
 10
174.73287
 20
75.892445
 30
0.0
 11
174.73287
 21
61.492445
 31
0.0
  0
LINE
  5
1AC
100
AcDbEntity
  8
0
  6
Continuous
 62
   174
100
AcDbLine
 10
178.33287
 20
61.492445
 30
0.0
 11
178.33287
 21
75.892445
 31
0.0
  0
ARC
  5
1AD
100
AcDbEntity
  8
0
  6
Continuous
 62
   174
100
AcDbCircle
 10
158.98287
 20
68.692445
 30
0.0
 40
11.25
100
AcDbArc
 50
-81.359702
 51
81.359702
  0
ARC
  5
1AE
100
AcDbEntity
  8
0
  6
Continuous
 62
   174
100
AcDbCircle
 10
266.98287
 20
68.692445
 30
0.0
 40
9.0
100
AcDbArc
 50
180.0
 51
360.0
  0
ARC
  5
1AF
100
AcDbEntity
  8
0
  6
Continuous
 62
   174
100
AcDbCircle
 10
158.98287
 20
68.692445
 30
0.0
 40
11.25
100
AcDbArc
 50
-261.359702
 51
-98.640298
  0
ARC
  5
1B0
100
AcDbEntity
  8
0
  6
Continuous
 62
   174
100
AcDbCircle
 10
158.98287
 20
68.692445
 30
0.0
 40
11.25
100
AcDbArc
 50
-278.640298
 51
-270.0
  0
LINE
  5
1B1
100
AcDbEntity
  8
0
  6
Continuous
 62
   174
100
AcDbLine
 10
151.78287
 20
52.717445
 30
0.0
 11
151.78287
 21
49.117445
 31
0.0
  0
LINE
  5
1B2
100
AcDbEntity
  8
0
  6
Continuous
 62
   174
100
AcDbLine
 10
166.18287
 20
52.717445
 30
0.0
 11
151.78287
 21
52.717445
 31
0.0
  0
LINE
  5
1B3
100
AcDbEntity
  8
0
  6
Continuous
 62
   174
100
AcDbLine
 10
469.48287
 20
68.691559
 30
0.0
 11
469.48287
 21
88.941371
 31
0.0
  0
ENDBLK
  5
1B4
100
AcDbEntity
  8
0
100
AcDbBlockEnd
  0
BLOCK
  5
1B7
100
AcDbEntity
  8
0
100
AcDbBlockBegin
  2
*B3
 70
     0
 10
0.0
 20
0.0
 30
0.0
  3
*B3
  1

  0
LINE
  5
1B8
100
AcDbEntity
  8
0
  6
Continuous
 62
   172
100
AcDbLine
 10
227.96655
 20
237.720507
 30
0.0
 11
188.16079
 21
170.029363
 31
0.0
  0
LINE
  5
1B9
100
AcDbEntity
  8
0
  6
Continuous
 62
   172
100
AcDbLine
 10
188.16079
 20
170.029363
 30
0.0
 11
169.24155
 21
170.029363
 31
0.0
  0
ENDBLK
  5
1BA
100
AcDbEntity
  8
0
100
AcDbBlockEnd
  0
BLOCK
  5
1BD
100
AcDbEntity
  8
0
100
AcDbBlockBegin
  2
*B4
 70
     0
 10
0.0
 20
0.0
 30
0.0
  3
*B4
  1

  0
LINE
  5
1BE
100
AcDbEntity
  8
0
  6
Continuous
 62
   172
100
AcDbLine
 10
184.229689
 20
174.132368
 30
0.0
 11
180.179689
 21
175.620507
 31
0.0
  0
LINE
  5
1BF
100
AcDbEntity
  8
0
  6
Continuous
 62
   172
100
AcDbLine
 10
184.229689
 20
174.132368
 30
0.0
 11
180.179689
 21
172.920507
 31
0.0
  0
LINE
  5
1C0
100
AcDbEntity
  8
0
  6
Continuous
 62
   172
100
AcDbLine
 10
181.529689
 20
174.132368
 30
0.0
 11
184.229689
 21
174.132368
 31
0.0
  0
LINE
  5
1C1
100
AcDbEntity
  8
0
  6
Continuous
 62
   172
100
AcDbLine
 10
184.229689
 20
197.358646
 30
0.0
 11
180.179689
 21
195.870507
 31
0.0
  0
LINE
  5
1C2
100
AcDbEntity
  8
0
  6
Continuous
 62
   172
100
AcDbLine
 10
184.229689
 20
197.358646
 30
0.0
 11
180.179689
 21
198.570507
 31
0.0
  0
LINE
  5
1C3
100
AcDbEntity
  8
0
  6
Continuous
 62
   172
100
AcDbLine
 10
181.529689
 20
197.358646
 30
0.0
 11
184.229689
 21
197.358646
 31
0.0
  0
ARC
  5
1C4
100
AcDbEntity
  8
0
  6
Continuous
 62
   172
100
AcDbCircle
 10
181.529689
 20
185.745507
 30
0.0
 40
11.613139
100
AcDbArc
 50
-270.0
 51
-90.0
  0
ENDBLK
  5
1C5
100
AcDbEntity
  8
0
100
AcDbBlockEnd
  0
BLOCK
  5
1C8
100
AcDbEntity
  8
0
100
AcDbBlockBegin
  2
*B5
 70
     0
 10
0.0
 20
0.0
 30
0.0
  3
*B5
  1

  0
ENDBLK
  5
1C9
100
AcDbEntity
  8
0
100
AcDbBlockEnd
  0
BLOCK
  5
1CB
100
AcDbEntity
  8
0
100
AcDbBlockBegin
  2
*B6
 70
     0
 10
0.0
 20
0.0
 30
0.0
  3
*B6
  1

  0
LINE
  5
1CC
100
AcDbEntity
  8
0
  6
Continuous
 62
   172
100
AcDbLine
 10
253.014017
 20
128.500602
 30
0.0
 11
234.094778
 21
128.500602
 31
0.0
  0
LINE
  5
1CD
100
AcDbEntity
  8
0
  6
Continuous
 62
   172
100
AcDbLine
 10
278.80902
 20
84.635262
 30
0.0
 11
253.014017
 21
128.500602
 31
0.0
  0
ENDBLK
  5
1CE
100
AcDbEntity
  8
0
100
AcDbBlockEnd
  0
BLOCK
  5
1D1
100
AcDbEntity
  8
0
100
AcDbBlockBegin
  2
*B7
 70
     0
 10
0.0
 20
0.0
 30
0.0
  3
*B7
  1

  0
LINE
  5
1D2
100
AcDbEntity
  8
0
  6
Continuous
 62
   172
100
AcDbLine
 10
249.082917
 20
132.603607
 30
0.0
 11
245.032917
 21
134.091746
 31
0.0
  0
LINE
  5
1D3
100
AcDbEntity
  8
0
  6
Continuous
 62
   172
100
AcDbLine
 10
249.082917
 20
132.603607
 30
0.0
 11
245.032917
 21
131.391746
 31
0.0
  0
LINE
  5
1D4
100
AcDbEntity
  8
0
  6
Continuous
 62
   172
100
AcDbLine
 10
246.382917
 20
132.603607
 30
0.0
 11
249.082917
 21
132.603607
 31
0.0
  0
LINE
  5
1D5
100
AcDbEntity
  8
0
  6
Continuous
 62
   172
100
AcDbLine
 10
249.082917
 20
155.829886
 30
0.0
 11
245.032917
 21
154.341746
 31
0.0
  0
LINE
  5
1D6
100
AcDbEntity
  8
0
  6
Continuous
 62
   172
100
AcDbLine
 10
249.082917
 20
155.829886
 30
0.0
 11
245.032917
 21
157.041746
 31
0.0
  0
LINE
  5
1D7
100
AcDbEntity
  8
0
  6
Continuous
 62
   172
100
AcDbLine
 10
246.382917
 20
155.829886
 30
0.0
 11
249.082917
 21
155.829886
 31
0.0
  0
ARC
  5
1D8
100
AcDbEntity
  8
0
  6
Continuous
 62
   172
100
AcDbCircle
 10
246.382917
 20
144.216746
 30
0.0
 40
11.613139
100
AcDbArc
 50
-270.0
 51
-90.0
  0
ENDBLK
  5
1D9
100
AcDbEntity
  8
0
100
AcDbBlockEnd
  0
BLOCK
  5
1DC
100
AcDbEntity
  8
0
100
AcDbBlockBegin
  2
*B8
 70
     0
 10
0.0
 20
0.0
 30
0.0
  3
*B8
  1

  0
ENDBLK
  5
1DD
100
AcDbEntity
  8
0
100
AcDbBlockEnd
  0
BLOCK
  5
1DF
100
AcDbEntity
  8
0
100
AcDbBlockBegin
  2
*B9
 70
     0
 10
0.0
 20
0.0
 30
0.0
  3
*B9
  1

  0
LINE
  5
1E0
100
AcDbEntity
  8
0
  6
Continuous
 62
     0
100
AcDbLine
 10
402.01934
 20
365.994233
 30
0.0
 11
465.01923
 21
365.994233
 31
0.0
  0
SOLID
  5
1E1
100
AcDbEntity
  8
0
  6
Continuous
 62
     0
100
AcDbTrace
 10
412.019126
 20
367.994446
 30
0.0
 11
402.01934
 21
365.994233
 31
0.0
 12
412.019126
 22
363.994446
 32
0.0
 13
412.019126
 23
363.994446
 33
0.0
  0
SOLID
  5
1E2
100
AcDbEntity
  8
0
  6
Continuous
 62
     0
100
AcDbTrace
 10
455.019017
 20
363.994446
 30
0.0
 11
465.01923
 21
365.994233
 31
0.0
 12
455.019017
 22
367.994446
 32
0.0
 13
455.019017
 23
367.994446
 33
0.0
  0
ENDBLK
  5
1E3
100
AcDbEntity
  8
0
100
AcDbBlockEnd
  0
BLOCK
  5
1E6
100
AcDbEntity
  8
0
100
AcDbBlockBegin
  2
*B10
 70
     0
 10
0.0
 20
0.0
 30
0.0
  3
*B10
  1

  0
LINE
  5
1E7
100
AcDbEntity
  8
0
  6
Continuous
 62
     0
100
AcDbLine
 10
402.01934
 20
365.994233
 30
0.0
 11
348.01913
 21
365.994233
 31
0.0
  0
SOLID
  5
1E8
100
AcDbEntity
  8
0
  6
Continuous
 62
     0
100
AcDbTrace
 10
392.019128
 20
363.994446
 30
0.0
 11
402.01934
 21
365.994233
 31
0.0
 12
392.019128
 22
367.994446
 32
0.0
 13
392.019128
 23
367.994446
 33
0.0
  0
SOLID
  5
1E9
100
AcDbEntity
  8
0
  6
Continuous
 62
     0
100
AcDbTrace
 10
358.019342
 20
367.994446
 30
0.0
 11
348.01913
 21
365.994233
 31
0.0
 12
358.019342
 22
363.994446
 32
0.0
 13
358.019342
 23
363.994446
 33
0.0
  0
ENDBLK
  5
1EA
100
AcDbEntity
  8
0
100
AcDbBlockEnd
  0
BLOCK
  5
1ED
100
AcDbEntity
  8
0
100
AcDbBlockBegin
  2
*B11
 70
     0
 10
0.0
 20
0.0
 30
0.0
  3
*B11
  1

  0
LINE
  5
1EE
100
AcDbEntity
  8
0
  6
Continuous
 62
     0
100
AcDbLine
 10
429.019232
 20
175.232248
 30
0.0
 11
465.01923
 21
175.232248
 31
0.0
  0
SOLID
  5
1EF
100
AcDbEntity
  8
0
  6
Continuous
 62
     0
100
AcDbTrace
 10
439.019018
 20
177.232461
 30
0.0
 11
429.019232
 21
175.232248
 31
0.0
 12
439.019018
 22
173.232461
 32
0.0
 13
439.019018
 23
173.232461
 33
0.0
  0
SOLID
  5
1F0
100
AcDbEntity
  8
0
  6
Continuous
 62
     0
100
AcDbTrace
 10
455.019017
 20
173.232461
 30
0.0
 11
465.01923
 21
175.232248
 31
0.0
 12
455.019017
 22
177.232461
 32
0.0
 13
455.019017
 23
177.232461
 33
0.0
  0
ENDBLK
  5
1F1
100
AcDbEntity
  8
0
100
AcDbBlockEnd
  0
BLOCK
  5
1F4
100
AcDbEntity
  8
0
100
AcDbBlockBegin
  2
*B12
 70
     0
 10
0.0
 20
0.0
 30
0.0
  3
*B12
  1

  0
LINE
  5
1F5
100
AcDbEntity
  8
0
  6
Continuous
 62
     0
100
AcDbLine
 10
375.019022
 20
175.232248
 30
0.0
 11
429.019232
 21
175.232248
 31
0.0
  0
SOLID
  5
1F6
100
AcDbEntity
  8
0
  6
Continuous
 62
     0
100
AcDbTrace
 10
385.019234
 20
177.232461
 30
0.0
 11
375.019022
 21
175.232248
 31
0.0
 12
385.019234
 22
173.232461
 32
0.0
 13
385.019234
 23
173.232461
 33
0.0
  0
SOLID
  5
1F7
100
AcDbEntity
  8
0
  6
Continuous
 62
     0
100
AcDbTrace
 10
419.01902
 20
173.232461
 30
0.0
 11
429.019232
 21
175.232248
 31
0.0
 12
419.01902
 22
177.232461
 32
0.0
 13
419.01902
 23
177.232461
 33
0.0
  0
ENDBLK
  5
1F8
100
AcDbEntity
  8
0
100
AcDbBlockEnd
  0
BLOCK
  5
1FB
100
AcDbEntity
  8
0
100
AcDbBlockBegin
  2
*B13
 70
     0
 10
0.0
 20
0.0
 30
0.0
  3
*B13
  1

  0
LINE
  5
1FC
100
AcDbEntity
  8
0
  6
Continuous
 62
     0
100
AcDbLine
 10
321.019238
 20
175.232248
 30
0.0
 11
375.019022
 21
175.232248
 31
0.0
  0
SOLID
  5
1FD
100
AcDbEntity
  8
0
  6
Continuous
 62
     0
100
AcDbTrace
 10
331.019025
 20
177.232461
 30
0.0
 11
321.019238
 21
175.232248
 31
0.0
 12
331.019025
 22
173.232461
 32
0.0
 13
331.019025
 23
173.232461
 33
0.0
  0
SOLID
  5
1FE
100
AcDbEntity
  8
0
  6
Continuous
 62
     0
100
AcDbTrace
 10
365.019236
 20
173.232461
 30
0.0
 11
375.019022
 21
175.232248
 31
0.0
 12
365.019236
 22
177.232461
 32
0.0
 13
365.019236
 23
177.232461
 33
0.0
  0
ENDBLK
  5
1FF
100
AcDbEntity
  8
0
100
AcDbBlockEnd
  0
BLOCK
  5
202
100
AcDbEntity
  8
0
100
AcDbBlockBegin
  2
*B14
 70
     0
 10
0.0
 20
0.0
 30
0.0
  3
*B14
  1

  0
LINE
  5
203
100
AcDbEntity
  8
0
  6
Continuous
 62
     0
100
AcDbLine
 10
346.89433
 20
245.996368
 30
0.0
 11
403.14414
 21
245.996368
 31
0.0
  0
SOLID
  5
204
100
AcDbEntity
  8
0
  6
Continuous
 62
     0
100
AcDbTrace
 10
356.894116
 20
247.996155
 30
0.0
 11
346.89433
 21
245.996368
 31
0.0
 12
356.894116
 22
243.996155
 32
0.0
 13
356.894116
 23
243.996155
 33
0.0
  0
SOLID
  5
205
100
AcDbEntity
  8
0
  6
Continuous
 62
     0
100
AcDbTrace
 10
393.144354
 20
243.996155
 30
0.0
 11
403.14414
 21
245.996368
 31
0.0
 12
393.144354
 22
247.996155
 32
0.0
 13
393.144354
 23
247.996155
 33
0.0
  0
ENDBLK
  5
206
100
AcDbEntity
  8
0
100
AcDbBlockEnd
  0
BLOCK
  5
209
100
AcDbEntity
  8
0
100
AcDbBlockBegin
  2
*B15
 70
     0
 10
0.0
 20
0.0
 30
0.0
  3
*B15
  1

  0
LINE
  5
20A
100
AcDbEntity
  8
0
  6
Continuous
 62
     0
100
AcDbLine
 10
498.036357
 20
232.720063
 30
0.0
 11
498.036357
 21
288.969022
 31
0.0
  0
SOLID
  5
20B
100
AcDbEntity
  8
0
  6
Continuous
 62
     0
100
AcDbTrace
 10
496.036144
 20
242.719849
 30
0.0
 11
498.036357
 21
232.720063
 31
0.0
 12
500.036144
 22
242.719849
 32
0.0
 13
500.036144
 23
242.719849
 33
0.0
  0
SOLID
  5
20C
100
AcDbEntity
  8
0
  6
Continuous
 62
     0
100
AcDbTrace
 10
500.036144
 20
278.969235
 30
0.0
 11
498.036357
 21
288.969022
 31
0.0
 12
496.036144
 22
278.969235
 32
0.0
 13
496.036144
 23
278.969235
 33
0.0
  0
ENDBLK
  5
20D
100
AcDbEntity
  8
0
100
AcDbBlockEnd
  0
BLOCK
  5
210
100
AcDbEntity
  8
0
100
AcDbBlockBegin
  2
*B16
 70
     0
 10
0.0
 20
0.0
 30
0.0
  3
*B16
  1

  0
LINE
  5
211
100
AcDbEntity
  8
0
  6
Continuous
 62
     0
100
AcDbLine
 10
524.036143
 20
204.59537
 30
0.0
 11
524.036143
 21
317.093714
 31
0.0
  0
SOLID
  5
212
100
AcDbEntity
  8
0
  6
Continuous
 62
     0
100
AcDbTrace
 10
522.036356
 20
214.595157
 30
0.0
 11
524.036143
 21
204.59537
 31
0.0
 12
526.036355
 22
214.595157
 32
0.0
 13
526.036355
 23
214.595157
 33
0.0
  0
SOLID
  5
213
100
AcDbEntity
  8
0
  6
Continuous
 62
     0
100
AcDbTrace
 10
526.036355
 20
307.093928
 30
0.0
 11
524.036143
 21
317.093714
 31
0.0
 12
522.036356
 22
307.093928
 32
0.0
 13
522.036356
 23
307.093928
 33
0.0
  0
ENDBLK
  5
214
100
AcDbEntity
  8
0
100
AcDbBlockEnd
  0
BLOCK
  5
217
100
AcDbEntity
  8
0
100
AcDbBlockBegin
  2
*B17
 70
     0
 10
0.0
 20
0.0
 30
0.0
  3
*B17
  1

  0
LINE
  5
218
100
AcDbEntity
  8
0
  6
Continuous
 62
     0
100
AcDbLine
 10
285.01924
 20
147.997863
 30
0.0
 11
465.01923
 21
147.997863
 31
0.0
  0
SOLID
  5
219
100
AcDbEntity
  8
0
  6
Continuous
 62
     0
100
AcDbTrace
 10
295.019027
 20
149.99765
 30
0.0
 11
285.01924
 21
147.997863
 31
0.0
 12
295.019027
 22
145.997651
 32
0.0
 13
295.019027
 23
145.997651
 33
0.0
  0
SOLID
  5
21A
100
AcDbEntity
  8
0
  6
Continuous
 62
     0
100
AcDbTrace
 10
455.019017
 20
145.997651
 30
0.0
 11
465.01923
 21
147.997863
 31
0.0
 12
455.019017
 22
149.99765
 32
0.0
 13
455.019017
 23
149.99765
 33
0.0
  0
ENDBLK
  5
21B
100
AcDbEntity
  8
0
100
AcDbBlockEnd
  0
BLOCK
  5
21E
100
AcDbEntity
  8
0
100
AcDbBlockBegin
  2
*B18
 70
     0
 10
0.0
 20
0.0
 30
0.0
  3
*B18
  1

  0
LINE
  5
21F
100
AcDbEntity
  8
0
  6
Continuous
 62
     0
100
AcDbLine
 10
362.078072
 20
339.994873
 30
0.0
 11
431.46928
 21
339.994873
 31
0.0
  0
SOLID
  5
220
100
AcDbEntity
  8
0
  6
Continuous
 62
     0
100
AcDbTrace
 10
382.569187
 20
337.99466
 30
0.0
 11
392.568973
 21
339.994873
 31
0.0
 12
382.569187
 22
341.99466
 32
0.0
 13
382.569187
 23
341.99466
 33
0.0
  0
SOLID
  5
221
100
AcDbEntity
  8
0
  6
Continuous
 62
     0
100
AcDbTrace
 10
421.469067
 20
341.99466
 30
0.0
 11
411.469281
 21
339.994873
 31
0.0
 12
421.469067
 22
337.99466
 32
0.0
 13
421.469067
 23
337.99466
 33
0.0
  0
ENDBLK
  5
222
100
AcDbEntity
  8
0
100
AcDbBlockEnd
  0
BLOCK
  5
225
100
AcDbEntity
  8
0
100
AcDbBlockBegin
  2
*B19
 70
     0
 10
0.0
 20
0.0
 30
0.0
  3
*B19
  1

  0
LINE
  5
226
100
AcDbEntity
  8
0
  6
Continuous
 62
     0
100
AcDbLine
 10
123.019463
 20
389.993806
 30
0.0
 11
465.01923
 21
389.993806
 31
0.0
  0
SOLID
  5
227
100
AcDbEntity
  8
0
  6
Continuous
 62
     0
100
AcDbTrace
 10
133.019249
 20
391.994019
 30
0.0
 11
123.019463
 21
389.993806
 31
0.0
 12
133.019249
 22
387.994019
 32
0.0
 13
133.019249
 23
387.994019
 33
0.0
  0
SOLID
  5
228
100
AcDbEntity
  8
0
  6
Continuous
 62
     0
100
AcDbTrace
 10
455.019017
 20
387.994019
 30
0.0
 11
465.01923
 21
389.993806
 31
0.0
 12
455.019017
 22
391.994019
 32
0.0
 13
455.019017
 23
391.994019
 33
0.0
  0
ENDBLK
  5
229
100
AcDbEntity
  8
0
100
AcDbBlockEnd
  0
BLOCK
  5
22C
100
AcDbEntity
  8
0
100
AcDbBlockBegin
  2
*B20
 70
     0
 10
0.0
 20
0.0
 30
0.0
  3
*B20
  1

  0
LINE
  5
22D
100
AcDbEntity
  8
0
  6
Continuous
 62
     0
100
AcDbLine
 10
100.036594
 20
211.34545
 30
0.0
 11
100.036594
 21
328.343421
 31
0.0
  0
SOLID
  5
22E
100
AcDbEntity
  8
0
  6
Continuous
 62
     0
100
AcDbTrace
 10
98.036381
 20
221.345236
 30
0.0
 11
100.036594
 21
211.34545
 31
0.0
 12
102.036381
 22
221.345236
 32
0.0
 13
102.036381
 23
221.345236
 33
0.0
  0
SOLID
  5
22F
100
AcDbEntity
  8
0
  6
Continuous
 62
     0
100
AcDbTrace
 10
102.036381
 20
318.343635
 30
0.0
 11
100.036594
 21
328.343421
 31
0.0
 12
98.036381
 22
318.343635
 32
0.0
 13
98.036381
 23
318.343635
 33
0.0
  0
ENDBLK
  5
230
100
AcDbEntity
  8
0
100
AcDbBlockEnd
  0
BLOCK
  5
233
100
AcDbEntity
  8
0
100
AcDbBlockBegin
  2
*B21
 70
     0
 10
0.0
 20
0.0
 30
0.0
  3
*B21
  1

  0
LINE
  5
234
100
AcDbEntity
  8
0
  6
Continuous
 62
     0
100
AcDbLine
 10
100.036594
 20
32.691987
 30
0.0
 11
100.036594
 21
104.690706
 31
0.0
  0
SOLID
  5
235
100
AcDbEntity
  8
0
  6
Continuous
 62
     0
100
AcDbTrace
 10
98.036381
 20
42.691773
 30
0.0
 11
100.036594
 21
32.691987
 31
0.0
 12
102.036381
 22
42.691773
 32
0.0
 13
102.036381
 23
42.691773
 33
0.0
  0
SOLID
  5
236
100
AcDbEntity
  8
0
  6
Continuous
 62
     0
100
AcDbTrace
 10
102.036381
 20
94.690919
 30
0.0
 11
100.036594
 21
104.690706
 31
0.0
 12
98.036381
 22
94.690919
 32
0.0
 13
98.036381
 23
94.690919
 33
0.0
  0
ENDBLK
  5
237
100
AcDbEntity
  8
0
100
AcDbBlockEnd
  0
BLOCK
  5
23A
100
AcDbEntity
  8
0
100
AcDbBlockBegin
  2
*B22
 70
     0
 10
0.0
 20
0.0
 30
0.0
  3
*B22
  1

  0
LINE
  5
23B
100
AcDbEntity
  8
0
  6
Continuous
 62
     0
100
AcDbLine
 10
445.019231
 20
339.994873
 30
0.0
 11
493.306918
 21
339.994873
 31
0.0
  0
SOLID
  5
23C
100
AcDbEntity
  8
0
  6
Continuous
 62
     0
100
AcDbTrace
 10
455.019017
 20
337.99466
 30
0.0
 11
465.01923
 21
339.994873
 31
0.0
 12
455.019017
 22
341.99466
 32
0.0
 13
455.019017
 23
341.99466
 33
0.0
  0
SOLID
  5
23D
100
AcDbEntity
  8
0
  6
Continuous
 62
     0
100
AcDbTrace
 10
479.519069
 20
341.99466
 30
0.0
 11
469.519283
 21
339.994873
 31
0.0
 12
479.519069
 22
337.99466
 32
0.0
 13
479.519069
 23
337.99466
 33
0.0
  0
ENDBLK
  5
23E
100
AcDbEntity
  8
0
100
AcDbBlockEnd
  0
BLOCK
  5
241
100
AcDbEntity
  8
0
100
AcDbBlockBegin
  2
*B23
 70
     0
 10
0.0
 20
0.0
 30
0.0
  3
*B23
  1

  0
LINE
  5
242
100
AcDbEntity
  8
0
  6
Continuous
 62
     0
100
AcDbLine
 10
100.036594
 20
231.345023
 30
0.0
 11
100.036594
 21
171.039037
 31
0.0
  0
SOLID
  5
243
100
AcDbEntity
  8
0
  6
Continuous
 62
     0
100
AcDbTrace
 10
98.036381
 20
221.345236
 30
0.0
 11
100.036594
 21
211.34545
 31
0.0
 12
102.036381
 22
221.345236
 32
0.0
 13
102.036381
 23
221.345236
 33
0.0
  0
SOLID
  5
244
100
AcDbEntity
  8
0
  6
Continuous
 62
     0
100
AcDbTrace
 10
102.036381
 20
194.595584
 30
0.0
 11
100.036594
 21
204.59537
 31
0.0
 12
98.036381
 22
194.595584
 32
0.0
 13
98.036381
 23
194.595584
 33
0.0
  0
ENDBLK
  5
245
100
AcDbEntity
  8
0
100
AcDbBlockEnd
  0
BLOCK
  5
248
100
AcDbEntity
  8
0
100
AcDbBlockBegin
  2
*B24
 70
     0
 10
0.0
 20
0.0
 30
0.0
  3
*B24
  1

  0
LINE
  5
249
100
AcDbEntity
  8
0
  6
Continuous
 62
     8
100
AcDbLine
 10
402.01934
 20
53.241831
 30
0.0
 11
402.01934
 21
60.691559
 31
0.0
  0
LINE
  5
24A
100
AcDbEntity
  8
0
  6
Continuous
 62
     8
100
AcDbLine
 10
402.01934
 20
76.691558
 30
0.0
 11
402.01934
 21
84.141287
 31
0.0
  0
ENDBLK
  5
24B
100
AcDbEntity
  8
0
100
AcDbBlockEnd
  0
BLOCK
  5
24E
100
AcDbEntity
  8
0
100
AcDbBlockBegin
  2
*B25
 70
     0
 10
0.0
 20
0.0
 30
0.0
  3
*B25
  1

  0
LINE
  5
24F
100
AcDbEntity
  8
0
  6
Continuous
 62
     8
100
AcDbLine
 10
402.01934
 20
363.994446
 30
0.0
 11
402.01934
 21
367.994446
 31
0.0
  0
LINE
  5
250
100
AcDbEntity
  8
0
  6
Continuous
 62
     8
100
AcDbLine
 10
402.01934
 20
279.593983
 30
0.0
 11
402.01934
 21
298.394279
 31
0.0
  0
LINE
  5
251
100
AcDbEntity
  8
0
  6
Continuous
 62
     8
100
AcDbLine
 10
402.01934
 20
304.394492
 30
0.0
 11
402.01934
 21
306.394279
 31
0.0
  0
LINE
  5
252
100
AcDbEntity
  8
0
  6
Continuous
 62
     8
100
AcDbLine
 10
402.01934
 20
312.394066
 30
0.0
 11
402.01934
 21
331.194363
 31
0.0
  0
LINE
  5
253
100
AcDbEntity
  8
0
  6
Continuous
 62
     8
100
AcDbLine
 10
402.01934
 20
337.194149
 30
0.0
 11
402.01934
 21
339.194362
 31
0.0
  0
LINE
  5
254
100
AcDbEntity
  8
0
  6
Continuous
 62
     8
100
AcDbLine
 10
402.01934
 20
345.194149
 30
0.0
 11
402.01934
 21
363.994446
 31
0.0
  0
ENDBLK
  5
255
100
AcDbEntity
  8
0
100
AcDbBlockEnd
  0
BLOCK
  5
258
100
AcDbEntity
  8
0
100
AcDbBlockBegin
  2
*B26
 70
     0
 10
0.0
 20
0.0
 30
0.0
  3
*B26
  1

  0
LINE
  5
259
100
AcDbEntity
  8
0
  6
Continuous
 62
     8
100
AcDbLine
 10
321.019238
 20
173.232461
 30
0.0
 11
321.019238
 21
177.232461
 31
0.0
  0
LINE
  5
25A
100
AcDbEntity
  8
0
  6
Continuous
 62
     8
100
AcDbLine
 10
321.019238
 20
177.232461
 30
0.0
 11
321.019238
 21
202.663676
 31
0.0
  0
LINE
  5
25B
100
AcDbEntity
  8
0
  6
Continuous
 62
     8
100
AcDbLine
 10
321.019238
 20
208.663462
 30
0.0
 11
321.019238
 21
210.663675
 31
0.0
  0
LINE
  5
25C
100
AcDbEntity
  8
0
  6
Continuous
 62
     8
100
AcDbLine
 10
321.019238
 20
216.663462
 30
0.0
 11
321.019238
 21
242.094676
 31
0.0
  0
ENDBLK
  5
25D
100
AcDbEntity
  8
0
100
AcDbBlockEnd
  0
BLOCK
  5
260
100
AcDbEntity
  8
0
100
AcDbBlockBegin
  2
*B27
 70
     0
 10
0.0
 20
0.0
 30
0.0
  3
*B27
  1

  0
LINE
  5
261
100
AcDbEntity
  8
0
  6
Continuous
 62
     8
100
AcDbLine
 10
159.019461
 20
51.44164
 30
0.0
 11
159.019461
 21
60.691559
 31
0.0
  0
LINE
  5
262
100
AcDbEntity
  8
0
  6
Continuous
 62
     8
100
AcDbLine
 10
159.019461
 20
76.691558
 30
0.0
 11
159.019461
 21
85.941052
 31
0.0
  0
ENDBLK
  5
263
100
AcDbEntity
  8
0
100
AcDbBlockEnd
  0
BLOCK
  5
266
100
AcDbEntity
  8
0
100
AcDbBlockBegin
  2
*B28
 70
     0
 10
0.0
 20
0.0
 30
0.0
  3
*B28
  1

  0
LINE
  5
267
100
AcDbEntity
  8
0
  6
Continuous
 62
     8
100
AcDbLine
 10
117.01925
 20
68.691559
 30
0.0
 11
151.019461
 21
68.691559
 31
0.0
  0
LINE
  5
268
100
AcDbEntity
  8
0
  6
Continuous
 62
     8
100
AcDbLine
 10
167.01946
 20
68.691559
 30
0.0
 11
188.352367
 21
68.691559
 31
0.0
  0
LINE
  5
269
100
AcDbEntity
  8
0
  6
Continuous
 62
     8
100
AcDbLine
 10
194.352579
 20
68.691559
 30
0.0
 11
196.352366
 21
68.691559
 31
0.0
  0
LINE
  5
26A
100
AcDbEntity
  8
0
  6
Continuous
 62
     8
100
AcDbLine
 10
202.352579
 20
68.691559
 30
0.0
 11
223.685911
 21
68.691559
 31
0.0
  0
LINE
  5
26B
100
AcDbEntity
  8
0
  6
Continuous
 62
     8
100
AcDbLine
 10
229.685698
 20
68.691559
 30
0.0
 11
231.68591
 21
68.691559
 31
0.0
  0
LINE
  5
26C
100
AcDbEntity
  8
0
  6
Continuous
 62
     8
100
AcDbLine
 10
237.685697
 20
68.691559
 30
0.0
 11
259.019029
 21
68.691559
 31
0.0
  0
LINE
  5
26D
100
AcDbEntity
  8
0
  6
Continuous
 62
     8
100
AcDbLine
 10
275.019028
 20
68.691559
 30
0.0
 11
300.519186
 21
68.691559
 31
0.0
  0
LINE
  5
26E
100
AcDbEntity
  8
0
  6
Continuous
 62
     8
100
AcDbLine
 10
306.519399
 20
68.691559
 30
0.0
 11
308.519186
 21
68.691559
 31
0.0
  0
LINE
  5
26F
100
AcDbEntity
  8
0
  6
Continuous
 62
     8
100
AcDbLine
 10
314.518973
 20
68.691559
 30
0.0
 11
340.019131
 21
68.691559
 31
0.0
  0
LINE
  5
270
100
AcDbEntity
  8
0
  6
Continuous
 62
     8
100
AcDbLine
 10
356.01913
 20
68.691559
 30
0.0
 11
394.01934
 21
68.691559
 31
0.0
  0
LINE
  5
271
100
AcDbEntity
  8
0
  6
Continuous
 62
     8
100
AcDbLine
 10
410.018914
 20
68.691559
 30
0.0
 11
435.769311
 21
68.691559
 31
0.0
  0
LINE
  5
272
100
AcDbEntity
  8
0
  6
Continuous
 62
     8
100
AcDbLine
 10
441.769098
 20
68.691559
 30
0.0
 11
443.769311
 21
68.691559
 31
0.0
  0
LINE
  5
273
100
AcDbEntity
  8
0
  6
Continuous
 62
     8
100
AcDbLine
 10
449.769098
 20
68.691559
 30
0.0
 11
475.519069
 21
68.691559
 31
0.0
  0
ENDBLK
  5
274
100
AcDbEntity
  8
0
100
AcDbBlockEnd
  0
BLOCK
  5
277
100
AcDbEntity
  8
0
100
AcDbBlockBegin
  2
*B29
 70
     0
 10
0.0
 20
0.0
 30
0.0
  3
*B29
  1

  0
LINE
  5
278
100
AcDbEntity
  8
0
  6
Continuous
 62
     8
100
AcDbLine
 10
496.036144
 20
288.969022
 30
0.0
 11
500.036144
 21
288.969022
 31
0.0
  0
LINE
  5
279
100
AcDbEntity
  8
0
  6
Continuous
 62
     8
100
AcDbLine
 10
361.594191
 20
288.969022
 30
0.0
 11
367.019023
 21
288.969022
 31
0.0
  0
LINE
  5
27A
100
AcDbEntity
  8
0
  6
Continuous
 62
     8
100
AcDbLine
 10
383.019022
 20
288.969022
 30
0.0
 11
400.77325
 21
288.969022
 31
0.0
  0
LINE
  5
27B
100
AcDbEntity
  8
0
  6
Continuous
 62
     8
100
AcDbLine
 10
406.773462
 20
288.969022
 30
0.0
 11
408.773249
 21
288.969022
 31
0.0
  0
LINE
  5
27C
100
AcDbEntity
  8
0
  6
Continuous
 62
     8
100
AcDbLine
 10
414.773462
 20
288.969022
 30
0.0
 11
432.52769
 21
288.969022
 31
0.0
  0
LINE
  5
27D
100
AcDbEntity
  8
0
  6
Continuous
 62
     8
100
AcDbLine
 10
438.527902
 20
288.969022
 30
0.0
 11
440.527689
 21
288.969022
 31
0.0
  0
LINE
  5
27E
100
AcDbEntity
  8
0
  6
Continuous
 62
     8
100
AcDbLine
 10
446.527902
 20
288.969022
 30
0.0
 11
464.28213
 21
288.969022
 31
0.0
  0
LINE
  5
27F
100
AcDbEntity
  8
0
  6
Continuous
 62
     8
100
AcDbLine
 10
470.281917
 20
288.969022
 30
0.0
 11
472.28213
 21
288.969022
 31
0.0
  0
LINE
  5
280
100
AcDbEntity
  8
0
  6
Continuous
 62
     8
100
AcDbLine
 10
478.281916
 20
288.969022
 30
0.0
 11
496.036144
 21
288.969022
 31
0.0
  0
ENDBLK
  5
281
100
AcDbEntity
  8
0
100
AcDbBlockEnd
  0
BLOCK
  5
284
100
AcDbEntity
  8
0
100
AcDbBlockBegin
  2
*B30
 70
     0
 10
0.0
 20
0.0
 30
0.0
  3
*B30
  1

  0
LINE
  5
285
100
AcDbEntity
  8
0
  6
Continuous
 62
     8
100
AcDbLine
 10
403.14414
 20
219.295231
 30
0.0
 11
403.14414
 21
224.720063
 31
0.0
  0
LINE
  5
286
100
AcDbEntity
  8
0
  6
Continuous
 62
     8
100
AcDbLine
 10
403.14414
 20
240.719637
 30
0.0
 11
403.14414
 21
247.996155
 31
0.0
  0
ENDBLK
  5
287
100
AcDbEntity
  8
0
100
AcDbBlockEnd
  0
BLOCK
  5
28A
100
AcDbEntity
  8
0
100
AcDbBlockBegin
  2
*B31
 70
     0
 10
0.0
 20
0.0
 30
0.0
  3
*B31
  1

  0
LINE
  5
28B
100
AcDbEntity
  8
0
  6
Continuous
 62
     8
100
AcDbLine
 10
496.036144
 20
232.720063
 30
0.0
 11
500.036144
 21
232.720063
 31
0.0
  0
LINE
  5
28C
100
AcDbEntity
  8
0
  6
Continuous
 62
     8
100
AcDbLine
 10
389.719309
 20
232.720063
 30
0.0
 11
395.144141
 21
232.720063
 31
0.0
  0
LINE
  5
28D
100
AcDbEntity
  8
0
  6
Continuous
 62
     8
100
AcDbLine
 10
411.14414
 20
232.720063
 30
0.0
 11
430.108284
 21
232.720063
 31
0.0
  0
LINE
  5
28E
100
AcDbEntity
  8
0
  6
Continuous
 62
     8
100
AcDbLine
 10
436.108071
 20
232.720063
 30
0.0
 11
438.108283
 21
232.720063
 31
0.0
  0
LINE
  5
28F
100
AcDbEntity
  8
0
  6
Continuous
 62
     8
100
AcDbLine
 10
444.10807
 20
232.720063
 30
0.0
 11
463.072214
 21
232.720063
 31
0.0
  0
LINE
  5
290
100
AcDbEntity
  8
0
  6
Continuous
 62
     8
100
AcDbLine
 10
469.072001
 20
232.720063
 30
0.0
 11
471.072214
 21
232.720063
 31
0.0
  0
LINE
  5
291
100
AcDbEntity
  8
0
  6
Continuous
 62
     8
100
AcDbLine
 10
477.072001
 20
232.720063
 30
0.0
 11
496.036144
 21
232.720063
 31
0.0
  0
ENDBLK
  5
292
100
AcDbEntity
  8
0
100
AcDbBlockEnd
  0
BLOCK
  5
295
100
AcDbEntity
  8
0
100
AcDbBlockBegin
  2
*B32
 70
     0
 10
0.0
 20
0.0
 30
0.0
  3
*B32
  1

  0
LINE
  5
296
100
AcDbEntity
  8
0
  6
Continuous
 62
     8
100
AcDbLine
 10
333.469073
 20
232.720063
 30
0.0
 11
338.89433
 21
232.720063
 31
0.0
  0
LINE
  5
297
100
AcDbEntity
  8
0
  6
Continuous
 62
     8
100
AcDbLine
 10
354.894329
 20
232.720063
 30
0.0
 11
360.319161
 21
232.720063
 31
0.0
  0
ENDBLK
  5
298
100
AcDbEntity
  8
0
100
AcDbBlockEnd
  0
BLOCK
  5
29B
100
AcDbEntity
  8
0
100
AcDbBlockBegin
  2
*B33
 70
     0
 10
0.0
 20
0.0
 30
0.0
  3
*B33
  1

  0
LINE
  5
29C
100
AcDbEntity
  8
0
  6
Continuous
 62
     8
100
AcDbLine
 10
346.89433
 20
219.295231
 30
0.0
 11
346.89433
 21
224.720063
 31
0.0
  0
LINE
  5
29D
100
AcDbEntity
  8
0
  6
Continuous
 62
     8
100
AcDbLine
 10
346.89433
 20
240.719637
 30
0.0
 11
346.89433
 21
247.996155
 31
0.0
  0
ENDBLK
  5
29E
100
AcDbEntity
  8
0
100
AcDbBlockEnd
  0
BLOCK
  5
2A1
100
AcDbEntity
  8
0
100
AcDbBlockBegin
  2
*B34
 70
     0
 10
0.0
 20
0.0
 30
0.0
  3
*B34
  1

  0
LINE
  5
2A2
100
AcDbEntity
  8
0
  6
Continuous
 62
     8
100
AcDbLine
 10
469.519283
 20
287.093929
 30
0.0
 11
469.519283
 21
341.99466
 31
0.0
  0
ENDBLK
  5
2A3
100
AcDbEntity
  8
0
100
AcDbBlockEnd
  0
BLOCK
  5
2A6
100
AcDbEntity
  8
0
100
AcDbBlockBegin
  2
*B35
 70
     0
 10
0.0
 20
0.0
 30
0.0
  3
*B35
  1

  0
LINE
  5
2A7
100
AcDbEntity
  8
0
  6
Continuous
 62
     8
100
AcDbLine
 10
429.019232
 20
173.232461
 30
0.0
 11
429.019232
 21
177.232461
 31
0.0
  0
LINE
  5
2A8
100
AcDbEntity
  8
0
  6
Continuous
 62
     8
100
AcDbLine
 10
429.019232
 20
177.232461
 30
0.0
 11
429.019232
 21
202.663676
 31
0.0
  0
LINE
  5
2A9
100
AcDbEntity
  8
0
  6
Continuous
 62
     8
100
AcDbLine
 10
429.019232
 20
208.663462
 30
0.0
 11
429.019232
 21
210.663675
 31
0.0
  0
LINE
  5
2AA
100
AcDbEntity
  8
0
  6
Continuous
 62
     8
100
AcDbLine
 10
429.019232
 20
216.663462
 30
0.0
 11
429.019232
 21
242.094676
 31
0.0
  0
ENDBLK
  5
2AB
100
AcDbEntity
  8
0
100
AcDbBlockEnd
  0
BLOCK
  5
2AE
100
AcDbEntity
  8
0
100
AcDbBlockBegin
  2
*B36
 70
     0
 10
0.0
 20
0.0
 30
0.0
  3
*B36
  1

  0
LINE
  5
2AF
100
AcDbEntity
  8
0
  6
Continuous
 62
     8
100
AcDbLine
 10
348.01913
 20
53.241831
 30
0.0
 11
348.01913
 21
60.691559
 31
0.0
  0
LINE
  5
2B0
100
AcDbEntity
  8
0
  6
Continuous
 62
     8
100
AcDbLine
 10
348.01913
 20
76.691558
 30
0.0
 11
348.01913
 21
84.141287
 31
0.0
  0
ENDBLK
  5
2B1
100
AcDbEntity
  8
0
100
AcDbBlockEnd
  0
BLOCK
  5
2B4
100
AcDbEntity
  8
0
100
AcDbBlockBegin
  2
*B37
 70
     0
 10
0.0
 20
0.0
 30
0.0
  3
*B37
  1

  0
LINE
  5
2B5
100
AcDbEntity
  8
0
  6
Continuous
 62
     8
100
AcDbLine
 10
411.469281
 20
323.093501
 30
0.0
 11
411.469281
 21
341.99466
 31
0.0
  0
ENDBLK
  5
2B6
100
AcDbEntity
  8
0
100
AcDbBlockEnd
  0
BLOCK
  5
2B9
100
AcDbEntity
  8
0
100
AcDbBlockBegin
  2
*B38
 70
     0
 10
0.0
 20
0.0
 30
0.0
  3
*B38
  1

  0
LINE
  5
2BA
100
AcDbEntity
  8
0
  6
Continuous
 62
     8
100
AcDbLine
 10
375.019022
 20
173.232461
 30
0.0
 11
375.019022
 21
177.232461
 31
0.0
  0
LINE
  5
2BB
100
AcDbEntity
  8
0
  6
Continuous
 62
     8
100
AcDbLine
 10
375.019022
 20
177.232461
 30
0.0
 11
375.019022
 21
192.666868
 31
0.0
  0
LINE
  5
2BC
100
AcDbEntity
  8
0
  6
Continuous
 62
     8
100
AcDbLine
 10
375.019022
 20
198.666655
 30
0.0
 11
375.019022
 21
200.666442
 31
0.0
  0
LINE
  5
2BD
100
AcDbEntity
  8
0
  6
Continuous
 62
     8
100
AcDbLine
 10
375.019022
 20
206.666654
 30
0.0
 11
375.019022
 21
222.101061
 31
0.0
  0
LINE
  5
2BE
100
AcDbEntity
  8
0
  6
Continuous
 62
     8
100
AcDbLine
 10
375.019022
 20
228.100848
 30
0.0
 11
375.019022
 21
230.100635
 31
0.0
  0
LINE
  5
2BF
100
AcDbEntity
  8
0
  6
Continuous
 62
     8
100
AcDbLine
 10
375.019022
 20
236.100848
 30
0.0
 11
375.019022
 21
251.534829
 31
0.0
  0
LINE
  5
2C0
100
AcDbEntity
  8
0
  6
Continuous
 62
     8
100
AcDbLine
 10
375.019022
 20
257.535042
 30
0.0
 11
375.019022
 21
259.534829
 31
0.0
  0
LINE
  5
2C1
100
AcDbEntity
  8
0
  6
Continuous
 62
     8
100
AcDbLine
 10
375.019022
 20
265.534616
 30
0.0
 11
375.019022
 21
280.969023
 31
0.0
  0
LINE
  5
2C2
100
AcDbEntity
  8
0
  6
Continuous
 62
     8
100
AcDbLine
 10
375.019022
 20
296.969022
 30
0.0
 11
375.019022
 21
302.393854
 31
0.0
  0
ENDBLK
  5
2C3
100
AcDbEntity
  8
0
100
AcDbBlockEnd
  0
BLOCK
  5
2C6
100
AcDbEntity
  8
0
100
AcDbBlockBegin
  2
*B39
 70
     0
 10
0.0
 20
0.0
 30
0.0
  3
*B39
  1

  0
LINE
  5
2C7
100
AcDbEntity
  8
0
  6
Continuous
 62
     8
100
AcDbLine
 10
348.01913
 20
363.994446
 30
0.0
 11
348.01913
 21
367.994446
 31
0.0
  0
LINE
  5
2C8
100
AcDbEntity
  8
0
  6
Continuous
 62
     8
100
AcDbLine
 10
348.01913
 20
279.593983
 30
0.0
 11
348.01913
 21
298.394279
 31
0.0
  0
LINE
  5
2C9
100
AcDbEntity
  8
0
  6
Continuous
 62
     8
100
AcDbLine
 10
348.01913
 20
304.394492
 30
0.0
 11
348.01913
 21
306.394279
 31
0.0
  0
LINE
  5
2CA
100
AcDbEntity
  8
0
  6
Continuous
 62
     8
100
AcDbLine
 10
348.01913
 20
312.394066
 30
0.0
 11
348.01913
 21
331.194363
 31
0.0
  0
LINE
  5
2CB
100
AcDbEntity
  8
0
  6
Continuous
 62
     8
100
AcDbLine
 10
348.01913
 20
337.194149
 30
0.0
 11
348.01913
 21
339.194362
 31
0.0
  0
LINE
  5
2CC
100
AcDbEntity
  8
0
  6
Continuous
 62
     8
100
AcDbLine
 10
348.01913
 20
345.194149
 30
0.0
 11
348.01913
 21
363.994446
 31
0.0
  0
ENDBLK
  5
2CD
100
AcDbEntity
  8
0
100
AcDbBlockEnd
  0
BLOCK
  5
2D0
100
AcDbEntity
  8
0
100
AcDbBlockBegin
  2
*B40
 70
     0
 10
0.0
 20
0.0
 30
0.0
  3
*B40
  1

  0
LINE
  5
2D1
100
AcDbEntity
  8
0
  6
Continuous
 62
     8
100
AcDbLine
 10
285.01924
 20
145.997651
 30
0.0
 11
285.01924
 21
198.595583
 31
0.0
  0
ENDBLK
  5
2D2
100
AcDbEntity
  8
0
100
AcDbBlockEnd
  0
BLOCK
  5
2D5
100
AcDbEntity
  8
0
100
AcDbBlockBegin
  2
*B41
 70
     0
 10
0.0
 20
0.0
 30
0.0
  3
*B41
  1

  0
LINE
  5
2D6
100
AcDbEntity
  8
0
  6
Continuous
 62
     8
100
AcDbLine
 10
98.036381
 20
32.691987
 30
0.0
 11
117.01925
 21
32.691987
 31
0.0
  0
ENDBLK
  5
2D7
100
AcDbEntity
  8
0
100
AcDbBlockEnd
  0
BLOCK
  5
2DA
100
AcDbEntity
  8
0
100
AcDbBlockBegin
  2
*B42
 70
     0
 10
0.0
 20
0.0
 30
0.0
  3
*B42
  1

  0
LINE
  5
2DB
100
AcDbEntity
  8
0
  6
Continuous
 62
     8
100
AcDbLine
 10
98.036381
 20
104.690706
 30
0.0
 11
117.01925
 21
104.690706
 31
0.0
  0
ENDBLK
  5
2DC
100
AcDbEntity
  8
0
100
AcDbBlockEnd
  0
BLOCK
  5
2DF
100
AcDbEntity
  8
0
100
AcDbBlockBegin
  2
*B43
 70
     0
 10
0.0
 20
0.0
 30
0.0
  3
*B43
  1

  0
LINE
  5
2E0
100
AcDbEntity
  8
0
  6
Continuous
 62
     8
100
AcDbLine
 10
98.036381
 20
211.34545
 30
0.0
 11
117.01925
 21
211.34545
 31
0.0
  0
ENDBLK
  5
2E1
100
AcDbEntity
  8
0
100
AcDbBlockEnd
  0
BLOCK
  5
2E4
100
AcDbEntity
  8
0
100
AcDbBlockBegin
  2
*B44
 70
     0
 10
0.0
 20
0.0
 30
0.0
  3
*B44
  1

  0
LINE
  5
2E5
100
AcDbEntity
  8
0
  6
Continuous
 62
     8
100
AcDbLine
 10
123.019463
 20
334.343208
 30
0.0
 11
123.019463
 21
391.994019
 31
0.0
  0
ENDBLK
  5
2E6
100
AcDbEntity
  8
0
100
AcDbBlockEnd
  0
BLOCK
  5
2E9
100
AcDbEntity
  8
0
100
AcDbBlockBegin
  2
*B45
 70
     0
 10
0.0
 20
0.0
 30
0.0
  3
*B45
  1

  0
LINE
  5
2EA
100
AcDbEntity
  8
0
  6
Continuous
 62
     8
100
AcDbLine
 10
465.01923
 20
145.997651
 30
0.0
 11
465.01923
 21
198.595583
 31
0.0
  0
LINE
  5
2EB
100
AcDbEntity
  8
0
  6
Continuous
 62
     8
100
AcDbLine
 10
465.01923
 20
323.093501
 30
0.0
 11
465.01923
 21
391.994019
 31
0.0
  0
ENDBLK
  5
2EC
100
AcDbEntity
  8
0
100
AcDbBlockEnd
  0
BLOCK
  5
2EF
100
AcDbEntity
  8
0
100
AcDbBlockBegin
  2
*B46
 70
     0
 10
0.0
 20
0.0
 30
0.0
  3
*B46
  1

  0
LINE
  5
2F0
100
AcDbEntity
  8
0
  6
Continuous
 62
     8
100
AcDbLine
 10
267.019029
 20
53.691666
 30
0.0
 11
267.019029
 21
60.691559
 31
0.0
  0
LINE
  5
2F1
100
AcDbEntity
  8
0
  6
Continuous
 62
     8
100
AcDbLine
 10
267.019029
 20
76.691558
 30
0.0
 11
267.019029
 21
83.691452
 31
0.0
  0
ENDBLK
  5
2F2
100
AcDbEntity
  8
0
100
AcDbBlockEnd
  0
BLOCK
  5
2F5
100
AcDbEntity
  8
0
100
AcDbBlockBegin
  2
*B47
 70
     0
 10
0.0
 20
0.0
 30
0.0
  3
*B47
  1

  0
LINE
  5
2F6
100
AcDbEntity
  8
0
  6
Continuous
 62
     8
100
AcDbLine
 10
117.01925
 20
260.84433
 30
0.0
 11
134.061062
 21
260.84433
 31
0.0
  0
LINE
  5
2F7
100
AcDbEntity
  8
0
  6
Continuous
 62
     8
100
AcDbLine
 10
140.060849
 20
260.84433
 30
0.0
 11
142.061062
 21
260.84433
 31
0.0
  0
LINE
  5
2F8
100
AcDbEntity
  8
0
  6
Continuous
 62
     8
100
AcDbLine
 10
148.060849
 20
260.84433
 30
0.0
 11
165.102661
 21
260.84433
 31
0.0
  0
LINE
  5
2F9
100
AcDbEntity
  8
0
  6
Continuous
 62
     8
100
AcDbLine
 10
171.102448
 20
260.84433
 30
0.0
 11
173.10266
 21
260.84433
 31
0.0
  0
LINE
  5
2FA
100
AcDbEntity
  8
0
  6
Continuous
 62
     8
100
AcDbLine
 10
179.102447
 20
260.84433
 30
0.0
 11
196.144259
 21
260.84433
 31
0.0
  0
LINE
  5
2FB
100
AcDbEntity
  8
0
  6
Continuous
 62
     8
100
AcDbLine
 10
202.144046
 20
260.84433
 30
0.0
 11
204.144258
 21
260.84433
 31
0.0
  0
LINE
  5
2FC
100
AcDbEntity
  8
0
  6
Continuous
 62
     8
100
AcDbLine
 10
210.144045
 20
260.84433
 30
0.0
 11
227.185857
 21
260.84433
 31
0.0
  0
LINE
  5
2FD
100
AcDbEntity
  8
0
  6
Continuous
 62
     8
100
AcDbLine
 10
233.18607
 20
260.84433
 30
0.0
 11
235.185857
 21
260.84433
 31
0.0
  0
LINE
  5
2FE
100
AcDbEntity
  8
0
  6
Continuous
 62
     8
100
AcDbLine
 10
241.186069
 20
260.84433
 30
0.0
 11
258.227456
 21
260.84433
 31
0.0
  0
LINE
  5
2FF
100
AcDbEntity
  8
0
  6
Continuous
 62
     8
100
AcDbLine
 10
264.227668
 20
260.84433
 30
0.0
 11
266.227455
 21
260.84433
 31
0.0
  0
LINE
  5
300
100
AcDbEntity
  8
0
  6
Continuous
 62
     8
100
AcDbLine
 10
272.227668
 20
260.84433
 30
0.0
 11
289.269054
 21
260.84433
 31
0.0
  0
LINE
  5
301
100
AcDbEntity
  8
0
  6
Continuous
 62
     8
100
AcDbLine
 10
295.269266
 20
260.84433
 30
0.0
 11
297.269053
 21
260.84433
 31
0.0
  0
LINE
  5
302
100
AcDbEntity
  8
0
  6
Continuous
 62
     8
100
AcDbLine
 10
303.269266
 20
260.84433
 30
0.0
 11
320.310652
 21
260.84433
 31
0.0
  0
LINE
  5
303
100
AcDbEntity
  8
0
  6
Continuous
 62
     8
100
AcDbLine
 10
326.310865
 20
260.84433
 30
0.0
 11
328.310652
 21
260.84433
 31
0.0
  0
LINE
  5
304
100
AcDbEntity
  8
0
  6
Continuous
 62
     8
100
AcDbLine
 10
334.310864
 20
260.84433
 30
0.0
 11
351.352676
 21
260.84433
 31
0.0
  0
LINE
  5
305
100
AcDbEntity
  8
0
  6
Continuous
 62
     8
100
AcDbLine
 10
357.352463
 20
260.84433
 30
0.0
 11
359.352676
 21
260.84433
 31
0.0
  0
LINE
  5
306
100
AcDbEntity
  8
0
  6
Continuous
 62
     8
100
AcDbLine
 10
365.352463
 20
260.84433
 30
0.0
 11
382.394274
 21
260.84433
 31
0.0
  0
LINE
  5
307
100
AcDbEntity
  8
0
  6
Continuous
 62
     8
100
AcDbLine
 10
388.394061
 20
260.84433
 30
0.0
 11
390.394274
 21
260.84433
 31
0.0
  0
LINE
  5
308
100
AcDbEntity
  8
0
  6
Continuous
 62
     8
100
AcDbLine
 10
396.394061
 20
260.84433
 30
0.0
 11
413.435873
 21
260.84433
 31
0.0
  0
LINE
  5
309
100
AcDbEntity
  8
0
  6
Continuous
 62
     8
100
AcDbLine
 10
419.43566
 20
260.84433
 30
0.0
 11
421.435872
 21
260.84433
 31
0.0
  0
LINE
  5
30A
100
AcDbEntity
  8
0
  6
Continuous
 62
     8
100
AcDbLine
 10
427.435659
 20
260.84433
 30
0.0
 11
444.477471
 21
260.84433
 31
0.0
  0
LINE
  5
30B
100
AcDbEntity
  8
0
  6
Continuous
 62
     8
100
AcDbLine
 10
450.477684
 20
260.84433
 30
0.0
 11
452.477471
 21
260.84433
 31
0.0
  0
LINE
  5
30C
100
AcDbEntity
  8
0
  6
Continuous
 62
     8
100
AcDbLine
 10
458.477683
 20
260.84433
 30
0.0
 11
475.519069
 21
260.84433
 31
0.0
  0
ENDBLK
  5
30D
100
AcDbEntity
  8
0
100
AcDbBlockEnd
  0
BLOCK
  5
310
100
AcDbEntity
  8
0
100
AcDbBlockBegin
  2
*B48
 70
     0
 10
0.0
 20
0.0
 30
0.0
  3
*B48
  1

  0
LINE
  5
311
100
AcDbEntity
  8
0
  6
Continuous
 62
     8
100
AcDbLine
 10
392.568973
 20
323.093501
 30
0.0
 11
392.568973
 21
341.99466
 31
0.0
  0
ENDBLK
  5
312
100
AcDbEntity
  8
0
100
AcDbBlockEnd
  0
BLOCK
  5
315
100
AcDbEntity
  8
0
100
AcDbBlockBegin
  2
*B49
 70
     0
 10
0.0
 20
0.0
 30
0.0
  3
*B49
  1

  0
LINE
  5
316
100
AcDbEntity
  8
0
  6
Continuous
 62
     8
100
AcDbLine
 10
471.019017
 20
317.093714
 30
0.0
 11
526.036355
 21
317.093714
 31
0.0
  0
ENDBLK
  5
317
100
AcDbEntity
  8
0
100
AcDbBlockEnd
  0
BLOCK
  5
31A
100
AcDbEntity
  8
0
100
AcDbBlockBegin
  2
*B50
 70
     0
 10
0.0
 20
0.0
 30
0.0
  3
*B50
  1

  0
LINE
  5
31B
100
AcDbEntity
  8
0
  6
Continuous
 62
     8
100
AcDbLine
 10
98.036381
 20
204.59537
 30
0.0
 11
279.019028
 21
204.59537
 31
0.0
  0
LINE
  5
31C
100
AcDbEntity
  8
0
  6
Continuous
 62
     8
100
AcDbLine
 10
471.019017
 20
204.59537
 30
0.0
 11
526.036355
 21
204.59537
 31
0.0
  0
ENDBLK
  5
31D
100
AcDbEntity
  8
0
100
AcDbBlockEnd
  0
BLOCK
  5
320
100
AcDbEntity
  8
0
100
AcDbBlockBegin
  2
*B51
 70
     0
 10
0.0
 20
0.0
 30
0.0
  3
*B51
  1

  0
LINE
  5
321
100
AcDbEntity
  8
0
  6
Continuous
 62
     8
100
AcDbLine
 10
98.036381
 20
328.343421
 30
0.0
 11
117.01925
 21
328.343421
 31
0.0
  0
ENDBLK
  5
322
100
AcDbEntity
  8
0
100
AcDbBlockEnd
  0
BLOCK
  5
325
100
AcDbEntity
  8
0
100
AcDbBlockBegin
  2
*B52
 70
     0
 10
0.0
 20
0.0
 30
0.0
  3
*B52
  1

  0
LINE
  5
326
100
AcDbEntity
  8
0
  6
Continuous
 62
     6
100
AcDbLine
 10
344.894117
 20
232.720063
 30
0.0
 11
348.894117
 21
232.720063
 31
0.0
  0
LINE
  5
327
100
AcDbEntity
  8
0
  6
Continuous
 62
     6
100
AcDbLine
 10
346.89433
 20
230.71985
 30
0.0
 11
346.89433
 21
234.71985
 31
0.0
  0
ENDBLK
  5
328
100
AcDbEntity
  8
0
100
AcDbBlockEnd
  0
BLOCK
  5
32B
100
AcDbEntity
  8
0
100
AcDbBlockBegin
  2
*B53
 70
     0
 10
0.0
 20
0.0
 30
0.0
  3
*B53
  1

  0
LINE
  5
32C
100
AcDbEntity
  8
0
  6
Continuous
 62
     6
100
AcDbLine
 10
373.019235
 20
288.969022
 30
0.0
 11
377.019235
 21
288.969022
 31
0.0
  0
LINE
  5
32D
100
AcDbEntity
  8
0
  6
Continuous
 62
     6
100
AcDbLine
 10
375.019022
 20
286.969235
 30
0.0
 11
375.019022
 21
290.969235
 31
0.0
  0
ENDBLK
  5
32E
100
AcDbEntity
  8
0
100
AcDbBlockEnd
  0
BLOCK
  5
331
100
AcDbEntity
  8
0
100
AcDbBlockBegin
  2
*B54
 70
     0
 10
0.0
 20
0.0
 30
0.0
  3
*B54
  1

  0
LINE
  5
332
100
AcDbEntity
  8
0
  6
Continuous
 62
     6
100
AcDbLine
 10
403.14414
 20
230.71985
 30
0.0
 11
403.14414
 21
234.71985
 31
0.0
  0
LINE
  5
333
100
AcDbEntity
  8
0
  6
Continuous
 62
     6
100
AcDbLine
 10
401.144353
 20
232.720063
 30
0.0
 11
405.144353
 21
232.720063
 31
0.0
  0
ENDBLK
  5
334
100
AcDbEntity
  8
0
100
AcDbBlockEnd
  0
BLOCK
  5
337
100
AcDbEntity
  8
0
100
AcDbBlockBegin
  2
*B55
 70
     0
 10
0.0
 20
0.0
 30
0.0
  3
*B55
  1

  0
LINE
  5
338
100
AcDbEntity
  8
0
  6
Continuous
 62
     6
100
AcDbLine
 10
346.019343
 20
68.691559
 30
0.0
 11
350.019343
 21
68.691559
 31
0.0
  0
LINE
  5
339
100
AcDbEntity
  8
0
  6
Continuous
 62
     6
100
AcDbLine
 10
348.01913
 20
66.691346
 30
0.0
 11
348.01913
 21
70.691346
 31
0.0
  0
ENDBLK
  5
33A
100
AcDbEntity
  8
0
100
AcDbBlockEnd
  0
BLOCK
  5
33D
100
AcDbEntity
  8
0
100
AcDbBlockBegin
  2
*B56
 70
     0
 10
0.0
 20
0.0
 30
0.0
  3
*B56
  1

  0
LINE
  5
33E
100
AcDbEntity
  8
0
  6
Continuous
 62
     6
100
AcDbLine
 10
265.019242
 20
68.691559
 30
0.0
 11
269.019241
 21
68.691559
 31
0.0
  0
LINE
  5
33F
100
AcDbEntity
  8
0
  6
Continuous
 62
     6
100
AcDbLine
 10
267.019029
 20
66.691346
 30
0.0
 11
267.019029
 21
70.691346
 31
0.0
  0
ENDBLK
  5
340
100
AcDbEntity
  8
0
100
AcDbBlockEnd
  0
BLOCK
  5
343
100
AcDbEntity
  8
0
100
AcDbBlockBegin
  2
*B57
 70
     0
 10
0.0
 20
0.0
 30
0.0
  3
*B57
  1

  0
LINE
  5
344
100
AcDbEntity
  8
0
  6
Continuous
 62
     6
100
AcDbLine
 10
402.01934
 20
66.691346
 30
0.0
 11
402.01934
 21
70.691346
 31
0.0
  0
LINE
  5
345
100
AcDbEntity
  8
0
  6
Continuous
 62
     6
100
AcDbLine
 10
400.019127
 20
68.691559
 30
0.0
 11
404.019127
 21
68.691559
 31
0.0
  0
ENDBLK
  5
346
100
AcDbEntity
  8
0
100
AcDbBlockEnd
  0
BLOCK
  5
349
100
AcDbEntity
  8
0
100
AcDbBlockBegin
  2
*B58
 70
     0
 10
0.0
 20
0.0
 30
0.0
  3
*B58
  1

  0
LINE
  5
34A
100
AcDbEntity
  8
0
  6
Continuous
 62
     6
100
AcDbLine
 10
159.019461
 20
66.691346
 30
0.0
 11
159.019461
 21
70.691346
 31
0.0
  0
LINE
  5
34B
100
AcDbEntity
  8
0
  6
Continuous
 62
     6
100
AcDbLine
 10
157.019248
 20
68.691559
 30
0.0
 11
161.019248
 21
68.691559
 31
0.0
  0
ENDBLK
  5
34C
100
AcDbEntity
  8
0
100
AcDbBlockEnd
  0
BLOCK
  5
34F
100
AcDbEntity
  8
0
100
AcDbBlockBegin
  2
*B59
 70
     0
 10
0.0
 20
0.0
 30
0.0
  3
*B59
  1

  0
LINE
  5
350
100
AcDbEntity
  8
0
  6
Continuous
 62
     0
100
AcDbLine
 10
294.182342
 20
277.245648
 30
0.0
 11
323.64888
 21
277.245648
 31
0.0
  0
LINE
  5
351
100
AcDbEntity
  8
0
  6
Continuous
 62
     0
100
AcDbLine
 10
323.64888
 20
277.245648
 30
0.0
 11
343.457794
 21
239.302039
 31
0.0
  0
SOLID
  5
352
100
AcDbEntity
  8
0
  6
Continuous
 62
     0
100
AcDbTrace
 10
337.057114
 20
247.240756
 30
0.0
 11
343.457794
 21
239.302039
 31
0.0
 12
340.603023
 22
249.092016
 32
0.0
 13
340.603023
 23
249.092016
 33
0.0
  0
ENDBLK
  5
353
100
AcDbEntity
  8
0
100
AcDbBlockEnd
  0
BLOCK
  5
356
100
AcDbEntity
  8
0
100
AcDbBlockBegin
  2
*B60
 70
     0
 10
0.0
 20
0.0
 30
0.0
  3
*B60
  1

  0
TEXT
  5
357
100
AcDbEntity
  8
TEXT
  6
Continuous
 62
     0
100
AcDbText
 10
343.765799
 20
299.0
 30
0.0
 40
12.0
  1
4
100
AcDbText
  0
ENDBLK
  5
358
100
AcDbEntity
  8
0
100
AcDbBlockEnd
  0
BLOCK
  5
35B
100
AcDbEntity
  8
0
100
AcDbBlockBegin
  2
*B61
 70
     0
 10
0.0
 20
0.0
 30
0.0
  3
*B61
  1

  0
TEXT
  5
35C
100
AcDbEntity
  8
TEXT
  6
Continuous
 62
     0
100
AcDbText
 10
316.765799
 20
214.0
 30
0.0
 40
12.0
  1
5
100
AcDbText
  0
ENDBLK
  5
35D
100
AcDbEntity
  8
0
100
AcDbBlockEnd
  0
BLOCK
  5
360
100
AcDbEntity
  8
0
100
AcDbBlockBegin
  2
*B62
 70
     0
 10
0.0
 20
0.0
 30
0.0
  3
*B62
  1

  0
TEXT
  5
361
100
AcDbEntity
  8
TEXT
  6
Continuous
 62
     0
100
AcDbText
 10
290.531599
 20
256.0
 30
0.0
 40
12.0
  1
14
100
AcDbText
  0
ENDBLK
  5
362
100
AcDbEntity
  8
0
100
AcDbBlockEnd
  0
BLOCK
  5
365
100
AcDbEntity
  8
0
100
AcDbBlockBegin
  2
*B63
 70
     0
 10
0.0
 20
0.0
 30
0.0
  3
*B63
  1

  0
TEXT
  5
366
100
AcDbEntity
  8
TEXT
  6
Continuous
 62
     0
100
AcDbText
 10
370.765799
 20
213.0
 30
0.0
 40
12.0
  1
1
100
AcDbText
  0
ENDBLK
  5
367
100
AcDbEntity
  8
0
100
AcDbBlockEnd
  0
BLOCK
  5
36A
100
AcDbEntity
  8
0
100
AcDbBlockBegin
  2
*B64
 70
     0
 10
0.0
 20
0.0
 30
0.0
  3
*B64
  1

  0
TEXT
  5
36B
100
AcDbEntity
  8
TEXT
  6
Continuous
 62
     0
100
AcDbText
 10
397.765799
 20
299.0
 30
0.0
 40
12.0
  1
2
100
AcDbText
  0
ENDBLK
  5
36C
100
AcDbEntity
  8
0
100
AcDbBlockEnd
  0
BLOCK
  5
36F
100
AcDbEntity
  8
0
100
AcDbBlockBegin
  2
*B65
 70
     0
 10
0.0
 20
0.0
 30
0.0
  3
*B65
  1

  0
TEXT
  5
370
100
AcDbEntity
  8
TEXT
  6
Continuous
 62
     0
100
AcDbText
 10
424.765799
 20
214.0
 30
0.0
 40
12.0
  1
3
100
AcDbText
  0
ENDBLK
  5
371
100
AcDbEntity
  8
0
100
AcDbBlockEnd
  0
BLOCK
  5
374
100
AcDbEntity
  8
0
100
AcDbBlockBegin
  2
*B66
 70
     0
 10
0.0
 20
0.0
 30
0.0
  3
*B66
  1

  0
TEXT
  5
375
100
AcDbEntity
  8
TEXT
  6
Continuous
 62
     0
100
AcDbText
 10
442.531599
 20
256.0
 30
0.0
 40
12.0
  1
12
100
AcDbText
  0
ENDBLK
  5
376
100
AcDbEntity
  8
0
100
AcDbBlockEnd
  0
BLOCK
  5
379
100
AcDbEntity
  8
0
100
AcDbBlockBegin
  2
*B67
 70
     0
 10
0.0
 20
0.0
 30
0.0
  3
*B67
  1

  0
TEXT
  5
37A
100
AcDbEntity
  8
TEXT
  6
Continuous
 62
     0
100
AcDbText
 10
294.145833
 20
282.5
 30
0.0
 40
7.0
  1
%%c3,3
100
AcDbText
  0
ENDBLK
  5
37B
100
AcDbEntity
  8
0
100
AcDbBlockEnd
  0
BLOCK
  5
37E
100
AcDbEntity
  8
0
100
AcDbBlockBegin
  2
*B68
 70
     0
 10
0.0
 20
0.0
 30
0.0
  3
*B68
  1

  0
TEXT
  5
37F
100
AcDbEntity
  8
TEXT
  6
Continuous
 62
     0
100
AcDbText
 10
130.380297
 20
181.0
 30
0.0
 40
14.0
  1
180%%d
100
AcDbText
  0
ENDBLK
  5
380
100
AcDbEntity
  8
0
100
AcDbBlockEnd
  0
BLOCK
  5
383
100
AcDbEntity
  8
0
100
AcDbBlockBegin
  2
*B69
 70
     0
 10
0.0
 20
0.0
 30
0.0
  3
*B69
  1

  0
TEXT
  5
384
100
AcDbEntity
  8
TEXT
  6
Continuous
 62
     0
100
AcDbText
 10
194.380297
 20
139.0
 30
0.0
 40
14.0
  1
180%%d
100
AcDbText
  0
ENDBLK
  5
385
100
AcDbEntity
  8
0
100
AcDbBlockEnd
  0
BLOCK
  5
388
100
AcDbEntity
  8
0
100
AcDbBlockBegin
  2
*B70
 70
     0
 10
0.0
 20
0.0
 30
0.0
  3
*B70
  1

  0
TEXT
  5
389
100
AcDbEntity
  8
TEXT
  6
Continuous
 62
     0
100
AcDbText
 10
426.816204
 20
369.5
 30
0.0
 40
7.0
  1
14
100
AcDbText
  0
ENDBLK
  5
38A
100
AcDbEntity
  8
0
100
AcDbBlockEnd
  0
BLOCK
  5
38D
100
AcDbEntity
  8
0
100
AcDbBlockBegin
  2
*B71
 70
     0
 10
0.0
 20
0.0
 30
0.0
  3
*B71
  1

  0
TEXT
  5
38E
100
AcDbEntity
  8
TEXT
  6
Continuous
 62
     0
100
AcDbText
 10
368.316204
 20
369.5
 30
0.0
 40
7.0
  1
12
100
AcDbText
  0
ENDBLK
  5
38F
100
AcDbEntity
  8
0
100
AcDbBlockEnd
  0
BLOCK
  5
392
100
AcDbEntity
  8
0
100
AcDbBlockBegin
  2
*B72
 70
     0
 10
0.0
 20
0.0
 30
0.0
  3
*B72
  1

  0
TEXT
  5
393
100
AcDbEntity
  8
TEXT
  6
Continuous
 62
     0
100
AcDbText
 10
443.649537
 20
178.735033
 30
0.0
 40
7.0
  1
8
100
AcDbText
  0
ENDBLK
  5
394
100
AcDbEntity
  8
0
100
AcDbBlockEnd
  0
BLOCK
  5
397
100
AcDbEntity
  8
0
100
AcDbBlockBegin
  2
*B73
 70
     0
 10
0.0
 20
0.0
 30
0.0
  3
*B73
  1

  0
TEXT
  5
398
100
AcDbEntity
  8
TEXT
  6
Continuous
 62
     0
100
AcDbText
 10
395.316204
 20
178.735033
 30
0.0
 40
7.0
  1
12
100
AcDbText
  0
ENDBLK
  5
399
100
AcDbEntity
  8
0
100
AcDbBlockEnd
  0
BLOCK
  5
39C
100
AcDbEntity
  8
0
100
AcDbBlockBegin
  2
*B74
 70
     0
 10
0.0
 20
0.0
 30
0.0
  3
*B74
  1

  0
TEXT
  5
39D
100
AcDbEntity
  8
TEXT
  6
Continuous
 62
     0
100
AcDbText
 10
341.316204
 20
178.735033
 30
0.0
 40
7.0
  1
12
100
AcDbText
  0
ENDBLK
  5
39E
100
AcDbEntity
  8
0
100
AcDbBlockEnd
  0
BLOCK
  5
3A1
100
AcDbEntity
  8
0
100
AcDbBlockBegin
  2
*B75
 70
     0
 10
0.0
 20
0.0
 30
0.0
  3
*B75
  1

  0
TEXT
  5
3A2
100
AcDbEntity
  8
TEXT
  6
Continuous
 62
     0
100
AcDbText
 10
363.316204
 20
249.5
 30
0.0
 40
7.0
  1
12,5
100
AcDbText
  0
ENDBLK
  5
3A3
100
AcDbEntity
  8
0
100
AcDbBlockEnd
  0
BLOCK
  5
3A6
100
AcDbEntity
  8
0
100
AcDbBlockBegin
  2
*B76
 70
     0
 10
0.0
 20
0.0
 30
0.0
  3
*B76
  1

  0
TEXT
  5
3A7
100
AcDbEntity
  8
TEXT
  6
Continuous
 62
     0
100
AcDbText
 10
494.5
 20
249.181837
 30
0.0
 40
7.0
  1
12,5
 50
90.0
100
AcDbText
  0
ENDBLK
  5
3A8
100
AcDbEntity
  8
0
100
AcDbBlockEnd
  0
BLOCK
  5
3AB
100
AcDbEntity
  8
0
100
AcDbBlockBegin
  2
*B77
 70
     0
 10
0.0
 20
0.0
 30
0.0
  3
*B77
  1

  0
TEXT
  5
3AC
100
AcDbEntity
  8
TEXT
  6
Continuous
 62
     0
100
AcDbText
 10
520.5
 20
254.181837
 30
0.0
 40
7.0
  1
25
 50
90.0
100
AcDbText
  0
ENDBLK
  5
3AD
100
AcDbEntity
  8
0
100
AcDbBlockEnd
  0
BLOCK
  5
3B0
100
AcDbEntity
  8
0
100
AcDbBlockBegin
  2
*B78
 70
     0
 10
0.0
 20
0.0
 30
0.0
  3
*B78
  1

  0
TEXT
  5
3B1
100
AcDbEntity
  8
TEXT
  6
Continuous
 62
     0
100
AcDbText
 10
368.316204
 20
151.5
 30
0.0
 40
7.0
  1
40
100
AcDbText
  0
ENDBLK
  5
3B2
100
AcDbEntity
  8
0
100
AcDbBlockEnd
  0
BLOCK
  5
3B5
100
AcDbEntity
  8
0
100
AcDbBlockBegin
  2
*B79
 70
     0
 10
0.0
 20
0.0
 30
0.0
  3
*B79
  1

  0
TEXT
  5
3B6
100
AcDbEntity
  8
TEXT
  6
Continuous
 62
     0
100
AcDbText
 10
364.666667
 20
343.5
 30
0.0
 40
7.0
  1
M5
100
AcDbText
  0
ENDBLK
  5
3B7
100
AcDbEntity
  8
0
100
AcDbBlockEnd
  0
BLOCK
  5
3BA
100
AcDbEntity
  8
0
100
AcDbBlockBegin
  2
*B80
 70
     0
 10
0.0
 20
0.0
 30
0.0
  3
*B80
  1

  0
TEXT
  5
3BB
100
AcDbEntity
  8
TEXT
  6
Continuous
 62
     0
100
AcDbText
 10
287.316204
 20
393.5
 30
0.0
 40
7.0
  1
76
100
AcDbText
  0
ENDBLK
  5
3BC
100
AcDbEntity
  8
0
100
AcDbBlockEnd
  0
BLOCK
  5
3BF
100
AcDbEntity
  8
0
100
AcDbBlockBegin
  2
*B81
 70
     0
 10
0.0
 20
0.0
 30
0.0
  3
*B81
  1

  0
TEXT
  5
3C0
100
AcDbEntity
  8
TEXT
  6
Continuous
 62
     0
100
AcDbText
 10
96.5
 20
263.181837
 30
0.0
 40
7.0
  1
26
 50
90.0
100
AcDbText
  0
ENDBLK
  5
3C1
100
AcDbEntity
  8
0
100
AcDbBlockEnd
  0
BLOCK
  5
3C4
100
AcDbEntity
  8
0
100
AcDbBlockBegin
  2
*B82
 70
     0
 10
0.0
 20
0.0
 30
0.0
  3
*B82
  1

  0
TEXT
  5
3C5
100
AcDbEntity
  8
TEXT
  6
Continuous
 62
     0
100
AcDbText
 10
96.5
 20
62.025778
 30
0.0
 40
7.0
  1
16
 50
90.0
100
AcDbText
  0
ENDBLK
  5
3C6
100
AcDbEntity
  8
0
100
AcDbBlockEnd
  0
BLOCK
  5
3C9
100
AcDbEntity
  8
0
100
AcDbBlockBegin
  2
*B83
 70
     0
 10
0.0
 20
0.0
 30
0.0
  3
*B83
  1

  0
TEXT
  5
3CA
100
AcDbEntity
  8
TEXT
  6
Continuous
 62
     0
100
AcDbText
 10
483.979167
 20
343.5
 30
0.0
 40
7.0
  1
1
100
AcDbText
  0
ENDBLK
  5
3CB
100
AcDbEntity
  8
0
100
AcDbBlockEnd
  0
BLOCK
  5
3CE
100
AcDbEntity
  8
0
100
AcDbBlockBegin
  2
*B84
 70
     0
 10
0.0
 20
0.0
 30
0.0
  3
*B84
  1

  0
TEXT
  5
3CF
100
AcDbEntity
  8
TEXT
  6
Continuous
 62
     0
100
AcDbText
 10
96.5
 20
173.666667
 30
0.0
 40
7.0
  1
1,5
 50
90.0
100
AcDbText
  0
ENDBLK
  5
3D0
100
AcDbEntity
  8
0
100
AcDbBlockEnd
  0
ENDSEC
  0
SECTION
  2
ENTITIES
  0
INSERT
  5
131
100
AcDbEntity
  8
0
  6
HIDDEN
 62
   174
100
AcDbBlockReference
  2
*B1
 10
0.0
 20
0.0
 30
0.0
  0
INSERT
  5
1B5
100
AcDbEntity
  8
0
  6
Continuous
 62
   174
100
AcDbBlockReference
  2
*B2
 10
0.0
 20
0.0
 30
0.0
  0
INSERT
  5
1BB
100
AcDbEntity
  8
0
  6
Continuous
 62
   172
100
AcDbBlockReference
  2
*B3
 10
0.0
 20
0.0
 30
0.0
  0
INSERT
  5
1C6
100
AcDbEntity
  8
0
  6
Continuous
 62
   172
100
AcDbBlockReference
  2
*B4
 10
0.0
 20
0.0
 30
0.0
  0
INSERT
  5
1CF
100
AcDbEntity
  8
0
  6
Continuous
 62
   172
100
AcDbBlockReference
  2
*B6
 10
0.0
 20
0.0
 30
0.0
  0
INSERT
  5
1DA
100
AcDbEntity
  8
0
  6
Continuous
 62
   172
100
AcDbBlockReference
  2
*B7
 10
0.0
 20
0.0
 30
0.0
  0
INSERT
  5
1E4
100
AcDbEntity
  8
0
  6
Continuous
 62
     0
100
AcDbBlockReference
  2
*B9
 10
0.0
 20
0.0
 30
0.0
  0
INSERT
  5
1EB
100
AcDbEntity
  8
0
  6
Continuous
 62
     0
100
AcDbBlockReference
  2
*B10
 10
0.0
 20
0.0
 30
0.0
  0
INSERT
  5
1F2
100
AcDbEntity
  8
0
  6
Continuous
 62
     0
100
AcDbBlockReference
  2
*B11
 10
0.0
 20
0.0
 30
0.0
  0
INSERT
  5
1F9
100
AcDbEntity
  8
0
  6
Continuous
 62
     0
100
AcDbBlockReference
  2
*B12
 10
0.0
 20
0.0
 30
0.0
  0
INSERT
  5
200
100
AcDbEntity
  8
0
  6
Continuous
 62
     0
100
AcDbBlockReference
  2
*B13
 10
0.0
 20
0.0
 30
0.0
  0
INSERT
  5
207
100
AcDbEntity
  8
0
  6
Continuous
 62
     0
100
AcDbBlockReference
  2
*B14
 10
0.0
 20
0.0
 30
0.0
  0
INSERT
  5
20E
100
AcDbEntity
  8
0
  6
Continuous
 62
     0
100
AcDbBlockReference
  2
*B15
 10
0.0
 20
0.0
 30
0.0
  0
INSERT
  5
215
100
AcDbEntity
  8
0
  6
Continuous
 62
     0
100
AcDbBlockReference
  2
*B16
 10
0.0
 20
0.0
 30
0.0
  0
INSERT
  5
21C
100
AcDbEntity
  8
0
  6
Continuous
 62
     0
100
AcDbBlockReference
  2
*B17
 10
0.0
 20
0.0
 30
0.0
  0
INSERT
  5
223
100
AcDbEntity
  8
0
  6
Continuous
 62
     0
100
AcDbBlockReference
  2
*B18
 10
0.0
 20
0.0
 30
0.0
  0
INSERT
  5
22A
100
AcDbEntity
  8
0
  6
Continuous
 62
     0
100
AcDbBlockReference
  2
*B19
 10
0.0
 20
0.0
 30
0.0
  0
INSERT
  5
231
100
AcDbEntity
  8
0
  6
Continuous
 62
     0
100
AcDbBlockReference
  2
*B20
 10
0.0
 20
0.0
 30
0.0
  0
INSERT
  5
238
100
AcDbEntity
  8
0
  6
Continuous
 62
     0
100
AcDbBlockReference
  2
*B21
 10
0.0
 20
0.0
 30
0.0
  0
INSERT
  5
23F
100
AcDbEntity
  8
0
  6
Continuous
 62
     0
100
AcDbBlockReference
  2
*B22
 10
0.0
 20
0.0
 30
0.0
  0
INSERT
  5
246
100
AcDbEntity
  8
0
  6
Continuous
 62
     0
100
AcDbBlockReference
  2
*B23
 10
0.0
 20
0.0
 30
0.0
  0
INSERT
  5
24C
100
AcDbEntity
  8
0
  6
Continuous
 62
     8
100
AcDbBlockReference
  2
*B24
 10
0.0
 20
0.0
 30
0.0
  0
INSERT
  5
256
100
AcDbEntity
  8
0
  6
Continuous
 62
     8
100
AcDbBlockReference
  2
*B25
 10
0.0
 20
0.0
 30
0.0
  0
INSERT
  5
25E
100
AcDbEntity
  8
0
  6
Continuous
 62
     8
100
AcDbBlockReference
  2
*B26
 10
0.0
 20
0.0
 30
0.0
  0
INSERT
  5
264
100
AcDbEntity
  8
0
  6
Continuous
 62
     8
100
AcDbBlockReference
  2
*B27
 10
0.0
 20
0.0
 30
0.0
  0
INSERT
  5
275
100
AcDbEntity
  8
0
  6
Continuous
 62
     8
100
AcDbBlockReference
  2
*B28
 10
0.0
 20
0.0
 30
0.0
  0
INSERT
  5
282
100
AcDbEntity
  8
0
  6
Continuous
 62
     8
100
AcDbBlockReference
  2
*B29
 10
0.0
 20
0.0
 30
0.0
  0
INSERT
  5
288
100
AcDbEntity
  8
0
  6
Continuous
 62
     8
100
AcDbBlockReference
  2
*B30
 10
0.0
 20
0.0
 30
0.0
  0
INSERT
  5
293
100
AcDbEntity
  8
0
  6
Continuous
 62
     8
100
AcDbBlockReference
  2
*B31
 10
0.0
 20
0.0
 30
0.0
  0
INSERT
  5
299
100
AcDbEntity
  8
0
  6
Continuous
 62
     8
100
AcDbBlockReference
  2
*B32
 10
0.0
 20
0.0
 30
0.0
  0
INSERT
  5
29F
100
AcDbEntity
  8
0
  6
Continuous
 62
     8
100
AcDbBlockReference
  2
*B33
 10
0.0
 20
0.0
 30
0.0
  0
INSERT
  5
2A4
100
AcDbEntity
  8
0
  6
Continuous
 62
     8
100
AcDbBlockReference
  2
*B34
 10
0.0
 20
0.0
 30
0.0
  0
INSERT
  5
2AC
100
AcDbEntity
  8
0
  6
Continuous
 62
     8
100
AcDbBlockReference
  2
*B35
 10
0.0
 20
0.0
 30
0.0
  0
INSERT
  5
2B2
100
AcDbEntity
  8
0
  6
Continuous
 62
     8
100
AcDbBlockReference
  2
*B36
 10
0.0
 20
0.0
 30
0.0
  0
INSERT
  5
2B7
100
AcDbEntity
  8
0
  6
Continuous
 62
     8
100
AcDbBlockReference
  2
*B37
 10
0.0
 20
0.0
 30
0.0
  0
INSERT
  5
2C4
100
AcDbEntity
  8
0
  6
Continuous
 62
     8
100
AcDbBlockReference
  2
*B38
 10
0.0
 20
0.0
 30
0.0
  0
INSERT
  5
2CE
100
AcDbEntity
  8
0
  6
Continuous
 62
     8
100
AcDbBlockReference
  2
*B39
 10
0.0
 20
0.0
 30
0.0
  0
INSERT
  5
2D3
100
AcDbEntity
  8
0
  6
Continuous
 62
     8
100
AcDbBlockReference
  2
*B40
 10
0.0
 20
0.0
 30
0.0
  0
INSERT
  5
2D8
100
AcDbEntity
  8
0
  6
Continuous
 62
     8
100
AcDbBlockReference
  2
*B41
 10
0.0
 20
0.0
 30
0.0
  0
INSERT
  5
2DD
100
AcDbEntity
  8
0
  6
Continuous
 62
     8
100
AcDbBlockReference
  2
*B42
 10
0.0
 20
0.0
 30
0.0
  0
INSERT
  5
2E2
100
AcDbEntity
  8
0
  6
Continuous
 62
     8
100
AcDbBlockReference
  2
*B43
 10
0.0
 20
0.0
 30
0.0
  0
INSERT
  5
2E7
100
AcDbEntity
  8
0
  6
Continuous
 62
     8
100
AcDbBlockReference
  2
*B44
 10
0.0
 20
0.0
 30
0.0
  0
INSERT
  5
2ED
100
AcDbEntity
  8
0
  6
Continuous
 62
     8
100
AcDbBlockReference
  2
*B45
 10
0.0
 20
0.0
 30
0.0
  0
INSERT
  5
2F3
100
AcDbEntity
  8
0
  6
Continuous
 62
     8
100
AcDbBlockReference
  2
*B46
 10
0.0
 20
0.0
 30
0.0
  0
INSERT
  5
30E
100
AcDbEntity
  8
0
  6
Continuous
 62
     8
100
AcDbBlockReference
  2
*B47
 10
0.0
 20
0.0
 30
0.0
  0
INSERT
  5
313
100
AcDbEntity
  8
0
  6
Continuous
 62
     8
100
AcDbBlockReference
  2
*B48
 10
0.0
 20
0.0
 30
0.0
  0
INSERT
  5
318
100
AcDbEntity
  8
0
  6
Continuous
 62
     8
100
AcDbBlockReference
  2
*B49
 10
0.0
 20
0.0
 30
0.0
  0
INSERT
  5
31E
100
AcDbEntity
  8
0
  6
Continuous
 62
     8
100
AcDbBlockReference
  2
*B50
 10
0.0
 20
0.0
 30
0.0
  0
INSERT
  5
323
100
AcDbEntity
  8
0
  6
Continuous
 62
     8
100
AcDbBlockReference
  2
*B51
 10
0.0
 20
0.0
 30
0.0
  0
INSERT
  5
329
100
AcDbEntity
  8
0
  6
Continuous
 62
     6
100
AcDbBlockReference
  2
*B52
 10
0.0
 20
0.0
 30
0.0
  0
INSERT
  5
32F
100
AcDbEntity
  8
0
  6
Continuous
 62
     6
100
AcDbBlockReference
  2
*B53
 10
0.0
 20
0.0
 30
0.0
  0
INSERT
  5
335
100
AcDbEntity
  8
0
  6
Continuous
 62
     6
100
AcDbBlockReference
  2
*B54
 10
0.0
 20
0.0
 30
0.0
  0
INSERT
  5
33B
100
AcDbEntity
  8
0
  6
Continuous
 62
     6
100
AcDbBlockReference
  2
*B55
 10
0.0
 20
0.0
 30
0.0
  0
INSERT
  5
341
100
AcDbEntity
  8
0
  6
Continuous
 62
     6
100
AcDbBlockReference
  2
*B56
 10
0.0
 20
0.0
 30
0.0
  0
INSERT
  5
347
100
AcDbEntity
  8
0
  6
Continuous
 62
     6
100
AcDbBlockReference
  2
*B57
 10
0.0
 20
0.0
 30
0.0
  0
INSERT
  5
34D
100
AcDbEntity
  8
0
  6
Continuous
 62
     6
100
AcDbBlockReference
  2
*B58
 10
0.0
 20
0.0
 30
0.0
  0
INSERT
  5
354
100
AcDbEntity
  8
0
  6
Continuous
 62
     0
100
AcDbBlockReference
  2
*B59
 10
0.0
 20
0.0
 30
0.0
  0
INSERT
  5
359
100
AcDbEntity
  8
TEXT
  6
Continuous
 62
     0
100
AcDbBlockReference
  2
*B60
 10
0.0
 20
0.0
 30
0.0
  0
INSERT
  5
35E
100
AcDbEntity
  8
TEXT
  6
Continuous
 62
     0
100
AcDbBlockReference
  2
*B61
 10
0.0
 20
0.0
 30
0.0
  0
INSERT
  5
363
100
AcDbEntity
  8
TEXT
  6
Continuous
 62
     0
100
AcDbBlockReference
  2
*B62
 10
0.0
 20
0.0
 30
0.0
  0
INSERT
  5
368
100
AcDbEntity
  8
TEXT
  6
Continuous
 62
     0
100
AcDbBlockReference
  2
*B63
 10
0.0
 20
0.0
 30
0.0
  0
INSERT
  5
36D
100
AcDbEntity
  8
TEXT
  6
Continuous
 62
     0
100
AcDbBlockReference
  2
*B64
 10
0.0
 20
0.0
 30
0.0
  0
INSERT
  5
372
100
AcDbEntity
  8
TEXT
  6
Continuous
 62
     0
100
AcDbBlockReference
  2
*B65
 10
0.0
 20
0.0
 30
0.0
  0
INSERT
  5
377
100
AcDbEntity
  8
TEXT
  6
Continuous
 62
     0
100
AcDbBlockReference
  2
*B66
 10
0.0
 20
0.0
 30
0.0
  0
INSERT
  5
37C
100
AcDbEntity
  8
TEXT
  6
Continuous
 62
     0
100
AcDbBlockReference
  2
*B67
 10
0.0
 20
0.0
 30
0.0
  0
INSERT
  5
381
100
AcDbEntity
  8
TEXT
  6
Continuous
 62
     0
100
AcDbBlockReference
  2
*B68
 10
0.0
 20
0.0
 30
0.0
  0
INSERT
  5
386
100
AcDbEntity
  8
TEXT
  6
Continuous
 62
     0
100
AcDbBlockReference
  2
*B69
 10
0.0
 20
0.0
 30
0.0
  0
INSERT
  5
38B
100
AcDbEntity
  8
TEXT
  6
Continuous
 62
     0
100
AcDbBlockReference
  2
*B70
 10
0.0
 20
0.0
 30
0.0
  0
INSERT
  5
390
100
AcDbEntity
  8
TEXT
  6
Continuous
 62
     0
100
AcDbBlockReference
  2
*B71
 10
0.0
 20
0.0
 30
0.0
  0
INSERT
  5
395
100
AcDbEntity
  8
TEXT
  6
Continuous
 62
     0
100
AcDbBlockReference
  2
*B72
 10
0.0
 20
0.0
 30
0.0
  0
INSERT
  5
39A
100
AcDbEntity
  8
TEXT
  6
Continuous
 62
     0
100
AcDbBlockReference
  2
*B73
 10
0.0
 20
0.0
 30
0.0
  0
INSERT
  5
39F
100
AcDbEntity
  8
TEXT
  6
Continuous
 62
     0
100
AcDbBlockReference
  2
*B74
 10
0.0
 20
0.0
 30
0.0
  0
INSERT
  5
3A4
100
AcDbEntity
  8
TEXT
  6
Continuous
 62
     0
100
AcDbBlockReference
  2
*B75
 10
0.0
 20
0.0
 30
0.0
  0
INSERT
  5
3A9
100
AcDbEntity
  8
TEXT
  6
Continuous
 62
     0
100
AcDbBlockReference
  2
*B76
 10
0.0
 20
0.0
 30
0.0
  0
INSERT
  5
3AE
100
AcDbEntity
  8
TEXT
  6
Continuous
 62
     0
100
AcDbBlockReference
  2
*B77
 10
0.0
 20
0.0
 30
0.0
  0
INSERT
  5
3B3
100
AcDbEntity
  8
TEXT
  6
Continuous
 62
     0
100
AcDbBlockReference
  2
*B78
 10
0.0
 20
0.0
 30
0.0
  0
INSERT
  5
3B8
100
AcDbEntity
  8
TEXT
  6
Continuous
 62
     0
100
AcDbBlockReference
  2
*B79
 10
0.0
 20
0.0
 30
0.0
  0
INSERT
  5
3BD
100
AcDbEntity
  8
TEXT
  6
Continuous
 62
     0
100
AcDbBlockReference
  2
*B80
 10
0.0
 20
0.0
 30
0.0
  0
INSERT
  5
3C2
100
AcDbEntity
  8
TEXT
  6
Continuous
 62
     0
100
AcDbBlockReference
  2
*B81
 10
0.0
 20
0.0
 30
0.0
  0
INSERT
  5
3C7
100
AcDbEntity
  8
TEXT
  6
Continuous
 62
     0
100
AcDbBlockReference
  2
*B82
 10
0.0
 20
0.0
 30
0.0
  0
INSERT
  5
3CC
100
AcDbEntity
  8
TEXT
  6
Continuous
 62
     0
100
AcDbBlockReference
  2
*B83
 10
0.0
 20
0.0
 30
0.0
  0
INSERT
  5
3D1
100
AcDbEntity
  8
TEXT
  6
Continuous
 62
     0
100
AcDbBlockReference
  2
*B84
 10
0.0
 20
0.0
 30
0.0
  0
ENDSEC
  0
SECTION
  2
OBJECTS
  0
DICTIONARY
  5
19
100
AcDbDictionary
280
     0
281
     1
  3
ACAD_GROUP
350
1A
  3
ACAD_MLINESTYLE
350
1B
  3
ACAD_LAYOUT
350
1E
  3
ACAD_PLOTSETTINGS
350
22
  3
ACAD_PLOTSTYLENAME
350
1F
  3
ACAD_WIPEOUT_VARS
350
23
  0
DICTIONARY
  5
1A
102
{ACAD_REACTORS
330
19
102
}
100
AcDbDictionary
280
     0
281
     1
  0
DICTIONARY
  5
1B
102
{ACAD_REACTORS
330
19
102
}
100
AcDbDictionary
280
     0
281
     1
  3
Standard
350
1C
  0
MLINESTYLE
  5
1C
102
{ACAD_REACTORS
330
1B
102
}
100
AcDbMlineStyle
  2
Standard
 70
     0
  3

 62
     0
 51
90.0
 52
90.0
 71
     2
 49
0.5
 62
   256
  6
BYLAYER
 49
-0.5
 62
   256
  6
BYLAYER
  0
ACDBDICTIONARYWDFLT
  5
1F
102
{ACAD_REACTORS
330
19
102
}
100
AcDbDictionary
281
     1
  3
Normal
350
1D
100
AcDbDictionaryWithDefault
340
1D
  0
ACDBPLACEHOLDER
  5
1D
102
{ACAD_REACTORS
330
1F
102
}
  0
LAYOUT
  5
20
102
{ACAD_REACTORS
330
1E
102
}
100
AcDbPlotSettings
  1

  2

  4

  6

 40
0.0
 41
0.0
 42
0.0
 43
0.0
 44
0.0
 45
0.0
 46
0.0
 47
0.0
 48
0.0
 49
0.0
140
0.0
141
0.0
142
1.0
143
1.0
 70
     0
 72
     0
 73
     0
 74
     0
  7

 75
     0
147
1.0
148
0.0
149
0.0
100
AcDbLayout
  1
Model
 70
     0
 71
     0
 10
0.0
 20
0.0
 11
0.0
 21
0.0
 12
0.0
 22
0.0
 32
0.0
 14
0.0
 24
0.0
 34
0.0
 15
0.0
 25
0.0
 35
0.0
146
0.0
 13
0.0
 23
0.0
 33
0.0
 16
0.0
 26
0.0
 36
0.0
 17
0.0
 27
0.0
 37
0.0
 76
     0
330
A
331
0
345
0
346
0
  0
LAYOUT
  5
21
102
{ACAD_REACTORS
330
1E
102
}
100
AcDbPlotSettings
  1

  2

  4

  6

 40
0.0
 41
0.0
 42
0.0
 43
0.0
 44
0.0
 45
0.0
 46
0.0
 47
0.0
 48
0.0
 49
0.0
140
0.0
141
0.0
142
1.0
143
1.0
 70
     0
 72
     0
 73
     0
 74
     0
  7

 75
     0
147
1.0
148
0.0
149
0.0
100
AcDbLayout
  1
Layout1
 70
     0
 71
     0
 10
0.0
 20
0.0
 11
0.0
 21
0.0
 12
0.0
 22
0.0
 32
0.0
 14
0.0
 24
0.0
 34
0.0
 15
0.0
 25
0.0
 35
0.0
146
0.0
 13
0.0
 23
0.0
 33
0.0
 16
0.0
 26
0.0
 36
0.0
 17
0.0
 27
0.0
 37
0.0
 76
     0
330
B
331
0
345
0
346
0
  0
DICTIONARY
  5
1E
102
{ACAD_REACTORS
330
19
102
}
100
AcDbDictionary
280
     0
281
     1
  3
Layout1
350
21
  3
Model
350
20
  0
DICTIONARY
  5
22
102
{ACAD_REACTORS
330
19
102
}
100
AcDbDictionary
280
     0
281
     1
  0
WIPEOUTVARIABLES
  5
23
100
AcDbWipeoutVariables
 70
     1
  0
ENDSEC
  0
EOF
