  0
SECTION
  2
HEADER
  9
$ACADVER
  1
AC1015
  9
$ACADMAINTVER
 70
     6
  9
$DWGCODEPAGE
  3
DOS850
  9
$INSBASE
 10
0.0
 20
0.0
 30
0.0
  9
$EXTMIN
 10
0.0
 20
0.0
 30
0.0
  9
$EXTMAX
 10
841.0
 20
595.0
 30
0.0
  9
$LIMMIN
 10
0.0
 20
0.0
  9
$LIMMAX
 10
841.0
 20
595.0
  9
$ORTHOMODE
 70
     0
  9
$REGENMODE
 70
     1
  9
$FILLMODE
 70
     1
  9
$QTEXTMODE
 70
     0
  9
$MIRRTEXT
 70
     1
  9
$LTSCALE
 40
25.4
  9
$ATTMODE
 70
     1
  9
$TEXTSIZE
 40
3.5
  9
$TRACEWID
 40
0.05
  9
$TEXTSTYLE
  7
Standard
  9
$CLAYER
  8
0
  9
$CELTYPE
  6
Continuous
  9
$CECOLOR
 62
   256
  9
$CELTSCALE
 40
1.0
  9
$DISPSILH
 70
     0
  9
$DIMSCALE
 40
1.0
  9
$DIMASZ
 40
5.0
  9
$DIMEXO
 40
3.0
  9
$DIMDLI
 40
0.38
  9
$DIMRND
 40
0.0
  9
$DIMDLE
 40
0.0
  9
$DIMEXE
 40
2.0
  9
$DIMTP
 40
0.0
  9
$DIMTM
 40
0.0
  9
$DIMTXT
 40
3.5
  9
$DIMCEN
 40
4.0
  9
$DIMTSZ
 40
0.0
  9
$DIMTOL
 70
     0
  9
$DIMLIM
 70
     0
  9
$DIMTIH
 70
     1
  9
$DIMTOH
 70
     1
  9
$DIMSE1
 70
     0
  9
$DIMSE2
 70
     0
  9
$DIMTAD
 70
     0
  9
$DIMZIN
 70
     0
  9
$DIMBLK
  1

  9
$DIMASO
 70
     1
  9
$DIMSHO
 70
     1
  9
$DIMPOST
  1

  9
$DIMAPOST
  1

  9
$DIMALT
 70
     0
  9
$DIMALTD
 70
     2
  9
$DIMALTF
 40
25.4
  9
$DIMLFAC
 40
1.0
  9
$DIMTOFL
 70
     0
  9
$DIMTVP
 40
0.0
  9
$DIMTIX
 70
     0
  9
$DIMSOXD
 70
     0
  9
$DIMSAH
 70
     0
  9
$DIMBLK1
  1

  9
$DIMBLK2
  1

  9
$DIMSTYLE
  2
Standard
  9
$DIMCLRD
 70
     0
  9
$DIMCLRE
 70
     0
  9
$DIMCLRT
 70
     0
  9
$DIMTFAC
 40
1.0
  9
$DIMGAP
 40
1.0
  9
$DIMJUST
 70
     0
  9
$DIMSD1
 70
     0
  9
$DIMSD2
 70
     0
  9
$DIMTOLJ
 70
     1
  9
$DIMTZIN
 70
     0
  9
$DIMALTZ
 70
     0
  9
$DIMALTTZ
 70
     0
  9
$DIMUPT
 70
     0
  9
$DIMDEC
 70
     4
  9
$DIMTDEC
 70
     4
  9
$DIMALTU
 70
     2
  9
$DIMALTTD
 70
     2
  9
$DIMTXSTY
  7
Standard
  9
$DIMAUNIT
 70
     0
  9
$DIMADEC
 70
     0
  9
$DIMALTRND
 40
0.0
  9
$DIMAZIN
 70
     0
  9
$DIMDSEP
 70
     0
  9
$DIMATFIT
 70
     3
  9
$DIMFRAC
 70
     0
  9
$DIMLDRBLK
  1

  9
$DIMLUNIT
 70
     2
  9
$DIMLWD
 70
     0
  9
$DIMLWE
 70
     0
  9
$DIMTMOVE
 70
     0
  9
$LUNITS
 70
     2
  9
$LUPREC
 70
     4
  9
$SKETCHINC
 40
0.1
  9
$FILLETRAD
 40
0.0
  9
$AUNITS
 70
     0
  9
$AUPREC
 70
     0
  9
$MENU
  1
acad
  9
$ELEVATION
 40
0.0
  9
$PELEVATION
 40
0.0
  9
$THICKNESS
 40
0.0
  9
$LIMCHECK
 70
     0
  9
$CHAMFERA
 40
0.0
  9
$CHAMFERB
 40
0.0
  9
$CHAMFERC
 40
0.0
  9
$CHAMFERD
 40
0.0
  9
$SKPOLY
 70
     0
  9
$TDCREATE
 40
0.000000000
  9
$TDUCREATE
 40
0.000000000
  9
$TDUPDATE
 40
0.000000000
  9
$TDUUPDATE
 40
0.000000000
  9
$TDINDWG
 40
0.0000000000
  9
$TDUSRTIMER
 40
0.0000000000
  9
$USRTIMER
 70
     1
  9
$ANGBASE
 50
0.0
  9
$ANGDIR
 70
     0
  9
$PDMODE
 70
     0
  9
$PDSIZE
 40
0.0
  9
$PLINEWID
 40
0.0
  9
$SPLFRAME
 70
     0
  9
$SPLINETYPE
 70
     6
  9
$SPLINESEGS
 70
     8
  9
$HANDSEED
  5
3AA
  9
$SURFTAB1
 70
     6
  9
$SURFTAB2
 70
     6
  9
$SURFTYPE
 70
     6
  9
$SURFU
 70
     6
  9
$SURFV
 70
     6
  9
$UCSBASE
  2

  9
$UCSNAME
  2

  9
$UCSORG
 10
0.0
 20
0.0
 30
0.0
  9
$UCSXDIR
 10
1.0
 20
0.0
 30
0.0
  9
$UCSYDIR
 10
0.0
 20
1.0
 30
0.0
  9
$UCSORTHOREF
  2

  9
$UCSORTHOVIEW
 70
     0
  9
$UCSORGTOP
 10
0.0
 20
0.0
 30
0.0
  9
$UCSORGBOTTOM
 10
0.0
 20
0.0
 30
0.0
  9
$UCSORGLEFT
 10
0.0
 20
0.0
 30
0.0
  9
$UCSORGRIGHT
 10
0.0
 20
0.0
 30
0.0
  9
$UCSORGFRONT
 10
0.0
 20
0.0
 30
0.0
  9
$UCSORGBACK
 10
0.0
 20
0.0
 30
0.0
  9
$PUCSBASE
  2

  9
$PUCSNAME
  2

  9
$PUCSORG
 10
0.0
 20
0.0
 30
0.0
  9
$PUCSXDIR
 10
1.0
 20
0.0
 30
0.0
  9
$PUCSYDIR
 10
0.0
 20
1.0
 30
0.0
  9
$PUCSORTHOREF
  2

  9
$PUCSORTHOVIEW
 70
     0
  9
$PUCSORGTOP
 10
0.0
 20
0.0
 30
0.0
  9
$PUCSORGBOTTOM
 10
0.0
 20
0.0
 30
0.0
  9
$PUCSORGLEFT
 10
0.0
 20
0.0
 30
0.0
  9
$PUCSORGRIGHT
 10
0.0
 20
0.0
 30
0.0
  9
$PUCSORGFRONT
 10
0.0
 20
0.0
 30
0.0
  9
$PUCSORGBACK
 10
0.0
 20
0.0
 30
0.0
  9
$USERI1
 70
     0
  9
$USERI2
 70
     0
  9
$USERI3
 70
     0
  9
$USERI4
 70
     0
  9
$USERI5
 70
     0
  9
$USERR1
 40
0.0
  9
$USERR2
 40
0.0
  9
$USERR3
 40
0.0
  9
$USERR4
 40
0.0
  9
$USERR5
 40
0.0
  9
$WORLDVIEW
 70
     1
  9
$SHADEDGE
 70
     3
  9
$SHADEDIF
 70
    70
  9
$TILEMODE
 70
     1
  9
$MAXACTVP
 70
    16
  9
$PINSBASE
 10
0.0
 20
0.0
 30
0.0
  9
$PLIMCHECK
 70
     0
  9
$PEXTMIN
 10
1.000000E+20
 20
1.000000E+20
 30
1.000000E+20
  9
$PEXTMAX
 10
-1.000000E+20
 20
-1.000000E+20
 30
-1.000000E+20
  9
$PLIMMIN
 10
0.0
 20
0.0
  9
$PLIMMAX
 10
841.0
 20
595.0
  9
$UNITMODE
 70
     0
  9
$VISRETAIN
 70
     0
  9
$PLINEGEN
 70
     1
  9
$PSLTSCALE
 70
     0
  9
$TREEDEPTH
 70
  3020
  9
$CMLSTYLE
  2
Standard
  9
$CMLJUST
 70
     0
  9
$CMLSCALE
 40
1.0
  9
$PROXYGRAPHICS
 70
     0
  9
$MEASUREMENT
 70
     0
  9
$CELWEIGHT
370
     0
  9
$ENDCAPS
280
     0
  9
$JOINSTYLE
280
     0
  9
$LWDISPLAY
290
     0
  9
$INSUNITS
 70
     0
  9
$HYPERLINKBASE
  1

  9
$XEDIT
290
     1
  9
$CEPSNTYPE
380
     0
  9
$PSTYLEMODE
290
     0
  9
$FINGERPRINTGUID
  2

  9
$VERSIONGUID
  2

  9
$EXTNAMES
290
     1
  9
$PSVPSCALE
 40
0.0
  0
ENDSEC
  0
SECTION
  2
CLASSES
  0
CLASS
  1
LWPOLYLINE
  2
AcDbPolyline
  3
"AutoCAD"
 90
        0
280
     0
281
     1
  0
CLASS
  1
IMAGE
  2
AcDbRasterImage
  3
ISM
 90
      127
280
     0
281
     1
  0
CLASS
  1
OLE2FRAME
  2
AcDbOle2Frame
  3
""
 90
        0
280
     0
281
     1
  0
CLASS
  1
HATCH
  2
AcDbHatch
  3
"ACAD_SEDONA"
 90
        0
280
     0
281
     1
  0
CLASS
  1
DICTIONARYVAR
  2
AcDbDictionaryVar
  3
"AutoCAD"
 90
        0
280
     0
281
     0
  0
CLASS
  1
RASTERVARIABLES
  2
AcDbRasterVariables
  3
ISM
 90
        0
280
     0
281
     0
  0
CLASS
  1
IMAGEDEF
  2
AcDbRasterImageDef
  3
ISM
 90
        0
280
     0
281
     0
  0
CLASS
  1
IMAGEDEF_REACTOR
  2
AcDbRasterImageDefReactor
  3
ISM
 90
        1
280
     0
281
     0
  0
CLASS
  1
IDBUFFER
  2
AcDbIdBuffer
  3
"Acad"
 90
        0
280
     0
281
     0
  0
CLASS
  1
SPATIAL_FILTER
  2
AcDbSpatialFilter
  3
"Acad"
 90
        0
280
     0
281
     0
  0
CLASS
  1
XRECORD
  2
AcDbXrecord
  3
"<Built In>"
 90
        0
280
     0
281
     0
  0
CLASS
  1
SORTENTSTABLE
  2
AcDbSortentsTable
  3
"AutoCAD"
 90
        0
280
     0
281
     0
  0
CLASS
  1
LAYER_INDEX
  2
AcDbLayerIndex
  3
"Acad"
 90
        0
280
     0
281
     0
  0
CLASS
  1
SPATIAL_INDEX
  2
AcDbSpatialIndex
  3
"Acad"
 90
        0
280
     0
281
     0
  0
CLASS
  1
OBJECT_PTR
  2
CAseDLPNTableRecord
  3
"ASE-LPNTableRecord"
 90
        1
280
     0
281
     0
  0
CLASS
  1
LAYOUT
  2
AcDbLayout
  3
"AutoCAD 2000"
 90
        1
280
     0
281
     0
  0
CLASS
  1
PLOTSETTINGS
  2
AcDbPlotSettings
  3
"AutoCAD 2000"
 90
        1
280
     0
281
     0
  0
CLASS
  1
ACDBDICTIONARYWDFLT
  2
AcDbDictionaryWithDefault
  3
"AutoCAD 2000"
 90
        1
280
     0
281
     0
  0
CLASS
  1
ACDBPLACEHOLDER
  2
AcDbPlaceHolder
  3
"AutoCAD 2000"
 90
        1
280
     0
281
     0
  0
CLASS
  1
VBA_PROJECT
  2
AcDbVbaProject
  3
"acadvba"
 90
        1
280
     0
281
     0
  0
CLASS
  1
WIPEOUT
  2
AcDbWipeout
  3
WipeOut|AutoCAD Express Tool|expresstools@autodesk.com
 90
      127
280
     0
281
     1
  0
CLASS
  1
WIPEOUTVARIABLES
  2
AcDbWipeoutVariables
  3
WipeOut|AutoCAD Express Tool|expresstools@autodesk.com
 90
        0
280
     0
281
     0
  0
CLASS
  1
RTEXT
  2
RText
  3
RText|AutoCAD Express Tool|expresstools@autodesk.com
 90
        0
280
     0
281
     1
  0
CLASS
  1
ARCALIGNEDTEXT
  2
AcDbArcAlignedText
  3
ATEXT|AutoCAD Express Tool|expresstools@autodesk.com
 90
        0
280
     0
281
     1
  0
ENDSEC
  0
SECTION
  2
TABLES
  0
TABLE
  2
VPORT
  5
7
100
AcDbSymbolTable
 70
     1
  0
VPORT
  5
15
100
AcDbSymbolTableRecord
100
AcDbViewportTableRecord
  2
*ACTIVE
 70
     0
 10
0.0
 20
0.0
 11
1.0
 21
1.0
 12
6.591288
 22
4.579184
 13
0.0
 23
0.0
 14
1.0
 24
1.0
 15
0.0
 25
0.0
 16
0.0
 26
0.0
 36
1.0
 17
0.0
 27
0.0
 37
0.0
 40
9.158369
 41
0.688564
 42
50.0
 43
0.0
 44
0.0
 50
0.0
 51
0.0
 71
     0
 72
   100
 73
     1
 74
     1
 75
     0
 76
     0
 77
     0
 78
     0
281
     0
 65
     0
110
0.0
120
0.0
130
0.0
111
1.0
121
0.0
131
0.0
112
0.0
122
1.0
132
0.0
345
0
346
0
 79
     0
146
0.0
  0
ENDTAB
  0
TABLE
  2
LTYPE
  5
4
100
AcDbSymbolTable
 70
     7
  0
LTYPE
  5
11
100
AcDbSymbolTableRecord
100
AcDbLinetypeTableRecord
  2
ByBlock
 70
    64
  3

 72
    65
 73
     0
 40
0.0
  0
LTYPE
  5
12
100
AcDbSymbolTableRecord
100
AcDbLinetypeTableRecord
  2
ByLayer
 70
    64
  3

 72
    65
 73
     0
 40
0.0
  0
LTYPE
  5
13
100
AcDbSymbolTableRecord
100
AcDbLinetypeTableRecord
  2
Continuous
 70
    64
  3
Solid line
 72
    65
 73
     0
 40
0.0
  0
LTYPE
  5
24
100
AcDbSymbolTableRecord
100
AcDbLinetypeTableRecord
  2
HIDDEN
 70
    64
  3
_ _ _ _ _ _ _ _ _ _ _ _ _ _ _ _ _ _ _ _ _ _ _ _
 72
    65
 73
     2
 40
0.1875
 49
0.125
 74
     0
 49
-0.0625
 74
     0
  0
LTYPE
  5
25
100
AcDbSymbolTableRecord
100
AcDbLinetypeTableRecord
  2
DOTTED
 70
    64
  3
...............................................
 72
    65
 73
     2
 40
0.125
 49
0.0
 74
     0
 49
-0.125
 74
     0
  0
LTYPE
  5
26
100
AcDbSymbolTableRecord
100
AcDbLinetypeTableRecord
  2
CENTER
 70
    64
  3
____ _ ____ _ ____ _ ____ _ ____ _ ____ _ ____ 
 72
    65
 73
     4
 40
1.125
 49
0.75
 74
     0
 49
-0.125
 74
     0
 49
0.125
 74
     0
 49
-0.125
 74
     0
  0
LTYPE
  5
27
100
AcDbSymbolTableRecord
100
AcDbLinetypeTableRecord
  2
PHANTOM
 70
    64
  3
______  __  __  ______  __  __  ______  __  __ 
 72
    65
 73
     6
 40
1.25
 49
0.625
 74
     0
 49
-0.125
 74
     0
 49
0.125
 74
     0
 49
-0.125
 74
     0
 49
0.125
 74
     0
 49
-0.125
 74
     0
  0
ENDTAB
  0
TABLE
  2
LAYER
  5
2
100
AcDbSymbolTable
 70
     2
  0
LAYER
  5
14
100
AcDbSymbolTableRecord
100
AcDbLayerTableRecord
  2
0
 70
     0
 62
     7
  6
Continuous
290
     1
370
    -3
390
1D
  0
LAYER
  5
28
100
AcDbSymbolTableRecord
100
AcDbLayerTableRecord
  2
TEXT
 70
     0
 62
     8
  6
Continuous
290
     1
370
    -3
390
1F
  0
ENDTAB
  0
TABLE
  2
STYLE
  5
3
100
AcDbSymbolTable
 70
     1
  0
STYLE
  5
17
100
AcDbSymbolTableRecord
100
AcDbTextStyleTableRecord
  2
Standard
 70
     0
 40
0.0
 41
1.0
 50
0.0
 71
     0
 42
0.0
  3
txt
  4

  0
ENDTAB
  0
TABLE
  2
VIEW
  5
5
100
AcDbSymbolTable
 70
     0
  0
ENDTAB
  0
TABLE
  2
UCS
  5
6
100
AcDbSymbolTable
 70
     0
  0
ENDTAB
  0
TABLE
  2
APPID
  5
8
100
AcDbSymbolTable
 70
     1
  0
APPID
  5
16
100
AcDbSymbolTableRecord
100
AcDbRegAppTableRecord
  2
ACAD
 70
     0
  0
ENDTAB
  0
TABLE
  2
DIMSTYLE
  5
9
100
AcDbSymbolTable
 70
     1
100
AcDbDimStyleTable
 71
     0
  0
DIMSTYLE
105
18
100
AcDbSymbolTableRecord
100
AcDbDimStyleTableRecord
  2
Standard
 70
     0
  3

  4

 40
1.0
 41
0.18
 42
0.0625
 43
0.38
 44
0.18
 45
0.0
 46
0.0
 47
0.0
 48
0.0
 71
     0
 72
     0
 73
     1
 74
     1
 75
     0
 76
     0
 77
     0
 78
     0
 79
     0
140
0.18
141
0.09
142
0.0
143
25.4
144
1.0
145
0.0
146
1.0
147
0.09
148
0.0
170
     0
171
     2
172
     0
173
     0
174
     0
175
     0
176
     0
177
     0
178
     0
179
     0
271
     4
272
     4
273
     2
274
     2
275
     0
276
     0
277
     2
278
    46
279
     0
280
     0
281
     0
282
     0
283
     1
284
     0
285
     0
286
     0
288
     0
340
17
341
0
342
0
343
0
344
0
371
    -2
372
    -2
  0
ENDTAB
  0
TABLE
  2
BLOCK_RECORD
  5
1
100
AcDbSymbolTable
 70
    85
  0
BLOCK_RECORD
  5
A
100
AcDbSymbolTableRecord
100
AcDbBlockTableRecord
  2
*MODEL_SPACE
340
20
  0
BLOCK_RECORD
  5
B
100
AcDbSymbolTableRecord
100
AcDbBlockTableRecord
  2
*PAPER_SPACE
340
21
  0
BLOCK_RECORD
  5
29
100
AcDbSymbolTableRecord
100
AcDbBlockTableRecord
  2
*B0
340
0
  0
BLOCK_RECORD
  5
2C
100
AcDbSymbolTableRecord
100
AcDbBlockTableRecord
  2
*B1
340
0
  0
BLOCK_RECORD
  5
132
100
AcDbSymbolTableRecord
100
AcDbBlockTableRecord
  2
*B2
340
0
  0
BLOCK_RECORD
  5
180
100
AcDbSymbolTableRecord
100
AcDbBlockTableRecord
  2
*B3
340
0
  0
BLOCK_RECORD
  5
186
100
AcDbSymbolTableRecord
100
AcDbBlockTableRecord
  2
*B4
340
0
  0
BLOCK_RECORD
  5
191
100
AcDbSymbolTableRecord
100
AcDbBlockTableRecord
  2
*B5
340
0
  0
BLOCK_RECORD
  5
194
100
AcDbSymbolTableRecord
100
AcDbBlockTableRecord
  2
*B6
340
0
  0
BLOCK_RECORD
  5
19A
100
AcDbSymbolTableRecord
100
AcDbBlockTableRecord
  2
*B7
340
0
  0
BLOCK_RECORD
  5
1A5
100
AcDbSymbolTableRecord
100
AcDbBlockTableRecord
  2
*B8
340
0
  0
BLOCK_RECORD
  5
1A8
100
AcDbSymbolTableRecord
100
AcDbBlockTableRecord
  2
*B9
340
0
  0
BLOCK_RECORD
  5
1AF
100
AcDbSymbolTableRecord
100
AcDbBlockTableRecord
  2
*B10
340
0
  0
BLOCK_RECORD
  5
1B6
100
AcDbSymbolTableRecord
100
AcDbBlockTableRecord
  2
*B11
340
0
  0
BLOCK_RECORD
  5
1BD
100
AcDbSymbolTableRecord
100
AcDbBlockTableRecord
  2
*B12
340
0
  0
BLOCK_RECORD
  5
1C4
100
AcDbSymbolTableRecord
100
AcDbBlockTableRecord
  2
*B13
340
0
  0
BLOCK_RECORD
  5
1CB
100
AcDbSymbolTableRecord
100
AcDbBlockTableRecord
  2
*B14
340
0
  0
BLOCK_RECORD
  5
1D2
100
AcDbSymbolTableRecord
100
AcDbBlockTableRecord
  2
*B15
340
0
  0
BLOCK_RECORD
  5
1D9
100
AcDbSymbolTableRecord
100
AcDbBlockTableRecord
  2
*B16
340
0
  0
BLOCK_RECORD
  5
1E0
100
AcDbSymbolTableRecord
100
AcDbBlockTableRecord
  2
*B17
340
0
  0
BLOCK_RECORD
  5
1E7
100
AcDbSymbolTableRecord
100
AcDbBlockTableRecord
  2
*B18
340
0
  0
BLOCK_RECORD
  5
1EE
100
AcDbSymbolTableRecord
100
AcDbBlockTableRecord
  2
*B19
340
0
  0
BLOCK_RECORD
  5
1F5
100
AcDbSymbolTableRecord
100
AcDbBlockTableRecord
  2
*B20
340
0
  0
BLOCK_RECORD
  5
1FC
100
AcDbSymbolTableRecord
100
AcDbBlockTableRecord
  2
*B21
340
0
  0
BLOCK_RECORD
  5
203
100
AcDbSymbolTableRecord
100
AcDbBlockTableRecord
  2
*B22
340
0
  0
BLOCK_RECORD
  5
20A
100
AcDbSymbolTableRecord
100
AcDbBlockTableRecord
  2
*B23
340
0
  0
BLOCK_RECORD
  5
211
100
AcDbSymbolTableRecord
100
AcDbBlockTableRecord
  2
*B24
340
0
  0
BLOCK_RECORD
  5
216
100
AcDbSymbolTableRecord
100
AcDbBlockTableRecord
  2
*B25
340
0
  0
BLOCK_RECORD
  5
21B
100
AcDbSymbolTableRecord
100
AcDbBlockTableRecord
  2
*B26
340
0
  0
BLOCK_RECORD
  5
23A
100
AcDbSymbolTableRecord
100
AcDbBlockTableRecord
  2
*B27
340
0
  0
BLOCK_RECORD
  5
240
100
AcDbSymbolTableRecord
100
AcDbBlockTableRecord
  2
*B28
340
0
  0
BLOCK_RECORD
  5
248
100
AcDbSymbolTableRecord
100
AcDbBlockTableRecord
  2
*B29
340
0
  0
BLOCK_RECORD
  5
24E
100
AcDbSymbolTableRecord
100
AcDbBlockTableRecord
  2
*B30
340
0
  0
BLOCK_RECORD
  5
253
100
AcDbSymbolTableRecord
100
AcDbBlockTableRecord
  2
*B31
340
0
  0
BLOCK_RECORD
  5
260
100
AcDbSymbolTableRecord
100
AcDbBlockTableRecord
  2
*B32
340
0
  0
BLOCK_RECORD
  5
265
100
AcDbSymbolTableRecord
100
AcDbBlockTableRecord
  2
*B33
340
0
  0
BLOCK_RECORD
  5
26D
100
AcDbSymbolTableRecord
100
AcDbBlockTableRecord
  2
*B34
340
0
  0
BLOCK_RECORD
  5
272
100
AcDbSymbolTableRecord
100
AcDbBlockTableRecord
  2
*B35
340
0
  0
BLOCK_RECORD
  5
277
100
AcDbSymbolTableRecord
100
AcDbBlockTableRecord
  2
*B36
340
0
  0
BLOCK_RECORD
  5
27C
100
AcDbSymbolTableRecord
100
AcDbBlockTableRecord
  2
*B37
340
0
  0
BLOCK_RECORD
  5
28B
100
AcDbSymbolTableRecord
100
AcDbBlockTableRecord
  2
*B38
340
0
  0
BLOCK_RECORD
  5
2A2
100
AcDbSymbolTableRecord
100
AcDbBlockTableRecord
  2
*B39
340
0
  0
BLOCK_RECORD
  5
2A8
100
AcDbSymbolTableRecord
100
AcDbBlockTableRecord
  2
*B40
340
0
  0
BLOCK_RECORD
  5
2B3
100
AcDbSymbolTableRecord
100
AcDbBlockTableRecord
  2
*B41
340
0
  0
BLOCK_RECORD
  5
2B9
100
AcDbSymbolTableRecord
100
AcDbBlockTableRecord
  2
*B42
340
0
  0
BLOCK_RECORD
  5
2BE
100
AcDbSymbolTableRecord
100
AcDbBlockTableRecord
  2
*B43
340
0
  0
BLOCK_RECORD
  5
2C5
100
AcDbSymbolTableRecord
100
AcDbBlockTableRecord
  2
*B44
340
0
  0
BLOCK_RECORD
  5
2CA
100
AcDbSymbolTableRecord
100
AcDbBlockTableRecord
  2
*B45
340
0
  0
BLOCK_RECORD
  5
2D0
100
AcDbSymbolTableRecord
100
AcDbBlockTableRecord
  2
*B46
340
0
  0
BLOCK_RECORD
  5
2D6
100
AcDbSymbolTableRecord
100
AcDbBlockTableRecord
  2
*B47
340
0
  0
BLOCK_RECORD
  5
2DD
100
AcDbSymbolTableRecord
100
AcDbBlockTableRecord
  2
*B48
340
0
  0
BLOCK_RECORD
  5
2E7
100
AcDbSymbolTableRecord
100
AcDbBlockTableRecord
  2
*B49
340
0
  0
BLOCK_RECORD
  5
2F1
100
AcDbSymbolTableRecord
100
AcDbBlockTableRecord
  2
*B50
340
0
  0
BLOCK_RECORD
  5
2F7
100
AcDbSymbolTableRecord
100
AcDbBlockTableRecord
  2
*B51
340
0
  0
BLOCK_RECORD
  5
2FC
100
AcDbSymbolTableRecord
100
AcDbBlockTableRecord
  2
*B52
340
0
  0
BLOCK_RECORD
  5
302
100
AcDbSymbolTableRecord
100
AcDbBlockTableRecord
  2
*B53
340
0
  0
BLOCK_RECORD
  5
308
100
AcDbSymbolTableRecord
100
AcDbBlockTableRecord
  2
*B54
340
0
  0
BLOCK_RECORD
  5
30E
100
AcDbSymbolTableRecord
100
AcDbBlockTableRecord
  2
*B55
340
0
  0
BLOCK_RECORD
  5
314
100
AcDbSymbolTableRecord
100
AcDbBlockTableRecord
  2
*B56
340
0
  0
BLOCK_RECORD
  5
31A
100
AcDbSymbolTableRecord
100
AcDbBlockTableRecord
  2
*B57
340
0
  0
BLOCK_RECORD
  5
320
100
AcDbSymbolTableRecord
100
AcDbBlockTableRecord
  2
*B58
340
0
  0
BLOCK_RECORD
  5
326
100
AcDbSymbolTableRecord
100
AcDbBlockTableRecord
  2
*B59
340
0
  0
BLOCK_RECORD
  5
32D
100
AcDbSymbolTableRecord
100
AcDbBlockTableRecord
  2
*B60
340
0
  0
BLOCK_RECORD
  5
332
100
AcDbSymbolTableRecord
100
AcDbBlockTableRecord
  2
*B61
340
0
  0
BLOCK_RECORD
  5
337
100
AcDbSymbolTableRecord
100
AcDbBlockTableRecord
  2
*B62
340
0
  0
BLOCK_RECORD
  5
33C
100
AcDbSymbolTableRecord
100
AcDbBlockTableRecord
  2
*B63
340
0
  0
BLOCK_RECORD
  5
341
100
AcDbSymbolTableRecord
100
AcDbBlockTableRecord
  2
*B64
340
0
  0
BLOCK_RECORD
  5
346
100
AcDbSymbolTableRecord
100
AcDbBlockTableRecord
  2
*B65
340
0
  0
BLOCK_RECORD
  5
34B
100
AcDbSymbolTableRecord
100
AcDbBlockTableRecord
  2
*B66
340
0
  0
BLOCK_RECORD
  5
350
100
AcDbSymbolTableRecord
100
AcDbBlockTableRecord
  2
*B67
340
0
  0
BLOCK_RECORD
  5
355
100
AcDbSymbolTableRecord
100
AcDbBlockTableRecord
  2
*B68
340
0
  0
BLOCK_RECORD
  5
35A
100
AcDbSymbolTableRecord
100
AcDbBlockTableRecord
  2
*B69
340
0
  0
BLOCK_RECORD
  5
35F
100
AcDbSymbolTableRecord
100
AcDbBlockTableRecord
  2
*B70
340
0
  0
BLOCK_RECORD
  5
364
100
AcDbSymbolTableRecord
100
AcDbBlockTableRecord
  2
*B71
340
0
  0
BLOCK_RECORD
  5
369
100
AcDbSymbolTableRecord
100
AcDbBlockTableRecord
  2
*B72
340
0
  0
BLOCK_RECORD
  5
36E
100
AcDbSymbolTableRecord
100
AcDbBlockTableRecord
  2
*B73
340
0
  0
BLOCK_RECORD
  5
373
100
AcDbSymbolTableRecord
100
AcDbBlockTableRecord
  2
*B74
340
0
  0
BLOCK_RECORD
  5
378
100
AcDbSymbolTableRecord
100
AcDbBlockTableRecord
  2
*B75
340
0
  0
BLOCK_RECORD
  5
37D
100
AcDbSymbolTableRecord
100
AcDbBlockTableRecord
  2
*B76
340
0
  0
BLOCK_RECORD
  5
382
100
AcDbSymbolTableRecord
100
AcDbBlockTableRecord
  2
*B77
340
0
  0
BLOCK_RECORD
  5
387
100
AcDbSymbolTableRecord
100
AcDbBlockTableRecord
  2
*B78
340
0
  0
BLOCK_RECORD
  5
38C
100
AcDbSymbolTableRecord
100
AcDbBlockTableRecord
  2
*B79
340
0
  0
BLOCK_RECORD
  5
391
100
AcDbSymbolTableRecord
100
AcDbBlockTableRecord
  2
*B80
340
0
  0
BLOCK_RECORD
  5
396
100
AcDbSymbolTableRecord
100
AcDbBlockTableRecord
  2
*B81
340
0
  0
BLOCK_RECORD
  5
39B
100
AcDbSymbolTableRecord
100
AcDbBlockTableRecord
  2
*B82
340
0
  0
BLOCK_RECORD
  5
3A0
100
AcDbSymbolTableRecord
100
AcDbBlockTableRecord
  2
*B83
340
0
  0
BLOCK_RECORD
  5
3A5
100
AcDbSymbolTableRecord
100
AcDbBlockTableRecord
  2
*B84
340
0
  0
ENDTAB
  0
ENDSEC
  0
SECTION
  2
BLOCKS
  0
BLOCK
  5
D
100
AcDbEntity
  8
0
100
AcDbBlockBegin
  2
*MODEL_SPACE
 70
     0
 10
0.0
 20
0.0
 30
0.0
  3
*MODEL_SPACE
  1

  0
ENDBLK
  5
E
100
AcDbEntity
  8
0
100
AcDbBlockEnd
  0
BLOCK
  5
F
100
AcDbEntity
 67
     1
  8
0
100
AcDbBlockBegin
  2
*PAPER_SPACE
 70
     0
 10
0.0
 20
0.0
 30
0.0
  3
*PAPER_SPACE
  1

  0
ENDBLK
  5
10
100
AcDbEntity
 67
     1
  8
0
100
AcDbBlockEnd
  0
BLOCK
  5
2A
100
AcDbEntity
  8
0
100
AcDbBlockBegin
  2
*B0
 70
     0
 10
0.0
 20
0.0
 30
0.0
  3
*B0
  1

  0
ENDBLK
  5
2B
100
AcDbEntity
  8
0
100
AcDbBlockEnd
  0
BLOCK
  5
2D
100
AcDbEntity
  8
0
100
AcDbBlockBegin
  2
*B1
 70
     0
 10
0.0
 20
0.0
 30
0.0
  3
*B1
  1

  0
ARC
  5
2E
100
AcDbEntity
  8
0
  6
Continuous
 62
   174
100
AcDbCircle
 10
374.236198
 20
291.745821
 30
0.0
 40
9.9
100
AcDbArc
 50
-180.0
 51
0.0
  0
ARC
  5
2F
100
AcDbEntity
  8
0
  6
Continuous
 62
   174
100
AcDbCircle
 10
374.236198
 20
291.745821
 30
0.0
 40
9.9
100
AcDbArc
 50
0.0
 51
180.0
  0
ARC
  5
30
100
AcDbEntity
  8
0
  6
Continuous
 62
   174
100
AcDbCircle
 10
338.236198
 20
219.745821
 30
0.0
 40
9.9
100
AcDbArc
 50
-180.0
 51
0.0
  0
ARC
  5
31
100
AcDbEntity
  8
0
  6
Continuous
 62
   174
100
AcDbCircle
 10
338.236198
 20
219.745821
 30
0.0
 40
9.9
100
AcDbArc
 50
0.0
 51
180.0
  0
ARC
  5
32
100
AcDbEntity
  8
0
  6
Continuous
 62
   174
100
AcDbCircle
 10
410.236198
 20
219.745821
 30
0.0
 40
9.9
100
AcDbArc
 50
-180.0
 51
0.0
  0
ARC
  5
33
100
AcDbEntity
  8
0
  6
Continuous
 62
   174
100
AcDbCircle
 10
410.236198
 20
219.745821
 30
0.0
 40
9.9
100
AcDbArc
 50
0.0
 51
180.0
  0
LINE
  5
34
100
AcDbEntity
  8
0
  6
Continuous
 62
   174
100
AcDbLine
 10
99.736198
 20
323.245821
 30
0.0
 11
99.736198
 21
305.245821
 31
0.0
  0
LINE
  5
35
100
AcDbEntity
  8
0
  6
Continuous
 62
   174
100
AcDbLine
 10
106.486198
 20
206.245821
 30
0.0
 11
225.736198
 21
206.245821
 31
0.0
  0
LINE
  5
36
100
AcDbEntity
  8
0
  6
HIDDEN
 62
   174
100
AcDbLine
 10
129.337388
 20
338.095821
 30
0.0
 11
128.524119
 21
338.095821
 31
0.0
  0
LINE
  5
37
100
AcDbEntity
  8
0
  6
Continuous
 62
   174
100
AcDbLine
 10
144.052618
 20
338.095821
 30
0.0
 11
142.931967
 21
338.095821
 31
0.0
  0
LINE
  5
38
100
AcDbEntity
  8
0
  6
Continuous
 62
   174
100
AcDbLine
 10
128.524119
 20
338.095821
 30
0.0
 11
127.403468
 21
338.095821
 31
0.0
  0
LINE
  5
39
100
AcDbEntity
  8
0
  6
HIDDEN
 62
   174
100
AcDbLine
 10
142.931967
 20
338.095821
 30
0.0
 11
142.118699
 21
338.095821
 31
0.0
  0
LINE
  5
3A
100
AcDbEntity
  8
0
  6
HIDDEN
 62
   174
100
AcDbLine
 10
142.118699
 20
338.095821
 30
0.0
 11
135.728043
 21
338.095821
 31
0.0
  0
LINE
  5
3B
100
AcDbEntity
  8
0
  6
Continuous
 62
   174
100
AcDbLine
 10
106.486198
 20
227.620821
 30
0.0
 11
106.486198
 21
228.745821
 31
0.0
  0
LINE
  5
3C
100
AcDbEntity
  8
0
  6
Continuous
 62
   174
100
AcDbLine
 10
225.736198
 20
206.245821
 30
0.0
 11
225.736198
 21
305.245821
 31
0.0
  0
LINE
  5
3D
100
AcDbEntity
  8
0
  6
Continuous
 62
   174
100
AcDbLine
 10
99.736198
 20
228.745821
 30
0.0
 11
106.486198
 21
228.745821
 31
0.0
  0
LINE
  5
3E
100
AcDbEntity
  8
0
  6
Continuous
 62
   174
100
AcDbLine
 10
106.486198
 20
305.245821
 30
0.0
 11
106.486198
 21
304.120821
 31
0.0
  0
LINE
  5
3F
100
AcDbEntity
  8
0
  6
Continuous
 62
   174
100
AcDbLine
 10
261.736198
 20
305.245821
 30
0.0
 11
261.736198
 21
206.245821
 31
0.0
  0
LINE
  5
40
100
AcDbEntity
  8
0
  6
HIDDEN
 62
   174
100
AcDbLine
 10
106.486198
 20
304.209399
 30
0.0
 11
106.486198
 21
283.960693
 31
0.0
  0
LINE
  5
41
100
AcDbEntity
  8
0
  6
HIDDEN
 62
   174
100
AcDbLine
 10
432.128698
 20
291.745821
 30
0.0
 11
432.128698
 21
323.245821
 31
0.0
  0
LINE
  5
42
100
AcDbEntity
  8
0
  6
HIDDEN
 62
   174
100
AcDbLine
 10
432.102513
 20
291.745821
 30
0.0
 11
388.320146
 21
291.745821
 31
0.0
  0
LINE
  5
43
100
AcDbEntity
  8
0
  6
HIDDEN
 62
   174
100
AcDbLine
 10
429.923698
 20
323.245821
 30
0.0
 11
429.923698
 21
287.245821
 31
0.0
  0
LINE
  5
44
100
AcDbEntity
  8
0
  6
HIDDEN
 62
   174
100
AcDbLine
 10
429.897303
 20
287.245821
 30
0.0
 11
390.524754
 21
287.245821
 31
0.0
  0
LINE
  5
45
100
AcDbEntity
  8
0
  6
HIDDEN
 62
   174
100
AcDbLine
 10
106.486198
 20
304.209399
 30
0.0
 11
106.486198
 21
283.960693
 31
0.0
  0
ARC
  5
46
100
AcDbEntity
  8
0
  6
Continuous
 62
   174
100
AcDbCircle
 10
99.736198
 20
301.870821
 30
0.0
 40
2.25
100
AcDbArc
 50
-270.0
 51
-180.0
  0
ARC
  5
47
100
AcDbEntity
  8
0
  6
HIDDEN
 62
   174
100
AcDbCircle
 10
99.736198
 20
209.620821
 30
0.0
 40
2.25
100
AcDbArc
 50
180.0
 51
225.0
  0
ARC
  5
48
100
AcDbEntity
  8
0
  6
HIDDEN
 62
   174
100
AcDbCircle
 10
99.736198
 20
209.620821
 30
0.0
 40
2.25
100
AcDbArc
 50
225.0
 51
270.0
  0
ARC
  5
49
100
AcDbEntity
  8
0
  6
HIDDEN
 62
   174
100
AcDbCircle
 10
99.736198
 20
301.870821
 30
0.0
 40
2.25
100
AcDbArc
 50
-270.0
 51
-180.0
  0
LINE
  5
4A
100
AcDbEntity
  8
0
  6
Continuous
 62
   174
100
AcDbLine
 10
146.986198
 20
323.245821
 30
0.0
 11
146.986198
 21
331.345821
 31
0.0
  0
LINE
  5
4B
100
AcDbEntity
  8
0
  6
HIDDEN
 62
   174
100
AcDbLine
 10
135.728043
 20
338.095821
 30
0.0
 11
141.802895
 21
338.095821
 31
0.0
  0
LINE
  5
4C
100
AcDbEntity
  8
0
  6
HIDDEN
 62
   174
100
AcDbLine
 10
144.052618
 20
331.345821
 30
0.0
 11
135.728043
 21
331.345821
 31
0.0
  0
LINE
  5
4D
100
AcDbEntity
  8
0
  6
Continuous
 62
   174
100
AcDbLine
 10
106.486198
 20
304.120821
 30
0.0
 11
106.486198
 21
283.870821
 31
0.0
  0
LINE
  5
4E
100
AcDbEntity
  8
0
  6
Continuous
 62
   174
100
AcDbLine
 10
99.736198
 20
282.745821
 30
0.0
 11
99.736198
 21
228.745821
 31
0.0
  0
LINE
  5
4F
100
AcDbEntity
  8
0
  6
HIDDEN
 62
   174
100
AcDbLine
 10
388.343698
 20
291.745821
 30
0.0
 11
388.343698
 21
323.245821
 31
0.0
  0
LINE
  5
50
100
AcDbEntity
  8
0
  6
HIDDEN
 62
   174
100
AcDbLine
 10
432.102513
 20
323.245821
 30
0.0
 11
388.320146
 21
323.245821
 31
0.0
  0
LINE
  5
51
100
AcDbEntity
  8
0
  6
HIDDEN
 62
   174
100
AcDbLine
 10
390.548698
 20
323.245821
 30
0.0
 11
390.548698
 21
287.245821
 31
0.0
  0
LINE
  5
52
100
AcDbEntity
  8
0
  6
HIDDEN
 62
   174
100
AcDbLine
 10
106.486198
 20
227.712819
 30
0.0
 11
106.486198
 21
207.464114
 31
0.0
  0
LINE
  5
53
100
AcDbEntity
  8
0
  6
HIDDEN
 62
   174
100
AcDbLine
 10
357.923698
 20
323.245821
 30
0.0
 11
357.923698
 21
287.245821
 31
0.0
  0
ARC
  5
54
100
AcDbEntity
  8
0
  6
Continuous
 62
   174
100
AcDbCircle
 10
99.736198
 20
286.120821
 30
0.0
 40
2.25
100
AcDbArc
 50
225.0
 51
270.0
  0
ARC
  5
55
100
AcDbEntity
  8
0
  6
Continuous
 62
   174
100
AcDbCircle
 10
99.736198
 20
209.620821
 30
0.0
 40
2.25
100
AcDbArc
 50
225.0
 51
270.0
  0
ARC
  5
56
100
AcDbEntity
  8
0
  6
HIDDEN
 62
   174
100
AcDbCircle
 10
99.736198
 20
225.370821
 30
0.0
 40
2.25
100
AcDbArc
 50
-270.0
 51
-180.0
  0
LINE
  5
57
100
AcDbEntity
  8
0
  6
Continuous
 62
   174
100
AcDbLine
 10
225.736198
 20
305.245821
 30
0.0
 11
171.736198
 21
305.245821
 31
0.0
  0
LINE
  5
58
100
AcDbEntity
  8
0
  6
Continuous
 62
   174
100
AcDbLine
 10
144.061198
 20
331.345821
 30
0.0
 11
144.061198
 21
338.095821
 31
0.0
  0
LINE
  5
59
100
AcDbEntity
  8
0
  6
Continuous
 62
   174
100
AcDbLine
 10
127.411198
 20
331.345821
 30
0.0
 11
127.411198
 21
338.095821
 31
0.0
  0
LINE
  5
5A
100
AcDbEntity
  8
0
  6
HIDDEN
 62
   174
100
AcDbLine
 10
135.728043
 20
331.345821
 30
0.0
 11
127.403468
 21
331.345821
 31
0.0
  0
LINE
  5
5B
100
AcDbEntity
  8
0
  6
Continuous
 62
   174
100
AcDbLine
 10
486.736198
 20
323.245821
 30
0.0
 11
261.736198
 21
323.245821
 31
0.0
  0
LINE
  5
5C
100
AcDbEntity
  8
0
  6
Continuous
 62
   174
100
AcDbLine
 10
261.736198
 20
188.245821
 30
0.0
 11
486.736198
 21
188.245821
 31
0.0
  0
LINE
  5
5D
100
AcDbEntity
  8
0
  6
HIDDEN
 62
   174
100
AcDbLine
 10
429.923698
 20
291.745821
 30
0.0
 11
429.923698
 21
323.245821
 31
0.0
  0
LINE
  5
5E
100
AcDbEntity
  8
0
  6
HIDDEN
 62
   174
100
AcDbLine
 10
360.106581
 20
323.245821
 30
0.0
 11
316.324214
 21
323.245821
 31
0.0
  0
LINE
  5
5F
100
AcDbEntity
  8
0
  6
HIDDEN
 62
   174
100
AcDbLine
 10
360.128698
 20
291.745821
 30
0.0
 11
360.128698
 21
323.245821
 31
0.0
  0
ARC
  5
60
100
AcDbEntity
  8
0
  6
Continuous
 62
   174
100
AcDbCircle
 10
99.736198
 20
286.120821
 30
0.0
 40
2.25
100
AcDbArc
 50
180.0
 51
225.0
  0
ARC
  5
61
100
AcDbEntity
  8
0
  6
HIDDEN
 62
   174
100
AcDbCircle
 10
99.736198
 20
209.620821
 30
0.0
 40
2.25
100
AcDbArc
 50
180.0
 51
225.0
  0
ARC
  5
62
100
AcDbEntity
  8
0
  6
HIDDEN
 62
   174
100
AcDbCircle
 10
99.736198
 20
286.120821
 30
0.0
 40
2.25
100
AcDbArc
 50
180.0
 51
270.0
  0
LINE
  5
63
100
AcDbEntity
  8
0
  6
Continuous
 62
   174
100
AcDbLine
 10
99.736198
 20
305.245821
 30
0.0
 11
106.486198
 21
305.245821
 31
0.0
  0
LINE
  5
64
100
AcDbEntity
  8
0
  6
Continuous
 62
   174
100
AcDbLine
 10
225.736198
 20
206.245821
 30
0.0
 11
225.736198
 21
305.245821
 31
0.0
  0
LINE
  5
65
100
AcDbEntity
  8
0
  6
Continuous
 62
   174
100
AcDbLine
 10
486.736198
 20
188.245821
 30
0.0
 11
486.736198
 21
323.245821
 31
0.0
  0
LINE
  5
66
100
AcDbEntity
  8
0
  6
Continuous
 62
   174
100
AcDbLine
 10
261.736198
 20
206.245821
 30
0.0
 11
261.736198
 21
305.245821
 31
0.0
  0
LINE
  5
67
100
AcDbEntity
  8
0
  6
HIDDEN
 62
   174
100
AcDbLine
 10
106.486198
 20
227.712819
 30
0.0
 11
106.486198
 21
207.464114
 31
0.0
  0
LINE
  5
68
100
AcDbEntity
  8
0
  6
HIDDEN
 62
   174
100
AcDbLine
 10
390.548698
 20
323.245821
 30
0.0
 11
390.548698
 21
287.245821
 31
0.0
  0
LINE
  5
69
100
AcDbEntity
  8
0
  6
HIDDEN
 62
   174
100
AcDbLine
 10
360.128698
 20
291.745821
 30
0.0
 11
360.128698
 21
323.245821
 31
0.0
  0
LINE
  5
6A
100
AcDbEntity
  8
0
  6
HIDDEN
 62
   174
100
AcDbLine
 10
357.923698
 20
323.245821
 30
0.0
 11
357.923698
 21
287.245821
 31
0.0
  0
LINE
  5
6B
100
AcDbEntity
  8
0
  6
HIDDEN
 62
   174
100
AcDbLine
 10
318.548698
 20
323.245821
 30
0.0
 11
318.548698
 21
287.245821
 31
0.0
  0
ARC
  5
6C
100
AcDbEntity
  8
0
  6
Continuous
 62
   174
100
AcDbCircle
 10
99.736198
 20
286.120821
 30
0.0
 40
2.25
100
AcDbArc
 50
180.0
 51
225.0
  0
ARC
  5
6D
100
AcDbEntity
  8
0
  6
HIDDEN
 62
   174
100
AcDbCircle
 10
99.736198
 20
225.370821
 30
0.0
 40
2.25
100
AcDbArc
 50
-270.0
 51
-180.0
  0
ARC
  5
6E
100
AcDbEntity
  8
0
  6
HIDDEN
 62
   174
100
AcDbCircle
 10
99.736198
 20
301.870821
 30
0.0
 40
2.25
100
AcDbArc
 50
-270.0
 51
-180.0
  0
LINE
  5
6F
100
AcDbEntity
  8
0
  6
HIDDEN
 62
   174
100
AcDbLine
 10
129.653191
 20
338.095821
 30
0.0
 11
135.728043
 21
338.095821
 31
0.0
  0
LINE
  5
70
100
AcDbEntity
  8
0
  6
HIDDEN
 62
   174
100
AcDbLine
 10
141.811198
 20
331.345821
 30
0.0
 11
141.811198
 21
338.095821
 31
0.0
  0
LINE
  5
71
100
AcDbEntity
  8
0
  6
Continuous
 62
   174
100
AcDbLine
 10
99.736198
 20
282.745821
 30
0.0
 11
106.486198
 21
282.745821
 31
0.0
  0
LINE
  5
72
100
AcDbEntity
  8
0
  6
Continuous
 62
   174
100
AcDbLine
 10
261.736198
 20
206.245821
 30
0.0
 11
261.736198
 21
188.245821
 31
0.0
  0
LINE
  5
73
100
AcDbEntity
  8
0
  6
HIDDEN
 62
   174
100
AcDbLine
 10
432.128698
 20
291.745821
 30
0.0
 11
432.128698
 21
323.245821
 31
0.0
  0
LINE
  5
74
100
AcDbEntity
  8
0
  6
HIDDEN
 62
   174
100
AcDbLine
 10
318.548698
 20
291.745821
 30
0.0
 11
318.548698
 21
323.245821
 31
0.0
  0
LINE
  5
75
100
AcDbEntity
  8
0
  6
HIDDEN
 62
   174
100
AcDbLine
 10
357.923698
 20
291.745821
 30
0.0
 11
357.923698
 21
323.245821
 31
0.0
  0
LINE
  5
76
100
AcDbEntity
  8
0
  6
HIDDEN
 62
   174
100
AcDbLine
 10
390.524754
 20
323.245821
 30
0.0
 11
429.897303
 21
323.245821
 31
0.0
  0
ARC
  5
77
100
AcDbEntity
  8
0
  6
Continuous
 62
   174
100
AcDbCircle
 10
99.736198
 20
301.870821
 30
0.0
 40
2.25
100
AcDbArc
 50
-270.0
 51
-180.0
  0
ARC
  5
78
100
AcDbEntity
  8
0
  6
HIDDEN
 62
   174
100
AcDbCircle
 10
99.736198
 20
286.120821
 30
0.0
 40
2.25
100
AcDbArc
 50
180.0
 51
225.0
  0
LINE
  5
79
100
AcDbEntity
  8
0
  6
HIDDEN
 62
   174
100
AcDbLine
 10
135.728043
 20
338.095821
 30
0.0
 11
129.337388
 21
338.095821
 31
0.0
  0
LINE
  5
7A
100
AcDbEntity
  8
0
  6
Continuous
 62
   174
100
AcDbLine
 10
106.486198
 20
206.245821
 30
0.0
 11
106.486198
 21
207.370821
 31
0.0
  0
LINE
  5
7B
100
AcDbEntity
  8
0
  6
Continuous
 62
   174
100
AcDbLine
 10
106.486198
 20
207.370821
 30
0.0
 11
106.486198
 21
227.620821
 31
0.0
  0
LINE
  5
7C
100
AcDbEntity
  8
0
  6
HIDDEN
 62
   174
100
AcDbLine
 10
135.728043
 20
331.345821
 30
0.0
 11
129.653191
 21
331.345821
 31
0.0
  0
LINE
  5
7D
100
AcDbEntity
  8
0
  6
Continuous
 62
   174
100
AcDbLine
 10
106.486198
 20
283.870821
 30
0.0
 11
106.486198
 21
282.745821
 31
0.0
  0
LINE
  5
7E
100
AcDbEntity
  8
0
  6
Continuous
 62
   174
100
AcDbLine
 10
261.736198
 20
323.245821
 30
0.0
 11
261.736198
 21
305.245821
 31
0.0
  0
LINE
  5
7F
100
AcDbEntity
  8
0
  6
HIDDEN
 62
   174
100
AcDbLine
 10
388.343698
 20
291.745821
 30
0.0
 11
388.343698
 21
323.245821
 31
0.0
  0
LINE
  5
80
100
AcDbEntity
  8
0
  6
HIDDEN
 62
   174
100
AcDbLine
 10
357.923698
 20
291.745821
 30
0.0
 11
357.923698
 21
323.245821
 31
0.0
  0
LINE
  5
81
100
AcDbEntity
  8
0
  6
HIDDEN
 62
   174
100
AcDbLine
 10
316.343698
 20
291.745821
 30
0.0
 11
316.343698
 21
323.245821
 31
0.0
  0
LINE
  5
82
100
AcDbEntity
  8
0
  6
HIDDEN
 62
   174
100
AcDbLine
 10
318.548698
 20
291.745821
 30
0.0
 11
318.548698
 21
323.245821
 31
0.0
  0
LINE
  5
83
100
AcDbEntity
  8
0
  6
HIDDEN
 62
   174
100
AcDbLine
 10
318.529424
 20
323.245821
 30
0.0
 11
357.901973
 21
323.245821
 31
0.0
  0
ARC
  5
84
100
AcDbEntity
  8
0
  6
Continuous
 62
   174
100
AcDbCircle
 10
99.736198
 20
209.620821
 30
0.0
 40
2.25
100
AcDbArc
 50
180.0
 51
225.0
  0
ARC
  5
85
100
AcDbEntity
  8
0
  6
HIDDEN
 62
   174
100
AcDbCircle
 10
99.736198
 20
209.620821
 30
0.0
 40
2.25
100
AcDbArc
 50
225.0
 51
270.0
  0
ARC
  5
86
100
AcDbEntity
  8
0
  6
HIDDEN
 62
   174
100
AcDbCircle
 10
99.736198
 20
286.120821
 30
0.0
 40
2.25
100
AcDbArc
 50
225.0
 51
270.0
  0
LINE
  5
87
100
AcDbEntity
  8
0
  6
HIDDEN
 62
   174
100
AcDbLine
 10
129.661198
 20
331.345821
 30
0.0
 11
129.661198
 21
338.095821
 31
0.0
  0
LINE
  5
88
100
AcDbEntity
  8
0
  6
Continuous
 62
   174
100
AcDbLine
 10
171.736198
 20
323.245821
 30
0.0
 11
99.736198
 21
323.245821
 31
0.0
  0
LINE
  5
89
100
AcDbEntity
  8
0
  6
HIDDEN
 62
   174
100
AcDbLine
 10
141.802895
 20
331.345821
 30
0.0
 11
135.728043
 21
331.345821
 31
0.0
  0
LINE
  5
8A
100
AcDbEntity
  8
0
  6
HIDDEN
 62
   174
100
AcDbLine
 10
486.736198
 20
235.587449
 30
0.0
 11
486.736198
 21
276.086063
 31
0.0
  0
LINE
  5
8B
100
AcDbEntity
  8
0
  6
Continuous
 62
   174
100
AcDbLine
 10
225.736198
 20
305.245821
 30
0.0
 11
261.736198
 21
305.245821
 31
0.0
  0
LINE
  5
8C
100
AcDbEntity
  8
0
  6
HIDDEN
 62
   174
100
AcDbLine
 10
429.923698
 20
323.245821
 30
0.0
 11
429.923698
 21
287.245821
 31
0.0
  0
LINE
  5
8D
100
AcDbEntity
  8
0
  6
HIDDEN
 62
   174
100
AcDbLine
 10
390.548698
 20
291.745821
 30
0.0
 11
390.548698
 21
323.245821
 31
0.0
  0
LINE
  5
8E
100
AcDbEntity
  8
0
  6
HIDDEN
 62
   174
100
AcDbLine
 10
429.923698
 20
291.745821
 30
0.0
 11
429.923698
 21
323.245821
 31
0.0
  0
LINE
  5
8F
100
AcDbEntity
  8
0
  6
HIDDEN
 62
   174
100
AcDbLine
 10
316.343698
 20
291.745821
 30
0.0
 11
316.343698
 21
323.245821
 31
0.0
  0
LINE
  5
90
100
AcDbEntity
  8
0
  6
HIDDEN
 62
   174
100
AcDbLine
 10
357.901973
 20
287.245821
 30
0.0
 11
318.529424
 21
287.245821
 31
0.0
  0
ARC
  5
91
100
AcDbEntity
  8
0
  6
Continuous
 62
   174
100
AcDbCircle
 10
99.736198
 20
225.370821
 30
0.0
 40
2.25
100
AcDbArc
 50
-270.0
 51
-180.0
  0
ARC
  5
92
100
AcDbEntity
  8
0
  6
Continuous
 62
   174
100
AcDbCircle
 10
99.736198
 20
225.370821
 30
0.0
 40
2.25
100
AcDbArc
 50
-270.0
 51
-180.0
  0
LINE
  5
93
100
AcDbEntity
  8
0
  6
Continuous
 62
   174
100
AcDbLine
 10
171.736198
 20
305.245821
 30
0.0
 11
171.736198
 21
323.245821
 31
0.0
  0
LINE
  5
94
100
AcDbEntity
  8
0
  6
Continuous
 62
   174
100
AcDbLine
 10
99.736198
 20
206.245821
 30
0.0
 11
106.486198
 21
206.245821
 31
0.0
  0
LINE
  5
95
100
AcDbEntity
  8
0
  6
Continuous
 62
   174
100
AcDbLine
 10
225.736198
 20
206.245821
 30
0.0
 11
261.736198
 21
206.245821
 31
0.0
  0
LINE
  5
96
100
AcDbEntity
  8
0
  6
HIDDEN
 62
   174
100
AcDbLine
 10
390.548698
 20
291.745821
 30
0.0
 11
390.548698
 21
323.245821
 31
0.0
  0
LINE
  5
97
100
AcDbEntity
  8
0
  6
HIDDEN
 62
   174
100
AcDbLine
 10
360.106581
 20
291.745821
 30
0.0
 11
316.324214
 21
291.745821
 31
0.0
  0
LINE
  5
98
100
AcDbEntity
  8
0
  6
HIDDEN
 62
   174
100
AcDbLine
 10
318.548698
 20
323.245821
 30
0.0
 11
318.548698
 21
287.245821
 31
0.0
  0
ARC
  5
99
100
AcDbEntity
  8
0
  6
Continuous
 62
   174
100
AcDbCircle
 10
99.736198
 20
286.120821
 30
0.0
 40
2.25
100
AcDbArc
 50
225.0
 51
270.0
  0
ARC
  5
9A
100
AcDbEntity
  8
0
  6
Continuous
 62
   174
100
AcDbCircle
 10
99.736198
 20
209.620821
 30
0.0
 40
2.25
100
AcDbArc
 50
225.0
 51
270.0
  0
ARC
  5
9B
100
AcDbEntity
  8
0
  6
Continuous
 62
   174
100
AcDbCircle
 10
99.736198
 20
209.620821
 30
0.0
 40
2.25
100
AcDbArc
 50
180.0
 51
225.0
  0
LINE
  5
9C
100
AcDbEntity
  8
0
  6
HIDDEN
 62
   174
100
AcDbLine
 10
128.536198
 20
338.095821
 30
0.0
 11
128.536198
 21
360.595821
 31
0.0
  0
LINE
  5
9D
100
AcDbEntity
  8
0
  6
HIDDEN
 62
   174
100
AcDbLine
 10
280.343698
 20
219.745821
 30
0.0
 11
280.343698
 21
188.245821
 31
0.0
  0
LINE
  5
9E
100
AcDbEntity
  8
0
  6
HIDDEN
 62
   174
100
AcDbLine
 10
426.548698
 20
188.245821
 30
0.0
 11
426.548698
 21
224.245821
 31
0.0
  0
LINE
  5
9F
100
AcDbEntity
  8
0
  6
HIDDEN
 62
   174
100
AcDbLine
 10
99.736198
 20
304.209399
 30
0.0
 11
99.736198
 21
283.960693
 31
0.0
  0
LINE
  5
A0
100
AcDbEntity
  8
0
  6
HIDDEN
 62
   174
100
AcDbLine
 10
97.486198
 20
301.959676
 30
0.0
 11
97.486198
 21
286.210416
 31
0.0
  0
LINE
  5
A1
100
AcDbEntity
  8
0
  6
HIDDEN
 62
   174
100
AcDbLine
 10
99.736198
 20
217.495821
 30
0.0
 11
106.486198
 21
217.495821
 31
0.0
  0
LINE
  5
A2
100
AcDbEntity
  8
0
  6
HIDDEN
 62
   174
100
AcDbLine
 10
321.923698
 20
188.245821
 30
0.0
 11
321.923698
 21
224.245821
 31
0.0
  0
LINE
  5
A3
100
AcDbEntity
  8
0
  6
HIDDEN
 62
   174
100
AcDbLine
 10
465.895269
 20
188.245821
 30
0.0
 11
426.52272
 21
188.245821
 31
0.0
  0
LINE
  5
A4
100
AcDbEntity
  8
0
  6
HIDDEN
 62
   174
100
AcDbLine
 10
393.923698
 20
188.245821
 30
0.0
 11
393.923698
 21
224.245821
 31
0.0
  0
LINE
  5
A5
100
AcDbEntity
  8
0
  6
HIDDEN
 62
   174
100
AcDbLine
 10
106.486198
 20
305.33426
 30
0.0
 11
106.486198
 21
294.085046
 31
0.0
  0
LINE
  5
A6
100
AcDbEntity
  8
0
  6
HIDDEN
 62
   174
100
AcDbLine
 10
324.128698
 20
219.745821
 30
0.0
 11
324.128698
 21
188.245821
 31
0.0
  0
LINE
  5
A7
100
AcDbEntity
  8
0
  6
HIDDEN
 62
   174
100
AcDbLine
 10
99.736198
 20
282.745821
 30
0.0
 11
106.486198
 21
282.745821
 31
0.0
  0
LINE
  5
A8
100
AcDbEntity
  8
0
  6
Continuous
 62
   174
100
AcDbLine
 10
486.736198
 20
275.995821
 30
0.0
 11
491.236198
 21
275.995821
 31
0.0
  0
LINE
  5
A9
100
AcDbEntity
  8
0
  6
Continuous
 62
   174
100
AcDbLine
 10
151.486198
 20
371.395821
 30
0.0
 11
155.086198
 21
371.395821
 31
0.0
  0
LINE
  5
AA
100
AcDbEntity
  8
0
  6
Continuous
 62
   174
100
AcDbLine
 10
99.736198
 20
206.245821
 30
0.0
 11
99.736198
 21
207.370821
 31
0.0
  0
LINE
  5
AB
100
AcDbEntity
  8
0
  6
Continuous
 62
   174
100
AcDbLine
 10
97.486198
 20
225.463097
 30
0.0
 11
97.486198
 21
209.713836
 31
0.0
  0
LINE
  5
AC
100
AcDbEntity
  8
0
  6
HIDDEN
 62
   174
100
AcDbLine
 10
465.923698
 20
188.245821
 30
0.0
 11
465.923698
 21
224.245821
 31
0.0
  0
LINE
  5
AD
100
AcDbEntity
  8
0
  6
HIDDEN
 62
   174
100
AcDbLine
 10
426.548698
 20
219.745821
 30
0.0
 11
426.548698
 21
188.245821
 31
0.0
  0
LINE
  5
AE
100
AcDbEntity
  8
0
  6
HIDDEN
 62
   174
100
AcDbLine
 10
282.548698
 20
219.745821
 30
0.0
 11
282.548698
 21
188.245821
 31
0.0
  0
LINE
  5
AF
100
AcDbEntity
  8
0
  6
HIDDEN
 62
   174
100
AcDbLine
 10
135.728043
 20
331.345821
 30
0.0
 11
127.694007
 21
331.345821
 31
0.0
  0
LINE
  5
B0
100
AcDbEntity
  8
0
  6
Continuous
 62
   174
100
AcDbLine
 10
491.236198
 20
235.587449
 30
0.0
 11
491.236198
 21
276.086063
 31
0.0
  0
LINE
  5
B1
100
AcDbEntity
  8
0
  6
HIDDEN
 62
   174
100
AcDbLine
 10
352.32218
 20
188.245821
 30
0.0
 11
396.104547
 21
188.245821
 31
0.0
  0
LINE
  5
B2
100
AcDbEntity
  8
0
  6
Continuous
 62
   174
100
AcDbLine
 10
99.736198
 20
227.620821
 30
0.0
 11
106.486198
 21
227.620821
 31
0.0
  0
LINE
  5
B3
100
AcDbEntity
  8
0
  6
HIDDEN
 62
   174
100
AcDbLine
 10
151.486198
 20
363.520821
 30
0.0
 11
155.086198
 21
363.520821
 31
0.0
  0
LINE
  5
B4
100
AcDbEntity
  8
0
  6
HIDDEN
 62
   174
100
AcDbLine
 10
99.736198
 20
304.120821
 30
0.0
 11
106.486198
 21
304.120821
 31
0.0
  0
LINE
  5
B5
100
AcDbEntity
  8
0
  6
HIDDEN
 62
   174
100
AcDbLine
 10
426.548698
 20
188.245821
 30
0.0
 11
426.548698
 21
224.245821
 31
0.0
  0
LINE
  5
B6
100
AcDbEntity
  8
0
  6
HIDDEN
 62
   174
100
AcDbLine
 10
393.923698
 20
188.245821
 30
0.0
 11
393.923698
 21
224.245821
 31
0.0
  0
LINE
  5
B7
100
AcDbEntity
  8
0
  6
HIDDEN
 62
   174
100
AcDbLine
 10
128.536198
 20
331.345821
 30
0.0
 11
128.536198
 21
338.095821
 31
0.0
  0
LINE
  5
B8
100
AcDbEntity
  8
0
  6
HIDDEN
 62
   174
100
AcDbLine
 10
99.736198
 20
304.209399
 30
0.0
 11
99.736198
 21
294.070609
 31
0.0
  0
LINE
  5
B9
100
AcDbEntity
  8
0
  6
HIDDEN
 62
   174
100
AcDbLine
 10
468.128698
 20
219.745821
 30
0.0
 11
468.128698
 21
188.245821
 31
0.0
  0
LINE
  5
BA
100
AcDbEntity
  8
0
  6
HIDDEN
 62
   174
100
AcDbLine
 10
282.548698
 20
188.245821
 30
0.0
 11
282.548698
 21
224.245821
 31
0.0
  0
LINE
  5
BB
100
AcDbEntity
  8
0
  6
Continuous
 62
   174
100
AcDbLine
 10
142.936198
 20
323.245821
 30
0.0
 11
142.936198
 21
360.595821
 31
0.0
  0
LINE
  5
BC
100
AcDbEntity
  8
0
  6
HIDDEN
 62
   174
100
AcDbLine
 10
99.736198
 20
305.245821
 30
0.0
 11
106.486198
 21
305.245821
 31
0.0
  0
LINE
  5
BD
100
AcDbEntity
  8
0
  6
HIDDEN
 62
   174
100
AcDbLine
 10
97.486198
 20
301.959676
 30
0.0
 11
97.486198
 21
286.210416
 31
0.0
  0
LINE
  5
BE
100
AcDbEntity
  8
0
  6
HIDDEN
 62
   174
100
AcDbLine
 10
234.736198
 20
305.245821
 30
0.0
 11
234.736198
 21
304.795821
 31
0.0
  0
LINE
  5
BF
100
AcDbEntity
  8
0
  6
HIDDEN
 62
   174
100
AcDbLine
 10
146.977257
 20
323.245821
 30
0.0
 11
135.728043
 21
323.245821
 31
0.0
  0
LINE
  5
C0
100
AcDbEntity
  8
0
  6
HIDDEN
 62
   174
100
AcDbLine
 10
151.486198
 20
357.670821
 30
0.0
 11
155.086198
 21
357.670821
 31
0.0
  0
LINE
  5
C1
100
AcDbEntity
  8
0
  6
HIDDEN
 62
   174
100
AcDbLine
 10
106.486198
 20
228.838282
 30
0.0
 11
106.486198
 21
217.588466
 31
0.0
  0
LINE
  5
C2
100
AcDbEntity
  8
0
  6
HIDDEN
 62
   174
100
AcDbLine
 10
99.736198
 20
283.870821
 30
0.0
 11
106.486198
 21
283.870821
 31
0.0
  0
LINE
  5
C3
100
AcDbEntity
  8
0
  6
HIDDEN
 62
   174
100
AcDbLine
 10
99.736198
 20
305.245821
 30
0.0
 11
106.486198
 21
305.245821
 31
0.0
  0
LINE
  5
C4
100
AcDbEntity
  8
0
  6
HIDDEN
 62
   174
100
AcDbLine
 10
424.343698
 20
219.745821
 30
0.0
 11
424.343698
 21
188.245821
 31
0.0
  0
LINE
  5
C5
100
AcDbEntity
  8
0
  6
HIDDEN
 62
   174
100
AcDbLine
 10
465.923698
 20
219.745821
 30
0.0
 11
465.923698
 21
188.245821
 31
0.0
  0
LINE
  5
C6
100
AcDbEntity
  8
0
  6
HIDDEN
 62
   174
100
AcDbLine
 10
352.32218
 20
219.745821
 30
0.0
 11
396.104547
 21
219.745821
 31
0.0
  0
LINE
  5
C7
100
AcDbEntity
  8
0
  6
HIDDEN
 62
   174
100
AcDbLine
 10
99.736198
 20
228.745821
 30
0.0
 11
106.486198
 21
228.745821
 31
0.0
  0
LINE
  5
C8
100
AcDbEntity
  8
0
  6
Continuous
 62
   174
100
AcDbLine
 10
97.486198
 20
301.959676
 30
0.0
 11
97.486198
 21
286.210416
 31
0.0
  0
LINE
  5
C9
100
AcDbEntity
  8
0
  6
Continuous
 62
   174
100
AcDbLine
 10
128.536198
 20
323.245821
 30
0.0
 11
128.536198
 21
360.595821
 31
0.0
  0
LINE
  5
CA
100
AcDbEntity
  8
0
  6
HIDDEN
 62
   174
100
AcDbLine
 10
252.736198
 20
305.245821
 30
0.0
 11
252.736198
 21
304.795821
 31
0.0
  0
LINE
  5
CB
100
AcDbEntity
  8
0
  6
HIDDEN
 62
   174
100
AcDbLine
 10
354.548698
 20
188.245821
 30
0.0
 11
354.548698
 21
224.245821
 31
0.0
  0
LINE
  5
CC
100
AcDbEntity
  8
0
  6
HIDDEN
 62
   174
100
AcDbLine
 10
99.736198
 20
283.870821
 30
0.0
 11
106.486198
 21
283.870821
 31
0.0
  0
LINE
  5
CD
100
AcDbEntity
  8
0
  6
HIDDEN
 62
   174
100
AcDbLine
 10
99.736198
 20
228.745821
 30
0.0
 11
106.486198
 21
228.745821
 31
0.0
  0
LINE
  5
CE
100
AcDbEntity
  8
0
  6
Continuous
 62
   174
100
AcDbLine
 10
486.736198
 20
275.995821
 30
0.0
 11
491.236198
 21
275.995821
 31
0.0
  0
LINE
  5
CF
100
AcDbEntity
  8
0
  6
HIDDEN
 62
   174
100
AcDbLine
 10
424.343698
 20
219.745821
 30
0.0
 11
424.343698
 21
188.245821
 31
0.0
  0
LINE
  5
D0
100
AcDbEntity
  8
0
  6
HIDDEN
 62
   174
100
AcDbLine
 10
99.736198
 20
217.588466
 30
0.0
 11
99.736198
 21
228.39315
 31
0.0
  0
LINE
  5
D1
100
AcDbEntity
  8
0
  6
Continuous
 62
   174
100
AcDbLine
 10
99.736198
 20
207.370821
 30
0.0
 11
106.486198
 21
207.370821
 31
0.0
  0
LINE
  5
D2
100
AcDbEntity
  8
0
  6
HIDDEN
 62
   174
100
AcDbLine
 10
354.548698
 20
188.245821
 30
0.0
 11
354.548698
 21
224.245821
 31
0.0
  0
LINE
  5
D3
100
AcDbEntity
  8
0
  6
HIDDEN
 62
   174
100
AcDbLine
 10
234.736198
 20
305.245821
 30
0.0
 11
234.736198
 21
304.795821
 31
0.0
  0
LINE
  5
D4
100
AcDbEntity
  8
0
  6
Continuous
 62
   174
100
AcDbLine
 10
127.694007
 20
331.345821
 30
0.0
 11
126.863294
 21
331.345821
 31
0.0
  0
LINE
  5
D5
100
AcDbEntity
  8
0
  6
HIDDEN
 62
   174
100
AcDbLine
 10
282.531458
 20
224.245821
 30
0.0
 11
321.904007
 21
224.245821
 31
0.0
  0
LINE
  5
D6
100
AcDbEntity
  8
0
  6
Continuous
 62
   174
100
AcDbLine
 10
99.736198
 20
282.835231
 30
0.0
 11
99.736198
 21
283.276754
 31
0.0
  0
LINE
  5
D7
100
AcDbEntity
  8
0
  6
HIDDEN
 62
   174
100
AcDbLine
 10
99.736198
 20
294.085046
 30
0.0
 11
99.736198
 21
304.889729
 31
0.0
  0
LINE
  5
D8
100
AcDbEntity
  8
0
  6
HIDDEN
 62
   174
100
AcDbLine
 10
426.548698
 20
219.745821
 30
0.0
 11
426.548698
 21
188.245821
 31
0.0
  0
LINE
  5
D9
100
AcDbEntity
  8
0
  6
HIDDEN
 62
   174
100
AcDbLine
 10
465.923698
 20
188.245821
 30
0.0
 11
465.923698
 21
224.245821
 31
0.0
  0
LINE
  5
DA
100
AcDbEntity
  8
0
  6
Continuous
 62
   174
100
AcDbLine
 10
155.086198
 20
323.245821
 30
0.0
 11
155.086198
 21
371.395821
 31
0.0
  0
LINE
  5
DB
100
AcDbEntity
  8
0
  6
HIDDEN
 62
   174
100
AcDbLine
 10
468.128698
 20
219.745821
 30
0.0
 11
468.128698
 21
188.245821
 31
0.0
  0
LINE
  5
DC
100
AcDbEntity
  8
0
  6
HIDDEN
 62
   174
100
AcDbLine
 10
99.736198
 20
304.120821
 30
0.0
 11
106.486198
 21
304.120821
 31
0.0
  0
LINE
  5
DD
100
AcDbEntity
  8
0
  6
HIDDEN
 62
   174
100
AcDbLine
 10
99.736198
 20
282.745821
 30
0.0
 11
106.486198
 21
282.745821
 31
0.0
  0
LINE
  5
DE
100
AcDbEntity
  8
0
  6
HIDDEN
 62
   174
100
AcDbLine
 10
393.923698
 20
219.745821
 30
0.0
 11
393.923698
 21
188.245821
 31
0.0
  0
LINE
  5
DF
100
AcDbEntity
  8
0
  6
Continuous
 62
   174
100
AcDbLine
 10
486.736198
 20
235.495821
 30
0.0
 11
491.236198
 21
235.495821
 31
0.0
  0
LINE
  5
E0
100
AcDbEntity
  8
0
  6
HIDDEN
 62
   174
100
AcDbLine
 10
97.486198
 20
301.959676
 30
0.0
 11
97.486198
 21
286.210416
 31
0.0
  0
LINE
  5
E1
100
AcDbEntity
  8
0
  6
HIDDEN
 62
   174
100
AcDbLine
 10
99.736198
 20
227.712819
 30
0.0
 11
99.736198
 21
207.464114
 31
0.0
  0
LINE
  5
E2
100
AcDbEntity
  8
0
  6
HIDDEN
 62
   174
100
AcDbLine
 10
128.536198
 20
323.245821
 30
0.0
 11
142.936198
 21
323.245821
 31
0.0
  0
LINE
  5
E3
100
AcDbEntity
  8
0
  6
HIDDEN
 62
   174
100
AcDbLine
 10
99.736198
 20
283.276754
 30
0.0
 11
99.736198
 21
294.085046
 31
0.0
  0
LINE
  5
E4
100
AcDbEntity
  8
0
  6
Continuous
 62
   174
100
AcDbLine
 10
126.863294
 20
331.345821
 30
0.0
 11
124.478829
 21
331.345821
 31
0.0
  0
LINE
  5
E5
100
AcDbEntity
  8
0
  6
HIDDEN
 62
   174
100
AcDbLine
 10
354.548698
 20
219.745821
 30
0.0
 11
354.548698
 21
188.245821
 31
0.0
  0
LINE
  5
E6
100
AcDbEntity
  8
0
  6
Continuous
 62
   174
100
AcDbLine
 10
99.736198
 20
227.620821
 30
0.0
 11
106.486198
 21
227.620821
 31
0.0
  0
LINE
  5
E7
100
AcDbEntity
  8
0
  6
HIDDEN
 62
   174
100
AcDbLine
 10
99.736198
 20
207.370821
 30
0.0
 11
99.736198
 21
217.495821
 31
0.0
  0
LINE
  5
E8
100
AcDbEntity
  8
0
  6
HIDDEN
 62
   174
100
AcDbLine
 10
280.32685
 20
188.245821
 30
0.0
 11
324.109217
 21
188.245821
 31
0.0
  0
LINE
  5
E9
100
AcDbEntity
  8
0
  6
Continuous
 62
   174
100
AcDbLine
 10
144.592792
 20
331.345821
 30
0.0
 11
143.762079
 21
331.345821
 31
0.0
  0
LINE
  5
EA
100
AcDbEntity
  8
0
  6
HIDDEN
 62
   174
100
AcDbLine
 10
99.736198
 20
227.620821
 30
0.0
 11
106.486198
 21
227.620821
 31
0.0
  0
LINE
  5
EB
100
AcDbEntity
  8
0
  6
HIDDEN
 62
   174
100
AcDbLine
 10
99.736198
 20
305.245821
 30
0.0
 11
106.486198
 21
305.245821
 31
0.0
  0
LINE
  5
EC
100
AcDbEntity
  8
0
  6
HIDDEN
 62
   174
100
AcDbLine
 10
396.128698
 20
219.745821
 30
0.0
 11
396.128698
 21
188.245821
 31
0.0
  0
LINE
  5
ED
100
AcDbEntity
  8
0
  6
HIDDEN
 62
   174
100
AcDbLine
 10
321.923698
 20
219.745821
 30
0.0
 11
321.923698
 21
188.245821
 31
0.0
  0
LINE
  5
EE
100
AcDbEntity
  8
0
  6
Continuous
 62
   174
100
AcDbLine
 10
99.736198
 20
304.889729
 30
0.0
 11
99.736198
 21
305.33426
 31
0.0
  0
LINE
  5
EF
100
AcDbEntity
  8
0
  6
HIDDEN
 62
   174
100
AcDbLine
 10
97.486198
 20
225.463097
 30
0.0
 11
97.486198
 21
209.713836
 31
0.0
  0
LINE
  5
F0
100
AcDbEntity
  8
0
  6
HIDDEN
 62
   174
100
AcDbLine
 10
280.32685
 20
219.745821
 30
0.0
 11
324.109217
 21
219.745821
 31
0.0
  0
LINE
  5
F1
100
AcDbEntity
  8
0
  6
HIDDEN
 62
   174
100
AcDbLine
 10
354.548698
 20
219.745821
 30
0.0
 11
354.548698
 21
188.245821
 31
0.0
  0
LINE
  5
F2
100
AcDbEntity
  8
0
  6
HIDDEN
 62
   174
100
AcDbLine
 10
99.736198
 20
228.745821
 30
0.0
 11
106.486198
 21
228.745821
 31
0.0
  0
LINE
  5
F3
100
AcDbEntity
  8
0
  6
HIDDEN
 62
   174
100
AcDbLine
 10
142.936198
 20
338.095821
 30
0.0
 11
142.936198
 21
360.595821
 31
0.0
  0
LINE
  5
F4
100
AcDbEntity
  8
0
  6
Continuous
 62
   174
100
AcDbLine
 10
99.736198
 20
227.712819
 30
0.0
 11
99.736198
 21
217.588466
 31
0.0
  0
LINE
  5
F5
100
AcDbEntity
  8
0
  6
HIDDEN
 62
   174
100
AcDbLine
 10
151.486198
 20
357.670821
 30
0.0
 11
155.086198
 21
357.670821
 31
0.0
  0
LINE
  5
F6
100
AcDbEntity
  8
0
  6
HIDDEN
 62
   174
100
AcDbLine
 10
99.736198
 20
227.712819
 30
0.0
 11
99.736198
 21
207.464114
 31
0.0
  0
LINE
  5
F7
100
AcDbEntity
  8
0
  6
HIDDEN
 62
   174
100
AcDbLine
 10
393.899939
 20
188.245821
 30
0.0
 11
354.526788
 21
188.245821
 31
0.0
  0
LINE
  5
F8
100
AcDbEntity
  8
0
  6
HIDDEN
 62
   174
100
AcDbLine
 10
352.343698
 20
219.745821
 30
0.0
 11
352.343698
 21
188.245821
 31
0.0
  0
LINE
  5
F9
100
AcDbEntity
  8
0
  6
HIDDEN
 62
   174
100
AcDbLine
 10
99.736198
 20
217.495821
 30
0.0
 11
106.486198
 21
217.495821
 31
0.0
  0
LINE
  5
FA
100
AcDbEntity
  8
0
  6
HIDDEN
 62
   174
100
AcDbLine
 10
252.736198
 20
305.245821
 30
0.0
 11
252.736198
 21
304.795821
 31
0.0
  0
LINE
  5
FB
100
AcDbEntity
  8
0
  6
HIDDEN
 62
   174
100
AcDbLine
 10
97.486198
 20
225.463097
 30
0.0
 11
97.486198
 21
209.713836
 31
0.0
  0
LINE
  5
FC
100
AcDbEntity
  8
0
  6
HIDDEN
 62
   174
100
AcDbLine
 10
424.31751
 20
219.745821
 30
0.0
 11
468.099877
 21
219.745821
 31
0.0
  0
LINE
  5
FD
100
AcDbEntity
  8
0
  6
Continuous
 62
   174
100
AcDbLine
 10
146.977257
 20
331.345821
 30
0.0
 11
144.592792
 21
331.345821
 31
0.0
  0
LINE
  5
FE
100
AcDbEntity
  8
0
  6
Continuous
 62
   174
100
AcDbLine
 10
124.486198
 20
323.245821
 30
0.0
 11
124.486198
 21
331.345821
 31
0.0
  0
LINE
  5
FF
100
AcDbEntity
  8
0
  6
HIDDEN
 62
   174
100
AcDbLine
 10
426.52272
 20
224.245821
 30
0.0
 11
465.895269
 21
224.245821
 31
0.0
  0
LINE
  5
100
100
AcDbEntity
  8
0
  6
Continuous
 62
   174
100
AcDbLine
 10
99.736198
 20
207.370821
 30
0.0
 11
106.486198
 21
207.370821
 31
0.0
  0
LINE
  5
101
100
AcDbEntity
  8
0
  6
HIDDEN
 62
   174
100
AcDbLine
 10
142.936198
 20
331.345821
 30
0.0
 11
142.936198
 21
338.095821
 31
0.0
  0
LINE
  5
102
100
AcDbEntity
  8
0
  6
Continuous
 62
   174
100
AcDbLine
 10
151.486198
 20
323.245821
 30
0.0
 11
151.486198
 21
371.395821
 31
0.0
  0
LINE
  5
103
100
AcDbEntity
  8
0
  6
HIDDEN
 62
   174
100
AcDbLine
 10
99.736198
 20
207.370821
 30
0.0
 11
106.486198
 21
207.370821
 31
0.0
  0
LINE
  5
104
100
AcDbEntity
  8
0
  6
Continuous
 62
   174
100
AcDbLine
 10
99.736198
 20
283.870821
 30
0.0
 11
106.486198
 21
283.870821
 31
0.0
  0
LINE
  5
105
100
AcDbEntity
  8
0
  6
HIDDEN
 62
   174
100
AcDbLine
 10
282.548698
 20
188.245821
 30
0.0
 11
282.548698
 21
224.245821
 31
0.0
  0
LINE
  5
106
100
AcDbEntity
  8
0
  6
HIDDEN
 62
   174
100
AcDbLine
 10
282.548698
 20
219.745821
 30
0.0
 11
282.548698
 21
188.245821
 31
0.0
  0
LINE
  5
107
100
AcDbEntity
  8
0
  6
HIDDEN
 62
   174
100
AcDbLine
 10
99.736198
 20
227.712819
 30
0.0
 11
99.736198
 21
217.57403
 31
0.0
  0
LINE
  5
108
100
AcDbEntity
  8
0
  6
HIDDEN
 62
   174
100
AcDbLine
 10
106.486198
 20
206.245821
 30
0.0
 11
106.486198
 21
217.495821
 31
0.0
  0
LINE
  5
109
100
AcDbEntity
  8
0
  6
HIDDEN
 62
   174
100
AcDbLine
 10
396.128698
 20
219.745821
 30
0.0
 11
396.128698
 21
188.245821
 31
0.0
  0
LINE
  5
10A
100
AcDbEntity
  8
0
  6
HIDDEN
 62
   174
100
AcDbLine
 10
393.923698
 20
219.745821
 30
0.0
 11
393.923698
 21
188.245821
 31
0.0
  0
LINE
  5
10B
100
AcDbEntity
  8
0
  6
Continuous
 62
   174
100
AcDbLine
 10
486.736198
 20
235.495821
 30
0.0
 11
491.236198
 21
235.495821
 31
0.0
  0
LINE
  5
10C
100
AcDbEntity
  8
0
  6
HIDDEN
 62
   174
100
AcDbLine
 10
155.086198
 20
357.757004
 30
0.0
 11
155.086198
 21
363.606884
 31
0.0
  0
LINE
  5
10D
100
AcDbEntity
  8
0
  6
HIDDEN
 62
   174
100
AcDbLine
 10
424.31751
 20
188.245821
 30
0.0
 11
468.099877
 21
188.245821
 31
0.0
  0
LINE
  5
10E
100
AcDbEntity
  8
0
  6
HIDDEN
 62
   174
100
AcDbLine
 10
151.486198
 20
363.520821
 30
0.0
 11
155.086198
 21
363.520821
 31
0.0
  0
LINE
  5
10F
100
AcDbEntity
  8
0
  6
HIDDEN
 62
   174
100
AcDbLine
 10
99.736198
 20
227.620821
 30
0.0
 11
106.486198
 21
227.620821
 31
0.0
  0
LINE
  5
110
100
AcDbEntity
  8
0
  6
HIDDEN
 62
   174
100
AcDbLine
 10
142.936198
 20
323.245821
 30
0.0
 11
142.936198
 21
331.345821
 31
0.0
  0
LINE
  5
111
100
AcDbEntity
  8
0
  6
HIDDEN
 62
   174
100
AcDbLine
 10
354.526788
 20
224.245821
 30
0.0
 11
393.899939
 21
224.245821
 31
0.0
  0
LINE
  5
112
100
AcDbEntity
  8
0
  6
HIDDEN
 62
   174
100
AcDbLine
 10
97.486198
 20
225.463097
 30
0.0
 11
97.486198
 21
209.713836
 31
0.0
  0
LINE
  5
113
100
AcDbEntity
  8
0
  6
HIDDEN
 62
   174
100
AcDbLine
 10
99.736198
 20
304.209399
 30
0.0
 11
99.736198
 21
283.960693
 31
0.0
  0
LINE
  5
114
100
AcDbEntity
  8
0
  6
HIDDEN
 62
   174
100
AcDbLine
 10
106.486198
 20
294.085046
 30
0.0
 11
106.486198
 21
282.835231
 31
0.0
  0
LINE
  5
115
100
AcDbEntity
  8
0
  6
HIDDEN
 62
   174
100
AcDbLine
 10
352.343698
 20
219.745821
 30
0.0
 11
352.343698
 21
188.245821
 31
0.0
  0
LINE
  5
116
100
AcDbEntity
  8
0
  6
Continuous
 62
   174
100
AcDbLine
 10
128.536198
 20
360.595821
 30
0.0
 11
142.936198
 21
360.595821
 31
0.0
  0
LINE
  5
117
100
AcDbEntity
  8
0
  6
Continuous
 62
   174
100
AcDbLine
 10
99.736198
 20
304.120821
 30
0.0
 11
106.486198
 21
304.120821
 31
0.0
  0
LINE
  5
118
100
AcDbEntity
  8
0
  6
HIDDEN
 62
   174
100
AcDbLine
 10
99.736198
 20
207.370821
 30
0.0
 11
106.486198
 21
207.370821
 31
0.0
  0
LINE
  5
119
100
AcDbEntity
  8
0
  6
HIDDEN
 62
   174
100
AcDbLine
 10
128.536198
 20
323.245821
 30
0.0
 11
128.536198
 21
331.345821
 31
0.0
  0
LINE
  5
11A
100
AcDbEntity
  8
0
  6
Continuous
 62
   174
100
AcDbLine
 10
99.736198
 20
304.209399
 30
0.0
 11
99.736198
 21
294.070609
 31
0.0
  0
LINE
  5
11B
100
AcDbEntity
  8
0
  6
HIDDEN
 62
   174
100
AcDbLine
 10
128.536198
 20
360.595821
 30
0.0
 11
142.936198
 21
360.595821
 31
0.0
  0
LINE
  5
11C
100
AcDbEntity
  8
0
  6
HIDDEN
 62
   174
100
AcDbLine
 10
151.486198
 20
323.245821
 30
0.0
 11
155.086198
 21
323.245821
 31
0.0
  0
LINE
  5
11D
100
AcDbEntity
  8
0
  6
HIDDEN
 62
   174
100
AcDbLine
 10
324.128698
 20
219.745821
 30
0.0
 11
324.128698
 21
188.245821
 31
0.0
  0
LINE
  5
11E
100
AcDbEntity
  8
0
  6
HIDDEN
 62
   174
100
AcDbLine
 10
234.721848
 20
305.245821
 30
0.0
 11
252.72083
 21
305.245821
 31
0.0
  0
LINE
  5
11F
100
AcDbEntity
  8
0
  6
Continuous
 62
   174
100
AcDbLine
 10
99.736198
 20
283.870821
 30
0.0
 11
106.486198
 21
283.870821
 31
0.0
  0
LINE
  5
120
100
AcDbEntity
  8
0
  6
Continuous
 62
   174
100
AcDbLine
 10
99.736198
 20
294.070609
 30
0.0
 11
99.736198
 21
283.960693
 31
0.0
  0
LINE
  5
121
100
AcDbEntity
  8
0
  6
HIDDEN
 62
   174
100
AcDbLine
 10
252.72083
 20
304.795821
 30
0.0
 11
234.721848
 21
304.795821
 31
0.0
  0
LINE
  5
122
100
AcDbEntity
  8
0
  6
HIDDEN
 62
   174
100
AcDbLine
 10
151.486198
 20
357.757004
 30
0.0
 11
151.486198
 21
363.606884
 31
0.0
  0
LINE
  5
123
100
AcDbEntity
  8
0
  6
HIDDEN
 62
   174
100
AcDbLine
 10
135.728043
 20
323.245821
 30
0.0
 11
124.478829
 21
323.245821
 31
0.0
  0
LINE
  5
124
100
AcDbEntity
  8
0
  6
HIDDEN
 62
   174
100
AcDbLine
 10
321.923698
 20
188.245821
 30
0.0
 11
321.923698
 21
224.245821
 31
0.0
  0
LINE
  5
125
100
AcDbEntity
  8
0
  6
HIDDEN
 62
   174
100
AcDbLine
 10
99.736198
 20
217.57403
 30
0.0
 11
99.736198
 21
207.464114
 31
0.0
  0
LINE
  5
126
100
AcDbEntity
  8
0
  6
HIDDEN
 62
   174
100
AcDbLine
 10
321.904007
 20
188.245821
 30
0.0
 11
282.531458
 21
188.245821
 31
0.0
  0
LINE
  5
127
100
AcDbEntity
  8
0
  6
HIDDEN
 62
   174
100
AcDbLine
 10
143.762079
 20
331.345821
 30
0.0
 11
135.728043
 21
331.345821
 31
0.0
  0
LINE
  5
128
100
AcDbEntity
  8
0
  6
Continuous
 62
   174
100
AcDbLine
 10
99.736198
 20
217.588466
 30
0.0
 11
99.736198
 21
207.464114
 31
0.0
  0
LINE
  5
129
100
AcDbEntity
  8
0
  6
HIDDEN
 62
   174
100
AcDbLine
 10
128.536198
 20
323.245821
 30
0.0
 11
142.936198
 21
323.245821
 31
0.0
  0
LINE
  5
12A
100
AcDbEntity
  8
0
  6
HIDDEN
 62
   174
100
AcDbLine
 10
280.343698
 20
219.745821
 30
0.0
 11
280.343698
 21
188.245821
 31
0.0
  0
LINE
  5
12B
100
AcDbEntity
  8
0
  6
HIDDEN
 62
   174
100
AcDbLine
 10
99.736198
 20
294.070609
 30
0.0
 11
99.736198
 21
283.960693
 31
0.0
  0
LINE
  5
12C
100
AcDbEntity
  8
0
  6
HIDDEN
 62
   174
100
AcDbLine
 10
465.923698
 20
219.745821
 30
0.0
 11
465.923698
 21
188.245821
 31
0.0
  0
LINE
  5
12D
100
AcDbEntity
  8
0
  6
HIDDEN
 62
   174
100
AcDbLine
 10
321.923698
 20
219.745821
 30
0.0
 11
321.923698
 21
188.245821
 31
0.0
  0
LINE
  5
12E
100
AcDbEntity
  8
0
  6
Continuous
 62
   174
100
AcDbLine
 10
99.736198
 20
228.39315
 30
0.0
 11
99.736198
 21
228.838282
 31
0.0
  0
LINE
  5
12F
100
AcDbEntity
  8
0
  6
Continuous
 62
   174
100
AcDbLine
 10
99.736198
 20
304.120821
 30
0.0
 11
106.486198
 21
304.120821
 31
0.0
  0
ENDBLK
  5
130
100
AcDbEntity
  8
0
100
AcDbBlockEnd
  0
BLOCK
  5
133
100
AcDbEntity
  8
0
100
AcDbBlockBegin
  2
*B2
 70
     0
 10
0.0
 20
0.0
 30
0.0
  3
*B2
  1

  0
LINE
  5
134
100
AcDbEntity
  8
0
  6
Continuous
 62
   174
100
AcDbLine
 10
171.736198
 20
33.252155
 30
0.0
 11
171.736198
 21
105.252155
 31
0.0
  0
LINE
  5
135
100
AcDbEntity
  8
0
  6
Continuous
 62
   174
100
AcDbLine
 10
99.736198
 20
33.252155
 30
0.0
 11
99.736198
 21
105.252155
 31
0.0
  0
ARC
  5
136
100
AcDbEntity
  8
0
  6
Continuous
 62
   174
100
AcDbCircle
 10
135.736198
 20
69.252155
 30
0.0
 40
8.325
100
AcDbArc
 50
-90.0
 51
90.0
  0
ARC
  5
137
100
AcDbEntity
  8
0
  6
Continuous
 62
   174
100
AcDbCircle
 10
135.736198
 20
69.252155
 30
0.0
 40
8.325
100
AcDbArc
 50
-270.0
 51
-90.0
  0
ARC
  5
138
100
AcDbEntity
  8
0
  6
Continuous
 62
   174
100
AcDbCircle
 10
135.736198
 20
69.252155
 30
0.0
 40
6.075
100
AcDbArc
 50
90.0
 51
270.0
  0
ARC
  5
139
100
AcDbEntity
  8
0
  6
Continuous
 62
   174
100
AcDbCircle
 10
135.736198
 20
69.252155
 30
0.0
 40
6.075
100
AcDbArc
 50
-90.0
 51
90.0
  0
LINE
  5
13A
100
AcDbEntity
  8
0
  6
Continuous
 62
   174
100
AcDbLine
 10
225.736198
 20
33.252155
 30
0.0
 11
225.736198
 21
105.252155
 31
0.0
  0
LINE
  5
13B
100
AcDbEntity
  8
0
  6
Continuous
 62
   174
100
AcDbLine
 10
225.736198
 20
33.252155
 30
0.0
 11
171.736198
 21
33.252155
 31
0.0
  0
LINE
  5
13C
100
AcDbEntity
  8
0
  6
Continuous
 62
   174
100
AcDbLine
 10
171.736198
 20
33.252155
 30
0.0
 11
99.736198
 21
33.252155
 31
0.0
  0
LINE
  5
13D
100
AcDbEntity
  8
0
  6
Continuous
 62
   174
100
AcDbLine
 10
225.736198
 20
105.252155
 30
0.0
 11
171.736198
 21
105.252155
 31
0.0
  0
LINE
  5
13E
100
AcDbEntity
  8
0
  6
Continuous
 62
   174
100
AcDbLine
 10
171.736198
 20
105.252155
 30
0.0
 11
99.736198
 21
105.252155
 31
0.0
  0
LINE
  5
13F
100
AcDbEntity
  8
0
  6
Continuous
 62
   174
100
AcDbLine
 10
225.736198
 20
105.252155
 30
0.0
 11
261.736198
 21
105.252155
 31
0.0
  0
LINE
  5
140
100
AcDbEntity
  8
0
  6
Continuous
 62
   174
100
AcDbLine
 10
261.736198
 20
33.252155
 30
0.0
 11
261.736198
 21
105.252155
 31
0.0
  0
LINE
  5
141
100
AcDbEntity
  8
0
  6
Continuous
 62
   174
100
AcDbLine
 10
486.736198
 20
33.252155
 30
0.0
 11
486.736198
 21
105.252155
 31
0.0
  0
ARC
  5
142
100
AcDbEntity
  8
0
  6
Continuous
 62
   174
100
AcDbCircle
 10
410.236198
 20
69.252155
 30
0.0
 40
21.8925
100
AcDbArc
 50
0.0
 51
180.0
  0
ARC
  5
143
100
AcDbEntity
  8
0
  6
Continuous
 62
   174
100
AcDbCircle
 10
99.736198
 20
36.627155
 30
0.0
 40
2.25
100
AcDbArc
 50
180.0
 51
270.0
  0
LINE
  5
144
100
AcDbEntity
  8
0
  6
Continuous
 62
   174
100
AcDbLine
 10
97.486198
 20
101.590008
 30
0.0
 11
97.486198
 21
94.100357
 31
0.0
  0
LINE
  5
145
100
AcDbEntity
  8
0
  6
Continuous
 62
   174
100
AcDbLine
 10
97.486198
 20
52.477484
 30
0.0
 11
97.486198
 21
50.943582
 31
0.0
  0
LINE
  5
146
100
AcDbEntity
  8
0
  6
Continuous
 62
   174
100
AcDbLine
 10
142.936198
 20
49.677155
 30
0.0
 11
142.936198
 21
53.277155
 31
0.0
  0
ARC
  5
147
100
AcDbEntity
  8
0
  6
Continuous
 62
   174
100
AcDbCircle
 10
135.736198
 20
69.252155
 30
0.0
 40
11.25
100
AcDbArc
 50
-90.0
 51
-81.359702
  0
ARC
  5
148
100
AcDbEntity
  8
0
  6
Continuous
 62
   174
100
AcDbCircle
 10
243.736198
 20
69.252155
 30
0.0
 40
9.0
100
AcDbArc
 50
180.0
 51
360.0
  0
LINE
  5
149
100
AcDbEntity
  8
0
  6
Continuous
 62
   174
100
AcDbLine
 10
155.086198
 20
76.452155
 30
0.0
 11
151.486198
 21
76.452155
 31
0.0
  0
LINE
  5
14A
100
AcDbEntity
  8
0
  6
Continuous
 62
   174
100
AcDbLine
 10
491.236198
 20
69.351605
 30
0.0
 11
491.236198
 21
89.600912
 31
0.0
  0
LINE
  5
14B
100
AcDbEntity
  8
0
  6
Continuous
 62
   174
100
AcDbLine
 10
225.736198
 20
33.252155
 30
0.0
 11
261.736198
 21
33.252155
 31
0.0
  0
ARC
  5
14C
100
AcDbEntity
  8
0
  6
Continuous
 62
   174
100
AcDbCircle
 10
410.236198
 20
69.252155
 30
0.0
 40
19.6875
100
AcDbArc
 50
14.902249
 51
180.0
  0
ARC
  5
14D
100
AcDbEntity
  8
0
  6
Continuous
 62
   174
100
AcDbCircle
 10
99.736198
 20
52.377155
 30
0.0
 40
2.25
100
AcDbArc
 50
-270.0
 51
-180.0
  0
LINE
  5
14E
100
AcDbEntity
  8
0
  6
Continuous
 62
   174
100
AcDbLine
 10
97.486198
 20
101.974988
 30
0.0
 11
97.486198
 21
94.100357
 31
0.0
  0
ARC
  5
14F
100
AcDbEntity
  8
0
  6
Continuous
 62
   174
100
AcDbCircle
 10
99.736198
 20
86.127155
 30
0.0
 40
2.25
100
AcDbArc
 50
180.0
 51
270.0
  0
ARC
  5
150
100
AcDbEntity
  8
0
  6
Continuous
 62
   174
100
AcDbCircle
 10
410.236198
 20
69.252155
 30
0.0
 40
19.6875
100
AcDbArc
 50
0.0
 51
14.902249
  0
LINE
  5
151
100
AcDbEntity
  8
0
  6
Continuous
 62
   174
100
AcDbLine
 10
97.486198
 20
37.113804
 30
0.0
 11
97.486198
 21
36.728223
 31
0.0
  0
ARC
  5
152
100
AcDbEntity
  8
0
  6
Continuous
 62
   174
100
AcDbCircle
 10
99.736198
 20
101.877155
 30
0.0
 40
2.25
100
AcDbArc
 50
-270.0
 51
-180.0
  0
LINE
  5
153
100
AcDbEntity
  8
0
  6
Continuous
 62
   174
100
AcDbLine
 10
97.486198
 20
50.943582
 30
0.0
 11
97.486198
 21
44.602854
 31
0.0
  0
LINE
  5
154
100
AcDbEntity
  8
0
  6
Continuous
 62
   174
100
AcDbLine
 10
128.536198
 20
88.827155
 30
0.0
 11
128.536198
 21
85.227155
 31
0.0
  0
LINE
  5
155
100
AcDbEntity
  8
0
  6
Continuous
 62
   174
100
AcDbLine
 10
97.486198
 20
94.100357
 30
0.0
 11
97.486198
 21
86.225727
 31
0.0
  0
LINE
  5
156
100
AcDbEntity
  8
0
  6
Continuous
 62
   174
100
AcDbLine
 10
97.486198
 20
100.441086
 30
0.0
 11
97.486198
 21
94.100357
 31
0.0
  0
LINE
  5
157
100
AcDbEntity
  8
0
  6
Continuous
 62
   174
100
AcDbLine
 10
151.486198
 20
62.052155
 30
0.0
 11
155.086198
 21
62.052155
 31
0.0
  0
LINE
  5
158
100
AcDbEntity
  8
0
  6
Continuous
 62
   174
100
AcDbLine
 10
225.736198
 20
33.252155
 30
0.0
 11
225.736198
 21
105.252155
 31
0.0
  0
ARC
  5
159
100
AcDbEntity
  8
0
  6
Continuous
 62
   174
100
AcDbCircle
 10
410.236198
 20
69.252155
 30
0.0
 40
21.8925
100
AcDbArc
 50
-180.0
 51
-61.210326
  0
ARC
  5
15A
100
AcDbEntity
  8
0
  6
Continuous
 62
   174
100
AcDbCircle
 10
338.236198
 20
69.252155
 30
0.0
 40
21.8925
100
AcDbArc
 50
0.0
 51
180.0
  0
ARC
  5
15B
100
AcDbEntity
  8
0
  6
Continuous
 62
   174
100
AcDbCircle
 10
410.236198
 20
69.252155
 30
0.0
 40
19.6875
100
AcDbArc
 50
-14.897072
 51
0.0
  0
LINE
  5
15C
100
AcDbEntity
  8
0
  6
Continuous
 62
   174
100
AcDbLine
 10
97.486198
 20
44.602854
 30
0.0
 11
97.486198
 21
36.728223
 31
0.0
  0
LINE
  5
15D
100
AcDbEntity
  8
0
  6
Continuous
 62
   174
100
AcDbLine
 10
142.936198
 20
53.277155
 30
0.0
 11
128.536198
 21
53.277155
 31
0.0
  0
ARC
  5
15E
100
AcDbEntity
  8
0
  6
Continuous
 62
   174
100
AcDbCircle
 10
135.736198
 20
69.252155
 30
0.0
 40
11.25
100
AcDbArc
 50
-270.0
 51
-261.359702
  0
ARC
  5
15F
100
AcDbEntity
  8
0
  6
Continuous
 62
   174
100
AcDbCircle
 10
135.736198
 20
69.252155
 30
0.0
 40
11.25
100
AcDbArc
 50
-278.640298
 51
-270.0
  0
LINE
  5
160
100
AcDbEntity
  8
0
  6
Continuous
 62
   174
100
AcDbLine
 10
155.086198
 20
62.052155
 30
0.0
 11
155.086198
 21
76.452155
 31
0.0
  0
LINE
  5
161
100
AcDbEntity
  8
0
  6
Continuous
 62
   174
100
AcDbLine
 10
97.486198
 20
44.602854
 30
0.0
 11
97.486198
 21
37.113804
 31
0.0
  0
LINE
  5
162
100
AcDbEntity
  8
0
  6
Continuous
 62
   174
100
AcDbLine
 10
97.486198
 20
52.091903
 30
0.0
 11
97.486198
 21
44.602854
 31
0.0
  0
LINE
  5
163
100
AcDbEntity
  8
0
  6
Continuous
 62
   174
100
AcDbLine
 10
97.486198
 20
44.602854
 30
0.0
 11
97.486198
 21
36.728223
 31
0.0
  0
LINE
  5
164
100
AcDbEntity
  8
0
  6
Continuous
 62
   174
100
AcDbLine
 10
97.486198
 20
86.611308
 30
0.0
 11
97.486198
 21
86.225727
 31
0.0
  0
ARC
  5
165
100
AcDbEntity
  8
0
  6
Continuous
 62
   174
100
AcDbCircle
 10
135.736198
 20
69.252155
 30
0.0
 40
11.25
100
AcDbArc
 50
-261.359702
 51
-98.640298
  0
ARC
  5
166
100
AcDbEntity
  8
0
  6
Continuous
 62
   174
100
AcDbCircle
 10
243.736198
 20
69.252155
 30
0.0
 40
9.0
100
AcDbArc
 50
0.0
 51
180.0
  0
LINE
  5
167
100
AcDbEntity
  8
0
  6
Continuous
 62
   174
100
AcDbLine
 10
486.736198
 20
33.252155
 30
0.0
 11
261.736198
 21
33.252155
 31
0.0
  0
ARC
  5
168
100
AcDbEntity
  8
0
  6
Continuous
 62
   174
100
AcDbCircle
 10
338.236198
 20
69.252155
 30
0.0
 40
19.6875
100
AcDbArc
 50
-180.0
 51
0.0
  0
LINE
  5
169
100
AcDbEntity
  8
0
  6
Continuous
 62
   174
100
AcDbLine
 10
97.486198
 20
52.477484
 30
0.0
 11
97.486198
 21
52.091903
 31
0.0
  0
LINE
  5
16A
100
AcDbEntity
  8
0
  6
Continuous
 62
   174
100
AcDbLine
 10
97.486198
 20
94.100357
 30
0.0
 11
97.486198
 21
86.611308
 31
0.0
  0
LINE
  5
16B
100
AcDbEntity
  8
0
  6
Continuous
 62
   174
100
AcDbLine
 10
128.536198
 20
85.227155
 30
0.0
 11
142.936198
 21
85.227155
 31
0.0
  0
LINE
  5
16C
100
AcDbEntity
  8
0
  6
Continuous
 62
   174
100
AcDbLine
 10
486.736198
 20
49.002155
 30
0.0
 11
491.236198
 21
49.002155
 31
0.0
  0
LINE
  5
16D
100
AcDbEntity
  8
0
  6
Continuous
 62
   174
100
AcDbLine
 10
486.736198
 20
89.502155
 30
0.0
 11
491.236198
 21
89.502155
 31
0.0
  0
LINE
  5
16E
100
AcDbEntity
  8
0
  6
Continuous
 62
   174
100
AcDbLine
 10
151.486198
 20
76.452155
 30
0.0
 11
151.486198
 21
62.052155
 31
0.0
  0
ARC
  5
16F
100
AcDbEntity
  8
0
  6
Continuous
 62
   174
100
AcDbCircle
 10
338.236198
 20
69.252155
 30
0.0
 40
21.8925
100
AcDbArc
 50
-180.0
 51
-61.210326
  0
LINE
  5
170
100
AcDbEntity
  8
0
  6
Continuous
 62
   174
100
AcDbLine
 10
97.486198
 20
101.974988
 30
0.0
 11
97.486198
 21
100.441086
 31
0.0
  0
LINE
  5
171
100
AcDbEntity
  8
0
  6
Continuous
 62
   174
100
AcDbLine
 10
128.536198
 20
49.677155
 30
0.0
 11
142.936198
 21
49.677155
 31
0.0
  0
LINE
  5
172
100
AcDbEntity
  8
0
  6
Continuous
 62
   174
100
AcDbLine
 10
128.536198
 20
53.277155
 30
0.0
 11
128.536198
 21
49.677155
 31
0.0
  0
ARC
  5
173
100
AcDbEntity
  8
0
  6
Continuous
 62
   174
100
AcDbCircle
 10
135.736198
 20
69.252155
 30
0.0
 40
11.25
100
AcDbArc
 50
-98.640298
 51
-90.0
  0
ARC
  5
174
100
AcDbEntity
  8
0
  6
Continuous
 62
   174
100
AcDbCircle
 10
135.736198
 20
69.252155
 30
0.0
 40
11.25
100
AcDbArc
 50
-81.359702
 51
81.359702
  0
LINE
  5
175
100
AcDbEntity
  8
0
  6
Continuous
 62
   174
100
AcDbLine
 10
491.236198
 20
49.1029
 30
0.0
 11
491.236198
 21
69.351605
 31
0.0
  0
LINE
  5
176
100
AcDbEntity
  8
0
  6
Continuous
 62
   174
100
AcDbLine
 10
486.736198
 20
105.252155
 30
0.0
 11
261.736198
 21
105.252155
 31
0.0
  0
ARC
  5
177
100
AcDbEntity
  8
0
  6
Continuous
 62
   174
100
AcDbCircle
 10
410.236198
 20
69.252155
 30
0.0
 40
19.6875
100
AcDbArc
 50
180.0
 51
345.102928
  0
ARC
  5
178
100
AcDbEntity
  8
0
  6
Continuous
 62
   174
100
AcDbCircle
 10
338.236198
 20
69.252155
 30
0.0
 40
19.6875
100
AcDbArc
 50
0.0
 51
180.0
  0
LINE
  5
179
100
AcDbEntity
  8
0
  6
Continuous
 62
   174
100
AcDbLine
 10
97.486198
 20
52.477484
 30
0.0
 11
97.486198
 21
44.602854
 31
0.0
  0
LINE
  5
17A
100
AcDbEntity
  8
0
  6
Continuous
 62
   174
100
AcDbLine
 10
97.486198
 20
101.974988
 30
0.0
 11
97.486198
 21
101.590008
 31
0.0
  0
LINE
  5
17B
100
AcDbEntity
  8
0
  6
Continuous
 62
   174
100
AcDbLine
 10
97.486198
 20
94.100357
 30
0.0
 11
97.486198
 21
86.225727
 31
0.0
  0
LINE
  5
17C
100
AcDbEntity
  8
0
  6
Continuous
 62
   174
100
AcDbLine
 10
142.936198
 20
88.827155
 30
0.0
 11
128.536198
 21
88.827155
 31
0.0
  0
LINE
  5
17D
100
AcDbEntity
  8
0
  6
Continuous
 62
   174
100
AcDbLine
 10
142.936198
 20
85.227155
 30
0.0
 11
142.936198
 21
88.827155
 31
0.0
  0
ENDBLK
  5
17E
100
AcDbEntity
  8
0
100
AcDbBlockEnd
  0
BLOCK
  5
181
100
AcDbEntity
  8
0
100
AcDbBlockBegin
  2
*B3
 70
     0
 10
0.0
 20
0.0
 30
0.0
  3
*B3
  1

  0
LINE
  5
182
100
AcDbEntity
  8
0
  6
Continuous
 62
   172
100
AcDbLine
 10
227.619148
 20
130.991208
 30
0.0
 11
208.699908
 21
130.991208
 31
0.0
  0
LINE
  5
183
100
AcDbEntity
  8
0
  6
Continuous
 62
   172
100
AcDbLine
 10
253.41415
 20
87.125868
 30
0.0
 11
227.619148
 21
130.991208
 31
0.0
  0
ENDBLK
  5
184
100
AcDbEntity
  8
0
100
AcDbBlockEnd
  0
BLOCK
  5
187
100
AcDbEntity
  8
0
100
AcDbBlockBegin
  2
*B4
 70
     0
 10
0.0
 20
0.0
 30
0.0
  3
*B4
  1

  0
LINE
  5
188
100
AcDbEntity
  8
0
  6
Continuous
 62
   172
100
AcDbLine
 10
223.688047
 20
135.094213
 30
0.0
 11
219.638047
 21
136.582352
 31
0.0
  0
LINE
  5
189
100
AcDbEntity
  8
0
  6
Continuous
 62
   172
100
AcDbLine
 10
223.688047
 20
135.094213
 30
0.0
 11
219.638047
 21
133.882352
 31
0.0
  0
LINE
  5
18A
100
AcDbEntity
  8
0
  6
Continuous
 62
   172
100
AcDbLine
 10
220.988047
 20
135.094213
 30
0.0
 11
223.688047
 21
135.094213
 31
0.0
  0
LINE
  5
18B
100
AcDbEntity
  8
0
  6
Continuous
 62
   172
100
AcDbLine
 10
223.688047
 20
158.320491
 30
0.0
 11
219.638047
 21
156.832352
 31
0.0
  0
LINE
  5
18C
100
AcDbEntity
  8
0
  6
Continuous
 62
   172
100
AcDbLine
 10
223.688047
 20
158.320491
 30
0.0
 11
219.638047
 21
159.532352
 31
0.0
  0
LINE
  5
18D
100
AcDbEntity
  8
0
  6
Continuous
 62
   172
100
AcDbLine
 10
220.988047
 20
158.320491
 30
0.0
 11
223.688047
 21
158.320491
 31
0.0
  0
ARC
  5
18E
100
AcDbEntity
  8
0
  6
Continuous
 62
   172
100
AcDbCircle
 10
220.988047
 20
146.707352
 30
0.0
 40
11.613139
100
AcDbArc
 50
-270.0
 51
-90.0
  0
ENDBLK
  5
18F
100
AcDbEntity
  8
0
100
AcDbBlockEnd
  0
BLOCK
  5
192
100
AcDbEntity
  8
0
100
AcDbBlockBegin
  2
*B5
 70
     0
 10
0.0
 20
0.0
 30
0.0
  3
*B5
  1

  0
ENDBLK
  5
193
100
AcDbEntity
  8
0
100
AcDbBlockEnd
  0
BLOCK
  5
195
100
AcDbEntity
  8
0
100
AcDbBlockBegin
  2
*B6
 70
     0
 10
0.0
 20
0.0
 30
0.0
  3
*B6
  1

  0
LINE
  5
196
100
AcDbEntity
  8
0
  6
Continuous
 62
   172
100
AcDbLine
 10
193.12291
 20
218.366668
 30
0.0
 11
153.31715
 21
150.675524
 31
0.0
  0
LINE
  5
197
100
AcDbEntity
  8
0
  6
Continuous
 62
   172
100
AcDbLine
 10
153.31715
 20
150.675524
 30
0.0
 11
134.39791
 21
150.675524
 31
0.0
  0
ENDBLK
  5
198
100
AcDbEntity
  8
0
100
AcDbBlockEnd
  0
BLOCK
  5
19B
100
AcDbEntity
  8
0
100
AcDbBlockBegin
  2
*B7
 70
     0
 10
0.0
 20
0.0
 30
0.0
  3
*B7
  1

  0
LINE
  5
19C
100
AcDbEntity
  8
0
  6
Continuous
 62
   172
100
AcDbLine
 10
149.386049
 20
154.778529
 30
0.0
 11
145.336049
 21
156.266668
 31
0.0
  0
LINE
  5
19D
100
AcDbEntity
  8
0
  6
Continuous
 62
   172
100
AcDbLine
 10
149.386049
 20
154.778529
 30
0.0
 11
145.336049
 21
153.566668
 31
0.0
  0
LINE
  5
19E
100
AcDbEntity
  8
0
  6
Continuous
 62
   172
100
AcDbLine
 10
146.686049
 20
154.778529
 30
0.0
 11
149.386049
 21
154.778529
 31
0.0
  0
LINE
  5
19F
100
AcDbEntity
  8
0
  6
Continuous
 62
   172
100
AcDbLine
 10
149.386049
 20
178.004807
 30
0.0
 11
145.336049
 21
176.516668
 31
0.0
  0
LINE
  5
1A0
100
AcDbEntity
  8
0
  6
Continuous
 62
   172
100
AcDbLine
 10
149.386049
 20
178.004807
 30
0.0
 11
145.336049
 21
179.216668
 31
0.0
  0
LINE
  5
1A1
100
AcDbEntity
  8
0
  6
Continuous
 62
   172
100
AcDbLine
 10
146.686049
 20
178.004807
 30
0.0
 11
149.386049
 21
178.004807
 31
0.0
  0
ARC
  5
1A2
100
AcDbEntity
  8
0
  6
Continuous
 62
   172
100
AcDbCircle
 10
146.686049
 20
166.391668
 30
0.0
 40
11.613139
100
AcDbArc
 50
-270.0
 51
-90.0
  0
ENDBLK
  5
1A3
100
AcDbEntity
  8
0
100
AcDbBlockEnd
  0
BLOCK
  5
1A6
100
AcDbEntity
  8
0
100
AcDbBlockBegin
  2
*B8
 70
     0
 10
0.0
 20
0.0
 30
0.0
  3
*B8
  1

  0
ENDBLK
  5
1A7
100
AcDbEntity
  8
0
100
AcDbBlockEnd
  0
BLOCK
  5
1A9
100
AcDbEntity
  8
0
100
AcDbBlockBegin
  2
*B9
 70
     0
 10
0.0
 20
0.0
 30
0.0
  3
*B9
  1

  0
LINE
  5
1AA
100
AcDbEntity
  8
0
  6
Continuous
 62
     0
100
AcDbLine
 10
410.211029
 20
374.085538
 30
0.0
 11
486.706405
 21
374.085538
 31
0.0
  0
SOLID
  5
1AB
100
AcDbEntity
  8
0
  6
Continuous
 62
     0
100
AcDbTrace
 10
420.210263
 20
376.085024
 30
0.0
 11
410.211029
 21
374.085538
 31
0.0
 12
420.210263
 22
372.085451
 32
0.0
 13
420.210263
 23
372.085451
 33
0.0
  0
SOLID
  5
1AC
100
AcDbEntity
  8
0
  6
Continuous
 62
     0
100
AcDbTrace
 10
476.707171
 20
372.085451
 30
0.0
 11
486.706405
 21
374.085538
 31
0.0
 12
476.707171
 22
376.085024
 32
0.0
 13
476.707171
 23
376.085024
 33
0.0
  0
ENDBLK
  5
1AD
100
AcDbEntity
  8
0
100
AcDbBlockEnd
  0
BLOCK
  5
1B0
100
AcDbEntity
  8
0
100
AcDbBlockBegin
  2
*B10
 70
     0
 10
0.0
 20
0.0
 30
0.0
  3
*B10
  1

  0
LINE
  5
1B1
100
AcDbEntity
  8
0
  6
Continuous
 62
     0
100
AcDbLine
 10
410.211029
 20
374.085538
 30
0.0
 11
338.215698
 21
374.085538
 31
0.0
  0
SOLID
  5
1B2
100
AcDbEntity
  8
0
  6
Continuous
 62
     0
100
AcDbTrace
 10
400.211794
 20
372.085451
 30
0.0
 11
410.211029
 21
374.085538
 31
0.0
 12
400.211794
 22
376.085024
 32
0.0
 13
400.211794
 23
376.085024
 33
0.0
  0
SOLID
  5
1B3
100
AcDbEntity
  8
0
  6
Continuous
 62
     0
100
AcDbTrace
 10
348.214933
 20
376.085024
 30
0.0
 11
338.215698
 21
374.085538
 31
0.0
 12
348.214933
 22
372.085451
 32
0.0
 13
348.214933
 23
372.085451
 33
0.0
  0
ENDBLK
  5
1B4
100
AcDbEntity
  8
0
100
AcDbBlockEnd
  0
BLOCK
  5
1B7
100
AcDbEntity
  8
0
100
AcDbBlockBegin
  2
*B11
 70
     0
 10
0.0
 20
0.0
 30
0.0
  3
*B11
  1

  0
LINE
  5
1B8
100
AcDbEntity
  8
0
  6
Continuous
 62
     0
100
AcDbLine
 10
446.208994
 20
160.095425
 30
0.0
 11
486.706405
 21
160.095425
 31
0.0
  0
SOLID
  5
1B9
100
AcDbEntity
  8
0
  6
Continuous
 62
     0
100
AcDbTrace
 10
456.208229
 20
162.095512
 30
0.0
 11
446.208994
 21
160.095425
 31
0.0
 12
456.208229
 22
158.095337
 32
0.0
 13
456.208229
 23
158.095337
 33
0.0
  0
SOLID
  5
1BA
100
AcDbEntity
  8
0
  6
Continuous
 62
     0
100
AcDbTrace
 10
476.707171
 20
158.095337
 30
0.0
 11
486.706405
 21
160.095425
 31
0.0
 12
476.707171
 22
162.095512
 32
0.0
 13
476.707171
 23
162.095512
 33
0.0
  0
ENDBLK
  5
1BB
100
AcDbEntity
  8
0
100
AcDbBlockEnd
  0
BLOCK
  5
1BE
100
AcDbEntity
  8
0
100
AcDbBlockBegin
  2
*B12
 70
     0
 10
0.0
 20
0.0
 30
0.0
  3
*B12
  1

  0
LINE
  5
1BF
100
AcDbEntity
  8
0
  6
Continuous
 62
     0
100
AcDbLine
 10
374.213063
 20
160.095425
 30
0.0
 11
446.208994
 21
160.095425
 31
0.0
  0
SOLID
  5
1C0
100
AcDbEntity
  8
0
  6
Continuous
 62
     0
100
AcDbTrace
 10
384.212899
 20
162.095512
 30
0.0
 11
374.213063
 21
160.095425
 31
0.0
 12
384.212899
 22
158.095337
 32
0.0
 13
384.212899
 23
158.095337
 33
0.0
  0
SOLID
  5
1C1
100
AcDbEntity
  8
0
  6
Continuous
 62
     0
100
AcDbTrace
 10
436.20976
 20
158.095337
 30
0.0
 11
446.208994
 21
160.095425
 31
0.0
 12
436.20976
 22
162.095512
 32
0.0
 13
436.20976
 23
162.095512
 33
0.0
  0
ENDBLK
  5
1C2
100
AcDbEntity
  8
0
100
AcDbBlockEnd
  0
BLOCK
  5
1C5
100
AcDbEntity
  8
0
100
AcDbBlockBegin
  2
*B13
 70
     0
 10
0.0
 20
0.0
 30
0.0
  3
*B13
  1

  0
LINE
  5
1C6
100
AcDbEntity
  8
0
  6
Continuous
 62
     0
100
AcDbLine
 10
302.217733
 20
160.095425
 30
0.0
 11
374.213063
 21
160.095425
 31
0.0
  0
SOLID
  5
1C7
100
AcDbEntity
  8
0
  6
Continuous
 62
     0
100
AcDbTrace
 10
312.216967
 20
162.095512
 30
0.0
 11
302.217733
 21
160.095425
 31
0.0
 12
312.216967
 22
158.095337
 32
0.0
 13
312.216967
 23
158.095337
 33
0.0
  0
SOLID
  5
1C8
100
AcDbEntity
  8
0
  6
Continuous
 62
     0
100
AcDbTrace
 10
364.213828
 20
158.095337
 30
0.0
 11
374.213063
 21
160.095425
 31
0.0
 12
364.213828
 22
162.095512
 32
0.0
 13
364.213828
 23
162.095512
 33
0.0
  0
ENDBLK
  5
1C9
100
AcDbEntity
  8
0
100
AcDbBlockEnd
  0
BLOCK
  5
1CC
100
AcDbEntity
  8
0
100
AcDbBlockBegin
  2
*B14
 70
     0
 10
0.0
 20
0.0
 30
0.0
  3
*B14
  1

  0
LINE
  5
1CD
100
AcDbEntity
  8
0
  6
Continuous
 62
     0
100
AcDbLine
 10
486.706405
 20
136.096781
 30
0.0
 11
261.720322
 21
136.096781
 31
0.0
  0
SOLID
  5
1CE
100
AcDbEntity
  8
0
  6
Continuous
 62
     0
100
AcDbTrace
 10
476.707171
 20
134.096694
 30
0.0
 11
486.706405
 21
136.096781
 31
0.0
 12
476.707171
 22
138.096267
 32
0.0
 13
476.707171
 23
138.096267
 33
0.0
  0
SOLID
  5
1CF
100
AcDbEntity
  8
0
  6
Continuous
 62
     0
100
AcDbTrace
 10
271.719556
 20
138.096267
 30
0.0
 11
261.720322
 21
136.096781
 31
0.0
 12
271.719556
 22
134.096694
 32
0.0
 13
271.719556
 23
134.096694
 33
0.0
  0
ENDBLK
  5
1D0
100
AcDbEntity
  8
0
100
AcDbBlockEnd
  0
BLOCK
  5
1D3
100
AcDbEntity
  8
0
100
AcDbBlockBegin
  2
*B15
 70
     0
 10
0.0
 20
0.0
 30
0.0
  3
*B15
  1

  0
LINE
  5
1D4
100
AcDbEntity
  8
0
  6
Continuous
 62
     0
100
AcDbLine
 10
543.086015
 20
323.333844
 30
0.0
 11
543.086015
 21
188.339668
 31
0.0
  0
SOLID
  5
1D5
100
AcDbEntity
  8
0
  6
Continuous
 62
     0
100
AcDbTrace
 10
545.086102
 20
313.334008
 30
0.0
 11
543.086015
 21
323.333844
 31
0.0
 12
541.086529
 22
313.334008
 32
0.0
 13
541.086529
 23
313.334008
 33
0.0
  0
SOLID
  5
1D6
100
AcDbEntity
  8
0
  6
Continuous
 62
     0
100
AcDbTrace
 10
541.086529
 20
198.339504
 30
0.0
 11
543.086015
 21
188.339668
 31
0.0
 12
545.086102
 22
198.339504
 32
0.0
 13
545.086102
 23
198.339504
 33
0.0
  0
ENDBLK
  5
1D7
100
AcDbEntity
  8
0
100
AcDbBlockEnd
  0
BLOCK
  5
1DA
100
AcDbEntity
  8
0
100
AcDbBlockBegin
  2
*B16
 70
     0
 10
0.0
 20
0.0
 30
0.0
  3
*B16
  1

  0
LINE
  5
1DB
100
AcDbEntity
  8
0
  6
Continuous
 62
     0
100
AcDbLine
 10
516.186793
 20
219.838189
 30
0.0
 11
516.186793
 21
291.835324
 31
0.0
  0
SOLID
  5
1DC
100
AcDbEntity
  8
0
  6
Continuous
 62
     0
100
AcDbTrace
 10
514.187307
 20
229.838025
 30
0.0
 11
516.186793
 21
219.838189
 31
0.0
 12
518.18688
 22
229.838025
 32
0.0
 13
518.18688
 23
229.838025
 33
0.0
  0
SOLID
  5
1DD
100
AcDbEntity
  8
0
  6
Continuous
 62
     0
100
AcDbTrace
 10
518.18688
 20
281.835488
 30
0.0
 11
516.186793
 21
291.835324
 31
0.0
 12
514.187307
 22
281.835488
 32
0.0
 13
514.187307
 23
281.835488
 33
0.0
  0
ENDBLK
  5
1DE
100
AcDbEntity
  8
0
100
AcDbBlockEnd
  0
BLOCK
  5
1E1
100
AcDbEntity
  8
0
100
AcDbBlockBegin
  2
*B17
 70
     0
 10
0.0
 20
0.0
 30
0.0
  3
*B17
  1

  0
LINE
  5
1E2
100
AcDbEntity
  8
0
  6
Continuous
 62
     0
100
AcDbLine
 10
338.215698
 20
240.091707
 30
0.0
 11
410.211029
 21
240.091707
 31
0.0
  0
SOLID
  5
1E3
100
AcDbEntity
  8
0
  6
Continuous
 62
     0
100
AcDbTrace
 10
348.214933
 20
242.091794
 30
0.0
 11
338.215698
 21
240.091707
 31
0.0
 12
348.214933
 22
238.091619
 32
0.0
 13
348.214933
 23
238.091619
 33
0.0
  0
SOLID
  5
1E4
100
AcDbEntity
  8
0
  6
Continuous
 62
     0
100
AcDbTrace
 10
400.211794
 20
238.091619
 30
0.0
 11
410.211029
 21
240.091707
 31
0.0
 12
400.211794
 22
242.091794
 32
0.0
 13
400.211794
 23
242.091794
 33
0.0
  0
ENDBLK
  5
1E5
100
AcDbEntity
  8
0
100
AcDbBlockEnd
  0
BLOCK
  5
1E8
100
AcDbEntity
  8
0
100
AcDbBlockBegin
  2
*B18
 70
     0
 10
0.0
 20
0.0
 30
0.0
  3
*B18
  1

  0
LINE
  5
1E9
100
AcDbEntity
  8
0
  6
Continuous
 62
     0
100
AcDbLine
 10
340.854009
 20
350.086293
 30
0.0
 11
449.896374
 21
350.086293
 31
0.0
  0
SOLID
  5
1EA
100
AcDbEntity
  8
0
  6
Continuous
 62
     0
100
AcDbTrace
 10
380.525519
 20
348.086807
 30
0.0
 11
390.524754
 21
350.086293
 31
0.0
 12
380.525519
 22
352.08638
 32
0.0
 13
380.525519
 23
352.08638
 33
0.0
  0
SOLID
  5
1EB
100
AcDbEntity
  8
0
  6
Continuous
 62
     0
100
AcDbTrace
 10
439.896538
 20
352.08638
 30
0.0
 11
429.897303
 21
350.086293
 31
0.0
 12
439.896538
 22
348.086807
 32
0.0
 13
439.896538
 23
348.086807
 33
0.0
  0
ENDBLK
  5
1EC
100
AcDbEntity
  8
0
100
AcDbBlockEnd
  0
BLOCK
  5
1EF
100
AcDbEntity
  8
0
100
AcDbBlockBegin
  2
*B19
 70
     0
 10
0.0
 20
0.0
 30
0.0
  3
*B19
  1

  0
LINE
  5
1F0
100
AcDbEntity
  8
0
  6
Continuous
 62
     0
100
AcDbLine
 10
466.707936
 20
350.086293
 30
0.0
 11
515.239383
 21
350.086293
 31
0.0
  0
SOLID
  5
1F1
100
AcDbEntity
  8
0
  6
Continuous
 62
     0
100
AcDbTrace
 10
476.707171
 20
348.086807
 30
0.0
 11
486.706405
 21
350.086293
 31
0.0
 12
476.707171
 22
352.08638
 32
0.0
 13
476.707171
 23
352.08638
 33
0.0
  0
SOLID
  5
1F2
100
AcDbEntity
  8
0
  6
Continuous
 62
     0
100
AcDbTrace
 10
501.205686
 20
352.08638
 30
0.0
 11
491.206452
 21
350.086293
 31
0.0
 12
501.205686
 22
348.086807
 32
0.0
 13
501.205686
 23
348.086807
 33
0.0
  0
ENDBLK
  5
1F3
100
AcDbEntity
  8
0
100
AcDbBlockEnd
  0
BLOCK
  5
1F6
100
AcDbEntity
  8
0
100
AcDbBlockBegin
  2
*B20
 70
     0
 10
0.0
 20
0.0
 30
0.0
  3
*B20
  1

  0
LINE
  5
1F7
100
AcDbEntity
  8
0
  6
Continuous
 62
     0
100
AcDbLine
 10
99.730077
 20
398.084182
 30
0.0
 11
486.706405
 21
398.084182
 31
0.0
  0
SOLID
  5
1F8
100
AcDbEntity
  8
0
  6
Continuous
 62
     0
100
AcDbTrace
 10
109.729913
 20
400.08427
 30
0.0
 11
99.730077
 21
398.084182
 31
0.0
 12
109.729913
 22
396.084095
 32
0.0
 13
109.729913
 23
396.084095
 33
0.0
  0
SOLID
  5
1F9
100
AcDbEntity
  8
0
  6
Continuous
 62
     0
100
AcDbTrace
 10
476.707171
 20
396.084095
 30
0.0
 11
486.706405
 21
398.084182
 31
0.0
 12
476.707171
 22
400.08427
 32
0.0
 13
476.707171
 23
400.08427
 33
0.0
  0
ENDBLK
  5
1FA
100
AcDbEntity
  8
0
100
AcDbBlockEnd
  0
BLOCK
  5
1FD
100
AcDbEntity
  8
0
100
AcDbBlockBegin
  2
*B21
 70
     0
 10
0.0
 20
0.0
 30
0.0
  3
*B21
  1

  0
LINE
  5
1FE
100
AcDbEntity
  8
0
  6
Continuous
 62
     0
100
AcDbLine
 10
75.995505
 20
33.35364
 30
0.0
 11
75.995505
 21
105.350173
 31
0.0
  0
SOLID
  5
1FF
100
AcDbEntity
  8
0
  6
Continuous
 62
     0
100
AcDbTrace
 10
73.995418
 20
43.352874
 30
0.0
 11
75.995505
 21
33.35364
 31
0.0
 12
77.995593
 22
43.352874
 32
0.0
 13
77.995593
 23
43.352874
 33
0.0
  0
SOLID
  5
200
100
AcDbEntity
  8
0
  6
Continuous
 62
     0
100
AcDbTrace
 10
77.995593
 20
95.350337
 30
0.0
 11
75.995505
 21
105.350173
 31
0.0
 12
73.995418
 22
95.350337
 32
0.0
 13
73.995418
 23
95.350337
 33
0.0
  0
ENDBLK
  5
201
100
AcDbEntity
  8
0
100
AcDbBlockEnd
  0
BLOCK
  5
204
100
AcDbEntity
  8
0
100
AcDbBlockBegin
  2
*B22
 70
     0
 10
0.0
 20
0.0
 30
0.0
  3
*B22
  1

  0
LINE
  5
205
100
AcDbEntity
  8
0
  6
Continuous
 62
     0
100
AcDbLine
 10
75.995505
 20
206.339252
 30
0.0
 11
75.995505
 21
323.333844
 31
0.0
  0
SOLID
  5
206
100
AcDbEntity
  8
0
  6
Continuous
 62
     0
100
AcDbTrace
 10
73.995418
 20
216.338487
 30
0.0
 11
75.995505
 21
206.339252
 31
0.0
 12
77.995593
 22
216.338487
 32
0.0
 13
77.995593
 23
216.338487
 33
0.0
  0
SOLID
  5
207
100
AcDbEntity
  8
0
  6
Continuous
 62
     0
100
AcDbTrace
 10
77.995593
 20
313.334008
 30
0.0
 11
75.995505
 21
323.333844
 31
0.0
 12
73.995418
 22
313.334008
 32
0.0
 13
73.995418
 23
313.334008
 33
0.0
  0
ENDBLK
  5
208
100
AcDbEntity
  8
0
100
AcDbBlockEnd
  0
BLOCK
  5
20B
100
AcDbEntity
  8
0
100
AcDbBlockBegin
  2
*B23
 70
     0
 10
0.0
 20
0.0
 30
0.0
  3
*B23
  1

  0
LINE
  5
20C
100
AcDbEntity
  8
0
  6
Continuous
 62
     0
100
AcDbLine
 10
75.995505
 20
226.338323
 30
0.0
 11
75.995505
 21
168.340598
 31
0.0
  0
SOLID
  5
20D
100
AcDbEntity
  8
0
  6
Continuous
 62
     0
100
AcDbTrace
 10
73.995418
 20
216.338487
 30
0.0
 11
75.995505
 21
206.339252
 31
0.0
 12
77.995593
 22
216.338487
 32
0.0
 13
77.995593
 23
216.338487
 33
0.0
  0
SOLID
  5
20E
100
AcDbEntity
  8
0
  6
Continuous
 62
     0
100
AcDbTrace
 10
77.995593
 20
178.340434
 30
0.0
 11
75.995505
 21
188.339668
 31
0.0
 12
73.995418
 22
178.340434
 32
0.0
 13
73.995418
 23
178.340434
 33
0.0
  0
ENDBLK
  5
20F
100
AcDbEntity
  8
0
100
AcDbBlockEnd
  0
BLOCK
  5
212
100
AcDbEntity
  8
0
100
AcDbBlockBegin
  2
*B24
 70
     0
 10
0.0
 20
0.0
 30
0.0
  3
*B24
  1

  0
LINE
  5
213
100
AcDbEntity
  8
0
  6
Continuous
 62
     8
100
AcDbLine
 10
73.995418
 20
206.339252
 30
0.0
 11
93.730416
 21
206.339252
 31
0.0
  0
ENDBLK
  5
214
100
AcDbEntity
  8
0
100
AcDbBlockEnd
  0
BLOCK
  5
217
100
AcDbEntity
  8
0
100
AcDbBlockBegin
  2
*B25
 70
     0
 10
0.0
 20
0.0
 30
0.0
  3
*B25
  1

  0
LINE
  5
218
100
AcDbEntity
  8
0
  6
Continuous
 62
     8
100
AcDbLine
 10
73.995418
 20
105.350173
 30
0.0
 11
93.730416
 21
105.350173
 31
0.0
  0
ENDBLK
  5
219
100
AcDbEntity
  8
0
100
AcDbBlockEnd
  0
BLOCK
  5
21C
100
AcDbEntity
  8
0
100
AcDbBlockBegin
  2
*B26
 70
     0
 10
0.0
 20
0.0
 30
0.0
  3
*B26
  1

  0
LINE
  5
21D
100
AcDbEntity
  8
0
  6
Continuous
 62
     8
100
AcDbLine
 10
93.730416
 20
255.836756
 30
0.0
 11
109.551259
 21
255.836756
 31
0.0
  0
LINE
  5
21E
100
AcDbEntity
  8
0
  6
Continuous
 62
     8
100
AcDbLine
 10
115.55092
 20
255.836756
 30
0.0
 11
117.550406
 21
255.836756
 31
0.0
  0
LINE
  5
21F
100
AcDbEntity
  8
0
  6
Continuous
 62
     8
100
AcDbLine
 10
123.550067
 20
255.836756
 30
0.0
 11
139.370909
 21
255.836756
 31
0.0
  0
LINE
  5
220
100
AcDbEntity
  8
0
  6
Continuous
 62
     8
100
AcDbLine
 10
145.37057
 20
255.836756
 30
0.0
 11
147.370056
 21
255.836756
 31
0.0
  0
LINE
  5
221
100
AcDbEntity
  8
0
  6
Continuous
 62
     8
100
AcDbLine
 10
153.369717
 20
255.836756
 30
0.0
 11
169.189958
 21
255.836756
 31
0.0
  0
LINE
  5
222
100
AcDbEntity
  8
0
  6
Continuous
 62
     8
100
AcDbLine
 10
175.189619
 20
255.836756
 30
0.0
 11
177.189707
 21
255.836756
 31
0.0
  0
LINE
  5
223
100
AcDbEntity
  8
0
  6
Continuous
 62
     8
100
AcDbLine
 10
183.189368
 20
255.836756
 30
0.0
 11
199.009609
 21
255.836756
 31
0.0
  0
LINE
  5
224
100
AcDbEntity
  8
0
  6
Continuous
 62
     8
100
AcDbLine
 10
205.009269
 20
255.836756
 30
0.0
 11
207.009357
 21
255.836756
 31
0.0
  0
LINE
  5
225
100
AcDbEntity
  8
0
  6
Continuous
 62
     8
100
AcDbLine
 10
213.009018
 20
255.836756
 30
0.0
 11
228.829259
 21
255.836756
 31
0.0
  0
LINE
  5
226
100
AcDbEntity
  8
0
  6
Continuous
 62
     8
100
AcDbLine
 10
234.82892
 20
255.836756
 30
0.0
 11
236.829007
 21
255.836756
 31
0.0
  0
LINE
  5
227
100
AcDbEntity
  8
0
  6
Continuous
 62
     8
100
AcDbLine
 10
242.828668
 20
255.836756
 30
0.0
 11
258.648909
 21
255.836756
 31
0.0
  0
LINE
  5
228
100
AcDbEntity
  8
0
  6
Continuous
 62
     8
100
AcDbLine
 10
264.64857
 20
255.836756
 30
0.0
 11
266.648658
 21
255.836756
 31
0.0
  0
LINE
  5
229
100
AcDbEntity
  8
0
  6
Continuous
 62
     8
100
AcDbLine
 10
272.648319
 20
255.836756
 30
0.0
 11
288.46856
 21
255.836756
 31
0.0
  0
LINE
  5
22A
100
AcDbEntity
  8
0
  6
Continuous
 62
     8
100
AcDbLine
 10
294.468221
 20
255.836756
 30
0.0
 11
296.468308
 21
255.836756
 31
0.0
  0
LINE
  5
22B
100
AcDbEntity
  8
0
  6
Continuous
 62
     8
100
AcDbLine
 10
302.467969
 20
255.836756
 30
0.0
 11
318.28821
 21
255.836756
 31
0.0
  0
LINE
  5
22C
100
AcDbEntity
  8
0
  6
Continuous
 62
     8
100
AcDbLine
 10
324.287871
 20
255.836756
 30
0.0
 11
326.287959
 21
255.836756
 31
0.0
  0
LINE
  5
22D
100
AcDbEntity
  8
0
  6
Continuous
 62
     8
100
AcDbLine
 10
332.28762
 20
255.836756
 30
0.0
 11
348.107861
 21
255.836756
 31
0.0
  0
LINE
  5
22E
100
AcDbEntity
  8
0
  6
Continuous
 62
     8
100
AcDbLine
 10
354.107522
 20
255.836756
 30
0.0
 11
356.107609
 21
255.836756
 31
0.0
  0
LINE
  5
22F
100
AcDbEntity
  8
0
  6
Continuous
 62
     8
100
AcDbLine
 10
362.10727
 20
255.836756
 30
0.0
 11
377.927511
 21
255.836756
 31
0.0
  0
LINE
  5
230
100
AcDbEntity
  8
0
  6
Continuous
 62
     8
100
AcDbLine
 10
383.927172
 20
255.836756
 30
0.0
 11
385.926658
 21
255.836756
 31
0.0
  0
LINE
  5
231
100
AcDbEntity
  8
0
  6
Continuous
 62
     8
100
AcDbLine
 10
391.926319
 20
255.836756
 30
0.0
 11
407.747161
 21
255.836756
 31
0.0
  0
LINE
  5
232
100
AcDbEntity
  8
0
  6
Continuous
 62
     8
100
AcDbLine
 10
413.746822
 20
255.836756
 30
0.0
 11
415.746308
 21
255.836756
 31
0.0
  0
LINE
  5
233
100
AcDbEntity
  8
0
  6
Continuous
 62
     8
100
AcDbLine
 10
421.745969
 20
255.836756
 30
0.0
 11
437.566812
 21
255.836756
 31
0.0
  0
LINE
  5
234
100
AcDbEntity
  8
0
  6
Continuous
 62
     8
100
AcDbLine
 10
443.566473
 20
255.836756
 30
0.0
 11
445.565959
 21
255.836756
 31
0.0
  0
LINE
  5
235
100
AcDbEntity
  8
0
  6
Continuous
 62
     8
100
AcDbLine
 10
451.56562
 20
255.836756
 30
0.0
 11
467.386462
 21
255.836756
 31
0.0
  0
LINE
  5
236
100
AcDbEntity
  8
0
  6
Continuous
 62
     8
100
AcDbLine
 10
473.386123
 20
255.836756
 30
0.0
 11
475.385609
 21
255.836756
 31
0.0
  0
LINE
  5
237
100
AcDbEntity
  8
0
  6
Continuous
 62
     8
100
AcDbLine
 10
481.38527
 20
255.836756
 30
0.0
 11
497.205511
 21
255.836756
 31
0.0
  0
ENDBLK
  5
238
100
AcDbEntity
  8
0
100
AcDbBlockEnd
  0
BLOCK
  5
23B
100
AcDbEntity
  8
0
100
AcDbBlockBegin
  2
*B27
 70
     0
 10
0.0
 20
0.0
 30
0.0
  3
*B27
  1

  0
LINE
  5
23C
100
AcDbEntity
  8
0
  6
Continuous
 62
     8
100
AcDbLine
 10
486.706405
 20
134.096694
 30
0.0
 11
486.706405
 21
182.340007
 31
0.0
  0
LINE
  5
23D
100
AcDbEntity
  8
0
  6
Continuous
 62
     8
100
AcDbLine
 10
486.706405
 20
329.333505
 30
0.0
 11
486.706405
 21
400.08427
 31
0.0
  0
ENDBLK
  5
23E
100
AcDbEntity
  8
0
100
AcDbBlockEnd
  0
BLOCK
  5
241
100
AcDbEntity
  8
0
100
AcDbBlockBegin
  2
*B28
 70
     0
 10
0.0
 20
0.0
 30
0.0
  3
*B28
  1

  0
LINE
  5
242
100
AcDbEntity
  8
0
  6
Continuous
 62
     8
100
AcDbLine
 10
446.208994
 20
158.095337
 30
0.0
 11
446.208994
 21
162.095512
 31
0.0
  0
LINE
  5
243
100
AcDbEntity
  8
0
  6
Continuous
 62
     8
100
AcDbLine
 10
446.208994
 20
162.095512
 30
0.0
 11
446.208994
 21
189.216699
 31
0.0
  0
LINE
  5
244
100
AcDbEntity
  8
0
  6
Continuous
 62
     8
100
AcDbLine
 10
446.208994
 20
195.216961
 30
0.0
 11
446.208994
 21
197.216447
 31
0.0
  0
LINE
  5
245
100
AcDbEntity
  8
0
  6
Continuous
 62
     8
100
AcDbLine
 10
446.208994
 20
203.216108
 30
0.0
 11
446.208994
 21
230.337896
 31
0.0
  0
ENDBLK
  5
246
100
AcDbEntity
  8
0
100
AcDbBlockEnd
  0
BLOCK
  5
249
100
AcDbEntity
  8
0
100
AcDbBlockBegin
  2
*B29
 70
     0
 10
0.0
 20
0.0
 30
0.0
  3
*B29
  1

  0
LINE
  5
24A
100
AcDbEntity
  8
0
  6
Continuous
 62
     8
100
AcDbLine
 10
243.721339
 20
54.352453
 30
0.0
 11
243.721339
 21
61.351857
 31
0.0
  0
LINE
  5
24B
100
AcDbEntity
  8
0
  6
Continuous
 62
     8
100
AcDbLine
 10
243.721339
 20
77.351354
 30
0.0
 11
243.721339
 21
84.351359
 31
0.0
  0
ENDBLK
  5
24C
100
AcDbEntity
  8
0
100
AcDbBlockEnd
  0
BLOCK
  5
24F
100
AcDbEntity
  8
0
100
AcDbBlockBegin
  2
*B30
 70
     0
 10
0.0
 20
0.0
 30
0.0
  3
*B30
  1

  0
LINE
  5
250
100
AcDbEntity
  8
0
  6
Continuous
 62
     8
100
AcDbLine
 10
73.995418
 20
33.35364
 30
0.0
 11
93.730416
 21
33.35364
 31
0.0
  0
ENDBLK
  5
251
100
AcDbEntity
  8
0
100
AcDbBlockEnd
  0
BLOCK
  5
254
100
AcDbEntity
  8
0
100
AcDbBlockBegin
  2
*B31
 70
     0
 10
0.0
 20
0.0
 30
0.0
  3
*B31
  1

  0
LINE
  5
255
100
AcDbEntity
  8
0
  6
Continuous
 62
     8
100
AcDbLine
 10
374.213063
 20
158.095337
 30
0.0
 11
374.213063
 21
162.095512
 31
0.0
  0
LINE
  5
256
100
AcDbEntity
  8
0
  6
Continuous
 62
     8
100
AcDbLine
 10
374.213063
 20
162.095512
 30
0.0
 11
374.213063
 21
182.030821
 31
0.0
  0
LINE
  5
257
100
AcDbEntity
  8
0
  6
Continuous
 62
     8
100
AcDbLine
 10
374.213063
 20
188.030482
 30
0.0
 11
374.213063
 21
190.030569
 31
0.0
  0
LINE
  5
258
100
AcDbEntity
  8
0
  6
Continuous
 62
     8
100
AcDbLine
 10
374.213063
 20
196.03023
 30
0.0
 11
374.213063
 21
215.965538
 31
0.0
  0
LINE
  5
259
100
AcDbEntity
  8
0
  6
Continuous
 62
     8
100
AcDbLine
 10
374.213063
 20
221.965199
 30
0.0
 11
374.213063
 21
223.965287
 31
0.0
  0
LINE
  5
25A
100
AcDbEntity
  8
0
  6
Continuous
 62
     8
100
AcDbLine
 10
374.213063
 20
229.964948
 30
0.0
 11
374.213063
 21
249.900857
 31
0.0
  0
LINE
  5
25B
100
AcDbEntity
  8
0
  6
Continuous
 62
     8
100
AcDbLine
 10
374.213063
 20
255.900518
 30
0.0
 11
374.213063
 21
257.900004
 31
0.0
  0
LINE
  5
25C
100
AcDbEntity
  8
0
  6
Continuous
 62
     8
100
AcDbLine
 10
374.213063
 20
263.899665
 30
0.0
 11
374.213063
 21
283.835575
 31
0.0
  0
LINE
  5
25D
100
AcDbEntity
  8
0
  6
Continuous
 62
     8
100
AcDbLine
 10
374.213063
 20
299.834471
 30
0.0
 11
374.213063
 21
307.734365
 31
0.0
  0
ENDBLK
  5
25E
100
AcDbEntity
  8
0
100
AcDbBlockEnd
  0
BLOCK
  5
261
100
AcDbEntity
  8
0
100
AcDbBlockBegin
  2
*B32
 70
     0
 10
0.0
 20
0.0
 30
0.0
  3
*B32
  1

  0
LINE
  5
262
100
AcDbEntity
  8
0
  6
Continuous
 62
     8
100
AcDbLine
 10
261.720322
 20
134.096694
 30
0.0
 11
261.720322
 21
182.340007
 31
0.0
  0
ENDBLK
  5
263
100
AcDbEntity
  8
0
100
AcDbBlockEnd
  0
BLOCK
  5
266
100
AcDbEntity
  8
0
100
AcDbBlockBegin
  2
*B33
 70
     0
 10
0.0
 20
0.0
 30
0.0
  3
*B33
  1

  0
LINE
  5
267
100
AcDbEntity
  8
0
  6
Continuous
 62
     8
100
AcDbLine
 10
302.217733
 20
158.095337
 30
0.0
 11
302.217733
 21
162.095512
 31
0.0
  0
LINE
  5
268
100
AcDbEntity
  8
0
  6
Continuous
 62
     8
100
AcDbLine
 10
302.217733
 20
162.095512
 30
0.0
 11
302.217733
 21
189.216699
 31
0.0
  0
LINE
  5
269
100
AcDbEntity
  8
0
  6
Continuous
 62
     8
100
AcDbLine
 10
302.217733
 20
195.216961
 30
0.0
 11
302.217733
 21
197.216447
 31
0.0
  0
LINE
  5
26A
100
AcDbEntity
  8
0
  6
Continuous
 62
     8
100
AcDbLine
 10
302.217733
 20
203.216108
 30
0.0
 11
302.217733
 21
230.337896
 31
0.0
  0
ENDBLK
  5
26B
100
AcDbEntity
  8
0
100
AcDbBlockEnd
  0
BLOCK
  5
26E
100
AcDbEntity
  8
0
100
AcDbBlockBegin
  2
*B34
 70
     0
 10
0.0
 20
0.0
 30
0.0
  3
*B34
  1

  0
LINE
  5
26F
100
AcDbEntity
  8
0
  6
Continuous
 62
     8
100
AcDbLine
 10
73.995418
 20
323.333844
 30
0.0
 11
93.730416
 21
323.333844
 31
0.0
  0
ENDBLK
  5
270
100
AcDbEntity
  8
0
100
AcDbBlockEnd
  0
BLOCK
  5
273
100
AcDbEntity
  8
0
100
AcDbBlockBegin
  2
*B35
 70
     0
 10
0.0
 20
0.0
 30
0.0
  3
*B35
  1

  0
LINE
  5
274
100
AcDbEntity
  8
0
  6
Continuous
 62
     8
100
AcDbLine
 10
492.706066
 20
323.333844
 30
0.0
 11
545.086102
 21
323.333844
 31
0.0
  0
ENDBLK
  5
275
100
AcDbEntity
  8
0
100
AcDbBlockEnd
  0
BLOCK
  5
278
100
AcDbEntity
  8
0
100
AcDbBlockBegin
  2
*B36
 70
     0
 10
0.0
 20
0.0
 30
0.0
  3
*B36
  1

  0
LINE
  5
279
100
AcDbEntity
  8
0
  6
Continuous
 62
     8
100
AcDbLine
 10
99.730077
 20
329.333505
 30
0.0
 11
99.730077
 21
400.08427
 31
0.0
  0
ENDBLK
  5
27A
100
AcDbEntity
  8
0
100
AcDbBlockEnd
  0
BLOCK
  5
27D
100
AcDbEntity
  8
0
100
AcDbBlockBegin
  2
*B37
 70
     0
 10
0.0
 20
0.0
 30
0.0
  3
*B37
  1

  0
LINE
  5
27E
100
AcDbEntity
  8
0
  6
Continuous
 62
     8
100
AcDbLine
 10
514.187307
 20
291.835324
 30
0.0
 11
518.18688
 21
291.835324
 31
0.0
  0
LINE
  5
27F
100
AcDbEntity
  8
0
  6
Continuous
 62
     8
100
AcDbLine
 10
358.314623
 20
291.835324
 30
0.0
 11
366.213916
 21
291.835324
 31
0.0
  0
LINE
  5
280
100
AcDbEntity
  8
0
  6
Continuous
 62
     8
100
AcDbLine
 10
382.212811
 20
291.835324
 30
0.0
 11
397.408664
 21
291.835324
 31
0.0
  0
LINE
  5
281
100
AcDbEntity
  8
0
  6
Continuous
 62
     8
100
AcDbLine
 10
403.407723
 20
291.835324
 30
0.0
 11
405.407811
 21
291.835324
 31
0.0
  0
LINE
  5
282
100
AcDbEntity
  8
0
  6
Continuous
 62
     8
100
AcDbLine
 10
411.407472
 20
291.835324
 30
0.0
 11
426.603325
 21
291.835324
 31
0.0
  0
LINE
  5
283
100
AcDbEntity
  8
0
  6
Continuous
 62
     8
100
AcDbLine
 10
432.602986
 20
291.835324
 30
0.0
 11
434.602472
 21
291.835324
 31
0.0
  0
LINE
  5
284
100
AcDbEntity
  8
0
  6
Continuous
 62
     8
100
AcDbLine
 10
440.602133
 20
291.835324
 30
0.0
 11
455.797985
 21
291.835324
 31
0.0
  0
LINE
  5
285
100
AcDbEntity
  8
0
  6
Continuous
 62
     8
100
AcDbLine
 10
461.797646
 20
291.835324
 30
0.0
 11
463.797132
 21
291.835324
 31
0.0
  0
LINE
  5
286
100
AcDbEntity
  8
0
  6
Continuous
 62
     8
100
AcDbLine
 10
469.796793
 20
291.835324
 30
0.0
 11
484.992646
 21
291.835324
 31
0.0
  0
LINE
  5
287
100
AcDbEntity
  8
0
  6
Continuous
 62
     8
100
AcDbLine
 10
490.992307
 20
291.835324
 30
0.0
 11
492.991793
 21
291.835324
 31
0.0
  0
LINE
  5
288
100
AcDbEntity
  8
0
  6
Continuous
 62
     8
100
AcDbLine
 10
498.991454
 20
291.835324
 30
0.0
 11
514.187307
 21
291.835324
 31
0.0
  0
ENDBLK
  5
289
100
AcDbEntity
  8
0
100
AcDbBlockEnd
  0
BLOCK
  5
28C
100
AcDbEntity
  8
0
100
AcDbBlockBegin
  2
*B38
 70
     0
 10
0.0
 20
0.0
 30
0.0
  3
*B38
  1

  0
LINE
  5
28D
100
AcDbEntity
  8
0
  6
Continuous
 62
     8
100
AcDbLine
 10
93.730416
 20
69.351605
 30
0.0
 11
127.728295
 21
69.351605
 31
0.0
  0
LINE
  5
28E
100
AcDbEntity
  8
0
  6
Continuous
 62
     8
100
AcDbLine
 10
143.727792
 20
69.351605
 30
0.0
 11
165.059853
 21
69.351605
 31
0.0
  0
LINE
  5
28F
100
AcDbEntity
  8
0
  6
Continuous
 62
     8
100
AcDbLine
 10
171.058912
 20
69.351605
 30
0.0
 11
173.059
 21
69.351605
 31
0.0
  0
LINE
  5
290
100
AcDbEntity
  8
0
  6
Continuous
 62
     8
100
AcDbLine
 10
179.058661
 20
69.351605
 30
0.0
 11
200.390722
 21
69.351605
 31
0.0
  0
LINE
  5
291
100
AcDbEntity
  8
0
  6
Continuous
 62
     8
100
AcDbLine
 10
206.390383
 20
69.351605
 30
0.0
 11
208.39047
 21
69.351605
 31
0.0
  0
LINE
  5
292
100
AcDbEntity
  8
0
  6
Continuous
 62
     8
100
AcDbLine
 10
214.390131
 20
69.351605
 30
0.0
 11
235.721591
 21
69.351605
 31
0.0
  0
LINE
  5
293
100
AcDbEntity
  8
0
  6
Continuous
 62
     8
100
AcDbLine
 10
251.721087
 20
69.351605
 30
0.0
 11
268.553102
 21
69.351605
 31
0.0
  0
LINE
  5
294
100
AcDbEntity
  8
0
  6
Continuous
 62
     8
100
AcDbLine
 10
274.552763
 20
69.351605
 30
0.0
 11
276.55285
 21
69.351605
 31
0.0
  0
LINE
  5
295
100
AcDbEntity
  8
0
  6
Continuous
 62
     8
100
AcDbLine
 10
282.552511
 20
69.351605
 30
0.0
 11
299.384526
 21
69.351605
 31
0.0
  0
LINE
  5
296
100
AcDbEntity
  8
0
  6
Continuous
 62
     8
100
AcDbLine
 10
305.384187
 20
69.351605
 30
0.0
 11
307.384274
 21
69.351605
 31
0.0
  0
LINE
  5
297
100
AcDbEntity
  8
0
  6
Continuous
 62
     8
100
AcDbLine
 10
313.383935
 20
69.351605
 30
0.0
 11
330.21595
 21
69.351605
 31
0.0
  0
LINE
  5
298
100
AcDbEntity
  8
0
  6
Continuous
 62
     8
100
AcDbLine
 10
346.214845
 20
69.351605
 30
0.0
 11
367.213659
 21
69.351605
 31
0.0
  0
LINE
  5
299
100
AcDbEntity
  8
0
  6
Continuous
 62
     8
100
AcDbLine
 10
373.21332
 20
69.351605
 30
0.0
 11
375.213407
 21
69.351605
 31
0.0
  0
LINE
  5
29A
100
AcDbEntity
  8
0
  6
Continuous
 62
     8
100
AcDbLine
 10
381.213068
 20
69.351605
 30
0.0
 11
402.211882
 21
69.351605
 31
0.0
  0
LINE
  5
29B
100
AcDbEntity
  8
0
  6
Continuous
 62
     8
100
AcDbLine
 10
418.210777
 20
69.351605
 30
0.0
 11
435.209415
 21
69.351605
 31
0.0
  0
LINE
  5
29C
100
AcDbEntity
  8
0
  6
Continuous
 62
     8
100
AcDbLine
 10
441.209076
 20
69.351605
 30
0.0
 11
443.209164
 21
69.351605
 31
0.0
  0
LINE
  5
29D
100
AcDbEntity
  8
0
  6
Continuous
 62
     8
100
AcDbLine
 10
449.208825
 20
69.351605
 30
0.0
 11
466.207463
 21
69.351605
 31
0.0
  0
LINE
  5
29E
100
AcDbEntity
  8
0
  6
Continuous
 62
     8
100
AcDbLine
 10
472.207124
 20
69.351605
 30
0.0
 11
474.207212
 21
69.351605
 31
0.0
  0
LINE
  5
29F
100
AcDbEntity
  8
0
  6
Continuous
 62
     8
100
AcDbLine
 10
480.206873
 20
69.351605
 30
0.0
 11
497.205511
 21
69.351605
 31
0.0
  0
ENDBLK
  5
2A0
100
AcDbEntity
  8
0
100
AcDbBlockEnd
  0
BLOCK
  5
2A3
100
AcDbEntity
  8
0
100
AcDbBlockBegin
  2
*B39
 70
     0
 10
0.0
 20
0.0
 30
0.0
  3
*B39
  1

  0
LINE
  5
2A4
100
AcDbEntity
  8
0
  6
Continuous
 62
     8
100
AcDbLine
 10
73.995418
 20
188.339668
 30
0.0
 11
255.720661
 21
188.339668
 31
0.0
  0
LINE
  5
2A5
100
AcDbEntity
  8
0
  6
Continuous
 62
     8
100
AcDbLine
 10
492.706066
 20
188.339668
 30
0.0
 11
545.086102
 21
188.339668
 31
0.0
  0
ENDBLK
  5
2A6
100
AcDbEntity
  8
0
100
AcDbBlockEnd
  0
BLOCK
  5
2A9
100
AcDbEntity
  8
0
100
AcDbBlockBegin
  2
*B40
 70
     0
 10
0.0
 20
0.0
 30
0.0
  3
*B40
  1

  0
LINE
  5
2AA
100
AcDbEntity
  8
0
  6
Continuous
 62
     8
100
AcDbLine
 10
514.187307
 20
219.838189
 30
0.0
 11
518.18688
 21
219.838189
 31
0.0
  0
LINE
  5
2AB
100
AcDbEntity
  8
0
  6
Continuous
 62
     8
100
AcDbLine
 10
394.311987
 20
219.838189
 30
0.0
 11
402.211882
 21
219.838189
 31
0.0
  0
LINE
  5
2AC
100
AcDbEntity
  8
0
  6
Continuous
 62
     8
100
AcDbLine
 10
418.210777
 20
219.838189
 30
0.0
 11
440.869813
 21
219.838189
 31
0.0
  0
LINE
  5
2AD
100
AcDbEntity
  8
0
  6
Continuous
 62
     8
100
AcDbLine
 10
446.869474
 20
219.838189
 30
0.0
 11
448.869562
 21
219.838189
 31
0.0
  0
LINE
  5
2AE
100
AcDbEntity
  8
0
  6
Continuous
 62
     8
100
AcDbLine
 10
454.869223
 20
219.838189
 30
0.0
 11
477.528861
 21
219.838189
 31
0.0
  0
LINE
  5
2AF
100
AcDbEntity
  8
0
  6
Continuous
 62
     8
100
AcDbLine
 10
483.52792
 20
219.838189
 30
0.0
 11
485.528008
 21
219.838189
 31
0.0
  0
LINE
  5
2B0
100
AcDbEntity
  8
0
  6
Continuous
 62
     8
100
AcDbLine
 10
491.527669
 20
219.838189
 30
0.0
 11
514.187307
 21
219.838189
 31
0.0
  0
ENDBLK
  5
2B1
100
AcDbEntity
  8
0
100
AcDbBlockEnd
  0
BLOCK
  5
2B4
100
AcDbEntity
  8
0
100
AcDbBlockBegin
  2
*B41
 70
     0
 10
0.0
 20
0.0
 30
0.0
  3
*B41
  1

  0
LINE
  5
2B5
100
AcDbEntity
  8
0
  6
Continuous
 62
     8
100
AcDbLine
 10
410.211029
 20
43.66567
 30
0.0
 11
410.211029
 21
61.351857
 31
0.0
  0
LINE
  5
2B6
100
AcDbEntity
  8
0
  6
Continuous
 62
     8
100
AcDbLine
 10
410.211029
 20
77.351354
 30
0.0
 11
410.211029
 21
95.038143
 31
0.0
  0
ENDBLK
  5
2B7
100
AcDbEntity
  8
0
100
AcDbBlockEnd
  0
BLOCK
  5
2BA
100
AcDbEntity
  8
0
100
AcDbBlockBegin
  2
*B42
 70
     0
 10
0.0
 20
0.0
 30
0.0
  3
*B42
  1

  0
LINE
  5
2BB
100
AcDbEntity
  8
0
  6
Continuous
 62
     8
100
AcDbLine
 10
429.897303
 20
329.333505
 30
0.0
 11
429.897303
 21
352.08638
 31
0.0
  0
ENDBLK
  5
2BC
100
AcDbEntity
  8
0
100
AcDbBlockEnd
  0
BLOCK
  5
2BF
100
AcDbEntity
  8
0
100
AcDbBlockBegin
  2
*B43
 70
     0
 10
0.0
 20
0.0
 30
0.0
  3
*B43
  1

  0
LINE
  5
2C0
100
AcDbEntity
  8
0
  6
Continuous
 62
     8
100
AcDbLine
 10
410.211029
 20
238.091619
 30
0.0
 11
410.211029
 21
242.091794
 31
0.0
  0
LINE
  5
2C1
100
AcDbEntity
  8
0
  6
Continuous
 62
     8
100
AcDbLine
 10
410.211029
 20
203.939147
 30
0.0
 11
410.211029
 21
211.839042
 31
0.0
  0
LINE
  5
2C2
100
AcDbEntity
  8
0
  6
Continuous
 62
     8
100
AcDbLine
 10
410.211029
 20
227.837937
 30
0.0
 11
410.211029
 21
238.091619
 31
0.0
  0
ENDBLK
  5
2C3
100
AcDbEntity
  8
0
100
AcDbBlockEnd
  0
BLOCK
  5
2C6
100
AcDbEntity
  8
0
100
AcDbBlockBegin
  2
*B44
 70
     0
 10
0.0
 20
0.0
 30
0.0
  3
*B44
  1

  0
LINE
  5
2C7
100
AcDbEntity
  8
0
  6
Continuous
 62
     8
100
AcDbLine
 10
390.524754
 20
329.333505
 30
0.0
 11
390.524754
 21
352.08638
 31
0.0
  0
ENDBLK
  5
2C8
100
AcDbEntity
  8
0
100
AcDbBlockEnd
  0
BLOCK
  5
2CB
100
AcDbEntity
  8
0
100
AcDbBlockBegin
  2
*B45
 70
     0
 10
0.0
 20
0.0
 30
0.0
  3
*B45
  1

  0
LINE
  5
2CC
100
AcDbEntity
  8
0
  6
Continuous
 62
     8
100
AcDbLine
 10
322.316657
 20
219.838189
 30
0.0
 11
330.21595
 21
219.838189
 31
0.0
  0
LINE
  5
2CD
100
AcDbEntity
  8
0
  6
Continuous
 62
     8
100
AcDbLine
 10
346.214845
 20
219.838189
 30
0.0
 11
354.11474
 21
219.838189
 31
0.0
  0
ENDBLK
  5
2CE
100
AcDbEntity
  8
0
100
AcDbBlockEnd
  0
BLOCK
  5
2D1
100
AcDbEntity
  8
0
100
AcDbBlockBegin
  2
*B46
 70
     0
 10
0.0
 20
0.0
 30
0.0
  3
*B46
  1

  0
LINE
  5
2D2
100
AcDbEntity
  8
0
  6
Continuous
 62
     8
100
AcDbLine
 10
338.215698
 20
43.66567
 30
0.0
 11
338.215698
 21
61.351857
 31
0.0
  0
LINE
  5
2D3
100
AcDbEntity
  8
0
  6
Continuous
 62
     8
100
AcDbLine
 10
338.215698
 20
77.351354
 30
0.0
 11
338.215698
 21
95.038143
 31
0.0
  0
ENDBLK
  5
2D4
100
AcDbEntity
  8
0
100
AcDbBlockEnd
  0
BLOCK
  5
2D7
100
AcDbEntity
  8
0
100
AcDbBlockBegin
  2
*B47
 70
     0
 10
0.0
 20
0.0
 30
0.0
  3
*B47
  1

  0
LINE
  5
2D8
100
AcDbEntity
  8
0
  6
Continuous
 62
     8
100
AcDbLine
 10
338.215698
 20
238.091619
 30
0.0
 11
338.215698
 21
242.091794
 31
0.0
  0
LINE
  5
2D9
100
AcDbEntity
  8
0
  6
Continuous
 62
     8
100
AcDbLine
 10
338.215698
 20
203.939147
 30
0.0
 11
338.215698
 21
211.839042
 31
0.0
  0
LINE
  5
2DA
100
AcDbEntity
  8
0
  6
Continuous
 62
     8
100
AcDbLine
 10
338.215698
 20
227.837937
 30
0.0
 11
338.215698
 21
238.091619
 31
0.0
  0
ENDBLK
  5
2DB
100
AcDbEntity
  8
0
100
AcDbBlockEnd
  0
BLOCK
  5
2DE
100
AcDbEntity
  8
0
100
AcDbBlockBegin
  2
*B48
 70
     0
 10
0.0
 20
0.0
 30
0.0
  3
*B48
  1

  0
LINE
  5
2DF
100
AcDbEntity
  8
0
  6
Continuous
 62
     8
100
AcDbLine
 10
338.215698
 20
372.085451
 30
0.0
 11
338.215698
 21
376.085024
 31
0.0
  0
LINE
  5
2E0
100
AcDbEntity
  8
0
  6
Continuous
 62
     8
100
AcDbLine
 10
338.215698
 20
281.335616
 30
0.0
 11
338.215698
 21
302.252621
 31
0.0
  0
LINE
  5
2E1
100
AcDbEntity
  8
0
  6
Continuous
 62
     8
100
AcDbLine
 10
338.215698
 20
308.252282
 30
0.0
 11
338.215698
 21
310.25237
 31
0.0
  0
LINE
  5
2E2
100
AcDbEntity
  8
0
  6
Continuous
 62
     8
100
AcDbLine
 10
338.215698
 20
316.252031
 30
0.0
 11
338.215698
 21
337.169036
 31
0.0
  0
LINE
  5
2E3
100
AcDbEntity
  8
0
  6
Continuous
 62
     8
100
AcDbLine
 10
338.215698
 20
343.168697
 30
0.0
 11
338.215698
 21
345.168785
 31
0.0
  0
LINE
  5
2E4
100
AcDbEntity
  8
0
  6
Continuous
 62
     8
100
AcDbLine
 10
338.215698
 20
351.168446
 30
0.0
 11
338.215698
 21
372.085451
 31
0.0
  0
ENDBLK
  5
2E5
100
AcDbEntity
  8
0
100
AcDbBlockEnd
  0
BLOCK
  5
2E8
100
AcDbEntity
  8
0
100
AcDbBlockBegin
  2
*B49
 70
     0
 10
0.0
 20
0.0
 30
0.0
  3
*B49
  1

  0
LINE
  5
2E9
100
AcDbEntity
  8
0
  6
Continuous
 62
     8
100
AcDbLine
 10
410.211029
 20
372.085451
 30
0.0
 11
410.211029
 21
376.085024
 31
0.0
  0
LINE
  5
2EA
100
AcDbEntity
  8
0
  6
Continuous
 62
     8
100
AcDbLine
 10
410.211029
 20
281.335616
 30
0.0
 11
410.211029
 21
302.252621
 31
0.0
  0
LINE
  5
2EB
100
AcDbEntity
  8
0
  6
Continuous
 62
     8
100
AcDbLine
 10
410.211029
 20
308.252282
 30
0.0
 11
410.211029
 21
310.25237
 31
0.0
  0
LINE
  5
2EC
100
AcDbEntity
  8
0
  6
Continuous
 62
     8
100
AcDbLine
 10
410.211029
 20
316.252031
 30
0.0
 11
410.211029
 21
337.169036
 31
0.0
  0
LINE
  5
2ED
100
AcDbEntity
  8
0
  6
Continuous
 62
     8
100
AcDbLine
 10
410.211029
 20
343.168697
 30
0.0
 11
410.211029
 21
345.168785
 31
0.0
  0
LINE
  5
2EE
100
AcDbEntity
  8
0
  6
Continuous
 62
     8
100
AcDbLine
 10
410.211029
 20
351.168446
 30
0.0
 11
410.211029
 21
372.085451
 31
0.0
  0
ENDBLK
  5
2EF
100
AcDbEntity
  8
0
100
AcDbBlockEnd
  0
BLOCK
  5
2F2
100
AcDbEntity
  8
0
100
AcDbBlockBegin
  2
*B50
 70
     0
 10
0.0
 20
0.0
 30
0.0
  3
*B50
  1

  0
LINE
  5
2F3
100
AcDbEntity
  8
0
  6
Continuous
 62
     8
100
AcDbLine
 10
135.728043
 20
52.102731
 30
0.0
 11
135.728043
 21
61.351857
 31
0.0
  0
LINE
  5
2F4
100
AcDbEntity
  8
0
  6
Continuous
 62
     8
100
AcDbLine
 10
135.728043
 20
77.351354
 30
0.0
 11
135.728043
 21
86.601082
 31
0.0
  0
ENDBLK
  5
2F5
100
AcDbEntity
  8
0
100
AcDbBlockEnd
  0
BLOCK
  5
2F8
100
AcDbEntity
  8
0
100
AcDbBlockBegin
  2
*B51
 70
     0
 10
0.0
 20
0.0
 30
0.0
  3
*B51
  1

  0
LINE
  5
2F9
100
AcDbEntity
  8
0
  6
Continuous
 62
     8
100
AcDbLine
 10
491.206452
 20
282.085724
 30
0.0
 11
491.206452
 21
352.08638
 31
0.0
  0
ENDBLK
  5
2FA
100
AcDbEntity
  8
0
100
AcDbBlockEnd
  0
BLOCK
  5
2FD
100
AcDbEntity
  8
0
100
AcDbBlockBegin
  2
*B52
 70
     0
 10
0.0
 20
0.0
 30
0.0
  3
*B52
  1

  0
LINE
  5
2FE
100
AcDbEntity
  8
0
  6
Continuous
 62
     6
100
AcDbLine
 10
133.727956
 20
69.351605
 30
0.0
 11
137.728131
 21
69.351605
 31
0.0
  0
LINE
  5
2FF
100
AcDbEntity
  8
0
  6
Continuous
 62
     6
100
AcDbLine
 10
135.728043
 20
67.352119
 30
0.0
 11
135.728043
 21
71.351693
 31
0.0
  0
ENDBLK
  5
300
100
AcDbEntity
  8
0
100
AcDbBlockEnd
  0
BLOCK
  5
303
100
AcDbEntity
  8
0
100
AcDbBlockBegin
  2
*B53
 70
     0
 10
0.0
 20
0.0
 30
0.0
  3
*B53
  1

  0
LINE
  5
304
100
AcDbEntity
  8
0
  6
Continuous
 62
     6
100
AcDbLine
 10
338.215698
 20
67.352119
 30
0.0
 11
338.215698
 21
71.351693
 31
0.0
  0
LINE
  5
305
100
AcDbEntity
  8
0
  6
Continuous
 62
     6
100
AcDbLine
 10
336.215611
 20
69.351605
 30
0.0
 11
340.215184
 21
69.351605
 31
0.0
  0
ENDBLK
  5
306
100
AcDbEntity
  8
0
100
AcDbBlockEnd
  0
BLOCK
  5
309
100
AcDbEntity
  8
0
100
AcDbBlockBegin
  2
*B54
 70
     0
 10
0.0
 20
0.0
 30
0.0
  3
*B54
  1

  0
LINE
  5
30A
100
AcDbEntity
  8
0
  6
Continuous
 62
     6
100
AcDbLine
 10
372.213577
 20
291.835324
 30
0.0
 11
376.21315
 21
291.835324
 31
0.0
  0
LINE
  5
30B
100
AcDbEntity
  8
0
  6
Continuous
 62
     6
100
AcDbLine
 10
374.213063
 20
289.835236
 30
0.0
 11
374.213063
 21
293.83481
 31
0.0
  0
ENDBLK
  5
30C
100
AcDbEntity
  8
0
100
AcDbBlockEnd
  0
BLOCK
  5
30F
100
AcDbEntity
  8
0
100
AcDbBlockBegin
  2
*B55
 70
     0
 10
0.0
 20
0.0
 30
0.0
  3
*B55
  1

  0
LINE
  5
310
100
AcDbEntity
  8
0
  6
Continuous
 62
     6
100
AcDbLine
 10
336.215611
 20
219.838189
 30
0.0
 11
340.215184
 21
219.838189
 31
0.0
  0
LINE
  5
311
100
AcDbEntity
  8
0
  6
Continuous
 62
     6
100
AcDbLine
 10
338.215698
 20
217.838703
 30
0.0
 11
338.215698
 21
221.838276
 31
0.0
  0
ENDBLK
  5
312
100
AcDbEntity
  8
0
100
AcDbBlockEnd
  0
BLOCK
  5
315
100
AcDbEntity
  8
0
100
AcDbBlockBegin
  2
*B56
 70
     0
 10
0.0
 20
0.0
 30
0.0
  3
*B56
  1

  0
LINE
  5
316
100
AcDbEntity
  8
0
  6
Continuous
 62
     6
100
AcDbLine
 10
243.721339
 20
67.352119
 30
0.0
 11
243.721339
 21
71.351693
 31
0.0
  0
LINE
  5
317
100
AcDbEntity
  8
0
  6
Continuous
 62
     6
100
AcDbLine
 10
241.721251
 20
69.351605
 30
0.0
 11
245.721426
 21
69.351605
 31
0.0
  0
ENDBLK
  5
318
100
AcDbEntity
  8
0
100
AcDbBlockEnd
  0
BLOCK
  5
31B
100
AcDbEntity
  8
0
100
AcDbBlockBegin
  2
*B57
 70
     0
 10
0.0
 20
0.0
 30
0.0
  3
*B57
  1

  0
LINE
  5
31C
100
AcDbEntity
  8
0
  6
Continuous
 62
     6
100
AcDbLine
 10
410.211029
 20
67.352119
 30
0.0
 11
410.211029
 21
71.351693
 31
0.0
  0
LINE
  5
31D
100
AcDbEntity
  8
0
  6
Continuous
 62
     6
100
AcDbLine
 10
408.211543
 20
69.351605
 30
0.0
 11
412.211116
 21
69.351605
 31
0.0
  0
ENDBLK
  5
31E
100
AcDbEntity
  8
0
100
AcDbBlockEnd
  0
BLOCK
  5
321
100
AcDbEntity
  8
0
100
AcDbBlockBegin
  2
*B58
 70
     0
 10
0.0
 20
0.0
 30
0.0
  3
*B58
  1

  0
LINE
  5
322
100
AcDbEntity
  8
0
  6
Continuous
 62
     6
100
AcDbLine
 10
408.211543
 20
219.838189
 30
0.0
 11
412.211116
 21
219.838189
 31
0.0
  0
LINE
  5
323
100
AcDbEntity
  8
0
  6
Continuous
 62
     6
100
AcDbLine
 10
410.211029
 20
217.838703
 30
0.0
 11
410.211029
 21
221.838276
 31
0.0
  0
ENDBLK
  5
324
100
AcDbEntity
  8
0
100
AcDbBlockEnd
  0
BLOCK
  5
327
100
AcDbEntity
  8
0
100
AcDbBlockBegin
  2
*B59
 70
     0
 10
0.0
 20
0.0
 30
0.0
  3
*B59
  1

  0
LINE
  5
328
100
AcDbEntity
  8
0
  6
Continuous
 62
     0
100
AcDbLine
 10
288.748873
 20
269.340505
 30
0.0
 11
318.214222
 21
269.340505
 31
0.0
  0
LINE
  5
329
100
AcDbEntity
  8
0
  6
Continuous
 62
     0
100
AcDbLine
 10
318.214222
 20
269.340505
 30
0.0
 11
334.506664
 21
229.016936
 31
0.0
  0
SOLID
  5
32A
100
AcDbEntity
  8
0
  6
Continuous
 62
     0
100
AcDbTrace
 10
328.906419
 20
237.538813
 30
0.0
 11
334.506664
 21
229.016936
 31
0.0
 12
332.614852
 22
239.037224
 32
0.0
 13
332.614852
 23
239.037224
 33
0.0
  0
ENDBLK
  5
32B
100
AcDbEntity
  8
0
100
AcDbBlockEnd
  0
BLOCK
  5
32E
100
AcDbEntity
  8
0
100
AcDbBlockBegin
  2
*B60
 70
     0
 10
0.0
 20
0.0
 30
0.0
  3
*B60
  1

  0
TEXT
  5
32F
100
AcDbEntity
  8
TEXT
  6
Continuous
 62
     0
100
AcDbText
 10
463.531599
 20
252.0
 30
0.0
 40
12.0
  1
12
100
AcDbText
  0
ENDBLK
  5
330
100
AcDbEntity
  8
0
100
AcDbBlockEnd
  0
BLOCK
  5
333
100
AcDbEntity
  8
0
100
AcDbBlockBegin
  2
*B61
 70
     0
 10
0.0
 20
0.0
 30
0.0
  3
*B61
  1

  0
TEXT
  5
334
100
AcDbEntity
  8
TEXT
  6
Continuous
 62
     0
100
AcDbText
 10
441.765799
 20
200.0
 30
0.0
 40
12.0
  1
3
100
AcDbText
  0
ENDBLK
  5
335
100
AcDbEntity
  8
0
100
AcDbBlockEnd
  0
BLOCK
  5
338
100
AcDbEntity
  8
0
100
AcDbBlockBegin
  2
*B62
 70
     0
 10
0.0
 20
0.0
 30
0.0
  3
*B62
  1

  0
TEXT
  5
339
100
AcDbEntity
  8
TEXT
  6
Continuous
 62
     0
100
AcDbText
 10
405.765799
 20
304.0
 30
0.0
 40
12.0
  1
2
100
AcDbText
  0
ENDBLK
  5
33A
100
AcDbEntity
  8
0
100
AcDbBlockEnd
  0
BLOCK
  5
33D
100
AcDbEntity
  8
0
100
AcDbBlockBegin
  2
*B63
 70
     0
 10
0.0
 20
0.0
 30
0.0
  3
*B63
  1

  0
TEXT
  5
33E
100
AcDbEntity
  8
TEXT
  6
Continuous
 62
     0
100
AcDbText
 10
368.765799
 20
199.0
 30
0.0
 40
12.0
  1
1
100
AcDbText
  0
ENDBLK
  5
33F
100
AcDbEntity
  8
0
100
AcDbBlockEnd
  0
BLOCK
  5
342
100
AcDbEntity
  8
0
100
AcDbBlockBegin
  2
*B64
 70
     0
 10
0.0
 20
0.0
 30
0.0
  3
*B64
  1

  0
TEXT
  5
343
100
AcDbEntity
  8
TEXT
  6
Continuous
 62
     0
100
AcDbText
 10
267.531599
 20
252.0
 30
0.0
 40
12.0
  1
14
100
AcDbText
  0
ENDBLK
  5
344
100
AcDbEntity
  8
0
100
AcDbBlockEnd
  0
BLOCK
  5
347
100
AcDbEntity
  8
0
100
AcDbBlockBegin
  2
*B65
 70
     0
 10
0.0
 20
0.0
 30
0.0
  3
*B65
  1

  0
TEXT
  5
348
100
AcDbEntity
  8
TEXT
  6
Continuous
 62
     0
100
AcDbText
 10
297.765799
 20
199.0
 30
0.0
 40
12.0
  1
5
100
AcDbText
  0
ENDBLK
  5
349
100
AcDbEntity
  8
0
100
AcDbBlockEnd
  0
BLOCK
  5
34C
100
AcDbEntity
  8
0
100
AcDbBlockBegin
  2
*B66
 70
     0
 10
0.0
 20
0.0
 30
0.0
  3
*B66
  1

  0
TEXT
  5
34D
100
AcDbEntity
  8
TEXT
  6
Continuous
 62
     0
100
AcDbText
 10
333.765799
 20
305.0
 30
0.0
 40
12.0
  1
4
100
AcDbText
  0
ENDBLK
  5
34E
100
AcDbEntity
  8
0
100
AcDbBlockEnd
  0
BLOCK
  5
351
100
AcDbEntity
  8
0
100
AcDbBlockBegin
  2
*B67
 70
     0
 10
0.0
 20
0.0
 30
0.0
  3
*B67
  1

  0
TEXT
  5
352
100
AcDbEntity
  8
TEXT
  6
Continuous
 62
     0
100
AcDbText
 10
288.766667
 20
274.5
 30
0.0
 40
7.0
  1
%%c4,4
100
AcDbText
  0
ENDBLK
  5
353
100
AcDbEntity
  8
0
100
AcDbBlockEnd
  0
BLOCK
  5
356
100
AcDbEntity
  8
0
100
AcDbBlockBegin
  2
*B68
 70
     0
 10
0.0
 20
0.0
 30
0.0
  3
*B68
  1

  0
TEXT
  5
357
100
AcDbEntity
  8
TEXT
  6
Continuous
 62
     0
100
AcDbText
 10
168.380297
 20
141.0
 30
0.0
 40
14.0
  1
180%%d
100
AcDbText
  0
ENDBLK
  5
358
100
AcDbEntity
  8
0
100
AcDbBlockEnd
  0
BLOCK
  5
35B
100
AcDbEntity
  8
0
100
AcDbBlockBegin
  2
*B69
 70
     0
 10
0.0
 20
0.0
 30
0.0
  3
*B69
  1

  0
TEXT
  5
35C
100
AcDbEntity
  8
TEXT
  6
Continuous
 62
     0
100
AcDbText
 10
94.380297
 20
161.0
 30
0.0
 40
14.0
  1
180%%d
100
AcDbText
  0
ENDBLK
  5
35D
100
AcDbEntity
  8
0
100
AcDbBlockEnd
  0
BLOCK
  5
360
100
AcDbEntity
  8
0
100
AcDbBlockBegin
  2
*B70
 70
     0
 10
0.0
 20
0.0
 30
0.0
  3
*B70
  1

  0
TEXT
  5
361
100
AcDbEntity
  8
TEXT
  6
Continuous
 62
     0
100
AcDbText
 10
441.819532
 20
377.5
 30
0.0
 40
7.0
  1
17
100
AcDbText
  0
ENDBLK
  5
362
100
AcDbEntity
  8
0
100
AcDbBlockEnd
  0
BLOCK
  5
365
100
AcDbEntity
  8
0
100
AcDbBlockBegin
  2
*B71
 70
     0
 10
0.0
 20
0.0
 30
0.0
  3
*B71
  1

  0
TEXT
  5
366
100
AcDbEntity
  8
TEXT
  6
Continuous
 62
     0
100
AcDbText
 10
367.569532
 20
377.5
 30
0.0
 40
7.0
  1
16
100
AcDbText
  0
ENDBLK
  5
367
100
AcDbEntity
  8
0
100
AcDbBlockEnd
  0
BLOCK
  5
36A
100
AcDbEntity
  8
0
100
AcDbBlockBegin
  2
*B72
 70
     0
 10
0.0
 20
0.0
 30
0.0
  3
*B72
  1

  0
TEXT
  5
36B
100
AcDbEntity
  8
TEXT
  6
Continuous
 62
     0
100
AcDbText
 10
463.152865
 20
163.5
 30
0.0
 40
7.0
  1
9
100
AcDbText
  0
ENDBLK
  5
36C
100
AcDbEntity
  8
0
100
AcDbBlockEnd
  0
BLOCK
  5
36F
100
AcDbEntity
  8
0
100
AcDbBlockBegin
  2
*B73
 70
     0
 10
0.0
 20
0.0
 30
0.0
  3
*B73
  1

  0
TEXT
  5
370
100
AcDbEntity
  8
TEXT
  6
Continuous
 62
     0
100
AcDbText
 10
403.569532
 20
163.5
 30
0.0
 40
7.0
  1
16
100
AcDbText
  0
ENDBLK
  5
371
100
AcDbEntity
  8
0
100
AcDbBlockEnd
  0
BLOCK
  5
374
100
AcDbEntity
  8
0
100
AcDbBlockBegin
  2
*B74
 70
     0
 10
0.0
 20
0.0
 30
0.0
  3
*B74
  1

  0
TEXT
  5
375
100
AcDbEntity
  8
TEXT
  6
Continuous
 62
     0
100
AcDbText
 10
331.569532
 20
163.5
 30
0.0
 40
7.0
  1
16
100
AcDbText
  0
ENDBLK
  5
376
100
AcDbEntity
  8
0
100
AcDbBlockEnd
  0
BLOCK
  5
379
100
AcDbEntity
  8
0
100
AcDbBlockBegin
  2
*B75
 70
     0
 10
0.0
 20
0.0
 30
0.0
  3
*B75
  1

  0
TEXT
  5
37A
100
AcDbEntity
  8
TEXT
  6
Continuous
 62
     0
100
AcDbText
 10
367.569532
 20
139.5
 30
0.0
 40
7.0
  1
50
100
AcDbText
  0
ENDBLK
  5
37B
100
AcDbEntity
  8
0
100
AcDbBlockEnd
  0
BLOCK
  5
37E
100
AcDbEntity
  8
0
100
AcDbBlockBegin
  2
*B76
 70
     0
 10
0.0
 20
0.0
 30
0.0
  3
*B76
  1

  0
TEXT
  5
37F
100
AcDbEntity
  8
TEXT
  6
Continuous
 62
     0
100
AcDbText
 10
539.619421
 20
249.079155
 30
0.0
 40
7.0
  1
30
 50
90.0
100
AcDbText
  0
ENDBLK
  5
380
100
AcDbEntity
  8
0
100
AcDbBlockEnd
  0
BLOCK
  5
383
100
AcDbEntity
  8
0
100
AcDbBlockBegin
  2
*B77
 70
     0
 10
0.0
 20
0.0
 30
0.0
  3
*B77
  1

  0
TEXT
  5
384
100
AcDbEntity
  8
TEXT
  6
Continuous
 62
     0
100
AcDbText
 10
512.718598
 20
249.079155
 30
0.0
 40
7.0
  1
16
 50
90.0
100
AcDbText
  0
ENDBLK
  5
385
100
AcDbEntity
  8
0
100
AcDbBlockEnd
  0
BLOCK
  5
388
100
AcDbEntity
  8
0
100
AcDbBlockBegin
  2
*B78
 70
     0
 10
0.0
 20
0.0
 30
0.0
  3
*B78
  1

  0
TEXT
  5
389
100
AcDbEntity
  8
TEXT
  6
Continuous
 62
     0
100
AcDbText
 10
367.569532
 20
243.5
 30
0.0
 40
7.0
  1
16
100
AcDbText
  0
ENDBLK
  5
38A
100
AcDbEntity
  8
0
100
AcDbBlockEnd
  0
BLOCK
  5
38D
100
AcDbEntity
  8
0
100
AcDbBlockBegin
  2
*B79
 70
     0
 10
0.0
 20
0.0
 30
0.0
  3
*B79
  1

  0
TEXT
  5
38E
100
AcDbEntity
  8
TEXT
  6
Continuous
 62
     0
100
AcDbText
 10
343.5
 20
353.5
 30
0.0
 40
7.0
  1
G1/8"
100
AcDbText
  0
ENDBLK
  5
38F
100
AcDbEntity
  8
0
100
AcDbBlockEnd
  0
BLOCK
  5
392
100
AcDbEntity
  8
0
100
AcDbBlockBegin
  2
*B80
 70
     0
 10
0.0
 20
0.0
 30
0.0
  3
*B80
  1

  0
TEXT
  5
393
100
AcDbEntity
  8
TEXT
  6
Continuous
 62
     0
100
AcDbText
 10
505.979167
 20
353.5
 30
0.0
 40
7.0
  1
1
100
AcDbText
  0
ENDBLK
  5
394
100
AcDbEntity
  8
0
100
AcDbBlockEnd
  0
BLOCK
  5
397
100
AcDbEntity
  8
0
100
AcDbBlockBegin
  2
*B81
 70
     0
 10
0.0
 20
0.0
 30
0.0
  3
*B81
  1

  0
TEXT
  5
398
100
AcDbEntity
  8
TEXT
  6
Continuous
 62
     0
100
AcDbText
 10
286.569532
 20
401.5
 30
0.0
 40
7.0
  1
86
100
AcDbText
  0
ENDBLK
  5
399
100
AcDbEntity
  8
0
100
AcDbBlockEnd
  0
BLOCK
  5
39C
100
AcDbEntity
  8
0
100
AcDbBlockBegin
  2
*B82
 70
     0
 10
0.0
 20
0.0
 30
0.0
  3
*B82
  1

  0
TEXT
  5
39D
100
AcDbEntity
  8
TEXT
  6
Continuous
 62
     0
100
AcDbText
 10
72.5
 20
62.585488
 30
0.0
 40
7.0
  1
16
 50
90.0
100
AcDbText
  0
ENDBLK
  5
39E
100
AcDbEntity
  8
0
100
AcDbBlockEnd
  0
BLOCK
  5
3A1
100
AcDbEntity
  8
0
100
AcDbBlockBegin
  2
*B83
 70
     0
 10
0.0
 20
0.0
 30
0.0
  3
*B83
  1

  0
TEXT
  5
3A2
100
AcDbEntity
  8
TEXT
  6
Continuous
 62
     0
100
AcDbText
 10
72.5
 20
258.079155
 30
0.0
 40
7.0
  1
26
 50
90.0
100
AcDbText
  0
ENDBLK
  5
3A3
100
AcDbEntity
  8
0
100
AcDbBlockEnd
  0
BLOCK
  5
3A6
100
AcDbEntity
  8
0
100
AcDbBlockBegin
  2
*B84
 70
     0
 10
0.0
 20
0.0
 30
0.0
  3
*B84
  1

  0
TEXT
  5
3A7
100
AcDbEntity
  8
TEXT
  6
Continuous
 62
     0
100
AcDbText
 10
72.5
 20
193.912488
 30
0.0
 40
7.0
  1
4
 50
90.0
100
AcDbText
  0
ENDBLK
  5
3A8
100
AcDbEntity
  8
0
100
AcDbBlockEnd
  0
ENDSEC
  0
SECTION
  2
ENTITIES
  0
INSERT
  5
131
100
AcDbEntity
  8
0
  6
Continuous
 62
   174
100
AcDbBlockReference
  2
*B1
 10
0.0
 20
0.0
 30
0.0
  0
INSERT
  5
17F
100
AcDbEntity
  8
0
  6
Continuous
 62
   174
100
AcDbBlockReference
  2
*B2
 10
0.0
 20
0.0
 30
0.0
  0
INSERT
  5
185
100
AcDbEntity
  8
0
  6
Continuous
 62
   172
100
AcDbBlockReference
  2
*B3
 10
0.0
 20
0.0
 30
0.0
  0
INSERT
  5
190
100
AcDbEntity
  8
0
  6
Continuous
 62
   172
100
AcDbBlockReference
  2
*B4
 10
0.0
 20
0.0
 30
0.0
  0
INSERT
  5
199
100
AcDbEntity
  8
0
  6
Continuous
 62
   172
100
AcDbBlockReference
  2
*B6
 10
0.0
 20
0.0
 30
0.0
  0
INSERT
  5
1A4
100
AcDbEntity
  8
0
  6
Continuous
 62
   172
100
AcDbBlockReference
  2
*B7
 10
0.0
 20
0.0
 30
0.0
  0
INSERT
  5
1AE
100
AcDbEntity
  8
0
  6
Continuous
 62
     0
100
AcDbBlockReference
  2
*B9
 10
0.0
 20
0.0
 30
0.0
  0
INSERT
  5
1B5
100
AcDbEntity
  8
0
  6
Continuous
 62
     0
100
AcDbBlockReference
  2
*B10
 10
0.0
 20
0.0
 30
0.0
  0
INSERT
  5
1BC
100
AcDbEntity
  8
0
  6
Continuous
 62
     0
100
AcDbBlockReference
  2
*B11
 10
0.0
 20
0.0
 30
0.0
  0
INSERT
  5
1C3
100
AcDbEntity
  8
0
  6
Continuous
 62
     0
100
AcDbBlockReference
  2
*B12
 10
0.0
 20
0.0
 30
0.0
  0
INSERT
  5
1CA
100
AcDbEntity
  8
0
  6
Continuous
 62
     0
100
AcDbBlockReference
  2
*B13
 10
0.0
 20
0.0
 30
0.0
  0
INSERT
  5
1D1
100
AcDbEntity
  8
0
  6
Continuous
 62
     0
100
AcDbBlockReference
  2
*B14
 10
0.0
 20
0.0
 30
0.0
  0
INSERT
  5
1D8
100
AcDbEntity
  8
0
  6
Continuous
 62
     0
100
AcDbBlockReference
  2
*B15
 10
0.0
 20
0.0
 30
0.0
  0
INSERT
  5
1DF
100
AcDbEntity
  8
0
  6
Continuous
 62
     0
100
AcDbBlockReference
  2
*B16
 10
0.0
 20
0.0
 30
0.0
  0
INSERT
  5
1E6
100
AcDbEntity
  8
0
  6
Continuous
 62
     0
100
AcDbBlockReference
  2
*B17
 10
0.0
 20
0.0
 30
0.0
  0
INSERT
  5
1ED
100
AcDbEntity
  8
0
  6
Continuous
 62
     0
100
AcDbBlockReference
  2
*B18
 10
0.0
 20
0.0
 30
0.0
  0
INSERT
  5
1F4
100
AcDbEntity
  8
0
  6
Continuous
 62
     0
100
AcDbBlockReference
  2
*B19
 10
0.0
 20
0.0
 30
0.0
  0
INSERT
  5
1FB
100
AcDbEntity
  8
0
  6
Continuous
 62
     0
100
AcDbBlockReference
  2
*B20
 10
0.0
 20
0.0
 30
0.0
  0
INSERT
  5
202
100
AcDbEntity
  8
0
  6
Continuous
 62
     0
100
AcDbBlockReference
  2
*B21
 10
0.0
 20
0.0
 30
0.0
  0
INSERT
  5
209
100
AcDbEntity
  8
0
  6
Continuous
 62
     0
100
AcDbBlockReference
  2
*B22
 10
0.0
 20
0.0
 30
0.0
  0
INSERT
  5
210
100
AcDbEntity
  8
0
  6
Continuous
 62
     0
100
AcDbBlockReference
  2
*B23
 10
0.0
 20
0.0
 30
0.0
  0
INSERT
  5
215
100
AcDbEntity
  8
0
  6
Continuous
 62
     8
100
AcDbBlockReference
  2
*B24
 10
0.0
 20
0.0
 30
0.0
  0
INSERT
  5
21A
100
AcDbEntity
  8
0
  6
Continuous
 62
     8
100
AcDbBlockReference
  2
*B25
 10
0.0
 20
0.0
 30
0.0
  0
INSERT
  5
239
100
AcDbEntity
  8
0
  6
Continuous
 62
     8
100
AcDbBlockReference
  2
*B26
 10
0.0
 20
0.0
 30
0.0
  0
INSERT
  5
23F
100
AcDbEntity
  8
0
  6
Continuous
 62
     8
100
AcDbBlockReference
  2
*B27
 10
0.0
 20
0.0
 30
0.0
  0
INSERT
  5
247
100
AcDbEntity
  8
0
  6
Continuous
 62
     8
100
AcDbBlockReference
  2
*B28
 10
0.0
 20
0.0
 30
0.0
  0
INSERT
  5
24D
100
AcDbEntity
  8
0
  6
Continuous
 62
     8
100
AcDbBlockReference
  2
*B29
 10
0.0
 20
0.0
 30
0.0
  0
INSERT
  5
252
100
AcDbEntity
  8
0
  6
Continuous
 62
     8
100
AcDbBlockReference
  2
*B30
 10
0.0
 20
0.0
 30
0.0
  0
INSERT
  5
25F
100
AcDbEntity
  8
0
  6
Continuous
 62
     8
100
AcDbBlockReference
  2
*B31
 10
0.0
 20
0.0
 30
0.0
  0
INSERT
  5
264
100
AcDbEntity
  8
0
  6
Continuous
 62
     8
100
AcDbBlockReference
  2
*B32
 10
0.0
 20
0.0
 30
0.0
  0
INSERT
  5
26C
100
AcDbEntity
  8
0
  6
Continuous
 62
     8
100
AcDbBlockReference
  2
*B33
 10
0.0
 20
0.0
 30
0.0
  0
INSERT
  5
271
100
AcDbEntity
  8
0
  6
Continuous
 62
     8
100
AcDbBlockReference
  2
*B34
 10
0.0
 20
0.0
 30
0.0
  0
INSERT
  5
276
100
AcDbEntity
  8
0
  6
Continuous
 62
     8
100
AcDbBlockReference
  2
*B35
 10
0.0
 20
0.0
 30
0.0
  0
INSERT
  5
27B
100
AcDbEntity
  8
0
  6
Continuous
 62
     8
100
AcDbBlockReference
  2
*B36
 10
0.0
 20
0.0
 30
0.0
  0
INSERT
  5
28A
100
AcDbEntity
  8
0
  6
Continuous
 62
     8
100
AcDbBlockReference
  2
*B37
 10
0.0
 20
0.0
 30
0.0
  0
INSERT
  5
2A1
100
AcDbEntity
  8
0
  6
Continuous
 62
     8
100
AcDbBlockReference
  2
*B38
 10
0.0
 20
0.0
 30
0.0
  0
INSERT
  5
2A7
100
AcDbEntity
  8
0
  6
Continuous
 62
     8
100
AcDbBlockReference
  2
*B39
 10
0.0
 20
0.0
 30
0.0
  0
INSERT
  5
2B2
100
AcDbEntity
  8
0
  6
Continuous
 62
     8
100
AcDbBlockReference
  2
*B40
 10
0.0
 20
0.0
 30
0.0
  0
INSERT
  5
2B8
100
AcDbEntity
  8
0
  6
Continuous
 62
     8
100
AcDbBlockReference
  2
*B41
 10
0.0
 20
0.0
 30
0.0
  0
INSERT
  5
2BD
100
AcDbEntity
  8
0
  6
Continuous
 62
     8
100
AcDbBlockReference
  2
*B42
 10
0.0
 20
0.0
 30
0.0
  0
INSERT
  5
2C4
100
AcDbEntity
  8
0
  6
Continuous
 62
     8
100
AcDbBlockReference
  2
*B43
 10
0.0
 20
0.0
 30
0.0
  0
INSERT
  5
2C9
100
AcDbEntity
  8
0
  6
Continuous
 62
     8
100
AcDbBlockReference
  2
*B44
 10
0.0
 20
0.0
 30
0.0
  0
INSERT
  5
2CF
100
AcDbEntity
  8
0
  6
Continuous
 62
     8
100
AcDbBlockReference
  2
*B45
 10
0.0
 20
0.0
 30
0.0
  0
INSERT
  5
2D5
100
AcDbEntity
  8
0
  6
Continuous
 62
     8
100
AcDbBlockReference
  2
*B46
 10
0.0
 20
0.0
 30
0.0
  0
INSERT
  5
2DC
100
AcDbEntity
  8
0
  6
Continuous
 62
     8
100
AcDbBlockReference
  2
*B47
 10
0.0
 20
0.0
 30
0.0
  0
INSERT
  5
2E6
100
AcDbEntity
  8
0
  6
Continuous
 62
     8
100
AcDbBlockReference
  2
*B48
 10
0.0
 20
0.0
 30
0.0
  0
INSERT
  5
2F0
100
AcDbEntity
  8
0
  6
Continuous
 62
     8
100
AcDbBlockReference
  2
*B49
 10
0.0
 20
0.0
 30
0.0
  0
INSERT
  5
2F6
100
AcDbEntity
  8
0
  6
Continuous
 62
     8
100
AcDbBlockReference
  2
*B50
 10
0.0
 20
0.0
 30
0.0
  0
INSERT
  5
2FB
100
AcDbEntity
  8
0
  6
Continuous
 62
     8
100
AcDbBlockReference
  2
*B51
 10
0.0
 20
0.0
 30
0.0
  0
INSERT
  5
301
100
AcDbEntity
  8
0
  6
Continuous
 62
     6
100
AcDbBlockReference
  2
*B52
 10
0.0
 20
0.0
 30
0.0
  0
INSERT
  5
307
100
AcDbEntity
  8
0
  6
Continuous
 62
     6
100
AcDbBlockReference
  2
*B53
 10
0.0
 20
0.0
 30
0.0
  0
INSERT
  5
30D
100
AcDbEntity
  8
0
  6
Continuous
 62
     6
100
AcDbBlockReference
  2
*B54
 10
0.0
 20
0.0
 30
0.0
  0
INSERT
  5
313
100
AcDbEntity
  8
0
  6
Continuous
 62
     6
100
AcDbBlockReference
  2
*B55
 10
0.0
 20
0.0
 30
0.0
  0
INSERT
  5
319
100
AcDbEntity
  8
0
  6
Continuous
 62
     6
100
AcDbBlockReference
  2
*B56
 10
0.0
 20
0.0
 30
0.0
  0
INSERT
  5
31F
100
AcDbEntity
  8
0
  6
Continuous
 62
     6
100
AcDbBlockReference
  2
*B57
 10
0.0
 20
0.0
 30
0.0
  0
INSERT
  5
325
100
AcDbEntity
  8
0
  6
Continuous
 62
     6
100
AcDbBlockReference
  2
*B58
 10
0.0
 20
0.0
 30
0.0
  0
INSERT
  5
32C
100
AcDbEntity
  8
0
  6
Continuous
 62
     0
100
AcDbBlockReference
  2
*B59
 10
0.0
 20
0.0
 30
0.0
  0
INSERT
  5
331
100
AcDbEntity
  8
TEXT
  6
Continuous
 62
     0
100
AcDbBlockReference
  2
*B60
 10
0.0
 20
0.0
 30
0.0
  0
INSERT
  5
336
100
AcDbEntity
  8
TEXT
  6
Continuous
 62
     0
100
AcDbBlockReference
  2
*B61
 10
0.0
 20
0.0
 30
0.0
  0
INSERT
  5
33B
100
AcDbEntity
  8
TEXT
  6
Continuous
 62
     0
100
AcDbBlockReference
  2
*B62
 10
0.0
 20
0.0
 30
0.0
  0
INSERT
  5
340
100
AcDbEntity
  8
TEXT
  6
Continuous
 62
     0
100
AcDbBlockReference
  2
*B63
 10
0.0
 20
0.0
 30
0.0
  0
INSERT
  5
345
100
AcDbEntity
  8
TEXT
  6
Continuous
 62
     0
100
AcDbBlockReference
  2
*B64
 10
0.0
 20
0.0
 30
0.0
  0
INSERT
  5
34A
100
AcDbEntity
  8
TEXT
  6
Continuous
 62
     0
100
AcDbBlockReference
  2
*B65
 10
0.0
 20
0.0
 30
0.0
  0
INSERT
  5
34F
100
AcDbEntity
  8
TEXT
  6
Continuous
 62
     0
100
AcDbBlockReference
  2
*B66
 10
0.0
 20
0.0
 30
0.0
  0
INSERT
  5
354
100
AcDbEntity
  8
TEXT
  6
Continuous
 62
     0
100
AcDbBlockReference
  2
*B67
 10
0.0
 20
0.0
 30
0.0
  0
INSERT
  5
359
100
AcDbEntity
  8
TEXT
  6
Continuous
 62
     0
100
AcDbBlockReference
  2
*B68
 10
0.0
 20
0.0
 30
0.0
  0
INSERT
  5
35E
100
AcDbEntity
  8
TEXT
  6
Continuous
 62
     0
100
AcDbBlockReference
  2
*B69
 10
0.0
 20
0.0
 30
0.0
  0
INSERT
  5
363
100
AcDbEntity
  8
TEXT
  6
Continuous
 62
     0
100
AcDbBlockReference
  2
*B70
 10
0.0
 20
0.0
 30
0.0
  0
INSERT
  5
368
100
AcDbEntity
  8
TEXT
  6
Continuous
 62
     0
100
AcDbBlockReference
  2
*B71
 10
0.0
 20
0.0
 30
0.0
  0
INSERT
  5
36D
100
AcDbEntity
  8
TEXT
  6
Continuous
 62
     0
100
AcDbBlockReference
  2
*B72
 10
0.0
 20
0.0
 30
0.0
  0
INSERT
  5
372
100
AcDbEntity
  8
TEXT
  6
Continuous
 62
     0
100
AcDbBlockReference
  2
*B73
 10
0.0
 20
0.0
 30
0.0
  0
INSERT
  5
377
100
AcDbEntity
  8
TEXT
  6
Continuous
 62
     0
100
AcDbBlockReference
  2
*B74
 10
0.0
 20
0.0
 30
0.0
  0
INSERT
  5
37C
100
AcDbEntity
  8
TEXT
  6
Continuous
 62
     0
100
AcDbBlockReference
  2
*B75
 10
0.0
 20
0.0
 30
0.0
  0
INSERT
  5
381
100
AcDbEntity
  8
TEXT
  6
Continuous
 62
     0
100
AcDbBlockReference
  2
*B76
 10
0.0
 20
0.0
 30
0.0
  0
INSERT
  5
386
100
AcDbEntity
  8
TEXT
  6
Continuous
 62
     0
100
AcDbBlockReference
  2
*B77
 10
0.0
 20
0.0
 30
0.0
  0
INSERT
  5
38B
100
AcDbEntity
  8
TEXT
  6
Continuous
 62
     0
100
AcDbBlockReference
  2
*B78
 10
0.0
 20
0.0
 30
0.0
  0
INSERT
  5
390
100
AcDbEntity
  8
TEXT
  6
Continuous
 62
     0
100
AcDbBlockReference
  2
*B79
 10
0.0
 20
0.0
 30
0.0
  0
INSERT
  5
395
100
AcDbEntity
  8
TEXT
  6
Continuous
 62
     0
100
AcDbBlockReference
  2
*B80
 10
0.0
 20
0.0
 30
0.0
  0
INSERT
  5
39A
100
AcDbEntity
  8
TEXT
  6
Continuous
 62
     0
100
AcDbBlockReference
  2
*B81
 10
0.0
 20
0.0
 30
0.0
  0
INSERT
  5
39F
100
AcDbEntity
  8
TEXT
  6
Continuous
 62
     0
100
AcDbBlockReference
  2
*B82
 10
0.0
 20
0.0
 30
0.0
  0
INSERT
  5
3A4
100
AcDbEntity
  8
TEXT
  6
Continuous
 62
     0
100
AcDbBlockReference
  2
*B83
 10
0.0
 20
0.0
 30
0.0
  0
INSERT
  5
3A9
100
AcDbEntity
  8
TEXT
  6
Continuous
 62
     0
100
AcDbBlockReference
  2
*B84
 10
0.0
 20
0.0
 30
0.0
  0
ENDSEC
  0
SECTION
  2
OBJECTS
  0
DICTIONARY
  5
19
100
AcDbDictionary
280
     0
281
     1
  3
ACAD_GROUP
350
1A
  3
ACAD_MLINESTYLE
350
1B
  3
ACAD_LAYOUT
350
1E
  3
ACAD_PLOTSETTINGS
350
22
  3
ACAD_PLOTSTYLENAME
350
1F
  3
ACAD_WIPEOUT_VARS
350
23
  0
DICTIONARY
  5
1A
102
{ACAD_REACTORS
330
19
102
}
100
AcDbDictionary
280
     0
281
     1
  0
DICTIONARY
  5
1B
102
{ACAD_REACTORS
330
19
102
}
100
AcDbDictionary
280
     0
281
     1
  3
Standard
350
1C
  0
MLINESTYLE
  5
1C
102
{ACAD_REACTORS
330
1B
102
}
100
AcDbMlineStyle
  2
Standard
 70
     0
  3

 62
     0
 51
90.0
 52
90.0
 71
     2
 49
0.5
 62
   256
  6
BYLAYER
 49
-0.5
 62
   256
  6
BYLAYER
  0
ACDBDICTIONARYWDFLT
  5
1F
102
{ACAD_REACTORS
330
19
102
}
100
AcDbDictionary
281
     1
  3
Normal
350
1D
100
AcDbDictionaryWithDefault
340
1D
  0
ACDBPLACEHOLDER
  5
1D
102
{ACAD_REACTORS
330
1F
102
}
  0
LAYOUT
  5
20
102
{ACAD_REACTORS
330
1E
102
}
100
AcDbPlotSettings
  1

  2

  4

  6

 40
0.0
 41
0.0
 42
0.0
 43
0.0
 44
0.0
 45
0.0
 46
0.0
 47
0.0
 48
0.0
 49
0.0
140
0.0
141
0.0
142
1.0
143
1.0
 70
     0
 72
     0
 73
     0
 74
     0
  7

 75
     0
147
1.0
148
0.0
149
0.0
100
AcDbLayout
  1
Model
 70
     0
 71
     0
 10
0.0
 20
0.0
 11
0.0
 21
0.0
 12
0.0
 22
0.0
 32
0.0
 14
0.0
 24
0.0
 34
0.0
 15
0.0
 25
0.0
 35
0.0
146
0.0
 13
0.0
 23
0.0
 33
0.0
 16
0.0
 26
0.0
 36
0.0
 17
0.0
 27
0.0
 37
0.0
 76
     0
330
A
331
0
345
0
346
0
  0
LAYOUT
  5
21
102
{ACAD_REACTORS
330
1E
102
}
100
AcDbPlotSettings
  1

  2

  4

  6

 40
0.0
 41
0.0
 42
0.0
 43
0.0
 44
0.0
 45
0.0
 46
0.0
 47
0.0
 48
0.0
 49
0.0
140
0.0
141
0.0
142
1.0
143
1.0
 70
     0
 72
     0
 73
     0
 74
     0
  7

 75
     0
147
1.0
148
0.0
149
0.0
100
AcDbLayout
  1
Layout1
 70
     0
 71
     0
 10
0.0
 20
0.0
 11
0.0
 21
0.0
 12
0.0
 22
0.0
 32
0.0
 14
0.0
 24
0.0
 34
0.0
 15
0.0
 25
0.0
 35
0.0
146
0.0
 13
0.0
 23
0.0
 33
0.0
 16
0.0
 26
0.0
 36
0.0
 17
0.0
 27
0.0
 37
0.0
 76
     0
330
B
331
0
345
0
346
0
  0
DICTIONARY
  5
1E
102
{ACAD_REACTORS
330
19
102
}
100
AcDbDictionary
280
     0
281
     1
  3
Layout1
350
21
  3
Model
350
20
  0
DICTIONARY
  5
22
102
{ACAD_REACTORS
330
19
102
}
100
AcDbDictionary
280
     0
281
     1
  0
WIPEOUTVARIABLES
  5
23
100
AcDbWipeoutVariables
 70
     1
  0
ENDSEC
  0
EOF
