  0
SECTION
  2
HEADER
  9
$ACADVER
  1
AC1015
  9
$ACADMAINTVER
 70
     6
  9
$DWGCODEPAGE
  3
DOS850
  9
$INSBASE
 10
0.0
 20
0.0
 30
0.0
  9
$EXTMIN
 10
0.0
 20
0.0
 30
0.0
  9
$EXTMAX
 10
841.0
 20
595.0
 30
0.0
  9
$LIMMIN
 10
0.0
 20
0.0
  9
$LIMMAX
 10
841.0
 20
595.0
  9
$ORTHOMODE
 70
     0
  9
$REGENMODE
 70
     1
  9
$FILLMODE
 70
     1
  9
$QTEXTMODE
 70
     0
  9
$MIRRTEXT
 70
     1
  9
$LTSCALE
 40
25.4
  9
$ATTMODE
 70
     1
  9
$TEXTSIZE
 40
3.5
  9
$TRACEWID
 40
0.05
  9
$TEXTSTYLE
  7
Standard
  9
$CLAYER
  8
0
  9
$CELTYPE
  6
Continuous
  9
$CECOLOR
 62
   256
  9
$CELTSCALE
 40
1.0
  9
$DISPSILH
 70
     0
  9
$DIMSCALE
 40
1.0
  9
$DIMASZ
 40
5.0
  9
$DIMEXO
 40
3.0
  9
$DIMDLI
 40
0.38
  9
$DIMRND
 40
0.0
  9
$DIMDLE
 40
0.0
  9
$DIMEXE
 40
2.0
  9
$DIMTP
 40
0.0
  9
$DIMTM
 40
0.0
  9
$DIMTXT
 40
3.5
  9
$DIMCEN
 40
4.0
  9
$DIMTSZ
 40
0.0
  9
$DIMTOL
 70
     0
  9
$DIMLIM
 70
     0
  9
$DIMTIH
 70
     1
  9
$DIMTOH
 70
     1
  9
$DIMSE1
 70
     0
  9
$DIMSE2
 70
     0
  9
$DIMTAD
 70
     0
  9
$DIMZIN
 70
     0
  9
$DIMBLK
  1

  9
$DIMASO
 70
     1
  9
$DIMSHO
 70
     1
  9
$DIMPOST
  1

  9
$DIMAPOST
  1

  9
$DIMALT
 70
     0
  9
$DIMALTD
 70
     2
  9
$DIMALTF
 40
25.4
  9
$DIMLFAC
 40
1.0
  9
$DIMTOFL
 70
     0
  9
$DIMTVP
 40
0.0
  9
$DIMTIX
 70
     0
  9
$DIMSOXD
 70
     0
  9
$DIMSAH
 70
     0
  9
$DIMBLK1
  1

  9
$DIMBLK2
  1

  9
$DIMSTYLE
  2
Standard
  9
$DIMCLRD
 70
     0
  9
$DIMCLRE
 70
     0
  9
$DIMCLRT
 70
     0
  9
$DIMTFAC
 40
1.0
  9
$DIMGAP
 40
1.0
  9
$DIMJUST
 70
     0
  9
$DIMSD1
 70
     0
  9
$DIMSD2
 70
     0
  9
$DIMTOLJ
 70
     1
  9
$DIMTZIN
 70
     0
  9
$DIMALTZ
 70
     0
  9
$DIMALTTZ
 70
     0
  9
$DIMUPT
 70
     0
  9
$DIMDEC
 70
     4
  9
$DIMTDEC
 70
     4
  9
$DIMALTU
 70
     2
  9
$DIMALTTD
 70
     2
  9
$DIMTXSTY
  7
Standard
  9
$DIMAUNIT
 70
     0
  9
$DIMADEC
 70
     0
  9
$DIMALTRND
 40
0.0
  9
$DIMAZIN
 70
     0
  9
$DIMDSEP
 70
     0
  9
$DIMATFIT
 70
     3
  9
$DIMFRAC
 70
     0
  9
$DIMLDRBLK
  1

  9
$DIMLUNIT
 70
     2
  9
$DIMLWD
 70
     0
  9
$DIMLWE
 70
     0
  9
$DIMTMOVE
 70
     0
  9
$LUNITS
 70
     2
  9
$LUPREC
 70
     4
  9
$SKETCHINC
 40
0.1
  9
$FILLETRAD
 40
0.0
  9
$AUNITS
 70
     0
  9
$AUPREC
 70
     0
  9
$MENU
  1
acad
  9
$ELEVATION
 40
0.0
  9
$PELEVATION
 40
0.0
  9
$THICKNESS
 40
0.0
  9
$LIMCHECK
 70
     0
  9
$CHAMFERA
 40
0.0
  9
$CHAMFERB
 40
0.0
  9
$CHAMFERC
 40
0.0
  9
$CHAMFERD
 40
0.0
  9
$SKPOLY
 70
     0
  9
$TDCREATE
 40
0.000000000
  9
$TDUCREATE
 40
0.000000000
  9
$TDUPDATE
 40
0.000000000
  9
$TDUUPDATE
 40
0.000000000
  9
$TDINDWG
 40
0.0000000000
  9
$TDUSRTIMER
 40
0.0000000000
  9
$USRTIMER
 70
     1
  9
$ANGBASE
 50
0.0
  9
$ANGDIR
 70
     0
  9
$PDMODE
 70
     0
  9
$PDSIZE
 40
0.0
  9
$PLINEWID
 40
0.0
  9
$SPLFRAME
 70
     0
  9
$SPLINETYPE
 70
     6
  9
$SPLINESEGS
 70
     8
  9
$HANDSEED
  5
4A1
  9
$SURFTAB1
 70
     6
  9
$SURFTAB2
 70
     6
  9
$SURFTYPE
 70
     6
  9
$SURFU
 70
     6
  9
$SURFV
 70
     6
  9
$UCSBASE
  2

  9
$UCSNAME
  2

  9
$UCSORG
 10
0.0
 20
0.0
 30
0.0
  9
$UCSXDIR
 10
1.0
 20
0.0
 30
0.0
  9
$UCSYDIR
 10
0.0
 20
1.0
 30
0.0
  9
$UCSORTHOREF
  2

  9
$UCSORTHOVIEW
 70
     0
  9
$UCSORGTOP
 10
0.0
 20
0.0
 30
0.0
  9
$UCSORGBOTTOM
 10
0.0
 20
0.0
 30
0.0
  9
$UCSORGLEFT
 10
0.0
 20
0.0
 30
0.0
  9
$UCSORGRIGHT
 10
0.0
 20
0.0
 30
0.0
  9
$UCSORGFRONT
 10
0.0
 20
0.0
 30
0.0
  9
$UCSORGBACK
 10
0.0
 20
0.0
 30
0.0
  9
$PUCSBASE
  2

  9
$PUCSNAME
  2

  9
$PUCSORG
 10
0.0
 20
0.0
 30
0.0
  9
$PUCSXDIR
 10
1.0
 20
0.0
 30
0.0
  9
$PUCSYDIR
 10
0.0
 20
1.0
 30
0.0
  9
$PUCSORTHOREF
  2

  9
$PUCSORTHOVIEW
 70
     0
  9
$PUCSORGTOP
 10
0.0
 20
0.0
 30
0.0
  9
$PUCSORGBOTTOM
 10
0.0
 20
0.0
 30
0.0
  9
$PUCSORGLEFT
 10
0.0
 20
0.0
 30
0.0
  9
$PUCSORGRIGHT
 10
0.0
 20
0.0
 30
0.0
  9
$PUCSORGFRONT
 10
0.0
 20
0.0
 30
0.0
  9
$PUCSORGBACK
 10
0.0
 20
0.0
 30
0.0
  9
$USERI1
 70
     0
  9
$USERI2
 70
     0
  9
$USERI3
 70
     0
  9
$USERI4
 70
     0
  9
$USERI5
 70
     0
  9
$USERR1
 40
0.0
  9
$USERR2
 40
0.0
  9
$USERR3
 40
0.0
  9
$USERR4
 40
0.0
  9
$USERR5
 40
0.0
  9
$WORLDVIEW
 70
     1
  9
$SHADEDGE
 70
     3
  9
$SHADEDIF
 70
    70
  9
$TILEMODE
 70
     1
  9
$MAXACTVP
 70
    16
  9
$PINSBASE
 10
0.0
 20
0.0
 30
0.0
  9
$PLIMCHECK
 70
     0
  9
$PEXTMIN
 10
1.000000E+20
 20
1.000000E+20
 30
1.000000E+20
  9
$PEXTMAX
 10
-1.000000E+20
 20
-1.000000E+20
 30
-1.000000E+20
  9
$PLIMMIN
 10
0.0
 20
0.0
  9
$PLIMMAX
 10
841.0
 20
595.0
  9
$UNITMODE
 70
     0
  9
$VISRETAIN
 70
     0
  9
$PLINEGEN
 70
     1
  9
$PSLTSCALE
 70
     0
  9
$TREEDEPTH
 70
  3020
  9
$CMLSTYLE
  2
Standard
  9
$CMLJUST
 70
     0
  9
$CMLSCALE
 40
1.0
  9
$PROXYGRAPHICS
 70
     0
  9
$MEASUREMENT
 70
     0
  9
$CELWEIGHT
370
     0
  9
$ENDCAPS
280
     0
  9
$JOINSTYLE
280
     0
  9
$LWDISPLAY
290
     0
  9
$INSUNITS
 70
     0
  9
$HYPERLINKBASE
  1

  9
$XEDIT
290
     1
  9
$CEPSNTYPE
380
     0
  9
$PSTYLEMODE
290
     0
  9
$FINGERPRINTGUID
  2

  9
$VERSIONGUID
  2

  9
$EXTNAMES
290
     1
  9
$PSVPSCALE
 40
0.0
  0
ENDSEC
  0
SECTION
  2
CLASSES
  0
CLASS
  1
LWPOLYLINE
  2
AcDbPolyline
  3
"AutoCAD"
 90
        0
280
     0
281
     1
  0
CLASS
  1
IMAGE
  2
AcDbRasterImage
  3
ISM
 90
      127
280
     0
281
     1
  0
CLASS
  1
OLE2FRAME
  2
AcDbOle2Frame
  3
""
 90
        0
280
     0
281
     1
  0
CLASS
  1
HATCH
  2
AcDbHatch
  3
"ACAD_SEDONA"
 90
        0
280
     0
281
     1
  0
CLASS
  1
DICTIONARYVAR
  2
AcDbDictionaryVar
  3
"AutoCAD"
 90
        0
280
     0
281
     0
  0
CLASS
  1
RASTERVARIABLES
  2
AcDbRasterVariables
  3
ISM
 90
        0
280
     0
281
     0
  0
CLASS
  1
IMAGEDEF
  2
AcDbRasterImageDef
  3
ISM
 90
        0
280
     0
281
     0
  0
CLASS
  1
IMAGEDEF_REACTOR
  2
AcDbRasterImageDefReactor
  3
ISM
 90
        1
280
     0
281
     0
  0
CLASS
  1
IDBUFFER
  2
AcDbIdBuffer
  3
"Acad"
 90
        0
280
     0
281
     0
  0
CLASS
  1
SPATIAL_FILTER
  2
AcDbSpatialFilter
  3
"Acad"
 90
        0
280
     0
281
     0
  0
CLASS
  1
XRECORD
  2
AcDbXrecord
  3
"<Built In>"
 90
        0
280
     0
281
     0
  0
CLASS
  1
SORTENTSTABLE
  2
AcDbSortentsTable
  3
"AutoCAD"
 90
        0
280
     0
281
     0
  0
CLASS
  1
LAYER_INDEX
  2
AcDbLayerIndex
  3
"Acad"
 90
        0
280
     0
281
     0
  0
CLASS
  1
SPATIAL_INDEX
  2
AcDbSpatialIndex
  3
"Acad"
 90
        0
280
     0
281
     0
  0
CLASS
  1
OBJECT_PTR
  2
CAseDLPNTableRecord
  3
"ASE-LPNTableRecord"
 90
        1
280
     0
281
     0
  0
CLASS
  1
LAYOUT
  2
AcDbLayout
  3
"AutoCAD 2000"
 90
        1
280
     0
281
     0
  0
CLASS
  1
PLOTSETTINGS
  2
AcDbPlotSettings
  3
"AutoCAD 2000"
 90
        1
280
     0
281
     0
  0
CLASS
  1
ACDBDICTIONARYWDFLT
  2
AcDbDictionaryWithDefault
  3
"AutoCAD 2000"
 90
        1
280
     0
281
     0
  0
CLASS
  1
ACDBPLACEHOLDER
  2
AcDbPlaceHolder
  3
"AutoCAD 2000"
 90
        1
280
     0
281
     0
  0
CLASS
  1
VBA_PROJECT
  2
AcDbVbaProject
  3
"acadvba"
 90
        1
280
     0
281
     0
  0
CLASS
  1
WIPEOUT
  2
AcDbWipeout
  3
WipeOut|AutoCAD Express Tool|expresstools@autodesk.com
 90
      127
280
     0
281
     1
  0
CLASS
  1
WIPEOUTVARIABLES
  2
AcDbWipeoutVariables
  3
WipeOut|AutoCAD Express Tool|expresstools@autodesk.com
 90
        0
280
     0
281
     0
  0
CLASS
  1
RTEXT
  2
RText
  3
RText|AutoCAD Express Tool|expresstools@autodesk.com
 90
        0
280
     0
281
     1
  0
CLASS
  1
ARCALIGNEDTEXT
  2
AcDbArcAlignedText
  3
ATEXT|AutoCAD Express Tool|expresstools@autodesk.com
 90
        0
280
     0
281
     1
  0
ENDSEC
  0
SECTION
  2
TABLES
  0
TABLE
  2
VPORT
  5
7
100
AcDbSymbolTable
 70
     1
  0
VPORT
  5
15
100
AcDbSymbolTableRecord
100
AcDbViewportTableRecord
  2
*ACTIVE
 70
     0
 10
0.0
 20
0.0
 11
1.0
 21
1.0
 12
6.591288
 22
4.579184
 13
0.0
 23
0.0
 14
1.0
 24
1.0
 15
0.0
 25
0.0
 16
0.0
 26
0.0
 36
1.0
 17
0.0
 27
0.0
 37
0.0
 40
9.158369
 41
0.688564
 42
50.0
 43
0.0
 44
0.0
 50
0.0
 51
0.0
 71
     0
 72
   100
 73
     1
 74
     1
 75
     0
 76
     0
 77
     0
 78
     0
281
     0
 65
     0
110
0.0
120
0.0
130
0.0
111
1.0
121
0.0
131
0.0
112
0.0
122
1.0
132
0.0
345
0
346
0
 79
     0
146
0.0
  0
ENDTAB
  0
TABLE
  2
LTYPE
  5
4
100
AcDbSymbolTable
 70
     7
  0
LTYPE
  5
11
100
AcDbSymbolTableRecord
100
AcDbLinetypeTableRecord
  2
ByBlock
 70
    64
  3

 72
    65
 73
     0
 40
0.0
  0
LTYPE
  5
12
100
AcDbSymbolTableRecord
100
AcDbLinetypeTableRecord
  2
ByLayer
 70
    64
  3

 72
    65
 73
     0
 40
0.0
  0
LTYPE
  5
13
100
AcDbSymbolTableRecord
100
AcDbLinetypeTableRecord
  2
Continuous
 70
    64
  3
Solid line
 72
    65
 73
     0
 40
0.0
  0
LTYPE
  5
24
100
AcDbSymbolTableRecord
100
AcDbLinetypeTableRecord
  2
HIDDEN
 70
    64
  3
_ _ _ _ _ _ _ _ _ _ _ _ _ _ _ _ _ _ _ _ _ _ _ _
 72
    65
 73
     2
 40
0.1875
 49
0.125
 74
     0
 49
-0.0625
 74
     0
  0
LTYPE
  5
25
100
AcDbSymbolTableRecord
100
AcDbLinetypeTableRecord
  2
DOTTED
 70
    64
  3
...............................................
 72
    65
 73
     2
 40
0.125
 49
0.0
 74
     0
 49
-0.125
 74
     0
  0
LTYPE
  5
26
100
AcDbSymbolTableRecord
100
AcDbLinetypeTableRecord
  2
CENTER
 70
    64
  3
____ _ ____ _ ____ _ ____ _ ____ _ ____ _ ____ 
 72
    65
 73
     4
 40
1.125
 49
0.75
 74
     0
 49
-0.125
 74
     0
 49
0.125
 74
     0
 49
-0.125
 74
     0
  0
LTYPE
  5
27
100
AcDbSymbolTableRecord
100
AcDbLinetypeTableRecord
  2
PHANTOM
 70
    64
  3
______  __  __  ______  __  __  ______  __  __ 
 72
    65
 73
     6
 40
1.25
 49
0.625
 74
     0
 49
-0.125
 74
     0
 49
0.125
 74
     0
 49
-0.125
 74
     0
 49
0.125
 74
     0
 49
-0.125
 74
     0
  0
ENDTAB
  0
TABLE
  2
LAYER
  5
2
100
AcDbSymbolTable
 70
     2
  0
LAYER
  5
14
100
AcDbSymbolTableRecord
100
AcDbLayerTableRecord
  2
0
 70
     0
 62
     7
  6
Continuous
290
     1
370
    -3
390
1D
  0
LAYER
  5
28
100
AcDbSymbolTableRecord
100
AcDbLayerTableRecord
  2
TEXT
 70
     0
 62
     8
  6
Continuous
290
     1
370
    -3
390
1F
  0
ENDTAB
  0
TABLE
  2
STYLE
  5
3
100
AcDbSymbolTable
 70
     1
  0
STYLE
  5
17
100
AcDbSymbolTableRecord
100
AcDbTextStyleTableRecord
  2
Standard
 70
     0
 40
0.0
 41
1.0
 50
0.0
 71
     0
 42
0.0
  3
txt
  4

  0
ENDTAB
  0
TABLE
  2
VIEW
  5
5
100
AcDbSymbolTable
 70
     0
  0
ENDTAB
  0
TABLE
  2
UCS
  5
6
100
AcDbSymbolTable
 70
     0
  0
ENDTAB
  0
TABLE
  2
APPID
  5
8
100
AcDbSymbolTable
 70
     1
  0
APPID
  5
16
100
AcDbSymbolTableRecord
100
AcDbRegAppTableRecord
  2
ACAD
 70
     0
  0
ENDTAB
  0
TABLE
  2
DIMSTYLE
  5
9
100
AcDbSymbolTable
 70
     1
100
AcDbDimStyleTable
 71
     0
  0
DIMSTYLE
105
18
100
AcDbSymbolTableRecord
100
AcDbDimStyleTableRecord
  2
Standard
 70
     0
  3

  4

 40
1.0
 41
0.18
 42
0.0625
 43
0.38
 44
0.18
 45
0.0
 46
0.0
 47
0.0
 48
0.0
 71
     0
 72
     0
 73
     1
 74
     1
 75
     0
 76
     0
 77
     0
 78
     0
 79
     0
140
0.18
141
0.09
142
0.0
143
25.4
144
1.0
145
0.0
146
1.0
147
0.09
148
0.0
170
     0
171
     2
172
     0
173
     0
174
     0
175
     0
176
     0
177
     0
178
     0
179
     0
271
     4
272
     4
273
     2
274
     2
275
     0
276
     0
277
     2
278
    46
279
     0
280
     0
281
     0
282
     0
283
     1
284
     0
285
     0
286
     0
288
     0
340
17
341
0
342
0
343
0
344
0
371
    -2
372
    -2
  0
ENDTAB
  0
TABLE
  2
BLOCK_RECORD
  5
1
100
AcDbSymbolTable
 70
    92
  0
BLOCK_RECORD
  5
A
100
AcDbSymbolTableRecord
100
AcDbBlockTableRecord
  2
*MODEL_SPACE
340
20
  0
BLOCK_RECORD
  5
B
100
AcDbSymbolTableRecord
100
AcDbBlockTableRecord
  2
*PAPER_SPACE
340
21
  0
BLOCK_RECORD
  5
29
100
AcDbSymbolTableRecord
100
AcDbBlockTableRecord
  2
*B0
340
0
  0
BLOCK_RECORD
  5
2C
100
AcDbSymbolTableRecord
100
AcDbBlockTableRecord
  2
*B1
340
0
  0
BLOCK_RECORD
  5
1FE
100
AcDbSymbolTableRecord
100
AcDbBlockTableRecord
  2
*B2
340
0
  0
BLOCK_RECORD
  5
24A
100
AcDbSymbolTableRecord
100
AcDbBlockTableRecord
  2
*B3
340
0
  0
BLOCK_RECORD
  5
250
100
AcDbSymbolTableRecord
100
AcDbBlockTableRecord
  2
*B4
340
0
  0
BLOCK_RECORD
  5
25B
100
AcDbSymbolTableRecord
100
AcDbBlockTableRecord
  2
*B5
340
0
  0
BLOCK_RECORD
  5
25E
100
AcDbSymbolTableRecord
100
AcDbBlockTableRecord
  2
*B6
340
0
  0
BLOCK_RECORD
  5
264
100
AcDbSymbolTableRecord
100
AcDbBlockTableRecord
  2
*B7
340
0
  0
BLOCK_RECORD
  5
26F
100
AcDbSymbolTableRecord
100
AcDbBlockTableRecord
  2
*B8
340
0
  0
BLOCK_RECORD
  5
272
100
AcDbSymbolTableRecord
100
AcDbBlockTableRecord
  2
*B9
340
0
  0
BLOCK_RECORD
  5
279
100
AcDbSymbolTableRecord
100
AcDbBlockTableRecord
  2
*B10
340
0
  0
BLOCK_RECORD
  5
280
100
AcDbSymbolTableRecord
100
AcDbBlockTableRecord
  2
*B11
340
0
  0
BLOCK_RECORD
  5
287
100
AcDbSymbolTableRecord
100
AcDbBlockTableRecord
  2
*B12
340
0
  0
BLOCK_RECORD
  5
28E
100
AcDbSymbolTableRecord
100
AcDbBlockTableRecord
  2
*B13
340
0
  0
BLOCK_RECORD
  5
295
100
AcDbSymbolTableRecord
100
AcDbBlockTableRecord
  2
*B14
340
0
  0
BLOCK_RECORD
  5
29C
100
AcDbSymbolTableRecord
100
AcDbBlockTableRecord
  2
*B15
340
0
  0
BLOCK_RECORD
  5
2A3
100
AcDbSymbolTableRecord
100
AcDbBlockTableRecord
  2
*B16
340
0
  0
BLOCK_RECORD
  5
2AA
100
AcDbSymbolTableRecord
100
AcDbBlockTableRecord
  2
*B17
340
0
  0
BLOCK_RECORD
  5
2B1
100
AcDbSymbolTableRecord
100
AcDbBlockTableRecord
  2
*B18
340
0
  0
BLOCK_RECORD
  5
2B8
100
AcDbSymbolTableRecord
100
AcDbBlockTableRecord
  2
*B19
340
0
  0
BLOCK_RECORD
  5
2BF
100
AcDbSymbolTableRecord
100
AcDbBlockTableRecord
  2
*B20
340
0
  0
BLOCK_RECORD
  5
2C6
100
AcDbSymbolTableRecord
100
AcDbBlockTableRecord
  2
*B21
340
0
  0
BLOCK_RECORD
  5
2CD
100
AcDbSymbolTableRecord
100
AcDbBlockTableRecord
  2
*B22
340
0
  0
BLOCK_RECORD
  5
2D4
100
AcDbSymbolTableRecord
100
AcDbBlockTableRecord
  2
*B23
340
0
  0
BLOCK_RECORD
  5
2DB
100
AcDbSymbolTableRecord
100
AcDbBlockTableRecord
  2
*B24
340
0
  0
BLOCK_RECORD
  5
2E2
100
AcDbSymbolTableRecord
100
AcDbBlockTableRecord
  2
*B25
340
0
  0
BLOCK_RECORD
  5
2E9
100
AcDbSymbolTableRecord
100
AcDbBlockTableRecord
  2
*B26
340
0
  0
BLOCK_RECORD
  5
2EE
100
AcDbSymbolTableRecord
100
AcDbBlockTableRecord
  2
*B27
340
0
  0
BLOCK_RECORD
  5
2F4
100
AcDbSymbolTableRecord
100
AcDbBlockTableRecord
  2
*B28
340
0
  0
BLOCK_RECORD
  5
2FE
100
AcDbSymbolTableRecord
100
AcDbBlockTableRecord
  2
*B29
340
0
  0
BLOCK_RECORD
  5
303
100
AcDbSymbolTableRecord
100
AcDbBlockTableRecord
  2
*B30
340
0
  0
BLOCK_RECORD
  5
309
100
AcDbSymbolTableRecord
100
AcDbBlockTableRecord
  2
*B31
340
0
  0
BLOCK_RECORD
  5
30E
100
AcDbSymbolTableRecord
100
AcDbBlockTableRecord
  2
*B32
340
0
  0
BLOCK_RECORD
  5
313
100
AcDbSymbolTableRecord
100
AcDbBlockTableRecord
  2
*B33
340
0
  0
BLOCK_RECORD
  5
322
100
AcDbSymbolTableRecord
100
AcDbBlockTableRecord
  2
*B34
340
0
  0
BLOCK_RECORD
  5
339
100
AcDbSymbolTableRecord
100
AcDbBlockTableRecord
  2
*B35
340
0
  0
BLOCK_RECORD
  5
33E
100
AcDbSymbolTableRecord
100
AcDbBlockTableRecord
  2
*B36
340
0
  0
BLOCK_RECORD
  5
343
100
AcDbSymbolTableRecord
100
AcDbBlockTableRecord
  2
*B37
340
0
  0
BLOCK_RECORD
  5
34D
100
AcDbSymbolTableRecord
100
AcDbBlockTableRecord
  2
*B38
340
0
  0
BLOCK_RECORD
  5
352
100
AcDbSymbolTableRecord
100
AcDbBlockTableRecord
  2
*B39
340
0
  0
BLOCK_RECORD
  5
359
100
AcDbSymbolTableRecord
100
AcDbBlockTableRecord
  2
*B40
340
0
  0
BLOCK_RECORD
  5
35E
100
AcDbSymbolTableRecord
100
AcDbBlockTableRecord
  2
*B41
340
0
  0
BLOCK_RECORD
  5
369
100
AcDbSymbolTableRecord
100
AcDbBlockTableRecord
  2
*B42
340
0
  0
BLOCK_RECORD
  5
36F
100
AcDbSymbolTableRecord
100
AcDbBlockTableRecord
  2
*B43
340
0
  0
BLOCK_RECORD
  5
374
100
AcDbSymbolTableRecord
100
AcDbBlockTableRecord
  2
*B44
340
0
  0
BLOCK_RECORD
  5
37A
100
AcDbSymbolTableRecord
100
AcDbBlockTableRecord
  2
*B45
340
0
  0
BLOCK_RECORD
  5
380
100
AcDbSymbolTableRecord
100
AcDbBlockTableRecord
  2
*B46
340
0
  0
BLOCK_RECORD
  5
385
100
AcDbSymbolTableRecord
100
AcDbBlockTableRecord
  2
*B47
340
0
  0
BLOCK_RECORD
  5
394
100
AcDbSymbolTableRecord
100
AcDbBlockTableRecord
  2
*B48
340
0
  0
BLOCK_RECORD
  5
39A
100
AcDbSymbolTableRecord
100
AcDbBlockTableRecord
  2
*B49
340
0
  0
BLOCK_RECORD
  5
39F
100
AcDbSymbolTableRecord
100
AcDbBlockTableRecord
  2
*B50
340
0
  0
BLOCK_RECORD
  5
3A9
100
AcDbSymbolTableRecord
100
AcDbBlockTableRecord
  2
*B51
340
0
  0
BLOCK_RECORD
  5
3B3
100
AcDbSymbolTableRecord
100
AcDbBlockTableRecord
  2
*B52
340
0
  0
BLOCK_RECORD
  5
3D2
100
AcDbSymbolTableRecord
100
AcDbBlockTableRecord
  2
*B53
340
0
  0
BLOCK_RECORD
  5
3D7
100
AcDbSymbolTableRecord
100
AcDbBlockTableRecord
  2
*B54
340
0
  0
BLOCK_RECORD
  5
3DD
100
AcDbSymbolTableRecord
100
AcDbBlockTableRecord
  2
*B55
340
0
  0
BLOCK_RECORD
  5
3E2
100
AcDbSymbolTableRecord
100
AcDbBlockTableRecord
  2
*B56
340
0
  0
BLOCK_RECORD
  5
3E9
100
AcDbSymbolTableRecord
100
AcDbBlockTableRecord
  2
*B57
340
0
  0
BLOCK_RECORD
  5
3EF
100
AcDbSymbolTableRecord
100
AcDbBlockTableRecord
  2
*B58
340
0
  0
BLOCK_RECORD
  5
3F5
100
AcDbSymbolTableRecord
100
AcDbBlockTableRecord
  2
*B59
340
0
  0
BLOCK_RECORD
  5
3FB
100
AcDbSymbolTableRecord
100
AcDbBlockTableRecord
  2
*B60
340
0
  0
BLOCK_RECORD
  5
401
100
AcDbSymbolTableRecord
100
AcDbBlockTableRecord
  2
*B61
340
0
  0
BLOCK_RECORD
  5
407
100
AcDbSymbolTableRecord
100
AcDbBlockTableRecord
  2
*B62
340
0
  0
BLOCK_RECORD
  5
40D
100
AcDbSymbolTableRecord
100
AcDbBlockTableRecord
  2
*B63
340
0
  0
BLOCK_RECORD
  5
413
100
AcDbSymbolTableRecord
100
AcDbBlockTableRecord
  2
*B64
340
0
  0
BLOCK_RECORD
  5
41A
100
AcDbSymbolTableRecord
100
AcDbBlockTableRecord
  2
*B65
340
0
  0
BLOCK_RECORD
  5
41F
100
AcDbSymbolTableRecord
100
AcDbBlockTableRecord
  2
*B66
340
0
  0
BLOCK_RECORD
  5
424
100
AcDbSymbolTableRecord
100
AcDbBlockTableRecord
  2
*B67
340
0
  0
BLOCK_RECORD
  5
429
100
AcDbSymbolTableRecord
100
AcDbBlockTableRecord
  2
*B68
340
0
  0
BLOCK_RECORD
  5
42E
100
AcDbSymbolTableRecord
100
AcDbBlockTableRecord
  2
*B69
340
0
  0
BLOCK_RECORD
  5
433
100
AcDbSymbolTableRecord
100
AcDbBlockTableRecord
  2
*B70
340
0
  0
BLOCK_RECORD
  5
438
100
AcDbSymbolTableRecord
100
AcDbBlockTableRecord
  2
*B71
340
0
  0
BLOCK_RECORD
  5
43D
100
AcDbSymbolTableRecord
100
AcDbBlockTableRecord
  2
*B72
340
0
  0
BLOCK_RECORD
  5
442
100
AcDbSymbolTableRecord
100
AcDbBlockTableRecord
  2
*B73
340
0
  0
BLOCK_RECORD
  5
447
100
AcDbSymbolTableRecord
100
AcDbBlockTableRecord
  2
*B74
340
0
  0
BLOCK_RECORD
  5
44C
100
AcDbSymbolTableRecord
100
AcDbBlockTableRecord
  2
*B75
340
0
  0
BLOCK_RECORD
  5
451
100
AcDbSymbolTableRecord
100
AcDbBlockTableRecord
  2
*B76
340
0
  0
BLOCK_RECORD
  5
456
100
AcDbSymbolTableRecord
100
AcDbBlockTableRecord
  2
*B77
340
0
  0
BLOCK_RECORD
  5
45B
100
AcDbSymbolTableRecord
100
AcDbBlockTableRecord
  2
*B78
340
0
  0
BLOCK_RECORD
  5
460
100
AcDbSymbolTableRecord
100
AcDbBlockTableRecord
  2
*B79
340
0
  0
BLOCK_RECORD
  5
465
100
AcDbSymbolTableRecord
100
AcDbBlockTableRecord
  2
*B80
340
0
  0
BLOCK_RECORD
  5
46A
100
AcDbSymbolTableRecord
100
AcDbBlockTableRecord
  2
*B81
340
0
  0
BLOCK_RECORD
  5
46F
100
AcDbSymbolTableRecord
100
AcDbBlockTableRecord
  2
*B82
340
0
  0
BLOCK_RECORD
  5
474
100
AcDbSymbolTableRecord
100
AcDbBlockTableRecord
  2
*B83
340
0
  0
BLOCK_RECORD
  5
479
100
AcDbSymbolTableRecord
100
AcDbBlockTableRecord
  2
*B84
340
0
  0
BLOCK_RECORD
  5
47E
100
AcDbSymbolTableRecord
100
AcDbBlockTableRecord
  2
*B85
340
0
  0
BLOCK_RECORD
  5
483
100
AcDbSymbolTableRecord
100
AcDbBlockTableRecord
  2
*B86
340
0
  0
BLOCK_RECORD
  5
488
100
AcDbSymbolTableRecord
100
AcDbBlockTableRecord
  2
*B87
340
0
  0
BLOCK_RECORD
  5
48D
100
AcDbSymbolTableRecord
100
AcDbBlockTableRecord
  2
*B88
340
0
  0
BLOCK_RECORD
  5
492
100
AcDbSymbolTableRecord
100
AcDbBlockTableRecord
  2
*B89
340
0
  0
BLOCK_RECORD
  5
497
100
AcDbSymbolTableRecord
100
AcDbBlockTableRecord
  2
*B90
340
0
  0
BLOCK_RECORD
  5
49C
100
AcDbSymbolTableRecord
100
AcDbBlockTableRecord
  2
*B91
340
0
  0
ENDTAB
  0
ENDSEC
  0
SECTION
  2
BLOCKS
  0
BLOCK
  5
D
100
AcDbEntity
  8
0
100
AcDbBlockBegin
  2
*MODEL_SPACE
 70
     0
 10
0.0
 20
0.0
 30
0.0
  3
*MODEL_SPACE
  1

  0
ENDBLK
  5
E
100
AcDbEntity
  8
0
100
AcDbBlockEnd
  0
BLOCK
  5
F
100
AcDbEntity
 67
     1
  8
0
100
AcDbBlockBegin
  2
*PAPER_SPACE
 70
     0
 10
0.0
 20
0.0
 30
0.0
  3
*PAPER_SPACE
  1

  0
ENDBLK
  5
10
100
AcDbEntity
 67
     1
  8
0
100
AcDbBlockEnd
  0
BLOCK
  5
2A
100
AcDbEntity
  8
0
100
AcDbBlockBegin
  2
*B0
 70
     0
 10
0.0
 20
0.0
 30
0.0
  3
*B0
  1

  0
ENDBLK
  5
2B
100
AcDbEntity
  8
0
100
AcDbBlockEnd
  0
BLOCK
  5
2D
100
AcDbEntity
  8
0
100
AcDbBlockBegin
  2
*B1
 70
     0
 10
0.0
 20
0.0
 30
0.0
  3
*B1
  1

  0
LINE
  5
2E
100
AcDbEntity
  8
0
  6
HIDDEN
 62
   174
100
AcDbLine
 10
422.616778
 20
364.861326
 30
0.0
 11
422.616778
 21
378.361326
 31
0.0
  0
LINE
  5
2F
100
AcDbEntity
  8
0
  6
HIDDEN
 62
   174
100
AcDbLine
 10
422.616778
 20
364.861326
 30
0.0
 11
422.616778
 21
378.361326
 31
0.0
  0
LINE
  5
30
100
AcDbEntity
  8
0
  6
HIDDEN
 62
   174
100
AcDbLine
 10
395.616778
 20
364.861326
 30
0.0
 11
395.616778
 21
378.361326
 31
0.0
  0
LINE
  5
31
100
AcDbEntity
  8
0
  6
HIDDEN
 62
   174
100
AcDbLine
 10
395.616778
 20
364.861326
 30
0.0
 11
395.616778
 21
378.361326
 31
0.0
  0
LINE
  5
32
100
AcDbEntity
  8
0
  6
HIDDEN
 62
   174
100
AcDbLine
 10
359.616778
 20
193.861326
 30
0.0
 11
359.616778
 21
180.361326
 31
0.0
  0
LINE
  5
33
100
AcDbEntity
  8
0
  6
HIDDEN
 62
   174
100
AcDbLine
 10
359.616778
 20
193.861326
 30
0.0
 11
359.616778
 21
180.361326
 31
0.0
  0
LINE
  5
34
100
AcDbEntity
  8
0
  6
HIDDEN
 62
   174
100
AcDbLine
 10
386.616778
 20
193.861326
 30
0.0
 11
386.616778
 21
180.361326
 31
0.0
  0
LINE
  5
35
100
AcDbEntity
  8
0
  6
HIDDEN
 62
   174
100
AcDbLine
 10
386.616778
 20
193.861326
 30
0.0
 11
386.616778
 21
180.361326
 31
0.0
  0
LINE
  5
36
100
AcDbEntity
  8
0
  6
HIDDEN
 62
   174
100
AcDbLine
 10
350.616778
 20
364.861326
 30
0.0
 11
350.616778
 21
378.361326
 31
0.0
  0
LINE
  5
37
100
AcDbEntity
  8
0
  6
HIDDEN
 62
   174
100
AcDbLine
 10
350.616778
 20
364.861326
 30
0.0
 11
350.616778
 21
378.361326
 31
0.0
  0
LINE
  5
38
100
AcDbEntity
  8
0
  6
HIDDEN
 62
   174
100
AcDbLine
 10
323.616778
 20
364.861326
 30
0.0
 11
323.616778
 21
378.361326
 31
0.0
  0
LINE
  5
39
100
AcDbEntity
  8
0
  6
HIDDEN
 62
   174
100
AcDbLine
 10
323.616778
 20
364.861326
 30
0.0
 11
323.616778
 21
378.361326
 31
0.0
  0
LINE
  5
3A
100
AcDbEntity
  8
0
  6
HIDDEN
 62
   174
100
AcDbLine
 10
386.593153
 20
180.361326
 30
0.0
 11
359.594679
 21
180.361326
 31
0.0
  0
LINE
  5
3B
100
AcDbEntity
  8
0
  6
HIDDEN
 62
   174
100
AcDbLine
 10
360.863907
 20
193.861326
 30
0.0
 11
360.574571
 21
193.861326
 31
0.0
  0
LINE
  5
3C
100
AcDbEntity
  8
0
  6
HIDDEN
 62
   174
100
AcDbLine
 10
366.302942
 20
193.861326
 30
0.0
 11
365.362149
 21
193.861326
 31
0.0
  0
LINE
  5
3D
100
AcDbEntity
  8
0
  6
HIDDEN
 62
   174
100
AcDbLine
 10
385.639728
 20
193.861326
 30
0.0
 11
385.316105
 21
193.861326
 31
0.0
  0
LINE
  5
3E
100
AcDbEntity
  8
0
  6
HIDDEN
 62
   174
100
AcDbLine
 10
386.389235
 20
193.861326
 30
0.0
 11
385.639728
 21
193.861326
 31
0.0
  0
LINE
  5
3F
100
AcDbEntity
  8
0
  6
HIDDEN
 62
   174
100
AcDbLine
 10
350.391269
 20
364.861326
 30
0.0
 11
350.595187
 21
364.861326
 31
0.0
  0
LINE
  5
40
100
AcDbEntity
  8
0
  6
HIDDEN
 62
   174
100
AcDbLine
 10
337.095649
 20
364.861326
 30
0.0
 11
340.598359
 21
364.861326
 31
0.0
  0
LINE
  5
41
100
AcDbEntity
  8
0
  6
HIDDEN
 62
   174
100
AcDbLine
 10
327.33041
 20
364.861326
 30
0.0
 11
329.407494
 21
364.861326
 31
0.0
  0
LINE
  5
42
100
AcDbEntity
  8
0
  6
HIDDEN
 62
   174
100
AcDbLine
 10
324.55074
 20
364.861326
 30
0.0
 11
324.873761
 21
364.861326
 31
0.0
  0
LINE
  5
43
100
AcDbEntity
  8
0
  6
HIDDEN
 62
   174
100
AcDbLine
 10
421.611227
 20
364.861326
 30
0.0
 11
422.386599
 21
364.861326
 31
0.0
  0
LINE
  5
44
100
AcDbEntity
  8
0
  6
HIDDEN
 62
   174
100
AcDbLine
 10
421.321891
 20
364.861326
 30
0.0
 11
421.611227
 21
364.861326
 31
0.0
  0
LINE
  5
45
100
AcDbEntity
  8
0
  6
HIDDEN
 62
   174
100
AcDbLine
 10
416.823649
 20
364.861326
 30
0.0
 11
418.839376
 21
364.861326
 31
0.0
  0
LINE
  5
46
100
AcDbEntity
  8
0
  6
HIDDEN
 62
   174
100
AcDbLine
 10
413.564559
 20
364.861326
 30
0.0
 11
415.882856
 21
364.861326
 31
0.0
  0
LINE
  5
47
100
AcDbEntity
  8
0
  6
HIDDEN
 62
   174
100
AcDbLine
 10
398.792183
 20
364.861326
 30
0.0
 11
399.326342
 21
364.861326
 31
0.0
  0
LINE
  5
48
100
AcDbEntity
  8
0
  6
HIDDEN
 62
   174
100
AcDbLine
 10
395.796563
 20
364.861326
 30
0.0
 11
396.54607
 21
364.861326
 31
0.0
  0
LINE
  5
49
100
AcDbEntity
  8
0
  6
Continuous
 62
   174
100
AcDbLine
 10
127.404671
 20
361.711326
 30
0.0
 11
126.284021
 21
361.711326
 31
0.0
  0
LINE
  5
4A
100
AcDbEntity
  8
0
  6
HIDDEN
 62
   174
100
AcDbLine
 10
128.534345
 20
361.711326
 30
0.0
 11
134.608596
 21
361.711326
 31
0.0
  0
LINE
  5
4B
100
AcDbEntity
  8
0
  6
HIDDEN
 62
   174
100
AcDbLine
 10
142.93317
 20
354.961326
 30
0.0
 11
134.608596
 21
354.961326
 31
0.0
  0
LINE
  5
4C
100
AcDbEntity
  8
0
  6
Continuous
 62
   174
100
AcDbLine
 10
98.616778
 20
252.361326
 30
0.0
 11
105.366778
 21
252.361326
 31
0.0
  0
LINE
  5
4D
100
AcDbEntity
  8
0
  6
HIDDEN
 62
   174
100
AcDbLine
 10
485.616778
 20
259.202317
 30
0.0
 11
485.616778
 21
299.700329
 31
0.0
  0
LINE
  5
4E
100
AcDbEntity
  8
0
  6
HIDDEN
 62
   174
100
AcDbLine
 10
365.362149
 20
193.861326
 30
0.0
 11
363.346422
 21
193.861326
 31
0.0
  0
LINE
  5
4F
100
AcDbEntity
  8
0
  6
HIDDEN
 62
   174
100
AcDbLine
 10
347.422718
 20
364.861326
 30
0.0
 11
349.32656
 21
364.861326
 31
0.0
  0
LINE
  5
50
100
AcDbEntity
  8
0
  6
HIDDEN
 62
   174
100
AcDbLine
 10
418.839376
 20
364.861326
 30
0.0
 11
419.418048
 21
364.861326
 31
0.0
  0
LINE
  5
51
100
AcDbEntity
  8
0
  6
Continuous
 62
   174
100
AcDbLine
 10
98.616778
 20
346.861326
 30
0.0
 11
98.616778
 21
328.861326
 31
0.0
  0
LINE
  5
52
100
AcDbEntity
  8
0
  6
HIDDEN
 62
   174
100
AcDbLine
 10
134.608596
 20
354.961326
 30
0.0
 11
126.284021
 21
354.961326
 31
0.0
  0
LINE
  5
53
100
AcDbEntity
  8
0
  6
HIDDEN
 62
   174
100
AcDbLine
 10
359.799199
 20
193.861326
 30
0.0
 11
359.594679
 21
193.861326
 31
0.0
  0
LINE
  5
54
100
AcDbEntity
  8
0
  6
HIDDEN
 62
   174
100
AcDbLine
 10
360.574571
 20
193.861326
 30
0.0
 11
359.799199
 21
193.861326
 31
0.0
  0
LINE
  5
55
100
AcDbEntity
  8
0
  6
HIDDEN
 62
   174
100
AcDbLine
 10
368.621239
 20
193.861326
 30
0.0
 11
366.302942
 21
193.861326
 31
0.0
  0
LINE
  5
56
100
AcDbEntity
  8
0
  6
HIDDEN
 62
   174
100
AcDbLine
 10
382.859456
 20
193.861326
 30
0.0
 11
380.782974
 21
193.861326
 31
0.0
  0
LINE
  5
57
100
AcDbEntity
  8
0
  6
HIDDEN
 62
   174
100
AcDbLine
 10
383.393615
 20
193.861326
 30
0.0
 11
382.859456
 21
193.861326
 31
0.0
  0
LINE
  5
58
100
AcDbEntity
  8
0
  6
HIDDEN
 62
   174
100
AcDbLine
 10
349.32656
 20
364.861326
 30
0.0
 11
349.615896
 21
364.861326
 31
0.0
  0
LINE
  5
59
100
AcDbEntity
  8
0
  6
HIDDEN
 62
   174
100
AcDbLine
 10
329.407494
 20
364.861326
 30
0.0
 11
330.350091
 21
364.861326
 31
0.0
  0
LINE
  5
5A
100
AcDbEntity
  8
0
  6
HIDDEN
 62
   174
100
AcDbLine
 10
395.592645
 20
364.861326
 30
0.0
 11
395.796563
 21
364.861326
 31
0.0
  0
LINE
  5
5B
100
AcDbEntity
  8
0
  6
HIDDEN
 62
   174
100
AcDbLine
 10
405.662258
 20
364.861326
 30
0.0
 11
409.091581
 21
364.861326
 31
0.0
  0
LINE
  5
5C
100
AcDbEntity
  8
0
  6
HIDDEN
 62
   174
100
AcDbLine
 10
401.402824
 20
364.861326
 30
0.0
 11
402.345421
 21
364.861326
 31
0.0
  0
LINE
  5
5D
100
AcDbEntity
  8
0
  6
HIDDEN
 62
   174
100
AcDbLine
 10
399.326342
 20
364.861326
 30
0.0
 11
401.402824
 21
364.861326
 31
0.0
  0
ARC
  5
5E
100
AcDbEntity
  8
0
  6
Continuous
 62
   174
100
AcDbCircle
 10
337.116778
 20
243.361326
 30
0.0
 40
9.9
100
AcDbArc
 50
-180.0
 51
0.0
  0
LINE
  5
5F
100
AcDbEntity
  8
0
  6
HIDDEN
 62
   174
100
AcDbLine
 10
141.81252
 20
361.711326
 30
0.0
 11
140.999251
 21
361.711326
 31
0.0
  0
LINE
  5
60
100
AcDbEntity
  8
0
  6
HIDDEN
 62
   174
100
AcDbLine
 10
134.608596
 20
361.711326
 30
0.0
 11
128.21794
 21
361.711326
 31
0.0
  0
LINE
  5
61
100
AcDbEntity
  8
0
  6
HIDDEN
 62
   174
100
AcDbLine
 10
134.608596
 20
361.711326
 30
0.0
 11
140.683448
 21
361.711326
 31
0.0
  0
LINE
  5
62
100
AcDbEntity
  8
0
  6
Continuous
 62
   174
100
AcDbLine
 10
126.291778
 20
354.961326
 30
0.0
 11
126.291778
 21
361.711326
 31
0.0
  0
LINE
  5
63
100
AcDbEntity
  8
0
  6
Continuous
 62
   174
100
AcDbLine
 10
170.616778
 20
346.861326
 30
0.0
 11
98.616778
 21
346.861326
 31
0.0
  0
LINE
  5
64
100
AcDbEntity
  8
0
  6
Continuous
 62
   174
100
AcDbLine
 10
105.366778
 20
230.986326
 30
0.0
 11
105.366778
 21
251.236326
 31
0.0
  0
LINE
  5
65
100
AcDbEntity
  8
0
  6
HIDDEN
 62
   174
100
AcDbLine
 10
134.608596
 20
354.961326
 30
0.0
 11
128.534345
 21
354.961326
 31
0.0
  0
LINE
  5
66
100
AcDbEntity
  8
0
  6
Continuous
 62
   174
100
AcDbLine
 10
98.616778
 20
229.861326
 30
0.0
 11
105.366778
 21
229.861326
 31
0.0
  0
LINE
  5
67
100
AcDbEntity
  8
0
  6
HIDDEN
 62
   174
100
AcDbLine
 10
369.592109
 20
193.861326
 30
0.0
 11
368.621239
 21
193.861326
 31
0.0
  0
LINE
  5
68
100
AcDbEntity
  8
0
  6
HIDDEN
 62
   174
100
AcDbLine
 10
380.782974
 20
193.861326
 30
0.0
 11
379.840377
 21
193.861326
 31
0.0
  0
LINE
  5
69
100
AcDbEntity
  8
0
  6
HIDDEN
 62
   174
100
AcDbLine
 10
385.316105
 20
193.861326
 30
0.0
 11
383.393615
 21
193.861326
 31
0.0
  0
LINE
  5
6A
100
AcDbEntity
  8
0
  6
HIDDEN
 62
   174
100
AcDbLine
 10
330.350091
 20
364.861326
 30
0.0
 11
332.634702
 21
364.861326
 31
0.0
  0
LINE
  5
6B
100
AcDbEntity
  8
0
  6
Continuous
 62
   174
100
AcDbLine
 10
105.366778
 20
229.861326
 30
0.0
 11
224.616778
 21
229.861326
 31
0.0
  0
LINE
  5
6C
100
AcDbEntity
  8
0
  6
Continuous
 62
   174
100
AcDbLine
 10
170.616778
 20
328.861326
 30
0.0
 11
170.616778
 21
346.861326
 31
0.0
  0
LINE
  5
6D
100
AcDbEntity
  8
0
  6
Continuous
 62
   174
100
AcDbLine
 10
142.941778
 20
354.961326
 30
0.0
 11
142.941778
 21
361.711326
 31
0.0
  0
LINE
  5
6E
100
AcDbEntity
  8
0
  6
Continuous
 62
   174
100
AcDbLine
 10
105.366778
 20
251.236326
 30
0.0
 11
105.366778
 21
252.361326
 31
0.0
  0
LINE
  5
6F
100
AcDbEntity
  8
0
  6
Continuous
 62
   174
100
AcDbLine
 10
105.366778
 20
328.861326
 30
0.0
 11
105.366778
 21
327.736326
 31
0.0
  0
LINE
  5
70
100
AcDbEntity
  8
0
  6
HIDDEN
 62
   174
100
AcDbLine
 10
362.76775
 20
193.861326
 30
0.0
 11
360.863907
 21
193.861326
 31
0.0
  0
LINE
  5
71
100
AcDbEntity
  8
0
  6
HIDDEN
 62
   174
100
AcDbLine
 10
349.615896
 20
364.861326
 30
0.0
 11
350.391269
 21
364.861326
 31
0.0
  0
LINE
  5
72
100
AcDbEntity
  8
0
  6
HIDDEN
 62
   174
100
AcDbLine
 10
343.887526
 20
364.861326
 30
0.0
 11
344.828319
 21
364.861326
 31
0.0
  0
LINE
  5
73
100
AcDbEntity
  8
0
  6
HIDDEN
 62
   174
100
AcDbLine
 10
332.634702
 20
364.861326
 30
0.0
 11
333.666327
 21
364.861326
 31
0.0
  0
LINE
  5
74
100
AcDbEntity
  8
0
  6
HIDDEN
 62
   174
100
AcDbLine
 10
396.54607
 20
364.861326
 30
0.0
 11
396.869693
 21
364.861326
 31
0.0
  0
ARC
  5
75
100
AcDbEntity
  8
0
  6
Continuous
 62
   174
100
AcDbCircle
 10
373.116778
 20
315.361326
 30
0.0
 40
9.9
100
AcDbArc
 50
-180.0
 51
0.0
  0
ARC
  5
76
100
AcDbEntity
  8
0
  6
Continuous
 62
   174
100
AcDbCircle
 10
337.116778
 20
243.361326
 30
0.0
 40
9.9
100
AcDbArc
 50
0.0
 51
180.0
  0
ARC
  5
77
100
AcDbEntity
  8
0
  6
Continuous
 62
   174
100
AcDbCircle
 10
409.116778
 20
243.361326
 30
0.0
 40
9.9
100
AcDbArc
 50
0.0
 51
180.0
  0
LINE
  5
78
100
AcDbEntity
  8
0
  6
HIDDEN
 62
   174
100
AcDbLine
 10
128.21794
 20
361.711326
 30
0.0
 11
127.404671
 21
361.711326
 31
0.0
  0
LINE
  5
79
100
AcDbEntity
  8
0
  6
HIDDEN
 62
   174
100
AcDbLine
 10
140.683448
 20
354.961326
 30
0.0
 11
134.608596
 21
354.961326
 31
0.0
  0
LINE
  5
7A
100
AcDbEntity
  8
0
  6
HIDDEN
 62
   174
100
AcDbLine
 10
386.593153
 20
193.861326
 30
0.0
 11
386.389235
 21
193.861326
 31
0.0
  0
LINE
  5
7B
100
AcDbEntity
  8
0
  6
HIDDEN
 62
   174
100
AcDbLine
 10
323.597315
 20
364.861326
 30
0.0
 11
323.800632
 21
364.861326
 31
0.0
  0
LINE
  5
7C
100
AcDbEntity
  8
0
  6
HIDDEN
 62
   174
100
AcDbLine
 10
333.666327
 20
364.861326
 30
0.0
 11
337.095649
 21
364.861326
 31
0.0
  0
LINE
  5
7D
100
AcDbEntity
  8
0
  6
HIDDEN
 62
   174
100
AcDbLine
 10
419.418048
 20
364.861326
 30
0.0
 11
421.321891
 21
364.861326
 31
0.0
  0
LINE
  5
7E
100
AcDbEntity
  8
0
  6
HIDDEN
 62
   174
100
AcDbLine
 10
412.593689
 20
364.861326
 30
0.0
 11
413.564559
 21
364.861326
 31
0.0
  0
LINE
  5
7F
100
AcDbEntity
  8
0
  6
HIDDEN
 62
   174
100
AcDbLine
 10
404.630033
 20
364.861326
 30
0.0
 11
405.662258
 21
364.861326
 31
0.0
  0
ARC
  5
80
100
AcDbEntity
  8
0
  6
Continuous
 62
   174
100
AcDbCircle
 10
409.116778
 20
243.361326
 30
0.0
 40
9.9
100
AcDbArc
 50
-180.0
 51
0.0
  0
LINE
  5
81
100
AcDbEntity
  8
0
  6
HIDDEN
 62
   174
100
AcDbLine
 10
128.541778
 20
354.961326
 30
0.0
 11
128.541778
 21
361.711326
 31
0.0
  0
LINE
  5
82
100
AcDbEntity
  8
0
  6
Continuous
 62
   174
100
AcDbLine
 10
224.616778
 20
229.861326
 30
0.0
 11
224.616778
 21
328.861326
 31
0.0
  0
LINE
  5
83
100
AcDbEntity
  8
0
  6
HIDDEN
 62
   174
100
AcDbLine
 10
395.592645
 20
378.361326
 30
0.0
 11
422.591119
 21
378.361326
 31
0.0
  0
LINE
  5
84
100
AcDbEntity
  8
0
  6
HIDDEN
 62
   174
100
AcDbLine
 10
376.52354
 20
193.861326
 30
0.0
 11
373.094217
 21
193.861326
 31
0.0
  0
LINE
  5
85
100
AcDbEntity
  8
0
  6
HIDDEN
 62
   174
100
AcDbLine
 10
377.555765
 20
193.861326
 30
0.0
 11
376.52354
 21
193.861326
 31
0.0
  0
LINE
  5
86
100
AcDbEntity
  8
0
  6
HIDDEN
 62
   174
100
AcDbLine
 10
379.840377
 20
193.861326
 30
0.0
 11
377.555765
 21
193.861326
 31
0.0
  0
LINE
  5
87
100
AcDbEntity
  8
0
  6
HIDDEN
 62
   174
100
AcDbLine
 10
346.844046
 20
364.861326
 30
0.0
 11
347.422718
 21
364.861326
 31
0.0
  0
LINE
  5
88
100
AcDbEntity
  8
0
  6
HIDDEN
 62
   174
100
AcDbLine
 10
344.828319
 20
364.861326
 30
0.0
 11
346.844046
 21
364.861326
 31
0.0
  0
LINE
  5
89
100
AcDbEntity
  8
0
  6
HIDDEN
 62
   174
100
AcDbLine
 10
341.569229
 20
364.861326
 30
0.0
 11
343.887526
 21
364.861326
 31
0.0
  0
LINE
  5
8A
100
AcDbEntity
  8
0
  6
HIDDEN
 62
   174
100
AcDbLine
 10
340.598359
 20
364.861326
 30
0.0
 11
341.569229
 21
364.861326
 31
0.0
  0
LINE
  5
8B
100
AcDbEntity
  8
0
  6
HIDDEN
 62
   174
100
AcDbLine
 10
323.800632
 20
364.861326
 30
0.0
 11
324.55074
 21
364.861326
 31
0.0
  0
LINE
  5
8C
100
AcDbEntity
  8
0
  6
HIDDEN
 62
   174
100
AcDbLine
 10
422.386599
 20
364.861326
 30
0.0
 11
422.591119
 21
364.861326
 31
0.0
  0
LINE
  5
8D
100
AcDbEntity
  8
0
  6
HIDDEN
 62
   174
100
AcDbLine
 10
409.091581
 20
364.861326
 30
0.0
 11
412.593689
 21
364.861326
 31
0.0
  0
LINE
  5
8E
100
AcDbEntity
  8
0
  6
HIDDEN
 62
   174
100
AcDbLine
 10
402.345421
 20
364.861326
 30
0.0
 11
404.630033
 21
364.861326
 31
0.0
  0
LINE
  5
8F
100
AcDbEntity
  8
0
  6
HIDDEN
 62
   174
100
AcDbLine
 10
396.869693
 20
364.861326
 30
0.0
 11
398.792183
 21
364.861326
 31
0.0
  0
ARC
  5
90
100
AcDbEntity
  8
0
  6
Continuous
 62
   174
100
AcDbCircle
 10
373.116778
 20
315.361326
 30
0.0
 40
9.9
100
AcDbArc
 50
0.0
 51
180.0
  0
LINE
  5
91
100
AcDbEntity
  8
0
  6
HIDDEN
 62
   174
100
AcDbLine
 10
140.999251
 20
361.711326
 30
0.0
 11
134.608596
 21
361.711326
 31
0.0
  0
LINE
  5
92
100
AcDbEntity
  8
0
  6
Continuous
 62
   174
100
AcDbLine
 10
224.616778
 20
328.861326
 30
0.0
 11
170.616778
 21
328.861326
 31
0.0
  0
LINE
  5
93
100
AcDbEntity
  8
0
  6
Continuous
 62
   174
100
AcDbLine
 10
105.366778
 20
229.861326
 30
0.0
 11
105.366778
 21
230.986326
 31
0.0
  0
LINE
  5
94
100
AcDbEntity
  8
0
  6
HIDDEN
 62
   174
100
AcDbLine
 10
323.597315
 20
378.361326
 30
0.0
 11
350.595187
 21
378.361326
 31
0.0
  0
LINE
  5
95
100
AcDbEntity
  8
0
  6
HIDDEN
 62
   174
100
AcDbLine
 10
363.346422
 20
193.861326
 30
0.0
 11
362.76775
 21
193.861326
 31
0.0
  0
LINE
  5
96
100
AcDbEntity
  8
0
  6
HIDDEN
 62
   174
100
AcDbLine
 10
373.094217
 20
193.861326
 30
0.0
 11
369.592109
 21
193.861326
 31
0.0
  0
LINE
  5
97
100
AcDbEntity
  8
0
  6
HIDDEN
 62
   174
100
AcDbLine
 10
326.796252
 20
364.861326
 30
0.0
 11
327.33041
 21
364.861326
 31
0.0
  0
LINE
  5
98
100
AcDbEntity
  8
0
  6
HIDDEN
 62
   174
100
AcDbLine
 10
324.873761
 20
364.861326
 30
0.0
 11
326.796252
 21
364.861326
 31
0.0
  0
LINE
  5
99
100
AcDbEntity
  8
0
  6
HIDDEN
 62
   174
100
AcDbLine
 10
415.882856
 20
364.861326
 30
0.0
 11
416.823649
 21
364.861326
 31
0.0
  0
LINE
  5
9A
100
AcDbEntity
  8
0
  6
Continuous
 62
   174
100
AcDbLine
 10
142.93317
 20
361.711326
 30
0.0
 11
141.81252
 21
361.711326
 31
0.0
  0
LINE
  5
9B
100
AcDbEntity
  8
0
  6
HIDDEN
 62
   174
100
AcDbLine
 10
140.691778
 20
354.961326
 30
0.0
 11
140.691778
 21
361.711326
 31
0.0
  0
LINE
  5
9C
100
AcDbEntity
  8
0
  6
Continuous
 62
   174
100
AcDbLine
 10
260.616778
 20
346.861326
 30
0.0
 11
260.616778
 21
328.861326
 31
0.0
  0
LINE
  5
9D
100
AcDbEntity
  8
0
  6
HIDDEN
 62
   174
100
AcDbLine
 10
467.009278
 20
247.861326
 30
0.0
 11
467.009278
 21
211.861326
 31
0.0
  0
LINE
  5
9E
100
AcDbEntity
  8
0
  6
Continuous
 62
   174
100
AcDbLine
 10
386.6509
 20
193.861326
 30
0.0
 11
391.096207
 21
193.861326
 31
0.0
  0
LINE
  5
9F
100
AcDbEntity
  8
0
  6
Continuous
 62
   174
100
AcDbLine
 10
145.85781
 20
354.961326
 30
0.0
 11
143.473344
 21
354.961326
 31
0.0
  0
LINE
  5
A0
100
AcDbEntity
  8
0
  6
Continuous
 62
   174
100
AcDbLine
 10
143.473344
 20
354.961326
 30
0.0
 11
142.642631
 21
354.961326
 31
0.0
  0
LINE
  5
A1
100
AcDbEntity
  8
0
  6
Continuous
 62
   174
100
AcDbLine
 10
436.116778
 20
370.711326
 30
0.0
 11
436.116778
 21
378.361326
 31
0.0
  0
LINE
  5
A2
100
AcDbEntity
  8
0
  6
HIDDEN
 62
   174
100
AcDbLine
 10
330.345881
 20
364.861326
 30
0.0
 11
329.398471
 21
364.861326
 31
0.0
  0
LINE
  5
A3
100
AcDbEntity
  8
0
  6
Continuous
 62
   174
100
AcDbLine
 10
427.102595
 20
370.711326
 30
0.0
 11
390.784013
 21
370.711326
 31
0.0
  0
LINE
  5
A4
100
AcDbEntity
  8
0
  6
Continuous
 62
   174
100
AcDbLine
 10
490.116778
 20
259.202317
 30
0.0
 11
490.116778
 21
299.700329
 31
0.0
  0
LINE
  5
A5
100
AcDbEntity
  8
0
  6
HIDDEN
 62
   174
100
AcDbLine
 10
281.429278
 20
247.861326
 30
0.0
 11
281.429278
 21
211.861326
 31
0.0
  0
LINE
  5
A6
100
AcDbEntity
  8
0
  6
HIDDEN
 62
   174
100
AcDbLine
 10
127.416778
 20
354.961326
 30
0.0
 11
127.416778
 21
361.711326
 31
0.0
  0
LINE
  5
A7
100
AcDbEntity
  8
0
  6
HIDDEN
 62
   174
100
AcDbLine
 10
150.366778
 20
346.861326
 30
0.0
 11
153.966778
 21
346.861326
 31
0.0
  0
LINE
  5
A8
100
AcDbEntity
  8
0
  6
Continuous
 62
   174
100
AcDbLine
 10
260.616778
 20
328.861326
 30
0.0
 11
260.616778
 21
229.861326
 31
0.0
  0
LINE
  5
A9
100
AcDbEntity
  8
0
  6
HIDDEN
 62
   174
100
AcDbLine
 10
425.429278
 20
211.861326
 30
0.0
 11
425.429278
 21
252.361326
 31
0.0
  0
LINE
  5
AA
100
AcDbEntity
  8
0
  6
HIDDEN
 62
   174
100
AcDbLine
 10
324.449683
 20
346.861326
 30
0.0
 11
323.539568
 21
346.861326
 31
0.0
  0
LINE
  5
AB
100
AcDbEntity
  8
0
  6
HIDDEN
 62
   174
100
AcDbLine
 10
369.595116
 20
193.861326
 30
0.0
 11
373.094217
 21
193.861326
 31
0.0
  0
LINE
  5
AC
100
AcDbEntity
  8
0
  6
HIDDEN
 62
   174
100
AcDbLine
 10
382.866073
 20
193.861326
 30
0.0
 11
383.396622
 21
193.861326
 31
0.0
  0
LINE
  5
AD
100
AcDbEntity
  8
0
  6
Continuous
 62
   174
100
AcDbLine
 10
98.616778
 20
306.361326
 30
0.0
 11
98.616778
 21
252.361326
 31
0.0
  0
LINE
  5
AE
100
AcDbEntity
  8
0
  6
HIDDEN
 62
   174
100
AcDbLine
 10
368.619435
 20
193.861326
 30
0.0
 11
369.595116
 21
193.861326
 31
0.0
  0
LINE
  5
AF
100
AcDbEntity
  8
0
  6
HIDDEN
 62
   174
100
AcDbLine
 10
413.566363
 20
364.861326
 30
0.0
 11
412.590682
 21
364.861326
 31
0.0
  0
LINE
  5
B0
100
AcDbEntity
  8
0
  6
Continuous
 62
   174
100
AcDbLine
 10
98.616778
 20
307.486326
 30
0.0
 11
105.366778
 21
307.486326
 31
0.0
  0
LINE
  5
B1
100
AcDbEntity
  8
0
  6
HIDDEN
 62
   174
100
AcDbLine
 10
360.864509
 20
193.861326
 30
0.0
 11
362.764141
 21
193.861326
 31
0.0
  0
LINE
  5
B2
100
AcDbEntity
  8
0
  6
HIDDEN
 62
   174
100
AcDbLine
 10
279.224278
 20
247.861326
 30
0.0
 11
279.224278
 21
211.861326
 31
0.0
  0
ARC
  5
B3
100
AcDbEntity
  8
0
  6
HIDDEN
 62
   174
100
AcDbCircle
 10
98.616778
 20
248.986326
 30
0.0
 40
2.25
100
AcDbArc
 50
-270.0
 51
-180.0
  0
LINE
  5
B4
100
AcDbEntity
  8
0
  6
HIDDEN
 62
   174
100
AcDbLine
 10
233.616778
 20
328.861326
 30
0.0
 11
233.616778
 21
328.411326
 31
0.0
  0
LINE
  5
B5
100
AcDbEntity
  8
0
  6
Continuous
 62
   174
100
AcDbLine
 10
310.116778
 20
370.711326
 30
0.0
 11
310.116778
 21
378.361326
 31
0.0
  0
LINE
  5
B6
100
AcDbEntity
  8
0
  6
Continuous
 62
   174
100
AcDbLine
 10
391.116778
 20
193.861326
 30
0.0
 11
391.116778
 21
188.011326
 31
0.0
  0
LINE
  5
B7
100
AcDbEntity
  8
0
  6
HIDDEN
 62
   174
100
AcDbLine
 10
281.429278
 20
211.861326
 30
0.0
 11
281.429278
 21
252.361326
 31
0.0
  0
LINE
  5
B8
100
AcDbEntity
  8
0
  6
Continuous
 62
   174
100
AcDbLine
 10
98.616778
 20
251.236326
 30
0.0
 11
105.366778
 21
251.236326
 31
0.0
  0
LINE
  5
B9
100
AcDbEntity
  8
0
  6
HIDDEN
 62
   174
100
AcDbLine
 10
323.616778
 20
346.861326
 30
0.0
 11
323.616778
 21
364.861326
 31
0.0
  0
LINE
  5
BA
100
AcDbEntity
  8
0
  6
HIDDEN
 62
   174
100
AcDbLine
 10
362.764141
 20
193.861326
 30
0.0
 11
363.341008
 21
193.861326
 31
0.0
  0
LINE
  5
BB
100
AcDbEntity
  8
0
  6
HIDDEN
 62
   174
100
AcDbLine
 10
383.396622
 20
193.861326
 30
0.0
 11
385.314902
 21
193.861326
 31
0.0
  0
LINE
  5
BC
100
AcDbEntity
  8
0
  6
HIDDEN
 62
   174
100
AcDbLine
 10
395.478354
 20
364.861326
 30
0.0
 11
391.0932
 21
364.861326
 31
0.0
  0
LINE
  5
BD
100
AcDbEntity
  8
0
  6
HIDDEN
 62
   174
100
AcDbLine
 10
386.593153
 20
211.861326
 30
0.0
 11
373.094217
 21
211.861326
 31
0.0
  0
LINE
  5
BE
100
AcDbEntity
  8
0
  6
Continuous
 62
   174
100
AcDbLine
 10
98.616778
 20
307.486326
 30
0.0
 11
105.366778
 21
307.486326
 31
0.0
  0
LINE
  5
BF
100
AcDbEntity
  8
0
  6
HIDDEN
 62
   174
100
AcDbLine
 10
346.095742
 20
211.861326
 30
0.0
 11
359.537534
 21
211.861326
 31
0.0
  0
LINE
  5
C0
100
AcDbEntity
  8
0
  6
HIDDEN
 62
   174
100
AcDbLine
 10
323.483024
 20
364.861326
 30
0.0
 11
319.097268
 21
364.861326
 31
0.0
  0
LINE
  5
C1
100
AcDbEntity
  8
0
  6
HIDDEN
 62
   174
100
AcDbLine
 10
427.090564
 20
364.861326
 30
0.0
 11
422.594127
 21
364.861326
 31
0.0
  0
LINE
  5
C2
100
AcDbEntity
  8
0
  6
HIDDEN
 62
   174
100
AcDbLine
 10
467.009278
 20
247.861326
 30
0.0
 11
467.009278
 21
211.861326
 31
0.0
  0
ARC
  5
C3
100
AcDbEntity
  8
0
  6
Continuous
 62
   174
100
AcDbCircle
 10
98.616778
 20
309.736326
 30
0.0
 40
2.25
100
AcDbArc
 50
180.0
 51
225.0
  0
ARC
  5
C4
100
AcDbEntity
  8
0
  6
HIDDEN
 62
   174
100
AcDbCircle
 10
98.616778
 20
309.736326
 30
0.0
 40
2.25
100
AcDbArc
 50
180.0
 51
225.0
  0
LINE
  5
C5
100
AcDbEntity
  8
0
  6
Continuous
 62
   174
100
AcDbLine
 10
436.090055
 20
364.861326
 30
0.0
 11
427.063495
 21
364.861326
 31
0.0
  0
LINE
  5
C6
100
AcDbEntity
  8
0
  6
HIDDEN
 62
   174
100
AcDbLine
 10
320.804278
 20
247.861326
 30
0.0
 11
320.804278
 21
211.861326
 31
0.0
  0
LINE
  5
C7
100
AcDbEntity
  8
0
  6
HIDDEN
 62
   174
100
AcDbLine
 10
98.616778
 20
307.486326
 30
0.0
 11
105.366778
 21
307.486326
 31
0.0
  0
LINE
  5
C8
100
AcDbEntity
  8
0
  6
HIDDEN
 62
   174
100
AcDbLine
 10
98.616778
 20
327.823665
 30
0.0
 11
98.616778
 21
317.699312
 31
0.0
  0
LINE
  5
C9
100
AcDbEntity
  8
0
  6
HIDDEN
 62
   174
100
AcDbLine
 10
349.742819
 20
346.861326
 30
0.0
 11
337.096251
 21
346.861326
 31
0.0
  0
LINE
  5
CA
100
AcDbEntity
  8
0
  6
HIDDEN
 62
   174
100
AcDbLine
 10
421.610023
 20
364.861326
 30
0.0
 11
421.321289
 21
364.861326
 31
0.0
  0
LINE
  5
CB
100
AcDbEntity
  8
0
  6
HIDDEN
 62
   174
100
AcDbLine
 10
355.095234
 20
193.861326
 30
0.0
 11
359.591671
 21
193.861326
 31
0.0
  0
LINE
  5
CC
100
AcDbEntity
  8
0
  6
Continuous
 62
   174
100
AcDbLine
 10
318.788082
 20
370.711326
 30
0.0
 11
310.097777
 21
370.711326
 31
0.0
  0
LINE
  5
CD
100
AcDbEntity
  8
0
  6
HIDDEN
 62
   174
100
AcDbLine
 10
464.804278
 20
211.861326
 30
0.0
 11
464.804278
 21
252.361326
 31
0.0
  0
LINE
  5
CE
100
AcDbEntity
  8
0
  6
HIDDEN
 62
   174
100
AcDbLine
 10
233.6024
 20
328.861326
 30
0.0
 11
251.601383
 21
328.861326
 31
0.0
  0
LINE
  5
CF
100
AcDbEntity
  8
0
  6
HIDDEN
 62
   174
100
AcDbLine
 10
105.366778
 20
327.823665
 30
0.0
 11
105.366778
 21
307.57496
 31
0.0
  0
LINE
  5
D0
100
AcDbEntity
  8
0
  6
HIDDEN
 62
   174
100
AcDbLine
 10
320.804278
 20
211.861326
 30
0.0
 11
320.804278
 21
252.361326
 31
0.0
  0
LINE
  5
D1
100
AcDbEntity
  8
0
  6
HIDDEN
 62
   174
100
AcDbLine
 10
402.341812
 20
364.861326
 30
0.0
 11
401.393801
 21
364.861326
 31
0.0
  0
LINE
  5
D2
100
AcDbEntity
  8
0
  6
Continuous
 62
   174
100
AcDbLine
 10
485.616778
 20
346.861326
 30
0.0
 11
260.616778
 21
346.861326
 31
0.0
  0
LINE
  5
D3
100
AcDbEntity
  8
0
  6
HIDDEN
 62
   174
100
AcDbLine
 10
320.804278
 20
247.861326
 30
0.0
 11
320.804278
 21
211.861326
 31
0.0
  0
LINE
  5
D4
100
AcDbEntity
  8
0
  6
Continuous
 62
   174
100
AcDbLine
 10
337.096251
 20
364.861326
 30
0.0
 11
324.449683
 21
364.861326
 31
0.0
  0
LINE
  5
D5
100
AcDbEntity
  8
0
  6
HIDDEN
 62
   174
100
AcDbLine
 10
373.094217
 20
193.861326
 30
0.0
 11
386.707444
 21
193.861326
 31
0.0
  0
LINE
  5
D6
100
AcDbEntity
  8
0
  6
Continuous
 62
   174
100
AcDbLine
 10
105.366778
 20
327.736326
 30
0.0
 11
105.366778
 21
307.486326
 31
0.0
  0
LINE
  5
D7
100
AcDbEntity
  8
0
  6
HIDDEN
 62
   174
100
AcDbLine
 10
105.366778
 20
251.327687
 30
0.0
 11
105.366778
 21
231.07838
 31
0.0
  0
LINE
  5
D8
100
AcDbEntity
  8
0
  6
HIDDEN
 62
   174
100
AcDbLine
 10
425.429278
 20
211.861326
 30
0.0
 11
425.429278
 21
252.361326
 31
0.0
  0
ARC
  5
D9
100
AcDbEntity
  8
0
  6
Continuous
 62
   174
100
AcDbCircle
 10
98.616778
 20
325.486326
 30
0.0
 40
2.25
100
AcDbArc
 50
-270.0
 51
-180.0
  0
ARC
  5
DA
100
AcDbEntity
  8
0
  6
Continuous
 62
   174
100
AcDbCircle
 10
98.616778
 20
233.236326
 30
0.0
 40
2.25
100
AcDbArc
 50
225.0
 51
270.0
  0
LINE
  5
DB
100
AcDbEntity
  8
0
  6
HIDDEN
 62
   174
100
AcDbLine
 10
395.616778
 20
346.861326
 30
0.0
 11
395.616778
 21
364.861326
 31
0.0
  0
LINE
  5
DC
100
AcDbEntity
  8
0
  6
HIDDEN
 62
   174
100
AcDbLine
 10
350.616778
 20
346.861326
 30
0.0
 11
350.616778
 21
364.861326
 31
0.0
  0
LINE
  5
DD
100
AcDbEntity
  8
0
  6
Continuous
 62
   174
100
AcDbLine
 10
391.116778
 20
193.861326
 30
0.0
 11
391.116778
 21
188.011326
 31
0.0
  0
LINE
  5
DE
100
AcDbEntity
  8
0
  6
Continuous
 62
   174
100
AcDbLine
 10
355.116778
 20
364.861326
 30
0.0
 11
355.116778
 21
370.711326
 31
0.0
  0
LINE
  5
DF
100
AcDbEntity
  8
0
  6
HIDDEN
 62
   174
100
AcDbLine
 10
464.804278
 20
211.861326
 30
0.0
 11
464.804278
 21
252.361326
 31
0.0
  0
LINE
  5
E0
100
AcDbEntity
  8
0
  6
HIDDEN
 62
   174
100
AcDbLine
 10
141.816778
 20
354.961326
 30
0.0
 11
141.816778
 21
361.711326
 31
0.0
  0
LINE
  5
E1
100
AcDbEntity
  8
0
  6
Continuous
 62
   174
100
AcDbLine
 10
400.116778
 20
211.861326
 30
0.0
 11
400.116778
 21
193.861326
 31
0.0
  0
LINE
  5
E2
100
AcDbEntity
  8
0
  6
Continuous
 62
   174
100
AcDbLine
 10
346.116778
 20
211.861326
 30
0.0
 11
346.116778
 21
193.861326
 31
0.0
  0
LINE
  5
E3
100
AcDbEntity
  8
0
  6
Continuous
 62
   174
100
AcDbLine
 10
355.116778
 20
193.861326
 30
0.0
 11
355.116778
 21
188.011326
 31
0.0
  0
LINE
  5
E4
100
AcDbEntity
  8
0
  6
HIDDEN
 62
   174
100
AcDbLine
 10
150.366778
 20
387.136326
 30
0.0
 11
153.966778
 21
387.136326
 31
0.0
  0
LINE
  5
E5
100
AcDbEntity
  8
0
  6
HIDDEN
 62
   174
100
AcDbLine
 10
396.445013
 20
346.861326
 30
0.0
 11
395.534898
 21
346.861326
 31
0.0
  0
LINE
  5
E6
100
AcDbEntity
  8
0
  6
HIDDEN
 62
   174
100
AcDbLine
 10
376.521735
 20
193.861326
 30
0.0
 11
377.559976
 21
193.861326
 31
0.0
  0
LINE
  5
E7
100
AcDbEntity
  8
0
  6
HIDDEN
 62
   174
100
AcDbLine
 10
419.421657
 20
364.861326
 30
0.0
 11
418.84479
 21
364.861326
 31
0.0
  0
LINE
  5
E8
100
AcDbEntity
  8
0
  6
HIDDEN
 62
   174
100
AcDbLine
 10
337.096251
 20
364.861326
 30
0.0
 11
323.483024
 21
364.861326
 31
0.0
  0
LINE
  5
E9
100
AcDbEntity
  8
0
  6
Continuous
 62
   174
100
AcDbLine
 10
395.473542
 20
378.361326
 30
0.0
 11
382.093708
 21
378.361326
 31
0.0
  0
LINE
  5
EA
100
AcDbEntity
  8
0
  6
Continuous
 62
   174
100
AcDbLine
 10
105.366778
 20
307.486326
 30
0.0
 11
105.366778
 21
306.361326
 31
0.0
  0
ARC
  5
EB
100
AcDbEntity
  8
0
  6
HIDDEN
 62
   174
100
AcDbCircle
 10
98.616778
 20
309.736326
 30
0.0
 40
2.25
100
AcDbArc
 50
225.0
 51
270.0
  0
LINE
  5
EC
100
AcDbEntity
  8
0
  6
Continuous
 62
   174
100
AcDbLine
 10
150.366778
 20
346.861326
 30
0.0
 11
150.366778
 21
395.011326
 31
0.0
  0
LINE
  5
ED
100
AcDbEntity
  8
0
  6
HIDDEN
 62
   174
100
AcDbLine
 10
366.301739
 20
193.861326
 30
0.0
 11
368.619435
 21
193.861326
 31
0.0
  0
LINE
  5
EE
100
AcDbEntity
  8
0
  6
HIDDEN
 62
   174
100
AcDbLine
 10
398.789176
 20
364.861326
 30
0.0
 11
396.870896
 21
364.861326
 31
0.0
  0
ARC
  5
EF
100
AcDbEntity
  8
0
  6
HIDDEN
 62
   174
100
AcDbCircle
 10
98.616778
 20
233.236326
 30
0.0
 40
2.25
100
AcDbArc
 50
225.0
 51
270.0
  0
LINE
  5
F0
100
AcDbEntity
  8
0
  6
HIDDEN
 62
   174
100
AcDbLine
 10
422.616778
 20
346.861326
 30
0.0
 11
422.616778
 21
364.861326
 31
0.0
  0
LINE
  5
F1
100
AcDbEntity
  8
0
  6
HIDDEN
 62
   174
100
AcDbLine
 10
415.884059
 20
364.861326
 30
0.0
 11
413.566363
 21
364.861326
 31
0.0
  0
LINE
  5
F2
100
AcDbEntity
  8
0
  6
HIDDEN
 62
   174
100
AcDbLine
 10
416.831469
 20
364.861326
 30
0.0
 11
415.884059
 21
364.861326
 31
0.0
  0
LINE
  5
F3
100
AcDbEntity
  8
0
  6
HIDDEN
 62
   174
100
AcDbLine
 10
346.84946
 20
364.861326
 30
0.0
 11
344.835537
 21
364.861326
 31
0.0
  0
LINE
  5
F4
100
AcDbEntity
  8
0
  6
HIDDEN
 62
   174
100
AcDbLine
 10
324.553747
 20
364.861326
 30
0.0
 11
323.803038
 21
364.861326
 31
0.0
  0
LINE
  5
F5
100
AcDbEntity
  8
0
  6
Continuous
 62
   174
100
AcDbLine
 10
260.616778
 20
229.861326
 30
0.0
 11
260.616778
 21
328.861326
 31
0.0
  0
LINE
  5
F6
100
AcDbEntity
  8
0
  6
Continuous
 62
   174
100
AcDbLine
 10
126.57456
 20
354.961326
 30
0.0
 11
125.743847
 21
354.961326
 31
0.0
  0
LINE
  5
F7
100
AcDbEntity
  8
0
  6
HIDDEN
 62
   174
100
AcDbLine
 10
327.324395
 20
364.861326
 30
0.0
 11
326.793244
 21
364.861326
 31
0.0
  0
LINE
  5
F8
100
AcDbEntity
  8
0
  6
HIDDEN
 62
   174
100
AcDbLine
 10
150.366778
 20
387.136326
 30
0.0
 11
153.966778
 21
387.136326
 31
0.0
  0
LINE
  5
F9
100
AcDbEntity
  8
0
  6
Continuous
 62
   174
100
AcDbLine
 10
359.537534
 20
193.861326
 30
0.0
 11
360.447649
 21
193.861326
 31
0.0
  0
LINE
  5
FA
100
AcDbEntity
  8
0
  6
Continuous
 62
   174
100
AcDbLine
 10
319.093659
 20
364.861326
 30
0.0
 11
310.097777
 21
364.861326
 31
0.0
  0
LINE
  5
FB
100
AcDbEntity
  8
0
  6
Continuous
 62
   174
100
AcDbLine
 10
350.652934
 20
364.861326
 30
0.0
 11
349.742819
 21
364.861326
 31
0.0
  0
LINE
  5
FC
100
AcDbEntity
  8
0
  6
HIDDEN
 62
   174
100
AcDbLine
 10
405.664063
 20
364.861326
 30
0.0
 11
404.625822
 21
364.861326
 31
0.0
  0
LINE
  5
FD
100
AcDbEntity
  8
0
  6
HIDDEN
 62
   174
100
AcDbLine
 10
343.888729
 20
364.861326
 30
0.0
 11
341.571033
 21
364.861326
 31
0.0
  0
LINE
  5
FE
100
AcDbEntity
  8
0
  6
HIDDEN
 62
   174
100
AcDbLine
 10
324.875566
 20
364.861326
 30
0.0
 11
324.553747
 21
364.861326
 31
0.0
  0
LINE
  5
FF
100
AcDbEntity
  8
0
  6
HIDDEN
 62
   174
100
AcDbLine
 10
359.616778
 20
211.861326
 30
0.0
 11
359.616778
 21
193.861326
 31
0.0
  0
LINE
  5
100
100
AcDbEntity
  8
0
  6
HIDDEN
 62
   174
100
AcDbLine
 10
385.63672
 20
193.861326
 30
0.0
 11
386.386828
 21
193.861326
 31
0.0
  0
LINE
  5
101
100
AcDbEntity
  8
0
  6
HIDDEN
 62
   174
100
AcDbLine
 10
421.321289
 20
364.861326
 30
0.0
 11
419.421657
 21
364.861326
 31
0.0
  0
LINE
  5
102
100
AcDbEntity
  8
0
  6
HIDDEN
 62
   174
100
AcDbLine
 10
350.598797
 20
364.861326
 30
0.0
 11
337.096251
 21
364.861326
 31
0.0
  0
LINE
  5
103
100
AcDbEntity
  8
0
  6
HIDDEN
 62
   174
100
AcDbLine
 10
105.366778
 20
327.823665
 30
0.0
 11
105.366778
 21
307.57496
 31
0.0
  0
LINE
  5
104
100
AcDbEntity
  8
0
  6
HIDDEN
 62
   174
100
AcDbLine
 10
150.366778
 20
381.286326
 30
0.0
 11
153.966778
 21
381.286326
 31
0.0
  0
LINE
  5
105
100
AcDbEntity
  8
0
  6
HIDDEN
 62
   174
100
AcDbLine
 10
96.366778
 20
249.077363
 30
0.0
 11
96.366778
 21
233.328102
 31
0.0
  0
LINE
  5
106
100
AcDbEntity
  8
0
  6
Continuous
 62
   174
100
AcDbLine
 10
349.742819
 20
364.861326
 30
0.0
 11
337.096251
 21
364.861326
 31
0.0
  0
LINE
  5
107
100
AcDbEntity
  8
0
  6
HIDDEN
 62
   174
100
AcDbLine
 10
386.616778
 20
211.861326
 30
0.0
 11
386.616778
 21
193.861326
 31
0.0
  0
LINE
  5
108
100
AcDbEntity
  8
0
  6
Continuous
 62
   174
100
AcDbLine
 10
96.366778
 20
325.573942
 30
0.0
 11
96.366778
 21
309.824682
 31
0.0
  0
LINE
  5
109
100
AcDbEntity
  8
0
  6
Continuous
 62
   174
100
AcDbLine
 10
310.116778
 20
346.861326
 30
0.0
 11
310.116778
 21
364.861326
 31
0.0
  0
LINE
  5
10A
100
AcDbEntity
  8
0
  6
HIDDEN
 62
   174
100
AcDbLine
 10
386.6509
 20
211.861326
 30
0.0
 11
400.09209
 21
211.861326
 31
0.0
  0
LINE
  5
10B
100
AcDbEntity
  8
0
  6
HIDDEN
 62
   174
100
AcDbLine
 10
323.539568
 20
346.861326
 30
0.0
 11
310.097777
 21
346.861326
 31
0.0
  0
LINE
  5
10C
100
AcDbEntity
  8
0
  6
Continuous
 62
   174
100
AcDbLine
 10
323.539568
 20
364.861326
 30
0.0
 11
319.093659
 21
364.861326
 31
0.0
  0
LINE
  5
10D
100
AcDbEntity
  8
0
  6
Continuous
 62
   174
100
AcDbLine
 10
98.616778
 20
252.007416
 30
0.0
 11
98.616778
 21
252.452548
 31
0.0
  0
LINE
  5
10E
100
AcDbEntity
  8
0
  6
HIDDEN
 62
   174
100
AcDbLine
 10
98.616778
 20
306.89102
 30
0.0
 11
98.616778
 21
317.699312
 31
0.0
  0
LINE
  5
10F
100
AcDbEntity
  8
0
  6
Continuous
 62
   174
100
AcDbLine
 10
125.743847
 20
354.961326
 30
0.0
 11
123.359382
 21
354.961326
 31
0.0
  0
LINE
  5
110
100
AcDbEntity
  8
0
  6
HIDDEN
 62
   174
100
AcDbLine
 10
365.354329
 20
193.861326
 30
0.0
 11
366.301739
 21
193.861326
 31
0.0
  0
LINE
  5
111
100
AcDbEntity
  8
0
  6
HIDDEN
 62
   174
100
AcDbLine
 10
422.594127
 20
364.861326
 30
0.0
 11
409.091581
 21
364.861326
 31
0.0
  0
LINE
  5
112
100
AcDbEntity
  8
0
  6
HIDDEN
 62
   174
100
AcDbLine
 10
359.537534
 20
211.861326
 30
0.0
 11
360.447649
 21
211.861326
 31
0.0
  0
ARC
  5
113
100
AcDbEntity
  8
0
  6
HIDDEN
 62
   174
100
AcDbCircle
 10
98.616778
 20
325.486326
 30
0.0
 40
2.25
100
AcDbArc
 50
-270.0
 51
-180.0
  0
LINE
  5
114
100
AcDbEntity
  8
0
  6
Continuous
 62
   174
100
AcDbLine
 10
485.616778
 20
299.611326
 30
0.0
 11
490.116778
 21
299.611326
 31
0.0
  0
LINE
  5
115
100
AcDbEntity
  8
0
  6
HIDDEN
 62
   174
100
AcDbLine
 10
425.429278
 20
247.861326
 30
0.0
 11
425.429278
 21
211.861326
 31
0.0
  0
LINE
  5
116
100
AcDbEntity
  8
0
  6
HIDDEN
 62
   174
100
AcDbLine
 10
464.804278
 20
247.861326
 30
0.0
 11
464.804278
 21
211.861326
 31
0.0
  0
LINE
  5
117
100
AcDbEntity
  8
0
  6
Continuous
 62
   174
100
AcDbLine
 10
98.616778
 20
327.736326
 30
0.0
 11
105.366778
 21
327.736326
 31
0.0
  0
LINE
  5
118
100
AcDbEntity
  8
0
  6
Continuous
 62
   174
100
AcDbLine
 10
98.616778
 20
306.450098
 30
0.0
 11
98.616778
 21
306.89102
 31
0.0
  0
LINE
  5
119
100
AcDbEntity
  8
0
  6
HIDDEN
 62
   174
100
AcDbLine
 10
134.608596
 20
354.961326
 30
0.0
 11
126.57456
 21
354.961326
 31
0.0
  0
LINE
  5
11A
100
AcDbEntity
  8
0
  6
Continuous
 62
   174
100
AcDbLine
 10
391.116778
 20
364.861326
 30
0.0
 11
391.116778
 21
370.711326
 31
0.0
  0
LINE
  5
11B
100
AcDbEntity
  8
0
  6
HIDDEN
 62
   174
100
AcDbLine
 10
359.591671
 20
193.861326
 30
0.0
 11
373.094217
 21
193.861326
 31
0.0
  0
LINE
  5
11C
100
AcDbEntity
  8
0
  6
Continuous
 62
   174
100
AcDbLine
 10
224.616778
 20
229.861326
 30
0.0
 11
260.616778
 21
229.861326
 31
0.0
  0
LINE
  5
11D
100
AcDbEntity
  8
0
  6
HIDDEN
 62
   174
100
AcDbLine
 10
105.366778
 20
251.327687
 30
0.0
 11
105.366778
 21
231.07838
 31
0.0
  0
ARC
  5
11E
100
AcDbEntity
  8
0
  6
Continuous
 62
   174
100
AcDbCircle
 10
98.616778
 20
233.236326
 30
0.0
 40
2.25
100
AcDbArc
 50
180.0
 51
225.0
  0
ARC
  5
11F
100
AcDbEntity
  8
0
  6
HIDDEN
 62
   174
100
AcDbCircle
 10
98.616778
 20
325.486326
 30
0.0
 40
2.25
100
AcDbArc
 50
-270.0
 51
-180.0
  0
LINE
  5
120
100
AcDbEntity
  8
0
  6
HIDDEN
 62
   174
100
AcDbLine
 10
98.616778
 20
328.861326
 30
0.0
 11
105.366778
 21
328.861326
 31
0.0
  0
LINE
  5
121
100
AcDbEntity
  8
0
  6
HIDDEN
 62
   174
100
AcDbLine
 10
98.616778
 20
252.361326
 30
0.0
 11
105.366778
 21
252.361326
 31
0.0
  0
LINE
  5
122
100
AcDbEntity
  8
0
  6
HIDDEN
 62
   174
100
AcDbLine
 10
251.616778
 20
328.861326
 30
0.0
 11
251.616778
 21
328.411326
 31
0.0
  0
LINE
  5
123
100
AcDbEntity
  8
0
  6
HIDDEN
 62
   174
100
AcDbLine
 10
379.843986
 20
193.861326
 30
0.0
 11
380.791997
 21
193.861326
 31
0.0
  0
LINE
  5
124
100
AcDbEntity
  8
0
  6
HIDDEN
 62
   174
100
AcDbLine
 10
395.79897
 20
364.861326
 30
0.0
 11
395.592645
 21
364.861326
 31
0.0
  0
LINE
  5
125
100
AcDbEntity
  8
0
  6
HIDDEN
 62
   174
100
AcDbLine
 10
409.091581
 20
364.861326
 30
0.0
 11
395.478354
 21
364.861326
 31
0.0
  0
LINE
  5
126
100
AcDbEntity
  8
0
  6
HIDDEN
 62
   174
100
AcDbLine
 10
281.429278
 20
211.861326
 30
0.0
 11
281.429278
 21
252.361326
 31
0.0
  0
LINE
  5
127
100
AcDbEntity
  8
0
  6
Continuous
 62
   174
100
AcDbLine
 10
123.366778
 20
346.861326
 30
0.0
 11
123.366778
 21
354.961326
 31
0.0
  0
LINE
  5
128
100
AcDbEntity
  8
0
  6
HIDDEN
 62
   174
100
AcDbLine
 10
98.616778
 20
327.736326
 30
0.0
 11
105.366778
 21
327.736326
 31
0.0
  0
LINE
  5
129
100
AcDbEntity
  8
0
  6
HIDDEN
 62
   174
100
AcDbLine
 10
98.616778
 20
252.361326
 30
0.0
 11
105.366778
 21
252.361326
 31
0.0
  0
LINE
  5
12A
100
AcDbEntity
  8
0
  6
HIDDEN
 62
   174
100
AcDbLine
 10
98.616778
 20
306.361326
 30
0.0
 11
105.366778
 21
306.361326
 31
0.0
  0
LINE
  5
12B
100
AcDbEntity
  8
0
  6
Continuous
 62
   174
100
AcDbLine
 10
98.616778
 20
328.503995
 30
0.0
 11
98.616778
 21
328.949128
 31
0.0
  0
LINE
  5
12C
100
AcDbEntity
  8
0
  6
HIDDEN
 62
   174
100
AcDbLine
 10
412.590682
 20
364.861326
 30
0.0
 11
409.091581
 21
364.861326
 31
0.0
  0
LINE
  5
12D
100
AcDbEntity
  8
0
  6
Continuous
 62
   174
100
AcDbLine
 10
98.616778
 20
327.823665
 30
0.0
 11
98.616778
 21
317.699312
 31
0.0
  0
LINE
  5
12E
100
AcDbEntity
  8
0
  6
HIDDEN
 62
   174
100
AcDbLine
 10
98.616778
 20
241.111326
 30
0.0
 11
105.366778
 21
241.111326
 31
0.0
  0
LINE
  5
12F
100
AcDbEntity
  8
0
  6
Continuous
 62
   174
100
AcDbLine
 10
436.090055
 20
370.711326
 30
0.0
 11
427.102595
 21
370.711326
 31
0.0
  0
LINE
  5
130
100
AcDbEntity
  8
0
  6
Continuous
 62
   174
100
AcDbLine
 10
385.740785
 20
193.861326
 30
0.0
 11
386.6509
 21
193.861326
 31
0.0
  0
LINE
  5
131
100
AcDbEntity
  8
0
  6
Continuous
 62
   174
100
AcDbLine
 10
364.094725
 20
370.711326
 30
0.0
 11
355.107265
 21
370.711326
 31
0.0
  0
LINE
  5
132
100
AcDbEntity
  8
0
  6
HIDDEN
 62
   174
100
AcDbLine
 10
323.803038
 20
364.861326
 30
0.0
 11
323.597315
 21
364.861326
 31
0.0
  0
LINE
  5
133
100
AcDbEntity
  8
0
  6
HIDDEN
 62
   174
100
AcDbLine
 10
150.366778
 20
381.286326
 30
0.0
 11
153.966778
 21
381.286326
 31
0.0
  0
LINE
  5
134
100
AcDbEntity
  8
0
  6
HIDDEN
 62
   174
100
AcDbLine
 10
98.616778
 20
327.736326
 30
0.0
 11
105.366778
 21
327.736326
 31
0.0
  0
LINE
  5
135
100
AcDbEntity
  8
0
  6
Continuous
 62
   174
100
AcDbLine
 10
355.083203
 20
188.011326
 30
0.0
 11
391.401785
 21
188.011326
 31
0.0
  0
LINE
  5
136
100
AcDbEntity
  8
0
  6
Continuous
 62
   174
100
AcDbLine
 10
323.478212
 20
378.361326
 30
0.0
 11
310.097777
 21
378.361326
 31
0.0
  0
LINE
  5
137
100
AcDbEntity
  8
0
  6
HIDDEN
 62
   174
100
AcDbLine
 10
425.429278
 20
247.861326
 30
0.0
 11
425.429278
 21
211.861326
 31
0.0
  0
LINE
  5
138
100
AcDbEntity
  8
0
  6
HIDDEN
 62
   174
100
AcDbLine
 10
464.804278
 20
247.861326
 30
0.0
 11
464.804278
 21
211.861326
 31
0.0
  0
LINE
  5
139
100
AcDbEntity
  8
0
  6
HIDDEN
 62
   174
100
AcDbLine
 10
98.616778
 20
317.699312
 30
0.0
 11
98.616778
 21
307.57496
 31
0.0
  0
LINE
  5
13A
100
AcDbEntity
  8
0
  6
HIDDEN
 62
   174
100
AcDbLine
 10
337.096251
 20
346.861326
 30
0.0
 11
324.449683
 21
346.861326
 31
0.0
  0
LINE
  5
13B
100
AcDbEntity
  8
0
  6
Continuous
 62
   174
100
AcDbLine
 10
373.094217
 20
193.861326
 30
0.0
 11
385.740785
 21
193.861326
 31
0.0
  0
LINE
  5
13C
100
AcDbEntity
  8
0
  6
Continuous
 62
   174
100
AcDbLine
 10
391.096207
 20
193.861326
 30
0.0
 11
400.09209
 21
193.861326
 31
0.0
  0
LINE
  5
13D
100
AcDbEntity
  8
0
  6
HIDDEN
 62
   174
100
AcDbLine
 10
350.595187
 20
364.861326
 30
0.0
 11
350.389464
 21
364.861326
 31
0.0
  0
LINE
  5
13E
100
AcDbEntity
  8
0
  6
Continuous
 62
   174
100
AcDbLine
 10
427.116778
 20
364.861326
 30
0.0
 11
427.116778
 21
370.711326
 31
0.0
  0
LINE
  5
13F
100
AcDbEntity
  8
0
  6
Continuous
 62
   174
100
AcDbLine
 10
485.616778
 20
211.861326
 30
0.0
 11
485.616778
 21
346.861326
 31
0.0
  0
LINE
  5
140
100
AcDbEntity
  8
0
  6
HIDDEN
 62
   174
100
AcDbLine
 10
395.534898
 20
346.861326
 30
0.0
 11
382.093708
 21
346.861326
 31
0.0
  0
LINE
  5
141
100
AcDbEntity
  8
0
  6
Continuous
 62
   174
100
AcDbLine
 10
396.445013
 20
364.861326
 30
0.0
 11
395.534898
 21
364.861326
 31
0.0
  0
LINE
  5
142
100
AcDbEntity
  8
0
  6
Continuous
 62
   174
100
AcDbLine
 10
400.116778
 20
188.011326
 30
0.0
 11
400.116778
 21
180.361326
 31
0.0
  0
LINE
  5
143
100
AcDbEntity
  8
0
  6
HIDDEN
 62
   174
100
AcDbLine
 10
422.591119
 20
364.861326
 30
0.0
 11
422.384794
 21
364.861326
 31
0.0
  0
LINE
  5
144
100
AcDbEntity
  8
0
  6
HIDDEN
 62
   174
100
AcDbLine
 10
98.616778
 20
328.861326
 30
0.0
 11
105.366778
 21
328.861326
 31
0.0
  0
LINE
  5
145
100
AcDbEntity
  8
0
  6
HIDDEN
 62
   174
100
AcDbLine
 10
337.096251
 20
364.861326
 30
0.0
 11
333.668733
 21
364.861326
 31
0.0
  0
LINE
  5
146
100
AcDbEntity
  8
0
  6
Continuous
 62
   174
100
AcDbLine
 10
391.401785
 20
188.011326
 30
0.0
 11
400.09209
 21
188.011326
 31
0.0
  0
LINE
  5
147
100
AcDbEntity
  8
0
  6
HIDDEN
 62
   174
100
AcDbLine
 10
421.738149
 20
346.861326
 30
0.0
 11
409.091581
 21
346.861326
 31
0.0
  0
LINE
  5
148
100
AcDbEntity
  8
0
  6
HIDDEN
 62
   174
100
AcDbLine
 10
396.549078
 20
364.861326
 30
0.0
 11
395.79897
 21
364.861326
 31
0.0
  0
LINE
  5
149
100
AcDbEntity
  8
0
  6
HIDDEN
 62
   174
100
AcDbLine
 10
341.571033
 20
364.861326
 30
0.0
 11
340.595351
 21
364.861326
 31
0.0
  0
ARC
  5
14A
100
AcDbEntity
  8
0
  6
Continuous
 62
   174
100
AcDbCircle
 10
98.616778
 20
325.486326
 30
0.0
 40
2.25
100
AcDbArc
 50
-270.0
 51
-180.0
  0
ARC
  5
14B
100
AcDbEntity
  8
0
  6
Continuous
 62
   174
100
AcDbCircle
 10
98.616778
 20
233.236326
 30
0.0
 40
2.25
100
AcDbArc
 50
225.0
 51
270.0
  0
LINE
  5
14C
100
AcDbEntity
  8
0
  6
Continuous
 62
   174
100
AcDbLine
 10
364.116778
 20
370.711326
 30
0.0
 11
364.116778
 21
378.361326
 31
0.0
  0
LINE
  5
14D
100
AcDbEntity
  8
0
  6
HIDDEN
 62
   174
100
AcDbLine
 10
380.791997
 20
193.861326
 30
0.0
 11
382.866073
 21
193.861326
 31
0.0
  0
LINE
  5
14E
100
AcDbEntity
  8
0
  6
HIDDEN
 62
   174
100
AcDbLine
 10
347.426327
 20
364.861326
 30
0.0
 11
346.84946
 21
364.861326
 31
0.0
  0
LINE
  5
14F
100
AcDbEntity
  8
0
  6
HIDDEN
 62
   174
100
AcDbLine
 10
355.095234
 20
370.711326
 30
0.0
 11
319.097268
 21
370.711326
 31
0.0
  0
LINE
  5
150
100
AcDbEntity
  8
0
  6
Continuous
 62
   174
100
AcDbLine
 10
350.599398
 20
378.361326
 30
0.0
 11
323.478212
 21
378.361326
 31
0.0
  0
LINE
  5
151
100
AcDbEntity
  8
0
  6
HIDDEN
 62
   174
100
AcDbLine
 10
425.403272
 20
252.361326
 30
0.0
 11
464.775822
 21
252.361326
 31
0.0
  0
ARC
  5
152
100
AcDbEntity
  8
0
  6
HIDDEN
 62
   174
100
AcDbCircle
 10
98.616778
 20
248.986326
 30
0.0
 40
2.25
100
AcDbArc
 50
-270.0
 51
-180.0
  0
LINE
  5
153
100
AcDbEntity
  8
0
  6
HIDDEN
 62
   174
100
AcDbLine
 10
96.366778
 20
249.077363
 30
0.0
 11
96.366778
 21
233.328102
 31
0.0
  0
LINE
  5
154
100
AcDbEntity
  8
0
  6
Continuous
 62
   174
100
AcDbLine
 10
346.116778
 20
188.011326
 30
0.0
 11
346.116778
 21
180.361326
 31
0.0
  0
LINE
  5
155
100
AcDbEntity
  8
0
  6
HIDDEN
 62
   174
100
AcDbLine
 10
399.319725
 20
364.861326
 30
0.0
 11
398.789176
 21
364.861326
 31
0.0
  0
LINE
  5
156
100
AcDbEntity
  8
0
  6
Continuous
 62
   174
100
AcDbLine
 10
98.616778
 20
328.861326
 30
0.0
 11
105.366778
 21
328.861326
 31
0.0
  0
ARC
  5
157
100
AcDbEntity
  8
0
  6
HIDDEN
 62
   174
100
AcDbCircle
 10
98.616778
 20
233.236326
 30
0.0
 40
2.25
100
AcDbArc
 50
180.0
 51
225.0
  0
LINE
  5
158
100
AcDbEntity
  8
0
  6
HIDDEN
 62
   174
100
AcDbLine
 10
98.616778
 20
230.986326
 30
0.0
 11
105.366778
 21
230.986326
 31
0.0
  0
LINE
  5
159
100
AcDbEntity
  8
0
  6
HIDDEN
 62
   174
100
AcDbLine
 10
281.41201
 20
252.361326
 30
0.0
 11
320.78456
 21
252.361326
 31
0.0
  0
LINE
  5
15A
100
AcDbEntity
  8
0
  6
HIDDEN
 62
   174
100
AcDbLine
 10
105.366778
 20
229.861326
 30
0.0
 11
105.366778
 21
241.111326
 31
0.0
  0
LINE
  5
15B
100
AcDbEntity
  8
0
  6
HIDDEN
 62
   174
100
AcDbLine
 10
98.616778
 20
251.236326
 30
0.0
 11
105.366778
 21
251.236326
 31
0.0
  0
LINE
  5
15C
100
AcDbEntity
  8
0
  6
HIDDEN
 62
   174
100
AcDbLine
 10
386.386828
 20
193.861326
 30
0.0
 11
386.593153
 21
193.861326
 31
0.0
  0
LINE
  5
15D
100
AcDbEntity
  8
0
  6
Continuous
 62
   174
100
AcDbLine
 10
98.616778
 20
251.327687
 30
0.0
 11
98.616778
 21
241.202733
 31
0.0
  0
LINE
  5
15E
100
AcDbEntity
  8
0
  6
Continuous
 62
   174
100
AcDbLine
 10
427.063495
 20
364.861326
 30
0.0
 11
422.648264
 21
364.861326
 31
0.0
  0
LINE
  5
15F
100
AcDbEntity
  8
0
  6
HIDDEN
 62
   174
100
AcDbLine
 10
409.091581
 20
364.861326
 30
0.0
 11
405.664063
 21
364.861326
 31
0.0
  0
LINE
  5
160
100
AcDbEntity
  8
0
  6
Continuous
 62
   174
100
AcDbLine
 10
422.59533
 20
378.361326
 30
0.0
 11
395.473542
 21
378.361326
 31
0.0
  0
LINE
  5
161
100
AcDbEntity
  8
0
  6
Continuous
 62
   174
100
AcDbLine
 10
224.616778
 20
328.861326
 30
0.0
 11
260.616778
 21
328.861326
 31
0.0
  0
LINE
  5
162
100
AcDbEntity
  8
0
  6
HIDDEN
 62
   174
100
AcDbLine
 10
323.009278
 20
247.861326
 30
0.0
 11
323.009278
 21
211.861326
 31
0.0
  0
LINE
  5
163
100
AcDbEntity
  8
0
  6
Continuous
 62
   174
100
AcDbLine
 10
382.116778
 20
346.861326
 30
0.0
 11
382.116778
 21
364.861326
 31
0.0
  0
LINE
  5
164
100
AcDbEntity
  8
0
  6
Continuous
 62
   174
100
AcDbLine
 10
360.447649
 20
193.861326
 30
0.0
 11
373.094217
 21
193.861326
 31
0.0
  0
LINE
  5
165
100
AcDbEntity
  8
0
  6
Continuous
 62
   174
100
AcDbLine
 10
395.534898
 20
364.861326
 30
0.0
 11
391.089591
 21
364.861326
 31
0.0
  0
LINE
  5
166
100
AcDbEntity
  8
0
  6
Continuous
 62
   174
100
AcDbLine
 10
422.648264
 20
364.861326
 30
0.0
 11
421.738149
 21
364.861326
 31
0.0
  0
LINE
  5
167
100
AcDbEntity
  8
0
  6
HIDDEN
 62
   174
100
AcDbLine
 10
404.625822
 20
364.861326
 30
0.0
 11
402.341812
 21
364.861326
 31
0.0
  0
LINE
  5
168
100
AcDbEntity
  8
0
  6
Continuous
 62
   174
100
AcDbLine
 10
485.616778
 20
259.111326
 30
0.0
 11
490.116778
 21
259.111326
 31
0.0
  0
LINE
  5
169
100
AcDbEntity
  8
0
  6
HIDDEN
 62
   174
100
AcDbLine
 10
355.095234
 20
364.861326
 30
0.0
 11
350.598797
 21
364.861326
 31
0.0
  0
LINE
  5
16A
100
AcDbEntity
  8
0
  6
HIDDEN
 62
   174
100
AcDbLine
 10
98.616778
 20
230.986326
 30
0.0
 11
105.366778
 21
230.986326
 31
0.0
  0
LINE
  5
16B
100
AcDbEntity
  8
0
  6
HIDDEN
 62
   174
100
AcDbLine
 10
127.416778
 20
361.711326
 30
0.0
 11
127.416778
 21
384.211326
 31
0.0
  0
LINE
  5
16C
100
AcDbEntity
  8
0
  6
HIDDEN
 62
   174
100
AcDbLine
 10
98.616778
 20
241.202733
 30
0.0
 11
98.616778
 21
231.07838
 31
0.0
  0
LINE
  5
16D
100
AcDbEntity
  8
0
  6
HIDDEN
 62
   174
100
AcDbLine
 10
350.652934
 20
346.861326
 30
0.0
 11
349.742819
 21
346.861326
 31
0.0
  0
LINE
  5
16E
100
AcDbEntity
  8
0
  6
Continuous
 62
   174
100
AcDbLine
 10
391.089591
 20
364.861326
 30
0.0
 11
382.093708
 21
364.861326
 31
0.0
  0
LINE
  5
16F
100
AcDbEntity
  8
0
  6
HIDDEN
 62
   174
100
AcDbLine
 10
233.616778
 20
328.861326
 30
0.0
 11
233.616778
 21
328.411326
 31
0.0
  0
LINE
  5
170
100
AcDbEntity
  8
0
  6
HIDDEN
 62
   174
100
AcDbLine
 10
373.094217
 20
193.861326
 30
0.0
 11
376.521735
 21
193.861326
 31
0.0
  0
LINE
  5
171
100
AcDbEntity
  8
0
  6
HIDDEN
 62
   174
100
AcDbLine
 10
279.224278
 20
247.861326
 30
0.0
 11
279.224278
 21
211.861326
 31
0.0
  0
LINE
  5
172
100
AcDbEntity
  8
0
  6
HIDDEN
 62
   174
100
AcDbLine
 10
320.804278
 20
211.861326
 30
0.0
 11
320.804278
 21
252.361326
 31
0.0
  0
LINE
  5
173
100
AcDbEntity
  8
0
  6
HIDDEN
 62
   174
100
AcDbLine
 10
96.366778
 20
325.573942
 30
0.0
 11
96.366778
 21
309.824682
 31
0.0
  0
LINE
  5
174
100
AcDbEntity
  8
0
  6
Continuous
 62
   174
100
AcDbLine
 10
127.416778
 20
346.861326
 30
0.0
 11
127.416778
 21
384.211326
 31
0.0
  0
LINE
  5
175
100
AcDbEntity
  8
0
  6
Continuous
 62
   174
100
AcDbLine
 10
364.116778
 20
370.711326
 30
0.0
 11
364.116778
 21
378.361326
 31
0.0
  0
LINE
  5
176
100
AcDbEntity
  8
0
  6
HIDDEN
 62
   174
100
AcDbLine
 10
427.090564
 20
370.711326
 30
0.0
 11
391.0932
 21
370.711326
 31
0.0
  0
ARC
  5
177
100
AcDbEntity
  8
0
  6
Continuous
 62
   174
100
AcDbCircle
 10
98.616778
 20
309.736326
 30
0.0
 40
2.25
100
AcDbArc
 50
180.0
 51
225.0
  0
ARC
  5
178
100
AcDbEntity
  8
0
  6
Continuous
 62
   174
100
AcDbCircle
 10
98.616778
 20
248.986326
 30
0.0
 40
2.25
100
AcDbArc
 50
-270.0
 51
-180.0
  0
LINE
  5
179
100
AcDbEntity
  8
0
  6
Continuous
 62
   174
100
AcDbLine
 10
145.866778
 20
346.861326
 30
0.0
 11
145.866778
 21
354.961326
 31
0.0
  0
LINE
  5
17A
100
AcDbEntity
  8
0
  6
Continuous
 62
   174
100
AcDbLine
 10
98.616778
 20
251.236326
 30
0.0
 11
105.366778
 21
251.236326
 31
0.0
  0
LINE
  5
17B
100
AcDbEntity
  8
0
  6
HIDDEN
 62
   174
100
AcDbLine
 10
320.78456
 20
211.861326
 30
0.0
 11
281.41201
 21
211.861326
 31
0.0
  0
LINE
  5
17C
100
AcDbEntity
  8
0
  6
HIDDEN
 62
   174
100
AcDbLine
 10
127.416778
 20
346.861326
 30
0.0
 11
141.816778
 21
346.861326
 31
0.0
  0
LINE
  5
17D
100
AcDbEntity
  8
0
  6
Continuous
 62
   174
100
AcDbLine
 10
153.966778
 20
346.861326
 30
0.0
 11
153.966778
 21
395.011326
 31
0.0
  0
LINE
  5
17E
100
AcDbEntity
  8
0
  6
Continuous
 62
   174
100
AcDbLine
 10
319.116778
 20
364.861326
 30
0.0
 11
319.116778
 21
370.711326
 31
0.0
  0
LINE
  5
17F
100
AcDbEntity
  8
0
  6
HIDDEN
 62
   174
100
AcDbLine
 10
355.095234
 20
188.011326
 30
0.0
 11
391.0932
 21
188.011326
 31
0.0
  0
LINE
  5
180
100
AcDbEntity
  8
0
  6
Continuous
 62
   174
100
AcDbLine
 10
409.091581
 20
364.861326
 30
0.0
 11
396.445013
 21
364.861326
 31
0.0
  0
LINE
  5
181
100
AcDbEntity
  8
0
  6
HIDDEN
 62
   174
100
AcDbLine
 10
134.608596
 20
346.861326
 30
0.0
 11
123.359382
 21
346.861326
 31
0.0
  0
LINE
  5
182
100
AcDbEntity
  8
0
  6
Continuous
 62
   174
100
AcDbLine
 10
310.116778
 20
370.711326
 30
0.0
 11
310.116778
 21
378.361326
 31
0.0
  0
LINE
  5
183
100
AcDbEntity
  8
0
  6
HIDDEN
 62
   174
100
AcDbLine
 10
360.576376
 20
193.861326
 30
0.0
 11
360.864509
 21
193.861326
 31
0.0
  0
LINE
  5
184
100
AcDbEntity
  8
0
  6
HIDDEN
 62
   174
100
AcDbLine
 10
329.398471
 20
364.861326
 30
0.0
 11
327.324395
 21
364.861326
 31
0.0
  0
LINE
  5
185
100
AcDbEntity
  8
0
  6
Continuous
 62
   174
100
AcDbLine
 10
485.616778
 20
299.611326
 30
0.0
 11
490.116778
 21
299.611326
 31
0.0
  0
LINE
  5
186
100
AcDbEntity
  8
0
  6
Continuous
 62
   174
100
AcDbLine
 10
436.090055
 20
378.361326
 30
0.0
 11
422.59533
 21
378.361326
 31
0.0
  0
LINE
  5
187
100
AcDbEntity
  8
0
  6
HIDDEN
 62
   174
100
AcDbLine
 10
323.597315
 20
346.861326
 30
0.0
 11
337.096251
 21
346.861326
 31
0.0
  0
LINE
  5
188
100
AcDbEntity
  8
0
  6
Continuous
 62
   174
100
AcDbLine
 10
98.616778
 20
230.986326
 30
0.0
 11
105.366778
 21
230.986326
 31
0.0
  0
LINE
  5
189
100
AcDbEntity
  8
0
  6
HIDDEN
 62
   174
100
AcDbLine
 10
127.416778
 20
346.861326
 30
0.0
 11
127.416778
 21
354.961326
 31
0.0
  0
LINE
  5
18A
100
AcDbEntity
  8
0
  6
HIDDEN
 62
   174
100
AcDbLine
 10
385.740785
 20
211.861326
 30
0.0
 11
386.6509
 21
211.861326
 31
0.0
  0
LINE
  5
18B
100
AcDbEntity
  8
0
  6
HIDDEN
 62
   174
100
AcDbLine
 10
385.314902
 20
193.861326
 30
0.0
 11
385.63672
 21
193.861326
 31
0.0
  0
LINE
  5
18C
100
AcDbEntity
  8
0
  6
HIDDEN
 62
   174
100
AcDbLine
 10
422.384794
 20
364.861326
 30
0.0
 11
421.610023
 21
364.861326
 31
0.0
  0
LINE
  5
18D
100
AcDbEntity
  8
0
  6
HIDDEN
 62
   174
100
AcDbLine
 10
436.090055
 20
346.861326
 30
0.0
 11
422.648264
 21
346.861326
 31
0.0
  0
LINE
  5
18E
100
AcDbEntity
  8
0
  6
HIDDEN
 62
   174
100
AcDbLine
 10
105.366778
 20
328.949128
 30
0.0
 11
105.366778
 21
317.699312
 31
0.0
  0
LINE
  5
18F
100
AcDbEntity
  8
0
  6
HIDDEN
 62
   174
100
AcDbLine
 10
98.616778
 20
328.861326
 30
0.0
 11
105.366778
 21
328.861326
 31
0.0
  0
LINE
  5
190
100
AcDbEntity
  8
0
  6
Continuous
 62
   174
100
AcDbLine
 10
400.116778
 20
188.011326
 30
0.0
 11
400.116778
 21
180.361326
 31
0.0
  0
LINE
  5
191
100
AcDbEntity
  8
0
  6
HIDDEN
 62
   174
100
AcDbLine
 10
344.835537
 20
364.861326
 30
0.0
 11
343.888729
 21
364.861326
 31
0.0
  0
LINE
  5
192
100
AcDbEntity
  8
0
  6
Continuous
 62
   174
100
AcDbLine
 10
485.616778
 20
259.111326
 30
0.0
 11
490.116778
 21
259.111326
 31
0.0
  0
LINE
  5
193
100
AcDbEntity
  8
0
  6
HIDDEN
 62
   174
100
AcDbLine
 10
409.091581
 20
346.861326
 30
0.0
 11
422.591119
 21
346.861326
 31
0.0
  0
ARC
  5
194
100
AcDbEntity
  8
0
  6
HIDDEN
 62
   174
100
AcDbCircle
 10
98.616778
 20
233.236326
 30
0.0
 40
2.25
100
AcDbArc
 50
180.0
 51
225.0
  0
LINE
  5
195
100
AcDbEntity
  8
0
  6
HIDDEN
 62
   174
100
AcDbLine
 10
153.966778
 20
381.371271
 30
0.0
 11
153.966778
 21
387.221151
 31
0.0
  0
LINE
  5
196
100
AcDbEntity
  8
0
  6
HIDDEN
 62
   174
100
AcDbLine
 10
98.616778
 20
251.327687
 30
0.0
 11
98.616778
 21
241.202733
 31
0.0
  0
LINE
  5
197
100
AcDbEntity
  8
0
  6
HIDDEN
 62
   174
100
AcDbLine
 10
98.616778
 20
241.111326
 30
0.0
 11
105.366778
 21
241.111326
 31
0.0
  0
LINE
  5
198
100
AcDbEntity
  8
0
  6
HIDDEN
 62
   174
100
AcDbLine
 10
105.366778
 20
317.699312
 30
0.0
 11
105.366778
 21
306.450098
 31
0.0
  0
LINE
  5
199
100
AcDbEntity
  8
0
  6
Continuous
 62
   174
100
AcDbLine
 10
260.616778
 20
211.861326
 30
0.0
 11
485.616778
 21
211.861326
 31
0.0
  0
ARC
  5
19A
100
AcDbEntity
  8
0
  6
HIDDEN
 62
   174
100
AcDbCircle
 10
98.616778
 20
233.236326
 30
0.0
 40
2.25
100
AcDbArc
 50
225.0
 51
270.0
  0
LINE
  5
19B
100
AcDbEntity
  8
0
  6
HIDDEN
 62
   174
100
AcDbLine
 10
141.816778
 20
346.861326
 30
0.0
 11
141.816778
 21
354.961326
 31
0.0
  0
LINE
  5
19C
100
AcDbEntity
  8
0
  6
HIDDEN
 62
   174
100
AcDbLine
 10
105.366778
 20
252.452548
 30
0.0
 11
105.366778
 21
241.202733
 31
0.0
  0
LINE
  5
19D
100
AcDbEntity
  8
0
  6
HIDDEN
 62
   174
100
AcDbLine
 10
145.85781
 20
346.861326
 30
0.0
 11
134.608596
 21
346.861326
 31
0.0
  0
LINE
  5
19E
100
AcDbEntity
  8
0
  6
Continuous
 62
   174
100
AcDbLine
 10
319.116778
 20
364.861326
 30
0.0
 11
319.116778
 21
370.711326
 31
0.0
  0
LINE
  5
19F
100
AcDbEntity
  8
0
  6
Continuous
 62
   174
100
AcDbLine
 10
359.590468
 20
180.361326
 30
0.0
 11
386.712256
 21
180.361326
 31
0.0
  0
LINE
  5
1A0
100
AcDbEntity
  8
0
  6
Continuous
 62
   174
100
AcDbLine
 10
364.094725
 20
378.361326
 30
0.0
 11
350.599398
 21
378.361326
 31
0.0
  0
LINE
  5
1A1
100
AcDbEntity
  8
0
  6
HIDDEN
 62
   174
100
AcDbLine
 10
395.592645
 20
346.861326
 30
0.0
 11
409.091581
 21
346.861326
 31
0.0
  0
LINE
  5
1A2
100
AcDbEntity
  8
0
  6
HIDDEN
 62
   174
100
AcDbLine
 10
98.616778
 20
251.236326
 30
0.0
 11
105.366778
 21
251.236326
 31
0.0
  0
LINE
  5
1A3
100
AcDbEntity
  8
0
  6
HIDDEN
 62
   174
100
AcDbLine
 10
150.366778
 20
381.371271
 30
0.0
 11
150.366778
 21
387.221151
 31
0.0
  0
LINE
  5
1A4
100
AcDbEntity
  8
0
  6
HIDDEN
 62
   174
100
AcDbLine
 10
98.616778
 20
307.486326
 30
0.0
 11
105.366778
 21
307.486326
 31
0.0
  0
LINE
  5
1A5
100
AcDbEntity
  8
0
  6
HIDDEN
 62
   174
100
AcDbLine
 10
98.616778
 20
251.327687
 30
0.0
 11
98.616778
 21
231.07838
 31
0.0
  0
LINE
  5
1A6
100
AcDbEntity
  8
0
  6
Continuous
 62
   174
100
AcDbLine
 10
98.616778
 20
241.202733
 30
0.0
 11
98.616778
 21
231.07838
 31
0.0
  0
LINE
  5
1A7
100
AcDbEntity
  8
0
  6
Continuous
 62
   174
100
AcDbLine
 10
355.116778
 20
193.861326
 30
0.0
 11
355.116778
 21
188.011326
 31
0.0
  0
LINE
  5
1A8
100
AcDbEntity
  8
0
  6
Continuous
 62
   174
100
AcDbLine
 10
355.116778
 20
364.861326
 30
0.0
 11
355.116778
 21
370.711326
 31
0.0
  0
LINE
  5
1A9
100
AcDbEntity
  8
0
  6
HIDDEN
 62
   174
100
AcDbLine
 10
96.366778
 20
325.573942
 30
0.0
 11
96.366778
 21
309.824682
 31
0.0
  0
LINE
  5
1AA
100
AcDbEntity
  8
0
  6
HIDDEN
 62
   174
100
AcDbLine
 10
96.366778
 20
249.077363
 30
0.0
 11
96.366778
 21
233.328102
 31
0.0
  0
LINE
  5
1AB
100
AcDbEntity
  8
0
  6
HIDDEN
 62
   174
100
AcDbLine
 10
98.616778
 20
251.327687
 30
0.0
 11
98.616778
 21
231.07838
 31
0.0
  0
LINE
  5
1AC
100
AcDbEntity
  8
0
  6
HIDDEN
 62
   174
100
AcDbLine
 10
98.616778
 20
327.823665
 30
0.0
 11
98.616778
 21
307.57496
 31
0.0
  0
LINE
  5
1AD
100
AcDbEntity
  8
0
  6
HIDDEN
 62
   174
100
AcDbLine
 10
142.642631
 20
354.961326
 30
0.0
 11
134.608596
 21
354.961326
 31
0.0
  0
ARC
  5
1AE
100
AcDbEntity
  8
0
  6
Continuous
 62
   174
100
AcDbCircle
 10
98.616778
 20
309.736326
 30
0.0
 40
2.25
100
AcDbArc
 50
225.0
 51
270.0
  0
LINE
  5
1AF
100
AcDbEntity
  8
0
  6
HIDDEN
 62
   174
100
AcDbLine
 10
326.793244
 20
364.861326
 30
0.0
 11
324.875566
 21
364.861326
 31
0.0
  0
LINE
  5
1B0
100
AcDbEntity
  8
0
  6
HIDDEN
 62
   174
100
AcDbLine
 10
332.630492
 20
364.861326
 30
0.0
 11
330.345881
 21
364.861326
 31
0.0
  0
LINE
  5
1B1
100
AcDbEntity
  8
0
  6
HIDDEN
 62
   174
100
AcDbLine
 10
423.224278
 20
247.861326
 30
0.0
 11
423.224278
 21
211.861326
 31
0.0
  0
LINE
  5
1B2
100
AcDbEntity
  8
0
  6
HIDDEN
 62
   174
100
AcDbLine
 10
98.616778
 20
327.823665
 30
0.0
 11
98.616778
 21
307.57496
 31
0.0
  0
LINE
  5
1B3
100
AcDbEntity
  8
0
  6
Continuous
 62
   174
100
AcDbLine
 10
141.816778
 20
346.861326
 30
0.0
 11
141.816778
 21
384.211326
 31
0.0
  0
LINE
  5
1B4
100
AcDbEntity
  8
0
  6
HIDDEN
 62
   174
100
AcDbLine
 10
98.616778
 20
317.699312
 30
0.0
 11
98.616778
 21
328.503995
 31
0.0
  0
LINE
  5
1B5
100
AcDbEntity
  8
0
  6
Continuous
 62
   174
100
AcDbLine
 10
382.116778
 20
370.711326
 30
0.0
 11
382.116778
 21
378.361326
 31
0.0
  0
LINE
  5
1B6
100
AcDbEntity
  8
0
  6
HIDDEN
 62
   174
100
AcDbLine
 10
363.341008
 20
193.861326
 30
0.0
 11
365.354329
 21
193.861326
 31
0.0
  0
LINE
  5
1B7
100
AcDbEntity
  8
0
  6
HIDDEN
 62
   174
100
AcDbLine
 10
359.594679
 20
193.861326
 30
0.0
 11
359.801004
 21
193.861326
 31
0.0
  0
LINE
  5
1B8
100
AcDbEntity
  8
0
  6
HIDDEN
 62
   174
100
AcDbLine
 10
401.393801
 20
364.861326
 30
0.0
 11
399.319725
 21
364.861326
 31
0.0
  0
LINE
  5
1B9
100
AcDbEntity
  8
0
  6
HIDDEN
 62
   174
100
AcDbLine
 10
337.096251
 20
346.861326
 30
0.0
 11
350.595187
 21
346.861326
 31
0.0
  0
ARC
  5
1BA
100
AcDbEntity
  8
0
  6
HIDDEN
 62
   174
100
AcDbCircle
 10
98.616778
 20
309.736326
 30
0.0
 40
2.25
100
AcDbArc
 50
180.0
 51
270.0
  0
LINE
  5
1BB
100
AcDbEntity
  8
0
  6
Continuous
 62
   174
100
AcDbLine
 10
98.616778
 20
230.986326
 30
0.0
 11
105.366778
 21
230.986326
 31
0.0
  0
LINE
  5
1BC
100
AcDbEntity
  8
0
  6
HIDDEN
 62
   174
100
AcDbLine
 10
364.094725
 20
346.861326
 30
0.0
 11
350.652934
 21
346.861326
 31
0.0
  0
LINE
  5
1BD
100
AcDbEntity
  8
0
  6
HIDDEN
 62
   174
100
AcDbLine
 10
98.616778
 20
241.202733
 30
0.0
 11
98.616778
 21
252.007416
 31
0.0
  0
LINE
  5
1BE
100
AcDbEntity
  8
0
  6
HIDDEN
 62
   174
100
AcDbLine
 10
377.559976
 20
193.861326
 30
0.0
 11
379.843986
 21
193.861326
 31
0.0
  0
LINE
  5
1BF
100
AcDbEntity
  8
0
  6
HIDDEN
 62
   174
100
AcDbLine
 10
418.84479
 20
364.861326
 30
0.0
 11
416.831469
 21
364.861326
 31
0.0
  0
LINE
  5
1C0
100
AcDbEntity
  8
0
  6
Continuous
 62
   174
100
AcDbLine
 10
150.366778
 20
395.011326
 30
0.0
 11
153.966778
 21
395.011326
 31
0.0
  0
LINE
  5
1C1
100
AcDbEntity
  8
0
  6
Continuous
 62
   174
100
AcDbLine
 10
346.095742
 20
188.011326
 30
0.0
 11
355.083203
 21
188.011326
 31
0.0
  0
LINE
  5
1C2
100
AcDbEntity
  8
0
  6
Continuous
 62
   174
100
AcDbLine
 10
386.712256
 20
180.361326
 30
0.0
 11
400.09209
 21
180.361326
 31
0.0
  0
LINE
  5
1C3
100
AcDbEntity
  8
0
  6
Continuous
 62
   174
100
AcDbLine
 10
346.095742
 20
180.361326
 30
0.0
 11
359.590468
 21
180.361326
 31
0.0
  0
LINE
  5
1C4
100
AcDbEntity
  8
0
  6
Continuous
 62
   174
100
AcDbLine
 10
224.616778
 20
229.861326
 30
0.0
 11
224.616778
 21
328.861326
 31
0.0
  0
LINE
  5
1C5
100
AcDbEntity
  8
0
  6
HIDDEN
 62
   174
100
AcDbLine
 10
464.775822
 20
211.861326
 30
0.0
 11
425.403272
 21
211.861326
 31
0.0
  0
LINE
  5
1C6
100
AcDbEntity
  8
0
  6
Continuous
 62
   174
100
AcDbLine
 10
98.616778
 20
229.861326
 30
0.0
 11
98.616778
 21
230.986326
 31
0.0
  0
LINE
  5
1C7
100
AcDbEntity
  8
0
  6
HIDDEN
 62
   174
100
AcDbLine
 10
360.447649
 20
211.861326
 30
0.0
 11
373.094217
 21
211.861326
 31
0.0
  0
LINE
  5
1C8
100
AcDbEntity
  8
0
  6
HIDDEN
 62
   174
100
AcDbLine
 10
251.601383
 20
328.411326
 30
0.0
 11
233.6024
 21
328.411326
 31
0.0
  0
LINE
  5
1C9
100
AcDbEntity
  8
0
  6
Continuous
 62
   174
100
AcDbLine
 10
346.116778
 20
188.011326
 30
0.0
 11
346.116778
 21
180.361326
 31
0.0
  0
LINE
  5
1CA
100
AcDbEntity
  8
0
  6
HIDDEN
 62
   174
100
AcDbLine
 10
349.614092
 20
364.861326
 30
0.0
 11
349.325357
 21
364.861326
 31
0.0
  0
LINE
  5
1CB
100
AcDbEntity
  8
0
  6
HIDDEN
 62
   174
100
AcDbLine
 10
350.389464
 20
364.861326
 30
0.0
 11
349.614092
 21
364.861326
 31
0.0
  0
LINE
  5
1CC
100
AcDbEntity
  8
0
  6
HIDDEN
 62
   174
100
AcDbLine
 10
386.707444
 20
193.861326
 30
0.0
 11
391.0932
 21
193.861326
 31
0.0
  0
LINE
  5
1CD
100
AcDbEntity
  8
0
  6
Continuous
 62
   174
100
AcDbLine
 10
98.616778
 20
306.361326
 30
0.0
 11
105.366778
 21
306.361326
 31
0.0
  0
LINE
  5
1CE
100
AcDbEntity
  8
0
  6
Continuous
 62
   174
100
AcDbLine
 10
127.416778
 20
384.211326
 30
0.0
 11
141.816778
 21
384.211326
 31
0.0
  0
LINE
  5
1CF
100
AcDbEntity
  8
0
  6
HIDDEN
 62
   174
100
AcDbLine
 10
423.198664
 20
211.861326
 30
0.0
 11
466.980429
 21
211.861326
 31
0.0
  0
ARC
  5
1D0
100
AcDbEntity
  8
0
  6
Continuous
 62
   174
100
AcDbCircle
 10
98.616778
 20
248.986326
 30
0.0
 40
2.25
100
AcDbArc
 50
-270.0
 51
-180.0
  0
ARC
  5
1D1
100
AcDbEntity
  8
0
  6
Continuous
 62
   174
100
AcDbCircle
 10
98.616778
 20
233.236326
 30
0.0
 40
2.25
100
AcDbArc
 50
180.0
 51
225.0
  0
LINE
  5
1D2
100
AcDbEntity
  8
0
  6
HIDDEN
 62
   174
100
AcDbLine
 10
279.207403
 20
247.861326
 30
0.0
 11
322.989769
 21
247.861326
 31
0.0
  0
LINE
  5
1D3
100
AcDbEntity
  8
0
  6
HIDDEN
 62
   174
100
AcDbLine
 10
279.207403
 20
211.861326
 30
0.0
 11
322.989769
 21
211.861326
 31
0.0
  0
LINE
  5
1D4
100
AcDbEntity
  8
0
  6
HIDDEN
 62
   174
100
AcDbLine
 10
409.091581
 20
346.861326
 30
0.0
 11
396.445013
 21
346.861326
 31
0.0
  0
LINE
  5
1D5
100
AcDbEntity
  8
0
  6
Continuous
 62
   174
100
AcDbLine
 10
346.095742
 20
193.861326
 30
0.0
 11
355.122303
 21
193.861326
 31
0.0
  0
LINE
  5
1D6
100
AcDbEntity
  8
0
  6
HIDDEN
 62
   174
100
AcDbLine
 10
349.325357
 20
364.861326
 30
0.0
 11
347.426327
 21
364.861326
 31
0.0
  0
LINE
  5
1D7
100
AcDbEntity
  8
0
  6
HIDDEN
 62
   174
100
AcDbLine
 10
333.668733
 20
364.861326
 30
0.0
 11
332.630492
 21
364.861326
 31
0.0
  0
LINE
  5
1D8
100
AcDbEntity
  8
0
  6
Continuous
 62
   174
100
AcDbLine
 10
98.616778
 20
327.736326
 30
0.0
 11
105.366778
 21
327.736326
 31
0.0
  0
LINE
  5
1D9
100
AcDbEntity
  8
0
  6
HIDDEN
 62
   174
100
AcDbLine
 10
127.416778
 20
384.211326
 30
0.0
 11
141.816778
 21
384.211326
 31
0.0
  0
LINE
  5
1DA
100
AcDbEntity
  8
0
  6
Continuous
 62
   174
100
AcDbLine
 10
421.738149
 20
364.861326
 30
0.0
 11
409.091581
 21
364.861326
 31
0.0
  0
LINE
  5
1DB
100
AcDbEntity
  8
0
  6
Continuous
 62
   174
100
AcDbLine
 10
355.107265
 20
370.711326
 30
0.0
 11
318.788082
 21
370.711326
 31
0.0
  0
LINE
  5
1DC
100
AcDbEntity
  8
0
  6
Continuous
 62
   174
100
AcDbLine
 10
390.784013
 20
370.711326
 30
0.0
 11
382.093708
 21
370.711326
 31
0.0
  0
LINE
  5
1DD
100
AcDbEntity
  8
0
  6
HIDDEN
 62
   174
100
AcDbLine
 10
423.224278
 20
247.861326
 30
0.0
 11
423.224278
 21
211.861326
 31
0.0
  0
LINE
  5
1DE
100
AcDbEntity
  8
0
  6
HIDDEN
 62
   174
100
AcDbLine
 10
373.094217
 20
211.861326
 30
0.0
 11
359.594679
 21
211.861326
 31
0.0
  0
LINE
  5
1DF
100
AcDbEntity
  8
0
  6
HIDDEN
 62
   174
100
AcDbLine
 10
98.616778
 20
230.986326
 30
0.0
 11
98.616778
 21
241.111326
 31
0.0
  0
LINE
  5
1E0
100
AcDbEntity
  8
0
  6
Continuous
 62
   174
100
AcDbLine
 10
96.366778
 20
249.077363
 30
0.0
 11
96.366778
 21
233.328102
 31
0.0
  0
LINE
  5
1E1
100
AcDbEntity
  8
0
  6
HIDDEN
 62
   174
100
AcDbLine
 10
96.366778
 20
325.573942
 30
0.0
 11
96.366778
 21
309.824682
 31
0.0
  0
LINE
  5
1E2
100
AcDbEntity
  8
0
  6
Continuous
 62
   174
100
AcDbLine
 10
436.116778
 20
346.861326
 30
0.0
 11
436.116778
 21
364.861326
 31
0.0
  0
LINE
  5
1E3
100
AcDbEntity
  8
0
  6
Continuous
 62
   174
100
AcDbLine
 10
355.068165
 20
364.861326
 30
0.0
 11
350.652934
 21
364.861326
 31
0.0
  0
LINE
  5
1E4
100
AcDbEntity
  8
0
  6
HIDDEN
 62
   174
100
AcDbLine
 10
98.616778
 20
306.361326
 30
0.0
 11
105.366778
 21
306.361326
 31
0.0
  0
LINE
  5
1E5
100
AcDbEntity
  8
0
  6
HIDDEN
 62
   174
100
AcDbLine
 10
98.616778
 20
252.361326
 30
0.0
 11
105.366778
 21
252.361326
 31
0.0
  0
LINE
  5
1E6
100
AcDbEntity
  8
0
  6
HIDDEN
 62
   174
100
AcDbLine
 10
251.616778
 20
328.861326
 30
0.0
 11
251.616778
 21
328.411326
 31
0.0
  0
LINE
  5
1E7
100
AcDbEntity
  8
0
  6
Continuous
 62
   174
100
AcDbLine
 10
391.116778
 20
364.861326
 30
0.0
 11
391.116778
 21
370.711326
 31
0.0
  0
LINE
  5
1E8
100
AcDbEntity
  8
0
  6
HIDDEN
 62
   174
100
AcDbLine
 10
127.416778
 20
346.861326
 30
0.0
 11
141.816778
 21
346.861326
 31
0.0
  0
LINE
  5
1E9
100
AcDbEntity
  8
0
  6
Continuous
 62
   174
100
AcDbLine
 10
364.094725
 20
364.861326
 30
0.0
 11
355.068165
 21
364.861326
 31
0.0
  0
LINE
  5
1EA
100
AcDbEntity
  8
0
  6
Continuous
 62
   174
100
AcDbLine
 10
382.116778
 20
370.711326
 30
0.0
 11
382.116778
 21
378.361326
 31
0.0
  0
LINE
  5
1EB
100
AcDbEntity
  8
0
  6
Continuous
 62
   174
100
AcDbLine
 10
436.116778
 20
370.711326
 30
0.0
 11
436.116778
 21
378.361326
 31
0.0
  0
LINE
  5
1EC
100
AcDbEntity
  8
0
  6
HIDDEN
 62
   174
100
AcDbLine
 10
396.870896
 20
364.861326
 30
0.0
 11
396.549078
 21
364.861326
 31
0.0
  0
LINE
  5
1ED
100
AcDbEntity
  8
0
  6
Continuous
 62
   174
100
AcDbLine
 10
427.116778
 20
364.861326
 30
0.0
 11
427.116778
 21
370.711326
 31
0.0
  0
LINE
  5
1EE
100
AcDbEntity
  8
0
  6
Continuous
 62
   174
100
AcDbLine
 10
260.616778
 20
229.861326
 30
0.0
 11
260.616778
 21
211.861326
 31
0.0
  0
LINE
  5
1EF
100
AcDbEntity
  8
0
  6
HIDDEN
 62
   174
100
AcDbLine
 10
423.198664
 20
247.861326
 30
0.0
 11
466.980429
 21
247.861326
 31
0.0
  0
ARC
  5
1F0
100
AcDbEntity
  8
0
  6
Continuous
 62
   174
100
AcDbCircle
 10
98.616778
 20
309.736326
 30
0.0
 40
2.25
100
AcDbArc
 50
225.0
 51
270.0
  0
LINE
  5
1F1
100
AcDbEntity
  8
0
  6
HIDDEN
 62
   174
100
AcDbLine
 10
281.429278
 20
247.861326
 30
0.0
 11
281.429278
 21
211.861326
 31
0.0
  0
LINE
  5
1F2
100
AcDbEntity
  8
0
  6
Continuous
 62
   174
100
AcDbLine
 10
98.616778
 20
317.699312
 30
0.0
 11
98.616778
 21
307.57496
 31
0.0
  0
LINE
  5
1F3
100
AcDbEntity
  8
0
  6
Continuous
 62
   174
100
AcDbLine
 10
364.116778
 20
346.861326
 30
0.0
 11
364.116778
 21
364.861326
 31
0.0
  0
LINE
  5
1F4
100
AcDbEntity
  8
0
  6
HIDDEN
 62
   174
100
AcDbLine
 10
373.094217
 20
211.861326
 30
0.0
 11
385.740785
 21
211.861326
 31
0.0
  0
LINE
  5
1F5
100
AcDbEntity
  8
0
  6
HIDDEN
 62
   174
100
AcDbLine
 10
422.648264
 20
346.861326
 30
0.0
 11
421.738149
 21
346.861326
 31
0.0
  0
LINE
  5
1F6
100
AcDbEntity
  8
0
  6
HIDDEN
 62
   174
100
AcDbLine
 10
359.801004
 20
193.861326
 30
0.0
 11
360.576376
 21
193.861326
 31
0.0
  0
LINE
  5
1F7
100
AcDbEntity
  8
0
  6
HIDDEN
 62
   174
100
AcDbLine
 10
323.009278
 20
247.861326
 30
0.0
 11
323.009278
 21
211.861326
 31
0.0
  0
LINE
  5
1F8
100
AcDbEntity
  8
0
  6
HIDDEN
 62
   174
100
AcDbLine
 10
141.816778
 20
361.711326
 30
0.0
 11
141.816778
 21
384.211326
 31
0.0
  0
LINE
  5
1F9
100
AcDbEntity
  8
0
  6
Continuous
 62
   174
100
AcDbLine
 10
355.122303
 20
193.861326
 30
0.0
 11
359.537534
 21
193.861326
 31
0.0
  0
LINE
  5
1FA
100
AcDbEntity
  8
0
  6
Continuous
 62
   174
100
AcDbLine
 10
324.449683
 20
364.861326
 30
0.0
 11
323.539568
 21
364.861326
 31
0.0
  0
LINE
  5
1FB
100
AcDbEntity
  8
0
  6
HIDDEN
 62
   174
100
AcDbLine
 10
340.595351
 20
364.861326
 30
0.0
 11
337.096251
 21
364.861326
 31
0.0
  0
ENDBLK
  5
1FC
100
AcDbEntity
  8
0
100
AcDbBlockEnd
  0
BLOCK
  5
1FF
100
AcDbEntity
  8
0
100
AcDbBlockBegin
  2
*B2
 70
     0
 10
0.0
 20
0.0
 30
0.0
  3
*B2
  1

  0
ARC
  5
200
100
AcDbEntity
  8
0
  6
Continuous
 62
   174
100
AcDbCircle
 10
337.116778
 20
80.624904
 30
0.0
 40
13.5
100
AcDbArc
 50
-180.0
 51
0.0
  0
ARC
  5
201
100
AcDbEntity
  8
0
  6
Continuous
 62
   174
100
AcDbCircle
 10
337.116778
 20
80.624904
 30
0.0
 40
13.5
100
AcDbArc
 50
0.0
 51
180.0
  0
ARC
  5
202
100
AcDbEntity
  8
0
  6
Continuous
 62
   174
100
AcDbCircle
 10
409.116778
 20
80.624904
 30
0.0
 40
13.5
100
AcDbArc
 50
-180.0
 51
0.0
  0
ARC
  5
203
100
AcDbEntity
  8
0
  6
Continuous
 62
   174
100
AcDbCircle
 10
409.116778
 20
80.624904
 30
0.0
 40
13.5
100
AcDbArc
 50
0.0
 51
180.0
  0
LINE
  5
204
100
AcDbEntity
  8
0
  6
Continuous
 62
   174
100
AcDbLine
 10
170.616778
 20
44.624904
 30
0.0
 11
170.616778
 21
116.624904
 31
0.0
  0
LINE
  5
205
100
AcDbEntity
  8
0
  6
Continuous
 62
   174
100
AcDbLine
 10
98.616778
 20
44.624904
 30
0.0
 11
98.616778
 21
116.624904
 31
0.0
  0
ARC
  5
206
100
AcDbEntity
  8
0
  6
Continuous
 62
   174
100
AcDbCircle
 10
134.616778
 20
80.624904
 30
0.0
 40
8.325
100
AcDbArc
 50
-90.0
 51
90.0
  0
ARC
  5
207
100
AcDbEntity
  8
0
  6
Continuous
 62
   174
100
AcDbCircle
 10
134.616778
 20
80.624904
 30
0.0
 40
8.325
100
AcDbArc
 50
-270.0
 51
-90.0
  0
ARC
  5
208
100
AcDbEntity
  8
0
  6
Continuous
 62
   174
100
AcDbCircle
 10
134.616778
 20
80.624904
 30
0.0
 40
6.075
100
AcDbArc
 50
90.0
 51
270.0
  0
ARC
  5
209
100
AcDbEntity
  8
0
  6
Continuous
 62
   174
100
AcDbCircle
 10
134.616778
 20
80.624904
 30
0.0
 40
6.075
100
AcDbArc
 50
-90.0
 51
90.0
  0
LINE
  5
20A
100
AcDbEntity
  8
0
  6
Continuous
 62
   174
100
AcDbLine
 10
224.616778
 20
44.624904
 30
0.0
 11
224.616778
 21
116.624904
 31
0.0
  0
LINE
  5
20B
100
AcDbEntity
  8
0
  6
Continuous
 62
   174
100
AcDbLine
 10
224.616778
 20
44.624904
 30
0.0
 11
170.616778
 21
44.624904
 31
0.0
  0
LINE
  5
20C
100
AcDbEntity
  8
0
  6
Continuous
 62
   174
100
AcDbLine
 10
170.616778
 20
44.624904
 30
0.0
 11
98.616778
 21
44.624904
 31
0.0
  0
LINE
  5
20D
100
AcDbEntity
  8
0
  6
Continuous
 62
   174
100
AcDbLine
 10
485.616778
 20
44.624904
 30
0.0
 11
260.616778
 21
44.624904
 31
0.0
  0
LINE
  5
20E
100
AcDbEntity
  8
0
  6
Continuous
 62
   174
100
AcDbLine
 10
485.616778
 20
116.624904
 30
0.0
 11
260.616778
 21
116.624904
 31
0.0
  0
LINE
  5
20F
100
AcDbEntity
  8
0
  6
Continuous
 62
   174
100
AcDbLine
 10
96.366778
 20
113.347515
 30
0.0
 11
96.366778
 21
112.961934
 31
0.0
  0
LINE
  5
210
100
AcDbEntity
  8
0
  6
Continuous
 62
   174
100
AcDbLine
 10
96.366778
 20
112.961934
 30
0.0
 11
96.366778
 21
105.472885
 31
0.0
  0
LINE
  5
211
100
AcDbEntity
  8
0
  6
Continuous
 62
   174
100
AcDbLine
 10
141.816778
 20
61.049904
 30
0.0
 11
141.816778
 21
64.649904
 31
0.0
  0
LINE
  5
212
100
AcDbEntity
  8
0
  6
Continuous
 62
   174
100
AcDbLine
 10
150.366778
 20
87.824904
 30
0.0
 11
150.366778
 21
73.424904
 31
0.0
  0
ARC
  5
213
100
AcDbEntity
  8
0
  6
Continuous
 62
   174
100
AcDbCircle
 10
409.116778
 20
80.624904
 30
0.0
 40
27.0
100
AcDbArc
 50
-180.0
 51
0.0
  0
LINE
  5
214
100
AcDbEntity
  8
0
  6
Continuous
 62
   174
100
AcDbLine
 10
224.616778
 20
44.624904
 30
0.0
 11
224.616778
 21
116.624904
 31
0.0
  0
LINE
  5
215
100
AcDbEntity
  8
0
  6
Continuous
 62
   174
100
AcDbLine
 10
96.366778
 20
55.975381
 30
0.0
 11
96.366778
 21
48.48573
 31
0.0
  0
ARC
  5
216
100
AcDbEntity
  8
0
  6
Continuous
 62
   174
100
AcDbCircle
 10
98.616778
 20
63.749904
 30
0.0
 40
2.25
100
AcDbArc
 50
-270.0
 51
-180.0
  0
LINE
  5
217
100
AcDbEntity
  8
0
  6
Continuous
 62
   174
100
AcDbLine
 10
96.366778
 20
61.975042
 30
0.0
 11
96.366778
 21
55.975381
 31
0.0
  0
LINE
  5
218
100
AcDbEntity
  8
0
  6
Continuous
 62
   174
100
AcDbLine
 10
127.416778
 20
96.599904
 30
0.0
 11
141.816778
 21
96.599904
 31
0.0
  0
LINE
  5
219
100
AcDbEntity
  8
0
  6
Continuous
 62
   174
100
AcDbLine
 10
141.816778
 20
96.599904
 30
0.0
 11
141.816778
 21
100.199904
 31
0.0
  0
ARC
  5
21A
100
AcDbEntity
  8
0
  6
Continuous
 62
   174
100
AcDbCircle
 10
242.616778
 20
80.624904
 30
0.0
 40
9.0
100
AcDbArc
 50
180.0
 51
360.0
  0
ARC
  5
21B
100
AcDbEntity
  8
0
  6
Continuous
 62
   174
100
AcDbCircle
 10
242.616778
 20
80.624904
 30
0.0
 40
9.0
100
AcDbArc
 50
0.0
 51
180.0
  0
LINE
  5
21C
100
AcDbEntity
  8
0
  6
Continuous
 62
   174
100
AcDbLine
 10
224.616778
 20
44.624904
 30
0.0
 11
260.616778
 21
44.624904
 31
0.0
  0
LINE
  5
21D
100
AcDbEntity
  8
0
  6
Continuous
 62
   174
100
AcDbLine
 10
96.366778
 20
105.472885
 30
0.0
 11
96.366778
 21
97.598255
 31
0.0
  0
LINE
  5
21E
100
AcDbEntity
  8
0
  6
Continuous
 62
   174
100
AcDbLine
 10
96.366778
 20
63.84941
 30
0.0
 11
96.366778
 21
61.975042
 31
0.0
  0
LINE
  5
21F
100
AcDbEntity
  8
0
  6
Continuous
 62
   174
100
AcDbLine
 10
141.816778
 20
64.649904
 30
0.0
 11
127.416778
 21
64.649904
 31
0.0
  0
ARC
  5
220
100
AcDbEntity
  8
0
  6
Continuous
 62
   174
100
AcDbCircle
 10
134.616778
 20
80.624904
 30
0.0
 40
11.25
100
AcDbArc
 50
-261.359702
 51
-98.640298
  0
LINE
  5
221
100
AcDbEntity
  8
0
  6
Continuous
 62
   174
100
AcDbLine
 10
170.616778
 20
116.624904
 30
0.0
 11
98.616778
 21
116.624904
 31
0.0
  0
LINE
  5
222
100
AcDbEntity
  8
0
  6
Continuous
 62
   174
100
AcDbLine
 10
96.366778
 20
63.464431
 30
0.0
 11
96.366778
 21
55.975381
 31
0.0
  0
ARC
  5
223
100
AcDbEntity
  8
0
  6
Continuous
 62
   174
100
AcDbCircle
 10
98.616778
 20
47.999904
 30
0.0
 40
2.25
100
AcDbArc
 50
180.0
 51
270.0
  0
LINE
  5
224
100
AcDbEntity
  8
0
  6
Continuous
 62
   174
100
AcDbLine
 10
96.366778
 20
63.850011
 30
0.0
 11
96.366778
 21
55.975381
 31
0.0
  0
LINE
  5
225
100
AcDbEntity
  8
0
  6
Continuous
 62
   174
100
AcDbLine
 10
96.366778
 20
63.850011
 30
0.0
 11
96.366778
 21
63.464431
 31
0.0
  0
LINE
  5
226
100
AcDbEntity
  8
0
  6
Continuous
 62
   174
100
AcDbLine
 10
96.366778
 20
55.975381
 30
0.0
 11
96.366778
 21
48.100751
 31
0.0
  0
LINE
  5
227
100
AcDbEntity
  8
0
  6
Continuous
 62
   174
100
AcDbLine
 10
141.816778
 20
100.199904
 30
0.0
 11
127.416778
 21
100.199904
 31
0.0
  0
LINE
  5
228
100
AcDbEntity
  8
0
  6
Continuous
 62
   174
100
AcDbLine
 10
127.416778
 20
64.649904
 30
0.0
 11
127.416778
 21
61.049904
 31
0.0
  0
ARC
  5
229
100
AcDbEntity
  8
0
  6
Continuous
 62
   174
100
AcDbCircle
 10
134.616778
 20
80.624904
 30
0.0
 40
11.25
100
AcDbArc
 50
-278.640298
 51
-270.0
  0
LINE
  5
22A
100
AcDbEntity
  8
0
  6
Continuous
 62
   174
100
AcDbLine
 10
485.616778
 20
60.374904
 30
0.0
 11
490.116778
 21
60.374904
 31
0.0
  0
LINE
  5
22B
100
AcDbEntity
  8
0
  6
Continuous
 62
   174
100
AcDbLine
 10
96.366778
 20
48.48573
 30
0.0
 11
96.366778
 21
48.100751
 31
0.0
  0
LINE
  5
22C
100
AcDbEntity
  8
0
  6
Continuous
 62
   174
100
AcDbLine
 10
96.366778
 20
105.472885
 30
0.0
 11
96.366778
 21
97.983835
 31
0.0
  0
LINE
  5
22D
100
AcDbEntity
  8
0
  6
Continuous
 62
   174
100
AcDbLine
 10
96.366778
 20
111.473147
 30
0.0
 11
96.366778
 21
105.472885
 31
0.0
  0
LINE
  5
22E
100
AcDbEntity
  8
0
  6
Continuous
 62
   174
100
AcDbLine
 10
150.366778
 20
73.424904
 30
0.0
 11
153.966778
 21
73.424904
 31
0.0
  0
ARC
  5
22F
100
AcDbEntity
  8
0
  6
Continuous
 62
   174
100
AcDbCircle
 10
337.116778
 20
80.624904
 30
0.0
 40
27.0
100
AcDbArc
 50
-180.0
 51
0.0
  0
ARC
  5
230
100
AcDbEntity
  8
0
  6
Continuous
 62
   174
100
AcDbCircle
 10
409.116778
 20
80.624904
 30
0.0
 40
27.0
100
AcDbArc
 50
0.0
 51
180.0
  0
LINE
  5
231
100
AcDbEntity
  8
0
  6
Continuous
 62
   174
100
AcDbLine
 10
490.116778
 20
60.474826
 30
0.0
 11
490.116778
 21
80.724133
 31
0.0
  0
LINE
  5
232
100
AcDbEntity
  8
0
  6
Continuous
 62
   174
100
AcDbLine
 10
224.616778
 20
116.624904
 30
0.0
 11
260.616778
 21
116.624904
 31
0.0
  0
LINE
  5
233
100
AcDbEntity
  8
0
  6
Continuous
 62
   174
100
AcDbLine
 10
96.366778
 20
55.975381
 30
0.0
 11
96.366778
 21
48.100751
 31
0.0
  0
ARC
  5
234
100
AcDbEntity
  8
0
  6
Continuous
 62
   174
100
AcDbCircle
 10
98.616778
 20
113.249904
 30
0.0
 40
2.25
100
AcDbArc
 50
-270.0
 51
-180.0
  0
LINE
  5
235
100
AcDbEntity
  8
0
  6
Continuous
 62
   174
100
AcDbLine
 10
127.416778
 20
100.199904
 30
0.0
 11
127.416778
 21
96.599904
 31
0.0
  0
LINE
  5
236
100
AcDbEntity
  8
0
  6
Continuous
 62
   174
100
AcDbLine
 10
96.366778
 20
113.346914
 30
0.0
 11
96.366778
 21
111.473147
 31
0.0
  0
LINE
  5
237
100
AcDbEntity
  8
0
  6
Continuous
 62
   174
100
AcDbLine
 10
153.966778
 20
73.424904
 30
0.0
 11
153.966778
 21
87.824904
 31
0.0
  0
ARC
  5
238
100
AcDbEntity
  8
0
  6
Continuous
 62
   174
100
AcDbCircle
 10
337.116778
 20
80.624904
 30
0.0
 40
27.0
100
AcDbArc
 50
0.0
 51
180.0
  0
LINE
  5
239
100
AcDbEntity
  8
0
  6
Continuous
 62
   174
100
AcDbLine
 10
490.116778
 20
80.724133
 30
0.0
 11
490.116778
 21
100.972838
 31
0.0
  0
ARC
  5
23A
100
AcDbEntity
  8
0
  6
Continuous
 62
   174
100
AcDbCircle
 10
98.616778
 20
97.499904
 30
0.0
 40
2.25
100
AcDbArc
 50
180.0
 51
270.0
  0
LINE
  5
23B
100
AcDbEntity
  8
0
  6
Continuous
 62
   174
100
AcDbLine
 10
96.366778
 20
105.472885
 30
0.0
 11
96.366778
 21
97.598255
 31
0.0
  0
ARC
  5
23C
100
AcDbEntity
  8
0
  6
Continuous
 62
   174
100
AcDbCircle
 10
134.616778
 20
80.624904
 30
0.0
 40
11.25
100
AcDbArc
 50
-270.0
 51
-261.359702
  0
LINE
  5
23D
100
AcDbEntity
  8
0
  6
Continuous
 62
   174
100
AcDbLine
 10
153.966778
 20
87.824904
 30
0.0
 11
150.366778
 21
87.824904
 31
0.0
  0
LINE
  5
23E
100
AcDbEntity
  8
0
  6
Continuous
 62
   174
100
AcDbLine
 10
224.616778
 20
116.624904
 30
0.0
 11
170.616778
 21
116.624904
 31
0.0
  0
LINE
  5
23F
100
AcDbEntity
  8
0
  6
Continuous
 62
   174
100
AcDbLine
 10
260.616778
 20
44.624904
 30
0.0
 11
260.616778
 21
116.624904
 31
0.0
  0
LINE
  5
240
100
AcDbEntity
  8
0
  6
Continuous
 62
   174
100
AcDbLine
 10
485.616778
 20
44.624904
 30
0.0
 11
485.616778
 21
116.624904
 31
0.0
  0
LINE
  5
241
100
AcDbEntity
  8
0
  6
Continuous
 62
   174
100
AcDbLine
 10
96.366778
 20
113.347515
 30
0.0
 11
96.366778
 21
105.472885
 31
0.0
  0
LINE
  5
242
100
AcDbEntity
  8
0
  6
Continuous
 62
   174
100
AcDbLine
 10
96.366778
 20
97.983835
 30
0.0
 11
96.366778
 21
97.598255
 31
0.0
  0
LINE
  5
243
100
AcDbEntity
  8
0
  6
Continuous
 62
   174
100
AcDbLine
 10
127.416778
 20
61.049904
 30
0.0
 11
141.816778
 21
61.049904
 31
0.0
  0
ARC
  5
244
100
AcDbEntity
  8
0
  6
Continuous
 62
   174
100
AcDbCircle
 10
134.616778
 20
80.624904
 30
0.0
 40
11.25
100
AcDbArc
 50
-90.0
 51
-81.359702
  0
ARC
  5
245
100
AcDbEntity
  8
0
  6
Continuous
 62
   174
100
AcDbCircle
 10
134.616778
 20
80.624904
 30
0.0
 40
11.25
100
AcDbArc
 50
-98.640298
 51
-90.0
  0
ARC
  5
246
100
AcDbEntity
  8
0
  6
Continuous
 62
   174
100
AcDbCircle
 10
134.616778
 20
80.624904
 30
0.0
 40
11.25
100
AcDbArc
 50
-81.359702
 51
81.359702
  0
LINE
  5
247
100
AcDbEntity
  8
0
  6
Continuous
 62
   174
100
AcDbLine
 10
485.616778
 20
100.874904
 30
0.0
 11
490.116778
 21
100.874904
 31
0.0
  0
ENDBLK
  5
248
100
AcDbEntity
  8
0
100
AcDbBlockEnd
  0
BLOCK
  5
24B
100
AcDbEntity
  8
0
100
AcDbBlockBegin
  2
*B3
 70
     0
 10
0.0
 20
0.0
 30
0.0
  3
*B3
  1

  0
LINE
  5
24C
100
AcDbEntity
  8
0
  6
Continuous
 62
   172
100
AcDbLine
 10
227.512579
 20
139.565138
 30
0.0
 11
208.593339
 21
139.565138
 31
0.0
  0
LINE
  5
24D
100
AcDbEntity
  8
0
  6
Continuous
 62
   172
100
AcDbLine
 10
253.307581
 20
95.699798
 30
0.0
 11
227.512579
 21
139.565138
 31
0.0
  0
ENDBLK
  5
24E
100
AcDbEntity
  8
0
100
AcDbBlockEnd
  0
BLOCK
  5
251
100
AcDbEntity
  8
0
100
AcDbBlockBegin
  2
*B4
 70
     0
 10
0.0
 20
0.0
 30
0.0
  3
*B4
  1

  0
LINE
  5
252
100
AcDbEntity
  8
0
  6
Continuous
 62
   172
100
AcDbLine
 10
223.581478
 20
143.668143
 30
0.0
 11
219.531478
 21
145.156282
 31
0.0
  0
LINE
  5
253
100
AcDbEntity
  8
0
  6
Continuous
 62
   172
100
AcDbLine
 10
223.581478
 20
143.668143
 30
0.0
 11
219.531478
 21
142.456282
 31
0.0
  0
LINE
  5
254
100
AcDbEntity
  8
0
  6
Continuous
 62
   172
100
AcDbLine
 10
220.881478
 20
143.668143
 30
0.0
 11
223.581478
 21
143.668143
 31
0.0
  0
LINE
  5
255
100
AcDbEntity
  8
0
  6
Continuous
 62
   172
100
AcDbLine
 10
223.581478
 20
166.894421
 30
0.0
 11
219.531478
 21
165.406282
 31
0.0
  0
LINE
  5
256
100
AcDbEntity
  8
0
  6
Continuous
 62
   172
100
AcDbLine
 10
223.581478
 20
166.894421
 30
0.0
 11
219.531478
 21
168.106282
 31
0.0
  0
LINE
  5
257
100
AcDbEntity
  8
0
  6
Continuous
 62
   172
100
AcDbLine
 10
220.881478
 20
166.894421
 30
0.0
 11
223.581478
 21
166.894421
 31
0.0
  0
ARC
  5
258
100
AcDbEntity
  8
0
  6
Continuous
 62
   172
100
AcDbCircle
 10
220.881478
 20
155.281282
 30
0.0
 40
11.613139
100
AcDbArc
 50
-270.0
 51
-90.0
  0
ENDBLK
  5
259
100
AcDbEntity
  8
0
100
AcDbBlockEnd
  0
BLOCK
  5
25C
100
AcDbEntity
  8
0
100
AcDbBlockBegin
  2
*B5
 70
     0
 10
0.0
 20
0.0
 30
0.0
  3
*B5
  1

  0
ENDBLK
  5
25D
100
AcDbEntity
  8
0
100
AcDbBlockEnd
  0
BLOCK
  5
25F
100
AcDbEntity
  8
0
100
AcDbBlockBegin
  2
*B6
 70
     0
 10
0.0
 20
0.0
 30
0.0
  3
*B6
  1

  0
LINE
  5
260
100
AcDbEntity
  8
0
  6
Continuous
 62
   172
100
AcDbLine
 10
196.061699
 20
246.526078
 30
0.0
 11
156.255939
 21
178.834934
 31
0.0
  0
LINE
  5
261
100
AcDbEntity
  8
0
  6
Continuous
 62
   172
100
AcDbLine
 10
156.255939
 20
178.834934
 30
0.0
 11
137.336699
 21
178.834934
 31
0.0
  0
ENDBLK
  5
262
100
AcDbEntity
  8
0
100
AcDbBlockEnd
  0
BLOCK
  5
265
100
AcDbEntity
  8
0
100
AcDbBlockBegin
  2
*B7
 70
     0
 10
0.0
 20
0.0
 30
0.0
  3
*B7
  1

  0
LINE
  5
266
100
AcDbEntity
  8
0
  6
Continuous
 62
   172
100
AcDbLine
 10
152.324838
 20
182.937939
 30
0.0
 11
148.274838
 21
184.426078
 31
0.0
  0
LINE
  5
267
100
AcDbEntity
  8
0
  6
Continuous
 62
   172
100
AcDbLine
 10
152.324838
 20
182.937939
 30
0.0
 11
148.274838
 21
181.726078
 31
0.0
  0
LINE
  5
268
100
AcDbEntity
  8
0
  6
Continuous
 62
   172
100
AcDbLine
 10
149.624838
 20
182.937939
 30
0.0
 11
152.324838
 21
182.937939
 31
0.0
  0
LINE
  5
269
100
AcDbEntity
  8
0
  6
Continuous
 62
   172
100
AcDbLine
 10
152.324838
 20
206.164217
 30
0.0
 11
148.274838
 21
204.676078
 31
0.0
  0
LINE
  5
26A
100
AcDbEntity
  8
0
  6
Continuous
 62
   172
100
AcDbLine
 10
152.324838
 20
206.164217
 30
0.0
 11
148.274838
 21
207.376078
 31
0.0
  0
LINE
  5
26B
100
AcDbEntity
  8
0
  6
Continuous
 62
   172
100
AcDbLine
 10
149.624838
 20
206.164217
 30
0.0
 11
152.324838
 21
206.164217
 31
0.0
  0
ARC
  5
26C
100
AcDbEntity
  8
0
  6
Continuous
 62
   172
100
AcDbCircle
 10
149.624838
 20
194.551078
 30
0.0
 40
11.613139
100
AcDbArc
 50
-270.0
 51
-90.0
  0
ENDBLK
  5
26D
100
AcDbEntity
  8
0
100
AcDbBlockEnd
  0
BLOCK
  5
270
100
AcDbEntity
  8
0
100
AcDbBlockBegin
  2
*B8
 70
     0
 10
0.0
 20
0.0
 30
0.0
  3
*B8
  1

  0
ENDBLK
  5
271
100
AcDbEntity
  8
0
100
AcDbBlockEnd
  0
BLOCK
  5
273
100
AcDbEntity
  8
0
100
AcDbBlockBegin
  2
*B9
 70
     0
 10
0.0
 20
0.0
 30
0.0
  3
*B9
  1

  0
LINE
  5
274
100
AcDbEntity
  8
0
  6
Continuous
 62
     0
100
AcDbLine
 10
445.089547
 20
158.095337
 30
0.0
 11
485.586958
 21
158.095337
 31
0.0
  0
SOLID
  5
275
100
AcDbEntity
  8
0
  6
Continuous
 62
     0
100
AcDbTrace
 10
455.088781
 20
160.095425
 30
0.0
 11
445.089547
 21
158.095337
 31
0.0
 12
455.088781
 22
156.095851
 32
0.0
 13
455.088781
 23
156.095851
 33
0.0
  0
SOLID
  5
276
100
AcDbEntity
  8
0
  6
Continuous
 62
     0
100
AcDbTrace
 10
475.587723
 20
156.095851
 30
0.0
 11
485.586958
 21
158.095337
 31
0.0
 12
475.587723
 22
160.095425
 32
0.0
 13
475.587723
 23
160.095425
 33
0.0
  0
ENDBLK
  5
277
100
AcDbEntity
  8
0
100
AcDbBlockEnd
  0
BLOCK
  5
27A
100
AcDbEntity
  8
0
100
AcDbBlockBegin
  2
*B10
 70
     0
 10
0.0
 20
0.0
 30
0.0
  3
*B10
  1

  0
LINE
  5
27B
100
AcDbEntity
  8
0
  6
Continuous
 62
     0
100
AcDbLine
 10
260.600874
 20
136.096781
 30
0.0
 11
485.586958
 21
136.096781
 31
0.0
  0
SOLID
  5
27C
100
AcDbEntity
  8
0
  6
Continuous
 62
     0
100
AcDbTrace
 10
270.600109
 20
138.096267
 30
0.0
 11
260.600874
 21
136.096781
 31
0.0
 12
270.600109
 22
134.096694
 32
0.0
 13
270.600109
 23
134.096694
 33
0.0
  0
SOLID
  5
27D
100
AcDbEntity
  8
0
  6
Continuous
 62
     0
100
AcDbTrace
 10
475.587723
 20
134.096694
 30
0.0
 11
485.586958
 21
136.096781
 31
0.0
 12
475.587723
 22
138.096267
 32
0.0
 13
475.587723
 23
138.096267
 33
0.0
  0
ENDBLK
  5
27E
100
AcDbEntity
  8
0
100
AcDbBlockEnd
  0
BLOCK
  5
281
100
AcDbEntity
  8
0
100
AcDbBlockBegin
  2
*B11
 70
     0
 10
0.0
 20
0.0
 30
0.0
  3
*B11
  1

  0
LINE
  5
282
100
AcDbEntity
  8
0
  6
Continuous
 62
     0
100
AcDbLine
 10
537.966994
 20
346.948111
 30
0.0
 11
537.966994
 21
211.954536
 31
0.0
  0
SOLID
  5
283
100
AcDbEntity
  8
0
  6
Continuous
 62
     0
100
AcDbTrace
 10
539.967081
 20
336.948275
 30
0.0
 11
537.966994
 21
346.948111
 31
0.0
 12
535.966906
 22
336.948275
 32
0.0
 13
535.966906
 23
336.948275
 33
0.0
  0
SOLID
  5
284
100
AcDbEntity
  8
0
  6
Continuous
 62
     0
100
AcDbTrace
 10
535.966906
 20
221.95377
 30
0.0
 11
537.966994
 21
211.954536
 31
0.0
 12
539.967081
 22
221.95377
 32
0.0
 13
539.967081
 23
221.95377
 33
0.0
  0
ENDBLK
  5
285
100
AcDbEntity
  8
0
100
AcDbBlockEnd
  0
BLOCK
  5
288
100
AcDbEntity
  8
0
100
AcDbBlockBegin
  2
*B12
 70
     0
 10
0.0
 20
0.0
 30
0.0
  3
*B12
  1

  0
LINE
  5
289
100
AcDbEntity
  8
0
  6
Continuous
 62
     0
100
AcDbLine
 10
515.067947
 20
243.453057
 30
0.0
 11
515.067947
 21
315.44959
 31
0.0
  0
SOLID
  5
28A
100
AcDbEntity
  8
0
  6
Continuous
 62
     0
100
AcDbTrace
 10
513.067859
 20
253.452291
 30
0.0
 11
515.067947
 21
243.453057
 31
0.0
 12
517.067433
 22
253.452291
 32
0.0
 13
517.067433
 23
253.452291
 33
0.0
  0
SOLID
  5
28B
100
AcDbEntity
  8
0
  6
Continuous
 62
     0
100
AcDbTrace
 10
517.067433
 20
305.449754
 30
0.0
 11
515.067947
 21
315.44959
 31
0.0
 12
513.067859
 22
305.449754
 32
0.0
 13
513.067859
 23
305.449754
 33
0.0
  0
ENDBLK
  5
28C
100
AcDbEntity
  8
0
100
AcDbBlockEnd
  0
BLOCK
  5
28F
100
AcDbEntity
  8
0
100
AcDbBlockBegin
  2
*B13
 70
     0
 10
0.0
 20
0.0
 30
0.0
  3
*B13
  1

  0
LINE
  5
290
100
AcDbEntity
  8
0
  6
Continuous
 62
     0
100
AcDbLine
 10
337.096251
 20
266.090438
 30
0.0
 11
409.091581
 21
266.090438
 31
0.0
  0
SOLID
  5
291
100
AcDbEntity
  8
0
  6
Continuous
 62
     0
100
AcDbTrace
 10
347.095485
 20
268.090525
 30
0.0
 11
337.096251
 21
266.090438
 31
0.0
 12
347.095485
 22
264.09035
 32
0.0
 13
347.095485
 23
264.09035
 33
0.0
  0
SOLID
  5
292
100
AcDbEntity
  8
0
  6
Continuous
 62
     0
100
AcDbTrace
 10
399.092347
 20
264.09035
 30
0.0
 11
409.091581
 21
266.090438
 31
0.0
 12
399.092347
 22
268.090525
 32
0.0
 13
399.092347
 23
268.090525
 33
0.0
  0
ENDBLK
  5
293
100
AcDbEntity
  8
0
100
AcDbBlockEnd
  0
BLOCK
  5
296
100
AcDbEntity
  8
0
100
AcDbBlockBegin
  2
*B14
 70
     0
 10
0.0
 20
0.0
 30
0.0
  3
*B14
  1

  0
LINE
  5
297
100
AcDbEntity
  8
0
  6
Continuous
 62
     0
100
AcDbLine
 10
405.404803
 20
182.094583
 30
0.0
 11
527.092533
 21
182.094583
 31
0.0
  0
SOLID
  5
298
100
AcDbEntity
  8
0
  6
Continuous
 62
     0
100
AcDbTrace
 10
415.404038
 20
180.094495
 30
0.0
 11
425.403272
 21
182.094583
 31
0.0
 12
415.404038
 22
184.094069
 32
0.0
 13
415.404038
 23
184.094069
 33
0.0
  0
SOLID
  5
299
100
AcDbEntity
  8
0
  6
Continuous
 62
     0
100
AcDbTrace
 10
474.775056
 20
184.094069
 30
0.0
 11
464.775822
 21
182.094583
 31
0.0
 12
474.775056
 22
180.094495
 32
0.0
 13
474.775056
 23
180.094495
 33
0.0
  0
ENDBLK
  5
29A
100
AcDbEntity
  8
0
100
AcDbBlockEnd
  0
BLOCK
  5
29D
100
AcDbEntity
  8
0
100
AcDbBlockBegin
  2
*B15
 70
     0
 10
0.0
 20
0.0
 30
0.0
  3
*B15
  1

  0
LINE
  5
29E
100
AcDbEntity
  8
0
  6
Continuous
 62
     0
100
AcDbLine
 10
409.091581
 20
418.083253
 30
0.0
 11
485.586958
 21
418.083253
 31
0.0
  0
SOLID
  5
29F
100
AcDbEntity
  8
0
  6
Continuous
 62
     0
100
AcDbTrace
 10
419.091417
 20
420.08334
 30
0.0
 11
409.091581
 21
418.083253
 31
0.0
 12
419.091417
 22
416.083165
 32
0.0
 13
419.091417
 23
416.083165
 33
0.0
  0
SOLID
  5
2A0
100
AcDbEntity
  8
0
  6
Continuous
 62
     0
100
AcDbTrace
 10
475.587723
 20
416.083165
 30
0.0
 11
485.586958
 21
418.083253
 31
0.0
 12
475.587723
 22
420.08334
 32
0.0
 13
475.587723
 23
420.08334
 33
0.0
  0
ENDBLK
  5
2A1
100
AcDbEntity
  8
0
100
AcDbBlockEnd
  0
BLOCK
  5
2A4
100
AcDbEntity
  8
0
100
AcDbBlockBegin
  2
*B16
 70
     0
 10
0.0
 20
0.0
 30
0.0
  3
*B16
  1

  0
LINE
  5
2A5
100
AcDbEntity
  8
0
  6
Continuous
 62
     0
100
AcDbLine
 10
337.096251
 20
418.083253
 30
0.0
 11
409.091581
 21
418.083253
 31
0.0
  0
SOLID
  5
2A6
100
AcDbEntity
  8
0
  6
Continuous
 62
     0
100
AcDbTrace
 10
347.095485
 20
420.08334
 30
0.0
 11
337.096251
 21
418.083253
 31
0.0
 12
347.095485
 22
416.083165
 32
0.0
 13
347.095485
 23
416.083165
 33
0.0
  0
SOLID
  5
2A7
100
AcDbEntity
  8
0
  6
Continuous
 62
     0
100
AcDbTrace
 10
399.092347
 20
416.083165
 30
0.0
 11
409.091581
 21
418.083253
 31
0.0
 12
399.092347
 22
420.08334
 32
0.0
 13
399.092347
 23
420.08334
 33
0.0
  0
ENDBLK
  5
2A8
100
AcDbEntity
  8
0
100
AcDbBlockEnd
  0
BLOCK
  5
2AB
100
AcDbEntity
  8
0
100
AcDbBlockBegin
  2
*B17
 70
     0
 10
0.0
 20
0.0
 30
0.0
  3
*B17
  1

  0
LINE
  5
2AC
100
AcDbEntity
  8
0
  6
Continuous
 62
     0
100
AcDbLine
 10
290.436766
 20
395.121647
 30
0.0
 11
370.594258
 21
395.121647
 31
0.0
  0
SOLID
  5
2AD
100
AcDbEntity
  8
0
  6
Continuous
 62
     0
100
AcDbTrace
 10
313.597479
 20
393.122161
 30
0.0
 11
323.597315
 21
395.121647
 31
0.0
 12
313.597479
 22
397.121734
 32
0.0
 13
313.597479
 23
397.121734
 33
0.0
  0
SOLID
  5
2AE
100
AcDbEntity
  8
0
  6
Continuous
 62
     0
100
AcDbTrace
 10
360.595023
 20
397.121734
 30
0.0
 11
350.595187
 21
395.121647
 31
0.0
 12
360.595023
 22
393.122161
 32
0.0
 13
360.595023
 23
393.122161
 33
0.0
  0
ENDBLK
  5
2AF
100
AcDbEntity
  8
0
100
AcDbBlockEnd
  0
BLOCK
  5
2B2
100
AcDbEntity
  8
0
100
AcDbBlockBegin
  2
*B18
 70
     0
 10
0.0
 20
0.0
 30
0.0
  3
*B18
  1

  0
LINE
  5
2B3
100
AcDbEntity
  8
0
  6
Continuous
 62
     0
100
AcDbLine
 10
98.61063
 20
440.082411
 30
0.0
 11
485.586958
 21
440.082411
 31
0.0
  0
SOLID
  5
2B4
100
AcDbEntity
  8
0
  6
Continuous
 62
     0
100
AcDbTrace
 10
108.610466
 20
442.082498
 30
0.0
 11
98.61063
 21
440.082411
 31
0.0
 12
108.610466
 22
438.082323
 32
0.0
 13
108.610466
 23
438.082323
 33
0.0
  0
SOLID
  5
2B5
100
AcDbEntity
  8
0
  6
Continuous
 62
     0
100
AcDbTrace
 10
475.587723
 20
438.082323
 30
0.0
 11
485.586958
 21
440.082411
 31
0.0
 12
475.587723
 22
442.082498
 32
0.0
 13
475.587723
 23
442.082498
 33
0.0
  0
ENDBLK
  5
2B6
100
AcDbEntity
  8
0
100
AcDbBlockEnd
  0
BLOCK
  5
2B9
100
AcDbEntity
  8
0
100
AcDbBlockBegin
  2
*B19
 70
     0
 10
0.0
 20
0.0
 30
0.0
  3
*B19
  1

  0
LINE
  5
2BA
100
AcDbEntity
  8
0
  6
Continuous
 62
     0
100
AcDbLine
 10
75.995505
 20
229.953519
 30
0.0
 11
75.995505
 21
346.948111
 31
0.0
  0
SOLID
  5
2BB
100
AcDbEntity
  8
0
  6
Continuous
 62
     0
100
AcDbTrace
 10
73.995418
 20
239.952753
 30
0.0
 11
75.995505
 21
229.953519
 31
0.0
 12
77.995593
 22
239.952753
 32
0.0
 13
77.995593
 23
239.952753
 33
0.0
  0
SOLID
  5
2BC
100
AcDbEntity
  8
0
  6
Continuous
 62
     0
100
AcDbTrace
 10
77.995593
 20
336.948275
 30
0.0
 11
75.995505
 21
346.948111
 31
0.0
 12
73.995418
 22
336.948275
 32
0.0
 13
73.995418
 23
336.948275
 33
0.0
  0
ENDBLK
  5
2BD
100
AcDbEntity
  8
0
100
AcDbBlockEnd
  0
BLOCK
  5
2C0
100
AcDbEntity
  8
0
100
AcDbBlockBegin
  2
*B20
 70
     0
 10
0.0
 20
0.0
 30
0.0
  3
*B20
  1

  0
LINE
  5
2C1
100
AcDbEntity
  8
0
  6
Continuous
 62
     0
100
AcDbLine
 10
75.995505
 20
249.952589
 30
0.0
 11
75.995505
 21
191.955465
 31
0.0
  0
SOLID
  5
2C2
100
AcDbEntity
  8
0
  6
Continuous
 62
     0
100
AcDbTrace
 10
73.995418
 20
239.952753
 30
0.0
 11
75.995505
 21
229.953519
 31
0.0
 12
77.995593
 22
239.952753
 32
0.0
 13
77.995593
 23
239.952753
 33
0.0
  0
SOLID
  5
2C3
100
AcDbEntity
  8
0
  6
Continuous
 62
     0
100
AcDbTrace
 10
77.995593
 20
201.9547
 30
0.0
 11
75.995505
 21
211.954536
 31
0.0
 12
73.995418
 22
201.9547
 32
0.0
 13
73.995418
 23
201.9547
 33
0.0
  0
ENDBLK
  5
2C4
100
AcDbEntity
  8
0
100
AcDbBlockEnd
  0
BLOCK
  5
2C7
100
AcDbEntity
  8
0
100
AcDbBlockBegin
  2
*B21
 70
     0
 10
0.0
 20
0.0
 30
0.0
  3
*B21
  1

  0
LINE
  5
2C8
100
AcDbEntity
  8
0
  6
Continuous
 62
     0
100
AcDbLine
 10
75.995505
 20
44.725566
 30
0.0
 11
75.995505
 21
116.722099
 31
0.0
  0
SOLID
  5
2C9
100
AcDbEntity
  8
0
  6
Continuous
 62
     0
100
AcDbTrace
 10
73.995418
 20
54.725402
 30
0.0
 11
75.995505
 21
44.725566
 31
0.0
 12
77.995593
 22
54.725402
 32
0.0
 13
77.995593
 23
54.725402
 33
0.0
  0
SOLID
  5
2CA
100
AcDbEntity
  8
0
  6
Continuous
 62
     0
100
AcDbTrace
 10
77.995593
 20
106.722864
 30
0.0
 11
75.995505
 21
116.722099
 31
0.0
 12
73.995418
 22
106.722864
 32
0.0
 13
73.995418
 23
106.722864
 33
0.0
  0
ENDBLK
  5
2CB
100
AcDbEntity
  8
0
100
AcDbBlockEnd
  0
BLOCK
  5
2CE
100
AcDbEntity
  8
0
100
AcDbBlockBegin
  2
*B22
 70
     0
 10
0.0
 20
0.0
 30
0.0
  3
*B22
  1

  0
LINE
  5
2CF
100
AcDbEntity
  8
0
  6
Continuous
 62
     0
100
AcDbLine
 10
373.094217
 20
158.095337
 30
0.0
 11
301.098285
 21
158.095337
 31
0.0
  0
SOLID
  5
2D0
100
AcDbEntity
  8
0
  6
Continuous
 62
     0
100
AcDbTrace
 10
363.094381
 20
156.095851
 30
0.0
 11
373.094217
 21
158.095337
 31
0.0
 12
363.094381
 22
160.095425
 32
0.0
 13
363.094381
 23
160.095425
 33
0.0
  0
SOLID
  5
2D1
100
AcDbEntity
  8
0
  6
Continuous
 62
     0
100
AcDbTrace
 10
311.098121
 20
160.095425
 30
0.0
 11
301.098285
 21
158.095337
 31
0.0
 12
311.098121
 22
156.095851
 32
0.0
 13
311.098121
 23
156.095851
 33
0.0
  0
ENDBLK
  5
2D2
100
AcDbEntity
  8
0
100
AcDbBlockEnd
  0
BLOCK
  5
2D5
100
AcDbEntity
  8
0
100
AcDbBlockBegin
  2
*B23
 70
     0
 10
0.0
 20
0.0
 30
0.0
  3
*B23
  1

  0
LINE
  5
2D6
100
AcDbEntity
  8
0
  6
Continuous
 62
     0
100
AcDbLine
 10
465.588489
 20
418.083253
 30
0.0
 11
515.239383
 21
418.083253
 31
0.0
  0
SOLID
  5
2D7
100
AcDbEntity
  8
0
  6
Continuous
 62
     0
100
AcDbTrace
 10
475.587723
 20
416.083165
 30
0.0
 11
485.586958
 21
418.083253
 31
0.0
 12
475.587723
 22
420.08334
 32
0.0
 13
475.587723
 23
420.08334
 33
0.0
  0
SOLID
  5
2D8
100
AcDbEntity
  8
0
  6
Continuous
 62
     0
100
AcDbTrace
 10
500.086239
 20
420.08334
 30
0.0
 11
490.087004
 21
418.083253
 31
0.0
 12
500.086239
 22
416.083165
 32
0.0
 13
500.086239
 23
416.083165
 33
0.0
  0
ENDBLK
  5
2D9
100
AcDbEntity
  8
0
100
AcDbBlockEnd
  0
BLOCK
  5
2DC
100
AcDbEntity
  8
0
100
AcDbBlockBegin
  2
*B24
 70
     0
 10
0.0
 20
0.0
 30
0.0
  3
*B24
  1

  0
LINE
  5
2DD
100
AcDbEntity
  8
0
  6
Continuous
 62
     0
100
AcDbLine
 10
373.094217
 20
158.095337
 30
0.0
 11
445.089547
 21
158.095337
 31
0.0
  0
SOLID
  5
2DE
100
AcDbEntity
  8
0
  6
Continuous
 62
     0
100
AcDbTrace
 10
383.093451
 20
160.095425
 30
0.0
 11
373.094217
 21
158.095337
 31
0.0
 12
383.093451
 22
156.095851
 32
0.0
 13
383.093451
 23
156.095851
 33
0.0
  0
SOLID
  5
2DF
100
AcDbEntity
  8
0
  6
Continuous
 62
     0
100
AcDbTrace
 10
435.090312
 20
156.095851
 30
0.0
 11
445.089547
 21
158.095337
 31
0.0
 12
435.090312
 22
160.095425
 32
0.0
 13
435.090312
 23
160.095425
 33
0.0
  0
ENDBLK
  5
2E0
100
AcDbEntity
  8
0
100
AcDbBlockEnd
  0
BLOCK
  5
2E3
100
AcDbEntity
  8
0
100
AcDbBlockBegin
  2
*B25
 70
     0
 10
0.0
 20
0.0
 30
0.0
  3
*B25
  1

  0
LINE
  5
2E4
100
AcDbEntity
  8
0
  6
Continuous
 62
     0
100
AcDbLine
 10
537.966994
 20
326.94904
 30
0.0
 11
537.966994
 21
398.445702
 31
0.0
  0
SOLID
  5
2E5
100
AcDbEntity
  8
0
  6
Continuous
 62
     0
100
AcDbTrace
 10
539.967081
 20
336.948275
 30
0.0
 11
537.966994
 21
346.948111
 31
0.0
 12
535.966906
 22
336.948275
 32
0.0
 13
535.966906
 23
336.948275
 33
0.0
  0
SOLID
  5
2E6
100
AcDbEntity
  8
0
  6
Continuous
 62
     0
100
AcDbTrace
 10
535.966906
 20
388.445866
 30
0.0
 11
537.966994
 21
378.446631
 31
0.0
 12
539.967081
 22
388.445866
 32
0.0
 13
539.967081
 23
388.445866
 33
0.0
  0
ENDBLK
  5
2E7
100
AcDbEntity
  8
0
100
AcDbBlockEnd
  0
BLOCK
  5
2EA
100
AcDbEntity
  8
0
100
AcDbBlockBegin
  2
*B26
 70
     0
 10
0.0
 20
0.0
 30
0.0
  3
*B26
  1

  0
LINE
  5
2EB
100
AcDbEntity
  8
0
  6
Continuous
 62
     8
100
AcDbLine
 10
464.775822
 20
180.094495
 30
0.0
 11
464.775822
 21
205.954273
 31
0.0
  0
ENDBLK
  5
2EC
100
AcDbEntity
  8
0
100
AcDbBlockEnd
  0
BLOCK
  5
2EF
100
AcDbEntity
  8
0
100
AcDbBlockBegin
  2
*B27
 70
     0
 10
0.0
 20
0.0
 30
0.0
  3
*B27
  1

  0
LINE
  5
2F0
100
AcDbEntity
  8
0
  6
Continuous
 62
     8
100
AcDbLine
 10
485.586958
 20
134.096694
 30
0.0
 11
485.586958
 21
205.954273
 31
0.0
  0
LINE
  5
2F1
100
AcDbEntity
  8
0
  6
Continuous
 62
     8
100
AcDbLine
 10
485.586958
 20
352.947772
 30
0.0
 11
485.586958
 21
442.082498
 31
0.0
  0
ENDBLK
  5
2F2
100
AcDbEntity
  8
0
100
AcDbBlockEnd
  0
BLOCK
  5
2F5
100
AcDbEntity
  8
0
100
AcDbBlockBegin
  2
*B28
 70
     0
 10
0.0
 20
0.0
 30
0.0
  3
*B28
  1

  0
LINE
  5
2F6
100
AcDbEntity
  8
0
  6
Continuous
 62
     8
100
AcDbLine
 10
445.089547
 20
156.095851
 30
0.0
 11
445.089547
 21
160.095425
 31
0.0
  0
LINE
  5
2F7
100
AcDbEntity
  8
0
  6
Continuous
 62
     8
100
AcDbLine
 10
445.089547
 20
160.095425
 30
0.0
 11
445.089547
 21
183.547879
 31
0.0
  0
LINE
  5
2F8
100
AcDbEntity
  8
0
  6
Continuous
 62
     8
100
AcDbLine
 10
445.089547
 20
189.54754
 30
0.0
 11
445.089547
 21
191.547628
 31
0.0
  0
LINE
  5
2F9
100
AcDbEntity
  8
0
  6
Continuous
 62
     8
100
AcDbLine
 10
445.089547
 20
197.547289
 30
0.0
 11
445.089547
 21
221.000345
 31
0.0
  0
LINE
  5
2FA
100
AcDbEntity
  8
0
  6
Continuous
 62
     8
100
AcDbLine
 10
445.089547
 20
227.000006
 30
0.0
 11
445.089547
 21
228.999492
 31
0.0
  0
LINE
  5
2FB
100
AcDbEntity
  8
0
  6
Continuous
 62
     8
100
AcDbLine
 10
445.089547
 20
234.999153
 30
0.0
 11
445.089547
 21
258.452209
 31
0.0
  0
ENDBLK
  5
2FC
100
AcDbEntity
  8
0
100
AcDbBlockEnd
  0
BLOCK
  5
2FF
100
AcDbEntity
  8
0
100
AcDbBlockBegin
  2
*B29
 70
     0
 10
0.0
 20
0.0
 30
0.0
  3
*B29
  1

  0
LINE
  5
300
100
AcDbEntity
  8
0
  6
Continuous
 62
     8
100
AcDbLine
 10
323.597315
 20
384.446292
 30
0.0
 11
323.597315
 21
397.121734
 31
0.0
  0
ENDBLK
  5
301
100
AcDbEntity
  8
0
100
AcDbBlockEnd
  0
BLOCK
  5
304
100
AcDbEntity
  8
0
100
AcDbBlockBegin
  2
*B30
 70
     0
 10
0.0
 20
0.0
 30
0.0
  3
*B30
  1

  0
LINE
  5
305
100
AcDbEntity
  8
0
  6
Continuous
 62
     8
100
AcDbLine
 10
242.601892
 20
65.724379
 30
0.0
 11
242.601892
 21
72.724385
 31
0.0
  0
LINE
  5
306
100
AcDbEntity
  8
0
  6
Continuous
 62
     8
100
AcDbLine
 10
242.601892
 20
88.723881
 30
0.0
 11
242.601892
 21
95.723285
 31
0.0
  0
ENDBLK
  5
307
100
AcDbEntity
  8
0
100
AcDbBlockEnd
  0
BLOCK
  5
30A
100
AcDbEntity
  8
0
100
AcDbBlockBegin
  2
*B31
 70
     0
 10
0.0
 20
0.0
 30
0.0
  3
*B31
  1

  0
LINE
  5
30B
100
AcDbEntity
  8
0
  6
Continuous
 62
     8
100
AcDbLine
 10
442.089716
 20
378.446631
 30
0.0
 11
539.967081
 21
378.446631
 31
0.0
  0
ENDBLK
  5
30C
100
AcDbEntity
  8
0
100
AcDbBlockEnd
  0
BLOCK
  5
30F
100
AcDbEntity
  8
0
100
AcDbBlockBegin
  2
*B32
 70
     0
 10
0.0
 20
0.0
 30
0.0
  3
*B32
  1

  0
LINE
  5
310
100
AcDbEntity
  8
0
  6
Continuous
 62
     8
100
AcDbLine
 10
425.403272
 20
180.094495
 30
0.0
 11
425.403272
 21
205.954273
 31
0.0
  0
ENDBLK
  5
311
100
AcDbEntity
  8
0
100
AcDbBlockEnd
  0
BLOCK
  5
314
100
AcDbEntity
  8
0
100
AcDbBlockBegin
  2
*B33
 70
     0
 10
0.0
 20
0.0
 30
0.0
  3
*B33
  1

  0
LINE
  5
315
100
AcDbEntity
  8
0
  6
Continuous
 62
     8
100
AcDbLine
 10
373.094217
 20
156.095851
 30
0.0
 11
373.094217
 21
160.095425
 31
0.0
  0
LINE
  5
316
100
AcDbEntity
  8
0
  6
Continuous
 62
     8
100
AcDbLine
 10
373.094217
 20
160.095425
 30
0.0
 11
373.094217
 21
178.366901
 31
0.0
  0
LINE
  5
317
100
AcDbEntity
  8
0
  6
Continuous
 62
     8
100
AcDbLine
 10
373.094217
 20
184.366562
 30
0.0
 11
373.094217
 21
186.366649
 31
0.0
  0
LINE
  5
318
100
AcDbEntity
  8
0
  6
Continuous
 62
     8
100
AcDbLine
 10
373.094217
 20
192.36631
 30
0.0
 11
373.094217
 21
210.637786
 31
0.0
  0
LINE
  5
319
100
AcDbEntity
  8
0
  6
Continuous
 62
     8
100
AcDbLine
 10
373.094217
 20
216.637447
 30
0.0
 11
373.094217
 21
218.636933
 31
0.0
  0
LINE
  5
31A
100
AcDbEntity
  8
0
  6
Continuous
 62
     8
100
AcDbLine
 10
373.094217
 20
224.637196
 30
0.0
 11
373.094217
 21
242.90807
 31
0.0
  0
LINE
  5
31B
100
AcDbEntity
  8
0
  6
Continuous
 62
     8
100
AcDbLine
 10
373.094217
 20
248.908333
 30
0.0
 11
373.094217
 21
250.907819
 31
0.0
  0
LINE
  5
31C
100
AcDbEntity
  8
0
  6
Continuous
 62
     8
100
AcDbLine
 10
373.094217
 20
256.90748
 30
0.0
 11
373.094217
 21
275.178956
 31
0.0
  0
LINE
  5
31D
100
AcDbEntity
  8
0
  6
Continuous
 62
     8
100
AcDbLine
 10
373.094217
 20
281.178617
 30
0.0
 11
373.094217
 21
283.178704
 31
0.0
  0
LINE
  5
31E
100
AcDbEntity
  8
0
  6
Continuous
 62
     8
100
AcDbLine
 10
373.094217
 20
289.178365
 30
0.0
 11
373.094217
 21
307.449841
 31
0.0
  0
LINE
  5
31F
100
AcDbEntity
  8
0
  6
Continuous
 62
     8
100
AcDbLine
 10
373.094217
 20
323.449338
 30
0.0
 11
373.094217
 21
331.348631
 31
0.0
  0
ENDBLK
  5
320
100
AcDbEntity
  8
0
100
AcDbBlockEnd
  0
BLOCK
  5
323
100
AcDbEntity
  8
0
100
AcDbBlockBegin
  2
*B34
 70
     0
 10
0.0
 20
0.0
 30
0.0
  3
*B34
  1

  0
LINE
  5
324
100
AcDbEntity
  8
0
  6
Continuous
 62
     8
100
AcDbLine
 10
92.61157
 20
80.724133
 30
0.0
 11
126.609449
 21
80.724133
 31
0.0
  0
LINE
  5
325
100
AcDbEntity
  8
0
  6
Continuous
 62
     8
100
AcDbLine
 10
142.608344
 20
80.724133
 30
0.0
 11
163.940405
 21
80.724133
 31
0.0
  0
LINE
  5
326
100
AcDbEntity
  8
0
  6
Continuous
 62
     8
100
AcDbLine
 10
169.940066
 20
80.724133
 30
0.0
 11
171.939552
 21
80.724133
 31
0.0
  0
LINE
  5
327
100
AcDbEntity
  8
0
  6
Continuous
 62
     8
100
AcDbLine
 10
177.939213
 20
80.724133
 30
0.0
 11
199.271274
 21
80.724133
 31
0.0
  0
LINE
  5
328
100
AcDbEntity
  8
0
  6
Continuous
 62
     8
100
AcDbLine
 10
205.270935
 20
80.724133
 30
0.0
 11
207.271023
 21
80.724133
 31
0.0
  0
LINE
  5
329
100
AcDbEntity
  8
0
  6
Continuous
 62
     8
100
AcDbLine
 10
213.270684
 20
80.724133
 30
0.0
 11
234.602745
 21
80.724133
 31
0.0
  0
LINE
  5
32A
100
AcDbEntity
  8
0
  6
Continuous
 62
     8
100
AcDbLine
 10
250.60164
 20
80.724133
 30
0.0
 11
267.433655
 21
80.724133
 31
0.0
  0
LINE
  5
32B
100
AcDbEntity
  8
0
  6
Continuous
 62
     8
100
AcDbLine
 10
273.433316
 20
80.724133
 30
0.0
 11
275.433403
 21
80.724133
 31
0.0
  0
LINE
  5
32C
100
AcDbEntity
  8
0
  6
Continuous
 62
     8
100
AcDbLine
 10
281.433064
 20
80.724133
 30
0.0
 11
298.265079
 21
80.724133
 31
0.0
  0
LINE
  5
32D
100
AcDbEntity
  8
0
  6
Continuous
 62
     8
100
AcDbLine
 10
304.26474
 20
80.724133
 30
0.0
 11
306.264827
 21
80.724133
 31
0.0
  0
LINE
  5
32E
100
AcDbEntity
  8
0
  6
Continuous
 62
     8
100
AcDbLine
 10
312.264488
 20
80.724133
 30
0.0
 11
329.096503
 21
80.724133
 31
0.0
  0
LINE
  5
32F
100
AcDbEntity
  8
0
  6
Continuous
 62
     8
100
AcDbLine
 10
345.095999
 20
80.724133
 30
0.0
 11
366.094211
 21
80.724133
 31
0.0
  0
LINE
  5
330
100
AcDbEntity
  8
0
  6
Continuous
 62
     8
100
AcDbLine
 10
372.093872
 20
80.724133
 30
0.0
 11
374.09396
 21
80.724133
 31
0.0
  0
LINE
  5
331
100
AcDbEntity
  8
0
  6
Continuous
 62
     8
100
AcDbLine
 10
380.093621
 20
80.724133
 30
0.0
 11
401.092434
 21
80.724133
 31
0.0
  0
LINE
  5
332
100
AcDbEntity
  8
0
  6
Continuous
 62
     8
100
AcDbLine
 10
417.09133
 20
80.724133
 30
0.0
 11
434.089968
 21
80.724133
 31
0.0
  0
LINE
  5
333
100
AcDbEntity
  8
0
  6
Continuous
 62
     8
100
AcDbLine
 10
440.089629
 20
80.724133
 30
0.0
 11
442.089716
 21
80.724133
 31
0.0
  0
LINE
  5
334
100
AcDbEntity
  8
0
  6
Continuous
 62
     8
100
AcDbLine
 10
448.089377
 20
80.724133
 30
0.0
 11
465.088617
 21
80.724133
 31
0.0
  0
LINE
  5
335
100
AcDbEntity
  8
0
  6
Continuous
 62
     8
100
AcDbLine
 10
471.088278
 20
80.724133
 30
0.0
 11
473.087764
 21
80.724133
 31
0.0
  0
LINE
  5
336
100
AcDbEntity
  8
0
  6
Continuous
 62
     8
100
AcDbLine
 10
479.087425
 20
80.724133
 30
0.0
 11
496.086665
 21
80.724133
 31
0.0
  0
ENDBLK
  5
337
100
AcDbEntity
  8
0
100
AcDbBlockEnd
  0
BLOCK
  5
33A
100
AcDbEntity
  8
0
100
AcDbBlockBegin
  2
*B35
 70
     0
 10
0.0
 20
0.0
 30
0.0
  3
*B35
  1

  0
LINE
  5
33B
100
AcDbEntity
  8
0
  6
Continuous
 62
     8
100
AcDbLine
 10
73.995418
 20
346.948111
 30
0.0
 11
92.61157
 21
346.948111
 31
0.0
  0
ENDBLK
  5
33C
100
AcDbEntity
  8
0
100
AcDbBlockEnd
  0
BLOCK
  5
33F
100
AcDbEntity
  8
0
100
AcDbBlockBegin
  2
*B36
 70
     0
 10
0.0
 20
0.0
 30
0.0
  3
*B36
  1

  0
LINE
  5
340
100
AcDbEntity
  8
0
  6
Continuous
 62
     8
100
AcDbLine
 10
491.586619
 20
346.948111
 30
0.0
 11
539.967081
 21
346.948111
 31
0.0
  0
ENDBLK
  5
341
100
AcDbEntity
  8
0
100
AcDbBlockEnd
  0
BLOCK
  5
344
100
AcDbEntity
  8
0
100
AcDbBlockBegin
  2
*B37
 70
     0
 10
0.0
 20
0.0
 30
0.0
  3
*B37
  1

  0
LINE
  5
345
100
AcDbEntity
  8
0
  6
Continuous
 62
     8
100
AcDbLine
 10
301.098285
 20
156.095851
 30
0.0
 11
301.098285
 21
160.095425
 31
0.0
  0
LINE
  5
346
100
AcDbEntity
  8
0
  6
Continuous
 62
     8
100
AcDbLine
 10
301.098285
 20
160.095425
 30
0.0
 11
301.098285
 21
183.547879
 31
0.0
  0
LINE
  5
347
100
AcDbEntity
  8
0
  6
Continuous
 62
     8
100
AcDbLine
 10
301.098285
 20
189.54754
 30
0.0
 11
301.098285
 21
191.547628
 31
0.0
  0
LINE
  5
348
100
AcDbEntity
  8
0
  6
Continuous
 62
     8
100
AcDbLine
 10
301.098285
 20
197.547289
 30
0.0
 11
301.098285
 21
221.000345
 31
0.0
  0
LINE
  5
349
100
AcDbEntity
  8
0
  6
Continuous
 62
     8
100
AcDbLine
 10
301.098285
 20
227.000006
 30
0.0
 11
301.098285
 21
228.999492
 31
0.0
  0
LINE
  5
34A
100
AcDbEntity
  8
0
  6
Continuous
 62
     8
100
AcDbLine
 10
301.098285
 20
234.999153
 30
0.0
 11
301.098285
 21
258.452209
 31
0.0
  0
ENDBLK
  5
34B
100
AcDbEntity
  8
0
100
AcDbBlockEnd
  0
BLOCK
  5
34E
100
AcDbEntity
  8
0
100
AcDbBlockBegin
  2
*B38
 70
     0
 10
0.0
 20
0.0
 30
0.0
  3
*B38
  1

  0
LINE
  5
34F
100
AcDbEntity
  8
0
  6
Continuous
 62
     8
100
AcDbLine
 10
260.600874
 20
134.096694
 30
0.0
 11
260.600874
 21
205.954273
 31
0.0
  0
ENDBLK
  5
350
100
AcDbEntity
  8
0
100
AcDbBlockEnd
  0
BLOCK
  5
353
100
AcDbEntity
  8
0
100
AcDbBlockBegin
  2
*B39
 70
     0
 10
0.0
 20
0.0
 30
0.0
  3
*B39
  1

  0
LINE
  5
354
100
AcDbEntity
  8
0
  6
Continuous
 62
     8
100
AcDbLine
 10
337.096251
 20
264.09035
 30
0.0
 11
337.096251
 21
268.090525
 31
0.0
  0
LINE
  5
355
100
AcDbEntity
  8
0
  6
Continuous
 62
     8
100
AcDbLine
 10
337.096251
 20
227.553414
 30
0.0
 11
337.096251
 21
235.453308
 31
0.0
  0
LINE
  5
356
100
AcDbEntity
  8
0
  6
Continuous
 62
     8
100
AcDbLine
 10
337.096251
 20
251.452204
 30
0.0
 11
337.096251
 21
264.09035
 31
0.0
  0
ENDBLK
  5
357
100
AcDbEntity
  8
0
100
AcDbBlockEnd
  0
BLOCK
  5
35A
100
AcDbEntity
  8
0
100
AcDbBlockBegin
  2
*B40
 70
     0
 10
0.0
 20
0.0
 30
0.0
  3
*B40
  1

  0
LINE
  5
35B
100
AcDbEntity
  8
0
  6
Continuous
 62
     8
100
AcDbLine
 10
73.995418
 20
44.725566
 30
0.0
 11
92.61157
 21
44.725566
 31
0.0
  0
ENDBLK
  5
35C
100
AcDbEntity
  8
0
100
AcDbBlockEnd
  0
BLOCK
  5
35F
100
AcDbEntity
  8
0
100
AcDbBlockBegin
  2
*B41
 70
     0
 10
0.0
 20
0.0
 30
0.0
  3
*B41
  1

  0
LINE
  5
360
100
AcDbEntity
  8
0
  6
Continuous
 62
     8
100
AcDbLine
 10
513.067859
 20
243.453057
 30
0.0
 11
517.067433
 21
243.453057
 31
0.0
  0
LINE
  5
361
100
AcDbEntity
  8
0
  6
Continuous
 62
     8
100
AcDbLine
 10
393.19254
 20
243.453057
 30
0.0
 11
401.092434
 21
243.453057
 31
0.0
  0
LINE
  5
362
100
AcDbEntity
  8
0
  6
Continuous
 62
     8
100
AcDbLine
 10
417.09133
 20
243.453057
 30
0.0
 11
439.750968
 21
243.453057
 31
0.0
  0
LINE
  5
363
100
AcDbEntity
  8
0
  6
Continuous
 62
     8
100
AcDbLine
 10
445.750027
 20
243.453057
 30
0.0
 11
447.750114
 21
243.453057
 31
0.0
  0
LINE
  5
364
100
AcDbEntity
  8
0
  6
Continuous
 62
     8
100
AcDbLine
 10
453.749775
 20
243.453057
 30
0.0
 11
476.409413
 21
243.453057
 31
0.0
  0
LINE
  5
365
100
AcDbEntity
  8
0
  6
Continuous
 62
     8
100
AcDbLine
 10
482.409074
 20
243.453057
 30
0.0
 11
484.40856
 21
243.453057
 31
0.0
  0
LINE
  5
366
100
AcDbEntity
  8
0
  6
Continuous
 62
     8
100
AcDbLine
 10
490.408221
 20
243.453057
 30
0.0
 11
513.067859
 21
243.453057
 31
0.0
  0
ENDBLK
  5
367
100
AcDbEntity
  8
0
100
AcDbBlockEnd
  0
BLOCK
  5
36A
100
AcDbEntity
  8
0
100
AcDbBlockBegin
  2
*B42
 70
     0
 10
0.0
 20
0.0
 30
0.0
  3
*B42
  1

  0
LINE
  5
36B
100
AcDbEntity
  8
0
  6
Continuous
 62
     8
100
AcDbLine
 10
134.608596
 20
63.474657
 30
0.0
 11
134.608596
 21
72.724385
 31
0.0
  0
LINE
  5
36C
100
AcDbEntity
  8
0
  6
Continuous
 62
     8
100
AcDbLine
 10
134.608596
 20
88.723881
 30
0.0
 11
134.608596
 21
97.973008
 31
0.0
  0
ENDBLK
  5
36D
100
AcDbEntity
  8
0
100
AcDbBlockEnd
  0
BLOCK
  5
370
100
AcDbEntity
  8
0
100
AcDbBlockBegin
  2
*B43
 70
     0
 10
0.0
 20
0.0
 30
0.0
  3
*B43
  1

  0
LINE
  5
371
100
AcDbEntity
  8
0
  6
Continuous
 62
     8
100
AcDbLine
 10
98.61063
 20
352.947772
 30
0.0
 11
98.61063
 21
442.082498
 31
0.0
  0
ENDBLK
  5
372
100
AcDbEntity
  8
0
100
AcDbBlockEnd
  0
BLOCK
  5
375
100
AcDbEntity
  8
0
100
AcDbBlockBegin
  2
*B44
 70
     0
 10
0.0
 20
0.0
 30
0.0
  3
*B44
  1

  0
LINE
  5
376
100
AcDbEntity
  8
0
  6
Continuous
 62
     8
100
AcDbLine
 10
409.091581
 20
47.725396
 30
0.0
 11
409.091581
 21
72.724385
 31
0.0
  0
LINE
  5
377
100
AcDbEntity
  8
0
  6
Continuous
 62
     8
100
AcDbLine
 10
409.091581
 20
88.723881
 30
0.0
 11
409.091581
 21
113.722268
 31
0.0
  0
ENDBLK
  5
378
100
AcDbEntity
  8
0
100
AcDbBlockEnd
  0
BLOCK
  5
37B
100
AcDbEntity
  8
0
100
AcDbBlockBegin
  2
*B45
 70
     0
 10
0.0
 20
0.0
 30
0.0
  3
*B45
  1

  0
LINE
  5
37C
100
AcDbEntity
  8
0
  6
Continuous
 62
     8
100
AcDbLine
 10
337.096251
 20
47.725396
 30
0.0
 11
337.096251
 21
72.724385
 31
0.0
  0
LINE
  5
37D
100
AcDbEntity
  8
0
  6
Continuous
 62
     8
100
AcDbLine
 10
337.096251
 20
88.723881
 30
0.0
 11
337.096251
 21
113.722268
 31
0.0
  0
ENDBLK
  5
37E
100
AcDbEntity
  8
0
100
AcDbBlockEnd
  0
BLOCK
  5
381
100
AcDbEntity
  8
0
100
AcDbBlockBegin
  2
*B46
 70
     0
 10
0.0
 20
0.0
 30
0.0
  3
*B46
  1

  0
LINE
  5
382
100
AcDbEntity
  8
0
  6
Continuous
 62
     8
100
AcDbLine
 10
73.995418
 20
229.953519
 30
0.0
 11
92.61157
 21
229.953519
 31
0.0
  0
ENDBLK
  5
383
100
AcDbEntity
  8
0
100
AcDbBlockEnd
  0
BLOCK
  5
386
100
AcDbEntity
  8
0
100
AcDbBlockBegin
  2
*B47
 70
     0
 10
0.0
 20
0.0
 30
0.0
  3
*B47
  1

  0
LINE
  5
387
100
AcDbEntity
  8
0
  6
Continuous
 62
     8
100
AcDbLine
 10
513.067859
 20
315.44959
 30
0.0
 11
517.067433
 21
315.44959
 31
0.0
  0
LINE
  5
388
100
AcDbEntity
  8
0
  6
Continuous
 62
     8
100
AcDbLine
 10
357.195175
 20
315.44959
 30
0.0
 11
365.094468
 21
315.44959
 31
0.0
  0
LINE
  5
389
100
AcDbEntity
  8
0
  6
Continuous
 62
     8
100
AcDbLine
 10
381.093364
 20
315.44959
 30
0.0
 11
396.289217
 21
315.44959
 31
0.0
  0
LINE
  5
38A
100
AcDbEntity
  8
0
  6
Continuous
 62
     8
100
AcDbLine
 10
402.288877
 20
315.44959
 30
0.0
 11
404.288363
 21
315.44959
 31
0.0
  0
LINE
  5
38B
100
AcDbEntity
  8
0
  6
Continuous
 62
     8
100
AcDbLine
 10
410.288024
 20
315.44959
 30
0.0
 11
425.483877
 21
315.44959
 31
0.0
  0
LINE
  5
38C
100
AcDbEntity
  8
0
  6
Continuous
 62
     8
100
AcDbLine
 10
431.483538
 20
315.44959
 30
0.0
 11
433.483024
 21
315.44959
 31
0.0
  0
LINE
  5
38D
100
AcDbEntity
  8
0
  6
Continuous
 62
     8
100
AcDbLine
 10
439.482685
 20
315.44959
 30
0.0
 11
454.678538
 21
315.44959
 31
0.0
  0
LINE
  5
38E
100
AcDbEntity
  8
0
  6
Continuous
 62
     8
100
AcDbLine
 10
460.678199
 20
315.44959
 30
0.0
 11
462.677685
 21
315.44959
 31
0.0
  0
LINE
  5
38F
100
AcDbEntity
  8
0
  6
Continuous
 62
     8
100
AcDbLine
 10
468.677346
 20
315.44959
 30
0.0
 11
483.873199
 21
315.44959
 31
0.0
  0
LINE
  5
390
100
AcDbEntity
  8
0
  6
Continuous
 62
     8
100
AcDbLine
 10
489.872859
 20
315.44959
 30
0.0
 11
491.872345
 21
315.44959
 31
0.0
  0
LINE
  5
391
100
AcDbEntity
  8
0
  6
Continuous
 62
     8
100
AcDbLine
 10
497.872006
 20
315.44959
 30
0.0
 11
513.067859
 21
315.44959
 31
0.0
  0
ENDBLK
  5
392
100
AcDbEntity
  8
0
100
AcDbBlockEnd
  0
BLOCK
  5
395
100
AcDbEntity
  8
0
100
AcDbBlockBegin
  2
*B48
 70
     0
 10
0.0
 20
0.0
 30
0.0
  3
*B48
  1

  0
LINE
  5
396
100
AcDbEntity
  8
0
  6
Continuous
 62
     8
100
AcDbLine
 10
321.19721
 20
243.453057
 30
0.0
 11
329.096503
 21
243.453057
 31
0.0
  0
LINE
  5
397
100
AcDbEntity
  8
0
  6
Continuous
 62
     8
100
AcDbLine
 10
345.095999
 20
243.453057
 30
0.0
 11
352.995292
 21
243.453057
 31
0.0
  0
ENDBLK
  5
398
100
AcDbEntity
  8
0
100
AcDbBlockEnd
  0
BLOCK
  5
39B
100
AcDbEntity
  8
0
100
AcDbBlockBegin
  2
*B49
 70
     0
 10
0.0
 20
0.0
 30
0.0
  3
*B49
  1

  0
LINE
  5
39C
100
AcDbEntity
  8
0
  6
Continuous
 62
     8
100
AcDbLine
 10
73.995418
 20
116.722099
 30
0.0
 11
92.61157
 21
116.722099
 31
0.0
  0
ENDBLK
  5
39D
100
AcDbEntity
  8
0
100
AcDbBlockEnd
  0
BLOCK
  5
3A0
100
AcDbEntity
  8
0
100
AcDbBlockBegin
  2
*B50
 70
     0
 10
0.0
 20
0.0
 30
0.0
  3
*B50
  1

  0
LINE
  5
3A1
100
AcDbEntity
  8
0
  6
Continuous
 62
     8
100
AcDbLine
 10
337.096251
 20
416.083165
 30
0.0
 11
337.096251
 21
420.08334
 31
0.0
  0
LINE
  5
3A2
100
AcDbEntity
  8
0
  6
Continuous
 62
     8
100
AcDbLine
 10
337.096251
 20
340.94845
 30
0.0
 11
337.096251
 21
356.660415
 31
0.0
  0
LINE
  5
3A3
100
AcDbEntity
  8
0
  6
Continuous
 62
     8
100
AcDbLine
 10
337.096251
 20
362.660076
 30
0.0
 11
337.096251
 21
364.660164
 31
0.0
  0
LINE
  5
3A4
100
AcDbEntity
  8
0
  6
Continuous
 62
     8
100
AcDbLine
 10
337.096251
 20
370.659825
 30
0.0
 11
337.096251
 21
386.37179
 31
0.0
  0
LINE
  5
3A5
100
AcDbEntity
  8
0
  6
Continuous
 62
     8
100
AcDbLine
 10
337.096251
 20
392.371451
 30
0.0
 11
337.096251
 21
394.371539
 31
0.0
  0
LINE
  5
3A6
100
AcDbEntity
  8
0
  6
Continuous
 62
     8
100
AcDbLine
 10
337.096251
 20
400.3712
 30
0.0
 11
337.096251
 21
416.083165
 31
0.0
  0
ENDBLK
  5
3A7
100
AcDbEntity
  8
0
100
AcDbBlockEnd
  0
BLOCK
  5
3AA
100
AcDbEntity
  8
0
100
AcDbBlockBegin
  2
*B51
 70
     0
 10
0.0
 20
0.0
 30
0.0
  3
*B51
  1

  0
LINE
  5
3AB
100
AcDbEntity
  8
0
  6
Continuous
 62
     8
100
AcDbLine
 10
409.091581
 20
416.083165
 30
0.0
 11
409.091581
 21
420.08334
 31
0.0
  0
LINE
  5
3AC
100
AcDbEntity
  8
0
  6
Continuous
 62
     8
100
AcDbLine
 10
409.091581
 20
340.94845
 30
0.0
 11
409.091581
 21
356.660415
 31
0.0
  0
LINE
  5
3AD
100
AcDbEntity
  8
0
  6
Continuous
 62
     8
100
AcDbLine
 10
409.091581
 20
362.660076
 30
0.0
 11
409.091581
 21
364.660164
 31
0.0
  0
LINE
  5
3AE
100
AcDbEntity
  8
0
  6
Continuous
 62
     8
100
AcDbLine
 10
409.091581
 20
370.659825
 30
0.0
 11
409.091581
 21
386.37179
 31
0.0
  0
LINE
  5
3AF
100
AcDbEntity
  8
0
  6
Continuous
 62
     8
100
AcDbLine
 10
409.091581
 20
392.371451
 30
0.0
 11
409.091581
 21
394.371539
 31
0.0
  0
LINE
  5
3B0
100
AcDbEntity
  8
0
  6
Continuous
 62
     8
100
AcDbLine
 10
409.091581
 20
400.3712
 30
0.0
 11
409.091581
 21
416.083165
 31
0.0
  0
ENDBLK
  5
3B1
100
AcDbEntity
  8
0
100
AcDbBlockEnd
  0
BLOCK
  5
3B4
100
AcDbEntity
  8
0
100
AcDbBlockBegin
  2
*B52
 70
     0
 10
0.0
 20
0.0
 30
0.0
  3
*B52
  1

  0
LINE
  5
3B5
100
AcDbEntity
  8
0
  6
Continuous
 62
     8
100
AcDbLine
 10
92.61157
 20
279.451022
 30
0.0
 11
108.431811
 21
279.451022
 31
0.0
  0
LINE
  5
3B6
100
AcDbEntity
  8
0
  6
Continuous
 62
     8
100
AcDbLine
 10
114.431472
 20
279.451022
 30
0.0
 11
116.430958
 21
279.451022
 31
0.0
  0
LINE
  5
3B7
100
AcDbEntity
  8
0
  6
Continuous
 62
     8
100
AcDbLine
 10
122.430619
 20
279.451022
 30
0.0
 11
138.251462
 21
279.451022
 31
0.0
  0
LINE
  5
3B8
100
AcDbEntity
  8
0
  6
Continuous
 62
     8
100
AcDbLine
 10
144.251123
 20
279.451022
 30
0.0
 11
146.250609
 21
279.451022
 31
0.0
  0
LINE
  5
3B9
100
AcDbEntity
  8
0
  6
Continuous
 62
     8
100
AcDbLine
 10
152.25027
 20
279.451022
 30
0.0
 11
168.071112
 21
279.451022
 31
0.0
  0
LINE
  5
3BA
100
AcDbEntity
  8
0
  6
Continuous
 62
     8
100
AcDbLine
 10
174.070773
 20
279.451022
 30
0.0
 11
176.070259
 21
279.451022
 31
0.0
  0
LINE
  5
3BB
100
AcDbEntity
  8
0
  6
Continuous
 62
     8
100
AcDbLine
 10
182.06992
 20
279.451022
 30
0.0
 11
197.890763
 21
279.451022
 31
0.0
  0
LINE
  5
3BC
100
AcDbEntity
  8
0
  6
Continuous
 62
     8
100
AcDbLine
 10
203.890424
 20
279.451022
 30
0.0
 11
205.88991
 21
279.451022
 31
0.0
  0
LINE
  5
3BD
100
AcDbEntity
  8
0
  6
Continuous
 62
     8
100
AcDbLine
 10
211.88957
 20
279.451022
 30
0.0
 11
227.710413
 21
279.451022
 31
0.0
  0
LINE
  5
3BE
100
AcDbEntity
  8
0
  6
Continuous
 62
     8
100
AcDbLine
 10
233.709472
 20
279.451022
 30
0.0
 11
235.70956
 21
279.451022
 31
0.0
  0
LINE
  5
3BF
100
AcDbEntity
  8
0
  6
Continuous
 62
     8
100
AcDbLine
 10
241.709221
 20
279.451022
 30
0.0
 11
257.529462
 21
279.451022
 31
0.0
  0
LINE
  5
3C0
100
AcDbEntity
  8
0
  6
Continuous
 62
     8
100
AcDbLine
 10
263.529123
 20
279.451022
 30
0.0
 11
265.52921
 21
279.451022
 31
0.0
  0
LINE
  5
3C1
100
AcDbEntity
  8
0
  6
Continuous
 62
     8
100
AcDbLine
 10
271.528871
 20
279.451022
 30
0.0
 11
287.349112
 21
279.451022
 31
0.0
  0
LINE
  5
3C2
100
AcDbEntity
  8
0
  6
Continuous
 62
     8
100
AcDbLine
 10
293.348773
 20
279.451022
 30
0.0
 11
295.348861
 21
279.451022
 31
0.0
  0
LINE
  5
3C3
100
AcDbEntity
  8
0
  6
Continuous
 62
     8
100
AcDbLine
 10
301.348522
 20
279.451022
 30
0.0
 11
317.168763
 21
279.451022
 31
0.0
  0
LINE
  5
3C4
100
AcDbEntity
  8
0
  6
Continuous
 62
     8
100
AcDbLine
 10
323.168424
 20
279.451022
 30
0.0
 11
325.168511
 21
279.451022
 31
0.0
  0
LINE
  5
3C5
100
AcDbEntity
  8
0
  6
Continuous
 62
     8
100
AcDbLine
 10
331.168172
 20
279.451022
 30
0.0
 11
346.988413
 21
279.451022
 31
0.0
  0
LINE
  5
3C6
100
AcDbEntity
  8
0
  6
Continuous
 62
     8
100
AcDbLine
 10
352.988074
 20
279.451022
 30
0.0
 11
354.988162
 21
279.451022
 31
0.0
  0
LINE
  5
3C7
100
AcDbEntity
  8
0
  6
Continuous
 62
     8
100
AcDbLine
 10
360.987823
 20
279.451022
 30
0.0
 11
376.808064
 21
279.451022
 31
0.0
  0
LINE
  5
3C8
100
AcDbEntity
  8
0
  6
Continuous
 62
     8
100
AcDbLine
 10
382.807724
 20
279.451022
 30
0.0
 11
384.807812
 21
279.451022
 31
0.0
  0
LINE
  5
3C9
100
AcDbEntity
  8
0
  6
Continuous
 62
     8
100
AcDbLine
 10
390.807473
 20
279.451022
 30
0.0
 11
406.627714
 21
279.451022
 31
0.0
  0
LINE
  5
3CA
100
AcDbEntity
  8
0
  6
Continuous
 62
     8
100
AcDbLine
 10
412.627375
 20
279.451022
 30
0.0
 11
414.627462
 21
279.451022
 31
0.0
  0
LINE
  5
3CB
100
AcDbEntity
  8
0
  6
Continuous
 62
     8
100
AcDbLine
 10
420.626522
 20
279.451022
 30
0.0
 11
436.447364
 21
279.451022
 31
0.0
  0
LINE
  5
3CC
100
AcDbEntity
  8
0
  6
Continuous
 62
     8
100
AcDbLine
 10
442.447025
 20
279.451022
 30
0.0
 11
444.446511
 21
279.451022
 31
0.0
  0
LINE
  5
3CD
100
AcDbEntity
  8
0
  6
Continuous
 62
     8
100
AcDbLine
 10
450.446172
 20
279.451022
 30
0.0
 11
466.267015
 21
279.451022
 31
0.0
  0
LINE
  5
3CE
100
AcDbEntity
  8
0
  6
Continuous
 62
     8
100
AcDbLine
 10
472.266676
 20
279.451022
 30
0.0
 11
474.266162
 21
279.451022
 31
0.0
  0
LINE
  5
3CF
100
AcDbEntity
  8
0
  6
Continuous
 62
     8
100
AcDbLine
 10
480.265823
 20
279.451022
 30
0.0
 11
496.086665
 21
279.451022
 31
0.0
  0
ENDBLK
  5
3D0
100
AcDbEntity
  8
0
100
AcDbBlockEnd
  0
BLOCK
  5
3D3
100
AcDbEntity
  8
0
100
AcDbBlockBegin
  2
*B53
 70
     0
 10
0.0
 20
0.0
 30
0.0
  3
*B53
  1

  0
LINE
  5
3D4
100
AcDbEntity
  8
0
  6
Continuous
 62
     8
100
AcDbLine
 10
350.595187
 20
384.446292
 30
0.0
 11
350.595187
 21
397.121734
 31
0.0
  0
ENDBLK
  5
3D5
100
AcDbEntity
  8
0
100
AcDbBlockEnd
  0
BLOCK
  5
3D8
100
AcDbEntity
  8
0
100
AcDbBlockBegin
  2
*B54
 70
     0
 10
0.0
 20
0.0
 30
0.0
  3
*B54
  1

  0
LINE
  5
3D9
100
AcDbEntity
  8
0
  6
Continuous
 62
     8
100
AcDbLine
 10
73.995418
 20
211.954536
 30
0.0
 11
254.601213
 21
211.954536
 31
0.0
  0
LINE
  5
3DA
100
AcDbEntity
  8
0
  6
Continuous
 62
     8
100
AcDbLine
 10
491.586619
 20
211.954536
 30
0.0
 11
539.967081
 21
211.954536
 31
0.0
  0
ENDBLK
  5
3DB
100
AcDbEntity
  8
0
100
AcDbBlockEnd
  0
BLOCK
  5
3DE
100
AcDbEntity
  8
0
100
AcDbBlockBegin
  2
*B55
 70
     0
 10
0.0
 20
0.0
 30
0.0
  3
*B55
  1

  0
LINE
  5
3DF
100
AcDbEntity
  8
0
  6
Continuous
 62
     8
100
AcDbLine
 10
490.087004
 20
305.69999
 30
0.0
 11
490.087004
 21
420.08334
 31
0.0
  0
ENDBLK
  5
3E0
100
AcDbEntity
  8
0
100
AcDbBlockEnd
  0
BLOCK
  5
3E3
100
AcDbEntity
  8
0
100
AcDbBlockBegin
  2
*B56
 70
     0
 10
0.0
 20
0.0
 30
0.0
  3
*B56
  1

  0
LINE
  5
3E4
100
AcDbEntity
  8
0
  6
Continuous
 62
     8
100
AcDbLine
 10
409.091581
 20
264.09035
 30
0.0
 11
409.091581
 21
268.090525
 31
0.0
  0
LINE
  5
3E5
100
AcDbEntity
  8
0
  6
Continuous
 62
     8
100
AcDbLine
 10
409.091581
 20
227.553414
 30
0.0
 11
409.091581
 21
235.453308
 31
0.0
  0
LINE
  5
3E6
100
AcDbEntity
  8
0
  6
Continuous
 62
     8
100
AcDbLine
 10
409.091581
 20
251.452204
 30
0.0
 11
409.091581
 21
264.09035
 31
0.0
  0
ENDBLK
  5
3E7
100
AcDbEntity
  8
0
100
AcDbBlockEnd
  0
BLOCK
  5
3EA
100
AcDbEntity
  8
0
100
AcDbBlockBegin
  2
*B57
 70
     0
 10
0.0
 20
0.0
 30
0.0
  3
*B57
  1

  0
LINE
  5
3EB
100
AcDbEntity
  8
0
  6
Continuous
 62
     6
100
AcDbLine
 10
335.096164
 20
80.724133
 30
0.0
 11
339.096339
 21
80.724133
 31
0.0
  0
LINE
  5
3EC
100
AcDbEntity
  8
0
  6
Continuous
 62
     6
100
AcDbLine
 10
337.096251
 20
78.724046
 30
0.0
 11
337.096251
 21
82.723619
 31
0.0
  0
ENDBLK
  5
3ED
100
AcDbEntity
  8
0
100
AcDbBlockEnd
  0
BLOCK
  5
3F0
100
AcDbEntity
  8
0
100
AcDbBlockBegin
  2
*B58
 70
     0
 10
0.0
 20
0.0
 30
0.0
  3
*B58
  1

  0
LINE
  5
3F1
100
AcDbEntity
  8
0
  6
Continuous
 62
     6
100
AcDbLine
 10
132.608508
 20
80.724133
 30
0.0
 11
136.608683
 21
80.724133
 31
0.0
  0
LINE
  5
3F2
100
AcDbEntity
  8
0
  6
Continuous
 62
     6
100
AcDbLine
 10
134.608596
 20
78.724046
 30
0.0
 11
134.608596
 21
82.723619
 31
0.0
  0
ENDBLK
  5
3F3
100
AcDbEntity
  8
0
100
AcDbBlockEnd
  0
BLOCK
  5
3F6
100
AcDbEntity
  8
0
100
AcDbBlockBegin
  2
*B59
 70
     0
 10
0.0
 20
0.0
 30
0.0
  3
*B59
  1

  0
LINE
  5
3F7
100
AcDbEntity
  8
0
  6
Continuous
 62
     6
100
AcDbLine
 10
407.092095
 20
243.453057
 30
0.0
 11
411.091669
 21
243.453057
 31
0.0
  0
LINE
  5
3F8
100
AcDbEntity
  8
0
  6
Continuous
 62
     6
100
AcDbLine
 10
409.091581
 20
241.452969
 30
0.0
 11
409.091581
 21
245.452543
 31
0.0
  0
ENDBLK
  5
3F9
100
AcDbEntity
  8
0
100
AcDbBlockEnd
  0
BLOCK
  5
3FC
100
AcDbEntity
  8
0
100
AcDbBlockBegin
  2
*B60
 70
     0
 10
0.0
 20
0.0
 30
0.0
  3
*B60
  1

  0
LINE
  5
3FD
100
AcDbEntity
  8
0
  6
Continuous
 62
     6
100
AcDbLine
 10
409.091581
 20
78.724046
 30
0.0
 11
409.091581
 21
82.723619
 31
0.0
  0
LINE
  5
3FE
100
AcDbEntity
  8
0
  6
Continuous
 62
     6
100
AcDbLine
 10
407.092095
 20
80.724133
 30
0.0
 11
411.091669
 21
80.724133
 31
0.0
  0
ENDBLK
  5
3FF
100
AcDbEntity
  8
0
100
AcDbBlockEnd
  0
BLOCK
  5
402
100
AcDbEntity
  8
0
100
AcDbBlockBegin
  2
*B61
 70
     0
 10
0.0
 20
0.0
 30
0.0
  3
*B61
  1

  0
LINE
  5
403
100
AcDbEntity
  8
0
  6
Continuous
 62
     6
100
AcDbLine
 10
371.094129
 20
315.44959
 30
0.0
 11
375.093703
 21
315.44959
 31
0.0
  0
LINE
  5
404
100
AcDbEntity
  8
0
  6
Continuous
 62
     6
100
AcDbLine
 10
373.094217
 20
313.449502
 30
0.0
 11
373.094217
 21
317.449076
 31
0.0
  0
ENDBLK
  5
405
100
AcDbEntity
  8
0
100
AcDbBlockEnd
  0
BLOCK
  5
408
100
AcDbEntity
  8
0
100
AcDbBlockBegin
  2
*B62
 70
     0
 10
0.0
 20
0.0
 30
0.0
  3
*B62
  1

  0
LINE
  5
409
100
AcDbEntity
  8
0
  6
Continuous
 62
     6
100
AcDbLine
 10
242.601892
 20
78.724046
 30
0.0
 11
242.601892
 21
82.723619
 31
0.0
  0
LINE
  5
40A
100
AcDbEntity
  8
0
  6
Continuous
 62
     6
100
AcDbLine
 10
240.602406
 20
80.724133
 30
0.0
 11
244.601979
 21
80.724133
 31
0.0
  0
ENDBLK
  5
40B
100
AcDbEntity
  8
0
100
AcDbBlockEnd
  0
BLOCK
  5
40E
100
AcDbEntity
  8
0
100
AcDbBlockBegin
  2
*B63
 70
     0
 10
0.0
 20
0.0
 30
0.0
  3
*B63
  1

  0
LINE
  5
40F
100
AcDbEntity
  8
0
  6
Continuous
 62
     6
100
AcDbLine
 10
335.096164
 20
243.453057
 30
0.0
 11
339.096339
 21
243.453057
 31
0.0
  0
LINE
  5
410
100
AcDbEntity
  8
0
  6
Continuous
 62
     6
100
AcDbLine
 10
337.096251
 20
241.452969
 30
0.0
 11
337.096251
 21
245.452543
 31
0.0
  0
ENDBLK
  5
411
100
AcDbEntity
  8
0
100
AcDbBlockEnd
  0
BLOCK
  5
414
100
AcDbEntity
  8
0
100
AcDbBlockBegin
  2
*B64
 70
     0
 10
0.0
 20
0.0
 30
0.0
  3
*B64
  1

  0
LINE
  5
415
100
AcDbEntity
  8
0
  6
Continuous
 62
     0
100
AcDbLine
 10
282.749212
 20
299.33881
 30
0.0
 11
312.214561
 21
299.33881
 31
0.0
  0
LINE
  5
416
100
AcDbEntity
  8
0
  6
Continuous
 62
     0
100
AcDbLine
 10
312.214561
 20
299.33881
 30
0.0
 11
333.069609
 21
252.49646
 31
0.0
  0
SOLID
  5
417
100
AcDbEntity
  8
0
  6
Continuous
 62
     0
100
AcDbTrace
 10
327.175817
 20
260.818027
 30
0.0
 11
333.069609
 21
252.49646
 31
0.0
 12
330.829511
 22
262.445166
 32
0.0
 13
330.829511
 23
262.445166
 33
0.0
  0
ENDBLK
  5
418
100
AcDbEntity
  8
0
100
AcDbBlockEnd
  0
BLOCK
  5
41B
100
AcDbEntity
  8
0
100
AcDbBlockBegin
  2
*B65
 70
     0
 10
0.0
 20
0.0
 30
0.0
  3
*B65
  1

  0
TEXT
  5
41C
100
AcDbEntity
  8
TEXT
  6
Continuous
 62
     0
100
AcDbText
 10
463.531599
 20
274.0
 30
0.0
 40
12.0
  1
12
100
AcDbText
  0
ENDBLK
  5
41D
100
AcDbEntity
  8
0
100
AcDbBlockEnd
  0
BLOCK
  5
420
100
AcDbEntity
  8
0
100
AcDbBlockBegin
  2
*B66
 70
     0
 10
0.0
 20
0.0
 30
0.0
  3
*B66
  1

  0
TEXT
  5
421
100
AcDbEntity
  8
TEXT
  6
Continuous
 62
     0
100
AcDbText
 10
440.765799
 20
223.0
 30
0.0
 40
12.0
  1
3
100
AcDbText
  0
ENDBLK
  5
422
100
AcDbEntity
  8
0
100
AcDbBlockEnd
  0
BLOCK
  5
425
100
AcDbEntity
  8
0
100
AcDbBlockBegin
  2
*B67
 70
     0
 10
0.0
 20
0.0
 30
0.0
  3
*B67
  1

  0
TEXT
  5
426
100
AcDbEntity
  8
TEXT
  6
Continuous
 62
     0
100
AcDbText
 10
405.765799
 20
326.0
 30
0.0
 40
12.0
  1
2
100
AcDbText
  0
ENDBLK
  5
427
100
AcDbEntity
  8
0
100
AcDbBlockEnd
  0
BLOCK
  5
42A
100
AcDbEntity
  8
0
100
AcDbBlockBegin
  2
*B68
 70
     0
 10
0.0
 20
0.0
 30
0.0
  3
*B68
  1

  0
TEXT
  5
42B
100
AcDbEntity
  8
TEXT
  6
Continuous
 62
     0
100
AcDbText
 10
368.165799
 20
222.0
 30
0.0
 40
12.0
  1
1
100
AcDbText
  0
ENDBLK
  5
42C
100
AcDbEntity
  8
0
100
AcDbBlockEnd
  0
BLOCK
  5
42F
100
AcDbEntity
  8
0
100
AcDbBlockBegin
  2
*B69
 70
     0
 10
0.0
 20
0.0
 30
0.0
  3
*B69
  1

  0
TEXT
  5
430
100
AcDbEntity
  8
TEXT
  6
Continuous
 62
     0
100
AcDbText
 10
267.531599
 20
274.0
 30
0.0
 40
12.0
  1
14
100
AcDbText
  0
ENDBLK
  5
431
100
AcDbEntity
  8
0
100
AcDbBlockEnd
  0
BLOCK
  5
434
100
AcDbEntity
  8
0
100
AcDbBlockBegin
  2
*B70
 70
     0
 10
0.0
 20
0.0
 30
0.0
  3
*B70
  1

  0
TEXT
  5
435
100
AcDbEntity
  8
TEXT
  6
Continuous
 62
     0
100
AcDbText
 10
296.765799
 20
223.0
 30
0.0
 40
12.0
  1
5
100
AcDbText
  0
ENDBLK
  5
436
100
AcDbEntity
  8
0
100
AcDbBlockEnd
  0
BLOCK
  5
439
100
AcDbEntity
  8
0
100
AcDbBlockBegin
  2
*B71
 70
     0
 10
0.0
 20
0.0
 30
0.0
  3
*B71
  1

  0
TEXT
  5
43A
100
AcDbEntity
  8
TEXT
  6
Continuous
 62
     0
100
AcDbText
 10
333.765799
 20
326.0
 30
0.0
 40
12.0
  1
4
100
AcDbText
  0
ENDBLK
  5
43B
100
AcDbEntity
  8
0
100
AcDbBlockEnd
  0
BLOCK
  5
43E
100
AcDbEntity
  8
0
100
AcDbBlockBegin
  2
*B72
 70
     0
 10
0.0
 20
0.0
 30
0.0
  3
*B72
  1

  0
TEXT
  5
43F
100
AcDbEntity
  8
TEXT
  6
Continuous
 62
     0
100
AcDbText
 10
282.766667
 20
304.5
 30
0.0
 40
7.0
  1
%%c4,4
100
AcDbText
  0
ENDBLK
  5
440
100
AcDbEntity
  8
0
100
AcDbBlockEnd
  0
BLOCK
  5
443
100
AcDbEntity
  8
0
100
AcDbBlockBegin
  2
*B73
 70
     0
 10
0.0
 20
0.0
 30
0.0
  3
*B73
  1

  0
TEXT
  5
444
100
AcDbEntity
  8
TEXT
  6
Continuous
 62
     0
100
AcDbText
 10
96.380297
 20
189.0
 30
0.0
 40
14.0
  1
180%%d
100
AcDbText
  0
ENDBLK
  5
445
100
AcDbEntity
  8
0
100
AcDbBlockEnd
  0
BLOCK
  5
448
100
AcDbEntity
  8
0
100
AcDbBlockBegin
  2
*B74
 70
     0
 10
0.0
 20
0.0
 30
0.0
  3
*B74
  1

  0
TEXT
  5
449
100
AcDbEntity
  8
TEXT
  6
Continuous
 62
     0
100
AcDbText
 10
168.380297
 20
149.0
 30
0.0
 40
14.0
  1
180%%d
100
AcDbText
  0
ENDBLK
  5
44A
100
AcDbEntity
  8
0
100
AcDbBlockEnd
  0
BLOCK
  5
44D
100
AcDbEntity
  8
0
100
AcDbBlockBegin
  2
*B75
 70
     0
 10
0.0
 20
0.0
 30
0.0
  3
*B75
  1

  0
TEXT
  5
44E
100
AcDbEntity
  8
TEXT
  6
Continuous
 62
     0
100
AcDbText
 10
462.033445
 20
161.5
 30
0.0
 40
7.0
  1
9
100
AcDbText
  0
ENDBLK
  5
44F
100
AcDbEntity
  8
0
100
AcDbBlockEnd
  0
BLOCK
  5
452
100
AcDbEntity
  8
0
100
AcDbBlockBegin
  2
*B76
 70
     0
 10
0.0
 20
0.0
 30
0.0
  3
*B76
  1

  0
TEXT
  5
453
100
AcDbEntity
  8
TEXT
  6
Continuous
 62
     0
100
AcDbText
 10
366.450111
 20
139.5
 30
0.0
 40
7.0
  1
50
100
AcDbText
  0
ENDBLK
  5
454
100
AcDbEntity
  8
0
100
AcDbBlockEnd
  0
BLOCK
  5
457
100
AcDbEntity
  8
0
100
AcDbBlockBegin
  2
*B77
 70
     0
 10
0.0
 20
0.0
 30
0.0
  3
*B77
  1

  0
TEXT
  5
458
100
AcDbEntity
  8
TEXT
  6
Continuous
 62
     0
100
AcDbText
 10
534.5
 20
272.69466
 30
0.0
 40
7.0
  1
30
 50
90.0
100
AcDbText
  0
ENDBLK
  5
459
100
AcDbEntity
  8
0
100
AcDbBlockEnd
  0
BLOCK
  5
45C
100
AcDbEntity
  8
0
100
AcDbBlockBegin
  2
*B78
 70
     0
 10
0.0
 20
0.0
 30
0.0
  3
*B78
  1

  0
TEXT
  5
45D
100
AcDbEntity
  8
TEXT
  6
Continuous
 62
     0
100
AcDbText
 10
511.599178
 20
272.69466
 30
0.0
 40
7.0
  1
16
 50
90.0
100
AcDbText
  0
ENDBLK
  5
45E
100
AcDbEntity
  8
0
100
AcDbBlockEnd
  0
BLOCK
  5
461
100
AcDbEntity
  8
0
100
AcDbBlockBegin
  2
*B79
 70
     0
 10
0.0
 20
0.0
 30
0.0
  3
*B79
  1

  0
TEXT
  5
462
100
AcDbEntity
  8
TEXT
  6
Continuous
 62
     0
100
AcDbText
 10
366.450111
 20
269.5
 30
0.0
 40
7.0
  1
16
100
AcDbText
  0
ENDBLK
  5
463
100
AcDbEntity
  8
0
100
AcDbBlockEnd
  0
BLOCK
  5
466
100
AcDbEntity
  8
0
100
AcDbBlockBegin
  2
*B80
 70
     0
 10
0.0
 20
0.0
 30
0.0
  3
*B80
  1

  0
TEXT
  5
467
100
AcDbEntity
  8
TEXT
  6
Continuous
 62
     0
100
AcDbText
 10
491.5
 20
185.5
 30
0.0
 40
7.0
  1
G1/8"
100
AcDbText
  0
ENDBLK
  5
468
100
AcDbEntity
  8
0
100
AcDbBlockEnd
  0
BLOCK
  5
46B
100
AcDbEntity
  8
0
100
AcDbBlockBegin
  2
*B81
 70
     0
 10
0.0
 20
0.0
 30
0.0
  3
*B81
  1

  0
TEXT
  5
46C
100
AcDbEntity
  8
TEXT
  6
Continuous
 62
     0
100
AcDbText
 10
440.700111
 20
421.5
 30
0.0
 40
7.0
  1
17
100
AcDbText
  0
ENDBLK
  5
46D
100
AcDbEntity
  8
0
100
AcDbBlockEnd
  0
BLOCK
  5
470
100
AcDbEntity
  8
0
100
AcDbBlockBegin
  2
*B82
 70
     0
 10
0.0
 20
0.0
 30
0.0
  3
*B82
  1

  0
TEXT
  5
471
100
AcDbEntity
  8
TEXT
  6
Continuous
 62
     0
100
AcDbText
 10
366.450111
 20
421.5
 30
0.0
 40
7.0
  1
16
100
AcDbText
  0
ENDBLK
  5
472
100
AcDbEntity
  8
0
100
AcDbBlockEnd
  0
BLOCK
  5
475
100
AcDbEntity
  8
0
100
AcDbBlockBegin
  2
*B83
 70
     0
 10
0.0
 20
0.0
 30
0.0
  3
*B83
  1

  0
TEXT
  5
476
100
AcDbEntity
  8
TEXT
  6
Continuous
 62
     0
100
AcDbText
 10
293.079167
 20
398.537392
 30
0.0
 40
7.0
  1
%%c6
100
AcDbText
  0
ENDBLK
  5
477
100
AcDbEntity
  8
0
100
AcDbBlockEnd
  0
BLOCK
  5
47A
100
AcDbEntity
  8
0
100
AcDbBlockBegin
  2
*B84
 70
     0
 10
0.0
 20
0.0
 30
0.0
  3
*B84
  1

  0
TEXT
  5
47B
100
AcDbEntity
  8
TEXT
  6
Continuous
 62
     0
100
AcDbText
 10
285.450111
 20
443.5
 30
0.0
 40
7.0
  1
86
100
AcDbText
  0
ENDBLK
  5
47C
100
AcDbEntity
  8
0
100
AcDbBlockEnd
  0
BLOCK
  5
47F
100
AcDbEntity
  8
0
100
AcDbBlockBegin
  2
*B85
 70
     0
 10
0.0
 20
0.0
 30
0.0
  3
*B85
  1

  0
TEXT
  5
480
100
AcDbEntity
  8
TEXT
  6
Continuous
 62
     0
100
AcDbText
 10
72.5
 20
281.69466
 30
0.0
 40
7.0
  1
26
 50
90.0
100
AcDbText
  0
ENDBLK
  5
481
100
AcDbEntity
  8
0
100
AcDbBlockEnd
  0
BLOCK
  5
484
100
AcDbEntity
  8
0
100
AcDbBlockBegin
  2
*B86
 70
     0
 10
0.0
 20
0.0
 30
0.0
  3
*B86
  1

  0
TEXT
  5
485
100
AcDbEntity
  8
TEXT
  6
Continuous
 62
     0
100
AcDbText
 10
72.5
 20
217.527993
 30
0.0
 40
7.0
  1
4
 50
90.0
100
AcDbText
  0
ENDBLK
  5
486
100
AcDbEntity
  8
0
100
AcDbBlockEnd
  0
BLOCK
  5
489
100
AcDbEntity
  8
0
100
AcDbBlockBegin
  2
*B87
 70
     0
 10
0.0
 20
0.0
 30
0.0
  3
*B87
  1

  0
TEXT
  5
48A
100
AcDbEntity
  8
TEXT
  6
Continuous
 62
     0
100
AcDbText
 10
72.5
 20
73.958237
 30
0.0
 40
7.0
  1
16
 50
90.0
100
AcDbText
  0
ENDBLK
  5
48B
100
AcDbEntity
  8
0
100
AcDbBlockEnd
  0
BLOCK
  5
48E
100
AcDbEntity
  8
0
100
AcDbBlockBegin
  2
*B88
 70
     0
 10
0.0
 20
0.0
 30
0.0
  3
*B88
  1

  0
TEXT
  5
48F
100
AcDbEntity
  8
TEXT
  6
Continuous
 62
     0
100
AcDbText
 10
330.450111
 20
161.5
 30
0.0
 40
7.0
  1
16
100
AcDbText
  0
ENDBLK
  5
490
100
AcDbEntity
  8
0
100
AcDbBlockEnd
  0
BLOCK
  5
493
100
AcDbEntity
  8
0
100
AcDbBlockBegin
  2
*B89
 70
     0
 10
0.0
 20
0.0
 30
0.0
  3
*B89
  1

  0
TEXT
  5
494
100
AcDbEntity
  8
TEXT
  6
Continuous
 62
     0
100
AcDbText
 10
505.979167
 20
421.5
 30
0.0
 40
7.0
  1
1
100
AcDbText
  0
ENDBLK
  5
495
100
AcDbEntity
  8
0
100
AcDbBlockEnd
  0
BLOCK
  5
498
100
AcDbEntity
  8
0
100
AcDbBlockBegin
  2
*B90
 70
     0
 10
0.0
 20
0.0
 30
0.0
  3
*B90
  1

  0
TEXT
  5
499
100
AcDbEntity
  8
TEXT
  6
Continuous
 62
     0
100
AcDbText
 10
402.450111
 20
161.5
 30
0.0
 40
7.0
  1
16
100
AcDbText
  0
ENDBLK
  5
49A
100
AcDbEntity
  8
0
100
AcDbBlockEnd
  0
BLOCK
  5
49D
100
AcDbEntity
  8
0
100
AcDbBlockBegin
  2
*B91
 70
     0
 10
0.0
 20
0.0
 30
0.0
  3
*B91
  1

  0
TEXT
  5
49E
100
AcDbEntity
  8
TEXT
  6
Continuous
 62
     0
100
AcDbText
 10
534.5
 20
359.277993
 30
0.0
 40
7.0
  1
7
 50
90.0
100
AcDbText
  0
ENDBLK
  5
49F
100
AcDbEntity
  8
0
100
AcDbBlockEnd
  0
ENDSEC
  0
SECTION
  2
ENTITIES
  0
INSERT
  5
1FD
100
AcDbEntity
  8
0
  6
HIDDEN
 62
   174
100
AcDbBlockReference
  2
*B1
 10
0.0
 20
0.0
 30
0.0
  0
INSERT
  5
249
100
AcDbEntity
  8
0
  6
Continuous
 62
   174
100
AcDbBlockReference
  2
*B2
 10
0.0
 20
0.0
 30
0.0
  0
INSERT
  5
24F
100
AcDbEntity
  8
0
  6
Continuous
 62
   172
100
AcDbBlockReference
  2
*B3
 10
0.0
 20
0.0
 30
0.0
  0
INSERT
  5
25A
100
AcDbEntity
  8
0
  6
Continuous
 62
   172
100
AcDbBlockReference
  2
*B4
 10
0.0
 20
0.0
 30
0.0
  0
INSERT
  5
263
100
AcDbEntity
  8
0
  6
Continuous
 62
   172
100
AcDbBlockReference
  2
*B6
 10
0.0
 20
0.0
 30
0.0
  0
INSERT
  5
26E
100
AcDbEntity
  8
0
  6
Continuous
 62
   172
100
AcDbBlockReference
  2
*B7
 10
0.0
 20
0.0
 30
0.0
  0
INSERT
  5
278
100
AcDbEntity
  8
0
  6
Continuous
 62
     0
100
AcDbBlockReference
  2
*B9
 10
0.0
 20
0.0
 30
0.0
  0
INSERT
  5
27F
100
AcDbEntity
  8
0
  6
Continuous
 62
     0
100
AcDbBlockReference
  2
*B10
 10
0.0
 20
0.0
 30
0.0
  0
INSERT
  5
286
100
AcDbEntity
  8
0
  6
Continuous
 62
     0
100
AcDbBlockReference
  2
*B11
 10
0.0
 20
0.0
 30
0.0
  0
INSERT
  5
28D
100
AcDbEntity
  8
0
  6
Continuous
 62
     0
100
AcDbBlockReference
  2
*B12
 10
0.0
 20
0.0
 30
0.0
  0
INSERT
  5
294
100
AcDbEntity
  8
0
  6
Continuous
 62
     0
100
AcDbBlockReference
  2
*B13
 10
0.0
 20
0.0
 30
0.0
  0
INSERT
  5
29B
100
AcDbEntity
  8
0
  6
Continuous
 62
     0
100
AcDbBlockReference
  2
*B14
 10
0.0
 20
0.0
 30
0.0
  0
INSERT
  5
2A2
100
AcDbEntity
  8
0
  6
Continuous
 62
     0
100
AcDbBlockReference
  2
*B15
 10
0.0
 20
0.0
 30
0.0
  0
INSERT
  5
2A9
100
AcDbEntity
  8
0
  6
Continuous
 62
     0
100
AcDbBlockReference
  2
*B16
 10
0.0
 20
0.0
 30
0.0
  0
INSERT
  5
2B0
100
AcDbEntity
  8
0
  6
Continuous
 62
     0
100
AcDbBlockReference
  2
*B17
 10
0.0
 20
0.0
 30
0.0
  0
INSERT
  5
2B7
100
AcDbEntity
  8
0
  6
Continuous
 62
     0
100
AcDbBlockReference
  2
*B18
 10
0.0
 20
0.0
 30
0.0
  0
INSERT
  5
2BE
100
AcDbEntity
  8
0
  6
Continuous
 62
     0
100
AcDbBlockReference
  2
*B19
 10
0.0
 20
0.0
 30
0.0
  0
INSERT
  5
2C5
100
AcDbEntity
  8
0
  6
Continuous
 62
     0
100
AcDbBlockReference
  2
*B20
 10
0.0
 20
0.0
 30
0.0
  0
INSERT
  5
2CC
100
AcDbEntity
  8
0
  6
Continuous
 62
     0
100
AcDbBlockReference
  2
*B21
 10
0.0
 20
0.0
 30
0.0
  0
INSERT
  5
2D3
100
AcDbEntity
  8
0
  6
Continuous
 62
     0
100
AcDbBlockReference
  2
*B22
 10
0.0
 20
0.0
 30
0.0
  0
INSERT
  5
2DA
100
AcDbEntity
  8
0
  6
Continuous
 62
     0
100
AcDbBlockReference
  2
*B23
 10
0.0
 20
0.0
 30
0.0
  0
INSERT
  5
2E1
100
AcDbEntity
  8
0
  6
Continuous
 62
     0
100
AcDbBlockReference
  2
*B24
 10
0.0
 20
0.0
 30
0.0
  0
INSERT
  5
2E8
100
AcDbEntity
  8
0
  6
Continuous
 62
     0
100
AcDbBlockReference
  2
*B25
 10
0.0
 20
0.0
 30
0.0
  0
INSERT
  5
2ED
100
AcDbEntity
  8
0
  6
Continuous
 62
     8
100
AcDbBlockReference
  2
*B26
 10
0.0
 20
0.0
 30
0.0
  0
INSERT
  5
2F3
100
AcDbEntity
  8
0
  6
Continuous
 62
     8
100
AcDbBlockReference
  2
*B27
 10
0.0
 20
0.0
 30
0.0
  0
INSERT
  5
2FD
100
AcDbEntity
  8
0
  6
Continuous
 62
     8
100
AcDbBlockReference
  2
*B28
 10
0.0
 20
0.0
 30
0.0
  0
INSERT
  5
302
100
AcDbEntity
  8
0
  6
Continuous
 62
     8
100
AcDbBlockReference
  2
*B29
 10
0.0
 20
0.0
 30
0.0
  0
INSERT
  5
308
100
AcDbEntity
  8
0
  6
Continuous
 62
     8
100
AcDbBlockReference
  2
*B30
 10
0.0
 20
0.0
 30
0.0
  0
INSERT
  5
30D
100
AcDbEntity
  8
0
  6
Continuous
 62
     8
100
AcDbBlockReference
  2
*B31
 10
0.0
 20
0.0
 30
0.0
  0
INSERT
  5
312
100
AcDbEntity
  8
0
  6
Continuous
 62
     8
100
AcDbBlockReference
  2
*B32
 10
0.0
 20
0.0
 30
0.0
  0
INSERT
  5
321
100
AcDbEntity
  8
0
  6
Continuous
 62
     8
100
AcDbBlockReference
  2
*B33
 10
0.0
 20
0.0
 30
0.0
  0
INSERT
  5
338
100
AcDbEntity
  8
0
  6
Continuous
 62
     8
100
AcDbBlockReference
  2
*B34
 10
0.0
 20
0.0
 30
0.0
  0
INSERT
  5
33D
100
AcDbEntity
  8
0
  6
Continuous
 62
     8
100
AcDbBlockReference
  2
*B35
 10
0.0
 20
0.0
 30
0.0
  0
INSERT
  5
342
100
AcDbEntity
  8
0
  6
Continuous
 62
     8
100
AcDbBlockReference
  2
*B36
 10
0.0
 20
0.0
 30
0.0
  0
INSERT
  5
34C
100
AcDbEntity
  8
0
  6
Continuous
 62
     8
100
AcDbBlockReference
  2
*B37
 10
0.0
 20
0.0
 30
0.0
  0
INSERT
  5
351
100
AcDbEntity
  8
0
  6
Continuous
 62
     8
100
AcDbBlockReference
  2
*B38
 10
0.0
 20
0.0
 30
0.0
  0
INSERT
  5
358
100
AcDbEntity
  8
0
  6
Continuous
 62
     8
100
AcDbBlockReference
  2
*B39
 10
0.0
 20
0.0
 30
0.0
  0
INSERT
  5
35D
100
AcDbEntity
  8
0
  6
Continuous
 62
     8
100
AcDbBlockReference
  2
*B40
 10
0.0
 20
0.0
 30
0.0
  0
INSERT
  5
368
100
AcDbEntity
  8
0
  6
Continuous
 62
     8
100
AcDbBlockReference
  2
*B41
 10
0.0
 20
0.0
 30
0.0
  0
INSERT
  5
36E
100
AcDbEntity
  8
0
  6
Continuous
 62
     8
100
AcDbBlockReference
  2
*B42
 10
0.0
 20
0.0
 30
0.0
  0
INSERT
  5
373
100
AcDbEntity
  8
0
  6
Continuous
 62
     8
100
AcDbBlockReference
  2
*B43
 10
0.0
 20
0.0
 30
0.0
  0
INSERT
  5
379
100
AcDbEntity
  8
0
  6
Continuous
 62
     8
100
AcDbBlockReference
  2
*B44
 10
0.0
 20
0.0
 30
0.0
  0
INSERT
  5
37F
100
AcDbEntity
  8
0
  6
Continuous
 62
     8
100
AcDbBlockReference
  2
*B45
 10
0.0
 20
0.0
 30
0.0
  0
INSERT
  5
384
100
AcDbEntity
  8
0
  6
Continuous
 62
     8
100
AcDbBlockReference
  2
*B46
 10
0.0
 20
0.0
 30
0.0
  0
INSERT
  5
393
100
AcDbEntity
  8
0
  6
Continuous
 62
     8
100
AcDbBlockReference
  2
*B47
 10
0.0
 20
0.0
 30
0.0
  0
INSERT
  5
399
100
AcDbEntity
  8
0
  6
Continuous
 62
     8
100
AcDbBlockReference
  2
*B48
 10
0.0
 20
0.0
 30
0.0
  0
INSERT
  5
39E
100
AcDbEntity
  8
0
  6
Continuous
 62
     8
100
AcDbBlockReference
  2
*B49
 10
0.0
 20
0.0
 30
0.0
  0
INSERT
  5
3A8
100
AcDbEntity
  8
0
  6
Continuous
 62
     8
100
AcDbBlockReference
  2
*B50
 10
0.0
 20
0.0
 30
0.0
  0
INSERT
  5
3B2
100
AcDbEntity
  8
0
  6
Continuous
 62
     8
100
AcDbBlockReference
  2
*B51
 10
0.0
 20
0.0
 30
0.0
  0
INSERT
  5
3D1
100
AcDbEntity
  8
0
  6
Continuous
 62
     8
100
AcDbBlockReference
  2
*B52
 10
0.0
 20
0.0
 30
0.0
  0
INSERT
  5
3D6
100
AcDbEntity
  8
0
  6
Continuous
 62
     8
100
AcDbBlockReference
  2
*B53
 10
0.0
 20
0.0
 30
0.0
  0
INSERT
  5
3DC
100
AcDbEntity
  8
0
  6
Continuous
 62
     8
100
AcDbBlockReference
  2
*B54
 10
0.0
 20
0.0
 30
0.0
  0
INSERT
  5
3E1
100
AcDbEntity
  8
0
  6
Continuous
 62
     8
100
AcDbBlockReference
  2
*B55
 10
0.0
 20
0.0
 30
0.0
  0
INSERT
  5
3E8
100
AcDbEntity
  8
0
  6
Continuous
 62
     8
100
AcDbBlockReference
  2
*B56
 10
0.0
 20
0.0
 30
0.0
  0
INSERT
  5
3EE
100
AcDbEntity
  8
0
  6
Continuous
 62
     6
100
AcDbBlockReference
  2
*B57
 10
0.0
 20
0.0
 30
0.0
  0
INSERT
  5
3F4
100
AcDbEntity
  8
0
  6
Continuous
 62
     6
100
AcDbBlockReference
  2
*B58
 10
0.0
 20
0.0
 30
0.0
  0
INSERT
  5
3FA
100
AcDbEntity
  8
0
  6
Continuous
 62
     6
100
AcDbBlockReference
  2
*B59
 10
0.0
 20
0.0
 30
0.0
  0
INSERT
  5
400
100
AcDbEntity
  8
0
  6
Continuous
 62
     6
100
AcDbBlockReference
  2
*B60
 10
0.0
 20
0.0
 30
0.0
  0
INSERT
  5
406
100
AcDbEntity
  8
0
  6
Continuous
 62
     6
100
AcDbBlockReference
  2
*B61
 10
0.0
 20
0.0
 30
0.0
  0
INSERT
  5
40C
100
AcDbEntity
  8
0
  6
Continuous
 62
     6
100
AcDbBlockReference
  2
*B62
 10
0.0
 20
0.0
 30
0.0
  0
INSERT
  5
412
100
AcDbEntity
  8
0
  6
Continuous
 62
     6
100
AcDbBlockReference
  2
*B63
 10
0.0
 20
0.0
 30
0.0
  0
INSERT
  5
419
100
AcDbEntity
  8
0
  6
Continuous
 62
     0
100
AcDbBlockReference
  2
*B64
 10
0.0
 20
0.0
 30
0.0
  0
INSERT
  5
41E
100
AcDbEntity
  8
TEXT
  6
Continuous
 62
     0
100
AcDbBlockReference
  2
*B65
 10
0.0
 20
0.0
 30
0.0
  0
INSERT
  5
423
100
AcDbEntity
  8
TEXT
  6
Continuous
 62
     0
100
AcDbBlockReference
  2
*B66
 10
0.0
 20
0.0
 30
0.0
  0
INSERT
  5
428
100
AcDbEntity
  8
TEXT
  6
Continuous
 62
     0
100
AcDbBlockReference
  2
*B67
 10
0.0
 20
0.0
 30
0.0
  0
INSERT
  5
42D
100
AcDbEntity
  8
TEXT
  6
Continuous
 62
     0
100
AcDbBlockReference
  2
*B68
 10
0.0
 20
0.0
 30
0.0
  0
INSERT
  5
432
100
AcDbEntity
  8
TEXT
  6
Continuous
 62
     0
100
AcDbBlockReference
  2
*B69
 10
0.0
 20
0.0
 30
0.0
  0
INSERT
  5
437
100
AcDbEntity
  8
TEXT
  6
Continuous
 62
     0
100
AcDbBlockReference
  2
*B70
 10
0.0
 20
0.0
 30
0.0
  0
INSERT
  5
43C
100
AcDbEntity
  8
TEXT
  6
Continuous
 62
     0
100
AcDbBlockReference
  2
*B71
 10
0.0
 20
0.0
 30
0.0
  0
INSERT
  5
441
100
AcDbEntity
  8
TEXT
  6
Continuous
 62
     0
100
AcDbBlockReference
  2
*B72
 10
0.0
 20
0.0
 30
0.0
  0
INSERT
  5
446
100
AcDbEntity
  8
TEXT
  6
Continuous
 62
     0
100
AcDbBlockReference
  2
*B73
 10
0.0
 20
0.0
 30
0.0
  0
INSERT
  5
44B
100
AcDbEntity
  8
TEXT
  6
Continuous
 62
     0
100
AcDbBlockReference
  2
*B74
 10
0.0
 20
0.0
 30
0.0
  0
INSERT
  5
450
100
AcDbEntity
  8
TEXT
  6
Continuous
 62
     0
100
AcDbBlockReference
  2
*B75
 10
0.0
 20
0.0
 30
0.0
  0
INSERT
  5
455
100
AcDbEntity
  8
TEXT
  6
Continuous
 62
     0
100
AcDbBlockReference
  2
*B76
 10
0.0
 20
0.0
 30
0.0
  0
INSERT
  5
45A
100
AcDbEntity
  8
TEXT
  6
Continuous
 62
     0
100
AcDbBlockReference
  2
*B77
 10
0.0
 20
0.0
 30
0.0
  0
INSERT
  5
45F
100
AcDbEntity
  8
TEXT
  6
Continuous
 62
     0
100
AcDbBlockReference
  2
*B78
 10
0.0
 20
0.0
 30
0.0
  0
INSERT
  5
464
100
AcDbEntity
  8
TEXT
  6
Continuous
 62
     0
100
AcDbBlockReference
  2
*B79
 10
0.0
 20
0.0
 30
0.0
  0
INSERT
  5
469
100
AcDbEntity
  8
TEXT
  6
Continuous
 62
     0
100
AcDbBlockReference
  2
*B80
 10
0.0
 20
0.0
 30
0.0
  0
INSERT
  5
46E
100
AcDbEntity
  8
TEXT
  6
Continuous
 62
     0
100
AcDbBlockReference
  2
*B81
 10
0.0
 20
0.0
 30
0.0
  0
INSERT
  5
473
100
AcDbEntity
  8
TEXT
  6
Continuous
 62
     0
100
AcDbBlockReference
  2
*B82
 10
0.0
 20
0.0
 30
0.0
  0
INSERT
  5
478
100
AcDbEntity
  8
TEXT
  6
Continuous
 62
     0
100
AcDbBlockReference
  2
*B83
 10
0.0
 20
0.0
 30
0.0
  0
INSERT
  5
47D
100
AcDbEntity
  8
TEXT
  6
Continuous
 62
     0
100
AcDbBlockReference
  2
*B84
 10
0.0
 20
0.0
 30
0.0
  0
INSERT
  5
482
100
AcDbEntity
  8
TEXT
  6
Continuous
 62
     0
100
AcDbBlockReference
  2
*B85
 10
0.0
 20
0.0
 30
0.0
  0
INSERT
  5
487
100
AcDbEntity
  8
TEXT
  6
Continuous
 62
     0
100
AcDbBlockReference
  2
*B86
 10
0.0
 20
0.0
 30
0.0
  0
INSERT
  5
48C
100
AcDbEntity
  8
TEXT
  6
Continuous
 62
     0
100
AcDbBlockReference
  2
*B87
 10
0.0
 20
0.0
 30
0.0
  0
INSERT
  5
491
100
AcDbEntity
  8
TEXT
  6
Continuous
 62
     0
100
AcDbBlockReference
  2
*B88
 10
0.0
 20
0.0
 30
0.0
  0
INSERT
  5
496
100
AcDbEntity
  8
TEXT
  6
Continuous
 62
     0
100
AcDbBlockReference
  2
*B89
 10
0.0
 20
0.0
 30
0.0
  0
INSERT
  5
49B
100
AcDbEntity
  8
TEXT
  6
Continuous
 62
     0
100
AcDbBlockReference
  2
*B90
 10
0.0
 20
0.0
 30
0.0
  0
INSERT
  5
4A0
100
AcDbEntity
  8
TEXT
  6
Continuous
 62
     0
100
AcDbBlockReference
  2
*B91
 10
0.0
 20
0.0
 30
0.0
  0
ENDSEC
  0
SECTION
  2
OBJECTS
  0
DICTIONARY
  5
19
100
AcDbDictionary
280
     0
281
     1
  3
ACAD_GROUP
350
1A
  3
ACAD_MLINESTYLE
350
1B
  3
ACAD_LAYOUT
350
1E
  3
ACAD_PLOTSETTINGS
350
22
  3
ACAD_PLOTSTYLENAME
350
1F
  3
ACAD_WIPEOUT_VARS
350
23
  0
DICTIONARY
  5
1A
102
{ACAD_REACTORS
330
19
102
}
100
AcDbDictionary
280
     0
281
     1
  0
DICTIONARY
  5
1B
102
{ACAD_REACTORS
330
19
102
}
100
AcDbDictionary
280
     0
281
     1
  3
Standard
350
1C
  0
MLINESTYLE
  5
1C
102
{ACAD_REACTORS
330
1B
102
}
100
AcDbMlineStyle
  2
Standard
 70
     0
  3

 62
     0
 51
90.0
 52
90.0
 71
     2
 49
0.5
 62
   256
  6
BYLAYER
 49
-0.5
 62
   256
  6
BYLAYER
  0
ACDBDICTIONARYWDFLT
  5
1F
102
{ACAD_REACTORS
330
19
102
}
100
AcDbDictionary
281
     1
  3
Normal
350
1D
100
AcDbDictionaryWithDefault
340
1D
  0
ACDBPLACEHOLDER
  5
1D
102
{ACAD_REACTORS
330
1F
102
}
  0
LAYOUT
  5
20
102
{ACAD_REACTORS
330
1E
102
}
100
AcDbPlotSettings
  1

  2

  4

  6

 40
0.0
 41
0.0
 42
0.0
 43
0.0
 44
0.0
 45
0.0
 46
0.0
 47
0.0
 48
0.0
 49
0.0
140
0.0
141
0.0
142
1.0
143
1.0
 70
     0
 72
     0
 73
     0
 74
     0
  7

 75
     0
147
1.0
148
0.0
149
0.0
100
AcDbLayout
  1
Model
 70
     0
 71
     0
 10
0.0
 20
0.0
 11
0.0
 21
0.0
 12
0.0
 22
0.0
 32
0.0
 14
0.0
 24
0.0
 34
0.0
 15
0.0
 25
0.0
 35
0.0
146
0.0
 13
0.0
 23
0.0
 33
0.0
 16
0.0
 26
0.0
 36
0.0
 17
0.0
 27
0.0
 37
0.0
 76
     0
330
A
331
0
345
0
346
0
  0
LAYOUT
  5
21
102
{ACAD_REACTORS
330
1E
102
}
100
AcDbPlotSettings
  1

  2

  4

  6

 40
0.0
 41
0.0
 42
0.0
 43
0.0
 44
0.0
 45
0.0
 46
0.0
 47
0.0
 48
0.0
 49
0.0
140
0.0
141
0.0
142
1.0
143
1.0
 70
     0
 72
     0
 73
     0
 74
     0
  7

 75
     0
147
1.0
148
0.0
149
0.0
100
AcDbLayout
  1
Layout1
 70
     0
 71
     0
 10
0.0
 20
0.0
 11
0.0
 21
0.0
 12
0.0
 22
0.0
 32
0.0
 14
0.0
 24
0.0
 34
0.0
 15
0.0
 25
0.0
 35
0.0
146
0.0
 13
0.0
 23
0.0
 33
0.0
 16
0.0
 26
0.0
 36
0.0
 17
0.0
 27
0.0
 37
0.0
 76
     0
330
B
331
0
345
0
346
0
  0
DICTIONARY
  5
1E
102
{ACAD_REACTORS
330
19
102
}
100
AcDbDictionary
280
     0
281
     1
  3
Layout1
350
21
  3
Model
350
20
  0
DICTIONARY
  5
22
102
{ACAD_REACTORS
330
19
102
}
100
AcDbDictionary
280
     0
281
     1
  0
WIPEOUTVARIABLES
  5
23
100
AcDbWipeoutVariables
 70
     1
  0
ENDSEC
  0
EOF
