  0
SECTION
  2
HEADER
  9
$ACADVER
  1
AC1015
  9
$ACADMAINTVER
 70
     6
  9
$DWGCODEPAGE
  3
DOS850
  9
$INSBASE
 10
0.0
 20
0.0
 30
0.0
  9
$EXTMIN
 10
0.0
 20
0.0
 30
0.0
  9
$EXTMAX
 10
841.0
 20
595.0
 30
0.0
  9
$LIMMIN
 10
0.0
 20
0.0
  9
$LIMMAX
 10
841.0
 20
595.0
  9
$ORTHOMODE
 70
     0
  9
$REGENMODE
 70
     1
  9
$FILLMODE
 70
     1
  9
$QTEXTMODE
 70
     0
  9
$MIRRTEXT
 70
     1
  9
$LTSCALE
 40
25.4
  9
$ATTMODE
 70
     1
  9
$TEXTSIZE
 40
3.5
  9
$TRACEWID
 40
0.05
  9
$TEXTSTYLE
  7
Standard
  9
$CLAYER
  8
0
  9
$CELTYPE
  6
Continuous
  9
$CECOLOR
 62
   256
  9
$CELTSCALE
 40
1.0
  9
$DISPSILH
 70
     0
  9
$DIMSCALE
 40
1.0
  9
$DIMASZ
 40
5.0
  9
$DIMEXO
 40
3.0
  9
$DIMDLI
 40
0.38
  9
$DIMRND
 40
0.0
  9
$DIMDLE
 40
0.0
  9
$DIMEXE
 40
2.0
  9
$DIMTP
 40
0.0
  9
$DIMTM
 40
0.0
  9
$DIMTXT
 40
3.5
  9
$DIMCEN
 40
4.0
  9
$DIMTSZ
 40
0.0
  9
$DIMTOL
 70
     0
  9
$DIMLIM
 70
     0
  9
$DIMTIH
 70
     1
  9
$DIMTOH
 70
     1
  9
$DIMSE1
 70
     0
  9
$DIMSE2
 70
     0
  9
$DIMTAD
 70
     0
  9
$DIMZIN
 70
     0
  9
$DIMBLK
  1

  9
$DIMASO
 70
     1
  9
$DIMSHO
 70
     1
  9
$DIMPOST
  1

  9
$DIMAPOST
  1

  9
$DIMALT
 70
     0
  9
$DIMALTD
 70
     2
  9
$DIMALTF
 40
25.4
  9
$DIMLFAC
 40
1.0
  9
$DIMTOFL
 70
     0
  9
$DIMTVP
 40
0.0
  9
$DIMTIX
 70
     0
  9
$DIMSOXD
 70
     0
  9
$DIMSAH
 70
     0
  9
$DIMBLK1
  1

  9
$DIMBLK2
  1

  9
$DIMSTYLE
  2
Standard
  9
$DIMCLRD
 70
     0
  9
$DIMCLRE
 70
     0
  9
$DIMCLRT
 70
     0
  9
$DIMTFAC
 40
1.0
  9
$DIMGAP
 40
1.0
  9
$DIMJUST
 70
     0
  9
$DIMSD1
 70
     0
  9
$DIMSD2
 70
     0
  9
$DIMTOLJ
 70
     1
  9
$DIMTZIN
 70
     0
  9
$DIMALTZ
 70
     0
  9
$DIMALTTZ
 70
     0
  9
$DIMUPT
 70
     0
  9
$DIMDEC
 70
     4
  9
$DIMTDEC
 70
     4
  9
$DIMALTU
 70
     2
  9
$DIMALTTD
 70
     2
  9
$DIMTXSTY
  7
Standard
  9
$DIMAUNIT
 70
     0
  9
$DIMADEC
 70
     0
  9
$DIMALTRND
 40
0.0
  9
$DIMAZIN
 70
     0
  9
$DIMDSEP
 70
     0
  9
$DIMATFIT
 70
     3
  9
$DIMFRAC
 70
     0
  9
$DIMLDRBLK
  1

  9
$DIMLUNIT
 70
     2
  9
$DIMLWD
 70
     0
  9
$DIMLWE
 70
     0
  9
$DIMTMOVE
 70
     0
  9
$LUNITS
 70
     2
  9
$LUPREC
 70
     4
  9
$SKETCHINC
 40
0.1
  9
$FILLETRAD
 40
0.0
  9
$AUNITS
 70
     0
  9
$AUPREC
 70
     0
  9
$MENU
  1
acad
  9
$ELEVATION
 40
0.0
  9
$PELEVATION
 40
0.0
  9
$THICKNESS
 40
0.0
  9
$LIMCHECK
 70
     0
  9
$CHAMFERA
 40
0.0
  9
$CHAMFERB
 40
0.0
  9
$CHAMFERC
 40
0.0
  9
$CHAMFERD
 40
0.0
  9
$SKPOLY
 70
     0
  9
$TDCREATE
 40
0.000000000
  9
$TDUCREATE
 40
0.000000000
  9
$TDUPDATE
 40
0.000000000
  9
$TDUUPDATE
 40
0.000000000
  9
$TDINDWG
 40
0.0000000000
  9
$TDUSRTIMER
 40
0.0000000000
  9
$USRTIMER
 70
     1
  9
$ANGBASE
 50
0.0
  9
$ANGDIR
 70
     0
  9
$PDMODE
 70
     0
  9
$PDSIZE
 40
0.0
  9
$PLINEWID
 40
0.0
  9
$SPLFRAME
 70
     0
  9
$SPLINETYPE
 70
     6
  9
$SPLINESEGS
 70
     8
  9
$HANDSEED
  5
522
  9
$SURFTAB1
 70
     6
  9
$SURFTAB2
 70
     6
  9
$SURFTYPE
 70
     6
  9
$SURFU
 70
     6
  9
$SURFV
 70
     6
  9
$UCSBASE
  2

  9
$UCSNAME
  2

  9
$UCSORG
 10
0.0
 20
0.0
 30
0.0
  9
$UCSXDIR
 10
1.0
 20
0.0
 30
0.0
  9
$UCSYDIR
 10
0.0
 20
1.0
 30
0.0
  9
$UCSORTHOREF
  2

  9
$UCSORTHOVIEW
 70
     0
  9
$UCSORGTOP
 10
0.0
 20
0.0
 30
0.0
  9
$UCSORGBOTTOM
 10
0.0
 20
0.0
 30
0.0
  9
$UCSORGLEFT
 10
0.0
 20
0.0
 30
0.0
  9
$UCSORGRIGHT
 10
0.0
 20
0.0
 30
0.0
  9
$UCSORGFRONT
 10
0.0
 20
0.0
 30
0.0
  9
$UCSORGBACK
 10
0.0
 20
0.0
 30
0.0
  9
$PUCSBASE
  2

  9
$PUCSNAME
  2

  9
$PUCSORG
 10
0.0
 20
0.0
 30
0.0
  9
$PUCSXDIR
 10
1.0
 20
0.0
 30
0.0
  9
$PUCSYDIR
 10
0.0
 20
1.0
 30
0.0
  9
$PUCSORTHOREF
  2

  9
$PUCSORTHOVIEW
 70
     0
  9
$PUCSORGTOP
 10
0.0
 20
0.0
 30
0.0
  9
$PUCSORGBOTTOM
 10
0.0
 20
0.0
 30
0.0
  9
$PUCSORGLEFT
 10
0.0
 20
0.0
 30
0.0
  9
$PUCSORGRIGHT
 10
0.0
 20
0.0
 30
0.0
  9
$PUCSORGFRONT
 10
0.0
 20
0.0
 30
0.0
  9
$PUCSORGBACK
 10
0.0
 20
0.0
 30
0.0
  9
$USERI1
 70
     0
  9
$USERI2
 70
     0
  9
$USERI3
 70
     0
  9
$USERI4
 70
     0
  9
$USERI5
 70
     0
  9
$USERR1
 40
0.0
  9
$USERR2
 40
0.0
  9
$USERR3
 40
0.0
  9
$USERR4
 40
0.0
  9
$USERR5
 40
0.0
  9
$WORLDVIEW
 70
     1
  9
$SHADEDGE
 70
     3
  9
$SHADEDIF
 70
    70
  9
$TILEMODE
 70
     1
  9
$MAXACTVP
 70
    16
  9
$PINSBASE
 10
0.0
 20
0.0
 30
0.0
  9
$PLIMCHECK
 70
     0
  9
$PEXTMIN
 10
1.000000E+20
 20
1.000000E+20
 30
1.000000E+20
  9
$PEXTMAX
 10
-1.000000E+20
 20
-1.000000E+20
 30
-1.000000E+20
  9
$PLIMMIN
 10
0.0
 20
0.0
  9
$PLIMMAX
 10
841.0
 20
595.0
  9
$UNITMODE
 70
     0
  9
$VISRETAIN
 70
     0
  9
$PLINEGEN
 70
     1
  9
$PSLTSCALE
 70
     0
  9
$TREEDEPTH
 70
  3020
  9
$CMLSTYLE
  2
Standard
  9
$CMLJUST
 70
     0
  9
$CMLSCALE
 40
1.0
  9
$PROXYGRAPHICS
 70
     0
  9
$MEASUREMENT
 70
     0
  9
$CELWEIGHT
370
     0
  9
$ENDCAPS
280
     0
  9
$JOINSTYLE
280
     0
  9
$LWDISPLAY
290
     0
  9
$INSUNITS
 70
     0
  9
$HYPERLINKBASE
  1

  9
$XEDIT
290
     1
  9
$CEPSNTYPE
380
     0
  9
$PSTYLEMODE
290
     0
  9
$FINGERPRINTGUID
  2

  9
$VERSIONGUID
  2

  9
$EXTNAMES
290
     1
  9
$PSVPSCALE
 40
0.0
  0
ENDSEC
  0
SECTION
  2
CLASSES
  0
CLASS
  1
LWPOLYLINE
  2
AcDbPolyline
  3
"AutoCAD"
 90
        0
280
     0
281
     1
  0
CLASS
  1
IMAGE
  2
AcDbRasterImage
  3
ISM
 90
      127
280
     0
281
     1
  0
CLASS
  1
OLE2FRAME
  2
AcDbOle2Frame
  3
""
 90
        0
280
     0
281
     1
  0
CLASS
  1
HATCH
  2
AcDbHatch
  3
"ACAD_SEDONA"
 90
        0
280
     0
281
     1
  0
CLASS
  1
DICTIONARYVAR
  2
AcDbDictionaryVar
  3
"AutoCAD"
 90
        0
280
     0
281
     0
  0
CLASS
  1
RASTERVARIABLES
  2
AcDbRasterVariables
  3
ISM
 90
        0
280
     0
281
     0
  0
CLASS
  1
IMAGEDEF
  2
AcDbRasterImageDef
  3
ISM
 90
        0
280
     0
281
     0
  0
CLASS
  1
IMAGEDEF_REACTOR
  2
AcDbRasterImageDefReactor
  3
ISM
 90
        1
280
     0
281
     0
  0
CLASS
  1
IDBUFFER
  2
AcDbIdBuffer
  3
"Acad"
 90
        0
280
     0
281
     0
  0
CLASS
  1
SPATIAL_FILTER
  2
AcDbSpatialFilter
  3
"Acad"
 90
        0
280
     0
281
     0
  0
CLASS
  1
XRECORD
  2
AcDbXrecord
  3
"<Built In>"
 90
        0
280
     0
281
     0
  0
CLASS
  1
SORTENTSTABLE
  2
AcDbSortentsTable
  3
"AutoCAD"
 90
        0
280
     0
281
     0
  0
CLASS
  1
LAYER_INDEX
  2
AcDbLayerIndex
  3
"Acad"
 90
        0
280
     0
281
     0
  0
CLASS
  1
SPATIAL_INDEX
  2
AcDbSpatialIndex
  3
"Acad"
 90
        0
280
     0
281
     0
  0
CLASS
  1
OBJECT_PTR
  2
CAseDLPNTableRecord
  3
"ASE-LPNTableRecord"
 90
        1
280
     0
281
     0
  0
CLASS
  1
LAYOUT
  2
AcDbLayout
  3
"AutoCAD 2000"
 90
        1
280
     0
281
     0
  0
CLASS
  1
PLOTSETTINGS
  2
AcDbPlotSettings
  3
"AutoCAD 2000"
 90
        1
280
     0
281
     0
  0
CLASS
  1
ACDBDICTIONARYWDFLT
  2
AcDbDictionaryWithDefault
  3
"AutoCAD 2000"
 90
        1
280
     0
281
     0
  0
CLASS
  1
ACDBPLACEHOLDER
  2
AcDbPlaceHolder
  3
"AutoCAD 2000"
 90
        1
280
     0
281
     0
  0
CLASS
  1
VBA_PROJECT
  2
AcDbVbaProject
  3
"acadvba"
 90
        1
280
     0
281
     0
  0
CLASS
  1
WIPEOUT
  2
AcDbWipeout
  3
WipeOut|AutoCAD Express Tool|expresstools@autodesk.com
 90
      127
280
     0
281
     1
  0
CLASS
  1
WIPEOUTVARIABLES
  2
AcDbWipeoutVariables
  3
WipeOut|AutoCAD Express Tool|expresstools@autodesk.com
 90
        0
280
     0
281
     0
  0
CLASS
  1
RTEXT
  2
RText
  3
RText|AutoCAD Express Tool|expresstools@autodesk.com
 90
        0
280
     0
281
     1
  0
CLASS
  1
ARCALIGNEDTEXT
  2
AcDbArcAlignedText
  3
ATEXT|AutoCAD Express Tool|expresstools@autodesk.com
 90
        0
280
     0
281
     1
  0
ENDSEC
  0
SECTION
  2
TABLES
  0
TABLE
  2
VPORT
  5
7
100
AcDbSymbolTable
 70
     1
  0
VPORT
  5
15
100
AcDbSymbolTableRecord
100
AcDbViewportTableRecord
  2
*ACTIVE
 70
     0
 10
0.0
 20
0.0
 11
1.0
 21
1.0
 12
6.591288
 22
4.579184
 13
0.0
 23
0.0
 14
1.0
 24
1.0
 15
0.0
 25
0.0
 16
0.0
 26
0.0
 36
1.0
 17
0.0
 27
0.0
 37
0.0
 40
9.158369
 41
0.688564
 42
50.0
 43
0.0
 44
0.0
 50
0.0
 51
0.0
 71
     0
 72
   100
 73
     1
 74
     1
 75
     0
 76
     0
 77
     0
 78
     0
281
     0
 65
     0
110
0.0
120
0.0
130
0.0
111
1.0
121
0.0
131
0.0
112
0.0
122
1.0
132
0.0
345
0
346
0
 79
     0
146
0.0
  0
ENDTAB
  0
TABLE
  2
LTYPE
  5
4
100
AcDbSymbolTable
 70
     7
  0
LTYPE
  5
11
100
AcDbSymbolTableRecord
100
AcDbLinetypeTableRecord
  2
ByBlock
 70
    64
  3

 72
    65
 73
     0
 40
0.0
  0
LTYPE
  5
12
100
AcDbSymbolTableRecord
100
AcDbLinetypeTableRecord
  2
ByLayer
 70
    64
  3

 72
    65
 73
     0
 40
0.0
  0
LTYPE
  5
13
100
AcDbSymbolTableRecord
100
AcDbLinetypeTableRecord
  2
Continuous
 70
    64
  3
Solid line
 72
    65
 73
     0
 40
0.0
  0
LTYPE
  5
24
100
AcDbSymbolTableRecord
100
AcDbLinetypeTableRecord
  2
HIDDEN
 70
    64
  3
_ _ _ _ _ _ _ _ _ _ _ _ _ _ _ _ _ _ _ _ _ _ _ _
 72
    65
 73
     2
 40
0.1875
 49
0.125
 74
     0
 49
-0.0625
 74
     0
  0
LTYPE
  5
25
100
AcDbSymbolTableRecord
100
AcDbLinetypeTableRecord
  2
DOTTED
 70
    64
  3
...............................................
 72
    65
 73
     2
 40
0.125
 49
0.0
 74
     0
 49
-0.125
 74
     0
  0
LTYPE
  5
26
100
AcDbSymbolTableRecord
100
AcDbLinetypeTableRecord
  2
CENTER
 70
    64
  3
____ _ ____ _ ____ _ ____ _ ____ _ ____ _ ____ 
 72
    65
 73
     4
 40
1.125
 49
0.75
 74
     0
 49
-0.125
 74
     0
 49
0.125
 74
     0
 49
-0.125
 74
     0
  0
LTYPE
  5
27
100
AcDbSymbolTableRecord
100
AcDbLinetypeTableRecord
  2
PHANTOM
 70
    64
  3
______  __  __  ______  __  __  ______  __  __ 
 72
    65
 73
     6
 40
1.25
 49
0.625
 74
     0
 49
-0.125
 74
     0
 49
0.125
 74
     0
 49
-0.125
 74
     0
 49
0.125
 74
     0
 49
-0.125
 74
     0
  0
ENDTAB
  0
TABLE
  2
LAYER
  5
2
100
AcDbSymbolTable
 70
     2
  0
LAYER
  5
14
100
AcDbSymbolTableRecord
100
AcDbLayerTableRecord
  2
0
 70
     0
 62
     7
  6
Continuous
290
     1
370
    -3
390
1D
  0
LAYER
  5
28
100
AcDbSymbolTableRecord
100
AcDbLayerTableRecord
  2
TEXT
 70
     0
 62
     8
  6
Continuous
290
     1
370
    -3
390
1F
  0
ENDTAB
  0
TABLE
  2
STYLE
  5
3
100
AcDbSymbolTable
 70
     1
  0
STYLE
  5
17
100
AcDbSymbolTableRecord
100
AcDbTextStyleTableRecord
  2
Standard
 70
     0
 40
0.0
 41
1.0
 50
0.0
 71
     0
 42
0.0
  3
txt
  4

  0
ENDTAB
  0
TABLE
  2
VIEW
  5
5
100
AcDbSymbolTable
 70
     0
  0
ENDTAB
  0
TABLE
  2
UCS
  5
6
100
AcDbSymbolTable
 70
     0
  0
ENDTAB
  0
TABLE
  2
APPID
  5
8
100
AcDbSymbolTable
 70
     1
  0
APPID
  5
16
100
AcDbSymbolTableRecord
100
AcDbRegAppTableRecord
  2
ACAD
 70
     0
  0
ENDTAB
  0
TABLE
  2
DIMSTYLE
  5
9
100
AcDbSymbolTable
 70
     1
100
AcDbDimStyleTable
 71
     0
  0
DIMSTYLE
105
18
100
AcDbSymbolTableRecord
100
AcDbDimStyleTableRecord
  2
Standard
 70
     0
  3

  4

 40
1.0
 41
0.18
 42
0.0625
 43
0.38
 44
0.18
 45
0.0
 46
0.0
 47
0.0
 48
0.0
 71
     0
 72
     0
 73
     1
 74
     1
 75
     0
 76
     0
 77
     0
 78
     0
 79
     0
140
0.18
141
0.09
142
0.0
143
25.4
144
1.0
145
0.0
146
1.0
147
0.09
148
0.0
170
     0
171
     2
172
     0
173
     0
174
     0
175
     0
176
     0
177
     0
178
     0
179
     0
271
     4
272
     4
273
     2
274
     2
275
     0
276
     0
277
     2
278
    46
279
     0
280
     0
281
     0
282
     0
283
     1
284
     0
285
     0
286
     0
288
     0
340
17
341
0
342
0
343
0
344
0
371
    -2
372
    -2
  0
ENDTAB
  0
TABLE
  2
BLOCK_RECORD
  5
1
100
AcDbSymbolTable
 70
    95
  0
BLOCK_RECORD
  5
A
100
AcDbSymbolTableRecord
100
AcDbBlockTableRecord
  2
*MODEL_SPACE
340
20
  0
BLOCK_RECORD
  5
B
100
AcDbSymbolTableRecord
100
AcDbBlockTableRecord
  2
*PAPER_SPACE
340
21
  0
BLOCK_RECORD
  5
29
100
AcDbSymbolTableRecord
100
AcDbBlockTableRecord
  2
*B0
340
0
  0
BLOCK_RECORD
  5
2C
100
AcDbSymbolTableRecord
100
AcDbBlockTableRecord
  2
*B1
340
0
  0
BLOCK_RECORD
  5
234
100
AcDbSymbolTableRecord
100
AcDbBlockTableRecord
  2
*B2
340
0
  0
BLOCK_RECORD
  5
2BC
100
AcDbSymbolTableRecord
100
AcDbBlockTableRecord
  2
*B3
340
0
  0
BLOCK_RECORD
  5
2C2
100
AcDbSymbolTableRecord
100
AcDbBlockTableRecord
  2
*B4
340
0
  0
BLOCK_RECORD
  5
2CD
100
AcDbSymbolTableRecord
100
AcDbBlockTableRecord
  2
*B5
340
0
  0
BLOCK_RECORD
  5
2D0
100
AcDbSymbolTableRecord
100
AcDbBlockTableRecord
  2
*B6
340
0
  0
BLOCK_RECORD
  5
2D6
100
AcDbSymbolTableRecord
100
AcDbBlockTableRecord
  2
*B7
340
0
  0
BLOCK_RECORD
  5
2E1
100
AcDbSymbolTableRecord
100
AcDbBlockTableRecord
  2
*B8
340
0
  0
BLOCK_RECORD
  5
2E4
100
AcDbSymbolTableRecord
100
AcDbBlockTableRecord
  2
*B9
340
0
  0
BLOCK_RECORD
  5
2EB
100
AcDbSymbolTableRecord
100
AcDbBlockTableRecord
  2
*B10
340
0
  0
BLOCK_RECORD
  5
2F2
100
AcDbSymbolTableRecord
100
AcDbBlockTableRecord
  2
*B11
340
0
  0
BLOCK_RECORD
  5
2F9
100
AcDbSymbolTableRecord
100
AcDbBlockTableRecord
  2
*B12
340
0
  0
BLOCK_RECORD
  5
300
100
AcDbSymbolTableRecord
100
AcDbBlockTableRecord
  2
*B13
340
0
  0
BLOCK_RECORD
  5
307
100
AcDbSymbolTableRecord
100
AcDbBlockTableRecord
  2
*B14
340
0
  0
BLOCK_RECORD
  5
30E
100
AcDbSymbolTableRecord
100
AcDbBlockTableRecord
  2
*B15
340
0
  0
BLOCK_RECORD
  5
315
100
AcDbSymbolTableRecord
100
AcDbBlockTableRecord
  2
*B16
340
0
  0
BLOCK_RECORD
  5
31C
100
AcDbSymbolTableRecord
100
AcDbBlockTableRecord
  2
*B17
340
0
  0
BLOCK_RECORD
  5
323
100
AcDbSymbolTableRecord
100
AcDbBlockTableRecord
  2
*B18
340
0
  0
BLOCK_RECORD
  5
32A
100
AcDbSymbolTableRecord
100
AcDbBlockTableRecord
  2
*B19
340
0
  0
BLOCK_RECORD
  5
331
100
AcDbSymbolTableRecord
100
AcDbBlockTableRecord
  2
*B20
340
0
  0
BLOCK_RECORD
  5
338
100
AcDbSymbolTableRecord
100
AcDbBlockTableRecord
  2
*B21
340
0
  0
BLOCK_RECORD
  5
33F
100
AcDbSymbolTableRecord
100
AcDbBlockTableRecord
  2
*B22
340
0
  0
BLOCK_RECORD
  5
346
100
AcDbSymbolTableRecord
100
AcDbBlockTableRecord
  2
*B23
340
0
  0
BLOCK_RECORD
  5
34D
100
AcDbSymbolTableRecord
100
AcDbBlockTableRecord
  2
*B24
340
0
  0
BLOCK_RECORD
  5
354
100
AcDbSymbolTableRecord
100
AcDbBlockTableRecord
  2
*B25
340
0
  0
BLOCK_RECORD
  5
35A
100
AcDbSymbolTableRecord
100
AcDbBlockTableRecord
  2
*B26
340
0
  0
BLOCK_RECORD
  5
360
100
AcDbSymbolTableRecord
100
AcDbBlockTableRecord
  2
*B27
340
0
  0
BLOCK_RECORD
  5
36A
100
AcDbSymbolTableRecord
100
AcDbBlockTableRecord
  2
*B28
340
0
  0
BLOCK_RECORD
  5
374
100
AcDbSymbolTableRecord
100
AcDbBlockTableRecord
  2
*B29
340
0
  0
BLOCK_RECORD
  5
379
100
AcDbSymbolTableRecord
100
AcDbBlockTableRecord
  2
*B30
340
0
  0
BLOCK_RECORD
  5
37F
100
AcDbSymbolTableRecord
100
AcDbBlockTableRecord
  2
*B31
340
0
  0
BLOCK_RECORD
  5
384
100
AcDbSymbolTableRecord
100
AcDbBlockTableRecord
  2
*B32
340
0
  0
BLOCK_RECORD
  5
389
100
AcDbSymbolTableRecord
100
AcDbBlockTableRecord
  2
*B33
340
0
  0
BLOCK_RECORD
  5
38F
100
AcDbSymbolTableRecord
100
AcDbBlockTableRecord
  2
*B34
340
0
  0
BLOCK_RECORD
  5
394
100
AcDbSymbolTableRecord
100
AcDbBlockTableRecord
  2
*B35
340
0
  0
BLOCK_RECORD
  5
3BB
100
AcDbSymbolTableRecord
100
AcDbBlockTableRecord
  2
*B36
340
0
  0
BLOCK_RECORD
  5
3C1
100
AcDbSymbolTableRecord
100
AcDbBlockTableRecord
  2
*B37
340
0
  0
BLOCK_RECORD
  5
3C6
100
AcDbSymbolTableRecord
100
AcDbBlockTableRecord
  2
*B38
340
0
  0
BLOCK_RECORD
  5
3CC
100
AcDbSymbolTableRecord
100
AcDbBlockTableRecord
  2
*B39
340
0
  0
BLOCK_RECORD
  5
3D6
100
AcDbSymbolTableRecord
100
AcDbBlockTableRecord
  2
*B40
340
0
  0
BLOCK_RECORD
  5
3ED
100
AcDbSymbolTableRecord
100
AcDbBlockTableRecord
  2
*B41
340
0
  0
BLOCK_RECORD
  5
3F2
100
AcDbSymbolTableRecord
100
AcDbBlockTableRecord
  2
*B42
340
0
  0
BLOCK_RECORD
  5
3F8
100
AcDbSymbolTableRecord
100
AcDbBlockTableRecord
  2
*B43
340
0
  0
BLOCK_RECORD
  5
3FE
100
AcDbSymbolTableRecord
100
AcDbBlockTableRecord
  2
*B44
340
0
  0
BLOCK_RECORD
  5
403
100
AcDbSymbolTableRecord
100
AcDbBlockTableRecord
  2
*B45
340
0
  0
BLOCK_RECORD
  5
408
100
AcDbSymbolTableRecord
100
AcDbBlockTableRecord
  2
*B46
340
0
  0
BLOCK_RECORD
  5
40E
100
AcDbSymbolTableRecord
100
AcDbBlockTableRecord
  2
*B47
340
0
  0
BLOCK_RECORD
  5
41B
100
AcDbSymbolTableRecord
100
AcDbBlockTableRecord
  2
*B48
340
0
  0
BLOCK_RECORD
  5
420
100
AcDbSymbolTableRecord
100
AcDbBlockTableRecord
  2
*B49
340
0
  0
BLOCK_RECORD
  5
42A
100
AcDbSymbolTableRecord
100
AcDbBlockTableRecord
  2
*B50
340
0
  0
BLOCK_RECORD
  5
42F
100
AcDbSymbolTableRecord
100
AcDbBlockTableRecord
  2
*B51
340
0
  0
BLOCK_RECORD
  5
435
100
AcDbSymbolTableRecord
100
AcDbBlockTableRecord
  2
*B52
340
0
  0
BLOCK_RECORD
  5
43A
100
AcDbSymbolTableRecord
100
AcDbBlockTableRecord
  2
*B53
340
0
  0
BLOCK_RECORD
  5
43F
100
AcDbSymbolTableRecord
100
AcDbBlockTableRecord
  2
*B54
340
0
  0
BLOCK_RECORD
  5
447
100
AcDbSymbolTableRecord
100
AcDbBlockTableRecord
  2
*B55
340
0
  0
BLOCK_RECORD
  5
44C
100
AcDbSymbolTableRecord
100
AcDbBlockTableRecord
  2
*B56
340
0
  0
BLOCK_RECORD
  5
457
100
AcDbSymbolTableRecord
100
AcDbBlockTableRecord
  2
*B57
340
0
  0
BLOCK_RECORD
  5
45D
100
AcDbSymbolTableRecord
100
AcDbBlockTableRecord
  2
*B58
340
0
  0
BLOCK_RECORD
  5
463
100
AcDbSymbolTableRecord
100
AcDbBlockTableRecord
  2
*B59
340
0
  0
BLOCK_RECORD
  5
469
100
AcDbSymbolTableRecord
100
AcDbBlockTableRecord
  2
*B60
340
0
  0
BLOCK_RECORD
  5
46F
100
AcDbSymbolTableRecord
100
AcDbBlockTableRecord
  2
*B61
340
0
  0
BLOCK_RECORD
  5
475
100
AcDbSymbolTableRecord
100
AcDbBlockTableRecord
  2
*B62
340
0
  0
BLOCK_RECORD
  5
47B
100
AcDbSymbolTableRecord
100
AcDbBlockTableRecord
  2
*B63
340
0
  0
BLOCK_RECORD
  5
481
100
AcDbSymbolTableRecord
100
AcDbBlockTableRecord
  2
*B64
340
0
  0
BLOCK_RECORD
  5
487
100
AcDbSymbolTableRecord
100
AcDbBlockTableRecord
  2
*B65
340
0
  0
BLOCK_RECORD
  5
48D
100
AcDbSymbolTableRecord
100
AcDbBlockTableRecord
  2
*B66
340
0
  0
BLOCK_RECORD
  5
493
100
AcDbSymbolTableRecord
100
AcDbBlockTableRecord
  2
*B67
340
0
  0
BLOCK_RECORD
  5
499
100
AcDbSymbolTableRecord
100
AcDbBlockTableRecord
  2
*B68
340
0
  0
BLOCK_RECORD
  5
4A0
100
AcDbSymbolTableRecord
100
AcDbBlockTableRecord
  2
*B69
340
0
  0
BLOCK_RECORD
  5
4A5
100
AcDbSymbolTableRecord
100
AcDbBlockTableRecord
  2
*B70
340
0
  0
BLOCK_RECORD
  5
4AA
100
AcDbSymbolTableRecord
100
AcDbBlockTableRecord
  2
*B71
340
0
  0
BLOCK_RECORD
  5
4AF
100
AcDbSymbolTableRecord
100
AcDbBlockTableRecord
  2
*B72
340
0
  0
BLOCK_RECORD
  5
4B4
100
AcDbSymbolTableRecord
100
AcDbBlockTableRecord
  2
*B73
340
0
  0
BLOCK_RECORD
  5
4B9
100
AcDbSymbolTableRecord
100
AcDbBlockTableRecord
  2
*B74
340
0
  0
BLOCK_RECORD
  5
4BE
100
AcDbSymbolTableRecord
100
AcDbBlockTableRecord
  2
*B75
340
0
  0
BLOCK_RECORD
  5
4C3
100
AcDbSymbolTableRecord
100
AcDbBlockTableRecord
  2
*B76
340
0
  0
BLOCK_RECORD
  5
4C8
100
AcDbSymbolTableRecord
100
AcDbBlockTableRecord
  2
*B77
340
0
  0
BLOCK_RECORD
  5
4CD
100
AcDbSymbolTableRecord
100
AcDbBlockTableRecord
  2
*B78
340
0
  0
BLOCK_RECORD
  5
4D2
100
AcDbSymbolTableRecord
100
AcDbBlockTableRecord
  2
*B79
340
0
  0
BLOCK_RECORD
  5
4D7
100
AcDbSymbolTableRecord
100
AcDbBlockTableRecord
  2
*B80
340
0
  0
BLOCK_RECORD
  5
4DC
100
AcDbSymbolTableRecord
100
AcDbBlockTableRecord
  2
*B81
340
0
  0
BLOCK_RECORD
  5
4E1
100
AcDbSymbolTableRecord
100
AcDbBlockTableRecord
  2
*B82
340
0
  0
BLOCK_RECORD
  5
4E6
100
AcDbSymbolTableRecord
100
AcDbBlockTableRecord
  2
*B83
340
0
  0
BLOCK_RECORD
  5
4EB
100
AcDbSymbolTableRecord
100
AcDbBlockTableRecord
  2
*B84
340
0
  0
BLOCK_RECORD
  5
4F0
100
AcDbSymbolTableRecord
100
AcDbBlockTableRecord
  2
*B85
340
0
  0
BLOCK_RECORD
  5
4F5
100
AcDbSymbolTableRecord
100
AcDbBlockTableRecord
  2
*B86
340
0
  0
BLOCK_RECORD
  5
4FA
100
AcDbSymbolTableRecord
100
AcDbBlockTableRecord
  2
*B87
340
0
  0
BLOCK_RECORD
  5
4FF
100
AcDbSymbolTableRecord
100
AcDbBlockTableRecord
  2
*B88
340
0
  0
BLOCK_RECORD
  5
504
100
AcDbSymbolTableRecord
100
AcDbBlockTableRecord
  2
*B89
340
0
  0
BLOCK_RECORD
  5
509
100
AcDbSymbolTableRecord
100
AcDbBlockTableRecord
  2
*B90
340
0
  0
BLOCK_RECORD
  5
50E
100
AcDbSymbolTableRecord
100
AcDbBlockTableRecord
  2
*B91
340
0
  0
BLOCK_RECORD
  5
513
100
AcDbSymbolTableRecord
100
AcDbBlockTableRecord
  2
*B92
340
0
  0
BLOCK_RECORD
  5
518
100
AcDbSymbolTableRecord
100
AcDbBlockTableRecord
  2
*B93
340
0
  0
BLOCK_RECORD
  5
51D
100
AcDbSymbolTableRecord
100
AcDbBlockTableRecord
  2
*B94
340
0
  0
ENDTAB
  0
ENDSEC
  0
SECTION
  2
BLOCKS
  0
BLOCK
  5
D
100
AcDbEntity
  8
0
100
AcDbBlockBegin
  2
*MODEL_SPACE
 70
     0
 10
0.0
 20
0.0
 30
0.0
  3
*MODEL_SPACE
  1

  0
ENDBLK
  5
E
100
AcDbEntity
  8
0
100
AcDbBlockEnd
  0
BLOCK
  5
F
100
AcDbEntity
 67
     1
  8
0
100
AcDbBlockBegin
  2
*PAPER_SPACE
 70
     0
 10
0.0
 20
0.0
 30
0.0
  3
*PAPER_SPACE
  1

  0
ENDBLK
  5
10
100
AcDbEntity
 67
     1
  8
0
100
AcDbBlockEnd
  0
BLOCK
  5
2A
100
AcDbEntity
  8
0
100
AcDbBlockBegin
  2
*B0
 70
     0
 10
0.0
 20
0.0
 30
0.0
  3
*B0
  1

  0
ENDBLK
  5
2B
100
AcDbEntity
  8
0
100
AcDbBlockEnd
  0
BLOCK
  5
2D
100
AcDbEntity
  8
0
100
AcDbBlockBegin
  2
*B1
 70
     0
 10
0.0
 20
0.0
 30
0.0
  3
*B1
  1

  0
LINE
  5
2E
100
AcDbEntity
  8
0
  6
HIDDEN
 62
   174
100
AcDbLine
 10
504.001762
 20
427.717816
 30
0.0
 11
504.001762
 21
439.867816
 31
0.0
  0
LINE
  5
2F
100
AcDbEntity
  8
0
  6
HIDDEN
 62
   174
100
AcDbLine
 10
486.001762
 20
427.717816
 30
0.0
 11
486.001762
 21
439.867816
 31
0.0
  0
LINE
  5
30
100
AcDbEntity
  8
0
  6
HIDDEN
 62
   174
100
AcDbLine
 10
504.001762
 20
427.717816
 30
0.0
 11
504.001762
 21
439.867816
 31
0.0
  0
LINE
  5
31
100
AcDbEntity
  8
0
  6
HIDDEN
 62
   174
100
AcDbLine
 10
486.001762
 20
427.717816
 30
0.0
 11
486.001762
 21
439.867816
 31
0.0
  0
LINE
  5
32
100
AcDbEntity
  8
0
  6
HIDDEN
 62
   174
100
AcDbLine
 10
459.001762
 20
278.317816
 30
0.0
 11
459.001762
 21
266.167816
 31
0.0
  0
LINE
  5
33
100
AcDbEntity
  8
0
  6
HIDDEN
 62
   174
100
AcDbLine
 10
477.001762
 20
278.317816
 30
0.0
 11
477.001762
 21
266.167816
 31
0.0
  0
LINE
  5
34
100
AcDbEntity
  8
0
  6
HIDDEN
 62
   174
100
AcDbLine
 10
459.001762
 20
278.317816
 30
0.0
 11
459.001762
 21
266.167816
 31
0.0
  0
LINE
  5
35
100
AcDbEntity
  8
0
  6
HIDDEN
 62
   174
100
AcDbLine
 10
477.001762
 20
278.317816
 30
0.0
 11
477.001762
 21
266.167816
 31
0.0
  0
LINE
  5
36
100
AcDbEntity
  8
0
  6
HIDDEN
 62
   174
100
AcDbLine
 10
450.001762
 20
427.717816
 30
0.0
 11
450.001762
 21
439.867816
 31
0.0
  0
LINE
  5
37
100
AcDbEntity
  8
0
  6
HIDDEN
 62
   174
100
AcDbLine
 10
432.001762
 20
427.717816
 30
0.0
 11
432.001762
 21
439.867816
 31
0.0
  0
LINE
  5
38
100
AcDbEntity
  8
0
  6
HIDDEN
 62
   174
100
AcDbLine
 10
450.001762
 20
427.717816
 30
0.0
 11
450.001762
 21
439.867816
 31
0.0
  0
LINE
  5
39
100
AcDbEntity
  8
0
  6
HIDDEN
 62
   174
100
AcDbLine
 10
432.001762
 20
427.717816
 30
0.0
 11
432.001762
 21
439.867816
 31
0.0
  0
LINE
  5
3A
100
AcDbEntity
  8
0
  6
HIDDEN
 62
   174
100
AcDbLine
 10
503.97092
 20
439.867816
 30
0.0
 11
485.971937
 21
439.867816
 31
0.0
  0
LINE
  5
3B
100
AcDbEntity
  8
0
  6
HIDDEN
 62
   174
100
AcDbLine
 10
458.973463
 20
266.167816
 30
0.0
 11
476.972445
 21
266.167816
 31
0.0
  0
LINE
  5
3C
100
AcDbEntity
  8
0
  6
HIDDEN
 62
   174
100
AcDbLine
 10
449.973971
 20
427.717816
 30
0.0
 11
445.693483
 21
427.717816
 31
0.0
  0
LINE
  5
3D
100
AcDbEntity
  8
0
  6
HIDDEN
 62
   174
100
AcDbLine
 10
445.693483
 20
427.717816
 30
0.0
 11
445.247749
 21
427.717816
 31
0.0
  0
ARC
  5
3E
100
AcDbEntity
  8
0
  6
Continuous
 62
   174
100
AcDbCircle
 10
468.001762
 20
381.142816
 30
0.0
 40
7.425
100
AcDbArc
 50
0.0
 51
180.0
  0
ARC
  5
3F
100
AcDbEntity
  8
0
  6
Continuous
 62
   174
100
AcDbCircle
 10
439.876762
 20
324.892816
 30
0.0
 40
7.425
100
AcDbArc
 50
0.0
 51
180.0
  0
LINE
  5
40
100
AcDbEntity
  8
0
  6
Continuous
 62
   174
100
AcDbLine
 10
216.001762
 20
420.517816
 30
0.0
 11
216.001762
 21
402.517816
 31
0.0
  0
LINE
  5
41
100
AcDbEntity
  8
0
  6
Continuous
 62
   174
100
AcDbLine
 10
260.310937
 20
435.367816
 30
0.0
 11
259.190286
 21
435.367816
 31
0.0
  0
LINE
  5
42
100
AcDbEntity
  8
0
  6
HIDDEN
 62
   174
100
AcDbLine
 10
259.190286
 20
435.367816
 30
0.0
 11
258.377018
 21
435.367816
 31
0.0
  0
LINE
  5
43
100
AcDbEntity
  8
0
  6
HIDDEN
 62
   174
100
AcDbLine
 10
258.377018
 20
435.367816
 30
0.0
 11
251.986362
 21
435.367816
 31
0.0
  0
LINE
  5
44
100
AcDbEntity
  8
0
  6
Continuous
 62
   174
100
AcDbLine
 10
720.001762
 20
420.517816
 30
0.0
 11
720.001762
 21
402.517816
 31
0.0
  0
LINE
  5
45
100
AcDbEntity
  8
0
  6
Continuous
 62
   174
100
AcDbLine
 10
713.251762
 20
381.142816
 30
0.0
 11
713.251762
 21
380.017816
 31
0.0
  0
LINE
  5
46
100
AcDbEntity
  8
0
  6
HIDDEN
 62
   174
100
AcDbLine
 10
510.720689
 20
323.767816
 30
0.0
 11
533.219117
 21
323.767816
 31
0.0
  0
LINE
  5
47
100
AcDbEntity
  8
0
  6
HIDDEN
 62
   174
100
AcDbLine
 10
510.720689
 20
296.767816
 30
0.0
 11
533.219117
 21
296.767816
 31
0.0
  0
LINE
  5
48
100
AcDbEntity
  8
0
  6
HIDDEN
 62
   174
100
AcDbLine
 10
510.751762
 20
323.767816
 30
0.0
 11
510.751762
 21
296.767816
 31
0.0
  0
LINE
  5
49
100
AcDbEntity
  8
0
  6
Continuous
 62
   174
100
AcDbLine
 10
222.751762
 20
303.517816
 30
0.0
 11
222.751762
 21
304.642816
 31
0.0
  0
LINE
  5
4A
100
AcDbEntity
  8
0
  6
Continuous
 62
   174
100
AcDbLine
 10
342.001762
 20
303.517816
 30
0.0
 11
342.001762
 21
402.517816
 31
0.0
  0
LINE
  5
4B
100
AcDbEntity
  8
0
  6
Continuous
 62
   174
100
AcDbLine
 10
216.001762
 20
326.017816
 30
0.0
 11
222.751762
 21
326.017816
 31
0.0
  0
LINE
  5
4C
100
AcDbEntity
  8
0
  6
HIDDEN
 62
   174
100
AcDbLine
 10
402.727393
 20
296.767816
 30
0.0
 11
425.225821
 21
296.767816
 31
0.0
  0
LINE
  5
4D
100
AcDbEntity
  8
0
  6
HIDDEN
 62
   174
100
AcDbLine
 10
245.595707
 20
435.367816
 30
0.0
 11
244.782438
 21
435.367816
 31
0.0
  0
LINE
  5
4E
100
AcDbEntity
  8
0
  6
HIDDEN
 62
   174
100
AcDbLine
 10
251.986362
 20
435.367816
 30
0.0
 11
245.595707
 21
435.367816
 31
0.0
  0
LINE
  5
4F
100
AcDbEntity
  8
0
  6
HIDDEN
 62
   174
100
AcDbLine
 10
691.164072
 20
435.367816
 30
0.0
 11
690.350201
 21
435.367816
 31
0.0
  0
LINE
  5
50
100
AcDbEntity
  8
0
  6
HIDDEN
 62
   174
100
AcDbLine
 10
690.350201
 20
435.367816
 30
0.0
 11
683.960147
 21
435.367816
 31
0.0
  0
LINE
  5
51
100
AcDbEntity
  8
0
  6
HIDDEN
 62
   174
100
AcDbLine
 10
683.960147
 20
435.367816
 30
0.0
 11
690.034398
 21
435.367816
 31
0.0
  0
LINE
  5
52
100
AcDbEntity
  8
0
  6
HIDDEN
 62
   174
100
AcDbLine
 10
510.751762
 20
323.767816
 30
0.0
 11
510.751762
 21
296.767816
 31
0.0
  0
LINE
  5
53
100
AcDbEntity
  8
0
  6
HIDDEN
 62
   174
100
AcDbLine
 10
677.926762
 20
428.617816
 30
0.0
 11
677.926762
 21
435.367816
 31
0.0
  0
LINE
  5
54
100
AcDbEntity
  8
0
  6
Continuous
 62
   174
100
AcDbLine
 10
260.326762
 20
428.617816
 30
0.0
 11
260.326762
 21
435.367816
 31
0.0
  0
LINE
  5
55
100
AcDbEntity
  8
0
  6
HIDDEN
 62
   174
100
AcDbLine
 10
402.751762
 20
323.767816
 30
0.0
 11
402.751762
 21
296.767816
 31
0.0
  0
LINE
  5
56
100
AcDbEntity
  8
0
  6
HIDDEN
 62
   174
100
AcDbLine
 10
458.973463
 20
278.317816
 30
0.0
 11
463.254552
 21
278.317816
 31
0.0
  0
LINE
  5
57
100
AcDbEntity
  8
0
  6
HIDDEN
 62
   174
100
AcDbLine
 10
472.246224
 20
278.317816
 30
0.0
 11
472.691957
 21
278.317816
 31
0.0
  0
LINE
  5
58
100
AcDbEntity
  8
0
  6
HIDDEN
 62
   174
100
AcDbLine
 10
467.972954
 20
278.317816
 30
0.0
 11
472.246224
 21
278.317816
 31
0.0
  0
LINE
  5
59
100
AcDbEntity
  8
0
  6
HIDDEN
 62
   174
100
AcDbLine
 10
463.254552
 20
278.317816
 30
0.0
 11
463.700286
 21
278.317816
 31
0.0
  0
ARC
  5
5A
100
AcDbEntity
  8
0
  6
Continuous
 62
   174
100
AcDbCircle
 10
496.126762
 20
324.892816
 30
0.0
 40
7.425
100
AcDbArc
 50
-180.0
 51
0.0
  0
LINE
  5
5B
100
AcDbEntity
  8
0
  6
Continuous
 62
   174
100
AcDbLine
 10
713.251762
 20
303.517816
 30
0.0
 11
594.001762
 21
303.517816
 31
0.0
  0
LINE
  5
5C
100
AcDbEntity
  8
0
  6
Continuous
 62
   174
100
AcDbLine
 10
288.001762
 20
402.517816
 30
0.0
 11
288.001762
 21
420.517816
 31
0.0
  0
LINE
  5
5D
100
AcDbEntity
  8
0
  6
HIDDEN
 62
   174
100
AcDbLine
 10
512.551762
 20
296.767816
 30
0.0
 11
512.551762
 21
328.267816
 31
0.0
  0
LINE
  5
5E
100
AcDbEntity
  8
0
  6
Continuous
 62
   174
100
AcDbLine
 10
222.751762
 20
324.892816
 30
0.0
 11
222.751762
 21
326.017816
 31
0.0
  0
LINE
  5
5F
100
AcDbEntity
  8
0
  6
Continuous
 62
   174
100
AcDbLine
 10
648.001762
 20
402.517816
 30
0.0
 11
648.001762
 21
420.517816
 31
0.0
  0
LINE
  5
60
100
AcDbEntity
  8
0
  6
HIDDEN
 62
   174
100
AcDbLine
 10
490.253026
 20
427.717816
 30
0.0
 11
485.971937
 21
427.717816
 31
0.0
  0
LINE
  5
61
100
AcDbEntity
  8
0
  6
HIDDEN
 62
   174
100
AcDbLine
 10
490.69876
 20
427.717816
 30
0.0
 11
490.253026
 21
427.717816
 31
0.0
  0
LINE
  5
62
100
AcDbEntity
  8
0
  6
HIDDEN
 62
   174
100
AcDbLine
 10
494.971428
 20
427.717816
 30
0.0
 11
490.69876
 21
427.717816
 31
0.0
  0
LINE
  5
63
100
AcDbEntity
  8
0
  6
HIDDEN
 62
   174
100
AcDbLine
 10
499.244097
 20
427.717816
 30
0.0
 11
494.971428
 21
427.717816
 31
0.0
  0
ARC
  5
64
100
AcDbEntity
  8
0
  6
Continuous
 62
   174
100
AcDbCircle
 10
468.001762
 20
381.142816
 30
0.0
 40
7.425
100
AcDbArc
 50
-180.0
 51
0.0
  0
LINE
  5
65
100
AcDbEntity
  8
0
  6
Continuous
 62
   174
100
AcDbLine
 10
244.782438
 20
435.367816
 30
0.0
 11
243.661788
 21
435.367816
 31
0.0
  0
LINE
  5
66
100
AcDbEntity
  8
0
  6
Continuous
 62
   174
100
AcDbLine
 10
676.756223
 20
435.367816
 30
0.0
 11
675.635573
 21
435.367816
 31
0.0
  0
LINE
  5
67
100
AcDbEntity
  8
0
  6
HIDDEN
 62
   174
100
AcDbLine
 10
512.551762
 20
296.767816
 30
0.0
 11
512.551762
 21
328.267816
 31
0.0
  0
LINE
  5
68
100
AcDbEntity
  8
0
  6
HIDDEN
 62
   174
100
AcDbLine
 10
531.451762
 20
323.767816
 30
0.0
 11
531.451762
 21
296.767816
 31
0.0
  0
LINE
  5
69
100
AcDbEntity
  8
0
  6
HIDDEN
 62
   174
100
AcDbLine
 10
512.551762
 20
323.767816
 30
0.0
 11
512.551762
 21
296.767816
 31
0.0
  0
LINE
  5
6A
100
AcDbEntity
  8
0
  6
Continuous
 62
   174
100
AcDbLine
 10
720.001762
 20
402.517816
 30
0.0
 11
713.251762
 21
402.517816
 31
0.0
  0
LINE
  5
6B
100
AcDbEntity
  8
0
  6
HIDDEN
 62
   174
100
AcDbLine
 10
245.926762
 20
428.617816
 30
0.0
 11
245.926762
 21
435.367816
 31
0.0
  0
LINE
  5
6C
100
AcDbEntity
  8
0
  6
Continuous
 62
   174
100
AcDbLine
 10
222.751762
 20
304.642816
 30
0.0
 11
222.751762
 21
324.892816
 31
0.0
  0
LINE
  5
6D
100
AcDbEntity
  8
0
  6
HIDDEN
 62
   174
100
AcDbLine
 10
251.986362
 20
428.617816
 30
0.0
 11
245.912112
 21
428.617816
 31
0.0
  0
LINE
  5
6E
100
AcDbEntity
  8
0
  6
HIDDEN
 62
   174
100
AcDbLine
 10
258.061214
 20
428.617816
 30
0.0
 11
251.986362
 21
428.617816
 31
0.0
  0
LINE
  5
6F
100
AcDbEntity
  8
0
  6
HIDDEN
 62
   174
100
AcDbLine
 10
260.310937
 20
428.617816
 30
0.0
 11
251.986362
 21
428.617816
 31
0.0
  0
LINE
  5
70
100
AcDbEntity
  8
0
  6
HIDDEN
 62
   174
100
AcDbLine
 10
436.256078
 20
427.717816
 30
0.0
 11
431.97559
 21
427.717816
 31
0.0
  0
LINE
  5
71
100
AcDbEntity
  8
0
  6
HIDDEN
 62
   174
100
AcDbLine
 10
436.701812
 20
427.717816
 30
0.0
 11
436.256078
 21
427.717816
 31
0.0
  0
LINE
  5
72
100
AcDbEntity
  8
0
  6
HIDDEN
 62
   174
100
AcDbLine
 10
440.975081
 20
427.717816
 30
0.0
 11
436.701812
 21
427.717816
 31
0.0
  0
LINE
  5
73
100
AcDbEntity
  8
0
  6
HIDDEN
 62
   174
100
AcDbLine
 10
445.247749
 20
427.717816
 30
0.0
 11
440.975081
 21
427.717816
 31
0.0
  0
LINE
  5
74
100
AcDbEntity
  8
0
  6
Continuous
 62
   174
100
AcDbLine
 10
713.251762
 20
401.392816
 30
0.0
 11
713.251762
 21
381.142816
 31
0.0
  0
LINE
  5
75
100
AcDbEntity
  8
0
  6
HIDDEN
 62
   174
100
AcDbLine
 10
512.551762
 20
323.767816
 30
0.0
 11
512.551762
 21
296.767816
 31
0.0
  0
LINE
  5
76
100
AcDbEntity
  8
0
  6
HIDDEN
 62
   174
100
AcDbLine
 10
690.076762
 20
428.617816
 30
0.0
 11
690.076762
 21
435.367816
 31
0.0
  0
LINE
  5
77
100
AcDbEntity
  8
0
  6
Continuous
 62
   174
100
AcDbLine
 10
675.676762
 20
428.617816
 30
0.0
 11
675.676762
 21
435.367816
 31
0.0
  0
LINE
  5
78
100
AcDbEntity
  8
0
  6
HIDDEN
 62
   174
100
AcDbLine
 10
683.960147
 20
428.617816
 30
0.0
 11
677.885295
 21
428.617816
 31
0.0
  0
LINE
  5
79
100
AcDbEntity
  8
0
  6
HIDDEN
 62
   174
100
AcDbLine
 10
690.034398
 20
428.617816
 30
0.0
 11
683.960147
 21
428.617816
 31
0.0
  0
LINE
  5
7A
100
AcDbEntity
  8
0
  6
HIDDEN
 62
   174
100
AcDbLine
 10
683.960147
 20
428.617816
 30
0.0
 11
675.635573
 21
428.617816
 31
0.0
  0
LINE
  5
7B
100
AcDbEntity
  8
0
  6
HIDDEN
 62
   174
100
AcDbLine
 10
449.973971
 20
439.867816
 30
0.0
 11
431.97559
 21
439.867816
 31
0.0
  0
LINE
  5
7C
100
AcDbEntity
  8
0
  6
HIDDEN
 62
   174
100
AcDbLine
 10
503.97092
 20
427.717816
 30
0.0
 11
499.690432
 21
427.717816
 31
0.0
  0
LINE
  5
7D
100
AcDbEntity
  8
0
  6
HIDDEN
 62
   174
100
AcDbLine
 10
499.690432
 20
427.717816
 30
0.0
 11
499.244097
 21
427.717816
 31
0.0
  0
LINE
  5
7E
100
AcDbEntity
  8
0
  6
Continuous
 62
   174
100
AcDbLine
 10
692.284121
 20
435.367816
 30
0.0
 11
691.164072
 21
435.367816
 31
0.0
  0
LINE
  5
7F
100
AcDbEntity
  8
0
  6
HIDDEN
 62
   174
100
AcDbLine
 10
245.912112
 20
435.367816
 30
0.0
 11
251.986362
 21
435.367816
 31
0.0
  0
LINE
  5
80
100
AcDbEntity
  8
0
  6
Continuous
 62
   174
100
AcDbLine
 10
342.001762
 20
402.517816
 30
0.0
 11
288.001762
 21
402.517816
 31
0.0
  0
LINE
  5
81
100
AcDbEntity
  8
0
  6
HIDDEN
 62
   174
100
AcDbLine
 10
533.251762
 20
323.767816
 30
0.0
 11
533.251762
 21
296.767816
 31
0.0
  0
LINE
  5
82
100
AcDbEntity
  8
0
  6
Continuous
 62
   174
100
AcDbLine
 10
216.001762
 20
303.517816
 30
0.0
 11
222.751762
 21
303.517816
 31
0.0
  0
LINE
  5
83
100
AcDbEntity
  8
0
  6
HIDDEN
 62
   174
100
AcDbLine
 10
251.986362
 20
428.617816
 30
0.0
 11
243.661788
 21
428.617816
 31
0.0
  0
LINE
  5
84
100
AcDbEntity
  8
0
  6
HIDDEN
 62
   174
100
AcDbLine
 10
425.251762
 20
323.767816
 30
0.0
 11
425.251762
 21
296.767816
 31
0.0
  0
LINE
  5
85
100
AcDbEntity
  8
0
  6
HIDDEN
 62
   174
100
AcDbLine
 10
472.691957
 20
278.317816
 30
0.0
 11
476.972445
 21
278.317816
 31
0.0
  0
LINE
  5
86
100
AcDbEntity
  8
0
  6
HIDDEN
 62
   174
100
AcDbLine
 10
677.569492
 20
435.367816
 30
0.0
 11
676.756223
 21
435.367816
 31
0.0
  0
LINE
  5
87
100
AcDbEntity
  8
0
  6
HIDDEN
 62
   174
100
AcDbLine
 10
683.960147
 20
435.367816
 30
0.0
 11
677.569492
 21
435.367816
 31
0.0
  0
LINE
  5
88
100
AcDbEntity
  8
0
  6
HIDDEN
 62
   174
100
AcDbLine
 10
251.986362
 20
435.367816
 30
0.0
 11
258.061214
 21
435.367816
 31
0.0
  0
LINE
  5
89
100
AcDbEntity
  8
0
  6
HIDDEN
 62
   174
100
AcDbLine
 10
677.885295
 20
435.367816
 30
0.0
 11
683.960147
 21
435.367816
 31
0.0
  0
LINE
  5
8A
100
AcDbEntity
  8
0
  6
Continuous
 62
   174
100
AcDbLine
 10
720.001762
 20
380.017816
 30
0.0
 11
713.251762
 21
380.017816
 31
0.0
  0
LINE
  5
8B
100
AcDbEntity
  8
0
  6
Continuous
 62
   174
100
AcDbLine
 10
713.251762
 20
402.517816
 30
0.0
 11
713.251762
 21
401.392816
 31
0.0
  0
LINE
  5
8C
100
AcDbEntity
  8
0
  6
HIDDEN
 62
   174
100
AcDbLine
 10
533.251762
 20
323.767816
 30
0.0
 11
533.251762
 21
296.767816
 31
0.0
  0
LINE
  5
8D
100
AcDbEntity
  8
0
  6
HIDDEN
 62
   174
100
AcDbLine
 10
531.451762
 20
296.767816
 30
0.0
 11
531.451762
 21
328.267816
 31
0.0
  0
LINE
  5
8E
100
AcDbEntity
  8
0
  6
HIDDEN
 62
   174
100
AcDbLine
 10
258.076762
 20
428.617816
 30
0.0
 11
258.076762
 21
435.367816
 31
0.0
  0
LINE
  5
8F
100
AcDbEntity
  8
0
  6
Continuous
 62
   174
100
AcDbLine
 10
243.676762
 20
428.617816
 30
0.0
 11
243.676762
 21
435.367816
 31
0.0
  0
LINE
  5
90
100
AcDbEntity
  8
0
  6
Continuous
 62
   174
100
AcDbLine
 10
692.326762
 20
428.617816
 30
0.0
 11
692.326762
 21
435.367816
 31
0.0
  0
LINE
  5
91
100
AcDbEntity
  8
0
  6
HIDDEN
 62
   174
100
AcDbLine
 10
692.284121
 20
428.617816
 30
0.0
 11
683.960147
 21
428.617816
 31
0.0
  0
LINE
  5
92
100
AcDbEntity
  8
0
  6
HIDDEN
 62
   174
100
AcDbLine
 10
463.700286
 20
278.317816
 30
0.0
 11
467.972954
 21
278.317816
 31
0.0
  0
ARC
  5
93
100
AcDbEntity
  8
0
  6
Continuous
 62
   174
100
AcDbCircle
 10
439.876762
 20
324.892816
 30
0.0
 40
7.425
100
AcDbArc
 50
-180.0
 51
0.0
  0
ARC
  5
94
100
AcDbEntity
  8
0
  6
Continuous
 62
   174
100
AcDbCircle
 10
496.126762
 20
324.892816
 30
0.0
 40
7.425
100
AcDbArc
 50
0.0
 51
180.0
  0
LINE
  5
95
100
AcDbEntity
  8
0
  6
Continuous
 62
   174
100
AcDbLine
 10
222.751762
 20
303.517816
 30
0.0
 11
342.001762
 21
303.517816
 31
0.0
  0
LINE
  5
96
100
AcDbEntity
  8
0
  6
HIDDEN
 62
   174
100
AcDbLine
 10
531.451762
 20
296.767816
 30
0.0
 11
531.451762
 21
328.267816
 31
0.0
  0
LINE
  5
97
100
AcDbEntity
  8
0
  6
HIDDEN
 62
   174
100
AcDbLine
 10
531.451762
 20
323.767816
 30
0.0
 11
531.451762
 21
296.767816
 31
0.0
  0
LINE
  5
98
100
AcDbEntity
  8
0
  6
Continuous
 62
   174
100
AcDbLine
 10
288.001762
 20
420.517816
 30
0.0
 11
216.001762
 21
420.517816
 31
0.0
  0
LINE
  5
99
100
AcDbEntity
  8
0
  6
HIDDEN
 62
   174
100
AcDbLine
 10
512.520467
 20
328.267816
 30
0.0
 11
531.419339
 21
328.267816
 31
0.0
  0
LINE
  5
9A
100
AcDbEntity
  8
0
  6
Continuous
 62
   174
100
AcDbLine
 10
594.001762
 20
402.517816
 30
0.0
 11
648.001762
 21
402.517816
 31
0.0
  0
LINE
  5
9B
100
AcDbEntity
  8
0
  6
HIDDEN
 62
   174
100
AcDbLine
 10
404.551762
 20
323.767816
 30
0.0
 11
404.551762
 21
296.767816
 31
0.0
  0
LINE
  5
9C
100
AcDbEntity
  8
0
  6
HIDDEN
 62
   174
100
AcDbLine
 10
676.801762
 20
435.367816
 30
0.0
 11
676.801762
 21
457.867816
 31
0.0
  0
LINE
  5
9D
100
AcDbEntity
  8
0
  6
HIDDEN
 62
   174
100
AcDbLine
 10
504.001762
 20
409.267816
 30
0.0
 11
504.001762
 21
427.717816
 31
0.0
  0
LINE
  5
9E
100
AcDbEntity
  8
0
  6
HIDDEN
 62
   174
100
AcDbLine
 10
472.669701
 20
278.317816
 30
0.0
 11
476.972445
 21
278.317816
 31
0.0
  0
LINE
  5
9F
100
AcDbEntity
  8
0
  6
Continuous
 62
   174
100
AcDbLine
 10
222.751762
 20
401.392816
 30
0.0
 11
222.751762
 21
381.142816
 31
0.0
  0
ARC
  5
A0
100
AcDbEntity
  8
0
  6
Continuous
 62
   174
100
AcDbCircle
 10
216.001762
 20
383.392816
 30
0.0
 40
2.25
100
AcDbArc
 50
180.0
 51
225.0
  0
LINE
  5
A1
100
AcDbEntity
  8
0
  6
Continuous
 62
   174
100
AcDbLine
 10
508.58646
 20
427.717816
 30
0.0
 11
504.044307
 21
427.717816
 31
0.0
  0
LINE
  5
A2
100
AcDbEntity
  8
0
  6
HIDDEN
 62
   174
100
AcDbLine
 10
720.001762
 20
402.517816
 30
0.0
 11
713.251762
 21
402.517816
 31
0.0
  0
LINE
  5
A3
100
AcDbEntity
  8
0
  6
HIDDEN
 62
   174
100
AcDbLine
 10
720.001762
 20
304.642816
 30
0.0
 11
720.001762
 21
314.767816
 31
0.0
  0
LINE
  5
A4
100
AcDbEntity
  8
0
  6
Continuous
 62
   174
100
AcDbLine
 10
418.501762
 20
409.267816
 30
0.0
 11
418.501762
 21
427.717816
 31
0.0
  0
LINE
  5
A5
100
AcDbEntity
  8
0
  6
Continuous
 62
   174
100
AcDbLine
 10
243.121614
 20
428.617816
 30
0.0
 11
240.737148
 21
428.617816
 31
0.0
  0
LINE
  5
A6
100
AcDbEntity
  8
0
  6
HIDDEN
 62
   174
100
AcDbLine
 10
440.975081
 20
427.717816
 30
0.0
 11
436.683164
 21
427.717816
 31
0.0
  0
ARC
  5
A7
100
AcDbEntity
  8
0
  6
Continuous
 62
   174
100
AcDbCircle
 10
216.001762
 20
306.892816
 30
0.0
 40
2.25
100
AcDbArc
 50
180.0
 51
225.0
  0
LINE
  5
A8
100
AcDbEntity
  8
0
  6
HIDDEN
 62
   174
100
AcDbLine
 10
259.201762
 20
420.517816
 30
0.0
 11
259.201762
 21
428.617816
 31
0.0
  0
LINE
  5
A9
100
AcDbEntity
  8
0
  6
Continuous
 62
   174
100
AcDbLine
 10
722.251762
 20
306.981249
 30
0.0
 11
722.251762
 21
322.73051
 31
0.0
  0
LINE
  5
AA
100
AcDbEntity
  8
0
  6
HIDDEN
 62
   174
100
AcDbLine
 10
263.235576
 20
420.517816
 30
0.0
 11
251.986362
 21
420.517816
 31
0.0
  0
LINE
  5
AB
100
AcDbEntity
  8
0
  6
HIDDEN
 62
   174
100
AcDbLine
 10
350.980167
 20
402.517816
 30
0.0
 11
368.97915
 21
402.517816
 31
0.0
  0
LINE
  5
AC
100
AcDbEntity
  8
0
  6
HIDDEN
 62
   174
100
AcDbLine
 10
467.972954
 20
278.317816
 30
0.0
 11
472.264871
 21
278.317816
 31
0.0
  0
LINE
  5
AD
100
AcDbEntity
  8
0
  6
Continuous
 62
   174
100
AcDbLine
 10
216.001762
 20
401.392816
 30
0.0
 11
222.751762
 21
401.392816
 31
0.0
  0
LINE
  5
AE
100
AcDbEntity
  8
0
  6
HIDDEN
 62
   174
100
AcDbLine
 10
720.001762
 20
381.142816
 30
0.0
 11
713.251762
 21
381.142816
 31
0.0
  0
LINE
  5
AF
100
AcDbEntity
  8
0
  6
Continuous
 62
   174
100
AcDbLine
 10
720.001762
 20
304.731527
 30
0.0
 11
720.001762
 21
314.856481
 31
0.0
  0
LINE
  5
B0
100
AcDbEntity
  8
0
  6
HIDDEN
 62
   174
100
AcDbLine
 10
454.474018
 20
427.717816
 30
0.0
 11
451.081388
 21
427.717816
 31
0.0
  0
LINE
  5
B1
100
AcDbEntity
  8
0
  6
Continuous
 62
   174
100
AcDbLine
 10
713.251762
 20
304.642816
 30
0.0
 11
713.251762
 21
324.892816
 31
0.0
  0
LINE
  5
B2
100
AcDbEntity
  8
0
  6
Continuous
 62
   174
100
AcDbLine
 10
648.001762
 20
420.517816
 30
0.0
 11
720.001762
 21
420.517816
 31
0.0
  0
LINE
  5
B3
100
AcDbEntity
  8
0
  6
Continuous
 62
   174
100
AcDbLine
 10
342.001762
 20
303.517816
 30
0.0
 11
342.001762
 21
402.517816
 31
0.0
  0
ARC
  5
B4
100
AcDbEntity
  8
0
  6
Continuous
 62
   174
100
AcDbCircle
 10
720.001762
 20
383.392816
 30
0.0
 40
2.25
100
AcDbArc
 50
-90.0
 51
0.0
  0
LINE
  5
B5
100
AcDbEntity
  8
0
  6
HIDDEN
 62
   174
100
AcDbLine
 10
720.001762
 20
381.228106
 30
0.0
 11
720.001762
 21
401.476812
 31
0.0
  0
LINE
  5
B6
100
AcDbEntity
  8
0
  6
HIDDEN
 62
   174
100
AcDbLine
 10
440.975081
 20
409.267816
 30
0.0
 11
449.973971
 21
409.267816
 31
0.0
  0
LINE
  5
B7
100
AcDbEntity
  8
0
  6
HIDDEN
 62
   174
100
AcDbLine
 10
691.201762
 20
420.517816
 30
0.0
 11
691.201762
 21
428.617816
 31
0.0
  0
LINE
  5
B8
100
AcDbEntity
  8
0
  6
Continuous
 62
   174
100
AcDbLine
 10
664.651762
 20
468.667816
 30
0.0
 11
668.251762
 21
468.667816
 31
0.0
  0
LINE
  5
B9
100
AcDbEntity
  8
0
  6
Continuous
 62
   174
100
AcDbLine
 10
480.206271
 20
433.117816
 30
0.0
 11
472.473001
 21
433.117816
 31
0.0
  0
LINE
  5
BA
100
AcDbEntity
  8
0
  6
HIDDEN
 62
   174
100
AcDbLine
 10
713.251762
 20
304.731527
 30
0.0
 11
713.251762
 21
324.980232
 31
0.0
  0
LINE
  5
BB
100
AcDbEntity
  8
0
  6
Continuous
 62
   174
100
AcDbLine
 10
672.751762
 20
420.517816
 30
0.0
 11
672.751762
 21
428.617816
 31
0.0
  0
LINE
  5
BC
100
AcDbEntity
  8
0
  6
HIDDEN
 62
   174
100
AcDbLine
 10
216.001762
 20
314.842044
 30
0.0
 11
216.001762
 21
304.731527
 31
0.0
  0
LINE
  5
BD
100
AcDbEntity
  8
0
  6
HIDDEN
 62
   174
100
AcDbLine
 10
713.251762
 20
380.102644
 30
0.0
 11
713.251762
 21
391.352459
 31
0.0
  0
LINE
  5
BE
100
AcDbEntity
  8
0
  6
HIDDEN
 62
   174
100
AcDbLine
 10
463.681638
 20
278.317816
 30
0.0
 11
467.972954
 21
278.317816
 31
0.0
  0
LINE
  5
BF
100
AcDbEntity
  8
0
  6
Continuous
 62
   174
100
AcDbLine
 10
216.001762
 20
324.892816
 30
0.0
 11
222.751762
 21
324.892816
 31
0.0
  0
LINE
  5
C0
100
AcDbEntity
  8
0
  6
HIDDEN
 62
   174
100
AcDbLine
 10
259.201762
 20
428.617816
 30
0.0
 11
259.201762
 21
435.367816
 31
0.0
  0
LINE
  5
C1
100
AcDbEntity
  8
0
  6
Continuous
 62
   174
100
AcDbLine
 10
676.801762
 20
457.867816
 30
0.0
 11
691.201762
 21
457.867816
 31
0.0
  0
LINE
  5
C2
100
AcDbEntity
  8
0
  6
HIDDEN
 62
   174
100
AcDbLine
 10
720.001762
 20
326.017816
 30
0.0
 11
713.251762
 21
326.017816
 31
0.0
  0
LINE
  5
C3
100
AcDbEntity
  8
0
  6
Continuous
 62
   174
100
AcDbLine
 10
458.900677
 20
278.317816
 30
0.0
 11
467.972954
 21
278.317816
 31
0.0
  0
LINE
  5
C4
100
AcDbEntity
  8
0
  6
Continuous
 62
   174
100
AcDbLine
 10
216.001762
 20
380.102644
 30
0.0
 11
216.001762
 21
380.544167
 31
0.0
  0
LINE
  5
C5
100
AcDbEntity
  8
0
  6
Continuous
 62
   174
100
AcDbLine
 10
455.740238
 20
433.117816
 30
0.0
 11
426.209322
 21
433.117816
 31
0.0
  0
LINE
  5
C6
100
AcDbEntity
  8
0
  6
Continuous
 62
   174
100
AcDbLine
 10
222.751762
 20
381.142816
 30
0.0
 11
222.751762
 21
380.017816
 31
0.0
  0
LINE
  5
C7
100
AcDbEntity
  8
0
  6
Continuous
 62
   174
100
AcDbLine
 10
720.001762
 20
304.642816
 30
0.0
 11
713.251762
 21
304.642816
 31
0.0
  0
LINE
  5
C8
100
AcDbEntity
  8
0
  6
HIDDEN
 62
   174
100
AcDbLine
 10
216.001762
 20
304.642816
 30
0.0
 11
222.751762
 21
304.642816
 31
0.0
  0
LINE
  5
C9
100
AcDbEntity
  8
0
  6
Continuous
 62
   174
100
AcDbLine
 10
463.473509
 20
427.717816
 30
0.0
 11
454.589511
 21
427.717816
 31
0.0
  0
LINE
  5
CA
100
AcDbEntity
  8
0
  6
Continuous
 62
   174
100
AcDbLine
 10
692.824896
 20
428.617816
 30
0.0
 11
691.993582
 21
428.617816
 31
0.0
  0
LINE
  5
CB
100
AcDbEntity
  8
0
  6
HIDDEN
 62
   174
100
AcDbLine
 10
436.278334
 20
427.717816
 30
0.0
 11
431.97559
 21
427.717816
 31
0.0
  0
LINE
  5
CC
100
AcDbEntity
  8
0
  6
Continuous
 62
   174
100
AcDbLine
 10
481.501762
 20
427.717816
 30
0.0
 11
481.501762
 21
433.117816
 31
0.0
  0
LINE
  5
CD
100
AcDbEntity
  8
0
  6
Continuous
 62
   174
100
AcDbLine
 10
378.001762
 20
409.267816
 30
0.0
 11
378.001762
 21
402.517816
 31
0.0
  0
LINE
  5
CE
100
AcDbEntity
  8
0
  6
HIDDEN
 62
   174
100
AcDbLine
 10
440.975081
 20
409.267816
 30
0.0
 11
431.902203
 21
409.267816
 31
0.0
  0
LINE
  5
CF
100
AcDbEntity
  8
0
  6
Continuous
 62
   174
100
AcDbLine
 10
517.469856
 20
427.717816
 30
0.0
 11
508.58646
 21
427.717816
 31
0.0
  0
LINE
  5
D0
100
AcDbEntity
  8
0
  6
Continuous
 62
   174
100
AcDbLine
 10
720.001762
 20
402.601673
 30
0.0
 11
720.001762
 21
402.160752
 31
0.0
  0
LINE
  5
D1
100
AcDbEntity
  8
0
  6
HIDDEN
 62
   174
100
AcDbLine
 10
450.001762
 20
409.267816
 30
0.0
 11
450.001762
 21
427.717816
 31
0.0
  0
LINE
  5
D2
100
AcDbEntity
  8
0
  6
Continuous
 62
   174
100
AcDbLine
 10
267.751762
 20
468.667816
 30
0.0
 11
271.351762
 21
468.667816
 31
0.0
  0
LINE
  5
D3
100
AcDbEntity
  8
0
  6
HIDDEN
 62
   174
100
AcDbLine
 10
664.651762
 20
420.517816
 30
0.0
 11
668.251762
 21
420.517816
 31
0.0
  0
ARC
  5
D4
100
AcDbEntity
  8
0
  6
HIDDEN
 62
   174
100
AcDbCircle
 10
720.001762
 20
399.142816
 30
0.0
 40
2.25
100
AcDbArc
 50
0.0
 51
90.0
  0
LINE
  5
D5
100
AcDbEntity
  8
0
  6
Continuous
 62
   174
100
AcDbLine
 10
450.047358
 20
427.717816
 30
0.0
 11
440.975081
 21
427.717816
 31
0.0
  0
LINE
  5
D6
100
AcDbEntity
  8
0
  6
Continuous
 62
   174
100
AcDbLine
 10
243.952327
 20
428.617816
 30
0.0
 11
243.121614
 21
428.617816
 31
0.0
  0
LINE
  5
D7
100
AcDbEntity
  8
0
  6
HIDDEN
 62
   174
100
AcDbLine
 10
457.866046
 20
278.317816
 30
0.0
 11
467.972954
 21
278.317816
 31
0.0
  0
ARC
  5
D8
100
AcDbEntity
  8
0
  6
Continuous
 62
   174
100
AcDbCircle
 10
216.001762
 20
399.142816
 30
0.0
 40
2.25
100
AcDbArc
 50
-270.0
 51
-180.0
  0
ARC
  5
D9
100
AcDbEntity
  8
0
  6
Continuous
 62
   174
100
AcDbCircle
 10
216.001762
 20
322.642816
 30
0.0
 40
2.25
100
AcDbArc
 50
-270.0
 51
-180.0
  0
LINE
  5
DA
100
AcDbEntity
  8
0
  6
HIDDEN
 62
   174
100
AcDbLine
 10
720.001762
 20
380.017816
 30
0.0
 11
713.251762
 21
380.017816
 31
0.0
  0
LINE
  5
DB
100
AcDbEntity
  8
0
  6
HIDDEN
 62
   174
100
AcDbLine
 10
222.751762
 20
326.105695
 30
0.0
 11
222.751762
 21
314.85588
 31
0.0
  0
LINE
  5
DC
100
AcDbEntity
  8
0
  6
HIDDEN
 62
   174
100
AcDbLine
 10
566.96736
 20
402.517816
 30
0.0
 11
584.965741
 21
402.517816
 31
0.0
  0
LINE
  5
DD
100
AcDbEntity
  8
0
  6
Continuous
 62
   174
100
AcDbLine
 10
472.501762
 20
433.117816
 30
0.0
 11
472.501762
 21
439.867816
 31
0.0
  0
LINE
  5
DE
100
AcDbEntity
  8
0
  6
HIDDEN
 62
   174
100
AcDbLine
 10
490.680113
 20
427.717816
 30
0.0
 11
490.274682
 21
427.717816
 31
0.0
  0
LINE
  5
DF
100
AcDbEntity
  8
0
  6
HIDDEN
 62
   174
100
AcDbLine
 10
445.266397
 20
427.717816
 30
0.0
 11
440.975081
 21
427.717816
 31
0.0
  0
LINE
  5
E0
100
AcDbEntity
  8
0
  6
Continuous
 62
   174
100
AcDbLine
 10
454.501762
 20
278.317816
 30
0.0
 11
454.501762
 21
272.917816
 31
0.0
  0
LINE
  5
E1
100
AcDbEntity
  8
0
  6
Continuous
 62
   174
100
AcDbLine
 10
713.251762
 20
324.892816
 30
0.0
 11
713.251762
 21
326.017816
 31
0.0
  0
LINE
  5
E2
100
AcDbEntity
  8
0
  6
HIDDEN
 62
   174
100
AcDbLine
 10
713.251762
 20
381.228106
 30
0.0
 11
713.251762
 21
401.476812
 31
0.0
  0
ARC
  5
E3
100
AcDbEntity
  8
0
  6
Continuous
 62
   174
100
AcDbCircle
 10
216.001762
 20
322.642816
 30
0.0
 40
2.25
100
AcDbArc
 50
-270.0
 51
-180.0
  0
ARC
  5
E4
100
AcDbEntity
  8
0
  6
Continuous
 62
   174
100
AcDbCircle
 10
720.001762
 20
322.642816
 30
0.0
 40
2.25
100
AcDbArc
 50
0.0
 51
90.0
  0
LINE
  5
E5
100
AcDbEntity
  8
0
  6
HIDDEN
 62
   174
100
AcDbLine
 10
216.001762
 20
381.142816
 30
0.0
 11
222.751762
 21
381.142816
 31
0.0
  0
LINE
  5
E6
100
AcDbEntity
  8
0
  6
Continuous
 62
   174
100
AcDbLine
 10
720.001762
 20
391.366294
 30
0.0
 11
720.001762
 21
401.476812
 31
0.0
  0
ARC
  5
E7
100
AcDbEntity
  8
0
  6
Continuous
 62
   174
100
AcDbCircle
 10
720.001762
 20
399.142816
 30
0.0
 40
2.25
100
AcDbArc
 50
0.0
 51
90.0
  0
LINE
  5
E8
100
AcDbEntity
  8
0
  6
HIDDEN
 62
   174
100
AcDbLine
 10
720.001762
 20
381.142816
 30
0.0
 11
713.251762
 21
381.142816
 31
0.0
  0
LINE
  5
E9
100
AcDbEntity
  8
0
  6
HIDDEN
 62
   174
100
AcDbLine
 10
476.972445
 20
296.767816
 30
0.0
 11
467.972954
 21
296.767816
 31
0.0
  0
LINE
  5
EA
100
AcDbEntity
  8
0
  6
HIDDEN
 62
   174
100
AcDbLine
 10
251.986362
 20
428.617816
 30
0.0
 11
243.952327
 21
428.617816
 31
0.0
  0
LINE
  5
EB
100
AcDbEntity
  8
0
  6
HIDDEN
 62
   174
100
AcDbLine
 10
584.965741
 20
402.067816
 30
0.0
 11
566.96736
 21
402.067816
 31
0.0
  0
LINE
  5
EC
100
AcDbEntity
  8
0
  6
Continuous
 62
   174
100
AcDbLine
 10
508.501762
 20
427.717816
 30
0.0
 11
508.501762
 21
433.117816
 31
0.0
  0
LINE
  5
ED
100
AcDbEntity
  8
0
  6
Continuous
 62
   174
100
AcDbLine
 10
216.001762
 20
402.517816
 30
0.0
 11
222.751762
 21
402.517816
 31
0.0
  0
LINE
  5
EE
100
AcDbEntity
  8
0
  6
HIDDEN
 62
   174
100
AcDbLine
 10
722.251762
 20
383.477829
 30
0.0
 11
722.251762
 21
399.227089
 31
0.0
  0
LINE
  5
EF
100
AcDbEntity
  8
0
  6
HIDDEN
 62
   174
100
AcDbLine
 10
216.001762
 20
324.980232
 30
0.0
 11
216.001762
 21
314.842044
 31
0.0
  0
LINE
  5
F0
100
AcDbEntity
  8
0
  6
HIDDEN
 62
   174
100
AcDbLine
 10
676.801762
 20
428.617816
 30
0.0
 11
676.801762
 21
435.367816
 31
0.0
  0
LINE
  5
F1
100
AcDbEntity
  8
0
  6
HIDDEN
 62
   174
100
AcDbLine
 10
695.209361
 20
420.517816
 30
0.0
 11
683.960147
 21
420.517816
 31
0.0
  0
LINE
  5
F2
100
AcDbEntity
  8
0
  6
HIDDEN
 62
   174
100
AcDbLine
 10
459.001762
 20
296.767816
 30
0.0
 11
459.001762
 21
278.317816
 31
0.0
  0
LINE
  5
F3
100
AcDbEntity
  8
0
  6
Continuous
 62
   174
100
AcDbLine
 10
517.501762
 20
433.117816
 30
0.0
 11
517.501762
 21
439.867816
 31
0.0
  0
LINE
  5
F4
100
AcDbEntity
  8
0
  6
Continuous
 62
   174
100
AcDbLine
 10
695.251762
 20
420.517816
 30
0.0
 11
695.251762
 21
428.617816
 31
0.0
  0
LINE
  5
F5
100
AcDbEntity
  8
0
  6
HIDDEN
 62
   174
100
AcDbLine
 10
369.001762
 20
402.517816
 30
0.0
 11
369.001762
 21
402.067816
 31
0.0
  0
LINE
  5
F6
100
AcDbEntity
  8
0
  6
Continuous
 62
   174
100
AcDbLine
 10
454.501762
 20
278.317816
 30
0.0
 11
454.501762
 21
272.917816
 31
0.0
  0
LINE
  5
F7
100
AcDbEntity
  8
0
  6
Continuous
 62
   174
100
AcDbLine
 10
463.473509
 20
433.117816
 30
0.0
 11
455.740238
 21
433.117816
 31
0.0
  0
LINE
  5
F8
100
AcDbEntity
  8
0
  6
HIDDEN
 62
   174
100
AcDbLine
 10
423.451762
 20
296.767816
 30
0.0
 11
423.451762
 21
328.267816
 31
0.0
  0
LINE
  5
F9
100
AcDbEntity
  8
0
  6
Continuous
 62
   174
100
AcDbLine
 10
378.001762
 20
303.517816
 30
0.0
 11
378.001762
 21
402.517816
 31
0.0
  0
LINE
  5
FA
100
AcDbEntity
  8
0
  6
Continuous
 62
   174
100
AcDbLine
 10
216.001762
 20
304.642816
 30
0.0
 11
222.751762
 21
304.642816
 31
0.0
  0
LINE
  5
FB
100
AcDbEntity
  8
0
  6
Continuous
 62
   174
100
AcDbLine
 10
691.201762
 20
420.517816
 30
0.0
 11
691.201762
 21
457.867816
 31
0.0
  0
LINE
  5
FC
100
AcDbEntity
  8
0
  6
HIDDEN
 62
   174
100
AcDbLine
 10
517.469856
 20
409.267816
 30
0.0
 11
504.044307
 21
409.267816
 31
0.0
  0
LINE
  5
FD
100
AcDbEntity
  8
0
  6
HIDDEN
 62
   174
100
AcDbLine
 10
720.001762
 20
402.517816
 30
0.0
 11
713.251762
 21
402.517816
 31
0.0
  0
LINE
  5
FE
100
AcDbEntity
  8
0
  6
Continuous
 62
   174
100
AcDbLine
 10
695.209361
 20
428.617816
 30
0.0
 11
692.824896
 21
428.617816
 31
0.0
  0
LINE
  5
FF
100
AcDbEntity
  8
0
  6
HIDDEN
 62
   174
100
AcDbLine
 10
267.751762
 20
420.517816
 30
0.0
 11
271.351762
 21
420.517816
 31
0.0
  0
ARC
  5
100
100
AcDbEntity
  8
0
  6
HIDDEN
 62
   174
100
AcDbCircle
 10
720.001762
 20
399.142816
 30
0.0
 40
2.25
100
AcDbArc
 50
0.0
 51
90.0
  0
LINE
  5
101
100
AcDbEntity
  8
0
  6
Continuous
 62
   174
100
AcDbLine
 10
720.001762
 20
324.892816
 30
0.0
 11
713.251762
 21
324.892816
 31
0.0
  0
LINE
  5
102
100
AcDbEntity
  8
0
  6
HIDDEN
 62
   174
100
AcDbLine
 10
720.001762
 20
401.392816
 30
0.0
 11
713.251762
 21
401.392816
 31
0.0
  0
LINE
  5
103
100
AcDbEntity
  8
0
  6
Continuous
 62
   174
100
AcDbLine
 10
427.360049
 20
427.717816
 30
0.0
 11
418.476052
 21
427.717816
 31
0.0
  0
LINE
  5
104
100
AcDbEntity
  8
0
  6
Continuous
 62
   174
100
AcDbLine
 10
463.501762
 20
433.117816
 30
0.0
 11
463.501762
 21
439.867816
 31
0.0
  0
LINE
  5
105
100
AcDbEntity
  8
0
  6
Continuous
 62
   174
100
AcDbLine
 10
342.001762
 20
303.517816
 30
0.0
 11
378.001762
 21
303.517816
 31
0.0
  0
LINE
  5
106
100
AcDbEntity
  8
0
  6
Continuous
 62
   174
100
AcDbLine
 10
240.751762
 20
420.517816
 30
0.0
 11
240.751762
 21
428.617816
 31
0.0
  0
LINE
  5
107
100
AcDbEntity
  8
0
  6
HIDDEN
 62
   174
100
AcDbLine
 10
722.251762
 20
383.477829
 30
0.0
 11
722.251762
 21
399.227089
 31
0.0
  0
LINE
  5
108
100
AcDbEntity
  8
0
  6
HIDDEN
 62
   174
100
AcDbLine
 10
676.801762
 20
420.517816
 30
0.0
 11
676.801762
 21
428.617816
 31
0.0
  0
LINE
  5
109
100
AcDbEntity
  8
0
  6
HIDDEN
 62
   174
100
AcDbLine
 10
477.001762
 20
296.767816
 30
0.0
 11
477.001762
 21
278.317816
 31
0.0
  0
LINE
  5
10A
100
AcDbEntity
  8
0
  6
HIDDEN
 62
   174
100
AcDbLine
 10
454.474018
 20
278.317816
 30
0.0
 11
457.866046
 21
278.317816
 31
0.0
  0
LINE
  5
10B
100
AcDbEntity
  8
0
  6
HIDDEN
 62
   174
100
AcDbLine
 10
222.751762
 20
401.476812
 30
0.0
 11
222.751762
 21
381.228106
 31
0.0
  0
ARC
  5
10C
100
AcDbEntity
  8
0
  6
HIDDEN
 62
   174
100
AcDbCircle
 10
216.001762
 20
383.392816
 30
0.0
 40
2.25
100
AcDbArc
 50
225.0
 51
270.0
  0
LINE
  5
10D
100
AcDbEntity
  8
0
  6
HIDDEN
 62
   174
100
AcDbLine
 10
494.971428
 20
409.267816
 30
0.0
 11
485.89855
 21
409.267816
 31
0.0
  0
LINE
  5
10E
100
AcDbEntity
  8
0
  6
Continuous
 62
   174
100
AcDbLine
 10
378.001762
 20
402.517816
 30
0.0
 11
378.001762
 21
303.517816
 31
0.0
  0
ARC
  5
10F
100
AcDbEntity
  8
0
  6
Continuous
 62
   174
100
AcDbCircle
 10
216.001762
 20
383.392816
 30
0.0
 40
2.25
100
AcDbArc
 50
225.0
 51
270.0
  0
ARC
  5
110
100
AcDbEntity
  8
0
  6
HIDDEN
 62
   174
100
AcDbCircle
 10
720.001762
 20
322.642816
 30
0.0
 40
2.25
100
AcDbArc
 50
0.0
 51
90.0
  0
LINE
  5
111
100
AcDbEntity
  8
0
  6
HIDDEN
 62
   174
100
AcDbLine
 10
267.751762
 20
460.792816
 30
0.0
 11
271.351762
 21
460.792816
 31
0.0
  0
LINE
  5
112
100
AcDbEntity
  8
0
  6
Continuous
 62
   174
100
AcDbLine
 10
216.001762
 20
391.338022
 30
0.0
 11
216.001762
 21
381.228106
 31
0.0
  0
LINE
  5
113
100
AcDbEntity
  8
0
  6
HIDDEN
 62
   174
100
AcDbLine
 10
216.001762
 20
314.767816
 30
0.0
 11
222.751762
 21
314.767816
 31
0.0
  0
LINE
  5
114
100
AcDbEntity
  8
0
  6
Continuous
 62
   174
100
AcDbLine
 10
481.356998
 20
427.717816
 30
0.0
 11
472.473001
 21
427.717816
 31
0.0
  0
LINE
  5
115
100
AcDbEntity
  8
0
  6
Continuous
 62
   174
100
AcDbLine
 10
454.358524
 20
278.317816
 30
0.0
 11
458.900677
 21
278.317816
 31
0.0
  0
LINE
  5
116
100
AcDbEntity
  8
0
  6
HIDDEN
 62
   174
100
AcDbLine
 10
720.001762
 20
380.017816
 30
0.0
 11
713.251762
 21
380.017816
 31
0.0
  0
LINE
  5
117
100
AcDbEntity
  8
0
  6
HIDDEN
 62
   174
100
AcDbLine
 10
683.960147
 20
420.517816
 30
0.0
 11
672.710332
 21
420.517816
 31
0.0
  0
LINE
  5
118
100
AcDbEntity
  8
0
  6
Continuous
 62
   174
100
AcDbLine
 10
509.736586
 20
433.117816
 30
0.0
 11
480.206271
 21
433.117816
 31
0.0
  0
LINE
  5
119
100
AcDbEntity
  8
0
  6
HIDDEN
 62
   174
100
AcDbLine
 10
402.727393
 20
323.767816
 30
0.0
 11
425.225821
 21
323.767816
 31
0.0
  0
LINE
  5
11A
100
AcDbEntity
  8
0
  6
HIDDEN
 62
   174
100
AcDbLine
 10
404.551762
 20
296.767816
 30
0.0
 11
404.551762
 21
328.267816
 31
0.0
  0
LINE
  5
11B
100
AcDbEntity
  8
0
  6
HIDDEN
 62
   174
100
AcDbLine
 10
216.001762
 20
324.980232
 30
0.0
 11
216.001762
 21
304.731527
 31
0.0
  0
LINE
  5
11C
100
AcDbEntity
  8
0
  6
Continuous
 62
   174
100
AcDbLine
 10
720.001762
 20
381.228106
 30
0.0
 11
720.001762
 21
391.366294
 31
0.0
  0
LINE
  5
11D
100
AcDbEntity
  8
0
  6
HIDDEN
 62
   174
100
AcDbLine
 10
720.001762
 20
314.767816
 30
0.0
 11
713.251762
 21
314.767816
 31
0.0
  0
LINE
  5
11E
100
AcDbEntity
  8
0
  6
HIDDEN
 62
   174
100
AcDbLine
 10
216.001762
 20
391.352459
 30
0.0
 11
216.001762
 21
402.157142
 31
0.0
  0
LINE
  5
11F
100
AcDbEntity
  8
0
  6
HIDDEN
 62
   174
100
AcDbLine
 10
720.001762
 20
326.017816
 30
0.0
 11
713.251762
 21
326.017816
 31
0.0
  0
LINE
  5
120
100
AcDbEntity
  8
0
  6
HIDDEN
 62
   174
100
AcDbLine
 10
216.001762
 20
391.338022
 30
0.0
 11
216.001762
 21
381.228106
 31
0.0
  0
LINE
  5
121
100
AcDbEntity
  8
0
  6
Continuous
 62
   174
100
AcDbLine
 10
720.001762
 20
380.547776
 30
0.0
 11
720.001762
 21
380.102644
 31
0.0
  0
LINE
  5
122
100
AcDbEntity
  8
0
  6
HIDDEN
 62
   174
100
AcDbLine
 10
260.020398
 20
428.617816
 30
0.0
 11
251.986362
 21
428.617816
 31
0.0
  0
LINE
  5
123
100
AcDbEntity
  8
0
  6
Continuous
 62
   174
100
AcDbLine
 10
427.501762
 20
427.717816
 30
0.0
 11
427.501762
 21
433.117816
 31
0.0
  0
LINE
  5
124
100
AcDbEntity
  8
0
  6
HIDDEN
 62
   174
100
AcDbLine
 10
244.801762
 20
420.517816
 30
0.0
 11
259.201762
 21
420.517816
 31
0.0
  0
LINE
  5
125
100
AcDbEntity
  8
0
  6
Continuous
 62
   174
100
AcDbLine
 10
216.001762
 20
402.157142
 30
0.0
 11
216.001762
 21
402.601673
 31
0.0
  0
LINE
  5
126
100
AcDbEntity
  8
0
  6
HIDDEN
 62
   174
100
AcDbLine
 10
486.001762
 20
409.267816
 30
0.0
 11
486.001762
 21
427.717816
 31
0.0
  0
LINE
  5
127
100
AcDbEntity
  8
0
  6
Continuous
 62
   174
100
AcDbLine
 10
431.682645
 20
439.867816
 30
0.0
 11
418.476052
 21
439.867816
 31
0.0
  0
LINE
  5
128
100
AcDbEntity
  8
0
  6
Continuous
 62
   174
100
AcDbLine
 10
720.001762
 20
303.517816
 30
0.0
 11
713.251762
 21
303.517816
 31
0.0
  0
LINE
  5
129
100
AcDbEntity
  8
0
  6
HIDDEN
 62
   174
100
AcDbLine
 10
267.751762
 20
454.942816
 30
0.0
 11
271.351762
 21
454.942816
 31
0.0
  0
LINE
  5
12A
100
AcDbEntity
  8
0
  6
Continuous
 62
   174
100
AcDbLine
 10
454.589511
 20
427.717816
 30
0.0
 11
450.047358
 21
427.717816
 31
0.0
  0
LINE
  5
12B
100
AcDbEntity
  8
0
  6
Continuous
 62
   174
100
AcDbLine
 10
481.501762
 20
278.317816
 30
0.0
 11
481.501762
 21
272.917816
 31
0.0
  0
LINE
  5
12C
100
AcDbEntity
  8
0
  6
HIDDEN
 62
   174
100
AcDbLine
 10
430.868173
 20
427.717816
 30
0.0
 11
427.475543
 21
427.717816
 31
0.0
  0
LINE
  5
12D
100
AcDbEntity
  8
0
  6
HIDDEN
 62
   174
100
AcDbLine
 10
423.451762
 20
323.767816
 30
0.0
 11
423.451762
 21
296.767816
 31
0.0
  0
ARC
  5
12E
100
AcDbEntity
  8
0
  6
HIDDEN
 62
   174
100
AcDbCircle
 10
720.001762
 20
383.392816
 30
0.0
 40
2.25
100
AcDbArc
 50
-90.0
 51
0.0
  0
LINE
  5
12F
100
AcDbEntity
  8
0
  6
HIDDEN
 62
   174
100
AcDbLine
 10
676.801762
 20
420.517816
 30
0.0
 11
691.201762
 21
420.517816
 31
0.0
  0
LINE
  5
130
100
AcDbEntity
  8
0
  6
Continuous
 62
   174
100
AcDbLine
 10
477.265391
 20
266.167816
 30
0.0
 11
490.471983
 21
266.167816
 31
0.0
  0
LINE
  5
131
100
AcDbEntity
  8
0
  6
Continuous
 62
   174
100
AcDbLine
 10
378.001762
 20
303.517816
 30
0.0
 11
378.001762
 21
296.767816
 31
0.0
  0
ARC
  5
132
100
AcDbEntity
  8
0
  6
Continuous
 62
   174
100
AcDbCircle
 10
720.001762
 20
306.892816
 30
0.0
 40
2.25
100
AcDbArc
 50
-90.0
 51
0.0
  0
LINE
  5
133
100
AcDbEntity
  8
0
  6
Continuous
 62
   174
100
AcDbLine
 10
720.001762
 20
304.642816
 30
0.0
 11
713.251762
 21
304.642816
 31
0.0
  0
LINE
  5
134
100
AcDbEntity
  8
0
  6
HIDDEN
 62
   174
100
AcDbLine
 10
259.201762
 20
435.367816
 30
0.0
 11
259.201762
 21
457.867816
 31
0.0
  0
LINE
  5
135
100
AcDbEntity
  8
0
  6
HIDDEN
 62
   174
100
AcDbLine
 10
713.251762
 20
314.767816
 30
0.0
 11
713.251762
 21
303.517816
 31
0.0
  0
LINE
  5
136
100
AcDbEntity
  8
0
  6
Continuous
 62
   174
100
AcDbLine
 10
463.501762
 20
409.267816
 30
0.0
 11
463.501762
 21
427.717816
 31
0.0
  0
LINE
  5
137
100
AcDbEntity
  8
0
  6
Continuous
 62
   174
100
AcDbLine
 10
472.501762
 20
433.117816
 30
0.0
 11
472.501762
 21
439.867816
 31
0.0
  0
LINE
  5
138
100
AcDbEntity
  8
0
  6
Continuous
 62
   174
100
AcDbLine
 10
454.501762
 20
427.717816
 30
0.0
 11
454.501762
 21
433.117816
 31
0.0
  0
LINE
  5
139
100
AcDbEntity
  8
0
  6
HIDDEN
 62
   174
100
AcDbLine
 10
478.079862
 20
278.317816
 30
0.0
 11
481.472492
 21
278.317816
 31
0.0
  0
LINE
  5
13A
100
AcDbEntity
  8
0
  6
Continuous
 62
   174
100
AcDbLine
 10
594.001762
 20
402.517816
 30
0.0
 11
558.001762
 21
402.517816
 31
0.0
  0
LINE
  5
13B
100
AcDbEntity
  8
0
  6
HIDDEN
 62
   174
100
AcDbLine
 10
222.751762
 20
401.476812
 30
0.0
 11
222.751762
 21
381.228106
 31
0.0
  0
ARC
  5
13C
100
AcDbEntity
  8
0
  6
HIDDEN
 62
   174
100
AcDbCircle
 10
216.001762
 20
383.392816
 30
0.0
 40
2.25
100
AcDbArc
 50
180.0
 51
225.0
  0
LINE
  5
13D
100
AcDbEntity
  8
0
  6
Continuous
 62
   174
100
AcDbLine
 10
676.801762
 20
420.517816
 30
0.0
 11
676.801762
 21
457.867816
 31
0.0
  0
LINE
  5
13E
100
AcDbEntity
  8
0
  6
HIDDEN
 62
   174
100
AcDbLine
 10
244.801762
 20
420.517816
 30
0.0
 11
259.201762
 21
420.517816
 31
0.0
  0
LINE
  5
13F
100
AcDbEntity
  8
0
  6
HIDDEN
 62
   174
100
AcDbLine
 10
504.044307
 20
409.267816
 30
0.0
 11
494.971428
 21
409.267816
 31
0.0
  0
LINE
  5
140
100
AcDbEntity
  8
0
  6
Continuous
 62
   174
100
AcDbLine
 10
594.001762
 20
303.517816
 30
0.0
 11
594.001762
 21
402.517816
 31
0.0
  0
LINE
  5
141
100
AcDbEntity
  8
0
  6
HIDDEN
 62
   174
100
AcDbLine
 10
213.751762
 20
399.227089
 30
0.0
 11
213.751762
 21
383.477829
 31
0.0
  0
LINE
  5
142
100
AcDbEntity
  8
0
  6
Continuous
 62
   174
100
AcDbLine
 10
431.902203
 20
427.717816
 30
0.0
 11
427.360049
 21
427.717816
 31
0.0
  0
ARC
  5
143
100
AcDbEntity
  8
0
  6
Continuous
 62
   174
100
AcDbCircle
 10
216.001762
 20
383.392816
 30
0.0
 40
2.25
100
AcDbArc
 50
180.0
 51
225.0
  0
LINE
  5
144
100
AcDbEntity
  8
0
  6
HIDDEN
 62
   174
100
AcDbLine
 10
216.001762
 20
324.980232
 30
0.0
 11
216.001762
 21
304.731527
 31
0.0
  0
LINE
  5
145
100
AcDbEntity
  8
0
  6
HIDDEN
 62
   174
100
AcDbLine
 10
222.751762
 20
303.517816
 30
0.0
 11
222.751762
 21
314.767816
 31
0.0
  0
LINE
  5
146
100
AcDbEntity
  8
0
  6
HIDDEN
 62
   174
100
AcDbLine
 10
450.047358
 20
409.267816
 30
0.0
 11
440.975081
 21
409.267816
 31
0.0
  0
LINE
  5
147
100
AcDbEntity
  8
0
  6
Continuous
 62
   174
100
AcDbLine
 10
259.201762
 20
420.517816
 30
0.0
 11
259.201762
 21
457.867816
 31
0.0
  0
LINE
  5
148
100
AcDbEntity
  8
0
  6
HIDDEN
 62
   174
100
AcDbLine
 10
216.001762
 20
402.517816
 30
0.0
 11
222.751762
 21
402.517816
 31
0.0
  0
LINE
  5
149
100
AcDbEntity
  8
0
  6
HIDDEN
 62
   174
100
AcDbLine
 10
216.001762
 20
314.85588
 30
0.0
 11
216.001762
 21
325.660563
 31
0.0
  0
LINE
  5
14A
100
AcDbEntity
  8
0
  6
HIDDEN
 62
   174
100
AcDbLine
 10
676.801762
 20
420.517816
 30
0.0
 11
691.201762
 21
420.517816
 31
0.0
  0
LINE
  5
14B
100
AcDbEntity
  8
0
  6
Continuous
 62
   174
100
AcDbLine
 10
260.851111
 20
428.617816
 30
0.0
 11
260.020398
 21
428.617816
 31
0.0
  0
LINE
  5
14C
100
AcDbEntity
  8
0
  6
HIDDEN
 62
   174
100
AcDbLine
 10
484.86452
 20
427.717816
 30
0.0
 11
481.472492
 21
427.717816
 31
0.0
  0
LINE
  5
14D
100
AcDbEntity
  8
0
  6
HIDDEN
 62
   174
100
AcDbLine
 10
423.451762
 20
323.767816
 30
0.0
 11
423.451762
 21
296.767816
 31
0.0
  0
LINE
  5
14E
100
AcDbEntity
  8
0
  6
HIDDEN
 62
   174
100
AcDbLine
 10
423.426043
 20
296.767816
 30
0.0
 11
404.527171
 21
296.767816
 31
0.0
  0
LINE
  5
14F
100
AcDbEntity
  8
0
  6
HIDDEN
 62
   174
100
AcDbLine
 10
668.251762
 20
460.792816
 30
0.0
 11
664.651762
 21
460.792816
 31
0.0
  0
LINE
  5
150
100
AcDbEntity
  8
0
  6
HIDDEN
 62
   174
100
AcDbLine
 10
720.001762
 20
401.392816
 30
0.0
 11
713.251762
 21
401.392816
 31
0.0
  0
LINE
  5
151
100
AcDbEntity
  8
0
  6
HIDDEN
 62
   174
100
AcDbLine
 10
244.801762
 20
420.517816
 30
0.0
 11
244.801762
 21
428.617816
 31
0.0
  0
LINE
  5
152
100
AcDbEntity
  8
0
  6
Continuous
 62
   174
100
AcDbLine
 10
216.001762
 20
401.476812
 30
0.0
 11
216.001762
 21
391.338022
 31
0.0
  0
LINE
  5
153
100
AcDbEntity
  8
0
  6
Continuous
 62
   174
100
AcDbLine
 10
213.751762
 20
322.73051
 30
0.0
 11
213.751762
 21
306.981249
 31
0.0
  0
LINE
  5
154
100
AcDbEntity
  8
0
  6
HIDDEN
 62
   174
100
AcDbLine
 10
216.001762
 20
401.476812
 30
0.0
 11
216.001762
 21
391.338022
 31
0.0
  0
LINE
  5
155
100
AcDbEntity
  8
0
  6
Continuous
 62
   174
100
AcDbLine
 10
485.89855
 20
427.717816
 30
0.0
 11
481.356998
 21
427.717816
 31
0.0
  0
LINE
  5
156
100
AcDbEntity
  8
0
  6
HIDDEN
 62
   174
100
AcDbLine
 10
720.001762
 20
325.664172
 30
0.0
 11
720.001762
 21
314.85588
 31
0.0
  0
LINE
  5
157
100
AcDbEntity
  8
0
  6
Continuous
 62
   174
100
AcDbLine
 10
517.469856
 20
433.117816
 30
0.0
 11
509.736586
 21
433.117816
 31
0.0
  0
ARC
  5
158
100
AcDbEntity
  8
0
  6
HIDDEN
 62
   174
100
AcDbCircle
 10
720.001762
 20
383.392816
 30
0.0
 40
2.25
100
AcDbArc
 50
-90.0
 51
0.0
  0
ARC
  5
159
100
AcDbEntity
  8
0
  6
Continuous
 62
   174
100
AcDbCircle
 10
216.001762
 20
306.892816
 30
0.0
 40
2.25
100
AcDbArc
 50
225.0
 51
270.0
  0
LINE
  5
15A
100
AcDbEntity
  8
0
  6
Continuous
 62
   174
100
AcDbLine
 10
720.001762
 20
401.392816
 30
0.0
 11
713.251762
 21
401.392816
 31
0.0
  0
LINE
  5
15B
100
AcDbEntity
  8
0
  6
Continuous
 62
   174
100
AcDbLine
 10
445.474526
 20
278.317816
 30
0.0
 11
454.358524
 21
278.317816
 31
0.0
  0
LINE
  5
15C
100
AcDbEntity
  8
0
  6
HIDDEN
 62
   174
100
AcDbLine
 10
567.001762
 20
402.517816
 30
0.0
 11
567.001762
 21
402.067816
 31
0.0
  0
LINE
  5
15D
100
AcDbEntity
  8
0
  6
Continuous
 62
   174
100
AcDbLine
 10
418.501762
 20
433.117816
 30
0.0
 11
418.501762
 21
439.867816
 31
0.0
  0
LINE
  5
15E
100
AcDbEntity
  8
0
  6
Continuous
 62
   174
100
AcDbLine
 10
713.251762
 20
303.517816
 30
0.0
 11
713.251762
 21
304.642816
 31
0.0
  0
LINE
  5
15F
100
AcDbEntity
  8
0
  6
Continuous
 62
   174
100
AcDbLine
 10
378.001762
 20
296.767816
 30
0.0
 11
558.001762
 21
296.767816
 31
0.0
  0
LINE
  5
160
100
AcDbEntity
  8
0
  6
HIDDEN
 62
   174
100
AcDbLine
 10
216.001762
 20
324.892816
 30
0.0
 11
222.751762
 21
324.892816
 31
0.0
  0
LINE
  5
161
100
AcDbEntity
  8
0
  6
HIDDEN
 62
   174
100
AcDbLine
 10
664.651762
 20
460.874298
 30
0.0
 11
664.651762
 21
455.024418
 31
0.0
  0
LINE
  5
162
100
AcDbEntity
  8
0
  6
HIDDEN
 62
   174
100
AcDbLine
 10
244.801762
 20
457.867816
 30
0.0
 11
259.201762
 21
457.867816
 31
0.0
  0
LINE
  5
163
100
AcDbEntity
  8
0
  6
Continuous
 62
   174
100
AcDbLine
 10
216.001762
 20
325.660563
 30
0.0
 11
216.001762
 21
326.105695
 31
0.0
  0
LINE
  5
164
100
AcDbEntity
  8
0
  6
HIDDEN
 62
   174
100
AcDbLine
 10
432.001762
 20
409.267816
 30
0.0
 11
432.001762
 21
427.717816
 31
0.0
  0
LINE
  5
165
100
AcDbEntity
  8
0
  6
HIDDEN
 62
   174
100
AcDbLine
 10
458.973463
 20
278.317816
 30
0.0
 11
463.276207
 21
278.317816
 31
0.0
  0
LINE
  5
166
100
AcDbEntity
  8
0
  6
HIDDEN
 62
   174
100
AcDbLine
 10
267.751762
 20
454.942816
 30
0.0
 11
271.351762
 21
454.942816
 31
0.0
  0
LINE
  5
167
100
AcDbEntity
  8
0
  6
Continuous
 62
   174
100
AcDbLine
 10
458.681119
 20
266.167816
 30
0.0
 11
477.265391
 21
266.167816
 31
0.0
  0
LINE
  5
168
100
AcDbEntity
  8
0
  6
HIDDEN
 62
   174
100
AcDbLine
 10
404.551762
 20
323.767816
 30
0.0
 11
404.551762
 21
296.767816
 31
0.0
  0
ARC
  5
169
100
AcDbEntity
  8
0
  6
Continuous
 62
   174
100
AcDbCircle
 10
720.001762
 20
383.392816
 30
0.0
 40
2.25
100
AcDbArc
 50
-90.0
 51
0.0
  0
LINE
  5
16A
100
AcDbEntity
  8
0
  6
HIDDEN
 62
   174
100
AcDbLine
 10
720.001762
 20
324.892816
 30
0.0
 11
713.251762
 21
324.892816
 31
0.0
  0
LINE
  5
16B
100
AcDbEntity
  8
0
  6
HIDDEN
 62
   174
100
AcDbLine
 10
436.683164
 20
427.717816
 30
0.0
 11
436.278334
 21
427.717816
 31
0.0
  0
LINE
  5
16C
100
AcDbEntity
  8
0
  6
HIDDEN
 62
   174
100
AcDbLine
 10
467.972954
 20
278.317816
 30
0.0
 11
478.079862
 21
278.317816
 31
0.0
  0
LINE
  5
16D
100
AcDbEntity
  8
0
  6
Continuous
 62
   174
100
AcDbLine
 10
450.266916
 20
439.867816
 30
0.0
 11
431.682645
 21
439.867816
 31
0.0
  0
LINE
  5
16E
100
AcDbEntity
  8
0
  6
HIDDEN
 62
   174
100
AcDbLine
 10
222.751762
 20
324.980232
 30
0.0
 11
222.751762
 21
304.731527
 31
0.0
  0
ARC
  5
16F
100
AcDbEntity
  8
0
  6
HIDDEN
 62
   174
100
AcDbCircle
 10
216.001762
 20
306.892816
 30
0.0
 40
2.25
100
AcDbArc
 50
225.0
 51
270.0
  0
ARC
  5
170
100
AcDbEntity
  8
0
  6
HIDDEN
 62
   174
100
AcDbCircle
 10
216.001762
 20
322.642816
 30
0.0
 40
2.25
100
AcDbArc
 50
-270.0
 51
-180.0
  0
LINE
  5
171
100
AcDbEntity
  8
0
  6
Continuous
 62
   174
100
AcDbLine
 10
720.001762
 20
381.142816
 30
0.0
 11
713.251762
 21
381.142816
 31
0.0
  0
LINE
  5
172
100
AcDbEntity
  8
0
  6
HIDDEN
 62
   174
100
AcDbLine
 10
720.001762
 20
380.017816
 30
0.0
 11
713.251762
 21
380.017816
 31
0.0
  0
LINE
  5
173
100
AcDbEntity
  8
0
  6
HIDDEN
 62
   174
100
AcDbLine
 10
216.001762
 20
380.017816
 30
0.0
 11
222.751762
 21
380.017816
 31
0.0
  0
LINE
  5
174
100
AcDbEntity
  8
0
  6
Continuous
 62
   174
100
AcDbLine
 10
517.501762
 20
409.267816
 30
0.0
 11
517.501762
 21
427.717816
 31
0.0
  0
LINE
  5
175
100
AcDbEntity
  8
0
  6
HIDDEN
 62
   174
100
AcDbLine
 10
431.902203
 20
409.267816
 30
0.0
 11
418.476052
 21
409.267816
 31
0.0
  0
LINE
  5
176
100
AcDbEntity
  8
0
  6
HIDDEN
 62
   174
100
AcDbLine
 10
585.001762
 20
402.517816
 30
0.0
 11
585.001762
 21
402.067816
 31
0.0
  0
LINE
  5
177
100
AcDbEntity
  8
0
  6
HIDDEN
 62
   174
100
AcDbLine
 10
251.986362
 20
420.517816
 30
0.0
 11
240.737148
 21
420.517816
 31
0.0
  0
LINE
  5
178
100
AcDbEntity
  8
0
  6
Continuous
 62
   174
100
AcDbLine
 10
463.501762
 20
433.117816
 30
0.0
 11
463.501762
 21
439.867816
 31
0.0
  0
LINE
  5
179
100
AcDbEntity
  8
0
  6
HIDDEN
 62
   174
100
AcDbLine
 10
499.668175
 20
427.717816
 30
0.0
 11
499.263345
 21
427.717816
 31
0.0
  0
LINE
  5
17A
100
AcDbEntity
  8
0
  6
HIDDEN
 62
   174
100
AcDbLine
 10
445.671828
 20
427.717816
 30
0.0
 11
445.266397
 21
427.717816
 31
0.0
  0
LINE
  5
17B
100
AcDbEntity
  8
0
  6
Continuous
 62
   174
100
AcDbLine
 10
216.001762
 20
380.017816
 30
0.0
 11
216.001762
 21
326.017816
 31
0.0
  0
ARC
  5
17C
100
AcDbEntity
  8
0
  6
HIDDEN
 62
   174
100
AcDbCircle
 10
216.001762
 20
306.892816
 30
0.0
 40
2.25
100
AcDbArc
 50
225.0
 51
270.0
  0
ARC
  5
17D
100
AcDbEntity
  8
0
  6
HIDDEN
 62
   174
100
AcDbCircle
 10
216.001762
 20
399.142816
 30
0.0
 40
2.25
100
AcDbArc
 50
-270.0
 51
-180.0
  0
LINE
  5
17E
100
AcDbEntity
  8
0
  6
HIDDEN
 62
   174
100
AcDbLine
 10
244.801762
 20
428.617816
 30
0.0
 11
244.801762
 21
435.367816
 31
0.0
  0
LINE
  5
17F
100
AcDbEntity
  8
0
  6
HIDDEN
 62
   174
100
AcDbLine
 10
472.264871
 20
278.317816
 30
0.0
 11
472.669701
 21
278.317816
 31
0.0
  0
LINE
  5
180
100
AcDbEntity
  8
0
  6
HIDDEN
 62
   174
100
AcDbLine
 10
216.001762
 20
401.392816
 30
0.0
 11
222.751762
 21
401.392816
 31
0.0
  0
LINE
  5
181
100
AcDbEntity
  8
0
  6
HIDDEN
 62
   174
100
AcDbLine
 10
720.001762
 20
391.352459
 30
0.0
 11
720.001762
 21
401.476812
 31
0.0
  0
LINE
  5
182
100
AcDbEntity
  8
0
  6
HIDDEN
 62
   174
100
AcDbLine
 10
722.251762
 20
306.981249
 30
0.0
 11
722.251762
 21
322.73051
 31
0.0
  0
LINE
  5
183
100
AcDbEntity
  8
0
  6
Continuous
 62
   174
100
AcDbLine
 10
440.975081
 20
427.717816
 30
0.0
 11
431.902203
 21
427.717816
 31
0.0
  0
LINE
  5
184
100
AcDbEntity
  8
0
  6
Continuous
 62
   174
100
AcDbLine
 10
263.235576
 20
428.617816
 30
0.0
 11
260.851111
 21
428.617816
 31
0.0
  0
LINE
  5
185
100
AcDbEntity
  8
0
  6
Continuous
 62
   174
100
AcDbLine
 10
271.351762
 20
420.517816
 30
0.0
 11
271.351762
 21
468.667816
 31
0.0
  0
LINE
  5
186
100
AcDbEntity
  8
0
  6
HIDDEN
 62
   174
100
AcDbLine
 10
494.971428
 20
427.717816
 30
0.0
 11
484.86452
 21
427.717816
 31
0.0
  0
LINE
  5
187
100
AcDbEntity
  8
0
  6
HIDDEN
 62
   174
100
AcDbLine
 10
425.251762
 20
323.767816
 30
0.0
 11
425.251762
 21
296.767816
 31
0.0
  0
LINE
  5
188
100
AcDbEntity
  8
0
  6
HIDDEN
 62
   174
100
AcDbLine
 10
531.419339
 20
296.767816
 30
0.0
 11
512.520467
 21
296.767816
 31
0.0
  0
LINE
  5
189
100
AcDbEntity
  8
0
  6
Continuous
 62
   174
100
AcDbLine
 10
558.001762
 20
402.517816
 30
0.0
 11
558.001762
 21
303.517816
 31
0.0
  0
LINE
  5
18A
100
AcDbEntity
  8
0
  6
HIDDEN
 62
   174
100
AcDbLine
 10
720.001762
 20
402.160752
 30
0.0
 11
720.001762
 21
391.352459
 31
0.0
  0
LINE
  5
18B
100
AcDbEntity
  8
0
  6
HIDDEN
 62
   174
100
AcDbLine
 10
683.960147
 20
428.617816
 30
0.0
 11
675.926112
 21
428.617816
 31
0.0
  0
LINE
  5
18C
100
AcDbEntity
  8
0
  6
HIDDEN
 62
   174
100
AcDbLine
 10
503.97092
 20
427.717816
 30
0.0
 11
499.668175
 21
427.717816
 31
0.0
  0
LINE
  5
18D
100
AcDbEntity
  8
0
  6
Continuous
 62
   174
100
AcDbLine
 10
664.651762
 20
420.517816
 30
0.0
 11
664.651762
 21
468.667816
 31
0.0
  0
ARC
  5
18E
100
AcDbEntity
  8
0
  6
Continuous
 62
   174
100
AcDbCircle
 10
216.001762
 20
306.892816
 30
0.0
 40
2.25
100
AcDbArc
 50
225.0
 51
270.0
  0
LINE
  5
18F
100
AcDbEntity
  8
0
  6
HIDDEN
 62
   174
100
AcDbLine
 10
216.001762
 20
402.517816
 30
0.0
 11
222.751762
 21
402.517816
 31
0.0
  0
LINE
  5
190
100
AcDbEntity
  8
0
  6
HIDDEN
 62
   174
100
AcDbLine
 10
720.001762
 20
304.642816
 30
0.0
 11
713.251762
 21
304.642816
 31
0.0
  0
LINE
  5
191
100
AcDbEntity
  8
0
  6
HIDDEN
 62
   174
100
AcDbLine
 10
720.001762
 20
314.85588
 30
0.0
 11
720.001762
 21
324.980232
 31
0.0
  0
LINE
  5
192
100
AcDbEntity
  8
0
  6
HIDDEN
 62
   174
100
AcDbLine
 10
402.751762
 20
323.767816
 30
0.0
 11
402.751762
 21
296.767816
 31
0.0
  0
LINE
  5
193
100
AcDbEntity
  8
0
  6
Continuous
 62
   174
100
AcDbLine
 10
720.001762
 20
380.017816
 30
0.0
 11
720.001762
 21
326.017816
 31
0.0
  0
ARC
  5
194
100
AcDbEntity
  8
0
  6
Continuous
 62
   174
100
AcDbCircle
 10
216.001762
 20
399.142816
 30
0.0
 40
2.25
100
AcDbArc
 50
-270.0
 51
-180.0
  0
LINE
  5
195
100
AcDbEntity
  8
0
  6
HIDDEN
 62
   174
100
AcDbLine
 10
216.001762
 20
304.642816
 30
0.0
 11
216.001762
 21
314.767816
 31
0.0
  0
LINE
  5
196
100
AcDbEntity
  8
0
  6
HIDDEN
 62
   174
100
AcDbLine
 10
467.972954
 20
296.767816
 30
0.0
 11
458.973463
 21
296.767816
 31
0.0
  0
LINE
  5
197
100
AcDbEntity
  8
0
  6
Continuous
 62
   174
100
AcDbLine
 10
494.971428
 20
427.717816
 30
0.0
 11
485.89855
 21
427.717816
 31
0.0
  0
LINE
  5
198
100
AcDbEntity
  8
0
  6
Continuous
 62
   174
100
AcDbLine
 10
244.801762
 20
420.517816
 30
0.0
 11
244.801762
 21
457.867816
 31
0.0
  0
LINE
  5
199
100
AcDbEntity
  8
0
  6
HIDDEN
 62
   174
100
AcDbLine
 10
499.263345
 20
427.717816
 30
0.0
 11
494.971428
 21
427.717816
 31
0.0
  0
LINE
  5
19A
100
AcDbEntity
  8
0
  6
Continuous
 62
   174
100
AcDbLine
 10
481.501762
 20
427.717816
 30
0.0
 11
481.501762
 21
433.117816
 31
0.0
  0
LINE
  5
19B
100
AcDbEntity
  8
0
  6
Continuous
 62
   174
100
AcDbLine
 10
485.678992
 20
439.867816
 30
0.0
 11
472.473001
 21
439.867816
 31
0.0
  0
LINE
  5
19C
100
AcDbEntity
  8
0
  6
HIDDEN
 62
   174
100
AcDbLine
 10
713.251762
 20
304.731527
 30
0.0
 11
713.251762
 21
324.980232
 31
0.0
  0
LINE
  5
19D
100
AcDbEntity
  8
0
  6
HIDDEN
 62
   174
100
AcDbLine
 10
216.001762
 20
381.142816
 30
0.0
 11
222.751762
 21
381.142816
 31
0.0
  0
LINE
  5
19E
100
AcDbEntity
  8
0
  6
Continuous
 62
   174
100
AcDbLine
 10
216.001762
 20
324.892816
 30
0.0
 11
222.751762
 21
324.892816
 31
0.0
  0
LINE
  5
19F
100
AcDbEntity
  8
0
  6
HIDDEN
 62
   174
100
AcDbLine
 10
244.801762
 20
435.367816
 30
0.0
 11
244.801762
 21
457.867816
 31
0.0
  0
LINE
  5
1A0
100
AcDbEntity
  8
0
  6
HIDDEN
 62
   174
100
AcDbLine
 10
691.993582
 20
428.617816
 30
0.0
 11
683.960147
 21
428.617816
 31
0.0
  0
LINE
  5
1A1
100
AcDbEntity
  8
0
  6
Continuous
 62
   174
100
AcDbLine
 10
445.474526
 20
266.167816
 30
0.0
 11
458.681119
 21
266.167816
 31
0.0
  0
LINE
  5
1A2
100
AcDbEntity
  8
0
  6
Continuous
 62
   174
100
AcDbLine
 10
558.001762
 20
296.767816
 30
0.0
 11
558.001762
 21
303.517816
 31
0.0
  0
ARC
  5
1A3
100
AcDbEntity
  8
0
  6
HIDDEN
 62
   174
100
AcDbCircle
 10
216.001762
 20
306.892816
 30
0.0
 40
2.25
100
AcDbArc
 50
180.0
 51
225.0
  0
LINE
  5
1A4
100
AcDbEntity
  8
0
  6
HIDDEN
 62
   174
100
AcDbLine
 10
720.001762
 20
324.892816
 30
0.0
 11
713.251762
 21
324.892816
 31
0.0
  0
LINE
  5
1A5
100
AcDbEntity
  8
0
  6
Continuous
 62
   174
100
AcDbLine
 10
216.001762
 20
303.517816
 30
0.0
 11
216.001762
 21
304.642816
 31
0.0
  0
LINE
  5
1A6
100
AcDbEntity
  8
0
  6
HIDDEN
 62
   174
100
AcDbLine
 10
216.001762
 20
401.476812
 30
0.0
 11
216.001762
 21
381.228106
 31
0.0
  0
LINE
  5
1A7
100
AcDbEntity
  8
0
  6
HIDDEN
 62
   174
100
AcDbLine
 10
722.251762
 20
383.477829
 30
0.0
 11
722.251762
 21
399.227089
 31
0.0
  0
LINE
  5
1A8
100
AcDbEntity
  8
0
  6
HIDDEN
 62
   174
100
AcDbLine
 10
463.473509
 20
409.267816
 30
0.0
 11
450.047358
 21
409.267816
 31
0.0
  0
LINE
  5
1A9
100
AcDbEntity
  8
0
  6
HIDDEN
 62
   174
100
AcDbLine
 10
216.001762
 20
314.767816
 30
0.0
 11
222.751762
 21
314.767816
 31
0.0
  0
LINE
  5
1AA
100
AcDbEntity
  8
0
  6
HIDDEN
 62
   174
100
AcDbLine
 10
585.001762
 20
402.517816
 30
0.0
 11
585.001762
 21
402.067816
 31
0.0
  0
LINE
  5
1AB
100
AcDbEntity
  8
0
  6
HIDDEN
 62
   174
100
AcDbLine
 10
494.971428
 20
427.717816
 30
0.0
 11
490.680113
 21
427.717816
 31
0.0
  0
LINE
  5
1AC
100
AcDbEntity
  8
0
  6
Continuous
 62
   174
100
AcDbLine
 10
216.001762
 20
380.017816
 30
0.0
 11
222.751762
 21
380.017816
 31
0.0
  0
LINE
  5
1AD
100
AcDbEntity
  8
0
  6
HIDDEN
 62
   174
100
AcDbLine
 10
713.251762
 20
381.228106
 30
0.0
 11
713.251762
 21
401.476812
 31
0.0
  0
LINE
  5
1AE
100
AcDbEntity
  8
0
  6
HIDDEN
 62
   174
100
AcDbLine
 10
222.751762
 20
324.980232
 30
0.0
 11
222.751762
 21
304.731527
 31
0.0
  0
LINE
  5
1AF
100
AcDbEntity
  8
0
  6
HIDDEN
 62
   174
100
AcDbLine
 10
213.751762
 20
399.227089
 30
0.0
 11
213.751762
 21
383.477829
 31
0.0
  0
LINE
  5
1B0
100
AcDbEntity
  8
0
  6
HIDDEN
 62
   174
100
AcDbLine
 10
720.001762
 20
304.731527
 30
0.0
 11
720.001762
 21
324.980232
 31
0.0
  0
LINE
  5
1B1
100
AcDbEntity
  8
0
  6
Continuous
 62
   174
100
AcDbLine
 10
481.587986
 20
278.317816
 30
0.0
 11
490.471983
 21
278.317816
 31
0.0
  0
LINE
  5
1B2
100
AcDbEntity
  8
0
  6
HIDDEN
 62
   174
100
AcDbLine
 10
449.973971
 20
427.717816
 30
0.0
 11
445.671828
 21
427.717816
 31
0.0
  0
ARC
  5
1B3
100
AcDbEntity
  8
0
  6
HIDDEN
 62
   174
100
AcDbCircle
 10
216.001762
 20
306.892816
 30
0.0
 40
2.25
100
AcDbArc
 50
180.0
 51
225.0
  0
LINE
  5
1B4
100
AcDbEntity
  8
0
  6
Continuous
 62
   174
100
AcDbLine
 10
263.251762
 20
420.517816
 30
0.0
 11
263.251762
 21
428.617816
 31
0.0
  0
LINE
  5
1B5
100
AcDbEntity
  8
0
  6
Continuous
 62
   174
100
AcDbLine
 10
720.001762
 20
324.892816
 30
0.0
 11
713.251762
 21
324.892816
 31
0.0
  0
LINE
  5
1B6
100
AcDbEntity
  8
0
  6
HIDDEN
 62
   174
100
AcDbLine
 10
668.251762
 20
454.942816
 30
0.0
 11
664.651762
 21
454.942816
 31
0.0
  0
LINE
  5
1B7
100
AcDbEntity
  8
0
  6
Continuous
 62
   174
100
AcDbLine
 10
720.001762
 20
401.392816
 30
0.0
 11
713.251762
 21
401.392816
 31
0.0
  0
LINE
  5
1B8
100
AcDbEntity
  8
0
  6
HIDDEN
 62
   174
100
AcDbLine
 10
216.001762
 20
326.017816
 30
0.0
 11
222.751762
 21
326.017816
 31
0.0
  0
LINE
  5
1B9
100
AcDbEntity
  8
0
  6
HIDDEN
 62
   174
100
AcDbLine
 10
213.751762
 20
399.227089
 30
0.0
 11
213.751762
 21
383.477829
 31
0.0
  0
LINE
  5
1BA
100
AcDbEntity
  8
0
  6
Continuous
 62
   174
100
AcDbLine
 10
722.251762
 20
383.477829
 30
0.0
 11
722.251762
 21
399.227089
 31
0.0
  0
LINE
  5
1BB
100
AcDbEntity
  8
0
  6
HIDDEN
 62
   174
100
AcDbLine
 10
713.251762
 20
391.352459
 30
0.0
 11
713.251762
 21
402.601673
 31
0.0
  0
LINE
  5
1BC
100
AcDbEntity
  8
0
  6
HIDDEN
 62
   174
100
AcDbLine
 10
351.001762
 20
402.517816
 30
0.0
 11
351.001762
 21
402.067816
 31
0.0
  0
LINE
  5
1BD
100
AcDbEntity
  8
0
  6
Continuous
 62
   174
100
AcDbLine
 10
418.501762
 20
433.117816
 30
0.0
 11
418.501762
 21
439.867816
 31
0.0
  0
LINE
  5
1BE
100
AcDbEntity
  8
0
  6
Continuous
 62
   174
100
AcDbLine
 10
490.501762
 20
272.917816
 30
0.0
 11
490.501762
 21
266.167816
 31
0.0
  0
LINE
  5
1BF
100
AcDbEntity
  8
0
  6
HIDDEN
 62
   174
100
AcDbLine
 10
481.472492
 20
272.917816
 30
0.0
 11
454.474018
 21
272.917816
 31
0.0
  0
ARC
  5
1C0
100
AcDbEntity
  8
0
  6
HIDDEN
 62
   174
100
AcDbCircle
 10
720.001762
 20
322.642816
 30
0.0
 40
2.25
100
AcDbArc
 50
0.0
 51
90.0
  0
LINE
  5
1C1
100
AcDbEntity
  8
0
  6
HIDDEN
 62
   174
100
AcDbLine
 10
720.001762
 20
381.228106
 30
0.0
 11
720.001762
 21
391.352459
 31
0.0
  0
LINE
  5
1C2
100
AcDbEntity
  8
0
  6
HIDDEN
 62
   174
100
AcDbLine
 10
508.470966
 20
427.717816
 30
0.0
 11
505.078337
 21
427.717816
 31
0.0
  0
LINE
  5
1C3
100
AcDbEntity
  8
0
  6
Continuous
 62
   174
100
AcDbLine
 10
463.473509
 20
439.867816
 30
0.0
 11
450.266916
 21
439.867816
 31
0.0
  0
LINE
  5
1C4
100
AcDbEntity
  8
0
  6
HIDDEN
 62
   174
100
AcDbLine
 10
216.001762
 20
401.392816
 30
0.0
 11
222.751762
 21
401.392816
 31
0.0
  0
LINE
  5
1C5
100
AcDbEntity
  8
0
  6
Continuous
 62
   174
100
AcDbLine
 10
213.751762
 20
399.227089
 30
0.0
 11
213.751762
 21
383.477829
 31
0.0
  0
LINE
  5
1C6
100
AcDbEntity
  8
0
  6
HIDDEN
 62
   174
100
AcDbLine
 10
445.474526
 20
296.767816
 30
0.0
 11
458.900677
 21
296.767816
 31
0.0
  0
LINE
  5
1C7
100
AcDbEntity
  8
0
  6
HIDDEN
 62
   174
100
AcDbLine
 10
720.001762
 20
391.352459
 30
0.0
 11
720.001762
 21
380.547776
 31
0.0
  0
LINE
  5
1C8
100
AcDbEntity
  8
0
  6
Continuous
 62
   174
100
AcDbLine
 10
482.738713
 20
272.917816
 30
0.0
 11
490.471983
 21
272.917816
 31
0.0
  0
LINE
  5
1C9
100
AcDbEntity
  8
0
  6
HIDDEN
 62
   174
100
AcDbLine
 10
404.527171
 20
328.267816
 30
0.0
 11
423.426043
 21
328.267816
 31
0.0
  0
ARC
  5
1CA
100
AcDbEntity
  8
0
  6
Continuous
 62
   174
100
AcDbCircle
 10
720.001762
 20
322.642816
 30
0.0
 40
2.25
100
AcDbArc
 50
0.0
 51
90.0
  0
LINE
  5
1CB
100
AcDbEntity
  8
0
  6
HIDDEN
 62
   174
100
AcDbLine
 10
216.001762
 20
326.017816
 30
0.0
 11
222.751762
 21
326.017816
 31
0.0
  0
LINE
  5
1CC
100
AcDbEntity
  8
0
  6
HIDDEN
 62
   174
100
AcDbLine
 10
271.351762
 20
455.024418
 30
0.0
 11
271.351762
 21
460.874298
 31
0.0
  0
LINE
  5
1CD
100
AcDbEntity
  8
0
  6
HIDDEN
 62
   174
100
AcDbLine
 10
720.001762
 20
304.731527
 30
0.0
 11
720.001762
 21
314.85588
 31
0.0
  0
LINE
  5
1CE
100
AcDbEntity
  8
0
  6
Continuous
 62
   174
100
AcDbLine
 10
244.801762
 20
457.867816
 30
0.0
 11
259.201762
 21
457.867816
 31
0.0
  0
LINE
  5
1CF
100
AcDbEntity
  8
0
  6
HIDDEN
 62
   174
100
AcDbLine
 10
267.751762
 20
460.792816
 30
0.0
 11
271.351762
 21
460.792816
 31
0.0
  0
LINE
  5
1D0
100
AcDbEntity
  8
0
  6
HIDDEN
 62
   174
100
AcDbLine
 10
216.001762
 20
402.517816
 30
0.0
 11
222.751762
 21
402.517816
 31
0.0
  0
LINE
  5
1D1
100
AcDbEntity
  8
0
  6
HIDDEN
 62
   174
100
AcDbLine
 10
722.251762
 20
306.981249
 30
0.0
 11
722.251762
 21
322.73051
 31
0.0
  0
LINE
  5
1D2
100
AcDbEntity
  8
0
  6
Continuous
 62
   174
100
AcDbLine
 10
504.044307
 20
427.717816
 30
0.0
 11
494.971428
 21
427.717816
 31
0.0
  0
LINE
  5
1D3
100
AcDbEntity
  8
0
  6
HIDDEN
 62
   174
100
AcDbLine
 10
222.751762
 20
391.352459
 30
0.0
 11
222.751762
 21
380.102644
 31
0.0
  0
LINE
  5
1D4
100
AcDbEntity
  8
0
  6
Continuous
 62
   174
100
AcDbLine
 10
508.501762
 20
427.717816
 30
0.0
 11
508.501762
 21
433.117816
 31
0.0
  0
LINE
  5
1D5
100
AcDbEntity
  8
0
  6
Continuous
 62
   174
100
AcDbLine
 10
594.001762
 20
303.517816
 30
0.0
 11
558.001762
 21
303.517816
 31
0.0
  0
ARC
  5
1D6
100
AcDbEntity
  8
0
  6
Continuous
 62
   174
100
AcDbCircle
 10
216.001762
 20
306.892816
 30
0.0
 40
2.25
100
AcDbArc
 50
180.0
 51
225.0
  0
LINE
  5
1D7
100
AcDbEntity
  8
0
  6
HIDDEN
 62
   174
100
AcDbLine
 10
668.251762
 20
460.792816
 30
0.0
 11
664.651762
 21
460.792816
 31
0.0
  0
LINE
  5
1D8
100
AcDbEntity
  8
0
  6
HIDDEN
 62
   174
100
AcDbLine
 10
722.251762
 20
306.981249
 30
0.0
 11
722.251762
 21
322.73051
 31
0.0
  0
LINE
  5
1D9
100
AcDbEntity
  8
0
  6
Continuous
 62
   174
100
AcDbLine
 10
472.501762
 20
409.267816
 30
0.0
 11
472.501762
 21
427.717816
 31
0.0
  0
LINE
  5
1DA
100
AcDbEntity
  8
0
  6
HIDDEN
 62
   174
100
AcDbLine
 10
494.971428
 20
409.267816
 30
0.0
 11
503.97092
 21
409.267816
 31
0.0
  0
LINE
  5
1DB
100
AcDbEntity
  8
0
  6
HIDDEN
 62
   174
100
AcDbLine
 10
216.001762
 20
380.544167
 30
0.0
 11
216.001762
 21
391.352459
 31
0.0
  0
LINE
  5
1DC
100
AcDbEntity
  8
0
  6
Continuous
 62
   174
100
AcDbLine
 10
445.501762
 20
272.917816
 30
0.0
 11
445.501762
 21
266.167816
 31
0.0
  0
LINE
  5
1DD
100
AcDbEntity
  8
0
  6
Continuous
 62
   174
100
AcDbLine
 10
668.251762
 20
420.517816
 30
0.0
 11
668.251762
 21
468.667816
 31
0.0
  0
LINE
  5
1DE
100
AcDbEntity
  8
0
  6
Continuous
 62
   174
100
AcDbLine
 10
427.501762
 20
427.717816
 30
0.0
 11
427.501762
 21
433.117816
 31
0.0
  0
LINE
  5
1DF
100
AcDbEntity
  8
0
  6
Continuous
 62
   174
100
AcDbLine
 10
504.263865
 20
439.867816
 30
0.0
 11
485.678992
 21
439.867816
 31
0.0
  0
LINE
  5
1E0
100
AcDbEntity
  8
0
  6
HIDDEN
 62
   174
100
AcDbLine
 10
216.001762
 20
324.892816
 30
0.0
 11
222.751762
 21
324.892816
 31
0.0
  0
LINE
  5
1E1
100
AcDbEntity
  8
0
  6
Continuous
 62
   174
100
AcDbLine
 10
216.001762
 20
304.642816
 30
0.0
 11
222.751762
 21
304.642816
 31
0.0
  0
LINE
  5
1E2
100
AcDbEntity
  8
0
  6
HIDDEN
 62
   174
100
AcDbLine
 10
720.001762
 20
304.642816
 30
0.0
 11
713.251762
 21
304.642816
 31
0.0
  0
LINE
  5
1E3
100
AcDbEntity
  8
0
  6
HIDDEN
 62
   174
100
AcDbLine
 10
213.751762
 20
322.73051
 30
0.0
 11
213.751762
 21
306.981249
 31
0.0
  0
LINE
  5
1E4
100
AcDbEntity
  8
0
  6
HIDDEN
 62
   174
100
AcDbLine
 10
216.001762
 20
401.476812
 30
0.0
 11
216.001762
 21
381.228106
 31
0.0
  0
LINE
  5
1E5
100
AcDbEntity
  8
0
  6
Continuous
 62
   174
100
AcDbLine
 10
720.001762
 20
326.017816
 30
0.0
 11
713.251762
 21
326.017816
 31
0.0
  0
LINE
  5
1E6
100
AcDbEntity
  8
0
  6
Continuous
 62
   174
100
AcDbLine
 10
558.001762
 20
409.267816
 30
0.0
 11
378.001762
 21
409.267816
 31
0.0
  0
ARC
  5
1E7
100
AcDbEntity
  8
0
  6
HIDDEN
 62
   174
100
AcDbCircle
 10
720.001762
 20
306.892816
 30
0.0
 40
2.25
100
AcDbArc
 50
-90.0
 51
0.0
  0
ARC
  5
1E8
100
AcDbEntity
  8
0
  6
HIDDEN
 62
   174
100
AcDbCircle
 10
216.001762
 20
399.142816
 30
0.0
 40
2.25
100
AcDbArc
 50
-270.0
 51
-180.0
  0
LINE
  5
1E9
100
AcDbEntity
  8
0
  6
HIDDEN
 62
   174
100
AcDbLine
 10
213.751762
 20
322.73051
 30
0.0
 11
213.751762
 21
306.981249
 31
0.0
  0
LINE
  5
1EA
100
AcDbEntity
  8
0
  6
Continuous
 62
   174
100
AcDbLine
 10
445.501762
 20
296.767816
 30
0.0
 11
445.501762
 21
278.317816
 31
0.0
  0
LINE
  5
1EB
100
AcDbEntity
  8
0
  6
HIDDEN
 62
   174
100
AcDbLine
 10
691.201762
 20
428.617816
 30
0.0
 11
691.201762
 21
435.367816
 31
0.0
  0
LINE
  5
1EC
100
AcDbEntity
  8
0
  6
Continuous
 62
   174
100
AcDbLine
 10
675.094797
 20
428.617816
 30
0.0
 11
672.710332
 21
428.617816
 31
0.0
  0
LINE
  5
1ED
100
AcDbEntity
  8
0
  6
Continuous
 62
   174
100
AcDbLine
 10
594.001762
 20
402.517816
 30
0.0
 11
594.001762
 21
303.517816
 31
0.0
  0
ARC
  5
1EE
100
AcDbEntity
  8
0
  6
HIDDEN
 62
   174
100
AcDbCircle
 10
216.001762
 20
322.642816
 30
0.0
 40
2.25
100
AcDbArc
 50
-270.0
 51
-180.0
  0
ARC
  5
1EF
100
AcDbEntity
  8
0
  6
Continuous
 62
   174
100
AcDbCircle
 10
720.001762
 20
399.142816
 30
0.0
 40
2.25
100
AcDbArc
 50
0.0
 51
90.0
  0
ARC
  5
1F0
100
AcDbEntity
  8
0
  6
HIDDEN
 62
   174
100
AcDbCircle
 10
216.001762
 20
383.392816
 30
0.0
 40
2.25
100
AcDbArc
 50
180.0
 51
270.0
  0
LINE
  5
1F1
100
AcDbEntity
  8
0
  6
HIDDEN
 62
   174
100
AcDbLine
 10
485.971937
 20
409.267816
 30
0.0
 11
494.971428
 21
409.267816
 31
0.0
  0
LINE
  5
1F2
100
AcDbEntity
  8
0
  6
HIDDEN
 62
   174
100
AcDbLine
 10
713.251762
 20
314.85588
 30
0.0
 11
713.251762
 21
326.105695
 31
0.0
  0
LINE
  5
1F3
100
AcDbEntity
  8
0
  6
HIDDEN
 62
   174
100
AcDbLine
 10
440.975081
 20
427.717816
 30
0.0
 11
430.868173
 21
427.717816
 31
0.0
  0
LINE
  5
1F4
100
AcDbEntity
  8
0
  6
HIDDEN
 62
   174
100
AcDbLine
 10
423.451762
 20
296.767816
 30
0.0
 11
423.451762
 21
328.267816
 31
0.0
  0
LINE
  5
1F5
100
AcDbEntity
  8
0
  6
Continuous
 62
   174
100
AcDbLine
 10
558.001762
 20
303.517816
 30
0.0
 11
558.001762
 21
402.517816
 31
0.0
  0
LINE
  5
1F6
100
AcDbEntity
  8
0
  6
HIDDEN
 62
   174
100
AcDbLine
 10
668.251762
 20
454.942816
 30
0.0
 11
664.651762
 21
454.942816
 31
0.0
  0
LINE
  5
1F7
100
AcDbEntity
  8
0
  6
Continuous
 62
   174
100
AcDbLine
 10
720.001762
 20
381.142816
 30
0.0
 11
713.251762
 21
381.142816
 31
0.0
  0
LINE
  5
1F8
100
AcDbEntity
  8
0
  6
HIDDEN
 62
   174
100
AcDbLine
 10
213.751762
 20
322.73051
 30
0.0
 11
213.751762
 21
306.981249
 31
0.0
  0
LINE
  5
1F9
100
AcDbEntity
  8
0
  6
HIDDEN
 62
   174
100
AcDbLine
 10
720.001762
 20
304.731527
 30
0.0
 11
720.001762
 21
324.980232
 31
0.0
  0
LINE
  5
1FA
100
AcDbEntity
  8
0
  6
HIDDEN
 62
   174
100
AcDbLine
 10
485.89855
 20
409.267816
 30
0.0
 11
472.473001
 21
409.267816
 31
0.0
  0
LINE
  5
1FB
100
AcDbEntity
  8
0
  6
HIDDEN
 62
   174
100
AcDbLine
 10
216.001762
 20
380.017816
 30
0.0
 11
222.751762
 21
380.017816
 31
0.0
  0
LINE
  5
1FC
100
AcDbEntity
  8
0
  6
HIDDEN
 62
   174
100
AcDbLine
 10
351.001762
 20
402.517816
 30
0.0
 11
351.001762
 21
402.067816
 31
0.0
  0
LINE
  5
1FD
100
AcDbEntity
  8
0
  6
HIDDEN
 62
   174
100
AcDbLine
 10
369.001762
 20
402.517816
 30
0.0
 11
369.001762
 21
402.067816
 31
0.0
  0
LINE
  5
1FE
100
AcDbEntity
  8
0
  6
Continuous
 62
   174
100
AcDbLine
 10
454.501762
 20
427.717816
 30
0.0
 11
454.501762
 21
433.117816
 31
0.0
  0
LINE
  5
1FF
100
AcDbEntity
  8
0
  6
Continuous
 62
   174
100
AcDbLine
 10
481.501762
 20
278.317816
 30
0.0
 11
481.501762
 21
272.917816
 31
0.0
  0
LINE
  5
200
100
AcDbEntity
  8
0
  6
HIDDEN
 62
   174
100
AcDbLine
 10
505.078337
 20
427.717816
 30
0.0
 11
494.971428
 21
427.717816
 31
0.0
  0
LINE
  5
201
100
AcDbEntity
  8
0
  6
HIDDEN
 62
   174
100
AcDbLine
 10
481.472492
 20
433.117816
 30
0.0
 11
508.470966
 21
433.117816
 31
0.0
  0
LINE
  5
202
100
AcDbEntity
  8
0
  6
Continuous
 62
   174
100
AcDbLine
 10
222.751762
 20
402.517816
 30
0.0
 11
222.751762
 21
401.392816
 31
0.0
  0
LINE
  5
203
100
AcDbEntity
  8
0
  6
HIDDEN
 62
   174
100
AcDbLine
 10
458.900677
 20
296.767816
 30
0.0
 11
467.972954
 21
296.767816
 31
0.0
  0
LINE
  5
204
100
AcDbEntity
  8
0
  6
Continuous
 62
   174
100
AcDbLine
 10
477.045832
 20
278.317816
 30
0.0
 11
481.587986
 21
278.317816
 31
0.0
  0
LINE
  5
205
100
AcDbEntity
  8
0
  6
HIDDEN
 62
   174
100
AcDbLine
 10
463.276207
 20
278.317816
 30
0.0
 11
463.681638
 21
278.317816
 31
0.0
  0
LINE
  5
206
100
AcDbEntity
  8
0
  6
Continuous
 62
   174
100
AcDbLine
 10
426.209322
 20
433.117816
 30
0.0
 11
418.476052
 21
433.117816
 31
0.0
  0
LINE
  5
207
100
AcDbEntity
  8
0
  6
Continuous
 62
   174
100
AcDbLine
 10
453.207797
 20
272.917816
 30
0.0
 11
482.738713
 21
272.917816
 31
0.0
  0
LINE
  5
208
100
AcDbEntity
  8
0
  6
HIDDEN
 62
   174
100
AcDbLine
 10
216.001762
 20
304.642816
 30
0.0
 11
222.751762
 21
304.642816
 31
0.0
  0
LINE
  5
209
100
AcDbEntity
  8
0
  6
HIDDEN
 62
   174
100
AcDbLine
 10
267.751762
 20
455.024418
 30
0.0
 11
267.751762
 21
460.874298
 31
0.0
  0
LINE
  5
20A
100
AcDbEntity
  8
0
  6
Continuous
 62
   174
100
AcDbLine
 10
216.001762
 20
401.392816
 30
0.0
 11
222.751762
 21
401.392816
 31
0.0
  0
LINE
  5
20B
100
AcDbEntity
  8
0
  6
Continuous
 62
   174
100
AcDbLine
 10
216.001762
 20
314.85588
 30
0.0
 11
216.001762
 21
304.731527
 31
0.0
  0
LINE
  5
20C
100
AcDbEntity
  8
0
  6
HIDDEN
 62
   174
100
AcDbLine
 10
676.801762
 20
457.867816
 30
0.0
 11
691.201762
 21
457.867816
 31
0.0
  0
ARC
  5
20D
100
AcDbEntity
  8
0
  6
Continuous
 62
   174
100
AcDbCircle
 10
216.001762
 20
383.392816
 30
0.0
 40
2.25
100
AcDbArc
 50
225.0
 51
270.0
  0
ARC
  5
20E
100
AcDbEntity
  8
0
  6
HIDDEN
 62
   174
100
AcDbCircle
 10
720.001762
 20
306.892816
 30
0.0
 40
2.25
100
AcDbArc
 50
-90.0
 51
0.0
  0
LINE
  5
20F
100
AcDbEntity
  8
0
  6
HIDDEN
 62
   174
100
AcDbLine
 10
222.751762
 20
402.601673
 30
0.0
 11
222.751762
 21
391.352459
 31
0.0
  0
LINE
  5
210
100
AcDbEntity
  8
0
  6
HIDDEN
 62
   174
100
AcDbLine
 10
404.551762
 20
296.767816
 30
0.0
 11
404.551762
 21
328.267816
 31
0.0
  0
LINE
  5
211
100
AcDbEntity
  8
0
  6
HIDDEN
 62
   174
100
AcDbLine
 10
720.001762
 20
326.017816
 30
0.0
 11
713.251762
 21
326.017816
 31
0.0
  0
LINE
  5
212
100
AcDbEntity
  8
0
  6
Continuous
 62
   174
100
AcDbLine
 10
490.501762
 20
296.767816
 30
0.0
 11
490.501762
 21
278.317816
 31
0.0
  0
LINE
  5
213
100
AcDbEntity
  8
0
  6
HIDDEN
 62
   174
100
AcDbLine
 10
467.972954
 20
296.767816
 30
0.0
 11
477.045832
 21
296.767816
 31
0.0
  0
LINE
  5
214
100
AcDbEntity
  8
0
  6
HIDDEN
 62
   174
100
AcDbLine
 10
216.001762
 20
326.017816
 30
0.0
 11
222.751762
 21
326.017816
 31
0.0
  0
LINE
  5
215
100
AcDbEntity
  8
0
  6
HIDDEN
 62
   174
100
AcDbLine
 10
490.274682
 20
427.717816
 30
0.0
 11
485.971937
 21
427.717816
 31
0.0
  0
LINE
  5
216
100
AcDbEntity
  8
0
  6
Continuous
 62
   174
100
AcDbLine
 10
517.469856
 20
439.867816
 30
0.0
 11
504.263865
 21
439.867816
 31
0.0
  0
LINE
  5
217
100
AcDbEntity
  8
0
  6
HIDDEN
 62
   174
100
AcDbLine
 10
431.97559
 20
409.267816
 30
0.0
 11
440.975081
 21
409.267816
 31
0.0
  0
LINE
  5
218
100
AcDbEntity
  8
0
  6
HIDDEN
 62
   174
100
AcDbLine
 10
567.001762
 20
402.517816
 30
0.0
 11
567.001762
 21
402.067816
 31
0.0
  0
LINE
  5
219
100
AcDbEntity
  8
0
  6
HIDDEN
 62
   174
100
AcDbLine
 10
368.97915
 20
402.067816
 30
0.0
 11
350.980167
 21
402.067816
 31
0.0
  0
LINE
  5
21A
100
AcDbEntity
  8
0
  6
Continuous
 62
   174
100
AcDbLine
 10
267.751762
 20
420.517816
 30
0.0
 11
267.751762
 21
468.667816
 31
0.0
  0
LINE
  5
21B
100
AcDbEntity
  8
0
  6
Continuous
 62
   174
100
AcDbLine
 10
445.501762
 20
272.917816
 30
0.0
 11
445.501762
 21
266.167816
 31
0.0
  0
LINE
  5
21C
100
AcDbEntity
  8
0
  6
HIDDEN
 62
   174
100
AcDbLine
 10
668.251762
 20
460.874298
 30
0.0
 11
668.251762
 21
455.024418
 31
0.0
  0
LINE
  5
21D
100
AcDbEntity
  8
0
  6
Continuous
 62
   174
100
AcDbLine
 10
342.001762
 20
402.517816
 30
0.0
 11
378.001762
 21
402.517816
 31
0.0
  0
LINE
  5
21E
100
AcDbEntity
  8
0
  6
Continuous
 62
   174
100
AcDbLine
 10
558.001762
 20
402.517816
 30
0.0
 11
558.001762
 21
409.267816
 31
0.0
  0
LINE
  5
21F
100
AcDbEntity
  8
0
  6
Continuous
 62
   174
100
AcDbLine
 10
720.001762
 20
314.856481
 30
0.0
 11
720.001762
 21
324.980232
 31
0.0
  0
LINE
  5
220
100
AcDbEntity
  8
0
  6
HIDDEN
 62
   174
100
AcDbLine
 10
691.201762
 20
435.367816
 30
0.0
 11
691.201762
 21
457.867816
 31
0.0
  0
LINE
  5
221
100
AcDbEntity
  8
0
  6
HIDDEN
 62
   174
100
AcDbLine
 10
451.081388
 20
427.717816
 30
0.0
 11
440.975081
 21
427.717816
 31
0.0
  0
LINE
  5
222
100
AcDbEntity
  8
0
  6
HIDDEN
 62
   174
100
AcDbLine
 10
427.475543
 20
433.117816
 30
0.0
 11
454.474018
 21
433.117816
 31
0.0
  0
ARC
  5
223
100
AcDbEntity
  8
0
  6
Continuous
 62
   174
100
AcDbCircle
 10
720.001762
 20
306.892816
 30
0.0
 40
2.25
100
AcDbArc
 50
-90.0
 51
0.0
  0
LINE
  5
224
100
AcDbEntity
  8
0
  6
HIDDEN
 62
   174
100
AcDbLine
 10
720.001762
 20
381.228106
 30
0.0
 11
720.001762
 21
401.476812
 31
0.0
  0
LINE
  5
225
100
AcDbEntity
  8
0
  6
Continuous
 62
   174
100
AcDbLine
 10
675.926112
 20
428.617816
 30
0.0
 11
675.094797
 21
428.617816
 31
0.0
  0
LINE
  5
226
100
AcDbEntity
  8
0
  6
Continuous
 62
   174
100
AcDbLine
 10
517.501762
 20
433.117816
 30
0.0
 11
517.501762
 21
439.867816
 31
0.0
  0
LINE
  5
227
100
AcDbEntity
  8
0
  6
Continuous
 62
   174
100
AcDbLine
 10
216.001762
 20
381.142816
 30
0.0
 11
222.751762
 21
381.142816
 31
0.0
  0
LINE
  5
228
100
AcDbEntity
  8
0
  6
Continuous
 62
   174
100
AcDbLine
 10
216.001762
 20
381.142816
 30
0.0
 11
222.751762
 21
381.142816
 31
0.0
  0
LINE
  5
229
100
AcDbEntity
  8
0
  6
HIDDEN
 62
   174
100
AcDbLine
 10
720.001762
 20
402.517816
 30
0.0
 11
713.251762
 21
402.517816
 31
0.0
  0
LINE
  5
22A
100
AcDbEntity
  8
0
  6
Continuous
 62
   174
100
AcDbLine
 10
720.001762
 20
303.517816
 30
0.0
 11
720.001762
 21
304.642816
 31
0.0
  0
LINE
  5
22B
100
AcDbEntity
  8
0
  6
HIDDEN
 62
   174
100
AcDbLine
 10
477.045832
 20
296.767816
 30
0.0
 11
490.471983
 21
296.767816
 31
0.0
  0
LINE
  5
22C
100
AcDbEntity
  8
0
  6
HIDDEN
 62
   174
100
AcDbLine
 10
720.001762
 20
314.767816
 30
0.0
 11
713.251762
 21
314.767816
 31
0.0
  0
LINE
  5
22D
100
AcDbEntity
  8
0
  6
Continuous
 62
   174
100
AcDbLine
 10
490.501762
 20
272.917816
 30
0.0
 11
490.501762
 21
266.167816
 31
0.0
  0
LINE
  5
22E
100
AcDbEntity
  8
0
  6
Continuous
 62
   174
100
AcDbLine
 10
445.474526
 20
272.917816
 30
0.0
 11
453.207797
 21
272.917816
 31
0.0
  0
LINE
  5
22F
100
AcDbEntity
  8
0
  6
Continuous
 62
   174
100
AcDbLine
 10
216.001762
 20
324.980232
 30
0.0
 11
216.001762
 21
314.85588
 31
0.0
  0
LINE
  5
230
100
AcDbEntity
  8
0
  6
Continuous
 62
   174
100
AcDbLine
 10
467.972954
 20
278.317816
 30
0.0
 11
477.045832
 21
278.317816
 31
0.0
  0
LINE
  5
231
100
AcDbEntity
  8
0
  6
Continuous
 62
   174
100
AcDbLine
 10
720.001762
 20
326.105695
 30
0.0
 11
720.001762
 21
325.664172
 31
0.0
  0
ENDBLK
  5
232
100
AcDbEntity
  8
0
100
AcDbBlockEnd
  0
BLOCK
  5
235
100
AcDbEntity
  8
0
100
AcDbBlockBegin
  2
*B2
 70
     0
 10
0.0
 20
0.0
 30
0.0
  3
*B2
  1

  0
ARC
  5
236
100
AcDbEntity
  8
0
  6
Continuous
 62
   174
100
AcDbCircle
 10
495.001762
 20
153.97324
 30
0.0
 40
9.0
100
AcDbArc
 50
-180.0
 51
0.0
  0
ARC
  5
237
100
AcDbEntity
  8
0
  6
Continuous
 62
   174
100
AcDbCircle
 10
495.001762
 20
153.97324
 30
0.0
 40
9.0
100
AcDbArc
 50
0.0
 51
180.0
  0
ARC
  5
238
100
AcDbEntity
  8
0
  6
Continuous
 62
   174
100
AcDbCircle
 10
441.001762
 20
153.97324
 30
0.0
 40
9.0
100
AcDbArc
 50
-180.0
 51
0.0
  0
ARC
  5
239
100
AcDbEntity
  8
0
  6
Continuous
 62
   174
100
AcDbCircle
 10
441.001762
 20
153.97324
 30
0.0
 40
9.0
100
AcDbArc
 50
0.0
 51
180.0
  0
LINE
  5
23A
100
AcDbEntity
  8
0
  6
Continuous
 62
   174
100
AcDbLine
 10
648.001762
 20
189.97324
 30
0.0
 11
648.001762
 21
117.97324
 31
0.0
  0
LINE
  5
23B
100
AcDbEntity
  8
0
  6
Continuous
 62
   174
100
AcDbLine
 10
288.001762
 20
117.97324
 30
0.0
 11
288.001762
 21
189.97324
 31
0.0
  0
LINE
  5
23C
100
AcDbEntity
  8
0
  6
Continuous
 62
   174
100
AcDbLine
 10
720.001762
 20
189.97324
 30
0.0
 11
720.001762
 21
117.97324
 31
0.0
  0
LINE
  5
23D
100
AcDbEntity
  8
0
  6
Continuous
 62
   174
100
AcDbLine
 10
216.001762
 20
117.97324
 30
0.0
 11
216.001762
 21
189.97324
 31
0.0
  0
ARC
  5
23E
100
AcDbEntity
  8
0
  6
Continuous
 62
   174
100
AcDbCircle
 10
684.001762
 20
153.97324
 30
0.0
 40
8.325
100
AcDbArc
 50
-90.0
 51
90.0
  0
ARC
  5
23F
100
AcDbEntity
  8
0
  6
Continuous
 62
   174
100
AcDbCircle
 10
684.001762
 20
153.97324
 30
0.0
 40
8.325
100
AcDbArc
 50
-270.0
 51
-90.0
  0
ARC
  5
240
100
AcDbEntity
  8
0
  6
Continuous
 62
   174
100
AcDbCircle
 10
252.001762
 20
153.97324
 30
0.0
 40
8.325
100
AcDbArc
 50
-270.0
 51
-90.0
  0
ARC
  5
241
100
AcDbEntity
  8
0
  6
Continuous
 62
   174
100
AcDbCircle
 10
252.001762
 20
153.97324
 30
0.0
 40
8.325
100
AcDbArc
 50
-90.0
 51
90.0
  0
ARC
  5
242
100
AcDbEntity
  8
0
  6
Continuous
 62
   174
100
AcDbCircle
 10
684.001762
 20
153.97324
 30
0.0
 40
6.075
100
AcDbArc
 50
90.0
 51
270.0
  0
LINE
  5
243
100
AcDbEntity
  8
0
  6
Continuous
 62
   174
100
AcDbLine
 10
558.001762
 20
117.97324
 30
0.0
 11
558.001762
 21
189.97324
 31
0.0
  0
LINE
  5
244
100
AcDbEntity
  8
0
  6
Continuous
 62
   174
100
AcDbLine
 10
722.251762
 20
170.942817
 30
0.0
 11
722.251762
 21
178.818048
 31
0.0
  0
LINE
  5
245
100
AcDbEntity
  8
0
  6
Continuous
 62
   174
100
AcDbLine
 10
213.751762
 20
137.194573
 30
0.0
 11
213.751762
 21
129.319943
 31
0.0
  0
LINE
  5
246
100
AcDbEntity
  8
0
  6
Continuous
 62
   174
100
AcDbLine
 10
213.751762
 20
129.319943
 30
0.0
 11
213.751762
 21
121.445313
 31
0.0
  0
ARC
  5
247
100
AcDbEntity
  8
0
  6
Continuous
 62
   174
100
AcDbCircle
 10
720.001762
 20
121.34824
 30
0.0
 40
2.25
100
AcDbArc
 50
-90.0
 51
0.0
  0
LINE
  5
248
100
AcDbEntity
  8
0
  6
Continuous
 62
   174
100
AcDbLine
 10
722.251762
 20
121.830894
 30
0.0
 11
722.251762
 21
129.319943
 31
0.0
  0
LINE
  5
249
100
AcDbEntity
  8
0
  6
Continuous
 62
   174
100
AcDbLine
 10
722.251762
 20
129.319943
 30
0.0
 11
722.251762
 21
137.194573
 31
0.0
  0
LINE
  5
24A
100
AcDbEntity
  8
0
  6
Continuous
 62
   174
100
AcDbLine
 10
722.251762
 20
136.808993
 30
0.0
 11
722.251762
 21
137.194573
 31
0.0
  0
LINE
  5
24B
100
AcDbEntity
  8
0
  6
Continuous
 62
   174
100
AcDbLine
 10
213.751762
 20
178.818048
 30
0.0
 11
213.751762
 21
171.328398
 31
0.0
  0
ARC
  5
24C
100
AcDbEntity
  8
0
  6
Continuous
 62
   174
100
AcDbCircle
 10
216.001762
 20
170.84824
 30
0.0
 40
2.25
100
AcDbArc
 50
180.0
 51
270.0
  0
LINE
  5
24D
100
AcDbEntity
  8
0
  6
Continuous
 62
   174
100
AcDbLine
 10
213.751762
 20
178.818048
 30
0.0
 11
213.751762
 21
170.942817
 31
0.0
  0
LINE
  5
24E
100
AcDbEntity
  8
0
  6
Continuous
 62
   174
100
AcDbLine
 10
213.751762
 20
171.328398
 30
0.0
 11
213.751762
 21
170.942817
 31
0.0
  0
LINE
  5
24F
100
AcDbEntity
  8
0
  6
Continuous
 62
   174
100
AcDbLine
 10
676.801762
 20
134.39824
 30
0.0
 11
691.201762
 21
134.39824
 31
0.0
  0
LINE
  5
250
100
AcDbEntity
  8
0
  6
Continuous
 62
   174
100
AcDbLine
 10
259.201762
 20
173.54824
 30
0.0
 11
244.801762
 21
173.54824
 31
0.0
  0
LINE
  5
251
100
AcDbEntity
  8
0
  6
Continuous
 62
   174
100
AcDbLine
 10
213.751762
 20
185.158175
 30
0.0
 11
213.751762
 21
178.818048
 31
0.0
  0
LINE
  5
252
100
AcDbEntity
  8
0
  6
Continuous
 62
   174
100
AcDbLine
 10
691.201762
 20
173.54824
 30
0.0
 11
676.801762
 21
173.54824
 31
0.0
  0
ARC
  5
253
100
AcDbEntity
  8
0
  6
Continuous
 62
   174
100
AcDbCircle
 10
684.001762
 20
153.97324
 30
0.0
 40
11.25
100
AcDbArc
 50
-90.0
 51
-81.359702
  0
ARC
  5
254
100
AcDbEntity
  8
0
  6
Continuous
 62
   174
100
AcDbCircle
 10
252.001762
 20
153.97324
 30
0.0
 40
6.075
100
AcDbArc
 50
90.0
 51
270.0
  0
LINE
  5
255
100
AcDbEntity
  8
0
  6
Continuous
 62
   174
100
AcDbLine
 10
288.001762
 20
117.97324
 30
0.0
 11
216.001762
 21
117.97324
 31
0.0
  0
LINE
  5
256
100
AcDbEntity
  8
0
  6
Continuous
 62
   174
100
AcDbLine
 10
648.001762
 20
117.97324
 30
0.0
 11
720.001762
 21
117.97324
 31
0.0
  0
LINE
  5
257
100
AcDbEntity
  8
0
  6
Continuous
 62
   174
100
AcDbLine
 10
288.001762
 20
189.97324
 30
0.0
 11
216.001762
 21
189.97324
 31
0.0
  0
LINE
  5
258
100
AcDbEntity
  8
0
  6
Continuous
 62
   174
100
AcDbLine
 10
342.001762
 20
117.97324
 30
0.0
 11
378.001762
 21
117.97324
 31
0.0
  0
LINE
  5
259
100
AcDbEntity
  8
0
  6
Continuous
 62
   174
100
AcDbLine
 10
594.001762
 20
189.97324
 30
0.0
 11
594.001762
 21
117.97324
 31
0.0
  0
ARC
  5
25A
100
AcDbEntity
  8
0
  6
Continuous
 62
   174
100
AcDbCircle
 10
720.001762
 20
170.84824
 30
0.0
 40
2.25
100
AcDbArc
 50
-90.0
 51
0.0
  0
LINE
  5
25B
100
AcDbEntity
  8
0
  6
Continuous
 62
   174
100
AcDbLine
 10
722.251762
 20
171.328398
 30
0.0
 11
722.251762
 21
178.818048
 31
0.0
  0
LINE
  5
25C
100
AcDbEntity
  8
0
  6
Continuous
 62
   174
100
AcDbLine
 10
722.251762
 20
178.818048
 30
0.0
 11
722.251762
 21
186.692077
 31
0.0
  0
ARC
  5
25D
100
AcDbEntity
  8
0
  6
Continuous
 62
   174
100
AcDbCircle
 10
216.001762
 20
137.09824
 30
0.0
 40
2.25
100
AcDbArc
 50
-270.0
 51
-180.0
  0
LINE
  5
25E
100
AcDbEntity
  8
0
  6
Continuous
 62
   174
100
AcDbLine
 10
213.751762
 20
136.808993
 30
0.0
 11
213.751762
 21
129.319943
 31
0.0
  0
LINE
  5
25F
100
AcDbEntity
  8
0
  6
Continuous
 62
   174
100
AcDbLine
 10
213.751762
 20
178.818048
 30
0.0
 11
213.751762
 21
170.942817
 31
0.0
  0
LINE
  5
260
100
AcDbEntity
  8
0
  6
Continuous
 62
   174
100
AcDbLine
 10
213.751762
 20
186.692077
 30
0.0
 11
213.751762
 21
185.158175
 31
0.0
  0
ARC
  5
261
100
AcDbEntity
  8
0
  6
Continuous
 62
   174
100
AcDbCircle
 10
495.001762
 20
153.97324
 30
0.0
 40
22.5
100
AcDbArc
 50
-270.0
 51
-239.989167
  0
ARC
  5
262
100
AcDbEntity
  8
0
  6
Continuous
 62
   174
100
AcDbCircle
 10
495.001762
 20
153.97324
 30
0.0
 40
22.5
100
AcDbArc
 50
-90.0
 51
-60.017377
  0
LINE
  5
263
100
AcDbEntity
  8
0
  6
Continuous
 62
   174
100
AcDbLine
 10
676.801762
 20
169.94824
 30
0.0
 11
691.201762
 21
169.94824
 31
0.0
  0
LINE
  5
264
100
AcDbEntity
  8
0
  6
Continuous
 62
   174
100
AcDbLine
 10
259.201762
 20
137.99824
 30
0.0
 11
244.801762
 21
137.99824
 31
0.0
  0
ARC
  5
265
100
AcDbEntity
  8
0
  6
Continuous
 62
   174
100
AcDbCircle
 10
684.001762
 20
153.97324
 30
0.0
 40
11.25
100
AcDbArc
 50
-278.640298
 51
-270.0
  0
LINE
  5
266
100
AcDbEntity
  8
0
  6
Continuous
 62
   174
100
AcDbLine
 10
342.001762
 20
117.97324
 30
0.0
 11
342.001762
 21
189.97324
 31
0.0
  0
LINE
  5
267
100
AcDbEntity
  8
0
  6
Continuous
 62
   174
100
AcDbLine
 10
378.001762
 20
117.97324
 30
0.0
 11
378.001762
 21
189.97324
 31
0.0
  0
LINE
  5
268
100
AcDbEntity
  8
0
  6
Continuous
 62
   174
100
AcDbLine
 10
722.251762
 20
178.818048
 30
0.0
 11
722.251762
 21
186.307098
 31
0.0
  0
ARC
  5
269
100
AcDbEntity
  8
0
  6
Continuous
 62
   174
100
AcDbCircle
 10
720.001762
 20
186.59824
 30
0.0
 40
2.25
100
AcDbArc
 50
0.0
 51
90.0
  0
ARC
  5
26A
100
AcDbEntity
  8
0
  6
Continuous
 62
   174
100
AcDbCircle
 10
216.001762
 20
121.34824
 30
0.0
 40
2.25
100
AcDbArc
 50
180.0
 51
270.0
  0
ARC
  5
26B
100
AcDbEntity
  8
0
  6
Continuous
 62
   174
100
AcDbCircle
 10
720.001762
 20
137.09824
 30
0.0
 40
2.25
100
AcDbArc
 50
0.0
 51
90.0
  0
LINE
  5
26C
100
AcDbEntity
  8
0
  6
Continuous
 62
   174
100
AcDbLine
 10
691.201762
 20
137.99824
 30
0.0
 11
676.801762
 21
137.99824
 31
0.0
  0
LINE
  5
26D
100
AcDbEntity
  8
0
  6
Continuous
 62
   174
100
AcDbLine
 10
244.801762
 20
169.94824
 30
0.0
 11
259.201762
 21
169.94824
 31
0.0
  0
LINE
  5
26E
100
AcDbEntity
  8
0
  6
Continuous
 62
   174
100
AcDbLine
 10
722.251762
 20
122.979215
 30
0.0
 11
722.251762
 21
129.319943
 31
0.0
  0
ARC
  5
26F
100
AcDbEntity
  8
0
  6
Continuous
 62
   174
100
AcDbCircle
 10
495.001762
 20
153.97324
 30
0.0
 40
22.5
100
AcDbArc
 50
-299.982623
 51
-270.0
  0
ARC
  5
270
100
AcDbEntity
  8
0
  6
Continuous
 62
   174
100
AcDbCircle
 10
441.001762
 20
153.97324
 30
0.0
 40
22.5
100
AcDbArc
 50
-270.0
 51
-239.989167
  0
LINE
  5
271
100
AcDbEntity
  8
0
  6
Continuous
 62
   174
100
AcDbLine
 10
342.001762
 20
117.97324
 30
0.0
 11
288.001762
 21
117.97324
 31
0.0
  0
LINE
  5
272
100
AcDbEntity
  8
0
  6
Continuous
 62
   174
100
AcDbLine
 10
722.251762
 20
129.319943
 30
0.0
 11
722.251762
 21
136.808993
 31
0.0
  0
LINE
  5
273
100
AcDbEntity
  8
0
  6
Continuous
 62
   174
100
AcDbLine
 10
213.751762
 20
186.692077
 30
0.0
 11
213.751762
 21
186.307098
 31
0.0
  0
LINE
  5
274
100
AcDbEntity
  8
0
  6
Continuous
 62
   174
100
AcDbLine
 10
722.251762
 20
178.818048
 30
0.0
 11
722.251762
 21
186.692077
 31
0.0
  0
LINE
  5
275
100
AcDbEntity
  8
0
  6
Continuous
 62
   174
100
AcDbLine
 10
722.251762
 20
172.47732
 30
0.0
 11
722.251762
 21
178.818048
 31
0.0
  0
LINE
  5
276
100
AcDbEntity
  8
0
  6
Continuous
 62
   174
100
AcDbLine
 10
213.751762
 20
129.319943
 30
0.0
 11
213.751762
 21
121.445313
 31
0.0
  0
LINE
  5
277
100
AcDbEntity
  8
0
  6
Continuous
 62
   174
100
AcDbLine
 10
213.751762
 20
135.660672
 30
0.0
 11
213.751762
 21
129.319943
 31
0.0
  0
LINE
  5
278
100
AcDbEntity
  8
0
  6
Continuous
 62
   174
100
AcDbLine
 10
676.801762
 20
137.99824
 30
0.0
 11
676.801762
 21
134.39824
 31
0.0
  0
LINE
  5
279
100
AcDbEntity
  8
0
  6
Continuous
 62
   174
100
AcDbLine
 10
259.201762
 20
169.94824
 30
0.0
 11
259.201762
 21
173.54824
 31
0.0
  0
LINE
  5
27A
100
AcDbEntity
  8
0
  6
Continuous
 62
   174
100
AcDbLine
 10
722.251762
 20
129.319943
 30
0.0
 11
722.251762
 21
137.194573
 31
0.0
  0
ARC
  5
27B
100
AcDbEntity
  8
0
  6
Continuous
 62
   174
100
AcDbCircle
 10
441.001762
 20
153.97324
 30
0.0
 40
22.5
100
AcDbArc
 50
-120.010833
 51
-90.0
  0
ARC
  5
27C
100
AcDbEntity
  8
0
  6
Continuous
 62
   174
100
AcDbCircle
 10
684.001762
 20
153.97324
 30
0.0
 40
11.25
100
AcDbArc
 50
-270.0
 51
-261.359702
  0
ARC
  5
27D
100
AcDbEntity
  8
0
  6
Continuous
 62
   174
100
AcDbCircle
 10
252.001762
 20
153.97324
 30
0.0
 40
6.075
100
AcDbArc
 50
-90.0
 51
90.0
  0
LINE
  5
27E
100
AcDbEntity
  8
0
  6
Continuous
 62
   174
100
AcDbLine
 10
648.001762
 20
189.97324
 30
0.0
 11
720.001762
 21
189.97324
 31
0.0
  0
LINE
  5
27F
100
AcDbEntity
  8
0
  6
Continuous
 62
   174
100
AcDbLine
 10
594.001762
 20
117.97324
 30
0.0
 11
558.001762
 21
117.97324
 31
0.0
  0
LINE
  5
280
100
AcDbEntity
  8
0
  6
Continuous
 62
   174
100
AcDbLine
 10
342.001762
 20
117.97324
 30
0.0
 11
342.001762
 21
189.97324
 31
0.0
  0
LINE
  5
281
100
AcDbEntity
  8
0
  6
Continuous
 62
   174
100
AcDbLine
 10
213.751762
 20
186.692077
 30
0.0
 11
213.751762
 21
178.818048
 31
0.0
  0
LINE
  5
282
100
AcDbEntity
  8
0
  6
Continuous
 62
   174
100
AcDbLine
 10
722.251762
 20
121.445313
 30
0.0
 11
722.251762
 21
122.979215
 31
0.0
  0
LINE
  5
283
100
AcDbEntity
  8
0
  6
Continuous
 62
   174
100
AcDbLine
 10
676.801762
 20
173.54824
 30
0.0
 11
676.801762
 21
169.94824
 31
0.0
  0
LINE
  5
284
100
AcDbEntity
  8
0
  6
Continuous
 62
   174
100
AcDbLine
 10
259.201762
 20
134.39824
 30
0.0
 11
259.201762
 21
137.99824
 31
0.0
  0
ARC
  5
285
100
AcDbEntity
  8
0
  6
Continuous
 62
   174
100
AcDbCircle
 10
684.001762
 20
153.97324
 30
0.0
 40
11.25
100
AcDbArc
 50
-261.359702
 51
-98.640298
  0
ARC
  5
286
100
AcDbEntity
  8
0
  6
Continuous
 62
   174
100
AcDbCircle
 10
684.001762
 20
153.97324
 30
0.0
 40
6.075
100
AcDbArc
 50
-90.0
 51
90.0
  0
LINE
  5
287
100
AcDbEntity
  8
0
  6
Continuous
 62
   174
100
AcDbLine
 10
594.001762
 20
189.97324
 30
0.0
 11
594.001762
 21
117.97324
 31
0.0
  0
LINE
  5
288
100
AcDbEntity
  8
0
  6
Continuous
 62
   174
100
AcDbLine
 10
558.001762
 20
117.97324
 30
0.0
 11
378.001762
 21
117.97324
 31
0.0
  0
LINE
  5
289
100
AcDbEntity
  8
0
  6
Continuous
 62
   174
100
AcDbLine
 10
722.251762
 20
121.445313
 30
0.0
 11
722.251762
 21
121.830894
 31
0.0
  0
LINE
  5
28A
100
AcDbEntity
  8
0
  6
Continuous
 62
   174
100
AcDbLine
 10
213.751762
 20
186.307098
 30
0.0
 11
213.751762
 21
178.818048
 31
0.0
  0
LINE
  5
28B
100
AcDbEntity
  8
0
  6
Continuous
 62
   174
100
AcDbLine
 10
722.251762
 20
170.942817
 30
0.0
 11
722.251762
 21
172.47732
 31
0.0
  0
LINE
  5
28C
100
AcDbEntity
  8
0
  6
Continuous
 62
   174
100
AcDbLine
 10
213.751762
 20
137.194573
 30
0.0
 11
213.751762
 21
135.660672
 31
0.0
  0
LINE
  5
28D
100
AcDbEntity
  8
0
  6
Continuous
 62
   174
100
AcDbLine
 10
691.201762
 20
134.39824
 30
0.0
 11
691.201762
 21
137.99824
 31
0.0
  0
LINE
  5
28E
100
AcDbEntity
  8
0
  6
Continuous
 62
   174
100
AcDbLine
 10
244.801762
 20
173.54824
 30
0.0
 11
244.801762
 21
169.94824
 31
0.0
  0
LINE
  5
28F
100
AcDbEntity
  8
0
  6
Continuous
 62
   174
100
AcDbLine
 10
594.001762
 20
189.97324
 30
0.0
 11
648.001762
 21
189.97324
 31
0.0
  0
LINE
  5
290
100
AcDbEntity
  8
0
  6
Continuous
 62
   174
100
AcDbLine
 10
594.001762
 20
117.97324
 30
0.0
 11
648.001762
 21
117.97324
 31
0.0
  0
LINE
  5
291
100
AcDbEntity
  8
0
  6
Continuous
 62
   174
100
AcDbLine
 10
342.001762
 20
189.97324
 30
0.0
 11
288.001762
 21
189.97324
 31
0.0
  0
LINE
  5
292
100
AcDbEntity
  8
0
  6
Continuous
 62
   174
100
AcDbLine
 10
594.001762
 20
189.97324
 30
0.0
 11
558.001762
 21
189.97324
 31
0.0
  0
LINE
  5
293
100
AcDbEntity
  8
0
  6
Continuous
 62
   174
100
AcDbLine
 10
722.251762
 20
170.942817
 30
0.0
 11
722.251762
 21
171.328398
 31
0.0
  0
LINE
  5
294
100
AcDbEntity
  8
0
  6
Continuous
 62
   174
100
AcDbLine
 10
213.751762
 20
137.194573
 30
0.0
 11
213.751762
 21
136.808993
 31
0.0
  0
LINE
  5
295
100
AcDbEntity
  8
0
  6
Continuous
 62
   174
100
AcDbLine
 10
213.751762
 20
121.830894
 30
0.0
 11
213.751762
 21
121.445313
 31
0.0
  0
ARC
  5
296
100
AcDbEntity
  8
0
  6
Continuous
 62
   174
100
AcDbCircle
 10
216.001762
 20
186.59824
 30
0.0
 40
2.25
100
AcDbArc
 50
-270.0
 51
-180.0
  0
ARC
  5
297
100
AcDbEntity
  8
0
  6
Continuous
 62
   174
100
AcDbCircle
 10
495.001762
 20
153.97324
 30
0.0
 40
22.5
100
AcDbArc
 50
-120.010833
 51
-90.0
  0
ARC
  5
298
100
AcDbEntity
  8
0
  6
Continuous
 62
   174
100
AcDbCircle
 10
441.001762
 20
153.97324
 30
0.0
 40
22.5
100
AcDbArc
 50
-90.0
 51
-60.017377
  0
LINE
  5
299
100
AcDbEntity
  8
0
  6
Continuous
 62
   174
100
AcDbLine
 10
691.201762
 20
169.94824
 30
0.0
 11
691.201762
 21
173.54824
 31
0.0
  0
LINE
  5
29A
100
AcDbEntity
  8
0
  6
Continuous
 62
   174
100
AcDbLine
 10
244.801762
 20
137.99824
 30
0.0
 11
244.801762
 21
134.39824
 31
0.0
  0
ARC
  5
29B
100
AcDbEntity
  8
0
  6
Continuous
 62
   174
100
AcDbCircle
 10
684.001762
 20
153.97324
 30
0.0
 40
11.25
100
AcDbArc
 50
-98.640298
 51
-90.0
  0
LINE
  5
29C
100
AcDbEntity
  8
0
  6
Continuous
 62
   174
100
AcDbLine
 10
342.001762
 20
189.97324
 30
0.0
 11
378.001762
 21
189.97324
 31
0.0
  0
LINE
  5
29D
100
AcDbEntity
  8
0
  6
Continuous
 62
   174
100
AcDbLine
 10
558.001762
 20
189.97324
 30
0.0
 11
378.001762
 21
189.97324
 31
0.0
  0
LINE
  5
29E
100
AcDbEntity
  8
0
  6
Continuous
 62
   174
100
AcDbLine
 10
722.251762
 20
186.307098
 30
0.0
 11
722.251762
 21
186.692077
 31
0.0
  0
LINE
  5
29F
100
AcDbEntity
  8
0
  6
Continuous
 62
   174
100
AcDbLine
 10
213.751762
 20
129.319943
 30
0.0
 11
213.751762
 21
121.830894
 31
0.0
  0
LINE
  5
2A0
100
AcDbEntity
  8
0
  6
Continuous
 62
   174
100
AcDbLine
 10
722.251762
 20
121.445313
 30
0.0
 11
722.251762
 21
129.319943
 31
0.0
  0
ARC
  5
2A1
100
AcDbEntity
  8
0
  6
Continuous
 62
   174
100
AcDbCircle
 10
441.001762
 20
153.97324
 30
0.0
 40
22.5
100
AcDbArc
 50
-299.982623
 51
-270.0
  0
LINE
  5
2A2
100
AcDbEntity
  8
0
  6
Continuous
 62
   174
100
AcDbLine
 10
244.801762
 20
134.39824
 30
0.0
 11
259.201762
 21
134.39824
 31
0.0
  0
ARC
  5
2A3
100
AcDbEntity
  8
0
  6
Continuous
 62
   174
100
AcDbCircle
 10
684.001762
 20
153.97324
 30
0.0
 40
11.25
100
AcDbArc
 50
-81.359702
 51
81.359702
  0
ARC
  5
2A4
100
AcDbEntity
  8
0
  6
Continuous
 62
   174
100
AcDbCircle
 10
252.001762
 20
153.97324
 30
0.0
 40
11.25
100
AcDbArc
 50
-261.359702
 51
-98.640298
  0
LINE
  5
2A5
100
AcDbEntity
  8
0
  6
Continuous
 62
   174
100
AcDbLine
 10
271.351762
 20
146.77324
 30
0.0
 11
271.351762
 21
161.17324
 31
0.0
  0
LINE
  5
2A6
100
AcDbEntity
  8
0
  6
Continuous
 62
   174
100
AcDbLine
 10
271.351762
 20
161.17324
 30
0.0
 11
267.751762
 21
161.17324
 31
0.0
  0
ARC
  5
2A7
100
AcDbEntity
  8
0
  6
Continuous
 62
   174
100
AcDbCircle
 10
441.001762
 20
153.97324
 30
0.0
 40
22.5
100
AcDbArc
 50
-180.0
 51
0.0
  0
ARC
  5
2A8
100
AcDbEntity
  8
0
  6
Continuous
 62
   174
100
AcDbCircle
 10
360.001762
 20
153.97324
 30
0.0
 40
9.0
100
AcDbArc
 50
0.0
 51
180.0
  0
LINE
  5
2A9
100
AcDbEntity
  8
0
  6
Continuous
 62
   174
100
AcDbLine
 10
267.751762
 20
146.77324
 30
0.0
 11
271.351762
 21
146.77324
 31
0.0
  0
ARC
  5
2AA
100
AcDbEntity
  8
0
  6
Continuous
 62
   174
100
AcDbCircle
 10
252.001762
 20
153.97324
 30
0.0
 40
11.25
100
AcDbArc
 50
-98.640298
 51
-90.0
  0
ARC
  5
2AB
100
AcDbEntity
  8
0
  6
Continuous
 62
   174
100
AcDbCircle
 10
252.001762
 20
153.97324
 30
0.0
 40
11.25
100
AcDbArc
 50
-90.0
 51
-81.359702
  0
LINE
  5
2AC
100
AcDbEntity
  8
0
  6
Continuous
 62
   174
100
AcDbLine
 10
267.751762
 20
161.17324
 30
0.0
 11
267.751762
 21
146.77324
 31
0.0
  0
ARC
  5
2AD
100
AcDbEntity
  8
0
  6
Continuous
 62
   174
100
AcDbCircle
 10
576.001762
 20
153.97324
 30
0.0
 40
9.0
100
AcDbArc
 50
0.0
 51
180.0
  0
ARC
  5
2AE
100
AcDbEntity
  8
0
  6
Continuous
 62
   174
100
AcDbCircle
 10
252.001762
 20
153.97324
 30
0.0
 40
11.25
100
AcDbArc
 50
-81.359702
 51
81.359702
  0
ARC
  5
2AF
100
AcDbEntity
  8
0
  6
Continuous
 62
   174
100
AcDbCircle
 10
360.001762
 20
153.97324
 30
0.0
 40
9.0
100
AcDbArc
 50
180.0
 51
360.0
  0
ARC
  5
2B0
100
AcDbEntity
  8
0
  6
Continuous
 62
   174
100
AcDbCircle
 10
252.001762
 20
153.97324
 30
0.0
 40
11.25
100
AcDbArc
 50
-278.640298
 51
-270.0
  0
LINE
  5
2B1
100
AcDbEntity
  8
0
  6
Continuous
 62
   174
100
AcDbLine
 10
668.251762
 20
161.17324
 30
0.0
 11
664.651762
 21
161.17324
 31
0.0
  0
LINE
  5
2B2
100
AcDbEntity
  8
0
  6
Continuous
 62
   174
100
AcDbLine
 10
664.651762
 20
161.17324
 30
0.0
 11
664.651762
 21
146.77324
 31
0.0
  0
ARC
  5
2B3
100
AcDbEntity
  8
0
  6
Continuous
 62
   174
100
AcDbCircle
 10
495.001762
 20
153.97324
 30
0.0
 40
22.5
100
AcDbArc
 50
0.0
 51
180.0
  0
ARC
  5
2B4
100
AcDbEntity
  8
0
  6
Continuous
 62
   174
100
AcDbCircle
 10
576.001762
 20
153.97324
 30
0.0
 40
9.0
100
AcDbArc
 50
-180.0
 51
0.0
  0
LINE
  5
2B5
100
AcDbEntity
  8
0
  6
Continuous
 62
   174
100
AcDbLine
 10
668.251762
 20
146.77324
 30
0.0
 11
668.251762
 21
161.17324
 31
0.0
  0
ARC
  5
2B6
100
AcDbEntity
  8
0
  6
Continuous
 62
   174
100
AcDbCircle
 10
252.001762
 20
153.97324
 30
0.0
 40
11.25
100
AcDbArc
 50
-270.0
 51
-261.359702
  0
ARC
  5
2B7
100
AcDbEntity
  8
0
  6
Continuous
 62
   174
100
AcDbCircle
 10
495.001762
 20
153.97324
 30
0.0
 40
22.5
100
AcDbArc
 50
-180.0
 51
0.0
  0
ARC
  5
2B8
100
AcDbEntity
  8
0
  6
Continuous
 62
   174
100
AcDbCircle
 10
441.001762
 20
153.97324
 30
0.0
 40
22.5
100
AcDbArc
 50
0.0
 51
180.0
  0
LINE
  5
2B9
100
AcDbEntity
  8
0
  6
Continuous
 62
   174
100
AcDbLine
 10
664.651762
 20
146.77324
 30
0.0
 11
668.251762
 21
146.77324
 31
0.0
  0
ENDBLK
  5
2BA
100
AcDbEntity
  8
0
100
AcDbBlockEnd
  0
BLOCK
  5
2BD
100
AcDbEntity
  8
0
100
AcDbBlockBegin
  2
*B3
 70
     0
 10
0.0
 20
0.0
 30
0.0
  3
*B3
  1

  0
LINE
  5
2BE
100
AcDbEntity
  8
0
  6
Continuous
 62
   172
100
AcDbLine
 10
315.63515
 20
322.988672
 30
0.0
 11
275.829389
 21
255.297528
 31
0.0
  0
LINE
  5
2BF
100
AcDbEntity
  8
0
  6
Continuous
 62
   172
100
AcDbLine
 10
275.829389
 20
255.297528
 30
0.0
 11
256.91015
 21
255.297528
 31
0.0
  0
ENDBLK
  5
2C0
100
AcDbEntity
  8
0
100
AcDbBlockEnd
  0
BLOCK
  5
2C3
100
AcDbEntity
  8
0
100
AcDbBlockBegin
  2
*B4
 70
     0
 10
0.0
 20
0.0
 30
0.0
  3
*B4
  1

  0
LINE
  5
2C4
100
AcDbEntity
  8
0
  6
Continuous
 62
   172
100
AcDbLine
 10
271.898289
 20
259.400533
 30
0.0
 11
267.848289
 21
260.888672
 31
0.0
  0
LINE
  5
2C5
100
AcDbEntity
  8
0
  6
Continuous
 62
   172
100
AcDbLine
 10
271.898289
 20
259.400533
 30
0.0
 11
267.848289
 21
258.188672
 31
0.0
  0
LINE
  5
2C6
100
AcDbEntity
  8
0
  6
Continuous
 62
   172
100
AcDbLine
 10
269.198289
 20
259.400533
 30
0.0
 11
271.898289
 21
259.400533
 31
0.0
  0
LINE
  5
2C7
100
AcDbEntity
  8
0
  6
Continuous
 62
   172
100
AcDbLine
 10
271.898289
 20
282.626811
 30
0.0
 11
267.848289
 21
281.138672
 31
0.0
  0
LINE
  5
2C8
100
AcDbEntity
  8
0
  6
Continuous
 62
   172
100
AcDbLine
 10
271.898289
 20
282.626811
 30
0.0
 11
267.848289
 21
283.838672
 31
0.0
  0
LINE
  5
2C9
100
AcDbEntity
  8
0
  6
Continuous
 62
   172
100
AcDbLine
 10
269.198289
 20
282.626811
 30
0.0
 11
271.898289
 21
282.626811
 31
0.0
  0
ARC
  5
2CA
100
AcDbEntity
  8
0
  6
Continuous
 62
   172
100
AcDbCircle
 10
269.198289
 20
271.013672
 30
0.0
 40
11.613139
100
AcDbArc
 50
-270.0
 51
-90.0
  0
ENDBLK
  5
2CB
100
AcDbEntity
  8
0
100
AcDbBlockEnd
  0
BLOCK
  5
2CE
100
AcDbEntity
  8
0
100
AcDbBlockBegin
  2
*B5
 70
     0
 10
0.0
 20
0.0
 30
0.0
  3
*B5
  1

  0
ENDBLK
  5
2CF
100
AcDbEntity
  8
0
100
AcDbBlockEnd
  0
BLOCK
  5
2D1
100
AcDbEntity
  8
0
100
AcDbBlockBegin
  2
*B6
 70
     0
 10
0.0
 20
0.0
 30
0.0
  3
*B6
  1

  0
LINE
  5
2D2
100
AcDbEntity
  8
0
  6
Continuous
 62
   172
100
AcDbLine
 10
345.727096
 20
215.075395
 30
0.0
 11
326.807856
 21
215.075395
 31
0.0
  0
LINE
  5
2D3
100
AcDbEntity
  8
0
  6
Continuous
 62
   172
100
AcDbLine
 10
371.522098
 20
171.210055
 30
0.0
 11
345.727096
 21
215.075395
 31
0.0
  0
ENDBLK
  5
2D4
100
AcDbEntity
  8
0
100
AcDbBlockEnd
  0
BLOCK
  5
2D7
100
AcDbEntity
  8
0
100
AcDbBlockBegin
  2
*B7
 70
     0
 10
0.0
 20
0.0
 30
0.0
  3
*B7
  1

  0
LINE
  5
2D8
100
AcDbEntity
  8
0
  6
Continuous
 62
   172
100
AcDbLine
 10
341.795995
 20
219.1784
 30
0.0
 11
337.745995
 21
220.666539
 31
0.0
  0
LINE
  5
2D9
100
AcDbEntity
  8
0
  6
Continuous
 62
   172
100
AcDbLine
 10
341.795995
 20
219.1784
 30
0.0
 11
337.745995
 21
217.966539
 31
0.0
  0
LINE
  5
2DA
100
AcDbEntity
  8
0
  6
Continuous
 62
   172
100
AcDbLine
 10
339.095995
 20
219.1784
 30
0.0
 11
341.795995
 21
219.1784
 31
0.0
  0
LINE
  5
2DB
100
AcDbEntity
  8
0
  6
Continuous
 62
   172
100
AcDbLine
 10
341.795995
 20
242.404678
 30
0.0
 11
337.745995
 21
240.916539
 31
0.0
  0
LINE
  5
2DC
100
AcDbEntity
  8
0
  6
Continuous
 62
   172
100
AcDbLine
 10
341.795995
 20
242.404678
 30
0.0
 11
337.745995
 21
243.616539
 31
0.0
  0
LINE
  5
2DD
100
AcDbEntity
  8
0
  6
Continuous
 62
   172
100
AcDbLine
 10
339.095995
 20
242.404678
 30
0.0
 11
341.795995
 21
242.404678
 31
0.0
  0
ARC
  5
2DE
100
AcDbEntity
  8
0
  6
Continuous
 62
   172
100
AcDbCircle
 10
339.095995
 20
230.791539
 30
0.0
 40
11.613139
100
AcDbArc
 50
-270.0
 51
-90.0
  0
ENDBLK
  5
2DF
100
AcDbEntity
  8
0
100
AcDbBlockEnd
  0
BLOCK
  5
2E2
100
AcDbEntity
  8
0
100
AcDbBlockBegin
  2
*B8
 70
     0
 10
0.0
 20
0.0
 30
0.0
  3
*B8
  1

  0
ENDBLK
  5
2E3
100
AcDbEntity
  8
0
100
AcDbBlockEnd
  0
BLOCK
  5
2E5
100
AcDbEntity
  8
0
100
AcDbBlockBegin
  2
*B9
 70
     0
 10
0.0
 20
0.0
 30
0.0
  3
*B9
  1

  0
LINE
  5
2E6
100
AcDbEntity
  8
0
  6
Continuous
 62
     0
100
AcDbLine
 10
496.09629
 20
340.087059
 30
0.0
 11
439.849618
 21
340.087059
 31
0.0
  0
SOLID
  5
2E7
100
AcDbEntity
  8
0
  6
Continuous
 62
     0
100
AcDbTrace
 10
486.097055
 20
338.086971
 30
0.0
 11
496.09629
 21
340.087059
 31
0.0
 12
486.097055
 22
342.087146
 32
0.0
 13
486.097055
 23
342.087146
 33
0.0
  0
SOLID
  5
2E8
100
AcDbEntity
  8
0
  6
Continuous
 62
     0
100
AcDbTrace
 10
449.849454
 20
342.087146
 30
0.0
 11
439.849618
 21
340.087059
 31
0.0
 12
449.849454
 22
338.086971
 32
0.0
 13
449.849454
 23
338.086971
 33
0.0
  0
ENDBLK
  5
2E9
100
AcDbEntity
  8
0
100
AcDbBlockEnd
  0
BLOCK
  5
2EC
100
AcDbEntity
  8
0
100
AcDbBlockBegin
  2
*B10
 70
     0
 10
0.0
 20
0.0
 30
0.0
  3
*B10
  1

  0
LINE
  5
2ED
100
AcDbEntity
  8
0
  6
Continuous
 62
     0
100
AcDbLine
 10
581.964708
 20
381.228106
 30
0.0
 11
581.964708
 21
324.980232
 31
0.0
  0
SOLID
  5
2EE
100
AcDbEntity
  8
0
  6
Continuous
 62
     0
100
AcDbTrace
 10
583.964194
 20
371.228271
 30
0.0
 11
581.964708
 21
381.228106
 31
0.0
 12
579.96462
 22
371.228271
 32
0.0
 13
579.96462
 23
371.228271
 33
0.0
  0
SOLID
  5
2EF
100
AcDbEntity
  8
0
  6
Continuous
 62
     0
100
AcDbTrace
 10
579.96462
 20
334.980068
 30
0.0
 11
581.964708
 21
324.980232
 31
0.0
 12
583.964194
 22
334.980068
 32
0.0
 13
583.964194
 23
334.980068
 33
0.0
  0
ENDBLK
  5
2F0
100
AcDbEntity
  8
0
100
AcDbBlockEnd
  0
BLOCK
  5
2F3
100
AcDbEntity
  8
0
100
AcDbBlockBegin
  2
*B11
 70
     0
 10
0.0
 20
0.0
 30
0.0
  3
*B11
  1

  0
LINE
  5
2F4
100
AcDbEntity
  8
0
  6
Continuous
 62
     0
100
AcDbLine
 10
615.961985
 20
296.856897
 30
0.0
 11
615.961985
 21
409.351442
 31
0.0
  0
SOLID
  5
2F5
100
AcDbEntity
  8
0
  6
Continuous
 62
     0
100
AcDbTrace
 10
613.962499
 20
306.856131
 30
0.0
 11
615.961985
 21
296.856897
 31
0.0
 12
617.962072
 22
306.856131
 32
0.0
 13
617.962072
 23
306.856131
 33
0.0
  0
SOLID
  5
2F6
100
AcDbEntity
  8
0
  6
Continuous
 62
     0
100
AcDbTrace
 10
617.962072
 20
399.352208
 30
0.0
 11
615.961985
 21
409.351442
 31
0.0
 12
613.962499
 22
399.352208
 32
0.0
 13
613.962499
 23
399.352208
 33
0.0
  0
ENDBLK
  5
2F7
100
AcDbEntity
  8
0
100
AcDbBlockEnd
  0
BLOCK
  5
2FA
100
AcDbEntity
  8
0
100
AcDbBlockBegin
  2
*B12
 70
     0
 10
0.0
 20
0.0
 30
0.0
  3
*B12
  1

  0
LINE
  5
2FB
100
AcDbEntity
  8
0
  6
Continuous
 62
     0
100
AcDbLine
 10
494.971428
 20
478.080464
 30
0.0
 11
557.967869
 21
478.080464
 31
0.0
  0
SOLID
  5
2FC
100
AcDbEntity
  8
0
  6
Continuous
 62
     0
100
AcDbTrace
 10
504.970663
 20
480.080551
 30
0.0
 11
494.971428
 21
478.080464
 31
0.0
 12
504.970663
 22
476.080376
 32
0.0
 13
504.970663
 23
476.080376
 33
0.0
  0
SOLID
  5
2FD
100
AcDbEntity
  8
0
  6
Continuous
 62
     0
100
AcDbTrace
 10
547.968033
 20
476.080376
 30
0.0
 11
557.967869
 21
478.080464
 31
0.0
 12
547.968033
 22
480.080551
 32
0.0
 13
547.968033
 23
480.080551
 33
0.0
  0
ENDBLK
  5
2FE
100
AcDbEntity
  8
0
100
AcDbBlockEnd
  0
BLOCK
  5
301
100
AcDbEntity
  8
0
100
AcDbBlockBegin
  2
*B13
 70
     0
 10
0.0
 20
0.0
 30
0.0
  3
*B13
  1

  0
LINE
  5
302
100
AcDbEntity
  8
0
  6
Continuous
 62
     0
100
AcDbLine
 10
440.975081
 20
478.080464
 30
0.0
 11
494.971428
 21
478.080464
 31
0.0
  0
SOLID
  5
303
100
AcDbEntity
  8
0
  6
Continuous
 62
     0
100
AcDbTrace
 10
450.974316
 20
480.080551
 30
0.0
 11
440.975081
 21
478.080464
 31
0.0
 12
450.974316
 22
476.080376
 32
0.0
 13
450.974316
 23
476.080376
 33
0.0
  0
SOLID
  5
304
100
AcDbEntity
  8
0
  6
Continuous
 62
     0
100
AcDbTrace
 10
484.972194
 20
476.080376
 30
0.0
 11
494.971428
 21
478.080464
 31
0.0
 12
484.972194
 22
480.080551
 32
0.0
 13
484.972194
 23
480.080551
 33
0.0
  0
ENDBLK
  5
305
100
AcDbEntity
  8
0
100
AcDbBlockEnd
  0
BLOCK
  5
308
100
AcDbEntity
  8
0
100
AcDbBlockBegin
  2
*B14
 70
     0
 10
0.0
 20
0.0
 30
0.0
  3
*B14
  1

  0
LINE
  5
309
100
AcDbEntity
  8
0
  6
Continuous
 62
     0
100
AcDbLine
 10
521.969903
 20
240.091707
 30
0.0
 11
557.967869
 21
240.091707
 31
0.0
  0
SOLID
  5
30A
100
AcDbEntity
  8
0
  6
Continuous
 62
     0
100
AcDbTrace
 10
531.969137
 20
242.091794
 30
0.0
 11
521.969903
 21
240.091707
 31
0.0
 12
531.969137
 22
238.091619
 32
0.0
 13
531.969137
 23
238.091619
 33
0.0
  0
SOLID
  5
30B
100
AcDbEntity
  8
0
  6
Continuous
 62
     0
100
AcDbTrace
 10
547.968033
 20
238.091619
 30
0.0
 11
557.967869
 21
240.091707
 31
0.0
 12
547.968033
 22
242.091794
 32
0.0
 13
547.968033
 23
242.091794
 33
0.0
  0
ENDBLK
  5
30C
100
AcDbEntity
  8
0
100
AcDbBlockEnd
  0
BLOCK
  5
30F
100
AcDbEntity
  8
0
100
AcDbBlockBegin
  2
*B15
 70
     0
 10
0.0
 20
0.0
 30
0.0
  3
*B15
  1

  0
LINE
  5
310
100
AcDbEntity
  8
0
  6
Continuous
 62
     0
100
AcDbLine
 10
467.972954
 20
240.091707
 30
0.0
 11
521.969903
 21
240.091707
 31
0.0
  0
SOLID
  5
311
100
AcDbEntity
  8
0
  6
Continuous
 62
     0
100
AcDbTrace
 10
477.97279
 20
242.091794
 30
0.0
 11
467.972954
 21
240.091707
 31
0.0
 12
477.97279
 22
238.091619
 32
0.0
 13
477.97279
 23
238.091619
 33
0.0
  0
SOLID
  5
312
100
AcDbEntity
  8
0
  6
Continuous
 62
     0
100
AcDbTrace
 10
511.970668
 20
238.091619
 30
0.0
 11
521.969903
 21
240.091707
 31
0.0
 12
511.970668
 22
242.091794
 32
0.0
 13
511.970668
 23
242.091794
 33
0.0
  0
ENDBLK
  5
313
100
AcDbEntity
  8
0
100
AcDbBlockEnd
  0
BLOCK
  5
316
100
AcDbEntity
  8
0
100
AcDbBlockBegin
  2
*B16
 70
     0
 10
0.0
 20
0.0
 30
0.0
  3
*B16
  1

  0
LINE
  5
317
100
AcDbEntity
  8
0
  6
Continuous
 62
     0
100
AcDbLine
 10
467.972954
 20
240.091707
 30
0.0
 11
413.976607
 21
240.091707
 31
0.0
  0
SOLID
  5
318
100
AcDbEntity
  8
0
  6
Continuous
 62
     0
100
AcDbTrace
 10
457.97372
 20
238.091619
 30
0.0
 11
467.972954
 21
240.091707
 31
0.0
 12
457.97372
 22
242.091794
 32
0.0
 13
457.97372
 23
242.091794
 33
0.0
  0
SOLID
  5
319
100
AcDbEntity
  8
0
  6
Continuous
 62
     0
100
AcDbTrace
 10
423.975841
 20
242.091794
 30
0.0
 11
413.976607
 21
240.091707
 31
0.0
 12
423.975841
 22
238.091619
 32
0.0
 13
423.975841
 23
238.091619
 33
0.0
  0
ENDBLK
  5
31A
100
AcDbEntity
  8
0
100
AcDbBlockEnd
  0
BLOCK
  5
31D
100
AcDbEntity
  8
0
100
AcDbBlockBegin
  2
*B17
 70
     0
 10
0.0
 20
0.0
 30
0.0
  3
*B17
  1

  0
LINE
  5
31E
100
AcDbEntity
  8
0
  6
Continuous
 62
     0
100
AcDbLine
 10
398.430062
 20
456.081306
 30
0.0
 11
469.973042
 21
456.081306
 31
0.0
  0
SOLID
  5
31F
100
AcDbEntity
  8
0
  6
Continuous
 62
     0
100
AcDbTrace
 10
421.975754
 20
454.08182
 30
0.0
 11
431.97559
 21
456.081306
 31
0.0
 12
421.975754
 22
458.081393
 32
0.0
 13
421.975754
 23
458.081393
 33
0.0
  0
SOLID
  5
320
100
AcDbEntity
  8
0
  6
Continuous
 62
     0
100
AcDbTrace
 10
459.973807
 20
458.081393
 30
0.0
 11
449.973971
 21
456.081306
 31
0.0
 12
459.973807
 22
454.08182
 32
0.0
 13
459.973807
 23
454.08182
 33
0.0
  0
ENDBLK
  5
321
100
AcDbEntity
  8
0
100
AcDbBlockEnd
  0
BLOCK
  5
324
100
AcDbEntity
  8
0
100
AcDbBlockBegin
  2
*B18
 70
     0
 10
0.0
 20
0.0
 30
0.0
  3
*B18
  1

  0
LINE
  5
325
100
AcDbEntity
  8
0
  6
Continuous
 62
     0
100
AcDbLine
 10
557.967869
 20
214.092975
 30
0.0
 11
377.978641
 21
214.092975
 31
0.0
  0
SOLID
  5
326
100
AcDbEntity
  8
0
  6
Continuous
 62
     0
100
AcDbTrace
 10
547.968033
 20
212.092888
 30
0.0
 11
557.967869
 21
214.092975
 31
0.0
 12
547.968033
 22
216.093063
 32
0.0
 13
547.968033
 23
216.093063
 33
0.0
  0
SOLID
  5
327
100
AcDbEntity
  8
0
  6
Continuous
 62
     0
100
AcDbTrace
 10
387.977875
 20
216.093063
 30
0.0
 11
377.978641
 21
214.092975
 31
0.0
 12
387.977875
 22
212.092888
 32
0.0
 13
387.977875
 23
212.092888
 33
0.0
  0
ENDBLK
  5
328
100
AcDbEntity
  8
0
100
AcDbBlockEnd
  0
BLOCK
  5
32B
100
AcDbEntity
  8
0
100
AcDbBlockBegin
  2
*B19
 70
     0
 10
0.0
 20
0.0
 30
0.0
  3
*B19
  1

  0
LINE
  5
32C
100
AcDbEntity
  8
0
  6
Continuous
 62
     0
100
AcDbLine
 10
215.988396
 20
500.079622
 30
0.0
 11
719.957512
 21
500.079622
 31
0.0
  0
SOLID
  5
32D
100
AcDbEntity
  8
0
  6
Continuous
 62
     0
100
AcDbTrace
 10
225.988232
 20
502.079108
 30
0.0
 11
215.988396
 21
500.079622
 31
0.0
 12
225.988232
 22
498.079534
 32
0.0
 13
225.988232
 23
498.079534
 33
0.0
  0
SOLID
  5
32E
100
AcDbEntity
  8
0
  6
Continuous
 62
     0
100
AcDbTrace
 10
709.958277
 20
498.079534
 30
0.0
 11
719.957512
 21
500.079622
 31
0.0
 12
709.958277
 22
502.079108
 32
0.0
 13
709.958277
 23
502.079108
 33
0.0
  0
ENDBLK
  5
32F
100
AcDbEntity
  8
0
100
AcDbBlockEnd
  0
BLOCK
  5
332
100
AcDbEntity
  8
0
100
AcDbBlockBegin
  2
*B20
 70
     0
 10
0.0
 20
0.0
 30
0.0
  3
*B20
  1

  0
LINE
  5
333
100
AcDbEntity
  8
0
  6
Continuous
 62
     0
100
AcDbLine
 10
189.988462
 20
420.601258
 30
0.0
 11
189.988462
 21
303.606666
 31
0.0
  0
SOLID
  5
334
100
AcDbEntity
  8
0
  6
Continuous
 62
     0
100
AcDbTrace
 10
191.988549
 20
410.601422
 30
0.0
 11
189.988462
 21
420.601258
 31
0.0
 12
187.988374
 22
410.601422
 32
0.0
 13
187.988374
 23
410.601422
 33
0.0
  0
SOLID
  5
335
100
AcDbEntity
  8
0
  6
Continuous
 62
     0
100
AcDbTrace
 10
187.988374
 20
313.6059
 30
0.0
 11
189.988462
 21
303.606666
 31
0.0
 12
191.988549
 22
313.6059
 32
0.0
 13
191.988549
 23
313.6059
 33
0.0
  0
ENDBLK
  5
336
100
AcDbEntity
  8
0
100
AcDbBlockEnd
  0
BLOCK
  5
339
100
AcDbEntity
  8
0
100
AcDbBlockBegin
  2
*B21
 70
     0
 10
0.0
 20
0.0
 30
0.0
  3
*B21
  1

  0
LINE
  5
33A
100
AcDbEntity
  8
0
  6
Continuous
 62
     0
100
AcDbLine
 10
189.988462
 20
323.605736
 30
0.0
 11
189.988462
 21
263.132113
 31
0.0
  0
SOLID
  5
33B
100
AcDbEntity
  8
0
  6
Continuous
 62
     0
100
AcDbTrace
 10
187.988374
 20
313.6059
 30
0.0
 11
189.988462
 21
303.606666
 31
0.0
 12
191.988549
 22
313.6059
 32
0.0
 13
191.988549
 23
313.6059
 33
0.0
  0
SOLID
  5
33C
100
AcDbEntity
  8
0
  6
Continuous
 62
     0
100
AcDbTrace
 10
191.988549
 20
286.857061
 30
0.0
 11
189.988462
 21
296.856897
 31
0.0
 12
187.988374
 22
286.857061
 32
0.0
 13
187.988374
 23
286.857061
 33
0.0
  0
ENDBLK
  5
33D
100
AcDbEntity
  8
0
100
AcDbBlockEnd
  0
BLOCK
  5
340
100
AcDbEntity
  8
0
100
AcDbBlockBegin
  2
*B22
 70
     0
 10
0.0
 20
0.0
 30
0.0
  3
*B22
  1

  0
LINE
  5
341
100
AcDbEntity
  8
0
  6
Continuous
 62
     0
100
AcDbLine
 10
187.988374
 20
118.070729
 30
0.0
 11
187.988374
 21
190.067262
 31
0.0
  0
SOLID
  5
342
100
AcDbEntity
  8
0
  6
Continuous
 62
     0
100
AcDbTrace
 10
185.988889
 20
128.069964
 30
0.0
 11
187.988374
 21
118.070729
 31
0.0
 12
189.988462
 22
128.069964
 32
0.0
 13
189.988462
 23
128.069964
 33
0.0
  0
SOLID
  5
343
100
AcDbEntity
  8
0
  6
Continuous
 62
     0
100
AcDbTrace
 10
189.988462
 20
180.067426
 30
0.0
 11
187.988374
 21
190.067262
 31
0.0
 12
185.988889
 22
180.067426
 32
0.0
 13
185.988889
 23
180.067426
 33
0.0
  0
ENDBLK
  5
344
100
AcDbEntity
  8
0
100
AcDbBlockEnd
  0
BLOCK
  5
347
100
AcDbEntity
  8
0
100
AcDbBlockBegin
  2
*B23
 70
     0
 10
0.0
 20
0.0
 30
0.0
  3
*B23
  1

  0
LINE
  5
348
100
AcDbEntity
  8
0
  6
Continuous
 62
     0
100
AcDbLine
 10
615.961985
 20
389.352372
 30
0.0
 11
615.961985
 21
459.949144
 31
0.0
  0
SOLID
  5
349
100
AcDbEntity
  8
0
  6
Continuous
 62
     0
100
AcDbTrace
 10
617.962072
 20
399.352208
 30
0.0
 11
615.961985
 21
409.351442
 31
0.0
 12
613.962499
 22
399.352208
 32
0.0
 13
613.962499
 23
399.352208
 33
0.0
  0
SOLID
  5
34A
100
AcDbEntity
  8
0
  6
Continuous
 62
     0
100
AcDbTrace
 10
613.962499
 20
449.94991
 30
0.0
 11
615.961985
 21
439.950074
 31
0.0
 12
617.962072
 22
449.94991
 32
0.0
 13
617.962072
 23
449.94991
 33
0.0
  0
ENDBLK
  5
34B
100
AcDbEntity
  8
0
100
AcDbBlockEnd
  0
BLOCK
  5
34E
100
AcDbEntity
  8
0
100
AcDbBlockBegin
  2
*B24
 70
     0
 10
0.0
 20
0.0
 30
0.0
  3
*B24
  1

  0
LINE
  5
34F
100
AcDbEntity
  8
0
  6
Continuous
 62
     0
100
AcDbLine
 10
492.521396
 20
268.090525
 30
0.0
 11
566.923448
 21
268.090525
 31
0.0
  0
SOLID
  5
350
100
AcDbEntity
  8
0
  6
Continuous
 62
     0
100
AcDbTrace
 10
502.521232
 20
266.090438
 30
0.0
 11
512.520467
 21
268.090525
 31
0.0
 12
502.521232
 22
270.090011
 32
0.0
 13
502.521232
 23
270.090011
 33
0.0
  0
SOLID
  5
351
100
AcDbEntity
  8
0
  6
Continuous
 62
     0
100
AcDbTrace
 10
541.418573
 20
270.090011
 30
0.0
 11
531.419339
 21
268.090525
 31
0.0
 12
541.418573
 22
266.090438
 32
0.0
 13
541.418573
 23
266.090438
 33
0.0
  0
ENDBLK
  5
352
100
AcDbEntity
  8
0
100
AcDbBlockEnd
  0
BLOCK
  5
355
100
AcDbEntity
  8
0
100
AcDbBlockBegin
  2
*B25
 70
     0
 10
0.0
 20
0.0
 30
0.0
  3
*B25
  1

  0
LINE
  5
356
100
AcDbEntity
  8
0
  6
Continuous
 62
     8
100
AcDbLine
 10
575.96625
 20
139.069543
 30
0.0
 11
575.96625
 21
146.069548
 31
0.0
  0
LINE
  5
357
100
AcDbEntity
  8
0
  6
Continuous
 62
     8
100
AcDbLine
 10
575.96625
 20
162.068444
 30
0.0
 11
575.96625
 21
169.068449
 31
0.0
  0
ENDBLK
  5
358
100
AcDbEntity
  8
0
100
AcDbBlockEnd
  0
BLOCK
  5
35B
100
AcDbEntity
  8
0
100
AcDbBlockBegin
  2
*B26
 70
     0
 10
0.0
 20
0.0
 30
0.0
  3
*B26
  1

  0
LINE
  5
35C
100
AcDbEntity
  8
0
  6
Continuous
 62
     8
100
AcDbLine
 10
494.971428
 20
125.570005
 30
0.0
 11
494.971428
 21
146.069548
 31
0.0
  0
LINE
  5
35D
100
AcDbEntity
  8
0
  6
Continuous
 62
     8
100
AcDbLine
 10
494.971428
 20
162.068444
 30
0.0
 11
494.971428
 21
182.567385
 31
0.0
  0
ENDBLK
  5
35E
100
AcDbEntity
  8
0
100
AcDbBlockEnd
  0
BLOCK
  5
361
100
AcDbEntity
  8
0
100
AcDbBlockBegin
  2
*B27
 70
     0
 10
0.0
 20
0.0
 30
0.0
  3
*B27
  1

  0
LINE
  5
362
100
AcDbEntity
  8
0
  6
Continuous
 62
     8
100
AcDbLine
 10
494.971428
 20
476.080376
 30
0.0
 11
494.971428
 21
480.080551
 31
0.0
  0
LINE
  5
363
100
AcDbEntity
  8
0
  6
Continuous
 62
     8
100
AcDbLine
 10
494.971428
 20
403.351781
 30
0.0
 11
494.971428
 21
418.261907
 31
0.0
  0
LINE
  5
364
100
AcDbEntity
  8
0
  6
Continuous
 62
     8
100
AcDbLine
 10
494.971428
 20
424.261568
 30
0.0
 11
494.971428
 21
426.261656
 31
0.0
  0
LINE
  5
365
100
AcDbEntity
  8
0
  6
Continuous
 62
     8
100
AcDbLine
 10
494.971428
 20
432.261317
 30
0.0
 11
494.971428
 21
447.171443
 31
0.0
  0
LINE
  5
366
100
AcDbEntity
  8
0
  6
Continuous
 62
     8
100
AcDbLine
 10
494.971428
 20
453.171103
 30
0.0
 11
494.971428
 21
455.170589
 31
0.0
  0
LINE
  5
367
100
AcDbEntity
  8
0
  6
Continuous
 62
     8
100
AcDbLine
 10
494.971428
 20
461.170852
 30
0.0
 11
494.971428
 21
476.080376
 31
0.0
  0
ENDBLK
  5
368
100
AcDbEntity
  8
0
100
AcDbBlockEnd
  0
BLOCK
  5
36B
100
AcDbEntity
  8
0
100
AcDbBlockBegin
  2
*B28
 70
     0
 10
0.0
 20
0.0
 30
0.0
  3
*B28
  1

  0
LINE
  5
36C
100
AcDbEntity
  8
0
  6
Continuous
 62
     8
100
AcDbLine
 10
413.976607
 20
238.091619
 30
0.0
 11
413.976607
 21
242.091794
 31
0.0
  0
LINE
  5
36D
100
AcDbEntity
  8
0
  6
Continuous
 62
     8
100
AcDbLine
 10
413.976607
 20
242.091794
 30
0.0
 11
413.976607
 21
263.512882
 31
0.0
  0
LINE
  5
36E
100
AcDbEntity
  8
0
  6
Continuous
 62
     8
100
AcDbLine
 10
413.976607
 20
269.513144
 30
0.0
 11
413.976607
 21
271.51263
 31
0.0
  0
LINE
  5
36F
100
AcDbEntity
  8
0
  6
Continuous
 62
     8
100
AcDbLine
 10
413.976607
 20
277.512291
 30
0.0
 11
413.976607
 21
298.93398
 31
0.0
  0
LINE
  5
370
100
AcDbEntity
  8
0
  6
Continuous
 62
     8
100
AcDbLine
 10
413.976607
 20
304.933641
 30
0.0
 11
413.976607
 21
306.933728
 31
0.0
  0
LINE
  5
371
100
AcDbEntity
  8
0
  6
Continuous
 62
     8
100
AcDbLine
 10
413.976607
 20
312.933389
 30
0.0
 11
413.976607
 21
334.355078
 31
0.0
  0
ENDBLK
  5
372
100
AcDbEntity
  8
0
100
AcDbBlockEnd
  0
BLOCK
  5
375
100
AcDbEntity
  8
0
100
AcDbBlockBegin
  2
*B29
 70
     0
 10
0.0
 20
0.0
 30
0.0
  3
*B29
  1

  0
LINE
  5
376
100
AcDbEntity
  8
0
  6
Continuous
 62
     8
100
AcDbLine
 10
185.988889
 20
118.070729
 30
0.0
 11
209.989337
 21
118.070729
 31
0.0
  0
ENDBLK
  5
377
100
AcDbEntity
  8
0
100
AcDbBlockEnd
  0
BLOCK
  5
37A
100
AcDbEntity
  8
0
100
AcDbBlockBegin
  2
*B30
 70
     0
 10
0.0
 20
0.0
 30
0.0
  3
*B30
  1

  0
LINE
  5
37B
100
AcDbEntity
  8
0
  6
Continuous
 62
     8
100
AcDbLine
 10
251.986362
 20
136.81982
 30
0.0
 11
251.986362
 21
146.069548
 31
0.0
  0
LINE
  5
37C
100
AcDbEntity
  8
0
  6
Continuous
 62
     8
100
AcDbLine
 10
251.986362
 20
162.068444
 30
0.0
 11
251.986362
 21
171.318172
 31
0.0
  0
ENDBLK
  5
37D
100
AcDbEntity
  8
0
100
AcDbBlockEnd
  0
BLOCK
  5
380
100
AcDbEntity
  8
0
100
AcDbBlockBegin
  2
*B31
 70
     0
 10
0.0
 20
0.0
 30
0.0
  3
*B31
  1

  0
LINE
  5
381
100
AcDbEntity
  8
0
  6
Continuous
 62
     8
100
AcDbLine
 10
187.988374
 20
303.606666
 30
0.0
 11
209.989337
 21
303.606666
 31
0.0
  0
ENDBLK
  5
382
100
AcDbEntity
  8
0
100
AcDbBlockEnd
  0
BLOCK
  5
385
100
AcDbEntity
  8
0
100
AcDbBlockBegin
  2
*B32
 70
     0
 10
0.0
 20
0.0
 30
0.0
  3
*B32
  1

  0
LINE
  5
386
100
AcDbEntity
  8
0
  6
Continuous
 62
     8
100
AcDbLine
 10
523.469517
 20
439.950074
 30
0.0
 11
617.962072
 21
439.950074
 31
0.0
  0
ENDBLK
  5
387
100
AcDbEntity
  8
0
100
AcDbBlockEnd
  0
BLOCK
  5
38A
100
AcDbEntity
  8
0
100
AcDbBlockBegin
  2
*B33
 70
     0
 10
0.0
 20
0.0
 30
0.0
  3
*B33
  1

  0
LINE
  5
38B
100
AcDbEntity
  8
0
  6
Continuous
 62
     8
100
AcDbLine
 10
496.09629
 20
311.555886
 30
0.0
 11
496.09629
 21
316.981085
 31
0.0
  0
LINE
  5
38C
100
AcDbEntity
  8
0
  6
Continuous
 62
     8
100
AcDbLine
 10
496.09629
 20
332.979981
 30
0.0
 11
496.09629
 21
342.087146
 31
0.0
  0
ENDBLK
  5
38D
100
AcDbEntity
  8
0
100
AcDbBlockEnd
  0
BLOCK
  5
390
100
AcDbEntity
  8
0
100
AcDbBlockBegin
  2
*B34
 70
     0
 10
0.0
 20
0.0
 30
0.0
  3
*B34
  1

  0
LINE
  5
391
100
AcDbEntity
  8
0
  6
Continuous
 62
     8
100
AcDbLine
 10
563.96753
 20
409.351442
 30
0.0
 11
617.962072
 21
409.351442
 31
0.0
  0
ENDBLK
  5
392
100
AcDbEntity
  8
0
100
AcDbBlockEnd
  0
BLOCK
  5
395
100
AcDbEntity
  8
0
100
AcDbBlockBegin
  2
*B35
 70
     0
 10
0.0
 20
0.0
 30
0.0
  3
*B35
  1

  0
LINE
  5
396
100
AcDbEntity
  8
0
  6
Continuous
 62
     8
100
AcDbLine
 10
209.989337
 20
353.104169
 30
0.0
 11
225.432419
 21
353.104169
 31
0.0
  0
LINE
  5
397
100
AcDbEntity
  8
0
  6
Continuous
 62
     8
100
AcDbLine
 10
231.43208
 20
353.104169
 30
0.0
 11
233.432167
 21
353.104169
 31
0.0
  0
LINE
  5
398
100
AcDbEntity
  8
0
  6
Continuous
 62
     8
100
AcDbLine
 10
239.431828
 20
353.104169
 30
0.0
 11
254.87491
 21
353.104169
 31
0.0
  0
LINE
  5
399
100
AcDbEntity
  8
0
  6
Continuous
 62
     8
100
AcDbLine
 10
260.874571
 20
353.104169
 30
0.0
 11
262.874658
 21
353.104169
 31
0.0
  0
LINE
  5
39A
100
AcDbEntity
  8
0
  6
Continuous
 62
     8
100
AcDbLine
 10
268.874319
 20
353.104169
 30
0.0
 11
284.318002
 21
353.104169
 31
0.0
  0
LINE
  5
39B
100
AcDbEntity
  8
0
  6
Continuous
 62
     8
100
AcDbLine
 10
290.317663
 20
353.104169
 30
0.0
 11
292.317149
 21
353.104169
 31
0.0
  0
LINE
  5
39C
100
AcDbEntity
  8
0
  6
Continuous
 62
     8
100
AcDbLine
 10
298.31681
 20
353.104169
 30
0.0
 11
313.760493
 21
353.104169
 31
0.0
  0
LINE
  5
39D
100
AcDbEntity
  8
0
  6
Continuous
 62
     8
100
AcDbLine
 10
319.760154
 20
353.104169
 30
0.0
 11
321.75964
 21
353.104169
 31
0.0
  0
LINE
  5
39E
100
AcDbEntity
  8
0
  6
Continuous
 62
     8
100
AcDbLine
 10
327.759301
 20
353.104169
 30
0.0
 11
343.202984
 21
353.104169
 31
0.0
  0
LINE
  5
39F
100
AcDbEntity
  8
0
  6
Continuous
 62
     8
100
AcDbLine
 10
349.202645
 20
353.104169
 30
0.0
 11
351.202733
 21
353.104169
 31
0.0
  0
LINE
  5
3A0
100
AcDbEntity
  8
0
  6
Continuous
 62
     8
100
AcDbLine
 10
357.202394
 20
353.104169
 30
0.0
 11
372.645475
 21
353.104169
 31
0.0
  0
LINE
  5
3A1
100
AcDbEntity
  8
0
  6
Continuous
 62
     8
100
AcDbLine
 10
378.645136
 20
353.104169
 30
0.0
 11
380.645224
 21
353.104169
 31
0.0
  0
LINE
  5
3A2
100
AcDbEntity
  8
0
  6
Continuous
 62
     8
100
AcDbLine
 10
386.644885
 20
353.104169
 30
0.0
 11
402.088568
 21
353.104169
 31
0.0
  0
LINE
  5
3A3
100
AcDbEntity
  8
0
  6
Continuous
 62
     8
100
AcDbLine
 10
408.088229
 20
353.104169
 30
0.0
 11
410.087715
 21
353.104169
 31
0.0
  0
LINE
  5
3A4
100
AcDbEntity
  8
0
  6
Continuous
 62
     8
100
AcDbLine
 10
416.087376
 20
353.104169
 30
0.0
 11
431.531059
 21
353.104169
 31
0.0
  0
LINE
  5
3A5
100
AcDbEntity
  8
0
  6
Continuous
 62
     8
100
AcDbLine
 10
437.53072
 20
353.104169
 30
0.0
 11
439.530206
 21
353.104169
 31
0.0
  0
LINE
  5
3A6
100
AcDbEntity
  8
0
  6
Continuous
 62
     8
100
AcDbLine
 10
445.529867
 20
353.104169
 30
0.0
 11
460.97355
 21
353.104169
 31
0.0
  0
LINE
  5
3A7
100
AcDbEntity
  8
0
  6
Continuous
 62
     8
100
AcDbLine
 10
466.973211
 20
353.104169
 30
0.0
 11
468.973299
 21
353.104169
 31
0.0
  0
LINE
  5
3A8
100
AcDbEntity
  8
0
  6
Continuous
 62
     8
100
AcDbLine
 10
474.97296
 20
353.104169
 30
0.0
 11
490.416041
 21
353.104169
 31
0.0
  0
LINE
  5
3A9
100
AcDbEntity
  8
0
  6
Continuous
 62
     8
100
AcDbLine
 10
496.415702
 20
353.104169
 30
0.0
 11
498.41579
 21
353.104169
 31
0.0
  0
LINE
  5
3AA
100
AcDbEntity
  8
0
  6
Continuous
 62
     8
100
AcDbLine
 10
504.415451
 20
353.104169
 30
0.0
 11
519.859134
 21
353.104169
 31
0.0
  0
LINE
  5
3AB
100
AcDbEntity
  8
0
  6
Continuous
 62
     8
100
AcDbLine
 10
525.858193
 20
353.104169
 30
0.0
 11
527.858281
 21
353.104169
 31
0.0
  0
LINE
  5
3AC
100
AcDbEntity
  8
0
  6
Continuous
 62
     8
100
AcDbLine
 10
533.857942
 20
353.104169
 30
0.0
 11
549.301625
 21
353.104169
 31
0.0
  0
LINE
  5
3AD
100
AcDbEntity
  8
0
  6
Continuous
 62
     8
100
AcDbLine
 10
555.301286
 20
353.104169
 30
0.0
 11
557.300772
 21
353.104169
 31
0.0
  0
LINE
  5
3AE
100
AcDbEntity
  8
0
  6
Continuous
 62
     8
100
AcDbLine
 10
563.300433
 20
353.104169
 30
0.0
 11
578.744116
 21
353.104169
 31
0.0
  0
LINE
  5
3AF
100
AcDbEntity
  8
0
  6
Continuous
 62
     8
100
AcDbLine
 10
584.743777
 20
353.104169
 30
0.0
 11
586.743864
 21
353.104169
 31
0.0
  0
LINE
  5
3B0
100
AcDbEntity
  8
0
  6
Continuous
 62
     8
100
AcDbLine
 10
592.742924
 20
353.104169
 30
0.0
 11
608.186607
 21
353.104169
 31
0.0
  0
LINE
  5
3B1
100
AcDbEntity
  8
0
  6
Continuous
 62
     8
100
AcDbLine
 10
614.186268
 20
353.104169
 30
0.0
 11
616.186355
 21
353.104169
 31
0.0
  0
LINE
  5
3B2
100
AcDbEntity
  8
0
  6
Continuous
 62
     8
100
AcDbLine
 10
622.186016
 20
353.104169
 30
0.0
 11
637.629098
 21
353.104169
 31
0.0
  0
LINE
  5
3B3
100
AcDbEntity
  8
0
  6
Continuous
 62
     8
100
AcDbLine
 10
643.628759
 20
353.104169
 30
0.0
 11
645.628846
 21
353.104169
 31
0.0
  0
LINE
  5
3B4
100
AcDbEntity
  8
0
  6
Continuous
 62
     8
100
AcDbLine
 10
651.628507
 20
353.104169
 30
0.0
 11
667.072191
 21
353.104169
 31
0.0
  0
LINE
  5
3B5
100
AcDbEntity
  8
0
  6
Continuous
 62
     8
100
AcDbLine
 10
673.071851
 20
353.104169
 30
0.0
 11
675.071337
 21
353.104169
 31
0.0
  0
LINE
  5
3B6
100
AcDbEntity
  8
0
  6
Continuous
 62
     8
100
AcDbLine
 10
681.070998
 20
353.104169
 30
0.0
 11
696.514682
 21
353.104169
 31
0.0
  0
LINE
  5
3B7
100
AcDbEntity
  8
0
  6
Continuous
 62
     8
100
AcDbLine
 10
702.514343
 20
353.104169
 30
0.0
 11
704.51443
 21
353.104169
 31
0.0
  0
LINE
  5
3B8
100
AcDbEntity
  8
0
  6
Continuous
 62
     8
100
AcDbLine
 10
710.514091
 20
353.104169
 30
0.0
 11
725.957173
 21
353.104169
 31
0.0
  0
ENDBLK
  5
3B9
100
AcDbEntity
  8
0
100
AcDbBlockEnd
  0
BLOCK
  5
3BC
100
AcDbEntity
  8
0
100
AcDbBlockBegin
  2
*B36
 70
     0
 10
0.0
 20
0.0
 30
0.0
  3
*B36
  1

  0
LINE
  5
3BD
100
AcDbEntity
  8
0
  6
Continuous
 62
     8
100
AcDbLine
 10
439.849618
 20
311.555886
 30
0.0
 11
439.849618
 21
316.981085
 31
0.0
  0
LINE
  5
3BE
100
AcDbEntity
  8
0
  6
Continuous
 62
     8
100
AcDbLine
 10
439.849618
 20
332.979981
 30
0.0
 11
439.849618
 21
342.087146
 31
0.0
  0
ENDBLK
  5
3BF
100
AcDbEntity
  8
0
100
AcDbBlockEnd
  0
BLOCK
  5
3C2
100
AcDbEntity
  8
0
100
AcDbBlockBegin
  2
*B37
 70
     0
 10
0.0
 20
0.0
 30
0.0
  3
*B37
  1

  0
LINE
  5
3C3
100
AcDbEntity
  8
0
  6
Continuous
 62
     8
100
AcDbLine
 10
431.97559
 20
445.949735
 30
0.0
 11
431.97559
 21
458.081393
 31
0.0
  0
ENDBLK
  5
3C4
100
AcDbEntity
  8
0
100
AcDbBlockEnd
  0
BLOCK
  5
3C7
100
AcDbEntity
  8
0
100
AcDbBlockBegin
  2
*B38
 70
     0
 10
0.0
 20
0.0
 30
0.0
  3
*B38
  1

  0
LINE
  5
3C8
100
AcDbEntity
  8
0
  6
Continuous
 62
     8
100
AcDbLine
 10
187.988374
 20
296.856897
 30
0.0
 11
371.97898
 21
296.856897
 31
0.0
  0
LINE
  5
3C9
100
AcDbEntity
  8
0
  6
Continuous
 62
     8
100
AcDbLine
 10
563.96753
 20
296.856897
 30
0.0
 11
617.962072
 21
296.856897
 31
0.0
  0
ENDBLK
  5
3CA
100
AcDbEntity
  8
0
100
AcDbBlockEnd
  0
BLOCK
  5
3CD
100
AcDbEntity
  8
0
100
AcDbBlockBegin
  2
*B39
 70
     0
 10
0.0
 20
0.0
 30
0.0
  3
*B39
  1

  0
LINE
  5
3CE
100
AcDbEntity
  8
0
  6
Continuous
 62
     8
100
AcDbLine
 10
440.975081
 20
476.080376
 30
0.0
 11
440.975081
 21
480.080551
 31
0.0
  0
LINE
  5
3CF
100
AcDbEntity
  8
0
  6
Continuous
 62
     8
100
AcDbLine
 10
440.975081
 20
403.351781
 30
0.0
 11
440.975081
 21
418.261907
 31
0.0
  0
LINE
  5
3D0
100
AcDbEntity
  8
0
  6
Continuous
 62
     8
100
AcDbLine
 10
440.975081
 20
424.261568
 30
0.0
 11
440.975081
 21
426.261656
 31
0.0
  0
LINE
  5
3D1
100
AcDbEntity
  8
0
  6
Continuous
 62
     8
100
AcDbLine
 10
440.975081
 20
432.261317
 30
0.0
 11
440.975081
 21
447.171443
 31
0.0
  0
LINE
  5
3D2
100
AcDbEntity
  8
0
  6
Continuous
 62
     8
100
AcDbLine
 10
440.975081
 20
453.171103
 30
0.0
 11
440.975081
 21
455.170589
 31
0.0
  0
LINE
  5
3D3
100
AcDbEntity
  8
0
  6
Continuous
 62
     8
100
AcDbLine
 10
440.975081
 20
461.170852
 30
0.0
 11
440.975081
 21
476.080376
 31
0.0
  0
ENDBLK
  5
3D4
100
AcDbEntity
  8
0
100
AcDbBlockEnd
  0
BLOCK
  5
3D7
100
AcDbEntity
  8
0
100
AcDbBlockBegin
  2
*B40
 70
     0
 10
0.0
 20
0.0
 30
0.0
  3
*B40
  1

  0
LINE
  5
3D8
100
AcDbEntity
  8
0
  6
Continuous
 62
     8
100
AcDbLine
 10
209.989337
 20
154.068695
 30
0.0
 11
243.987215
 21
154.068695
 31
0.0
  0
LINE
  5
3D9
100
AcDbEntity
  8
0
  6
Continuous
 62
     8
100
AcDbLine
 10
259.986111
 20
154.068695
 30
0.0
 11
281.318172
 21
154.068695
 31
0.0
  0
LINE
  5
3DA
100
AcDbEntity
  8
0
  6
Continuous
 62
     8
100
AcDbLine
 10
287.317833
 20
154.068695
 30
0.0
 11
289.317319
 21
154.068695
 31
0.0
  0
LINE
  5
3DB
100
AcDbEntity
  8
0
  6
Continuous
 62
     8
100
AcDbLine
 10
295.31698
 20
154.068695
 30
0.0
 11
316.649041
 21
154.068695
 31
0.0
  0
LINE
  5
3DC
100
AcDbEntity
  8
0
  6
Continuous
 62
     8
100
AcDbLine
 10
322.648702
 20
154.068695
 30
0.0
 11
324.648789
 21
154.068695
 31
0.0
  0
LINE
  5
3DD
100
AcDbEntity
  8
0
  6
Continuous
 62
     8
100
AcDbLine
 10
330.64845
 20
154.068695
 30
0.0
 11
351.980511
 21
154.068695
 31
0.0
  0
LINE
  5
3DE
100
AcDbEntity
  8
0
  6
Continuous
 62
     8
100
AcDbLine
 10
367.979407
 20
154.068695
 30
0.0
 11
393.477665
 21
154.068695
 31
0.0
  0
LINE
  5
3DF
100
AcDbEntity
  8
0
  6
Continuous
 62
     8
100
AcDbLine
 10
399.477326
 20
154.068695
 30
0.0
 11
401.477413
 21
154.068695
 31
0.0
  0
LINE
  5
3E0
100
AcDbEntity
  8
0
  6
Continuous
 62
     8
100
AcDbLine
 10
407.477074
 20
154.068695
 30
0.0
 11
432.975333
 21
154.068695
 31
0.0
  0
LINE
  5
3E1
100
AcDbEntity
  8
0
  6
Continuous
 62
     8
100
AcDbLine
 10
448.974228
 20
154.068695
 30
0.0
 11
486.972281
 21
154.068695
 31
0.0
  0
LINE
  5
3E2
100
AcDbEntity
  8
0
  6
Continuous
 62
     8
100
AcDbLine
 10
502.971177
 20
154.068695
 30
0.0
 11
528.469435
 21
154.068695
 31
0.0
  0
LINE
  5
3E3
100
AcDbEntity
  8
0
  6
Continuous
 62
     8
100
AcDbLine
 10
534.469096
 20
154.068695
 30
0.0
 11
536.469184
 21
154.068695
 31
0.0
  0
LINE
  5
3E4
100
AcDbEntity
  8
0
  6
Continuous
 62
     8
100
AcDbLine
 10
542.468845
 20
154.068695
 30
0.0
 11
567.967103
 21
154.068695
 31
0.0
  0
LINE
  5
3E5
100
AcDbEntity
  8
0
  6
Continuous
 62
     8
100
AcDbLine
 10
583.965998
 20
154.068695
 30
0.0
 11
605.298059
 21
154.068695
 31
0.0
  0
LINE
  5
3E6
100
AcDbEntity
  8
0
  6
Continuous
 62
     8
100
AcDbLine
 10
611.29772
 20
154.068695
 30
0.0
 11
613.297808
 21
154.068695
 31
0.0
  0
LINE
  5
3E7
100
AcDbEntity
  8
0
  6
Continuous
 62
     8
100
AcDbLine
 10
619.297469
 20
154.068695
 30
0.0
 11
640.62953
 21
154.068695
 31
0.0
  0
LINE
  5
3E8
100
AcDbEntity
  8
0
  6
Continuous
 62
     8
100
AcDbLine
 10
646.628589
 20
154.068695
 30
0.0
 11
648.628677
 21
154.068695
 31
0.0
  0
LINE
  5
3E9
100
AcDbEntity
  8
0
  6
Continuous
 62
     8
100
AcDbLine
 10
654.628338
 20
154.068695
 30
0.0
 11
675.960399
 21
154.068695
 31
0.0
  0
LINE
  5
3EA
100
AcDbEntity
  8
0
  6
Continuous
 62
     8
100
AcDbLine
 10
691.959294
 20
154.068695
 30
0.0
 11
725.957173
 21
154.068695
 31
0.0
  0
ENDBLK
  5
3EB
100
AcDbEntity
  8
0
100
AcDbBlockEnd
  0
BLOCK
  5
3EE
100
AcDbEntity
  8
0
100
AcDbBlockBegin
  2
*B41
 70
     0
 10
0.0
 20
0.0
 30
0.0
  3
*B41
  1

  0
LINE
  5
3EF
100
AcDbEntity
  8
0
  6
Continuous
 62
     8
100
AcDbLine
 10
719.957512
 20
426.600919
 30
0.0
 11
719.957512
 21
502.079108
 31
0.0
  0
ENDBLK
  5
3F0
100
AcDbEntity
  8
0
100
AcDbBlockEnd
  0
BLOCK
  5
3F3
100
AcDbEntity
  8
0
100
AcDbBlockBegin
  2
*B42
 70
     0
 10
0.0
 20
0.0
 30
0.0
  3
*B42
  1

  0
LINE
  5
3F4
100
AcDbEntity
  8
0
  6
Continuous
 62
     8
100
AcDbLine
 10
440.975081
 20
125.570005
 30
0.0
 11
440.975081
 21
146.069548
 31
0.0
  0
LINE
  5
3F5
100
AcDbEntity
  8
0
  6
Continuous
 62
     8
100
AcDbLine
 10
440.975081
 20
162.068444
 30
0.0
 11
440.975081
 21
182.567385
 31
0.0
  0
ENDBLK
  5
3F6
100
AcDbEntity
  8
0
100
AcDbBlockEnd
  0
BLOCK
  5
3F9
100
AcDbEntity
  8
0
100
AcDbBlockBegin
  2
*B43
 70
     0
 10
0.0
 20
0.0
 30
0.0
  3
*B43
  1

  0
LINE
  5
3FA
100
AcDbEntity
  8
0
  6
Continuous
 62
     8
100
AcDbLine
 10
359.979658
 20
139.069543
 30
0.0
 11
359.979658
 21
146.069548
 31
0.0
  0
LINE
  5
3FB
100
AcDbEntity
  8
0
  6
Continuous
 62
     8
100
AcDbLine
 10
359.979658
 20
162.068444
 30
0.0
 11
359.979658
 21
169.068449
 31
0.0
  0
ENDBLK
  5
3FC
100
AcDbEntity
  8
0
100
AcDbBlockEnd
  0
BLOCK
  5
3FF
100
AcDbEntity
  8
0
100
AcDbBlockBegin
  2
*B44
 70
     0
 10
0.0
 20
0.0
 30
0.0
  3
*B44
  1

  0
LINE
  5
400
100
AcDbEntity
  8
0
  6
Continuous
 62
     8
100
AcDbLine
 10
531.419339
 20
266.090438
 30
0.0
 11
531.419339
 21
290.857236
 31
0.0
  0
ENDBLK
  5
401
100
AcDbEntity
  8
0
100
AcDbBlockEnd
  0
BLOCK
  5
404
100
AcDbEntity
  8
0
100
AcDbBlockBegin
  2
*B45
 70
     0
 10
0.0
 20
0.0
 30
0.0
  3
*B45
  1

  0
LINE
  5
405
100
AcDbEntity
  8
0
  6
Continuous
 62
     8
100
AcDbLine
 10
449.973971
 20
445.949735
 30
0.0
 11
449.973971
 21
458.081393
 31
0.0
  0
ENDBLK
  5
406
100
AcDbEntity
  8
0
100
AcDbBlockEnd
  0
BLOCK
  5
409
100
AcDbEntity
  8
0
100
AcDbBlockBegin
  2
*B46
 70
     0
 10
0.0
 20
0.0
 30
0.0
  3
*B46
  1

  0
LINE
  5
40A
100
AcDbEntity
  8
0
  6
Continuous
 62
     8
100
AcDbLine
 10
467.972954
 20
367.80376
 30
0.0
 11
467.972954
 21
373.228358
 31
0.0
  0
LINE
  5
40B
100
AcDbEntity
  8
0
  6
Continuous
 62
     8
100
AcDbLine
 10
467.972954
 20
389.227253
 30
0.0
 11
467.972954
 21
394.652453
 31
0.0
  0
ENDBLK
  5
40C
100
AcDbEntity
  8
0
100
AcDbBlockEnd
  0
BLOCK
  5
40F
100
AcDbEntity
  8
0
100
AcDbBlockBegin
  2
*B47
 70
     0
 10
0.0
 20
0.0
 30
0.0
  3
*B47
  1

  0
LINE
  5
410
100
AcDbEntity
  8
0
  6
Continuous
 62
     8
100
AcDbLine
 10
579.96462
 20
381.228106
 30
0.0
 11
583.964194
 21
381.228106
 31
0.0
  0
LINE
  5
411
100
AcDbEntity
  8
0
  6
Continuous
 62
     8
100
AcDbLine
 10
454.549209
 20
381.228106
 30
0.0
 11
459.973807
 21
381.228106
 31
0.0
  0
LINE
  5
412
100
AcDbEntity
  8
0
  6
Continuous
 62
     8
100
AcDbLine
 10
475.972703
 20
381.228106
 30
0.0
 11
491.471125
 21
381.228106
 31
0.0
  0
LINE
  5
413
100
AcDbEntity
  8
0
  6
Continuous
 62
     8
100
AcDbLine
 10
497.470786
 20
381.228106
 30
0.0
 11
499.470873
 21
381.228106
 31
0.0
  0
LINE
  5
414
100
AcDbEntity
  8
0
  6
Continuous
 62
     8
100
AcDbLine
 10
505.470534
 20
381.228106
 30
0.0
 11
520.968957
 21
381.228106
 31
0.0
  0
LINE
  5
415
100
AcDbEntity
  8
0
  6
Continuous
 62
     8
100
AcDbLine
 10
526.968618
 20
381.228106
 30
0.0
 11
528.968705
 21
381.228106
 31
0.0
  0
LINE
  5
416
100
AcDbEntity
  8
0
  6
Continuous
 62
     8
100
AcDbLine
 10
534.968366
 20
381.228106
 30
0.0
 11
550.466789
 21
381.228106
 31
0.0
  0
LINE
  5
417
100
AcDbEntity
  8
0
  6
Continuous
 62
     8
100
AcDbLine
 10
556.466449
 20
381.228106
 30
0.0
 11
558.466537
 21
381.228106
 31
0.0
  0
LINE
  5
418
100
AcDbEntity
  8
0
  6
Continuous
 62
     8
100
AcDbLine
 10
564.466198
 20
381.228106
 30
0.0
 11
579.96462
 21
381.228106
 31
0.0
  0
ENDBLK
  5
419
100
AcDbEntity
  8
0
100
AcDbBlockEnd
  0
BLOCK
  5
41C
100
AcDbEntity
  8
0
100
AcDbBlockBegin
  2
*B48
 70
     0
 10
0.0
 20
0.0
 30
0.0
  3
*B48
  1

  0
LINE
  5
41D
100
AcDbEntity
  8
0
  6
Continuous
 62
     8
100
AcDbLine
 10
185.988889
 20
190.067262
 30
0.0
 11
209.989337
 21
190.067262
 31
0.0
  0
ENDBLK
  5
41E
100
AcDbEntity
  8
0
100
AcDbBlockEnd
  0
BLOCK
  5
421
100
AcDbEntity
  8
0
100
AcDbBlockBegin
  2
*B49
 70
     0
 10
0.0
 20
0.0
 30
0.0
  3
*B49
  1

  0
LINE
  5
422
100
AcDbEntity
  8
0
  6
Continuous
 62
     8
100
AcDbLine
 10
521.969903
 20
238.091619
 30
0.0
 11
521.969903
 21
242.091794
 31
0.0
  0
LINE
  5
423
100
AcDbEntity
  8
0
  6
Continuous
 62
     8
100
AcDbLine
 10
521.969903
 20
242.091794
 30
0.0
 11
521.969903
 21
263.512882
 31
0.0
  0
LINE
  5
424
100
AcDbEntity
  8
0
  6
Continuous
 62
     8
100
AcDbLine
 10
521.969903
 20
269.513144
 30
0.0
 11
521.969903
 21
271.51263
 31
0.0
  0
LINE
  5
425
100
AcDbEntity
  8
0
  6
Continuous
 62
     8
100
AcDbLine
 10
521.969903
 20
277.512291
 30
0.0
 11
521.969903
 21
298.93398
 31
0.0
  0
LINE
  5
426
100
AcDbEntity
  8
0
  6
Continuous
 62
     8
100
AcDbLine
 10
521.969903
 20
304.933641
 30
0.0
 11
521.969903
 21
306.933728
 31
0.0
  0
LINE
  5
427
100
AcDbEntity
  8
0
  6
Continuous
 62
     8
100
AcDbLine
 10
521.969903
 20
312.933389
 30
0.0
 11
521.969903
 21
334.355078
 31
0.0
  0
ENDBLK
  5
428
100
AcDbEntity
  8
0
100
AcDbBlockEnd
  0
BLOCK
  5
42B
100
AcDbEntity
  8
0
100
AcDbBlockBegin
  2
*B50
 70
     0
 10
0.0
 20
0.0
 30
0.0
  3
*B50
  1

  0
LINE
  5
42C
100
AcDbEntity
  8
0
  6
Continuous
 62
     8
100
AcDbLine
 10
215.988396
 20
426.600919
 30
0.0
 11
215.988396
 21
502.079108
 31
0.0
  0
ENDBLK
  5
42D
100
AcDbEntity
  8
0
100
AcDbBlockEnd
  0
BLOCK
  5
430
100
AcDbEntity
  8
0
100
AcDbBlockBegin
  2
*B51
 70
     0
 10
0.0
 20
0.0
 30
0.0
  3
*B51
  1

  0
LINE
  5
431
100
AcDbEntity
  8
0
  6
Continuous
 62
     8
100
AcDbLine
 10
683.960147
 20
136.81982
 30
0.0
 11
683.960147
 21
146.069548
 31
0.0
  0
LINE
  5
432
100
AcDbEntity
  8
0
  6
Continuous
 62
     8
100
AcDbLine
 10
683.960147
 20
162.068444
 30
0.0
 11
683.960147
 21
171.318172
 31
0.0
  0
ENDBLK
  5
433
100
AcDbEntity
  8
0
100
AcDbBlockEnd
  0
BLOCK
  5
436
100
AcDbEntity
  8
0
100
AcDbBlockBegin
  2
*B52
 70
     0
 10
0.0
 20
0.0
 30
0.0
  3
*B52
  1

  0
LINE
  5
437
100
AcDbEntity
  8
0
  6
Continuous
 62
     8
100
AcDbLine
 10
187.988374
 20
420.601258
 30
0.0
 11
209.989337
 21
420.601258
 31
0.0
  0
ENDBLK
  5
438
100
AcDbEntity
  8
0
100
AcDbBlockEnd
  0
BLOCK
  5
43B
100
AcDbEntity
  8
0
100
AcDbBlockBegin
  2
*B53
 70
     0
 10
0.0
 20
0.0
 30
0.0
  3
*B53
  1

  0
LINE
  5
43C
100
AcDbEntity
  8
0
  6
Continuous
 62
     8
100
AcDbLine
 10
377.978641
 20
212.092888
 30
0.0
 11
377.978641
 21
290.857236
 31
0.0
  0
ENDBLK
  5
43D
100
AcDbEntity
  8
0
100
AcDbBlockEnd
  0
BLOCK
  5
440
100
AcDbEntity
  8
0
100
AcDbBlockBegin
  2
*B54
 70
     0
 10
0.0
 20
0.0
 30
0.0
  3
*B54
  1

  0
LINE
  5
441
100
AcDbEntity
  8
0
  6
Continuous
 62
     8
100
AcDbLine
 10
467.972954
 20
238.091619
 30
0.0
 11
467.972954
 21
242.091794
 31
0.0
  0
LINE
  5
442
100
AcDbEntity
  8
0
  6
Continuous
 62
     8
100
AcDbLine
 10
467.972954
 20
242.091794
 30
0.0
 11
467.972954
 21
265.474471
 31
0.0
  0
LINE
  5
443
100
AcDbEntity
  8
0
  6
Continuous
 62
     8
100
AcDbLine
 10
467.972954
 20
271.474132
 30
0.0
 11
467.972954
 21
273.47422
 31
0.0
  0
LINE
  5
444
100
AcDbEntity
  8
0
  6
Continuous
 62
     8
100
AcDbLine
 10
467.972954
 20
279.473881
 30
0.0
 11
467.972954
 21
302.856558
 31
0.0
  0
ENDBLK
  5
445
100
AcDbEntity
  8
0
100
AcDbBlockEnd
  0
BLOCK
  5
448
100
AcDbEntity
  8
0
100
AcDbBlockBegin
  2
*B55
 70
     0
 10
0.0
 20
0.0
 30
0.0
  3
*B55
  1

  0
LINE
  5
449
100
AcDbEntity
  8
0
  6
Continuous
 62
     8
100
AcDbLine
 10
512.520467
 20
266.090438
 30
0.0
 11
512.520467
 21
290.857236
 31
0.0
  0
ENDBLK
  5
44A
100
AcDbEntity
  8
0
100
AcDbBlockEnd
  0
BLOCK
  5
44D
100
AcDbEntity
  8
0
100
AcDbBlockBegin
  2
*B56
 70
     0
 10
0.0
 20
0.0
 30
0.0
  3
*B56
  1

  0
LINE
  5
44E
100
AcDbEntity
  8
0
  6
Continuous
 62
     8
100
AcDbLine
 10
579.96462
 20
324.980232
 30
0.0
 11
583.964194
 21
324.980232
 31
0.0
  0
LINE
  5
44F
100
AcDbEntity
  8
0
  6
Continuous
 62
     8
100
AcDbLine
 10
482.672544
 20
324.980232
 30
0.0
 11
488.097143
 21
324.980232
 31
0.0
  0
LINE
  5
450
100
AcDbEntity
  8
0
  6
Continuous
 62
     8
100
AcDbLine
 10
504.096038
 20
324.980232
 30
0.0
 11
520.052826
 21
324.980232
 31
0.0
  0
LINE
  5
451
100
AcDbEntity
  8
0
  6
Continuous
 62
     8
100
AcDbLine
 10
526.052487
 20
324.980232
 30
0.0
 11
528.051973
 21
324.980232
 31
0.0
  0
LINE
  5
452
100
AcDbEntity
  8
0
  6
Continuous
 62
     8
100
AcDbLine
 10
534.051634
 20
324.980232
 30
0.0
 11
550.008423
 21
324.980232
 31
0.0
  0
LINE
  5
453
100
AcDbEntity
  8
0
  6
Continuous
 62
     8
100
AcDbLine
 10
556.008084
 20
324.980232
 30
0.0
 11
558.008171
 21
324.980232
 31
0.0
  0
LINE
  5
454
100
AcDbEntity
  8
0
  6
Continuous
 62
     8
100
AcDbLine
 10
564.007832
 20
324.980232
 30
0.0
 11
579.96462
 21
324.980232
 31
0.0
  0
ENDBLK
  5
455
100
AcDbEntity
  8
0
100
AcDbBlockEnd
  0
BLOCK
  5
458
100
AcDbEntity
  8
0
100
AcDbBlockBegin
  2
*B57
 70
     0
 10
0.0
 20
0.0
 30
0.0
  3
*B57
  1

  0
LINE
  5
459
100
AcDbEntity
  8
0
  6
Continuous
 62
     8
100
AcDbLine
 10
426.425873
 20
324.980232
 30
0.0
 11
431.850471
 21
324.980232
 31
0.0
  0
LINE
  5
45A
100
AcDbEntity
  8
0
  6
Continuous
 62
     8
100
AcDbLine
 10
447.849367
 20
324.980232
 30
0.0
 11
453.273965
 21
324.980232
 31
0.0
  0
ENDBLK
  5
45B
100
AcDbEntity
  8
0
100
AcDbBlockEnd
  0
BLOCK
  5
45E
100
AcDbEntity
  8
0
100
AcDbBlockBegin
  2
*B58
 70
     0
 10
0.0
 20
0.0
 30
0.0
  3
*B58
  1

  0
LINE
  5
45F
100
AcDbEntity
  8
0
  6
Continuous
 62
     8
100
AcDbLine
 10
557.967869
 20
212.092888
 30
0.0
 11
557.967869
 21
290.857236
 31
0.0
  0
LINE
  5
460
100
AcDbEntity
  8
0
  6
Continuous
 62
     8
100
AcDbLine
 10
557.967869
 20
415.351103
 30
0.0
 11
557.967869
 21
480.080551
 31
0.0
  0
ENDBLK
  5
461
100
AcDbEntity
  8
0
100
AcDbBlockEnd
  0
BLOCK
  5
464
100
AcDbEntity
  8
0
100
AcDbBlockBegin
  2
*B59
 70
     0
 10
0.0
 20
0.0
 30
0.0
  3
*B59
  1

  0
LINE
  5
465
100
AcDbEntity
  8
0
  6
Continuous
 62
     6
100
AcDbLine
 10
251.986362
 20
152.069209
 30
0.0
 11
251.986362
 21
156.068783
 31
0.0
  0
LINE
  5
466
100
AcDbEntity
  8
0
  6
Continuous
 62
     6
100
AcDbLine
 10
249.986275
 20
154.068695
 30
0.0
 11
253.98645
 21
154.068695
 31
0.0
  0
ENDBLK
  5
467
100
AcDbEntity
  8
0
100
AcDbBlockEnd
  0
BLOCK
  5
46A
100
AcDbEntity
  8
0
100
AcDbBlockBegin
  2
*B60
 70
     0
 10
0.0
 20
0.0
 30
0.0
  3
*B60
  1

  0
LINE
  5
46B
100
AcDbEntity
  8
0
  6
Continuous
 62
     6
100
AcDbLine
 10
494.971428
 20
152.069209
 30
0.0
 11
494.971428
 21
156.068783
 31
0.0
  0
LINE
  5
46C
100
AcDbEntity
  8
0
  6
Continuous
 62
     6
100
AcDbLine
 10
492.971341
 20
154.068695
 30
0.0
 11
496.971516
 21
154.068695
 31
0.0
  0
ENDBLK
  5
46D
100
AcDbEntity
  8
0
100
AcDbBlockEnd
  0
BLOCK
  5
470
100
AcDbEntity
  8
0
100
AcDbBlockBegin
  2
*B61
 70
     0
 10
0.0
 20
0.0
 30
0.0
  3
*B61
  1

  0
LINE
  5
471
100
AcDbEntity
  8
0
  6
Continuous
 62
     6
100
AcDbLine
 10
465.973468
 20
381.228106
 30
0.0
 11
469.973042
 21
381.228106
 31
0.0
  0
LINE
  5
472
100
AcDbEntity
  8
0
  6
Continuous
 62
     6
100
AcDbLine
 10
467.972954
 20
379.228019
 30
0.0
 11
467.972954
 21
383.227592
 31
0.0
  0
ENDBLK
  5
473
100
AcDbEntity
  8
0
100
AcDbBlockEnd
  0
BLOCK
  5
476
100
AcDbEntity
  8
0
100
AcDbBlockBegin
  2
*B62
 70
     0
 10
0.0
 20
0.0
 30
0.0
  3
*B62
  1

  0
LINE
  5
477
100
AcDbEntity
  8
0
  6
Continuous
 62
     6
100
AcDbLine
 10
440.975081
 20
152.069209
 30
0.0
 11
440.975081
 21
156.068783
 31
0.0
  0
LINE
  5
478
100
AcDbEntity
  8
0
  6
Continuous
 62
     6
100
AcDbLine
 10
438.974994
 20
154.068695
 30
0.0
 11
442.974567
 21
154.068695
 31
0.0
  0
ENDBLK
  5
479
100
AcDbEntity
  8
0
100
AcDbBlockEnd
  0
BLOCK
  5
47C
100
AcDbEntity
  8
0
100
AcDbBlockBegin
  2
*B63
 70
     0
 10
0.0
 20
0.0
 30
0.0
  3
*B63
  1

  0
LINE
  5
47D
100
AcDbEntity
  8
0
  6
Continuous
 62
     6
100
AcDbLine
 10
496.09629
 20
322.980746
 30
0.0
 11
496.09629
 21
326.98032
 31
0.0
  0
LINE
  5
47E
100
AcDbEntity
  8
0
  6
Continuous
 62
     6
100
AcDbLine
 10
494.096804
 20
324.980232
 30
0.0
 11
498.096377
 21
324.980232
 31
0.0
  0
ENDBLK
  5
47F
100
AcDbEntity
  8
0
100
AcDbBlockEnd
  0
BLOCK
  5
482
100
AcDbEntity
  8
0
100
AcDbBlockBegin
  2
*B64
 70
     0
 10
0.0
 20
0.0
 30
0.0
  3
*B64
  1

  0
LINE
  5
483
100
AcDbEntity
  8
0
  6
Continuous
 62
     6
100
AcDbLine
 10
575.96625
 20
152.069209
 30
0.0
 11
575.96625
 21
156.068783
 31
0.0
  0
LINE
  5
484
100
AcDbEntity
  8
0
  6
Continuous
 62
     6
100
AcDbLine
 10
573.966764
 20
154.068695
 30
0.0
 11
577.966337
 21
154.068695
 31
0.0
  0
ENDBLK
  5
485
100
AcDbEntity
  8
0
100
AcDbBlockEnd
  0
BLOCK
  5
488
100
AcDbEntity
  8
0
100
AcDbBlockBegin
  2
*B65
 70
     0
 10
0.0
 20
0.0
 30
0.0
  3
*B65
  1

  0
LINE
  5
489
100
AcDbEntity
  8
0
  6
Continuous
 62
     6
100
AcDbLine
 10
683.960147
 20
152.069209
 30
0.0
 11
683.960147
 21
156.068783
 31
0.0
  0
LINE
  5
48A
100
AcDbEntity
  8
0
  6
Continuous
 62
     6
100
AcDbLine
 10
681.96006
 20
154.068695
 30
0.0
 11
685.959633
 21
154.068695
 31
0.0
  0
ENDBLK
  5
48B
100
AcDbEntity
  8
0
100
AcDbBlockEnd
  0
BLOCK
  5
48E
100
AcDbEntity
  8
0
100
AcDbBlockBegin
  2
*B66
 70
     0
 10
0.0
 20
0.0
 30
0.0
  3
*B66
  1

  0
LINE
  5
48F
100
AcDbEntity
  8
0
  6
Continuous
 62
     6
100
AcDbLine
 10
359.979658
 20
152.069209
 30
0.0
 11
359.979658
 21
156.068783
 31
0.0
  0
LINE
  5
490
100
AcDbEntity
  8
0
  6
Continuous
 62
     6
100
AcDbLine
 10
357.980172
 20
154.068695
 30
0.0
 11
361.979746
 21
154.068695
 31
0.0
  0
ENDBLK
  5
491
100
AcDbEntity
  8
0
100
AcDbBlockEnd
  0
BLOCK
  5
494
100
AcDbEntity
  8
0
100
AcDbBlockBegin
  2
*B67
 70
     0
 10
0.0
 20
0.0
 30
0.0
  3
*B67
  1

  0
LINE
  5
495
100
AcDbEntity
  8
0
  6
Continuous
 62
     6
100
AcDbLine
 10
439.849618
 20
322.980746
 30
0.0
 11
439.849618
 21
326.98032
 31
0.0
  0
LINE
  5
496
100
AcDbEntity
  8
0
  6
Continuous
 62
     6
100
AcDbLine
 10
437.850132
 20
324.980232
 30
0.0
 11
441.849706
 21
324.980232
 31
0.0
  0
ENDBLK
  5
497
100
AcDbEntity
  8
0
100
AcDbBlockEnd
  0
BLOCK
  5
49A
100
AcDbEntity
  8
0
100
AcDbBlockBegin
  2
*B68
 70
     0
 10
0.0
 20
0.0
 30
0.0
  3
*B68
  1

  0
LINE
  5
49B
100
AcDbEntity
  8
0
  6
Continuous
 62
     0
100
AcDbLine
 10
389.121986
 20
371.335343
 30
0.0
 11
418.586733
 21
371.335343
 31
0.0
  0
LINE
  5
49C
100
AcDbEntity
  8
0
  6
Continuous
 62
     0
100
AcDbLine
 10
418.586733
 20
371.335343
 30
0.0
 11
436.754145
 21
331.728798
 31
0.0
  0
SOLID
  5
49D
100
AcDbEntity
  8
0
  6
Continuous
 62
     0
100
AcDbTrace
 10
430.767717
 20
339.984197
 30
0.0
 11
436.754145
 21
331.728798
 31
0.0
 12
434.402764
 22
341.651638
 32
0.0
 13
434.402764
 23
341.651638
 33
0.0
  0
ENDBLK
  5
49E
100
AcDbEntity
  8
0
100
AcDbBlockEnd
  0
BLOCK
  5
4A1
100
AcDbEntity
  8
0
100
AcDbBlockBegin
  2
*B69
 70
     0
 10
0.0
 20
0.0
 30
0.0
  3
*B69
  1

  0
TEXT
  5
4A2
100
AcDbEntity
  8
TEXT
  6
Continuous
 62
     0
100
AcDbText
 10
389.145833
 20
376.5
 30
0.0
 40
7.0
  1
%%c3,3
100
AcDbText
  0
ENDBLK
  5
4A3
100
AcDbEntity
  8
0
100
AcDbBlockEnd
  0
BLOCK
  5
4A6
100
AcDbEntity
  8
0
100
AcDbBlockBegin
  2
*B70
 70
     0
 10
0.0
 20
0.0
 30
0.0
  3
*B70
  1

  0
TEXT
  5
4A7
100
AcDbEntity
  8
TEXT
  6
Continuous
 62
     0
100
AcDbText
 10
436.765799
 20
390.0
 30
0.0
 40
12.0
  1
4
100
AcDbText
  0
ENDBLK
  5
4A8
100
AcDbEntity
  8
0
100
AcDbBlockEnd
  0
BLOCK
  5
4AB
100
AcDbEntity
  8
0
100
AcDbBlockBegin
  2
*B71
 70
     0
 10
0.0
 20
0.0
 30
0.0
  3
*B71
  1

  0
TEXT
  5
4AC
100
AcDbEntity
  8
TEXT
  6
Continuous
 62
     0
100
AcDbText
 10
409.765799
 20
305.0
 30
0.0
 40
12.0
  1
5
100
AcDbText
  0
ENDBLK
  5
4AD
100
AcDbEntity
  8
0
100
AcDbBlockEnd
  0
BLOCK
  5
4B0
100
AcDbEntity
  8
0
100
AcDbBlockBegin
  2
*B72
 70
     0
 10
0.0
 20
0.0
 30
0.0
  3
*B72
  1

  0
TEXT
  5
4B1
100
AcDbEntity
  8
TEXT
  6
Continuous
 62
     0
100
AcDbText
 10
384.531599
 20
347.0
 30
0.0
 40
12.0
  1
14
100
AcDbText
  0
ENDBLK
  5
4B2
100
AcDbEntity
  8
0
100
AcDbBlockEnd
  0
BLOCK
  5
4B5
100
AcDbEntity
  8
0
100
AcDbBlockBegin
  2
*B73
 70
     0
 10
0.0
 20
0.0
 30
0.0
  3
*B73
  1

  0
TEXT
  5
4B6
100
AcDbEntity
  8
TEXT
  6
Continuous
 62
     0
100
AcDbText
 10
463.265799
 20
305.5
 30
0.0
 40
12.0
  1
1
100
AcDbText
  0
ENDBLK
  5
4B7
100
AcDbEntity
  8
0
100
AcDbBlockEnd
  0
BLOCK
  5
4BA
100
AcDbEntity
  8
0
100
AcDbBlockBegin
  2
*B74
 70
     0
 10
0.0
 20
0.0
 30
0.0
  3
*B74
  1

  0
TEXT
  5
4BB
100
AcDbEntity
  8
TEXT
  6
Continuous
 62
     0
100
AcDbText
 10
490.765799
 20
390.5
 30
0.0
 40
12.0
  1
2
100
AcDbText
  0
ENDBLK
  5
4BC
100
AcDbEntity
  8
0
100
AcDbBlockEnd
  0
BLOCK
  5
4BF
100
AcDbEntity
  8
0
100
AcDbBlockBegin
  2
*B75
 70
     0
 10
0.0
 20
0.0
 30
0.0
  3
*B75
  1

  0
TEXT
  5
4C0
100
AcDbEntity
  8
TEXT
  6
Continuous
 62
     0
100
AcDbText
 10
517.765799
 20
305.0
 30
0.0
 40
12.0
  1
3
100
AcDbText
  0
ENDBLK
  5
4C1
100
AcDbEntity
  8
0
100
AcDbBlockEnd
  0
BLOCK
  5
4C4
100
AcDbEntity
  8
0
100
AcDbBlockBegin
  2
*B76
 70
     0
 10
0.0
 20
0.0
 30
0.0
  3
*B76
  1

  0
TEXT
  5
4C5
100
AcDbEntity
  8
TEXT
  6
Continuous
 62
     0
100
AcDbText
 10
535.531599
 20
348.0
 30
0.0
 40
12.0
  1
12
100
AcDbText
  0
ENDBLK
  5
4C6
100
AcDbEntity
  8
0
100
AcDbBlockEnd
  0
BLOCK
  5
4C9
100
AcDbEntity
  8
0
100
AcDbBlockBegin
  2
*B77
 70
     0
 10
0.0
 20
0.0
 30
0.0
  3
*B77
  1

  0
TEXT
  5
4CA
100
AcDbEntity
  8
TEXT
  6
Continuous
 62
     0
100
AcDbText
 10
216.380297
 20
263.0
 30
0.0
 40
14.0
  1
180%%d
100
AcDbText
  0
ENDBLK
  5
4CB
100
AcDbEntity
  8
0
100
AcDbBlockEnd
  0
BLOCK
  5
4CE
100
AcDbEntity
  8
0
100
AcDbBlockBegin
  2
*B78
 70
     0
 10
0.0
 20
0.0
 30
0.0
  3
*B78
  1

  0
TEXT
  5
4CF
100
AcDbEntity
  8
TEXT
  6
Continuous
 62
     0
100
AcDbText
 10
286.380297
 20
223.0
 30
0.0
 40
14.0
  1
180%%d
100
AcDbText
  0
ENDBLK
  5
4D0
100
AcDbEntity
  8
0
100
AcDbBlockEnd
  0
BLOCK
  5
4D3
100
AcDbEntity
  8
0
100
AcDbBlockBegin
  2
*B79
 70
     0
 10
0.0
 20
0.0
 30
0.0
  3
*B79
  1

  0
TEXT
  5
4D4
100
AcDbEntity
  8
TEXT
  6
Continuous
 62
     0
100
AcDbText
 10
456.335095
 20
343.5
 30
0.0
 40
7.0
  1
12,5
100
AcDbText
  0
ENDBLK
  5
4D5
100
AcDbEntity
  8
0
100
AcDbBlockEnd
  0
BLOCK
  5
4D8
100
AcDbEntity
  8
0
100
AcDbBlockBegin
  2
*B80
 70
     0
 10
0.0
 20
0.0
 30
0.0
  3
*B80
  1

  0
TEXT
  5
4D9
100
AcDbEntity
  8
TEXT
  6
Continuous
 62
     0
100
AcDbText
 10
578.5
 20
341.351149
 30
0.0
 40
7.0
  1
12,5
 50
90.0
100
AcDbText
  0
ENDBLK
  5
4DA
100
AcDbEntity
  8
0
100
AcDbBlockEnd
  0
BLOCK
  5
4DD
100
AcDbEntity
  8
0
100
AcDbBlockBegin
  2
*B81
 70
     0
 10
0.0
 20
0.0
 30
0.0
  3
*B81
  1

  0
TEXT
  5
4DE
100
AcDbEntity
  8
TEXT
  6
Continuous
 62
     0
100
AcDbText
 10
612.5
 20
346.351149
 30
0.0
 40
7.0
  1
25
 50
90.0
100
AcDbText
  0
ENDBLK
  5
4DF
100
AcDbEntity
  8
0
100
AcDbBlockEnd
  0
BLOCK
  5
4E2
100
AcDbEntity
  8
0
100
AcDbBlockBegin
  2
*B82
 70
     0
 10
0.0
 20
0.0
 30
0.0
  3
*B82
  1

  0
TEXT
  5
4E3
100
AcDbEntity
  8
TEXT
  6
Continuous
 62
     0
100
AcDbText
 10
519.835095
 20
481.5
 30
0.0
 40
7.0
  1
14
100
AcDbText
  0
ENDBLK
  5
4E4
100
AcDbEntity
  8
0
100
AcDbBlockEnd
  0
BLOCK
  5
4E7
100
AcDbEntity
  8
0
100
AcDbBlockBegin
  2
*B83
 70
     0
 10
0.0
 20
0.0
 30
0.0
  3
*B83
  1

  0
TEXT
  5
4E8
100
AcDbEntity
  8
TEXT
  6
Continuous
 62
     0
100
AcDbText
 10
461.335095
 20
481.5
 30
0.0
 40
7.0
  1
12
100
AcDbText
  0
ENDBLK
  5
4E9
100
AcDbEntity
  8
0
100
AcDbBlockEnd
  0
BLOCK
  5
4EC
100
AcDbEntity
  8
0
100
AcDbBlockBegin
  2
*B84
 70
     0
 10
0.0
 20
0.0
 30
0.0
  3
*B84
  1

  0
TEXT
  5
4ED
100
AcDbEntity
  8
TEXT
  6
Continuous
 62
     0
100
AcDbText
 10
536.668429
 20
243.5
 30
0.0
 40
7.0
  1
8
100
AcDbText
  0
ENDBLK
  5
4EE
100
AcDbEntity
  8
0
100
AcDbBlockEnd
  0
BLOCK
  5
4F1
100
AcDbEntity
  8
0
100
AcDbBlockBegin
  2
*B85
 70
     0
 10
0.0
 20
0.0
 30
0.0
  3
*B85
  1

  0
TEXT
  5
4F2
100
AcDbEntity
  8
TEXT
  6
Continuous
 62
     0
100
AcDbText
 10
488.335095
 20
243.5
 30
0.0
 40
7.0
  1
12
100
AcDbText
  0
ENDBLK
  5
4F3
100
AcDbEntity
  8
0
100
AcDbBlockEnd
  0
BLOCK
  5
4F6
100
AcDbEntity
  8
0
100
AcDbBlockBegin
  2
*B86
 70
     0
 10
0.0
 20
0.0
 30
0.0
  3
*B86
  1

  0
TEXT
  5
4F7
100
AcDbEntity
  8
TEXT
  6
Continuous
 62
     0
100
AcDbText
 10
434.335095
 20
243.5
 30
0.0
 40
7.0
  1
12
100
AcDbText
  0
ENDBLK
  5
4F8
100
AcDbEntity
  8
0
100
AcDbBlockEnd
  0
BLOCK
  5
4FB
100
AcDbEntity
  8
0
100
AcDbBlockBegin
  2
*B87
 70
     0
 10
0.0
 20
0.0
 30
0.0
  3
*B87
  1

  0
TEXT
  5
4FC
100
AcDbEntity
  8
TEXT
  6
Continuous
 62
     0
100
AcDbText
 10
401.079167
 20
459.5
 30
0.0
 40
7.0
  1
%%c4
100
AcDbText
  0
ENDBLK
  5
4FD
100
AcDbEntity
  8
0
100
AcDbBlockEnd
  0
BLOCK
  5
500
100
AcDbEntity
  8
0
100
AcDbBlockBegin
  2
*B88
 70
     0
 10
0.0
 20
0.0
 30
0.0
  3
*B88
  1

  0
TEXT
  5
501
100
AcDbEntity
  8
TEXT
  6
Continuous
 62
     0
100
AcDbText
 10
461.335095
 20
217.5
 30
0.0
 40
7.0
  1
40
100
AcDbText
  0
ENDBLK
  5
502
100
AcDbEntity
  8
0
100
AcDbBlockEnd
  0
BLOCK
  5
505
100
AcDbEntity
  8
0
100
AcDbBlockBegin
  2
*B89
 70
     0
 10
0.0
 20
0.0
 30
0.0
  3
*B89
  1

  0
TEXT
  5
506
100
AcDbEntity
  8
TEXT
  6
Continuous
 62
     0
100
AcDbText
 10
458.001762
 20
503.5
 30
0.0
 40
7.0
  1
112
100
AcDbText
  0
ENDBLK
  5
507
100
AcDbEntity
  8
0
100
AcDbBlockEnd
  0
BLOCK
  5
50A
100
AcDbEntity
  8
0
100
AcDbBlockBegin
  2
*B90
 70
     0
 10
0.0
 20
0.0
 30
0.0
  3
*B90
  1

  0
TEXT
  5
50B
100
AcDbEntity
  8
TEXT
  6
Continuous
 62
     0
100
AcDbText
 10
186.5
 20
355.351149
 30
0.0
 40
7.0
  1
26
 50
90.0
100
AcDbText
  0
ENDBLK
  5
50C
100
AcDbEntity
  8
0
100
AcDbBlockEnd
  0
BLOCK
  5
50F
100
AcDbEntity
  8
0
100
AcDbBlockBegin
  2
*B91
 70
     0
 10
0.0
 20
0.0
 30
0.0
  3
*B91
  1

  0
TEXT
  5
510
100
AcDbEntity
  8
TEXT
  6
Continuous
 62
     0
100
AcDbText
 10
186.5
 20
265.666667
 30
0.0
 40
7.0
  1
1,5
 50
90.0
100
AcDbText
  0
ENDBLK
  5
511
100
AcDbEntity
  8
0
100
AcDbBlockEnd
  0
BLOCK
  5
514
100
AcDbEntity
  8
0
100
AcDbBlockBegin
  2
*B92
 70
     0
 10
0.0
 20
0.0
 30
0.0
  3
*B92
  1

  0
TEXT
  5
515
100
AcDbEntity
  8
TEXT
  6
Continuous
 62
     0
100
AcDbText
 10
184.5
 20
147.306574
 30
0.0
 40
7.0
  1
16
 50
90.0
100
AcDbText
  0
ENDBLK
  5
516
100
AcDbEntity
  8
0
100
AcDbBlockEnd
  0
BLOCK
  5
519
100
AcDbEntity
  8
0
100
AcDbBlockBegin
  2
*B93
 70
     0
 10
0.0
 20
0.0
 30
0.0
  3
*B93
  1

  0
TEXT
  5
51A
100
AcDbEntity
  8
TEXT
  6
Continuous
 62
     0
100
AcDbText
 10
612.5
 20
421.234483
 30
0.0
 40
7.0
  1
6
 50
90.0
100
AcDbText
  0
ENDBLK
  5
51B
100
AcDbEntity
  8
0
100
AcDbBlockEnd
  0
BLOCK
  5
51E
100
AcDbEntity
  8
0
100
AcDbBlockBegin
  2
*B94
 70
     0
 10
0.0
 20
0.0
 30
0.0
  3
*B94
  1

  0
TEXT
  5
51F
100
AcDbEntity
  8
TEXT
  6
Continuous
 62
     0
100
AcDbText
 10
549.666667
 20
271.5
 30
0.0
 40
7.0
  1
M5
100
AcDbText
  0
ENDBLK
  5
520
100
AcDbEntity
  8
0
100
AcDbBlockEnd
  0
ENDSEC
  0
SECTION
  2
ENTITIES
  0
INSERT
  5
233
100
AcDbEntity
  8
0
  6
Continuous
 62
   174
100
AcDbBlockReference
  2
*B1
 10
0.0
 20
0.0
 30
0.0
  0
INSERT
  5
2BB
100
AcDbEntity
  8
0
  6
Continuous
 62
   174
100
AcDbBlockReference
  2
*B2
 10
0.0
 20
0.0
 30
0.0
  0
INSERT
  5
2C1
100
AcDbEntity
  8
0
  6
Continuous
 62
   172
100
AcDbBlockReference
  2
*B3
 10
0.0
 20
0.0
 30
0.0
  0
INSERT
  5
2CC
100
AcDbEntity
  8
0
  6
Continuous
 62
   172
100
AcDbBlockReference
  2
*B4
 10
0.0
 20
0.0
 30
0.0
  0
INSERT
  5
2D5
100
AcDbEntity
  8
0
  6
Continuous
 62
   172
100
AcDbBlockReference
  2
*B6
 10
0.0
 20
0.0
 30
0.0
  0
INSERT
  5
2E0
100
AcDbEntity
  8
0
  6
Continuous
 62
   172
100
AcDbBlockReference
  2
*B7
 10
0.0
 20
0.0
 30
0.0
  0
INSERT
  5
2EA
100
AcDbEntity
  8
0
  6
Continuous
 62
     0
100
AcDbBlockReference
  2
*B9
 10
0.0
 20
0.0
 30
0.0
  0
INSERT
  5
2F1
100
AcDbEntity
  8
0
  6
Continuous
 62
     0
100
AcDbBlockReference
  2
*B10
 10
0.0
 20
0.0
 30
0.0
  0
INSERT
  5
2F8
100
AcDbEntity
  8
0
  6
Continuous
 62
     0
100
AcDbBlockReference
  2
*B11
 10
0.0
 20
0.0
 30
0.0
  0
INSERT
  5
2FF
100
AcDbEntity
  8
0
  6
Continuous
 62
     0
100
AcDbBlockReference
  2
*B12
 10
0.0
 20
0.0
 30
0.0
  0
INSERT
  5
306
100
AcDbEntity
  8
0
  6
Continuous
 62
     0
100
AcDbBlockReference
  2
*B13
 10
0.0
 20
0.0
 30
0.0
  0
INSERT
  5
30D
100
AcDbEntity
  8
0
  6
Continuous
 62
     0
100
AcDbBlockReference
  2
*B14
 10
0.0
 20
0.0
 30
0.0
  0
INSERT
  5
314
100
AcDbEntity
  8
0
  6
Continuous
 62
     0
100
AcDbBlockReference
  2
*B15
 10
0.0
 20
0.0
 30
0.0
  0
INSERT
  5
31B
100
AcDbEntity
  8
0
  6
Continuous
 62
     0
100
AcDbBlockReference
  2
*B16
 10
0.0
 20
0.0
 30
0.0
  0
INSERT
  5
322
100
AcDbEntity
  8
0
  6
Continuous
 62
     0
100
AcDbBlockReference
  2
*B17
 10
0.0
 20
0.0
 30
0.0
  0
INSERT
  5
329
100
AcDbEntity
  8
0
  6
Continuous
 62
     0
100
AcDbBlockReference
  2
*B18
 10
0.0
 20
0.0
 30
0.0
  0
INSERT
  5
330
100
AcDbEntity
  8
0
  6
Continuous
 62
     0
100
AcDbBlockReference
  2
*B19
 10
0.0
 20
0.0
 30
0.0
  0
INSERT
  5
337
100
AcDbEntity
  8
0
  6
Continuous
 62
     0
100
AcDbBlockReference
  2
*B20
 10
0.0
 20
0.0
 30
0.0
  0
INSERT
  5
33E
100
AcDbEntity
  8
0
  6
Continuous
 62
     0
100
AcDbBlockReference
  2
*B21
 10
0.0
 20
0.0
 30
0.0
  0
INSERT
  5
345
100
AcDbEntity
  8
0
  6
Continuous
 62
     0
100
AcDbBlockReference
  2
*B22
 10
0.0
 20
0.0
 30
0.0
  0
INSERT
  5
34C
100
AcDbEntity
  8
0
  6
Continuous
 62
     0
100
AcDbBlockReference
  2
*B23
 10
0.0
 20
0.0
 30
0.0
  0
INSERT
  5
353
100
AcDbEntity
  8
0
  6
Continuous
 62
     0
100
AcDbBlockReference
  2
*B24
 10
0.0
 20
0.0
 30
0.0
  0
INSERT
  5
359
100
AcDbEntity
  8
0
  6
Continuous
 62
     8
100
AcDbBlockReference
  2
*B25
 10
0.0
 20
0.0
 30
0.0
  0
INSERT
  5
35F
100
AcDbEntity
  8
0
  6
Continuous
 62
     8
100
AcDbBlockReference
  2
*B26
 10
0.0
 20
0.0
 30
0.0
  0
INSERT
  5
369
100
AcDbEntity
  8
0
  6
Continuous
 62
     8
100
AcDbBlockReference
  2
*B27
 10
0.0
 20
0.0
 30
0.0
  0
INSERT
  5
373
100
AcDbEntity
  8
0
  6
Continuous
 62
     8
100
AcDbBlockReference
  2
*B28
 10
0.0
 20
0.0
 30
0.0
  0
INSERT
  5
378
100
AcDbEntity
  8
0
  6
Continuous
 62
     8
100
AcDbBlockReference
  2
*B29
 10
0.0
 20
0.0
 30
0.0
  0
INSERT
  5
37E
100
AcDbEntity
  8
0
  6
Continuous
 62
     8
100
AcDbBlockReference
  2
*B30
 10
0.0
 20
0.0
 30
0.0
  0
INSERT
  5
383
100
AcDbEntity
  8
0
  6
Continuous
 62
     8
100
AcDbBlockReference
  2
*B31
 10
0.0
 20
0.0
 30
0.0
  0
INSERT
  5
388
100
AcDbEntity
  8
0
  6
Continuous
 62
     8
100
AcDbBlockReference
  2
*B32
 10
0.0
 20
0.0
 30
0.0
  0
INSERT
  5
38E
100
AcDbEntity
  8
0
  6
Continuous
 62
     8
100
AcDbBlockReference
  2
*B33
 10
0.0
 20
0.0
 30
0.0
  0
INSERT
  5
393
100
AcDbEntity
  8
0
  6
Continuous
 62
     8
100
AcDbBlockReference
  2
*B34
 10
0.0
 20
0.0
 30
0.0
  0
INSERT
  5
3BA
100
AcDbEntity
  8
0
  6
Continuous
 62
     8
100
AcDbBlockReference
  2
*B35
 10
0.0
 20
0.0
 30
0.0
  0
INSERT
  5
3C0
100
AcDbEntity
  8
0
  6
Continuous
 62
     8
100
AcDbBlockReference
  2
*B36
 10
0.0
 20
0.0
 30
0.0
  0
INSERT
  5
3C5
100
AcDbEntity
  8
0
  6
Continuous
 62
     8
100
AcDbBlockReference
  2
*B37
 10
0.0
 20
0.0
 30
0.0
  0
INSERT
  5
3CB
100
AcDbEntity
  8
0
  6
Continuous
 62
     8
100
AcDbBlockReference
  2
*B38
 10
0.0
 20
0.0
 30
0.0
  0
INSERT
  5
3D5
100
AcDbEntity
  8
0
  6
Continuous
 62
     8
100
AcDbBlockReference
  2
*B39
 10
0.0
 20
0.0
 30
0.0
  0
INSERT
  5
3EC
100
AcDbEntity
  8
0
  6
Continuous
 62
     8
100
AcDbBlockReference
  2
*B40
 10
0.0
 20
0.0
 30
0.0
  0
INSERT
  5
3F1
100
AcDbEntity
  8
0
  6
Continuous
 62
     8
100
AcDbBlockReference
  2
*B41
 10
0.0
 20
0.0
 30
0.0
  0
INSERT
  5
3F7
100
AcDbEntity
  8
0
  6
Continuous
 62
     8
100
AcDbBlockReference
  2
*B42
 10
0.0
 20
0.0
 30
0.0
  0
INSERT
  5
3FD
100
AcDbEntity
  8
0
  6
Continuous
 62
     8
100
AcDbBlockReference
  2
*B43
 10
0.0
 20
0.0
 30
0.0
  0
INSERT
  5
402
100
AcDbEntity
  8
0
  6
Continuous
 62
     8
100
AcDbBlockReference
  2
*B44
 10
0.0
 20
0.0
 30
0.0
  0
INSERT
  5
407
100
AcDbEntity
  8
0
  6
Continuous
 62
     8
100
AcDbBlockReference
  2
*B45
 10
0.0
 20
0.0
 30
0.0
  0
INSERT
  5
40D
100
AcDbEntity
  8
0
  6
Continuous
 62
     8
100
AcDbBlockReference
  2
*B46
 10
0.0
 20
0.0
 30
0.0
  0
INSERT
  5
41A
100
AcDbEntity
  8
0
  6
Continuous
 62
     8
100
AcDbBlockReference
  2
*B47
 10
0.0
 20
0.0
 30
0.0
  0
INSERT
  5
41F
100
AcDbEntity
  8
0
  6
Continuous
 62
     8
100
AcDbBlockReference
  2
*B48
 10
0.0
 20
0.0
 30
0.0
  0
INSERT
  5
429
100
AcDbEntity
  8
0
  6
Continuous
 62
     8
100
AcDbBlockReference
  2
*B49
 10
0.0
 20
0.0
 30
0.0
  0
INSERT
  5
42E
100
AcDbEntity
  8
0
  6
Continuous
 62
     8
100
AcDbBlockReference
  2
*B50
 10
0.0
 20
0.0
 30
0.0
  0
INSERT
  5
434
100
AcDbEntity
  8
0
  6
Continuous
 62
     8
100
AcDbBlockReference
  2
*B51
 10
0.0
 20
0.0
 30
0.0
  0
INSERT
  5
439
100
AcDbEntity
  8
0
  6
Continuous
 62
     8
100
AcDbBlockReference
  2
*B52
 10
0.0
 20
0.0
 30
0.0
  0
INSERT
  5
43E
100
AcDbEntity
  8
0
  6
Continuous
 62
     8
100
AcDbBlockReference
  2
*B53
 10
0.0
 20
0.0
 30
0.0
  0
INSERT
  5
446
100
AcDbEntity
  8
0
  6
Continuous
 62
     8
100
AcDbBlockReference
  2
*B54
 10
0.0
 20
0.0
 30
0.0
  0
INSERT
  5
44B
100
AcDbEntity
  8
0
  6
Continuous
 62
     8
100
AcDbBlockReference
  2
*B55
 10
0.0
 20
0.0
 30
0.0
  0
INSERT
  5
456
100
AcDbEntity
  8
0
  6
Continuous
 62
     8
100
AcDbBlockReference
  2
*B56
 10
0.0
 20
0.0
 30
0.0
  0
INSERT
  5
45C
100
AcDbEntity
  8
0
  6
Continuous
 62
     8
100
AcDbBlockReference
  2
*B57
 10
0.0
 20
0.0
 30
0.0
  0
INSERT
  5
462
100
AcDbEntity
  8
0
  6
Continuous
 62
     8
100
AcDbBlockReference
  2
*B58
 10
0.0
 20
0.0
 30
0.0
  0
INSERT
  5
468
100
AcDbEntity
  8
0
  6
Continuous
 62
     6
100
AcDbBlockReference
  2
*B59
 10
0.0
 20
0.0
 30
0.0
  0
INSERT
  5
46E
100
AcDbEntity
  8
0
  6
Continuous
 62
     6
100
AcDbBlockReference
  2
*B60
 10
0.0
 20
0.0
 30
0.0
  0
INSERT
  5
474
100
AcDbEntity
  8
0
  6
Continuous
 62
     6
100
AcDbBlockReference
  2
*B61
 10
0.0
 20
0.0
 30
0.0
  0
INSERT
  5
47A
100
AcDbEntity
  8
0
  6
Continuous
 62
     6
100
AcDbBlockReference
  2
*B62
 10
0.0
 20
0.0
 30
0.0
  0
INSERT
  5
480
100
AcDbEntity
  8
0
  6
Continuous
 62
     6
100
AcDbBlockReference
  2
*B63
 10
0.0
 20
0.0
 30
0.0
  0
INSERT
  5
486
100
AcDbEntity
  8
0
  6
Continuous
 62
     6
100
AcDbBlockReference
  2
*B64
 10
0.0
 20
0.0
 30
0.0
  0
INSERT
  5
48C
100
AcDbEntity
  8
0
  6
Continuous
 62
     6
100
AcDbBlockReference
  2
*B65
 10
0.0
 20
0.0
 30
0.0
  0
INSERT
  5
492
100
AcDbEntity
  8
0
  6
Continuous
 62
     6
100
AcDbBlockReference
  2
*B66
 10
0.0
 20
0.0
 30
0.0
  0
INSERT
  5
498
100
AcDbEntity
  8
0
  6
Continuous
 62
     6
100
AcDbBlockReference
  2
*B67
 10
0.0
 20
0.0
 30
0.0
  0
INSERT
  5
49F
100
AcDbEntity
  8
0
  6
Continuous
 62
     0
100
AcDbBlockReference
  2
*B68
 10
0.0
 20
0.0
 30
0.0
  0
INSERT
  5
4A4
100
AcDbEntity
  8
TEXT
  6
Continuous
 62
     0
100
AcDbBlockReference
  2
*B69
 10
0.0
 20
0.0
 30
0.0
  0
INSERT
  5
4A9
100
AcDbEntity
  8
TEXT
  6
Continuous
 62
     0
100
AcDbBlockReference
  2
*B70
 10
0.0
 20
0.0
 30
0.0
  0
INSERT
  5
4AE
100
AcDbEntity
  8
TEXT
  6
Continuous
 62
     0
100
AcDbBlockReference
  2
*B71
 10
0.0
 20
0.0
 30
0.0
  0
INSERT
  5
4B3
100
AcDbEntity
  8
TEXT
  6
Continuous
 62
     0
100
AcDbBlockReference
  2
*B72
 10
0.0
 20
0.0
 30
0.0
  0
INSERT
  5
4B8
100
AcDbEntity
  8
TEXT
  6
Continuous
 62
     0
100
AcDbBlockReference
  2
*B73
 10
0.0
 20
0.0
 30
0.0
  0
INSERT
  5
4BD
100
AcDbEntity
  8
TEXT
  6
Continuous
 62
     0
100
AcDbBlockReference
  2
*B74
 10
0.0
 20
0.0
 30
0.0
  0
INSERT
  5
4C2
100
AcDbEntity
  8
TEXT
  6
Continuous
 62
     0
100
AcDbBlockReference
  2
*B75
 10
0.0
 20
0.0
 30
0.0
  0
INSERT
  5
4C7
100
AcDbEntity
  8
TEXT
  6
Continuous
 62
     0
100
AcDbBlockReference
  2
*B76
 10
0.0
 20
0.0
 30
0.0
  0
INSERT
  5
4CC
100
AcDbEntity
  8
TEXT
  6
Continuous
 62
     0
100
AcDbBlockReference
  2
*B77
 10
0.0
 20
0.0
 30
0.0
  0
INSERT
  5
4D1
100
AcDbEntity
  8
TEXT
  6
Continuous
 62
     0
100
AcDbBlockReference
  2
*B78
 10
0.0
 20
0.0
 30
0.0
  0
INSERT
  5
4D6
100
AcDbEntity
  8
TEXT
  6
Continuous
 62
     0
100
AcDbBlockReference
  2
*B79
 10
0.0
 20
0.0
 30
0.0
  0
INSERT
  5
4DB
100
AcDbEntity
  8
TEXT
  6
Continuous
 62
     0
100
AcDbBlockReference
  2
*B80
 10
0.0
 20
0.0
 30
0.0
  0
INSERT
  5
4E0
100
AcDbEntity
  8
TEXT
  6
Continuous
 62
     0
100
AcDbBlockReference
  2
*B81
 10
0.0
 20
0.0
 30
0.0
  0
INSERT
  5
4E5
100
AcDbEntity
  8
TEXT
  6
Continuous
 62
     0
100
AcDbBlockReference
  2
*B82
 10
0.0
 20
0.0
 30
0.0
  0
INSERT
  5
4EA
100
AcDbEntity
  8
TEXT
  6
Continuous
 62
     0
100
AcDbBlockReference
  2
*B83
 10
0.0
 20
0.0
 30
0.0
  0
INSERT
  5
4EF
100
AcDbEntity
  8
TEXT
  6
Continuous
 62
     0
100
AcDbBlockReference
  2
*B84
 10
0.0
 20
0.0
 30
0.0
  0
INSERT
  5
4F4
100
AcDbEntity
  8
TEXT
  6
Continuous
 62
     0
100
AcDbBlockReference
  2
*B85
 10
0.0
 20
0.0
 30
0.0
  0
INSERT
  5
4F9
100
AcDbEntity
  8
TEXT
  6
Continuous
 62
     0
100
AcDbBlockReference
  2
*B86
 10
0.0
 20
0.0
 30
0.0
  0
INSERT
  5
4FE
100
AcDbEntity
  8
TEXT
  6
Continuous
 62
     0
100
AcDbBlockReference
  2
*B87
 10
0.0
 20
0.0
 30
0.0
  0
INSERT
  5
503
100
AcDbEntity
  8
TEXT
  6
Continuous
 62
     0
100
AcDbBlockReference
  2
*B88
 10
0.0
 20
0.0
 30
0.0
  0
INSERT
  5
508
100
AcDbEntity
  8
TEXT
  6
Continuous
 62
     0
100
AcDbBlockReference
  2
*B89
 10
0.0
 20
0.0
 30
0.0
  0
INSERT
  5
50D
100
AcDbEntity
  8
TEXT
  6
Continuous
 62
     0
100
AcDbBlockReference
  2
*B90
 10
0.0
 20
0.0
 30
0.0
  0
INSERT
  5
512
100
AcDbEntity
  8
TEXT
  6
Continuous
 62
     0
100
AcDbBlockReference
  2
*B91
 10
0.0
 20
0.0
 30
0.0
  0
INSERT
  5
517
100
AcDbEntity
  8
TEXT
  6
Continuous
 62
     0
100
AcDbBlockReference
  2
*B92
 10
0.0
 20
0.0
 30
0.0
  0
INSERT
  5
51C
100
AcDbEntity
  8
TEXT
  6
Continuous
 62
     0
100
AcDbBlockReference
  2
*B93
 10
0.0
 20
0.0
 30
0.0
  0
INSERT
  5
521
100
AcDbEntity
  8
TEXT
  6
Continuous
 62
     0
100
AcDbBlockReference
  2
*B94
 10
0.0
 20
0.0
 30
0.0
  0
ENDSEC
  0
SECTION
  2
OBJECTS
  0
DICTIONARY
  5
19
100
AcDbDictionary
280
     0
281
     1
  3
ACAD_GROUP
350
1A
  3
ACAD_MLINESTYLE
350
1B
  3
ACAD_LAYOUT
350
1E
  3
ACAD_PLOTSETTINGS
350
22
  3
ACAD_PLOTSTYLENAME
350
1F
  3
ACAD_WIPEOUT_VARS
350
23
  0
DICTIONARY
  5
1A
102
{ACAD_REACTORS
330
19
102
}
100
AcDbDictionary
280
     0
281
     1
  0
DICTIONARY
  5
1B
102
{ACAD_REACTORS
330
19
102
}
100
AcDbDictionary
280
     0
281
     1
  3
Standard
350
1C
  0
MLINESTYLE
  5
1C
102
{ACAD_REACTORS
330
1B
102
}
100
AcDbMlineStyle
  2
Standard
 70
     0
  3

 62
     0
 51
90.0
 52
90.0
 71
     2
 49
0.5
 62
   256
  6
BYLAYER
 49
-0.5
 62
   256
  6
BYLAYER
  0
ACDBDICTIONARYWDFLT
  5
1F
102
{ACAD_REACTORS
330
19
102
}
100
AcDbDictionary
281
     1
  3
Normal
350
1D
100
AcDbDictionaryWithDefault
340
1D
  0
ACDBPLACEHOLDER
  5
1D
102
{ACAD_REACTORS
330
1F
102
}
  0
LAYOUT
  5
20
102
{ACAD_REACTORS
330
1E
102
}
100
AcDbPlotSettings
  1

  2

  4

  6

 40
0.0
 41
0.0
 42
0.0
 43
0.0
 44
0.0
 45
0.0
 46
0.0
 47
0.0
 48
0.0
 49
0.0
140
0.0
141
0.0
142
1.0
143
1.0
 70
     0
 72
     0
 73
     0
 74
     0
  7

 75
     0
147
1.0
148
0.0
149
0.0
100
AcDbLayout
  1
Model
 70
     0
 71
     0
 10
0.0
 20
0.0
 11
0.0
 21
0.0
 12
0.0
 22
0.0
 32
0.0
 14
0.0
 24
0.0
 34
0.0
 15
0.0
 25
0.0
 35
0.0
146
0.0
 13
0.0
 23
0.0
 33
0.0
 16
0.0
 26
0.0
 36
0.0
 17
0.0
 27
0.0
 37
0.0
 76
     0
330
A
331
0
345
0
346
0
  0
LAYOUT
  5
21
102
{ACAD_REACTORS
330
1E
102
}
100
AcDbPlotSettings
  1

  2

  4

  6

 40
0.0
 41
0.0
 42
0.0
 43
0.0
 44
0.0
 45
0.0
 46
0.0
 47
0.0
 48
0.0
 49
0.0
140
0.0
141
0.0
142
1.0
143
1.0
 70
     0
 72
     0
 73
     0
 74
     0
  7

 75
     0
147
1.0
148
0.0
149
0.0
100
AcDbLayout
  1
Layout1
 70
     0
 71
     0
 10
0.0
 20
0.0
 11
0.0
 21
0.0
 12
0.0
 22
0.0
 32
0.0
 14
0.0
 24
0.0
 34
0.0
 15
0.0
 25
0.0
 35
0.0
146
0.0
 13
0.0
 23
0.0
 33
0.0
 16
0.0
 26
0.0
 36
0.0
 17
0.0
 27
0.0
 37
0.0
 76
     0
330
B
331
0
345
0
346
0
  0
DICTIONARY
  5
1E
102
{ACAD_REACTORS
330
19
102
}
100
AcDbDictionary
280
     0
281
     1
  3
Layout1
350
21
  3
Model
350
20
  0
DICTIONARY
  5
22
102
{ACAD_REACTORS
330
19
102
}
100
AcDbDictionary
280
     0
281
     1
  0
WIPEOUTVARIABLES
  5
23
100
AcDbWipeoutVariables
 70
     1
  0
ENDSEC
  0
EOF
