  0
SECTION
  2
HEADER
  9
$ACADVER
  1
AC1015
  9
$ACADMAINTVER
 70
     6
  9
$DWGCODEPAGE
  3
DOS850
  9
$INSBASE
 10
0.0
 20
0.0
 30
0.0
  9
$EXTMIN
 10
0.0
 20
0.0
 30
0.0
  9
$EXTMAX
 10
841.0
 20
595.0
 30
0.0
  9
$LIMMIN
 10
0.0
 20
0.0
  9
$LIMMAX
 10
841.0
 20
595.0
  9
$ORTHOMODE
 70
     0
  9
$REGENMODE
 70
     1
  9
$FILLMODE
 70
     1
  9
$QTEXTMODE
 70
     0
  9
$MIRRTEXT
 70
     1
  9
$LTSCALE
 40
25.4
  9
$ATTMODE
 70
     1
  9
$TEXTSIZE
 40
3.5
  9
$TRACEWID
 40
0.05
  9
$TEXTSTYLE
  7
Standard
  9
$CLAYER
  8
0
  9
$CELTYPE
  6
Continuous
  9
$CECOLOR
 62
   256
  9
$CELTSCALE
 40
1.0
  9
$DISPSILH
 70
     0
  9
$DIMSCALE
 40
1.0
  9
$DIMASZ
 40
5.0
  9
$DIMEXO
 40
3.0
  9
$DIMDLI
 40
0.38
  9
$DIMRND
 40
0.0
  9
$DIMDLE
 40
0.0
  9
$DIMEXE
 40
2.0
  9
$DIMTP
 40
0.0
  9
$DIMTM
 40
0.0
  9
$DIMTXT
 40
3.5
  9
$DIMCEN
 40
4.0
  9
$DIMTSZ
 40
0.0
  9
$DIMTOL
 70
     0
  9
$DIMLIM
 70
     0
  9
$DIMTIH
 70
     1
  9
$DIMTOH
 70
     1
  9
$DIMSE1
 70
     0
  9
$DIMSE2
 70
     0
  9
$DIMTAD
 70
     0
  9
$DIMZIN
 70
     0
  9
$DIMBLK
  1

  9
$DIMASO
 70
     1
  9
$DIMSHO
 70
     1
  9
$DIMPOST
  1

  9
$DIMAPOST
  1

  9
$DIMALT
 70
     0
  9
$DIMALTD
 70
     2
  9
$DIMALTF
 40
25.4
  9
$DIMLFAC
 40
1.0
  9
$DIMTOFL
 70
     0
  9
$DIMTVP
 40
0.0
  9
$DIMTIX
 70
     0
  9
$DIMSOXD
 70
     0
  9
$DIMSAH
 70
     0
  9
$DIMBLK1
  1

  9
$DIMBLK2
  1

  9
$DIMSTYLE
  2
Standard
  9
$DIMCLRD
 70
     0
  9
$DIMCLRE
 70
     0
  9
$DIMCLRT
 70
     0
  9
$DIMTFAC
 40
1.0
  9
$DIMGAP
 40
1.0
  9
$DIMJUST
 70
     0
  9
$DIMSD1
 70
     0
  9
$DIMSD2
 70
     0
  9
$DIMTOLJ
 70
     1
  9
$DIMTZIN
 70
     0
  9
$DIMALTZ
 70
     0
  9
$DIMALTTZ
 70
     0
  9
$DIMUPT
 70
     0
  9
$DIMDEC
 70
     4
  9
$DIMTDEC
 70
     4
  9
$DIMALTU
 70
     2
  9
$DIMALTTD
 70
     2
  9
$DIMTXSTY
  7
Standard
  9
$DIMAUNIT
 70
     0
  9
$DIMADEC
 70
     0
  9
$DIMALTRND
 40
0.0
  9
$DIMAZIN
 70
     0
  9
$DIMDSEP
 70
     0
  9
$DIMATFIT
 70
     3
  9
$DIMFRAC
 70
     0
  9
$DIMLDRBLK
  1

  9
$DIMLUNIT
 70
     2
  9
$DIMLWD
 70
     0
  9
$DIMLWE
 70
     0
  9
$DIMTMOVE
 70
     0
  9
$LUNITS
 70
     2
  9
$LUPREC
 70
     4
  9
$SKETCHINC
 40
0.1
  9
$FILLETRAD
 40
0.0
  9
$AUNITS
 70
     0
  9
$AUPREC
 70
     0
  9
$MENU
  1
acad
  9
$ELEVATION
 40
0.0
  9
$PELEVATION
 40
0.0
  9
$THICKNESS
 40
0.0
  9
$LIMCHECK
 70
     0
  9
$CHAMFERA
 40
0.0
  9
$CHAMFERB
 40
0.0
  9
$CHAMFERC
 40
0.0
  9
$CHAMFERD
 40
0.0
  9
$SKPOLY
 70
     0
  9
$TDCREATE
 40
0.000000000
  9
$TDUCREATE
 40
0.000000000
  9
$TDUPDATE
 40
0.000000000
  9
$TDUUPDATE
 40
0.000000000
  9
$TDINDWG
 40
0.0000000000
  9
$TDUSRTIMER
 40
0.0000000000
  9
$USRTIMER
 70
     1
  9
$ANGBASE
 50
0.0
  9
$ANGDIR
 70
     0
  9
$PDMODE
 70
     0
  9
$PDSIZE
 40
0.0
  9
$PLINEWID
 40
0.0
  9
$SPLFRAME
 70
     0
  9
$SPLINETYPE
 70
     6
  9
$SPLINESEGS
 70
     8
  9
$HANDSEED
  5
53D
  9
$SURFTAB1
 70
     6
  9
$SURFTAB2
 70
     6
  9
$SURFTYPE
 70
     6
  9
$SURFU
 70
     6
  9
$SURFV
 70
     6
  9
$UCSBASE
  2

  9
$UCSNAME
  2

  9
$UCSORG
 10
0.0
 20
0.0
 30
0.0
  9
$UCSXDIR
 10
1.0
 20
0.0
 30
0.0
  9
$UCSYDIR
 10
0.0
 20
1.0
 30
0.0
  9
$UCSORTHOREF
  2

  9
$UCSORTHOVIEW
 70
     0
  9
$UCSORGTOP
 10
0.0
 20
0.0
 30
0.0
  9
$UCSORGBOTTOM
 10
0.0
 20
0.0
 30
0.0
  9
$UCSORGLEFT
 10
0.0
 20
0.0
 30
0.0
  9
$UCSORGRIGHT
 10
0.0
 20
0.0
 30
0.0
  9
$UCSORGFRONT
 10
0.0
 20
0.0
 30
0.0
  9
$UCSORGBACK
 10
0.0
 20
0.0
 30
0.0
  9
$PUCSBASE
  2

  9
$PUCSNAME
  2

  9
$PUCSORG
 10
0.0
 20
0.0
 30
0.0
  9
$PUCSXDIR
 10
1.0
 20
0.0
 30
0.0
  9
$PUCSYDIR
 10
0.0
 20
1.0
 30
0.0
  9
$PUCSORTHOREF
  2

  9
$PUCSORTHOVIEW
 70
     0
  9
$PUCSORGTOP
 10
0.0
 20
0.0
 30
0.0
  9
$PUCSORGBOTTOM
 10
0.0
 20
0.0
 30
0.0
  9
$PUCSORGLEFT
 10
0.0
 20
0.0
 30
0.0
  9
$PUCSORGRIGHT
 10
0.0
 20
0.0
 30
0.0
  9
$PUCSORGFRONT
 10
0.0
 20
0.0
 30
0.0
  9
$PUCSORGBACK
 10
0.0
 20
0.0
 30
0.0
  9
$USERI1
 70
     0
  9
$USERI2
 70
     0
  9
$USERI3
 70
     0
  9
$USERI4
 70
     0
  9
$USERI5
 70
     0
  9
$USERR1
 40
0.0
  9
$USERR2
 40
0.0
  9
$USERR3
 40
0.0
  9
$USERR4
 40
0.0
  9
$USERR5
 40
0.0
  9
$WORLDVIEW
 70
     1
  9
$SHADEDGE
 70
     3
  9
$SHADEDIF
 70
    70
  9
$TILEMODE
 70
     1
  9
$MAXACTVP
 70
    16
  9
$PINSBASE
 10
0.0
 20
0.0
 30
0.0
  9
$PLIMCHECK
 70
     0
  9
$PEXTMIN
 10
1.000000E+20
 20
1.000000E+20
 30
1.000000E+20
  9
$PEXTMAX
 10
-1.000000E+20
 20
-1.000000E+20
 30
-1.000000E+20
  9
$PLIMMIN
 10
0.0
 20
0.0
  9
$PLIMMAX
 10
841.0
 20
595.0
  9
$UNITMODE
 70
     0
  9
$VISRETAIN
 70
     0
  9
$PLINEGEN
 70
     1
  9
$PSLTSCALE
 70
     0
  9
$TREEDEPTH
 70
  3020
  9
$CMLSTYLE
  2
Standard
  9
$CMLJUST
 70
     0
  9
$CMLSCALE
 40
1.0
  9
$PROXYGRAPHICS
 70
     0
  9
$MEASUREMENT
 70
     0
  9
$CELWEIGHT
370
     0
  9
$ENDCAPS
280
     0
  9
$JOINSTYLE
280
     0
  9
$LWDISPLAY
290
     0
  9
$INSUNITS
 70
     0
  9
$HYPERLINKBASE
  1

  9
$XEDIT
290
     1
  9
$CEPSNTYPE
380
     0
  9
$PSTYLEMODE
290
     0
  9
$FINGERPRINTGUID
  2

  9
$VERSIONGUID
  2

  9
$EXTNAMES
290
     1
  9
$PSVPSCALE
 40
0.0
  0
ENDSEC
  0
SECTION
  2
CLASSES
  0
CLASS
  1
LWPOLYLINE
  2
AcDbPolyline
  3
"AutoCAD"
 90
        0
280
     0
281
     1
  0
CLASS
  1
IMAGE
  2
AcDbRasterImage
  3
ISM
 90
      127
280
     0
281
     1
  0
CLASS
  1
OLE2FRAME
  2
AcDbOle2Frame
  3
""
 90
        0
280
     0
281
     1
  0
CLASS
  1
HATCH
  2
AcDbHatch
  3
"ACAD_SEDONA"
 90
        0
280
     0
281
     1
  0
CLASS
  1
DICTIONARYVAR
  2
AcDbDictionaryVar
  3
"AutoCAD"
 90
        0
280
     0
281
     0
  0
CLASS
  1
RASTERVARIABLES
  2
AcDbRasterVariables
  3
ISM
 90
        0
280
     0
281
     0
  0
CLASS
  1
IMAGEDEF
  2
AcDbRasterImageDef
  3
ISM
 90
        0
280
     0
281
     0
  0
CLASS
  1
IMAGEDEF_REACTOR
  2
AcDbRasterImageDefReactor
  3
ISM
 90
        1
280
     0
281
     0
  0
CLASS
  1
IDBUFFER
  2
AcDbIdBuffer
  3
"Acad"
 90
        0
280
     0
281
     0
  0
CLASS
  1
SPATIAL_FILTER
  2
AcDbSpatialFilter
  3
"Acad"
 90
        0
280
     0
281
     0
  0
CLASS
  1
XRECORD
  2
AcDbXrecord
  3
"<Built In>"
 90
        0
280
     0
281
     0
  0
CLASS
  1
SORTENTSTABLE
  2
AcDbSortentsTable
  3
"AutoCAD"
 90
        0
280
     0
281
     0
  0
CLASS
  1
LAYER_INDEX
  2
AcDbLayerIndex
  3
"Acad"
 90
        0
280
     0
281
     0
  0
CLASS
  1
SPATIAL_INDEX
  2
AcDbSpatialIndex
  3
"Acad"
 90
        0
280
     0
281
     0
  0
CLASS
  1
OBJECT_PTR
  2
CAseDLPNTableRecord
  3
"ASE-LPNTableRecord"
 90
        1
280
     0
281
     0
  0
CLASS
  1
LAYOUT
  2
AcDbLayout
  3
"AutoCAD 2000"
 90
        1
280
     0
281
     0
  0
CLASS
  1
PLOTSETTINGS
  2
AcDbPlotSettings
  3
"AutoCAD 2000"
 90
        1
280
     0
281
     0
  0
CLASS
  1
ACDBDICTIONARYWDFLT
  2
AcDbDictionaryWithDefault
  3
"AutoCAD 2000"
 90
        1
280
     0
281
     0
  0
CLASS
  1
ACDBPLACEHOLDER
  2
AcDbPlaceHolder
  3
"AutoCAD 2000"
 90
        1
280
     0
281
     0
  0
CLASS
  1
VBA_PROJECT
  2
AcDbVbaProject
  3
"acadvba"
 90
        1
280
     0
281
     0
  0
CLASS
  1
WIPEOUT
  2
AcDbWipeout
  3
WipeOut|AutoCAD Express Tool|expresstools@autodesk.com
 90
      127
280
     0
281
     1
  0
CLASS
  1
WIPEOUTVARIABLES
  2
AcDbWipeoutVariables
  3
WipeOut|AutoCAD Express Tool|expresstools@autodesk.com
 90
        0
280
     0
281
     0
  0
CLASS
  1
RTEXT
  2
RText
  3
RText|AutoCAD Express Tool|expresstools@autodesk.com
 90
        0
280
     0
281
     1
  0
CLASS
  1
ARCALIGNEDTEXT
  2
AcDbArcAlignedText
  3
ATEXT|AutoCAD Express Tool|expresstools@autodesk.com
 90
        0
280
     0
281
     1
  0
ENDSEC
  0
SECTION
  2
TABLES
  0
TABLE
  2
VPORT
  5
7
100
AcDbSymbolTable
 70
     1
  0
VPORT
  5
15
100
AcDbSymbolTableRecord
100
AcDbViewportTableRecord
  2
*ACTIVE
 70
     0
 10
0.0
 20
0.0
 11
1.0
 21
1.0
 12
6.591288
 22
4.579184
 13
0.0
 23
0.0
 14
1.0
 24
1.0
 15
0.0
 25
0.0
 16
0.0
 26
0.0
 36
1.0
 17
0.0
 27
0.0
 37
0.0
 40
9.158369
 41
0.688564
 42
50.0
 43
0.0
 44
0.0
 50
0.0
 51
0.0
 71
     0
 72
   100
 73
     1
 74
     1
 75
     0
 76
     0
 77
     0
 78
     0
281
     0
 65
     0
110
0.0
120
0.0
130
0.0
111
1.0
121
0.0
131
0.0
112
0.0
122
1.0
132
0.0
345
0
346
0
 79
     0
146
0.0
  0
ENDTAB
  0
TABLE
  2
LTYPE
  5
4
100
AcDbSymbolTable
 70
     7
  0
LTYPE
  5
11
100
AcDbSymbolTableRecord
100
AcDbLinetypeTableRecord
  2
ByBlock
 70
    64
  3

 72
    65
 73
     0
 40
0.0
  0
LTYPE
  5
12
100
AcDbSymbolTableRecord
100
AcDbLinetypeTableRecord
  2
ByLayer
 70
    64
  3

 72
    65
 73
     0
 40
0.0
  0
LTYPE
  5
13
100
AcDbSymbolTableRecord
100
AcDbLinetypeTableRecord
  2
Continuous
 70
    64
  3
Solid line
 72
    65
 73
     0
 40
0.0
  0
LTYPE
  5
24
100
AcDbSymbolTableRecord
100
AcDbLinetypeTableRecord
  2
HIDDEN
 70
    64
  3
_ _ _ _ _ _ _ _ _ _ _ _ _ _ _ _ _ _ _ _ _ _ _ _
 72
    65
 73
     2
 40
0.1875
 49
0.125
 74
     0
 49
-0.0625
 74
     0
  0
LTYPE
  5
25
100
AcDbSymbolTableRecord
100
AcDbLinetypeTableRecord
  2
DOTTED
 70
    64
  3
...............................................
 72
    65
 73
     2
 40
0.125
 49
0.0
 74
     0
 49
-0.125
 74
     0
  0
LTYPE
  5
26
100
AcDbSymbolTableRecord
100
AcDbLinetypeTableRecord
  2
CENTER
 70
    64
  3
____ _ ____ _ ____ _ ____ _ ____ _ ____ _ ____ 
 72
    65
 73
     4
 40
1.125
 49
0.75
 74
     0
 49
-0.125
 74
     0
 49
0.125
 74
     0
 49
-0.125
 74
     0
  0
LTYPE
  5
27
100
AcDbSymbolTableRecord
100
AcDbLinetypeTableRecord
  2
PHANTOM
 70
    64
  3
______  __  __  ______  __  __  ______  __  __ 
 72
    65
 73
     6
 40
1.25
 49
0.625
 74
     0
 49
-0.125
 74
     0
 49
0.125
 74
     0
 49
-0.125
 74
     0
 49
0.125
 74
     0
 49
-0.125
 74
     0
  0
ENDTAB
  0
TABLE
  2
LAYER
  5
2
100
AcDbSymbolTable
 70
     2
  0
LAYER
  5
14
100
AcDbSymbolTableRecord
100
AcDbLayerTableRecord
  2
0
 70
     0
 62
     7
  6
Continuous
290
     1
370
    -3
390
1D
  0
LAYER
  5
28
100
AcDbSymbolTableRecord
100
AcDbLayerTableRecord
  2
TEXT
 70
     0
 62
     8
  6
Continuous
290
     1
370
    -3
390
1F
  0
ENDTAB
  0
TABLE
  2
STYLE
  5
3
100
AcDbSymbolTable
 70
     1
  0
STYLE
  5
17
100
AcDbSymbolTableRecord
100
AcDbTextStyleTableRecord
  2
Standard
 70
     0
 40
0.0
 41
1.0
 50
0.0
 71
     0
 42
0.0
  3
txt
  4

  0
ENDTAB
  0
TABLE
  2
VIEW
  5
5
100
AcDbSymbolTable
 70
     0
  0
ENDTAB
  0
TABLE
  2
UCS
  5
6
100
AcDbSymbolTable
 70
     0
  0
ENDTAB
  0
TABLE
  2
APPID
  5
8
100
AcDbSymbolTable
 70
     1
  0
APPID
  5
16
100
AcDbSymbolTableRecord
100
AcDbRegAppTableRecord
  2
ACAD
 70
     0
  0
ENDTAB
  0
TABLE
  2
DIMSTYLE
  5
9
100
AcDbSymbolTable
 70
     1
100
AcDbDimStyleTable
 71
     0
  0
DIMSTYLE
105
18
100
AcDbSymbolTableRecord
100
AcDbDimStyleTableRecord
  2
Standard
 70
     0
  3

  4

 40
1.0
 41
0.18
 42
0.0625
 43
0.38
 44
0.18
 45
0.0
 46
0.0
 47
0.0
 48
0.0
 71
     0
 72
     0
 73
     1
 74
     1
 75
     0
 76
     0
 77
     0
 78
     0
 79
     0
140
0.18
141
0.09
142
0.0
143
25.4
144
1.0
145
0.0
146
1.0
147
0.09
148
0.0
170
     0
171
     2
172
     0
173
     0
174
     0
175
     0
176
     0
177
     0
178
     0
179
     0
271
     4
272
     4
273
     2
274
     2
275
     0
276
     0
277
     2
278
    46
279
     0
280
     0
281
     0
282
     0
283
     1
284
     0
285
     0
286
     0
288
     0
340
17
341
0
342
0
343
0
344
0
371
    -2
372
    -2
  0
ENDTAB
  0
TABLE
  2
BLOCK_RECORD
  5
1
100
AcDbSymbolTable
 70
    86
  0
BLOCK_RECORD
  5
A
100
AcDbSymbolTableRecord
100
AcDbBlockTableRecord
  2
*MODEL_SPACE
340
20
  0
BLOCK_RECORD
  5
B
100
AcDbSymbolTableRecord
100
AcDbBlockTableRecord
  2
*PAPER_SPACE
340
21
  0
BLOCK_RECORD
  5
29
100
AcDbSymbolTableRecord
100
AcDbBlockTableRecord
  2
*B0
340
0
  0
BLOCK_RECORD
  5
2C
100
AcDbSymbolTableRecord
100
AcDbBlockTableRecord
  2
*B1
340
0
  0
BLOCK_RECORD
  5
26D
100
AcDbSymbolTableRecord
100
AcDbBlockTableRecord
  2
*B2
340
0
  0
BLOCK_RECORD
  5
305
100
AcDbSymbolTableRecord
100
AcDbBlockTableRecord
  2
*B3
340
0
  0
BLOCK_RECORD
  5
30B
100
AcDbSymbolTableRecord
100
AcDbBlockTableRecord
  2
*B4
340
0
  0
BLOCK_RECORD
  5
316
100
AcDbSymbolTableRecord
100
AcDbBlockTableRecord
  2
*B5
340
0
  0
BLOCK_RECORD
  5
319
100
AcDbSymbolTableRecord
100
AcDbBlockTableRecord
  2
*B6
340
0
  0
BLOCK_RECORD
  5
320
100
AcDbSymbolTableRecord
100
AcDbBlockTableRecord
  2
*B7
340
0
  0
BLOCK_RECORD
  5
327
100
AcDbSymbolTableRecord
100
AcDbBlockTableRecord
  2
*B8
340
0
  0
BLOCK_RECORD
  5
32E
100
AcDbSymbolTableRecord
100
AcDbBlockTableRecord
  2
*B9
340
0
  0
BLOCK_RECORD
  5
335
100
AcDbSymbolTableRecord
100
AcDbBlockTableRecord
  2
*B10
340
0
  0
BLOCK_RECORD
  5
33C
100
AcDbSymbolTableRecord
100
AcDbBlockTableRecord
  2
*B11
340
0
  0
BLOCK_RECORD
  5
343
100
AcDbSymbolTableRecord
100
AcDbBlockTableRecord
  2
*B12
340
0
  0
BLOCK_RECORD
  5
34A
100
AcDbSymbolTableRecord
100
AcDbBlockTableRecord
  2
*B13
340
0
  0
BLOCK_RECORD
  5
351
100
AcDbSymbolTableRecord
100
AcDbBlockTableRecord
  2
*B14
340
0
  0
BLOCK_RECORD
  5
358
100
AcDbSymbolTableRecord
100
AcDbBlockTableRecord
  2
*B15
340
0
  0
BLOCK_RECORD
  5
35F
100
AcDbSymbolTableRecord
100
AcDbBlockTableRecord
  2
*B16
340
0
  0
BLOCK_RECORD
  5
366
100
AcDbSymbolTableRecord
100
AcDbBlockTableRecord
  2
*B17
340
0
  0
BLOCK_RECORD
  5
36D
100
AcDbSymbolTableRecord
100
AcDbBlockTableRecord
  2
*B18
340
0
  0
BLOCK_RECORD
  5
374
100
AcDbSymbolTableRecord
100
AcDbBlockTableRecord
  2
*B19
340
0
  0
BLOCK_RECORD
  5
37B
100
AcDbSymbolTableRecord
100
AcDbBlockTableRecord
  2
*B20
340
0
  0
BLOCK_RECORD
  5
382
100
AcDbSymbolTableRecord
100
AcDbBlockTableRecord
  2
*B21
340
0
  0
BLOCK_RECORD
  5
388
100
AcDbSymbolTableRecord
100
AcDbBlockTableRecord
  2
*B22
340
0
  0
BLOCK_RECORD
  5
38D
100
AcDbSymbolTableRecord
100
AcDbBlockTableRecord
  2
*B23
340
0
  0
BLOCK_RECORD
  5
392
100
AcDbSymbolTableRecord
100
AcDbBlockTableRecord
  2
*B24
340
0
  0
BLOCK_RECORD
  5
39C
100
AcDbSymbolTableRecord
100
AcDbBlockTableRecord
  2
*B25
340
0
  0
BLOCK_RECORD
  5
3A2
100
AcDbSymbolTableRecord
100
AcDbBlockTableRecord
  2
*B26
340
0
  0
BLOCK_RECORD
  5
3AD
100
AcDbSymbolTableRecord
100
AcDbBlockTableRecord
  2
*B27
340
0
  0
BLOCK_RECORD
  5
3BB
100
AcDbSymbolTableRecord
100
AcDbBlockTableRecord
  2
*B28
340
0
  0
BLOCK_RECORD
  5
3D2
100
AcDbSymbolTableRecord
100
AcDbBlockTableRecord
  2
*B29
340
0
  0
BLOCK_RECORD
  5
3D8
100
AcDbSymbolTableRecord
100
AcDbBlockTableRecord
  2
*B30
340
0
  0
BLOCK_RECORD
  5
3FF
100
AcDbSymbolTableRecord
100
AcDbBlockTableRecord
  2
*B31
340
0
  0
BLOCK_RECORD
  5
404
100
AcDbSymbolTableRecord
100
AcDbBlockTableRecord
  2
*B32
340
0
  0
BLOCK_RECORD
  5
409
100
AcDbSymbolTableRecord
100
AcDbBlockTableRecord
  2
*B33
340
0
  0
BLOCK_RECORD
  5
40F
100
AcDbSymbolTableRecord
100
AcDbBlockTableRecord
  2
*B34
340
0
  0
BLOCK_RECORD
  5
41D
100
AcDbSymbolTableRecord
100
AcDbBlockTableRecord
  2
*B35
340
0
  0
BLOCK_RECORD
  5
422
100
AcDbSymbolTableRecord
100
AcDbBlockTableRecord
  2
*B36
340
0
  0
BLOCK_RECORD
  5
427
100
AcDbSymbolTableRecord
100
AcDbBlockTableRecord
  2
*B37
340
0
  0
BLOCK_RECORD
  5
42C
100
AcDbSymbolTableRecord
100
AcDbBlockTableRecord
  2
*B38
340
0
  0
BLOCK_RECORD
  5
431
100
AcDbSymbolTableRecord
100
AcDbBlockTableRecord
  2
*B39
340
0
  0
BLOCK_RECORD
  5
43B
100
AcDbSymbolTableRecord
100
AcDbBlockTableRecord
  2
*B40
340
0
  0
BLOCK_RECORD
  5
440
100
AcDbSymbolTableRecord
100
AcDbBlockTableRecord
  2
*B41
340
0
  0
BLOCK_RECORD
  5
445
100
AcDbSymbolTableRecord
100
AcDbBlockTableRecord
  2
*B42
340
0
  0
BLOCK_RECORD
  5
44A
100
AcDbSymbolTableRecord
100
AcDbBlockTableRecord
  2
*B43
340
0
  0
BLOCK_RECORD
  5
451
100
AcDbSymbolTableRecord
100
AcDbBlockTableRecord
  2
*B44
340
0
  0
BLOCK_RECORD
  5
457
100
AcDbSymbolTableRecord
100
AcDbBlockTableRecord
  2
*B45
340
0
  0
BLOCK_RECORD
  5
45E
100
AcDbSymbolTableRecord
100
AcDbBlockTableRecord
  2
*B46
340
0
  0
BLOCK_RECORD
  5
463
100
AcDbSymbolTableRecord
100
AcDbBlockTableRecord
  2
*B47
340
0
  0
BLOCK_RECORD
  5
468
100
AcDbSymbolTableRecord
100
AcDbBlockTableRecord
  2
*B48
340
0
  0
BLOCK_RECORD
  5
470
100
AcDbSymbolTableRecord
100
AcDbBlockTableRecord
  2
*B49
340
0
  0
BLOCK_RECORD
  5
476
100
AcDbSymbolTableRecord
100
AcDbBlockTableRecord
  2
*B50
340
0
  0
BLOCK_RECORD
  5
47B
100
AcDbSymbolTableRecord
100
AcDbBlockTableRecord
  2
*B51
340
0
  0
BLOCK_RECORD
  5
481
100
AcDbSymbolTableRecord
100
AcDbBlockTableRecord
  2
*B52
340
0
  0
BLOCK_RECORD
  5
48E
100
AcDbSymbolTableRecord
100
AcDbBlockTableRecord
  2
*B53
340
0
  0
BLOCK_RECORD
  5
494
100
AcDbSymbolTableRecord
100
AcDbBlockTableRecord
  2
*B54
340
0
  0
BLOCK_RECORD
  5
49A
100
AcDbSymbolTableRecord
100
AcDbBlockTableRecord
  2
*B55
340
0
  0
BLOCK_RECORD
  5
4A0
100
AcDbSymbolTableRecord
100
AcDbBlockTableRecord
  2
*B56
340
0
  0
BLOCK_RECORD
  5
4A6
100
AcDbSymbolTableRecord
100
AcDbBlockTableRecord
  2
*B57
340
0
  0
BLOCK_RECORD
  5
4AC
100
AcDbSymbolTableRecord
100
AcDbBlockTableRecord
  2
*B58
340
0
  0
BLOCK_RECORD
  5
4B2
100
AcDbSymbolTableRecord
100
AcDbBlockTableRecord
  2
*B59
340
0
  0
BLOCK_RECORD
  5
4B8
100
AcDbSymbolTableRecord
100
AcDbBlockTableRecord
  2
*B60
340
0
  0
BLOCK_RECORD
  5
4BE
100
AcDbSymbolTableRecord
100
AcDbBlockTableRecord
  2
*B61
340
0
  0
BLOCK_RECORD
  5
4C5
100
AcDbSymbolTableRecord
100
AcDbBlockTableRecord
  2
*B62
340
0
  0
BLOCK_RECORD
  5
4CA
100
AcDbSymbolTableRecord
100
AcDbBlockTableRecord
  2
*B63
340
0
  0
BLOCK_RECORD
  5
4CF
100
AcDbSymbolTableRecord
100
AcDbBlockTableRecord
  2
*B64
340
0
  0
BLOCK_RECORD
  5
4D4
100
AcDbSymbolTableRecord
100
AcDbBlockTableRecord
  2
*B65
340
0
  0
BLOCK_RECORD
  5
4D9
100
AcDbSymbolTableRecord
100
AcDbBlockTableRecord
  2
*B66
340
0
  0
BLOCK_RECORD
  5
4DE
100
AcDbSymbolTableRecord
100
AcDbBlockTableRecord
  2
*B67
340
0
  0
BLOCK_RECORD
  5
4E3
100
AcDbSymbolTableRecord
100
AcDbBlockTableRecord
  2
*B68
340
0
  0
BLOCK_RECORD
  5
4E8
100
AcDbSymbolTableRecord
100
AcDbBlockTableRecord
  2
*B69
340
0
  0
BLOCK_RECORD
  5
4ED
100
AcDbSymbolTableRecord
100
AcDbBlockTableRecord
  2
*B70
340
0
  0
BLOCK_RECORD
  5
4F2
100
AcDbSymbolTableRecord
100
AcDbBlockTableRecord
  2
*B71
340
0
  0
BLOCK_RECORD
  5
4F7
100
AcDbSymbolTableRecord
100
AcDbBlockTableRecord
  2
*B72
340
0
  0
BLOCK_RECORD
  5
4FC
100
AcDbSymbolTableRecord
100
AcDbBlockTableRecord
  2
*B73
340
0
  0
BLOCK_RECORD
  5
501
100
AcDbSymbolTableRecord
100
AcDbBlockTableRecord
  2
*B74
340
0
  0
BLOCK_RECORD
  5
506
100
AcDbSymbolTableRecord
100
AcDbBlockTableRecord
  2
*B75
340
0
  0
BLOCK_RECORD
  5
50B
100
AcDbSymbolTableRecord
100
AcDbBlockTableRecord
  2
*B76
340
0
  0
BLOCK_RECORD
  5
510
100
AcDbSymbolTableRecord
100
AcDbBlockTableRecord
  2
*B77
340
0
  0
BLOCK_RECORD
  5
515
100
AcDbSymbolTableRecord
100
AcDbBlockTableRecord
  2
*B78
340
0
  0
BLOCK_RECORD
  5
51A
100
AcDbSymbolTableRecord
100
AcDbBlockTableRecord
  2
*B79
340
0
  0
BLOCK_RECORD
  5
51F
100
AcDbSymbolTableRecord
100
AcDbBlockTableRecord
  2
*B80
340
0
  0
BLOCK_RECORD
  5
524
100
AcDbSymbolTableRecord
100
AcDbBlockTableRecord
  2
*B81
340
0
  0
BLOCK_RECORD
  5
529
100
AcDbSymbolTableRecord
100
AcDbBlockTableRecord
  2
*B82
340
0
  0
BLOCK_RECORD
  5
52E
100
AcDbSymbolTableRecord
100
AcDbBlockTableRecord
  2
*B83
340
0
  0
BLOCK_RECORD
  5
533
100
AcDbSymbolTableRecord
100
AcDbBlockTableRecord
  2
*B84
340
0
  0
BLOCK_RECORD
  5
538
100
AcDbSymbolTableRecord
100
AcDbBlockTableRecord
  2
*B85
340
0
  0
ENDTAB
  0
ENDSEC
  0
SECTION
  2
BLOCKS
  0
BLOCK
  5
D
100
AcDbEntity
  8
0
100
AcDbBlockBegin
  2
*MODEL_SPACE
 70
     0
 10
0.0
 20
0.0
 30
0.0
  3
*MODEL_SPACE
  1

  0
ENDBLK
  5
E
100
AcDbEntity
  8
0
100
AcDbBlockEnd
  0
BLOCK
  5
F
100
AcDbEntity
 67
     1
  8
0
100
AcDbBlockBegin
  2
*PAPER_SPACE
 70
     0
 10
0.0
 20
0.0
 30
0.0
  3
*PAPER_SPACE
  1

  0
ENDBLK
  5
10
100
AcDbEntity
 67
     1
  8
0
100
AcDbBlockEnd
  0
BLOCK
  5
2A
100
AcDbEntity
  8
0
100
AcDbBlockBegin
  2
*B0
 70
     0
 10
0.0
 20
0.0
 30
0.0
  3
*B0
  1

  0
ENDBLK
  5
2B
100
AcDbEntity
  8
0
100
AcDbBlockEnd
  0
BLOCK
  5
2D
100
AcDbEntity
  8
0
100
AcDbBlockBegin
  2
*B1
 70
     0
 10
0.0
 20
0.0
 30
0.0
  3
*B1
  1

  0
LINE
  5
2E
100
AcDbEntity
  8
0
  6
HIDDEN
 62
   174
100
AcDbLine
 10
469.561472
 20
425.501293
 30
0.0
 11
469.561472
 21
437.651293
 31
0.0
  0
LINE
  5
2F
100
AcDbEntity
  8
0
  6
HIDDEN
 62
   174
100
AcDbLine
 10
451.561472
 20
425.501293
 30
0.0
 11
451.561472
 21
437.651293
 31
0.0
  0
LINE
  5
30
100
AcDbEntity
  8
0
  6
HIDDEN
 62
   174
100
AcDbLine
 10
469.561472
 20
425.501293
 30
0.0
 11
469.561472
 21
437.651293
 31
0.0
  0
LINE
  5
31
100
AcDbEntity
  8
0
  6
HIDDEN
 62
   174
100
AcDbLine
 10
451.561472
 20
425.501293
 30
0.0
 11
451.561472
 21
437.651293
 31
0.0
  0
LINE
  5
32
100
AcDbEntity
  8
0
  6
HIDDEN
 62
   174
100
AcDbLine
 10
415.561472
 20
425.501293
 30
0.0
 11
415.561472
 21
437.651293
 31
0.0
  0
LINE
  5
33
100
AcDbEntity
  8
0
  6
HIDDEN
 62
   174
100
AcDbLine
 10
397.561472
 20
425.501293
 30
0.0
 11
397.561472
 21
437.651293
 31
0.0
  0
LINE
  5
34
100
AcDbEntity
  8
0
  6
HIDDEN
 62
   174
100
AcDbLine
 10
415.561472
 20
425.501293
 30
0.0
 11
415.561472
 21
437.651293
 31
0.0
  0
LINE
  5
35
100
AcDbEntity
  8
0
  6
HIDDEN
 62
   174
100
AcDbLine
 10
397.561472
 20
425.501293
 30
0.0
 11
397.561472
 21
437.651293
 31
0.0
  0
LINE
  5
36
100
AcDbEntity
  8
0
  6
HIDDEN
 62
   174
100
AcDbLine
 10
415.536374
 20
437.651293
 30
0.0
 11
397.537391
 21
437.651293
 31
0.0
  0
LINE
  5
37
100
AcDbEntity
  8
0
  6
HIDDEN
 62
   174
100
AcDbLine
 10
469.532722
 20
437.651293
 30
0.0
 11
451.533739
 21
437.651293
 31
0.0
  0
LINE
  5
38
100
AcDbEntity
  8
0
  6
HIDDEN
 62
   174
100
AcDbLine
 10
415.536374
 20
425.501293
 30
0.0
 11
411.255285
 21
425.501293
 31
0.0
  0
LINE
  5
39
100
AcDbEntity
  8
0
  6
HIDDEN
 62
   174
100
AcDbLine
 10
401.817879
 20
425.501293
 30
0.0
 11
397.537391
 21
425.501293
 31
0.0
  0
LINE
  5
3A
100
AcDbEntity
  8
0
  6
HIDDEN
 62
   174
100
AcDbLine
 10
402.263613
 20
425.501293
 30
0.0
 11
401.817879
 21
425.501293
 31
0.0
  0
LINE
  5
3B
100
AcDbEntity
  8
0
  6
HIDDEN
 62
   174
100
AcDbLine
 10
411.255285
 20
425.501293
 30
0.0
 11
410.809551
 21
425.501293
 31
0.0
  0
LINE
  5
3C
100
AcDbEntity
  8
0
  6
Continuous
 62
   174
100
AcDbLine
 10
188.311472
 20
308.051293
 30
0.0
 11
307.561472
 21
308.051293
 31
0.0
  0
LINE
  5
3D
100
AcDbEntity
  8
0
  6
HIDDEN
 62
   174
100
AcDbLine
 10
643.131294
 20
439.901293
 30
0.0
 11
642.318025
 21
439.901293
 31
0.0
  0
LINE
  5
3E
100
AcDbEntity
  8
0
  6
Continuous
 62
   174
100
AcDbLine
 10
225.872739
 20
439.901293
 30
0.0
 11
224.752088
 21
439.901293
 31
0.0
  0
LINE
  5
3F
100
AcDbEntity
  8
0
  6
Continuous
 62
   174
100
AcDbLine
 10
678.811472
 20
405.926293
 30
0.0
 11
678.811472
 21
385.676293
 31
0.0
  0
LINE
  5
40
100
AcDbEntity
  8
0
  6
Continuous
 62
   174
100
AcDbLine
 10
188.311472
 20
329.426293
 30
0.0
 11
188.311472
 21
330.551293
 31
0.0
  0
LINE
  5
41
100
AcDbEntity
  8
0
  6
HIDDEN
 62
   174
100
AcDbLine
 10
223.623016
 20
433.151293
 30
0.0
 11
217.548164
 21
433.151293
 31
0.0
  0
LINE
  5
42
100
AcDbEntity
  8
0
  6
HIDDEN
 62
   174
100
AcDbLine
 10
217.548164
 20
433.151293
 30
0.0
 11
209.223589
 21
433.151293
 31
0.0
  0
LINE
  5
43
100
AcDbEntity
  8
0
  6
Continuous
 62
   174
100
AcDbLine
 10
685.561472
 20
308.051293
 30
0.0
 11
678.811472
 21
308.051293
 31
0.0
  0
ARC
  5
44
100
AcDbEntity
  8
0
  6
HIDDEN
 62
   174
100
AcDbCircle
 10
389.914335
 20
310.306675
 30
0.0
 40
3.15
100
AcDbArc
 50
-180.0
 51
-90.0
  0
LINE
  5
45
100
AcDbEntity
  8
0
  6
Continuous
 62
   174
100
AcDbLine
 10
379.541416
 20
307.156675
 30
0.0
 11
369.19149
 21
307.156675
 31
0.0
  0
LINE
  5
46
100
AcDbEntity
  8
0
  6
Continuous
 62
   174
100
AcDbLine
 10
369.69858
 20
307.156675
 30
0.0
 11
369.19149
 21
307.156675
 31
0.0
  0
LINE
  5
47
100
AcDbEntity
  8
0
  6
Continuous
 62
   174
100
AcDbLine
 10
379.541416
 20
307.156675
 30
0.0
 11
369.69858
 21
307.156675
 31
0.0
  0
LINE
  5
48
100
AcDbEntity
  8
0
  6
Continuous
 62
   174
100
AcDbLine
 10
389.890741
 20
307.156675
 30
0.0
 11
389.384253
 21
307.156675
 31
0.0
  0
LINE
  5
49
100
AcDbEntity
  8
0
  6
HIDDEN
 62
   174
100
AcDbLine
 10
456.260562
 20
425.501293
 30
0.0
 11
455.814828
 21
425.501293
 31
0.0
  0
LINE
  5
4A
100
AcDbEntity
  8
0
  6
HIDDEN
 62
   174
100
AcDbLine
 10
464.8065
 20
425.501293
 30
0.0
 11
460.53323
 21
425.501293
 31
0.0
  0
LINE
  5
4B
100
AcDbEntity
  8
0
  6
Continuous
 62
   174
100
AcDbLine
 10
307.561472
 20
407.051293
 30
0.0
 11
253.561472
 21
407.051293
 31
0.0
  0
LINE
  5
4C
100
AcDbEntity
  8
0
  6
Continuous
 62
   174
100
AcDbLine
 10
188.311472
 20
309.176293
 30
0.0
 11
188.311472
 21
329.426293
 31
0.0
  0
LINE
  5
4D
100
AcDbEntity
  8
0
  6
Continuous
 62
   174
100
AcDbLine
 10
613.561472
 20
407.051293
 30
0.0
 11
613.561472
 21
425.051293
 31
0.0
  0
LINE
  5
4E
100
AcDbEntity
  8
0
  6
Continuous
 62
   174
100
AcDbLine
 10
389.890741
 20
307.156675
 30
0.0
 11
379.541416
 21
307.156675
 31
0.0
  0
LINE
  5
4F
100
AcDbEntity
  8
0
  6
HIDDEN
 62
   174
100
AcDbLine
 10
379.541416
 20
313.456675
 30
0.0
 11
372.680364
 21
313.456675
 31
0.0
  0
LINE
  5
50
100
AcDbEntity
  8
0
  6
Continuous
 62
   174
100
AcDbLine
 10
642.318025
 20
439.901293
 30
0.0
 11
641.197374
 21
439.901293
 31
0.0
  0
LINE
  5
51
100
AcDbEntity
  8
0
  6
HIDDEN
 62
   174
100
AcDbLine
 10
656.725873
 20
439.901293
 30
0.0
 11
655.912605
 21
439.901293
 31
0.0
  0
LINE
  5
52
100
AcDbEntity
  8
0
  6
HIDDEN
 62
   174
100
AcDbLine
 10
655.912605
 20
439.901293
 30
0.0
 11
649.521348
 21
439.901293
 31
0.0
  0
LINE
  5
53
100
AcDbEntity
  8
0
  6
Continuous
 62
   174
100
AcDbLine
 10
678.811472
 20
308.051293
 30
0.0
 11
559.561472
 21
308.051293
 31
0.0
  0
LINE
  5
54
100
AcDbEntity
  8
0
  6
Continuous
 62
   174
100
AcDbLine
 10
685.561472
 20
407.051293
 30
0.0
 11
678.811472
 21
407.051293
 31
0.0
  0
LINE
  5
55
100
AcDbEntity
  8
0
  6
HIDDEN
 62
   174
100
AcDbLine
 10
223.636472
 20
433.151293
 30
0.0
 11
223.636472
 21
439.901293
 31
0.0
  0
LINE
  5
56
100
AcDbEntity
  8
0
  6
Continuous
 62
   174
100
AcDbLine
 10
209.236472
 20
433.151293
 30
0.0
 11
209.236472
 21
439.901293
 31
0.0
  0
LINE
  5
57
100
AcDbEntity
  8
0
  6
HIDDEN
 62
   174
100
AcDbLine
 10
655.5962
 20
433.151293
 30
0.0
 11
649.521348
 21
433.151293
 31
0.0
  0
LINE
  5
58
100
AcDbEntity
  8
0
  6
Continuous
 62
   174
100
AcDbLine
 10
181.561472
 20
330.551293
 30
0.0
 11
188.311472
 21
330.551293
 31
0.0
  0
LINE
  5
59
100
AcDbEntity
  8
0
  6
Continuous
 62
   174
100
AcDbLine
 10
685.561472
 20
384.551293
 30
0.0
 11
685.561472
 21
330.551293
 31
0.0
  0
LINE
  5
5A
100
AcDbEntity
  8
0
  6
Continuous
 62
   174
100
AcDbLine
 10
559.561472
 20
407.051293
 30
0.0
 11
559.561472
 21
308.051293
 31
0.0
  0
ARC
  5
5B
100
AcDbEntity
  8
0
  6
Continuous
 62
   174
100
AcDbCircle
 10
369.214335
 20
310.306675
 30
0.0
 40
3.15
100
AcDbArc
 50
226.365463
 51
270.0
  0
LINE
  5
5C
100
AcDbEntity
  8
0
  6
HIDDEN
 62
   174
100
AcDbLine
 10
455.814828
 20
425.501293
 30
0.0
 11
451.533739
 21
425.501293
 31
0.0
  0
LINE
  5
5D
100
AcDbEntity
  8
0
  6
Continuous
 62
   174
100
AcDbLine
 10
181.561472
 20
425.051293
 30
0.0
 11
181.561472
 21
407.051293
 31
0.0
  0
LINE
  5
5E
100
AcDbEntity
  8
0
  6
HIDDEN
 62
   174
100
AcDbLine
 10
223.938819
 20
439.901293
 30
0.0
 11
217.548164
 21
439.901293
 31
0.0
  0
LINE
  5
5F
100
AcDbEntity
  8
0
  6
HIDDEN
 62
   174
100
AcDbLine
 10
217.548164
 20
439.901293
 30
0.0
 11
211.157508
 21
439.901293
 31
0.0
  0
LINE
  5
60
100
AcDbEntity
  8
0
  6
HIDDEN
 62
   174
100
AcDbLine
 10
211.473913
 20
439.901293
 30
0.0
 11
217.548164
 21
439.901293
 31
0.0
  0
LINE
  5
61
100
AcDbEntity
  8
0
  6
Continuous
 62
   174
100
AcDbLine
 10
641.236472
 20
433.151293
 30
0.0
 11
641.236472
 21
439.901293
 31
0.0
  0
LINE
  5
62
100
AcDbEntity
  8
0
  6
HIDDEN
 62
   174
100
AcDbLine
 10
657.845922
 20
433.151293
 30
0.0
 11
649.521348
 21
433.151293
 31
0.0
  0
LINE
  5
63
100
AcDbEntity
  8
0
  6
Continuous
 62
   174
100
AcDbLine
 10
678.811472
 20
308.051293
 30
0.0
 11
678.811472
 21
309.176293
 31
0.0
  0
LINE
  5
64
100
AcDbEntity
  8
0
  6
Continuous
 62
   174
100
AcDbLine
 10
181.561472
 20
384.551293
 30
0.0
 11
181.561472
 21
330.551293
 31
0.0
  0
LINE
  5
65
100
AcDbEntity
  8
0
  6
Continuous
 62
   174
100
AcDbLine
 10
559.561472
 20
308.051293
 30
0.0
 11
523.561472
 21
308.051293
 31
0.0
  0
ARC
  5
66
100
AcDbEntity
  8
0
  6
Continuous
 62
   174
100
AcDbCircle
 10
389.914335
 20
310.306675
 30
0.0
 40
3.15
100
AcDbArc
 50
-90.0
 51
-46.365463
  0
ARC
  5
67
100
AcDbEntity
  8
0
  6
HIDDEN
 62
   174
100
AcDbCircle
 10
369.214335
 20
310.306675
 30
0.0
 40
3.15
100
AcDbArc
 50
90.0
 51
180.0
  0
LINE
  5
68
100
AcDbEntity
  8
0
  6
HIDDEN
 62
   174
100
AcDbLine
 10
372.680364
 20
313.456675
 30
0.0
 11
372.223201
 21
313.456675
 31
0.0
  0
LINE
  5
69
100
AcDbEntity
  8
0
  6
HIDDEN
 62
   174
100
AcDbLine
 10
372.223201
 20
313.456675
 30
0.0
 11
369.193896
 21
313.456675
 31
0.0
  0
LINE
  5
6A
100
AcDbEntity
  8
0
  6
HIDDEN
 62
   174
100
AcDbLine
 10
465.252234
 20
425.501293
 30
0.0
 11
464.8065
 21
425.501293
 31
0.0
  0
LINE
  5
6B
100
AcDbEntity
  8
0
  6
Continuous
 62
   174
100
AcDbLine
 10
657.845922
 20
439.901293
 30
0.0
 11
656.725873
 21
439.901293
 31
0.0
  0
LINE
  5
6C
100
AcDbEntity
  8
0
  6
HIDDEN
 62
   174
100
AcDbLine
 10
211.157508
 20
439.901293
 30
0.0
 11
210.34424
 21
439.901293
 31
0.0
  0
LINE
  5
6D
100
AcDbEntity
  8
0
  6
Continuous
 62
   174
100
AcDbLine
 10
307.561472
 20
308.051293
 30
0.0
 11
307.561472
 21
407.051293
 31
0.0
  0
LINE
  5
6E
100
AcDbEntity
  8
0
  6
Continuous
 62
   174
100
AcDbLine
 10
678.811472
 20
329.426293
 30
0.0
 11
678.811472
 21
330.551293
 31
0.0
  0
LINE
  5
6F
100
AcDbEntity
  8
0
  6
Continuous
 62
   174
100
AcDbLine
 10
613.561472
 20
425.051293
 30
0.0
 11
685.561472
 21
425.051293
 31
0.0
  0
LINE
  5
70
100
AcDbEntity
  8
0
  6
Continuous
 62
   174
100
AcDbLine
 10
559.561472
 20
308.051293
 30
0.0
 11
559.561472
 21
407.051293
 31
0.0
  0
LINE
  5
71
100
AcDbEntity
  8
0
  6
Continuous
 62
   174
100
AcDbLine
 10
181.561472
 20
407.051293
 30
0.0
 11
188.311472
 21
407.051293
 31
0.0
  0
LINE
  5
72
100
AcDbEntity
  8
0
  6
Continuous
 62
   174
100
AcDbLine
 10
181.561472
 20
384.551293
 30
0.0
 11
188.311472
 21
384.551293
 31
0.0
  0
LINE
  5
73
100
AcDbEntity
  8
0
  6
HIDDEN
 62
   174
100
AcDbLine
 10
372.223201
 20
313.456675
 30
0.0
 11
369.69858
 21
313.456675
 31
0.0
  0
LINE
  5
74
100
AcDbEntity
  8
0
  6
HIDDEN
 62
   174
100
AcDbLine
 10
372.680364
 20
313.456675
 30
0.0
 11
372.223201
 21
313.456675
 31
0.0
  0
LINE
  5
75
100
AcDbEntity
  8
0
  6
HIDDEN
 62
   174
100
AcDbLine
 10
224.752088
 20
439.901293
 30
0.0
 11
223.938819
 21
439.901293
 31
0.0
  0
LINE
  5
76
100
AcDbEntity
  8
0
  6
HIDDEN
 62
   174
100
AcDbLine
 10
217.548164
 20
439.901293
 30
0.0
 11
223.623016
 21
439.901293
 31
0.0
  0
LINE
  5
77
100
AcDbEntity
  8
0
  6
Continuous
 62
   174
100
AcDbLine
 10
685.561472
 20
384.551293
 30
0.0
 11
678.811472
 21
384.551293
 31
0.0
  0
LINE
  5
78
100
AcDbEntity
  8
0
  6
Continuous
 62
   174
100
AcDbLine
 10
678.811472
 20
407.051293
 30
0.0
 11
678.811472
 21
405.926293
 31
0.0
  0
LINE
  5
79
100
AcDbEntity
  8
0
  6
Continuous
 62
   174
100
AcDbLine
 10
657.886472
 20
433.151293
 30
0.0
 11
657.886472
 21
439.901293
 31
0.0
  0
LINE
  5
7A
100
AcDbEntity
  8
0
  6
Continuous
 62
   174
100
AcDbLine
 10
225.886472
 20
433.151293
 30
0.0
 11
225.886472
 21
439.901293
 31
0.0
  0
LINE
  5
7B
100
AcDbEntity
  8
0
  6
Continuous
 62
   174
100
AcDbLine
 10
253.561472
 20
425.051293
 30
0.0
 11
181.561472
 21
425.051293
 31
0.0
  0
LINE
  5
7C
100
AcDbEntity
  8
0
  6
Continuous
 62
   174
100
AcDbLine
 10
181.561472
 20
308.051293
 30
0.0
 11
188.311472
 21
308.051293
 31
0.0
  0
LINE
  5
7D
100
AcDbEntity
  8
0
  6
HIDDEN
 62
   174
100
AcDbLine
 10
225.872739
 20
433.151293
 30
0.0
 11
217.548164
 21
433.151293
 31
0.0
  0
LINE
  5
7E
100
AcDbEntity
  8
0
  6
Continuous
 62
   174
100
AcDbLine
 10
678.811472
 20
309.176293
 30
0.0
 11
678.811472
 21
329.426293
 31
0.0
  0
LINE
  5
7F
100
AcDbEntity
  8
0
  6
Continuous
 62
   174
100
AcDbLine
 10
685.561472
 20
330.551293
 30
0.0
 11
678.811472
 21
330.551293
 31
0.0
  0
LINE
  5
80
100
AcDbEntity
  8
0
  6
Continuous
 62
   174
100
AcDbLine
 10
188.311472
 20
407.051293
 30
0.0
 11
188.311472
 21
405.926293
 31
0.0
  0
LINE
  5
81
100
AcDbEntity
  8
0
  6
Continuous
 62
   174
100
AcDbLine
 10
188.311472
 20
385.676293
 30
0.0
 11
188.311472
 21
384.551293
 31
0.0
  0
LINE
  5
82
100
AcDbEntity
  8
0
  6
Continuous
 62
   174
100
AcDbLine
 10
559.561472
 20
407.051293
 30
0.0
 11
523.561472
 21
407.051293
 31
0.0
  0
LINE
  5
83
100
AcDbEntity
  8
0
  6
Continuous
 62
   174
100
AcDbLine
 10
307.561472
 20
407.051293
 30
0.0
 11
343.561472
 21
407.051293
 31
0.0
  0
LINE
  5
84
100
AcDbEntity
  8
0
  6
HIDDEN
 62
   174
100
AcDbLine
 10
460.53323
 20
425.501293
 30
0.0
 11
456.260562
 21
425.501293
 31
0.0
  0
LINE
  5
85
100
AcDbEntity
  8
0
  6
Continuous
 62
   174
100
AcDbLine
 10
253.561472
 20
407.051293
 30
0.0
 11
253.561472
 21
425.051293
 31
0.0
  0
LINE
  5
86
100
AcDbEntity
  8
0
  6
HIDDEN
 62
   174
100
AcDbLine
 10
643.486472
 20
433.151293
 30
0.0
 11
643.486472
 21
439.901293
 31
0.0
  0
LINE
  5
87
100
AcDbEntity
  8
0
  6
HIDDEN
 62
   174
100
AcDbLine
 10
217.548164
 20
433.151293
 30
0.0
 11
211.473913
 21
433.151293
 31
0.0
  0
LINE
  5
88
100
AcDbEntity
  8
0
  6
Continuous
 62
   174
100
AcDbLine
 10
188.311472
 20
405.926293
 30
0.0
 11
188.311472
 21
385.676293
 31
0.0
  0
LINE
  5
89
100
AcDbEntity
  8
0
  6
Continuous
 62
   174
100
AcDbLine
 10
307.561472
 20
308.051293
 30
0.0
 11
343.561472
 21
308.051293
 31
0.0
  0
LINE
  5
8A
100
AcDbEntity
  8
0
  6
Continuous
 62
   174
100
AcDbLine
 10
389.384253
 20
307.156675
 30
0.0
 11
379.541416
 21
307.156675
 31
0.0
  0
LINE
  5
8B
100
AcDbEntity
  8
0
  6
HIDDEN
 62
   174
100
AcDbLine
 10
406.536883
 20
425.501293
 30
0.0
 11
402.263613
 21
425.501293
 31
0.0
  0
LINE
  5
8C
100
AcDbEntity
  8
0
  6
HIDDEN
 62
   174
100
AcDbLine
 10
410.809551
 20
425.501293
 30
0.0
 11
406.536883
 21
425.501293
 31
0.0
  0
LINE
  5
8D
100
AcDbEntity
  8
0
  6
HIDDEN
 62
   174
100
AcDbLine
 10
469.532722
 20
425.501293
 30
0.0
 11
465.252234
 21
425.501293
 31
0.0
  0
LINE
  5
8E
100
AcDbEntity
  8
0
  6
HIDDEN
 62
   174
100
AcDbLine
 10
649.521348
 20
439.901293
 30
0.0
 11
643.131294
 21
439.901293
 31
0.0
  0
LINE
  5
8F
100
AcDbEntity
  8
0
  6
Continuous
 62
   174
100
AcDbLine
 10
210.34424
 20
439.901293
 30
0.0
 11
209.223589
 21
439.901293
 31
0.0
  0
LINE
  5
90
100
AcDbEntity
  8
0
  6
HIDDEN
 62
   174
100
AcDbLine
 10
643.447097
 20
439.901293
 30
0.0
 11
649.521348
 21
439.901293
 31
0.0
  0
LINE
  5
91
100
AcDbEntity
  8
0
  6
HIDDEN
 62
   174
100
AcDbLine
 10
649.521348
 20
439.901293
 30
0.0
 11
655.5962
 21
439.901293
 31
0.0
  0
LINE
  5
92
100
AcDbEntity
  8
0
  6
Continuous
 62
   174
100
AcDbLine
 10
685.561472
 20
425.051293
 30
0.0
 11
685.561472
 21
407.051293
 31
0.0
  0
LINE
  5
93
100
AcDbEntity
  8
0
  6
Continuous
 62
   174
100
AcDbLine
 10
678.811472
 20
385.676293
 30
0.0
 11
678.811472
 21
384.551293
 31
0.0
  0
LINE
  5
94
100
AcDbEntity
  8
0
  6
HIDDEN
 62
   174
100
AcDbLine
 10
655.636472
 20
433.151293
 30
0.0
 11
655.636472
 21
439.901293
 31
0.0
  0
LINE
  5
95
100
AcDbEntity
  8
0
  6
HIDDEN
 62
   174
100
AcDbLine
 10
211.486472
 20
433.151293
 30
0.0
 11
211.486472
 21
439.901293
 31
0.0
  0
LINE
  5
96
100
AcDbEntity
  8
0
  6
Continuous
 62
   174
100
AcDbLine
 10
188.311472
 20
308.051293
 30
0.0
 11
188.311472
 21
309.176293
 31
0.0
  0
LINE
  5
97
100
AcDbEntity
  8
0
  6
HIDDEN
 62
   174
100
AcDbLine
 10
649.521348
 20
433.151293
 30
0.0
 11
643.447097
 21
433.151293
 31
0.0
  0
LINE
  5
98
100
AcDbEntity
  8
0
  6
HIDDEN
 62
   174
100
AcDbLine
 10
649.521348
 20
433.151293
 30
0.0
 11
641.197374
 21
433.151293
 31
0.0
  0
LINE
  5
99
100
AcDbEntity
  8
0
  6
Continuous
 62
   174
100
AcDbLine
 10
559.561472
 20
407.051293
 30
0.0
 11
613.561472
 21
407.051293
 31
0.0
  0
LINE
  5
9A
100
AcDbEntity
  8
0
  6
HIDDEN
 62
   174
100
AcDbLine
 10
379.541416
 20
313.456675
 30
0.0
 11
372.680364
 21
313.456675
 31
0.0
  0
ARC
  5
9B
100
AcDbEntity
  8
0
  6
HIDDEN
 62
   174
100
AcDbCircle
 10
369.214335
 20
310.306675
 30
0.0
 40
3.15
100
AcDbArc
 50
180.0
 51
226.365463
  0
LINE
  5
9C
100
AcDbEntity
  8
0
  6
Continuous
 62
   174
100
AcDbLine
 10
493.610767
 20
307.151293
 30
0.0
 11
487.536517
 21
307.151293
 31
0.0
  0
LINE
  5
9D
100
AcDbEntity
  8
0
  6
HIDDEN
 62
   174
100
AcDbLine
 10
678.811472
 20
309.264657
 30
0.0
 11
678.811472
 21
329.513964
 31
0.0
  0
LINE
  5
9E
100
AcDbEntity
  8
0
  6
HIDDEN
 62
   174
100
AcDbLine
 10
372.811472
 20
313.451293
 30
0.0
 11
372.811472
 21
330.551293
 31
0.0
  0
LINE
  5
9F
100
AcDbEntity
  8
0
  6
HIDDEN
 62
   174
100
AcDbLine
 10
181.561472
 20
329.426293
 30
0.0
 11
188.311472
 21
329.426293
 31
0.0
  0
LINE
  5
A0
100
AcDbEntity
  8
0
  6
HIDDEN
 62
   174
100
AcDbLine
 10
181.561472
 20
330.551293
 30
0.0
 11
188.311472
 21
330.551293
 31
0.0
  0
LINE
  5
A1
100
AcDbEntity
  8
0
  6
Continuous
 62
   174
100
AcDbLine
 10
179.311472
 20
403.76022
 30
0.0
 11
179.311472
 21
388.01096
 31
0.0
  0
LINE
  5
A2
100
AcDbEntity
  8
0
  6
Continuous
 62
   174
100
AcDbLine
 10
181.561472
 20
329.513964
 30
0.0
 11
181.561472
 21
319.38901
 31
0.0
  0
LINE
  5
A3
100
AcDbEntity
  8
0
  6
HIDDEN
 62
   174
100
AcDbLine
 10
678.811472
 20
319.301293
 30
0.0
 11
678.811472
 21
308.051293
 31
0.0
  0
LINE
  5
A4
100
AcDbEntity
  8
0
  6
HIDDEN
 62
   174
100
AcDbLine
 10
181.561472
 20
330.551293
 30
0.0
 11
188.311472
 21
330.551293
 31
0.0
  0
LINE
  5
A5
100
AcDbEntity
  8
0
  6
Continuous
 62
   174
100
AcDbLine
 10
420.061472
 20
425.501293
 30
0.0
 11
420.061472
 21
430.901293
 31
0.0
  0
LINE
  5
A6
100
AcDbEntity
  8
0
  6
HIDDEN
 62
   174
100
AcDbLine
 10
433.535357
 20
313.459345
 30
0.0
 11
426.676711
 21
313.459345
 31
0.0
  0
ARC
  5
A7
100
AcDbEntity
  8
0
  6
HIDDEN
 62
   174
100
AcDbCircle
 10
181.561472
 20
387.926293
 30
0.0
 40
2.25
100
AcDbArc
 50
225.0
 51
270.0
  0
LINE
  5
A8
100
AcDbEntity
  8
0
  6
HIDDEN
 62
   174
100
AcDbLine
 10
630.211472
 20
465.407428
 30
0.0
 11
630.211472
 21
459.557548
 31
0.0
  0
LINE
  5
A9
100
AcDbEntity
  8
0
  6
HIDDEN
 62
   174
100
AcDbLine
 10
493.808069
 20
308.051293
 30
0.0
 11
481.25534
 21
308.051293
 31
0.0
  0
LINE
  5
AA
100
AcDbEntity
  8
0
  6
HIDDEN
 62
   174
100
AcDbLine
 10
334.561472
 20
407.051293
 30
0.0
 11
334.561472
 21
406.601293
 31
0.0
  0
LINE
  5
AB
100
AcDbEntity
  8
0
  6
HIDDEN
 62
   174
100
AcDbLine
 10
415.609159
 20
407.051293
 30
0.0
 11
406.536883
 21
407.051293
 31
0.0
  0
LINE
  5
AC
100
AcDbEntity
  8
0
  6
Continuous
 62
   174
100
AcDbLine
 10
640.656599
 20
433.151293
 30
0.0
 11
638.272134
 21
433.151293
 31
0.0
  0
LINE
  5
AD
100
AcDbEntity
  8
0
  6
Continuous
 62
   174
100
AcDbLine
 10
226.412913
 20
433.151293
 30
0.0
 11
225.5822
 21
433.151293
 31
0.0
  0
LINE
  5
AE
100
AcDbEntity
  8
0
  6
HIDDEN
 62
   174
100
AcDbLine
 10
415.561472
 20
407.051293
 30
0.0
 11
415.561472
 21
425.501293
 31
0.0
  0
LINE
  5
AF
100
AcDbEntity
  8
0
  6
Continuous
 62
   174
100
AcDbLine
 10
523.561472
 20
308.051293
 30
0.0
 11
523.561472
 21
407.051293
 31
0.0
  0
LINE
  5
B0
100
AcDbEntity
  8
0
  6
HIDDEN
 62
   174
100
AcDbLine
 10
386.311472
 20
313.451293
 30
0.0
 11
386.311472
 21
330.551293
 31
0.0
  0
LINE
  5
B1
100
AcDbEntity
  8
0
  6
HIDDEN
 62
   174
100
AcDbLine
 10
233.311472
 20
459.557548
 30
0.0
 11
233.311472
 21
465.407428
 31
0.0
  0
LINE
  5
B2
100
AcDbEntity
  8
0
  6
Continuous
 62
   174
100
AcDbLine
 10
181.561472
 20
385.676293
 30
0.0
 11
188.311472
 21
385.676293
 31
0.0
  0
LINE
  5
B3
100
AcDbEntity
  8
0
  6
HIDDEN
 62
   174
100
AcDbLine
 10
423.989676
 20
308.051293
 30
0.0
 11
423.469353
 21
308.051293
 31
0.0
  0
LINE
  5
B4
100
AcDbEntity
  8
0
  6
HIDDEN
 62
   174
100
AcDbLine
 10
451.460352
 20
407.051293
 30
0.0
 11
438.034802
 21
407.051293
 31
0.0
  0
LINE
  5
B5
100
AcDbEntity
  8
0
  6
HIDDEN
 62
   174
100
AcDbLine
 10
188.311472
 20
407.135405
 30
0.0
 11
188.311472
 21
395.88559
 31
0.0
  0
LINE
  5
B6
100
AcDbEntity
  8
0
  6
Continuous
 62
   174
100
AcDbLine
 10
484.680066
 20
407.051293
 30
0.0
 11
484.680066
 21
401.651293
 31
0.0
  0
LINE
  5
B7
100
AcDbEntity
  8
0
  6
Continuous
 62
   174
100
AcDbLine
 10
397.244446
 20
437.651293
 30
0.0
 11
384.037853
 21
437.651293
 31
0.0
  0
LINE
  5
B8
100
AcDbEntity
  8
0
  6
Continuous
 62
   174
100
AcDbLine
 10
523.561472
 20
407.051293
 30
0.0
 11
523.561472
 21
308.051293
 31
0.0
  0
LINE
  5
B9
100
AcDbEntity
  8
0
  6
HIDDEN
 62
   174
100
AcDbLine
 10
372.78864
 20
330.551293
 30
0.0
 11
386.287576
 21
330.551293
 31
0.0
  0
LINE
  5
BA
100
AcDbEntity
  8
0
  6
Continuous
 62
   174
100
AcDbLine
 10
685.561472
 20
405.926293
 30
0.0
 11
678.811472
 21
405.926293
 31
0.0
  0
LINE
  5
BB
100
AcDbEntity
  8
0
  6
HIDDEN
 62
   174
100
AcDbLine
 10
480.781935
 20
330.551293
 30
0.0
 11
494.281473
 21
330.551293
 31
0.0
  0
LINE
  5
BC
100
AcDbEntity
  8
0
  6
HIDDEN
 62
   174
100
AcDbLine
 10
685.561472
 20
385.761237
 30
0.0
 11
685.561472
 21
406.009943
 31
0.0
  0
LINE
  5
BD
100
AcDbEntity
  8
0
  6
HIDDEN
 62
   174
100
AcDbLine
 10
426.676711
 20
313.459345
 30
0.0
 11
426.217142
 21
313.459345
 31
0.0
  0
ARC
  5
BE
100
AcDbEntity
  8
0
  6
Continuous
 62
   174
100
AcDbCircle
 10
181.561472
 20
311.426293
 30
0.0
 40
2.25
100
AcDbArc
 50
180.0
 51
225.0
  0
ARC
  5
BF
100
AcDbEntity
  8
0
  6
HIDDEN
 62
   174
100
AcDbCircle
 10
685.561472
 20
311.426293
 30
0.0
 40
2.25
100
AcDbArc
 50
-90.0
 51
0.0
  0
ARC
  5
C0
100
AcDbEntity
  8
0
  6
Continuous
 62
   174
100
AcDbCircle
 10
685.561472
 20
403.676293
 30
0.0
 40
2.25
100
AcDbArc
 50
0.0
 51
90.0
  0
LINE
  5
C1
100
AcDbEntity
  8
0
  6
HIDDEN
 62
   174
100
AcDbLine
 10
687.811472
 20
388.01096
 30
0.0
 11
687.811472
 21
403.76022
 31
0.0
  0
LINE
  5
C2
100
AcDbEntity
  8
0
  6
Continuous
 62
   174
100
AcDbLine
 10
429.061472
 20
407.051293
 30
0.0
 11
429.061472
 21
425.501293
 31
0.0
  0
LINE
  5
C3
100
AcDbEntity
  8
0
  6
HIDDEN
 62
   174
100
AcDbLine
 10
685.561472
 20
330.197303
 30
0.0
 11
685.561472
 21
319.38901
 31
0.0
  0
LINE
  5
C4
100
AcDbEntity
  8
0
  6
Continuous
 62
   174
100
AcDbLine
 10
658.386698
 20
433.151293
 30
0.0
 11
657.555383
 21
433.151293
 31
0.0
  0
LINE
  5
C5
100
AcDbEntity
  8
0
  6
Continuous
 62
   174
100
AcDbLine
 10
451.240793
 20
437.651293
 30
0.0
 11
438.034802
 21
437.651293
 31
0.0
  0
LINE
  5
C6
100
AcDbEntity
  8
0
  6
HIDDEN
 62
   174
100
AcDbLine
 10
188.311472
 20
406.009943
 30
0.0
 11
188.311472
 21
385.761237
 31
0.0
  0
ARC
  5
C7
100
AcDbEntity
  8
0
  6
Continuous
 62
   174
100
AcDbCircle
 10
181.561472
 20
387.926293
 30
0.0
 40
2.25
100
AcDbArc
 50
225.0
 51
270.0
  0
LINE
  5
C8
100
AcDbEntity
  8
0
  6
HIDDEN
 62
   174
100
AcDbLine
 10
368.66094
 20
308.051293
 30
0.0
 11
366.332417
 21
308.051293
 31
0.0
  0
LINE
  5
C9
100
AcDbEntity
  8
0
  6
HIDDEN
 62
   174
100
AcDbLine
 10
397.537391
 20
407.051293
 30
0.0
 11
406.536883
 21
407.051293
 31
0.0
  0
LINE
  5
CA
100
AcDbEntity
  8
0
  6
Continuous
 62
   174
100
AcDbLine
 10
236.911472
 20
425.051293
 30
0.0
 11
236.911472
 21
473.201293
 31
0.0
  0
LINE
  5
CB
100
AcDbEntity
  8
0
  6
Continuous
 62
   174
100
AcDbLine
 10
393.061472
 20
425.501293
 30
0.0
 11
393.061472
 21
430.901293
 31
0.0
  0
LINE
  5
CC
100
AcDbEntity
  8
0
  6
HIDDEN
 62
   174
100
AcDbLine
 10
210.361472
 20
439.901293
 30
0.0
 11
210.361472
 21
462.401293
 31
0.0
  0
LINE
  5
CD
100
AcDbEntity
  8
0
  6
HIDDEN
 62
   174
100
AcDbLine
 10
181.561472
 20
329.513964
 30
0.0
 11
181.561472
 21
309.264657
 31
0.0
  0
LINE
  5
CE
100
AcDbEntity
  8
0
  6
HIDDEN
 62
   174
100
AcDbLine
 10
685.561472
 20
395.88559
 30
0.0
 11
685.561472
 21
385.080907
 31
0.0
  0
LINE
  5
CF
100
AcDbEntity
  8
0
  6
HIDDEN
 62
   174
100
AcDbLine
 10
490.583266
 20
407.051293
 30
0.0
 11
492.256122
 21
407.051293
 31
0.0
  0
LINE
  5
D0
100
AcDbEntity
  8
0
  6
HIDDEN
 62
   174
100
AcDbLine
 10
657.555383
 20
433.151293
 30
0.0
 11
649.521348
 21
433.151293
 31
0.0
  0
LINE
  5
D1
100
AcDbEntity
  8
0
  6
Continuous
 62
   174
100
AcDbLine
 10
447.061472
 20
425.501293
 30
0.0
 11
447.061472
 21
430.901293
 31
0.0
  0
LINE
  5
D2
100
AcDbEntity
  8
0
  6
HIDDEN
 62
   174
100
AcDbLine
 10
450.426322
 20
425.501293
 30
0.0
 11
447.034294
 21
425.501293
 31
0.0
  0
ARC
  5
D3
100
AcDbEntity
  8
0
  6
Continuous
 62
   174
100
AcDbCircle
 10
477.21643
 20
310.301293
 30
0.0
 40
3.15
100
AcDbArc
 50
225.0
 51
270.0
  0
LINE
  5
D4
100
AcDbEntity
  8
0
  6
Continuous
 62
   174
100
AcDbLine
 10
477.69368
 20
307.151293
 30
0.0
 11
477.187192
 21
307.151293
 31
0.0
  0
LINE
  5
D5
100
AcDbEntity
  8
0
  6
HIDDEN
 62
   174
100
AcDbLine
 10
420.061472
 20
308.051293
 30
0.0
 11
420.061472
 21
313.451293
 31
0.0
  0
ARC
  5
D6
100
AcDbEntity
  8
0
  6
Continuous
 62
   174
100
AcDbCircle
 10
181.561472
 20
387.926293
 30
0.0
 40
2.25
100
AcDbArc
 50
225.0
 51
270.0
  0
LINE
  5
D7
100
AcDbEntity
  8
0
  6
HIDDEN
 62
   174
100
AcDbLine
 10
224.761472
 20
439.901293
 30
0.0
 11
224.761472
 21
462.401293
 31
0.0
  0
LINE
  5
D8
100
AcDbEntity
  8
0
  6
HIDDEN
 62
   174
100
AcDbLine
 10
687.811472
 20
388.01096
 30
0.0
 11
687.811472
 21
403.76022
 31
0.0
  0
LINE
  5
D9
100
AcDbEntity
  8
0
  6
HIDDEN
 62
   174
100
AcDbLine
 10
685.561472
 20
330.551293
 30
0.0
 11
678.811472
 21
330.551293
 31
0.0
  0
LINE
  5
DA
100
AcDbEntity
  8
0
  6
HIDDEN
 62
   174
100
AcDbLine
 10
550.561472
 20
407.051293
 30
0.0
 11
550.561472
 21
406.601293
 31
0.0
  0
LINE
  5
DB
100
AcDbEntity
  8
0
  6
HIDDEN
 62
   174
100
AcDbLine
 10
396.429975
 20
425.501293
 30
0.0
 11
393.037345
 21
425.501293
 31
0.0
  0
LINE
  5
DC
100
AcDbEntity
  8
0
  6
HIDDEN
 62
   174
100
AcDbLine
 10
406.536883
 20
425.501293
 30
0.0
 11
396.429975
 21
425.501293
 31
0.0
  0
LINE
  5
DD
100
AcDbEntity
  8
0
  6
HIDDEN
 62
   174
100
AcDbLine
 10
443.378194
 20
313.459345
 30
0.0
 11
433.535357
 21
313.459345
 31
0.0
  0
ARC
  5
DE
100
AcDbEntity
  8
0
  6
HIDDEN
 62
   174
100
AcDbCircle
 10
497.91643
 20
310.301293
 30
0.0
 40
3.15
100
AcDbArc
 50
-270.0
 51
-180.0
  0
ARC
  5
DF
100
AcDbEntity
  8
0
  6
HIDDEN
 62
   174
100
AcDbCircle
 10
181.561472
 20
387.926293
 30
0.0
 40
2.25
100
AcDbArc
 50
180.0
 51
225.0
  0
LINE
  5
E0
100
AcDbEntity
  8
0
  6
HIDDEN
 62
   174
100
AcDbLine
 10
181.561472
 20
385.676293
 30
0.0
 11
188.311472
 21
385.676293
 31
0.0
  0
LINE
  5
E1
100
AcDbEntity
  8
0
  6
HIDDEN
 62
   174
100
AcDbLine
 10
181.561472
 20
309.176293
 30
0.0
 11
181.561472
 21
319.301293
 31
0.0
  0
LINE
  5
E2
100
AcDbEntity
  8
0
  6
HIDDEN
 62
   174
100
AcDbLine
 10
481.25534
 20
308.051293
 30
0.0
 11
474.032768
 21
308.051293
 31
0.0
  0
LINE
  5
E3
100
AcDbEntity
  8
0
  6
HIDDEN
 62
   174
100
AcDbLine
 10
685.561472
 20
319.301293
 30
0.0
 11
678.811472
 21
319.301293
 31
0.0
  0
LINE
  5
E4
100
AcDbEntity
  8
0
  6
Continuous
 62
   174
100
AcDbLine
 10
483.031658
 20
425.501293
 30
0.0
 11
474.148262
 21
425.501293
 31
0.0
  0
LINE
  5
E5
100
AcDbEntity
  8
0
  6
HIDDEN
 62
   174
100
AcDbLine
 10
181.561472
 20
319.301293
 30
0.0
 11
188.311472
 21
319.301293
 31
0.0
  0
LINE
  5
E6
100
AcDbEntity
  8
0
  6
HIDDEN
 62
   174
100
AcDbLine
 10
426.217142
 20
313.459345
 30
0.0
 11
423.187837
 21
313.459345
 31
0.0
  0
LINE
  5
E7
100
AcDbEntity
  8
0
  6
HIDDEN
 62
   174
100
AcDbLine
 10
426.217142
 20
313.459345
 30
0.0
 11
423.692521
 21
313.459345
 31
0.0
  0
LINE
  5
E8
100
AcDbEntity
  8
0
  6
HIDDEN
 62
   174
100
AcDbLine
 10
685.561472
 20
407.051293
 30
0.0
 11
678.811472
 21
407.051293
 31
0.0
  0
LINE
  5
E9
100
AcDbEntity
  8
0
  6
HIDDEN
 62
   174
100
AcDbLine
 10
429.035311
 20
407.051293
 30
0.0
 11
415.609159
 21
407.051293
 31
0.0
  0
LINE
  5
EA
100
AcDbEntity
  8
0
  6
HIDDEN
 62
   174
100
AcDbLine
 10
433.535357
 20
313.459345
 30
0.0
 11
426.676711
 21
313.459345
 31
0.0
  0
ARC
  5
EB
100
AcDbEntity
  8
0
  6
HIDDEN
 62
   174
100
AcDbCircle
 10
443.911858
 20
310.309345
 30
0.0
 40
3.15
100
AcDbArc
 50
-45.0
 51
0.0
  0
LINE
  5
EC
100
AcDbEntity
  8
0
  6
HIDDEN
 62
   174
100
AcDbLine
 10
494.311472
 20
313.451293
 30
0.0
 11
494.311472
 21
330.551293
 31
0.0
  0
ARC
  5
ED
100
AcDbEntity
  8
0
  6
HIDDEN
 62
   174
100
AcDbCircle
 10
181.561472
 20
403.676293
 30
0.0
 40
2.25
100
AcDbArc
 50
-270.0
 51
-180.0
  0
LINE
  5
EE
100
AcDbEntity
  8
0
  6
HIDDEN
 62
   174
100
AcDbLine
 10
685.561472
 20
385.761237
 30
0.0
 11
685.561472
 21
406.009943
 31
0.0
  0
LINE
  5
EF
100
AcDbEntity
  8
0
  6
HIDDEN
 62
   174
100
AcDbLine
 10
423.469353
 20
308.051293
 30
0.0
 11
422.653678
 21
308.051293
 31
0.0
  0
LINE
  5
F0
100
AcDbEntity
  8
0
  6
HIDDEN
 62
   174
100
AcDbLine
 10
460.53323
 20
407.051293
 30
0.0
 11
451.460352
 21
407.051293
 31
0.0
  0
LINE
  5
F1
100
AcDbEntity
  8
0
  6
Continuous
 62
   174
100
AcDbLine
 10
429.035311
 20
425.501293
 30
0.0
 11
420.151313
 21
425.501293
 31
0.0
  0
LINE
  5
F2
100
AcDbEntity
  8
0
  6
Continuous
 62
   174
100
AcDbLine
 10
228.797378
 20
433.151293
 30
0.0
 11
226.412913
 21
433.151293
 31
0.0
  0
LINE
  5
F3
100
AcDbEntity
  8
0
  6
HIDDEN
 62
   174
100
AcDbLine
 10
649.521348
 20
425.051293
 30
0.0
 11
638.272134
 21
425.051293
 31
0.0
  0
LINE
  5
F4
100
AcDbEntity
  8
0
  6
Continuous
 62
   174
100
AcDbLine
 10
181.561472
 20
405.926293
 30
0.0
 11
188.311472
 21
405.926293
 31
0.0
  0
LINE
  5
F5
100
AcDbEntity
  8
0
  6
Continuous
 62
   174
100
AcDbLine
 10
484.480142
 20
407.051293
 30
0.0
 11
490.583266
 21
407.051293
 31
0.0
  0
LINE
  5
F6
100
AcDbEntity
  8
0
  6
Continuous
 62
   174
100
AcDbLine
 10
641.487913
 20
433.151293
 30
0.0
 11
640.656599
 21
433.151293
 31
0.0
  0
LINE
  5
F7
100
AcDbEntity
  8
0
  6
HIDDEN
 62
   174
100
AcDbLine
 10
550.527543
 20
406.601293
 30
0.0
 11
532.529162
 21
406.601293
 31
0.0
  0
LINE
  5
F8
100
AcDbEntity
  8
0
  6
HIDDEN
 62
   174
100
AcDbLine
 10
389.384253
 20
313.456675
 30
0.0
 11
379.541416
 21
313.456675
 31
0.0
  0
LINE
  5
F9
100
AcDbEntity
  8
0
  6
HIDDEN
 62
   174
100
AcDbLine
 10
372.78864
 20
313.451293
 30
0.0
 11
386.287576
 21
313.451293
 31
0.0
  0
ARC
  5
FA
100
AcDbEntity
  8
0
  6
HIDDEN
 62
   174
100
AcDbCircle
 10
685.561472
 20
403.676293
 30
0.0
 40
2.25
100
AcDbArc
 50
0.0
 51
90.0
  0
ARC
  5
FB
100
AcDbEntity
  8
0
  6
Continuous
 62
   174
100
AcDbCircle
 10
181.561472
 20
327.176293
 30
0.0
 40
2.25
100
AcDbArc
 50
-270.0
 51
-180.0
  0
LINE
  5
FC
100
AcDbEntity
  8
0
  6
Continuous
 62
   174
100
AcDbLine
 10
685.561472
 20
385.676293
 30
0.0
 11
678.811472
 21
385.676293
 31
0.0
  0
LINE
  5
FD
100
AcDbEntity
  8
0
  6
HIDDEN
 62
   174
100
AcDbLine
 10
426.811472
 20
313.451293
 30
0.0
 11
426.811472
 21
330.551293
 31
0.0
  0
LINE
  5
FE
100
AcDbEntity
  8
0
  6
HIDDEN
 62
   174
100
AcDbLine
 10
685.561472
 20
406.693882
 30
0.0
 11
685.561472
 21
395.88559
 31
0.0
  0
LINE
  5
FF
100
AcDbEntity
  8
0
  6
Continuous
 62
   174
100
AcDbLine
 10
343.561472
 20
308.051293
 30
0.0
 11
523.561472
 21
308.051293
 31
0.0
  0
LINE
  5
100
100
AcDbEntity
  8
0
  6
HIDDEN
 62
   174
100
AcDbLine
 10
447.061472
 20
308.051293
 30
0.0
 11
447.061472
 21
313.451293
 31
0.0
  0
LINE
  5
101
100
AcDbEntity
  8
0
  6
HIDDEN
 62
   174
100
AcDbLine
 10
233.311472
 20
459.476293
 30
0.0
 11
236.911472
 21
459.476293
 31
0.0
  0
LINE
  5
102
100
AcDbEntity
  8
0
  6
HIDDEN
 62
   174
100
AcDbLine
 10
426.785588
 20
330.551293
 30
0.0
 11
440.284525
 21
330.551293
 31
0.0
  0
LINE
  5
103
100
AcDbEntity
  8
0
  6
Continuous
 62
   174
100
AcDbLine
 10
483.061472
 20
407.051293
 30
0.0
 11
483.061472
 21
425.501293
 31
0.0
  0
LINE
  5
104
100
AcDbEntity
  8
0
  6
HIDDEN
 62
   174
100
AcDbLine
 10
366.332417
 20
308.051293
 30
0.0
 11
366.038871
 21
308.051293
 31
0.0
  0
LINE
  5
105
100
AcDbEntity
  8
0
  6
HIDDEN
 62
   174
100
AcDbLine
 10
188.311472
 20
395.88559
 30
0.0
 11
188.311472
 21
384.636376
 31
0.0
  0
LINE
  5
106
100
AcDbEntity
  8
0
  6
HIDDEN
 62
   174
100
AcDbLine
 10
460.53323
 20
425.501293
 30
0.0
 11
456.241915
 21
425.501293
 31
0.0
  0
ARC
  5
107
100
AcDbEntity
  8
0
  6
Continuous
 62
   174
100
AcDbCircle
 10
181.561472
 20
387.926293
 30
0.0
 40
2.25
100
AcDbArc
 50
180.0
 51
225.0
  0
ARC
  5
108
100
AcDbEntity
  8
0
  6
Continuous
 62
   174
100
AcDbCircle
 10
685.561472
 20
327.176293
 30
0.0
 40
2.25
100
AcDbArc
 50
0.0
 51
90.0
  0
LINE
  5
109
100
AcDbEntity
  8
0
  6
HIDDEN
 62
   174
100
AcDbLine
 10
440.311472
 20
313.451293
 30
0.0
 11
440.311472
 21
330.551293
 31
0.0
  0
LINE
  5
10A
100
AcDbEntity
  8
0
  6
HIDDEN
 62
   174
100
AcDbLine
 10
447.034294
 20
308.051293
 30
0.0
 11
446.738942
 21
308.051293
 31
0.0
  0
LINE
  5
10B
100
AcDbEntity
  8
0
  6
HIDDEN
 62
   174
100
AcDbLine
 10
492.256122
 20
407.051293
 30
0.0
 11
496.98114
 21
407.051293
 31
0.0
  0
LINE
  5
10C
100
AcDbEntity
  8
0
  6
Continuous
 62
   174
100
AcDbLine
 10
660.771163
 20
433.151293
 30
0.0
 11
658.386698
 21
433.151293
 31
0.0
  0
LINE
  5
10D
100
AcDbEntity
  8
0
  6
Continuous
 62
   174
100
AcDbLine
 10
233.311472
 20
425.051293
 30
0.0
 11
233.311472
 21
473.201293
 31
0.0
  0
LINE
  5
10E
100
AcDbEntity
  8
0
  6
Continuous
 62
   174
100
AcDbLine
 10
429.061472
 20
430.901293
 30
0.0
 11
429.061472
 21
437.651293
 31
0.0
  0
LINE
  5
10F
100
AcDbEntity
  8
0
  6
Continuous
 62
   174
100
AcDbLine
 10
415.828718
 20
437.651293
 30
0.0
 11
397.244446
 21
437.651293
 31
0.0
  0
LINE
  5
110
100
AcDbEntity
  8
0
  6
Continuous
 62
   174
100
AcDbLine
 10
443.378194
 20
307.159345
 30
0.0
 11
433.535357
 21
307.159345
 31
0.0
  0
ARC
  5
111
100
AcDbEntity
  8
0
  6
Continuous
 62
   174
100
AcDbCircle
 10
181.561472
 20
387.926293
 30
0.0
 40
2.25
100
AcDbArc
 50
180.0
 51
225.0
  0
ARC
  5
112
100
AcDbEntity
  8
0
  6
HIDDEN
 62
   174
100
AcDbCircle
 10
685.561472
 20
403.676293
 30
0.0
 40
2.25
100
AcDbArc
 50
0.0
 51
90.0
  0
LINE
  5
113
100
AcDbEntity
  8
0
  6
Continuous
 62
   174
100
AcDbLine
 10
483.061472
 20
430.901293
 30
0.0
 11
483.061472
 21
437.651293
 31
0.0
  0
LINE
  5
114
100
AcDbEntity
  8
0
  6
HIDDEN
 62
   174
100
AcDbLine
 10
630.211472
 20
425.051293
 30
0.0
 11
633.811472
 21
425.051293
 31
0.0
  0
ARC
  5
115
100
AcDbEntity
  8
0
  6
HIDDEN
 62
   174
100
AcDbCircle
 10
443.911858
 20
310.309345
 30
0.0
 40
3.15
100
AcDbArc
 50
-270.0
 51
-180.0
  0
LINE
  5
116
100
AcDbEntity
  8
0
  6
Continuous
 62
   174
100
AcDbLine
 10
481.453243
 20
307.151293
 30
0.0
 11
477.187192
 21
307.151293
 31
0.0
  0
ARC
  5
117
100
AcDbEntity
  8
0
  6
HIDDEN
 62
   174
100
AcDbCircle
 10
497.91643
 20
310.301293
 30
0.0
 40
3.15
100
AcDbArc
 50
-45.0
 51
0.0
  0
LINE
  5
118
100
AcDbEntity
  8
0
  6
HIDDEN
 62
   174
100
AcDbLine
 10
393.061472
 20
308.051293
 30
0.0
 11
393.061472
 21
313.451293
 31
0.0
  0
LINE
  5
119
100
AcDbEntity
  8
0
  6
HIDDEN
 62
   174
100
AcDbLine
 10
224.761472
 20
433.151293
 30
0.0
 11
224.761472
 21
439.901293
 31
0.0
  0
LINE
  5
11A
100
AcDbEntity
  8
0
  6
HIDDEN
 62
   174
100
AcDbLine
 10
393.037345
 20
308.051293
 30
0.0
 11
392.747407
 21
308.051293
 31
0.0
  0
LINE
  5
11B
100
AcDbEntity
  8
0
  6
HIDDEN
 62
   174
100
AcDbLine
 10
532.561472
 20
407.051293
 30
0.0
 11
532.561472
 21
406.601293
 31
0.0
  0
LINE
  5
11C
100
AcDbEntity
  8
0
  6
Continuous
 62
   174
100
AcDbLine
 10
438.061472
 20
430.901293
 30
0.0
 11
438.061472
 21
437.651293
 31
0.0
  0
LINE
  5
11D
100
AcDbEntity
  8
0
  6
HIDDEN
 62
   174
100
AcDbLine
 10
633.811472
 20
459.476293
 30
0.0
 11
630.211472
 21
459.476293
 31
0.0
  0
LINE
  5
11E
100
AcDbEntity
  8
0
  6
HIDDEN
 62
   174
100
AcDbLine
 10
181.561472
 20
405.926293
 30
0.0
 11
188.311472
 21
405.926293
 31
0.0
  0
LINE
  5
11F
100
AcDbEntity
  8
0
  6
HIDDEN
 62
   174
100
AcDbLine
 10
406.536883
 20
407.051293
 30
0.0
 11
415.536374
 21
407.051293
 31
0.0
  0
LINE
  5
120
100
AcDbEntity
  8
0
  6
HIDDEN
 62
   174
100
AcDbLine
 10
181.561472
 20
407.051293
 30
0.0
 11
188.311472
 21
407.051293
 31
0.0
  0
LINE
  5
121
100
AcDbEntity
  8
0
  6
HIDDEN
 62
   174
100
AcDbLine
 10
660.771163
 20
425.051293
 30
0.0
 11
649.521348
 21
425.051293
 31
0.0
  0
LINE
  5
122
100
AcDbEntity
  8
0
  6
HIDDEN
 62
   174
100
AcDbLine
 10
393.037345
 20
430.901293
 30
0.0
 11
420.035819
 21
430.901293
 31
0.0
  0
ARC
  5
123
100
AcDbEntity
  8
0
  6
HIDDEN
 62
   174
100
AcDbCircle
 10
477.21643
 20
310.301293
 30
0.0
 40
3.15
100
AcDbArc
 50
-90.0
 51
0.0
  0
LINE
  5
124
100
AcDbEntity
  8
0
  6
HIDDEN
 62
   174
100
AcDbLine
 10
685.561472
 20
407.051293
 30
0.0
 11
678.811472
 21
407.051293
 31
0.0
  0
LINE
  5
125
100
AcDbEntity
  8
0
  6
HIDDEN
 62
   174
100
AcDbLine
 10
181.561472
 20
407.051293
 30
0.0
 11
188.311472
 21
407.051293
 31
0.0
  0
LINE
  5
126
100
AcDbEntity
  8
0
  6
HIDDEN
 62
   174
100
AcDbLine
 10
179.311472
 20
403.76022
 30
0.0
 11
179.311472
 21
388.01096
 31
0.0
  0
LINE
  5
127
100
AcDbEntity
  8
0
  6
HIDDEN
 62
   174
100
AcDbLine
 10
422.653678
 20
308.051293
 30
0.0
 11
420.331171
 21
308.051293
 31
0.0
  0
LINE
  5
128
100
AcDbEntity
  8
0
  6
HIDDEN
 62
   174
100
AcDbLine
 10
451.533739
 20
407.051293
 30
0.0
 11
460.53323
 21
407.051293
 31
0.0
  0
LINE
  5
129
100
AcDbEntity
  8
0
  6
Continuous
 62
   174
100
AcDbLine
 10
469.825667
 20
437.651293
 30
0.0
 11
451.240793
 21
437.651293
 31
0.0
  0
LINE
  5
12A
100
AcDbEntity
  8
0
  6
HIDDEN
 62
   174
100
AcDbLine
 10
633.811472
 20
465.407428
 30
0.0
 11
633.811472
 21
459.557548
 31
0.0
  0
LINE
  5
12B
100
AcDbEntity
  8
0
  6
HIDDEN
 62
   174
100
AcDbLine
 10
316.561472
 20
407.051293
 30
0.0
 11
316.561472
 21
406.601293
 31
0.0
  0
ARC
  5
12C
100
AcDbEntity
  8
0
  6
HIDDEN
 62
   174
100
AcDbCircle
 10
181.561472
 20
311.426293
 30
0.0
 40
2.25
100
AcDbArc
 50
180.0
 51
225.0
  0
ARC
  5
12D
100
AcDbEntity
  8
0
  6
Continuous
 62
   174
100
AcDbCircle
 10
685.561472
 20
403.676293
 30
0.0
 40
2.25
100
AcDbArc
 50
0.0
 51
90.0
  0
LINE
  5
12E
100
AcDbEntity
  8
0
  6
Continuous
 62
   174
100
AcDbLine
 10
638.311472
 20
425.051293
 30
0.0
 11
638.311472
 21
433.151293
 31
0.0
  0
LINE
  5
12F
100
AcDbEntity
  8
0
  6
Continuous
 62
   174
100
AcDbLine
 10
181.561472
 20
385.676293
 30
0.0
 11
188.311472
 21
385.676293
 31
0.0
  0
LINE
  5
130
100
AcDbEntity
  8
0
  6
HIDDEN
 62
   174
100
AcDbLine
 10
687.811472
 20
388.01096
 30
0.0
 11
687.811472
 21
403.76022
 31
0.0
  0
LINE
  5
131
100
AcDbEntity
  8
0
  6
HIDDEN
 62
   174
100
AcDbLine
 10
480.218302
 20
313.451293
 30
0.0
 11
477.69368
 21
313.451293
 31
0.0
  0
LINE
  5
132
100
AcDbEntity
  8
0
  6
Continuous
 62
   174
100
AcDbLine
 10
343.561472
 20
308.051293
 30
0.0
 11
343.561472
 21
407.051293
 31
0.0
  0
LINE
  5
133
100
AcDbEntity
  8
0
  6
Continuous
 62
   174
100
AcDbLine
 10
685.561472
 20
405.926293
 30
0.0
 11
678.811472
 21
405.926293
 31
0.0
  0
LINE
  5
134
100
AcDbEntity
  8
0
  6
HIDDEN
 62
   174
100
AcDbLine
 10
685.561472
 20
405.926293
 30
0.0
 11
678.811472
 21
405.926293
 31
0.0
  0
LINE
  5
135
100
AcDbEntity
  8
0
  6
HIDDEN
 62
   174
100
AcDbLine
 10
642.361472
 20
439.901293
 30
0.0
 11
642.361472
 21
462.401293
 31
0.0
  0
LINE
  5
136
100
AcDbEntity
  8
0
  6
HIDDEN
 62
   174
100
AcDbLine
 10
188.311472
 20
330.638826
 30
0.0
 11
188.311472
 21
319.38901
 31
0.0
  0
LINE
  5
137
100
AcDbEntity
  8
0
  6
HIDDEN
 62
   174
100
AcDbLine
 10
497.011472
 20
407.051293
 30
0.0
 11
497.011472
 21
401.651293
 31
0.0
  0
LINE
  5
138
100
AcDbEntity
  8
0
  6
HIDDEN
 62
   174
100
AcDbLine
 10
456.241915
 20
425.501293
 30
0.0
 11
455.836483
 21
425.501293
 31
0.0
  0
LINE
  5
139
100
AcDbEntity
  8
0
  6
Continuous
 62
   174
100
AcDbLine
 10
685.561472
 20
309.176293
 30
0.0
 11
678.811472
 21
309.176293
 31
0.0
  0
LINE
  5
13A
100
AcDbEntity
  8
0
  6
HIDDEN
 62
   174
100
AcDbLine
 10
440.311472
 20
313.451293
 30
0.0
 11
440.311472
 21
330.551293
 31
0.0
  0
LINE
  5
13B
100
AcDbEntity
  8
0
  6
Continuous
 62
   174
100
AcDbLine
 10
642.361472
 20
462.401293
 30
0.0
 11
656.761472
 21
462.401293
 31
0.0
  0
LINE
  5
13C
100
AcDbEntity
  8
0
  6
HIDDEN
 62
   174
100
AcDbLine
 10
460.53323
 20
425.501293
 30
0.0
 11
450.426322
 21
425.501293
 31
0.0
  0
LINE
  5
13D
100
AcDbEntity
  8
0
  6
Continuous
 62
   174
100
AcDbLine
 10
443.884682
 20
307.159345
 30
0.0
 11
443.378194
 21
307.159345
 31
0.0
  0
LINE
  5
13E
100
AcDbEntity
  8
0
  6
HIDDEN
 62
   174
100
AcDbLine
 10
678.811472
 20
385.761237
 30
0.0
 11
678.811472
 21
406.009943
 31
0.0
  0
ARC
  5
13F
100
AcDbEntity
  8
0
  6
Continuous
 62
   174
100
AcDbCircle
 10
181.561472
 20
403.676293
 30
0.0
 40
2.25
100
AcDbArc
 50
-270.0
 51
-180.0
  0
ARC
  5
140
100
AcDbEntity
  8
0
  6
Continuous
 62
   174
100
AcDbCircle
 10
685.561472
 20
311.426293
 30
0.0
 40
2.25
100
AcDbArc
 50
-90.0
 51
0.0
  0
LINE
  5
141
100
AcDbEntity
  8
0
  6
Continuous
 62
   174
100
AcDbLine
 10
446.9188
 20
425.501293
 30
0.0
 11
438.034802
 21
425.501293
 31
0.0
  0
LINE
  5
142
100
AcDbEntity
  8
0
  6
Continuous
 62
   174
100
AcDbLine
 10
210.361472
 20
462.401293
 30
0.0
 11
224.761472
 21
462.401293
 31
0.0
  0
LINE
  5
143
100
AcDbEntity
  8
0
  6
Continuous
 62
   174
100
AcDbLine
 10
384.061472
 20
430.901293
 30
0.0
 11
384.061472
 21
437.651293
 31
0.0
  0
LINE
  5
144
100
AcDbEntity
  8
0
  6
HIDDEN
 62
   174
100
AcDbLine
 10
447.034294
 20
430.901293
 30
0.0
 11
474.032768
 21
430.901293
 31
0.0
  0
LINE
  5
145
100
AcDbEntity
  8
0
  6
Continuous
 62
   174
100
AcDbLine
 10
391.771124
 20
430.901293
 30
0.0
 11
384.037853
 21
430.901293
 31
0.0
  0
ARC
  5
146
100
AcDbEntity
  8
0
  6
HIDDEN
 62
   174
100
AcDbCircle
 10
423.211858
 20
310.309345
 30
0.0
 40
3.15
100
AcDbArc
 50
90.0
 51
180.0
  0
LINE
  5
147
100
AcDbEntity
  8
0
  6
Continuous
 62
   174
100
AcDbLine
 10
343.561472
 20
407.051293
 30
0.0
 11
343.561472
 21
308.051293
 31
0.0
  0
LINE
  5
148
100
AcDbEntity
  8
0
  6
HIDDEN
 62
   174
100
AcDbLine
 10
188.311472
 20
406.009943
 30
0.0
 11
188.311472
 21
385.761237
 31
0.0
  0
ARC
  5
149
100
AcDbEntity
  8
0
  6
HIDDEN
 62
   174
100
AcDbCircle
 10
181.561472
 20
311.426293
 30
0.0
 40
2.25
100
AcDbArc
 50
180.0
 51
225.0
  0
LINE
  5
14A
100
AcDbEntity
  8
0
  6
HIDDEN
 62
   174
100
AcDbLine
 10
480.811472
 20
313.451293
 30
0.0
 11
480.811472
 21
330.551293
 31
0.0
  0
LINE
  5
14B
100
AcDbEntity
  8
0
  6
Continuous
 62
   174
100
AcDbLine
 10
206.311472
 20
425.051293
 30
0.0
 11
206.311472
 21
433.151293
 31
0.0
  0
LINE
  5
14C
100
AcDbEntity
  8
0
  6
HIDDEN
 62
   174
100
AcDbLine
 10
392.747407
 20
308.051293
 30
0.0
 11
390.424298
 21
308.051293
 31
0.0
  0
LINE
  5
14D
100
AcDbEntity
  8
0
  6
HIDDEN
 62
   174
100
AcDbLine
 10
642.361472
 20
425.051293
 30
0.0
 11
642.361472
 21
433.151293
 31
0.0
  0
LINE
  5
14E
100
AcDbEntity
  8
0
  6
HIDDEN
 62
   174
100
AcDbLine
 10
478.111472
 20
407.051293
 30
0.0
 11
478.111472
 21
401.651293
 31
0.0
  0
LINE
  5
14F
100
AcDbEntity
  8
0
  6
Continuous
 62
   174
100
AcDbLine
 10
438.061472
 20
430.901293
 30
0.0
 11
438.061472
 21
437.651293
 31
0.0
  0
LINE
  5
150
100
AcDbEntity
  8
0
  6
Continuous
 62
   174
100
AcDbLine
 10
429.035311
 20
437.651293
 30
0.0
 11
415.828718
 21
437.651293
 31
0.0
  0
LINE
  5
151
100
AcDbEntity
  8
0
  6
HIDDEN
 62
   174
100
AcDbLine
 10
386.397054
 20
313.456675
 30
0.0
 11
379.541416
 21
313.456675
 31
0.0
  0
ARC
  5
152
100
AcDbEntity
  8
0
  6
HIDDEN
 62
   174
100
AcDbCircle
 10
423.211858
 20
310.309345
 30
0.0
 40
3.15
100
AcDbArc
 50
-90.0
 51
0.0
  0
LINE
  5
153
100
AcDbEntity
  8
0
  6
Continuous
 62
   174
100
AcDbLine
 10
493.610767
 20
307.151293
 30
0.0
 11
487.536517
 21
307.151293
 31
0.0
  0
LINE
  5
154
100
AcDbEntity
  8
0
  6
HIDDEN
 62
   174
100
AcDbLine
 10
366.061472
 20
308.051293
 30
0.0
 11
366.061472
 21
313.451293
 31
0.0
  0
ARC
  5
155
100
AcDbEntity
  8
0
  6
Continuous
 62
   174
100
AcDbCircle
 10
181.561472
 20
403.676293
 30
0.0
 40
2.25
100
AcDbArc
 50
-270.0
 51
-180.0
  0
ARC
  5
156
100
AcDbEntity
  8
0
  6
Continuous
 62
   174
100
AcDbCircle
 10
685.561472
 20
387.926293
 30
0.0
 40
2.25
100
AcDbArc
 50
-90.0
 51
0.0
  0
LINE
  5
157
100
AcDbEntity
  8
0
  6
HIDDEN
 62
   174
100
AcDbLine
 10
224.761472
 20
425.051293
 30
0.0
 11
224.761472
 21
433.151293
 31
0.0
  0
LINE
  5
158
100
AcDbEntity
  8
0
  6
Continuous
 62
   174
100
AcDbLine
 10
392.921851
 20
425.501293
 30
0.0
 11
384.037853
 21
425.501293
 31
0.0
  0
LINE
  5
159
100
AcDbEntity
  8
0
  6
HIDDEN
 62
   174
100
AcDbLine
 10
415.536374
 20
425.501293
 30
0.0
 11
411.23363
 21
425.501293
 31
0.0
  0
LINE
  5
15A
100
AcDbEntity
  8
0
  6
Continuous
 62
   174
100
AcDbLine
 10
474.061472
 20
425.501293
 30
0.0
 11
474.061472
 21
430.901293
 31
0.0
  0
LINE
  5
15B
100
AcDbEntity
  8
0
  6
HIDDEN
 62
   174
100
AcDbLine
 10
416.643791
 20
425.501293
 30
0.0
 11
406.536883
 21
425.501293
 31
0.0
  0
LINE
  5
15C
100
AcDbEntity
  8
0
  6
Continuous
 62
   174
100
AcDbLine
 10
487.536517
 20
307.151293
 30
0.0
 11
481.453243
 21
307.151293
 31
0.0
  0
ARC
  5
15D
100
AcDbEntity
  8
0
  6
HIDDEN
 62
   174
100
AcDbCircle
 10
181.561472
 20
387.926293
 30
0.0
 40
2.25
100
AcDbArc
 50
180.0
 51
270.0
  0
LINE
  5
15E
100
AcDbEntity
  8
0
  6
HIDDEN
 62
   174
100
AcDbLine
 10
633.811472
 20
465.326293
 30
0.0
 11
630.211472
 21
465.326293
 31
0.0
  0
LINE
  5
15F
100
AcDbEntity
  8
0
  6
HIDDEN
 62
   174
100
AcDbLine
 10
181.561472
 20
385.676293
 30
0.0
 11
188.311472
 21
385.676293
 31
0.0
  0
LINE
  5
160
100
AcDbEntity
  8
0
  6
HIDDEN
 62
   174
100
AcDbLine
 10
188.311472
 20
308.051293
 30
0.0
 11
188.311472
 21
319.301293
 31
0.0
  0
LINE
  5
161
100
AcDbEntity
  8
0
  6
HIDDEN
 62
   174
100
AcDbLine
 10
420.331171
 20
308.051293
 30
0.0
 11
420.035819
 21
308.051293
 31
0.0
  0
LINE
  5
162
100
AcDbEntity
  8
0
  6
HIDDEN
 62
   174
100
AcDbLine
 10
685.561472
 20
384.551293
 30
0.0
 11
678.811472
 21
384.551293
 31
0.0
  0
LINE
  5
163
100
AcDbEntity
  8
0
  6
HIDDEN
 62
   174
100
AcDbLine
 10
217.548164
 20
433.151293
 30
0.0
 11
209.514128
 21
433.151293
 31
0.0
  0
LINE
  5
164
100
AcDbEntity
  8
0
  6
HIDDEN
 62
   174
100
AcDbLine
 10
490.413033
 20
401.651293
 30
0.0
 11
496.98114
 21
401.651293
 31
0.0
  0
LINE
  5
165
100
AcDbEntity
  8
0
  6
HIDDEN
 62
   174
100
AcDbLine
 10
386.311472
 20
313.451293
 30
0.0
 11
386.311472
 21
330.551293
 31
0.0
  0
LINE
  5
166
100
AcDbEntity
  8
0
  6
HIDDEN
 62
   174
100
AcDbLine
 10
685.561472
 20
330.551293
 30
0.0
 11
678.811472
 21
330.551293
 31
0.0
  0
LINE
  5
167
100
AcDbEntity
  8
0
  6
HIDDEN
 62
   174
100
AcDbLine
 10
685.561472
 20
385.676293
 30
0.0
 11
678.811472
 21
385.676293
 31
0.0
  0
LINE
  5
168
100
AcDbEntity
  8
0
  6
HIDDEN
 62
   174
100
AcDbLine
 10
181.561472
 20
330.551293
 30
0.0
 11
188.311472
 21
330.551293
 31
0.0
  0
LINE
  5
169
100
AcDbEntity
  8
0
  6
HIDDEN
 62
   174
100
AcDbLine
 10
642.361472
 20
462.401293
 30
0.0
 11
656.761472
 21
462.401293
 31
0.0
  0
LINE
  5
16A
100
AcDbEntity
  8
0
  6
HIDDEN
 62
   174
100
AcDbLine
 10
316.541968
 20
407.051293
 30
0.0
 11
334.540951
 21
407.051293
 31
0.0
  0
ARC
  5
16B
100
AcDbEntity
  8
0
  6
HIDDEN
 62
   174
100
AcDbCircle
 10
685.561472
 20
387.926293
 30
0.0
 40
2.25
100
AcDbArc
 50
-90.0
 51
0.0
  0
LINE
  5
16C
100
AcDbEntity
  8
0
  6
HIDDEN
 62
   174
100
AcDbLine
 10
233.311472
 20
465.326293
 30
0.0
 11
236.911472
 21
465.326293
 31
0.0
  0
LINE
  5
16D
100
AcDbEntity
  8
0
  6
Continuous
 62
   174
100
AcDbLine
 10
179.311472
 20
327.26364
 30
0.0
 11
179.311472
 21
311.51438
 31
0.0
  0
LINE
  5
16E
100
AcDbEntity
  8
0
  6
HIDDEN
 62
   174
100
AcDbLine
 10
179.311472
 20
327.26364
 30
0.0
 11
179.311472
 21
311.51438
 31
0.0
  0
LINE
  5
16F
100
AcDbEntity
  8
0
  6
Continuous
 62
   174
100
AcDbLine
 10
685.561472
 20
319.38901
 30
0.0
 11
685.561472
 21
329.513964
 31
0.0
  0
LINE
  5
170
100
AcDbEntity
  8
0
  6
Continuous
 62
   174
100
AcDbLine
 10
483.031658
 20
437.651293
 30
0.0
 11
469.825667
 21
437.651293
 31
0.0
  0
LINE
  5
171
100
AcDbEntity
  8
0
  6
HIDDEN
 62
   174
100
AcDbLine
 10
420.061472
 20
308.051293
 30
0.0
 11
420.061472
 21
313.451293
 31
0.0
  0
LINE
  5
172
100
AcDbEntity
  8
0
  6
HIDDEN
 62
   174
100
AcDbLine
 10
678.811472
 20
319.38901
 30
0.0
 11
678.811472
 21
330.638826
 31
0.0
  0
LINE
  5
173
100
AcDbEntity
  8
0
  6
Continuous
 62
   174
100
AcDbLine
 10
685.561472
 20
330.638826
 30
0.0
 11
685.561472
 21
330.197303
 31
0.0
  0
LINE
  5
174
100
AcDbEntity
  8
0
  6
HIDDEN
 62
   174
100
AcDbLine
 10
455.836483
 20
425.501293
 30
0.0
 11
451.533739
 21
425.501293
 31
0.0
  0
LINE
  5
175
100
AcDbEntity
  8
0
  6
Continuous
 62
   174
100
AcDbLine
 10
233.311472
 20
473.201293
 30
0.0
 11
236.911472
 21
473.201293
 31
0.0
  0
LINE
  5
176
100
AcDbEntity
  8
0
  6
HIDDEN
 62
   174
100
AcDbLine
 10
487.536517
 20
313.451293
 30
0.0
 11
480.674262
 21
313.451293
 31
0.0
  0
LINE
  5
177
100
AcDbEntity
  8
0
  6
HIDDEN
 62
   174
100
AcDbLine
 10
497.884037
 20
313.451293
 30
0.0
 11
494.854732
 21
313.451293
 31
0.0
  0
LINE
  5
178
100
AcDbEntity
  8
0
  6
HIDDEN
 62
   174
100
AcDbLine
 10
366.061472
 20
308.051293
 30
0.0
 11
366.061472
 21
313.451293
 31
0.0
  0
LINE
  5
179
100
AcDbEntity
  8
0
  6
Continuous
 62
   174
100
AcDbLine
 10
181.561472
 20
309.176293
 30
0.0
 11
188.311472
 21
309.176293
 31
0.0
  0
LINE
  5
17A
100
AcDbEntity
  8
0
  6
Continuous
 62
   174
100
AcDbLine
 10
181.561472
 20
406.690273
 30
0.0
 11
181.561472
 21
407.135405
 31
0.0
  0
LINE
  5
17B
100
AcDbEntity
  8
0
  6
Continuous
 62
   174
100
AcDbLine
 10
443.884682
 20
307.159345
 30
0.0
 11
433.535357
 21
307.159345
 31
0.0
  0
ARC
  5
17C
100
AcDbEntity
  8
0
  6
HIDDEN
 62
   174
100
AcDbCircle
 10
423.211858
 20
310.309345
 30
0.0
 40
3.15
100
AcDbArc
 50
180.0
 51
225.0
  0
ARC
  5
17D
100
AcDbEntity
  8
0
  6
HIDDEN
 62
   174
100
AcDbCircle
 10
685.561472
 20
327.176293
 30
0.0
 40
2.25
100
AcDbArc
 50
0.0
 51
90.0
  0
LINE
  5
17E
100
AcDbEntity
  8
0
  6
Continuous
 62
   174
100
AcDbLine
 10
228.811472
 20
425.051293
 30
0.0
 11
228.811472
 21
433.151293
 31
0.0
  0
LINE
  5
17F
100
AcDbEntity
  8
0
  6
Continuous
 62
   174
100
AcDbLine
 10
685.561472
 20
329.426293
 30
0.0
 11
678.811472
 21
329.426293
 31
0.0
  0
LINE
  5
180
100
AcDbEntity
  8
0
  6
HIDDEN
 62
   174
100
AcDbLine
 10
687.811472
 20
311.51438
 30
0.0
 11
687.811472
 21
327.26364
 31
0.0
  0
LINE
  5
181
100
AcDbEntity
  8
0
  6
Continuous
 62
   174
100
AcDbLine
 10
633.811472
 20
425.051293
 30
0.0
 11
633.811472
 21
473.201293
 31
0.0
  0
ARC
  5
182
100
AcDbEntity
  8
0
  6
HIDDEN
 62
   174
100
AcDbCircle
 10
181.561472
 20
311.426293
 30
0.0
 40
2.25
100
AcDbArc
 50
225.0
 51
270.0
  0
ARC
  5
183
100
AcDbEntity
  8
0
  6
HIDDEN
 62
   174
100
AcDbCircle
 10
181.561472
 20
327.176293
 30
0.0
 40
2.25
100
AcDbArc
 50
-270.0
 51
-180.0
  0
LINE
  5
184
100
AcDbEntity
  8
0
  6
Continuous
 62
   174
100
AcDbLine
 10
656.761472
 20
425.051293
 30
0.0
 11
656.761472
 21
462.401293
 31
0.0
  0
LINE
  5
185
100
AcDbEntity
  8
0
  6
HIDDEN
 62
   174
100
AcDbLine
 10
685.561472
 20
309.264657
 30
0.0
 11
685.561472
 21
329.513964
 31
0.0
  0
LINE
  5
186
100
AcDbEntity
  8
0
  6
HIDDEN
 62
   174
100
AcDbLine
 10
426.785588
 20
313.451293
 30
0.0
 11
440.284525
 21
313.451293
 31
0.0
  0
LINE
  5
187
100
AcDbEntity
  8
0
  6
HIDDEN
 62
   174
100
AcDbLine
 10
390.424298
 20
308.051293
 30
0.0
 11
389.609225
 21
308.051293
 31
0.0
  0
LINE
  5
188
100
AcDbEntity
  8
0
  6
Continuous
 62
   174
100
AcDbLine
 10
420.061472
 20
425.501293
 30
0.0
 11
420.061472
 21
430.901293
 31
0.0
  0
LINE
  5
189
100
AcDbEntity
  8
0
  6
Continuous
 62
   174
100
AcDbLine
 10
181.561472
 20
395.88559
 30
0.0
 11
181.561472
 21
385.761237
 31
0.0
  0
LINE
  5
18A
100
AcDbEntity
  8
0
  6
HIDDEN
 62
   174
100
AcDbLine
 10
446.738942
 20
308.051293
 30
0.0
 11
444.417036
 21
308.051293
 31
0.0
  0
LINE
  5
18B
100
AcDbEntity
  8
0
  6
Continuous
 62
   174
100
AcDbLine
 10
451.460352
 20
425.501293
 30
0.0
 11
446.9188
 21
425.501293
 31
0.0
  0
LINE
  5
18C
100
AcDbEntity
  8
0
  6
HIDDEN
 62
   174
100
AcDbLine
 10
642.361472
 20
433.151293
 30
0.0
 11
642.361472
 21
439.901293
 31
0.0
  0
LINE
  5
18D
100
AcDbEntity
  8
0
  6
Continuous
 62
   174
100
AcDbLine
 10
490.442878
 20
401.651293
 30
0.0
 11
484.680066
 21
401.651293
 31
0.0
  0
LINE
  5
18E
100
AcDbEntity
  8
0
  6
HIDDEN
 62
   174
100
AcDbLine
 10
411.23363
 20
425.501293
 30
0.0
 11
410.828198
 21
425.501293
 31
0.0
  0
LINE
  5
18F
100
AcDbEntity
  8
0
  6
Continuous
 62
   174
100
AcDbLine
 10
474.061472
 20
425.501293
 30
0.0
 11
474.061472
 21
430.901293
 31
0.0
  0
LINE
  5
190
100
AcDbEntity
  8
0
  6
HIDDEN
 62
   174
100
AcDbLine
 10
389.888335
 20
313.456675
 30
0.0
 11
386.85903
 21
313.456675
 31
0.0
  0
LINE
  5
191
100
AcDbEntity
  8
0
  6
HIDDEN
 62
   174
100
AcDbLine
 10
443.882878
 20
313.459345
 30
0.0
 11
440.853572
 21
313.459345
 31
0.0
  0
LINE
  5
192
100
AcDbEntity
  8
0
  6
HIDDEN
 62
   174
100
AcDbLine
 10
474.061472
 20
308.051293
 30
0.0
 11
474.061472
 21
313.451293
 31
0.0
  0
LINE
  5
193
100
AcDbEntity
  8
0
  6
HIDDEN
 62
   174
100
AcDbLine
 10
210.361472
 20
433.151293
 30
0.0
 11
210.361472
 21
439.901293
 31
0.0
  0
LINE
  5
194
100
AcDbEntity
  8
0
  6
HIDDEN
 62
   174
100
AcDbLine
 10
181.561472
 20
319.38901
 30
0.0
 11
181.561472
 21
309.264657
 31
0.0
  0
LINE
  5
195
100
AcDbEntity
  8
0
  6
HIDDEN
 62
   174
100
AcDbLine
 10
181.561472
 20
406.009943
 30
0.0
 11
181.561472
 21
385.761237
 31
0.0
  0
LINE
  5
196
100
AcDbEntity
  8
0
  6
HIDDEN
 62
   174
100
AcDbLine
 10
501.030641
 20
308.051293
 30
0.0
 11
493.808069
 21
308.051293
 31
0.0
  0
LINE
  5
197
100
AcDbEntity
  8
0
  6
HIDDEN
 62
   174
100
AcDbLine
 10
460.53323
 20
407.051293
 30
0.0
 11
469.532722
 21
407.051293
 31
0.0
  0
LINE
  5
198
100
AcDbEntity
  8
0
  6
HIDDEN
 62
   174
100
AcDbLine
 10
181.561472
 20
395.88559
 30
0.0
 11
181.561472
 21
406.690273
 31
0.0
  0
LINE
  5
199
100
AcDbEntity
  8
0
  6
Continuous
 62
   174
100
AcDbLine
 10
447.061472
 20
425.501293
 30
0.0
 11
447.061472
 21
430.901293
 31
0.0
  0
LINE
  5
19A
100
AcDbEntity
  8
0
  6
HIDDEN
 62
   174
100
AcDbLine
 10
470.640138
 20
425.501293
 30
0.0
 11
460.53323
 21
425.501293
 31
0.0
  0
LINE
  5
19B
100
AcDbEntity
  8
0
  6
Continuous
 62
   174
100
AcDbLine
 10
497.379353
 20
307.151293
 30
0.0
 11
493.610767
 21
307.151293
 31
0.0
  0
ARC
  5
19C
100
AcDbEntity
  8
0
  6
HIDDEN
 62
   174
100
AcDbCircle
 10
477.21643
 20
310.301293
 30
0.0
 40
3.15
100
AcDbArc
 50
180.0
 51
225.0
  0
LINE
  5
19D
100
AcDbEntity
  8
0
  6
HIDDEN
 62
   174
100
AcDbLine
 10
480.811472
 20
313.451293
 30
0.0
 11
480.811472
 21
330.551293
 31
0.0
  0
LINE
  5
19E
100
AcDbEntity
  8
0
  6
HIDDEN
 62
   174
100
AcDbLine
 10
633.811472
 20
459.476293
 30
0.0
 11
630.211472
 21
459.476293
 31
0.0
  0
LINE
  5
19F
100
AcDbEntity
  8
0
  6
HIDDEN
 62
   174
100
AcDbLine
 10
233.311472
 20
465.326293
 30
0.0
 11
236.911472
 21
465.326293
 31
0.0
  0
LINE
  5
1A0
100
AcDbEntity
  8
0
  6
HIDDEN
 62
   174
100
AcDbLine
 10
181.561472
 20
405.926293
 30
0.0
 11
188.311472
 21
405.926293
 31
0.0
  0
LINE
  5
1A1
100
AcDbEntity
  8
0
  6
Continuous
 62
   174
100
AcDbLine
 10
687.811472
 20
388.01096
 30
0.0
 11
687.811472
 21
403.76022
 31
0.0
  0
LINE
  5
1A2
100
AcDbEntity
  8
0
  6
HIDDEN
 62
   174
100
AcDbLine
 10
181.561472
 20
319.301293
 30
0.0
 11
188.311472
 21
319.301293
 31
0.0
  0
LINE
  5
1A3
100
AcDbEntity
  8
0
  6
Continuous
 62
   174
100
AcDbLine
 10
484.680066
 20
407.051293
 30
0.0
 11
343.561472
 21
407.051293
 31
0.0
  0
LINE
  5
1A4
100
AcDbEntity
  8
0
  6
HIDDEN
 62
   174
100
AcDbLine
 10
532.529162
 20
407.051293
 30
0.0
 11
550.527543
 21
407.051293
 31
0.0
  0
ARC
  5
1A5
100
AcDbEntity
  8
0
  6
HIDDEN
 62
   174
100
AcDbCircle
 10
389.914335
 20
310.306675
 30
0.0
 40
3.15
100
AcDbArc
 50
0.0
 51
90.0
  0
ARC
  5
1A6
100
AcDbEntity
  8
0
  6
HIDDEN
 62
   174
100
AcDbCircle
 10
181.561472
 20
327.176293
 30
0.0
 40
2.25
100
AcDbArc
 50
-270.0
 51
-180.0
  0
LINE
  5
1A7
100
AcDbEntity
  8
0
  6
HIDDEN
 62
   174
100
AcDbLine
 10
685.561472
 20
384.551293
 30
0.0
 11
678.811472
 21
384.551293
 31
0.0
  0
LINE
  5
1A8
100
AcDbEntity
  8
0
  6
HIDDEN
 62
   174
100
AcDbLine
 10
181.561472
 20
407.051293
 30
0.0
 11
188.311472
 21
407.051293
 31
0.0
  0
LINE
  5
1A9
100
AcDbEntity
  8
0
  6
HIDDEN
 62
   174
100
AcDbLine
 10
685.561472
 20
405.926293
 30
0.0
 11
678.811472
 21
405.926293
 31
0.0
  0
LINE
  5
1AA
100
AcDbEntity
  8
0
  6
HIDDEN
 62
   174
100
AcDbLine
 10
685.561472
 20
319.38901
 30
0.0
 11
685.561472
 21
329.513964
 31
0.0
  0
LINE
  5
1AB
100
AcDbEntity
  8
0
  6
Continuous
 62
   174
100
AcDbLine
 10
687.811472
 20
311.51438
 30
0.0
 11
687.811472
 21
327.26364
 31
0.0
  0
LINE
  5
1AC
100
AcDbEntity
  8
0
  6
Continuous
 62
   174
100
AcDbLine
 10
685.561472
 20
309.264657
 30
0.0
 11
685.561472
 21
319.38901
 31
0.0
  0
LINE
  5
1AD
100
AcDbEntity
  8
0
  6
HIDDEN
 62
   174
100
AcDbLine
 10
420.035819
 20
313.451293
 30
0.0
 11
447.034294
 21
313.451293
 31
0.0
  0
LINE
  5
1AE
100
AcDbEntity
  8
0
  6
Continuous
 62
   174
100
AcDbLine
 10
397.464005
 20
425.501293
 30
0.0
 11
392.921851
 21
425.501293
 31
0.0
  0
LINE
  5
1AF
100
AcDbEntity
  8
0
  6
HIDDEN
 62
   174
100
AcDbLine
 10
642.361472
 20
425.051293
 30
0.0
 11
656.761472
 21
425.051293
 31
0.0
  0
ARC
  5
1B0
100
AcDbEntity
  8
0
  6
Continuous
 62
   174
100
AcDbCircle
 10
181.561472
 20
311.426293
 30
0.0
 40
2.25
100
AcDbArc
 50
225.0
 51
270.0
  0
LINE
  5
1B1
100
AcDbEntity
  8
0
  6
HIDDEN
 62
   174
100
AcDbLine
 10
480.010774
 20
407.051293
 30
0.0
 11
460.53323
 21
407.051293
 31
0.0
  0
LINE
  5
1B2
100
AcDbEntity
  8
0
  6
HIDDEN
 62
   174
100
AcDbLine
 10
316.561472
 20
407.051293
 30
0.0
 11
316.561472
 21
406.601293
 31
0.0
  0
LINE
  5
1B3
100
AcDbEntity
  8
0
  6
HIDDEN
 62
   174
100
AcDbLine
 10
406.536883
 20
425.501293
 30
0.0
 11
402.244966
 21
425.501293
 31
0.0
  0
LINE
  5
1B4
100
AcDbEntity
  8
0
  6
Continuous
 62
   174
100
AcDbLine
 10
181.561472
 20
405.926293
 30
0.0
 11
188.311472
 21
405.926293
 31
0.0
  0
LINE
  5
1B5
100
AcDbEntity
  8
0
  6
HIDDEN
 62
   174
100
AcDbLine
 10
451.561472
 20
407.051293
 30
0.0
 11
451.561472
 21
425.501293
 31
0.0
  0
ARC
  5
1B6
100
AcDbEntity
  8
0
  6
Continuous
 62
   174
100
AcDbCircle
 10
443.911858
 20
310.309345
 30
0.0
 40
3.15
100
AcDbArc
 50
-90.0
 51
-45.0
  0
LINE
  5
1B7
100
AcDbEntity
  8
0
  6
HIDDEN
 62
   174
100
AcDbLine
 10
480.674262
 20
313.451293
 30
0.0
 11
480.218302
 21
313.451293
 31
0.0
  0
ARC
  5
1B8
100
AcDbEntity
  8
0
  6
HIDDEN
 62
   174
100
AcDbCircle
 10
685.561472
 20
311.426293
 30
0.0
 40
2.25
100
AcDbArc
 50
-90.0
 51
0.0
  0
LINE
  5
1B9
100
AcDbEntity
  8
0
  6
Continuous
 62
   174
100
AcDbLine
 10
181.561472
 20
329.426293
 30
0.0
 11
188.311472
 21
329.426293
 31
0.0
  0
LINE
  5
1BA
100
AcDbEntity
  8
0
  6
HIDDEN
 62
   174
100
AcDbLine
 10
685.561472
 20
309.264657
 30
0.0
 11
685.561472
 21
329.513964
 31
0.0
  0
LINE
  5
1BB
100
AcDbEntity
  8
0
  6
HIDDEN
 62
   174
100
AcDbLine
 10
678.811472
 20
384.636376
 30
0.0
 11
678.811472
 21
395.88559
 31
0.0
  0
LINE
  5
1BC
100
AcDbEntity
  8
0
  6
Continuous
 62
   174
100
AcDbLine
 10
685.561472
 20
407.135405
 30
0.0
 11
685.561472
 21
406.693882
 31
0.0
  0
LINE
  5
1BD
100
AcDbEntity
  8
0
  6
HIDDEN
 62
   174
100
AcDbLine
 10
188.311472
 20
329.513964
 30
0.0
 11
188.311472
 21
309.264657
 31
0.0
  0
LINE
  5
1BE
100
AcDbEntity
  8
0
  6
Continuous
 62
   174
100
AcDbLine
 10
685.561472
 20
329.426293
 30
0.0
 11
678.811472
 21
329.426293
 31
0.0
  0
LINE
  5
1BF
100
AcDbEntity
  8
0
  6
HIDDEN
 62
   174
100
AcDbLine
 10
389.609225
 20
308.051293
 30
0.0
 11
389.083488
 21
308.051293
 31
0.0
  0
LINE
  5
1C0
100
AcDbEntity
  8
0
  6
Continuous
 62
   174
100
AcDbLine
 10
181.561472
 20
330.193693
 30
0.0
 11
181.561472
 21
330.638826
 31
0.0
  0
LINE
  5
1C1
100
AcDbEntity
  8
0
  6
Continuous
 62
   174
100
AcDbLine
 10
630.211472
 20
425.051293
 30
0.0
 11
630.211472
 21
473.201293
 31
0.0
  0
LINE
  5
1C2
100
AcDbEntity
  8
0
  6
Continuous
 62
   174
100
AcDbLine
 10
660.811472
 20
425.051293
 30
0.0
 11
660.811472
 21
433.151293
 31
0.0
  0
LINE
  5
1C3
100
AcDbEntity
  8
0
  6
Continuous
 62
   174
100
AcDbLine
 10
384.061472
 20
407.051293
 30
0.0
 11
384.061472
 21
425.501293
 31
0.0
  0
LINE
  5
1C4
100
AcDbEntity
  8
0
  6
HIDDEN
 62
   174
100
AcDbLine
 10
444.417036
 20
308.051293
 30
0.0
 11
443.601963
 21
308.051293
 31
0.0
  0
LINE
  5
1C5
100
AcDbEntity
  8
0
  6
Continuous
 62
   174
100
AcDbLine
 10
415.609159
 20
425.501293
 30
0.0
 11
406.536883
 21
425.501293
 31
0.0
  0
LINE
  5
1C6
100
AcDbEntity
  8
0
  6
Continuous
 62
   174
100
AcDbLine
 10
208.683415
 20
433.151293
 30
0.0
 11
206.29895
 21
433.151293
 31
0.0
  0
LINE
  5
1C7
100
AcDbEntity
  8
0
  6
HIDDEN
 62
   174
100
AcDbLine
 10
410.828198
 20
425.501293
 30
0.0
 11
406.536883
 21
425.501293
 31
0.0
  0
LINE
  5
1C8
100
AcDbEntity
  8
0
  6
HIDDEN
 62
   174
100
AcDbLine
 10
474.032768
 20
425.501293
 30
0.0
 11
470.640138
 21
425.501293
 31
0.0
  0
LINE
  5
1C9
100
AcDbEntity
  8
0
  6
Continuous
 62
   174
100
AcDbLine
 10
630.211472
 20
473.201293
 30
0.0
 11
633.811472
 21
473.201293
 31
0.0
  0
ARC
  5
1CA
100
AcDbEntity
  8
0
  6
HIDDEN
 62
   174
100
AcDbCircle
 10
389.914335
 20
310.306675
 30
0.0
 40
3.15
100
AcDbArc
 50
-270.0
 51
-180.0
  0
LINE
  5
1CB
100
AcDbEntity
  8
0
  6
Continuous
 62
   174
100
AcDbLine
 10
433.535357
 20
307.159345
 30
0.0
 11
423.186032
 21
307.159345
 31
0.0
  0
LINE
  5
1CC
100
AcDbEntity
  8
0
  6
Continuous
 62
   174
100
AcDbLine
 10
181.561472
 20
406.009943
 30
0.0
 11
181.561472
 21
395.88559
 31
0.0
  0
LINE
  5
1CD
100
AcDbEntity
  8
0
  6
HIDDEN
 62
   174
100
AcDbLine
 10
181.561472
 20
329.513964
 30
0.0
 11
181.561472
 21
319.38901
 31
0.0
  0
LINE
  5
1CE
100
AcDbEntity
  8
0
  6
HIDDEN
 62
   174
100
AcDbLine
 10
181.561472
 20
395.88559
 30
0.0
 11
181.561472
 21
385.761237
 31
0.0
  0
LINE
  5
1CF
100
AcDbEntity
  8
0
  6
HIDDEN
 62
   174
100
AcDbLine
 10
656.761472
 20
439.901293
 30
0.0
 11
656.761472
 21
462.401293
 31
0.0
  0
LINE
  5
1D0
100
AcDbEntity
  8
0
  6
HIDDEN
 62
   174
100
AcDbLine
 10
181.561472
 20
319.38901
 30
0.0
 11
181.561472
 21
330.193693
 31
0.0
  0
LINE
  5
1D1
100
AcDbEntity
  8
0
  6
HIDDEN
 62
   174
100
AcDbLine
 10
334.540951
 20
406.601293
 30
0.0
 11
316.541968
 21
406.601293
 31
0.0
  0
LINE
  5
1D2
100
AcDbEntity
  8
0
  6
HIDDEN
 62
   174
100
AcDbLine
 10
469.532722
 20
425.501293
 30
0.0
 11
465.229977
 21
425.501293
 31
0.0
  0
LINE
  5
1D3
100
AcDbEntity
  8
0
  6
Continuous
 62
   174
100
AcDbLine
 10
393.061472
 20
425.501293
 30
0.0
 11
393.061472
 21
430.901293
 31
0.0
  0
LINE
  5
1D4
100
AcDbEntity
  8
0
  6
HIDDEN
 62
   174
100
AcDbLine
 10
386.85903
 20
313.456675
 30
0.0
 11
386.397054
 21
313.456675
 31
0.0
  0
LINE
  5
1D5
100
AcDbEntity
  8
0
  6
HIDDEN
 62
   174
100
AcDbLine
 10
210.361472
 20
425.051293
 30
0.0
 11
224.761472
 21
425.051293
 31
0.0
  0
LINE
  5
1D6
100
AcDbEntity
  8
0
  6
Continuous
 62
   174
100
AcDbLine
 10
460.53323
 20
425.501293
 30
0.0
 11
451.460352
 21
425.501293
 31
0.0
  0
LINE
  5
1D7
100
AcDbEntity
  8
0
  6
HIDDEN
 62
   174
100
AcDbLine
 10
181.561472
 20
385.077297
 30
0.0
 11
181.561472
 21
395.88559
 31
0.0
  0
LINE
  5
1D8
100
AcDbEntity
  8
0
  6
Continuous
 62
   174
100
AcDbLine
 10
497.885842
 20
307.151293
 30
0.0
 11
497.379353
 21
307.151293
 31
0.0
  0
LINE
  5
1D9
100
AcDbEntity
  8
0
  6
HIDDEN
 62
   174
100
AcDbLine
 10
188.311472
 20
329.513964
 30
0.0
 11
188.311472
 21
309.264657
 31
0.0
  0
LINE
  5
1DA
100
AcDbEntity
  8
0
  6
HIDDEN
 62
   174
100
AcDbLine
 10
447.061472
 20
308.051293
 30
0.0
 11
447.061472
 21
313.451293
 31
0.0
  0
ARC
  5
1DB
100
AcDbEntity
  8
0
  6
Continuous
 62
   174
100
AcDbCircle
 10
685.561472
 20
327.176293
 30
0.0
 40
2.25
100
AcDbArc
 50
0.0
 51
90.0
  0
LINE
  5
1DC
100
AcDbEntity
  8
0
  6
HIDDEN
 62
   174
100
AcDbLine
 10
494.311472
 20
313.451293
 30
0.0
 11
494.311472
 21
330.551293
 31
0.0
  0
LINE
  5
1DD
100
AcDbEntity
  8
0
  6
HIDDEN
 62
   174
100
AcDbLine
 10
181.561472
 20
329.426293
 30
0.0
 11
188.311472
 21
329.426293
 31
0.0
  0
LINE
  5
1DE
100
AcDbEntity
  8
0
  6
HIDDEN
 62
   174
100
AcDbLine
 10
633.811472
 20
465.326293
 30
0.0
 11
630.211472
 21
465.326293
 31
0.0
  0
LINE
  5
1DF
100
AcDbEntity
  8
0
  6
HIDDEN
 62
   174
100
AcDbLine
 10
233.311472
 20
459.476293
 30
0.0
 11
236.911472
 21
459.476293
 31
0.0
  0
LINE
  5
1E0
100
AcDbEntity
  8
0
  6
HIDDEN
 62
   174
100
AcDbLine
 10
685.561472
 20
329.426293
 30
0.0
 11
678.811472
 21
329.426293
 31
0.0
  0
LINE
  5
1E1
100
AcDbEntity
  8
0
  6
HIDDEN
 62
   174
100
AcDbLine
 10
687.811472
 20
311.51438
 30
0.0
 11
687.811472
 21
327.26364
 31
0.0
  0
LINE
  5
1E2
100
AcDbEntity
  8
0
  6
HIDDEN
 62
   174
100
AcDbLine
 10
685.561472
 20
309.264657
 30
0.0
 11
685.561472
 21
319.38901
 31
0.0
  0
LINE
  5
1E3
100
AcDbEntity
  8
0
  6
Continuous
 62
   174
100
AcDbLine
 10
685.561472
 20
395.88559
 30
0.0
 11
685.561472
 21
406.009943
 31
0.0
  0
LINE
  5
1E4
100
AcDbEntity
  8
0
  6
HIDDEN
 62
   174
100
AcDbLine
 10
685.561472
 20
384.551293
 30
0.0
 11
678.811472
 21
384.551293
 31
0.0
  0
LINE
  5
1E5
100
AcDbEntity
  8
0
  6
Continuous
 62
   174
100
AcDbLine
 10
490.442878
 20
407.051293
 30
0.0
 11
490.442878
 21
401.651293
 31
0.0
  0
ARC
  5
1E6
100
AcDbEntity
  8
0
  6
Continuous
 62
   174
100
AcDbCircle
 10
497.91643
 20
310.301293
 30
0.0
 40
3.15
100
AcDbArc
 50
-90.0
 51
-45.0
  0
LINE
  5
1E7
100
AcDbEntity
  8
0
  6
HIDDEN
 62
   174
100
AcDbLine
 10
181.561472
 20
384.551293
 30
0.0
 11
188.311472
 21
384.551293
 31
0.0
  0
LINE
  5
1E8
100
AcDbEntity
  8
0
  6
HIDDEN
 62
   174
100
AcDbLine
 10
685.561472
 20
309.176293
 30
0.0
 11
678.811472
 21
309.176293
 31
0.0
  0
LINE
  5
1E9
100
AcDbEntity
  8
0
  6
HIDDEN
 62
   174
100
AcDbLine
 10
685.561472
 20
395.88559
 30
0.0
 11
685.561472
 21
406.009943
 31
0.0
  0
LINE
  5
1EA
100
AcDbEntity
  8
0
  6
HIDDEN
 62
   174
100
AcDbLine
 10
642.361472
 20
425.051293
 30
0.0
 11
656.761472
 21
425.051293
 31
0.0
  0
LINE
  5
1EB
100
AcDbEntity
  8
0
  6
HIDDEN
 62
   174
100
AcDbLine
 10
379.541416
 20
308.051293
 30
0.0
 11
369.992728
 21
308.051293
 31
0.0
  0
LINE
  5
1EC
100
AcDbEntity
  8
0
  6
HIDDEN
 62
   174
100
AcDbLine
 10
483.031658
 20
407.051293
 30
0.0
 11
480.010774
 21
407.051293
 31
0.0
  0
LINE
  5
1ED
100
AcDbEntity
  8
0
  6
Continuous
 62
   174
100
AcDbLine
 10
406.536883
 20
425.501293
 30
0.0
 11
397.464005
 21
425.501293
 31
0.0
  0
LINE
  5
1EE
100
AcDbEntity
  8
0
  6
HIDDEN
 62
   174
100
AcDbLine
 10
402.244966
 20
425.501293
 30
0.0
 11
401.840136
 21
425.501293
 31
0.0
  0
LINE
  5
1EF
100
AcDbEntity
  8
0
  6
HIDDEN
 62
   174
100
AcDbLine
 10
334.561472
 20
407.051293
 30
0.0
 11
334.561472
 21
406.601293
 31
0.0
  0
LINE
  5
1F0
100
AcDbEntity
  8
0
  6
Continuous
 62
   174
100
AcDbLine
 10
445.768073
 20
430.901293
 30
0.0
 11
438.034802
 21
430.901293
 31
0.0
  0
ARC
  5
1F1
100
AcDbEntity
  8
0
  6
HIDDEN
 62
   174
100
AcDbCircle
 10
443.911858
 20
310.309345
 30
0.0
 40
3.15
100
AcDbArc
 50
-180.0
 51
-90.0
  0
LINE
  5
1F2
100
AcDbEntity
  8
0
  6
HIDDEN
 62
   174
100
AcDbLine
 10
678.811472
 20
309.264657
 30
0.0
 11
678.811472
 21
329.513964
 31
0.0
  0
LINE
  5
1F3
100
AcDbEntity
  8
0
  6
HIDDEN
 62
   174
100
AcDbLine
 10
685.561472
 20
329.426293
 30
0.0
 11
678.811472
 21
329.426293
 31
0.0
  0
LINE
  5
1F4
100
AcDbEntity
  8
0
  6
HIDDEN
 62
   174
100
AcDbLine
 10
397.561472
 20
407.051293
 30
0.0
 11
397.561472
 21
425.501293
 31
0.0
  0
LINE
  5
1F5
100
AcDbEntity
  8
0
  6
Continuous
 62
   174
100
AcDbLine
 10
433.535357
 20
307.159345
 30
0.0
 11
423.692521
 21
307.159345
 31
0.0
  0
LINE
  5
1F6
100
AcDbEntity
  8
0
  6
HIDDEN
 62
   174
100
AcDbLine
 10
393.061472
 20
308.051293
 30
0.0
 11
393.061472
 21
313.451293
 31
0.0
  0
LINE
  5
1F7
100
AcDbEntity
  8
0
  6
Continuous
 62
   174
100
AcDbLine
 10
181.561472
 20
309.176293
 30
0.0
 11
188.311472
 21
309.176293
 31
0.0
  0
LINE
  5
1F8
100
AcDbEntity
  8
0
  6
HIDDEN
 62
   174
100
AcDbLine
 10
179.311472
 20
403.76022
 30
0.0
 11
179.311472
 21
388.01096
 31
0.0
  0
LINE
  5
1F9
100
AcDbEntity
  8
0
  6
HIDDEN
 62
   174
100
AcDbLine
 10
389.083488
 20
308.051293
 30
0.0
 11
379.541416
 21
308.051293
 31
0.0
  0
LINE
  5
1FA
100
AcDbEntity
  8
0
  6
Continuous
 62
   174
100
AcDbLine
 10
685.561472
 20
385.080907
 30
0.0
 11
685.561472
 21
384.636376
 31
0.0
  0
LINE
  5
1FB
100
AcDbEntity
  8
0
  6
HIDDEN
 62
   174
100
AcDbLine
 10
478.082268
 20
401.651293
 30
0.0
 11
484.650375
 21
401.651293
 31
0.0
  0
LINE
  5
1FC
100
AcDbEntity
  8
0
  6
Continuous
 62
   174
100
AcDbLine
 10
475.298387
 20
430.901293
 30
0.0
 11
445.768073
 21
430.901293
 31
0.0
  0
LINE
  5
1FD
100
AcDbEntity
  8
0
  6
Continuous
 62
   174
100
AcDbLine
 10
685.561472
 20
309.176293
 30
0.0
 11
678.811472
 21
309.176293
 31
0.0
  0
LINE
  5
1FE
100
AcDbEntity
  8
0
  6
Continuous
 62
   174
100
AcDbLine
 10
181.561472
 20
308.051293
 30
0.0
 11
181.561472
 21
309.176293
 31
0.0
  0
LINE
  5
1FF
100
AcDbEntity
  8
0
  6
HIDDEN
 62
   174
100
AcDbLine
 10
443.601963
 20
308.051293
 30
0.0
 11
443.080436
 21
308.051293
 31
0.0
  0
LINE
  5
200
100
AcDbEntity
  8
0
  6
HIDDEN
 62
   174
100
AcDbLine
 10
397.464005
 20
407.051293
 30
0.0
 11
384.037853
 21
407.051293
 31
0.0
  0
LINE
  5
201
100
AcDbEntity
  8
0
  6
Continuous
 62
   174
100
AcDbLine
 10
421.30204
 20
430.901293
 30
0.0
 11
391.771124
 21
430.901293
 31
0.0
  0
LINE
  5
202
100
AcDbEntity
  8
0
  6
HIDDEN
 62
   174
100
AcDbLine
 10
426.676711
 20
313.459345
 30
0.0
 11
426.217142
 21
313.459345
 31
0.0
  0
LINE
  5
203
100
AcDbEntity
  8
0
  6
HIDDEN
 62
   174
100
AcDbLine
 10
372.811472
 20
313.451293
 30
0.0
 11
372.811472
 21
330.551293
 31
0.0
  0
LINE
  5
204
100
AcDbEntity
  8
0
  6
Continuous
 62
   174
100
AcDbLine
 10
642.361472
 20
425.051293
 30
0.0
 11
642.361472
 21
462.401293
 31
0.0
  0
LINE
  5
205
100
AcDbEntity
  8
0
  6
HIDDEN
 62
   174
100
AcDbLine
 10
181.561472
 20
406.009943
 30
0.0
 11
181.561472
 21
395.88559
 31
0.0
  0
LINE
  5
206
100
AcDbEntity
  8
0
  6
HIDDEN
 62
   174
100
AcDbLine
 10
443.080436
 20
308.051293
 30
0.0
 11
433.535357
 21
308.051293
 31
0.0
  0
LINE
  5
207
100
AcDbEntity
  8
0
  6
Continuous
 62
   174
100
AcDbLine
 10
429.061472
 20
430.901293
 30
0.0
 11
429.061472
 21
437.651293
 31
0.0
  0
LINE
  5
208
100
AcDbEntity
  8
0
  6
HIDDEN
 62
   174
100
AcDbLine
 10
465.229977
 20
425.501293
 30
0.0
 11
464.825147
 21
425.501293
 31
0.0
  0
LINE
  5
209
100
AcDbEntity
  8
0
  6
HIDDEN
 62
   174
100
AcDbLine
 10
474.061472
 20
308.051293
 30
0.0
 11
474.061472
 21
313.451293
 31
0.0
  0
LINE
  5
20A
100
AcDbEntity
  8
0
  6
HIDDEN
 62
   174
100
AcDbLine
 10
678.811472
 20
395.88559
 30
0.0
 11
678.811472
 21
407.135405
 31
0.0
  0
LINE
  5
20B
100
AcDbEntity
  8
0
  6
HIDDEN
 62
   174
100
AcDbLine
 10
656.761472
 20
433.151293
 30
0.0
 11
656.761472
 21
439.901293
 31
0.0
  0
LINE
  5
20C
100
AcDbEntity
  8
0
  6
Continuous
 62
   174
100
AcDbLine
 10
209.514128
 20
433.151293
 30
0.0
 11
208.683415
 21
433.151293
 31
0.0
  0
LINE
  5
20D
100
AcDbEntity
  8
0
  6
Continuous
 62
   174
100
AcDbLine
 10
483.061472
 20
430.901293
 30
0.0
 11
483.061472
 21
437.651293
 31
0.0
  0
LINE
  5
20E
100
AcDbEntity
  8
0
  6
HIDDEN
 62
   174
100
AcDbLine
 10
420.035819
 20
425.501293
 30
0.0
 11
416.643791
 21
425.501293
 31
0.0
  0
ARC
  5
20F
100
AcDbEntity
  8
0
  6
Continuous
 62
   174
100
AcDbCircle
 10
423.211858
 20
310.309345
 30
0.0
 40
3.15
100
AcDbArc
 50
225.0
 51
270.0
  0
ARC
  5
210
100
AcDbEntity
  8
0
  6
HIDDEN
 62
   174
100
AcDbCircle
 10
497.91643
 20
310.301293
 30
0.0
 40
3.15
100
AcDbArc
 50
0.0
 51
90.0
  0
ARC
  5
211
100
AcDbEntity
  8
0
  6
HIDDEN
 62
   174
100
AcDbCircle
 10
685.561472
 20
327.176293
 30
0.0
 40
2.25
100
AcDbArc
 50
0.0
 51
90.0
  0
LINE
  5
212
100
AcDbEntity
  8
0
  6
Continuous
 62
   174
100
AcDbLine
 10
181.561472
 20
319.38901
 30
0.0
 11
181.561472
 21
309.264657
 31
0.0
  0
LINE
  5
213
100
AcDbEntity
  8
0
  6
HIDDEN
 62
   174
100
AcDbLine
 10
179.311472
 20
327.26364
 30
0.0
 11
179.311472
 21
311.51438
 31
0.0
  0
LINE
  5
214
100
AcDbEntity
  8
0
  6
Continuous
 62
   174
100
AcDbLine
 10
685.561472
 20
385.761237
 30
0.0
 11
685.561472
 21
395.88559
 31
0.0
  0
LINE
  5
215
100
AcDbEntity
  8
0
  6
HIDDEN
 62
   174
100
AcDbLine
 10
210.361472
 20
425.051293
 30
0.0
 11
224.761472
 21
425.051293
 31
0.0
  0
LINE
  5
216
100
AcDbEntity
  8
0
  6
Continuous
 62
   174
100
AcDbLine
 10
487.536517
 20
307.151293
 30
0.0
 11
481.453243
 21
307.151293
 31
0.0
  0
LINE
  5
217
100
AcDbEntity
  8
0
  6
HIDDEN
 62
   174
100
AcDbLine
 10
480.674262
 20
313.451293
 30
0.0
 11
480.218302
 21
313.451293
 31
0.0
  0
ARC
  5
218
100
AcDbEntity
  8
0
  6
Continuous
 62
   174
100
AcDbCircle
 10
181.561472
 20
311.426293
 30
0.0
 40
2.25
100
AcDbArc
 50
180.0
 51
225.0
  0
LINE
  5
219
100
AcDbEntity
  8
0
  6
HIDDEN
 62
   174
100
AcDbLine
 10
181.561472
 20
309.176293
 30
0.0
 11
188.311472
 21
309.176293
 31
0.0
  0
LINE
  5
21A
100
AcDbEntity
  8
0
  6
HIDDEN
 62
   174
100
AcDbLine
 10
685.561472
 20
385.761237
 30
0.0
 11
685.561472
 21
395.88559
 31
0.0
  0
LINE
  5
21B
100
AcDbEntity
  8
0
  6
HIDDEN
 62
   174
100
AcDbLine
 10
369.992728
 20
308.051293
 30
0.0
 11
369.477216
 21
308.051293
 31
0.0
  0
LINE
  5
21C
100
AcDbEntity
  8
0
  6
HIDDEN
 62
   174
100
AcDbLine
 10
685.561472
 20
407.051293
 30
0.0
 11
678.811472
 21
407.051293
 31
0.0
  0
LINE
  5
21D
100
AcDbEntity
  8
0
  6
HIDDEN
 62
   174
100
AcDbLine
 10
550.561472
 20
407.051293
 30
0.0
 11
550.561472
 21
406.601293
 31
0.0
  0
LINE
  5
21E
100
AcDbEntity
  8
0
  6
HIDDEN
 62
   174
100
AcDbLine
 10
401.840136
 20
425.501293
 30
0.0
 11
397.537391
 21
425.501293
 31
0.0
  0
LINE
  5
21F
100
AcDbEntity
  8
0
  6
HIDDEN
 62
   174
100
AcDbLine
 10
233.311472
 20
425.051293
 30
0.0
 11
236.911472
 21
425.051293
 31
0.0
  0
LINE
  5
220
100
AcDbEntity
  8
0
  6
HIDDEN
 62
   174
100
AcDbLine
 10
440.393402
 20
313.459345
 30
0.0
 11
433.535357
 21
313.459345
 31
0.0
  0
LINE
  5
221
100
AcDbEntity
  8
0
  6
Continuous
 62
   174
100
AcDbLine
 10
497.885842
 20
307.151293
 30
0.0
 11
493.610767
 21
307.151293
 31
0.0
  0
ARC
  5
222
100
AcDbEntity
  8
0
  6
Continuous
 62
   174
100
AcDbCircle
 10
685.561472
 20
387.926293
 30
0.0
 40
2.25
100
AcDbArc
 50
-90.0
 51
0.0
  0
LINE
  5
223
100
AcDbEntity
  8
0
  6
HIDDEN
 62
   174
100
AcDbLine
 10
181.561472
 20
309.176293
 30
0.0
 11
188.311472
 21
309.176293
 31
0.0
  0
LINE
  5
224
100
AcDbEntity
  8
0
  6
HIDDEN
 62
   174
100
AcDbLine
 10
685.561472
 20
309.176293
 30
0.0
 11
678.811472
 21
309.176293
 31
0.0
  0
LINE
  5
225
100
AcDbEntity
  8
0
  6
Continuous
 62
   174
100
AcDbLine
 10
685.561472
 20
308.051293
 30
0.0
 11
685.561472
 21
309.176293
 31
0.0
  0
LINE
  5
226
100
AcDbEntity
  8
0
  6
HIDDEN
 62
   174
100
AcDbLine
 10
181.561472
 20
406.009943
 30
0.0
 11
181.561472
 21
385.761237
 31
0.0
  0
LINE
  5
227
100
AcDbEntity
  8
0
  6
Continuous
 62
   174
100
AcDbLine
 10
210.361472
 20
425.051293
 30
0.0
 11
210.361472
 21
462.401293
 31
0.0
  0
LINE
  5
228
100
AcDbEntity
  8
0
  6
HIDDEN
 62
   174
100
AcDbLine
 10
181.561472
 20
384.551293
 30
0.0
 11
188.311472
 21
384.551293
 31
0.0
  0
LINE
  5
229
100
AcDbEntity
  8
0
  6
HIDDEN
 62
   174
100
AcDbLine
 10
478.082268
 20
407.051293
 30
0.0
 11
482.806686
 21
407.051293
 31
0.0
  0
LINE
  5
22A
100
AcDbEntity
  8
0
  6
HIDDEN
 62
   174
100
AcDbLine
 10
480.218302
 20
313.451293
 30
0.0
 11
477.188996
 21
313.451293
 31
0.0
  0
LINE
  5
22B
100
AcDbEntity
  8
0
  6
HIDDEN
 62
   174
100
AcDbLine
 10
501.061472
 20
308.051293
 30
0.0
 11
501.061472
 21
313.451293
 31
0.0
  0
LINE
  5
22C
100
AcDbEntity
  8
0
  6
HIDDEN
 62
   174
100
AcDbLine
 10
366.038871
 20
313.451293
 30
0.0
 11
393.037345
 21
313.451293
 31
0.0
  0
LINE
  5
22D
100
AcDbEntity
  8
0
  6
HIDDEN
 62
   174
100
AcDbLine
 10
685.561472
 20
330.551293
 30
0.0
 11
678.811472
 21
330.551293
 31
0.0
  0
LINE
  5
22E
100
AcDbEntity
  8
0
  6
HIDDEN
 62
   174
100
AcDbLine
 10
687.811472
 20
311.51438
 30
0.0
 11
687.811472
 21
327.26364
 31
0.0
  0
LINE
  5
22F
100
AcDbEntity
  8
0
  6
HIDDEN
 62
   174
100
AcDbLine
 10
179.311472
 20
403.76022
 30
0.0
 11
179.311472
 21
388.01096
 31
0.0
  0
LINE
  5
230
100
AcDbEntity
  8
0
  6
Continuous
 62
   174
100
AcDbLine
 10
420.151313
 20
425.501293
 30
0.0
 11
415.609159
 21
425.501293
 31
0.0
  0
LINE
  5
231
100
AcDbEntity
  8
0
  6
Continuous
 62
   174
100
AcDbLine
 10
523.561472
 20
407.051293
 30
0.0
 11
490.442878
 21
407.051293
 31
0.0
  0
LINE
  5
232
100
AcDbEntity
  8
0
  6
HIDDEN
 62
   174
100
AcDbLine
 10
217.548164
 20
425.051293
 30
0.0
 11
206.29895
 21
425.051293
 31
0.0
  0
ARC
  5
233
100
AcDbEntity
  8
0
  6
HIDDEN
 62
   174
100
AcDbCircle
 10
497.91643
 20
310.301293
 30
0.0
 40
3.15
100
AcDbArc
 50
-180.0
 51
-90.0
  0
ARC
  5
234
100
AcDbEntity
  8
0
  6
Continuous
 62
   174
100
AcDbCircle
 10
685.561472
 20
311.426293
 30
0.0
 40
2.25
100
AcDbArc
 50
-90.0
 51
0.0
  0
ARC
  5
235
100
AcDbEntity
  8
0
  6
HIDDEN
 62
   174
100
AcDbCircle
 10
181.561472
 20
403.676293
 30
0.0
 40
2.25
100
AcDbArc
 50
-270.0
 51
-180.0
  0
LINE
  5
236
100
AcDbEntity
  8
0
  6
Continuous
 62
   174
100
AcDbLine
 10
469.606108
 20
425.501293
 30
0.0
 11
460.53323
 21
425.501293
 31
0.0
  0
LINE
  5
237
100
AcDbEntity
  8
0
  6
HIDDEN
 62
   174
100
AcDbLine
 10
469.561472
 20
407.051293
 30
0.0
 11
469.561472
 21
425.501293
 31
0.0
  0
LINE
  5
238
100
AcDbEntity
  8
0
  6
HIDDEN
 62
   174
100
AcDbLine
 10
497.379353
 20
313.451293
 30
0.0
 11
487.536517
 21
313.451293
 31
0.0
  0
LINE
  5
239
100
AcDbEntity
  8
0
  6
HIDDEN
 62
   174
100
AcDbLine
 10
480.781935
 20
313.451293
 30
0.0
 11
494.281473
 21
313.451293
 31
0.0
  0
LINE
  5
23A
100
AcDbEntity
  8
0
  6
Continuous
 62
   174
100
AcDbLine
 10
181.561472
 20
329.426293
 30
0.0
 11
188.311472
 21
329.426293
 31
0.0
  0
LINE
  5
23B
100
AcDbEntity
  8
0
  6
Continuous
 62
   174
100
AcDbLine
 10
423.692521
 20
307.159345
 30
0.0
 11
423.186032
 21
307.159345
 31
0.0
  0
ARC
  5
23C
100
AcDbEntity
  8
0
  6
HIDDEN
 62
   174
100
AcDbCircle
 10
443.911858
 20
310.309345
 30
0.0
 40
3.15
100
AcDbArc
 50
0.0
 51
90.0
  0
ARC
  5
23D
100
AcDbEntity
  8
0
  6
HIDDEN
 62
   174
100
AcDbCircle
 10
423.211858
 20
310.309345
 30
0.0
 40
3.15
100
AcDbArc
 50
0.0
 51
90.0
  0
LINE
  5
23E
100
AcDbEntity
  8
0
  6
HIDDEN
 62
   174
100
AcDbLine
 10
494.390952
 20
313.451293
 30
0.0
 11
487.536517
 21
313.451293
 31
0.0
  0
LINE
  5
23F
100
AcDbEntity
  8
0
  6
HIDDEN
 62
   174
100
AcDbLine
 10
501.061472
 20
308.051293
 30
0.0
 11
501.061472
 21
313.451293
 31
0.0
  0
LINE
  5
240
100
AcDbEntity
  8
0
  6
Continuous
 62
   174
100
AcDbLine
 10
685.561472
 20
385.676293
 30
0.0
 11
678.811472
 21
385.676293
 31
0.0
  0
LINE
  5
241
100
AcDbEntity
  8
0
  6
HIDDEN
 62
   174
100
AcDbLine
 10
236.911472
 20
459.557548
 30
0.0
 11
236.911472
 21
465.407428
 31
0.0
  0
LINE
  5
242
100
AcDbEntity
  8
0
  6
HIDDEN
 62
   174
100
AcDbLine
 10
433.535357
 20
308.051293
 30
0.0
 11
423.989676
 21
308.051293
 31
0.0
  0
LINE
  5
243
100
AcDbEntity
  8
0
  6
Continuous
 62
   174
100
AcDbLine
 10
181.561472
 20
384.636376
 30
0.0
 11
181.561472
 21
385.077297
 31
0.0
  0
LINE
  5
244
100
AcDbEntity
  8
0
  6
HIDDEN
 62
   174
100
AcDbLine
 10
228.797378
 20
425.051293
 30
0.0
 11
217.548164
 21
425.051293
 31
0.0
  0
LINE
  5
245
100
AcDbEntity
  8
0
  6
HIDDEN
 62
   174
100
AcDbLine
 10
464.825147
 20
425.501293
 30
0.0
 11
460.53323
 21
425.501293
 31
0.0
  0
LINE
  5
246
100
AcDbEntity
  8
0
  6
HIDDEN
 62
   174
100
AcDbLine
 10
440.853572
 20
313.459345
 30
0.0
 11
440.393402
 21
313.459345
 31
0.0
  0
ARC
  5
247
100
AcDbEntity
  8
0
  6
HIDDEN
 62
   174
100
AcDbCircle
 10
477.21643
 20
310.301293
 30
0.0
 40
3.15
100
AcDbArc
 50
0.0
 51
90.0
  0
LINE
  5
248
100
AcDbEntity
  8
0
  6
Continuous
 62
   174
100
AcDbLine
 10
307.561472
 20
308.051293
 30
0.0
 11
307.561472
 21
407.051293
 31
0.0
  0
LINE
  5
249
100
AcDbEntity
  8
0
  6
HIDDEN
 62
   174
100
AcDbLine
 10
474.032768
 20
313.451293
 30
0.0
 11
501.030641
 21
313.451293
 31
0.0
  0
LINE
  5
24A
100
AcDbEntity
  8
0
  6
HIDDEN
 62
   174
100
AcDbLine
 10
426.811472
 20
313.451293
 30
0.0
 11
426.811472
 21
330.551293
 31
0.0
  0
LINE
  5
24B
100
AcDbEntity
  8
0
  6
Continuous
 62
   174
100
AcDbLine
 10
438.061472
 20
407.051293
 30
0.0
 11
438.061472
 21
425.501293
 31
0.0
  0
LINE
  5
24C
100
AcDbEntity
  8
0
  6
Continuous
 62
   174
100
AcDbLine
 10
429.035311
 20
430.901293
 30
0.0
 11
421.30204
 21
430.901293
 31
0.0
  0
LINE
  5
24D
100
AcDbEntity
  8
0
  6
Continuous
 62
   174
100
AcDbLine
 10
483.031658
 20
430.901293
 30
0.0
 11
475.298387
 21
430.901293
 31
0.0
  0
ARC
  5
24E
100
AcDbEntity
  8
0
  6
HIDDEN
 62
   174
100
AcDbCircle
 10
369.214335
 20
310.306675
 30
0.0
 40
3.15
100
AcDbArc
 50
-90.0
 51
0.0
  0
ARC
  5
24F
100
AcDbEntity
  8
0
  6
HIDDEN
 62
   174
100
AcDbCircle
 10
477.21643
 20
310.301293
 30
0.0
 40
3.15
100
AcDbArc
 50
90.0
 51
180.0
  0
LINE
  5
250
100
AcDbEntity
  8
0
  6
HIDDEN
 62
   174
100
AcDbLine
 10
487.536517
 20
313.451293
 30
0.0
 11
480.674262
 21
313.451293
 31
0.0
  0
LINE
  5
251
100
AcDbEntity
  8
0
  6
HIDDEN
 62
   174
100
AcDbLine
 10
494.854732
 20
313.451293
 30
0.0
 11
494.390952
 21
313.451293
 31
0.0
  0
LINE
  5
252
100
AcDbEntity
  8
0
  6
HIDDEN
 62
   174
100
AcDbLine
 10
678.811472
 20
385.761237
 30
0.0
 11
678.811472
 21
406.009943
 31
0.0
  0
ARC
  5
253
100
AcDbEntity
  8
0
  6
HIDDEN
 62
   174
100
AcDbCircle
 10
685.561472
 20
387.926293
 30
0.0
 40
2.25
100
AcDbArc
 50
-90.0
 51
0.0
  0
ARC
  5
254
100
AcDbEntity
  8
0
  6
HIDDEN
 62
   174
100
AcDbCircle
 10
181.561472
 20
311.426293
 30
0.0
 40
2.25
100
AcDbArc
 50
225.0
 51
270.0
  0
LINE
  5
255
100
AcDbEntity
  8
0
  6
HIDDEN
 62
   174
100
AcDbLine
 10
656.761472
 20
425.051293
 30
0.0
 11
656.761472
 21
433.151293
 31
0.0
  0
LINE
  5
256
100
AcDbEntity
  8
0
  6
Continuous
 62
   174
100
AcDbLine
 10
224.761472
 20
425.051293
 30
0.0
 11
224.761472
 21
462.401293
 31
0.0
  0
LINE
  5
257
100
AcDbEntity
  8
0
  6
HIDDEN
 62
   174
100
AcDbLine
 10
225.5822
 20
433.151293
 30
0.0
 11
217.548164
 21
433.151293
 31
0.0
  0
LINE
  5
258
100
AcDbEntity
  8
0
  6
Continuous
 62
   174
100
AcDbLine
 10
384.061472
 20
430.901293
 30
0.0
 11
384.061472
 21
437.651293
 31
0.0
  0
ARC
  5
259
100
AcDbEntity
  8
0
  6
HIDDEN
 62
   174
100
AcDbCircle
 10
389.914335
 20
310.306675
 30
0.0
 40
3.15
100
AcDbArc
 50
-46.365463
 51
0.0
  0
ARC
  5
25A
100
AcDbEntity
  8
0
  6
HIDDEN
 62
   174
100
AcDbCircle
 10
369.214335
 20
310.306675
 30
0.0
 40
3.15
100
AcDbArc
 50
0.0
 51
90.0
  0
LINE
  5
25B
100
AcDbEntity
  8
0
  6
Continuous
 62
   174
100
AcDbLine
 10
481.453243
 20
307.151293
 30
0.0
 11
477.69368
 21
307.151293
 31
0.0
  0
ARC
  5
25C
100
AcDbEntity
  8
0
  6
Continuous
 62
   174
100
AcDbCircle
 10
181.561472
 20
327.176293
 30
0.0
 40
2.25
100
AcDbArc
 50
-270.0
 51
-180.0
  0
LINE
  5
25D
100
AcDbEntity
  8
0
  6
HIDDEN
 62
   174
100
AcDbLine
 10
179.311472
 20
327.26364
 30
0.0
 11
179.311472
 21
311.51438
 31
0.0
  0
LINE
  5
25E
100
AcDbEntity
  8
0
  6
HIDDEN
 62
   174
100
AcDbLine
 10
210.361472
 20
462.401293
 30
0.0
 11
224.761472
 21
462.401293
 31
0.0
  0
LINE
  5
25F
100
AcDbEntity
  8
0
  6
HIDDEN
 62
   174
100
AcDbLine
 10
181.561472
 20
329.513964
 30
0.0
 11
181.561472
 21
309.264657
 31
0.0
  0
LINE
  5
260
100
AcDbEntity
  8
0
  6
HIDDEN
 62
   174
100
AcDbLine
 10
369.477216
 20
308.051293
 30
0.0
 11
368.66094
 21
308.051293
 31
0.0
  0
LINE
  5
261
100
AcDbEntity
  8
0
  6
HIDDEN
 62
   174
100
AcDbLine
 10
406.536883
 20
407.051293
 30
0.0
 11
397.464005
 21
407.051293
 31
0.0
  0
LINE
  5
262
100
AcDbEntity
  8
0
  6
Continuous
 62
   174
100
AcDbLine
 10
474.148262
 20
425.501293
 30
0.0
 11
469.606108
 21
425.501293
 31
0.0
  0
LINE
  5
263
100
AcDbEntity
  8
0
  6
HIDDEN
 62
   174
100
AcDbLine
 10
685.561472
 20
319.301293
 30
0.0
 11
678.811472
 21
319.301293
 31
0.0
  0
ARC
  5
264
100
AcDbEntity
  8
0
  6
Continuous
 62
   174
100
AcDbCircle
 10
181.561472
 20
311.426293
 30
0.0
 40
2.25
100
AcDbArc
 50
225.0
 51
270.0
  0
LINE
  5
265
100
AcDbEntity
  8
0
  6
HIDDEN
 62
   174
100
AcDbLine
 10
685.561472
 20
385.676293
 30
0.0
 11
678.811472
 21
385.676293
 31
0.0
  0
LINE
  5
266
100
AcDbEntity
  8
0
  6
HIDDEN
 62
   174
100
AcDbLine
 10
210.361472
 20
425.051293
 30
0.0
 11
210.361472
 21
433.151293
 31
0.0
  0
LINE
  5
267
100
AcDbEntity
  8
0
  6
HIDDEN
 62
   174
100
AcDbLine
 10
685.561472
 20
309.176293
 30
0.0
 11
685.561472
 21
319.301293
 31
0.0
  0
LINE
  5
268
100
AcDbEntity
  8
0
  6
HIDDEN
 62
   174
100
AcDbLine
 10
532.561472
 20
407.051293
 30
0.0
 11
532.561472
 21
406.601293
 31
0.0
  0
LINE
  5
269
100
AcDbEntity
  8
0
  6
HIDDEN
 62
   174
100
AcDbLine
 10
482.806686
 20
407.051293
 30
0.0
 11
484.480142
 21
407.051293
 31
0.0
  0
LINE
  5
26A
100
AcDbEntity
  8
0
  6
HIDDEN
 62
   174
100
AcDbLine
 10
649.521348
 20
433.151293
 30
0.0
 11
641.487913
 21
433.151293
 31
0.0
  0
ENDBLK
  5
26B
100
AcDbEntity
  8
0
100
AcDbBlockEnd
  0
BLOCK
  5
26E
100
AcDbEntity
  8
0
100
AcDbBlockBegin
  2
*B2
 70
     0
 10
0.0
 20
0.0
 30
0.0
  3
*B2
  1

  0
ARC
  5
26F
100
AcDbEntity
  8
0
  6
Continuous
 62
   174
100
AcDbCircle
 10
406.561472
 20
176.050706
 30
0.0
 40
9.0
100
AcDbArc
 50
-180.0
 51
0.0
  0
ARC
  5
270
100
AcDbEntity
  8
0
  6
Continuous
 62
   174
100
AcDbCircle
 10
406.561472
 20
176.050706
 30
0.0
 40
9.0
100
AcDbArc
 50
0.0
 51
180.0
  0
ARC
  5
271
100
AcDbEntity
  8
0
  6
Continuous
 62
   174
100
AcDbCircle
 10
460.561472
 20
176.050706
 30
0.0
 40
9.0
100
AcDbArc
 50
-180.0
 51
0.0
  0
ARC
  5
272
100
AcDbEntity
  8
0
  6
Continuous
 62
   174
100
AcDbCircle
 10
460.561472
 20
176.050706
 30
0.0
 40
9.0
100
AcDbArc
 50
0.0
 51
180.0
  0
LINE
  5
273
100
AcDbEntity
  8
0
  6
Continuous
 62
   174
100
AcDbLine
 10
613.561472
 20
212.050706
 30
0.0
 11
613.561472
 21
140.050706
 31
0.0
  0
LINE
  5
274
100
AcDbEntity
  8
0
  6
Continuous
 62
   174
100
AcDbLine
 10
253.561472
 20
140.050706
 30
0.0
 11
253.561472
 21
212.050706
 31
0.0
  0
LINE
  5
275
100
AcDbEntity
  8
0
  6
Continuous
 62
   174
100
AcDbLine
 10
685.561472
 20
212.050706
 30
0.0
 11
685.561472
 21
140.050706
 31
0.0
  0
LINE
  5
276
100
AcDbEntity
  8
0
  6
Continuous
 62
   174
100
AcDbLine
 10
181.561472
 20
140.050706
 30
0.0
 11
181.561472
 21
212.050706
 31
0.0
  0
ARC
  5
277
100
AcDbEntity
  8
0
  6
Continuous
 62
   174
100
AcDbCircle
 10
649.561472
 20
176.050706
 30
0.0
 40
8.325
100
AcDbArc
 50
-90.0
 51
90.0
  0
ARC
  5
278
100
AcDbEntity
  8
0
  6
Continuous
 62
   174
100
AcDbCircle
 10
649.561472
 20
176.050706
 30
0.0
 40
8.325
100
AcDbArc
 50
-270.0
 51
-90.0
  0
ARC
  5
279
100
AcDbEntity
  8
0
  6
Continuous
 62
   174
100
AcDbCircle
 10
217.561472
 20
176.050706
 30
0.0
 40
8.325
100
AcDbArc
 50
-270.0
 51
-90.0
  0
ARC
  5
27A
100
AcDbEntity
  8
0
  6
Continuous
 62
   174
100
AcDbCircle
 10
217.561472
 20
176.050706
 30
0.0
 40
8.325
100
AcDbArc
 50
-90.0
 51
90.0
  0
ARC
  5
27B
100
AcDbEntity
  8
0
  6
Continuous
 62
   174
100
AcDbCircle
 10
649.561472
 20
176.050706
 30
0.0
 40
6.075
100
AcDbArc
 50
90.0
 51
270.0
  0
ARC
  5
27C
100
AcDbEntity
  8
0
  6
Continuous
 62
   174
100
AcDbCircle
 10
649.561472
 20
176.050706
 30
0.0
 40
6.075
100
AcDbArc
 50
-90.0
 51
90.0
  0
ARC
  5
27D
100
AcDbEntity
  8
0
  6
Continuous
 62
   174
100
AcDbCircle
 10
217.561472
 20
176.050706
 30
0.0
 40
6.075
100
AcDbArc
 50
-90.0
 51
90.0
  0
LINE
  5
27E
100
AcDbEntity
  8
0
  6
Continuous
 62
   174
100
AcDbLine
 10
307.561472
 20
140.050706
 30
0.0
 11
253.561472
 21
140.050706
 31
0.0
  0
LINE
  5
27F
100
AcDbEntity
  8
0
  6
Continuous
 62
   174
100
AcDbLine
 10
613.561472
 20
212.050706
 30
0.0
 11
685.561472
 21
212.050706
 31
0.0
  0
LINE
  5
280
100
AcDbEntity
  8
0
  6
Continuous
 62
   174
100
AcDbLine
 10
307.561472
 20
140.050706
 30
0.0
 11
307.561472
 21
212.050706
 31
0.0
  0
LINE
  5
281
100
AcDbEntity
  8
0
  6
Continuous
 62
   174
100
AcDbLine
 10
523.561472
 20
212.050706
 30
0.0
 11
523.561472
 21
140.050706
 31
0.0
  0
ARC
  5
282
100
AcDbEntity
  8
0
  6
Continuous
 62
   174
100
AcDbCircle
 10
685.561472
 20
192.925706
 30
0.0
 40
2.25
100
AcDbArc
 50
-90.0
 51
0.0
  0
ARC
  5
283
100
AcDbEntity
  8
0
  6
Continuous
 62
   174
100
AcDbCircle
 10
685.561472
 20
208.675706
 30
0.0
 40
2.25
100
AcDbArc
 50
0.0
 51
90.0
  0
LINE
  5
284
100
AcDbEntity
  8
0
  6
Continuous
 62
   174
100
AcDbLine
 10
179.311472
 20
208.768832
 30
0.0
 11
179.311472
 21
200.894202
 31
0.0
  0
LINE
  5
285
100
AcDbEntity
  8
0
  6
Continuous
 62
   174
100
AcDbLine
 10
179.311472
 20
208.768832
 30
0.0
 11
179.311472
 21
208.383252
 31
0.0
  0
LINE
  5
286
100
AcDbEntity
  8
0
  6
Continuous
 62
   174
100
AcDbLine
 10
179.311472
 20
159.270727
 30
0.0
 11
179.311472
 21
157.395156
 31
0.0
  0
LINE
  5
287
100
AcDbEntity
  8
0
  6
Continuous
 62
   174
100
AcDbLine
 10
687.811472
 20
151.396698
 30
0.0
 11
687.811472
 21
159.271329
 31
0.0
  0
LINE
  5
288
100
AcDbEntity
  8
0
  6
Continuous
 62
   174
100
AcDbLine
 10
687.811472
 20
145.398241
 30
0.0
 11
687.811472
 21
151.396698
 31
0.0
  0
LINE
  5
289
100
AcDbEntity
  8
0
  6
Continuous
 62
   174
100
AcDbLine
 10
179.311472
 20
200.894202
 30
0.0
 11
179.311472
 21
193.019572
 31
0.0
  0
LINE
  5
28A
100
AcDbEntity
  8
0
  6
Continuous
 62
   174
100
AcDbLine
 10
179.311472
 20
208.768231
 30
0.0
 11
179.311472
 21
206.89266
 31
0.0
  0
ARC
  5
28B
100
AcDbEntity
  8
0
  6
Continuous
 62
   174
100
AcDbCircle
 10
406.561472
 20
176.050706
 30
0.0
 40
22.5
100
AcDbArc
 50
-299.982623
 51
-270.0
  0
LINE
  5
28C
100
AcDbEntity
  8
0
  6
Continuous
 62
   174
100
AcDbLine
 10
656.761472
 20
195.625706
 30
0.0
 11
642.361472
 21
195.625706
 31
0.0
  0
LINE
  5
28D
100
AcDbEntity
  8
0
  6
Continuous
 62
   174
100
AcDbLine
 10
210.361472
 20
160.075706
 30
0.0
 11
210.361472
 21
156.475706
 31
0.0
  0
LINE
  5
28E
100
AcDbEntity
  8
0
  6
Continuous
 62
   174
100
AcDbLine
 10
253.561472
 20
212.050706
 30
0.0
 11
181.561472
 21
212.050706
 31
0.0
  0
LINE
  5
28F
100
AcDbEntity
  8
0
  6
Continuous
 62
   174
100
AcDbLine
 10
559.561472
 20
140.050706
 30
0.0
 11
523.561472
 21
140.050706
 31
0.0
  0
LINE
  5
290
100
AcDbEntity
  8
0
  6
Continuous
 62
   174
100
AcDbLine
 10
179.311472
 20
143.907048
 30
0.0
 11
179.311472
 21
143.522068
 31
0.0
  0
LINE
  5
291
100
AcDbEntity
  8
0
  6
Continuous
 62
   174
100
AcDbLine
 10
642.361472
 20
156.475706
 30
0.0
 11
656.761472
 21
156.475706
 31
0.0
  0
ARC
  5
292
100
AcDbEntity
  8
0
  6
Continuous
 62
   174
100
AcDbCircle
 10
487.561472
 20
149.050706
 30
0.0
 40
5.85
100
AcDbArc
 50
-180.0
 51
0.0
  0
ARC
  5
293
100
AcDbEntity
  8
0
  6
Continuous
 62
   174
100
AcDbCircle
 10
460.561472
 20
176.050706
 30
0.0
 40
22.5
100
AcDbArc
 50
-120.010833
 51
-90.0
  0
ARC
  5
294
100
AcDbEntity
  8
0
  6
Continuous
 62
   174
100
AcDbCircle
 10
379.561472
 20
203.050706
 30
0.0
 40
5.85
100
AcDbArc
 50
-180.0
 51
0.0
  0
LINE
  5
295
100
AcDbEntity
  8
0
  6
Continuous
 62
   174
100
AcDbLine
 10
307.561472
 20
140.050706
 30
0.0
 11
307.561472
 21
212.050706
 31
0.0
  0
LINE
  5
296
100
AcDbEntity
  8
0
  6
Continuous
 62
   174
100
AcDbLine
 10
559.561472
 20
212.050706
 30
0.0
 11
613.561472
 21
212.050706
 31
0.0
  0
LINE
  5
297
100
AcDbEntity
  8
0
  6
Continuous
 62
   174
100
AcDbLine
 10
307.561472
 20
140.050706
 30
0.0
 11
343.561472
 21
140.050706
 31
0.0
  0
LINE
  5
298
100
AcDbEntity
  8
0
  6
Continuous
 62
   174
100
AcDbLine
 10
179.311472
 20
159.271329
 30
0.0
 11
179.311472
 21
158.885748
 31
0.0
  0
ARC
  5
299
100
AcDbEntity
  8
0
  6
Continuous
 62
   174
100
AcDbCircle
 10
181.561472
 20
208.675706
 30
0.0
 40
2.25
100
AcDbArc
 50
-270.0
 51
-180.0
  0
LINE
  5
29A
100
AcDbEntity
  8
0
  6
Continuous
 62
   174
100
AcDbLine
 10
687.811472
 20
200.894202
 30
0.0
 11
687.811472
 21
208.768832
 31
0.0
  0
LINE
  5
29B
100
AcDbEntity
  8
0
  6
Continuous
 62
   174
100
AcDbLine
 10
687.811472
 20
194.895744
 30
0.0
 11
687.811472
 21
200.894202
 31
0.0
  0
LINE
  5
29C
100
AcDbEntity
  8
0
  6
Continuous
 62
   174
100
AcDbLine
 10
224.761472
 20
195.625706
 30
0.0
 11
210.361472
 21
195.625706
 31
0.0
  0
LINE
  5
29D
100
AcDbEntity
  8
0
  6
Continuous
 62
   174
100
AcDbLine
 10
687.811472
 20
143.52267
 30
0.0
 11
687.811472
 21
145.398241
 31
0.0
  0
LINE
  5
29E
100
AcDbEntity
  8
0
  6
Continuous
 62
   174
100
AcDbLine
 10
642.361472
 20
192.025706
 30
0.0
 11
656.761472
 21
192.025706
 31
0.0
  0
LINE
  5
29F
100
AcDbEntity
  8
0
  6
Continuous
 62
   174
100
AcDbLine
 10
523.561472
 20
140.050706
 30
0.0
 11
490.442878
 21
140.050706
 31
0.0
  0
LINE
  5
2A0
100
AcDbEntity
  8
0
  6
Continuous
 62
   174
100
AcDbLine
 10
307.561472
 20
212.050706
 30
0.0
 11
253.561472
 21
212.050706
 31
0.0
  0
LINE
  5
2A1
100
AcDbEntity
  8
0
  6
Continuous
 62
   174
100
AcDbLine
 10
613.561472
 20
140.050706
 30
0.0
 11
685.561472
 21
140.050706
 31
0.0
  0
LINE
  5
2A2
100
AcDbEntity
  8
0
  6
Continuous
 62
   174
100
AcDbLine
 10
307.561472
 20
212.050706
 30
0.0
 11
343.561472
 21
212.050706
 31
0.0
  0
LINE
  5
2A3
100
AcDbEntity
  8
0
  6
Continuous
 62
   174
100
AcDbLine
 10
559.561472
 20
212.050706
 30
0.0
 11
523.561472
 21
212.050706
 31
0.0
  0
LINE
  5
2A4
100
AcDbEntity
  8
0
  6
Continuous
 62
   174
100
AcDbLine
 10
179.311472
 20
151.396698
 30
0.0
 11
179.311472
 21
143.907048
 31
0.0
  0
LINE
  5
2A5
100
AcDbEntity
  8
0
  6
Continuous
 62
   174
100
AcDbLine
 10
179.311472
 20
159.271329
 30
0.0
 11
179.311472
 21
151.396698
 31
0.0
  0
LINE
  5
2A6
100
AcDbEntity
  8
0
  6
Continuous
 62
   174
100
AcDbLine
 10
179.311472
 20
151.396698
 30
0.0
 11
179.311472
 21
143.522068
 31
0.0
  0
LINE
  5
2A7
100
AcDbEntity
  8
0
  6
Continuous
 62
   174
100
AcDbLine
 10
687.811472
 20
143.522068
 30
0.0
 11
687.811472
 21
143.907048
 31
0.0
  0
LINE
  5
2A8
100
AcDbEntity
  8
0
  6
Continuous
 62
   174
100
AcDbLine
 10
687.811472
 20
158.885748
 30
0.0
 11
687.811472
 21
159.271329
 31
0.0
  0
LINE
  5
2A9
100
AcDbEntity
  8
0
  6
Continuous
 62
   174
100
AcDbLine
 10
179.311472
 20
200.894202
 30
0.0
 11
179.311472
 21
193.405153
 31
0.0
  0
LINE
  5
2AA
100
AcDbEntity
  8
0
  6
Continuous
 62
   174
100
AcDbLine
 10
179.311472
 20
193.405153
 30
0.0
 11
179.311472
 21
193.019572
 31
0.0
  0
LINE
  5
2AB
100
AcDbEntity
  8
0
  6
Continuous
 62
   174
100
AcDbLine
 10
687.811472
 20
193.020174
 30
0.0
 11
687.811472
 21
194.895744
 31
0.0
  0
LINE
  5
2AC
100
AcDbEntity
  8
0
  6
Continuous
 62
   174
100
AcDbLine
 10
656.761472
 20
160.075706
 30
0.0
 11
642.361472
 21
160.075706
 31
0.0
  0
ARC
  5
2AD
100
AcDbEntity
  8
0
  6
Continuous
 62
   174
100
AcDbCircle
 10
487.561472
 20
149.050706
 30
0.0
 40
5.85
100
AcDbArc
 50
0.0
 51
180.0
  0
LINE
  5
2AE
100
AcDbEntity
  8
0
  6
Continuous
 62
   174
100
AcDbLine
 10
224.761472
 20
160.075706
 30
0.0
 11
210.361472
 21
160.075706
 31
0.0
  0
LINE
  5
2AF
100
AcDbEntity
  8
0
  6
Continuous
 62
   174
100
AcDbLine
 10
523.561472
 20
212.050706
 30
0.0
 11
382.442878
 21
212.050706
 31
0.0
  0
LINE
  5
2B0
100
AcDbEntity
  8
0
  6
Continuous
 62
   174
100
AcDbLine
 10
559.561472
 20
212.050706
 30
0.0
 11
559.561472
 21
140.050706
 31
0.0
  0
LINE
  5
2B1
100
AcDbEntity
  8
0
  6
Continuous
 62
   174
100
AcDbLine
 10
687.811472
 20
208.383252
 30
0.0
 11
687.811472
 21
208.768832
 31
0.0
  0
LINE
  5
2B2
100
AcDbEntity
  8
0
  6
Continuous
 62
   174
100
AcDbLine
 10
179.311472
 20
158.885748
 30
0.0
 11
179.311472
 21
151.396698
 31
0.0
  0
LINE
  5
2B3
100
AcDbEntity
  8
0
  6
Continuous
 62
   174
100
AcDbLine
 10
687.811472
 20
143.522068
 30
0.0
 11
687.811472
 21
151.396698
 31
0.0
  0
LINE
  5
2B4
100
AcDbEntity
  8
0
  6
Continuous
 62
   174
100
AcDbLine
 10
179.311472
 20
208.383252
 30
0.0
 11
179.311472
 21
200.894202
 31
0.0
  0
LINE
  5
2B5
100
AcDbEntity
  8
0
  6
Continuous
 62
   174
100
AcDbLine
 10
210.361472
 20
192.025706
 30
0.0
 11
224.761472
 21
192.025706
 31
0.0
  0
LINE
  5
2B6
100
AcDbEntity
  8
0
  6
Continuous
 62
   174
100
AcDbLine
 10
642.361472
 20
160.075706
 30
0.0
 11
642.361472
 21
156.475706
 31
0.0
  0
ARC
  5
2B7
100
AcDbEntity
  8
0
  6
Continuous
 62
   174
100
AcDbCircle
 10
406.561472
 20
176.050706
 30
0.0
 40
22.5
100
AcDbArc
 50
-120.010833
 51
-90.0
  0
ARC
  5
2B8
100
AcDbEntity
  8
0
  6
Continuous
 62
   174
100
AcDbCircle
 10
460.561472
 20
176.050706
 30
0.0
 40
22.5
100
AcDbArc
 50
-270.0
 51
-239.989167
  0
ARC
  5
2B9
100
AcDbEntity
  8
0
  6
Continuous
 62
   174
100
AcDbCircle
 10
460.561472
 20
176.050706
 30
0.0
 40
22.5
100
AcDbArc
 50
-90.0
 51
-60.017377
  0
ARC
  5
2BA
100
AcDbEntity
  8
0
  6
Continuous
 62
   174
100
AcDbCircle
 10
379.561472
 20
203.050706
 30
0.0
 40
5.85
100
AcDbArc
 50
0.0
 51
180.0
  0
LINE
  5
2BB
100
AcDbEntity
  8
0
  6
Continuous
 62
   174
100
AcDbLine
 10
210.361472
 20
156.475706
 30
0.0
 11
224.761472
 21
156.475706
 31
0.0
  0
ARC
  5
2BC
100
AcDbEntity
  8
0
  6
Continuous
 62
   174
100
AcDbCircle
 10
217.561472
 20
176.050706
 30
0.0
 40
6.075
100
AcDbArc
 50
90.0
 51
270.0
  0
LINE
  5
2BD
100
AcDbEntity
  8
0
  6
Continuous
 62
   174
100
AcDbLine
 10
559.561472
 20
140.050706
 30
0.0
 11
613.561472
 21
140.050706
 31
0.0
  0
LINE
  5
2BE
100
AcDbEntity
  8
0
  6
Continuous
 62
   174
100
AcDbLine
 10
343.561472
 20
212.050706
 30
0.0
 11
343.561472
 21
140.050706
 31
0.0
  0
LINE
  5
2BF
100
AcDbEntity
  8
0
  6
Continuous
 62
   174
100
AcDbLine
 10
523.561472
 20
212.050706
 30
0.0
 11
523.561472
 21
140.050706
 31
0.0
  0
LINE
  5
2C0
100
AcDbEntity
  8
0
  6
Continuous
 62
   174
100
AcDbLine
 10
687.811472
 20
193.019572
 30
0.0
 11
687.811472
 21
193.405153
 31
0.0
  0
ARC
  5
2C1
100
AcDbEntity
  8
0
  6
Continuous
 62
   174
100
AcDbCircle
 10
181.561472
 20
159.175706
 30
0.0
 40
2.25
100
AcDbArc
 50
-270.0
 51
-180.0
  0
ARC
  5
2C2
100
AcDbEntity
  8
0
  6
Continuous
 62
   174
100
AcDbCircle
 10
181.561472
 20
143.425706
 30
0.0
 40
2.25
100
AcDbArc
 50
180.0
 51
270.0
  0
ARC
  5
2C3
100
AcDbEntity
  8
0
  6
Continuous
 62
   174
100
AcDbCircle
 10
685.561472
 20
143.425706
 30
0.0
 40
2.25
100
AcDbArc
 50
-90.0
 51
0.0
  0
LINE
  5
2C4
100
AcDbEntity
  8
0
  6
Continuous
 62
   174
100
AcDbLine
 10
687.811472
 20
151.396698
 30
0.0
 11
687.811472
 21
159.271329
 31
0.0
  0
LINE
  5
2C5
100
AcDbEntity
  8
0
  6
Continuous
 62
   174
100
AcDbLine
 10
179.311472
 20
200.894202
 30
0.0
 11
179.311472
 21
193.019572
 31
0.0
  0
LINE
  5
2C6
100
AcDbEntity
  8
0
  6
Continuous
 62
   174
100
AcDbLine
 10
224.761472
 20
192.025706
 30
0.0
 11
224.761472
 21
195.625706
 31
0.0
  0
ARC
  5
2C7
100
AcDbEntity
  8
0
  6
Continuous
 62
   174
100
AcDbCircle
 10
460.561472
 20
176.050706
 30
0.0
 40
22.5
100
AcDbArc
 50
-299.982623
 51
-270.0
  0
LINE
  5
2C8
100
AcDbEntity
  8
0
  6
Continuous
 62
   174
100
AcDbLine
 10
642.361472
 20
195.625706
 30
0.0
 11
642.361472
 21
192.025706
 31
0.0
  0
LINE
  5
2C9
100
AcDbEntity
  8
0
  6
Continuous
 62
   174
100
AcDbLine
 10
253.561472
 20
140.050706
 30
0.0
 11
181.561472
 21
140.050706
 31
0.0
  0
LINE
  5
2CA
100
AcDbEntity
  8
0
  6
Continuous
 62
   174
100
AcDbLine
 10
559.561472
 20
212.050706
 30
0.0
 11
559.561472
 21
140.050706
 31
0.0
  0
LINE
  5
2CB
100
AcDbEntity
  8
0
  6
Continuous
 62
   174
100
AcDbLine
 10
687.811472
 20
193.019572
 30
0.0
 11
687.811472
 21
200.894202
 31
0.0
  0
LINE
  5
2CC
100
AcDbEntity
  8
0
  6
Continuous
 62
   174
100
AcDbLine
 10
687.811472
 20
151.396698
 30
0.0
 11
687.811472
 21
158.885748
 31
0.0
  0
LINE
  5
2CD
100
AcDbEntity
  8
0
  6
Continuous
 62
   174
100
AcDbLine
 10
687.811472
 20
143.907048
 30
0.0
 11
687.811472
 21
151.396698
 31
0.0
  0
ARC
  5
2CE
100
AcDbEntity
  8
0
  6
Continuous
 62
   174
100
AcDbCircle
 10
181.561472
 20
192.925706
 30
0.0
 40
2.25
100
AcDbArc
 50
180.0
 51
270.0
  0
LINE
  5
2CF
100
AcDbEntity
  8
0
  6
Continuous
 62
   174
100
AcDbLine
 10
179.311472
 20
151.396698
 30
0.0
 11
179.311472
 21
143.522068
 31
0.0
  0
LINE
  5
2D0
100
AcDbEntity
  8
0
  6
Continuous
 62
   174
100
AcDbLine
 10
179.311472
 20
157.395156
 30
0.0
 11
179.311472
 21
151.396698
 31
0.0
  0
LINE
  5
2D1
100
AcDbEntity
  8
0
  6
Continuous
 62
   174
100
AcDbLine
 10
656.761472
 20
156.475706
 30
0.0
 11
656.761472
 21
160.075706
 31
0.0
  0
LINE
  5
2D2
100
AcDbEntity
  8
0
  6
Continuous
 62
   174
100
AcDbLine
 10
224.761472
 20
156.475706
 30
0.0
 11
224.761472
 21
160.075706
 31
0.0
  0
LINE
  5
2D3
100
AcDbEntity
  8
0
  6
Continuous
 62
   174
100
AcDbLine
 10
343.561472
 20
140.050706
 30
0.0
 11
343.561472
 21
212.050706
 31
0.0
  0
LINE
  5
2D4
100
AcDbEntity
  8
0
  6
Continuous
 62
   174
100
AcDbLine
 10
687.811472
 20
200.894202
 30
0.0
 11
687.811472
 21
208.383252
 31
0.0
  0
LINE
  5
2D5
100
AcDbEntity
  8
0
  6
Continuous
 62
   174
100
AcDbLine
 10
687.811472
 20
193.405153
 30
0.0
 11
687.811472
 21
200.894202
 31
0.0
  0
LINE
  5
2D6
100
AcDbEntity
  8
0
  6
Continuous
 62
   174
100
AcDbLine
 10
687.811472
 20
200.894202
 30
0.0
 11
687.811472
 21
208.768832
 31
0.0
  0
ARC
  5
2D7
100
AcDbEntity
  8
0
  6
Continuous
 62
   174
100
AcDbCircle
 10
685.561472
 20
159.175706
 30
0.0
 40
2.25
100
AcDbArc
 50
0.0
 51
90.0
  0
LINE
  5
2D8
100
AcDbEntity
  8
0
  6
Continuous
 62
   174
100
AcDbLine
 10
210.361472
 20
195.625706
 30
0.0
 11
210.361472
 21
192.025706
 31
0.0
  0
LINE
  5
2D9
100
AcDbEntity
  8
0
  6
Continuous
 62
   174
100
AcDbLine
 10
179.311472
 20
206.89266
 30
0.0
 11
179.311472
 21
200.894202
 31
0.0
  0
ARC
  5
2DA
100
AcDbEntity
  8
0
  6
Continuous
 62
   174
100
AcDbCircle
 10
406.561472
 20
176.050706
 30
0.0
 40
22.5
100
AcDbArc
 50
-270.0
 51
-239.989167
  0
ARC
  5
2DB
100
AcDbEntity
  8
0
  6
Continuous
 62
   174
100
AcDbCircle
 10
406.561472
 20
176.050706
 30
0.0
 40
22.5
100
AcDbArc
 50
-90.0
 51
-60.017377
  0
LINE
  5
2DC
100
AcDbEntity
  8
0
  6
Continuous
 62
   174
100
AcDbLine
 10
656.761472
 20
192.025706
 30
0.0
 11
656.761472
 21
195.625706
 31
0.0
  0
ARC
  5
2DD
100
AcDbEntity
  8
0
  6
Continuous
 62
   174
100
AcDbCircle
 10
379.561472
 20
203.050706
 30
0.0
 40
9.45
100
AcDbArc
 50
0.0
 51
72.24721
  0
LINE
  5
2DE
100
AcDbEntity
  8
0
  6
Continuous
 62
   174
100
AcDbLine
 10
630.211472
 20
168.850706
 30
0.0
 11
633.811472
 21
168.850706
 31
0.0
  0
LINE
  5
2DF
100
AcDbEntity
  8
0
  6
Continuous
 62
   174
100
AcDbLine
 10
233.311472
 20
183.250706
 30
0.0
 11
233.311472
 21
168.850706
 31
0.0
  0
ARC
  5
2E0
100
AcDbEntity
  8
0
  6
Continuous
 62
   174
100
AcDbCircle
 10
487.561472
 20
149.050706
 30
0.0
 40
9.45
100
AcDbArc
 50
-72.24721
 51
0.0
  0
LINE
  5
2E1
100
AcDbEntity
  8
0
  6
Continuous
 62
   174
100
AcDbLine
 10
490.442878
 20
140.050706
 30
0.0
 11
484.680066
 21
140.050706
 31
0.0
  0
ARC
  5
2E2
100
AcDbEntity
  8
0
  6
Continuous
 62
   174
100
AcDbCircle
 10
379.561472
 20
203.050706
 30
0.0
 40
9.45
100
AcDbArc
 50
-180.0
 51
0.0
  0
ARC
  5
2E3
100
AcDbEntity
  8
0
  6
Continuous
 62
   174
100
AcDbCircle
 10
217.561472
 20
176.050706
 30
0.0
 40
11.25
100
AcDbArc
 50
-261.359702
 51
-98.640298
  0
ARC
  5
2E4
100
AcDbEntity
  8
0
  6
Continuous
 62
   174
100
AcDbCircle
 10
649.561472
 20
176.050706
 30
0.0
 40
11.25
100
AcDbArc
 50
-90.0
 51
-81.359702
  0
LINE
  5
2E5
100
AcDbEntity
  8
0
  6
Continuous
 62
   174
100
AcDbLine
 10
484.680066
 20
140.050706
 30
0.0
 11
343.561472
 21
140.050706
 31
0.0
  0
ARC
  5
2E6
100
AcDbEntity
  8
0
  6
Continuous
 62
   174
100
AcDbCircle
 10
406.561472
 20
176.050706
 30
0.0
 40
22.5
100
AcDbArc
 50
0.0
 51
180.0
  0
ARC
  5
2E7
100
AcDbEntity
  8
0
  6
Continuous
 62
   174
100
AcDbCircle
 10
379.561472
 20
203.050706
 30
0.0
 40
9.45
100
AcDbArc
 50
107.75279
 51
180.0
  0
LINE
  5
2E8
100
AcDbEntity
  8
0
  6
Continuous
 62
   174
100
AcDbLine
 10
630.211472
 20
183.250706
 30
0.0
 11
630.211472
 21
168.850706
 31
0.0
  0
ARC
  5
2E9
100
AcDbEntity
  8
0
  6
Continuous
 62
   174
100
AcDbCircle
 10
325.561472
 20
176.050706
 30
0.0
 40
9.0
100
AcDbArc
 50
0.0
 51
180.0
  0
ARC
  5
2EA
100
AcDbEntity
  8
0
  6
Continuous
 62
   174
100
AcDbCircle
 10
541.561472
 20
176.050706
 30
0.0
 40
9.0
100
AcDbArc
 50
0.0
 51
180.0
  0
ARC
  5
2EB
100
AcDbEntity
  8
0
  6
Continuous
 62
   174
100
AcDbCircle
 10
649.561472
 20
176.050706
 30
0.0
 40
11.25
100
AcDbArc
 50
-81.359702
 51
81.359702
  0
ARC
  5
2EC
100
AcDbEntity
  8
0
  6
Continuous
 62
   174
100
AcDbCircle
 10
325.561472
 20
176.050706
 30
0.0
 40
9.0
100
AcDbArc
 50
180.0
 51
360.0
  0
ARC
  5
2ED
100
AcDbEntity
  8
0
  6
Continuous
 62
   174
100
AcDbCircle
 10
406.561472
 20
176.050706
 30
0.0
 40
22.5
100
AcDbArc
 50
-180.0
 51
0.0
  0
LINE
  5
2EE
100
AcDbEntity
  8
0
  6
Continuous
 62
   174
100
AcDbLine
 10
633.811472
 20
183.250706
 30
0.0
 11
630.211472
 21
183.250706
 31
0.0
  0
ARC
  5
2EF
100
AcDbEntity
  8
0
  6
Continuous
 62
   174
100
AcDbCircle
 10
460.561472
 20
176.050706
 30
0.0
 40
22.5
100
AcDbArc
 50
0.0
 51
180.0
  0
ARC
  5
2F0
100
AcDbEntity
  8
0
  6
Continuous
 62
   174
100
AcDbCircle
 10
217.561472
 20
176.050706
 30
0.0
 40
11.25
100
AcDbArc
 50
-98.640298
 51
-90.0
  0
LINE
  5
2F1
100
AcDbEntity
  8
0
  6
Continuous
 62
   174
100
AcDbLine
 10
382.442878
 20
212.050706
 30
0.0
 11
376.680066
 21
212.050706
 31
0.0
  0
LINE
  5
2F2
100
AcDbEntity
  8
0
  6
Continuous
 62
   174
100
AcDbLine
 10
236.911472
 20
168.850706
 30
0.0
 11
236.911472
 21
183.250706
 31
0.0
  0
ARC
  5
2F3
100
AcDbEntity
  8
0
  6
Continuous
 62
   174
100
AcDbCircle
 10
649.561472
 20
176.050706
 30
0.0
 40
11.25
100
AcDbArc
 50
-261.359702
 51
-98.640298
  0
ARC
  5
2F4
100
AcDbEntity
  8
0
  6
Continuous
 62
   174
100
AcDbCircle
 10
541.561472
 20
176.050706
 30
0.0
 40
9.0
100
AcDbArc
 50
-180.0
 51
0.0
  0
ARC
  5
2F5
100
AcDbEntity
  8
0
  6
Continuous
 62
   174
100
AcDbCircle
 10
649.561472
 20
176.050706
 30
0.0
 40
11.25
100
AcDbArc
 50
-278.640298
 51
-270.0
  0
LINE
  5
2F6
100
AcDbEntity
  8
0
  6
Continuous
 62
   174
100
AcDbLine
 10
633.811472
 20
168.850706
 30
0.0
 11
633.811472
 21
183.250706
 31
0.0
  0
ARC
  5
2F7
100
AcDbEntity
  8
0
  6
Continuous
 62
   174
100
AcDbCircle
 10
217.561472
 20
176.050706
 30
0.0
 40
11.25
100
AcDbArc
 50
-90.0
 51
-81.359702
  0
ARC
  5
2F8
100
AcDbEntity
  8
0
  6
Continuous
 62
   174
100
AcDbCircle
 10
487.561472
 20
149.050706
 30
0.0
 40
9.45
100
AcDbArc
 50
180.0
 51
252.24721
  0
ARC
  5
2F9
100
AcDbEntity
  8
0
  6
Continuous
 62
   174
100
AcDbCircle
 10
649.561472
 20
176.050706
 30
0.0
 40
11.25
100
AcDbArc
 50
-98.640298
 51
-90.0
  0
ARC
  5
2FA
100
AcDbEntity
  8
0
  6
Continuous
 62
   174
100
AcDbCircle
 10
460.561472
 20
176.050706
 30
0.0
 40
22.5
100
AcDbArc
 50
-180.0
 51
0.0
  0
ARC
  5
2FB
100
AcDbEntity
  8
0
  6
Continuous
 62
   174
100
AcDbCircle
 10
649.561472
 20
176.050706
 30
0.0
 40
11.25
100
AcDbArc
 50
-270.0
 51
-261.359702
  0
LINE
  5
2FC
100
AcDbEntity
  8
0
  6
Continuous
 62
   174
100
AcDbLine
 10
236.911472
 20
183.250706
 30
0.0
 11
233.311472
 21
183.250706
 31
0.0
  0
ARC
  5
2FD
100
AcDbEntity
  8
0
  6
Continuous
 62
   174
100
AcDbCircle
 10
217.561472
 20
176.050706
 30
0.0
 40
11.25
100
AcDbArc
 50
-81.359702
 51
81.359702
  0
LINE
  5
2FE
100
AcDbEntity
  8
0
  6
Continuous
 62
   174
100
AcDbLine
 10
233.311472
 20
168.850706
 30
0.0
 11
236.911472
 21
168.850706
 31
0.0
  0
ARC
  5
2FF
100
AcDbEntity
  8
0
  6
Continuous
 62
   174
100
AcDbCircle
 10
487.561472
 20
149.050706
 30
0.0
 40
9.45
100
AcDbArc
 50
0.0
 51
180.0
  0
LINE
  5
300
100
AcDbEntity
  8
0
  6
Continuous
 62
   174
100
AcDbLine
 10
376.680066
 20
212.050706
 30
0.0
 11
343.561472
 21
212.050706
 31
0.0
  0
ARC
  5
301
100
AcDbEntity
  8
0
  6
Continuous
 62
   174
100
AcDbCircle
 10
217.561472
 20
176.050706
 30
0.0
 40
11.25
100
AcDbArc
 50
-270.0
 51
-261.359702
  0
ARC
  5
302
100
AcDbEntity
  8
0
  6
Continuous
 62
   174
100
AcDbCircle
 10
217.561472
 20
176.050706
 30
0.0
 40
11.25
100
AcDbArc
 50
-278.640298
 51
-270.0
  0
ENDBLK
  5
303
100
AcDbEntity
  8
0
100
AcDbBlockEnd
  0
BLOCK
  5
306
100
AcDbEntity
  8
0
100
AcDbBlockBegin
  2
*B3
 70
     0
 10
0.0
 20
0.0
 30
0.0
  3
*B3
  1

  0
LINE
  5
307
100
AcDbEntity
  8
0
  6
Continuous
 62
   172
100
AcDbLine
 10
281.780595
 20
327.6757
 30
0.0
 11
241.974835
 21
259.984556
 31
0.0
  0
LINE
  5
308
100
AcDbEntity
  8
0
  6
Continuous
 62
   172
100
AcDbLine
 10
241.974835
 20
259.984556
 30
0.0
 11
223.055595
 21
259.984556
 31
0.0
  0
ENDBLK
  5
309
100
AcDbEntity
  8
0
100
AcDbBlockEnd
  0
BLOCK
  5
30C
100
AcDbEntity
  8
0
100
AcDbBlockBegin
  2
*B4
 70
     0
 10
0.0
 20
0.0
 30
0.0
  3
*B4
  1

  0
LINE
  5
30D
100
AcDbEntity
  8
0
  6
Continuous
 62
   172
100
AcDbLine
 10
238.043734
 20
264.087561
 30
0.0
 11
233.993734
 21
265.5757
 31
0.0
  0
LINE
  5
30E
100
AcDbEntity
  8
0
  6
Continuous
 62
   172
100
AcDbLine
 10
238.043734
 20
264.087561
 30
0.0
 11
233.993734
 21
262.8757
 31
0.0
  0
LINE
  5
30F
100
AcDbEntity
  8
0
  6
Continuous
 62
   172
100
AcDbLine
 10
235.343734
 20
264.087561
 30
0.0
 11
238.043734
 21
264.087561
 31
0.0
  0
LINE
  5
310
100
AcDbEntity
  8
0
  6
Continuous
 62
   172
100
AcDbLine
 10
238.043734
 20
287.313839
 30
0.0
 11
233.993734
 21
285.8257
 31
0.0
  0
LINE
  5
311
100
AcDbEntity
  8
0
  6
Continuous
 62
   172
100
AcDbLine
 10
238.043734
 20
287.313839
 30
0.0
 11
233.993734
 21
288.5257
 31
0.0
  0
LINE
  5
312
100
AcDbEntity
  8
0
  6
Continuous
 62
   172
100
AcDbLine
 10
235.343734
 20
287.313839
 30
0.0
 11
238.043734
 21
287.313839
 31
0.0
  0
ARC
  5
313
100
AcDbEntity
  8
0
  6
Continuous
 62
   172
100
AcDbCircle
 10
235.343734
 20
275.7007
 30
0.0
 40
11.613139
100
AcDbArc
 50
-270.0
 51
-90.0
  0
ENDBLK
  5
314
100
AcDbEntity
  8
0
100
AcDbBlockEnd
  0
BLOCK
  5
317
100
AcDbEntity
  8
0
100
AcDbBlockBegin
  2
*B5
 70
     0
 10
0.0
 20
0.0
 30
0.0
  3
*B5
  1

  0
ENDBLK
  5
318
100
AcDbEntity
  8
0
100
AcDbBlockEnd
  0
BLOCK
  5
31A
100
AcDbEntity
  8
0
100
AcDbBlockBegin
  2
*B6
 70
     0
 10
0.0
 20
0.0
 30
0.0
  3
*B6
  1

  0
LINE
  5
31B
100
AcDbEntity
  8
0
  6
Continuous
 62
     0
100
AcDbLine
 10
460.53323
 20
478.080464
 30
0.0
 11
523.52967
 21
478.080464
 31
0.0
  0
SOLID
  5
31C
100
AcDbEntity
  8
0
  6
Continuous
 62
     0
100
AcDbTrace
 10
470.532465
 20
480.080551
 30
0.0
 11
460.53323
 21
478.080464
 31
0.0
 12
470.532465
 22
476.080376
 32
0.0
 13
470.532465
 23
476.080376
 33
0.0
  0
SOLID
  5
31D
100
AcDbEntity
  8
0
  6
Continuous
 62
     0
100
AcDbTrace
 10
513.529834
 20
476.080376
 30
0.0
 11
523.52967
 21
478.080464
 31
0.0
 12
513.529834
 22
480.080551
 32
0.0
 13
513.529834
 23
480.080551
 33
0.0
  0
ENDBLK
  5
31E
100
AcDbEntity
  8
0
100
AcDbBlockEnd
  0
BLOCK
  5
321
100
AcDbEntity
  8
0
100
AcDbBlockBegin
  2
*B7
 70
     0
 10
0.0
 20
0.0
 30
0.0
  3
*B7
  1

  0
LINE
  5
322
100
AcDbEntity
  8
0
  6
Continuous
 62
     0
100
AcDbLine
 10
406.536883
 20
478.080464
 30
0.0
 11
460.53323
 21
478.080464
 31
0.0
  0
SOLID
  5
323
100
AcDbEntity
  8
0
  6
Continuous
 62
     0
100
AcDbTrace
 10
416.536117
 20
480.080551
 30
0.0
 11
406.536883
 21
478.080464
 31
0.0
 12
416.536117
 22
476.080376
 32
0.0
 13
416.536117
 23
476.080376
 33
0.0
  0
SOLID
  5
324
100
AcDbEntity
  8
0
  6
Continuous
 62
     0
100
AcDbTrace
 10
450.533996
 20
476.080376
 30
0.0
 11
460.53323
 21
478.080464
 31
0.0
 12
450.533996
 22
480.080551
 32
0.0
 13
450.533996
 23
480.080551
 33
0.0
  0
ENDBLK
  5
325
100
AcDbEntity
  8
0
100
AcDbBlockEnd
  0
BLOCK
  5
328
100
AcDbEntity
  8
0
100
AcDbBlockBegin
  2
*B8
 70
     0
 10
0.0
 20
0.0
 30
0.0
  3
*B8
  1

  0
LINE
  5
329
100
AcDbEntity
  8
0
  6
Continuous
 62
     0
100
AcDbLine
 10
343.540443
 20
252.091028
 30
0.0
 11
523.52967
 21
252.091028
 31
0.0
  0
SOLID
  5
32A
100
AcDbEntity
  8
0
  6
Continuous
 62
     0
100
AcDbTrace
 10
353.539677
 20
254.091116
 30
0.0
 11
343.540443
 21
252.091028
 31
0.0
 12
353.539677
 22
250.090941
 32
0.0
 13
353.539677
 23
250.090941
 33
0.0
  0
SOLID
  5
32B
100
AcDbEntity
  8
0
  6
Continuous
 62
     0
100
AcDbTrace
 10
513.529834
 20
250.090941
 30
0.0
 11
523.52967
 21
252.091028
 31
0.0
 12
513.529834
 22
254.091116
 32
0.0
 13
513.529834
 23
254.091116
 33
0.0
  0
ENDBLK
  5
32C
100
AcDbEntity
  8
0
100
AcDbBlockEnd
  0
BLOCK
  5
32F
100
AcDbEntity
  8
0
100
AcDbBlockBegin
  2
*B9
 70
     0
 10
0.0
 20
0.0
 30
0.0
  3
*B9
  1

  0
LINE
  5
330
100
AcDbEntity
  8
0
  6
Continuous
 62
     0
100
AcDbLine
 10
487.531704
 20
278.08976
 30
0.0
 11
523.52967
 21
278.08976
 31
0.0
  0
SOLID
  5
331
100
AcDbEntity
  8
0
  6
Continuous
 62
     0
100
AcDbTrace
 10
497.530939
 20
280.089847
 30
0.0
 11
487.531704
 21
278.08976
 31
0.0
 12
497.530939
 22
276.089672
 32
0.0
 13
497.530939
 23
276.089672
 33
0.0
  0
SOLID
  5
332
100
AcDbEntity
  8
0
  6
Continuous
 62
     0
100
AcDbTrace
 10
513.529834
 20
276.089672
 30
0.0
 11
523.52967
 21
278.08976
 31
0.0
 12
513.529834
 22
280.089847
 32
0.0
 13
513.529834
 23
280.089847
 33
0.0
  0
ENDBLK
  5
333
100
AcDbEntity
  8
0
100
AcDbBlockEnd
  0
BLOCK
  5
336
100
AcDbEntity
  8
0
100
AcDbBlockBegin
  2
*B10
 70
     0
 10
0.0
 20
0.0
 30
0.0
  3
*B10
  1

  0
LINE
  5
337
100
AcDbEntity
  8
0
  6
Continuous
 62
     0
100
AcDbLine
 10
433.534756
 20
278.08976
 30
0.0
 11
487.531704
 21
278.08976
 31
0.0
  0
SOLID
  5
338
100
AcDbEntity
  8
0
  6
Continuous
 62
     0
100
AcDbTrace
 10
443.534592
 20
280.089847
 30
0.0
 11
433.534756
 21
278.08976
 31
0.0
 12
443.534592
 22
276.089672
 32
0.0
 13
443.534592
 23
276.089672
 33
0.0
  0
SOLID
  5
339
100
AcDbEntity
  8
0
  6
Continuous
 62
     0
100
AcDbTrace
 10
477.53247
 20
276.089672
 30
0.0
 11
487.531704
 21
278.08976
 31
0.0
 12
477.53247
 22
280.089847
 32
0.0
 13
477.53247
 23
280.089847
 33
0.0
  0
ENDBLK
  5
33A
100
AcDbEntity
  8
0
100
AcDbBlockEnd
  0
BLOCK
  5
33D
100
AcDbEntity
  8
0
100
AcDbBlockBegin
  2
*B11
 70
     0
 10
0.0
 20
0.0
 30
0.0
  3
*B11
  1

  0
LINE
  5
33E
100
AcDbEntity
  8
0
  6
Continuous
 62
     0
100
AcDbLine
 10
379.538409
 20
278.08976
 30
0.0
 11
433.534756
 21
278.08976
 31
0.0
  0
SOLID
  5
33F
100
AcDbEntity
  8
0
  6
Continuous
 62
     0
100
AcDbTrace
 10
389.537643
 20
280.089847
 30
0.0
 11
379.538409
 21
278.08976
 31
0.0
 12
389.537643
 22
276.089672
 32
0.0
 13
389.537643
 23
276.089672
 33
0.0
  0
SOLID
  5
340
100
AcDbEntity
  8
0
  6
Continuous
 62
     0
100
AcDbTrace
 10
423.535521
 20
276.089672
 30
0.0
 11
433.534756
 21
278.08976
 31
0.0
 12
423.535521
 22
280.089847
 32
0.0
 13
423.535521
 23
280.089847
 33
0.0
  0
ENDBLK
  5
341
100
AcDbEntity
  8
0
100
AcDbBlockEnd
  0
BLOCK
  5
344
100
AcDbEntity
  8
0
100
AcDbBlockBegin
  2
*B12
 70
     0
 10
0.0
 20
0.0
 30
0.0
  3
*B12
  1

  0
LINE
  5
345
100
AcDbEntity
  8
0
  6
Continuous
 62
     0
100
AcDbLine
 10
431.53527
 20
454.08182
 30
0.0
 11
489.531792
 21
454.08182
 31
0.0
  0
SOLID
  5
346
100
AcDbEntity
  8
0
  6
Continuous
 62
     0
100
AcDbTrace
 10
441.534504
 20
452.081733
 30
0.0
 11
451.533739
 21
454.08182
 31
0.0
 12
441.534504
 22
456.081306
 32
0.0
 13
441.534504
 23
456.081306
 33
0.0
  0
SOLID
  5
347
100
AcDbEntity
  8
0
  6
Continuous
 62
     0
100
AcDbTrace
 10
479.531956
 20
456.081306
 30
0.0
 11
469.532722
 21
454.08182
 31
0.0
 12
479.531956
 22
452.081733
 32
0.0
 13
479.531956
 23
452.081733
 33
0.0
  0
ENDBLK
  5
348
100
AcDbEntity
  8
0
100
AcDbBlockEnd
  0
BLOCK
  5
34B
100
AcDbEntity
  8
0
100
AcDbBlockBegin
  2
*B13
 70
     0
 10
0.0
 20
0.0
 30
0.0
  3
*B13
  1

  0
LINE
  5
34C
100
AcDbEntity
  8
0
  6
Continuous
 62
     0
100
AcDbLine
 10
406.786518
 20
368.085877
 30
0.0
 11
472.142159
 21
368.085877
 31
0.0
  0
SOLID
  5
34D
100
AcDbEntity
  8
0
  6
Continuous
 62
     0
100
AcDbTrace
 10
416.785752
 20
366.08579
 30
0.0
 11
426.785588
 21
368.085877
 31
0.0
 12
416.785752
 22
370.085363
 32
0.0
 13
416.785752
 23
370.085363
 33
0.0
  0
SOLID
  5
34E
100
AcDbEntity
  8
0
  6
Continuous
 62
     0
100
AcDbTrace
 10
450.283759
 20
370.085363
 30
0.0
 11
440.284525
 21
368.085877
 31
0.0
 12
450.283759
 22
366.08579
 32
0.0
 13
450.283759
 23
366.08579
 33
0.0
  0
ENDBLK
  5
34F
100
AcDbEntity
  8
0
100
AcDbBlockEnd
  0
BLOCK
  5
352
100
AcDbEntity
  8
0
100
AcDbBlockBegin
  2
*B14
 70
     0
 10
0.0
 20
0.0
 30
0.0
  3
*B14
  1

  0
LINE
  5
353
100
AcDbEntity
  8
0
  6
Continuous
 62
     0
100
AcDbLine
 10
379.538409
 20
116.097711
 30
0.0
 11
487.531704
 21
116.097711
 31
0.0
  0
SOLID
  5
354
100
AcDbEntity
  8
0
  6
Continuous
 62
     0
100
AcDbTrace
 10
389.537643
 20
118.097197
 30
0.0
 11
379.538409
 21
116.097711
 31
0.0
 12
389.537643
 22
114.097623
 32
0.0
 13
389.537643
 23
114.097623
 33
0.0
  0
SOLID
  5
355
100
AcDbEntity
  8
0
  6
Continuous
 62
     0
100
AcDbTrace
 10
477.53247
 20
114.097623
 30
0.0
 11
487.531704
 21
116.097711
 31
0.0
 12
477.53247
 22
118.097197
 32
0.0
 13
477.53247
 23
118.097197
 33
0.0
  0
ENDBLK
  5
356
100
AcDbEntity
  8
0
100
AcDbBlockEnd
  0
BLOCK
  5
359
100
AcDbEntity
  8
0
100
AcDbBlockBegin
  2
*B15
 70
     0
 10
0.0
 20
0.0
 30
0.0
  3
*B15
  1

  0
LINE
  5
35A
100
AcDbEntity
  8
0
  6
Continuous
 62
     0
100
AcDbLine
 10
487.531704
 20
116.097711
 30
0.0
 11
523.52967
 21
116.097711
 31
0.0
  0
SOLID
  5
35B
100
AcDbEntity
  8
0
  6
Continuous
 62
     0
100
AcDbTrace
 10
497.530939
 20
118.097197
 30
0.0
 11
487.531704
 21
116.097711
 31
0.0
 12
497.530939
 22
114.097623
 32
0.0
 13
497.530939
 23
114.097623
 33
0.0
  0
SOLID
  5
35C
100
AcDbEntity
  8
0
  6
Continuous
 62
     0
100
AcDbTrace
 10
513.529834
 20
114.097623
 30
0.0
 11
523.52967
 21
116.097711
 31
0.0
 12
513.529834
 22
118.097197
 32
0.0
 13
513.529834
 23
118.097197
 33
0.0
  0
ENDBLK
  5
35D
100
AcDbEntity
  8
0
100
AcDbBlockEnd
  0
BLOCK
  5
360
100
AcDbEntity
  8
0
100
AcDbBlockBegin
  2
*B16
 70
     0
 10
0.0
 20
0.0
 30
0.0
  3
*B16
  1

  0
LINE
  5
361
100
AcDbEntity
  8
0
  6
Continuous
 62
     0
100
AcDbLine
 10
361.977941
 20
203.143925
 30
0.0
 11
361.977941
 21
149.146374
 31
0.0
  0
SOLID
  5
362
100
AcDbEntity
  8
0
  6
Continuous
 62
     0
100
AcDbTrace
 10
363.978029
 20
193.14469
 30
0.0
 11
361.977941
 21
203.143925
 31
0.0
 12
359.977854
 22
193.14469
 32
0.0
 13
359.977854
 23
193.14469
 33
0.0
  0
SOLID
  5
363
100
AcDbEntity
  8
0
  6
Continuous
 62
     0
100
AcDbTrace
 10
359.977854
 20
159.14621
 30
0.0
 11
361.977941
 21
149.146374
 31
0.0
 12
363.978029
 22
159.14621
 32
0.0
 13
363.978029
 23
159.14621
 33
0.0
  0
ENDBLK
  5
364
100
AcDbEntity
  8
0
100
AcDbBlockEnd
  0
BLOCK
  5
367
100
AcDbEntity
  8
0
100
AcDbBlockBegin
  2
*B17
 70
     0
 10
0.0
 20
0.0
 30
0.0
  3
*B17
  1

  0
LINE
  5
368
100
AcDbEntity
  8
0
  6
Continuous
 62
     0
100
AcDbLine
 10
181.550198
 20
500.079622
 30
0.0
 11
685.519313
 21
500.079622
 31
0.0
  0
SOLID
  5
369
100
AcDbEntity
  8
0
  6
Continuous
 62
     0
100
AcDbTrace
 10
191.550034
 20
502.079108
 30
0.0
 11
181.550198
 21
500.079622
 31
0.0
 12
191.550034
 22
498.079534
 32
0.0
 13
191.550034
 23
498.079534
 33
0.0
  0
SOLID
  5
36A
100
AcDbEntity
  8
0
  6
Continuous
 62
     0
100
AcDbTrace
 10
675.520079
 20
498.079534
 30
0.0
 11
685.519313
 21
500.079622
 31
0.0
 12
675.520079
 22
502.079108
 32
0.0
 13
675.520079
 23
502.079108
 33
0.0
  0
ENDBLK
  5
36B
100
AcDbEntity
  8
0
100
AcDbBlockEnd
  0
BLOCK
  5
36E
100
AcDbEntity
  8
0
100
AcDbBlockBegin
  2
*B18
 70
     0
 10
0.0
 20
0.0
 30
0.0
  3
*B18
  1

  0
LINE
  5
36F
100
AcDbEntity
  8
0
  6
Continuous
 62
     0
100
AcDbLine
 10
154.990841
 20
308.139796
 30
0.0
 11
154.990841
 21
425.134388
 31
0.0
  0
SOLID
  5
370
100
AcDbEntity
  8
0
  6
Continuous
 62
     0
100
AcDbTrace
 10
152.990753
 20
318.139031
 30
0.0
 11
154.990841
 21
308.139796
 31
0.0
 12
156.990327
 22
318.139031
 32
0.0
 13
156.990327
 23
318.139031
 33
0.0
  0
SOLID
  5
371
100
AcDbEntity
  8
0
  6
Continuous
 62
     0
100
AcDbTrace
 10
156.990327
 20
415.134552
 30
0.0
 11
154.990841
 21
425.134388
 31
0.0
 12
152.990753
 22
415.134552
 32
0.0
 13
152.990753
 23
415.134552
 33
0.0
  0
ENDBLK
  5
372
100
AcDbEntity
  8
0
100
AcDbBlockEnd
  0
BLOCK
  5
375
100
AcDbEntity
  8
0
100
AcDbBlockBegin
  2
*B19
 70
     0
 10
0.0
 20
0.0
 30
0.0
  3
*B19
  1

  0
LINE
  5
376
100
AcDbEntity
  8
0
  6
Continuous
 62
     0
100
AcDbLine
 10
154.990841
 20
140.146883
 30
0.0
 11
154.990841
 21
212.143416
 31
0.0
  0
SOLID
  5
377
100
AcDbEntity
  8
0
  6
Continuous
 62
     0
100
AcDbTrace
 10
152.990753
 20
150.146719
 30
0.0
 11
154.990841
 21
140.146883
 31
0.0
 12
156.990327
 22
150.146719
 32
0.0
 13
156.990327
 23
150.146719
 33
0.0
  0
SOLID
  5
378
100
AcDbEntity
  8
0
  6
Continuous
 62
     0
100
AcDbTrace
 10
156.990327
 20
202.144182
 30
0.0
 11
154.990841
 21
212.143416
 31
0.0
 12
152.990753
 22
202.144182
 32
0.0
 13
152.990753
 23
202.144182
 33
0.0
  0
ENDBLK
  5
379
100
AcDbEntity
  8
0
100
AcDbBlockEnd
  0
BLOCK
  5
37C
100
AcDbEntity
  8
0
100
AcDbBlockBegin
  2
*B20
 70
     0
 10
0.0
 20
0.0
 30
0.0
  3
*B20
  1

  0
LINE
  5
37D
100
AcDbEntity
  8
0
  6
Continuous
 62
     0
100
AcDbLine
 10
327.980063
 20
407.135405
 30
0.0
 11
327.980063
 21
308.139796
 31
0.0
  0
SOLID
  5
37E
100
AcDbEntity
  8
0
  6
Continuous
 62
     0
100
AcDbTrace
 10
329.98015
 20
397.135569
 30
0.0
 11
327.980063
 21
407.135405
 31
0.0
 12
325.979975
 22
397.135569
 32
0.0
 13
325.979975
 23
397.135569
 33
0.0
  0
SOLID
  5
37F
100
AcDbEntity
  8
0
  6
Continuous
 62
     0
100
AcDbTrace
 10
325.979975
 20
318.139031
 30
0.0
 11
327.980063
 21
308.139796
 31
0.0
 12
329.98015
 22
318.139031
 32
0.0
 13
329.98015
 23
318.139031
 33
0.0
  0
ENDBLK
  5
380
100
AcDbEntity
  8
0
100
AcDbBlockEnd
  0
BLOCK
  5
383
100
AcDbEntity
  8
0
100
AcDbBlockBegin
  2
*B21
 70
     0
 10
0.0
 20
0.0
 30
0.0
  3
*B21
  1

  0
LINE
  5
384
100
AcDbEntity
  8
0
  6
Continuous
 62
     8
100
AcDbLine
 10
541.528653
 20
161.146298
 30
0.0
 11
541.528653
 21
168.145702
 31
0.0
  0
LINE
  5
385
100
AcDbEntity
  8
0
  6
Continuous
 62
     8
100
AcDbLine
 10
541.528653
 20
184.145199
 30
0.0
 11
541.528653
 21
191.144603
 31
0.0
  0
ENDBLK
  5
386
100
AcDbEntity
  8
0
100
AcDbBlockEnd
  0
BLOCK
  5
389
100
AcDbEntity
  8
0
100
AcDbBlockBegin
  2
*B22
 70
     0
 10
0.0
 20
0.0
 30
0.0
  3
*B22
  1

  0
LINE
  5
38A
100
AcDbEntity
  8
0
  6
Continuous
 62
     8
100
AcDbLine
 10
325.979975
 20
308.139796
 30
0.0
 11
337.540782
 21
308.139796
 31
0.0
  0
ENDBLK
  5
38B
100
AcDbEntity
  8
0
100
AcDbBlockEnd
  0
BLOCK
  5
38E
100
AcDbEntity
  8
0
100
AcDbBlockBegin
  2
*B23
 70
     0
 10
0.0
 20
0.0
 30
0.0
  3
*B23
  1

  0
LINE
  5
38F
100
AcDbEntity
  8
0
  6
Continuous
 62
     8
100
AcDbLine
 10
152.990753
 20
308.139796
 30
0.0
 11
175.551139
 21
308.139796
 31
0.0
  0
ENDBLK
  5
390
100
AcDbEntity
  8
0
100
AcDbBlockEnd
  0
BLOCK
  5
393
100
AcDbEntity
  8
0
100
AcDbBlockBegin
  2
*B24
 70
     0
 10
0.0
 20
0.0
 30
0.0
  3
*B24
  1

  0
LINE
  5
394
100
AcDbEntity
  8
0
  6
Continuous
 62
     8
100
AcDbLine
 10
460.53323
 20
476.080376
 30
0.0
 11
460.53323
 21
480.080551
 31
0.0
  0
LINE
  5
395
100
AcDbEntity
  8
0
  6
Continuous
 62
     8
100
AcDbLine
 10
460.53323
 20
401.135143
 30
0.0
 11
460.53323
 21
416.784549
 31
0.0
  0
LINE
  5
396
100
AcDbEntity
  8
0
  6
Continuous
 62
     8
100
AcDbLine
 10
460.53323
 20
422.78421
 30
0.0
 11
460.53323
 21
424.783696
 31
0.0
  0
LINE
  5
397
100
AcDbEntity
  8
0
  6
Continuous
 62
     8
100
AcDbLine
 10
460.53323
 20
430.783357
 30
0.0
 11
460.53323
 21
446.432162
 31
0.0
  0
LINE
  5
398
100
AcDbEntity
  8
0
  6
Continuous
 62
     8
100
AcDbLine
 10
460.53323
 20
452.432425
 30
0.0
 11
460.53323
 21
454.431911
 31
0.0
  0
LINE
  5
399
100
AcDbEntity
  8
0
  6
Continuous
 62
     8
100
AcDbLine
 10
460.53323
 20
460.431571
 30
0.0
 11
460.53323
 21
476.080376
 31
0.0
  0
ENDBLK
  5
39A
100
AcDbEntity
  8
0
100
AcDbBlockEnd
  0
BLOCK
  5
39D
100
AcDbEntity
  8
0
100
AcDbBlockBegin
  2
*B25
 70
     0
 10
0.0
 20
0.0
 30
0.0
  3
*B25
  1

  0
LINE
  5
39E
100
AcDbEntity
  8
0
  6
Continuous
 62
     8
100
AcDbLine
 10
460.53323
 20
147.64676
 30
0.0
 11
460.53323
 21
168.145702
 31
0.0
  0
LINE
  5
39F
100
AcDbEntity
  8
0
  6
Continuous
 62
     8
100
AcDbLine
 10
460.53323
 20
184.145199
 30
0.0
 11
460.53323
 21
204.644141
 31
0.0
  0
ENDBLK
  5
3A0
100
AcDbEntity
  8
0
100
AcDbBlockEnd
  0
BLOCK
  5
3A3
100
AcDbEntity
  8
0
100
AcDbBlockBegin
  2
*B26
 70
     0
 10
0.0
 20
0.0
 30
0.0
  3
*B26
  1

  0
LINE
  5
3A4
100
AcDbEntity
  8
0
  6
Continuous
 62
     8
100
AcDbLine
 10
379.538409
 20
114.097623
 30
0.0
 11
379.538409
 21
118.097197
 31
0.0
  0
LINE
  5
3A5
100
AcDbEntity
  8
0
  6
Continuous
 62
     8
100
AcDbLine
 10
379.538409
 20
118.097197
 30
0.0
 11
379.538409
 21
134.446784
 31
0.0
  0
LINE
  5
3A6
100
AcDbEntity
  8
0
  6
Continuous
 62
     8
100
AcDbLine
 10
379.538409
 20
140.446445
 30
0.0
 11
379.538409
 21
142.446532
 31
0.0
  0
LINE
  5
3A7
100
AcDbEntity
  8
0
  6
Continuous
 62
     8
100
AcDbLine
 10
379.538409
 20
148.446193
 30
0.0
 11
379.538409
 21
164.795781
 31
0.0
  0
LINE
  5
3A8
100
AcDbEntity
  8
0
  6
Continuous
 62
     8
100
AcDbLine
 10
379.538409
 20
170.795442
 30
0.0
 11
379.538409
 21
172.795529
 31
0.0
  0
LINE
  5
3A9
100
AcDbEntity
  8
0
  6
Continuous
 62
     8
100
AcDbLine
 10
379.538409
 20
178.79519
 30
0.0
 11
379.538409
 21
195.144176
 31
0.0
  0
LINE
  5
3AA
100
AcDbEntity
  8
0
  6
Continuous
 62
     8
100
AcDbLine
 10
379.538409
 20
211.143673
 30
0.0
 11
379.538409
 21
218.593623
 31
0.0
  0
ENDBLK
  5
3AB
100
AcDbEntity
  8
0
100
AcDbBlockEnd
  0
BLOCK
  5
3AE
100
AcDbEntity
  8
0
100
AcDbBlockBegin
  2
*B27
 70
     0
 10
0.0
 20
0.0
 30
0.0
  3
*B27
  1

  0
LINE
  5
3AF
100
AcDbEntity
  8
0
  6
Continuous
 62
     8
100
AcDbLine
 10
379.538409
 20
276.089672
 30
0.0
 11
379.538409
 21
280.089847
 31
0.0
  0
LINE
  5
3B0
100
AcDbEntity
  8
0
  6
Continuous
 62
     8
100
AcDbLine
 10
379.538409
 20
280.089847
 30
0.0
 11
379.538409
 21
295.499243
 31
0.0
  0
LINE
  5
3B1
100
AcDbEntity
  8
0
  6
Continuous
 62
     8
100
AcDbLine
 10
379.538409
 20
301.498904
 30
0.0
 11
379.538409
 21
303.498992
 31
0.0
  0
LINE
  5
3B2
100
AcDbEntity
  8
0
  6
Continuous
 62
     8
100
AcDbLine
 10
379.538409
 20
309.498653
 30
0.0
 11
379.538409
 21
324.908049
 31
0.0
  0
LINE
  5
3B3
100
AcDbEntity
  8
0
  6
Continuous
 62
     8
100
AcDbLine
 10
379.538409
 20
330.90771
 30
0.0
 11
379.538409
 21
332.907797
 31
0.0
  0
LINE
  5
3B4
100
AcDbEntity
  8
0
  6
Continuous
 62
     8
100
AcDbLine
 10
379.538409
 20
338.907458
 30
0.0
 11
379.538409
 21
354.316854
 31
0.0
  0
LINE
  5
3B5
100
AcDbEntity
  8
0
  6
Continuous
 62
     8
100
AcDbLine
 10
379.538409
 20
360.317116
 30
0.0
 11
379.538409
 21
362.316602
 31
0.0
  0
LINE
  5
3B6
100
AcDbEntity
  8
0
  6
Continuous
 62
     8
100
AcDbLine
 10
379.538409
 20
368.316263
 30
0.0
 11
379.538409
 21
383.726261
 31
0.0
  0
LINE
  5
3B7
100
AcDbEntity
  8
0
  6
Continuous
 62
     8
100
AcDbLine
 10
379.538409
 20
389.725922
 30
0.0
 11
379.538409
 21
391.725408
 31
0.0
  0
LINE
  5
3B8
100
AcDbEntity
  8
0
  6
Continuous
 62
     8
100
AcDbLine
 10
379.538409
 20
397.725069
 30
0.0
 11
379.538409
 21
413.135066
 31
0.0
  0
ENDBLK
  5
3B9
100
AcDbEntity
  8
0
100
AcDbBlockEnd
  0
BLOCK
  5
3BC
100
AcDbEntity
  8
0
100
AcDbBlockBegin
  2
*B28
 70
     0
 10
0.0
 20
0.0
 30
0.0
  3
*B28
  1

  0
LINE
  5
3BD
100
AcDbEntity
  8
0
  6
Continuous
 62
     8
100
AcDbLine
 10
175.551139
 20
176.14545
 30
0.0
 11
209.549017
 21
176.14545
 31
0.0
  0
LINE
  5
3BE
100
AcDbEntity
  8
0
  6
Continuous
 62
     8
100
AcDbLine
 10
225.547912
 20
176.14545
 30
0.0
 11
246.879973
 21
176.14545
 31
0.0
  0
LINE
  5
3BF
100
AcDbEntity
  8
0
  6
Continuous
 62
     8
100
AcDbLine
 10
252.879634
 20
176.14545
 30
0.0
 11
254.87912
 21
176.14545
 31
0.0
  0
LINE
  5
3C0
100
AcDbEntity
  8
0
  6
Continuous
 62
     8
100
AcDbLine
 10
260.878781
 20
176.14545
 30
0.0
 11
282.210842
 21
176.14545
 31
0.0
  0
LINE
  5
3C1
100
AcDbEntity
  8
0
  6
Continuous
 62
     8
100
AcDbLine
 10
288.210503
 20
176.14545
 30
0.0
 11
290.210591
 21
176.14545
 31
0.0
  0
LINE
  5
3C2
100
AcDbEntity
  8
0
  6
Continuous
 62
     8
100
AcDbLine
 10
296.210252
 20
176.14545
 30
0.0
 11
317.542313
 21
176.14545
 31
0.0
  0
LINE
  5
3C3
100
AcDbEntity
  8
0
  6
Continuous
 62
     8
100
AcDbLine
 10
333.541208
 20
176.14545
 30
0.0
 11
359.039467
 21
176.14545
 31
0.0
  0
LINE
  5
3C4
100
AcDbEntity
  8
0
  6
Continuous
 62
     8
100
AcDbLine
 10
365.039128
 20
176.14545
 30
0.0
 11
367.039215
 21
176.14545
 31
0.0
  0
LINE
  5
3C5
100
AcDbEntity
  8
0
  6
Continuous
 62
     8
100
AcDbLine
 10
373.038876
 20
176.14545
 30
0.0
 11
398.537134
 21
176.14545
 31
0.0
  0
LINE
  5
3C6
100
AcDbEntity
  8
0
  6
Continuous
 62
     8
100
AcDbLine
 10
414.53603
 20
176.14545
 30
0.0
 11
452.534083
 21
176.14545
 31
0.0
  0
LINE
  5
3C7
100
AcDbEntity
  8
0
  6
Continuous
 62
     8
100
AcDbLine
 10
468.532979
 20
176.14545
 30
0.0
 11
494.031237
 21
176.14545
 31
0.0
  0
LINE
  5
3C8
100
AcDbEntity
  8
0
  6
Continuous
 62
     8
100
AcDbLine
 10
500.030898
 20
176.14545
 30
0.0
 11
502.030985
 21
176.14545
 31
0.0
  0
LINE
  5
3C9
100
AcDbEntity
  8
0
  6
Continuous
 62
     8
100
AcDbLine
 10
508.030646
 20
176.14545
 30
0.0
 11
533.528905
 21
176.14545
 31
0.0
  0
LINE
  5
3CA
100
AcDbEntity
  8
0
  6
Continuous
 62
     8
100
AcDbLine
 10
549.5278
 20
176.14545
 30
0.0
 11
570.859861
 21
176.14545
 31
0.0
  0
LINE
  5
3CB
100
AcDbEntity
  8
0
  6
Continuous
 62
     8
100
AcDbLine
 10
576.859522
 20
176.14545
 30
0.0
 11
578.85961
 21
176.14545
 31
0.0
  0
LINE
  5
3CC
100
AcDbEntity
  8
0
  6
Continuous
 62
     8
100
AcDbLine
 10
584.859271
 20
176.14545
 30
0.0
 11
606.19073
 21
176.14545
 31
0.0
  0
LINE
  5
3CD
100
AcDbEntity
  8
0
  6
Continuous
 62
     8
100
AcDbLine
 10
612.190391
 20
176.14545
 30
0.0
 11
614.190479
 21
176.14545
 31
0.0
  0
LINE
  5
3CE
100
AcDbEntity
  8
0
  6
Continuous
 62
     8
100
AcDbLine
 10
620.19014
 20
176.14545
 30
0.0
 11
641.522201
 21
176.14545
 31
0.0
  0
LINE
  5
3CF
100
AcDbEntity
  8
0
  6
Continuous
 62
     8
100
AcDbLine
 10
657.521096
 20
176.14545
 30
0.0
 11
691.518974
 21
176.14545
 31
0.0
  0
ENDBLK
  5
3D0
100
AcDbEntity
  8
0
100
AcDbBlockEnd
  0
BLOCK
  5
3D3
100
AcDbEntity
  8
0
100
AcDbBlockBegin
  2
*B29
 70
     0
 10
0.0
 20
0.0
 30
0.0
  3
*B29
  1

  0
LINE
  5
3D4
100
AcDbEntity
  8
0
  6
Continuous
 62
     8
100
AcDbLine
 10
217.548164
 20
158.895974
 30
0.0
 11
217.548164
 21
168.145702
 31
0.0
  0
LINE
  5
3D5
100
AcDbEntity
  8
0
  6
Continuous
 62
     8
100
AcDbLine
 10
217.548164
 20
184.145199
 30
0.0
 11
217.548164
 21
193.394325
 31
0.0
  0
ENDBLK
  5
3D6
100
AcDbEntity
  8
0
100
AcDbBlockEnd
  0
BLOCK
  5
3D9
100
AcDbEntity
  8
0
100
AcDbBlockBegin
  2
*B30
 70
     0
 10
0.0
 20
0.0
 30
0.0
  3
*B30
  1

  0
LINE
  5
3DA
100
AcDbEntity
  8
0
  6
Continuous
 62
     8
100
AcDbLine
 10
175.551139
 20
357.6373
 30
0.0
 11
190.99422
 21
357.6373
 31
0.0
  0
LINE
  5
3DB
100
AcDbEntity
  8
0
  6
Continuous
 62
     8
100
AcDbLine
 10
196.993881
 20
357.6373
 30
0.0
 11
198.993969
 21
357.6373
 31
0.0
  0
LINE
  5
3DC
100
AcDbEntity
  8
0
  6
Continuous
 62
     8
100
AcDbLine
 10
204.99363
 20
357.6373
 30
0.0
 11
220.436711
 21
357.6373
 31
0.0
  0
LINE
  5
3DD
100
AcDbEntity
  8
0
  6
Continuous
 62
     8
100
AcDbLine
 10
226.436372
 20
357.6373
 30
0.0
 11
228.43646
 21
357.6373
 31
0.0
  0
LINE
  5
3DE
100
AcDbEntity
  8
0
  6
Continuous
 62
     8
100
AcDbLine
 10
234.436121
 20
357.6373
 30
0.0
 11
249.879804
 21
357.6373
 31
0.0
  0
LINE
  5
3DF
100
AcDbEntity
  8
0
  6
Continuous
 62
     8
100
AcDbLine
 10
255.879465
 20
357.6373
 30
0.0
 11
257.878951
 21
357.6373
 31
0.0
  0
LINE
  5
3E0
100
AcDbEntity
  8
0
  6
Continuous
 62
     8
100
AcDbLine
 10
263.878612
 20
357.6373
 30
0.0
 11
279.322295
 21
357.6373
 31
0.0
  0
LINE
  5
3E1
100
AcDbEntity
  8
0
  6
Continuous
 62
     8
100
AcDbLine
 10
285.321956
 20
357.6373
 30
0.0
 11
287.322043
 21
357.6373
 31
0.0
  0
LINE
  5
3E2
100
AcDbEntity
  8
0
  6
Continuous
 62
     8
100
AcDbLine
 10
293.321103
 20
357.6373
 30
0.0
 11
308.764786
 21
357.6373
 31
0.0
  0
LINE
  5
3E3
100
AcDbEntity
  8
0
  6
Continuous
 62
     8
100
AcDbLine
 10
314.764447
 20
357.6373
 30
0.0
 11
316.764534
 21
357.6373
 31
0.0
  0
LINE
  5
3E4
100
AcDbEntity
  8
0
  6
Continuous
 62
     8
100
AcDbLine
 10
322.764195
 20
357.6373
 30
0.0
 11
338.207277
 21
357.6373
 31
0.0
  0
LINE
  5
3E5
100
AcDbEntity
  8
0
  6
Continuous
 62
     8
100
AcDbLine
 10
344.206938
 20
357.6373
 30
0.0
 11
346.207026
 21
357.6373
 31
0.0
  0
LINE
  5
3E6
100
AcDbEntity
  8
0
  6
Continuous
 62
     8
100
AcDbLine
 10
352.206686
 20
357.6373
 30
0.0
 11
367.65037
 21
357.6373
 31
0.0
  0
LINE
  5
3E7
100
AcDbEntity
  8
0
  6
Continuous
 62
     8
100
AcDbLine
 10
373.650031
 20
357.6373
 30
0.0
 11
375.649517
 21
357.6373
 31
0.0
  0
LINE
  5
3E8
100
AcDbEntity
  8
0
  6
Continuous
 62
     8
100
AcDbLine
 10
381.649178
 20
357.6373
 30
0.0
 11
397.092861
 21
357.6373
 31
0.0
  0
LINE
  5
3E9
100
AcDbEntity
  8
0
  6
Continuous
 62
     8
100
AcDbLine
 10
403.092522
 20
357.6373
 30
0.0
 11
405.092609
 21
357.6373
 31
0.0
  0
LINE
  5
3EA
100
AcDbEntity
  8
0
  6
Continuous
 62
     8
100
AcDbLine
 10
411.091669
 20
357.6373
 30
0.0
 11
426.535352
 21
357.6373
 31
0.0
  0
LINE
  5
3EB
100
AcDbEntity
  8
0
  6
Continuous
 62
     8
100
AcDbLine
 10
432.535013
 20
357.6373
 30
0.0
 11
434.5351
 21
357.6373
 31
0.0
  0
LINE
  5
3EC
100
AcDbEntity
  8
0
  6
Continuous
 62
     8
100
AcDbLine
 10
440.534761
 20
357.6373
 30
0.0
 11
455.977843
 21
357.6373
 31
0.0
  0
LINE
  5
3ED
100
AcDbEntity
  8
0
  6
Continuous
 62
     8
100
AcDbLine
 10
461.977504
 20
357.6373
 30
0.0
 11
463.977591
 21
357.6373
 31
0.0
  0
LINE
  5
3EE
100
AcDbEntity
  8
0
  6
Continuous
 62
     8
100
AcDbLine
 10
469.977252
 20
357.6373
 30
0.0
 11
485.420935
 21
357.6373
 31
0.0
  0
LINE
  5
3EF
100
AcDbEntity
  8
0
  6
Continuous
 62
     8
100
AcDbLine
 10
491.420596
 20
357.6373
 30
0.0
 11
493.420082
 21
357.6373
 31
0.0
  0
LINE
  5
3F0
100
AcDbEntity
  8
0
  6
Continuous
 62
     8
100
AcDbLine
 10
499.419743
 20
357.6373
 30
0.0
 11
514.863426
 21
357.6373
 31
0.0
  0
LINE
  5
3F1
100
AcDbEntity
  8
0
  6
Continuous
 62
     8
100
AcDbLine
 10
520.863087
 20
357.6373
 30
0.0
 11
522.862573
 21
357.6373
 31
0.0
  0
LINE
  5
3F2
100
AcDbEntity
  8
0
  6
Continuous
 62
     8
100
AcDbLine
 10
528.862234
 20
357.6373
 30
0.0
 11
544.305918
 21
357.6373
 31
0.0
  0
LINE
  5
3F3
100
AcDbEntity
  8
0
  6
Continuous
 62
     8
100
AcDbLine
 10
550.305578
 20
357.6373
 30
0.0
 11
552.305666
 21
357.6373
 31
0.0
  0
LINE
  5
3F4
100
AcDbEntity
  8
0
  6
Continuous
 62
     8
100
AcDbLine
 10
558.305327
 20
357.6373
 30
0.0
 11
573.748409
 21
357.6373
 31
0.0
  0
LINE
  5
3F5
100
AcDbEntity
  8
0
  6
Continuous
 62
     8
100
AcDbLine
 10
579.74807
 20
357.6373
 30
0.0
 11
581.748157
 21
357.6373
 31
0.0
  0
LINE
  5
3F6
100
AcDbEntity
  8
0
  6
Continuous
 62
     8
100
AcDbLine
 10
587.747818
 20
357.6373
 30
0.0
 11
603.191501
 21
357.6373
 31
0.0
  0
LINE
  5
3F7
100
AcDbEntity
  8
0
  6
Continuous
 62
     8
100
AcDbLine
 10
609.190561
 20
357.6373
 30
0.0
 11
611.190648
 21
357.6373
 31
0.0
  0
LINE
  5
3F8
100
AcDbEntity
  8
0
  6
Continuous
 62
     8
100
AcDbLine
 10
617.190309
 20
357.6373
 30
0.0
 11
632.633992
 21
357.6373
 31
0.0
  0
LINE
  5
3F9
100
AcDbEntity
  8
0
  6
Continuous
 62
     8
100
AcDbLine
 10
638.633653
 20
357.6373
 30
0.0
 11
640.633139
 21
357.6373
 31
0.0
  0
LINE
  5
3FA
100
AcDbEntity
  8
0
  6
Continuous
 62
     8
100
AcDbLine
 10
646.6328
 20
357.6373
 30
0.0
 11
662.076483
 21
357.6373
 31
0.0
  0
LINE
  5
3FB
100
AcDbEntity
  8
0
  6
Continuous
 62
     8
100
AcDbLine
 10
668.076144
 20
357.6373
 30
0.0
 11
670.076232
 21
357.6373
 31
0.0
  0
LINE
  5
3FC
100
AcDbEntity
  8
0
  6
Continuous
 62
     8
100
AcDbLine
 10
676.075893
 20
357.6373
 30
0.0
 11
691.518974
 21
357.6373
 31
0.0
  0
ENDBLK
  5
3FD
100
AcDbEntity
  8
0
100
AcDbBlockEnd
  0
BLOCK
  5
400
100
AcDbEntity
  8
0
100
AcDbBlockBegin
  2
*B31
 70
     0
 10
0.0
 20
0.0
 30
0.0
  3
*B31
  1

  0
LINE
  5
401
100
AcDbEntity
  8
0
  6
Continuous
 62
     8
100
AcDbLine
 10
469.532722
 20
431.583994
 30
0.0
 11
469.532722
 21
456.081306
 31
0.0
  0
ENDBLK
  5
402
100
AcDbEntity
  8
0
100
AcDbBlockEnd
  0
BLOCK
  5
405
100
AcDbEntity
  8
0
100
AcDbBlockBegin
  2
*B32
 70
     0
 10
0.0
 20
0.0
 30
0.0
  3
*B32
  1

  0
LINE
  5
406
100
AcDbEntity
  8
0
  6
Continuous
 62
     8
100
AcDbLine
 10
325.979975
 20
407.135405
 30
0.0
 11
337.540782
 21
407.135405
 31
0.0
  0
ENDBLK
  5
407
100
AcDbEntity
  8
0
100
AcDbBlockEnd
  0
BLOCK
  5
40A
100
AcDbEntity
  8
0
100
AcDbBlockBegin
  2
*B33
 70
     0
 10
0.0
 20
0.0
 30
0.0
  3
*B33
  1

  0
LINE
  5
40B
100
AcDbEntity
  8
0
  6
Continuous
 62
     8
100
AcDbLine
 10
649.521348
 20
158.895974
 30
0.0
 11
649.521348
 21
168.145702
 31
0.0
  0
LINE
  5
40C
100
AcDbEntity
  8
0
  6
Continuous
 62
     8
100
AcDbLine
 10
649.521348
 20
184.145199
 30
0.0
 11
649.521348
 21
193.394325
 31
0.0
  0
ENDBLK
  5
40D
100
AcDbEntity
  8
0
100
AcDbBlockEnd
  0
BLOCK
  5
410
100
AcDbEntity
  8
0
100
AcDbBlockBegin
  2
*B34
 70
     0
 10
0.0
 20
0.0
 30
0.0
  3
*B34
  1

  0
LINE
  5
411
100
AcDbEntity
  8
0
  6
Continuous
 62
     8
100
AcDbLine
 10
487.531704
 20
276.089672
 30
0.0
 11
487.531704
 21
280.089847
 31
0.0
  0
LINE
  5
412
100
AcDbEntity
  8
0
  6
Continuous
 62
     8
100
AcDbLine
 10
487.531704
 20
280.089847
 30
0.0
 11
487.531704
 21
295.499243
 31
0.0
  0
LINE
  5
413
100
AcDbEntity
  8
0
  6
Continuous
 62
     8
100
AcDbLine
 10
487.531704
 20
301.498904
 30
0.0
 11
487.531704
 21
303.498992
 31
0.0
  0
LINE
  5
414
100
AcDbEntity
  8
0
  6
Continuous
 62
     8
100
AcDbLine
 10
487.531704
 20
309.498653
 30
0.0
 11
487.531704
 21
324.908049
 31
0.0
  0
LINE
  5
415
100
AcDbEntity
  8
0
  6
Continuous
 62
     8
100
AcDbLine
 10
487.531704
 20
330.90771
 30
0.0
 11
487.531704
 21
332.907797
 31
0.0
  0
LINE
  5
416
100
AcDbEntity
  8
0
  6
Continuous
 62
     8
100
AcDbLine
 10
487.531704
 20
338.907458
 30
0.0
 11
487.531704
 21
354.316854
 31
0.0
  0
LINE
  5
417
100
AcDbEntity
  8
0
  6
Continuous
 62
     8
100
AcDbLine
 10
487.531704
 20
360.317116
 30
0.0
 11
487.531704
 21
362.316602
 31
0.0
  0
LINE
  5
418
100
AcDbEntity
  8
0
  6
Continuous
 62
     8
100
AcDbLine
 10
487.531704
 20
368.316263
 30
0.0
 11
487.531704
 21
383.726261
 31
0.0
  0
LINE
  5
419
100
AcDbEntity
  8
0
  6
Continuous
 62
     8
100
AcDbLine
 10
487.531704
 20
389.725922
 30
0.0
 11
487.531704
 21
391.725408
 31
0.0
  0
LINE
  5
41A
100
AcDbEntity
  8
0
  6
Continuous
 62
     8
100
AcDbLine
 10
487.531704
 20
397.725069
 30
0.0
 11
487.531704
 21
413.135066
 31
0.0
  0
ENDBLK
  5
41B
100
AcDbEntity
  8
0
100
AcDbBlockEnd
  0
BLOCK
  5
41E
100
AcDbEntity
  8
0
100
AcDbBlockBegin
  2
*B35
 70
     0
 10
0.0
 20
0.0
 30
0.0
  3
*B35
  1

  0
LINE
  5
41F
100
AcDbEntity
  8
0
  6
Continuous
 62
     8
100
AcDbLine
 10
440.284525
 20
336.638487
 30
0.0
 11
440.284525
 21
370.085363
 31
0.0
  0
ENDBLK
  5
420
100
AcDbEntity
  8
0
100
AcDbBlockEnd
  0
BLOCK
  5
423
100
AcDbEntity
  8
0
100
AcDbBlockBegin
  2
*B36
 70
     0
 10
0.0
 20
0.0
 30
0.0
  3
*B36
  1

  0
LINE
  5
424
100
AcDbEntity
  8
0
  6
Continuous
 62
     8
100
AcDbLine
 10
343.540443
 20
250.090941
 30
0.0
 11
343.540443
 21
302.140135
 31
0.0
  0
ENDBLK
  5
425
100
AcDbEntity
  8
0
100
AcDbBlockEnd
  0
BLOCK
  5
428
100
AcDbEntity
  8
0
100
AcDbBlockBegin
  2
*B37
 70
     0
 10
0.0
 20
0.0
 30
0.0
  3
*B37
  1

  0
LINE
  5
429
100
AcDbEntity
  8
0
  6
Continuous
 62
     8
100
AcDbLine
 10
685.519313
 20
431.134049
 30
0.0
 11
685.519313
 21
502.079108
 31
0.0
  0
ENDBLK
  5
42A
100
AcDbEntity
  8
0
100
AcDbBlockEnd
  0
BLOCK
  5
42D
100
AcDbEntity
  8
0
100
AcDbBlockBegin
  2
*B38
 70
     0
 10
0.0
 20
0.0
 30
0.0
  3
*B38
  1

  0
LINE
  5
42E
100
AcDbEntity
  8
0
  6
Continuous
 62
     8
100
AcDbLine
 10
426.785588
 20
336.638487
 30
0.0
 11
426.785588
 21
370.085363
 31
0.0
  0
ENDBLK
  5
42F
100
AcDbEntity
  8
0
100
AcDbBlockEnd
  0
BLOCK
  5
432
100
AcDbEntity
  8
0
100
AcDbBlockBegin
  2
*B39
 70
     0
 10
0.0
 20
0.0
 30
0.0
  3
*B39
  1

  0
LINE
  5
433
100
AcDbEntity
  8
0
  6
Continuous
 62
     8
100
AcDbLine
 10
406.536883
 20
476.080376
 30
0.0
 11
406.536883
 21
480.080551
 31
0.0
  0
LINE
  5
434
100
AcDbEntity
  8
0
  6
Continuous
 62
     8
100
AcDbLine
 10
406.536883
 20
401.135143
 30
0.0
 11
406.536883
 21
416.784549
 31
0.0
  0
LINE
  5
435
100
AcDbEntity
  8
0
  6
Continuous
 62
     8
100
AcDbLine
 10
406.536883
 20
422.78421
 30
0.0
 11
406.536883
 21
424.783696
 31
0.0
  0
LINE
  5
436
100
AcDbEntity
  8
0
  6
Continuous
 62
     8
100
AcDbLine
 10
406.536883
 20
430.783357
 30
0.0
 11
406.536883
 21
446.432162
 31
0.0
  0
LINE
  5
437
100
AcDbEntity
  8
0
  6
Continuous
 62
     8
100
AcDbLine
 10
406.536883
 20
452.432425
 30
0.0
 11
406.536883
 21
454.431911
 31
0.0
  0
LINE
  5
438
100
AcDbEntity
  8
0
  6
Continuous
 62
     8
100
AcDbLine
 10
406.536883
 20
460.431571
 30
0.0
 11
406.536883
 21
476.080376
 31
0.0
  0
ENDBLK
  5
439
100
AcDbEntity
  8
0
100
AcDbBlockEnd
  0
BLOCK
  5
43C
100
AcDbEntity
  8
0
100
AcDbBlockBegin
  2
*B40
 70
     0
 10
0.0
 20
0.0
 30
0.0
  3
*B40
  1

  0
LINE
  5
43D
100
AcDbEntity
  8
0
  6
Continuous
 62
     8
100
AcDbLine
 10
523.52967
 20
114.097623
 30
0.0
 11
523.52967
 21
134.147222
 31
0.0
  0
ENDBLK
  5
43E
100
AcDbEntity
  8
0
100
AcDbBlockEnd
  0
BLOCK
  5
441
100
AcDbEntity
  8
0
100
AcDbBlockBegin
  2
*B41
 70
     0
 10
0.0
 20
0.0
 30
0.0
  3
*B41
  1

  0
LINE
  5
442
100
AcDbEntity
  8
0
  6
Continuous
 62
     8
100
AcDbLine
 10
451.533739
 20
431.583994
 30
0.0
 11
451.533739
 21
456.081306
 31
0.0
  0
ENDBLK
  5
443
100
AcDbEntity
  8
0
100
AcDbBlockEnd
  0
BLOCK
  5
446
100
AcDbEntity
  8
0
100
AcDbBlockBegin
  2
*B42
 70
     0
 10
0.0
 20
0.0
 30
0.0
  3
*B42
  1

  0
LINE
  5
447
100
AcDbEntity
  8
0
  6
Continuous
 62
     8
100
AcDbLine
 10
152.990753
 20
140.146883
 30
0.0
 11
175.551139
 21
140.146883
 31
0.0
  0
ENDBLK
  5
448
100
AcDbEntity
  8
0
100
AcDbBlockEnd
  0
BLOCK
  5
44B
100
AcDbEntity
  8
0
100
AcDbBlockBegin
  2
*B43
 70
     0
 10
0.0
 20
0.0
 30
0.0
  3
*B43
  1

  0
LINE
  5
44C
100
AcDbEntity
  8
0
  6
Continuous
 62
     8
100
AcDbLine
 10
487.531704
 20
114.097623
 30
0.0
 11
487.531704
 21
118.097197
 31
0.0
  0
LINE
  5
44D
100
AcDbEntity
  8
0
  6
Continuous
 62
     8
100
AcDbLine
 10
487.531704
 20
118.097197
 30
0.0
 11
487.531704
 21
141.147228
 31
0.0
  0
LINE
  5
44E
100
AcDbEntity
  8
0
  6
Continuous
 62
     8
100
AcDbLine
 10
487.531704
 20
157.146123
 30
0.0
 11
487.531704
 21
164.596073
 31
0.0
  0
ENDBLK
  5
44F
100
AcDbEntity
  8
0
100
AcDbBlockEnd
  0
BLOCK
  5
452
100
AcDbEntity
  8
0
100
AcDbBlockBegin
  2
*B44
 70
     0
 10
0.0
 20
0.0
 30
0.0
  3
*B44
  1

  0
LINE
  5
453
100
AcDbEntity
  8
0
  6
Continuous
 62
     8
100
AcDbLine
 10
325.54146
 20
161.146298
 30
0.0
 11
325.54146
 21
168.145702
 31
0.0
  0
LINE
  5
454
100
AcDbEntity
  8
0
  6
Continuous
 62
     8
100
AcDbLine
 10
325.54146
 20
184.145199
 30
0.0
 11
325.54146
 21
191.144603
 31
0.0
  0
ENDBLK
  5
455
100
AcDbEntity
  8
0
100
AcDbBlockEnd
  0
BLOCK
  5
458
100
AcDbEntity
  8
0
100
AcDbBlockBegin
  2
*B45
 70
     0
 10
0.0
 20
0.0
 30
0.0
  3
*B45
  1

  0
LINE
  5
459
100
AcDbEntity
  8
0
  6
Continuous
 62
     8
100
AcDbLine
 10
359.977854
 20
203.143925
 30
0.0
 11
363.978029
 21
203.143925
 31
0.0
  0
LINE
  5
45A
100
AcDbEntity
  8
0
  6
Continuous
 62
     8
100
AcDbLine
 10
363.978029
 20
203.143925
 30
0.0
 11
371.53866
 21
203.143925
 31
0.0
  0
LINE
  5
45B
100
AcDbEntity
  8
0
  6
Continuous
 62
     8
100
AcDbLine
 10
387.537555
 20
203.143925
 30
0.0
 11
394.987505
 21
203.143925
 31
0.0
  0
ENDBLK
  5
45C
100
AcDbEntity
  8
0
100
AcDbBlockEnd
  0
BLOCK
  5
45F
100
AcDbEntity
  8
0
100
AcDbBlockBegin
  2
*B46
 70
     0
 10
0.0
 20
0.0
 30
0.0
  3
*B46
  1

  0
LINE
  5
460
100
AcDbEntity
  8
0
  6
Continuous
 62
     8
100
AcDbLine
 10
152.990753
 20
425.134388
 30
0.0
 11
175.551139
 21
425.134388
 31
0.0
  0
ENDBLK
  5
461
100
AcDbEntity
  8
0
100
AcDbBlockEnd
  0
BLOCK
  5
464
100
AcDbEntity
  8
0
100
AcDbBlockBegin
  2
*B47
 70
     0
 10
0.0
 20
0.0
 30
0.0
  3
*B47
  1

  0
LINE
  5
465
100
AcDbEntity
  8
0
  6
Continuous
 62
     8
100
AcDbLine
 10
152.990753
 20
212.143416
 30
0.0
 11
175.551139
 21
212.143416
 31
0.0
  0
ENDBLK
  5
466
100
AcDbEntity
  8
0
100
AcDbBlockEnd
  0
BLOCK
  5
469
100
AcDbEntity
  8
0
100
AcDbBlockBegin
  2
*B48
 70
     0
 10
0.0
 20
0.0
 30
0.0
  3
*B48
  1

  0
LINE
  5
46A
100
AcDbEntity
  8
0
  6
Continuous
 62
     8
100
AcDbLine
 10
433.534756
 20
276.089672
 30
0.0
 11
433.534756
 21
280.089847
 31
0.0
  0
LINE
  5
46B
100
AcDbEntity
  8
0
  6
Continuous
 62
     8
100
AcDbLine
 10
433.534756
 20
280.089847
 30
0.0
 11
433.534756
 21
301.364161
 31
0.0
  0
LINE
  5
46C
100
AcDbEntity
  8
0
  6
Continuous
 62
     8
100
AcDbLine
 10
433.534756
 20
307.364424
 30
0.0
 11
433.534756
 21
309.36391
 31
0.0
  0
LINE
  5
46D
100
AcDbEntity
  8
0
  6
Continuous
 62
     8
100
AcDbLine
 10
433.534756
 20
315.363571
 30
0.0
 11
433.534756
 21
336.638487
 31
0.0
  0
ENDBLK
  5
46E
100
AcDbEntity
  8
0
100
AcDbBlockEnd
  0
BLOCK
  5
471
100
AcDbEntity
  8
0
100
AcDbBlockBegin
  2
*B49
 70
     0
 10
0.0
 20
0.0
 30
0.0
  3
*B49
  1

  0
LINE
  5
472
100
AcDbEntity
  8
0
  6
Continuous
 62
     8
100
AcDbLine
 10
406.536883
 20
147.64676
 30
0.0
 11
406.536883
 21
168.145702
 31
0.0
  0
LINE
  5
473
100
AcDbEntity
  8
0
  6
Continuous
 62
     8
100
AcDbLine
 10
406.536883
 20
184.145199
 30
0.0
 11
406.536883
 21
204.644141
 31
0.0
  0
ENDBLK
  5
474
100
AcDbEntity
  8
0
100
AcDbBlockEnd
  0
BLOCK
  5
477
100
AcDbEntity
  8
0
100
AcDbBlockBegin
  2
*B50
 70
     0
 10
0.0
 20
0.0
 30
0.0
  3
*B50
  1

  0
LINE
  5
478
100
AcDbEntity
  8
0
  6
Continuous
 62
     8
100
AcDbLine
 10
181.550198
 20
431.134049
 30
0.0
 11
181.550198
 21
502.079108
 31
0.0
  0
ENDBLK
  5
479
100
AcDbEntity
  8
0
100
AcDbBlockEnd
  0
BLOCK
  5
47C
100
AcDbEntity
  8
0
100
AcDbBlockBegin
  2
*B51
 70
     0
 10
0.0
 20
0.0
 30
0.0
  3
*B51
  1

  0
LINE
  5
47D
100
AcDbEntity
  8
0
  6
Continuous
 62
     8
100
AcDbLine
 10
523.52967
 20
250.090941
 30
0.0
 11
523.52967
 21
302.140135
 31
0.0
  0
LINE
  5
47E
100
AcDbEntity
  8
0
  6
Continuous
 62
     8
100
AcDbLine
 10
523.52967
 20
413.135066
 30
0.0
 11
523.52967
 21
480.080551
 31
0.0
  0
ENDBLK
  5
47F
100
AcDbEntity
  8
0
100
AcDbBlockEnd
  0
BLOCK
  5
482
100
AcDbEntity
  8
0
100
AcDbBlockBegin
  2
*B52
 70
     0
 10
0.0
 20
0.0
 30
0.0
  3
*B52
  1

  0
LINE
  5
483
100
AcDbEntity
  8
0
  6
Continuous
 62
     8
100
AcDbLine
 10
359.977854
 20
149.146374
 30
0.0
 11
363.978029
 21
149.146374
 31
0.0
  0
LINE
  5
484
100
AcDbEntity
  8
0
  6
Continuous
 62
     8
100
AcDbLine
 10
363.978029
 20
149.146374
 30
0.0
 11
382.366803
 21
149.146374
 31
0.0
  0
LINE
  5
485
100
AcDbEntity
  8
0
  6
Continuous
 62
     8
100
AcDbLine
 10
388.366464
 20
149.146374
 30
0.0
 11
390.366551
 21
149.146374
 31
0.0
  0
LINE
  5
486
100
AcDbEntity
  8
0
  6
Continuous
 62
     8
100
AcDbLine
 10
396.366212
 20
149.146374
 30
0.0
 11
414.755588
 21
149.146374
 31
0.0
  0
LINE
  5
487
100
AcDbEntity
  8
0
  6
Continuous
 62
     8
100
AcDbLine
 10
420.755249
 20
149.146374
 30
0.0
 11
422.754735
 21
149.146374
 31
0.0
  0
LINE
  5
488
100
AcDbEntity
  8
0
  6
Continuous
 62
     8
100
AcDbLine
 10
428.754396
 20
149.146374
 30
0.0
 11
447.143772
 21
149.146374
 31
0.0
  0
LINE
  5
489
100
AcDbEntity
  8
0
  6
Continuous
 62
     8
100
AcDbLine
 10
453.143433
 20
149.146374
 30
0.0
 11
455.143521
 21
149.146374
 31
0.0
  0
LINE
  5
48A
100
AcDbEntity
  8
0
  6
Continuous
 62
     8
100
AcDbLine
 10
461.143182
 20
149.146374
 30
0.0
 11
479.531956
 21
149.146374
 31
0.0
  0
LINE
  5
48B
100
AcDbEntity
  8
0
  6
Continuous
 62
     8
100
AcDbLine
 10
495.531453
 20
149.146374
 30
0.0
 11
502.980801
 21
149.146374
 31
0.0
  0
ENDBLK
  5
48C
100
AcDbEntity
  8
0
100
AcDbBlockEnd
  0
BLOCK
  5
48F
100
AcDbEntity
  8
0
100
AcDbBlockBegin
  2
*B53
 70
     0
 10
0.0
 20
0.0
 30
0.0
  3
*B53
  1

  0
LINE
  5
490
100
AcDbEntity
  8
0
  6
Continuous
 62
     6
100
AcDbLine
 10
647.521862
 20
176.14545
 30
0.0
 11
651.521435
 21
176.14545
 31
0.0
  0
LINE
  5
491
100
AcDbEntity
  8
0
  6
Continuous
 62
     6
100
AcDbLine
 10
649.521348
 20
174.145363
 30
0.0
 11
649.521348
 21
178.145538
 31
0.0
  0
ENDBLK
  5
492
100
AcDbEntity
  8
0
100
AcDbBlockEnd
  0
BLOCK
  5
495
100
AcDbEntity
  8
0
100
AcDbBlockBegin
  2
*B54
 70
     0
 10
0.0
 20
0.0
 30
0.0
  3
*B54
  1

  0
LINE
  5
496
100
AcDbEntity
  8
0
  6
Continuous
 62
     6
100
AcDbLine
 10
460.53323
 20
174.145363
 30
0.0
 11
460.53323
 21
178.145538
 31
0.0
  0
LINE
  5
497
100
AcDbEntity
  8
0
  6
Continuous
 62
     6
100
AcDbLine
 10
458.533744
 20
176.14545
 30
0.0
 11
462.533318
 21
176.14545
 31
0.0
  0
ENDBLK
  5
498
100
AcDbEntity
  8
0
100
AcDbBlockEnd
  0
BLOCK
  5
49B
100
AcDbEntity
  8
0
100
AcDbBlockBegin
  2
*B55
 70
     0
 10
0.0
 20
0.0
 30
0.0
  3
*B55
  1

  0
LINE
  5
49C
100
AcDbEntity
  8
0
  6
Continuous
 62
     6
100
AcDbLine
 10
323.541974
 20
176.14545
 30
0.0
 11
327.541547
 21
176.14545
 31
0.0
  0
LINE
  5
49D
100
AcDbEntity
  8
0
  6
Continuous
 62
     6
100
AcDbLine
 10
325.54146
 20
174.145363
 30
0.0
 11
325.54146
 21
178.145538
 31
0.0
  0
ENDBLK
  5
49E
100
AcDbEntity
  8
0
100
AcDbBlockEnd
  0
BLOCK
  5
4A1
100
AcDbEntity
  8
0
100
AcDbBlockBegin
  2
*B56
 70
     0
 10
0.0
 20
0.0
 30
0.0
  3
*B56
  1

  0
LINE
  5
4A2
100
AcDbEntity
  8
0
  6
Continuous
 62
     6
100
AcDbLine
 10
404.536795
 20
176.14545
 30
0.0
 11
408.536369
 21
176.14545
 31
0.0
  0
LINE
  5
4A3
100
AcDbEntity
  8
0
  6
Continuous
 62
     6
100
AcDbLine
 10
406.536883
 20
174.145363
 30
0.0
 11
406.536883
 21
178.145538
 31
0.0
  0
ENDBLK
  5
4A4
100
AcDbEntity
  8
0
100
AcDbBlockEnd
  0
BLOCK
  5
4A7
100
AcDbEntity
  8
0
100
AcDbBlockBegin
  2
*B57
 70
     0
 10
0.0
 20
0.0
 30
0.0
  3
*B57
  1

  0
LINE
  5
4A8
100
AcDbEntity
  8
0
  6
Continuous
 62
     6
100
AcDbLine
 10
541.528653
 20
174.145363
 30
0.0
 11
541.528653
 21
178.145538
 31
0.0
  0
LINE
  5
4A9
100
AcDbEntity
  8
0
  6
Continuous
 62
     6
100
AcDbLine
 10
539.528566
 20
176.14545
 30
0.0
 11
543.528139
 21
176.14545
 31
0.0
  0
ENDBLK
  5
4AA
100
AcDbEntity
  8
0
100
AcDbBlockEnd
  0
BLOCK
  5
4AD
100
AcDbEntity
  8
0
100
AcDbBlockBegin
  2
*B58
 70
     0
 10
0.0
 20
0.0
 30
0.0
  3
*B58
  1

  0
LINE
  5
4AE
100
AcDbEntity
  8
0
  6
Continuous
 62
     6
100
AcDbLine
 10
487.531704
 20
147.146888
 30
0.0
 11
487.531704
 21
151.146462
 31
0.0
  0
LINE
  5
4AF
100
AcDbEntity
  8
0
  6
Continuous
 62
     6
100
AcDbLine
 10
485.531617
 20
149.146374
 30
0.0
 11
489.531792
 21
149.146374
 31
0.0
  0
ENDBLK
  5
4B0
100
AcDbEntity
  8
0
100
AcDbBlockEnd
  0
BLOCK
  5
4B3
100
AcDbEntity
  8
0
100
AcDbBlockBegin
  2
*B59
 70
     0
 10
0.0
 20
0.0
 30
0.0
  3
*B59
  1

  0
LINE
  5
4B4
100
AcDbEntity
  8
0
  6
Continuous
 62
     6
100
AcDbLine
 10
215.548678
 20
176.14545
 30
0.0
 11
219.548251
 21
176.14545
 31
0.0
  0
LINE
  5
4B5
100
AcDbEntity
  8
0
  6
Continuous
 62
     6
100
AcDbLine
 10
217.548164
 20
174.145363
 30
0.0
 11
217.548164
 21
178.145538
 31
0.0
  0
ENDBLK
  5
4B6
100
AcDbEntity
  8
0
100
AcDbBlockEnd
  0
BLOCK
  5
4B9
100
AcDbEntity
  8
0
100
AcDbBlockBegin
  2
*B60
 70
     0
 10
0.0
 20
0.0
 30
0.0
  3
*B60
  1

  0
LINE
  5
4BA
100
AcDbEntity
  8
0
  6
Continuous
 62
     6
100
AcDbLine
 10
379.538409
 20
201.144439
 30
0.0
 11
379.538409
 21
205.144012
 31
0.0
  0
LINE
  5
4BB
100
AcDbEntity
  8
0
  6
Continuous
 62
     6
100
AcDbLine
 10
377.538321
 20
203.143925
 30
0.0
 11
381.537894
 21
203.143925
 31
0.0
  0
ENDBLK
  5
4BC
100
AcDbEntity
  8
0
100
AcDbBlockEnd
  0
BLOCK
  5
4BF
100
AcDbEntity
  8
0
100
AcDbBlockBegin
  2
*B61
 70
     0
 10
0.0
 20
0.0
 30
0.0
  3
*B61
  1

  0
LINE
  5
4C0
100
AcDbEntity
  8
0
  6
Continuous
 62
     0
100
AcDbLine
 10
429.91956
 20
225.342189
 30
0.0
 11
400.454812
 21
225.342189
 31
0.0
  0
LINE
  5
4C1
100
AcDbEntity
  8
0
  6
Continuous
 62
     0
100
AcDbLine
 10
400.454812
 20
225.342189
 30
0.0
 11
383.550013
 21
207.401555
 31
0.0
  0
SOLID
  5
4C2
100
AcDbEntity
  8
0
  6
Continuous
 62
     0
100
AcDbTrace
 10
388.951753
 20
216.050956
 30
0.0
 11
383.550013
 21
207.401555
 31
0.0
 12
391.863158
 22
213.307978
 32
0.0
 13
391.863158
 23
213.307978
 33
0.0
  0
ENDBLK
  5
4C3
100
AcDbEntity
  8
0
100
AcDbBlockEnd
  0
BLOCK
  5
4C6
100
AcDbEntity
  8
0
100
AcDbBlockBegin
  2
*B62
 70
     0
 10
0.0
 20
0.0
 30
0.0
  3
*B62
  1

  0
TEXT
  5
4C7
100
AcDbEntity
  8
TEXT
  6
Continuous
 62
     0
100
AcDbText
 10
403.479167
 20
230.5
 30
0.0
 40
7.0
  1
%%c2,6
100
AcDbText
  0
ENDBLK
  5
4C8
100
AcDbEntity
  8
0
100
AcDbBlockEnd
  0
BLOCK
  5
4CB
100
AcDbEntity
  8
0
100
AcDbBlockBegin
  2
*B63
 70
     0
 10
0.0
 20
0.0
 30
0.0
  3
*B63
  1

  0
TEXT
  5
4CC
100
AcDbEntity
  8
TEXT
  6
Continuous
 62
     0
100
AcDbText
 10
375.265799
 20
317.0
 30
0.0
 40
12.0
  1
5
100
AcDbText
  0
ENDBLK
  5
4CD
100
AcDbEntity
  8
0
100
AcDbBlockEnd
  0
BLOCK
  5
4D0
100
AcDbEntity
  8
0
100
AcDbBlockBegin
  2
*B64
 70
     0
 10
0.0
 20
0.0
 30
0.0
  3
*B64
  1

  0
TEXT
  5
4D1
100
AcDbEntity
  8
TEXT
  6
Continuous
 62
     0
100
AcDbText
 10
501.031599
 20
352.0
 30
0.0
 40
12.0
  1
12
100
AcDbText
  0
ENDBLK
  5
4D2
100
AcDbEntity
  8
0
100
AcDbBlockEnd
  0
BLOCK
  5
4D5
100
AcDbEntity
  8
0
100
AcDbBlockBegin
  2
*B65
 70
     0
 10
0.0
 20
0.0
 30
0.0
  3
*B65
  1

  0
TEXT
  5
4D6
100
AcDbEntity
  8
TEXT
  6
Continuous
 62
     0
100
AcDbText
 10
455.765799
 20
387.5
 30
0.0
 40
12.0
  1
2
100
AcDbText
  0
ENDBLK
  5
4D7
100
AcDbEntity
  8
0
100
AcDbBlockEnd
  0
BLOCK
  5
4DA
100
AcDbEntity
  8
0
100
AcDbBlockBegin
  2
*B66
 70
     0
 10
0.0
 20
0.0
 30
0.0
  3
*B66
  1

  0
TEXT
  5
4DB
100
AcDbEntity
  8
TEXT
  6
Continuous
 62
     0
100
AcDbText
 10
349.531599
 20
352.0
 30
0.0
 40
12.0
  1
14
100
AcDbText
  0
ENDBLK
  5
4DC
100
AcDbEntity
  8
0
100
AcDbBlockEnd
  0
BLOCK
  5
4DF
100
AcDbEntity
  8
0
100
AcDbBlockBegin
  2
*B67
 70
     0
 10
0.0
 20
0.0
 30
0.0
  3
*B67
  1

  0
TEXT
  5
4E0
100
AcDbEntity
  8
TEXT
  6
Continuous
 62
     0
100
AcDbText
 10
401.765799
 20
387.5
 30
0.0
 40
12.0
  1
4
100
AcDbText
  0
ENDBLK
  5
4E1
100
AcDbEntity
  8
0
100
AcDbBlockEnd
  0
BLOCK
  5
4E4
100
AcDbEntity
  8
0
100
AcDbBlockBegin
  2
*B68
 70
     0
 10
0.0
 20
0.0
 30
0.0
  3
*B68
  1

  0
TEXT
  5
4E5
100
AcDbEntity
  8
TEXT
  6
Continuous
 62
     0
100
AcDbText
 10
483.265799
 20
316.5
 30
0.0
 40
12.0
  1
3
100
AcDbText
  0
ENDBLK
  5
4E6
100
AcDbEntity
  8
0
100
AcDbBlockEnd
  0
BLOCK
  5
4E9
100
AcDbEntity
  8
0
100
AcDbBlockBegin
  2
*B69
 70
     0
 10
0.0
 20
0.0
 30
0.0
  3
*B69
  1

  0
TEXT
  5
4EA
100
AcDbEntity
  8
TEXT
  6
Continuous
 62
     0
100
AcDbText
 10
428.765799
 20
316.5
 30
0.0
 40
12.0
  1
1
100
AcDbText
  0
ENDBLK
  5
4EB
100
AcDbEntity
  8
0
100
AcDbBlockEnd
  0
BLOCK
  5
4EE
100
AcDbEntity
  8
0
100
AcDbBlockBegin
  2
*B70
 70
     0
 10
0.0
 20
0.0
 30
0.0
  3
*B70
  1

  0
TEXT
  5
4EF
100
AcDbEntity
  8
TEXT
  6
Continuous
 62
     0
100
AcDbText
 10
182.380297
 20
269.0
 30
0.0
 40
14.0
  1
180%%d
100
AcDbText
  0
ENDBLK
  5
4F0
100
AcDbEntity
  8
0
100
AcDbBlockEnd
  0
BLOCK
  5
4F3
100
AcDbEntity
  8
0
100
AcDbBlockBegin
  2
*B71
 70
     0
 10
0.0
 20
0.0
 30
0.0
  3
*B71
  1

  0
TEXT
  5
4F4
100
AcDbEntity
  8
TEXT
  6
Continuous
 62
     0
100
AcDbText
 10
485.394806
 20
481.5
 30
0.0
 40
7.0
  1
14
100
AcDbText
  0
ENDBLK
  5
4F5
100
AcDbEntity
  8
0
100
AcDbBlockEnd
  0
BLOCK
  5
4F8
100
AcDbEntity
  8
0
100
AcDbBlockBegin
  2
*B72
 70
     0
 10
0.0
 20
0.0
 30
0.0
  3
*B72
  1

  0
TEXT
  5
4F9
100
AcDbEntity
  8
TEXT
  6
Continuous
 62
     0
100
AcDbText
 10
426.894806
 20
481.5
 30
0.0
 40
7.0
  1
12
100
AcDbText
  0
ENDBLK
  5
4FA
100
AcDbEntity
  8
0
100
AcDbBlockEnd
  0
BLOCK
  5
4FD
100
AcDbEntity
  8
0
100
AcDbBlockBegin
  2
*B73
 70
     0
 10
0.0
 20
0.0
 30
0.0
  3
*B73
  1

  0
TEXT
  5
4FE
100
AcDbEntity
  8
TEXT
  6
Continuous
 62
     0
100
AcDbText
 10
426.894806
 20
255.5
 30
0.0
 40
7.0
  1
40
100
AcDbText
  0
ENDBLK
  5
4FF
100
AcDbEntity
  8
0
100
AcDbBlockEnd
  0
BLOCK
  5
502
100
AcDbEntity
  8
0
100
AcDbBlockBegin
  2
*B74
 70
     0
 10
0.0
 20
0.0
 30
0.0
  3
*B74
  1

  0
TEXT
  5
503
100
AcDbEntity
  8
TEXT
  6
Continuous
 62
     0
100
AcDbText
 10
502.228139
 20
281.5
 30
0.0
 40
7.0
  1
8
100
AcDbText
  0
ENDBLK
  5
504
100
AcDbEntity
  8
0
100
AcDbBlockEnd
  0
BLOCK
  5
507
100
AcDbEntity
  8
0
100
AcDbBlockBegin
  2
*B75
 70
     0
 10
0.0
 20
0.0
 30
0.0
  3
*B75
  1

  0
TEXT
  5
508
100
AcDbEntity
  8
TEXT
  6
Continuous
 62
     0
100
AcDbText
 10
453.894806
 20
281.5
 30
0.0
 40
7.0
  1
12
100
AcDbText
  0
ENDBLK
  5
509
100
AcDbEntity
  8
0
100
AcDbBlockEnd
  0
BLOCK
  5
50C
100
AcDbEntity
  8
0
100
AcDbBlockBegin
  2
*B76
 70
     0
 10
0.0
 20
0.0
 30
0.0
  3
*B76
  1

  0
TEXT
  5
50D
100
AcDbEntity
  8
TEXT
  6
Continuous
 62
     0
100
AcDbText
 10
399.894806
 20
281.5
 30
0.0
 40
7.0
  1
12
100
AcDbText
  0
ENDBLK
  5
50E
100
AcDbEntity
  8
0
100
AcDbBlockEnd
  0
BLOCK
  5
511
100
AcDbEntity
  8
0
100
AcDbBlockBegin
  2
*B77
 70
     0
 10
0.0
 20
0.0
 30
0.0
  3
*B77
  1

  0
TEXT
  5
512
100
AcDbEntity
  8
TEXT
  6
Continuous
 62
     0
100
AcDbText
 10
452.328139
 20
457.5
 30
0.0
 40
7.0
  1
%%c4
100
AcDbText
  0
ENDBLK
  5
513
100
AcDbEntity
  8
0
100
AcDbBlockEnd
  0
BLOCK
  5
516
100
AcDbEntity
  8
0
100
AcDbBlockBegin
  2
*B78
 70
     0
 10
0.0
 20
0.0
 30
0.0
  3
*B78
  1

  0
TEXT
  5
517
100
AcDbEntity
  8
TEXT
  6
Continuous
 62
     0
100
AcDbText
 10
453.079167
 20
371.5
 30
0.0
 40
7.0
  1
%%c3
100
AcDbText
  0
ENDBLK
  5
518
100
AcDbEntity
  8
0
100
AcDbBlockEnd
  0
BLOCK
  5
51B
100
AcDbEntity
  8
0
100
AcDbBlockBegin
  2
*B79
 70
     0
 10
0.0
 20
0.0
 30
0.0
  3
*B79
  1

  0
TEXT
  5
51C
100
AcDbEntity
  8
TEXT
  6
Continuous
 62
     0
100
AcDbText
 10
426.894806
 20
119.5
 30
0.0
 40
7.0
  1
24
100
AcDbText
  0
ENDBLK
  5
51D
100
AcDbEntity
  8
0
100
AcDbBlockEnd
  0
BLOCK
  5
520
100
AcDbEntity
  8
0
100
AcDbBlockBegin
  2
*B80
 70
     0
 10
0.0
 20
0.0
 30
0.0
  3
*B80
  1

  0
TEXT
  5
521
100
AcDbEntity
  8
TEXT
  6
Continuous
 62
     0
100
AcDbText
 10
502.228139
 20
119.5
 30
0.0
 40
7.0
  1
8
100
AcDbText
  0
ENDBLK
  5
522
100
AcDbEntity
  8
0
100
AcDbBlockEnd
  0
BLOCK
  5
525
100
AcDbEntity
  8
0
100
AcDbBlockBegin
  2
*B81
 70
     0
 10
0.0
 20
0.0
 30
0.0
  3
*B81
  1

  0
TEXT
  5
526
100
AcDbEntity
  8
TEXT
  6
Continuous
 62
     0
100
AcDbText
 10
358.5
 20
169.38404
 30
0.0
 40
7.0
  1
12
 50
90.0
100
AcDbText
  0
ENDBLK
  5
527
100
AcDbEntity
  8
0
100
AcDbBlockEnd
  0
BLOCK
  5
52A
100
AcDbEntity
  8
0
100
AcDbBlockBegin
  2
*B82
 70
     0
 10
0.0
 20
0.0
 30
0.0
  3
*B82
  1

  0
TEXT
  5
52B
100
AcDbEntity
  8
TEXT
  6
Continuous
 62
     0
100
AcDbText
 10
423.561472
 20
503.5
 30
0.0
 40
7.0
  1
112
100
AcDbText
  0
ENDBLK
  5
52C
100
AcDbEntity
  8
0
100
AcDbBlockEnd
  0
BLOCK
  5
52F
100
AcDbEntity
  8
0
100
AcDbBlockBegin
  2
*B83
 70
     0
 10
0.0
 20
0.0
 30
0.0
  3
*B83
  1

  0
TEXT
  5
530
100
AcDbEntity
  8
TEXT
  6
Continuous
 62
     0
100
AcDbText
 10
151.5
 20
359.884626
 30
0.0
 40
7.0
  1
26
 50
90.0
100
AcDbText
  0
ENDBLK
  5
531
100
AcDbEntity
  8
0
100
AcDbBlockEnd
  0
BLOCK
  5
534
100
AcDbEntity
  8
0
100
AcDbBlockBegin
  2
*B84
 70
     0
 10
0.0
 20
0.0
 30
0.0
  3
*B84
  1

  0
TEXT
  5
535
100
AcDbEntity
  8
TEXT
  6
Continuous
 62
     0
100
AcDbText
 10
151.5
 20
169.38404
 30
0.0
 40
7.0
  1
16
 50
90.0
100
AcDbText
  0
ENDBLK
  5
536
100
AcDbEntity
  8
0
100
AcDbBlockEnd
  0
BLOCK
  5
539
100
AcDbEntity
  8
0
100
AcDbBlockBegin
  2
*B85
 70
     0
 10
0.0
 20
0.0
 30
0.0
  3
*B85
  1

  0
TEXT
  5
53A
100
AcDbEntity
  8
TEXT
  6
Continuous
 62
     0
100
AcDbText
 10
324.5
 20
350.884626
 30
0.0
 40
7.0
  1
22
 50
90.0
100
AcDbText
  0
ENDBLK
  5
53B
100
AcDbEntity
  8
0
100
AcDbBlockEnd
  0
ENDSEC
  0
SECTION
  2
ENTITIES
  0
INSERT
  5
26C
100
AcDbEntity
  8
0
  6
HIDDEN
 62
   174
100
AcDbBlockReference
  2
*B1
 10
0.0
 20
0.0
 30
0.0
  0
INSERT
  5
304
100
AcDbEntity
  8
0
  6
Continuous
 62
   174
100
AcDbBlockReference
  2
*B2
 10
0.0
 20
0.0
 30
0.0
  0
INSERT
  5
30A
100
AcDbEntity
  8
0
  6
Continuous
 62
   172
100
AcDbBlockReference
  2
*B3
 10
0.0
 20
0.0
 30
0.0
  0
INSERT
  5
315
100
AcDbEntity
  8
0
  6
Continuous
 62
   172
100
AcDbBlockReference
  2
*B4
 10
0.0
 20
0.0
 30
0.0
  0
INSERT
  5
31F
100
AcDbEntity
  8
0
  6
Continuous
 62
     0
100
AcDbBlockReference
  2
*B6
 10
0.0
 20
0.0
 30
0.0
  0
INSERT
  5
326
100
AcDbEntity
  8
0
  6
Continuous
 62
     0
100
AcDbBlockReference
  2
*B7
 10
0.0
 20
0.0
 30
0.0
  0
INSERT
  5
32D
100
AcDbEntity
  8
0
  6
Continuous
 62
     0
100
AcDbBlockReference
  2
*B8
 10
0.0
 20
0.0
 30
0.0
  0
INSERT
  5
334
100
AcDbEntity
  8
0
  6
Continuous
 62
     0
100
AcDbBlockReference
  2
*B9
 10
0.0
 20
0.0
 30
0.0
  0
INSERT
  5
33B
100
AcDbEntity
  8
0
  6
Continuous
 62
     0
100
AcDbBlockReference
  2
*B10
 10
0.0
 20
0.0
 30
0.0
  0
INSERT
  5
342
100
AcDbEntity
  8
0
  6
Continuous
 62
     0
100
AcDbBlockReference
  2
*B11
 10
0.0
 20
0.0
 30
0.0
  0
INSERT
  5
349
100
AcDbEntity
  8
0
  6
Continuous
 62
     0
100
AcDbBlockReference
  2
*B12
 10
0.0
 20
0.0
 30
0.0
  0
INSERT
  5
350
100
AcDbEntity
  8
0
  6
Continuous
 62
     0
100
AcDbBlockReference
  2
*B13
 10
0.0
 20
0.0
 30
0.0
  0
INSERT
  5
357
100
AcDbEntity
  8
0
  6
Continuous
 62
     0
100
AcDbBlockReference
  2
*B14
 10
0.0
 20
0.0
 30
0.0
  0
INSERT
  5
35E
100
AcDbEntity
  8
0
  6
Continuous
 62
     0
100
AcDbBlockReference
  2
*B15
 10
0.0
 20
0.0
 30
0.0
  0
INSERT
  5
365
100
AcDbEntity
  8
0
  6
Continuous
 62
     0
100
AcDbBlockReference
  2
*B16
 10
0.0
 20
0.0
 30
0.0
  0
INSERT
  5
36C
100
AcDbEntity
  8
0
  6
Continuous
 62
     0
100
AcDbBlockReference
  2
*B17
 10
0.0
 20
0.0
 30
0.0
  0
INSERT
  5
373
100
AcDbEntity
  8
0
  6
Continuous
 62
     0
100
AcDbBlockReference
  2
*B18
 10
0.0
 20
0.0
 30
0.0
  0
INSERT
  5
37A
100
AcDbEntity
  8
0
  6
Continuous
 62
     0
100
AcDbBlockReference
  2
*B19
 10
0.0
 20
0.0
 30
0.0
  0
INSERT
  5
381
100
AcDbEntity
  8
0
  6
Continuous
 62
     0
100
AcDbBlockReference
  2
*B20
 10
0.0
 20
0.0
 30
0.0
  0
INSERT
  5
387
100
AcDbEntity
  8
0
  6
Continuous
 62
     8
100
AcDbBlockReference
  2
*B21
 10
0.0
 20
0.0
 30
0.0
  0
INSERT
  5
38C
100
AcDbEntity
  8
0
  6
Continuous
 62
     8
100
AcDbBlockReference
  2
*B22
 10
0.0
 20
0.0
 30
0.0
  0
INSERT
  5
391
100
AcDbEntity
  8
0
  6
Continuous
 62
     8
100
AcDbBlockReference
  2
*B23
 10
0.0
 20
0.0
 30
0.0
  0
INSERT
  5
39B
100
AcDbEntity
  8
0
  6
Continuous
 62
     8
100
AcDbBlockReference
  2
*B24
 10
0.0
 20
0.0
 30
0.0
  0
INSERT
  5
3A1
100
AcDbEntity
  8
0
  6
Continuous
 62
     8
100
AcDbBlockReference
  2
*B25
 10
0.0
 20
0.0
 30
0.0
  0
INSERT
  5
3AC
100
AcDbEntity
  8
0
  6
Continuous
 62
     8
100
AcDbBlockReference
  2
*B26
 10
0.0
 20
0.0
 30
0.0
  0
INSERT
  5
3BA
100
AcDbEntity
  8
0
  6
Continuous
 62
     8
100
AcDbBlockReference
  2
*B27
 10
0.0
 20
0.0
 30
0.0
  0
INSERT
  5
3D1
100
AcDbEntity
  8
0
  6
Continuous
 62
     8
100
AcDbBlockReference
  2
*B28
 10
0.0
 20
0.0
 30
0.0
  0
INSERT
  5
3D7
100
AcDbEntity
  8
0
  6
Continuous
 62
     8
100
AcDbBlockReference
  2
*B29
 10
0.0
 20
0.0
 30
0.0
  0
INSERT
  5
3FE
100
AcDbEntity
  8
0
  6
Continuous
 62
     8
100
AcDbBlockReference
  2
*B30
 10
0.0
 20
0.0
 30
0.0
  0
INSERT
  5
403
100
AcDbEntity
  8
0
  6
Continuous
 62
     8
100
AcDbBlockReference
  2
*B31
 10
0.0
 20
0.0
 30
0.0
  0
INSERT
  5
408
100
AcDbEntity
  8
0
  6
Continuous
 62
     8
100
AcDbBlockReference
  2
*B32
 10
0.0
 20
0.0
 30
0.0
  0
INSERT
  5
40E
100
AcDbEntity
  8
0
  6
Continuous
 62
     8
100
AcDbBlockReference
  2
*B33
 10
0.0
 20
0.0
 30
0.0
  0
INSERT
  5
41C
100
AcDbEntity
  8
0
  6
Continuous
 62
     8
100
AcDbBlockReference
  2
*B34
 10
0.0
 20
0.0
 30
0.0
  0
INSERT
  5
421
100
AcDbEntity
  8
0
  6
Continuous
 62
     8
100
AcDbBlockReference
  2
*B35
 10
0.0
 20
0.0
 30
0.0
  0
INSERT
  5
426
100
AcDbEntity
  8
0
  6
Continuous
 62
     8
100
AcDbBlockReference
  2
*B36
 10
0.0
 20
0.0
 30
0.0
  0
INSERT
  5
42B
100
AcDbEntity
  8
0
  6
Continuous
 62
     8
100
AcDbBlockReference
  2
*B37
 10
0.0
 20
0.0
 30
0.0
  0
INSERT
  5
430
100
AcDbEntity
  8
0
  6
Continuous
 62
     8
100
AcDbBlockReference
  2
*B38
 10
0.0
 20
0.0
 30
0.0
  0
INSERT
  5
43A
100
AcDbEntity
  8
0
  6
Continuous
 62
     8
100
AcDbBlockReference
  2
*B39
 10
0.0
 20
0.0
 30
0.0
  0
INSERT
  5
43F
100
AcDbEntity
  8
0
  6
Continuous
 62
     8
100
AcDbBlockReference
  2
*B40
 10
0.0
 20
0.0
 30
0.0
  0
INSERT
  5
444
100
AcDbEntity
  8
0
  6
Continuous
 62
     8
100
AcDbBlockReference
  2
*B41
 10
0.0
 20
0.0
 30
0.0
  0
INSERT
  5
449
100
AcDbEntity
  8
0
  6
Continuous
 62
     8
100
AcDbBlockReference
  2
*B42
 10
0.0
 20
0.0
 30
0.0
  0
INSERT
  5
450
100
AcDbEntity
  8
0
  6
Continuous
 62
     8
100
AcDbBlockReference
  2
*B43
 10
0.0
 20
0.0
 30
0.0
  0
INSERT
  5
456
100
AcDbEntity
  8
0
  6
Continuous
 62
     8
100
AcDbBlockReference
  2
*B44
 10
0.0
 20
0.0
 30
0.0
  0
INSERT
  5
45D
100
AcDbEntity
  8
0
  6
Continuous
 62
     8
100
AcDbBlockReference
  2
*B45
 10
0.0
 20
0.0
 30
0.0
  0
INSERT
  5
462
100
AcDbEntity
  8
0
  6
Continuous
 62
     8
100
AcDbBlockReference
  2
*B46
 10
0.0
 20
0.0
 30
0.0
  0
INSERT
  5
467
100
AcDbEntity
  8
0
  6
Continuous
 62
     8
100
AcDbBlockReference
  2
*B47
 10
0.0
 20
0.0
 30
0.0
  0
INSERT
  5
46F
100
AcDbEntity
  8
0
  6
Continuous
 62
     8
100
AcDbBlockReference
  2
*B48
 10
0.0
 20
0.0
 30
0.0
  0
INSERT
  5
475
100
AcDbEntity
  8
0
  6
Continuous
 62
     8
100
AcDbBlockReference
  2
*B49
 10
0.0
 20
0.0
 30
0.0
  0
INSERT
  5
47A
100
AcDbEntity
  8
0
  6
Continuous
 62
     8
100
AcDbBlockReference
  2
*B50
 10
0.0
 20
0.0
 30
0.0
  0
INSERT
  5
480
100
AcDbEntity
  8
0
  6
Continuous
 62
     8
100
AcDbBlockReference
  2
*B51
 10
0.0
 20
0.0
 30
0.0
  0
INSERT
  5
48D
100
AcDbEntity
  8
0
  6
Continuous
 62
     8
100
AcDbBlockReference
  2
*B52
 10
0.0
 20
0.0
 30
0.0
  0
INSERT
  5
493
100
AcDbEntity
  8
0
  6
Continuous
 62
     6
100
AcDbBlockReference
  2
*B53
 10
0.0
 20
0.0
 30
0.0
  0
INSERT
  5
499
100
AcDbEntity
  8
0
  6
Continuous
 62
     6
100
AcDbBlockReference
  2
*B54
 10
0.0
 20
0.0
 30
0.0
  0
INSERT
  5
49F
100
AcDbEntity
  8
0
  6
Continuous
 62
     6
100
AcDbBlockReference
  2
*B55
 10
0.0
 20
0.0
 30
0.0
  0
INSERT
  5
4A5
100
AcDbEntity
  8
0
  6
Continuous
 62
     6
100
AcDbBlockReference
  2
*B56
 10
0.0
 20
0.0
 30
0.0
  0
INSERT
  5
4AB
100
AcDbEntity
  8
0
  6
Continuous
 62
     6
100
AcDbBlockReference
  2
*B57
 10
0.0
 20
0.0
 30
0.0
  0
INSERT
  5
4B1
100
AcDbEntity
  8
0
  6
Continuous
 62
     6
100
AcDbBlockReference
  2
*B58
 10
0.0
 20
0.0
 30
0.0
  0
INSERT
  5
4B7
100
AcDbEntity
  8
0
  6
Continuous
 62
     6
100
AcDbBlockReference
  2
*B59
 10
0.0
 20
0.0
 30
0.0
  0
INSERT
  5
4BD
100
AcDbEntity
  8
0
  6
Continuous
 62
     6
100
AcDbBlockReference
  2
*B60
 10
0.0
 20
0.0
 30
0.0
  0
INSERT
  5
4C4
100
AcDbEntity
  8
0
  6
Continuous
 62
     0
100
AcDbBlockReference
  2
*B61
 10
0.0
 20
0.0
 30
0.0
  0
INSERT
  5
4C9
100
AcDbEntity
  8
TEXT
  6
Continuous
 62
     0
100
AcDbBlockReference
  2
*B62
 10
0.0
 20
0.0
 30
0.0
  0
INSERT
  5
4CE
100
AcDbEntity
  8
TEXT
  6
Continuous
 62
     0
100
AcDbBlockReference
  2
*B63
 10
0.0
 20
0.0
 30
0.0
  0
INSERT
  5
4D3
100
AcDbEntity
  8
TEXT
  6
Continuous
 62
     0
100
AcDbBlockReference
  2
*B64
 10
0.0
 20
0.0
 30
0.0
  0
INSERT
  5
4D8
100
AcDbEntity
  8
TEXT
  6
Continuous
 62
     0
100
AcDbBlockReference
  2
*B65
 10
0.0
 20
0.0
 30
0.0
  0
INSERT
  5
4DD
100
AcDbEntity
  8
TEXT
  6
Continuous
 62
     0
100
AcDbBlockReference
  2
*B66
 10
0.0
 20
0.0
 30
0.0
  0
INSERT
  5
4E2
100
AcDbEntity
  8
TEXT
  6
Continuous
 62
     0
100
AcDbBlockReference
  2
*B67
 10
0.0
 20
0.0
 30
0.0
  0
INSERT
  5
4E7
100
AcDbEntity
  8
TEXT
  6
Continuous
 62
     0
100
AcDbBlockReference
  2
*B68
 10
0.0
 20
0.0
 30
0.0
  0
INSERT
  5
4EC
100
AcDbEntity
  8
TEXT
  6
Continuous
 62
     0
100
AcDbBlockReference
  2
*B69
 10
0.0
 20
0.0
 30
0.0
  0
INSERT
  5
4F1
100
AcDbEntity
  8
TEXT
  6
Continuous
 62
     0
100
AcDbBlockReference
  2
*B70
 10
0.0
 20
0.0
 30
0.0
  0
INSERT
  5
4F6
100
AcDbEntity
  8
TEXT
  6
Continuous
 62
     0
100
AcDbBlockReference
  2
*B71
 10
0.0
 20
0.0
 30
0.0
  0
INSERT
  5
4FB
100
AcDbEntity
  8
TEXT
  6
Continuous
 62
     0
100
AcDbBlockReference
  2
*B72
 10
0.0
 20
0.0
 30
0.0
  0
INSERT
  5
500
100
AcDbEntity
  8
TEXT
  6
Continuous
 62
     0
100
AcDbBlockReference
  2
*B73
 10
0.0
 20
0.0
 30
0.0
  0
INSERT
  5
505
100
AcDbEntity
  8
TEXT
  6
Continuous
 62
     0
100
AcDbBlockReference
  2
*B74
 10
0.0
 20
0.0
 30
0.0
  0
INSERT
  5
50A
100
AcDbEntity
  8
TEXT
  6
Continuous
 62
     0
100
AcDbBlockReference
  2
*B75
 10
0.0
 20
0.0
 30
0.0
  0
INSERT
  5
50F
100
AcDbEntity
  8
TEXT
  6
Continuous
 62
     0
100
AcDbBlockReference
  2
*B76
 10
0.0
 20
0.0
 30
0.0
  0
INSERT
  5
514
100
AcDbEntity
  8
TEXT
  6
Continuous
 62
     0
100
AcDbBlockReference
  2
*B77
 10
0.0
 20
0.0
 30
0.0
  0
INSERT
  5
519
100
AcDbEntity
  8
TEXT
  6
Continuous
 62
     0
100
AcDbBlockReference
  2
*B78
 10
0.0
 20
0.0
 30
0.0
  0
INSERT
  5
51E
100
AcDbEntity
  8
TEXT
  6
Continuous
 62
     0
100
AcDbBlockReference
  2
*B79
 10
0.0
 20
0.0
 30
0.0
  0
INSERT
  5
523
100
AcDbEntity
  8
TEXT
  6
Continuous
 62
     0
100
AcDbBlockReference
  2
*B80
 10
0.0
 20
0.0
 30
0.0
  0
INSERT
  5
528
100
AcDbEntity
  8
TEXT
  6
Continuous
 62
     0
100
AcDbBlockReference
  2
*B81
 10
0.0
 20
0.0
 30
0.0
  0
INSERT
  5
52D
100
AcDbEntity
  8
TEXT
  6
Continuous
 62
     0
100
AcDbBlockReference
  2
*B82
 10
0.0
 20
0.0
 30
0.0
  0
INSERT
  5
532
100
AcDbEntity
  8
TEXT
  6
Continuous
 62
     0
100
AcDbBlockReference
  2
*B83
 10
0.0
 20
0.0
 30
0.0
  0
INSERT
  5
537
100
AcDbEntity
  8
TEXT
  6
Continuous
 62
     0
100
AcDbBlockReference
  2
*B84
 10
0.0
 20
0.0
 30
0.0
  0
INSERT
  5
53C
100
AcDbEntity
  8
TEXT
  6
Continuous
 62
     0
100
AcDbBlockReference
  2
*B85
 10
0.0
 20
0.0
 30
0.0
  0
ENDSEC
  0
SECTION
  2
OBJECTS
  0
DICTIONARY
  5
19
100
AcDbDictionary
280
     0
281
     1
  3
ACAD_GROUP
350
1A
  3
ACAD_MLINESTYLE
350
1B
  3
ACAD_LAYOUT
350
1E
  3
ACAD_PLOTSETTINGS
350
22
  3
ACAD_PLOTSTYLENAME
350
1F
  3
ACAD_WIPEOUT_VARS
350
23
  0
DICTIONARY
  5
1A
102
{ACAD_REACTORS
330
19
102
}
100
AcDbDictionary
280
     0
281
     1
  0
DICTIONARY
  5
1B
102
{ACAD_REACTORS
330
19
102
}
100
AcDbDictionary
280
     0
281
     1
  3
Standard
350
1C
  0
MLINESTYLE
  5
1C
102
{ACAD_REACTORS
330
1B
102
}
100
AcDbMlineStyle
  2
Standard
 70
     0
  3

 62
     0
 51
90.0
 52
90.0
 71
     2
 49
0.5
 62
   256
  6
BYLAYER
 49
-0.5
 62
   256
  6
BYLAYER
  0
ACDBDICTIONARYWDFLT
  5
1F
102
{ACAD_REACTORS
330
19
102
}
100
AcDbDictionary
281
     1
  3
Normal
350
1D
100
AcDbDictionaryWithDefault
340
1D
  0
ACDBPLACEHOLDER
  5
1D
102
{ACAD_REACTORS
330
1F
102
}
  0
LAYOUT
  5
20
102
{ACAD_REACTORS
330
1E
102
}
100
AcDbPlotSettings
  1

  2

  4

  6

 40
0.0
 41
0.0
 42
0.0
 43
0.0
 44
0.0
 45
0.0
 46
0.0
 47
0.0
 48
0.0
 49
0.0
140
0.0
141
0.0
142
1.0
143
1.0
 70
     0
 72
     0
 73
     0
 74
     0
  7

 75
     0
147
1.0
148
0.0
149
0.0
100
AcDbLayout
  1
Model
 70
     0
 71
     0
 10
0.0
 20
0.0
 11
0.0
 21
0.0
 12
0.0
 22
0.0
 32
0.0
 14
0.0
 24
0.0
 34
0.0
 15
0.0
 25
0.0
 35
0.0
146
0.0
 13
0.0
 23
0.0
 33
0.0
 16
0.0
 26
0.0
 36
0.0
 17
0.0
 27
0.0
 37
0.0
 76
     0
330
A
331
0
345
0
346
0
  0
LAYOUT
  5
21
102
{ACAD_REACTORS
330
1E
102
}
100
AcDbPlotSettings
  1

  2

  4

  6

 40
0.0
 41
0.0
 42
0.0
 43
0.0
 44
0.0
 45
0.0
 46
0.0
 47
0.0
 48
0.0
 49
0.0
140
0.0
141
0.0
142
1.0
143
1.0
 70
     0
 72
     0
 73
     0
 74
     0
  7

 75
     0
147
1.0
148
0.0
149
0.0
100
AcDbLayout
  1
Layout1
 70
     0
 71
     0
 10
0.0
 20
0.0
 11
0.0
 21
0.0
 12
0.0
 22
0.0
 32
0.0
 14
0.0
 24
0.0
 34
0.0
 15
0.0
 25
0.0
 35
0.0
146
0.0
 13
0.0
 23
0.0
 33
0.0
 16
0.0
 26
0.0
 36
0.0
 17
0.0
 27
0.0
 37
0.0
 76
     0
330
B
331
0
345
0
346
0
  0
DICTIONARY
  5
1E
102
{ACAD_REACTORS
330
19
102
}
100
AcDbDictionary
280
     0
281
     1
  3
Layout1
350
21
  3
Model
350
20
  0
DICTIONARY
  5
22
102
{ACAD_REACTORS
330
19
102
}
100
AcDbDictionary
280
     0
281
     1
  0
WIPEOUTVARIABLES
  5
23
100
AcDbWipeoutVariables
 70
     1
  0
ENDSEC
  0
EOF
