  0
SECTION
  2
HEADER
  9
$ACADVER
  1
AC1015
  9
$ACADMAINTVER
 70
     6
  9
$DWGCODEPAGE
  3
DOS850
  9
$INSBASE
 10
0.0
 20
0.0
 30
0.0
  9
$EXTMIN
 10
0.0
 20
0.0
 30
0.0
  9
$EXTMAX
 10
841.0
 20
595.0
 30
0.0
  9
$LIMMIN
 10
0.0
 20
0.0
  9
$LIMMAX
 10
841.0
 20
595.0
  9
$ORTHOMODE
 70
     0
  9
$REGENMODE
 70
     1
  9
$FILLMODE
 70
     1
  9
$QTEXTMODE
 70
     0
  9
$MIRRTEXT
 70
     1
  9
$LTSCALE
 40
25.4
  9
$ATTMODE
 70
     1
  9
$TEXTSIZE
 40
3.5
  9
$TRACEWID
 40
0.05
  9
$TEXTSTYLE
  7
Standard
  9
$CLAYER
  8
0
  9
$CELTYPE
  6
Continuous
  9
$CECOLOR
 62
   256
  9
$CELTSCALE
 40
1.0
  9
$DISPSILH
 70
     0
  9
$DIMSCALE
 40
1.0
  9
$DIMASZ
 40
5.0
  9
$DIMEXO
 40
3.0
  9
$DIMDLI
 40
0.38
  9
$DIMRND
 40
0.0
  9
$DIMDLE
 40
0.0
  9
$DIMEXE
 40
2.0
  9
$DIMTP
 40
0.0
  9
$DIMTM
 40
0.0
  9
$DIMTXT
 40
3.5
  9
$DIMCEN
 40
4.0
  9
$DIMTSZ
 40
0.0
  9
$DIMTOL
 70
     0
  9
$DIMLIM
 70
     0
  9
$DIMTIH
 70
     1
  9
$DIMTOH
 70
     1
  9
$DIMSE1
 70
     0
  9
$DIMSE2
 70
     0
  9
$DIMTAD
 70
     0
  9
$DIMZIN
 70
     0
  9
$DIMBLK
  1

  9
$DIMASO
 70
     1
  9
$DIMSHO
 70
     1
  9
$DIMPOST
  1

  9
$DIMAPOST
  1

  9
$DIMALT
 70
     0
  9
$DIMALTD
 70
     2
  9
$DIMALTF
 40
25.4
  9
$DIMLFAC
 40
1.0
  9
$DIMTOFL
 70
     0
  9
$DIMTVP
 40
0.0
  9
$DIMTIX
 70
     0
  9
$DIMSOXD
 70
     0
  9
$DIMSAH
 70
     0
  9
$DIMBLK1
  1

  9
$DIMBLK2
  1

  9
$DIMSTYLE
  2
Standard
  9
$DIMCLRD
 70
     0
  9
$DIMCLRE
 70
     0
  9
$DIMCLRT
 70
     0
  9
$DIMTFAC
 40
1.0
  9
$DIMGAP
 40
1.0
  9
$DIMJUST
 70
     0
  9
$DIMSD1
 70
     0
  9
$DIMSD2
 70
     0
  9
$DIMTOLJ
 70
     1
  9
$DIMTZIN
 70
     0
  9
$DIMALTZ
 70
     0
  9
$DIMALTTZ
 70
     0
  9
$DIMUPT
 70
     0
  9
$DIMDEC
 70
     4
  9
$DIMTDEC
 70
     4
  9
$DIMALTU
 70
     2
  9
$DIMALTTD
 70
     2
  9
$DIMTXSTY
  7
Standard
  9
$DIMAUNIT
 70
     0
  9
$DIMADEC
 70
     0
  9
$DIMALTRND
 40
0.0
  9
$DIMAZIN
 70
     0
  9
$DIMDSEP
 70
     0
  9
$DIMATFIT
 70
     3
  9
$DIMFRAC
 70
     0
  9
$DIMLDRBLK
  1

  9
$DIMLUNIT
 70
     2
  9
$DIMLWD
 70
     0
  9
$DIMLWE
 70
     0
  9
$DIMTMOVE
 70
     0
  9
$LUNITS
 70
     2
  9
$LUPREC
 70
     4
  9
$SKETCHINC
 40
0.1
  9
$FILLETRAD
 40
0.0
  9
$AUNITS
 70
     0
  9
$AUPREC
 70
     0
  9
$MENU
  1
acad
  9
$ELEVATION
 40
0.0
  9
$PELEVATION
 40
0.0
  9
$THICKNESS
 40
0.0
  9
$LIMCHECK
 70
     0
  9
$CHAMFERA
 40
0.0
  9
$CHAMFERB
 40
0.0
  9
$CHAMFERC
 40
0.0
  9
$CHAMFERD
 40
0.0
  9
$SKPOLY
 70
     0
  9
$TDCREATE
 40
0.000000000
  9
$TDUCREATE
 40
0.000000000
  9
$TDUPDATE
 40
0.000000000
  9
$TDUUPDATE
 40
0.000000000
  9
$TDINDWG
 40
0.0000000000
  9
$TDUSRTIMER
 40
0.0000000000
  9
$USRTIMER
 70
     1
  9
$ANGBASE
 50
0.0
  9
$ANGDIR
 70
     0
  9
$PDMODE
 70
     0
  9
$PDSIZE
 40
0.0
  9
$PLINEWID
 40
0.0
  9
$SPLFRAME
 70
     0
  9
$SPLINETYPE
 70
     6
  9
$SPLINESEGS
 70
     8
  9
$HANDSEED
  5
500
  9
$SURFTAB1
 70
     6
  9
$SURFTAB2
 70
     6
  9
$SURFTYPE
 70
     6
  9
$SURFU
 70
     6
  9
$SURFV
 70
     6
  9
$UCSBASE
  2

  9
$UCSNAME
  2

  9
$UCSORG
 10
0.0
 20
0.0
 30
0.0
  9
$UCSXDIR
 10
1.0
 20
0.0
 30
0.0
  9
$UCSYDIR
 10
0.0
 20
1.0
 30
0.0
  9
$UCSORTHOREF
  2

  9
$UCSORTHOVIEW
 70
     0
  9
$UCSORGTOP
 10
0.0
 20
0.0
 30
0.0
  9
$UCSORGBOTTOM
 10
0.0
 20
0.0
 30
0.0
  9
$UCSORGLEFT
 10
0.0
 20
0.0
 30
0.0
  9
$UCSORGRIGHT
 10
0.0
 20
0.0
 30
0.0
  9
$UCSORGFRONT
 10
0.0
 20
0.0
 30
0.0
  9
$UCSORGBACK
 10
0.0
 20
0.0
 30
0.0
  9
$PUCSBASE
  2

  9
$PUCSNAME
  2

  9
$PUCSORG
 10
0.0
 20
0.0
 30
0.0
  9
$PUCSXDIR
 10
1.0
 20
0.0
 30
0.0
  9
$PUCSYDIR
 10
0.0
 20
1.0
 30
0.0
  9
$PUCSORTHOREF
  2

  9
$PUCSORTHOVIEW
 70
     0
  9
$PUCSORGTOP
 10
0.0
 20
0.0
 30
0.0
  9
$PUCSORGBOTTOM
 10
0.0
 20
0.0
 30
0.0
  9
$PUCSORGLEFT
 10
0.0
 20
0.0
 30
0.0
  9
$PUCSORGRIGHT
 10
0.0
 20
0.0
 30
0.0
  9
$PUCSORGFRONT
 10
0.0
 20
0.0
 30
0.0
  9
$PUCSORGBACK
 10
0.0
 20
0.0
 30
0.0
  9
$USERI1
 70
     0
  9
$USERI2
 70
     0
  9
$USERI3
 70
     0
  9
$USERI4
 70
     0
  9
$USERI5
 70
     0
  9
$USERR1
 40
0.0
  9
$USERR2
 40
0.0
  9
$USERR3
 40
0.0
  9
$USERR4
 40
0.0
  9
$USERR5
 40
0.0
  9
$WORLDVIEW
 70
     1
  9
$SHADEDGE
 70
     3
  9
$SHADEDIF
 70
    70
  9
$TILEMODE
 70
     1
  9
$MAXACTVP
 70
    16
  9
$PINSBASE
 10
0.0
 20
0.0
 30
0.0
  9
$PLIMCHECK
 70
     0
  9
$PEXTMIN
 10
1.000000E+20
 20
1.000000E+20
 30
1.000000E+20
  9
$PEXTMAX
 10
-1.000000E+20
 20
-1.000000E+20
 30
-1.000000E+20
  9
$PLIMMIN
 10
0.0
 20
0.0
  9
$PLIMMAX
 10
841.0
 20
595.0
  9
$UNITMODE
 70
     0
  9
$VISRETAIN
 70
     0
  9
$PLINEGEN
 70
     1
  9
$PSLTSCALE
 70
     0
  9
$TREEDEPTH
 70
  3020
  9
$CMLSTYLE
  2
Standard
  9
$CMLJUST
 70
     0
  9
$CMLSCALE
 40
1.0
  9
$PROXYGRAPHICS
 70
     0
  9
$MEASUREMENT
 70
     0
  9
$CELWEIGHT
370
     0
  9
$ENDCAPS
280
     0
  9
$JOINSTYLE
280
     0
  9
$LWDISPLAY
290
     0
  9
$INSUNITS
 70
     0
  9
$HYPERLINKBASE
  1

  9
$XEDIT
290
     1
  9
$CEPSNTYPE
380
     0
  9
$PSTYLEMODE
290
     0
  9
$FINGERPRINTGUID
  2

  9
$VERSIONGUID
  2

  9
$EXTNAMES
290
     1
  9
$PSVPSCALE
 40
0.0
  0
ENDSEC
  0
SECTION
  2
CLASSES
  0
CLASS
  1
LWPOLYLINE
  2
AcDbPolyline
  3
"AutoCAD"
 90
        0
280
     0
281
     1
  0
CLASS
  1
IMAGE
  2
AcDbRasterImage
  3
ISM
 90
      127
280
     0
281
     1
  0
CLASS
  1
OLE2FRAME
  2
AcDbOle2Frame
  3
""
 90
        0
280
     0
281
     1
  0
CLASS
  1
HATCH
  2
AcDbHatch
  3
"ACAD_SEDONA"
 90
        0
280
     0
281
     1
  0
CLASS
  1
DICTIONARYVAR
  2
AcDbDictionaryVar
  3
"AutoCAD"
 90
        0
280
     0
281
     0
  0
CLASS
  1
RASTERVARIABLES
  2
AcDbRasterVariables
  3
ISM
 90
        0
280
     0
281
     0
  0
CLASS
  1
IMAGEDEF
  2
AcDbRasterImageDef
  3
ISM
 90
        0
280
     0
281
     0
  0
CLASS
  1
IMAGEDEF_REACTOR
  2
AcDbRasterImageDefReactor
  3
ISM
 90
        1
280
     0
281
     0
  0
CLASS
  1
IDBUFFER
  2
AcDbIdBuffer
  3
"Acad"
 90
        0
280
     0
281
     0
  0
CLASS
  1
SPATIAL_FILTER
  2
AcDbSpatialFilter
  3
"Acad"
 90
        0
280
     0
281
     0
  0
CLASS
  1
XRECORD
  2
AcDbXrecord
  3
"<Built In>"
 90
        0
280
     0
281
     0
  0
CLASS
  1
SORTENTSTABLE
  2
AcDbSortentsTable
  3
"AutoCAD"
 90
        0
280
     0
281
     0
  0
CLASS
  1
LAYER_INDEX
  2
AcDbLayerIndex
  3
"Acad"
 90
        0
280
     0
281
     0
  0
CLASS
  1
SPATIAL_INDEX
  2
AcDbSpatialIndex
  3
"Acad"
 90
        0
280
     0
281
     0
  0
CLASS
  1
OBJECT_PTR
  2
CAseDLPNTableRecord
  3
"ASE-LPNTableRecord"
 90
        1
280
     0
281
     0
  0
CLASS
  1
LAYOUT
  2
AcDbLayout
  3
"AutoCAD 2000"
 90
        1
280
     0
281
     0
  0
CLASS
  1
PLOTSETTINGS
  2
AcDbPlotSettings
  3
"AutoCAD 2000"
 90
        1
280
     0
281
     0
  0
CLASS
  1
ACDBDICTIONARYWDFLT
  2
AcDbDictionaryWithDefault
  3
"AutoCAD 2000"
 90
        1
280
     0
281
     0
  0
CLASS
  1
ACDBPLACEHOLDER
  2
AcDbPlaceHolder
  3
"AutoCAD 2000"
 90
        1
280
     0
281
     0
  0
CLASS
  1
VBA_PROJECT
  2
AcDbVbaProject
  3
"acadvba"
 90
        1
280
     0
281
     0
  0
CLASS
  1
WIPEOUT
  2
AcDbWipeout
  3
WipeOut|AutoCAD Express Tool|expresstools@autodesk.com
 90
      127
280
     0
281
     1
  0
CLASS
  1
WIPEOUTVARIABLES
  2
AcDbWipeoutVariables
  3
WipeOut|AutoCAD Express Tool|expresstools@autodesk.com
 90
        0
280
     0
281
     0
  0
CLASS
  1
RTEXT
  2
RText
  3
RText|AutoCAD Express Tool|expresstools@autodesk.com
 90
        0
280
     0
281
     1
  0
CLASS
  1
ARCALIGNEDTEXT
  2
AcDbArcAlignedText
  3
ATEXT|AutoCAD Express Tool|expresstools@autodesk.com
 90
        0
280
     0
281
     1
  0
ENDSEC
  0
SECTION
  2
TABLES
  0
TABLE
  2
VPORT
  5
7
100
AcDbSymbolTable
 70
     1
  0
VPORT
  5
15
100
AcDbSymbolTableRecord
100
AcDbViewportTableRecord
  2
*ACTIVE
 70
     0
 10
0.0
 20
0.0
 11
1.0
 21
1.0
 12
6.591288
 22
4.579184
 13
0.0
 23
0.0
 14
1.0
 24
1.0
 15
0.0
 25
0.0
 16
0.0
 26
0.0
 36
1.0
 17
0.0
 27
0.0
 37
0.0
 40
9.158369
 41
0.688564
 42
50.0
 43
0.0
 44
0.0
 50
0.0
 51
0.0
 71
     0
 72
   100
 73
     1
 74
     1
 75
     0
 76
     0
 77
     0
 78
     0
281
     0
 65
     0
110
0.0
120
0.0
130
0.0
111
1.0
121
0.0
131
0.0
112
0.0
122
1.0
132
0.0
345
0
346
0
 79
     0
146
0.0
  0
ENDTAB
  0
TABLE
  2
LTYPE
  5
4
100
AcDbSymbolTable
 70
     7
  0
LTYPE
  5
11
100
AcDbSymbolTableRecord
100
AcDbLinetypeTableRecord
  2
ByBlock
 70
    64
  3

 72
    65
 73
     0
 40
0.0
  0
LTYPE
  5
12
100
AcDbSymbolTableRecord
100
AcDbLinetypeTableRecord
  2
ByLayer
 70
    64
  3

 72
    65
 73
     0
 40
0.0
  0
LTYPE
  5
13
100
AcDbSymbolTableRecord
100
AcDbLinetypeTableRecord
  2
Continuous
 70
    64
  3
Solid line
 72
    65
 73
     0
 40
0.0
  0
LTYPE
  5
24
100
AcDbSymbolTableRecord
100
AcDbLinetypeTableRecord
  2
HIDDEN
 70
    64
  3
_ _ _ _ _ _ _ _ _ _ _ _ _ _ _ _ _ _ _ _ _ _ _ _
 72
    65
 73
     2
 40
0.1875
 49
0.125
 74
     0
 49
-0.0625
 74
     0
  0
LTYPE
  5
25
100
AcDbSymbolTableRecord
100
AcDbLinetypeTableRecord
  2
DOTTED
 70
    64
  3
...............................................
 72
    65
 73
     2
 40
0.125
 49
0.0
 74
     0
 49
-0.125
 74
     0
  0
LTYPE
  5
26
100
AcDbSymbolTableRecord
100
AcDbLinetypeTableRecord
  2
CENTER
 70
    64
  3
____ _ ____ _ ____ _ ____ _ ____ _ ____ _ ____ 
 72
    65
 73
     4
 40
1.125
 49
0.75
 74
     0
 49
-0.125
 74
     0
 49
0.125
 74
     0
 49
-0.125
 74
     0
  0
LTYPE
  5
27
100
AcDbSymbolTableRecord
100
AcDbLinetypeTableRecord
  2
PHANTOM
 70
    64
  3
______  __  __  ______  __  __  ______  __  __ 
 72
    65
 73
     6
 40
1.25
 49
0.625
 74
     0
 49
-0.125
 74
     0
 49
0.125
 74
     0
 49
-0.125
 74
     0
 49
0.125
 74
     0
 49
-0.125
 74
     0
  0
ENDTAB
  0
TABLE
  2
LAYER
  5
2
100
AcDbSymbolTable
 70
     2
  0
LAYER
  5
14
100
AcDbSymbolTableRecord
100
AcDbLayerTableRecord
  2
0
 70
     0
 62
     7
  6
Continuous
290
     1
370
    -3
390
1D
  0
LAYER
  5
28
100
AcDbSymbolTableRecord
100
AcDbLayerTableRecord
  2
TEXT
 70
     0
 62
     8
  6
Continuous
290
     1
370
    -3
390
1F
  0
ENDTAB
  0
TABLE
  2
STYLE
  5
3
100
AcDbSymbolTable
 70
     1
  0
STYLE
  5
17
100
AcDbSymbolTableRecord
100
AcDbTextStyleTableRecord
  2
Standard
 70
     0
 40
0.0
 41
1.0
 50
0.0
 71
     0
 42
0.0
  3
txt
  4

  0
ENDTAB
  0
TABLE
  2
VIEW
  5
5
100
AcDbSymbolTable
 70
     0
  0
ENDTAB
  0
TABLE
  2
UCS
  5
6
100
AcDbSymbolTable
 70
     0
  0
ENDTAB
  0
TABLE
  2
APPID
  5
8
100
AcDbSymbolTable
 70
     1
  0
APPID
  5
16
100
AcDbSymbolTableRecord
100
AcDbRegAppTableRecord
  2
ACAD
 70
     0
  0
ENDTAB
  0
TABLE
  2
DIMSTYLE
  5
9
100
AcDbSymbolTable
 70
     1
100
AcDbDimStyleTable
 71
     0
  0
DIMSTYLE
105
18
100
AcDbSymbolTableRecord
100
AcDbDimStyleTableRecord
  2
Standard
 70
     0
  3

  4

 40
1.0
 41
0.18
 42
0.0625
 43
0.38
 44
0.18
 45
0.0
 46
0.0
 47
0.0
 48
0.0
 71
     0
 72
     0
 73
     1
 74
     1
 75
     0
 76
     0
 77
     0
 78
     0
 79
     0
140
0.18
141
0.09
142
0.0
143
25.4
144
1.0
145
0.0
146
1.0
147
0.09
148
0.0
170
     0
171
     2
172
     0
173
     0
174
     0
175
     0
176
     0
177
     0
178
     0
179
     0
271
     4
272
     4
273
     2
274
     2
275
     0
276
     0
277
     2
278
    46
279
     0
280
     0
281
     0
282
     0
283
     1
284
     0
285
     0
286
     0
288
     0
340
17
341
0
342
0
343
0
344
0
371
    -2
372
    -2
  0
ENDTAB
  0
TABLE
  2
BLOCK_RECORD
  5
1
100
AcDbSymbolTable
 70
    86
  0
BLOCK_RECORD
  5
A
100
AcDbSymbolTableRecord
100
AcDbBlockTableRecord
  2
*MODEL_SPACE
340
20
  0
BLOCK_RECORD
  5
B
100
AcDbSymbolTableRecord
100
AcDbBlockTableRecord
  2
*PAPER_SPACE
340
21
  0
BLOCK_RECORD
  5
29
100
AcDbSymbolTableRecord
100
AcDbBlockTableRecord
  2
*B0
340
0
  0
BLOCK_RECORD
  5
2C
100
AcDbSymbolTableRecord
100
AcDbBlockTableRecord
  2
*B1
340
0
  0
BLOCK_RECORD
  5
21A
100
AcDbSymbolTableRecord
100
AcDbBlockTableRecord
  2
*B2
340
0
  0
BLOCK_RECORD
  5
2BE
100
AcDbSymbolTableRecord
100
AcDbBlockTableRecord
  2
*B3
340
0
  0
BLOCK_RECORD
  5
2C4
100
AcDbSymbolTableRecord
100
AcDbBlockTableRecord
  2
*B4
340
0
  0
BLOCK_RECORD
  5
2CF
100
AcDbSymbolTableRecord
100
AcDbBlockTableRecord
  2
*B5
340
0
  0
BLOCK_RECORD
  5
2D2
100
AcDbSymbolTableRecord
100
AcDbBlockTableRecord
  2
*B6
340
0
  0
BLOCK_RECORD
  5
2D9
100
AcDbSymbolTableRecord
100
AcDbBlockTableRecord
  2
*B7
340
0
  0
BLOCK_RECORD
  5
2E0
100
AcDbSymbolTableRecord
100
AcDbBlockTableRecord
  2
*B8
340
0
  0
BLOCK_RECORD
  5
2E7
100
AcDbSymbolTableRecord
100
AcDbBlockTableRecord
  2
*B9
340
0
  0
BLOCK_RECORD
  5
2EE
100
AcDbSymbolTableRecord
100
AcDbBlockTableRecord
  2
*B10
340
0
  0
BLOCK_RECORD
  5
2F5
100
AcDbSymbolTableRecord
100
AcDbBlockTableRecord
  2
*B11
340
0
  0
BLOCK_RECORD
  5
2FC
100
AcDbSymbolTableRecord
100
AcDbBlockTableRecord
  2
*B12
340
0
  0
BLOCK_RECORD
  5
303
100
AcDbSymbolTableRecord
100
AcDbBlockTableRecord
  2
*B13
340
0
  0
BLOCK_RECORD
  5
30A
100
AcDbSymbolTableRecord
100
AcDbBlockTableRecord
  2
*B14
340
0
  0
BLOCK_RECORD
  5
311
100
AcDbSymbolTableRecord
100
AcDbBlockTableRecord
  2
*B15
340
0
  0
BLOCK_RECORD
  5
318
100
AcDbSymbolTableRecord
100
AcDbBlockTableRecord
  2
*B16
340
0
  0
BLOCK_RECORD
  5
31F
100
AcDbSymbolTableRecord
100
AcDbBlockTableRecord
  2
*B17
340
0
  0
BLOCK_RECORD
  5
326
100
AcDbSymbolTableRecord
100
AcDbBlockTableRecord
  2
*B18
340
0
  0
BLOCK_RECORD
  5
32D
100
AcDbSymbolTableRecord
100
AcDbBlockTableRecord
  2
*B19
340
0
  0
BLOCK_RECORD
  5
334
100
AcDbSymbolTableRecord
100
AcDbBlockTableRecord
  2
*B20
340
0
  0
BLOCK_RECORD
  5
33B
100
AcDbSymbolTableRecord
100
AcDbBlockTableRecord
  2
*B21
340
0
  0
BLOCK_RECORD
  5
340
100
AcDbSymbolTableRecord
100
AcDbBlockTableRecord
  2
*B22
340
0
  0
BLOCK_RECORD
  5
345
100
AcDbSymbolTableRecord
100
AcDbBlockTableRecord
  2
*B23
340
0
  0
BLOCK_RECORD
  5
34B
100
AcDbSymbolTableRecord
100
AcDbBlockTableRecord
  2
*B24
340
0
  0
BLOCK_RECORD
  5
35A
100
AcDbSymbolTableRecord
100
AcDbBlockTableRecord
  2
*B25
340
0
  0
BLOCK_RECORD
  5
364
100
AcDbSymbolTableRecord
100
AcDbBlockTableRecord
  2
*B26
340
0
  0
BLOCK_RECORD
  5
36A
100
AcDbSymbolTableRecord
100
AcDbBlockTableRecord
  2
*B27
340
0
  0
BLOCK_RECORD
  5
36F
100
AcDbSymbolTableRecord
100
AcDbBlockTableRecord
  2
*B28
340
0
  0
BLOCK_RECORD
  5
379
100
AcDbSymbolTableRecord
100
AcDbBlockTableRecord
  2
*B29
340
0
  0
BLOCK_RECORD
  5
37F
100
AcDbSymbolTableRecord
100
AcDbBlockTableRecord
  2
*B30
340
0
  0
BLOCK_RECORD
  5
385
100
AcDbSymbolTableRecord
100
AcDbBlockTableRecord
  2
*B31
340
0
  0
BLOCK_RECORD
  5
38A
100
AcDbSymbolTableRecord
100
AcDbBlockTableRecord
  2
*B32
340
0
  0
BLOCK_RECORD
  5
38F
100
AcDbSymbolTableRecord
100
AcDbBlockTableRecord
  2
*B33
340
0
  0
BLOCK_RECORD
  5
3AC
100
AcDbSymbolTableRecord
100
AcDbBlockTableRecord
  2
*B34
340
0
  0
BLOCK_RECORD
  5
3B1
100
AcDbSymbolTableRecord
100
AcDbBlockTableRecord
  2
*B35
340
0
  0
BLOCK_RECORD
  5
3B6
100
AcDbSymbolTableRecord
100
AcDbBlockTableRecord
  2
*B36
340
0
  0
BLOCK_RECORD
  5
3BC
100
AcDbSymbolTableRecord
100
AcDbBlockTableRecord
  2
*B37
340
0
  0
BLOCK_RECORD
  5
3C1
100
AcDbSymbolTableRecord
100
AcDbBlockTableRecord
  2
*B38
340
0
  0
BLOCK_RECORD
  5
3C6
100
AcDbSymbolTableRecord
100
AcDbBlockTableRecord
  2
*B39
340
0
  0
BLOCK_RECORD
  5
3CD
100
AcDbSymbolTableRecord
100
AcDbBlockTableRecord
  2
*B40
340
0
  0
BLOCK_RECORD
  5
3D5
100
AcDbSymbolTableRecord
100
AcDbBlockTableRecord
  2
*B41
340
0
  0
BLOCK_RECORD
  5
3DA
100
AcDbSymbolTableRecord
100
AcDbBlockTableRecord
  2
*B42
340
0
  0
BLOCK_RECORD
  5
3E8
100
AcDbSymbolTableRecord
100
AcDbBlockTableRecord
  2
*B43
340
0
  0
BLOCK_RECORD
  5
3ED
100
AcDbSymbolTableRecord
100
AcDbBlockTableRecord
  2
*B44
340
0
  0
BLOCK_RECORD
  5
3F2
100
AcDbSymbolTableRecord
100
AcDbBlockTableRecord
  2
*B45
340
0
  0
BLOCK_RECORD
  5
3F8
100
AcDbSymbolTableRecord
100
AcDbBlockTableRecord
  2
*B46
340
0
  0
BLOCK_RECORD
  5
3FD
100
AcDbSymbolTableRecord
100
AcDbBlockTableRecord
  2
*B47
340
0
  0
BLOCK_RECORD
  5
408
100
AcDbSymbolTableRecord
100
AcDbBlockTableRecord
  2
*B48
340
0
  0
BLOCK_RECORD
  5
40E
100
AcDbSymbolTableRecord
100
AcDbBlockTableRecord
  2
*B49
340
0
  0
BLOCK_RECORD
  5
437
100
AcDbSymbolTableRecord
100
AcDbBlockTableRecord
  2
*B50
340
0
  0
BLOCK_RECORD
  5
43C
100
AcDbSymbolTableRecord
100
AcDbBlockTableRecord
  2
*B51
340
0
  0
BLOCK_RECORD
  5
44A
100
AcDbSymbolTableRecord
100
AcDbBlockTableRecord
  2
*B52
340
0
  0
BLOCK_RECORD
  5
451
100
AcDbSymbolTableRecord
100
AcDbBlockTableRecord
  2
*B53
340
0
  0
BLOCK_RECORD
  5
457
100
AcDbSymbolTableRecord
100
AcDbBlockTableRecord
  2
*B54
340
0
  0
BLOCK_RECORD
  5
45D
100
AcDbSymbolTableRecord
100
AcDbBlockTableRecord
  2
*B55
340
0
  0
BLOCK_RECORD
  5
463
100
AcDbSymbolTableRecord
100
AcDbBlockTableRecord
  2
*B56
340
0
  0
BLOCK_RECORD
  5
469
100
AcDbSymbolTableRecord
100
AcDbBlockTableRecord
  2
*B57
340
0
  0
BLOCK_RECORD
  5
46F
100
AcDbSymbolTableRecord
100
AcDbBlockTableRecord
  2
*B58
340
0
  0
BLOCK_RECORD
  5
475
100
AcDbSymbolTableRecord
100
AcDbBlockTableRecord
  2
*B59
340
0
  0
BLOCK_RECORD
  5
47B
100
AcDbSymbolTableRecord
100
AcDbBlockTableRecord
  2
*B60
340
0
  0
BLOCK_RECORD
  5
481
100
AcDbSymbolTableRecord
100
AcDbBlockTableRecord
  2
*B61
340
0
  0
BLOCK_RECORD
  5
488
100
AcDbSymbolTableRecord
100
AcDbBlockTableRecord
  2
*B62
340
0
  0
BLOCK_RECORD
  5
48D
100
AcDbSymbolTableRecord
100
AcDbBlockTableRecord
  2
*B63
340
0
  0
BLOCK_RECORD
  5
492
100
AcDbSymbolTableRecord
100
AcDbBlockTableRecord
  2
*B64
340
0
  0
BLOCK_RECORD
  5
497
100
AcDbSymbolTableRecord
100
AcDbBlockTableRecord
  2
*B65
340
0
  0
BLOCK_RECORD
  5
49C
100
AcDbSymbolTableRecord
100
AcDbBlockTableRecord
  2
*B66
340
0
  0
BLOCK_RECORD
  5
4A1
100
AcDbSymbolTableRecord
100
AcDbBlockTableRecord
  2
*B67
340
0
  0
BLOCK_RECORD
  5
4A6
100
AcDbSymbolTableRecord
100
AcDbBlockTableRecord
  2
*B68
340
0
  0
BLOCK_RECORD
  5
4AB
100
AcDbSymbolTableRecord
100
AcDbBlockTableRecord
  2
*B69
340
0
  0
BLOCK_RECORD
  5
4B0
100
AcDbSymbolTableRecord
100
AcDbBlockTableRecord
  2
*B70
340
0
  0
BLOCK_RECORD
  5
4B5
100
AcDbSymbolTableRecord
100
AcDbBlockTableRecord
  2
*B71
340
0
  0
BLOCK_RECORD
  5
4BA
100
AcDbSymbolTableRecord
100
AcDbBlockTableRecord
  2
*B72
340
0
  0
BLOCK_RECORD
  5
4BF
100
AcDbSymbolTableRecord
100
AcDbBlockTableRecord
  2
*B73
340
0
  0
BLOCK_RECORD
  5
4C4
100
AcDbSymbolTableRecord
100
AcDbBlockTableRecord
  2
*B74
340
0
  0
BLOCK_RECORD
  5
4C9
100
AcDbSymbolTableRecord
100
AcDbBlockTableRecord
  2
*B75
340
0
  0
BLOCK_RECORD
  5
4CE
100
AcDbSymbolTableRecord
100
AcDbBlockTableRecord
  2
*B76
340
0
  0
BLOCK_RECORD
  5
4D3
100
AcDbSymbolTableRecord
100
AcDbBlockTableRecord
  2
*B77
340
0
  0
BLOCK_RECORD
  5
4D8
100
AcDbSymbolTableRecord
100
AcDbBlockTableRecord
  2
*B78
340
0
  0
BLOCK_RECORD
  5
4DD
100
AcDbSymbolTableRecord
100
AcDbBlockTableRecord
  2
*B79
340
0
  0
BLOCK_RECORD
  5
4E2
100
AcDbSymbolTableRecord
100
AcDbBlockTableRecord
  2
*B80
340
0
  0
BLOCK_RECORD
  5
4E7
100
AcDbSymbolTableRecord
100
AcDbBlockTableRecord
  2
*B81
340
0
  0
BLOCK_RECORD
  5
4EC
100
AcDbSymbolTableRecord
100
AcDbBlockTableRecord
  2
*B82
340
0
  0
BLOCK_RECORD
  5
4F1
100
AcDbSymbolTableRecord
100
AcDbBlockTableRecord
  2
*B83
340
0
  0
BLOCK_RECORD
  5
4F6
100
AcDbSymbolTableRecord
100
AcDbBlockTableRecord
  2
*B84
340
0
  0
BLOCK_RECORD
  5
4FB
100
AcDbSymbolTableRecord
100
AcDbBlockTableRecord
  2
*B85
340
0
  0
ENDTAB
  0
ENDSEC
  0
SECTION
  2
BLOCKS
  0
BLOCK
  5
D
100
AcDbEntity
  8
0
100
AcDbBlockBegin
  2
*MODEL_SPACE
 70
     0
 10
0.0
 20
0.0
 30
0.0
  3
*MODEL_SPACE
  1

  0
ENDBLK
  5
E
100
AcDbEntity
  8
0
100
AcDbBlockEnd
  0
BLOCK
  5
F
100
AcDbEntity
 67
     1
  8
0
100
AcDbBlockBegin
  2
*PAPER_SPACE
 70
     0
 10
0.0
 20
0.0
 30
0.0
  3
*PAPER_SPACE
  1

  0
ENDBLK
  5
10
100
AcDbEntity
 67
     1
  8
0
100
AcDbBlockEnd
  0
BLOCK
  5
2A
100
AcDbEntity
  8
0
100
AcDbBlockBegin
  2
*B0
 70
     0
 10
0.0
 20
0.0
 30
0.0
  3
*B0
  1

  0
ENDBLK
  5
2B
100
AcDbEntity
  8
0
100
AcDbBlockEnd
  0
BLOCK
  5
2D
100
AcDbEntity
  8
0
100
AcDbBlockBegin
  2
*B1
 70
     0
 10
0.0
 20
0.0
 30
0.0
  3
*B1
  1

  0
LINE
  5
2E
100
AcDbEntity
  8
0
  6
Continuous
 62
   174
100
AcDbLine
 10
166.337118
 20
433.372162
 30
0.0
 11
166.337118
 21
415.372162
 31
0.0
  0
LINE
  5
2F
100
AcDbEntity
  8
0
  6
Continuous
 62
   174
100
AcDbLine
 10
173.087118
 20
316.372162
 30
0.0
 11
292.337118
 21
316.372162
 31
0.0
  0
LINE
  5
30
100
AcDbEntity
  8
0
  6
HIDDEN
 62
   174
100
AcDbLine
 10
195.933985
 20
448.222162
 30
0.0
 11
195.120717
 21
448.222162
 31
0.0
  0
LINE
  5
31
100
AcDbEntity
  8
0
  6
Continuous
 62
   174
100
AcDbLine
 10
210.649215
 20
448.222162
 30
0.0
 11
209.528565
 21
448.222162
 31
0.0
  0
LINE
  5
32
100
AcDbEntity
  8
0
  6
Continuous
 62
   174
100
AcDbLine
 10
195.120717
 20
448.222162
 30
0.0
 11
194.000668
 21
448.222162
 31
0.0
  0
LINE
  5
33
100
AcDbEntity
  8
0
  6
HIDDEN
 62
   174
100
AcDbLine
 10
209.528565
 20
448.222162
 30
0.0
 11
208.715296
 21
448.222162
 31
0.0
  0
LINE
  5
34
100
AcDbEntity
  8
0
  6
HIDDEN
 62
   174
100
AcDbLine
 10
208.715296
 20
448.222162
 30
0.0
 11
202.324641
 21
448.222162
 31
0.0
  0
LINE
  5
35
100
AcDbEntity
  8
0
  6
HIDDEN
 62
   174
100
AcDbLine
 10
202.324641
 20
448.222162
 30
0.0
 11
195.933985
 21
448.222162
 31
0.0
  0
LINE
  5
36
100
AcDbEntity
  8
0
  6
HIDDEN
 62
   174
100
AcDbLine
 10
672.904626
 20
448.222162
 30
0.0
 11
672.091357
 21
448.222162
 31
0.0
  0
LINE
  5
37
100
AcDbEntity
  8
0
  6
Continuous
 62
   174
100
AcDbLine
 10
687.619856
 20
448.222162
 30
0.0
 11
686.499206
 21
448.222162
 31
0.0
  0
LINE
  5
38
100
AcDbEntity
  8
0
  6
Continuous
 62
   174
100
AcDbLine
 10
672.091357
 20
448.222162
 30
0.0
 11
670.970707
 21
448.222162
 31
0.0
  0
LINE
  5
39
100
AcDbEntity
  8
0
  6
HIDDEN
 62
   174
100
AcDbLine
 10
686.499206
 20
448.222162
 30
0.0
 11
685.685937
 21
448.222162
 31
0.0
  0
LINE
  5
3A
100
AcDbEntity
  8
0
  6
HIDDEN
 62
   174
100
AcDbLine
 10
685.685937
 20
448.222162
 30
0.0
 11
679.295282
 21
448.222162
 31
0.0
  0
LINE
  5
3B
100
AcDbEntity
  8
0
  6
Continuous
 62
   174
100
AcDbLine
 10
238.337118
 20
415.372162
 30
0.0
 11
238.337118
 21
433.372162
 31
0.0
  0
LINE
  5
3C
100
AcDbEntity
  8
0
  6
HIDDEN
 62
   174
100
AcDbLine
 10
685.412118
 20
441.472162
 30
0.0
 11
685.412118
 21
448.222162
 31
0.0
  0
LINE
  5
3D
100
AcDbEntity
  8
0
  6
HIDDEN
 62
   174
100
AcDbLine
 10
208.412118
 20
441.472162
 30
0.0
 11
208.412118
 21
448.222162
 31
0.0
  0
LINE
  5
3E
100
AcDbEntity
  8
0
  6
Continuous
 62
   174
100
AcDbLine
 10
173.087118
 20
317.497162
 30
0.0
 11
173.087118
 21
337.747162
 31
0.0
  0
LINE
  5
3F
100
AcDbEntity
  8
0
  6
HIDDEN
 62
   174
100
AcDbLine
 10
685.370134
 20
441.472162
 30
0.0
 11
679.295282
 21
441.472162
 31
0.0
  0
LINE
  5
40
100
AcDbEntity
  8
0
  6
HIDDEN
 62
   174
100
AcDbLine
 10
679.295282
 20
441.472162
 30
0.0
 11
670.970707
 21
441.472162
 31
0.0
  0
LINE
  5
41
100
AcDbEntity
  8
0
  6
Continuous
 62
   174
100
AcDbLine
 10
708.587118
 20
337.747162
 30
0.0
 11
708.587118
 21
338.872162
 31
0.0
  0
LINE
  5
42
100
AcDbEntity
  8
0
  6
Continuous
 62
   174
100
AcDbLine
 10
715.337118
 20
338.872162
 30
0.0
 11
708.587118
 21
338.872162
 31
0.0
  0
LINE
  5
43
100
AcDbEntity
  8
0
  6
Continuous
 62
   174
100
AcDbLine
 10
173.087118
 20
393.997162
 30
0.0
 11
173.087118
 21
392.872162
 31
0.0
  0
LINE
  5
44
100
AcDbEntity
  8
0
  6
Continuous
 62
   174
100
AcDbLine
 10
166.337118
 20
392.872162
 30
0.0
 11
166.337118
 21
338.872162
 31
0.0
  0
LINE
  5
45
100
AcDbEntity
  8
0
  6
HIDDEN
 62
   174
100
AcDbLine
 10
359.738445
 20
321.758212
 30
0.0
 11
356.214681
 21
321.758212
 31
0.0
  0
LINE
  5
46
100
AcDbEntity
  8
0
  6
HIDDEN
 62
   174
100
AcDbLine
 10
359.902662
 20
321.758212
 30
0.0
 11
356.829445
 21
321.758212
 31
0.0
  0
ARC
  5
47
100
AcDbEntity
  8
0
  6
HIDDEN
 62
   174
100
AcDbCircle
 10
356.234245
 20
318.608212
 30
0.0
 40
3.15
100
AcDbArc
 50
0.0
 51
90.0
  0
ARC
  5
48
100
AcDbEntity
  8
0
  6
HIDDEN
 62
   174
100
AcDbCircle
 10
428.234514
 20
318.620537
 30
0.0
 40
3.15
100
AcDbArc
 50
180.0
 51
226.023719
  0
LINE
  5
49
100
AcDbEntity
  8
0
  6
HIDDEN
 62
   174
100
AcDbLine
 10
679.295282
 20
448.222162
 30
0.0
 11
672.904626
 21
448.222162
 31
0.0
  0
LINE
  5
4A
100
AcDbEntity
  8
0
  6
HIDDEN
 62
   174
100
AcDbLine
 10
673.221031
 20
448.222162
 30
0.0
 11
679.295282
 21
448.222162
 31
0.0
  0
LINE
  5
4B
100
AcDbEntity
  8
0
  6
HIDDEN
 62
   174
100
AcDbLine
 10
679.295282
 20
448.222162
 30
0.0
 11
685.370134
 21
448.222162
 31
0.0
  0
LINE
  5
4C
100
AcDbEntity
  8
0
  6
Continuous
 62
   174
100
AcDbLine
 10
589.337118
 20
316.372162
 30
0.0
 11
589.337118
 21
415.372162
 31
0.0
  0
LINE
  5
4D
100
AcDbEntity
  8
0
  6
Continuous
 62
   174
100
AcDbLine
 10
173.087118
 20
414.247162
 30
0.0
 11
173.087118
 21
393.997162
 31
0.0
  0
LINE
  5
4E
100
AcDbEntity
  8
0
  6
Continuous
 62
   174
100
AcDbLine
 10
589.337118
 20
415.372162
 30
0.0
 11
553.337118
 21
415.372162
 31
0.0
  0
LINE
  5
4F
100
AcDbEntity
  8
0
  6
HIDDEN
 62
   174
100
AcDbLine
 10
368.811924
 20
321.758212
 30
0.0
 11
359.902662
 21
321.758212
 31
0.0
  0
LINE
  5
50
100
AcDbEntity
  8
0
  6
HIDDEN
 62
   174
100
AcDbLine
 10
381.408566
 20
321.758212
 30
0.0
 11
377.89563
 21
321.758212
 31
0.0
  0
ARC
  5
51
100
AcDbEntity
  8
0
  6
HIDDEN
 62
   174
100
AcDbCircle
 10
428.234514
 20
318.620537
 30
0.0
 40
3.15
100
AcDbArc
 50
90.0
 51
180.0
  0
LINE
  5
52
100
AcDbEntity
  8
0
  6
Continuous
 62
   174
100
AcDbLine
 10
708.587118
 20
316.372162
 30
0.0
 11
589.337118
 21
316.372162
 31
0.0
  0
LINE
  5
53
100
AcDbEntity
  8
0
  6
Continuous
 62
   174
100
AcDbLine
 10
708.587118
 20
415.372162
 30
0.0
 11
708.587118
 21
414.247162
 31
0.0
  0
ARC
  5
54
100
AcDbEntity
  8
0
  6
HIDDEN
 62
   174
100
AcDbCircle
 10
381.434245
 20
318.608212
 30
0.0
 40
3.15
100
AcDbArc
 50
-180.0
 51
-90.0
  0
LINE
  5
55
100
AcDbEntity
  8
0
  6
Continuous
 62
   174
100
AcDbLine
 10
368.811924
 20
315.458212
 30
0.0
 11
356.212275
 21
315.458212
 31
0.0
  0
LINE
  5
56
100
AcDbEntity
  8
0
  6
Continuous
 62
   174
100
AcDbLine
 10
356.829445
 20
315.458212
 30
0.0
 11
356.212275
 21
315.458212
 31
0.0
  0
LINE
  5
57
100
AcDbEntity
  8
0
  6
Continuous
 62
   174
100
AcDbLine
 10
368.811924
 20
315.458212
 30
0.0
 11
356.829445
 21
315.458212
 31
0.0
  0
ARC
  5
58
100
AcDbEntity
  8
0
  6
Continuous
 62
   174
100
AcDbCircle
 10
381.434245
 20
318.608212
 30
0.0
 40
3.15
100
AcDbArc
 50
-90.0
 51
-45.42257
  0
LINE
  5
59
100
AcDbEntity
  8
0
  6
Continuous
 62
   174
100
AcDbLine
 10
381.410972
 20
315.458212
 30
0.0
 11
368.811924
 21
315.458212
 31
0.0
  0
ARC
  5
5A
100
AcDbEntity
  8
0
  6
HIDDEN
 62
   174
100
AcDbCircle
 10
356.234245
 20
318.608212
 30
0.0
 40
3.15
100
AcDbArc
 50
90.0
 51
180.0
  0
ARC
  5
5B
100
AcDbEntity
  8
0
  6
HIDDEN
 62
   174
100
AcDbCircle
 10
381.434245
 20
318.608212
 30
0.0
 40
3.15
100
AcDbArc
 50
0.0
 51
90.0
  0
LINE
  5
5C
100
AcDbEntity
  8
0
  6
HIDDEN
 62
   174
100
AcDbLine
 10
440.807856
 20
321.770537
 30
0.0
 11
431.898594
 21
321.770537
 31
0.0
  0
ARC
  5
5D
100
AcDbEntity
  8
0
  6
HIDDEN
 62
   174
100
AcDbCircle
 10
453.434514
 20
318.620537
 30
0.0
 40
3.15
100
AcDbArc
 50
0.0
 51
90.0
  0
LINE
  5
5E
100
AcDbEntity
  8
0
  6
Continuous
 62
   174
100
AcDbLine
 10
292.337118
 20
415.372162
 30
0.0
 11
238.337118
 21
415.372162
 31
0.0
  0
LINE
  5
5F
100
AcDbEntity
  8
0
  6
Continuous
 62
   174
100
AcDbLine
 10
715.337118
 20
392.872162
 30
0.0
 11
708.587118
 21
392.872162
 31
0.0
  0
LINE
  5
60
100
AcDbEntity
  8
0
  6
Continuous
 62
   174
100
AcDbLine
 10
166.337118
 20
316.372162
 30
0.0
 11
173.087118
 21
316.372162
 31
0.0
  0
LINE
  5
61
100
AcDbEntity
  8
0
  6
Continuous
 62
   174
100
AcDbLine
 10
589.337118
 20
415.372162
 30
0.0
 11
643.337118
 21
415.372162
 31
0.0
  0
LINE
  5
62
100
AcDbEntity
  8
0
  6
Continuous
 62
   174
100
AcDbLine
 10
708.587118
 20
317.497162
 30
0.0
 11
708.587118
 21
337.747162
 31
0.0
  0
LINE
  5
63
100
AcDbEntity
  8
0
  6
Continuous
 62
   174
100
AcDbLine
 10
166.337118
 20
392.872162
 30
0.0
 11
173.087118
 21
392.872162
 31
0.0
  0
LINE
  5
64
100
AcDbEntity
  8
0
  6
Continuous
 62
   174
100
AcDbLine
 10
292.337118
 20
316.372162
 30
0.0
 11
328.337118
 21
316.372162
 31
0.0
  0
LINE
  5
65
100
AcDbEntity
  8
0
  6
Continuous
 62
   174
100
AcDbLine
 10
380.794403
 20
315.458212
 30
0.0
 11
368.811924
 21
315.458212
 31
0.0
  0
LINE
  5
66
100
AcDbEntity
  8
0
  6
Continuous
 62
   174
100
AcDbLine
 10
452.790335
 20
315.470537
 30
0.0
 11
440.807856
 21
315.470537
 31
0.0
  0
LINE
  5
67
100
AcDbEntity
  8
0
  6
Continuous
 62
   174
100
AcDbLine
 10
194.012118
 20
441.472162
 30
0.0
 11
194.012118
 21
448.222162
 31
0.0
  0
LINE
  5
68
100
AcDbEntity
  8
0
  6
Continuous
 62
   174
100
AcDbLine
 10
643.337118
 20
415.372162
 30
0.0
 11
643.337118
 21
433.372162
 31
0.0
  0
LINE
  5
69
100
AcDbEntity
  8
0
  6
Continuous
 62
   174
100
AcDbLine
 10
708.587118
 20
316.372162
 30
0.0
 11
708.587118
 21
317.497162
 31
0.0
  0
LINE
  5
6A
100
AcDbEntity
  8
0
  6
Continuous
 62
   174
100
AcDbLine
 10
715.337118
 20
316.372162
 30
0.0
 11
708.587118
 21
316.372162
 31
0.0
  0
ARC
  5
6B
100
AcDbEntity
  8
0
  6
Continuous
 62
   174
100
AcDbCircle
 10
356.234245
 20
318.608212
 30
0.0
 40
3.15
100
AcDbArc
 50
225.42257
 51
270.0
  0
LINE
  5
6C
100
AcDbEntity
  8
0
  6
Continuous
 62
   174
100
AcDbLine
 10
381.410972
 20
315.458212
 30
0.0
 11
380.794403
 21
315.458212
 31
0.0
  0
LINE
  5
6D
100
AcDbEntity
  8
0
  6
HIDDEN
 62
   174
100
AcDbLine
 10
377.89563
 20
321.758212
 30
0.0
 11
368.811924
 21
321.758212
 31
0.0
  0
LINE
  5
6E
100
AcDbEntity
  8
0
  6
HIDDEN
 62
   174
100
AcDbLine
 10
202.324641
 20
448.222162
 30
0.0
 11
208.399493
 21
448.222162
 31
0.0
  0
LINE
  5
6F
100
AcDbEntity
  8
0
  6
Continuous
 62
   174
100
AcDbLine
 10
708.587118
 20
393.997162
 30
0.0
 11
708.587118
 21
392.872162
 31
0.0
  0
LINE
  5
70
100
AcDbEntity
  8
0
  6
Continuous
 62
   174
100
AcDbLine
 10
238.337118
 20
433.372162
 30
0.0
 11
166.337118
 21
433.372162
 31
0.0
  0
LINE
  5
71
100
AcDbEntity
  8
0
  6
Continuous
 62
   174
100
AcDbLine
 10
173.087118
 20
316.372162
 30
0.0
 11
173.087118
 21
317.497162
 31
0.0
  0
LINE
  5
72
100
AcDbEntity
  8
0
  6
Continuous
 62
   174
100
AcDbLine
 10
671.012118
 20
441.472162
 30
0.0
 11
671.012118
 21
448.222162
 31
0.0
  0
LINE
  5
73
100
AcDbEntity
  8
0
  6
HIDDEN
 62
   174
100
AcDbLine
 10
202.324641
 20
441.472162
 30
0.0
 11
196.25039
 21
441.472162
 31
0.0
  0
LINE
  5
74
100
AcDbEntity
  8
0
  6
HIDDEN
 62
   174
100
AcDbLine
 10
210.649215
 20
441.472162
 30
0.0
 11
202.324641
 21
441.472162
 31
0.0
  0
LINE
  5
75
100
AcDbEntity
  8
0
  6
Continuous
 62
   174
100
AcDbLine
 10
166.337118
 20
338.872162
 30
0.0
 11
173.087118
 21
338.872162
 31
0.0
  0
LINE
  5
76
100
AcDbEntity
  8
0
  6
Continuous
 62
   174
100
AcDbLine
 10
643.337118
 20
433.372162
 30
0.0
 11
715.337118
 21
433.372162
 31
0.0
  0
LINE
  5
77
100
AcDbEntity
  8
0
  6
Continuous
 62
   174
100
AcDbLine
 10
715.337118
 20
392.872162
 30
0.0
 11
715.337118
 21
338.872162
 31
0.0
  0
LINE
  5
78
100
AcDbEntity
  8
0
  6
HIDDEN
 62
   174
100
AcDbLine
 10
368.811924
 20
321.758212
 30
0.0
 11
359.738445
 21
321.758212
 31
0.0
  0
ARC
  5
79
100
AcDbEntity
  8
0
  6
HIDDEN
 62
   174
100
AcDbCircle
 10
381.434245
 20
318.608212
 30
0.0
 40
3.15
100
AcDbArc
 50
-45.42257
 51
0.0
  0
ARC
  5
7A
100
AcDbEntity
  8
0
  6
HIDDEN
 62
   174
100
AcDbCircle
 10
356.234245
 20
318.608212
 30
0.0
 40
3.15
100
AcDbArc
 50
-90.0
 51
0.0
  0
ARC
  5
7B
100
AcDbEntity
  8
0
  6
HIDDEN
 62
   174
100
AcDbCircle
 10
381.434245
 20
318.608212
 30
0.0
 40
3.15
100
AcDbArc
 50
-270.0
 51
-180.0
  0
LINE
  5
7C
100
AcDbEntity
  8
0
  6
Continuous
 62
   174
100
AcDbLine
 10
453.406903
 20
315.470537
 30
0.0
 11
452.790335
 21
315.470537
 31
0.0
  0
LINE
  5
7D
100
AcDbEntity
  8
0
  6
HIDDEN
 62
   174
100
AcDbLine
 10
449.89096
 20
321.770537
 30
0.0
 11
440.807856
 21
321.770537
 31
0.0
  0
LINE
  5
7E
100
AcDbEntity
  8
0
  6
Continuous
 62
   174
100
AcDbLine
 10
715.337118
 20
433.372162
 30
0.0
 11
715.337118
 21
415.372162
 31
0.0
  0
LINE
  5
7F
100
AcDbEntity
  8
0
  6
HIDDEN
 62
   174
100
AcDbLine
 10
196.262118
 20
441.472162
 30
0.0
 11
196.262118
 21
448.222162
 31
0.0
  0
LINE
  5
80
100
AcDbEntity
  8
0
  6
Continuous
 62
   174
100
AcDbLine
 10
292.337118
 20
316.372162
 30
0.0
 11
292.337118
 21
415.372162
 31
0.0
  0
LINE
  5
81
100
AcDbEntity
  8
0
  6
Continuous
 62
   174
100
AcDbLine
 10
173.087118
 20
415.372162
 30
0.0
 11
173.087118
 21
414.247162
 31
0.0
  0
LINE
  5
82
100
AcDbEntity
  8
0
  6
Continuous
 62
   174
100
AcDbLine
 10
166.337118
 20
415.372162
 30
0.0
 11
173.087118
 21
415.372162
 31
0.0
  0
LINE
  5
83
100
AcDbEntity
  8
0
  6
HIDDEN
 62
   174
100
AcDbLine
 10
380.794403
 20
321.758212
 30
0.0
 11
368.811924
 21
321.758212
 31
0.0
  0
ARC
  5
84
100
AcDbEntity
  8
0
  6
Continuous
 62
   174
100
AcDbCircle
 10
428.234514
 20
318.620537
 30
0.0
 40
3.15
100
AcDbArc
 50
226.023719
 51
270.0
  0
LINE
  5
85
100
AcDbEntity
  8
0
  6
Continuous
 62
   174
100
AcDbLine
 10
440.807856
 20
315.470537
 30
0.0
 11
428.208207
 21
315.470537
 31
0.0
  0
LINE
  5
86
100
AcDbEntity
  8
0
  6
Continuous
 62
   174
100
AcDbLine
 10
428.824775
 20
315.470537
 30
0.0
 11
428.208207
 21
315.470537
 31
0.0
  0
LINE
  5
87
100
AcDbEntity
  8
0
  6
Continuous
 62
   174
100
AcDbLine
 10
440.807856
 20
315.470537
 30
0.0
 11
428.824775
 21
315.470537
 31
0.0
  0
ARC
  5
88
100
AcDbEntity
  8
0
  6
Continuous
 62
   174
100
AcDbCircle
 10
453.434514
 20
318.620537
 30
0.0
 40
3.15
100
AcDbArc
 50
-90.0
 51
-46.023719
  0
LINE
  5
89
100
AcDbEntity
  8
0
  6
HIDDEN
 62
   174
100
AcDbLine
 10
453.404497
 20
321.770537
 30
0.0
 11
449.89096
 21
321.770537
 31
0.0
  0
LINE
  5
8A
100
AcDbEntity
  8
0
  6
HIDDEN
 62
   174
100
AcDbLine
 10
196.25039
 20
448.222162
 30
0.0
 11
202.324641
 21
448.222162
 31
0.0
  0
LINE
  5
8B
100
AcDbEntity
  8
0
  6
Continuous
 62
   174
100
AcDbLine
 10
708.587118
 20
414.247162
 30
0.0
 11
708.587118
 21
393.997162
 31
0.0
  0
LINE
  5
8C
100
AcDbEntity
  8
0
  6
Continuous
 62
   174
100
AcDbLine
 10
715.337118
 20
415.372162
 30
0.0
 11
708.587118
 21
415.372162
 31
0.0
  0
LINE
  5
8D
100
AcDbEntity
  8
0
  6
HIDDEN
 62
   174
100
AcDbLine
 10
673.262118
 20
441.472162
 30
0.0
 11
673.262118
 21
448.222162
 31
0.0
  0
LINE
  5
8E
100
AcDbEntity
  8
0
  6
Continuous
 62
   174
100
AcDbLine
 10
210.662118
 20
441.472162
 30
0.0
 11
210.662118
 21
448.222162
 31
0.0
  0
LINE
  5
8F
100
AcDbEntity
  8
0
  6
Continuous
 62
   174
100
AcDbLine
 10
173.087118
 20
337.747162
 30
0.0
 11
173.087118
 21
338.872162
 31
0.0
  0
LINE
  5
90
100
AcDbEntity
  8
0
  6
Continuous
 62
   174
100
AcDbLine
 10
687.662118
 20
441.472162
 30
0.0
 11
687.662118
 21
448.222162
 31
0.0
  0
LINE
  5
91
100
AcDbEntity
  8
0
  6
HIDDEN
 62
   174
100
AcDbLine
 10
679.295282
 20
441.472162
 30
0.0
 11
673.221031
 21
441.472162
 31
0.0
  0
LINE
  5
92
100
AcDbEntity
  8
0
  6
HIDDEN
 62
   174
100
AcDbLine
 10
208.399493
 20
441.472162
 30
0.0
 11
202.324641
 21
441.472162
 31
0.0
  0
LINE
  5
93
100
AcDbEntity
  8
0
  6
HIDDEN
 62
   174
100
AcDbLine
 10
687.619856
 20
441.472162
 30
0.0
 11
679.295282
 21
441.472162
 31
0.0
  0
LINE
  5
94
100
AcDbEntity
  8
0
  6
HIDDEN
 62
   174
100
AcDbLine
 10
202.324641
 20
441.472162
 30
0.0
 11
194.000668
 21
441.472162
 31
0.0
  0
LINE
  5
95
100
AcDbEntity
  8
0
  6
Continuous
 62
   174
100
AcDbLine
 10
589.337118
 20
316.372162
 30
0.0
 11
553.337118
 21
316.372162
 31
0.0
  0
ARC
  5
96
100
AcDbEntity
  8
0
  6
HIDDEN
 62
   174
100
AcDbCircle
 10
356.234245
 20
318.608212
 30
0.0
 40
3.15
100
AcDbArc
 50
180.0
 51
225.42257
  0
ARC
  5
97
100
AcDbEntity
  8
0
  6
HIDDEN
 62
   174
100
AcDbCircle
 10
453.434514
 20
318.620537
 30
0.0
 40
3.15
100
AcDbArc
 50
-180.0
 51
-90.0
  0
LINE
  5
98
100
AcDbEntity
  8
0
  6
Continuous
 62
   174
100
AcDbLine
 10
453.406903
 20
315.470537
 30
0.0
 11
440.807856
 21
315.470537
 31
0.0
  0
LINE
  5
99
100
AcDbEntity
  8
0
  6
HIDDEN
 62
   174
100
AcDbLine
 10
440.807856
 20
321.770537
 30
0.0
 11
431.733775
 21
321.770537
 31
0.0
  0
LINE
  5
9A
100
AcDbEntity
  8
0
  6
HIDDEN
 62
   174
100
AcDbLine
 10
431.733775
 20
321.770537
 30
0.0
 11
428.210613
 21
321.770537
 31
0.0
  0
LINE
  5
9B
100
AcDbEntity
  8
0
  6
HIDDEN
 62
   174
100
AcDbLine
 10
431.898594
 20
321.770537
 30
0.0
 11
428.824775
 21
321.770537
 31
0.0
  0
ARC
  5
9C
100
AcDbEntity
  8
0
  6
HIDDEN
 62
   174
100
AcDbCircle
 10
428.234514
 20
318.620537
 30
0.0
 40
3.15
100
AcDbArc
 50
0.0
 51
90.0
  0
LINE
  5
9D
100
AcDbEntity
  8
0
  6
HIDDEN
 62
   174
100
AcDbLine
 10
385.149618
 20
415.372162
 30
0.0
 11
385.149618
 21
379.372162
 31
0.0
  0
ARC
  5
9E
100
AcDbEntity
  8
0
  6
Continuous
 62
   174
100
AcDbCircle
 10
166.337118
 20
396.247162
 30
0.0
 40
2.25
100
AcDbArc
 50
225.0
 51
270.0
  0
LINE
  5
9F
100
AcDbEntity
  8
0
  6
HIDDEN
 62
   174
100
AcDbLine
 10
218.087118
 20
467.877912
 30
0.0
 11
218.087118
 21
473.727792
 31
0.0
  0
LINE
  5
A0
100
AcDbEntity
  8
0
  6
HIDDEN
 62
   174
100
AcDbLine
 10
715.337118
 20
393.997162
 30
0.0
 11
708.587118
 21
393.997162
 31
0.0
  0
LINE
  5
A1
100
AcDbEntity
  8
0
  6
HIDDEN
 62
   174
100
AcDbLine
 10
381.364654
 20
316.372162
 30
0.0
 11
379.951058
 21
316.372162
 31
0.0
  0
ARC
  5
A2
100
AcDbEntity
  8
0
  6
Continuous
 62
   174
100
AcDbCircle
 10
500.240004
 20
318.617709
 30
0.0
 40
3.15
100
AcDbArc
 50
225.885775
 51
270.0
  0
LINE
  5
A3
100
AcDbEntity
  8
0
  6
HIDDEN
 62
   174
100
AcDbLine
 10
426.70378
 20
415.372162
 30
0.0
 11
382.921414
 21
415.372162
 31
0.0
  0
ARC
  5
A4
100
AcDbEntity
  8
0
  6
Continuous
 62
   174
100
AcDbCircle
 10
166.337118
 20
396.247162
 30
0.0
 40
2.25
100
AcDbArc
 50
225.0
 51
270.0
  0
LINE
  5
A5
100
AcDbEntity
  8
0
  6
HIDDEN
 62
   174
100
AcDbLine
 10
166.337118
 20
393.997162
 30
0.0
 11
173.087118
 21
393.997162
 31
0.0
  0
LINE
  5
A6
100
AcDbEntity
  8
0
  6
Continuous
 62
   174
100
AcDbLine
 10
166.337118
 20
316.372162
 30
0.0
 11
166.337118
 21
317.497162
 31
0.0
  0
LINE
  5
A7
100
AcDbEntity
  8
0
  6
HIDDEN
 62
   174
100
AcDbLine
 10
687.329317
 20
441.472162
 30
0.0
 11
679.295282
 21
441.472162
 31
0.0
  0
LINE
  5
A8
100
AcDbEntity
  8
0
  6
Continuous
 62
   174
100
AcDbLine
 10
292.337118
 20
415.372162
 30
0.0
 11
328.337118
 21
415.372162
 31
0.0
  0
LINE
  5
A9
100
AcDbEntity
  8
0
  6
HIDDEN
 62
   174
100
AcDbLine
 10
359.837118
 20
321.772162
 30
0.0
 11
359.837118
 21
338.872162
 31
0.0
  0
LINE
  5
AA
100
AcDbEntity
  8
0
  6
Continuous
 62
   174
100
AcDbLine
 10
166.337118
 20
337.834328
 30
0.0
 11
166.337118
 21
327.709976
 31
0.0
  0
LINE
  5
AB
100
AcDbEntity
  8
0
  6
HIDDEN
 62
   174
100
AcDbLine
 10
428.251517
 20
316.372162
 30
0.0
 11
427.357643
 21
316.372162
 31
0.0
  0
LINE
  5
AC
100
AcDbEntity
  8
0
  6
Continuous
 62
   174
100
AcDbLine
 10
715.337118
 20
393.401271
 30
0.0
 11
715.337118
 21
392.95674
 31
0.0
  0
LINE
  5
AD
100
AcDbEntity
  8
0
  6
HIDDEN
 62
   174
100
AcDbLine
 10
496.524618
 20
383.872162
 30
0.0
 11
496.524618
 21
415.372162
 31
0.0
  0
ARC
  5
AE
100
AcDbEntity
  8
0
  6
HIDDEN
 62
   174
100
AcDbCircle
 10
715.337118
 20
396.247162
 30
0.0
 40
2.25
100
AcDbArc
 50
-90.0
 51
0.0
  0
LINE
  5
AF
100
AcDbEntity
  8
0
  6
HIDDEN
 62
   174
100
AcDbLine
 10
521.837118
 20
321.772162
 30
0.0
 11
521.837118
 21
338.872162
 31
0.0
  0
LINE
  5
B0
100
AcDbEntity
  8
0
  6
HIDDEN
 62
   174
100
AcDbLine
 10
166.337118
 20
337.834328
 30
0.0
 11
166.337118
 21
317.585021
 31
0.0
  0
LINE
  5
B1
100
AcDbEntity
  8
0
  6
HIDDEN
 62
   174
100
AcDbLine
 10
166.337118
 20
404.205954
 30
0.0
 11
166.337118
 21
394.081601
 31
0.0
  0
LINE
  5
B2
100
AcDbEntity
  8
0
  6
Continuous
 62
   174
100
AcDbLine
 10
659.987118
 20
481.522162
 30
0.0
 11
663.587118
 21
481.522162
 31
0.0
  0
LINE
  5
B3
100
AcDbEntity
  8
0
  6
HIDDEN
 62
   174
100
AcDbLine
 10
496.524618
 20
415.372162
 30
0.0
 11
496.524618
 21
379.372162
 31
0.0
  0
ARC
  5
B4
100
AcDbEntity
  8
0
  6
Continuous
 62
   174
100
AcDbCircle
 10
166.337118
 20
319.747162
 30
0.0
 40
2.25
100
AcDbArc
 50
180.0
 51
225.0
  0
LINE
  5
B5
100
AcDbEntity
  8
0
  6
Continuous
 62
   174
100
AcDbLine
 10
715.337118
 20
393.997162
 30
0.0
 11
708.587118
 21
393.997162
 31
0.0
  0
LINE
  5
B6
100
AcDbEntity
  8
0
  6
HIDDEN
 62
   174
100
AcDbLine
 10
431.837118
 20
321.772162
 30
0.0
 11
431.837118
 21
338.872162
 31
0.0
  0
LINE
  5
B7
100
AcDbEntity
  8
0
  6
HIDDEN
 62
   174
100
AcDbLine
 10
425.303418
 20
316.372162
 30
0.0
 11
425.061002
 21
316.372162
 31
0.0
  0
LINE
  5
B8
100
AcDbEntity
  8
0
  6
HIDDEN
 62
   174
100
AcDbLine
 10
715.337118
 20
415.014246
 30
0.0
 11
715.337118
 21
404.205954
 31
0.0
  0
LINE
  5
B9
100
AcDbEntity
  8
0
  6
HIDDEN
 62
   174
100
AcDbLine
 10
562.337118
 20
415.372162
 30
0.0
 11
562.337118
 21
414.922162
 31
0.0
  0
LINE
  5
BA
100
AcDbEntity
  8
0
  6
HIDDEN
 62
   174
100
AcDbLine
 10
496.524618
 20
415.372162
 30
0.0
 11
496.524618
 21
379.372162
 31
0.0
  0
LINE
  5
BB
100
AcDbEntity
  8
0
  6
Continuous
 62
   174
100
AcDbLine
 10
166.337118
 20
414.247162
 30
0.0
 11
173.087118
 21
414.247162
 31
0.0
  0
LINE
  5
BC
100
AcDbEntity
  8
0
  6
HIDDEN
 62
   174
100
AcDbLine
 10
512.8086
 20
321.767709
 30
0.0
 11
503.724293
 21
321.767709
 31
0.0
  0
LINE
  5
BD
100
AcDbEntity
  8
0
  6
HIDDEN
 62
   174
100
AcDbLine
 10
496.524618
 20
383.872162
 30
0.0
 11
496.524618
 21
415.372162
 31
0.0
  0
ARC
  5
BE
100
AcDbEntity
  8
0
  6
HIDDEN
 62
   174
100
AcDbCircle
 10
166.337118
 20
319.747162
 30
0.0
 40
2.25
100
AcDbArc
 50
225.0
 51
270.0
  0
LINE
  5
BF
100
AcDbEntity
  8
0
  6
HIDDEN
 62
   174
100
AcDbLine
 10
715.337118
 20
392.872162
 30
0.0
 11
708.587118
 21
392.872162
 31
0.0
  0
LINE
  5
C0
100
AcDbEntity
  8
0
  6
Continuous
 62
   174
100
AcDbLine
 10
166.337118
 20
337.747162
 30
0.0
 11
173.087118
 21
337.747162
 31
0.0
  0
LINE
  5
C1
100
AcDbEntity
  8
0
  6
HIDDEN
 62
   174
100
AcDbLine
 10
717.587118
 20
319.835346
 30
0.0
 11
717.587118
 21
335.584606
 31
0.0
  0
LINE
  5
C2
100
AcDbEntity
  8
0
  6
Continuous
 62
   174
100
AcDbLine
 10
717.587118
 20
396.331324
 30
0.0
 11
717.587118
 21
412.080584
 31
0.0
  0
LINE
  5
C3
100
AcDbEntity
  8
0
  6
HIDDEN
 62
   174
100
AcDbLine
 10
166.337118
 20
414.330908
 30
0.0
 11
166.337118
 21
404.205954
 31
0.0
  0
LINE
  5
C4
100
AcDbEntity
  8
0
  6
HIDDEN
 62
   174
100
AcDbLine
 10
672.137118
 20
433.372162
 30
0.0
 11
672.137118
 21
441.472162
 31
0.0
  0
LINE
  5
C5
100
AcDbEntity
  8
0
  6
Continuous
 62
   174
100
AcDbLine
 10
525.407647
 20
315.467709
 30
0.0
 11
524.791079
 21
315.467709
 31
0.0
  0
LINE
  5
C6
100
AcDbEntity
  8
0
  6
HIDDEN
 62
   174
100
AcDbLine
 10
503.899338
 20
321.767709
 30
0.0
 11
500.826121
 21
321.767709
 31
0.0
  0
LINE
  5
C7
100
AcDbEntity
  8
0
  6
HIDDEN
 62
   174
100
AcDbLine
 10
663.587118
 20
473.647162
 30
0.0
 11
659.987118
 21
473.647162
 31
0.0
  0
LINE
  5
C8
100
AcDbEntity
  8
0
  6
HIDDEN
 62
   174
100
AcDbLine
 10
209.537118
 20
441.472162
 30
0.0
 11
209.537118
 21
448.222162
 31
0.0
  0
LINE
  5
C9
100
AcDbEntity
  8
0
  6
HIDDEN
 62
   174
100
AcDbLine
 10
164.087118
 20
335.584606
 30
0.0
 11
164.087118
 21
319.835346
 31
0.0
  0
LINE
  5
CA
100
AcDbEntity
  8
0
  6
HIDDEN
 62
   174
100
AcDbLine
 10
425.061002
 20
321.772162
 30
0.0
 11
456.558921
 21
321.772162
 31
0.0
  0
LINE
  5
CB
100
AcDbEntity
  8
0
  6
HIDDEN
 62
   174
100
AcDbLine
 10
672.137118
 20
433.372162
 30
0.0
 11
686.537118
 21
433.372162
 31
0.0
  0
LINE
  5
CC
100
AcDbEntity
  8
0
  6
HIDDEN
 62
   174
100
AcDbLine
 10
166.337118
 20
392.872162
 30
0.0
 11
173.087118
 21
392.872162
 31
0.0
  0
LINE
  5
CD
100
AcDbEntity
  8
0
  6
HIDDEN
 62
   174
100
AcDbLine
 10
301.337118
 20
415.372162
 30
0.0
 11
301.337118
 21
414.922162
 31
0.0
  0
LINE
  5
CE
100
AcDbEntity
  8
0
  6
Continuous
 62
   174
100
AcDbLine
 10
519.018796
 20
315.467709
 30
0.0
 11
512.8086
 21
315.467709
 31
0.0
  0
LINE
  5
CF
100
AcDbEntity
  8
0
  6
HIDDEN
 62
   174
100
AcDbLine
 10
498.729618
 20
383.872162
 30
0.0
 11
498.729618
 21
415.372162
 31
0.0
  0
ARC
  5
D0
100
AcDbEntity
  8
0
  6
Continuous
 62
   174
100
AcDbCircle
 10
166.337118
 20
396.247162
 30
0.0
 40
2.25
100
AcDbArc
 50
180.0
 51
225.0
  0
ARC
  5
D1
100
AcDbEntity
  8
0
  6
HIDDEN
 62
   174
100
AcDbCircle
 10
166.337118
 20
319.747162
 30
0.0
 40
2.25
100
AcDbArc
 50
225.0
 51
270.0
  0
LINE
  5
D2
100
AcDbEntity
  8
0
  6
HIDDEN
 62
   174
100
AcDbLine
 10
379.951058
 20
316.372162
 30
0.0
 11
368.81433
 21
316.372162
 31
0.0
  0
LINE
  5
D3
100
AcDbEntity
  8
0
  6
HIDDEN
 62
   174
100
AcDbLine
 10
385.149618
 20
383.872162
 30
0.0
 11
385.149618
 21
415.372162
 31
0.0
  0
LINE
  5
D4
100
AcDbEntity
  8
0
  6
HIDDEN
 62
   174
100
AcDbLine
 10
498.69911
 20
415.372162
 30
0.0
 11
454.916744
 21
415.372162
 31
0.0
  0
LINE
  5
D5
100
AcDbEntity
  8
0
  6
HIDDEN
 62
   174
100
AcDbLine
 10
715.337118
 20
414.247162
 30
0.0
 11
708.587118
 21
414.247162
 31
0.0
  0
LINE
  5
D6
100
AcDbEntity
  8
0
  6
HIDDEN
 62
   174
100
AcDbLine
 10
166.337118
 20
415.372162
 30
0.0
 11
173.087118
 21
415.372162
 31
0.0
  0
LINE
  5
D7
100
AcDbEntity
  8
0
  6
HIDDEN
 62
   174
100
AcDbLine
 10
708.587118
 20
327.709976
 30
0.0
 11
708.587118
 21
338.95919
 31
0.0
  0
LINE
  5
D8
100
AcDbEntity
  8
0
  6
HIDDEN
 62
   174
100
AcDbLine
 10
166.337118
 20
393.398263
 30
0.0
 11
166.337118
 21
404.205954
 31
0.0
  0
LINE
  5
D9
100
AcDbEntity
  8
0
  6
HIDDEN
 62
   174
100
AcDbLine
 10
503.356156
 20
409.972162
 30
0.0
 11
509.924263
 21
409.972162
 31
0.0
  0
LINE
  5
DA
100
AcDbEntity
  8
0
  6
HIDDEN
 62
   174
100
AcDbLine
 10
521.882079
 20
321.767709
 30
0.0
 11
512.8086
 21
321.767709
 31
0.0
  0
LINE
  5
DB
100
AcDbEntity
  8
0
  6
Continuous
 62
   174
100
AcDbLine
 10
328.337118
 20
316.372162
 30
0.0
 11
328.337118
 21
415.372162
 31
0.0
  0
LINE
  5
DC
100
AcDbEntity
  8
0
  6
HIDDEN
 62
   174
100
AcDbLine
 10
457.149618
 20
383.872162
 30
0.0
 11
457.149618
 21
415.372162
 31
0.0
  0
LINE
  5
DD
100
AcDbEntity
  8
0
  6
HIDDEN
 62
   174
100
AcDbLine
 10
166.337118
 20
414.247162
 30
0.0
 11
173.087118
 21
414.247162
 31
0.0
  0
LINE
  5
DE
100
AcDbEntity
  8
0
  6
HIDDEN
 62
   174
100
AcDbLine
 10
427.357643
 20
316.372162
 30
0.0
 11
425.303418
 21
316.372162
 31
0.0
  0
LINE
  5
DF
100
AcDbEntity
  8
0
  6
HIDDEN
 62
   174
100
AcDbLine
 10
166.337118
 20
404.205954
 30
0.0
 11
166.337118
 21
415.010637
 31
0.0
  0
LINE
  5
E0
100
AcDbEntity
  8
0
  6
Continuous
 62
   174
100
AcDbLine
 10
509.678839
 20
415.372162
 30
0.0
 11
515.932345
 21
415.372162
 31
0.0
  0
LINE
  5
E1
100
AcDbEntity
  8
0
  6
HIDDEN
 62
   174
100
AcDbLine
 10
377.837118
 20
321.772162
 30
0.0
 11
377.837118
 21
338.872162
 31
0.0
  0
LINE
  5
E2
100
AcDbEntity
  8
0
  6
HIDDEN
 62
   174
100
AcDbLine
 10
166.337118
 20
414.330908
 30
0.0
 11
166.337118
 21
394.081601
 31
0.0
  0
LINE
  5
E3
100
AcDbEntity
  8
0
  6
HIDDEN
 62
   174
100
AcDbLine
 10
166.337118
 20
337.834328
 30
0.0
 11
166.337118
 21
317.585021
 31
0.0
  0
LINE
  5
E4
100
AcDbEntity
  8
0
  6
HIDDEN
 62
   174
100
AcDbLine
 10
717.587118
 20
396.331324
 30
0.0
 11
717.587118
 21
412.080584
 31
0.0
  0
LINE
  5
E5
100
AcDbEntity
  8
0
  6
HIDDEN
 62
   174
100
AcDbLine
 10
503.837118
 20
321.772162
 30
0.0
 11
503.837118
 21
338.872162
 31
0.0
  0
LINE
  5
E6
100
AcDbEntity
  8
0
  6
Continuous
 62
   174
100
AcDbLine
 10
717.587118
 20
319.835346
 30
0.0
 11
717.587118
 21
335.584606
 31
0.0
  0
LINE
  5
E7
100
AcDbEntity
  8
0
  6
HIDDEN
 62
   174
100
AcDbLine
 10
528.554852
 20
316.372162
 30
0.0
 11
519.128275
 21
316.372162
 31
0.0
  0
LINE
  5
E8
100
AcDbEntity
  8
0
  6
HIDDEN
 62
   174
100
AcDbLine
 10
173.087118
 20
338.95919
 30
0.0
 11
173.087118
 21
327.709976
 31
0.0
  0
LINE
  5
E9
100
AcDbEntity
  8
0
  6
Continuous
 62
   174
100
AcDbLine
 10
218.087118
 20
433.372162
 30
0.0
 11
218.087118
 21
481.522162
 31
0.0
  0
ARC
  5
EA
100
AcDbEntity
  8
0
  6
HIDDEN
 62
   174
100
AcDbCircle
 10
500.240004
 20
318.617709
 30
0.0
 40
3.15
100
AcDbArc
 50
-90.0
 51
0.0
  0
LINE
  5
EB
100
AcDbEntity
  8
0
  6
HIDDEN
 62
   174
100
AcDbLine
 10
424.524618
 20
383.872162
 30
0.0
 11
424.524618
 21
415.372162
 31
0.0
  0
ARC
  5
EC
100
AcDbEntity
  8
0
  6
Continuous
 62
   174
100
AcDbCircle
 10
166.337118
 20
335.497162
 30
0.0
 40
2.25
100
AcDbArc
 50
-270.0
 51
-180.0
  0
LINE
  5
ED
100
AcDbEntity
  8
0
  6
HIDDEN
 62
   174
100
AcDbLine
 10
663.587118
 20
473.647162
 30
0.0
 11
659.987118
 21
473.647162
 31
0.0
  0
LINE
  5
EE
100
AcDbEntity
  8
0
  6
Continuous
 62
   174
100
AcDbLine
 10
715.337118
 20
414.247162
 30
0.0
 11
708.587118
 21
414.247162
 31
0.0
  0
LINE
  5
EF
100
AcDbEntity
  8
0
  6
HIDDEN
 62
   174
100
AcDbLine
 10
528.587118
 20
316.372162
 30
0.0
 11
528.587118
 21
321.772162
 31
0.0
  0
LINE
  5
F0
100
AcDbEntity
  8
0
  6
Continuous
 62
   174
100
AcDbLine
 10
166.337118
 20
392.95674
 30
0.0
 11
166.337118
 21
393.398263
 31
0.0
  0
LINE
  5
F1
100
AcDbEntity
  8
0
  6
HIDDEN
 62
   174
100
AcDbLine
 10
580.337118
 20
415.372162
 30
0.0
 11
580.337118
 21
414.922162
 31
0.0
  0
LINE
  5
F2
100
AcDbEntity
  8
0
  6
HIDDEN
 62
   174
100
AcDbLine
 10
424.498571
 20
379.372162
 30
0.0
 11
385.126021
 21
379.372162
 31
0.0
  0
LINE
  5
F3
100
AcDbEntity
  8
0
  6
HIDDEN
 62
   174
100
AcDbLine
 10
424.524618
 20
415.372162
 30
0.0
 11
424.524618
 21
379.372162
 31
0.0
  0
LINE
  5
F4
100
AcDbEntity
  8
0
  6
HIDDEN
 62
   174
100
AcDbLine
 10
457.149618
 20
415.372162
 30
0.0
 11
457.149618
 21
379.372162
 31
0.0
  0
ARC
  5
F5
100
AcDbEntity
  8
0
  6
Continuous
 62
   174
100
AcDbCircle
 10
166.337118
 20
396.247162
 30
0.0
 40
2.25
100
AcDbArc
 50
180.0
 51
225.0
  0
ARC
  5
F6
100
AcDbEntity
  8
0
  6
HIDDEN
 62
   174
100
AcDbCircle
 10
715.337118
 20
319.747162
 30
0.0
 40
2.25
100
AcDbArc
 50
-90.0
 51
0.0
  0
ARC
  5
F7
100
AcDbEntity
  8
0
  6
Continuous
 62
   174
100
AcDbCircle
 10
715.337118
 20
411.997162
 30
0.0
 40
2.25
100
AcDbArc
 50
0.0
 51
90.0
  0
LINE
  5
F8
100
AcDbEntity
  8
0
  6
Continuous
 62
   174
100
AcDbLine
 10
715.337118
 20
337.747162
 30
0.0
 11
708.587118
 21
337.747162
 31
0.0
  0
ARC
  5
F9
100
AcDbEntity
  8
0
  6
HIDDEN
 62
   174
100
AcDbCircle
 10
166.337118
 20
335.497162
 30
0.0
 40
2.25
100
AcDbArc
 50
-270.0
 51
-180.0
  0
LINE
  5
FA
100
AcDbEntity
  8
0
  6
Continuous
 62
   174
100
AcDbLine
 10
166.337118
 20
317.497162
 30
0.0
 11
173.087118
 21
317.497162
 31
0.0
  0
LINE
  5
FB
100
AcDbEntity
  8
0
  6
HIDDEN
 62
   174
100
AcDbLine
 10
659.987118
 20
433.372162
 30
0.0
 11
663.587118
 21
433.372162
 31
0.0
  0
LINE
  5
FC
100
AcDbEntity
  8
0
  6
Continuous
 62
   174
100
AcDbLine
 10
525.407647
 20
315.467709
 30
0.0
 11
519.018796
 21
315.467709
 31
0.0
  0
ARC
  5
FD
100
AcDbEntity
  8
0
  6
HIDDEN
 62
   174
100
AcDbCircle
 10
500.240004
 20
318.617709
 30
0.0
 40
3.15
100
AcDbArc
 50
0.0
 51
90.0
  0
LINE
  5
FE
100
AcDbEntity
  8
0
  6
HIDDEN
 62
   174
100
AcDbLine
 10
424.524618
 20
383.872162
 30
0.0
 11
424.524618
 21
415.372162
 31
0.0
  0
ARC
  5
FF
100
AcDbEntity
  8
0
  6
Continuous
 62
   174
100
AcDbCircle
 10
166.337118
 20
411.997162
 30
0.0
 40
2.25
100
AcDbArc
 50
-270.0
 51
-180.0
  0
LINE
  5
100
100
AcDbEntity
  8
0
  6
HIDDEN
 62
   174
100
AcDbLine
 10
195.137118
 20
441.472162
 30
0.0
 11
195.137118
 21
448.222162
 31
0.0
  0
LINE
  5
101
100
AcDbEntity
  8
0
  6
HIDDEN
 62
   174
100
AcDbLine
 10
164.087118
 20
412.080584
 30
0.0
 11
164.087118
 21
396.331324
 31
0.0
  0
LINE
  5
102
100
AcDbEntity
  8
0
  6
HIDDEN
 62
   174
100
AcDbLine
 10
368.81433
 20
316.372162
 30
0.0
 11
357.678204
 21
316.372162
 31
0.0
  0
LINE
  5
103
100
AcDbEntity
  8
0
  6
HIDDEN
 62
   174
100
AcDbLine
 10
456.3147
 20
316.372162
 30
0.0
 11
454.255662
 21
316.372162
 31
0.0
  0
LINE
  5
104
100
AcDbEntity
  8
0
  6
HIDDEN
 62
   174
100
AcDbLine
 10
166.337118
 20
338.872162
 30
0.0
 11
173.087118
 21
338.872162
 31
0.0
  0
LINE
  5
105
100
AcDbEntity
  8
0
  6
HIDDEN
 62
   174
100
AcDbLine
 10
672.137118
 20
433.372162
 30
0.0
 11
686.537118
 21
433.372162
 31
0.0
  0
LINE
  5
106
100
AcDbEntity
  8
0
  6
HIDDEN
 62
   174
100
AcDbLine
 10
319.337118
 20
415.372162
 30
0.0
 11
319.337118
 21
414.922162
 31
0.0
  0
LINE
  5
107
100
AcDbEntity
  8
0
  6
Continuous
 62
   174
100
AcDbLine
 10
524.791079
 20
315.467709
 30
0.0
 11
519.018796
 21
315.467709
 31
0.0
  0
LINE
  5
108
100
AcDbEntity
  8
0
  6
HIDDEN
 62
   174
100
AcDbLine
 10
173.087118
 20
414.330908
 30
0.0
 11
173.087118
 21
394.081601
 31
0.0
  0
LINE
  5
109
100
AcDbEntity
  8
0
  6
HIDDEN
 62
   174
100
AcDbLine
 10
498.69911
 20
383.872162
 30
0.0
 11
454.916744
 21
383.872162
 31
0.0
  0
LINE
  5
10A
100
AcDbEntity
  8
0
  6
HIDDEN
 62
   174
100
AcDbLine
 10
454.944618
 20
383.872162
 30
0.0
 11
454.944618
 21
415.372162
 31
0.0
  0
ARC
  5
10B
100
AcDbEntity
  8
0
  6
Continuous
 62
   174
100
AcDbCircle
 10
715.337118
 20
319.747162
 30
0.0
 40
2.25
100
AcDbArc
 50
-90.0
 51
0.0
  0
LINE
  5
10C
100
AcDbEntity
  8
0
  6
HIDDEN
 62
   174
100
AcDbLine
 10
218.087118
 20
467.797162
 30
0.0
 11
221.687118
 21
467.797162
 31
0.0
  0
LINE
  5
10D
100
AcDbEntity
  8
0
  6
HIDDEN
 62
   174
100
AcDbLine
 10
717.587118
 20
319.835346
 30
0.0
 11
717.587118
 21
335.584606
 31
0.0
  0
LINE
  5
10E
100
AcDbEntity
  8
0
  6
HIDDEN
 62
   174
100
AcDbLine
 10
319.317428
 20
414.922162
 30
0.0
 11
301.319047
 21
414.922162
 31
0.0
  0
ARC
  5
10F
100
AcDbEntity
  8
0
  6
HIDDEN
 62
   174
100
AcDbCircle
 10
525.440004
 20
318.617709
 30
0.0
 40
3.15
100
AcDbArc
 50
0.0
 51
90.0
  0
LINE
  5
110
100
AcDbEntity
  8
0
  6
HIDDEN
 62
   174
100
AcDbLine
 10
715.337118
 20
393.997162
 30
0.0
 11
708.587118
 21
393.997162
 31
0.0
  0
LINE
  5
111
100
AcDbEntity
  8
0
  6
HIDDEN
 62
   174
100
AcDbLine
 10
166.337118
 20
338.872162
 30
0.0
 11
173.087118
 21
338.872162
 31
0.0
  0
LINE
  5
112
100
AcDbEntity
  8
0
  6
HIDDEN
 62
   174
100
AcDbLine
 10
166.337118
 20
327.709976
 30
0.0
 11
166.337118
 21
338.514057
 31
0.0
  0
LINE
  5
113
100
AcDbEntity
  8
0
  6
Continuous
 62
   174
100
AcDbLine
 10
715.337118
 20
338.95919
 30
0.0
 11
715.337118
 21
338.517667
 31
0.0
  0
LINE
  5
114
100
AcDbEntity
  8
0
  6
Continuous
 62
   174
100
AcDbLine
 10
553.337118
 20
316.372162
 30
0.0
 11
553.337118
 21
415.372162
 31
0.0
  0
ARC
  5
115
100
AcDbEntity
  8
0
  6
HIDDEN
 62
   174
100
AcDbCircle
 10
715.337118
 20
411.997162
 30
0.0
 40
2.25
100
AcDbArc
 50
0.0
 51
90.0
  0
LINE
  5
116
100
AcDbEntity
  8
0
  6
HIDDEN
 62
   174
100
AcDbLine
 10
715.337118
 20
337.747162
 30
0.0
 11
708.587118
 21
337.747162
 31
0.0
  0
LINE
  5
117
100
AcDbEntity
  8
0
  6
HIDDEN
 62
   174
100
AcDbLine
 10
431.810771
 20
321.772162
 30
0.0
 11
449.809753
 21
321.772162
 31
0.0
  0
LINE
  5
118
100
AcDbEntity
  8
0
  6
Continuous
 62
   174
100
AcDbLine
 10
292.337118
 20
316.372162
 30
0.0
 11
292.337118
 21
415.372162
 31
0.0
  0
LINE
  5
119
100
AcDbEntity
  8
0
  6
HIDDEN
 62
   174
100
AcDbLine
 10
377.837118
 20
321.772162
 30
0.0
 11
377.837118
 21
338.872162
 31
0.0
  0
LINE
  5
11A
100
AcDbEntity
  8
0
  6
HIDDEN
 62
   174
100
AcDbLine
 10
166.337118
 20
317.497162
 30
0.0
 11
173.087118
 21
317.497162
 31
0.0
  0
LINE
  5
11B
100
AcDbEntity
  8
0
  6
HIDDEN
 62
   174
100
AcDbLine
 10
519.128275
 20
316.372162
 30
0.0
 11
506.483511
 21
316.372162
 31
0.0
  0
LINE
  5
11C
100
AcDbEntity
  8
0
  6
HIDDEN
 62
   174
100
AcDbLine
 10
173.087118
 20
404.205954
 30
0.0
 11
173.087118
 21
392.95674
 31
0.0
  0
LINE
  5
11D
100
AcDbEntity
  8
0
  6
HIDDEN
 62
   174
100
AcDbLine
 10
515.686921
 20
409.972162
 30
0.0
 11
522.255028
 21
409.972162
 31
0.0
  0
LINE
  5
11E
100
AcDbEntity
  8
0
  6
Continuous
 62
   174
100
AcDbLine
 10
515.718524
 20
415.372162
 30
0.0
 11
515.718524
 21
409.972162
 31
0.0
  0
ARC
  5
11F
100
AcDbEntity
  8
0
  6
HIDDEN
 62
   174
100
AcDbCircle
 10
500.240004
 20
318.617709
 30
0.0
 40
3.15
100
AcDbArc
 50
90.0
 51
180.0
  0
LINE
  5
120
100
AcDbEntity
  8
0
  6
HIDDEN
 62
   174
100
AcDbLine
 10
525.405241
 20
321.767709
 30
0.0
 11
521.882079
 21
321.767709
 31
0.0
  0
ARC
  5
121
100
AcDbEntity
  8
0
  6
Continuous
 62
   174
100
AcDbCircle
 10
166.337118
 20
319.747162
 30
0.0
 40
2.25
100
AcDbArc
 50
225.0
 51
270.0
  0
ARC
  5
122
100
AcDbEntity
  8
0
  6
Continuous
 62
   174
100
AcDbCircle
 10
715.337118
 20
335.497162
 30
0.0
 40
2.25
100
AcDbArc
 50
0.0
 51
90.0
  0
LINE
  5
123
100
AcDbEntity
  8
0
  6
HIDDEN
 62
   174
100
AcDbLine
 10
503.837118
 20
321.772162
 30
0.0
 11
503.837118
 21
338.872162
 31
0.0
  0
LINE
  5
124
100
AcDbEntity
  8
0
  6
Continuous
 62
   174
100
AcDbLine
 10
672.137118
 20
433.372162
 30
0.0
 11
672.137118
 21
470.722162
 31
0.0
  0
ARC
  5
125
100
AcDbEntity
  8
0
  6
HIDDEN
 62
   174
100
AcDbCircle
 10
525.440004
 20
318.617709
 30
0.0
 40
3.15
100
AcDbArc
 50
-45.885775
 51
0.0
  0
LINE
  5
126
100
AcDbEntity
  8
0
  6
HIDDEN
 62
   174
100
AcDbLine
 10
708.587118
 20
317.585021
 30
0.0
 11
708.587118
 21
337.834328
 31
0.0
  0
LINE
  5
127
100
AcDbEntity
  8
0
  6
HIDDEN
 62
   174
100
AcDbLine
 10
431.837118
 20
321.772162
 30
0.0
 11
431.837118
 21
338.872162
 31
0.0
  0
LINE
  5
128
100
AcDbEntity
  8
0
  6
Continuous
 62
   174
100
AcDbLine
 10
715.337118
 20
327.709976
 30
0.0
 11
715.337118
 21
337.834328
 31
0.0
  0
LINE
  5
129
100
AcDbEntity
  8
0
  6
HIDDEN
 62
   174
100
AcDbLine
 10
580.337118
 20
415.372162
 30
0.0
 11
580.337118
 21
414.922162
 31
0.0
  0
LINE
  5
12A
100
AcDbEntity
  8
0
  6
HIDDEN
 62
   174
100
AcDbLine
 10
202.324641
 20
433.372162
 30
0.0
 11
191.075427
 21
433.372162
 31
0.0
  0
LINE
  5
12B
100
AcDbEntity
  8
0
  6
Continuous
 62
   174
100
AcDbLine
 10
218.087118
 20
481.522162
 30
0.0
 11
221.687118
 21
481.522162
 31
0.0
  0
LINE
  5
12C
100
AcDbEntity
  8
0
  6
Continuous
 62
   174
100
AcDbLine
 10
715.337118
 20
317.497162
 30
0.0
 11
708.587118
 21
317.497162
 31
0.0
  0
LINE
  5
12D
100
AcDbEntity
  8
0
  6
HIDDEN
 62
   174
100
AcDbLine
 10
425.087118
 20
316.372162
 30
0.0
 11
425.087118
 21
321.772162
 31
0.0
  0
LINE
  5
12E
100
AcDbEntity
  8
0
  6
HIDDEN
 62
   174
100
AcDbLine
 10
457.149618
 20
383.872162
 30
0.0
 11
457.149618
 21
415.372162
 31
0.0
  0
LINE
  5
12F
100
AcDbEntity
  8
0
  6
Continuous
 62
   174
100
AcDbLine
 10
166.337118
 20
404.205954
 30
0.0
 11
166.337118
 21
394.081601
 31
0.0
  0
LINE
  5
130
100
AcDbEntity
  8
0
  6
HIDDEN
 62
   174
100
AcDbLine
 10
195.137118
 20
433.372162
 30
0.0
 11
209.537118
 21
433.372162
 31
0.0
  0
LINE
  5
131
100
AcDbEntity
  8
0
  6
HIDDEN
 62
   174
100
AcDbLine
 10
357.678204
 20
316.372162
 30
0.0
 11
356.255585
 21
316.372162
 31
0.0
  0
LINE
  5
132
100
AcDbEntity
  8
0
  6
Continuous
 62
   174
100
AcDbLine
 10
193.459892
 20
441.472162
 30
0.0
 11
191.075427
 21
441.472162
 31
0.0
  0
LINE
  5
133
100
AcDbEntity
  8
0
  6
HIDDEN
 62
   174
100
AcDbLine
 10
359.81544
 20
321.772162
 30
0.0
 11
377.813822
 21
321.772162
 31
0.0
  0
ARC
  5
134
100
AcDbEntity
  8
0
  6
Continuous
 62
   174
100
AcDbCircle
 10
166.337118
 20
411.997162
 30
0.0
 40
2.25
100
AcDbArc
 50
-270.0
 51
-180.0
  0
ARC
  5
135
100
AcDbEntity
  8
0
  6
HIDDEN
 62
   174
100
AcDbCircle
 10
166.337118
 20
396.247162
 30
0.0
 40
2.25
100
AcDbArc
 50
180.0
 51
270.0
  0
LINE
  5
136
100
AcDbEntity
  8
0
  6
HIDDEN
 62
   174
100
AcDbLine
 10
663.587118
 20
473.727792
 30
0.0
 11
663.587118
 21
467.877912
 31
0.0
  0
LINE
  5
137
100
AcDbEntity
  8
0
  6
HIDDEN
 62
   174
100
AcDbLine
 10
715.337118
 20
338.872162
 30
0.0
 11
708.587118
 21
338.872162
 31
0.0
  0
LINE
  5
138
100
AcDbEntity
  8
0
  6
HIDDEN
 62
   174
100
AcDbLine
 10
166.337118
 20
317.497162
 30
0.0
 11
166.337118
 21
327.622162
 31
0.0
  0
LINE
  5
139
100
AcDbEntity
  8
0
  6
HIDDEN
 62
   174
100
AcDbLine
 10
195.137118
 20
433.372162
 30
0.0
 11
195.137118
 21
441.472162
 31
0.0
  0
LINE
  5
13A
100
AcDbEntity
  8
0
  6
HIDDEN
 62
   174
100
AcDbLine
 10
715.337118
 20
415.372162
 30
0.0
 11
708.587118
 21
415.372162
 31
0.0
  0
LINE
  5
13B
100
AcDbEntity
  8
0
  6
HIDDEN
 62
   174
100
AcDbLine
 10
679.295282
 20
441.472162
 30
0.0
 11
671.261847
 21
441.472162
 31
0.0
  0
LINE
  5
13C
100
AcDbEntity
  8
0
  6
Continuous
 62
   174
100
AcDbLine
 10
519.018796
 20
315.467709
 30
0.0
 11
512.8086
 21
315.467709
 31
0.0
  0
LINE
  5
13D
100
AcDbEntity
  8
0
  6
HIDDEN
 62
   174
100
AcDbLine
 10
454.944618
 20
383.872162
 30
0.0
 11
454.944618
 21
415.372162
 31
0.0
  0
LINE
  5
13E
100
AcDbEntity
  8
0
  6
HIDDEN
 62
   174
100
AcDbLine
 10
457.149618
 20
415.372162
 30
0.0
 11
457.149618
 21
379.372162
 31
0.0
  0
ARC
  5
13F
100
AcDbEntity
  8
0
  6
Continuous
 62
   174
100
AcDbCircle
 10
715.337118
 20
396.247162
 30
0.0
 40
2.25
100
AcDbArc
 50
-90.0
 51
0.0
  0
LINE
  5
140
100
AcDbEntity
  8
0
  6
HIDDEN
 62
   174
100
AcDbLine
 10
173.087118
 20
316.372162
 30
0.0
 11
173.087118
 21
327.622162
 31
0.0
  0
LINE
  5
141
100
AcDbEntity
  8
0
  6
HIDDEN
 62
   174
100
AcDbLine
 10
454.255662
 20
316.372162
 30
0.0
 11
453.361187
 21
316.372162
 31
0.0
  0
LINE
  5
142
100
AcDbEntity
  8
0
  6
HIDDEN
 62
   174
100
AcDbLine
 10
166.337118
 20
392.872162
 30
0.0
 11
173.087118
 21
392.872162
 31
0.0
  0
LINE
  5
143
100
AcDbEntity
  8
0
  6
HIDDEN
 62
   174
100
AcDbLine
 10
715.337118
 20
414.247162
 30
0.0
 11
708.587118
 21
414.247162
 31
0.0
  0
LINE
  5
144
100
AcDbEntity
  8
0
  6
HIDDEN
 62
   174
100
AcDbLine
 10
717.587118
 20
396.331324
 30
0.0
 11
717.587118
 21
412.080584
 31
0.0
  0
LINE
  5
145
100
AcDbEntity
  8
0
  6
HIDDEN
 62
   174
100
AcDbLine
 10
715.337118
 20
317.585021
 30
0.0
 11
715.337118
 21
337.834328
 31
0.0
  0
LINE
  5
146
100
AcDbEntity
  8
0
  6
HIDDEN
 62
   174
100
AcDbLine
 10
708.587118
 20
394.081601
 30
0.0
 11
708.587118
 21
414.330908
 31
0.0
  0
LINE
  5
147
100
AcDbEntity
  8
0
  6
HIDDEN
 62
   174
100
AcDbLine
 10
173.087118
 20
414.330908
 30
0.0
 11
173.087118
 21
394.081601
 31
0.0
  0
LINE
  5
148
100
AcDbEntity
  8
0
  6
HIDDEN
 62
   174
100
AcDbLine
 10
715.337118
 20
317.497162
 30
0.0
 11
708.587118
 21
317.497162
 31
0.0
  0
LINE
  5
149
100
AcDbEntity
  8
0
  6
HIDDEN
 62
   174
100
AcDbLine
 10
506.483511
 20
316.372162
 30
0.0
 11
497.056933
 21
316.372162
 31
0.0
  0
LINE
  5
14A
100
AcDbEntity
  8
0
  6
HIDDEN
 62
   174
100
AcDbLine
 10
522.287118
 20
415.372162
 30
0.0
 11
522.287118
 21
409.972162
 31
0.0
  0
LINE
  5
14B
100
AcDbEntity
  8
0
  6
Continuous
 62
   174
100
AcDbLine
 10
715.337118
 20
415.455769
 30
0.0
 11
715.337118
 21
415.014246
 31
0.0
  0
LINE
  5
14C
100
AcDbEntity
  8
0
  6
HIDDEN
 62
   174
100
AcDbLine
 10
359.837118
 20
321.772162
 30
0.0
 11
359.837118
 21
338.872162
 31
0.0
  0
LINE
  5
14D
100
AcDbEntity
  8
0
  6
HIDDEN
 62
   174
100
AcDbLine
 10
166.337118
 20
317.497162
 30
0.0
 11
173.087118
 21
317.497162
 31
0.0
  0
LINE
  5
14E
100
AcDbEntity
  8
0
  6
HIDDEN
 62
   174
100
AcDbLine
 10
164.087118
 20
412.080584
 30
0.0
 11
164.087118
 21
396.331324
 31
0.0
  0
LINE
  5
14F
100
AcDbEntity
  8
0
  6
Continuous
 62
   174
100
AcDbLine
 10
328.337118
 20
316.372162
 30
0.0
 11
553.337118
 21
316.372162
 31
0.0
  0
LINE
  5
150
100
AcDbEntity
  8
0
  6
HIDDEN
 62
   174
100
AcDbLine
 10
521.837118
 20
321.772162
 30
0.0
 11
521.837118
 21
338.872162
 31
0.0
  0
LINE
  5
151
100
AcDbEntity
  8
0
  6
HIDDEN
 62
   174
100
AcDbLine
 10
663.587118
 20
467.797162
 30
0.0
 11
659.987118
 21
467.797162
 31
0.0
  0
LINE
  5
152
100
AcDbEntity
  8
0
  6
Continuous
 62
   174
100
AcDbLine
 10
686.537118
 20
433.372162
 30
0.0
 11
686.537118
 21
470.722162
 31
0.0
  0
LINE
  5
153
100
AcDbEntity
  8
0
  6
Continuous
 62
   174
100
AcDbLine
 10
715.337118
 20
317.585021
 30
0.0
 11
715.337118
 21
327.709976
 31
0.0
  0
LINE
  5
154
100
AcDbEntity
  8
0
  6
HIDDEN
 62
   174
100
AcDbLine
 10
173.087118
 20
415.455769
 30
0.0
 11
173.087118
 21
404.205954
 31
0.0
  0
ARC
  5
155
100
AcDbEntity
  8
0
  6
HIDDEN
 62
   174
100
AcDbCircle
 10
525.440004
 20
318.617709
 30
0.0
 40
3.15
100
AcDbArc
 50
-180.0
 51
-90.0
  0
LINE
  5
156
100
AcDbEntity
  8
0
  6
HIDDEN
 62
   174
100
AcDbLine
 10
449.837118
 20
321.772162
 30
0.0
 11
449.837118
 21
338.872162
 31
0.0
  0
LINE
  5
157
100
AcDbEntity
  8
0
  6
Continuous
 62
   174
100
AcDbLine
 10
209.537118
 20
433.372162
 30
0.0
 11
209.537118
 21
470.722162
 31
0.0
  0
LINE
  5
158
100
AcDbEntity
  8
0
  6
Continuous
 62
   174
100
AcDbLine
 10
553.337118
 20
415.372162
 30
0.0
 11
515.718524
 21
415.372162
 31
0.0
  0
LINE
  5
159
100
AcDbEntity
  8
0
  6
Continuous
 62
   174
100
AcDbLine
 10
715.337118
 20
393.997162
 30
0.0
 11
708.587118
 21
393.997162
 31
0.0
  0
LINE
  5
15A
100
AcDbEntity
  8
0
  6
HIDDEN
 62
   174
100
AcDbLine
 10
456.587118
 20
316.372162
 30
0.0
 11
456.587118
 21
321.772162
 31
0.0
  0
LINE
  5
15B
100
AcDbEntity
  8
0
  6
HIDDEN
 62
   174
100
AcDbLine
 10
356.255585
 20
316.372162
 30
0.0
 11
355.361712
 21
316.372162
 31
0.0
  0
LINE
  5
15C
100
AcDbEntity
  8
0
  6
Continuous
 62
   174
100
AcDbLine
 10
194.291207
 20
441.472162
 30
0.0
 11
193.459892
 21
441.472162
 31
0.0
  0
LINE
  5
15D
100
AcDbEntity
  8
0
  6
HIDDEN
 62
   174
100
AcDbLine
 10
679.295282
 20
433.372162
 30
0.0
 11
668.046068
 21
433.372162
 31
0.0
  0
LINE
  5
15E
100
AcDbEntity
  8
0
  6
Continuous
 62
   174
100
AcDbLine
 10
164.087118
 20
335.584606
 30
0.0
 11
164.087118
 21
319.835346
 31
0.0
  0
LINE
  5
15F
100
AcDbEntity
  8
0
  6
HIDDEN
 62
   174
100
AcDbLine
 10
715.337118
 20
317.585021
 30
0.0
 11
715.337118
 21
327.709976
 31
0.0
  0
LINE
  5
160
100
AcDbEntity
  8
0
  6
HIDDEN
 62
   174
100
AcDbLine
 10
708.587118
 20
327.622162
 30
0.0
 11
708.587118
 21
316.372162
 31
0.0
  0
ARC
  5
161
100
AcDbEntity
  8
0
  6
Continuous
 62
   174
100
AcDbCircle
 10
715.337118
 20
319.747162
 30
0.0
 40
2.25
100
AcDbArc
 50
-90.0
 51
0.0
  0
LINE
  5
162
100
AcDbEntity
  8
0
  6
Continuous
 62
   174
100
AcDbLine
 10
166.337118
 20
414.330908
 30
0.0
 11
166.337118
 21
404.205954
 31
0.0
  0
LINE
  5
163
100
AcDbEntity
  8
0
  6
HIDDEN
 62
   174
100
AcDbLine
 10
195.137118
 20
470.722162
 30
0.0
 11
209.537118
 21
470.722162
 31
0.0
  0
LINE
  5
164
100
AcDbEntity
  8
0
  6
HIDDEN
 62
   174
100
AcDbLine
 10
453.361187
 20
316.372162
 30
0.0
 11
451.946388
 21
316.372162
 31
0.0
  0
LINE
  5
165
100
AcDbEntity
  8
0
  6
HIDDEN
 62
   174
100
AcDbLine
 10
166.337118
 20
415.372162
 30
0.0
 11
173.087118
 21
415.372162
 31
0.0
  0
LINE
  5
166
100
AcDbEntity
  8
0
  6
HIDDEN
 62
   174
100
AcDbLine
 10
715.337118
 20
392.872162
 30
0.0
 11
708.587118
 21
392.872162
 31
0.0
  0
LINE
  5
167
100
AcDbEntity
  8
0
  6
HIDDEN
 62
   174
100
AcDbLine
 10
195.137118
 20
433.372162
 30
0.0
 11
209.537118
 21
433.372162
 31
0.0
  0
LINE
  5
168
100
AcDbEntity
  8
0
  6
HIDDEN
 62
   174
100
AcDbLine
 10
562.337118
 20
415.372162
 30
0.0
 11
562.337118
 21
414.922162
 31
0.0
  0
LINE
  5
169
100
AcDbEntity
  8
0
  6
HIDDEN
 62
   174
100
AcDbLine
 10
319.337118
 20
415.372162
 30
0.0
 11
319.337118
 21
414.922162
 31
0.0
  0
ARC
  5
16A
100
AcDbEntity
  8
0
  6
Continuous
 62
   174
100
AcDbCircle
 10
525.440004
 20
318.617709
 30
0.0
 40
3.15
100
AcDbArc
 50
-90.0
 51
-45.885775
  0
LINE
  5
16B
100
AcDbEntity
  8
0
  6
HIDDEN
 62
   174
100
AcDbLine
 10
498.729618
 20
383.872162
 30
0.0
 11
498.729618
 21
415.372162
 31
0.0
  0
ARC
  5
16C
100
AcDbEntity
  8
0
  6
HIDDEN
 62
   174
100
AcDbCircle
 10
715.337118
 20
396.247162
 30
0.0
 40
2.25
100
AcDbArc
 50
-90.0
 51
0.0
  0
LINE
  5
16D
100
AcDbEntity
  8
0
  6
HIDDEN
 62
   174
100
AcDbLine
 10
218.087118
 20
467.797162
 30
0.0
 11
221.687118
 21
467.797162
 31
0.0
  0
LINE
  5
16E
100
AcDbEntity
  8
0
  6
Continuous
 62
   174
100
AcDbLine
 10
715.337118
 20
316.372162
 30
0.0
 11
715.337118
 21
317.497162
 31
0.0
  0
LINE
  5
16F
100
AcDbEntity
  8
0
  6
HIDDEN
 62
   174
100
AcDbLine
 10
715.337118
 20
394.081601
 30
0.0
 11
715.337118
 21
414.330908
 31
0.0
  0
LINE
  5
170
100
AcDbEntity
  8
0
  6
HIDDEN
 62
   174
100
AcDbLine
 10
426.729618
 20
383.872162
 30
0.0
 11
426.729618
 21
415.372162
 31
0.0
  0
ARC
  5
171
100
AcDbEntity
  8
0
  6
HIDDEN
 62
   174
100
AcDbCircle
 10
715.337118
 20
319.747162
 30
0.0
 40
2.25
100
AcDbArc
 50
-90.0
 51
0.0
  0
LINE
  5
172
100
AcDbEntity
  8
0
  6
HIDDEN
 62
   174
100
AcDbLine
 10
166.337118
 20
338.872162
 30
0.0
 11
173.087118
 21
338.872162
 31
0.0
  0
LINE
  5
173
100
AcDbEntity
  8
0
  6
HIDDEN
 62
   174
100
AcDbLine
 10
384.563591
 20
316.372162
 30
0.0
 11
384.333205
 21
316.372162
 31
0.0
  0
LINE
  5
174
100
AcDbEntity
  8
0
  6
HIDDEN
 62
   174
100
AcDbLine
 10
503.724293
 20
321.767709
 30
0.0
 11
500.211958
 21
321.767709
 31
0.0
  0
LINE
  5
175
100
AcDbEntity
  8
0
  6
Continuous
 62
   174
100
AcDbLine
 10
690.587118
 20
433.372162
 30
0.0
 11
690.587118
 21
441.472162
 31
0.0
  0
LINE
  5
176
100
AcDbEntity
  8
0
  6
HIDDEN
 62
   174
100
AcDbLine
 10
715.337118
 20
337.747162
 30
0.0
 11
708.587118
 21
337.747162
 31
0.0
  0
LINE
  5
177
100
AcDbEntity
  8
0
  6
HIDDEN
 62
   174
100
AcDbLine
 10
715.337118
 20
317.585021
 30
0.0
 11
715.337118
 21
337.834328
 31
0.0
  0
LINE
  5
178
100
AcDbEntity
  8
0
  6
HIDDEN
 62
   174
100
AcDbLine
 10
503.387118
 20
415.372162
 30
0.0
 11
503.387118
 21
409.972162
 31
0.0
  0
LINE
  5
179
100
AcDbEntity
  8
0
  6
HIDDEN
 62
   174
100
AcDbLine
 10
210.358676
 20
441.472162
 30
0.0
 11
202.324641
 21
441.472162
 31
0.0
  0
LINE
  5
17A
100
AcDbEntity
  8
0
  6
HIDDEN
 62
   174
100
AcDbLine
 10
524.791079
 20
321.767709
 30
0.0
 11
512.8086
 21
321.767709
 31
0.0
  0
LINE
  5
17B
100
AcDbEntity
  8
0
  6
Continuous
 62
   174
100
AcDbLine
 10
589.337118
 20
415.372162
 30
0.0
 11
589.337118
 21
316.372162
 31
0.0
  0
ARC
  5
17C
100
AcDbEntity
  8
0
  6
HIDDEN
 62
   174
100
AcDbCircle
 10
166.337118
 20
319.747162
 30
0.0
 40
2.25
100
AcDbArc
 50
180.0
 51
225.0
  0
LINE
  5
17D
100
AcDbEntity
  8
0
  6
HIDDEN
 62
   174
100
AcDbLine
 10
166.337118
 20
337.747162
 30
0.0
 11
173.087118
 21
337.747162
 31
0.0
  0
LINE
  5
17E
100
AcDbEntity
  8
0
  6
HIDDEN
 62
   174
100
AcDbLine
 10
503.806101
 20
321.772162
 30
0.0
 11
521.805084
 21
321.772162
 31
0.0
  0
LINE
  5
17F
100
AcDbEntity
  8
0
  6
HIDDEN
 62
   174
100
AcDbLine
 10
166.337118
 20
337.834328
 30
0.0
 11
166.337118
 21
327.709976
 31
0.0
  0
LINE
  5
180
100
AcDbEntity
  8
0
  6
HIDDEN
 62
   174
100
AcDbLine
 10
384.587118
 20
316.372162
 30
0.0
 11
384.587118
 21
321.772162
 31
0.0
  0
LINE
  5
181
100
AcDbEntity
  8
0
  6
HIDDEN
 62
   174
100
AcDbLine
 10
164.087118
 20
335.584606
 30
0.0
 11
164.087118
 21
319.835346
 31
0.0
  0
LINE
  5
182
100
AcDbEntity
  8
0
  6
Continuous
 62
   174
100
AcDbLine
 10
715.337118
 20
404.205954
 30
0.0
 11
715.337118
 21
414.330908
 31
0.0
  0
LINE
  5
183
100
AcDbEntity
  8
0
  6
HIDDEN
 62
   174
100
AcDbLine
 10
690.545097
 20
433.372162
 30
0.0
 11
679.295282
 21
433.372162
 31
0.0
  0
LINE
  5
184
100
AcDbEntity
  8
0
  6
Continuous
 62
   174
100
AcDbLine
 10
659.987118
 20
433.372162
 30
0.0
 11
659.987118
 21
481.522162
 31
0.0
  0
LINE
  5
185
100
AcDbEntity
  8
0
  6
Continuous
 62
   174
100
AcDbLine
 10
500.826121
 20
315.467709
 30
0.0
 11
500.209552
 21
315.467709
 31
0.0
  0
ARC
  5
186
100
AcDbEntity
  8
0
  6
HIDDEN
 62
   174
100
AcDbCircle
 10
525.440004
 20
318.617709
 30
0.0
 40
3.15
100
AcDbArc
 50
-270.0
 51
-180.0
  0
ARC
  5
187
100
AcDbEntity
  8
0
  6
Continuous
 62
   174
100
AcDbCircle
 10
715.337118
 20
411.997162
 30
0.0
 40
2.25
100
AcDbArc
 50
0.0
 51
90.0
  0
ARC
  5
188
100
AcDbEntity
  8
0
  6
HIDDEN
 62
   174
100
AcDbCircle
 10
166.337118
 20
411.997162
 30
0.0
 40
2.25
100
AcDbArc
 50
-270.0
 51
-180.0
  0
LINE
  5
189
100
AcDbEntity
  8
0
  6
Continuous
 62
   174
100
AcDbLine
 10
191.087118
 20
433.372162
 30
0.0
 11
191.087118
 21
441.472162
 31
0.0
  0
LINE
  5
18A
100
AcDbEntity
  8
0
  6
HIDDEN
 62
   174
100
AcDbLine
 10
663.587118
 20
467.797162
 30
0.0
 11
659.987118
 21
467.797162
 31
0.0
  0
LINE
  5
18B
100
AcDbEntity
  8
0
  6
HIDDEN
 62
   174
100
AcDbLine
 10
497.087118
 20
316.372162
 30
0.0
 11
497.087118
 21
321.772162
 31
0.0
  0
LINE
  5
18C
100
AcDbEntity
  8
0
  6
HIDDEN
 62
   174
100
AcDbLine
 10
355.361712
 20
316.372162
 30
0.0
 11
353.29305
 21
316.372162
 31
0.0
  0
LINE
  5
18D
100
AcDbEntity
  8
0
  6
HIDDEN
 62
   174
100
AcDbLine
 10
708.587118
 20
392.95674
 30
0.0
 11
708.587118
 21
404.205954
 31
0.0
  0
LINE
  5
18E
100
AcDbEntity
  8
0
  6
Continuous
 62
   174
100
AcDbLine
 10
195.137118
 20
433.372162
 30
0.0
 11
195.137118
 21
470.722162
 31
0.0
  0
LINE
  5
18F
100
AcDbEntity
  8
0
  6
HIDDEN
 62
   174
100
AcDbLine
 10
503.356156
 20
415.372162
 30
0.0
 11
509.678839
 21
415.372162
 31
0.0
  0
LINE
  5
190
100
AcDbEntity
  8
0
  6
Continuous
 62
   174
100
AcDbLine
 10
328.337118
 20
415.372162
 30
0.0
 11
328.337118
 21
316.372162
 31
0.0
  0
LINE
  5
191
100
AcDbEntity
  8
0
  6
HIDDEN
 62
   174
100
AcDbLine
 10
424.524618
 20
415.372162
 30
0.0
 11
424.524618
 21
379.372162
 31
0.0
  0
LINE
  5
192
100
AcDbEntity
  8
0
  6
Continuous
 62
   174
100
AcDbLine
 10
715.337118
 20
317.497162
 30
0.0
 11
708.587118
 21
317.497162
 31
0.0
  0
LINE
  5
193
100
AcDbEntity
  8
0
  6
HIDDEN
 62
   174
100
AcDbLine
 10
659.987118
 20
473.727792
 30
0.0
 11
659.987118
 21
467.877912
 31
0.0
  0
LINE
  5
194
100
AcDbEntity
  8
0
  6
HIDDEN
 62
   174
100
AcDbLine
 10
449.837118
 20
321.772162
 30
0.0
 11
449.837118
 21
338.872162
 31
0.0
  0
LINE
  5
195
100
AcDbEntity
  8
0
  6
HIDDEN
 62
   174
100
AcDbLine
 10
715.337118
 20
404.205954
 30
0.0
 11
715.337118
 21
414.330908
 31
0.0
  0
LINE
  5
196
100
AcDbEntity
  8
0
  6
HIDDEN
 62
   174
100
AcDbLine
 10
717.587118
 20
319.835346
 30
0.0
 11
717.587118
 21
335.584606
 31
0.0
  0
ARC
  5
197
100
AcDbEntity
  8
0
  6
Continuous
 62
   174
100
AcDbCircle
 10
166.337118
 20
319.747162
 30
0.0
 40
2.25
100
AcDbArc
 50
225.0
 51
270.0
  0
LINE
  5
198
100
AcDbEntity
  8
0
  6
Continuous
 62
   174
100
AcDbLine
 10
166.337118
 20
393.997162
 30
0.0
 11
173.087118
 21
393.997162
 31
0.0
  0
LINE
  5
199
100
AcDbEntity
  8
0
  6
HIDDEN
 62
   174
100
AcDbLine
 10
451.946388
 20
316.372162
 30
0.0
 11
440.810262
 21
316.372162
 31
0.0
  0
LINE
  5
19A
100
AcDbEntity
  8
0
  6
HIDDEN
 62
   174
100
AcDbLine
 10
715.337118
 20
327.622162
 30
0.0
 11
708.587118
 21
327.622162
 31
0.0
  0
LINE
  5
19B
100
AcDbEntity
  8
0
  6
Continuous
 62
   174
100
AcDbLine
 10
211.189991
 20
441.472162
 30
0.0
 11
210.358676
 21
441.472162
 31
0.0
  0
LINE
  5
19C
100
AcDbEntity
  8
0
  6
Continuous
 62
   174
100
AcDbLine
 10
670.430533
 20
441.472162
 30
0.0
 11
668.046068
 21
441.472162
 31
0.0
  0
LINE
  5
19D
100
AcDbEntity
  8
0
  6
HIDDEN
 62
   174
100
AcDbLine
 10
715.337118
 20
415.372162
 30
0.0
 11
708.587118
 21
415.372162
 31
0.0
  0
LINE
  5
19E
100
AcDbEntity
  8
0
  6
HIDDEN
 62
   174
100
AcDbLine
 10
195.137118
 20
448.222162
 30
0.0
 11
195.137118
 21
470.722162
 31
0.0
  0
LINE
  5
19F
100
AcDbEntity
  8
0
  6
HIDDEN
 62
   174
100
AcDbLine
 10
715.337118
 20
327.709976
 30
0.0
 11
715.337118
 21
337.834328
 31
0.0
  0
LINE
  5
1A0
100
AcDbEntity
  8
0
  6
Continuous
 62
   174
100
AcDbLine
 10
166.337118
 20
327.709976
 30
0.0
 11
166.337118
 21
317.585021
 31
0.0
  0
LINE
  5
1A1
100
AcDbEntity
  8
0
  6
HIDDEN
 62
   174
100
AcDbLine
 10
166.337118
 20
327.622162
 30
0.0
 11
173.087118
 21
327.622162
 31
0.0
  0
LINE
  5
1A2
100
AcDbEntity
  8
0
  6
HIDDEN
 62
   174
100
AcDbLine
 10
715.337118
 20
338.872162
 30
0.0
 11
708.587118
 21
338.872162
 31
0.0
  0
LINE
  5
1A3
100
AcDbEntity
  8
0
  6
HIDDEN
 62
   174
100
AcDbLine
 10
686.537118
 20
441.472162
 30
0.0
 11
686.537118
 21
448.222162
 31
0.0
  0
LINE
  5
1A4
100
AcDbEntity
  8
0
  6
HIDDEN
 62
   174
100
AcDbLine
 10
708.587118
 20
394.081601
 30
0.0
 11
708.587118
 21
414.330908
 31
0.0
  0
LINE
  5
1A5
100
AcDbEntity
  8
0
  6
HIDDEN
 62
   174
100
AcDbLine
 10
385.149618
 20
383.872162
 30
0.0
 11
385.149618
 21
415.372162
 31
0.0
  0
LINE
  5
1A6
100
AcDbEntity
  8
0
  6
HIDDEN
 62
   174
100
AcDbLine
 10
353.065671
 20
321.772162
 30
0.0
 11
384.563591
 21
321.772162
 31
0.0
  0
LINE
  5
1A7
100
AcDbEntity
  8
0
  6
HIDDEN
 62
   174
100
AcDbLine
 10
218.087118
 20
473.647162
 30
0.0
 11
221.687118
 21
473.647162
 31
0.0
  0
LINE
  5
1A8
100
AcDbEntity
  8
0
  6
HIDDEN
 62
   174
100
AcDbLine
 10
209.537118
 20
433.372162
 30
0.0
 11
209.537118
 21
441.472162
 31
0.0
  0
LINE
  5
1A9
100
AcDbEntity
  8
0
  6
HIDDEN
 62
   174
100
AcDbLine
 10
384.333205
 20
316.372162
 30
0.0
 11
382.259731
 21
316.372162
 31
0.0
  0
LINE
  5
1AA
100
AcDbEntity
  8
0
  6
HIDDEN
 62
   174
100
AcDbLine
 10
715.337118
 20
404.205954
 30
0.0
 11
715.337118
 21
393.401271
 31
0.0
  0
LINE
  5
1AB
100
AcDbEntity
  8
0
  6
HIDDEN
 62
   174
100
AcDbLine
 10
301.319047
 20
415.372162
 30
0.0
 11
319.317428
 21
415.372162
 31
0.0
  0
LINE
  5
1AC
100
AcDbEntity
  8
0
  6
Continuous
 62
   174
100
AcDbLine
 10
512.8086
 20
315.467709
 30
0.0
 11
506.592989
 21
315.467709
 31
0.0
  0
LINE
  5
1AD
100
AcDbEntity
  8
0
  6
HIDDEN
 62
   174
100
AcDbLine
 10
385.126021
 20
415.372162
 30
0.0
 11
424.498571
 21
415.372162
 31
0.0
  0
LINE
  5
1AE
100
AcDbEntity
  8
0
  6
HIDDEN
 62
   174
100
AcDbLine
 10
382.944618
 20
383.872162
 30
0.0
 11
382.944618
 21
415.372162
 31
0.0
  0
LINE
  5
1AF
100
AcDbEntity
  8
0
  6
HIDDEN
 62
   174
100
AcDbLine
 10
385.149618
 20
415.372162
 30
0.0
 11
385.149618
 21
379.372162
 31
0.0
  0
LINE
  5
1B0
100
AcDbEntity
  8
0
  6
HIDDEN
 62
   174
100
AcDbLine
 10
166.337118
 20
415.372162
 30
0.0
 11
173.087118
 21
415.372162
 31
0.0
  0
LINE
  5
1B1
100
AcDbEntity
  8
0
  6
HIDDEN
 62
   174
100
AcDbLine
 10
166.337118
 20
327.709976
 30
0.0
 11
166.337118
 21
317.585021
 31
0.0
  0
LINE
  5
1B2
100
AcDbEntity
  8
0
  6
HIDDEN
 62
   174
100
AcDbLine
 10
708.587118
 20
404.205954
 30
0.0
 11
708.587118
 21
415.455769
 31
0.0
  0
LINE
  5
1B3
100
AcDbEntity
  8
0
  6
HIDDEN
 62
   174
100
AcDbLine
 10
213.574456
 20
433.372162
 30
0.0
 11
202.324641
 21
433.372162
 31
0.0
  0
ARC
  5
1B4
100
AcDbEntity
  8
0
  6
HIDDEN
 62
   174
100
AcDbCircle
 10
500.240004
 20
318.617709
 30
0.0
 40
3.15
100
AcDbArc
 50
180.0
 51
225.885775
  0
LINE
  5
1B5
100
AcDbEntity
  8
0
  6
Continuous
 62
   174
100
AcDbLine
 10
668.087118
 20
433.372162
 30
0.0
 11
668.087118
 21
441.472162
 31
0.0
  0
LINE
  5
1B6
100
AcDbEntity
  8
0
  6
HIDDEN
 62
   174
100
AcDbLine
 10
166.337118
 20
393.997162
 30
0.0
 11
173.087118
 21
393.997162
 31
0.0
  0
LINE
  5
1B7
100
AcDbEntity
  8
0
  6
HIDDEN
 62
   174
100
AcDbLine
 10
431.810771
 20
338.872162
 30
0.0
 11
449.809753
 21
338.872162
 31
0.0
  0
LINE
  5
1B8
100
AcDbEntity
  8
0
  6
Continuous
 62
   174
100
AcDbLine
 10
166.337118
 20
415.010637
 30
0.0
 11
166.337118
 21
415.455769
 31
0.0
  0
LINE
  5
1B9
100
AcDbEntity
  8
0
  6
HIDDEN
 62
   174
100
AcDbLine
 10
166.337118
 20
414.247162
 30
0.0
 11
173.087118
 21
414.247162
 31
0.0
  0
LINE
  5
1BA
100
AcDbEntity
  8
0
  6
HIDDEN
 62
   174
100
AcDbLine
 10
503.806101
 20
338.872162
 30
0.0
 11
521.805084
 21
338.872162
 31
0.0
  0
ARC
  5
1BB
100
AcDbEntity
  8
0
  6
HIDDEN
 62
   174
100
AcDbCircle
 10
453.434514
 20
318.620537
 30
0.0
 40
3.15
100
AcDbArc
 50
-270.0
 51
-180.0
  0
LINE
  5
1BC
100
AcDbEntity
  8
0
  6
Continuous
 62
   174
100
AcDbLine
 10
506.592989
 20
315.467709
 30
0.0
 11
500.209552
 21
315.467709
 31
0.0
  0
LINE
  5
1BD
100
AcDbEntity
  8
0
  6
HIDDEN
 62
   174
100
AcDbLine
 10
353.087118
 20
316.372162
 30
0.0
 11
353.087118
 21
321.772162
 31
0.0
  0
LINE
  5
1BE
100
AcDbEntity
  8
0
  6
Continuous
 62
   174
100
AcDbLine
 10
672.137118
 20
470.722162
 30
0.0
 11
686.537118
 21
470.722162
 31
0.0
  0
LINE
  5
1BF
100
AcDbEntity
  8
0
  6
HIDDEN
 62
   174
100
AcDbLine
 10
353.29305
 20
316.372162
 30
0.0
 11
353.065671
 21
316.372162
 31
0.0
  0
ARC
  5
1C0
100
AcDbEntity
  8
0
  6
HIDDEN
 62
   174
100
AcDbCircle
 10
428.234514
 20
318.620537
 30
0.0
 40
3.15
100
AcDbArc
 50
-90.0
 51
0.0
  0
LINE
  5
1C1
100
AcDbEntity
  8
0
  6
HIDDEN
 62
   174
100
AcDbLine
 10
708.587118
 20
317.585021
 30
0.0
 11
708.587118
 21
337.834328
 31
0.0
  0
ARC
  5
1C2
100
AcDbEntity
  8
0
  6
HIDDEN
 62
   174
100
AcDbCircle
 10
166.337118
 20
319.747162
 30
0.0
 40
2.25
100
AcDbArc
 50
180.0
 51
225.0
  0
LINE
  5
1C3
100
AcDbEntity
  8
0
  6
HIDDEN
 62
   174
100
AcDbLine
 10
715.337118
 20
394.081601
 30
0.0
 11
715.337118
 21
404.205954
 31
0.0
  0
LINE
  5
1C4
100
AcDbEntity
  8
0
  6
HIDDEN
 62
   174
100
AcDbLine
 10
497.087118
 20
316.372162
 30
0.0
 11
497.087118
 21
321.772162
 31
0.0
  0
LINE
  5
1C5
100
AcDbEntity
  8
0
  6
Continuous
 62
   174
100
AcDbLine
 10
715.337118
 20
394.081601
 30
0.0
 11
715.337118
 21
404.205954
 31
0.0
  0
LINE
  5
1C6
100
AcDbEntity
  8
0
  6
Continuous
 62
   174
100
AcDbLine
 10
688.160632
 20
441.472162
 30
0.0
 11
687.329317
 21
441.472162
 31
0.0
  0
LINE
  5
1C7
100
AcDbEntity
  8
0
  6
Continuous
 62
   174
100
AcDbLine
 10
221.687118
 20
433.372162
 30
0.0
 11
221.687118
 21
481.522162
 31
0.0
  0
ARC
  5
1C8
100
AcDbEntity
  8
0
  6
HIDDEN
 62
   174
100
AcDbCircle
 10
166.337118
 20
396.247162
 30
0.0
 40
2.25
100
AcDbArc
 50
180.0
 51
225.0
  0
LINE
  5
1C9
100
AcDbEntity
  8
0
  6
Continuous
 62
   174
100
AcDbLine
 10
213.587118
 20
433.372162
 30
0.0
 11
213.587118
 21
441.472162
 31
0.0
  0
LINE
  5
1CA
100
AcDbEntity
  8
0
  6
Continuous
 62
   174
100
AcDbLine
 10
715.337118
 20
337.747162
 30
0.0
 11
708.587118
 21
337.747162
 31
0.0
  0
LINE
  5
1CB
100
AcDbEntity
  8
0
  6
HIDDEN
 62
   174
100
AcDbLine
 10
715.337118
 20
317.497162
 30
0.0
 11
715.337118
 21
327.622162
 31
0.0
  0
LINE
  5
1CC
100
AcDbEntity
  8
0
  6
HIDDEN
 62
   174
100
AcDbLine
 10
425.087118
 20
316.372162
 30
0.0
 11
425.087118
 21
321.772162
 31
0.0
  0
LINE
  5
1CD
100
AcDbEntity
  8
0
  6
HIDDEN
 62
   174
100
AcDbLine
 10
440.810262
 20
316.372162
 30
0.0
 11
429.674136
 21
316.372162
 31
0.0
  0
LINE
  5
1CE
100
AcDbEntity
  8
0
  6
Continuous
 62
   174
100
AcDbLine
 10
213.574456
 20
441.472162
 30
0.0
 11
211.189991
 21
441.472162
 31
0.0
  0
LINE
  5
1CF
100
AcDbEntity
  8
0
  6
Continuous
 62
   174
100
AcDbLine
 10
671.261847
 20
441.472162
 30
0.0
 11
670.430533
 21
441.472162
 31
0.0
  0
LINE
  5
1D0
100
AcDbEntity
  8
0
  6
HIDDEN
 62
   174
100
AcDbLine
 10
580.301477
 20
414.922162
 30
0.0
 11
562.302494
 21
414.922162
 31
0.0
  0
LINE
  5
1D1
100
AcDbEntity
  8
0
  6
HIDDEN
 62
   174
100
AcDbLine
 10
173.087118
 20
337.834328
 30
0.0
 11
173.087118
 21
317.585021
 31
0.0
  0
LINE
  5
1D2
100
AcDbEntity
  8
0
  6
Continuous
 62
   174
100
AcDbLine
 10
166.337118
 20
414.247162
 30
0.0
 11
173.087118
 21
414.247162
 31
0.0
  0
LINE
  5
1D3
100
AcDbEntity
  8
0
  6
HIDDEN
 62
   174
100
AcDbLine
 10
359.81544
 20
338.872162
 30
0.0
 11
377.813822
 21
338.872162
 31
0.0
  0
ARC
  5
1D4
100
AcDbEntity
  8
0
  6
Continuous
 62
   174
100
AcDbCircle
 10
166.337118
 20
319.747162
 30
0.0
 40
2.25
100
AcDbArc
 50
180.0
 51
225.0
  0
ARC
  5
1D5
100
AcDbEntity
  8
0
  6
HIDDEN
 62
   174
100
AcDbCircle
 10
715.337118
 20
335.497162
 30
0.0
 40
2.25
100
AcDbArc
 50
0.0
 51
90.0
  0
LINE
  5
1D6
100
AcDbEntity
  8
0
  6
HIDDEN
 62
   174
100
AcDbLine
 10
715.337118
 20
415.372162
 30
0.0
 11
708.587118
 21
415.372162
 31
0.0
  0
LINE
  5
1D7
100
AcDbEntity
  8
0
  6
Continuous
 62
   174
100
AcDbLine
 10
166.337118
 20
337.747162
 30
0.0
 11
173.087118
 21
337.747162
 31
0.0
  0
LINE
  5
1D8
100
AcDbEntity
  8
0
  6
HIDDEN
 62
   174
100
AcDbLine
 10
382.259731
 20
316.372162
 30
0.0
 11
381.364654
 21
316.372162
 31
0.0
  0
LINE
  5
1D9
100
AcDbEntity
  8
0
  6
HIDDEN
 62
   174
100
AcDbLine
 10
715.337118
 20
392.872162
 30
0.0
 11
708.587118
 21
392.872162
 31
0.0
  0
LINE
  5
1DA
100
AcDbEntity
  8
0
  6
HIDDEN
 62
   174
100
AcDbLine
 10
672.137118
 20
448.222162
 30
0.0
 11
672.137118
 21
470.722162
 31
0.0
  0
LINE
  5
1DB
100
AcDbEntity
  8
0
  6
Continuous
 62
   174
100
AcDbLine
 10
509.955712
 20
415.372162
 30
0.0
 11
328.337118
 21
415.372162
 31
0.0
  0
LINE
  5
1DC
100
AcDbEntity
  8
0
  6
HIDDEN
 62
   174
100
AcDbLine
 10
562.302494
 20
415.372162
 30
0.0
 11
580.301477
 21
415.372162
 31
0.0
  0
LINE
  5
1DD
100
AcDbEntity
  8
0
  6
HIDDEN
 62
   174
100
AcDbLine
 10
457.121953
 20
415.372162
 30
0.0
 11
496.494503
 21
415.372162
 31
0.0
  0
LINE
  5
1DE
100
AcDbEntity
  8
0
  6
HIDDEN
 62
   174
100
AcDbLine
 10
353.087118
 20
316.372162
 30
0.0
 11
353.087118
 21
321.772162
 31
0.0
  0
LINE
  5
1DF
100
AcDbEntity
  8
0
  6
HIDDEN
 62
   174
100
AcDbLine
 10
166.337118
 20
414.330908
 30
0.0
 11
166.337118
 21
394.081601
 31
0.0
  0
LINE
  5
1E0
100
AcDbEntity
  8
0
  6
HIDDEN
 62
   174
100
AcDbLine
 10
672.137118
 20
470.722162
 30
0.0
 11
686.537118
 21
470.722162
 31
0.0
  0
LINE
  5
1E1
100
AcDbEntity
  8
0
  6
HIDDEN
 62
   174
100
AcDbLine
 10
301.337118
 20
415.372162
 30
0.0
 11
301.337118
 21
414.922162
 31
0.0
  0
LINE
  5
1E2
100
AcDbEntity
  8
0
  6
HIDDEN
 62
   174
100
AcDbLine
 10
515.932345
 20
415.372162
 30
0.0
 11
522.255028
 21
415.372162
 31
0.0
  0
LINE
  5
1E3
100
AcDbEntity
  8
0
  6
HIDDEN
 62
   174
100
AcDbLine
 10
218.087118
 20
433.372162
 30
0.0
 11
221.687118
 21
433.372162
 31
0.0
  0
LINE
  5
1E4
100
AcDbEntity
  8
0
  6
Continuous
 62
   174
100
AcDbLine
 10
506.592989
 20
315.467709
 30
0.0
 11
500.826121
 21
315.467709
 31
0.0
  0
LINE
  5
1E5
100
AcDbEntity
  8
0
  6
HIDDEN
 62
   174
100
AcDbLine
 10
426.729618
 20
383.872162
 30
0.0
 11
426.729618
 21
415.372162
 31
0.0
  0
ARC
  5
1E6
100
AcDbEntity
  8
0
  6
HIDDEN
 62
   174
100
AcDbCircle
 10
715.337118
 20
335.497162
 30
0.0
 40
2.25
100
AcDbArc
 50
0.0
 51
90.0
  0
ARC
  5
1E7
100
AcDbEntity
  8
0
  6
HIDDEN
 62
   174
100
AcDbCircle
 10
166.337118
 20
411.997162
 30
0.0
 40
2.25
100
AcDbArc
 50
-270.0
 51
-180.0
  0
LINE
  5
1E8
100
AcDbEntity
  8
0
  6
HIDDEN
 62
   174
100
AcDbLine
 10
497.056933
 20
321.772162
 30
0.0
 11
528.554852
 21
321.772162
 31
0.0
  0
ARC
  5
1E9
100
AcDbEntity
  8
0
  6
HIDDEN
 62
   174
100
AcDbCircle
 10
453.434514
 20
318.620537
 30
0.0
 40
3.15
100
AcDbArc
 50
-46.023719
 51
0.0
  0
ARC
  5
1EA
100
AcDbEntity
  8
0
  6
Continuous
 62
   174
100
AcDbCircle
 10
166.337118
 20
335.497162
 30
0.0
 40
2.25
100
AcDbArc
 50
-270.0
 51
-180.0
  0
ARC
  5
1EB
100
AcDbEntity
  8
0
  6
Continuous
 62
   174
100
AcDbCircle
 10
715.337118
 20
335.497162
 30
0.0
 40
2.25
100
AcDbArc
 50
0.0
 51
90.0
  0
LINE
  5
1EC
100
AcDbEntity
  8
0
  6
HIDDEN
 62
   174
100
AcDbLine
 10
715.337118
 20
317.497162
 30
0.0
 11
708.587118
 21
317.497162
 31
0.0
  0
LINE
  5
1ED
100
AcDbEntity
  8
0
  6
HIDDEN
 62
   174
100
AcDbLine
 10
686.537118
 20
433.372162
 30
0.0
 11
686.537118
 21
441.472162
 31
0.0
  0
LINE
  5
1EE
100
AcDbEntity
  8
0
  6
Continuous
 62
   174
100
AcDbLine
 10
166.337118
 20
338.514057
 30
0.0
 11
166.337118
 21
338.95919
 31
0.0
  0
LINE
  5
1EF
100
AcDbEntity
  8
0
  6
HIDDEN
 62
   174
100
AcDbLine
 10
202.324641
 20
441.472162
 30
0.0
 11
194.291207
 21
441.472162
 31
0.0
  0
LINE
  5
1F0
100
AcDbEntity
  8
0
  6
Continuous
 62
   174
100
AcDbLine
 10
512.8086
 20
315.467709
 30
0.0
 11
506.592989
 21
315.467709
 31
0.0
  0
LINE
  5
1F1
100
AcDbEntity
  8
0
  6
Continuous
 62
   174
100
AcDbLine
 10
553.337118
 20
415.372162
 30
0.0
 11
553.337118
 21
316.372162
 31
0.0
  0
LINE
  5
1F2
100
AcDbEntity
  8
0
  6
HIDDEN
 62
   174
100
AcDbLine
 10
173.087118
 20
337.834328
 30
0.0
 11
173.087118
 21
317.585021
 31
0.0
  0
LINE
  5
1F3
100
AcDbEntity
  8
0
  6
HIDDEN
 62
   174
100
AcDbLine
 10
166.337118
 20
337.747162
 30
0.0
 11
173.087118
 21
337.747162
 31
0.0
  0
LINE
  5
1F4
100
AcDbEntity
  8
0
  6
HIDDEN
 62
   174
100
AcDbLine
 10
221.687118
 20
467.877912
 30
0.0
 11
221.687118
 21
473.727792
 31
0.0
  0
LINE
  5
1F5
100
AcDbEntity
  8
0
  6
Continuous
 62
   174
100
AcDbLine
 10
164.087118
 20
412.080584
 30
0.0
 11
164.087118
 21
396.331324
 31
0.0
  0
LINE
  5
1F6
100
AcDbEntity
  8
0
  6
HIDDEN
 62
   174
100
AcDbLine
 10
164.087118
 20
335.584606
 30
0.0
 11
164.087118
 21
319.835346
 31
0.0
  0
LINE
  5
1F7
100
AcDbEntity
  8
0
  6
HIDDEN
 62
   174
100
AcDbLine
 10
164.087118
 20
412.080584
 30
0.0
 11
164.087118
 21
396.331324
 31
0.0
  0
LINE
  5
1F8
100
AcDbEntity
  8
0
  6
HIDDEN
 62
   174
100
AcDbLine
 10
426.70378
 20
383.872162
 30
0.0
 11
382.921414
 21
383.872162
 31
0.0
  0
LINE
  5
1F9
100
AcDbEntity
  8
0
  6
HIDDEN
 62
   174
100
AcDbLine
 10
717.587118
 20
396.331324
 30
0.0
 11
717.587118
 21
412.080584
 31
0.0
  0
LINE
  5
1FA
100
AcDbEntity
  8
0
  6
HIDDEN
 62
   174
100
AcDbLine
 10
384.587118
 20
316.372162
 30
0.0
 11
384.587118
 21
321.772162
 31
0.0
  0
LINE
  5
1FB
100
AcDbEntity
  8
0
  6
Continuous
 62
   174
100
AcDbLine
 10
663.587118
 20
433.372162
 30
0.0
 11
663.587118
 21
481.522162
 31
0.0
  0
ARC
  5
1FC
100
AcDbEntity
  8
0
  6
HIDDEN
 62
   174
100
AcDbCircle
 10
166.337118
 20
396.247162
 30
0.0
 40
2.25
100
AcDbArc
 50
225.0
 51
270.0
  0
LINE
  5
1FD
100
AcDbEntity
  8
0
  6
HIDDEN
 62
   174
100
AcDbLine
 10
715.337118
 20
394.081601
 30
0.0
 11
715.337118
 21
414.330908
 31
0.0
  0
LINE
  5
1FE
100
AcDbEntity
  8
0
  6
HIDDEN
 62
   174
100
AcDbLine
 10
528.587118
 20
316.372162
 30
0.0
 11
528.587118
 21
321.772162
 31
0.0
  0
LINE
  5
1FF
100
AcDbEntity
  8
0
  6
HIDDEN
 62
   174
100
AcDbLine
 10
429.674136
 20
316.372162
 30
0.0
 11
428.251517
 21
316.372162
 31
0.0
  0
LINE
  5
200
100
AcDbEntity
  8
0
  6
Continuous
 62
   174
100
AcDbLine
 10
195.137118
 20
470.722162
 30
0.0
 11
209.537118
 21
470.722162
 31
0.0
  0
ARC
  5
201
100
AcDbEntity
  8
0
  6
HIDDEN
 62
   174
100
AcDbCircle
 10
715.337118
 20
411.997162
 30
0.0
 40
2.25
100
AcDbArc
 50
0.0
 51
90.0
  0
LINE
  5
202
100
AcDbEntity
  8
0
  6
Continuous
 62
   174
100
AcDbLine
 10
715.337118
 20
414.247162
 30
0.0
 11
708.587118
 21
414.247162
 31
0.0
  0
LINE
  5
203
100
AcDbEntity
  8
0
  6
HIDDEN
 62
   174
100
AcDbLine
 10
456.587118
 20
316.372162
 30
0.0
 11
456.587118
 21
321.772162
 31
0.0
  0
LINE
  5
204
100
AcDbEntity
  8
0
  6
Continuous
 62
   174
100
AcDbLine
 10
690.545097
 20
441.472162
 30
0.0
 11
688.160632
 21
441.472162
 31
0.0
  0
LINE
  5
205
100
AcDbEntity
  8
0
  6
HIDDEN
 62
   174
100
AcDbLine
 10
512.8086
 20
321.767709
 30
0.0
 11
503.899338
 21
321.767709
 31
0.0
  0
LINE
  5
206
100
AcDbEntity
  8
0
  6
Continuous
 62
   174
100
AcDbLine
 10
166.337118
 20
393.997162
 30
0.0
 11
173.087118
 21
393.997162
 31
0.0
  0
LINE
  5
207
100
AcDbEntity
  8
0
  6
HIDDEN
 62
   174
100
AcDbLine
 10
715.337118
 20
338.517667
 30
0.0
 11
715.337118
 21
327.709976
 31
0.0
  0
ARC
  5
208
100
AcDbEntity
  8
0
  6
Continuous
 62
   174
100
AcDbCircle
 10
715.337118
 20
396.247162
 30
0.0
 40
2.25
100
AcDbArc
 50
-90.0
 51
0.0
  0
LINE
  5
209
100
AcDbEntity
  8
0
  6
HIDDEN
 62
   174
100
AcDbLine
 10
715.337118
 20
338.872162
 30
0.0
 11
708.587118
 21
338.872162
 31
0.0
  0
LINE
  5
20A
100
AcDbEntity
  8
0
  6
Continuous
 62
   174
100
AcDbLine
 10
166.337118
 20
317.497162
 30
0.0
 11
173.087118
 21
317.497162
 31
0.0
  0
LINE
  5
20B
100
AcDbEntity
  8
0
  6
HIDDEN
 62
   174
100
AcDbLine
 10
456.558921
 20
316.372162
 30
0.0
 11
456.3147
 21
316.372162
 31
0.0
  0
LINE
  5
20C
100
AcDbEntity
  8
0
  6
HIDDEN
 62
   174
100
AcDbLine
 10
672.137118
 20
441.472162
 30
0.0
 11
672.137118
 21
448.222162
 31
0.0
  0
LINE
  5
20D
100
AcDbEntity
  8
0
  6
HIDDEN
 62
   174
100
AcDbLine
 10
715.337118
 20
327.622162
 30
0.0
 11
708.587118
 21
327.622162
 31
0.0
  0
LINE
  5
20E
100
AcDbEntity
  8
0
  6
HIDDEN
 62
   174
100
AcDbLine
 10
452.790335
 20
321.770537
 30
0.0
 11
440.807856
 21
321.770537
 31
0.0
  0
LINE
  5
20F
100
AcDbEntity
  8
0
  6
HIDDEN
 62
   174
100
AcDbLine
 10
218.087118
 20
473.647162
 30
0.0
 11
221.687118
 21
473.647162
 31
0.0
  0
LINE
  5
210
100
AcDbEntity
  8
0
  6
HIDDEN
 62
   174
100
AcDbLine
 10
209.537118
 20
448.222162
 30
0.0
 11
209.537118
 21
470.722162
 31
0.0
  0
LINE
  5
211
100
AcDbEntity
  8
0
  6
HIDDEN
 62
   174
100
AcDbLine
 10
686.537118
 20
448.222162
 30
0.0
 11
686.537118
 21
470.722162
 31
0.0
  0
LINE
  5
212
100
AcDbEntity
  8
0
  6
Continuous
 62
   174
100
AcDbLine
 10
515.718524
 20
409.972162
 30
0.0
 11
509.955712
 21
409.972162
 31
0.0
  0
LINE
  5
213
100
AcDbEntity
  8
0
  6
HIDDEN
 62
   174
100
AcDbLine
 10
496.494503
 20
379.372162
 30
0.0
 11
457.121953
 21
379.372162
 31
0.0
  0
LINE
  5
214
100
AcDbEntity
  8
0
  6
HIDDEN
 62
   174
100
AcDbLine
 10
382.944618
 20
383.872162
 30
0.0
 11
382.944618
 21
415.372162
 31
0.0
  0
ARC
  5
215
100
AcDbEntity
  8
0
  6
HIDDEN
 62
   174
100
AcDbCircle
 10
166.337118
 20
335.497162
 30
0.0
 40
2.25
100
AcDbArc
 50
-270.0
 51
-180.0
  0
LINE
  5
216
100
AcDbEntity
  8
0
  6
HIDDEN
 62
   174
100
AcDbLine
 10
166.337118
 20
327.622162
 30
0.0
 11
173.087118
 21
327.622162
 31
0.0
  0
LINE
  5
217
100
AcDbEntity
  8
0
  6
Continuous
 62
   174
100
AcDbLine
 10
509.955712
 20
415.372162
 30
0.0
 11
509.955712
 21
409.972162
 31
0.0
  0
ENDBLK
  5
218
100
AcDbEntity
  8
0
100
AcDbBlockEnd
  0
BLOCK
  5
21B
100
AcDbEntity
  8
0
100
AcDbBlockBegin
  2
*B2
 70
     0
 10
0.0
 20
0.0
 30
0.0
  3
*B2
  1

  0
LINE
  5
21C
100
AcDbEntity
  8
0
  6
Continuous
 62
   174
100
AcDbLine
 10
643.337118
 20
220.371575
 30
0.0
 11
643.337118
 21
148.371575
 31
0.0
  0
LINE
  5
21D
100
AcDbEntity
  8
0
  6
Continuous
 62
   174
100
AcDbLine
 10
238.337118
 20
148.371575
 30
0.0
 11
238.337118
 21
220.371575
 31
0.0
  0
LINE
  5
21E
100
AcDbEntity
  8
0
  6
Continuous
 62
   174
100
AcDbLine
 10
715.337118
 20
220.371575
 30
0.0
 11
715.337118
 21
148.371575
 31
0.0
  0
LINE
  5
21F
100
AcDbEntity
  8
0
  6
Continuous
 62
   174
100
AcDbLine
 10
166.337118
 20
148.371575
 30
0.0
 11
166.337118
 21
220.371575
 31
0.0
  0
ARC
  5
220
100
AcDbEntity
  8
0
  6
Continuous
 62
   174
100
AcDbCircle
 10
679.337118
 20
184.371575
 30
0.0
 40
8.325
100
AcDbArc
 50
-90.0
 51
90.0
  0
ARC
  5
221
100
AcDbEntity
  8
0
  6
Continuous
 62
   174
100
AcDbCircle
 10
679.337118
 20
184.371575
 30
0.0
 40
8.325
100
AcDbArc
 50
-270.0
 51
-90.0
  0
ARC
  5
222
100
AcDbEntity
  8
0
  6
Continuous
 62
   174
100
AcDbCircle
 10
202.337118
 20
184.371575
 30
0.0
 40
8.325
100
AcDbArc
 50
-270.0
 51
-90.0
  0
ARC
  5
223
100
AcDbEntity
  8
0
  6
Continuous
 62
   174
100
AcDbCircle
 10
202.337118
 20
184.371575
 30
0.0
 40
8.325
100
AcDbArc
 50
-90.0
 51
90.0
  0
ARC
  5
224
100
AcDbEntity
  8
0
  6
Continuous
 62
   174
100
AcDbCircle
 10
679.337118
 20
184.371575
 30
0.0
 40
6.075
100
AcDbArc
 50
90.0
 51
270.0
  0
ARC
  5
225
100
AcDbEntity
  8
0
  6
Continuous
 62
   174
100
AcDbCircle
 10
679.337118
 20
184.371575
 30
0.0
 40
6.075
100
AcDbArc
 50
-90.0
 51
90.0
  0
ARC
  5
226
100
AcDbEntity
  8
0
  6
Continuous
 62
   174
100
AcDbCircle
 10
202.337118
 20
184.371575
 30
0.0
 40
6.075
100
AcDbArc
 50
-90.0
 51
90.0
  0
ARC
  5
227
100
AcDbEntity
  8
0
  6
Continuous
 62
   174
100
AcDbCircle
 10
202.337118
 20
184.371575
 30
0.0
 40
6.075
100
AcDbArc
 50
90.0
 51
270.0
  0
LINE
  5
228
100
AcDbEntity
  8
0
  6
Continuous
 62
   174
100
AcDbLine
 10
589.337118
 20
220.371575
 30
0.0
 11
589.337118
 21
148.371575
 31
0.0
  0
LINE
  5
229
100
AcDbEntity
  8
0
  6
Continuous
 62
   174
100
AcDbLine
 10
292.337118
 20
148.371575
 30
0.0
 11
238.337118
 21
148.371575
 31
0.0
  0
LINE
  5
22A
100
AcDbEntity
  8
0
  6
Continuous
 62
   174
100
AcDbLine
 10
328.337118
 20
220.371575
 30
0.0
 11
328.337118
 21
148.371575
 31
0.0
  0
ARC
  5
22B
100
AcDbEntity
  8
0
  6
Continuous
 62
   174
100
AcDbCircle
 10
476.837118
 20
184.371575
 30
0.0
 40
19.6875
100
AcDbArc
 50
136.797477
 51
180.0
  0
ARC
  5
22C
100
AcDbEntity
  8
0
  6
Continuous
 62
   174
100
AcDbCircle
 10
476.837118
 20
184.371575
 30
0.0
 40
19.6875
100
AcDbArc
 50
46.807651
 51
133.192349
  0
ARC
  5
22D
100
AcDbEntity
  8
0
  6
Continuous
 62
   174
100
AcDbCircle
 10
404.837118
 20
184.371575
 30
0.0
 40
19.6875
100
AcDbArc
 50
134.044726
 51
136.349948
  0
LINE
  5
22E
100
AcDbEntity
  8
0
  6
Continuous
 62
   174
100
AcDbLine
 10
717.587118
 20
216.703616
 30
0.0
 11
717.587118
 21
217.089196
 31
0.0
  0
LINE
  5
22F
100
AcDbEntity
  8
0
  6
Continuous
 62
   174
100
AcDbLine
 10
164.087118
 20
159.717062
 30
0.0
 11
164.087118
 21
152.228013
 31
0.0
  0
LINE
  5
230
100
AcDbEntity
  8
0
  6
Continuous
 62
   174
100
AcDbLine
 10
164.087118
 20
159.717062
 30
0.0
 11
164.087118
 21
151.842432
 31
0.0
  0
ARC
  5
231
100
AcDbEntity
  8
0
  6
Continuous
 62
   174
100
AcDbCircle
 10
715.337118
 20
167.496575
 30
0.0
 40
2.25
100
AcDbArc
 50
0.0
 51
90.0
  0
LINE
  5
232
100
AcDbEntity
  8
0
  6
Continuous
 62
   174
100
AcDbLine
 10
209.537118
 20
203.946575
 30
0.0
 11
195.137118
 21
203.946575
 31
0.0
  0
LINE
  5
233
100
AcDbEntity
  8
0
  6
Continuous
 62
   174
100
AcDbLine
 10
643.337118
 20
148.371575
 30
0.0
 11
715.337118
 21
148.371575
 31
0.0
  0
LINE
  5
234
100
AcDbEntity
  8
0
  6
Continuous
 62
   174
100
AcDbLine
 10
589.337118
 20
148.371575
 30
0.0
 11
553.337118
 21
148.371575
 31
0.0
  0
LINE
  5
235
100
AcDbEntity
  8
0
  6
Continuous
 62
   174
100
AcDbLine
 10
328.337118
 20
148.371575
 30
0.0
 11
328.337118
 21
220.371575
 31
0.0
  0
ARC
  5
236
100
AcDbEntity
  8
0
  6
Continuous
 62
   174
100
AcDbCircle
 10
404.837118
 20
184.371575
 30
0.0
 40
19.6875
100
AcDbArc
 50
136.349948
 51
180.0
  0
ARC
  5
237
100
AcDbEntity
  8
0
  6
Continuous
 62
   174
100
AcDbCircle
 10
404.837118
 20
184.371575
 30
0.0
 40
19.6875
100
AcDbArc
 50
271.492989
 51
314.044726
  0
ARC
  5
238
100
AcDbEntity
  8
0
  6
Continuous
 62
   174
100
AcDbCircle
 10
404.837118
 20
184.371575
 30
0.0
 40
19.6875
100
AcDbArc
 50
0.0
 51
43.650052
  0
ARC
  5
239
100
AcDbEntity
  8
0
  6
Continuous
 62
   174
100
AcDbCircle
 10
476.837118
 20
184.371575
 30
0.0
 40
21.8925
100
AcDbArc
 50
-180.0
 51
-61.192829
  0
LINE
  5
23A
100
AcDbEntity
  8
0
  6
Continuous
 62
   174
100
AcDbLine
 10
164.087118
 20
167.206112
 30
0.0
 11
164.087118
 21
159.717062
 31
0.0
  0
ARC
  5
23B
100
AcDbEntity
  8
0
  6
Continuous
 62
   174
100
AcDbCircle
 10
715.337118
 20
151.746575
 30
0.0
 40
2.25
100
AcDbArc
 50
-90.0
 51
0.0
  0
LINE
  5
23C
100
AcDbEntity
  8
0
  6
Continuous
 62
   174
100
AcDbLine
 10
164.087118
 20
167.591091
 30
0.0
 11
164.087118
 21
165.71552
 31
0.0
  0
LINE
  5
23D
100
AcDbEntity
  8
0
  6
Continuous
 62
   174
100
AcDbLine
 10
292.337118
 20
220.371575
 30
0.0
 11
328.337118
 21
220.371575
 31
0.0
  0
ARC
  5
23E
100
AcDbEntity
  8
0
  6
Continuous
 62
   174
100
AcDbCircle
 10
404.837118
 20
184.371575
 30
0.0
 40
19.6875
100
AcDbArc
 50
268.507011
 51
271.492989
  0
ARC
  5
23F
100
AcDbEntity
  8
0
  6
Continuous
 62
   174
100
AcDbCircle
 10
404.837118
 20
184.371575
 30
0.0
 40
19.6875
100
AcDbArc
 50
91.492989
 51
134.044726
  0
LINE
  5
240
100
AcDbEntity
  8
0
  6
Continuous
 62
   174
100
AcDbLine
 10
717.587118
 20
209.214566
 30
0.0
 11
717.587118
 21
216.703616
 31
0.0
  0
LINE
  5
241
100
AcDbEntity
  8
0
  6
Continuous
 62
   174
100
AcDbLine
 10
717.587118
 20
209.214566
 30
0.0
 11
717.587118
 21
217.089196
 31
0.0
  0
LINE
  5
242
100
AcDbEntity
  8
0
  6
Continuous
 62
   174
100
AcDbLine
 10
164.087118
 20
167.591693
 30
0.0
 11
164.087118
 21
167.206112
 31
0.0
  0
ARC
  5
243
100
AcDbEntity
  8
0
  6
Continuous
 62
   174
100
AcDbCircle
 10
166.337118
 20
151.746575
 30
0.0
 40
2.25
100
AcDbArc
 50
180.0
 51
270.0
  0
LINE
  5
244
100
AcDbEntity
  8
0
  6
Continuous
 62
   174
100
AcDbLine
 10
195.137118
 20
200.346575
 30
0.0
 11
209.537118
 21
200.346575
 31
0.0
  0
LINE
  5
245
100
AcDbEntity
  8
0
  6
Continuous
 62
   174
100
AcDbLine
 10
686.537118
 20
164.796575
 30
0.0
 11
686.537118
 21
168.396575
 31
0.0
  0
LINE
  5
246
100
AcDbEntity
  8
0
  6
Continuous
 62
   174
100
AcDbLine
 10
717.587118
 20
159.717062
 30
0.0
 11
717.587118
 21
167.591693
 31
0.0
  0
LINE
  5
247
100
AcDbEntity
  8
0
  6
Continuous
 62
   174
100
AcDbLine
 10
164.087118
 20
209.214566
 30
0.0
 11
164.087118
 21
201.339936
 31
0.0
  0
LINE
  5
248
100
AcDbEntity
  8
0
  6
Continuous
 62
   174
100
AcDbLine
 10
589.337118
 20
220.371575
 30
0.0
 11
643.337118
 21
220.371575
 31
0.0
  0
LINE
  5
249
100
AcDbEntity
  8
0
  6
Continuous
 62
   174
100
AcDbLine
 10
292.337118
 20
220.371575
 30
0.0
 11
238.337118
 21
220.371575
 31
0.0
  0
ARC
  5
24A
100
AcDbEntity
  8
0
  6
Continuous
 62
   174
100
AcDbCircle
 10
404.837118
 20
184.371575
 30
0.0
 40
21.8925
100
AcDbArc
 50
-180.0
 51
-61.210326
  0
ARC
  5
24B
100
AcDbEntity
  8
0
  6
Continuous
 62
   174
100
AcDbCircle
 10
476.837118
 20
184.371575
 30
0.0
 40
21.8925
100
AcDbArc
 50
0.0
 51
180.0
  0
LINE
  5
24C
100
AcDbEntity
  8
0
  6
Continuous
 62
   174
100
AcDbLine
 10
717.587118
 20
201.339936
 30
0.0
 11
717.587118
 21
209.214566
 31
0.0
  0
LINE
  5
24D
100
AcDbEntity
  8
0
  6
Continuous
 62
   174
100
AcDbLine
 10
717.587118
 20
201.339936
 30
0.0
 11
717.587118
 21
201.725517
 31
0.0
  0
LINE
  5
24E
100
AcDbEntity
  8
0
  6
Continuous
 62
   174
100
AcDbLine
 10
717.587118
 20
201.725517
 30
0.0
 11
717.587118
 21
209.214566
 31
0.0
  0
LINE
  5
24F
100
AcDbEntity
  8
0
  6
Continuous
 62
   174
100
AcDbLine
 10
164.087118
 20
209.214566
 30
0.0
 11
164.087118
 21
201.725517
 31
0.0
  0
LINE
  5
250
100
AcDbEntity
  8
0
  6
Continuous
 62
   174
100
AcDbLine
 10
717.587118
 20
201.340538
 30
0.0
 11
717.587118
 21
203.216108
 31
0.0
  0
LINE
  5
251
100
AcDbEntity
  8
0
  6
Continuous
 62
   174
100
AcDbLine
 10
717.587118
 20
203.216108
 30
0.0
 11
717.587118
 21
209.214566
 31
0.0
  0
LINE
  5
252
100
AcDbEntity
  8
0
  6
Continuous
 62
   174
100
AcDbLine
 10
164.087118
 20
159.717062
 30
0.0
 11
164.087118
 21
151.842432
 31
0.0
  0
LINE
  5
253
100
AcDbEntity
  8
0
  6
Continuous
 62
   174
100
AcDbLine
 10
672.137118
 20
164.796575
 30
0.0
 11
686.537118
 21
164.796575
 31
0.0
  0
LINE
  5
254
100
AcDbEntity
  8
0
  6
Continuous
 62
   174
100
AcDbLine
 10
209.537118
 20
200.346575
 30
0.0
 11
209.537118
 21
203.946575
 31
0.0
  0
LINE
  5
255
100
AcDbEntity
  8
0
  6
Continuous
 62
   174
100
AcDbLine
 10
717.587118
 20
153.718605
 30
0.0
 11
717.587118
 21
159.717062
 31
0.0
  0
LINE
  5
256
100
AcDbEntity
  8
0
  6
Continuous
 62
   174
100
AcDbLine
 10
643.337118
 20
220.371575
 30
0.0
 11
715.337118
 21
220.371575
 31
0.0
  0
LINE
  5
257
100
AcDbEntity
  8
0
  6
Continuous
 62
   174
100
AcDbLine
 10
292.337118
 20
148.371575
 30
0.0
 11
328.337118
 21
148.371575
 31
0.0
  0
LINE
  5
258
100
AcDbEntity
  8
0
  6
Continuous
 62
   174
100
AcDbLine
 10
553.337118
 20
220.371575
 30
0.0
 11
553.337118
 21
148.371575
 31
0.0
  0
ARC
  5
259
100
AcDbEntity
  8
0
  6
Continuous
 62
   174
100
AcDbCircle
 10
476.837118
 20
184.371575
 30
0.0
 40
19.6875
100
AcDbArc
 50
226.807651
 51
313.192349
  0
ARC
  5
25A
100
AcDbEntity
  8
0
  6
Continuous
 62
   174
100
AcDbCircle
 10
476.837118
 20
184.371575
 30
0.0
 40
19.6875
100
AcDbArc
 50
313.192349
 51
316.797477
  0
ARC
  5
25B
100
AcDbEntity
  8
0
  6
Continuous
 62
   174
100
AcDbCircle
 10
476.837118
 20
184.371575
 30
0.0
 40
19.6875
100
AcDbArc
 50
-43.202523
 51
0.0
  0
ARC
  5
25C
100
AcDbEntity
  8
0
  6
Continuous
 62
   174
100
AcDbCircle
 10
476.837118
 20
184.371575
 30
0.0
 40
19.6875
100
AcDbArc
 50
0.0
 51
43.202523
  0
ARC
  5
25D
100
AcDbEntity
  8
0
  6
Continuous
 62
   174
100
AcDbCircle
 10
476.837118
 20
184.371575
 30
0.0
 40
19.6875
100
AcDbArc
 50
43.202523
 51
46.807651
  0
ARC
  5
25E
100
AcDbEntity
  8
0
  6
Continuous
 62
   174
100
AcDbCircle
 10
404.837118
 20
184.371575
 30
0.0
 40
19.6875
100
AcDbArc
 50
225.955274
 51
268.507011
  0
ARC
  5
25F
100
AcDbEntity
  8
0
  6
Continuous
 62
   174
100
AcDbCircle
 10
404.837118
 20
184.371575
 30
0.0
 40
19.6875
100
AcDbArc
 50
88.507011
 51
91.492989
  0
ARC
  5
260
100
AcDbEntity
  8
0
  6
Continuous
 62
   174
100
AcDbCircle
 10
715.337118
 20
201.246575
 30
0.0
 40
2.25
100
AcDbArc
 50
-90.0
 51
0.0
  0
ARC
  5
261
100
AcDbEntity
  8
0
  6
Continuous
 62
   174
100
AcDbCircle
 10
715.337118
 20
216.996575
 30
0.0
 40
2.25
100
AcDbArc
 50
0.0
 51
90.0
  0
LINE
  5
262
100
AcDbEntity
  8
0
  6
Continuous
 62
   174
100
AcDbLine
 10
164.087118
 20
167.591693
 30
0.0
 11
164.087118
 21
159.717062
 31
0.0
  0
LINE
  5
263
100
AcDbEntity
  8
0
  6
Continuous
 62
   174
100
AcDbLine
 10
717.587118
 20
167.206112
 30
0.0
 11
717.587118
 21
167.591693
 31
0.0
  0
LINE
  5
264
100
AcDbEntity
  8
0
  6
Continuous
 62
   174
100
AcDbLine
 10
164.087118
 20
217.089196
 30
0.0
 11
164.087118
 21
216.703616
 31
0.0
  0
LINE
  5
265
100
AcDbEntity
  8
0
  6
Continuous
 62
   174
100
AcDbLine
 10
717.587118
 20
151.843034
 30
0.0
 11
717.587118
 21
153.718605
 31
0.0
  0
LINE
  5
266
100
AcDbEntity
  8
0
  6
Continuous
 62
   174
100
AcDbLine
 10
553.337118
 20
220.371575
 30
0.0
 11
553.337118
 21
148.371575
 31
0.0
  0
ARC
  5
267
100
AcDbEntity
  8
0
  6
Continuous
 62
   174
100
AcDbCircle
 10
404.837118
 20
184.371575
 30
0.0
 40
19.6875
100
AcDbArc
 50
223.650052
 51
225.955274
  0
ARC
  5
268
100
AcDbEntity
  8
0
  6
Continuous
 62
   174
100
AcDbCircle
 10
404.837118
 20
184.371575
 30
0.0
 40
19.6875
100
AcDbArc
 50
-43.650052
 51
0.0
  0
ARC
  5
269
100
AcDbEntity
  8
0
  6
Continuous
 62
   174
100
AcDbCircle
 10
404.837118
 20
184.371575
 30
0.0
 40
19.6875
100
AcDbArc
 50
45.955274
 51
88.507011
  0
ARC
  5
26A
100
AcDbEntity
  8
0
  6
Continuous
 62
   174
100
AcDbCircle
 10
404.837118
 20
184.371575
 30
0.0
 40
21.8925
100
AcDbArc
 50
0.0
 51
180.0
  0
ARC
  5
26B
100
AcDbEntity
  8
0
  6
Continuous
 62
   174
100
AcDbCircle
 10
166.337118
 20
167.496575
 30
0.0
 40
2.25
100
AcDbArc
 50
-270.0
 51
-180.0
  0
LINE
  5
26C
100
AcDbEntity
  8
0
  6
Continuous
 62
   174
100
AcDbLine
 10
164.087118
 20
217.089196
 30
0.0
 11
164.087118
 21
209.214566
 31
0.0
  0
LINE
  5
26D
100
AcDbEntity
  8
0
  6
Continuous
 62
   174
100
AcDbLine
 10
717.587118
 20
209.214566
 30
0.0
 11
717.587118
 21
217.089196
 31
0.0
  0
LINE
  5
26E
100
AcDbEntity
  8
0
  6
Continuous
 62
   174
100
AcDbLine
 10
195.137118
 20
203.946575
 30
0.0
 11
195.137118
 21
200.346575
 31
0.0
  0
LINE
  5
26F
100
AcDbEntity
  8
0
  6
Continuous
 62
   174
100
AcDbLine
 10
238.337118
 20
148.371575
 30
0.0
 11
166.337118
 21
148.371575
 31
0.0
  0
LINE
  5
270
100
AcDbEntity
  8
0
  6
Continuous
 62
   174
100
AcDbLine
 10
589.337118
 20
148.371575
 30
0.0
 11
643.337118
 21
148.371575
 31
0.0
  0
LINE
  5
271
100
AcDbEntity
  8
0
  6
Continuous
 62
   174
100
AcDbLine
 10
238.337118
 20
220.371575
 30
0.0
 11
166.337118
 21
220.371575
 31
0.0
  0
LINE
  5
272
100
AcDbEntity
  8
0
  6
Continuous
 62
   174
100
AcDbLine
 10
589.337118
 20
220.371575
 30
0.0
 11
553.337118
 21
220.371575
 31
0.0
  0
LINE
  5
273
100
AcDbEntity
  8
0
  6
Continuous
 62
   174
100
AcDbLine
 10
589.337118
 20
220.371575
 30
0.0
 11
589.337118
 21
148.371575
 31
0.0
  0
ARC
  5
274
100
AcDbEntity
  8
0
  6
Continuous
 62
   174
100
AcDbCircle
 10
476.837118
 20
184.371575
 30
0.0
 40
19.6875
100
AcDbArc
 50
223.202523
 51
226.807651
  0
ARC
  5
275
100
AcDbEntity
  8
0
  6
Continuous
 62
   174
100
AcDbCircle
 10
476.837118
 20
184.371575
 30
0.0
 40
19.6875
100
AcDbArc
 50
133.192349
 51
136.797477
  0
LINE
  5
276
100
AcDbEntity
  8
0
  6
Continuous
 62
   174
100
AcDbLine
 10
164.087118
 20
152.228013
 30
0.0
 11
164.087118
 21
151.842432
 31
0.0
  0
LINE
  5
277
100
AcDbEntity
  8
0
  6
Continuous
 62
   174
100
AcDbLine
 10
717.587118
 20
151.842432
 30
0.0
 11
717.587118
 21
152.228013
 31
0.0
  0
LINE
  5
278
100
AcDbEntity
  8
0
  6
Continuous
 62
   174
100
AcDbLine
 10
164.087118
 20
216.703616
 30
0.0
 11
164.087118
 21
209.214566
 31
0.0
  0
LINE
  5
279
100
AcDbEntity
  8
0
  6
Continuous
 62
   174
100
AcDbLine
 10
672.137118
 20
168.396575
 30
0.0
 11
672.137118
 21
164.796575
 31
0.0
  0
LINE
  5
27A
100
AcDbEntity
  8
0
  6
Continuous
 62
   174
100
AcDbLine
 10
292.337118
 20
148.371575
 30
0.0
 11
292.337118
 21
220.371575
 31
0.0
  0
LINE
  5
27B
100
AcDbEntity
  8
0
  6
Continuous
 62
   174
100
AcDbLine
 10
292.337118
 20
148.371575
 30
0.0
 11
292.337118
 21
220.371575
 31
0.0
  0
ARC
  5
27C
100
AcDbEntity
  8
0
  6
Continuous
 62
   174
100
AcDbCircle
 10
476.837118
 20
184.371575
 30
0.0
 40
19.6875
100
AcDbArc
 50
180.0
 51
223.202523
  0
ARC
  5
27D
100
AcDbEntity
  8
0
  6
Continuous
 62
   174
100
AcDbCircle
 10
404.837118
 20
184.371575
 30
0.0
 40
19.6875
100
AcDbArc
 50
180.0
 51
223.650052
  0
ARC
  5
27E
100
AcDbEntity
  8
0
  6
Continuous
 62
   174
100
AcDbCircle
 10
404.837118
 20
184.371575
 30
0.0
 40
19.6875
100
AcDbArc
 50
314.044726
 51
316.349948
  0
ARC
  5
27F
100
AcDbEntity
  8
0
  6
Continuous
 62
   174
100
AcDbCircle
 10
404.837118
 20
184.371575
 30
0.0
 40
19.6875
100
AcDbArc
 50
43.650052
 51
45.955274
  0
LINE
  5
280
100
AcDbEntity
  8
0
  6
Continuous
 62
   174
100
AcDbLine
 10
717.587118
 20
159.717062
 30
0.0
 11
717.587118
 21
167.206112
 31
0.0
  0
LINE
  5
281
100
AcDbEntity
  8
0
  6
Continuous
 62
   174
100
AcDbLine
 10
717.587118
 20
151.842432
 30
0.0
 11
717.587118
 21
159.717062
 31
0.0
  0
LINE
  5
282
100
AcDbEntity
  8
0
  6
Continuous
 62
   174
100
AcDbLine
 10
717.587118
 20
152.228013
 30
0.0
 11
717.587118
 21
159.717062
 31
0.0
  0
LINE
  5
283
100
AcDbEntity
  8
0
  6
Continuous
 62
   174
100
AcDbLine
 10
717.587118
 20
159.717062
 30
0.0
 11
717.587118
 21
167.591693
 31
0.0
  0
ARC
  5
284
100
AcDbEntity
  8
0
  6
Continuous
 62
   174
100
AcDbCircle
 10
166.337118
 20
216.996575
 30
0.0
 40
2.25
100
AcDbArc
 50
-270.0
 51
-180.0
  0
ARC
  5
285
100
AcDbEntity
  8
0
  6
Continuous
 62
   174
100
AcDbCircle
 10
166.337118
 20
201.246575
 30
0.0
 40
2.25
100
AcDbArc
 50
180.0
 51
270.0
  0
LINE
  5
286
100
AcDbEntity
  8
0
  6
Continuous
 62
   174
100
AcDbLine
 10
164.087118
 20
209.214566
 30
0.0
 11
164.087118
 21
201.339936
 31
0.0
  0
LINE
  5
287
100
AcDbEntity
  8
0
  6
Continuous
 62
   174
100
AcDbLine
 10
164.087118
 20
201.725517
 30
0.0
 11
164.087118
 21
201.339936
 31
0.0
  0
LINE
  5
288
100
AcDbEntity
  8
0
  6
Continuous
 62
   174
100
AcDbLine
 10
164.087118
 20
165.71552
 30
0.0
 11
164.087118
 21
159.717062
 31
0.0
  0
LINE
  5
289
100
AcDbEntity
  8
0
  6
Continuous
 62
   174
100
AcDbLine
 10
686.537118
 20
168.396575
 30
0.0
 11
672.137118
 21
168.396575
 31
0.0
  0
ARC
  5
28A
100
AcDbEntity
  8
0
  6
Continuous
 62
   174
100
AcDbCircle
 10
679.337118
 20
184.371575
 30
0.0
 40
11.25
100
AcDbArc
 50
-90.0
 51
-81.359702
  0
ARC
  5
28B
100
AcDbEntity
  8
0
  6
Continuous
 62
   174
100
AcDbCircle
 10
679.337118
 20
184.371575
 30
0.0
 40
11.25
100
AcDbArc
 50
-270.0
 51
-261.359702
  0
ARC
  5
28C
100
AcDbEntity
  8
0
  6
Continuous
 62
   174
100
AcDbCircle
 10
202.337118
 20
184.371575
 30
0.0
 40
11.25
100
AcDbArc
 50
-261.359702
 51
-98.640298
  0
LINE
  5
28D
100
AcDbEntity
  8
0
  6
Continuous
 62
   174
100
AcDbLine
 10
509.955712
 20
148.371575
 30
0.0
 11
328.337118
 21
148.371575
 31
0.0
  0
ARC
  5
28E
100
AcDbEntity
  8
0
  6
Continuous
 62
   174
100
AcDbCircle
 10
368.837118
 20
211.371575
 30
0.0
 40
9.45
100
AcDbArc
 50
0.0
 51
72.24721
  0
LINE
  5
28F
100
AcDbEntity
  8
0
  6
Continuous
 62
   174
100
AcDbLine
 10
371.718524
 20
220.371575
 30
0.0
 11
365.955712
 21
220.371575
 31
0.0
  0
ARC
  5
290
100
AcDbEntity
  8
0
  6
Continuous
 62
   174
100
AcDbCircle
 10
679.337118
 20
184.371575
 30
0.0
 40
11.25
100
AcDbArc
 50
-261.359702
 51
-98.640298
  0
LINE
  5
291
100
AcDbEntity
  8
0
  6
Continuous
 62
   174
100
AcDbLine
 10
686.537118
 20
200.346575
 30
0.0
 11
686.537118
 21
203.946575
 31
0.0
  0
ARC
  5
292
100
AcDbEntity
  8
0
  6
Continuous
 62
   174
100
AcDbCircle
 10
202.337118
 20
184.371575
 30
0.0
 40
11.25
100
AcDbArc
 50
-98.640298
 51
-90.0
  0
ARC
  5
293
100
AcDbEntity
  8
0
  6
Continuous
 62
   174
100
AcDbCircle
 10
368.837118
 20
211.371575
 30
0.0
 40
9.45
100
AcDbArc
 50
107.75279
 51
180.0
  0
LINE
  5
294
100
AcDbEntity
  8
0
  6
Continuous
 62
   174
100
AcDbLine
 10
218.087118
 20
177.171575
 30
0.0
 11
221.687118
 21
177.171575
 31
0.0
  0
ARC
  5
295
100
AcDbEntity
  8
0
  6
Continuous
 62
   174
100
AcDbCircle
 10
310.337118
 20
184.371575
 30
0.0
 40
9.0
100
AcDbArc
 50
180.0
 51
360.0
  0
LINE
  5
296
100
AcDbEntity
  8
0
  6
Continuous
 62
   174
100
AcDbLine
 10
195.137118
 20
168.396575
 30
0.0
 11
195.137118
 21
164.796575
 31
0.0
  0
ARC
  5
297
100
AcDbEntity
  8
0
  6
Continuous
 62
   174
100
AcDbCircle
 10
512.837118
 20
157.371575
 30
0.0
 40
5.85
100
AcDbArc
 50
0.0
 51
180.0
  0
ARC
  5
298
100
AcDbEntity
  8
0
  6
Continuous
 62
   174
100
AcDbCircle
 10
679.337118
 20
184.371575
 30
0.0
 40
11.25
100
AcDbArc
 50
-81.359702
 51
81.359702
  0
ARC
  5
299
100
AcDbEntity
  8
0
  6
Continuous
 62
   174
100
AcDbCircle
 10
679.337118
 20
184.371575
 30
0.0
 40
11.25
100
AcDbArc
 50
-98.640298
 51
-90.0
  0
ARC
  5
29A
100
AcDbEntity
  8
0
  6
Continuous
 62
   174
100
AcDbCircle
 10
368.837118
 20
211.371575
 30
0.0
 40
9.45
100
AcDbArc
 50
-180.0
 51
0.0
  0
ARC
  5
29B
100
AcDbEntity
  8
0
  6
Continuous
 62
   174
100
AcDbCircle
 10
368.837118
 20
211.371575
 30
0.0
 40
5.85
100
AcDbArc
 50
0.0
 51
180.0
  0
ARC
  5
29C
100
AcDbEntity
  8
0
  6
Continuous
 62
   174
100
AcDbCircle
 10
310.337118
 20
184.371575
 30
0.0
 40
9.0
100
AcDbArc
 50
0.0
 51
180.0
  0
LINE
  5
29D
100
AcDbEntity
  8
0
  6
Continuous
 62
   174
100
AcDbLine
 10
672.137118
 20
200.346575
 30
0.0
 11
686.537118
 21
200.346575
 31
0.0
  0
ARC
  5
29E
100
AcDbEntity
  8
0
  6
Continuous
 62
   174
100
AcDbCircle
 10
202.337118
 20
184.371575
 30
0.0
 40
11.25
100
AcDbArc
 50
-90.0
 51
-81.359702
  0
LINE
  5
29F
100
AcDbEntity
  8
0
  6
Continuous
 62
   174
100
AcDbLine
 10
659.987118
 20
177.171575
 30
0.0
 11
663.587118
 21
177.171575
 31
0.0
  0
LINE
  5
2A0
100
AcDbEntity
  8
0
  6
Continuous
 62
   174
100
AcDbLine
 10
218.087118
 20
191.571575
 30
0.0
 11
218.087118
 21
177.171575
 31
0.0
  0
ARC
  5
2A1
100
AcDbEntity
  8
0
  6
Continuous
 62
   174
100
AcDbCircle
 10
571.337118
 20
184.371575
 30
0.0
 40
9.0
100
AcDbArc
 50
-180.0
 51
0.0
  0
LINE
  5
2A2
100
AcDbEntity
  8
0
  6
Continuous
 62
   174
100
AcDbLine
 10
164.087118
 20
215.213024
 30
0.0
 11
164.087118
 21
209.214566
 31
0.0
  0
LINE
  5
2A3
100
AcDbEntity
  8
0
  6
Continuous
 62
   174
100
AcDbLine
 10
209.537118
 20
168.396575
 30
0.0
 11
195.137118
 21
168.396575
 31
0.0
  0
ARC
  5
2A4
100
AcDbEntity
  8
0
  6
Continuous
 62
   174
100
AcDbCircle
 10
512.837118
 20
157.371575
 30
0.0
 40
9.45
100
AcDbArc
 50
180.0
 51
252.24721
  0
ARC
  5
2A5
100
AcDbEntity
  8
0
  6
Continuous
 62
   174
100
AcDbCircle
 10
512.837118
 20
157.371575
 30
0.0
 40
5.85
100
AcDbArc
 50
-180.0
 51
0.0
  0
ARC
  5
2A6
100
AcDbEntity
  8
0
  6
Continuous
 62
   174
100
AcDbCircle
 10
202.337118
 20
184.371575
 30
0.0
 40
11.25
100
AcDbArc
 50
-81.359702
 51
81.359702
  0
LINE
  5
2A7
100
AcDbEntity
  8
0
  6
Continuous
 62
   174
100
AcDbLine
 10
672.137118
 20
203.946575
 30
0.0
 11
672.137118
 21
200.346575
 31
0.0
  0
LINE
  5
2A8
100
AcDbEntity
  8
0
  6
Continuous
 62
   174
100
AcDbLine
 10
365.955712
 20
220.371575
 30
0.0
 11
328.337118
 21
220.371575
 31
0.0
  0
LINE
  5
2A9
100
AcDbEntity
  8
0
  6
Continuous
 62
   174
100
AcDbLine
 10
221.687118
 20
191.571575
 30
0.0
 11
218.087118
 21
191.571575
 31
0.0
  0
LINE
  5
2AA
100
AcDbEntity
  8
0
  6
Continuous
 62
   174
100
AcDbLine
 10
164.087118
 20
217.088595
 30
0.0
 11
164.087118
 21
215.213024
 31
0.0
  0
LINE
  5
2AB
100
AcDbEntity
  8
0
  6
Continuous
 62
   174
100
AcDbLine
 10
209.537118
 20
164.796575
 30
0.0
 11
209.537118
 21
168.396575
 31
0.0
  0
LINE
  5
2AC
100
AcDbEntity
  8
0
  6
Continuous
 62
   174
100
AcDbLine
 10
553.337118
 20
220.371575
 30
0.0
 11
371.718524
 21
220.371575
 31
0.0
  0
ARC
  5
2AD
100
AcDbEntity
  8
0
  6
Continuous
 62
   174
100
AcDbCircle
 10
202.337118
 20
184.371575
 30
0.0
 40
11.25
100
AcDbArc
 50
-278.640298
 51
-270.0
  0
ARC
  5
2AE
100
AcDbEntity
  8
0
  6
Continuous
 62
   174
100
AcDbCircle
 10
512.837118
 20
157.371575
 30
0.0
 40
9.45
100
AcDbArc
 50
0.0
 51
180.0
  0
LINE
  5
2AF
100
AcDbEntity
  8
0
  6
Continuous
 62
   174
100
AcDbLine
 10
659.987118
 20
191.571575
 30
0.0
 11
659.987118
 21
177.171575
 31
0.0
  0
ARC
  5
2B0
100
AcDbEntity
  8
0
  6
Continuous
 62
   174
100
AcDbCircle
 10
368.837118
 20
211.371575
 30
0.0
 40
5.85
100
AcDbArc
 50
-180.0
 51
0.0
  0
LINE
  5
2B1
100
AcDbEntity
  8
0
  6
Continuous
 62
   174
100
AcDbLine
 10
686.537118
 20
203.946575
 30
0.0
 11
672.137118
 21
203.946575
 31
0.0
  0
ARC
  5
2B2
100
AcDbEntity
  8
0
  6
Continuous
 62
   174
100
AcDbCircle
 10
202.337118
 20
184.371575
 30
0.0
 40
11.25
100
AcDbArc
 50
-270.0
 51
-261.359702
  0
ARC
  5
2B3
100
AcDbEntity
  8
0
  6
Continuous
 62
   174
100
AcDbCircle
 10
512.837118
 20
157.371575
 30
0.0
 40
9.45
100
AcDbArc
 50
-72.24721
 51
0.0
  0
LINE
  5
2B4
100
AcDbEntity
  8
0
  6
Continuous
 62
   174
100
AcDbLine
 10
663.587118
 20
191.571575
 30
0.0
 11
659.987118
 21
191.571575
 31
0.0
  0
LINE
  5
2B5
100
AcDbEntity
  8
0
  6
Continuous
 62
   174
100
AcDbLine
 10
221.687118
 20
177.171575
 30
0.0
 11
221.687118
 21
191.571575
 31
0.0
  0
ARC
  5
2B6
100
AcDbEntity
  8
0
  6
Continuous
 62
   174
100
AcDbCircle
 10
679.337118
 20
184.371575
 30
0.0
 40
11.25
100
AcDbArc
 50
-278.640298
 51
-270.0
  0
LINE
  5
2B7
100
AcDbEntity
  8
0
  6
Continuous
 62
   174
100
AcDbLine
 10
195.137118
 20
164.796575
 30
0.0
 11
209.537118
 21
164.796575
 31
0.0
  0
LINE
  5
2B8
100
AcDbEntity
  8
0
  6
Continuous
 62
   174
100
AcDbLine
 10
553.337118
 20
148.371575
 30
0.0
 11
515.718524
 21
148.371575
 31
0.0
  0
LINE
  5
2B9
100
AcDbEntity
  8
0
  6
Continuous
 62
   174
100
AcDbLine
 10
515.718524
 20
148.371575
 30
0.0
 11
509.955712
 21
148.371575
 31
0.0
  0
ARC
  5
2BA
100
AcDbEntity
  8
0
  6
Continuous
 62
   174
100
AcDbCircle
 10
571.337118
 20
184.371575
 30
0.0
 40
9.0
100
AcDbArc
 50
0.0
 51
180.0
  0
LINE
  5
2BB
100
AcDbEntity
  8
0
  6
Continuous
 62
   174
100
AcDbLine
 10
663.587118
 20
177.171575
 30
0.0
 11
663.587118
 21
191.571575
 31
0.0
  0
ENDBLK
  5
2BC
100
AcDbEntity
  8
0
100
AcDbBlockEnd
  0
BLOCK
  5
2BF
100
AcDbEntity
  8
0
100
AcDbBlockBegin
  2
*B3
 70
     0
 10
0.0
 20
0.0
 30
0.0
  3
*B3
  1

  0
LINE
  5
2C0
100
AcDbEntity
  8
0
  6
Continuous
 62
   172
100
AcDbLine
 10
265.789053
 20
336.547092
 30
0.0
 11
225.983293
 21
268.855948
 31
0.0
  0
LINE
  5
2C1
100
AcDbEntity
  8
0
  6
Continuous
 62
   172
100
AcDbLine
 10
225.983293
 20
268.855948
 30
0.0
 11
207.064053
 21
268.855948
 31
0.0
  0
ENDBLK
  5
2C2
100
AcDbEntity
  8
0
100
AcDbBlockEnd
  0
BLOCK
  5
2C5
100
AcDbEntity
  8
0
100
AcDbBlockBegin
  2
*B4
 70
     0
 10
0.0
 20
0.0
 30
0.0
  3
*B4
  1

  0
LINE
  5
2C6
100
AcDbEntity
  8
0
  6
Continuous
 62
   172
100
AcDbLine
 10
222.052192
 20
272.958953
 30
0.0
 11
218.002192
 21
274.447092
 31
0.0
  0
LINE
  5
2C7
100
AcDbEntity
  8
0
  6
Continuous
 62
   172
100
AcDbLine
 10
222.052192
 20
272.958953
 30
0.0
 11
218.002192
 21
271.747092
 31
0.0
  0
LINE
  5
2C8
100
AcDbEntity
  8
0
  6
Continuous
 62
   172
100
AcDbLine
 10
219.352192
 20
272.958953
 30
0.0
 11
222.052192
 21
272.958953
 31
0.0
  0
LINE
  5
2C9
100
AcDbEntity
  8
0
  6
Continuous
 62
   172
100
AcDbLine
 10
222.052192
 20
296.185231
 30
0.0
 11
218.002192
 21
294.697092
 31
0.0
  0
LINE
  5
2CA
100
AcDbEntity
  8
0
  6
Continuous
 62
   172
100
AcDbLine
 10
222.052192
 20
296.185231
 30
0.0
 11
218.002192
 21
297.397092
 31
0.0
  0
LINE
  5
2CB
100
AcDbEntity
  8
0
  6
Continuous
 62
   172
100
AcDbLine
 10
219.352192
 20
296.185231
 30
0.0
 11
222.052192
 21
296.185231
 31
0.0
  0
ARC
  5
2CC
100
AcDbEntity
  8
0
  6
Continuous
 62
   172
100
AcDbCircle
 10
219.352192
 20
284.572092
 30
0.0
 40
11.613139
100
AcDbArc
 50
-270.0
 51
-90.0
  0
ENDBLK
  5
2CD
100
AcDbEntity
  8
0
100
AcDbBlockEnd
  0
BLOCK
  5
2D0
100
AcDbEntity
  8
0
100
AcDbBlockBegin
  2
*B5
 70
     0
 10
0.0
 20
0.0
 30
0.0
  3
*B5
  1

  0
ENDBLK
  5
2D1
100
AcDbEntity
  8
0
100
AcDbBlockEnd
  0
BLOCK
  5
2D3
100
AcDbEntity
  8
0
100
AcDbBlockBegin
  2
*B6
 70
     0
 10
0.0
 20
0.0
 30
0.0
  3
*B6
  1

  0
LINE
  5
2D4
100
AcDbEntity
  8
0
  6
Continuous
 62
     0
100
AcDbLine
 10
476.808228
 20
472.080803
 30
0.0
 11
553.303003
 21
472.080803
 31
0.0
  0
SOLID
  5
2D5
100
AcDbEntity
  8
0
  6
Continuous
 62
     0
100
AcDbTrace
 10
486.807462
 20
474.08089
 30
0.0
 11
476.808228
 21
472.080803
 31
0.0
 12
486.807462
 22
470.080715
 32
0.0
 13
486.807462
 23
470.080715
 33
0.0
  0
SOLID
  5
2D6
100
AcDbEntity
  8
0
  6
Continuous
 62
     0
100
AcDbTrace
 10
543.303768
 20
470.080715
 30
0.0
 11
553.303003
 21
472.080803
 31
0.0
 12
543.303768
 22
474.08089
 32
0.0
 13
543.303768
 23
474.08089
 33
0.0
  0
ENDBLK
  5
2D7
100
AcDbEntity
  8
0
100
AcDbBlockEnd
  0
BLOCK
  5
2DA
100
AcDbEntity
  8
0
100
AcDbBlockBegin
  2
*B7
 70
     0
 10
0.0
 20
0.0
 30
0.0
  3
*B7
  1

  0
LINE
  5
2DB
100
AcDbEntity
  8
0
  6
Continuous
 62
     0
100
AcDbLine
 10
476.808228
 20
472.080803
 30
0.0
 11
404.812296
 21
472.080803
 31
0.0
  0
SOLID
  5
2DC
100
AcDbEntity
  8
0
  6
Continuous
 62
     0
100
AcDbTrace
 10
466.808392
 20
470.080715
 30
0.0
 11
476.808228
 21
472.080803
 31
0.0
 12
466.808392
 22
474.08089
 32
0.0
 13
466.808392
 23
474.08089
 33
0.0
  0
SOLID
  5
2DD
100
AcDbEntity
  8
0
  6
Continuous
 62
     0
100
AcDbTrace
 10
414.811531
 20
474.08089
 30
0.0
 11
404.812296
 21
472.080803
 31
0.0
 12
414.811531
 22
470.080715
 32
0.0
 13
414.811531
 23
470.080715
 33
0.0
  0
ENDBLK
  5
2DE
100
AcDbEntity
  8
0
100
AcDbBlockEnd
  0
BLOCK
  5
2E1
100
AcDbEntity
  8
0
100
AcDbBlockBegin
  2
*B8
 70
     0
 10
0.0
 20
0.0
 30
0.0
  3
*B8
  1

  0
LINE
  5
2E2
100
AcDbEntity
  8
0
  6
Continuous
 62
     0
100
AcDbLine
 10
553.303003
 20
260.090777
 30
0.0
 11
328.31692
 21
260.090777
 31
0.0
  0
SOLID
  5
2E3
100
AcDbEntity
  8
0
  6
Continuous
 62
     0
100
AcDbTrace
 10
543.303768
 20
258.090689
 30
0.0
 11
553.303003
 21
260.090777
 31
0.0
 12
543.303768
 22
262.090864
 32
0.0
 13
543.303768
 23
262.090864
 33
0.0
  0
SOLID
  5
2E4
100
AcDbEntity
  8
0
  6
Continuous
 62
     0
100
AcDbTrace
 10
338.316756
 20
262.090864
 30
0.0
 11
328.31692
 21
260.090777
 31
0.0
 12
338.316756
 22
258.090689
 32
0.0
 13
338.316756
 23
258.090689
 33
0.0
  0
ENDBLK
  5
2E5
100
AcDbEntity
  8
0
100
AcDbBlockEnd
  0
BLOCK
  5
2E8
100
AcDbEntity
  8
0
100
AcDbBlockBegin
  2
*B9
 70
     0
 10
0.0
 20
0.0
 30
0.0
  3
*B9
  1

  0
LINE
  5
2E9
100
AcDbEntity
  8
0
  6
Continuous
 62
     0
100
AcDbLine
 10
512.805592
 20
288.089596
 30
0.0
 11
553.303003
 21
288.089596
 31
0.0
  0
SOLID
  5
2EA
100
AcDbEntity
  8
0
  6
Continuous
 62
     0
100
AcDbTrace
 10
522.804826
 20
290.089082
 30
0.0
 11
512.805592
 21
288.089596
 31
0.0
 12
522.804826
 22
286.089508
 32
0.0
 13
522.804826
 23
286.089508
 33
0.0
  0
SOLID
  5
2EB
100
AcDbEntity
  8
0
  6
Continuous
 62
     0
100
AcDbTrace
 10
543.303768
 20
286.089508
 30
0.0
 11
553.303003
 21
288.089596
 31
0.0
 12
543.303768
 22
290.089082
 32
0.0
 13
543.303768
 23
290.089082
 33
0.0
  0
ENDBLK
  5
2EC
100
AcDbEntity
  8
0
100
AcDbBlockEnd
  0
BLOCK
  5
2EF
100
AcDbEntity
  8
0
100
AcDbBlockBegin
  2
*B10
 70
     0
 10
0.0
 20
0.0
 30
0.0
  3
*B10
  1

  0
LINE
  5
2F0
100
AcDbEntity
  8
0
  6
Continuous
 62
     0
100
AcDbLine
 10
440.810262
 20
288.089596
 30
0.0
 11
512.805592
 21
288.089596
 31
0.0
  0
SOLID
  5
2F1
100
AcDbEntity
  8
0
  6
Continuous
 62
     0
100
AcDbTrace
 10
450.809496
 20
290.089082
 30
0.0
 11
440.810262
 21
288.089596
 31
0.0
 12
450.809496
 22
286.089508
 32
0.0
 13
450.809496
 23
286.089508
 33
0.0
  0
SOLID
  5
2F2
100
AcDbEntity
  8
0
  6
Continuous
 62
     0
100
AcDbTrace
 10
502.806358
 20
286.089508
 30
0.0
 11
512.805592
 21
288.089596
 31
0.0
 12
502.806358
 22
290.089082
 32
0.0
 13
502.806358
 23
290.089082
 33
0.0
  0
ENDBLK
  5
2F3
100
AcDbEntity
  8
0
100
AcDbBlockEnd
  0
BLOCK
  5
2F6
100
AcDbEntity
  8
0
100
AcDbBlockBegin
  2
*B11
 70
     0
 10
0.0
 20
0.0
 30
0.0
  3
*B11
  1

  0
LINE
  5
2F7
100
AcDbEntity
  8
0
  6
Continuous
 62
     0
100
AcDbLine
 10
368.81433
 20
288.089596
 30
0.0
 11
440.810262
 21
288.089596
 31
0.0
  0
SOLID
  5
2F8
100
AcDbEntity
  8
0
  6
Continuous
 62
     0
100
AcDbTrace
 10
378.814166
 20
290.089082
 30
0.0
 11
368.81433
 21
288.089596
 31
0.0
 12
378.814166
 22
286.089508
 32
0.0
 13
378.814166
 23
286.089508
 33
0.0
  0
SOLID
  5
2F9
100
AcDbEntity
  8
0
  6
Continuous
 62
     0
100
AcDbTrace
 10
430.811028
 20
286.089508
 30
0.0
 11
440.810262
 21
288.089596
 31
0.0
 12
430.811028
 22
290.089082
 32
0.0
 13
430.811028
 23
290.089082
 33
0.0
  0
ENDBLK
  5
2FA
100
AcDbEntity
  8
0
100
AcDbBlockEnd
  0
BLOCK
  5
2FD
100
AcDbEntity
  8
0
100
AcDbBlockBegin
  2
*B12
 70
     0
 10
0.0
 20
0.0
 30
0.0
  3
*B12
  1

  0
LINE
  5
2FE
100
AcDbEntity
  8
0
  6
Continuous
 62
     0
100
AcDbLine
 10
314.980998
 20
415.455769
 30
0.0
 11
314.980998
 21
316.46016
 31
0.0
  0
SOLID
  5
2FF
100
AcDbEntity
  8
0
  6
Continuous
 62
     0
100
AcDbTrace
 10
316.980484
 20
405.455933
 30
0.0
 11
314.980998
 21
415.455769
 31
0.0
 12
312.98091
 22
405.455933
 32
0.0
 13
312.98091
 23
405.455933
 33
0.0
  0
SOLID
  5
300
100
AcDbEntity
  8
0
  6
Continuous
 62
     0
100
AcDbTrace
 10
312.98091
 20
326.459996
 30
0.0
 11
314.980998
 21
316.46016
 31
0.0
 12
316.980484
 22
326.459996
 32
0.0
 13
316.980484
 23
326.459996
 33
0.0
  0
ENDBLK
  5
301
100
AcDbEntity
  8
0
100
AcDbBlockEnd
  0
BLOCK
  5
304
100
AcDbEntity
  8
0
100
AcDbBlockBegin
  2
*B13
 70
     0
 10
0.0
 20
0.0
 30
0.0
  3
*B13
  1

  0
LINE
  5
305
100
AcDbEntity
  8
0
  6
Continuous
 62
     0
100
AcDbLine
 10
368.81433
 20
124.096858
 30
0.0
 11
512.805592
 21
124.096858
 31
0.0
  0
SOLID
  5
306
100
AcDbEntity
  8
0
  6
Continuous
 62
     0
100
AcDbTrace
 10
378.814166
 20
126.096945
 30
0.0
 11
368.81433
 21
124.096858
 31
0.0
 12
378.814166
 22
122.097372
 32
0.0
 13
378.814166
 23
122.097372
 33
0.0
  0
SOLID
  5
307
100
AcDbEntity
  8
0
  6
Continuous
 62
     0
100
AcDbTrace
 10
502.806358
 20
122.097372
 30
0.0
 11
512.805592
 21
124.096858
 31
0.0
 12
502.806358
 22
126.096945
 32
0.0
 13
502.806358
 23
126.096945
 33
0.0
  0
ENDBLK
  5
308
100
AcDbEntity
  8
0
100
AcDbBlockEnd
  0
BLOCK
  5
30B
100
AcDbEntity
  8
0
100
AcDbBlockBegin
  2
*B14
 70
     0
 10
0.0
 20
0.0
 30
0.0
  3
*B14
  1

  0
LINE
  5
30C
100
AcDbEntity
  8
0
  6
Continuous
 62
     0
100
AcDbLine
 10
346.978789
 20
211.464289
 30
0.0
 11
346.978789
 21
157.46734
 31
0.0
  0
SOLID
  5
30D
100
AcDbEntity
  8
0
  6
Continuous
 62
     0
100
AcDbTrace
 10
348.978876
 20
201.465054
 30
0.0
 11
346.978789
 21
211.464289
 31
0.0
 12
344.978701
 22
201.465054
 32
0.0
 13
344.978701
 23
201.465054
 33
0.0
  0
SOLID
  5
30E
100
AcDbEntity
  8
0
  6
Continuous
 62
     0
100
AcDbTrace
 10
344.978701
 20
167.466574
 30
0.0
 11
346.978789
 21
157.46734
 31
0.0
 12
348.978876
 22
167.466574
 32
0.0
 13
348.978876
 23
167.466574
 33
0.0
  0
ENDBLK
  5
30F
100
AcDbEntity
  8
0
100
AcDbBlockEnd
  0
BLOCK
  5
312
100
AcDbEntity
  8
0
100
AcDbBlockBegin
  2
*B15
 70
     0
 10
0.0
 20
0.0
 30
0.0
  3
*B15
  1

  0
LINE
  5
313
100
AcDbEntity
  8
0
  6
Continuous
 62
     0
100
AcDbLine
 10
512.805592
 20
124.096858
 30
0.0
 11
553.303003
 21
124.096858
 31
0.0
  0
SOLID
  5
314
100
AcDbEntity
  8
0
  6
Continuous
 62
     0
100
AcDbTrace
 10
522.804826
 20
126.096945
 30
0.0
 11
512.805592
 21
124.096858
 31
0.0
 12
522.804826
 22
122.097372
 32
0.0
 13
522.804826
 23
122.097372
 33
0.0
  0
SOLID
  5
315
100
AcDbEntity
  8
0
  6
Continuous
 62
     0
100
AcDbTrace
 10
543.303768
 20
122.097372
 30
0.0
 11
553.303003
 21
124.096858
 31
0.0
 12
543.303768
 22
126.096945
 32
0.0
 13
543.303768
 23
126.096945
 33
0.0
  0
ENDBLK
  5
316
100
AcDbEntity
  8
0
100
AcDbBlockEnd
  0
BLOCK
  5
319
100
AcDbEntity
  8
0
100
AcDbBlockBegin
  2
*B16
 70
     0
 10
0.0
 20
0.0
 30
0.0
  3
*B16
  1

  0
LINE
  5
31A
100
AcDbEntity
  8
0
  6
Continuous
 62
     0
100
AcDbLine
 10
715.293247
 20
500.079622
 30
0.0
 11
166.327276
 21
500.079622
 31
0.0
  0
SOLID
  5
31B
100
AcDbEntity
  8
0
  6
Continuous
 62
     0
100
AcDbTrace
 10
705.294013
 20
498.079534
 30
0.0
 11
715.293247
 21
500.079622
 31
0.0
 12
705.294013
 22
502.079108
 32
0.0
 13
705.294013
 23
502.079108
 33
0.0
  0
SOLID
  5
31C
100
AcDbEntity
  8
0
  6
Continuous
 62
     0
100
AcDbTrace
 10
176.326511
 20
502.079108
 30
0.0
 11
166.327276
 21
500.079622
 31
0.0
 12
176.326511
 22
498.079534
 32
0.0
 13
176.326511
 23
498.079534
 33
0.0
  0
ENDBLK
  5
31D
100
AcDbEntity
  8
0
100
AcDbBlockEnd
  0
BLOCK
  5
320
100
AcDbEntity
  8
0
100
AcDbBlockBegin
  2
*B17
 70
     0
 10
0.0
 20
0.0
 30
0.0
  3
*B17
  1

  0
LINE
  5
321
100
AcDbEntity
  8
0
  6
Continuous
 62
     0
100
AcDbLine
 10
139.991688
 20
316.46016
 30
0.0
 11
139.991688
 21
433.454752
 31
0.0
  0
SOLID
  5
322
100
AcDbEntity
  8
0
  6
Continuous
 62
     0
100
AcDbTrace
 10
137.991601
 20
326.459996
 30
0.0
 11
139.991688
 21
316.46016
 31
0.0
 12
141.991174
 22
326.459996
 32
0.0
 13
141.991174
 23
326.459996
 33
0.0
  0
SOLID
  5
323
100
AcDbEntity
  8
0
  6
Continuous
 62
     0
100
AcDbTrace
 10
141.991174
 20
423.455518
 30
0.0
 11
139.991688
 21
433.454752
 31
0.0
 12
137.991601
 22
423.455518
 32
0.0
 13
137.991601
 23
423.455518
 33
0.0
  0
ENDBLK
  5
324
100
AcDbEntity
  8
0
100
AcDbBlockEnd
  0
BLOCK
  5
327
100
AcDbEntity
  8
0
100
AcDbBlockBegin
  2
*B18
 70
     0
 10
0.0
 20
0.0
 30
0.0
  3
*B18
  1

  0
LINE
  5
328
100
AcDbEntity
  8
0
  6
Continuous
 62
     0
100
AcDbLine
 10
411.8117
 20
352.08638
 30
0.0
 11
484.141481
 21
352.08638
 31
0.0
  0
SOLID
  5
329
100
AcDbEntity
  8
0
  6
Continuous
 62
     0
100
AcDbTrace
 10
421.811536
 20
350.086293
 30
0.0
 11
431.810771
 21
352.08638
 31
0.0
 12
421.811536
 22
354.086468
 32
0.0
 13
421.811536
 23
354.086468
 33
0.0
  0
SOLID
  5
32A
100
AcDbEntity
  8
0
  6
Continuous
 62
     0
100
AcDbTrace
 10
459.808988
 20
354.086468
 30
0.0
 11
449.809753
 21
352.08638
 31
0.0
 12
459.808988
 22
350.086293
 32
0.0
 13
459.808988
 23
350.086293
 33
0.0
  0
ENDBLK
  5
32B
100
AcDbEntity
  8
0
100
AcDbBlockEnd
  0
BLOCK
  5
32E
100
AcDbEntity
  8
0
100
AcDbBlockBegin
  2
*B19
 70
     0
 10
0.0
 20
0.0
 30
0.0
  3
*B19
  1

  0
LINE
  5
32F
100
AcDbEntity
  8
0
  6
Continuous
 62
     0
100
AcDbLine
 10
408.849766
 20
440.082411
 30
0.0
 11
516.492971
 21
440.082411
 31
0.0
  0
SOLID
  5
330
100
AcDbEntity
  8
0
  6
Continuous
 62
     0
100
AcDbTrace
 10
447.122117
 20
438.082323
 30
0.0
 11
457.121953
 21
440.082411
 31
0.0
 12
447.122117
 22
442.082498
 32
0.0
 13
447.122117
 23
442.082498
 33
0.0
  0
SOLID
  5
331
100
AcDbEntity
  8
0
  6
Continuous
 62
     0
100
AcDbTrace
 10
506.493737
 20
442.082498
 30
0.0
 11
496.494503
 21
440.082411
 31
0.0
 12
506.493737
 22
438.082323
 32
0.0
 13
506.493737
 23
438.082323
 33
0.0
  0
ENDBLK
  5
332
100
AcDbEntity
  8
0
100
AcDbBlockEnd
  0
BLOCK
  5
335
100
AcDbEntity
  8
0
100
AcDbBlockBegin
  2
*B20
 70
     0
 10
0.0
 20
0.0
 30
0.0
  3
*B20
  1

  0
LINE
  5
336
100
AcDbEntity
  8
0
  6
Continuous
 62
     0
100
AcDbLine
 10
139.991688
 20
148.467247
 30
0.0
 11
139.991688
 21
220.464382
 31
0.0
  0
SOLID
  5
337
100
AcDbEntity
  8
0
  6
Continuous
 62
     0
100
AcDbTrace
 10
137.991601
 20
158.467083
 30
0.0
 11
139.991688
 21
148.467247
 31
0.0
 12
141.991174
 22
158.467083
 32
0.0
 13
141.991174
 23
158.467083
 33
0.0
  0
SOLID
  5
338
100
AcDbEntity
  8
0
  6
Continuous
 62
     0
100
AcDbTrace
 10
141.991174
 20
210.464546
 30
0.0
 11
139.991688
 21
220.464382
 31
0.0
 12
137.991601
 22
210.464546
 32
0.0
 13
137.991601
 23
210.464546
 33
0.0
  0
ENDBLK
  5
339
100
AcDbEntity
  8
0
100
AcDbBlockEnd
  0
BLOCK
  5
33C
100
AcDbEntity
  8
0
100
AcDbBlockBegin
  2
*B21
 70
     0
 10
0.0
 20
0.0
 30
0.0
  3
*B21
  1

  0
LINE
  5
33D
100
AcDbEntity
  8
0
  6
Continuous
 62
     8
100
AcDbLine
 10
137.991601
 20
148.467247
 30
0.0
 11
160.327615
 21
148.467247
 31
0.0
  0
ENDBLK
  5
33E
100
AcDbEntity
  8
0
100
AcDbBlockEnd
  0
BLOCK
  5
341
100
AcDbEntity
  8
0
100
AcDbBlockBegin
  2
*B22
 70
     0
 10
0.0
 20
0.0
 30
0.0
  3
*B22
  1

  0
LINE
  5
342
100
AcDbEntity
  8
0
  6
Continuous
 62
     8
100
AcDbLine
 10
496.494503
 20
421.45543
 30
0.0
 11
496.494503
 21
442.082498
 31
0.0
  0
ENDBLK
  5
343
100
AcDbEntity
  8
0
100
AcDbBlockEnd
  0
BLOCK
  5
346
100
AcDbEntity
  8
0
100
AcDbBlockBegin
  2
*B23
 70
     0
 10
0.0
 20
0.0
 30
0.0
  3
*B23
  1

  0
LINE
  5
347
100
AcDbEntity
  8
0
  6
Continuous
 62
     8
100
AcDbLine
 10
679.295282
 20
167.216338
 30
0.0
 11
679.295282
 21
176.466066
 31
0.0
  0
LINE
  5
348
100
AcDbEntity
  8
0
  6
Continuous
 62
     8
100
AcDbLine
 10
679.295282
 20
192.465563
 30
0.0
 11
679.295282
 21
201.715291
 31
0.0
  0
ENDBLK
  5
349
100
AcDbEntity
  8
0
100
AcDbBlockEnd
  0
BLOCK
  5
34C
100
AcDbEntity
  8
0
100
AcDbBlockBegin
  2
*B24
 70
     0
 10
0.0
 20
0.0
 30
0.0
  3
*B24
  1

  0
LINE
  5
34D
100
AcDbEntity
  8
0
  6
Continuous
 62
     8
100
AcDbLine
 10
344.978701
 20
157.46734
 30
0.0
 11
348.978876
 21
157.46734
 31
0.0
  0
LINE
  5
34E
100
AcDbEntity
  8
0
  6
Continuous
 62
     8
100
AcDbLine
 10
348.978876
 20
157.46734
 30
0.0
 11
368.944862
 21
157.46734
 31
0.0
  0
LINE
  5
34F
100
AcDbEntity
  8
0
  6
Continuous
 62
     8
100
AcDbLine
 10
374.944523
 20
157.46734
 30
0.0
 11
376.944611
 21
157.46734
 31
0.0
  0
LINE
  5
350
100
AcDbEntity
  8
0
  6
Continuous
 62
     8
100
AcDbLine
 10
382.944272
 20
157.46734
 30
0.0
 11
402.910258
 21
157.46734
 31
0.0
  0
LINE
  5
351
100
AcDbEntity
  8
0
  6
Continuous
 62
     8
100
AcDbLine
 10
408.909919
 20
157.46734
 30
0.0
 11
410.910007
 21
157.46734
 31
0.0
  0
LINE
  5
352
100
AcDbEntity
  8
0
  6
Continuous
 62
     8
100
AcDbLine
 10
416.909667
 20
157.46734
 30
0.0
 11
436.875654
 21
157.46734
 31
0.0
  0
LINE
  5
353
100
AcDbEntity
  8
0
  6
Continuous
 62
     8
100
AcDbLine
 10
442.875315
 20
157.46734
 30
0.0
 11
444.875402
 21
157.46734
 31
0.0
  0
LINE
  5
354
100
AcDbEntity
  8
0
  6
Continuous
 62
     8
100
AcDbLine
 10
450.874462
 20
157.46734
 30
0.0
 11
470.841049
 21
157.46734
 31
0.0
  0
LINE
  5
355
100
AcDbEntity
  8
0
  6
Continuous
 62
     8
100
AcDbLine
 10
476.84071
 20
157.46734
 30
0.0
 11
478.840196
 21
157.46734
 31
0.0
  0
LINE
  5
356
100
AcDbEntity
  8
0
  6
Continuous
 62
     8
100
AcDbLine
 10
484.839857
 20
157.46734
 30
0.0
 11
504.806445
 21
157.46734
 31
0.0
  0
LINE
  5
357
100
AcDbEntity
  8
0
  6
Continuous
 62
     8
100
AcDbLine
 10
520.805341
 20
157.46734
 30
0.0
 11
528.254689
 21
157.46734
 31
0.0
  0
ENDBLK
  5
358
100
AcDbEntity
  8
0
100
AcDbBlockEnd
  0
BLOCK
  5
35B
100
AcDbEntity
  8
0
100
AcDbBlockBegin
  2
*B25
 70
     0
 10
0.0
 20
0.0
 30
0.0
  3
*B25
  1

  0
LINE
  5
35C
100
AcDbEntity
  8
0
  6
Continuous
 62
     8
100
AcDbLine
 10
476.808228
 20
470.080715
 30
0.0
 11
476.808228
 21
474.08089
 31
0.0
  0
LINE
  5
35D
100
AcDbEntity
  8
0
  6
Continuous
 62
     8
100
AcDbLine
 10
476.808228
 20
373.457541
 30
0.0
 11
476.808228
 21
396.332527
 31
0.0
  0
LINE
  5
35E
100
AcDbEntity
  8
0
  6
Continuous
 62
     8
100
AcDbLine
 10
476.808228
 20
402.332188
 30
0.0
 11
476.808228
 21
404.332275
 31
0.0
  0
LINE
  5
35F
100
AcDbEntity
  8
0
  6
Continuous
 62
     8
100
AcDbLine
 10
476.808228
 20
410.331936
 30
0.0
 11
476.808228
 21
433.206922
 31
0.0
  0
LINE
  5
360
100
AcDbEntity
  8
0
  6
Continuous
 62
     8
100
AcDbLine
 10
476.808228
 20
439.206583
 30
0.0
 11
476.808228
 21
441.206069
 31
0.0
  0
LINE
  5
361
100
AcDbEntity
  8
0
  6
Continuous
 62
     8
100
AcDbLine
 10
476.808228
 20
447.206331
 30
0.0
 11
476.808228
 21
470.080715
 31
0.0
  0
ENDBLK
  5
362
100
AcDbEntity
  8
0
100
AcDbBlockEnd
  0
BLOCK
  5
365
100
AcDbEntity
  8
0
100
AcDbBlockBegin
  2
*B26
 70
     0
 10
0.0
 20
0.0
 30
0.0
  3
*B26
  1

  0
LINE
  5
366
100
AcDbEntity
  8
0
  6
Continuous
 62
     8
100
AcDbLine
 10
476.808228
 20
158.779277
 30
0.0
 11
476.808228
 21
176.466066
 31
0.0
  0
LINE
  5
367
100
AcDbEntity
  8
0
  6
Continuous
 62
     8
100
AcDbLine
 10
476.808228
 20
192.465563
 30
0.0
 11
476.808228
 21
210.152352
 31
0.0
  0
ENDBLK
  5
368
100
AcDbEntity
  8
0
100
AcDbBlockEnd
  0
BLOCK
  5
36B
100
AcDbEntity
  8
0
100
AcDbBlockBegin
  2
*B27
 70
     0
 10
0.0
 20
0.0
 30
0.0
  3
*B27
  1

  0
LINE
  5
36C
100
AcDbEntity
  8
0
  6
Continuous
 62
     8
100
AcDbLine
 10
457.121953
 20
421.45543
 30
0.0
 11
457.121953
 21
442.082498
 31
0.0
  0
ENDBLK
  5
36D
100
AcDbEntity
  8
0
100
AcDbBlockEnd
  0
BLOCK
  5
370
100
AcDbEntity
  8
0
100
AcDbBlockBegin
  2
*B28
 70
     0
 10
0.0
 20
0.0
 30
0.0
  3
*B28
  1

  0
LINE
  5
371
100
AcDbEntity
  8
0
  6
Continuous
 62
     8
100
AcDbLine
 10
404.812296
 20
470.080715
 30
0.0
 11
404.812296
 21
474.08089
 31
0.0
  0
LINE
  5
372
100
AcDbEntity
  8
0
  6
Continuous
 62
     8
100
AcDbLine
 10
404.812296
 20
373.457541
 30
0.0
 11
404.812296
 21
396.332527
 31
0.0
  0
LINE
  5
373
100
AcDbEntity
  8
0
  6
Continuous
 62
     8
100
AcDbLine
 10
404.812296
 20
402.332188
 30
0.0
 11
404.812296
 21
404.332275
 31
0.0
  0
LINE
  5
374
100
AcDbEntity
  8
0
  6
Continuous
 62
     8
100
AcDbLine
 10
404.812296
 20
410.331936
 30
0.0
 11
404.812296
 21
433.206922
 31
0.0
  0
LINE
  5
375
100
AcDbEntity
  8
0
  6
Continuous
 62
     8
100
AcDbLine
 10
404.812296
 20
439.206583
 30
0.0
 11
404.812296
 21
441.206069
 31
0.0
  0
LINE
  5
376
100
AcDbEntity
  8
0
  6
Continuous
 62
     8
100
AcDbLine
 10
404.812296
 20
447.206331
 30
0.0
 11
404.812296
 21
470.080715
 31
0.0
  0
ENDBLK
  5
377
100
AcDbEntity
  8
0
100
AcDbBlockEnd
  0
BLOCK
  5
37A
100
AcDbEntity
  8
0
100
AcDbBlockBegin
  2
*B29
 70
     0
 10
0.0
 20
0.0
 30
0.0
  3
*B29
  1

  0
LINE
  5
37B
100
AcDbEntity
  8
0
  6
Continuous
 62
     8
100
AcDbLine
 10
404.812296
 20
158.779277
 30
0.0
 11
404.812296
 21
176.466066
 31
0.0
  0
LINE
  5
37C
100
AcDbEntity
  8
0
  6
Continuous
 62
     8
100
AcDbLine
 10
404.812296
 20
192.465563
 30
0.0
 11
404.812296
 21
210.152352
 31
0.0
  0
ENDBLK
  5
37D
100
AcDbEntity
  8
0
100
AcDbBlockEnd
  0
BLOCK
  5
380
100
AcDbEntity
  8
0
100
AcDbBlockBegin
  2
*B30
 70
     0
 10
0.0
 20
0.0
 30
0.0
  3
*B30
  1

  0
LINE
  5
381
100
AcDbEntity
  8
0
  6
Continuous
 62
     8
100
AcDbLine
 10
202.324641
 20
167.216338
 30
0.0
 11
202.324641
 21
176.466066
 31
0.0
  0
LINE
  5
382
100
AcDbEntity
  8
0
  6
Continuous
 62
     8
100
AcDbLine
 10
202.324641
 20
192.465563
 30
0.0
 11
202.324641
 21
201.715291
 31
0.0
  0
ENDBLK
  5
383
100
AcDbEntity
  8
0
100
AcDbBlockEnd
  0
BLOCK
  5
386
100
AcDbEntity
  8
0
100
AcDbBlockBegin
  2
*B31
 70
     0
 10
0.0
 20
0.0
 30
0.0
  3
*B31
  1

  0
LINE
  5
387
100
AcDbEntity
  8
0
  6
Continuous
 62
     8
100
AcDbLine
 10
312.98091
 20
316.46016
 30
0.0
 11
322.317259
 21
316.46016
 31
0.0
  0
ENDBLK
  5
388
100
AcDbEntity
  8
0
100
AcDbBlockEnd
  0
BLOCK
  5
38B
100
AcDbEntity
  8
0
100
AcDbBlockBegin
  2
*B32
 70
     0
 10
0.0
 20
0.0
 30
0.0
  3
*B32
  1

  0
LINE
  5
38C
100
AcDbEntity
  8
0
  6
Continuous
 62
     8
100
AcDbLine
 10
137.991601
 20
316.46016
 30
0.0
 11
160.327615
 21
316.46016
 31
0.0
  0
ENDBLK
  5
38D
100
AcDbEntity
  8
0
100
AcDbBlockEnd
  0
BLOCK
  5
390
100
AcDbEntity
  8
0
100
AcDbBlockBegin
  2
*B33
 70
     0
 10
0.0
 20
0.0
 30
0.0
  3
*B33
  1

  0
LINE
  5
391
100
AcDbEntity
  8
0
  6
Continuous
 62
     8
100
AcDbLine
 10
160.327615
 20
184.465814
 30
0.0
 11
194.325494
 21
184.465814
 31
0.0
  0
LINE
  5
392
100
AcDbEntity
  8
0
  6
Continuous
 62
     8
100
AcDbLine
 10
210.324389
 20
184.465814
 30
0.0
 11
231.65645
 21
184.465814
 31
0.0
  0
LINE
  5
393
100
AcDbEntity
  8
0
  6
Continuous
 62
     8
100
AcDbLine
 10
237.656111
 20
184.465814
 30
0.0
 11
239.655597
 21
184.465814
 31
0.0
  0
LINE
  5
394
100
AcDbEntity
  8
0
  6
Continuous
 62
     8
100
AcDbLine
 10
245.655258
 20
184.465814
 30
0.0
 11
266.987319
 21
184.465814
 31
0.0
  0
LINE
  5
395
100
AcDbEntity
  8
0
  6
Continuous
 62
     8
100
AcDbLine
 10
272.98698
 20
184.465814
 30
0.0
 11
274.987068
 21
184.465814
 31
0.0
  0
LINE
  5
396
100
AcDbEntity
  8
0
  6
Continuous
 62
     8
100
AcDbLine
 10
280.986729
 20
184.465814
 30
0.0
 11
302.31879
 21
184.465814
 31
0.0
  0
LINE
  5
397
100
AcDbEntity
  8
0
  6
Continuous
 62
     8
100
AcDbLine
 10
318.317685
 20
184.465814
 30
0.0
 11
335.150301
 21
184.465814
 31
0.0
  0
LINE
  5
398
100
AcDbEntity
  8
0
  6
Continuous
 62
     8
100
AcDbLine
 10
341.149361
 20
184.465814
 30
0.0
 11
343.149448
 21
184.465814
 31
0.0
  0
LINE
  5
399
100
AcDbEntity
  8
0
  6
Continuous
 62
     8
100
AcDbLine
 10
349.149109
 20
184.465814
 30
0.0
 11
365.981725
 21
184.465814
 31
0.0
  0
LINE
  5
39A
100
AcDbEntity
  8
0
  6
Continuous
 62
     8
100
AcDbLine
 10
371.981386
 20
184.465814
 30
0.0
 11
373.980872
 21
184.465814
 31
0.0
  0
LINE
  5
39B
100
AcDbEntity
  8
0
  6
Continuous
 62
     8
100
AcDbLine
 10
379.980533
 20
184.465814
 30
0.0
 11
396.813149
 21
184.465814
 31
0.0
  0
LINE
  5
39C
100
AcDbEntity
  8
0
  6
Continuous
 62
     8
100
AcDbLine
 10
412.812045
 20
184.465814
 30
0.0
 11
433.810858
 21
184.465814
 31
0.0
  0
LINE
  5
39D
100
AcDbEntity
  8
0
  6
Continuous
 62
     8
100
AcDbLine
 10
439.810519
 20
184.465814
 30
0.0
 11
441.810005
 21
184.465814
 31
0.0
  0
LINE
  5
39E
100
AcDbEntity
  8
0
  6
Continuous
 62
     8
100
AcDbLine
 10
447.809666
 20
184.465814
 30
0.0
 11
468.808479
 21
184.465814
 31
0.0
  0
LINE
  5
39F
100
AcDbEntity
  8
0
  6
Continuous
 62
     8
100
AcDbLine
 10
484.807375
 20
184.465814
 30
0.0
 11
501.639991
 21
184.465814
 31
0.0
  0
LINE
  5
3A0
100
AcDbEntity
  8
0
  6
Continuous
 62
     8
100
AcDbLine
 10
507.639652
 20
184.465814
 30
0.0
 11
509.639138
 21
184.465814
 31
0.0
  0
LINE
  5
3A1
100
AcDbEntity
  8
0
  6
Continuous
 62
     8
100
AcDbLine
 10
515.638799
 20
184.465814
 30
0.0
 11
532.471415
 21
184.465814
 31
0.0
  0
LINE
  5
3A2
100
AcDbEntity
  8
0
  6
Continuous
 62
     8
100
AcDbLine
 10
538.471076
 20
184.465814
 30
0.0
 11
540.470562
 21
184.465814
 31
0.0
  0
LINE
  5
3A3
100
AcDbEntity
  8
0
  6
Continuous
 62
     8
100
AcDbLine
 10
546.470223
 20
184.465814
 30
0.0
 11
563.302839
 21
184.465814
 31
0.0
  0
LINE
  5
3A4
100
AcDbEntity
  8
0
  6
Continuous
 62
     8
100
AcDbLine
 10
579.301734
 20
184.465814
 30
0.0
 11
600.633795
 21
184.465814
 31
0.0
  0
LINE
  5
3A5
100
AcDbEntity
  8
0
  6
Continuous
 62
     8
100
AcDbLine
 10
606.633456
 20
184.465814
 30
0.0
 11
608.632942
 21
184.465814
 31
0.0
  0
LINE
  5
3A6
100
AcDbEntity
  8
0
  6
Continuous
 62
     8
100
AcDbLine
 10
614.632603
 20
184.465814
 30
0.0
 11
635.964664
 21
184.465814
 31
0.0
  0
LINE
  5
3A7
100
AcDbEntity
  8
0
  6
Continuous
 62
     8
100
AcDbLine
 10
641.964325
 20
184.465814
 30
0.0
 11
643.964413
 21
184.465814
 31
0.0
  0
LINE
  5
3A8
100
AcDbEntity
  8
0
  6
Continuous
 62
     8
100
AcDbLine
 10
649.964074
 20
184.465814
 30
0.0
 11
671.296135
 21
184.465814
 31
0.0
  0
LINE
  5
3A9
100
AcDbEntity
  8
0
  6
Continuous
 62
     8
100
AcDbLine
 10
687.29503
 20
184.465814
 30
0.0
 11
721.292908
 21
184.465814
 31
0.0
  0
ENDBLK
  5
3AA
100
AcDbEntity
  8
0
100
AcDbBlockEnd
  0
BLOCK
  5
3AD
100
AcDbEntity
  8
0
100
AcDbBlockBegin
  2
*B34
 70
     0
 10
0.0
 20
0.0
 30
0.0
  3
*B34
  1

  0
LINE
  5
3AE
100
AcDbEntity
  8
0
  6
Continuous
 62
     8
100
AcDbLine
 10
312.98091
 20
415.455769
 30
0.0
 11
322.317259
 21
415.455769
 31
0.0
  0
ENDBLK
  5
3AF
100
AcDbEntity
  8
0
100
AcDbBlockEnd
  0
BLOCK
  5
3B2
100
AcDbEntity
  8
0
100
AcDbBlockBegin
  2
*B35
 70
     0
 10
0.0
 20
0.0
 30
0.0
  3
*B35
  1

  0
LINE
  5
3B3
100
AcDbEntity
  8
0
  6
Continuous
 62
     8
100
AcDbLine
 10
431.810771
 20
344.958851
 30
0.0
 11
431.810771
 21
354.086468
 31
0.0
  0
ENDBLK
  5
3B4
100
AcDbEntity
  8
0
100
AcDbBlockEnd
  0
BLOCK
  5
3B7
100
AcDbEntity
  8
0
100
AcDbBlockBegin
  2
*B36
 70
     0
 10
0.0
 20
0.0
 30
0.0
  3
*B36
  1

  0
LINE
  5
3B8
100
AcDbEntity
  8
0
  6
Continuous
 62
     8
100
AcDbLine
 10
571.301986
 20
169.466662
 30
0.0
 11
571.301986
 21
176.466066
 31
0.0
  0
LINE
  5
3B9
100
AcDbEntity
  8
0
  6
Continuous
 62
     8
100
AcDbLine
 10
571.301986
 20
192.465563
 30
0.0
 11
571.301986
 21
199.464967
 31
0.0
  0
ENDBLK
  5
3BA
100
AcDbEntity
  8
0
100
AcDbBlockEnd
  0
BLOCK
  5
3BD
100
AcDbEntity
  8
0
100
AcDbBlockBegin
  2
*B37
 70
     0
 10
0.0
 20
0.0
 30
0.0
  3
*B37
  1

  0
LINE
  5
3BE
100
AcDbEntity
  8
0
  6
Continuous
 62
     8
100
AcDbLine
 10
137.991601
 20
433.454752
 30
0.0
 11
160.327615
 21
433.454752
 31
0.0
  0
ENDBLK
  5
3BF
100
AcDbEntity
  8
0
100
AcDbBlockEnd
  0
BLOCK
  5
3C2
100
AcDbEntity
  8
0
100
AcDbBlockBegin
  2
*B38
 70
     0
 10
0.0
 20
0.0
 30
0.0
  3
*B38
  1

  0
LINE
  5
3C3
100
AcDbEntity
  8
0
  6
Continuous
 62
     8
100
AcDbLine
 10
137.991601
 20
220.464382
 30
0.0
 11
160.327615
 21
220.464382
 31
0.0
  0
ENDBLK
  5
3C4
100
AcDbEntity
  8
0
100
AcDbBlockEnd
  0
BLOCK
  5
3C7
100
AcDbEntity
  8
0
100
AcDbBlockBegin
  2
*B39
 70
     0
 10
0.0
 20
0.0
 30
0.0
  3
*B39
  1

  0
LINE
  5
3C8
100
AcDbEntity
  8
0
  6
Continuous
 62
     8
100
AcDbLine
 10
512.805592
 20
122.097372
 30
0.0
 11
512.805592
 21
126.096945
 31
0.0
  0
LINE
  5
3C9
100
AcDbEntity
  8
0
  6
Continuous
 62
     8
100
AcDbLine
 10
512.805592
 20
126.096945
 30
0.0
 11
512.805592
 21
149.467592
 31
0.0
  0
LINE
  5
3CA
100
AcDbEntity
  8
0
  6
Continuous
 62
     8
100
AcDbLine
 10
512.805592
 20
165.466487
 30
0.0
 11
512.805592
 21
172.916437
 31
0.0
  0
ENDBLK
  5
3CB
100
AcDbEntity
  8
0
100
AcDbBlockEnd
  0
BLOCK
  5
3CE
100
AcDbEntity
  8
0
100
AcDbBlockBegin
  2
*B40
 70
     0
 10
0.0
 20
0.0
 30
0.0
  3
*B40
  1

  0
LINE
  5
3CF
100
AcDbEntity
  8
0
  6
Continuous
 62
     8
100
AcDbLine
 10
440.810262
 20
286.089508
 30
0.0
 11
440.810262
 21
290.089082
 31
0.0
  0
LINE
  5
3D0
100
AcDbEntity
  8
0
  6
Continuous
 62
     8
100
AcDbLine
 10
440.810262
 20
290.089082
 30
0.0
 11
440.810262
 21
310.524261
 31
0.0
  0
LINE
  5
3D1
100
AcDbEntity
  8
0
  6
Continuous
 62
     8
100
AcDbLine
 10
440.810262
 20
316.523922
 30
0.0
 11
440.810262
 21
318.52401
 31
0.0
  0
LINE
  5
3D2
100
AcDbEntity
  8
0
  6
Continuous
 62
     8
100
AcDbLine
 10
440.810262
 20
324.523671
 30
0.0
 11
440.810262
 21
344.958851
 31
0.0
  0
ENDBLK
  5
3D3
100
AcDbEntity
  8
0
100
AcDbBlockEnd
  0
BLOCK
  5
3D6
100
AcDbEntity
  8
0
100
AcDbBlockBegin
  2
*B41
 70
     0
 10
0.0
 20
0.0
 30
0.0
  3
*B41
  1

  0
LINE
  5
3D7
100
AcDbEntity
  8
0
  6
Continuous
 62
     8
100
AcDbLine
 10
553.303003
 20
122.097372
 30
0.0
 11
553.303003
 21
142.467586
 31
0.0
  0
ENDBLK
  5
3D8
100
AcDbEntity
  8
0
100
AcDbBlockEnd
  0
BLOCK
  5
3DB
100
AcDbEntity
  8
0
100
AcDbBlockBegin
  2
*B42
 70
     0
 10
0.0
 20
0.0
 30
0.0
  3
*B42
  1

  0
LINE
  5
3DC
100
AcDbEntity
  8
0
  6
Continuous
 62
     8
100
AcDbLine
 10
368.81433
 20
286.089508
 30
0.0
 11
368.81433
 21
290.089082
 31
0.0
  0
LINE
  5
3DD
100
AcDbEntity
  8
0
  6
Continuous
 62
     8
100
AcDbLine
 10
368.81433
 20
290.089082
 30
0.0
 11
368.81433
 21
305.162824
 31
0.0
  0
LINE
  5
3DE
100
AcDbEntity
  8
0
  6
Continuous
 62
     8
100
AcDbLine
 10
368.81433
 20
311.162485
 30
0.0
 11
368.81433
 21
313.162572
 31
0.0
  0
LINE
  5
3DF
100
AcDbEntity
  8
0
  6
Continuous
 62
     8
100
AcDbLine
 10
368.81433
 20
319.162233
 30
0.0
 11
368.81433
 21
334.235976
 31
0.0
  0
LINE
  5
3E0
100
AcDbEntity
  8
0
  6
Continuous
 62
     8
100
AcDbLine
 10
368.81433
 20
340.235636
 30
0.0
 11
368.81433
 21
342.235724
 31
0.0
  0
LINE
  5
3E1
100
AcDbEntity
  8
0
  6
Continuous
 62
     8
100
AcDbLine
 10
368.81433
 20
348.235385
 30
0.0
 11
368.81433
 21
363.309127
 31
0.0
  0
LINE
  5
3E2
100
AcDbEntity
  8
0
  6
Continuous
 62
     8
100
AcDbLine
 10
368.81433
 20
369.308788
 30
0.0
 11
368.81433
 21
371.308876
 31
0.0
  0
LINE
  5
3E3
100
AcDbEntity
  8
0
  6
Continuous
 62
     8
100
AcDbLine
 10
368.81433
 20
377.308537
 30
0.0
 11
368.81433
 21
392.382279
 31
0.0
  0
LINE
  5
3E4
100
AcDbEntity
  8
0
  6
Continuous
 62
     8
100
AcDbLine
 10
368.81433
 20
398.38194
 30
0.0
 11
368.81433
 21
400.382027
 31
0.0
  0
LINE
  5
3E5
100
AcDbEntity
  8
0
  6
Continuous
 62
     8
100
AcDbLine
 10
368.81433
 20
406.381688
 30
0.0
 11
368.81433
 21
421.45543
 31
0.0
  0
ENDBLK
  5
3E6
100
AcDbEntity
  8
0
100
AcDbBlockEnd
  0
BLOCK
  5
3E9
100
AcDbEntity
  8
0
100
AcDbBlockBegin
  2
*B43
 70
     0
 10
0.0
 20
0.0
 30
0.0
  3
*B43
  1

  0
LINE
  5
3EA
100
AcDbEntity
  8
0
  6
Continuous
 62
     8
100
AcDbLine
 10
328.31692
 20
258.090689
 30
0.0
 11
328.31692
 21
310.460499
 31
0.0
  0
ENDBLK
  5
3EB
100
AcDbEntity
  8
0
100
AcDbBlockEnd
  0
BLOCK
  5
3EE
100
AcDbEntity
  8
0
100
AcDbBlockBegin
  2
*B44
 70
     0
 10
0.0
 20
0.0
 30
0.0
  3
*B44
  1

  0
LINE
  5
3EF
100
AcDbEntity
  8
0
  6
Continuous
 62
     8
100
AcDbLine
 10
166.327276
 20
439.454413
 30
0.0
 11
166.327276
 21
502.079108
 31
0.0
  0
ENDBLK
  5
3F0
100
AcDbEntity
  8
0
100
AcDbBlockEnd
  0
BLOCK
  5
3F3
100
AcDbEntity
  8
0
100
AcDbBlockBegin
  2
*B45
 70
     0
 10
0.0
 20
0.0
 30
0.0
  3
*B45
  1

  0
LINE
  5
3F4
100
AcDbEntity
  8
0
  6
Continuous
 62
     8
100
AcDbLine
 10
553.303003
 20
258.090689
 30
0.0
 11
553.303003
 21
310.460499
 31
0.0
  0
LINE
  5
3F5
100
AcDbEntity
  8
0
  6
Continuous
 62
     8
100
AcDbLine
 10
553.303003
 20
421.45543
 30
0.0
 11
553.303003
 21
474.08089
 31
0.0
  0
ENDBLK
  5
3F6
100
AcDbEntity
  8
0
100
AcDbBlockEnd
  0
BLOCK
  5
3F9
100
AcDbEntity
  8
0
100
AcDbBlockBegin
  2
*B46
 70
     0
 10
0.0
 20
0.0
 30
0.0
  3
*B46
  1

  0
LINE
  5
3FA
100
AcDbEntity
  8
0
  6
Continuous
 62
     8
100
AcDbLine
 10
449.809753
 20
344.958851
 30
0.0
 11
449.809753
 21
354.086468
 31
0.0
  0
ENDBLK
  5
3FB
100
AcDbEntity
  8
0
100
AcDbBlockEnd
  0
BLOCK
  5
3FE
100
AcDbEntity
  8
0
100
AcDbBlockBegin
  2
*B47
 70
     0
 10
0.0
 20
0.0
 30
0.0
  3
*B47
  1

  0
LINE
  5
3FF
100
AcDbEntity
  8
0
  6
Continuous
 62
     8
100
AcDbLine
 10
368.81433
 20
122.097372
 30
0.0
 11
368.81433
 21
126.096945
 31
0.0
  0
LINE
  5
400
100
AcDbEntity
  8
0
  6
Continuous
 62
     8
100
AcDbLine
 10
368.81433
 20
126.096945
 30
0.0
 11
368.81433
 21
142.553605
 31
0.0
  0
LINE
  5
401
100
AcDbEntity
  8
0
  6
Continuous
 62
     8
100
AcDbLine
 10
368.81433
 20
148.553266
 30
0.0
 11
368.81433
 21
150.552752
 31
0.0
  0
LINE
  5
402
100
AcDbEntity
  8
0
  6
Continuous
 62
     8
100
AcDbLine
 10
368.81433
 20
156.553014
 30
0.0
 11
368.81433
 21
173.009073
 31
0.0
  0
LINE
  5
403
100
AcDbEntity
  8
0
  6
Continuous
 62
     8
100
AcDbLine
 10
368.81433
 20
179.008734
 30
0.0
 11
368.81433
 21
181.008821
 31
0.0
  0
LINE
  5
404
100
AcDbEntity
  8
0
  6
Continuous
 62
     8
100
AcDbLine
 10
368.81433
 20
187.008482
 30
0.0
 11
368.81433
 21
203.465142
 31
0.0
  0
LINE
  5
405
100
AcDbEntity
  8
0
  6
Continuous
 62
     8
100
AcDbLine
 10
368.81433
 20
219.464037
 30
0.0
 11
368.81433
 21
226.913987
 31
0.0
  0
ENDBLK
  5
406
100
AcDbEntity
  8
0
100
AcDbBlockEnd
  0
BLOCK
  5
409
100
AcDbEntity
  8
0
100
AcDbBlockBegin
  2
*B48
 70
     0
 10
0.0
 20
0.0
 30
0.0
  3
*B48
  1

  0
LINE
  5
40A
100
AcDbEntity
  8
0
  6
Continuous
 62
     8
100
AcDbLine
 10
310.317937
 20
169.466662
 30
0.0
 11
310.317937
 21
176.466066
 31
0.0
  0
LINE
  5
40B
100
AcDbEntity
  8
0
  6
Continuous
 62
     8
100
AcDbLine
 10
310.317937
 20
192.465563
 30
0.0
 11
310.317937
 21
199.464967
 31
0.0
  0
ENDBLK
  5
40C
100
AcDbEntity
  8
0
100
AcDbBlockEnd
  0
BLOCK
  5
40F
100
AcDbEntity
  8
0
100
AcDbBlockBegin
  2
*B49
 70
     0
 10
0.0
 20
0.0
 30
0.0
  3
*B49
  1

  0
LINE
  5
410
100
AcDbEntity
  8
0
  6
Continuous
 62
     8
100
AcDbLine
 10
160.327615
 20
365.957664
 30
0.0
 11
176.58938
 21
365.957664
 31
0.0
  0
LINE
  5
411
100
AcDbEntity
  8
0
  6
Continuous
 62
     8
100
AcDbLine
 10
182.589041
 20
365.957664
 30
0.0
 11
184.589128
 21
365.957664
 31
0.0
  0
LINE
  5
412
100
AcDbEntity
  8
0
  6
Continuous
 62
     8
100
AcDbLine
 10
190.588789
 20
365.957664
 30
0.0
 11
206.851155
 21
365.957664
 31
0.0
  0
LINE
  5
413
100
AcDbEntity
  8
0
  6
Continuous
 62
     8
100
AcDbLine
 10
212.850214
 20
365.957664
 30
0.0
 11
214.850302
 21
365.957664
 31
0.0
  0
LINE
  5
414
100
AcDbEntity
  8
0
  6
Continuous
 62
     8
100
AcDbLine
 10
220.849962
 20
365.957664
 30
0.0
 11
237.112328
 21
365.957664
 31
0.0
  0
LINE
  5
415
100
AcDbEntity
  8
0
  6
Continuous
 62
     8
100
AcDbLine
 10
243.111989
 20
365.957664
 30
0.0
 11
245.111475
 21
365.957664
 31
0.0
  0
LINE
  5
416
100
AcDbEntity
  8
0
  6
Continuous
 62
     8
100
AcDbLine
 10
251.111136
 20
365.957664
 30
0.0
 11
267.373502
 21
365.957664
 31
0.0
  0
LINE
  5
417
100
AcDbEntity
  8
0
  6
Continuous
 62
     8
100
AcDbLine
 10
273.373163
 20
365.957664
 30
0.0
 11
275.37325
 21
365.957664
 31
0.0
  0
LINE
  5
418
100
AcDbEntity
  8
0
  6
Continuous
 62
     8
100
AcDbLine
 10
281.372911
 20
365.957664
 30
0.0
 11
297.634675
 21
365.957664
 31
0.0
  0
LINE
  5
419
100
AcDbEntity
  8
0
  6
Continuous
 62
     8
100
AcDbLine
 10
303.634336
 20
365.957664
 30
0.0
 11
305.634423
 21
365.957664
 31
0.0
  0
LINE
  5
41A
100
AcDbEntity
  8
0
  6
Continuous
 62
     8
100
AcDbLine
 10
311.634084
 20
365.957664
 30
0.0
 11
327.895849
 21
365.957664
 31
0.0
  0
LINE
  5
41B
100
AcDbEntity
  8
0
  6
Continuous
 62
     8
100
AcDbLine
 10
333.895509
 20
365.957664
 30
0.0
 11
335.895597
 21
365.957664
 31
0.0
  0
LINE
  5
41C
100
AcDbEntity
  8
0
  6
Continuous
 62
     8
100
AcDbLine
 10
341.895258
 20
365.957664
 30
0.0
 11
358.157624
 21
365.957664
 31
0.0
  0
LINE
  5
41D
100
AcDbEntity
  8
0
  6
Continuous
 62
     8
100
AcDbLine
 10
364.157284
 20
365.957664
 30
0.0
 11
366.15677
 21
365.957664
 31
0.0
  0
LINE
  5
41E
100
AcDbEntity
  8
0
  6
Continuous
 62
     8
100
AcDbLine
 10
372.156431
 20
365.957664
 30
0.0
 11
388.418797
 21
365.957664
 31
0.0
  0
LINE
  5
41F
100
AcDbEntity
  8
0
  6
Continuous
 62
     8
100
AcDbLine
 10
394.418458
 20
365.957664
 30
0.0
 11
396.417944
 21
365.957664
 31
0.0
  0
LINE
  5
420
100
AcDbEntity
  8
0
  6
Continuous
 62
     8
100
AcDbLine
 10
402.417605
 20
365.957664
 30
0.0
 11
418.679971
 21
365.957664
 31
0.0
  0
LINE
  5
421
100
AcDbEntity
  8
0
  6
Continuous
 62
     8
100
AcDbLine
 10
424.679631
 20
365.957664
 30
0.0
 11
426.679719
 21
365.957664
 31
0.0
  0
LINE
  5
422
100
AcDbEntity
  8
0
  6
Continuous
 62
     8
100
AcDbLine
 10
432.67938
 20
365.957664
 30
0.0
 11
448.941144
 21
365.957664
 31
0.0
  0
LINE
  5
423
100
AcDbEntity
  8
0
  6
Continuous
 62
     8
100
AcDbLine
 10
454.940805
 20
365.957664
 30
0.0
 11
456.940892
 21
365.957664
 31
0.0
  0
LINE
  5
424
100
AcDbEntity
  8
0
  6
Continuous
 62
     8
100
AcDbLine
 10
462.940553
 20
365.957664
 30
0.0
 11
479.202317
 21
365.957664
 31
0.0
  0
LINE
  5
425
100
AcDbEntity
  8
0
  6
Continuous
 62
     8
100
AcDbLine
 10
485.201978
 20
365.957664
 30
0.0
 11
487.202066
 21
365.957664
 31
0.0
  0
LINE
  5
426
100
AcDbEntity
  8
0
  6
Continuous
 62
     8
100
AcDbLine
 10
493.201727
 20
365.957664
 30
0.0
 11
509.464092
 21
365.957664
 31
0.0
  0
LINE
  5
427
100
AcDbEntity
  8
0
  6
Continuous
 62
     8
100
AcDbLine
 10
515.463753
 20
365.957664
 30
0.0
 11
517.463239
 21
365.957664
 31
0.0
  0
LINE
  5
428
100
AcDbEntity
  8
0
  6
Continuous
 62
     8
100
AcDbLine
 10
523.4629
 20
365.957664
 30
0.0
 11
539.725266
 21
365.957664
 31
0.0
  0
LINE
  5
429
100
AcDbEntity
  8
0
  6
Continuous
 62
     8
100
AcDbLine
 10
545.724927
 20
365.957664
 30
0.0
 11
547.724413
 21
365.957664
 31
0.0
  0
LINE
  5
42A
100
AcDbEntity
  8
0
  6
Continuous
 62
     8
100
AcDbLine
 10
553.724074
 20
365.957664
 30
0.0
 11
569.986439
 21
365.957664
 31
0.0
  0
LINE
  5
42B
100
AcDbEntity
  8
0
  6
Continuous
 62
     8
100
AcDbLine
 10
575.9861
 20
365.957664
 30
0.0
 11
577.986188
 21
365.957664
 31
0.0
  0
LINE
  5
42C
100
AcDbEntity
  8
0
  6
Continuous
 62
     8
100
AcDbLine
 10
583.985849
 20
365.957664
 30
0.0
 11
600.247613
 21
365.957664
 31
0.0
  0
LINE
  5
42D
100
AcDbEntity
  8
0
  6
Continuous
 62
     8
100
AcDbLine
 10
606.247274
 20
365.957664
 30
0.0
 11
608.247361
 21
365.957664
 31
0.0
  0
LINE
  5
42E
100
AcDbEntity
  8
0
  6
Continuous
 62
     8
100
AcDbLine
 10
614.247022
 20
365.957664
 30
0.0
 11
630.508786
 21
365.957664
 31
0.0
  0
LINE
  5
42F
100
AcDbEntity
  8
0
  6
Continuous
 62
     8
100
AcDbLine
 10
636.508447
 20
365.957664
 30
0.0
 11
638.508535
 21
365.957664
 31
0.0
  0
LINE
  5
430
100
AcDbEntity
  8
0
  6
Continuous
 62
     8
100
AcDbLine
 10
644.508196
 20
365.957664
 30
0.0
 11
660.770561
 21
365.957664
 31
0.0
  0
LINE
  5
431
100
AcDbEntity
  8
0
  6
Continuous
 62
     8
100
AcDbLine
 10
666.770222
 20
365.957664
 30
0.0
 11
668.769708
 21
365.957664
 31
0.0
  0
LINE
  5
432
100
AcDbEntity
  8
0
  6
Continuous
 62
     8
100
AcDbLine
 10
674.769369
 20
365.957664
 30
0.0
 11
691.031735
 21
365.957664
 31
0.0
  0
LINE
  5
433
100
AcDbEntity
  8
0
  6
Continuous
 62
     8
100
AcDbLine
 10
697.031396
 20
365.957664
 30
0.0
 11
699.030882
 21
365.957664
 31
0.0
  0
LINE
  5
434
100
AcDbEntity
  8
0
  6
Continuous
 62
     8
100
AcDbLine
 10
705.030543
 20
365.957664
 30
0.0
 11
721.292908
 21
365.957664
 31
0.0
  0
ENDBLK
  5
435
100
AcDbEntity
  8
0
100
AcDbBlockEnd
  0
BLOCK
  5
438
100
AcDbEntity
  8
0
100
AcDbBlockBegin
  2
*B50
 70
     0
 10
0.0
 20
0.0
 30
0.0
  3
*B50
  1

  0
LINE
  5
439
100
AcDbEntity
  8
0
  6
Continuous
 62
     8
100
AcDbLine
 10
715.293247
 20
439.454413
 30
0.0
 11
715.293247
 21
502.079108
 31
0.0
  0
ENDBLK
  5
43A
100
AcDbEntity
  8
0
100
AcDbBlockEnd
  0
BLOCK
  5
43D
100
AcDbEntity
  8
0
100
AcDbBlockBegin
  2
*B51
 70
     0
 10
0.0
 20
0.0
 30
0.0
  3
*B51
  1

  0
LINE
  5
43E
100
AcDbEntity
  8
0
  6
Continuous
 62
     8
100
AcDbLine
 10
512.805592
 20
286.089508
 30
0.0
 11
512.805592
 21
290.089082
 31
0.0
  0
LINE
  5
43F
100
AcDbEntity
  8
0
  6
Continuous
 62
     8
100
AcDbLine
 10
512.805592
 20
290.089082
 30
0.0
 11
512.805592
 21
305.162824
 31
0.0
  0
LINE
  5
440
100
AcDbEntity
  8
0
  6
Continuous
 62
     8
100
AcDbLine
 10
512.805592
 20
311.162485
 30
0.0
 11
512.805592
 21
313.162572
 31
0.0
  0
LINE
  5
441
100
AcDbEntity
  8
0
  6
Continuous
 62
     8
100
AcDbLine
 10
512.805592
 20
319.162233
 30
0.0
 11
512.805592
 21
334.235976
 31
0.0
  0
LINE
  5
442
100
AcDbEntity
  8
0
  6
Continuous
 62
     8
100
AcDbLine
 10
512.805592
 20
340.235636
 30
0.0
 11
512.805592
 21
342.235724
 31
0.0
  0
LINE
  5
443
100
AcDbEntity
  8
0
  6
Continuous
 62
     8
100
AcDbLine
 10
512.805592
 20
348.235385
 30
0.0
 11
512.805592
 21
363.309127
 31
0.0
  0
LINE
  5
444
100
AcDbEntity
  8
0
  6
Continuous
 62
     8
100
AcDbLine
 10
512.805592
 20
369.308788
 30
0.0
 11
512.805592
 21
371.308876
 31
0.0
  0
LINE
  5
445
100
AcDbEntity
  8
0
  6
Continuous
 62
     8
100
AcDbLine
 10
512.805592
 20
377.308537
 30
0.0
 11
512.805592
 21
392.382279
 31
0.0
  0
LINE
  5
446
100
AcDbEntity
  8
0
  6
Continuous
 62
     8
100
AcDbLine
 10
512.805592
 20
398.38194
 30
0.0
 11
512.805592
 21
400.382027
 31
0.0
  0
LINE
  5
447
100
AcDbEntity
  8
0
  6
Continuous
 62
     8
100
AcDbLine
 10
512.805592
 20
406.381688
 30
0.0
 11
512.805592
 21
421.45543
 31
0.0
  0
ENDBLK
  5
448
100
AcDbEntity
  8
0
100
AcDbBlockEnd
  0
BLOCK
  5
44B
100
AcDbEntity
  8
0
100
AcDbBlockBegin
  2
*B52
 70
     0
 10
0.0
 20
0.0
 30
0.0
  3
*B52
  1

  0
LINE
  5
44C
100
AcDbEntity
  8
0
  6
Continuous
 62
     8
100
AcDbLine
 10
344.978701
 20
211.464289
 30
0.0
 11
348.978876
 21
211.464289
 31
0.0
  0
LINE
  5
44D
100
AcDbEntity
  8
0
  6
Continuous
 62
     8
100
AcDbLine
 10
348.978876
 20
211.464289
 30
0.0
 11
360.815183
 21
211.464289
 31
0.0
  0
LINE
  5
44E
100
AcDbEntity
  8
0
  6
Continuous
 62
     8
100
AcDbLine
 10
376.814079
 20
211.464289
 30
0.0
 11
384.263427
 21
211.464289
 31
0.0
  0
ENDBLK
  5
44F
100
AcDbEntity
  8
0
100
AcDbBlockEnd
  0
BLOCK
  5
452
100
AcDbEntity
  8
0
100
AcDbBlockBegin
  2
*B53
 70
     0
 10
0.0
 20
0.0
 30
0.0
  3
*B53
  1

  0
LINE
  5
453
100
AcDbEntity
  8
0
  6
Continuous
 62
     6
100
AcDbLine
 10
476.808228
 20
182.465727
 30
0.0
 11
476.808228
 21
186.465902
 31
0.0
  0
LINE
  5
454
100
AcDbEntity
  8
0
  6
Continuous
 62
     6
100
AcDbLine
 10
474.80814
 20
184.465814
 30
0.0
 11
478.807714
 21
184.465814
 31
0.0
  0
ENDBLK
  5
455
100
AcDbEntity
  8
0
100
AcDbBlockEnd
  0
BLOCK
  5
458
100
AcDbEntity
  8
0
100
AcDbBlockBegin
  2
*B54
 70
     0
 10
0.0
 20
0.0
 30
0.0
  3
*B54
  1

  0
LINE
  5
459
100
AcDbEntity
  8
0
  6
Continuous
 62
     6
100
AcDbLine
 10
404.812296
 20
182.465727
 30
0.0
 11
404.812296
 21
186.465902
 31
0.0
  0
LINE
  5
45A
100
AcDbEntity
  8
0
  6
Continuous
 62
     6
100
AcDbLine
 10
402.81281
 20
184.465814
 30
0.0
 11
406.812384
 21
184.465814
 31
0.0
  0
ENDBLK
  5
45B
100
AcDbEntity
  8
0
100
AcDbBlockEnd
  0
BLOCK
  5
45E
100
AcDbEntity
  8
0
100
AcDbBlockBegin
  2
*B55
 70
     0
 10
0.0
 20
0.0
 30
0.0
  3
*B55
  1

  0
LINE
  5
45F
100
AcDbEntity
  8
0
  6
Continuous
 62
     6
100
AcDbLine
 10
569.3025
 20
184.465814
 30
0.0
 11
573.302073
 21
184.465814
 31
0.0
  0
LINE
  5
460
100
AcDbEntity
  8
0
  6
Continuous
 62
     6
100
AcDbLine
 10
571.301986
 20
182.465727
 30
0.0
 11
571.301986
 21
186.465902
 31
0.0
  0
ENDBLK
  5
461
100
AcDbEntity
  8
0
100
AcDbBlockEnd
  0
BLOCK
  5
464
100
AcDbEntity
  8
0
100
AcDbBlockBegin
  2
*B56
 70
     0
 10
0.0
 20
0.0
 30
0.0
  3
*B56
  1

  0
LINE
  5
465
100
AcDbEntity
  8
0
  6
Continuous
 62
     6
100
AcDbLine
 10
679.295282
 20
182.465727
 30
0.0
 11
679.295282
 21
186.465902
 31
0.0
  0
LINE
  5
466
100
AcDbEntity
  8
0
  6
Continuous
 62
     6
100
AcDbLine
 10
677.295796
 20
184.465814
 30
0.0
 11
681.295369
 21
184.465814
 31
0.0
  0
ENDBLK
  5
467
100
AcDbEntity
  8
0
100
AcDbBlockEnd
  0
BLOCK
  5
46A
100
AcDbEntity
  8
0
100
AcDbBlockBegin
  2
*B57
 70
     0
 10
0.0
 20
0.0
 30
0.0
  3
*B57
  1

  0
LINE
  5
46B
100
AcDbEntity
  8
0
  6
Continuous
 62
     6
100
AcDbLine
 10
510.806106
 20
157.46734
 30
0.0
 11
514.80568
 21
157.46734
 31
0.0
  0
LINE
  5
46C
100
AcDbEntity
  8
0
  6
Continuous
 62
     6
100
AcDbLine
 10
512.805592
 20
155.467252
 30
0.0
 11
512.805592
 21
159.466826
 31
0.0
  0
ENDBLK
  5
46D
100
AcDbEntity
  8
0
100
AcDbBlockEnd
  0
BLOCK
  5
470
100
AcDbEntity
  8
0
100
AcDbBlockBegin
  2
*B58
 70
     0
 10
0.0
 20
0.0
 30
0.0
  3
*B58
  1

  0
LINE
  5
471
100
AcDbEntity
  8
0
  6
Continuous
 62
     6
100
AcDbLine
 10
308.318451
 20
184.465814
 30
0.0
 11
312.318024
 21
184.465814
 31
0.0
  0
LINE
  5
472
100
AcDbEntity
  8
0
  6
Continuous
 62
     6
100
AcDbLine
 10
310.317937
 20
182.465727
 30
0.0
 11
310.317937
 21
186.465902
 31
0.0
  0
ENDBLK
  5
473
100
AcDbEntity
  8
0
100
AcDbBlockEnd
  0
BLOCK
  5
476
100
AcDbEntity
  8
0
100
AcDbBlockBegin
  2
*B59
 70
     0
 10
0.0
 20
0.0
 30
0.0
  3
*B59
  1

  0
LINE
  5
477
100
AcDbEntity
  8
0
  6
Continuous
 62
     6
100
AcDbLine
 10
202.324641
 20
182.465727
 30
0.0
 11
202.324641
 21
186.465902
 31
0.0
  0
LINE
  5
478
100
AcDbEntity
  8
0
  6
Continuous
 62
     6
100
AcDbLine
 10
200.325155
 20
184.465814
 30
0.0
 11
204.324728
 21
184.465814
 31
0.0
  0
ENDBLK
  5
479
100
AcDbEntity
  8
0
100
AcDbBlockEnd
  0
BLOCK
  5
47C
100
AcDbEntity
  8
0
100
AcDbBlockBegin
  2
*B60
 70
     0
 10
0.0
 20
0.0
 30
0.0
  3
*B60
  1

  0
LINE
  5
47D
100
AcDbEntity
  8
0
  6
Continuous
 62
     6
100
AcDbLine
 10
366.814844
 20
211.464289
 30
0.0
 11
370.814418
 21
211.464289
 31
0.0
  0
LINE
  5
47E
100
AcDbEntity
  8
0
  6
Continuous
 62
     6
100
AcDbLine
 10
368.81433
 20
209.464803
 30
0.0
 11
368.81433
 21
213.464376
 31
0.0
  0
ENDBLK
  5
47F
100
AcDbEntity
  8
0
100
AcDbBlockEnd
  0
BLOCK
  5
482
100
AcDbEntity
  8
0
100
AcDbBlockBegin
  2
*B61
 70
     0
 10
0.0
 20
0.0
 30
0.0
  3
*B61
  1

  0
LINE
  5
483
100
AcDbEntity
  8
0
  6
Continuous
 62
     0
100
AcDbLine
 10
416.920495
 20
233.341938
 30
0.0
 11
387.455747
 21
233.341938
 31
0.0
  0
LINE
  5
484
100
AcDbEntity
  8
0
  6
Continuous
 62
     0
100
AcDbLine
 10
387.455747
 20
233.341938
 30
0.0
 11
372.608782
 21
215.917416
 31
0.0
  0
SOLID
  5
485
100
AcDbEntity
  8
0
  6
Continuous
 62
     0
100
AcDbTrace
 10
377.571405
 20
224.825475
 30
0.0
 11
372.608782
 21
215.917416
 31
0.0
 12
380.615749
 22
222.231076
 32
0.0
 13
380.615749
 23
222.231076
 33
0.0
  0
ENDBLK
  5
486
100
AcDbEntity
  8
0
100
AcDbBlockEnd
  0
BLOCK
  5
489
100
AcDbEntity
  8
0
100
AcDbBlockBegin
  2
*B62
 70
     0
 10
0.0
 20
0.0
 30
0.0
  3
*B62
  1

  0
TEXT
  5
48A
100
AcDbEntity
  8
TEXT
  6
Continuous
 62
     0
100
AcDbText
 10
390.479167
 20
238.5
 30
0.0
 40
7.0
  1
%%c2,6
100
AcDbText
  0
ENDBLK
  5
48B
100
AcDbEntity
  8
0
100
AcDbBlockEnd
  0
BLOCK
  5
48E
100
AcDbEntity
  8
0
100
AcDbBlockBegin
  2
*B63
 70
     0
 10
0.0
 20
0.0
 30
0.0
  3
*B63
  1

  0
TEXT
  5
48F
100
AcDbEntity
  8
TEXT
  6
Continuous
 62
     0
100
AcDbText
 10
363.765799
 20
325.0
 30
0.0
 40
12.0
  1
5
100
AcDbText
  0
ENDBLK
  5
490
100
AcDbEntity
  8
0
100
AcDbBlockEnd
  0
BLOCK
  5
493
100
AcDbEntity
  8
0
100
AcDbBlockBegin
  2
*B64
 70
     0
 10
0.0
 20
0.0
 30
0.0
  3
*B64
  1

  0
TEXT
  5
494
100
AcDbEntity
  8
TEXT
  6
Continuous
 62
     0
100
AcDbText
 10
529.531599
 20
360.0
 30
0.0
 40
12.0
  1
12
100
AcDbText
  0
ENDBLK
  5
495
100
AcDbEntity
  8
0
100
AcDbBlockEnd
  0
BLOCK
  5
498
100
AcDbEntity
  8
0
100
AcDbBlockBegin
  2
*B65
 70
     0
 10
0.0
 20
0.0
 30
0.0
  3
*B65
  1

  0
TEXT
  5
499
100
AcDbEntity
  8
TEXT
  6
Continuous
 62
     0
100
AcDbText
 10
471.765799
 20
394.0
 30
0.0
 40
12.0
  1
2
100
AcDbText
  0
ENDBLK
  5
49A
100
AcDbEntity
  8
0
100
AcDbBlockEnd
  0
BLOCK
  5
49D
100
AcDbEntity
  8
0
100
AcDbBlockBegin
  2
*B66
 70
     0
 10
0.0
 20
0.0
 30
0.0
  3
*B66
  1

  0
TEXT
  5
49E
100
AcDbEntity
  8
TEXT
  6
Continuous
 62
     0
100
AcDbText
 10
333.531599
 20
360.0
 30
0.0
 40
12.0
  1
14
100
AcDbText
  0
ENDBLK
  5
49F
100
AcDbEntity
  8
0
100
AcDbBlockEnd
  0
BLOCK
  5
4A2
100
AcDbEntity
  8
0
100
AcDbBlockBegin
  2
*B67
 70
     0
 10
0.0
 20
0.0
 30
0.0
  3
*B67
  1

  0
TEXT
  5
4A3
100
AcDbEntity
  8
TEXT
  6
Continuous
 62
     0
100
AcDbText
 10
399.765799
 20
394.0
 30
0.0
 40
12.0
  1
4
100
AcDbText
  0
ENDBLK
  5
4A4
100
AcDbEntity
  8
0
100
AcDbBlockEnd
  0
BLOCK
  5
4A7
100
AcDbEntity
  8
0
100
AcDbBlockBegin
  2
*B68
 70
     0
 10
0.0
 20
0.0
 30
0.0
  3
*B68
  1

  0
TEXT
  5
4A8
100
AcDbEntity
  8
TEXT
  6
Continuous
 62
     0
100
AcDbText
 10
507.765799
 20
325.0
 30
0.0
 40
12.0
  1
3
100
AcDbText
  0
ENDBLK
  5
4A9
100
AcDbEntity
  8
0
100
AcDbBlockEnd
  0
BLOCK
  5
4AC
100
AcDbEntity
  8
0
100
AcDbBlockBegin
  2
*B69
 70
     0
 10
0.0
 20
0.0
 30
0.0
  3
*B69
  1

  0
TEXT
  5
4AD
100
AcDbEntity
  8
TEXT
  6
Continuous
 62
     0
100
AcDbText
 10
435.765799
 20
325.0
 30
0.0
 40
12.0
  1
1
100
AcDbText
  0
ENDBLK
  5
4AE
100
AcDbEntity
  8
0
100
AcDbBlockEnd
  0
BLOCK
  5
4B1
100
AcDbEntity
  8
0
100
AcDbBlockBegin
  2
*B70
 70
     0
 10
0.0
 20
0.0
 30
0.0
  3
*B70
  1

  0
TEXT
  5
4B2
100
AcDbEntity
  8
TEXT
  6
Continuous
 62
     0
100
AcDbText
 10
166.380297
 20
279.0
 30
0.0
 40
14.0
  1
180%%d
100
AcDbText
  0
ENDBLK
  5
4B3
100
AcDbEntity
  8
0
100
AcDbBlockEnd
  0
BLOCK
  5
4B6
100
AcDbEntity
  8
0
100
AcDbBlockBegin
  2
*B71
 70
     0
 10
0.0
 20
0.0
 30
0.0
  3
*B71
  1

  0
TEXT
  5
4B7
100
AcDbEntity
  8
TEXT
  6
Continuous
 62
     0
100
AcDbText
 10
508.420452
 20
475.5
 30
0.0
 40
7.0
  1
17
100
AcDbText
  0
ENDBLK
  5
4B8
100
AcDbEntity
  8
0
100
AcDbBlockEnd
  0
BLOCK
  5
4BB
100
AcDbEntity
  8
0
100
AcDbBlockBegin
  2
*B72
 70
     0
 10
0.0
 20
0.0
 30
0.0
  3
*B72
  1

  0
TEXT
  5
4BC
100
AcDbEntity
  8
TEXT
  6
Continuous
 62
     0
100
AcDbText
 10
434.170452
 20
475.5
 30
0.0
 40
7.0
  1
16
100
AcDbText
  0
ENDBLK
  5
4BD
100
AcDbEntity
  8
0
100
AcDbBlockEnd
  0
BLOCK
  5
4C0
100
AcDbEntity
  8
0
100
AcDbBlockBegin
  2
*B73
 70
     0
 10
0.0
 20
0.0
 30
0.0
  3
*B73
  1

  0
TEXT
  5
4C1
100
AcDbEntity
  8
TEXT
  6
Continuous
 62
     0
100
AcDbText
 10
434.170452
 20
263.5
 30
0.0
 40
7.0
  1
50
100
AcDbText
  0
ENDBLK
  5
4C2
100
AcDbEntity
  8
0
100
AcDbBlockEnd
  0
BLOCK
  5
4C5
100
AcDbEntity
  8
0
100
AcDbBlockBegin
  2
*B74
 70
     0
 10
0.0
 20
0.0
 30
0.0
  3
*B74
  1

  0
TEXT
  5
4C6
100
AcDbEntity
  8
TEXT
  6
Continuous
 62
     0
100
AcDbText
 10
529.753785
 20
291.5
 30
0.0
 40
7.0
  1
9
100
AcDbText
  0
ENDBLK
  5
4C7
100
AcDbEntity
  8
0
100
AcDbBlockEnd
  0
BLOCK
  5
4CA
100
AcDbEntity
  8
0
100
AcDbBlockBegin
  2
*B75
 70
     0
 10
0.0
 20
0.0
 30
0.0
  3
*B75
  1

  0
TEXT
  5
4CB
100
AcDbEntity
  8
TEXT
  6
Continuous
 62
     0
100
AcDbText
 10
470.170452
 20
291.5
 30
0.0
 40
7.0
  1
16
100
AcDbText
  0
ENDBLK
  5
4CC
100
AcDbEntity
  8
0
100
AcDbBlockEnd
  0
BLOCK
  5
4CF
100
AcDbEntity
  8
0
100
AcDbBlockBegin
  2
*B76
 70
     0
 10
0.0
 20
0.0
 30
0.0
  3
*B76
  1

  0
TEXT
  5
4D0
100
AcDbEntity
  8
TEXT
  6
Continuous
 62
     0
100
AcDbText
 10
398.170452
 20
291.5
 30
0.0
 40
7.0
  1
16
100
AcDbText
  0
ENDBLK
  5
4D1
100
AcDbEntity
  8
0
100
AcDbBlockEnd
  0
BLOCK
  5
4D4
100
AcDbEntity
  8
0
100
AcDbBlockBegin
  2
*B77
 70
     0
 10
0.0
 20
0.0
 30
0.0
  3
*B77
  1

  0
TEXT
  5
4D5
100
AcDbEntity
  8
TEXT
  6
Continuous
 62
     0
100
AcDbText
 10
311.5
 20
359.205496
 30
0.0
 40
7.0
  1
22
 50
90.0
100
AcDbText
  0
ENDBLK
  5
4D6
100
AcDbEntity
  8
0
100
AcDbBlockEnd
  0
BLOCK
  5
4D9
100
AcDbEntity
  8
0
100
AcDbBlockBegin
  2
*B78
 70
     0
 10
0.0
 20
0.0
 30
0.0
  3
*B78
  1

  0
TEXT
  5
4DA
100
AcDbEntity
  8
TEXT
  6
Continuous
 62
     0
100
AcDbText
 10
434.170452
 20
127.5
 30
0.0
 40
7.0
  1
32
100
AcDbText
  0
ENDBLK
  5
4DB
100
AcDbEntity
  8
0
100
AcDbBlockEnd
  0
BLOCK
  5
4DE
100
AcDbEntity
  8
0
100
AcDbBlockBegin
  2
*B79
 70
     0
 10
0.0
 20
0.0
 30
0.0
  3
*B79
  1

  0
TEXT
  5
4DF
100
AcDbEntity
  8
TEXT
  6
Continuous
 62
     0
100
AcDbText
 10
343.5
 20
177.704909
 30
0.0
 40
7.0
  1
12
 50
90.0
100
AcDbText
  0
ENDBLK
  5
4E0
100
AcDbEntity
  8
0
100
AcDbBlockEnd
  0
BLOCK
  5
4E3
100
AcDbEntity
  8
0
100
AcDbBlockBegin
  2
*B80
 70
     0
 10
0.0
 20
0.0
 30
0.0
  3
*B80
  1

  0
TEXT
  5
4E4
100
AcDbEntity
  8
TEXT
  6
Continuous
 62
     0
100
AcDbText
 10
529.753785
 20
127.5
 30
0.0
 40
7.0
  1
9
100
AcDbText
  0
ENDBLK
  5
4E5
100
AcDbEntity
  8
0
100
AcDbBlockEnd
  0
BLOCK
  5
4E8
100
AcDbEntity
  8
0
100
AcDbBlockBegin
  2
*B81
 70
     0
 10
0.0
 20
0.0
 30
0.0
  3
*B81
  1

  0
TEXT
  5
4E9
100
AcDbEntity
  8
TEXT
  6
Continuous
 62
     0
100
AcDbText
 10
430.837118
 20
503.5
 30
0.0
 40
7.0
  1
122
100
AcDbText
  0
ENDBLK
  5
4EA
100
AcDbEntity
  8
0
100
AcDbBlockEnd
  0
BLOCK
  5
4ED
100
AcDbEntity
  8
0
100
AcDbBlockBegin
  2
*B82
 70
     0
 10
0.0
 20
0.0
 30
0.0
  3
*B82
  1

  0
TEXT
  5
4EE
100
AcDbEntity
  8
TEXT
  6
Continuous
 62
     0
100
AcDbText
 10
136.5
 20
368.205496
 30
0.0
 40
7.0
  1
26
 50
90.0
100
AcDbText
  0
ENDBLK
  5
4EF
100
AcDbEntity
  8
0
100
AcDbBlockEnd
  0
BLOCK
  5
4F2
100
AcDbEntity
  8
0
100
AcDbBlockBegin
  2
*B83
 70
     0
 10
0.0
 20
0.0
 30
0.0
  3
*B83
  1

  0
TEXT
  5
4F3
100
AcDbEntity
  8
TEXT
  6
Continuous
 62
     0
100
AcDbText
 10
465.079167
 20
355.5
 30
0.0
 40
7.0
  1
%%c4
100
AcDbText
  0
ENDBLK
  5
4F4
100
AcDbEntity
  8
0
100
AcDbBlockEnd
  0
BLOCK
  5
4F7
100
AcDbEntity
  8
0
100
AcDbBlockBegin
  2
*B84
 70
     0
 10
0.0
 20
0.0
 30
0.0
  3
*B84
  1

  0
TEXT
  5
4F8
100
AcDbEntity
  8
TEXT
  6
Continuous
 62
     0
100
AcDbText
 10
411.5
 20
443.5
 30
0.0
 40
7.0
  1
G1/8"
100
AcDbText
  0
ENDBLK
  5
4F9
100
AcDbEntity
  8
0
100
AcDbBlockEnd
  0
BLOCK
  5
4FC
100
AcDbEntity
  8
0
100
AcDbBlockBegin
  2
*B85
 70
     0
 10
0.0
 20
0.0
 30
0.0
  3
*B85
  1

  0
TEXT
  5
4FD
100
AcDbEntity
  8
TEXT
  6
Continuous
 62
     0
100
AcDbText
 10
136.5
 20
177.704909
 30
0.0
 40
7.0
  1
16
 50
90.0
100
AcDbText
  0
ENDBLK
  5
4FE
100
AcDbEntity
  8
0
100
AcDbBlockEnd
  0
ENDSEC
  0
SECTION
  2
ENTITIES
  0
INSERT
  5
219
100
AcDbEntity
  8
0
  6
Continuous
 62
   174
100
AcDbBlockReference
  2
*B1
 10
0.0
 20
0.0
 30
0.0
  0
INSERT
  5
2BD
100
AcDbEntity
  8
0
  6
Continuous
 62
   174
100
AcDbBlockReference
  2
*B2
 10
0.0
 20
0.0
 30
0.0
  0
INSERT
  5
2C3
100
AcDbEntity
  8
0
  6
Continuous
 62
   172
100
AcDbBlockReference
  2
*B3
 10
0.0
 20
0.0
 30
0.0
  0
INSERT
  5
2CE
100
AcDbEntity
  8
0
  6
Continuous
 62
   172
100
AcDbBlockReference
  2
*B4
 10
0.0
 20
0.0
 30
0.0
  0
INSERT
  5
2D8
100
AcDbEntity
  8
0
  6
Continuous
 62
     0
100
AcDbBlockReference
  2
*B6
 10
0.0
 20
0.0
 30
0.0
  0
INSERT
  5
2DF
100
AcDbEntity
  8
0
  6
Continuous
 62
     0
100
AcDbBlockReference
  2
*B7
 10
0.0
 20
0.0
 30
0.0
  0
INSERT
  5
2E6
100
AcDbEntity
  8
0
  6
Continuous
 62
     0
100
AcDbBlockReference
  2
*B8
 10
0.0
 20
0.0
 30
0.0
  0
INSERT
  5
2ED
100
AcDbEntity
  8
0
  6
Continuous
 62
     0
100
AcDbBlockReference
  2
*B9
 10
0.0
 20
0.0
 30
0.0
  0
INSERT
  5
2F4
100
AcDbEntity
  8
0
  6
Continuous
 62
     0
100
AcDbBlockReference
  2
*B10
 10
0.0
 20
0.0
 30
0.0
  0
INSERT
  5
2FB
100
AcDbEntity
  8
0
  6
Continuous
 62
     0
100
AcDbBlockReference
  2
*B11
 10
0.0
 20
0.0
 30
0.0
  0
INSERT
  5
302
100
AcDbEntity
  8
0
  6
Continuous
 62
     0
100
AcDbBlockReference
  2
*B12
 10
0.0
 20
0.0
 30
0.0
  0
INSERT
  5
309
100
AcDbEntity
  8
0
  6
Continuous
 62
     0
100
AcDbBlockReference
  2
*B13
 10
0.0
 20
0.0
 30
0.0
  0
INSERT
  5
310
100
AcDbEntity
  8
0
  6
Continuous
 62
     0
100
AcDbBlockReference
  2
*B14
 10
0.0
 20
0.0
 30
0.0
  0
INSERT
  5
317
100
AcDbEntity
  8
0
  6
Continuous
 62
     0
100
AcDbBlockReference
  2
*B15
 10
0.0
 20
0.0
 30
0.0
  0
INSERT
  5
31E
100
AcDbEntity
  8
0
  6
Continuous
 62
     0
100
AcDbBlockReference
  2
*B16
 10
0.0
 20
0.0
 30
0.0
  0
INSERT
  5
325
100
AcDbEntity
  8
0
  6
Continuous
 62
     0
100
AcDbBlockReference
  2
*B17
 10
0.0
 20
0.0
 30
0.0
  0
INSERT
  5
32C
100
AcDbEntity
  8
0
  6
Continuous
 62
     0
100
AcDbBlockReference
  2
*B18
 10
0.0
 20
0.0
 30
0.0
  0
INSERT
  5
333
100
AcDbEntity
  8
0
  6
Continuous
 62
     0
100
AcDbBlockReference
  2
*B19
 10
0.0
 20
0.0
 30
0.0
  0
INSERT
  5
33A
100
AcDbEntity
  8
0
  6
Continuous
 62
     0
100
AcDbBlockReference
  2
*B20
 10
0.0
 20
0.0
 30
0.0
  0
INSERT
  5
33F
100
AcDbEntity
  8
0
  6
Continuous
 62
     8
100
AcDbBlockReference
  2
*B21
 10
0.0
 20
0.0
 30
0.0
  0
INSERT
  5
344
100
AcDbEntity
  8
0
  6
Continuous
 62
     8
100
AcDbBlockReference
  2
*B22
 10
0.0
 20
0.0
 30
0.0
  0
INSERT
  5
34A
100
AcDbEntity
  8
0
  6
Continuous
 62
     8
100
AcDbBlockReference
  2
*B23
 10
0.0
 20
0.0
 30
0.0
  0
INSERT
  5
359
100
AcDbEntity
  8
0
  6
Continuous
 62
     8
100
AcDbBlockReference
  2
*B24
 10
0.0
 20
0.0
 30
0.0
  0
INSERT
  5
363
100
AcDbEntity
  8
0
  6
Continuous
 62
     8
100
AcDbBlockReference
  2
*B25
 10
0.0
 20
0.0
 30
0.0
  0
INSERT
  5
369
100
AcDbEntity
  8
0
  6
Continuous
 62
     8
100
AcDbBlockReference
  2
*B26
 10
0.0
 20
0.0
 30
0.0
  0
INSERT
  5
36E
100
AcDbEntity
  8
0
  6
Continuous
 62
     8
100
AcDbBlockReference
  2
*B27
 10
0.0
 20
0.0
 30
0.0
  0
INSERT
  5
378
100
AcDbEntity
  8
0
  6
Continuous
 62
     8
100
AcDbBlockReference
  2
*B28
 10
0.0
 20
0.0
 30
0.0
  0
INSERT
  5
37E
100
AcDbEntity
  8
0
  6
Continuous
 62
     8
100
AcDbBlockReference
  2
*B29
 10
0.0
 20
0.0
 30
0.0
  0
INSERT
  5
384
100
AcDbEntity
  8
0
  6
Continuous
 62
     8
100
AcDbBlockReference
  2
*B30
 10
0.0
 20
0.0
 30
0.0
  0
INSERT
  5
389
100
AcDbEntity
  8
0
  6
Continuous
 62
     8
100
AcDbBlockReference
  2
*B31
 10
0.0
 20
0.0
 30
0.0
  0
INSERT
  5
38E
100
AcDbEntity
  8
0
  6
Continuous
 62
     8
100
AcDbBlockReference
  2
*B32
 10
0.0
 20
0.0
 30
0.0
  0
INSERT
  5
3AB
100
AcDbEntity
  8
0
  6
Continuous
 62
     8
100
AcDbBlockReference
  2
*B33
 10
0.0
 20
0.0
 30
0.0
  0
INSERT
  5
3B0
100
AcDbEntity
  8
0
  6
Continuous
 62
     8
100
AcDbBlockReference
  2
*B34
 10
0.0
 20
0.0
 30
0.0
  0
INSERT
  5
3B5
100
AcDbEntity
  8
0
  6
Continuous
 62
     8
100
AcDbBlockReference
  2
*B35
 10
0.0
 20
0.0
 30
0.0
  0
INSERT
  5
3BB
100
AcDbEntity
  8
0
  6
Continuous
 62
     8
100
AcDbBlockReference
  2
*B36
 10
0.0
 20
0.0
 30
0.0
  0
INSERT
  5
3C0
100
AcDbEntity
  8
0
  6
Continuous
 62
     8
100
AcDbBlockReference
  2
*B37
 10
0.0
 20
0.0
 30
0.0
  0
INSERT
  5
3C5
100
AcDbEntity
  8
0
  6
Continuous
 62
     8
100
AcDbBlockReference
  2
*B38
 10
0.0
 20
0.0
 30
0.0
  0
INSERT
  5
3CC
100
AcDbEntity
  8
0
  6
Continuous
 62
     8
100
AcDbBlockReference
  2
*B39
 10
0.0
 20
0.0
 30
0.0
  0
INSERT
  5
3D4
100
AcDbEntity
  8
0
  6
Continuous
 62
     8
100
AcDbBlockReference
  2
*B40
 10
0.0
 20
0.0
 30
0.0
  0
INSERT
  5
3D9
100
AcDbEntity
  8
0
  6
Continuous
 62
     8
100
AcDbBlockReference
  2
*B41
 10
0.0
 20
0.0
 30
0.0
  0
INSERT
  5
3E7
100
AcDbEntity
  8
0
  6
Continuous
 62
     8
100
AcDbBlockReference
  2
*B42
 10
0.0
 20
0.0
 30
0.0
  0
INSERT
  5
3EC
100
AcDbEntity
  8
0
  6
Continuous
 62
     8
100
AcDbBlockReference
  2
*B43
 10
0.0
 20
0.0
 30
0.0
  0
INSERT
  5
3F1
100
AcDbEntity
  8
0
  6
Continuous
 62
     8
100
AcDbBlockReference
  2
*B44
 10
0.0
 20
0.0
 30
0.0
  0
INSERT
  5
3F7
100
AcDbEntity
  8
0
  6
Continuous
 62
     8
100
AcDbBlockReference
  2
*B45
 10
0.0
 20
0.0
 30
0.0
  0
INSERT
  5
3FC
100
AcDbEntity
  8
0
  6
Continuous
 62
     8
100
AcDbBlockReference
  2
*B46
 10
0.0
 20
0.0
 30
0.0
  0
INSERT
  5
407
100
AcDbEntity
  8
0
  6
Continuous
 62
     8
100
AcDbBlockReference
  2
*B47
 10
0.0
 20
0.0
 30
0.0
  0
INSERT
  5
40D
100
AcDbEntity
  8
0
  6
Continuous
 62
     8
100
AcDbBlockReference
  2
*B48
 10
0.0
 20
0.0
 30
0.0
  0
INSERT
  5
436
100
AcDbEntity
  8
0
  6
Continuous
 62
     8
100
AcDbBlockReference
  2
*B49
 10
0.0
 20
0.0
 30
0.0
  0
INSERT
  5
43B
100
AcDbEntity
  8
0
  6
Continuous
 62
     8
100
AcDbBlockReference
  2
*B50
 10
0.0
 20
0.0
 30
0.0
  0
INSERT
  5
449
100
AcDbEntity
  8
0
  6
Continuous
 62
     8
100
AcDbBlockReference
  2
*B51
 10
0.0
 20
0.0
 30
0.0
  0
INSERT
  5
450
100
AcDbEntity
  8
0
  6
Continuous
 62
     8
100
AcDbBlockReference
  2
*B52
 10
0.0
 20
0.0
 30
0.0
  0
INSERT
  5
456
100
AcDbEntity
  8
0
  6
Continuous
 62
     6
100
AcDbBlockReference
  2
*B53
 10
0.0
 20
0.0
 30
0.0
  0
INSERT
  5
45C
100
AcDbEntity
  8
0
  6
Continuous
 62
     6
100
AcDbBlockReference
  2
*B54
 10
0.0
 20
0.0
 30
0.0
  0
INSERT
  5
462
100
AcDbEntity
  8
0
  6
Continuous
 62
     6
100
AcDbBlockReference
  2
*B55
 10
0.0
 20
0.0
 30
0.0
  0
INSERT
  5
468
100
AcDbEntity
  8
0
  6
Continuous
 62
     6
100
AcDbBlockReference
  2
*B56
 10
0.0
 20
0.0
 30
0.0
  0
INSERT
  5
46E
100
AcDbEntity
  8
0
  6
Continuous
 62
     6
100
AcDbBlockReference
  2
*B57
 10
0.0
 20
0.0
 30
0.0
  0
INSERT
  5
474
100
AcDbEntity
  8
0
  6
Continuous
 62
     6
100
AcDbBlockReference
  2
*B58
 10
0.0
 20
0.0
 30
0.0
  0
INSERT
  5
47A
100
AcDbEntity
  8
0
  6
Continuous
 62
     6
100
AcDbBlockReference
  2
*B59
 10
0.0
 20
0.0
 30
0.0
  0
INSERT
  5
480
100
AcDbEntity
  8
0
  6
Continuous
 62
     6
100
AcDbBlockReference
  2
*B60
 10
0.0
 20
0.0
 30
0.0
  0
INSERT
  5
487
100
AcDbEntity
  8
0
  6
Continuous
 62
     0
100
AcDbBlockReference
  2
*B61
 10
0.0
 20
0.0
 30
0.0
  0
INSERT
  5
48C
100
AcDbEntity
  8
TEXT
  6
Continuous
 62
     0
100
AcDbBlockReference
  2
*B62
 10
0.0
 20
0.0
 30
0.0
  0
INSERT
  5
491
100
AcDbEntity
  8
TEXT
  6
Continuous
 62
     0
100
AcDbBlockReference
  2
*B63
 10
0.0
 20
0.0
 30
0.0
  0
INSERT
  5
496
100
AcDbEntity
  8
TEXT
  6
Continuous
 62
     0
100
AcDbBlockReference
  2
*B64
 10
0.0
 20
0.0
 30
0.0
  0
INSERT
  5
49B
100
AcDbEntity
  8
TEXT
  6
Continuous
 62
     0
100
AcDbBlockReference
  2
*B65
 10
0.0
 20
0.0
 30
0.0
  0
INSERT
  5
4A0
100
AcDbEntity
  8
TEXT
  6
Continuous
 62
     0
100
AcDbBlockReference
  2
*B66
 10
0.0
 20
0.0
 30
0.0
  0
INSERT
  5
4A5
100
AcDbEntity
  8
TEXT
  6
Continuous
 62
     0
100
AcDbBlockReference
  2
*B67
 10
0.0
 20
0.0
 30
0.0
  0
INSERT
  5
4AA
100
AcDbEntity
  8
TEXT
  6
Continuous
 62
     0
100
AcDbBlockReference
  2
*B68
 10
0.0
 20
0.0
 30
0.0
  0
INSERT
  5
4AF
100
AcDbEntity
  8
TEXT
  6
Continuous
 62
     0
100
AcDbBlockReference
  2
*B69
 10
0.0
 20
0.0
 30
0.0
  0
INSERT
  5
4B4
100
AcDbEntity
  8
TEXT
  6
Continuous
 62
     0
100
AcDbBlockReference
  2
*B70
 10
0.0
 20
0.0
 30
0.0
  0
INSERT
  5
4B9
100
AcDbEntity
  8
TEXT
  6
Continuous
 62
     0
100
AcDbBlockReference
  2
*B71
 10
0.0
 20
0.0
 30
0.0
  0
INSERT
  5
4BE
100
AcDbEntity
  8
TEXT
  6
Continuous
 62
     0
100
AcDbBlockReference
  2
*B72
 10
0.0
 20
0.0
 30
0.0
  0
INSERT
  5
4C3
100
AcDbEntity
  8
TEXT
  6
Continuous
 62
     0
100
AcDbBlockReference
  2
*B73
 10
0.0
 20
0.0
 30
0.0
  0
INSERT
  5
4C8
100
AcDbEntity
  8
TEXT
  6
Continuous
 62
     0
100
AcDbBlockReference
  2
*B74
 10
0.0
 20
0.0
 30
0.0
  0
INSERT
  5
4CD
100
AcDbEntity
  8
TEXT
  6
Continuous
 62
     0
100
AcDbBlockReference
  2
*B75
 10
0.0
 20
0.0
 30
0.0
  0
INSERT
  5
4D2
100
AcDbEntity
  8
TEXT
  6
Continuous
 62
     0
100
AcDbBlockReference
  2
*B76
 10
0.0
 20
0.0
 30
0.0
  0
INSERT
  5
4D7
100
AcDbEntity
  8
TEXT
  6
Continuous
 62
     0
100
AcDbBlockReference
  2
*B77
 10
0.0
 20
0.0
 30
0.0
  0
INSERT
  5
4DC
100
AcDbEntity
  8
TEXT
  6
Continuous
 62
     0
100
AcDbBlockReference
  2
*B78
 10
0.0
 20
0.0
 30
0.0
  0
INSERT
  5
4E1
100
AcDbEntity
  8
TEXT
  6
Continuous
 62
     0
100
AcDbBlockReference
  2
*B79
 10
0.0
 20
0.0
 30
0.0
  0
INSERT
  5
4E6
100
AcDbEntity
  8
TEXT
  6
Continuous
 62
     0
100
AcDbBlockReference
  2
*B80
 10
0.0
 20
0.0
 30
0.0
  0
INSERT
  5
4EB
100
AcDbEntity
  8
TEXT
  6
Continuous
 62
     0
100
AcDbBlockReference
  2
*B81
 10
0.0
 20
0.0
 30
0.0
  0
INSERT
  5
4F0
100
AcDbEntity
  8
TEXT
  6
Continuous
 62
     0
100
AcDbBlockReference
  2
*B82
 10
0.0
 20
0.0
 30
0.0
  0
INSERT
  5
4F5
100
AcDbEntity
  8
TEXT
  6
Continuous
 62
     0
100
AcDbBlockReference
  2
*B83
 10
0.0
 20
0.0
 30
0.0
  0
INSERT
  5
4FA
100
AcDbEntity
  8
TEXT
  6
Continuous
 62
     0
100
AcDbBlockReference
  2
*B84
 10
0.0
 20
0.0
 30
0.0
  0
INSERT
  5
4FF
100
AcDbEntity
  8
TEXT
  6
Continuous
 62
     0
100
AcDbBlockReference
  2
*B85
 10
0.0
 20
0.0
 30
0.0
  0
ENDSEC
  0
SECTION
  2
OBJECTS
  0
DICTIONARY
  5
19
100
AcDbDictionary
280
     0
281
     1
  3
ACAD_GROUP
350
1A
  3
ACAD_MLINESTYLE
350
1B
  3
ACAD_LAYOUT
350
1E
  3
ACAD_PLOTSETTINGS
350
22
  3
ACAD_PLOTSTYLENAME
350
1F
  3
ACAD_WIPEOUT_VARS
350
23
  0
DICTIONARY
  5
1A
102
{ACAD_REACTORS
330
19
102
}
100
AcDbDictionary
280
     0
281
     1
  0
DICTIONARY
  5
1B
102
{ACAD_REACTORS
330
19
102
}
100
AcDbDictionary
280
     0
281
     1
  3
Standard
350
1C
  0
MLINESTYLE
  5
1C
102
{ACAD_REACTORS
330
1B
102
}
100
AcDbMlineStyle
  2
Standard
 70
     0
  3

 62
     0
 51
90.0
 52
90.0
 71
     2
 49
0.5
 62
   256
  6
BYLAYER
 49
-0.5
 62
   256
  6
BYLAYER
  0
ACDBDICTIONARYWDFLT
  5
1F
102
{ACAD_REACTORS
330
19
102
}
100
AcDbDictionary
281
     1
  3
Normal
350
1D
100
AcDbDictionaryWithDefault
340
1D
  0
ACDBPLACEHOLDER
  5
1D
102
{ACAD_REACTORS
330
1F
102
}
  0
LAYOUT
  5
20
102
{ACAD_REACTORS
330
1E
102
}
100
AcDbPlotSettings
  1

  2

  4

  6

 40
0.0
 41
0.0
 42
0.0
 43
0.0
 44
0.0
 45
0.0
 46
0.0
 47
0.0
 48
0.0
 49
0.0
140
0.0
141
0.0
142
1.0
143
1.0
 70
     0
 72
     0
 73
     0
 74
     0
  7

 75
     0
147
1.0
148
0.0
149
0.0
100
AcDbLayout
  1
Model
 70
     0
 71
     0
 10
0.0
 20
0.0
 11
0.0
 21
0.0
 12
0.0
 22
0.0
 32
0.0
 14
0.0
 24
0.0
 34
0.0
 15
0.0
 25
0.0
 35
0.0
146
0.0
 13
0.0
 23
0.0
 33
0.0
 16
0.0
 26
0.0
 36
0.0
 17
0.0
 27
0.0
 37
0.0
 76
     0
330
A
331
0
345
0
346
0
  0
LAYOUT
  5
21
102
{ACAD_REACTORS
330
1E
102
}
100
AcDbPlotSettings
  1

  2

  4

  6

 40
0.0
 41
0.0
 42
0.0
 43
0.0
 44
0.0
 45
0.0
 46
0.0
 47
0.0
 48
0.0
 49
0.0
140
0.0
141
0.0
142
1.0
143
1.0
 70
     0
 72
     0
 73
     0
 74
     0
  7

 75
     0
147
1.0
148
0.0
149
0.0
100
AcDbLayout
  1
Layout1
 70
     0
 71
     0
 10
0.0
 20
0.0
 11
0.0
 21
0.0
 12
0.0
 22
0.0
 32
0.0
 14
0.0
 24
0.0
 34
0.0
 15
0.0
 25
0.0
 35
0.0
146
0.0
 13
0.0
 23
0.0
 33
0.0
 16
0.0
 26
0.0
 36
0.0
 17
0.0
 27
0.0
 37
0.0
 76
     0
330
B
331
0
345
0
346
0
  0
DICTIONARY
  5
1E
102
{ACAD_REACTORS
330
19
102
}
100
AcDbDictionary
280
     0
281
     1
  3
Layout1
350
21
  3
Model
350
20
  0
DICTIONARY
  5
22
102
{ACAD_REACTORS
330
19
102
}
100
AcDbDictionary
280
     0
281
     1
  0
WIPEOUTVARIABLES
  5
23
100
AcDbWipeoutVariables
 70
     1
  0
ENDSEC
  0
EOF
