  0
SECTION
  2
HEADER
  9
$ACADVER
  1
AC1015
  9
$ACADMAINTVER
 70
     6
  9
$DWGCODEPAGE
  3
DOS850
  9
$INSBASE
 10
0.0
 20
0.0
 30
0.0
  9
$EXTMIN
 10
0.0
 20
0.0
 30
0.0
  9
$EXTMAX
 10
841.0
 20
595.0
 30
0.0
  9
$LIMMIN
 10
0.0
 20
0.0
  9
$LIMMAX
 10
841.0
 20
595.0
  9
$ORTHOMODE
 70
     0
  9
$REGENMODE
 70
     1
  9
$FILLMODE
 70
     1
  9
$QTEXTMODE
 70
     0
  9
$MIRRTEXT
 70
     1
  9
$LTSCALE
 40
25.4
  9
$ATTMODE
 70
     1
  9
$TEXTSIZE
 40
3.5
  9
$TRACEWID
 40
0.05
  9
$TEXTSTYLE
  7
Standard
  9
$CLAYER
  8
0
  9
$CELTYPE
  6
Continuous
  9
$CECOLOR
 62
   256
  9
$CELTSCALE
 40
1.0
  9
$DISPSILH
 70
     0
  9
$DIMSCALE
 40
1.0
  9
$DIMASZ
 40
5.0
  9
$DIMEXO
 40
3.0
  9
$DIMDLI
 40
0.38
  9
$DIMRND
 40
0.0
  9
$DIMDLE
 40
0.0
  9
$DIMEXE
 40
2.0
  9
$DIMTP
 40
0.0
  9
$DIMTM
 40
0.0
  9
$DIMTXT
 40
3.5
  9
$DIMCEN
 40
4.0
  9
$DIMTSZ
 40
0.0
  9
$DIMTOL
 70
     0
  9
$DIMLIM
 70
     0
  9
$DIMTIH
 70
     1
  9
$DIMTOH
 70
     1
  9
$DIMSE1
 70
     0
  9
$DIMSE2
 70
     0
  9
$DIMTAD
 70
     0
  9
$DIMZIN
 70
     0
  9
$DIMBLK
  1

  9
$DIMASO
 70
     1
  9
$DIMSHO
 70
     1
  9
$DIMPOST
  1

  9
$DIMAPOST
  1

  9
$DIMALT
 70
     0
  9
$DIMALTD
 70
     2
  9
$DIMALTF
 40
25.4
  9
$DIMLFAC
 40
1.0
  9
$DIMTOFL
 70
     0
  9
$DIMTVP
 40
0.0
  9
$DIMTIX
 70
     0
  9
$DIMSOXD
 70
     0
  9
$DIMSAH
 70
     0
  9
$DIMBLK1
  1

  9
$DIMBLK2
  1

  9
$DIMSTYLE
  2
Standard
  9
$DIMCLRD
 70
     0
  9
$DIMCLRE
 70
     0
  9
$DIMCLRT
 70
     0
  9
$DIMTFAC
 40
1.0
  9
$DIMGAP
 40
1.0
  9
$DIMJUST
 70
     0
  9
$DIMSD1
 70
     0
  9
$DIMSD2
 70
     0
  9
$DIMTOLJ
 70
     1
  9
$DIMTZIN
 70
     0
  9
$DIMALTZ
 70
     0
  9
$DIMALTTZ
 70
     0
  9
$DIMUPT
 70
     0
  9
$DIMDEC
 70
     4
  9
$DIMTDEC
 70
     4
  9
$DIMALTU
 70
     2
  9
$DIMALTTD
 70
     2
  9
$DIMTXSTY
  7
Standard
  9
$DIMAUNIT
 70
     0
  9
$DIMADEC
 70
     0
  9
$DIMALTRND
 40
0.0
  9
$DIMAZIN
 70
     0
  9
$DIMDSEP
 70
     0
  9
$DIMATFIT
 70
     3
  9
$DIMFRAC
 70
     0
  9
$DIMLDRBLK
  1

  9
$DIMLUNIT
 70
     2
  9
$DIMLWD
 70
     0
  9
$DIMLWE
 70
     0
  9
$DIMTMOVE
 70
     0
  9
$LUNITS
 70
     2
  9
$LUPREC
 70
     4
  9
$SKETCHINC
 40
0.1
  9
$FILLETRAD
 40
0.0
  9
$AUNITS
 70
     0
  9
$AUPREC
 70
     0
  9
$MENU
  1
acad
  9
$ELEVATION
 40
0.0
  9
$PELEVATION
 40
0.0
  9
$THICKNESS
 40
0.0
  9
$LIMCHECK
 70
     0
  9
$CHAMFERA
 40
0.0
  9
$CHAMFERB
 40
0.0
  9
$CHAMFERC
 40
0.0
  9
$CHAMFERD
 40
0.0
  9
$SKPOLY
 70
     0
  9
$TDCREATE
 40
0.000000000
  9
$TDUCREATE
 40
0.000000000
  9
$TDUPDATE
 40
0.000000000
  9
$TDUUPDATE
 40
0.000000000
  9
$TDINDWG
 40
0.0000000000
  9
$TDUSRTIMER
 40
0.0000000000
  9
$USRTIMER
 70
     1
  9
$ANGBASE
 50
0.0
  9
$ANGDIR
 70
     0
  9
$PDMODE
 70
     0
  9
$PDSIZE
 40
0.0
  9
$PLINEWID
 40
0.0
  9
$SPLFRAME
 70
     0
  9
$SPLINETYPE
 70
     6
  9
$SPLINESEGS
 70
     8
  9
$HANDSEED
  5
57C
  9
$SURFTAB1
 70
     6
  9
$SURFTAB2
 70
     6
  9
$SURFTYPE
 70
     6
  9
$SURFU
 70
     6
  9
$SURFV
 70
     6
  9
$UCSBASE
  2

  9
$UCSNAME
  2

  9
$UCSORG
 10
0.0
 20
0.0
 30
0.0
  9
$UCSXDIR
 10
1.0
 20
0.0
 30
0.0
  9
$UCSYDIR
 10
0.0
 20
1.0
 30
0.0
  9
$UCSORTHOREF
  2

  9
$UCSORTHOVIEW
 70
     0
  9
$UCSORGTOP
 10
0.0
 20
0.0
 30
0.0
  9
$UCSORGBOTTOM
 10
0.0
 20
0.0
 30
0.0
  9
$UCSORGLEFT
 10
0.0
 20
0.0
 30
0.0
  9
$UCSORGRIGHT
 10
0.0
 20
0.0
 30
0.0
  9
$UCSORGFRONT
 10
0.0
 20
0.0
 30
0.0
  9
$UCSORGBACK
 10
0.0
 20
0.0
 30
0.0
  9
$PUCSBASE
  2

  9
$PUCSNAME
  2

  9
$PUCSORG
 10
0.0
 20
0.0
 30
0.0
  9
$PUCSXDIR
 10
1.0
 20
0.0
 30
0.0
  9
$PUCSYDIR
 10
0.0
 20
1.0
 30
0.0
  9
$PUCSORTHOREF
  2

  9
$PUCSORTHOVIEW
 70
     0
  9
$PUCSORGTOP
 10
0.0
 20
0.0
 30
0.0
  9
$PUCSORGBOTTOM
 10
0.0
 20
0.0
 30
0.0
  9
$PUCSORGLEFT
 10
0.0
 20
0.0
 30
0.0
  9
$PUCSORGRIGHT
 10
0.0
 20
0.0
 30
0.0
  9
$PUCSORGFRONT
 10
0.0
 20
0.0
 30
0.0
  9
$PUCSORGBACK
 10
0.0
 20
0.0
 30
0.0
  9
$USERI1
 70
     0
  9
$USERI2
 70
     0
  9
$USERI3
 70
     0
  9
$USERI4
 70
     0
  9
$USERI5
 70
     0
  9
$USERR1
 40
0.0
  9
$USERR2
 40
0.0
  9
$USERR3
 40
0.0
  9
$USERR4
 40
0.0
  9
$USERR5
 40
0.0
  9
$WORLDVIEW
 70
     1
  9
$SHADEDGE
 70
     3
  9
$SHADEDIF
 70
    70
  9
$TILEMODE
 70
     1
  9
$MAXACTVP
 70
    16
  9
$PINSBASE
 10
0.0
 20
0.0
 30
0.0
  9
$PLIMCHECK
 70
     0
  9
$PEXTMIN
 10
1.000000E+20
 20
1.000000E+20
 30
1.000000E+20
  9
$PEXTMAX
 10
-1.000000E+20
 20
-1.000000E+20
 30
-1.000000E+20
  9
$PLIMMIN
 10
0.0
 20
0.0
  9
$PLIMMAX
 10
841.0
 20
595.0
  9
$UNITMODE
 70
     0
  9
$VISRETAIN
 70
     0
  9
$PLINEGEN
 70
     1
  9
$PSLTSCALE
 70
     0
  9
$TREEDEPTH
 70
  3020
  9
$CMLSTYLE
  2
Standard
  9
$CMLJUST
 70
     0
  9
$CMLSCALE
 40
1.0
  9
$PROXYGRAPHICS
 70
     0
  9
$MEASUREMENT
 70
     0
  9
$CELWEIGHT
370
     0
  9
$ENDCAPS
280
     0
  9
$JOINSTYLE
280
     0
  9
$LWDISPLAY
290
     0
  9
$INSUNITS
 70
     0
  9
$HYPERLINKBASE
  1

  9
$XEDIT
290
     1
  9
$CEPSNTYPE
380
     0
  9
$PSTYLEMODE
290
     0
  9
$FINGERPRINTGUID
  2

  9
$VERSIONGUID
  2

  9
$EXTNAMES
290
     1
  9
$PSVPSCALE
 40
0.0
  0
ENDSEC
  0
SECTION
  2
CLASSES
  0
CLASS
  1
LWPOLYLINE
  2
AcDbPolyline
  3
"AutoCAD"
 90
        0
280
     0
281
     1
  0
CLASS
  1
IMAGE
  2
AcDbRasterImage
  3
ISM
 90
      127
280
     0
281
     1
  0
CLASS
  1
OLE2FRAME
  2
AcDbOle2Frame
  3
""
 90
        0
280
     0
281
     1
  0
CLASS
  1
HATCH
  2
AcDbHatch
  3
"ACAD_SEDONA"
 90
        0
280
     0
281
     1
  0
CLASS
  1
DICTIONARYVAR
  2
AcDbDictionaryVar
  3
"AutoCAD"
 90
        0
280
     0
281
     0
  0
CLASS
  1
RASTERVARIABLES
  2
AcDbRasterVariables
  3
ISM
 90
        0
280
     0
281
     0
  0
CLASS
  1
IMAGEDEF
  2
AcDbRasterImageDef
  3
ISM
 90
        0
280
     0
281
     0
  0
CLASS
  1
IMAGEDEF_REACTOR
  2
AcDbRasterImageDefReactor
  3
ISM
 90
        1
280
     0
281
     0
  0
CLASS
  1
IDBUFFER
  2
AcDbIdBuffer
  3
"Acad"
 90
        0
280
     0
281
     0
  0
CLASS
  1
SPATIAL_FILTER
  2
AcDbSpatialFilter
  3
"Acad"
 90
        0
280
     0
281
     0
  0
CLASS
  1
XRECORD
  2
AcDbXrecord
  3
"<Built In>"
 90
        0
280
     0
281
     0
  0
CLASS
  1
SORTENTSTABLE
  2
AcDbSortentsTable
  3
"AutoCAD"
 90
        0
280
     0
281
     0
  0
CLASS
  1
LAYER_INDEX
  2
AcDbLayerIndex
  3
"Acad"
 90
        0
280
     0
281
     0
  0
CLASS
  1
SPATIAL_INDEX
  2
AcDbSpatialIndex
  3
"Acad"
 90
        0
280
     0
281
     0
  0
CLASS
  1
OBJECT_PTR
  2
CAseDLPNTableRecord
  3
"ASE-LPNTableRecord"
 90
        1
280
     0
281
     0
  0
CLASS
  1
LAYOUT
  2
AcDbLayout
  3
"AutoCAD 2000"
 90
        1
280
     0
281
     0
  0
CLASS
  1
PLOTSETTINGS
  2
AcDbPlotSettings
  3
"AutoCAD 2000"
 90
        1
280
     0
281
     0
  0
CLASS
  1
ACDBDICTIONARYWDFLT
  2
AcDbDictionaryWithDefault
  3
"AutoCAD 2000"
 90
        1
280
     0
281
     0
  0
CLASS
  1
ACDBPLACEHOLDER
  2
AcDbPlaceHolder
  3
"AutoCAD 2000"
 90
        1
280
     0
281
     0
  0
CLASS
  1
VBA_PROJECT
  2
AcDbVbaProject
  3
"acadvba"
 90
        1
280
     0
281
     0
  0
CLASS
  1
WIPEOUT
  2
AcDbWipeout
  3
WipeOut|AutoCAD Express Tool|expresstools@autodesk.com
 90
      127
280
     0
281
     1
  0
CLASS
  1
WIPEOUTVARIABLES
  2
AcDbWipeoutVariables
  3
WipeOut|AutoCAD Express Tool|expresstools@autodesk.com
 90
        0
280
     0
281
     0
  0
CLASS
  1
RTEXT
  2
RText
  3
RText|AutoCAD Express Tool|expresstools@autodesk.com
 90
        0
280
     0
281
     1
  0
CLASS
  1
ARCALIGNEDTEXT
  2
AcDbArcAlignedText
  3
ATEXT|AutoCAD Express Tool|expresstools@autodesk.com
 90
        0
280
     0
281
     1
  0
ENDSEC
  0
SECTION
  2
TABLES
  0
TABLE
  2
VPORT
  5
7
100
AcDbSymbolTable
 70
     1
  0
VPORT
  5
15
100
AcDbSymbolTableRecord
100
AcDbViewportTableRecord
  2
*ACTIVE
 70
     0
 10
0.0
 20
0.0
 11
1.0
 21
1.0
 12
6.591288
 22
4.579184
 13
0.0
 23
0.0
 14
1.0
 24
1.0
 15
0.0
 25
0.0
 16
0.0
 26
0.0
 36
1.0
 17
0.0
 27
0.0
 37
0.0
 40
9.158369
 41
0.688564
 42
50.0
 43
0.0
 44
0.0
 50
0.0
 51
0.0
 71
     0
 72
   100
 73
     1
 74
     1
 75
     0
 76
     0
 77
     0
 78
     0
281
     0
 65
     0
110
0.0
120
0.0
130
0.0
111
1.0
121
0.0
131
0.0
112
0.0
122
1.0
132
0.0
345
0
346
0
 79
     0
146
0.0
  0
ENDTAB
  0
TABLE
  2
LTYPE
  5
4
100
AcDbSymbolTable
 70
     7
  0
LTYPE
  5
11
100
AcDbSymbolTableRecord
100
AcDbLinetypeTableRecord
  2
ByBlock
 70
    64
  3

 72
    65
 73
     0
 40
0.0
  0
LTYPE
  5
12
100
AcDbSymbolTableRecord
100
AcDbLinetypeTableRecord
  2
ByLayer
 70
    64
  3

 72
    65
 73
     0
 40
0.0
  0
LTYPE
  5
13
100
AcDbSymbolTableRecord
100
AcDbLinetypeTableRecord
  2
Continuous
 70
    64
  3
Solid line
 72
    65
 73
     0
 40
0.0
  0
LTYPE
  5
24
100
AcDbSymbolTableRecord
100
AcDbLinetypeTableRecord
  2
HIDDEN
 70
    64
  3
_ _ _ _ _ _ _ _ _ _ _ _ _ _ _ _ _ _ _ _ _ _ _ _
 72
    65
 73
     2
 40
0.1875
 49
0.125
 74
     0
 49
-0.0625
 74
     0
  0
LTYPE
  5
25
100
AcDbSymbolTableRecord
100
AcDbLinetypeTableRecord
  2
DOTTED
 70
    64
  3
...............................................
 72
    65
 73
     2
 40
0.125
 49
0.0
 74
     0
 49
-0.125
 74
     0
  0
LTYPE
  5
26
100
AcDbSymbolTableRecord
100
AcDbLinetypeTableRecord
  2
CENTER
 70
    64
  3
____ _ ____ _ ____ _ ____ _ ____ _ ____ _ ____ 
 72
    65
 73
     4
 40
1.125
 49
0.75
 74
     0
 49
-0.125
 74
     0
 49
0.125
 74
     0
 49
-0.125
 74
     0
  0
LTYPE
  5
27
100
AcDbSymbolTableRecord
100
AcDbLinetypeTableRecord
  2
PHANTOM
 70
    64
  3
______  __  __  ______  __  __  ______  __  __ 
 72
    65
 73
     6
 40
1.25
 49
0.625
 74
     0
 49
-0.125
 74
     0
 49
0.125
 74
     0
 49
-0.125
 74
     0
 49
0.125
 74
     0
 49
-0.125
 74
     0
  0
ENDTAB
  0
TABLE
  2
LAYER
  5
2
100
AcDbSymbolTable
 70
     2
  0
LAYER
  5
14
100
AcDbSymbolTableRecord
100
AcDbLayerTableRecord
  2
0
 70
     0
 62
     7
  6
Continuous
290
     1
370
    -3
390
1D
  0
LAYER
  5
28
100
AcDbSymbolTableRecord
100
AcDbLayerTableRecord
  2
TEXT
 70
     0
 62
     8
  6
Continuous
290
     1
370
    -3
390
1F
  0
ENDTAB
  0
TABLE
  2
STYLE
  5
3
100
AcDbSymbolTable
 70
     1
  0
STYLE
  5
17
100
AcDbSymbolTableRecord
100
AcDbTextStyleTableRecord
  2
Standard
 70
     0
 40
0.0
 41
1.0
 50
0.0
 71
     0
 42
0.0
  3
txt
  4

  0
ENDTAB
  0
TABLE
  2
VIEW
  5
5
100
AcDbSymbolTable
 70
     0
  0
ENDTAB
  0
TABLE
  2
UCS
  5
6
100
AcDbSymbolTable
 70
     0
  0
ENDTAB
  0
TABLE
  2
APPID
  5
8
100
AcDbSymbolTable
 70
     1
  0
APPID
  5
16
100
AcDbSymbolTableRecord
100
AcDbRegAppTableRecord
  2
ACAD
 70
     0
  0
ENDTAB
  0
TABLE
  2
DIMSTYLE
  5
9
100
AcDbSymbolTable
 70
     1
100
AcDbDimStyleTable
 71
     0
  0
DIMSTYLE
105
18
100
AcDbSymbolTableRecord
100
AcDbDimStyleTableRecord
  2
Standard
 70
     0
  3

  4

 40
1.0
 41
0.18
 42
0.0625
 43
0.38
 44
0.18
 45
0.0
 46
0.0
 47
0.0
 48
0.0
 71
     0
 72
     0
 73
     1
 74
     1
 75
     0
 76
     0
 77
     0
 78
     0
 79
     0
140
0.18
141
0.09
142
0.0
143
25.4
144
1.0
145
0.0
146
1.0
147
0.09
148
0.0
170
     0
171
     2
172
     0
173
     0
174
     0
175
     0
176
     0
177
     0
178
     0
179
     0
271
     4
272
     4
273
     2
274
     2
275
     0
276
     0
277
     2
278
    46
279
     0
280
     0
281
     0
282
     0
283
     1
284
     0
285
     0
286
     0
288
     0
340
17
341
0
342
0
343
0
344
0
371
    -2
372
    -2
  0
ENDTAB
  0
TABLE
  2
BLOCK_RECORD
  5
1
100
AcDbSymbolTable
 70
    86
  0
BLOCK_RECORD
  5
A
100
AcDbSymbolTableRecord
100
AcDbBlockTableRecord
  2
*MODEL_SPACE
340
20
  0
BLOCK_RECORD
  5
B
100
AcDbSymbolTableRecord
100
AcDbBlockTableRecord
  2
*PAPER_SPACE
340
21
  0
BLOCK_RECORD
  5
29
100
AcDbSymbolTableRecord
100
AcDbBlockTableRecord
  2
*B0
340
0
  0
BLOCK_RECORD
  5
2C
100
AcDbSymbolTableRecord
100
AcDbBlockTableRecord
  2
*B1
340
0
  0
BLOCK_RECORD
  5
2AE
100
AcDbSymbolTableRecord
100
AcDbBlockTableRecord
  2
*B2
340
0
  0
BLOCK_RECORD
  5
33E
100
AcDbSymbolTableRecord
100
AcDbBlockTableRecord
  2
*B3
340
0
  0
BLOCK_RECORD
  5
344
100
AcDbSymbolTableRecord
100
AcDbBlockTableRecord
  2
*B4
340
0
  0
BLOCK_RECORD
  5
34F
100
AcDbSymbolTableRecord
100
AcDbBlockTableRecord
  2
*B5
340
0
  0
BLOCK_RECORD
  5
352
100
AcDbSymbolTableRecord
100
AcDbBlockTableRecord
  2
*B6
340
0
  0
BLOCK_RECORD
  5
359
100
AcDbSymbolTableRecord
100
AcDbBlockTableRecord
  2
*B7
340
0
  0
BLOCK_RECORD
  5
360
100
AcDbSymbolTableRecord
100
AcDbBlockTableRecord
  2
*B8
340
0
  0
BLOCK_RECORD
  5
367
100
AcDbSymbolTableRecord
100
AcDbBlockTableRecord
  2
*B9
340
0
  0
BLOCK_RECORD
  5
36E
100
AcDbSymbolTableRecord
100
AcDbBlockTableRecord
  2
*B10
340
0
  0
BLOCK_RECORD
  5
375
100
AcDbSymbolTableRecord
100
AcDbBlockTableRecord
  2
*B11
340
0
  0
BLOCK_RECORD
  5
37C
100
AcDbSymbolTableRecord
100
AcDbBlockTableRecord
  2
*B12
340
0
  0
BLOCK_RECORD
  5
383
100
AcDbSymbolTableRecord
100
AcDbBlockTableRecord
  2
*B13
340
0
  0
BLOCK_RECORD
  5
38A
100
AcDbSymbolTableRecord
100
AcDbBlockTableRecord
  2
*B14
340
0
  0
BLOCK_RECORD
  5
391
100
AcDbSymbolTableRecord
100
AcDbBlockTableRecord
  2
*B15
340
0
  0
BLOCK_RECORD
  5
398
100
AcDbSymbolTableRecord
100
AcDbBlockTableRecord
  2
*B16
340
0
  0
BLOCK_RECORD
  5
39F
100
AcDbSymbolTableRecord
100
AcDbBlockTableRecord
  2
*B17
340
0
  0
BLOCK_RECORD
  5
3A6
100
AcDbSymbolTableRecord
100
AcDbBlockTableRecord
  2
*B18
340
0
  0
BLOCK_RECORD
  5
3AD
100
AcDbSymbolTableRecord
100
AcDbBlockTableRecord
  2
*B19
340
0
  0
BLOCK_RECORD
  5
3B4
100
AcDbSymbolTableRecord
100
AcDbBlockTableRecord
  2
*B20
340
0
  0
BLOCK_RECORD
  5
3BB
100
AcDbSymbolTableRecord
100
AcDbBlockTableRecord
  2
*B21
340
0
  0
BLOCK_RECORD
  5
3C1
100
AcDbSymbolTableRecord
100
AcDbBlockTableRecord
  2
*B22
340
0
  0
BLOCK_RECORD
  5
3DE
100
AcDbSymbolTableRecord
100
AcDbBlockTableRecord
  2
*B23
340
0
  0
BLOCK_RECORD
  5
3E3
100
AcDbSymbolTableRecord
100
AcDbBlockTableRecord
  2
*B24
340
0
  0
BLOCK_RECORD
  5
3E8
100
AcDbSymbolTableRecord
100
AcDbBlockTableRecord
  2
*B25
340
0
  0
BLOCK_RECORD
  5
3F2
100
AcDbSymbolTableRecord
100
AcDbBlockTableRecord
  2
*B26
340
0
  0
BLOCK_RECORD
  5
3F8
100
AcDbSymbolTableRecord
100
AcDbBlockTableRecord
  2
*B27
340
0
  0
BLOCK_RECORD
  5
421
100
AcDbSymbolTableRecord
100
AcDbBlockTableRecord
  2
*B28
340
0
  0
BLOCK_RECORD
  5
42B
100
AcDbSymbolTableRecord
100
AcDbBlockTableRecord
  2
*B29
340
0
  0
BLOCK_RECORD
  5
431
100
AcDbSymbolTableRecord
100
AcDbBlockTableRecord
  2
*B30
340
0
  0
BLOCK_RECORD
  5
436
100
AcDbSymbolTableRecord
100
AcDbBlockTableRecord
  2
*B31
340
0
  0
BLOCK_RECORD
  5
43C
100
AcDbSymbolTableRecord
100
AcDbBlockTableRecord
  2
*B32
340
0
  0
BLOCK_RECORD
  5
443
100
AcDbSymbolTableRecord
100
AcDbBlockTableRecord
  2
*B33
340
0
  0
BLOCK_RECORD
  5
448
100
AcDbSymbolTableRecord
100
AcDbBlockTableRecord
  2
*B34
340
0
  0
BLOCK_RECORD
  5
44F
100
AcDbSymbolTableRecord
100
AcDbBlockTableRecord
  2
*B35
340
0
  0
BLOCK_RECORD
  5
455
100
AcDbSymbolTableRecord
100
AcDbBlockTableRecord
  2
*B36
340
0
  0
BLOCK_RECORD
  5
45B
100
AcDbSymbolTableRecord
100
AcDbBlockTableRecord
  2
*B37
340
0
  0
BLOCK_RECORD
  5
466
100
AcDbSymbolTableRecord
100
AcDbBlockTableRecord
  2
*B38
340
0
  0
BLOCK_RECORD
  5
472
100
AcDbSymbolTableRecord
100
AcDbBlockTableRecord
  2
*B39
340
0
  0
BLOCK_RECORD
  5
477
100
AcDbSymbolTableRecord
100
AcDbBlockTableRecord
  2
*B40
340
0
  0
BLOCK_RECORD
  5
47C
100
AcDbSymbolTableRecord
100
AcDbBlockTableRecord
  2
*B41
340
0
  0
BLOCK_RECORD
  5
488
100
AcDbSymbolTableRecord
100
AcDbBlockTableRecord
  2
*B42
340
0
  0
BLOCK_RECORD
  5
48D
100
AcDbSymbolTableRecord
100
AcDbBlockTableRecord
  2
*B43
340
0
  0
BLOCK_RECORD
  5
492
100
AcDbSymbolTableRecord
100
AcDbBlockTableRecord
  2
*B44
340
0
  0
BLOCK_RECORD
  5
497
100
AcDbSymbolTableRecord
100
AcDbBlockTableRecord
  2
*B45
340
0
  0
BLOCK_RECORD
  5
49C
100
AcDbSymbolTableRecord
100
AcDbBlockTableRecord
  2
*B46
340
0
  0
BLOCK_RECORD
  5
4A1
100
AcDbSymbolTableRecord
100
AcDbBlockTableRecord
  2
*B47
340
0
  0
BLOCK_RECORD
  5
4A9
100
AcDbSymbolTableRecord
100
AcDbBlockTableRecord
  2
*B48
340
0
  0
BLOCK_RECORD
  5
4B8
100
AcDbSymbolTableRecord
100
AcDbBlockTableRecord
  2
*B49
340
0
  0
BLOCK_RECORD
  5
4BD
100
AcDbSymbolTableRecord
100
AcDbBlockTableRecord
  2
*B50
340
0
  0
BLOCK_RECORD
  5
4C2
100
AcDbSymbolTableRecord
100
AcDbBlockTableRecord
  2
*B51
340
0
  0
BLOCK_RECORD
  5
4C8
100
AcDbSymbolTableRecord
100
AcDbBlockTableRecord
  2
*B52
340
0
  0
BLOCK_RECORD
  5
4CD
100
AcDbSymbolTableRecord
100
AcDbBlockTableRecord
  2
*B53
340
0
  0
BLOCK_RECORD
  5
4D3
100
AcDbSymbolTableRecord
100
AcDbBlockTableRecord
  2
*B54
340
0
  0
BLOCK_RECORD
  5
4D9
100
AcDbSymbolTableRecord
100
AcDbBlockTableRecord
  2
*B55
340
0
  0
BLOCK_RECORD
  5
4DF
100
AcDbSymbolTableRecord
100
AcDbBlockTableRecord
  2
*B56
340
0
  0
BLOCK_RECORD
  5
4E5
100
AcDbSymbolTableRecord
100
AcDbBlockTableRecord
  2
*B57
340
0
  0
BLOCK_RECORD
  5
4EB
100
AcDbSymbolTableRecord
100
AcDbBlockTableRecord
  2
*B58
340
0
  0
BLOCK_RECORD
  5
4F1
100
AcDbSymbolTableRecord
100
AcDbBlockTableRecord
  2
*B59
340
0
  0
BLOCK_RECORD
  5
4F7
100
AcDbSymbolTableRecord
100
AcDbBlockTableRecord
  2
*B60
340
0
  0
BLOCK_RECORD
  5
4FD
100
AcDbSymbolTableRecord
100
AcDbBlockTableRecord
  2
*B61
340
0
  0
BLOCK_RECORD
  5
504
100
AcDbSymbolTableRecord
100
AcDbBlockTableRecord
  2
*B62
340
0
  0
BLOCK_RECORD
  5
509
100
AcDbSymbolTableRecord
100
AcDbBlockTableRecord
  2
*B63
340
0
  0
BLOCK_RECORD
  5
50E
100
AcDbSymbolTableRecord
100
AcDbBlockTableRecord
  2
*B64
340
0
  0
BLOCK_RECORD
  5
513
100
AcDbSymbolTableRecord
100
AcDbBlockTableRecord
  2
*B65
340
0
  0
BLOCK_RECORD
  5
518
100
AcDbSymbolTableRecord
100
AcDbBlockTableRecord
  2
*B66
340
0
  0
BLOCK_RECORD
  5
51D
100
AcDbSymbolTableRecord
100
AcDbBlockTableRecord
  2
*B67
340
0
  0
BLOCK_RECORD
  5
522
100
AcDbSymbolTableRecord
100
AcDbBlockTableRecord
  2
*B68
340
0
  0
BLOCK_RECORD
  5
527
100
AcDbSymbolTableRecord
100
AcDbBlockTableRecord
  2
*B69
340
0
  0
BLOCK_RECORD
  5
52C
100
AcDbSymbolTableRecord
100
AcDbBlockTableRecord
  2
*B70
340
0
  0
BLOCK_RECORD
  5
531
100
AcDbSymbolTableRecord
100
AcDbBlockTableRecord
  2
*B71
340
0
  0
BLOCK_RECORD
  5
536
100
AcDbSymbolTableRecord
100
AcDbBlockTableRecord
  2
*B72
340
0
  0
BLOCK_RECORD
  5
53B
100
AcDbSymbolTableRecord
100
AcDbBlockTableRecord
  2
*B73
340
0
  0
BLOCK_RECORD
  5
540
100
AcDbSymbolTableRecord
100
AcDbBlockTableRecord
  2
*B74
340
0
  0
BLOCK_RECORD
  5
545
100
AcDbSymbolTableRecord
100
AcDbBlockTableRecord
  2
*B75
340
0
  0
BLOCK_RECORD
  5
54A
100
AcDbSymbolTableRecord
100
AcDbBlockTableRecord
  2
*B76
340
0
  0
BLOCK_RECORD
  5
54F
100
AcDbSymbolTableRecord
100
AcDbBlockTableRecord
  2
*B77
340
0
  0
BLOCK_RECORD
  5
554
100
AcDbSymbolTableRecord
100
AcDbBlockTableRecord
  2
*B78
340
0
  0
BLOCK_RECORD
  5
559
100
AcDbSymbolTableRecord
100
AcDbBlockTableRecord
  2
*B79
340
0
  0
BLOCK_RECORD
  5
55E
100
AcDbSymbolTableRecord
100
AcDbBlockTableRecord
  2
*B80
340
0
  0
BLOCK_RECORD
  5
563
100
AcDbSymbolTableRecord
100
AcDbBlockTableRecord
  2
*B81
340
0
  0
BLOCK_RECORD
  5
568
100
AcDbSymbolTableRecord
100
AcDbBlockTableRecord
  2
*B82
340
0
  0
BLOCK_RECORD
  5
56D
100
AcDbSymbolTableRecord
100
AcDbBlockTableRecord
  2
*B83
340
0
  0
BLOCK_RECORD
  5
572
100
AcDbSymbolTableRecord
100
AcDbBlockTableRecord
  2
*B84
340
0
  0
BLOCK_RECORD
  5
577
100
AcDbSymbolTableRecord
100
AcDbBlockTableRecord
  2
*B85
340
0
  0
ENDTAB
  0
ENDSEC
  0
SECTION
  2
BLOCKS
  0
BLOCK
  5
D
100
AcDbEntity
  8
0
100
AcDbBlockBegin
  2
*MODEL_SPACE
 70
     0
 10
0.0
 20
0.0
 30
0.0
  3
*MODEL_SPACE
  1

  0
ENDBLK
  5
E
100
AcDbEntity
  8
0
100
AcDbBlockEnd
  0
BLOCK
  5
F
100
AcDbEntity
 67
     1
  8
0
100
AcDbBlockBegin
  2
*PAPER_SPACE
 70
     0
 10
0.0
 20
0.0
 30
0.0
  3
*PAPER_SPACE
  1

  0
ENDBLK
  5
10
100
AcDbEntity
 67
     1
  8
0
100
AcDbBlockEnd
  0
BLOCK
  5
2A
100
AcDbEntity
  8
0
100
AcDbBlockBegin
  2
*B0
 70
     0
 10
0.0
 20
0.0
 30
0.0
  3
*B0
  1

  0
ENDBLK
  5
2B
100
AcDbEntity
  8
0
100
AcDbBlockEnd
  0
BLOCK
  5
2D
100
AcDbEntity
  8
0
100
AcDbBlockBegin
  2
*B1
 70
     0
 10
0.0
 20
0.0
 30
0.0
  3
*B1
  1

  0
LINE
  5
2E
100
AcDbEntity
  8
0
  6
HIDDEN
 62
   174
100
AcDbLine
 10
422.777408
 20
436.170713
 30
0.0
 11
422.777408
 21
449.670713
 31
0.0
  0
LINE
  5
2F
100
AcDbEntity
  8
0
  6
HIDDEN
 62
   174
100
AcDbLine
 10
422.777408
 20
436.170713
 30
0.0
 11
422.777408
 21
449.670713
 31
0.0
  0
LINE
  5
30
100
AcDbEntity
  8
0
  6
HIDDEN
 62
   174
100
AcDbLine
 10
395.777408
 20
436.170713
 30
0.0
 11
395.777408
 21
449.670713
 31
0.0
  0
LINE
  5
31
100
AcDbEntity
  8
0
  6
HIDDEN
 62
   174
100
AcDbLine
 10
395.777408
 20
436.170713
 30
0.0
 11
395.777408
 21
449.670713
 31
0.0
  0
LINE
  5
32
100
AcDbEntity
  8
0
  6
HIDDEN
 62
   174
100
AcDbLine
 10
494.777408
 20
436.170713
 30
0.0
 11
494.777408
 21
449.670713
 31
0.0
  0
LINE
  5
33
100
AcDbEntity
  8
0
  6
HIDDEN
 62
   174
100
AcDbLine
 10
467.777408
 20
436.170713
 30
0.0
 11
467.777408
 21
449.670713
 31
0.0
  0
LINE
  5
34
100
AcDbEntity
  8
0
  6
HIDDEN
 62
   174
100
AcDbLine
 10
468.196723
 20
449.670713
 30
0.0
 11
494.747058
 21
449.670713
 31
0.0
  0
LINE
  5
35
100
AcDbEntity
  8
0
  6
HIDDEN
 62
   174
100
AcDbLine
 10
467.748583
 20
449.670713
 30
0.0
 11
468.196723
 21
449.670713
 31
0.0
  0
LINE
  5
36
100
AcDbEntity
  8
0
  6
HIDDEN
 62
   174
100
AcDbLine
 10
395.753253
 20
449.670713
 30
0.0
 11
422.751728
 21
449.670713
 31
0.0
  0
LINE
  5
37
100
AcDbEntity
  8
0
  6
HIDDEN
 62
   174
100
AcDbLine
 10
468.196723
 20
436.170713
 30
0.0
 11
468.480044
 21
436.170713
 31
0.0
  0
LINE
  5
38
100
AcDbEntity
  8
0
  6
HIDDEN
 62
   174
100
AcDbLine
 10
467.962728
 20
436.170713
 30
0.0
 11
468.196723
 21
436.170713
 31
0.0
  0
LINE
  5
39
100
AcDbEntity
  8
0
  6
HIDDEN
 62
   174
100
AcDbLine
 10
467.748583
 20
436.170713
 30
0.0
 11
467.962728
 21
436.170713
 31
0.0
  0
LINE
  5
3A
100
AcDbEntity
  8
0
  6
HIDDEN
 62
   174
100
AcDbLine
 10
494.332002
 20
436.170713
 30
0.0
 11
494.747058
 21
436.170713
 31
0.0
  0
LINE
  5
3B
100
AcDbEntity
  8
0
  6
HIDDEN
 62
   174
100
AcDbLine
 10
476.163388
 20
436.170713
 30
0.0
 11
478.002265
 21
436.170713
 31
0.0
  0
LINE
  5
3C
100
AcDbEntity
  8
0
  6
HIDDEN
 62
   174
100
AcDbLine
 10
475.3032
 20
436.170713
 30
0.0
 11
476.163388
 21
436.170713
 31
0.0
  0
LINE
  5
3D
100
AcDbEntity
  8
0
  6
HIDDEN
 62
   174
100
AcDbLine
 10
474.449027
 20
436.170713
 30
0.0
 11
475.3032
 21
436.170713
 31
0.0
  0
LINE
  5
3E
100
AcDbEntity
  8
0
  6
HIDDEN
 62
   174
100
AcDbLine
 10
472.879635
 20
436.170713
 30
0.0
 11
474.449027
 21
436.170713
 31
0.0
  0
LINE
  5
3F
100
AcDbEntity
  8
0
  6
HIDDEN
 62
   174
100
AcDbLine
 10
471.451602
 20
436.170713
 30
0.0
 11
472.879635
 21
436.170713
 31
0.0
  0
LINE
  5
40
100
AcDbEntity
  8
0
  6
HIDDEN
 62
   174
100
AcDbLine
 10
470.225083
 20
436.170713
 30
0.0
 11
471.451602
 21
436.170713
 31
0.0
  0
LINE
  5
41
100
AcDbEntity
  8
0
  6
HIDDEN
 62
   174
100
AcDbLine
 10
469.702955
 20
436.170713
 30
0.0
 11
470.225083
 21
436.170713
 31
0.0
  0
LINE
  5
42
100
AcDbEntity
  8
0
  6
HIDDEN
 62
   174
100
AcDbLine
 10
408.289742
 20
436.170713
 30
0.0
 11
410.214638
 21
436.170713
 31
0.0
  0
LINE
  5
43
100
AcDbEntity
  8
0
  6
HIDDEN
 62
   174
100
AcDbLine
 10
402.767695
 20
436.170713
 30
0.0
 11
404.5386
 21
436.170713
 31
0.0
  0
LINE
  5
44
100
AcDbEntity
  8
0
  6
HIDDEN
 62
   174
100
AcDbLine
 10
401.142963
 20
436.170713
 30
0.0
 11
402.767695
 21
436.170713
 31
0.0
  0
LINE
  5
45
100
AcDbEntity
  8
0
  6
Continuous
 62
   174
100
AcDbLine
 10
170.777408
 20
436.170713
 30
0.0
 11
170.777408
 21
418.170713
 31
0.0
  0
LINE
  5
46
100
AcDbEntity
  8
0
  6
Continuous
 62
   174
100
AcDbLine
 10
177.527408
 20
319.170713
 30
0.0
 11
296.777408
 21
319.170713
 31
0.0
  0
LINE
  5
47
100
AcDbEntity
  8
0
  6
HIDDEN
 62
   174
100
AcDbLine
 10
213.96906
 20
451.020713
 30
0.0
 11
213.155791
 21
451.020713
 31
0.0
  0
LINE
  5
48
100
AcDbEntity
  8
0
  6
HIDDEN
 62
   174
100
AcDbLine
 10
677.345121
 20
451.020713
 30
0.0
 11
676.531852
 21
451.020713
 31
0.0
  0
LINE
  5
49
100
AcDbEntity
  8
0
  6
HIDDEN
 62
   174
100
AcDbLine
 10
690.126432
 20
451.020713
 30
0.0
 11
683.735175
 21
451.020713
 31
0.0
  0
LINE
  5
4A
100
AcDbEntity
  8
0
  6
HIDDEN
 62
   174
100
AcDbLine
 10
683.735175
 20
451.020713
 30
0.0
 11
677.345121
 21
451.020713
 31
0.0
  0
LINE
  5
4B
100
AcDbEntity
  8
0
  6
HIDDEN
 62
   174
100
AcDbLine
 10
206.765136
 20
451.020713
 30
0.0
 11
212.839386
 21
451.020713
 31
0.0
  0
LINE
  5
4C
100
AcDbEntity
  8
0
  6
HIDDEN
 62
   174
100
AcDbLine
 10
677.660924
 20
451.020713
 30
0.0
 11
683.735175
 21
451.020713
 31
0.0
  0
LINE
  5
4D
100
AcDbEntity
  8
0
  6
Continuous
 62
   174
100
AcDbLine
 10
719.777408
 20
436.170713
 30
0.0
 11
719.777408
 21
418.170713
 31
0.0
  0
LINE
  5
4E
100
AcDbEntity
  8
0
  6
HIDDEN
 62
   174
100
AcDbLine
 10
200.702408
 20
444.270713
 30
0.0
 11
200.702408
 21
451.020713
 31
0.0
  0
LINE
  5
4F
100
AcDbEntity
  8
0
  6
HIDDEN
 62
   174
100
AcDbLine
 10
683.735175
 20
444.270713
 30
0.0
 11
677.660924
 21
444.270713
 31
0.0
  0
LINE
  5
50
100
AcDbEntity
  8
0
  6
HIDDEN
 62
   174
100
AcDbLine
 10
692.060351
 20
444.270713
 30
0.0
 11
683.735175
 21
444.270713
 31
0.0
  0
LINE
  5
51
100
AcDbEntity
  8
0
  6
Continuous
 62
   174
100
AcDbLine
 10
593.777408
 20
418.170713
 30
0.0
 11
647.777408
 21
418.170713
 31
0.0
  0
LINE
  5
52
100
AcDbEntity
  8
0
  6
HIDDEN
 62
   174
100
AcDbLine
 10
469.234363
 20
436.170713
 30
0.0
 11
469.702955
 21
436.170713
 31
0.0
  0
LINE
  5
53
100
AcDbEntity
  8
0
  6
HIDDEN
 62
   174
100
AcDbLine
 10
468.480044
 20
436.170713
 30
0.0
 11
469.234363
 21
436.170713
 31
0.0
  0
LINE
  5
54
100
AcDbEntity
  8
0
  6
HIDDEN
 62
   174
100
AcDbLine
 10
417.362018
 20
436.170713
 30
0.0
 11
418.804487
 21
436.170713
 31
0.0
  0
LINE
  5
55
100
AcDbEntity
  8
0
  6
HIDDEN
 62
   174
100
AcDbLine
 10
396.064846
 20
436.170713
 30
0.0
 11
396.60502
 21
436.170713
 31
0.0
  0
LINE
  5
56
100
AcDbEntity
  8
0
  6
Continuous
 62
   174
100
AcDbLine
 10
215.089109
 20
451.020713
 30
0.0
 11
213.96906
 21
451.020713
 31
0.0
  0
LINE
  5
57
100
AcDbEntity
  8
0
  6
Continuous
 62
   174
100
AcDbLine
 10
215.102408
 20
444.270713
 30
0.0
 11
215.102408
 21
451.020713
 31
0.0
  0
LINE
  5
58
100
AcDbEntity
  8
0
  6
Continuous
 62
   174
100
AcDbLine
 10
177.527408
 20
319.170713
 30
0.0
 11
177.527408
 21
320.295713
 31
0.0
  0
LINE
  5
59
100
AcDbEntity
  8
0
  6
HIDDEN
 62
   174
100
AcDbLine
 10
493.755736
 20
436.170713
 30
0.0
 11
494.332002
 21
436.170713
 31
0.0
  0
LINE
  5
5A
100
AcDbEntity
  8
0
  6
HIDDEN
 62
   174
100
AcDbLine
 10
492.919609
 20
436.170713
 30
0.0
 11
493.755736
 21
436.170713
 31
0.0
  0
LINE
  5
5B
100
AcDbEntity
  8
0
  6
HIDDEN
 62
   174
100
AcDbLine
 10
491.844675
 20
436.170713
 30
0.0
 11
492.919609
 21
436.170713
 31
0.0
  0
LINE
  5
5C
100
AcDbEntity
  8
0
  6
HIDDEN
 62
   174
100
AcDbLine
 10
490.541761
 20
436.170713
 30
0.0
 11
491.844675
 21
436.170713
 31
0.0
  0
LINE
  5
5D
100
AcDbEntity
  8
0
  6
HIDDEN
 62
   174
100
AcDbLine
 10
489.036131
 20
436.170713
 30
0.0
 11
490.541761
 21
436.170713
 31
0.0
  0
LINE
  5
5E
100
AcDbEntity
  8
0
  6
HIDDEN
 62
   174
100
AcDbLine
 10
487.408391
 20
436.170713
 30
0.0
 11
489.036131
 21
436.170713
 31
0.0
  0
LINE
  5
5F
100
AcDbEntity
  8
0
  6
HIDDEN
 62
   174
100
AcDbLine
 10
418.804487
 20
436.170713
 30
0.0
 11
420.048451
 21
436.170713
 31
0.0
  0
LINE
  5
60
100
AcDbEntity
  8
0
  6
HIDDEN
 62
   174
100
AcDbLine
 10
413.966381
 20
436.170713
 30
0.0
 11
415.737285
 21
436.170713
 31
0.0
  0
LINE
  5
61
100
AcDbEntity
  8
0
  6
Continuous
 62
   174
100
AcDbLine
 10
692.060351
 20
451.020713
 30
0.0
 11
690.939701
 21
451.020713
 31
0.0
  0
LINE
  5
62
100
AcDbEntity
  8
0
  6
HIDDEN
 62
   174
100
AcDbLine
 10
690.939701
 20
451.020713
 30
0.0
 11
690.126432
 21
451.020713
 31
0.0
  0
LINE
  5
63
100
AcDbEntity
  8
0
  6
Continuous
 62
   174
100
AcDbLine
 10
713.027408
 20
319.170713
 30
0.0
 11
593.777408
 21
319.170713
 31
0.0
  0
LINE
  5
64
100
AcDbEntity
  8
0
  6
HIDDEN
 62
   174
100
AcDbLine
 10
683.735175
 20
451.020713
 30
0.0
 11
689.810027
 21
451.020713
 31
0.0
  0
LINE
  5
65
100
AcDbEntity
  8
0
  6
Continuous
 62
   174
100
AcDbLine
 10
296.777408
 20
418.170713
 30
0.0
 11
242.777408
 21
418.170713
 31
0.0
  0
LINE
  5
66
100
AcDbEntity
  8
0
  6
Continuous
 62
   174
100
AcDbLine
 10
713.027408
 20
396.795713
 30
0.0
 11
713.027408
 21
395.670713
 31
0.0
  0
LINE
  5
67
100
AcDbEntity
  8
0
  6
HIDDEN
 62
   174
100
AcDbLine
 10
677.702408
 20
444.270713
 30
0.0
 11
677.702408
 21
451.020713
 31
0.0
  0
LINE
  5
68
100
AcDbEntity
  8
0
  6
Continuous
 62
   174
100
AcDbLine
 10
177.527408
 20
320.295713
 30
0.0
 11
177.527408
 21
340.545713
 31
0.0
  0
LINE
  5
69
100
AcDbEntity
  8
0
  6
Continuous
 62
   174
100
AcDbLine
 10
692.102408
 20
444.270713
 30
0.0
 11
692.102408
 21
451.020713
 31
0.0
  0
LINE
  5
6A
100
AcDbEntity
  8
0
  6
HIDDEN
 62
   174
100
AcDbLine
 10
421.899961
 20
436.170713
 30
0.0
 11
422.440135
 21
436.170713
 31
0.0
  0
LINE
  5
6B
100
AcDbEntity
  8
0
  6
Continuous
 62
   174
100
AcDbLine
 10
199.561212
 20
451.020713
 30
0.0
 11
198.440561
 21
451.020713
 31
0.0
  0
LINE
  5
6C
100
AcDbEntity
  8
0
  6
Continuous
 62
   174
100
AcDbLine
 10
242.777408
 20
436.170713
 30
0.0
 11
170.777408
 21
436.170713
 31
0.0
  0
LINE
  5
6D
100
AcDbEntity
  8
0
  6
Continuous
 62
   174
100
AcDbLine
 10
675.452408
 20
444.270713
 30
0.0
 11
675.452408
 21
451.020713
 31
0.0
  0
LINE
  5
6E
100
AcDbEntity
  8
0
  6
HIDDEN
 62
   174
100
AcDbLine
 10
206.765136
 20
444.270713
 30
0.0
 11
200.690284
 21
444.270713
 31
0.0
  0
LINE
  5
6F
100
AcDbEntity
  8
0
  6
HIDDEN
 62
   174
100
AcDbLine
 10
215.089109
 20
444.270713
 30
0.0
 11
206.765136
 21
444.270713
 31
0.0
  0
LINE
  5
70
100
AcDbEntity
  8
0
  6
HIDDEN
 62
   174
100
AcDbLine
 10
420.048451
 20
436.170713
 30
0.0
 11
421.095715
 21
436.170713
 31
0.0
  0
LINE
  5
71
100
AcDbEntity
  8
0
  6
HIDDEN
 62
   174
100
AcDbLine
 10
412.140737
 20
436.170713
 30
0.0
 11
413.966381
 21
436.170713
 31
0.0
  0
LINE
  5
72
100
AcDbEntity
  8
0
  6
HIDDEN
 62
   174
100
AcDbLine
 10
396.60502
 20
436.170713
 30
0.0
 11
397.409266
 21
436.170713
 31
0.0
  0
LINE
  5
73
100
AcDbEntity
  8
0
  6
HIDDEN
 62
   174
100
AcDbLine
 10
200.37448
 20
451.020713
 30
0.0
 11
199.561212
 21
451.020713
 31
0.0
  0
LINE
  5
74
100
AcDbEntity
  8
0
  6
HIDDEN
 62
   174
100
AcDbLine
 10
213.155791
 20
451.020713
 30
0.0
 11
206.765136
 21
451.020713
 31
0.0
  0
LINE
  5
75
100
AcDbEntity
  8
0
  6
HIDDEN
 62
   174
100
AcDbLine
 10
206.765136
 20
451.020713
 30
0.0
 11
200.37448
 21
451.020713
 31
0.0
  0
LINE
  5
76
100
AcDbEntity
  8
0
  6
Continuous
 62
   174
100
AcDbLine
 10
676.531852
 20
451.020713
 30
0.0
 11
675.411202
 21
451.020713
 31
0.0
  0
LINE
  5
77
100
AcDbEntity
  8
0
  6
HIDDEN
 62
   174
100
AcDbLine
 10
200.690284
 20
451.020713
 30
0.0
 11
206.765136
 21
451.020713
 31
0.0
  0
LINE
  5
78
100
AcDbEntity
  8
0
  6
HIDDEN
 62
   174
100
AcDbLine
 10
212.839386
 20
444.270713
 30
0.0
 11
206.765136
 21
444.270713
 31
0.0
  0
LINE
  5
79
100
AcDbEntity
  8
0
  6
HIDDEN
 62
   174
100
AcDbLine
 10
206.765136
 20
444.270713
 30
0.0
 11
198.440561
 21
444.270713
 31
0.0
  0
LINE
  5
7A
100
AcDbEntity
  8
0
  6
HIDDEN
 62
   174
100
AcDbLine
 10
395.753253
 20
436.170713
 30
0.0
 11
396.064846
 21
436.170713
 31
0.0
  0
LINE
  5
7B
100
AcDbEntity
  8
0
  6
HIDDEN
 62
   174
100
AcDbLine
 10
422.440135
 20
436.170713
 30
0.0
 11
422.751728
 21
436.170713
 31
0.0
  0
LINE
  5
7C
100
AcDbEntity
  8
0
  6
HIDDEN
 62
   174
100
AcDbLine
 10
411.178289
 20
436.170713
 30
0.0
 11
412.140737
 21
436.170713
 31
0.0
  0
LINE
  5
7D
100
AcDbEntity
  8
0
  6
Continuous
 62
   174
100
AcDbLine
 10
719.777408
 20
395.670713
 30
0.0
 11
713.027408
 21
395.670713
 31
0.0
  0
LINE
  5
7E
100
AcDbEntity
  8
0
  6
Continuous
 62
   174
100
AcDbLine
 10
713.027408
 20
417.045713
 30
0.0
 11
713.027408
 21
396.795713
 31
0.0
  0
LINE
  5
7F
100
AcDbEntity
  8
0
  6
Continuous
 62
   174
100
AcDbLine
 10
198.452408
 20
444.270713
 30
0.0
 11
198.452408
 21
451.020713
 31
0.0
  0
LINE
  5
80
100
AcDbEntity
  8
0
  6
Continuous
 62
   174
100
AcDbLine
 10
296.777408
 20
319.170713
 30
0.0
 11
296.777408
 21
418.170713
 31
0.0
  0
LINE
  5
81
100
AcDbEntity
  8
0
  6
HIDDEN
 62
   174
100
AcDbLine
 10
683.735175
 20
444.270713
 30
0.0
 11
675.411202
 21
444.270713
 31
0.0
  0
LINE
  5
82
100
AcDbEntity
  8
0
  6
Continuous
 62
   174
100
AcDbLine
 10
170.777408
 20
341.670713
 30
0.0
 11
177.527408
 21
341.670713
 31
0.0
  0
LINE
  5
83
100
AcDbEntity
  8
0
  6
HIDDEN
 62
   174
100
AcDbLine
 10
486.522337
 20
436.170713
 30
0.0
 11
487.408391
 21
436.170713
 31
0.0
  0
LINE
  5
84
100
AcDbEntity
  8
0
  6
HIDDEN
 62
   174
100
AcDbLine
 10
485.617636
 20
436.170713
 30
0.0
 11
486.522337
 21
436.170713
 31
0.0
  0
LINE
  5
85
100
AcDbEntity
  8
0
  6
HIDDEN
 62
   174
100
AcDbLine
 10
483.756502
 20
436.170713
 30
0.0
 11
485.617636
 21
436.170713
 31
0.0
  0
LINE
  5
86
100
AcDbEntity
  8
0
  6
HIDDEN
 62
   174
100
AcDbLine
 10
482.798264
 20
436.170713
 30
0.0
 11
483.756502
 21
436.170713
 31
0.0
  0
LINE
  5
87
100
AcDbEntity
  8
0
  6
HIDDEN
 62
   174
100
AcDbLine
 10
481.823184
 20
436.170713
 30
0.0
 11
482.798264
 21
436.170713
 31
0.0
  0
LINE
  5
88
100
AcDbEntity
  8
0
  6
HIDDEN
 62
   174
100
AcDbLine
 10
479.921146
 20
436.170713
 30
0.0
 11
481.823184
 21
436.170713
 31
0.0
  0
LINE
  5
89
100
AcDbEntity
  8
0
  6
HIDDEN
 62
   174
100
AcDbLine
 10
478.002265
 20
436.170713
 30
0.0
 11
479.921146
 21
436.170713
 31
0.0
  0
LINE
  5
8A
100
AcDbEntity
  8
0
  6
HIDDEN
 62
   174
100
AcDbLine
 10
421.095715
 20
436.170713
 30
0.0
 11
421.899961
 21
436.170713
 31
0.0
  0
LINE
  5
8B
100
AcDbEntity
  8
0
  6
HIDDEN
 62
   174
100
AcDbLine
 10
415.737285
 20
436.170713
 30
0.0
 11
417.362018
 21
436.170713
 31
0.0
  0
LINE
  5
8C
100
AcDbEntity
  8
0
  6
HIDDEN
 62
   174
100
AcDbLine
 10
399.700494
 20
436.170713
 30
0.0
 11
401.142963
 21
436.170713
 31
0.0
  0
LINE
  5
8D
100
AcDbEntity
  8
0
  6
HIDDEN
 62
   174
100
AcDbLine
 10
398.456529
 20
436.170713
 30
0.0
 11
399.700494
 21
436.170713
 31
0.0
  0
LINE
  5
8E
100
AcDbEntity
  8
0
  6
HIDDEN
 62
   174
100
AcDbLine
 10
397.409266
 20
436.170713
 30
0.0
 11
398.456529
 21
436.170713
 31
0.0
  0
LINE
  5
8F
100
AcDbEntity
  8
0
  6
Continuous
 62
   174
100
AcDbLine
 10
242.777408
 20
418.170713
 30
0.0
 11
242.777408
 21
436.170713
 31
0.0
  0
LINE
  5
90
100
AcDbEntity
  8
0
  6
Continuous
 62
   174
100
AcDbLine
 10
713.027408
 20
418.170713
 30
0.0
 11
713.027408
 21
417.045713
 31
0.0
  0
LINE
  5
91
100
AcDbEntity
  8
0
  6
Continuous
 62
   174
100
AcDbLine
 10
177.527408
 20
340.545713
 30
0.0
 11
177.527408
 21
341.670713
 31
0.0
  0
LINE
  5
92
100
AcDbEntity
  8
0
  6
HIDDEN
 62
   174
100
AcDbLine
 10
689.810027
 20
444.270713
 30
0.0
 11
683.735175
 21
444.270713
 31
0.0
  0
LINE
  5
93
100
AcDbEntity
  8
0
  6
Continuous
 62
   174
100
AcDbLine
 10
170.777408
 20
319.170713
 30
0.0
 11
177.527408
 21
319.170713
 31
0.0
  0
LINE
  5
94
100
AcDbEntity
  8
0
  6
HIDDEN
 62
   174
100
AcDbLine
 10
410.214638
 20
436.170713
 30
0.0
 11
411.178289
 21
436.170713
 31
0.0
  0
LINE
  5
95
100
AcDbEntity
  8
0
  6
HIDDEN
 62
   174
100
AcDbLine
 10
407.326692
 20
436.170713
 30
0.0
 11
408.289742
 21
436.170713
 31
0.0
  0
LINE
  5
96
100
AcDbEntity
  8
0
  6
HIDDEN
 62
   174
100
AcDbLine
 10
406.363642
 20
436.170713
 30
0.0
 11
407.326692
 21
436.170713
 31
0.0
  0
LINE
  5
97
100
AcDbEntity
  8
0
  6
HIDDEN
 62
   174
100
AcDbLine
 10
404.5386
 20
436.170713
 30
0.0
 11
406.363642
 21
436.170713
 31
0.0
  0
LINE
  5
98
100
AcDbEntity
  8
0
  6
Continuous
 62
   174
100
AcDbLine
 10
719.777408
 20
418.170713
 30
0.0
 11
713.027408
 21
418.170713
 31
0.0
  0
LINE
  5
99
100
AcDbEntity
  8
0
  6
HIDDEN
 62
   174
100
AcDbLine
 10
689.852408
 20
444.270713
 30
0.0
 11
689.852408
 21
451.020713
 31
0.0
  0
LINE
  5
9A
100
AcDbEntity
  8
0
  6
HIDDEN
 62
   174
100
AcDbLine
 10
212.852408
 20
444.270713
 30
0.0
 11
212.852408
 21
451.020713
 31
0.0
  0
LINE
  5
9B
100
AcDbEntity
  8
0
  6
Continuous
 62
   174
100
AcDbLine
 10
647.777408
 20
418.170713
 30
0.0
 11
647.777408
 21
436.170713
 31
0.0
  0
LINE
  5
9C
100
AcDbEntity
  8
0
  6
Continuous
 62
   174
100
AcDbLine
 10
511.032883
 20
318.270713
 30
0.0
 11
505.26421
 21
318.270713
 31
0.0
  0
LINE
  5
9D
100
AcDbEntity
  8
0
  6
Continuous
 62
   174
100
AcDbLine
 10
457.232635
 20
318.271809
 30
0.0
 11
445.250155
 21
318.271809
 31
0.0
  0
LINE
  5
9E
100
AcDbEntity
  8
0
  6
HIDDEN
 62
   174
100
AcDbLine
 10
382.277408
 20
324.570713
 30
0.0
 11
382.277408
 21
341.670713
 31
0.0
  0
ARC
  5
9F
100
AcDbEntity
  8
0
  6
Continuous
 62
   174
100
AcDbCircle
 10
170.777408
 20
322.545713
 30
0.0
 40
2.25
100
AcDbArc
 50
180.0
 51
225.0
  0
LINE
  5
A0
100
AcDbEntity
  8
0
  6
HIDDEN
 62
   174
100
AcDbLine
 10
668.027408
 20
470.595713
 30
0.0
 11
664.427408
 21
470.595713
 31
0.0
  0
LINE
  5
A1
100
AcDbEntity
  8
0
  6
Continuous
 62
   174
100
AcDbLine
 10
170.777408
 20
340.545713
 30
0.0
 11
177.527408
 21
340.545713
 31
0.0
  0
LINE
  5
A2
100
AcDbEntity
  8
0
  6
HIDDEN
 62
   174
100
AcDbLine
 10
373.254825
 20
319.170713
 30
0.0
 11
362.118098
 21
319.170713
 31
0.0
  0
LINE
  5
A3
100
AcDbEntity
  8
0
  6
HIDDEN
 62
   174
100
AcDbLine
 10
214.79857
 20
444.270713
 30
0.0
 11
206.765136
 21
444.270713
 31
0.0
  0
LINE
  5
A4
100
AcDbEntity
  8
0
  6
HIDDEN
 62
   174
100
AcDbLine
 10
491.848284
 20
436.170713
 30
0.0
 11
490.539956
 21
436.170713
 31
0.0
  0
LINE
  5
A5
100
AcDbEntity
  8
0
  6
HIDDEN
 62
   174
100
AcDbLine
 10
389.027408
 20
319.170713
 30
0.0
 11
389.027408
 21
324.570713
 31
0.0
  0
LINE
  5
A6
100
AcDbEntity
  8
0
  6
Continuous
 62
   174
100
AcDbLine
 10
195.527408
 20
436.170713
 30
0.0
 11
195.527408
 21
444.270713
 31
0.0
  0
LINE
  5
A7
100
AcDbEntity
  8
0
  6
Continuous
 62
   174
100
AcDbLine
 10
719.777408
 20
396.795713
 30
0.0
 11
713.027408
 21
396.795713
 31
0.0
  0
LINE
  5
A8
100
AcDbEntity
  8
0
  6
Continuous
 62
   174
100
AcDbLine
 10
719.777408
 20
330.508294
 30
0.0
 11
719.777408
 21
340.632646
 31
0.0
  0
LINE
  5
A9
100
AcDbEntity
  8
0
  6
HIDDEN
 62
   174
100
AcDbLine
 10
719.777408
 20
330.420713
 30
0.0
 11
713.027408
 21
330.420713
 31
0.0
  0
LINE
  5
AA
100
AcDbEntity
  8
0
  6
HIDDEN
 62
   174
100
AcDbLine
 10
404.532585
 20
436.170713
 30
0.0
 11
402.768898
 21
436.170713
 31
0.0
  0
LINE
  5
AB
100
AcDbEntity
  8
0
  6
HIDDEN
 62
   174
100
AcDbLine
 10
494.011386
 20
436.170713
 30
0.0
 11
485.980358
 21
436.170713
 31
0.0
  0
LINE
  5
AC
100
AcDbEntity
  8
0
  6
HIDDEN
 62
   174
100
AcDbLine
 10
364.255334
 20
324.570713
 30
0.0
 11
382.254317
 21
324.570713
 31
0.0
  0
ARC
  5
AD
100
AcDbEntity
  8
0
  6
HIDDEN
 62
   174
100
AcDbCircle
 10
719.777408
 20
322.545713
 30
0.0
 40
2.25
100
AcDbArc
 50
-90.0
 51
0.0
  0
LINE
  5
AE
100
AcDbEntity
  8
0
  6
Continuous
 62
   174
100
AcDbLine
 10
719.777408
 20
418.254087
 30
0.0
 11
719.777408
 21
417.812564
 31
0.0
  0
LINE
  5
AF
100
AcDbEntity
  8
0
  6
HIDDEN
 62
   174
100
AcDbLine
 10
305.777408
 20
418.170713
 30
0.0
 11
305.777408
 21
417.720713
 31
0.0
  0
LINE
  5
B0
100
AcDbEntity
  8
0
  6
Continuous
 62
   174
100
AcDbLine
 10
514.119334
 20
418.170713
 30
0.0
 11
520.372239
 21
418.170713
 31
0.0
  0
LINE
  5
B1
100
AcDbEntity
  8
0
  6
Continuous
 62
   174
100
AcDbLine
 10
508.277408
 20
442.020713
 30
0.0
 11
508.277408
 21
449.670713
 31
0.0
  0
LINE
  5
B2
100
AcDbEntity
  8
0
  6
HIDDEN
 62
   174
100
AcDbLine
 10
422.751728
 20
436.170713
 30
0.0
 11
422.439533
 21
436.170713
 31
0.0
  0
ARC
  5
B3
100
AcDbEntity
  8
0
  6
HIDDEN
 62
   174
100
AcDbCircle
 10
170.777408
 20
338.295713
 30
0.0
 40
2.25
100
AcDbArc
 50
-270.0
 51
-180.0
  0
LINE
  5
B4
100
AcDbEntity
  8
0
  6
HIDDEN
 62
   174
100
AcDbLine
 10
222.527408
 20
476.445713
 30
0.0
 11
226.127408
 21
476.445713
 31
0.0
  0
LINE
  5
B5
100
AcDbEntity
  8
0
  6
HIDDEN
 62
   174
100
AcDbLine
 10
719.777408
 20
330.508294
 30
0.0
 11
719.777408
 21
340.632646
 31
0.0
  0
LINE
  5
B6
100
AcDbEntity
  8
0
  6
Continuous
 62
   174
100
AcDbLine
 10
170.777408
 20
341.312977
 30
0.0
 11
170.777408
 21
341.757508
 31
0.0
  0
LINE
  5
B7
100
AcDbEntity
  8
0
  6
HIDDEN
 62
   174
100
AcDbLine
 10
206.765136
 20
436.170713
 30
0.0
 11
195.51532
 21
436.170713
 31
0.0
  0
LINE
  5
B8
100
AcDbEntity
  8
0
  6
Continuous
 62
   174
100
AcDbLine
 10
520.158814
 20
418.170713
 30
0.0
 11
520.158814
 21
412.770713
 31
0.0
  0
LINE
  5
B9
100
AcDbEntity
  8
0
  6
Continuous
 62
   174
100
AcDbLine
 10
436.277408
 20
442.020713
 30
0.0
 11
436.277408
 21
449.670713
 31
0.0
  0
LINE
  5
BA
100
AcDbEntity
  8
0
  6
Continuous
 62
   174
100
AcDbLine
 10
713.027408
 20
320.295713
 30
0.0
 11
713.027408
 21
340.545713
 31
0.0
  0
LINE
  5
BB
100
AcDbEntity
  8
0
  6
Continuous
 62
   174
100
AcDbLine
 10
719.777408
 20
395.670713
 30
0.0
 11
719.777408
 21
341.670713
 31
0.0
  0
LINE
  5
BC
100
AcDbEntity
  8
0
  6
Continuous
 62
   174
100
AcDbLine
 10
170.777408
 20
395.670713
 30
0.0
 11
170.777408
 21
341.670713
 31
0.0
  0
LINE
  5
BD
100
AcDbEntity
  8
0
  6
HIDDEN
 62
   174
100
AcDbLine
 10
436.171262
 20
324.571809
 30
0.0
 11
432.653514
 21
324.571809
 31
0.0
  0
LINE
  5
BE
100
AcDbEntity
  8
0
  6
HIDDEN
 62
   174
100
AcDbLine
 10
170.777408
 20
418.170713
 30
0.0
 11
177.527408
 21
418.170713
 31
0.0
  0
LINE
  5
BF
100
AcDbEntity
  8
0
  6
Continuous
 62
   174
100
AcDbLine
 10
493.477829
 20
436.170713
 30
0.0
 11
484.723762
 21
436.170713
 31
0.0
  0
ARC
  5
C0
100
AcDbEntity
  8
0
  6
HIDDEN
 62
   174
100
AcDbCircle
 10
385.877297
 20
321.420713
 30
0.0
 40
3.15
100
AcDbArc
 50
-270.0
 51
-180.0
  0
ARC
  5
C1
100
AcDbEntity
  8
0
  6
HIDDEN
 62
   174
100
AcDbCircle
 10
529.878503
 20
321.420713
 30
0.0
 40
3.15
100
AcDbArc
 50
-180.0
 51
-90.0
  0
LINE
  5
C2
100
AcDbEntity
  8
0
  6
HIDDEN
 62
   174
100
AcDbLine
 10
713.027408
 20
396.879919
 30
0.0
 11
713.027408
 21
417.129226
 31
0.0
  0
LINE
  5
C3
100
AcDbEntity
  8
0
  6
HIDDEN
 62
   174
100
AcDbLine
 10
474.309472
 20
418.170713
 30
0.0
 11
484.69549
 21
418.170713
 31
0.0
  0
ARC
  5
C4
100
AcDbEntity
  8
0
  6
Continuous
 62
   174
100
AcDbCircle
 10
719.777408
 20
399.045713
 30
0.0
 40
2.25
100
AcDbArc
 50
-90.0
 51
0.0
  0
LINE
  5
C5
100
AcDbEntity
  8
0
  6
Continuous
 62
   174
100
AcDbLine
 10
672.527408
 20
436.170713
 30
0.0
 11
672.527408
 21
444.270713
 31
0.0
  0
LINE
  5
C6
100
AcDbEntity
  8
0
  6
HIDDEN
 62
   174
100
AcDbLine
 10
719.777408
 20
320.295713
 30
0.0
 11
719.777408
 21
330.420713
 31
0.0
  0
LINE
  5
C7
100
AcDbEntity
  8
0
  6
HIDDEN
 62
   174
100
AcDbLine
 10
719.777408
 20
396.879919
 30
0.0
 11
719.777408
 21
417.129226
 31
0.0
  0
LINE
  5
C8
100
AcDbEntity
  8
0
  6
HIDDEN
 62
   174
100
AcDbLine
 10
168.527408
 20
414.879503
 30
0.0
 11
168.527408
 21
399.129642
 31
0.0
  0
LINE
  5
C9
100
AcDbEntity
  8
0
  6
HIDDEN
 62
   174
100
AcDbLine
 10
523.568168
 20
319.170713
 30
0.0
 11
510.923404
 21
319.170713
 31
0.0
  0
LINE
  5
CA
100
AcDbEntity
  8
0
  6
HIDDEN
 62
   174
100
AcDbLine
 10
468.55704
 20
436.170713
 30
0.0
 11
467.653542
 21
436.170713
 31
0.0
  0
LINE
  5
CB
100
AcDbEntity
  8
0
  6
Continuous
 62
   174
100
AcDbLine
 10
177.527408
 20
418.170713
 30
0.0
 11
177.527408
 21
417.045713
 31
0.0
  0
LINE
  5
CC
100
AcDbEntity
  8
0
  6
Continuous
 62
   174
100
AcDbLine
 10
433.267676
 20
318.271809
 30
0.0
 11
432.651108
 21
318.271809
 31
0.0
  0
LINE
  5
CD
100
AcDbEntity
  8
0
  6
Continuous
 62
   174
100
AcDbLine
 10
332.777408
 20
319.170713
 30
0.0
 11
332.777408
 21
418.170713
 31
0.0
  0
LINE
  5
CE
100
AcDbEntity
  8
0
  6
HIDDEN
 62
   174
100
AcDbLine
 10
467.748583
 20
418.170713
 30
0.0
 11
473.63636
 21
418.170713
 31
0.0
  0
LINE
  5
CF
100
AcDbEntity
  8
0
  6
HIDDEN
 62
   174
100
AcDbLine
 10
719.777408
 20
320.383339
 30
0.0
 11
719.777408
 21
340.632646
 31
0.0
  0
LINE
  5
D0
100
AcDbEntity
  8
0
  6
Continuous
 62
   174
100
AcDbLine
 10
395.696108
 20
436.170713
 30
0.0
 11
391.250199
 21
436.170713
 31
0.0
  0
LINE
  5
D1
100
AcDbEntity
  8
0
  6
HIDDEN
 62
   174
100
AcDbLine
 10
676.577408
 20
473.520713
 30
0.0
 11
690.977408
 21
473.520713
 31
0.0
  0
LINE
  5
D2
100
AcDbEntity
  8
0
  6
HIDDEN
 62
   174
100
AcDbLine
 10
397.409867
 20
436.170713
 30
0.0
 11
396.602614
 21
436.170713
 31
0.0
  0
LINE
  5
D3
100
AcDbEntity
  8
0
  6
HIDDEN
 62
   174
100
AcDbLine
 10
429.748124
 20
319.170713
 30
0.0
 11
429.500895
 21
319.170713
 31
0.0
  0
LINE
  5
D4
100
AcDbEntity
  8
0
  6
HIDDEN
 62
   174
100
AcDbLine
 10
199.577408
 20
436.170713
 30
0.0
 11
213.977408
 21
436.170713
 31
0.0
  0
LINE
  5
D5
100
AcDbEntity
  8
0
  6
Continuous
 62
   174
100
AcDbLine
 10
664.427408
 20
436.170713
 30
0.0
 11
664.427408
 21
484.320713
 31
0.0
  0
LINE
  5
D6
100
AcDbEntity
  8
0
  6
HIDDEN
 62
   174
100
AcDbLine
 10
499.247104
 20
442.020713
 30
0.0
 11
463.845856
 21
442.020713
 31
0.0
  0
LINE
  5
D7
100
AcDbEntity
  8
0
  6
HIDDEN
 62
   174
100
AcDbLine
 10
364.175932
 20
324.570713
 30
0.0
 11
360.657583
 21
324.570713
 31
0.0
  0
ARC
  5
D8
100
AcDbEntity
  8
0
  6
HIDDEN
 62
   174
100
AcDbCircle
 10
385.877297
 20
321.420713
 30
0.0
 40
3.15
100
AcDbArc
 50
0.0
 51
90.0
  0
ARC
  5
D9
100
AcDbEntity
  8
0
  6
HIDDEN
 62
   174
100
AcDbCircle
 10
170.777408
 20
322.545713
 30
0.0
 40
2.25
100
AcDbArc
 50
180.0
 51
225.0
  0
LINE
  5
DA
100
AcDbEntity
  8
0
  6
HIDDEN
 62
   174
100
AcDbLine
 10
719.777408
 20
320.295713
 30
0.0
 11
713.027408
 21
320.295713
 31
0.0
  0
LINE
  5
DB
100
AcDbEntity
  8
0
  6
HIDDEN
 62
   174
100
AcDbLine
 10
460.999416
 20
319.170713
 30
0.0
 11
460.752789
 21
319.170713
 31
0.0
  0
LINE
  5
DC
100
AcDbEntity
  8
0
  6
Continuous
 62
   174
100
AcDbLine
 10
199.577408
 20
436.170713
 30
0.0
 11
199.577408
 21
473.520713
 31
0.0
  0
LINE
  5
DD
100
AcDbEntity
  8
0
  6
HIDDEN
 62
   174
100
AcDbLine
 10
420.051459
 20
436.170713
 30
0.0
 11
418.799675
 21
436.170713
 31
0.0
  0
LINE
  5
DE
100
AcDbEntity
  8
0
  6
HIDDEN
 62
   174
100
AcDbLine
 10
490.539956
 20
436.170713
 30
0.0
 11
489.041545
 21
436.170713
 31
0.0
  0
LINE
  5
DF
100
AcDbEntity
  8
0
  6
HIDDEN
 62
   174
100
AcDbLine
 10
222.527408
 20
436.170713
 30
0.0
 11
226.127408
 21
436.170713
 31
0.0
  0
LINE
  5
E0
100
AcDbEntity
  8
0
  6
Continuous
 62
   174
100
AcDbLine
 10
505.26421
 20
318.270713
 30
0.0
 11
504.647641
 21
318.270713
 31
0.0
  0
LINE
  5
E1
100
AcDbEntity
  8
0
  6
HIDDEN
 62
   174
100
AcDbLine
 10
457.846797
 20
324.571809
 30
0.0
 11
454.329049
 21
324.571809
 31
0.0
  0
LINE
  5
E2
100
AcDbEntity
  8
0
  6
HIDDEN
 62
   174
100
AcDbLine
 10
668.027408
 20
476.52611
 30
0.0
 11
668.027408
 21
470.676832
 31
0.0
  0
LINE
  5
E3
100
AcDbEntity
  8
0
  6
Continuous
 62
   174
100
AcDbLine
 10
170.777408
 20
396.795713
 30
0.0
 11
177.527408
 21
396.795713
 31
0.0
  0
LINE
  5
E4
100
AcDbEntity
  8
0
  6
Continuous
 62
   174
100
AcDbLine
 10
168.527408
 20
414.879503
 30
0.0
 11
168.527408
 21
399.129642
 31
0.0
  0
LINE
  5
E5
100
AcDbEntity
  8
0
  6
Continuous
 62
   174
100
AcDbLine
 10
722.027408
 20
322.633663
 30
0.0
 11
722.027408
 21
338.382924
 31
0.0
  0
LINE
  5
E6
100
AcDbEntity
  8
0
  6
HIDDEN
 62
   174
100
AcDbLine
 10
362.118098
 20
319.170713
 30
0.0
 11
360.69969
 21
319.170713
 31
0.0
  0
LINE
  5
E7
100
AcDbEntity
  8
0
  6
Continuous
 62
   174
100
AcDbLine
 10
719.777408
 20
396.20019
 30
0.0
 11
719.777408
 21
395.755058
 31
0.0
  0
LINE
  5
E8
100
AcDbEntity
  8
0
  6
HIDDEN
 62
   174
100
AcDbLine
 10
566.777408
 20
418.170713
 30
0.0
 11
566.777408
 21
417.720713
 31
0.0
  0
LINE
  5
E9
100
AcDbEntity
  8
0
  6
HIDDEN
 62
   174
100
AcDbLine
 10
402.768898
 20
436.170713
 30
0.0
 11
401.138752
 21
436.170713
 31
0.0
  0
LINE
  5
EA
100
AcDbEntity
  8
0
  6
HIDDEN
 62
   174
100
AcDbLine
 10
494.834881
 20
436.170713
 30
0.0
 11
494.011386
 21
436.170713
 31
0.0
  0
LINE
  5
EB
100
AcDbEntity
  8
0
  6
HIDDEN
 62
   174
100
AcDbLine
 10
427.251173
 20
436.170713
 30
0.0
 11
422.840754
 21
436.170713
 31
0.0
  0
LINE
  5
EC
100
AcDbEntity
  8
0
  6
HIDDEN
 62
   174
100
AcDbLine
 10
427.251173
 20
442.020713
 30
0.0
 11
391.253207
 21
442.020713
 31
0.0
  0
LINE
  5
ED
100
AcDbEntity
  8
0
  6
Continuous
 62
   174
100
AcDbLine
 10
463.116802
 20
442.020713
 30
0.0
 11
454.249647
 21
442.020713
 31
0.0
  0
LINE
  5
EE
100
AcDbEntity
  8
0
  6
Continuous
 62
   174
100
AcDbLine
 10
457.849203
 20
318.271809
 30
0.0
 11
457.232635
 21
318.271809
 31
0.0
  0
LINE
  5
EF
100
AcDbEntity
  8
0
  6
HIDDEN
 62
   174
100
AcDbLine
 10
713.027408
 20
320.383339
 30
0.0
 11
713.027408
 21
340.632646
 31
0.0
  0
ARC
  5
F0
100
AcDbEntity
  8
0
  6
Continuous
 62
   174
100
AcDbCircle
 10
170.777408
 20
338.295713
 30
0.0
 40
2.25
100
AcDbArc
 50
-270.0
 51
-180.0
  0
LINE
  5
F1
100
AcDbEntity
  8
0
  6
HIDDEN
 62
   174
100
AcDbLine
 10
508.277408
 20
324.570713
 30
0.0
 11
508.277408
 21
341.670713
 31
0.0
  0
LINE
  5
F2
100
AcDbEntity
  8
0
  6
Continuous
 62
   174
100
AcDbLine
 10
719.777408
 20
320.295713
 30
0.0
 11
713.027408
 21
320.295713
 31
0.0
  0
LINE
  5
F3
100
AcDbEntity
  8
0
  6
HIDDEN
 62
   174
100
AcDbLine
 10
436.250664
 20
341.670713
 30
0.0
 11
454.249647
 21
341.670713
 31
0.0
  0
LINE
  5
F4
100
AcDbEntity
  8
0
  6
HIDDEN
 62
   174
100
AcDbLine
 10
422.439533
 20
436.170713
 30
0.0
 11
421.901766
 21
436.170713
 31
0.0
  0
ARC
  5
F5
100
AcDbEntity
  8
0
  6
HIDDEN
 62
   174
100
AcDbCircle
 10
432.677438
 20
321.421809
 30
0.0
 40
3.15
100
AcDbArc
 50
-90.0
 51
0.0
  0
LINE
  5
F6
100
AcDbEntity
  8
0
  6
HIDDEN
 62
   174
100
AcDbLine
 10
177.527408
 20
340.632646
 30
0.0
 11
177.527408
 21
320.383339
 31
0.0
  0
LINE
  5
F7
100
AcDbEntity
  8
0
  6
HIDDEN
 62
   174
100
AcDbLine
 10
533.027408
 20
319.170713
 30
0.0
 11
533.027408
 21
324.570713
 31
0.0
  0
LINE
  5
F8
100
AcDbEntity
  8
0
  6
HIDDEN
 62
   174
100
AcDbLine
 10
719.777408
 20
341.670713
 30
0.0
 11
713.027408
 21
341.670713
 31
0.0
  0
LINE
  5
F9
100
AcDbEntity
  8
0
  6
Continuous
 62
   174
100
AcDbLine
 10
170.777408
 20
319.170713
 30
0.0
 11
170.777408
 21
320.295713
 31
0.0
  0
LINE
  5
FA
100
AcDbEntity
  8
0
  6
HIDDEN
 62
   174
100
AcDbLine
 10
719.777408
 20
320.383339
 30
0.0
 11
719.777408
 21
330.508294
 31
0.0
  0
LINE
  5
FB
100
AcDbEntity
  8
0
  6
Continuous
 62
   174
100
AcDbLine
 10
719.777408
 20
320.383339
 30
0.0
 11
719.777408
 21
330.508294
 31
0.0
  0
LINE
  5
FC
100
AcDbEntity
  8
0
  6
Continuous
 62
   174
100
AcDbLine
 10
499.277408
 20
436.170713
 30
0.0
 11
499.277408
 21
442.020713
 31
0.0
  0
LINE
  5
FD
100
AcDbEntity
  8
0
  6
Continuous
 62
   174
100
AcDbLine
 10
422.835942
 20
449.670713
 30
0.0
 11
395.668437
 21
449.670713
 31
0.0
  0
ARC
  5
FE
100
AcDbEntity
  8
0
  6
HIDDEN
 62
   174
100
AcDbCircle
 10
360.677297
 20
321.420713
 30
0.0
 40
3.15
100
AcDbArc
 50
-90.0
 51
0.0
  0
LINE
  5
FF
100
AcDbEntity
  8
0
  6
HIDDEN
 62
   174
100
AcDbLine
 10
445.250155
 20
324.571809
 30
0.0
 11
436.171262
 21
324.571809
 31
0.0
  0
LINE
  5
100
100
AcDbEntity
  8
0
  6
HIDDEN
 62
   174
100
AcDbLine
 10
222.527408
 20
470.595713
 30
0.0
 11
226.127408
 21
470.595713
 31
0.0
  0
LINE
  5
101
100
AcDbEntity
  8
0
  6
HIDDEN
 62
   174
100
AcDbLine
 10
454.277408
 20
324.570713
 30
0.0
 11
454.277408
 21
341.670713
 31
0.0
  0
LINE
  5
102
100
AcDbEntity
  8
0
  6
Continuous
 62
   174
100
AcDbLine
 10
391.277408
 20
436.170713
 30
0.0
 11
391.277408
 21
442.020713
 31
0.0
  0
LINE
  5
103
100
AcDbEntity
  8
0
  6
Continuous
 62
   174
100
AcDbLine
 10
517.246689
 20
318.270713
 30
0.0
 11
511.032883
 21
318.270713
 31
0.0
  0
ARC
  5
104
100
AcDbEntity
  8
0
  6
HIDDEN
 62
   174
100
AcDbCircle
 10
457.877438
 20
321.421809
 30
0.0
 40
3.15
100
AcDbArc
 50
-270.0
 51
-180.0
  0
ARC
  5
105
100
AcDbEntity
  8
0
  6
HIDDEN
 62
   174
100
AcDbCircle
 10
719.777408
 20
322.545713
 30
0.0
 40
2.25
100
AcDbArc
 50
-90.0
 51
0.0
  0
LINE
  5
106
100
AcDbEntity
  8
0
  6
HIDDEN
 62
   174
100
AcDbLine
 10
170.777408
 20
418.170713
 30
0.0
 11
177.527408
 21
418.170713
 31
0.0
  0
LINE
  5
107
100
AcDbEntity
  8
0
  6
HIDDEN
 62
   174
100
AcDbLine
 10
508.246596
 20
341.670713
 30
0.0
 11
526.244977
 21
341.670713
 31
0.0
  0
LINE
  5
108
100
AcDbEntity
  8
0
  6
HIDDEN
 62
   174
100
AcDbLine
 10
719.777408
 20
320.383339
 30
0.0
 11
719.777408
 21
340.632646
 31
0.0
  0
LINE
  5
109
100
AcDbEntity
  8
0
  6
Continuous
 62
   174
100
AcDbLine
 10
494.819241
 20
436.170713
 30
0.0
 11
493.477829
 21
436.170713
 31
0.0
  0
LINE
  5
10A
100
AcDbEntity
  8
0
  6
HIDDEN
 62
   174
100
AcDbLine
 10
422.777408
 20
418.170713
 30
0.0
 11
422.777408
 21
436.170713
 31
0.0
  0
LINE
  5
10B
100
AcDbEntity
  8
0
  6
Continuous
 62
   174
100
AcDbLine
 10
436.277408
 20
442.020713
 30
0.0
 11
436.277408
 21
449.670713
 31
0.0
  0
LINE
  5
10C
100
AcDbEntity
  8
0
  6
HIDDEN
 62
   174
100
AcDbLine
 10
484.69549
 20
436.170713
 30
0.0
 11
474.309472
 21
436.170713
 31
0.0
  0
LINE
  5
10D
100
AcDbEntity
  8
0
  6
HIDDEN
 62
   174
100
AcDbLine
 10
474.294434
 20
436.170713
 30
0.0
 11
468.55704
 21
436.170713
 31
0.0
  0
LINE
  5
10E
100
AcDbEntity
  8
0
  6
Continuous
 62
   174
100
AcDbLine
 10
713.027408
 20
319.170713
 30
0.0
 11
713.027408
 21
320.295713
 31
0.0
  0
LINE
  5
10F
100
AcDbEntity
  8
0
  6
Continuous
 62
   174
100
AcDbLine
 10
445.250155
 20
318.271809
 30
0.0
 11
432.651108
 21
318.271809
 31
0.0
  0
LINE
  5
110
100
AcDbEntity
  8
0
  6
HIDDEN
 62
   174
100
AcDbLine
 10
177.527408
 20
417.129226
 30
0.0
 11
177.527408
 21
396.879919
 31
0.0
  0
LINE
  5
111
100
AcDbEntity
  8
0
  6
HIDDEN
 62
   174
100
AcDbLine
 10
473.63636
 20
418.170713
 30
0.0
 11
474.309472
 21
418.170713
 31
0.0
  0
LINE
  5
112
100
AcDbEntity
  8
0
  6
HIDDEN
 62
   174
100
AcDbLine
 10
170.777408
 20
418.170713
 30
0.0
 11
177.527408
 21
418.170713
 31
0.0
  0
LINE
  5
113
100
AcDbEntity
  8
0
  6
HIDDEN
 62
   174
100
AcDbLine
 10
526.727408
 20
418.170713
 30
0.0
 11
526.727408
 21
412.770713
 31
0.0
  0
LINE
  5
114
100
AcDbEntity
  8
0
  6
Continuous
 62
   174
100
AcDbLine
 10
557.777408
 20
418.170713
 30
0.0
 11
520.158814
 21
418.170713
 31
0.0
  0
LINE
  5
115
100
AcDbEntity
  8
0
  6
HIDDEN
 62
   174
100
AcDbLine
 10
396.602614
 20
436.170713
 30
0.0
 11
396.065447
 21
436.170713
 31
0.0
  0
LINE
  5
116
100
AcDbEntity
  8
0
  6
Continuous
 62
   174
100
AcDbLine
 10
593.777408
 20
319.170713
 30
0.0
 11
557.777408
 21
319.170713
 31
0.0
  0
LINE
  5
117
100
AcDbEntity
  8
0
  6
Continuous
 62
   174
100
AcDbLine
 10
170.777408
 20
330.508294
 30
0.0
 11
170.777408
 21
320.383339
 31
0.0
  0
LINE
  5
118
100
AcDbEntity
  8
0
  6
HIDDEN
 62
   174
100
AcDbLine
 10
468.283344
 20
418.170713
 30
0.0
 11
467.713695
 21
418.170713
 31
0.0
  0
LINE
  5
119
100
AcDbEntity
  8
0
  6
HIDDEN
 62
   174
100
AcDbLine
 10
719.777408
 20
418.170713
 30
0.0
 11
713.027408
 21
418.170713
 31
0.0
  0
LINE
  5
11A
100
AcDbEntity
  8
0
  6
Continuous
 62
   174
100
AcDbLine
 10
694.984991
 20
444.270713
 30
0.0
 11
692.600525
 21
444.270713
 31
0.0
  0
LINE
  5
11B
100
AcDbEntity
  8
0
  6
HIDDEN
 62
   174
100
AcDbLine
 10
421.995003
 20
436.170713
 30
0.0
 11
409.25219
 21
436.170713
 31
0.0
  0
ARC
  5
11C
100
AcDbEntity
  8
0
  6
HIDDEN
 62
   174
100
AcDbCircle
 10
170.777408
 20
338.295713
 30
0.0
 40
2.25
100
AcDbArc
 50
-270.0
 51
-180.0
  0
LINE
  5
11D
100
AcDbEntity
  8
0
  6
HIDDEN
 62
   174
100
AcDbLine
 10
199.577408
 20
473.520713
 30
0.0
 11
213.977408
 21
473.520713
 31
0.0
  0
LINE
  5
11E
100
AcDbEntity
  8
0
  6
HIDDEN
 62
   174
100
AcDbLine
 10
510.923404
 20
319.170713
 30
0.0
 11
501.496827
 21
319.170713
 31
0.0
  0
LINE
  5
11F
100
AcDbEntity
  8
0
  6
HIDDEN
 62
   174
100
AcDbLine
 10
507.79605
 20
418.170713
 30
0.0
 11
514.119334
 21
418.170713
 31
0.0
  0
LINE
  5
120
100
AcDbEntity
  8
0
  6
HIDDEN
 62
   174
100
AcDbLine
 10
323.757923
 20
417.720713
 30
0.0
 11
305.75894
 21
417.720713
 31
0.0
  0
LINE
  5
121
100
AcDbEntity
  8
0
  6
HIDDEN
 62
   174
100
AcDbLine
 10
418.799675
 20
436.170713
 30
0.0
 11
417.366229
 21
436.170713
 31
0.0
  0
LINE
  5
122
100
AcDbEntity
  8
0
  6
HIDDEN
 62
   174
100
AcDbLine
 10
489.041545
 20
436.170713
 30
0.0
 11
487.406586
 21
436.170713
 31
0.0
  0
LINE
  5
123
100
AcDbEntity
  8
0
  6
Continuous
 62
   174
100
AcDbLine
 10
668.027408
 20
436.170713
 30
0.0
 11
668.027408
 21
484.320713
 31
0.0
  0
LINE
  5
124
100
AcDbEntity
  8
0
  6
Continuous
 62
   174
100
AcDbLine
 10
177.527408
 20
417.045713
 30
0.0
 11
177.527408
 21
396.795713
 31
0.0
  0
LINE
  5
125
100
AcDbEntity
  8
0
  6
HIDDEN
 62
   174
100
AcDbLine
 10
170.777408
 20
396.795713
 30
0.0
 11
177.527408
 21
396.795713
 31
0.0
  0
LINE
  5
126
100
AcDbEntity
  8
0
  6
HIDDEN
 62
   174
100
AcDbLine
 10
719.777408
 20
417.045713
 30
0.0
 11
713.027408
 21
417.045713
 31
0.0
  0
LINE
  5
127
100
AcDbEntity
  8
0
  6
HIDDEN
 62
   174
100
AcDbLine
 10
170.777408
 20
407.004272
 30
0.0
 11
170.777408
 21
396.879919
 31
0.0
  0
LINE
  5
128
100
AcDbEntity
  8
0
  6
Continuous
 62
   174
100
AcDbLine
 10
396.605621
 20
436.170713
 30
0.0
 11
395.696108
 21
436.170713
 31
0.0
  0
LINE
  5
129
100
AcDbEntity
  8
0
  6
Continuous
 62
   174
100
AcDbLine
 10
462.928523
 20
436.170713
 30
0.0
 11
454.249647
 21
436.170713
 31
0.0
  0
LINE
  5
12A
100
AcDbEntity
  8
0
  6
HIDDEN
 62
   174
100
AcDbLine
 10
305.75894
 20
418.170713
 30
0.0
 11
323.757923
 21
418.170713
 31
0.0
  0
LINE
  5
12B
100
AcDbEntity
  8
0
  6
Continuous
 62
   174
100
AcDbLine
 10
226.127408
 20
436.170713
 30
0.0
 11
226.127408
 21
484.320713
 31
0.0
  0
LINE
  5
12C
100
AcDbEntity
  8
0
  6
HIDDEN
 62
   174
100
AcDbLine
 10
401.138752
 20
436.170713
 30
0.0
 11
399.705306
 21
436.170713
 31
0.0
  0
LINE
  5
12D
100
AcDbEntity
  8
0
  6
HIDDEN
 62
   174
100
AcDbLine
 10
498.649785
 20
436.170713
 30
0.0
 11
494.834881
 21
436.170713
 31
0.0
  0
ARC
  5
12E
100
AcDbEntity
  8
0
  6
Continuous
 62
   174
100
AcDbCircle
 10
719.777408
 20
414.795713
 30
0.0
 40
2.25
100
AcDbArc
 50
0.0
 51
90.0
  0
LINE
  5
12F
100
AcDbEntity
  8
0
  6
Continuous
 62
   174
100
AcDbLine
 10
170.777408
 20
340.545713
 30
0.0
 11
177.527408
 21
340.545713
 31
0.0
  0
LINE
  5
130
100
AcDbEntity
  8
0
  6
HIDDEN
 62
   174
100
AcDbLine
 10
501.496827
 20
324.570713
 30
0.0
 11
532.994746
 21
324.570713
 31
0.0
  0
LINE
  5
131
100
AcDbEntity
  8
0
  6
HIDDEN
 62
   174
100
AcDbLine
 10
722.027408
 20
322.633663
 30
0.0
 11
722.027408
 21
338.382924
 31
0.0
  0
LINE
  5
132
100
AcDbEntity
  8
0
  6
HIDDEN
 62
   174
100
AcDbLine
 10
719.777408
 20
396.879919
 30
0.0
 11
719.777408
 21
417.129226
 31
0.0
  0
LINE
  5
133
100
AcDbEntity
  8
0
  6
HIDDEN
 62
   174
100
AcDbLine
 10
584.777408
 20
418.170713
 30
0.0
 11
584.777408
 21
417.720713
 31
0.0
  0
LINE
  5
134
100
AcDbEntity
  8
0
  6
HIDDEN
 62
   174
100
AcDbLine
 10
421.901766
 20
436.170713
 30
0.0
 11
421.094512
 21
436.170713
 31
0.0
  0
LINE
  5
135
100
AcDbEntity
  8
0
  6
HIDDEN
 62
   174
100
AcDbLine
 10
364.345563
 20
324.570713
 30
0.0
 11
361.271745
 21
324.570713
 31
0.0
  0
LINE
  5
136
100
AcDbEntity
  8
0
  6
Continuous
 62
   174
100
AcDbLine
 10
511.032883
 20
318.270713
 30
0.0
 11
504.647641
 21
318.270713
 31
0.0
  0
ARC
  5
137
100
AcDbEntity
  8
0
  6
HIDDEN
 62
   174
100
AcDbCircle
 10
504.678503
 20
321.420713
 30
0.0
 40
3.15
100
AcDbArc
 50
-90.0
 51
0.0
  0
LINE
  5
138
100
AcDbEntity
  8
0
  6
Continuous
 62
   174
100
AcDbLine
 10
457.849203
 20
318.271809
 30
0.0
 11
445.250155
 21
318.271809
 31
0.0
  0
LINE
  5
139
100
AcDbEntity
  8
0
  6
HIDDEN
 62
   174
100
AcDbLine
 10
389.027408
 20
319.170713
 30
0.0
 11
389.027408
 21
324.570713
 31
0.0
  0
ARC
  5
13A
100
AcDbEntity
  8
0
  6
Continuous
 62
   174
100
AcDbCircle
 10
170.777408
 20
399.045713
 30
0.0
 40
2.25
100
AcDbArc
 50
225.0
 51
270.0
  0
ARC
  5
13B
100
AcDbEntity
  8
0
  6
Continuous
 62
   174
100
AcDbCircle
 10
719.777408
 20
338.295713
 30
0.0
 40
2.25
100
AcDbArc
 50
0.0
 51
90.0
  0
LINE
  5
13C
100
AcDbEntity
  8
0
  6
HIDDEN
 62
   174
100
AcDbLine
 10
668.027408
 20
476.445713
 30
0.0
 11
664.427408
 21
476.445713
 31
0.0
  0
LINE
  5
13D
100
AcDbEntity
  8
0
  6
Continuous
 62
   174
100
AcDbLine
 10
719.777408
 20
396.795713
 30
0.0
 11
713.027408
 21
396.795713
 31
0.0
  0
LINE
  5
13E
100
AcDbEntity
  8
0
  6
HIDDEN
 62
   174
100
AcDbLine
 10
168.527408
 20
338.382924
 30
0.0
 11
168.527408
 21
322.633663
 31
0.0
  0
LINE
  5
13F
100
AcDbEntity
  8
0
  6
HIDDEN
 62
   174
100
AcDbLine
 10
683.735175
 20
436.170713
 30
0.0
 11
672.485961
 21
436.170713
 31
0.0
  0
ARC
  5
140
100
AcDbEntity
  8
0
  6
HIDDEN
 62
   174
100
AcDbCircle
 10
432.677438
 20
321.421809
 30
0.0
 40
3.15
100
AcDbArc
 50
90.0
 51
180.0
  0
LINE
  5
141
100
AcDbEntity
  8
0
  6
HIDDEN
 62
   174
100
AcDbLine
 10
501.527408
 20
319.170713
 30
0.0
 11
501.527408
 21
324.570713
 31
0.0
  0
LINE
  5
142
100
AcDbEntity
  8
0
  6
HIDDEN
 62
   174
100
AcDbLine
 10
719.777408
 20
418.170713
 30
0.0
 11
713.027408
 21
418.170713
 31
0.0
  0
LINE
  5
143
100
AcDbEntity
  8
0
  6
Continuous
 62
   174
100
AcDbLine
 10
719.777408
 20
407.004272
 30
0.0
 11
719.777408
 21
417.129226
 31
0.0
  0
LINE
  5
144
100
AcDbEntity
  8
0
  6
HIDDEN
 62
   174
100
AcDbLine
 10
206.765136
 20
444.270713
 30
0.0
 11
198.7311
 21
444.270713
 31
0.0
  0
LINE
  5
145
100
AcDbEntity
  8
0
  6
HIDDEN
 62
   174
100
AcDbLine
 10
218.01435
 20
436.170713
 30
0.0
 11
206.765136
 21
436.170713
 31
0.0
  0
LINE
  5
146
100
AcDbEntity
  8
0
  6
Continuous
 62
   174
100
AcDbLine
 10
463.277408
 20
436.170713
 30
0.0
 11
463.277408
 21
442.020713
 31
0.0
  0
LINE
  5
147
100
AcDbEntity
  8
0
  6
HIDDEN
 62
   174
100
AcDbLine
 10
454.329049
 20
324.571809
 30
0.0
 11
445.250155
 21
324.571809
 31
0.0
  0
LINE
  5
148
100
AcDbEntity
  8
0
  6
HIDDEN
 62
   174
100
AcDbLine
 10
357.505565
 20
324.570713
 30
0.0
 11
389.003484
 21
324.570713
 31
0.0
  0
LINE
  5
149
100
AcDbEntity
  8
0
  6
HIDDEN
 62
   174
100
AcDbLine
 10
222.527408
 20
476.445713
 30
0.0
 11
226.127408
 21
476.445713
 31
0.0
  0
LINE
  5
14A
100
AcDbEntity
  8
0
  6
HIDDEN
 62
   174
100
AcDbLine
 10
436.277408
 20
324.570713
 30
0.0
 11
436.277408
 21
341.670713
 31
0.0
  0
LINE
  5
14B
100
AcDbEntity
  8
0
  6
Continuous
 62
   174
100
AcDbLine
 10
454.277408
 20
442.020713
 30
0.0
 11
454.277408
 21
449.670713
 31
0.0
  0
LINE
  5
14C
100
AcDbEntity
  8
0
  6
HIDDEN
 62
   174
100
AcDbLine
 10
474.309472
 20
436.170713
 30
0.0
 11
473.63636
 21
436.170713
 31
0.0
  0
LINE
  5
14D
100
AcDbEntity
  8
0
  6
HIDDEN
 62
   174
100
AcDbLine
 10
484.717145
 20
436.170713
 30
0.0
 11
474.294434
 21
436.170713
 31
0.0
  0
LINE
  5
14E
100
AcDbEntity
  8
0
  6
Continuous
 62
   174
100
AcDbLine
 10
719.777408
 20
341.670713
 30
0.0
 11
713.027408
 21
341.670713
 31
0.0
  0
ARC
  5
14F
100
AcDbEntity
  8
0
  6
Continuous
 62
   174
100
AcDbCircle
 10
432.677438
 20
321.421809
 30
0.0
 40
3.15
100
AcDbArc
 50
225.0
 51
270.0
  0
ARC
  5
150
100
AcDbEntity
  8
0
  6
HIDDEN
 62
   174
100
AcDbCircle
 10
170.777408
 20
322.545713
 30
0.0
 40
2.25
100
AcDbArc
 50
225.0
 51
270.0
  0
LINE
  5
151
100
AcDbEntity
  8
0
  6
HIDDEN
 62
   174
100
AcDbLine
 10
170.777408
 20
341.670713
 30
0.0
 11
177.527408
 21
341.670713
 31
0.0
  0
LINE
  5
152
100
AcDbEntity
  8
0
  6
HIDDEN
 62
   174
100
AcDbLine
 10
713.027408
 20
395.755058
 30
0.0
 11
713.027408
 21
407.004272
 31
0.0
  0
LINE
  5
153
100
AcDbEntity
  8
0
  6
HIDDEN
 62
   174
100
AcDbLine
 10
396.065447
 20
436.170713
 30
0.0
 11
395.753253
 21
436.170713
 31
0.0
  0
LINE
  5
154
100
AcDbEntity
  8
0
  6
Continuous
 62
   174
100
AcDbLine
 10
499.361996
 20
442.020713
 30
0.0
 11
463.116802
 21
442.020713
 31
0.0
  0
ARC
  5
155
100
AcDbEntity
  8
0
  6
Continuous
 62
   174
100
AcDbCircle
 10
504.678503
 20
321.420713
 30
0.0
 40
3.15
100
AcDbArc
 50
225.0
 51
270.0
  0
LINE
  5
156
100
AcDbEntity
  8
0
  6
Continuous
 62
   174
100
AcDbLine
 10
170.777408
 20
340.632646
 30
0.0
 11
170.777408
 21
330.508294
 31
0.0
  0
LINE
  5
157
100
AcDbEntity
  8
0
  6
HIDDEN
 62
   174
100
AcDbLine
 10
457.80469
 20
319.170713
 30
0.0
 11
456.386282
 21
319.170713
 31
0.0
  0
LINE
  5
158
100
AcDbEntity
  8
0
  6
HIDDEN
 62
   174
100
AcDbLine
 10
474.352782
 20
418.170713
 30
0.0
 11
468.283344
 21
418.170713
 31
0.0
  0
LINE
  5
159
100
AcDbEntity
  8
0
  6
Continuous
 62
   174
100
AcDbLine
 10
498.667229
 20
436.170713
 30
0.0
 11
494.819241
 21
436.170713
 31
0.0
  0
LINE
  5
15A
100
AcDbEntity
  8
0
  6
HIDDEN
 62
   174
100
AcDbLine
 10
170.777408
 20
395.670713
 30
0.0
 11
177.527408
 21
395.670713
 31
0.0
  0
LINE
  5
15B
100
AcDbEntity
  8
0
  6
Continuous
 62
   174
100
AcDbLine
 10
467.658354
 20
449.670713
 30
0.0
 11
454.249647
 21
449.670713
 31
0.0
  0
LINE
  5
15C
100
AcDbEntity
  8
0
  6
Continuous
 62
   174
100
AcDbLine
 10
177.527408
 20
396.795713
 30
0.0
 11
177.527408
 21
395.670713
 31
0.0
  0
LINE
  5
15D
100
AcDbEntity
  8
0
  6
Continuous
 62
   174
100
AcDbLine
 10
557.777408
 20
418.170713
 30
0.0
 11
557.777408
 21
319.170713
 31
0.0
  0
LINE
  5
15E
100
AcDbEntity
  8
0
  6
HIDDEN
 62
   174
100
AcDbLine
 10
177.527408
 20
340.632646
 30
0.0
 11
177.527408
 21
320.383339
 31
0.0
  0
ARC
  5
15F
100
AcDbEntity
  8
0
  6
Continuous
 62
   174
100
AcDbCircle
 10
170.777408
 20
338.295713
 30
0.0
 40
2.25
100
AcDbArc
 50
-270.0
 51
-180.0
  0
ARC
  5
160
100
AcDbEntity
  8
0
  6
HIDDEN
 62
   174
100
AcDbCircle
 10
170.777408
 20
414.795713
 30
0.0
 40
2.25
100
AcDbArc
 50
-270.0
 51
-180.0
  0
LINE
  5
161
100
AcDbEntity
  8
0
  6
HIDDEN
 62
   174
100
AcDbLine
 10
713.027408
 20
407.004272
 30
0.0
 11
713.027408
 21
418.254087
 31
0.0
  0
LINE
  5
162
100
AcDbEntity
  8
0
  6
HIDDEN
 62
   174
100
AcDbLine
 10
719.777408
 20
395.670713
 30
0.0
 11
713.027408
 21
395.670713
 31
0.0
  0
LINE
  5
163
100
AcDbEntity
  8
0
  6
HIDDEN
 62
   174
100
AcDbLine
 10
694.984991
 20
436.170713
 30
0.0
 11
683.735175
 21
436.170713
 31
0.0
  0
LINE
  5
164
100
AcDbEntity
  8
0
  6
HIDDEN
 62
   174
100
AcDbLine
 10
417.366229
 20
436.170713
 30
0.0
 11
415.735481
 21
436.170713
 31
0.0
  0
LINE
  5
165
100
AcDbEntity
  8
0
  6
HIDDEN
 62
   174
100
AcDbLine
 10
487.406586
 20
436.170713
 30
0.0
 11
485.632072
 21
436.170713
 31
0.0
  0
ARC
  5
166
100
AcDbEntity
  8
0
  6
HIDDEN
 62
   174
100
AcDbCircle
 10
385.877297
 20
321.420713
 30
0.0
 40
3.15
100
AcDbArc
 50
-180.0
 51
-90.0
  0
LINE
  5
167
100
AcDbEntity
  8
0
  6
Continuous
 62
   174
100
AcDbLine
 10
373.254825
 20
318.270713
 30
0.0
 11
361.271745
 21
318.270713
 31
0.0
  0
LINE
  5
168
100
AcDbEntity
  8
0
  6
Continuous
 62
   174
100
AcDbLine
 10
557.777408
 20
319.170713
 30
0.0
 11
557.777408
 21
418.170713
 31
0.0
  0
LINE
  5
169
100
AcDbEntity
  8
0
  6
Continuous
 62
   174
100
AcDbLine
 10
676.577408
 20
473.520713
 30
0.0
 11
690.977408
 21
473.520713
 31
0.0
  0
LINE
  5
16A
100
AcDbEntity
  8
0
  6
HIDDEN
 62
   174
100
AcDbLine
 10
170.777408
 20
417.129226
 30
0.0
 11
170.777408
 21
407.004272
 31
0.0
  0
LINE
  5
16B
100
AcDbEntity
  8
0
  6
HIDDEN
 62
   174
100
AcDbLine
 10
388.75806
 20
319.170713
 30
0.0
 11
386.703233
 21
319.170713
 31
0.0
  0
LINE
  5
16C
100
AcDbEntity
  8
0
  6
HIDDEN
 62
   174
100
AcDbLine
 10
676.577408
 20
444.270713
 30
0.0
 11
676.577408
 21
451.020713
 31
0.0
  0
LINE
  5
16D
100
AcDbEntity
  8
0
  6
HIDDEN
 62
   174
100
AcDbLine
 10
566.742989
 20
418.170713
 30
0.0
 11
584.741371
 21
418.170713
 31
0.0
  0
LINE
  5
16E
100
AcDbEntity
  8
0
  6
HIDDEN
 62
   174
100
AcDbLine
 10
494.777408
 20
418.170713
 30
0.0
 11
494.777408
 21
436.170713
 31
0.0
  0
LINE
  5
16F
100
AcDbEntity
  8
0
  6
HIDDEN
 62
   174
100
AcDbLine
 10
399.705306
 20
436.170713
 30
0.0
 11
398.453522
 21
436.170713
 31
0.0
  0
LINE
  5
170
100
AcDbEntity
  8
0
  6
HIDDEN
 62
   174
100
AcDbLine
 10
499.247104
 20
436.170713
 30
0.0
 11
498.649785
 21
436.170713
 31
0.0
  0
LINE
  5
171
100
AcDbEntity
  8
0
  6
HIDDEN
 62
   174
100
AcDbLine
 10
385.851467
 20
324.570713
 30
0.0
 11
382.333719
 21
324.570713
 31
0.0
  0
LINE
  5
172
100
AcDbEntity
  8
0
  6
HIDDEN
 62
   174
100
AcDbLine
 10
713.027408
 20
320.383339
 30
0.0
 11
713.027408
 21
340.632646
 31
0.0
  0
LINE
  5
173
100
AcDbEntity
  8
0
  6
HIDDEN
 62
   174
100
AcDbLine
 10
719.777408
 20
396.795713
 30
0.0
 11
713.027408
 21
396.795713
 31
0.0
  0
LINE
  5
174
100
AcDbEntity
  8
0
  6
HIDDEN
 62
   174
100
AcDbLine
 10
199.577408
 20
451.020713
 30
0.0
 11
199.577408
 21
473.520713
 31
0.0
  0
LINE
  5
175
100
AcDbEntity
  8
0
  6
Continuous
 62
   174
100
AcDbLine
 10
409.25219
 20
436.170713
 30
0.0
 11
396.605621
 21
436.170713
 31
0.0
  0
LINE
  5
176
100
AcDbEntity
  8
0
  6
Continuous
 62
   174
100
AcDbLine
 10
199.577408
 20
473.520713
 30
0.0
 11
213.977408
 21
473.520713
 31
0.0
  0
LINE
  5
177
100
AcDbEntity
  8
0
  6
HIDDEN
 62
   174
100
AcDbLine
 10
421.094512
 20
436.170713
 30
0.0
 11
420.051459
 21
436.170713
 31
0.0
  0
ARC
  5
178
100
AcDbEntity
  8
0
  6
HIDDEN
 62
   174
100
AcDbCircle
 10
529.878503
 20
321.420713
 30
0.0
 40
3.15
100
AcDbArc
 50
-270.0
 51
-180.0
  0
LINE
  5
179
100
AcDbEntity
  8
0
  6
HIDDEN
 62
   174
100
AcDbLine
 10
445.250155
 20
324.571809
 30
0.0
 11
436.341495
 21
324.571809
 31
0.0
  0
LINE
  5
17A
100
AcDbEntity
  8
0
  6
HIDDEN
 62
   174
100
AcDbLine
 10
364.277408
 20
324.570713
 30
0.0
 11
364.277408
 21
341.670713
 31
0.0
  0
ARC
  5
17B
100
AcDbEntity
  8
0
  6
HIDDEN
 62
   174
100
AcDbCircle
 10
719.777408
 20
399.045713
 30
0.0
 40
2.25
100
AcDbArc
 50
-90.0
 51
0.0
  0
ARC
  5
17C
100
AcDbEntity
  8
0
  6
HIDDEN
 62
   174
100
AcDbCircle
 10
170.777408
 20
322.545713
 30
0.0
 40
2.25
100
AcDbArc
 50
225.0
 51
270.0
  0
LINE
  5
17D
100
AcDbEntity
  8
0
  6
HIDDEN
 62
   174
100
AcDbLine
 10
170.777408
 20
417.045713
 30
0.0
 11
177.527408
 21
417.045713
 31
0.0
  0
LINE
  5
17E
100
AcDbEntity
  8
0
  6
Continuous
 62
   174
100
AcDbLine
 10
170.777408
 20
396.795713
 30
0.0
 11
177.527408
 21
396.795713
 31
0.0
  0
LINE
  5
17F
100
AcDbEntity
  8
0
  6
HIDDEN
 62
   174
100
AcDbLine
 10
719.777408
 20
340.545713
 30
0.0
 11
713.027408
 21
340.545713
 31
0.0
  0
LINE
  5
180
100
AcDbEntity
  8
0
  6
HIDDEN
 62
   174
100
AcDbLine
 10
460.752789
 20
319.170713
 30
0.0
 11
458.699165
 21
319.170713
 31
0.0
  0
LINE
  5
181
100
AcDbEntity
  8
0
  6
Continuous
 62
   174
100
AcDbLine
 10
215.629884
 20
444.270713
 30
0.0
 11
214.79857
 21
444.270713
 31
0.0
  0
LINE
  5
182
100
AcDbEntity
  8
0
  6
HIDDEN
 62
   174
100
AcDbLine
 10
357.527408
 20
319.170713
 30
0.0
 11
357.527408
 21
324.570713
 31
0.0
  0
ARC
  5
183
100
AcDbEntity
  8
0
  6
Continuous
 62
   174
100
AcDbCircle
 10
170.777408
 20
399.045713
 30
0.0
 40
2.25
100
AcDbArc
 50
180.0
 51
225.0
  0
LINE
  5
184
100
AcDbEntity
  8
0
  6
Continuous
 62
   174
100
AcDbLine
 10
719.777408
 20
417.045713
 30
0.0
 11
713.027408
 21
417.045713
 31
0.0
  0
LINE
  5
185
100
AcDbEntity
  8
0
  6
HIDDEN
 62
   174
100
AcDbLine
 10
713.027408
 20
330.420713
 30
0.0
 11
713.027408
 21
319.170713
 31
0.0
  0
LINE
  5
186
100
AcDbEntity
  8
0
  6
HIDDEN
 62
   174
100
AcDbLine
 10
170.777408
 20
407.004272
 30
0.0
 11
170.777408
 21
417.808955
 31
0.0
  0
LINE
  5
187
100
AcDbEntity
  8
0
  6
Continuous
 62
   174
100
AcDbLine
 10
529.846338
 20
318.270713
 30
0.0
 11
523.45869
 21
318.270713
 31
0.0
  0
ARC
  5
188
100
AcDbEntity
  8
0
  6
Continuous
 62
   174
100
AcDbCircle
 10
457.877438
 20
321.421809
 30
0.0
 40
3.15
100
AcDbArc
 50
-90.0
 51
-45.0
  0
ARC
  5
189
100
AcDbEntity
  8
0
  6
HIDDEN
 62
   174
100
AcDbCircle
 10
457.877438
 20
321.421809
 30
0.0
 40
3.15
100
AcDbArc
 50
0.0
 51
90.0
  0
LINE
  5
18A
100
AcDbEntity
  8
0
  6
HIDDEN
 62
   174
100
AcDbLine
 10
364.255334
 20
341.670713
 30
0.0
 11
382.254317
 21
341.670713
 31
0.0
  0
LINE
  5
18B
100
AcDbEntity
  8
0
  6
HIDDEN
 62
   174
100
AcDbLine
 10
526.277408
 20
324.570713
 30
0.0
 11
526.277408
 21
341.670713
 31
0.0
  0
LINE
  5
18C
100
AcDbEntity
  8
0
  6
Continuous
 62
   174
100
AcDbLine
 10
719.777408
 20
340.545713
 30
0.0
 11
713.027408
 21
340.545713
 31
0.0
  0
LINE
  5
18D
100
AcDbEntity
  8
0
  6
HIDDEN
 62
   174
100
AcDbLine
 10
170.777408
 20
340.545713
 30
0.0
 11
177.527408
 21
340.545713
 31
0.0
  0
LINE
  5
18E
100
AcDbEntity
  8
0
  6
HIDDEN
 62
   174
100
AcDbLine
 10
719.777408
 20
418.170713
 30
0.0
 11
713.027408
 21
418.170713
 31
0.0
  0
LINE
  5
18F
100
AcDbEntity
  8
0
  6
HIDDEN
 62
   174
100
AcDbLine
 10
520.372239
 20
418.170713
 30
0.0
 11
526.694921
 21
418.170713
 31
0.0
  0
LINE
  5
190
100
AcDbEntity
  8
0
  6
Continuous
 62
   174
100
AcDbLine
 10
674.870426
 20
444.270713
 30
0.0
 11
672.485961
 21
444.270713
 31
0.0
  0
LINE
  5
191
100
AcDbEntity
  8
0
  6
HIDDEN
 62
   174
100
AcDbLine
 10
473.63636
 20
436.170713
 30
0.0
 11
467.748583
 21
436.170713
 31
0.0
  0
LINE
  5
192
100
AcDbEntity
  8
0
  6
HIDDEN
 62
   174
100
AcDbLine
 10
485.980358
 20
436.170713
 30
0.0
 11
484.717145
 21
436.170713
 31
0.0
  0
LINE
  5
193
100
AcDbEntity
  8
0
  6
Continuous
 62
   174
100
AcDbLine
 10
170.777408
 20
418.170713
 30
0.0
 11
177.527408
 21
418.170713
 31
0.0
  0
LINE
  5
194
100
AcDbEntity
  8
0
  6
HIDDEN
 62
   174
100
AcDbLine
 10
373.254825
 20
324.570713
 30
0.0
 11
364.345563
 21
324.570713
 31
0.0
  0
LINE
  5
195
100
AcDbEntity
  8
0
  6
Continuous
 62
   174
100
AcDbLine
 10
523.45869
 20
318.270713
 30
0.0
 11
517.246689
 21
318.270713
 31
0.0
  0
LINE
  5
196
100
AcDbEntity
  8
0
  6
HIDDEN
 62
   174
100
AcDbLine
 10
222.527408
 20
470.595713
 30
0.0
 11
226.127408
 21
470.595713
 31
0.0
  0
LINE
  5
197
100
AcDbEntity
  8
0
  6
HIDDEN
 62
   174
100
AcDbLine
 10
436.277408
 20
324.570713
 30
0.0
 11
436.277408
 21
341.670713
 31
0.0
  0
LINE
  5
198
100
AcDbEntity
  8
0
  6
HIDDEN
 62
   174
100
AcDbLine
 10
421.898758
 20
418.170713
 30
0.0
 11
409.25219
 21
418.170713
 31
0.0
  0
LINE
  5
199
100
AcDbEntity
  8
0
  6
Continuous
 62
   174
100
AcDbLine
 10
382.277408
 20
442.020713
 30
0.0
 11
382.277408
 21
449.670713
 31
0.0
  0
LINE
  5
19A
100
AcDbEntity
  8
0
  6
HIDDEN
 62
   174
100
AcDbLine
 10
484.69549
 20
418.170713
 30
0.0
 11
494.747058
 21
418.170713
 31
0.0
  0
ARC
  5
19B
100
AcDbEntity
  8
0
  6
Continuous
 62
   174
100
AcDbCircle
 10
719.777408
 20
322.545713
 30
0.0
 40
2.25
100
AcDbArc
 50
-90.0
 51
0.0
  0
LINE
  5
19C
100
AcDbEntity
  8
0
  6
Continuous
 62
   174
100
AcDbLine
 10
719.777408
 20
319.170713
 30
0.0
 11
719.777408
 21
320.295713
 31
0.0
  0
LINE
  5
19D
100
AcDbEntity
  8
0
  6
Continuous
 62
   174
100
AcDbLine
 10
168.527408
 20
338.382924
 30
0.0
 11
168.527408
 21
322.633663
 31
0.0
  0
LINE
  5
19E
100
AcDbEntity
  8
0
  6
HIDDEN
 62
   174
100
AcDbLine
 10
436.250664
 20
324.570713
 30
0.0
 11
454.249647
 21
324.570713
 31
0.0
  0
LINE
  5
19F
100
AcDbEntity
  8
0
  6
HIDDEN
 62
   174
100
AcDbLine
 10
389.003484
 20
319.170713
 30
0.0
 11
388.75806
 21
319.170713
 31
0.0
  0
LINE
  5
1A0
100
AcDbEntity
  8
0
  6
HIDDEN
 62
   174
100
AcDbLine
 10
360.69969
 20
319.170713
 30
0.0
 11
359.805816
 21
319.170713
 31
0.0
  0
LINE
  5
1A1
100
AcDbEntity
  8
0
  6
HIDDEN
 62
   174
100
AcDbLine
 10
456.386282
 20
319.170713
 30
0.0
 11
445.250155
 21
319.170713
 31
0.0
  0
LINE
  5
1A2
100
AcDbEntity
  8
0
  6
Continuous
 62
   174
100
AcDbLine
 10
499.290414
 20
436.170713
 30
0.0
 11
498.667229
 21
436.170713
 31
0.0
  0
LINE
  5
1A3
100
AcDbEntity
  8
0
  6
Continuous
 62
   174
100
AcDbLine
 10
467.713695
 20
436.170713
 30
0.0
 11
462.928523
 21
436.170713
 31
0.0
  0
LINE
  5
1A4
100
AcDbEntity
  8
0
  6
Continuous
 62
   174
100
AcDbLine
 10
427.277408
 20
436.170713
 30
0.0
 11
427.277408
 21
442.020713
 31
0.0
  0
LINE
  5
1A5
100
AcDbEntity
  8
0
  6
HIDDEN
 62
   174
100
AcDbLine
 10
396.509978
 20
436.170713
 30
0.0
 11
395.664227
 21
436.170713
 31
0.0
  0
LINE
  5
1A6
100
AcDbEntity
  8
0
  6
Continuous
 62
   174
100
AcDbLine
 10
507.350917
 20
442.020713
 30
0.0
 11
499.361996
 21
442.020713
 31
0.0
  0
LINE
  5
1A7
100
AcDbEntity
  8
0
  6
Continuous
 62
   174
100
AcDbLine
 10
436.250664
 20
449.670713
 30
0.0
 11
422.835942
 21
449.670713
 31
0.0
  0
LINE
  5
1A8
100
AcDbEntity
  8
0
  6
Continuous
 62
   174
100
AcDbLine
 10
385.237304
 20
318.270713
 30
0.0
 11
373.254825
 21
318.270713
 31
0.0
  0
LINE
  5
1A9
100
AcDbEntity
  8
0
  6
HIDDEN
 62
   174
100
AcDbLine
 10
713.027408
 20
396.879919
 30
0.0
 11
713.027408
 21
417.129226
 31
0.0
  0
ARC
  5
1AA
100
AcDbEntity
  8
0
  6
Continuous
 62
   174
100
AcDbCircle
 10
170.777408
 20
399.045713
 30
0.0
 40
2.25
100
AcDbArc
 50
225.0
 51
270.0
  0
LINE
  5
1AB
100
AcDbEntity
  8
0
  6
HIDDEN
 62
   174
100
AcDbLine
 10
168.527408
 20
414.879503
 30
0.0
 11
168.527408
 21
399.129642
 31
0.0
  0
LINE
  5
1AC
100
AcDbEntity
  8
0
  6
HIDDEN
 62
   174
100
AcDbLine
 10
168.527408
 20
414.879503
 30
0.0
 11
168.527408
 21
399.129642
 31
0.0
  0
LINE
  5
1AD
100
AcDbEntity
  8
0
  6
HIDDEN
 62
   174
100
AcDbLine
 10
713.027408
 20
330.508294
 30
0.0
 11
713.027408
 21
341.757508
 31
0.0
  0
LINE
  5
1AE
100
AcDbEntity
  8
0
  6
HIDDEN
 62
   174
100
AcDbLine
 10
170.777408
 20
341.670713
 30
0.0
 11
177.527408
 21
341.670713
 31
0.0
  0
LINE
  5
1AF
100
AcDbEntity
  8
0
  6
HIDDEN
 62
   174
100
AcDbLine
 10
683.735175
 20
444.270713
 30
0.0
 11
675.701741
 21
444.270713
 31
0.0
  0
LINE
  5
1B0
100
AcDbEntity
  8
0
  6
HIDDEN
 62
   174
100
AcDbLine
 10
415.735481
 20
436.170713
 30
0.0
 11
413.972396
 21
436.170713
 31
0.0
  0
LINE
  5
1B1
100
AcDbEntity
  8
0
  6
HIDDEN
 62
   174
100
AcDbLine
 10
485.632072
 20
436.170713
 30
0.0
 11
484.69549
 21
436.170713
 31
0.0
  0
LINE
  5
1B2
100
AcDbEntity
  8
0
  6
Continuous
 62
   174
100
AcDbLine
 10
361.271745
 20
318.270713
 30
0.0
 11
360.655176
 21
318.270713
 31
0.0
  0
ARC
  5
1B3
100
AcDbEntity
  8
0
  6
HIDDEN
 62
   174
100
AcDbCircle
 10
432.677438
 20
321.421809
 30
0.0
 40
3.15
100
AcDbArc
 50
0.0
 51
90.0
  0
LINE
  5
1B4
100
AcDbEntity
  8
0
  6
Continuous
 62
   174
100
AcDbLine
 10
593.777408
 20
418.170713
 30
0.0
 11
593.777408
 21
319.170713
 31
0.0
  0
LINE
  5
1B5
100
AcDbEntity
  8
0
  6
HIDDEN
 62
   174
100
AcDbLine
 10
226.127408
 20
470.676832
 30
0.0
 11
226.127408
 21
476.52611
 31
0.0
  0
LINE
  5
1B6
100
AcDbEntity
  8
0
  6
HIDDEN
 62
   174
100
AcDbLine
 10
676.577408
 20
436.170713
 30
0.0
 11
690.977408
 21
436.170713
 31
0.0
  0
LINE
  5
1B7
100
AcDbEntity
  8
0
  6
HIDDEN
 62
   174
100
AcDbLine
 10
719.777408
 20
341.315984
 30
0.0
 11
719.777408
 21
330.508294
 31
0.0
  0
LINE
  5
1B8
100
AcDbEntity
  8
0
  6
Continuous
 62
   174
100
AcDbLine
 10
514.396002
 20
418.170713
 30
0.0
 11
332.777408
 21
418.170713
 31
0.0
  0
LINE
  5
1B9
100
AcDbEntity
  8
0
  6
HIDDEN
 62
   174
100
AcDbLine
 10
398.453522
 20
436.170713
 30
0.0
 11
397.409867
 21
436.170713
 31
0.0
  0
LINE
  5
1BA
100
AcDbEntity
  8
0
  6
Continuous
 62
   174
100
AcDbLine
 10
296.777408
 20
319.170713
 30
0.0
 11
332.777408
 21
319.170713
 31
0.0
  0
LINE
  5
1BB
100
AcDbEntity
  8
0
  6
HIDDEN
 62
   174
100
AcDbLine
 10
722.027408
 20
399.129642
 30
0.0
 11
722.027408
 21
414.879503
 31
0.0
  0
LINE
  5
1BC
100
AcDbEntity
  8
0
  6
Continuous
 62
   174
100
AcDbLine
 10
719.777408
 20
396.879919
 30
0.0
 11
719.777408
 21
407.004272
 31
0.0
  0
LINE
  5
1BD
100
AcDbEntity
  8
0
  6
Continuous
 62
   174
100
AcDbLine
 10
421.898758
 20
436.170713
 30
0.0
 11
409.25219
 21
436.170713
 31
0.0
  0
LINE
  5
1BE
100
AcDbEntity
  8
0
  6
HIDDEN
 62
   174
100
AcDbLine
 10
690.977408
 20
451.020713
 30
0.0
 11
690.977408
 21
473.520713
 31
0.0
  0
LINE
  5
1BF
100
AcDbEntity
  8
0
  6
HIDDEN
 62
   174
100
AcDbLine
 10
691.769211
 20
444.270713
 30
0.0
 11
683.735175
 21
444.270713
 31
0.0
  0
LINE
  5
1C0
100
AcDbEntity
  8
0
  6
Continuous
 62
   174
100
AcDbLine
 10
468.102885
 20
449.670713
 30
0.0
 11
467.658354
 21
449.670713
 31
0.0
  0
LINE
  5
1C1
100
AcDbEntity
  8
0
  6
HIDDEN
 62
   174
100
AcDbLine
 10
382.333719
 20
324.570713
 30
0.0
 11
373.254825
 21
324.570713
 31
0.0
  0
ARC
  5
1C2
100
AcDbEntity
  8
0
  6
HIDDEN
 62
   174
100
AcDbCircle
 10
504.678503
 20
321.420713
 30
0.0
 40
3.15
100
AcDbArc
 50
90.0
 51
180.0
  0
ARC
  5
1C3
100
AcDbEntity
  8
0
  6
HIDDEN
 62
   174
100
AcDbCircle
 10
432.677438
 20
321.421809
 30
0.0
 40
3.15
100
AcDbArc
 50
180.0
 51
225.0
  0
LINE
  5
1C4
100
AcDbEntity
  8
0
  6
Continuous
 62
   174
100
AcDbLine
 10
218.027408
 20
436.170713
 30
0.0
 11
218.027408
 21
444.270713
 31
0.0
  0
LINE
  5
1C5
100
AcDbEntity
  8
0
  6
HIDDEN
 62
   174
100
AcDbLine
 10
170.777408
 20
320.295713
 30
0.0
 11
177.527408
 21
320.295713
 31
0.0
  0
LINE
  5
1C6
100
AcDbEntity
  8
0
  6
HIDDEN
 62
   174
100
AcDbLine
 10
199.577408
 20
444.270713
 30
0.0
 11
199.577408
 21
451.020713
 31
0.0
  0
LINE
  5
1C7
100
AcDbEntity
  8
0
  6
HIDDEN
 62
   174
100
AcDbLine
 10
719.777408
 20
407.004272
 30
0.0
 11
719.777408
 21
417.129226
 31
0.0
  0
LINE
  5
1C8
100
AcDbEntity
  8
0
  6
HIDDEN
 62
   174
100
AcDbLine
 10
722.027408
 20
399.129642
 30
0.0
 11
722.027408
 21
414.879503
 31
0.0
  0
LINE
  5
1C9
100
AcDbEntity
  8
0
  6
HIDDEN
 62
   174
100
AcDbLine
 10
386.703233
 20
319.170713
 30
0.0
 11
385.80936
 21
319.170713
 31
0.0
  0
LINE
  5
1CA
100
AcDbEntity
  8
0
  6
HIDDEN
 62
   174
100
AcDbLine
 10
458.699165
 20
319.170713
 30
0.0
 11
457.80469
 21
319.170713
 31
0.0
  0
LINE
  5
1CB
100
AcDbEntity
  8
0
  6
HIDDEN
 62
   174
100
AcDbLine
 10
507.79605
 20
412.770713
 30
0.0
 11
514.364758
 21
412.770713
 31
0.0
  0
LINE
  5
1CC
100
AcDbEntity
  8
0
  6
Continuous
 62
   174
100
AcDbLine
 10
222.527408
 20
436.170713
 30
0.0
 11
222.527408
 21
484.320713
 31
0.0
  0
ARC
  5
1CD
100
AcDbEntity
  8
0
  6
HIDDEN
 62
   174
100
AcDbCircle
 10
529.878503
 20
321.420713
 30
0.0
 40
3.15
100
AcDbArc
 50
0.0
 51
90.0
  0
LINE
  5
1CE
100
AcDbEntity
  8
0
  6
Continuous
 62
   174
100
AcDbLine
 10
332.777408
 20
319.170713
 30
0.0
 11
557.777408
 21
319.170713
 31
0.0
  0
LINE
  5
1CF
100
AcDbEntity
  8
0
  6
Continuous
 62
   174
100
AcDbLine
 10
170.777408
 20
417.045713
 30
0.0
 11
177.527408
 21
417.045713
 31
0.0
  0
LINE
  5
1D0
100
AcDbEntity
  8
0
  6
HIDDEN
 62
   174
100
AcDbLine
 10
199.577408
 20
436.170713
 30
0.0
 11
199.577408
 21
444.270713
 31
0.0
  0
LINE
  5
1D1
100
AcDbEntity
  8
0
  6
HIDDEN
 62
   174
100
AcDbLine
 10
170.777408
 20
330.508294
 30
0.0
 11
170.777408
 21
341.312977
 31
0.0
  0
LINE
  5
1D2
100
AcDbEntity
  8
0
  6
HIDDEN
 62
   174
100
AcDbLine
 10
584.777408
 20
418.170713
 30
0.0
 11
584.777408
 21
417.720713
 31
0.0
  0
LINE
  5
1D3
100
AcDbEntity
  8
0
  6
Continuous
 62
   174
100
AcDbLine
 10
218.01435
 20
444.270713
 30
0.0
 11
215.629884
 21
444.270713
 31
0.0
  0
LINE
  5
1D4
100
AcDbEntity
  8
0
  6
Continuous
 62
   174
100
AcDbLine
 10
523.45869
 20
318.270713
 30
0.0
 11
517.246689
 21
318.270713
 31
0.0
  0
LINE
  5
1D5
100
AcDbEntity
  8
0
  6
HIDDEN
 62
   174
100
AcDbLine
 10
364.277408
 20
324.570713
 30
0.0
 11
364.277408
 21
341.670713
 31
0.0
  0
ARC
  5
1D6
100
AcDbEntity
  8
0
  6
Continuous
 62
   174
100
AcDbCircle
 10
719.777408
 20
399.045713
 30
0.0
 40
2.25
100
AcDbArc
 50
-90.0
 51
0.0
  0
LINE
  5
1D7
100
AcDbEntity
  8
0
  6
HIDDEN
 62
   174
100
AcDbLine
 10
668.027408
 20
476.445713
 30
0.0
 11
664.427408
 21
476.445713
 31
0.0
  0
LINE
  5
1D8
100
AcDbEntity
  8
0
  6
Continuous
 62
   174
100
AcDbLine
 10
170.777408
 20
320.295713
 30
0.0
 11
177.527408
 21
320.295713
 31
0.0
  0
LINE
  5
1D9
100
AcDbEntity
  8
0
  6
HIDDEN
 62
   174
100
AcDbLine
 10
170.777408
 20
340.632646
 30
0.0
 11
170.777408
 21
320.383339
 31
0.0
  0
LINE
  5
1DA
100
AcDbEntity
  8
0
  6
HIDDEN
 62
   174
100
AcDbLine
 10
507.990945
 20
418.170713
 30
0.0
 11
474.352782
 21
418.170713
 31
0.0
  0
LINE
  5
1DB
100
AcDbEntity
  8
0
  6
HIDDEN
 62
   174
100
AcDbLine
 10
177.527408
 20
418.254087
 30
0.0
 11
177.527408
 21
407.004272
 31
0.0
  0
ARC
  5
1DC
100
AcDbEntity
  8
0
  6
Continuous
 62
   174
100
AcDbCircle
 10
170.777408
 20
414.795713
 30
0.0
 40
2.25
100
AcDbArc
 50
-270.0
 51
-180.0
  0
LINE
  5
1DD
100
AcDbEntity
  8
0
  6
HIDDEN
 62
   174
100
AcDbLine
 10
719.777408
 20
395.670713
 30
0.0
 11
713.027408
 21
395.670713
 31
0.0
  0
LINE
  5
1DE
100
AcDbEntity
  8
0
  6
Continuous
 62
   174
100
AcDbLine
 10
382.277408
 20
418.170713
 30
0.0
 11
382.277408
 21
436.170713
 31
0.0
  0
LINE
  5
1DF
100
AcDbEntity
  8
0
  6
HIDDEN
 62
   174
100
AcDbLine
 10
422.808873
 20
418.170713
 30
0.0
 11
421.898758
 21
418.170713
 31
0.0
  0
LINE
  5
1E0
100
AcDbEntity
  8
0
  6
HIDDEN
 62
   174
100
AcDbLine
 10
409.25219
 20
436.170713
 30
0.0
 11
396.509978
 21
436.170713
 31
0.0
  0
LINE
  5
1E1
100
AcDbEntity
  8
0
  6
Continuous
 62
   174
100
AcDbLine
 10
529.229769
 20
318.270713
 30
0.0
 11
523.45869
 21
318.270713
 31
0.0
  0
LINE
  5
1E2
100
AcDbEntity
  8
0
  6
HIDDEN
 62
   174
100
AcDbLine
 10
501.527408
 20
319.170713
 30
0.0
 11
501.527408
 21
324.570713
 31
0.0
  0
LINE
  5
1E3
100
AcDbEntity
  8
0
  6
Continuous
 62
   174
100
AcDbLine
 10
436.277408
 20
418.170713
 30
0.0
 11
436.277408
 21
436.170713
 31
0.0
  0
LINE
  5
1E4
100
AcDbEntity
  8
0
  6
HIDDEN
 62
   174
100
AcDbLine
 10
445.250155
 20
319.170713
 30
0.0
 11
434.114029
 21
319.170713
 31
0.0
  0
LINE
  5
1E5
100
AcDbEntity
  8
0
  6
Continuous
 62
   174
100
AcDbLine
 10
508.246596
 20
436.170713
 30
0.0
 11
499.290414
 21
436.170713
 31
0.0
  0
LINE
  5
1E6
100
AcDbEntity
  8
0
  6
Continuous
 62
   174
100
AcDbLine
 10
468.283344
 20
436.170713
 30
0.0
 11
467.713695
 21
436.170713
 31
0.0
  0
LINE
  5
1E7
100
AcDbEntity
  8
0
  6
HIDDEN
 62
   174
100
AcDbLine
 10
323.777408
 20
418.170713
 30
0.0
 11
323.777408
 21
417.720713
 31
0.0
  0
LINE
  5
1E8
100
AcDbEntity
  8
0
  6
Continuous
 62
   174
100
AcDbLine
 10
675.701741
 20
444.270713
 30
0.0
 11
674.870426
 21
444.270713
 31
0.0
  0
LINE
  5
1E9
100
AcDbEntity
  8
0
  6
HIDDEN
 62
   174
100
AcDbLine
 10
494.747058
 20
436.170713
 30
0.0
 11
494.330799
 21
436.170713
 31
0.0
  0
LINE
  5
1EA
100
AcDbEntity
  8
0
  6
Continuous
 62
   174
100
AcDbLine
 10
508.246596
 20
442.020713
 30
0.0
 11
507.350917
 21
442.020713
 31
0.0
  0
LINE
  5
1EB
100
AcDbEntity
  8
0
  6
Continuous
 62
   174
100
AcDbLine
 10
391.124479
 20
442.020713
 30
0.0
 11
382.254317
 21
442.020713
 31
0.0
  0
LINE
  5
1EC
100
AcDbEntity
  8
0
  6
HIDDEN
 62
   174
100
AcDbLine
 10
395.753253
 20
418.170713
 30
0.0
 11
409.25219
 21
418.170713
 31
0.0
  0
ARC
  5
1ED
100
AcDbEntity
  8
0
  6
Continuous
 62
   174
100
AcDbCircle
 10
170.777408
 20
322.545713
 30
0.0
 40
2.25
100
AcDbArc
 50
225.0
 51
270.0
  0
ARC
  5
1EE
100
AcDbEntity
  8
0
  6
HIDDEN
 62
   174
100
AcDbCircle
 10
719.777408
 20
338.295713
 30
0.0
 40
2.25
100
AcDbArc
 50
0.0
 51
90.0
  0
ARC
  5
1EF
100
AcDbEntity
  8
0
  6
HIDDEN
 62
   174
100
AcDbCircle
 10
170.777408
 20
414.795713
 30
0.0
 40
2.25
100
AcDbArc
 50
-270.0
 51
-180.0
  0
ARC
  5
1F0
100
AcDbEntity
  8
0
  6
HIDDEN
 62
   174
100
AcDbCircle
 10
170.777408
 20
399.045713
 30
0.0
 40
2.25
100
AcDbArc
 50
180.0
 51
270.0
  0
LINE
  5
1F1
100
AcDbEntity
  8
0
  6
HIDDEN
 62
   174
100
AcDbLine
 10
359.805816
 20
319.170713
 30
0.0
 11
357.750989
 21
319.170713
 31
0.0
  0
LINE
  5
1F2
100
AcDbEntity
  8
0
  6
HIDDEN
 62
   174
100
AcDbLine
 10
719.777408
 20
407.004272
 30
0.0
 11
719.777408
 21
396.20019
 31
0.0
  0
LINE
  5
1F3
100
AcDbEntity
  8
0
  6
Continuous
 62
   174
100
AcDbLine
 10
382.277408
 20
442.020713
 30
0.0
 11
382.277408
 21
449.670713
 31
0.0
  0
LINE
  5
1F4
100
AcDbEntity
  8
0
  6
HIDDEN
 62
   174
100
AcDbLine
 10
413.972396
 20
436.170713
 30
0.0
 11
412.138932
 21
436.170713
 31
0.0
  0
LINE
  5
1F5
100
AcDbEntity
  8
0
  6
Continuous
 62
   174
100
AcDbLine
 10
593.777408
 20
319.170713
 30
0.0
 11
593.777408
 21
418.170713
 31
0.0
  0
LINE
  5
1F6
100
AcDbEntity
  8
0
  6
Continuous
 62
   174
100
AcDbLine
 10
373.254825
 20
318.270713
 30
0.0
 11
360.655176
 21
318.270713
 31
0.0
  0
ARC
  5
1F7
100
AcDbEntity
  8
0
  6
HIDDEN
 62
   174
100
AcDbCircle
 10
360.677297
 20
321.420713
 30
0.0
 40
3.15
100
AcDbArc
 50
180.0
 51
226.102968
  0
LINE
  5
1F8
100
AcDbEntity
  8
0
  6
HIDDEN
 62
   174
100
AcDbLine
 10
429.527408
 20
319.170713
 30
0.0
 11
429.527408
 21
324.570713
 31
0.0
  0
LINE
  5
1F9
100
AcDbEntity
  8
0
  6
HIDDEN
 62
   174
100
AcDbLine
 10
222.527408
 20
470.676832
 30
0.0
 11
222.527408
 21
476.52611
 31
0.0
  0
LINE
  5
1FA
100
AcDbEntity
  8
0
  6
HIDDEN
 62
   174
100
AcDbLine
 10
170.777408
 20
341.670713
 30
0.0
 11
177.527408
 21
341.670713
 31
0.0
  0
LINE
  5
1FB
100
AcDbEntity
  8
0
  6
HIDDEN
 62
   174
100
AcDbLine
 10
170.777408
 20
417.129226
 30
0.0
 11
170.777408
 21
396.879919
 31
0.0
  0
LINE
  5
1FC
100
AcDbEntity
  8
0
  6
HIDDEN
 62
   174
100
AcDbLine
 10
719.777408
 20
330.420713
 30
0.0
 11
713.027408
 21
330.420713
 31
0.0
  0
LINE
  5
1FD
100
AcDbEntity
  8
0
  6
HIDDEN
 62
   174
100
AcDbLine
 10
719.777408
 20
417.812564
 30
0.0
 11
719.777408
 21
407.004272
 31
0.0
  0
LINE
  5
1FE
100
AcDbEntity
  8
0
  6
HIDDEN
 62
   174
100
AcDbLine
 10
422.840754
 20
436.170713
 30
0.0
 11
421.995003
 21
436.170713
 31
0.0
  0
LINE
  5
1FF
100
AcDbEntity
  8
0
  6
Continuous
 62
   174
100
AcDbLine
 10
385.853873
 20
318.270713
 30
0.0
 11
385.237304
 21
318.270713
 31
0.0
  0
ARC
  5
200
100
AcDbEntity
  8
0
  6
Continuous
 62
   174
100
AcDbCircle
 10
170.777408
 20
399.045713
 30
0.0
 40
2.25
100
AcDbArc
 50
180.0
 51
225.0
  0
ARC
  5
201
100
AcDbEntity
  8
0
  6
HIDDEN
 62
   174
100
AcDbCircle
 10
719.777408
 20
414.795713
 30
0.0
 40
2.25
100
AcDbArc
 50
0.0
 51
90.0
  0
ARC
  5
202
100
AcDbEntity
  8
0
  6
Continuous
 62
   174
100
AcDbCircle
 10
170.777408
 20
322.545713
 30
0.0
 40
2.25
100
AcDbArc
 50
225.0
 51
270.0
  0
LINE
  5
203
100
AcDbEntity
  8
0
  6
HIDDEN
 62
   174
100
AcDbLine
 10
396.605621
 20
418.170713
 30
0.0
 11
395.696108
 21
418.170713
 31
0.0
  0
LINE
  5
204
100
AcDbEntity
  8
0
  6
HIDDEN
 62
   174
100
AcDbLine
 10
170.777408
 20
396.196581
 30
0.0
 11
170.777408
 21
407.004272
 31
0.0
  0
LINE
  5
205
100
AcDbEntity
  8
0
  6
HIDDEN
 62
   174
100
AcDbLine
 10
676.577408
 20
436.170713
 30
0.0
 11
690.977408
 21
436.170713
 31
0.0
  0
LINE
  5
206
100
AcDbEntity
  8
0
  6
HIDDEN
 62
   174
100
AcDbLine
 10
395.777408
 20
418.170713
 30
0.0
 11
395.777408
 21
436.170713
 31
0.0
  0
LINE
  5
207
100
AcDbEntity
  8
0
  6
HIDDEN
 62
   174
100
AcDbLine
 10
517.246689
 20
324.570713
 30
0.0
 11
508.338028
 21
324.570713
 31
0.0
  0
ARC
  5
208
100
AcDbEntity
  8
0
  6
HIDDEN
 62
   174
100
AcDbCircle
 10
457.877438
 20
321.421809
 30
0.0
 40
3.15
100
AcDbArc
 50
-180.0
 51
-90.0
  0
LINE
  5
209
100
AcDbEntity
  8
0
  6
Continuous
 62
   174
100
AcDbLine
 10
296.777408
 20
418.170713
 30
0.0
 11
332.777408
 21
418.170713
 31
0.0
  0
ARC
  5
20A
100
AcDbEntity
  8
0
  6
HIDDEN
 62
   174
100
AcDbCircle
 10
719.777408
 20
414.795713
 30
0.0
 40
2.25
100
AcDbArc
 50
0.0
 51
90.0
  0
LINE
  5
20B
100
AcDbEntity
  8
0
  6
HIDDEN
 62
   174
100
AcDbLine
 10
719.777408
 20
396.879919
 30
0.0
 11
719.777408
 21
407.004272
 31
0.0
  0
LINE
  5
20C
100
AcDbEntity
  8
0
  6
Continuous
 62
   174
100
AcDbLine
 10
422.808873
 20
436.170713
 30
0.0
 11
421.898758
 21
436.170713
 31
0.0
  0
LINE
  5
20D
100
AcDbEntity
  8
0
  6
HIDDEN
 62
   174
100
AcDbLine
 10
690.977408
 20
444.270713
 30
0.0
 11
690.977408
 21
451.020713
 31
0.0
  0
LINE
  5
20E
100
AcDbEntity
  8
0
  6
HIDDEN
 62
   174
100
AcDbLine
 10
526.323777
 20
324.570713
 30
0.0
 11
517.246689
 21
324.570713
 31
0.0
  0
LINE
  5
20F
100
AcDbEntity
  8
0
  6
HIDDEN
 62
   174
100
AcDbLine
 10
719.777408
 20
396.795713
 30
0.0
 11
713.027408
 21
396.795713
 31
0.0
  0
LINE
  5
210
100
AcDbEntity
  8
0
  6
HIDDEN
 62
   174
100
AcDbLine
 10
676.577408
 20
436.170713
 30
0.0
 11
676.577408
 21
444.270713
 31
0.0
  0
LINE
  5
211
100
AcDbEntity
  8
0
  6
Continuous
 62
   174
100
AcDbLine
 10
664.427408
 20
484.320713
 30
0.0
 11
668.027408
 21
484.320713
 31
0.0
  0
LINE
  5
212
100
AcDbEntity
  8
0
  6
Continuous
 62
   174
100
AcDbLine
 10
494.816234
 20
449.670713
 30
0.0
 11
468.102885
 21
449.670713
 31
0.0
  0
ARC
  5
213
100
AcDbEntity
  8
0
  6
Continuous
 62
   174
100
AcDbCircle
 10
529.878503
 20
321.420713
 30
0.0
 40
3.15
100
AcDbArc
 50
-90.0
 51
-45.0
  0
LINE
  5
214
100
AcDbEntity
  8
0
  6
HIDDEN
 62
   174
100
AcDbLine
 10
508.165991
 20
324.570713
 30
0.0
 11
504.650047
 21
324.570713
 31
0.0
  0
LINE
  5
215
100
AcDbEntity
  8
0
  6
HIDDEN
 62
   174
100
AcDbLine
 10
457.232635
 20
324.571809
 30
0.0
 11
445.250155
 21
324.571809
 31
0.0
  0
LINE
  5
216
100
AcDbEntity
  8
0
  6
HIDDEN
 62
   174
100
AcDbLine
 10
170.777408
 20
396.795713
 30
0.0
 11
177.527408
 21
396.795713
 31
0.0
  0
LINE
  5
217
100
AcDbEntity
  8
0
  6
Continuous
 62
   174
100
AcDbLine
 10
170.777408
 20
417.045713
 30
0.0
 11
177.527408
 21
417.045713
 31
0.0
  0
LINE
  5
218
100
AcDbEntity
  8
0
  6
HIDDEN
 62
   174
100
AcDbLine
 10
719.777408
 20
340.545713
 30
0.0
 11
713.027408
 21
340.545713
 31
0.0
  0
LINE
  5
219
100
AcDbEntity
  8
0
  6
HIDDEN
 62
   174
100
AcDbLine
 10
213.977408
 20
451.020713
 30
0.0
 11
213.977408
 21
473.520713
 31
0.0
  0
LINE
  5
21A
100
AcDbEntity
  8
0
  6
HIDDEN
 62
   174
100
AcDbLine
 10
170.777408
 20
340.632646
 30
0.0
 11
170.777408
 21
320.383339
 31
0.0
  0
LINE
  5
21B
100
AcDbEntity
  8
0
  6
HIDDEN
 62
   174
100
AcDbLine
 10
385.80936
 20
319.170713
 30
0.0
 11
384.390952
 21
319.170713
 31
0.0
  0
LINE
  5
21C
100
AcDbEntity
  8
0
  6
HIDDEN
 62
   174
100
AcDbLine
 10
508.246596
 20
418.170713
 30
0.0
 11
507.990945
 21
418.170713
 31
0.0
  0
LINE
  5
21D
100
AcDbEntity
  8
0
  6
HIDDEN
 62
   174
100
AcDbLine
 10
177.527408
 20
407.004272
 30
0.0
 11
177.527408
 21
395.755058
 31
0.0
  0
LINE
  5
21E
100
AcDbEntity
  8
0
  6
Continuous
 62
   174
100
AcDbLine
 10
197.899786
 20
444.270713
 30
0.0
 11
195.51532
 21
444.270713
 31
0.0
  0
ARC
  5
21F
100
AcDbEntity
  8
0
  6
HIDDEN
 62
   174
100
AcDbCircle
 10
504.678503
 20
321.420713
 30
0.0
 40
3.15
100
AcDbArc
 50
0.0
 51
90.0
  0
LINE
  5
220
100
AcDbEntity
  8
0
  6
HIDDEN
 62
   174
100
AcDbLine
 10
382.277408
 20
324.570713
 30
0.0
 11
382.277408
 21
341.670713
 31
0.0
  0
LINE
  5
221
100
AcDbEntity
  8
0
  6
HIDDEN
 62
   174
100
AcDbLine
 10
668.027408
 20
470.595713
 30
0.0
 11
664.427408
 21
470.595713
 31
0.0
  0
LINE
  5
222
100
AcDbEntity
  8
0
  6
Continuous
 62
   174
100
AcDbLine
 10
719.777408
 20
417.045713
 30
0.0
 11
713.027408
 21
417.045713
 31
0.0
  0
LINE
  5
223
100
AcDbEntity
  8
0
  6
Continuous
 62
   174
100
AcDbLine
 10
722.027408
 20
399.129642
 30
0.0
 11
722.027408
 21
414.879503
 31
0.0
  0
LINE
  5
224
100
AcDbEntity
  8
0
  6
HIDDEN
 62
   174
100
AcDbLine
 10
436.250664
 20
418.170713
 30
0.0
 11
422.808873
 21
418.170713
 31
0.0
  0
LINE
  5
225
100
AcDbEntity
  8
0
  6
HIDDEN
 62
   174
100
AcDbLine
 10
520.126815
 20
412.770713
 30
0.0
 11
526.694921
 21
412.770713
 31
0.0
  0
ARC
  5
226
100
AcDbEntity
  8
0
  6
HIDDEN
 62
   174
100
AcDbCircle
 10
504.678503
 20
321.420713
 30
0.0
 40
3.15
100
AcDbArc
 50
180.0
 51
225.0
  0
LINE
  5
227
100
AcDbEntity
  8
0
  6
Continuous
 62
   174
100
AcDbLine
 10
332.777408
 20
418.170713
 30
0.0
 11
332.777408
 21
319.170713
 31
0.0
  0
LINE
  5
228
100
AcDbEntity
  8
0
  6
HIDDEN
 62
   174
100
AcDbLine
 10
526.277408
 20
324.570713
 30
0.0
 11
526.277408
 21
341.670713
 31
0.0
  0
LINE
  5
229
100
AcDbEntity
  8
0
  6
Continuous
 62
   174
100
AcDbLine
 10
719.777408
 20
340.545713
 30
0.0
 11
713.027408
 21
340.545713
 31
0.0
  0
LINE
  5
22A
100
AcDbEntity
  8
0
  6
Continuous
 62
   174
100
AcDbLine
 10
170.777408
 20
407.004272
 30
0.0
 11
170.777408
 21
396.879919
 31
0.0
  0
LINE
  5
22B
100
AcDbEntity
  8
0
  6
HIDDEN
 62
   174
100
AcDbLine
 10
434.114029
 20
319.170713
 30
0.0
 11
432.695621
 21
319.170713
 31
0.0
  0
LINE
  5
22C
100
AcDbEntity
  8
0
  6
HIDDEN
 62
   174
100
AcDbLine
 10
494.330799
 20
436.170713
 30
0.0
 11
493.757541
 21
436.170713
 31
0.0
  0
LINE
  5
22D
100
AcDbEntity
  8
0
  6
HIDDEN
 62
   174
100
AcDbLine
 10
463.845856
 20
442.020713
 30
0.0
 11
463.249138
 21
442.020713
 31
0.0
  0
ARC
  5
22E
100
AcDbEntity
  8
0
  6
HIDDEN
 62
   174
100
AcDbCircle
 10
170.777408
 20
399.045713
 30
0.0
 40
2.25
100
AcDbArc
 50
225.0
 51
270.0
  0
LINE
  5
22F
100
AcDbEntity
  8
0
  6
HIDDEN
 62
   174
100
AcDbLine
 10
170.777408
 20
330.508294
 30
0.0
 11
170.777408
 21
320.383339
 31
0.0
  0
LINE
  5
230
100
AcDbEntity
  8
0
  6
Continuous
 62
   174
100
AcDbLine
 10
454.277408
 20
418.170713
 30
0.0
 11
454.277408
 21
436.170713
 31
0.0
  0
LINE
  5
231
100
AcDbEntity
  8
0
  6
HIDDEN
 62
   174
100
AcDbLine
 10
305.777408
 20
418.170713
 30
0.0
 11
305.777408
 21
417.720713
 31
0.0
  0
LINE
  5
232
100
AcDbEntity
  8
0
  6
HIDDEN
 62
   174
100
AcDbLine
 10
409.25219
 20
436.170713
 30
0.0
 11
408.274703
 21
436.170713
 31
0.0
  0
LINE
  5
233
100
AcDbEntity
  8
0
  6
HIDDEN
 62
   174
100
AcDbLine
 10
412.138932
 20
436.170713
 30
0.0
 11
410.230278
 21
436.170713
 31
0.0
  0
LINE
  5
234
100
AcDbEntity
  8
0
  6
HIDDEN
 62
   174
100
AcDbLine
 10
395.664227
 20
436.170713
 30
0.0
 11
391.253207
 21
436.170713
 31
0.0
  0
LINE
  5
235
100
AcDbEntity
  8
0
  6
Continuous
 62
   174
100
AcDbLine
 10
647.777408
 20
436.170713
 30
0.0
 11
719.777408
 21
436.170713
 31
0.0
  0
ARC
  5
236
100
AcDbEntity
  8
0
  6
Continuous
 62
   174
100
AcDbCircle
 10
360.677297
 20
321.420713
 30
0.0
 40
3.15
100
AcDbArc
 50
226.102968
 51
270.0
  0
LINE
  5
237
100
AcDbEntity
  8
0
  6
Continuous
 62
   174
100
AcDbLine
 10
529.846338
 20
318.270713
 30
0.0
 11
529.229769
 21
318.270713
 31
0.0
  0
LINE
  5
238
100
AcDbEntity
  8
0
  6
HIDDEN
 62
   174
100
AcDbLine
 10
508.338028
 20
324.570713
 30
0.0
 11
505.26421
 21
324.570713
 31
0.0
  0
LINE
  5
239
100
AcDbEntity
  8
0
  6
HIDDEN
 62
   174
100
AcDbLine
 10
529.229769
 20
324.570713
 30
0.0
 11
517.246689
 21
324.570713
 31
0.0
  0
LINE
  5
23A
100
AcDbEntity
  8
0
  6
HIDDEN
 62
   174
100
AcDbLine
 10
429.527408
 20
319.170713
 30
0.0
 11
429.527408
 21
324.570713
 31
0.0
  0
LINE
  5
23B
100
AcDbEntity
  8
0
  6
HIDDEN
 62
   174
100
AcDbLine
 10
177.527408
 20
319.170713
 30
0.0
 11
177.527408
 21
330.420713
 31
0.0
  0
LINE
  5
23C
100
AcDbEntity
  8
0
  6
Continuous
 62
   174
100
AcDbLine
 10
474.352782
 20
436.170713
 30
0.0
 11
468.283344
 21
436.170713
 31
0.0
  0
LINE
  5
23D
100
AcDbEntity
  8
0
  6
HIDDEN
 62
   174
100
AcDbLine
 10
467.777408
 20
418.170713
 30
0.0
 11
467.777408
 21
436.170713
 31
0.0
  0
LINE
  5
23E
100
AcDbEntity
  8
0
  6
HIDDEN
 62
   174
100
AcDbLine
 10
408.274703
 20
436.170713
 30
0.0
 11
406.366048
 21
436.170713
 31
0.0
  0
LINE
  5
23F
100
AcDbEntity
  8
0
  6
Continuous
 62
   174
100
AcDbLine
 10
427.277408
 20
436.170713
 30
0.0
 11
427.277408
 21
442.020713
 31
0.0
  0
ARC
  5
240
100
AcDbEntity
  8
0
  6
Continuous
 62
   174
100
AcDbCircle
 10
170.777408
 20
322.545713
 30
0.0
 40
2.25
100
AcDbArc
 50
180.0
 51
225.0
  0
ARC
  5
241
100
AcDbEntity
  8
0
  6
Continuous
 62
   174
100
AcDbCircle
 10
719.777408
 20
338.295713
 30
0.0
 40
2.25
100
AcDbArc
 50
0.0
 51
90.0
  0
LINE
  5
242
100
AcDbEntity
  8
0
  6
HIDDEN
 62
   174
100
AcDbLine
 10
170.777408
 20
320.295713
 30
0.0
 11
170.777408
 21
330.420713
 31
0.0
  0
LINE
  5
243
100
AcDbEntity
  8
0
  6
HIDDEN
 62
   174
100
AcDbLine
 10
357.750989
 20
319.170713
 30
0.0
 11
357.505565
 21
319.170713
 31
0.0
  0
LINE
  5
244
100
AcDbEntity
  8
0
  6
HIDDEN
 62
   174
100
AcDbLine
 10
532.994746
 20
319.170713
 30
0.0
 11
523.568168
 21
319.170713
 31
0.0
  0
LINE
  5
245
100
AcDbEntity
  8
0
  6
HIDDEN
 62
   174
100
AcDbLine
 10
409.25219
 20
418.170713
 30
0.0
 11
396.605621
 21
418.170713
 31
0.0
  0
LINE
  5
246
100
AcDbEntity
  8
0
  6
Continuous
 62
   174
100
AcDbLine
 10
385.853873
 20
318.270713
 30
0.0
 11
373.254825
 21
318.270713
 31
0.0
  0
ARC
  5
247
100
AcDbEntity
  8
0
  6
HIDDEN
 62
   174
100
AcDbCircle
 10
170.777408
 20
322.545713
 30
0.0
 40
2.25
100
AcDbArc
 50
180.0
 51
225.0
  0
LINE
  5
248
100
AcDbEntity
  8
0
  6
HIDDEN
 62
   174
100
AcDbLine
 10
722.027408
 20
399.129642
 30
0.0
 11
722.027408
 21
414.879503
 31
0.0
  0
LINE
  5
249
100
AcDbEntity
  8
0
  6
HIDDEN
 62
   174
100
AcDbLine
 10
168.527408
 20
338.382924
 30
0.0
 11
168.527408
 21
322.633663
 31
0.0
  0
LINE
  5
24A
100
AcDbEntity
  8
0
  6
HIDDEN
 62
   174
100
AcDbLine
 10
719.777408
 20
395.670713
 30
0.0
 11
713.027408
 21
395.670713
 31
0.0
  0
LINE
  5
24B
100
AcDbEntity
  8
0
  6
HIDDEN
 62
   174
100
AcDbLine
 10
177.527408
 20
341.757508
 30
0.0
 11
177.527408
 21
330.508294
 31
0.0
  0
LINE
  5
24C
100
AcDbEntity
  8
0
  6
Continuous
 62
   174
100
AcDbLine
 10
427.380502
 20
442.020713
 30
0.0
 11
391.124479
 21
442.020713
 31
0.0
  0
LINE
  5
24D
100
AcDbEntity
  8
0
  6
Continuous
 62
   174
100
AcDbLine
 10
296.777408
 20
319.170713
 30
0.0
 11
296.777408
 21
418.170713
 31
0.0
  0
LINE
  5
24E
100
AcDbEntity
  8
0
  6
HIDDEN
 62
   174
100
AcDbLine
 10
690.977408
 20
436.170713
 30
0.0
 11
690.977408
 21
444.270713
 31
0.0
  0
LINE
  5
24F
100
AcDbEntity
  8
0
  6
HIDDEN
 62
   174
100
AcDbLine
 10
385.237304
 20
324.570713
 30
0.0
 11
373.254825
 21
324.570713
 31
0.0
  0
ARC
  5
250
100
AcDbEntity
  8
0
  6
HIDDEN
 62
   174
100
AcDbCircle
 10
529.878503
 20
321.420713
 30
0.0
 40
3.15
100
AcDbArc
 50
-45.0
 51
0.0
  0
ARC
  5
251
100
AcDbEntity
  8
0
  6
HIDDEN
 62
   174
100
AcDbCircle
 10
457.877438
 20
321.421809
 30
0.0
 40
3.15
100
AcDbArc
 50
-45.0
 51
0.0
  0
LINE
  5
252
100
AcDbEntity
  8
0
  6
HIDDEN
 62
   174
100
AcDbLine
 10
461.027408
 20
319.170713
 30
0.0
 11
461.027408
 21
324.570713
 31
0.0
  0
ARC
  5
253
100
AcDbEntity
  8
0
  6
Continuous
 62
   174
100
AcDbCircle
 10
170.777408
 20
414.795713
 30
0.0
 40
2.25
100
AcDbArc
 50
-270.0
 51
-180.0
  0
LINE
  5
254
100
AcDbEntity
  8
0
  6
HIDDEN
 62
   174
100
AcDbLine
 10
170.777408
 20
417.129226
 30
0.0
 11
170.777408
 21
396.879919
 31
0.0
  0
LINE
  5
255
100
AcDbEntity
  8
0
  6
Continuous
 62
   174
100
AcDbLine
 10
690.977408
 20
436.170713
 30
0.0
 11
690.977408
 21
473.520713
 31
0.0
  0
LINE
  5
256
100
AcDbEntity
  8
0
  6
HIDDEN
 62
   174
100
AcDbLine
 10
722.027408
 20
322.633663
 30
0.0
 11
722.027408
 21
338.382924
 31
0.0
  0
LINE
  5
257
100
AcDbEntity
  8
0
  6
HIDDEN
 62
   174
100
AcDbLine
 10
467.713695
 20
418.170713
 30
0.0
 11
454.249647
 21
418.170713
 31
0.0
  0
LINE
  5
258
100
AcDbEntity
  8
0
  6
Continuous
 62
   174
100
AcDbLine
 10
427.224104
 20
436.170713
 30
0.0
 11
422.808873
 21
436.170713
 31
0.0
  0
LINE
  5
259
100
AcDbEntity
  8
0
  6
HIDDEN
 62
   174
100
AcDbLine
 10
664.427408
 20
436.170713
 30
0.0
 11
668.027408
 21
436.170713
 31
0.0
  0
ARC
  5
25A
100
AcDbEntity
  8
0
  6
HIDDEN
 62
   174
100
AcDbCircle
 10
360.677297
 20
321.420713
 30
0.0
 40
3.15
100
AcDbArc
 50
90.0
 51
180.0
  0
ARC
  5
25B
100
AcDbEntity
  8
0
  6
HIDDEN
 62
   174
100
AcDbCircle
 10
385.877297
 20
321.420713
 30
0.0
 40
3.15
100
AcDbArc
 50
-46.102968
 51
0.0
  0
ARC
  5
25C
100
AcDbEntity
  8
0
  6
HIDDEN
 62
   174
100
AcDbCircle
 10
360.677297
 20
321.420713
 30
0.0
 40
3.15
100
AcDbArc
 50
0.0
 51
90.0
  0
LINE
  5
25D
100
AcDbEntity
  8
0
  6
Continuous
 62
   174
100
AcDbLine
 10
517.246689
 20
318.270713
 30
0.0
 11
511.032883
 21
318.270713
 31
0.0
  0
LINE
  5
25E
100
AcDbEntity
  8
0
  6
HIDDEN
 62
   174
100
AcDbLine
 10
664.427408
 20
476.52611
 30
0.0
 11
664.427408
 21
470.676832
 31
0.0
  0
LINE
  5
25F
100
AcDbEntity
  8
0
  6
HIDDEN
 62
   174
100
AcDbLine
 10
719.777408
 20
320.295713
 30
0.0
 11
713.027408
 21
320.295713
 31
0.0
  0
LINE
  5
260
100
AcDbEntity
  8
0
  6
HIDDEN
 62
   174
100
AcDbLine
 10
213.977408
 20
444.270713
 30
0.0
 11
213.977408
 21
451.020713
 31
0.0
  0
LINE
  5
261
100
AcDbEntity
  8
0
  6
HIDDEN
 62
   174
100
AcDbLine
 10
429.500895
 20
324.570713
 30
0.0
 11
460.999416
 21
324.570713
 31
0.0
  0
LINE
  5
262
100
AcDbEntity
  8
0
  6
HIDDEN
 62
   174
100
AcDbLine
 10
384.390952
 20
319.170713
 30
0.0
 11
373.254825
 21
319.170713
 31
0.0
  0
LINE
  5
263
100
AcDbEntity
  8
0
  6
HIDDEN
 62
   174
100
AcDbLine
 10
395.696108
 20
418.170713
 30
0.0
 11
382.254317
 21
418.170713
 31
0.0
  0
LINE
  5
264
100
AcDbEntity
  8
0
  6
Continuous
 62
   174
100
AcDbLine
 10
213.977408
 20
436.170713
 30
0.0
 11
213.977408
 21
473.520713
 31
0.0
  0
LINE
  5
265
100
AcDbEntity
  8
0
  6
Continuous
 62
   174
100
AcDbLine
 10
507.350917
 20
449.670713
 30
0.0
 11
494.816234
 21
449.670713
 31
0.0
  0
LINE
  5
266
100
AcDbEntity
  8
0
  6
HIDDEN
 62
   174
100
AcDbLine
 10
436.341495
 20
324.571809
 30
0.0
 11
433.267676
 21
324.571809
 31
0.0
  0
LINE
  5
267
100
AcDbEntity
  8
0
  6
HIDDEN
 62
   174
100
AcDbLine
 10
357.527408
 20
319.170713
 30
0.0
 11
357.527408
 21
324.570713
 31
0.0
  0
LINE
  5
268
100
AcDbEntity
  8
0
  6
HIDDEN
 62
   174
100
AcDbLine
 10
461.027408
 20
319.170713
 30
0.0
 11
461.027408
 21
324.570713
 31
0.0
  0
LINE
  5
269
100
AcDbEntity
  8
0
  6
Continuous
 62
   174
100
AcDbLine
 10
170.777408
 20
320.295713
 30
0.0
 11
177.527408
 21
320.295713
 31
0.0
  0
LINE
  5
26A
100
AcDbEntity
  8
0
  6
HIDDEN
 62
   174
100
AcDbLine
 10
432.695621
 20
319.170713
 30
0.0
 11
431.801146
 21
319.170713
 31
0.0
  0
LINE
  5
26B
100
AcDbEntity
  8
0
  6
HIDDEN
 62
   174
100
AcDbLine
 10
566.777408
 20
418.170713
 30
0.0
 11
566.777408
 21
417.720713
 31
0.0
  0
LINE
  5
26C
100
AcDbEntity
  8
0
  6
Continuous
 62
   174
100
AcDbLine
 10
514.396002
 20
418.170713
 30
0.0
 11
514.396002
 21
412.770713
 31
0.0
  0
LINE
  5
26D
100
AcDbEntity
  8
0
  6
HIDDEN
 62
   174
100
AcDbLine
 10
493.757541
 20
436.170713
 30
0.0
 11
492.916
 21
436.170713
 31
0.0
  0
LINE
  5
26E
100
AcDbEntity
  8
0
  6
HIDDEN
 62
   174
100
AcDbLine
 10
508.277408
 20
324.570713
 30
0.0
 11
508.277408
 21
341.670713
 31
0.0
  0
ARC
  5
26F
100
AcDbEntity
  8
0
  6
Continuous
 62
   174
100
AcDbCircle
 10
719.777408
 20
414.795713
 30
0.0
 40
2.25
100
AcDbArc
 50
0.0
 51
90.0
  0
ARC
  5
270
100
AcDbEntity
  8
0
  6
HIDDEN
 62
   174
100
AcDbCircle
 10
170.777408
 20
399.045713
 30
0.0
 40
2.25
100
AcDbArc
 50
180.0
 51
225.0
  0
LINE
  5
271
100
AcDbEntity
  8
0
  6
Continuous
 62
   174
100
AcDbLine
 10
719.777408
 20
320.295713
 30
0.0
 11
713.027408
 21
320.295713
 31
0.0
  0
LINE
  5
272
100
AcDbEntity
  8
0
  6
HIDDEN
 62
   174
100
AcDbLine
 10
170.777408
 20
340.545713
 30
0.0
 11
177.527408
 21
340.545713
 31
0.0
  0
LINE
  5
273
100
AcDbEntity
  8
0
  6
HIDDEN
 62
   174
100
AcDbLine
 10
170.777408
 20
320.295713
 30
0.0
 11
177.527408
 21
320.295713
 31
0.0
  0
LINE
  5
274
100
AcDbEntity
  8
0
  6
HIDDEN
 62
   174
100
AcDbLine
 10
170.777408
 20
417.045713
 30
0.0
 11
177.527408
 21
417.045713
 31
0.0
  0
LINE
  5
275
100
AcDbEntity
  8
0
  6
HIDDEN
 62
   174
100
AcDbLine
 10
719.777408
 20
341.670713
 30
0.0
 11
713.027408
 21
341.670713
 31
0.0
  0
LINE
  5
276
100
AcDbEntity
  8
0
  6
HIDDEN
 62
   174
100
AcDbLine
 10
170.777408
 20
340.632646
 30
0.0
 11
170.777408
 21
330.508294
 31
0.0
  0
LINE
  5
277
100
AcDbEntity
  8
0
  6
Continuous
 62
   174
100
AcDbLine
 10
391.250199
 20
436.170713
 30
0.0
 11
382.254317
 21
436.170713
 31
0.0
  0
LINE
  5
278
100
AcDbEntity
  8
0
  6
Continuous
 62
   174
100
AcDbLine
 10
719.777408
 20
341.757508
 30
0.0
 11
719.777408
 21
341.315984
 31
0.0
  0
LINE
  5
279
100
AcDbEntity
  8
0
  6
Continuous
 62
   174
100
AcDbLine
 10
198.7311
 20
444.270713
 30
0.0
 11
197.899786
 21
444.270713
 31
0.0
  0
LINE
  5
27A
100
AcDbEntity
  8
0
  6
Continuous
 62
   174
100
AcDbLine
 10
520.158814
 20
412.770713
 30
0.0
 11
514.396002
 21
412.770713
 31
0.0
  0
LINE
  5
27B
100
AcDbEntity
  8
0
  6
HIDDEN
 62
   174
100
AcDbLine
 10
410.230278
 20
436.170713
 30
0.0
 11
409.25219
 21
436.170713
 31
0.0
  0
LINE
  5
27C
100
AcDbEntity
  8
0
  6
HIDDEN
 62
   174
100
AcDbLine
 10
529.84333
 20
324.570713
 30
0.0
 11
526.323777
 21
324.570713
 31
0.0
  0
LINE
  5
27D
100
AcDbEntity
  8
0
  6
HIDDEN
 62
   174
100
AcDbLine
 10
533.027408
 20
319.170713
 30
0.0
 11
533.027408
 21
324.570713
 31
0.0
  0
LINE
  5
27E
100
AcDbEntity
  8
0
  6
Continuous
 62
   174
100
AcDbLine
 10
170.777408
 20
417.129226
 30
0.0
 11
170.777408
 21
407.004272
 31
0.0
  0
LINE
  5
27F
100
AcDbEntity
  8
0
  6
Continuous
 62
   174
100
AcDbLine
 10
508.277408
 20
418.170713
 30
0.0
 11
508.277408
 21
436.170713
 31
0.0
  0
LINE
  5
280
100
AcDbEntity
  8
0
  6
HIDDEN
 62
   174
100
AcDbLine
 10
323.777408
 20
418.170713
 30
0.0
 11
323.777408
 21
417.720713
 31
0.0
  0
LINE
  5
281
100
AcDbEntity
  8
0
  6
HIDDEN
 62
   174
100
AcDbLine
 10
406.366048
 20
436.170713
 30
0.0
 11
404.532585
 21
436.170713
 31
0.0
  0
LINE
  5
282
100
AcDbEntity
  8
0
  6
HIDDEN
 62
   174
100
AcDbLine
 10
409.25219
 20
418.170713
 30
0.0
 11
422.751728
 21
418.170713
 31
0.0
  0
LINE
  5
283
100
AcDbEntity
  8
0
  6
HIDDEN
 62
   174
100
AcDbLine
 10
454.277408
 20
324.570713
 30
0.0
 11
454.277408
 21
341.670713
 31
0.0
  0
LINE
  5
284
100
AcDbEntity
  8
0
  6
HIDDEN
 62
   174
100
AcDbLine
 10
722.027408
 20
322.633663
 30
0.0
 11
722.027408
 21
338.382924
 31
0.0
  0
LINE
  5
285
100
AcDbEntity
  8
0
  6
Continuous
 62
   174
100
AcDbLine
 10
484.723762
 20
436.170713
 30
0.0
 11
474.352782
 21
436.170713
 31
0.0
  0
LINE
  5
286
100
AcDbEntity
  8
0
  6
HIDDEN
 62
   174
100
AcDbLine
 10
170.777408
 20
330.420713
 30
0.0
 11
177.527408
 21
330.420713
 31
0.0
  0
LINE
  5
287
100
AcDbEntity
  8
0
  6
Continuous
 62
   174
100
AcDbLine
 10
391.277408
 20
436.170713
 30
0.0
 11
391.277408
 21
442.020713
 31
0.0
  0
LINE
  5
288
100
AcDbEntity
  8
0
  6
Continuous
 62
   174
100
AcDbLine
 10
713.027408
 20
340.545713
 30
0.0
 11
713.027408
 21
341.670713
 31
0.0
  0
LINE
  5
289
100
AcDbEntity
  8
0
  6
Continuous
 62
   174
100
AcDbLine
 10
170.777408
 20
395.670713
 30
0.0
 11
177.527408
 21
395.670713
 31
0.0
  0
LINE
  5
28A
100
AcDbEntity
  8
0
  6
HIDDEN
 62
   174
100
AcDbLine
 10
177.527408
 20
417.129226
 30
0.0
 11
177.527408
 21
396.879919
 31
0.0
  0
ARC
  5
28B
100
AcDbEntity
  8
0
  6
HIDDEN
 62
   174
100
AcDbCircle
 10
719.777408
 20
399.045713
 30
0.0
 40
2.25
100
AcDbArc
 50
-90.0
 51
0.0
  0
ARC
  5
28C
100
AcDbEntity
  8
0
  6
Continuous
 62
   174
100
AcDbCircle
 10
719.777408
 20
322.545713
 30
0.0
 40
2.25
100
AcDbArc
 50
-90.0
 51
0.0
  0
LINE
  5
28D
100
AcDbEntity
  8
0
  6
HIDDEN
 62
   174
100
AcDbLine
 10
170.777408
 20
395.670713
 30
0.0
 11
177.527408
 21
395.670713
 31
0.0
  0
LINE
  5
28E
100
AcDbEntity
  8
0
  6
HIDDEN
 62
   174
100
AcDbLine
 10
168.527408
 20
338.382924
 30
0.0
 11
168.527408
 21
322.633663
 31
0.0
  0
LINE
  5
28F
100
AcDbEntity
  8
0
  6
HIDDEN
 62
   174
100
AcDbLine
 10
170.777408
 20
330.420713
 30
0.0
 11
177.527408
 21
330.420713
 31
0.0
  0
LINE
  5
290
100
AcDbEntity
  8
0
  6
Continuous
 62
   174
100
AcDbLine
 10
170.777408
 20
417.808955
 30
0.0
 11
170.777408
 21
418.254087
 31
0.0
  0
LINE
  5
291
100
AcDbEntity
  8
0
  6
Continuous
 62
   174
100
AcDbLine
 10
692.600525
 20
444.270713
 30
0.0
 11
691.769211
 21
444.270713
 31
0.0
  0
LINE
  5
292
100
AcDbEntity
  8
0
  6
Continuous
 62
   174
100
AcDbLine
 10
719.777408
 20
319.170713
 30
0.0
 11
713.027408
 21
319.170713
 31
0.0
  0
LINE
  5
293
100
AcDbEntity
  8
0
  6
Continuous
 62
   174
100
AcDbLine
 10
695.027408
 20
436.170713
 30
0.0
 11
695.027408
 21
444.270713
 31
0.0
  0
LINE
  5
294
100
AcDbEntity
  8
0
  6
HIDDEN
 62
   174
100
AcDbLine
 10
719.777408
 20
341.670713
 30
0.0
 11
713.027408
 21
341.670713
 31
0.0
  0
LINE
  5
295
100
AcDbEntity
  8
0
  6
HIDDEN
 62
   174
100
AcDbLine
 10
507.827408
 20
418.170713
 30
0.0
 11
507.827408
 21
412.770713
 31
0.0
  0
LINE
  5
296
100
AcDbEntity
  8
0
  6
Continuous
 62
   174
100
AcDbLine
 10
593.777408
 20
418.170713
 30
0.0
 11
557.777408
 21
418.170713
 31
0.0
  0
ARC
  5
297
100
AcDbEntity
  8
0
  6
Continuous
 62
   174
100
AcDbCircle
 10
385.877297
 20
321.420713
 30
0.0
 40
3.15
100
AcDbArc
 50
-90.0
 51
-46.102968
  0
LINE
  5
298
100
AcDbEntity
  8
0
  6
HIDDEN
 62
   174
100
AcDbLine
 10
373.254825
 20
324.570713
 30
0.0
 11
364.175932
 21
324.570713
 31
0.0
  0
LINE
  5
299
100
AcDbEntity
  8
0
  6
HIDDEN
 62
   174
100
AcDbLine
 10
517.246689
 20
324.570713
 30
0.0
 11
508.165991
 21
324.570713
 31
0.0
  0
ARC
  5
29A
100
AcDbEntity
  8
0
  6
HIDDEN
 62
   174
100
AcDbCircle
 10
719.777408
 20
338.295713
 30
0.0
 40
2.25
100
AcDbArc
 50
0.0
 51
90.0
  0
LINE
  5
29B
100
AcDbEntity
  8
0
  6
HIDDEN
 62
   174
100
AcDbLine
 10
508.246596
 20
324.570713
 30
0.0
 11
526.244977
 21
324.570713
 31
0.0
  0
LINE
  5
29C
100
AcDbEntity
  8
0
  6
HIDDEN
 62
   174
100
AcDbLine
 10
676.577408
 20
451.020713
 30
0.0
 11
676.577408
 21
473.520713
 31
0.0
  0
LINE
  5
29D
100
AcDbEntity
  8
0
  6
HIDDEN
 62
   174
100
AcDbLine
 10
584.741371
 20
417.720713
 30
0.0
 11
566.742989
 21
417.720713
 31
0.0
  0
LINE
  5
29E
100
AcDbEntity
  8
0
  6
HIDDEN
 62
   174
100
AcDbLine
 10
467.653542
 20
436.170713
 30
0.0
 11
463.249138
 21
436.170713
 31
0.0
  0
LINE
  5
29F
100
AcDbEntity
  8
0
  6
Continuous
 62
   174
100
AcDbLine
 10
445.250155
 20
318.271809
 30
0.0
 11
433.267676
 21
318.271809
 31
0.0
  0
LINE
  5
2A0
100
AcDbEntity
  8
0
  6
Continuous
 62
   174
100
AcDbLine
 10
676.577408
 20
436.170713
 30
0.0
 11
676.577408
 21
473.520713
 31
0.0
  0
LINE
  5
2A1
100
AcDbEntity
  8
0
  6
HIDDEN
 62
   174
100
AcDbLine
 10
199.577408
 20
436.170713
 30
0.0
 11
213.977408
 21
436.170713
 31
0.0
  0
LINE
  5
2A2
100
AcDbEntity
  8
0
  6
Continuous
 62
   174
100
AcDbLine
 10
436.250664
 20
436.170713
 30
0.0
 11
427.224104
 21
436.170713
 31
0.0
  0
LINE
  5
2A3
100
AcDbEntity
  8
0
  6
Continuous
 62
   174
100
AcDbLine
 10
170.777408
 20
395.755058
 30
0.0
 11
170.777408
 21
396.196581
 31
0.0
  0
LINE
  5
2A4
100
AcDbEntity
  8
0
  6
Continuous
 62
   174
100
AcDbLine
 10
436.250664
 20
442.020713
 30
0.0
 11
427.380502
 21
442.020713
 31
0.0
  0
LINE
  5
2A5
100
AcDbEntity
  8
0
  6
Continuous
 62
   174
100
AcDbLine
 10
395.668437
 20
449.670713
 30
0.0
 11
382.254317
 21
449.670713
 31
0.0
  0
LINE
  5
2A6
100
AcDbEntity
  8
0
  6
HIDDEN
 62
   174
100
AcDbLine
 10
719.777408
 20
417.045713
 30
0.0
 11
713.027408
 21
417.045713
 31
0.0
  0
LINE
  5
2A7
100
AcDbEntity
  8
0
  6
HIDDEN
 62
   174
100
AcDbLine
 10
213.977408
 20
436.170713
 30
0.0
 11
213.977408
 21
444.270713
 31
0.0
  0
LINE
  5
2A8
100
AcDbEntity
  8
0
  6
HIDDEN
 62
   174
100
AcDbLine
 10
431.801146
 20
319.170713
 30
0.0
 11
429.748124
 21
319.170713
 31
0.0
  0
LINE
  5
2A9
100
AcDbEntity
  8
0
  6
HIDDEN
 62
   174
100
AcDbLine
 10
492.916
 20
436.170713
 30
0.0
 11
491.848284
 21
436.170713
 31
0.0
  0
LINE
  5
2AA
100
AcDbEntity
  8
0
  6
Continuous
 62
   174
100
AcDbLine
 10
222.527408
 20
484.320713
 30
0.0
 11
226.127408
 21
484.320713
 31
0.0
  0
LINE
  5
2AB
100
AcDbEntity
  8
0
  6
Continuous
 62
   174
100
AcDbLine
 10
508.246596
 20
449.670713
 30
0.0
 11
507.350917
 21
449.670713
 31
0.0
  0
ENDBLK
  5
2AC
100
AcDbEntity
  8
0
100
AcDbBlockEnd
  0
BLOCK
  5
2AF
100
AcDbEntity
  8
0
100
AcDbBlockBegin
  2
*B2
 70
     0
 10
0.0
 20
0.0
 30
0.0
  3
*B2
  1

  0
ARC
  5
2B0
100
AcDbEntity
  8
0
  6
Continuous
 62
   174
100
AcDbCircle
 10
409.277408
 20
186.050706
 30
0.0
 40
13.5
100
AcDbArc
 50
-180.0
 51
0.0
  0
ARC
  5
2B1
100
AcDbEntity
  8
0
  6
Continuous
 62
   174
100
AcDbCircle
 10
409.277408
 20
186.050706
 30
0.0
 40
13.5
100
AcDbArc
 50
0.0
 51
180.0
  0
ARC
  5
2B2
100
AcDbEntity
  8
0
  6
Continuous
 62
   174
100
AcDbCircle
 10
481.277408
 20
186.050706
 30
0.0
 40
13.5
100
AcDbArc
 50
165.202696
 51
345.202696
  0
ARC
  5
2B3
100
AcDbEntity
  8
0
  6
Continuous
 62
   174
100
AcDbCircle
 10
481.277408
 20
186.050706
 30
0.0
 40
13.5
100
AcDbArc
 50
-14.797304
 51
165.202696
  0
LINE
  5
2B4
100
AcDbEntity
  8
0
  6
Continuous
 62
   174
100
AcDbLine
 10
647.777408
 20
222.050706
 30
0.0
 11
647.777408
 21
150.050706
 31
0.0
  0
LINE
  5
2B5
100
AcDbEntity
  8
0
  6
Continuous
 62
   174
100
AcDbLine
 10
242.777408
 20
150.050706
 30
0.0
 11
242.777408
 21
222.050706
 31
0.0
  0
LINE
  5
2B6
100
AcDbEntity
  8
0
  6
Continuous
 62
   174
100
AcDbLine
 10
719.777408
 20
222.050706
 30
0.0
 11
719.777408
 21
150.050706
 31
0.0
  0
LINE
  5
2B7
100
AcDbEntity
  8
0
  6
Continuous
 62
   174
100
AcDbLine
 10
170.777408
 20
150.050706
 30
0.0
 11
170.777408
 21
222.050706
 31
0.0
  0
ARC
  5
2B8
100
AcDbEntity
  8
0
  6
Continuous
 62
   174
100
AcDbCircle
 10
683.777408
 20
186.050706
 30
0.0
 40
8.325
100
AcDbArc
 50
-90.0
 51
90.0
  0
ARC
  5
2B9
100
AcDbEntity
  8
0
  6
Continuous
 62
   174
100
AcDbCircle
 10
683.777408
 20
186.050706
 30
0.0
 40
8.325
100
AcDbArc
 50
-270.0
 51
-90.0
  0
ARC
  5
2BA
100
AcDbEntity
  8
0
  6
Continuous
 62
   174
100
AcDbCircle
 10
206.777408
 20
186.050706
 30
0.0
 40
8.325
100
AcDbArc
 50
-270.0
 51
-90.0
  0
ARC
  5
2BB
100
AcDbEntity
  8
0
  6
Continuous
 62
   174
100
AcDbCircle
 10
206.777408
 20
186.050706
 30
0.0
 40
8.325
100
AcDbArc
 50
-90.0
 51
90.0
  0
ARC
  5
2BC
100
AcDbEntity
  8
0
  6
Continuous
 62
   174
100
AcDbCircle
 10
683.777408
 20
186.050706
 30
0.0
 40
6.075
100
AcDbArc
 50
90.0
 51
270.0
  0
LINE
  5
2BD
100
AcDbEntity
  8
0
  6
Continuous
 62
   174
100
AcDbLine
 10
296.777408
 20
222.050706
 30
0.0
 11
242.777408
 21
222.050706
 31
0.0
  0
LINE
  5
2BE
100
AcDbEntity
  8
0
  6
Continuous
 62
   174
100
AcDbLine
 10
296.777408
 20
150.050706
 30
0.0
 11
332.777408
 21
150.050706
 31
0.0
  0
LINE
  5
2BF
100
AcDbEntity
  8
0
  6
Continuous
 62
   174
100
AcDbLine
 10
168.527408
 20
169.270563
 30
0.0
 11
168.527408
 21
168.884982
 31
0.0
  0
LINE
  5
2C0
100
AcDbEntity
  8
0
  6
Continuous
 62
   174
100
AcDbLine
 10
168.527408
 20
218.768067
 30
0.0
 11
168.527408
 21
218.383088
 31
0.0
  0
LINE
  5
2C1
100
AcDbEntity
  8
0
  6
Continuous
 62
   174
100
AcDbLine
 10
690.977408
 20
166.475706
 30
0.0
 11
690.977408
 21
170.075706
 31
0.0
  0
LINE
  5
2C2
100
AcDbEntity
  8
0
  6
Continuous
 62
   174
100
AcDbLine
 10
722.027408
 20
153.521904
 30
0.0
 11
722.027408
 21
155.397475
 31
0.0
  0
LINE
  5
2C3
100
AcDbEntity
  8
0
  6
Continuous
 62
   174
100
AcDbLine
 10
213.977408
 20
166.475706
 30
0.0
 11
213.977408
 21
170.075706
 31
0.0
  0
ARC
  5
2C4
100
AcDbEntity
  8
0
  6
Continuous
 62
   174
100
AcDbCircle
 10
517.277408
 20
159.050706
 30
0.0
 40
9.45
100
AcDbArc
 50
0.0
 51
180.0
  0
ARC
  5
2C5
100
AcDbEntity
  8
0
  6
Continuous
 62
   174
100
AcDbCircle
 10
683.777408
 20
186.050706
 30
0.0
 40
11.25
100
AcDbArc
 50
-90.0
 51
-81.359702
  0
ARC
  5
2C6
100
AcDbEntity
  8
0
  6
Continuous
 62
   174
100
AcDbCircle
 10
206.777408
 20
186.050706
 30
0.0
 40
6.075
100
AcDbArc
 50
-90.0
 51
90.0
  0
LINE
  5
2C7
100
AcDbEntity
  8
0
  6
Continuous
 62
   174
100
AcDbLine
 10
647.777408
 20
222.050706
 30
0.0
 11
719.777408
 21
222.050706
 31
0.0
  0
LINE
  5
2C8
100
AcDbEntity
  8
0
  6
Continuous
 62
   174
100
AcDbLine
 10
647.777408
 20
150.050706
 30
0.0
 11
719.777408
 21
150.050706
 31
0.0
  0
LINE
  5
2C9
100
AcDbEntity
  8
0
  6
Continuous
 62
   174
100
AcDbLine
 10
557.777408
 20
222.050706
 30
0.0
 11
557.777408
 21
150.050706
 31
0.0
  0
LINE
  5
2CA
100
AcDbEntity
  8
0
  6
Continuous
 62
   174
100
AcDbLine
 10
168.527408
 20
169.270563
 30
0.0
 11
168.527408
 21
161.395933
 31
0.0
  0
LINE
  5
2CB
100
AcDbEntity
  8
0
  6
Continuous
 62
   174
100
AcDbLine
 10
722.027408
 20
153.521303
 30
0.0
 11
722.027408
 21
153.906883
 31
0.0
  0
LINE
  5
2CC
100
AcDbEntity
  8
0
  6
Continuous
 62
   174
100
AcDbLine
 10
722.027408
 20
168.884982
 30
0.0
 11
722.027408
 21
169.270563
 31
0.0
  0
LINE
  5
2CD
100
AcDbEntity
  8
0
  6
Continuous
 62
   174
100
AcDbLine
 10
168.527408
 20
218.768067
 30
0.0
 11
168.527408
 21
210.893437
 31
0.0
  0
LINE
  5
2CE
100
AcDbEntity
  8
0
  6
Continuous
 62
   174
100
AcDbLine
 10
168.527408
 20
203.404387
 30
0.0
 11
168.527408
 21
203.018806
 31
0.0
  0
LINE
  5
2CF
100
AcDbEntity
  8
0
  6
Continuous
 62
   174
100
AcDbLine
 10
722.027408
 20
210.893437
 30
0.0
 11
722.027408
 21
218.768067
 31
0.0
  0
LINE
  5
2D0
100
AcDbEntity
  8
0
  6
Continuous
 62
   174
100
AcDbLine
 10
199.577408
 20
205.625706
 30
0.0
 11
199.577408
 21
202.025706
 31
0.0
  0
ARC
  5
2D1
100
AcDbEntity
  8
0
  6
Continuous
 62
   174
100
AcDbCircle
 10
373.277408
 20
213.050706
 30
0.0
 40
5.85
100
AcDbArc
 50
0.0
 51
180.0
  0
LINE
  5
2D2
100
AcDbEntity
  8
0
  6
Continuous
 62
   174
100
AcDbLine
 10
690.977408
 20
202.025706
 30
0.0
 11
690.977408
 21
205.625706
 31
0.0
  0
ARC
  5
2D3
100
AcDbEntity
  8
0
  6
Continuous
 62
   174
100
AcDbCircle
 10
517.277408
 20
159.050706
 30
0.0
 40
9.45
100
AcDbArc
 50
180.0
 51
252.24721
  0
ARC
  5
2D4
100
AcDbEntity
  8
0
  6
Continuous
 62
   174
100
AcDbCircle
 10
683.777408
 20
186.050706
 30
0.0
 40
11.25
100
AcDbArc
 50
-278.640298
 51
-270.0
  0
LINE
  5
2D5
100
AcDbEntity
  8
0
  6
Continuous
 62
   174
100
AcDbLine
 10
332.777408
 20
222.050706
 30
0.0
 11
332.777408
 21
150.050706
 31
0.0
  0
LINE
  5
2D6
100
AcDbEntity
  8
0
  6
Continuous
 62
   174
100
AcDbLine
 10
168.527408
 20
153.906883
 30
0.0
 11
168.527408
 21
153.521303
 31
0.0
  0
LINE
  5
2D7
100
AcDbEntity
  8
0
  6
Continuous
 62
   174
100
AcDbLine
 10
168.527408
 20
218.383088
 30
0.0
 11
168.527408
 21
210.893437
 31
0.0
  0
ARC
  5
2D8
100
AcDbEntity
  8
0
  6
Continuous
 62
   174
100
AcDbCircle
 10
517.277408
 20
159.050706
 30
0.0
 40
5.85
100
AcDbArc
 50
-180.0
 51
0.0
  0
ARC
  5
2D9
100
AcDbEntity
  8
0
  6
Continuous
 62
   174
100
AcDbCircle
 10
373.277408
 20
213.050706
 30
0.0
 40
5.85
100
AcDbArc
 50
-180.0
 51
0.0
  0
LINE
  5
2DA
100
AcDbEntity
  8
0
  6
Continuous
 62
   174
100
AcDbLine
 10
199.577408
 20
170.075706
 30
0.0
 11
199.577408
 21
166.475706
 31
0.0
  0
ARC
  5
2DB
100
AcDbEntity
  8
0
  6
Continuous
 62
   174
100
AcDbCircle
 10
517.277408
 20
159.050706
 30
0.0
 40
9.45
100
AcDbArc
 50
-72.24721
 51
0.0
  0
ARC
  5
2DC
100
AcDbEntity
  8
0
  6
Continuous
 62
   174
100
AcDbCircle
 10
683.777408
 20
186.050706
 30
0.0
 40
11.25
100
AcDbArc
 50
-270.0
 51
-261.359702
  0
LINE
  5
2DD
100
AcDbEntity
  8
0
  6
Continuous
 62
   174
100
AcDbLine
 10
593.777408
 20
222.050706
 30
0.0
 11
647.777408
 21
222.050706
 31
0.0
  0
LINE
  5
2DE
100
AcDbEntity
  8
0
  6
Continuous
 62
   174
100
AcDbLine
 10
242.777408
 20
150.050706
 30
0.0
 11
170.777408
 21
150.050706
 31
0.0
  0
LINE
  5
2DF
100
AcDbEntity
  8
0
  6
Continuous
 62
   174
100
AcDbLine
 10
242.777408
 20
222.050706
 30
0.0
 11
170.777408
 21
222.050706
 31
0.0
  0
LINE
  5
2E0
100
AcDbEntity
  8
0
  6
Continuous
 62
   174
100
AcDbLine
 10
296.777408
 20
150.050706
 30
0.0
 11
296.777408
 21
222.050706
 31
0.0
  0
LINE
  5
2E1
100
AcDbEntity
  8
0
  6
Continuous
 62
   174
100
AcDbLine
 10
722.027408
 20
203.018806
 30
0.0
 11
722.027408
 21
203.404387
 31
0.0
  0
LINE
  5
2E2
100
AcDbEntity
  8
0
  6
Continuous
 62
   174
100
AcDbLine
 10
722.027408
 20
218.383088
 30
0.0
 11
722.027408
 21
218.768067
 31
0.0
  0
ARC
  5
2E3
100
AcDbEntity
  8
0
  6
Continuous
 62
   174
100
AcDbCircle
 10
170.777408
 20
169.175706
 30
0.0
 40
2.25
100
AcDbArc
 50
-270.0
 51
-180.0
  0
LINE
  5
2E4
100
AcDbEntity
  8
0
  6
Continuous
 62
   174
100
AcDbLine
 10
722.027408
 20
153.521303
 30
0.0
 11
722.027408
 21
161.395933
 31
0.0
  0
LINE
  5
2E5
100
AcDbEntity
  8
0
  6
Continuous
 62
   174
100
AcDbLine
 10
722.027408
 20
161.395933
 30
0.0
 11
722.027408
 21
169.270563
 31
0.0
  0
ARC
  5
2E6
100
AcDbEntity
  8
0
  6
Continuous
 62
   174
100
AcDbCircle
 10
170.777408
 20
218.675706
 30
0.0
 40
2.25
100
AcDbArc
 50
-270.0
 51
-180.0
  0
LINE
  5
2E7
100
AcDbEntity
  8
0
  6
Continuous
 62
   174
100
AcDbLine
 10
168.527408
 20
210.893437
 30
0.0
 11
168.527408
 21
203.018806
 31
0.0
  0
LINE
  5
2E8
100
AcDbEntity
  8
0
  6
Continuous
 62
   174
100
AcDbLine
 10
722.027408
 20
203.019408
 30
0.0
 11
722.027408
 21
204.89558
 31
0.0
  0
LINE
  5
2E9
100
AcDbEntity
  8
0
  6
Continuous
 62
   174
100
AcDbLine
 10
722.027408
 20
204.89558
 30
0.0
 11
722.027408
 21
210.893437
 31
0.0
  0
LINE
  5
2EA
100
AcDbEntity
  8
0
  6
Continuous
 62
   174
100
AcDbLine
 10
676.577408
 20
166.475706
 30
0.0
 11
690.977408
 21
166.475706
 31
0.0
  0
LINE
  5
2EB
100
AcDbEntity
  8
0
  6
Continuous
 62
   174
100
AcDbLine
 10
690.977408
 20
205.625706
 30
0.0
 11
676.577408
 21
205.625706
 31
0.0
  0
LINE
  5
2EC
100
AcDbEntity
  8
0
  6
Continuous
 62
   174
100
AcDbLine
 10
199.577408
 20
166.475706
 30
0.0
 11
213.977408
 21
166.475706
 31
0.0
  0
ARC
  5
2ED
100
AcDbEntity
  8
0
  6
Continuous
 62
   174
100
AcDbCircle
 10
683.777408
 20
186.050706
 30
0.0
 40
6.075
100
AcDbArc
 50
-90.0
 51
90.0
  0
LINE
  5
2EE
100
AcDbEntity
  8
0
  6
Continuous
 62
   174
100
AcDbLine
 10
593.777408
 20
222.050706
 30
0.0
 11
557.777408
 21
222.050706
 31
0.0
  0
LINE
  5
2EF
100
AcDbEntity
  8
0
  6
Continuous
 62
   174
100
AcDbLine
 10
168.527408
 20
161.395933
 30
0.0
 11
168.527408
 21
153.906883
 31
0.0
  0
LINE
  5
2F0
100
AcDbEntity
  8
0
  6
Continuous
 62
   174
100
AcDbLine
 10
168.527408
 20
161.395933
 30
0.0
 11
168.527408
 21
153.521303
 31
0.0
  0
LINE
  5
2F1
100
AcDbEntity
  8
0
  6
Continuous
 62
   174
100
AcDbLine
 10
722.027408
 20
161.395933
 30
0.0
 11
722.027408
 21
168.884982
 31
0.0
  0
ARC
  5
2F2
100
AcDbEntity
  8
0
  6
Continuous
 62
   174
100
AcDbCircle
 10
719.777408
 20
153.425706
 30
0.0
 40
2.25
100
AcDbArc
 50
-90.0
 51
0.0
  0
LINE
  5
2F3
100
AcDbEntity
  8
0
  6
Continuous
 62
   174
100
AcDbLine
 10
722.027408
 20
153.906883
 30
0.0
 11
722.027408
 21
161.395933
 31
0.0
  0
ARC
  5
2F4
100
AcDbEntity
  8
0
  6
Continuous
 62
   174
100
AcDbCircle
 10
170.777408
 20
202.925706
 30
0.0
 40
2.25
100
AcDbArc
 50
180.0
 51
270.0
  0
LINE
  5
2F5
100
AcDbEntity
  8
0
  6
Continuous
 62
   174
100
AcDbLine
 10
213.977408
 20
205.625706
 30
0.0
 11
199.577408
 21
205.625706
 31
0.0
  0
LINE
  5
2F6
100
AcDbEntity
  8
0
  6
Continuous
 62
   174
100
AcDbLine
 10
676.577408
 20
202.025706
 30
0.0
 11
690.977408
 21
202.025706
 31
0.0
  0
ARC
  5
2F7
100
AcDbEntity
  8
0
  6
Continuous
 62
   174
100
AcDbCircle
 10
683.777408
 20
186.050706
 30
0.0
 40
11.25
100
AcDbArc
 50
-261.359702
 51
-98.640298
  0
LINE
  5
2F8
100
AcDbEntity
  8
0
  6
Continuous
 62
   174
100
AcDbLine
 10
593.777408
 20
222.050706
 30
0.0
 11
593.777408
 21
150.050706
 31
0.0
  0
LINE
  5
2F9
100
AcDbEntity
  8
0
  6
Continuous
 62
   174
100
AcDbLine
 10
296.777408
 20
150.050706
 30
0.0
 11
242.777408
 21
150.050706
 31
0.0
  0
LINE
  5
2FA
100
AcDbEntity
  8
0
  6
Continuous
 62
   174
100
AcDbLine
 10
593.777408
 20
150.050706
 30
0.0
 11
557.777408
 21
150.050706
 31
0.0
  0
LINE
  5
2FB
100
AcDbEntity
  8
0
  6
Continuous
 62
   174
100
AcDbLine
 10
332.777408
 20
150.050706
 30
0.0
 11
332.777408
 21
222.050706
 31
0.0
  0
LINE
  5
2FC
100
AcDbEntity
  8
0
  6
Continuous
 62
   174
100
AcDbLine
 10
722.027408
 20
203.018806
 30
0.0
 11
722.027408
 21
210.893437
 31
0.0
  0
LINE
  5
2FD
100
AcDbEntity
  8
0
  6
Continuous
 62
   174
100
AcDbLine
 10
168.527408
 20
168.884982
 30
0.0
 11
168.527408
 21
161.395933
 31
0.0
  0
ARC
  5
2FE
100
AcDbEntity
  8
0
  6
Continuous
 62
   174
100
AcDbCircle
 10
719.777408
 20
169.175706
 30
0.0
 40
2.25
100
AcDbArc
 50
0.0
 51
90.0
  0
LINE
  5
2FF
100
AcDbEntity
  8
0
  6
Continuous
 62
   174
100
AcDbLine
 10
690.977408
 20
170.075706
 30
0.0
 11
676.577408
 21
170.075706
 31
0.0
  0
LINE
  5
300
100
AcDbEntity
  8
0
  6
Continuous
 62
   174
100
AcDbLine
 10
168.527408
 20
216.891895
 30
0.0
 11
168.527408
 21
210.893437
 31
0.0
  0
ARC
  5
301
100
AcDbEntity
  8
0
  6
Continuous
 62
   174
100
AcDbCircle
 10
517.277408
 20
159.050706
 30
0.0
 40
5.85
100
AcDbArc
 50
0.0
 51
180.0
  0
LINE
  5
302
100
AcDbEntity
  8
0
  6
Continuous
 62
   174
100
AcDbLine
 10
213.977408
 20
170.075706
 30
0.0
 11
199.577408
 21
170.075706
 31
0.0
  0
LINE
  5
303
100
AcDbEntity
  8
0
  6
Continuous
 62
   174
100
AcDbLine
 10
557.777408
 20
222.050706
 30
0.0
 11
376.158814
 21
222.050706
 31
0.0
  0
ARC
  5
304
100
AcDbEntity
  8
0
  6
Continuous
 62
   174
100
AcDbCircle
 10
683.777408
 20
186.050706
 30
0.0
 40
11.25
100
AcDbArc
 50
-98.640298
 51
-90.0
  0
ARC
  5
305
100
AcDbEntity
  8
0
  6
Continuous
 62
   174
100
AcDbCircle
 10
206.777408
 20
186.050706
 30
0.0
 40
6.075
100
AcDbArc
 50
90.0
 51
270.0
  0
LINE
  5
306
100
AcDbEntity
  8
0
  6
Continuous
 62
   174
100
AcDbLine
 10
593.777408
 20
150.050706
 30
0.0
 11
647.777408
 21
150.050706
 31
0.0
  0
LINE
  5
307
100
AcDbEntity
  8
0
  6
Continuous
 62
   174
100
AcDbLine
 10
296.777408
 20
222.050706
 30
0.0
 11
332.777408
 21
222.050706
 31
0.0
  0
LINE
  5
308
100
AcDbEntity
  8
0
  6
Continuous
 62
   174
100
AcDbLine
 10
557.777408
 20
222.050706
 30
0.0
 11
557.777408
 21
150.050706
 31
0.0
  0
LINE
  5
309
100
AcDbEntity
  8
0
  6
Continuous
 62
   174
100
AcDbLine
 10
722.027408
 20
210.893437
 30
0.0
 11
722.027408
 21
218.383088
 31
0.0
  0
ARC
  5
30A
100
AcDbEntity
  8
0
  6
Continuous
 62
   174
100
AcDbCircle
 10
719.777408
 20
202.925706
 30
0.0
 40
2.25
100
AcDbArc
 50
-90.0
 51
0.0
  0
LINE
  5
30B
100
AcDbEntity
  8
0
  6
Continuous
 62
   174
100
AcDbLine
 10
722.027408
 20
203.404387
 30
0.0
 11
722.027408
 21
210.893437
 31
0.0
  0
LINE
  5
30C
100
AcDbEntity
  8
0
  6
Continuous
 62
   174
100
AcDbLine
 10
722.027408
 20
210.893437
 30
0.0
 11
722.027408
 21
218.768067
 31
0.0
  0
ARC
  5
30D
100
AcDbEntity
  8
0
  6
Continuous
 62
   174
100
AcDbCircle
 10
170.777408
 20
153.425706
 30
0.0
 40
2.25
100
AcDbArc
 50
180.0
 51
270.0
  0
LINE
  5
30E
100
AcDbEntity
  8
0
  6
Continuous
 62
   174
100
AcDbLine
 10
168.527408
 20
210.893437
 30
0.0
 11
168.527408
 21
203.404387
 31
0.0
  0
LINE
  5
30F
100
AcDbEntity
  8
0
  6
Continuous
 62
   174
100
AcDbLine
 10
168.527408
 20
169.269962
 30
0.0
 11
168.527408
 21
167.394391
 31
0.0
  0
LINE
  5
310
100
AcDbEntity
  8
0
  6
Continuous
 62
   174
100
AcDbLine
 10
199.577408
 20
202.025706
 30
0.0
 11
213.977408
 21
202.025706
 31
0.0
  0
LINE
  5
311
100
AcDbEntity
  8
0
  6
Continuous
 62
   174
100
AcDbLine
 10
676.577408
 20
170.075706
 30
0.0
 11
676.577408
 21
166.475706
 31
0.0
  0
LINE
  5
312
100
AcDbEntity
  8
0
  6
Continuous
 62
   174
100
AcDbLine
 10
722.027408
 20
161.395933
 30
0.0
 11
722.027408
 21
169.270563
 31
0.0
  0
LINE
  5
313
100
AcDbEntity
  8
0
  6
Continuous
 62
   174
100
AcDbLine
 10
722.027408
 20
155.397475
 30
0.0
 11
722.027408
 21
161.395933
 31
0.0
  0
LINE
  5
314
100
AcDbEntity
  8
0
  6
Continuous
 62
   174
100
AcDbLine
 10
168.527408
 20
210.893437
 30
0.0
 11
168.527408
 21
203.018806
 31
0.0
  0
LINE
  5
315
100
AcDbEntity
  8
0
  6
Continuous
 62
   174
100
AcDbLine
 10
168.527408
 20
218.768067
 30
0.0
 11
168.527408
 21
216.891895
 31
0.0
  0
LINE
  5
316
100
AcDbEntity
  8
0
  6
Continuous
 62
   174
100
AcDbLine
 10
557.777408
 20
150.050706
 30
0.0
 11
520.158814
 21
150.050706
 31
0.0
  0
LINE
  5
317
100
AcDbEntity
  8
0
  6
Continuous
 62
   174
100
AcDbLine
 10
296.777408
 20
150.050706
 30
0.0
 11
296.777408
 21
222.050706
 31
0.0
  0
LINE
  5
318
100
AcDbEntity
  8
0
  6
Continuous
 62
   174
100
AcDbLine
 10
593.777408
 20
222.050706
 30
0.0
 11
593.777408
 21
150.050706
 31
0.0
  0
ARC
  5
319
100
AcDbEntity
  8
0
  6
Continuous
 62
   174
100
AcDbCircle
 10
719.777408
 20
218.675706
 30
0.0
 40
2.25
100
AcDbArc
 50
0.0
 51
90.0
  0
LINE
  5
31A
100
AcDbEntity
  8
0
  6
Continuous
 62
   174
100
AcDbLine
 10
168.527408
 20
161.395933
 30
0.0
 11
168.527408
 21
153.521303
 31
0.0
  0
LINE
  5
31B
100
AcDbEntity
  8
0
  6
Continuous
 62
   174
100
AcDbLine
 10
168.527408
 20
167.394391
 30
0.0
 11
168.527408
 21
161.395933
 31
0.0
  0
LINE
  5
31C
100
AcDbEntity
  8
0
  6
Continuous
 62
   174
100
AcDbLine
 10
213.977408
 20
202.025706
 30
0.0
 11
213.977408
 21
205.625706
 31
0.0
  0
LINE
  5
31D
100
AcDbEntity
  8
0
  6
Continuous
 62
   174
100
AcDbLine
 10
676.577408
 20
205.625706
 30
0.0
 11
676.577408
 21
202.025706
 31
0.0
  0
ARC
  5
31E
100
AcDbEntity
  8
0
  6
Continuous
 62
   174
100
AcDbCircle
 10
206.777408
 20
186.050706
 30
0.0
 40
11.25
100
AcDbArc
 50
-90.0
 51
-81.359702
  0
LINE
  5
31F
100
AcDbEntity
  8
0
  6
Continuous
 62
   174
100
AcDbLine
 10
514.396002
 20
150.050706
 30
0.0
 11
332.777408
 21
150.050706
 31
0.0
  0
LINE
  5
320
100
AcDbEntity
  8
0
  6
Continuous
 62
   174
100
AcDbLine
 10
222.527408
 20
193.250706
 30
0.0
 11
222.527408
 21
178.850706
 31
0.0
  0
ARC
  5
321
100
AcDbEntity
  8
0
  6
Continuous
 62
   174
100
AcDbCircle
 10
481.277408
 20
186.050706
 30
0.0
 40
27.0
100
AcDbArc
 50
-194.797304
 51
-14.797304
  0
ARC
  5
322
100
AcDbEntity
  8
0
  6
Continuous
 62
   174
100
AcDbCircle
 10
373.277408
 20
213.050706
 30
0.0
 40
9.45
100
AcDbArc
 50
107.75279
 51
180.0
  0
ARC
  5
323
100
AcDbEntity
  8
0
  6
Continuous
 62
   174
100
AcDbCircle
 10
206.777408
 20
186.050706
 30
0.0
 40
11.25
100
AcDbArc
 50
-81.359702
 51
81.359702
  0
ARC
  5
324
100
AcDbEntity
  8
0
  6
Continuous
 62
   174
100
AcDbCircle
 10
314.777408
 20
186.050706
 30
0.0
 40
9.0
100
AcDbArc
 50
180.0
 51
360.0
  0
LINE
  5
325
100
AcDbEntity
  8
0
  6
Continuous
 62
   174
100
AcDbLine
 10
668.027408
 20
193.250706
 30
0.0
 11
664.427408
 21
193.250706
 31
0.0
  0
ARC
  5
326
100
AcDbEntity
  8
0
  6
Continuous
 62
   174
100
AcDbCircle
 10
314.777408
 20
186.050706
 30
0.0
 40
9.0
100
AcDbArc
 50
0.0
 51
180.0
  0
ARC
  5
327
100
AcDbEntity
  8
0
  6
Continuous
 62
   174
100
AcDbCircle
 10
206.777408
 20
186.050706
 30
0.0
 40
11.25
100
AcDbArc
 50
-278.640298
 51
-270.0
  0
LINE
  5
328
100
AcDbEntity
  8
0
  6
Continuous
 62
   174
100
AcDbLine
 10
376.158814
 20
222.050706
 30
0.0
 11
370.396002
 21
222.050706
 31
0.0
  0
ARC
  5
329
100
AcDbEntity
  8
0
  6
Continuous
 62
   174
100
AcDbCircle
 10
373.277408
 20
213.050706
 30
0.0
 40
9.45
100
AcDbArc
 50
0.0
 51
72.24721
  0
ARC
  5
32A
100
AcDbEntity
  8
0
  6
Continuous
 62
   174
100
AcDbCircle
 10
575.777408
 20
186.050706
 30
0.0
 40
9.0
100
AcDbArc
 50
-180.0
 51
0.0
  0
LINE
  5
32B
100
AcDbEntity
  8
0
  6
Continuous
 62
   174
100
AcDbLine
 10
226.127408
 20
193.250706
 30
0.0
 11
222.527408
 21
193.250706
 31
0.0
  0
LINE
  5
32C
100
AcDbEntity
  8
0
  6
Continuous
 62
   174
100
AcDbLine
 10
668.027408
 20
178.850706
 30
0.0
 11
668.027408
 21
193.250706
 31
0.0
  0
ARC
  5
32D
100
AcDbEntity
  8
0
  6
Continuous
 62
   174
100
AcDbCircle
 10
575.777408
 20
186.050706
 30
0.0
 40
9.0
100
AcDbArc
 50
0.0
 51
180.0
  0
ARC
  5
32E
100
AcDbEntity
  8
0
  6
Continuous
 62
   174
100
AcDbCircle
 10
206.777408
 20
186.050706
 30
0.0
 40
11.25
100
AcDbArc
 50
-270.0
 51
-261.359702
  0
ARC
  5
32F
100
AcDbEntity
  8
0
  6
Continuous
 62
   174
100
AcDbCircle
 10
373.277408
 20
213.050706
 30
0.0
 40
9.45
100
AcDbArc
 50
-180.0
 51
0.0
  0
ARC
  5
330
100
AcDbEntity
  8
0
  6
Continuous
 62
   174
100
AcDbCircle
 10
409.277408
 20
186.050706
 30
0.0
 40
27.0
100
AcDbArc
 50
0.0
 51
180.0
  0
LINE
  5
331
100
AcDbEntity
  8
0
  6
Continuous
 62
   174
100
AcDbLine
 10
664.427408
 20
178.850706
 30
0.0
 11
668.027408
 21
178.850706
 31
0.0
  0
LINE
  5
332
100
AcDbEntity
  8
0
  6
Continuous
 62
   174
100
AcDbLine
 10
370.396002
 20
222.050706
 30
0.0
 11
332.777408
 21
222.050706
 31
0.0
  0
ARC
  5
333
100
AcDbEntity
  8
0
  6
Continuous
 62
   174
100
AcDbCircle
 10
206.777408
 20
186.050706
 30
0.0
 40
11.25
100
AcDbArc
 50
-261.359702
 51
-98.640298
  0
LINE
  5
334
100
AcDbEntity
  8
0
  6
Continuous
 62
   174
100
AcDbLine
 10
226.127408
 20
178.850706
 30
0.0
 11
226.127408
 21
193.250706
 31
0.0
  0
ARC
  5
335
100
AcDbEntity
  8
0
  6
Continuous
 62
   174
100
AcDbCircle
 10
683.777408
 20
186.050706
 30
0.0
 40
11.25
100
AcDbArc
 50
-81.359702
 51
81.359702
  0
ARC
  5
336
100
AcDbEntity
  8
0
  6
Continuous
 62
   174
100
AcDbCircle
 10
409.277408
 20
186.050706
 30
0.0
 40
27.0
100
AcDbArc
 50
-180.0
 51
0.0
  0
ARC
  5
337
100
AcDbEntity
  8
0
  6
Continuous
 62
   174
100
AcDbCircle
 10
481.277408
 20
186.050706
 30
0.0
 40
27.0
100
AcDbArc
 50
-14.797304
 51
165.202696
  0
LINE
  5
338
100
AcDbEntity
  8
0
  6
Continuous
 62
   174
100
AcDbLine
 10
222.527408
 20
178.850706
 30
0.0
 11
226.127408
 21
178.850706
 31
0.0
  0
ARC
  5
339
100
AcDbEntity
  8
0
  6
Continuous
 62
   174
100
AcDbCircle
 10
206.777408
 20
186.050706
 30
0.0
 40
11.25
100
AcDbArc
 50
-98.640298
 51
-90.0
  0
LINE
  5
33A
100
AcDbEntity
  8
0
  6
Continuous
 62
   174
100
AcDbLine
 10
520.158814
 20
150.050706
 30
0.0
 11
514.396002
 21
150.050706
 31
0.0
  0
LINE
  5
33B
100
AcDbEntity
  8
0
  6
Continuous
 62
   174
100
AcDbLine
 10
664.427408
 20
193.250706
 30
0.0
 11
664.427408
 21
178.850706
 31
0.0
  0
ENDBLK
  5
33C
100
AcDbEntity
  8
0
100
AcDbBlockEnd
  0
BLOCK
  5
33F
100
AcDbEntity
  8
0
100
AcDbBlockBegin
  2
*B3
 70
     0
 10
0.0
 20
0.0
 30
0.0
  3
*B3
  1

  0
LINE
  5
340
100
AcDbEntity
  8
0
  6
Continuous
 62
   172
100
AcDbLine
 10
267.783607
 20
351.443452
 30
0.0
 11
227.977847
 21
283.752308
 31
0.0
  0
LINE
  5
341
100
AcDbEntity
  8
0
  6
Continuous
 62
   172
100
AcDbLine
 10
227.977847
 20
283.752308
 30
0.0
 11
209.058607
 21
283.752308
 31
0.0
  0
ENDBLK
  5
342
100
AcDbEntity
  8
0
100
AcDbBlockEnd
  0
BLOCK
  5
345
100
AcDbEntity
  8
0
100
AcDbBlockBegin
  2
*B4
 70
     0
 10
0.0
 20
0.0
 30
0.0
  3
*B4
  1

  0
LINE
  5
346
100
AcDbEntity
  8
0
  6
Continuous
 62
   172
100
AcDbLine
 10
224.046746
 20
287.855313
 30
0.0
 11
219.996746
 21
289.343452
 31
0.0
  0
LINE
  5
347
100
AcDbEntity
  8
0
  6
Continuous
 62
   172
100
AcDbLine
 10
224.046746
 20
287.855313
 30
0.0
 11
219.996746
 21
286.643452
 31
0.0
  0
LINE
  5
348
100
AcDbEntity
  8
0
  6
Continuous
 62
   172
100
AcDbLine
 10
221.346746
 20
287.855313
 30
0.0
 11
224.046746
 21
287.855313
 31
0.0
  0
LINE
  5
349
100
AcDbEntity
  8
0
  6
Continuous
 62
   172
100
AcDbLine
 10
224.046746
 20
311.081592
 30
0.0
 11
219.996746
 21
309.593452
 31
0.0
  0
LINE
  5
34A
100
AcDbEntity
  8
0
  6
Continuous
 62
   172
100
AcDbLine
 10
224.046746
 20
311.081592
 30
0.0
 11
219.996746
 21
312.293452
 31
0.0
  0
LINE
  5
34B
100
AcDbEntity
  8
0
  6
Continuous
 62
   172
100
AcDbLine
 10
221.346746
 20
311.081592
 30
0.0
 11
224.046746
 21
311.081592
 31
0.0
  0
ARC
  5
34C
100
AcDbEntity
  8
0
  6
Continuous
 62
   172
100
AcDbCircle
 10
221.346746
 20
299.468452
 30
0.0
 40
11.613139
100
AcDbArc
 50
-270.0
 51
-90.0
  0
ENDBLK
  5
34D
100
AcDbEntity
  8
0
100
AcDbBlockEnd
  0
BLOCK
  5
350
100
AcDbEntity
  8
0
100
AcDbBlockBegin
  2
*B5
 70
     0
 10
0.0
 20
0.0
 30
0.0
  3
*B5
  1

  0
ENDBLK
  5
351
100
AcDbEntity
  8
0
100
AcDbBlockEnd
  0
BLOCK
  5
353
100
AcDbEntity
  8
0
100
AcDbBlockBegin
  2
*B6
 70
     0
 10
0.0
 20
0.0
 30
0.0
  3
*B6
  1

  0
LINE
  5
354
100
AcDbEntity
  8
0
  6
Continuous
 62
     0
100
AcDbLine
 10
481.248121
 20
492.079873
 30
0.0
 11
557.743498
 21
492.079873
 31
0.0
  0
SOLID
  5
355
100
AcDbEntity
  8
0
  6
Continuous
 62
     0
100
AcDbTrace
 10
491.247356
 20
494.079961
 30
0.0
 11
481.248121
 21
492.079873
 31
0.0
 12
491.247356
 22
490.079786
 32
0.0
 13
491.247356
 23
490.079786
 33
0.0
  0
SOLID
  5
356
100
AcDbEntity
  8
0
  6
Continuous
 62
     0
100
AcDbTrace
 10
547.743662
 20
490.079786
 30
0.0
 11
557.743498
 21
492.079873
 31
0.0
 12
547.743662
 22
494.079961
 32
0.0
 13
547.743662
 23
494.079961
 33
0.0
  0
ENDBLK
  5
357
100
AcDbEntity
  8
0
100
AcDbBlockEnd
  0
BLOCK
  5
35A
100
AcDbEntity
  8
0
100
AcDbBlockBegin
  2
*B7
 70
     0
 10
0.0
 20
0.0
 30
0.0
  3
*B7
  1

  0
LINE
  5
35B
100
AcDbEntity
  8
0
  6
Continuous
 62
     0
100
AcDbLine
 10
409.25219
 20
492.079873
 30
0.0
 11
481.248121
 21
492.079873
 31
0.0
  0
SOLID
  5
35C
100
AcDbEntity
  8
0
  6
Continuous
 62
     0
100
AcDbTrace
 10
419.252026
 20
494.079961
 30
0.0
 11
409.25219
 21
492.079873
 31
0.0
 12
419.252026
 22
490.079786
 32
0.0
 13
419.252026
 23
490.079786
 33
0.0
  0
SOLID
  5
35D
100
AcDbEntity
  8
0
  6
Continuous
 62
     0
100
AcDbTrace
 10
471.248887
 20
490.079786
 30
0.0
 11
481.248121
 21
492.079873
 31
0.0
 12
471.248887
 22
494.079961
 32
0.0
 13
471.248887
 23
494.079961
 33
0.0
  0
ENDBLK
  5
35E
100
AcDbEntity
  8
0
100
AcDbBlockEnd
  0
BLOCK
  5
361
100
AcDbEntity
  8
0
100
AcDbBlockBegin
  2
*B8
 70
     0
 10
0.0
 20
0.0
 30
0.0
  3
*B8
  1

  0
LINE
  5
362
100
AcDbEntity
  8
0
  6
Continuous
 62
     0
100
AcDbLine
 10
362.432096
 20
470.080715
 30
0.0
 11
442.750196
 21
470.080715
 31
0.0
  0
SOLID
  5
363
100
AcDbEntity
  8
0
  6
Continuous
 62
     0
100
AcDbTrace
 10
385.754019
 20
468.081229
 30
0.0
 11
395.753253
 21
470.080715
 31
0.0
 12
385.754019
 22
472.080803
 32
0.0
 13
385.754019
 23
472.080803
 33
0.0
  0
SOLID
  5
364
100
AcDbEntity
  8
0
  6
Continuous
 62
     0
100
AcDbTrace
 10
432.750962
 20
472.080803
 30
0.0
 11
422.751728
 21
470.080715
 31
0.0
 12
432.750962
 22
468.081229
 32
0.0
 13
432.750962
 23
468.081229
 33
0.0
  0
ENDBLK
  5
365
100
AcDbEntity
  8
0
100
AcDbBlockEnd
  0
BLOCK
  5
368
100
AcDbEntity
  8
0
100
AcDbBlockBegin
  2
*B9
 70
     0
 10
0.0
 20
0.0
 30
0.0
  3
*B9
  1

  0
LINE
  5
369
100
AcDbEntity
  8
0
  6
Continuous
 62
     0
100
AcDbLine
 10
517.245486
 20
292.089169
 30
0.0
 11
557.743498
 21
292.089169
 31
0.0
  0
SOLID
  5
36A
100
AcDbEntity
  8
0
  6
Continuous
 62
     0
100
AcDbTrace
 10
527.245322
 20
294.089257
 30
0.0
 11
517.245486
 21
292.089169
 31
0.0
 12
527.245322
 22
290.089082
 32
0.0
 13
527.245322
 23
290.089082
 33
0.0
  0
SOLID
  5
36B
100
AcDbEntity
  8
0
  6
Continuous
 62
     0
100
AcDbTrace
 10
547.743662
 20
290.089082
 30
0.0
 11
557.743498
 21
292.089169
 31
0.0
 12
547.743662
 22
294.089257
 32
0.0
 13
547.743662
 23
294.089257
 33
0.0
  0
ENDBLK
  5
36C
100
AcDbEntity
  8
0
100
AcDbBlockEnd
  0
BLOCK
  5
36F
100
AcDbEntity
  8
0
100
AcDbBlockBegin
  2
*B10
 70
     0
 10
0.0
 20
0.0
 30
0.0
  3
*B10
  1

  0
LINE
  5
370
100
AcDbEntity
  8
0
  6
Continuous
 62
     0
100
AcDbLine
 10
445.250155
 20
292.089169
 30
0.0
 11
517.245486
 21
292.089169
 31
0.0
  0
SOLID
  5
371
100
AcDbEntity
  8
0
  6
Continuous
 62
     0
100
AcDbTrace
 10
455.24939
 20
294.089257
 30
0.0
 11
445.250155
 21
292.089169
 31
0.0
 12
455.24939
 22
290.089082
 32
0.0
 13
455.24939
 23
290.089082
 33
0.0
  0
SOLID
  5
372
100
AcDbEntity
  8
0
  6
Continuous
 62
     0
100
AcDbTrace
 10
507.246251
 20
290.089082
 30
0.0
 11
517.245486
 21
292.089169
 31
0.0
 12
507.246251
 22
294.089257
 32
0.0
 13
507.246251
 23
294.089257
 33
0.0
  0
ENDBLK
  5
373
100
AcDbEntity
  8
0
100
AcDbBlockEnd
  0
BLOCK
  5
376
100
AcDbEntity
  8
0
100
AcDbBlockBegin
  2
*B11
 70
     0
 10
0.0
 20
0.0
 30
0.0
  3
*B11
  1

  0
LINE
  5
377
100
AcDbEntity
  8
0
  6
Continuous
 62
     0
100
AcDbLine
 10
373.254825
 20
292.089169
 30
0.0
 11
445.250155
 21
292.089169
 31
0.0
  0
SOLID
  5
378
100
AcDbEntity
  8
0
  6
Continuous
 62
     0
100
AcDbTrace
 10
383.25406
 20
294.089257
 30
0.0
 11
373.254825
 21
292.089169
 31
0.0
 12
383.25406
 22
290.089082
 32
0.0
 13
383.25406
 23
290.089082
 33
0.0
  0
SOLID
  5
379
100
AcDbEntity
  8
0
  6
Continuous
 62
     0
100
AcDbTrace
 10
435.250921
 20
290.089082
 30
0.0
 11
445.250155
 21
292.089169
 31
0.0
 12
435.250921
 22
294.089257
 32
0.0
 13
435.250921
 23
294.089257
 33
0.0
  0
ENDBLK
  5
37A
100
AcDbEntity
  8
0
100
AcDbBlockEnd
  0
BLOCK
  5
37D
100
AcDbEntity
  8
0
100
AcDbBlockBegin
  2
*B12
 70
     0
 10
0.0
 20
0.0
 30
0.0
  3
*B12
  1

  0
LINE
  5
37E
100
AcDbEntity
  8
0
  6
Continuous
 62
     0
100
AcDbLine
 10
332.757415
 20
268.090525
 30
0.0
 11
557.743498
 21
268.090525
 31
0.0
  0
SOLID
  5
37F
100
AcDbEntity
  8
0
  6
Continuous
 62
     0
100
AcDbTrace
 10
342.756649
 20
270.090011
 30
0.0
 11
332.757415
 21
268.090525
 31
0.0
 12
342.756649
 22
266.090438
 32
0.0
 13
342.756649
 23
266.090438
 33
0.0
  0
SOLID
  5
380
100
AcDbEntity
  8
0
  6
Continuous
 62
     0
100
AcDbTrace
 10
547.743662
 20
266.090438
 30
0.0
 11
557.743498
 21
268.090525
 31
0.0
 12
547.743662
 22
270.090011
 32
0.0
 13
547.743662
 23
270.090011
 33
0.0
  0
ENDBLK
  5
381
100
AcDbEntity
  8
0
100
AcDbBlockEnd
  0
BLOCK
  5
384
100
AcDbEntity
  8
0
100
AcDbBlockBegin
  2
*B13
 70
     0
 10
0.0
 20
0.0
 30
0.0
  3
*B13
  1

  0
LINE
  5
385
100
AcDbEntity
  8
0
  6
Continuous
 62
     0
100
AcDbLine
 10
315.980741
 20
418.254087
 30
0.0
 11
315.980741
 21
319.258478
 31
0.0
  0
SOLID
  5
386
100
AcDbEntity
  8
0
  6
Continuous
 62
     0
100
AcDbTrace
 10
317.980828
 20
408.254251
 30
0.0
 11
315.980741
 21
418.254087
 31
0.0
 12
313.980653
 22
408.254251
 32
0.0
 13
313.980653
 23
408.254251
 33
0.0
  0
SOLID
  5
387
100
AcDbEntity
  8
0
  6
Continuous
 62
     0
100
AcDbTrace
 10
313.980653
 20
329.258314
 30
0.0
 11
315.980741
 21
319.258478
 31
0.0
 12
317.980828
 22
329.258314
 32
0.0
 13
317.980828
 23
329.258314
 33
0.0
  0
ENDBLK
  5
388
100
AcDbEntity
  8
0
100
AcDbBlockEnd
  0
BLOCK
  5
38B
100
AcDbEntity
  8
0
100
AcDbBlockBegin
  2
*B14
 70
     0
 10
0.0
 20
0.0
 30
0.0
  3
*B14
  1

  0
LINE
  5
38C
100
AcDbEntity
  8
0
  6
Continuous
 62
     0
100
AcDbLine
 10
416.252195
 20
378.085112
 30
0.0
 11
488.141054
 21
378.085112
 31
0.0
  0
SOLID
  5
38D
100
AcDbEntity
  8
0
  6
Continuous
 62
     0
100
AcDbTrace
 10
426.25143
 20
376.085024
 30
0.0
 11
436.250664
 21
378.085112
 31
0.0
 12
426.25143
 22
380.085199
 32
0.0
 13
426.25143
 23
380.085199
 33
0.0
  0
SOLID
  5
38E
100
AcDbEntity
  8
0
  6
Continuous
 62
     0
100
AcDbTrace
 10
464.248881
 20
380.085199
 30
0.0
 11
454.249647
 21
378.085112
 31
0.0
 12
464.248881
 22
376.085024
 32
0.0
 13
464.248881
 23
376.085024
 33
0.0
  0
ENDBLK
  5
38F
100
AcDbEntity
  8
0
100
AcDbBlockEnd
  0
BLOCK
  5
392
100
AcDbEntity
  8
0
100
AcDbBlockBegin
  2
*B15
 70
     0
 10
0.0
 20
0.0
 30
0.0
  3
*B15
  1

  0
LINE
  5
393
100
AcDbEntity
  8
0
  6
Continuous
 62
     0
100
AcDbLine
 10
373.254825
 20
122.097372
 30
0.0
 11
517.245486
 21
122.097372
 31
0.0
  0
SOLID
  5
394
100
AcDbEntity
  8
0
  6
Continuous
 62
     0
100
AcDbTrace
 10
383.25406
 20
124.096858
 30
0.0
 11
373.254825
 21
122.097372
 31
0.0
 12
383.25406
 22
120.097284
 32
0.0
 13
383.25406
 23
120.097284
 33
0.0
  0
SOLID
  5
395
100
AcDbEntity
  8
0
  6
Continuous
 62
     0
100
AcDbTrace
 10
507.246251
 20
120.097284
 30
0.0
 11
517.245486
 21
122.097372
 31
0.0
 12
507.246251
 22
124.096858
 32
0.0
 13
507.246251
 23
124.096858
 33
0.0
  0
ENDBLK
  5
396
100
AcDbEntity
  8
0
100
AcDbBlockEnd
  0
BLOCK
  5
399
100
AcDbEntity
  8
0
100
AcDbBlockBegin
  2
*B16
 70
     0
 10
0.0
 20
0.0
 30
0.0
  3
*B16
  1

  0
LINE
  5
39A
100
AcDbEntity
  8
0
  6
Continuous
 62
     0
100
AcDbLine
 10
517.245486
 20
122.097372
 30
0.0
 11
557.743498
 21
122.097372
 31
0.0
  0
SOLID
  5
39B
100
AcDbEntity
  8
0
  6
Continuous
 62
     0
100
AcDbTrace
 10
527.245322
 20
124.096858
 30
0.0
 11
517.245486
 21
122.097372
 31
0.0
 12
527.245322
 22
120.097284
 32
0.0
 13
527.245322
 23
120.097284
 33
0.0
  0
SOLID
  5
39C
100
AcDbEntity
  8
0
  6
Continuous
 62
     0
100
AcDbTrace
 10
547.743662
 20
120.097284
 30
0.0
 11
557.743498
 21
122.097372
 31
0.0
 12
547.743662
 22
124.096858
 32
0.0
 13
547.743662
 23
124.096858
 33
0.0
  0
ENDBLK
  5
39D
100
AcDbEntity
  8
0
100
AcDbBlockEnd
  0
BLOCK
  5
3A0
100
AcDbEntity
  8
0
100
AcDbBlockBegin
  2
*B17
 70
     0
 10
0.0
 20
0.0
 30
0.0
  3
*B17
  1

  0
LINE
  5
3A1
100
AcDbEntity
  8
0
  6
Continuous
 62
     0
100
AcDbLine
 10
170.76717
 20
515.078774
 30
0.0
 11
719.733141
 21
515.078774
 31
0.0
  0
SOLID
  5
3A2
100
AcDbEntity
  8
0
  6
Continuous
 62
     0
100
AcDbTrace
 10
180.766404
 20
517.078862
 30
0.0
 11
170.76717
 21
515.078774
 31
0.0
 12
180.766404
 22
513.078687
 32
0.0
 13
180.766404
 23
513.078687
 33
0.0
  0
SOLID
  5
3A3
100
AcDbEntity
  8
0
  6
Continuous
 62
     0
100
AcDbTrace
 10
709.733907
 20
513.078687
 30
0.0
 11
719.733141
 21
515.078774
 31
0.0
 12
709.733907
 22
517.078862
 32
0.0
 13
709.733907
 23
517.078862
 33
0.0
  0
ENDBLK
  5
3A4
100
AcDbEntity
  8
0
100
AcDbBlockEnd
  0
BLOCK
  5
3A7
100
AcDbEntity
  8
0
100
AcDbBlockBegin
  2
*B18
 70
     0
 10
0.0
 20
0.0
 30
0.0
  3
*B18
  1

  0
LINE
  5
3A8
100
AcDbEntity
  8
0
  6
Continuous
 62
     0
100
AcDbLine
 10
144.991005
 20
319.258478
 30
0.0
 11
144.991005
 21
436.25307
 31
0.0
  0
SOLID
  5
3A9
100
AcDbEntity
  8
0
  6
Continuous
 62
     0
100
AcDbTrace
 10
142.991519
 20
329.258314
 30
0.0
 11
144.991005
 21
319.258478
 31
0.0
 12
146.991092
 22
329.258314
 32
0.0
 13
146.991092
 23
329.258314
 33
0.0
  0
SOLID
  5
3AA
100
AcDbEntity
  8
0
  6
Continuous
 62
     0
100
AcDbTrace
 10
146.991092
 20
426.253836
 30
0.0
 11
144.991005
 21
436.25307
 31
0.0
 12
142.991519
 22
426.253836
 32
0.0
 13
142.991519
 23
426.253836
 33
0.0
  0
ENDBLK
  5
3AB
100
AcDbEntity
  8
0
100
AcDbBlockEnd
  0
BLOCK
  5
3AE
100
AcDbEntity
  8
0
100
AcDbBlockBegin
  2
*B19
 70
     0
 10
0.0
 20
0.0
 30
0.0
  3
*B19
  1

  0
LINE
  5
3AF
100
AcDbEntity
  8
0
  6
Continuous
 62
     0
100
AcDbLine
 10
144.991005
 20
150.146719
 30
0.0
 11
144.991005
 21
222.143252
 31
0.0
  0
SOLID
  5
3B0
100
AcDbEntity
  8
0
  6
Continuous
 62
     0
100
AcDbTrace
 10
142.991519
 20
160.145953
 30
0.0
 11
144.991005
 21
150.146719
 31
0.0
 12
146.991092
 22
160.145953
 32
0.0
 13
146.991092
 23
160.145953
 33
0.0
  0
SOLID
  5
3B1
100
AcDbEntity
  8
0
  6
Continuous
 62
     0
100
AcDbTrace
 10
146.991092
 20
212.143416
 30
0.0
 11
144.991005
 21
222.143252
 31
0.0
 12
142.991519
 22
212.143416
 32
0.0
 13
142.991519
 23
212.143416
 33
0.0
  0
ENDBLK
  5
3B2
100
AcDbEntity
  8
0
100
AcDbBlockEnd
  0
BLOCK
  5
3B5
100
AcDbEntity
  8
0
100
AcDbBlockBegin
  2
*B20
 70
     0
 10
0.0
 20
0.0
 30
0.0
  3
*B20
  1

  0
LINE
  5
3B6
100
AcDbEntity
  8
0
  6
Continuous
 62
     0
100
AcDbLine
 10
351.978707
 20
213.143761
 30
0.0
 11
351.978707
 21
159.14621
 31
0.0
  0
SOLID
  5
3B7
100
AcDbEntity
  8
0
  6
Continuous
 62
     0
100
AcDbTrace
 10
353.978193
 20
203.143925
 30
0.0
 11
351.978707
 21
213.143761
 31
0.0
 12
349.978619
 22
203.143925
 32
0.0
 13
349.978619
 23
203.143925
 33
0.0
  0
SOLID
  5
3B8
100
AcDbEntity
  8
0
  6
Continuous
 62
     0
100
AcDbTrace
 10
349.978619
 20
169.145445
 30
0.0
 11
351.978707
 21
159.14621
 31
0.0
 12
353.978193
 22
169.145445
 32
0.0
 13
353.978193
 23
169.145445
 33
0.0
  0
ENDBLK
  5
3B9
100
AcDbEntity
  8
0
100
AcDbBlockEnd
  0
BLOCK
  5
3BC
100
AcDbEntity
  8
0
100
AcDbBlockBegin
  2
*B21
 70
     0
 10
0.0
 20
0.0
 30
0.0
  3
*B21
  1

  0
LINE
  5
3BD
100
AcDbEntity
  8
0
  6
Continuous
 62
     8
100
AcDbLine
 10
683.735175
 20
168.89581
 30
0.0
 11
683.735175
 21
178.145538
 31
0.0
  0
LINE
  5
3BE
100
AcDbEntity
  8
0
  6
Continuous
 62
     8
100
AcDbLine
 10
683.735175
 20
194.144433
 30
0.0
 11
683.735175
 21
203.394161
 31
0.0
  0
ENDBLK
  5
3BF
100
AcDbEntity
  8
0
100
AcDbBlockEnd
  0
BLOCK
  5
3C2
100
AcDbEntity
  8
0
100
AcDbBlockBegin
  2
*B22
 70
     0
 10
0.0
 20
0.0
 30
0.0
  3
*B22
  1

  0
LINE
  5
3C3
100
AcDbEntity
  8
0
  6
Continuous
 62
     8
100
AcDbLine
 10
164.767509
 20
186.144685
 30
0.0
 11
198.765387
 21
186.144685
 31
0.0
  0
LINE
  5
3C4
100
AcDbEntity
  8
0
  6
Continuous
 62
     8
100
AcDbLine
 10
214.764283
 20
186.144685
 30
0.0
 11
236.096344
 21
186.144685
 31
0.0
  0
LINE
  5
3C5
100
AcDbEntity
  8
0
  6
Continuous
 62
     8
100
AcDbLine
 10
242.096005
 20
186.144685
 30
0.0
 11
244.096092
 21
186.144685
 31
0.0
  0
LINE
  5
3C6
100
AcDbEntity
  8
0
  6
Continuous
 62
     8
100
AcDbLine
 10
250.095753
 20
186.144685
 30
0.0
 11
271.427814
 21
186.144685
 31
0.0
  0
LINE
  5
3C7
100
AcDbEntity
  8
0
  6
Continuous
 62
     8
100
AcDbLine
 10
277.426874
 20
186.144685
 30
0.0
 11
279.426961
 21
186.144685
 31
0.0
  0
LINE
  5
3C8
100
AcDbEntity
  8
0
  6
Continuous
 62
     8
100
AcDbLine
 10
285.426622
 20
186.144685
 30
0.0
 11
306.758683
 21
186.144685
 31
0.0
  0
LINE
  5
3C9
100
AcDbEntity
  8
0
  6
Continuous
 62
     8
100
AcDbLine
 10
322.757579
 20
186.144685
 30
0.0
 11
339.590195
 21
186.144685
 31
0.0
  0
LINE
  5
3CA
100
AcDbEntity
  8
0
  6
Continuous
 62
     8
100
AcDbLine
 10
345.589856
 20
186.144685
 30
0.0
 11
347.589342
 21
186.144685
 31
0.0
  0
LINE
  5
3CB
100
AcDbEntity
  8
0
  6
Continuous
 62
     8
100
AcDbLine
 10
353.589003
 20
186.144685
 30
0.0
 11
370.421619
 21
186.144685
 31
0.0
  0
LINE
  5
3CC
100
AcDbEntity
  8
0
  6
Continuous
 62
     8
100
AcDbLine
 10
376.42128
 20
186.144685
 30
0.0
 11
378.420766
 21
186.144685
 31
0.0
  0
LINE
  5
3CD
100
AcDbEntity
  8
0
  6
Continuous
 62
     8
100
AcDbLine
 10
384.420427
 20
186.144685
 30
0.0
 11
401.253043
 21
186.144685
 31
0.0
  0
LINE
  5
3CE
100
AcDbEntity
  8
0
  6
Continuous
 62
     8
100
AcDbLine
 10
417.251938
 20
186.144685
 30
0.0
 11
438.250751
 21
186.144685
 31
0.0
  0
LINE
  5
3CF
100
AcDbEntity
  8
0
  6
Continuous
 62
     8
100
AcDbLine
 10
444.250412
 20
186.144685
 30
0.0
 11
446.249898
 21
186.144685
 31
0.0
  0
LINE
  5
3D0
100
AcDbEntity
  8
0
  6
Continuous
 62
     8
100
AcDbLine
 10
452.249559
 20
186.144685
 30
0.0
 11
473.248373
 21
186.144685
 31
0.0
  0
LINE
  5
3D1
100
AcDbEntity
  8
0
  6
Continuous
 62
     8
100
AcDbLine
 10
489.247268
 20
186.144685
 30
0.0
 11
506.079884
 21
186.144685
 31
0.0
  0
LINE
  5
3D2
100
AcDbEntity
  8
0
  6
Continuous
 62
     8
100
AcDbLine
 10
512.079545
 20
186.144685
 30
0.0
 11
514.079031
 21
186.144685
 31
0.0
  0
LINE
  5
3D3
100
AcDbEntity
  8
0
  6
Continuous
 62
     8
100
AcDbLine
 10
520.078692
 20
186.144685
 30
0.0
 11
536.911308
 21
186.144685
 31
0.0
  0
LINE
  5
3D4
100
AcDbEntity
  8
0
  6
Continuous
 62
     8
100
AcDbLine
 10
542.910969
 20
186.144685
 30
0.0
 11
544.910455
 21
186.144685
 31
0.0
  0
LINE
  5
3D5
100
AcDbEntity
  8
0
  6
Continuous
 62
     8
100
AcDbLine
 10
550.910116
 20
186.144685
 30
0.0
 11
567.742732
 21
186.144685
 31
0.0
  0
LINE
  5
3D6
100
AcDbEntity
  8
0
  6
Continuous
 62
     8
100
AcDbLine
 10
583.741628
 20
186.144685
 30
0.0
 11
605.073689
 21
186.144685
 31
0.0
  0
LINE
  5
3D7
100
AcDbEntity
  8
0
  6
Continuous
 62
     8
100
AcDbLine
 10
611.07335
 20
186.144685
 30
0.0
 11
613.073437
 21
186.144685
 31
0.0
  0
LINE
  5
3D8
100
AcDbEntity
  8
0
  6
Continuous
 62
     8
100
AcDbLine
 10
619.073098
 20
186.144685
 30
0.0
 11
640.405159
 21
186.144685
 31
0.0
  0
LINE
  5
3D9
100
AcDbEntity
  8
0
  6
Continuous
 62
     8
100
AcDbLine
 10
646.404219
 20
186.144685
 30
0.0
 11
648.404306
 21
186.144685
 31
0.0
  0
LINE
  5
3DA
100
AcDbEntity
  8
0
  6
Continuous
 62
     8
100
AcDbLine
 10
654.403967
 20
186.144685
 30
0.0
 11
675.736028
 21
186.144685
 31
0.0
  0
LINE
  5
3DB
100
AcDbEntity
  8
0
  6
Continuous
 62
     8
100
AcDbLine
 10
691.734924
 20
186.144685
 30
0.0
 11
725.732802
 21
186.144685
 31
0.0
  0
ENDBLK
  5
3DC
100
AcDbEntity
  8
0
100
AcDbBlockEnd
  0
BLOCK
  5
3DF
100
AcDbEntity
  8
0
100
AcDbBlockBegin
  2
*B23
 70
     0
 10
0.0
 20
0.0
 30
0.0
  3
*B23
  1

  0
LINE
  5
3E0
100
AcDbEntity
  8
0
  6
Continuous
 62
     8
100
AcDbLine
 10
313.980653
 20
319.258478
 30
0.0
 11
326.757754
 21
319.258478
 31
0.0
  0
ENDBLK
  5
3E1
100
AcDbEntity
  8
0
100
AcDbBlockEnd
  0
BLOCK
  5
3E4
100
AcDbEntity
  8
0
100
AcDbBlockBegin
  2
*B24
 70
     0
 10
0.0
 20
0.0
 30
0.0
  3
*B24
  1

  0
LINE
  5
3E5
100
AcDbEntity
  8
0
  6
Continuous
 62
     8
100
AcDbLine
 10
142.991519
 20
319.258478
 30
0.0
 11
164.767509
 21
319.258478
 31
0.0
  0
ENDBLK
  5
3E6
100
AcDbEntity
  8
0
100
AcDbBlockEnd
  0
BLOCK
  5
3E9
100
AcDbEntity
  8
0
100
AcDbBlockBegin
  2
*B25
 70
     0
 10
0.0
 20
0.0
 30
0.0
  3
*B25
  1

  0
LINE
  5
3EA
100
AcDbEntity
  8
0
  6
Continuous
 62
     8
100
AcDbLine
 10
481.248121
 20
490.079786
 30
0.0
 11
481.248121
 21
494.079961
 31
0.0
  0
LINE
  5
3EB
100
AcDbEntity
  8
0
  6
Continuous
 62
     8
100
AcDbLine
 10
481.248121
 20
412.254426
 30
0.0
 11
481.248121
 21
428.863273
 31
0.0
  0
LINE
  5
3EC
100
AcDbEntity
  8
0
  6
Continuous
 62
     8
100
AcDbLine
 10
481.248121
 20
434.862934
 30
0.0
 11
481.248121
 21
436.863022
 31
0.0
  0
LINE
  5
3ED
100
AcDbEntity
  8
0
  6
Continuous
 62
     8
100
AcDbLine
 10
481.248121
 20
442.862683
 30
0.0
 11
481.248121
 21
459.471529
 31
0.0
  0
LINE
  5
3EE
100
AcDbEntity
  8
0
  6
Continuous
 62
     8
100
AcDbLine
 10
481.248121
 20
465.47119
 30
0.0
 11
481.248121
 21
467.471278
 31
0.0
  0
LINE
  5
3EF
100
AcDbEntity
  8
0
  6
Continuous
 62
     8
100
AcDbLine
 10
481.248121
 20
473.470939
 30
0.0
 11
481.248121
 21
490.079786
 31
0.0
  0
ENDBLK
  5
3F0
100
AcDbEntity
  8
0
100
AcDbBlockEnd
  0
BLOCK
  5
3F3
100
AcDbEntity
  8
0
100
AcDbBlockBegin
  2
*B26
 70
     0
 10
0.0
 20
0.0
 30
0.0
  3
*B26
  1

  0
LINE
  5
3F4
100
AcDbEntity
  8
0
  6
Continuous
 62
     8
100
AcDbLine
 10
481.248121
 20
153.146549
 30
0.0
 11
481.248121
 21
178.145538
 31
0.0
  0
LINE
  5
3F5
100
AcDbEntity
  8
0
  6
Continuous
 62
     8
100
AcDbLine
 10
481.248121
 20
194.144433
 30
0.0
 11
481.248121
 21
219.143422
 31
0.0
  0
ENDBLK
  5
3F6
100
AcDbEntity
  8
0
100
AcDbBlockEnd
  0
BLOCK
  5
3F9
100
AcDbEntity
  8
0
100
AcDbBlockBegin
  2
*B27
 70
     0
 10
0.0
 20
0.0
 30
0.0
  3
*B27
  1

  0
LINE
  5
3FA
100
AcDbEntity
  8
0
  6
Continuous
 62
     8
100
AcDbLine
 10
164.767509
 20
368.756583
 30
0.0
 11
181.029875
 21
368.756583
 31
0.0
  0
LINE
  5
3FB
100
AcDbEntity
  8
0
  6
Continuous
 62
     8
100
AcDbLine
 10
187.029536
 20
368.756583
 30
0.0
 11
189.029022
 21
368.756583
 31
0.0
  0
LINE
  5
3FC
100
AcDbEntity
  8
0
  6
Continuous
 62
     8
100
AcDbLine
 10
195.028682
 20
368.756583
 30
0.0
 11
211.291048
 21
368.756583
 31
0.0
  0
LINE
  5
3FD
100
AcDbEntity
  8
0
  6
Continuous
 62
     8
100
AcDbLine
 10
217.290709
 20
368.756583
 30
0.0
 11
219.290195
 21
368.756583
 31
0.0
  0
LINE
  5
3FE
100
AcDbEntity
  8
0
  6
Continuous
 62
     8
100
AcDbLine
 10
225.289856
 20
368.756583
 30
0.0
 11
241.552222
 21
368.756583
 31
0.0
  0
LINE
  5
3FF
100
AcDbEntity
  8
0
  6
Continuous
 62
     8
100
AcDbLine
 10
247.551883
 20
368.756583
 30
0.0
 11
249.55197
 21
368.756583
 31
0.0
  0
LINE
  5
400
100
AcDbEntity
  8
0
  6
Continuous
 62
     8
100
AcDbLine
 10
255.551631
 20
368.756583
 30
0.0
 11
271.813395
 21
368.756583
 31
0.0
  0
LINE
  5
401
100
AcDbEntity
  8
0
  6
Continuous
 62
     8
100
AcDbLine
 10
277.813056
 20
368.756583
 30
0.0
 11
279.813143
 21
368.756583
 31
0.0
  0
LINE
  5
402
100
AcDbEntity
  8
0
  6
Continuous
 62
     8
100
AcDbLine
 10
285.812804
 20
368.756583
 30
0.0
 11
302.074569
 21
368.756583
 31
0.0
  0
LINE
  5
403
100
AcDbEntity
  8
0
  6
Continuous
 62
     8
100
AcDbLine
 10
308.074229
 20
368.756583
 30
0.0
 11
310.074317
 21
368.756583
 31
0.0
  0
LINE
  5
404
100
AcDbEntity
  8
0
  6
Continuous
 62
     8
100
AcDbLine
 10
316.073978
 20
368.756583
 30
0.0
 11
332.336344
 21
368.756583
 31
0.0
  0
LINE
  5
405
100
AcDbEntity
  8
0
  6
Continuous
 62
     8
100
AcDbLine
 10
338.336004
 20
368.756583
 30
0.0
 11
340.33549
 21
368.756583
 31
0.0
  0
LINE
  5
406
100
AcDbEntity
  8
0
  6
Continuous
 62
     8
100
AcDbLine
 10
346.335151
 20
368.756583
 30
0.0
 11
362.597517
 21
368.756583
 31
0.0
  0
LINE
  5
407
100
AcDbEntity
  8
0
  6
Continuous
 62
     8
100
AcDbLine
 10
368.597178
 20
368.756583
 30
0.0
 11
370.596664
 21
368.756583
 31
0.0
  0
LINE
  5
408
100
AcDbEntity
  8
0
  6
Continuous
 62
     8
100
AcDbLine
 10
376.596325
 20
368.756583
 30
0.0
 11
392.858691
 21
368.756583
 31
0.0
  0
LINE
  5
409
100
AcDbEntity
  8
0
  6
Continuous
 62
     8
100
AcDbLine
 10
398.858351
 20
368.756583
 30
0.0
 11
400.858439
 21
368.756583
 31
0.0
  0
LINE
  5
40A
100
AcDbEntity
  8
0
  6
Continuous
 62
     8
100
AcDbLine
 10
406.8581
 20
368.756583
 30
0.0
 11
423.119864
 21
368.756583
 31
0.0
  0
LINE
  5
40B
100
AcDbEntity
  8
0
  6
Continuous
 62
     8
100
AcDbLine
 10
429.119525
 20
368.756583
 30
0.0
 11
431.119612
 21
368.756583
 31
0.0
  0
LINE
  5
40C
100
AcDbEntity
  8
0
  6
Continuous
 62
     8
100
AcDbLine
 10
437.119273
 20
368.756583
 30
0.0
 11
453.381037
 21
368.756583
 31
0.0
  0
LINE
  5
40D
100
AcDbEntity
  8
0
  6
Continuous
 62
     8
100
AcDbLine
 10
459.380698
 20
368.756583
 30
0.0
 11
461.380786
 21
368.756583
 31
0.0
  0
LINE
  5
40E
100
AcDbEntity
  8
0
  6
Continuous
 62
     8
100
AcDbLine
 10
467.380447
 20
368.756583
 30
0.0
 11
483.642812
 21
368.756583
 31
0.0
  0
LINE
  5
40F
100
AcDbEntity
  8
0
  6
Continuous
 62
     8
100
AcDbLine
 10
489.642473
 20
368.756583
 30
0.0
 11
491.641959
 21
368.756583
 31
0.0
  0
LINE
  5
410
100
AcDbEntity
  8
0
  6
Continuous
 62
     8
100
AcDbLine
 10
497.64162
 20
368.756583
 30
0.0
 11
513.903986
 21
368.756583
 31
0.0
  0
LINE
  5
411
100
AcDbEntity
  8
0
  6
Continuous
 62
     8
100
AcDbLine
 10
519.903647
 20
368.756583
 30
0.0
 11
521.903133
 21
368.756583
 31
0.0
  0
LINE
  5
412
100
AcDbEntity
  8
0
  6
Continuous
 62
     8
100
AcDbLine
 10
527.902794
 20
368.756583
 30
0.0
 11
544.165159
 21
368.756583
 31
0.0
  0
LINE
  5
413
100
AcDbEntity
  8
0
  6
Continuous
 62
     8
100
AcDbLine
 10
550.16482
 20
368.756583
 30
0.0
 11
552.164908
 21
368.756583
 31
0.0
  0
LINE
  5
414
100
AcDbEntity
  8
0
  6
Continuous
 62
     8
100
AcDbLine
 10
558.164569
 20
368.756583
 30
0.0
 11
574.426333
 21
368.756583
 31
0.0
  0
LINE
  5
415
100
AcDbEntity
  8
0
  6
Continuous
 62
     8
100
AcDbLine
 10
580.425994
 20
368.756583
 30
0.0
 11
582.426081
 21
368.756583
 31
0.0
  0
LINE
  5
416
100
AcDbEntity
  8
0
  6
Continuous
 62
     8
100
AcDbLine
 10
588.425742
 20
368.756583
 30
0.0
 11
604.687506
 21
368.756583
 31
0.0
  0
LINE
  5
417
100
AcDbEntity
  8
0
  6
Continuous
 62
     8
100
AcDbLine
 10
610.687167
 20
368.756583
 30
0.0
 11
612.687255
 21
368.756583
 31
0.0
  0
LINE
  5
418
100
AcDbEntity
  8
0
  6
Continuous
 62
     8
100
AcDbLine
 10
618.686916
 20
368.756583
 30
0.0
 11
634.949281
 21
368.756583
 31
0.0
  0
LINE
  5
419
100
AcDbEntity
  8
0
  6
Continuous
 62
     8
100
AcDbLine
 10
640.948341
 20
368.756583
 30
0.0
 11
642.948428
 21
368.756583
 31
0.0
  0
LINE
  5
41A
100
AcDbEntity
  8
0
  6
Continuous
 62
     8
100
AcDbLine
 10
648.948089
 20
368.756583
 30
0.0
 11
665.210455
 21
368.756583
 31
0.0
  0
LINE
  5
41B
100
AcDbEntity
  8
0
  6
Continuous
 62
     8
100
AcDbLine
 10
671.210116
 20
368.756583
 30
0.0
 11
673.209602
 21
368.756583
 31
0.0
  0
LINE
  5
41C
100
AcDbEntity
  8
0
  6
Continuous
 62
     8
100
AcDbLine
 10
679.209263
 20
368.756583
 30
0.0
 11
695.471628
 21
368.756583
 31
0.0
  0
LINE
  5
41D
100
AcDbEntity
  8
0
  6
Continuous
 62
     8
100
AcDbLine
 10
701.471289
 20
368.756583
 30
0.0
 11
703.471377
 21
368.756583
 31
0.0
  0
LINE
  5
41E
100
AcDbEntity
  8
0
  6
Continuous
 62
     8
100
AcDbLine
 10
709.471038
 20
368.756583
 30
0.0
 11
725.732802
 21
368.756583
 31
0.0
  0
ENDBLK
  5
41F
100
AcDbEntity
  8
0
100
AcDbBlockEnd
  0
BLOCK
  5
422
100
AcDbEntity
  8
0
100
AcDbBlockBegin
  2
*B28
 70
     0
 10
0.0
 20
0.0
 30
0.0
  3
*B28
  1

  0
LINE
  5
423
100
AcDbEntity
  8
0
  6
Continuous
 62
     8
100
AcDbLine
 10
409.25219
 20
490.079786
 30
0.0
 11
409.25219
 21
494.079961
 31
0.0
  0
LINE
  5
424
100
AcDbEntity
  8
0
  6
Continuous
 62
     8
100
AcDbLine
 10
409.25219
 20
412.254426
 30
0.0
 11
409.25219
 21
428.863273
 31
0.0
  0
LINE
  5
425
100
AcDbEntity
  8
0
  6
Continuous
 62
     8
100
AcDbLine
 10
409.25219
 20
434.862934
 30
0.0
 11
409.25219
 21
436.863022
 31
0.0
  0
LINE
  5
426
100
AcDbEntity
  8
0
  6
Continuous
 62
     8
100
AcDbLine
 10
409.25219
 20
442.862683
 30
0.0
 11
409.25219
 21
459.471529
 31
0.0
  0
LINE
  5
427
100
AcDbEntity
  8
0
  6
Continuous
 62
     8
100
AcDbLine
 10
409.25219
 20
465.47119
 30
0.0
 11
409.25219
 21
467.471278
 31
0.0
  0
LINE
  5
428
100
AcDbEntity
  8
0
  6
Continuous
 62
     8
100
AcDbLine
 10
409.25219
 20
473.470939
 30
0.0
 11
409.25219
 21
490.079786
 31
0.0
  0
ENDBLK
  5
429
100
AcDbEntity
  8
0
100
AcDbBlockEnd
  0
BLOCK
  5
42C
100
AcDbEntity
  8
0
100
AcDbBlockBegin
  2
*B29
 70
     0
 10
0.0
 20
0.0
 30
0.0
  3
*B29
  1

  0
LINE
  5
42D
100
AcDbEntity
  8
0
  6
Continuous
 62
     8
100
AcDbLine
 10
409.25219
 20
153.146549
 30
0.0
 11
409.25219
 21
178.145538
 31
0.0
  0
LINE
  5
42E
100
AcDbEntity
  8
0
  6
Continuous
 62
     8
100
AcDbLine
 10
409.25219
 20
194.144433
 30
0.0
 11
409.25219
 21
219.143422
 31
0.0
  0
ENDBLK
  5
42F
100
AcDbEntity
  8
0
100
AcDbBlockEnd
  0
BLOCK
  5
432
100
AcDbEntity
  8
0
100
AcDbBlockBegin
  2
*B30
 70
     0
 10
0.0
 20
0.0
 30
0.0
  3
*B30
  1

  0
LINE
  5
433
100
AcDbEntity
  8
0
  6
Continuous
 62
     8
100
AcDbLine
 10
313.980653
 20
418.254087
 30
0.0
 11
326.757754
 21
418.254087
 31
0.0
  0
ENDBLK
  5
434
100
AcDbEntity
  8
0
100
AcDbBlockEnd
  0
BLOCK
  5
437
100
AcDbEntity
  8
0
100
AcDbBlockBegin
  2
*B31
 70
     0
 10
0.0
 20
0.0
 30
0.0
  3
*B31
  1

  0
LINE
  5
438
100
AcDbEntity
  8
0
  6
Continuous
 62
     8
100
AcDbLine
 10
206.765136
 20
168.89581
 30
0.0
 11
206.765136
 21
178.145538
 31
0.0
  0
LINE
  5
439
100
AcDbEntity
  8
0
  6
Continuous
 62
     8
100
AcDbLine
 10
206.765136
 20
194.144433
 30
0.0
 11
206.765136
 21
203.394161
 31
0.0
  0
ENDBLK
  5
43A
100
AcDbEntity
  8
0
100
AcDbBlockEnd
  0
BLOCK
  5
43D
100
AcDbEntity
  8
0
100
AcDbBlockBegin
  2
*B32
 70
     0
 10
0.0
 20
0.0
 30
0.0
  3
*B32
  1

  0
LINE
  5
43E
100
AcDbEntity
  8
0
  6
Continuous
 62
     8
100
AcDbLine
 10
349.978619
 20
213.143761
 30
0.0
 11
353.978193
 21
213.143761
 31
0.0
  0
LINE
  5
43F
100
AcDbEntity
  8
0
  6
Continuous
 62
     8
100
AcDbLine
 10
353.978193
 20
213.143761
 30
0.0
 11
365.255077
 21
213.143761
 31
0.0
  0
LINE
  5
440
100
AcDbEntity
  8
0
  6
Continuous
 62
     8
100
AcDbLine
 10
381.253972
 20
213.143761
 30
0.0
 11
388.703922
 21
213.143761
 31
0.0
  0
ENDBLK
  5
441
100
AcDbEntity
  8
0
100
AcDbBlockEnd
  0
BLOCK
  5
444
100
AcDbEntity
  8
0
100
AcDbBlockBegin
  2
*B33
 70
     0
 10
0.0
 20
0.0
 30
0.0
  3
*B33
  1

  0
LINE
  5
445
100
AcDbEntity
  8
0
  6
Continuous
 62
     8
100
AcDbLine
 10
719.733141
 20
442.252731
 30
0.0
 11
719.733141
 21
517.078862
 31
0.0
  0
ENDBLK
  5
446
100
AcDbEntity
  8
0
100
AcDbBlockEnd
  0
BLOCK
  5
449
100
AcDbEntity
  8
0
100
AcDbBlockBegin
  2
*B34
 70
     0
 10
0.0
 20
0.0
 30
0.0
  3
*B34
  1

  0
LINE
  5
44A
100
AcDbEntity
  8
0
  6
Continuous
 62
     8
100
AcDbLine
 10
517.245486
 20
120.097284
 30
0.0
 11
517.245486
 21
124.096858
 31
0.0
  0
LINE
  5
44B
100
AcDbEntity
  8
0
  6
Continuous
 62
     8
100
AcDbLine
 10
517.245486
 20
124.096858
 30
0.0
 11
517.245486
 21
151.146462
 31
0.0
  0
LINE
  5
44C
100
AcDbEntity
  8
0
  6
Continuous
 62
     8
100
AcDbLine
 10
517.245486
 20
167.145959
 30
0.0
 11
517.245486
 21
174.595307
 31
0.0
  0
ENDBLK
  5
44D
100
AcDbEntity
  8
0
100
AcDbBlockEnd
  0
BLOCK
  5
450
100
AcDbEntity
  8
0
100
AcDbBlockBegin
  2
*B35
 70
     0
 10
0.0
 20
0.0
 30
0.0
  3
*B35
  1

  0
LINE
  5
451
100
AcDbEntity
  8
0
  6
Continuous
 62
     8
100
AcDbLine
 10
314.758432
 20
171.145532
 30
0.0
 11
314.758432
 21
178.145538
 31
0.0
  0
LINE
  5
452
100
AcDbEntity
  8
0
  6
Continuous
 62
     8
100
AcDbLine
 10
314.758432
 20
194.144433
 30
0.0
 11
314.758432
 21
201.144439
 31
0.0
  0
ENDBLK
  5
453
100
AcDbEntity
  8
0
100
AcDbBlockEnd
  0
BLOCK
  5
456
100
AcDbEntity
  8
0
100
AcDbBlockBegin
  2
*B36
 70
     0
 10
0.0
 20
0.0
 30
0.0
  3
*B36
  1

  0
LINE
  5
457
100
AcDbEntity
  8
0
  6
Continuous
 62
     8
100
AcDbLine
 10
575.742481
 20
171.145532
 30
0.0
 11
575.742481
 21
178.145538
 31
0.0
  0
LINE
  5
458
100
AcDbEntity
  8
0
  6
Continuous
 62
     8
100
AcDbLine
 10
575.742481
 20
194.144433
 30
0.0
 11
575.742481
 21
201.144439
 31
0.0
  0
ENDBLK
  5
459
100
AcDbEntity
  8
0
100
AcDbBlockEnd
  0
BLOCK
  5
45C
100
AcDbEntity
  8
0
100
AcDbBlockBegin
  2
*B37
 70
     0
 10
0.0
 20
0.0
 30
0.0
  3
*B37
  1

  0
LINE
  5
45D
100
AcDbEntity
  8
0
  6
Continuous
 62
     8
100
AcDbLine
 10
373.254825
 20
120.097284
 30
0.0
 11
373.254825
 21
124.096858
 31
0.0
  0
LINE
  5
45E
100
AcDbEntity
  8
0
  6
Continuous
 62
     8
100
AcDbLine
 10
373.254825
 20
124.096858
 30
0.0
 11
373.254825
 21
141.780037
 31
0.0
  0
LINE
  5
45F
100
AcDbEntity
  8
0
  6
Continuous
 62
     8
100
AcDbLine
 10
373.254825
 20
147.779698
 30
0.0
 11
373.254825
 21
149.779184
 31
0.0
  0
LINE
  5
460
100
AcDbEntity
  8
0
  6
Continuous
 62
     8
100
AcDbLine
 10
373.254825
 20
155.779447
 30
0.0
 11
373.254825
 21
173.462025
 31
0.0
  0
LINE
  5
461
100
AcDbEntity
  8
0
  6
Continuous
 62
     8
100
AcDbLine
 10
373.254825
 20
179.461686
 30
0.0
 11
373.254825
 21
181.461773
 31
0.0
  0
LINE
  5
462
100
AcDbEntity
  8
0
  6
Continuous
 62
     8
100
AcDbLine
 10
373.254825
 20
187.461434
 30
0.0
 11
373.254825
 21
205.144012
 31
0.0
  0
LINE
  5
463
100
AcDbEntity
  8
0
  6
Continuous
 62
     8
100
AcDbLine
 10
373.254825
 20
221.143509
 30
0.0
 11
373.254825
 21
228.592858
 31
0.0
  0
ENDBLK
  5
464
100
AcDbEntity
  8
0
100
AcDbBlockEnd
  0
BLOCK
  5
467
100
AcDbEntity
  8
0
100
AcDbBlockBegin
  2
*B38
 70
     0
 10
0.0
 20
0.0
 30
0.0
  3
*B38
  1

  0
LINE
  5
468
100
AcDbEntity
  8
0
  6
Continuous
 62
     8
100
AcDbLine
 10
373.254825
 20
290.089082
 30
0.0
 11
373.254825
 21
294.089257
 31
0.0
  0
LINE
  5
469
100
AcDbEntity
  8
0
  6
Continuous
 62
     8
100
AcDbLine
 10
373.254825
 20
294.089257
 30
0.0
 11
373.254825
 21
316.130522
 31
0.0
  0
LINE
  5
46A
100
AcDbEntity
  8
0
  6
Continuous
 62
     8
100
AcDbLine
 10
373.254825
 20
322.130784
 30
0.0
 11
373.254825
 21
324.13027
 31
0.0
  0
LINE
  5
46B
100
AcDbEntity
  8
0
  6
Continuous
 62
     8
100
AcDbLine
 10
373.254825
 20
330.129931
 30
0.0
 11
373.254825
 21
352.171798
 31
0.0
  0
LINE
  5
46C
100
AcDbEntity
  8
0
  6
Continuous
 62
     8
100
AcDbLine
 10
373.254825
 20
358.171459
 30
0.0
 11
373.254825
 21
360.171546
 31
0.0
  0
LINE
  5
46D
100
AcDbEntity
  8
0
  6
Continuous
 62
     8
100
AcDbLine
 10
373.254825
 20
366.171207
 30
0.0
 11
373.254825
 21
388.212472
 31
0.0
  0
LINE
  5
46E
100
AcDbEntity
  8
0
  6
Continuous
 62
     8
100
AcDbLine
 10
373.254825
 20
394.212735
 30
0.0
 11
373.254825
 21
396.212221
 31
0.0
  0
LINE
  5
46F
100
AcDbEntity
  8
0
  6
Continuous
 62
     8
100
AcDbLine
 10
373.254825
 20
402.211882
 30
0.0
 11
373.254825
 21
424.253748
 31
0.0
  0
ENDBLK
  5
470
100
AcDbEntity
  8
0
100
AcDbBlockEnd
  0
BLOCK
  5
473
100
AcDbEntity
  8
0
100
AcDbBlockBegin
  2
*B39
 70
     0
 10
0.0
 20
0.0
 30
0.0
  3
*B39
  1

  0
LINE
  5
474
100
AcDbEntity
  8
0
  6
Continuous
 62
     8
100
AcDbLine
 10
142.991519
 20
150.146719
 30
0.0
 11
164.767509
 21
150.146719
 31
0.0
  0
ENDBLK
  5
475
100
AcDbEntity
  8
0
100
AcDbBlockEnd
  0
BLOCK
  5
478
100
AcDbEntity
  8
0
100
AcDbBlockBegin
  2
*B40
 70
     0
 10
0.0
 20
0.0
 30
0.0
  3
*B40
  1

  0
LINE
  5
479
100
AcDbEntity
  8
0
  6
Continuous
 62
     8
100
AcDbLine
 10
454.249647
 20
347.757169
 30
0.0
 11
454.249647
 21
380.085199
 31
0.0
  0
ENDBLK
  5
47A
100
AcDbEntity
  8
0
100
AcDbBlockEnd
  0
BLOCK
  5
47D
100
AcDbEntity
  8
0
100
AcDbBlockBegin
  2
*B41
 70
     0
 10
0.0
 20
0.0
 30
0.0
  3
*B41
  1

  0
LINE
  5
47E
100
AcDbEntity
  8
0
  6
Continuous
 62
     8
100
AcDbLine
 10
517.245486
 20
290.089082
 30
0.0
 11
517.245486
 21
294.089257
 31
0.0
  0
LINE
  5
47F
100
AcDbEntity
  8
0
  6
Continuous
 62
     8
100
AcDbLine
 10
517.245486
 20
294.089257
 30
0.0
 11
517.245486
 21
316.130522
 31
0.0
  0
LINE
  5
480
100
AcDbEntity
  8
0
  6
Continuous
 62
     8
100
AcDbLine
 10
517.245486
 20
322.130784
 30
0.0
 11
517.245486
 21
324.13027
 31
0.0
  0
LINE
  5
481
100
AcDbEntity
  8
0
  6
Continuous
 62
     8
100
AcDbLine
 10
517.245486
 20
330.129931
 30
0.0
 11
517.245486
 21
352.171798
 31
0.0
  0
LINE
  5
482
100
AcDbEntity
  8
0
  6
Continuous
 62
     8
100
AcDbLine
 10
517.245486
 20
358.171459
 30
0.0
 11
517.245486
 21
360.171546
 31
0.0
  0
LINE
  5
483
100
AcDbEntity
  8
0
  6
Continuous
 62
     8
100
AcDbLine
 10
517.245486
 20
366.171207
 30
0.0
 11
517.245486
 21
388.212472
 31
0.0
  0
LINE
  5
484
100
AcDbEntity
  8
0
  6
Continuous
 62
     8
100
AcDbLine
 10
517.245486
 20
394.212735
 30
0.0
 11
517.245486
 21
396.212221
 31
0.0
  0
LINE
  5
485
100
AcDbEntity
  8
0
  6
Continuous
 62
     8
100
AcDbLine
 10
517.245486
 20
402.211882
 30
0.0
 11
517.245486
 21
424.253748
 31
0.0
  0
ENDBLK
  5
486
100
AcDbEntity
  8
0
100
AcDbBlockEnd
  0
BLOCK
  5
489
100
AcDbEntity
  8
0
100
AcDbBlockBegin
  2
*B42
 70
     0
 10
0.0
 20
0.0
 30
0.0
  3
*B42
  1

  0
LINE
  5
48A
100
AcDbEntity
  8
0
  6
Continuous
 62
     8
100
AcDbLine
 10
332.757415
 20
266.090438
 30
0.0
 11
332.757415
 21
313.258817
 31
0.0
  0
ENDBLK
  5
48B
100
AcDbEntity
  8
0
100
AcDbBlockEnd
  0
BLOCK
  5
48E
100
AcDbEntity
  8
0
100
AcDbBlockBegin
  2
*B43
 70
     0
 10
0.0
 20
0.0
 30
0.0
  3
*B43
  1

  0
LINE
  5
48F
100
AcDbEntity
  8
0
  6
Continuous
 62
     8
100
AcDbLine
 10
170.76717
 20
442.252731
 30
0.0
 11
170.76717
 21
517.078862
 31
0.0
  0
ENDBLK
  5
490
100
AcDbEntity
  8
0
100
AcDbBlockEnd
  0
BLOCK
  5
493
100
AcDbEntity
  8
0
100
AcDbBlockBegin
  2
*B44
 70
     0
 10
0.0
 20
0.0
 30
0.0
  3
*B44
  1

  0
LINE
  5
494
100
AcDbEntity
  8
0
  6
Continuous
 62
     8
100
AcDbLine
 10
142.991519
 20
222.143252
 30
0.0
 11
164.767509
 21
222.143252
 31
0.0
  0
ENDBLK
  5
495
100
AcDbEntity
  8
0
100
AcDbBlockEnd
  0
BLOCK
  5
498
100
AcDbEntity
  8
0
100
AcDbBlockBegin
  2
*B45
 70
     0
 10
0.0
 20
0.0
 30
0.0
  3
*B45
  1

  0
LINE
  5
499
100
AcDbEntity
  8
0
  6
Continuous
 62
     8
100
AcDbLine
 10
436.250664
 20
347.757169
 30
0.0
 11
436.250664
 21
380.085199
 31
0.0
  0
ENDBLK
  5
49A
100
AcDbEntity
  8
0
100
AcDbBlockEnd
  0
BLOCK
  5
49D
100
AcDbEntity
  8
0
100
AcDbBlockBegin
  2
*B46
 70
     0
 10
0.0
 20
0.0
 30
0.0
  3
*B46
  1

  0
LINE
  5
49E
100
AcDbEntity
  8
0
  6
Continuous
 62
     8
100
AcDbLine
 10
557.743498
 20
120.097284
 30
0.0
 11
557.743498
 21
144.147058
 31
0.0
  0
ENDBLK
  5
49F
100
AcDbEntity
  8
0
100
AcDbBlockEnd
  0
BLOCK
  5
4A2
100
AcDbEntity
  8
0
100
AcDbBlockBegin
  2
*B47
 70
     0
 10
0.0
 20
0.0
 30
0.0
  3
*B47
  1

  0
LINE
  5
4A3
100
AcDbEntity
  8
0
  6
Continuous
 62
     8
100
AcDbLine
 10
445.250155
 20
290.089082
 30
0.0
 11
445.250155
 21
294.089257
 31
0.0
  0
LINE
  5
4A4
100
AcDbEntity
  8
0
  6
Continuous
 62
     8
100
AcDbLine
 10
445.250155
 20
294.089257
 30
0.0
 11
445.250155
 21
313.923508
 31
0.0
  0
LINE
  5
4A5
100
AcDbEntity
  8
0
  6
Continuous
 62
     8
100
AcDbLine
 10
445.250155
 20
319.923169
 30
0.0
 11
445.250155
 21
321.923256
 31
0.0
  0
LINE
  5
4A6
100
AcDbEntity
  8
0
  6
Continuous
 62
     8
100
AcDbLine
 10
445.250155
 20
327.922917
 30
0.0
 11
445.250155
 21
347.757169
 31
0.0
  0
ENDBLK
  5
4A7
100
AcDbEntity
  8
0
100
AcDbBlockEnd
  0
BLOCK
  5
4AA
100
AcDbEntity
  8
0
100
AcDbBlockBegin
  2
*B48
 70
     0
 10
0.0
 20
0.0
 30
0.0
  3
*B48
  1

  0
LINE
  5
4AB
100
AcDbEntity
  8
0
  6
Continuous
 62
     8
100
AcDbLine
 10
349.978619
 20
159.14621
 30
0.0
 11
353.978193
 21
159.14621
 31
0.0
  0
LINE
  5
4AC
100
AcDbEntity
  8
0
  6
Continuous
 62
     8
100
AcDbLine
 10
353.978193
 20
159.14621
 30
0.0
 11
373.832896
 21
159.14621
 31
0.0
  0
LINE
  5
4AD
100
AcDbEntity
  8
0
  6
Continuous
 62
     8
100
AcDbLine
 10
379.832557
 20
159.14621
 30
0.0
 11
381.832043
 21
159.14621
 31
0.0
  0
LINE
  5
4AE
100
AcDbEntity
  8
0
  6
Continuous
 62
     8
100
AcDbLine
 10
387.831704
 20
159.14621
 30
0.0
 11
407.685805
 21
159.14621
 31
0.0
  0
LINE
  5
4AF
100
AcDbEntity
  8
0
  6
Continuous
 62
     8
100
AcDbLine
 10
413.685466
 20
159.14621
 30
0.0
 11
415.685554
 21
159.14621
 31
0.0
  0
LINE
  5
4B0
100
AcDbEntity
  8
0
  6
Continuous
 62
     8
100
AcDbLine
 10
421.685215
 20
159.14621
 30
0.0
 11
441.539316
 21
159.14621
 31
0.0
  0
LINE
  5
4B1
100
AcDbEntity
  8
0
  6
Continuous
 62
     8
100
AcDbLine
 10
447.538977
 20
159.14621
 30
0.0
 11
449.539065
 21
159.14621
 31
0.0
  0
LINE
  5
4B2
100
AcDbEntity
  8
0
  6
Continuous
 62
     8
100
AcDbLine
 10
455.538726
 20
159.14621
 30
0.0
 11
475.392828
 21
159.14621
 31
0.0
  0
LINE
  5
4B3
100
AcDbEntity
  8
0
  6
Continuous
 62
     8
100
AcDbLine
 10
481.392488
 20
159.14621
 30
0.0
 11
483.392576
 21
159.14621
 31
0.0
  0
LINE
  5
4B4
100
AcDbEntity
  8
0
  6
Continuous
 62
     8
100
AcDbLine
 10
489.392237
 20
159.14621
 30
0.0
 11
509.246339
 21
159.14621
 31
0.0
  0
LINE
  5
4B5
100
AcDbEntity
  8
0
  6
Continuous
 62
     8
100
AcDbLine
 10
525.245234
 20
159.14621
 30
0.0
 11
532.694582
 21
159.14621
 31
0.0
  0
ENDBLK
  5
4B6
100
AcDbEntity
  8
0
100
AcDbBlockEnd
  0
BLOCK
  5
4B9
100
AcDbEntity
  8
0
100
AcDbBlockBegin
  2
*B49
 70
     0
 10
0.0
 20
0.0
 30
0.0
  3
*B49
  1

  0
LINE
  5
4BA
100
AcDbEntity
  8
0
  6
Continuous
 62
     8
100
AcDbLine
 10
422.751728
 20
442.252731
 30
0.0
 11
422.751728
 21
472.080803
 31
0.0
  0
ENDBLK
  5
4BB
100
AcDbEntity
  8
0
100
AcDbBlockEnd
  0
BLOCK
  5
4BE
100
AcDbEntity
  8
0
100
AcDbBlockBegin
  2
*B50
 70
     0
 10
0.0
 20
0.0
 30
0.0
  3
*B50
  1

  0
LINE
  5
4BF
100
AcDbEntity
  8
0
  6
Continuous
 62
     8
100
AcDbLine
 10
142.991519
 20
436.25307
 30
0.0
 11
164.767509
 21
436.25307
 31
0.0
  0
ENDBLK
  5
4C0
100
AcDbEntity
  8
0
100
AcDbBlockEnd
  0
BLOCK
  5
4C3
100
AcDbEntity
  8
0
100
AcDbBlockBegin
  2
*B51
 70
     0
 10
0.0
 20
0.0
 30
0.0
  3
*B51
  1

  0
LINE
  5
4C4
100
AcDbEntity
  8
0
  6
Continuous
 62
     8
100
AcDbLine
 10
557.743498
 20
266.090438
 30
0.0
 11
557.743498
 21
313.258817
 31
0.0
  0
LINE
  5
4C5
100
AcDbEntity
  8
0
  6
Continuous
 62
     8
100
AcDbLine
 10
557.743498
 20
424.253748
 30
0.0
 11
557.743498
 21
494.079961
 31
0.0
  0
ENDBLK
  5
4C6
100
AcDbEntity
  8
0
100
AcDbBlockEnd
  0
BLOCK
  5
4C9
100
AcDbEntity
  8
0
100
AcDbBlockBegin
  2
*B52
 70
     0
 10
0.0
 20
0.0
 30
0.0
  3
*B52
  1

  0
LINE
  5
4CA
100
AcDbEntity
  8
0
  6
Continuous
 62
     8
100
AcDbLine
 10
395.753253
 20
442.252731
 30
0.0
 11
395.753253
 21
472.080803
 31
0.0
  0
ENDBLK
  5
4CB
100
AcDbEntity
  8
0
100
AcDbBlockEnd
  0
BLOCK
  5
4CE
100
AcDbEntity
  8
0
100
AcDbBlockBegin
  2
*B53
 70
     0
 10
0.0
 20
0.0
 30
0.0
  3
*B53
  1

  0
LINE
  5
4CF
100
AcDbEntity
  8
0
  6
Continuous
 62
     6
100
AcDbLine
 10
312.758344
 20
186.144685
 30
0.0
 11
316.757918
 21
186.144685
 31
0.0
  0
LINE
  5
4D0
100
AcDbEntity
  8
0
  6
Continuous
 62
     6
100
AcDbLine
 10
314.758432
 20
184.145199
 30
0.0
 11
314.758432
 21
188.144772
 31
0.0
  0
ENDBLK
  5
4D1
100
AcDbEntity
  8
0
100
AcDbBlockEnd
  0
BLOCK
  5
4D4
100
AcDbEntity
  8
0
100
AcDbBlockBegin
  2
*B54
 70
     0
 10
0.0
 20
0.0
 30
0.0
  3
*B54
  1

  0
LINE
  5
4D5
100
AcDbEntity
  8
0
  6
Continuous
 62
     6
100
AcDbLine
 10
204.765048
 20
186.144685
 30
0.0
 11
208.764622
 21
186.144685
 31
0.0
  0
LINE
  5
4D6
100
AcDbEntity
  8
0
  6
Continuous
 62
     6
100
AcDbLine
 10
206.765136
 20
184.145199
 30
0.0
 11
206.765136
 21
188.144772
 31
0.0
  0
ENDBLK
  5
4D7
100
AcDbEntity
  8
0
100
AcDbBlockEnd
  0
BLOCK
  5
4DA
100
AcDbEntity
  8
0
100
AcDbBlockBegin
  2
*B55
 70
     0
 10
0.0
 20
0.0
 30
0.0
  3
*B55
  1

  0
LINE
  5
4DB
100
AcDbEntity
  8
0
  6
Continuous
 62
     6
100
AcDbLine
 10
371.254738
 20
213.143761
 30
0.0
 11
375.254311
 21
213.143761
 31
0.0
  0
LINE
  5
4DC
100
AcDbEntity
  8
0
  6
Continuous
 62
     6
100
AcDbLine
 10
373.254825
 20
211.143673
 30
0.0
 11
373.254825
 21
215.143247
 31
0.0
  0
ENDBLK
  5
4DD
100
AcDbEntity
  8
0
100
AcDbBlockEnd
  0
BLOCK
  5
4E0
100
AcDbEntity
  8
0
100
AcDbBlockBegin
  2
*B56
 70
     0
 10
0.0
 20
0.0
 30
0.0
  3
*B56
  1

  0
LINE
  5
4E1
100
AcDbEntity
  8
0
  6
Continuous
 62
     6
100
AcDbLine
 10
683.735175
 20
184.145199
 30
0.0
 11
683.735175
 21
188.144772
 31
0.0
  0
LINE
  5
4E2
100
AcDbEntity
  8
0
  6
Continuous
 62
     6
100
AcDbLine
 10
681.735689
 20
186.144685
 30
0.0
 11
685.735263
 21
186.144685
 31
0.0
  0
ENDBLK
  5
4E3
100
AcDbEntity
  8
0
100
AcDbBlockEnd
  0
BLOCK
  5
4E6
100
AcDbEntity
  8
0
100
AcDbBlockBegin
  2
*B57
 70
     0
 10
0.0
 20
0.0
 30
0.0
  3
*B57
  1

  0
LINE
  5
4E7
100
AcDbEntity
  8
0
  6
Continuous
 62
     6
100
AcDbLine
 10
479.248034
 20
186.144685
 30
0.0
 11
483.247607
 21
186.144685
 31
0.0
  0
LINE
  5
4E8
100
AcDbEntity
  8
0
  6
Continuous
 62
     6
100
AcDbLine
 10
481.248121
 20
184.145199
 30
0.0
 11
481.248121
 21
188.144772
 31
0.0
  0
ENDBLK
  5
4E9
100
AcDbEntity
  8
0
100
AcDbBlockEnd
  0
BLOCK
  5
4EC
100
AcDbEntity
  8
0
100
AcDbBlockBegin
  2
*B58
 70
     0
 10
0.0
 20
0.0
 30
0.0
  3
*B58
  1

  0
LINE
  5
4ED
100
AcDbEntity
  8
0
  6
Continuous
 62
     6
100
AcDbLine
 10
409.25219
 20
184.145199
 30
0.0
 11
409.25219
 21
188.144772
 31
0.0
  0
LINE
  5
4EE
100
AcDbEntity
  8
0
  6
Continuous
 62
     6
100
AcDbLine
 10
407.252704
 20
186.144685
 30
0.0
 11
411.252277
 21
186.144685
 31
0.0
  0
ENDBLK
  5
4EF
100
AcDbEntity
  8
0
100
AcDbBlockEnd
  0
BLOCK
  5
4F2
100
AcDbEntity
  8
0
100
AcDbBlockBegin
  2
*B59
 70
     0
 10
0.0
 20
0.0
 30
0.0
  3
*B59
  1

  0
LINE
  5
4F3
100
AcDbEntity
  8
0
  6
Continuous
 62
     6
100
AcDbLine
 10
573.742393
 20
186.144685
 30
0.0
 11
577.741967
 21
186.144685
 31
0.0
  0
LINE
  5
4F4
100
AcDbEntity
  8
0
  6
Continuous
 62
     6
100
AcDbLine
 10
575.742481
 20
184.145199
 30
0.0
 11
575.742481
 21
188.144772
 31
0.0
  0
ENDBLK
  5
4F5
100
AcDbEntity
  8
0
100
AcDbBlockEnd
  0
BLOCK
  5
4F8
100
AcDbEntity
  8
0
100
AcDbBlockBegin
  2
*B60
 70
     0
 10
0.0
 20
0.0
 30
0.0
  3
*B60
  1

  0
LINE
  5
4F9
100
AcDbEntity
  8
0
  6
Continuous
 62
     6
100
AcDbLine
 10
517.245486
 20
157.146123
 30
0.0
 11
517.245486
 21
161.146298
 31
0.0
  0
LINE
  5
4FA
100
AcDbEntity
  8
0
  6
Continuous
 62
     6
100
AcDbLine
 10
515.246
 20
159.14621
 30
0.0
 11
519.245573
 21
159.14621
 31
0.0
  0
ENDBLK
  5
4FB
100
AcDbEntity
  8
0
100
AcDbBlockEnd
  0
BLOCK
  5
4FE
100
AcDbEntity
  8
0
100
AcDbBlockBegin
  2
*B61
 70
     0
 10
0.0
 20
0.0
 30
0.0
  3
*B61
  1

  0
LINE
  5
4FF
100
AcDbEntity
  8
0
  6
Continuous
 62
     0
100
AcDbLine
 10
421.919811
 20
237.341511
 30
0.0
 11
392.455064
 21
237.341511
 31
0.0
  0
LINE
  5
500
100
AcDbEntity
  8
0
  6
Continuous
 62
     0
100
AcDbLine
 10
392.455064
 20
237.341511
 30
0.0
 11
376.890473
 21
217.726217
 31
0.0
  0
SOLID
  5
501
100
AcDbEntity
  8
0
  6
Continuous
 62
     0
100
AcDbTrace
 10
381.539699
 20
226.802103
 30
0.0
 11
376.890473
 21
217.726217
 31
0.0
 12
384.672468
 22
224.315979
 32
0.0
 13
384.672468
 23
224.315979
 33
0.0
  0
ENDBLK
  5
502
100
AcDbEntity
  8
0
100
AcDbBlockEnd
  0
BLOCK
  5
505
100
AcDbEntity
  8
0
100
AcDbBlockBegin
  2
*B62
 70
     0
 10
0.0
 20
0.0
 30
0.0
  3
*B62
  1

  0
TEXT
  5
506
100
AcDbEntity
  8
TEXT
  6
Continuous
 62
     0
100
AcDbText
 10
395.479167
 20
242.5
 30
0.0
 40
7.0
  1
%%c2,6
100
AcDbText
  0
ENDBLK
  5
507
100
AcDbEntity
  8
0
100
AcDbBlockEnd
  0
BLOCK
  5
50A
100
AcDbEntity
  8
0
100
AcDbBlockBegin
  2
*B63
 70
     0
 10
0.0
 20
0.0
 30
0.0
  3
*B63
  1

  0
TEXT
  5
50B
100
AcDbEntity
  8
TEXT
  6
Continuous
 62
     0
100
AcDbText
 10
368.765799
 20
328.0
 30
0.0
 40
12.0
  1
5
100
AcDbText
  0
ENDBLK
  5
50C
100
AcDbEntity
  8
0
100
AcDbBlockEnd
  0
BLOCK
  5
50F
100
AcDbEntity
  8
0
100
AcDbBlockBegin
  2
*B64
 70
     0
 10
0.0
 20
0.0
 30
0.0
  3
*B64
  1

  0
TEXT
  5
510
100
AcDbEntity
  8
TEXT
  6
Continuous
 62
     0
100
AcDbText
 10
535.531599
 20
364.0
 30
0.0
 40
12.0
  1
12
100
AcDbText
  0
ENDBLK
  5
511
100
AcDbEntity
  8
0
100
AcDbBlockEnd
  0
BLOCK
  5
514
100
AcDbEntity
  8
0
100
AcDbBlockBegin
  2
*B65
 70
     0
 10
0.0
 20
0.0
 30
0.0
  3
*B65
  1

  0
TEXT
  5
515
100
AcDbEntity
  8
TEXT
  6
Continuous
 62
     0
100
AcDbText
 10
476.765799
 20
399.0
 30
0.0
 40
12.0
  1
2
100
AcDbText
  0
ENDBLK
  5
516
100
AcDbEntity
  8
0
100
AcDbBlockEnd
  0
BLOCK
  5
519
100
AcDbEntity
  8
0
100
AcDbBlockBegin
  2
*B66
 70
     0
 10
0.0
 20
0.0
 30
0.0
  3
*B66
  1

  0
TEXT
  5
51A
100
AcDbEntity
  8
TEXT
  6
Continuous
 62
     0
100
AcDbText
 10
339.531599
 20
364.0
 30
0.0
 40
12.0
  1
14
100
AcDbText
  0
ENDBLK
  5
51B
100
AcDbEntity
  8
0
100
AcDbBlockEnd
  0
BLOCK
  5
51E
100
AcDbEntity
  8
0
100
AcDbBlockBegin
  2
*B67
 70
     0
 10
0.0
 20
0.0
 30
0.0
  3
*B67
  1

  0
TEXT
  5
51F
100
AcDbEntity
  8
TEXT
  6
Continuous
 62
     0
100
AcDbText
 10
404.765799
 20
399.0
 30
0.0
 40
12.0
  1
4
100
AcDbText
  0
ENDBLK
  5
520
100
AcDbEntity
  8
0
100
AcDbBlockEnd
  0
BLOCK
  5
523
100
AcDbEntity
  8
0
100
AcDbBlockBegin
  2
*B68
 70
     0
 10
0.0
 20
0.0
 30
0.0
  3
*B68
  1

  0
TEXT
  5
524
100
AcDbEntity
  8
TEXT
  6
Continuous
 62
     0
100
AcDbText
 10
512.765799
 20
328.0
 30
0.0
 40
12.0
  1
3
100
AcDbText
  0
ENDBLK
  5
525
100
AcDbEntity
  8
0
100
AcDbBlockEnd
  0
BLOCK
  5
528
100
AcDbEntity
  8
0
100
AcDbBlockBegin
  2
*B69
 70
     0
 10
0.0
 20
0.0
 30
0.0
  3
*B69
  1

  0
TEXT
  5
529
100
AcDbEntity
  8
TEXT
  6
Continuous
 62
     0
100
AcDbText
 10
440.765799
 20
328.0
 30
0.0
 40
12.0
  1
1
100
AcDbText
  0
ENDBLK
  5
52A
100
AcDbEntity
  8
0
100
AcDbBlockEnd
  0
BLOCK
  5
52D
100
AcDbEntity
  8
0
100
AcDbBlockBegin
  2
*B70
 70
     0
 10
0.0
 20
0.0
 30
0.0
  3
*B70
  1

  0
TEXT
  5
52E
100
AcDbEntity
  8
TEXT
  6
Continuous
 62
     0
100
AcDbText
 10
168.380297
 20
293.0
 30
0.0
 40
14.0
  1
180%%d
100
AcDbText
  0
ENDBLK
  5
52F
100
AcDbEntity
  8
0
100
AcDbBlockEnd
  0
BLOCK
  5
532
100
AcDbEntity
  8
0
100
AcDbBlockBegin
  2
*B71
 70
     0
 10
0.0
 20
0.0
 30
0.0
  3
*B71
  1

  0
TEXT
  5
533
100
AcDbEntity
  8
TEXT
  6
Continuous
 62
     0
100
AcDbText
 10
512.860741
 20
495.5
 30
0.0
 40
7.0
  1
17
100
AcDbText
  0
ENDBLK
  5
534
100
AcDbEntity
  8
0
100
AcDbBlockEnd
  0
BLOCK
  5
537
100
AcDbEntity
  8
0
100
AcDbBlockBegin
  2
*B72
 70
     0
 10
0.0
 20
0.0
 30
0.0
  3
*B72
  1

  0
TEXT
  5
538
100
AcDbEntity
  8
TEXT
  6
Continuous
 62
     0
100
AcDbText
 10
438.610741
 20
495.5
 30
0.0
 40
7.0
  1
16
100
AcDbText
  0
ENDBLK
  5
539
100
AcDbEntity
  8
0
100
AcDbBlockEnd
  0
BLOCK
  5
53C
100
AcDbEntity
  8
0
100
AcDbBlockBegin
  2
*B73
 70
     0
 10
0.0
 20
0.0
 30
0.0
  3
*B73
  1

  0
TEXT
  5
53D
100
AcDbEntity
  8
TEXT
  6
Continuous
 62
     0
100
AcDbText
 10
365.079167
 20
473.5
 30
0.0
 40
7.0
  1
%%c6
100
AcDbText
  0
ENDBLK
  5
53E
100
AcDbEntity
  8
0
100
AcDbBlockEnd
  0
BLOCK
  5
541
100
AcDbEntity
  8
0
100
AcDbBlockBegin
  2
*B74
 70
     0
 10
0.0
 20
0.0
 30
0.0
  3
*B74
  1

  0
TEXT
  5
542
100
AcDbEntity
  8
TEXT
  6
Continuous
 62
     0
100
AcDbText
 10
534.194075
 20
295.5
 30
0.0
 40
7.0
  1
9
100
AcDbText
  0
ENDBLK
  5
543
100
AcDbEntity
  8
0
100
AcDbBlockEnd
  0
BLOCK
  5
546
100
AcDbEntity
  8
0
100
AcDbBlockBegin
  2
*B75
 70
     0
 10
0.0
 20
0.0
 30
0.0
  3
*B75
  1

  0
TEXT
  5
547
100
AcDbEntity
  8
TEXT
  6
Continuous
 62
     0
100
AcDbText
 10
474.610741
 20
295.5
 30
0.0
 40
7.0
  1
16
100
AcDbText
  0
ENDBLK
  5
548
100
AcDbEntity
  8
0
100
AcDbBlockEnd
  0
BLOCK
  5
54B
100
AcDbEntity
  8
0
100
AcDbBlockBegin
  2
*B76
 70
     0
 10
0.0
 20
0.0
 30
0.0
  3
*B76
  1

  0
TEXT
  5
54C
100
AcDbEntity
  8
TEXT
  6
Continuous
 62
     0
100
AcDbText
 10
402.610741
 20
295.5
 30
0.0
 40
7.0
  1
16
100
AcDbText
  0
ENDBLK
  5
54D
100
AcDbEntity
  8
0
100
AcDbBlockEnd
  0
BLOCK
  5
550
100
AcDbEntity
  8
0
100
AcDbBlockBegin
  2
*B77
 70
     0
 10
0.0
 20
0.0
 30
0.0
  3
*B77
  1

  0
TEXT
  5
551
100
AcDbEntity
  8
TEXT
  6
Continuous
 62
     0
100
AcDbText
 10
438.610741
 20
271.5
 30
0.0
 40
7.0
  1
50
100
AcDbText
  0
ENDBLK
  5
552
100
AcDbEntity
  8
0
100
AcDbBlockEnd
  0
BLOCK
  5
555
100
AcDbEntity
  8
0
100
AcDbBlockBegin
  2
*B78
 70
     0
 10
0.0
 20
0.0
 30
0.0
  3
*B78
  1

  0
TEXT
  5
556
100
AcDbEntity
  8
TEXT
  6
Continuous
 62
     0
100
AcDbText
 10
312.5
 20
362.004047
 30
0.0
 40
7.0
  1
22
 50
90.0
100
AcDbText
  0
ENDBLK
  5
557
100
AcDbEntity
  8
0
100
AcDbBlockEnd
  0
BLOCK
  5
55A
100
AcDbEntity
  8
0
100
AcDbBlockBegin
  2
*B79
 70
     0
 10
0.0
 20
0.0
 30
0.0
  3
*B79
  1

  0
TEXT
  5
55B
100
AcDbEntity
  8
TEXT
  6
Continuous
 62
     0
100
AcDbText
 10
469.079167
 20
381.5
 30
0.0
 40
7.0
  1
%%c4
100
AcDbText
  0
ENDBLK
  5
55C
100
AcDbEntity
  8
0
100
AcDbBlockEnd
  0
BLOCK
  5
55F
100
AcDbEntity
  8
0
100
AcDbBlockBegin
  2
*B80
 70
     0
 10
0.0
 20
0.0
 30
0.0
  3
*B80
  1

  0
TEXT
  5
560
100
AcDbEntity
  8
TEXT
  6
Continuous
 62
     0
100
AcDbText
 10
438.610741
 20
125.5
 30
0.0
 40
7.0
  1
32
100
AcDbText
  0
ENDBLK
  5
561
100
AcDbEntity
  8
0
100
AcDbBlockEnd
  0
BLOCK
  5
564
100
AcDbEntity
  8
0
100
AcDbBlockBegin
  2
*B81
 70
     0
 10
0.0
 20
0.0
 30
0.0
  3
*B81
  1

  0
TEXT
  5
565
100
AcDbEntity
  8
TEXT
  6
Continuous
 62
     0
100
AcDbText
 10
534.194075
 20
125.5
 30
0.0
 40
7.0
  1
9
100
AcDbText
  0
ENDBLK
  5
566
100
AcDbEntity
  8
0
100
AcDbBlockEnd
  0
BLOCK
  5
569
100
AcDbEntity
  8
0
100
AcDbBlockBegin
  2
*B82
 70
     0
 10
0.0
 20
0.0
 30
0.0
  3
*B82
  1

  0
TEXT
  5
56A
100
AcDbEntity
  8
TEXT
  6
Continuous
 62
     0
100
AcDbText
 10
435.277408
 20
518.5
 30
0.0
 40
7.0
  1
122
100
AcDbText
  0
ENDBLK
  5
56B
100
AcDbEntity
  8
0
100
AcDbBlockEnd
  0
BLOCK
  5
56E
100
AcDbEntity
  8
0
100
AcDbBlockBegin
  2
*B83
 70
     0
 10
0.0
 20
0.0
 30
0.0
  3
*B83
  1

  0
TEXT
  5
56F
100
AcDbEntity
  8
TEXT
  6
Continuous
 62
     0
100
AcDbText
 10
141.5
 20
371.004047
 30
0.0
 40
7.0
  1
26
 50
90.0
100
AcDbText
  0
ENDBLK
  5
570
100
AcDbEntity
  8
0
100
AcDbBlockEnd
  0
BLOCK
  5
573
100
AcDbEntity
  8
0
100
AcDbBlockBegin
  2
*B84
 70
     0
 10
0.0
 20
0.0
 30
0.0
  3
*B84
  1

  0
TEXT
  5
574
100
AcDbEntity
  8
TEXT
  6
Continuous
 62
     0
100
AcDbText
 10
141.5
 20
179.38404
 30
0.0
 40
7.0
  1
16
 50
90.0
100
AcDbText
  0
ENDBLK
  5
575
100
AcDbEntity
  8
0
100
AcDbBlockEnd
  0
BLOCK
  5
578
100
AcDbEntity
  8
0
100
AcDbBlockBegin
  2
*B85
 70
     0
 10
0.0
 20
0.0
 30
0.0
  3
*B85
  1

  0
TEXT
  5
579
100
AcDbEntity
  8
TEXT
  6
Continuous
 62
     0
100
AcDbText
 10
348.5
 20
179.38404
 30
0.0
 40
7.0
  1
12
 50
90.0
100
AcDbText
  0
ENDBLK
  5
57A
100
AcDbEntity
  8
0
100
AcDbBlockEnd
  0
ENDSEC
  0
SECTION
  2
ENTITIES
  0
INSERT
  5
2AD
100
AcDbEntity
  8
0
  6
Continuous
 62
   174
100
AcDbBlockReference
  2
*B1
 10
0.0
 20
0.0
 30
0.0
  0
INSERT
  5
33D
100
AcDbEntity
  8
0
  6
Continuous
 62
   174
100
AcDbBlockReference
  2
*B2
 10
0.0
 20
0.0
 30
0.0
  0
INSERT
  5
343
100
AcDbEntity
  8
0
  6
Continuous
 62
   172
100
AcDbBlockReference
  2
*B3
 10
0.0
 20
0.0
 30
0.0
  0
INSERT
  5
34E
100
AcDbEntity
  8
0
  6
Continuous
 62
   172
100
AcDbBlockReference
  2
*B4
 10
0.0
 20
0.0
 30
0.0
  0
INSERT
  5
358
100
AcDbEntity
  8
0
  6
Continuous
 62
     0
100
AcDbBlockReference
  2
*B6
 10
0.0
 20
0.0
 30
0.0
  0
INSERT
  5
35F
100
AcDbEntity
  8
0
  6
Continuous
 62
     0
100
AcDbBlockReference
  2
*B7
 10
0.0
 20
0.0
 30
0.0
  0
INSERT
  5
366
100
AcDbEntity
  8
0
  6
Continuous
 62
     0
100
AcDbBlockReference
  2
*B8
 10
0.0
 20
0.0
 30
0.0
  0
INSERT
  5
36D
100
AcDbEntity
  8
0
  6
Continuous
 62
     0
100
AcDbBlockReference
  2
*B9
 10
0.0
 20
0.0
 30
0.0
  0
INSERT
  5
374
100
AcDbEntity
  8
0
  6
Continuous
 62
     0
100
AcDbBlockReference
  2
*B10
 10
0.0
 20
0.0
 30
0.0
  0
INSERT
  5
37B
100
AcDbEntity
  8
0
  6
Continuous
 62
     0
100
AcDbBlockReference
  2
*B11
 10
0.0
 20
0.0
 30
0.0
  0
INSERT
  5
382
100
AcDbEntity
  8
0
  6
Continuous
 62
     0
100
AcDbBlockReference
  2
*B12
 10
0.0
 20
0.0
 30
0.0
  0
INSERT
  5
389
100
AcDbEntity
  8
0
  6
Continuous
 62
     0
100
AcDbBlockReference
  2
*B13
 10
0.0
 20
0.0
 30
0.0
  0
INSERT
  5
390
100
AcDbEntity
  8
0
  6
Continuous
 62
     0
100
AcDbBlockReference
  2
*B14
 10
0.0
 20
0.0
 30
0.0
  0
INSERT
  5
397
100
AcDbEntity
  8
0
  6
Continuous
 62
     0
100
AcDbBlockReference
  2
*B15
 10
0.0
 20
0.0
 30
0.0
  0
INSERT
  5
39E
100
AcDbEntity
  8
0
  6
Continuous
 62
     0
100
AcDbBlockReference
  2
*B16
 10
0.0
 20
0.0
 30
0.0
  0
INSERT
  5
3A5
100
AcDbEntity
  8
0
  6
Continuous
 62
     0
100
AcDbBlockReference
  2
*B17
 10
0.0
 20
0.0
 30
0.0
  0
INSERT
  5
3AC
100
AcDbEntity
  8
0
  6
Continuous
 62
     0
100
AcDbBlockReference
  2
*B18
 10
0.0
 20
0.0
 30
0.0
  0
INSERT
  5
3B3
100
AcDbEntity
  8
0
  6
Continuous
 62
     0
100
AcDbBlockReference
  2
*B19
 10
0.0
 20
0.0
 30
0.0
  0
INSERT
  5
3BA
100
AcDbEntity
  8
0
  6
Continuous
 62
     0
100
AcDbBlockReference
  2
*B20
 10
0.0
 20
0.0
 30
0.0
  0
INSERT
  5
3C0
100
AcDbEntity
  8
0
  6
Continuous
 62
     8
100
AcDbBlockReference
  2
*B21
 10
0.0
 20
0.0
 30
0.0
  0
INSERT
  5
3DD
100
AcDbEntity
  8
0
  6
Continuous
 62
     8
100
AcDbBlockReference
  2
*B22
 10
0.0
 20
0.0
 30
0.0
  0
INSERT
  5
3E2
100
AcDbEntity
  8
0
  6
Continuous
 62
     8
100
AcDbBlockReference
  2
*B23
 10
0.0
 20
0.0
 30
0.0
  0
INSERT
  5
3E7
100
AcDbEntity
  8
0
  6
Continuous
 62
     8
100
AcDbBlockReference
  2
*B24
 10
0.0
 20
0.0
 30
0.0
  0
INSERT
  5
3F1
100
AcDbEntity
  8
0
  6
Continuous
 62
     8
100
AcDbBlockReference
  2
*B25
 10
0.0
 20
0.0
 30
0.0
  0
INSERT
  5
3F7
100
AcDbEntity
  8
0
  6
Continuous
 62
     8
100
AcDbBlockReference
  2
*B26
 10
0.0
 20
0.0
 30
0.0
  0
INSERT
  5
420
100
AcDbEntity
  8
0
  6
Continuous
 62
     8
100
AcDbBlockReference
  2
*B27
 10
0.0
 20
0.0
 30
0.0
  0
INSERT
  5
42A
100
AcDbEntity
  8
0
  6
Continuous
 62
     8
100
AcDbBlockReference
  2
*B28
 10
0.0
 20
0.0
 30
0.0
  0
INSERT
  5
430
100
AcDbEntity
  8
0
  6
Continuous
 62
     8
100
AcDbBlockReference
  2
*B29
 10
0.0
 20
0.0
 30
0.0
  0
INSERT
  5
435
100
AcDbEntity
  8
0
  6
Continuous
 62
     8
100
AcDbBlockReference
  2
*B30
 10
0.0
 20
0.0
 30
0.0
  0
INSERT
  5
43B
100
AcDbEntity
  8
0
  6
Continuous
 62
     8
100
AcDbBlockReference
  2
*B31
 10
0.0
 20
0.0
 30
0.0
  0
INSERT
  5
442
100
AcDbEntity
  8
0
  6
Continuous
 62
     8
100
AcDbBlockReference
  2
*B32
 10
0.0
 20
0.0
 30
0.0
  0
INSERT
  5
447
100
AcDbEntity
  8
0
  6
Continuous
 62
     8
100
AcDbBlockReference
  2
*B33
 10
0.0
 20
0.0
 30
0.0
  0
INSERT
  5
44E
100
AcDbEntity
  8
0
  6
Continuous
 62
     8
100
AcDbBlockReference
  2
*B34
 10
0.0
 20
0.0
 30
0.0
  0
INSERT
  5
454
100
AcDbEntity
  8
0
  6
Continuous
 62
     8
100
AcDbBlockReference
  2
*B35
 10
0.0
 20
0.0
 30
0.0
  0
INSERT
  5
45A
100
AcDbEntity
  8
0
  6
Continuous
 62
     8
100
AcDbBlockReference
  2
*B36
 10
0.0
 20
0.0
 30
0.0
  0
INSERT
  5
465
100
AcDbEntity
  8
0
  6
Continuous
 62
     8
100
AcDbBlockReference
  2
*B37
 10
0.0
 20
0.0
 30
0.0
  0
INSERT
  5
471
100
AcDbEntity
  8
0
  6
Continuous
 62
     8
100
AcDbBlockReference
  2
*B38
 10
0.0
 20
0.0
 30
0.0
  0
INSERT
  5
476
100
AcDbEntity
  8
0
  6
Continuous
 62
     8
100
AcDbBlockReference
  2
*B39
 10
0.0
 20
0.0
 30
0.0
  0
INSERT
  5
47B
100
AcDbEntity
  8
0
  6
Continuous
 62
     8
100
AcDbBlockReference
  2
*B40
 10
0.0
 20
0.0
 30
0.0
  0
INSERT
  5
487
100
AcDbEntity
  8
0
  6
Continuous
 62
     8
100
AcDbBlockReference
  2
*B41
 10
0.0
 20
0.0
 30
0.0
  0
INSERT
  5
48C
100
AcDbEntity
  8
0
  6
Continuous
 62
     8
100
AcDbBlockReference
  2
*B42
 10
0.0
 20
0.0
 30
0.0
  0
INSERT
  5
491
100
AcDbEntity
  8
0
  6
Continuous
 62
     8
100
AcDbBlockReference
  2
*B43
 10
0.0
 20
0.0
 30
0.0
  0
INSERT
  5
496
100
AcDbEntity
  8
0
  6
Continuous
 62
     8
100
AcDbBlockReference
  2
*B44
 10
0.0
 20
0.0
 30
0.0
  0
INSERT
  5
49B
100
AcDbEntity
  8
0
  6
Continuous
 62
     8
100
AcDbBlockReference
  2
*B45
 10
0.0
 20
0.0
 30
0.0
  0
INSERT
  5
4A0
100
AcDbEntity
  8
0
  6
Continuous
 62
     8
100
AcDbBlockReference
  2
*B46
 10
0.0
 20
0.0
 30
0.0
  0
INSERT
  5
4A8
100
AcDbEntity
  8
0
  6
Continuous
 62
     8
100
AcDbBlockReference
  2
*B47
 10
0.0
 20
0.0
 30
0.0
  0
INSERT
  5
4B7
100
AcDbEntity
  8
0
  6
Continuous
 62
     8
100
AcDbBlockReference
  2
*B48
 10
0.0
 20
0.0
 30
0.0
  0
INSERT
  5
4BC
100
AcDbEntity
  8
0
  6
Continuous
 62
     8
100
AcDbBlockReference
  2
*B49
 10
0.0
 20
0.0
 30
0.0
  0
INSERT
  5
4C1
100
AcDbEntity
  8
0
  6
Continuous
 62
     8
100
AcDbBlockReference
  2
*B50
 10
0.0
 20
0.0
 30
0.0
  0
INSERT
  5
4C7
100
AcDbEntity
  8
0
  6
Continuous
 62
     8
100
AcDbBlockReference
  2
*B51
 10
0.0
 20
0.0
 30
0.0
  0
INSERT
  5
4CC
100
AcDbEntity
  8
0
  6
Continuous
 62
     8
100
AcDbBlockReference
  2
*B52
 10
0.0
 20
0.0
 30
0.0
  0
INSERT
  5
4D2
100
AcDbEntity
  8
0
  6
Continuous
 62
     6
100
AcDbBlockReference
  2
*B53
 10
0.0
 20
0.0
 30
0.0
  0
INSERT
  5
4D8
100
AcDbEntity
  8
0
  6
Continuous
 62
     6
100
AcDbBlockReference
  2
*B54
 10
0.0
 20
0.0
 30
0.0
  0
INSERT
  5
4DE
100
AcDbEntity
  8
0
  6
Continuous
 62
     6
100
AcDbBlockReference
  2
*B55
 10
0.0
 20
0.0
 30
0.0
  0
INSERT
  5
4E4
100
AcDbEntity
  8
0
  6
Continuous
 62
     6
100
AcDbBlockReference
  2
*B56
 10
0.0
 20
0.0
 30
0.0
  0
INSERT
  5
4EA
100
AcDbEntity
  8
0
  6
Continuous
 62
     6
100
AcDbBlockReference
  2
*B57
 10
0.0
 20
0.0
 30
0.0
  0
INSERT
  5
4F0
100
AcDbEntity
  8
0
  6
Continuous
 62
     6
100
AcDbBlockReference
  2
*B58
 10
0.0
 20
0.0
 30
0.0
  0
INSERT
  5
4F6
100
AcDbEntity
  8
0
  6
Continuous
 62
     6
100
AcDbBlockReference
  2
*B59
 10
0.0
 20
0.0
 30
0.0
  0
INSERT
  5
4FC
100
AcDbEntity
  8
0
  6
Continuous
 62
     6
100
AcDbBlockReference
  2
*B60
 10
0.0
 20
0.0
 30
0.0
  0
INSERT
  5
503
100
AcDbEntity
  8
0
  6
Continuous
 62
     0
100
AcDbBlockReference
  2
*B61
 10
0.0
 20
0.0
 30
0.0
  0
INSERT
  5
508
100
AcDbEntity
  8
TEXT
  6
Continuous
 62
     0
100
AcDbBlockReference
  2
*B62
 10
0.0
 20
0.0
 30
0.0
  0
INSERT
  5
50D
100
AcDbEntity
  8
TEXT
  6
Continuous
 62
     0
100
AcDbBlockReference
  2
*B63
 10
0.0
 20
0.0
 30
0.0
  0
INSERT
  5
512
100
AcDbEntity
  8
TEXT
  6
Continuous
 62
     0
100
AcDbBlockReference
  2
*B64
 10
0.0
 20
0.0
 30
0.0
  0
INSERT
  5
517
100
AcDbEntity
  8
TEXT
  6
Continuous
 62
     0
100
AcDbBlockReference
  2
*B65
 10
0.0
 20
0.0
 30
0.0
  0
INSERT
  5
51C
100
AcDbEntity
  8
TEXT
  6
Continuous
 62
     0
100
AcDbBlockReference
  2
*B66
 10
0.0
 20
0.0
 30
0.0
  0
INSERT
  5
521
100
AcDbEntity
  8
TEXT
  6
Continuous
 62
     0
100
AcDbBlockReference
  2
*B67
 10
0.0
 20
0.0
 30
0.0
  0
INSERT
  5
526
100
AcDbEntity
  8
TEXT
  6
Continuous
 62
     0
100
AcDbBlockReference
  2
*B68
 10
0.0
 20
0.0
 30
0.0
  0
INSERT
  5
52B
100
AcDbEntity
  8
TEXT
  6
Continuous
 62
     0
100
AcDbBlockReference
  2
*B69
 10
0.0
 20
0.0
 30
0.0
  0
INSERT
  5
530
100
AcDbEntity
  8
TEXT
  6
Continuous
 62
     0
100
AcDbBlockReference
  2
*B70
 10
0.0
 20
0.0
 30
0.0
  0
INSERT
  5
535
100
AcDbEntity
  8
TEXT
  6
Continuous
 62
     0
100
AcDbBlockReference
  2
*B71
 10
0.0
 20
0.0
 30
0.0
  0
INSERT
  5
53A
100
AcDbEntity
  8
TEXT
  6
Continuous
 62
     0
100
AcDbBlockReference
  2
*B72
 10
0.0
 20
0.0
 30
0.0
  0
INSERT
  5
53F
100
AcDbEntity
  8
TEXT
  6
Continuous
 62
     0
100
AcDbBlockReference
  2
*B73
 10
0.0
 20
0.0
 30
0.0
  0
INSERT
  5
544
100
AcDbEntity
  8
TEXT
  6
Continuous
 62
     0
100
AcDbBlockReference
  2
*B74
 10
0.0
 20
0.0
 30
0.0
  0
INSERT
  5
549
100
AcDbEntity
  8
TEXT
  6
Continuous
 62
     0
100
AcDbBlockReference
  2
*B75
 10
0.0
 20
0.0
 30
0.0
  0
INSERT
  5
54E
100
AcDbEntity
  8
TEXT
  6
Continuous
 62
     0
100
AcDbBlockReference
  2
*B76
 10
0.0
 20
0.0
 30
0.0
  0
INSERT
  5
553
100
AcDbEntity
  8
TEXT
  6
Continuous
 62
     0
100
AcDbBlockReference
  2
*B77
 10
0.0
 20
0.0
 30
0.0
  0
INSERT
  5
558
100
AcDbEntity
  8
TEXT
  6
Continuous
 62
     0
100
AcDbBlockReference
  2
*B78
 10
0.0
 20
0.0
 30
0.0
  0
INSERT
  5
55D
100
AcDbEntity
  8
TEXT
  6
Continuous
 62
     0
100
AcDbBlockReference
  2
*B79
 10
0.0
 20
0.0
 30
0.0
  0
INSERT
  5
562
100
AcDbEntity
  8
TEXT
  6
Continuous
 62
     0
100
AcDbBlockReference
  2
*B80
 10
0.0
 20
0.0
 30
0.0
  0
INSERT
  5
567
100
AcDbEntity
  8
TEXT
  6
Continuous
 62
     0
100
AcDbBlockReference
  2
*B81
 10
0.0
 20
0.0
 30
0.0
  0
INSERT
  5
56C
100
AcDbEntity
  8
TEXT
  6
Continuous
 62
     0
100
AcDbBlockReference
  2
*B82
 10
0.0
 20
0.0
 30
0.0
  0
INSERT
  5
571
100
AcDbEntity
  8
TEXT
  6
Continuous
 62
     0
100
AcDbBlockReference
  2
*B83
 10
0.0
 20
0.0
 30
0.0
  0
INSERT
  5
576
100
AcDbEntity
  8
TEXT
  6
Continuous
 62
     0
100
AcDbBlockReference
  2
*B84
 10
0.0
 20
0.0
 30
0.0
  0
INSERT
  5
57B
100
AcDbEntity
  8
TEXT
  6
Continuous
 62
     0
100
AcDbBlockReference
  2
*B85
 10
0.0
 20
0.0
 30
0.0
  0
ENDSEC
  0
SECTION
  2
OBJECTS
  0
DICTIONARY
  5
19
100
AcDbDictionary
280
     0
281
     1
  3
ACAD_GROUP
350
1A
  3
ACAD_MLINESTYLE
350
1B
  3
ACAD_LAYOUT
350
1E
  3
ACAD_PLOTSETTINGS
350
22
  3
ACAD_PLOTSTYLENAME
350
1F
  3
ACAD_WIPEOUT_VARS
350
23
  0
DICTIONARY
  5
1A
102
{ACAD_REACTORS
330
19
102
}
100
AcDbDictionary
280
     0
281
     1
  0
DICTIONARY
  5
1B
102
{ACAD_REACTORS
330
19
102
}
100
AcDbDictionary
280
     0
281
     1
  3
Standard
350
1C
  0
MLINESTYLE
  5
1C
102
{ACAD_REACTORS
330
1B
102
}
100
AcDbMlineStyle
  2
Standard
 70
     0
  3

 62
     0
 51
90.0
 52
90.0
 71
     2
 49
0.5
 62
   256
  6
BYLAYER
 49
-0.5
 62
   256
  6
BYLAYER
  0
ACDBDICTIONARYWDFLT
  5
1F
102
{ACAD_REACTORS
330
19
102
}
100
AcDbDictionary
281
     1
  3
Normal
350
1D
100
AcDbDictionaryWithDefault
340
1D
  0
ACDBPLACEHOLDER
  5
1D
102
{ACAD_REACTORS
330
1F
102
}
  0
LAYOUT
  5
20
102
{ACAD_REACTORS
330
1E
102
}
100
AcDbPlotSettings
  1

  2

  4

  6

 40
0.0
 41
0.0
 42
0.0
 43
0.0
 44
0.0
 45
0.0
 46
0.0
 47
0.0
 48
0.0
 49
0.0
140
0.0
141
0.0
142
1.0
143
1.0
 70
     0
 72
     0
 73
     0
 74
     0
  7

 75
     0
147
1.0
148
0.0
149
0.0
100
AcDbLayout
  1
Model
 70
     0
 71
     0
 10
0.0
 20
0.0
 11
0.0
 21
0.0
 12
0.0
 22
0.0
 32
0.0
 14
0.0
 24
0.0
 34
0.0
 15
0.0
 25
0.0
 35
0.0
146
0.0
 13
0.0
 23
0.0
 33
0.0
 16
0.0
 26
0.0
 36
0.0
 17
0.0
 27
0.0
 37
0.0
 76
     0
330
A
331
0
345
0
346
0
  0
LAYOUT
  5
21
102
{ACAD_REACTORS
330
1E
102
}
100
AcDbPlotSettings
  1

  2

  4

  6

 40
0.0
 41
0.0
 42
0.0
 43
0.0
 44
0.0
 45
0.0
 46
0.0
 47
0.0
 48
0.0
 49
0.0
140
0.0
141
0.0
142
1.0
143
1.0
 70
     0
 72
     0
 73
     0
 74
     0
  7

 75
     0
147
1.0
148
0.0
149
0.0
100
AcDbLayout
  1
Layout1
 70
     0
 71
     0
 10
0.0
 20
0.0
 11
0.0
 21
0.0
 12
0.0
 22
0.0
 32
0.0
 14
0.0
 24
0.0
 34
0.0
 15
0.0
 25
0.0
 35
0.0
146
0.0
 13
0.0
 23
0.0
 33
0.0
 16
0.0
 26
0.0
 36
0.0
 17
0.0
 27
0.0
 37
0.0
 76
     0
330
B
331
0
345
0
346
0
  0
DICTIONARY
  5
1E
102
{ACAD_REACTORS
330
19
102
}
100
AcDbDictionary
280
     0
281
     1
  3
Layout1
350
21
  3
Model
350
20
  0
DICTIONARY
  5
22
102
{ACAD_REACTORS
330
19
102
}
100
AcDbDictionary
280
     0
281
     1
  0
WIPEOUTVARIABLES
  5
23
100
AcDbWipeoutVariables
 70
     1
  0
ENDSEC
  0
EOF
