  0
SECTION
  2
HEADER
  9
$ACADVER
  1
AC1015
  9
$ACADMAINTVER
 70
     6
  9
$DWGCODEPAGE
  3
DOS850
  9
$INSBASE
 10
0.0
 20
0.0
 30
0.0
  9
$EXTMIN
 10
0.0
 20
0.0
 30
0.0
  9
$EXTMAX
 10
297.0
 20
210.0
 30
0.0
  9
$LIMMIN
 10
0.0
 20
0.0
  9
$LIMMAX
 10
297.0
 20
210.0
  9
$ORTHOMODE
 70
     0
  9
$REGENMODE
 70
     1
  9
$FILLMODE
 70
     1
  9
$QTEXTMODE
 70
     0
  9
$MIRRTEXT
 70
     1
  9
$LTSCALE
 40
25.4
  9
$ATTMODE
 70
     1
  9
$TEXTSIZE
 40
3.5
  9
$TRACEWID
 40
0.05
  9
$TEXTSTYLE
  7
Standard
  9
$CLAYER
  8
0
  9
$CELTYPE
  6
Continuous
  9
$CECOLOR
 62
   256
  9
$CELTSCALE
 40
1.0
  9
$DISPSILH
 70
     0
  9
$DIMSCALE
 40
1.0
  9
$DIMASZ
 40
5.0
  9
$DIMEXO
 40
3.0
  9
$DIMDLI
 40
0.38
  9
$DIMRND
 40
0.0
  9
$DIMDLE
 40
0.0
  9
$DIMEXE
 40
2.0
  9
$DIMTP
 40
0.0
  9
$DIMTM
 40
0.0
  9
$DIMTXT
 40
3.5
  9
$DIMCEN
 40
4.0
  9
$DIMTSZ
 40
0.0
  9
$DIMTOL
 70
     0
  9
$DIMLIM
 70
     0
  9
$DIMTIH
 70
     1
  9
$DIMTOH
 70
     1
  9
$DIMSE1
 70
     0
  9
$DIMSE2
 70
     0
  9
$DIMTAD
 70
     0
  9
$DIMZIN
 70
     0
  9
$DIMBLK
  1

  9
$DIMASO
 70
     1
  9
$DIMSHO
 70
     1
  9
$DIMPOST
  1

  9
$DIMAPOST
  1

  9
$DIMALT
 70
     0
  9
$DIMALTD
 70
     2
  9
$DIMALTF
 40
25.4
  9
$DIMLFAC
 40
1.0
  9
$DIMTOFL
 70
     0
  9
$DIMTVP
 40
0.0
  9
$DIMTIX
 70
     0
  9
$DIMSOXD
 70
     0
  9
$DIMSAH
 70
     0
  9
$DIMBLK1
  1

  9
$DIMBLK2
  1

  9
$DIMSTYLE
  2
Standard
  9
$DIMCLRD
 70
     0
  9
$DIMCLRE
 70
     0
  9
$DIMCLRT
 70
     0
  9
$DIMTFAC
 40
1.0
  9
$DIMGAP
 40
1.0
  9
$DIMJUST
 70
     0
  9
$DIMSD1
 70
     0
  9
$DIMSD2
 70
     0
  9
$DIMTOLJ
 70
     1
  9
$DIMTZIN
 70
     0
  9
$DIMALTZ
 70
     0
  9
$DIMALTTZ
 70
     0
  9
$DIMUPT
 70
     0
  9
$DIMDEC
 70
     4
  9
$DIMTDEC
 70
     4
  9
$DIMALTU
 70
     2
  9
$DIMALTTD
 70
     2
  9
$DIMTXSTY
  7
Standard
  9
$DIMAUNIT
 70
     0
  9
$DIMADEC
 70
     0
  9
$DIMALTRND
 40
0.0
  9
$DIMAZIN
 70
     0
  9
$DIMDSEP
 70
     0
  9
$DIMATFIT
 70
     3
  9
$DIMFRAC
 70
     0
  9
$DIMLDRBLK
  1

  9
$DIMLUNIT
 70
     2
  9
$DIMLWD
 70
     0
  9
$DIMLWE
 70
     0
  9
$DIMTMOVE
 70
     0
  9
$LUNITS
 70
     2
  9
$LUPREC
 70
     4
  9
$SKETCHINC
 40
0.1
  9
$FILLETRAD
 40
0.0
  9
$AUNITS
 70
     0
  9
$AUPREC
 70
     0
  9
$MENU
  1
acad
  9
$ELEVATION
 40
0.0
  9
$PELEVATION
 40
0.0
  9
$THICKNESS
 40
0.0
  9
$LIMCHECK
 70
     0
  9
$CHAMFERA
 40
0.0
  9
$CHAMFERB
 40
0.0
  9
$CHAMFERC
 40
0.0
  9
$CHAMFERD
 40
0.0
  9
$SKPOLY
 70
     0
  9
$TDCREATE
 40
0.000000000
  9
$TDUCREATE
 40
0.000000000
  9
$TDUPDATE
 40
0.000000000
  9
$TDUUPDATE
 40
0.000000000
  9
$TDINDWG
 40
0.0000000000
  9
$TDUSRTIMER
 40
0.0000000000
  9
$USRTIMER
 70
     1
  9
$ANGBASE
 50
0.0
  9
$ANGDIR
 70
     0
  9
$PDMODE
 70
     0
  9
$PDSIZE
 40
0.0
  9
$PLINEWID
 40
0.0
  9
$SPLFRAME
 70
     0
  9
$SPLINETYPE
 70
     6
  9
$SPLINESEGS
 70
     8
  9
$HANDSEED
  5
40A
  9
$SURFTAB1
 70
     6
  9
$SURFTAB2
 70
     6
  9
$SURFTYPE
 70
     6
  9
$SURFU
 70
     6
  9
$SURFV
 70
     6
  9
$UCSBASE
  2

  9
$UCSNAME
  2

  9
$UCSORG
 10
0.0
 20
0.0
 30
0.0
  9
$UCSXDIR
 10
1.0
 20
0.0
 30
0.0
  9
$UCSYDIR
 10
0.0
 20
1.0
 30
0.0
  9
$UCSORTHOREF
  2

  9
$UCSORTHOVIEW
 70
     0
  9
$UCSORGTOP
 10
0.0
 20
0.0
 30
0.0
  9
$UCSORGBOTTOM
 10
0.0
 20
0.0
 30
0.0
  9
$UCSORGLEFT
 10
0.0
 20
0.0
 30
0.0
  9
$UCSORGRIGHT
 10
0.0
 20
0.0
 30
0.0
  9
$UCSORGFRONT
 10
0.0
 20
0.0
 30
0.0
  9
$UCSORGBACK
 10
0.0
 20
0.0
 30
0.0
  9
$PUCSBASE
  2

  9
$PUCSNAME
  2

  9
$PUCSORG
 10
0.0
 20
0.0
 30
0.0
  9
$PUCSXDIR
 10
1.0
 20
0.0
 30
0.0
  9
$PUCSYDIR
 10
0.0
 20
1.0
 30
0.0
  9
$PUCSORTHOREF
  2

  9
$PUCSORTHOVIEW
 70
     0
  9
$PUCSORGTOP
 10
0.0
 20
0.0
 30
0.0
  9
$PUCSORGBOTTOM
 10
0.0
 20
0.0
 30
0.0
  9
$PUCSORGLEFT
 10
0.0
 20
0.0
 30
0.0
  9
$PUCSORGRIGHT
 10
0.0
 20
0.0
 30
0.0
  9
$PUCSORGFRONT
 10
0.0
 20
0.0
 30
0.0
  9
$PUCSORGBACK
 10
0.0
 20
0.0
 30
0.0
  9
$USERI1
 70
     0
  9
$USERI2
 70
     0
  9
$USERI3
 70
     0
  9
$USERI4
 70
     0
  9
$USERI5
 70
     0
  9
$USERR1
 40
0.0
  9
$USERR2
 40
0.0
  9
$USERR3
 40
0.0
  9
$USERR4
 40
0.0
  9
$USERR5
 40
0.0
  9
$WORLDVIEW
 70
     1
  9
$SHADEDGE
 70
     3
  9
$SHADEDIF
 70
    70
  9
$TILEMODE
 70
     1
  9
$MAXACTVP
 70
    16
  9
$PINSBASE
 10
0.0
 20
0.0
 30
0.0
  9
$PLIMCHECK
 70
     0
  9
$PEXTMIN
 10
1.000000E+20
 20
1.000000E+20
 30
1.000000E+20
  9
$PEXTMAX
 10
-1.000000E+20
 20
-1.000000E+20
 30
-1.000000E+20
  9
$PLIMMIN
 10
0.0
 20
0.0
  9
$PLIMMAX
 10
297.0
 20
210.0
  9
$UNITMODE
 70
     0
  9
$VISRETAIN
 70
     0
  9
$PLINEGEN
 70
     1
  9
$PSLTSCALE
 70
     0
  9
$TREEDEPTH
 70
  3020
  9
$CMLSTYLE
  2
Standard
  9
$CMLJUST
 70
     0
  9
$CMLSCALE
 40
1.0
  9
$PROXYGRAPHICS
 70
     0
  9
$MEASUREMENT
 70
     0
  9
$CELWEIGHT
370
     0
  9
$ENDCAPS
280
     0
  9
$JOINSTYLE
280
     0
  9
$LWDISPLAY
290
     0
  9
$INSUNITS
 70
     0
  9
$HYPERLINKBASE
  1

  9
$XEDIT
290
     1
  9
$CEPSNTYPE
380
     0
  9
$PSTYLEMODE
290
     0
  9
$FINGERPRINTGUID
  2

  9
$VERSIONGUID
  2

  9
$EXTNAMES
290
     1
  9
$PSVPSCALE
 40
0.0
  0
ENDSEC
  0
SECTION
  2
CLASSES
  0
CLASS
  1
LWPOLYLINE
  2
AcDbPolyline
  3
"AutoCAD"
 90
        0
280
     0
281
     1
  0
CLASS
  1
IMAGE
  2
AcDbRasterImage
  3
ISM
 90
      127
280
     0
281
     1
  0
CLASS
  1
OLE2FRAME
  2
AcDbOle2Frame
  3
""
 90
        0
280
     0
281
     1
  0
CLASS
  1
HATCH
  2
AcDbHatch
  3
"ACAD_SEDONA"
 90
        0
280
     0
281
     1
  0
CLASS
  1
DICTIONARYVAR
  2
AcDbDictionaryVar
  3
"AutoCAD"
 90
        0
280
     0
281
     0
  0
CLASS
  1
RASTERVARIABLES
  2
AcDbRasterVariables
  3
ISM
 90
        0
280
     0
281
     0
  0
CLASS
  1
IMAGEDEF
  2
AcDbRasterImageDef
  3
ISM
 90
        0
280
     0
281
     0
  0
CLASS
  1
IMAGEDEF_REACTOR
  2
AcDbRasterImageDefReactor
  3
ISM
 90
        1
280
     0
281
     0
  0
CLASS
  1
IDBUFFER
  2
AcDbIdBuffer
  3
"Acad"
 90
        0
280
     0
281
     0
  0
CLASS
  1
SPATIAL_FILTER
  2
AcDbSpatialFilter
  3
"Acad"
 90
        0
280
     0
281
     0
  0
CLASS
  1
XRECORD
  2
AcDbXrecord
  3
"<Built In>"
 90
        0
280
     0
281
     0
  0
CLASS
  1
SORTENTSTABLE
  2
AcDbSortentsTable
  3
"AutoCAD"
 90
        0
280
     0
281
     0
  0
CLASS
  1
LAYER_INDEX
  2
AcDbLayerIndex
  3
"Acad"
 90
        0
280
     0
281
     0
  0
CLASS
  1
SPATIAL_INDEX
  2
AcDbSpatialIndex
  3
"Acad"
 90
        0
280
     0
281
     0
  0
CLASS
  1
OBJECT_PTR
  2
CAseDLPNTableRecord
  3
"ASE-LPNTableRecord"
 90
        1
280
     0
281
     0
  0
CLASS
  1
LAYOUT
  2
AcDbLayout
  3
"AutoCAD 2000"
 90
        1
280
     0
281
     0
  0
CLASS
  1
PLOTSETTINGS
  2
AcDbPlotSettings
  3
"AutoCAD 2000"
 90
        1
280
     0
281
     0
  0
CLASS
  1
ACDBDICTIONARYWDFLT
  2
AcDbDictionaryWithDefault
  3
"AutoCAD 2000"
 90
        1
280
     0
281
     0
  0
CLASS
  1
ACDBPLACEHOLDER
  2
AcDbPlaceHolder
  3
"AutoCAD 2000"
 90
        1
280
     0
281
     0
  0
CLASS
  1
VBA_PROJECT
  2
AcDbVbaProject
  3
"acadvba"
 90
        1
280
     0
281
     0
  0
CLASS
  1
WIPEOUT
  2
AcDbWipeout
  3
WipeOut|AutoCAD Express Tool|expresstools@autodesk.com
 90
      127
280
     0
281
     1
  0
CLASS
  1
WIPEOUTVARIABLES
  2
AcDbWipeoutVariables
  3
WipeOut|AutoCAD Express Tool|expresstools@autodesk.com
 90
        0
280
     0
281
     0
  0
CLASS
  1
RTEXT
  2
RText
  3
RText|AutoCAD Express Tool|expresstools@autodesk.com
 90
        0
280
     0
281
     1
  0
CLASS
  1
ARCALIGNEDTEXT
  2
AcDbArcAlignedText
  3
ATEXT|AutoCAD Express Tool|expresstools@autodesk.com
 90
        0
280
     0
281
     1
  0
ENDSEC
  0
SECTION
  2
TABLES
  0
TABLE
  2
VPORT
  5
7
100
AcDbSymbolTable
 70
     1
  0
VPORT
  5
15
100
AcDbSymbolTableRecord
100
AcDbViewportTableRecord
  2
*ACTIVE
 70
     0
 10
0.0
 20
0.0
 11
1.0
 21
1.0
 12
6.591288
 22
4.579184
 13
0.0
 23
0.0
 14
1.0
 24
1.0
 15
0.0
 25
0.0
 16
0.0
 26
0.0
 36
1.0
 17
0.0
 27
0.0
 37
0.0
 40
9.158369
 41
0.688564
 42
50.0
 43
0.0
 44
0.0
 50
0.0
 51
0.0
 71
     0
 72
   100
 73
     1
 74
     1
 75
     0
 76
     0
 77
     0
 78
     0
281
     0
 65
     0
110
0.0
120
0.0
130
0.0
111
1.0
121
0.0
131
0.0
112
0.0
122
1.0
132
0.0
345
0
346
0
 79
     0
146
0.0
  0
ENDTAB
  0
TABLE
  2
LTYPE
  5
4
100
AcDbSymbolTable
 70
     7
  0
LTYPE
  5
11
100
AcDbSymbolTableRecord
100
AcDbLinetypeTableRecord
  2
ByBlock
 70
    64
  3

 72
    65
 73
     0
 40
0.0
  0
LTYPE
  5
12
100
AcDbSymbolTableRecord
100
AcDbLinetypeTableRecord
  2
ByLayer
 70
    64
  3

 72
    65
 73
     0
 40
0.0
  0
LTYPE
  5
13
100
AcDbSymbolTableRecord
100
AcDbLinetypeTableRecord
  2
Continuous
 70
    64
  3
Solid line
 72
    65
 73
     0
 40
0.0
  0
LTYPE
  5
24
100
AcDbSymbolTableRecord
100
AcDbLinetypeTableRecord
  2
HIDDEN
 70
    64
  3
_ _ _ _ _ _ _ _ _ _ _ _ _ _ _ _ _ _ _ _ _ _ _ _
 72
    65
 73
     2
 40
0.1875
 49
0.125
 74
     0
 49
-0.0625
 74
     0
  0
LTYPE
  5
25
100
AcDbSymbolTableRecord
100
AcDbLinetypeTableRecord
  2
DOTTED
 70
    64
  3
...............................................
 72
    65
 73
     2
 40
0.125
 49
0.0
 74
     0
 49
-0.125
 74
     0
  0
LTYPE
  5
26
100
AcDbSymbolTableRecord
100
AcDbLinetypeTableRecord
  2
CENTER
 70
    64
  3
____ _ ____ _ ____ _ ____ _ ____ _ ____ _ ____ 
 72
    65
 73
     4
 40
1.125
 49
0.75
 74
     0
 49
-0.125
 74
     0
 49
0.125
 74
     0
 49
-0.125
 74
     0
  0
LTYPE
  5
27
100
AcDbSymbolTableRecord
100
AcDbLinetypeTableRecord
  2
PHANTOM
 70
    64
  3
______  __  __  ______  __  __  ______  __  __ 
 72
    65
 73
     6
 40
1.25
 49
0.625
 74
     0
 49
-0.125
 74
     0
 49
0.125
 74
     0
 49
-0.125
 74
     0
 49
0.125
 74
     0
 49
-0.125
 74
     0
  0
ENDTAB
  0
TABLE
  2
LAYER
  5
2
100
AcDbSymbolTable
 70
     2
  0
LAYER
  5
14
100
AcDbSymbolTableRecord
100
AcDbLayerTableRecord
  2
0
 70
     0
 62
     7
  6
Continuous
290
     1
370
    -3
390
1D
  0
LAYER
  5
28
100
AcDbSymbolTableRecord
100
AcDbLayerTableRecord
  2
TEXT
 70
     0
 62
     8
  6
Continuous
290
     1
370
    -3
390
1F
  0
ENDTAB
  0
TABLE
  2
STYLE
  5
3
100
AcDbSymbolTable
 70
     1
  0
STYLE
  5
17
100
AcDbSymbolTableRecord
100
AcDbTextStyleTableRecord
  2
Standard
 70
     0
 40
0.0
 41
1.0
 50
0.0
 71
     0
 42
0.0
  3
txt
  4

  0
ENDTAB
  0
TABLE
  2
VIEW
  5
5
100
AcDbSymbolTable
 70
     0
  0
ENDTAB
  0
TABLE
  2
UCS
  5
6
100
AcDbSymbolTable
 70
     0
  0
ENDTAB
  0
TABLE
  2
APPID
  5
8
100
AcDbSymbolTable
 70
     1
  0
APPID
  5
16
100
AcDbSymbolTableRecord
100
AcDbRegAppTableRecord
  2
ACAD
 70
     0
  0
ENDTAB
  0
TABLE
  2
DIMSTYLE
  5
9
100
AcDbSymbolTable
 70
     1
100
AcDbDimStyleTable
 71
     0
  0
DIMSTYLE
105
18
100
AcDbSymbolTableRecord
100
AcDbDimStyleTableRecord
  2
Standard
 70
     0
  3

  4

 40
1.0
 41
0.18
 42
0.0625
 43
0.38
 44
0.18
 45
0.0
 46
0.0
 47
0.0
 48
0.0
 71
     0
 72
     0
 73
     1
 74
     1
 75
     0
 76
     0
 77
     0
 78
     0
 79
     0
140
0.18
141
0.09
142
0.0
143
25.4
144
1.0
145
0.0
146
1.0
147
0.09
148
0.0
170
     0
171
     2
172
     0
173
     0
174
     0
175
     0
176
     0
177
     0
178
     0
179
     0
271
     4
272
     4
273
     2
274
     2
275
     0
276
     0
277
     2
278
    46
279
     0
280
     0
281
     0
282
     0
283
     1
284
     0
285
     0
286
     0
288
     0
340
17
341
0
342
0
343
0
344
0
371
    -2
372
    -2
  0
ENDTAB
  0
TABLE
  2
BLOCK_RECORD
  5
1
100
AcDbSymbolTable
 70
    67
  0
BLOCK_RECORD
  5
A
100
AcDbSymbolTableRecord
100
AcDbBlockTableRecord
  2
*MODEL_SPACE
340
20
  0
BLOCK_RECORD
  5
B
100
AcDbSymbolTableRecord
100
AcDbBlockTableRecord
  2
*PAPER_SPACE
340
21
  0
BLOCK_RECORD
  5
29
100
AcDbSymbolTableRecord
100
AcDbBlockTableRecord
  2
*B0
340
0
  0
BLOCK_RECORD
  5
2C
100
AcDbSymbolTableRecord
100
AcDbBlockTableRecord
  2
*B1
340
0
  0
BLOCK_RECORD
  5
2F
100
AcDbSymbolTableRecord
100
AcDbBlockTableRecord
  2
*B2
340
0
  0
BLOCK_RECORD
  5
12A
100
AcDbSymbolTableRecord
100
AcDbBlockTableRecord
  2
*B3
340
0
  0
BLOCK_RECORD
  5
1A9
100
AcDbSymbolTableRecord
100
AcDbBlockTableRecord
  2
*B4
340
0
  0
BLOCK_RECORD
  5
258
100
AcDbSymbolTableRecord
100
AcDbBlockTableRecord
  2
*B5
340
0
  0
BLOCK_RECORD
  5
25E
100
AcDbSymbolTableRecord
100
AcDbBlockTableRecord
  2
*B6
340
0
  0
BLOCK_RECORD
  5
269
100
AcDbSymbolTableRecord
100
AcDbBlockTableRecord
  2
*B7
340
0
  0
BLOCK_RECORD
  5
26C
100
AcDbSymbolTableRecord
100
AcDbBlockTableRecord
  2
*B8
340
0
  0
BLOCK_RECORD
  5
273
100
AcDbSymbolTableRecord
100
AcDbBlockTableRecord
  2
*B9
340
0
  0
BLOCK_RECORD
  5
27A
100
AcDbSymbolTableRecord
100
AcDbBlockTableRecord
  2
*B10
340
0
  0
BLOCK_RECORD
  5
281
100
AcDbSymbolTableRecord
100
AcDbBlockTableRecord
  2
*B11
340
0
  0
BLOCK_RECORD
  5
288
100
AcDbSymbolTableRecord
100
AcDbBlockTableRecord
  2
*B12
340
0
  0
BLOCK_RECORD
  5
28F
100
AcDbSymbolTableRecord
100
AcDbBlockTableRecord
  2
*B13
340
0
  0
BLOCK_RECORD
  5
296
100
AcDbSymbolTableRecord
100
AcDbBlockTableRecord
  2
*B14
340
0
  0
BLOCK_RECORD
  5
29D
100
AcDbSymbolTableRecord
100
AcDbBlockTableRecord
  2
*B15
340
0
  0
BLOCK_RECORD
  5
2A4
100
AcDbSymbolTableRecord
100
AcDbBlockTableRecord
  2
*B16
340
0
  0
BLOCK_RECORD
  5
2AB
100
AcDbSymbolTableRecord
100
AcDbBlockTableRecord
  2
*B17
340
0
  0
BLOCK_RECORD
  5
2B2
100
AcDbSymbolTableRecord
100
AcDbBlockTableRecord
  2
*B18
340
0
  0
BLOCK_RECORD
  5
2B9
100
AcDbSymbolTableRecord
100
AcDbBlockTableRecord
  2
*B19
340
0
  0
BLOCK_RECORD
  5
2BF
100
AcDbSymbolTableRecord
100
AcDbBlockTableRecord
  2
*B20
340
0
  0
BLOCK_RECORD
  5
2C4
100
AcDbSymbolTableRecord
100
AcDbBlockTableRecord
  2
*B21
340
0
  0
BLOCK_RECORD
  5
2D2
100
AcDbSymbolTableRecord
100
AcDbBlockTableRecord
  2
*B22
340
0
  0
BLOCK_RECORD
  5
2D7
100
AcDbSymbolTableRecord
100
AcDbBlockTableRecord
  2
*B23
340
0
  0
BLOCK_RECORD
  5
2DE
100
AcDbSymbolTableRecord
100
AcDbBlockTableRecord
  2
*B24
340
0
  0
BLOCK_RECORD
  5
2E7
100
AcDbSymbolTableRecord
100
AcDbBlockTableRecord
  2
*B25
340
0
  0
BLOCK_RECORD
  5
2F0
100
AcDbSymbolTableRecord
100
AcDbBlockTableRecord
  2
*B26
340
0
  0
BLOCK_RECORD
  5
2F5
100
AcDbSymbolTableRecord
100
AcDbBlockTableRecord
  2
*B27
340
0
  0
BLOCK_RECORD
  5
309
100
AcDbSymbolTableRecord
100
AcDbBlockTableRecord
  2
*B28
340
0
  0
BLOCK_RECORD
  5
30F
100
AcDbSymbolTableRecord
100
AcDbBlockTableRecord
  2
*B29
340
0
  0
BLOCK_RECORD
  5
321
100
AcDbSymbolTableRecord
100
AcDbBlockTableRecord
  2
*B30
340
0
  0
BLOCK_RECORD
  5
32F
100
AcDbSymbolTableRecord
100
AcDbBlockTableRecord
  2
*B31
340
0
  0
BLOCK_RECORD
  5
335
100
AcDbSymbolTableRecord
100
AcDbBlockTableRecord
  2
*B32
340
0
  0
BLOCK_RECORD
  5
33A
100
AcDbSymbolTableRecord
100
AcDbBlockTableRecord
  2
*B33
340
0
  0
BLOCK_RECORD
  5
33F
100
AcDbSymbolTableRecord
100
AcDbBlockTableRecord
  2
*B34
340
0
  0
BLOCK_RECORD
  5
344
100
AcDbSymbolTableRecord
100
AcDbBlockTableRecord
  2
*B35
340
0
  0
BLOCK_RECORD
  5
356
100
AcDbSymbolTableRecord
100
AcDbBlockTableRecord
  2
*B36
340
0
  0
BLOCK_RECORD
  5
35C
100
AcDbSymbolTableRecord
100
AcDbBlockTableRecord
  2
*B37
340
0
  0
BLOCK_RECORD
  5
36A
100
AcDbSymbolTableRecord
100
AcDbBlockTableRecord
  2
*B38
340
0
  0
BLOCK_RECORD
  5
370
100
AcDbSymbolTableRecord
100
AcDbBlockTableRecord
  2
*B39
340
0
  0
BLOCK_RECORD
  5
375
100
AcDbSymbolTableRecord
100
AcDbBlockTableRecord
  2
*B40
340
0
  0
BLOCK_RECORD
  5
37A
100
AcDbSymbolTableRecord
100
AcDbBlockTableRecord
  2
*B41
340
0
  0
BLOCK_RECORD
  5
37F
100
AcDbSymbolTableRecord
100
AcDbBlockTableRecord
  2
*B42
340
0
  0
BLOCK_RECORD
  5
38A
100
AcDbSymbolTableRecord
100
AcDbBlockTableRecord
  2
*B43
340
0
  0
BLOCK_RECORD
  5
393
100
AcDbSymbolTableRecord
100
AcDbBlockTableRecord
  2
*B44
340
0
  0
BLOCK_RECORD
  5
398
100
AcDbSymbolTableRecord
100
AcDbBlockTableRecord
  2
*B45
340
0
  0
BLOCK_RECORD
  5
39D
100
AcDbSymbolTableRecord
100
AcDbBlockTableRecord
  2
*B46
340
0
  0
BLOCK_RECORD
  5
3A2
100
AcDbSymbolTableRecord
100
AcDbBlockTableRecord
  2
*B47
340
0
  0
BLOCK_RECORD
  5
3A8
100
AcDbSymbolTableRecord
100
AcDbBlockTableRecord
  2
*B48
340
0
  0
BLOCK_RECORD
  5
3AE
100
AcDbSymbolTableRecord
100
AcDbBlockTableRecord
  2
*B49
340
0
  0
BLOCK_RECORD
  5
3B4
100
AcDbSymbolTableRecord
100
AcDbBlockTableRecord
  2
*B50
340
0
  0
BLOCK_RECORD
  5
3BA
100
AcDbSymbolTableRecord
100
AcDbBlockTableRecord
  2
*B51
340
0
  0
BLOCK_RECORD
  5
3BF
100
AcDbSymbolTableRecord
100
AcDbBlockTableRecord
  2
*B52
340
0
  0
BLOCK_RECORD
  5
3C4
100
AcDbSymbolTableRecord
100
AcDbBlockTableRecord
  2
*B53
340
0
  0
BLOCK_RECORD
  5
3C9
100
AcDbSymbolTableRecord
100
AcDbBlockTableRecord
  2
*B54
340
0
  0
BLOCK_RECORD
  5
3CE
100
AcDbSymbolTableRecord
100
AcDbBlockTableRecord
  2
*B55
340
0
  0
BLOCK_RECORD
  5
3D3
100
AcDbSymbolTableRecord
100
AcDbBlockTableRecord
  2
*B56
340
0
  0
BLOCK_RECORD
  5
3D8
100
AcDbSymbolTableRecord
100
AcDbBlockTableRecord
  2
*B57
340
0
  0
BLOCK_RECORD
  5
3DD
100
AcDbSymbolTableRecord
100
AcDbBlockTableRecord
  2
*B58
340
0
  0
BLOCK_RECORD
  5
3E2
100
AcDbSymbolTableRecord
100
AcDbBlockTableRecord
  2
*B59
340
0
  0
BLOCK_RECORD
  5
3E7
100
AcDbSymbolTableRecord
100
AcDbBlockTableRecord
  2
*B60
340
0
  0
BLOCK_RECORD
  5
3EC
100
AcDbSymbolTableRecord
100
AcDbBlockTableRecord
  2
*B61
340
0
  0
BLOCK_RECORD
  5
3F1
100
AcDbSymbolTableRecord
100
AcDbBlockTableRecord
  2
*B62
340
0
  0
BLOCK_RECORD
  5
3F6
100
AcDbSymbolTableRecord
100
AcDbBlockTableRecord
  2
*B63
340
0
  0
BLOCK_RECORD
  5
3FB
100
AcDbSymbolTableRecord
100
AcDbBlockTableRecord
  2
*B64
340
0
  0
BLOCK_RECORD
  5
400
100
AcDbSymbolTableRecord
100
AcDbBlockTableRecord
  2
*B65
340
0
  0
BLOCK_RECORD
  5
405
100
AcDbSymbolTableRecord
100
AcDbBlockTableRecord
  2
*B66
340
0
  0
ENDTAB
  0
ENDSEC
  0
SECTION
  2
BLOCKS
  0
BLOCK
  5
D
100
AcDbEntity
  8
0
100
AcDbBlockBegin
  2
*MODEL_SPACE
 70
     0
 10
0.0
 20
0.0
 30
0.0
  3
*MODEL_SPACE
  1

  0
ENDBLK
  5
E
100
AcDbEntity
  8
0
100
AcDbBlockEnd
  0
BLOCK
  5
F
100
AcDbEntity
 67
     1
  8
0
100
AcDbBlockBegin
  2
*PAPER_SPACE
 70
     0
 10
0.0
 20
0.0
 30
0.0
  3
*PAPER_SPACE
  1

  0
ENDBLK
  5
10
100
AcDbEntity
 67
     1
  8
0
100
AcDbBlockEnd
  0
BLOCK
  5
2A
100
AcDbEntity
  8
0
100
AcDbBlockBegin
  2
*B0
 70
     0
 10
0.0
 20
0.0
 30
0.0
  3
*B0
  1

  0
ENDBLK
  5
2B
100
AcDbEntity
  8
0
100
AcDbBlockEnd
  0
BLOCK
  5
2D
100
AcDbEntity
  8
0
100
AcDbBlockBegin
  2
*B1
 70
     0
 10
0.0
 20
0.0
 30
0.0
  3
*B1
  1

  0
ENDBLK
  5
2E
100
AcDbEntity
  8
0
100
AcDbBlockEnd
  0
BLOCK
  5
30
100
AcDbEntity
  8
0
100
AcDbBlockBegin
  2
*B2
 70
     0
 10
0.0
 20
0.0
 30
0.0
  3
*B2
  1

  0
LINE
  5
31
100
AcDbEntity
  8
0
  6
HIDDEN
 62
   174
100
AcDbLine
 10
181.515789
 20
102.997341
 30
0.0
 11
181.565789
 21
102.997341
 31
0.0
  0
LINE
  5
32
100
AcDbEntity
  8
0
  6
HIDDEN
 62
   174
100
AcDbLine
 10
181.515789
 20
109.797341
 30
0.0
 11
181.565789
 21
109.797341
 31
0.0
  0
LINE
  5
33
100
AcDbEntity
  8
0
  6
HIDDEN
 62
   174
100
AcDbLine
 10
181.515789
 20
109.397341
 30
0.0
 11
181.565789
 21
109.397341
 31
0.0
  0
LINE
  5
34
100
AcDbEntity
  8
0
  6
HIDDEN
 62
   174
100
AcDbLine
 10
181.515789
 20
103.397341
 30
0.0
 11
181.565789
 21
103.397341
 31
0.0
  0
LINE
  5
35
100
AcDbEntity
  8
0
  6
HIDDEN
 62
   174
100
AcDbLine
 10
181.565789
 20
108.374524
 30
0.0
 11
181.515789
 21
108.374524
 31
0.0
  0
LINE
  5
36
100
AcDbEntity
  8
0
  6
HIDDEN
 62
   174
100
AcDbLine
 10
148.565789
 20
83.053918
 30
0.0
 11
148.565789
 21
80.954038
 31
0.0
  0
LINE
  5
37
100
AcDbEntity
  8
0
  6
HIDDEN
 62
   174
100
AcDbLine
 10
148.565789
 20
83.053918
 30
0.0
 11
148.565789
 21
85.15401
 31
0.0
  0
LINE
  5
38
100
AcDbEntity
  8
0
  6
HIDDEN
 62
   174
100
AcDbLine
 10
181.565789
 20
104.141073
 30
0.0
 11
181.515789
 21
104.141073
 31
0.0
  0
LINE
  5
39
100
AcDbEntity
  8
0
  6
HIDDEN
 62
   174
100
AcDbLine
 10
154.565789
 20
85.15401
 30
0.0
 11
154.565789
 21
83.053918
 31
0.0
  0
LINE
  5
3A
100
AcDbEntity
  8
0
  6
HIDDEN
 62
   174
100
AcDbLine
 10
154.565789
 20
83.053918
 30
0.0
 11
154.565789
 21
80.954038
 31
0.0
  0
LINE
  5
3B
100
AcDbEntity
  8
0
  6
HIDDEN
 62
   174
100
AcDbLine
 10
181.565789
 20
108.784188
 30
0.0
 11
181.515789
 21
108.784188
 31
0.0
  0
LINE
  5
3C
100
AcDbEntity
  8
0
  6
HIDDEN
 62
   174
100
AcDbLine
 10
181.565789
 20
104.579936
 30
0.0
 11
181.515789
 21
104.579936
 31
0.0
  0
LINE
  5
3D
100
AcDbEntity
  8
0
  6
HIDDEN
 62
   174
100
AcDbLine
 10
181.565789
 20
103.009681
 30
0.0
 11
181.565789
 21
103.395456
 31
0.0
  0
LINE
  5
3E
100
AcDbEntity
  8
0
  6
HIDDEN
 62
   174
100
AcDbLine
 10
181.565789
 20
108.400329
 30
0.0
 11
181.565789
 21
109.409376
 31
0.0
  0
LINE
  5
3F
100
AcDbEntity
  8
0
  6
HIDDEN
 62
   174
100
AcDbLine
 10
181.565789
 20
108.236545
 30
0.0
 11
181.565789
 21
108.400329
 31
0.0
  0
LINE
  5
40
100
AcDbEntity
  8
0
  6
HIDDEN
 62
   174
100
AcDbLine
 10
132.565789
 20
75.040517
 30
0.0
 11
132.565789
 21
76.240517
 31
0.0
  0
LINE
  5
41
100
AcDbEntity
  8
0
  6
HIDDEN
 62
   174
100
AcDbLine
 10
132.565789
 20
75.040517
 30
0.0
 11
132.565789
 21
76.240517
 31
0.0
  0
LINE
  5
42
100
AcDbEntity
  8
0
  6
Continuous
 62
   174
100
AcDbLine
 10
167.065789
 20
132.540517
 30
0.0
 11
167.065789
 21
135.540517
 31
0.0
  0
LINE
  5
43
100
AcDbEntity
  8
0
  6
Continuous
 62
   174
100
AcDbLine
 10
165.765789
 20
140.040517
 30
0.0
 11
164.610072
 21
139.373263
 31
0.0
  0
LINE
  5
44
100
AcDbEntity
  8
0
  6
HIDDEN
 62
   174
100
AcDbLine
 10
138.584006
 20
75.040517
 30
0.0
 11
138.501796
 21
75.040517
 31
0.0
  0
LINE
  5
45
100
AcDbEntity
  8
0
  6
HIDDEN
 62
   174
100
AcDbLine
 10
133.462508
 20
75.040517
 30
0.0
 11
132.665892
 21
75.040517
 31
0.0
  0
LINE
  5
46
100
AcDbEntity
  8
0
  6
Continuous
 62
   174
100
AcDbLine
 10
180.190521
 20
132.540517
 30
0.0
 11
173.583918
 21
132.540517
 31
0.0
  0
LINE
  5
47
100
AcDbEntity
  8
0
  6
Continuous
 62
   174
100
AcDbLine
 10
173.583918
 20
135.540517
 30
0.0
 11
180.298435
 21
135.540517
 31
0.0
  0
LINE
  5
48
100
AcDbEntity
  8
0
  6
Continuous
 62
   174
100
AcDbLine
 10
164.583856
 20
135.540517
 30
0.0
 11
166.869613
 21
135.540517
 31
0.0
  0
LINE
  5
49
100
AcDbEntity
  8
0
  6
Continuous
 62
   174
100
AcDbLine
 10
168.988129
 20
136.240517
 30
0.0
 11
168.988129
 21
139.347696
 31
0.0
  0
LWPOLYLINE
  5
4A
100
AcDbEntity
  8
0
  6
Continuous
 62
   174
100
AcDbPolyline
 90
        4
 70
   128
 10
168.988129
 20
139.347696
 10
170.240944
 20
139.675597
 10
171.463765
 20
139.90835
 10
172.674178
 20
140.040517
  0
LINE
  5
4B
100
AcDbEntity
  8
0
  6
HIDDEN
 62
   174
100
AcDbLine
 10
181.565789
 20
104.709554
 30
0.0
 11
181.565789
 21
106.409426
 31
0.0
  0
LINE
  5
4C
100
AcDbEntity
  8
0
  6
HIDDEN
 62
   174
100
AcDbLine
 10
138.565789
 20
75.040517
 30
0.0
 11
138.565789
 21
76.240517
 31
0.0
  0
LINE
  5
4D
100
AcDbEntity
  8
0
  6
Continuous
 62
   174
100
AcDbLine
 10
182.565789
 20
135.540517
 30
0.0
 11
182.565789
 21
136.240517
 31
0.0
  0
LINE
  5
4E
100
AcDbEntity
  8
0
  6
Continuous
 62
   174
100
AcDbLine
 10
181.565789
 20
132.540517
 30
0.0
 11
181.565789
 21
117.540517
 31
0.0
  0
LINE
  5
4F
100
AcDbEntity
  8
0
  6
HIDDEN
 62
   174
100
AcDbLine
 10
181.565789
 20
102.997341
 30
0.0
 11
181.565789
 21
94.540517
 31
0.0
  0
LINE
  5
50
100
AcDbEntity
  8
0
  6
Continuous
 62
   174
100
AcDbLine
 10
173.583918
 20
132.540517
 30
0.0
 11
166.97689
 21
132.540517
 31
0.0
  0
LINE
  5
51
100
AcDbEntity
  8
0
  6
Continuous
 62
   174
100
AcDbLine
 10
182.583555
 20
136.240517
 30
0.0
 11
178.161592
 21
136.240517
 31
0.0
  0
LWPOLYLINE
  5
52
100
AcDbEntity
  8
0
  6
HIDDEN
 62
   174
100
AcDbPolyline
 90
        4
 70
   128
 10
169.143899
 20
139.347696
 10
168.517492
 20
139.675597
 10
167.906078
 20
139.908351
 10
167.300874
 20
140.040517
  0
LINE
  5
53
100
AcDbEntity
  8
0
  6
HIDDEN
 62
   174
100
AcDbLine
 10
147.565789
 20
91.040517
 30
0.0
 11
146.215789
 21
89.690517
 31
0.0
  0
LINE
  5
54
100
AcDbEntity
  8
0
  6
HIDDEN
 62
   174
100
AcDbLine
 10
181.565789
 20
109.353932
 30
0.0
 11
181.565789
 21
109.423184
 31
0.0
  0
LINE
  5
55
100
AcDbEntity
  8
0
  6
HIDDEN
 62
   174
100
AcDbLine
 10
181.565789
 20
103.465133
 30
0.0
 11
181.565789
 21
104.005558
 31
0.0
  0
LINE
  5
56
100
AcDbEntity
  8
0
  6
Continuous
 62
   174
100
AcDbLine
 10
165.565789
 20
132.540517
 30
0.0
 11
165.565789
 21
120.540517
 31
0.0
  0
LINE
  5
57
100
AcDbEntity
  8
0
  6
HIDDEN
 62
   174
100
AcDbLine
 10
125.583869
 20
121.040517
 30
0.0
 11
135.583844
 21
121.040517
 31
0.0
  0
LINE
  5
58
100
AcDbEntity
  8
0
  6
Continuous
 62
   174
100
AcDbLine
 10
181.583855
 20
132.540517
 30
0.0
 11
180.190521
 21
132.540517
 31
0.0
  0
LINE
  5
59
100
AcDbEntity
  8
0
  6
Continuous
 62
   174
100
AcDbLine
 10
166.869613
 20
135.540517
 30
0.0
 11
173.583918
 21
135.540517
 31
0.0
  0
LINE
  5
5A
100
AcDbEntity
  8
0
  6
Continuous
 62
   174
100
AcDbLine
 10
145.266022
 20
128.740517
 30
0.0
 11
144.197707
 21
128.740517
 31
0.0
  0
LINE
  5
5B
100
AcDbEntity
  8
0
  6
Continuous
 62
   174
100
AcDbLine
 10
140.662431
 20
128.740517
 30
0.0
 11
138.083944
 21
128.740517
 31
0.0
  0
LINE
  5
5C
100
AcDbEntity
  8
0
  6
Continuous
 62
   174
100
AcDbLine
 10
126.969131
 20
128.740517
 30
0.0
 11
125.901241
 21
128.740517
 31
0.0
  0
LINE
  5
5D
100
AcDbEntity
  8
0
  6
HIDDEN
 62
   174
100
AcDbLine
 10
181.565789
 20
103.409689
 30
0.0
 11
181.565789
 21
104.15341
 31
0.0
  0
LINE
  5
5E
100
AcDbEntity
  8
0
  6
Continuous
 62
   174
100
AcDbLine
 10
181.365789
 20
140.040517
 30
0.0
 11
182.521546
 21
139.37324
 31
0.0
  0
LINE
  5
5F
100
AcDbEntity
  8
0
  6
Continuous
 62
   174
100
AcDbLine
 10
152.565789
 20
91.040517
 30
0.0
 11
154.565789
 21
91.040517
 31
0.0
  0
LINE
  5
60
100
AcDbEntity
  8
0
  6
HIDDEN
 62
   174
100
AcDbLine
 10
138.584006
 20
76.240517
 30
0.0
 11
132.583894
 21
76.240517
 31
0.0
  0
LINE
  5
61
100
AcDbEntity
  8
0
  6
HIDDEN
 62
   174
100
AcDbLine
 10
180.08388
 20
132.540517
 30
0.0
 11
173.583918
 21
132.540517
 31
0.0
  0
LINE
  5
62
100
AcDbEntity
  8
0
  6
Continuous
 62
   174
100
AcDbLine
 10
180.298435
 20
135.540517
 30
0.0
 11
182.58398
 21
135.540517
 31
0.0
  0
LWPOLYLINE
  5
63
100
AcDbEntity
  8
0
  6
Continuous
 62
   174
100
AcDbPolyline
 90
        4
 70
   128
 10
174.457401
 20
140.040517
 10
175.674116
 20
139.907396
 10
176.89628
 20
139.674311
 10
178.143449
 20
139.347696
  0
LINE
  5
64
100
AcDbEntity
  8
0
  6
Continuous
 62
   174
100
AcDbLine
 10
178.143449
 20
139.347696
 30
0.0
 11
178.143449
 21
136.240517
 31
0.0
  0
LWPOLYLINE
  5
65
100
AcDbEntity
  8
0
  6
Continuous
 62
   174
100
AcDbPolyline
 90
        6
 70
   128
 10
165.843959
 20
139.891177
 10
166.054976
 20
139.941921
 10
166.777224
 20
140.018824
 10
167.499463
 20
139.941906
 10
168.236483
 20
139.713806
 10
168.988129
 20
139.347696
  0
LINE
  5
66
100
AcDbEntity
  8
0
  6
HIDDEN
 62
   174
100
AcDbLine
 10
181.565789
 20
109.423184
 30
0.0
 11
181.565789
 21
109.809384
 31
0.0
  0
LINE
  5
67
100
AcDbEntity
  8
0
  6
HIDDEN
 62
   174
100
AcDbLine
 10
181.565789
 20
104.592292
 30
0.0
 11
181.565789
 21
106.409639
 31
0.0
  0
LINE
  5
68
100
AcDbEntity
  8
0
  6
HIDDEN
 62
   174
100
AcDbLine
 10
138.565789
 20
75.040517
 30
0.0
 11
138.565789
 21
76.240517
 31
0.0
  0
LINE
  5
69
100
AcDbEntity
  8
0
  6
HIDDEN
 62
   174
100
AcDbLine
 10
181.565789
 20
104.141073
 30
0.0
 11
181.565789
 21
104.579936
 31
0.0
  0
LINE
  5
6A
100
AcDbEntity
  8
0
  6
HIDDEN
 62
   174
100
AcDbLine
 10
181.565789
 20
104.579936
 30
0.0
 11
181.565789
 21
106.397341
 31
0.0
  0
LINE
  5
6B
100
AcDbEntity
  8
0
  6
HIDDEN
 62
   174
100
AcDbLine
 10
170.781907
 20
120.540517
 30
0.0
 11
165.565789
 21
120.540517
 31
0.0
  0
LINE
  5
6C
100
AcDbEntity
  8
0
  6
HIDDEN
 62
   174
100
AcDbLine
 10
165.565789
 20
120.540517
 30
0.0
 11
152.565789
 21
120.540517
 31
0.0
  0
LINE
  5
6D
100
AcDbEntity
  8
0
  6
HIDDEN
 62
   174
100
AcDbLine
 10
181.565789
 20
103.397341
 30
0.0
 11
181.565789
 21
102.997341
 31
0.0
  0
LINE
  5
6E
100
AcDbEntity
  8
0
  6
HIDDEN
 62
   174
100
AcDbLine
 10
181.565789
 20
104.141073
 30
0.0
 11
181.565789
 21
103.397341
 31
0.0
  0
LINE
  5
6F
100
AcDbEntity
  8
0
  6
HIDDEN
 62
   174
100
AcDbLine
 10
181.565789
 20
104.579936
 30
0.0
 11
181.565789
 21
104.141073
 31
0.0
  0
LINE
  5
70
100
AcDbEntity
  8
0
  6
HIDDEN
 62
   174
100
AcDbLine
 10
181.565789
 20
106.397341
 30
0.0
 11
181.565789
 21
104.579936
 31
0.0
  0
LINE
  5
71
100
AcDbEntity
  8
0
  6
HIDDEN
 62
   174
100
AcDbLine
 10
181.565789
 20
108.374524
 30
0.0
 11
181.565789
 21
106.397341
 31
0.0
  0
LINE
  5
72
100
AcDbEntity
  8
0
  6
HIDDEN
 62
   174
100
AcDbLine
 10
173.583918
 20
135.540517
 30
0.0
 11
167.083956
 21
135.540517
 31
0.0
  0
LINE
  5
73
100
AcDbEntity
  8
0
  6
Continuous
 62
   174
100
AcDbLine
 10
166.97689
 20
132.540517
 30
0.0
 11
165.583981
 21
132.540517
 31
0.0
  0
LINE
  5
74
100
AcDbEntity
  8
0
  6
Continuous
 62
   174
100
AcDbLine
 10
169.006243
 20
136.240517
 30
0.0
 11
164.58428
 21
136.240517
 31
0.0
  0
LINE
  5
75
100
AcDbEntity
  8
0
  6
Continuous
 62
   174
100
AcDbLine
 10
178.161592
 20
136.240517
 30
0.0
 11
173.583918
 21
136.240517
 31
0.0
  0
LINE
  5
76
100
AcDbEntity
  8
0
  6
Continuous
 62
   174
100
AcDbLine
 10
173.583918
 20
136.240517
 30
0.0
 11
169.006243
 21
136.240517
 31
0.0
  0
LINE
  5
77
100
AcDbEntity
  8
0
  6
Continuous
 62
   174
100
AcDbLine
 10
133.083956
 20
128.740517
 30
0.0
 11
130.505045
 21
128.740517
 31
0.0
  0
LWPOLYLINE
  5
78
100
AcDbEntity
  8
0
  6
HIDDEN
 62
   174
100
AcDbPolyline
 90
        4
 70
   128
 10
166.409263
 20
140.040517
 10
165.800904
 20
139.907396
 10
165.189829
 20
139.674313
 10
164.61554
 20
139.376417
  0
LINE
  5
79
100
AcDbEntity
  8
0
  6
HIDDEN
 62
   174
100
AcDbLine
 10
169.143899
 20
136.240517
 30
0.0
 11
169.143899
 21
139.347696
 31
0.0
  0
LINE
  5
7A
100
AcDbEntity
  8
0
  6
HIDDEN
 62
   174
100
AcDbLine
 10
181.565789
 20
108.403091
 30
0.0
 11
181.565789
 21
109.353932
 31
0.0
  0
LINE
  5
7B
100
AcDbEntity
  8
0
  6
HIDDEN
 62
   174
100
AcDbLine
 10
181.565789
 20
106.409426
 30
0.0
 11
181.565789
 21
108.403091
 31
0.0
  0
LINE
  5
7C
100
AcDbEntity
  8
0
  6
HIDDEN
 62
   174
100
AcDbLine
 10
181.565789
 20
106.409639
 30
0.0
 11
181.565789
 21
108.236545
 31
0.0
  0
LINE
  5
7D
100
AcDbEntity
  8
0
  6
HIDDEN
 62
   174
100
AcDbLine
 10
181.565789
 20
106.397341
 30
0.0
 11
181.565789
 21
108.374524
 31
0.0
  0
LINE
  5
7E
100
AcDbEntity
  8
0
  6
Continuous
 62
   174
100
AcDbLine
 10
180.065789
 20
132.540517
 30
0.0
 11
180.065789
 21
135.540517
 31
0.0
  0
LINE
  5
7F
100
AcDbEntity
  8
0
  6
Continuous
 62
   174
100
AcDbLine
 10
124.565789
 20
91.040517
 30
0.0
 11
152.565789
 21
91.040517
 31
0.0
  0
LINE
  5
80
100
AcDbEntity
  8
0
  6
HIDDEN
 62
   174
100
AcDbLine
 10
181.565789
 20
117.540517
 30
0.0
 11
181.565789
 21
109.797341
 31
0.0
  0
LINE
  5
81
100
AcDbEntity
  8
0
  6
HIDDEN
 62
   174
100
AcDbLine
 10
181.565789
 20
109.397016
 30
0.0
 11
181.565789
 21
108.374524
 31
0.0
  0
LINE
  5
82
100
AcDbEntity
  8
0
  6
Continuous
 62
   174
100
AcDbLine
 10
124.565789
 20
75.040517
 30
0.0
 11
154.565789
 21
75.040517
 31
0.0
  0
LINE
  5
83
100
AcDbEntity
  8
0
  6
HIDDEN
 62
   174
100
AcDbLine
 10
137.705179
 20
75.040517
 30
0.0
 11
133.462508
 21
75.040517
 31
0.0
  0
LINE
  5
84
100
AcDbEntity
  8
0
  6
HIDDEN
 62
   174
100
AcDbLine
 10
138.501796
 20
75.040517
 30
0.0
 11
137.705179
 21
75.040517
 31
0.0
  0
LINE
  5
85
100
AcDbEntity
  8
0
  6
HIDDEN
 62
   174
100
AcDbLine
 10
180.08388
 20
135.540517
 30
0.0
 11
173.583918
 21
135.540517
 31
0.0
  0
LINE
  5
86
100
AcDbEntity
  8
0
  6
HIDDEN
 62
   174
100
AcDbLine
 10
140.647384
 20
122.540517
 30
0.0
 11
144.181434
 21
122.540517
 31
0.0
  0
LINE
  5
87
100
AcDbEntity
  8
0
  6
Continuous
 62
   174
100
AcDbLine
 10
164.566239
 20
139.347696
 30
0.0
 11
164.615076
 21
139.375169
 31
0.0
  0
LINE
  5
88
100
AcDbEntity
  8
0
  6
HIDDEN
 62
   174
100
AcDbLine
 10
164.615689
 20
139.376503
 30
0.0
 11
164.566239
 21
139.347696
 31
0.0
  0
LINE
  5
89
100
AcDbEntity
  8
0
  6
Continuous
 62
   174
100
AcDbLine
 10
172.692345
 20
140.040517
 30
0.0
 11
165.783878
 21
140.040517
 31
0.0
  0
LINE
  5
8A
100
AcDbEntity
  8
0
  6
HIDDEN
 62
   174
100
AcDbLine
 10
181.565789
 20
104.583158
 30
0.0
 11
181.565789
 21
104.709554
 31
0.0
  0
LINE
  5
8B
100
AcDbEntity
  8
0
  6
HIDDEN
 62
   174
100
AcDbLine
 10
181.565789
 20
104.140876
 30
0.0
 11
181.565789
 21
104.583158
 31
0.0
  0
LINE
  5
8C
100
AcDbEntity
  8
0
  6
HIDDEN
 62
   174
100
AcDbLine
 10
181.565789
 20
104.005558
 30
0.0
 11
181.565789
 21
104.140876
 31
0.0
  0
LINE
  5
8D
100
AcDbEntity
  8
0
  6
HIDDEN
 62
   174
100
AcDbLine
 10
181.565789
 20
103.395456
 30
0.0
 11
181.565789
 21
103.465133
 31
0.0
  0
LINE
  5
8E
100
AcDbEntity
  8
0
  6
Continuous
 62
   174
100
AcDbLine
 10
164.565789
 20
135.540517
 30
0.0
 11
164.565789
 21
136.240517
 31
0.0
  0
LINE
  5
8F
100
AcDbEntity
  8
0
  6
Continuous
 62
   174
100
AcDbLine
 10
154.565789
 20
75.040517
 30
0.0
 11
154.565789
 21
91.040517
 31
0.0
  0
LINE
  5
90
100
AcDbEntity
  8
0
  6
Continuous
 62
   174
100
AcDbLine
 10
178.565789
 20
91.540517
 30
0.0
 11
152.565789
 21
91.540517
 31
0.0
  0
LINE
  5
91
100
AcDbEntity
  8
0
  6
HIDDEN
 62
   174
100
AcDbLine
 10
181.565789
 20
109.797341
 30
0.0
 11
181.565789
 21
109.397016
 31
0.0
  0
LINE
  5
92
100
AcDbEntity
  8
0
  6
HIDDEN
 62
   174
100
AcDbLine
 10
135.583844
 20
121.040517
 30
0.0
 11
145.584031
 21
121.040517
 31
0.0
  0
LINE
  5
93
100
AcDbEntity
  8
0
  6
HIDDEN
 62
   174
100
AcDbLine
 10
167.083956
 20
132.540517
 30
0.0
 11
173.583918
 21
132.540517
 31
0.0
  0
LINE
  5
94
100
AcDbEntity
  8
0
  6
Continuous
 62
   174
100
AcDbLine
 10
172.674178
 20
140.040517
 30
0.0
 11
174.457401
 21
140.040517
 31
0.0
  0
LINE
  5
95
100
AcDbEntity
  8
0
  6
Continuous
 62
   174
100
AcDbLine
 10
164.613665
 20
139.374374
 30
0.0
 11
165.843959
 21
139.891177
 31
0.0
  0
LINE
  5
96
100
AcDbEntity
  8
0
  6
HIDDEN
 62
   174
100
AcDbLine
 10
169.143899
 20
136.240517
 30
0.0
 11
164.566239
 21
136.240517
 31
0.0
  0
LINE
  5
97
100
AcDbEntity
  8
0
  6
HIDDEN
 62
   174
100
AcDbLine
 10
133.069157
 20
122.540517
 30
0.0
 11
138.069156
 21
122.540517
 31
0.0
  0
LINE
  5
98
100
AcDbEntity
  8
0
  6
HIDDEN
 62
   174
100
AcDbLine
 10
141.565789
 20
91.040517
 30
0.0
 11
142.915789
 21
89.690517
 31
0.0
  0
LINE
  5
99
100
AcDbEntity
  8
0
  6
Continuous
 62
   174
100
AcDbLine
 10
124.565789
 20
75.040517
 30
0.0
 11
124.565789
 21
91.040517
 31
0.0
  0
LINE
  5
9A
100
AcDbEntity
  8
0
  6
HIDDEN
 62
   174
100
AcDbLine
 10
132.665892
 20
75.040517
 30
0.0
 11
132.583894
 21
75.040517
 31
0.0
  0
LINE
  5
9B
100
AcDbEntity
  8
0
  6
Continuous
 62
   174
100
AcDbLine
 10
164.566239
 20
136.240517
 30
0.0
 11
164.566239
 21
139.347696
 31
0.0
  0
LINE
  5
9C
100
AcDbEntity
  8
0
  6
HIDDEN
 62
   174
100
AcDbLine
 10
147.565789
 20
91.040517
 30
0.0
 11
146.215789
 21
89.690517
 31
0.0
  0
LINE
  5
9D
100
AcDbEntity
  8
0
  6
HIDDEN
 62
   174
100
AcDbLine
 10
141.565789
 20
91.040517
 30
0.0
 11
142.915789
 21
89.690517
 31
0.0
  0
ARC
  5
9E
100
AcDbEntity
  8
0
  6
HIDDEN
 62
   174
100
AcDbCircle
 10
178.565789
 20
117.540517
 30
0.0
 40
3.0
100
AcDbArc
 50
0.0
 51
90.0
  0
LINE
  5
9F
100
AcDbEntity
  8
0
  6
HIDDEN
 62
   174
100
AcDbLine
 10
147.565789
 20
91.040517
 30
0.0
 11
146.215789
 21
89.690517
 31
0.0
  0
LINE
  5
A0
100
AcDbEntity
  8
0
  6
Continuous
 62
   174
100
AcDbLine
 10
182.56534
 20
136.240517
 30
0.0
 11
182.56534
 21
139.347696
 31
0.0
  0
LINE
  5
A1
100
AcDbEntity
  8
0
  6
HIDDEN
 62
   174
100
AcDbLine
 10
182.56534
 20
139.347696
 30
0.0
 11
182.515816
 21
139.376548
 31
0.0
  0
LINE
  5
A2
100
AcDbEntity
  8
0
  6
Continuous
 62
   174
100
AcDbLine
 10
138.065789
 20
128.740517
 30
0.0
 11
138.065789
 21
122.540517
 31
0.0
  0
LINE
  5
A3
100
AcDbEntity
  8
0
  6
HIDDEN
 62
   174
100
AcDbLine
 10
154.565789
 20
83.053918
 30
0.0
 11
154.565789
 21
85.553805
 31
0.0
  0
LWPOLYLINE
  5
A4
100
AcDbEntity
  8
0
  6
Continuous
 62
   174
100
AcDbPolyline
 90
        4
 70
   128
 10
173.565789
 20
120.498556
 10
172.616782
 20
120.507552
 10
171.678616
 20
120.527957
 10
170.781907
 20
120.540517
  0
LINE
  5
A5
100
AcDbEntity
  8
0
  6
HIDDEN
 62
   174
100
AcDbLine
 10
181.515789
 20
108.796301
 30
0.0
 11
181.515789
 21
109.409376
 31
0.0
  0
LINE
  5
A6
100
AcDbEntity
  8
0
  6
HIDDEN
 62
   174
100
AcDbLine
 10
141.583956
 20
91.040517
 30
0.0
 11
147.583856
 21
91.040517
 31
0.0
  0
LINE
  5
A7
100
AcDbEntity
  8
0
  6
Continuous
 62
   174
100
AcDbLine
 10
140.662431
 20
122.540517
 30
0.0
 11
144.197707
 21
122.540517
 31
0.0
  0
LINE
  5
A8
100
AcDbEntity
  8
0
  6
HIDDEN
 62
   174
100
AcDbLine
 10
138.103275
 20
76.240517
 30
0.0
 11
133.064625
 21
76.240517
 31
0.0
  0
LINE
  5
A9
100
AcDbEntity
  8
0
  6
Continuous
 62
   174
100
AcDbLine
 10
181.383958
 20
140.040517
 30
0.0
 11
174.475491
 21
140.040517
 31
0.0
  0
LINE
  5
AA
100
AcDbEntity
  8
0
  6
HIDDEN
 62
   174
100
AcDbLine
 10
146.233857
 20
89.690517
 30
0.0
 11
142.933955
 21
89.690517
 31
0.0
  0
LINE
  5
AB
100
AcDbEntity
  8
0
  6
Continuous
 62
   174
100
AcDbLine
 10
137.079995
 20
122.540517
 30
0.0
 11
138.083944
 21
122.540517
 31
0.0
  0
LINE
  5
AC
100
AcDbEntity
  8
0
  6
Continuous
 62
   174
100
AcDbLine
 10
126.969131
 20
122.540517
 30
0.0
 11
130.505045
 21
122.540517
 31
0.0
  0
LINE
  5
AD
100
AcDbEntity
  8
0
  6
HIDDEN
 62
   174
100
AcDbLine
 10
152.565789
 20
117.540517
 30
0.0
 11
178.565789
 21
117.540517
 31
0.0
  0
LINE
  5
AE
100
AcDbEntity
  8
0
  6
Continuous
 62
   174
100
AcDbLine
 10
125.583869
 20
122.540517
 30
0.0
 11
125.901241
 21
122.540517
 31
0.0
  0
LINE
  5
AF
100
AcDbEntity
  8
0
  6
HIDDEN
 62
   174
100
AcDbLine
 10
181.515789
 20
104.579936
 30
0.0
 11
181.515789
 21
108.784188
 31
0.0
  0
LINE
  5
B0
100
AcDbEntity
  8
0
  6
HIDDEN
 62
   174
100
AcDbLine
 10
149.565789
 20
85.140517
 30
0.0
 11
154.565789
 21
85.140517
 31
0.0
  0
LINE
  5
B1
100
AcDbEntity
  8
0
  6
HIDDEN
 62
   174
100
AcDbLine
 10
142.915789
 20
89.690517
 30
0.0
 11
142.915789
 21
75.040517
 31
0.0
  0
LINE
  5
B2
100
AcDbEntity
  8
0
  6
Continuous
 62
   174
100
AcDbLine
 10
145.266022
 20
122.540517
 30
0.0
 11
145.584031
 21
122.540517
 31
0.0
  0
LINE
  5
B3
100
AcDbEntity
  8
0
  6
HIDDEN
 62
   174
100
AcDbLine
 10
126.952837
 20
128.740517
 30
0.0
 11
126.952837
 21
122.540517
 31
0.0
  0
LINE
  5
B4
100
AcDbEntity
  8
0
  6
HIDDEN
 62
   174
100
AcDbLine
 10
142.933955
 20
75.040517
 30
0.0
 11
146.233857
 21
75.040517
 31
0.0
  0
LINE
  5
B5
100
AcDbEntity
  8
0
  6
Continuous
 62
   174
100
AcDbLine
 10
130.486859
 20
128.740517
 30
0.0
 11
126.951071
 21
128.740517
 31
0.0
  0
ARC
  5
B6
100
AcDbEntity
  8
0
  6
HIDDEN
 62
   174
100
AcDbCircle
 10
178.565789
 20
94.540517
 30
0.0
 40
3.0
100
AcDbArc
 50
-54.0
 51
-36.0
  0
LINE
  5
B7
100
AcDbEntity
  8
0
  6
HIDDEN
 62
   174
100
AcDbLine
 10
149.565789
 20
80.554243
 30
0.0
 11
149.565789
 21
83.053918
 31
0.0
  0
LINE
  5
B8
100
AcDbEntity
  8
0
  6
HIDDEN
 62
   174
100
AcDbLine
 10
133.069157
 20
128.740517
 30
0.0
 11
133.069157
 21
122.540517
 31
0.0
  0
ARC
  5
B9
100
AcDbEntity
  8
0
  6
Continuous
 62
   174
100
AcDbCircle
 10
178.565789
 20
94.540517
 30
0.0
 40
3.0
100
AcDbArc
 50
-72.0
 51
-54.0
  0
LINE
  5
BA
100
AcDbEntity
  8
0
  6
HIDDEN
 62
   174
100
AcDbLine
 10
126.952837
 20
122.540517
 30
0.0
 11
130.489855
 21
122.540517
 31
0.0
  0
LINE
  5
BB
100
AcDbEntity
  8
0
  6
Continuous
 62
   174
100
AcDbLine
 10
133.065789
 20
128.740517
 30
0.0
 11
133.065789
 21
122.540517
 31
0.0
  0
LINE
  5
BC
100
AcDbEntity
  8
0
  6
HIDDEN
 62
   174
100
AcDbLine
 10
178.565789
 20
117.552067
 30
0.0
 11
178.565789
 21
120.551805
 31
0.0
  0
LINE
  5
BD
100
AcDbEntity
  8
0
  6
HIDDEN
 62
   174
100
AcDbLine
 10
152.565789
 20
94.540517
 30
0.0
 11
178.565789
 21
94.540517
 31
0.0
  0
LINE
  5
BE
100
AcDbEntity
  8
0
  6
HIDDEN
 62
   174
100
AcDbLine
 10
146.215789
 20
89.690517
 30
0.0
 11
146.215789
 21
75.040517
 31
0.0
  0
LINE
  5
BF
100
AcDbEntity
  8
0
  6
HIDDEN
 62
   174
100
AcDbLine
 10
142.915789
 20
89.690517
 30
0.0
 11
142.915789
 21
75.040517
 31
0.0
  0
LWPOLYLINE
  5
C0
100
AcDbEntity
  8
0
  6
Continuous
 62
   174
100
AcDbPolyline
 90
        4
 70
   128
 10
173.565789
 20
120.498556
 10
174.514772
 20
120.507551
 10
175.452939
 20
120.527956
 10
176.349672
 20
120.540517
  0
LINE
  5
C1
100
AcDbEntity
  8
0
  6
Continuous
 62
   174
100
AcDbLine
 10
178.565789
 20
120.540517
 30
0.0
 11
176.349672
 21
120.540517
 31
0.0
  0
LINE
  5
C2
100
AcDbEntity
  8
0
  6
Continuous
 62
   174
100
AcDbLine
 10
144.179669
 20
128.740517
 30
0.0
 11
140.644389
 21
128.740517
 31
0.0
  0
LINE
  5
C3
100
AcDbEntity
  8
0
  6
Continuous
 62
   174
100
AcDbLine
 10
133.992949
 20
74.790517
 30
0.0
 11
133.333988
 21
74.790517
 31
0.0
  0
LINE
  5
C4
100
AcDbEntity
  8
0
  6
HIDDEN
 62
   174
100
AcDbLine
 10
149.565789
 20
80.540517
 30
0.0
 11
154.565789
 21
80.540517
 31
0.0
  0
LINE
  5
C5
100
AcDbEntity
  8
0
  6
Continuous
 62
   174
100
AcDbLine
 10
138.065789
 20
128.740517
 30
0.0
 11
133.065789
 21
128.740517
 31
0.0
  0
ARC
  5
C6
100
AcDbEntity
  8
0
  6
Continuous
 62
   174
100
AcDbCircle
 10
137.815789
 20
75.540517
 30
0.0
 40
0.75
100
AcDbArc
 50
-90.0
 51
-45.622588
  0
LINE
  5
C7
100
AcDbEntity
  8
0
  6
HIDDEN
 62
   174
100
AcDbLine
 10
142.933955
 20
75.040517
 30
0.0
 11
146.233857
 21
75.040517
 31
0.0
  0
ARC
  5
C8
100
AcDbEntity
  8
0
  6
HIDDEN
 62
   174
100
AcDbCircle
 10
137.815789
 20
75.540517
 30
0.0
 40
0.75
100
AcDbArc
 50
-45.622588
 51
15.973687
  0
LINE
  5
C9
100
AcDbEntity
  8
0
  6
Continuous
 62
   174
100
AcDbLine
 10
178.565789
 20
117.540517
 30
0.0
 11
152.565789
 21
117.540517
 31
0.0
  0
LINE
  5
CA
100
AcDbEntity
  8
0
  6
HIDDEN
 62
   174
100
AcDbLine
 10
176.349672
 20
120.540517
 30
0.0
 11
178.565789
 21
120.540517
 31
0.0
  0
LINE
  5
CB
100
AcDbEntity
  8
0
  6
HIDDEN
 62
   174
100
AcDbLine
 10
182.56534
 20
136.240517
 30
0.0
 11
177.98768
 21
136.240517
 31
0.0
  0
ARC
  5
CC
100
AcDbEntity
  8
0
  6
Continuous
 62
   174
100
AcDbCircle
 10
137.815789
 20
75.540517
 30
0.0
 40
0.75
100
AcDbArc
 50
-90.0
 51
-45.622588
  0
ARC
  5
CD
100
AcDbEntity
  8
0
  6
HIDDEN
 62
   174
100
AcDbCircle
 10
137.815789
 20
75.540517
 30
0.0
 40
0.75
100
AcDbArc
 50
-344.026313
 51
-291.03947
  0
ARC
  5
CE
100
AcDbEntity
  8
0
  6
HIDDEN
 62
   174
100
AcDbCircle
 10
137.815789
 20
75.540517
 30
0.0
 40
0.75
100
AcDbArc
 50
-248.96053
 51
-90.0
  0
ARC
  5
CF
100
AcDbEntity
  8
0
  6
HIDDEN
 62
   174
100
AcDbCircle
 10
137.815789
 20
75.540517
 30
0.0
 40
0.75
100
AcDbArc
 50
-248.96053
 51
-90.0
  0
LINE
  5
D0
100
AcDbEntity
  8
0
  6
Continuous
 62
   174
100
AcDbLine
 10
178.565789
 20
91.553493
 30
0.0
 11
178.565789
 21
94.553442
 31
0.0
  0
LINE
  5
D1
100
AcDbEntity
  8
0
  6
HIDDEN
 62
   174
100
AcDbLine
 10
154.565789
 20
85.140517
 30
0.0
 11
148.565789
 21
85.140517
 31
0.0
  0
LINE
  5
D2
100
AcDbEntity
  8
0
  6
HIDDEN
 62
   174
100
AcDbLine
 10
137.833913
 20
74.790517
 30
0.0
 11
137.174952
 21
74.790517
 31
0.0
  0
LINE
  5
D3
100
AcDbEntity
  8
0
  6
Continuous
 62
   174
100
AcDbLine
 10
182.516546
 20
139.375137
 30
0.0
 11
182.56534
 21
139.347696
 31
0.0
  0
LINE
  5
D4
100
AcDbEntity
  8
0
  6
HIDDEN
 62
   174
100
AcDbLine
 10
181.515789
 20
103.409689
 30
0.0
 11
181.515789
 21
108.386521
 31
0.0
  0
LINE
  5
D5
100
AcDbEntity
  8
0
  6
Continuous
 62
   174
100
AcDbLine
 10
178.565789
 20
94.540517
 30
0.0
 11
152.565789
 21
94.540517
 31
0.0
  0
LINE
  5
D6
100
AcDbEntity
  8
0
  6
HIDDEN
 62
   174
100
AcDbLine
 10
149.565789
 20
83.053918
 30
0.0
 11
149.565789
 21
85.553805
 31
0.0
  0
LINE
  5
D7
100
AcDbEntity
  8
0
  6
Continuous
 62
   174
100
AcDbLine
 10
178.583905
 20
94.540517
 30
0.0
 11
181.583855
 21
94.540517
 31
0.0
  0
LINE
  5
D8
100
AcDbEntity
  8
0
  6
HIDDEN
 62
   174
100
AcDbLine
 10
146.215789
 20
89.690517
 30
0.0
 11
146.215789
 21
75.040517
 31
0.0
  0
LINE
  5
D9
100
AcDbEntity
  8
0
  6
Continuous
 62
   174
100
AcDbLine
 10
152.565789
 20
91.540517
 30
0.0
 11
178.565789
 21
91.540517
 31
0.0
  0
LINE
  5
DA
100
AcDbEntity
  8
0
  6
HIDDEN
 62
   174
100
AcDbLine
 10
178.583905
 20
117.540517
 30
0.0
 11
181.583855
 21
117.540517
 31
0.0
  0
LINE
  5
DB
100
AcDbEntity
  8
0
  6
HIDDEN
 62
   174
100
AcDbLine
 10
146.233857
 20
89.690517
 30
0.0
 11
142.933955
 21
89.690517
 31
0.0
  0
LINE
  5
DC
100
AcDbEntity
  8
0
  6
Continuous
 62
   174
100
AcDbLine
 10
144.179669
 20
128.740517
 30
0.0
 11
144.179669
 21
122.540517
 31
0.0
  0
LWPOLYLINE
  5
DD
100
AcDbEntity
  8
0
  6
HIDDEN
 62
   174
100
AcDbPolyline
 90
        7
 70
   128
 10
177.98768
 20
139.347696
 10
176.48441
 20
139.713799
 10
175.010419
 20
139.941898
 10
173.566027
 20
140.018829
 10
172.12158
 20
139.941942
 10
170.647429
 20
139.71385
 10
169.143899
 20
139.347696
  0
LINE
  5
DE
100
AcDbEntity
  8
0
  6
HIDDEN
 62
   174
100
AcDbLine
 10
130.489855
 20
128.740517
 30
0.0
 11
130.489855
 21
122.540517
 31
0.0
  0
LINE
  5
DF
100
AcDbEntity
  8
0
  6
HIDDEN
 62
   174
100
AcDbLine
 10
177.98768
 20
136.240517
 30
0.0
 11
177.98768
 21
139.347696
 31
0.0
  0
LINE
  5
E0
100
AcDbEntity
  8
0
  6
HIDDEN
 62
   174
100
AcDbLine
 10
147.565789
 20
91.040517
 30
0.0
 11
146.215789
 21
89.690517
 31
0.0
  0
ARC
  5
E1
100
AcDbEntity
  8
0
  6
HIDDEN
 62
   174
100
AcDbCircle
 10
133.315789
 20
75.540517
 30
0.0
 40
0.75
100
AcDbArc
 50
-90.0
 51
68.96053
  0
LINE
  5
E2
100
AcDbEntity
  8
0
  6
HIDDEN
 62
   174
100
AcDbLine
 10
141.565789
 20
91.040517
 30
0.0
 11
142.915789
 21
89.690517
 31
0.0
  0
LWPOLYLINE
  5
E3
100
AcDbEntity
  8
0
  6
HIDDEN
 62
   174
100
AcDbPolyline
 90
        4
 70
   128
 10
179.830704
 20
140.040517
 10
179.222345
 20
139.907396
 10
178.611271
 20
139.674313
 10
177.98768
 20
139.347696
  0
LINE
  5
E4
100
AcDbEntity
  8
0
  6
Continuous
 62
   174
100
AcDbLine
 10
145.247925
 20
128.740517
 30
0.0
 11
145.247925
 21
122.540517
 31
0.0
  0
LINE
  5
E5
100
AcDbEntity
  8
0
  6
HIDDEN
 62
   174
100
AcDbLine
 10
152.565789
 20
120.551805
 30
0.0
 11
152.565789
 21
117.552067
 31
0.0
  0
LINE
  5
E6
100
AcDbEntity
  8
0
  6
HIDDEN
 62
   174
100
AcDbLine
 10
133.992949
 20
74.790517
 30
0.0
 11
133.333988
 21
74.790517
 31
0.0
  0
ARC
  5
E7
100
AcDbEntity
  8
0
  6
HIDDEN
 62
   174
100
AcDbCircle
 10
133.315789
 20
75.540517
 30
0.0
 40
0.75
100
AcDbArc
 50
111.03947
 51
164.026313
  0
ARC
  5
E8
100
AcDbEntity
  8
0
  6
HIDDEN
 62
   174
100
AcDbCircle
 10
133.315789
 20
75.540517
 30
0.0
 40
0.75
100
AcDbArc
 50
-90.0
 51
68.96053
  0
LINE
  5
E9
100
AcDbEntity
  8
0
  6
HIDDEN
 62
   174
100
AcDbLine
 10
152.565789
 20
91.553493
 30
0.0
 11
152.565789
 21
94.553442
 31
0.0
  0
LINE
  5
EA
100
AcDbEntity
  8
0
  6
Continuous
 62
   174
100
AcDbLine
 10
178.583905
 20
117.540517
 30
0.0
 11
181.583855
 21
117.540517
 31
0.0
  0
LINE
  5
EB
100
AcDbEntity
  8
0
  6
HIDDEN
 62
   174
100
AcDbLine
 10
141.583956
 20
91.040517
 30
0.0
 11
147.583856
 21
91.040517
 31
0.0
  0
LINE
  5
EC
100
AcDbEntity
  8
0
  6
HIDDEN
 62
   174
100
AcDbLine
 10
165.583981
 20
120.540517
 30
0.0
 11
170.80001
 21
120.540517
 31
0.0
  0
LINE
  5
ED
100
AcDbEntity
  8
0
  6
Continuous
 62
   174
100
AcDbLine
 10
125.565789
 20
122.540517
 30
0.0
 11
125.565789
 21
121.040517
 31
0.0
  0
LINE
  5
EE
100
AcDbEntity
  8
0
  6
HIDDEN
 62
   174
100
AcDbLine
 10
178.583905
 20
94.540517
 30
0.0
 11
181.583855
 21
94.540517
 31
0.0
  0
LINE
  5
EF
100
AcDbEntity
  8
0
  6
HIDDEN
 62
   174
100
AcDbLine
 10
138.069156
 20
128.740517
 30
0.0
 11
138.069156
 21
122.540517
 31
0.0
  0
LINE
  5
F0
100
AcDbEntity
  8
0
  6
HIDDEN
 62
   174
100
AcDbLine
 10
152.565789
 20
91.040517
 30
0.0
 11
124.565789
 21
91.040517
 31
0.0
  0
ARC
  5
F1
100
AcDbEntity
  8
0
  6
HIDDEN
 62
   174
100
AcDbCircle
 10
133.315789
 20
75.540517
 30
0.0
 40
0.75
100
AcDbArc
 50
111.03947
 51
164.026313
  0
ARC
  5
F2
100
AcDbEntity
  8
0
  6
HIDDEN
 62
   174
100
AcDbCircle
 10
137.815789
 20
75.540517
 30
0.0
 40
0.75
100
AcDbArc
 50
-344.026313
 51
-291.03947
  0
ARC
  5
F3
100
AcDbEntity
  8
0
  6
HIDDEN
 62
   174
100
AcDbCircle
 10
137.815789
 20
75.540517
 30
0.0
 40
0.75
100
AcDbArc
 50
-45.622588
 51
15.973687
  0
ARC
  5
F4
100
AcDbEntity
  8
0
  6
Continuous
 62
   174
100
AcDbCircle
 10
178.565789
 20
117.540517
 30
0.0
 40
3.0
100
AcDbArc
 50
-360.0
 51
-270.0
  0
LINE
  5
F5
100
AcDbEntity
  8
0
  6
HIDDEN
 62
   174
100
AcDbLine
 10
149.565789
 20
80.940517
 30
0.0
 11
154.565789
 21
80.940517
 31
0.0
  0
LINE
  5
F6
100
AcDbEntity
  8
0
  6
Continuous
 62
   174
100
AcDbLine
 10
181.288256
 20
139.891005
 30
0.0
 11
182.517957
 21
139.37435
 31
0.0
  0
LINE
  5
F7
100
AcDbEntity
  8
0
  6
Continuous
 62
   174
100
AcDbLine
 10
140.644389
 20
128.740517
 30
0.0
 11
140.644389
 21
122.540517
 31
0.0
  0
LWPOLYLINE
  5
F8
100
AcDbEntity
  8
0
  6
HIDDEN
 62
   174
100
AcDbPolyline
 90
        6
 70
   128
 10
181.565789
 20
117.540517
 10
181.42593
 20
118.445833
 10
181.028207
 20
119.254138
 10
180.398041
 20
119.915985
 10
179.568987
 20
120.367811
 10
178.565789
 20
120.540517
  0
LINE
  5
F9
100
AcDbEntity
  8
0
  6
HIDDEN
 62
   174
100
AcDbLine
 10
137.564763
 20
76.240517
 30
0.0
 11
133.603138
 21
76.240517
 31
0.0
  0
LINE
  5
FA
100
AcDbEntity
  8
0
  6
HIDDEN
 62
   174
100
AcDbLine
 10
154.565789
 20
80.554243
 30
0.0
 11
154.565789
 21
83.053918
 31
0.0
  0
LINE
  5
FB
100
AcDbEntity
  8
0
  6
HIDDEN
 62
   174
100
AcDbLine
 10
178.583905
 20
120.540517
 30
0.0
 11
176.367826
 21
120.540517
 31
0.0
  0
LINE
  5
FC
100
AcDbEntity
  8
0
  6
HIDDEN
 62
   174
100
AcDbLine
 10
178.565789
 20
91.553493
 30
0.0
 11
178.565789
 21
94.553442
 31
0.0
  0
LINE
  5
FD
100
AcDbEntity
  8
0
  6
Continuous
 62
   174
100
AcDbLine
 10
124.565789
 20
121.040517
 30
0.0
 11
152.565789
 21
121.040517
 31
0.0
  0
LINE
  5
FE
100
AcDbEntity
  8
0
  6
HIDDEN
 62
   174
100
AcDbLine
 10
140.647384
 20
128.740517
 30
0.0
 11
140.647384
 21
122.540517
 31
0.0
  0
LINE
  5
FF
100
AcDbEntity
  8
0
  6
HIDDEN
 62
   174
100
AcDbLine
 10
181.515789
 20
109.809384
 30
0.0
 11
181.515789
 21
106.409426
 31
0.0
  0
LINE
  5
100
100
AcDbEntity
  8
0
  6
Continuous
 62
   174
100
AcDbLine
 10
178.565789
 20
117.552067
 30
0.0
 11
178.565789
 21
120.551805
 31
0.0
  0
LINE
  5
101
100
AcDbEntity
  8
0
  6
Continuous
 62
   174
100
AcDbLine
 10
137.833913
 20
74.790517
 30
0.0
 11
137.174952
 21
74.790517
 31
0.0
  0
ARC
  5
102
100
AcDbEntity
  8
0
  6
HIDDEN
 62
   174
100
AcDbCircle
 10
133.315789
 20
75.540517
 30
0.0
 40
0.75
100
AcDbArc
 50
164.026313
 51
225.622588
  0
LINE
  5
103
100
AcDbEntity
  8
0
  6
HIDDEN
 62
   174
100
AcDbLine
 10
152.565789
 20
94.540517
 30
0.0
 11
152.565789
 21
117.540517
 31
0.0
  0
LINE
  5
104
100
AcDbEntity
  8
0
  6
HIDDEN
 62
   174
100
AcDbLine
 10
141.565789
 20
91.040517
 30
0.0
 11
142.915789
 21
89.690517
 31
0.0
  0
LINE
  5
105
100
AcDbEntity
  8
0
  6
HIDDEN
 62
   174
100
AcDbLine
 10
146.215789
 20
89.690517
 30
0.0
 11
146.215789
 21
75.040517
 31
0.0
  0
LINE
  5
106
100
AcDbEntity
  8
0
  6
Continuous
 62
   174
100
AcDbLine
 10
152.565789
 20
91.040517
 30
0.0
 11
152.565789
 21
121.040517
 31
0.0
  0
ARC
  5
107
100
AcDbEntity
  8
0
  6
Continuous
 62
   174
100
AcDbCircle
 10
133.315789
 20
75.540517
 30
0.0
 40
0.75
100
AcDbArc
 50
225.622588
 51
270.0
  0
LWPOLYLINE
  5
108
100
AcDbEntity
  8
0
  6
HIDDEN
 62
   174
100
AcDbPolyline
 90
        4
 70
   128
 10
170.781907
 20
120.540517
 10
171.678609
 20
120.527957
 10
172.616763
 20
120.507552
 10
173.565789
 20
120.498556
  0
ARC
  5
109
100
AcDbEntity
  8
0
  6
Continuous
 62
   174
100
AcDbCircle
 10
178.565789
 20
94.540517
 30
0.0
 40
3.0
100
AcDbArc
 50
-90.0
 51
0.0
  0
LINE
  5
10A
100
AcDbEntity
  8
0
  6
Continuous
 62
   174
100
AcDbLine
 10
126.951071
 20
128.740517
 30
0.0
 11
126.951071
 21
122.540517
 31
0.0
  0
LINE
  5
10B
100
AcDbEntity
  8
0
  6
Continuous
 62
   174
100
AcDbLine
 10
137.174952
 20
74.790517
 30
0.0
 11
133.992949
 21
74.790517
 31
0.0
  0
LINE
  5
10C
100
AcDbEntity
  8
0
  6
Continuous
 62
   174
100
AcDbLine
 10
178.565789
 20
117.540517
 30
0.0
 11
178.565789
 21
94.540517
 31
0.0
  0
LINE
  5
10D
100
AcDbEntity
  8
0
  6
HIDDEN
 62
   174
100
AcDbLine
 10
169.143899
 20
136.240517
 30
0.0
 11
177.98768
 21
136.240517
 31
0.0
  0
LINE
  5
10E
100
AcDbEntity
  8
0
  6
Continuous
 62
   174
100
AcDbLine
 10
145.565789
 20
122.540517
 30
0.0
 11
145.565789
 21
121.040517
 31
0.0
  0
ARC
  5
10F
100
AcDbEntity
  8
0
  6
Continuous
 62
   174
100
AcDbCircle
 10
133.315789
 20
75.540517
 30
0.0
 40
0.75
100
AcDbArc
 50
225.622588
 51
270.0
  0
LINE
  5
110
100
AcDbEntity
  8
0
  6
HIDDEN
 62
   174
100
AcDbLine
 10
178.565789
 20
94.540517
 30
0.0
 11
178.565789
 21
117.540517
 31
0.0
  0
LINE
  5
111
100
AcDbEntity
  8
0
  6
HIDDEN
 62
   174
100
AcDbLine
 10
154.565789
 20
80.940517
 30
0.0
 11
148.565789
 21
80.940517
 31
0.0
  0
LWPOLYLINE
  5
112
100
AcDbEntity
  8
0
  6
Continuous
 62
   174
100
AcDbPolyline
 90
        6
 70
   128
 10
178.143449
 20
139.347696
 10
178.89514
 20
139.713823
 10
179.632186
 20
139.941921
 10
180.354435
 20
140.018824
 10
181.076674
 20
139.941906
 10
181.288256
 20
139.891005
  0
LINE
  5
113
100
AcDbEntity
  8
0
  6
HIDDEN
 62
   174
100
AcDbLine
 10
178.565789
 20
91.540517
 30
0.0
 11
152.565789
 21
91.540517
 31
0.0
  0
LINE
  5
114
100
AcDbEntity
  8
0
  6
HIDDEN
 62
   174
100
AcDbLine
 10
146.233857
 20
89.690517
 30
0.0
 11
142.933955
 21
89.690517
 31
0.0
  0
LINE
  5
115
100
AcDbEntity
  8
0
  6
HIDDEN
 62
   174
100
AcDbLine
 10
142.915789
 20
89.690517
 30
0.0
 11
142.915789
 21
75.040517
 31
0.0
  0
LINE
  5
116
100
AcDbEntity
  8
0
  6
HIDDEN
 62
   174
100
AcDbLine
 10
146.215789
 20
89.690517
 30
0.0
 11
146.215789
 21
75.040517
 31
0.0
  0
LINE
  5
117
100
AcDbEntity
  8
0
  6
HIDDEN
 62
   174
100
AcDbLine
 10
142.915789
 20
89.690517
 30
0.0
 11
142.915789
 21
75.040517
 31
0.0
  0
LINE
  5
118
100
AcDbEntity
  8
0
  6
Continuous
 62
   174
100
AcDbLine
 10
124.565789
 20
121.040517
 30
0.0
 11
124.565789
 21
91.040517
 31
0.0
  0
ARC
  5
119
100
AcDbEntity
  8
0
  6
Continuous
 62
   174
100
AcDbCircle
 10
178.565789
 20
94.540517
 30
0.0
 40
3.0
100
AcDbArc
 50
-36.0
 51
0.0
  0
LWPOLYLINE
  5
11A
100
AcDbEntity
  8
0
  6
HIDDEN
 62
   174
100
AcDbPolyline
 90
        4
 70
   128
 10
182.51597
 20
139.376458
 10
181.938933
 20
139.675597
 10
181.32752
 20
139.908351
 10
180.722316
 20
140.040517
  0
LINE
  5
11B
100
AcDbEntity
  8
0
  6
HIDDEN
 62
   174
100
AcDbLine
 10
137.174952
 20
74.790517
 30
0.0
 11
133.992949
 21
74.790517
 31
0.0
  0
LINE
  5
11C
100
AcDbEntity
  8
0
  6
Continuous
 62
   174
100
AcDbLine
 10
181.565789
 20
94.540517
 30
0.0
 11
181.565789
 21
117.540517
 31
0.0
  0
LINE
  5
11D
100
AcDbEntity
  8
0
  6
Continuous
 62
   174
100
AcDbLine
 10
130.486859
 20
128.740517
 30
0.0
 11
130.486859
 21
122.540517
 31
0.0
  0
LINE
  5
11E
100
AcDbEntity
  8
0
  6
HIDDEN
 62
   174
100
AcDbLine
 10
146.233857
 20
89.690517
 30
0.0
 11
142.933955
 21
89.690517
 31
0.0
  0
ARC
  5
11F
100
AcDbEntity
  8
0
  6
HIDDEN
 62
   174
100
AcDbCircle
 10
178.565789
 20
94.540517
 30
0.0
 40
3.0
100
AcDbArc
 50
-90.0
 51
-72.0
  0
LINE
  5
120
100
AcDbEntity
  8
0
  6
HIDDEN
 62
   174
100
AcDbLine
 10
144.181434
 20
128.740517
 30
0.0
 11
144.181434
 21
122.540517
 31
0.0
  0
LINE
  5
121
100
AcDbEntity
  8
0
  6
Continuous
 62
   174
100
AcDbLine
 10
170.781907
 20
120.540517
 30
0.0
 11
152.565789
 21
120.540517
 31
0.0
  0
LINE
  5
122
100
AcDbEntity
  8
0
  6
HIDDEN
 62
   174
100
AcDbLine
 10
149.565789
 20
85.540517
 30
0.0
 11
154.565789
 21
85.540517
 31
0.0
  0
LINE
  5
123
100
AcDbEntity
  8
0
  6
Continuous
 62
   174
100
AcDbLine
 10
125.883009
 20
128.740517
 30
0.0
 11
125.883009
 21
122.540517
 31
0.0
  0
LINE
  5
124
100
AcDbEntity
  8
0
  6
Continuous
 62
   174
100
AcDbLine
 10
133.083956
 20
122.540517
 30
0.0
 11
137.079995
 21
122.540517
 31
0.0
  0
ARC
  5
125
100
AcDbEntity
  8
0
  6
HIDDEN
 62
   174
100
AcDbCircle
 10
133.315789
 20
75.540517
 30
0.0
 40
0.75
100
AcDbArc
 50
164.026313
 51
225.622588
  0
LWPOLYLINE
  5
126
100
AcDbEntity
  8
0
  6
HIDDEN
 62
   174
100
AcDbPolyline
 90
        4
 70
   128
 10
176.349672
 20
120.540517
 10
175.452936
 20
120.527956
 10
174.514783
 20
120.507551
 10
173.565789
 20
120.498556
  0
LINE
  5
127
100
AcDbEntity
  8
0
  6
HIDDEN
 62
   174
100
AcDbLine
 10
181.515789
 20
106.409426
 30
0.0
 11
181.515789
 21
103.009681
 31
0.0
  0
ENDBLK
  5
128
100
AcDbEntity
  8
0
100
AcDbBlockEnd
  0
BLOCK
  5
12B
100
AcDbEntity
  8
0
100
AcDbBlockBegin
  2
*B3
 70
     0
 10
0.0
 20
0.0
 30
0.0
  3
*B3
  1

  0
ARC
  5
12C
100
AcDbEntity
  8
0
  6
Continuous
 62
   174
100
AcDbCircle
 10
96.352602
 20
83.040517
 30
0.0
 40
2.1
100
AcDbArc
 50
122.116215
 51
180.0
  0
ARC
  5
12D
100
AcDbEntity
  8
0
  6
Continuous
 62
   174
100
AcDbCircle
 10
96.352602
 20
83.040517
 30
0.0
 40
2.1
100
AcDbArc
 50
180.0
 51
237.883785
  0
ARC
  5
12E
100
AcDbEntity
  8
0
  6
Continuous
 62
   174
100
AcDbCircle
 10
96.352602
 20
83.040517
 30
0.0
 40
2.1
100
AcDbArc
 50
237.883785
 51
241.696161
  0
ARC
  5
12F
100
AcDbEntity
  8
0
  6
Continuous
 62
   174
100
AcDbCircle
 10
96.352602
 20
83.040517
 30
0.0
 40
2.1
100
AcDbArc
 50
241.696161
 51
298.303839
  0
ARC
  5
130
100
AcDbEntity
  8
0
  6
Continuous
 62
   174
100
AcDbCircle
 10
96.352602
 20
83.040517
 30
0.0
 40
2.1
100
AcDbArc
 50
298.303839
 51
302.116215
  0
ARC
  5
131
100
AcDbEntity
  8
0
  6
Continuous
 62
   174
100
AcDbCircle
 10
96.352602
 20
83.040517
 30
0.0
 40
2.1
100
AcDbArc
 50
-57.883785
 51
0.0
  0
ARC
  5
132
100
AcDbEntity
  8
0
  6
Continuous
 62
   174
100
AcDbCircle
 10
96.352602
 20
83.040517
 30
0.0
 40
2.1
100
AcDbArc
 50
0.0
 51
57.883785
  0
ARC
  5
133
100
AcDbEntity
  8
0
  6
Continuous
 62
   174
100
AcDbCircle
 10
96.352602
 20
83.040517
 30
0.0
 40
2.1
100
AcDbArc
 50
57.883785
 51
61.696161
  0
ARC
  5
134
100
AcDbEntity
  8
0
  6
Continuous
 62
   174
100
AcDbCircle
 10
96.352602
 20
83.040517
 30
0.0
 40
2.1
100
AcDbArc
 50
61.696161
 51
118.303839
  0
ARC
  5
135
100
AcDbEntity
  8
0
  6
Continuous
 62
   174
100
AcDbCircle
 10
96.352602
 20
83.040517
 30
0.0
 40
2.1
100
AcDbArc
 50
118.303839
 51
122.116215
  0
ARC
  5
136
100
AcDbEntity
  8
0
  6
Continuous
 62
   174
100
AcDbCircle
 10
96.459888
 20
106.397341
 30
0.0
 40
3.4
100
AcDbArc
 50
-360.0
 51
-180.0
  0
ARC
  5
137
100
AcDbEntity
  8
0
  6
Continuous
 62
   174
100
AcDbCircle
 10
96.459888
 20
106.397341
 30
0.0
 40
3.4
100
AcDbArc
 50
-180.0
 51
0.0
  0
ARC
  5
138
100
AcDbEntity
  8
0
  6
Continuous
 62
   174
100
AcDbCircle
 10
96.459888
 20
106.397341
 30
0.0
 40
3.0
100
AcDbArc
 50
-307.286546
 51
-142.713454
  0
LINE
  5
139
100
AcDbEntity
  8
0
  6
Continuous
 62
   174
100
AcDbLine
 10
94.482705
 20
104.141073
 30
0.0
 11
98.716157
 21
108.374524
 31
0.0
  0
LINE
  5
13A
100
AcDbEntity
  8
0
  6
Continuous
 62
   174
100
AcDbLine
 10
102.852602
 20
132.540517
 30
0.0
 11
102.852602
 21
135.540517
 31
0.0
  0
LINE
  5
13B
100
AcDbEntity
  8
0
  6
Continuous
 62
   174
100
AcDbLine
 10
104.352602
 20
132.540517
 30
0.0
 11
104.352602
 21
120.498556
 31
0.0
  0
LINE
  5
13C
100
AcDbEntity
  8
0
  6
Continuous
 62
   174
100
AcDbLine
 10
85.227602
 20
75.040517
 30
0.0
 11
85.227602
 21
91.040517
 31
0.0
  0
LWPOLYLINE
  5
13D
100
AcDbEntity
  8
0
  6
Continuous
 62
   174
100
AcDbPolyline
 90
        4
 70
   128
 10
88.60373
 20
140.040517
 10
88.60373
 20
139.907396
 10
88.60373
 20
139.674311
 10
88.60373
 20
139.347696
  0
LINE
  5
13E
100
AcDbEntity
  8
0
  6
Continuous
 62
   174
100
AcDbLine
 10
88.60373
 20
139.347696
 30
0.0
 11
88.60373
 21
136.240517
 31
0.0
  0
LINE
  5
13F
100
AcDbEntity
  8
0
  6
Continuous
 62
   174
100
AcDbLine
 10
99.473131
 20
140.040517
 30
0.0
 11
88.621945
 21
140.040517
 31
0.0
  0
LINE
  5
140
100
AcDbEntity
  8
0
  6
Continuous
 62
   174
100
AcDbLine
 10
86.352602
 20
122.040517
 30
0.0
 11
86.352602
 21
121.040517
 31
0.0
  0
LINE
  5
141
100
AcDbEntity
  8
0
  6
Continuous
 62
   174
100
AcDbLine
 10
103.852602
 20
117.552067
 30
0.0
 11
103.852602
 21
120.551805
 31
0.0
  0
LINE
  5
142
100
AcDbEntity
  8
0
  6
Continuous
 62
   174
100
AcDbLine
 10
106.258176
 20
122.540517
 30
0.0
 11
106.370764
 21
122.540517
 31
0.0
  0
LINE
  5
143
100
AcDbEntity
  8
0
  6
Continuous
 62
   174
100
AcDbLine
 10
98.277293
 20
108.784188
 30
0.0
 11
94.073041
 21
104.579936
 31
0.0
  0
ARC
  5
144
100
AcDbEntity
  8
0
  6
Continuous
 62
   174
100
AcDbCircle
 10
96.459888
 20
106.397341
 30
0.0
 40
3.0
100
AcDbArc
 50
-131.228296
 51
41.228296
  0
LINE
  5
145
100
AcDbEntity
  8
0
  6
Continuous
 62
   174
100
AcDbLine
 10
87.352602
 20
135.540517
 30
0.0
 11
87.352602
 21
136.240517
 31
0.0
  0
LINE
  5
146
100
AcDbEntity
  8
0
  6
Continuous
 62
   174
100
AcDbLine
 10
105.352602
 20
135.540517
 30
0.0
 11
105.352602
 21
136.240517
 31
0.0
  0
LINE
  5
147
100
AcDbEntity
  8
0
  6
Continuous
 62
   174
100
AcDbLine
 10
88.621945
 20
136.240517
 30
0.0
 11
87.370727
 21
136.240517
 31
0.0
  0
ARC
  5
148
100
AcDbEntity
  8
0
  6
Continuous
 62
   174
100
AcDbCircle
 10
96.352602
 20
83.040517
 30
0.0
 40
2.5
100
AcDbArc
 50
-180.0
 51
-157.5
  0
ARC
  5
149
100
AcDbEntity
  8
0
  6
Continuous
 62
   174
100
AcDbCircle
 10
96.352602
 20
83.040517
 30
0.0
 40
2.5
100
AcDbArc
 50
-360.0
 51
-337.5
  0
LINE
  5
14A
100
AcDbEntity
  8
0
  6
Continuous
 62
   174
100
AcDbLine
 10
104.191409
 20
140.028749
 30
0.0
 11
104.191409
 21
139.952274
 31
0.0
  0
LWPOLYLINE
  5
14B
100
AcDbEntity
  8
0
  6
Continuous
 62
   174
100
AcDbPolyline
 90
        4
 70
   128
 10
100.999197
 20
140.040517
 10
102.052906
 20
139.907396
 10
103.111318
 20
139.674313
 10
104.191409
 20
139.347696
  0
LWPOLYLINE
  5
14C
100
AcDbEntity
  8
0
  6
Continuous
 62
   174
100
AcDbPolyline
 90
        4
 70
   128
 10
96.262669
 20
139.347696
 10
97.347638
 20
139.675597
 10
98.406637
 20
139.908351
 10
99.454881
 20
140.040517
  0
LINE
  5
14D
100
AcDbEntity
  8
0
  6
Continuous
 62
   174
100
AcDbLine
 10
106.034191
 20
128.740517
 30
0.0
 11
106.034191
 21
122.540517
 31
0.0
  0
LINE
  5
14E
100
AcDbEntity
  8
0
  6
Continuous
 62
   174
100
AcDbLine
 10
106.352602
 20
122.040517
 30
0.0
 11
106.352602
 21
121.040517
 31
0.0
  0
LINE
  5
14F
100
AcDbEntity
  8
0
  6
Continuous
 62
   174
100
AcDbLine
 10
85.352602
 20
91.040517
 30
0.0
 11
85.352602
 21
121.040517
 31
0.0
  0
ARC
  5
150
100
AcDbEntity
  8
0
  6
Continuous
 62
   174
100
AcDbCircle
 10
94.102602
 20
75.540517
 30
0.0
 40
0.75
100
AcDbArc
 50
225.622588
 51
270.0
  0
LINE
  5
151
100
AcDbEntity
  8
0
  6
Continuous
 62
   174
100
AcDbLine
 10
98.620646
 20
74.790517
 30
0.0
 11
97.961685
 21
74.790517
 31
0.0
  0
LINE
  5
152
100
AcDbEntity
  8
0
  6
Continuous
 62
   174
100
AcDbLine
 10
87.352602
 20
135.540517
 30
0.0
 11
87.352602
 21
136.240517
 31
0.0
  0
LINE
  5
153
100
AcDbEntity
  8
0
  6
Continuous
 62
   174
100
AcDbLine
 10
85.852602
 20
94.540517
 30
0.0
 11
85.852602
 21
117.540517
 31
0.0
  0
LINE
  5
154
100
AcDbEntity
  8
0
  6
Continuous
 62
   174
100
AcDbLine
 10
89.764187
 20
132.540517
 30
0.0
 11
88.370852
 21
132.540517
 31
0.0
  0
LINE
  5
155
100
AcDbEntity
  8
0
  6
Continuous
 62
   174
100
AcDbLine
 10
105.370852
 20
136.240517
 30
0.0
 11
104.209491
 21
136.240517
 31
0.0
  0
ARC
  5
156
100
AcDbEntity
  8
0
  6
Continuous
 62
   174
100
AcDbCircle
 10
96.352602
 20
83.040517
 30
0.0
 40
2.5
100
AcDbArc
 50
-157.5
 51
-22.5
  0
ARC
  5
157
100
AcDbEntity
  8
0
  6
Continuous
 62
   174
100
AcDbCircle
 10
88.852602
 20
117.540517
 30
0.0
 40
3.0
100
AcDbArc
 50
-270.0
 51
-180.0
  0
LINE
  5
158
100
AcDbEntity
  8
0
  6
Continuous
 62
   174
100
AcDbLine
 10
88.852602
 20
117.540517
 30
0.0
 11
96.352602
 21
117.540517
 31
0.0
  0
LINE
  5
159
100
AcDbEntity
  8
0
  6
Continuous
 62
   174
100
AcDbLine
 10
106.352602
 20
122.540517
 30
0.0
 11
106.352602
 21
122.040517
 31
0.0
  0
LINE
  5
15A
100
AcDbEntity
  8
0
  6
Continuous
 62
   174
100
AcDbLine
 10
86.370815
 20
122.540517
 30
0.0
 11
86.483403
 21
122.540517
 31
0.0
  0
LINE
  5
15B
100
AcDbEntity
  8
0
  6
Continuous
 62
   174
100
AcDbLine
 10
98.510606
 20
74.790517
 30
0.0
 11
97.961685
 21
74.790517
 31
0.0
  0
LINE
  5
15C
100
AcDbEntity
  8
0
  6
Continuous
 62
   174
100
AcDbLine
 10
97.961685
 20
74.790517
 30
0.0
 11
96.370789
 21
74.790517
 31
0.0
  0
LINE
  5
15D
100
AcDbEntity
  8
0
  6
Continuous
 62
   174
100
AcDbLine
 10
97.961685
 20
74.790517
 30
0.0
 11
96.370789
 21
74.790517
 31
0.0
  0
ARC
  5
15E
100
AcDbEntity
  8
0
  6
Continuous
 62
   174
100
AcDbCircle
 10
98.602602
 20
75.540517
 30
0.0
 40
0.75
100
AcDbArc
 50
-90.0
 51
-45.622588
  0
LINE
  5
15F
100
AcDbEntity
  8
0
  6
Continuous
 62
   174
100
AcDbLine
 10
96.370789
 20
74.790517
 30
0.0
 11
94.779681
 21
74.790517
 31
0.0
  0
LINE
  5
160
100
AcDbEntity
  8
0
  6
Continuous
 62
   174
100
AcDbLine
 10
88.852602
 20
120.540517
 30
0.0
 11
90.107604
 21
120.540517
 31
0.0
  0
LINE
  5
161
100
AcDbEntity
  8
0
  6
Continuous
 62
   174
100
AcDbLine
 10
85.227602
 20
75.040517
 30
0.0
 11
107.477602
 21
75.040517
 31
0.0
  0
LINE
  5
162
100
AcDbEntity
  8
0
  6
Continuous
 62
   174
100
AcDbLine
 10
87.370727
 20
135.540517
 30
0.0
 11
89.656484
 21
135.540517
 31
0.0
  0
LINE
  5
163
100
AcDbEntity
  8
0
  6
Continuous
 62
   174
100
AcDbLine
 10
104.209491
 20
136.240517
 30
0.0
 11
96.280931
 21
136.240517
 31
0.0
  0
LINE
  5
164
100
AcDbEntity
  8
0
  6
Continuous
 62
   174
100
AcDbLine
 10
104.170829
 20
140.040517
 30
0.0
 11
101.017292
 21
140.040517
 31
0.0
  0
ARC
  5
165
100
AcDbEntity
  8
0
  6
Continuous
 62
   174
100
AcDbCircle
 10
96.352602
 20
83.040517
 30
0.0
 40
2.5
100
AcDbArc
 50
-22.5
 51
0.0
  0
LWPOLYLINE
  5
166
100
AcDbEntity
  8
0
  6
Continuous
 62
   174
100
AcDbPolyline
 90
        3
 70
   128
 10
104.191409
 20
139.347696
 10
104.191409
 20
139.713799
 10
104.191409
 20
139.941898
  0
LINE
  5
167
100
AcDbEntity
  8
0
  6
Continuous
 62
   174
100
AcDbLine
 10
104.191409
 20
136.240517
 30
0.0
 11
104.191409
 21
139.347696
 31
0.0
  0
LWPOLYLINE
  5
168
100
AcDbEntity
  8
0
  6
Continuous
 62
   174
100
AcDbPolyline
 90
        6
 70
   128
 10
96.352602
 20
117.540517
 10
97.841962
 20
118.445833
 10
99.235711
 20
119.254138
 10
100.514373
 20
119.915985
 10
101.640477
 20
120.367811
 10
102.5976
 20
120.540517
  0
LWPOLYLINE
  5
169
100
AcDbEntity
  8
0
  6
Continuous
 62
   174
100
AcDbPolyline
 90
        6
 70
   128
 10
90.107604
 20
120.540517
 10
91.063566
 20
120.368174
 10
92.190006
 20
119.916374
 10
93.470996
 20
119.253303
 10
94.865013
 20
118.444773
 10
96.352602
 20
117.540517
  0
LINE
  5
16A
100
AcDbEntity
  8
0
  6
Continuous
 62
   174
100
AcDbLine
 10
88.852602
 20
120.551805
 30
0.0
 11
88.852602
 21
117.552067
 31
0.0
  0
LINE
  5
16B
100
AcDbEntity
  8
0
  6
Continuous
 62
   174
100
AcDbLine
 10
103.852602
 20
94.540517
 30
0.0
 11
88.852602
 21
94.540517
 31
0.0
  0
LINE
  5
16C
100
AcDbEntity
  8
0
  6
Continuous
 62
   174
100
AcDbLine
 10
86.483403
 20
122.540517
 30
0.0
 11
86.688399
 21
122.540517
 31
0.0
  0
LINE
  5
16D
100
AcDbEntity
  8
0
  6
Continuous
 62
   174
100
AcDbLine
 10
106.05233
 20
122.540517
 30
0.0
 11
106.258176
 21
122.540517
 31
0.0
  0
LINE
  5
16E
100
AcDbEntity
  8
0
  6
Continuous
 62
   174
100
AcDbLine
 10
87.756289
 20
122.540517
 30
0.0
 11
88.344511
 21
122.540517
 31
0.0
  0
LINE
  5
16F
100
AcDbEntity
  8
0
  6
Continuous
 62
   174
100
AcDbLine
 10
107.352602
 20
121.040517
 30
0.0
 11
107.352602
 21
91.040517
 31
0.0
  0
LINE
  5
170
100
AcDbEntity
  8
0
  6
Continuous
 62
   174
100
AcDbLine
 10
94.779681
 20
74.790517
 30
0.0
 11
94.230972
 21
74.790517
 31
0.0
  0
LINE
  5
171
100
AcDbEntity
  8
0
  6
Continuous
 62
   174
100
AcDbLine
 10
94.779681
 20
74.790517
 30
0.0
 11
94.121145
 21
74.790517
 31
0.0
  0
LINE
  5
172
100
AcDbEntity
  8
0
  6
Continuous
 62
   174
100
AcDbLine
 10
105.352602
 20
135.540517
 30
0.0
 11
105.352602
 21
136.240517
 31
0.0
  0
LINE
  5
173
100
AcDbEntity
  8
0
  6
Continuous
 62
   174
100
AcDbLine
 10
104.152602
 20
140.040517
 30
0.0
 11
104.323376
 21
139.94192
 31
0.0
  0
LINE
  5
174
100
AcDbEntity
  8
0
  6
Continuous
 62
   174
100
AcDbLine
 10
99.454881
 20
140.040517
 30
0.0
 11
100.999197
 21
140.040517
 31
0.0
  0
LINE
  5
175
100
AcDbEntity
  8
0
  6
Continuous
 62
   174
100
AcDbLine
 10
96.262669
 20
136.240517
 30
0.0
 11
96.262669
 21
139.347696
 31
0.0
  0
LINE
  5
176
100
AcDbEntity
  8
0
  6
Continuous
 62
   174
100
AcDbLine
 10
104.965232
 20
128.740517
 30
0.0
 11
104.965232
 21
122.540517
 31
0.0
  0
LINE
  5
177
100
AcDbEntity
  8
0
  6
Continuous
 62
   174
100
AcDbLine
 10
88.352602
 20
128.740517
 30
0.0
 11
87.738206
 21
128.740517
 31
0.0
  0
LINE
  5
178
100
AcDbEntity
  8
0
  6
Continuous
 62
   174
100
AcDbLine
 10
90.107604
 20
120.540517
 30
0.0
 11
88.852602
 21
120.540517
 31
0.0
  0
LINE
  5
179
100
AcDbEntity
  8
0
  6
Continuous
 62
   174
100
AcDbLine
 10
88.852602
 20
94.540517
 30
0.0
 11
88.852602
 21
117.540517
 31
0.0
  0
LINE
  5
17A
100
AcDbEntity
  8
0
  6
Continuous
 62
   174
100
AcDbLine
 10
104.396856
 20
122.540517
 30
0.0
 11
104.983377
 21
122.540517
 31
0.0
  0
LINE
  5
17B
100
AcDbEntity
  8
0
  6
Continuous
 62
   174
100
AcDbLine
 10
104.352602
 20
132.540517
 30
0.0
 11
104.352602
 21
120.498556
 31
0.0
  0
LINE
  5
17C
100
AcDbEntity
  8
0
  6
Continuous
 62
   174
100
AcDbLine
 10
102.5976
 20
120.540517
 30
0.0
 11
103.852602
 21
120.540517
 31
0.0
  0
LINE
  5
17D
100
AcDbEntity
  8
0
  6
Continuous
 62
   174
100
AcDbLine
 10
103.084882
 20
135.540517
 30
0.0
 11
105.370852
 21
135.540517
 31
0.0
  0
LINE
  5
17E
100
AcDbEntity
  8
0
  6
Continuous
 62
   174
100
AcDbLine
 10
89.656484
 20
135.540517
 30
0.0
 11
103.084882
 21
135.540517
 31
0.0
  0
ARC
  5
17F
100
AcDbEntity
  8
0
  6
Continuous
 62
   174
100
AcDbCircle
 10
96.352602
 20
83.040517
 30
0.0
 40
2.5
100
AcDbArc
 50
-337.5
 51
-241.225923
  0
LINE
  5
180
100
AcDbEntity
  8
0
  6
Continuous
 62
   174
100
AcDbLine
 10
87.738206
 20
128.740517
 30
0.0
 11
87.738206
 21
122.540517
 31
0.0
  0
LINE
  5
181
100
AcDbEntity
  8
0
  6
Continuous
 62
   174
100
AcDbLine
 10
104.965232
 20
128.740517
 30
0.0
 11
104.352602
 21
128.740517
 31
0.0
  0
LINE
  5
182
100
AcDbEntity
  8
0
  6
Continuous
 62
   174
100
AcDbLine
 10
86.352602
 20
122.540517
 30
0.0
 11
86.352602
 21
122.040517
 31
0.0
  0
LINE
  5
183
100
AcDbEntity
  8
0
  6
Continuous
 62
   174
100
AcDbLine
 10
103.852602
 20
117.540517
 30
0.0
 11
103.852602
 21
94.540517
 31
0.0
  0
LINE
  5
184
100
AcDbEntity
  8
0
  6
Continuous
 62
   174
100
AcDbLine
 10
103.852602
 20
120.540517
 30
0.0
 11
102.5976
 21
120.540517
 31
0.0
  0
LINE
  5
185
100
AcDbEntity
  8
0
  6
Continuous
 62
   174
100
AcDbLine
 10
98.620646
 20
74.790517
 30
0.0
 11
98.510606
 21
74.790517
 31
0.0
  0
LINE
  5
186
100
AcDbEntity
  8
0
  6
Continuous
 62
   174
100
AcDbLine
 10
103.852602
 20
91.540517
 30
0.0
 11
88.852602
 21
91.540517
 31
0.0
  0
LINE
  5
187
100
AcDbEntity
  8
0
  6
Continuous
 62
   174
100
AcDbLine
 10
85.227602
 20
91.040517
 30
0.0
 11
107.477602
 21
91.040517
 31
0.0
  0
LINE
  5
188
100
AcDbEntity
  8
0
  6
Continuous
 62
   174
100
AcDbLine
 10
102.97718
 20
132.540517
 30
0.0
 11
89.764187
 21
132.540517
 31
0.0
  0
LINE
  5
189
100
AcDbEntity
  8
0
  6
Continuous
 62
   174
100
AcDbLine
 10
96.280931
 20
136.240517
 30
0.0
 11
88.621945
 21
136.240517
 31
0.0
  0
LINE
  5
18A
100
AcDbEntity
  8
0
  6
Continuous
 62
   174
100
AcDbLine
 10
106.05233
 20
128.740517
 30
0.0
 11
104.983377
 21
128.740517
 31
0.0
  0
LWPOLYLINE
  5
18B
100
AcDbEntity
  8
0
  6
Continuous
 62
   174
100
AcDbPolyline
 90
        7
 70
   128
 10
88.60373
 20
139.347696
 10
89.905696
 20
139.713823
 10
91.182298
 20
139.941921
 10
92.433269
 20
140.018824
 10
93.684223
 20
139.941906
 10
94.960778
 20
139.713806
 10
96.262669
 20
139.347696
  0
LINE
  5
18C
100
AcDbEntity
  8
0
  6
Continuous
 62
   174
100
AcDbLine
 10
86.352602
 20
122.040517
 30
0.0
 11
86.352602
 21
121.040517
 31
0.0
  0
LINE
  5
18D
100
AcDbEntity
  8
0
  6
Continuous
 62
   174
100
AcDbLine
 10
106.352602
 20
122.040517
 30
0.0
 11
106.352602
 21
121.040517
 31
0.0
  0
LINE
  5
18E
100
AcDbEntity
  8
0
  6
Continuous
 62
   174
100
AcDbLine
 10
96.370789
 20
74.790517
 30
0.0
 11
94.779681
 21
74.790517
 31
0.0
  0
LINE
  5
18F
100
AcDbEntity
  8
0
  6
Continuous
 62
   174
100
AcDbLine
 10
89.852602
 20
132.540517
 30
0.0
 11
89.852602
 21
135.540517
 31
0.0
  0
LINE
  5
190
100
AcDbEntity
  8
0
  6
Continuous
 62
   174
100
AcDbLine
 10
102.852602
 20
132.540517
 30
0.0
 11
102.852602
 21
135.540517
 31
0.0
  0
LINE
  5
191
100
AcDbEntity
  8
0
  6
Continuous
 62
   174
100
AcDbLine
 10
89.852602
 20
132.540517
 30
0.0
 11
89.852602
 21
135.540517
 31
0.0
  0
LINE
  5
192
100
AcDbEntity
  8
0
  6
Continuous
 62
   174
100
AcDbLine
 10
88.352602
 20
132.540517
 30
0.0
 11
88.352602
 21
120.498556
 31
0.0
  0
LINE
  5
193
100
AcDbEntity
  8
0
  6
Continuous
 62
   174
100
AcDbLine
 10
88.352602
 20
132.540517
 30
0.0
 11
88.352602
 21
120.498556
 31
0.0
  0
LINE
  5
194
100
AcDbEntity
  8
0
  6
Continuous
 62
   174
100
AcDbLine
 10
107.477602
 20
75.040517
 30
0.0
 11
107.477602
 21
91.040517
 31
0.0
  0
LINE
  5
195
100
AcDbEntity
  8
0
  6
Continuous
 62
   174
100
AcDbLine
 10
104.370727
 20
132.540517
 30
0.0
 11
102.97718
 21
132.540517
 31
0.0
  0
LINE
  5
196
100
AcDbEntity
  8
0
  6
Continuous
 62
   174
100
AcDbLine
 10
87.756289
 20
128.740517
 30
0.0
 11
86.688399
 21
128.740517
 31
0.0
  0
LINE
  5
197
100
AcDbEntity
  8
0
  6
Continuous
 62
   174
100
AcDbLine
 10
86.670144
 20
128.740517
 30
0.0
 11
86.670144
 21
122.540517
 31
0.0
  0
LINE
  5
198
100
AcDbEntity
  8
0
  6
Continuous
 62
   174
100
AcDbLine
 10
96.352602
 20
117.540517
 30
0.0
 11
103.852602
 21
117.540517
 31
0.0
  0
ARC
  5
199
100
AcDbEntity
  8
0
  6
Continuous
 62
   174
100
AcDbCircle
 10
103.852602
 20
117.540517
 30
0.0
 40
3.0
100
AcDbArc
 50
-360.0
 51
-270.0
  0
LINE
  5
19A
100
AcDbEntity
  8
0
  6
Continuous
 62
   174
100
AcDbLine
 10
103.852602
 20
94.553442
 30
0.0
 11
103.852602
 21
91.553493
 31
0.0
  0
ARC
  5
19B
100
AcDbEntity
  8
0
  6
Continuous
 62
   174
100
AcDbCircle
 10
88.852602
 20
94.540517
 30
0.0
 40
3.0
100
AcDbArc
 50
-180.0
 51
-90.0
  0
LINE
  5
19C
100
AcDbEntity
  8
0
  6
Continuous
 62
   174
100
AcDbLine
 10
88.852602
 20
91.540517
 30
0.0
 11
103.852602
 21
91.540517
 31
0.0
  0
LINE
  5
19D
100
AcDbEntity
  8
0
  6
Continuous
 62
   174
100
AcDbLine
 10
88.852602
 20
91.553493
 30
0.0
 11
88.852602
 21
94.553442
 31
0.0
  0
LINE
  5
19E
100
AcDbEntity
  8
0
  6
Continuous
 62
   174
100
AcDbLine
 10
85.870752
 20
117.540517
 30
0.0
 11
88.870702
 21
117.540517
 31
0.0
  0
LINE
  5
19F
100
AcDbEntity
  8
0
  6
Continuous
 62
   174
100
AcDbLine
 10
104.352602
 20
121.040517
 30
0.0
 11
107.352602
 21
121.040517
 31
0.0
  0
LINE
  5
1A0
100
AcDbEntity
  8
0
  6
Continuous
 62
   174
100
AcDbLine
 10
85.352602
 20
121.040517
 30
0.0
 11
88.352602
 21
121.040517
 31
0.0
  0
LINE
  5
1A1
100
AcDbEntity
  8
0
  6
Continuous
 62
   174
100
AcDbLine
 10
85.852602
 20
117.540517
 30
0.0
 11
85.852602
 21
94.540517
 31
0.0
  0
LINE
  5
1A2
100
AcDbEntity
  8
0
  6
Continuous
 62
   174
100
AcDbLine
 10
106.852602
 20
94.540517
 30
0.0
 11
106.852602
 21
117.540517
 31
0.0
  0
LINE
  5
1A3
100
AcDbEntity
  8
0
  6
Continuous
 62
   174
100
AcDbLine
 10
103.870664
 20
94.540517
 30
0.0
 11
106.870826
 21
94.540517
 31
0.0
  0
ARC
  5
1A4
100
AcDbEntity
  8
0
  6
Continuous
 62
   174
100
AcDbCircle
 10
103.852602
 20
94.540517
 30
0.0
 40
3.0
100
AcDbArc
 50
-90.0
 51
0.0
  0
LINE
  5
1A5
100
AcDbEntity
  8
0
  6
Continuous
 62
   174
100
AcDbLine
 10
103.870664
 20
117.540517
 30
0.0
 11
106.870826
 21
117.540517
 31
0.0
  0
LINE
  5
1A6
100
AcDbEntity
  8
0
  6
Continuous
 62
   174
100
AcDbLine
 10
85.870752
 20
94.540517
 30
0.0
 11
88.870702
 21
94.540517
 31
0.0
  0
ENDBLK
  5
1A7
100
AcDbEntity
  8
0
100
AcDbBlockEnd
  0
BLOCK
  5
1AA
100
AcDbEntity
  8
0
100
AcDbBlockBegin
  2
*B4
 70
     0
 10
0.0
 20
0.0
 30
0.0
  3
*B4
  1

  0
LINE
  5
1AB
100
AcDbEntity
  8
0
  6
Continuous
 62
   174
100
AcDbLine
 10
205.607313
 20
138.863553
 30
0.0
 11
205.607313
 21
136.249322
 31
0.0
  0
LINE
  5
1AC
100
AcDbEntity
  8
0
  6
Continuous
 62
   174
100
AcDbLine
 10
205.625516
 20
136.249322
 30
0.0
 11
213.554076
 21
136.249322
 31
0.0
  0
LINE
  5
1AD
100
AcDbEntity
  8
0
  6
Continuous
 62
   174
100
AcDbLine
 10
213.554076
 20
136.249322
 30
0.0
 11
221.213062
 21
136.249322
 31
0.0
  0
LINE
  5
1AE
100
AcDbEntity
  8
0
  6
Continuous
 62
   174
100
AcDbLine
 10
208.360944
 20
128.749322
 30
0.0
 11
204.832589
 21
128.749322
 31
0.0
  0
LINE
  5
1AF
100
AcDbEntity
  8
0
  6
Continuous
 62
   174
100
AcDbLine
 10
222.116956
 20
136.249322
 30
0.0
 11
222.46428
 21
136.249322
 31
0.0
  0
LINE
  5
1B0
100
AcDbEntity
  8
0
  6
Continuous
 62
   174
100
AcDbLine
 10
221.213062
 20
136.249322
 30
0.0
 11
222.116956
 21
136.249322
 31
0.0
  0
LINE
  5
1B1
100
AcDbEntity
  8
0
  6
Continuous
 62
   174
100
AcDbLine
 10
222.057738
 20
128.749322
 30
0.0
 11
218.528551
 21
128.749322
 31
0.0
  0
LINE
  5
1B2
100
AcDbEntity
  8
0
  6
Continuous
 62
   174
100
AcDbLine
 10
215.938304
 20
128.749322
 30
0.0
 11
210.950567
 21
128.749322
 31
0.0
  0
LINE
  5
1B3
100
AcDbEntity
  8
0
  6
Continuous
 62
   174
100
AcDbLine
 10
204.464156
 20
136.249322
 30
0.0
 11
205.625516
 21
136.249322
 31
0.0
  0
LINE
  5
1B4
100
AcDbEntity
  8
0
  6
Continuous
 62
   174
100
AcDbLine
 10
223.464193
 20
122.549322
 30
0.0
 11
223.146609
 21
122.549322
 31
0.0
  0
LINE
  5
1B5
100
AcDbEntity
  8
0
  6
Continuous
 62
   174
100
AcDbLine
 10
203.780978
 20
122.549322
 30
0.0
 11
203.464243
 21
122.549322
 31
0.0
  0
LINE
  5
1B6
100
AcDbEntity
  8
0
  6
Continuous
 62
   174
100
AcDbLine
 10
208.378834
 20
122.549322
 30
0.0
 11
204.85078
 21
122.549322
 31
0.0
  0
LINE
  5
1B7
100
AcDbEntity
  8
0
  6
Continuous
 62
   174
100
AcDbLine
 10
222.075744
 20
122.549322
 30
0.0
 11
218.546629
 21
122.549322
 31
0.0
  0
LINE
  5
1B8
100
AcDbEntity
  8
0
  6
Continuous
 62
   174
100
AcDbLine
 10
222.057738
 20
122.549322
 30
0.0
 11
222.057738
 21
128.749322
 31
0.0
  0
LINE
  5
1B9
100
AcDbEntity
  8
0
  6
Continuous
 62
   174
100
AcDbLine
 10
218.528551
 20
122.549322
 30
0.0
 11
218.528551
 21
128.749322
 31
0.0
  0
LINE
  5
1BA
100
AcDbEntity
  8
0
  6
Continuous
 62
   174
100
AcDbLine
 10
203.762793
 20
122.549322
 30
0.0
 11
203.762793
 21
128.749322
 31
0.0
  0
LINE
  5
1BB
100
AcDbEntity
  8
0
  6
HIDDEN
 62
   174
100
AcDbLine
 10
224.44612
 20
91.049322
 30
0.0
 11
223.09612
 21
89.699322
 31
0.0
  0
LINE
  5
1BC
100
AcDbEntity
  8
0
  6
HIDDEN
 62
   174
100
AcDbLine
 10
218.44612
 20
91.049322
 30
0.0
 11
219.79612
 21
89.699322
 31
0.0
  0
LINE
  5
1BD
100
AcDbEntity
  8
0
  6
Continuous
 62
   174
100
AcDbLine
 10
205.041756
 20
135.549322
 30
0.0
 11
204.464156
 21
135.549322
 31
0.0
  0
LINE
  5
1BE
100
AcDbEntity
  8
0
  6
HIDDEN
 62
   174
100
AcDbLine
 10
213.536053
 20
136.249322
 30
0.0
 11
221.194992
 21
136.249322
 31
0.0
  0
LINE
  5
1BF
100
AcDbEntity
  8
0
  6
Continuous
 62
   174
100
AcDbLine
 10
224.44612
 20
91.049322
 30
0.0
 11
224.57112
 21
91.049322
 31
0.0
  0
LINE
  5
1C0
100
AcDbEntity
  8
0
  6
HIDDEN
 62
   174
100
AcDbLine
 10
216.411485
 20
75.049322
 30
0.0
 11
215.585554
 21
75.049322
 31
0.0
  0
ARC
  5
1C1
100
AcDbEntity
  8
0
  6
Continuous
 62
   174
100
AcDbCircle
 10
213.44612
 20
80.049322
 30
0.0
 40
3.0
100
AcDbArc
 50
-45.0
 51
0.0
  0
ARC
  5
1C2
100
AcDbEntity
  8
0
  6
Continuous
 62
   174
100
AcDbCircle
 10
213.44612
 20
80.049322
 30
0.0
 40
3.0
100
AcDbArc
 50
-180.0
 51
-135.0
  0
ARC
  5
1C3
100
AcDbEntity
  8
0
  6
HIDDEN
 62
   174
100
AcDbCircle
 10
215.69612
 20
75.509322
 30
0.0
 40
0.75
100
AcDbArc
 50
-260.633211
 51
-90.0
  0
LINE
  5
1C4
100
AcDbEntity
  8
0
  6
Continuous
 62
   174
100
AcDbLine
 10
211.873323
 20
74.759322
 30
0.0
 11
211.324401
 21
74.759322
 31
0.0
  0
LINE
  5
1C5
100
AcDbEntity
  8
0
  6
Continuous
 62
   174
100
AcDbLine
 10
215.714287
 20
74.759322
 30
0.0
 11
215.604035
 21
74.759322
 31
0.0
  0
LINE
  5
1C6
100
AcDbEntity
  8
0
  6
HIDDEN
 62
   174
100
AcDbLine
 10
213.464218
 20
76.249322
 30
0.0
 11
211.336297
 21
76.249322
 31
0.0
  0
LINE
  5
1C7
100
AcDbEntity
  8
0
  6
Continuous
 62
   174
100
AcDbLine
 10
215.937906
 20
122.549322
 30
0.0
 11
215.937906
 21
128.749322
 31
0.0
  0
LINE
  5
1C8
100
AcDbEntity
  8
0
  6
HIDDEN
 62
   174
100
AcDbLine
 10
215.954314
 20
122.549322
 30
0.0
 11
215.954314
 21
128.749322
 31
0.0
  0
LINE
  5
1C9
100
AcDbEntity
  8
0
  6
HIDDEN
 62
   174
100
AcDbLine
 10
210.941291
 20
122.549322
 30
0.0
 11
210.941291
 21
128.749322
 31
0.0
  0
LINE
  5
1CA
100
AcDbEntity
  8
0
  6
HIDDEN
 62
   174
100
AcDbLine
 10
222.063092
 20
122.549322
 30
0.0
 11
222.063092
 21
128.749322
 31
0.0
  0
LINE
  5
1CB
100
AcDbEntity
  8
0
  6
Continuous
 62
   174
100
AcDbLine
 10
207.807394
 20
132.549322
 30
0.0
 11
205.464281
 21
132.549322
 31
0.0
  0
LINE
  5
1CC
100
AcDbEntity
  8
0
  6
Continuous
 62
   174
100
AcDbLine
 10
221.464155
 20
132.549322
 30
0.0
 11
219.121042
 21
132.549322
 31
0.0
  0
LINE
  5
1CD
100
AcDbEntity
  8
0
  6
HIDDEN
 62
   174
100
AcDbLine
 10
206.964256
 20
135.549322
 30
0.0
 11
219.96418
 21
135.549322
 31
0.0
  0
LINE
  5
1CE
100
AcDbEntity
  8
0
  6
Continuous
 62
   174
100
AcDbLine
 10
202.44612
 20
91.049322
 30
0.0
 11
202.44612
 21
121.049322
 31
0.0
  0
LINE
  5
1CF
100
AcDbEntity
  8
0
  6
HIDDEN
 62
   174
100
AcDbLine
 10
205.607313
 20
136.249322
 30
0.0
 11
213.536053
 21
136.249322
 31
0.0
  0
LINE
  5
1D0
100
AcDbEntity
  8
0
  6
Continuous
 62
   174
100
AcDbLine
 10
202.44612
 20
91.049322
 30
0.0
 11
224.44612
 21
91.049322
 31
0.0
  0
LINE
  5
1D1
100
AcDbEntity
  8
0
  6
HIDDEN
 62
   174
100
AcDbLine
 10
210.464268
 20
76.249322
 30
0.0
 11
213.464218
 21
76.249322
 31
0.0
  0
ARC
  5
1D2
100
AcDbEntity
  8
0
  6
Continuous
 62
   174
100
AcDbCircle
 10
213.44612
 20
80.049322
 30
0.0
 40
3.0
100
AcDbArc
 50
-135.0
 51
-45.0
  0
LINE
  5
1D3
100
AcDbEntity
  8
0
  6
Continuous
 62
   174
100
AcDbLine
 10
210.99663
 20
79.549322
 30
0.0
 11
215.895609
 21
79.549322
 31
0.0
  0
LINE
  5
1D4
100
AcDbEntity
  8
0
  6
Continuous
 62
   174
100
AcDbLine
 10
215.714287
 20
74.759322
 30
0.0
 11
215.055114
 21
74.759322
 31
0.0
  0
ARC
  5
1D5
100
AcDbEntity
  8
0
  6
HIDDEN
 62
   174
100
AcDbCircle
 10
211.19612
 20
75.509322
 30
0.0
 40
0.75
100
AcDbArc
 50
213.122263
 51
221.512225
  0
LINE
  5
1D6
100
AcDbEntity
  8
0
  6
HIDDEN
 62
   174
100
AcDbLine
 10
215.836222
 20
76.249322
 30
0.0
 11
213.464218
 21
76.249322
 31
0.0
  0
LINE
  5
1D7
100
AcDbEntity
  8
0
  6
HIDDEN
 62
   174
100
AcDbLine
 10
213.464218
 20
76.249322
 30
0.0
 11
211.092214
 21
76.249322
 31
0.0
  0
LINE
  5
1D8
100
AcDbEntity
  8
0
  6
Continuous
 62
   174
100
AcDbLine
 10
208.360695
 20
122.549322
 30
0.0
 11
208.360695
 21
128.749322
 31
0.0
  0
LINE
  5
1D9
100
AcDbEntity
  8
0
  6
HIDDEN
 62
   174
100
AcDbLine
 10
202.44612
 20
91.049322
 30
0.0
 11
203.79612
 21
89.699322
 31
0.0
  0
LINE
  5
1DA
100
AcDbEntity
  8
0
  6
Continuous
 62
   174
100
AcDbLine
 10
202.44612
 20
121.049322
 30
0.0
 11
224.44612
 21
121.049322
 31
0.0
  0
LINE
  5
1DB
100
AcDbEntity
  8
0
  6
HIDDEN
 62
   174
100
AcDbLine
 10
206.964256
 20
132.549322
 30
0.0
 11
219.96418
 21
132.549322
 31
0.0
  0
LINE
  5
1DC
100
AcDbEntity
  8
0
  6
Continuous
 62
   174
100
AcDbLine
 10
223.44612
 20
121.049322
 30
0.0
 11
223.44612
 21
122.549322
 31
0.0
  0
ARC
  5
1DD
100
AcDbEntity
  8
0
  6
HIDDEN
 62
   174
100
AcDbCircle
 10
215.69612
 20
75.509322
 30
0.0
 40
0.75
100
AcDbArc
 50
-33.122263
 51
23.755474
  0
ARC
  5
1DE
100
AcDbEntity
  8
0
  6
HIDDEN
 62
   174
100
AcDbCircle
 10
215.69612
 20
75.509322
 30
0.0
 40
0.75
100
AcDbArc
 50
-41.512225
 51
-33.122263
  0
LINE
  5
1DF
100
AcDbEntity
  8
0
  6
Continuous
 62
   174
100
AcDbLine
 10
219.121042
 20
132.549322
 30
0.0
 11
207.807394
 21
132.549322
 31
0.0
  0
LINE
  5
1E0
100
AcDbEntity
  8
0
  6
HIDDEN
 62
   174
100
AcDbLine
 10
208.44612
 20
91.049322
 30
0.0
 11
207.09612
 21
89.699322
 31
0.0
  0
LINE
  5
1E1
100
AcDbEntity
  8
0
  6
Continuous
 62
   174
100
AcDbLine
 10
224.44612
 20
91.049322
 30
0.0
 11
224.44612
 21
121.049322
 31
0.0
  0
LINE
  5
1E2
100
AcDbEntity
  8
0
  6
Continuous
 62
   174
100
AcDbLine
 10
202.32112
 20
75.049322
 30
0.0
 11
202.32112
 21
91.049322
 31
0.0
  0
LINE
  5
1E3
100
AcDbEntity
  8
0
  6
HIDDEN
 62
   174
100
AcDbLine
 10
213.464218
 20
75.049322
 30
0.0
 11
211.342883
 21
75.049322
 31
0.0
  0
LINE
  5
1E4
100
AcDbEntity
  8
0
  6
HIDDEN
 62
   174
100
AcDbLine
 10
215.585554
 20
75.049322
 30
0.0
 11
213.464218
 21
75.049322
 31
0.0
  0
LINE
  5
1E5
100
AcDbEntity
  8
0
  6
Continuous
 62
   174
100
AcDbLine
 10
203.44612
 20
121.049322
 30
0.0
 11
203.44612
 21
122.549322
 31
0.0
  0
LINE
  5
1E6
100
AcDbEntity
  8
0
  6
HIDDEN
 62
   174
100
AcDbLine
 10
223.464193
 20
121.049322
 30
0.0
 11
203.464243
 21
121.049322
 31
0.0
  0
LINE
  5
1E7
100
AcDbEntity
  8
0
  6
Continuous
 62
   174
100
AcDbLine
 10
204.44612
 20
136.249322
 30
0.0
 11
204.44612
 21
135.549322
 31
0.0
  0
ARC
  5
1E8
100
AcDbEntity
  8
0
  6
Continuous
 62
   174
100
AcDbCircle
 10
213.44612
 20
80.049322
 30
0.0
 40
2.5
100
AcDbArc
 50
-348.463041
 51
-191.536959
  0
LINE
  5
1E9
100
AcDbEntity
  8
0
  6
Continuous
 62
   174
100
AcDbLine
 10
211.873323
 20
74.759322
 30
0.0
 11
211.214574
 21
74.759322
 31
0.0
  0
LINE
  5
1EA
100
AcDbEntity
  8
0
  6
Continuous
 62
   174
100
AcDbLine
 10
215.055114
 20
74.759322
 30
0.0
 11
213.464218
 21
74.759322
 31
0.0
  0
ARC
  5
1EB
100
AcDbEntity
  8
0
  6
HIDDEN
 62
   174
100
AcDbCircle
 10
211.19612
 20
75.509322
 30
0.0
 40
0.75
100
AcDbArc
 50
-90.0
 51
80.633211
  0
LINE
  5
1EC
100
AcDbEntity
  8
0
  6
Continuous
 62
   174
100
AcDbLine
 10
223.128578
 20
122.549322
 30
0.0
 11
223.128578
 21
128.749322
 31
0.0
  0
LINE
  5
1ED
100
AcDbEntity
  8
0
  6
Continuous
 62
   174
100
AcDbLine
 10
222.46428
 20
135.549322
 30
0.0
 11
221.798947
 21
135.549322
 31
0.0
  0
LINE
  5
1EE
100
AcDbEntity
  8
0
  6
Continuous
 62
   174
100
AcDbLine
 10
224.57112
 20
75.049322
 30
0.0
 11
224.57112
 21
91.049322
 31
0.0
  0
LINE
  5
1EF
100
AcDbEntity
  8
0
  6
Continuous
 62
   174
100
AcDbLine
 10
202.32112
 20
91.049322
 30
0.0
 11
202.44612
 21
91.049322
 31
0.0
  0
LINE
  5
1F0
100
AcDbEntity
  8
0
  6
HIDDEN
 62
   174
100
AcDbLine
 10
211.342883
 20
75.049322
 30
0.0
 11
210.516951
 21
75.049322
 31
0.0
  0
LINE
  5
1F1
100
AcDbEntity
  8
0
  6
Continuous
 62
   174
100
AcDbLine
 10
203.44612
 20
121.049322
 30
0.0
 11
203.44612
 21
122.549322
 31
0.0
  0
LINE
  5
1F2
100
AcDbEntity
  8
0
  6
Continuous
 62
   174
100
AcDbLine
 10
222.44612
 20
136.249322
 30
0.0
 11
222.44612
 21
135.549322
 31
0.0
  0
LINE
  5
1F3
100
AcDbEntity
  8
0
  6
Continuous
 62
   174
100
AcDbLine
 10
222.44612
 20
136.249322
 30
0.0
 11
222.44612
 21
135.549322
 31
0.0
  0
LINE
  5
1F4
100
AcDbEntity
  8
0
  6
Continuous
 62
   174
100
AcDbLine
 10
213.464218
 20
74.759322
 30
0.0
 11
211.873323
 21
74.759322
 31
0.0
  0
LINE
  5
1F5
100
AcDbEntity
  8
0
  6
HIDDEN
 62
   174
100
AcDbLine
 10
218.521225
 20
122.549322
 30
0.0
 11
218.521225
 21
128.749322
 31
0.0
  0
LINE
  5
1F6
100
AcDbEntity
  8
0
  6
HIDDEN
 62
   174
100
AcDbLine
 10
204.830911
 20
122.549322
 30
0.0
 11
204.830911
 21
128.749322
 31
0.0
  0
LINE
  5
1F7
100
AcDbEntity
  8
0
  6
Continuous
 62
   174
100
AcDbLine
 10
221.798947
 20
135.549322
 30
0.0
 11
220.068484
 21
135.549322
 31
0.0
  0
LINE
  5
1F8
100
AcDbEntity
  8
0
  6
Continuous
 62
   174
100
AcDbLine
 10
220.068484
 20
135.549322
 30
0.0
 11
219.828225
 21
135.549322
 31
0.0
  0
LINE
  5
1F9
100
AcDbEntity
  8
0
  6
Continuous
 62
   174
100
AcDbLine
 10
219.828225
 20
135.549322
 30
0.0
 11
213.464218
 21
135.549322
 31
0.0
  0
LINE
  5
1FA
100
AcDbEntity
  8
0
  6
Continuous
 62
   174
100
AcDbLine
 10
213.464218
 20
135.549322
 30
0.0
 11
207.100212
 21
135.549322
 31
0.0
  0
LINE
  5
1FB
100
AcDbEntity
  8
0
  6
Continuous
 62
   174
100
AcDbLine
 10
202.44612
 20
91.049322
 30
0.0
 11
224.44612
 21
91.049322
 31
0.0
  0
LINE
  5
1FC
100
AcDbEntity
  8
0
  6
HIDDEN
 62
   174
100
AcDbLine
 10
216.464168
 20
76.249322
 30
0.0
 11
213.464218
 21
76.249322
 31
0.0
  0
LINE
  5
1FD
100
AcDbEntity
  8
0
  6
HIDDEN
 62
   174
100
AcDbLine
 10
216.464168
 20
75.049322
 30
0.0
 11
216.411485
 21
75.049322
 31
0.0
  0
LINE
  5
1FE
100
AcDbEntity
  8
0
  6
Continuous
 62
   174
100
AcDbLine
 10
223.44612
 20
121.049322
 30
0.0
 11
223.44612
 21
122.549322
 31
0.0
  0
LINE
  5
1FF
100
AcDbEntity
  8
0
  6
Continuous
 62
   174
100
AcDbLine
 10
215.895609
 20
80.549322
 30
0.0
 11
210.99663
 21
80.549322
 31
0.0
  0
LINE
  5
200
100
AcDbEntity
  8
0
  6
Continuous
 62
   174
100
AcDbLine
 10
213.464218
 20
74.759322
 30
0.0
 11
211.873323
 21
74.759322
 31
0.0
  0
ARC
  5
201
100
AcDbEntity
  8
0
  6
Continuous
 62
   174
100
AcDbCircle
 10
211.19612
 20
75.509322
 30
0.0
 40
0.75
100
AcDbArc
 50
221.512225
 51
270.0
  0
LINE
  5
202
100
AcDbEntity
  8
0
  6
Continuous
 62
   174
100
AcDbLine
 10
215.604035
 20
74.759322
 30
0.0
 11
215.055114
 21
74.759322
 31
0.0
  0
ARC
  5
203
100
AcDbEntity
  8
0
  6
HIDDEN
 62
   174
100
AcDbCircle
 10
211.19612
 20
75.509322
 30
0.0
 40
0.75
100
AcDbArc
 50
99.366789
 51
156.244526
  0
ARC
  5
204
100
AcDbEntity
  8
0
  6
HIDDEN
 62
   174
100
AcDbCircle
 10
211.19612
 20
75.509322
 30
0.0
 40
0.75
100
AcDbArc
 50
156.244526
 51
213.122263
  0
LINE
  5
205
100
AcDbEntity
  8
0
  6
Continuous
 62
   174
100
AcDbLine
 10
215.956033
 20
122.549322
 30
0.0
 11
210.969004
 21
122.549322
 31
0.0
  0
LINE
  5
206
100
AcDbEntity
  8
0
  6
HIDDEN
 62
   174
100
AcDbLine
 10
210.44612
 20
75.049322
 30
0.0
 11
210.44612
 21
76.249322
 31
0.0
  0
LINE
  5
207
100
AcDbEntity
  8
0
  6
Continuous
 62
   174
100
AcDbLine
 10
207.100212
 20
135.549322
 30
0.0
 11
206.859952
 21
135.549322
 31
0.0
  0
LINE
  5
208
100
AcDbEntity
  8
0
  6
Continuous
 62
   174
100
AcDbLine
 10
206.859952
 20
135.549322
 30
0.0
 11
205.041756
 21
135.549322
 31
0.0
  0
LINE
  5
209
100
AcDbEntity
  8
0
  6
Continuous
 62
   174
100
AcDbLine
 10
202.32112
 20
75.049322
 30
0.0
 11
224.57112
 21
75.049322
 31
0.0
  0
LINE
  5
20A
100
AcDbEntity
  8
0
  6
HIDDEN
 62
   174
100
AcDbLine
 10
210.516951
 20
75.049322
 30
0.0
 11
210.464268
 21
75.049322
 31
0.0
  0
ARC
  5
20B
100
AcDbEntity
  8
0
  6
Continuous
 62
   174
100
AcDbCircle
 10
213.44612
 20
80.049322
 30
0.0
 40
3.0
100
AcDbArc
 50
0.0
 51
45.0
  0
ARC
  5
20C
100
AcDbEntity
  8
0
  6
Continuous
 62
   174
100
AcDbCircle
 10
213.44612
 20
80.049322
 30
0.0
 40
3.0
100
AcDbArc
 50
-225.0
 51
-180.0
  0
ARC
  5
20D
100
AcDbEntity
  8
0
  6
Continuous
 62
   174
100
AcDbCircle
 10
213.44612
 20
80.049322
 30
0.0
 40
3.0
100
AcDbArc
 50
-315.0
 51
-225.0
  0
ARC
  5
20E
100
AcDbEntity
  8
0
  6
Continuous
 62
   174
100
AcDbCircle
 10
213.44612
 20
80.049322
 30
0.0
 40
2.5
100
AcDbArc
 50
-168.463041
 51
-11.536959
  0
LINE
  5
20F
100
AcDbEntity
  8
0
  6
HIDDEN
 62
   174
100
AcDbLine
 10
215.592139
 20
76.249322
 30
0.0
 11
213.464218
 21
76.249322
 31
0.0
  0
LINE
  5
210
100
AcDbEntity
  8
0
  6
HIDDEN
 62
   174
100
AcDbLine
 10
216.44612
 20
75.049322
 30
0.0
 11
216.44612
 21
76.249322
 31
0.0
  0
LINE
  5
211
100
AcDbEntity
  8
0
  6
Continuous
 62
   174
100
AcDbLine
 10
210.950965
 20
122.549322
 30
0.0
 11
210.950965
 21
128.749322
 31
0.0
  0
LINE
  5
212
100
AcDbEntity
  8
0
  6
HIDDEN
 62
   174
100
AcDbLine
 10
208.374012
 20
122.549322
 30
0.0
 11
208.374012
 21
128.749322
 31
0.0
  0
LINE
  5
213
100
AcDbEntity
  8
0
  6
Continuous
 62
   174
100
AcDbLine
 10
204.832733
 20
122.549322
 30
0.0
 11
204.832733
 21
128.749322
 31
0.0
  0
LINE
  5
214
100
AcDbEntity
  8
0
  6
Continuous
 62
   174
100
AcDbLine
 10
204.44612
 20
136.249322
 30
0.0
 11
204.44612
 21
135.549322
 31
0.0
  0
LINE
  5
215
100
AcDbEntity
  8
0
  6
Continuous
 62
   174
100
AcDbLine
 10
215.055114
 20
74.759322
 30
0.0
 11
213.464218
 21
74.759322
 31
0.0
  0
ARC
  5
216
100
AcDbEntity
  8
0
  6
Continuous
 62
   174
100
AcDbCircle
 10
215.69612
 20
75.509322
 30
0.0
 40
0.75
100
AcDbArc
 50
-90.0
 51
-41.512225
  0
ARC
  5
217
100
AcDbEntity
  8
0
  6
HIDDEN
 62
   174
100
AcDbCircle
 10
215.69612
 20
75.509322
 30
0.0
 40
0.75
100
AcDbArc
 50
-336.244526
 51
-279.366789
  0
LINE
  5
218
100
AcDbEntity
  8
0
  6
Continuous
 62
   174
100
AcDbLine
 10
205.44612
 20
128.749322
 30
0.0
 11
205.44612
 21
132.549322
 31
0.0
  0
LINE
  5
219
100
AcDbEntity
  8
0
  6
HIDDEN
 62
   174
100
AcDbLine
 10
205.464281
 20
89.699322
 30
0.0
 11
203.81433
 21
89.699322
 31
0.0
  0
LINE
  5
21A
100
AcDbEntity
  8
0
  6
HIDDEN
 62
   174
100
AcDbLine
 10
202.464118
 20
91.049322
 30
0.0
 11
203.342945
 21
91.049322
 31
0.0
  0
LINE
  5
21B
100
AcDbEntity
  8
0
  6
HIDDEN
 62
   174
100
AcDbLine
 10
221.464155
 20
128.749322
 30
0.0
 11
219.936352
 21
128.749322
 31
0.0
  0
LINE
  5
21C
100
AcDbEntity
  8
0
  6
Continuous
 62
   174
100
AcDbLine
 10
219.94612
 20
135.549322
 30
0.0
 11
219.94612
 21
132.549322
 31
0.0
  0
LINE
  5
21D
100
AcDbEntity
  8
0
  6
Continuous
 62
   174
100
AcDbLine
 10
221.194992
 20
138.863553
 30
0.0
 11
221.194992
 21
136.249322
 31
0.0
  0
LWPOLYLINE
  5
21E
100
AcDbEntity
  8
0
  6
Continuous
 62
   174
100
AcDbPolyline
 90
        4
 70
   128
 10
213.536053
 20
138.863553
 10
213.094474
 20
139.293277
 10
212.643747
 20
139.690314
 10
212.182772
 20
140.049322
  0
LINE
  5
21F
100
AcDbEntity
  8
0
  6
HIDDEN
 62
   174
100
AcDbLine
 10
219.814204
 20
75.049322
 30
0.0
 11
221.464155
 21
75.049322
 31
0.0
  0
LINE
  5
220
100
AcDbEntity
  8
0
  6
Continuous
 62
   174
100
AcDbLine
 10
205.44612
 20
128.749322
 30
0.0
 11
205.44612
 21
132.549322
 31
0.0
  0
LINE
  5
221
100
AcDbEntity
  8
0
  6
Continuous
 62
   174
100
AcDbLine
 10
204.85078
 20
128.749322
 30
0.0
 11
203.780978
 21
128.749322
 31
0.0
  0
LWPOLYLINE
  5
222
100
AcDbEntity
  8
0
  6
Continuous
 62
   174
100
AcDbPolyline
 90
        4
 70
   128
 10
214.964191
 20
140.049322
 10
214.477213
 20
139.696251
 10
214.001513
 20
139.298828
 10
213.536053
 20
138.863553
  0
LINE
  5
223
100
AcDbEntity
  8
0
  6
Continuous
 62
   174
100
AcDbLine
 10
221.44612
 20
128.749322
 30
0.0
 11
221.44612
 21
132.549322
 31
0.0
  0
LINE
  5
224
100
AcDbEntity
  8
0
  6
HIDDEN
 62
   174
100
AcDbLine
 10
203.79612
 20
89.699322
 30
0.0
 11
203.79612
 21
75.049322
 31
0.0
  0
LWPOLYLINE
  5
225
100
AcDbEntity
  8
0
  6
HIDDEN
 62
   174
100
AcDbPolyline
 90
        4
 70
   128
 10
213.536053
 20
138.863602
 10
214.001491
 20
139.298856
 10
214.477171
 20
139.696265
 10
214.964123
 20
140.049322
  0
LWPOLYLINE
  5
226
100
AcDbEntity
  8
0
  6
Continuous
 62
   174
100
AcDbPolyline
 90
        4
 70
   128
 10
221.194992
 20
140.049322
 10
221.194992
 20
139.69032
 10
221.194992
 20
139.293287
 10
221.194992
 20
138.863553
  0
LINE
  5
227
100
AcDbEntity
  8
0
  6
HIDDEN
 62
   174
100
AcDbLine
 10
205.464281
 20
89.699322
 30
0.0
 11
203.81433
 21
89.699322
 31
0.0
  0
LINE
  5
228
100
AcDbEntity
  8
0
  6
HIDDEN
 62
   174
100
AcDbLine
 10
203.81433
 20
75.049322
 30
0.0
 11
205.464281
 21
75.049322
 31
0.0
  0
LINE
  5
229
100
AcDbEntity
  8
0
  6
HIDDEN
 62
   174
100
AcDbLine
 10
206.992084
 20
128.749322
 30
0.0
 11
205.464281
 21
128.749322
 31
0.0
  0
LINE
  5
22A
100
AcDbEntity
  8
0
  6
HIDDEN
 62
   174
100
AcDbLine
 10
219.79612
 20
89.699322
 30
0.0
 11
219.79612
 21
75.049322
 31
0.0
  0
LINE
  5
22B
100
AcDbEntity
  8
0
  6
HIDDEN
 62
   174
100
AcDbLine
 10
203.342945
 20
91.049322
 30
0.0
 11
205.464281
 21
91.049322
 31
0.0
  0
LINE
  5
22C
100
AcDbEntity
  8
0
  6
Continuous
 62
   174
100
AcDbLine
 10
206.94612
 20
135.549322
 30
0.0
 11
206.94612
 21
132.549322
 31
0.0
  0
LINE
  5
22D
100
AcDbEntity
  8
0
  6
HIDDEN
 62
   174
100
AcDbLine
 10
213.536053
 20
138.863602
 30
0.0
 11
213.536053
 21
136.249322
 31
0.0
  0
LINE
  5
22E
100
AcDbEntity
  8
0
  6
HIDDEN
 62
   174
100
AcDbLine
 10
223.585491
 20
91.049322
 30
0.0
 11
224.464318
 21
91.049322
 31
0.0
  0
LINE
  5
22F
100
AcDbEntity
  8
0
  6
HIDDEN
 62
   174
100
AcDbLine
 10
221.464155
 20
91.049322
 30
0.0
 11
223.585491
 21
91.049322
 31
0.0
  0
LINE
  5
230
100
AcDbEntity
  8
0
  6
HIDDEN
 62
   174
100
AcDbLine
 10
205.464281
 20
91.049322
 30
0.0
 11
208.464231
 21
91.049322
 31
0.0
  0
LINE
  5
231
100
AcDbEntity
  8
0
  6
HIDDEN
 62
   174
100
AcDbLine
 10
221.464155
 20
75.049322
 30
0.0
 11
223.114319
 21
75.049322
 31
0.0
  0
LWPOLYLINE
  5
232
100
AcDbEntity
  8
0
  6
HIDDEN
 62
   174
100
AcDbPolyline
 90
        4
 70
   128
 10
219.766923
 20
140.049322
 10
220.253877
 20
139.696263
 10
220.729554
 20
139.298857
 10
221.194992
 20
138.863602
  0
LINE
  5
233
100
AcDbEntity
  8
0
  6
HIDDEN
 62
   174
100
AcDbLine
 10
210.937694
 20
122.549322
 30
0.0
 11
215.95791
 21
122.549322
 31
0.0
  0
LINE
  5
234
100
AcDbEntity
  8
0
  6
HIDDEN
 62
   174
100
AcDbLine
 10
218.464206
 20
91.049322
 30
0.0
 11
221.464155
 21
91.049322
 31
0.0
  0
LINE
  5
235
100
AcDbEntity
  8
0
  6
HIDDEN
 62
   174
100
AcDbLine
 10
218.518858
 20
122.549322
 30
0.0
 11
222.064366
 21
122.549322
 31
0.0
  0
LINE
  5
236
100
AcDbEntity
  8
0
  6
HIDDEN
 62
   174
100
AcDbLine
 10
219.936352
 20
128.749322
 30
0.0
 11
218.773293
 21
128.749322
 31
0.0
  0
LINE
  5
237
100
AcDbEntity
  8
0
  6
Continuous
 62
   174
100
AcDbLine
 10
206.978701
 20
140.049322
 30
0.0
 11
205.625516
 21
140.049322
 31
0.0
  0
LINE
  5
238
100
AcDbEntity
  8
0
  6
HIDDEN
 62
   174
100
AcDbLine
 10
205.464281
 20
75.049322
 30
0.0
 11
207.114232
 21
75.049322
 31
0.0
  0
LWPOLYLINE
  5
239
100
AcDbEntity
  8
0
  6
HIDDEN
 62
   174
100
AcDbPolyline
 90
        4
 70
   128
 10
205.607313
 20
138.863602
 10
206.048873
 20
139.293307
 10
206.499579
 20
139.690326
 10
206.960532
 20
140.049322
  0
LINE
  5
23A
100
AcDbEntity
  8
0
  6
Continuous
 62
   174
100
AcDbLine
 10
221.44612
 20
128.749322
 30
0.0
 11
221.44612
 21
132.549322
 31
0.0
  0
LINE
  5
23B
100
AcDbEntity
  8
0
  6
Continuous
 62
   174
100
AcDbLine
 10
221.213062
 20
140.049322
 30
0.0
 11
219.784889
 21
140.049322
 31
0.0
  0
LWPOLYLINE
  5
23C
100
AcDbEntity
  8
0
  6
Continuous
 62
   174
100
AcDbPolyline
 90
        4
 70
   128
 10
221.194992
 20
138.863553
 10
220.729533
 20
139.298827
 10
220.253829
 20
139.696253
 10
219.766854
 20
140.049322
  0
LWPOLYLINE
  5
23D
100
AcDbEntity
  8
0
  6
Continuous
 62
   174
100
AcDbPolyline
 90
        4
 70
   128
 10
206.960595
 20
140.049322
 10
206.499628
 20
139.69032
 10
206.048904
 20
139.293287
 10
205.607313
 20
138.863553
  0
LINE
  5
23E
100
AcDbEntity
  8
0
  6
HIDDEN
 62
   174
100
AcDbLine
 10
208.152807
 20
128.749322
 30
0.0
 11
206.992084
 21
128.749322
 31
0.0
  0
LINE
  5
23F
100
AcDbEntity
  8
0
  6
Continuous
 62
   174
100
AcDbLine
 10
218.546629
 20
128.749322
 30
0.0
 11
215.956458
 21
128.749322
 31
0.0
  0
LINE
  5
240
100
AcDbEntity
  8
0
  6
HIDDEN
 62
   174
100
AcDbLine
 10
223.114319
 20
89.699322
 30
0.0
 11
221.464155
 21
89.699322
 31
0.0
  0
LINE
  5
241
100
AcDbEntity
  8
0
  6
HIDDEN
 62
   174
100
AcDbLine
 10
223.09612
 20
89.699322
 30
0.0
 11
223.09612
 21
75.049322
 31
0.0
  0
LINE
  5
242
100
AcDbEntity
  8
0
  6
HIDDEN
 62
   174
100
AcDbLine
 10
221.464155
 20
89.699322
 30
0.0
 11
219.814204
 21
89.699322
 31
0.0
  0
LINE
  5
243
100
AcDbEntity
  8
0
  6
HIDDEN
 62
   174
100
AcDbLine
 10
223.114319
 20
89.699322
 30
0.0
 11
221.464155
 21
89.699322
 31
0.0
  0
LINE
  5
244
100
AcDbEntity
  8
0
  6
Continuous
 62
   174
100
AcDbLine
 10
214.98225
 20
140.049322
 30
0.0
 11
212.200891
 21
140.049322
 31
0.0
  0
LINE
  5
245
100
AcDbEntity
  8
0
  6
HIDDEN
 62
   174
100
AcDbLine
 10
210.964543
 20
128.749322
 30
0.0
 11
208.152807
 21
128.749322
 31
0.0
  0
LINE
  5
246
100
AcDbEntity
  8
0
  6
HIDDEN
 62
   174
100
AcDbLine
 10
207.114232
 20
89.699322
 30
0.0
 11
205.464281
 21
89.699322
 31
0.0
  0
LINE
  5
247
100
AcDbEntity
  8
0
  6
Continuous
 62
   174
100
AcDbLine
 10
223.146609
 20
128.749322
 30
0.0
 11
222.075744
 21
128.749322
 31
0.0
  0
LINE
  5
248
100
AcDbEntity
  8
0
  6
HIDDEN
 62
   174
100
AcDbLine
 10
215.936277
 20
128.749322
 30
0.0
 11
210.964543
 21
128.749322
 31
0.0
  0
LINE
  5
249
100
AcDbEntity
  8
0
  6
HIDDEN
 62
   174
100
AcDbLine
 10
218.773293
 20
128.749322
 30
0.0
 11
215.936277
 21
128.749322
 31
0.0
  0
LINE
  5
24A
100
AcDbEntity
  8
0
  6
Continuous
 62
   174
100
AcDbLine
 10
210.968792
 20
128.749322
 30
0.0
 11
208.379046
 21
128.749322
 31
0.0
  0
LINE
  5
24B
100
AcDbEntity
  8
0
  6
HIDDEN
 62
   174
100
AcDbLine
 10
221.464155
 20
89.699322
 30
0.0
 11
219.814204
 21
89.699322
 31
0.0
  0
LINE
  5
24C
100
AcDbEntity
  8
0
  6
Continuous
 62
   174
100
AcDbLine
 10
213.536053
 20
138.863553
 30
0.0
 11
213.536053
 21
136.249322
 31
0.0
  0
LINE
  5
24D
100
AcDbEntity
  8
0
  6
Continuous
 62
   174
100
AcDbLine
 10
219.766854
 20
140.049322
 30
0.0
 11
214.964191
 21
140.049322
 31
0.0
  0
LINE
  5
24E
100
AcDbEntity
  8
0
  6
Continuous
 62
   174
100
AcDbLine
 10
206.94612
 20
135.549322
 30
0.0
 11
206.94612
 21
132.549322
 31
0.0
  0
LINE
  5
24F
100
AcDbEntity
  8
0
  6
Continuous
 62
   174
100
AcDbLine
 10
219.94612
 20
135.549322
 30
0.0
 11
219.94612
 21
132.549322
 31
0.0
  0
LWPOLYLINE
  5
250
100
AcDbEntity
  8
0
  6
Continuous
 62
   174
100
AcDbPolyline
 90
        4
 70
   128
 10
205.607313
 20
138.863553
 10
205.607313
 20
139.298827
 10
205.607313
 20
139.696253
 10
205.607313
 20
140.049322
  0
LINE
  5
251
100
AcDbEntity
  8
0
  6
Continuous
 62
   174
100
AcDbLine
 10
212.182772
 20
140.049322
 30
0.0
 11
206.960595
 21
140.049322
 31
0.0
  0
LINE
  5
252
100
AcDbEntity
  8
0
  6
HIDDEN
 62
   174
100
AcDbLine
 10
207.09612
 20
89.699322
 30
0.0
 11
207.09612
 21
75.049322
 31
0.0
  0
LINE
  5
253
100
AcDbEntity
  8
0
  6
HIDDEN
 62
   174
100
AcDbLine
 10
204.829636
 20
122.549322
 30
0.0
 11
208.37638
 21
122.549322
 31
0.0
  0
LINE
  5
254
100
AcDbEntity
  8
0
  6
HIDDEN
 62
   174
100
AcDbLine
 10
207.114232
 20
89.699322
 30
0.0
 11
205.464281
 21
89.699322
 31
0.0
  0
LWPOLYLINE
  5
255
100
AcDbEntity
  8
0
  6
HIDDEN
 62
   174
100
AcDbPolyline
 90
        4
 70
   128
 10
212.182835
 20
140.049322
 10
212.643779
 20
139.690333
 10
213.094482
 20
139.293317
 10
213.536053
 20
138.863602
  0
ENDBLK
  5
256
100
AcDbEntity
  8
0
100
AcDbBlockEnd
  0
BLOCK
  5
259
100
AcDbEntity
  8
0
100
AcDbBlockBegin
  2
*B5
 70
     0
 10
0.0
 20
0.0
 30
0.0
  3
*B5
  1

  0
LINE
  5
25A
100
AcDbEntity
  8
0
  6
Continuous
 62
   172
100
AcDbLine
 10
111.888049
 20
144.180061
 30
0.0
 11
100.676647
 21
144.180061
 31
0.0
  0
LINE
  5
25B
100
AcDbEntity
  8
0
  6
Continuous
 62
   172
100
AcDbLine
 10
127.173976
 20
118.185786
 30
0.0
 11
111.888049
 21
144.180061
 31
0.0
  0
ENDBLK
  5
25C
100
AcDbEntity
  8
0
100
AcDbBlockEnd
  0
BLOCK
  5
25F
100
AcDbEntity
  8
0
100
AcDbBlockBegin
  2
*B6
 70
     0
 10
0.0
 20
0.0
 30
0.0
  3
*B6
  1

  0
LINE
  5
260
100
AcDbEntity
  8
0
  6
Continuous
 62
   172
100
AcDbLine
 10
109.558508
 20
146.611471
 30
0.0
 11
107.158508
 21
147.493332
 31
0.0
  0
LINE
  5
261
100
AcDbEntity
  8
0
  6
Continuous
 62
   172
100
AcDbLine
 10
109.558508
 20
146.611471
 30
0.0
 11
107.158508
 21
145.893332
 31
0.0
  0
LINE
  5
262
100
AcDbEntity
  8
0
  6
Continuous
 62
   172
100
AcDbLine
 10
107.958508
 20
146.611471
 30
0.0
 11
109.558508
 21
146.611471
 31
0.0
  0
LINE
  5
263
100
AcDbEntity
  8
0
  6
Continuous
 62
   172
100
AcDbLine
 10
109.558508
 20
160.375192
 30
0.0
 11
107.158508
 21
159.493332
 31
0.0
  0
LINE
  5
264
100
AcDbEntity
  8
0
  6
Continuous
 62
   172
100
AcDbLine
 10
109.558508
 20
160.375192
 30
0.0
 11
107.158508
 21
161.093332
 31
0.0
  0
LINE
  5
265
100
AcDbEntity
  8
0
  6
Continuous
 62
   172
100
AcDbLine
 10
107.958508
 20
160.375192
 30
0.0
 11
109.558508
 21
160.375192
 31
0.0
  0
ARC
  5
266
100
AcDbEntity
  8
0
  6
Continuous
 62
   172
100
AcDbCircle
 10
107.958508
 20
153.493332
 30
0.0
 40
6.88186
100
AcDbArc
 50
-270.0
 51
-90.0
  0
ENDBLK
  5
267
100
AcDbEntity
  8
0
100
AcDbBlockEnd
  0
BLOCK
  5
26A
100
AcDbEntity
  8
0
100
AcDbBlockBegin
  2
*B7
 70
     0
 10
0.0
 20
0.0
 30
0.0
  3
*B7
  1

  0
ENDBLK
  5
26B
100
AcDbEntity
  8
0
100
AcDbBlockEnd
  0
BLOCK
  5
26D
100
AcDbEntity
  8
0
100
AcDbBlockBegin
  2
*B8
 70
     0
 10
0.0
 20
0.0
 30
0.0
  3
*B8
  1

  0
LINE
  5
26E
100
AcDbEntity
  8
0
  6
Continuous
 62
     0
100
AcDbLine
 10
142.583869
 20
62.014756
 30
0.0
 11
117.583932
 21
62.014756
 31
0.0
  0
SOLID
  5
26F
100
AcDbEntity
  8
0
  6
Continuous
 62
     0
100
AcDbTrace
 10
139.083856
 20
62.614661
 30
0.0
 11
135.583844
 21
62.014756
 31
0.0
 12
139.083856
 22
61.414639
 32
0.0
 13
139.083856
 23
61.414639
 33
0.0
  0
SOLID
  5
270
100
AcDbEntity
  8
0
  6
Continuous
 62
     0
100
AcDbTrace
 10
121.083944
 20
61.414639
 30
0.0
 11
124.583957
 21
62.014756
 31
0.0
 12
121.083944
 22
62.614661
 32
0.0
 13
121.083944
 23
62.614661
 33
0.0
  0
ENDBLK
  5
271
100
AcDbEntity
  8
0
100
AcDbBlockEnd
  0
BLOCK
  5
274
100
AcDbEntity
  8
0
100
AcDbBlockBegin
  2
*B9
 70
     0
 10
0.0
 20
0.0
 30
0.0
  3
*B9
  1

  0
LINE
  5
275
100
AcDbEntity
  8
0
  6
Continuous
 62
     0
100
AcDbLine
 10
137.583881
 20
50.015381
 30
0.0
 11
161.583906
 21
50.015381
 31
0.0
  0
SOLID
  5
276
100
AcDbEntity
  8
0
  6
Continuous
 62
     0
100
AcDbTrace
 10
141.083894
 20
49.415476
 30
0.0
 11
144.583906
 21
50.015381
 31
0.0
 12
141.083894
 22
50.615286
 32
0.0
 13
141.083894
 23
50.615286
 33
0.0
  0
SOLID
  5
277
100
AcDbEntity
  8
0
  6
Continuous
 62
     0
100
AcDbTrace
 10
158.083893
 20
50.615286
 30
0.0
 11
154.583881
 21
50.015381
 31
0.0
 12
158.083893
 22
49.415476
 32
0.0
 13
158.083893
 23
49.415476
 33
0.0
  0
ENDBLK
  5
278
100
AcDbEntity
  8
0
100
AcDbBlockEnd
  0
BLOCK
  5
27B
100
AcDbEntity
  8
0
100
AcDbBlockBegin
  2
*B10
 70
     0
 10
0.0
 20
0.0
 30
0.0
  3
*B10
  1

  0
LINE
  5
27C
100
AcDbEntity
  8
0
  6
Continuous
 62
     0
100
AcDbLine
 10
75.01808
 20
90.05373
 30
0.0
 11
75.01808
 21
68.054805
 31
0.0
  0
SOLID
  5
27D
100
AcDbEntity
  8
0
  6
Continuous
 62
     0
100
AcDbTrace
 10
74.418175
 20
86.55393
 30
0.0
 11
75.01808
 21
83.053918
 31
0.0
 12
75.618197
 22
86.55393
 32
0.0
 13
75.618197
 23
86.55393
 33
0.0
  0
SOLID
  5
27E
100
AcDbEntity
  8
0
  6
Continuous
 62
     0
100
AcDbTrace
 10
75.618197
 20
71.554605
 30
0.0
 11
75.01808
 21
75.054405
 31
0.0
 12
74.418175
 22
71.554605
 32
0.0
 13
74.418175
 23
71.554605
 33
0.0
  0
ENDBLK
  5
27F
100
AcDbEntity
  8
0
100
AcDbBlockEnd
  0
BLOCK
  5
282
100
AcDbEntity
  8
0
100
AcDbBlockBegin
  2
*B11
 70
     0
 10
0.0
 20
0.0
 30
0.0
  3
*B11
  1

  0
LINE
  5
283
100
AcDbEntity
  8
0
  6
Continuous
 62
     0
100
AcDbLine
 10
107.495798
 20
50.015381
 30
0.0
 11
85.24578
 21
50.015381
 31
0.0
  0
SOLID
  5
284
100
AcDbEntity
  8
0
  6
Continuous
 62
     0
100
AcDbTrace
 10
103.995786
 20
49.415476
 30
0.0
 11
107.495798
 21
50.015381
 31
0.0
 12
103.995786
 22
50.615286
 32
0.0
 13
103.995786
 23
50.615286
 33
0.0
  0
SOLID
  5
285
100
AcDbEntity
  8
0
  6
Continuous
 62
     0
100
AcDbTrace
 10
88.745793
 20
50.615286
 30
0.0
 11
85.24578
 21
50.015381
 31
0.0
 12
88.745793
 22
49.415476
 32
0.0
 13
88.745793
 23
49.415476
 33
0.0
  0
ENDBLK
  5
286
100
AcDbEntity
  8
0
100
AcDbBlockEnd
  0
BLOCK
  5
289
100
AcDbEntity
  8
0
100
AcDbBlockBegin
  2
*B12
 70
     0
 10
0.0
 20
0.0
 30
0.0
  3
*B12
  1

  0
LINE
  5
28A
100
AcDbEntity
  8
0
  6
Continuous
 62
     0
100
AcDbLine
 10
111.285991
 20
62.014756
 30
0.0
 11
87.270672
 21
62.014756
 31
0.0
  0
SOLID
  5
28B
100
AcDbEntity
  8
0
  6
Continuous
 62
     0
100
AcDbTrace
 10
101.970682
 20
62.614661
 30
0.0
 11
98.470669
 21
62.014756
 31
0.0
 12
101.970682
 22
61.414639
 32
0.0
 13
101.970682
 23
61.414639
 33
0.0
  0
SOLID
  5
28C
100
AcDbEntity
  8
0
  6
Continuous
 62
     0
100
AcDbTrace
 10
90.770684
 20
61.414639
 30
0.0
 11
94.270697
 21
62.014756
 31
0.0
 12
90.770684
 22
62.614661
 32
0.0
 13
90.770684
 23
62.614661
 33
0.0
  0
ENDBLK
  5
28D
100
AcDbEntity
  8
0
100
AcDbBlockEnd
  0
BLOCK
  5
290
100
AcDbEntity
  8
0
100
AcDbBlockBegin
  2
*B13
 70
     0
 10
0.0
 20
0.0
 30
0.0
  3
*B13
  1

  0
LINE
  5
291
100
AcDbEntity
  8
0
  6
Continuous
 62
     0
100
AcDbLine
 10
221.464155
 20
50.515444
 30
0.0
 11
205.464281
 21
50.515444
 31
0.0
  0
SOLID
  5
292
100
AcDbEntity
  8
0
  6
Continuous
 62
     0
100
AcDbTrace
 10
217.964143
 20
49.915326
 30
0.0
 11
221.464155
 21
50.515444
 31
0.0
 12
217.964143
 22
51.115349
 32
0.0
 13
217.964143
 23
51.115349
 33
0.0
  0
SOLID
  5
293
100
AcDbEntity
  8
0
  6
Continuous
 62
     0
100
AcDbTrace
 10
208.964293
 20
51.115349
 30
0.0
 11
205.464281
 21
50.515444
 31
0.0
 12
208.964293
 22
49.915326
 32
0.0
 13
208.964293
 23
49.915326
 33
0.0
  0
ENDBLK
  5
294
100
AcDbEntity
  8
0
100
AcDbBlockEnd
  0
BLOCK
  5
297
100
AcDbEntity
  8
0
100
AcDbBlockBegin
  2
*B14
 70
     0
 10
0.0
 20
0.0
 30
0.0
  3
*B14
  1

  0
LINE
  5
298
100
AcDbEntity
  8
0
  6
Continuous
 62
     0
100
AcDbLine
 10
185.784252
 20
62.014756
 30
0.0
 11
214.114257
 21
62.014756
 31
0.0
  0
SOLID
  5
299
100
AcDbEntity
  8
0
  6
Continuous
 62
     0
100
AcDbTrace
 10
200.314317
 20
61.414639
 30
0.0
 11
203.81433
 21
62.014756
 31
0.0
 12
200.314317
 22
62.614661
 32
0.0
 13
200.314317
 23
62.614661
 33
0.0
  0
SOLID
  5
29A
100
AcDbEntity
  8
0
  6
Continuous
 62
     0
100
AcDbTrace
 10
210.614244
 20
62.614661
 30
0.0
 11
207.114232
 21
62.014756
 31
0.0
 12
210.614244
 22
61.414639
 32
0.0
 13
210.614244
 23
61.414639
 33
0.0
  0
ENDBLK
  5
29B
100
AcDbEntity
  8
0
100
AcDbBlockEnd
  0
BLOCK
  5
29E
100
AcDbEntity
  8
0
100
AcDbBlockBegin
  2
*B15
 70
     0
 10
0.0
 20
0.0
 30
0.0
  3
*B15
  1

  0
LINE
  5
29F
100
AcDbEntity
  8
0
  6
Continuous
 62
     0
100
AcDbLine
 10
236.018013
 20
91.062352
 30
0.0
 11
236.018013
 21
75.063327
 31
0.0
  0
SOLID
  5
2A0
100
AcDbEntity
  8
0
  6
Continuous
 62
     0
100
AcDbTrace
 10
236.61813
 20
87.562552
 30
0.0
 11
236.018013
 21
91.062352
 31
0.0
 12
235.418108
 22
87.562552
 32
0.0
 13
235.418108
 23
87.562552
 33
0.0
  0
SOLID
  5
2A1
100
AcDbEntity
  8
0
  6
Continuous
 62
     0
100
AcDbTrace
 10
235.418108
 20
78.563127
 30
0.0
 11
236.018013
 21
75.063327
 31
0.0
 12
236.61813
 22
78.563127
 32
0.0
 13
236.61813
 23
78.563127
 33
0.0
  0
ENDBLK
  5
2A2
100
AcDbEntity
  8
0
100
AcDbBlockEnd
  0
BLOCK
  5
2A5
100
AcDbEntity
  8
0
100
AcDbBlockBegin
  2
*B16
 70
     0
 10
0.0
 20
0.0
 30
0.0
  3
*B16
  1

  0
LINE
  5
2A6
100
AcDbEntity
  8
0
  6
Continuous
 62
     0
100
AcDbLine
 10
193.018164
 20
91.053643
 30
0.0
 11
193.018164
 21
140.050842
 31
0.0
  0
SOLID
  5
2A7
100
AcDbEntity
  8
0
  6
Continuous
 62
     0
100
AcDbTrace
 10
192.418046
 20
94.553442
 30
0.0
 11
193.018164
 21
91.053643
 31
0.0
 12
193.618069
 22
94.553442
 32
0.0
 13
193.618069
 23
94.553442
 33
0.0
  0
SOLID
  5
2A8
100
AcDbEntity
  8
0
  6
Continuous
 62
     0
100
AcDbTrace
 10
193.618069
 20
136.551042
 30
0.0
 11
193.018164
 21
140.050842
 31
0.0
 12
192.418046
 22
136.551042
 32
0.0
 13
192.418046
 23
136.551042
 33
0.0
  0
ENDBLK
  5
2A9
100
AcDbEntity
  8
0
100
AcDbBlockEnd
  0
BLOCK
  5
2AC
100
AcDbEntity
  8
0
100
AcDbBlockBegin
  2
*B17
 70
     0
 10
0.0
 20
0.0
 30
0.0
  3
*B17
  1

  0
LINE
  5
2AD
100
AcDbEntity
  8
0
  6
Continuous
 62
     0
100
AcDbLine
 10
154.583881
 20
141.01018
 30
0.0
 11
124.583957
 21
141.01018
 31
0.0
  0
SOLID
  5
2AE
100
AcDbEntity
  8
0
  6
Continuous
 62
     0
100
AcDbTrace
 10
151.083869
 20
140.410275
 30
0.0
 11
154.583881
 21
141.01018
 31
0.0
 12
151.083869
 22
141.610298
 32
0.0
 13
151.083869
 23
141.610298
 33
0.0
  0
SOLID
  5
2AF
100
AcDbEntity
  8
0
  6
Continuous
 62
     0
100
AcDbTrace
 10
128.083969
 20
141.610298
 30
0.0
 11
124.583957
 21
141.01018
 31
0.0
 12
128.083969
 22
140.410275
 32
0.0
 13
128.083969
 23
140.410275
 33
0.0
  0
ENDBLK
  5
2B0
100
AcDbEntity
  8
0
100
AcDbBlockEnd
  0
BLOCK
  5
2B3
100
AcDbEntity
  8
0
100
AcDbBlockBegin
  2
*B18
 70
     0
 10
0.0
 20
0.0
 30
0.0
  3
*B18
  1

  0
LINE
  5
2B4
100
AcDbEntity
  8
0
  6
Continuous
 62
     0
100
AcDbLine
 10
182.583555
 20
154.009468
 30
0.0
 11
124.583957
 21
154.009468
 31
0.0
  0
SOLID
  5
2B5
100
AcDbEntity
  8
0
  6
Continuous
 62
     0
100
AcDbTrace
 10
179.083543
 20
153.409563
 30
0.0
 11
182.583555
 21
154.009468
 31
0.0
 12
179.083543
 22
154.609373
 32
0.0
 13
179.083543
 23
154.609373
 33
0.0
  0
SOLID
  5
2B6
100
AcDbEntity
  8
0
  6
Continuous
 62
     0
100
AcDbTrace
 10
128.083969
 20
154.609373
 30
0.0
 11
124.583957
 21
154.009468
 31
0.0
 12
128.083969
 22
153.409563
 32
0.0
 13
128.083969
 23
153.409563
 33
0.0
  0
ENDBLK
  5
2B7
100
AcDbEntity
  8
0
100
AcDbBlockEnd
  0
BLOCK
  5
2BA
100
AcDbEntity
  8
0
100
AcDbBlockBegin
  2
*B19
 70
     0
 10
0.0
 20
0.0
 30
0.0
  3
*B19
  1

  0
LINE
  5
2BB
100
AcDbEntity
  8
0
  6
Continuous
 62
     8
100
AcDbLine
 10
96.478067
 20
100.009944
 30
0.0
 11
96.478067
 21
104.909664
 31
0.0
  0
LINE
  5
2BC
100
AcDbEntity
  8
0
  6
Continuous
 62
     8
100
AcDbLine
 10
96.478067
 20
107.909401
 30
0.0
 11
96.478067
 21
112.809121
 31
0.0
  0
ENDBLK
  5
2BD
100
AcDbEntity
  8
0
100
AcDbBlockEnd
  0
BLOCK
  5
2C0
100
AcDbEntity
  8
0
100
AcDbBlockBegin
  2
*B20
 70
     0
 10
0.0
 20
0.0
 30
0.0
  3
*B20
  1

  0
LINE
  5
2C1
100
AcDbEntity
  8
0
  6
Continuous
 62
     8
100
AcDbLine
 10
225.58914
 20
75.063327
 30
0.0
 11
238.01805
 21
75.063327
 31
0.0
  0
ENDBLK
  5
2C2
100
AcDbEntity
  8
0
100
AcDbBlockEnd
  0
BLOCK
  5
2C5
100
AcDbEntity
  8
0
100
AcDbBlockBegin
  2
*B21
 70
     0
 10
0.0
 20
0.0
 30
0.0
  3
*B21
  1

  0
LINE
  5
2C6
100
AcDbEntity
  8
0
  6
Continuous
 62
     8
100
AcDbLine
 10
205.464281
 20
48.515406
 30
0.0
 11
205.464281
 21
52.515269
 31
0.0
  0
LINE
  5
2C7
100
AcDbEntity
  8
0
  6
Continuous
 62
     8
100
AcDbLine
 10
205.464281
 20
52.515269
 30
0.0
 11
205.464281
 21
58.424673
 31
0.0
  0
LINE
  5
2C8
100
AcDbEntity
  8
0
  6
Continuous
 62
     8
100
AcDbLine
 10
205.464281
 20
59.424798
 30
0.0
 11
205.464281
 21
60.42471
 31
0.0
  0
LINE
  5
2C9
100
AcDbEntity
  8
0
  6
Continuous
 62
     8
100
AcDbLine
 10
205.464281
 20
61.424623
 30
0.0
 11
205.464281
 21
67.334027
 31
0.0
  0
LINE
  5
2CA
100
AcDbEntity
  8
0
  6
Continuous
 62
     8
100
AcDbLine
 10
205.464281
 20
68.334152
 30
0.0
 11
205.464281
 21
69.334064
 31
0.0
  0
LINE
  5
2CB
100
AcDbEntity
  8
0
  6
Continuous
 62
     8
100
AcDbLine
 10
205.464281
 20
70.333977
 30
0.0
 11
205.464281
 21
76.243381
 31
0.0
  0
LINE
  5
2CC
100
AcDbEntity
  8
0
  6
Continuous
 62
     8
100
AcDbLine
 10
205.464281
 20
77.243506
 30
0.0
 11
205.464281
 21
78.243419
 31
0.0
  0
LINE
  5
2CD
100
AcDbEntity
  8
0
  6
Continuous
 62
     8
100
AcDbLine
 10
205.464281
 20
79.243331
 30
0.0
 11
205.464281
 21
85.152948
 31
0.0
  0
LINE
  5
2CE
100
AcDbEntity
  8
0
  6
Continuous
 62
     8
100
AcDbLine
 10
205.464281
 20
86.15286
 30
0.0
 11
205.464281
 21
87.152773
 31
0.0
  0
LINE
  5
2CF
100
AcDbEntity
  8
0
  6
Continuous
 62
     8
100
AcDbLine
 10
205.464281
 20
88.152685
 30
0.0
 11
205.464281
 21
94.062302
 31
0.0
  0
ENDBLK
  5
2D0
100
AcDbEntity
  8
0
100
AcDbBlockEnd
  0
BLOCK
  5
2D3
100
AcDbEntity
  8
0
100
AcDbBlockBegin
  2
*B22
 70
     0
 10
0.0
 20
0.0
 30
0.0
  3
*B22
  1

  0
LINE
  5
2D4
100
AcDbEntity
  8
0
  6
Continuous
 62
     8
100
AcDbLine
 10
107.495798
 20
48.015556
 30
0.0
 11
107.495798
 21
74.054493
 31
0.0
  0
ENDBLK
  5
2D5
100
AcDbEntity
  8
0
100
AcDbBlockEnd
  0
BLOCK
  5
2D8
100
AcDbEntity
  8
0
100
AcDbBlockBegin
  2
*B23
 70
     0
 10
0.0
 20
0.0
 30
0.0
  3
*B23
  1

  0
LINE
  5
2D9
100
AcDbEntity
  8
0
  6
Continuous
 62
     8
100
AcDbLine
 10
145.584031
 20
83.053918
 30
0.0
 11
150.083956
 21
83.053918
 31
0.0
  0
LINE
  5
2DA
100
AcDbEntity
  8
0
  6
Continuous
 62
     8
100
AcDbLine
 10
151.083869
 20
83.053918
 30
0.0
 11
152.083993
 21
83.053918
 31
0.0
  0
LINE
  5
2DB
100
AcDbEntity
  8
0
  6
Continuous
 62
     8
100
AcDbLine
 10
153.083906
 20
83.053918
 30
0.0
 11
157.583831
 21
83.053918
 31
0.0
  0
ENDBLK
  5
2DC
100
AcDbEntity
  8
0
100
AcDbBlockEnd
  0
BLOCK
  5
2DF
100
AcDbEntity
  8
0
100
AcDbBlockBegin
  2
*B24
 70
     0
 10
0.0
 20
0.0
 30
0.0
  3
*B24
  1

  0
LINE
  5
2E0
100
AcDbEntity
  8
0
  6
Continuous
 62
     8
100
AcDbLine
 10
73.018255
 20
83.053918
 30
0.0
 11
77.018117
 21
83.053918
 31
0.0
  0
LINE
  5
2E1
100
AcDbEntity
  8
0
  6
Continuous
 62
     8
100
AcDbLine
 10
77.018117
 20
83.053918
 30
0.0
 11
84.444491
 21
83.053918
 31
0.0
  0
LINE
  5
2E2
100
AcDbEntity
  8
0
  6
Continuous
 62
     8
100
AcDbLine
 10
85.444403
 20
83.053918
 30
0.0
 11
86.444528
 21
83.053918
 31
0.0
  0
LINE
  5
2E3
100
AcDbEntity
  8
0
  6
Continuous
 62
     8
100
AcDbLine
 10
87.444441
 20
83.053918
 30
0.0
 11
94.870814
 21
83.053918
 31
0.0
  0
LINE
  5
2E4
100
AcDbEntity
  8
0
  6
Continuous
 62
     8
100
AcDbLine
 10
97.870764
 20
83.053918
 30
0.0
 11
101.470832
 21
83.053918
 31
0.0
  0
ENDBLK
  5
2E5
100
AcDbEntity
  8
0
100
AcDbBlockEnd
  0
BLOCK
  5
2E8
100
AcDbEntity
  8
0
100
AcDbBlockBegin
  2
*B25
 70
     0
 10
0.0
 20
0.0
 30
0.0
  3
*B25
  1

  0
LINE
  5
2E9
100
AcDbEntity
  8
0
  6
Continuous
 62
     8
100
AcDbLine
 10
104.370727
 20
72.054668
 30
0.0
 11
104.370727
 21
77.387747
 31
0.0
  0
LINE
  5
2EA
100
AcDbEntity
  8
0
  6
Continuous
 62
     8
100
AcDbLine
 10
104.370727
 20
78.387659
 30
0.0
 11
104.370727
 21
79.387572
 31
0.0
  0
LINE
  5
2EB
100
AcDbEntity
  8
0
  6
Continuous
 62
     8
100
AcDbLine
 10
104.370727
 20
80.387484
 30
0.0
 11
104.370727
 21
85.720563
 31
0.0
  0
LINE
  5
2EC
100
AcDbEntity
  8
0
  6
Continuous
 62
     8
100
AcDbLine
 10
104.370727
 20
86.720476
 30
0.0
 11
104.370727
 21
87.720388
 31
0.0
  0
LINE
  5
2ED
100
AcDbEntity
  8
0
  6
Continuous
 62
     8
100
AcDbLine
 10
104.370727
 20
88.720301
 30
0.0
 11
104.370727
 21
94.05338
 31
0.0
  0
ENDBLK
  5
2EE
100
AcDbEntity
  8
0
100
AcDbBlockEnd
  0
BLOCK
  5
2F1
100
AcDbEntity
  8
0
100
AcDbBlockBegin
  2
*B26
 70
     0
 10
0.0
 20
0.0
 30
0.0
  3
*B26
  1

  0
LINE
  5
2F2
100
AcDbEntity
  8
0
  6
Continuous
 62
     8
100
AcDbLine
 10
94.270697
 20
60.014719
 30
0.0
 11
94.270697
 21
82.054005
 31
0.0
  0
ENDBLK
  5
2F3
100
AcDbEntity
  8
0
100
AcDbBlockEnd
  0
BLOCK
  5
2F6
100
AcDbEntity
  8
0
100
AcDbBlockBegin
  2
*B27
 70
     0
 10
0.0
 20
0.0
 30
0.0
  3
*B27
  1

  0
LINE
  5
2F7
100
AcDbEntity
  8
0
  6
Continuous
 62
     8
100
AcDbLine
 10
135.583844
 20
60.014719
 30
0.0
 11
135.583844
 21
64.014581
 31
0.0
  0
LINE
  5
2F8
100
AcDbEntity
  8
0
  6
Continuous
 62
     8
100
AcDbLine
 10
135.583844
 20
64.014581
 30
0.0
 11
135.583844
 21
69.856857
 31
0.0
  0
LINE
  5
2F9
100
AcDbEntity
  8
0
  6
Continuous
 62
     8
100
AcDbLine
 10
135.583844
 20
70.85677
 30
0.0
 11
135.583844
 21
71.856682
 31
0.0
  0
LINE
  5
2FA
100
AcDbEntity
  8
0
  6
Continuous
 62
     8
100
AcDbLine
 10
135.583844
 20
72.856595
 30
0.0
 11
135.583844
 21
78.698871
 31
0.0
  0
LINE
  5
2FB
100
AcDbEntity
  8
0
  6
Continuous
 62
     8
100
AcDbLine
 10
135.583844
 20
79.698783
 30
0.0
 11
135.583844
 21
80.698696
 31
0.0
  0
LINE
  5
2FC
100
AcDbEntity
  8
0
  6
Continuous
 62
     8
100
AcDbLine
 10
135.583844
 20
81.698608
 30
0.0
 11
135.583844
 21
87.540884
 31
0.0
  0
LINE
  5
2FD
100
AcDbEntity
  8
0
  6
Continuous
 62
     8
100
AcDbLine
 10
135.583844
 20
88.540797
 30
0.0
 11
135.583844
 21
89.540922
 31
0.0
  0
LINE
  5
2FE
100
AcDbEntity
  8
0
  6
Continuous
 62
     8
100
AcDbLine
 10
135.583844
 20
90.540834
 30
0.0
 11
135.583844
 21
96.38311
 31
0.0
  0
LINE
  5
2FF
100
AcDbEntity
  8
0
  6
Continuous
 62
     8
100
AcDbLine
 10
135.583844
 20
97.383023
 30
0.0
 11
135.583844
 21
98.382935
 31
0.0
  0
LINE
  5
300
100
AcDbEntity
  8
0
  6
Continuous
 62
     8
100
AcDbLine
 10
135.583844
 20
99.382848
 30
0.0
 11
135.583844
 21
105.225124
 31
0.0
  0
LINE
  5
301
100
AcDbEntity
  8
0
  6
Continuous
 62
     8
100
AcDbLine
 10
135.583844
 20
106.225036
 30
0.0
 11
135.583844
 21
107.224949
 31
0.0
  0
LINE
  5
302
100
AcDbEntity
  8
0
  6
Continuous
 62
     8
100
AcDbLine
 10
135.583844
 20
108.224861
 30
0.0
 11
135.583844
 21
114.067137
 31
0.0
  0
LINE
  5
303
100
AcDbEntity
  8
0
  6
Continuous
 62
     8
100
AcDbLine
 10
135.583844
 20
115.06705
 30
0.0
 11
135.583844
 21
116.066962
 31
0.0
  0
LINE
  5
304
100
AcDbEntity
  8
0
  6
Continuous
 62
     8
100
AcDbLine
 10
135.583844
 20
117.066875
 30
0.0
 11
135.583844
 21
122.909151
 31
0.0
  0
LINE
  5
305
100
AcDbEntity
  8
0
  6
Continuous
 62
     8
100
AcDbLine
 10
135.583844
 20
123.909064
 30
0.0
 11
135.583844
 21
124.909189
 31
0.0
  0
LINE
  5
306
100
AcDbEntity
  8
0
  6
Continuous
 62
     8
100
AcDbLine
 10
135.583844
 20
125.909101
 30
0.0
 11
135.583844
 21
131.751165
 31
0.0
  0
ENDBLK
  5
307
100
AcDbEntity
  8
0
100
AcDbBlockEnd
  0
BLOCK
  5
30A
100
AcDbEntity
  8
0
100
AcDbBlockBegin
  2
*B28
 70
     0
 10
0.0
 20
0.0
 30
0.0
  3
*B28
  1

  0
LINE
  5
30B
100
AcDbEntity
  8
0
  6
Continuous
 62
     8
100
AcDbLine
 10
124.583957
 20
60.014719
 30
0.0
 11
124.583957
 21
74.054493
 31
0.0
  0
LINE
  5
30C
100
AcDbEntity
  8
0
  6
Continuous
 62
     8
100
AcDbLine
 10
124.583957
 20
122.05178
 30
0.0
 11
124.583957
 21
156.009293
 31
0.0
  0
ENDBLK
  5
30D
100
AcDbEntity
  8
0
100
AcDbBlockEnd
  0
BLOCK
  5
310
100
AcDbEntity
  8
0
100
AcDbBlockBegin
  2
*B29
 70
     0
 10
0.0
 20
0.0
 30
0.0
  3
*B29
  1

  0
LINE
  5
311
100
AcDbEntity
  8
0
  6
Continuous
 62
     8
100
AcDbLine
 10
213.464218
 20
74.063415
 30
0.0
 11
213.464218
 21
78.563127
 31
0.0
  0
LINE
  5
312
100
AcDbEntity
  8
0
  6
Continuous
 62
     8
100
AcDbLine
 10
213.464218
 20
81.562865
 30
0.0
 11
213.464218
 21
87.134079
 31
0.0
  0
LINE
  5
313
100
AcDbEntity
  8
0
  6
Continuous
 62
     8
100
AcDbLine
 10
213.464218
 20
88.133991
 30
0.0
 11
213.464218
 21
89.133904
 31
0.0
  0
LINE
  5
314
100
AcDbEntity
  8
0
  6
Continuous
 62
     8
100
AcDbLine
 10
213.464218
 20
90.133816
 30
0.0
 11
213.464218
 21
95.705031
 31
0.0
  0
LINE
  5
315
100
AcDbEntity
  8
0
  6
Continuous
 62
     8
100
AcDbLine
 10
213.464218
 20
96.704943
 30
0.0
 11
213.464218
 21
97.704856
 31
0.0
  0
LINE
  5
316
100
AcDbEntity
  8
0
  6
Continuous
 62
     8
100
AcDbLine
 10
213.464218
 20
98.704768
 30
0.0
 11
213.464218
 21
104.275982
 31
0.0
  0
LINE
  5
317
100
AcDbEntity
  8
0
  6
Continuous
 62
     8
100
AcDbLine
 10
213.464218
 20
105.275895
 30
0.0
 11
213.464218
 21
106.275807
 31
0.0
  0
LINE
  5
318
100
AcDbEntity
  8
0
  6
Continuous
 62
     8
100
AcDbLine
 10
213.464218
 20
107.27572
 30
0.0
 11
213.464218
 21
112.846934
 31
0.0
  0
LINE
  5
319
100
AcDbEntity
  8
0
  6
Continuous
 62
     8
100
AcDbLine
 10
213.464218
 20
113.846847
 30
0.0
 11
213.464218
 21
114.846759
 31
0.0
  0
LINE
  5
31A
100
AcDbEntity
  8
0
  6
Continuous
 62
     8
100
AcDbLine
 10
213.464218
 20
115.846672
 30
0.0
 11
213.464218
 21
121.417886
 31
0.0
  0
LINE
  5
31B
100
AcDbEntity
  8
0
  6
Continuous
 62
     8
100
AcDbLine
 10
213.464218
 20
122.417798
 30
0.0
 11
213.464218
 21
123.417711
 31
0.0
  0
LINE
  5
31C
100
AcDbEntity
  8
0
  6
Continuous
 62
     8
100
AcDbLine
 10
213.464218
 20
124.417623
 30
0.0
 11
213.464218
 21
129.988837
 31
0.0
  0
LINE
  5
31D
100
AcDbEntity
  8
0
  6
Continuous
 62
     8
100
AcDbLine
 10
213.464218
 20
130.98875
 30
0.0
 11
213.464218
 21
131.988662
 31
0.0
  0
LINE
  5
31E
100
AcDbEntity
  8
0
  6
Continuous
 62
     8
100
AcDbLine
 10
213.464218
 20
132.988575
 30
0.0
 11
213.464218
 21
138.559789
 31
0.0
  0
ENDBLK
  5
31F
100
AcDbEntity
  8
0
100
AcDbBlockEnd
  0
BLOCK
  5
322
100
AcDbEntity
  8
0
100
AcDbBlockBegin
  2
*B30
 70
     0
 10
0.0
 20
0.0
 30
0.0
  3
*B30
  1

  0
LINE
  5
323
100
AcDbEntity
  8
0
  6
Continuous
 62
     8
100
AcDbLine
 10
144.583906
 20
48.015556
 30
0.0
 11
144.583906
 21
52.015206
 31
0.0
  0
LINE
  5
324
100
AcDbEntity
  8
0
  6
Continuous
 62
     8
100
AcDbLine
 10
144.583906
 20
52.015206
 30
0.0
 11
144.583906
 21
57.752966
 31
0.0
  0
LINE
  5
325
100
AcDbEntity
  8
0
  6
Continuous
 62
     8
100
AcDbLine
 10
144.583906
 20
58.752879
 30
0.0
 11
144.583906
 21
59.753004
 31
0.0
  0
LINE
  5
326
100
AcDbEntity
  8
0
  6
Continuous
 62
     8
100
AcDbLine
 10
144.583906
 20
60.752916
 30
0.0
 11
144.583906
 21
66.490676
 31
0.0
  0
LINE
  5
327
100
AcDbEntity
  8
0
  6
Continuous
 62
     8
100
AcDbLine
 10
144.583906
 20
67.490589
 30
0.0
 11
144.583906
 21
68.490501
 31
0.0
  0
LINE
  5
328
100
AcDbEntity
  8
0
  6
Continuous
 62
     8
100
AcDbLine
 10
144.583906
 20
69.490414
 30
0.0
 11
144.583906
 21
75.228174
 31
0.0
  0
LINE
  5
329
100
AcDbEntity
  8
0
  6
Continuous
 62
     8
100
AcDbLine
 10
144.583906
 20
76.228299
 30
0.0
 11
144.583906
 21
77.228211
 31
0.0
  0
LINE
  5
32A
100
AcDbEntity
  8
0
  6
Continuous
 62
     8
100
AcDbLine
 10
144.583906
 20
78.228124
 30
0.0
 11
144.583906
 21
83.965884
 31
0.0
  0
LINE
  5
32B
100
AcDbEntity
  8
0
  6
Continuous
 62
     8
100
AcDbLine
 10
144.583906
 20
84.965796
 30
0.0
 11
144.583906
 21
85.965709
 31
0.0
  0
LINE
  5
32C
100
AcDbEntity
  8
0
  6
Continuous
 62
     8
100
AcDbLine
 10
144.583906
 20
86.965621
 30
0.0
 11
144.583906
 21
92.703381
 31
0.0
  0
ENDBLK
  5
32D
100
AcDbEntity
  8
0
100
AcDbBlockEnd
  0
BLOCK
  5
330
100
AcDbEntity
  8
0
100
AcDbBlockBegin
  2
*B31
 70
     0
 10
0.0
 20
0.0
 30
0.0
  3
*B31
  1

  0
LINE
  5
331
100
AcDbEntity
  8
0
  6
Continuous
 62
     8
100
AcDbLine
 10
154.583881
 20
48.015556
 30
0.0
 11
154.583881
 21
74.054493
 31
0.0
  0
LINE
  5
332
100
AcDbEntity
  8
0
  6
Continuous
 62
     8
100
AcDbLine
 10
154.583881
 20
92.053555
 30
0.0
 11
154.583881
 21
143.010218
 31
0.0
  0
ENDBLK
  5
333
100
AcDbEntity
  8
0
100
AcDbBlockEnd
  0
BLOCK
  5
336
100
AcDbEntity
  8
0
100
AcDbBlockBegin
  2
*B32
 70
     0
 10
0.0
 20
0.0
 30
0.0
  3
*B32
  1

  0
LINE
  5
337
100
AcDbEntity
  8
0
  6
Continuous
 62
     8
100
AcDbLine
 10
73.018255
 20
75.054405
 30
0.0
 11
84.245655
 21
75.054405
 31
0.0
  0
ENDBLK
  5
338
100
AcDbEntity
  8
0
100
AcDbBlockEnd
  0
BLOCK
  5
33B
100
AcDbEntity
  8
0
100
AcDbBlockBegin
  2
*B33
 70
     0
 10
0.0
 20
0.0
 30
0.0
  3
*B33
  1

  0
LINE
  5
33C
100
AcDbEntity
  8
0
  6
Continuous
 62
     8
100
AcDbLine
 10
225.58914
 20
91.062352
 30
0.0
 11
238.01805
 21
91.062352
 31
0.0
  0
ENDBLK
  5
33D
100
AcDbEntity
  8
0
100
AcDbBlockEnd
  0
BLOCK
  5
340
100
AcDbEntity
  8
0
100
AcDbBlockBegin
  2
*B34
 70
     0
 10
0.0
 20
0.0
 30
0.0
  3
*B34
  1

  0
LINE
  5
341
100
AcDbEntity
  8
0
  6
Continuous
 62
     8
100
AcDbLine
 10
98.470669
 20
60.014719
 30
0.0
 11
98.470669
 21
82.054005
 31
0.0
  0
ENDBLK
  5
342
100
AcDbEntity
  8
0
100
AcDbBlockEnd
  0
BLOCK
  5
345
100
AcDbEntity
  8
0
100
AcDbBlockBegin
  2
*B35
 70
     0
 10
0.0
 20
0.0
 30
0.0
  3
*B35
  1

  0
LINE
  5
346
100
AcDbEntity
  8
0
  6
Continuous
 62
     8
100
AcDbLine
 10
96.370789
 20
72.054668
 30
0.0
 11
96.370789
 21
81.554155
 31
0.0
  0
LINE
  5
347
100
AcDbEntity
  8
0
  6
Continuous
 62
     8
100
AcDbLine
 10
96.370789
 20
84.553893
 30
0.0
 11
96.370789
 21
89.696421
 31
0.0
  0
LINE
  5
348
100
AcDbEntity
  8
0
  6
Continuous
 62
     8
100
AcDbLine
 10
96.370789
 20
90.696546
 30
0.0
 11
96.370789
 21
91.696459
 31
0.0
  0
LINE
  5
349
100
AcDbEntity
  8
0
  6
Continuous
 62
     8
100
AcDbLine
 10
96.370789
 20
92.696371
 30
0.0
 11
96.370789
 21
97.8389
 31
0.0
  0
LINE
  5
34A
100
AcDbEntity
  8
0
  6
Continuous
 62
     8
100
AcDbLine
 10
96.370789
 20
98.838812
 30
0.0
 11
96.370789
 21
99.838725
 31
0.0
  0
LINE
  5
34B
100
AcDbEntity
  8
0
  6
Continuous
 62
     8
100
AcDbLine
 10
96.370789
 20
100.838637
 30
0.0
 11
96.370789
 21
105.981378
 31
0.0
  0
LINE
  5
34C
100
AcDbEntity
  8
0
  6
Continuous
 62
     8
100
AcDbLine
 10
96.370789
 20
106.981291
 30
0.0
 11
96.370789
 21
107.981203
 31
0.0
  0
LINE
  5
34D
100
AcDbEntity
  8
0
  6
Continuous
 62
     8
100
AcDbLine
 10
96.370789
 20
108.981116
 30
0.0
 11
96.370789
 21
114.123644
 31
0.0
  0
LINE
  5
34E
100
AcDbEntity
  8
0
  6
Continuous
 62
     8
100
AcDbLine
 10
96.370789
 20
115.123557
 30
0.0
 11
96.370789
 21
116.123682
 31
0.0
  0
LINE
  5
34F
100
AcDbEntity
  8
0
  6
Continuous
 62
     8
100
AcDbLine
 10
96.370789
 20
117.123594
 30
0.0
 11
96.370789
 21
122.266123
 31
0.0
  0
LINE
  5
350
100
AcDbEntity
  8
0
  6
Continuous
 62
     8
100
AcDbLine
 10
96.370789
 20
123.266035
 30
0.0
 11
96.370789
 21
124.265948
 31
0.0
  0
LINE
  5
351
100
AcDbEntity
  8
0
  6
Continuous
 62
     8
100
AcDbLine
 10
96.370789
 20
125.26586
 30
0.0
 11
96.370789
 21
130.408601
 31
0.0
  0
LINE
  5
352
100
AcDbEntity
  8
0
  6
Continuous
 62
     8
100
AcDbLine
 10
96.370789
 20
131.408514
 30
0.0
 11
96.370789
 21
132.408426
 31
0.0
  0
LINE
  5
353
100
AcDbEntity
  8
0
  6
Continuous
 62
     8
100
AcDbLine
 10
96.370789
 20
133.408339
 30
0.0
 11
96.370789
 21
138.550867
 31
0.0
  0
ENDBLK
  5
354
100
AcDbEntity
  8
0
100
AcDbBlockEnd
  0
BLOCK
  5
357
100
AcDbEntity
  8
0
100
AcDbBlockBegin
  2
*B36
 70
     0
 10
0.0
 20
0.0
 30
0.0
  3
*B36
  1

  0
LINE
  5
358
100
AcDbEntity
  8
0
  6
Continuous
 62
     8
100
AcDbLine
 10
90.077947
 20
106.409426
 30
0.0
 11
94.978092
 21
106.409426
 31
0.0
  0
LINE
  5
359
100
AcDbEntity
  8
0
  6
Continuous
 62
     8
100
AcDbLine
 10
97.978042
 20
106.409426
 30
0.0
 11
102.877974
 21
106.409426
 31
0.0
  0
ENDBLK
  5
35A
100
AcDbEntity
  8
0
100
AcDbBlockEnd
  0
BLOCK
  5
35D
100
AcDbEntity
  8
0
100
AcDbBlockBegin
  2
*B37
 70
     0
 10
0.0
 20
0.0
 30
0.0
  3
*B37
  1

  0
LINE
  5
35E
100
AcDbEntity
  8
0
  6
Continuous
 62
     8
100
AcDbLine
 10
221.464155
 20
48.515406
 30
0.0
 11
221.464155
 21
52.515269
 31
0.0
  0
LINE
  5
35F
100
AcDbEntity
  8
0
  6
Continuous
 62
     8
100
AcDbLine
 10
221.464155
 20
52.515269
 30
0.0
 11
221.464155
 21
58.424673
 31
0.0
  0
LINE
  5
360
100
AcDbEntity
  8
0
  6
Continuous
 62
     8
100
AcDbLine
 10
221.464155
 20
59.424798
 30
0.0
 11
221.464155
 21
60.42471
 31
0.0
  0
LINE
  5
361
100
AcDbEntity
  8
0
  6
Continuous
 62
     8
100
AcDbLine
 10
221.464155
 20
61.424623
 30
0.0
 11
221.464155
 21
67.334027
 31
0.0
  0
LINE
  5
362
100
AcDbEntity
  8
0
  6
Continuous
 62
     8
100
AcDbLine
 10
221.464155
 20
68.334152
 30
0.0
 11
221.464155
 21
69.334064
 31
0.0
  0
LINE
  5
363
100
AcDbEntity
  8
0
  6
Continuous
 62
     8
100
AcDbLine
 10
221.464155
 20
70.333977
 30
0.0
 11
221.464155
 21
76.243381
 31
0.0
  0
LINE
  5
364
100
AcDbEntity
  8
0
  6
Continuous
 62
     8
100
AcDbLine
 10
221.464155
 20
77.243506
 30
0.0
 11
221.464155
 21
78.243419
 31
0.0
  0
LINE
  5
365
100
AcDbEntity
  8
0
  6
Continuous
 62
     8
100
AcDbLine
 10
221.464155
 20
79.243331
 30
0.0
 11
221.464155
 21
85.152948
 31
0.0
  0
LINE
  5
366
100
AcDbEntity
  8
0
  6
Continuous
 62
     8
100
AcDbLine
 10
221.464155
 20
86.15286
 30
0.0
 11
221.464155
 21
87.152773
 31
0.0
  0
LINE
  5
367
100
AcDbEntity
  8
0
  6
Continuous
 62
     8
100
AcDbLine
 10
221.464155
 20
88.152685
 30
0.0
 11
221.464155
 21
94.062302
 31
0.0
  0
ENDBLK
  5
368
100
AcDbEntity
  8
0
100
AcDbBlockEnd
  0
BLOCK
  5
36B
100
AcDbEntity
  8
0
100
AcDbBlockBegin
  2
*B38
 70
     0
 10
0.0
 20
0.0
 30
0.0
  3
*B38
  1

  0
LINE
  5
36C
100
AcDbEntity
  8
0
  6
Continuous
 62
     8
100
AcDbLine
 10
207.464318
 20
80.06289
 30
0.0
 11
211.964243
 21
80.06289
 31
0.0
  0
LINE
  5
36D
100
AcDbEntity
  8
0
  6
Continuous
 62
     8
100
AcDbLine
 10
214.964193
 20
80.06289
 30
0.0
 11
219.464118
 21
80.06289
 31
0.0
  0
ENDBLK
  5
36E
100
AcDbEntity
  8
0
100
AcDbBlockEnd
  0
BLOCK
  5
371
100
AcDbEntity
  8
0
100
AcDbBlockBegin
  2
*B39
 70
     0
 10
0.0
 20
0.0
 30
0.0
  3
*B39
  1

  0
LINE
  5
372
100
AcDbEntity
  8
0
  6
Continuous
 62
     8
100
AcDbLine
 10
207.114232
 20
60.014719
 30
0.0
 11
207.114232
 21
74.063415
 31
0.0
  0
ENDBLK
  5
373
100
AcDbEntity
  8
0
100
AcDbBlockEnd
  0
BLOCK
  5
376
100
AcDbEntity
  8
0
100
AcDbBlockBegin
  2
*B40
 70
     0
 10
0.0
 20
0.0
 30
0.0
  3
*B40
  1

  0
LINE
  5
377
100
AcDbEntity
  8
0
  6
Continuous
 62
     8
100
AcDbLine
 10
182.383233
 20
140.050842
 30
0.0
 11
195.018201
 21
140.050842
 31
0.0
  0
ENDBLK
  5
378
100
AcDbEntity
  8
0
100
AcDbBlockEnd
  0
BLOCK
  5
37B
100
AcDbEntity
  8
0
100
AcDbBlockBegin
  2
*B41
 70
     0
 10
0.0
 20
0.0
 30
0.0
  3
*B41
  1

  0
LINE
  5
37C
100
AcDbEntity
  8
0
  6
Continuous
 62
     8
100
AcDbLine
 10
155.584006
 20
91.053643
 30
0.0
 11
195.018201
 21
91.053643
 31
0.0
  0
ENDBLK
  5
37D
100
AcDbEntity
  8
0
100
AcDbBlockEnd
  0
BLOCK
  5
380
100
AcDbEntity
  8
0
100
AcDbBlockBegin
  2
*B42
 70
     0
 10
0.0
 20
0.0
 30
0.0
  3
*B42
  1

  0
LINE
  5
381
100
AcDbEntity
  8
0
  6
Continuous
 62
     8
100
AcDbLine
 10
173.583918
 20
114.55233
 30
0.0
 11
173.583918
 21
119.426983
 31
0.0
  0
LINE
  5
382
100
AcDbEntity
  8
0
  6
Continuous
 62
     8
100
AcDbLine
 10
173.583918
 20
120.426895
 30
0.0
 11
173.583918
 21
121.426808
 31
0.0
  0
LINE
  5
383
100
AcDbEntity
  8
0
  6
Continuous
 62
     8
100
AcDbLine
 10
173.583918
 20
122.42672
 30
0.0
 11
173.583918
 21
127.301586
 31
0.0
  0
LINE
  5
384
100
AcDbEntity
  8
0
  6
Continuous
 62
     8
100
AcDbLine
 10
173.583918
 20
128.301498
 30
0.0
 11
173.583918
 21
129.301411
 31
0.0
  0
LINE
  5
385
100
AcDbEntity
  8
0
  6
Continuous
 62
     8
100
AcDbLine
 10
173.583918
 20
130.301323
 30
0.0
 11
173.583918
 21
135.175977
 31
0.0
  0
LINE
  5
386
100
AcDbEntity
  8
0
  6
Continuous
 62
     8
100
AcDbLine
 10
173.583918
 20
136.176101
 30
0.0
 11
173.583918
 21
137.176014
 31
0.0
  0
LINE
  5
387
100
AcDbEntity
  8
0
  6
Continuous
 62
     8
100
AcDbLine
 10
173.583918
 20
138.175926
 30
0.0
 11
173.583918
 21
143.05058
 31
0.0
  0
ENDBLK
  5
388
100
AcDbEntity
  8
0
100
AcDbBlockEnd
  0
BLOCK
  5
38B
100
AcDbEntity
  8
0
100
AcDbBlockBegin
  2
*B43
 70
     0
 10
0.0
 20
0.0
 30
0.0
  3
*B43
  1

  0
LINE
  5
38C
100
AcDbEntity
  8
0
  6
Continuous
 62
     8
100
AcDbLine
 10
88.370852
 20
72.054668
 30
0.0
 11
88.370852
 21
77.387747
 31
0.0
  0
LINE
  5
38D
100
AcDbEntity
  8
0
  6
Continuous
 62
     8
100
AcDbLine
 10
88.370852
 20
78.387659
 30
0.0
 11
88.370852
 21
79.387572
 31
0.0
  0
LINE
  5
38E
100
AcDbEntity
  8
0
  6
Continuous
 62
     8
100
AcDbLine
 10
88.370852
 20
80.387484
 30
0.0
 11
88.370852
 21
85.720563
 31
0.0
  0
LINE
  5
38F
100
AcDbEntity
  8
0
  6
Continuous
 62
     8
100
AcDbLine
 10
88.370852
 20
86.720476
 30
0.0
 11
88.370852
 21
87.720388
 31
0.0
  0
LINE
  5
390
100
AcDbEntity
  8
0
  6
Continuous
 62
     8
100
AcDbLine
 10
88.370852
 20
88.720301
 30
0.0
 11
88.370852
 21
94.05338
 31
0.0
  0
ENDBLK
  5
391
100
AcDbEntity
  8
0
100
AcDbBlockEnd
  0
BLOCK
  5
394
100
AcDbEntity
  8
0
100
AcDbBlockBegin
  2
*B44
 70
     0
 10
0.0
 20
0.0
 30
0.0
  3
*B44
  1

  0
LINE
  5
395
100
AcDbEntity
  8
0
  6
Continuous
 62
     8
100
AcDbLine
 10
203.81433
 20
60.014719
 30
0.0
 11
203.81433
 21
74.063415
 31
0.0
  0
ENDBLK
  5
396
100
AcDbEntity
  8
0
100
AcDbBlockEnd
  0
BLOCK
  5
399
100
AcDbEntity
  8
0
100
AcDbBlockBegin
  2
*B45
 70
     0
 10
0.0
 20
0.0
 30
0.0
  3
*B45
  1

  0
LINE
  5
39A
100
AcDbEntity
  8
0
  6
Continuous
 62
     8
100
AcDbLine
 10
182.583555
 20
140.358017
 30
0.0
 11
182.583555
 21
156.009293
 31
0.0
  0
ENDBLK
  5
39B
100
AcDbEntity
  8
0
100
AcDbBlockEnd
  0
BLOCK
  5
39E
100
AcDbEntity
  8
0
100
AcDbBlockBegin
  2
*B46
 70
     0
 10
0.0
 20
0.0
 30
0.0
  3
*B46
  1

  0
LINE
  5
39F
100
AcDbEntity
  8
0
  6
Continuous
 62
     8
100
AcDbLine
 10
85.24578
 20
48.015556
 30
0.0
 11
85.24578
 21
74.054493
 31
0.0
  0
ENDBLK
  5
3A0
100
AcDbEntity
  8
0
100
AcDbBlockEnd
  0
BLOCK
  5
3A3
100
AcDbEntity
  8
0
100
AcDbBlockBegin
  2
*B47
 70
     0
 10
0.0
 20
0.0
 30
0.0
  3
*B47
  1

  0
LINE
  5
3A4
100
AcDbEntity
  8
0
  6
Continuous
 62
     6
100
AcDbLine
 10
213.464218
 20
79.56304
 30
0.0
 11
213.464218
 21
80.562952
 31
0.0
  0
LINE
  5
3A5
100
AcDbEntity
  8
0
  6
Continuous
 62
     6
100
AcDbLine
 10
212.964156
 20
80.06289
 30
0.0
 11
213.964281
 21
80.06289
 31
0.0
  0
ENDBLK
  5
3A6
100
AcDbEntity
  8
0
100
AcDbBlockEnd
  0
BLOCK
  5
3A9
100
AcDbEntity
  8
0
100
AcDbBlockBegin
  2
*B48
 70
     0
 10
0.0
 20
0.0
 30
0.0
  3
*B48
  1

  0
LINE
  5
3AA
100
AcDbEntity
  8
0
  6
Continuous
 62
     6
100
AcDbLine
 10
96.478067
 20
105.909576
 30
0.0
 11
96.478067
 21
106.909489
 31
0.0
  0
LINE
  5
3AB
100
AcDbEntity
  8
0
  6
Continuous
 62
     6
100
AcDbLine
 10
95.978004
 20
106.409426
 30
0.0
 11
96.978129
 21
106.409426
 31
0.0
  0
ENDBLK
  5
3AC
100
AcDbEntity
  8
0
100
AcDbBlockEnd
  0
BLOCK
  5
3AF
100
AcDbEntity
  8
0
100
AcDbBlockBegin
  2
*B49
 70
     0
 10
0.0
 20
0.0
 30
0.0
  3
*B49
  1

  0
LINE
  5
3B0
100
AcDbEntity
  8
0
  6
Continuous
 62
     6
100
AcDbLine
 10
213.464218
 20
139.559702
 30
0.0
 11
213.464218
 21
140.559614
 31
0.0
  0
LINE
  5
3B1
100
AcDbEntity
  8
0
  6
Continuous
 62
     6
100
AcDbLine
 10
212.964156
 20
140.059552
 30
0.0
 11
213.964281
 21
140.059552
 31
0.0
  0
ENDBLK
  5
3B2
100
AcDbEntity
  8
0
100
AcDbBlockEnd
  0
BLOCK
  5
3B5
100
AcDbEntity
  8
0
100
AcDbBlockBegin
  2
*B50
 70
     0
 10
0.0
 20
0.0
 30
0.0
  3
*B50
  1

  0
LINE
  5
3B6
100
AcDbEntity
  8
0
  6
Continuous
 62
     6
100
AcDbLine
 10
95.870727
 20
83.053918
 30
0.0
 11
96.870852
 21
83.053918
 31
0.0
  0
LINE
  5
3B7
100
AcDbEntity
  8
0
  6
Continuous
 62
     6
100
AcDbLine
 10
96.370789
 20
82.554068
 30
0.0
 11
96.370789
 21
83.55398
 31
0.0
  0
ENDBLK
  5
3B8
100
AcDbEntity
  8
0
100
AcDbBlockEnd
  0
BLOCK
  5
3BB
100
AcDbEntity
  8
0
100
AcDbBlockBegin
  2
*B51
 70
     0
 10
0.0
 20
0.0
 30
0.0
  3
*B51
  1

  0
TEXT
  5
3BC
100
AcDbEntity
  8
TEXT
  6
Continuous
 62
     0
100
AcDbText
 10
212.0886
 20
85.0
 30
0.0
 40
4.0
  1
1
100
AcDbText
  0
ENDBLK
  5
3BD
100
AcDbEntity
  8
0
100
AcDbBlockEnd
  0
BLOCK
  5
3C0
100
AcDbEntity
  8
0
100
AcDbBlockBegin
  2
*B52
 70
     0
 10
0.0
 20
0.0
 30
0.0
  3
*B52
  1

  0
TEXT
  5
3C1
100
AcDbEntity
  8
TEXT
  6
Continuous
 62
     0
100
AcDbText
 10
206.0886
 20
78.3
 30
0.0
 40
4.0
  1
0
100
AcDbText
  0
ENDBLK
  5
3C2
100
AcDbEntity
  8
0
100
AcDbBlockEnd
  0
BLOCK
  5
3C5
100
AcDbEntity
  8
0
100
AcDbBlockBegin
  2
*B53
 70
     0
 10
0.0
 20
0.0
 30
0.0
  3
*B53
  1

  0
TEXT
  5
3C6
100
AcDbEntity
  8
TEXT
  6
Continuous
 62
     0
100
AcDbText
 10
150.5886
 20
81.2
 30
0.0
 40
4.0
  1
2
100
AcDbText
  0
ENDBLK
  5
3C7
100
AcDbEntity
  8
0
100
AcDbBlockEnd
  0
BLOCK
  5
3CA
100
AcDbEntity
  8
0
100
AcDbBlockBegin
  2
*B54
 70
     0
 10
0.0
 20
0.0
 30
0.0
  3
*B54
  1

  0
TEXT
  5
3CB
100
AcDbEntity
  8
TEXT
  6
Continuous
 62
     0
100
AcDbText
 10
135.0886
 20
79.0
 30
0.0
 40
4.0
  1
1
100
AcDbText
  0
ENDBLK
  5
3CC
100
AcDbEntity
  8
0
100
AcDbBlockEnd
  0
BLOCK
  5
3CF
100
AcDbEntity
  8
0
100
AcDbBlockBegin
  2
*B55
 70
     0
 10
0.0
 20
0.0
 30
0.0
  3
*B55
  1

  0
TEXT
  5
3D0
100
AcDbEntity
  8
TEXT
  6
Continuous
 62
     0
100
AcDbText
 10
83.448699
 20
151.0
 30
0.0
 40
6.0
  1
180%%d
100
AcDbText
  0
ENDBLK
  5
3D1
100
AcDbEntity
  8
0
100
AcDbBlockEnd
  0
BLOCK
  5
3D4
100
AcDbEntity
  8
0
100
AcDbBlockBegin
  2
*B56
 70
     0
 10
0.0
 20
0.0
 30
0.0
  3
*B56
  1

  0
TEXT
  5
3D5
100
AcDbEntity
  8
TEXT
  6
Continuous
 62
     0
100
AcDbText
 10
127.208647
 20
63.5
 30
0.0
 40
3.0
  1
11
100
AcDbText
  0
ENDBLK
  5
3D6
100
AcDbEntity
  8
0
100
AcDbBlockEnd
  0
BLOCK
  5
3D9
100
AcDbEntity
  8
0
100
AcDbBlockBegin
  2
*B57
 70
     0
 10
0.0
 20
0.0
 30
0.0
  3
*B57
  1

  0
TEXT
  5
3DA
100
AcDbEntity
  8
TEXT
  6
Continuous
 62
     0
100
AcDbText
 10
146.708647
 20
51.5
 30
0.0
 40
3.0
  1
10
100
AcDbText
  0
ENDBLK
  5
3DB
100
AcDbEntity
  8
0
100
AcDbBlockEnd
  0
BLOCK
  5
3DE
100
AcDbEntity
  8
0
100
AcDbBlockBegin
  2
*B58
 70
     0
 10
0.0
 20
0.0
 30
0.0
  3
*B58
  1

  0
TEXT
  5
3DF
100
AcDbEntity
  8
TEXT
  6
Continuous
 62
     0
100
AcDbText
 10
73.5
 20
77.611945
 30
0.0
 40
3.0
  1
8
 50
90.0
100
AcDbText
  0
ENDBLK
  5
3E0
100
AcDbEntity
  8
0
100
AcDbBlockEnd
  0
BLOCK
  5
3E3
100
AcDbEntity
  8
0
100
AcDbBlockBegin
  2
*B59
 70
     0
 10
0.0
 20
0.0
 30
0.0
  3
*B59
  1

  0
TEXT
  5
3E4
100
AcDbEntity
  8
TEXT
  6
Continuous
 62
     0
100
AcDbText
 10
93.49546
 20
51.5
 30
0.0
 40
3.0
  1
22
100
AcDbText
  0
ENDBLK
  5
3E5
100
AcDbEntity
  8
0
100
AcDbBlockEnd
  0
BLOCK
  5
3E8
100
AcDbEntity
  8
0
100
AcDbBlockBegin
  2
*B60
 70
     0
 10
0.0
 20
0.0
 30
0.0
  3
*B60
  1

  0
TEXT
  5
3E9
100
AcDbEntity
  8
TEXT
  6
Continuous
 62
     0
100
AcDbText
 10
103.857143
 20
63.5
 30
0.0
 40
3.0
  1
M5
100
AcDbText
  0
ENDBLK
  5
3EA
100
AcDbEntity
  8
0
100
AcDbBlockEnd
  0
BLOCK
  5
3ED
100
AcDbEntity
  8
0
100
AcDbBlockBegin
  2
*B61
 70
     0
 10
0.0
 20
0.0
 30
0.0
  3
*B61
  1

  0
TEXT
  5
3EE
100
AcDbEntity
  8
TEXT
  6
Continuous
 62
     0
100
AcDbText
 10
210.588977
 20
52.0
 30
0.0
 40
3.0
  1
16
100
AcDbText
  0
ENDBLK
  5
3EF
100
AcDbEntity
  8
0
100
AcDbBlockEnd
  0
BLOCK
  5
3F2
100
AcDbEntity
  8
0
100
AcDbBlockBegin
  2
*B62
 70
     0
 10
0.0
 20
0.0
 30
0.0
  3
*B62
  1

  0
TEXT
  5
3F3
100
AcDbEntity
  8
TEXT
  6
Continuous
 62
     0
100
AcDbText
 10
186.891071
 20
63.5
 30
0.0
 40
3.0
  1
%%c3,3
100
AcDbText
  0
ENDBLK
  5
3F4
100
AcDbEntity
  8
0
100
AcDbBlockEnd
  0
BLOCK
  5
3F7
100
AcDbEntity
  8
0
100
AcDbBlockBegin
  2
*B63
 70
     0
 10
0.0
 20
0.0
 30
0.0
  3
*B63
  1

  0
TEXT
  5
3F8
100
AcDbEntity
  8
TEXT
  6
Continuous
 62
     0
100
AcDbText
 10
234.5
 20
80.192179
 30
0.0
 40
3.0
  1
16
 50
90.0
100
AcDbText
  0
ENDBLK
  5
3F9
100
AcDbEntity
  8
0
100
AcDbBlockEnd
  0
BLOCK
  5
3FC
100
AcDbEntity
  8
0
100
AcDbBlockBegin
  2
*B64
 70
     0
 10
0.0
 20
0.0
 30
0.0
  3
*B64
  1

  0
TEXT
  5
3FD
100
AcDbEntity
  8
TEXT
  6
Continuous
 62
     0
100
AcDbText
 10
191.5
 20
112.683374
 30
0.0
 40
3.0
  1
48
 50
90.0
100
AcDbText
  0
ENDBLK
  5
3FE
100
AcDbEntity
  8
0
100
AcDbBlockEnd
  0
BLOCK
  5
401
100
AcDbEntity
  8
0
100
AcDbBlockBegin
  2
*B65
 70
     0
 10
0.0
 20
0.0
 30
0.0
  3
*B65
  1

  0
TEXT
  5
402
100
AcDbEntity
  8
TEXT
  6
Continuous
 62
     0
100
AcDbText
 10
136.708647
 20
142.5
 30
0.0
 40
3.0
  1
30
100
AcDbText
  0
ENDBLK
  5
403
100
AcDbEntity
  8
0
100
AcDbBlockEnd
  0
BLOCK
  5
406
100
AcDbEntity
  8
0
100
AcDbBlockBegin
  2
*B66
 70
     0
 10
0.0
 20
0.0
 30
0.0
  3
*B66
  1

  0
TEXT
  5
407
100
AcDbEntity
  8
TEXT
  6
Continuous
 62
     0
100
AcDbText
 10
150.708422
 20
155.5
 30
0.0
 40
3.0
  1
58
100
AcDbText
  0
ENDBLK
  5
408
100
AcDbEntity
  8
0
100
AcDbBlockEnd
  0
ENDSEC
  0
SECTION
  2
ENTITIES
  0
INSERT
  5
129
100
AcDbEntity
  8
0
  6
HIDDEN
 62
   174
100
AcDbBlockReference
  2
*B2
 10
0.0
 20
0.0
 30
0.0
  0
INSERT
  5
1A8
100
AcDbEntity
  8
0
  6
Continuous
 62
   174
100
AcDbBlockReference
  2
*B3
 10
0.0
 20
0.0
 30
0.0
  0
INSERT
  5
257
100
AcDbEntity
  8
0
  6
HIDDEN
 62
   174
100
AcDbBlockReference
  2
*B4
 10
0.0
 20
0.0
 30
0.0
  0
INSERT
  5
25D
100
AcDbEntity
  8
0
  6
Continuous
 62
   172
100
AcDbBlockReference
  2
*B5
 10
0.0
 20
0.0
 30
0.0
  0
INSERT
  5
268
100
AcDbEntity
  8
0
  6
Continuous
 62
   172
100
AcDbBlockReference
  2
*B6
 10
0.0
 20
0.0
 30
0.0
  0
INSERT
  5
272
100
AcDbEntity
  8
0
  6
Continuous
 62
     0
100
AcDbBlockReference
  2
*B8
 10
0.0
 20
0.0
 30
0.0
  0
INSERT
  5
279
100
AcDbEntity
  8
0
  6
Continuous
 62
     0
100
AcDbBlockReference
  2
*B9
 10
0.0
 20
0.0
 30
0.0
  0
INSERT
  5
280
100
AcDbEntity
  8
0
  6
Continuous
 62
     0
100
AcDbBlockReference
  2
*B10
 10
0.0
 20
0.0
 30
0.0
  0
INSERT
  5
287
100
AcDbEntity
  8
0
  6
Continuous
 62
     0
100
AcDbBlockReference
  2
*B11
 10
0.0
 20
0.0
 30
0.0
  0
INSERT
  5
28E
100
AcDbEntity
  8
0
  6
Continuous
 62
     0
100
AcDbBlockReference
  2
*B12
 10
0.0
 20
0.0
 30
0.0
  0
INSERT
  5
295
100
AcDbEntity
  8
0
  6
Continuous
 62
     0
100
AcDbBlockReference
  2
*B13
 10
0.0
 20
0.0
 30
0.0
  0
INSERT
  5
29C
100
AcDbEntity
  8
0
  6
Continuous
 62
     0
100
AcDbBlockReference
  2
*B14
 10
0.0
 20
0.0
 30
0.0
  0
INSERT
  5
2A3
100
AcDbEntity
  8
0
  6
Continuous
 62
     0
100
AcDbBlockReference
  2
*B15
 10
0.0
 20
0.0
 30
0.0
  0
INSERT
  5
2AA
100
AcDbEntity
  8
0
  6
Continuous
 62
     0
100
AcDbBlockReference
  2
*B16
 10
0.0
 20
0.0
 30
0.0
  0
INSERT
  5
2B1
100
AcDbEntity
  8
0
  6
Continuous
 62
     0
100
AcDbBlockReference
  2
*B17
 10
0.0
 20
0.0
 30
0.0
  0
INSERT
  5
2B8
100
AcDbEntity
  8
0
  6
Continuous
 62
     0
100
AcDbBlockReference
  2
*B18
 10
0.0
 20
0.0
 30
0.0
  0
INSERT
  5
2BE
100
AcDbEntity
  8
0
  6
Continuous
 62
     8
100
AcDbBlockReference
  2
*B19
 10
0.0
 20
0.0
 30
0.0
  0
INSERT
  5
2C3
100
AcDbEntity
  8
0
  6
Continuous
 62
     8
100
AcDbBlockReference
  2
*B20
 10
0.0
 20
0.0
 30
0.0
  0
INSERT
  5
2D1
100
AcDbEntity
  8
0
  6
Continuous
 62
     8
100
AcDbBlockReference
  2
*B21
 10
0.0
 20
0.0
 30
0.0
  0
INSERT
  5
2D6
100
AcDbEntity
  8
0
  6
Continuous
 62
     8
100
AcDbBlockReference
  2
*B22
 10
0.0
 20
0.0
 30
0.0
  0
INSERT
  5
2DD
100
AcDbEntity
  8
0
  6
Continuous
 62
     8
100
AcDbBlockReference
  2
*B23
 10
0.0
 20
0.0
 30
0.0
  0
INSERT
  5
2E6
100
AcDbEntity
  8
0
  6
Continuous
 62
     8
100
AcDbBlockReference
  2
*B24
 10
0.0
 20
0.0
 30
0.0
  0
INSERT
  5
2EF
100
AcDbEntity
  8
0
  6
Continuous
 62
     8
100
AcDbBlockReference
  2
*B25
 10
0.0
 20
0.0
 30
0.0
  0
INSERT
  5
2F4
100
AcDbEntity
  8
0
  6
Continuous
 62
     8
100
AcDbBlockReference
  2
*B26
 10
0.0
 20
0.0
 30
0.0
  0
INSERT
  5
308
100
AcDbEntity
  8
0
  6
Continuous
 62
     8
100
AcDbBlockReference
  2
*B27
 10
0.0
 20
0.0
 30
0.0
  0
INSERT
  5
30E
100
AcDbEntity
  8
0
  6
Continuous
 62
     8
100
AcDbBlockReference
  2
*B28
 10
0.0
 20
0.0
 30
0.0
  0
INSERT
  5
320
100
AcDbEntity
  8
0
  6
Continuous
 62
     8
100
AcDbBlockReference
  2
*B29
 10
0.0
 20
0.0
 30
0.0
  0
INSERT
  5
32E
100
AcDbEntity
  8
0
  6
Continuous
 62
     8
100
AcDbBlockReference
  2
*B30
 10
0.0
 20
0.0
 30
0.0
  0
INSERT
  5
334
100
AcDbEntity
  8
0
  6
Continuous
 62
     8
100
AcDbBlockReference
  2
*B31
 10
0.0
 20
0.0
 30
0.0
  0
INSERT
  5
339
100
AcDbEntity
  8
0
  6
Continuous
 62
     8
100
AcDbBlockReference
  2
*B32
 10
0.0
 20
0.0
 30
0.0
  0
INSERT
  5
33E
100
AcDbEntity
  8
0
  6
Continuous
 62
     8
100
AcDbBlockReference
  2
*B33
 10
0.0
 20
0.0
 30
0.0
  0
INSERT
  5
343
100
AcDbEntity
  8
0
  6
Continuous
 62
     8
100
AcDbBlockReference
  2
*B34
 10
0.0
 20
0.0
 30
0.0
  0
INSERT
  5
355
100
AcDbEntity
  8
0
  6
Continuous
 62
     8
100
AcDbBlockReference
  2
*B35
 10
0.0
 20
0.0
 30
0.0
  0
INSERT
  5
35B
100
AcDbEntity
  8
0
  6
Continuous
 62
     8
100
AcDbBlockReference
  2
*B36
 10
0.0
 20
0.0
 30
0.0
  0
INSERT
  5
369
100
AcDbEntity
  8
0
  6
Continuous
 62
     8
100
AcDbBlockReference
  2
*B37
 10
0.0
 20
0.0
 30
0.0
  0
INSERT
  5
36F
100
AcDbEntity
  8
0
  6
Continuous
 62
     8
100
AcDbBlockReference
  2
*B38
 10
0.0
 20
0.0
 30
0.0
  0
INSERT
  5
374
100
AcDbEntity
  8
0
  6
Continuous
 62
     8
100
AcDbBlockReference
  2
*B39
 10
0.0
 20
0.0
 30
0.0
  0
INSERT
  5
379
100
AcDbEntity
  8
0
  6
Continuous
 62
     8
100
AcDbBlockReference
  2
*B40
 10
0.0
 20
0.0
 30
0.0
  0
INSERT
  5
37E
100
AcDbEntity
  8
0
  6
Continuous
 62
     8
100
AcDbBlockReference
  2
*B41
 10
0.0
 20
0.0
 30
0.0
  0
INSERT
  5
389
100
AcDbEntity
  8
0
  6
Continuous
 62
     8
100
AcDbBlockReference
  2
*B42
 10
0.0
 20
0.0
 30
0.0
  0
INSERT
  5
392
100
AcDbEntity
  8
0
  6
Continuous
 62
     8
100
AcDbBlockReference
  2
*B43
 10
0.0
 20
0.0
 30
0.0
  0
INSERT
  5
397
100
AcDbEntity
  8
0
  6
Continuous
 62
     8
100
AcDbBlockReference
  2
*B44
 10
0.0
 20
0.0
 30
0.0
  0
INSERT
  5
39C
100
AcDbEntity
  8
0
  6
Continuous
 62
     8
100
AcDbBlockReference
  2
*B45
 10
0.0
 20
0.0
 30
0.0
  0
INSERT
  5
3A1
100
AcDbEntity
  8
0
  6
Continuous
 62
     8
100
AcDbBlockReference
  2
*B46
 10
0.0
 20
0.0
 30
0.0
  0
INSERT
  5
3A7
100
AcDbEntity
  8
0
  6
Continuous
 62
     6
100
AcDbBlockReference
  2
*B47
 10
0.0
 20
0.0
 30
0.0
  0
INSERT
  5
3AD
100
AcDbEntity
  8
0
  6
Continuous
 62
     6
100
AcDbBlockReference
  2
*B48
 10
0.0
 20
0.0
 30
0.0
  0
INSERT
  5
3B3
100
AcDbEntity
  8
0
  6
Continuous
 62
     6
100
AcDbBlockReference
  2
*B49
 10
0.0
 20
0.0
 30
0.0
  0
INSERT
  5
3B9
100
AcDbEntity
  8
0
  6
Continuous
 62
     6
100
AcDbBlockReference
  2
*B50
 10
0.0
 20
0.0
 30
0.0
  0
INSERT
  5
3BE
100
AcDbEntity
  8
TEXT
  6
Continuous
 62
     0
100
AcDbBlockReference
  2
*B51
 10
0.0
 20
0.0
 30
0.0
  0
INSERT
  5
3C3
100
AcDbEntity
  8
TEXT
  6
Continuous
 62
     0
100
AcDbBlockReference
  2
*B52
 10
0.0
 20
0.0
 30
0.0
  0
INSERT
  5
3C8
100
AcDbEntity
  8
TEXT
  6
Continuous
 62
     0
100
AcDbBlockReference
  2
*B53
 10
0.0
 20
0.0
 30
0.0
  0
INSERT
  5
3CD
100
AcDbEntity
  8
TEXT
  6
Continuous
 62
     0
100
AcDbBlockReference
  2
*B54
 10
0.0
 20
0.0
 30
0.0
  0
INSERT
  5
3D2
100
AcDbEntity
  8
TEXT
  6
Continuous
 62
     0
100
AcDbBlockReference
  2
*B55
 10
0.0
 20
0.0
 30
0.0
  0
INSERT
  5
3D7
100
AcDbEntity
  8
TEXT
  6
Continuous
 62
     0
100
AcDbBlockReference
  2
*B56
 10
0.0
 20
0.0
 30
0.0
  0
INSERT
  5
3DC
100
AcDbEntity
  8
TEXT
  6
Continuous
 62
     0
100
AcDbBlockReference
  2
*B57
 10
0.0
 20
0.0
 30
0.0
  0
INSERT
  5
3E1
100
AcDbEntity
  8
TEXT
  6
Continuous
 62
     0
100
AcDbBlockReference
  2
*B58
 10
0.0
 20
0.0
 30
0.0
  0
INSERT
  5
3E6
100
AcDbEntity
  8
TEXT
  6
Continuous
 62
     0
100
AcDbBlockReference
  2
*B59
 10
0.0
 20
0.0
 30
0.0
  0
INSERT
  5
3EB
100
AcDbEntity
  8
TEXT
  6
Continuous
 62
     0
100
AcDbBlockReference
  2
*B60
 10
0.0
 20
0.0
 30
0.0
  0
INSERT
  5
3F0
100
AcDbEntity
  8
TEXT
  6
Continuous
 62
     0
100
AcDbBlockReference
  2
*B61
 10
0.0
 20
0.0
 30
0.0
  0
INSERT
  5
3F5
100
AcDbEntity
  8
TEXT
  6
Continuous
 62
     0
100
AcDbBlockReference
  2
*B62
 10
0.0
 20
0.0
 30
0.0
  0
INSERT
  5
3FA
100
AcDbEntity
  8
TEXT
  6
Continuous
 62
     0
100
AcDbBlockReference
  2
*B63
 10
0.0
 20
0.0
 30
0.0
  0
INSERT
  5
3FF
100
AcDbEntity
  8
TEXT
  6
Continuous
 62
     0
100
AcDbBlockReference
  2
*B64
 10
0.0
 20
0.0
 30
0.0
  0
INSERT
  5
404
100
AcDbEntity
  8
TEXT
  6
Continuous
 62
     0
100
AcDbBlockReference
  2
*B65
 10
0.0
 20
0.0
 30
0.0
  0
INSERT
  5
409
100
AcDbEntity
  8
TEXT
  6
Continuous
 62
     0
100
AcDbBlockReference
  2
*B66
 10
0.0
 20
0.0
 30
0.0
  0
ENDSEC
  0
SECTION
  2
OBJECTS
  0
DICTIONARY
  5
19
100
AcDbDictionary
280
     0
281
     1
  3
ACAD_GROUP
350
1A
  3
ACAD_MLINESTYLE
350
1B
  3
ACAD_LAYOUT
350
1E
  3
ACAD_PLOTSETTINGS
350
22
  3
ACAD_PLOTSTYLENAME
350
1F
  3
ACAD_WIPEOUT_VARS
350
23
  0
DICTIONARY
  5
1A
102
{ACAD_REACTORS
330
19
102
}
100
AcDbDictionary
280
     0
281
     1
  0
DICTIONARY
  5
1B
102
{ACAD_REACTORS
330
19
102
}
100
AcDbDictionary
280
     0
281
     1
  3
Standard
350
1C
  0
MLINESTYLE
  5
1C
102
{ACAD_REACTORS
330
1B
102
}
100
AcDbMlineStyle
  2
Standard
 70
     0
  3

 62
     0
 51
90.0
 52
90.0
 71
     2
 49
0.5
 62
   256
  6
BYLAYER
 49
-0.5
 62
   256
  6
BYLAYER
  0
ACDBDICTIONARYWDFLT
  5
1F
102
{ACAD_REACTORS
330
19
102
}
100
AcDbDictionary
281
     1
  3
Normal
350
1D
100
AcDbDictionaryWithDefault
340
1D
  0
ACDBPLACEHOLDER
  5
1D
102
{ACAD_REACTORS
330
1F
102
}
  0
LAYOUT
  5
20
102
{ACAD_REACTORS
330
1E
102
}
100
AcDbPlotSettings
  1

  2

  4

  6

 40
0.0
 41
0.0
 42
0.0
 43
0.0
 44
0.0
 45
0.0
 46
0.0
 47
0.0
 48
0.0
 49
0.0
140
0.0
141
0.0
142
1.0
143
1.0
 70
     0
 72
     0
 73
     0
 74
     0
  7

 75
     0
147
1.0
148
0.0
149
0.0
100
AcDbLayout
  1
Model
 70
     0
 71
     0
 10
0.0
 20
0.0
 11
0.0
 21
0.0
 12
0.0
 22
0.0
 32
0.0
 14
0.0
 24
0.0
 34
0.0
 15
0.0
 25
0.0
 35
0.0
146
0.0
 13
0.0
 23
0.0
 33
0.0
 16
0.0
 26
0.0
 36
0.0
 17
0.0
 27
0.0
 37
0.0
 76
     0
330
A
331
0
345
0
346
0
  0
LAYOUT
  5
21
102
{ACAD_REACTORS
330
1E
102
}
100
AcDbPlotSettings
  1

  2

  4

  6

 40
0.0
 41
0.0
 42
0.0
 43
0.0
 44
0.0
 45
0.0
 46
0.0
 47
0.0
 48
0.0
 49
0.0
140
0.0
141
0.0
142
1.0
143
1.0
 70
     0
 72
     0
 73
     0
 74
     0
  7

 75
     0
147
1.0
148
0.0
149
0.0
100
AcDbLayout
  1
Layout1
 70
     0
 71
     0
 10
0.0
 20
0.0
 11
0.0
 21
0.0
 12
0.0
 22
0.0
 32
0.0
 14
0.0
 24
0.0
 34
0.0
 15
0.0
 25
0.0
 35
0.0
146
0.0
 13
0.0
 23
0.0
 33
0.0
 16
0.0
 26
0.0
 36
0.0
 17
0.0
 27
0.0
 37
0.0
 76
     0
330
B
331
0
345
0
346
0
  0
DICTIONARY
  5
1E
102
{ACAD_REACTORS
330
19
102
}
100
AcDbDictionary
280
     0
281
     1
  3
Layout1
350
21
  3
Model
350
20
  0
DICTIONARY
  5
22
102
{ACAD_REACTORS
330
19
102
}
100
AcDbDictionary
280
     0
281
     1
  0
WIPEOUTVARIABLES
  5
23
100
AcDbWipeoutVariables
 70
     1
  0
ENDSEC
  0
EOF
