  0
SECTION
  2
HEADER
  9
$ACADVER
  1
AC1015
  9
$ACADMAINTVER
 70
     6
  9
$DWGCODEPAGE
  3
DOS850
  9
$INSBASE
 10
0.0
 20
0.0
 30
0.0
  9
$EXTMIN
 10
0.0
 20
0.0
 30
0.0
  9
$EXTMAX
 10
297.0
 20
210.0
 30
0.0
  9
$LIMMIN
 10
0.0
 20
0.0
  9
$LIMMAX
 10
297.0
 20
210.0
  9
$ORTHOMODE
 70
     0
  9
$REGENMODE
 70
     1
  9
$FILLMODE
 70
     1
  9
$QTEXTMODE
 70
     0
  9
$MIRRTEXT
 70
     1
  9
$LTSCALE
 40
25.4
  9
$ATTMODE
 70
     1
  9
$TEXTSIZE
 40
3.5
  9
$TRACEWID
 40
0.05
  9
$TEXTSTYLE
  7
Standard
  9
$CLAYER
  8
0
  9
$CELTYPE
  6
Continuous
  9
$CECOLOR
 62
   256
  9
$CELTSCALE
 40
1.0
  9
$DISPSILH
 70
     0
  9
$DIMSCALE
 40
1.0
  9
$DIMASZ
 40
5.0
  9
$DIMEXO
 40
3.0
  9
$DIMDLI
 40
0.38
  9
$DIMRND
 40
0.0
  9
$DIMDLE
 40
0.0
  9
$DIMEXE
 40
2.0
  9
$DIMTP
 40
0.0
  9
$DIMTM
 40
0.0
  9
$DIMTXT
 40
3.5
  9
$DIMCEN
 40
4.0
  9
$DIMTSZ
 40
0.0
  9
$DIMTOL
 70
     0
  9
$DIMLIM
 70
     0
  9
$DIMTIH
 70
     1
  9
$DIMTOH
 70
     1
  9
$DIMSE1
 70
     0
  9
$DIMSE2
 70
     0
  9
$DIMTAD
 70
     0
  9
$DIMZIN
 70
     0
  9
$DIMBLK
  1

  9
$DIMASO
 70
     1
  9
$DIMSHO
 70
     1
  9
$DIMPOST
  1

  9
$DIMAPOST
  1

  9
$DIMALT
 70
     0
  9
$DIMALTD
 70
     2
  9
$DIMALTF
 40
25.4
  9
$DIMLFAC
 40
1.0
  9
$DIMTOFL
 70
     0
  9
$DIMTVP
 40
0.0
  9
$DIMTIX
 70
     0
  9
$DIMSOXD
 70
     0
  9
$DIMSAH
 70
     0
  9
$DIMBLK1
  1

  9
$DIMBLK2
  1

  9
$DIMSTYLE
  2
Standard
  9
$DIMCLRD
 70
     0
  9
$DIMCLRE
 70
     0
  9
$DIMCLRT
 70
     0
  9
$DIMTFAC
 40
1.0
  9
$DIMGAP
 40
1.0
  9
$DIMJUST
 70
     0
  9
$DIMSD1
 70
     0
  9
$DIMSD2
 70
     0
  9
$DIMTOLJ
 70
     1
  9
$DIMTZIN
 70
     0
  9
$DIMALTZ
 70
     0
  9
$DIMALTTZ
 70
     0
  9
$DIMUPT
 70
     0
  9
$DIMDEC
 70
     4
  9
$DIMTDEC
 70
     4
  9
$DIMALTU
 70
     2
  9
$DIMALTTD
 70
     2
  9
$DIMTXSTY
  7
Standard
  9
$DIMAUNIT
 70
     0
  9
$DIMADEC
 70
     0
  9
$DIMALTRND
 40
0.0
  9
$DIMAZIN
 70
     0
  9
$DIMDSEP
 70
     0
  9
$DIMATFIT
 70
     3
  9
$DIMFRAC
 70
     0
  9
$DIMLDRBLK
  1

  9
$DIMLUNIT
 70
     2
  9
$DIMLWD
 70
     0
  9
$DIMLWE
 70
     0
  9
$DIMTMOVE
 70
     0
  9
$LUNITS
 70
     2
  9
$LUPREC
 70
     4
  9
$SKETCHINC
 40
0.1
  9
$FILLETRAD
 40
0.0
  9
$AUNITS
 70
     0
  9
$AUPREC
 70
     0
  9
$MENU
  1
acad
  9
$ELEVATION
 40
0.0
  9
$PELEVATION
 40
0.0
  9
$THICKNESS
 40
0.0
  9
$LIMCHECK
 70
     0
  9
$CHAMFERA
 40
0.0
  9
$CHAMFERB
 40
0.0
  9
$CHAMFERC
 40
0.0
  9
$CHAMFERD
 40
0.0
  9
$SKPOLY
 70
     0
  9
$TDCREATE
 40
0.000000000
  9
$TDUCREATE
 40
0.000000000
  9
$TDUPDATE
 40
0.000000000
  9
$TDUUPDATE
 40
0.000000000
  9
$TDINDWG
 40
0.0000000000
  9
$TDUSRTIMER
 40
0.0000000000
  9
$USRTIMER
 70
     1
  9
$ANGBASE
 50
0.0
  9
$ANGDIR
 70
     0
  9
$PDMODE
 70
     0
  9
$PDSIZE
 40
0.0
  9
$PLINEWID
 40
0.0
  9
$SPLFRAME
 70
     0
  9
$SPLINETYPE
 70
     6
  9
$SPLINESEGS
 70
     8
  9
$HANDSEED
  5
421
  9
$SURFTAB1
 70
     6
  9
$SURFTAB2
 70
     6
  9
$SURFTYPE
 70
     6
  9
$SURFU
 70
     6
  9
$SURFV
 70
     6
  9
$UCSBASE
  2

  9
$UCSNAME
  2

  9
$UCSORG
 10
0.0
 20
0.0
 30
0.0
  9
$UCSXDIR
 10
1.0
 20
0.0
 30
0.0
  9
$UCSYDIR
 10
0.0
 20
1.0
 30
0.0
  9
$UCSORTHOREF
  2

  9
$UCSORTHOVIEW
 70
     0
  9
$UCSORGTOP
 10
0.0
 20
0.0
 30
0.0
  9
$UCSORGBOTTOM
 10
0.0
 20
0.0
 30
0.0
  9
$UCSORGLEFT
 10
0.0
 20
0.0
 30
0.0
  9
$UCSORGRIGHT
 10
0.0
 20
0.0
 30
0.0
  9
$UCSORGFRONT
 10
0.0
 20
0.0
 30
0.0
  9
$UCSORGBACK
 10
0.0
 20
0.0
 30
0.0
  9
$PUCSBASE
  2

  9
$PUCSNAME
  2

  9
$PUCSORG
 10
0.0
 20
0.0
 30
0.0
  9
$PUCSXDIR
 10
1.0
 20
0.0
 30
0.0
  9
$PUCSYDIR
 10
0.0
 20
1.0
 30
0.0
  9
$PUCSORTHOREF
  2

  9
$PUCSORTHOVIEW
 70
     0
  9
$PUCSORGTOP
 10
0.0
 20
0.0
 30
0.0
  9
$PUCSORGBOTTOM
 10
0.0
 20
0.0
 30
0.0
  9
$PUCSORGLEFT
 10
0.0
 20
0.0
 30
0.0
  9
$PUCSORGRIGHT
 10
0.0
 20
0.0
 30
0.0
  9
$PUCSORGFRONT
 10
0.0
 20
0.0
 30
0.0
  9
$PUCSORGBACK
 10
0.0
 20
0.0
 30
0.0
  9
$USERI1
 70
     0
  9
$USERI2
 70
     0
  9
$USERI3
 70
     0
  9
$USERI4
 70
     0
  9
$USERI5
 70
     0
  9
$USERR1
 40
0.0
  9
$USERR2
 40
0.0
  9
$USERR3
 40
0.0
  9
$USERR4
 40
0.0
  9
$USERR5
 40
0.0
  9
$WORLDVIEW
 70
     1
  9
$SHADEDGE
 70
     3
  9
$SHADEDIF
 70
    70
  9
$TILEMODE
 70
     1
  9
$MAXACTVP
 70
    16
  9
$PINSBASE
 10
0.0
 20
0.0
 30
0.0
  9
$PLIMCHECK
 70
     0
  9
$PEXTMIN
 10
1.000000E+20
 20
1.000000E+20
 30
1.000000E+20
  9
$PEXTMAX
 10
-1.000000E+20
 20
-1.000000E+20
 30
-1.000000E+20
  9
$PLIMMIN
 10
0.0
 20
0.0
  9
$PLIMMAX
 10
297.0
 20
210.0
  9
$UNITMODE
 70
     0
  9
$VISRETAIN
 70
     0
  9
$PLINEGEN
 70
     1
  9
$PSLTSCALE
 70
     0
  9
$TREEDEPTH
 70
  3020
  9
$CMLSTYLE
  2
Standard
  9
$CMLJUST
 70
     0
  9
$CMLSCALE
 40
1.0
  9
$PROXYGRAPHICS
 70
     0
  9
$MEASUREMENT
 70
     0
  9
$CELWEIGHT
370
     0
  9
$ENDCAPS
280
     0
  9
$JOINSTYLE
280
     0
  9
$LWDISPLAY
290
     0
  9
$INSUNITS
 70
     0
  9
$HYPERLINKBASE
  1

  9
$XEDIT
290
     1
  9
$CEPSNTYPE
380
     0
  9
$PSTYLEMODE
290
     0
  9
$FINGERPRINTGUID
  2

  9
$VERSIONGUID
  2

  9
$EXTNAMES
290
     1
  9
$PSVPSCALE
 40
0.0
  0
ENDSEC
  0
SECTION
  2
CLASSES
  0
CLASS
  1
LWPOLYLINE
  2
AcDbPolyline
  3
"AutoCAD"
 90
        0
280
     0
281
     1
  0
CLASS
  1
IMAGE
  2
AcDbRasterImage
  3
ISM
 90
      127
280
     0
281
     1
  0
CLASS
  1
OLE2FRAME
  2
AcDbOle2Frame
  3
""
 90
        0
280
     0
281
     1
  0
CLASS
  1
HATCH
  2
AcDbHatch
  3
"ACAD_SEDONA"
 90
        0
280
     0
281
     1
  0
CLASS
  1
DICTIONARYVAR
  2
AcDbDictionaryVar
  3
"AutoCAD"
 90
        0
280
     0
281
     0
  0
CLASS
  1
RASTERVARIABLES
  2
AcDbRasterVariables
  3
ISM
 90
        0
280
     0
281
     0
  0
CLASS
  1
IMAGEDEF
  2
AcDbRasterImageDef
  3
ISM
 90
        0
280
     0
281
     0
  0
CLASS
  1
IMAGEDEF_REACTOR
  2
AcDbRasterImageDefReactor
  3
ISM
 90
        1
280
     0
281
     0
  0
CLASS
  1
IDBUFFER
  2
AcDbIdBuffer
  3
"Acad"
 90
        0
280
     0
281
     0
  0
CLASS
  1
SPATIAL_FILTER
  2
AcDbSpatialFilter
  3
"Acad"
 90
        0
280
     0
281
     0
  0
CLASS
  1
XRECORD
  2
AcDbXrecord
  3
"<Built In>"
 90
        0
280
     0
281
     0
  0
CLASS
  1
SORTENTSTABLE
  2
AcDbSortentsTable
  3
"AutoCAD"
 90
        0
280
     0
281
     0
  0
CLASS
  1
LAYER_INDEX
  2
AcDbLayerIndex
  3
"Acad"
 90
        0
280
     0
281
     0
  0
CLASS
  1
SPATIAL_INDEX
  2
AcDbSpatialIndex
  3
"Acad"
 90
        0
280
     0
281
     0
  0
CLASS
  1
OBJECT_PTR
  2
CAseDLPNTableRecord
  3
"ASE-LPNTableRecord"
 90
        1
280
     0
281
     0
  0
CLASS
  1
LAYOUT
  2
AcDbLayout
  3
"AutoCAD 2000"
 90
        1
280
     0
281
     0
  0
CLASS
  1
PLOTSETTINGS
  2
AcDbPlotSettings
  3
"AutoCAD 2000"
 90
        1
280
     0
281
     0
  0
CLASS
  1
ACDBDICTIONARYWDFLT
  2
AcDbDictionaryWithDefault
  3
"AutoCAD 2000"
 90
        1
280
     0
281
     0
  0
CLASS
  1
ACDBPLACEHOLDER
  2
AcDbPlaceHolder
  3
"AutoCAD 2000"
 90
        1
280
     0
281
     0
  0
CLASS
  1
VBA_PROJECT
  2
AcDbVbaProject
  3
"acadvba"
 90
        1
280
     0
281
     0
  0
CLASS
  1
WIPEOUT
  2
AcDbWipeout
  3
WipeOut|AutoCAD Express Tool|expresstools@autodesk.com
 90
      127
280
     0
281
     1
  0
CLASS
  1
WIPEOUTVARIABLES
  2
AcDbWipeoutVariables
  3
WipeOut|AutoCAD Express Tool|expresstools@autodesk.com
 90
        0
280
     0
281
     0
  0
CLASS
  1
RTEXT
  2
RText
  3
RText|AutoCAD Express Tool|expresstools@autodesk.com
 90
        0
280
     0
281
     1
  0
CLASS
  1
ARCALIGNEDTEXT
  2
AcDbArcAlignedText
  3
ATEXT|AutoCAD Express Tool|expresstools@autodesk.com
 90
        0
280
     0
281
     1
  0
ENDSEC
  0
SECTION
  2
TABLES
  0
TABLE
  2
VPORT
  5
7
100
AcDbSymbolTable
 70
     1
  0
VPORT
  5
15
100
AcDbSymbolTableRecord
100
AcDbViewportTableRecord
  2
*ACTIVE
 70
     0
 10
0.0
 20
0.0
 11
1.0
 21
1.0
 12
6.591288
 22
4.579184
 13
0.0
 23
0.0
 14
1.0
 24
1.0
 15
0.0
 25
0.0
 16
0.0
 26
0.0
 36
1.0
 17
0.0
 27
0.0
 37
0.0
 40
9.158369
 41
0.688564
 42
50.0
 43
0.0
 44
0.0
 50
0.0
 51
0.0
 71
     0
 72
   100
 73
     1
 74
     1
 75
     0
 76
     0
 77
     0
 78
     0
281
     0
 65
     0
110
0.0
120
0.0
130
0.0
111
1.0
121
0.0
131
0.0
112
0.0
122
1.0
132
0.0
345
0
346
0
 79
     0
146
0.0
  0
ENDTAB
  0
TABLE
  2
LTYPE
  5
4
100
AcDbSymbolTable
 70
     7
  0
LTYPE
  5
11
100
AcDbSymbolTableRecord
100
AcDbLinetypeTableRecord
  2
ByBlock
 70
    64
  3

 72
    65
 73
     0
 40
0.0
  0
LTYPE
  5
12
100
AcDbSymbolTableRecord
100
AcDbLinetypeTableRecord
  2
ByLayer
 70
    64
  3

 72
    65
 73
     0
 40
0.0
  0
LTYPE
  5
13
100
AcDbSymbolTableRecord
100
AcDbLinetypeTableRecord
  2
Continuous
 70
    64
  3
Solid line
 72
    65
 73
     0
 40
0.0
  0
LTYPE
  5
24
100
AcDbSymbolTableRecord
100
AcDbLinetypeTableRecord
  2
HIDDEN
 70
    64
  3
_ _ _ _ _ _ _ _ _ _ _ _ _ _ _ _ _ _ _ _ _ _ _ _
 72
    65
 73
     2
 40
0.1875
 49
0.125
 74
     0
 49
-0.0625
 74
     0
  0
LTYPE
  5
25
100
AcDbSymbolTableRecord
100
AcDbLinetypeTableRecord
  2
DOTTED
 70
    64
  3
...............................................
 72
    65
 73
     2
 40
0.125
 49
0.0
 74
     0
 49
-0.125
 74
     0
  0
LTYPE
  5
26
100
AcDbSymbolTableRecord
100
AcDbLinetypeTableRecord
  2
CENTER
 70
    64
  3
____ _ ____ _ ____ _ ____ _ ____ _ ____ _ ____ 
 72
    65
 73
     4
 40
1.125
 49
0.75
 74
     0
 49
-0.125
 74
     0
 49
0.125
 74
     0
 49
-0.125
 74
     0
  0
LTYPE
  5
27
100
AcDbSymbolTableRecord
100
AcDbLinetypeTableRecord
  2
PHANTOM
 70
    64
  3
______  __  __  ______  __  __  ______  __  __ 
 72
    65
 73
     6
 40
1.25
 49
0.625
 74
     0
 49
-0.125
 74
     0
 49
0.125
 74
     0
 49
-0.125
 74
     0
 49
0.125
 74
     0
 49
-0.125
 74
     0
  0
ENDTAB
  0
TABLE
  2
LAYER
  5
2
100
AcDbSymbolTable
 70
     2
  0
LAYER
  5
14
100
AcDbSymbolTableRecord
100
AcDbLayerTableRecord
  2
0
 70
     0
 62
     7
  6
Continuous
290
     1
370
    -3
390
1D
  0
LAYER
  5
28
100
AcDbSymbolTableRecord
100
AcDbLayerTableRecord
  2
TEXT
 70
     0
 62
     8
  6
Continuous
290
     1
370
    -3
390
1F
  0
ENDTAB
  0
TABLE
  2
STYLE
  5
3
100
AcDbSymbolTable
 70
     1
  0
STYLE
  5
17
100
AcDbSymbolTableRecord
100
AcDbTextStyleTableRecord
  2
Standard
 70
     0
 40
0.0
 41
1.0
 50
0.0
 71
     0
 42
0.0
  3
txt
  4

  0
ENDTAB
  0
TABLE
  2
VIEW
  5
5
100
AcDbSymbolTable
 70
     0
  0
ENDTAB
  0
TABLE
  2
UCS
  5
6
100
AcDbSymbolTable
 70
     0
  0
ENDTAB
  0
TABLE
  2
APPID
  5
8
100
AcDbSymbolTable
 70
     1
  0
APPID
  5
16
100
AcDbSymbolTableRecord
100
AcDbRegAppTableRecord
  2
ACAD
 70
     0
  0
ENDTAB
  0
TABLE
  2
DIMSTYLE
  5
9
100
AcDbSymbolTable
 70
     1
100
AcDbDimStyleTable
 71
     0
  0
DIMSTYLE
105
18
100
AcDbSymbolTableRecord
100
AcDbDimStyleTableRecord
  2
Standard
 70
     0
  3

  4

 40
1.0
 41
0.18
 42
0.0625
 43
0.38
 44
0.18
 45
0.0
 46
0.0
 47
0.0
 48
0.0
 71
     0
 72
     0
 73
     1
 74
     1
 75
     0
 76
     0
 77
     0
 78
     0
 79
     0
140
0.18
141
0.09
142
0.0
143
25.4
144
1.0
145
0.0
146
1.0
147
0.09
148
0.0
170
     0
171
     2
172
     0
173
     0
174
     0
175
     0
176
     0
177
     0
178
     0
179
     0
271
     4
272
     4
273
     2
274
     2
275
     0
276
     0
277
     2
278
    46
279
     0
280
     0
281
     0
282
     0
283
     1
284
     0
285
     0
286
     0
288
     0
340
17
341
0
342
0
343
0
344
0
371
    -2
372
    -2
  0
ENDTAB
  0
TABLE
  2
BLOCK_RECORD
  5
1
100
AcDbSymbolTable
 70
    66
  0
BLOCK_RECORD
  5
A
100
AcDbSymbolTableRecord
100
AcDbBlockTableRecord
  2
*MODEL_SPACE
340
20
  0
BLOCK_RECORD
  5
B
100
AcDbSymbolTableRecord
100
AcDbBlockTableRecord
  2
*PAPER_SPACE
340
21
  0
BLOCK_RECORD
  5
29
100
AcDbSymbolTableRecord
100
AcDbBlockTableRecord
  2
*B0
340
0
  0
BLOCK_RECORD
  5
2C
100
AcDbSymbolTableRecord
100
AcDbBlockTableRecord
  2
*B1
340
0
  0
BLOCK_RECORD
  5
2F
100
AcDbSymbolTableRecord
100
AcDbBlockTableRecord
  2
*B2
340
0
  0
BLOCK_RECORD
  5
35
100
AcDbSymbolTableRecord
100
AcDbBlockTableRecord
  2
*B3
340
0
  0
BLOCK_RECORD
  5
40
100
AcDbSymbolTableRecord
100
AcDbBlockTableRecord
  2
*B4
340
0
  0
BLOCK_RECORD
  5
43
100
AcDbSymbolTableRecord
100
AcDbBlockTableRecord
  2
*B5
340
0
  0
BLOCK_RECORD
  5
160
100
AcDbSymbolTableRecord
100
AcDbBlockTableRecord
  2
*B6
340
0
  0
BLOCK_RECORD
  5
1D4
100
AcDbSymbolTableRecord
100
AcDbBlockTableRecord
  2
*B7
340
0
  0
BLOCK_RECORD
  5
283
100
AcDbSymbolTableRecord
100
AcDbBlockTableRecord
  2
*B8
340
0
  0
BLOCK_RECORD
  5
28A
100
AcDbSymbolTableRecord
100
AcDbBlockTableRecord
  2
*B9
340
0
  0
BLOCK_RECORD
  5
291
100
AcDbSymbolTableRecord
100
AcDbBlockTableRecord
  2
*B10
340
0
  0
BLOCK_RECORD
  5
298
100
AcDbSymbolTableRecord
100
AcDbBlockTableRecord
  2
*B11
340
0
  0
BLOCK_RECORD
  5
29F
100
AcDbSymbolTableRecord
100
AcDbBlockTableRecord
  2
*B12
340
0
  0
BLOCK_RECORD
  5
2A6
100
AcDbSymbolTableRecord
100
AcDbBlockTableRecord
  2
*B13
340
0
  0
BLOCK_RECORD
  5
2AD
100
AcDbSymbolTableRecord
100
AcDbBlockTableRecord
  2
*B14
340
0
  0
BLOCK_RECORD
  5
2B4
100
AcDbSymbolTableRecord
100
AcDbBlockTableRecord
  2
*B15
340
0
  0
BLOCK_RECORD
  5
2BB
100
AcDbSymbolTableRecord
100
AcDbBlockTableRecord
  2
*B16
340
0
  0
BLOCK_RECORD
  5
2C2
100
AcDbSymbolTableRecord
100
AcDbBlockTableRecord
  2
*B17
340
0
  0
BLOCK_RECORD
  5
2C9
100
AcDbSymbolTableRecord
100
AcDbBlockTableRecord
  2
*B18
340
0
  0
BLOCK_RECORD
  5
2D0
100
AcDbSymbolTableRecord
100
AcDbBlockTableRecord
  2
*B19
340
0
  0
BLOCK_RECORD
  5
2D5
100
AcDbSymbolTableRecord
100
AcDbBlockTableRecord
  2
*B20
340
0
  0
BLOCK_RECORD
  5
2DA
100
AcDbSymbolTableRecord
100
AcDbBlockTableRecord
  2
*B21
340
0
  0
BLOCK_RECORD
  5
2DF
100
AcDbSymbolTableRecord
100
AcDbBlockTableRecord
  2
*B22
340
0
  0
BLOCK_RECORD
  5
2F0
100
AcDbSymbolTableRecord
100
AcDbBlockTableRecord
  2
*B23
340
0
  0
BLOCK_RECORD
  5
2F7
100
AcDbSymbolTableRecord
100
AcDbBlockTableRecord
  2
*B24
340
0
  0
BLOCK_RECORD
  5
300
100
AcDbSymbolTableRecord
100
AcDbBlockTableRecord
  2
*B25
340
0
  0
BLOCK_RECORD
  5
305
100
AcDbSymbolTableRecord
100
AcDbBlockTableRecord
  2
*B26
340
0
  0
BLOCK_RECORD
  5
317
100
AcDbSymbolTableRecord
100
AcDbBlockTableRecord
  2
*B27
340
0
  0
BLOCK_RECORD
  5
31D
100
AcDbSymbolTableRecord
100
AcDbBlockTableRecord
  2
*B28
340
0
  0
BLOCK_RECORD
  5
322
100
AcDbSymbolTableRecord
100
AcDbBlockTableRecord
  2
*B29
340
0
  0
BLOCK_RECORD
  5
327
100
AcDbSymbolTableRecord
100
AcDbBlockTableRecord
  2
*B30
340
0
  0
BLOCK_RECORD
  5
32C
100
AcDbSymbolTableRecord
100
AcDbBlockTableRecord
  2
*B31
340
0
  0
BLOCK_RECORD
  5
332
100
AcDbSymbolTableRecord
100
AcDbBlockTableRecord
  2
*B32
340
0
  0
BLOCK_RECORD
  5
337
100
AcDbSymbolTableRecord
100
AcDbBlockTableRecord
  2
*B33
340
0
  0
BLOCK_RECORD
  5
33D
100
AcDbSymbolTableRecord
100
AcDbBlockTableRecord
  2
*B34
340
0
  0
BLOCK_RECORD
  5
343
100
AcDbSymbolTableRecord
100
AcDbBlockTableRecord
  2
*B35
340
0
  0
BLOCK_RECORD
  5
34E
100
AcDbSymbolTableRecord
100
AcDbBlockTableRecord
  2
*B36
340
0
  0
BLOCK_RECORD
  5
35C
100
AcDbSymbolTableRecord
100
AcDbBlockTableRecord
  2
*B37
340
0
  0
BLOCK_RECORD
  5
370
100
AcDbSymbolTableRecord
100
AcDbBlockTableRecord
  2
*B38
340
0
  0
BLOCK_RECORD
  5
375
100
AcDbSymbolTableRecord
100
AcDbBlockTableRecord
  2
*B39
340
0
  0
BLOCK_RECORD
  5
383
100
AcDbSymbolTableRecord
100
AcDbBlockTableRecord
  2
*B40
340
0
  0
BLOCK_RECORD
  5
396
100
AcDbSymbolTableRecord
100
AcDbBlockTableRecord
  2
*B41
340
0
  0
BLOCK_RECORD
  5
39B
100
AcDbSymbolTableRecord
100
AcDbBlockTableRecord
  2
*B42
340
0
  0
BLOCK_RECORD
  5
3A1
100
AcDbSymbolTableRecord
100
AcDbBlockTableRecord
  2
*B43
340
0
  0
BLOCK_RECORD
  5
3A6
100
AcDbSymbolTableRecord
100
AcDbBlockTableRecord
  2
*B44
340
0
  0
BLOCK_RECORD
  5
3AB
100
AcDbSymbolTableRecord
100
AcDbBlockTableRecord
  2
*B45
340
0
  0
BLOCK_RECORD
  5
3B9
100
AcDbSymbolTableRecord
100
AcDbBlockTableRecord
  2
*B46
340
0
  0
BLOCK_RECORD
  5
3BF
100
AcDbSymbolTableRecord
100
AcDbBlockTableRecord
  2
*B47
340
0
  0
BLOCK_RECORD
  5
3C5
100
AcDbSymbolTableRecord
100
AcDbBlockTableRecord
  2
*B48
340
0
  0
BLOCK_RECORD
  5
3CB
100
AcDbSymbolTableRecord
100
AcDbBlockTableRecord
  2
*B49
340
0
  0
BLOCK_RECORD
  5
3D1
100
AcDbSymbolTableRecord
100
AcDbBlockTableRecord
  2
*B50
340
0
  0
BLOCK_RECORD
  5
3D6
100
AcDbSymbolTableRecord
100
AcDbBlockTableRecord
  2
*B51
340
0
  0
BLOCK_RECORD
  5
3DB
100
AcDbSymbolTableRecord
100
AcDbBlockTableRecord
  2
*B52
340
0
  0
BLOCK_RECORD
  5
3E0
100
AcDbSymbolTableRecord
100
AcDbBlockTableRecord
  2
*B53
340
0
  0
BLOCK_RECORD
  5
3E5
100
AcDbSymbolTableRecord
100
AcDbBlockTableRecord
  2
*B54
340
0
  0
BLOCK_RECORD
  5
3EA
100
AcDbSymbolTableRecord
100
AcDbBlockTableRecord
  2
*B55
340
0
  0
BLOCK_RECORD
  5
3EF
100
AcDbSymbolTableRecord
100
AcDbBlockTableRecord
  2
*B56
340
0
  0
BLOCK_RECORD
  5
3F4
100
AcDbSymbolTableRecord
100
AcDbBlockTableRecord
  2
*B57
340
0
  0
BLOCK_RECORD
  5
3F9
100
AcDbSymbolTableRecord
100
AcDbBlockTableRecord
  2
*B58
340
0
  0
BLOCK_RECORD
  5
3FE
100
AcDbSymbolTableRecord
100
AcDbBlockTableRecord
  2
*B59
340
0
  0
BLOCK_RECORD
  5
403
100
AcDbSymbolTableRecord
100
AcDbBlockTableRecord
  2
*B60
340
0
  0
BLOCK_RECORD
  5
408
100
AcDbSymbolTableRecord
100
AcDbBlockTableRecord
  2
*B61
340
0
  0
BLOCK_RECORD
  5
40D
100
AcDbSymbolTableRecord
100
AcDbBlockTableRecord
  2
*B62
340
0
  0
BLOCK_RECORD
  5
412
100
AcDbSymbolTableRecord
100
AcDbBlockTableRecord
  2
*B63
340
0
  0
BLOCK_RECORD
  5
417
100
AcDbSymbolTableRecord
100
AcDbBlockTableRecord
  2
*B64
340
0
  0
BLOCK_RECORD
  5
41C
100
AcDbSymbolTableRecord
100
AcDbBlockTableRecord
  2
*B65
340
0
  0
ENDTAB
  0
ENDSEC
  0
SECTION
  2
BLOCKS
  0
BLOCK
  5
D
100
AcDbEntity
  8
0
100
AcDbBlockBegin
  2
*MODEL_SPACE
 70
     0
 10
0.0
 20
0.0
 30
0.0
  3
*MODEL_SPACE
  1

  0
ENDBLK
  5
E
100
AcDbEntity
  8
0
100
AcDbBlockEnd
  0
BLOCK
  5
F
100
AcDbEntity
 67
     1
  8
0
100
AcDbBlockBegin
  2
*PAPER_SPACE
 70
     0
 10
0.0
 20
0.0
 30
0.0
  3
*PAPER_SPACE
  1

  0
ENDBLK
  5
10
100
AcDbEntity
 67
     1
  8
0
100
AcDbBlockEnd
  0
BLOCK
  5
2A
100
AcDbEntity
  8
0
100
AcDbBlockBegin
  2
*B0
 70
     0
 10
0.0
 20
0.0
 30
0.0
  3
*B0
  1

  0
ENDBLK
  5
2B
100
AcDbEntity
  8
0
100
AcDbBlockEnd
  0
BLOCK
  5
2D
100
AcDbEntity
  8
0
100
AcDbBlockBegin
  2
*B1
 70
     0
 10
0.0
 20
0.0
 30
0.0
  3
*B1
  1

  0
ENDBLK
  5
2E
100
AcDbEntity
  8
0
100
AcDbBlockEnd
  0
BLOCK
  5
30
100
AcDbEntity
  8
0
100
AcDbBlockBegin
  2
*B2
 70
     0
 10
0.0
 20
0.0
 30
0.0
  3
*B2
  1

  0
LINE
  5
31
100
AcDbEntity
  8
0
  6
Continuous
 62
   172
100
AcDbLine
 10
111.888049
 20
144.180061
 30
0.0
 11
100.676647
 21
144.180061
 31
0.0
  0
LINE
  5
32
100
AcDbEntity
  8
0
  6
Continuous
 62
   172
100
AcDbLine
 10
127.173976
 20
118.185786
 30
0.0
 11
111.888049
 21
144.180061
 31
0.0
  0
ENDBLK
  5
33
100
AcDbEntity
  8
0
100
AcDbBlockEnd
  0
BLOCK
  5
36
100
AcDbEntity
  8
0
100
AcDbBlockBegin
  2
*B3
 70
     0
 10
0.0
 20
0.0
 30
0.0
  3
*B3
  1

  0
LINE
  5
37
100
AcDbEntity
  8
0
  6
Continuous
 62
   172
100
AcDbLine
 10
109.558508
 20
146.611471
 30
0.0
 11
107.158508
 21
147.493332
 31
0.0
  0
LINE
  5
38
100
AcDbEntity
  8
0
  6
Continuous
 62
   172
100
AcDbLine
 10
109.558508
 20
146.611471
 30
0.0
 11
107.158508
 21
145.893332
 31
0.0
  0
LINE
  5
39
100
AcDbEntity
  8
0
  6
Continuous
 62
   172
100
AcDbLine
 10
107.958508
 20
146.611471
 30
0.0
 11
109.558508
 21
146.611471
 31
0.0
  0
LINE
  5
3A
100
AcDbEntity
  8
0
  6
Continuous
 62
   172
100
AcDbLine
 10
109.558508
 20
160.375192
 30
0.0
 11
107.158508
 21
159.493332
 31
0.0
  0
LINE
  5
3B
100
AcDbEntity
  8
0
  6
Continuous
 62
   172
100
AcDbLine
 10
109.558508
 20
160.375192
 30
0.0
 11
107.158508
 21
161.093332
 31
0.0
  0
LINE
  5
3C
100
AcDbEntity
  8
0
  6
Continuous
 62
   172
100
AcDbLine
 10
107.958508
 20
160.375192
 30
0.0
 11
109.558508
 21
160.375192
 31
0.0
  0
ARC
  5
3D
100
AcDbEntity
  8
0
  6
Continuous
 62
   172
100
AcDbCircle
 10
107.958508
 20
153.493332
 30
0.0
 40
6.88186
100
AcDbArc
 50
-270.0
 51
-90.0
  0
ENDBLK
  5
3E
100
AcDbEntity
  8
0
100
AcDbBlockEnd
  0
BLOCK
  5
41
100
AcDbEntity
  8
0
100
AcDbBlockBegin
  2
*B4
 70
     0
 10
0.0
 20
0.0
 30
0.0
  3
*B4
  1

  0
ENDBLK
  5
42
100
AcDbEntity
  8
0
100
AcDbBlockEnd
  0
BLOCK
  5
44
100
AcDbEntity
  8
0
100
AcDbBlockBegin
  2
*B5
 70
     0
 10
0.0
 20
0.0
 30
0.0
  3
*B5
  1

  0
LINE
  5
45
100
AcDbEntity
  8
0
  6
HIDDEN
 62
   174
100
AcDbLine
 10
159.202871
 20
81.143539
 30
0.0
 11
161.902871
 21
81.143539
 31
0.0
  0
LINE
  5
46
100
AcDbEntity
  8
0
  6
HIDDEN
 62
   174
100
AcDbLine
 10
159.202871
 20
85.143539
 30
0.0
 11
161.902871
 21
85.143539
 31
0.0
  0
LINE
  5
47
100
AcDbEntity
  8
0
  6
HIDDEN
 62
   174
100
AcDbLine
 10
161.902871
 20
81.157122
 30
0.0
 11
161.902871
 21
83.156947
 31
0.0
  0
LINE
  5
48
100
AcDbEntity
  8
0
  6
HIDDEN
 62
   174
100
AcDbLine
 10
161.902871
 20
83.156947
 30
0.0
 11
161.902871
 21
85.156984
 31
0.0
  0
LINE
  5
49
100
AcDbEntity
  8
0
  6
HIDDEN
 62
   174
100
AcDbLine
 10
182.052871
 20
103.100364
 30
0.0
 11
182.102871
 21
103.100364
 31
0.0
  0
LINE
  5
4A
100
AcDbEntity
  8
0
  6
HIDDEN
 62
   174
100
AcDbLine
 10
182.052871
 20
109.900364
 30
0.0
 11
182.102871
 21
109.900364
 31
0.0
  0
LINE
  5
4B
100
AcDbEntity
  8
0
  6
HIDDEN
 62
   174
100
AcDbLine
 10
182.052871
 20
109.500364
 30
0.0
 11
182.102871
 21
109.500364
 31
0.0
  0
LINE
  5
4C
100
AcDbEntity
  8
0
  6
HIDDEN
 62
   174
100
AcDbLine
 10
159.202871
 20
83.156947
 30
0.0
 11
159.202871
 21
84.888896
 31
0.0
  0
LINE
  5
4D
100
AcDbEntity
  8
0
  6
HIDDEN
 62
   174
100
AcDbLine
 10
159.202871
 20
81.424997
 30
0.0
 11
159.202871
 21
83.156947
 31
0.0
  0
LINE
  5
4E
100
AcDbEntity
  8
0
  6
HIDDEN
 62
   174
100
AcDbLine
 10
159.202871
 20
81.157122
 30
0.0
 11
159.202871
 21
81.424997
 31
0.0
  0
LINE
  5
4F
100
AcDbEntity
  8
0
  6
HIDDEN
 62
   174
100
AcDbLine
 10
159.202871
 20
84.888896
 30
0.0
 11
159.202871
 21
85.156984
 31
0.0
  0
LINE
  5
50
100
AcDbEntity
  8
0
  6
HIDDEN
 62
   174
100
AcDbLine
 10
182.052871
 20
103.500364
 30
0.0
 11
182.102871
 21
103.500364
 31
0.0
  0
LINE
  5
51
100
AcDbEntity
  8
0
  6
HIDDEN
 62
   174
100
AcDbLine
 10
182.102871
 20
108.477547
 30
0.0
 11
182.052871
 21
108.477547
 31
0.0
  0
LINE
  5
52
100
AcDbEntity
  8
0
  6
HIDDEN
 62
   174
100
AcDbLine
 10
182.102871
 20
109.526213
 30
0.0
 11
182.102871
 21
109.912413
 31
0.0
  0
LINE
  5
53
100
AcDbEntity
  8
0
  6
HIDDEN
 62
   174
100
AcDbLine
 10
182.102871
 20
104.686187
 30
0.0
 11
182.102871
 21
104.812583
 31
0.0
  0
LINE
  5
54
100
AcDbEntity
  8
0
  6
HIDDEN
 62
   174
100
AcDbLine
 10
182.102871
 20
104.108587
 30
0.0
 11
182.102871
 21
104.243905
 31
0.0
  0
LINE
  5
55
100
AcDbEntity
  8
0
  6
HIDDEN
 62
   174
100
AcDbLine
 10
182.102871
 20
103.512718
 30
0.0
 11
182.102871
 21
104.256439
 31
0.0
  0
LINE
  5
56
100
AcDbEntity
  8
0
  6
Continuous
 62
   174
100
AcDbLine
 10
183.102871
 20
135.643539
 30
0.0
 11
183.102871
 21
136.343539
 31
0.0
  0
LINE
  5
57
100
AcDbEntity
  8
0
  6
Continuous
 62
   174
100
AcDbLine
 10
125.102871
 20
75.143539
 30
0.0
 11
125.102871
 21
91.143539
 31
0.0
  0
LINE
  5
58
100
AcDbEntity
  8
0
  6
Continuous
 62
   174
100
AcDbLine
 10
179.102871
 20
91.643539
 30
0.0
 11
153.102871
 21
91.643539
 31
0.0
  0
LINE
  5
59
100
AcDbEntity
  8
0
  6
HIDDEN
 62
   174
100
AcDbLine
 10
182.102871
 20
103.500364
 30
0.0
 11
182.102871
 21
103.100364
 31
0.0
  0
LINE
  5
5A
100
AcDbEntity
  8
0
  6
HIDDEN
 62
   174
100
AcDbLine
 10
182.102871
 20
106.500364
 30
0.0
 11
182.102871
 21
104.682959
 31
0.0
  0
LINE
  5
5B
100
AcDbEntity
  8
0
  6
HIDDEN
 62
   174
100
AcDbLine
 10
182.102871
 20
108.477547
 30
0.0
 11
182.102871
 21
106.500364
 31
0.0
  0
LINE
  5
5C
100
AcDbEntity
  8
0
  6
HIDDEN
 62
   174
100
AcDbLine
 10
182.102871
 20
109.900364
 30
0.0
 11
182.102871
 21
109.500039
 31
0.0
  0
LINE
  5
5D
100
AcDbEntity
  8
0
  6
HIDDEN
 62
   174
100
AcDbLine
 10
126.120895
 20
121.143539
 30
0.0
 11
136.121082
 21
121.143539
 31
0.0
  0
LINE
  5
5E
100
AcDbEntity
  8
0
  6
HIDDEN
 62
   174
100
AcDbLine
 10
180.620906
 20
132.643539
 30
0.0
 11
174.120943
 21
132.643539
 31
0.0
  0
LINE
  5
5F
100
AcDbEntity
  8
0
  6
HIDDEN
 62
   174
100
AcDbLine
 10
174.120943
 20
135.643539
 30
0.0
 11
167.620981
 21
135.643539
 31
0.0
  0
LINE
  5
60
100
AcDbEntity
  8
0
  6
Continuous
 62
   174
100
AcDbLine
 10
182.120881
 20
132.643539
 30
0.0
 11
180.727546
 21
132.643539
 31
0.0
  0
LINE
  5
61
100
AcDbEntity
  8
0
  6
Continuous
 62
   174
100
AcDbLine
 10
174.120943
 20
135.643539
 30
0.0
 11
180.835673
 21
135.643539
 31
0.0
  0
LINE
  5
62
100
AcDbEntity
  8
0
  6
Continuous
 62
   174
100
AcDbLine
 10
178.698618
 20
136.343539
 30
0.0
 11
174.120943
 21
136.343539
 31
0.0
  0
LINE
  5
63
100
AcDbEntity
  8
0
  6
Continuous
 62
   174
100
AcDbLine
 10
183.120581
 20
136.343539
 30
0.0
 11
178.698618
 21
136.343539
 31
0.0
  0
LWPOLYLINE
  5
64
100
AcDbEntity
  8
0
  6
Continuous
 62
   174
100
AcDbPolyline
 90
        6
 70
   128
 10
166.38104
 20
139.994199
 10
166.592057
 20
140.044943
 10
167.314305
 20
140.121847
 10
168.036545
 20
140.044928
 10
168.773564
 20
139.816828
 10
169.525211
 20
139.450719
  0
LINE
  5
65
100
AcDbEntity
  8
0
  6
HIDDEN
 62
   174
100
AcDbLine
 10
165.15277
 20
139.479526
 30
0.0
 11
165.10332
 21
139.450719
 31
0.0
  0
LINE
  5
66
100
AcDbEntity
  8
0
  6
HIDDEN
 62
   174
100
AcDbLine
 10
142.102871
 20
91.143539
 30
0.0
 11
143.452871
 21
89.793539
 31
0.0
  0
LINE
  5
67
100
AcDbEntity
  8
0
  6
HIDDEN
 62
   174
100
AcDbLine
 10
182.102871
 20
103.11271
 30
0.0
 11
182.102871
 21
103.498485
 31
0.0
  0
LINE
  5
68
100
AcDbEntity
  8
0
  6
HIDDEN
 62
   174
100
AcDbLine
 10
182.102871
 20
108.503358
 30
0.0
 11
182.102871
 21
109.512405
 31
0.0
  0
LINE
  5
69
100
AcDbEntity
  8
0
  6
HIDDEN
 62
   174
100
AcDbLine
 10
182.102871
 20
108.339574
 30
0.0
 11
182.102871
 21
108.503358
 31
0.0
  0
LINE
  5
6A
100
AcDbEntity
  8
0
  6
HIDDEN
 62
   174
100
AcDbLine
 10
133.102871
 20
75.143539
 30
0.0
 11
133.102871
 21
76.343539
 31
0.0
  0
LINE
  5
6B
100
AcDbEntity
  8
0
  6
HIDDEN
 62
   174
100
AcDbLine
 10
182.102871
 20
106.500364
 30
0.0
 11
182.102871
 21
108.477547
 31
0.0
  0
LINE
  5
6C
100
AcDbEntity
  8
0
  6
Continuous
 62
   174
100
AcDbLine
 10
125.102871
 20
91.143539
 30
0.0
 11
153.102871
 21
91.143539
 31
0.0
  0
LINE
  5
6D
100
AcDbEntity
  8
0
  6
HIDDEN
 62
   174
100
AcDbLine
 10
139.059214
 20
75.143539
 30
0.0
 11
138.242417
 21
75.143539
 31
0.0
  0
LINE
  5
6E
100
AcDbEntity
  8
0
  6
Continuous
 62
   174
100
AcDbLine
 10
165.121094
 20
135.643539
 30
0.0
 11
167.406638
 21
135.643539
 31
0.0
  0
LWPOLYLINE
  5
6F
100
AcDbEntity
  8
0
  6
Continuous
 62
   174
100
AcDbPolyline
 90
        4
 70
   128
 10
174.994482
 20
140.143539
 10
176.211197
 20
140.010419
 10
177.433361
 20
139.777333
 10
178.680531
 20
139.450719
  0
LINE
  5
70
100
AcDbEntity
  8
0
  6
Continuous
 62
   174
100
AcDbLine
 10
127.506369
 20
128.843539
 30
0.0
 11
126.438267
 21
128.843539
 31
0.0
  0
LWPOLYLINE
  5
71
100
AcDbEntity
  8
0
  6
HIDDEN
 62
   174
100
AcDbPolyline
 90
        4
 70
   128
 10
166.946344
 20
140.143539
 10
166.337985
 20
140.010418
 10
165.726911
 20
139.777336
 10
165.152621
 20
139.47944
  0
LINE
  5
72
100
AcDbEntity
  8
0
  6
HIDDEN
 62
   174
100
AcDbLine
 10
182.102871
 20
104.244095
 30
0.0
 11
182.052871
 21
104.244095
 31
0.0
  0
LINE
  5
73
100
AcDbEntity
  8
0
  6
HIDDEN
 62
   174
100
AcDbLine
 10
182.102871
 20
104.682959
 30
0.0
 11
182.052871
 21
104.682959
 31
0.0
  0
LINE
  5
74
100
AcDbEntity
  8
0
  6
HIDDEN
 62
   174
100
AcDbLine
 10
182.102871
 20
104.695321
 30
0.0
 11
182.102871
 21
106.512455
 31
0.0
  0
LINE
  5
75
100
AcDbEntity
  8
0
  6
HIDDEN
 62
   174
100
AcDbLine
 10
139.102871
 20
75.143539
 30
0.0
 11
139.102871
 21
76.343539
 31
0.0
  0
LINE
  5
76
100
AcDbEntity
  8
0
  6
HIDDEN
 62
   174
100
AcDbLine
 10
182.102871
 20
104.244095
 30
0.0
 11
182.102871
 21
103.500364
 31
0.0
  0
LINE
  5
77
100
AcDbEntity
  8
0
  6
Continuous
 62
   174
100
AcDbLine
 10
167.514128
 20
132.643539
 30
0.0
 11
166.121006
 21
132.643539
 31
0.0
  0
LINE
  5
78
100
AcDbEntity
  8
0
  6
Continuous
 62
   174
100
AcDbLine
 10
180.835673
 20
135.643539
 30
0.0
 11
183.121006
 21
135.643539
 31
0.0
  0
LINE
  5
79
100
AcDbEntity
  8
0
  6
Continuous
 62
   174
100
AcDbLine
 10
178.680531
 20
139.450719
 30
0.0
 11
178.680531
 21
136.343539
 31
0.0
  0
LINE
  5
7A
100
AcDbEntity
  8
0
  6
Continuous
 62
   174
100
AcDbLine
 10
165.10332
 20
139.450719
 30
0.0
 11
165.152157
 21
139.478192
 31
0.0
  0
LINE
  5
7B
100
AcDbEntity
  8
0
  6
HIDDEN
 62
   174
100
AcDbLine
 10
169.68098
 20
136.343539
 30
0.0
 11
165.10332
 21
136.343539
 31
0.0
  0
LINE
  5
7C
100
AcDbEntity
  8
0
  6
HIDDEN
 62
   174
100
AcDbLine
 10
169.68098
 20
136.343539
 30
0.0
 11
169.68098
 21
139.450719
 31
0.0
  0
LINE
  5
7D
100
AcDbEntity
  8
0
  6
HIDDEN
 62
   174
100
AcDbLine
 10
182.102871
 20
103.568162
 30
0.0
 11
182.102871
 21
104.108587
 31
0.0
  0
LINE
  5
7E
100
AcDbEntity
  8
0
  6
HIDDEN
 62
   174
100
AcDbLine
 10
133.102871
 20
75.143539
 30
0.0
 11
133.102871
 21
76.343539
 31
0.0
  0
LINE
  5
7F
100
AcDbEntity
  8
0
  6
Continuous
 62
   174
100
AcDbLine
 10
181.902871
 20
140.143539
 30
0.0
 11
183.058627
 21
139.476263
 31
0.0
  0
LINE
  5
80
100
AcDbEntity
  8
0
  6
HIDDEN
 62
   174
100
AcDbLine
 10
182.102871
 20
104.682959
 30
0.0
 11
182.102871
 21
104.244095
 31
0.0
  0
LINE
  5
81
100
AcDbEntity
  8
0
  6
Continuous
 62
   174
100
AcDbLine
 10
165.150746
 20
139.477397
 30
0.0
 11
166.38104
 21
139.994199
 31
0.0
  0
LINE
  5
82
100
AcDbEntity
  8
0
  6
HIDDEN
 62
   174
100
AcDbLine
 10
182.102871
 20
106.512455
 30
0.0
 11
182.102871
 21
108.50612
 31
0.0
  0
LINE
  5
83
100
AcDbEntity
  8
0
  6
HIDDEN
 62
   174
100
AcDbLine
 10
139.102871
 20
75.143539
 30
0.0
 11
139.102871
 21
76.343539
 31
0.0
  0
LINE
  5
84
100
AcDbEntity
  8
0
  6
HIDDEN
 62
   174
100
AcDbLine
 10
182.102871
 20
104.244095
 30
0.0
 11
182.102871
 21
104.682959
 31
0.0
  0
LINE
  5
85
100
AcDbEntity
  8
0
  6
Continuous
 62
   174
100
AcDbLine
 10
182.102871
 20
132.643539
 30
0.0
 11
182.102871
 21
117.643539
 31
0.0
  0
LINE
  5
86
100
AcDbEntity
  8
0
  6
HIDDEN
 62
   174
100
AcDbLine
 10
171.318989
 20
120.643539
 30
0.0
 11
166.102871
 21
120.643539
 31
0.0
  0
LINE
  5
87
100
AcDbEntity
  8
0
  6
HIDDEN
 62
   174
100
AcDbLine
 10
166.102871
 20
120.643539
 30
0.0
 11
153.102871
 21
120.643539
 31
0.0
  0
LINE
  5
88
100
AcDbEntity
  8
0
  6
Continuous
 62
   174
100
AcDbLine
 10
153.102871
 20
91.143539
 30
0.0
 11
155.102871
 21
91.143539
 31
0.0
  0
LINE
  5
89
100
AcDbEntity
  8
0
  6
HIDDEN
 62
   174
100
AcDbLine
 10
182.102871
 20
109.500039
 30
0.0
 11
182.102871
 21
108.477547
 31
0.0
  0
LINE
  5
8A
100
AcDbEntity
  8
0
  6
HIDDEN
 62
   174
100
AcDbLine
 10
180.620906
 20
135.643539
 30
0.0
 11
174.120943
 21
135.643539
 31
0.0
  0
LINE
  5
8B
100
AcDbEntity
  8
0
  6
Continuous
 62
   174
100
AcDbLine
 10
174.120943
 20
132.643539
 30
0.0
 11
167.514128
 21
132.643539
 31
0.0
  0
LINE
  5
8C
100
AcDbEntity
  8
0
  6
Continuous
 62
   174
100
AcDbLine
 10
167.406638
 20
135.643539
 30
0.0
 11
174.120943
 21
135.643539
 31
0.0
  0
LINE
  5
8D
100
AcDbEntity
  8
0
  6
Continuous
 62
   174
100
AcDbLine
 10
169.543269
 20
136.343539
 30
0.0
 11
165.121518
 21
136.343539
 31
0.0
  0
LINE
  5
8E
100
AcDbEntity
  8
0
  6
Continuous
 62
   174
100
AcDbLine
 10
174.120943
 20
136.343539
 30
0.0
 11
169.543269
 21
136.343539
 31
0.0
  0
LWPOLYLINE
  5
8F
100
AcDbEntity
  8
0
  6
Continuous
 62
   174
100
AcDbPolyline
 90
        4
 70
   128
 10
169.525211
 20
139.450719
 10
170.778026
 20
139.778619
 10
172.000847
 20
140.011373
 10
173.211259
 20
140.143539
  0
LINE
  5
90
100
AcDbEntity
  8
0
  6
Continuous
 62
   174
100
AcDbLine
 10
165.10332
 20
136.343539
 30
0.0
 11
165.10332
 21
139.450719
 31
0.0
  0
LINE
  5
91
100
AcDbEntity
  8
0
  6
HIDDEN
 62
   174
100
AcDbLine
 10
182.102871
 20
109.456961
 30
0.0
 11
182.102871
 21
109.526213
 31
0.0
  0
LINE
  5
92
100
AcDbEntity
  8
0
  6
HIDDEN
 62
   174
100
AcDbLine
 10
182.102871
 20
104.812583
 30
0.0
 11
182.102871
 21
106.512455
 31
0.0
  0
LINE
  5
93
100
AcDbEntity
  8
0
  6
Continuous
 62
   174
100
AcDbLine
 10
167.602871
 20
132.643539
 30
0.0
 11
167.602871
 21
135.643539
 31
0.0
  0
LINE
  5
94
100
AcDbEntity
  8
0
  6
Continuous
 62
   174
100
AcDbLine
 10
165.102871
 20
135.643539
 30
0.0
 11
165.102871
 21
136.343539
 31
0.0
  0
LINE
  5
95
100
AcDbEntity
  8
0
  6
Continuous
 62
   174
100
AcDbLine
 10
155.102871
 20
75.143539
 30
0.0
 11
155.102871
 21
91.143539
 31
0.0
  0
LINE
  5
96
100
AcDbEntity
  8
0
  6
HIDDEN
 62
   174
100
AcDbLine
 10
138.242417
 20
75.143539
 30
0.0
 11
133.999746
 21
75.143539
 31
0.0
  0
LINE
  5
97
100
AcDbEntity
  8
0
  6
Continuous
 62
   174
100
AcDbLine
 10
169.525211
 20
136.343539
 30
0.0
 11
169.525211
 21
139.450719
 31
0.0
  0
LINE
  5
98
100
AcDbEntity
  8
0
  6
HIDDEN
 62
   174
100
AcDbLine
 10
133.606238
 20
122.643539
 30
0.0
 11
138.606237
 21
122.643539
 31
0.0
  0
LINE
  5
99
100
AcDbEntity
  8
0
  6
HIDDEN
 62
   174
100
AcDbLine
 10
182.102871
 20
108.887211
 30
0.0
 11
182.052871
 21
108.887211
 31
0.0
  0
LINE
  5
9A
100
AcDbEntity
  8
0
  6
Continuous
 62
   174
100
AcDbLine
 10
180.602871
 20
132.643539
 30
0.0
 11
180.602871
 21
135.643539
 31
0.0
  0
LINE
  5
9B
100
AcDbEntity
  8
0
  6
HIDDEN
 62
   174
100
AcDbLine
 10
182.102871
 20
103.100364
 30
0.0
 11
182.102871
 21
94.643539
 31
0.0
  0
LINE
  5
9C
100
AcDbEntity
  8
0
  6
Continuous
 62
   174
100
AcDbLine
 10
125.102871
 20
75.143539
 30
0.0
 11
155.102871
 21
75.143539
 31
0.0
  0
LINE
  5
9D
100
AcDbEntity
  8
0
  6
HIDDEN
 62
   174
100
AcDbLine
 10
139.121032
 20
75.143539
 30
0.0
 11
139.059214
 21
75.143539
 31
0.0
  0
LINE
  5
9E
100
AcDbEntity
  8
0
  6
HIDDEN
 62
   174
100
AcDbLine
 10
133.182737
 20
75.143539
 30
0.0
 11
133.120919
 21
75.143539
 31
0.0
  0
LINE
  5
9F
100
AcDbEntity
  8
0
  6
HIDDEN
 62
   174
100
AcDbLine
 10
133.999746
 20
75.143539
 30
0.0
 11
133.182737
 21
75.143539
 31
0.0
  0
LINE
  5
A0
100
AcDbEntity
  8
0
  6
HIDDEN
 62
   174
100
AcDbLine
 10
167.620981
 20
132.643539
 30
0.0
 11
174.120943
 21
132.643539
 31
0.0
  0
LINE
  5
A1
100
AcDbEntity
  8
0
  6
Continuous
 62
   174
100
AcDbLine
 10
180.727546
 20
132.643539
 30
0.0
 11
174.120943
 21
132.643539
 31
0.0
  0
LINE
  5
A2
100
AcDbEntity
  8
0
  6
HIDDEN
 62
   174
100
AcDbLine
 10
141.184466
 20
122.643539
 30
0.0
 11
144.718515
 21
122.643539
 31
0.0
  0
LINE
  5
A3
100
AcDbEntity
  8
0
  6
Continuous
 62
   174
100
AcDbLine
 10
173.211259
 20
140.143539
 30
0.0
 11
174.994482
 21
140.143539
 31
0.0
  0
LINE
  5
A4
100
AcDbEntity
  8
0
  6
Continuous
 62
   174
100
AcDbLine
 10
145.803047
 20
128.843539
 30
0.0
 11
144.734945
 21
128.843539
 31
0.0
  0
LINE
  5
A5
100
AcDbEntity
  8
0
  6
Continuous
 62
   174
100
AcDbLine
 10
141.199669
 20
128.843539
 30
0.0
 11
138.620969
 21
128.843539
 31
0.0
  0
LINE
  5
A6
100
AcDbEntity
  8
0
  6
Continuous
 62
   174
100
AcDbLine
 10
133.620982
 20
128.843539
 30
0.0
 11
131.04207
 21
128.843539
 31
0.0
  0
LINE
  5
A7
100
AcDbEntity
  8
0
  6
HIDDEN
 62
   174
100
AcDbLine
 10
182.102871
 20
108.50612
 30
0.0
 11
182.102871
 21
109.456961
 31
0.0
  0
LINE
  5
A8
100
AcDbEntity
  8
0
  6
HIDDEN
 62
   174
100
AcDbLine
 10
182.102871
 20
104.243905
 30
0.0
 11
182.102871
 21
104.686187
 31
0.0
  0
LINE
  5
A9
100
AcDbEntity
  8
0
  6
HIDDEN
 62
   174
100
AcDbLine
 10
182.102871
 20
103.498485
 30
0.0
 11
182.102871
 21
103.568162
 31
0.0
  0
LINE
  5
AA
100
AcDbEntity
  8
0
  6
HIDDEN
 62
   174
100
AcDbLine
 10
182.102871
 20
106.512455
 30
0.0
 11
182.102871
 21
108.339574
 31
0.0
  0
LINE
  5
AB
100
AcDbEntity
  8
0
  6
HIDDEN
 62
   174
100
AcDbLine
 10
182.102871
 20
104.682959
 30
0.0
 11
182.102871
 21
106.500364
 31
0.0
  0
LINE
  5
AC
100
AcDbEntity
  8
0
  6
Continuous
 62
   174
100
AcDbLine
 10
166.302871
 20
140.143539
 30
0.0
 11
165.147153
 21
139.476285
 31
0.0
  0
LINE
  5
AD
100
AcDbEntity
  8
0
  6
Continuous
 62
   174
100
AcDbLine
 10
166.102871
 20
132.643539
 30
0.0
 11
166.102871
 21
120.643539
 31
0.0
  0
LINE
  5
AE
100
AcDbEntity
  8
0
  6
HIDDEN
 62
   174
100
AcDbLine
 10
182.102871
 20
117.643539
 30
0.0
 11
182.102871
 21
109.900364
 31
0.0
  0
LINE
  5
AF
100
AcDbEntity
  8
0
  6
HIDDEN
 62
   174
100
AcDbLine
 10
136.121082
 20
121.143539
 30
0.0
 11
146.121057
 21
121.143539
 31
0.0
  0
LINE
  5
B0
100
AcDbEntity
  8
0
  6
HIDDEN
 62
   174
100
AcDbLine
 10
139.121032
 20
76.343539
 30
0.0
 11
133.120919
 21
76.343539
 31
0.0
  0
LWPOLYLINE
  5
B1
100
AcDbEntity
  8
0
  6
HIDDEN
 62
   174
100
AcDbPolyline
 90
        4
 70
   128
 10
169.68098
 20
139.450719
 10
169.054573
 20
139.778619
 10
168.44316
 20
140.011374
 10
167.837956
 20
140.143539
  0
LINE
  5
B2
100
AcDbEntity
  8
0
  6
HIDDEN
 62
   174
100
AcDbLine
 10
153.102871
 20
117.643539
 30
0.0
 11
179.102871
 21
117.643539
 31
0.0
  0
LINE
  5
B3
100
AcDbEntity
  8
0
  6
Continuous
 62
   174
100
AcDbLine
 10
126.102871
 20
122.643539
 30
0.0
 11
126.102871
 21
121.143539
 31
0.0
  0
ARC
  5
B4
100
AcDbEntity
  8
0
  6
Continuous
 62
   174
100
AcDbCircle
 10
179.102871
 20
94.643539
 30
0.0
 40
3.0
100
AcDbArc
 50
-72.0
 51
-54.0
  0
LINE
  5
B5
100
AcDbEntity
  8
0
  6
Continuous
 62
   174
100
AcDbLine
 10
137.711977
 20
74.853539
 30
0.0
 11
134.529974
 21
74.853539
 31
0.0
  0
LINE
  5
B6
100
AcDbEntity
  8
0
  6
Continuous
 62
   174
100
AcDbLine
 10
179.102871
 20
94.643539
 30
0.0
 11
153.102871
 21
94.643539
 31
0.0
  0
ARC
  5
B7
100
AcDbEntity
  8
0
  6
Continuous
 62
   174
100
AcDbCircle
 10
133.852871
 20
75.603539
 30
0.0
 40
0.75
100
AcDbArc
 50
221.512225
 51
270.0
  0
LINE
  5
B8
100
AcDbEntity
  8
0
  6
HIDDEN
 62
   174
100
AcDbLine
 10
182.052871
 20
109.912413
 30
0.0
 11
182.052871
 21
106.512455
 31
0.0
  0
LINE
  5
B9
100
AcDbEntity
  8
0
  6
Continuous
 62
   174
100
AcDbLine
 10
161.902871
 20
85.565701
 30
0.0
 11
161.902871
 21
88.156722
 31
0.0
  0
LINE
  5
BA
100
AcDbEntity
  8
0
  6
Continuous
 62
   174
100
AcDbLine
 10
179.102871
 20
91.656522
 30
0.0
 11
179.102871
 21
94.656471
 31
0.0
  0
LINE
  5
BB
100
AcDbEntity
  8
0
  6
HIDDEN
 62
   174
100
AcDbLine
 10
141.184466
 20
128.843539
 30
0.0
 11
141.184466
 21
122.643539
 31
0.0
  0
LINE
  5
BC
100
AcDbEntity
  8
0
  6
Continuous
 62
   174
100
AcDbLine
 10
131.02394
 20
128.843539
 30
0.0
 11
127.488152
 21
128.843539
 31
0.0
  0
LINE
  5
BD
100
AcDbEntity
  8
0
  6
HIDDEN
 62
   174
100
AcDbLine
 10
138.370938
 20
74.853539
 30
0.0
 11
137.711977
 21
74.853539
 31
0.0
  0
LINE
  5
BE
100
AcDbEntity
  8
0
  6
Continuous
 62
   174
100
AcDbLine
 10
160.402871
 20
79.749129
 30
0.0
 11
160.402871
 21
78.157384
 31
0.0
  0
LINE
  5
BF
100
AcDbEntity
  8
0
  6
HIDDEN
 62
   174
100
AcDbLine
 10
148.102871
 20
91.143539
 30
0.0
 11
146.752871
 21
89.793539
 31
0.0
  0
LINE
  5
C0
100
AcDbEntity
  8
0
  6
HIDDEN
 62
   174
100
AcDbLine
 10
155.102871
 20
80.748405
 30
0.0
 11
155.102871
 21
83.156947
 31
0.0
  0
LINE
  5
C1
100
AcDbEntity
  8
0
  6
Continuous
 62
   174
100
AcDbLine
 10
127.506369
 20
122.643539
 30
0.0
 11
131.04207
 21
122.643539
 31
0.0
  0
ARC
  5
C2
100
AcDbEntity
  8
0
  6
HIDDEN
 62
   174
100
AcDbCircle
 10
138.352871
 20
75.603539
 30
0.0
 40
0.75
100
AcDbArc
 50
-41.512225
 51
23.755474
  0
LINE
  5
C3
100
AcDbEntity
  8
0
  6
HIDDEN
 62
   174
100
AcDbLine
 10
179.102871
 20
94.643539
 30
0.0
 11
179.102871
 21
117.643539
 31
0.0
  0
LINE
  5
C4
100
AcDbEntity
  8
0
  6
Continuous
 62
   174
100
AcDbLine
 10
161.902871
 20
83.156947
 30
0.0
 11
161.902871
 21
85.565701
 31
0.0
  0
ARC
  5
C5
100
AcDbEntity
  8
0
  6
Continuous
 62
   174
100
AcDbCircle
 10
179.102871
 20
117.643539
 30
0.0
 40
3.0
100
AcDbArc
 50
-360.0
 51
-270.0
  0
LINE
  5
C6
100
AcDbEntity
  8
0
  6
Continuous
 62
   174
100
AcDbLine
 10
159.202871
 20
85.565701
 30
0.0
 11
159.202871
 21
83.156947
 31
0.0
  0
LINE
  5
C7
100
AcDbEntity
  8
0
  6
Continuous
 62
   174
100
AcDbLine
 10
138.370938
 20
74.853539
 30
0.0
 11
137.711977
 21
74.853539
 31
0.0
  0
LINE
  5
C8
100
AcDbEntity
  8
0
  6
Continuous
 62
   174
100
AcDbLine
 10
153.102871
 20
91.143539
 30
0.0
 11
153.102871
 21
121.143539
 31
0.0
  0
LINE
  5
C9
100
AcDbEntity
  8
0
  6
HIDDEN
 62
   174
100
AcDbLine
 10
159.202871
 20
83.156947
 30
0.0
 11
159.202871
 21
85.321831
 31
0.0
  0
LWPOLYLINE
  5
CA
100
AcDbEntity
  8
0
  6
HIDDEN
 62
   174
100
AcDbPolyline
 90
        6
 70
   128
 10
182.102871
 20
117.643539
 10
181.963011
 20
118.548855
 10
181.565289
 20
119.35716
 10
180.935123
 20
120.019008
 10
180.106068
 20
120.470834
 10
179.102871
 20
120.643539
  0
LINE
  5
CB
100
AcDbEntity
  8
0
  6
Continuous
 62
   174
100
AcDbLine
 10
159.202871
 20
80.748405
 30
0.0
 11
159.202871
 21
83.156947
 31
0.0
  0
LINE
  5
CC
100
AcDbEntity
  8
0
  6
Continuous
 62
   174
100
AcDbLine
 10
160.402871
 20
83.156947
 30
0.0
 11
160.402871
 21
79.749129
 31
0.0
  0
LINE
  5
CD
100
AcDbEntity
  8
0
  6
Continuous
 62
   174
100
AcDbLine
 10
183.102421
 20
136.343539
 30
0.0
 11
183.102421
 21
139.450719
 31
0.0
  0
LINE
  5
CE
100
AcDbEntity
  8
0
  6
HIDDEN
 62
   174
100
AcDbLine
 10
146.752871
 20
89.793539
 30
0.0
 11
146.752871
 21
75.143539
 31
0.0
  0
LINE
  5
CF
100
AcDbEntity
  8
0
  6
HIDDEN
 62
   174
100
AcDbLine
 10
138.606237
 20
128.843539
 30
0.0
 11
138.606237
 21
122.643539
 31
0.0
  0
LINE
  5
D0
100
AcDbEntity
  8
0
  6
HIDDEN
 62
   174
100
AcDbLine
 10
159.202871
 20
83.156947
 30
0.0
 11
159.202871
 21
84.888896
 31
0.0
  0
LINE
  5
D1
100
AcDbEntity
  8
0
  6
Continuous
 62
   174
100
AcDbLine
 10
159.202871
 20
80.143539
 30
0.0
 11
160.402871
 21
80.143539
 31
0.0
  0
LINE
  5
D2
100
AcDbEntity
  8
0
  6
HIDDEN
 62
   174
100
AcDbLine
 10
146.752871
 20
89.793539
 30
0.0
 11
146.752871
 21
75.143539
 31
0.0
  0
LINE
  5
D3
100
AcDbEntity
  8
0
  6
Continuous
 62
   174
100
AcDbLine
 10
144.71675
 20
128.843539
 30
0.0
 11
141.181471
 21
128.843539
 31
0.0
  0
LWPOLYLINE
  5
D4
100
AcDbEntity
  8
0
  6
HIDDEN
 62
   174
100
AcDbPolyline
 90
        7
 70
   128
 10
178.524761
 20
139.450719
 10
177.021491
 20
139.816821
 10
175.547501
 20
140.044921
 10
174.103108
 20
140.121852
 10
172.658662
 20
140.044965
 10
171.18451
 20
139.816873
 10
169.68098
 20
139.450719
  0
LWPOLYLINE
  5
D5
100
AcDbEntity
  8
0
  6
HIDDEN
 62
   174
100
AcDbPolyline
 90
        4
 70
   128
 10
171.318989
 20
120.643539
 10
172.21569
 20
120.63098
 10
173.153844
 20
120.610574
 10
174.102871
 20
120.601579
  0
LINE
  5
D6
100
AcDbEntity
  8
0
  6
Continuous
 62
   174
100
AcDbLine
 10
153.102871
 20
91.643539
 30
0.0
 11
179.102871
 21
91.643539
 31
0.0
  0
LINE
  5
D7
100
AcDbEntity
  8
0
  6
Continuous
 62
   174
100
AcDbLine
 10
125.102871
 20
121.143539
 30
0.0
 11
153.102871
 21
121.143539
 31
0.0
  0
LINE
  5
D8
100
AcDbEntity
  8
0
  6
HIDDEN
 62
   174
100
AcDbLine
 10
143.452871
 20
89.793539
 30
0.0
 11
143.452871
 21
75.143539
 31
0.0
  0
LINE
  5
D9
100
AcDbEntity
  8
0
  6
HIDDEN
 62
   174
100
AcDbLine
 10
153.102871
 20
94.643539
 30
0.0
 11
179.102871
 21
94.643539
 31
0.0
  0
LINE
  5
DA
100
AcDbEntity
  8
0
  6
HIDDEN
 62
   174
100
AcDbLine
 10
159.202871
 20
80.992275
 30
0.0
 11
159.202871
 21
80.157209
 31
0.0
  0
ARC
  5
DB
100
AcDbEntity
  8
0
  6
Continuous
 62
   174
100
AcDbCircle
 10
179.102871
 20
94.643539
 30
0.0
 40
3.0
100
AcDbArc
 50
-18.0
 51
0.0
  0
LINE
  5
DC
100
AcDbEntity
  8
0
  6
HIDDEN
 62
   174
100
AcDbLine
 10
155.102871
 20
83.156947
 30
0.0
 11
155.102871
 21
85.156984
 31
0.0
  0
LINE
  5
DD
100
AcDbEntity
  8
0
  6
Continuous
 62
   174
100
AcDbLine
 10
141.199669
 20
122.643539
 30
0.0
 11
144.734945
 21
122.643539
 31
0.0
  0
LINE
  5
DE
100
AcDbEntity
  8
0
  6
Continuous
 62
   174
100
AcDbLine
 10
160.402871
 20
88.143539
 30
0.0
 11
161.902871
 21
88.143539
 31
0.0
  0
LINE
  5
DF
100
AcDbEntity
  8
0
  6
Continuous
 62
   174
100
AcDbLine
 10
183.053628
 20
139.478159
 30
0.0
 11
183.102421
 21
139.450719
 31
0.0
  0
ARC
  5
E0
100
AcDbEntity
  8
0
  6
Continuous
 62
   174
100
AcDbCircle
 10
138.352871
 20
75.603539
 30
0.0
 40
0.75
100
AcDbArc
 50
-90.0
 51
-41.512225
  0
LINE
  5
E1
100
AcDbEntity
  8
0
  6
HIDDEN
 62
   174
100
AcDbLine
 10
159.202871
 20
85.321831
 30
0.0
 11
159.202871
 21
86.156897
 31
0.0
  0
LINE
  5
E2
100
AcDbEntity
  8
0
  6
Continuous
 62
   174
100
AcDbLine
 10
126.42009
 20
128.843539
 30
0.0
 11
126.42009
 21
122.643539
 31
0.0
  0
LINE
  5
E3
100
AcDbEntity
  8
0
  6
HIDDEN
 62
   174
100
AcDbLine
 10
131.026936
 20
128.843539
 30
0.0
 11
131.026936
 21
122.643539
 31
0.0
  0
LINE
  5
E4
100
AcDbEntity
  8
0
  6
HIDDEN
 62
   174
100
AcDbLine
 10
159.202871
 20
81.157122
 30
0.0
 11
159.202871
 21
81.424997
 31
0.0
  0
LINE
  5
E5
100
AcDbEntity
  8
0
  6
HIDDEN
 62
   174
100
AcDbLine
 10
182.052871
 20
106.512455
 30
0.0
 11
182.052871
 21
103.11271
 31
0.0
  0
LINE
  5
E6
100
AcDbEntity
  8
0
  6
Continuous
 62
   174
100
AcDbLine
 10
145.785007
 20
128.843539
 30
0.0
 11
145.785007
 21
122.643539
 31
0.0
  0
LINE
  5
E7
100
AcDbEntity
  8
0
  6
HIDDEN
 62
   174
100
AcDbLine
 10
146.752871
 20
89.793539
 30
0.0
 11
146.752871
 21
75.143539
 31
0.0
  0
LINE
  5
E8
100
AcDbEntity
  8
0
  6
HIDDEN
 62
   174
100
AcDbLine
 10
155.102871
 20
81.143539
 30
0.0
 11
159.202871
 21
81.143539
 31
0.0
  0
LINE
  5
E9
100
AcDbEntity
  8
0
  6
HIDDEN
 62
   174
100
AcDbLine
 10
153.102871
 20
94.643539
 30
0.0
 11
153.102871
 21
117.643539
 31
0.0
  0
LINE
  5
EA
100
AcDbEntity
  8
0
  6
Continuous
 62
   174
100
AcDbLine
 10
138.602871
 20
128.843539
 30
0.0
 11
133.602871
 21
128.843539
 31
0.0
  0
LINE
  5
EB
100
AcDbEntity
  8
0
  6
Continuous
 62
   174
100
AcDbLine
 10
179.102871
 20
120.643539
 30
0.0
 11
176.886753
 21
120.643539
 31
0.0
  0
ARC
  5
EC
100
AcDbEntity
  8
0
  6
Continuous
 62
   174
100
AcDbCircle
 10
138.352871
 20
75.603539
 30
0.0
 40
0.75
100
AcDbArc
 50
-90.0
 51
-41.512225
  0
ARC
  5
ED
100
AcDbEntity
  8
0
  6
HIDDEN
 62
   174
100
AcDbCircle
 10
138.352871
 20
75.603539
 30
0.0
 40
0.75
100
AcDbArc
 50
-336.244526
 51
-279.366789
  0
LINE
  5
EE
100
AcDbEntity
  8
0
  6
Continuous
 62
   174
100
AcDbLine
 10
138.602871
 20
128.843539
 30
0.0
 11
138.602871
 21
122.643539
 31
0.0
  0
ARC
  5
EF
100
AcDbEntity
  8
0
  6
HIDDEN
 62
   174
100
AcDbCircle
 10
179.102871
 20
94.643539
 30
0.0
 40
3.0
100
AcDbArc
 50
-90.0
 51
-72.0
  0
LINE
  5
F0
100
AcDbEntity
  8
0
  6
Continuous
 62
   174
100
AcDbLine
 10
173.229371
 20
140.143539
 30
0.0
 11
166.320904
 21
140.143539
 31
0.0
  0
LINE
  5
F1
100
AcDbEntity
  8
0
  6
HIDDEN
 62
   174
100
AcDbLine
 10
142.102871
 20
91.143539
 30
0.0
 11
143.452871
 21
89.793539
 31
0.0
  0
LINE
  5
F2
100
AcDbEntity
  8
0
  6
Continuous
 62
   174
100
AcDbLine
 10
145.803047
 20
122.643539
 30
0.0
 11
146.121057
 21
122.643539
 31
0.0
  0
LINE
  5
F3
100
AcDbEntity
  8
0
  6
HIDDEN
 62
   174
100
AcDbLine
 10
169.68098
 20
136.343539
 30
0.0
 11
178.524761
 21
136.343539
 31
0.0
  0
LINE
  5
F4
100
AcDbEntity
  8
0
  6
HIDDEN
 62
   174
100
AcDbLine
 10
183.102421
 20
139.450719
 30
0.0
 11
183.052897
 21
139.47957
 31
0.0
  0
LINE
  5
F5
100
AcDbEntity
  8
0
  6
Continuous
 62
   174
100
AcDbLine
 10
179.120931
 20
117.643539
 30
0.0
 11
182.120881
 21
117.643539
 31
0.0
  0
LINE
  5
F6
100
AcDbEntity
  8
0
  6
HIDDEN
 62
   174
100
AcDbLine
 10
146.771095
 20
89.793539
 30
0.0
 11
143.47098
 21
89.793539
 31
0.0
  0
LINE
  5
F7
100
AcDbEntity
  8
0
  6
Continuous
 62
   174
100
AcDbLine
 10
141.181471
 20
128.843539
 30
0.0
 11
141.181471
 21
122.643539
 31
0.0
  0
LINE
  5
F8
100
AcDbEntity
  8
0
  6
HIDDEN
 62
   174
100
AcDbLine
 10
176.886753
 20
120.643539
 30
0.0
 11
179.102871
 21
120.643539
 31
0.0
  0
ARC
  5
F9
100
AcDbEntity
  8
0
  6
HIDDEN
 62
   174
100
AcDbCircle
 10
138.352871
 20
75.603539
 30
0.0
 40
0.75
100
AcDbArc
 50
-336.244526
 51
-279.366789
  0
LWPOLYLINE
  5
FA
100
AcDbEntity
  8
0
  6
HIDDEN
 62
   174
100
AcDbPolyline
 90
        4
 70
   128
 10
180.367786
 20
140.143539
 10
179.759427
 20
140.010418
 10
179.148352
 20
139.777336
 10
178.524761
 20
139.450719
  0
LINE
  5
FB
100
AcDbEntity
  8
0
  6
HIDDEN
 62
   174
100
AcDbLine
 10
179.120931
 20
120.643539
 30
0.0
 11
176.904851
 21
120.643539
 31
0.0
  0
ARC
  5
FC
100
AcDbEntity
  8
0
  6
HIDDEN
 62
   174
100
AcDbCircle
 10
133.852871
 20
75.603539
 30
0.0
 40
0.75
100
AcDbArc
 50
156.244526
 51
221.512225
  0
LINE
  5
FD
100
AcDbEntity
  8
0
  6
Continuous
 62
   174
100
AcDbLine
 10
161.902871
 20
80.748405
 30
0.0
 11
161.902871
 21
78.157384
 31
0.0
  0
LINE
  5
FE
100
AcDbEntity
  8
0
  6
HIDDEN
 62
   174
100
AcDbLine
 10
133.606238
 20
128.843539
 30
0.0
 11
133.606238
 21
122.643539
 31
0.0
  0
LINE
  5
FF
100
AcDbEntity
  8
0
  6
HIDDEN
 62
   174
100
AcDbLine
 10
144.718515
 20
128.843539
 30
0.0
 11
144.718515
 21
122.643539
 31
0.0
  0
LINE
  5
100
100
AcDbEntity
  8
0
  6
HIDDEN
 62
   174
100
AcDbLine
 10
155.102871
 20
85.565701
 30
0.0
 11
155.102871
 21
83.156947
 31
0.0
  0
LWPOLYLINE
  5
101
100
AcDbEntity
  8
0
  6
Continuous
 62
   174
100
AcDbPolyline
 90
        6
 70
   128
 10
178.680531
 20
139.450719
 10
179.432221
 20
139.816845
 10
180.169268
 20
140.044943
 10
180.891516
 20
140.121847
 10
181.613755
 20
140.044928
 10
181.825337
 20
139.994028
  0
LINE
  5
102
100
AcDbEntity
  8
0
  6
HIDDEN
 62
   174
100
AcDbLine
 10
155.102871
 20
81.157122
 30
0.0
 11
155.102871
 21
83.156947
 31
0.0
  0
LINE
  5
103
100
AcDbEntity
  8
0
  6
Continuous
 62
   174
100
AcDbLine
 10
182.102871
 20
94.643539
 30
0.0
 11
182.102871
 21
117.643539
 31
0.0
  0
LINE
  5
104
100
AcDbEntity
  8
0
  6
Continuous
 62
   174
100
AcDbLine
 10
159.202871
 20
78.157384
 30
0.0
 11
159.202871
 21
79.749129
 31
0.0
  0
LWPOLYLINE
  5
105
100
AcDbEntity
  8
0
  6
HIDDEN
 62
   174
100
AcDbPolyline
 90
        4
 70
   128
 10
183.053051
 20
139.47948
 10
182.476014
 20
139.778619
 10
181.864601
 20
140.011374
 10
181.259397
 20
140.143539
  0
ARC
  5
106
100
AcDbEntity
  8
0
  6
HIDDEN
 62
   174
100
AcDbCircle
 10
179.102871
 20
117.643539
 30
0.0
 40
3.0
100
AcDbArc
 50
0.0
 51
90.0
  0
LINE
  5
107
100
AcDbEntity
  8
0
  6
HIDDEN
 62
   174
100
AcDbLine
 10
137.711977
 20
74.853539
 30
0.0
 11
134.529974
 21
74.853539
 31
0.0
  0
LINE
  5
108
100
AcDbEntity
  8
0
  6
HIDDEN
 62
   174
100
AcDbLine
 10
159.202871
 20
81.424997
 30
0.0
 11
159.202871
 21
83.156947
 31
0.0
  0
LINE
  5
109
100
AcDbEntity
  8
0
  6
HIDDEN
 62
   174
100
AcDbLine
 10
160.402871
 20
83.156947
 30
0.0
 11
160.402871
 21
86.156897
 31
0.0
  0
LINE
  5
10A
100
AcDbEntity
  8
0
  6
HIDDEN
 62
   174
100
AcDbLine
 10
182.052871
 20
104.682959
 30
0.0
 11
182.052871
 21
108.887211
 31
0.0
  0
LINE
  5
10B
100
AcDbEntity
  8
0
  6
HIDDEN
 62
   174
100
AcDbLine
 10
183.102421
 20
136.343539
 30
0.0
 11
178.524761
 21
136.343539
 31
0.0
  0
LINE
  5
10C
100
AcDbEntity
  8
0
  6
HIDDEN
 62
   174
100
AcDbLine
 10
143.452871
 20
89.793539
 30
0.0
 11
143.452871
 21
75.143539
 31
0.0
  0
LINE
  5
10D
100
AcDbEntity
  8
0
  6
Continuous
 62
   174
100
AcDbLine
 10
159.202871
 20
88.156722
 30
0.0
 11
159.202871
 21
86.564764
 31
0.0
  0
LINE
  5
10E
100
AcDbEntity
  8
0
  6
Continuous
 62
   174
100
AcDbLine
 10
159.202871
 20
86.49976
 30
0.0
 11
159.202871
 21
85.565701
 31
0.0
  0
ARC
  5
10F
100
AcDbEntity
  8
0
  6
HIDDEN
 62
   174
100
AcDbCircle
 10
133.852871
 20
75.603539
 30
0.0
 40
0.75
100
AcDbArc
 50
156.244526
 51
221.512225
  0
LINE
  5
110
100
AcDbEntity
  8
0
  6
HIDDEN
 62
   174
100
AcDbLine
 10
146.771095
 20
89.793539
 30
0.0
 11
143.47098
 21
89.793539
 31
0.0
  0
LINE
  5
111
100
AcDbEntity
  8
0
  6
Continuous
 62
   174
100
AcDbLine
 10
155.102871
 20
88.143539
 30
0.0
 11
159.202871
 21
88.143539
 31
0.0
  0
LINE
  5
112
100
AcDbEntity
  8
0
  6
Continuous
 62
   174
100
AcDbLine
 10
159.202871
 20
79.814346
 30
0.0
 11
159.202871
 21
80.748405
 31
0.0
  0
LINE
  5
113
100
AcDbEntity
  8
0
  6
HIDDEN
 62
   174
100
AcDbLine
 10
138.493086
 20
76.343539
 30
0.0
 11
133.748865
 21
76.343539
 31
0.0
  0
LINE
  5
114
100
AcDbEntity
  8
0
  6
HIDDEN
 62
   174
100
AcDbLine
 10
159.202871
 20
84.888896
 30
0.0
 11
159.202871
 21
85.156984
 31
0.0
  0
LINE
  5
115
100
AcDbEntity
  8
0
  6
HIDDEN
 62
   174
100
AcDbLine
 10
159.202871
 20
83.156947
 30
0.0
 11
159.202871
 21
80.992275
 31
0.0
  0
LINE
  5
116
100
AcDbEntity
  8
0
  6
HIDDEN
 62
   174
100
AcDbLine
 10
146.752871
 20
89.793539
 30
0.0
 11
146.752871
 21
75.143539
 31
0.0
  0
ARC
  5
117
100
AcDbEntity
  8
0
  6
HIDDEN
 62
   174
100
AcDbCircle
 10
138.352871
 20
75.603539
 30
0.0
 40
0.75
100
AcDbArc
 50
-260.633211
 51
-90.0
  0
LINE
  5
118
100
AcDbEntity
  8
0
  6
HIDDEN
 62
   174
100
AcDbLine
 10
160.402871
 20
83.156947
 30
0.0
 11
160.402871
 21
80.157209
 31
0.0
  0
LINE
  5
119
100
AcDbEntity
  8
0
  6
Continuous
 62
   174
100
AcDbLine
 10
179.102871
 20
117.643539
 30
0.0
 11
153.102871
 21
117.643539
 31
0.0
  0
LINE
  5
11A
100
AcDbEntity
  8
0
  6
Continuous
 62
   174
100
AcDbLine
 10
161.902871
 20
83.156947
 30
0.0
 11
161.902871
 21
80.748405
 31
0.0
  0
LINE
  5
11B
100
AcDbEntity
  8
0
  6
HIDDEN
 62
   174
100
AcDbLine
 10
142.102871
 20
91.143539
 30
0.0
 11
143.452871
 21
89.793539
 31
0.0
  0
ARC
  5
11C
100
AcDbEntity
  8
0
  6
HIDDEN
 62
   174
100
AcDbCircle
 10
179.102871
 20
94.643539
 30
0.0
 40
3.0
100
AcDbArc
 50
-54.0
 51
-18.0
  0
LINE
  5
11D
100
AcDbEntity
  8
0
  6
Continuous
 62
   174
100
AcDbLine
 10
134.529974
 20
74.853539
 30
0.0
 11
133.871013
 21
74.853539
 31
0.0
  0
ARC
  5
11E
100
AcDbEntity
  8
0
  6
HIDDEN
 62
   174
100
AcDbCircle
 10
133.852871
 20
75.603539
 30
0.0
 40
0.75
100
AcDbArc
 50
-90.0
 51
80.633211
  0
LINE
  5
11F
100
AcDbEntity
  8
0
  6
Continuous
 62
   174
100
AcDbLine
 10
179.102871
 20
117.655096
 30
0.0
 11
179.102871
 21
120.654834
 31
0.0
  0
ARC
  5
120
100
AcDbEntity
  8
0
  6
HIDDEN
 62
   174
100
AcDbCircle
 10
133.852871
 20
75.603539
 30
0.0
 40
0.75
100
AcDbArc
 50
-90.0
 51
80.633211
  0
LINE
  5
121
100
AcDbEntity
  8
0
  6
Continuous
 62
   174
100
AcDbLine
 10
125.102871
 20
121.143539
 30
0.0
 11
125.102871
 21
91.143539
 31
0.0
  0
LINE
  5
122
100
AcDbEntity
  8
0
  6
Continuous
 62
   174
100
AcDbLine
 10
159.202871
 20
79.749129
 30
0.0
 11
159.202871
 21
79.814346
 31
0.0
  0
LINE
  5
123
100
AcDbEntity
  8
0
  6
HIDDEN
 62
   174
100
AcDbLine
 10
134.529974
 20
74.853539
 30
0.0
 11
133.871013
 21
74.853539
 31
0.0
  0
LINE
  5
124
100
AcDbEntity
  8
0
  6
HIDDEN
 62
   174
100
AcDbLine
 10
153.102871
 20
91.143539
 30
0.0
 11
125.102871
 21
91.143539
 31
0.0
  0
LINE
  5
125
100
AcDbEntity
  8
0
  6
HIDDEN
 62
   174
100
AcDbLine
 10
138.249003
 20
76.343539
 30
0.0
 11
133.993161
 21
76.343539
 31
0.0
  0
LINE
  5
126
100
AcDbEntity
  8
0
  6
HIDDEN
 62
   174
100
AcDbLine
 10
179.120931
 20
117.643539
 30
0.0
 11
182.120881
 21
117.643539
 31
0.0
  0
LINE
  5
127
100
AcDbEntity
  8
0
  6
HIDDEN
 62
   174
100
AcDbLine
 10
166.121006
 20
120.643539
 30
0.0
 11
171.337036
 21
120.643539
 31
0.0
  0
LINE
  5
128
100
AcDbEntity
  8
0
  6
Continuous
 62
   174
100
AcDbLine
 10
179.120931
 20
94.643539
 30
0.0
 11
182.120881
 21
94.643539
 31
0.0
  0
LINE
  5
129
100
AcDbEntity
  8
0
  6
Continuous
 62
   174
100
AcDbLine
 10
131.02394
 20
128.843539
 30
0.0
 11
131.02394
 21
122.643539
 31
0.0
  0
LINE
  5
12A
100
AcDbEntity
  8
0
  6
HIDDEN
 62
   174
100
AcDbLine
 10
143.47098
 20
75.143539
 30
0.0
 11
146.771095
 21
75.143539
 31
0.0
  0
LINE
  5
12B
100
AcDbEntity
  8
0
  6
HIDDEN
 62
   174
100
AcDbLine
 10
153.102871
 20
120.654834
 30
0.0
 11
153.102871
 21
117.655096
 31
0.0
  0
ARC
  5
12C
100
AcDbEntity
  8
0
  6
HIDDEN
 62
   174
100
AcDbCircle
 10
138.352871
 20
75.603539
 30
0.0
 40
0.75
100
AcDbArc
 50
-41.512225
 51
23.755474
  0
LWPOLYLINE
  5
12D
100
AcDbEntity
  8
0
  6
HIDDEN
 62
   174
100
AcDbPolyline
 90
        4
 70
   128
 10
176.886753
 20
120.643539
 10
175.990018
 20
120.630979
 10
175.051864
 20
120.610574
 10
174.102871
 20
120.601579
  0
LINE
  5
12E
100
AcDbEntity
  8
0
  6
Continuous
 62
   174
100
AcDbLine
 10
126.120895
 20
122.643539
 30
0.0
 11
126.438267
 21
122.643539
 31
0.0
  0
LINE
  5
12F
100
AcDbEntity
  8
0
  6
Continuous
 62
   174
100
AcDbLine
 10
160.402871
 20
78.143539
 30
0.0
 11
161.902871
 21
78.143539
 31
0.0
  0
LINE
  5
130
100
AcDbEntity
  8
0
  6
HIDDEN
 62
   174
100
AcDbLine
 10
142.120982
 20
91.143539
 30
0.0
 11
148.121094
 21
91.143539
 31
0.0
  0
LINE
  5
131
100
AcDbEntity
  8
0
  6
HIDDEN
 62
   174
100
AcDbLine
 10
155.102871
 20
88.156722
 30
0.0
 11
155.102871
 21
85.565701
 31
0.0
  0
LINE
  5
132
100
AcDbEntity
  8
0
  6
Continuous
 62
   174
100
AcDbLine
 10
137.617233
 20
122.643539
 30
0.0
 11
138.620969
 21
122.643539
 31
0.0
  0
LINE
  5
133
100
AcDbEntity
  8
0
  6
Continuous
 62
   174
100
AcDbLine
 10
181.920983
 20
140.143539
 30
0.0
 11
175.012516
 21
140.143539
 31
0.0
  0
LWPOLYLINE
  5
134
100
AcDbEntity
  8
0
  6
Continuous
 62
   174
100
AcDbPolyline
 90
        4
 70
   128
 10
174.102871
 20
120.601579
 10
173.153864
 20
120.610574
 10
172.215697
 20
120.63098
 10
171.318989
 20
120.643539
  0
LINE
  5
135
100
AcDbEntity
  8
0
  6
HIDDEN
 62
   174
100
AcDbLine
 10
143.47098
 20
75.143539
 30
0.0
 11
146.771095
 21
75.143539
 31
0.0
  0
LINE
  5
136
100
AcDbEntity
  8
0
  6
HIDDEN
 62
   174
100
AcDbLine
 10
142.102871
 20
91.143539
 30
0.0
 11
143.452871
 21
89.793539
 31
0.0
  0
LINE
  5
137
100
AcDbEntity
  8
0
  6
HIDDEN
 62
   174
100
AcDbLine
 10
143.452871
 20
89.793539
 30
0.0
 11
143.452871
 21
75.143539
 31
0.0
  0
LINE
  5
138
100
AcDbEntity
  8
0
  6
Continuous
 62
   174
100
AcDbLine
 10
159.202871
 20
86.564764
 30
0.0
 11
159.202871
 21
86.49976
 31
0.0
  0
LINE
  5
139
100
AcDbEntity
  8
0
  6
HIDDEN
 62
   174
100
AcDbLine
 10
179.102871
 20
117.655096
 30
0.0
 11
179.102871
 21
120.654834
 31
0.0
  0
LINE
  5
13A
100
AcDbEntity
  8
0
  6
HIDDEN
 62
   174
100
AcDbLine
 10
142.120982
 20
91.143539
 30
0.0
 11
148.121094
 21
91.143539
 31
0.0
  0
LINE
  5
13B
100
AcDbEntity
  8
0
  6
Continuous
 62
   174
100
AcDbLine
 10
155.102871
 20
78.143539
 30
0.0
 11
159.202871
 21
78.143539
 31
0.0
  0
LINE
  5
13C
100
AcDbEntity
  8
0
  6
HIDDEN
 62
   174
100
AcDbLine
 10
148.102871
 20
91.143539
 30
0.0
 11
146.752871
 21
89.793539
 31
0.0
  0
LINE
  5
13D
100
AcDbEntity
  8
0
  6
HIDDEN
 62
   174
100
AcDbLine
 10
148.102871
 20
91.143539
 30
0.0
 11
146.752871
 21
89.793539
 31
0.0
  0
LWPOLYLINE
  5
13E
100
AcDbEntity
  8
0
  6
Continuous
 62
   174
100
AcDbPolyline
 90
        4
 70
   128
 10
174.102871
 20
120.601579
 10
175.051854
 20
120.610574
 10
175.99002
 20
120.630979
 10
176.886753
 20
120.643539
  0
LINE
  5
13F
100
AcDbEntity
  8
0
  6
Continuous
 62
   174
100
AcDbLine
 10
171.318989
 20
120.643539
 30
0.0
 11
153.102871
 21
120.643539
 31
0.0
  0
LINE
  5
140
100
AcDbEntity
  8
0
  6
HIDDEN
 62
   174
100
AcDbLine
 10
148.102871
 20
91.143539
 30
0.0
 11
146.752871
 21
89.793539
 31
0.0
  0
LINE
  5
141
100
AcDbEntity
  8
0
  6
Continuous
 62
   174
100
AcDbLine
 10
160.402871
 20
86.564764
 30
0.0
 11
160.402871
 21
88.156722
 31
0.0
  0
LINE
  5
142
100
AcDbEntity
  8
0
  6
Continuous
 62
   174
100
AcDbLine
 10
133.620982
 20
122.643539
 30
0.0
 11
137.617233
 21
122.643539
 31
0.0
  0
LINE
  5
143
100
AcDbEntity
  8
0
  6
HIDDEN
 62
   174
100
AcDbLine
 10
179.102871
 20
91.656522
 30
0.0
 11
179.102871
 21
94.656471
 31
0.0
  0
LINE
  5
144
100
AcDbEntity
  8
0
  6
HIDDEN
 62
   174
100
AcDbLine
 10
146.771095
 20
89.793539
 30
0.0
 11
143.47098
 21
89.793539
 31
0.0
  0
LINE
  5
145
100
AcDbEntity
  8
0
  6
Continuous
 62
   174
100
AcDbLine
 10
144.71675
 20
128.843539
 30
0.0
 11
144.71675
 21
122.643539
 31
0.0
  0
LINE
  5
146
100
AcDbEntity
  8
0
  6
HIDDEN
 62
   174
100
AcDbLine
 10
155.102871
 20
78.157384
 30
0.0
 11
155.102871
 21
80.748405
 31
0.0
  0
ARC
  5
147
100
AcDbEntity
  8
0
  6
HIDDEN
 62
   174
100
AcDbCircle
 10
133.852871
 20
75.603539
 30
0.0
 40
0.75
100
AcDbArc
 50
99.366789
 51
156.244526
  0
LINE
  5
148
100
AcDbEntity
  8
0
  6
HIDDEN
 62
   174
100
AcDbLine
 10
179.102871
 20
91.643539
 30
0.0
 11
153.102871
 21
91.643539
 31
0.0
  0
ARC
  5
149
100
AcDbEntity
  8
0
  6
Continuous
 62
   174
100
AcDbCircle
 10
179.102871
 20
94.643539
 30
0.0
 40
3.0
100
AcDbArc
 50
-90.0
 51
0.0
  0
LINE
  5
14A
100
AcDbEntity
  8
0
  6
HIDDEN
 62
   174
100
AcDbLine
 10
127.489919
 20
128.843539
 30
0.0
 11
127.489919
 21
122.643539
 31
0.0
  0
LINE
  5
14B
100
AcDbEntity
  8
0
  6
HIDDEN
 62
   174
100
AcDbLine
 10
146.771095
 20
89.793539
 30
0.0
 11
143.47098
 21
89.793539
 31
0.0
  0
LINE
  5
14C
100
AcDbEntity
  8
0
  6
HIDDEN
 62
   174
100
AcDbLine
 10
143.452871
 20
89.793539
 30
0.0
 11
143.452871
 21
75.143539
 31
0.0
  0
LINE
  5
14D
100
AcDbEntity
  8
0
  6
HIDDEN
 62
   174
100
AcDbLine
 10
153.102871
 20
91.656522
 30
0.0
 11
153.102871
 21
94.656471
 31
0.0
  0
LINE
  5
14E
100
AcDbEntity
  8
0
  6
Continuous
 62
   174
100
AcDbLine
 10
160.402871
 20
83.156947
 30
0.0
 11
160.402871
 21
86.564764
 31
0.0
  0
LINE
  5
14F
100
AcDbEntity
  8
0
  6
HIDDEN
 62
   174
100
AcDbLine
 10
182.052871
 20
103.512718
 30
0.0
 11
182.052871
 21
108.48955
 31
0.0
  0
ARC
  5
150
100
AcDbEntity
  8
0
  6
Continuous
 62
   174
100
AcDbCircle
 10
133.852871
 20
75.603539
 30
0.0
 40
0.75
100
AcDbArc
 50
221.512225
 51
270.0
  0
LINE
  5
151
100
AcDbEntity
  8
0
  6
Continuous
 62
   174
100
AcDbLine
 10
133.602871
 20
128.843539
 30
0.0
 11
133.602871
 21
122.643539
 31
0.0
  0
LINE
  5
152
100
AcDbEntity
  8
0
  6
HIDDEN
 62
   174
100
AcDbLine
 10
178.524761
 20
136.343539
 30
0.0
 11
178.524761
 21
139.450719
 31
0.0
  0
LINE
  5
153
100
AcDbEntity
  8
0
  6
Continuous
 62
   174
100
AcDbLine
 10
181.825337
 20
139.994028
 30
0.0
 11
183.055038
 21
139.477373
 31
0.0
  0
LINE
  5
154
100
AcDbEntity
  8
0
  6
Continuous
 62
   174
100
AcDbLine
 10
146.102871
 20
122.643539
 30
0.0
 11
146.102871
 21
121.143539
 31
0.0
  0
LINE
  5
155
100
AcDbEntity
  8
0
  6
Continuous
 62
   174
100
AcDbLine
 10
159.202871
 20
86.143539
 30
0.0
 11
160.402871
 21
86.143539
 31
0.0
  0
LINE
  5
156
100
AcDbEntity
  8
0
  6
HIDDEN
 62
   174
100
AcDbLine
 10
182.052871
 20
108.89933
 30
0.0
 11
182.052871
 21
109.512405
 31
0.0
  0
LINE
  5
157
100
AcDbEntity
  8
0
  6
Continuous
 62
   174
100
AcDbLine
 10
179.102871
 20
117.643539
 30
0.0
 11
179.102871
 21
94.643539
 31
0.0
  0
LINE
  5
158
100
AcDbEntity
  8
0
  6
HIDDEN
 62
   174
100
AcDbLine
 10
179.120931
 20
94.643539
 30
0.0
 11
182.120881
 21
94.643539
 31
0.0
  0
LINE
  5
159
100
AcDbEntity
  8
0
  6
Continuous
 62
   174
100
AcDbLine
 10
127.488152
 20
128.843539
 30
0.0
 11
127.488152
 21
122.643539
 31
0.0
  0
ARC
  5
15A
100
AcDbEntity
  8
0
  6
HIDDEN
 62
   174
100
AcDbCircle
 10
133.852871
 20
75.603539
 30
0.0
 40
0.75
100
AcDbArc
 50
99.366789
 51
156.244526
  0
ARC
  5
15B
100
AcDbEntity
  8
0
  6
HIDDEN
 62
   174
100
AcDbCircle
 10
138.352871
 20
75.603539
 30
0.0
 40
0.75
100
AcDbArc
 50
-260.633211
 51
-90.0
  0
LINE
  5
15C
100
AcDbEntity
  8
0
  6
HIDDEN
 62
   174
100
AcDbLine
 10
155.102871
 20
85.143539
 30
0.0
 11
159.202871
 21
85.143539
 31
0.0
  0
LINE
  5
15D
100
AcDbEntity
  8
0
  6
HIDDEN
 62
   174
100
AcDbLine
 10
127.489919
 20
122.643539
 30
0.0
 11
131.026936
 21
122.643539
 31
0.0
  0
ENDBLK
  5
15E
100
AcDbEntity
  8
0
100
AcDbBlockEnd
  0
BLOCK
  5
161
100
AcDbEntity
  8
0
100
AcDbBlockBegin
  2
*B6
 70
     0
 10
0.0
 20
0.0
 30
0.0
  3
*B6
  1

  0
ARC
  5
162
100
AcDbEntity
  8
0
  6
Continuous
 62
   174
100
AcDbCircle
 10
96.481979
 20
83.143539
 30
0.0
 40
2.0
100
AcDbArc
 50
-180.0
 51
0.0
  0
ARC
  5
163
100
AcDbEntity
  8
0
  6
Continuous
 62
   174
100
AcDbCircle
 10
96.481979
 20
83.143539
 30
0.0
 40
2.0
100
AcDbArc
 50
0.0
 51
180.0
  0
ARC
  5
164
100
AcDbEntity
  8
0
  6
Continuous
 62
   174
100
AcDbCircle
 10
96.589264
 20
106.500364
 30
0.0
 40
3.4
100
AcDbArc
 50
-360.0
 51
-180.0
  0
ARC
  5
165
100
AcDbEntity
  8
0
  6
Continuous
 62
   174
100
AcDbCircle
 10
96.589264
 20
106.500364
 30
0.0
 40
3.4
100
AcDbArc
 50
-180.0
 51
0.0
  0
ARC
  5
166
100
AcDbEntity
  8
0
  6
Continuous
 62
   174
100
AcDbCircle
 10
96.589264
 20
106.500364
 30
0.0
 40
3.0
100
AcDbArc
 50
-307.286546
 51
-142.713454
  0
LINE
  5
167
100
AcDbEntity
  8
0
  6
Continuous
 62
   174
100
AcDbLine
 10
98.406669
 20
108.887211
 30
0.0
 11
94.202417
 21
104.682959
 31
0.0
  0
ARC
  5
168
100
AcDbEntity
  8
0
  6
Continuous
 62
   174
100
AcDbCircle
 10
96.589264
 20
106.500364
 30
0.0
 40
3.0
100
AcDbArc
 50
-131.228296
 51
41.228296
  0
LINE
  5
169
100
AcDbEntity
  8
0
  6
Continuous
 62
   174
100
AcDbLine
 10
94.612081
 20
104.244095
 30
0.0
 11
98.845533
 21
108.477547
 31
0.0
  0
LINE
  5
16A
100
AcDbEntity
  8
0
  6
Continuous
 62
   174
100
AcDbLine
 10
102.981979
 20
132.643539
 30
0.0
 11
102.981979
 21
135.643539
 31
0.0
  0
LINE
  5
16B
100
AcDbEntity
  8
0
  6
Continuous
 62
   174
100
AcDbLine
 10
89.981979
 20
132.643539
 30
0.0
 11
89.981979
 21
135.643539
 31
0.0
  0
LINE
  5
16C
100
AcDbEntity
  8
0
  6
Continuous
 62
   174
100
AcDbLine
 10
102.981979
 20
132.643539
 30
0.0
 11
102.981979
 21
135.643539
 31
0.0
  0
LINE
  5
16D
100
AcDbEntity
  8
0
  6
Continuous
 62
   174
100
AcDbLine
 10
89.981979
 20
132.643539
 30
0.0
 11
89.981979
 21
135.643539
 31
0.0
  0
LINE
  5
16E
100
AcDbEntity
  8
0
  6
Continuous
 62
   174
100
AcDbLine
 10
105.481979
 20
135.643539
 30
0.0
 11
105.481979
 21
136.343539
 31
0.0
  0
LINE
  5
16F
100
AcDbEntity
  8
0
  6
Continuous
 62
   174
100
AcDbLine
 10
88.481979
 20
132.643539
 30
0.0
 11
88.481979
 21
120.601579
 31
0.0
  0
LINE
  5
170
100
AcDbEntity
  8
0
  6
Continuous
 62
   174
100
AcDbLine
 10
89.893557
 20
132.643539
 30
0.0
 11
88.500222
 21
132.643539
 31
0.0
  0
LINE
  5
171
100
AcDbEntity
  8
0
  6
Continuous
 62
   174
100
AcDbLine
 10
103.214252
 20
135.643539
 30
0.0
 11
105.500222
 21
135.643539
 31
0.0
  0
LINE
  5
172
100
AcDbEntity
  8
0
  6
Continuous
 62
   174
100
AcDbLine
 10
89.785855
 20
135.643539
 30
0.0
 11
103.214252
 21
135.643539
 31
0.0
  0
LWPOLYLINE
  5
173
100
AcDbEntity
  8
0
  6
Continuous
 62
   174
100
AcDbPolyline
 90
        4
 70
   128
 10
96.392045
 20
139.450719
 10
97.477014
 20
139.778619
 10
98.536013
 20
140.011374
 10
99.584257
 20
140.143539
  0
LWPOLYLINE
  5
174
100
AcDbEntity
  8
0
  6
Continuous
 62
   174
100
AcDbPolyline
 90
        6
 70
   128
 10
90.236981
 20
120.643539
 10
91.192942
 20
120.471197
 10
92.319382
 20
120.019396
 10
93.600373
 20
119.356326
 10
94.994389
 20
118.547795
 10
96.481979
 20
117.643539
  0
LINE
  5
175
100
AcDbEntity
  8
0
  6
Continuous
 62
   174
100
AcDbLine
 10
88.981979
 20
94.643539
 30
0.0
 11
88.981979
 21
117.643539
 31
0.0
  0
LINE
  5
176
100
AcDbEntity
  8
0
  6
Continuous
 62
   174
100
AcDbLine
 10
106.387546
 20
122.643539
 30
0.0
 11
106.500134
 21
122.643539
 31
0.0
  0
LINE
  5
177
100
AcDbEntity
  8
0
  6
Continuous
 62
   174
100
AcDbLine
 10
106.1817
 20
122.643539
 30
0.0
 11
106.387546
 21
122.643539
 31
0.0
  0
LINE
  5
178
100
AcDbEntity
  8
0
  6
Continuous
 62
   174
100
AcDbLine
 10
104.481979
 20
121.143539
 30
0.0
 11
107.481979
 21
121.143539
 31
0.0
  0
LINE
  5
179
100
AcDbEntity
  8
0
  6
Continuous
 62
   174
100
AcDbLine
 10
87.88566
 20
128.843539
 30
0.0
 11
86.817769
 21
128.843539
 31
0.0
  0
LINE
  5
17A
100
AcDbEntity
  8
0
  6
Continuous
 62
   174
100
AcDbLine
 10
104.320785
 20
140.131778
 30
0.0
 11
104.320785
 21
140.055303
 31
0.0
  0
LWPOLYLINE
  5
17B
100
AcDbEntity
  8
0
  6
Continuous
 62
   174
100
AcDbPolyline
 90
        4
 70
   128
 10
101.128573
 20
140.143539
 10
102.182282
 20
140.010418
 10
103.240694
 20
139.777336
 10
104.320785
 20
139.450719
  0
LWPOLYLINE
  5
17C
100
AcDbEntity
  8
0
  6
Continuous
 62
   174
100
AcDbPolyline
 90
        7
 70
   128
 10
88.733106
 20
139.450719
 10
90.035072
 20
139.816845
 10
91.311674
 20
140.044943
 10
92.562645
 20
140.121847
 10
93.8136
 20
140.044928
 10
95.090155
 20
139.816828
 10
96.392045
 20
139.450719
  0
LINE
  5
17D
100
AcDbEntity
  8
0
  6
Continuous
 62
   174
100
AcDbLine
 10
105.094609
 20
128.843539
 30
0.0
 11
105.094609
 21
122.643539
 31
0.0
  0
LINE
  5
17E
100
AcDbEntity
  8
0
  6
Continuous
 62
   174
100
AcDbLine
 10
105.094609
 20
128.843539
 30
0.0
 11
104.481979
 21
128.843539
 31
0.0
  0
LINE
  5
17F
100
AcDbEntity
  8
0
  6
Continuous
 62
   174
100
AcDbLine
 10
88.981979
 20
120.654834
 30
0.0
 11
88.981979
 21
117.655096
 31
0.0
  0
LINE
  5
180
100
AcDbEntity
  8
0
  6
Continuous
 62
   174
100
AcDbLine
 10
86.481979
 20
122.643539
 30
0.0
 11
86.481979
 21
122.143539
 31
0.0
  0
LINE
  5
181
100
AcDbEntity
  8
0
  6
Continuous
 62
   174
100
AcDbLine
 10
87.88566
 20
122.643539
 30
0.0
 11
88.474093
 21
122.643539
 31
0.0
  0
ARC
  5
182
100
AcDbEntity
  8
0
  6
Continuous
 62
   174
100
AcDbCircle
 10
98.731979
 20
75.603539
 30
0.0
 40
0.75
100
AcDbArc
 50
-90.0
 51
-41.512225
  0
LINE
  5
183
100
AcDbEntity
  8
0
  6
Continuous
 62
   174
100
AcDbLine
 10
104.526226
 20
122.643539
 30
0.0
 11
105.112748
 21
122.643539
 31
0.0
  0
LINE
  5
184
100
AcDbEntity
  8
0
  6
Continuous
 62
   174
100
AcDbLine
 10
85.481979
 20
121.143539
 30
0.0
 11
88.481979
 21
121.143539
 31
0.0
  0
LINE
  5
185
100
AcDbEntity
  8
0
  6
Continuous
 62
   174
100
AcDbLine
 10
106.981979
 20
94.643539
 30
0.0
 11
106.981979
 21
117.643539
 31
0.0
  0
LINE
  5
186
100
AcDbEntity
  8
0
  6
Continuous
 62
   174
100
AcDbLine
 10
105.481979
 20
135.643539
 30
0.0
 11
105.481979
 21
136.343539
 31
0.0
  0
LINE
  5
187
100
AcDbEntity
  8
0
  6
Continuous
 62
   174
100
AcDbLine
 10
104.481979
 20
132.643539
 30
0.0
 11
104.481979
 21
120.601579
 31
0.0
  0
LINE
  5
188
100
AcDbEntity
  8
0
  6
Continuous
 62
   174
100
AcDbLine
 10
102.726977
 20
120.643539
 30
0.0
 11
103.981979
 21
120.643539
 31
0.0
  0
LINE
  5
189
100
AcDbEntity
  8
0
  6
Continuous
 62
   174
100
AcDbLine
 10
85.356979
 20
91.143539
 30
0.0
 11
107.606979
 21
91.143539
 31
0.0
  0
LINE
  5
18A
100
AcDbEntity
  8
0
  6
Continuous
 62
   174
100
AcDbLine
 10
103.10655
 20
132.643539
 30
0.0
 11
89.893557
 21
132.643539
 31
0.0
  0
LINE
  5
18B
100
AcDbEntity
  8
0
  6
Continuous
 62
   174
100
AcDbLine
 10
106.1817
 20
128.843539
 30
0.0
 11
105.112748
 21
128.843539
 31
0.0
  0
LINE
  5
18C
100
AcDbEntity
  8
0
  6
Continuous
 62
   174
100
AcDbLine
 10
106.163567
 20
128.843539
 30
0.0
 11
106.163567
 21
122.643539
 31
0.0
  0
LINE
  5
18D
100
AcDbEntity
  8
0
  6
Continuous
 62
   174
100
AcDbLine
 10
96.481979
 20
117.643539
 30
0.0
 11
103.981979
 21
117.643539
 31
0.0
  0
LINE
  5
18E
100
AcDbEntity
  8
0
  6
Continuous
 62
   174
100
AcDbLine
 10
103.981979
 20
117.655096
 30
0.0
 11
103.981979
 21
120.654834
 31
0.0
  0
LINE
  5
18F
100
AcDbEntity
  8
0
  6
Continuous
 62
   174
100
AcDbLine
 10
94.909052
 20
74.853539
 30
0.0
 11
94.360343
 21
74.853539
 31
0.0
  0
LINE
  5
190
100
AcDbEntity
  8
0
  6
Continuous
 62
   174
100
AcDbLine
 10
96.50016
 20
74.853539
 30
0.0
 11
94.909052
 21
74.853539
 31
0.0
  0
LINE
  5
191
100
AcDbEntity
  8
0
  6
Continuous
 62
   174
100
AcDbLine
 10
85.481979
 20
91.143539
 30
0.0
 11
85.481979
 21
121.143539
 31
0.0
  0
LINE
  5
192
100
AcDbEntity
  8
0
  6
Continuous
 62
   174
100
AcDbLine
 10
103.981979
 20
94.656471
 30
0.0
 11
103.981979
 21
91.656522
 31
0.0
  0
ARC
  5
193
100
AcDbEntity
  8
0
  6
Continuous
 62
   174
100
AcDbCircle
 10
88.981979
 20
94.643539
 30
0.0
 40
3.0
100
AcDbArc
 50
-180.0
 51
-90.0
  0
LINE
  5
194
100
AcDbEntity
  8
0
  6
Continuous
 62
   174
100
AcDbLine
 10
88.481979
 20
132.643539
 30
0.0
 11
88.481979
 21
120.601579
 31
0.0
  0
LINE
  5
195
100
AcDbEntity
  8
0
  6
Continuous
 62
   174
100
AcDbLine
 10
103.981979
 20
91.643539
 30
0.0
 11
88.981979
 21
91.643539
 31
0.0
  0
LINE
  5
196
100
AcDbEntity
  8
0
  6
Continuous
 62
   174
100
AcDbLine
 10
85.356979
 20
75.143539
 30
0.0
 11
85.356979
 21
91.143539
 31
0.0
  0
LINE
  5
197
100
AcDbEntity
  8
0
  6
Continuous
 62
   174
100
AcDbLine
 10
104.500097
 20
132.643539
 30
0.0
 11
103.10655
 21
132.643539
 31
0.0
  0
LINE
  5
198
100
AcDbEntity
  8
0
  6
Continuous
 62
   174
100
AcDbLine
 10
88.481979
 20
128.843539
 30
0.0
 11
87.867582
 21
128.843539
 31
0.0
  0
LINE
  5
199
100
AcDbEntity
  8
0
  6
Continuous
 62
   174
100
AcDbLine
 10
86.481979
 20
122.143539
 30
0.0
 11
86.481979
 21
121.143539
 31
0.0
  0
LINE
  5
19A
100
AcDbEntity
  8
0
  6
Continuous
 62
   174
100
AcDbLine
 10
103.981979
 20
94.643539
 30
0.0
 11
88.981979
 21
94.643539
 31
0.0
  0
LINE
  5
19B
100
AcDbEntity
  8
0
  6
Continuous
 62
   174
100
AcDbLine
 10
103.981979
 20
120.643539
 30
0.0
 11
102.726977
 21
120.643539
 31
0.0
  0
LINE
  5
19C
100
AcDbEntity
  8
0
  6
Continuous
 62
   174
100
AcDbLine
 10
98.750228
 20
74.853539
 30
0.0
 11
98.639977
 21
74.853539
 31
0.0
  0
LINE
  5
19D
100
AcDbEntity
  8
0
  6
Continuous
 62
   174
100
AcDbLine
 10
94.909052
 20
74.853539
 30
0.0
 11
94.250516
 21
74.853539
 31
0.0
  0
ARC
  5
19E
100
AcDbEntity
  8
0
  6
Continuous
 62
   174
100
AcDbCircle
 10
96.481979
 20
83.143539
 30
0.0
 40
5.0
100
AcDbArc
 50
0.0
 51
180.0
  0
ARC
  5
19F
100
AcDbEntity
  8
0
  6
Continuous
 62
   174
100
AcDbCircle
 10
96.481979
 20
83.143539
 30
0.0
 40
5.0
100
AcDbArc
 50
180.0
 51
360.0
  0
LINE
  5
1A0
100
AcDbEntity
  8
0
  6
Continuous
 62
   174
100
AcDbLine
 10
87.481979
 20
135.643539
 30
0.0
 11
87.481979
 21
136.343539
 31
0.0
  0
LINE
  5
1A1
100
AcDbEntity
  8
0
  6
Continuous
 62
   174
100
AcDbLine
 10
107.606979
 20
75.143539
 30
0.0
 11
107.606979
 21
91.143539
 31
0.0
  0
LINE
  5
1A2
100
AcDbEntity
  8
0
  6
Continuous
 62
   174
100
AcDbLine
 10
85.356979
 20
75.143539
 30
0.0
 11
107.606979
 21
75.143539
 31
0.0
  0
LINE
  5
1A3
100
AcDbEntity
  8
0
  6
Continuous
 62
   174
100
AcDbLine
 10
87.500098
 20
135.643539
 30
0.0
 11
89.785855
 21
135.643539
 31
0.0
  0
LINE
  5
1A4
100
AcDbEntity
  8
0
  6
Continuous
 62
   174
100
AcDbLine
 10
88.751316
 20
136.343539
 30
0.0
 11
87.500098
 21
136.343539
 31
0.0
  0
LINE
  5
1A5
100
AcDbEntity
  8
0
  6
Continuous
 62
   174
100
AcDbLine
 10
99.584257
 20
140.143539
 30
0.0
 11
101.128573
 21
140.143539
 31
0.0
  0
LINE
  5
1A6
100
AcDbEntity
  8
0
  6
Continuous
 62
   174
100
AcDbLine
 10
87.867582
 20
128.843539
 30
0.0
 11
87.867582
 21
122.643539
 31
0.0
  0
LWPOLYLINE
  5
1A7
100
AcDbEntity
  8
0
  6
Continuous
 62
   174
100
AcDbPolyline
 90
        6
 70
   128
 10
96.481979
 20
117.643539
 10
97.971339
 20
118.548855
 10
99.365088
 20
119.35716
 10
100.643749
 20
120.019008
 10
101.769853
 20
120.470834
 10
102.726977
 20
120.643539
  0
ARC
  5
1A8
100
AcDbEntity
  8
0
  6
Continuous
 62
   174
100
AcDbCircle
 10
88.981979
 20
117.643539
 30
0.0
 40
3.0
100
AcDbArc
 50
-270.0
 51
-180.0
  0
LINE
  5
1A9
100
AcDbEntity
  8
0
  6
Continuous
 62
   174
100
AcDbLine
 10
103.981979
 20
117.643539
 30
0.0
 11
103.981979
 21
94.643539
 31
0.0
  0
LINE
  5
1AA
100
AcDbEntity
  8
0
  6
Continuous
 62
   174
100
AcDbLine
 10
86.500185
 20
122.643539
 30
0.0
 11
86.612773
 21
122.643539
 31
0.0
  0
ARC
  5
1AB
100
AcDbEntity
  8
0
  6
Continuous
 62
   174
100
AcDbCircle
 10
103.981979
 20
117.643539
 30
0.0
 40
3.0
100
AcDbArc
 50
-360.0
 51
-270.0
  0
LINE
  5
1AC
100
AcDbEntity
  8
0
  6
Continuous
 62
   174
100
AcDbLine
 10
98.091055
 20
74.853539
 30
0.0
 11
96.50016
 21
74.853539
 31
0.0
  0
ARC
  5
1AD
100
AcDbEntity
  8
0
  6
Continuous
 62
   174
100
AcDbCircle
 10
103.981979
 20
94.643539
 30
0.0
 40
3.0
100
AcDbArc
 50
-90.0
 51
0.0
  0
LINE
  5
1AE
100
AcDbEntity
  8
0
  6
Continuous
 62
   174
100
AcDbLine
 10
88.981979
 20
91.656522
 30
0.0
 11
88.981979
 21
94.656471
 31
0.0
  0
LINE
  5
1AF
100
AcDbEntity
  8
0
  6
Continuous
 62
   174
100
AcDbLine
 10
86.000123
 20
94.643539
 30
0.0
 11
89.000072
 21
94.643539
 31
0.0
  0
LINE
  5
1B0
100
AcDbEntity
  8
0
  6
Continuous
 62
   174
100
AcDbLine
 10
105.500222
 20
136.343539
 30
0.0
 11
104.338862
 21
136.343539
 31
0.0
  0
LINE
  5
1B1
100
AcDbEntity
  8
0
  6
Continuous
 62
   174
100
AcDbLine
 10
104.338862
 20
136.343539
 30
0.0
 11
96.410089
 21
136.343539
 31
0.0
  0
LINE
  5
1B2
100
AcDbEntity
  8
0
  6
Continuous
 62
   174
100
AcDbLine
 10
88.733106
 20
139.450719
 30
0.0
 11
88.733106
 21
136.343539
 31
0.0
  0
LINE
  5
1B3
100
AcDbEntity
  8
0
  6
Continuous
 62
   174
100
AcDbLine
 10
104.3002
 20
140.143539
 30
0.0
 11
101.146662
 21
140.143539
 31
0.0
  0
LINE
  5
1B4
100
AcDbEntity
  8
0
  6
Continuous
 62
   174
100
AcDbLine
 10
104.320785
 20
136.343539
 30
0.0
 11
104.320785
 21
139.450719
 31
0.0
  0
LINE
  5
1B5
100
AcDbEntity
  8
0
  6
Continuous
 62
   174
100
AcDbLine
 10
90.236981
 20
120.643539
 30
0.0
 11
88.981979
 21
120.643539
 31
0.0
  0
LINE
  5
1B6
100
AcDbEntity
  8
0
  6
Continuous
 62
   174
100
AcDbLine
 10
106.481979
 20
122.143539
 30
0.0
 11
106.481979
 21
121.143539
 31
0.0
  0
LINE
  5
1B7
100
AcDbEntity
  8
0
  6
Continuous
 62
   174
100
AcDbLine
 10
86.481979
 20
122.143539
 30
0.0
 11
86.481979
 21
121.143539
 31
0.0
  0
LINE
  5
1B8
100
AcDbEntity
  8
0
  6
Continuous
 62
   174
100
AcDbLine
 10
86.612773
 20
122.643539
 30
0.0
 11
86.817769
 21
122.643539
 31
0.0
  0
LINE
  5
1B9
100
AcDbEntity
  8
0
  6
Continuous
 62
   174
100
AcDbLine
 10
96.50016
 20
74.853539
 30
0.0
 11
94.909052
 21
74.853539
 31
0.0
  0
LINE
  5
1BA
100
AcDbEntity
  8
0
  6
Continuous
 62
   174
100
AcDbLine
 10
107.481979
 20
121.143539
 30
0.0
 11
107.481979
 21
91.143539
 31
0.0
  0
LINE
  5
1BB
100
AcDbEntity
  8
0
  6
Continuous
 62
   174
100
AcDbLine
 10
87.481979
 20
135.643539
 30
0.0
 11
87.481979
 21
136.343539
 31
0.0
  0
LINE
  5
1BC
100
AcDbEntity
  8
0
  6
Continuous
 62
   174
100
AcDbLine
 10
104.281979
 20
140.143539
 30
0.0
 11
104.452752
 21
140.044943
 31
0.0
  0
LINE
  5
1BD
100
AcDbEntity
  8
0
  6
Continuous
 62
   174
100
AcDbLine
 10
104.481979
 20
132.643539
 30
0.0
 11
104.481979
 21
120.601579
 31
0.0
  0
LINE
  5
1BE
100
AcDbEntity
  8
0
  6
Continuous
 62
   174
100
AcDbLine
 10
88.981979
 20
120.643539
 30
0.0
 11
90.236981
 21
120.643539
 31
0.0
  0
LINE
  5
1BF
100
AcDbEntity
  8
0
  6
Continuous
 62
   174
100
AcDbLine
 10
85.981979
 20
94.643539
 30
0.0
 11
85.981979
 21
117.643539
 31
0.0
  0
LINE
  5
1C0
100
AcDbEntity
  8
0
  6
Continuous
 62
   174
100
AcDbLine
 10
96.410089
 20
136.343539
 30
0.0
 11
88.751316
 21
136.343539
 31
0.0
  0
LWPOLYLINE
  5
1C1
100
AcDbEntity
  8
0
  6
Continuous
 62
   174
100
AcDbPolyline
 90
        4
 70
   128
 10
88.733106
 20
140.143539
 10
88.733106
 20
140.010419
 10
88.733106
 20
139.777333
 10
88.733106
 20
139.450719
  0
LINE
  5
1C2
100
AcDbEntity
  8
0
  6
Continuous
 62
   174
100
AcDbLine
 10
96.392045
 20
136.343539
 30
0.0
 11
96.392045
 21
139.450719
 31
0.0
  0
LINE
  5
1C3
100
AcDbEntity
  8
0
  6
Continuous
 62
   174
100
AcDbLine
 10
88.981979
 20
117.643539
 30
0.0
 11
96.481979
 21
117.643539
 31
0.0
  0
LINE
  5
1C4
100
AcDbEntity
  8
0
  6
Continuous
 62
   174
100
AcDbLine
 10
106.481979
 20
122.643539
 30
0.0
 11
106.481979
 21
122.143539
 31
0.0
  0
ARC
  5
1C5
100
AcDbEntity
  8
0
  6
Continuous
 62
   174
100
AcDbCircle
 10
94.231979
 20
75.603539
 30
0.0
 40
0.75
100
AcDbArc
 50
221.512225
 51
270.0
  0
LINE
  5
1C6
100
AcDbEntity
  8
0
  6
Continuous
 62
   174
100
AcDbLine
 10
98.639977
 20
74.853539
 30
0.0
 11
98.091055
 21
74.853539
 31
0.0
  0
LINE
  5
1C7
100
AcDbEntity
  8
0
  6
Continuous
 62
   174
100
AcDbLine
 10
98.750228
 20
74.853539
 30
0.0
 11
98.091055
 21
74.853539
 31
0.0
  0
LINE
  5
1C8
100
AcDbEntity
  8
0
  6
Continuous
 62
   174
100
AcDbLine
 10
99.602501
 20
140.143539
 30
0.0
 11
88.751316
 21
140.143539
 31
0.0
  0
LWPOLYLINE
  5
1C9
100
AcDbEntity
  8
0
  6
Continuous
 62
   174
100
AcDbPolyline
 90
        3
 70
   128
 10
104.320785
 20
139.450719
 10
104.320785
 20
139.816821
 10
104.320785
 20
140.044921
  0
LINE
  5
1CA
100
AcDbEntity
  8
0
  6
Continuous
 62
   174
100
AcDbLine
 10
86.79952
 20
128.843539
 30
0.0
 11
86.79952
 21
122.643539
 31
0.0
  0
LINE
  5
1CB
100
AcDbEntity
  8
0
  6
Continuous
 62
   174
100
AcDbLine
 10
106.481979
 20
122.143539
 30
0.0
 11
106.481979
 21
121.143539
 31
0.0
  0
LINE
  5
1CC
100
AcDbEntity
  8
0
  6
Continuous
 62
   174
100
AcDbLine
 10
98.091055
 20
74.853539
 30
0.0
 11
96.50016
 21
74.853539
 31
0.0
  0
LINE
  5
1CD
100
AcDbEntity
  8
0
  6
Continuous
 62
   174
100
AcDbLine
 10
88.981979
 20
91.643539
 30
0.0
 11
103.981979
 21
91.643539
 31
0.0
  0
LINE
  5
1CE
100
AcDbEntity
  8
0
  6
Continuous
 62
   174
100
AcDbLine
 10
86.000123
 20
117.643539
 30
0.0
 11
89.000072
 21
117.643539
 31
0.0
  0
LINE
  5
1CF
100
AcDbEntity
  8
0
  6
Continuous
 62
   174
100
AcDbLine
 10
85.981979
 20
117.643539
 30
0.0
 11
85.981979
 21
94.643539
 31
0.0
  0
LINE
  5
1D0
100
AcDbEntity
  8
0
  6
Continuous
 62
   174
100
AcDbLine
 10
104.000035
 20
117.643539
 30
0.0
 11
107.000197
 21
117.643539
 31
0.0
  0
LINE
  5
1D1
100
AcDbEntity
  8
0
  6
Continuous
 62
   174
100
AcDbLine
 10
104.000035
 20
94.643539
 30
0.0
 11
107.000197
 21
94.643539
 31
0.0
  0
ENDBLK
  5
1D2
100
AcDbEntity
  8
0
100
AcDbBlockEnd
  0
BLOCK
  5
1D5
100
AcDbEntity
  8
0
100
AcDbBlockBegin
  2
*B7
 70
     0
 10
0.0
 20
0.0
 30
0.0
  3
*B7
  1

  0
LINE
  5
1D6
100
AcDbEntity
  8
0
  6
Continuous
 62
   174
100
AcDbLine
 10
205.954671
 20
139.061507
 30
0.0
 11
205.954671
 21
136.447276
 31
0.0
  0
LINE
  5
1D7
100
AcDbEntity
  8
0
  6
Continuous
 62
   174
100
AcDbLine
 10
205.972841
 20
136.447276
 30
0.0
 11
213.901613
 21
136.447276
 31
0.0
  0
LINE
  5
1D8
100
AcDbEntity
  8
0
  6
Continuous
 62
   174
100
AcDbLine
 10
213.901613
 20
136.447276
 30
0.0
 11
221.560387
 21
136.447276
 31
0.0
  0
LINE
  5
1D9
100
AcDbEntity
  8
0
  6
Continuous
 62
   174
100
AcDbLine
 10
208.708302
 20
128.947276
 30
0.0
 11
205.179947
 21
128.947276
 31
0.0
  0
LINE
  5
1DA
100
AcDbEntity
  8
0
  6
Continuous
 62
   174
100
AcDbLine
 10
222.46428
 20
136.447276
 30
0.0
 11
222.811605
 21
136.447276
 31
0.0
  0
LINE
  5
1DB
100
AcDbEntity
  8
0
  6
Continuous
 62
   174
100
AcDbLine
 10
221.560387
 20
136.447276
 30
0.0
 11
222.46428
 21
136.447276
 31
0.0
  0
LINE
  5
1DC
100
AcDbEntity
  8
0
  6
Continuous
 62
   174
100
AcDbLine
 10
222.405096
 20
128.947276
 30
0.0
 11
218.875909
 21
128.947276
 31
0.0
  0
LINE
  5
1DD
100
AcDbEntity
  8
0
  6
Continuous
 62
   174
100
AcDbLine
 10
216.285662
 20
128.947276
 30
0.0
 11
211.297925
 21
128.947276
 31
0.0
  0
LINE
  5
1DE
100
AcDbEntity
  8
0
  6
Continuous
 62
   174
100
AcDbLine
 10
204.811481
 20
136.447276
 30
0.0
 11
205.972841
 21
136.447276
 31
0.0
  0
LINE
  5
1DF
100
AcDbEntity
  8
0
  6
Continuous
 62
   174
100
AcDbLine
 10
223.811517
 20
122.747276
 30
0.0
 11
223.493933
 21
122.747276
 31
0.0
  0
LINE
  5
1E0
100
AcDbEntity
  8
0
  6
Continuous
 62
   174
100
AcDbLine
 10
204.128303
 20
122.747276
 30
0.0
 11
203.811568
 21
122.747276
 31
0.0
  0
LINE
  5
1E1
100
AcDbEntity
  8
0
  6
Continuous
 62
   174
100
AcDbLine
 10
208.726158
 20
122.747276
 30
0.0
 11
205.198105
 21
122.747276
 31
0.0
  0
LINE
  5
1E2
100
AcDbEntity
  8
0
  6
HIDDEN
 62
   174
100
AcDbLine
 10
222.41045
 20
122.747276
 30
0.0
 11
222.41045
 21
128.947276
 31
0.0
  0
LINE
  5
1E3
100
AcDbEntity
  8
0
  6
HIDDEN
 62
   174
100
AcDbLine
 10
218.793478
 20
91.247276
 30
0.0
 11
220.143478
 21
89.897276
 31
0.0
  0
LINE
  5
1E4
100
AcDbEntity
  8
0
  6
Continuous
 62
   174
100
AcDbLine
 10
207.447536
 20
135.747276
 30
0.0
 11
207.207277
 21
135.747276
 31
0.0
  0
LINE
  5
1E5
100
AcDbEntity
  8
0
  6
Continuous
 62
   174
100
AcDbLine
 10
207.207277
 20
135.747276
 30
0.0
 11
205.38908
 21
135.747276
 31
0.0
  0
LINE
  5
1E6
100
AcDbEntity
  8
0
  6
HIDDEN
 62
   174
100
AcDbLine
 10
207.31158
 20
132.747276
 30
0.0
 11
220.311505
 21
132.747276
 31
0.0
  0
LINE
  5
1E7
100
AcDbEntity
  8
0
  6
Continuous
 62
   174
100
AcDbLine
 10
202.793478
 20
91.247276
 30
0.0
 11
224.793478
 21
91.247276
 31
0.0
  0
LINE
  5
1E8
100
AcDbEntity
  8
0
  6
Continuous
 62
   174
100
AcDbLine
 10
204.793478
 20
136.447276
 30
0.0
 11
204.793478
 21
135.747276
 31
0.0
  0
LINE
  5
1E9
100
AcDbEntity
  8
0
  6
Continuous
 62
   174
100
AcDbLine
 10
215.95136
 20
74.957276
 30
0.0
 11
215.402651
 21
74.957276
 31
0.0
  0
ARC
  5
1EA
100
AcDbEntity
  8
0
  6
HIDDEN
 62
   174
100
AcDbCircle
 10
211.543478
 20
75.707276
 30
0.0
 40
0.75
100
AcDbArc
 50
156.244526
 51
213.122263
  0
LINE
  5
1EB
100
AcDbEntity
  8
0
  6
HIDDEN
 62
   174
100
AcDbLine
 10
216.183547
 20
76.447276
 30
0.0
 11
213.811543
 21
76.447276
 31
0.0
  0
LINE
  5
1EC
100
AcDbEntity
  8
0
  6
Continuous
 62
   174
100
AcDbLine
 10
211.298323
 20
122.747276
 30
0.0
 11
211.298323
 21
128.947276
 31
0.0
  0
LINE
  5
1ED
100
AcDbEntity
  8
0
  6
HIDDEN
 62
   174
100
AcDbLine
 10
216.301671
 20
122.747276
 30
0.0
 11
216.301671
 21
128.947276
 31
0.0
  0
LINE
  5
1EE
100
AcDbEntity
  8
0
  6
Continuous
 62
   174
100
AcDbLine
 10
204.110151
 20
122.747276
 30
0.0
 11
204.110151
 21
128.947276
 31
0.0
  0
LINE
  5
1EF
100
AcDbEntity
  8
0
  6
Continuous
 62
   174
100
AcDbLine
 10
205.180091
 20
122.747276
 30
0.0
 11
205.180091
 21
128.947276
 31
0.0
  0
LINE
  5
1F0
100
AcDbEntity
  8
0
  6
Continuous
 62
   174
100
AcDbLine
 10
222.811605
 20
135.747276
 30
0.0
 11
222.146271
 21
135.747276
 31
0.0
  0
LINE
  5
1F1
100
AcDbEntity
  8
0
  6
Continuous
 62
   174
100
AcDbLine
 10
220.175549
 20
135.747276
 30
0.0
 11
213.811543
 21
135.747276
 31
0.0
  0
LINE
  5
1F2
100
AcDbEntity
  8
0
  6
Continuous
 62
   174
100
AcDbLine
 10
213.811543
 20
135.747276
 30
0.0
 11
207.447536
 21
135.747276
 31
0.0
  0
LINE
  5
1F3
100
AcDbEntity
  8
0
  6
Continuous
 62
   174
100
AcDbLine
 10
212.220647
 20
74.957276
 30
0.0
 11
211.562111
 21
74.957276
 31
0.0
  0
ARC
  5
1F4
100
AcDbEntity
  8
0
  6
Continuous
 62
   174
100
AcDbCircle
 10
211.543478
 20
75.707276
 30
0.0
 40
0.75
100
AcDbArc
 50
221.512225
 51
270.0
  0
ARC
  5
1F5
100
AcDbEntity
  8
0
  6
Continuous
 62
   174
100
AcDbCircle
 10
216.043478
 20
75.707276
 30
0.0
 40
0.75
100
AcDbArc
 50
-90.0
 51
-41.512225
  0
LINE
  5
1F6
100
AcDbEntity
  8
0
  6
Continuous
 62
   174
100
AcDbLine
 10
216.285264
 20
122.747276
 30
0.0
 11
216.285264
 21
128.947276
 31
0.0
  0
LINE
  5
1F7
100
AcDbEntity
  8
0
  6
HIDDEN
 62
   174
100
AcDbLine
 10
208.793478
 20
91.247276
 30
0.0
 11
207.443478
 21
89.897276
 31
0.0
  0
LINE
  5
1F8
100
AcDbEntity
  8
0
  6
Continuous
 62
   174
100
AcDbLine
 10
223.793478
 20
121.247276
 30
0.0
 11
223.793478
 21
122.747276
 31
0.0
  0
LINE
  5
1F9
100
AcDbEntity
  8
0
  6
Continuous
 62
   174
100
AcDbLine
 10
203.793478
 20
121.247276
 30
0.0
 11
203.793478
 21
122.747276
 31
0.0
  0
ARC
  5
1FA
100
AcDbEntity
  8
0
  6
Continuous
 62
   174
100
AcDbCircle
 10
213.793478
 20
80.247276
 30
0.0
 40
3.0
100
AcDbArc
 50
-180.0
 51
-135.0
  0
ARC
  5
1FB
100
AcDbEntity
  8
0
  6
Continuous
 62
   174
100
AcDbCircle
 10
213.793478
 20
80.247276
 30
0.0
 40
3.0
100
AcDbArc
 50
-225.0
 51
-180.0
  0
LINE
  5
1FC
100
AcDbEntity
  8
0
  6
Continuous
 62
   174
100
AcDbLine
 10
216.242967
 20
80.747276
 30
0.0
 11
211.343988
 21
80.747276
 31
0.0
  0
ARC
  5
1FD
100
AcDbEntity
  8
0
  6
HIDDEN
 62
   174
100
AcDbCircle
 10
216.043478
 20
75.707276
 30
0.0
 40
0.75
100
AcDbArc
 50
-260.633211
 51
-90.0
  0
LINE
  5
1FE
100
AcDbEntity
  8
0
  6
Continuous
 62
   174
100
AcDbLine
 10
212.220647
 20
74.957276
 30
0.0
 11
211.671726
 21
74.957276
 31
0.0
  0
LINE
  5
1FF
100
AcDbEntity
  8
0
  6
Continuous
 62
   174
100
AcDbLine
 10
213.811543
 20
74.957276
 30
0.0
 11
212.220647
 21
74.957276
 31
0.0
  0
ARC
  5
200
100
AcDbEntity
  8
0
  6
HIDDEN
 62
   174
100
AcDbCircle
 10
211.543478
 20
75.707276
 30
0.0
 40
0.75
100
AcDbArc
 50
213.122263
 51
221.512225
  0
LINE
  5
201
100
AcDbEntity
  8
0
  6
Continuous
 62
   174
100
AcDbLine
 10
218.875909
 20
122.747276
 30
0.0
 11
218.875909
 21
128.947276
 31
0.0
  0
LINE
  5
202
100
AcDbEntity
  8
0
  6
HIDDEN
 62
   174
100
AcDbLine
 10
211.288649
 20
122.747276
 30
0.0
 11
211.288649
 21
128.947276
 31
0.0
  0
LINE
  5
203
100
AcDbEntity
  8
0
  6
Continuous
 62
   174
100
AcDbLine
 10
205.38908
 20
135.747276
 30
0.0
 11
204.811481
 21
135.747276
 31
0.0
  0
LINE
  5
204
100
AcDbEntity
  8
0
  6
Continuous
 62
   174
100
AcDbLine
 10
224.918478
 20
75.247276
 30
0.0
 11
224.918478
 21
91.247276
 31
0.0
  0
LINE
  5
205
100
AcDbEntity
  8
0
  6
Continuous
 62
   174
100
AcDbLine
 10
202.793478
 20
91.247276
 30
0.0
 11
202.793478
 21
121.247276
 31
0.0
  0
LINE
  5
206
100
AcDbEntity
  8
0
  6
Continuous
 62
   174
100
AcDbLine
 10
202.668478
 20
91.247276
 30
0.0
 11
202.793478
 21
91.247276
 31
0.0
  0
LINE
  5
207
100
AcDbEntity
  8
0
  6
Continuous
 62
   174
100
AcDbLine
 10
202.668478
 20
75.247276
 30
0.0
 11
224.918478
 21
75.247276
 31
0.0
  0
LINE
  5
208
100
AcDbEntity
  8
0
  6
HIDDEN
 62
   174
100
AcDbLine
 10
216.811493
 20
76.447276
 30
0.0
 11
213.811543
 21
76.447276
 31
0.0
  0
LINE
  5
209
100
AcDbEntity
  8
0
  6
HIDDEN
 62
   174
100
AcDbLine
 10
213.811543
 20
75.247276
 30
0.0
 11
211.690207
 21
75.247276
 31
0.0
  0
LINE
  5
20A
100
AcDbEntity
  8
0
  6
Continuous
 62
   174
100
AcDbLine
 10
204.793478
 20
136.447276
 30
0.0
 11
204.793478
 21
135.747276
 31
0.0
  0
LINE
  5
20B
100
AcDbEntity
  8
0
  6
Continuous
 62
   174
100
AcDbLine
 10
222.793478
 20
136.447276
 30
0.0
 11
222.793478
 21
135.747276
 31
0.0
  0
ARC
  5
20C
100
AcDbEntity
  8
0
  6
Continuous
 62
   174
100
AcDbCircle
 10
213.793478
 20
80.247276
 30
0.0
 40
3.0
100
AcDbArc
 50
-315.0
 51
-225.0
  0
ARC
  5
20D
100
AcDbEntity
  8
0
  6
Continuous
 62
   174
100
AcDbCircle
 10
213.793478
 20
80.247276
 30
0.0
 40
2.5
100
AcDbArc
 50
-348.463041
 51
-191.536959
  0
LINE
  5
20E
100
AcDbEntity
  8
0
  6
Continuous
 62
   174
100
AcDbLine
 10
213.811543
 20
74.957276
 30
0.0
 11
212.220647
 21
74.957276
 31
0.0
  0
LINE
  5
20F
100
AcDbEntity
  8
0
  6
Continuous
 62
   174
100
AcDbLine
 10
216.061611
 20
74.957276
 30
0.0
 11
215.402651
 21
74.957276
 31
0.0
  0
LINE
  5
210
100
AcDbEntity
  8
0
  6
Continuous
 62
   174
100
AcDbLine
 10
216.061611
 20
74.957276
 30
0.0
 11
215.95136
 21
74.957276
 31
0.0
  0
ARC
  5
211
100
AcDbEntity
  8
0
  6
HIDDEN
 62
   174
100
AcDbCircle
 10
211.543478
 20
75.707276
 30
0.0
 40
0.75
100
AcDbArc
 50
99.366789
 51
156.244526
  0
ARC
  5
212
100
AcDbEntity
  8
0
  6
HIDDEN
 62
   174
100
AcDbCircle
 10
216.043478
 20
75.707276
 30
0.0
 40
0.75
100
AcDbArc
 50
-41.512225
 51
-33.122263
  0
LINE
  5
213
100
AcDbEntity
  8
0
  6
HIDDEN
 62
   174
100
AcDbLine
 10
213.811543
 20
76.447276
 30
0.0
 11
211.683622
 21
76.447276
 31
0.0
  0
LINE
  5
214
100
AcDbEntity
  8
0
  6
HIDDEN
 62
   174
100
AcDbLine
 10
215.939464
 20
76.447276
 30
0.0
 11
213.811543
 21
76.447276
 31
0.0
  0
LINE
  5
215
100
AcDbEntity
  8
0
  6
Continuous
 62
   174
100
AcDbLine
 10
216.303358
 20
122.747276
 30
0.0
 11
211.316329
 21
122.747276
 31
0.0
  0
LINE
  5
216
100
AcDbEntity
  8
0
  6
HIDDEN
 62
   174
100
AcDbLine
 10
216.793478
 20
75.247276
 30
0.0
 11
216.793478
 21
76.447276
 31
0.0
  0
LINE
  5
217
100
AcDbEntity
  8
0
  6
Continuous
 62
   174
100
AcDbLine
 10
223.475936
 20
122.747276
 30
0.0
 11
223.475936
 21
128.947276
 31
0.0
  0
LINE
  5
218
100
AcDbEntity
  8
0
  6
HIDDEN
 62
   174
100
AcDbLine
 10
218.868583
 20
122.747276
 30
0.0
 11
218.868583
 21
128.947276
 31
0.0
  0
LINE
  5
219
100
AcDbEntity
  8
0
  6
HIDDEN
 62
   174
100
AcDbLine
 10
202.793478
 20
91.247276
 30
0.0
 11
204.143478
 21
89.897276
 31
0.0
  0
LINE
  5
21A
100
AcDbEntity
  8
0
  6
Continuous
 62
   174
100
AcDbLine
 10
224.793478
 20
91.247276
 30
0.0
 11
224.918478
 21
91.247276
 31
0.0
  0
LINE
  5
21B
100
AcDbEntity
  8
0
  6
HIDDEN
 62
   174
100
AcDbLine
 10
210.811593
 20
76.447276
 30
0.0
 11
213.811543
 21
76.447276
 31
0.0
  0
LINE
  5
21C
100
AcDbEntity
  8
0
  6
Continuous
 62
   174
100
AcDbLine
 10
223.793478
 20
121.247276
 30
0.0
 11
223.793478
 21
122.747276
 31
0.0
  0
LINE
  5
21D
100
AcDbEntity
  8
0
  6
Continuous
 62
   174
100
AcDbLine
 10
203.793478
 20
121.247276
 30
0.0
 11
203.793478
 21
122.747276
 31
0.0
  0
ARC
  5
21E
100
AcDbEntity
  8
0
  6
Continuous
 62
   174
100
AcDbCircle
 10
213.793478
 20
80.247276
 30
0.0
 40
2.5
100
AcDbArc
 50
-168.463041
 51
-11.536959
  0
LINE
  5
21F
100
AcDbEntity
  8
0
  6
Continuous
 62
   174
100
AcDbLine
 10
222.423281
 20
122.747276
 30
0.0
 11
218.893953
 21
122.747276
 31
0.0
  0
LINE
  5
220
100
AcDbEntity
  8
0
  6
Continuous
 62
   174
100
AcDbLine
 10
224.793478
 20
91.247276
 30
0.0
 11
224.793478
 21
121.247276
 31
0.0
  0
LINE
  5
221
100
AcDbEntity
  8
0
  6
HIDDEN
 62
   174
100
AcDbLine
 10
216.75881
 20
75.247276
 30
0.0
 11
215.932878
 21
75.247276
 31
0.0
  0
LINE
  5
222
100
AcDbEntity
  8
0
  6
Continuous
 62
   174
100
AcDbLine
 10
222.793478
 20
136.447276
 30
0.0
 11
222.793478
 21
135.747276
 31
0.0
  0
ARC
  5
223
100
AcDbEntity
  8
0
  6
Continuous
 62
   174
100
AcDbCircle
 10
213.793478
 20
80.247276
 30
0.0
 40
3.0
100
AcDbArc
 50
-45.0
 51
0.0
  0
ARC
  5
224
100
AcDbEntity
  8
0
  6
Continuous
 62
   174
100
AcDbCircle
 10
213.793478
 20
80.247276
 30
0.0
 40
3.0
100
AcDbArc
 50
-135.0
 51
-45.0
  0
LINE
  5
225
100
AcDbEntity
  8
0
  6
Continuous
 62
   174
100
AcDbLine
 10
211.343988
 20
79.747276
 30
0.0
 11
216.242967
 21
79.747276
 31
0.0
  0
LINE
  5
226
100
AcDbEntity
  8
0
  6
HIDDEN
 62
   174
100
AcDbLine
 10
213.811543
 20
76.447276
 30
0.0
 11
211.439539
 21
76.447276
 31
0.0
  0
LINE
  5
227
100
AcDbEntity
  8
0
  6
Continuous
 62
   174
100
AcDbLine
 10
208.708053
 20
122.747276
 30
0.0
 11
208.708053
 21
128.947276
 31
0.0
  0
LINE
  5
228
100
AcDbEntity
  8
0
  6
HIDDEN
 62
   174
100
AcDbLine
 10
210.793478
 20
75.247276
 30
0.0
 11
210.793478
 21
76.447276
 31
0.0
  0
LINE
  5
229
100
AcDbEntity
  8
0
  6
HIDDEN
 62
   174
100
AcDbLine
 10
208.72137
 20
122.747276
 30
0.0
 11
208.72137
 21
128.947276
 31
0.0
  0
LINE
  5
22A
100
AcDbEntity
  8
0
  6
Continuous
 62
   174
100
AcDbLine
 10
208.154719
 20
132.747276
 30
0.0
 11
205.811605
 21
132.747276
 31
0.0
  0
LINE
  5
22B
100
AcDbEntity
  8
0
  6
Continuous
 62
   174
100
AcDbLine
 10
221.81148
 20
132.747276
 30
0.0
 11
219.468367
 21
132.747276
 31
0.0
  0
LINE
  5
22C
100
AcDbEntity
  8
0
  6
Continuous
 62
   174
100
AcDbLine
 10
219.468367
 20
132.747276
 30
0.0
 11
208.154719
 21
132.747276
 31
0.0
  0
LINE
  5
22D
100
AcDbEntity
  8
0
  6
HIDDEN
 62
   174
100
AcDbLine
 10
224.793478
 20
91.247276
 30
0.0
 11
223.443478
 21
89.897276
 31
0.0
  0
LINE
  5
22E
100
AcDbEntity
  8
0
  6
Continuous
 62
   174
100
AcDbLine
 10
202.668478
 20
75.247276
 30
0.0
 11
202.668478
 21
91.247276
 31
0.0
  0
LINE
  5
22F
100
AcDbEntity
  8
0
  6
Continuous
 62
   174
100
AcDbLine
 10
202.793478
 20
91.247276
 30
0.0
 11
224.793478
 21
91.247276
 31
0.0
  0
LINE
  5
230
100
AcDbEntity
  8
0
  6
HIDDEN
 62
   174
100
AcDbLine
 10
205.954671
 20
136.447276
 30
0.0
 11
213.883411
 21
136.447276
 31
0.0
  0
LINE
  5
231
100
AcDbEntity
  8
0
  6
HIDDEN
 62
   174
100
AcDbLine
 10
215.932878
 20
75.247276
 30
0.0
 11
213.811543
 21
75.247276
 31
0.0
  0
LINE
  5
232
100
AcDbEntity
  8
0
  6
HIDDEN
 62
   174
100
AcDbLine
 10
210.864276
 20
75.247276
 30
0.0
 11
210.811593
 21
75.247276
 31
0.0
  0
LINE
  5
233
100
AcDbEntity
  8
0
  6
HIDDEN
 62
   174
100
AcDbLine
 10
223.811517
 20
121.247276
 30
0.0
 11
203.811568
 21
121.247276
 31
0.0
  0
ARC
  5
234
100
AcDbEntity
  8
0
  6
HIDDEN
 62
   174
100
AcDbCircle
 10
216.043478
 20
75.707276
 30
0.0
 40
0.75
100
AcDbArc
 50
-336.244526
 51
-279.366789
  0
ARC
  5
235
100
AcDbEntity
  8
0
  6
HIDDEN
 62
   174
100
AcDbCircle
 10
216.043478
 20
75.707276
 30
0.0
 40
0.75
100
AcDbArc
 50
-33.122263
 51
23.755474
  0
ARC
  5
236
100
AcDbEntity
  8
0
  6
HIDDEN
 62
   174
100
AcDbCircle
 10
211.543478
 20
75.707276
 30
0.0
 40
0.75
100
AcDbArc
 50
-90.0
 51
80.633211
  0
LINE
  5
237
100
AcDbEntity
  8
0
  6
Continuous
 62
   174
100
AcDbLine
 10
222.405096
 20
122.747276
 30
0.0
 11
222.405096
 21
128.947276
 31
0.0
  0
LINE
  5
238
100
AcDbEntity
  8
0
  6
HIDDEN
 62
   174
100
AcDbLine
 10
205.178269
 20
122.747276
 30
0.0
 11
205.178269
 21
128.947276
 31
0.0
  0
LINE
  5
239
100
AcDbEntity
  8
0
  6
HIDDEN
 62
   174
100
AcDbLine
 10
207.31158
 20
135.747276
 30
0.0
 11
220.311505
 21
135.747276
 31
0.0
  0
LINE
  5
23A
100
AcDbEntity
  8
0
  6
Continuous
 62
   174
100
AcDbLine
 10
222.146271
 20
135.747276
 30
0.0
 11
220.415809
 21
135.747276
 31
0.0
  0
LINE
  5
23B
100
AcDbEntity
  8
0
  6
Continuous
 62
   174
100
AcDbLine
 10
220.415809
 20
135.747276
 30
0.0
 11
220.175549
 21
135.747276
 31
0.0
  0
LINE
  5
23C
100
AcDbEntity
  8
0
  6
Continuous
 62
   174
100
AcDbLine
 10
202.793478
 20
121.247276
 30
0.0
 11
224.793478
 21
121.247276
 31
0.0
  0
LINE
  5
23D
100
AcDbEntity
  8
0
  6
HIDDEN
 62
   174
100
AcDbLine
 10
213.883411
 20
136.447276
 30
0.0
 11
221.54235
 21
136.447276
 31
0.0
  0
LINE
  5
23E
100
AcDbEntity
  8
0
  6
HIDDEN
 62
   174
100
AcDbLine
 10
216.811493
 20
75.247276
 30
0.0
 11
216.75881
 21
75.247276
 31
0.0
  0
LINE
  5
23F
100
AcDbEntity
  8
0
  6
HIDDEN
 62
   174
100
AcDbLine
 10
211.690207
 20
75.247276
 30
0.0
 11
210.864276
 21
75.247276
 31
0.0
  0
ARC
  5
240
100
AcDbEntity
  8
0
  6
Continuous
 62
   174
100
AcDbCircle
 10
213.793478
 20
80.247276
 30
0.0
 40
3.0
100
AcDbArc
 50
0.0
 51
45.0
  0
LINE
  5
241
100
AcDbEntity
  8
0
  6
Continuous
 62
   174
100
AcDbLine
 10
215.402651
 20
74.957276
 30
0.0
 11
213.811543
 21
74.957276
 31
0.0
  0
LINE
  5
242
100
AcDbEntity
  8
0
  6
Continuous
 62
   174
100
AcDbLine
 10
215.402651
 20
74.957276
 30
0.0
 11
213.811543
 21
74.957276
 31
0.0
  0
LINE
  5
243
100
AcDbEntity
  8
0
  6
HIDDEN
 62
   174
100
AcDbLine
 10
207.461557
 20
89.897276
 30
0.0
 11
205.811605
 21
89.897276
 31
0.0
  0
LINE
  5
244
100
AcDbEntity
  8
0
  6
HIDDEN
 62
   174
100
AcDbLine
 10
207.339409
 20
128.947276
 30
0.0
 11
205.811605
 21
128.947276
 31
0.0
  0
LINE
  5
245
100
AcDbEntity
  8
0
  6
HIDDEN
 62
   174
100
AcDbLine
 10
203.69027
 20
91.247276
 30
0.0
 11
205.811605
 21
91.247276
 31
0.0
  0
LINE
  5
246
100
AcDbEntity
  8
0
  6
HIDDEN
 62
   174
100
AcDbLine
 10
221.81148
 20
128.947276
 30
0.0
 11
220.283677
 21
128.947276
 31
0.0
  0
LINE
  5
247
100
AcDbEntity
  8
0
  6
HIDDEN
 62
   174
100
AcDbLine
 10
205.811605
 20
89.897276
 30
0.0
 11
204.161654
 21
89.897276
 31
0.0
  0
LINE
  5
248
100
AcDbEntity
  8
0
  6
Continuous
 62
   174
100
AcDbLine
 10
221.560387
 20
140.247276
 30
0.0
 11
220.132213
 21
140.247276
 31
0.0
  0
LINE
  5
249
100
AcDbEntity
  8
0
  6
HIDDEN
 62
   174
100
AcDbLine
 10
221.81148
 20
89.897276
 30
0.0
 11
220.161529
 21
89.897276
 31
0.0
  0
LINE
  5
24A
100
AcDbEntity
  8
0
  6
HIDDEN
 62
   174
100
AcDbLine
 10
223.932816
 20
91.247276
 30
0.0
 11
224.811642
 21
91.247276
 31
0.0
  0
LINE
  5
24B
100
AcDbEntity
  8
0
  6
HIDDEN
 62
   174
100
AcDbLine
 10
202.811656
 20
91.247276
 30
0.0
 11
203.69027
 21
91.247276
 31
0.0
  0
LINE
  5
24C
100
AcDbEntity
  8
0
  6
HIDDEN
 62
   174
100
AcDbLine
 10
219.120617
 20
128.947276
 30
0.0
 11
216.283814
 21
128.947276
 31
0.0
  0
LINE
  5
24D
100
AcDbEntity
  8
0
  6
HIDDEN
 62
   174
100
AcDbLine
 10
218.866216
 20
122.747276
 30
0.0
 11
222.411724
 21
122.747276
 31
0.0
  0
LINE
  5
24E
100
AcDbEntity
  8
0
  6
Continuous
 62
   174
100
AcDbLine
 10
205.793478
 20
128.947276
 30
0.0
 11
205.793478
 21
132.747276
 31
0.0
  0
LINE
  5
24F
100
AcDbEntity
  8
0
  6
HIDDEN
 62
   174
100
AcDbLine
 10
208.500132
 20
128.947276
 30
0.0
 11
207.339409
 21
128.947276
 31
0.0
  0
LINE
  5
250
100
AcDbEntity
  8
0
  6
HIDDEN
 62
   174
100
AcDbLine
 10
205.811605
 20
75.247276
 30
0.0
 11
207.461557
 21
75.247276
 31
0.0
  0
LINE
  5
251
100
AcDbEntity
  8
0
  6
HIDDEN
 62
   174
100
AcDbLine
 10
216.283814
 20
128.947276
 30
0.0
 11
211.311868
 21
128.947276
 31
0.0
  0
LINE
  5
252
100
AcDbEntity
  8
0
  6
HIDDEN
 62
   174
100
AcDbLine
 10
223.461644
 20
89.897276
 30
0.0
 11
221.81148
 21
89.897276
 31
0.0
  0
LWPOLYLINE
  5
253
100
AcDbEntity
  8
0
  6
Continuous
 62
   174
100
AcDbPolyline
 90
        4
 70
   128
 10
221.54235
 20
140.247276
 10
221.54235
 20
139.888274
 10
221.54235
 20
139.491241
 10
221.54235
 20
139.061507
  0
LINE
  5
254
100
AcDbEntity
  8
0
  6
Continuous
 62
   174
100
AcDbLine
 10
221.793478
 20
128.947276
 30
0.0
 11
221.793478
 21
132.747276
 31
0.0
  0
LINE
  5
255
100
AcDbEntity
  8
0
  6
Continuous
 62
   174
100
AcDbLine
 10
205.198105
 20
128.947276
 30
0.0
 11
204.128303
 21
128.947276
 31
0.0
  0
LWPOLYLINE
  5
256
100
AcDbEntity
  8
0
  6
HIDDEN
 62
   174
100
AcDbPolyline
 90
        4
 70
   128
 10
213.883411
 20
139.061556
 10
214.348849
 20
139.49681
 10
214.824529
 20
139.894219
 10
215.311481
 20
140.247276
  0
LWPOLYLINE
  5
257
100
AcDbEntity
  8
0
  6
Continuous
 62
   174
100
AcDbPolyline
 90
        4
 70
   128
 10
205.954671
 20
139.061507
 10
205.954671
 20
139.496781
 10
205.954671
 20
139.894207
 10
205.954671
 20
140.247276
  0
LINE
  5
258
100
AcDbEntity
  8
0
  6
Continuous
 62
   174
100
AcDbLine
 10
220.293478
 20
135.747276
 30
0.0
 11
220.293478
 21
132.747276
 31
0.0
  0
LWPOLYLINE
  5
259
100
AcDbEntity
  8
0
  6
HIDDEN
 62
   174
100
AcDbPolyline
 90
        4
 70
   128
 10
205.954671
 20
139.061556
 10
206.396231
 20
139.49126
 10
206.846937
 20
139.88828
 10
207.30789
 20
140.247276
  0
LWPOLYLINE
  5
25A
100
AcDbEntity
  8
0
  6
HIDDEN
 62
   174
100
AcDbPolyline
 90
        4
 70
   128
 10
212.530193
 20
140.247276
 10
212.991137
 20
139.888287
 10
213.44184
 20
139.491271
 10
213.883411
 20
139.061556
  0
LINE
  5
25B
100
AcDbEntity
  8
0
  6
Continuous
 62
   174
100
AcDbLine
 10
218.893953
 20
128.947276
 30
0.0
 11
216.303783
 21
128.947276
 31
0.0
  0
LINE
  5
25C
100
AcDbEntity
  8
0
  6
Continuous
 62
   174
100
AcDbLine
 10
212.53013
 20
140.247276
 30
0.0
 11
207.307953
 21
140.247276
 31
0.0
  0
LINE
  5
25D
100
AcDbEntity
  8
0
  6
HIDDEN
 62
   174
100
AcDbLine
 10
211.311868
 20
128.947276
 30
0.0
 11
208.500132
 21
128.947276
 31
0.0
  0
LINE
  5
25E
100
AcDbEntity
  8
0
  6
Continuous
 62
   174
100
AcDbLine
 10
213.883411
 20
139.061507
 30
0.0
 11
213.883411
 21
136.447276
 31
0.0
  0
LINE
  5
25F
100
AcDbEntity
  8
0
  6
HIDDEN
 62
   174
100
AcDbLine
 10
221.81148
 20
75.247276
 30
0.0
 11
223.461644
 21
75.247276
 31
0.0
  0
LINE
  5
260
100
AcDbEntity
  8
0
  6
HIDDEN
 62
   174
100
AcDbLine
 10
205.811605
 20
91.247276
 30
0.0
 11
208.811555
 21
91.247276
 31
0.0
  0
LINE
  5
261
100
AcDbEntity
  8
0
  6
HIDDEN
 62
   174
100
AcDbLine
 10
211.285052
 20
122.747276
 30
0.0
 11
216.305268
 21
122.747276
 31
0.0
  0
LINE
  5
262
100
AcDbEntity
  8
0
  6
Continuous
 62
   174
100
AcDbLine
 10
221.793478
 20
128.947276
 30
0.0
 11
221.793478
 21
132.747276
 31
0.0
  0
LINE
  5
263
100
AcDbEntity
  8
0
  6
HIDDEN
 62
   174
100
AcDbLine
 10
220.283677
 20
128.947276
 30
0.0
 11
219.120617
 21
128.947276
 31
0.0
  0
LINE
  5
264
100
AcDbEntity
  8
0
  6
Continuous
 62
   174
100
AcDbLine
 10
207.326026
 20
140.247276
 30
0.0
 11
205.972841
 21
140.247276
 31
0.0
  0
LINE
  5
265
100
AcDbEntity
  8
0
  6
HIDDEN
 62
   174
100
AcDbLine
 10
223.443478
 20
89.897276
 30
0.0
 11
223.443478
 21
75.247276
 31
0.0
  0
LINE
  5
266
100
AcDbEntity
  8
0
  6
Continuous
 62
   174
100
AcDbLine
 10
211.316116
 20
128.947276
 30
0.0
 11
208.726371
 21
128.947276
 31
0.0
  0
LINE
  5
267
100
AcDbEntity
  8
0
  6
HIDDEN
 62
   174
100
AcDbLine
 10
204.161654
 20
75.247276
 30
0.0
 11
205.811605
 21
75.247276
 31
0.0
  0
LWPOLYLINE
  5
268
100
AcDbEntity
  8
0
  6
Continuous
 62
   174
100
AcDbPolyline
 90
        4
 70
   128
 10
213.883411
 20
139.061507
 10
213.441832
 20
139.491231
 10
212.991105
 20
139.888268
 10
212.53013
 20
140.247276
  0
LINE
  5
269
100
AcDbEntity
  8
0
  6
HIDDEN
 62
   174
100
AcDbLine
 10
213.883411
 20
139.061556
 30
0.0
 11
213.883411
 21
136.447276
 31
0.0
  0
LINE
  5
26A
100
AcDbEntity
  8
0
  6
Continuous
 62
   174
100
AcDbLine
 10
215.329574
 20
140.247276
 30
0.0
 11
212.548216
 21
140.247276
 31
0.0
  0
LINE
  5
26B
100
AcDbEntity
  8
0
  6
Continuous
 62
   174
100
AcDbLine
 10
207.293478
 20
135.747276
 30
0.0
 11
207.293478
 21
132.747276
 31
0.0
  0
LINE
  5
26C
100
AcDbEntity
  8
0
  6
HIDDEN
 62
   174
100
AcDbLine
 10
207.443478
 20
89.897276
 30
0.0
 11
207.443478
 21
75.247276
 31
0.0
  0
LINE
  5
26D
100
AcDbEntity
  8
0
  6
HIDDEN
 62
   174
100
AcDbLine
 10
220.143478
 20
89.897276
 30
0.0
 11
220.143478
 21
75.247276
 31
0.0
  0
LINE
  5
26E
100
AcDbEntity
  8
0
  6
HIDDEN
 62
   174
100
AcDbLine
 10
221.81148
 20
89.897276
 30
0.0
 11
220.161529
 21
89.897276
 31
0.0
  0
LINE
  5
26F
100
AcDbEntity
  8
0
  6
Continuous
 62
   174
100
AcDbLine
 10
223.493933
 20
128.947276
 30
0.0
 11
222.423281
 21
128.947276
 31
0.0
  0
LINE
  5
270
100
AcDbEntity
  8
0
  6
HIDDEN
 62
   174
100
AcDbLine
 10
221.81148
 20
91.247276
 30
0.0
 11
223.932816
 21
91.247276
 31
0.0
  0
LINE
  5
271
100
AcDbEntity
  8
0
  6
HIDDEN
 62
   174
100
AcDbLine
 10
220.161529
 20
75.247276
 30
0.0
 11
221.81148
 21
75.247276
 31
0.0
  0
LINE
  5
272
100
AcDbEntity
  8
0
  6
HIDDEN
 62
   174
100
AcDbLine
 10
207.461557
 20
89.897276
 30
0.0
 11
205.811605
 21
89.897276
 31
0.0
  0
LINE
  5
273
100
AcDbEntity
  8
0
  6
Continuous
 62
   174
100
AcDbLine
 10
207.293478
 20
135.747276
 30
0.0
 11
207.293478
 21
132.747276
 31
0.0
  0
LWPOLYLINE
  5
274
100
AcDbEntity
  8
0
  6
Continuous
 62
   174
100
AcDbPolyline
 90
        4
 70
   128
 10
221.54235
 20
139.061507
 10
221.076891
 20
139.496781
 10
220.601187
 20
139.894207
 10
220.114212
 20
140.247276
  0
LINE
  5
275
100
AcDbEntity
  8
0
  6
HIDDEN
 62
   174
100
AcDbLine
 10
204.143478
 20
89.897276
 30
0.0
 11
204.143478
 21
75.247276
 31
0.0
  0
LINE
  5
276
100
AcDbEntity
  8
0
  6
HIDDEN
 62
   174
100
AcDbLine
 10
205.176994
 20
122.747276
 30
0.0
 11
208.723738
 21
122.747276
 31
0.0
  0
LINE
  5
277
100
AcDbEntity
  8
0
  6
Continuous
 62
   174
100
AcDbLine
 10
220.114212
 20
140.247276
 30
0.0
 11
215.311549
 21
140.247276
 31
0.0
  0
LWPOLYLINE
  5
278
100
AcDbEntity
  8
0
  6
Continuous
 62
   174
100
AcDbPolyline
 90
        4
 70
   128
 10
207.307953
 20
140.247276
 10
206.846986
 20
139.888274
 10
206.396262
 20
139.491241
 10
205.954671
 20
139.061507
  0
LINE
  5
279
100
AcDbEntity
  8
0
  6
Continuous
 62
   174
100
AcDbLine
 10
220.293478
 20
135.747276
 30
0.0
 11
220.293478
 21
132.747276
 31
0.0
  0
LINE
  5
27A
100
AcDbEntity
  8
0
  6
HIDDEN
 62
   174
100
AcDbLine
 10
223.461644
 20
89.897276
 30
0.0
 11
221.81148
 21
89.897276
 31
0.0
  0
LINE
  5
27B
100
AcDbEntity
  8
0
  6
Continuous
 62
   174
100
AcDbLine
 10
205.793478
 20
128.947276
 30
0.0
 11
205.793478
 21
132.747276
 31
0.0
  0
LINE
  5
27C
100
AcDbEntity
  8
0
  6
HIDDEN
 62
   174
100
AcDbLine
 10
205.811605
 20
89.897276
 30
0.0
 11
204.161654
 21
89.897276
 31
0.0
  0
LINE
  5
27D
100
AcDbEntity
  8
0
  6
HIDDEN
 62
   174
100
AcDbLine
 10
218.81153
 20
91.247276
 30
0.0
 11
221.81148
 21
91.247276
 31
0.0
  0
LWPOLYLINE
  5
27E
100
AcDbEntity
  8
0
  6
HIDDEN
 62
   174
100
AcDbPolyline
 90
        4
 70
   128
 10
220.114281
 20
140.247276
 10
220.601235
 20
139.894217
 10
221.076911
 20
139.496811
 10
221.54235
 20
139.061556
  0
LINE
  5
27F
100
AcDbEntity
  8
0
  6
Continuous
 62
   174
100
AcDbLine
 10
221.54235
 20
139.061507
 30
0.0
 11
221.54235
 21
136.447276
 31
0.0
  0
LWPOLYLINE
  5
280
100
AcDbEntity
  8
0
  6
Continuous
 62
   174
100
AcDbPolyline
 90
        4
 70
   128
 10
215.311549
 20
140.247276
 10
214.824571
 20
139.894205
 10
214.348871
 20
139.496781
 10
213.883411
 20
139.061507
  0
ENDBLK
  5
281
100
AcDbEntity
  8
0
100
AcDbBlockEnd
  0
BLOCK
  5
284
100
AcDbEntity
  8
0
100
AcDbBlockBegin
  2
*B8
 70
     0
 10
0.0
 20
0.0
 30
0.0
  3
*B8
  1

  0
LINE
  5
285
100
AcDbEntity
  8
0
  6
Continuous
 62
     0
100
AcDbLine
 10
143.121107
 20
62.014756
 30
0.0
 11
118.120957
 21
62.014756
 31
0.0
  0
SOLID
  5
286
100
AcDbEntity
  8
0
  6
Continuous
 62
     0
100
AcDbTrace
 10
139.621094
 20
62.614661
 30
0.0
 11
136.121082
 21
62.014756
 31
0.0
 12
139.621094
 22
61.414639
 32
0.0
 13
139.621094
 23
61.414639
 33
0.0
  0
SOLID
  5
287
100
AcDbEntity
  8
0
  6
Continuous
 62
     0
100
AcDbTrace
 10
121.62097
 20
61.414639
 30
0.0
 11
125.120982
 21
62.014756
 31
0.0
 12
121.62097
 22
62.614661
 32
0.0
 13
121.62097
 23
62.614661
 33
0.0
  0
ENDBLK
  5
288
100
AcDbEntity
  8
0
100
AcDbBlockEnd
  0
BLOCK
  5
28B
100
AcDbEntity
  8
0
100
AcDbBlockBegin
  2
*B9
 70
     0
 10
0.0
 20
0.0
 30
0.0
  3
*B9
  1

  0
LINE
  5
28C
100
AcDbEntity
  8
0
  6
Continuous
 62
     0
100
AcDbLine
 10
138.120907
 20
50.015381
 30
0.0
 11
162.120931
 21
50.015381
 31
0.0
  0
SOLID
  5
28D
100
AcDbEntity
  8
0
  6
Continuous
 62
     0
100
AcDbTrace
 10
141.620919
 20
49.415476
 30
0.0
 11
145.120932
 21
50.015381
 31
0.0
 12
141.620919
 22
50.615286
 32
0.0
 13
141.620919
 23
50.615286
 33
0.0
  0
SOLID
  5
28E
100
AcDbEntity
  8
0
  6
Continuous
 62
     0
100
AcDbTrace
 10
158.620919
 20
50.615286
 30
0.0
 11
155.120906
 21
50.015381
 31
0.0
 12
158.620919
 22
49.415476
 32
0.0
 13
158.620919
 23
49.415476
 33
0.0
  0
ENDBLK
  5
28F
100
AcDbEntity
  8
0
100
AcDbBlockEnd
  0
BLOCK
  5
292
100
AcDbEntity
  8
0
100
AcDbBlockBegin
  2
*B10
 70
     0
 10
0.0
 20
0.0
 30
0.0
  3
*B10
  1

  0
LINE
  5
293
100
AcDbEntity
  8
0
  6
Continuous
 62
     0
100
AcDbLine
 10
87.500098
 20
62.014756
 30
0.0
 11
111.734221
 21
62.014756
 31
0.0
  0
SOLID
  5
294
100
AcDbEntity
  8
0
  6
Continuous
 62
     0
100
AcDbTrace
 10
91.00011
 20
61.414639
 30
0.0
 11
94.500122
 21
62.014756
 31
0.0
 12
91.00011
 22
62.614661
 32
0.0
 13
91.00011
 23
62.614661
 33
0.0
  0
SOLID
  5
295
100
AcDbEntity
  8
0
  6
Continuous
 62
     0
100
AcDbTrace
 10
102.00021
 20
62.614661
 30
0.0
 11
98.500197
 21
62.014756
 31
0.0
 12
102.00021
 22
61.414639
 32
0.0
 13
102.00021
 23
61.414639
 33
0.0
  0
ENDBLK
  5
296
100
AcDbEntity
  8
0
100
AcDbBlockEnd
  0
BLOCK
  5
299
100
AcDbEntity
  8
0
100
AcDbBlockBegin
  2
*B11
 70
     0
 10
0.0
 20
0.0
 30
0.0
  3
*B11
  1

  0
LINE
  5
29A
100
AcDbEntity
  8
0
  6
Continuous
 62
     0
100
AcDbLine
 10
107.625169
 20
50.015381
 30
0.0
 11
85.375151
 21
50.015381
 31
0.0
  0
SOLID
  5
29B
100
AcDbEntity
  8
0
  6
Continuous
 62
     0
100
AcDbTrace
 10
104.125156
 20
49.415476
 30
0.0
 11
107.625169
 21
50.015381
 31
0.0
 12
104.125156
 22
50.615286
 32
0.0
 13
104.125156
 23
50.615286
 33
0.0
  0
SOLID
  5
29C
100
AcDbEntity
  8
0
  6
Continuous
 62
     0
100
AcDbTrace
 10
88.875163
 20
50.615286
 30
0.0
 11
85.375151
 21
50.015381
 31
0.0
 12
88.875163
 22
49.415476
 32
0.0
 13
88.875163
 23
49.415476
 33
0.0
  0
ENDBLK
  5
29D
100
AcDbEntity
  8
0
100
AcDbBlockEnd
  0
BLOCK
  5
2A0
100
AcDbEntity
  8
0
100
AcDbBlockBegin
  2
*B12
 70
     0
 10
0.0
 20
0.0
 30
0.0
  3
*B12
  1

  0
LINE
  5
2A1
100
AcDbEntity
  8
0
  6
Continuous
 62
     0
100
AcDbLine
 10
75.01808
 20
90.156547
 30
0.0
 11
75.01808
 21
68.157834
 31
0.0
  0
SOLID
  5
2A2
100
AcDbEntity
  8
0
  6
Continuous
 62
     0
100
AcDbTrace
 10
74.418175
 20
86.656747
 30
0.0
 11
75.01808
 21
83.156947
 31
0.0
 12
75.618197
 22
86.656747
 32
0.0
 13
75.618197
 23
86.656747
 33
0.0
  0
SOLID
  5
2A3
100
AcDbEntity
  8
0
  6
Continuous
 62
     0
100
AcDbTrace
 10
75.618197
 20
71.657634
 30
0.0
 11
75.01808
 21
75.157434
 31
0.0
 12
74.418175
 22
71.657634
 32
0.0
 13
74.418175
 23
71.657634
 33
0.0
  0
ENDBLK
  5
2A4
100
AcDbEntity
  8
0
100
AcDbBlockEnd
  0
BLOCK
  5
2A7
100
AcDbEntity
  8
0
100
AcDbBlockBegin
  2
*B13
 70
     0
 10
0.0
 20
0.0
 30
0.0
  3
*B13
  1

  0
LINE
  5
2A8
100
AcDbEntity
  8
0
  6
Continuous
 62
     0
100
AcDbLine
 10
155.120906
 20
140.010268
 30
0.0
 11
125.120982
 21
140.010268
 31
0.0
  0
SOLID
  5
2A9
100
AcDbEntity
  8
0
  6
Continuous
 62
     0
100
AcDbTrace
 10
151.620894
 20
139.410363
 30
0.0
 11
155.120906
 21
140.010268
 31
0.0
 12
151.620894
 22
140.610173
 32
0.0
 13
151.620894
 23
140.610173
 33
0.0
  0
SOLID
  5
2AA
100
AcDbEntity
  8
0
  6
Continuous
 62
     0
100
AcDbTrace
 10
128.620995
 20
140.610173
 30
0.0
 11
125.120982
 21
140.010268
 31
0.0
 12
128.620995
 22
139.410363
 32
0.0
 13
128.620995
 23
139.410363
 33
0.0
  0
ENDBLK
  5
2AB
100
AcDbEntity
  8
0
100
AcDbBlockEnd
  0
BLOCK
  5
2AE
100
AcDbEntity
  8
0
100
AcDbBlockBegin
  2
*B14
 70
     0
 10
0.0
 20
0.0
 30
0.0
  3
*B14
  1

  0
LINE
  5
2AF
100
AcDbEntity
  8
0
  6
Continuous
 62
     0
100
AcDbLine
 10
183.120581
 20
153.509618
 30
0.0
 11
125.120982
 21
153.509618
 31
0.0
  0
SOLID
  5
2B0
100
AcDbEntity
  8
0
  6
Continuous
 62
     0
100
AcDbTrace
 10
179.620568
 20
152.9095
 30
0.0
 11
183.120581
 21
153.509618
 31
0.0
 12
179.620568
 22
154.109523
 32
0.0
 13
179.620568
 23
154.109523
 33
0.0
  0
SOLID
  5
2B1
100
AcDbEntity
  8
0
  6
Continuous
 62
     0
100
AcDbTrace
 10
128.620995
 20
154.109523
 30
0.0
 11
125.120982
 21
153.509618
 31
0.0
 12
128.620995
 22
152.9095
 32
0.0
 13
128.620995
 23
152.9095
 33
0.0
  0
ENDBLK
  5
2B2
100
AcDbEntity
  8
0
100
AcDbBlockEnd
  0
BLOCK
  5
2B5
100
AcDbEntity
  8
0
100
AcDbBlockBegin
  2
*B15
 70
     0
 10
0.0
 20
0.0
 30
0.0
  3
*B15
  1

  0
LINE
  5
2B6
100
AcDbEntity
  8
0
  6
Continuous
 62
     0
100
AcDbLine
 10
194.018076
 20
91.156672
 30
0.0
 11
194.018076
 21
140.153871
 31
0.0
  0
SOLID
  5
2B7
100
AcDbEntity
  8
0
  6
Continuous
 62
     0
100
AcDbTrace
 10
193.418171
 20
94.656471
 30
0.0
 11
194.018076
 21
91.156672
 31
0.0
 12
194.618194
 22
94.656471
 32
0.0
 13
194.618194
 23
94.656471
 33
0.0
  0
SOLID
  5
2B8
100
AcDbEntity
  8
0
  6
Continuous
 62
     0
100
AcDbTrace
 10
194.618194
 20
136.654071
 30
0.0
 11
194.018076
 21
140.153871
 31
0.0
 12
193.418171
 22
136.654071
 32
0.0
 13
193.418171
 23
136.654071
 33
0.0
  0
ENDBLK
  5
2B9
100
AcDbEntity
  8
0
100
AcDbBlockEnd
  0
BLOCK
  5
2BC
100
AcDbEntity
  8
0
100
AcDbBlockBegin
  2
*B16
 70
     0
 10
0.0
 20
0.0
 30
0.0
  3
*B16
  1

  0
LINE
  5
2BD
100
AcDbEntity
  8
0
  6
Continuous
 62
     0
100
AcDbLine
 10
186.221648
 20
63.014668
 30
0.0
 11
214.461581
 21
63.014668
 31
0.0
  0
SOLID
  5
2BE
100
AcDbEntity
  8
0
  6
Continuous
 62
     0
100
AcDbTrace
 10
200.661642
 20
62.414763
 30
0.0
 11
204.161654
 21
63.014668
 31
0.0
 12
200.661642
 22
63.614573
 32
0.0
 13
200.661642
 23
63.614573
 33
0.0
  0
SOLID
  5
2BF
100
AcDbEntity
  8
0
  6
Continuous
 62
     0
100
AcDbTrace
 10
210.961569
 20
63.614573
 30
0.0
 11
207.461557
 21
63.014668
 31
0.0
 12
210.961569
 22
62.414763
 32
0.0
 13
210.961569
 23
62.414763
 33
0.0
  0
ENDBLK
  5
2C0
100
AcDbEntity
  8
0
100
AcDbBlockEnd
  0
BLOCK
  5
2C3
100
AcDbEntity
  8
0
100
AcDbBlockBegin
  2
*B17
 70
     0
 10
0.0
 20
0.0
 30
0.0
  3
*B17
  1

  0
LINE
  5
2C4
100
AcDbEntity
  8
0
  6
Continuous
 62
     0
100
AcDbLine
 10
221.81148
 20
51.015294
 30
0.0
 11
205.811605
 21
51.015294
 31
0.0
  0
SOLID
  5
2C5
100
AcDbEntity
  8
0
  6
Continuous
 62
     0
100
AcDbTrace
 10
218.311468
 20
50.415389
 30
0.0
 11
221.81148
 21
51.015294
 31
0.0
 12
218.311468
 22
51.615199
 32
0.0
 13
218.311468
 23
51.615199
 33
0.0
  0
SOLID
  5
2C6
100
AcDbEntity
  8
0
  6
Continuous
 62
     0
100
AcDbTrace
 10
209.311618
 20
51.615199
 30
0.0
 11
205.811605
 21
51.015294
 31
0.0
 12
209.311618
 22
50.415389
 32
0.0
 13
209.311618
 23
50.415389
 33
0.0
  0
ENDBLK
  5
2C7
100
AcDbEntity
  8
0
100
AcDbBlockEnd
  0
BLOCK
  5
2CA
100
AcDbEntity
  8
0
100
AcDbBlockBegin
  2
*B18
 70
     0
 10
0.0
 20
0.0
 30
0.0
  3
*B18
  1

  0
LINE
  5
2CB
100
AcDbEntity
  8
0
  6
Continuous
 62
     0
100
AcDbLine
 10
237.018137
 20
91.260338
 30
0.0
 11
237.018137
 21
75.261313
 31
0.0
  0
SOLID
  5
2CC
100
AcDbEntity
  8
0
  6
Continuous
 62
     0
100
AcDbTrace
 10
237.618042
 20
87.760538
 30
0.0
 11
237.018137
 21
91.260338
 31
0.0
 12
236.41802
 22
87.760538
 32
0.0
 13
236.41802
 23
87.760538
 33
0.0
  0
SOLID
  5
2CD
100
AcDbEntity
  8
0
  6
Continuous
 62
     0
100
AcDbTrace
 10
236.41802
 20
78.761113
 30
0.0
 11
237.018137
 21
75.261313
 31
0.0
 12
237.618042
 22
78.761113
 32
0.0
 13
237.618042
 23
78.761113
 33
0.0
  0
ENDBLK
  5
2CE
100
AcDbEntity
  8
0
100
AcDbBlockEnd
  0
BLOCK
  5
2D1
100
AcDbEntity
  8
0
100
AcDbBlockBegin
  2
*B19
 70
     0
 10
0.0
 20
0.0
 30
0.0
  3
*B19
  1

  0
LINE
  5
2D2
100
AcDbEntity
  8
0
  6
Continuous
 62
     8
100
AcDbLine
 10
225.936464
 20
75.261313
 30
0.0
 11
239.017962
 21
75.261313
 31
0.0
  0
ENDBLK
  5
2D3
100
AcDbEntity
  8
0
100
AcDbBlockEnd
  0
BLOCK
  5
2D6
100
AcDbEntity
  8
0
100
AcDbBlockBegin
  2
*B20
 70
     0
 10
0.0
 20
0.0
 30
0.0
  3
*B20
  1

  0
LINE
  5
2D7
100
AcDbEntity
  8
0
  6
Continuous
 62
     8
100
AcDbLine
 10
98.500197
 20
60.014719
 30
0.0
 11
98.500197
 21
82.157034
 31
0.0
  0
ENDBLK
  5
2D8
100
AcDbEntity
  8
0
100
AcDbBlockEnd
  0
BLOCK
  5
2DB
100
AcDbEntity
  8
0
100
AcDbBlockBegin
  2
*B21
 70
     0
 10
0.0
 20
0.0
 30
0.0
  3
*B21
  1

  0
LINE
  5
2DC
100
AcDbEntity
  8
0
  6
Continuous
 62
     8
100
AcDbLine
 10
85.375151
 20
48.015556
 30
0.0
 11
85.375151
 21
74.157522
 31
0.0
  0
ENDBLK
  5
2DD
100
AcDbEntity
  8
0
100
AcDbBlockEnd
  0
BLOCK
  5
2E0
100
AcDbEntity
  8
0
100
AcDbBlockBegin
  2
*B22
 70
     0
 10
0.0
 20
0.0
 30
0.0
  3
*B22
  1

  0
LINE
  5
2E1
100
AcDbEntity
  8
0
  6
Continuous
 62
     8
100
AcDbLine
 10
213.749088
 20
72.261363
 30
0.0
 11
213.749088
 21
77.118172
 31
0.0
  0
LINE
  5
2E2
100
AcDbEntity
  8
0
  6
Continuous
 62
     8
100
AcDbLine
 10
213.749088
 20
78.118297
 30
0.0
 11
213.749088
 21
79.118209
 31
0.0
  0
LINE
  5
2E3
100
AcDbEntity
  8
0
  6
Continuous
 62
     8
100
AcDbLine
 10
213.749088
 20
80.118122
 30
0.0
 11
213.749088
 21
84.974931
 31
0.0
  0
LINE
  5
2E4
100
AcDbEntity
  8
0
  6
Continuous
 62
     8
100
AcDbLine
 10
213.749088
 20
85.974843
 30
0.0
 11
213.749088
 21
86.974756
 31
0.0
  0
LINE
  5
2E5
100
AcDbEntity
  8
0
  6
Continuous
 62
     8
100
AcDbLine
 10
213.749088
 20
87.974881
 30
0.0
 11
213.749088
 21
92.83169
 31
0.0
  0
LINE
  5
2E6
100
AcDbEntity
  8
0
  6
Continuous
 62
     8
100
AcDbLine
 10
213.749088
 20
93.831602
 30
0.0
 11
213.749088
 21
94.831515
 31
0.0
  0
LINE
  5
2E7
100
AcDbEntity
  8
0
  6
Continuous
 62
     8
100
AcDbLine
 10
213.749088
 20
95.831427
 30
0.0
 11
213.749088
 21
100.688448
 31
0.0
  0
LINE
  5
2E8
100
AcDbEntity
  8
0
  6
Continuous
 62
     8
100
AcDbLine
 10
213.749088
 20
101.688361
 30
0.0
 11
213.749088
 21
102.688273
 31
0.0
  0
LINE
  5
2E9
100
AcDbEntity
  8
0
  6
Continuous
 62
     8
100
AcDbLine
 10
213.749088
 20
103.688186
 30
0.0
 11
213.749088
 21
108.544995
 31
0.0
  0
LINE
  5
2EA
100
AcDbEntity
  8
0
  6
Continuous
 62
     8
100
AcDbLine
 10
213.749088
 20
109.544907
 30
0.0
 11
213.749088
 21
110.545032
 31
0.0
  0
LINE
  5
2EB
100
AcDbEntity
  8
0
  6
Continuous
 62
     8
100
AcDbLine
 10
213.749088
 20
111.544945
 30
0.0
 11
213.749088
 21
116.401754
 31
0.0
  0
LINE
  5
2EC
100
AcDbEntity
  8
0
  6
Continuous
 62
     8
100
AcDbLine
 10
213.749088
 20
117.401666
 30
0.0
 11
213.749088
 21
118.401579
 31
0.0
  0
LINE
  5
2ED
100
AcDbEntity
  8
0
  6
Continuous
 62
     8
100
AcDbLine
 10
213.749088
 20
119.401491
 30
0.0
 11
213.749088
 21
124.258512
 31
0.0
  0
ENDBLK
  5
2EE
100
AcDbEntity
  8
0
100
AcDbBlockEnd
  0
BLOCK
  5
2F1
100
AcDbEntity
  8
0
100
AcDbBlockBegin
  2
*B23
 70
     0
 10
0.0
 20
0.0
 30
0.0
  3
*B23
  1

  0
LINE
  5
2F2
100
AcDbEntity
  8
0
  6
Continuous
 62
     8
100
AcDbLine
 10
152.120956
 20
83.156947
 30
0.0
 11
157.020889
 21
83.156947
 31
0.0
  0
LINE
  5
2F3
100
AcDbEntity
  8
0
  6
Continuous
 62
     8
100
AcDbLine
 10
158.021014
 20
83.156947
 30
0.0
 11
159.020926
 21
83.156947
 31
0.0
  0
LINE
  5
2F4
100
AcDbEntity
  8
0
  6
Continuous
 62
     8
100
AcDbLine
 10
160.021051
 20
83.156947
 30
0.0
 11
164.920984
 21
83.156947
 31
0.0
  0
ENDBLK
  5
2F5
100
AcDbEntity
  8
0
100
AcDbBlockEnd
  0
BLOCK
  5
2F8
100
AcDbEntity
  8
0
100
AcDbBlockBegin
  2
*B24
 70
     0
 10
0.0
 20
0.0
 30
0.0
  3
*B24
  1

  0
LINE
  5
2F9
100
AcDbEntity
  8
0
  6
Continuous
 62
     8
100
AcDbLine
 10
73.018255
 20
83.156947
 30
0.0
 11
77.018117
 21
83.156947
 31
0.0
  0
LINE
  5
2FA
100
AcDbEntity
  8
0
  6
Continuous
 62
     8
100
AcDbLine
 10
77.018117
 20
83.156947
 30
0.0
 11
84.50907
 21
83.156947
 31
0.0
  0
LINE
  5
2FB
100
AcDbEntity
  8
0
  6
Continuous
 62
     8
100
AcDbLine
 10
85.509195
 20
83.156947
 30
0.0
 11
86.509107
 21
83.156947
 31
0.0
  0
LINE
  5
2FC
100
AcDbEntity
  8
0
  6
Continuous
 62
     8
100
AcDbLine
 10
87.509232
 20
83.156947
 30
0.0
 11
95.000185
 21
83.156947
 31
0.0
  0
LINE
  5
2FD
100
AcDbEntity
  8
0
  6
Continuous
 62
     8
100
AcDbLine
 10
98.000135
 20
83.156947
 30
0.0
 11
101.500147
 21
83.156947
 31
0.0
  0
ENDBLK
  5
2FE
100
AcDbEntity
  8
0
100
AcDbBlockEnd
  0
BLOCK
  5
301
100
AcDbEntity
  8
0
100
AcDbBlockBegin
  2
*B25
 70
     0
 10
0.0
 20
0.0
 30
0.0
  3
*B25
  1

  0
LINE
  5
302
100
AcDbEntity
  8
0
  6
Continuous
 62
     8
100
AcDbLine
 10
204.161654
 20
61.014843
 30
0.0
 11
204.161654
 21
74.261188
 31
0.0
  0
ENDBLK
  5
303
100
AcDbEntity
  8
0
100
AcDbBlockEnd
  0
BLOCK
  5
306
100
AcDbEntity
  8
0
100
AcDbBlockBegin
  2
*B26
 70
     0
 10
0.0
 20
0.0
 30
0.0
  3
*B26
  1

  0
LINE
  5
307
100
AcDbEntity
  8
0
  6
Continuous
 62
     8
100
AcDbLine
 10
96.50016
 20
72.157697
 30
0.0
 11
96.50016
 21
81.657184
 31
0.0
  0
LINE
  5
308
100
AcDbEntity
  8
0
  6
Continuous
 62
     8
100
AcDbLine
 10
96.50016
 20
84.656922
 30
0.0
 11
96.50016
 21
89.79945
 31
0.0
  0
LINE
  5
309
100
AcDbEntity
  8
0
  6
Continuous
 62
     8
100
AcDbLine
 10
96.50016
 20
90.799363
 30
0.0
 11
96.50016
 21
91.799488
 31
0.0
  0
LINE
  5
30A
100
AcDbEntity
  8
0
  6
Continuous
 62
     8
100
AcDbLine
 10
96.50016
 20
92.7994
 30
0.0
 11
96.50016
 21
97.941929
 31
0.0
  0
LINE
  5
30B
100
AcDbEntity
  8
0
  6
Continuous
 62
     8
100
AcDbLine
 10
96.50016
 20
98.941841
 30
0.0
 11
96.50016
 21
99.941754
 31
0.0
  0
LINE
  5
30C
100
AcDbEntity
  8
0
  6
Continuous
 62
     8
100
AcDbLine
 10
96.50016
 20
100.941666
 30
0.0
 11
96.50016
 21
106.084407
 31
0.0
  0
LINE
  5
30D
100
AcDbEntity
  8
0
  6
Continuous
 62
     8
100
AcDbLine
 10
96.50016
 20
107.08432
 30
0.0
 11
96.50016
 21
108.084232
 31
0.0
  0
LINE
  5
30E
100
AcDbEntity
  8
0
  6
Continuous
 62
     8
100
AcDbLine
 10
96.50016
 20
109.084145
 30
0.0
 11
96.50016
 21
114.226673
 31
0.0
  0
LINE
  5
30F
100
AcDbEntity
  8
0
  6
Continuous
 62
     8
100
AcDbLine
 10
96.50016
 20
115.226586
 30
0.0
 11
96.50016
 21
116.226498
 31
0.0
  0
LINE
  5
310
100
AcDbEntity
  8
0
  6
Continuous
 62
     8
100
AcDbLine
 10
96.50016
 20
117.226623
 30
0.0
 11
96.50016
 21
122.369152
 31
0.0
  0
LINE
  5
311
100
AcDbEntity
  8
0
  6
Continuous
 62
     8
100
AcDbLine
 10
96.50016
 20
123.369064
 30
0.0
 11
96.50016
 21
124.368977
 31
0.0
  0
LINE
  5
312
100
AcDbEntity
  8
0
  6
Continuous
 62
     8
100
AcDbLine
 10
96.50016
 20
125.368889
 30
0.0
 11
96.50016
 21
130.511418
 31
0.0
  0
LINE
  5
313
100
AcDbEntity
  8
0
  6
Continuous
 62
     8
100
AcDbLine
 10
96.50016
 20
131.511543
 30
0.0
 11
96.50016
 21
132.511455
 31
0.0
  0
LINE
  5
314
100
AcDbEntity
  8
0
  6
Continuous
 62
     8
100
AcDbLine
 10
96.50016
 20
133.511368
 30
0.0
 11
96.50016
 21
138.653896
 31
0.0
  0
ENDBLK
  5
315
100
AcDbEntity
  8
0
100
AcDbBlockEnd
  0
BLOCK
  5
318
100
AcDbEntity
  8
0
100
AcDbBlockBegin
  2
*B27
 70
     0
 10
0.0
 20
0.0
 30
0.0
  3
*B27
  1

  0
LINE
  5
319
100
AcDbEntity
  8
0
  6
Continuous
 62
     8
100
AcDbLine
 10
96.607437
 20
100.112973
 30
0.0
 11
96.607437
 21
105.012693
 31
0.0
  0
LINE
  5
31A
100
AcDbEntity
  8
0
  6
Continuous
 62
     8
100
AcDbLine
 10
96.607437
 20
108.01243
 30
0.0
 11
96.607437
 21
112.91215
 31
0.0
  0
ENDBLK
  5
31B
100
AcDbEntity
  8
0
100
AcDbBlockEnd
  0
BLOCK
  5
31E
100
AcDbEntity
  8
0
100
AcDbBlockBegin
  2
*B28
 70
     0
 10
0.0
 20
0.0
 30
0.0
  3
*B28
  1

  0
LINE
  5
31F
100
AcDbEntity
  8
0
  6
Continuous
 62
     8
100
AcDbLine
 10
156.121031
 20
91.156672
 30
0.0
 11
196.018114
 21
91.156672
 31
0.0
  0
ENDBLK
  5
320
100
AcDbEntity
  8
0
100
AcDbBlockEnd
  0
BLOCK
  5
323
100
AcDbEntity
  8
0
100
AcDbBlockBegin
  2
*B29
 70
     0
 10
0.0
 20
0.0
 30
0.0
  3
*B29
  1

  0
LINE
  5
324
100
AcDbEntity
  8
0
  6
Continuous
 62
     8
100
AcDbLine
 10
107.625169
 20
48.015556
 30
0.0
 11
107.625169
 21
74.157522
 31
0.0
  0
ENDBLK
  5
325
100
AcDbEntity
  8
0
100
AcDbBlockEnd
  0
BLOCK
  5
328
100
AcDbEntity
  8
0
100
AcDbBlockBegin
  2
*B30
 70
     0
 10
0.0
 20
0.0
 30
0.0
  3
*B30
  1

  0
LINE
  5
329
100
AcDbEntity
  8
0
  6
Continuous
 62
     8
100
AcDbLine
 10
225.936464
 20
91.260338
 30
0.0
 11
239.017962
 21
91.260338
 31
0.0
  0
ENDBLK
  5
32A
100
AcDbEntity
  8
0
100
AcDbBlockEnd
  0
BLOCK
  5
32D
100
AcDbEntity
  8
0
100
AcDbBlockBegin
  2
*B31
 70
     0
 10
0.0
 20
0.0
 30
0.0
  3
*B31
  1

  0
LINE
  5
32E
100
AcDbEntity
  8
0
  6
Continuous
 62
     8
100
AcDbLine
 10
90.207318
 20
106.512455
 30
0.0
 11
95.107462
 21
106.512455
 31
0.0
  0
LINE
  5
32F
100
AcDbEntity
  8
0
  6
Continuous
 62
     8
100
AcDbLine
 10
98.107412
 20
106.512455
 30
0.0
 11
103.007345
 21
106.512455
 31
0.0
  0
ENDBLK
  5
330
100
AcDbEntity
  8
0
100
AcDbBlockEnd
  0
BLOCK
  5
333
100
AcDbEntity
  8
0
100
AcDbBlockBegin
  2
*B32
 70
     0
 10
0.0
 20
0.0
 30
0.0
  3
*B32
  1

  0
LINE
  5
334
100
AcDbEntity
  8
0
  6
Continuous
 62
     8
100
AcDbLine
 10
94.500122
 20
60.014719
 30
0.0
 11
94.500122
 21
82.157034
 31
0.0
  0
ENDBLK
  5
335
100
AcDbEntity
  8
0
100
AcDbBlockEnd
  0
BLOCK
  5
338
100
AcDbEntity
  8
0
100
AcDbBlockBegin
  2
*B33
 70
     0
 10
0.0
 20
0.0
 30
0.0
  3
*B33
  1

  0
LINE
  5
339
100
AcDbEntity
  8
0
  6
Continuous
 62
     8
100
AcDbLine
 10
125.120982
 20
60.014719
 30
0.0
 11
125.120982
 21
74.157522
 31
0.0
  0
LINE
  5
33A
100
AcDbEntity
  8
0
  6
Continuous
 62
     8
100
AcDbLine
 10
125.120982
 20
122.154809
 30
0.0
 11
125.120982
 21
155.509443
 31
0.0
  0
ENDBLK
  5
33B
100
AcDbEntity
  8
0
100
AcDbBlockEnd
  0
BLOCK
  5
33E
100
AcDbEntity
  8
0
100
AcDbBlockBegin
  2
*B34
 70
     0
 10
0.0
 20
0.0
 30
0.0
  3
*B34
  1

  0
LINE
  5
33F
100
AcDbEntity
  8
0
  6
Continuous
 62
     8
100
AcDbLine
 10
213.811543
 20
74.261188
 30
0.0
 11
213.811543
 21
78.761113
 31
0.0
  0
LINE
  5
340
100
AcDbEntity
  8
0
  6
Continuous
 62
     8
100
AcDbLine
 10
213.811543
 20
81.76085
 30
0.0
 11
213.811543
 21
86.260563
 31
0.0
  0
ENDBLK
  5
341
100
AcDbEntity
  8
0
100
AcDbBlockEnd
  0
BLOCK
  5
344
100
AcDbEntity
  8
0
100
AcDbBlockBegin
  2
*B35
 70
     0
 10
0.0
 20
0.0
 30
0.0
  3
*B35
  1

  0
LINE
  5
345
100
AcDbEntity
  8
0
  6
Continuous
 62
     8
100
AcDbLine
 10
174.120943
 20
114.655359
 30
0.0
 11
174.120943
 21
119.530012
 31
0.0
  0
LINE
  5
346
100
AcDbEntity
  8
0
  6
Continuous
 62
     8
100
AcDbLine
 10
174.120943
 20
120.529924
 30
0.0
 11
174.120943
 21
121.529837
 31
0.0
  0
LINE
  5
347
100
AcDbEntity
  8
0
  6
Continuous
 62
     8
100
AcDbLine
 10
174.120943
 20
122.529749
 30
0.0
 11
174.120943
 21
127.404615
 31
0.0
  0
LINE
  5
348
100
AcDbEntity
  8
0
  6
Continuous
 62
     8
100
AcDbLine
 10
174.120943
 20
128.404527
 30
0.0
 11
174.120943
 21
129.40444
 31
0.0
  0
LINE
  5
349
100
AcDbEntity
  8
0
  6
Continuous
 62
     8
100
AcDbLine
 10
174.120943
 20
130.404352
 30
0.0
 11
174.120943
 21
135.279006
 31
0.0
  0
LINE
  5
34A
100
AcDbEntity
  8
0
  6
Continuous
 62
     8
100
AcDbLine
 10
174.120943
 20
136.27913
 30
0.0
 11
174.120943
 21
137.279043
 31
0.0
  0
LINE
  5
34B
100
AcDbEntity
  8
0
  6
Continuous
 62
     8
100
AcDbLine
 10
174.120943
 20
138.278955
 30
0.0
 11
174.120943
 21
143.153609
 31
0.0
  0
ENDBLK
  5
34C
100
AcDbEntity
  8
0
100
AcDbBlockEnd
  0
BLOCK
  5
34F
100
AcDbEntity
  8
0
100
AcDbBlockBegin
  2
*B36
 70
     0
 10
0.0
 20
0.0
 30
0.0
  3
*B36
  1

  0
LINE
  5
350
100
AcDbEntity
  8
0
  6
Continuous
 62
     8
100
AcDbLine
 10
221.81148
 20
49.015469
 30
0.0
 11
221.81148
 21
53.015119
 31
0.0
  0
LINE
  5
351
100
AcDbEntity
  8
0
  6
Continuous
 62
     8
100
AcDbLine
 10
221.81148
 20
53.015119
 30
0.0
 11
221.81148
 21
58.864405
 31
0.0
  0
LINE
  5
352
100
AcDbEntity
  8
0
  6
Continuous
 62
     8
100
AcDbLine
 10
221.81148
 20
59.864317
 30
0.0
 11
221.81148
 21
60.86423
 31
0.0
  0
LINE
  5
353
100
AcDbEntity
  8
0
  6
Continuous
 62
     8
100
AcDbLine
 10
221.81148
 20
61.864142
 30
0.0
 11
221.81148
 21
67.713216
 31
0.0
  0
LINE
  5
354
100
AcDbEntity
  8
0
  6
Continuous
 62
     8
100
AcDbLine
 10
221.81148
 20
68.713129
 30
0.0
 11
221.81148
 21
69.713254
 31
0.0
  0
LINE
  5
355
100
AcDbEntity
  8
0
  6
Continuous
 62
     8
100
AcDbLine
 10
221.81148
 20
70.713166
 30
0.0
 11
221.81148
 21
76.56224
 31
0.0
  0
LINE
  5
356
100
AcDbEntity
  8
0
  6
Continuous
 62
     8
100
AcDbLine
 10
221.81148
 20
77.562153
 30
0.0
 11
221.81148
 21
78.562065
 31
0.0
  0
LINE
  5
357
100
AcDbEntity
  8
0
  6
Continuous
 62
     8
100
AcDbLine
 10
221.81148
 20
79.561978
 30
0.0
 11
221.81148
 21
85.411264
 31
0.0
  0
LINE
  5
358
100
AcDbEntity
  8
0
  6
Continuous
 62
     8
100
AcDbLine
 10
221.81148
 20
86.411176
 30
0.0
 11
221.81148
 21
87.411089
 31
0.0
  0
LINE
  5
359
100
AcDbEntity
  8
0
  6
Continuous
 62
     8
100
AcDbLine
 10
221.81148
 20
88.411001
 30
0.0
 11
221.81148
 21
94.260075
 31
0.0
  0
ENDBLK
  5
35A
100
AcDbEntity
  8
0
100
AcDbBlockEnd
  0
BLOCK
  5
35D
100
AcDbEntity
  8
0
100
AcDbBlockBegin
  2
*B37
 70
     0
 10
0.0
 20
0.0
 30
0.0
  3
*B37
  1

  0
LINE
  5
35E
100
AcDbEntity
  8
0
  6
Continuous
 62
     8
100
AcDbLine
 10
136.121082
 20
60.014719
 30
0.0
 11
136.121082
 21
64.014581
 31
0.0
  0
LINE
  5
35F
100
AcDbEntity
  8
0
  6
Continuous
 62
     8
100
AcDbLine
 10
136.121082
 20
64.014581
 30
0.0
 11
136.121082
 21
69.869603
 31
0.0
  0
LINE
  5
360
100
AcDbEntity
  8
0
  6
Continuous
 62
     8
100
AcDbLine
 10
136.121082
 20
70.869728
 30
0.0
 11
136.121082
 21
71.86964
 31
0.0
  0
LINE
  5
361
100
AcDbEntity
  8
0
  6
Continuous
 62
     8
100
AcDbLine
 10
136.121082
 20
72.869553
 30
0.0
 11
136.121082
 21
78.724575
 31
0.0
  0
LINE
  5
362
100
AcDbEntity
  8
0
  6
Continuous
 62
     8
100
AcDbLine
 10
136.121082
 20
79.724487
 30
0.0
 11
136.121082
 21
80.724612
 31
0.0
  0
LINE
  5
363
100
AcDbEntity
  8
0
  6
Continuous
 62
     8
100
AcDbLine
 10
136.121082
 20
81.724525
 30
0.0
 11
136.121082
 21
87.579547
 31
0.0
  0
LINE
  5
364
100
AcDbEntity
  8
0
  6
Continuous
 62
     8
100
AcDbLine
 10
136.121082
 20
88.579459
 30
0.0
 11
136.121082
 21
89.579372
 31
0.0
  0
LINE
  5
365
100
AcDbEntity
  8
0
  6
Continuous
 62
     8
100
AcDbLine
 10
136.121082
 20
90.579497
 30
0.0
 11
136.121082
 21
96.434519
 31
0.0
  0
LINE
  5
366
100
AcDbEntity
  8
0
  6
Continuous
 62
     8
100
AcDbLine
 10
136.121082
 20
97.434431
 30
0.0
 11
136.121082
 21
98.434344
 31
0.0
  0
LINE
  5
367
100
AcDbEntity
  8
0
  6
Continuous
 62
     8
100
AcDbLine
 10
136.121082
 20
99.434256
 30
0.0
 11
136.121082
 21
105.28949
 31
0.0
  0
LINE
  5
368
100
AcDbEntity
  8
0
  6
Continuous
 62
     8
100
AcDbLine
 10
136.121082
 20
106.289403
 30
0.0
 11
136.121082
 21
107.289315
 31
0.0
  0
LINE
  5
369
100
AcDbEntity
  8
0
  6
Continuous
 62
     8
100
AcDbLine
 10
136.121082
 20
108.289228
 30
0.0
 11
136.121082
 21
114.144462
 31
0.0
  0
LINE
  5
36A
100
AcDbEntity
  8
0
  6
Continuous
 62
     8
100
AcDbLine
 10
136.121082
 20
115.144375
 30
0.0
 11
136.121082
 21
116.144287
 31
0.0
  0
LINE
  5
36B
100
AcDbEntity
  8
0
  6
Continuous
 62
     8
100
AcDbLine
 10
136.121082
 20
117.1442
 30
0.0
 11
136.121082
 21
122.999434
 31
0.0
  0
LINE
  5
36C
100
AcDbEntity
  8
0
  6
Continuous
 62
     8
100
AcDbLine
 10
136.121082
 20
123.999347
 30
0.0
 11
136.121082
 21
124.999259
 31
0.0
  0
LINE
  5
36D
100
AcDbEntity
  8
0
  6
Continuous
 62
     8
100
AcDbLine
 10
136.121082
 20
125.999172
 30
0.0
 11
136.121082
 21
131.854194
 31
0.0
  0
ENDBLK
  5
36E
100
AcDbEntity
  8
0
100
AcDbBlockEnd
  0
BLOCK
  5
371
100
AcDbEntity
  8
0
100
AcDbBlockBegin
  2
*B38
 70
     0
 10
0.0
 20
0.0
 30
0.0
  3
*B38
  1

  0
LINE
  5
372
100
AcDbEntity
  8
0
  6
Continuous
 62
     8
100
AcDbLine
 10
183.120581
 20
140.461046
 30
0.0
 11
183.120581
 21
155.509443
 31
0.0
  0
ENDBLK
  5
373
100
AcDbEntity
  8
0
100
AcDbBlockEnd
  0
BLOCK
  5
376
100
AcDbEntity
  8
0
100
AcDbBlockBegin
  2
*B39
 70
     0
 10
0.0
 20
0.0
 30
0.0
  3
*B39
  1

  0
LINE
  5
377
100
AcDbEntity
  8
0
  6
Continuous
 62
     8
100
AcDbLine
 10
145.120932
 20
48.015556
 30
0.0
 11
145.120932
 21
52.015206
 31
0.0
  0
LINE
  5
378
100
AcDbEntity
  8
0
  6
Continuous
 62
     8
100
AcDbLine
 10
145.120932
 20
52.015206
 30
0.0
 11
145.120932
 21
58.043572
 31
0.0
  0
LINE
  5
379
100
AcDbEntity
  8
0
  6
Continuous
 62
     8
100
AcDbLine
 10
145.120932
 20
59.043484
 30
0.0
 11
145.120932
 21
60.043609
 31
0.0
  0
LINE
  5
37A
100
AcDbEntity
  8
0
  6
Continuous
 62
     8
100
AcDbLine
 10
145.120932
 20
61.043522
 30
0.0
 11
145.120932
 21
67.071887
 31
0.0
  0
LINE
  5
37B
100
AcDbEntity
  8
0
  6
Continuous
 62
     8
100
AcDbLine
 10
145.120932
 20
68.0718
 30
0.0
 11
145.120932
 21
69.071712
 31
0.0
  0
LINE
  5
37C
100
AcDbEntity
  8
0
  6
Continuous
 62
     8
100
AcDbLine
 10
145.120932
 20
70.071625
 30
0.0
 11
145.120932
 21
76.09999
 31
0.0
  0
LINE
  5
37D
100
AcDbEntity
  8
0
  6
Continuous
 62
     8
100
AcDbLine
 10
145.120932
 20
77.099903
 30
0.0
 11
145.120932
 21
78.099815
 31
0.0
  0
LINE
  5
37E
100
AcDbEntity
  8
0
  6
Continuous
 62
     8
100
AcDbLine
 10
145.120932
 20
79.09994
 30
0.0
 11
145.120932
 21
85.128306
 31
0.0
  0
LINE
  5
37F
100
AcDbEntity
  8
0
  6
Continuous
 62
     8
100
AcDbLine
 10
145.120932
 20
86.128218
 30
0.0
 11
145.120932
 21
87.128131
 31
0.0
  0
LINE
  5
380
100
AcDbEntity
  8
0
  6
Continuous
 62
     8
100
AcDbLine
 10
145.120932
 20
88.128043
 30
0.0
 11
145.120932
 21
94.156409
 31
0.0
  0
ENDBLK
  5
381
100
AcDbEntity
  8
0
100
AcDbBlockEnd
  0
BLOCK
  5
384
100
AcDbEntity
  8
0
100
AcDbBlockBegin
  2
*B40
 70
     0
 10
0.0
 20
0.0
 30
0.0
  3
*B40
  1

  0
LINE
  5
385
100
AcDbEntity
  8
0
  6
Continuous
 62
     8
100
AcDbLine
 10
213.780315
 20
72.261363
 30
0.0
 11
213.780315
 21
77.948565
 31
0.0
  0
LINE
  5
386
100
AcDbEntity
  8
0
  6
Continuous
 62
     8
100
AcDbLine
 10
213.780315
 20
78.948477
 30
0.0
 11
213.780315
 21
79.94839
 31
0.0
  0
LINE
  5
387
100
AcDbEntity
  8
0
  6
Continuous
 62
     8
100
AcDbLine
 10
213.780315
 20
80.948302
 30
0.0
 11
213.780315
 21
86.635504
 31
0.0
  0
LINE
  5
388
100
AcDbEntity
  8
0
  6
Continuous
 62
     8
100
AcDbLine
 10
213.780315
 20
87.635628
 30
0.0
 11
213.780315
 21
88.635541
 31
0.0
  0
LINE
  5
389
100
AcDbEntity
  8
0
  6
Continuous
 62
     8
100
AcDbLine
 10
213.780315
 20
89.635453
 30
0.0
 11
213.780315
 21
95.322655
 31
0.0
  0
LINE
  5
38A
100
AcDbEntity
  8
0
  6
Continuous
 62
     8
100
AcDbLine
 10
213.780315
 20
96.322567
 30
0.0
 11
213.780315
 21
97.32248
 31
0.0
  0
LINE
  5
38B
100
AcDbEntity
  8
0
  6
Continuous
 62
     8
100
AcDbLine
 10
213.780315
 20
98.322392
 30
0.0
 11
213.780315
 21
104.009594
 31
0.0
  0
LINE
  5
38C
100
AcDbEntity
  8
0
  6
Continuous
 62
     8
100
AcDbLine
 10
213.780315
 20
105.009506
 30
0.0
 11
213.780315
 21
106.009419
 31
0.0
  0
LINE
  5
38D
100
AcDbEntity
  8
0
  6
Continuous
 62
     8
100
AcDbLine
 10
213.780315
 20
107.009331
 30
0.0
 11
213.780315
 21
112.696533
 31
0.0
  0
LINE
  5
38E
100
AcDbEntity
  8
0
  6
Continuous
 62
     8
100
AcDbLine
 10
213.780315
 20
113.696445
 30
0.0
 11
213.780315
 21
114.69657
 31
0.0
  0
LINE
  5
38F
100
AcDbEntity
  8
0
  6
Continuous
 62
     8
100
AcDbLine
 10
213.780315
 20
115.696483
 30
0.0
 11
213.780315
 21
121.383684
 31
0.0
  0
LINE
  5
390
100
AcDbEntity
  8
0
  6
Continuous
 62
     8
100
AcDbLine
 10
213.780315
 20
122.383597
 30
0.0
 11
213.780315
 21
123.383509
 31
0.0
  0
LINE
  5
391
100
AcDbEntity
  8
0
  6
Continuous
 62
     8
100
AcDbLine
 10
213.780315
 20
124.383422
 30
0.0
 11
213.780315
 21
130.070623
 31
0.0
  0
LINE
  5
392
100
AcDbEntity
  8
0
  6
Continuous
 62
     8
100
AcDbLine
 10
213.780315
 20
131.070536
 30
0.0
 11
213.780315
 21
132.070448
 31
0.0
  0
LINE
  5
393
100
AcDbEntity
  8
0
  6
Continuous
 62
     8
100
AcDbLine
 10
213.780315
 20
133.070361
 30
0.0
 11
213.780315
 21
138.757562
 31
0.0
  0
ENDBLK
  5
394
100
AcDbEntity
  8
0
100
AcDbBlockEnd
  0
BLOCK
  5
397
100
AcDbEntity
  8
0
100
AcDbBlockBegin
  2
*B41
 70
     0
 10
0.0
 20
0.0
 30
0.0
  3
*B41
  1

  0
LINE
  5
398
100
AcDbEntity
  8
0
  6
Continuous
 62
     8
100
AcDbLine
 10
207.461557
 20
61.014843
 30
0.0
 11
207.461557
 21
74.261188
 31
0.0
  0
ENDBLK
  5
399
100
AcDbEntity
  8
0
100
AcDbBlockEnd
  0
BLOCK
  5
39C
100
AcDbEntity
  8
0
100
AcDbBlockBegin
  2
*B42
 70
     0
 10
0.0
 20
0.0
 30
0.0
  3
*B42
  1

  0
LINE
  5
39D
100
AcDbEntity
  8
0
  6
Continuous
 62
     8
100
AcDbLine
 10
155.120906
 20
48.015556
 30
0.0
 11
155.120906
 21
74.157522
 31
0.0
  0
LINE
  5
39E
100
AcDbEntity
  8
0
  6
Continuous
 62
     8
100
AcDbLine
 10
155.120906
 20
92.156584
 30
0.0
 11
155.120906
 21
142.010093
 31
0.0
  0
ENDBLK
  5
39F
100
AcDbEntity
  8
0
100
AcDbBlockEnd
  0
BLOCK
  5
3A2
100
AcDbEntity
  8
0
100
AcDbBlockBegin
  2
*B43
 70
     0
 10
0.0
 20
0.0
 30
0.0
  3
*B43
  1

  0
LINE
  5
3A3
100
AcDbEntity
  8
0
  6
Continuous
 62
     8
100
AcDbLine
 10
73.018255
 20
75.157434
 30
0.0
 11
84.375238
 21
75.157434
 31
0.0
  0
ENDBLK
  5
3A4
100
AcDbEntity
  8
0
100
AcDbBlockEnd
  0
BLOCK
  5
3A7
100
AcDbEntity
  8
0
100
AcDbBlockBegin
  2
*B44
 70
     0
 10
0.0
 20
0.0
 30
0.0
  3
*B44
  1

  0
LINE
  5
3A8
100
AcDbEntity
  8
0
  6
Continuous
 62
     8
100
AcDbLine
 10
182.920258
 20
140.153871
 30
0.0
 11
196.018114
 21
140.153871
 31
0.0
  0
ENDBLK
  5
3A9
100
AcDbEntity
  8
0
100
AcDbBlockEnd
  0
BLOCK
  5
3AC
100
AcDbEntity
  8
0
100
AcDbBlockBegin
  2
*B45
 70
     0
 10
0.0
 20
0.0
 30
0.0
  3
*B45
  1

  0
LINE
  5
3AD
100
AcDbEntity
  8
0
  6
Continuous
 62
     8
100
AcDbLine
 10
205.811605
 20
49.015469
 30
0.0
 11
205.811605
 21
53.015119
 31
0.0
  0
LINE
  5
3AE
100
AcDbEntity
  8
0
  6
Continuous
 62
     8
100
AcDbLine
 10
205.811605
 20
53.015119
 30
0.0
 11
205.811605
 21
58.864405
 31
0.0
  0
LINE
  5
3AF
100
AcDbEntity
  8
0
  6
Continuous
 62
     8
100
AcDbLine
 10
205.811605
 20
59.864317
 30
0.0
 11
205.811605
 21
60.86423
 31
0.0
  0
LINE
  5
3B0
100
AcDbEntity
  8
0
  6
Continuous
 62
     8
100
AcDbLine
 10
205.811605
 20
61.864142
 30
0.0
 11
205.811605
 21
67.713216
 31
0.0
  0
LINE
  5
3B1
100
AcDbEntity
  8
0
  6
Continuous
 62
     8
100
AcDbLine
 10
205.811605
 20
68.713129
 30
0.0
 11
205.811605
 21
69.713254
 31
0.0
  0
LINE
  5
3B2
100
AcDbEntity
  8
0
  6
Continuous
 62
     8
100
AcDbLine
 10
205.811605
 20
70.713166
 30
0.0
 11
205.811605
 21
76.56224
 31
0.0
  0
LINE
  5
3B3
100
AcDbEntity
  8
0
  6
Continuous
 62
     8
100
AcDbLine
 10
205.811605
 20
77.562153
 30
0.0
 11
205.811605
 21
78.562065
 31
0.0
  0
LINE
  5
3B4
100
AcDbEntity
  8
0
  6
Continuous
 62
     8
100
AcDbLine
 10
205.811605
 20
79.561978
 30
0.0
 11
205.811605
 21
85.411264
 31
0.0
  0
LINE
  5
3B5
100
AcDbEntity
  8
0
  6
Continuous
 62
     8
100
AcDbLine
 10
205.811605
 20
86.411176
 30
0.0
 11
205.811605
 21
87.411089
 31
0.0
  0
LINE
  5
3B6
100
AcDbEntity
  8
0
  6
Continuous
 62
     8
100
AcDbLine
 10
205.811605
 20
88.411001
 30
0.0
 11
205.811605
 21
94.260075
 31
0.0
  0
ENDBLK
  5
3B7
100
AcDbEntity
  8
0
100
AcDbBlockEnd
  0
BLOCK
  5
3BA
100
AcDbEntity
  8
0
100
AcDbBlockBegin
  2
*B46
 70
     0
 10
0.0
 20
0.0
 30
0.0
  3
*B46
  1

  0
LINE
  5
3BB
100
AcDbEntity
  8
0
  6
Continuous
 62
     8
100
AcDbLine
 10
207.811643
 20
80.260875
 30
0.0
 11
212.311568
 21
80.260875
 31
0.0
  0
LINE
  5
3BC
100
AcDbEntity
  8
0
  6
Continuous
 62
     8
100
AcDbLine
 10
215.311518
 20
80.260875
 30
0.0
 11
219.811655
 21
80.260875
 31
0.0
  0
ENDBLK
  5
3BD
100
AcDbEntity
  8
0
100
AcDbBlockEnd
  0
BLOCK
  5
3C0
100
AcDbEntity
  8
0
100
AcDbBlockBegin
  2
*B47
 70
     0
 10
0.0
 20
0.0
 30
0.0
  3
*B47
  1

  0
LINE
  5
3C1
100
AcDbEntity
  8
0
  6
Continuous
 62
     6
100
AcDbLine
 10
96.000097
 20
83.156947
 30
0.0
 11
97.000222
 21
83.156947
 31
0.0
  0
LINE
  5
3C2
100
AcDbEntity
  8
0
  6
Continuous
 62
     6
100
AcDbLine
 10
96.50016
 20
82.657097
 30
0.0
 11
96.50016
 21
83.657009
 31
0.0
  0
ENDBLK
  5
3C3
100
AcDbEntity
  8
0
100
AcDbBlockEnd
  0
BLOCK
  5
3C6
100
AcDbEntity
  8
0
100
AcDbBlockBegin
  2
*B48
 70
     0
 10
0.0
 20
0.0
 30
0.0
  3
*B48
  1

  0
LINE
  5
3C7
100
AcDbEntity
  8
0
  6
Continuous
 62
     6
100
AcDbLine
 10
213.31148
 20
80.260875
 30
0.0
 11
214.311605
 21
80.260875
 31
0.0
  0
LINE
  5
3C8
100
AcDbEntity
  8
0
  6
Continuous
 62
     6
100
AcDbLine
 10
213.811543
 20
79.761025
 30
0.0
 11
213.811543
 21
80.760938
 31
0.0
  0
ENDBLK
  5
3C9
100
AcDbEntity
  8
0
100
AcDbBlockEnd
  0
BLOCK
  5
3CC
100
AcDbEntity
  8
0
100
AcDbBlockBegin
  2
*B49
 70
     0
 10
0.0
 20
0.0
 30
0.0
  3
*B49
  1

  0
LINE
  5
3CD
100
AcDbEntity
  8
0
  6
Continuous
 62
     6
100
AcDbLine
 10
96.607437
 20
106.012605
 30
0.0
 11
96.607437
 21
107.012518
 31
0.0
  0
LINE
  5
3CE
100
AcDbEntity
  8
0
  6
Continuous
 62
     6
100
AcDbLine
 10
96.107375
 20
106.512455
 30
0.0
 11
97.1075
 21
106.512455
 31
0.0
  0
ENDBLK
  5
3CF
100
AcDbEntity
  8
0
100
AcDbBlockEnd
  0
BLOCK
  5
3D2
100
AcDbEntity
  8
0
100
AcDbBlockBegin
  2
*B50
 70
     0
 10
0.0
 20
0.0
 30
0.0
  3
*B50
  1

  0
TEXT
  5
3D3
100
AcDbEntity
  8
TEXT
  6
Continuous
 62
     0
100
AcDbText
 10
212.0886
 20
85.0
 30
0.0
 40
4.0
  1
1
100
AcDbText
  0
ENDBLK
  5
3D4
100
AcDbEntity
  8
0
100
AcDbBlockEnd
  0
BLOCK
  5
3D7
100
AcDbEntity
  8
0
100
AcDbBlockBegin
  2
*B51
 70
     0
 10
0.0
 20
0.0
 30
0.0
  3
*B51
  1

  0
TEXT
  5
3D8
100
AcDbEntity
  8
TEXT
  6
Continuous
 62
     0
100
AcDbText
 10
206.0886
 20
78.3
 30
0.0
 40
4.0
  1
0
100
AcDbText
  0
ENDBLK
  5
3D9
100
AcDbEntity
  8
0
100
AcDbBlockEnd
  0
BLOCK
  5
3DC
100
AcDbEntity
  8
0
100
AcDbBlockBegin
  2
*B52
 70
     0
 10
0.0
 20
0.0
 30
0.0
  3
*B52
  1

  0
TEXT
  5
3DD
100
AcDbEntity
  8
TEXT
  6
Continuous
 62
     0
100
AcDbText
 10
150.5886
 20
81.2
 30
0.0
 40
4.0
  1
2
100
AcDbText
  0
ENDBLK
  5
3DE
100
AcDbEntity
  8
0
100
AcDbBlockEnd
  0
BLOCK
  5
3E1
100
AcDbEntity
  8
0
100
AcDbBlockBegin
  2
*B53
 70
     0
 10
0.0
 20
0.0
 30
0.0
  3
*B53
  1

  0
TEXT
  5
3E2
100
AcDbEntity
  8
TEXT
  6
Continuous
 62
     0
100
AcDbText
 10
134.3886
 20
79.0
 30
0.0
 40
4.0
  1
1
100
AcDbText
  0
ENDBLK
  5
3E3
100
AcDbEntity
  8
0
100
AcDbBlockEnd
  0
BLOCK
  5
3E6
100
AcDbEntity
  8
0
100
AcDbBlockBegin
  2
*B54
 70
     0
 10
0.0
 20
0.0
 30
0.0
  3
*B54
  1

  0
TEXT
  5
3E7
100
AcDbEntity
  8
TEXT
  6
Continuous
 62
     0
100
AcDbText
 10
83.448699
 20
151.0
 30
0.0
 40
6.0
  1
180%%d
100
AcDbText
  0
ENDBLK
  5
3E8
100
AcDbEntity
  8
0
100
AcDbBlockEnd
  0
BLOCK
  5
3EB
100
AcDbEntity
  8
0
100
AcDbBlockBegin
  2
*B55
 70
     0
 10
0.0
 20
0.0
 30
0.0
  3
*B55
  1

  0
TEXT
  5
3EC
100
AcDbEntity
  8
TEXT
  6
Continuous
 62
     0
100
AcDbText
 10
127.745728
 20
63.5
 30
0.0
 40
3.0
  1
11
100
AcDbText
  0
ENDBLK
  5
3ED
100
AcDbEntity
  8
0
100
AcDbBlockEnd
  0
BLOCK
  5
3F0
100
AcDbEntity
  8
0
100
AcDbBlockBegin
  2
*B56
 70
     0
 10
0.0
 20
0.0
 30
0.0
  3
*B56
  1

  0
TEXT
  5
3F1
100
AcDbEntity
  8
TEXT
  6
Continuous
 62
     0
100
AcDbText
 10
147.245728
 20
51.5
 30
0.0
 40
3.0
  1
10
100
AcDbText
  0
ENDBLK
  5
3F2
100
AcDbEntity
  8
0
100
AcDbBlockEnd
  0
BLOCK
  5
3F5
100
AcDbEntity
  8
0
100
AcDbBlockBegin
  2
*B57
 70
     0
 10
0.0
 20
0.0
 30
0.0
  3
*B57
  1

  0
TEXT
  5
3F6
100
AcDbEntity
  8
TEXT
  6
Continuous
 62
     0
100
AcDbText
 10
103.533929
 20
63.5
 30
0.0
 40
3.0
  1
%%c4
100
AcDbText
  0
ENDBLK
  5
3F7
100
AcDbEntity
  8
0
100
AcDbBlockEnd
  0
BLOCK
  5
3FA
100
AcDbEntity
  8
0
100
AcDbBlockBegin
  2
*B58
 70
     0
 10
0.0
 20
0.0
 30
0.0
  3
*B58
  1

  0
TEXT
  5
3FB
100
AcDbEntity
  8
TEXT
  6
Continuous
 62
     0
100
AcDbText
 10
93.624836
 20
51.5
 30
0.0
 40
3.0
  1
22
100
AcDbText
  0
ENDBLK
  5
3FC
100
AcDbEntity
  8
0
100
AcDbBlockEnd
  0
BLOCK
  5
3FF
100
AcDbEntity
  8
0
100
AcDbBlockBegin
  2
*B59
 70
     0
 10
0.0
 20
0.0
 30
0.0
  3
*B59
  1

  0
TEXT
  5
400
100
AcDbEntity
  8
TEXT
  6
Continuous
 62
     0
100
AcDbText
 10
73.5
 20
77.714968
 30
0.0
 40
3.0
  1
8
 50
90.0
100
AcDbText
  0
ENDBLK
  5
401
100
AcDbEntity
  8
0
100
AcDbBlockEnd
  0
BLOCK
  5
404
100
AcDbEntity
  8
0
100
AcDbBlockBegin
  2
*B60
 70
     0
 10
0.0
 20
0.0
 30
0.0
  3
*B60
  1

  0
TEXT
  5
405
100
AcDbEntity
  8
TEXT
  6
Continuous
 62
     0
100
AcDbText
 10
137.245728
 20
141.5
 30
0.0
 40
3.0
  1
30
100
AcDbText
  0
ENDBLK
  5
406
100
AcDbEntity
  8
0
100
AcDbBlockEnd
  0
BLOCK
  5
409
100
AcDbEntity
  8
0
100
AcDbBlockBegin
  2
*B61
 70
     0
 10
0.0
 20
0.0
 30
0.0
  3
*B61
  1

  0
TEXT
  5
40A
100
AcDbEntity
  8
TEXT
  6
Continuous
 62
     0
100
AcDbText
 10
151.245503
 20
155.0
 30
0.0
 40
3.0
  1
58
100
AcDbText
  0
ENDBLK
  5
40B
100
AcDbEntity
  8
0
100
AcDbBlockEnd
  0
BLOCK
  5
40E
100
AcDbEntity
  8
0
100
AcDbBlockBegin
  2
*B62
 70
     0
 10
0.0
 20
0.0
 30
0.0
  3
*B62
  1

  0
TEXT
  5
40F
100
AcDbEntity
  8
TEXT
  6
Continuous
 62
     0
100
AcDbText
 10
192.5
 20
112.786396
 30
0.0
 40
3.0
  1
48
 50
90.0
100
AcDbText
  0
ENDBLK
  5
410
100
AcDbEntity
  8
0
100
AcDbBlockEnd
  0
BLOCK
  5
413
100
AcDbEntity
  8
0
100
AcDbBlockBegin
  2
*B63
 70
     0
 10
0.0
 20
0.0
 30
0.0
  3
*B63
  1

  0
TEXT
  5
414
100
AcDbEntity
  8
TEXT
  6
Continuous
 62
     0
100
AcDbText
 10
187.328571
 20
64.5
 30
0.0
 40
3.0
  1
%%c3,3
100
AcDbText
  0
ENDBLK
  5
415
100
AcDbEntity
  8
0
100
AcDbBlockEnd
  0
BLOCK
  5
418
100
AcDbEntity
  8
0
100
AcDbBlockBegin
  2
*B64
 70
     0
 10
0.0
 20
0.0
 30
0.0
  3
*B64
  1

  0
TEXT
  5
419
100
AcDbEntity
  8
TEXT
  6
Continuous
 62
     0
100
AcDbText
 10
210.936335
 20
52.5
 30
0.0
 40
3.0
  1
16
100
AcDbText
  0
ENDBLK
  5
41A
100
AcDbEntity
  8
0
100
AcDbBlockEnd
  0
BLOCK
  5
41D
100
AcDbEntity
  8
0
100
AcDbBlockBegin
  2
*B65
 70
     0
 10
0.0
 20
0.0
 30
0.0
  3
*B65
  1

  0
TEXT
  5
41E
100
AcDbEntity
  8
TEXT
  6
Continuous
 62
     0
100
AcDbText
 10
235.5
 20
80.390133
 30
0.0
 40
3.0
  1
16
 50
90.0
100
AcDbText
  0
ENDBLK
  5
41F
100
AcDbEntity
  8
0
100
AcDbBlockEnd
  0
ENDSEC
  0
SECTION
  2
ENTITIES
  0
INSERT
  5
34
100
AcDbEntity
  8
0
  6
Continuous
 62
   172
100
AcDbBlockReference
  2
*B2
 10
0.0
 20
0.0
 30
0.0
  0
INSERT
  5
3F
100
AcDbEntity
  8
0
  6
Continuous
 62
   172
100
AcDbBlockReference
  2
*B3
 10
0.0
 20
0.0
 30
0.0
  0
INSERT
  5
15F
100
AcDbEntity
  8
0
  6
HIDDEN
 62
   174
100
AcDbBlockReference
  2
*B5
 10
0.0
 20
0.0
 30
0.0
  0
INSERT
  5
1D3
100
AcDbEntity
  8
0
  6
Continuous
 62
   174
100
AcDbBlockReference
  2
*B6
 10
0.0
 20
0.0
 30
0.0
  0
INSERT
  5
282
100
AcDbEntity
  8
0
  6
Continuous
 62
   174
100
AcDbBlockReference
  2
*B7
 10
0.0
 20
0.0
 30
0.0
  0
INSERT
  5
289
100
AcDbEntity
  8
0
  6
Continuous
 62
     0
100
AcDbBlockReference
  2
*B8
 10
0.0
 20
0.0
 30
0.0
  0
INSERT
  5
290
100
AcDbEntity
  8
0
  6
Continuous
 62
     0
100
AcDbBlockReference
  2
*B9
 10
0.0
 20
0.0
 30
0.0
  0
INSERT
  5
297
100
AcDbEntity
  8
0
  6
Continuous
 62
     0
100
AcDbBlockReference
  2
*B10
 10
0.0
 20
0.0
 30
0.0
  0
INSERT
  5
29E
100
AcDbEntity
  8
0
  6
Continuous
 62
     0
100
AcDbBlockReference
  2
*B11
 10
0.0
 20
0.0
 30
0.0
  0
INSERT
  5
2A5
100
AcDbEntity
  8
0
  6
Continuous
 62
     0
100
AcDbBlockReference
  2
*B12
 10
0.0
 20
0.0
 30
0.0
  0
INSERT
  5
2AC
100
AcDbEntity
  8
0
  6
Continuous
 62
     0
100
AcDbBlockReference
  2
*B13
 10
0.0
 20
0.0
 30
0.0
  0
INSERT
  5
2B3
100
AcDbEntity
  8
0
  6
Continuous
 62
     0
100
AcDbBlockReference
  2
*B14
 10
0.0
 20
0.0
 30
0.0
  0
INSERT
  5
2BA
100
AcDbEntity
  8
0
  6
Continuous
 62
     0
100
AcDbBlockReference
  2
*B15
 10
0.0
 20
0.0
 30
0.0
  0
INSERT
  5
2C1
100
AcDbEntity
  8
0
  6
Continuous
 62
     0
100
AcDbBlockReference
  2
*B16
 10
0.0
 20
0.0
 30
0.0
  0
INSERT
  5
2C8
100
AcDbEntity
  8
0
  6
Continuous
 62
     0
100
AcDbBlockReference
  2
*B17
 10
0.0
 20
0.0
 30
0.0
  0
INSERT
  5
2CF
100
AcDbEntity
  8
0
  6
Continuous
 62
     0
100
AcDbBlockReference
  2
*B18
 10
0.0
 20
0.0
 30
0.0
  0
INSERT
  5
2D4
100
AcDbEntity
  8
0
  6
Continuous
 62
     8
100
AcDbBlockReference
  2
*B19
 10
0.0
 20
0.0
 30
0.0
  0
INSERT
  5
2D9
100
AcDbEntity
  8
0
  6
Continuous
 62
     8
100
AcDbBlockReference
  2
*B20
 10
0.0
 20
0.0
 30
0.0
  0
INSERT
  5
2DE
100
AcDbEntity
  8
0
  6
Continuous
 62
     8
100
AcDbBlockReference
  2
*B21
 10
0.0
 20
0.0
 30
0.0
  0
INSERT
  5
2EF
100
AcDbEntity
  8
0
  6
Continuous
 62
     8
100
AcDbBlockReference
  2
*B22
 10
0.0
 20
0.0
 30
0.0
  0
INSERT
  5
2F6
100
AcDbEntity
  8
0
  6
Continuous
 62
     8
100
AcDbBlockReference
  2
*B23
 10
0.0
 20
0.0
 30
0.0
  0
INSERT
  5
2FF
100
AcDbEntity
  8
0
  6
Continuous
 62
     8
100
AcDbBlockReference
  2
*B24
 10
0.0
 20
0.0
 30
0.0
  0
INSERT
  5
304
100
AcDbEntity
  8
0
  6
Continuous
 62
     8
100
AcDbBlockReference
  2
*B25
 10
0.0
 20
0.0
 30
0.0
  0
INSERT
  5
316
100
AcDbEntity
  8
0
  6
Continuous
 62
     8
100
AcDbBlockReference
  2
*B26
 10
0.0
 20
0.0
 30
0.0
  0
INSERT
  5
31C
100
AcDbEntity
  8
0
  6
Continuous
 62
     8
100
AcDbBlockReference
  2
*B27
 10
0.0
 20
0.0
 30
0.0
  0
INSERT
  5
321
100
AcDbEntity
  8
0
  6
Continuous
 62
     8
100
AcDbBlockReference
  2
*B28
 10
0.0
 20
0.0
 30
0.0
  0
INSERT
  5
326
100
AcDbEntity
  8
0
  6
Continuous
 62
     8
100
AcDbBlockReference
  2
*B29
 10
0.0
 20
0.0
 30
0.0
  0
INSERT
  5
32B
100
AcDbEntity
  8
0
  6
Continuous
 62
     8
100
AcDbBlockReference
  2
*B30
 10
0.0
 20
0.0
 30
0.0
  0
INSERT
  5
331
100
AcDbEntity
  8
0
  6
Continuous
 62
     8
100
AcDbBlockReference
  2
*B31
 10
0.0
 20
0.0
 30
0.0
  0
INSERT
  5
336
100
AcDbEntity
  8
0
  6
Continuous
 62
     8
100
AcDbBlockReference
  2
*B32
 10
0.0
 20
0.0
 30
0.0
  0
INSERT
  5
33C
100
AcDbEntity
  8
0
  6
Continuous
 62
     8
100
AcDbBlockReference
  2
*B33
 10
0.0
 20
0.0
 30
0.0
  0
INSERT
  5
342
100
AcDbEntity
  8
0
  6
Continuous
 62
     8
100
AcDbBlockReference
  2
*B34
 10
0.0
 20
0.0
 30
0.0
  0
INSERT
  5
34D
100
AcDbEntity
  8
0
  6
Continuous
 62
     8
100
AcDbBlockReference
  2
*B35
 10
0.0
 20
0.0
 30
0.0
  0
INSERT
  5
35B
100
AcDbEntity
  8
0
  6
Continuous
 62
     8
100
AcDbBlockReference
  2
*B36
 10
0.0
 20
0.0
 30
0.0
  0
INSERT
  5
36F
100
AcDbEntity
  8
0
  6
Continuous
 62
     8
100
AcDbBlockReference
  2
*B37
 10
0.0
 20
0.0
 30
0.0
  0
INSERT
  5
374
100
AcDbEntity
  8
0
  6
Continuous
 62
     8
100
AcDbBlockReference
  2
*B38
 10
0.0
 20
0.0
 30
0.0
  0
INSERT
  5
382
100
AcDbEntity
  8
0
  6
Continuous
 62
     8
100
AcDbBlockReference
  2
*B39
 10
0.0
 20
0.0
 30
0.0
  0
INSERT
  5
395
100
AcDbEntity
  8
0
  6
Continuous
 62
     8
100
AcDbBlockReference
  2
*B40
 10
0.0
 20
0.0
 30
0.0
  0
INSERT
  5
39A
100
AcDbEntity
  8
0
  6
Continuous
 62
     8
100
AcDbBlockReference
  2
*B41
 10
0.0
 20
0.0
 30
0.0
  0
INSERT
  5
3A0
100
AcDbEntity
  8
0
  6
Continuous
 62
     8
100
AcDbBlockReference
  2
*B42
 10
0.0
 20
0.0
 30
0.0
  0
INSERT
  5
3A5
100
AcDbEntity
  8
0
  6
Continuous
 62
     8
100
AcDbBlockReference
  2
*B43
 10
0.0
 20
0.0
 30
0.0
  0
INSERT
  5
3AA
100
AcDbEntity
  8
0
  6
Continuous
 62
     8
100
AcDbBlockReference
  2
*B44
 10
0.0
 20
0.0
 30
0.0
  0
INSERT
  5
3B8
100
AcDbEntity
  8
0
  6
Continuous
 62
     8
100
AcDbBlockReference
  2
*B45
 10
0.0
 20
0.0
 30
0.0
  0
INSERT
  5
3BE
100
AcDbEntity
  8
0
  6
Continuous
 62
     8
100
AcDbBlockReference
  2
*B46
 10
0.0
 20
0.0
 30
0.0
  0
INSERT
  5
3C4
100
AcDbEntity
  8
0
  6
Continuous
 62
     6
100
AcDbBlockReference
  2
*B47
 10
0.0
 20
0.0
 30
0.0
  0
INSERT
  5
3CA
100
AcDbEntity
  8
0
  6
Continuous
 62
     6
100
AcDbBlockReference
  2
*B48
 10
0.0
 20
0.0
 30
0.0
  0
INSERT
  5
3D0
100
AcDbEntity
  8
0
  6
Continuous
 62
     6
100
AcDbBlockReference
  2
*B49
 10
0.0
 20
0.0
 30
0.0
  0
INSERT
  5
3D5
100
AcDbEntity
  8
TEXT
  6
Continuous
 62
     0
100
AcDbBlockReference
  2
*B50
 10
0.0
 20
0.0
 30
0.0
  0
INSERT
  5
3DA
100
AcDbEntity
  8
TEXT
  6
Continuous
 62
     0
100
AcDbBlockReference
  2
*B51
 10
0.0
 20
0.0
 30
0.0
  0
INSERT
  5
3DF
100
AcDbEntity
  8
TEXT
  6
Continuous
 62
     0
100
AcDbBlockReference
  2
*B52
 10
0.0
 20
0.0
 30
0.0
  0
INSERT
  5
3E4
100
AcDbEntity
  8
TEXT
  6
Continuous
 62
     0
100
AcDbBlockReference
  2
*B53
 10
0.0
 20
0.0
 30
0.0
  0
INSERT
  5
3E9
100
AcDbEntity
  8
TEXT
  6
Continuous
 62
     0
100
AcDbBlockReference
  2
*B54
 10
0.0
 20
0.0
 30
0.0
  0
INSERT
  5
3EE
100
AcDbEntity
  8
TEXT
  6
Continuous
 62
     0
100
AcDbBlockReference
  2
*B55
 10
0.0
 20
0.0
 30
0.0
  0
INSERT
  5
3F3
100
AcDbEntity
  8
TEXT
  6
Continuous
 62
     0
100
AcDbBlockReference
  2
*B56
 10
0.0
 20
0.0
 30
0.0
  0
INSERT
  5
3F8
100
AcDbEntity
  8
TEXT
  6
Continuous
 62
     0
100
AcDbBlockReference
  2
*B57
 10
0.0
 20
0.0
 30
0.0
  0
INSERT
  5
3FD
100
AcDbEntity
  8
TEXT
  6
Continuous
 62
     0
100
AcDbBlockReference
  2
*B58
 10
0.0
 20
0.0
 30
0.0
  0
INSERT
  5
402
100
AcDbEntity
  8
TEXT
  6
Continuous
 62
     0
100
AcDbBlockReference
  2
*B59
 10
0.0
 20
0.0
 30
0.0
  0
INSERT
  5
407
100
AcDbEntity
  8
TEXT
  6
Continuous
 62
     0
100
AcDbBlockReference
  2
*B60
 10
0.0
 20
0.0
 30
0.0
  0
INSERT
  5
40C
100
AcDbEntity
  8
TEXT
  6
Continuous
 62
     0
100
AcDbBlockReference
  2
*B61
 10
0.0
 20
0.0
 30
0.0
  0
INSERT
  5
411
100
AcDbEntity
  8
TEXT
  6
Continuous
 62
     0
100
AcDbBlockReference
  2
*B62
 10
0.0
 20
0.0
 30
0.0
  0
INSERT
  5
416
100
AcDbEntity
  8
TEXT
  6
Continuous
 62
     0
100
AcDbBlockReference
  2
*B63
 10
0.0
 20
0.0
 30
0.0
  0
INSERT
  5
41B
100
AcDbEntity
  8
TEXT
  6
Continuous
 62
     0
100
AcDbBlockReference
  2
*B64
 10
0.0
 20
0.0
 30
0.0
  0
INSERT
  5
420
100
AcDbEntity
  8
TEXT
  6
Continuous
 62
     0
100
AcDbBlockReference
  2
*B65
 10
0.0
 20
0.0
 30
0.0
  0
ENDSEC
  0
SECTION
  2
OBJECTS
  0
DICTIONARY
  5
19
100
AcDbDictionary
280
     0
281
     1
  3
ACAD_GROUP
350
1A
  3
ACAD_MLINESTYLE
350
1B
  3
ACAD_LAYOUT
350
1E
  3
ACAD_PLOTSETTINGS
350
22
  3
ACAD_PLOTSTYLENAME
350
1F
  3
ACAD_WIPEOUT_VARS
350
23
  0
DICTIONARY
  5
1A
102
{ACAD_REACTORS
330
19
102
}
100
AcDbDictionary
280
     0
281
     1
  0
DICTIONARY
  5
1B
102
{ACAD_REACTORS
330
19
102
}
100
AcDbDictionary
280
     0
281
     1
  3
Standard
350
1C
  0
MLINESTYLE
  5
1C
102
{ACAD_REACTORS
330
1B
102
}
100
AcDbMlineStyle
  2
Standard
 70
     0
  3

 62
     0
 51
90.0
 52
90.0
 71
     2
 49
0.5
 62
   256
  6
BYLAYER
 49
-0.5
 62
   256
  6
BYLAYER
  0
ACDBDICTIONARYWDFLT
  5
1F
102
{ACAD_REACTORS
330
19
102
}
100
AcDbDictionary
281
     1
  3
Normal
350
1D
100
AcDbDictionaryWithDefault
340
1D
  0
ACDBPLACEHOLDER
  5
1D
102
{ACAD_REACTORS
330
1F
102
}
  0
LAYOUT
  5
20
102
{ACAD_REACTORS
330
1E
102
}
100
AcDbPlotSettings
  1

  2

  4

  6

 40
0.0
 41
0.0
 42
0.0
 43
0.0
 44
0.0
 45
0.0
 46
0.0
 47
0.0
 48
0.0
 49
0.0
140
0.0
141
0.0
142
1.0
143
1.0
 70
     0
 72
     0
 73
     0
 74
     0
  7

 75
     0
147
1.0
148
0.0
149
0.0
100
AcDbLayout
  1
Model
 70
     0
 71
     0
 10
0.0
 20
0.0
 11
0.0
 21
0.0
 12
0.0
 22
0.0
 32
0.0
 14
0.0
 24
0.0
 34
0.0
 15
0.0
 25
0.0
 35
0.0
146
0.0
 13
0.0
 23
0.0
 33
0.0
 16
0.0
 26
0.0
 36
0.0
 17
0.0
 27
0.0
 37
0.0
 76
     0
330
A
331
0
345
0
346
0
  0
LAYOUT
  5
21
102
{ACAD_REACTORS
330
1E
102
}
100
AcDbPlotSettings
  1

  2

  4

  6

 40
0.0
 41
0.0
 42
0.0
 43
0.0
 44
0.0
 45
0.0
 46
0.0
 47
0.0
 48
0.0
 49
0.0
140
0.0
141
0.0
142
1.0
143
1.0
 70
     0
 72
     0
 73
     0
 74
     0
  7

 75
     0
147
1.0
148
0.0
149
0.0
100
AcDbLayout
  1
Layout1
 70
     0
 71
     0
 10
0.0
 20
0.0
 11
0.0
 21
0.0
 12
0.0
 22
0.0
 32
0.0
 14
0.0
 24
0.0
 34
0.0
 15
0.0
 25
0.0
 35
0.0
146
0.0
 13
0.0
 23
0.0
 33
0.0
 16
0.0
 26
0.0
 36
0.0
 17
0.0
 27
0.0
 37
0.0
 76
     0
330
B
331
0
345
0
346
0
  0
DICTIONARY
  5
1E
102
{ACAD_REACTORS
330
19
102
}
100
AcDbDictionary
280
     0
281
     1
  3
Layout1
350
21
  3
Model
350
20
  0
DICTIONARY
  5
22
102
{ACAD_REACTORS
330
19
102
}
100
AcDbDictionary
280
     0
281
     1
  0
WIPEOUTVARIABLES
  5
23
100
AcDbWipeoutVariables
 70
     1
  0
ENDSEC
  0
EOF
