  0
SECTION
  2
HEADER
  9
$ACADVER
  1
AC1015
  9
$ACADMAINTVER
 70
     6
  9
$DWGCODEPAGE
  3
DOS850
  9
$INSBASE
 10
0.0
 20
0.0
 30
0.0
  9
$EXTMIN
 10
0.0
 20
0.0
 30
0.0
  9
$EXTMAX
 10
297.0
 20
210.0
 30
0.0
  9
$LIMMIN
 10
0.0
 20
0.0
  9
$LIMMAX
 10
297.0
 20
210.0
  9
$ORTHOMODE
 70
     0
  9
$REGENMODE
 70
     1
  9
$FILLMODE
 70
     1
  9
$QTEXTMODE
 70
     0
  9
$MIRRTEXT
 70
     1
  9
$LTSCALE
 40
25.4
  9
$ATTMODE
 70
     1
  9
$TEXTSIZE
 40
3.5
  9
$TRACEWID
 40
0.05
  9
$TEXTSTYLE
  7
Standard
  9
$CLAYER
  8
0
  9
$CELTYPE
  6
Continuous
  9
$CECOLOR
 62
   256
  9
$CELTSCALE
 40
1.0
  9
$DISPSILH
 70
     0
  9
$DIMSCALE
 40
1.0
  9
$DIMASZ
 40
5.0
  9
$DIMEXO
 40
3.0
  9
$DIMDLI
 40
0.38
  9
$DIMRND
 40
0.0
  9
$DIMDLE
 40
0.0
  9
$DIMEXE
 40
2.0
  9
$DIMTP
 40
0.0
  9
$DIMTM
 40
0.0
  9
$DIMTXT
 40
3.5
  9
$DIMCEN
 40
4.0
  9
$DIMTSZ
 40
0.0
  9
$DIMTOL
 70
     0
  9
$DIMLIM
 70
     0
  9
$DIMTIH
 70
     1
  9
$DIMTOH
 70
     1
  9
$DIMSE1
 70
     0
  9
$DIMSE2
 70
     0
  9
$DIMTAD
 70
     0
  9
$DIMZIN
 70
     0
  9
$DIMBLK
  1

  9
$DIMASO
 70
     1
  9
$DIMSHO
 70
     1
  9
$DIMPOST
  1

  9
$DIMAPOST
  1

  9
$DIMALT
 70
     0
  9
$DIMALTD
 70
     2
  9
$DIMALTF
 40
25.4
  9
$DIMLFAC
 40
1.0
  9
$DIMTOFL
 70
     0
  9
$DIMTVP
 40
0.0
  9
$DIMTIX
 70
     0
  9
$DIMSOXD
 70
     0
  9
$DIMSAH
 70
     0
  9
$DIMBLK1
  1

  9
$DIMBLK2
  1

  9
$DIMSTYLE
  2
Standard
  9
$DIMCLRD
 70
     0
  9
$DIMCLRE
 70
     0
  9
$DIMCLRT
 70
     0
  9
$DIMTFAC
 40
1.0
  9
$DIMGAP
 40
1.0
  9
$DIMJUST
 70
     0
  9
$DIMSD1
 70
     0
  9
$DIMSD2
 70
     0
  9
$DIMTOLJ
 70
     1
  9
$DIMTZIN
 70
     0
  9
$DIMALTZ
 70
     0
  9
$DIMALTTZ
 70
     0
  9
$DIMUPT
 70
     0
  9
$DIMDEC
 70
     4
  9
$DIMTDEC
 70
     4
  9
$DIMALTU
 70
     2
  9
$DIMALTTD
 70
     2
  9
$DIMTXSTY
  7
Standard
  9
$DIMAUNIT
 70
     0
  9
$DIMADEC
 70
     0
  9
$DIMALTRND
 40
0.0
  9
$DIMAZIN
 70
     0
  9
$DIMDSEP
 70
     0
  9
$DIMATFIT
 70
     3
  9
$DIMFRAC
 70
     0
  9
$DIMLDRBLK
  1

  9
$DIMLUNIT
 70
     2
  9
$DIMLWD
 70
     0
  9
$DIMLWE
 70
     0
  9
$DIMTMOVE
 70
     0
  9
$LUNITS
 70
     2
  9
$LUPREC
 70
     4
  9
$SKETCHINC
 40
0.1
  9
$FILLETRAD
 40
0.0
  9
$AUNITS
 70
     0
  9
$AUPREC
 70
     0
  9
$MENU
  1
acad
  9
$ELEVATION
 40
0.0
  9
$PELEVATION
 40
0.0
  9
$THICKNESS
 40
0.0
  9
$LIMCHECK
 70
     0
  9
$CHAMFERA
 40
0.0
  9
$CHAMFERB
 40
0.0
  9
$CHAMFERC
 40
0.0
  9
$CHAMFERD
 40
0.0
  9
$SKPOLY
 70
     0
  9
$TDCREATE
 40
0.000000000
  9
$TDUCREATE
 40
0.000000000
  9
$TDUPDATE
 40
0.000000000
  9
$TDUUPDATE
 40
0.000000000
  9
$TDINDWG
 40
0.0000000000
  9
$TDUSRTIMER
 40
0.0000000000
  9
$USRTIMER
 70
     1
  9
$ANGBASE
 50
0.0
  9
$ANGDIR
 70
     0
  9
$PDMODE
 70
     0
  9
$PDSIZE
 40
0.0
  9
$PLINEWID
 40
0.0
  9
$SPLFRAME
 70
     0
  9
$SPLINETYPE
 70
     6
  9
$SPLINESEGS
 70
     8
  9
$HANDSEED
  5
3F7
  9
$SURFTAB1
 70
     6
  9
$SURFTAB2
 70
     6
  9
$SURFTYPE
 70
     6
  9
$SURFU
 70
     6
  9
$SURFV
 70
     6
  9
$UCSBASE
  2

  9
$UCSNAME
  2

  9
$UCSORG
 10
0.0
 20
0.0
 30
0.0
  9
$UCSXDIR
 10
1.0
 20
0.0
 30
0.0
  9
$UCSYDIR
 10
0.0
 20
1.0
 30
0.0
  9
$UCSORTHOREF
  2

  9
$UCSORTHOVIEW
 70
     0
  9
$UCSORGTOP
 10
0.0
 20
0.0
 30
0.0
  9
$UCSORGBOTTOM
 10
0.0
 20
0.0
 30
0.0
  9
$UCSORGLEFT
 10
0.0
 20
0.0
 30
0.0
  9
$UCSORGRIGHT
 10
0.0
 20
0.0
 30
0.0
  9
$UCSORGFRONT
 10
0.0
 20
0.0
 30
0.0
  9
$UCSORGBACK
 10
0.0
 20
0.0
 30
0.0
  9
$PUCSBASE
  2

  9
$PUCSNAME
  2

  9
$PUCSORG
 10
0.0
 20
0.0
 30
0.0
  9
$PUCSXDIR
 10
1.0
 20
0.0
 30
0.0
  9
$PUCSYDIR
 10
0.0
 20
1.0
 30
0.0
  9
$PUCSORTHOREF
  2

  9
$PUCSORTHOVIEW
 70
     0
  9
$PUCSORGTOP
 10
0.0
 20
0.0
 30
0.0
  9
$PUCSORGBOTTOM
 10
0.0
 20
0.0
 30
0.0
  9
$PUCSORGLEFT
 10
0.0
 20
0.0
 30
0.0
  9
$PUCSORGRIGHT
 10
0.0
 20
0.0
 30
0.0
  9
$PUCSORGFRONT
 10
0.0
 20
0.0
 30
0.0
  9
$PUCSORGBACK
 10
0.0
 20
0.0
 30
0.0
  9
$USERI1
 70
     0
  9
$USERI2
 70
     0
  9
$USERI3
 70
     0
  9
$USERI4
 70
     0
  9
$USERI5
 70
     0
  9
$USERR1
 40
0.0
  9
$USERR2
 40
0.0
  9
$USERR3
 40
0.0
  9
$USERR4
 40
0.0
  9
$USERR5
 40
0.0
  9
$WORLDVIEW
 70
     1
  9
$SHADEDGE
 70
     3
  9
$SHADEDIF
 70
    70
  9
$TILEMODE
 70
     1
  9
$MAXACTVP
 70
    16
  9
$PINSBASE
 10
0.0
 20
0.0
 30
0.0
  9
$PLIMCHECK
 70
     0
  9
$PEXTMIN
 10
1.000000E+20
 20
1.000000E+20
 30
1.000000E+20
  9
$PEXTMAX
 10
-1.000000E+20
 20
-1.000000E+20
 30
-1.000000E+20
  9
$PLIMMIN
 10
0.0
 20
0.0
  9
$PLIMMAX
 10
297.0
 20
210.0
  9
$UNITMODE
 70
     0
  9
$VISRETAIN
 70
     0
  9
$PLINEGEN
 70
     1
  9
$PSLTSCALE
 70
     0
  9
$TREEDEPTH
 70
  3020
  9
$CMLSTYLE
  2
Standard
  9
$CMLJUST
 70
     0
  9
$CMLSCALE
 40
1.0
  9
$PROXYGRAPHICS
 70
     0
  9
$MEASUREMENT
 70
     0
  9
$CELWEIGHT
370
     0
  9
$ENDCAPS
280
     0
  9
$JOINSTYLE
280
     0
  9
$LWDISPLAY
290
     0
  9
$INSUNITS
 70
     0
  9
$HYPERLINKBASE
  1

  9
$XEDIT
290
     1
  9
$CEPSNTYPE
380
     0
  9
$PSTYLEMODE
290
     0
  9
$FINGERPRINTGUID
  2

  9
$VERSIONGUID
  2

  9
$EXTNAMES
290
     1
  9
$PSVPSCALE
 40
0.0
  0
ENDSEC
  0
SECTION
  2
CLASSES
  0
CLASS
  1
LWPOLYLINE
  2
AcDbPolyline
  3
"AutoCAD"
 90
        0
280
     0
281
     1
  0
CLASS
  1
IMAGE
  2
AcDbRasterImage
  3
ISM
 90
      127
280
     0
281
     1
  0
CLASS
  1
OLE2FRAME
  2
AcDbOle2Frame
  3
""
 90
        0
280
     0
281
     1
  0
CLASS
  1
HATCH
  2
AcDbHatch
  3
"ACAD_SEDONA"
 90
        0
280
     0
281
     1
  0
CLASS
  1
DICTIONARYVAR
  2
AcDbDictionaryVar
  3
"AutoCAD"
 90
        0
280
     0
281
     0
  0
CLASS
  1
RASTERVARIABLES
  2
AcDbRasterVariables
  3
ISM
 90
        0
280
     0
281
     0
  0
CLASS
  1
IMAGEDEF
  2
AcDbRasterImageDef
  3
ISM
 90
        0
280
     0
281
     0
  0
CLASS
  1
IMAGEDEF_REACTOR
  2
AcDbRasterImageDefReactor
  3
ISM
 90
        1
280
     0
281
     0
  0
CLASS
  1
IDBUFFER
  2
AcDbIdBuffer
  3
"Acad"
 90
        0
280
     0
281
     0
  0
CLASS
  1
SPATIAL_FILTER
  2
AcDbSpatialFilter
  3
"Acad"
 90
        0
280
     0
281
     0
  0
CLASS
  1
XRECORD
  2
AcDbXrecord
  3
"<Built In>"
 90
        0
280
     0
281
     0
  0
CLASS
  1
SORTENTSTABLE
  2
AcDbSortentsTable
  3
"AutoCAD"
 90
        0
280
     0
281
     0
  0
CLASS
  1
LAYER_INDEX
  2
AcDbLayerIndex
  3
"Acad"
 90
        0
280
     0
281
     0
  0
CLASS
  1
SPATIAL_INDEX
  2
AcDbSpatialIndex
  3
"Acad"
 90
        0
280
     0
281
     0
  0
CLASS
  1
OBJECT_PTR
  2
CAseDLPNTableRecord
  3
"ASE-LPNTableRecord"
 90
        1
280
     0
281
     0
  0
CLASS
  1
LAYOUT
  2
AcDbLayout
  3
"AutoCAD 2000"
 90
        1
280
     0
281
     0
  0
CLASS
  1
PLOTSETTINGS
  2
AcDbPlotSettings
  3
"AutoCAD 2000"
 90
        1
280
     0
281
     0
  0
CLASS
  1
ACDBDICTIONARYWDFLT
  2
AcDbDictionaryWithDefault
  3
"AutoCAD 2000"
 90
        1
280
     0
281
     0
  0
CLASS
  1
ACDBPLACEHOLDER
  2
AcDbPlaceHolder
  3
"AutoCAD 2000"
 90
        1
280
     0
281
     0
  0
CLASS
  1
VBA_PROJECT
  2
AcDbVbaProject
  3
"acadvba"
 90
        1
280
     0
281
     0
  0
CLASS
  1
WIPEOUT
  2
AcDbWipeout
  3
WipeOut|AutoCAD Express Tool|expresstools@autodesk.com
 90
      127
280
     0
281
     1
  0
CLASS
  1
WIPEOUTVARIABLES
  2
AcDbWipeoutVariables
  3
WipeOut|AutoCAD Express Tool|expresstools@autodesk.com
 90
        0
280
     0
281
     0
  0
CLASS
  1
RTEXT
  2
RText
  3
RText|AutoCAD Express Tool|expresstools@autodesk.com
 90
        0
280
     0
281
     1
  0
CLASS
  1
ARCALIGNEDTEXT
  2
AcDbArcAlignedText
  3
ATEXT|AutoCAD Express Tool|expresstools@autodesk.com
 90
        0
280
     0
281
     1
  0
ENDSEC
  0
SECTION
  2
TABLES
  0
TABLE
  2
VPORT
  5
7
100
AcDbSymbolTable
 70
     1
  0
VPORT
  5
15
100
AcDbSymbolTableRecord
100
AcDbViewportTableRecord
  2
*ACTIVE
 70
     0
 10
0.0
 20
0.0
 11
1.0
 21
1.0
 12
6.591288
 22
4.579184
 13
0.0
 23
0.0
 14
1.0
 24
1.0
 15
0.0
 25
0.0
 16
0.0
 26
0.0
 36
1.0
 17
0.0
 27
0.0
 37
0.0
 40
9.158369
 41
0.688564
 42
50.0
 43
0.0
 44
0.0
 50
0.0
 51
0.0
 71
     0
 72
   100
 73
     1
 74
     1
 75
     0
 76
     0
 77
     0
 78
     0
281
     0
 65
     0
110
0.0
120
0.0
130
0.0
111
1.0
121
0.0
131
0.0
112
0.0
122
1.0
132
0.0
345
0
346
0
 79
     0
146
0.0
  0
ENDTAB
  0
TABLE
  2
LTYPE
  5
4
100
AcDbSymbolTable
 70
     7
  0
LTYPE
  5
11
100
AcDbSymbolTableRecord
100
AcDbLinetypeTableRecord
  2
ByBlock
 70
    64
  3

 72
    65
 73
     0
 40
0.0
  0
LTYPE
  5
12
100
AcDbSymbolTableRecord
100
AcDbLinetypeTableRecord
  2
ByLayer
 70
    64
  3

 72
    65
 73
     0
 40
0.0
  0
LTYPE
  5
13
100
AcDbSymbolTableRecord
100
AcDbLinetypeTableRecord
  2
Continuous
 70
    64
  3
Solid line
 72
    65
 73
     0
 40
0.0
  0
LTYPE
  5
24
100
AcDbSymbolTableRecord
100
AcDbLinetypeTableRecord
  2
HIDDEN
 70
    64
  3
_ _ _ _ _ _ _ _ _ _ _ _ _ _ _ _ _ _ _ _ _ _ _ _
 72
    65
 73
     2
 40
0.1875
 49
0.125
 74
     0
 49
-0.0625
 74
     0
  0
LTYPE
  5
25
100
AcDbSymbolTableRecord
100
AcDbLinetypeTableRecord
  2
DOTTED
 70
    64
  3
...............................................
 72
    65
 73
     2
 40
0.125
 49
0.0
 74
     0
 49
-0.125
 74
     0
  0
LTYPE
  5
26
100
AcDbSymbolTableRecord
100
AcDbLinetypeTableRecord
  2
CENTER
 70
    64
  3
____ _ ____ _ ____ _ ____ _ ____ _ ____ _ ____ 
 72
    65
 73
     4
 40
1.125
 49
0.75
 74
     0
 49
-0.125
 74
     0
 49
0.125
 74
     0
 49
-0.125
 74
     0
  0
LTYPE
  5
27
100
AcDbSymbolTableRecord
100
AcDbLinetypeTableRecord
  2
PHANTOM
 70
    64
  3
______  __  __  ______  __  __  ______  __  __ 
 72
    65
 73
     6
 40
1.25
 49
0.625
 74
     0
 49
-0.125
 74
     0
 49
0.125
 74
     0
 49
-0.125
 74
     0
 49
0.125
 74
     0
 49
-0.125
 74
     0
  0
ENDTAB
  0
TABLE
  2
LAYER
  5
2
100
AcDbSymbolTable
 70
     2
  0
LAYER
  5
14
100
AcDbSymbolTableRecord
100
AcDbLayerTableRecord
  2
0
 70
     0
 62
     7
  6
Continuous
290
     1
370
    -3
390
1D
  0
LAYER
  5
28
100
AcDbSymbolTableRecord
100
AcDbLayerTableRecord
  2
TEXT
 70
     0
 62
     8
  6
Continuous
290
     1
370
    -3
390
1F
  0
ENDTAB
  0
TABLE
  2
STYLE
  5
3
100
AcDbSymbolTable
 70
     1
  0
STYLE
  5
17
100
AcDbSymbolTableRecord
100
AcDbTextStyleTableRecord
  2
Standard
 70
     0
 40
0.0
 41
1.0
 50
0.0
 71
     0
 42
0.0
  3
txt
  4

  0
ENDTAB
  0
TABLE
  2
VIEW
  5
5
100
AcDbSymbolTable
 70
     0
  0
ENDTAB
  0
TABLE
  2
UCS
  5
6
100
AcDbSymbolTable
 70
     0
  0
ENDTAB
  0
TABLE
  2
APPID
  5
8
100
AcDbSymbolTable
 70
     1
  0
APPID
  5
16
100
AcDbSymbolTableRecord
100
AcDbRegAppTableRecord
  2
ACAD
 70
     0
  0
ENDTAB
  0
TABLE
  2
DIMSTYLE
  5
9
100
AcDbSymbolTable
 70
     1
100
AcDbDimStyleTable
 71
     0
  0
DIMSTYLE
105
18
100
AcDbSymbolTableRecord
100
AcDbDimStyleTableRecord
  2
Standard
 70
     0
  3

  4

 40
1.0
 41
0.18
 42
0.0625
 43
0.38
 44
0.18
 45
0.0
 46
0.0
 47
0.0
 48
0.0
 71
     0
 72
     0
 73
     1
 74
     1
 75
     0
 76
     0
 77
     0
 78
     0
 79
     0
140
0.18
141
0.09
142
0.0
143
25.4
144
1.0
145
0.0
146
1.0
147
0.09
148
0.0
170
     0
171
     2
172
     0
173
     0
174
     0
175
     0
176
     0
177
     0
178
     0
179
     0
271
     4
272
     4
273
     2
274
     2
275
     0
276
     0
277
     2
278
    46
279
     0
280
     0
281
     0
282
     0
283
     1
284
     0
285
     0
286
     0
288
     0
340
17
341
0
342
0
343
0
344
0
371
    -2
372
    -2
  0
ENDTAB
  0
TABLE
  2
BLOCK_RECORD
  5
1
100
AcDbSymbolTable
 70
    61
  0
BLOCK_RECORD
  5
A
100
AcDbSymbolTableRecord
100
AcDbBlockTableRecord
  2
*MODEL_SPACE
340
20
  0
BLOCK_RECORD
  5
B
100
AcDbSymbolTableRecord
100
AcDbBlockTableRecord
  2
*PAPER_SPACE
340
21
  0
BLOCK_RECORD
  5
29
100
AcDbSymbolTableRecord
100
AcDbBlockTableRecord
  2
*B0
340
0
  0
BLOCK_RECORD
  5
2C
100
AcDbSymbolTableRecord
100
AcDbBlockTableRecord
  2
*B1
340
0
  0
BLOCK_RECORD
  5
2F
100
AcDbSymbolTableRecord
100
AcDbBlockTableRecord
  2
*B2
340
0
  0
BLOCK_RECORD
  5
35
100
AcDbSymbolTableRecord
100
AcDbBlockTableRecord
  2
*B3
340
0
  0
BLOCK_RECORD
  5
40
100
AcDbSymbolTableRecord
100
AcDbBlockTableRecord
  2
*B4
340
0
  0
BLOCK_RECORD
  5
43
100
AcDbSymbolTableRecord
100
AcDbBlockTableRecord
  2
*B5
340
0
  0
BLOCK_RECORD
  5
160
100
AcDbSymbolTableRecord
100
AcDbBlockTableRecord
  2
*B6
340
0
  0
BLOCK_RECORD
  5
1D6
100
AcDbSymbolTableRecord
100
AcDbBlockTableRecord
  2
*B7
340
0
  0
BLOCK_RECORD
  5
285
100
AcDbSymbolTableRecord
100
AcDbBlockTableRecord
  2
*B8
340
0
  0
BLOCK_RECORD
  5
28C
100
AcDbSymbolTableRecord
100
AcDbBlockTableRecord
  2
*B9
340
0
  0
BLOCK_RECORD
  5
293
100
AcDbSymbolTableRecord
100
AcDbBlockTableRecord
  2
*B10
340
0
  0
BLOCK_RECORD
  5
29A
100
AcDbSymbolTableRecord
100
AcDbBlockTableRecord
  2
*B11
340
0
  0
BLOCK_RECORD
  5
2A1
100
AcDbSymbolTableRecord
100
AcDbBlockTableRecord
  2
*B12
340
0
  0
BLOCK_RECORD
  5
2A8
100
AcDbSymbolTableRecord
100
AcDbBlockTableRecord
  2
*B13
340
0
  0
BLOCK_RECORD
  5
2AF
100
AcDbSymbolTableRecord
100
AcDbBlockTableRecord
  2
*B14
340
0
  0
BLOCK_RECORD
  5
2B6
100
AcDbSymbolTableRecord
100
AcDbBlockTableRecord
  2
*B15
340
0
  0
BLOCK_RECORD
  5
2BD
100
AcDbSymbolTableRecord
100
AcDbBlockTableRecord
  2
*B16
340
0
  0
BLOCK_RECORD
  5
2C4
100
AcDbSymbolTableRecord
100
AcDbBlockTableRecord
  2
*B17
340
0
  0
BLOCK_RECORD
  5
2CB
100
AcDbSymbolTableRecord
100
AcDbBlockTableRecord
  2
*B18
340
0
  0
BLOCK_RECORD
  5
2D1
100
AcDbSymbolTableRecord
100
AcDbBlockTableRecord
  2
*B19
340
0
  0
BLOCK_RECORD
  5
2D8
100
AcDbSymbolTableRecord
100
AcDbBlockTableRecord
  2
*B20
340
0
  0
BLOCK_RECORD
  5
2DD
100
AcDbSymbolTableRecord
100
AcDbBlockTableRecord
  2
*B21
340
0
  0
BLOCK_RECORD
  5
2E2
100
AcDbSymbolTableRecord
100
AcDbBlockTableRecord
  2
*B22
340
0
  0
BLOCK_RECORD
  5
2F6
100
AcDbSymbolTableRecord
100
AcDbBlockTableRecord
  2
*B23
340
0
  0
BLOCK_RECORD
  5
2FB
100
AcDbSymbolTableRecord
100
AcDbBlockTableRecord
  2
*B24
340
0
  0
BLOCK_RECORD
  5
309
100
AcDbSymbolTableRecord
100
AcDbBlockTableRecord
  2
*B25
340
0
  0
BLOCK_RECORD
  5
30F
100
AcDbSymbolTableRecord
100
AcDbBlockTableRecord
  2
*B26
340
0
  0
BLOCK_RECORD
  5
321
100
AcDbSymbolTableRecord
100
AcDbBlockTableRecord
  2
*B27
340
0
  0
BLOCK_RECORD
  5
32F
100
AcDbSymbolTableRecord
100
AcDbBlockTableRecord
  2
*B28
340
0
  0
BLOCK_RECORD
  5
335
100
AcDbSymbolTableRecord
100
AcDbBlockTableRecord
  2
*B29
340
0
  0
BLOCK_RECORD
  5
33A
100
AcDbSymbolTableRecord
100
AcDbBlockTableRecord
  2
*B30
340
0
  0
BLOCK_RECORD
  5
340
100
AcDbSymbolTableRecord
100
AcDbBlockTableRecord
  2
*B31
340
0
  0
BLOCK_RECORD
  5
346
100
AcDbSymbolTableRecord
100
AcDbBlockTableRecord
  2
*B32
340
0
  0
BLOCK_RECORD
  5
34C
100
AcDbSymbolTableRecord
100
AcDbBlockTableRecord
  2
*B33
340
0
  0
BLOCK_RECORD
  5
35A
100
AcDbSymbolTableRecord
100
AcDbBlockTableRecord
  2
*B34
340
0
  0
BLOCK_RECORD
  5
35F
100
AcDbSymbolTableRecord
100
AcDbBlockTableRecord
  2
*B35
340
0
  0
BLOCK_RECORD
  5
364
100
AcDbSymbolTableRecord
100
AcDbBlockTableRecord
  2
*B36
340
0
  0
BLOCK_RECORD
  5
376
100
AcDbSymbolTableRecord
100
AcDbBlockTableRecord
  2
*B37
340
0
  0
BLOCK_RECORD
  5
37B
100
AcDbSymbolTableRecord
100
AcDbBlockTableRecord
  2
*B38
340
0
  0
BLOCK_RECORD
  5
380
100
AcDbSymbolTableRecord
100
AcDbBlockTableRecord
  2
*B39
340
0
  0
BLOCK_RECORD
  5
38B
100
AcDbSymbolTableRecord
100
AcDbBlockTableRecord
  2
*B40
340
0
  0
BLOCK_RECORD
  5
390
100
AcDbSymbolTableRecord
100
AcDbBlockTableRecord
  2
*B41
340
0
  0
BLOCK_RECORD
  5
395
100
AcDbSymbolTableRecord
100
AcDbBlockTableRecord
  2
*B42
340
0
  0
BLOCK_RECORD
  5
39A
100
AcDbSymbolTableRecord
100
AcDbBlockTableRecord
  2
*B43
340
0
  0
BLOCK_RECORD
  5
3A0
100
AcDbSymbolTableRecord
100
AcDbBlockTableRecord
  2
*B44
340
0
  0
BLOCK_RECORD
  5
3A6
100
AcDbSymbolTableRecord
100
AcDbBlockTableRecord
  2
*B45
340
0
  0
BLOCK_RECORD
  5
3AC
100
AcDbSymbolTableRecord
100
AcDbBlockTableRecord
  2
*B46
340
0
  0
BLOCK_RECORD
  5
3B1
100
AcDbSymbolTableRecord
100
AcDbBlockTableRecord
  2
*B47
340
0
  0
BLOCK_RECORD
  5
3B6
100
AcDbSymbolTableRecord
100
AcDbBlockTableRecord
  2
*B48
340
0
  0
BLOCK_RECORD
  5
3BB
100
AcDbSymbolTableRecord
100
AcDbBlockTableRecord
  2
*B49
340
0
  0
BLOCK_RECORD
  5
3C0
100
AcDbSymbolTableRecord
100
AcDbBlockTableRecord
  2
*B50
340
0
  0
BLOCK_RECORD
  5
3C5
100
AcDbSymbolTableRecord
100
AcDbBlockTableRecord
  2
*B51
340
0
  0
BLOCK_RECORD
  5
3CA
100
AcDbSymbolTableRecord
100
AcDbBlockTableRecord
  2
*B52
340
0
  0
BLOCK_RECORD
  5
3CF
100
AcDbSymbolTableRecord
100
AcDbBlockTableRecord
  2
*B53
340
0
  0
BLOCK_RECORD
  5
3D4
100
AcDbSymbolTableRecord
100
AcDbBlockTableRecord
  2
*B54
340
0
  0
BLOCK_RECORD
  5
3D9
100
AcDbSymbolTableRecord
100
AcDbBlockTableRecord
  2
*B55
340
0
  0
BLOCK_RECORD
  5
3DE
100
AcDbSymbolTableRecord
100
AcDbBlockTableRecord
  2
*B56
340
0
  0
BLOCK_RECORD
  5
3E3
100
AcDbSymbolTableRecord
100
AcDbBlockTableRecord
  2
*B57
340
0
  0
BLOCK_RECORD
  5
3E8
100
AcDbSymbolTableRecord
100
AcDbBlockTableRecord
  2
*B58
340
0
  0
BLOCK_RECORD
  5
3ED
100
AcDbSymbolTableRecord
100
AcDbBlockTableRecord
  2
*B59
340
0
  0
BLOCK_RECORD
  5
3F2
100
AcDbSymbolTableRecord
100
AcDbBlockTableRecord
  2
*B60
340
0
  0
ENDTAB
  0
ENDSEC
  0
SECTION
  2
BLOCKS
  0
BLOCK
  5
D
100
AcDbEntity
  8
0
100
AcDbBlockBegin
  2
*MODEL_SPACE
 70
     0
 10
0.0
 20
0.0
 30
0.0
  3
*MODEL_SPACE
  1

  0
ENDBLK
  5
E
100
AcDbEntity
  8
0
100
AcDbBlockEnd
  0
BLOCK
  5
F
100
AcDbEntity
 67
     1
  8
0
100
AcDbBlockBegin
  2
*PAPER_SPACE
 70
     0
 10
0.0
 20
0.0
 30
0.0
  3
*PAPER_SPACE
  1

  0
ENDBLK
  5
10
100
AcDbEntity
 67
     1
  8
0
100
AcDbBlockEnd
  0
BLOCK
  5
2A
100
AcDbEntity
  8
0
100
AcDbBlockBegin
  2
*B0
 70
     0
 10
0.0
 20
0.0
 30
0.0
  3
*B0
  1

  0
ENDBLK
  5
2B
100
AcDbEntity
  8
0
100
AcDbBlockEnd
  0
BLOCK
  5
2D
100
AcDbEntity
  8
0
100
AcDbBlockBegin
  2
*B1
 70
     0
 10
0.0
 20
0.0
 30
0.0
  3
*B1
  1

  0
ENDBLK
  5
2E
100
AcDbEntity
  8
0
100
AcDbBlockEnd
  0
BLOCK
  5
30
100
AcDbEntity
  8
0
100
AcDbBlockBegin
  2
*B2
 70
     0
 10
0.0
 20
0.0
 30
0.0
  3
*B2
  1

  0
LINE
  5
31
100
AcDbEntity
  8
0
  6
Continuous
 62
   172
100
AcDbLine
 10
111.888049
 20
144.180061
 30
0.0
 11
100.676647
 21
144.180061
 31
0.0
  0
LINE
  5
32
100
AcDbEntity
  8
0
  6
Continuous
 62
   172
100
AcDbLine
 10
127.173976
 20
118.185786
 30
0.0
 11
111.888049
 21
144.180061
 31
0.0
  0
ENDBLK
  5
33
100
AcDbEntity
  8
0
100
AcDbBlockEnd
  0
BLOCK
  5
36
100
AcDbEntity
  8
0
100
AcDbBlockBegin
  2
*B3
 70
     0
 10
0.0
 20
0.0
 30
0.0
  3
*B3
  1

  0
LINE
  5
37
100
AcDbEntity
  8
0
  6
Continuous
 62
   172
100
AcDbLine
 10
109.558508
 20
146.611471
 30
0.0
 11
107.158508
 21
147.493332
 31
0.0
  0
LINE
  5
38
100
AcDbEntity
  8
0
  6
Continuous
 62
   172
100
AcDbLine
 10
109.558508
 20
146.611471
 30
0.0
 11
107.158508
 21
145.893332
 31
0.0
  0
LINE
  5
39
100
AcDbEntity
  8
0
  6
Continuous
 62
   172
100
AcDbLine
 10
107.958508
 20
146.611471
 30
0.0
 11
109.558508
 21
146.611471
 31
0.0
  0
LINE
  5
3A
100
AcDbEntity
  8
0
  6
Continuous
 62
   172
100
AcDbLine
 10
109.558508
 20
160.375192
 30
0.0
 11
107.158508
 21
159.493332
 31
0.0
  0
LINE
  5
3B
100
AcDbEntity
  8
0
  6
Continuous
 62
   172
100
AcDbLine
 10
109.558508
 20
160.375192
 30
0.0
 11
107.158508
 21
161.093332
 31
0.0
  0
LINE
  5
3C
100
AcDbEntity
  8
0
  6
Continuous
 62
   172
100
AcDbLine
 10
107.958508
 20
160.375192
 30
0.0
 11
109.558508
 21
160.375192
 31
0.0
  0
ARC
  5
3D
100
AcDbEntity
  8
0
  6
Continuous
 62
   172
100
AcDbCircle
 10
107.958508
 20
153.493332
 30
0.0
 40
6.88186
100
AcDbArc
 50
-270.0
 51
-90.0
  0
ENDBLK
  5
3E
100
AcDbEntity
  8
0
100
AcDbBlockEnd
  0
BLOCK
  5
41
100
AcDbEntity
  8
0
100
AcDbBlockBegin
  2
*B4
 70
     0
 10
0.0
 20
0.0
 30
0.0
  3
*B4
  1

  0
ENDBLK
  5
42
100
AcDbEntity
  8
0
100
AcDbBlockEnd
  0
BLOCK
  5
44
100
AcDbEntity
  8
0
100
AcDbBlockBegin
  2
*B5
 70
     0
 10
0.0
 20
0.0
 30
0.0
  3
*B5
  1

  0
LINE
  5
45
100
AcDbEntity
  8
0
  6
HIDDEN
 62
   174
100
AcDbLine
 10
159.063995
 20
80.133822
 30
0.0
 11
162.063995
 21
80.133822
 31
0.0
  0
LINE
  5
46
100
AcDbEntity
  8
0
  6
HIDDEN
 62
   174
100
AcDbLine
 10
159.063995
 20
86.133822
 30
0.0
 11
162.063995
 21
86.133822
 31
0.0
  0
LINE
  5
47
100
AcDbEntity
  8
0
  6
HIDDEN
 62
   174
100
AcDbLine
 10
162.063995
 20
80.147437
 30
0.0
 11
162.063995
 21
83.147387
 31
0.0
  0
LINE
  5
48
100
AcDbEntity
  8
0
  6
HIDDEN
 62
   174
100
AcDbLine
 10
162.063995
 20
83.147387
 30
0.0
 11
162.063995
 21
86.147125
 31
0.0
  0
LINE
  5
49
100
AcDbEntity
  8
0
  6
HIDDEN
 62
   174
100
AcDbLine
 10
182.013995
 20
103.090647
 30
0.0
 11
182.063995
 21
103.090647
 31
0.0
  0
LINE
  5
4A
100
AcDbEntity
  8
0
  6
HIDDEN
 62
   174
100
AcDbLine
 10
182.013995
 20
109.890647
 30
0.0
 11
182.063995
 21
109.890647
 31
0.0
  0
LINE
  5
4B
100
AcDbEntity
  8
0
  6
HIDDEN
 62
   174
100
AcDbLine
 10
182.013995
 20
109.490647
 30
0.0
 11
182.063995
 21
109.490647
 31
0.0
  0
LINE
  5
4C
100
AcDbEntity
  8
0
  6
HIDDEN
 62
   174
100
AcDbLine
 10
159.063995
 20
83.147387
 30
0.0
 11
159.063995
 21
85.745205
 31
0.0
  0
LINE
  5
4D
100
AcDbEntity
  8
0
  6
HIDDEN
 62
   174
100
AcDbLine
 10
159.063995
 20
80.549357
 30
0.0
 11
159.063995
 21
83.147387
 31
0.0
  0
LINE
  5
4E
100
AcDbEntity
  8
0
  6
HIDDEN
 62
   174
100
AcDbLine
 10
159.063995
 20
80.147437
 30
0.0
 11
159.063995
 21
80.549357
 31
0.0
  0
LINE
  5
4F
100
AcDbEntity
  8
0
  6
HIDDEN
 62
   174
100
AcDbLine
 10
159.063995
 20
85.745205
 30
0.0
 11
159.063995
 21
86.147125
 31
0.0
  0
LINE
  5
50
100
AcDbEntity
  8
0
  6
HIDDEN
 62
   174
100
AcDbLine
 10
182.013995
 20
103.490647
 30
0.0
 11
182.063995
 21
103.490647
 31
0.0
  0
LINE
  5
51
100
AcDbEntity
  8
0
  6
HIDDEN
 62
   174
100
AcDbLine
 10
182.063995
 20
108.46783
 30
0.0
 11
182.013995
 21
108.46783
 31
0.0
  0
LINE
  5
52
100
AcDbEntity
  8
0
  6
HIDDEN
 62
   174
100
AcDbLine
 10
182.063995
 20
104.803024
 30
0.0
 11
182.063995
 21
106.502896
 31
0.0
  0
LINE
  5
53
100
AcDbEntity
  8
0
  6
HIDDEN
 62
   174
100
AcDbLine
 10
182.063995
 20
104.673242
 30
0.0
 11
182.063995
 21
106.490647
 31
0.0
  0
LINE
  5
54
100
AcDbEntity
  8
0
  6
Continuous
 62
   174
100
AcDbLine
 10
125.063995
 20
91.133822
 30
0.0
 11
153.063995
 21
91.133822
 31
0.0
  0
LINE
  5
55
100
AcDbEntity
  8
0
  6
HIDDEN
 62
   174
100
AcDbLine
 10
182.063995
 20
108.46783
 30
0.0
 11
182.063995
 21
106.490647
 31
0.0
  0
LINE
  5
56
100
AcDbEntity
  8
0
  6
HIDDEN
 62
   174
100
AcDbLine
 10
180.582031
 20
132.633822
 30
0.0
 11
174.082068
 21
132.633822
 31
0.0
  0
LINE
  5
57
100
AcDbEntity
  8
0
  6
HIDDEN
 62
   174
100
AcDbLine
 10
174.082068
 20
135.633822
 30
0.0
 11
167.582106
 21
135.633822
 31
0.0
  0
LINE
  5
58
100
AcDbEntity
  8
0
  6
HIDDEN
 62
   174
100
AcDbLine
 10
180.582031
 20
135.633822
 30
0.0
 11
174.082068
 21
135.633822
 31
0.0
  0
LINE
  5
59
100
AcDbEntity
  8
0
  6
Continuous
 62
   174
100
AcDbLine
 10
169.504394
 20
136.333822
 30
0.0
 11
165.082644
 21
136.333822
 31
0.0
  0
LWPOLYLINE
  5
5A
100
AcDbEntity
  8
0
  6
Continuous
 62
   174
100
AcDbPolyline
 90
        4
 70
   128
 10
174.955607
 20
140.133822
 10
176.172322
 20
140.000702
 10
177.394486
 20
139.767617
 10
178.641655
 20
139.441002
  0
LINE
  5
5B
100
AcDbEntity
  8
0
  6
HIDDEN
 62
   174
100
AcDbLine
 10
169.642105
 20
136.333822
 30
0.0
 11
165.064445
 21
136.333822
 31
0.0
  0
LINE
  5
5C
100
AcDbEntity
  8
0
  6
HIDDEN
 62
   174
100
AcDbLine
 10
182.063995
 20
104.676415
 30
0.0
 11
182.063995
 21
104.803024
 31
0.0
  0
LINE
  5
5D
100
AcDbEntity
  8
0
  6
HIDDEN
 62
   174
100
AcDbLine
 10
182.063995
 20
108.329802
 30
0.0
 11
182.063995
 21
108.493587
 31
0.0
  0
LINE
  5
5E
100
AcDbEntity
  8
0
  6
HIDDEN
 62
   174
100
AcDbLine
 10
139.063995
 20
75.133822
 30
0.0
 11
139.063995
 21
76.333822
 31
0.0
  0
LINE
  5
5F
100
AcDbEntity
  8
0
  6
Continuous
 62
   174
100
AcDbLine
 10
167.563995
 20
132.633822
 30
0.0
 11
167.563995
 21
135.633822
 31
0.0
  0
LINE
  5
60
100
AcDbEntity
  8
0
  6
Continuous
 62
   174
100
AcDbLine
 10
181.863995
 20
140.133822
 30
0.0
 11
183.019752
 21
139.466546
 31
0.0
  0
LINE
  5
61
100
AcDbEntity
  8
0
  6
Continuous
 62
   174
100
AcDbLine
 10
166.063995
 20
132.633822
 30
0.0
 11
166.063995
 21
120.633822
 31
0.0
  0
LINE
  5
62
100
AcDbEntity
  8
0
  6
HIDDEN
 62
   174
100
AcDbLine
 10
171.280113
 20
120.633822
 30
0.0
 11
166.063995
 21
120.633822
 31
0.0
  0
LINE
  5
63
100
AcDbEntity
  8
0
  6
HIDDEN
 62
   174
100
AcDbLine
 10
166.063995
 20
120.633822
 30
0.0
 11
153.063995
 21
120.633822
 31
0.0
  0
LINE
  5
64
100
AcDbEntity
  8
0
  6
Continuous
 62
   174
100
AcDbLine
 10
153.063995
 20
91.133822
 30
0.0
 11
155.063995
 21
91.133822
 31
0.0
  0
LINE
  5
65
100
AcDbEntity
  8
0
  6
HIDDEN
 62
   174
100
AcDbLine
 10
182.063995
 20
106.490647
 30
0.0
 11
182.063995
 21
104.673242
 31
0.0
  0
LINE
  5
66
100
AcDbEntity
  8
0
  6
HIDDEN
 62
   174
100
AcDbLine
 10
182.063995
 20
109.490322
 30
0.0
 11
182.063995
 21
108.46783
 31
0.0
  0
LINE
  5
67
100
AcDbEntity
  8
0
  6
HIDDEN
 62
   174
100
AcDbLine
 10
139.082157
 20
75.133822
 30
0.0
 11
139.020339
 21
75.133822
 31
0.0
  0
LINE
  5
68
100
AcDbEntity
  8
0
  6
Continuous
 62
   174
100
AcDbLine
 10
167.367763
 20
135.633822
 30
0.0
 11
174.082068
 21
135.633822
 31
0.0
  0
LINE
  5
69
100
AcDbEntity
  8
0
  6
Continuous
 62
   174
100
AcDbLine
 10
173.172384
 20
140.133822
 30
0.0
 11
174.955607
 21
140.133822
 31
0.0
  0
LWPOLYLINE
  5
6A
100
AcDbEntity
  8
0
  6
Continuous
 62
   174
100
AcDbPolyline
 90
        6
 70
   128
 10
166.342165
 20
139.984482
 10
166.553182
 20
140.035227
 10
167.27543
 20
140.11213
 10
167.997669
 20
140.035212
 10
168.734689
 20
139.807111
 10
169.486335
 20
139.441002
  0
LINE
  5
6B
100
AcDbEntity
  8
0
  6
HIDDEN
 62
   174
100
AcDbLine
 10
142.063995
 20
91.133822
 30
0.0
 11
143.413995
 21
89.783822
 31
0.0
  0
LINE
  5
6C
100
AcDbEntity
  8
0
  6
HIDDEN
 62
   174
100
AcDbLine
 10
182.063995
 20
104.234379
 30
0.0
 11
182.013995
 21
104.234379
 31
0.0
  0
LINE
  5
6D
100
AcDbEntity
  8
0
  6
HIDDEN
 62
   174
100
AcDbLine
 10
182.063995
 20
104.234133
 30
0.0
 11
182.063995
 21
104.676415
 31
0.0
  0
LINE
  5
6E
100
AcDbEntity
  8
0
  6
HIDDEN
 62
   174
100
AcDbLine
 10
133.063995
 20
75.133822
 30
0.0
 11
133.063995
 21
76.333822
 31
0.0
  0
LINE
  5
6F
100
AcDbEntity
  8
0
  6
HIDDEN
 62
   174
100
AcDbLine
 10
126.082232
 20
121.133822
 30
0.0
 11
136.082207
 21
121.133822
 31
0.0
  0
LINE
  5
70
100
AcDbEntity
  8
0
  6
HIDDEN
 62
   174
100
AcDbLine
 10
139.082157
 20
76.333822
 30
0.0
 11
133.082045
 21
76.333822
 31
0.0
  0
LINE
  5
71
100
AcDbEntity
  8
0
  6
Continuous
 62
   174
100
AcDbLine
 10
167.475253
 20
132.633822
 30
0.0
 11
166.082131
 21
132.633822
 31
0.0
  0
LINE
  5
72
100
AcDbEntity
  8
0
  6
Continuous
 62
   174
100
AcDbLine
 10
174.082068
 20
135.633822
 30
0.0
 11
180.796798
 21
135.633822
 31
0.0
  0
LINE
  5
73
100
AcDbEntity
  8
0
  6
Continuous
 62
   174
100
AcDbLine
 10
180.796798
 20
135.633822
 30
0.0
 11
183.082131
 21
135.633822
 31
0.0
  0
LINE
  5
74
100
AcDbEntity
  8
0
  6
Continuous
 62
   174
100
AcDbLine
 10
174.082068
 20
136.333822
 30
0.0
 11
169.504394
 21
136.333822
 31
0.0
  0
LINE
  5
75
100
AcDbEntity
  8
0
  6
HIDDEN
 62
   174
100
AcDbLine
 10
141.14559
 20
122.633822
 30
0.0
 11
144.67964
 21
122.633822
 31
0.0
  0
LWPOLYLINE
  5
76
100
AcDbEntity
  8
0
  6
Continuous
 62
   174
100
AcDbPolyline
 90
        4
 70
   128
 10
169.486335
 20
139.441002
 10
170.73915
 20
139.768903
 10
171.961971
 20
140.001656
 10
173.172384
 20
140.133822
  0
LINE
  5
77
100
AcDbEntity
  8
0
  6
HIDDEN
 62
   174
100
AcDbLine
 10
169.642105
 20
136.333822
 30
0.0
 11
169.642105
 21
139.441002
 31
0.0
  0
LINE
  5
78
100
AcDbEntity
  8
0
  6
HIDDEN
 62
   174
100
AcDbLine
 10
133.567363
 20
122.633822
 30
0.0
 11
138.567362
 21
122.633822
 31
0.0
  0
LINE
  5
79
100
AcDbEntity
  8
0
  6
HIDDEN
 62
   174
100
AcDbLine
 10
182.063995
 20
109.447189
 30
0.0
 11
182.063995
 21
109.516654
 31
0.0
  0
LINE
  5
7A
100
AcDbEntity
  8
0
  6
HIDDEN
 62
   174
100
AcDbLine
 10
182.063995
 20
108.496348
 30
0.0
 11
182.063995
 21
109.447189
 31
0.0
  0
LINE
  5
7B
100
AcDbEntity
  8
0
  6
HIDDEN
 62
   174
100
AcDbLine
 10
182.063995
 20
104.098815
 30
0.0
 11
182.063995
 21
104.234133
 31
0.0
  0
LINE
  5
7C
100
AcDbEntity
  8
0
  6
HIDDEN
 62
   174
100
AcDbLine
 10
182.063995
 20
103.488713
 30
0.0
 11
182.063995
 21
103.558603
 31
0.0
  0
LINE
  5
7D
100
AcDbEntity
  8
0
  6
HIDDEN
 62
   174
100
AcDbLine
 10
182.063995
 20
106.490647
 30
0.0
 11
182.063995
 21
108.46783
 31
0.0
  0
LINE
  5
7E
100
AcDbEntity
  8
0
  6
Continuous
 62
   174
100
AcDbLine
 10
155.063995
 20
75.133822
 30
0.0
 11
155.063995
 21
91.133822
 31
0.0
  0
LINE
  5
7F
100
AcDbEntity
  8
0
  6
HIDDEN
 62
   174
100
AcDbLine
 10
182.063995
 20
117.633822
 30
0.0
 11
182.063995
 21
109.890647
 31
0.0
  0
LINE
  5
80
100
AcDbEntity
  8
0
  6
HIDDEN
 62
   174
100
AcDbLine
 10
133.960871
 20
75.133822
 30
0.0
 11
133.143862
 21
75.133822
 31
0.0
  0
LINE
  5
81
100
AcDbEntity
  8
0
  6
HIDDEN
 62
   174
100
AcDbLine
 10
167.582106
 20
132.633822
 30
0.0
 11
174.082068
 21
132.633822
 31
0.0
  0
LINE
  5
82
100
AcDbEntity
  8
0
  6
Continuous
 62
   174
100
AcDbLine
 10
127.467494
 20
128.833822
 30
0.0
 11
126.399392
 21
128.833822
 31
0.0
  0
LINE
  5
83
100
AcDbEntity
  8
0
  6
Continuous
 62
   174
100
AcDbLine
 10
165.064445
 20
139.441002
 30
0.0
 11
165.113282
 21
139.468475
 31
0.0
  0
LWPOLYLINE
  5
84
100
AcDbEntity
  8
0
  6
HIDDEN
 62
   174
100
AcDbPolyline
 90
        4
 70
   128
 10
166.907469
 20
140.133822
 10
166.29911
 20
140.000702
 10
165.688035
 20
139.767619
 10
165.113746
 20
139.469723
  0
LINE
  5
85
100
AcDbEntity
  8
0
  6
HIDDEN
 62
   174
100
AcDbLine
 10
165.113895
 20
139.469809
 30
0.0
 11
165.064445
 21
139.441002
 31
0.0
  0
LINE
  5
86
100
AcDbEntity
  8
0
  6
HIDDEN
 62
   174
100
AcDbLine
 10
182.063995
 20
103.102939
 30
0.0
 11
182.063995
 21
103.488713
 31
0.0
  0
LINE
  5
87
100
AcDbEntity
  8
0
  6
HIDDEN
 62
   174
100
AcDbLine
 10
182.063995
 20
104.685549
 30
0.0
 11
182.063995
 21
106.502896
 31
0.0
  0
LINE
  5
88
100
AcDbEntity
  8
0
  6
Continuous
 62
   174
100
AcDbLine
 10
166.263995
 20
140.133822
 30
0.0
 11
165.108277
 21
139.466568
 31
0.0
  0
LINE
  5
89
100
AcDbEntity
  8
0
  6
HIDDEN
 62
   174
100
AcDbLine
 10
182.063995
 20
109.890647
 30
0.0
 11
182.063995
 21
109.490322
 31
0.0
  0
LINE
  5
8A
100
AcDbEntity
  8
0
  6
Continuous
 62
   174
100
AcDbLine
 10
125.063995
 20
75.133822
 30
0.0
 11
155.063995
 21
75.133822
 31
0.0
  0
LINE
  5
8B
100
AcDbEntity
  8
0
  6
HIDDEN
 62
   174
100
AcDbLine
 10
139.020339
 20
75.133822
 30
0.0
 11
138.203542
 21
75.133822
 31
0.0
  0
LINE
  5
8C
100
AcDbEntity
  8
0
  6
HIDDEN
 62
   174
100
AcDbLine
 10
182.063995
 20
104.673242
 30
0.0
 11
182.013995
 21
104.673242
 31
0.0
  0
LINE
  5
8D
100
AcDbEntity
  8
0
  6
HIDDEN
 62
   174
100
AcDbLine
 10
182.063995
 20
103.502946
 30
0.0
 11
182.063995
 21
104.246667
 31
0.0
  0
LINE
  5
8E
100
AcDbEntity
  8
0
  6
Continuous
 62
   174
100
AcDbLine
 10
165.063995
 20
135.633822
 30
0.0
 11
165.063995
 21
136.333822
 31
0.0
  0
LINE
  5
8F
100
AcDbEntity
  8
0
  6
Continuous
 62
   174
100
AcDbLine
 10
182.063995
 20
132.633822
 30
0.0
 11
182.063995
 21
117.633822
 31
0.0
  0
LINE
  5
90
100
AcDbEntity
  8
0
  6
HIDDEN
 62
   174
100
AcDbLine
 10
182.063995
 20
103.490647
 30
0.0
 11
182.063995
 21
103.090647
 31
0.0
  0
LINE
  5
91
100
AcDbEntity
  8
0
  6
HIDDEN
 62
   174
100
AcDbLine
 10
182.063995
 20
104.673242
 30
0.0
 11
182.063995
 21
104.234379
 31
0.0
  0
LINE
  5
92
100
AcDbEntity
  8
0
  6
HIDDEN
 62
   174
100
AcDbLine
 10
136.082207
 20
121.133822
 30
0.0
 11
146.082182
 21
121.133822
 31
0.0
  0
LINE
  5
93
100
AcDbEntity
  8
0
  6
Continuous
 62
   174
100
AcDbLine
 10
182.082006
 20
132.633822
 30
0.0
 11
180.688671
 21
132.633822
 31
0.0
  0
LINE
  5
94
100
AcDbEntity
  8
0
  6
Continuous
 62
   174
100
AcDbLine
 10
180.688671
 20
132.633822
 30
0.0
 11
174.082068
 21
132.633822
 31
0.0
  0
LINE
  5
95
100
AcDbEntity
  8
0
  6
Continuous
 62
   174
100
AcDbLine
 10
174.082068
 20
132.633822
 30
0.0
 11
167.475253
 21
132.633822
 31
0.0
  0
LINE
  5
96
100
AcDbEntity
  8
0
  6
Continuous
 62
   174
100
AcDbLine
 10
183.081706
 20
136.333822
 30
0.0
 11
178.659743
 21
136.333822
 31
0.0
  0
LINE
  5
97
100
AcDbEntity
  8
0
  6
Continuous
 62
   174
100
AcDbLine
 10
133.582107
 20
128.833822
 30
0.0
 11
131.003195
 21
128.833822
 31
0.0
  0
LINE
  5
98
100
AcDbEntity
  8
0
  6
Continuous
 62
   174
100
AcDbLine
 10
165.111871
 20
139.46768
 30
0.0
 11
166.342165
 21
139.984482
 31
0.0
  0
LINE
  5
99
100
AcDbEntity
  8
0
  6
HIDDEN
 62
   174
100
AcDbLine
 10
182.063995
 20
108.877494
 30
0.0
 11
182.013995
 21
108.877494
 31
0.0
  0
LINE
  5
9A
100
AcDbEntity
  8
0
  6
HIDDEN
 62
   174
100
AcDbLine
 10
182.063995
 20
106.502896
 30
0.0
 11
182.063995
 21
108.496348
 31
0.0
  0
LINE
  5
9B
100
AcDbEntity
  8
0
  6
HIDDEN
 62
   174
100
AcDbLine
 10
182.063995
 20
103.558603
 30
0.0
 11
182.063995
 21
104.098815
 31
0.0
  0
LINE
  5
9C
100
AcDbEntity
  8
0
  6
HIDDEN
 62
   174
100
AcDbLine
 10
182.063995
 20
108.493587
 30
0.0
 11
182.063995
 21
109.502634
 31
0.0
  0
LINE
  5
9D
100
AcDbEntity
  8
0
  6
HIDDEN
 62
   174
100
AcDbLine
 10
182.063995
 20
106.502896
 30
0.0
 11
182.063995
 21
108.329802
 31
0.0
  0
LINE
  5
9E
100
AcDbEntity
  8
0
  6
HIDDEN
 62
   174
100
AcDbLine
 10
133.063995
 20
75.133822
 30
0.0
 11
133.063995
 21
76.333822
 31
0.0
  0
LINE
  5
9F
100
AcDbEntity
  8
0
  6
HIDDEN
 62
   174
100
AcDbLine
 10
139.063995
 20
75.133822
 30
0.0
 11
139.063995
 21
76.333822
 31
0.0
  0
LINE
  5
A0
100
AcDbEntity
  8
0
  6
HIDDEN
 62
   174
100
AcDbLine
 10
182.063995
 20
104.234379
 30
0.0
 11
182.063995
 21
104.673242
 31
0.0
  0
LINE
  5
A1
100
AcDbEntity
  8
0
  6
Continuous
 62
   174
100
AcDbLine
 10
180.563995
 20
132.633822
 30
0.0
 11
180.563995
 21
135.633822
 31
0.0
  0
LINE
  5
A2
100
AcDbEntity
  8
0
  6
Continuous
 62
   174
100
AcDbLine
 10
183.063995
 20
135.633822
 30
0.0
 11
183.063995
 21
136.333822
 31
0.0
  0
LINE
  5
A3
100
AcDbEntity
  8
0
  6
Continuous
 62
   174
100
AcDbLine
 10
125.063995
 20
75.133822
 30
0.0
 11
125.063995
 21
91.133822
 31
0.0
  0
LINE
  5
A4
100
AcDbEntity
  8
0
  6
HIDDEN
 62
   174
100
AcDbLine
 10
133.143862
 20
75.133822
 30
0.0
 11
133.082045
 21
75.133822
 31
0.0
  0
LINE
  5
A5
100
AcDbEntity
  8
0
  6
Continuous
 62
   174
100
AcDbLine
 10
145.764173
 20
128.833822
 30
0.0
 11
144.69607
 21
128.833822
 31
0.0
  0
LINE
  5
A6
100
AcDbEntity
  8
0
  6
Continuous
 62
   174
100
AcDbLine
 10
141.160794
 20
128.833822
 30
0.0
 11
138.582094
 21
128.833822
 31
0.0
  0
LINE
  5
A7
100
AcDbEntity
  8
0
  6
Continuous
 62
   174
100
AcDbLine
 10
178.641655
 20
139.441002
 30
0.0
 11
178.641655
 21
136.333822
 31
0.0
  0
LINE
  5
A8
100
AcDbEntity
  8
0
  6
Continuous
 62
   174
100
AcDbLine
 10
165.064445
 20
136.333822
 30
0.0
 11
165.064445
 21
139.441002
 31
0.0
  0
LWPOLYLINE
  5
A9
100
AcDbEntity
  8
0
  6
HIDDEN
 62
   174
100
AcDbPolyline
 90
        4
 70
   128
 10
169.642105
 20
139.441002
 10
169.015698
 20
139.768903
 10
168.404284
 20
140.001657
 10
167.79908
 20
140.133822
  0
LINE
  5
AA
100
AcDbEntity
  8
0
  6
HIDDEN
 62
   174
100
AcDbLine
 10
182.063995
 20
109.516654
 30
0.0
 11
182.063995
 21
109.902641
 31
0.0
  0
LINE
  5
AB
100
AcDbEntity
  8
0
  6
Continuous
 62
   174
100
AcDbLine
 10
179.063995
 20
91.633822
 30
0.0
 11
153.063995
 21
91.633822
 31
0.0
  0
LINE
  5
AC
100
AcDbEntity
  8
0
  6
HIDDEN
 62
   174
100
AcDbLine
 10
182.063995
 20
103.090647
 30
0.0
 11
182.063995
 21
94.633822
 31
0.0
  0
LINE
  5
AD
100
AcDbEntity
  8
0
  6
HIDDEN
 62
   174
100
AcDbLine
 10
182.063995
 20
104.234379
 30
0.0
 11
182.063995
 21
103.490647
 31
0.0
  0
LINE
  5
AE
100
AcDbEntity
  8
0
  6
HIDDEN
 62
   174
100
AcDbLine
 10
138.203542
 20
75.133822
 30
0.0
 11
133.960871
 21
75.133822
 31
0.0
  0
LINE
  5
AF
100
AcDbEntity
  8
0
  6
Continuous
 62
   174
100
AcDbLine
 10
165.082006
 20
135.633822
 30
0.0
 11
167.367763
 21
135.633822
 31
0.0
  0
LINE
  5
B0
100
AcDbEntity
  8
0
  6
Continuous
 62
   174
100
AcDbLine
 10
178.659743
 20
136.333822
 30
0.0
 11
174.082068
 21
136.333822
 31
0.0
  0
LINE
  5
B1
100
AcDbEntity
  8
0
  6
Continuous
 62
   174
100
AcDbLine
 10
169.486335
 20
136.333822
 30
0.0
 11
169.486335
 21
139.441002
 31
0.0
  0
LINE
  5
B2
100
AcDbEntity
  8
0
  6
Continuous
 62
   174
100
AcDbLine
 10
183.014752
 20
139.468443
 30
0.0
 11
183.063546
 21
139.441002
 31
0.0
  0
LINE
  5
B3
100
AcDbEntity
  8
0
  6
HIDDEN
 62
   174
100
AcDbLine
 10
143.432106
 20
75.133822
 30
0.0
 11
146.73222
 21
75.133822
 31
0.0
  0
LINE
  5
B4
100
AcDbEntity
  8
0
  6
Continuous
 62
   174
100
AcDbLine
 10
153.063995
 20
91.133822
 30
0.0
 11
153.063995
 21
121.133822
 31
0.0
  0
LINE
  5
B5
100
AcDbEntity
  8
0
  6
HIDDEN
 62
   174
100
AcDbLine
 10
159.063995
 20
80.021041
 30
0.0
 11
159.063995
 21
79.147525
 31
0.0
  0
LINE
  5
B6
100
AcDbEntity
  8
0
  6
HIDDEN
 62
   174
100
AcDbLine
 10
179.082056
 20
94.633822
 30
0.0
 11
182.082006
 21
94.633822
 31
0.0
  0
LINE
  5
B7
100
AcDbEntity
  8
0
  6
Continuous
 62
   174
100
AcDbLine
 10
173.190496
 20
140.133822
 30
0.0
 11
166.282029
 21
140.133822
 31
0.0
  0
LINE
  5
B8
100
AcDbEntity
  8
0
  6
HIDDEN
 62
   174
100
AcDbLine
 10
159.063995
 20
80.147437
 30
0.0
 11
159.063995
 21
80.549357
 31
0.0
  0
LINE
  5
B9
100
AcDbEntity
  8
0
  6
Continuous
 62
   174
100
AcDbLine
 10
179.082056
 20
94.633822
 30
0.0
 11
182.082006
 21
94.633822
 31
0.0
  0
LINE
  5
BA
100
AcDbEntity
  8
0
  6
Continuous
 62
   174
100
AcDbLine
 10
179.063995
 20
117.633822
 30
0.0
 11
179.063995
 21
94.633822
 31
0.0
  0
LINE
  5
BB
100
AcDbEntity
  8
0
  6
Continuous
 62
   174
100
AcDbLine
 10
159.063995
 20
87.556604
 30
0.0
 11
159.063995
 21
87.477155
 31
0.0
  0
LINE
  5
BC
100
AcDbEntity
  8
0
  6
HIDDEN
 62
   174
100
AcDbLine
 10
153.063995
 20
91.133822
 30
0.0
 11
125.063995
 21
91.133822
 31
0.0
  0
LINE
  5
BD
100
AcDbEntity
  8
0
  6
HIDDEN
 62
   174
100
AcDbLine
 10
179.082056
 20
117.633822
 30
0.0
 11
182.082006
 21
117.633822
 31
0.0
  0
LINE
  5
BE
100
AcDbEntity
  8
0
  6
Continuous
 62
   174
100
AcDbLine
 10
159.063995
 20
87.477155
 30
0.0
 11
159.063995
 21
86.629131
 31
0.0
  0
LINE
  5
BF
100
AcDbEntity
  8
0
  6
Continuous
 62
   174
100
AcDbLine
 10
179.063995
 20
94.633822
 30
0.0
 11
153.063995
 21
94.633822
 31
0.0
  0
LINE
  5
C0
100
AcDbEntity
  8
0
  6
Continuous
 62
   174
100
AcDbLine
 10
159.063995
 20
78.73817
 30
0.0
 11
159.063995
 21
78.81762
 31
0.0
  0
ARC
  5
C1
100
AcDbEntity
  8
0
  6
HIDDEN
 62
   174
100
AcDbCircle
 10
133.813995
 20
75.593822
 30
0.0
 40
0.75
100
AcDbArc
 50
-90.0
 51
80.633211
  0
LINE
  5
C2
100
AcDbEntity
  8
0
  6
HIDDEN
 62
   174
100
AcDbLine
 10
138.210128
 20
76.333822
 30
0.0
 11
133.954286
 21
76.333822
 31
0.0
  0
ARC
  5
C3
100
AcDbEntity
  8
0
  6
Continuous
 62
   174
100
AcDbCircle
 10
179.063995
 20
94.633822
 30
0.0
 40
3.0
100
AcDbArc
 50
-90.0
 51
0.0
  0
LINE
  5
C4
100
AcDbEntity
  8
0
  6
HIDDEN
 62
   174
100
AcDbLine
 10
176.847878
 20
120.633822
 30
0.0
 11
179.063995
 21
120.633822
 31
0.0
  0
LINE
  5
C5
100
AcDbEntity
  8
0
  6
HIDDEN
 62
   174
100
AcDbLine
 10
155.063995
 20
80.147437
 30
0.0
 11
155.063995
 21
83.147387
 31
0.0
  0
LINE
  5
C6
100
AcDbEntity
  8
0
  6
Continuous
 62
   174
100
AcDbLine
 10
126.381215
 20
128.833822
 30
0.0
 11
126.381215
 21
122.633822
 31
0.0
  0
LINE
  5
C7
100
AcDbEntity
  8
0
  6
HIDDEN
 62
   174
100
AcDbLine
 10
143.413995
 20
89.783822
 30
0.0
 11
143.413995
 21
75.133822
 31
0.0
  0
LINE
  5
C8
100
AcDbEntity
  8
0
  6
HIDDEN
 62
   174
100
AcDbLine
 10
153.063995
 20
117.633822
 30
0.0
 11
179.063995
 21
117.633822
 31
0.0
  0
ARC
  5
C9
100
AcDbEntity
  8
0
  6
Continuous
 62
   174
100
AcDbCircle
 10
179.063995
 20
94.633822
 30
0.0
 40
3.0
100
AcDbArc
 50
-72.0
 51
-54.0
  0
LINE
  5
CA
100
AcDbEntity
  8
0
  6
HIDDEN
 62
   174
100
AcDbLine
 10
182.013995
 20
103.502946
 30
0.0
 11
182.013995
 21
108.479991
 31
0.0
  0
LINE
  5
CB
100
AcDbEntity
  8
0
  6
HIDDEN
 62
   174
100
AcDbLine
 10
146.713995
 20
89.783822
 30
0.0
 11
146.713995
 21
75.133822
 31
0.0
  0
ARC
  5
CC
100
AcDbEntity
  8
0
  6
HIDDEN
 62
   174
100
AcDbCircle
 10
179.063995
 20
94.633822
 30
0.0
 40
3.0
100
AcDbArc
 50
-18.0
 51
0.0
  0
LINE
  5
CD
100
AcDbEntity
  8
0
  6
Continuous
 62
   174
100
AcDbLine
 10
141.142595
 20
128.833822
 30
0.0
 11
141.142595
 21
122.633822
 31
0.0
  0
LINE
  5
CE
100
AcDbEntity
  8
0
  6
Continuous
 62
   174
100
AcDbLine
 10
179.063995
 20
117.633822
 30
0.0
 11
153.063995
 21
117.633822
 31
0.0
  0
ARC
  5
CF
100
AcDbEntity
  8
0
  6
HIDDEN
 62
   174
100
AcDbCircle
 10
179.063995
 20
117.633822
 30
0.0
 40
3.0
100
AcDbArc
 50
0.0
 51
90.0
  0
ARC
  5
D0
100
AcDbEntity
  8
0
  6
Continuous
 62
   174
100
AcDbCircle
 10
138.313995
 20
75.593822
 30
0.0
 40
0.75
100
AcDbArc
 50
-90.0
 51
-41.512225
  0
LINE
  5
D1
100
AcDbEntity
  8
0
  6
Continuous
 62
   174
100
AcDbLine
 10
162.063995
 20
79.665644
 30
0.0
 11
162.063995
 21
77.1477
 31
0.0
  0
LINE
  5
D2
100
AcDbEntity
  8
0
  6
Continuous
 62
   174
100
AcDbLine
 10
179.063995
 20
91.64675
 30
0.0
 11
179.063995
 21
94.6467
 31
0.0
  0
LINE
  5
D3
100
AcDbEntity
  8
0
  6
HIDDEN
 62
   174
100
AcDbLine
 10
146.73222
 20
89.783822
 30
0.0
 11
143.432106
 21
89.783822
 31
0.0
  0
ARC
  5
D4
100
AcDbEntity
  8
0
  6
HIDDEN
 62
   174
100
AcDbCircle
 10
138.313995
 20
75.593822
 30
0.0
 40
0.75
100
AcDbArc
 50
-41.512225
 51
23.755474
  0
LINE
  5
D5
100
AcDbEntity
  8
0
  6
HIDDEN
 62
   174
100
AcDbLine
 10
153.063995
 20
91.64675
 30
0.0
 11
153.063995
 21
94.6467
 31
0.0
  0
LINE
  5
D6
100
AcDbEntity
  8
0
  6
HIDDEN
 62
   174
100
AcDbLine
 10
148.063995
 20
91.133822
 30
0.0
 11
146.713995
 21
89.783822
 31
0.0
  0
LINE
  5
D7
100
AcDbEntity
  8
0
  6
Continuous
 62
   174
100
AcDbLine
 10
155.063995
 20
89.133822
 30
0.0
 11
159.063995
 21
89.133822
 31
0.0
  0
ARC
  5
D8
100
AcDbEntity
  8
0
  6
HIDDEN
 62
   174
100
AcDbCircle
 10
179.063995
 20
94.633822
 30
0.0
 40
3.0
100
AcDbArc
 50
-90.0
 51
-72.0
  0
ARC
  5
D9
100
AcDbEntity
  8
0
  6
HIDDEN
 62
   174
100
AcDbCircle
 10
179.063995
 20
94.633822
 30
0.0
 40
3.0
100
AcDbArc
 50
-54.0
 51
-18.0
  0
LINE
  5
DA
100
AcDbEntity
  8
0
  6
HIDDEN
 62
   174
100
AcDbLine
 10
142.082107
 20
91.133822
 30
0.0
 11
148.082219
 21
91.133822
 31
0.0
  0
LINE
  5
DB
100
AcDbEntity
  8
0
  6
HIDDEN
 62
   174
100
AcDbLine
 10
166.082131
 20
120.633822
 30
0.0
 11
171.298161
 21
120.633822
 31
0.0
  0
LINE
  5
DC
100
AcDbEntity
  8
0
  6
HIDDEN
 62
   174
100
AcDbLine
 10
137.673102
 20
74.843822
 30
0.0
 11
134.491099
 21
74.843822
 31
0.0
  0
LINE
  5
DD
100
AcDbEntity
  8
0
  6
HIDDEN
 62
   174
100
AcDbLine
 10
159.063995
 20
85.745205
 30
0.0
 11
159.063995
 21
86.147125
 31
0.0
  0
LINE
  5
DE
100
AcDbEntity
  8
0
  6
Continuous
 62
   174
100
AcDbLine
 10
162.063995
 20
83.147387
 30
0.0
 11
162.063995
 21
79.665644
 31
0.0
  0
LINE
  5
DF
100
AcDbEntity
  8
0
  6
HIDDEN
 62
   174
100
AcDbLine
 10
159.063995
 20
83.147387
 30
0.0
 11
159.063995
 21
85.745205
 31
0.0
  0
LINE
  5
E0
100
AcDbEntity
  8
0
  6
HIDDEN
 62
   174
100
AcDbLine
 10
169.642105
 20
136.333822
 30
0.0
 11
178.485886
 21
136.333822
 31
0.0
  0
LINE
  5
E1
100
AcDbEntity
  8
0
  6
HIDDEN
 62
   174
100
AcDbLine
 10
142.082107
 20
91.133822
 30
0.0
 11
148.082219
 21
91.133822
 31
0.0
  0
LINE
  5
E2
100
AcDbEntity
  8
0
  6
Continuous
 62
   174
100
AcDbLine
 10
130.985065
 20
128.833822
 30
0.0
 11
127.449277
 21
128.833822
 31
0.0
  0
LINE
  5
E3
100
AcDbEntity
  8
0
  6
Continuous
 62
   174
100
AcDbLine
 10
146.063995
 20
122.633822
 30
0.0
 11
146.063995
 21
121.133822
 31
0.0
  0
LINE
  5
E4
100
AcDbEntity
  8
0
  6
HIDDEN
 62
   174
100
AcDbLine
 10
179.063995
 20
117.645324
 30
0.0
 11
179.063995
 21
120.645274
 31
0.0
  0
LINE
  5
E5
100
AcDbEntity
  8
0
  6
Continuous
 62
   174
100
AcDbLine
 10
179.063995
 20
117.645324
 30
0.0
 11
179.063995
 21
120.645274
 31
0.0
  0
ARC
  5
E6
100
AcDbEntity
  8
0
  6
Continuous
 62
   174
100
AcDbCircle
 10
133.813995
 20
75.593822
 30
0.0
 40
0.75
100
AcDbArc
 50
221.512225
 51
270.0
  0
LINE
  5
E7
100
AcDbEntity
  8
0
  6
HIDDEN
 62
   174
100
AcDbLine
 10
153.063995
 20
94.633822
 30
0.0
 11
179.063995
 21
94.633822
 31
0.0
  0
LINE
  5
E8
100
AcDbEntity
  8
0
  6
HIDDEN
 62
   174
100
AcDbLine
 10
159.063995
 20
83.147387
 30
0.0
 11
159.063995
 21
86.273734
 31
0.0
  0
LINE
  5
E9
100
AcDbEntity
  8
0
  6
HIDDEN
 62
   174
100
AcDbLine
 10
179.063995
 20
91.64675
 30
0.0
 11
179.063995
 21
94.6467
 31
0.0
  0
LINE
  5
EA
100
AcDbEntity
  8
0
  6
Continuous
 62
   174
100
AcDbLine
 10
160.363995
 20
87.556604
 30
0.0
 11
160.363995
 21
89.147075
 31
0.0
  0
LINE
  5
EB
100
AcDbEntity
  8
0
  6
HIDDEN
 62
   174
100
AcDbLine
 10
155.063995
 20
86.629131
 30
0.0
 11
155.063995
 21
83.147387
 31
0.0
  0
LINE
  5
EC
100
AcDbEntity
  8
0
  6
HIDDEN
 62
   174
100
AcDbLine
 10
138.567362
 20
128.833822
 30
0.0
 11
138.567362
 21
122.633822
 31
0.0
  0
LINE
  5
ED
100
AcDbEntity
  8
0
  6
HIDDEN
 62
   174
100
AcDbLine
 10
155.063995
 20
79.665644
 30
0.0
 11
155.063995
 21
83.147387
 31
0.0
  0
LINE
  5
EE
100
AcDbEntity
  8
0
  6
HIDDEN
 62
   174
100
AcDbLine
 10
146.73222
 20
89.783822
 30
0.0
 11
143.432106
 21
89.783822
 31
0.0
  0
LINE
  5
EF
100
AcDbEntity
  8
0
  6
Continuous
 62
   174
100
AcDbLine
 10
155.063995
 20
77.133822
 30
0.0
 11
159.063995
 21
77.133822
 31
0.0
  0
ARC
  5
F0
100
AcDbEntity
  8
0
  6
Continuous
 62
   174
100
AcDbCircle
 10
133.813995
 20
75.593822
 30
0.0
 40
0.75
100
AcDbArc
 50
221.512225
 51
270.0
  0
LINE
  5
F1
100
AcDbEntity
  8
0
  6
Continuous
 62
   174
100
AcDbLine
 10
181.882108
 20
140.133822
 30
0.0
 11
174.973641
 21
140.133822
 31
0.0
  0
LINE
  5
F2
100
AcDbEntity
  8
0
  6
Continuous
 62
   174
100
AcDbLine
 10
181.786462
 20
139.984311
 30
0.0
 11
183.016163
 21
139.467656
 31
0.0
  0
ARC
  5
F3
100
AcDbEntity
  8
0
  6
HIDDEN
 62
   174
100
AcDbCircle
 10
138.313995
 20
75.593822
 30
0.0
 40
0.75
100
AcDbArc
 50
-260.633211
 51
-90.0
  0
LINE
  5
F4
100
AcDbEntity
  8
0
  6
Continuous
 62
   174
100
AcDbLine
 10
179.082056
 20
117.633822
 30
0.0
 11
182.082006
 21
117.633822
 31
0.0
  0
LINE
  5
F5
100
AcDbEntity
  8
0
  6
Continuous
 62
   174
100
AcDbLine
 10
159.063995
 20
77.1477
 30
0.0
 11
159.063995
 21
78.73817
 31
0.0
  0
LINE
  5
F6
100
AcDbEntity
  8
0
  6
Continuous
 62
   174
100
AcDbLine
 10
137.578358
 20
122.633822
 30
0.0
 11
138.582094
 21
122.633822
 31
0.0
  0
LINE
  5
F7
100
AcDbEntity
  8
0
  6
HIDDEN
 62
   174
100
AcDbLine
 10
134.491099
 20
74.843822
 30
0.0
 11
133.832138
 21
74.843822
 31
0.0
  0
LINE
  5
F8
100
AcDbEntity
  8
0
  6
HIDDEN
 62
   174
100
AcDbLine
 10
146.73222
 20
89.783822
 30
0.0
 11
143.432106
 21
89.783822
 31
0.0
  0
LWPOLYLINE
  5
F9
100
AcDbEntity
  8
0
  6
HIDDEN
 62
   174
100
AcDbPolyline
 90
        4
 70
   128
 10
183.014175
 20
139.469763
 10
182.437139
 20
139.768903
 10
181.825726
 20
140.001657
 10
181.220522
 20
140.133822
  0
LINE
  5
FA
100
AcDbEntity
  8
0
  6
HIDDEN
 62
   174
100
AcDbLine
 10
138.332063
 20
74.843822
 30
0.0
 11
137.673102
 21
74.843822
 31
0.0
  0
LINE
  5
FB
100
AcDbEntity
  8
0
  6
HIDDEN
 62
   174
100
AcDbLine
 10
143.413995
 20
89.783822
 30
0.0
 11
143.413995
 21
75.133822
 31
0.0
  0
ARC
  5
FC
100
AcDbEntity
  8
0
  6
HIDDEN
 62
   174
100
AcDbCircle
 10
138.313995
 20
75.593822
 30
0.0
 40
0.75
100
AcDbArc
 50
-336.244526
 51
-279.366789
  0
LINE
  5
FD
100
AcDbEntity
  8
0
  6
Continuous
 62
   174
100
AcDbLine
 10
160.363995
 20
77.133822
 30
0.0
 11
162.063995
 21
77.133822
 31
0.0
  0
LINE
  5
FE
100
AcDbEntity
  8
0
  6
HIDDEN
 62
   174
100
AcDbLine
 10
159.063995
 20
80.549357
 30
0.0
 11
159.063995
 21
83.147387
 31
0.0
  0
LINE
  5
FF
100
AcDbEntity
  8
0
  6
Continuous
 62
   174
100
AcDbLine
 10
144.677874
 20
128.833822
 30
0.0
 11
144.677874
 21
122.633822
 31
0.0
  0
LWPOLYLINE
  5
100
100
AcDbEntity
  8
0
  6
HIDDEN
 62
   174
100
AcDbPolyline
 90
        4
 70
   128
 10
171.280113
 20
120.633822
 10
172.176814
 20
120.621263
 10
173.114969
 20
120.600858
 10
174.063995
 20
120.591862
  0
LINE
  5
101
100
AcDbEntity
  8
0
  6
Continuous
 62
   174
100
AcDbLine
 10
134.491099
 20
74.843822
 30
0.0
 11
133.832138
 21
74.843822
 31
0.0
  0
LWPOLYLINE
  5
102
100
AcDbEntity
  8
0
  6
HIDDEN
 62
   174
100
AcDbPolyline
 90
        6
 70
   128
 10
182.063995
 20
117.633822
 10
181.924136
 20
118.539138
 10
181.526413
 20
119.347444
 10
180.896247
 20
120.009291
 10
180.067193
 20
120.461117
 10
179.063995
 20
120.633822
  0
ARC
  5
103
100
AcDbEntity
  8
0
  6
HIDDEN
 62
   174
100
AcDbCircle
 10
138.313995
 20
75.593822
 30
0.0
 40
0.75
100
AcDbArc
 50
-260.633211
 51
-90.0
  0
LINE
  5
104
100
AcDbEntity
  8
0
  6
Continuous
 62
   174
100
AcDbLine
 10
126.082232
 20
122.633822
 30
0.0
 11
126.399392
 21
122.633822
 31
0.0
  0
LINE
  5
105
100
AcDbEntity
  8
0
  6
HIDDEN
 62
   174
100
AcDbLine
 10
182.013995
 20
106.502896
 30
0.0
 11
182.013995
 21
103.102939
 31
0.0
  0
LINE
  5
106
100
AcDbEntity
  8
0
  6
HIDDEN
 62
   174
100
AcDbLine
 10
133.567363
 20
128.833822
 30
0.0
 11
133.567363
 21
122.633822
 31
0.0
  0
LWPOLYLINE
  5
107
100
AcDbEntity
  8
0
  6
Continuous
 62
   174
100
AcDbPolyline
 90
        6
 70
   128
 10
178.641655
 20
139.441002
 10
179.393346
 20
139.807129
 10
180.130392
 20
140.035227
 10
180.852641
 20
140.11213
 10
181.57488
 20
140.035212
 10
181.786462
 20
139.984311
  0
LINE
  5
108
100
AcDbEntity
  8
0
  6
Continuous
 62
   174
100
AcDbLine
 10
160.363995
 20
89.133822
 30
0.0
 11
162.063995
 21
89.133822
 31
0.0
  0
LINE
  5
109
100
AcDbEntity
  8
0
  6
HIDDEN
 62
   174
100
AcDbLine
 10
179.063995
 20
91.633822
 30
0.0
 11
153.063995
 21
91.633822
 31
0.0
  0
LINE
  5
10A
100
AcDbEntity
  8
0
  6
Continuous
 62
   174
100
AcDbLine
 10
179.063995
 20
120.633822
 30
0.0
 11
176.847878
 21
120.633822
 31
0.0
  0
LINE
  5
10B
100
AcDbEntity
  8
0
  6
Continuous
 62
   174
100
AcDbLine
 10
144.677874
 20
128.833822
 30
0.0
 11
141.142595
 21
128.833822
 31
0.0
  0
LINE
  5
10C
100
AcDbEntity
  8
0
  6
Continuous
 62
   174
100
AcDbLine
 10
133.582107
 20
122.633822
 30
0.0
 11
137.578358
 21
122.633822
 31
0.0
  0
LINE
  5
10D
100
AcDbEntity
  8
0
  6
Continuous
 62
   174
100
AcDbLine
 10
160.363995
 20
78.73817
 30
0.0
 11
160.363995
 21
77.1477
 31
0.0
  0
LINE
  5
10E
100
AcDbEntity
  8
0
  6
Continuous
 62
   174
100
AcDbLine
 10
127.449277
 20
128.833822
 30
0.0
 11
127.449277
 21
122.633822
 31
0.0
  0
LINE
  5
10F
100
AcDbEntity
  8
0
  6
HIDDEN
 62
   174
100
AcDbLine
 10
155.063995
 20
83.147387
 30
0.0
 11
155.063995
 21
86.147125
 31
0.0
  0
ARC
  5
110
100
AcDbEntity
  8
0
  6
HIDDEN
 62
   174
100
AcDbCircle
 10
133.813995
 20
75.593822
 30
0.0
 40
0.75
100
AcDbArc
 50
156.244526
 51
221.512225
  0
LINE
  5
111
100
AcDbEntity
  8
0
  6
Continuous
 62
   174
100
AcDbLine
 10
130.985065
 20
128.833822
 30
0.0
 11
130.985065
 21
122.633822
 31
0.0
  0
ARC
  5
112
100
AcDbEntity
  8
0
  6
HIDDEN
 62
   174
100
AcDbCircle
 10
133.813995
 20
75.593822
 30
0.0
 40
0.75
100
AcDbArc
 50
-90.0
 51
80.633211
  0
LINE
  5
113
100
AcDbEntity
  8
0
  6
HIDDEN
 62
   174
100
AcDbLine
 10
155.063995
 20
89.147075
 30
0.0
 11
155.063995
 21
86.629131
 31
0.0
  0
LINE
  5
114
100
AcDbEntity
  8
0
  6
Continuous
 62
   174
100
AcDbLine
 10
159.063995
 20
79.133822
 30
0.0
 11
160.363995
 21
79.133822
 31
0.0
  0
LWPOLYLINE
  5
115
100
AcDbEntity
  8
0
  6
Continuous
 62
   174
100
AcDbPolyline
 90
        4
 70
   128
 10
174.063995
 20
120.591862
 10
175.012978
 20
120.600857
 10
175.951145
 20
120.621262
 10
176.847878
 20
120.633822
  0
LINE
  5
116
100
AcDbEntity
  8
0
  6
Continuous
 62
   174
100
AcDbLine
 10
141.160794
 20
122.633822
 30
0.0
 11
144.69607
 21
122.633822
 31
0.0
  0
LINE
  5
117
100
AcDbEntity
  8
0
  6
HIDDEN
 62
   174
100
AcDbLine
 10
159.063995
 20
83.147387
 30
0.0
 11
159.063995
 21
80.021041
 31
0.0
  0
LWPOLYLINE
  5
118
100
AcDbEntity
  8
0
  6
HIDDEN
 62
   174
100
AcDbPolyline
 90
        7
 70
   128
 10
178.485886
 20
139.441002
 10
176.982616
 20
139.807105
 10
175.508625
 20
140.035204
 10
174.064233
 20
140.112135
 10
172.619786
 20
140.035248
 10
171.145635
 20
139.807156
 10
169.642105
 20
139.441002
  0
LINE
  5
119
100
AcDbEntity
  8
0
  6
HIDDEN
 62
   174
100
AcDbLine
 10
130.988061
 20
128.833822
 30
0.0
 11
130.988061
 21
122.633822
 31
0.0
  0
LINE
  5
11A
100
AcDbEntity
  8
0
  6
HIDDEN
 62
   174
100
AcDbLine
 10
183.063546
 20
139.441002
 30
0.0
 11
183.014022
 21
139.469854
 31
0.0
  0
LINE
  5
11B
100
AcDbEntity
  8
0
  6
Continuous
 62
   174
100
AcDbLine
 10
125.063995
 20
121.133822
 30
0.0
 11
125.063995
 21
91.133822
 31
0.0
  0
LINE
  5
11C
100
AcDbEntity
  8
0
  6
HIDDEN
 62
   174
100
AcDbLine
 10
142.063995
 20
91.133822
 30
0.0
 11
143.413995
 21
89.783822
 31
0.0
  0
LINE
  5
11D
100
AcDbEntity
  8
0
  6
Continuous
 62
   174
100
AcDbLine
 10
133.563995
 20
128.833822
 30
0.0
 11
133.563995
 21
122.633822
 31
0.0
  0
LINE
  5
11E
100
AcDbEntity
  8
0
  6
HIDDEN
 62
   174
100
AcDbLine
 10
146.73222
 20
89.783822
 30
0.0
 11
143.432106
 21
89.783822
 31
0.0
  0
ARC
  5
11F
100
AcDbEntity
  8
0
  6
HIDDEN
 62
   174
100
AcDbCircle
 10
133.813995
 20
75.593822
 30
0.0
 40
0.75
100
AcDbArc
 50
99.366789
 51
156.244526
  0
LINE
  5
120
100
AcDbEntity
  8
0
  6
HIDDEN
 62
   174
100
AcDbLine
 10
138.454211
 20
76.333822
 30
0.0
 11
133.709991
 21
76.333822
 31
0.0
  0
LINE
  5
121
100
AcDbEntity
  8
0
  6
Continuous
 62
   174
100
AcDbLine
 10
159.063995
 20
86.629131
 30
0.0
 11
159.063995
 21
83.147387
 31
0.0
  0
LINE
  5
122
100
AcDbEntity
  8
0
  6
Continuous
 62
   174
100
AcDbLine
 10
125.063995
 20
121.133822
 30
0.0
 11
153.063995
 21
121.133822
 31
0.0
  0
LINE
  5
123
100
AcDbEntity
  8
0
  6
HIDDEN
 62
   174
100
AcDbLine
 10
160.363995
 20
83.147387
 30
0.0
 11
160.363995
 21
87.147037
 31
0.0
  0
LINE
  5
124
100
AcDbEntity
  8
0
  6
Continuous
 62
   174
100
AcDbLine
 10
145.746131
 20
128.833822
 30
0.0
 11
145.746131
 21
122.633822
 31
0.0
  0
LINE
  5
125
100
AcDbEntity
  8
0
  6
Continuous
 62
   174
100
AcDbLine
 10
127.467494
 20
122.633822
 30
0.0
 11
131.003195
 21
122.633822
 31
0.0
  0
LINE
  5
126
100
AcDbEntity
  8
0
  6
HIDDEN
 62
   174
100
AcDbLine
 10
148.063995
 20
91.133822
 30
0.0
 11
146.713995
 21
89.783822
 31
0.0
  0
LINE
  5
127
100
AcDbEntity
  8
0
  6
HIDDEN
 62
   174
100
AcDbLine
 10
142.063995
 20
91.133822
 30
0.0
 11
143.413995
 21
89.783822
 31
0.0
  0
LINE
  5
128
100
AcDbEntity
  8
0
  6
HIDDEN
 62
   174
100
AcDbLine
 10
146.713995
 20
89.783822
 30
0.0
 11
146.713995
 21
75.133822
 31
0.0
  0
ARC
  5
129
100
AcDbEntity
  8
0
  6
Continuous
 62
   174
100
AcDbCircle
 10
179.063995
 20
117.633822
 30
0.0
 40
3.0
100
AcDbArc
 50
-360.0
 51
-270.0
  0
LINE
  5
12A
100
AcDbEntity
  8
0
  6
HIDDEN
 62
   174
100
AcDbLine
 10
153.063995
 20
94.633822
 30
0.0
 11
153.063995
 21
117.633822
 31
0.0
  0
LINE
  5
12B
100
AcDbEntity
  8
0
  6
Continuous
 62
   174
100
AcDbLine
 10
162.063995
 20
83.147387
 30
0.0
 11
162.063995
 21
86.629131
 31
0.0
  0
ARC
  5
12C
100
AcDbEntity
  8
0
  6
HIDDEN
 62
   174
100
AcDbCircle
 10
138.313995
 20
75.593822
 30
0.0
 40
0.75
100
AcDbArc
 50
-336.244526
 51
-279.366789
  0
LINE
  5
12D
100
AcDbEntity
  8
0
  6
HIDDEN
 62
   174
100
AcDbLine
 10
179.082056
 20
120.633822
 30
0.0
 11
176.865976
 21
120.633822
 31
0.0
  0
LWPOLYLINE
  5
12E
100
AcDbEntity
  8
0
  6
Continuous
 62
   174
100
AcDbPolyline
 90
        4
 70
   128
 10
174.063995
 20
120.591862
 10
173.114988
 20
120.600858
 10
172.176822
 20
120.621263
 10
171.280113
 20
120.633822
  0
LINE
  5
12F
100
AcDbEntity
  8
0
  6
Continuous
 62
   174
100
AcDbLine
 10
159.063995
 20
87.133822
 30
0.0
 11
160.363995
 21
87.133822
 31
0.0
  0
LINE
  5
130
100
AcDbEntity
  8
0
  6
HIDDEN
 62
   174
100
AcDbLine
 10
179.063995
 20
94.633822
 30
0.0
 11
179.063995
 21
117.633822
 31
0.0
  0
LINE
  5
131
100
AcDbEntity
  8
0
  6
HIDDEN
 62
   174
100
AcDbLine
 10
183.063546
 20
136.333822
 30
0.0
 11
178.485886
 21
136.333822
 31
0.0
  0
LINE
  5
132
100
AcDbEntity
  8
0
  6
HIDDEN
 62
   174
100
AcDbLine
 10
127.451043
 20
128.833822
 30
0.0
 11
127.451043
 21
122.633822
 31
0.0
  0
LINE
  5
133
100
AcDbEntity
  8
0
  6
Continuous
 62
   174
100
AcDbLine
 10
182.063995
 20
94.633822
 30
0.0
 11
182.063995
 21
117.633822
 31
0.0
  0
LINE
  5
134
100
AcDbEntity
  8
0
  6
Continuous
 62
   174
100
AcDbLine
 10
183.063546
 20
136.333822
 30
0.0
 11
183.063546
 21
139.441002
 31
0.0
  0
LINE
  5
135
100
AcDbEntity
  8
0
  6
HIDDEN
 62
   174
100
AcDbLine
 10
144.67964
 20
128.833822
 30
0.0
 11
144.67964
 21
122.633822
 31
0.0
  0
LINE
  5
136
100
AcDbEntity
  8
0
  6
HIDDEN
 62
   174
100
AcDbLine
 10
160.363995
 20
83.147387
 30
0.0
 11
160.363995
 21
79.147525
 31
0.0
  0
LINE
  5
137
100
AcDbEntity
  8
0
  6
Continuous
 62
   174
100
AcDbLine
 10
153.063995
 20
91.633822
 30
0.0
 11
179.063995
 21
91.633822
 31
0.0
  0
LINE
  5
138
100
AcDbEntity
  8
0
  6
Continuous
 62
   174
100
AcDbLine
 10
160.363995
 20
83.147387
 30
0.0
 11
160.363995
 21
78.73817
 31
0.0
  0
LINE
  5
139
100
AcDbEntity
  8
0
  6
HIDDEN
 62
   174
100
AcDbLine
 10
182.013995
 20
108.889558
 30
0.0
 11
182.013995
 21
109.502634
 31
0.0
  0
LINE
  5
13A
100
AcDbEntity
  8
0
  6
Continuous
 62
   174
100
AcDbLine
 10
159.063995
 20
89.147075
 30
0.0
 11
159.063995
 21
87.556604
 31
0.0
  0
LWPOLYLINE
  5
13B
100
AcDbEntity
  8
0
  6
HIDDEN
 62
   174
100
AcDbPolyline
 90
        4
 70
   128
 10
176.847878
 20
120.633822
 10
175.951142
 20
120.621262
 10
175.012989
 20
120.600857
 10
174.063995
 20
120.591862
  0
LINE
  5
13C
100
AcDbEntity
  8
0
  6
Continuous
 62
   174
100
AcDbLine
 10
138.563995
 20
128.833822
 30
0.0
 11
133.563995
 21
128.833822
 31
0.0
  0
LINE
  5
13D
100
AcDbEntity
  8
0
  6
Continuous
 62
   174
100
AcDbLine
 10
137.673102
 20
74.843822
 30
0.0
 11
134.491099
 21
74.843822
 31
0.0
  0
LINE
  5
13E
100
AcDbEntity
  8
0
  6
HIDDEN
 62
   174
100
AcDbLine
 10
155.063995
 20
86.133822
 30
0.0
 11
159.063995
 21
86.133822
 31
0.0
  0
LWPOLYLINE
  5
13F
100
AcDbEntity
  8
0
  6
HIDDEN
 62
   174
100
AcDbPolyline
 90
        4
 70
   128
 10
180.32891
 20
140.133822
 10
179.720551
 20
140.000702
 10
179.109477
 20
139.767619
 10
178.485886
 20
139.441002
  0
LINE
  5
140
100
AcDbEntity
  8
0
  6
HIDDEN
 62
   174
100
AcDbLine
 10
146.713995
 20
89.783822
 30
0.0
 11
146.713995
 21
75.133822
 31
0.0
  0
LINE
  5
141
100
AcDbEntity
  8
0
  6
HIDDEN
 62
   174
100
AcDbLine
 10
143.413995
 20
89.783822
 30
0.0
 11
143.413995
 21
75.133822
 31
0.0
  0
LINE
  5
142
100
AcDbEntity
  8
0
  6
HIDDEN
 62
   174
100
AcDbLine
 10
141.14559
 20
128.833822
 30
0.0
 11
141.14559
 21
122.633822
 31
0.0
  0
LINE
  5
143
100
AcDbEntity
  8
0
  6
HIDDEN
 62
   174
100
AcDbLine
 10
159.063995
 20
86.273734
 30
0.0
 11
159.063995
 21
87.147037
 31
0.0
  0
LINE
  5
144
100
AcDbEntity
  8
0
  6
HIDDEN
 62
   174
100
AcDbLine
 10
142.063995
 20
91.133822
 30
0.0
 11
143.413995
 21
89.783822
 31
0.0
  0
LINE
  5
145
100
AcDbEntity
  8
0
  6
Continuous
 62
   174
100
AcDbLine
 10
138.332063
 20
74.843822
 30
0.0
 11
137.673102
 21
74.843822
 31
0.0
  0
LINE
  5
146
100
AcDbEntity
  8
0
  6
HIDDEN
 62
   174
100
AcDbLine
 10
148.063995
 20
91.133822
 30
0.0
 11
146.713995
 21
89.783822
 31
0.0
  0
LINE
  5
147
100
AcDbEntity
  8
0
  6
HIDDEN
 62
   174
100
AcDbLine
 10
178.485886
 20
136.333822
 30
0.0
 11
178.485886
 21
139.441002
 31
0.0
  0
LINE
  5
148
100
AcDbEntity
  8
0
  6
Continuous
 62
   174
100
AcDbLine
 10
138.563995
 20
128.833822
 30
0.0
 11
138.563995
 21
122.633822
 31
0.0
  0
LINE
  5
149
100
AcDbEntity
  8
0
  6
Continuous
 62
   174
100
AcDbLine
 10
126.063995
 20
122.633822
 30
0.0
 11
126.063995
 21
121.133822
 31
0.0
  0
LINE
  5
14A
100
AcDbEntity
  8
0
  6
HIDDEN
 62
   174
100
AcDbLine
 10
155.063995
 20
77.1477
 30
0.0
 11
155.063995
 21
79.665644
 31
0.0
  0
ARC
  5
14B
100
AcDbEntity
  8
0
  6
HIDDEN
 62
   174
100
AcDbCircle
 10
138.313995
 20
75.593822
 30
0.0
 40
0.75
100
AcDbArc
 50
-41.512225
 51
23.755474
  0
LINE
  5
14C
100
AcDbEntity
  8
0
  6
Continuous
 62
   174
100
AcDbLine
 10
162.063995
 20
86.629131
 30
0.0
 11
162.063995
 21
89.147075
 31
0.0
  0
LINE
  5
14D
100
AcDbEntity
  8
0
  6
HIDDEN
 62
   174
100
AcDbLine
 10
148.063995
 20
91.133822
 30
0.0
 11
146.713995
 21
89.783822
 31
0.0
  0
LINE
  5
14E
100
AcDbEntity
  8
0
  6
HIDDEN
 62
   174
100
AcDbLine
 10
146.713995
 20
89.783822
 30
0.0
 11
146.713995
 21
75.133822
 31
0.0
  0
LINE
  5
14F
100
AcDbEntity
  8
0
  6
Continuous
 62
   174
100
AcDbLine
 10
171.280113
 20
120.633822
 30
0.0
 11
153.063995
 21
120.633822
 31
0.0
  0
LINE
  5
150
100
AcDbEntity
  8
0
  6
Continuous
 62
   174
100
AcDbLine
 10
145.764173
 20
122.633822
 30
0.0
 11
146.082182
 21
122.633822
 31
0.0
  0
LINE
  5
151
100
AcDbEntity
  8
0
  6
HIDDEN
 62
   174
100
AcDbLine
 10
127.451043
 20
122.633822
 30
0.0
 11
130.988061
 21
122.633822
 31
0.0
  0
LINE
  5
152
100
AcDbEntity
  8
0
  6
HIDDEN
 62
   174
100
AcDbLine
 10
143.413995
 20
89.783822
 30
0.0
 11
143.413995
 21
75.133822
 31
0.0
  0
LINE
  5
153
100
AcDbEntity
  8
0
  6
Continuous
 62
   174
100
AcDbLine
 10
159.063995
 20
78.81762
 30
0.0
 11
159.063995
 21
79.665644
 31
0.0
  0
ARC
  5
154
100
AcDbEntity
  8
0
  6
HIDDEN
 62
   174
100
AcDbCircle
 10
133.813995
 20
75.593822
 30
0.0
 40
0.75
100
AcDbArc
 50
156.244526
 51
221.512225
  0
LINE
  5
155
100
AcDbEntity
  8
0
  6
HIDDEN
 62
   174
100
AcDbLine
 10
143.432106
 20
75.133822
 30
0.0
 11
146.73222
 21
75.133822
 31
0.0
  0
ARC
  5
156
100
AcDbEntity
  8
0
  6
Continuous
 62
   174
100
AcDbCircle
 10
138.313995
 20
75.593822
 30
0.0
 40
0.75
100
AcDbArc
 50
-90.0
 51
-41.512225
  0
LINE
  5
157
100
AcDbEntity
  8
0
  6
Continuous
 62
   174
100
AcDbLine
 10
160.363995
 20
83.147387
 30
0.0
 11
160.363995
 21
87.556604
 31
0.0
  0
LINE
  5
158
100
AcDbEntity
  8
0
  6
HIDDEN
 62
   174
100
AcDbLine
 10
182.013995
 20
104.673242
 30
0.0
 11
182.013995
 21
108.877494
 31
0.0
  0
LINE
  5
159
100
AcDbEntity
  8
0
  6
HIDDEN
 62
   174
100
AcDbLine
 10
153.063995
 20
120.645274
 30
0.0
 11
153.063995
 21
117.645324
 31
0.0
  0
LINE
  5
15A
100
AcDbEntity
  8
0
  6
Continuous
 62
   174
100
AcDbLine
 10
159.063995
 20
79.665644
 30
0.0
 11
159.063995
 21
83.147387
 31
0.0
  0
ARC
  5
15B
100
AcDbEntity
  8
0
  6
HIDDEN
 62
   174
100
AcDbCircle
 10
133.813995
 20
75.593822
 30
0.0
 40
0.75
100
AcDbArc
 50
99.366789
 51
156.244526
  0
LINE
  5
15C
100
AcDbEntity
  8
0
  6
HIDDEN
 62
   174
100
AcDbLine
 10
182.013995
 20
109.902641
 30
0.0
 11
182.013995
 21
106.502896
 31
0.0
  0
LINE
  5
15D
100
AcDbEntity
  8
0
  6
HIDDEN
 62
   174
100
AcDbLine
 10
155.063995
 20
80.133822
 30
0.0
 11
159.063995
 21
80.133822
 31
0.0
  0
ENDBLK
  5
15E
100
AcDbEntity
  8
0
100
AcDbBlockEnd
  0
BLOCK
  5
161
100
AcDbEntity
  8
0
100
AcDbBlockBegin
  2
*B6
 70
     0
 10
0.0
 20
0.0
 30
0.0
  3
*B6
  1

  0
ARC
  5
162
100
AcDbEntity
  8
0
  6
Continuous
 62
   174
100
AcDbCircle
 10
96.481977
 20
83.133822
 30
0.0
 40
3.0
100
AcDbArc
 50
-180.0
 51
0.0
  0
ARC
  5
163
100
AcDbEntity
  8
0
  6
Continuous
 62
   174
100
AcDbCircle
 10
96.481977
 20
83.133822
 30
0.0
 40
3.0
100
AcDbArc
 50
-360.0
 51
-180.0
  0
ARC
  5
164
100
AcDbEntity
  8
0
  6
Continuous
 62
   174
100
AcDbCircle
 10
96.589263
 20
106.490647
 30
0.0
 40
3.4
100
AcDbArc
 50
-360.0
 51
-180.0
  0
ARC
  5
165
100
AcDbEntity
  8
0
  6
Continuous
 62
   174
100
AcDbCircle
 10
96.589263
 20
106.490647
 30
0.0
 40
3.4
100
AcDbArc
 50
-180.0
 51
0.0
  0
ARC
  5
166
100
AcDbEntity
  8
0
  6
Continuous
 62
   174
100
AcDbCircle
 10
96.589263
 20
106.490647
 30
0.0
 40
3.0
100
AcDbArc
 50
-307.286546
 51
-142.713454
  0
LINE
  5
167
100
AcDbEntity
  8
0
  6
Continuous
 62
   174
100
AcDbLine
 10
98.406668
 20
108.877494
 30
0.0
 11
94.202416
 21
104.673242
 31
0.0
  0
ARC
  5
168
100
AcDbEntity
  8
0
  6
Continuous
 62
   174
100
AcDbCircle
 10
96.589263
 20
106.490647
 30
0.0
 40
3.0
100
AcDbArc
 50
-131.228296
 51
41.228296
  0
LINE
  5
169
100
AcDbEntity
  8
0
  6
Continuous
 62
   174
100
AcDbLine
 10
94.61208
 20
104.234379
 30
0.0
 11
98.845531
 21
108.46783
 31
0.0
  0
LINE
  5
16A
100
AcDbEntity
  8
0
  6
Continuous
 62
   174
100
AcDbLine
 10
102.981977
 20
132.633822
 30
0.0
 11
102.981977
 21
135.633822
 31
0.0
  0
LINE
  5
16B
100
AcDbEntity
  8
0
  6
Continuous
 62
   174
100
AcDbLine
 10
89.981977
 20
132.633822
 30
0.0
 11
89.981977
 21
135.633822
 31
0.0
  0
LINE
  5
16C
100
AcDbEntity
  8
0
  6
Continuous
 62
   174
100
AcDbLine
 10
102.981977
 20
132.633822
 30
0.0
 11
102.981977
 21
135.633822
 31
0.0
  0
LINE
  5
16D
100
AcDbEntity
  8
0
  6
Continuous
 62
   174
100
AcDbLine
 10
89.981977
 20
132.633822
 30
0.0
 11
89.981977
 21
135.633822
 31
0.0
  0
LINE
  5
16E
100
AcDbEntity
  8
0
  6
Continuous
 62
   174
100
AcDbLine
 10
105.481977
 20
135.633822
 30
0.0
 11
105.481977
 21
136.333822
 31
0.0
  0
LINE
  5
16F
100
AcDbEntity
  8
0
  6
Continuous
 62
   174
100
AcDbLine
 10
104.281977
 20
140.133822
 30
0.0
 11
104.452751
 21
140.035226
 31
0.0
  0
LINE
  5
170
100
AcDbEntity
  8
0
  6
Continuous
 62
   174
100
AcDbLine
 10
103.981977
 20
91.633822
 30
0.0
 11
88.981977
 21
91.633822
 31
0.0
  0
LINE
  5
171
100
AcDbEntity
  8
0
  6
Continuous
 62
   174
100
AcDbLine
 10
87.500098
 20
135.633822
 30
0.0
 11
89.785855
 21
135.633822
 31
0.0
  0
LINE
  5
172
100
AcDbEntity
  8
0
  6
Continuous
 62
   174
100
AcDbLine
 10
105.500222
 20
136.333822
 30
0.0
 11
104.338862
 21
136.333822
 31
0.0
  0
LINE
  5
173
100
AcDbEntity
  8
0
  6
Continuous
 62
   174
100
AcDbLine
 10
104.3002
 20
140.133822
 30
0.0
 11
101.146662
 21
140.133822
 31
0.0
  0
LINE
  5
174
100
AcDbEntity
  8
0
  6
Continuous
 62
   174
100
AcDbLine
 10
104.320783
 20
136.333822
 30
0.0
 11
104.320783
 21
139.441002
 31
0.0
  0
LWPOLYLINE
  5
175
100
AcDbEntity
  8
0
  6
Continuous
 62
   174
100
AcDbPolyline
 90
        7
 70
   128
 10
88.733104
 20
139.441002
 10
90.035071
 20
139.807129
 10
91.311673
 20
140.035227
 10
92.562643
 20
140.11213
 10
93.813598
 20
140.035212
 10
95.090153
 20
139.807111
 10
96.392044
 20
139.441002
  0
LINE
  5
176
100
AcDbEntity
  8
0
  6
Continuous
 62
   174
100
AcDbLine
 10
105.094607
 20
128.833822
 30
0.0
 11
105.094607
 21
122.633822
 31
0.0
  0
LWPOLYLINE
  5
177
100
AcDbEntity
  8
0
  6
Continuous
 62
   174
100
AcDbPolyline
 90
        6
 70
   128
 10
90.236979
 20
120.633822
 10
91.192941
 20
120.46148
 10
92.319381
 20
120.00968
 10
93.600371
 20
119.346609
 10
94.994388
 20
118.538079
 10
96.481977
 20
117.633822
  0
LINE
  5
178
100
AcDbEntity
  8
0
  6
Continuous
 62
   174
100
AcDbLine
 10
88.981977
 20
117.633822
 30
0.0
 11
96.481977
 21
117.633822
 31
0.0
  0
LINE
  5
179
100
AcDbEntity
  8
0
  6
Continuous
 62
   174
100
AcDbLine
 10
86.481977
 20
122.633822
 30
0.0
 11
86.481977
 21
122.133822
 31
0.0
  0
ARC
  5
17A
100
AcDbEntity
  8
0
  6
Continuous
 62
   174
100
AcDbCircle
 10
94.231977
 20
75.593822
 30
0.0
 40
0.75
100
AcDbArc
 50
221.512225
 51
270.0
  0
ARC
  5
17B
100
AcDbEntity
  8
0
  6
Continuous
 62
   174
100
AcDbCircle
 10
98.731977
 20
75.593822
 30
0.0
 40
0.75
100
AcDbArc
 50
-90.0
 51
-41.512225
  0
LINE
  5
17C
100
AcDbEntity
  8
0
  6
Continuous
 62
   174
100
AcDbLine
 10
85.481977
 20
91.133822
 30
0.0
 11
85.481977
 21
121.133822
 31
0.0
  0
LINE
  5
17D
100
AcDbEntity
  8
0
  6
Continuous
 62
   174
100
AcDbLine
 10
104.481977
 20
121.133822
 30
0.0
 11
107.481977
 21
121.133822
 31
0.0
  0
LINE
  5
17E
100
AcDbEntity
  8
0
  6
Continuous
 62
   174
100
AcDbLine
 10
87.481977
 20
135.633822
 30
0.0
 11
87.481977
 21
136.333822
 31
0.0
  0
LINE
  5
17F
100
AcDbEntity
  8
0
  6
Continuous
 62
   174
100
AcDbLine
 10
107.606977
 20
75.133822
 30
0.0
 11
107.606977
 21
91.133822
 31
0.0
  0
LWPOLYLINE
  5
180
100
AcDbEntity
  8
0
  6
Continuous
 62
   174
100
AcDbPolyline
 90
        4
 70
   128
 10
96.392044
 20
139.441002
 10
97.477013
 20
139.768903
 10
98.536011
 20
140.001657
 10
99.584256
 20
140.133822
  0
LINE
  5
181
100
AcDbEntity
  8
0
  6
Continuous
 62
   174
100
AcDbLine
 10
88.481977
 20
128.833822
 30
0.0
 11
87.867581
 21
128.833822
 31
0.0
  0
ARC
  5
182
100
AcDbEntity
  8
0
  6
Continuous
 62
   174
100
AcDbCircle
 10
88.981977
 20
117.633822
 30
0.0
 40
3.0
100
AcDbArc
 50
-270.0
 51
-180.0
  0
ARC
  5
183
100
AcDbEntity
  8
0
  6
Continuous
 62
   174
100
AcDbCircle
 10
96.481977
 20
83.133822
 30
0.0
 40
6.0
100
AcDbArc
 50
163.597441
 51
180.0
  0
LINE
  5
184
100
AcDbEntity
  8
0
  6
Continuous
 62
   174
100
AcDbLine
 10
86.500185
 20
122.633822
 30
0.0
 11
86.612773
 21
122.633822
 31
0.0
  0
LINE
  5
185
100
AcDbEntity
  8
0
  6
Continuous
 62
   174
100
AcDbLine
 10
98.091055
 20
74.843822
 30
0.0
 11
96.50016
 21
74.843822
 31
0.0
  0
LINE
  5
186
100
AcDbEntity
  8
0
  6
Continuous
 62
   174
100
AcDbLine
 10
96.50016
 20
74.843822
 30
0.0
 11
94.909052
 21
74.843822
 31
0.0
  0
LINE
  5
187
100
AcDbEntity
  8
0
  6
Continuous
 62
   174
100
AcDbLine
 10
106.981977
 20
94.633822
 30
0.0
 11
106.981977
 21
117.633822
 31
0.0
  0
LINE
  5
188
100
AcDbEntity
  8
0
  6
Continuous
 62
   174
100
AcDbLine
 10
104.481977
 20
132.633822
 30
0.0
 11
104.481977
 21
120.591862
 31
0.0
  0
LINE
  5
189
100
AcDbEntity
  8
0
  6
Continuous
 62
   174
100
AcDbLine
 10
85.356977
 20
75.133822
 30
0.0
 11
85.356977
 21
91.133822
 31
0.0
  0
LINE
  5
18A
100
AcDbEntity
  8
0
  6
Continuous
 62
   174
100
AcDbLine
 10
106.981977
 20
117.633822
 30
0.0
 11
106.981977
 21
94.633822
 31
0.0
  0
LINE
  5
18B
100
AcDbEntity
  8
0
  6
Continuous
 62
   174
100
AcDbLine
 10
85.356977
 20
75.133822
 30
0.0
 11
107.606977
 21
75.133822
 31
0.0
  0
LINE
  5
18C
100
AcDbEntity
  8
0
  6
Continuous
 62
   174
100
AcDbLine
 10
89.785855
 20
135.633822
 30
0.0
 11
103.214252
 21
135.633822
 31
0.0
  0
LINE
  5
18D
100
AcDbEntity
  8
0
  6
Continuous
 62
   174
100
AcDbLine
 10
106.1817
 20
128.833822
 30
0.0
 11
105.112748
 21
128.833822
 31
0.0
  0
LWPOLYLINE
  5
18E
100
AcDbEntity
  8
0
  6
Continuous
 62
   174
100
AcDbPolyline
 90
        3
 70
   128
 10
104.320783
 20
139.441002
 10
104.320783
 20
139.807105
 10
104.320783
 20
140.035204
  0
LINE
  5
18F
100
AcDbEntity
  8
0
  6
Continuous
 62
   174
100
AcDbLine
 10
106.163566
 20
128.833822
 30
0.0
 11
106.163566
 21
122.633822
 31
0.0
  0
LINE
  5
190
100
AcDbEntity
  8
0
  6
Continuous
 62
   174
100
AcDbLine
 10
98.639977
 20
74.843822
 30
0.0
 11
98.091055
 21
74.843822
 31
0.0
  0
LINE
  5
191
100
AcDbEntity
  8
0
  6
Continuous
 62
   174
100
AcDbLine
 10
104.526226
 20
122.633822
 30
0.0
 11
105.112748
 21
122.633822
 31
0.0
  0
LINE
  5
192
100
AcDbEntity
  8
0
  6
Continuous
 62
   174
100
AcDbLine
 10
103.981977
 20
94.6467
 30
0.0
 11
103.981977
 21
91.64675
 31
0.0
  0
LINE
  5
193
100
AcDbEntity
  8
0
  6
Continuous
 62
   174
100
AcDbLine
 10
85.981977
 20
94.633822
 30
0.0
 11
85.981977
 21
117.633822
 31
0.0
  0
LINE
  5
194
100
AcDbEntity
  8
0
  6
Continuous
 62
   174
100
AcDbLine
 10
90.236979
 20
120.633822
 30
0.0
 11
88.981977
 21
120.633822
 31
0.0
  0
LINE
  5
195
100
AcDbEntity
  8
0
  6
Continuous
 62
   174
100
AcDbLine
 10
103.981977
 20
117.645324
 30
0.0
 11
103.981977
 21
120.645274
 31
0.0
  0
LINE
  5
196
100
AcDbEntity
  8
0
  6
Continuous
 62
   174
100
AcDbLine
 10
98.750228
 20
74.843822
 30
0.0
 11
98.091055
 21
74.843822
 31
0.0
  0
LINE
  5
197
100
AcDbEntity
  8
0
  6
Continuous
 62
   174
100
AcDbLine
 10
94.909052
 20
74.843822
 30
0.0
 11
94.250516
 21
74.843822
 31
0.0
  0
ARC
  5
198
100
AcDbEntity
  8
0
  6
Continuous
 62
   174
100
AcDbCircle
 10
103.981977
 20
94.633822
 30
0.0
 40
3.0
100
AcDbArc
 50
-90.0
 51
0.0
  0
ARC
  5
199
100
AcDbEntity
  8
0
  6
Continuous
 62
   174
100
AcDbCircle
 10
96.481977
 20
83.133822
 30
0.0
 40
6.0
100
AcDbArc
 50
-360.0
 51
-180.0
  0
ARC
  5
19A
100
AcDbEntity
  8
0
  6
Continuous
 62
   174
100
AcDbCircle
 10
88.981977
 20
94.633822
 30
0.0
 40
3.0
100
AcDbArc
 50
-180.0
 51
-90.0
  0
LINE
  5
19B
100
AcDbEntity
  8
0
  6
Continuous
 62
   174
100
AcDbLine
 10
89.893557
 20
132.633822
 30
0.0
 11
88.500222
 21
132.633822
 31
0.0
  0
LINE
  5
19C
100
AcDbEntity
  8
0
  6
Continuous
 62
   174
100
AcDbLine
 10
104.500097
 20
132.633822
 30
0.0
 11
103.10655
 21
132.633822
 31
0.0
  0
LINE
  5
19D
100
AcDbEntity
  8
0
  6
Continuous
 62
   174
100
AcDbLine
 10
103.10655
 20
132.633822
 30
0.0
 11
89.893557
 21
132.633822
 31
0.0
  0
LINE
  5
19E
100
AcDbEntity
  8
0
  6
Continuous
 62
   174
100
AcDbLine
 10
104.338862
 20
136.333822
 30
0.0
 11
96.410089
 21
136.333822
 31
0.0
  0
LINE
  5
19F
100
AcDbEntity
  8
0
  6
Continuous
 62
   174
100
AcDbLine
 10
99.584256
 20
140.133822
 30
0.0
 11
101.128572
 21
140.133822
 31
0.0
  0
LINE
  5
1A0
100
AcDbEntity
  8
0
  6
Continuous
 62
   174
100
AcDbLine
 10
106.481977
 20
122.133822
 30
0.0
 11
106.481977
 21
121.133822
 31
0.0
  0
LINE
  5
1A1
100
AcDbEntity
  8
0
  6
Continuous
 62
   174
100
AcDbLine
 10
106.481977
 20
122.633822
 30
0.0
 11
106.481977
 21
122.133822
 31
0.0
  0
LINE
  5
1A2
100
AcDbEntity
  8
0
  6
Continuous
 62
   174
100
AcDbLine
 10
103.981977
 20
94.633822
 30
0.0
 11
88.981977
 21
94.633822
 31
0.0
  0
LINE
  5
1A3
100
AcDbEntity
  8
0
  6
Continuous
 62
   174
100
AcDbLine
 10
103.981977
 20
120.633822
 30
0.0
 11
102.726975
 21
120.633822
 31
0.0
  0
ARC
  5
1A4
100
AcDbEntity
  8
0
  6
Continuous
 62
   174
100
AcDbCircle
 10
103.981977
 20
117.633822
 30
0.0
 40
3.0
100
AcDbArc
 50
0.0
 51
90.0
  0
LINE
  5
1A5
100
AcDbEntity
  8
0
  6
Continuous
 62
   174
100
AcDbLine
 10
88.981977
 20
91.633822
 30
0.0
 11
103.981977
 21
91.633822
 31
0.0
  0
LINE
  5
1A6
100
AcDbEntity
  8
0
  6
Continuous
 62
   174
100
AcDbLine
 10
102.726975
 20
120.633822
 30
0.0
 11
103.981977
 21
120.633822
 31
0.0
  0
LINE
  5
1A7
100
AcDbEntity
  8
0
  6
Continuous
 62
   174
100
AcDbLine
 10
88.751316
 20
136.333822
 30
0.0
 11
87.500098
 21
136.333822
 31
0.0
  0
LINE
  5
1A8
100
AcDbEntity
  8
0
  6
Continuous
 62
   174
100
AcDbLine
 10
96.410089
 20
136.333822
 30
0.0
 11
88.751316
 21
136.333822
 31
0.0
  0
LINE
  5
1A9
100
AcDbEntity
  8
0
  6
Continuous
 62
   174
100
AcDbLine
 10
87.88566
 20
128.833822
 30
0.0
 11
86.817769
 21
128.833822
 31
0.0
  0
LINE
  5
1AA
100
AcDbEntity
  8
0
  6
Continuous
 62
   174
100
AcDbLine
 10
104.320783
 20
140.122006
 30
0.0
 11
104.320783
 21
140.045531
 31
0.0
  0
LINE
  5
1AB
100
AcDbEntity
  8
0
  6
Continuous
 62
   174
100
AcDbLine
 10
96.392044
 20
136.333822
 30
0.0
 11
96.392044
 21
139.441002
 31
0.0
  0
LINE
  5
1AC
100
AcDbEntity
  8
0
  6
Continuous
 62
   174
100
AcDbLine
 10
96.481977
 20
117.633822
 30
0.0
 11
103.981977
 21
117.633822
 31
0.0
  0
LINE
  5
1AD
100
AcDbEntity
  8
0
  6
Continuous
 62
   174
100
AcDbLine
 10
86.612773
 20
122.633822
 30
0.0
 11
86.817769
 21
122.633822
 31
0.0
  0
LINE
  5
1AE
100
AcDbEntity
  8
0
  6
Continuous
 62
   174
100
AcDbLine
 10
87.88566
 20
122.633822
 30
0.0
 11
88.474093
 21
122.633822
 31
0.0
  0
LINE
  5
1AF
100
AcDbEntity
  8
0
  6
Continuous
 62
   174
100
AcDbLine
 10
98.750228
 20
74.843822
 30
0.0
 11
98.639977
 21
74.843822
 31
0.0
  0
LINE
  5
1B0
100
AcDbEntity
  8
0
  6
Continuous
 62
   174
100
AcDbLine
 10
94.909052
 20
74.843822
 30
0.0
 11
94.360343
 21
74.843822
 31
0.0
  0
ARC
  5
1B1
100
AcDbEntity
  8
0
  6
Continuous
 62
   174
100
AcDbCircle
 10
96.481977
 20
83.133822
 30
0.0
 40
6.0
100
AcDbArc
 50
-180.0
 51
0.0
  0
LINE
  5
1B2
100
AcDbEntity
  8
0
  6
Continuous
 62
   174
100
AcDbLine
 10
86.000123
 20
94.633822
 30
0.0
 11
89.000072
 21
94.633822
 31
0.0
  0
LINE
  5
1B3
100
AcDbEntity
  8
0
  6
Continuous
 62
   174
100
AcDbLine
 10
88.981977
 20
120.633822
 30
0.0
 11
90.236979
 21
120.633822
 31
0.0
  0
LINE
  5
1B4
100
AcDbEntity
  8
0
  6
Continuous
 62
   174
100
AcDbLine
 10
85.356977
 20
91.133822
 30
0.0
 11
107.606977
 21
91.133822
 31
0.0
  0
LINE
  5
1B5
100
AcDbEntity
  8
0
  6
Continuous
 62
   174
100
AcDbLine
 10
103.214252
 20
135.633822
 30
0.0
 11
105.500222
 21
135.633822
 31
0.0
  0
LWPOLYLINE
  5
1B6
100
AcDbEntity
  8
0
  6
Continuous
 62
   174
100
AcDbPolyline
 90
        4
 70
   128
 10
101.128572
 20
140.133822
 10
102.18228
 20
140.000702
 10
103.240693
 20
139.767619
 10
104.320783
 20
139.441002
  0
LINE
  5
1B7
100
AcDbEntity
  8
0
  6
Continuous
 62
   174
100
AcDbLine
 10
86.799519
 20
128.833822
 30
0.0
 11
86.799519
 21
122.633822
 31
0.0
  0
LINE
  5
1B8
100
AcDbEntity
  8
0
  6
Continuous
 62
   174
100
AcDbLine
 10
103.981977
 20
117.633822
 30
0.0
 11
103.981977
 21
94.633822
 31
0.0
  0
LINE
  5
1B9
100
AcDbEntity
  8
0
  6
Continuous
 62
   174
100
AcDbLine
 10
88.981977
 20
94.633822
 30
0.0
 11
88.981977
 21
117.633822
 31
0.0
  0
LINE
  5
1BA
100
AcDbEntity
  8
0
  6
Continuous
 62
   174
100
AcDbLine
 10
106.387546
 20
122.633822
 30
0.0
 11
106.500134
 21
122.633822
 31
0.0
  0
LINE
  5
1BB
100
AcDbEntity
  8
0
  6
Continuous
 62
   174
100
AcDbLine
 10
106.1817
 20
122.633822
 30
0.0
 11
106.387546
 21
122.633822
 31
0.0
  0
LINE
  5
1BC
100
AcDbEntity
  8
0
  6
Continuous
 62
   174
100
AcDbLine
 10
105.481977
 20
135.633822
 30
0.0
 11
105.481977
 21
136.333822
 31
0.0
  0
LINE
  5
1BD
100
AcDbEntity
  8
0
  6
Continuous
 62
   174
100
AcDbLine
 10
87.481977
 20
135.633822
 30
0.0
 11
87.481977
 21
136.333822
 31
0.0
  0
LINE
  5
1BE
100
AcDbEntity
  8
0
  6
Continuous
 62
   174
100
AcDbLine
 10
88.481977
 20
132.633822
 30
0.0
 11
88.481977
 21
120.591862
 31
0.0
  0
LINE
  5
1BF
100
AcDbEntity
  8
0
  6
Continuous
 62
   174
100
AcDbLine
 10
104.481977
 20
132.633822
 30
0.0
 11
104.481977
 21
120.591862
 31
0.0
  0
LINE
  5
1C0
100
AcDbEntity
  8
0
  6
Continuous
 62
   174
100
AcDbLine
 10
88.481977
 20
132.633822
 30
0.0
 11
88.481977
 21
120.591862
 31
0.0
  0
LWPOLYLINE
  5
1C1
100
AcDbEntity
  8
0
  6
Continuous
 62
   174
100
AcDbPolyline
 90
        4
 70
   128
 10
88.733104
 20
140.133822
 10
88.733104
 20
140.000702
 10
88.733104
 20
139.767617
 10
88.733104
 20
139.441002
  0
LINE
  5
1C2
100
AcDbEntity
  8
0
  6
Continuous
 62
   174
100
AcDbLine
 10
88.733104
 20
139.441002
 30
0.0
 11
88.733104
 21
136.333822
 31
0.0
  0
LINE
  5
1C3
100
AcDbEntity
  8
0
  6
Continuous
 62
   174
100
AcDbLine
 10
99.602501
 20
140.133822
 30
0.0
 11
88.751316
 21
140.133822
 31
0.0
  0
LINE
  5
1C4
100
AcDbEntity
  8
0
  6
Continuous
 62
   174
100
AcDbLine
 10
87.867581
 20
128.833822
 30
0.0
 11
87.867581
 21
122.633822
 31
0.0
  0
LWPOLYLINE
  5
1C5
100
AcDbEntity
  8
0
  6
Continuous
 62
   174
100
AcDbPolyline
 90
        6
 70
   128
 10
96.481977
 20
117.633822
 10
97.971337
 20
118.539138
 10
99.365086
 20
119.347444
 10
100.643748
 20
120.009291
 10
101.769852
 20
120.461117
 10
102.726975
 20
120.633822
  0
LINE
  5
1C6
100
AcDbEntity
  8
0
  6
Continuous
 62
   174
100
AcDbLine
 10
105.094607
 20
128.833822
 30
0.0
 11
104.481977
 21
128.833822
 31
0.0
  0
LINE
  5
1C7
100
AcDbEntity
  8
0
  6
Continuous
 62
   174
100
AcDbLine
 10
88.981977
 20
120.645274
 30
0.0
 11
88.981977
 21
117.645324
 31
0.0
  0
LINE
  5
1C8
100
AcDbEntity
  8
0
  6
Continuous
 62
   174
100
AcDbLine
 10
106.481977
 20
122.133822
 30
0.0
 11
106.481977
 21
121.133822
 31
0.0
  0
LINE
  5
1C9
100
AcDbEntity
  8
0
  6
Continuous
 62
   174
100
AcDbLine
 10
86.481977
 20
122.133822
 30
0.0
 11
86.481977
 21
121.133822
 31
0.0
  0
ARC
  5
1CA
100
AcDbEntity
  8
0
  6
Continuous
 62
   174
100
AcDbCircle
 10
96.481977
 20
83.133822
 30
0.0
 40
6.0
100
AcDbArc
 50
-180.0
 51
-163.597441
  0
LINE
  5
1CB
100
AcDbEntity
  8
0
  6
Continuous
 62
   174
100
AcDbLine
 10
98.091055
 20
74.843822
 30
0.0
 11
96.50016
 21
74.843822
 31
0.0
  0
LINE
  5
1CC
100
AcDbEntity
  8
0
  6
Continuous
 62
   174
100
AcDbLine
 10
96.50016
 20
74.843822
 30
0.0
 11
94.909052
 21
74.843822
 31
0.0
  0
LINE
  5
1CD
100
AcDbEntity
  8
0
  6
Continuous
 62
   174
100
AcDbLine
 10
107.481977
 20
121.133822
 30
0.0
 11
107.481977
 21
91.133822
 31
0.0
  0
LINE
  5
1CE
100
AcDbEntity
  8
0
  6
Continuous
 62
   174
100
AcDbLine
 10
85.481977
 20
121.133822
 30
0.0
 11
88.481977
 21
121.133822
 31
0.0
  0
LINE
  5
1CF
100
AcDbEntity
  8
0
  6
Continuous
 62
   174
100
AcDbLine
 10
88.981977
 20
91.64675
 30
0.0
 11
88.981977
 21
94.6467
 31
0.0
  0
LINE
  5
1D0
100
AcDbEntity
  8
0
  6
Continuous
 62
   174
100
AcDbLine
 10
104.000035
 20
94.633822
 30
0.0
 11
107.000197
 21
94.633822
 31
0.0
  0
LINE
  5
1D1
100
AcDbEntity
  8
0
  6
Continuous
 62
   174
100
AcDbLine
 10
85.981977
 20
117.633822
 30
0.0
 11
85.981977
 21
94.633822
 31
0.0
  0
LINE
  5
1D2
100
AcDbEntity
  8
0
  6
Continuous
 62
   174
100
AcDbLine
 10
86.000123
 20
117.633822
 30
0.0
 11
89.000072
 21
117.633822
 31
0.0
  0
LINE
  5
1D3
100
AcDbEntity
  8
0
  6
Continuous
 62
   174
100
AcDbLine
 10
104.000035
 20
117.633822
 30
0.0
 11
107.000197
 21
117.633822
 31
0.0
  0
ENDBLK
  5
1D4
100
AcDbEntity
  8
0
100
AcDbBlockEnd
  0
BLOCK
  5
1D7
100
AcDbEntity
  8
0
100
AcDbBlockBegin
  2
*B7
 70
     0
 10
0.0
 20
0.0
 30
0.0
  3
*B7
  1

  0
LINE
  5
1D8
100
AcDbEntity
  8
0
  6
Continuous
 62
   174
100
AcDbLine
 10
205.976757
 20
138.978304
 30
0.0
 11
205.976757
 21
136.364073
 31
0.0
  0
LINE
  5
1D9
100
AcDbEntity
  8
0
  6
Continuous
 62
   174
100
AcDbLine
 10
205.994933
 20
136.364073
 30
0.0
 11
213.923494
 21
136.364073
 31
0.0
  0
LINE
  5
1DA
100
AcDbEntity
  8
0
  6
Continuous
 62
   174
100
AcDbLine
 10
213.923494
 20
136.364073
 30
0.0
 11
221.582479
 21
136.364073
 31
0.0
  0
LINE
  5
1DB
100
AcDbEntity
  8
0
  6
Continuous
 62
   174
100
AcDbLine
 10
208.730388
 20
128.864073
 30
0.0
 11
205.202033
 21
128.864073
 31
0.0
  0
LINE
  5
1DC
100
AcDbEntity
  8
0
  6
Continuous
 62
   174
100
AcDbLine
 10
222.486373
 20
136.364073
 30
0.0
 11
222.833698
 21
136.364073
 31
0.0
  0
LINE
  5
1DD
100
AcDbEntity
  8
0
  6
Continuous
 62
   174
100
AcDbLine
 10
221.582479
 20
136.364073
 30
0.0
 11
222.486373
 21
136.364073
 31
0.0
  0
LINE
  5
1DE
100
AcDbEntity
  8
0
  6
Continuous
 62
   174
100
AcDbLine
 10
222.427181
 20
128.864073
 30
0.0
 11
218.897995
 21
128.864073
 31
0.0
  0
LINE
  5
1DF
100
AcDbEntity
  8
0
  6
Continuous
 62
   174
100
AcDbLine
 10
216.307748
 20
128.864073
 30
0.0
 11
211.32001
 21
128.864073
 31
0.0
  0
LINE
  5
1E0
100
AcDbEntity
  8
0
  6
Continuous
 62
   174
100
AcDbLine
 10
204.833573
 20
136.364073
 30
0.0
 11
205.994933
 21
136.364073
 31
0.0
  0
LINE
  5
1E1
100
AcDbEntity
  8
0
  6
Continuous
 62
   174
100
AcDbLine
 10
223.83361
 20
122.664073
 30
0.0
 11
223.516026
 21
122.664073
 31
0.0
  0
LINE
  5
1E2
100
AcDbEntity
  8
0
  6
Continuous
 62
   174
100
AcDbLine
 10
204.150395
 20
122.664073
 30
0.0
 11
203.833661
 21
122.664073
 31
0.0
  0
LINE
  5
1E3
100
AcDbEntity
  8
0
  6
Continuous
 62
   174
100
AcDbLine
 10
208.748251
 20
122.664073
 30
0.0
 11
205.220198
 21
122.664073
 31
0.0
  0
LINE
  5
1E4
100
AcDbEntity
  8
0
  6
Continuous
 62
   174
100
AcDbLine
 10
208.730138
 20
122.664073
 30
0.0
 11
208.730138
 21
128.864073
 31
0.0
  0
LINE
  5
1E5
100
AcDbEntity
  8
0
  6
HIDDEN
 62
   174
100
AcDbLine
 10
216.323757
 20
122.664073
 30
0.0
 11
216.323757
 21
128.864073
 31
0.0
  0
LINE
  5
1E6
100
AcDbEntity
  8
0
  6
Continuous
 62
   174
100
AcDbLine
 10
204.132236
 20
122.664073
 30
0.0
 11
204.132236
 21
128.864073
 31
0.0
  0
LINE
  5
1E7
100
AcDbEntity
  8
0
  6
Continuous
 62
   174
100
AcDbLine
 10
208.176812
 20
132.664073
 30
0.0
 11
205.833698
 21
132.664073
 31
0.0
  0
LINE
  5
1E8
100
AcDbEntity
  8
0
  6
Continuous
 62
   174
100
AcDbLine
 10
224.815563
 20
91.164073
 30
0.0
 11
224.815563
 21
121.164073
 31
0.0
  0
LINE
  5
1E9
100
AcDbEntity
  8
0
  6
Continuous
 62
   174
100
AcDbLine
 10
220.437901
 20
135.664073
 30
0.0
 11
220.197642
 21
135.664073
 31
0.0
  0
LINE
  5
1EA
100
AcDbEntity
  8
0
  6
Continuous
 62
   174
100
AcDbLine
 10
213.833636
 20
135.664073
 30
0.0
 11
207.469629
 21
135.664073
 31
0.0
  0
LINE
  5
1EB
100
AcDbEntity
  8
0
  6
Continuous
 62
   174
100
AcDbLine
 10
207.469629
 20
135.664073
 30
0.0
 11
207.22937
 21
135.664073
 31
0.0
  0
LINE
  5
1EC
100
AcDbEntity
  8
0
  6
Continuous
 62
   174
100
AcDbLine
 10
202.815563
 20
91.164073
 30
0.0
 11
202.815563
 21
121.164073
 31
0.0
  0
LINE
  5
1ED
100
AcDbEntity
  8
0
  6
HIDDEN
 62
   174
100
AcDbLine
 10
210.886369
 20
75.164073
 30
0.0
 11
210.833686
 21
75.164073
 31
0.0
  0
LINE
  5
1EE
100
AcDbEntity
  8
0
  6
Continuous
 62
   174
100
AcDbLine
 10
223.815563
 20
121.164073
 30
0.0
 11
223.815563
 21
122.664073
 31
0.0
  0
LINE
  5
1EF
100
AcDbEntity
  8
0
  6
Continuous
 62
   174
100
AcDbLine
 10
203.815563
 20
121.164073
 30
0.0
 11
203.815563
 21
122.664073
 31
0.0
  0
ARC
  5
1F0
100
AcDbEntity
  8
0
  6
Continuous
 62
   174
100
AcDbCircle
 10
213.815563
 20
80.164073
 30
0.0
 40
3.0
100
AcDbArc
 50
-45.0
 51
0.0
  0
LINE
  5
1F1
100
AcDbEntity
  8
0
  6
Continuous
 62
   174
100
AcDbLine
 10
215.424743
 20
74.874073
 30
0.0
 11
213.833636
 21
74.874073
 31
0.0
  0
LINE
  5
1F2
100
AcDbEntity
  8
0
  6
Continuous
 62
   174
100
AcDbLine
 10
216.325451
 20
122.664073
 30
0.0
 11
211.338422
 21
122.664073
 31
0.0
  0
LINE
  5
1F3
100
AcDbEntity
  8
0
  6
Continuous
 62
   174
100
AcDbLine
 10
221.833573
 20
132.664073
 30
0.0
 11
219.490459
 21
132.664073
 31
0.0
  0
LINE
  5
1F4
100
AcDbEntity
  8
0
  6
HIDDEN
 62
   174
100
AcDbLine
 10
224.815563
 20
91.164073
 30
0.0
 11
223.465563
 21
89.814073
 31
0.0
  0
LINE
  5
1F5
100
AcDbEntity
  8
0
  6
Continuous
 62
   174
100
AcDbLine
 10
202.690563
 20
75.164073
 30
0.0
 11
202.690563
 21
91.164073
 31
0.0
  0
LINE
  5
1F6
100
AcDbEntity
  8
0
  6
HIDDEN
 62
   174
100
AcDbLine
 10
207.333673
 20
135.664073
 30
0.0
 11
220.333598
 21
135.664073
 31
0.0
  0
LINE
  5
1F7
100
AcDbEntity
  8
0
  6
HIDDEN
 62
   174
100
AcDbLine
 10
213.905496
 20
136.364073
 30
0.0
 11
221.564436
 21
136.364073
 31
0.0
  0
LINE
  5
1F8
100
AcDbEntity
  8
0
  6
HIDDEN
 62
   174
100
AcDbLine
 10
216.833586
 20
75.164073
 30
0.0
 11
216.780903
 21
75.164073
 31
0.0
  0
LINE
  5
1F9
100
AcDbEntity
  8
0
  6
Continuous
 62
   174
100
AcDbLine
 10
213.833636
 20
74.874073
 30
0.0
 11
212.24274
 21
74.874073
 31
0.0
  0
LINE
  5
1FA
100
AcDbEntity
  8
0
  6
Continuous
 62
   174
100
AcDbLine
 10
216.083704
 20
74.874073
 30
0.0
 11
215.973453
 21
74.874073
 31
0.0
  0
ARC
  5
1FB
100
AcDbEntity
  8
0
  6
HIDDEN
 62
   174
100
AcDbCircle
 10
211.565563
 20
75.624073
 30
0.0
 40
0.75
100
AcDbArc
 50
156.244526
 51
213.122263
  0
LINE
  5
1FC
100
AcDbEntity
  8
0
  6
Continuous
 62
   174
100
AcDbLine
 10
222.427181
 20
122.664073
 30
0.0
 11
222.427181
 21
128.864073
 31
0.0
  0
LINE
  5
1FD
100
AcDbEntity
  8
0
  6
HIDDEN
 62
   174
100
AcDbLine
 10
216.815563
 20
75.164073
 30
0.0
 11
216.815563
 21
76.364073
 31
0.0
  0
LINE
  5
1FE
100
AcDbEntity
  8
0
  6
Continuous
 62
   174
100
AcDbLine
 10
223.498021
 20
122.664073
 30
0.0
 11
223.498021
 21
128.864073
 31
0.0
  0
LINE
  5
1FF
100
AcDbEntity
  8
0
  6
HIDDEN
 62
   174
100
AcDbLine
 10
208.743455
 20
122.664073
 30
0.0
 11
208.743455
 21
128.864073
 31
0.0
  0
LINE
  5
200
100
AcDbEntity
  8
0
  6
Continuous
 62
   174
100
AcDbLine
 10
205.202176
 20
122.664073
 30
0.0
 11
205.202176
 21
128.864073
 31
0.0
  0
LINE
  5
201
100
AcDbEntity
  8
0
  6
Continuous
 62
   174
100
AcDbLine
 10
202.815563
 20
121.164073
 30
0.0
 11
224.815563
 21
121.164073
 31
0.0
  0
ARC
  5
202
100
AcDbEntity
  8
0
  6
Continuous
 62
   174
100
AcDbCircle
 10
213.815563
 20
80.164073
 30
0.0
 40
3.0
100
AcDbArc
 50
-180.0
 51
-135.0
  0
ARC
  5
203
100
AcDbEntity
  8
0
  6
HIDDEN
 62
   174
100
AcDbCircle
 10
216.065563
 20
75.624073
 30
0.0
 40
0.75
100
AcDbArc
 50
-260.633211
 51
-90.0
  0
LINE
  5
204
100
AcDbEntity
  8
0
  6
Continuous
 62
   174
100
AcDbLine
 10
213.833636
 20
74.874073
 30
0.0
 11
212.24274
 21
74.874073
 31
0.0
  0
LINE
  5
205
100
AcDbEntity
  8
0
  6
Continuous
 62
   174
100
AcDbLine
 10
211.320408
 20
122.664073
 30
0.0
 11
211.320408
 21
128.864073
 31
0.0
  0
LINE
  5
206
100
AcDbEntity
  8
0
  6
HIDDEN
 62
   174
100
AcDbLine
 10
211.310735
 20
122.664073
 30
0.0
 11
211.310735
 21
128.864073
 31
0.0
  0
LINE
  5
207
100
AcDbEntity
  8
0
  6
HIDDEN
 62
   174
100
AcDbLine
 10
222.432535
 20
122.664073
 30
0.0
 11
222.432535
 21
128.864073
 31
0.0
  0
LINE
  5
208
100
AcDbEntity
  8
0
  6
Continuous
 62
   174
100
AcDbLine
 10
222.833698
 20
135.664073
 30
0.0
 11
222.168364
 21
135.664073
 31
0.0
  0
LINE
  5
209
100
AcDbEntity
  8
0
  6
Continuous
 62
   174
100
AcDbLine
 10
224.815563
 20
91.164073
 30
0.0
 11
224.940563
 21
91.164073
 31
0.0
  0
LINE
  5
20A
100
AcDbEntity
  8
0
  6
Continuous
 62
   174
100
AcDbLine
 10
202.815563
 20
91.164073
 30
0.0
 11
224.815563
 21
91.164073
 31
0.0
  0
LINE
  5
20B
100
AcDbEntity
  8
0
  6
Continuous
 62
   174
100
AcDbLine
 10
202.690563
 20
75.164073
 30
0.0
 11
224.940563
 21
75.164073
 31
0.0
  0
LINE
  5
20C
100
AcDbEntity
  8
0
  6
Continuous
 62
   174
100
AcDbLine
 10
223.815563
 20
121.164073
 30
0.0
 11
223.815563
 21
122.664073
 31
0.0
  0
LINE
  5
20D
100
AcDbEntity
  8
0
  6
Continuous
 62
   174
100
AcDbLine
 10
203.815563
 20
121.164073
 30
0.0
 11
203.815563
 21
122.664073
 31
0.0
  0
ARC
  5
20E
100
AcDbEntity
  8
0
  6
Continuous
 62
   174
100
AcDbCircle
 10
213.815563
 20
80.164073
 30
0.0
 40
2.5
100
AcDbArc
 50
-168.463041
 51
-11.536959
  0
ARC
  5
20F
100
AcDbEntity
  8
0
  6
Continuous
 62
   174
100
AcDbCircle
 10
216.065563
 20
75.624073
 30
0.0
 40
0.75
100
AcDbArc
 50
-90.0
 51
-41.512225
  0
ARC
  5
210
100
AcDbEntity
  8
0
  6
HIDDEN
 62
   174
100
AcDbCircle
 10
216.065563
 20
75.624073
 30
0.0
 40
0.75
100
AcDbArc
 50
-336.244526
 51
-279.366789
  0
LINE
  5
211
100
AcDbEntity
  8
0
  6
HIDDEN
 62
   174
100
AcDbLine
 10
213.833636
 20
76.364073
 30
0.0
 11
211.461632
 21
76.364073
 31
0.0
  0
LINE
  5
212
100
AcDbEntity
  8
0
  6
HIDDEN
 62
   174
100
AcDbLine
 10
208.815563
 20
91.164073
 30
0.0
 11
207.465563
 21
89.814073
 31
0.0
  0
LINE
  5
213
100
AcDbEntity
  8
0
  6
HIDDEN
 62
   174
100
AcDbLine
 10
207.333673
 20
132.664073
 30
0.0
 11
220.333598
 21
132.664073
 31
0.0
  0
LINE
  5
214
100
AcDbEntity
  8
0
  6
HIDDEN
 62
   174
100
AcDbLine
 10
211.7123
 20
75.164073
 30
0.0
 11
210.886369
 21
75.164073
 31
0.0
  0
LINE
  5
215
100
AcDbEntity
  8
0
  6
Continuous
 62
   174
100
AcDbLine
 10
204.815563
 20
136.364073
 30
0.0
 11
204.815563
 21
135.664073
 31
0.0
  0
LINE
  5
216
100
AcDbEntity
  8
0
  6
Continuous
 62
   174
100
AcDbLine
 10
204.815563
 20
136.364073
 30
0.0
 11
204.815563
 21
135.664073
 31
0.0
  0
ARC
  5
217
100
AcDbEntity
  8
0
  6
Continuous
 62
   174
100
AcDbCircle
 10
213.815563
 20
80.164073
 30
0.0
 40
3.0
100
AcDbArc
 50
0.0
 51
45.0
  0
LINE
  5
218
100
AcDbEntity
  8
0
  6
HIDDEN
 62
   174
100
AcDbLine
 10
213.833636
 20
76.364073
 30
0.0
 11
211.705715
 21
76.364073
 31
0.0
  0
LINE
  5
219
100
AcDbEntity
  8
0
  6
HIDDEN
 62
   174
100
AcDbLine
 10
215.961556
 20
76.364073
 30
0.0
 11
213.833636
 21
76.364073
 31
0.0
  0
LINE
  5
21A
100
AcDbEntity
  8
0
  6
Continuous
 62
   174
100
AcDbLine
 10
219.490459
 20
132.664073
 30
0.0
 11
208.176812
 21
132.664073
 31
0.0
  0
LINE
  5
21B
100
AcDbEntity
  8
0
  6
Continuous
 62
   174
100
AcDbLine
 10
205.411173
 20
135.664073
 30
0.0
 11
204.833573
 21
135.664073
 31
0.0
  0
LINE
  5
21C
100
AcDbEntity
  8
0
  6
Continuous
 62
   174
100
AcDbLine
 10
220.197642
 20
135.664073
 30
0.0
 11
213.833636
 21
135.664073
 31
0.0
  0
LINE
  5
21D
100
AcDbEntity
  8
0
  6
Continuous
 62
   174
100
AcDbLine
 10
224.940563
 20
75.164073
 30
0.0
 11
224.940563
 21
91.164073
 31
0.0
  0
LINE
  5
21E
100
AcDbEntity
  8
0
  6
HIDDEN
 62
   174
100
AcDbLine
 10
205.976757
 20
136.364073
 30
0.0
 11
213.905496
 21
136.364073
 31
0.0
  0
LINE
  5
21F
100
AcDbEntity
  8
0
  6
HIDDEN
 62
   174
100
AcDbLine
 10
216.780903
 20
75.164073
 30
0.0
 11
215.954971
 21
75.164073
 31
0.0
  0
ARC
  5
220
100
AcDbEntity
  8
0
  6
Continuous
 62
   174
100
AcDbCircle
 10
213.815563
 20
80.164073
 30
0.0
 40
3.0
100
AcDbArc
 50
-135.0
 51
-45.0
  0
ARC
  5
221
100
AcDbEntity
  8
0
  6
Continuous
 62
   174
100
AcDbCircle
 10
213.815563
 20
80.164073
 30
0.0
 40
3.0
100
AcDbArc
 50
-315.0
 51
-225.0
  0
LINE
  5
222
100
AcDbEntity
  8
0
  6
Continuous
 62
   174
100
AcDbLine
 10
216.265053
 20
80.664073
 30
0.0
 11
211.366073
 21
80.664073
 31
0.0
  0
ARC
  5
223
100
AcDbEntity
  8
0
  6
Continuous
 62
   174
100
AcDbCircle
 10
211.565563
 20
75.624073
 30
0.0
 40
0.75
100
AcDbArc
 50
221.512225
 51
270.0
  0
LINE
  5
224
100
AcDbEntity
  8
0
  6
Continuous
 62
   174
100
AcDbLine
 10
215.973453
 20
74.874073
 30
0.0
 11
215.424743
 21
74.874073
 31
0.0
  0
LINE
  5
225
100
AcDbEntity
  8
0
  6
Continuous
 62
   174
100
AcDbLine
 10
216.083704
 20
74.874073
 30
0.0
 11
215.424743
 21
74.874073
 31
0.0
  0
ARC
  5
226
100
AcDbEntity
  8
0
  6
HIDDEN
 62
   174
100
AcDbCircle
 10
211.565563
 20
75.624073
 30
0.0
 40
0.75
100
AcDbArc
 50
-90.0
 51
80.633211
  0
LINE
  5
227
100
AcDbEntity
  8
0
  6
HIDDEN
 62
   174
100
AcDbLine
 10
216.20564
 20
76.364073
 30
0.0
 11
213.833636
 21
76.364073
 31
0.0
  0
LINE
  5
228
100
AcDbEntity
  8
0
  6
Continuous
 62
   174
100
AcDbLine
 10
218.897995
 20
122.664073
 30
0.0
 11
218.897995
 21
128.864073
 31
0.0
  0
LINE
  5
229
100
AcDbEntity
  8
0
  6
HIDDEN
 62
   174
100
AcDbLine
 10
202.815563
 20
91.164073
 30
0.0
 11
204.165563
 21
89.814073
 31
0.0
  0
LINE
  5
22A
100
AcDbEntity
  8
0
  6
HIDDEN
 62
   174
100
AcDbLine
 10
218.815563
 20
91.164073
 30
0.0
 11
220.165563
 21
89.814073
 31
0.0
  0
LINE
  5
22B
100
AcDbEntity
  8
0
  6
HIDDEN
 62
   174
100
AcDbLine
 10
216.833586
 20
76.364073
 30
0.0
 11
213.833636
 21
76.364073
 31
0.0
  0
LINE
  5
22C
100
AcDbEntity
  8
0
  6
HIDDEN
 62
   174
100
AcDbLine
 10
210.833686
 20
76.364073
 30
0.0
 11
213.833636
 21
76.364073
 31
0.0
  0
LINE
  5
22D
100
AcDbEntity
  8
0
  6
HIDDEN
 62
   174
100
AcDbLine
 10
213.833636
 20
75.164073
 30
0.0
 11
211.7123
 21
75.164073
 31
0.0
  0
LINE
  5
22E
100
AcDbEntity
  8
0
  6
HIDDEN
 62
   174
100
AcDbLine
 10
215.954971
 20
75.164073
 30
0.0
 11
213.833636
 21
75.164073
 31
0.0
  0
LINE
  5
22F
100
AcDbEntity
  8
0
  6
HIDDEN
 62
   174
100
AcDbLine
 10
223.83361
 20
121.164073
 30
0.0
 11
203.833661
 21
121.164073
 31
0.0
  0
LINE
  5
230
100
AcDbEntity
  8
0
  6
Continuous
 62
   174
100
AcDbLine
 10
222.815563
 20
136.364073
 30
0.0
 11
222.815563
 21
135.664073
 31
0.0
  0
LINE
  5
231
100
AcDbEntity
  8
0
  6
Continuous
 62
   174
100
AcDbLine
 10
222.815563
 20
136.364073
 30
0.0
 11
222.815563
 21
135.664073
 31
0.0
  0
LINE
  5
232
100
AcDbEntity
  8
0
  6
Continuous
 62
   174
100
AcDbLine
 10
211.366073
 20
79.664073
 30
0.0
 11
216.265053
 21
79.664073
 31
0.0
  0
ARC
  5
233
100
AcDbEntity
  8
0
  6
Continuous
 62
   174
100
AcDbCircle
 10
213.815563
 20
80.164073
 30
0.0
 40
2.5
100
AcDbArc
 50
-348.463041
 51
-191.536959
  0
LINE
  5
234
100
AcDbEntity
  8
0
  6
Continuous
 62
   174
100
AcDbLine
 10
212.24274
 20
74.874073
 30
0.0
 11
211.693819
 21
74.874073
 31
0.0
  0
ARC
  5
235
100
AcDbEntity
  8
0
  6
HIDDEN
 62
   174
100
AcDbCircle
 10
211.565563
 20
75.624073
 30
0.0
 40
0.75
100
AcDbArc
 50
213.122263
 51
221.512225
  0
ARC
  5
236
100
AcDbEntity
  8
0
  6
HIDDEN
 62
   174
100
AcDbCircle
 10
216.065563
 20
75.624073
 30
0.0
 40
0.75
100
AcDbArc
 50
-41.512225
 51
-33.122263
  0
LINE
  5
237
100
AcDbEntity
  8
0
  6
Continuous
 62
   174
100
AcDbLine
 10
222.445374
 20
122.664073
 30
0.0
 11
218.916046
 21
122.664073
 31
0.0
  0
LINE
  5
238
100
AcDbEntity
  8
0
  6
HIDDEN
 62
   174
100
AcDbLine
 10
210.815563
 20
75.164073
 30
0.0
 11
210.815563
 21
76.364073
 31
0.0
  0
LINE
  5
239
100
AcDbEntity
  8
0
  6
Continuous
 62
   174
100
AcDbLine
 10
216.30735
 20
122.664073
 30
0.0
 11
216.30735
 21
128.864073
 31
0.0
  0
LINE
  5
23A
100
AcDbEntity
  8
0
  6
HIDDEN
 62
   174
100
AcDbLine
 10
218.890668
 20
122.664073
 30
0.0
 11
218.890668
 21
128.864073
 31
0.0
  0
LINE
  5
23B
100
AcDbEntity
  8
0
  6
HIDDEN
 62
   174
100
AcDbLine
 10
205.200355
 20
122.664073
 30
0.0
 11
205.200355
 21
128.864073
 31
0.0
  0
LINE
  5
23C
100
AcDbEntity
  8
0
  6
Continuous
 62
   174
100
AcDbLine
 10
222.168364
 20
135.664073
 30
0.0
 11
220.437901
 21
135.664073
 31
0.0
  0
LINE
  5
23D
100
AcDbEntity
  8
0
  6
Continuous
 62
   174
100
AcDbLine
 10
207.22937
 20
135.664073
 30
0.0
 11
205.411173
 21
135.664073
 31
0.0
  0
LINE
  5
23E
100
AcDbEntity
  8
0
  6
Continuous
 62
   174
100
AcDbLine
 10
202.690563
 20
91.164073
 30
0.0
 11
202.815563
 21
91.164073
 31
0.0
  0
LINE
  5
23F
100
AcDbEntity
  8
0
  6
Continuous
 62
   174
100
AcDbLine
 10
202.815563
 20
91.164073
 30
0.0
 11
224.815563
 21
91.164073
 31
0.0
  0
ARC
  5
240
100
AcDbEntity
  8
0
  6
Continuous
 62
   174
100
AcDbCircle
 10
213.815563
 20
80.164073
 30
0.0
 40
3.0
100
AcDbArc
 50
-225.0
 51
-180.0
  0
LINE
  5
241
100
AcDbEntity
  8
0
  6
Continuous
 62
   174
100
AcDbLine
 10
212.24274
 20
74.874073
 30
0.0
 11
211.583992
 21
74.874073
 31
0.0
  0
LINE
  5
242
100
AcDbEntity
  8
0
  6
Continuous
 62
   174
100
AcDbLine
 10
215.424743
 20
74.874073
 30
0.0
 11
213.833636
 21
74.874073
 31
0.0
  0
ARC
  5
243
100
AcDbEntity
  8
0
  6
HIDDEN
 62
   174
100
AcDbCircle
 10
211.565563
 20
75.624073
 30
0.0
 40
0.75
100
AcDbArc
 50
99.366789
 51
156.244526
  0
ARC
  5
244
100
AcDbEntity
  8
0
  6
HIDDEN
 62
   174
100
AcDbCircle
 10
216.065563
 20
75.624073
 30
0.0
 40
0.75
100
AcDbArc
 50
-33.122263
 51
23.755474
  0
LWPOLYLINE
  5
245
100
AcDbEntity
  8
0
  6
Continuous
 62
   174
100
AcDbPolyline
 90
        4
 70
   128
 10
221.564436
 20
138.978304
 10
221.098977
 20
139.413578
 10
220.623273
 20
139.811004
 10
220.136298
 20
140.164073
  0
LWPOLYLINE
  5
246
100
AcDbEntity
  8
0
  6
HIDDEN
 62
   174
100
AcDbPolyline
 90
        4
 70
   128
 10
212.552278
 20
140.164073
 10
213.013223
 20
139.805084
 10
213.463926
 20
139.408068
 10
213.905496
 20
138.978354
  0
LINE
  5
247
100
AcDbEntity
  8
0
  6
HIDDEN
 62
   174
100
AcDbLine
 10
207.483649
 20
89.814073
 30
0.0
 11
205.833698
 21
89.814073
 31
0.0
  0
LINE
  5
248
100
AcDbEntity
  8
0
  6
HIDDEN
 62
   174
100
AcDbLine
 10
208.522224
 20
128.864073
 30
0.0
 11
207.361502
 21
128.864073
 31
0.0
  0
LWPOLYLINE
  5
249
100
AcDbEntity
  8
0
  6
Continuous
 62
   174
100
AcDbPolyline
 90
        4
 70
   128
 10
215.333634
 20
140.164073
 10
214.846656
 20
139.811002
 10
214.370956
 20
139.413579
 10
213.905496
 20
138.978304
  0
LWPOLYLINE
  5
24A
100
AcDbEntity
  8
0
  6
Continuous
 62
   174
100
AcDbPolyline
 90
        4
 70
   128
 10
207.330038
 20
140.164073
 10
206.869071
 20
139.805072
 10
206.418347
 20
139.408038
 10
205.976757
 20
138.978304
  0
LINE
  5
24B
100
AcDbEntity
  8
0
  6
Continuous
 62
   174
100
AcDbLine
 10
205.220198
 20
128.864073
 30
0.0
 11
204.150395
 21
128.864073
 31
0.0
  0
LINE
  5
24C
100
AcDbEntity
  8
0
  6
Continuous
 62
   174
100
AcDbLine
 10
218.916046
 20
128.864073
 30
0.0
 11
216.325876
 21
128.864073
 31
0.0
  0
LINE
  5
24D
100
AcDbEntity
  8
0
  6
Continuous
 62
   174
100
AcDbLine
 10
221.815563
 20
128.864073
 30
0.0
 11
221.815563
 21
132.664073
 31
0.0
  0
LINE
  5
24E
100
AcDbEntity
  8
0
  6
Continuous
 62
   174
100
AcDbLine
 10
213.905496
 20
138.978304
 30
0.0
 11
213.905496
 21
136.364073
 31
0.0
  0
LINE
  5
24F
100
AcDbEntity
  8
0
  6
HIDDEN
 62
   174
100
AcDbLine
 10
223.465563
 20
89.814073
 30
0.0
 11
223.465563
 21
75.164073
 31
0.0
  0
LINE
  5
250
100
AcDbEntity
  8
0
  6
HIDDEN
 62
   174
100
AcDbLine
 10
211.307137
 20
122.664073
 30
0.0
 11
216.327354
 21
122.664073
 31
0.0
  0
LINE
  5
251
100
AcDbEntity
  8
0
  6
HIDDEN
 62
   174
100
AcDbLine
 10
220.183622
 20
75.164073
 30
0.0
 11
221.833573
 21
75.164073
 31
0.0
  0
LINE
  5
252
100
AcDbEntity
  8
0
  6
HIDDEN
 62
   174
100
AcDbLine
 10
223.954908
 20
91.164073
 30
0.0
 11
224.833735
 21
91.164073
 31
0.0
  0
LINE
  5
253
100
AcDbEntity
  8
0
  6
HIDDEN
 62
   174
100
AcDbLine
 10
220.165563
 20
89.814073
 30
0.0
 11
220.165563
 21
75.164073
 31
0.0
  0
LINE
  5
254
100
AcDbEntity
  8
0
  6
Continuous
 62
   174
100
AcDbLine
 10
221.582479
 20
140.164073
 30
0.0
 11
220.154306
 21
140.164073
 31
0.0
  0
LWPOLYLINE
  5
255
100
AcDbEntity
  8
0
  6
HIDDEN
 62
   174
100
AcDbPolyline
 90
        4
 70
   128
 10
213.905496
 20
138.978354
 10
214.370934
 20
139.413607
 10
214.846615
 20
139.811016
 10
215.333566
 20
140.164073
  0
LINE
  5
256
100
AcDbEntity
  8
0
  6
HIDDEN
 62
   174
100
AcDbLine
 10
220.305769
 20
128.864073
 30
0.0
 11
219.14271
 21
128.864073
 31
0.0
  0
LINE
  5
257
100
AcDbEntity
  8
0
  6
HIDDEN
 62
   174
100
AcDbLine
 10
216.305695
 20
128.864073
 30
0.0
 11
211.333961
 21
128.864073
 31
0.0
  0
LINE
  5
258
100
AcDbEntity
  8
0
  6
HIDDEN
 62
   174
100
AcDbLine
 10
213.905496
 20
138.978354
 30
0.0
 11
213.905496
 21
136.364073
 31
0.0
  0
LINE
  5
259
100
AcDbEntity
  8
0
  6
HIDDEN
 62
   174
100
AcDbLine
 10
223.483737
 20
89.814073
 30
0.0
 11
221.833573
 21
89.814073
 31
0.0
  0
LINE
  5
25A
100
AcDbEntity
  8
0
  6
Continuous
 62
   174
100
AcDbLine
 10
220.315563
 20
135.664073
 30
0.0
 11
220.315563
 21
132.664073
 31
0.0
  0
LINE
  5
25B
100
AcDbEntity
  8
0
  6
HIDDEN
 62
   174
100
AcDbLine
 10
218.888301
 20
122.664073
 30
0.0
 11
222.433809
 21
122.664073
 31
0.0
  0
LINE
  5
25C
100
AcDbEntity
  8
0
  6
Continuous
 62
   174
100
AcDbLine
 10
207.315563
 20
135.664073
 30
0.0
 11
207.315563
 21
132.664073
 31
0.0
  0
LINE
  5
25D
100
AcDbEntity
  8
0
  6
Continuous
 62
   174
100
AcDbLine
 10
220.315563
 20
135.664073
 30
0.0
 11
220.315563
 21
132.664073
 31
0.0
  0
LINE
  5
25E
100
AcDbEntity
  8
0
  6
HIDDEN
 62
   174
100
AcDbLine
 10
205.199079
 20
122.664073
 30
0.0
 11
208.745823
 21
122.664073
 31
0.0
  0
LINE
  5
25F
100
AcDbEntity
  8
0
  6
HIDDEN
 62
   174
100
AcDbLine
 10
207.483649
 20
89.814073
 30
0.0
 11
205.833698
 21
89.814073
 31
0.0
  0
LINE
  5
260
100
AcDbEntity
  8
0
  6
HIDDEN
 62
   174
100
AcDbLine
 10
207.465563
 20
89.814073
 30
0.0
 11
207.465563
 21
75.164073
 31
0.0
  0
LINE
  5
261
100
AcDbEntity
  8
0
  6
Continuous
 62
   174
100
AcDbLine
 10
223.516026
 20
128.864073
 30
0.0
 11
222.445374
 21
128.864073
 31
0.0
  0
LINE
  5
262
100
AcDbEntity
  8
0
  6
Continuous
 62
   174
100
AcDbLine
 10
220.136298
 20
140.164073
 30
0.0
 11
215.333634
 21
140.164073
 31
0.0
  0
LINE
  5
263
100
AcDbEntity
  8
0
  6
Continuous
 62
   174
100
AcDbLine
 10
205.815563
 20
128.864073
 30
0.0
 11
205.815563
 21
132.664073
 31
0.0
  0
LINE
  5
264
100
AcDbEntity
  8
0
  6
Continuous
 62
   174
100
AcDbLine
 10
221.564436
 20
138.978304
 30
0.0
 11
221.564436
 21
136.364073
 31
0.0
  0
LINE
  5
265
100
AcDbEntity
  8
0
  6
HIDDEN
 62
   174
100
AcDbLine
 10
221.833573
 20
128.864073
 30
0.0
 11
220.305769
 21
128.864073
 31
0.0
  0
LWPOLYLINE
  5
266
100
AcDbEntity
  8
0
  6
HIDDEN
 62
   174
100
AcDbPolyline
 90
        4
 70
   128
 10
220.136366
 20
140.164073
 10
220.62332
 20
139.811014
 10
221.098997
 20
139.413608
 10
221.564436
 20
138.978354
  0
LINE
  5
267
100
AcDbEntity
  8
0
  6
Continuous
 62
   174
100
AcDbLine
 10
215.351667
 20
140.164073
 30
0.0
 11
212.570309
 21
140.164073
 31
0.0
  0
LINE
  5
268
100
AcDbEntity
  8
0
  6
HIDDEN
 62
   174
100
AcDbLine
 10
221.833573
 20
89.814073
 30
0.0
 11
220.183622
 21
89.814073
 31
0.0
  0
LINE
  5
269
100
AcDbEntity
  8
0
  6
HIDDEN
 62
   174
100
AcDbLine
 10
218.833623
 20
91.164073
 30
0.0
 11
221.833573
 21
91.164073
 31
0.0
  0
LINE
  5
26A
100
AcDbEntity
  8
0
  6
HIDDEN
 62
   174
100
AcDbLine
 10
203.712363
 20
91.164073
 30
0.0
 11
205.833698
 21
91.164073
 31
0.0
  0
LWPOLYLINE
  5
26B
100
AcDbEntity
  8
0
  6
HIDDEN
 62
   174
100
AcDbPolyline
 90
        4
 70
   128
 10
205.976757
 20
138.978354
 10
206.418316
 20
139.408058
 10
206.869022
 20
139.805077
 10
207.329975
 20
140.164073
  0
LWPOLYLINE
  5
26C
100
AcDbEntity
  8
0
  6
Continuous
 62
   174
100
AcDbPolyline
 90
        4
 70
   128
 10
213.905496
 20
138.978304
 10
213.463917
 20
139.408028
 10
213.01319
 20
139.805065
 10
212.552215
 20
140.164073
  0
LINE
  5
26D
100
AcDbEntity
  8
0
  6
HIDDEN
 62
   174
100
AcDbLine
 10
204.183747
 20
75.164073
 30
0.0
 11
205.833698
 21
75.164073
 31
0.0
  0
LINE
  5
26E
100
AcDbEntity
  8
0
  6
Continuous
 62
   174
100
AcDbLine
 10
221.815563
 20
128.864073
 30
0.0
 11
221.815563
 21
132.664073
 31
0.0
  0
LINE
  5
26F
100
AcDbEntity
  8
0
  6
HIDDEN
 62
   174
100
AcDbLine
 10
211.333961
 20
128.864073
 30
0.0
 11
208.522224
 21
128.864073
 31
0.0
  0
LINE
  5
270
100
AcDbEntity
  8
0
  6
HIDDEN
 62
   174
100
AcDbLine
 10
221.833573
 20
91.164073
 30
0.0
 11
223.954908
 21
91.164073
 31
0.0
  0
LINE
  5
271
100
AcDbEntity
  8
0
  6
HIDDEN
 62
   174
100
AcDbLine
 10
204.165563
 20
89.814073
 30
0.0
 11
204.165563
 21
75.164073
 31
0.0
  0
LINE
  5
272
100
AcDbEntity
  8
0
  6
Continuous
 62
   174
100
AcDbLine
 10
207.348119
 20
140.164073
 30
0.0
 11
205.994933
 21
140.164073
 31
0.0
  0
LINE
  5
273
100
AcDbEntity
  8
0
  6
HIDDEN
 62
   174
100
AcDbLine
 10
205.833698
 20
89.814073
 30
0.0
 11
204.183747
 21
89.814073
 31
0.0
  0
LINE
  5
274
100
AcDbEntity
  8
0
  6
Continuous
 62
   174
100
AcDbLine
 10
212.552215
 20
140.164073
 30
0.0
 11
207.330038
 21
140.164073
 31
0.0
  0
LINE
  5
275
100
AcDbEntity
  8
0
  6
HIDDEN
 62
   174
100
AcDbLine
 10
221.833573
 20
75.164073
 30
0.0
 11
223.483737
 21
75.164073
 31
0.0
  0
LWPOLYLINE
  5
276
100
AcDbEntity
  8
0
  6
Continuous
 62
   174
100
AcDbPolyline
 90
        4
 70
   128
 10
221.564436
 20
140.164073
 10
221.564436
 20
139.805072
 10
221.564436
 20
139.408038
 10
221.564436
 20
138.978304
  0
LINE
  5
277
100
AcDbEntity
  8
0
  6
HIDDEN
 62
   174
100
AcDbLine
 10
202.833748
 20
91.164073
 30
0.0
 11
203.712363
 21
91.164073
 31
0.0
  0
LWPOLYLINE
  5
278
100
AcDbEntity
  8
0
  6
Continuous
 62
   174
100
AcDbPolyline
 90
        4
 70
   128
 10
205.976757
 20
138.978304
 10
205.976757
 20
139.413578
 10
205.976757
 20
139.811004
 10
205.976757
 20
140.164073
  0
LINE
  5
279
100
AcDbEntity
  8
0
  6
Continuous
 62
   174
100
AcDbLine
 10
207.315563
 20
135.664073
 30
0.0
 11
207.315563
 21
132.664073
 31
0.0
  0
LINE
  5
27A
100
AcDbEntity
  8
0
  6
Continuous
 62
   174
100
AcDbLine
 10
211.338209
 20
128.864073
 30
0.0
 11
208.748463
 21
128.864073
 31
0.0
  0
LINE
  5
27B
100
AcDbEntity
  8
0
  6
HIDDEN
 62
   174
100
AcDbLine
 10
205.833698
 20
75.164073
 30
0.0
 11
207.483649
 21
75.164073
 31
0.0
  0
LINE
  5
27C
100
AcDbEntity
  8
0
  6
HIDDEN
 62
   174
100
AcDbLine
 10
223.483737
 20
89.814073
 30
0.0
 11
221.833573
 21
89.814073
 31
0.0
  0
LINE
  5
27D
100
AcDbEntity
  8
0
  6
HIDDEN
 62
   174
100
AcDbLine
 10
205.833698
 20
91.164073
 30
0.0
 11
208.833648
 21
91.164073
 31
0.0
  0
LINE
  5
27E
100
AcDbEntity
  8
0
  6
HIDDEN
 62
   174
100
AcDbLine
 10
207.361502
 20
128.864073
 30
0.0
 11
205.833698
 21
128.864073
 31
0.0
  0
LINE
  5
27F
100
AcDbEntity
  8
0
  6
HIDDEN
 62
   174
100
AcDbLine
 10
205.833698
 20
89.814073
 30
0.0
 11
204.183747
 21
89.814073
 31
0.0
  0
LINE
  5
280
100
AcDbEntity
  8
0
  6
HIDDEN
 62
   174
100
AcDbLine
 10
221.833573
 20
89.814073
 30
0.0
 11
220.183622
 21
89.814073
 31
0.0
  0
LINE
  5
281
100
AcDbEntity
  8
0
  6
Continuous
 62
   174
100
AcDbLine
 10
205.815563
 20
128.864073
 30
0.0
 11
205.815563
 21
132.664073
 31
0.0
  0
LINE
  5
282
100
AcDbEntity
  8
0
  6
HIDDEN
 62
   174
100
AcDbLine
 10
219.14271
 20
128.864073
 30
0.0
 11
216.305695
 21
128.864073
 31
0.0
  0
ENDBLK
  5
283
100
AcDbEntity
  8
0
100
AcDbBlockEnd
  0
BLOCK
  5
286
100
AcDbEntity
  8
0
100
AcDbBlockBegin
  2
*B8
 70
     0
 10
0.0
 20
0.0
 30
0.0
  3
*B8
  1

  0
LINE
  5
287
100
AcDbEntity
  8
0
  6
Continuous
 62
     0
100
AcDbLine
 10
143.082019
 20
62.014756
 30
0.0
 11
118.082083
 21
62.014756
 31
0.0
  0
SOLID
  5
288
100
AcDbEntity
  8
0
  6
Continuous
 62
     0
100
AcDbTrace
 10
139.582219
 20
62.614661
 30
0.0
 11
136.082207
 21
62.014756
 31
0.0
 12
139.582219
 22
61.414639
 32
0.0
 13
139.582219
 23
61.414639
 33
0.0
  0
SOLID
  5
289
100
AcDbEntity
  8
0
  6
Continuous
 62
     0
100
AcDbTrace
 10
121.582095
 20
61.414639
 30
0.0
 11
125.082107
 21
62.014756
 31
0.0
 12
121.582095
 22
62.614661
 32
0.0
 13
121.582095
 23
62.614661
 33
0.0
  0
ENDBLK
  5
28A
100
AcDbEntity
  8
0
100
AcDbBlockEnd
  0
BLOCK
  5
28D
100
AcDbEntity
  8
0
100
AcDbBlockBegin
  2
*B9
 70
     0
 10
0.0
 20
0.0
 30
0.0
  3
*B9
  1

  0
LINE
  5
28E
100
AcDbEntity
  8
0
  6
Continuous
 62
     0
100
AcDbLine
 10
138.082032
 20
50.015381
 30
0.0
 11
162.082056
 21
50.015381
 31
0.0
  0
SOLID
  5
28F
100
AcDbEntity
  8
0
  6
Continuous
 62
     0
100
AcDbTrace
 10
141.582044
 20
49.415476
 30
0.0
 11
145.082057
 21
50.015381
 31
0.0
 12
141.582044
 22
50.615286
 32
0.0
 13
141.582044
 23
50.615286
 33
0.0
  0
SOLID
  5
290
100
AcDbEntity
  8
0
  6
Continuous
 62
     0
100
AcDbTrace
 10
158.582044
 20
50.615286
 30
0.0
 11
155.082031
 21
50.015381
 31
0.0
 12
158.582044
 22
49.415476
 32
0.0
 13
158.582044
 23
49.415476
 33
0.0
  0
ENDBLK
  5
291
100
AcDbEntity
  8
0
100
AcDbBlockEnd
  0
BLOCK
  5
294
100
AcDbEntity
  8
0
100
AcDbBlockBegin
  2
*B10
 70
     0
 10
0.0
 20
0.0
 30
0.0
  3
*B10
  1

  0
LINE
  5
295
100
AcDbEntity
  8
0
  6
Continuous
 62
     0
100
AcDbLine
 10
107.625169
 20
50.015381
 30
0.0
 11
85.375151
 21
50.015381
 31
0.0
  0
SOLID
  5
296
100
AcDbEntity
  8
0
  6
Continuous
 62
     0
100
AcDbTrace
 10
104.125156
 20
49.415476
 30
0.0
 11
107.625169
 21
50.015381
 31
0.0
 12
104.125156
 22
50.615286
 32
0.0
 13
104.125156
 23
50.615286
 33
0.0
  0
SOLID
  5
297
100
AcDbEntity
  8
0
  6
Continuous
 62
     0
100
AcDbTrace
 10
88.875163
 20
50.615286
 30
0.0
 11
85.375151
 21
50.015381
 31
0.0
 12
88.875163
 22
49.415476
 32
0.0
 13
88.875163
 23
49.415476
 33
0.0
  0
ENDBLK
  5
298
100
AcDbEntity
  8
0
100
AcDbBlockEnd
  0
BLOCK
  5
29B
100
AcDbEntity
  8
0
100
AcDbBlockBegin
  2
*B11
 70
     0
 10
0.0
 20
0.0
 30
0.0
  3
*B11
  1

  0
LINE
  5
29C
100
AcDbEntity
  8
0
  6
Continuous
 62
     0
100
AcDbLine
 10
86.500185
 20
62.014756
 30
0.0
 11
113.234196
 21
62.014756
 31
0.0
  0
SOLID
  5
29D
100
AcDbEntity
  8
0
  6
Continuous
 62
     0
100
AcDbTrace
 10
90.000197
 20
61.414639
 30
0.0
 11
93.50021
 21
62.014756
 31
0.0
 12
90.000197
 22
62.614661
 32
0.0
 13
90.000197
 23
62.614661
 33
0.0
  0
SOLID
  5
29E
100
AcDbEntity
  8
0
  6
Continuous
 62
     0
100
AcDbTrace
 10
103.000122
 20
62.614661
 30
0.0
 11
99.50011
 21
62.014756
 31
0.0
 12
103.000122
 22
61.414639
 32
0.0
 13
103.000122
 23
61.414639
 33
0.0
  0
ENDBLK
  5
29F
100
AcDbEntity
  8
0
100
AcDbBlockEnd
  0
BLOCK
  5
2A2
100
AcDbEntity
  8
0
100
AcDbBlockBegin
  2
*B12
 70
     0
 10
0.0
 20
0.0
 30
0.0
  3
*B12
  1

  0
LINE
  5
2A3
100
AcDbEntity
  8
0
  6
Continuous
 62
     0
100
AcDbLine
 10
214.483674
 20
63.514518
 30
0.0
 11
186.72171
 21
63.514518
 31
0.0
  0
SOLID
  5
2A4
100
AcDbEntity
  8
0
  6
Continuous
 62
     0
100
AcDbTrace
 10
210.983662
 20
64.114636
 30
0.0
 11
207.483649
 21
63.514518
 31
0.0
 12
210.983662
 22
62.914613
 32
0.0
 13
210.983662
 23
62.914613
 33
0.0
  0
SOLID
  5
2A5
100
AcDbEntity
  8
0
  6
Continuous
 62
     0
100
AcDbTrace
 10
200.683735
 20
62.914613
 30
0.0
 11
204.183747
 21
63.514518
 31
0.0
 12
200.683735
 22
64.114636
 32
0.0
 13
200.683735
 23
64.114636
 33
0.0
  0
ENDBLK
  5
2A6
100
AcDbEntity
  8
0
100
AcDbBlockEnd
  0
BLOCK
  5
2A9
100
AcDbEntity
  8
0
100
AcDbBlockBegin
  2
*B13
 70
     0
 10
0.0
 20
0.0
 30
0.0
  3
*B13
  1

  0
LINE
  5
2AA
100
AcDbEntity
  8
0
  6
Continuous
 62
     0
100
AcDbLine
 10
221.833573
 20
51.515356
 30
0.0
 11
205.833698
 21
51.515356
 31
0.0
  0
SOLID
  5
2AB
100
AcDbEntity
  8
0
  6
Continuous
 62
     0
100
AcDbTrace
 10
218.33356
 20
50.915239
 30
0.0
 11
221.833573
 21
51.515356
 31
0.0
 12
218.33356
 22
52.115261
 32
0.0
 13
218.33356
 23
52.115261
 33
0.0
  0
SOLID
  5
2AC
100
AcDbEntity
  8
0
  6
Continuous
 62
     0
100
AcDbTrace
 10
209.333711
 20
52.115261
 30
0.0
 11
205.833698
 21
51.515356
 31
0.0
 12
209.333711
 22
50.915239
 32
0.0
 13
209.333711
 23
50.915239
 33
0.0
  0
ENDBLK
  5
2AD
100
AcDbEntity
  8
0
100
AcDbBlockEnd
  0
BLOCK
  5
2B0
100
AcDbEntity
  8
0
100
AcDbBlockBegin
  2
*B14
 70
     0
 10
0.0
 20
0.0
 30
0.0
  3
*B14
  1

  0
LINE
  5
2B1
100
AcDbEntity
  8
0
  6
Continuous
 62
     0
100
AcDbLine
 10
237.018137
 20
91.177065
 30
0.0
 11
237.018137
 21
75.17804
 31
0.0
  0
SOLID
  5
2B2
100
AcDbEntity
  8
0
  6
Continuous
 62
     0
100
AcDbTrace
 10
237.618042
 20
87.677265
 30
0.0
 11
237.018137
 21
91.177065
 31
0.0
 12
236.41802
 22
87.677265
 32
0.0
 13
236.41802
 23
87.677265
 33
0.0
  0
SOLID
  5
2B3
100
AcDbEntity
  8
0
  6
Continuous
 62
     0
100
AcDbTrace
 10
236.41802
 20
78.67784
 30
0.0
 11
237.018137
 21
75.17804
 31
0.0
 12
237.618042
 22
78.67784
 32
0.0
 13
237.618042
 23
78.67784
 33
0.0
  0
ENDBLK
  5
2B4
100
AcDbEntity
  8
0
100
AcDbBlockEnd
  0
BLOCK
  5
2B7
100
AcDbEntity
  8
0
100
AcDbBlockBegin
  2
*B15
 70
     0
 10
0.0
 20
0.0
 30
0.0
  3
*B15
  1

  0
LINE
  5
2B8
100
AcDbEntity
  8
0
  6
Continuous
 62
     0
100
AcDbLine
 10
155.082031
 20
141.01018
 30
0.0
 11
125.082107
 21
141.01018
 31
0.0
  0
SOLID
  5
2B9
100
AcDbEntity
  8
0
  6
Continuous
 62
     0
100
AcDbTrace
 10
151.582019
 20
140.410275
 30
0.0
 11
155.082031
 21
141.01018
 31
0.0
 12
151.582019
 22
141.610298
 32
0.0
 13
151.582019
 23
141.610298
 33
0.0
  0
SOLID
  5
2BA
100
AcDbEntity
  8
0
  6
Continuous
 62
     0
100
AcDbTrace
 10
128.58212
 20
141.610298
 30
0.0
 11
125.082107
 21
141.01018
 31
0.0
 12
128.58212
 22
140.410275
 32
0.0
 13
128.58212
 23
140.410275
 33
0.0
  0
ENDBLK
  5
2BB
100
AcDbEntity
  8
0
100
AcDbBlockEnd
  0
BLOCK
  5
2BE
100
AcDbEntity
  8
0
100
AcDbBlockBegin
  2
*B16
 70
     0
 10
0.0
 20
0.0
 30
0.0
  3
*B16
  1

  0
LINE
  5
2BF
100
AcDbEntity
  8
0
  6
Continuous
 62
     0
100
AcDbLine
 10
183.081706
 20
154.009468
 30
0.0
 11
125.082107
 21
154.009468
 31
0.0
  0
SOLID
  5
2C0
100
AcDbEntity
  8
0
  6
Continuous
 62
     0
100
AcDbTrace
 10
179.581693
 20
153.409563
 30
0.0
 11
183.081706
 21
154.009468
 31
0.0
 12
179.581693
 22
154.609373
 32
0.0
 13
179.581693
 23
154.609373
 33
0.0
  0
SOLID
  5
2C1
100
AcDbEntity
  8
0
  6
Continuous
 62
     0
100
AcDbTrace
 10
128.58212
 20
154.609373
 30
0.0
 11
125.082107
 21
154.009468
 31
0.0
 12
128.58212
 22
153.409563
 32
0.0
 13
128.58212
 23
153.409563
 33
0.0
  0
ENDBLK
  5
2C2
100
AcDbEntity
  8
0
100
AcDbBlockEnd
  0
BLOCK
  5
2C5
100
AcDbEntity
  8
0
100
AcDbBlockBegin
  2
*B17
 70
     0
 10
0.0
 20
0.0
 30
0.0
  3
*B17
  1

  0
LINE
  5
2C6
100
AcDbEntity
  8
0
  6
Continuous
 62
     0
100
AcDbLine
 10
194.018076
 20
91.1469
 30
0.0
 11
194.018076
 21
140.144099
 31
0.0
  0
SOLID
  5
2C7
100
AcDbEntity
  8
0
  6
Continuous
 62
     0
100
AcDbTrace
 10
193.418171
 20
94.6467
 30
0.0
 11
194.018076
 21
91.1469
 31
0.0
 12
194.618194
 22
94.6467
 32
0.0
 13
194.618194
 23
94.6467
 33
0.0
  0
SOLID
  5
2C8
100
AcDbEntity
  8
0
  6
Continuous
 62
     0
100
AcDbTrace
 10
194.618194
 20
136.644299
 30
0.0
 11
194.018076
 21
140.144099
 31
0.0
 12
193.418171
 22
136.644299
 32
0.0
 13
193.418171
 23
136.644299
 33
0.0
  0
ENDBLK
  5
2C9
100
AcDbEntity
  8
0
100
AcDbBlockEnd
  0
BLOCK
  5
2CC
100
AcDbEntity
  8
0
100
AcDbBlockBegin
  2
*B18
 70
     0
 10
0.0
 20
0.0
 30
0.0
  3
*B18
  1

  0
LINE
  5
2CD
100
AcDbEntity
  8
0
  6
Continuous
 62
     8
100
AcDbLine
 10
87.500098
 20
83.147387
 30
0.0
 11
95.000185
 21
83.147387
 31
0.0
  0
LINE
  5
2CE
100
AcDbEntity
  8
0
  6
Continuous
 62
     8
100
AcDbLine
 10
98.000135
 20
83.147387
 30
0.0
 11
105.500222
 21
83.147387
 31
0.0
  0
ENDBLK
  5
2CF
100
AcDbEntity
  8
0
100
AcDbBlockEnd
  0
BLOCK
  5
2D2
100
AcDbEntity
  8
0
100
AcDbBlockBegin
  2
*B19
 70
     0
 10
0.0
 20
0.0
 30
0.0
  3
*B19
  1

  0
LINE
  5
2D3
100
AcDbEntity
  8
0
  6
Continuous
 62
     8
100
AcDbLine
 10
152.082082
 20
83.147387
 30
0.0
 11
157.082069
 21
83.147387
 31
0.0
  0
LINE
  5
2D4
100
AcDbEntity
  8
0
  6
Continuous
 62
     8
100
AcDbLine
 10
158.082194
 20
83.147387
 30
0.0
 11
159.082106
 21
83.147387
 31
0.0
  0
LINE
  5
2D5
100
AcDbEntity
  8
0
  6
Continuous
 62
     8
100
AcDbLine
 10
160.082019
 20
83.147387
 30
0.0
 11
165.082006
 21
83.147387
 31
0.0
  0
ENDBLK
  5
2D6
100
AcDbEntity
  8
0
100
AcDbBlockEnd
  0
BLOCK
  5
2D9
100
AcDbEntity
  8
0
100
AcDbBlockBegin
  2
*B20
 70
     0
 10
0.0
 20
0.0
 30
0.0
  3
*B20
  1

  0
LINE
  5
2DA
100
AcDbEntity
  8
0
  6
Continuous
 62
     8
100
AcDbLine
 10
85.375151
 20
48.015556
 30
0.0
 11
85.375151
 21
74.14775
 31
0.0
  0
ENDBLK
  5
2DB
100
AcDbEntity
  8
0
100
AcDbBlockEnd
  0
BLOCK
  5
2DE
100
AcDbEntity
  8
0
100
AcDbBlockBegin
  2
*B21
 70
     0
 10
0.0
 20
0.0
 30
0.0
  3
*B21
  1

  0
LINE
  5
2DF
100
AcDbEntity
  8
0
  6
Continuous
 62
     8
100
AcDbLine
 10
207.483649
 20
61.514693
 30
0.0
 11
207.483649
 21
74.178128
 31
0.0
  0
ENDBLK
  5
2E0
100
AcDbEntity
  8
0
100
AcDbBlockEnd
  0
BLOCK
  5
2E3
100
AcDbEntity
  8
0
100
AcDbBlockBegin
  2
*B22
 70
     0
 10
0.0
 20
0.0
 30
0.0
  3
*B22
  1

  0
LINE
  5
2E4
100
AcDbEntity
  8
0
  6
Continuous
 62
     8
100
AcDbLine
 10
136.082207
 20
60.014719
 30
0.0
 11
136.082207
 21
64.014581
 31
0.0
  0
LINE
  5
2E5
100
AcDbEntity
  8
0
  6
Continuous
 62
     8
100
AcDbLine
 10
136.082207
 20
64.014581
 30
0.0
 11
136.082207
 21
69.868541
 31
0.0
  0
LINE
  5
2E6
100
AcDbEntity
  8
0
  6
Continuous
 62
     8
100
AcDbLine
 10
136.082207
 20
70.868453
 30
0.0
 11
136.082207
 21
71.868366
 31
0.0
  0
LINE
  5
2E7
100
AcDbEntity
  8
0
  6
Continuous
 62
     8
100
AcDbLine
 10
136.082207
 20
72.868278
 30
0.0
 11
136.082207
 21
78.722238
 31
0.0
  0
LINE
  5
2E8
100
AcDbEntity
  8
0
  6
Continuous
 62
     8
100
AcDbLine
 10
136.082207
 20
79.722151
 30
0.0
 11
136.082207
 21
80.722063
 31
0.0
  0
LINE
  5
2E9
100
AcDbEntity
  8
0
  6
Continuous
 62
     8
100
AcDbLine
 10
136.082207
 20
81.721976
 30
0.0
 11
136.082207
 21
87.575935
 31
0.0
  0
LINE
  5
2EA
100
AcDbEntity
  8
0
  6
Continuous
 62
     8
100
AcDbLine
 10
136.082207
 20
88.575848
 30
0.0
 11
136.082207
 21
89.57576
 31
0.0
  0
LINE
  5
2EB
100
AcDbEntity
  8
0
  6
Continuous
 62
     8
100
AcDbLine
 10
136.082207
 20
90.575673
 30
0.0
 11
136.082207
 21
96.429633
 31
0.0
  0
LINE
  5
2EC
100
AcDbEntity
  8
0
  6
Continuous
 62
     8
100
AcDbLine
 10
136.082207
 20
97.429545
 30
0.0
 11
136.082207
 21
98.429458
 31
0.0
  0
LINE
  5
2ED
100
AcDbEntity
  8
0
  6
Continuous
 62
     8
100
AcDbLine
 10
136.082207
 20
99.429583
 30
0.0
 11
136.082207
 21
105.28333
 31
0.0
  0
LINE
  5
2EE
100
AcDbEntity
  8
0
  6
Continuous
 62
     8
100
AcDbLine
 10
136.082207
 20
106.283242
 30
0.0
 11
136.082207
 21
107.283367
 31
0.0
  0
LINE
  5
2EF
100
AcDbEntity
  8
0
  6
Continuous
 62
     8
100
AcDbLine
 10
136.082207
 20
108.28328
 30
0.0
 11
136.082207
 21
114.137027
 31
0.0
  0
LINE
  5
2F0
100
AcDbEntity
  8
0
  6
Continuous
 62
     8
100
AcDbLine
 10
136.082207
 20
115.137152
 30
0.0
 11
136.082207
 21
116.137065
 31
0.0
  0
LINE
  5
2F1
100
AcDbEntity
  8
0
  6
Continuous
 62
     8
100
AcDbLine
 10
136.082207
 20
117.136977
 30
0.0
 11
136.082207
 21
122.990937
 31
0.0
  0
LINE
  5
2F2
100
AcDbEntity
  8
0
  6
Continuous
 62
     8
100
AcDbLine
 10
136.082207
 20
123.990849
 30
0.0
 11
136.082207
 21
124.990762
 31
0.0
  0
LINE
  5
2F3
100
AcDbEntity
  8
0
  6
Continuous
 62
     8
100
AcDbLine
 10
136.082207
 20
125.990674
 30
0.0
 11
136.082207
 21
131.844634
 31
0.0
  0
ENDBLK
  5
2F4
100
AcDbEntity
  8
0
100
AcDbBlockEnd
  0
BLOCK
  5
2F7
100
AcDbEntity
  8
0
100
AcDbBlockBegin
  2
*B23
 70
     0
 10
0.0
 20
0.0
 30
0.0
  3
*B23
  1

  0
LINE
  5
2F8
100
AcDbEntity
  8
0
  6
Continuous
 62
     8
100
AcDbLine
 10
225.958557
 20
75.17804
 30
0.0
 11
239.017962
 21
75.17804
 31
0.0
  0
ENDBLK
  5
2F9
100
AcDbEntity
  8
0
100
AcDbBlockEnd
  0
BLOCK
  5
2FC
100
AcDbEntity
  8
0
100
AcDbBlockBegin
  2
*B24
 70
     0
 10
0.0
 20
0.0
 30
0.0
  3
*B24
  1

  0
LINE
  5
2FD
100
AcDbEntity
  8
0
  6
Continuous
 62
     8
100
AcDbLine
 10
221.833573
 20
49.515319
 30
0.0
 11
221.833573
 21
53.515181
 31
0.0
  0
LINE
  5
2FE
100
AcDbEntity
  8
0
  6
Continuous
 62
     8
100
AcDbLine
 10
221.833573
 20
53.515181
 30
0.0
 11
221.833573
 21
59.24763
 31
0.0
  0
LINE
  5
2FF
100
AcDbEntity
  8
0
  6
Continuous
 62
     8
100
AcDbLine
 10
221.833573
 20
60.247543
 30
0.0
 11
221.833573
 21
61.247455
 31
0.0
  0
LINE
  5
300
100
AcDbEntity
  8
0
  6
Continuous
 62
     8
100
AcDbLine
 10
221.833573
 20
62.24758
 30
0.0
 11
221.833573
 21
67.98003
 31
0.0
  0
LINE
  5
301
100
AcDbEntity
  8
0
  6
Continuous
 62
     8
100
AcDbLine
 10
221.833573
 20
68.979942
 30
0.0
 11
221.833573
 21
69.979855
 31
0.0
  0
LINE
  5
302
100
AcDbEntity
  8
0
  6
Continuous
 62
     8
100
AcDbLine
 10
221.833573
 20
70.979767
 30
0.0
 11
221.833573
 21
76.712216
 31
0.0
  0
LINE
  5
303
100
AcDbEntity
  8
0
  6
Continuous
 62
     8
100
AcDbLine
 10
221.833573
 20
77.712341
 30
0.0
 11
221.833573
 21
78.712254
 31
0.0
  0
LINE
  5
304
100
AcDbEntity
  8
0
  6
Continuous
 62
     8
100
AcDbLine
 10
221.833573
 20
79.712166
 30
0.0
 11
221.833573
 21
85.444616
 31
0.0
  0
LINE
  5
305
100
AcDbEntity
  8
0
  6
Continuous
 62
     8
100
AcDbLine
 10
221.833573
 20
86.444528
 30
0.0
 11
221.833573
 21
87.444441
 31
0.0
  0
LINE
  5
306
100
AcDbEntity
  8
0
  6
Continuous
 62
     8
100
AcDbLine
 10
221.833573
 20
88.444566
 30
0.0
 11
221.833573
 21
94.177015
 31
0.0
  0
ENDBLK
  5
307
100
AcDbEntity
  8
0
100
AcDbBlockEnd
  0
BLOCK
  5
30A
100
AcDbEntity
  8
0
100
AcDbBlockBegin
  2
*B25
 70
     0
 10
0.0
 20
0.0
 30
0.0
  3
*B25
  1

  0
LINE
  5
30B
100
AcDbEntity
  8
0
  6
Continuous
 62
     8
100
AcDbLine
 10
125.082107
 20
60.014719
 30
0.0
 11
125.082107
 21
74.14775
 31
0.0
  0
LINE
  5
30C
100
AcDbEntity
  8
0
  6
Continuous
 62
     8
100
AcDbLine
 10
125.082107
 20
122.145037
 30
0.0
 11
125.082107
 21
156.009293
 31
0.0
  0
ENDBLK
  5
30D
100
AcDbEntity
  8
0
100
AcDbBlockEnd
  0
BLOCK
  5
310
100
AcDbEntity
  8
0
100
AcDbBlockBegin
  2
*B26
 70
     0
 10
0.0
 20
0.0
 30
0.0
  3
*B26
  1

  0
LINE
  5
311
100
AcDbEntity
  8
0
  6
Continuous
 62
     8
100
AcDbLine
 10
96.50016
 20
72.147925
 30
0.0
 11
96.50016
 21
81.647412
 31
0.0
  0
LINE
  5
312
100
AcDbEntity
  8
0
  6
Continuous
 62
     8
100
AcDbLine
 10
96.50016
 20
84.64715
 30
0.0
 11
96.50016
 21
89.789891
 31
0.0
  0
LINE
  5
313
100
AcDbEntity
  8
0
  6
Continuous
 62
     8
100
AcDbLine
 10
96.50016
 20
90.789803
 30
0.0
 11
96.50016
 21
91.789716
 31
0.0
  0
LINE
  5
314
100
AcDbEntity
  8
0
  6
Continuous
 62
     8
100
AcDbLine
 10
96.50016
 20
92.789628
 30
0.0
 11
96.50016
 21
97.932157
 31
0.0
  0
LINE
  5
315
100
AcDbEntity
  8
0
  6
Continuous
 62
     8
100
AcDbLine
 10
96.50016
 20
98.932069
 30
0.0
 11
96.50016
 21
99.932194
 31
0.0
  0
LINE
  5
316
100
AcDbEntity
  8
0
  6
Continuous
 62
     8
100
AcDbLine
 10
96.50016
 20
100.932107
 30
0.0
 11
96.50016
 21
106.074635
 31
0.0
  0
LINE
  5
317
100
AcDbEntity
  8
0
  6
Continuous
 62
     8
100
AcDbLine
 10
96.50016
 20
107.074548
 30
0.0
 11
96.50016
 21
108.07446
 31
0.0
  0
LINE
  5
318
100
AcDbEntity
  8
0
  6
Continuous
 62
     8
100
AcDbLine
 10
96.50016
 20
109.074373
 30
0.0
 11
96.50016
 21
114.216901
 31
0.0
  0
LINE
  5
319
100
AcDbEntity
  8
0
  6
Continuous
 62
     8
100
AcDbLine
 10
96.50016
 20
115.217026
 30
0.0
 11
96.50016
 21
116.216939
 31
0.0
  0
LINE
  5
31A
100
AcDbEntity
  8
0
  6
Continuous
 62
     8
100
AcDbLine
 10
96.50016
 20
117.216851
 30
0.0
 11
96.50016
 21
122.35938
 31
0.0
  0
LINE
  5
31B
100
AcDbEntity
  8
0
  6
Continuous
 62
     8
100
AcDbLine
 10
96.50016
 20
123.359292
 30
0.0
 11
96.50016
 21
124.359205
 31
0.0
  0
LINE
  5
31C
100
AcDbEntity
  8
0
  6
Continuous
 62
     8
100
AcDbLine
 10
96.50016
 20
125.35933
 30
0.0
 11
96.50016
 21
130.501858
 31
0.0
  0
LINE
  5
31D
100
AcDbEntity
  8
0
  6
Continuous
 62
     8
100
AcDbLine
 10
96.50016
 20
131.501771
 30
0.0
 11
96.50016
 21
132.501683
 31
0.0
  0
LINE
  5
31E
100
AcDbEntity
  8
0
  6
Continuous
 62
     8
100
AcDbLine
 10
96.50016
 20
133.501596
 30
0.0
 11
96.50016
 21
138.644124
 31
0.0
  0
ENDBLK
  5
31F
100
AcDbEntity
  8
0
100
AcDbBlockEnd
  0
BLOCK
  5
322
100
AcDbEntity
  8
0
100
AcDbBlockBegin
  2
*B27
 70
     0
 10
0.0
 20
0.0
 30
0.0
  3
*B27
  1

  0
LINE
  5
323
100
AcDbEntity
  8
0
  6
Continuous
 62
     8
100
AcDbLine
 10
145.082057
 20
48.015556
 30
0.0
 11
145.082057
 21
52.015206
 31
0.0
  0
LINE
  5
324
100
AcDbEntity
  8
0
  6
Continuous
 62
     8
100
AcDbLine
 10
145.082057
 20
52.015206
 30
0.0
 11
145.082057
 21
58.04166
 31
0.0
  0
LINE
  5
325
100
AcDbEntity
  8
0
  6
Continuous
 62
     8
100
AcDbLine
 10
145.082057
 20
59.041572
 30
0.0
 11
145.082057
 21
60.041485
 31
0.0
  0
LINE
  5
326
100
AcDbEntity
  8
0
  6
Continuous
 62
     8
100
AcDbLine
 10
145.082057
 20
61.04161
 30
0.0
 11
145.082057
 21
67.067851
 31
0.0
  0
LINE
  5
327
100
AcDbEntity
  8
0
  6
Continuous
 62
     8
100
AcDbLine
 10
145.082057
 20
68.067976
 30
0.0
 11
145.082057
 21
69.067888
 31
0.0
  0
LINE
  5
328
100
AcDbEntity
  8
0
  6
Continuous
 62
     8
100
AcDbLine
 10
145.082057
 20
70.067801
 30
0.0
 11
145.082057
 21
76.094255
 31
0.0
  0
LINE
  5
329
100
AcDbEntity
  8
0
  6
Continuous
 62
     8
100
AcDbLine
 10
145.082057
 20
77.094167
 30
0.0
 11
145.082057
 21
78.09408
 31
0.0
  0
LINE
  5
32A
100
AcDbEntity
  8
0
  6
Continuous
 62
     8
100
AcDbLine
 10
145.082057
 20
79.093992
 30
0.0
 11
145.082057
 21
85.120446
 31
0.0
  0
LINE
  5
32B
100
AcDbEntity
  8
0
  6
Continuous
 62
     8
100
AcDbLine
 10
145.082057
 20
86.120358
 30
0.0
 11
145.082057
 21
87.120271
 31
0.0
  0
LINE
  5
32C
100
AcDbEntity
  8
0
  6
Continuous
 62
     8
100
AcDbLine
 10
145.082057
 20
88.120183
 30
0.0
 11
145.082057
 21
94.146637
 31
0.0
  0
ENDBLK
  5
32D
100
AcDbEntity
  8
0
100
AcDbBlockEnd
  0
BLOCK
  5
330
100
AcDbEntity
  8
0
100
AcDbBlockBegin
  2
*B28
 70
     0
 10
0.0
 20
0.0
 30
0.0
  3
*B28
  1

  0
LINE
  5
331
100
AcDbEntity
  8
0
  6
Continuous
 62
     8
100
AcDbLine
 10
155.082031
 20
48.015556
 30
0.0
 11
155.082031
 21
74.14775
 31
0.0
  0
LINE
  5
332
100
AcDbEntity
  8
0
  6
Continuous
 62
     8
100
AcDbLine
 10
155.082031
 20
92.146812
 30
0.0
 11
155.082031
 21
143.010218
 31
0.0
  0
ENDBLK
  5
333
100
AcDbEntity
  8
0
100
AcDbBlockEnd
  0
BLOCK
  5
336
100
AcDbEntity
  8
0
100
AcDbBlockBegin
  2
*B29
 70
     0
 10
0.0
 20
0.0
 30
0.0
  3
*B29
  1

  0
LINE
  5
337
100
AcDbEntity
  8
0
  6
Continuous
 62
     8
100
AcDbLine
 10
156.082156
 20
91.1469
 30
0.0
 11
196.018114
 21
91.1469
 31
0.0
  0
ENDBLK
  5
338
100
AcDbEntity
  8
0
100
AcDbBlockEnd
  0
BLOCK
  5
33B
100
AcDbEntity
  8
0
100
AcDbBlockBegin
  2
*B30
 70
     0
 10
0.0
 20
0.0
 30
0.0
  3
*B30
  1

  0
LINE
  5
33C
100
AcDbEntity
  8
0
  6
Continuous
 62
     8
100
AcDbLine
 10
96.607437
 20
100.103201
 30
0.0
 11
96.607437
 21
105.002921
 31
0.0
  0
LINE
  5
33D
100
AcDbEntity
  8
0
  6
Continuous
 62
     8
100
AcDbLine
 10
96.607437
 20
108.002659
 30
0.0
 11
96.607437
 21
112.902379
 31
0.0
  0
ENDBLK
  5
33E
100
AcDbEntity
  8
0
100
AcDbBlockEnd
  0
BLOCK
  5
341
100
AcDbEntity
  8
0
100
AcDbBlockBegin
  2
*B31
 70
     0
 10
0.0
 20
0.0
 30
0.0
  3
*B31
  1

  0
LINE
  5
342
100
AcDbEntity
  8
0
  6
Continuous
 62
     8
100
AcDbLine
 10
90.207318
 20
106.502896
 30
0.0
 11
95.107462
 21
106.502896
 31
0.0
  0
LINE
  5
343
100
AcDbEntity
  8
0
  6
Continuous
 62
     8
100
AcDbLine
 10
98.107412
 20
106.502896
 30
0.0
 11
103.007345
 21
106.502896
 31
0.0
  0
ENDBLK
  5
344
100
AcDbEntity
  8
0
100
AcDbBlockEnd
  0
BLOCK
  5
347
100
AcDbEntity
  8
0
100
AcDbBlockBegin
  2
*B32
 70
     0
 10
0.0
 20
0.0
 30
0.0
  3
*B32
  1

  0
LINE
  5
348
100
AcDbEntity
  8
0
  6
Continuous
 62
     8
100
AcDbLine
 10
207.833736
 20
80.177815
 30
0.0
 11
212.333661
 21
80.177815
 31
0.0
  0
LINE
  5
349
100
AcDbEntity
  8
0
  6
Continuous
 62
     8
100
AcDbLine
 10
215.333611
 20
80.177815
 30
0.0
 11
219.833748
 21
80.177815
 31
0.0
  0
ENDBLK
  5
34A
100
AcDbEntity
  8
0
100
AcDbBlockEnd
  0
BLOCK
  5
34D
100
AcDbEntity
  8
0
100
AcDbBlockBegin
  2
*B33
 70
     0
 10
0.0
 20
0.0
 30
0.0
  3
*B33
  1

  0
LINE
  5
34E
100
AcDbEntity
  8
0
  6
Continuous
 62
     8
100
AcDbLine
 10
205.833698
 20
49.515319
 30
0.0
 11
205.833698
 21
53.515181
 31
0.0
  0
LINE
  5
34F
100
AcDbEntity
  8
0
  6
Continuous
 62
     8
100
AcDbLine
 10
205.833698
 20
53.515181
 30
0.0
 11
205.833698
 21
59.24763
 31
0.0
  0
LINE
  5
350
100
AcDbEntity
  8
0
  6
Continuous
 62
     8
100
AcDbLine
 10
205.833698
 20
60.247543
 30
0.0
 11
205.833698
 21
61.247455
 31
0.0
  0
LINE
  5
351
100
AcDbEntity
  8
0
  6
Continuous
 62
     8
100
AcDbLine
 10
205.833698
 20
62.24758
 30
0.0
 11
205.833698
 21
67.98003
 31
0.0
  0
LINE
  5
352
100
AcDbEntity
  8
0
  6
Continuous
 62
     8
100
AcDbLine
 10
205.833698
 20
68.979942
 30
0.0
 11
205.833698
 21
69.979855
 31
0.0
  0
LINE
  5
353
100
AcDbEntity
  8
0
  6
Continuous
 62
     8
100
AcDbLine
 10
205.833698
 20
70.979767
 30
0.0
 11
205.833698
 21
76.712216
 31
0.0
  0
LINE
  5
354
100
AcDbEntity
  8
0
  6
Continuous
 62
     8
100
AcDbLine
 10
205.833698
 20
77.712341
 30
0.0
 11
205.833698
 21
78.712254
 31
0.0
  0
LINE
  5
355
100
AcDbEntity
  8
0
  6
Continuous
 62
     8
100
AcDbLine
 10
205.833698
 20
79.712166
 30
0.0
 11
205.833698
 21
85.444616
 31
0.0
  0
LINE
  5
356
100
AcDbEntity
  8
0
  6
Continuous
 62
     8
100
AcDbLine
 10
205.833698
 20
86.444528
 30
0.0
 11
205.833698
 21
87.444441
 31
0.0
  0
LINE
  5
357
100
AcDbEntity
  8
0
  6
Continuous
 62
     8
100
AcDbLine
 10
205.833698
 20
88.444566
 30
0.0
 11
205.833698
 21
94.177015
 31
0.0
  0
ENDBLK
  5
358
100
AcDbEntity
  8
0
100
AcDbBlockEnd
  0
BLOCK
  5
35B
100
AcDbEntity
  8
0
100
AcDbBlockBegin
  2
*B34
 70
     0
 10
0.0
 20
0.0
 30
0.0
  3
*B34
  1

  0
LINE
  5
35C
100
AcDbEntity
  8
0
  6
Continuous
 62
     8
100
AcDbLine
 10
93.50021
 20
60.014719
 30
0.0
 11
93.50021
 21
82.147475
 31
0.0
  0
ENDBLK
  5
35D
100
AcDbEntity
  8
0
100
AcDbBlockEnd
  0
BLOCK
  5
360
100
AcDbEntity
  8
0
100
AcDbBlockBegin
  2
*B35
 70
     0
 10
0.0
 20
0.0
 30
0.0
  3
*B35
  1

  0
LINE
  5
361
100
AcDbEntity
  8
0
  6
Continuous
 62
     8
100
AcDbLine
 10
204.183747
 20
61.514693
 30
0.0
 11
204.183747
 21
74.178128
 31
0.0
  0
ENDBLK
  5
362
100
AcDbEntity
  8
0
100
AcDbBlockEnd
  0
BLOCK
  5
365
100
AcDbEntity
  8
0
100
AcDbBlockBegin
  2
*B36
 70
     0
 10
0.0
 20
0.0
 30
0.0
  3
*B36
  1

  0
LINE
  5
366
100
AcDbEntity
  8
0
  6
Continuous
 62
     8
100
AcDbLine
 10
213.833636
 20
74.178128
 30
0.0
 11
213.833636
 21
78.67784
 31
0.0
  0
LINE
  5
367
100
AcDbEntity
  8
0
  6
Continuous
 62
     8
100
AcDbLine
 10
213.833636
 20
81.677577
 30
0.0
 11
213.833636
 21
87.248792
 31
0.0
  0
LINE
  5
368
100
AcDbEntity
  8
0
  6
Continuous
 62
     8
100
AcDbLine
 10
213.833636
 20
88.248704
 30
0.0
 11
213.833636
 21
89.248617
 31
0.0
  0
LINE
  5
369
100
AcDbEntity
  8
0
  6
Continuous
 62
     8
100
AcDbLine
 10
213.833636
 20
90.248529
 30
0.0
 11
213.833636
 21
95.819743
 31
0.0
  0
LINE
  5
36A
100
AcDbEntity
  8
0
  6
Continuous
 62
     8
100
AcDbLine
 10
213.833636
 20
96.819656
 30
0.0
 11
213.833636
 21
97.819568
 31
0.0
  0
LINE
  5
36B
100
AcDbEntity
  8
0
  6
Continuous
 62
     8
100
AcDbLine
 10
213.833636
 20
98.819481
 30
0.0
 11
213.833636
 21
104.390695
 31
0.0
  0
LINE
  5
36C
100
AcDbEntity
  8
0
  6
Continuous
 62
     8
100
AcDbLine
 10
213.833636
 20
105.390608
 30
0.0
 11
213.833636
 21
106.39052
 31
0.0
  0
LINE
  5
36D
100
AcDbEntity
  8
0
  6
Continuous
 62
     8
100
AcDbLine
 10
213.833636
 20
107.390433
 30
0.0
 11
213.833636
 21
112.961647
 31
0.0
  0
LINE
  5
36E
100
AcDbEntity
  8
0
  6
Continuous
 62
     8
100
AcDbLine
 10
213.833636
 20
113.961559
 30
0.0
 11
213.833636
 21
114.961472
 31
0.0
  0
LINE
  5
36F
100
AcDbEntity
  8
0
  6
Continuous
 62
     8
100
AcDbLine
 10
213.833636
 20
115.961384
 30
0.0
 11
213.833636
 21
121.532598
 31
0.0
  0
LINE
  5
370
100
AcDbEntity
  8
0
  6
Continuous
 62
     8
100
AcDbLine
 10
213.833636
 20
122.532511
 30
0.0
 11
213.833636
 21
123.532423
 31
0.0
  0
LINE
  5
371
100
AcDbEntity
  8
0
  6
Continuous
 62
     8
100
AcDbLine
 10
213.833636
 20
124.532336
 30
0.0
 11
213.833636
 21
130.10355
 31
0.0
  0
LINE
  5
372
100
AcDbEntity
  8
0
  6
Continuous
 62
     8
100
AcDbLine
 10
213.833636
 20
131.103463
 30
0.0
 11
213.833636
 21
132.103375
 31
0.0
  0
LINE
  5
373
100
AcDbEntity
  8
0
  6
Continuous
 62
     8
100
AcDbLine
 10
213.833636
 20
133.103288
 30
0.0
 11
213.833636
 21
138.674502
 31
0.0
  0
ENDBLK
  5
374
100
AcDbEntity
  8
0
100
AcDbBlockEnd
  0
BLOCK
  5
377
100
AcDbEntity
  8
0
100
AcDbBlockBegin
  2
*B37
 70
     0
 10
0.0
 20
0.0
 30
0.0
  3
*B37
  1

  0
LINE
  5
378
100
AcDbEntity
  8
0
  6
Continuous
 62
     8
100
AcDbLine
 10
225.958557
 20
91.177065
 30
0.0
 11
239.017962
 21
91.177065
 31
0.0
  0
ENDBLK
  5
379
100
AcDbEntity
  8
0
100
AcDbBlockEnd
  0
BLOCK
  5
37C
100
AcDbEntity
  8
0
100
AcDbBlockBegin
  2
*B38
 70
     0
 10
0.0
 20
0.0
 30
0.0
  3
*B38
  1

  0
LINE
  5
37D
100
AcDbEntity
  8
0
  6
Continuous
 62
     8
100
AcDbLine
 10
107.625169
 20
48.015556
 30
0.0
 11
107.625169
 21
74.14775
 31
0.0
  0
ENDBLK
  5
37E
100
AcDbEntity
  8
0
100
AcDbBlockEnd
  0
BLOCK
  5
381
100
AcDbEntity
  8
0
100
AcDbBlockBegin
  2
*B39
 70
     0
 10
0.0
 20
0.0
 30
0.0
  3
*B39
  1

  0
LINE
  5
382
100
AcDbEntity
  8
0
  6
Continuous
 62
     8
100
AcDbLine
 10
174.082068
 20
114.645587
 30
0.0
 11
174.082068
 21
119.52024
 31
0.0
  0
LINE
  5
383
100
AcDbEntity
  8
0
  6
Continuous
 62
     8
100
AcDbLine
 10
174.082068
 20
120.520153
 30
0.0
 11
174.082068
 21
121.520065
 31
0.0
  0
LINE
  5
384
100
AcDbEntity
  8
0
  6
Continuous
 62
     8
100
AcDbLine
 10
174.082068
 20
122.52019
 30
0.0
 11
174.082068
 21
127.394843
 31
0.0
  0
LINE
  5
385
100
AcDbEntity
  8
0
  6
Continuous
 62
     8
100
AcDbLine
 10
174.082068
 20
128.394756
 30
0.0
 11
174.082068
 21
129.394668
 31
0.0
  0
LINE
  5
386
100
AcDbEntity
  8
0
  6
Continuous
 62
     8
100
AcDbLine
 10
174.082068
 20
130.394581
 30
0.0
 11
174.082068
 21
135.269446
 31
0.0
  0
LINE
  5
387
100
AcDbEntity
  8
0
  6
Continuous
 62
     8
100
AcDbLine
 10
174.082068
 20
136.269359
 30
0.0
 11
174.082068
 21
137.269271
 31
0.0
  0
LINE
  5
388
100
AcDbEntity
  8
0
  6
Continuous
 62
     8
100
AcDbLine
 10
174.082068
 20
138.269184
 30
0.0
 11
174.082068
 21
143.143837
 31
0.0
  0
ENDBLK
  5
389
100
AcDbEntity
  8
0
100
AcDbBlockEnd
  0
BLOCK
  5
38C
100
AcDbEntity
  8
0
100
AcDbBlockBegin
  2
*B40
 70
     0
 10
0.0
 20
0.0
 30
0.0
  3
*B40
  1

  0
LINE
  5
38D
100
AcDbEntity
  8
0
  6
Continuous
 62
     8
100
AcDbLine
 10
99.50011
 20
60.014719
 30
0.0
 11
99.50011
 21
82.147475
 31
0.0
  0
ENDBLK
  5
38E
100
AcDbEntity
  8
0
100
AcDbBlockEnd
  0
BLOCK
  5
391
100
AcDbEntity
  8
0
100
AcDbBlockBegin
  2
*B41
 70
     0
 10
0.0
 20
0.0
 30
0.0
  3
*B41
  1

  0
LINE
  5
392
100
AcDbEntity
  8
0
  6
Continuous
 62
     8
100
AcDbLine
 10
182.881383
 20
140.144099
 30
0.0
 11
196.018114
 21
140.144099
 31
0.0
  0
ENDBLK
  5
393
100
AcDbEntity
  8
0
100
AcDbBlockEnd
  0
BLOCK
  5
396
100
AcDbEntity
  8
0
100
AcDbBlockBegin
  2
*B42
 70
     0
 10
0.0
 20
0.0
 30
0.0
  3
*B42
  1

  0
LINE
  5
397
100
AcDbEntity
  8
0
  6
Continuous
 62
     8
100
AcDbLine
 10
183.081706
 20
140.451274
 30
0.0
 11
183.081706
 21
156.009293
 31
0.0
  0
ENDBLK
  5
398
100
AcDbEntity
  8
0
100
AcDbBlockEnd
  0
BLOCK
  5
39B
100
AcDbEntity
  8
0
100
AcDbBlockBegin
  2
*B43
 70
     0
 10
0.0
 20
0.0
 30
0.0
  3
*B43
  1

  0
LINE
  5
39C
100
AcDbEntity
  8
0
  6
Continuous
 62
     6
100
AcDbLine
 10
213.333573
 20
80.177815
 30
0.0
 11
214.333698
 21
80.177815
 31
0.0
  0
LINE
  5
39D
100
AcDbEntity
  8
0
  6
Continuous
 62
     6
100
AcDbLine
 10
213.833636
 20
79.677752
 30
0.0
 11
213.833636
 21
80.677665
 31
0.0
  0
ENDBLK
  5
39E
100
AcDbEntity
  8
0
100
AcDbBlockEnd
  0
BLOCK
  5
3A1
100
AcDbEntity
  8
0
100
AcDbBlockBegin
  2
*B44
 70
     0
 10
0.0
 20
0.0
 30
0.0
  3
*B44
  1

  0
LINE
  5
3A2
100
AcDbEntity
  8
0
  6
Continuous
 62
     6
100
AcDbLine
 10
96.607437
 20
106.002834
 30
0.0
 11
96.607437
 21
107.002746
 31
0.0
  0
LINE
  5
3A3
100
AcDbEntity
  8
0
  6
Continuous
 62
     6
100
AcDbLine
 10
96.107375
 20
106.502896
 30
0.0
 11
97.1075
 21
106.502896
 31
0.0
  0
ENDBLK
  5
3A4
100
AcDbEntity
  8
0
100
AcDbBlockEnd
  0
BLOCK
  5
3A7
100
AcDbEntity
  8
0
100
AcDbBlockBegin
  2
*B45
 70
     0
 10
0.0
 20
0.0
 30
0.0
  3
*B45
  1

  0
LINE
  5
3A8
100
AcDbEntity
  8
0
  6
Continuous
 62
     6
100
AcDbLine
 10
96.000097
 20
83.147387
 30
0.0
 11
97.000222
 21
83.147387
 31
0.0
  0
LINE
  5
3A9
100
AcDbEntity
  8
0
  6
Continuous
 62
     6
100
AcDbLine
 10
96.50016
 20
82.647325
 30
0.0
 11
96.50016
 21
83.647237
 31
0.0
  0
ENDBLK
  5
3AA
100
AcDbEntity
  8
0
100
AcDbBlockEnd
  0
BLOCK
  5
3AD
100
AcDbEntity
  8
0
100
AcDbBlockBegin
  2
*B46
 70
     0
 10
0.0
 20
0.0
 30
0.0
  3
*B46
  1

  0
TEXT
  5
3AE
100
AcDbEntity
  8
TEXT
  6
Continuous
 62
     0
100
AcDbText
 10
212.0886
 20
85.0
 30
0.0
 40
4.0
  1
1
100
AcDbText
  0
ENDBLK
  5
3AF
100
AcDbEntity
  8
0
100
AcDbBlockEnd
  0
BLOCK
  5
3B2
100
AcDbEntity
  8
0
100
AcDbBlockBegin
  2
*B47
 70
     0
 10
0.0
 20
0.0
 30
0.0
  3
*B47
  1

  0
TEXT
  5
3B3
100
AcDbEntity
  8
TEXT
  6
Continuous
 62
     0
100
AcDbText
 10
206.0886
 20
78.3
 30
0.0
 40
4.0
  1
0
100
AcDbText
  0
ENDBLK
  5
3B4
100
AcDbEntity
  8
0
100
AcDbBlockEnd
  0
BLOCK
  5
3B7
100
AcDbEntity
  8
0
100
AcDbBlockBegin
  2
*B48
 70
     0
 10
0.0
 20
0.0
 30
0.0
  3
*B48
  1

  0
TEXT
  5
3B8
100
AcDbEntity
  8
TEXT
  6
Continuous
 62
     0
100
AcDbText
 10
150.5886
 20
81.2
 30
0.0
 40
4.0
  1
2
100
AcDbText
  0
ENDBLK
  5
3B9
100
AcDbEntity
  8
0
100
AcDbBlockEnd
  0
BLOCK
  5
3BC
100
AcDbEntity
  8
0
100
AcDbBlockBegin
  2
*B49
 70
     0
 10
0.0
 20
0.0
 30
0.0
  3
*B49
  1

  0
TEXT
  5
3BD
100
AcDbEntity
  8
TEXT
  6
Continuous
 62
     0
100
AcDbText
 10
134.3886
 20
79.0
 30
0.0
 40
4.0
  1
1
100
AcDbText
  0
ENDBLK
  5
3BE
100
AcDbEntity
  8
0
100
AcDbBlockEnd
  0
BLOCK
  5
3C1
100
AcDbEntity
  8
0
100
AcDbBlockBegin
  2
*B50
 70
     0
 10
0.0
 20
0.0
 30
0.0
  3
*B50
  1

  0
TEXT
  5
3C2
100
AcDbEntity
  8
TEXT
  6
Continuous
 62
     0
100
AcDbText
 10
83.448699
 20
151.0
 30
0.0
 40
6.0
  1
180%%d
100
AcDbText
  0
ENDBLK
  5
3C3
100
AcDbEntity
  8
0
100
AcDbBlockEnd
  0
BLOCK
  5
3C6
100
AcDbEntity
  8
0
100
AcDbBlockBegin
  2
*B51
 70
     0
 10
0.0
 20
0.0
 30
0.0
  3
*B51
  1

  0
TEXT
  5
3C7
100
AcDbEntity
  8
TEXT
  6
Continuous
 62
     0
100
AcDbText
 10
127.706853
 20
63.5
 30
0.0
 40
3.0
  1
11
100
AcDbText
  0
ENDBLK
  5
3C8
100
AcDbEntity
  8
0
100
AcDbBlockEnd
  0
BLOCK
  5
3CB
100
AcDbEntity
  8
0
100
AcDbBlockBegin
  2
*B52
 70
     0
 10
0.0
 20
0.0
 30
0.0
  3
*B52
  1

  0
TEXT
  5
3CC
100
AcDbEntity
  8
TEXT
  6
Continuous
 62
     0
100
AcDbText
 10
147.206853
 20
51.5
 30
0.0
 40
3.0
  1
10
100
AcDbText
  0
ENDBLK
  5
3CD
100
AcDbEntity
  8
0
100
AcDbBlockEnd
  0
BLOCK
  5
3D0
100
AcDbEntity
  8
0
100
AcDbBlockBegin
  2
*B53
 70
     0
 10
0.0
 20
0.0
 30
0.0
  3
*B53
  1

  0
TEXT
  5
3D1
100
AcDbEntity
  8
TEXT
  6
Continuous
 62
     0
100
AcDbText
 10
93.624834
 20
51.5
 30
0.0
 40
3.0
  1
22
100
AcDbText
  0
ENDBLK
  5
3D2
100
AcDbEntity
  8
0
100
AcDbBlockEnd
  0
BLOCK
  5
3D5
100
AcDbEntity
  8
0
100
AcDbBlockBegin
  2
*B54
 70
     0
 10
0.0
 20
0.0
 30
0.0
  3
*B54
  1

  0
TEXT
  5
3D6
100
AcDbEntity
  8
TEXT
  6
Continuous
 62
     0
100
AcDbText
 10
105.033929
 20
63.5
 30
0.0
 40
3.0
  1
%%c6
100
AcDbText
  0
ENDBLK
  5
3D7
100
AcDbEntity
  8
0
100
AcDbBlockEnd
  0
BLOCK
  5
3DA
100
AcDbEntity
  8
0
100
AcDbBlockBegin
  2
*B55
 70
     0
 10
0.0
 20
0.0
 30
0.0
  3
*B55
  1

  0
TEXT
  5
3DB
100
AcDbEntity
  8
TEXT
  6
Continuous
 62
     0
100
AcDbText
 10
187.828571
 20
65.0
 30
0.0
 40
3.0
  1
%%c3,3
100
AcDbText
  0
ENDBLK
  5
3DC
100
AcDbEntity
  8
0
100
AcDbBlockEnd
  0
BLOCK
  5
3DF
100
AcDbEntity
  8
0
100
AcDbBlockBegin
  2
*B56
 70
     0
 10
0.0
 20
0.0
 30
0.0
  3
*B56
  1

  0
TEXT
  5
3E0
100
AcDbEntity
  8
TEXT
  6
Continuous
 62
     0
100
AcDbText
 10
210.95842
 20
53.0
 30
0.0
 40
3.0
  1
16
100
AcDbText
  0
ENDBLK
  5
3E1
100
AcDbEntity
  8
0
100
AcDbBlockEnd
  0
BLOCK
  5
3E4
100
AcDbEntity
  8
0
100
AcDbBlockBegin
  2
*B57
 70
     0
 10
0.0
 20
0.0
 30
0.0
  3
*B57
  1

  0
TEXT
  5
3E5
100
AcDbEntity
  8
TEXT
  6
Continuous
 62
     0
100
AcDbText
 10
235.5
 20
80.30693
 30
0.0
 40
3.0
  1
16
 50
90.0
100
AcDbText
  0
ENDBLK
  5
3E6
100
AcDbEntity
  8
0
100
AcDbBlockEnd
  0
BLOCK
  5
3E9
100
AcDbEntity
  8
0
100
AcDbBlockBegin
  2
*B58
 70
     0
 10
0.0
 20
0.0
 30
0.0
  3
*B58
  1

  0
TEXT
  5
3EA
100
AcDbEntity
  8
TEXT
  6
Continuous
 62
     0
100
AcDbText
 10
137.206853
 20
142.5
 30
0.0
 40
3.0
  1
30
100
AcDbText
  0
ENDBLK
  5
3EB
100
AcDbEntity
  8
0
100
AcDbBlockEnd
  0
BLOCK
  5
3EE
100
AcDbEntity
  8
0
100
AcDbBlockBegin
  2
*B59
 70
     0
 10
0.0
 20
0.0
 30
0.0
  3
*B59
  1

  0
TEXT
  5
3EF
100
AcDbEntity
  8
TEXT
  6
Continuous
 62
     0
100
AcDbText
 10
151.206628
 20
155.5
 30
0.0
 40
3.0
  1
58
100
AcDbText
  0
ENDBLK
  5
3F0
100
AcDbEntity
  8
0
100
AcDbBlockEnd
  0
BLOCK
  5
3F3
100
AcDbEntity
  8
0
100
AcDbBlockBegin
  2
*B60
 70
     0
 10
0.0
 20
0.0
 30
0.0
  3
*B60
  1

  0
TEXT
  5
3F4
100
AcDbEntity
  8
TEXT
  6
Continuous
 62
     0
100
AcDbText
 10
192.5
 20
112.77668
 30
0.0
 40
3.0
  1
48
 50
90.0
100
AcDbText
  0
ENDBLK
  5
3F5
100
AcDbEntity
  8
0
100
AcDbBlockEnd
  0
ENDSEC
  0
SECTION
  2
ENTITIES
  0
INSERT
  5
34
100
AcDbEntity
  8
0
  6
Continuous
 62
   172
100
AcDbBlockReference
  2
*B2
 10
0.0
 20
0.0
 30
0.0
  0
INSERT
  5
3F
100
AcDbEntity
  8
0
  6
Continuous
 62
   172
100
AcDbBlockReference
  2
*B3
 10
0.0
 20
0.0
 30
0.0
  0
INSERT
  5
15F
100
AcDbEntity
  8
0
  6
HIDDEN
 62
   174
100
AcDbBlockReference
  2
*B5
 10
0.0
 20
0.0
 30
0.0
  0
INSERT
  5
1D5
100
AcDbEntity
  8
0
  6
Continuous
 62
   174
100
AcDbBlockReference
  2
*B6
 10
0.0
 20
0.0
 30
0.0
  0
INSERT
  5
284
100
AcDbEntity
  8
0
  6
HIDDEN
 62
   174
100
AcDbBlockReference
  2
*B7
 10
0.0
 20
0.0
 30
0.0
  0
INSERT
  5
28B
100
AcDbEntity
  8
0
  6
Continuous
 62
     0
100
AcDbBlockReference
  2
*B8
 10
0.0
 20
0.0
 30
0.0
  0
INSERT
  5
292
100
AcDbEntity
  8
0
  6
Continuous
 62
     0
100
AcDbBlockReference
  2
*B9
 10
0.0
 20
0.0
 30
0.0
  0
INSERT
  5
299
100
AcDbEntity
  8
0
  6
Continuous
 62
     0
100
AcDbBlockReference
  2
*B10
 10
0.0
 20
0.0
 30
0.0
  0
INSERT
  5
2A0
100
AcDbEntity
  8
0
  6
Continuous
 62
     0
100
AcDbBlockReference
  2
*B11
 10
0.0
 20
0.0
 30
0.0
  0
INSERT
  5
2A7
100
AcDbEntity
  8
0
  6
Continuous
 62
     0
100
AcDbBlockReference
  2
*B12
 10
0.0
 20
0.0
 30
0.0
  0
INSERT
  5
2AE
100
AcDbEntity
  8
0
  6
Continuous
 62
     0
100
AcDbBlockReference
  2
*B13
 10
0.0
 20
0.0
 30
0.0
  0
INSERT
  5
2B5
100
AcDbEntity
  8
0
  6
Continuous
 62
     0
100
AcDbBlockReference
  2
*B14
 10
0.0
 20
0.0
 30
0.0
  0
INSERT
  5
2BC
100
AcDbEntity
  8
0
  6
Continuous
 62
     0
100
AcDbBlockReference
  2
*B15
 10
0.0
 20
0.0
 30
0.0
  0
INSERT
  5
2C3
100
AcDbEntity
  8
0
  6
Continuous
 62
     0
100
AcDbBlockReference
  2
*B16
 10
0.0
 20
0.0
 30
0.0
  0
INSERT
  5
2CA
100
AcDbEntity
  8
0
  6
Continuous
 62
     0
100
AcDbBlockReference
  2
*B17
 10
0.0
 20
0.0
 30
0.0
  0
INSERT
  5
2D0
100
AcDbEntity
  8
0
  6
Continuous
 62
     8
100
AcDbBlockReference
  2
*B18
 10
0.0
 20
0.0
 30
0.0
  0
INSERT
  5
2D7
100
AcDbEntity
  8
0
  6
Continuous
 62
     8
100
AcDbBlockReference
  2
*B19
 10
0.0
 20
0.0
 30
0.0
  0
INSERT
  5
2DC
100
AcDbEntity
  8
0
  6
Continuous
 62
     8
100
AcDbBlockReference
  2
*B20
 10
0.0
 20
0.0
 30
0.0
  0
INSERT
  5
2E1
100
AcDbEntity
  8
0
  6
Continuous
 62
     8
100
AcDbBlockReference
  2
*B21
 10
0.0
 20
0.0
 30
0.0
  0
INSERT
  5
2F5
100
AcDbEntity
  8
0
  6
Continuous
 62
     8
100
AcDbBlockReference
  2
*B22
 10
0.0
 20
0.0
 30
0.0
  0
INSERT
  5
2FA
100
AcDbEntity
  8
0
  6
Continuous
 62
     8
100
AcDbBlockReference
  2
*B23
 10
0.0
 20
0.0
 30
0.0
  0
INSERT
  5
308
100
AcDbEntity
  8
0
  6
Continuous
 62
     8
100
AcDbBlockReference
  2
*B24
 10
0.0
 20
0.0
 30
0.0
  0
INSERT
  5
30E
100
AcDbEntity
  8
0
  6
Continuous
 62
     8
100
AcDbBlockReference
  2
*B25
 10
0.0
 20
0.0
 30
0.0
  0
INSERT
  5
320
100
AcDbEntity
  8
0
  6
Continuous
 62
     8
100
AcDbBlockReference
  2
*B26
 10
0.0
 20
0.0
 30
0.0
  0
INSERT
  5
32E
100
AcDbEntity
  8
0
  6
Continuous
 62
     8
100
AcDbBlockReference
  2
*B27
 10
0.0
 20
0.0
 30
0.0
  0
INSERT
  5
334
100
AcDbEntity
  8
0
  6
Continuous
 62
     8
100
AcDbBlockReference
  2
*B28
 10
0.0
 20
0.0
 30
0.0
  0
INSERT
  5
339
100
AcDbEntity
  8
0
  6
Continuous
 62
     8
100
AcDbBlockReference
  2
*B29
 10
0.0
 20
0.0
 30
0.0
  0
INSERT
  5
33F
100
AcDbEntity
  8
0
  6
Continuous
 62
     8
100
AcDbBlockReference
  2
*B30
 10
0.0
 20
0.0
 30
0.0
  0
INSERT
  5
345
100
AcDbEntity
  8
0
  6
Continuous
 62
     8
100
AcDbBlockReference
  2
*B31
 10
0.0
 20
0.0
 30
0.0
  0
INSERT
  5
34B
100
AcDbEntity
  8
0
  6
Continuous
 62
     8
100
AcDbBlockReference
  2
*B32
 10
0.0
 20
0.0
 30
0.0
  0
INSERT
  5
359
100
AcDbEntity
  8
0
  6
Continuous
 62
     8
100
AcDbBlockReference
  2
*B33
 10
0.0
 20
0.0
 30
0.0
  0
INSERT
  5
35E
100
AcDbEntity
  8
0
  6
Continuous
 62
     8
100
AcDbBlockReference
  2
*B34
 10
0.0
 20
0.0
 30
0.0
  0
INSERT
  5
363
100
AcDbEntity
  8
0
  6
Continuous
 62
     8
100
AcDbBlockReference
  2
*B35
 10
0.0
 20
0.0
 30
0.0
  0
INSERT
  5
375
100
AcDbEntity
  8
0
  6
Continuous
 62
     8
100
AcDbBlockReference
  2
*B36
 10
0.0
 20
0.0
 30
0.0
  0
INSERT
  5
37A
100
AcDbEntity
  8
0
  6
Continuous
 62
     8
100
AcDbBlockReference
  2
*B37
 10
0.0
 20
0.0
 30
0.0
  0
INSERT
  5
37F
100
AcDbEntity
  8
0
  6
Continuous
 62
     8
100
AcDbBlockReference
  2
*B38
 10
0.0
 20
0.0
 30
0.0
  0
INSERT
  5
38A
100
AcDbEntity
  8
0
  6
Continuous
 62
     8
100
AcDbBlockReference
  2
*B39
 10
0.0
 20
0.0
 30
0.0
  0
INSERT
  5
38F
100
AcDbEntity
  8
0
  6
Continuous
 62
     8
100
AcDbBlockReference
  2
*B40
 10
0.0
 20
0.0
 30
0.0
  0
INSERT
  5
394
100
AcDbEntity
  8
0
  6
Continuous
 62
     8
100
AcDbBlockReference
  2
*B41
 10
0.0
 20
0.0
 30
0.0
  0
INSERT
  5
399
100
AcDbEntity
  8
0
  6
Continuous
 62
     8
100
AcDbBlockReference
  2
*B42
 10
0.0
 20
0.0
 30
0.0
  0
INSERT
  5
39F
100
AcDbEntity
  8
0
  6
Continuous
 62
     6
100
AcDbBlockReference
  2
*B43
 10
0.0
 20
0.0
 30
0.0
  0
INSERT
  5
3A5
100
AcDbEntity
  8
0
  6
Continuous
 62
     6
100
AcDbBlockReference
  2
*B44
 10
0.0
 20
0.0
 30
0.0
  0
INSERT
  5
3AB
100
AcDbEntity
  8
0
  6
Continuous
 62
     6
100
AcDbBlockReference
  2
*B45
 10
0.0
 20
0.0
 30
0.0
  0
INSERT
  5
3B0
100
AcDbEntity
  8
TEXT
  6
Continuous
 62
     0
100
AcDbBlockReference
  2
*B46
 10
0.0
 20
0.0
 30
0.0
  0
INSERT
  5
3B5
100
AcDbEntity
  8
TEXT
  6
Continuous
 62
     0
100
AcDbBlockReference
  2
*B47
 10
0.0
 20
0.0
 30
0.0
  0
INSERT
  5
3BA
100
AcDbEntity
  8
TEXT
  6
Continuous
 62
     0
100
AcDbBlockReference
  2
*B48
 10
0.0
 20
0.0
 30
0.0
  0
INSERT
  5
3BF
100
AcDbEntity
  8
TEXT
  6
Continuous
 62
     0
100
AcDbBlockReference
  2
*B49
 10
0.0
 20
0.0
 30
0.0
  0
INSERT
  5
3C4
100
AcDbEntity
  8
TEXT
  6
Continuous
 62
     0
100
AcDbBlockReference
  2
*B50
 10
0.0
 20
0.0
 30
0.0
  0
INSERT
  5
3C9
100
AcDbEntity
  8
TEXT
  6
Continuous
 62
     0
100
AcDbBlockReference
  2
*B51
 10
0.0
 20
0.0
 30
0.0
  0
INSERT
  5
3CE
100
AcDbEntity
  8
TEXT
  6
Continuous
 62
     0
100
AcDbBlockReference
  2
*B52
 10
0.0
 20
0.0
 30
0.0
  0
INSERT
  5
3D3
100
AcDbEntity
  8
TEXT
  6
Continuous
 62
     0
100
AcDbBlockReference
  2
*B53
 10
0.0
 20
0.0
 30
0.0
  0
INSERT
  5
3D8
100
AcDbEntity
  8
TEXT
  6
Continuous
 62
     0
100
AcDbBlockReference
  2
*B54
 10
0.0
 20
0.0
 30
0.0
  0
INSERT
  5
3DD
100
AcDbEntity
  8
TEXT
  6
Continuous
 62
     0
100
AcDbBlockReference
  2
*B55
 10
0.0
 20
0.0
 30
0.0
  0
INSERT
  5
3E2
100
AcDbEntity
  8
TEXT
  6
Continuous
 62
     0
100
AcDbBlockReference
  2
*B56
 10
0.0
 20
0.0
 30
0.0
  0
INSERT
  5
3E7
100
AcDbEntity
  8
TEXT
  6
Continuous
 62
     0
100
AcDbBlockReference
  2
*B57
 10
0.0
 20
0.0
 30
0.0
  0
INSERT
  5
3EC
100
AcDbEntity
  8
TEXT
  6
Continuous
 62
     0
100
AcDbBlockReference
  2
*B58
 10
0.0
 20
0.0
 30
0.0
  0
INSERT
  5
3F1
100
AcDbEntity
  8
TEXT
  6
Continuous
 62
     0
100
AcDbBlockReference
  2
*B59
 10
0.0
 20
0.0
 30
0.0
  0
INSERT
  5
3F6
100
AcDbEntity
  8
TEXT
  6
Continuous
 62
     0
100
AcDbBlockReference
  2
*B60
 10
0.0
 20
0.0
 30
0.0
  0
ENDSEC
  0
SECTION
  2
OBJECTS
  0
DICTIONARY
  5
19
100
AcDbDictionary
280
     0
281
     1
  3
ACAD_GROUP
350
1A
  3
ACAD_MLINESTYLE
350
1B
  3
ACAD_LAYOUT
350
1E
  3
ACAD_PLOTSETTINGS
350
22
  3
ACAD_PLOTSTYLENAME
350
1F
  3
ACAD_WIPEOUT_VARS
350
23
  0
DICTIONARY
  5
1A
102
{ACAD_REACTORS
330
19
102
}
100
AcDbDictionary
280
     0
281
     1
  0
DICTIONARY
  5
1B
102
{ACAD_REACTORS
330
19
102
}
100
AcDbDictionary
280
     0
281
     1
  3
Standard
350
1C
  0
MLINESTYLE
  5
1C
102
{ACAD_REACTORS
330
1B
102
}
100
AcDbMlineStyle
  2
Standard
 70
     0
  3

 62
     0
 51
90.0
 52
90.0
 71
     2
 49
0.5
 62
   256
  6
BYLAYER
 49
-0.5
 62
   256
  6
BYLAYER
  0
ACDBDICTIONARYWDFLT
  5
1F
102
{ACAD_REACTORS
330
19
102
}
100
AcDbDictionary
281
     1
  3
Normal
350
1D
100
AcDbDictionaryWithDefault
340
1D
  0
ACDBPLACEHOLDER
  5
1D
102
{ACAD_REACTORS
330
1F
102
}
  0
LAYOUT
  5
20
102
{ACAD_REACTORS
330
1E
102
}
100
AcDbPlotSettings
  1

  2

  4

  6

 40
0.0
 41
0.0
 42
0.0
 43
0.0
 44
0.0
 45
0.0
 46
0.0
 47
0.0
 48
0.0
 49
0.0
140
0.0
141
0.0
142
1.0
143
1.0
 70
     0
 72
     0
 73
     0
 74
     0
  7

 75
     0
147
1.0
148
0.0
149
0.0
100
AcDbLayout
  1
Model
 70
     0
 71
     0
 10
0.0
 20
0.0
 11
0.0
 21
0.0
 12
0.0
 22
0.0
 32
0.0
 14
0.0
 24
0.0
 34
0.0
 15
0.0
 25
0.0
 35
0.0
146
0.0
 13
0.0
 23
0.0
 33
0.0
 16
0.0
 26
0.0
 36
0.0
 17
0.0
 27
0.0
 37
0.0
 76
     0
330
A
331
0
345
0
346
0
  0
LAYOUT
  5
21
102
{ACAD_REACTORS
330
1E
102
}
100
AcDbPlotSettings
  1

  2

  4

  6

 40
0.0
 41
0.0
 42
0.0
 43
0.0
 44
0.0
 45
0.0
 46
0.0
 47
0.0
 48
0.0
 49
0.0
140
0.0
141
0.0
142
1.0
143
1.0
 70
     0
 72
     0
 73
     0
 74
     0
  7

 75
     0
147
1.0
148
0.0
149
0.0
100
AcDbLayout
  1
Layout1
 70
     0
 71
     0
 10
0.0
 20
0.0
 11
0.0
 21
0.0
 12
0.0
 22
0.0
 32
0.0
 14
0.0
 24
0.0
 34
0.0
 15
0.0
 25
0.0
 35
0.0
146
0.0
 13
0.0
 23
0.0
 33
0.0
 16
0.0
 26
0.0
 36
0.0
 17
0.0
 27
0.0
 37
0.0
 76
     0
330
B
331
0
345
0
346
0
  0
DICTIONARY
  5
1E
102
{ACAD_REACTORS
330
19
102
}
100
AcDbDictionary
280
     0
281
     1
  3
Layout1
350
21
  3
Model
350
20
  0
DICTIONARY
  5
22
102
{ACAD_REACTORS
330
19
102
}
100
AcDbDictionary
280
     0
281
     1
  0
WIPEOUTVARIABLES
  5
23
100
AcDbWipeoutVariables
 70
     1
  0
ENDSEC
  0
EOF
