  0
SECTION
  2
HEADER
  9
$ACADVER
  1
AC1015
  9
$ACADMAINTVER
 70
     6
  9
$DWGCODEPAGE
  3
DOS850
  9
$INSBASE
 10
0.0
 20
0.0
 30
0.0
  9
$EXTMIN
 10
0.0
 20
0.0
 30
0.0
  9
$EXTMAX
 10
420.0
 20
297.0
 30
0.0
  9
$LIMMIN
 10
0.0
 20
0.0
  9
$LIMMAX
 10
420.0
 20
297.0
  9
$ORTHOMODE
 70
     0
  9
$REGENMODE
 70
     1
  9
$FILLMODE
 70
     1
  9
$QTEXTMODE
 70
     0
  9
$MIRRTEXT
 70
     1
  9
$LTSCALE
 40
25.4
  9
$ATTMODE
 70
     1
  9
$TEXTSIZE
 40
3.5
  9
$TRACEWID
 40
0.05
  9
$TEXTSTYLE
  7
Standard
  9
$CLAYER
  8
0
  9
$CELTYPE
  6
Continuous
  9
$CECOLOR
 62
   256
  9
$CELTSCALE
 40
1.0
  9
$DISPSILH
 70
     0
  9
$DIMSCALE
 40
1.0
  9
$DIMASZ
 40
5.0
  9
$DIMEXO
 40
3.0
  9
$DIMDLI
 40
0.38
  9
$DIMRND
 40
0.0
  9
$DIMDLE
 40
0.0
  9
$DIMEXE
 40
2.0
  9
$DIMTP
 40
0.0
  9
$DIMTM
 40
0.0
  9
$DIMTXT
 40
3.5
  9
$DIMCEN
 40
4.0
  9
$DIMTSZ
 40
0.0
  9
$DIMTOL
 70
     0
  9
$DIMLIM
 70
     0
  9
$DIMTIH
 70
     1
  9
$DIMTOH
 70
     1
  9
$DIMSE1
 70
     0
  9
$DIMSE2
 70
     0
  9
$DIMTAD
 70
     0
  9
$DIMZIN
 70
     0
  9
$DIMBLK
  1

  9
$DIMASO
 70
     1
  9
$DIMSHO
 70
     1
  9
$DIMPOST
  1

  9
$DIMAPOST
  1

  9
$DIMALT
 70
     0
  9
$DIMALTD
 70
     2
  9
$DIMALTF
 40
25.4
  9
$DIMLFAC
 40
1.0
  9
$DIMTOFL
 70
     0
  9
$DIMTVP
 40
0.0
  9
$DIMTIX
 70
     0
  9
$DIMSOXD
 70
     0
  9
$DIMSAH
 70
     0
  9
$DIMBLK1
  1

  9
$DIMBLK2
  1

  9
$DIMSTYLE
  2
Standard
  9
$DIMCLRD
 70
     0
  9
$DIMCLRE
 70
     0
  9
$DIMCLRT
 70
     0
  9
$DIMTFAC
 40
1.0
  9
$DIMGAP
 40
1.0
  9
$DIMJUST
 70
     0
  9
$DIMSD1
 70
     0
  9
$DIMSD2
 70
     0
  9
$DIMTOLJ
 70
     1
  9
$DIMTZIN
 70
     0
  9
$DIMALTZ
 70
     0
  9
$DIMALTTZ
 70
     0
  9
$DIMUPT
 70
     0
  9
$DIMDEC
 70
     4
  9
$DIMTDEC
 70
     4
  9
$DIMALTU
 70
     2
  9
$DIMALTTD
 70
     2
  9
$DIMTXSTY
  7
Standard
  9
$DIMAUNIT
 70
     0
  9
$DIMADEC
 70
     0
  9
$DIMALTRND
 40
0.0
  9
$DIMAZIN
 70
     0
  9
$DIMDSEP
 70
     0
  9
$DIMATFIT
 70
     3
  9
$DIMFRAC
 70
     0
  9
$DIMLDRBLK
  1

  9
$DIMLUNIT
 70
     2
  9
$DIMLWD
 70
     0
  9
$DIMLWE
 70
     0
  9
$DIMTMOVE
 70
     0
  9
$LUNITS
 70
     2
  9
$LUPREC
 70
     4
  9
$SKETCHINC
 40
0.1
  9
$FILLETRAD
 40
0.0
  9
$AUNITS
 70
     0
  9
$AUPREC
 70
     0
  9
$MENU
  1
acad
  9
$ELEVATION
 40
0.0
  9
$PELEVATION
 40
0.0
  9
$THICKNESS
 40
0.0
  9
$LIMCHECK
 70
     0
  9
$CHAMFERA
 40
0.0
  9
$CHAMFERB
 40
0.0
  9
$CHAMFERC
 40
0.0
  9
$CHAMFERD
 40
0.0
  9
$SKPOLY
 70
     0
  9
$TDCREATE
 40
0.000000000
  9
$TDUCREATE
 40
0.000000000
  9
$TDUPDATE
 40
0.000000000
  9
$TDUUPDATE
 40
0.000000000
  9
$TDINDWG
 40
0.0000000000
  9
$TDUSRTIMER
 40
0.0000000000
  9
$USRTIMER
 70
     1
  9
$ANGBASE
 50
0.0
  9
$ANGDIR
 70
     0
  9
$PDMODE
 70
     0
  9
$PDSIZE
 40
0.0
  9
$PLINEWID
 40
0.0
  9
$SPLFRAME
 70
     0
  9
$SPLINETYPE
 70
     6
  9
$SPLINESEGS
 70
     8
  9
$HANDSEED
  5
336
  9
$SURFTAB1
 70
     6
  9
$SURFTAB2
 70
     6
  9
$SURFTYPE
 70
     6
  9
$SURFU
 70
     6
  9
$SURFV
 70
     6
  9
$UCSBASE
  2

  9
$UCSNAME
  2

  9
$UCSORG
 10
0.0
 20
0.0
 30
0.0
  9
$UCSXDIR
 10
1.0
 20
0.0
 30
0.0
  9
$UCSYDIR
 10
0.0
 20
1.0
 30
0.0
  9
$UCSORTHOREF
  2

  9
$UCSORTHOVIEW
 70
     0
  9
$UCSORGTOP
 10
0.0
 20
0.0
 30
0.0
  9
$UCSORGBOTTOM
 10
0.0
 20
0.0
 30
0.0
  9
$UCSORGLEFT
 10
0.0
 20
0.0
 30
0.0
  9
$UCSORGRIGHT
 10
0.0
 20
0.0
 30
0.0
  9
$UCSORGFRONT
 10
0.0
 20
0.0
 30
0.0
  9
$UCSORGBACK
 10
0.0
 20
0.0
 30
0.0
  9
$PUCSBASE
  2

  9
$PUCSNAME
  2

  9
$PUCSORG
 10
0.0
 20
0.0
 30
0.0
  9
$PUCSXDIR
 10
1.0
 20
0.0
 30
0.0
  9
$PUCSYDIR
 10
0.0
 20
1.0
 30
0.0
  9
$PUCSORTHOREF
  2

  9
$PUCSORTHOVIEW
 70
     0
  9
$PUCSORGTOP
 10
0.0
 20
0.0
 30
0.0
  9
$PUCSORGBOTTOM
 10
0.0
 20
0.0
 30
0.0
  9
$PUCSORGLEFT
 10
0.0
 20
0.0
 30
0.0
  9
$PUCSORGRIGHT
 10
0.0
 20
0.0
 30
0.0
  9
$PUCSORGFRONT
 10
0.0
 20
0.0
 30
0.0
  9
$PUCSORGBACK
 10
0.0
 20
0.0
 30
0.0
  9
$USERI1
 70
     0
  9
$USERI2
 70
     0
  9
$USERI3
 70
     0
  9
$USERI4
 70
     0
  9
$USERI5
 70
     0
  9
$USERR1
 40
0.0
  9
$USERR2
 40
0.0
  9
$USERR3
 40
0.0
  9
$USERR4
 40
0.0
  9
$USERR5
 40
0.0
  9
$WORLDVIEW
 70
     1
  9
$SHADEDGE
 70
     3
  9
$SHADEDIF
 70
    70
  9
$TILEMODE
 70
     1
  9
$MAXACTVP
 70
    16
  9
$PINSBASE
 10
0.0
 20
0.0
 30
0.0
  9
$PLIMCHECK
 70
     0
  9
$PEXTMIN
 10
1.000000E+20
 20
1.000000E+20
 30
1.000000E+20
  9
$PEXTMAX
 10
-1.000000E+20
 20
-1.000000E+20
 30
-1.000000E+20
  9
$PLIMMIN
 10
0.0
 20
0.0
  9
$PLIMMAX
 10
420.0
 20
297.0
  9
$UNITMODE
 70
     0
  9
$VISRETAIN
 70
     0
  9
$PLINEGEN
 70
     1
  9
$PSLTSCALE
 70
     0
  9
$TREEDEPTH
 70
  3020
  9
$CMLSTYLE
  2
Standard
  9
$CMLJUST
 70
     0
  9
$CMLSCALE
 40
1.0
  9
$PROXYGRAPHICS
 70
     0
  9
$MEASUREMENT
 70
     0
  9
$CELWEIGHT
370
     0
  9
$ENDCAPS
280
     0
  9
$JOINSTYLE
280
     0
  9
$LWDISPLAY
290
     0
  9
$INSUNITS
 70
     0
  9
$HYPERLINKBASE
  1

  9
$XEDIT
290
     1
  9
$CEPSNTYPE
380
     0
  9
$PSTYLEMODE
290
     0
  9
$FINGERPRINTGUID
  2

  9
$VERSIONGUID
  2

  9
$EXTNAMES
290
     1
  9
$PSVPSCALE
 40
0.0
  0
ENDSEC
  0
SECTION
  2
CLASSES
  0
CLASS
  1
LWPOLYLINE
  2
AcDbPolyline
  3
"AutoCAD"
 90
        0
280
     0
281
     1
  0
CLASS
  1
IMAGE
  2
AcDbRasterImage
  3
ISM
 90
      127
280
     0
281
     1
  0
CLASS
  1
OLE2FRAME
  2
AcDbOle2Frame
  3
""
 90
        0
280
     0
281
     1
  0
CLASS
  1
HATCH
  2
AcDbHatch
  3
"ACAD_SEDONA"
 90
        0
280
     0
281
     1
  0
CLASS
  1
DICTIONARYVAR
  2
AcDbDictionaryVar
  3
"AutoCAD"
 90
        0
280
     0
281
     0
  0
CLASS
  1
RASTERVARIABLES
  2
AcDbRasterVariables
  3
ISM
 90
        0
280
     0
281
     0
  0
CLASS
  1
IMAGEDEF
  2
AcDbRasterImageDef
  3
ISM
 90
        0
280
     0
281
     0
  0
CLASS
  1
IMAGEDEF_REACTOR
  2
AcDbRasterImageDefReactor
  3
ISM
 90
        1
280
     0
281
     0
  0
CLASS
  1
IDBUFFER
  2
AcDbIdBuffer
  3
"Acad"
 90
        0
280
     0
281
     0
  0
CLASS
  1
SPATIAL_FILTER
  2
AcDbSpatialFilter
  3
"Acad"
 90
        0
280
     0
281
     0
  0
CLASS
  1
XRECORD
  2
AcDbXrecord
  3
"<Built In>"
 90
        0
280
     0
281
     0
  0
CLASS
  1
SORTENTSTABLE
  2
AcDbSortentsTable
  3
"AutoCAD"
 90
        0
280
     0
281
     0
  0
CLASS
  1
LAYER_INDEX
  2
AcDbLayerIndex
  3
"Acad"
 90
        0
280
     0
281
     0
  0
CLASS
  1
SPATIAL_INDEX
  2
AcDbSpatialIndex
  3
"Acad"
 90
        0
280
     0
281
     0
  0
CLASS
  1
OBJECT_PTR
  2
CAseDLPNTableRecord
  3
"ASE-LPNTableRecord"
 90
        1
280
     0
281
     0
  0
CLASS
  1
LAYOUT
  2
AcDbLayout
  3
"AutoCAD 2000"
 90
        1
280
     0
281
     0
  0
CLASS
  1
PLOTSETTINGS
  2
AcDbPlotSettings
  3
"AutoCAD 2000"
 90
        1
280
     0
281
     0
  0
CLASS
  1
ACDBDICTIONARYWDFLT
  2
AcDbDictionaryWithDefault
  3
"AutoCAD 2000"
 90
        1
280
     0
281
     0
  0
CLASS
  1
ACDBPLACEHOLDER
  2
AcDbPlaceHolder
  3
"AutoCAD 2000"
 90
        1
280
     0
281
     0
  0
CLASS
  1
VBA_PROJECT
  2
AcDbVbaProject
  3
"acadvba"
 90
        1
280
     0
281
     0
  0
CLASS
  1
WIPEOUT
  2
AcDbWipeout
  3
WipeOut|AutoCAD Express Tool|expresstools@autodesk.com
 90
      127
280
     0
281
     1
  0
CLASS
  1
WIPEOUTVARIABLES
  2
AcDbWipeoutVariables
  3
WipeOut|AutoCAD Express Tool|expresstools@autodesk.com
 90
        0
280
     0
281
     0
  0
CLASS
  1
RTEXT
  2
RText
  3
RText|AutoCAD Express Tool|expresstools@autodesk.com
 90
        0
280
     0
281
     1
  0
CLASS
  1
ARCALIGNEDTEXT
  2
AcDbArcAlignedText
  3
ATEXT|AutoCAD Express Tool|expresstools@autodesk.com
 90
        0
280
     0
281
     1
  0
ENDSEC
  0
SECTION
  2
TABLES
  0
TABLE
  2
VPORT
  5
7
100
AcDbSymbolTable
 70
     1
  0
VPORT
  5
15
100
AcDbSymbolTableRecord
100
AcDbViewportTableRecord
  2
*ACTIVE
 70
     0
 10
0.0
 20
0.0
 11
1.0
 21
1.0
 12
6.591288
 22
4.579184
 13
0.0
 23
0.0
 14
1.0
 24
1.0
 15
0.0
 25
0.0
 16
0.0
 26
0.0
 36
1.0
 17
0.0
 27
0.0
 37
0.0
 40
9.158369
 41
0.688564
 42
50.0
 43
0.0
 44
0.0
 50
0.0
 51
0.0
 71
     0
 72
   100
 73
     1
 74
     1
 75
     0
 76
     0
 77
     0
 78
     0
281
     0
 65
     0
110
0.0
120
0.0
130
0.0
111
1.0
121
0.0
131
0.0
112
0.0
122
1.0
132
0.0
345
0
346
0
 79
     0
146
0.0
  0
ENDTAB
  0
TABLE
  2
LTYPE
  5
4
100
AcDbSymbolTable
 70
     7
  0
LTYPE
  5
11
100
AcDbSymbolTableRecord
100
AcDbLinetypeTableRecord
  2
ByBlock
 70
    64
  3

 72
    65
 73
     0
 40
0.0
  0
LTYPE
  5
12
100
AcDbSymbolTableRecord
100
AcDbLinetypeTableRecord
  2
ByLayer
 70
    64
  3

 72
    65
 73
     0
 40
0.0
  0
LTYPE
  5
13
100
AcDbSymbolTableRecord
100
AcDbLinetypeTableRecord
  2
Continuous
 70
    64
  3
Solid line
 72
    65
 73
     0
 40
0.0
  0
LTYPE
  5
24
100
AcDbSymbolTableRecord
100
AcDbLinetypeTableRecord
  2
HIDDEN
 70
    64
  3
_ _ _ _ _ _ _ _ _ _ _ _ _ _ _ _ _ _ _ _ _ _ _ _
 72
    65
 73
     2
 40
0.1875
 49
0.125
 74
     0
 49
-0.0625
 74
     0
  0
LTYPE
  5
25
100
AcDbSymbolTableRecord
100
AcDbLinetypeTableRecord
  2
DOTTED
 70
    64
  3
...............................................
 72
    65
 73
     2
 40
0.125
 49
0.0
 74
     0
 49
-0.125
 74
     0
  0
LTYPE
  5
26
100
AcDbSymbolTableRecord
100
AcDbLinetypeTableRecord
  2
CENTER
 70
    64
  3
____ _ ____ _ ____ _ ____ _ ____ _ ____ _ ____ 
 72
    65
 73
     4
 40
1.125
 49
0.75
 74
     0
 49
-0.125
 74
     0
 49
0.125
 74
     0
 49
-0.125
 74
     0
  0
LTYPE
  5
27
100
AcDbSymbolTableRecord
100
AcDbLinetypeTableRecord
  2
PHANTOM
 70
    64
  3
______  __  __  ______  __  __  ______  __  __ 
 72
    65
 73
     6
 40
1.25
 49
0.625
 74
     0
 49
-0.125
 74
     0
 49
0.125
 74
     0
 49
-0.125
 74
     0
 49
0.125
 74
     0
 49
-0.125
 74
     0
  0
ENDTAB
  0
TABLE
  2
LAYER
  5
2
100
AcDbSymbolTable
 70
     2
  0
LAYER
  5
14
100
AcDbSymbolTableRecord
100
AcDbLayerTableRecord
  2
0
 70
     0
 62
     7
  6
Continuous
290
     1
370
    -3
390
1D
  0
LAYER
  5
28
100
AcDbSymbolTableRecord
100
AcDbLayerTableRecord
  2
TEXT
 70
     0
 62
     8
  6
Continuous
290
     1
370
    -3
390
1F
  0
ENDTAB
  0
TABLE
  2
STYLE
  5
3
100
AcDbSymbolTable
 70
     1
  0
STYLE
  5
17
100
AcDbSymbolTableRecord
100
AcDbTextStyleTableRecord
  2
Standard
 70
     0
 40
0.0
 41
1.0
 50
0.0
 71
     0
 42
0.0
  3
txt
  4

  0
ENDTAB
  0
TABLE
  2
VIEW
  5
5
100
AcDbSymbolTable
 70
     0
  0
ENDTAB
  0
TABLE
  2
UCS
  5
6
100
AcDbSymbolTable
 70
     0
  0
ENDTAB
  0
TABLE
  2
APPID
  5
8
100
AcDbSymbolTable
 70
     1
  0
APPID
  5
16
100
AcDbSymbolTableRecord
100
AcDbRegAppTableRecord
  2
ACAD
 70
     0
  0
ENDTAB
  0
TABLE
  2
DIMSTYLE
  5
9
100
AcDbSymbolTable
 70
     1
100
AcDbDimStyleTable
 71
     0
  0
DIMSTYLE
105
18
100
AcDbSymbolTableRecord
100
AcDbDimStyleTableRecord
  2
Standard
 70
     0
  3

  4

 40
1.0
 41
0.18
 42
0.0625
 43
0.38
 44
0.18
 45
0.0
 46
0.0
 47
0.0
 48
0.0
 71
     0
 72
     0
 73
     1
 74
     1
 75
     0
 76
     0
 77
     0
 78
     0
 79
     0
140
0.18
141
0.09
142
0.0
143
25.4
144
1.0
145
0.0
146
1.0
147
0.09
148
0.0
170
     0
171
     2
172
     0
173
     0
174
     0
175
     0
176
     0
177
     0
178
     0
179
     0
271
     4
272
     4
273
     2
274
     2
275
     0
276
     0
277
     2
278
    46
279
     0
280
     0
281
     0
282
     0
283
     1
284
     0
285
     0
286
     0
288
     0
340
17
341
0
342
0
343
0
344
0
371
    -2
372
    -2
  0
ENDTAB
  0
TABLE
  2
BLOCK_RECORD
  5
1
100
AcDbSymbolTable
 70
    70
  0
BLOCK_RECORD
  5
A
100
AcDbSymbolTableRecord
100
AcDbBlockTableRecord
  2
*MODEL_SPACE
340
20
  0
BLOCK_RECORD
  5
B
100
AcDbSymbolTableRecord
100
AcDbBlockTableRecord
  2
*PAPER_SPACE
340
21
  0
BLOCK_RECORD
  5
29
100
AcDbSymbolTableRecord
100
AcDbBlockTableRecord
  2
*B0
340
0
  0
BLOCK_RECORD
  5
2C
100
AcDbSymbolTableRecord
100
AcDbBlockTableRecord
  2
*B1
340
0
  0
BLOCK_RECORD
  5
FC
100
AcDbSymbolTableRecord
100
AcDbBlockTableRecord
  2
*B2
340
0
  0
BLOCK_RECORD
  5
16E
100
AcDbSymbolTableRecord
100
AcDbBlockTableRecord
  2
*B3
340
0
  0
BLOCK_RECORD
  5
174
100
AcDbSymbolTableRecord
100
AcDbBlockTableRecord
  2
*B4
340
0
  0
BLOCK_RECORD
  5
17F
100
AcDbSymbolTableRecord
100
AcDbBlockTableRecord
  2
*B5
340
0
  0
BLOCK_RECORD
  5
182
100
AcDbSymbolTableRecord
100
AcDbBlockTableRecord
  2
*B6
340
0
  0
BLOCK_RECORD
  5
189
100
AcDbSymbolTableRecord
100
AcDbBlockTableRecord
  2
*B7
340
0
  0
BLOCK_RECORD
  5
190
100
AcDbSymbolTableRecord
100
AcDbBlockTableRecord
  2
*B8
340
0
  0
BLOCK_RECORD
  5
197
100
AcDbSymbolTableRecord
100
AcDbBlockTableRecord
  2
*B9
340
0
  0
BLOCK_RECORD
  5
19E
100
AcDbSymbolTableRecord
100
AcDbBlockTableRecord
  2
*B10
340
0
  0
BLOCK_RECORD
  5
1A5
100
AcDbSymbolTableRecord
100
AcDbBlockTableRecord
  2
*B11
340
0
  0
BLOCK_RECORD
  5
1AC
100
AcDbSymbolTableRecord
100
AcDbBlockTableRecord
  2
*B12
340
0
  0
BLOCK_RECORD
  5
1B3
100
AcDbSymbolTableRecord
100
AcDbBlockTableRecord
  2
*B13
340
0
  0
BLOCK_RECORD
  5
1BA
100
AcDbSymbolTableRecord
100
AcDbBlockTableRecord
  2
*B14
340
0
  0
BLOCK_RECORD
  5
1C1
100
AcDbSymbolTableRecord
100
AcDbBlockTableRecord
  2
*B15
340
0
  0
BLOCK_RECORD
  5
1C8
100
AcDbSymbolTableRecord
100
AcDbBlockTableRecord
  2
*B16
340
0
  0
BLOCK_RECORD
  5
1CF
100
AcDbSymbolTableRecord
100
AcDbBlockTableRecord
  2
*B17
340
0
  0
BLOCK_RECORD
  5
1D6
100
AcDbSymbolTableRecord
100
AcDbBlockTableRecord
  2
*B18
340
0
  0
BLOCK_RECORD
  5
1DB
100
AcDbSymbolTableRecord
100
AcDbBlockTableRecord
  2
*B19
340
0
  0
BLOCK_RECORD
  5
1E0
100
AcDbSymbolTableRecord
100
AcDbBlockTableRecord
  2
*B20
340
0
  0
BLOCK_RECORD
  5
1E6
100
AcDbSymbolTableRecord
100
AcDbBlockTableRecord
  2
*B21
340
0
  0
BLOCK_RECORD
  5
1ED
100
AcDbSymbolTableRecord
100
AcDbBlockTableRecord
  2
*B22
340
0
  0
BLOCK_RECORD
  5
1F3
100
AcDbSymbolTableRecord
100
AcDbBlockTableRecord
  2
*B23
340
0
  0
BLOCK_RECORD
  5
202
100
AcDbSymbolTableRecord
100
AcDbBlockTableRecord
  2
*B24
340
0
  0
BLOCK_RECORD
  5
207
100
AcDbSymbolTableRecord
100
AcDbBlockTableRecord
  2
*B25
340
0
  0
BLOCK_RECORD
  5
20C
100
AcDbSymbolTableRecord
100
AcDbBlockTableRecord
  2
*B26
340
0
  0
BLOCK_RECORD
  5
211
100
AcDbSymbolTableRecord
100
AcDbBlockTableRecord
  2
*B27
340
0
  0
BLOCK_RECORD
  5
225
100
AcDbSymbolTableRecord
100
AcDbBlockTableRecord
  2
*B28
340
0
  0
BLOCK_RECORD
  5
22B
100
AcDbSymbolTableRecord
100
AcDbBlockTableRecord
  2
*B29
340
0
  0
BLOCK_RECORD
  5
230
100
AcDbSymbolTableRecord
100
AcDbBlockTableRecord
  2
*B30
340
0
  0
BLOCK_RECORD
  5
23F
100
AcDbSymbolTableRecord
100
AcDbBlockTableRecord
  2
*B31
340
0
  0
BLOCK_RECORD
  5
244
100
AcDbSymbolTableRecord
100
AcDbBlockTableRecord
  2
*B32
340
0
  0
BLOCK_RECORD
  5
249
100
AcDbSymbolTableRecord
100
AcDbBlockTableRecord
  2
*B33
340
0
  0
BLOCK_RECORD
  5
24F
100
AcDbSymbolTableRecord
100
AcDbBlockTableRecord
  2
*B34
340
0
  0
BLOCK_RECORD
  5
254
100
AcDbSymbolTableRecord
100
AcDbBlockTableRecord
  2
*B35
340
0
  0
BLOCK_RECORD
  5
25A
100
AcDbSymbolTableRecord
100
AcDbBlockTableRecord
  2
*B36
340
0
  0
BLOCK_RECORD
  5
25F
100
AcDbSymbolTableRecord
100
AcDbBlockTableRecord
  2
*B37
340
0
  0
BLOCK_RECORD
  5
264
100
AcDbSymbolTableRecord
100
AcDbBlockTableRecord
  2
*B38
340
0
  0
BLOCK_RECORD
  5
273
100
AcDbSymbolTableRecord
100
AcDbBlockTableRecord
  2
*B39
340
0
  0
BLOCK_RECORD
  5
278
100
AcDbSymbolTableRecord
100
AcDbBlockTableRecord
  2
*B40
340
0
  0
BLOCK_RECORD
  5
285
100
AcDbSymbolTableRecord
100
AcDbBlockTableRecord
  2
*B41
340
0
  0
BLOCK_RECORD
  5
290
100
AcDbSymbolTableRecord
100
AcDbBlockTableRecord
  2
*B42
340
0
  0
BLOCK_RECORD
  5
295
100
AcDbSymbolTableRecord
100
AcDbBlockTableRecord
  2
*B43
340
0
  0
BLOCK_RECORD
  5
2AE
100
AcDbSymbolTableRecord
100
AcDbBlockTableRecord
  2
*B44
340
0
  0
BLOCK_RECORD
  5
2B3
100
AcDbSymbolTableRecord
100
AcDbBlockTableRecord
  2
*B45
340
0
  0
BLOCK_RECORD
  5
2B9
100
AcDbSymbolTableRecord
100
AcDbBlockTableRecord
  2
*B46
340
0
  0
BLOCK_RECORD
  5
2BF
100
AcDbSymbolTableRecord
100
AcDbBlockTableRecord
  2
*B47
340
0
  0
BLOCK_RECORD
  5
2C5
100
AcDbSymbolTableRecord
100
AcDbBlockTableRecord
  2
*B48
340
0
  0
BLOCK_RECORD
  5
2CB
100
AcDbSymbolTableRecord
100
AcDbBlockTableRecord
  2
*B49
340
0
  0
BLOCK_RECORD
  5
2D1
100
AcDbSymbolTableRecord
100
AcDbBlockTableRecord
  2
*B50
340
0
  0
BLOCK_RECORD
  5
2D7
100
AcDbSymbolTableRecord
100
AcDbBlockTableRecord
  2
*B51
340
0
  0
BLOCK_RECORD
  5
2DC
100
AcDbSymbolTableRecord
100
AcDbBlockTableRecord
  2
*B52
340
0
  0
BLOCK_RECORD
  5
2E1
100
AcDbSymbolTableRecord
100
AcDbBlockTableRecord
  2
*B53
340
0
  0
BLOCK_RECORD
  5
2E6
100
AcDbSymbolTableRecord
100
AcDbBlockTableRecord
  2
*B54
340
0
  0
BLOCK_RECORD
  5
2EB
100
AcDbSymbolTableRecord
100
AcDbBlockTableRecord
  2
*B55
340
0
  0
BLOCK_RECORD
  5
2F0
100
AcDbSymbolTableRecord
100
AcDbBlockTableRecord
  2
*B56
340
0
  0
BLOCK_RECORD
  5
2F5
100
AcDbSymbolTableRecord
100
AcDbBlockTableRecord
  2
*B57
340
0
  0
BLOCK_RECORD
  5
2FA
100
AcDbSymbolTableRecord
100
AcDbBlockTableRecord
  2
*B58
340
0
  0
BLOCK_RECORD
  5
2FF
100
AcDbSymbolTableRecord
100
AcDbBlockTableRecord
  2
*B59
340
0
  0
BLOCK_RECORD
  5
304
100
AcDbSymbolTableRecord
100
AcDbBlockTableRecord
  2
*B60
340
0
  0
BLOCK_RECORD
  5
309
100
AcDbSymbolTableRecord
100
AcDbBlockTableRecord
  2
*B61
340
0
  0
BLOCK_RECORD
  5
30E
100
AcDbSymbolTableRecord
100
AcDbBlockTableRecord
  2
*B62
340
0
  0
BLOCK_RECORD
  5
313
100
AcDbSymbolTableRecord
100
AcDbBlockTableRecord
  2
*B63
340
0
  0
BLOCK_RECORD
  5
318
100
AcDbSymbolTableRecord
100
AcDbBlockTableRecord
  2
*B64
340
0
  0
BLOCK_RECORD
  5
31D
100
AcDbSymbolTableRecord
100
AcDbBlockTableRecord
  2
*B65
340
0
  0
BLOCK_RECORD
  5
322
100
AcDbSymbolTableRecord
100
AcDbBlockTableRecord
  2
*B66
340
0
  0
BLOCK_RECORD
  5
327
100
AcDbSymbolTableRecord
100
AcDbBlockTableRecord
  2
*B67
340
0
  0
BLOCK_RECORD
  5
32C
100
AcDbSymbolTableRecord
100
AcDbBlockTableRecord
  2
*B68
340
0
  0
BLOCK_RECORD
  5
331
100
AcDbSymbolTableRecord
100
AcDbBlockTableRecord
  2
*B69
340
0
  0
ENDTAB
  0
ENDSEC
  0
SECTION
  2
BLOCKS
  0
BLOCK
  5
D
100
AcDbEntity
  8
0
100
AcDbBlockBegin
  2
*MODEL_SPACE
 70
     0
 10
0.0
 20
0.0
 30
0.0
  3
*MODEL_SPACE
  1

  0
ENDBLK
  5
E
100
AcDbEntity
  8
0
100
AcDbBlockEnd
  0
BLOCK
  5
F
100
AcDbEntity
 67
     1
  8
0
100
AcDbBlockBegin
  2
*PAPER_SPACE
 70
     0
 10
0.0
 20
0.0
 30
0.0
  3
*PAPER_SPACE
  1

  0
ENDBLK
  5
10
100
AcDbEntity
 67
     1
  8
0
100
AcDbBlockEnd
  0
BLOCK
  5
2A
100
AcDbEntity
  8
0
100
AcDbBlockBegin
  2
*B0
 70
     0
 10
0.0
 20
0.0
 30
0.0
  3
*B0
  1

  0
ENDBLK
  5
2B
100
AcDbEntity
  8
0
100
AcDbBlockEnd
  0
BLOCK
  5
2D
100
AcDbEntity
  8
0
100
AcDbBlockBegin
  2
*B1
 70
     0
 10
0.0
 20
0.0
 30
0.0
  3
*B1
  1

  0
LINE
  5
2E
100
AcDbEntity
  8
0
  6
HIDDEN
 62
   174
100
AcDbLine
 10
213.907499
 20
181.026176
 30
0.0
 11
232.707596
 21
181.026176
 31
0.0
  0
LINE
  5
2F
100
AcDbEntity
  8
0
  6
HIDDEN
 62
   174
100
AcDbLine
 10
213.881952
 20
180.026176
 30
0.0
 11
213.881952
 21
166.026176
 31
0.0
  0
LINE
  5
30
100
AcDbEntity
  8
0
  6
HIDDEN
 62
   174
100
AcDbLine
 10
233.761952
 20
180.026176
 30
0.0
 11
233.761952
 21
166.026176
 31
0.0
  0
LINE
  5
31
100
AcDbEntity
  8
0
  6
HIDDEN
 62
   174
100
AcDbLine
 10
212.827535
 20
180.026176
 30
0.0
 11
233.78756
 21
180.026176
 31
0.0
  0
LINE
  5
32
100
AcDbEntity
  8
0
  6
HIDDEN
 62
   174
100
AcDbLine
 10
212.827535
 20
166.026176
 30
0.0
 11
233.78756
 21
166.026176
 31
0.0
  0
LINE
  5
33
100
AcDbEntity
  8
0
  6
HIDDEN
 62
   174
100
AcDbLine
 10
212.801952
 20
180.026176
 30
0.0
 11
212.801952
 21
166.026176
 31
0.0
  0
LINE
  5
34
100
AcDbEntity
  8
0
  6
HIDDEN
 62
   174
100
AcDbLine
 10
233.761952
 20
180.026176
 30
0.0
 11
233.761952
 21
166.026176
 31
0.0
  0
LINE
  5
35
100
AcDbEntity
  8
0
  6
HIDDEN
 62
   174
100
AcDbLine
 10
212.801952
 20
180.026176
 30
0.0
 11
212.801952
 21
166.026176
 31
0.0
  0
LINE
  5
36
100
AcDbEntity
  8
0
  6
HIDDEN
 62
   174
100
AcDbLine
 10
213.881952
 20
166.026176
 30
0.0
 11
213.881952
 21
181.026176
 31
0.0
  0
LINE
  5
37
100
AcDbEntity
  8
0
  6
HIDDEN
 62
   174
100
AcDbLine
 10
232.681952
 20
166.026176
 30
0.0
 11
232.681952
 21
181.026176
 31
0.0
  0
LINE
  5
38
100
AcDbEntity
  8
0
  6
HIDDEN
 62
   174
100
AcDbLine
 10
213.881952
 20
166.026176
 30
0.0
 11
213.881952
 21
181.026176
 31
0.0
  0
LINE
  5
39
100
AcDbEntity
  8
0
  6
HIDDEN
 62
   174
100
AcDbLine
 10
232.681952
 20
166.026176
 30
0.0
 11
232.681952
 21
181.026176
 31
0.0
  0
LINE
  5
3A
100
AcDbEntity
  8
0
  6
HIDDEN
 62
   174
100
AcDbLine
 10
232.681952
 20
180.026176
 30
0.0
 11
232.681952
 21
166.026176
 31
0.0
  0
LINE
  5
3B
100
AcDbEntity
  8
0
  6
HIDDEN
 62
   174
100
AcDbLine
 10
232.681952
 20
180.026176
 30
0.0
 11
232.681952
 21
166.026176
 31
0.0
  0
LINE
  5
3C
100
AcDbEntity
  8
0
  6
HIDDEN
 62
   174
100
AcDbLine
 10
264.681952
 20
166.026176
 30
0.0
 11
264.681952
 21
181.026176
 31
0.0
  0
LINE
  5
3D
100
AcDbEntity
  8
0
  6
Continuous
 62
   174
100
AcDbLine
 10
140.781952
 20
227.526176
 30
0.0
 11
137.781952
 21
227.526176
 31
0.0
  0
LINE
  5
3E
100
AcDbEntity
  8
0
  6
Continuous
 62
   174
100
AcDbLine
 10
137.781952
 20
243.026176
 30
0.0
 11
137.081952
 21
243.026176
 31
0.0
  0
LINE
  5
3F
100
AcDbEntity
  8
0
  6
Continuous
 62
   174
100
AcDbLine
 10
133.281952
 20
226.226176
 30
0.0
 11
133.949206
 21
225.070458
 31
0.0
  0
LINE
  5
40
100
AcDbEntity
  8
0
  6
Continuous
 62
   174
100
AcDbLine
 10
140.781952
 20
242.026176
 30
0.0
 11
155.781952
 21
242.026176
 31
0.0
  0
LINE
  5
41
100
AcDbEntity
  8
0
  6
HIDDEN
 62
   174
100
AcDbLine
 10
248.681952
 20
212.026176
 30
0.0
 11
248.681952
 21
226.026176
 31
0.0
  0
LINE
  5
42
100
AcDbEntity
  8
0
  6
HIDDEN
 62
   174
100
AcDbLine
 10
249.761952
 20
212.026176
 30
0.0
 11
249.761952
 21
226.026176
 31
0.0
  0
LINE
  5
43
100
AcDbEntity
  8
0
  6
HIDDEN
 62
   174
100
AcDbLine
 10
229.881952
 20
226.026176
 30
0.0
 11
229.881952
 21
211.026176
 31
0.0
  0
LINE
  5
44
100
AcDbEntity
  8
0
  6
HIDDEN
 62
   174
100
AcDbLine
 10
152.281952
 20
186.064239
 30
0.0
 11
152.281952
 21
196.063299
 31
0.0
  0
LINE
  5
45
100
AcDbEntity
  8
0
  6
HIDDEN
 62
   174
100
AcDbLine
 10
140.781952
 20
240.560246
 30
0.0
 11
140.781952
 21
234.060631
 31
0.0
  0
LINE
  5
46
100
AcDbEntity
  8
0
  6
Continuous
 62
   174
100
AcDbLine
 10
144.581952
 20
205.744829
 30
0.0
 11
144.581952
 21
204.67658
 31
0.0
  0
LINE
  5
47
100
AcDbEntity
  8
0
  6
Continuous
 62
   174
100
AcDbLine
 10
144.581952
 20
201.141686
 30
0.0
 11
144.581952
 21
198.56329
 31
0.0
  0
ARC
  5
48
100
AcDbEntity
  8
0
  6
Continuous
 62
   174
100
AcDbCircle
 10
223.281952
 20
216.026176
 30
0.0
 40
3.3
100
AcDbArc
 50
0.0
 51
180.0
  0
ARC
  5
49
100
AcDbEntity
  8
0
  6
Continuous
 62
   174
100
AcDbCircle
 10
223.281952
 20
216.026176
 30
0.0
 40
3.3
100
AcDbArc
 50
-180.0
 51
0.0
  0
LINE
  5
4A
100
AcDbEntity
  8
0
  6
Continuous
 62
   174
100
AcDbLine
 10
133.974773
 20
225.026625
 30
0.0
 11
133.947299
 21
225.075462
 31
0.0
  0
LINE
  5
4B
100
AcDbEntity
  8
0
  6
HIDDEN
 62
   174
100
AcDbLine
 10
264.681952
 20
180.026176
 30
0.0
 11
264.681952
 21
166.026176
 31
0.0
  0
LINE
  5
4C
100
AcDbEntity
  8
0
  6
HIDDEN
 62
   174
100
AcDbLine
 10
169.099357
 20
242.026176
 30
0.0
 11
167.281952
 21
242.026176
 31
0.0
  0
LINE
  5
4D
100
AcDbEntity
  8
0
  6
HIDDEN
 62
   174
100
AcDbLine
 10
229.881952
 20
226.026176
 30
0.0
 11
229.881952
 21
211.026176
 31
0.0
  0
LINE
  5
4E
100
AcDbEntity
  8
0
  6
HIDDEN
 62
   174
100
AcDbLine
 10
229.881952
 20
212.026176
 30
0.0
 11
229.881952
 21
226.026176
 31
0.0
  0
LINE
  5
4F
100
AcDbEntity
  8
0
  6
Continuous
 62
   174
100
AcDbLine
 10
280.281952
 20
166.026176
 30
0.0
 11
280.281952
 21
226.026176
 31
0.0
  0
LINE
  5
50
100
AcDbEntity
  8
0
  6
Continuous
 62
   174
100
AcDbLine
 10
198.281952
 20
166.026176
 30
0.0
 11
182.281952
 21
166.026176
 31
0.0
  0
LINE
  5
51
100
AcDbEntity
  8
0
  6
Continuous
 62
   174
100
AcDbLine
 10
137.781952
 20
225.061326
 30
0.0
 11
137.781952
 21
227.346826
 31
0.0
  0
LWPOLYLINE
  5
52
100
AcDbEntity
  8
0
  6
Continuous
 62
   174
100
AcDbPolyline
 90
        4
 70
   128
 10
133.974773
 20
229.448516
 10
133.646872
 20
230.701331
 10
133.414118
 20
231.924152
 10
133.281952
 20
233.134564
  0
LWPOLYLINE
  5
53
100
AcDbEntity
  8
0
  6
Continuous
 62
   174
100
AcDbPolyline
 90
        6
 70
   128
 10
133.431292
 20
226.304346
 10
133.380548
 20
226.515362
 10
133.303644
 20
227.23761
 10
133.380563
 20
227.95985
 10
133.608663
 20
228.696869
 10
133.974773
 20
229.448516
  0
LINE
  5
54
100
AcDbEntity
  8
0
  6
HIDDEN
 62
   174
100
AcDbLine
 10
244.801952
 20
180.026176
 30
0.0
 11
244.801952
 21
166.026176
 31
0.0
  0
LINE
  5
55
100
AcDbEntity
  8
0
  6
Continuous
 62
   174
100
AcDbLine
 10
137.781952
 20
225.026176
 30
0.0
 11
137.081952
 21
225.026176
 31
0.0
  0
LINE
  5
56
100
AcDbEntity
  8
0
  6
HIDDEN
 62
   174
100
AcDbLine
 10
152.781952
 20
231.242294
 30
0.0
 11
152.781952
 21
226.026176
 31
0.0
  0
LINE
  5
57
100
AcDbEntity
  8
0
  6
Continuous
 62
   174
100
AcDbLine
 10
198.281952
 20
166.026176
 30
0.0
 11
198.281952
 21
226.026176
 31
0.0
  0
LINE
  5
58
100
AcDbEntity
  8
0
  6
HIDDEN
 62
   174
100
AcDbLine
 10
228.801952
 20
212.026176
 30
0.0
 11
228.801952
 21
226.026176
 31
0.0
  0
LINE
  5
59
100
AcDbEntity
  8
0
  6
HIDDEN
 62
   174
100
AcDbLine
 10
229.881952
 20
212.026176
 30
0.0
 11
229.881952
 21
226.026176
 31
0.0
  0
LINE
  5
5A
100
AcDbEntity
  8
0
  6
Continuous
 62
   174
100
AcDbLine
 10
280.281952
 20
226.026176
 30
0.0
 11
198.281952
 21
226.026176
 31
0.0
  0
LINE
  5
5B
100
AcDbEntity
  8
0
  6
HIDDEN
 62
   174
100
AcDbLine
 10
152.281952
 20
196.063299
 30
0.0
 11
152.281952
 21
206.06266
 31
0.0
  0
LINE
  5
5C
100
AcDbEntity
  8
0
  6
HIDDEN
 62
   174
100
AcDbLine
 10
140.781952
 20
227.561016
 30
0.0
 11
140.781952
 21
234.060631
 31
0.0
  0
LINE
  5
5D
100
AcDbEntity
  8
0
  6
HIDDEN
 62
   174
100
AcDbLine
 10
137.781952
 20
240.560246
 30
0.0
 11
137.781952
 21
234.060631
 31
0.0
  0
LINE
  5
5E
100
AcDbEntity
  8
0
  6
Continuous
 62
   174
100
AcDbLine
 10
140.781952
 20
242.06018
 30
0.0
 11
140.781952
 21
240.66689
 31
0.0
  0
LINE
  5
5F
100
AcDbEntity
  8
0
  6
Continuous
 62
   174
100
AcDbLine
 10
137.081952
 20
243.059635
 30
0.0
 11
137.081952
 21
238.637938
 31
0.0
  0
ARC
  5
60
100
AcDbEntity
  8
0
  6
Continuous
 62
   174
100
AcDbCircle
 10
255.281952
 20
216.026176
 30
0.0
 40
3.3
100
AcDbArc
 50
0.0
 51
180.0
  0
LWPOLYLINE
  5
61
100
AcDbEntity
  8
0
  6
Continuous
 62
   174
100
AcDbPolyline
 90
        4
 70
   128
 10
133.281952
 20
234.917787
 10
133.415072
 20
236.134502
 10
133.648158
 20
237.356666
 10
133.974773
 20
238.603836
  0
LINE
  5
62
100
AcDbEntity
  8
0
  6
Continuous
 62
   174
100
AcDbLine
 10
133.948095
 20
225.074051
 30
0.0
 11
133.431292
 21
226.304346
 31
0.0
  0
LINE
  5
63
100
AcDbEntity
  8
0
  6
HIDDEN
 62
   174
100
AcDbLine
 10
245.881952
 20
166.026176
 30
0.0
 11
245.881952
 21
181.026176
 31
0.0
  0
LINE
  5
64
100
AcDbEntity
  8
0
  6
HIDDEN
 62
   174
100
AcDbLine
 10
248.707595
 20
211.026176
 30
0.0
 11
229.907498
 21
211.026176
 31
0.0
  0
LINE
  5
65
100
AcDbEntity
  8
0
  6
HIDDEN
 62
   174
100
AcDbLine
 10
249.78756
 20
212.026176
 30
0.0
 11
228.827534
 21
212.026176
 31
0.0
  0
LINE
  5
66
100
AcDbEntity
  8
0
  6
HIDDEN
 62
   174
100
AcDbLine
 10
249.78756
 20
226.026176
 30
0.0
 11
228.827534
 21
226.026176
 31
0.0
  0
LINE
  5
67
100
AcDbEntity
  8
0
  6
HIDDEN
 62
   174
100
AcDbLine
 10
228.801952
 20
212.026176
 30
0.0
 11
228.801952
 21
226.026176
 31
0.0
  0
LINE
  5
68
100
AcDbEntity
  8
0
  6
HIDDEN
 62
   174
100
AcDbLine
 10
248.681952
 20
226.026176
 30
0.0
 11
248.681952
 21
211.026176
 31
0.0
  0
LINE
  5
69
100
AcDbEntity
  8
0
  6
HIDDEN
 62
   174
100
AcDbLine
 10
137.781952
 20
234.060631
 30
0.0
 11
137.781952
 21
227.561016
 31
0.0
  0
LINE
  5
6A
100
AcDbEntity
  8
0
  6
Continuous
 62
   174
100
AcDbLine
 10
140.781952
 20
227.454071
 30
0.0
 11
140.781952
 21
226.061382
 31
0.0
  0
LINE
  5
6B
100
AcDbEntity
  8
0
  6
Continuous
 62
   174
100
AcDbLine
 10
140.781952
 20
234.060631
 30
0.0
 11
140.781952
 21
227.454071
 31
0.0
  0
LINE
  5
6C
100
AcDbEntity
  8
0
  6
HIDDEN
 62
   174
100
AcDbLine
 10
150.781952
 20
201.107771
 30
0.0
 11
150.781952
 21
204.64182
 31
0.0
  0
LINE
  5
6D
100
AcDbEntity
  8
0
  6
HIDDEN
 62
   174
100
AcDbLine
 10
213.881952
 20
180.026176
 30
0.0
 11
213.881952
 21
166.026176
 31
0.0
  0
LINE
  5
6E
100
AcDbEntity
  8
0
  6
HIDDEN
 62
   174
100
AcDbLine
 10
245.881952
 20
180.026176
 30
0.0
 11
245.881952
 21
166.026176
 31
0.0
  0
LINE
  5
6F
100
AcDbEntity
  8
0
  6
HIDDEN
 62
   174
100
AcDbLine
 10
244.801952
 20
180.026176
 30
0.0
 11
244.801952
 21
166.026176
 31
0.0
  0
LINE
  5
70
100
AcDbEntity
  8
0
  6
HIDDEN
 62
   174
100
AcDbLine
 10
245.881952
 20
166.026176
 30
0.0
 11
245.881952
 21
181.026176
 31
0.0
  0
LINE
  5
71
100
AcDbEntity
  8
0
  6
HIDDEN
 62
   174
100
AcDbLine
 10
264.681952
 20
180.026176
 30
0.0
 11
264.681952
 21
166.026176
 31
0.0
  0
LINE
  5
72
100
AcDbEntity
  8
0
  6
Continuous
 62
   174
100
AcDbLine
 10
140.781952
 20
226.026176
 30
0.0
 11
152.781952
 21
226.026176
 31
0.0
  0
LINE
  5
73
100
AcDbEntity
  8
0
  6
HIDDEN
 62
   174
100
AcDbLine
 10
248.681952
 20
226.026176
 30
0.0
 11
248.681952
 21
211.026176
 31
0.0
  0
LINE
  5
74
100
AcDbEntity
  8
0
  6
Continuous
 62
   174
100
AcDbLine
 10
137.781952
 20
234.060631
 30
0.0
 11
137.781952
 21
240.774736
 31
0.0
  0
LINE
  5
75
100
AcDbEntity
  8
0
  6
Continuous
 62
   174
100
AcDbLine
 10
137.781952
 20
240.774736
 30
0.0
 11
137.781952
 21
243.059936
 31
0.0
  0
LINE
  5
76
100
AcDbEntity
  8
0
  6
Continuous
 62
   174
100
AcDbLine
 10
137.081952
 20
238.637938
 30
0.0
 11
137.081952
 21
234.060631
 31
0.0
  0
LINE
  5
77
100
AcDbEntity
  8
0
  6
Continuous
 62
   174
100
AcDbLine
 10
137.081952
 20
234.060631
 30
0.0
 11
137.081952
 21
229.483323
 31
0.0
  0
LINE
  5
78
100
AcDbEntity
  8
0
  6
Continuous
 62
   174
100
AcDbLine
 10
133.281952
 20
233.134564
 30
0.0
 11
133.281952
 21
234.917787
 31
0.0
  0
LINE
  5
79
100
AcDbEntity
  8
0
  6
HIDDEN
 62
   174
100
AcDbLine
 10
244.827533
 20
180.026176
 30
0.0
 11
265.787559
 21
180.026176
 31
0.0
  0
LINE
  5
7A
100
AcDbEntity
  8
0
  6
HIDDEN
 62
   174
100
AcDbLine
 10
244.827533
 20
166.026176
 30
0.0
 11
265.787559
 21
166.026176
 31
0.0
  0
LINE
  5
7B
100
AcDbEntity
  8
0
  6
HIDDEN
 62
   174
100
AcDbLine
 10
264.681952
 20
166.026176
 30
0.0
 11
264.681952
 21
181.026176
 31
0.0
  0
LINE
  5
7C
100
AcDbEntity
  8
0
  6
HIDDEN
 62
   174
100
AcDbLine
 10
169.538221
 20
242.026176
 30
0.0
 11
169.099357
 21
242.026176
 31
0.0
  0
LINE
  5
7D
100
AcDbEntity
  8
0
  6
Continuous
 62
   174
100
AcDbLine
 10
140.781952
 20
240.526176
 30
0.0
 11
137.781952
 21
240.526176
 31
0.0
  0
LINE
  5
7E
100
AcDbEntity
  8
0
  6
Continuous
 62
   174
100
AcDbLine
 10
133.281952
 20
241.826176
 30
0.0
 11
133.949229
 21
242.981932
 31
0.0
  0
LINE
  5
7F
100
AcDbEntity
  8
0
  6
Continuous
 62
   174
100
AcDbLine
 10
181.781952
 20
239.026176
 30
0.0
 11
181.781952
 21
213.026176
 31
0.0
  0
LINE
  5
80
100
AcDbEntity
  8
0
  6
Continuous
 62
   174
100
AcDbLine
 10
198.281952
 20
166.026176
 30
0.0
 11
280.281952
 21
166.026176
 31
0.0
  0
ARC
  5
81
100
AcDbEntity
  8
0
  6
Continuous
 62
   174
100
AcDbCircle
 10
255.281952
 20
216.026176
 30
0.0
 40
3.3
100
AcDbArc
 50
-180.0
 51
0.0
  0
LINE
  5
82
100
AcDbEntity
  8
0
  6
Continuous
 62
   174
100
AcDbLine
 10
133.974773
 20
238.603836
 30
0.0
 11
137.081952
 21
238.603836
 31
0.0
  0
LINE
  5
83
100
AcDbEntity
  8
0
  6
Continuous
 62
   174
100
AcDbLine
 10
137.081952
 20
225.026625
 30
0.0
 11
133.974773
 21
225.026625
 31
0.0
  0
ARC
  5
84
100
AcDbEntity
  8
0
  6
Continuous
 62
   174
100
AcDbCircle
 10
239.281952
 20
176.026176
 30
0.0
 40
3.3
100
AcDbArc
 50
-180.0
 51
0.0
  0
ARC
  5
85
100
AcDbEntity
  8
0
  6
Continuous
 62
   174
100
AcDbCircle
 10
239.281952
 20
176.026176
 30
0.0
 40
3.3
100
AcDbArc
 50
0.0
 51
180.0
  0
LINE
  5
86
100
AcDbEntity
  8
0
  6
HIDDEN
 62
   174
100
AcDbLine
 10
245.881952
 20
180.026176
 30
0.0
 11
245.881952
 21
166.026176
 31
0.0
  0
LINE
  5
87
100
AcDbEntity
  8
0
  6
HIDDEN
 62
   174
100
AcDbLine
 10
264.707594
 20
166.026176
 30
0.0
 11
245.907497
 21
166.026176
 31
0.0
  0
LINE
  5
88
100
AcDbEntity
  8
0
  6
HIDDEN
 62
   174
100
AcDbLine
 10
232.707596
 20
166.026176
 30
0.0
 11
213.907499
 21
166.026176
 31
0.0
  0
LINE
  5
89
100
AcDbEntity
  8
0
  6
HIDDEN
 62
   174
100
AcDbLine
 10
229.907498
 20
226.026176
 30
0.0
 11
248.707595
 21
226.026176
 31
0.0
  0
LINE
  5
8A
100
AcDbEntity
  8
0
  6
Continuous
 62
   174
100
AcDbLine
 10
198.281952
 20
226.026176
 30
0.0
 11
198.281952
 21
166.026176
 31
0.0
  0
LINE
  5
8B
100
AcDbEntity
  8
0
  6
Continuous
 62
   174
100
AcDbLine
 10
198.281952
 20
226.026176
 30
0.0
 11
182.281952
 21
226.026176
 31
0.0
  0
LINE
  5
8C
100
AcDbEntity
  8
0
  6
Continuous
 62
   174
100
AcDbLine
 10
137.781952
 20
227.346826
 30
0.0
 11
137.781952
 21
234.060631
 31
0.0
  0
LINE
  5
8D
100
AcDbEntity
  8
0
  6
Continuous
 62
   174
100
AcDbLine
 10
137.081952
 20
229.448516
 30
0.0
 11
133.974773
 21
229.448516
 31
0.0
  0
LINE
  5
8E
100
AcDbEntity
  8
0
  6
Continuous
 62
   174
100
AcDbLine
 10
144.581952
 20
193.563609
 30
0.0
 11
144.581952
 21
190.984912
 31
0.0
  0
LINE
  5
8F
100
AcDbEntity
  8
0
  6
Continuous
 62
   174
100
AcDbLine
 10
144.581952
 20
187.449417
 30
0.0
 11
144.581952
 21
186.381469
 31
0.0
  0
LWPOLYLINE
  5
90
100
AcDbEntity
  8
0
  6
HIDDEN
 62
   174
100
AcDbPolyline
 90
        4
 70
   128
 10
133.281952
 20
226.869649
 10
133.415073
 20
226.26129
 10
133.648155
 20
225.650216
 10
133.946051
 20
225.075926
  0
LINE
  5
91
100
AcDbEntity
  8
0
  6
HIDDEN
 62
   174
100
AcDbLine
 10
133.945965
 20
225.076075
 30
0.0
 11
133.974773
 21
225.026625
 31
0.0
  0
LINE
  5
92
100
AcDbEntity
  8
0
  6
HIDDEN
 62
   174
100
AcDbLine
 10
265.761952
 20
180.026176
 30
0.0
 11
265.761952
 21
166.026176
 31
0.0
  0
LINE
  5
93
100
AcDbEntity
  8
0
  6
HIDDEN
 62
   174
100
AcDbLine
 10
265.761952
 20
180.026176
 30
0.0
 11
265.761952
 21
166.026176
 31
0.0
  0
LINE
  5
94
100
AcDbEntity
  8
0
  6
HIDDEN
 62
   174
100
AcDbLine
 10
167.281952
 20
242.026176
 30
0.0
 11
165.304769
 21
242.026176
 31
0.0
  0
LINE
  5
95
100
AcDbEntity
  8
0
  6
HIDDEN
 62
   174
100
AcDbLine
 10
152.781952
 20
226.026176
 30
0.0
 11
152.781952
 21
213.026176
 31
0.0
  0
LINE
  5
96
100
AcDbEntity
  8
0
  6
HIDDEN
 62
   174
100
AcDbLine
 10
249.761952
 20
212.026176
 30
0.0
 11
249.761952
 21
226.026176
 31
0.0
  0
LINE
  5
97
100
AcDbEntity
  8
0
  6
HIDDEN
 62
   174
100
AcDbLine
 10
248.681952
 20
212.026176
 30
0.0
 11
248.681952
 21
226.026176
 31
0.0
  0
LINE
  5
98
100
AcDbEntity
  8
0
  6
Continuous
 62
   174
100
AcDbLine
 10
182.281952
 20
166.026176
 30
0.0
 11
182.281952
 21
226.026176
 31
0.0
  0
LINE
  5
99
100
AcDbEntity
  8
0
  6
Continuous
 62
   174
100
AcDbLine
 10
140.781952
 20
240.66689
 30
0.0
 11
140.781952
 21
234.060631
 31
0.0
  0
LINE
  5
9A
100
AcDbEntity
  8
0
  6
Continuous
 62
   174
100
AcDbLine
 10
137.081952
 20
229.483323
 30
0.0
 11
137.081952
 21
225.061626
 31
0.0
  0
LINE
  5
9B
100
AcDbEntity
  8
0
  6
HIDDEN
 62
   174
100
AcDbLine
 10
144.581952
 20
204.64182
 30
0.0
 11
150.781952
 21
204.64182
 31
0.0
  0
LINE
  5
9C
100
AcDbEntity
  8
0
  6
HIDDEN
 62
   174
100
AcDbLine
 10
163.881952
 20
242.026176
 30
0.0
 11
164.282277
 21
242.026176
 31
0.0
  0
LINE
  5
9D
100
AcDbEntity
  8
0
  6
HIDDEN
 62
   174
100
AcDbLine
 10
155.807505
 20
239.026176
 30
0.0
 11
152.807636
 21
239.026176
 31
0.0
  0
LINE
  5
9E
100
AcDbEntity
  8
0
  6
HIDDEN
 62
   174
100
AcDbLine
 10
152.781952
 20
226.061382
 30
0.0
 11
152.781952
 21
231.277056
 31
0.0
  0
LWPOLYLINE
  5
9F
100
AcDbEntity
  8
0
  6
HIDDEN
 62
   174
100
AcDbPolyline
 90
        4
 70
   128
 10
133.281952
 20
240.291091
 10
133.415073
 20
239.682732
 10
133.648155
 20
239.071657
 10
133.974773
 20
238.448066
  0
LINE
  5
A0
100
AcDbEntity
  8
0
  6
Continuous
 62
   174
100
AcDbLine
 10
133.281952
 20
241.860108
 30
0.0
 11
133.281952
 21
234.95224
 31
0.0
  0
LWPOLYLINE
  5
A1
100
AcDbEntity
  8
0
  6
HIDDEN
 62
   174
100
AcDbPolyline
 90
        7
 70
   128
 10
133.974773
 20
238.448066
 10
133.60867
 20
236.944796
 10
133.38057
 20
235.470806
 10
133.303639
 20
234.026413
 10
133.380526
 20
232.581967
 10
133.608619
 20
231.107815
 10
133.974773
 20
229.604285
  0
LINE
  5
A2
100
AcDbEntity
  8
0
  6
HIDDEN
 62
   174
100
AcDbLine
 10
137.081952
 20
243.025726
 30
0.0
 11
137.081952
 21
238.448066
 31
0.0
  0
LINE
  5
A3
100
AcDbEntity
  8
0
  6
Continuous
 62
   174
100
AcDbLine
 10
133.947332
 20
242.976933
 30
0.0
 11
133.974773
 21
243.025726
 31
0.0
  0
LINE
  5
A4
100
AcDbEntity
  8
0
  6
HIDDEN
 62
   174
100
AcDbLine
 10
155.781952
 20
242.026176
 30
0.0
 11
163.881952
 21
242.026176
 31
0.0
  0
LINE
  5
A5
100
AcDbEntity
  8
0
  6
Continuous
 62
   174
100
AcDbLine
 10
150.781952
 20
193.563609
 30
0.0
 11
150.781952
 21
197.559328
 31
0.0
  0
LINE
  5
A6
100
AcDbEntity
  8
0
  6
HIDDEN
 62
   174
100
AcDbLine
 10
170.281952
 20
242.026176
 30
0.0
 11
170.681952
 21
242.026176
 31
0.0
  0
LINE
  5
A7
100
AcDbEntity
  8
0
  6
HIDDEN
 62
   174
100
AcDbLine
 10
133.974773
 20
243.025726
 30
0.0
 11
133.945921
 21
242.976202
 31
0.0
  0
LINE
  5
A8
100
AcDbEntity
  8
0
  6
Continuous
 62
   174
100
AcDbLine
 10
144.581952
 20
204.640055
 30
0.0
 11
150.781952
 21
204.640055
 31
0.0
  0
LINE
  5
A9
100
AcDbEntity
  8
0
  6
HIDDEN
 62
   174
100
AcDbLine
 10
144.581952
 20
201.107771
 30
0.0
 11
150.781952
 21
201.107771
 31
0.0
  0
LWPOLYLINE
  5
AA
100
AcDbEntity
  8
0
  6
Continuous
 62
   174
100
AcDbPolyline
 90
        4
 70
   128
 10
152.823912
 20
234.026176
 10
152.814918
 20
234.975159
 10
152.794512
 20
235.913325
 10
152.781952
 20
236.810058
  0
LINE
  5
AB
100
AcDbEntity
  8
0
  6
Continuous
 62
   174
100
AcDbLine
 10
144.581952
 20
187.411457
 30
0.0
 11
150.781952
 21
187.411457
 31
0.0
  0
LINE
  5
AC
100
AcDbEntity
  8
0
  6
Continuous
 62
   174
100
AcDbLine
 10
144.581952
 20
204.640055
 30
0.0
 11
144.581952
 21
201.104776
 31
0.0
  0
LINE
  5
AD
100
AcDbEntity
  8
0
  6
HIDDEN
 62
   174
100
AcDbLine
 10
169.538221
 20
242.026176
 30
0.0
 11
170.281952
 21
242.026176
 31
0.0
  0
LINE
  5
AE
100
AcDbEntity
  8
0
  6
HIDDEN
 62
   174
100
AcDbLine
 10
181.807466
 20
213.026176
 30
0.0
 11
178.807597
 21
213.026176
 31
0.0
  0
ARC
  5
AF
100
AcDbEntity
  8
0
  6
HIDDEN
 62
   174
100
AcDbCircle
 10
178.781952
 20
239.026176
 30
0.0
 40
3.0
100
AcDbArc
 50
-306.0
 51
-288.0
  0
LINE
  5
B0
100
AcDbEntity
  8
0
  6
Continuous
 62
   174
100
AcDbLine
 10
152.781952
 20
231.242294
 30
0.0
 11
152.781952
 21
213.026176
 31
0.0
  0
LINE
  5
B1
100
AcDbEntity
  8
0
  6
HIDDEN
 62
   174
100
AcDbLine
 10
152.781952
 20
236.810058
 30
0.0
 11
152.781952
 21
239.026176
 31
0.0
  0
LINE
  5
B2
100
AcDbEntity
  8
0
  6
Continuous
 62
   174
100
AcDbLine
 10
152.281952
 20
185.026176
 30
0.0
 11
182.281952
 21
185.026176
 31
0.0
  0
LINE
  5
B3
100
AcDbEntity
  8
0
  6
Continuous
 62
   174
100
AcDbLine
 10
155.781952
 20
239.060311
 30
0.0
 11
155.781952
 21
242.06018
 31
0.0
  0
LINE
  5
B4
100
AcDbEntity
  8
0
  6
HIDDEN
 62
   174
100
AcDbLine
 10
137.081952
 20
229.604285
 30
0.0
 11
137.081952
 21
238.448066
 31
0.0
  0
ARC
  5
B5
100
AcDbEntity
  8
0
  6
Continuous
 62
   174
100
AcDbCircle
 10
155.781952
 20
239.026176
 30
0.0
 40
3.0
100
AcDbArc
 50
-270.0
 51
-180.0
  0
LWPOLYLINE
  5
B6
100
AcDbEntity
  8
0
  6
HIDDEN
 62
   174
100
AcDbPolyline
 90
        4
 70
   128
 10
133.974773
 20
229.604285
 10
133.646872
 20
228.977878
 10
133.414118
 20
228.366465
 10
133.281952
 20
227.761261
  0
LINE
  5
B7
100
AcDbEntity
  8
0
  6
Continuous
 62
   174
100
AcDbLine
 10
144.581952
 20
205.708312
 30
0.0
 11
150.781952
 21
205.708312
 31
0.0
  0
LINE
  5
B8
100
AcDbEntity
  8
0
  6
Continuous
 62
   174
100
AcDbLine
 10
155.781952
 20
239.026176
 30
0.0
 11
178.781952
 21
239.026176
 31
0.0
  0
LWPOLYLINE
  5
B9
100
AcDbEntity
  8
0
  6
HIDDEN
 62
   174
100
AcDbPolyline
 90
        4
 70
   128
 10
133.946011
 20
242.976356
 10
133.646872
 20
242.399319
 10
133.414118
 20
241.787906
 10
133.281952
 20
241.182702
  0
LWPOLYLINE
  5
BA
100
AcDbEntity
  8
0
  6
Continuous
 62
   174
100
AcDbPolyline
 90
        6
 70
   128
 10
133.974773
 20
238.603836
 10
133.608646
 20
239.355526
 10
133.380548
 20
240.092573
 10
133.303644
 20
240.814821
 10
133.380563
 20
241.53706
 10
133.431463
 20
241.748642
  0
ARC
  5
BB
100
AcDbEntity
  8
0
  6
HIDDEN
 62
   174
100
AcDbCircle
 10
178.781952
 20
239.026176
 30
0.0
 40
3.0
100
AcDbArc
 50
-324.0
 51
-306.0
  0
LINE
  5
BC
100
AcDbEntity
  8
0
  6
HIDDEN
 62
   174
100
AcDbLine
 10
245.907497
 20
181.026176
 30
0.0
 11
264.707594
 21
181.026176
 31
0.0
  0
LINE
  5
BD
100
AcDbEntity
  8
0
  6
Continuous
 62
   174
100
AcDbLine
 10
152.781952
 20
239.026176
 30
0.0
 11
152.781952
 21
236.810058
 31
0.0
  0
LINE
  5
BE
100
AcDbEntity
  8
0
  6
HIDDEN
 62
   174
100
AcDbLine
 10
137.081952
 20
238.448066
 30
0.0
 11
133.974773
 21
238.448066
 31
0.0
  0
LINE
  5
BF
100
AcDbEntity
  8
0
  6
HIDDEN
 62
   174
100
AcDbLine
 10
181.807466
 20
239.026176
 30
0.0
 11
178.807597
 21
239.026176
 31
0.0
  0
LINE
  5
C0
100
AcDbEntity
  8
0
  6
Continuous
 62
   174
100
AcDbLine
 10
144.581952
 20
193.526176
 30
0.0
 11
150.781952
 21
193.526176
 31
0.0
  0
LINE
  5
C1
100
AcDbEntity
  8
0
  6
HIDDEN
 62
   174
100
AcDbLine
 10
137.081952
 20
229.604285
 30
0.0
 11
133.974773
 21
229.604285
 31
0.0
  0
LINE
  5
C2
100
AcDbEntity
  8
0
  6
Continuous
 62
   174
100
AcDbLine
 10
137.081952
 20
243.025726
 30
0.0
 11
133.974773
 21
243.025726
 31
0.0
  0
LINE
  5
C3
100
AcDbEntity
  8
0
  6
HIDDEN
 62
   174
100
AcDbLine
 10
144.581952
 20
187.413224
 30
0.0
 11
150.781952
 21
187.413224
 31
0.0
  0
LINE
  5
C4
100
AcDbEntity
  8
0
  6
Continuous
 62
   174
100
AcDbLine
 10
144.581952
 20
190.947246
 30
0.0
 11
144.581952
 21
187.411457
 31
0.0
  0
LINE
  5
C5
100
AcDbEntity
  8
0
  6
HIDDEN
 62
   174
100
AcDbLine
 10
169.099357
 20
242.026176
 30
0.0
 11
169.538221
 21
242.026176
 31
0.0
  0
LINE
  5
C6
100
AcDbEntity
  8
0
  6
Continuous
 62
   174
100
AcDbLine
 10
152.281952
 20
185.026176
 30
0.0
 11
152.281952
 21
213.026176
 31
0.0
  0
LINE
  5
C7
100
AcDbEntity
  8
0
  6
Continuous
 62
   174
100
AcDbLine
 10
144.581952
 20
186.343395
 30
0.0
 11
150.781952
 21
186.343395
 31
0.0
  0
LINE
  5
C8
100
AcDbEntity
  8
0
  6
HIDDEN
 62
   174
100
AcDbLine
 10
144.581952
 20
190.950241
 30
0.0
 11
150.781952
 21
190.950241
 31
0.0
  0
LINE
  5
C9
100
AcDbEntity
  8
0
  6
Continuous
 62
   174
100
AcDbLine
 10
144.581952
 20
198.526176
 30
0.0
 11
144.581952
 21
193.526176
 31
0.0
  0
ARC
  5
CA
100
AcDbEntity
  8
0
  6
HIDDEN
 62
   174
100
AcDbCircle
 10
178.781952
 20
239.026176
 30
0.0
 40
3.0
100
AcDbArc
 50
-342.0
 51
-324.0
  0
LINE
  5
CB
100
AcDbEntity
  8
0
  6
Continuous
 62
   174
100
AcDbLine
 10
181.807466
 20
239.026176
 30
0.0
 11
178.807597
 21
239.026176
 31
0.0
  0
LINE
  5
CC
100
AcDbEntity
  8
0
  6
HIDDEN
 62
   174
100
AcDbLine
 10
178.781952
 20
239.060311
 30
0.0
 11
178.781952
 21
242.06018
 31
0.0
  0
LINE
  5
CD
100
AcDbEntity
  8
0
  6
Continuous
 62
   174
100
AcDbLine
 10
150.781952
 20
187.449417
 30
0.0
 11
150.781952
 21
190.984912
 31
0.0
  0
ARC
  5
CE
100
AcDbEntity
  8
0
  6
HIDDEN
 62
   174
100
AcDbCircle
 10
178.781952
 20
239.026176
 30
0.0
 40
3.0
100
AcDbArc
 50
-360.0
 51
-342.0
  0
LINE
  5
CF
100
AcDbEntity
  8
0
  6
Continuous
 62
   174
100
AcDbLine
 10
133.431463
 20
241.748642
 30
0.0
 11
133.948119
 21
242.978343
 31
0.0
  0
LINE
  5
D0
100
AcDbEntity
  8
0
  6
HIDDEN
 62
   174
100
AcDbLine
 10
144.581952
 20
198.529542
 30
0.0
 11
150.781952
 21
198.529542
 31
0.0
  0
LINE
  5
D1
100
AcDbEntity
  8
0
  6
HIDDEN
 62
   174
100
AcDbLine
 10
164.282277
 20
242.026176
 30
0.0
 11
165.304769
 21
242.026176
 31
0.0
  0
LINE
  5
D2
100
AcDbEntity
  8
0
  6
HIDDEN
 62
   174
100
AcDbLine
 10
150.781952
 20
193.529543
 30
0.0
 11
150.781952
 21
198.529542
 31
0.0
  0
LINE
  5
D3
100
AcDbEntity
  8
0
  6
HIDDEN
 62
   174
100
AcDbLine
 10
167.281952
 20
242.026176
 30
0.0
 11
169.099357
 21
242.026176
 31
0.0
  0
LINE
  5
D4
100
AcDbEntity
  8
0
  6
HIDDEN
 62
   174
100
AcDbLine
 10
152.807636
 20
213.026176
 30
0.0
 11
155.807505
 21
213.026176
 31
0.0
  0
LINE
  5
D5
100
AcDbEntity
  8
0
  6
Continuous
 62
   174
100
AcDbLine
 10
150.781952
 20
201.141686
 30
0.0
 11
150.781952
 21
204.67658
 31
0.0
  0
LINE
  5
D6
100
AcDbEntity
  8
0
  6
Continuous
 62
   174
100
AcDbLine
 10
182.281952
 20
213.026176
 30
0.0
 11
152.281952
 21
213.026176
 31
0.0
  0
LINE
  5
D7
100
AcDbEntity
  8
0
  6
Continuous
 62
   174
100
AcDbLine
 10
150.781952
 20
205.744829
 30
0.0
 11
150.781952
 21
206.06266
 31
0.0
  0
LWPOLYLINE
  5
D8
100
AcDbEntity
  8
0
  6
HIDDEN
 62
   174
100
AcDbPolyline
 90
        6
 70
   128
 10
155.781952
 20
242.026176
 10
154.876636
 20
241.886316
 10
154.068331
 20
241.488594
 10
153.406483
 20
240.858428
 10
152.954658
 20
240.029373
 10
152.781952
 20
239.026176
  0
LINE
  5
D9
100
AcDbEntity
  8
0
  6
Continuous
 62
   174
100
AcDbLine
 10
155.781952
 20
239.026176
 30
0.0
 11
155.781952
 21
213.026176
 31
0.0
  0
LINE
  5
DA
100
AcDbEntity
  8
0
  6
HIDDEN
 62
   174
100
AcDbLine
 10
165.304769
 20
242.026176
 30
0.0
 11
167.281952
 21
242.026176
 31
0.0
  0
LINE
  5
DB
100
AcDbEntity
  8
0
  6
HIDDEN
 62
   174
100
AcDbLine
 10
155.781952
 20
239.060311
 30
0.0
 11
155.781952
 21
242.06018
 31
0.0
  0
LINE
  5
DC
100
AcDbEntity
  8
0
  6
HIDDEN
 62
   174
100
AcDbLine
 10
144.581952
 20
193.529543
 30
0.0
 11
150.781952
 21
193.529543
 31
0.0
  0
LINE
  5
DD
100
AcDbEntity
  8
0
  6
HIDDEN
 62
   174
100
AcDbLine
 10
181.781952
 20
239.026176
 30
0.0
 11
181.781952
 21
213.026176
 31
0.0
  0
LINE
  5
DE
100
AcDbEntity
  8
0
  6
HIDDEN
 62
   174
100
AcDbLine
 10
150.781952
 20
187.413224
 30
0.0
 11
150.781952
 21
190.950241
 31
0.0
  0
LWPOLYLINE
  5
DF
100
AcDbEntity
  8
0
  6
HIDDEN
 62
   174
100
AcDbPolyline
 90
        4
 70
   128
 10
152.781952
 20
236.810058
 10
152.794512
 20
235.913323
 10
152.814917
 20
234.975169
 10
152.823912
 20
234.026176
  0
LINE
  5
E0
100
AcDbEntity
  8
0
  6
Continuous
 62
   174
100
AcDbLine
 10
150.781952
 20
186.064239
 30
0.0
 11
150.781952
 21
186.381469
 31
0.0
  0
LINE
  5
E1
100
AcDbEntity
  8
0
  6
HIDDEN
 62
   174
100
AcDbLine
 10
178.781952
 20
213.026176
 30
0.0
 11
155.781952
 21
213.026176
 31
0.0
  0
LINE
  5
E2
100
AcDbEntity
  8
0
  6
Continuous
 62
   174
100
AcDbLine
 10
181.781952
 20
213.026176
 30
0.0
 11
181.781952
 21
239.026176
 31
0.0
  0
LINE
  5
E3
100
AcDbEntity
  8
0
  6
Continuous
 62
   174
100
AcDbLine
 10
133.281952
 20
233.169022
 30
0.0
 11
133.281952
 21
226.261153
 31
0.0
  0
ARC
  5
E4
100
AcDbEntity
  8
0
  6
HIDDEN
 62
   174
100
AcDbCircle
 10
178.781952
 20
239.026176
 30
0.0
 40
3.0
100
AcDbArc
 50
-288.0
 51
-270.0
  0
LINE
  5
E5
100
AcDbEntity
  8
0
  6
Continuous
 62
   174
100
AcDbLine
 10
178.781952
 20
239.026176
 30
0.0
 11
178.781952
 21
213.026176
 31
0.0
  0
LINE
  5
E6
100
AcDbEntity
  8
0
  6
Continuous
 62
   174
100
AcDbLine
 10
144.581952
 20
201.104776
 30
0.0
 11
150.781952
 21
201.104776
 31
0.0
  0
LWPOLYLINE
  5
E7
100
AcDbEntity
  8
0
  6
Continuous
 62
   174
100
AcDbPolyline
 90
        4
 70
   128
 10
152.823912
 20
234.026176
 10
152.814917
 20
233.077169
 10
152.794512
 20
232.139003
 10
152.781952
 20
231.242294
  0
LINE
  5
E8
100
AcDbEntity
  8
0
  6
HIDDEN
 62
   174
100
AcDbLine
 10
170.681952
 20
242.026176
 30
0.0
 11
178.781952
 21
242.026176
 31
0.0
  0
LINE
  5
E9
100
AcDbEntity
  8
0
  6
HIDDEN
 62
   174
100
AcDbLine
 10
152.781952
 20
239.060311
 30
0.0
 11
152.781952
 21
236.844206
 31
0.0
  0
ARC
  5
EA
100
AcDbEntity
  8
0
  6
HIDDEN
 62
   174
100
AcDbCircle
 10
155.781952
 20
239.026176
 30
0.0
 40
3.0
100
AcDbArc
 50
90.0
 51
180.0
  0
LINE
  5
EB
100
AcDbEntity
  8
0
  6
Continuous
 62
   174
100
AcDbLine
 10
178.781952
 20
242.026176
 30
0.0
 11
155.781952
 21
242.026176
 31
0.0
  0
LINE
  5
EC
100
AcDbEntity
  8
0
  6
HIDDEN
 62
   174
100
AcDbLine
 10
155.781952
 20
213.026176
 30
0.0
 11
155.781952
 21
239.026176
 31
0.0
  0
LINE
  5
ED
100
AcDbEntity
  8
0
  6
Continuous
 62
   174
100
AcDbLine
 10
144.581952
 20
190.947246
 30
0.0
 11
150.781952
 21
190.947246
 31
0.0
  0
LINE
  5
EE
100
AcDbEntity
  8
0
  6
Continuous
 62
   174
100
AcDbLine
 10
144.581952
 20
198.526176
 30
0.0
 11
150.781952
 21
198.526176
 31
0.0
  0
LINE
  5
EF
100
AcDbEntity
  8
0
  6
HIDDEN
 62
   174
100
AcDbLine
 10
182.281952
 20
213.026176
 30
0.0
 11
182.281952
 21
185.026176
 31
0.0
  0
LINE
  5
F0
100
AcDbEntity
  8
0
  6
HIDDEN
 62
   174
100
AcDbLine
 10
178.781952
 20
213.026176
 30
0.0
 11
178.781952
 21
239.026176
 31
0.0
  0
LWPOLYLINE
  5
F1
100
AcDbEntity
  8
0
  6
HIDDEN
 62
   174
100
AcDbPolyline
 90
        4
 70
   128
 10
152.781952
 20
231.242294
 10
152.794512
 20
232.138995
 10
152.814917
 20
233.077149
 10
152.823912
 20
234.026176
  0
ARC
  5
F2
100
AcDbEntity
  8
0
  6
Continuous
 62
   174
100
AcDbCircle
 10
178.781952
 20
239.026176
 30
0.0
 40
3.0
100
AcDbArc
 50
0.0
 51
90.0
  0
LINE
  5
F3
100
AcDbEntity
  8
0
  6
Continuous
 62
   174
100
AcDbLine
 10
150.781952
 20
206.026176
 30
0.0
 11
152.281952
 21
206.026176
 31
0.0
  0
LINE
  5
F4
100
AcDbEntity
  8
0
  6
HIDDEN
 62
   174
100
AcDbLine
 10
178.781952
 20
239.026176
 30
0.0
 11
155.781952
 21
239.026176
 31
0.0
  0
LINE
  5
F5
100
AcDbEntity
  8
0
  6
HIDDEN
 62
   174
100
AcDbLine
 10
137.081952
 20
229.604285
 30
0.0
 11
137.081952
 21
225.026625
 31
0.0
  0
LINE
  5
F6
100
AcDbEntity
  8
0
  6
Continuous
 62
   174
100
AcDbLine
 10
155.807505
 20
239.026176
 30
0.0
 11
152.807636
 21
239.026176
 31
0.0
  0
LINE
  5
F7
100
AcDbEntity
  8
0
  6
Continuous
 62
   174
100
AcDbLine
 10
150.781952
 20
186.026176
 30
0.0
 11
152.281952
 21
186.026176
 31
0.0
  0
LINE
  5
F8
100
AcDbEntity
  8
0
  6
Continuous
 62
   174
100
AcDbLine
 10
178.781952
 20
239.060311
 30
0.0
 11
178.781952
 21
242.06018
 31
0.0
  0
LINE
  5
F9
100
AcDbEntity
  8
0
  6
Continuous
 62
   174
100
AcDbLine
 10
150.781952
 20
197.559328
 30
0.0
 11
150.781952
 21
198.56329
 31
0.0
  0
ENDBLK
  5
FA
100
AcDbEntity
  8
0
100
AcDbBlockEnd
  0
BLOCK
  5
FD
100
AcDbEntity
  8
0
100
AcDbBlockBegin
  2
*B2
 70
     0
 10
0.0
 20
0.0
 30
0.0
  3
*B2
  1

  0
LINE
  5
FE
100
AcDbEntity
  8
0
  6
Continuous
 62
   174
100
AcDbLine
 10
193.13773
 20
117.55381
 30
0.0
 11
193.13773
 21
112.361816
 31
0.0
  0
ARC
  5
FF
100
AcDbEntity
  8
0
  6
Continuous
 62
   174
100
AcDbCircle
 10
193.281952
 20
114.957813
 30
0.0
 40
2.6
100
AcDbArc
 50
-86.82017
 51
86.82017
  0
LINE
  5
100
100
AcDbEntity
  8
0
  6
Continuous
 62
   174
100
AcDbLine
 10
193.426174
 20
112.361816
 30
0.0
 11
193.426174
 21
117.55381
 31
0.0
  0
ARC
  5
101
100
AcDbEntity
  8
0
  6
Continuous
 62
   174
100
AcDbCircle
 10
167.281952
 20
114.957813
 30
0.0
 40
3.4
100
AcDbArc
 50
-270.0
 51
-90.0
  0
ARC
  5
102
100
AcDbEntity
  8
0
  6
Continuous
 62
   174
100
AcDbCircle
 10
167.281952
 20
114.957813
 30
0.0
 40
3.4
100
AcDbArc
 50
-90.0
 51
90.0
  0
ARC
  5
103
100
AcDbEntity
  8
0
  6
Continuous
 62
   174
100
AcDbCircle
 10
167.281952
 20
114.957813
 30
0.0
 40
3.0
100
AcDbArc
 50
-217.286546
 51
-52.713454
  0
LINE
  5
104
100
AcDbEntity
  8
0
  6
Continuous
 62
   174
100
AcDbLine
 10
164.895105
 20
116.775218
 30
0.0
 11
169.099357
 21
112.570966
 31
0.0
  0
ARC
  5
105
100
AcDbEntity
  8
0
  6
Continuous
 62
   174
100
AcDbCircle
 10
167.281952
 20
114.957813
 30
0.0
 40
3.0
100
AcDbArc
 50
-41.228296
 51
131.228296
  0
LINE
  5
106
100
AcDbEntity
  8
0
  6
Continuous
 62
   174
100
AcDbLine
 10
169.538221
 20
112.98063
 30
0.0
 11
165.304769
 21
117.214082
 31
0.0
  0
LINE
  5
107
100
AcDbEntity
  8
0
  6
Continuous
 62
   174
100
AcDbLine
 10
140.781952
 20
121.457813
 30
0.0
 11
137.781952
 21
121.457813
 31
0.0
  0
LINE
  5
108
100
AcDbEntity
  8
0
  6
Continuous
 62
   174
100
AcDbLine
 10
140.781952
 20
108.457813
 30
0.0
 11
137.781952
 21
108.457813
 31
0.0
  0
LINE
  5
109
100
AcDbEntity
  8
0
  6
Continuous
 62
   174
100
AcDbLine
 10
140.781952
 20
121.457813
 30
0.0
 11
137.781952
 21
121.457813
 31
0.0
  0
LINE
  5
10A
100
AcDbEntity
  8
0
  6
Continuous
 62
   174
100
AcDbLine
 10
140.781952
 20
108.457813
 30
0.0
 11
137.781952
 21
108.457813
 31
0.0
  0
LINE
  5
10B
100
AcDbEntity
  8
0
  6
Continuous
 62
   174
100
AcDbLine
 10
152.781952
 20
121.202811
 30
0.0
 11
152.781952
 21
122.457813
 31
0.0
  0
LINE
  5
10C
100
AcDbEntity
  8
0
  6
Continuous
 62
   174
100
AcDbLine
 10
137.081952
 20
124.000368
 30
0.0
 11
137.081952
 21
122.838993
 31
0.0
  0
LWPOLYLINE
  5
10D
100
AcDbEntity
  8
0
  6
Continuous
 62
   174
100
AcDbPolyline
 90
        4
 70
   128
 10
133.281952
 20
107.20894
 10
133.415072
 20
107.20894
 10
133.648158
 20
107.20894
 10
133.974773
 20
107.20894
  0
LWPOLYLINE
  5
10E
100
AcDbEntity
  8
0
  6
Continuous
 62
   174
100
AcDbPolyline
 90
        7
 70
   128
 10
133.974773
 20
107.20894
 10
133.608646
 20
108.510907
 10
133.380548
 20
109.787508
 10
133.303644
 20
111.038479
 10
133.380563
 20
112.289434
 10
133.608663
 20
113.565989
 10
133.974773
 20
114.86788
  0
LINE
  5
10F
100
AcDbEntity
  8
0
  6
Continuous
 62
   174
100
AcDbLine
 10
150.781952
 20
124.957813
 30
0.0
 11
151.281952
 21
124.957813
 31
0.0
  0
LINE
  5
110
100
AcDbEntity
  8
0
  6
Continuous
 62
   174
100
AcDbLine
 10
150.781952
 20
124.887772
 30
0.0
 11
150.781952
 21
125.000124
 31
0.0
  0
LINE
  5
111
100
AcDbEntity
  8
0
  6
Continuous
 62
   174
100
AcDbLine
 10
182.281952
 20
103.957813
 30
0.0
 11
152.281952
 21
103.957813
 31
0.0
  0
LINE
  5
112
100
AcDbEntity
  8
0
  6
Continuous
 62
   174
100
AcDbLine
 10
152.281952
 20
125.957813
 30
0.0
 11
182.281952
 21
125.957813
 31
0.0
  0
LINE
  5
113
100
AcDbEntity
  8
0
  6
Continuous
 62
   174
100
AcDbLine
 10
133.281952
 20
122.757813
 30
0.0
 11
133.380548
 21
122.928587
 31
0.0
  0
ARC
  5
114
100
AcDbEntity
  8
0
  6
Continuous
 62
   174
100
AcDbCircle
 10
239.281952
 20
114.957813
 30
0.0
 40
10.48
100
AcDbArc
 50
-180.0
 51
-61.197359
  0
ARC
  5
115
100
AcDbEntity
  8
0
  6
Continuous
 62
   174
100
AcDbCircle
 10
239.281952
 20
114.957813
 30
0.0
 40
9.4
100
AcDbArc
 50
-180.0
 51
0.0
  0
LINE
  5
116
100
AcDbEntity
  8
0
  6
Continuous
 62
   174
100
AcDbLine
 10
155.781952
 20
125.457813
 30
0.0
 11
178.781952
 21
125.457813
 31
0.0
  0
LINE
  5
117
100
AcDbEntity
  8
0
  6
Continuous
 62
   174
100
AcDbLine
 10
198.281952
 20
129.957813
 30
0.0
 11
182.281952
 21
129.957813
 31
0.0
  0
LWPOLYLINE
  5
118
100
AcDbEntity
  8
0
  6
Continuous
 62
   174
100
AcDbPolyline
 90
        4
 70
   128
 10
133.281952
 20
119.604408
 10
133.415073
 20
120.658116
 10
133.648155
 20
121.716529
 10
133.974773
 20
122.796619
  0
LINE
  5
119
100
AcDbEntity
  8
0
  6
Continuous
 62
   174
100
AcDbLine
 10
155.781952
 20
107.457813
 30
0.0
 11
155.781952
 21
114.957813
 31
0.0
  0
LINE
  5
11A
100
AcDbEntity
  8
0
  6
Continuous
 62
   174
100
AcDbLine
 10
151.281952
 20
124.957813
 30
0.0
 11
152.281952
 21
124.957813
 31
0.0
  0
LINE
  5
11B
100
AcDbEntity
  8
0
  6
Continuous
 62
   174
100
AcDbLine
 10
152.781952
 20
122.457813
 30
0.0
 11
152.781952
 21
121.202811
 31
0.0
  0
LINE
  5
11C
100
AcDbEntity
  8
0
  6
Continuous
 62
   174
100
AcDbLine
 10
181.781952
 20
107.457813
 30
0.0
 11
181.781952
 21
122.457813
 31
0.0
  0
LINE
  5
11D
100
AcDbEntity
  8
0
  6
Continuous
 62
   174
100
AcDbLine
 10
178.781952
 20
122.500434
 30
0.0
 11
178.781952
 21
125.500002
 31
0.0
  0
LINE
  5
11E
100
AcDbEntity
  8
0
  6
Continuous
 62
   174
100
AcDbLine
 10
155.781952
 20
122.500434
 30
0.0
 11
155.781952
 21
125.500002
 31
0.0
  0
ARC
  5
11F
100
AcDbEntity
  8
0
  6
Continuous
 62
   174
100
AcDbCircle
 10
193.281952
 20
114.957813
 30
0.0
 40
2.6
100
AcDbArc
 50
-266.82017
 51
-93.17983
  0
LINE
  5
120
100
AcDbEntity
  8
0
  6
Continuous
 62
   174
100
AcDbLine
 10
137.781952
 20
105.957813
 30
0.0
 11
137.081952
 21
105.957813
 31
0.0
  0
LINE
  5
121
100
AcDbEntity
  8
0
  6
Continuous
 62
   174
100
AcDbLine
 10
137.781952
 20
105.957813
 30
0.0
 11
137.081952
 21
105.957813
 31
0.0
  0
LINE
  5
122
100
AcDbEntity
  8
0
  6
Continuous
 62
   174
100
AcDbLine
 10
140.781952
 20
106.957813
 30
0.0
 11
152.823912
 21
106.957813
 31
0.0
  0
LINE
  5
123
100
AcDbEntity
  8
0
  6
Continuous
 62
   174
100
AcDbLine
 10
198.281952
 20
99.957813
 30
0.0
 11
198.281952
 21
129.957813
 31
0.0
  0
LINE
  5
124
100
AcDbEntity
  8
0
  6
Continuous
 62
   174
100
AcDbLine
 10
137.081952
 20
107.252655
 30
0.0
 11
137.081952
 21
106.001458
 31
0.0
  0
LINE
  5
125
100
AcDbEntity
  8
0
  6
Continuous
 62
   174
100
AcDbLine
 10
133.281952
 20
118.10307
 30
0.0
 11
133.281952
 21
107.252655
 31
0.0
  0
LINE
  5
126
100
AcDbEntity
  8
0
  6
Continuous
 62
   174
100
AcDbLine
 10
133.329821
 20
122.796619
 30
0.0
 11
133.406124
 21
122.796619
 31
0.0
  0
LWPOLYLINE
  5
127
100
AcDbEntity
  8
0
  6
Continuous
 62
   174
100
AcDbPolyline
 90
        6
 70
   128
 10
155.781952
 20
114.957813
 10
154.876636
 20
116.447173
 10
154.068331
 20
117.840922
 10
153.406483
 20
119.119583
 10
152.954658
 20
120.245688
 10
152.781952
 20
121.202811
  0
LWPOLYLINE
  5
128
100
AcDbEntity
  8
0
  6
Continuous
 62
   174
100
AcDbPolyline
 90
        6
 70
   128
 10
152.781952
 20
108.712815
 10
152.954295
 20
109.668777
 10
153.406095
 20
110.795216
 10
154.069166
 20
112.076207
 10
154.877696
 20
113.470223
 10
155.781952
 20
114.957813
  0
LINE
  5
129
100
AcDbEntity
  8
0
  6
Continuous
 62
   174
100
AcDbLine
 10
144.581952
 20
124.639402
 30
0.0
 11
150.781952
 21
124.639402
 31
0.0
  0
LINE
  5
12A
100
AcDbEntity
  8
0
  6
Continuous
 62
   174
100
AcDbLine
 10
155.781952
 20
122.457813
 30
0.0
 11
178.781952
 21
122.457813
 31
0.0
  0
LINE
  5
12B
100
AcDbEntity
  8
0
  6
Continuous
 62
   174
100
AcDbLine
 10
178.781952
 20
107.457813
 30
0.0
 11
155.781952
 21
107.457813
 31
0.0
  0
LINE
  5
12C
100
AcDbEntity
  8
0
  6
Continuous
 62
   174
100
AcDbLine
 10
178.781952
 20
125.457813
 30
0.0
 11
155.781952
 21
125.457813
 31
0.0
  0
LINE
  5
12D
100
AcDbEntity
  8
0
  6
Continuous
 62
   174
100
AcDbLine
 10
155.781952
 20
104.457813
 30
0.0
 11
178.781952
 21
104.457813
 31
0.0
  0
LINE
  5
12E
100
AcDbEntity
  8
0
  6
Continuous
 62
   174
100
AcDbLine
 10
280.281952
 20
129.957813
 30
0.0
 11
280.281952
 21
99.957813
 31
0.0
  0
LINE
  5
12F
100
AcDbEntity
  8
0
  6
Continuous
 62
   174
100
AcDbLine
 10
133.974773
 20
107.20894
 30
0.0
 11
137.081952
 21
107.20894
 31
0.0
  0
LINE
  5
130
100
AcDbEntity
  8
0
  6
Continuous
 62
   174
100
AcDbLine
 10
144.581952
 20
123.570443
 30
0.0
 11
150.781952
 21
123.570443
 31
0.0
  0
LINE
  5
131
100
AcDbEntity
  8
0
  6
Continuous
 62
   174
100
AcDbLine
 10
144.581952
 20
106.957813
 30
0.0
 11
144.581952
 21
106.343417
 31
0.0
  0
ARC
  5
132
100
AcDbEntity
  8
0
  6
Continuous
 62
   174
100
AcDbCircle
 10
155.781952
 20
107.457813
 30
0.0
 40
3.0
100
AcDbArc
 50
-180.0
 51
-90.0
  0
LINE
  5
133
100
AcDbEntity
  8
0
  6
Continuous
 62
   174
100
AcDbLine
 10
144.581952
 20
123.570443
 30
0.0
 11
144.581952
 21
122.957813
 31
0.0
  0
LINE
  5
134
100
AcDbEntity
  8
0
  6
Continuous
 62
   174
100
AcDbLine
 10
151.281952
 20
104.957813
 30
0.0
 11
152.281952
 21
104.957813
 31
0.0
  0
LINE
  5
135
100
AcDbEntity
  8
0
  6
Continuous
 62
   174
100
AcDbLine
 10
178.781952
 20
122.457813
 30
0.0
 11
178.781952
 21
107.457813
 31
0.0
  0
LINE
  5
136
100
AcDbEntity
  8
0
  6
Continuous
 62
   174
100
AcDbLine
 10
155.807505
 20
122.457813
 30
0.0
 11
152.807636
 21
122.457813
 31
0.0
  0
ARC
  5
137
100
AcDbEntity
  8
0
  6
Continuous
 62
   174
100
AcDbCircle
 10
155.781952
 20
122.457813
 30
0.0
 40
3.0
100
AcDbArc
 50
-270.0
 51
-180.0
  0
ARC
  5
138
100
AcDbEntity
  8
0
  6
Continuous
 62
   174
100
AcDbCircle
 10
178.781952
 20
122.457813
 30
0.0
 40
3.0
100
AcDbArc
 50
0.0
 51
90.0
  0
ARC
  5
139
100
AcDbEntity
  8
0
  6
Continuous
 62
   174
100
AcDbCircle
 10
178.781952
 20
107.457813
 30
0.0
 40
3.0
100
AcDbArc
 50
-90.0
 51
0.0
  0
LINE
  5
13A
100
AcDbEntity
  8
0
  6
Continuous
 62
   174
100
AcDbLine
 10
152.781952
 20
107.457813
 30
0.0
 11
152.781952
 21
108.712815
 31
0.0
  0
LINE
  5
13B
100
AcDbEntity
  8
0
  6
Continuous
 62
   174
100
AcDbLine
 10
140.781952
 20
108.394804
 30
0.0
 11
140.781952
 21
107.001514
 31
0.0
  0
LINE
  5
13C
100
AcDbEntity
  8
0
  6
Continuous
 62
   174
100
AcDbLine
 10
140.781952
 20
123.000312
 30
0.0
 11
140.781952
 21
121.606722
 31
0.0
  0
LINE
  5
13D
100
AcDbEntity
  8
0
  6
Continuous
 62
   174
100
AcDbLine
 10
137.781952
 20
121.714568
 30
0.0
 11
137.781952
 21
124.000368
 31
0.0
  0
LINE
  5
13E
100
AcDbEntity
  8
0
  6
Continuous
 62
   174
100
AcDbLine
 10
137.781952
 20
106.001458
 30
0.0
 11
137.781952
 21
108.287258
 31
0.0
  0
LINE
  5
13F
100
AcDbEntity
  8
0
  6
Continuous
 62
   174
100
AcDbLine
 10
137.781952
 20
108.287258
 30
0.0
 11
137.781952
 21
121.714568
 31
0.0
  0
LINE
  5
140
100
AcDbEntity
  8
0
  6
Continuous
 62
   174
100
AcDbLine
 10
133.281952
 20
122.800241
 30
0.0
 11
133.281952
 21
119.647164
 31
0.0
  0
LINE
  5
141
100
AcDbEntity
  8
0
  6
Continuous
 62
   174
100
AcDbLine
 10
133.281952
 20
118.060091
 30
0.0
 11
133.281952
 21
119.604408
 31
0.0
  0
LINE
  5
142
100
AcDbEntity
  8
0
  6
Continuous
 62
   174
100
AcDbLine
 10
144.581952
 20
106.343417
 30
0.0
 11
150.781952
 21
106.343417
 31
0.0
  0
LINE
  5
143
100
AcDbEntity
  8
0
  6
Continuous
 62
   174
100
AcDbLine
 10
155.781952
 20
114.957813
 30
0.0
 11
155.781952
 21
122.457813
 31
0.0
  0
LINE
  5
144
100
AcDbEntity
  8
0
  6
Continuous
 62
   174
100
AcDbLine
 10
152.281952
 20
103.957813
 30
0.0
 11
152.281952
 21
106.957813
 31
0.0
  0
LINE
  5
145
100
AcDbEntity
  8
0
  6
Continuous
 62
   174
100
AcDbLine
 10
181.781952
 20
122.457813
 30
0.0
 11
181.781952
 21
107.457813
 31
0.0
  0
ARC
  5
146
100
AcDbEntity
  8
0
  6
Continuous
 62
   174
100
AcDbCircle
 10
239.281952
 20
114.957813
 30
0.0
 40
10.48
100
AcDbArc
 50
-360.0
 51
-180.0
  0
LINE
  5
147
100
AcDbEntity
  8
0
  6
Continuous
 62
   174
100
AcDbLine
 10
280.281952
 20
99.957813
 30
0.0
 11
198.281952
 21
99.957813
 31
0.0
  0
LINE
  5
148
100
AcDbEntity
  8
0
  6
Continuous
 62
   174
100
AcDbLine
 10
182.281952
 20
99.957813
 30
0.0
 11
182.281952
 21
129.957813
 31
0.0
  0
LINE
  5
149
100
AcDbEntity
  8
0
  6
Continuous
 62
   174
100
AcDbLine
 10
198.281952
 20
129.957813
 30
0.0
 11
198.281952
 21
99.957813
 31
0.0
  0
LINE
  5
14A
100
AcDbEntity
  8
0
  6
Continuous
 62
   174
100
AcDbLine
 10
140.781952
 20
121.606722
 30
0.0
 11
140.781952
 21
108.394804
 31
0.0
  0
LINE
  5
14B
100
AcDbEntity
  8
0
  6
Continuous
 62
   174
100
AcDbLine
 10
137.081952
 20
114.910941
 30
0.0
 11
137.081952
 21
107.252655
 31
0.0
  0
LINE
  5
14C
100
AcDbEntity
  8
0
  6
Continuous
 62
   174
100
AcDbLine
 10
137.081952
 20
122.838993
 30
0.0
 11
137.081952
 21
114.910941
 31
0.0
  0
LINE
  5
14D
100
AcDbEntity
  8
0
  6
Continuous
 62
   174
100
AcDbLine
 10
144.581952
 20
124.681692
 30
0.0
 11
144.581952
 21
123.612843
 31
0.0
  0
LINE
  5
14E
100
AcDbEntity
  8
0
  6
Continuous
 62
   174
100
AcDbLine
 10
144.581952
 20
106.387181
 30
0.0
 11
144.581952
 21
105.319233
 31
0.0
  0
LINE
  5
14F
100
AcDbEntity
  8
0
  6
Continuous
 62
   174
100
AcDbLine
 10
137.081952
 20
122.796619
 30
0.0
 11
133.974773
 21
122.796619
 31
0.0
  0
LINE
  5
150
100
AcDbEntity
  8
0
  6
Continuous
 62
   174
100
AcDbLine
 10
137.081952
 20
114.86788
 30
0.0
 11
133.974773
 21
114.86788
 31
0.0
  0
LINE
  5
151
100
AcDbEntity
  8
0
  6
Continuous
 62
   174
100
AcDbLine
 10
144.581952
 20
105.275355
 30
0.0
 11
150.781952
 21
105.275355
 31
0.0
  0
LINE
  5
152
100
AcDbEntity
  8
0
  6
Continuous
 62
   174
100
AcDbLine
 10
150.781952
 20
105.001702
 30
0.0
 11
150.781952
 21
105.114055
 31
0.0
  0
LINE
  5
153
100
AcDbEntity
  8
0
  6
Continuous
 62
   174
100
AcDbLine
 10
150.781952
 20
124.681692
 30
0.0
 11
150.781952
 21
124.887772
 31
0.0
  0
LINE
  5
154
100
AcDbEntity
  8
0
  6
Continuous
 62
   174
100
AcDbLine
 10
150.781952
 20
106.387181
 30
0.0
 11
150.781952
 21
106.975379
 31
0.0
  0
LINE
  5
155
100
AcDbEntity
  8
0
  6
Continuous
 62
   174
100
AcDbLine
 10
178.807597
 20
122.457813
 30
0.0
 11
181.807466
 21
122.457813
 31
0.0
  0
ARC
  5
156
100
AcDbEntity
  8
0
  6
Continuous
 62
   174
100
AcDbCircle
 10
193.281952
 20
114.957813
 30
0.0
 40
3.0
100
AcDbArc
 50
-90.0
 51
90.0
  0
ARC
  5
157
100
AcDbEntity
  8
0
  6
Continuous
 62
   174
100
AcDbCircle
 10
193.281952
 20
114.957813
 30
0.0
 40
3.0
100
AcDbArc
 50
-270.0
 51
-90.0
  0
LINE
  5
158
100
AcDbEntity
  8
0
  6
Continuous
 62
   174
100
AcDbLine
 10
137.781952
 20
123.957813
 30
0.0
 11
137.081952
 21
123.957813
 31
0.0
  0
LINE
  5
159
100
AcDbEntity
  8
0
  6
Continuous
 62
   174
100
AcDbLine
 10
137.781952
 20
123.957813
 30
0.0
 11
137.081952
 21
123.957813
 31
0.0
  0
LINE
  5
15A
100
AcDbEntity
  8
0
  6
Continuous
 62
   174
100
AcDbLine
 10
140.781952
 20
122.957813
 30
0.0
 11
152.823912
 21
122.957813
 31
0.0
  0
ARC
  5
15B
100
AcDbEntity
  8
0
  6
Continuous
 62
   174
100
AcDbCircle
 10
239.281952
 20
114.957813
 30
0.0
 40
9.4
100
AcDbArc
 50
0.0
 51
180.0
  0
LWPOLYLINE
  5
15C
100
AcDbEntity
  8
0
  6
Continuous
 62
   174
100
AcDbPolyline
 90
        3
 70
   128
 10
133.974773
 20
122.796619
 10
133.60867
 20
122.796619
 10
133.38057
 20
122.796619
  0
LINE
  5
15D
100
AcDbEntity
  8
0
  6
Continuous
 62
   174
100
AcDbLine
 10
152.781952
 20
108.712815
 30
0.0
 11
152.781952
 21
107.457813
 31
0.0
  0
LINE
  5
15E
100
AcDbEntity
  8
0
  6
Continuous
 62
   174
100
AcDbLine
 10
152.807636
 20
107.457813
 30
0.0
 11
155.807505
 21
107.457813
 31
0.0
  0
LINE
  5
15F
100
AcDbEntity
  8
0
  6
Continuous
 62
   174
100
AcDbLine
 10
150.781952
 20
104.957813
 30
0.0
 11
151.281952
 21
104.957813
 31
0.0
  0
LINE
  5
160
100
AcDbEntity
  8
0
  6
Continuous
 62
   174
100
AcDbLine
 10
150.781952
 20
105.114055
 30
0.0
 11
150.781952
 21
105.319233
 31
0.0
  0
LINE
  5
161
100
AcDbEntity
  8
0
  6
Continuous
 62
   174
100
AcDbLine
 10
150.781952
 20
123.026447
 30
0.0
 11
150.781952
 21
123.612843
 31
0.0
  0
LINE
  5
162
100
AcDbEntity
  8
0
  6
Continuous
 62
   174
100
AcDbLine
 10
181.807466
 20
107.457813
 30
0.0
 11
178.807597
 21
107.457813
 31
0.0
  0
LINE
  5
163
100
AcDbEntity
  8
0
  6
Continuous
 62
   174
100
AcDbLine
 10
178.781952
 20
104.501524
 30
0.0
 11
178.781952
 21
107.501392
 31
0.0
  0
LINE
  5
164
100
AcDbEntity
  8
0
  6
Continuous
 62
   174
100
AcDbLine
 10
155.781952
 20
104.501524
 30
0.0
 11
155.781952
 21
107.501392
 31
0.0
  0
LINE
  5
165
100
AcDbEntity
  8
0
  6
Continuous
 62
   174
100
AcDbLine
 10
140.781952
 20
106.957813
 30
0.0
 11
152.823912
 21
106.957813
 31
0.0
  0
LINE
  5
166
100
AcDbEntity
  8
0
  6
Continuous
 62
   174
100
AcDbLine
 10
140.781952
 20
122.957813
 30
0.0
 11
152.823912
 21
122.957813
 31
0.0
  0
LINE
  5
167
100
AcDbEntity
  8
0
  6
Continuous
 62
   174
100
AcDbLine
 10
280.281952
 20
129.957813
 30
0.0
 11
198.281952
 21
129.957813
 31
0.0
  0
LINE
  5
168
100
AcDbEntity
  8
0
  6
Continuous
 62
   174
100
AcDbLine
 10
198.281952
 20
99.957813
 30
0.0
 11
182.281952
 21
99.957813
 31
0.0
  0
LWPOLYLINE
  5
169
100
AcDbEntity
  8
0
  6
Continuous
 62
   174
100
AcDbPolyline
 90
        4
 70
   128
 10
133.974773
 20
114.86788
 10
133.646872
 20
115.952849
 10
133.414118
 20
117.011847
 10
133.281952
 20
118.060091
  0
LINE
  5
16A
100
AcDbEntity
  8
0
  6
Continuous
 62
   174
100
AcDbLine
 10
151.281952
 20
124.957813
 30
0.0
 11
152.281952
 21
124.957813
 31
0.0
  0
LINE
  5
16B
100
AcDbEntity
  8
0
  6
Continuous
 62
   174
100
AcDbLine
 10
152.281952
 20
122.957813
 30
0.0
 11
152.281952
 21
125.957813
 31
0.0
  0
ENDBLK
  5
16C
100
AcDbEntity
  8
0
100
AcDbBlockEnd
  0
BLOCK
  5
16F
100
AcDbEntity
  8
0
100
AcDbBlockBegin
  2
*B3
 70
     0
 10
0.0
 20
0.0
 30
0.0
  3
*B3
  1

  0
LINE
  5
170
100
AcDbEntity
  8
0
  6
Continuous
 62
   172
100
AcDbLine
 10
159.284108
 20
187.155335
 30
0.0
 11
135.695509
 21
147.042065
 31
0.0
  0
LINE
  5
171
100
AcDbEntity
  8
0
  6
Continuous
 62
   172
100
AcDbLine
 10
135.695509
 20
147.042065
 30
0.0
 11
124.484108
 21
147.042065
 31
0.0
  0
ENDBLK
  5
172
100
AcDbEntity
  8
0
100
AcDbBlockEnd
  0
BLOCK
  5
175
100
AcDbEntity
  8
0
100
AcDbBlockBegin
  2
*B4
 70
     0
 10
0.0
 20
0.0
 30
0.0
  3
*B4
  1

  0
LINE
  5
176
100
AcDbEntity
  8
0
  6
Continuous
 62
   172
100
AcDbLine
 10
133.365968
 20
149.473475
 30
0.0
 11
130.965968
 21
150.355335
 31
0.0
  0
LINE
  5
177
100
AcDbEntity
  8
0
  6
Continuous
 62
   172
100
AcDbLine
 10
133.365968
 20
149.473475
 30
0.0
 11
130.965968
 21
148.755335
 31
0.0
  0
LINE
  5
178
100
AcDbEntity
  8
0
  6
Continuous
 62
   172
100
AcDbLine
 10
131.765968
 20
149.473475
 30
0.0
 11
133.365968
 21
149.473475
 31
0.0
  0
LINE
  5
179
100
AcDbEntity
  8
0
  6
Continuous
 62
   172
100
AcDbLine
 10
133.365968
 20
163.237196
 30
0.0
 11
130.965968
 21
162.355335
 31
0.0
  0
LINE
  5
17A
100
AcDbEntity
  8
0
  6
Continuous
 62
   172
100
AcDbLine
 10
133.365968
 20
163.237196
 30
0.0
 11
130.965968
 21
163.955335
 31
0.0
  0
LINE
  5
17B
100
AcDbEntity
  8
0
  6
Continuous
 62
   172
100
AcDbLine
 10
131.765968
 20
163.237196
 30
0.0
 11
133.365968
 21
163.237196
 31
0.0
  0
ARC
  5
17C
100
AcDbEntity
  8
0
  6
Continuous
 62
   172
100
AcDbCircle
 10
131.765968
 20
156.355335
 30
0.0
 40
6.88186
100
AcDbArc
 50
-270.0
 51
-90.0
  0
ENDBLK
  5
17D
100
AcDbEntity
  8
0
100
AcDbBlockEnd
  0
BLOCK
  5
180
100
AcDbEntity
  8
0
100
AcDbBlockBegin
  2
*B5
 70
     0
 10
0.0
 20
0.0
 30
0.0
  3
*B5
  1

  0
ENDBLK
  5
181
100
AcDbEntity
  8
0
100
AcDbBlockEnd
  0
BLOCK
  5
183
100
AcDbEntity
  8
0
100
AcDbBlockBegin
  2
*B6
 70
     0
 10
0.0
 20
0.0
 30
0.0
  3
*B6
  1

  0
LINE
  5
184
100
AcDbEntity
  8
0
  6
Continuous
 62
     0
100
AcDbLine
 10
312.025666
 20
226.061382
 30
0.0
 11
312.025666
 21
166.065516
 31
0.0
  0
SOLID
  5
185
100
AcDbEntity
  8
0
  6
Continuous
 62
     0
100
AcDbTrace
 10
313.025723
 20
221.061702
 30
0.0
 11
312.025666
 21
226.061382
 31
0.0
 12
311.02561
 22
221.061702
 32
0.0
 13
311.02561
 23
221.061702
 33
0.0
  0
SOLID
  5
186
100
AcDbEntity
  8
0
  6
Continuous
 62
     0
100
AcDbTrace
 10
311.02561
 20
171.065197
 30
0.0
 11
312.025666
 21
166.065516
 31
0.0
 12
313.025723
 22
171.065197
 32
0.0
 13
313.025723
 23
171.065197
 33
0.0
  0
ENDBLK
  5
187
100
AcDbEntity
  8
0
100
AcDbBlockEnd
  0
BLOCK
  5
18A
100
AcDbEntity
  8
0
100
AcDbBlockBegin
  2
*B7
 70
     0
 10
0.0
 20
0.0
 30
0.0
  3
*B7
  1

  0
LINE
  5
18B
100
AcDbEntity
  8
0
  6
Continuous
 62
     0
100
AcDbLine
 10
297.025723
 20
216.062021
 30
0.0
 11
297.025723
 21
176.064878
 31
0.0
  0
SOLID
  5
18C
100
AcDbEntity
  8
0
  6
Continuous
 62
     0
100
AcDbTrace
 10
298.025479
 20
211.062341
 30
0.0
 11
297.025723
 21
216.062021
 31
0.0
 12
296.025667
 22
211.062341
 32
0.0
 13
296.025667
 23
211.062341
 33
0.0
  0
SOLID
  5
18D
100
AcDbEntity
  8
0
  6
Continuous
 62
     0
100
AcDbTrace
 10
296.025667
 20
181.064558
 30
0.0
 11
297.025723
 21
176.064878
 31
0.0
 12
298.025479
 22
181.064558
 32
0.0
 13
298.025479
 23
181.064558
 33
0.0
  0
ENDBLK
  5
18E
100
AcDbEntity
  8
0
100
AcDbBlockEnd
  0
BLOCK
  5
191
100
AcDbEntity
  8
0
100
AcDbBlockBegin
  2
*B8
 70
     0
 10
0.0
 20
0.0
 30
0.0
  3
*B8
  1

  0
LINE
  5
192
100
AcDbEntity
  8
0
  6
Continuous
 62
     0
100
AcDbLine
 10
223.307548
 20
150.040584
 30
0.0
 11
255.307546
 21
150.040584
 31
0.0
  0
SOLID
  5
193
100
AcDbEntity
  8
0
  6
Continuous
 62
     0
100
AcDbTrace
 10
228.307528
 20
151.040339
 30
0.0
 11
223.307548
 21
150.040584
 31
0.0
 12
228.307528
 22
149.040527
 32
0.0
 13
228.307528
 23
149.040527
 33
0.0
  0
SOLID
  5
194
100
AcDbEntity
  8
0
  6
Continuous
 62
     0
100
AcDbTrace
 10
250.307565
 20
149.040527
 30
0.0
 11
255.307546
 21
150.040584
 31
0.0
 12
250.307565
 22
151.040339
 32
0.0
 13
250.307565
 23
151.040339
 33
0.0
  0
ENDBLK
  5
195
100
AcDbEntity
  8
0
100
AcDbBlockEnd
  0
BLOCK
  5
198
100
AcDbEntity
  8
0
100
AcDbBlockBegin
  2
*B9
 70
     0
 10
0.0
 20
0.0
 30
0.0
  3
*B9
  1

  0
LINE
  5
199
100
AcDbEntity
  8
0
  6
Continuous
 62
     0
100
AcDbLine
 10
198.307643
 20
150.040584
 30
0.0
 11
223.307548
 21
150.040584
 31
0.0
  0
SOLID
  5
19A
100
AcDbEntity
  8
0
  6
Continuous
 62
     0
100
AcDbTrace
 10
203.307624
 20
151.040339
 30
0.0
 11
198.307643
 21
150.040584
 31
0.0
 12
203.307624
 22
149.040527
 32
0.0
 13
203.307624
 23
149.040527
 33
0.0
  0
SOLID
  5
19B
100
AcDbEntity
  8
0
  6
Continuous
 62
     0
100
AcDbTrace
 10
218.307567
 20
149.040527
 30
0.0
 11
223.307548
 21
150.040584
 31
0.0
 12
218.307567
 22
151.040339
 32
0.0
 13
218.307567
 23
151.040339
 33
0.0
  0
ENDBLK
  5
19C
100
AcDbEntity
  8
0
100
AcDbBlockEnd
  0
BLOCK
  5
19F
100
AcDbEntity
  8
0
100
AcDbBlockBegin
  2
*B10
 70
     0
 10
0.0
 20
0.0
 30
0.0
  3
*B10
  1

  0
LINE
  5
1A0
100
AcDbEntity
  8
0
  6
Continuous
 62
     0
100
AcDbLine
 10
255.307546
 20
150.040584
 30
0.0
 11
280.30745
 21
150.040584
 31
0.0
  0
SOLID
  5
1A1
100
AcDbEntity
  8
0
  6
Continuous
 62
     0
100
AcDbTrace
 10
260.307527
 20
151.040339
 30
0.0
 11
255.307546
 21
150.040584
 31
0.0
 12
260.307527
 22
149.040527
 32
0.0
 13
260.307527
 23
149.040527
 33
0.0
  0
SOLID
  5
1A2
100
AcDbEntity
  8
0
  6
Continuous
 62
     0
100
AcDbTrace
 10
275.307469
 20
149.040527
 30
0.0
 11
280.30745
 21
150.040584
 31
0.0
 12
275.307469
 22
151.040339
 32
0.0
 13
275.307469
 23
151.040339
 33
0.0
  0
ENDBLK
  5
1A3
100
AcDbEntity
  8
0
100
AcDbBlockEnd
  0
BLOCK
  5
1A6
100
AcDbEntity
  8
0
100
AcDbBlockBegin
  2
*B11
 70
     0
 10
0.0
 20
0.0
 30
0.0
  3
*B11
  1

  0
LINE
  5
1A7
100
AcDbEntity
  8
0
  6
Continuous
 62
     0
100
AcDbLine
 10
182.307644
 20
260.032654
 30
0.0
 11
280.30745
 21
260.032654
 31
0.0
  0
SOLID
  5
1A8
100
AcDbEntity
  8
0
  6
Continuous
 62
     0
100
AcDbTrace
 10
187.307625
 20
261.03241
 30
0.0
 11
182.307644
 21
260.032654
 31
0.0
 12
187.307625
 22
259.032598
 32
0.0
 13
187.307625
 23
259.032598
 33
0.0
  0
SOLID
  5
1A9
100
AcDbEntity
  8
0
  6
Continuous
 62
     0
100
AcDbTrace
 10
275.307469
 20
259.032598
 30
0.0
 11
280.30745
 21
260.032654
 31
0.0
 12
275.307469
 22
261.03241
 32
0.0
 13
275.307469
 23
261.03241
 33
0.0
  0
ENDBLK
  5
1AA
100
AcDbEntity
  8
0
100
AcDbBlockEnd
  0
BLOCK
  5
1AD
100
AcDbEntity
  8
0
100
AcDbBlockBegin
  2
*B12
 70
     0
 10
0.0
 20
0.0
 30
0.0
  3
*B12
  1

  0
LINE
  5
1AE
100
AcDbEntity
  8
0
  6
Continuous
 62
     0
100
AcDbLine
 10
239.307547
 20
240.033932
 30
0.0
 11
280.30745
 21
240.033932
 31
0.0
  0
SOLID
  5
1AF
100
AcDbEntity
  8
0
  6
Continuous
 62
     0
100
AcDbTrace
 10
244.307528
 20
241.033988
 30
0.0
 11
239.307547
 21
240.033932
 31
0.0
 12
244.307528
 22
239.034176
 32
0.0
 13
244.307528
 23
239.034176
 33
0.0
  0
SOLID
  5
1B0
100
AcDbEntity
  8
0
  6
Continuous
 62
     0
100
AcDbTrace
 10
275.307469
 20
239.034176
 30
0.0
 11
280.30745
 21
240.033932
 31
0.0
 12
275.307469
 22
241.033988
 32
0.0
 13
275.307469
 23
241.033988
 33
0.0
  0
ENDBLK
  5
1B1
100
AcDbEntity
  8
0
100
AcDbBlockEnd
  0
BLOCK
  5
1B4
100
AcDbEntity
  8
0
100
AcDbBlockBegin
  2
*B13
 70
     0
 10
0.0
 20
0.0
 30
0.0
  3
*B13
  1

  0
LINE
  5
1B5
100
AcDbEntity
  8
0
  6
Continuous
 62
     0
100
AcDbLine
 10
312.025666
 20
129.999804
 30
0.0
 11
312.025666
 21
100.002022
 31
0.0
  0
SOLID
  5
1B6
100
AcDbEntity
  8
0
  6
Continuous
 62
     0
100
AcDbTrace
 10
313.025723
 20
125.000124
 30
0.0
 11
312.025666
 21
129.999804
 31
0.0
 12
311.02561
 22
125.000124
 32
0.0
 13
311.02561
 23
125.000124
 33
0.0
  0
SOLID
  5
1B7
100
AcDbEntity
  8
0
  6
Continuous
 62
     0
100
AcDbTrace
 10
311.02561
 20
105.001702
 30
0.0
 11
312.025666
 21
100.002022
 31
0.0
 12
313.025723
 22
105.001702
 32
0.0
 13
313.025723
 23
105.001702
 33
0.0
  0
ENDBLK
  5
1B8
100
AcDbEntity
  8
0
100
AcDbBlockEnd
  0
BLOCK
  5
1BB
100
AcDbEntity
  8
0
100
AcDbBlockBegin
  2
*B14
 70
     0
 10
0.0
 20
0.0
 30
0.0
  3
*B14
  1

  0
LINE
  5
1BC
100
AcDbEntity
  8
0
  6
Continuous
 62
     0
100
AcDbLine
 10
198.096457
 20
240.033932
 30
0.0
 11
236.607485
 21
240.033932
 31
0.0
  0
SOLID
  5
1BD
100
AcDbEntity
  8
0
  6
Continuous
 62
     0
100
AcDbTrace
 10
215.007591
 20
239.034176
 30
0.0
 11
220.007572
 21
240.033932
 31
0.0
 12
215.007591
 22
241.033988
 32
0.0
 13
215.007591
 23
241.033988
 33
0.0
  0
SOLID
  5
1BE
100
AcDbEntity
  8
0
  6
Continuous
 62
     0
100
AcDbTrace
 10
231.607504
 20
241.033988
 30
0.0
 11
226.607523
 21
240.033932
 31
0.0
 12
231.607504
 22
239.034176
 32
0.0
 13
231.607504
 23
239.034176
 33
0.0
  0
ENDBLK
  5
1BF
100
AcDbEntity
  8
0
100
AcDbBlockEnd
  0
BLOCK
  5
1C2
100
AcDbEntity
  8
0
100
AcDbBlockBegin
  2
*B15
 70
     0
 10
0.0
 20
0.0
 30
0.0
  3
*B15
  1

  0
LINE
  5
1C3
100
AcDbEntity
  8
0
  6
Continuous
 62
     0
100
AcDbLine
 10
219.907537
 20
87.359676
 30
0.0
 11
278.921371
 21
87.359676
 31
0.0
  0
SOLID
  5
1C4
100
AcDbEntity
  8
0
  6
Continuous
 62
     0
100
AcDbTrace
 10
224.907517
 20
86.35962
 30
0.0
 11
229.907498
 21
87.359676
 31
0.0
 12
224.907517
 22
88.359432
 32
0.0
 13
224.907517
 23
88.359432
 33
0.0
  0
SOLID
  5
1C5
100
AcDbEntity
  8
0
  6
Continuous
 62
     0
100
AcDbTrace
 10
253.707576
 20
88.359432
 30
0.0
 11
248.707595
 21
87.359676
 31
0.0
 12
253.707576
 22
86.35962
 32
0.0
 13
253.707576
 23
86.35962
 33
0.0
  0
ENDBLK
  5
1C6
100
AcDbEntity
  8
0
100
AcDbBlockEnd
  0
BLOCK
  5
1C9
100
AcDbEntity
  8
0
100
AcDbBlockBegin
  2
*B16
 70
     0
 10
0.0
 20
0.0
 30
0.0
  3
*B16
  1

  0
LINE
  5
1CA
100
AcDbEntity
  8
0
  6
Continuous
 62
     0
100
AcDbLine
 10
182.307644
 20
260.032654
 30
0.0
 11
133.30759
 21
260.032654
 31
0.0
  0
SOLID
  5
1CB
100
AcDbEntity
  8
0
  6
Continuous
 62
     0
100
AcDbTrace
 10
177.307663
 20
259.032598
 30
0.0
 11
182.307644
 21
260.032654
 31
0.0
 12
177.307663
 22
261.03241
 32
0.0
 13
177.307663
 23
261.03241
 33
0.0
  0
SOLID
  5
1CC
100
AcDbEntity
  8
0
  6
Continuous
 62
     0
100
AcDbTrace
 10
138.307571
 20
261.03241
 30
0.0
 11
133.30759
 21
260.032654
 31
0.0
 12
138.307571
 22
259.032598
 32
0.0
 13
138.307571
 23
259.032598
 33
0.0
  0
ENDBLK
  5
1CD
100
AcDbEntity
  8
0
100
AcDbBlockEnd
  0
BLOCK
  5
1D0
100
AcDbEntity
  8
0
100
AcDbBlockBegin
  2
*B17
 70
     0
 10
0.0
 20
0.0
 30
0.0
  3
*B17
  1

  0
LINE
  5
1D1
100
AcDbEntity
  8
0
  6
Continuous
 62
     0
100
AcDbLine
 10
117.025809
 20
243.059635
 30
0.0
 11
117.025809
 21
166.065516
 31
0.0
  0
SOLID
  5
1D2
100
AcDbEntity
  8
0
  6
Continuous
 62
     0
100
AcDbTrace
 10
118.025565
 20
238.059955
 30
0.0
 11
117.025809
 21
243.059635
 31
0.0
 12
116.025753
 22
238.059955
 32
0.0
 13
116.025753
 23
238.059955
 33
0.0
  0
SOLID
  5
1D3
100
AcDbEntity
  8
0
  6
Continuous
 62
     0
100
AcDbTrace
 10
116.025753
 20
171.065197
 30
0.0
 11
117.025809
 21
166.065516
 31
0.0
 12
118.025565
 22
171.065197
 32
0.0
 13
118.025565
 23
171.065197
 33
0.0
  0
ENDBLK
  5
1D4
100
AcDbEntity
  8
0
100
AcDbBlockEnd
  0
BLOCK
  5
1D7
100
AcDbEntity
  8
0
100
AcDbBlockBegin
  2
*B18
 70
     0
 10
0.0
 20
0.0
 30
0.0
  3
*B18
  1

  0
LINE
  5
1D8
100
AcDbEntity
  8
0
  6
Continuous
 62
     8
100
AcDbLine
 10
220.007572
 20
218.061833
 30
0.0
 11
220.007572
 21
242.034044
 31
0.0
  0
ENDBLK
  5
1D9
100
AcDbEntity
  8
0
100
AcDbBlockEnd
  0
BLOCK
  5
1DC
100
AcDbEntity
  8
0
100
AcDbBlockBegin
  2
*B19
 70
     0
 10
0.0
 20
0.0
 30
0.0
  3
*B19
  1

  0
LINE
  5
1DD
100
AcDbEntity
  8
0
  6
Continuous
 62
     8
100
AcDbLine
 10
229.907498
 20
85.359564
 30
0.0
 11
229.907498
 21
113.000951
 31
0.0
  0
ENDBLK
  5
1DE
100
AcDbEntity
  8
0
100
AcDbBlockEnd
  0
BLOCK
  5
1E1
100
AcDbEntity
  8
0
100
AcDbBlockBegin
  2
*B20
 70
     0
 10
0.0
 20
0.0
 30
0.0
  3
*B20
  1

  0
LINE
  5
1E2
100
AcDbEntity
  8
0
  6
Continuous
 62
     8
100
AcDbLine
 10
280.30745
 20
148.040771
 30
0.0
 11
280.30745
 21
164.065704
 31
0.0
  0
LINE
  5
1E3
100
AcDbEntity
  8
0
  6
Continuous
 62
     8
100
AcDbLine
 10
280.30745
 20
228.061194
 30
0.0
 11
280.30745
 21
262.032466
 31
0.0
  0
ENDBLK
  5
1E4
100
AcDbEntity
  8
0
100
AcDbBlockEnd
  0
BLOCK
  5
1E7
100
AcDbEntity
  8
0
100
AcDbBlockBegin
  2
*B21
 70
     0
 10
0.0
 20
0.0
 30
0.0
  3
*B21
  1

  0
LINE
  5
1E8
100
AcDbEntity
  8
0
  6
Continuous
 62
     8
100
AcDbLine
 10
136.807637
 20
234.060631
 30
0.0
 11
145.807543
 21
234.060631
 31
0.0
  0
LINE
  5
1E9
100
AcDbEntity
  8
0
  6
Continuous
 62
     8
100
AcDbLine
 10
147.807655
 20
234.060631
 30
0.0
 11
148.807712
 21
234.060631
 31
0.0
  0
LINE
  5
1EA
100
AcDbEntity
  8
0
  6
Continuous
 62
     8
100
AcDbLine
 10
150.807524
 20
234.060631
 30
0.0
 11
159.80773
 21
234.060631
 31
0.0
  0
ENDBLK
  5
1EB
100
AcDbEntity
  8
0
100
AcDbBlockEnd
  0
BLOCK
  5
1EE
100
AcDbEntity
  8
0
100
AcDbBlockBegin
  2
*B22
 70
     0
 10
0.0
 20
0.0
 30
0.0
  3
*B22
  1

  0
LINE
  5
1EF
100
AcDbEntity
  8
0
  6
Continuous
 62
     8
100
AcDbLine
 10
239.307547
 20
101.601992
 30
0.0
 11
239.307547
 21
112.001195
 31
0.0
  0
LINE
  5
1F0
100
AcDbEntity
  8
0
  6
Continuous
 62
     8
100
AcDbLine
 10
239.307547
 20
118.000631
 30
0.0
 11
239.307547
 21
128.399835
 31
0.0
  0
ENDBLK
  5
1F1
100
AcDbEntity
  8
0
100
AcDbBlockEnd
  0
BLOCK
  5
1F4
100
AcDbEntity
  8
0
100
AcDbBlockBegin
  2
*B23
 70
     0
 10
0.0
 20
0.0
 30
0.0
  3
*B23
  1

  0
LINE
  5
1F5
100
AcDbEntity
  8
0
  6
Continuous
 62
     8
100
AcDbLine
 10
239.307547
 20
238.03412
 30
0.0
 11
239.307547
 21
242.034044
 31
0.0
  0
LINE
  5
1F6
100
AcDbEntity
  8
0
  6
Continuous
 62
     8
100
AcDbLine
 10
239.307547
 20
168.765278
 30
0.0
 11
239.307547
 21
173.065009
 31
0.0
  0
LINE
  5
1F7
100
AcDbEntity
  8
0
  6
Continuous
 62
     8
100
AcDbLine
 10
239.307547
 20
179.064746
 30
0.0
 11
239.307547
 21
186.858816
 31
0.0
  0
LINE
  5
1F8
100
AcDbEntity
  8
0
  6
Continuous
 62
     8
100
AcDbLine
 10
239.307547
 20
188.858628
 30
0.0
 11
239.307547
 21
189.858685
 31
0.0
  0
LINE
  5
1F9
100
AcDbEntity
  8
0
  6
Continuous
 62
     8
100
AcDbLine
 10
239.307547
 20
191.858497
 30
0.0
 11
239.307547
 21
199.652567
 31
0.0
  0
LINE
  5
1FA
100
AcDbEntity
  8
0
  6
Continuous
 62
     8
100
AcDbLine
 10
239.307547
 20
201.652379
 30
0.0
 11
239.307547
 21
202.652435
 31
0.0
  0
LINE
  5
1FB
100
AcDbEntity
  8
0
  6
Continuous
 62
     8
100
AcDbLine
 10
239.307547
 20
204.652247
 30
0.0
 11
239.307547
 21
212.446618
 31
0.0
  0
LINE
  5
1FC
100
AcDbEntity
  8
0
  6
Continuous
 62
     8
100
AcDbLine
 10
239.307547
 20
214.44643
 30
0.0
 11
239.307547
 21
215.446186
 31
0.0
  0
LINE
  5
1FD
100
AcDbEntity
  8
0
  6
Continuous
 62
     8
100
AcDbLine
 10
239.307547
 20
217.446299
 30
0.0
 11
239.307547
 21
225.240369
 31
0.0
  0
LINE
  5
1FE
100
AcDbEntity
  8
0
  6
Continuous
 62
     8
100
AcDbLine
 10
239.307547
 20
227.240181
 30
0.0
 11
239.307547
 21
228.240237
 31
0.0
  0
LINE
  5
1FF
100
AcDbEntity
  8
0
  6
Continuous
 62
     8
100
AcDbLine
 10
239.307547
 20
230.240049
 30
0.0
 11
239.307547
 21
238.03412
 31
0.0
  0
ENDBLK
  5
200
100
AcDbEntity
  8
0
100
AcDbBlockEnd
  0
BLOCK
  5
203
100
AcDbEntity
  8
0
100
AcDbBlockBegin
  2
*B24
 70
     0
 10
0.0
 20
0.0
 30
0.0
  3
*B24
  1

  0
LINE
  5
204
100
AcDbEntity
  8
0
  6
Continuous
 62
     8
100
AcDbLine
 10
198.307643
 20
148.040771
 30
0.0
 11
198.307643
 21
164.065704
 31
0.0
  0
ENDBLK
  5
205
100
AcDbEntity
  8
0
100
AcDbBlockEnd
  0
BLOCK
  5
208
100
AcDbEntity
  8
0
100
AcDbBlockBegin
  2
*B25
 70
     0
 10
0.0
 20
0.0
 30
0.0
  3
*B25
  1

  0
LINE
  5
209
100
AcDbEntity
  8
0
  6
Continuous
 62
     8
100
AcDbLine
 10
248.707595
 20
85.359564
 30
0.0
 11
248.707595
 21
113.000951
 31
0.0
  0
ENDBLK
  5
20A
100
AcDbEntity
  8
0
100
AcDbBlockEnd
  0
BLOCK
  5
20D
100
AcDbEntity
  8
0
100
AcDbBlockBegin
  2
*B26
 70
     0
 10
0.0
 20
0.0
 30
0.0
  3
*B26
  1

  0
LINE
  5
20E
100
AcDbEntity
  8
0
  6
Continuous
 62
     8
100
AcDbLine
 10
115.025697
 20
243.059635
 30
0.0
 11
132.000518
 21
243.059635
 31
0.0
  0
ENDBLK
  5
20F
100
AcDbEntity
  8
0
100
AcDbBlockEnd
  0
BLOCK
  5
212
100
AcDbEntity
  8
0
100
AcDbBlockBegin
  2
*B27
 70
     0
 10
0.0
 20
0.0
 30
0.0
  3
*B27
  1

  0
LINE
  5
213
100
AcDbEntity
  8
0
  6
Continuous
 62
     8
100
AcDbLine
 10
136.807637
 20
115.000763
 30
0.0
 11
148.057594
 21
115.000763
 31
0.0
  0
LINE
  5
214
100
AcDbEntity
  8
0
  6
Continuous
 62
     8
100
AcDbLine
 10
150.057707
 20
115.000763
 30
0.0
 11
151.057463
 21
115.000763
 31
0.0
  0
LINE
  5
215
100
AcDbEntity
  8
0
  6
Continuous
 62
     8
100
AcDbLine
 10
153.057575
 20
115.000763
 30
0.0
 11
164.307532
 21
115.000763
 31
0.0
  0
LINE
  5
216
100
AcDbEntity
  8
0
  6
Continuous
 62
     8
100
AcDbLine
 10
170.30757
 20
115.000763
 30
0.0
 11
177.807541
 21
115.000763
 31
0.0
  0
LINE
  5
217
100
AcDbEntity
  8
0
  6
Continuous
 62
     8
100
AcDbLine
 10
179.807653
 20
115.000763
 30
0.0
 11
180.80771
 21
115.000763
 31
0.0
  0
LINE
  5
218
100
AcDbEntity
  8
0
  6
Continuous
 62
     8
100
AcDbLine
 10
182.807522
 20
115.000763
 30
0.0
 11
190.307493
 21
115.000763
 31
0.0
  0
LINE
  5
219
100
AcDbEntity
  8
0
  6
Continuous
 62
     8
100
AcDbLine
 10
196.30753
 20
115.000763
 30
0.0
 11
206.307492
 21
115.000763
 31
0.0
  0
LINE
  5
21A
100
AcDbEntity
  8
0
  6
Continuous
 62
     8
100
AcDbLine
 10
208.307605
 20
115.000763
 30
0.0
 11
209.307661
 21
115.000763
 31
0.0
  0
LINE
  5
21B
100
AcDbEntity
  8
0
  6
Continuous
 62
     8
100
AcDbLine
 10
211.307473
 20
115.000763
 30
0.0
 11
221.307435
 21
115.000763
 31
0.0
  0
LINE
  5
21C
100
AcDbEntity
  8
0
  6
Continuous
 62
     8
100
AcDbLine
 10
223.307548
 20
115.000763
 30
0.0
 11
224.307604
 21
115.000763
 31
0.0
  0
LINE
  5
21D
100
AcDbEntity
  8
0
  6
Continuous
 62
     8
100
AcDbLine
 10
226.307716
 20
115.000763
 30
0.0
 11
236.307678
 21
115.000763
 31
0.0
  0
LINE
  5
21E
100
AcDbEntity
  8
0
  6
Continuous
 62
     8
100
AcDbLine
 10
242.307715
 20
115.000763
 30
0.0
 11
252.974281
 21
115.000763
 31
0.0
  0
LINE
  5
21F
100
AcDbEntity
  8
0
  6
Continuous
 62
     8
100
AcDbLine
 10
254.974093
 20
115.000763
 30
0.0
 11
255.97415
 21
115.000763
 31
0.0
  0
LINE
  5
220
100
AcDbEntity
  8
0
  6
Continuous
 62
     8
100
AcDbLine
 10
257.974262
 20
115.000763
 30
0.0
 11
268.640828
 21
115.000763
 31
0.0
  0
LINE
  5
221
100
AcDbEntity
  8
0
  6
Continuous
 62
     8
100
AcDbLine
 10
270.640941
 20
115.000763
 30
0.0
 11
271.640997
 21
115.000763
 31
0.0
  0
LINE
  5
222
100
AcDbEntity
  8
0
  6
Continuous
 62
     8
100
AcDbLine
 10
273.640809
 20
115.000763
 30
0.0
 11
284.307675
 21
115.000763
 31
0.0
  0
ENDBLK
  5
223
100
AcDbEntity
  8
0
100
AcDbBlockEnd
  0
BLOCK
  5
226
100
AcDbEntity
  8
0
100
AcDbBlockBegin
  2
*B28
 70
     0
 10
0.0
 20
0.0
 30
0.0
  3
*B28
  1

  0
LINE
  5
227
100
AcDbEntity
  8
0
  6
Continuous
 62
     8
100
AcDbLine
 10
167.307701
 20
107.601428
 30
0.0
 11
167.307701
 21
112.001195
 31
0.0
  0
LINE
  5
228
100
AcDbEntity
  8
0
  6
Continuous
 62
     8
100
AcDbLine
 10
167.307701
 20
118.000631
 30
0.0
 11
167.307701
 21
122.400398
 31
0.0
  0
ENDBLK
  5
229
100
AcDbEntity
  8
0
100
AcDbBlockEnd
  0
BLOCK
  5
22C
100
AcDbEntity
  8
0
100
AcDbBlockBegin
  2
*B29
 70
     0
 10
0.0
 20
0.0
 30
0.0
  3
*B29
  1

  0
LINE
  5
22D
100
AcDbEntity
  8
0
  6
Continuous
 62
     8
100
AcDbLine
 10
226.607523
 20
218.061833
 30
0.0
 11
226.607523
 21
242.034044
 31
0.0
  0
ENDBLK
  5
22E
100
AcDbEntity
  8
0
100
AcDbBlockEnd
  0
BLOCK
  5
231
100
AcDbEntity
  8
0
100
AcDbBlockBegin
  2
*B30
 70
     0
 10
0.0
 20
0.0
 30
0.0
  3
*B30
  1

  0
LINE
  5
232
100
AcDbEntity
  8
0
  6
Continuous
 62
     8
100
AcDbLine
 10
255.307546
 20
148.040771
 30
0.0
 11
255.307546
 21
152.040396
 31
0.0
  0
LINE
  5
233
100
AcDbEntity
  8
0
  6
Continuous
 62
     8
100
AcDbLine
 10
255.307546
 20
152.040396
 30
0.0
 11
255.307546
 21
160.245123
 31
0.0
  0
LINE
  5
234
100
AcDbEntity
  8
0
  6
Continuous
 62
     8
100
AcDbLine
 10
255.307546
 20
162.244935
 30
0.0
 11
255.307546
 21
163.244691
 31
0.0
  0
LINE
  5
235
100
AcDbEntity
  8
0
  6
Continuous
 62
     8
100
AcDbLine
 10
255.307546
 20
165.244803
 30
0.0
 11
255.307546
 21
173.44923
 31
0.0
  0
LINE
  5
236
100
AcDbEntity
  8
0
  6
Continuous
 62
     8
100
AcDbLine
 10
255.307546
 20
175.449042
 30
0.0
 11
255.307546
 21
176.449099
 31
0.0
  0
LINE
  5
237
100
AcDbEntity
  8
0
  6
Continuous
 62
     8
100
AcDbLine
 10
255.307546
 20
178.448911
 30
0.0
 11
255.307546
 21
186.653638
 31
0.0
  0
LINE
  5
238
100
AcDbEntity
  8
0
  6
Continuous
 62
     8
100
AcDbLine
 10
255.307546
 20
188.65345
 30
0.0
 11
255.307546
 21
189.653506
 31
0.0
  0
LINE
  5
239
100
AcDbEntity
  8
0
  6
Continuous
 62
     8
100
AcDbLine
 10
255.307546
 20
191.653318
 30
0.0
 11
255.307546
 21
199.857745
 31
0.0
  0
LINE
  5
23A
100
AcDbEntity
  8
0
  6
Continuous
 62
     8
100
AcDbLine
 10
255.307546
 20
201.857858
 30
0.0
 11
255.307546
 21
202.857614
 31
0.0
  0
LINE
  5
23B
100
AcDbEntity
  8
0
  6
Continuous
 62
     8
100
AcDbLine
 10
255.307546
 20
204.857426
 30
0.0
 11
255.307546
 21
213.062153
 31
0.0
  0
LINE
  5
23C
100
AcDbEntity
  8
0
  6
Continuous
 62
     8
100
AcDbLine
 10
255.307546
 20
219.061589
 30
0.0
 11
255.307546
 21
223.36132
 31
0.0
  0
ENDBLK
  5
23D
100
AcDbEntity
  8
0
100
AcDbBlockEnd
  0
BLOCK
  5
240
100
AcDbEntity
  8
0
100
AcDbBlockBegin
  2
*B31
 70
     0
 10
0.0
 20
0.0
 30
0.0
  3
*B31
  1

  0
LINE
  5
241
100
AcDbEntity
  8
0
  6
Continuous
 62
     8
100
AcDbLine
 10
129.307666
 20
115.045824
 30
0.0
 11
141.107669
 21
115.045824
 31
0.0
  0
ENDBLK
  5
242
100
AcDbEntity
  8
0
100
AcDbBlockEnd
  0
BLOCK
  5
245
100
AcDbEntity
  8
0
100
AcDbBlockBegin
  2
*B32
 70
     0
 10
0.0
 20
0.0
 30
0.0
  3
*B32
  1

  0
LINE
  5
246
100
AcDbEntity
  8
0
  6
Continuous
 62
     8
100
AcDbLine
 10
282.307563
 20
166.065516
 30
0.0
 11
314.025478
 21
166.065516
 31
0.0
  0
ENDBLK
  5
247
100
AcDbEntity
  8
0
100
AcDbBlockEnd
  0
BLOCK
  5
24A
100
AcDbEntity
  8
0
100
AcDbBlockBegin
  2
*B33
 70
     0
 10
0.0
 20
0.0
 30
0.0
  3
*B33
  1

  0
LINE
  5
24B
100
AcDbEntity
  8
0
  6
Continuous
 62
     8
100
AcDbLine
 10
216.007648
 20
216.062021
 30
0.0
 11
220.307679
 21
216.062021
 31
0.0
  0
LINE
  5
24C
100
AcDbEntity
  8
0
  6
Continuous
 62
     8
100
AcDbLine
 10
226.307716
 20
216.062021
 30
0.0
 11
230.607448
 21
216.062021
 31
0.0
  0
ENDBLK
  5
24D
100
AcDbEntity
  8
0
100
AcDbBlockEnd
  0
BLOCK
  5
250
100
AcDbEntity
  8
0
100
AcDbBlockBegin
  2
*B34
 70
     0
 10
0.0
 20
0.0
 30
0.0
  3
*B34
  1

  0
LINE
  5
251
100
AcDbEntity
  8
0
  6
Continuous
 62
     8
100
AcDbLine
 10
133.30759
 20
243.85932
 30
0.0
 11
133.30759
 21
262.032466
 31
0.0
  0
ENDBLK
  5
252
100
AcDbEntity
  8
0
100
AcDbBlockEnd
  0
BLOCK
  5
255
100
AcDbEntity
  8
0
100
AcDbBlockBegin
  2
*B35
 70
     0
 10
0.0
 20
0.0
 30
0.0
  3
*B35
  1

  0
LINE
  5
256
100
AcDbEntity
  8
0
  6
Continuous
 62
     8
100
AcDbLine
 10
193.307662
 20
108.00127
 30
0.0
 11
193.307662
 21
112.001195
 31
0.0
  0
LINE
  5
257
100
AcDbEntity
  8
0
  6
Continuous
 62
     8
100
AcDbLine
 10
193.307662
 20
118.000631
 30
0.0
 11
193.307662
 21
122.000256
 31
0.0
  0
ENDBLK
  5
258
100
AcDbEntity
  8
0
100
AcDbBlockEnd
  0
BLOCK
  5
25B
100
AcDbEntity
  8
0
100
AcDbBlockBegin
  2
*B36
 70
     0
 10
0.0
 20
0.0
 30
0.0
  3
*B36
  1

  0
LINE
  5
25C
100
AcDbEntity
  8
0
  6
Continuous
 62
     8
100
AcDbLine
 10
182.307644
 20
228.061194
 30
0.0
 11
182.307644
 21
262.032466
 31
0.0
  0
ENDBLK
  5
25D
100
AcDbEntity
  8
0
100
AcDbBlockEnd
  0
BLOCK
  5
260
100
AcDbEntity
  8
0
100
AcDbBlockBegin
  2
*B37
 70
     0
 10
0.0
 20
0.0
 30
0.0
  3
*B37
  1

  0
LINE
  5
261
100
AcDbEntity
  8
0
  6
Continuous
 62
     8
100
AcDbLine
 10
282.307563
 20
129.999804
 30
0.0
 11
314.025478
 21
129.999804
 31
0.0
  0
ENDBLK
  5
262
100
AcDbEntity
  8
0
100
AcDbBlockEnd
  0
BLOCK
  5
265
100
AcDbEntity
  8
0
100
AcDbBlockBegin
  2
*B38
 70
     0
 10
0.0
 20
0.0
 30
0.0
  3
*B38
  1

  0
LINE
  5
266
100
AcDbEntity
  8
0
  6
Continuous
 62
     8
100
AcDbLine
 10
223.307548
 20
148.040771
 30
0.0
 11
223.307548
 21
152.040396
 31
0.0
  0
LINE
  5
267
100
AcDbEntity
  8
0
  6
Continuous
 62
     8
100
AcDbLine
 10
223.307548
 20
152.040396
 30
0.0
 11
223.307548
 21
160.245123
 31
0.0
  0
LINE
  5
268
100
AcDbEntity
  8
0
  6
Continuous
 62
     8
100
AcDbLine
 10
223.307548
 20
162.244935
 30
0.0
 11
223.307548
 21
163.244691
 31
0.0
  0
LINE
  5
269
100
AcDbEntity
  8
0
  6
Continuous
 62
     8
100
AcDbLine
 10
223.307548
 20
165.244803
 30
0.0
 11
223.307548
 21
173.44923
 31
0.0
  0
LINE
  5
26A
100
AcDbEntity
  8
0
  6
Continuous
 62
     8
100
AcDbLine
 10
223.307548
 20
175.449042
 30
0.0
 11
223.307548
 21
176.449099
 31
0.0
  0
LINE
  5
26B
100
AcDbEntity
  8
0
  6
Continuous
 62
     8
100
AcDbLine
 10
223.307548
 20
178.448911
 30
0.0
 11
223.307548
 21
186.653638
 31
0.0
  0
LINE
  5
26C
100
AcDbEntity
  8
0
  6
Continuous
 62
     8
100
AcDbLine
 10
223.307548
 20
188.65345
 30
0.0
 11
223.307548
 21
189.653506
 31
0.0
  0
LINE
  5
26D
100
AcDbEntity
  8
0
  6
Continuous
 62
     8
100
AcDbLine
 10
223.307548
 20
191.653318
 30
0.0
 11
223.307548
 21
199.857745
 31
0.0
  0
LINE
  5
26E
100
AcDbEntity
  8
0
  6
Continuous
 62
     8
100
AcDbLine
 10
223.307548
 20
201.857858
 30
0.0
 11
223.307548
 21
202.857614
 31
0.0
  0
LINE
  5
26F
100
AcDbEntity
  8
0
  6
Continuous
 62
     8
100
AcDbLine
 10
223.307548
 20
204.857426
 30
0.0
 11
223.307548
 21
213.062153
 31
0.0
  0
LINE
  5
270
100
AcDbEntity
  8
0
  6
Continuous
 62
     8
100
AcDbLine
 10
223.307548
 20
219.061589
 30
0.0
 11
223.307548
 21
223.36132
 31
0.0
  0
ENDBLK
  5
271
100
AcDbEntity
  8
0
100
AcDbBlockEnd
  0
BLOCK
  5
274
100
AcDbEntity
  8
0
100
AcDbBlockBegin
  2
*B39
 70
     0
 10
0.0
 20
0.0
 30
0.0
  3
*B39
  1

  0
LINE
  5
275
100
AcDbEntity
  8
0
  6
Continuous
 62
     8
100
AcDbLine
 10
115.025697
 20
166.065516
 30
0.0
 11
180.307531
 21
166.065516
 31
0.0
  0
ENDBLK
  5
276
100
AcDbEntity
  8
0
100
AcDbBlockEnd
  0
BLOCK
  5
279
100
AcDbEntity
  8
0
100
AcDbBlockBegin
  2
*B40
 70
     0
 10
0.0
 20
0.0
 30
0.0
  3
*B40
  1

  0
LINE
  5
27A
100
AcDbEntity
  8
0
  6
Continuous
 62
     8
100
AcDbLine
 10
295.025611
 20
176.064878
 30
0.0
 11
299.025536
 21
176.064878
 31
0.0
  0
LINE
  5
27B
100
AcDbEntity
  8
0
  6
Continuous
 62
     8
100
AcDbLine
 10
232.007647
 20
176.064878
 30
0.0
 11
236.307678
 21
176.064878
 31
0.0
  0
LINE
  5
27C
100
AcDbEntity
  8
0
  6
Continuous
 62
     8
100
AcDbLine
 10
242.307715
 20
176.064878
 30
0.0
 11
251.737204
 21
176.064878
 31
0.0
  0
LINE
  5
27D
100
AcDbEntity
  8
0
  6
Continuous
 62
     8
100
AcDbLine
 10
253.737016
 20
176.064878
 30
0.0
 11
254.737072
 21
176.064878
 31
0.0
  0
LINE
  5
27E
100
AcDbEntity
  8
0
  6
Continuous
 62
     8
100
AcDbLine
 10
256.737185
 20
176.064878
 30
0.0
 11
266.166673
 21
176.064878
 31
0.0
  0
LINE
  5
27F
100
AcDbEntity
  8
0
  6
Continuous
 62
     8
100
AcDbLine
 10
268.166485
 20
176.064878
 30
0.0
 11
269.166541
 21
176.064878
 31
0.0
  0
LINE
  5
280
100
AcDbEntity
  8
0
  6
Continuous
 62
     8
100
AcDbLine
 10
271.166654
 20
176.064878
 30
0.0
 11
280.596142
 21
176.064878
 31
0.0
  0
LINE
  5
281
100
AcDbEntity
  8
0
  6
Continuous
 62
     8
100
AcDbLine
 10
282.595954
 20
176.064878
 30
0.0
 11
283.59601
 21
176.064878
 31
0.0
  0
LINE
  5
282
100
AcDbEntity
  8
0
  6
Continuous
 62
     8
100
AcDbLine
 10
285.596123
 20
176.064878
 30
0.0
 11
295.025611
 21
176.064878
 31
0.0
  0
ENDBLK
  5
283
100
AcDbEntity
  8
0
100
AcDbBlockEnd
  0
BLOCK
  5
286
100
AcDbEntity
  8
0
100
AcDbBlockBegin
  2
*B41
 70
     0
 10
0.0
 20
0.0
 30
0.0
  3
*B41
  1

  0
LINE
  5
287
100
AcDbEntity
  8
0
  6
Continuous
 62
     8
100
AcDbLine
 10
295.025611
 20
216.062021
 30
0.0
 11
299.025536
 21
216.062021
 31
0.0
  0
LINE
  5
288
100
AcDbEntity
  8
0
  6
Continuous
 62
     8
100
AcDbLine
 10
248.007646
 20
216.062021
 30
0.0
 11
252.307677
 21
216.062021
 31
0.0
  0
LINE
  5
289
100
AcDbEntity
  8
0
  6
Continuous
 62
     8
100
AcDbLine
 10
258.307414
 20
216.062021
 30
0.0
 11
267.213593
 21
216.062021
 31
0.0
  0
LINE
  5
28A
100
AcDbEntity
  8
0
  6
Continuous
 62
     8
100
AcDbLine
 10
269.213705
 20
216.062021
 30
0.0
 11
270.213461
 21
216.062021
 31
0.0
  0
LINE
  5
28B
100
AcDbEntity
  8
0
  6
Continuous
 62
     8
100
AcDbLine
 10
272.213573
 20
216.062021
 30
0.0
 11
281.119452
 21
216.062021
 31
0.0
  0
LINE
  5
28C
100
AcDbEntity
  8
0
  6
Continuous
 62
     8
100
AcDbLine
 10
283.119564
 20
216.062021
 30
0.0
 11
284.11962
 21
216.062021
 31
0.0
  0
LINE
  5
28D
100
AcDbEntity
  8
0
  6
Continuous
 62
     8
100
AcDbLine
 10
286.119432
 20
216.062021
 30
0.0
 11
295.025611
 21
216.062021
 31
0.0
  0
ENDBLK
  5
28E
100
AcDbEntity
  8
0
100
AcDbBlockEnd
  0
BLOCK
  5
291
100
AcDbEntity
  8
0
100
AcDbBlockBegin
  2
*B42
 70
     0
 10
0.0
 20
0.0
 30
0.0
  3
*B42
  1

  0
LINE
  5
292
100
AcDbEntity
  8
0
  6
Continuous
 62
     8
100
AcDbLine
 10
282.307563
 20
100.002022
 30
0.0
 11
314.025478
 21
100.002022
 31
0.0
  0
ENDBLK
  5
293
100
AcDbEntity
  8
0
100
AcDbBlockEnd
  0
BLOCK
  5
296
100
AcDbEntity
  8
0
100
AcDbBlockBegin
  2
*B43
 70
     0
 10
0.0
 20
0.0
 30
0.0
  3
*B43
  1

  0
LINE
  5
297
100
AcDbEntity
  8
0
  6
Continuous
 62
     8
100
AcDbLine
 10
140.607491
 20
196.062999
 30
0.0
 11
149.125843
 21
196.062999
 31
0.0
  0
LINE
  5
298
100
AcDbEntity
  8
0
  6
Continuous
 62
     8
100
AcDbLine
 10
151.125655
 20
196.062999
 30
0.0
 11
152.125711
 21
196.062999
 31
0.0
  0
LINE
  5
299
100
AcDbEntity
  8
0
  6
Continuous
 62
     8
100
AcDbLine
 10
154.125824
 20
196.062999
 30
0.0
 11
162.643876
 21
196.062999
 31
0.0
  0
LINE
  5
29A
100
AcDbEntity
  8
0
  6
Continuous
 62
     8
100
AcDbLine
 10
164.643989
 20
196.062999
 30
0.0
 11
165.644045
 21
196.062999
 31
0.0
  0
LINE
  5
29B
100
AcDbEntity
  8
0
  6
Continuous
 62
     8
100
AcDbLine
 10
167.643857
 20
196.062999
 30
0.0
 11
176.16221
 21
196.062999
 31
0.0
  0
LINE
  5
29C
100
AcDbEntity
  8
0
  6
Continuous
 62
     8
100
AcDbLine
 10
178.162022
 20
196.062999
 30
0.0
 11
179.162078
 21
196.062999
 31
0.0
  0
LINE
  5
29D
100
AcDbEntity
  8
0
  6
Continuous
 62
     8
100
AcDbLine
 10
181.16219
 20
196.062999
 30
0.0
 11
189.680243
 21
196.062999
 31
0.0
  0
LINE
  5
29E
100
AcDbEntity
  8
0
  6
Continuous
 62
     8
100
AcDbLine
 10
191.680355
 20
196.062999
 30
0.0
 11
192.680411
 21
196.062999
 31
0.0
  0
LINE
  5
29F
100
AcDbEntity
  8
0
  6
Continuous
 62
     8
100
AcDbLine
 10
194.680223
 20
196.062999
 30
0.0
 11
203.198576
 21
196.062999
 31
0.0
  0
LINE
  5
2A0
100
AcDbEntity
  8
0
  6
Continuous
 62
     8
100
AcDbLine
 10
205.198388
 20
196.062999
 30
0.0
 11
206.198444
 21
196.062999
 31
0.0
  0
LINE
  5
2A1
100
AcDbEntity
  8
0
  6
Continuous
 62
     8
100
AcDbLine
 10
208.198557
 20
196.062999
 30
0.0
 11
216.716609
 21
196.062999
 31
0.0
  0
LINE
  5
2A2
100
AcDbEntity
  8
0
  6
Continuous
 62
     8
100
AcDbLine
 10
218.716722
 20
196.062999
 30
0.0
 11
219.716778
 21
196.062999
 31
0.0
  0
LINE
  5
2A3
100
AcDbEntity
  8
0
  6
Continuous
 62
     8
100
AcDbLine
 10
221.71659
 20
196.062999
 30
0.0
 11
230.234942
 21
196.062999
 31
0.0
  0
LINE
  5
2A4
100
AcDbEntity
  8
0
  6
Continuous
 62
     8
100
AcDbLine
 10
232.234755
 20
196.062999
 30
0.0
 11
233.234811
 21
196.062999
 31
0.0
  0
LINE
  5
2A5
100
AcDbEntity
  8
0
  6
Continuous
 62
     8
100
AcDbLine
 10
235.234923
 20
196.062999
 30
0.0
 11
243.752975
 21
196.062999
 31
0.0
  0
LINE
  5
2A6
100
AcDbEntity
  8
0
  6
Continuous
 62
     8
100
AcDbLine
 10
245.753088
 20
196.062999
 30
0.0
 11
246.753144
 21
196.062999
 31
0.0
  0
LINE
  5
2A7
100
AcDbEntity
  8
0
  6
Continuous
 62
     8
100
AcDbLine
 10
248.752956
 20
196.062999
 30
0.0
 11
257.271309
 21
196.062999
 31
0.0
  0
LINE
  5
2A8
100
AcDbEntity
  8
0
  6
Continuous
 62
     8
100
AcDbLine
 10
259.271121
 20
196.062999
 30
0.0
 11
260.271177
 21
196.062999
 31
0.0
  0
LINE
  5
2A9
100
AcDbEntity
  8
0
  6
Continuous
 62
     8
100
AcDbLine
 10
262.27129
 20
196.062999
 30
0.0
 11
270.789342
 21
196.062999
 31
0.0
  0
LINE
  5
2AA
100
AcDbEntity
  8
0
  6
Continuous
 62
     8
100
AcDbLine
 10
272.789454
 20
196.062999
 30
0.0
 11
273.789511
 21
196.062999
 31
0.0
  0
LINE
  5
2AB
100
AcDbEntity
  8
0
  6
Continuous
 62
     8
100
AcDbLine
 10
275.789323
 20
196.062999
 30
0.0
 11
284.307675
 21
196.062999
 31
0.0
  0
ENDBLK
  5
2AC
100
AcDbEntity
  8
0
100
AcDbBlockEnd
  0
BLOCK
  5
2AF
100
AcDbEntity
  8
0
100
AcDbBlockBegin
  2
*B44
 70
     0
 10
0.0
 20
0.0
 30
0.0
  3
*B44
  1

  0
LINE
  5
2B0
100
AcDbEntity
  8
0
  6
Continuous
 62
     8
100
AcDbLine
 10
282.307563
 20
226.061382
 30
0.0
 11
314.025478
 21
226.061382
 31
0.0
  0
ENDBLK
  5
2B1
100
AcDbEntity
  8
0
100
AcDbBlockEnd
  0
BLOCK
  5
2B4
100
AcDbEntity
  8
0
100
AcDbBlockBegin
  2
*B45
 70
     0
 10
0.0
 20
0.0
 30
0.0
  3
*B45
  1

  0
LINE
  5
2B5
100
AcDbEntity
  8
0
  6
Continuous
 62
     6
100
AcDbLine
 10
193.307662
 20
114.001007
 30
0.0
 11
193.307662
 21
116.000819
 31
0.0
  0
LINE
  5
2B6
100
AcDbEntity
  8
0
  6
Continuous
 62
     6
100
AcDbLine
 10
192.307606
 20
115.000763
 30
0.0
 11
194.307718
 21
115.000763
 31
0.0
  0
ENDBLK
  5
2B7
100
AcDbEntity
  8
0
100
AcDbBlockEnd
  0
BLOCK
  5
2BA
100
AcDbEntity
  8
0
100
AcDbBlockBegin
  2
*B46
 70
     0
 10
0.0
 20
0.0
 30
0.0
  3
*B46
  1

  0
LINE
  5
2BB
100
AcDbEntity
  8
0
  6
Continuous
 62
     6
100
AcDbLine
 10
166.307645
 20
115.000763
 30
0.0
 11
168.307457
 21
115.000763
 31
0.0
  0
LINE
  5
2BC
100
AcDbEntity
  8
0
  6
Continuous
 62
     6
100
AcDbLine
 10
167.307701
 20
114.001007
 30
0.0
 11
167.307701
 21
116.000819
 31
0.0
  0
ENDBLK
  5
2BD
100
AcDbEntity
  8
0
100
AcDbBlockEnd
  0
BLOCK
  5
2C0
100
AcDbEntity
  8
0
100
AcDbBlockBegin
  2
*B47
 70
     0
 10
0.0
 20
0.0
 30
0.0
  3
*B47
  1

  0
LINE
  5
2C1
100
AcDbEntity
  8
0
  6
Continuous
 62
     6
100
AcDbLine
 10
239.307547
 20
114.001007
 30
0.0
 11
239.307547
 21
116.000819
 31
0.0
  0
LINE
  5
2C2
100
AcDbEntity
  8
0
  6
Continuous
 62
     6
100
AcDbLine
 10
238.30749
 20
115.000763
 30
0.0
 11
240.307603
 21
115.000763
 31
0.0
  0
ENDBLK
  5
2C3
100
AcDbEntity
  8
0
100
AcDbBlockEnd
  0
BLOCK
  5
2C6
100
AcDbEntity
  8
0
100
AcDbBlockBegin
  2
*B48
 70
     0
 10
0.0
 20
0.0
 30
0.0
  3
*B48
  1

  0
LINE
  5
2C7
100
AcDbEntity
  8
0
  6
Continuous
 62
     6
100
AcDbLine
 10
239.307547
 20
175.064821
 30
0.0
 11
239.307547
 21
177.064633
 31
0.0
  0
LINE
  5
2C8
100
AcDbEntity
  8
0
  6
Continuous
 62
     6
100
AcDbLine
 10
238.30749
 20
176.064878
 30
0.0
 11
240.307603
 21
176.064878
 31
0.0
  0
ENDBLK
  5
2C9
100
AcDbEntity
  8
0
100
AcDbBlockEnd
  0
BLOCK
  5
2CC
100
AcDbEntity
  8
0
100
AcDbBlockBegin
  2
*B49
 70
     0
 10
0.0
 20
0.0
 30
0.0
  3
*B49
  1

  0
LINE
  5
2CD
100
AcDbEntity
  8
0
  6
Continuous
 62
     6
100
AcDbLine
 10
255.307546
 20
215.061965
 30
0.0
 11
255.307546
 21
217.061777
 31
0.0
  0
LINE
  5
2CE
100
AcDbEntity
  8
0
  6
Continuous
 62
     6
100
AcDbLine
 10
254.307489
 20
216.062021
 30
0.0
 11
256.307602
 21
216.062021
 31
0.0
  0
ENDBLK
  5
2CF
100
AcDbEntity
  8
0
100
AcDbBlockEnd
  0
BLOCK
  5
2D2
100
AcDbEntity
  8
0
100
AcDbBlockBegin
  2
*B50
 70
     0
 10
0.0
 20
0.0
 30
0.0
  3
*B50
  1

  0
LINE
  5
2D3
100
AcDbEntity
  8
0
  6
Continuous
 62
     6
100
AcDbLine
 10
223.307548
 20
215.061965
 30
0.0
 11
223.307548
 21
217.061777
 31
0.0
  0
LINE
  5
2D4
100
AcDbEntity
  8
0
  6
Continuous
 62
     6
100
AcDbLine
 10
222.307491
 20
216.062021
 30
0.0
 11
224.307604
 21
216.062021
 31
0.0
  0
ENDBLK
  5
2D5
100
AcDbEntity
  8
0
100
AcDbBlockEnd
  0
BLOCK
  5
2D8
100
AcDbEntity
  8
0
100
AcDbBlockBegin
  2
*B51
 70
     0
 10
0.0
 20
0.0
 30
0.0
  3
*B51
  1

  0
TEXT
  5
2D9
100
AcDbEntity
  8
TEXT
  6
Continuous
 62
     0
100
AcDbText
 10
201.471499
 20
194.5
 30
0.0
 40
5.0
  1
12
100
AcDbText
  0
ENDBLK
  5
2DA
100
AcDbEntity
  8
0
100
AcDbBlockEnd
  0
BLOCK
  5
2DD
100
AcDbEntity
  8
0
100
AcDbBlockBegin
  2
*B52
 70
     0
 10
0.0
 20
0.0
 30
0.0
  3
*B52
  1

  0
TEXT
  5
2DE
100
AcDbEntity
  8
TEXT
  6
Continuous
 62
     0
100
AcDbText
 10
254.23575
 20
170.5
 30
0.0
 40
5.0
  1
1
100
AcDbText
  0
ENDBLK
  5
2DF
100
AcDbEntity
  8
0
100
AcDbBlockEnd
  0
BLOCK
  5
2E2
100
AcDbEntity
  8
0
100
AcDbBlockBegin
  2
*B53
 70
     0
 10
0.0
 20
0.0
 30
0.0
  3
*B53
  1

  0
TEXT
  5
2E3
100
AcDbEntity
  8
TEXT
  6
Continuous
 62
     0
100
AcDbText
 10
237.23575
 20
215.5
 30
0.0
 40
5.0
  1
2
100
AcDbText
  0
ENDBLK
  5
2E4
100
AcDbEntity
  8
0
100
AcDbBlockEnd
  0
BLOCK
  5
2E7
100
AcDbEntity
  8
0
100
AcDbBlockBegin
  2
*B54
 70
     0
 10
0.0
 20
0.0
 30
0.0
  3
*B54
  1

  0
TEXT
  5
2E8
100
AcDbEntity
  8
TEXT
  6
Continuous
 62
     0
100
AcDbText
 10
221.23575
 20
170.5
 30
0.0
 40
5.0
  1
3
100
AcDbText
  0
ENDBLK
  5
2E9
100
AcDbEntity
  8
0
100
AcDbBlockEnd
  0
BLOCK
  5
2EC
100
AcDbEntity
  8
0
100
AcDbBlockBegin
  2
*B55
 70
     0
 10
0.0
 20
0.0
 30
0.0
  3
*B55
  1

  0
TEXT
  5
2ED
100
AcDbEntity
  8
TEXT
  6
Continuous
 62
     0
100
AcDbText
 10
269.471499
 20
193.5
 30
0.0
 40
5.0
  1
10
100
AcDbText
  0
ENDBLK
  5
2EE
100
AcDbEntity
  8
0
100
AcDbBlockEnd
  0
BLOCK
  5
2F1
100
AcDbEntity
  8
0
100
AcDbBlockBegin
  2
*B56
 70
     0
 10
0.0
 20
0.0
 30
0.0
  3
*B56
  1

  0
TEXT
  5
2F2
100
AcDbEntity
  8
TEXT
  6
Continuous
 62
     0
100
AcDbText
 10
195.0
 20
107.0886
 30
0.0
 40
4.0
  1
0
 50
90.0
100
AcDbText
  0
ENDBLK
  5
2F3
100
AcDbEntity
  8
0
100
AcDbBlockEnd
  0
BLOCK
  5
2F6
100
AcDbEntity
  8
0
100
AcDbBlockBegin
  2
*B57
 70
     0
 10
0.0
 20
0.0
 30
0.0
  3
*B57
  1

  0
TEXT
  5
2F7
100
AcDbEntity
  8
TEXT
  6
Continuous
 62
     0
100
AcDbText
 10
189.0
 20
113.0886
 30
0.0
 40
4.0
  1
1
 50
90.0
100
AcDbText
  0
ENDBLK
  5
2F8
100
AcDbEntity
  8
0
100
AcDbBlockEnd
  0
BLOCK
  5
2FB
100
AcDbEntity
  8
0
100
AcDbBlockBegin
  2
*B58
 70
     0
 10
0.0
 20
0.0
 30
0.0
  3
*B58
  1

  0
TEXT
  5
2FC
100
AcDbEntity
  8
TEXT
  6
Continuous
 62
     0
100
AcDbText
 10
310.25
 20
192.692842
 30
0.0
 40
3.5
  1
60
 50
90.0
100
AcDbText
  0
ENDBLK
  5
2FD
100
AcDbEntity
  8
0
100
AcDbBlockEnd
  0
BLOCK
  5
300
100
AcDbEntity
  8
0
100
AcDbBlockBegin
  2
*B59
 70
     0
 10
0.0
 20
0.0
 30
0.0
  3
*B59
  1

  0
TEXT
  5
301
100
AcDbEntity
  8
TEXT
  6
Continuous
 62
     0
100
AcDbText
 10
295.25
 20
192.692842
 30
0.0
 40
3.5
  1
40
 50
90.0
100
AcDbText
  0
ENDBLK
  5
302
100
AcDbEntity
  8
0
100
AcDbBlockEnd
  0
BLOCK
  5
305
100
AcDbEntity
  8
0
100
AcDbBlockBegin
  2
*B60
 70
     0
 10
0.0
 20
0.0
 30
0.0
  3
*B60
  1

  0
TEXT
  5
306
100
AcDbEntity
  8
TEXT
  6
Continuous
 62
     0
100
AcDbText
 10
235.948619
 20
151.75
 30
0.0
 40
3.5
  1
32
100
AcDbText
  0
ENDBLK
  5
307
100
AcDbEntity
  8
0
100
AcDbBlockEnd
  0
BLOCK
  5
30A
100
AcDbEntity
  8
0
100
AcDbBlockBegin
  2
*B61
 70
     0
 10
0.0
 20
0.0
 30
0.0
  3
*B61
  1

  0
TEXT
  5
30B
100
AcDbEntity
  8
TEXT
  6
Continuous
 62
     0
100
AcDbText
 10
207.448619
 20
151.75
 30
0.0
 40
3.5
  1
25
100
AcDbText
  0
ENDBLK
  5
30C
100
AcDbEntity
  8
0
100
AcDbBlockEnd
  0
BLOCK
  5
30F
100
AcDbEntity
  8
0
100
AcDbBlockBegin
  2
*B62
 70
     0
 10
0.0
 20
0.0
 30
0.0
  3
*B62
  1

  0
TEXT
  5
310
100
AcDbEntity
  8
TEXT
  6
Continuous
 62
     0
100
AcDbText
 10
264.448619
 20
151.75
 30
0.0
 40
3.5
  1
25
100
AcDbText
  0
ENDBLK
  5
311
100
AcDbEntity
  8
0
100
AcDbBlockEnd
  0
BLOCK
  5
314
100
AcDbEntity
  8
0
100
AcDbBlockBegin
  2
*B63
 70
     0
 10
0.0
 20
0.0
 30
0.0
  3
*B63
  1

  0
TEXT
  5
315
100
AcDbEntity
  8
TEXT
  6
Continuous
 62
     0
100
AcDbText
 10
227.948619
 20
261.75
 30
0.0
 40
3.5
  1
98
100
AcDbText
  0
ENDBLK
  5
316
100
AcDbEntity
  8
0
100
AcDbBlockEnd
  0
BLOCK
  5
319
100
AcDbEntity
  8
0
100
AcDbBlockBegin
  2
*B64
 70
     0
 10
0.0
 20
0.0
 30
0.0
  3
*B64
  1

  0
TEXT
  5
31A
100
AcDbEntity
  8
TEXT
  6
Continuous
 62
     0
100
AcDbText
 10
256.448619
 20
241.75
 30
0.0
 40
3.5
  1
41
100
AcDbText
  0
ENDBLK
  5
31B
100
AcDbEntity
  8
0
100
AcDbBlockEnd
  0
BLOCK
  5
31E
100
AcDbEntity
  8
0
100
AcDbBlockBegin
  2
*B65
 70
     0
 10
0.0
 20
0.0
 30
0.0
  3
*B65
  1

  0
TEXT
  5
31F
100
AcDbEntity
  8
TEXT
  6
Continuous
 62
     0
100
AcDbText
 10
310.25
 20
111.62448
 30
0.0
 40
3.5
  1
30
 50
90.0
100
AcDbText
  0
ENDBLK
  5
320
100
AcDbEntity
  8
0
100
AcDbBlockEnd
  0
BLOCK
  5
323
100
AcDbEntity
  8
0
100
AcDbBlockBegin
  2
*B66
 70
     0
 10
0.0
 20
0.0
 30
0.0
  3
*B66
  1

  0
TEXT
  5
324
100
AcDbEntity
  8
TEXT
  6
Continuous
 62
     0
100
AcDbText
 10
199.383333
 20
241.75
 30
0.0
 40
3.5
  1
%%c6,6
100
AcDbText
  0
ENDBLK
  5
325
100
AcDbEntity
  8
0
100
AcDbBlockEnd
  0
BLOCK
  5
328
100
AcDbEntity
  8
0
100
AcDbBlockBegin
  2
*B67
 70
     0
 10
0.0
 20
0.0
 30
0.0
  3
*B67
  1

  0
TEXT
  5
329
100
AcDbEntity
  8
TEXT
  6
Continuous
 62
     0
100
AcDbText
 10
258.416667
 20
89.064495
 30
0.0
 40
3.5
  1
G 1/2"
100
AcDbText
  0
ENDBLK
  5
32A
100
AcDbEntity
  8
0
100
AcDbBlockEnd
  0
BLOCK
  5
32D
100
AcDbEntity
  8
0
100
AcDbBlockBegin
  2
*B68
 70
     0
 10
0.0
 20
0.0
 30
0.0
  3
*B68
  1

  0
TEXT
  5
32E
100
AcDbEntity
  8
TEXT
  6
Continuous
 62
     0
100
AcDbText
 10
154.448619
 20
261.75
 30
0.0
 40
3.5
  1
48
100
AcDbText
  0
ENDBLK
  5
32F
100
AcDbEntity
  8
0
100
AcDbBlockEnd
  0
BLOCK
  5
332
100
AcDbEntity
  8
0
100
AcDbBlockBegin
  2
*B69
 70
     0
 10
0.0
 20
0.0
 30
0.0
  3
*B69
  1

  0
TEXT
  5
333
100
AcDbEntity
  8
TEXT
  6
Continuous
 62
     0
100
AcDbText
 10
115.25
 20
201.192618
 30
0.0
 40
3.5
  1
77
 50
90.0
100
AcDbText
  0
ENDBLK
  5
334
100
AcDbEntity
  8
0
100
AcDbBlockEnd
  0
ENDSEC
  0
SECTION
  2
ENTITIES
  0
INSERT
  5
FB
100
AcDbEntity
  8
0
  6
Continuous
 62
   174
100
AcDbBlockReference
  2
*B1
 10
0.0
 20
0.0
 30
0.0
  0
INSERT
  5
16D
100
AcDbEntity
  8
0
  6
Continuous
 62
   174
100
AcDbBlockReference
  2
*B2
 10
0.0
 20
0.0
 30
0.0
  0
INSERT
  5
173
100
AcDbEntity
  8
0
  6
Continuous
 62
   172
100
AcDbBlockReference
  2
*B3
 10
0.0
 20
0.0
 30
0.0
  0
INSERT
  5
17E
100
AcDbEntity
  8
0
  6
Continuous
 62
   172
100
AcDbBlockReference
  2
*B4
 10
0.0
 20
0.0
 30
0.0
  0
INSERT
  5
188
100
AcDbEntity
  8
0
  6
Continuous
 62
     0
100
AcDbBlockReference
  2
*B6
 10
0.0
 20
0.0
 30
0.0
  0
INSERT
  5
18F
100
AcDbEntity
  8
0
  6
Continuous
 62
     0
100
AcDbBlockReference
  2
*B7
 10
0.0
 20
0.0
 30
0.0
  0
INSERT
  5
196
100
AcDbEntity
  8
0
  6
Continuous
 62
     0
100
AcDbBlockReference
  2
*B8
 10
0.0
 20
0.0
 30
0.0
  0
INSERT
  5
19D
100
AcDbEntity
  8
0
  6
Continuous
 62
     0
100
AcDbBlockReference
  2
*B9
 10
0.0
 20
0.0
 30
0.0
  0
INSERT
  5
1A4
100
AcDbEntity
  8
0
  6
Continuous
 62
     0
100
AcDbBlockReference
  2
*B10
 10
0.0
 20
0.0
 30
0.0
  0
INSERT
  5
1AB
100
AcDbEntity
  8
0
  6
Continuous
 62
     0
100
AcDbBlockReference
  2
*B11
 10
0.0
 20
0.0
 30
0.0
  0
INSERT
  5
1B2
100
AcDbEntity
  8
0
  6
Continuous
 62
     0
100
AcDbBlockReference
  2
*B12
 10
0.0
 20
0.0
 30
0.0
  0
INSERT
  5
1B9
100
AcDbEntity
  8
0
  6
Continuous
 62
     0
100
AcDbBlockReference
  2
*B13
 10
0.0
 20
0.0
 30
0.0
  0
INSERT
  5
1C0
100
AcDbEntity
  8
0
  6
Continuous
 62
     0
100
AcDbBlockReference
  2
*B14
 10
0.0
 20
0.0
 30
0.0
  0
INSERT
  5
1C7
100
AcDbEntity
  8
0
  6
Continuous
 62
     0
100
AcDbBlockReference
  2
*B15
 10
0.0
 20
0.0
 30
0.0
  0
INSERT
  5
1CE
100
AcDbEntity
  8
0
  6
Continuous
 62
     0
100
AcDbBlockReference
  2
*B16
 10
0.0
 20
0.0
 30
0.0
  0
INSERT
  5
1D5
100
AcDbEntity
  8
0
  6
Continuous
 62
     0
100
AcDbBlockReference
  2
*B17
 10
0.0
 20
0.0
 30
0.0
  0
INSERT
  5
1DA
100
AcDbEntity
  8
0
  6
Continuous
 62
     8
100
AcDbBlockReference
  2
*B18
 10
0.0
 20
0.0
 30
0.0
  0
INSERT
  5
1DF
100
AcDbEntity
  8
0
  6
Continuous
 62
     8
100
AcDbBlockReference
  2
*B19
 10
0.0
 20
0.0
 30
0.0
  0
INSERT
  5
1E5
100
AcDbEntity
  8
0
  6
Continuous
 62
     8
100
AcDbBlockReference
  2
*B20
 10
0.0
 20
0.0
 30
0.0
  0
INSERT
  5
1EC
100
AcDbEntity
  8
0
  6
Continuous
 62
     8
100
AcDbBlockReference
  2
*B21
 10
0.0
 20
0.0
 30
0.0
  0
INSERT
  5
1F2
100
AcDbEntity
  8
0
  6
Continuous
 62
     8
100
AcDbBlockReference
  2
*B22
 10
0.0
 20
0.0
 30
0.0
  0
INSERT
  5
201
100
AcDbEntity
  8
0
  6
Continuous
 62
     8
100
AcDbBlockReference
  2
*B23
 10
0.0
 20
0.0
 30
0.0
  0
INSERT
  5
206
100
AcDbEntity
  8
0
  6
Continuous
 62
     8
100
AcDbBlockReference
  2
*B24
 10
0.0
 20
0.0
 30
0.0
  0
INSERT
  5
20B
100
AcDbEntity
  8
0
  6
Continuous
 62
     8
100
AcDbBlockReference
  2
*B25
 10
0.0
 20
0.0
 30
0.0
  0
INSERT
  5
210
100
AcDbEntity
  8
0
  6
Continuous
 62
     8
100
AcDbBlockReference
  2
*B26
 10
0.0
 20
0.0
 30
0.0
  0
INSERT
  5
224
100
AcDbEntity
  8
0
  6
Continuous
 62
     8
100
AcDbBlockReference
  2
*B27
 10
0.0
 20
0.0
 30
0.0
  0
INSERT
  5
22A
100
AcDbEntity
  8
0
  6
Continuous
 62
     8
100
AcDbBlockReference
  2
*B28
 10
0.0
 20
0.0
 30
0.0
  0
INSERT
  5
22F
100
AcDbEntity
  8
0
  6
Continuous
 62
     8
100
AcDbBlockReference
  2
*B29
 10
0.0
 20
0.0
 30
0.0
  0
INSERT
  5
23E
100
AcDbEntity
  8
0
  6
Continuous
 62
     8
100
AcDbBlockReference
  2
*B30
 10
0.0
 20
0.0
 30
0.0
  0
INSERT
  5
243
100
AcDbEntity
  8
0
  6
Continuous
 62
     8
100
AcDbBlockReference
  2
*B31
 10
0.0
 20
0.0
 30
0.0
  0
INSERT
  5
248
100
AcDbEntity
  8
0
  6
Continuous
 62
     8
100
AcDbBlockReference
  2
*B32
 10
0.0
 20
0.0
 30
0.0
  0
INSERT
  5
24E
100
AcDbEntity
  8
0
  6
Continuous
 62
     8
100
AcDbBlockReference
  2
*B33
 10
0.0
 20
0.0
 30
0.0
  0
INSERT
  5
253
100
AcDbEntity
  8
0
  6
Continuous
 62
     8
100
AcDbBlockReference
  2
*B34
 10
0.0
 20
0.0
 30
0.0
  0
INSERT
  5
259
100
AcDbEntity
  8
0
  6
Continuous
 62
     8
100
AcDbBlockReference
  2
*B35
 10
0.0
 20
0.0
 30
0.0
  0
INSERT
  5
25E
100
AcDbEntity
  8
0
  6
Continuous
 62
     8
100
AcDbBlockReference
  2
*B36
 10
0.0
 20
0.0
 30
0.0
  0
INSERT
  5
263
100
AcDbEntity
  8
0
  6
Continuous
 62
     8
100
AcDbBlockReference
  2
*B37
 10
0.0
 20
0.0
 30
0.0
  0
INSERT
  5
272
100
AcDbEntity
  8
0
  6
Continuous
 62
     8
100
AcDbBlockReference
  2
*B38
 10
0.0
 20
0.0
 30
0.0
  0
INSERT
  5
277
100
AcDbEntity
  8
0
  6
Continuous
 62
     8
100
AcDbBlockReference
  2
*B39
 10
0.0
 20
0.0
 30
0.0
  0
INSERT
  5
284
100
AcDbEntity
  8
0
  6
Continuous
 62
     8
100
AcDbBlockReference
  2
*B40
 10
0.0
 20
0.0
 30
0.0
  0
INSERT
  5
28F
100
AcDbEntity
  8
0
  6
Continuous
 62
     8
100
AcDbBlockReference
  2
*B41
 10
0.0
 20
0.0
 30
0.0
  0
INSERT
  5
294
100
AcDbEntity
  8
0
  6
Continuous
 62
     8
100
AcDbBlockReference
  2
*B42
 10
0.0
 20
0.0
 30
0.0
  0
INSERT
  5
2AD
100
AcDbEntity
  8
0
  6
Continuous
 62
     8
100
AcDbBlockReference
  2
*B43
 10
0.0
 20
0.0
 30
0.0
  0
INSERT
  5
2B2
100
AcDbEntity
  8
0
  6
Continuous
 62
     8
100
AcDbBlockReference
  2
*B44
 10
0.0
 20
0.0
 30
0.0
  0
INSERT
  5
2B8
100
AcDbEntity
  8
0
  6
Continuous
 62
     6
100
AcDbBlockReference
  2
*B45
 10
0.0
 20
0.0
 30
0.0
  0
INSERT
  5
2BE
100
AcDbEntity
  8
0
  6
Continuous
 62
     6
100
AcDbBlockReference
  2
*B46
 10
0.0
 20
0.0
 30
0.0
  0
INSERT
  5
2C4
100
AcDbEntity
  8
0
  6
Continuous
 62
     6
100
AcDbBlockReference
  2
*B47
 10
0.0
 20
0.0
 30
0.0
  0
INSERT
  5
2CA
100
AcDbEntity
  8
0
  6
Continuous
 62
     6
100
AcDbBlockReference
  2
*B48
 10
0.0
 20
0.0
 30
0.0
  0
INSERT
  5
2D0
100
AcDbEntity
  8
0
  6
Continuous
 62
     6
100
AcDbBlockReference
  2
*B49
 10
0.0
 20
0.0
 30
0.0
  0
INSERT
  5
2D6
100
AcDbEntity
  8
0
  6
Continuous
 62
     6
100
AcDbBlockReference
  2
*B50
 10
0.0
 20
0.0
 30
0.0
  0
INSERT
  5
2DB
100
AcDbEntity
  8
TEXT
  6
Continuous
 62
     0
100
AcDbBlockReference
  2
*B51
 10
0.0
 20
0.0
 30
0.0
  0
INSERT
  5
2E0
100
AcDbEntity
  8
TEXT
  6
Continuous
 62
     0
100
AcDbBlockReference
  2
*B52
 10
0.0
 20
0.0
 30
0.0
  0
INSERT
  5
2E5
100
AcDbEntity
  8
TEXT
  6
Continuous
 62
     0
100
AcDbBlockReference
  2
*B53
 10
0.0
 20
0.0
 30
0.0
  0
INSERT
  5
2EA
100
AcDbEntity
  8
TEXT
  6
Continuous
 62
     0
100
AcDbBlockReference
  2
*B54
 10
0.0
 20
0.0
 30
0.0
  0
INSERT
  5
2EF
100
AcDbEntity
  8
TEXT
  6
Continuous
 62
     0
100
AcDbBlockReference
  2
*B55
 10
0.0
 20
0.0
 30
0.0
  0
INSERT
  5
2F4
100
AcDbEntity
  8
TEXT
  6
Continuous
 62
     0
100
AcDbBlockReference
  2
*B56
 10
0.0
 20
0.0
 30
0.0
  0
INSERT
  5
2F9
100
AcDbEntity
  8
TEXT
  6
Continuous
 62
     0
100
AcDbBlockReference
  2
*B57
 10
0.0
 20
0.0
 30
0.0
  0
INSERT
  5
2FE
100
AcDbEntity
  8
TEXT
  6
Continuous
 62
     0
100
AcDbBlockReference
  2
*B58
 10
0.0
 20
0.0
 30
0.0
  0
INSERT
  5
303
100
AcDbEntity
  8
TEXT
  6
Continuous
 62
     0
100
AcDbBlockReference
  2
*B59
 10
0.0
 20
0.0
 30
0.0
  0
INSERT
  5
308
100
AcDbEntity
  8
TEXT
  6
Continuous
 62
     0
100
AcDbBlockReference
  2
*B60
 10
0.0
 20
0.0
 30
0.0
  0
INSERT
  5
30D
100
AcDbEntity
  8
TEXT
  6
Continuous
 62
     0
100
AcDbBlockReference
  2
*B61
 10
0.0
 20
0.0
 30
0.0
  0
INSERT
  5
312
100
AcDbEntity
  8
TEXT
  6
Continuous
 62
     0
100
AcDbBlockReference
  2
*B62
 10
0.0
 20
0.0
 30
0.0
  0
INSERT
  5
317
100
AcDbEntity
  8
TEXT
  6
Continuous
 62
     0
100
AcDbBlockReference
  2
*B63
 10
0.0
 20
0.0
 30
0.0
  0
INSERT
  5
31C
100
AcDbEntity
  8
TEXT
  6
Continuous
 62
     0
100
AcDbBlockReference
  2
*B64
 10
0.0
 20
0.0
 30
0.0
  0
INSERT
  5
321
100
AcDbEntity
  8
TEXT
  6
Continuous
 62
     0
100
AcDbBlockReference
  2
*B65
 10
0.0
 20
0.0
 30
0.0
  0
INSERT
  5
326
100
AcDbEntity
  8
TEXT
  6
Continuous
 62
     0
100
AcDbBlockReference
  2
*B66
 10
0.0
 20
0.0
 30
0.0
  0
INSERT
  5
32B
100
AcDbEntity
  8
TEXT
  6
Continuous
 62
     0
100
AcDbBlockReference
  2
*B67
 10
0.0
 20
0.0
 30
0.0
  0
INSERT
  5
330
100
AcDbEntity
  8
TEXT
  6
Continuous
 62
     0
100
AcDbBlockReference
  2
*B68
 10
0.0
 20
0.0
 30
0.0
  0
INSERT
  5
335
100
AcDbEntity
  8
TEXT
  6
Continuous
 62
     0
100
AcDbBlockReference
  2
*B69
 10
0.0
 20
0.0
 30
0.0
  0
ENDSEC
  0
SECTION
  2
OBJECTS
  0
DICTIONARY
  5
19
100
AcDbDictionary
280
     0
281
     1
  3
ACAD_GROUP
350
1A
  3
ACAD_MLINESTYLE
350
1B
  3
ACAD_LAYOUT
350
1E
  3
ACAD_PLOTSETTINGS
350
22
  3
ACAD_PLOTSTYLENAME
350
1F
  3
ACAD_WIPEOUT_VARS
350
23
  0
DICTIONARY
  5
1A
102
{ACAD_REACTORS
330
19
102
}
100
AcDbDictionary
280
     0
281
     1
  0
DICTIONARY
  5
1B
102
{ACAD_REACTORS
330
19
102
}
100
AcDbDictionary
280
     0
281
     1
  3
Standard
350
1C
  0
MLINESTYLE
  5
1C
102
{ACAD_REACTORS
330
1B
102
}
100
AcDbMlineStyle
  2
Standard
 70
     0
  3

 62
     0
 51
90.0
 52
90.0
 71
     2
 49
0.5
 62
   256
  6
BYLAYER
 49
-0.5
 62
   256
  6
BYLAYER
  0
ACDBDICTIONARYWDFLT
  5
1F
102
{ACAD_REACTORS
330
19
102
}
100
AcDbDictionary
281
     1
  3
Normal
350
1D
100
AcDbDictionaryWithDefault
340
1D
  0
ACDBPLACEHOLDER
  5
1D
102
{ACAD_REACTORS
330
1F
102
}
  0
LAYOUT
  5
20
102
{ACAD_REACTORS
330
1E
102
}
100
AcDbPlotSettings
  1

  2

  4

  6

 40
0.0
 41
0.0
 42
0.0
 43
0.0
 44
0.0
 45
0.0
 46
0.0
 47
0.0
 48
0.0
 49
0.0
140
0.0
141
0.0
142
1.0
143
1.0
 70
     0
 72
     0
 73
     0
 74
     0
  7

 75
     0
147
1.0
148
0.0
149
0.0
100
AcDbLayout
  1
Model
 70
     0
 71
     0
 10
0.0
 20
0.0
 11
0.0
 21
0.0
 12
0.0
 22
0.0
 32
0.0
 14
0.0
 24
0.0
 34
0.0
 15
0.0
 25
0.0
 35
0.0
146
0.0
 13
0.0
 23
0.0
 33
0.0
 16
0.0
 26
0.0
 36
0.0
 17
0.0
 27
0.0
 37
0.0
 76
     0
330
A
331
0
345
0
346
0
  0
LAYOUT
  5
21
102
{ACAD_REACTORS
330
1E
102
}
100
AcDbPlotSettings
  1

  2

  4

  6

 40
0.0
 41
0.0
 42
0.0
 43
0.0
 44
0.0
 45
0.0
 46
0.0
 47
0.0
 48
0.0
 49
0.0
140
0.0
141
0.0
142
1.0
143
1.0
 70
     0
 72
     0
 73
     0
 74
     0
  7

 75
     0
147
1.0
148
0.0
149
0.0
100
AcDbLayout
  1
Layout1
 70
     0
 71
     0
 10
0.0
 20
0.0
 11
0.0
 21
0.0
 12
0.0
 22
0.0
 32
0.0
 14
0.0
 24
0.0
 34
0.0
 15
0.0
 25
0.0
 35
0.0
146
0.0
 13
0.0
 23
0.0
 33
0.0
 16
0.0
 26
0.0
 36
0.0
 17
0.0
 27
0.0
 37
0.0
 76
     0
330
B
331
0
345
0
346
0
  0
DICTIONARY
  5
1E
102
{ACAD_REACTORS
330
19
102
}
100
AcDbDictionary
280
     0
281
     1
  3
Layout1
350
21
  3
Model
350
20
  0
DICTIONARY
  5
22
102
{ACAD_REACTORS
330
19
102
}
100
AcDbDictionary
280
     0
281
     1
  0
WIPEOUTVARIABLES
  5
23
100
AcDbWipeoutVariables
 70
     1
  0
ENDSEC
  0
EOF
