  0
SECTION
  2
HEADER
  9
$ACADVER
  1
AC1015
  9
$ACADMAINTVER
 70
     6
  9
$DWGCODEPAGE
  3
DOS850
  9
$INSBASE
 10
0.0
 20
0.0
 30
0.0
  9
$EXTMIN
 10
0.0
 20
0.0
 30
0.0
  9
$EXTMAX
 10
420.0
 20
297.0
 30
0.0
  9
$LIMMIN
 10
0.0
 20
0.0
  9
$LIMMAX
 10
420.0
 20
297.0
  9
$ORTHOMODE
 70
     0
  9
$REGENMODE
 70
     1
  9
$FILLMODE
 70
     1
  9
$QTEXTMODE
 70
     0
  9
$MIRRTEXT
 70
     1
  9
$LTSCALE
 40
25.4
  9
$ATTMODE
 70
     1
  9
$TEXTSIZE
 40
3.5
  9
$TRACEWID
 40
0.05
  9
$TEXTSTYLE
  7
Standard
  9
$CLAYER
  8
0
  9
$CELTYPE
  6
Continuous
  9
$CECOLOR
 62
   256
  9
$CELTSCALE
 40
1.0
  9
$DISPSILH
 70
     0
  9
$DIMSCALE
 40
1.0
  9
$DIMASZ
 40
5.0
  9
$DIMEXO
 40
3.0
  9
$DIMDLI
 40
0.38
  9
$DIMRND
 40
0.0
  9
$DIMDLE
 40
0.0
  9
$DIMEXE
 40
2.0
  9
$DIMTP
 40
0.0
  9
$DIMTM
 40
0.0
  9
$DIMTXT
 40
3.5
  9
$DIMCEN
 40
4.0
  9
$DIMTSZ
 40
0.0
  9
$DIMTOL
 70
     0
  9
$DIMLIM
 70
     0
  9
$DIMTIH
 70
     1
  9
$DIMTOH
 70
     1
  9
$DIMSE1
 70
     0
  9
$DIMSE2
 70
     0
  9
$DIMTAD
 70
     0
  9
$DIMZIN
 70
     0
  9
$DIMBLK
  1

  9
$DIMASO
 70
     1
  9
$DIMSHO
 70
     1
  9
$DIMPOST
  1

  9
$DIMAPOST
  1

  9
$DIMALT
 70
     0
  9
$DIMALTD
 70
     2
  9
$DIMALTF
 40
25.4
  9
$DIMLFAC
 40
1.0
  9
$DIMTOFL
 70
     0
  9
$DIMTVP
 40
0.0
  9
$DIMTIX
 70
     0
  9
$DIMSOXD
 70
     0
  9
$DIMSAH
 70
     0
  9
$DIMBLK1
  1

  9
$DIMBLK2
  1

  9
$DIMSTYLE
  2
Standard
  9
$DIMCLRD
 70
     0
  9
$DIMCLRE
 70
     0
  9
$DIMCLRT
 70
     0
  9
$DIMTFAC
 40
1.0
  9
$DIMGAP
 40
1.0
  9
$DIMJUST
 70
     0
  9
$DIMSD1
 70
     0
  9
$DIMSD2
 70
     0
  9
$DIMTOLJ
 70
     1
  9
$DIMTZIN
 70
     0
  9
$DIMALTZ
 70
     0
  9
$DIMALTTZ
 70
     0
  9
$DIMUPT
 70
     0
  9
$DIMDEC
 70
     4
  9
$DIMTDEC
 70
     4
  9
$DIMALTU
 70
     2
  9
$DIMALTTD
 70
     2
  9
$DIMTXSTY
  7
Standard
  9
$DIMAUNIT
 70
     0
  9
$DIMADEC
 70
     0
  9
$DIMALTRND
 40
0.0
  9
$DIMAZIN
 70
     0
  9
$DIMDSEP
 70
     0
  9
$DIMATFIT
 70
     3
  9
$DIMFRAC
 70
     0
  9
$DIMLDRBLK
  1

  9
$DIMLUNIT
 70
     2
  9
$DIMLWD
 70
     0
  9
$DIMLWE
 70
     0
  9
$DIMTMOVE
 70
     0
  9
$LUNITS
 70
     2
  9
$LUPREC
 70
     4
  9
$SKETCHINC
 40
0.1
  9
$FILLETRAD
 40
0.0
  9
$AUNITS
 70
     0
  9
$AUPREC
 70
     0
  9
$MENU
  1
acad
  9
$ELEVATION
 40
0.0
  9
$PELEVATION
 40
0.0
  9
$THICKNESS
 40
0.0
  9
$LIMCHECK
 70
     0
  9
$CHAMFERA
 40
0.0
  9
$CHAMFERB
 40
0.0
  9
$CHAMFERC
 40
0.0
  9
$CHAMFERD
 40
0.0
  9
$SKPOLY
 70
     0
  9
$TDCREATE
 40
0.000000000
  9
$TDUCREATE
 40
0.000000000
  9
$TDUPDATE
 40
0.000000000
  9
$TDUUPDATE
 40
0.000000000
  9
$TDINDWG
 40
0.0000000000
  9
$TDUSRTIMER
 40
0.0000000000
  9
$USRTIMER
 70
     1
  9
$ANGBASE
 50
0.0
  9
$ANGDIR
 70
     0
  9
$PDMODE
 70
     0
  9
$PDSIZE
 40
0.0
  9
$PLINEWID
 40
0.0
  9
$SPLFRAME
 70
     0
  9
$SPLINETYPE
 70
     6
  9
$SPLINESEGS
 70
     8
  9
$HANDSEED
  5
3F9
  9
$SURFTAB1
 70
     6
  9
$SURFTAB2
 70
     6
  9
$SURFTYPE
 70
     6
  9
$SURFU
 70
     6
  9
$SURFV
 70
     6
  9
$UCSBASE
  2

  9
$UCSNAME
  2

  9
$UCSORG
 10
0.0
 20
0.0
 30
0.0
  9
$UCSXDIR
 10
1.0
 20
0.0
 30
0.0
  9
$UCSYDIR
 10
0.0
 20
1.0
 30
0.0
  9
$UCSORTHOREF
  2

  9
$UCSORTHOVIEW
 70
     0
  9
$UCSORGTOP
 10
0.0
 20
0.0
 30
0.0
  9
$UCSORGBOTTOM
 10
0.0
 20
0.0
 30
0.0
  9
$UCSORGLEFT
 10
0.0
 20
0.0
 30
0.0
  9
$UCSORGRIGHT
 10
0.0
 20
0.0
 30
0.0
  9
$UCSORGFRONT
 10
0.0
 20
0.0
 30
0.0
  9
$UCSORGBACK
 10
0.0
 20
0.0
 30
0.0
  9
$PUCSBASE
  2

  9
$PUCSNAME
  2

  9
$PUCSORG
 10
0.0
 20
0.0
 30
0.0
  9
$PUCSXDIR
 10
1.0
 20
0.0
 30
0.0
  9
$PUCSYDIR
 10
0.0
 20
1.0
 30
0.0
  9
$PUCSORTHOREF
  2

  9
$PUCSORTHOVIEW
 70
     0
  9
$PUCSORGTOP
 10
0.0
 20
0.0
 30
0.0
  9
$PUCSORGBOTTOM
 10
0.0
 20
0.0
 30
0.0
  9
$PUCSORGLEFT
 10
0.0
 20
0.0
 30
0.0
  9
$PUCSORGRIGHT
 10
0.0
 20
0.0
 30
0.0
  9
$PUCSORGFRONT
 10
0.0
 20
0.0
 30
0.0
  9
$PUCSORGBACK
 10
0.0
 20
0.0
 30
0.0
  9
$USERI1
 70
     0
  9
$USERI2
 70
     0
  9
$USERI3
 70
     0
  9
$USERI4
 70
     0
  9
$USERI5
 70
     0
  9
$USERR1
 40
0.0
  9
$USERR2
 40
0.0
  9
$USERR3
 40
0.0
  9
$USERR4
 40
0.0
  9
$USERR5
 40
0.0
  9
$WORLDVIEW
 70
     1
  9
$SHADEDGE
 70
     3
  9
$SHADEDIF
 70
    70
  9
$TILEMODE
 70
     1
  9
$MAXACTVP
 70
    16
  9
$PINSBASE
 10
0.0
 20
0.0
 30
0.0
  9
$PLIMCHECK
 70
     0
  9
$PEXTMIN
 10
1.000000E+20
 20
1.000000E+20
 30
1.000000E+20
  9
$PEXTMAX
 10
-1.000000E+20
 20
-1.000000E+20
 30
-1.000000E+20
  9
$PLIMMIN
 10
0.0
 20
0.0
  9
$PLIMMAX
 10
420.0
 20
297.0
  9
$UNITMODE
 70
     0
  9
$VISRETAIN
 70
     0
  9
$PLINEGEN
 70
     1
  9
$PSLTSCALE
 70
     0
  9
$TREEDEPTH
 70
  3020
  9
$CMLSTYLE
  2
Standard
  9
$CMLJUST
 70
     0
  9
$CMLSCALE
 40
1.0
  9
$PROXYGRAPHICS
 70
     0
  9
$MEASUREMENT
 70
     0
  9
$CELWEIGHT
370
     0
  9
$ENDCAPS
280
     0
  9
$JOINSTYLE
280
     0
  9
$LWDISPLAY
290
     0
  9
$INSUNITS
 70
     0
  9
$HYPERLINKBASE
  1

  9
$XEDIT
290
     1
  9
$CEPSNTYPE
380
     0
  9
$PSTYLEMODE
290
     0
  9
$FINGERPRINTGUID
  2

  9
$VERSIONGUID
  2

  9
$EXTNAMES
290
     1
  9
$PSVPSCALE
 40
0.0
  0
ENDSEC
  0
SECTION
  2
CLASSES
  0
CLASS
  1
LWPOLYLINE
  2
AcDbPolyline
  3
"AutoCAD"
 90
        0
280
     0
281
     1
  0
CLASS
  1
IMAGE
  2
AcDbRasterImage
  3
ISM
 90
      127
280
     0
281
     1
  0
CLASS
  1
OLE2FRAME
  2
AcDbOle2Frame
  3
""
 90
        0
280
     0
281
     1
  0
CLASS
  1
HATCH
  2
AcDbHatch
  3
"ACAD_SEDONA"
 90
        0
280
     0
281
     1
  0
CLASS
  1
DICTIONARYVAR
  2
AcDbDictionaryVar
  3
"AutoCAD"
 90
        0
280
     0
281
     0
  0
CLASS
  1
RASTERVARIABLES
  2
AcDbRasterVariables
  3
ISM
 90
        0
280
     0
281
     0
  0
CLASS
  1
IMAGEDEF
  2
AcDbRasterImageDef
  3
ISM
 90
        0
280
     0
281
     0
  0
CLASS
  1
IMAGEDEF_REACTOR
  2
AcDbRasterImageDefReactor
  3
ISM
 90
        1
280
     0
281
     0
  0
CLASS
  1
IDBUFFER
  2
AcDbIdBuffer
  3
"Acad"
 90
        0
280
     0
281
     0
  0
CLASS
  1
SPATIAL_FILTER
  2
AcDbSpatialFilter
  3
"Acad"
 90
        0
280
     0
281
     0
  0
CLASS
  1
XRECORD
  2
AcDbXrecord
  3
"<Built In>"
 90
        0
280
     0
281
     0
  0
CLASS
  1
SORTENTSTABLE
  2
AcDbSortentsTable
  3
"AutoCAD"
 90
        0
280
     0
281
     0
  0
CLASS
  1
LAYER_INDEX
  2
AcDbLayerIndex
  3
"Acad"
 90
        0
280
     0
281
     0
  0
CLASS
  1
SPATIAL_INDEX
  2
AcDbSpatialIndex
  3
"Acad"
 90
        0
280
     0
281
     0
  0
CLASS
  1
OBJECT_PTR
  2
CAseDLPNTableRecord
  3
"ASE-LPNTableRecord"
 90
        1
280
     0
281
     0
  0
CLASS
  1
LAYOUT
  2
AcDbLayout
  3
"AutoCAD 2000"
 90
        1
280
     0
281
     0
  0
CLASS
  1
PLOTSETTINGS
  2
AcDbPlotSettings
  3
"AutoCAD 2000"
 90
        1
280
     0
281
     0
  0
CLASS
  1
ACDBDICTIONARYWDFLT
  2
AcDbDictionaryWithDefault
  3
"AutoCAD 2000"
 90
        1
280
     0
281
     0
  0
CLASS
  1
ACDBPLACEHOLDER
  2
AcDbPlaceHolder
  3
"AutoCAD 2000"
 90
        1
280
     0
281
     0
  0
CLASS
  1
VBA_PROJECT
  2
AcDbVbaProject
  3
"acadvba"
 90
        1
280
     0
281
     0
  0
CLASS
  1
WIPEOUT
  2
AcDbWipeout
  3
WipeOut|AutoCAD Express Tool|expresstools@autodesk.com
 90
      127
280
     0
281
     1
  0
CLASS
  1
WIPEOUTVARIABLES
  2
AcDbWipeoutVariables
  3
WipeOut|AutoCAD Express Tool|expresstools@autodesk.com
 90
        0
280
     0
281
     0
  0
CLASS
  1
RTEXT
  2
RText
  3
RText|AutoCAD Express Tool|expresstools@autodesk.com
 90
        0
280
     0
281
     1
  0
CLASS
  1
ARCALIGNEDTEXT
  2
AcDbArcAlignedText
  3
ATEXT|AutoCAD Express Tool|expresstools@autodesk.com
 90
        0
280
     0
281
     1
  0
ENDSEC
  0
SECTION
  2
TABLES
  0
TABLE
  2
VPORT
  5
7
100
AcDbSymbolTable
 70
     1
  0
VPORT
  5
15
100
AcDbSymbolTableRecord
100
AcDbViewportTableRecord
  2
*ACTIVE
 70
     0
 10
0.0
 20
0.0
 11
1.0
 21
1.0
 12
6.591288
 22
4.579184
 13
0.0
 23
0.0
 14
1.0
 24
1.0
 15
0.0
 25
0.0
 16
0.0
 26
0.0
 36
1.0
 17
0.0
 27
0.0
 37
0.0
 40
9.158369
 41
0.688564
 42
50.0
 43
0.0
 44
0.0
 50
0.0
 51
0.0
 71
     0
 72
   100
 73
     1
 74
     1
 75
     0
 76
     0
 77
     0
 78
     0
281
     0
 65
     0
110
0.0
120
0.0
130
0.0
111
1.0
121
0.0
131
0.0
112
0.0
122
1.0
132
0.0
345
0
346
0
 79
     0
146
0.0
  0
ENDTAB
  0
TABLE
  2
LTYPE
  5
4
100
AcDbSymbolTable
 70
     7
  0
LTYPE
  5
11
100
AcDbSymbolTableRecord
100
AcDbLinetypeTableRecord
  2
ByBlock
 70
    64
  3

 72
    65
 73
     0
 40
0.0
  0
LTYPE
  5
12
100
AcDbSymbolTableRecord
100
AcDbLinetypeTableRecord
  2
ByLayer
 70
    64
  3

 72
    65
 73
     0
 40
0.0
  0
LTYPE
  5
13
100
AcDbSymbolTableRecord
100
AcDbLinetypeTableRecord
  2
Continuous
 70
    64
  3
Solid line
 72
    65
 73
     0
 40
0.0
  0
LTYPE
  5
24
100
AcDbSymbolTableRecord
100
AcDbLinetypeTableRecord
  2
HIDDEN
 70
    64
  3
_ _ _ _ _ _ _ _ _ _ _ _ _ _ _ _ _ _ _ _ _ _ _ _
 72
    65
 73
     2
 40
0.1875
 49
0.125
 74
     0
 49
-0.0625
 74
     0
  0
LTYPE
  5
25
100
AcDbSymbolTableRecord
100
AcDbLinetypeTableRecord
  2
DOTTED
 70
    64
  3
...............................................
 72
    65
 73
     2
 40
0.125
 49
0.0
 74
     0
 49
-0.125
 74
     0
  0
LTYPE
  5
26
100
AcDbSymbolTableRecord
100
AcDbLinetypeTableRecord
  2
CENTER
 70
    64
  3
____ _ ____ _ ____ _ ____ _ ____ _ ____ _ ____ 
 72
    65
 73
     4
 40
1.125
 49
0.75
 74
     0
 49
-0.125
 74
     0
 49
0.125
 74
     0
 49
-0.125
 74
     0
  0
LTYPE
  5
27
100
AcDbSymbolTableRecord
100
AcDbLinetypeTableRecord
  2
PHANTOM
 70
    64
  3
______  __  __  ______  __  __  ______  __  __ 
 72
    65
 73
     6
 40
1.25
 49
0.625
 74
     0
 49
-0.125
 74
     0
 49
0.125
 74
     0
 49
-0.125
 74
     0
 49
0.125
 74
     0
 49
-0.125
 74
     0
  0
ENDTAB
  0
TABLE
  2
LAYER
  5
2
100
AcDbSymbolTable
 70
     2
  0
LAYER
  5
14
100
AcDbSymbolTableRecord
100
AcDbLayerTableRecord
  2
0
 70
     0
 62
     7
  6
Continuous
290
     1
370
    -3
390
1D
  0
LAYER
  5
28
100
AcDbSymbolTableRecord
100
AcDbLayerTableRecord
  2
TEXT
 70
     0
 62
     8
  6
Continuous
290
     1
370
    -3
390
1F
  0
ENDTAB
  0
TABLE
  2
STYLE
  5
3
100
AcDbSymbolTable
 70
     1
  0
STYLE
  5
17
100
AcDbSymbolTableRecord
100
AcDbTextStyleTableRecord
  2
Standard
 70
     0
 40
0.0
 41
1.0
 50
0.0
 71
     0
 42
0.0
  3
txt
  4

  0
ENDTAB
  0
TABLE
  2
VIEW
  5
5
100
AcDbSymbolTable
 70
     0
  0
ENDTAB
  0
TABLE
  2
UCS
  5
6
100
AcDbSymbolTable
 70
     0
  0
ENDTAB
  0
TABLE
  2
APPID
  5
8
100
AcDbSymbolTable
 70
     1
  0
APPID
  5
16
100
AcDbSymbolTableRecord
100
AcDbRegAppTableRecord
  2
ACAD
 70
     0
  0
ENDTAB
  0
TABLE
  2
DIMSTYLE
  5
9
100
AcDbSymbolTable
 70
     1
100
AcDbDimStyleTable
 71
     0
  0
DIMSTYLE
105
18
100
AcDbSymbolTableRecord
100
AcDbDimStyleTableRecord
  2
Standard
 70
     0
  3

  4

 40
1.0
 41
0.18
 42
0.0625
 43
0.38
 44
0.18
 45
0.0
 46
0.0
 47
0.0
 48
0.0
 71
     0
 72
     0
 73
     1
 74
     1
 75
     0
 76
     0
 77
     0
 78
     0
 79
     0
140
0.18
141
0.09
142
0.0
143
25.4
144
1.0
145
0.0
146
1.0
147
0.09
148
0.0
170
     0
171
     2
172
     0
173
     0
174
     0
175
     0
176
     0
177
     0
178
     0
179
     0
271
     4
272
     4
273
     2
274
     2
275
     0
276
     0
277
     2
278
    46
279
     0
280
     0
281
     0
282
     0
283
     1
284
     0
285
     0
286
     0
288
     0
340
17
341
0
342
0
343
0
344
0
371
    -2
372
    -2
  0
ENDTAB
  0
TABLE
  2
BLOCK_RECORD
  5
1
100
AcDbSymbolTable
 70
    93
  0
BLOCK_RECORD
  5
A
100
AcDbSymbolTableRecord
100
AcDbBlockTableRecord
  2
*MODEL_SPACE
340
20
  0
BLOCK_RECORD
  5
B
100
AcDbSymbolTableRecord
100
AcDbBlockTableRecord
  2
*PAPER_SPACE
340
21
  0
BLOCK_RECORD
  5
29
100
AcDbSymbolTableRecord
100
AcDbBlockTableRecord
  2
*B0
340
0
  0
BLOCK_RECORD
  5
2C
100
AcDbSymbolTableRecord
100
AcDbBlockTableRecord
  2
*B1
340
0
  0
BLOCK_RECORD
  5
BF
100
AcDbSymbolTableRecord
100
AcDbBlockTableRecord
  2
*B2
340
0
  0
BLOCK_RECORD
  5
1B6
100
AcDbSymbolTableRecord
100
AcDbBlockTableRecord
  2
*B3
340
0
  0
BLOCK_RECORD
  5
1BC
100
AcDbSymbolTableRecord
100
AcDbBlockTableRecord
  2
*B4
340
0
  0
BLOCK_RECORD
  5
1C7
100
AcDbSymbolTableRecord
100
AcDbBlockTableRecord
  2
*B5
340
0
  0
BLOCK_RECORD
  5
1CA
100
AcDbSymbolTableRecord
100
AcDbBlockTableRecord
  2
*B6
340
0
  0
BLOCK_RECORD
  5
1D0
100
AcDbSymbolTableRecord
100
AcDbBlockTableRecord
  2
*B7
340
0
  0
BLOCK_RECORD
  5
1DB
100
AcDbSymbolTableRecord
100
AcDbBlockTableRecord
  2
*B8
340
0
  0
BLOCK_RECORD
  5
1DE
100
AcDbSymbolTableRecord
100
AcDbBlockTableRecord
  2
*B9
340
0
  0
BLOCK_RECORD
  5
1E5
100
AcDbSymbolTableRecord
100
AcDbBlockTableRecord
  2
*B10
340
0
  0
BLOCK_RECORD
  5
1EC
100
AcDbSymbolTableRecord
100
AcDbBlockTableRecord
  2
*B11
340
0
  0
BLOCK_RECORD
  5
1F3
100
AcDbSymbolTableRecord
100
AcDbBlockTableRecord
  2
*B12
340
0
  0
BLOCK_RECORD
  5
1FA
100
AcDbSymbolTableRecord
100
AcDbBlockTableRecord
  2
*B13
340
0
  0
BLOCK_RECORD
  5
201
100
AcDbSymbolTableRecord
100
AcDbBlockTableRecord
  2
*B14
340
0
  0
BLOCK_RECORD
  5
208
100
AcDbSymbolTableRecord
100
AcDbBlockTableRecord
  2
*B15
340
0
  0
BLOCK_RECORD
  5
20F
100
AcDbSymbolTableRecord
100
AcDbBlockTableRecord
  2
*B16
340
0
  0
BLOCK_RECORD
  5
216
100
AcDbSymbolTableRecord
100
AcDbBlockTableRecord
  2
*B17
340
0
  0
BLOCK_RECORD
  5
21D
100
AcDbSymbolTableRecord
100
AcDbBlockTableRecord
  2
*B18
340
0
  0
BLOCK_RECORD
  5
224
100
AcDbSymbolTableRecord
100
AcDbBlockTableRecord
  2
*B19
340
0
  0
BLOCK_RECORD
  5
22B
100
AcDbSymbolTableRecord
100
AcDbBlockTableRecord
  2
*B20
340
0
  0
BLOCK_RECORD
  5
232
100
AcDbSymbolTableRecord
100
AcDbBlockTableRecord
  2
*B21
340
0
  0
BLOCK_RECORD
  5
239
100
AcDbSymbolTableRecord
100
AcDbBlockTableRecord
  2
*B22
340
0
  0
BLOCK_RECORD
  5
240
100
AcDbSymbolTableRecord
100
AcDbBlockTableRecord
  2
*B23
340
0
  0
BLOCK_RECORD
  5
247
100
AcDbSymbolTableRecord
100
AcDbBlockTableRecord
  2
*B24
340
0
  0
BLOCK_RECORD
  5
24C
100
AcDbSymbolTableRecord
100
AcDbBlockTableRecord
  2
*B25
340
0
  0
BLOCK_RECORD
  5
253
100
AcDbSymbolTableRecord
100
AcDbBlockTableRecord
  2
*B26
340
0
  0
BLOCK_RECORD
  5
259
100
AcDbSymbolTableRecord
100
AcDbBlockTableRecord
  2
*B27
340
0
  0
BLOCK_RECORD
  5
260
100
AcDbSymbolTableRecord
100
AcDbBlockTableRecord
  2
*B28
340
0
  0
BLOCK_RECORD
  5
269
100
AcDbSymbolTableRecord
100
AcDbBlockTableRecord
  2
*B29
340
0
  0
BLOCK_RECORD
  5
26F
100
AcDbSymbolTableRecord
100
AcDbBlockTableRecord
  2
*B30
340
0
  0
BLOCK_RECORD
  5
274
100
AcDbSymbolTableRecord
100
AcDbBlockTableRecord
  2
*B31
340
0
  0
BLOCK_RECORD
  5
279
100
AcDbSymbolTableRecord
100
AcDbBlockTableRecord
  2
*B32
340
0
  0
BLOCK_RECORD
  5
280
100
AcDbSymbolTableRecord
100
AcDbBlockTableRecord
  2
*B33
340
0
  0
BLOCK_RECORD
  5
285
100
AcDbSymbolTableRecord
100
AcDbBlockTableRecord
  2
*B34
340
0
  0
BLOCK_RECORD
  5
28B
100
AcDbSymbolTableRecord
100
AcDbBlockTableRecord
  2
*B35
340
0
  0
BLOCK_RECORD
  5
295
100
AcDbSymbolTableRecord
100
AcDbBlockTableRecord
  2
*B36
340
0
  0
BLOCK_RECORD
  5
2AA
100
AcDbSymbolTableRecord
100
AcDbBlockTableRecord
  2
*B37
340
0
  0
BLOCK_RECORD
  5
2AF
100
AcDbSymbolTableRecord
100
AcDbBlockTableRecord
  2
*B38
340
0
  0
BLOCK_RECORD
  5
2B4
100
AcDbSymbolTableRecord
100
AcDbBlockTableRecord
  2
*B39
340
0
  0
BLOCK_RECORD
  5
2BD
100
AcDbSymbolTableRecord
100
AcDbBlockTableRecord
  2
*B40
340
0
  0
BLOCK_RECORD
  5
2C2
100
AcDbSymbolTableRecord
100
AcDbBlockTableRecord
  2
*B41
340
0
  0
BLOCK_RECORD
  5
2C8
100
AcDbSymbolTableRecord
100
AcDbBlockTableRecord
  2
*B42
340
0
  0
BLOCK_RECORD
  5
2CD
100
AcDbSymbolTableRecord
100
AcDbBlockTableRecord
  2
*B43
340
0
  0
BLOCK_RECORD
  5
2D2
100
AcDbSymbolTableRecord
100
AcDbBlockTableRecord
  2
*B44
340
0
  0
BLOCK_RECORD
  5
2D8
100
AcDbSymbolTableRecord
100
AcDbBlockTableRecord
  2
*B45
340
0
  0
BLOCK_RECORD
  5
2DD
100
AcDbSymbolTableRecord
100
AcDbBlockTableRecord
  2
*B46
340
0
  0
BLOCK_RECORD
  5
2E2
100
AcDbSymbolTableRecord
100
AcDbBlockTableRecord
  2
*B47
340
0
  0
BLOCK_RECORD
  5
2F5
100
AcDbSymbolTableRecord
100
AcDbBlockTableRecord
  2
*B48
340
0
  0
BLOCK_RECORD
  5
2FE
100
AcDbSymbolTableRecord
100
AcDbBlockTableRecord
  2
*B49
340
0
  0
BLOCK_RECORD
  5
307
100
AcDbSymbolTableRecord
100
AcDbBlockTableRecord
  2
*B50
340
0
  0
BLOCK_RECORD
  5
30C
100
AcDbSymbolTableRecord
100
AcDbBlockTableRecord
  2
*B51
340
0
  0
BLOCK_RECORD
  5
311
100
AcDbSymbolTableRecord
100
AcDbBlockTableRecord
  2
*B52
340
0
  0
BLOCK_RECORD
  5
318
100
AcDbSymbolTableRecord
100
AcDbBlockTableRecord
  2
*B53
340
0
  0
BLOCK_RECORD
  5
31F
100
AcDbSymbolTableRecord
100
AcDbBlockTableRecord
  2
*B54
340
0
  0
BLOCK_RECORD
  5
325
100
AcDbSymbolTableRecord
100
AcDbBlockTableRecord
  2
*B55
340
0
  0
BLOCK_RECORD
  5
32B
100
AcDbSymbolTableRecord
100
AcDbBlockTableRecord
  2
*B56
340
0
  0
BLOCK_RECORD
  5
334
100
AcDbSymbolTableRecord
100
AcDbBlockTableRecord
  2
*B57
340
0
  0
BLOCK_RECORD
  5
339
100
AcDbSymbolTableRecord
100
AcDbBlockTableRecord
  2
*B58
340
0
  0
BLOCK_RECORD
  5
33E
100
AcDbSymbolTableRecord
100
AcDbBlockTableRecord
  2
*B59
340
0
  0
BLOCK_RECORD
  5
344
100
AcDbSymbolTableRecord
100
AcDbBlockTableRecord
  2
*B60
340
0
  0
BLOCK_RECORD
  5
349
100
AcDbSymbolTableRecord
100
AcDbBlockTableRecord
  2
*B61
340
0
  0
BLOCK_RECORD
  5
350
100
AcDbSymbolTableRecord
100
AcDbBlockTableRecord
  2
*B62
340
0
  0
BLOCK_RECORD
  5
35A
100
AcDbSymbolTableRecord
100
AcDbBlockTableRecord
  2
*B63
340
0
  0
BLOCK_RECORD
  5
360
100
AcDbSymbolTableRecord
100
AcDbBlockTableRecord
  2
*B64
340
0
  0
BLOCK_RECORD
  5
366
100
AcDbSymbolTableRecord
100
AcDbBlockTableRecord
  2
*B65
340
0
  0
BLOCK_RECORD
  5
36C
100
AcDbSymbolTableRecord
100
AcDbBlockTableRecord
  2
*B66
340
0
  0
BLOCK_RECORD
  5
372
100
AcDbSymbolTableRecord
100
AcDbBlockTableRecord
  2
*B67
340
0
  0
BLOCK_RECORD
  5
378
100
AcDbSymbolTableRecord
100
AcDbBlockTableRecord
  2
*B68
340
0
  0
BLOCK_RECORD
  5
37E
100
AcDbSymbolTableRecord
100
AcDbBlockTableRecord
  2
*B69
340
0
  0
BLOCK_RECORD
  5
384
100
AcDbSymbolTableRecord
100
AcDbBlockTableRecord
  2
*B70
340
0
  0
BLOCK_RECORD
  5
38A
100
AcDbSymbolTableRecord
100
AcDbBlockTableRecord
  2
*B71
340
0
  0
BLOCK_RECORD
  5
390
100
AcDbSymbolTableRecord
100
AcDbBlockTableRecord
  2
*B72
340
0
  0
BLOCK_RECORD
  5
395
100
AcDbSymbolTableRecord
100
AcDbBlockTableRecord
  2
*B73
340
0
  0
BLOCK_RECORD
  5
39A
100
AcDbSymbolTableRecord
100
AcDbBlockTableRecord
  2
*B74
340
0
  0
BLOCK_RECORD
  5
39F
100
AcDbSymbolTableRecord
100
AcDbBlockTableRecord
  2
*B75
340
0
  0
BLOCK_RECORD
  5
3A4
100
AcDbSymbolTableRecord
100
AcDbBlockTableRecord
  2
*B76
340
0
  0
BLOCK_RECORD
  5
3A9
100
AcDbSymbolTableRecord
100
AcDbBlockTableRecord
  2
*B77
340
0
  0
BLOCK_RECORD
  5
3AE
100
AcDbSymbolTableRecord
100
AcDbBlockTableRecord
  2
*B78
340
0
  0
BLOCK_RECORD
  5
3B3
100
AcDbSymbolTableRecord
100
AcDbBlockTableRecord
  2
*B79
340
0
  0
BLOCK_RECORD
  5
3B8
100
AcDbSymbolTableRecord
100
AcDbBlockTableRecord
  2
*B80
340
0
  0
BLOCK_RECORD
  5
3BD
100
AcDbSymbolTableRecord
100
AcDbBlockTableRecord
  2
*B81
340
0
  0
BLOCK_RECORD
  5
3C2
100
AcDbSymbolTableRecord
100
AcDbBlockTableRecord
  2
*B82
340
0
  0
BLOCK_RECORD
  5
3C7
100
AcDbSymbolTableRecord
100
AcDbBlockTableRecord
  2
*B83
340
0
  0
BLOCK_RECORD
  5
3CC
100
AcDbSymbolTableRecord
100
AcDbBlockTableRecord
  2
*B84
340
0
  0
BLOCK_RECORD
  5
3D1
100
AcDbSymbolTableRecord
100
AcDbBlockTableRecord
  2
*B85
340
0
  0
BLOCK_RECORD
  5
3D6
100
AcDbSymbolTableRecord
100
AcDbBlockTableRecord
  2
*B86
340
0
  0
BLOCK_RECORD
  5
3DB
100
AcDbSymbolTableRecord
100
AcDbBlockTableRecord
  2
*B87
340
0
  0
BLOCK_RECORD
  5
3E0
100
AcDbSymbolTableRecord
100
AcDbBlockTableRecord
  2
*B88
340
0
  0
BLOCK_RECORD
  5
3E5
100
AcDbSymbolTableRecord
100
AcDbBlockTableRecord
  2
*B89
340
0
  0
BLOCK_RECORD
  5
3EA
100
AcDbSymbolTableRecord
100
AcDbBlockTableRecord
  2
*B90
340
0
  0
BLOCK_RECORD
  5
3EF
100
AcDbSymbolTableRecord
100
AcDbBlockTableRecord
  2
*B91
340
0
  0
BLOCK_RECORD
  5
3F4
100
AcDbSymbolTableRecord
100
AcDbBlockTableRecord
  2
*B92
340
0
  0
ENDTAB
  0
ENDSEC
  0
SECTION
  2
BLOCKS
  0
BLOCK
  5
D
100
AcDbEntity
  8
0
100
AcDbBlockBegin
  2
*MODEL_SPACE
 70
     0
 10
0.0
 20
0.0
 30
0.0
  3
*MODEL_SPACE
  1

  0
ENDBLK
  5
E
100
AcDbEntity
  8
0
100
AcDbBlockEnd
  0
BLOCK
  5
F
100
AcDbEntity
 67
     1
  8
0
100
AcDbBlockBegin
  2
*PAPER_SPACE
 70
     0
 10
0.0
 20
0.0
 30
0.0
  3
*PAPER_SPACE
  1

  0
ENDBLK
  5
10
100
AcDbEntity
 67
     1
  8
0
100
AcDbBlockEnd
  0
BLOCK
  5
2A
100
AcDbEntity
  8
0
100
AcDbBlockBegin
  2
*B0
 70
     0
 10
0.0
 20
0.0
 30
0.0
  3
*B0
  1

  0
ENDBLK
  5
2B
100
AcDbEntity
  8
0
100
AcDbBlockEnd
  0
BLOCK
  5
2D
100
AcDbEntity
  8
0
100
AcDbBlockBegin
  2
*B1
 70
     0
 10
0.0
 20
0.0
 30
0.0
  3
*B1
  1

  0
ARC
  5
2E
100
AcDbEntity
  8
0
  6
Continuous
 62
   174
100
AcDbCircle
 10
212.908755
 20
100.633109
 30
0.0
 40
3.0
100
AcDbArc
 50
-90.0
 51
90.0
  0
ARC
  5
2F
100
AcDbEntity
  8
0
  6
Continuous
 62
   174
100
AcDbCircle
 10
212.908755
 20
100.633109
 30
0.0
 40
3.0
100
AcDbArc
 50
-270.0
 51
-90.0
  0
ARC
  5
30
100
AcDbEntity
  8
0
  6
Continuous
 62
   174
100
AcDbCircle
 10
212.908755
 20
100.633109
 30
0.0
 40
2.7
100
AcDbArc
 50
-264.884304
 51
-95.115696
  0
LINE
  5
31
100
AcDbEntity
  8
0
  6
Continuous
 62
   174
100
AcDbLine
 10
212.668003
 20
103.322354
 30
0.0
 11
212.668003
 21
97.943864
 31
0.0
  0
ARC
  5
32
100
AcDbEntity
  8
0
  6
Continuous
 62
   174
100
AcDbCircle
 10
212.908755
 20
100.633109
 30
0.0
 40
2.7
100
AcDbArc
 50
-84.507675
 51
84.507675
  0
LINE
  5
33
100
AcDbEntity
  8
0
  6
Continuous
 62
   174
100
AcDbLine
 10
213.167178
 20
97.945504
 30
0.0
 11
213.167178
 21
103.320713
 31
0.0
  0
ARC
  5
34
100
AcDbEntity
  8
0
  6
Continuous
 62
   174
100
AcDbCircle
 10
186.908755
 20
100.633109
 30
0.0
 40
3.4
100
AcDbArc
 50
-270.0
 51
-90.0
  0
ARC
  5
35
100
AcDbEntity
  8
0
  6
Continuous
 62
   174
100
AcDbCircle
 10
186.908755
 20
100.633109
 30
0.0
 40
3.4
100
AcDbArc
 50
-90.0
 51
90.0
  0
ARC
  5
36
100
AcDbEntity
  8
0
  6
Continuous
 62
   174
100
AcDbCircle
 10
186.908755
 20
100.633109
 30
0.0
 40
3.0
100
AcDbArc
 50
-217.286546
 51
-52.713454
  0
LINE
  5
37
100
AcDbEntity
  8
0
  6
Continuous
 62
   174
100
AcDbLine
 10
184.521908
 20
102.450513
 30
0.0
 11
188.72616
 21
98.246261
 31
0.0
  0
ARC
  5
38
100
AcDbEntity
  8
0
  6
Continuous
 62
   174
100
AcDbCircle
 10
186.908755
 20
100.633109
 30
0.0
 40
3.0
100
AcDbArc
 50
-41.228296
 51
131.228296
  0
LINE
  5
39
100
AcDbEntity
  8
0
  6
Continuous
 62
   174
100
AcDbLine
 10
189.165023
 20
98.655926
 30
0.0
 11
184.931572
 21
102.889377
 31
0.0
  0
LINE
  5
3A
100
AcDbEntity
  8
0
  6
Continuous
 62
   174
100
AcDbLine
 10
160.408755
 20
107.133109
 30
0.0
 11
157.408755
 21
107.133109
 31
0.0
  0
LINE
  5
3B
100
AcDbEntity
  8
0
  6
Continuous
 62
   174
100
AcDbLine
 10
157.408755
 20
109.633109
 30
0.0
 11
156.708755
 21
109.633109
 31
0.0
  0
LINE
  5
3C
100
AcDbEntity
  8
0
  6
Continuous
 62
   174
100
AcDbLine
 10
160.408755
 20
92.633109
 30
0.0
 11
172.450715
 21
92.633109
 31
0.0
  0
LINE
  5
3D
100
AcDbEntity
  8
0
  6
Continuous
 62
   174
100
AcDbLine
 10
160.408755
 20
108.633109
 30
0.0
 11
172.450715
 21
108.633109
 31
0.0
  0
ARC
  5
3E
100
AcDbEntity
  8
0
  6
Continuous
 62
   174
100
AcDbCircle
 10
236.908755
 20
106.633109
 30
0.0
 40
2.5
100
AcDbArc
 50
-180.0
 51
0.0
  0
ARC
  5
3F
100
AcDbEntity
  8
0
  6
Continuous
 62
   174
100
AcDbCircle
 10
242.908755
 20
94.633109
 30
0.0
 40
2.1
100
AcDbArc
 50
-180.0
 51
0.0
  0
ARC
  5
40
100
AcDbEntity
  8
0
  6
Continuous
 62
   174
100
AcDbCircle
 10
223.908755
 20
108.883109
 30
0.0
 40
1.65
100
AcDbArc
 50
-180.0
 51
0.0
  0
LINE
  5
41
100
AcDbEntity
  8
0
  6
Continuous
 62
   174
100
AcDbLine
 10
251.107713
 20
89.633109
 30
0.0
 11
255.908755
 21
89.633109
 31
0.0
  0
LINE
  5
42
100
AcDbEntity
  8
0
  6
Continuous
 62
   174
100
AcDbLine
 10
175.408755
 20
111.133109
 30
0.0
 11
198.408755
 21
111.133109
 31
0.0
  0
LINE
  5
43
100
AcDbEntity
  8
0
  6
Continuous
 62
   174
100
AcDbLine
 10
160.408755
 20
94.071078
 30
0.0
 11
160.408755
 21
92.677789
 31
0.0
  0
LINE
  5
44
100
AcDbEntity
  8
0
  6
Continuous
 62
   174
100
AcDbLine
 10
160.408755
 20
107.283297
 30
0.0
 11
160.408755
 21
94.071078
 31
0.0
  0
LINE
  5
45
100
AcDbEntity
  8
0
  6
Continuous
 62
   174
100
AcDbLine
 10
160.408755
 20
108.676586
 30
0.0
 11
160.408755
 21
107.283297
 31
0.0
  0
LWPOLYLINE
  5
46
100
AcDbEntity
  8
0
  6
Continuous
 62
   174
100
AcDbPolyline
 90
        7
 70
   128
 10
153.601575
 20
92.884236
 10
153.235449
 20
94.186202
 10
153.007351
 20
95.462804
 10
152.930447
 20
96.713775
 10
153.007365
 20
97.96473
 10
153.235466
 20
99.241285
 10
153.601575
 20
100.543175
  0
LINE
  5
47
100
AcDbEntity
  8
0
  6
Continuous
 62
   174
100
AcDbLine
 10
160.408755
 20
107.133109
 30
0.0
 11
157.408755
 21
107.133109
 31
0.0
  0
LINE
  5
48
100
AcDbEntity
  8
0
  6
Continuous
 62
   174
100
AcDbLine
 10
160.408755
 20
108.633109
 30
0.0
 11
172.450715
 21
108.633109
 31
0.0
  0
ARC
  5
49
100
AcDbEntity
  8
0
  6
Continuous
 62
   174
100
AcDbCircle
 10
236.908755
 20
106.633109
 30
0.0
 40
2.5
100
AcDbArc
 50
0.0
 51
118.807171
  0
ARC
  5
4A
100
AcDbEntity
  8
0
  6
Continuous
 62
   174
100
AcDbCircle
 10
242.908755
 20
94.633109
 30
0.0
 40
2.5
100
AcDbArc
 50
-180.0
 51
0.0
  0
LINE
  5
4B
100
AcDbEntity
  8
0
  6
Continuous
 62
   174
100
AcDbLine
 10
225.107713
 20
89.633109
 30
0.0
 11
248.709797
 21
89.633109
 31
0.0
  0
LINE
  5
4C
100
AcDbEntity
  8
0
  6
Continuous
 62
   174
100
AcDbLine
 10
217.908755
 20
89.633109
 30
0.0
 11
222.709797
 21
89.633109
 31
0.0
  0
LINE
  5
4D
100
AcDbEntity
  8
0
  6
Continuous
 62
   174
100
AcDbLine
 10
156.708755
 20
109.676642
 30
0.0
 11
156.708755
 21
108.515568
 31
0.0
  0
ARC
  5
4E
100
AcDbEntity
  8
0
  6
Continuous
 62
   174
100
AcDbCircle
 10
223.908755
 20
92.383109
 30
0.0
 40
3.0
100
AcDbArc
 50
-66.443536
 51
55.182991
  0
LINE
  5
4F
100
AcDbEntity
  8
0
  6
Continuous
 62
   174
100
AcDbLine
 10
222.709797
 20
111.633109
 30
0.0
 11
225.107713
 21
111.633109
 31
0.0
  0
LWPOLYLINE
  5
50
100
AcDbEntity
  8
0
  6
Continuous
 62
   174
100
AcDbPolyline
 90
        4
 70
   128
 10
152.908755
 20
92.884236
 10
153.041875
 20
92.884236
 10
153.274961
 20
92.884236
 10
153.601575
 20
92.884236
  0
LINE
  5
51
100
AcDbEntity
  8
0
  6
Continuous
 62
   174
100
AcDbLine
 10
152.908755
 20
108.476515
 30
0.0
 11
152.908755
 21
105.323439
 31
0.0
  0
LINE
  5
52
100
AcDbEntity
  8
0
  6
Continuous
 62
   174
100
AcDbLine
 10
152.908755
 20
103.735387
 30
0.0
 11
152.908755
 21
105.279703
 31
0.0
  0
LINE
  5
53
100
AcDbEntity
  8
0
  6
Continuous
 62
   174
100
AcDbLine
 10
152.956638
 20
108.471915
 30
0.0
 11
153.032942
 21
108.471915
 31
0.0
  0
LINE
  5
54
100
AcDbEntity
  8
0
  6
Continuous
 62
   174
100
AcDbLine
 10
157.408755
 20
91.633109
 30
0.0
 11
156.708755
 21
91.633109
 31
0.0
  0
LINE
  5
55
100
AcDbEntity
  8
0
  6
Continuous
 62
   174
100
AcDbLine
 10
152.908755
 20
108.433109
 30
0.0
 11
153.007351
 21
108.603882
 31
0.0
  0
ARC
  5
56
100
AcDbEntity
  8
0
  6
Continuous
 62
   174
100
AcDbCircle
 10
249.908755
 20
92.383109
 30
0.0
 40
1.65
100
AcDbArc
 50
-180.0
 51
0.0
  0
ARC
  5
57
100
AcDbEntity
  8
0
  6
Continuous
 62
   174
100
AcDbCircle
 10
242.908755
 20
94.633109
 30
0.0
 40
2.5
100
AcDbArc
 50
0.0
 51
118.810059
  0
ARC
  5
58
100
AcDbEntity
  8
0
  6
Continuous
 62
   174
100
AcDbCircle
 10
223.908755
 20
108.883109
 30
0.0
 40
1.65
100
AcDbArc
 50
0.0
 51
180.0
  0
LINE
  5
59
100
AcDbEntity
  8
0
  6
Continuous
 62
   174
100
AcDbLine
 10
217.908755
 20
89.633109
 30
0.0
 11
201.908755
 21
89.633109
 31
0.0
  0
LINE
  5
5A
100
AcDbEntity
  8
0
  6
Continuous
 62
   174
100
AcDbLine
 10
222.709797
 20
111.633109
 30
0.0
 11
217.908755
 21
111.633109
 31
0.0
  0
LINE
  5
5B
100
AcDbEntity
  8
0
  6
Continuous
 62
   174
100
AcDbLine
 10
248.709797
 20
89.633109
 30
0.0
 11
251.107713
 21
89.633109
 31
0.0
  0
LINE
  5
5C
100
AcDbEntity
  8
0
  6
Continuous
 62
   174
100
AcDbLine
 10
157.408755
 20
107.390842
 30
0.0
 11
157.408755
 21
109.676642
 31
0.0
  0
LINE
  5
5D
100
AcDbEntity
  8
0
  6
Continuous
 62
   174
100
AcDbLine
 10
217.908755
 20
111.633109
 30
0.0
 11
217.908755
 21
89.633109
 31
0.0
  0
LINE
  5
5E
100
AcDbEntity
  8
0
  6
Continuous
 62
   174
100
AcDbLine
 10
152.908755
 20
103.779345
 30
0.0
 11
152.908755
 21
92.928929
 31
0.0
  0
LINE
  5
5F
100
AcDbEntity
  8
0
  6
Continuous
 62
   174
100
AcDbLine
 10
164.208755
 20
109.245739
 30
0.0
 11
164.208755
 21
108.633109
 31
0.0
  0
LINE
  5
60
100
AcDbEntity
  8
0
  6
Continuous
 62
   174
100
AcDbLine
 10
172.408755
 20
94.388111
 30
0.0
 11
172.408755
 21
93.133109
 31
0.0
  0
LINE
  5
61
100
AcDbEntity
  8
0
  6
Continuous
 62
   174
100
AcDbLine
 10
160.408755
 20
94.133109
 30
0.0
 11
157.408755
 21
94.133109
 31
0.0
  0
ARC
  5
62
100
AcDbEntity
  8
0
  6
Continuous
 62
   174
100
AcDbCircle
 10
249.908755
 20
108.883109
 30
0.0
 40
1.65
100
AcDbArc
 50
-180.0
 51
0.0
  0
ARC
  5
63
100
AcDbEntity
  8
0
  6
Continuous
 62
   174
100
AcDbCircle
 10
249.908755
 20
92.383109
 30
0.0
 40
1.65
100
AcDbArc
 50
0.0
 51
180.0
  0
ARC
  5
64
100
AcDbEntity
  8
0
  6
Continuous
 62
   174
100
AcDbCircle
 10
223.908755
 20
92.383109
 30
0.0
 40
1.65
100
AcDbArc
 50
-180.0
 51
0.0
  0
ARC
  5
65
100
AcDbEntity
  8
0
  6
Continuous
 62
   174
100
AcDbCircle
 10
236.908755
 20
106.633109
 30
0.0
 40
2.1
100
AcDbArc
 50
0.0
 51
180.0
  0
LINE
  5
66
100
AcDbEntity
  8
0
  6
Continuous
 62
   174
100
AcDbLine
 10
217.908755
 20
111.633109
 30
0.0
 11
201.908755
 21
111.633109
 31
0.0
  0
LINE
  5
67
100
AcDbEntity
  8
0
  6
Continuous
 62
   174
100
AcDbLine
 10
248.709797
 20
111.633109
 30
0.0
 11
225.107713
 21
111.633109
 31
0.0
  0
LINE
  5
68
100
AcDbEntity
  8
0
  6
Continuous
 62
   174
100
AcDbLine
 10
156.708755
 20
92.928929
 30
0.0
 11
156.708755
 21
91.677732
 31
0.0
  0
LINE
  5
69
100
AcDbEntity
  8
0
  6
Continuous
 62
   174
100
AcDbLine
 10
156.708755
 20
108.515568
 30
0.0
 11
156.708755
 21
100.587215
 31
0.0
  0
ARC
  5
6A
100
AcDbEntity
  8
0
  6
Continuous
 62
   174
100
AcDbCircle
 10
223.908755
 20
108.883109
 30
0.0
 40
3.0
100
AcDbArc
 50
-124.817009
 51
66.443536
  0
LINE
  5
6B
100
AcDbEntity
  8
0
  6
Continuous
 62
   174
100
AcDbLine
 10
153.601575
 20
92.884236
 30
0.0
 11
156.708755
 21
92.884236
 31
0.0
  0
LINE
  5
6C
100
AcDbEntity
  8
0
  6
Continuous
 62
   174
100
AcDbLine
 10
156.708755
 20
108.471915
 30
0.0
 11
153.601575
 21
108.471915
 31
0.0
  0
LINE
  5
6D
100
AcDbEntity
  8
0
  6
Continuous
 62
   174
100
AcDbLine
 10
156.708755
 20
100.543175
 30
0.0
 11
153.601575
 21
100.543175
 31
0.0
  0
LINE
  5
6E
100
AcDbEntity
  8
0
  6
Continuous
 62
   174
100
AcDbLine
 10
175.408755
 20
93.133109
 30
0.0
 11
175.408755
 21
100.633109
 31
0.0
  0
LINE
  5
6F
100
AcDbEntity
  8
0
  6
Continuous
 62
   174
100
AcDbLine
 10
157.408755
 20
109.633109
 30
0.0
 11
156.708755
 21
109.633109
 31
0.0
  0
ARC
  5
70
100
AcDbEntity
  8
0
  6
Continuous
 62
   174
100
AcDbCircle
 10
249.908755
 20
108.883109
 30
0.0
 40
1.65
100
AcDbArc
 50
0.0
 51
180.0
  0
ARC
  5
71
100
AcDbEntity
  8
0
  6
Continuous
 62
   174
100
AcDbCircle
 10
230.908755
 20
94.633109
 30
0.0
 40
2.1
100
AcDbArc
 50
0.0
 51
180.0
  0
ARC
  5
72
100
AcDbEntity
  8
0
  6
Continuous
 62
   174
100
AcDbCircle
 10
236.908755
 20
106.633109
 30
0.0
 40
2.1
100
AcDbArc
 50
-180.0
 51
0.0
  0
LINE
  5
73
100
AcDbEntity
  8
0
  6
Continuous
 62
   174
100
AcDbLine
 10
248.709797
 20
111.633109
 30
0.0
 11
251.107713
 21
111.633109
 31
0.0
  0
ARC
  5
74
100
AcDbEntity
  8
0
  6
Continuous
 62
   174
100
AcDbCircle
 10
249.908755
 20
108.883109
 30
0.0
 40
3.0
100
AcDbArc
 50
-124.817009
 51
66.443536
  0
LINE
  5
75
100
AcDbEntity
  8
0
  6
Continuous
 62
   174
100
AcDbLine
 10
157.408755
 20
91.677732
 30
0.0
 11
157.408755
 21
93.963532
 31
0.0
  0
LWPOLYLINE
  5
76
100
AcDbEntity
  8
0
  6
Continuous
 62
   174
100
AcDbPolyline
 90
        4
 70
   128
 10
153.601575
 20
100.543175
 10
153.273675
 20
101.628144
 10
153.04092
 20
102.687143
 10
152.908755
 20
103.735387
  0
LINE
  5
77
100
AcDbEntity
  8
0
  6
Continuous
 62
   174
100
AcDbLine
 10
160.408755
 20
92.633109
 30
0.0
 11
172.450715
 21
92.633109
 31
0.0
  0
LINE
  5
78
100
AcDbEntity
  8
0
  6
Continuous
 62
   174
100
AcDbLine
 10
172.408755
 20
106.878107
 30
0.0
 11
172.408755
 21
108.133109
 31
0.0
  0
ARC
  5
79
100
AcDbEntity
  8
0
  6
Continuous
 62
   174
100
AcDbCircle
 10
223.908755
 20
92.383109
 30
0.0
 40
1.65
100
AcDbArc
 50
0.0
 51
180.0
  0
ARC
  5
7A
100
AcDbEntity
  8
0
  6
Continuous
 62
   174
100
AcDbCircle
 10
230.908755
 20
94.633109
 30
0.0
 40
2.1
100
AcDbArc
 50
-180.0
 51
0.0
  0
LINE
  5
7B
100
AcDbEntity
  8
0
  6
Continuous
 62
   174
100
AcDbLine
 10
157.408755
 20
93.963532
 30
0.0
 11
157.408755
 21
107.390842
 31
0.0
  0
ARC
  5
7C
100
AcDbEntity
  8
0
  6
Continuous
 62
   174
100
AcDbCircle
 10
249.908755
 20
92.383109
 30
0.0
 40
3.0
100
AcDbArc
 50
55.182991
 51
246.443536
  0
LINE
  5
7D
100
AcDbEntity
  8
0
  6
Continuous
 62
   174
100
AcDbLine
 10
164.208755
 20
110.357966
 30
0.0
 11
164.208755
 21
109.289117
 31
0.0
  0
ARC
  5
7E
100
AcDbEntity
  8
0
  6
Continuous
 62
   174
100
AcDbCircle
 10
223.908755
 20
108.883109
 30
0.0
 40
3.0
100
AcDbArc
 50
113.556464
 51
235.182991
  0
LWPOLYLINE
  5
7F
100
AcDbEntity
  8
0
  6
Continuous
 62
   174
100
AcDbPolyline
 90
        4
 70
   128
 10
152.908755
 20
105.279703
 10
153.041875
 20
106.333412
 10
153.274958
 20
107.391824
 10
153.601575
 20
108.471915
  0
LINE
  5
80
100
AcDbEntity
  8
0
  6
Continuous
 62
   174
100
AcDbLine
 10
164.208755
 20
90.95065
 30
0.0
 11
170.408755
 21
90.95065
 31
0.0
  0
LINE
  5
81
100
AcDbEntity
  8
0
  6
Continuous
 62
   174
100
AcDbLine
 10
164.208755
 20
109.245739
 30
0.0
 11
170.408755
 21
109.245739
 31
0.0
  0
LINE
  5
82
100
AcDbEntity
  8
0
  6
Continuous
 62
   174
100
AcDbLine
 10
164.208755
 20
110.314697
 30
0.0
 11
170.408755
 21
110.314697
 31
0.0
  0
LINE
  5
83
100
AcDbEntity
  8
0
  6
Continuous
 62
   174
100
AcDbLine
 10
164.208755
 20
92.633109
 30
0.0
 11
164.208755
 21
92.018712
 31
0.0
  0
LINE
  5
84
100
AcDbEntity
  8
0
  6
Continuous
 62
   174
100
AcDbLine
 10
157.408755
 20
91.633109
 30
0.0
 11
156.708755
 21
91.633109
 31
0.0
  0
ARC
  5
85
100
AcDbEntity
  8
0
  6
Continuous
 62
   174
100
AcDbCircle
 10
230.908755
 20
94.633109
 30
0.0
 40
2.5
100
AcDbArc
 50
-180.0
 51
0.0
  0
ARC
  5
86
100
AcDbEntity
  8
0
  6
Continuous
 62
   174
100
AcDbCircle
 10
242.908755
 20
94.633109
 30
0.0
 40
2.1
100
AcDbArc
 50
0.0
 51
180.0
  0
LINE
  5
87
100
AcDbEntity
  8
0
  6
Continuous
 62
   174
100
AcDbLine
 10
201.408755
 20
108.133109
 30
0.0
 11
201.408755
 21
93.133109
 31
0.0
  0
LINE
  5
88
100
AcDbEntity
  8
0
  6
Continuous
 62
   174
100
AcDbLine
 10
217.908755
 20
89.633109
 30
0.0
 11
217.908755
 21
111.633109
 31
0.0
  0
ARC
  5
89
100
AcDbEntity
  8
0
  6
Continuous
 62
   174
100
AcDbCircle
 10
249.908755
 20
108.883109
 30
0.0
 40
3.0
100
AcDbArc
 50
113.556464
 51
235.182991
  0
LINE
  5
8A
100
AcDbEntity
  8
0
  6
Continuous
 62
   174
100
AcDbLine
 10
255.908755
 20
89.633109
 30
0.0
 11
255.908755
 21
111.633109
 31
0.0
  0
LWPOLYLINE
  5
8B
100
AcDbEntity
  8
0
  6
Continuous
 62
   174
100
AcDbPolyline
 90
        3
 70
   128
 10
153.601575
 20
108.471915
 10
153.235473
 20
108.471915
 10
153.007373
 20
108.471915
  0
LINE
  5
8C
100
AcDbEntity
  8
0
  6
Continuous
 62
   174
100
AcDbLine
 10
164.208755
 20
92.018712
 30
0.0
 11
170.408755
 21
92.018712
 31
0.0
  0
LWPOLYLINE
  5
8D
100
AcDbEntity
  8
0
  6
Continuous
 62
   174
100
AcDbPolyline
 90
        6
 70
   128
 10
175.408755
 20
100.633109
 10
174.503439
 20
102.122469
 10
173.695134
 20
103.516218
 10
173.033286
 20
104.794879
 10
172.58146
 20
105.920983
 10
172.408755
 20
106.878107
  0
LWPOLYLINE
  5
8E
100
AcDbEntity
  8
0
  6
Continuous
 62
   174
100
AcDbPolyline
 90
        6
 70
   128
 10
172.408755
 20
94.388111
 10
172.581097
 20
95.344072
 10
173.032898
 20
96.470512
 10
173.695968
 20
97.751503
 10
174.504499
 20
99.145519
 10
175.408755
 20
100.633109
  0
ARC
  5
8F
100
AcDbEntity
  8
0
  6
Continuous
 62
   174
100
AcDbCircle
 10
175.408755
 20
93.133109
 30
0.0
 40
3.0
100
AcDbArc
 50
-180.0
 51
-90.0
  0
LINE
  5
90
100
AcDbEntity
  8
0
  6
Continuous
 62
   174
100
AcDbLine
 10
160.408755
 20
94.133109
 30
0.0
 11
157.408755
 21
94.133109
 31
0.0
  0
LINE
  5
91
100
AcDbEntity
  8
0
  6
Continuous
 62
   174
100
AcDbLine
 10
172.408755
 20
93.133109
 30
0.0
 11
172.408755
 21
94.388111
 31
0.0
  0
ARC
  5
92
100
AcDbEntity
  8
0
  6
Continuous
 62
   174
100
AcDbCircle
 10
230.908755
 20
94.633109
 30
0.0
 40
2.5
100
AcDbArc
 50
0.0
 51
118.810059
  0
LINE
  5
93
100
AcDbEntity
  8
0
  6
Continuous
 62
   174
100
AcDbLine
 10
198.408755
 20
90.133109
 30
0.0
 11
175.408755
 21
90.133109
 31
0.0
  0
LINE
  5
94
100
AcDbEntity
  8
0
  6
Continuous
 62
   174
100
AcDbLine
 10
255.908755
 20
111.633109
 30
0.0
 11
251.107713
 21
111.633109
 31
0.0
  0
ARC
  5
95
100
AcDbEntity
  8
0
  6
Continuous
 62
   174
100
AcDbCircle
 10
249.908755
 20
92.383109
 30
0.0
 40
3.0
100
AcDbArc
 50
-66.443536
 51
55.182991
  0
LINE
  5
96
100
AcDbEntity
  8
0
  6
Continuous
 62
   174
100
AcDbLine
 10
222.709797
 20
89.633109
 30
0.0
 11
225.107713
 21
89.633109
 31
0.0
  0
LINE
  5
97
100
AcDbEntity
  8
0
  6
Continuous
 62
   174
100
AcDbLine
 10
156.708755
 20
100.587215
 30
0.0
 11
156.708755
 21
92.928929
 31
0.0
  0
ARC
  5
98
100
AcDbEntity
  8
0
  6
Continuous
 62
   174
100
AcDbCircle
 10
223.908755
 20
92.383109
 30
0.0
 40
3.0
100
AcDbArc
 50
55.182991
 51
246.443536
  0
LINE
  5
99
100
AcDbEntity
  8
0
  6
Continuous
 62
   174
100
AcDbLine
 10
164.208755
 20
92.063456
 30
0.0
 11
164.208755
 21
90.995507
 31
0.0
  0
LINE
  5
9A
100
AcDbEntity
  8
0
  6
Continuous
 62
   174
100
AcDbLine
 10
170.908755
 20
110.633109
 30
0.0
 11
171.908755
 21
110.633109
 31
0.0
  0
LINE
  5
9B
100
AcDbEntity
  8
0
  6
Continuous
 62
   174
100
AcDbLine
 10
170.908755
 20
90.633109
 30
0.0
 11
171.908755
 21
90.633109
 31
0.0
  0
LINE
  5
9C
100
AcDbEntity
  8
0
  6
Continuous
 62
   174
100
AcDbLine
 10
170.408755
 20
90.790629
 30
0.0
 11
170.408755
 21
90.995507
 31
0.0
  0
ARC
  5
9D
100
AcDbEntity
  8
0
  6
Continuous
 62
   174
100
AcDbCircle
 10
198.408755
 20
108.133109
 30
0.0
 40
3.0
100
AcDbArc
 50
0.0
 51
90.0
  0
LINE
  5
9E
100
AcDbEntity
  8
0
  6
Continuous
 62
   174
100
AcDbLine
 10
172.434454
 20
93.133109
 30
0.0
 11
175.434322
 21
93.133109
 31
0.0
  0
LINE
  5
9F
100
AcDbEntity
  8
0
  6
Continuous
 62
   174
100
AcDbLine
 10
175.408755
 20
108.133109
 30
0.0
 11
198.408755
 21
108.133109
 31
0.0
  0
ARC
  5
A0
100
AcDbEntity
  8
0
  6
Continuous
 62
   174
100
AcDbCircle
 10
198.408755
 20
93.133109
 30
0.0
 40
3.0
100
AcDbArc
 50
-90.0
 51
0.0
  0
ARC
  5
A1
100
AcDbEntity
  8
0
  6
Continuous
 62
   174
100
AcDbCircle
 10
175.408755
 20
108.133109
 30
0.0
 40
3.0
100
AcDbArc
 50
-270.0
 51
-180.0
  0
LINE
  5
A2
100
AcDbEntity
  8
0
  6
Continuous
 62
   174
100
AcDbLine
 10
201.908755
 20
89.633109
 30
0.0
 11
171.908755
 21
89.633109
 31
0.0
  0
LINE
  5
A3
100
AcDbEntity
  8
0
  6
Continuous
 62
   174
100
AcDbLine
 10
201.408755
 20
93.133109
 30
0.0
 11
201.408755
 21
108.133109
 31
0.0
  0
LINE
  5
A4
100
AcDbEntity
  8
0
  6
Continuous
 62
   174
100
AcDbLine
 10
198.408755
 20
108.133109
 30
0.0
 11
198.408755
 21
93.133109
 31
0.0
  0
LINE
  5
A5
100
AcDbEntity
  8
0
  6
Continuous
 62
   174
100
AcDbLine
 10
175.408755
 20
90.178099
 30
0.0
 11
175.408755
 21
93.177667
 31
0.0
  0
LINE
  5
A6
100
AcDbEntity
  8
0
  6
Continuous
 62
   174
100
AcDbLine
 10
171.908755
 20
111.633109
 30
0.0
 11
201.908755
 21
111.633109
 31
0.0
  0
LINE
  5
A7
100
AcDbEntity
  8
0
  6
Continuous
 62
   174
100
AcDbLine
 10
201.434283
 20
93.133109
 30
0.0
 11
198.434415
 21
93.133109
 31
0.0
  0
LINE
  5
A8
100
AcDbEntity
  8
0
  6
Continuous
 62
   174
100
AcDbLine
 10
170.408755
 20
110.564046
 30
0.0
 11
170.408755
 21
110.676398
 31
0.0
  0
LINE
  5
A9
100
AcDbEntity
  8
0
  6
Continuous
 62
   174
100
AcDbLine
 10
170.408755
 20
110.633109
 30
0.0
 11
170.908755
 21
110.633109
 31
0.0
  0
LINE
  5
AA
100
AcDbEntity
  8
0
  6
Continuous
 62
   174
100
AcDbLine
 10
198.408755
 20
93.133109
 30
0.0
 11
175.408755
 21
93.133109
 31
0.0
  0
LINE
  5
AB
100
AcDbEntity
  8
0
  6
Continuous
 62
   174
100
AcDbLine
 10
170.408755
 20
108.702722
 30
0.0
 11
170.408755
 21
109.289117
 31
0.0
  0
LINE
  5
AC
100
AcDbEntity
  8
0
  6
Continuous
 62
   174
100
AcDbLine
 10
170.908755
 20
110.633109
 30
0.0
 11
171.908755
 21
110.633109
 31
0.0
  0
LINE
  5
AD
100
AcDbEntity
  8
0
  6
Continuous
 62
   174
100
AcDbLine
 10
175.408755
 20
90.133109
 30
0.0
 11
198.408755
 21
90.133109
 31
0.0
  0
LINE
  5
AE
100
AcDbEntity
  8
0
  6
Continuous
 62
   174
100
AcDbLine
 10
172.408755
 20
108.133109
 30
0.0
 11
172.408755
 21
106.878107
 31
0.0
  0
LINE
  5
AF
100
AcDbEntity
  8
0
  6
Continuous
 62
   174
100
AcDbLine
 10
170.408755
 20
110.357966
 30
0.0
 11
170.408755
 21
110.564046
 31
0.0
  0
LINE
  5
B0
100
AcDbEntity
  8
0
  6
Continuous
 62
   174
100
AcDbLine
 10
170.408755
 20
90.633109
 30
0.0
 11
170.908755
 21
90.633109
 31
0.0
  0
LINE
  5
B1
100
AcDbEntity
  8
0
  6
Continuous
 62
   174
100
AcDbLine
 10
171.908755
 20
89.633109
 30
0.0
 11
171.908755
 21
92.633109
 31
0.0
  0
LINE
  5
B2
100
AcDbEntity
  8
0
  6
Continuous
 62
   174
100
AcDbLine
 10
198.434415
 20
108.133109
 30
0.0
 11
201.434283
 21
108.133109
 31
0.0
  0
LINE
  5
B3
100
AcDbEntity
  8
0
  6
Continuous
 62
   174
100
AcDbLine
 10
198.408755
 20
108.176708
 30
0.0
 11
198.408755
 21
111.176577
 31
0.0
  0
LINE
  5
B4
100
AcDbEntity
  8
0
  6
Continuous
 62
   174
100
AcDbLine
 10
175.434322
 20
108.133109
 30
0.0
 11
172.434454
 21
108.133109
 31
0.0
  0
LINE
  5
B5
100
AcDbEntity
  8
0
  6
Continuous
 62
   174
100
AcDbLine
 10
201.908755
 20
111.633109
 30
0.0
 11
201.908755
 21
89.633109
 31
0.0
  0
LINE
  5
B6
100
AcDbEntity
  8
0
  6
Continuous
 62
   174
100
AcDbLine
 10
171.908755
 20
108.633109
 30
0.0
 11
171.908755
 21
111.633109
 31
0.0
  0
LINE
  5
B7
100
AcDbEntity
  8
0
  6
Continuous
 62
   174
100
AcDbLine
 10
198.408755
 20
90.178099
 30
0.0
 11
198.408755
 21
93.177667
 31
0.0
  0
LINE
  5
B8
100
AcDbEntity
  8
0
  6
Continuous
 62
   174
100
AcDbLine
 10
175.408755
 20
100.633109
 30
0.0
 11
175.408755
 21
108.133109
 31
0.0
  0
LINE
  5
B9
100
AcDbEntity
  8
0
  6
Continuous
 62
   174
100
AcDbLine
 10
170.408755
 20
92.063456
 30
0.0
 11
170.408755
 21
92.651653
 31
0.0
  0
LINE
  5
BA
100
AcDbEntity
  8
0
  6
Continuous
 62
   174
100
AcDbLine
 10
175.408755
 20
108.176708
 30
0.0
 11
175.408755
 21
111.176577
 31
0.0
  0
LINE
  5
BB
100
AcDbEntity
  8
0
  6
Continuous
 62
   174
100
AcDbLine
 10
170.408755
 20
90.677977
 30
0.0
 11
170.408755
 21
90.790629
 31
0.0
  0
LINE
  5
BC
100
AcDbEntity
  8
0
  6
Continuous
 62
   174
100
AcDbLine
 10
198.408755
 20
111.133109
 30
0.0
 11
175.408755
 21
111.133109
 31
0.0
  0
ENDBLK
  5
BD
100
AcDbEntity
  8
0
100
AcDbBlockEnd
  0
BLOCK
  5
C0
100
AcDbEntity
  8
0
100
AcDbBlockBegin
  2
*B2
 70
     0
 10
0.0
 20
0.0
 30
0.0
  3
*B2
  1

  0
LINE
  5
C1
100
AcDbEntity
  8
0
  6
HIDDEN
 62
   174
100
AcDbLine
 10
189.165023
 20
222.726918
 30
0.0
 11
188.72616
 21
222.726918
 31
0.0
  0
LINE
  5
C2
100
AcDbEntity
  8
0
  6
HIDDEN
 62
   174
100
AcDbLine
 10
188.72616
 20
222.726918
 30
0.0
 11
186.908755
 21
222.726918
 31
0.0
  0
LINE
  5
C3
100
AcDbEntity
  8
0
  6
HIDDEN
 62
   174
100
AcDbLine
 10
186.908755
 20
222.726918
 30
0.0
 11
184.931572
 21
222.726918
 31
0.0
  0
LINE
  5
C4
100
AcDbEntity
  8
0
  6
Continuous
 62
   174
100
AcDbLine
 10
160.408755
 20
221.226918
 30
0.0
 11
157.408755
 21
221.226918
 31
0.0
  0
LINE
  5
C5
100
AcDbEntity
  8
0
  6
Continuous
 62
   174
100
AcDbLine
 10
160.408755
 20
208.226918
 30
0.0
 11
157.408755
 21
208.226918
 31
0.0
  0
LINE
  5
C6
100
AcDbEntity
  8
0
  6
Continuous
 62
   174
100
AcDbLine
 10
157.408755
 20
223.726918
 30
0.0
 11
156.708755
 21
223.726918
 31
0.0
  0
LINE
  5
C7
100
AcDbEntity
  8
0
  6
Continuous
 62
   174
100
AcDbLine
 10
157.408755
 20
205.726918
 30
0.0
 11
156.708755
 21
205.726918
 31
0.0
  0
LINE
  5
C8
100
AcDbEntity
  8
0
  6
Continuous
 62
   174
100
AcDbLine
 10
152.908755
 20
206.926918
 30
0.0
 11
153.576009
 21
205.7712
 31
0.0
  0
LINE
  5
C9
100
AcDbEntity
  8
0
  6
Continuous
 62
   174
100
AcDbLine
 10
152.908755
 20
222.526918
 30
0.0
 11
153.576031
 21
223.682675
 31
0.0
  0
LINE
  5
CA
100
AcDbEntity
  8
0
  6
HIDDEN
 62
   174
100
AcDbLine
 10
251.584296
 20
186.476918
 30
0.0
 11
251.198273
 21
186.476918
 31
0.0
  0
LINE
  5
CB
100
AcDbEntity
  8
0
  6
HIDDEN
 62
   174
100
AcDbLine
 10
251.198273
 20
186.476918
 30
0.0
 11
251.142097
 21
186.476918
 31
0.0
  0
LINE
  5
CC
100
AcDbEntity
  8
0
  6
HIDDEN
 62
   174
100
AcDbLine
 10
251.142097
 20
186.476918
 30
0.0
 11
248.726521
 21
186.476918
 31
0.0
  0
LINE
  5
CD
100
AcDbEntity
  8
0
  6
HIDDEN
 62
   174
100
AcDbLine
 10
248.726521
 20
186.476918
 30
0.0
 11
248.670344
 21
186.476918
 31
0.0
  0
LINE
  5
CE
100
AcDbEntity
  8
0
  6
HIDDEN
 62
   174
100
AcDbLine
 10
251.198273
 20
186.476918
 30
0.0
 11
251.142097
 21
186.476918
 31
0.0
  0
LINE
  5
CF
100
AcDbEntity
  8
0
  6
HIDDEN
 62
   174
100
AcDbLine
 10
239.008755
 20
182.726918
 30
0.0
 11
239.008755
 21
187.726918
 31
0.0
  0
LINE
  5
D0
100
AcDbEntity
  8
0
  6
HIDDEN
 62
   174
100
AcDbLine
 10
239.434319
 20
182.726918
 30
0.0
 11
234.434338
 21
182.726918
 31
0.0
  0
LINE
  5
D1
100
AcDbEntity
  8
0
  6
HIDDEN
 62
   174
100
AcDbLine
 10
172.408755
 20
206.726918
 30
0.0
 11
172.408755
 21
193.726918
 31
0.0
  0
LINE
  5
D2
100
AcDbEntity
  8
0
  6
HIDDEN
 62
   174
100
AcDbLine
 10
225.584335
 20
186.476918
 30
0.0
 11
225.198312
 21
186.476918
 31
0.0
  0
LINE
  5
D3
100
AcDbEntity
  8
0
  6
HIDDEN
 62
   174
100
AcDbLine
 10
252.908755
 20
187.726918
 30
0.0
 11
252.908755
 21
186.476918
 31
0.0
  0
LINE
  5
D4
100
AcDbEntity
  8
0
  6
Continuous
 62
   174
100
AcDbLine
 10
217.908755
 20
165.726918
 30
0.0
 11
217.908755
 21
187.726918
 31
0.0
  0
LINE
  5
D5
100
AcDbEntity
  8
0
  6
HIDDEN
 62
   174
100
AcDbLine
 10
252.908755
 20
187.726918
 30
0.0
 11
252.908755
 21
186.476918
 31
0.0
  0
LINE
  5
D6
100
AcDbEntity
  8
0
  6
Continuous
 62
   174
100
AcDbLine
 10
251.107713
 20
187.726918
 30
0.0
 11
255.908755
 21
187.726918
 31
0.0
  0
LINE
  5
D7
100
AcDbEntity
  8
0
  6
Continuous
 62
   174
100
AcDbLine
 10
160.408755
 20
221.369019
 30
0.0
 11
160.408755
 21
214.762759
 31
0.0
  0
LINE
  5
D8
100
AcDbEntity
  8
0
  6
Continuous
 62
   174
100
AcDbLine
 10
222.709797
 20
186.476918
 30
0.0
 11
225.107713
 21
186.476918
 31
0.0
  0
LINE
  5
D9
100
AcDbEntity
  8
0
  6
Continuous
 62
   174
100
AcDbLine
 10
222.722054
 20
187.726918
 30
0.0
 11
225.146642
 21
187.726918
 31
0.0
  0
LINE
  5
DA
100
AcDbEntity
  8
0
  6
HIDDEN
 62
   174
100
AcDbLine
 10
234.808755
 20
182.726918
 30
0.0
 11
234.808755
 21
187.726918
 31
0.0
  0
LINE
  5
DB
100
AcDbEntity
  8
0
  6
HIDDEN
 62
   174
100
AcDbLine
 10
239.008755
 20
187.726918
 30
0.0
 11
239.008755
 21
181.726918
 31
0.0
  0
LINE
  5
DC
100
AcDbEntity
  8
0
  6
HIDDEN
 62
   174
100
AcDbLine
 10
239.434319
 20
187.726918
 30
0.0
 11
234.434338
 21
187.726918
 31
0.0
  0
LINE
  5
DD
100
AcDbEntity
  8
0
  6
HIDDEN
 62
   174
100
AcDbLine
 10
225.198312
 20
186.476918
 30
0.0
 11
225.142136
 21
186.476918
 31
0.0
  0
LINE
  5
DE
100
AcDbEntity
  8
0
  6
HIDDEN
 62
   174
100
AcDbLine
 10
222.670383
 20
186.476918
 30
0.0
 11
222.28436
 21
186.476918
 31
0.0
  0
LINE
  5
DF
100
AcDbEntity
  8
0
  6
HIDDEN
 62
   174
100
AcDbLine
 10
220.908755
 20
187.726918
 30
0.0
 11
220.908755
 21
186.476918
 31
0.0
  0
LINE
  5
E0
100
AcDbEntity
  8
0
  6
Continuous
 62
   174
100
AcDbLine
 10
217.908755
 20
165.726918
 30
0.0
 11
201.908755
 21
165.726918
 31
0.0
  0
LINE
  5
E1
100
AcDbEntity
  8
0
  6
Continuous
 62
   174
100
AcDbLine
 10
225.107713
 20
187.726918
 30
0.0
 11
248.709797
 21
187.726918
 31
0.0
  0
LINE
  5
E2
100
AcDbEntity
  8
0
  6
HIDDEN
 62
   174
100
AcDbLine
 10
171.908755
 20
176.765428
 30
0.0
 11
171.908755
 21
186.764789
 31
0.0
  0
LINE
  5
E3
100
AcDbEntity
  8
0
  6
HIDDEN
 62
   174
100
AcDbLine
 10
252.934327
 20
186.476918
 30
0.0
 11
246.93429
 21
186.476918
 31
0.0
  0
LINE
  5
E4
100
AcDbEntity
  8
0
  6
Continuous
 62
   174
100
AcDbLine
 10
160.408755
 20
214.762759
 30
0.0
 11
160.408755
 21
208.1565
 31
0.0
  0
LINE
  5
E5
100
AcDbEntity
  8
0
  6
Continuous
 62
   174
100
AcDbLine
 10
157.408755
 20
221.476865
 30
0.0
 11
157.408755
 21
223.762064
 31
0.0
  0
LINE
  5
E6
100
AcDbEntity
  8
0
  6
Continuous
 62
   174
100
AcDbLine
 10
248.722014
 20
187.726918
 30
0.0
 11
251.146603
 21
187.726918
 31
0.0
  0
LINE
  5
E7
100
AcDbEntity
  8
0
  6
HIDDEN
 62
   174
100
AcDbLine
 10
170.408755
 20
181.808513
 30
0.0
 11
170.408755
 21
185.342562
 31
0.0
  0
LINE
  5
E8
100
AcDbEntity
  8
0
  6
Continuous
 62
   174
100
AcDbLine
 10
156.708755
 20
223.761764
 30
0.0
 11
156.708755
 21
219.340067
 31
0.0
  0
LINE
  5
E9
100
AcDbEntity
  8
0
  6
HIDDEN
 62
   174
100
AcDbLine
 10
222.735271
 20
186.476918
 30
0.0
 11
220.934329
 21
186.476918
 31
0.0
  0
LINE
  5
EA
100
AcDbEntity
  8
0
  6
HIDDEN
 62
   174
100
AcDbLine
 10
251.584296
 20
186.476918
 30
0.0
 11
251.198273
 21
186.476918
 31
0.0
  0
LINE
  5
EB
100
AcDbEntity
  8
0
  6
HIDDEN
 62
   174
100
AcDbLine
 10
234.408755
 20
182.726918
 30
0.0
 11
234.408755
 21
187.726918
 31
0.0
  0
LINE
  5
EC
100
AcDbEntity
  8
0
  6
HIDDEN
 62
   174
100
AcDbLine
 10
172.408755
 20
211.943036
 30
0.0
 11
172.408755
 21
206.726918
 31
0.0
  0
LINE
  5
ED
100
AcDbEntity
  8
0
  6
HIDDEN
 62
   174
100
AcDbLine
 10
246.908755
 20
187.726918
 30
0.0
 11
246.908755
 21
186.476918
 31
0.0
  0
LINE
  5
EE
100
AcDbEntity
  8
0
  6
HIDDEN
 62
   174
100
AcDbLine
 10
246.908755
 20
187.726918
 30
0.0
 11
246.908755
 21
186.476918
 31
0.0
  0
LINE
  5
EF
100
AcDbEntity
  8
0
  6
Continuous
 62
   174
100
AcDbLine
 10
217.908755
 20
187.726918
 30
0.0
 11
201.908755
 21
187.726918
 31
0.0
  0
LINE
  5
F0
100
AcDbEntity
  8
0
  6
Continuous
 62
   174
100
AcDbLine
 10
217.908755
 20
187.726918
 30
0.0
 11
222.709797
 21
187.726918
 31
0.0
  0
LINE
  5
F1
100
AcDbEntity
  8
0
  6
Continuous
 62
   174
100
AcDbLine
 10
157.408755
 20
205.763454
 30
0.0
 11
157.408755
 21
208.048954
 31
0.0
  0
LINE
  5
F2
100
AcDbEntity
  8
0
  6
HIDDEN
 62
   174
100
AcDbLine
 10
251.146603
 20
187.726918
 30
0.0
 11
252.934327
 21
187.726918
 31
0.0
  0
LINE
  5
F3
100
AcDbEntity
  8
0
  6
HIDDEN
 62
   174
100
AcDbLine
 10
225.146642
 20
187.726918
 30
0.0
 11
226.934366
 21
187.726918
 31
0.0
  0
LINE
  5
F4
100
AcDbEntity
  8
0
  6
Continuous
 62
   174
100
AcDbLine
 10
160.408755
 20
222.726918
 30
0.0
 11
175.408755
 21
222.726918
 31
0.0
  0
LINE
  5
F5
100
AcDbEntity
  8
0
  6
HIDDEN
 62
   174
100
AcDbLine
 10
248.670344
 20
186.476918
 30
0.0
 11
248.284321
 21
186.476918
 31
0.0
  0
LINE
  5
F6
100
AcDbEntity
  8
0
  6
HIDDEN
 62
   174
100
AcDbLine
 10
234.808755
 20
187.726918
 30
0.0
 11
234.808755
 21
181.726918
 31
0.0
  0
LINE
  5
F7
100
AcDbEntity
  8
0
  6
HIDDEN
 62
   174
100
AcDbLine
 10
239.408755
 20
182.726918
 30
0.0
 11
239.408755
 21
187.726918
 31
0.0
  0
LINE
  5
F8
100
AcDbEntity
  8
0
  6
HIDDEN
 62
   174
100
AcDbLine
 10
225.584335
 20
186.476918
 30
0.0
 11
225.198312
 21
186.476918
 31
0.0
  0
LINE
  5
F9
100
AcDbEntity
  8
0
  6
HIDDEN
 62
   174
100
AcDbLine
 10
222.72656
 20
186.476918
 30
0.0
 11
222.670383
 21
186.476918
 31
0.0
  0
LINE
  5
FA
100
AcDbEntity
  8
0
  6
HIDDEN
 62
   174
100
AcDbLine
 10
171.908755
 20
166.766367
 30
0.0
 11
171.908755
 21
176.765428
 31
0.0
  0
LINE
  5
FB
100
AcDbEntity
  8
0
  6
HIDDEN
 62
   174
100
AcDbLine
 10
157.408755
 20
214.762759
 30
0.0
 11
157.408755
 21
208.263144
 31
0.0
  0
LINE
  5
FC
100
AcDbEntity
  8
0
  6
Continuous
 62
   174
100
AcDbLine
 10
156.708755
 20
219.340067
 30
0.0
 11
156.708755
 21
214.762759
 31
0.0
  0
LINE
  5
FD
100
AcDbEntity
  8
0
  6
HIDDEN
 62
   174
100
AcDbLine
 10
226.934366
 20
186.476918
 30
0.0
 11
225.133424
 21
186.476918
 31
0.0
  0
LINE
  5
FE
100
AcDbEntity
  8
0
  6
Continuous
 62
   174
100
AcDbLine
 10
164.208755
 20
186.446958
 30
0.0
 11
164.208755
 21
185.378709
 31
0.0
  0
LINE
  5
FF
100
AcDbEntity
  8
0
  6
HIDDEN
 62
   174
100
AcDbLine
 10
234.83448
 20
181.726918
 30
0.0
 11
239.034476
 21
181.726918
 31
0.0
  0
LINE
  5
100
100
AcDbEntity
  8
0
  6
HIDDEN
 62
   174
100
AcDbLine
 10
239.408755
 20
182.726918
 30
0.0
 11
239.408755
 21
187.726918
 31
0.0
  0
LINE
  5
101
100
AcDbEntity
  8
0
  6
HIDDEN
 62
   174
100
AcDbLine
 10
222.670383
 20
186.476918
 30
0.0
 11
222.28436
 21
186.476918
 31
0.0
  0
LINE
  5
102
100
AcDbEntity
  8
0
  6
HIDDEN
 62
   174
100
AcDbLine
 10
234.83448
 20
187.726918
 30
0.0
 11
239.034476
 21
187.726918
 31
0.0
  0
LINE
  5
103
100
AcDbEntity
  8
0
  6
HIDDEN
 62
   174
100
AcDbLine
 10
225.142136
 20
186.476918
 30
0.0
 11
222.72656
 21
186.476918
 31
0.0
  0
LINE
  5
104
100
AcDbEntity
  8
0
  6
HIDDEN
 62
   174
100
AcDbLine
 10
251.107713
 20
187.726918
 30
0.0
 11
251.107713
 21
186.476918
 31
0.0
  0
LINE
  5
105
100
AcDbEntity
  8
0
  6
Continuous
 62
   174
100
AcDbLine
 10
156.708755
 20
214.762759
 30
0.0
 11
156.708755
 21
210.185452
 31
0.0
  0
LINE
  5
106
100
AcDbEntity
  8
0
  6
HIDDEN
 62
   174
100
AcDbLine
 10
248.726521
 20
186.476918
 30
0.0
 11
248.670344
 21
186.476918
 31
0.0
  0
LINE
  5
107
100
AcDbEntity
  8
0
  6
HIDDEN
 62
   174
100
AcDbLine
 10
234.808755
 20
182.726918
 30
0.0
 11
234.808755
 21
187.726918
 31
0.0
  0
LINE
  5
108
100
AcDbEntity
  8
0
  6
HIDDEN
 62
   174
100
AcDbLine
 10
239.008755
 20
187.726918
 30
0.0
 11
239.008755
 21
181.726918
 31
0.0
  0
LINE
  5
109
100
AcDbEntity
  8
0
  6
HIDDEN
 62
   174
100
AcDbLine
 10
226.908755
 20
187.726918
 30
0.0
 11
226.908755
 21
186.476918
 31
0.0
  0
LINE
  5
10A
100
AcDbEntity
  8
0
  6
HIDDEN
 62
   174
100
AcDbLine
 10
248.709797
 20
187.726918
 30
0.0
 11
248.709797
 21
186.476918
 31
0.0
  0
LINE
  5
10B
100
AcDbEntity
  8
0
  6
HIDDEN
 62
   174
100
AcDbLine
 10
246.93429
 20
187.726918
 30
0.0
 11
248.735533
 21
187.726918
 31
0.0
  0
LINE
  5
10C
100
AcDbEntity
  8
0
  6
HIDDEN
 62
   174
100
AcDbLine
 10
157.408755
 20
221.262374
 30
0.0
 11
157.408755
 21
214.762759
 31
0.0
  0
LINE
  5
10D
100
AcDbEntity
  8
0
  6
Continuous
 62
   174
100
AcDbLine
 10
248.709797
 20
186.476918
 30
0.0
 11
251.107713
 21
186.476918
 31
0.0
  0
LINE
  5
10E
100
AcDbEntity
  8
0
  6
Continuous
 62
   174
100
AcDbLine
 10
160.408755
 20
208.1565
 30
0.0
 11
160.408755
 21
206.763511
 31
0.0
  0
LINE
  5
10F
100
AcDbEntity
  8
0
  6
HIDDEN
 62
   174
100
AcDbLine
 10
248.735533
 20
186.476918
 30
0.0
 11
246.93429
 21
186.476918
 31
0.0
  0
LINE
  5
110
100
AcDbEntity
  8
0
  6
Continuous
 62
   174
100
AcDbLine
 10
225.107713
 20
187.726918
 30
0.0
 11
225.107713
 21
186.476918
 31
0.0
  0
LINE
  5
111
100
AcDbEntity
  8
0
  6
Continuous
 62
   174
100
AcDbLine
 10
160.408755
 20
206.726918
 30
0.0
 11
172.408755
 21
206.726918
 31
0.0
  0
LINE
  5
112
100
AcDbEntity
  8
0
  6
HIDDEN
 62
   174
100
AcDbLine
 10
251.142097
 20
186.476918
 30
0.0
 11
248.726521
 21
186.476918
 31
0.0
  0
LINE
  5
113
100
AcDbEntity
  8
0
  6
HIDDEN
 62
   174
100
AcDbLine
 10
234.408755
 20
182.726918
 30
0.0
 11
234.408755
 21
187.726918
 31
0.0
  0
LINE
  5
114
100
AcDbEntity
  8
0
  6
HIDDEN
 62
   174
100
AcDbLine
 10
222.72656
 20
186.476918
 30
0.0
 11
222.670383
 21
186.476918
 31
0.0
  0
LINE
  5
115
100
AcDbEntity
  8
0
  6
HIDDEN
 62
   174
100
AcDbLine
 10
225.198312
 20
186.476918
 30
0.0
 11
225.142136
 21
186.476918
 31
0.0
  0
LINE
  5
116
100
AcDbEntity
  8
0
  6
Continuous
 62
   174
100
AcDbLine
 10
201.908755
 20
165.726918
 30
0.0
 11
201.908755
 21
187.726918
 31
0.0
  0
LINE
  5
117
100
AcDbEntity
  8
0
  6
Continuous
 62
   174
100
AcDbLine
 10
201.408755
 20
219.726918
 30
0.0
 11
201.408755
 21
193.726918
 31
0.0
  0
LINE
  5
118
100
AcDbEntity
  8
0
  6
HIDDEN
 62
   174
100
AcDbLine
 10
160.408755
 20
221.262374
 30
0.0
 11
160.408755
 21
214.762759
 31
0.0
  0
LINE
  5
119
100
AcDbEntity
  8
0
  6
Continuous
 62
   174
100
AcDbLine
 10
160.408755
 20
222.762308
 30
0.0
 11
160.408755
 21
221.369019
 31
0.0
  0
LINE
  5
11A
100
AcDbEntity
  8
0
  6
Continuous
 62
   174
100
AcDbLine
 10
251.107713
 20
187.726918
 30
0.0
 11
251.107713
 21
186.476918
 31
0.0
  0
LINE
  5
11B
100
AcDbEntity
  8
0
  6
Continuous
 62
   174
100
AcDbLine
 10
157.408755
 20
208.048954
 30
0.0
 11
157.408755
 21
214.762759
 31
0.0
  0
LINE
  5
11C
100
AcDbEntity
  8
0
  6
Continuous
 62
   174
100
AcDbLine
 10
156.708755
 20
210.185452
 30
0.0
 11
156.708755
 21
205.763755
 31
0.0
  0
LINE
  5
11D
100
AcDbEntity
  8
0
  6
Continuous
 62
   174
100
AcDbLine
 10
222.709797
 20
187.726918
 30
0.0
 11
222.709797
 21
186.476918
 31
0.0
  0
LINE
  5
11E
100
AcDbEntity
  8
0
  6
Continuous
 62
   174
100
AcDbLine
 10
156.708755
 20
210.149258
 30
0.0
 11
153.601575
 21
210.149258
 31
0.0
  0
LINE
  5
11F
100
AcDbEntity
  8
0
  6
HIDDEN
 62
   174
100
AcDbLine
 10
248.670344
 20
186.476918
 30
0.0
 11
248.284321
 21
186.476918
 31
0.0
  0
LINE
  5
120
100
AcDbEntity
  8
0
  6
HIDDEN
 62
   174
100
AcDbLine
 10
239.008755
 20
182.726918
 30
0.0
 11
239.008755
 21
187.726918
 31
0.0
  0
LINE
  5
121
100
AcDbEntity
  8
0
  6
HIDDEN
 62
   174
100
AcDbLine
 10
234.808755
 20
187.726918
 30
0.0
 11
234.808755
 21
181.726918
 31
0.0
  0
LINE
  5
122
100
AcDbEntity
  8
0
  6
HIDDEN
 62
   174
100
AcDbLine
 10
225.142136
 20
186.476918
 30
0.0
 11
222.72656
 21
186.476918
 31
0.0
  0
LINE
  5
123
100
AcDbEntity
  8
0
  6
HIDDEN
 62
   174
100
AcDbLine
 10
226.908755
 20
187.726918
 30
0.0
 11
226.908755
 21
186.476918
 31
0.0
  0
LINE
  5
124
100
AcDbEntity
  8
0
  6
HIDDEN
 62
   174
100
AcDbLine
 10
220.908755
 20
187.726918
 30
0.0
 11
220.908755
 21
186.476918
 31
0.0
  0
LINE
  5
125
100
AcDbEntity
  8
0
  6
HIDDEN
 62
   174
100
AcDbLine
 10
160.408755
 20
208.263144
 30
0.0
 11
160.408755
 21
214.762759
 31
0.0
  0
LINE
  5
126
100
AcDbEntity
  8
0
  6
HIDDEN
 62
   174
100
AcDbLine
 10
251.133385
 20
187.726918
 30
0.0
 11
252.934327
 21
187.726918
 31
0.0
  0
LINE
  5
127
100
AcDbEntity
  8
0
  6
Continuous
 62
   174
100
AcDbLine
 10
157.408755
 20
214.762759
 30
0.0
 11
157.408755
 21
221.476865
 31
0.0
  0
LINE
  5
128
100
AcDbEntity
  8
0
  6
Continuous
 62
   174
100
AcDbLine
 10
248.709797
 20
187.726918
 30
0.0
 11
248.709797
 21
186.476918
 31
0.0
  0
LINE
  5
129
100
AcDbEntity
  8
0
  6
HIDDEN
 62
   174
100
AcDbLine
 10
246.93429
 20
187.726918
 30
0.0
 11
248.722014
 21
187.726918
 31
0.0
  0
LINE
  5
12A
100
AcDbEntity
  8
0
  6
HIDDEN
 62
   174
100
AcDbLine
 10
252.934327
 20
186.476918
 30
0.0
 11
251.133385
 21
186.476918
 31
0.0
  0
LINE
  5
12B
100
AcDbEntity
  8
0
  6
HIDDEN
 62
   174
100
AcDbLine
 10
220.934329
 20
187.726918
 30
0.0
 11
222.722054
 21
187.726918
 31
0.0
  0
LWPOLYLINE
  5
12C
100
AcDbEntity
  8
0
  6
Continuous
 62
   174
100
AcDbPolyline
 90
        4
 70
   128
 10
153.601575
 20
210.149258
 10
153.273674
 20
211.402073
 10
153.040921
 20
212.624894
 10
152.908755
 20
213.835307
  0
LINE
  5
12D
100
AcDbEntity
  8
0
  6
HIDDEN
 62
   174
100
AcDbLine
 10
225.107713
 20
187.726918
 30
0.0
 11
225.107713
 21
186.476918
 31
0.0
  0
LINE
  5
12E
100
AcDbEntity
  8
0
  6
HIDDEN
 62
   174
100
AcDbLine
 10
222.709797
 20
187.726918
 30
0.0
 11
222.709797
 21
186.476918
 31
0.0
  0
LINE
  5
12F
100
AcDbEntity
  8
0
  6
Continuous
 62
   174
100
AcDbLine
 10
201.908755
 20
193.726918
 30
0.0
 11
171.908755
 21
193.726918
 31
0.0
  0
LINE
  5
130
100
AcDbEntity
  8
0
  6
HIDDEN
 62
   174
100
AcDbLine
 10
248.258755
 20
186.476918
 30
0.0
 11
248.258755
 21
165.726918
 31
0.0
  0
LINE
  5
131
100
AcDbEntity
  8
0
  6
HIDDEN
 62
   174
100
AcDbLine
 10
164.208755
 20
174.230285
 30
0.0
 11
170.408755
 21
174.230285
 31
0.0
  0
LWPOLYLINE
  5
132
100
AcDbEntity
  8
0
  6
HIDDEN
 62
   174
100
AcDbPolyline
 90
        6
 70
   128
 10
175.408755
 20
222.726918
 10
174.503439
 20
222.587058
 10
173.695134
 20
222.189336
 10
173.033286
 20
221.55917
 10
172.58146
 20
220.730115
 10
172.408755
 20
219.726918
  0
LINE
  5
133
100
AcDbEntity
  8
0
  6
HIDDEN
 62
   174
100
AcDbLine
 10
164.208755
 20
179.230284
 30
0.0
 11
170.408755
 21
179.230284
 31
0.0
  0
LINE
  5
134
100
AcDbEntity
  8
0
  6
HIDDEN
 62
   174
100
AcDbLine
 10
222.258755
 20
186.476918
 30
0.0
 11
222.258755
 21
165.726918
 31
0.0
  0
LINE
  5
135
100
AcDbEntity
  8
0
  6
Continuous
 62
   174
100
AcDbLine
 10
171.908755
 20
165.726918
 30
0.0
 11
201.908755
 21
165.726918
 31
0.0
  0
LINE
  5
136
100
AcDbEntity
  8
0
  6
HIDDEN
 62
   174
100
AcDbLine
 10
222.258755
 20
186.476918
 30
0.0
 11
222.258755
 21
165.726918
 31
0.0
  0
LWPOLYLINE
  5
137
100
AcDbEntity
  8
0
  6
HIDDEN
 62
   174
100
AcDbPolyline
 90
        7
 70
   128
 10
153.601575
 20
219.148809
 10
153.235473
 20
217.645538
 10
153.007373
 20
216.171548
 10
152.930442
 20
214.727155
 10
153.007329
 20
213.282709
 10
153.235421
 20
211.808558
 10
153.601575
 20
210.305027
  0
LINE
  5
138
100
AcDbEntity
  8
0
  6
Continuous
 62
   174
100
AcDbLine
 10
164.208755
 20
168.151546
 30
0.0
 11
164.208755
 21
167.083297
 31
0.0
  0
LINE
  5
139
100
AcDbEntity
  8
0
  6
HIDDEN
 62
   174
100
AcDbLine
 10
153.572768
 20
205.776817
 30
0.0
 11
153.601575
 21
205.727367
 31
0.0
  0
LINE
  5
13A
100
AcDbEntity
  8
0
  6
Continuous
 62
   174
100
AcDbLine
 10
164.208755
 20
167.044137
 30
0.0
 11
170.408755
 21
167.044137
 31
0.0
  0
LINE
  5
13B
100
AcDbEntity
  8
0
  6
Continuous
 62
   174
100
AcDbLine
 10
175.434322
 20
219.726918
 30
0.0
 11
172.434454
 21
219.726918
 31
0.0
  0
LINE
  5
13C
100
AcDbEntity
  8
0
  6
HIDDEN
 62
   174
100
AcDbLine
 10
175.408755
 20
222.726918
 30
0.0
 11
183.508755
 21
222.726918
 31
0.0
  0
LINE
  5
13D
100
AcDbEntity
  8
0
  6
HIDDEN
 62
   174
100
AcDbLine
 10
251.558755
 20
186.476918
 30
0.0
 11
251.558755
 21
165.726918
 31
0.0
  0
LINE
  5
13E
100
AcDbEntity
  8
0
  6
Continuous
 62
   174
100
AcDbLine
 10
201.408755
 20
193.726918
 30
0.0
 11
201.408755
 21
219.726918
 31
0.0
  0
LINE
  5
13F
100
AcDbEntity
  8
0
  6
Continuous
 62
   174
100
AcDbLine
 10
175.408755
 20
219.726918
 30
0.0
 11
198.408755
 21
219.726918
 31
0.0
  0
LINE
  5
140
100
AcDbEntity
  8
0
  6
HIDDEN
 62
   174
100
AcDbLine
 10
222.28436
 20
165.726918
 30
0.0
 11
225.584335
 21
165.726918
 31
0.0
  0
LINE
  5
141
100
AcDbEntity
  8
0
  6
Continuous
 62
   174
100
AcDbLine
 10
153.601575
 20
219.304578
 30
0.0
 11
156.708755
 21
219.304578
 31
0.0
  0
LINE
  5
142
100
AcDbEntity
  8
0
  6
HIDDEN
 62
   174
100
AcDbLine
 10
172.434454
 20
193.726918
 30
0.0
 11
175.434322
 21
193.726918
 31
0.0
  0
LINE
  5
143
100
AcDbEntity
  8
0
  6
HIDDEN
 62
   174
100
AcDbLine
 10
225.558755
 20
186.476918
 30
0.0
 11
225.558755
 21
165.726918
 31
0.0
  0
LINE
  5
144
100
AcDbEntity
  8
0
  6
Continuous
 62
   174
100
AcDbLine
 10
153.058266
 20
222.449384
 30
0.0
 11
153.574921
 21
223.679085
 31
0.0
  0
LINE
  5
145
100
AcDbEntity
  8
0
  6
HIDDEN
 62
   174
100
AcDbLine
 10
225.558755
 20
186.476918
 30
0.0
 11
225.558755
 21
165.726918
 31
0.0
  0
LINE
  5
146
100
AcDbEntity
  8
0
  6
Continuous
 62
   174
100
AcDbLine
 10
152.908755
 20
213.835307
 30
0.0
 11
152.908755
 21
215.618529
 31
0.0
  0
LINE
  5
147
100
AcDbEntity
  8
0
  6
Continuous
 62
   174
100
AcDbLine
 10
152.908755
 20
213.87115
 30
0.0
 11
152.908755
 21
206.963282
 31
0.0
  0
LINE
  5
148
100
AcDbEntity
  8
0
  6
HIDDEN
 62
   174
100
AcDbLine
 10
190.308755
 20
222.726918
 30
0.0
 11
198.408755
 21
222.726918
 31
0.0
  0
LINE
  5
149
100
AcDbEntity
  8
0
  6
Continuous
 62
   174
100
AcDbLine
 10
255.908755
 20
165.726918
 30
0.0
 11
255.908755
 21
187.726918
 31
0.0
  0
LINE
  5
14A
100
AcDbEntity
  8
0
  6
HIDDEN
 62
   174
100
AcDbLine
 10
222.258755
 20
186.476918
 30
0.0
 11
222.258755
 21
165.726918
 31
0.0
  0
LINE
  5
14B
100
AcDbEntity
  8
0
  6
Continuous
 62
   174
100
AcDbLine
 10
201.434283
 20
219.726918
 30
0.0
 11
198.434415
 21
219.726918
 31
0.0
  0
LINE
  5
14C
100
AcDbEntity
  8
0
  6
HIDDEN
 62
   174
100
AcDbLine
 10
248.258755
 20
186.476918
 30
0.0
 11
248.258755
 21
165.726918
 31
0.0
  0
LINE
  5
14D
100
AcDbEntity
  8
0
  6
Continuous
 62
   174
100
AcDbLine
 10
164.208755
 20
174.265738
 30
0.0
 11
164.208755
 21
171.68704
 31
0.0
  0
LINE
  5
14E
100
AcDbEntity
  8
0
  6
Continuous
 62
   174
100
AcDbLine
 10
164.208755
 20
185.340797
 30
0.0
 11
170.408755
 21
185.340797
 31
0.0
  0
LINE
  5
14F
100
AcDbEntity
  8
0
  6
HIDDEN
 62
   174
100
AcDbLine
 10
164.208755
 20
181.808513
 30
0.0
 11
170.408755
 21
181.808513
 31
0.0
  0
ARC
  5
150
100
AcDbEntity
  8
0
  6
HIDDEN
 62
   174
100
AcDbCircle
 10
198.408755
 20
219.726918
 30
0.0
 40
3.0
100
AcDbArc
 50
0.0
 51
18.0
  0
LINE
  5
151
100
AcDbEntity
  8
0
  6
HIDDEN
 62
   174
100
AcDbLine
 10
226.934366
 20
186.476918
 30
0.0
 11
220.934329
 21
186.476918
 31
0.0
  0
LINE
  5
152
100
AcDbEntity
  8
0
  6
HIDDEN
 62
   174
100
AcDbLine
 10
156.708755
 20
210.305027
 30
0.0
 11
156.708755
 21
205.727367
 31
0.0
  0
LINE
  5
153
100
AcDbEntity
  8
0
  6
Continuous
 62
   174
100
AcDbLine
 10
164.208755
 20
171.647988
 30
0.0
 11
164.208755
 21
168.112199
 31
0.0
  0
LINE
  5
154
100
AcDbEntity
  8
0
  6
HIDDEN
 62
   174
100
AcDbLine
 10
189.908755
 20
222.726918
 30
0.0
 11
190.308755
 21
222.726918
 31
0.0
  0
ARC
  5
155
100
AcDbEntity
  8
0
  6
HIDDEN
 62
   174
100
AcDbCircle
 10
175.408755
 20
219.726918
 30
0.0
 40
3.0
100
AcDbArc
 50
90.0
 51
180.0
  0
LINE
  5
156
100
AcDbEntity
  8
0
  6
Continuous
 62
   174
100
AcDbLine
 10
170.408755
 20
166.766367
 30
0.0
 11
170.408755
 21
167.083297
 31
0.0
  0
LINE
  5
157
100
AcDbEntity
  8
0
  6
Continuous
 62
   174
100
AcDbLine
 10
170.408755
 20
186.446958
 30
0.0
 11
170.408755
 21
186.764789
 31
0.0
  0
LINE
  5
158
100
AcDbEntity
  8
0
  6
Continuous
 62
   174
100
AcDbLine
 10
164.208755
 20
171.647988
 30
0.0
 11
170.408755
 21
171.647988
 31
0.0
  0
LWPOLYLINE
  5
159
100
AcDbEntity
  8
0
  6
HIDDEN
 62
   174
100
AcDbPolyline
 90
        4
 70
   128
 10
153.572814
 20
223.677098
 10
153.273675
 20
223.100061
 10
153.04092
 20
222.488648
 10
152.908755
 20
221.883444
  0
LINE
  5
15A
100
AcDbEntity
  8
0
  6
HIDDEN
 62
   174
100
AcDbLine
 10
225.558755
 20
186.476918
 30
0.0
 11
225.558755
 21
165.726918
 31
0.0
  0
LINE
  5
15B
100
AcDbEntity
  8
0
  6
HIDDEN
 62
   174
100
AcDbLine
 10
251.558755
 20
186.476918
 30
0.0
 11
251.558755
 21
165.726918
 31
0.0
  0
LINE
  5
15C
100
AcDbEntity
  8
0
  6
HIDDEN
 62
   174
100
AcDbLine
 10
170.408755
 20
168.113966
 30
0.0
 11
170.408755
 21
171.650984
 31
0.0
  0
LINE
  5
15D
100
AcDbEntity
  8
0
  6
HIDDEN
 62
   174
100
AcDbLine
 10
156.708755
 20
210.305027
 30
0.0
 11
156.708755
 21
219.148809
 31
0.0
  0
LINE
  5
15E
100
AcDbEntity
  8
0
  6
HIDDEN
 62
   174
100
AcDbLine
 10
189.165023
 20
222.726918
 30
0.0
 11
189.908755
 21
222.726918
 31
0.0
  0
LINE
  5
15F
100
AcDbEntity
  8
0
  6
Continuous
 62
   174
100
AcDbLine
 10
217.908755
 20
165.726918
 30
0.0
 11
255.908755
 21
165.726918
 31
0.0
  0
LINE
  5
160
100
AcDbEntity
  8
0
  6
Continuous
 62
   174
100
AcDbLine
 10
164.208755
 20
181.805518
 30
0.0
 11
170.408755
 21
181.805518
 31
0.0
  0
LINE
  5
161
100
AcDbEntity
  8
0
  6
Continuous
 62
   174
100
AcDbLine
 10
172.408755
 20
211.943036
 30
0.0
 11
172.408755
 21
193.726918
 31
0.0
  0
LINE
  5
162
100
AcDbEntity
  8
0
  6
HIDDEN
 62
   174
100
AcDbLine
 10
201.434283
 20
219.726918
 30
0.0
 11
198.434415
 21
219.726918
 31
0.0
  0
ARC
  5
163
100
AcDbEntity
  8
0
  6
Continuous
 62
   174
100
AcDbCircle
 10
198.408755
 20
219.726918
 30
0.0
 40
3.0
100
AcDbArc
 50
-324.0
 51
-306.0
  0
LINE
  5
164
100
AcDbEntity
  8
0
  6
HIDDEN
 62
   174
100
AcDbLine
 10
248.258755
 20
186.476918
 30
0.0
 11
248.258755
 21
165.726918
 31
0.0
  0
LINE
  5
165
100
AcDbEntity
  8
0
  6
Continuous
 62
   174
100
AcDbLine
 10
198.408755
 20
219.726918
 30
0.0
 11
198.408755
 21
193.726918
 31
0.0
  0
LINE
  5
166
100
AcDbEntity
  8
0
  6
HIDDEN
 62
   174
100
AcDbLine
 10
175.408755
 20
219.76244
 30
0.0
 11
175.408755
 21
222.762308
 31
0.0
  0
LINE
  5
167
100
AcDbEntity
  8
0
  6
Continuous
 62
   174
100
AcDbLine
 10
153.601575
 20
205.727367
 30
0.0
 11
153.574102
 21
205.776204
 31
0.0
  0
LWPOLYLINE
  5
168
100
AcDbEntity
  8
0
  6
HIDDEN
 62
   174
100
AcDbPolyline
 90
        4
 70
   128
 10
152.908755
 20
220.991833
 10
153.041875
 20
220.383474
 10
153.274958
 20
219.772399
 10
153.601575
 20
219.148809
  0
LINE
  5
169
100
AcDbEntity
  8
0
  6
HIDDEN
 62
   174
100
AcDbLine
 10
153.601575
 20
223.726469
 30
0.0
 11
153.572724
 21
223.676945
 31
0.0
  0
LINE
  5
16A
100
AcDbEntity
  8
0
  6
HIDDEN
 62
   174
100
AcDbLine
 10
188.72616
 20
222.726918
 30
0.0
 11
189.165023
 21
222.726918
 31
0.0
  0
LINE
  5
16B
100
AcDbEntity
  8
0
  6
HIDDEN
 62
   174
100
AcDbLine
 10
172.408755
 20
217.5108
 30
0.0
 11
172.408755
 21
219.726918
 31
0.0
  0
LINE
  5
16C
100
AcDbEntity
  8
0
  6
HIDDEN
 62
   174
100
AcDbLine
 10
164.208755
 20
171.650984
 30
0.0
 11
170.408755
 21
171.650984
 31
0.0
  0
LINE
  5
16D
100
AcDbEntity
  8
0
  6
Continuous
 62
   174
100
AcDbLine
 10
164.208755
 20
179.226918
 30
0.0
 11
164.208755
 21
174.226918
 31
0.0
  0
LINE
  5
16E
100
AcDbEntity
  8
0
  6
HIDDEN
 62
   174
100
AcDbLine
 10
175.408755
 20
193.726918
 30
0.0
 11
175.408755
 21
219.726918
 31
0.0
  0
LINE
  5
16F
100
AcDbEntity
  8
0
  6
HIDDEN
 62
   174
100
AcDbLine
 10
198.408755
 20
193.726918
 30
0.0
 11
175.408755
 21
193.726918
 31
0.0
  0
LINE
  5
170
100
AcDbEntity
  8
0
  6
Continuous
 62
   174
100
AcDbLine
 10
171.908755
 20
165.726918
 30
0.0
 11
171.908755
 21
193.726918
 31
0.0
  0
LWPOLYLINE
  5
171
100
AcDbEntity
  8
0
  6
HIDDEN
 62
   174
100
AcDbPolyline
 90
        4
 70
   128
 10
172.408755
 20
211.943036
 10
172.421314
 20
212.839737
 10
172.441719
 20
213.777891
 10
172.450715
 20
214.726918
  0
LINE
  5
172
100
AcDbEntity
  8
0
  6
HIDDEN
 62
   174
100
AcDbLine
 10
251.558755
 20
186.476918
 30
0.0
 11
251.558755
 21
165.726918
 31
0.0
  0
LINE
  5
173
100
AcDbEntity
  8
0
  6
HIDDEN
 62
   174
100
AcDbLine
 10
156.708755
 20
210.305027
 30
0.0
 11
153.601575
 21
210.305027
 31
0.0
  0
LINE
  5
174
100
AcDbEntity
  8
0
  6
HIDDEN
 62
   174
100
AcDbLine
 10
164.208755
 20
185.342562
 30
0.0
 11
170.408755
 21
185.342562
 31
0.0
  0
LINE
  5
175
100
AcDbEntity
  8
0
  6
HIDDEN
 62
   174
100
AcDbLine
 10
186.908755
 20
222.726918
 30
0.0
 11
188.72616
 21
222.726918
 31
0.0
  0
ARC
  5
176
100
AcDbEntity
  8
0
  6
Continuous
 62
   174
100
AcDbCircle
 10
198.408755
 20
219.726918
 30
0.0
 40
3.0
100
AcDbArc
 50
-342.0
 51
-324.0
  0
LINE
  5
177
100
AcDbEntity
  8
0
  6
Continuous
 62
   174
100
AcDbLine
 10
170.408755
 20
174.265738
 30
0.0
 11
170.408755
 21
178.261456
 31
0.0
  0
LWPOLYLINE
  5
178
100
AcDbEntity
  8
0
  6
Continuous
 62
   174
100
AcDbPolyline
 90
        6
 70
   128
 10
153.058095
 20
207.005088
 10
153.007351
 20
207.216104
 10
152.930447
 20
207.938353
 10
153.007365
 20
208.660592
 10
153.235466
 20
209.397611
 10
153.601575
 20
210.149258
  0
LINE
  5
179
100
AcDbEntity
  8
0
  6
Continuous
 62
   174
100
AcDbLine
 10
175.408755
 20
219.76244
 30
0.0
 11
175.408755
 21
222.762308
 31
0.0
  0
LWPOLYLINE
  5
17A
100
AcDbEntity
  8
0
  6
Continuous
 62
   174
100
AcDbPolyline
 90
        4
 70
   128
 10
152.908755
 20
215.618529
 10
153.041875
 20
216.835245
 10
153.274961
 20
218.057408
 10
153.601575
 20
219.304578
  0
LINE
  5
17B
100
AcDbEntity
  8
0
  6
HIDDEN
 62
   174
100
AcDbLine
 10
220.934329
 20
187.726918
 30
0.0
 11
222.735271
 21
187.726918
 31
0.0
  0
LINE
  5
17C
100
AcDbEntity
  8
0
  6
Continuous
 62
   174
100
AcDbLine
 10
164.208755
 20
174.226918
 30
0.0
 11
170.408755
 21
174.226918
 31
0.0
  0
LINE
  5
17D
100
AcDbEntity
  8
0
  6
HIDDEN
 62
   174
100
AcDbLine
 10
156.708755
 20
223.726469
 30
0.0
 11
156.708755
 21
219.148809
 31
0.0
  0
LINE
  5
17E
100
AcDbEntity
  8
0
  6
HIDDEN
 62
   174
100
AcDbLine
 10
175.434322
 20
219.726918
 30
0.0
 11
172.434454
 21
219.726918
 31
0.0
  0
LINE
  5
17F
100
AcDbEntity
  8
0
  6
HIDDEN
 62
   174
100
AcDbLine
 10
201.434283
 20
193.726918
 30
0.0
 11
198.434415
 21
193.726918
 31
0.0
  0
LINE
  5
180
100
AcDbEntity
  8
0
  6
Continuous
 62
   174
100
AcDbLine
 10
198.408755
 20
219.76244
 30
0.0
 11
198.408755
 21
222.762308
 31
0.0
  0
LINE
  5
181
100
AcDbEntity
  8
0
  6
HIDDEN
 62
   174
100
AcDbLine
 10
222.28436
 20
165.726918
 30
0.0
 11
225.584335
 21
165.726918
 31
0.0
  0
LINE
  5
182
100
AcDbEntity
  8
0
  6
HIDDEN
 62
   174
100
AcDbLine
 10
172.408755
 20
206.763511
 30
0.0
 11
172.408755
 21
211.979184
 31
0.0
  0
LINE
  5
183
100
AcDbEntity
  8
0
  6
HIDDEN
 62
   174
100
AcDbLine
 10
198.408755
 20
193.726918
 30
0.0
 11
198.408755
 21
219.726918
 31
0.0
  0
LINE
  5
184
100
AcDbEntity
  8
0
  6
Continuous
 62
   174
100
AcDbLine
 10
164.208755
 20
179.226918
 30
0.0
 11
170.408755
 21
179.226918
 31
0.0
  0
LINE
  5
185
100
AcDbEntity
  8
0
  6
HIDDEN
 62
   174
100
AcDbLine
 10
184.931572
 20
222.726918
 30
0.0
 11
186.908755
 21
222.726918
 31
0.0
  0
ARC
  5
186
100
AcDbEntity
  8
0
  6
Continuous
 62
   174
100
AcDbCircle
 10
198.408755
 20
219.726918
 30
0.0
 40
3.0
100
AcDbArc
 50
0.0
 51
90.0
  0
LINE
  5
187
100
AcDbEntity
  8
0
  6
HIDDEN
 62
   174
100
AcDbLine
 10
170.408755
 20
174.230285
 30
0.0
 11
170.408755
 21
179.230284
 31
0.0
  0
ARC
  5
188
100
AcDbEntity
  8
0
  6
Continuous
 62
   174
100
AcDbCircle
 10
175.408755
 20
219.726918
 30
0.0
 40
3.0
100
AcDbArc
 50
-270.0
 51
-180.0
  0
LWPOLYLINE
  5
189
100
AcDbEntity
  8
0
  6
HIDDEN
 62
   174
100
AcDbPolyline
 90
        4
 70
   128
 10
172.408755
 20
217.5108
 10
172.421315
 20
216.614065
 10
172.44172
 20
215.675911
 10
172.450715
 20
214.726918
  0
LWPOLYLINE
  5
18A
100
AcDbEntity
  8
0
  6
Continuous
 62
   174
100
AcDbPolyline
 90
        4
 70
   128
 10
172.450715
 20
214.726918
 10
172.44172
 20
215.675901
 10
172.421315
 20
216.614067
 10
172.408755
 20
217.5108
  0
ARC
  5
18B
100
AcDbEntity
  8
0
  6
HIDDEN
 62
   174
100
AcDbCircle
 10
198.408755
 20
219.726918
 30
0.0
 40
3.0
100
AcDbArc
 50
-288.0
 51
-270.0
  0
LINE
  5
18C
100
AcDbEntity
  8
0
  6
HIDDEN
 62
   174
100
AcDbLine
 10
248.284321
 20
165.726918
 30
0.0
 11
251.584296
 21
165.726918
 31
0.0
  0
LINE
  5
18D
100
AcDbEntity
  8
0
  6
Continuous
 62
   174
100
AcDbLine
 10
152.908755
 20
222.562237
 30
0.0
 11
152.908755
 21
215.654368
 31
0.0
  0
LINE
  5
18E
100
AcDbEntity
  8
0
  6
Continuous
 62
   174
100
AcDbLine
 10
156.708755
 20
223.726469
 30
0.0
 11
153.601575
 21
223.726469
 31
0.0
  0
LINE
  5
18F
100
AcDbEntity
  8
0
  6
HIDDEN
 62
   174
100
AcDbLine
 10
183.90908
 20
222.726918
 30
0.0
 11
184.931572
 21
222.726918
 31
0.0
  0
LINE
  5
190
100
AcDbEntity
  8
0
  6
Continuous
 62
   174
100
AcDbLine
 10
170.408755
 20
178.261456
 30
0.0
 11
170.408755
 21
179.265418
 31
0.0
  0
LINE
  5
191
100
AcDbEntity
  8
0
  6
HIDDEN
 62
   174
100
AcDbLine
 10
225.133424
 20
187.726918
 30
0.0
 11
226.934366
 21
187.726918
 31
0.0
  0
LINE
  5
192
100
AcDbEntity
  8
0
  6
HIDDEN
 62
   174
100
AcDbLine
 10
198.408755
 20
219.726918
 30
0.0
 11
175.408755
 21
219.726918
 31
0.0
  0
LWPOLYLINE
  5
193
100
AcDbEntity
  8
0
  6
Continuous
 62
   174
100
AcDbPolyline
 90
        6
 70
   128
 10
153.601575
 20
219.304578
 10
153.235449
 20
220.056268
 10
153.007351
 20
220.793315
 10
152.930447
 20
221.515563
 10
153.007365
 20
222.237802
 10
153.058266
 20
222.449384
  0
LINE
  5
194
100
AcDbEntity
  8
0
  6
HIDDEN
 62
   174
100
AcDbLine
 10
248.284321
 20
165.726918
 30
0.0
 11
251.584296
 21
165.726918
 31
0.0
  0
LINE
  5
195
100
AcDbEntity
  8
0
  6
Continuous
 62
   174
100
AcDbLine
 10
164.208755
 20
181.843815
 30
0.0
 11
164.208755
 21
179.265418
 31
0.0
  0
LINE
  5
196
100
AcDbEntity
  8
0
  6
Continuous
 62
   174
100
AcDbLine
 10
153.574897
 20
205.774793
 30
0.0
 11
153.058095
 21
207.005088
 31
0.0
  0
LINE
  5
197
100
AcDbEntity
  8
0
  6
Continuous
 62
   174
100
AcDbLine
 10
175.408755
 20
219.726918
 30
0.0
 11
175.408755
 21
193.726918
 31
0.0
  0
LINE
  5
198
100
AcDbEntity
  8
0
  6
Continuous
 62
   174
100
AcDbLine
 10
170.408755
 20
181.843815
 30
0.0
 11
170.408755
 21
185.378709
 31
0.0
  0
LINE
  5
199
100
AcDbEntity
  8
0
  6
Continuous
 62
   174
100
AcDbLine
 10
201.908755
 20
193.726918
 30
0.0
 11
201.908755
 21
187.726918
 31
0.0
  0
LINE
  5
19A
100
AcDbEntity
  8
0
  6
HIDDEN
 62
   174
100
AcDbLine
 10
248.258755
 20
186.476918
 30
0.0
 11
248.258755
 21
165.726918
 31
0.0
  0
LINE
  5
19B
100
AcDbEntity
  8
0
  6
Continuous
 62
   174
100
AcDbLine
 10
217.908755
 20
165.726918
 30
0.0
 11
217.908755
 21
187.726918
 31
0.0
  0
LINE
  5
19C
100
AcDbEntity
  8
0
  6
Continuous
 62
   174
100
AcDbLine
 10
172.408755
 20
219.726918
 30
0.0
 11
172.408755
 21
217.5108
 31
0.0
  0
LWPOLYLINE
  5
19D
100
AcDbEntity
  8
0
  6
Continuous
 62
   174
100
AcDbPolyline
 90
        4
 70
   128
 10
172.450715
 20
214.726918
 10
172.44172
 20
213.777911
 10
172.421314
 20
212.839745
 10
172.408755
 20
211.943036
  0
LINE
  5
19E
100
AcDbEntity
  8
0
  6
HIDDEN
 62
   174
100
AcDbLine
 10
183.508755
 20
222.726918
 30
0.0
 11
183.90908
 21
222.726918
 31
0.0
  0
LINE
  5
19F
100
AcDbEntity
  8
0
  6
HIDDEN
 62
   174
100
AcDbLine
 10
222.258755
 20
186.476918
 30
0.0
 11
222.258755
 21
165.726918
 31
0.0
  0
LINE
  5
1A0
100
AcDbEntity
  8
0
  6
Continuous
 62
   174
100
AcDbLine
 10
170.408755
 20
186.726918
 30
0.0
 11
171.908755
 21
186.726918
 31
0.0
  0
ARC
  5
1A1
100
AcDbEntity
  8
0
  6
HIDDEN
 62
   174
100
AcDbCircle
 10
198.408755
 20
219.726918
 30
0.0
 40
3.0
100
AcDbArc
 50
-306.0
 51
-288.0
  0
LINE
  5
1A2
100
AcDbEntity
  8
0
  6
HIDDEN
 62
   174
100
AcDbLine
 10
172.408755
 20
219.76244
 30
0.0
 11
172.408755
 21
217.546334
 31
0.0
  0
LINE
  5
1A3
100
AcDbEntity
  8
0
  6
HIDDEN
 62
   174
100
AcDbLine
 10
164.208755
 20
168.113966
 30
0.0
 11
170.408755
 21
168.113966
 31
0.0
  0
LINE
  5
1A4
100
AcDbEntity
  8
0
  6
Continuous
 62
   174
100
AcDbLine
 10
164.208755
 20
186.409054
 30
0.0
 11
170.408755
 21
186.409054
 31
0.0
  0
LINE
  5
1A5
100
AcDbEntity
  8
0
  6
Continuous
 62
   174
100
AcDbLine
 10
201.908755
 20
187.726918
 30
0.0
 11
201.908755
 21
165.726918
 31
0.0
  0
LINE
  5
1A6
100
AcDbEntity
  8
0
  6
HIDDEN
 62
   174
100
AcDbLine
 10
201.408755
 20
219.726918
 30
0.0
 11
201.408755
 21
193.726918
 31
0.0
  0
LINE
  5
1A7
100
AcDbEntity
  8
0
  6
HIDDEN
 62
   174
100
AcDbLine
 10
251.558755
 20
186.476918
 30
0.0
 11
251.558755
 21
165.726918
 31
0.0
  0
LINE
  5
1A8
100
AcDbEntity
  8
0
  6
HIDDEN
 62
   174
100
AcDbLine
 10
198.408755
 20
219.76244
 30
0.0
 11
198.408755
 21
222.762308
 31
0.0
  0
LWPOLYLINE
  5
1A9
100
AcDbEntity
  8
0
  6
HIDDEN
 62
   174
100
AcDbPolyline
 90
        4
 70
   128
 10
152.908755
 20
207.570392
 10
153.041875
 20
206.962033
 10
153.274958
 20
206.350958
 10
153.572854
 20
205.776668
  0
LINE
  5
1AA
100
AcDbEntity
  8
0
  6
Continuous
 62
   174
100
AcDbLine
 10
164.208755
 20
168.112199
 30
0.0
 11
170.408755
 21
168.112199
 31
0.0
  0
LINE
  5
1AB
100
AcDbEntity
  8
0
  6
Continuous
 62
   174
100
AcDbLine
 10
170.408755
 20
168.151546
 30
0.0
 11
170.408755
 21
171.68704
 31
0.0
  0
LINE
  5
1AC
100
AcDbEntity
  8
0
  6
HIDDEN
 62
   174
100
AcDbLine
 10
225.558755
 20
186.476918
 30
0.0
 11
225.558755
 21
165.726918
 31
0.0
  0
LINE
  5
1AD
100
AcDbEntity
  8
0
  6
Continuous
 62
   174
100
AcDbLine
 10
156.708755
 20
205.727367
 30
0.0
 11
153.601575
 21
205.727367
 31
0.0
  0
LINE
  5
1AE
100
AcDbEntity
  8
0
  6
HIDDEN
 62
   174
100
AcDbLine
 10
156.708755
 20
219.148809
 30
0.0
 11
153.601575
 21
219.148809
 31
0.0
  0
LINE
  5
1AF
100
AcDbEntity
  8
0
  6
Continuous
 62
   174
100
AcDbLine
 10
164.208755
 20
185.340797
 30
0.0
 11
164.208755
 21
181.805518
 31
0.0
  0
LINE
  5
1B0
100
AcDbEntity
  8
0
  6
Continuous
 62
   174
100
AcDbLine
 10
170.408755
 20
166.726918
 30
0.0
 11
171.908755
 21
166.726918
 31
0.0
  0
LINE
  5
1B1
100
AcDbEntity
  8
0
  6
Continuous
 62
   174
100
AcDbLine
 10
198.408755
 20
222.726918
 30
0.0
 11
175.408755
 21
222.726918
 31
0.0
  0
LWPOLYLINE
  5
1B2
100
AcDbEntity
  8
0
  6
HIDDEN
 62
   174
100
AcDbPolyline
 90
        4
 70
   128
 10
153.601575
 20
210.305027
 10
153.273675
 20
209.67862
 10
153.04092
 20
209.067207
 10
152.908755
 20
208.462003
  0
LINE
  5
1B3
100
AcDbEntity
  8
0
  6
Continuous
 62
   174
100
AcDbLine
 10
153.574135
 20
223.677675
 30
0.0
 11
153.601575
 21
223.726469
 31
0.0
  0
ENDBLK
  5
1B4
100
AcDbEntity
  8
0
100
AcDbBlockEnd
  0
BLOCK
  5
1B7
100
AcDbEntity
  8
0
100
AcDbBlockBegin
  2
*B3
 70
     0
 10
0.0
 20
0.0
 30
0.0
  3
*B3
  1

  0
LINE
  5
1B8
100
AcDbEntity
  8
0
  6
Continuous
 62
   172
100
AcDbLine
 10
197.659651
 20
133.152053
 30
0.0
 11
187.849675
 21
133.152053
 31
0.0
  0
LINE
  5
1B9
100
AcDbEntity
  8
0
  6
Continuous
 62
   172
100
AcDbLine
 10
211.034837
 20
110.407061
 30
0.0
 11
197.659651
 21
133.152053
 31
0.0
  0
ENDBLK
  5
1BA
100
AcDbEntity
  8
0
100
AcDbBlockEnd
  0
BLOCK
  5
1BD
100
AcDbEntity
  8
0
100
AcDbBlockBegin
  2
*B4
 70
     0
 10
0.0
 20
0.0
 30
0.0
  3
*B4
  1

  0
LINE
  5
1BE
100
AcDbEntity
  8
0
  6
Continuous
 62
   172
100
AcDbLine
 10
195.621303
 20
135.279537
 30
0.0
 11
193.521303
 21
136.051164
 31
0.0
  0
LINE
  5
1BF
100
AcDbEntity
  8
0
  6
Continuous
 62
   172
100
AcDbLine
 10
195.621303
 20
135.279537
 30
0.0
 11
193.521303
 21
134.651164
 31
0.0
  0
LINE
  5
1C0
100
AcDbEntity
  8
0
  6
Continuous
 62
   172
100
AcDbLine
 10
194.221303
 20
135.279537
 30
0.0
 11
195.621303
 21
135.279537
 31
0.0
  0
LINE
  5
1C1
100
AcDbEntity
  8
0
  6
Continuous
 62
   172
100
AcDbLine
 10
195.621303
 20
147.322792
 30
0.0
 11
193.521303
 21
146.551164
 31
0.0
  0
LINE
  5
1C2
100
AcDbEntity
  8
0
  6
Continuous
 62
   172
100
AcDbLine
 10
195.621303
 20
147.322792
 30
0.0
 11
193.521303
 21
147.951164
 31
0.0
  0
LINE
  5
1C3
100
AcDbEntity
  8
0
  6
Continuous
 62
   172
100
AcDbLine
 10
194.221303
 20
147.322792
 30
0.0
 11
195.621303
 21
147.322792
 31
0.0
  0
ARC
  5
1C4
100
AcDbEntity
  8
0
  6
Continuous
 62
   172
100
AcDbCircle
 10
194.221303
 20
141.301164
 30
0.0
 40
6.021628
100
AcDbArc
 50
-270.0
 51
-90.0
  0
ENDBLK
  5
1C5
100
AcDbEntity
  8
0
100
AcDbBlockEnd
  0
BLOCK
  5
1C8
100
AcDbEntity
  8
0
100
AcDbBlockBegin
  2
*B5
 70
     0
 10
0.0
 20
0.0
 30
0.0
  3
*B5
  1

  0
ENDBLK
  5
1C9
100
AcDbEntity
  8
0
100
AcDbBlockEnd
  0
BLOCK
  5
1CB
100
AcDbEntity
  8
0
100
AcDbBlockBegin
  2
*B6
 70
     0
 10
0.0
 20
0.0
 30
0.0
  3
*B6
  1

  0
LINE
  5
1CC
100
AcDbEntity
  8
0
  6
Continuous
 62
   172
100
AcDbLine
 10
175.51652
 20
167.434141
 30
0.0
 11
154.876496
 21
132.33503
 31
0.0
  0
LINE
  5
1CD
100
AcDbEntity
  8
0
  6
Continuous
 62
   172
100
AcDbLine
 10
154.876496
 20
132.33503
 30
0.0
 11
145.06652
 21
132.33503
 31
0.0
  0
ENDBLK
  5
1CE
100
AcDbEntity
  8
0
100
AcDbBlockEnd
  0
BLOCK
  5
1D1
100
AcDbEntity
  8
0
100
AcDbBlockBegin
  2
*B7
 70
     0
 10
0.0
 20
0.0
 30
0.0
  3
*B7
  1

  0
LINE
  5
1D2
100
AcDbEntity
  8
0
  6
Continuous
 62
   172
100
AcDbLine
 10
152.838148
 20
134.462514
 30
0.0
 11
150.738148
 21
135.234141
 31
0.0
  0
LINE
  5
1D3
100
AcDbEntity
  8
0
  6
Continuous
 62
   172
100
AcDbLine
 10
152.838148
 20
134.462514
 30
0.0
 11
150.738148
 21
133.834141
 31
0.0
  0
LINE
  5
1D4
100
AcDbEntity
  8
0
  6
Continuous
 62
   172
100
AcDbLine
 10
151.438148
 20
134.462514
 30
0.0
 11
152.838148
 21
134.462514
 31
0.0
  0
LINE
  5
1D5
100
AcDbEntity
  8
0
  6
Continuous
 62
   172
100
AcDbLine
 10
152.838148
 20
146.505769
 30
0.0
 11
150.738148
 21
145.734141
 31
0.0
  0
LINE
  5
1D6
100
AcDbEntity
  8
0
  6
Continuous
 62
   172
100
AcDbLine
 10
152.838148
 20
146.505769
 30
0.0
 11
150.738148
 21
147.134141
 31
0.0
  0
LINE
  5
1D7
100
AcDbEntity
  8
0
  6
Continuous
 62
   172
100
AcDbLine
 10
151.438148
 20
146.505769
 30
0.0
 11
152.838148
 21
146.505769
 31
0.0
  0
ARC
  5
1D8
100
AcDbEntity
  8
0
  6
Continuous
 62
   172
100
AcDbCircle
 10
151.438148
 20
140.484141
 30
0.0
 40
6.021628
100
AcDbArc
 50
-270.0
 51
-90.0
  0
ENDBLK
  5
1D9
100
AcDbEntity
  8
0
100
AcDbBlockEnd
  0
BLOCK
  5
1DC
100
AcDbEntity
  8
0
100
AcDbBlockBegin
  2
*B8
 70
     0
 10
0.0
 20
0.0
 30
0.0
  3
*B8
  1

  0
ENDBLK
  5
1DD
100
AcDbEntity
  8
0
100
AcDbBlockEnd
  0
BLOCK
  5
1DF
100
AcDbEntity
  8
0
100
AcDbBlockBegin
  2
*B9
 70
     0
 10
0.0
 20
0.0
 30
0.0
  3
*B9
  1

  0
LINE
  5
1E0
100
AcDbEntity
  8
0
  6
Continuous
 62
     0
100
AcDbLine
 10
282.02548
 20
187.764845
 30
0.0
 11
282.02548
 21
165.766311
 31
0.0
  0
SOLID
  5
1E1
100
AcDbEntity
  8
0
  6
Continuous
 62
     0
100
AcDbTrace
 10
283.025537
 20
182.765164
 30
0.0
 11
282.02548
 21
187.764845
 31
0.0
 12
281.025724
 22
182.765164
 32
0.0
 13
281.025724
 23
182.765164
 33
0.0
  0
SOLID
  5
1E2
100
AcDbEntity
  8
0
  6
Continuous
 62
     0
100
AcDbTrace
 10
281.025724
 20
170.765991
 30
0.0
 11
282.02548
 21
165.766311
 31
0.0
 12
283.025537
 22
170.765991
 32
0.0
 13
283.025537
 23
170.765991
 33
0.0
  0
ENDBLK
  5
1E3
100
AcDbEntity
  8
0
100
AcDbBlockEnd
  0
BLOCK
  5
1E6
100
AcDbEntity
  8
0
100
AcDbBlockBegin
  2
*B10
 70
     0
 10
0.0
 20
0.0
 30
0.0
  3
*B10
  1

  0
LINE
  5
1E7
100
AcDbEntity
  8
0
  6
Continuous
 62
     0
100
AcDbLine
 10
283.025537
 20
118.925886
 30
0.0
 11
283.025537
 21
82.428489
 31
0.0
  0
SOLID
  5
1E8
100
AcDbEntity
  8
0
  6
Continuous
 62
     0
100
AcDbTrace
 10
282.02548
 20
113.926206
 30
0.0
 11
283.025537
 21
108.926525
 31
0.0
 12
284.025593
 22
113.926206
 32
0.0
 13
284.025593
 23
113.926206
 33
0.0
  0
SOLID
  5
1E9
100
AcDbEntity
  8
0
  6
Continuous
 62
     0
100
AcDbTrace
 10
284.025593
 20
87.428169
 30
0.0
 11
283.025537
 21
92.42785
 31
0.0
 12
282.02548
 22
87.428169
 32
0.0
 13
282.02548
 23
87.428169
 33
0.0
  0
ENDBLK
  5
1EA
100
AcDbEntity
  8
0
100
AcDbBlockEnd
  0
BLOCK
  5
1ED
100
AcDbEntity
  8
0
100
AcDbBlockBegin
  2
*B11
 70
     0
 10
0.0
 20
0.0
 30
0.0
  3
*B11
  1

  0
LINE
  5
1EE
100
AcDbEntity
  8
0
  6
Continuous
 62
     0
100
AcDbLine
 10
271.025462
 20
116.676135
 30
0.0
 11
271.025462
 21
84.67824
 31
0.0
  0
SOLID
  5
1EF
100
AcDbEntity
  8
0
  6
Continuous
 62
     0
100
AcDbTrace
 10
270.025706
 20
111.676455
 30
0.0
 11
271.025462
 21
106.676774
 31
0.0
 12
272.025518
 22
111.676455
 32
0.0
 13
272.025518
 23
111.676455
 33
0.0
  0
SOLID
  5
1F0
100
AcDbEntity
  8
0
  6
Continuous
 62
     0
100
AcDbTrace
 10
272.025518
 20
89.67792
 30
0.0
 11
271.025462
 21
94.677601
 31
0.0
 12
270.025706
 22
89.67792
 32
0.0
 13
270.025706
 23
89.67792
 33
0.0
  0
ENDBLK
  5
1F1
100
AcDbEntity
  8
0
100
AcDbBlockEnd
  0
BLOCK
  5
1F4
100
AcDbEntity
  8
0
100
AcDbBlockBegin
  2
*B12
 70
     0
 10
0.0
 20
0.0
 30
0.0
  3
*B12
  1

  0
LINE
  5
1F5
100
AcDbEntity
  8
0
  6
Continuous
 62
     0
100
AcDbLine
 10
201.934462
 20
236.034307
 30
0.0
 11
255.934496
 21
236.034307
 31
0.0
  0
SOLID
  5
1F6
100
AcDbEntity
  8
0
  6
Continuous
 62
     0
100
AcDbTrace
 10
206.934443
 20
237.034364
 30
0.0
 11
201.934462
 21
236.034307
 31
0.0
 12
206.934443
 22
235.034552
 32
0.0
 13
206.934443
 23
235.034552
 33
0.0
  0
SOLID
  5
1F7
100
AcDbEntity
  8
0
  6
Continuous
 62
     0
100
AcDbTrace
 10
250.934515
 20
235.034552
 30
0.0
 11
255.934496
 21
236.034307
 31
0.0
 12
250.934515
 22
237.034364
 32
0.0
 13
250.934515
 23
237.034364
 33
0.0
  0
ENDBLK
  5
1F8
100
AcDbEntity
  8
0
100
AcDbBlockEnd
  0
BLOCK
  5
1FB
100
AcDbEntity
  8
0
100
AcDbBlockBegin
  2
*B13
 70
     0
 10
0.0
 20
0.0
 30
0.0
  3
*B13
  1

  0
LINE
  5
1FC
100
AcDbEntity
  8
0
  6
Continuous
 62
     0
100
AcDbLine
 10
220.934329
 20
76.045732
 30
0.0
 11
252.934327
 21
76.045732
 31
0.0
  0
SOLID
  5
1FD
100
AcDbEntity
  8
0
  6
Continuous
 62
     0
100
AcDbTrace
 10
225.93431
 20
75.045977
 30
0.0
 11
230.934291
 21
76.045732
 31
0.0
 12
225.93431
 22
77.045789
 32
0.0
 13
225.93431
 23
77.045789
 33
0.0
  0
SOLID
  5
1FE
100
AcDbEntity
  8
0
  6
Continuous
 62
     0
100
AcDbTrace
 10
247.934346
 20
77.045789
 30
0.0
 11
242.934365
 21
76.045732
 31
0.0
 12
247.934346
 22
75.045977
 32
0.0
 13
247.934346
 23
75.045977
 33
0.0
  0
ENDBLK
  5
1FF
100
AcDbEntity
  8
0
100
AcDbBlockEnd
  0
BLOCK
  5
202
100
AcDbEntity
  8
0
100
AcDbBlockBegin
  2
*B14
 70
     0
 10
0.0
 20
0.0
 30
0.0
  3
*B14
  1

  0
LINE
  5
203
100
AcDbEntity
  8
0
  6
Continuous
 62
     0
100
AcDbLine
 10
223.934498
 20
137.041354
 30
0.0
 11
249.934459
 21
137.041354
 31
0.0
  0
SOLID
  5
204
100
AcDbEntity
  8
0
  6
Continuous
 62
     0
100
AcDbTrace
 10
228.934479
 20
138.04141
 30
0.0
 11
223.934498
 21
137.041354
 31
0.0
 12
228.934479
 22
136.041598
 32
0.0
 13
228.934479
 23
136.041598
 33
0.0
  0
SOLID
  5
205
100
AcDbEntity
  8
0
  6
Continuous
 62
     0
100
AcDbTrace
 10
244.934478
 20
136.041598
 30
0.0
 11
249.934459
 21
137.041354
 31
0.0
 12
244.934478
 22
138.04141
 32
0.0
 13
244.934478
 23
138.04141
 33
0.0
  0
ENDBLK
  5
206
100
AcDbEntity
  8
0
100
AcDbBlockEnd
  0
BLOCK
  5
209
100
AcDbEntity
  8
0
100
AcDbBlockBegin
  2
*B15
 70
     0
 10
0.0
 20
0.0
 30
0.0
  3
*B15
  1

  0
LINE
  5
20A
100
AcDbEntity
  8
0
  6
Continuous
 62
     0
100
AcDbLine
 10
142.025714
 20
111.676455
 30
0.0
 11
142.025714
 21
89.67792
 31
0.0
  0
SOLID
  5
20B
100
AcDbEntity
  8
0
  6
Continuous
 62
     0
100
AcDbTrace
 10
143.02577
 20
106.676774
 30
0.0
 11
142.025714
 21
111.676455
 31
0.0
 12
141.025658
 22
106.676774
 32
0.0
 13
141.025658
 23
106.676774
 33
0.0
  0
SOLID
  5
20C
100
AcDbEntity
  8
0
  6
Continuous
 62
     0
100
AcDbTrace
 10
141.025658
 20
94.677601
 30
0.0
 11
142.025714
 21
89.67792
 31
0.0
 12
143.02577
 22
94.677601
 32
0.0
 13
143.02577
 23
94.677601
 33
0.0
  0
ENDBLK
  5
20D
100
AcDbEntity
  8
0
100
AcDbBlockEnd
  0
BLOCK
  5
210
100
AcDbEntity
  8
0
100
AcDbBlockBegin
  2
*B16
 70
     0
 10
0.0
 20
0.0
 30
0.0
  3
*B16
  1

  0
LINE
  5
211
100
AcDbEntity
  8
0
  6
Continuous
 62
     0
100
AcDbLine
 10
141.025658
 20
223.761764
 30
0.0
 11
141.025658
 21
165.766311
 31
0.0
  0
SOLID
  5
212
100
AcDbEntity
  8
0
  6
Continuous
 62
     0
100
AcDbTrace
 10
142.025714
 20
218.762083
 30
0.0
 11
141.025658
 21
223.761764
 31
0.0
 12
140.025601
 22
218.762083
 32
0.0
 13
140.025601
 23
218.762083
 33
0.0
  0
SOLID
  5
213
100
AcDbEntity
  8
0
  6
Continuous
 62
     0
100
AcDbTrace
 10
140.025601
 20
170.765991
 30
0.0
 11
141.025658
 21
165.766311
 31
0.0
 12
142.025714
 22
170.765991
 32
0.0
 13
142.025714
 23
170.765991
 33
0.0
  0
ENDBLK
  5
214
100
AcDbEntity
  8
0
100
AcDbBlockEnd
  0
BLOCK
  5
217
100
AcDbEntity
  8
0
100
AcDbBlockBegin
  2
*B17
 70
     0
 10
0.0
 20
0.0
 30
0.0
  3
*B17
  1

  0
LINE
  5
218
100
AcDbEntity
  8
0
  6
Continuous
 62
     0
100
AcDbLine
 10
255.004735
 20
201.036844
 30
0.0
 11
224.834518
 21
201.036844
 31
0.0
  0
SOLID
  5
219
100
AcDbEntity
  8
0
  6
Continuous
 62
     0
100
AcDbTrace
 10
244.034457
 20
202.036901
 30
0.0
 11
239.034476
 21
201.036844
 31
0.0
 12
244.034457
 22
200.037088
 32
0.0
 13
244.034457
 23
200.037088
 33
0.0
  0
SOLID
  5
21A
100
AcDbEntity
  8
0
  6
Continuous
 62
     0
100
AcDbTrace
 10
229.834499
 20
200.037088
 30
0.0
 11
234.83448
 21
201.036844
 31
0.0
 12
229.834499
 22
202.036901
 32
0.0
 13
229.834499
 23
202.036901
 33
0.0
  0
ENDBLK
  5
21B
100
AcDbEntity
  8
0
100
AcDbBlockEnd
  0
BLOCK
  5
21E
100
AcDbEntity
  8
0
100
AcDbBlockBegin
  2
*B18
 70
     0
 10
0.0
 20
0.0
 30
0.0
  3
*B18
  1

  0
LINE
  5
21F
100
AcDbEntity
  8
0
  6
Continuous
 62
     0
100
AcDbLine
 10
201.934462
 20
236.034307
 30
0.0
 11
152.934408
 21
236.034307
 31
0.0
  0
SOLID
  5
220
100
AcDbEntity
  8
0
  6
Continuous
 62
     0
100
AcDbTrace
 10
196.934481
 20
235.034552
 30
0.0
 11
201.934462
 21
236.034307
 31
0.0
 12
196.934481
 22
237.034364
 32
0.0
 13
196.934481
 23
237.034364
 33
0.0
  0
SOLID
  5
221
100
AcDbEntity
  8
0
  6
Continuous
 62
     0
100
AcDbTrace
 10
157.934389
 20
237.034364
 30
0.0
 11
152.934408
 21
236.034307
 31
0.0
 12
157.934389
 22
235.034552
 32
0.0
 13
157.934389
 23
235.034552
 33
0.0
  0
ENDBLK
  5
222
100
AcDbEntity
  8
0
100
AcDbBlockEnd
  0
BLOCK
  5
225
100
AcDbEntity
  8
0
100
AcDbBlockBegin
  2
*B19
 70
     0
 10
0.0
 20
0.0
 30
0.0
  3
*B19
  1

  0
LINE
  5
226
100
AcDbEntity
  8
0
  6
Continuous
 62
     0
100
AcDbLine
 10
207.934499
 20
125.042481
 30
0.0
 11
246.93429
 21
125.042481
 31
0.0
  0
SOLID
  5
227
100
AcDbEntity
  8
0
  6
Continuous
 62
     0
100
AcDbTrace
 10
212.93448
 20
124.042425
 30
0.0
 11
217.934461
 21
125.042481
 31
0.0
 12
212.93448
 22
126.042237
 32
0.0
 13
212.93448
 23
126.042237
 33
0.0
  0
SOLID
  5
228
100
AcDbEntity
  8
0
  6
Continuous
 62
     0
100
AcDbTrace
 10
241.934309
 20
126.042237
 30
0.0
 11
236.934328
 21
125.042481
 31
0.0
 12
241.934309
 22
124.042425
 32
0.0
 13
241.934309
 23
124.042425
 33
0.0
  0
ENDBLK
  5
229
100
AcDbEntity
  8
0
100
AcDbBlockEnd
  0
BLOCK
  5
22C
100
AcDbEntity
  8
0
100
AcDbBlockBegin
  2
*B20
 70
     0
 10
0.0
 20
0.0
 30
0.0
  3
*B20
  1

  0
LINE
  5
22D
100
AcDbEntity
  8
0
  6
Continuous
 62
     0
100
AcDbLine
 10
207.934499
 20
65.046616
 30
0.0
 11
240.934253
 21
65.046616
 31
0.0
  0
SOLID
  5
22E
100
AcDbEntity
  8
0
  6
Continuous
 62
     0
100
AcDbTrace
 10
212.93448
 20
64.04686
 30
0.0
 11
217.934461
 21
65.046616
 31
0.0
 12
212.93448
 22
66.046672
 32
0.0
 13
212.93448
 23
66.046672
 33
0.0
  0
SOLID
  5
22F
100
AcDbEntity
  8
0
  6
Continuous
 62
     0
100
AcDbTrace
 10
235.934272
 20
66.046672
 30
0.0
 11
230.934291
 21
65.046616
 31
0.0
 12
235.934272
 22
64.04686
 32
0.0
 13
235.934272
 23
64.04686
 33
0.0
  0
ENDBLK
  5
230
100
AcDbEntity
  8
0
100
AcDbBlockEnd
  0
BLOCK
  5
233
100
AcDbEntity
  8
0
100
AcDbBlockBegin
  2
*B21
 70
     0
 10
0.0
 20
0.0
 30
0.0
  3
*B21
  1

  0
LINE
  5
234
100
AcDbEntity
  8
0
  6
Continuous
 62
     0
100
AcDbLine
 10
238.284359
 20
150.040584
 30
0.0
 11
272.954679
 21
150.040584
 31
0.0
  0
SOLID
  5
235
100
AcDbEntity
  8
0
  6
Continuous
 62
     0
100
AcDbTrace
 10
243.28434
 20
149.040527
 30
0.0
 11
248.284321
 21
150.040584
 31
0.0
 12
243.28434
 22
151.040339
 32
0.0
 13
243.28434
 23
151.040339
 33
0.0
  0
SOLID
  5
236
100
AcDbEntity
  8
0
  6
Continuous
 62
     0
100
AcDbTrace
 10
256.584277
 20
151.040339
 30
0.0
 11
251.584296
 21
150.040584
 31
0.0
 12
256.584277
 22
149.040527
 32
0.0
 13
256.584277
 23
149.040527
 33
0.0
  0
ENDBLK
  5
237
100
AcDbEntity
  8
0
100
AcDbBlockEnd
  0
BLOCK
  5
23A
100
AcDbEntity
  8
0
100
AcDbBlockBegin
  2
*B22
 70
     0
 10
0.0
 20
0.0
 30
0.0
  3
*B22
  1

  0
LINE
  5
23B
100
AcDbEntity
  8
0
  6
Continuous
 62
     0
100
AcDbLine
 10
217.934461
 20
214.036074
 30
0.0
 11
255.934496
 21
214.036074
 31
0.0
  0
SOLID
  5
23C
100
AcDbEntity
  8
0
  6
Continuous
 62
     0
100
AcDbTrace
 10
222.934442
 20
215.03583
 30
0.0
 11
217.934461
 21
214.036074
 31
0.0
 12
222.934442
 22
213.036017
 32
0.0
 13
222.934442
 23
213.036017
 33
0.0
  0
SOLID
  5
23D
100
AcDbEntity
  8
0
  6
Continuous
 62
     0
100
AcDbTrace
 10
250.934515
 20
213.036017
 30
0.0
 11
255.934496
 21
214.036074
 31
0.0
 12
250.934515
 22
215.03583
 32
0.0
 13
250.934515
 23
215.03583
 33
0.0
  0
ENDBLK
  5
23E
100
AcDbEntity
  8
0
100
AcDbBlockEnd
  0
BLOCK
  5
241
100
AcDbEntity
  8
0
100
AcDbBlockBegin
  2
*B23
 70
     0
 10
0.0
 20
0.0
 30
0.0
  3
*B23
  1

  0
LINE
  5
242
100
AcDbEntity
  8
0
  6
Continuous
 62
     0
100
AcDbLine
 10
206.046438
 20
137.041354
 30
0.0
 11
233.93446
 21
137.041354
 31
0.0
  0
SOLID
  5
243
100
AcDbEntity
  8
0
  6
Continuous
 62
     0
100
AcDbTrace
 10
212.93448
 20
136.041598
 30
0.0
 11
217.934461
 21
137.041354
 31
0.0
 12
212.93448
 22
138.04141
 32
0.0
 13
212.93448
 23
138.04141
 33
0.0
  0
SOLID
  5
244
100
AcDbEntity
  8
0
  6
Continuous
 62
     0
100
AcDbTrace
 10
228.934479
 20
138.04141
 30
0.0
 11
223.934498
 21
137.041354
 31
0.0
 12
228.934479
 22
136.041598
 32
0.0
 13
228.934479
 23
136.041598
 33
0.0
  0
ENDBLK
  5
245
100
AcDbEntity
  8
0
100
AcDbBlockEnd
  0
BLOCK
  5
248
100
AcDbEntity
  8
0
100
AcDbBlockBegin
  2
*B24
 70
     0
 10
0.0
 20
0.0
 30
0.0
  3
*B24
  1

  0
LINE
  5
249
100
AcDbEntity
  8
0
  6
Continuous
 62
     8
100
AcDbLine
 10
248.284321
 20
148.040771
 30
0.0
 11
248.284321
 21
163.766499
 31
0.0
  0
ENDBLK
  5
24A
100
AcDbEntity
  8
0
100
AcDbBlockEnd
  0
BLOCK
  5
24D
100
AcDbEntity
  8
0
100
AcDbBlockBegin
  2
*B25
 70
     0
 10
0.0
 20
0.0
 30
0.0
  3
*B25
  1

  0
LINE
  5
24E
100
AcDbEntity
  8
0
  6
Continuous
 62
     8
100
AcDbLine
 10
156.434455
 20
214.762759
 30
0.0
 11
165.434361
 21
214.762759
 31
0.0
  0
LINE
  5
24F
100
AcDbEntity
  8
0
  6
Continuous
 62
     8
100
AcDbLine
 10
167.434473
 20
214.762759
 30
0.0
 11
168.434529
 21
214.762759
 31
0.0
  0
LINE
  5
250
100
AcDbEntity
  8
0
  6
Continuous
 62
     8
100
AcDbLine
 10
170.434341
 20
214.762759
 30
0.0
 11
179.434547
 21
214.762759
 31
0.0
  0
ENDBLK
  5
251
100
AcDbEntity
  8
0
100
AcDbBlockEnd
  0
BLOCK
  5
254
100
AcDbEntity
  8
0
100
AcDbBlockBegin
  2
*B26
 70
     0
 10
0.0
 20
0.0
 30
0.0
  3
*B26
  1

  0
LINE
  5
255
100
AcDbEntity
  8
0
  6
Continuous
 62
     8
100
AcDbLine
 10
212.93448
 20
93.677845
 30
0.0
 11
212.93448
 21
97.677469
 31
0.0
  0
LINE
  5
256
100
AcDbEntity
  8
0
  6
Continuous
 62
     8
100
AcDbLine
 10
212.93448
 20
103.676906
 30
0.0
 11
212.93448
 21
107.67683
 31
0.0
  0
ENDBLK
  5
257
100
AcDbEntity
  8
0
100
AcDbBlockEnd
  0
BLOCK
  5
25A
100
AcDbEntity
  8
0
100
AcDbBlockBegin
  2
*B27
 70
     0
 10
0.0
 20
0.0
 30
0.0
  3
*B27
  1

  0
LINE
  5
25B
100
AcDbEntity
  8
0
  6
Continuous
 62
     8
100
AcDbLine
 10
242.934365
 20
74.04592
 30
0.0
 11
242.934365
 21
78.045845
 31
0.0
  0
LINE
  5
25C
100
AcDbEntity
  8
0
  6
Continuous
 62
     8
100
AcDbLine
 10
242.934365
 20
78.045845
 30
0.0
 11
242.934365
 21
91.677732
 31
0.0
  0
LINE
  5
25D
100
AcDbEntity
  8
0
  6
Continuous
 62
     8
100
AcDbLine
 10
242.934365
 20
97.677469
 30
0.0
 11
242.934365
 21
100.777073
 31
0.0
  0
ENDBLK
  5
25E
100
AcDbEntity
  8
0
100
AcDbBlockEnd
  0
BLOCK
  5
261
100
AcDbEntity
  8
0
100
AcDbBlockBegin
  2
*B28
 70
     0
 10
0.0
 20
0.0
 30
0.0
  3
*B28
  1

  0
LINE
  5
262
100
AcDbEntity
  8
0
  6
Continuous
 62
     8
100
AcDbLine
 10
281.025724
 20
108.926525
 30
0.0
 11
285.025649
 21
108.926525
 31
0.0
  0
LINE
  5
263
100
AcDbEntity
  8
0
  6
Continuous
 62
     8
100
AcDbLine
 10
242.934365
 20
108.926525
 30
0.0
 11
246.93429
 21
108.926525
 31
0.0
  0
LINE
  5
264
100
AcDbEntity
  8
0
  6
Continuous
 62
     8
100
AcDbLine
 10
252.934327
 20
108.926525
 30
0.0
 11
264.479885
 21
108.926525
 31
0.0
  0
LINE
  5
265
100
AcDbEntity
  8
0
  6
Continuous
 62
     8
100
AcDbLine
 10
266.479998
 20
108.926525
 30
0.0
 11
267.480054
 21
108.926525
 31
0.0
  0
LINE
  5
266
100
AcDbEntity
  8
0
  6
Continuous
 62
     8
100
AcDbLine
 10
269.479866
 20
108.926525
 30
0.0
 11
281.025724
 21
108.926525
 31
0.0
  0
ENDBLK
  5
267
100
AcDbEntity
  8
0
100
AcDbBlockEnd
  0
BLOCK
  5
26A
100
AcDbEntity
  8
0
100
AcDbBlockBegin
  2
*B29
 70
     0
 10
0.0
 20
0.0
 30
0.0
  3
*B29
  1

  0
LINE
  5
26B
100
AcDbEntity
  8
0
  6
Continuous
 62
     8
100
AcDbLine
 10
216.934404
 20
108.926525
 30
0.0
 11
220.934329
 21
108.926525
 31
0.0
  0
LINE
  5
26C
100
AcDbEntity
  8
0
  6
Continuous
 62
     8
100
AcDbLine
 10
226.934366
 20
108.926525
 30
0.0
 11
230.934291
 21
108.926525
 31
0.0
  0
ENDBLK
  5
26D
100
AcDbEntity
  8
0
100
AcDbBlockEnd
  0
BLOCK
  5
270
100
AcDbEntity
  8
0
100
AcDbBlockBegin
  2
*B30
 70
     0
 10
0.0
 20
0.0
 30
0.0
  3
*B30
  1

  0
LINE
  5
271
100
AcDbEntity
  8
0
  6
Continuous
 62
     8
100
AcDbLine
 10
201.934462
 20
189.764657
 30
0.0
 11
201.934462
 21
238.03412
 31
0.0
  0
ENDBLK
  5
272
100
AcDbEntity
  8
0
100
AcDbBlockEnd
  0
BLOCK
  5
275
100
AcDbEntity
  8
0
100
AcDbBlockBegin
  2
*B31
 70
     0
 10
0.0
 20
0.0
 30
0.0
  3
*B31
  1

  0
LINE
  5
276
100
AcDbEntity
  8
0
  6
Continuous
 62
     8
100
AcDbLine
 10
139.025545
 20
223.761764
 30
0.0
 11
151.627336
 21
223.761764
 31
0.0
  0
ENDBLK
  5
277
100
AcDbEntity
  8
0
100
AcDbBlockEnd
  0
BLOCK
  5
27A
100
AcDbEntity
  8
0
100
AcDbBlockBegin
  2
*B32
 70
     0
 10
0.0
 20
0.0
 30
0.0
  3
*B32
  1

  0
LINE
  5
27B
100
AcDbEntity
  8
0
  6
Continuous
 62
     8
100
AcDbLine
 10
230.934291
 20
63.046803
 30
0.0
 11
230.934291
 21
78.045845
 31
0.0
  0
LINE
  5
27C
100
AcDbEntity
  8
0
  6
Continuous
 62
     8
100
AcDbLine
 10
230.934291
 20
78.045845
 30
0.0
 11
230.934291
 21
91.677732
 31
0.0
  0
LINE
  5
27D
100
AcDbEntity
  8
0
  6
Continuous
 62
     8
100
AcDbLine
 10
230.934291
 20
97.677469
 30
0.0
 11
230.934291
 21
100.777073
 31
0.0
  0
ENDBLK
  5
27E
100
AcDbEntity
  8
0
100
AcDbBlockEnd
  0
BLOCK
  5
281
100
AcDbEntity
  8
0
100
AcDbBlockBegin
  2
*B33
 70
     0
 10
0.0
 20
0.0
 30
0.0
  3
*B33
  1

  0
LINE
  5
282
100
AcDbEntity
  8
0
  6
Continuous
 62
     8
100
AcDbLine
 10
140.025601
 20
111.676455
 30
0.0
 11
169.934464
 21
111.676455
 31
0.0
  0
ENDBLK
  5
283
100
AcDbEntity
  8
0
100
AcDbBlockEnd
  0
BLOCK
  5
286
100
AcDbEntity
  8
0
100
AcDbBlockBegin
  2
*B34
 70
     0
 10
0.0
 20
0.0
 30
0.0
  3
*B34
  1

  0
LINE
  5
287
100
AcDbEntity
  8
0
  6
Continuous
 62
     8
100
AcDbLine
 10
249.934459
 20
85.428357
 30
0.0
 11
249.934459
 21
89.427981
 31
0.0
  0
LINE
  5
288
100
AcDbEntity
  8
0
  6
Continuous
 62
     8
100
AcDbLine
 10
249.934459
 20
95.427718
 30
0.0
 11
249.934459
 21
99.427342
 31
0.0
  0
ENDBLK
  5
289
100
AcDbEntity
  8
0
100
AcDbBlockEnd
  0
BLOCK
  5
28C
100
AcDbEntity
  8
0
100
AcDbBlockBegin
  2
*B35
 70
     0
 10
0.0
 20
0.0
 30
0.0
  3
*B35
  1

  0
LINE
  5
28D
100
AcDbEntity
  8
0
  6
Continuous
 62
     8
100
AcDbLine
 10
205.934386
 20
100.677338
 30
0.0
 11
209.934311
 21
100.677338
 31
0.0
  0
LINE
  5
28E
100
AcDbEntity
  8
0
  6
Continuous
 62
     8
100
AcDbLine
 10
215.934348
 20
100.677338
 30
0.0
 11
227.267818
 21
100.677338
 31
0.0
  0
LINE
  5
28F
100
AcDbEntity
  8
0
  6
Continuous
 62
     8
100
AcDbLine
 10
229.267631
 20
100.677338
 30
0.0
 11
230.267687
 21
100.677338
 31
0.0
  0
LINE
  5
290
100
AcDbEntity
  8
0
  6
Continuous
 62
     8
100
AcDbLine
 10
232.267799
 20
100.677338
 30
0.0
 11
243.600969
 21
100.677338
 31
0.0
  0
LINE
  5
291
100
AcDbEntity
  8
0
  6
Continuous
 62
     8
100
AcDbLine
 10
245.601082
 20
100.677338
 30
0.0
 11
246.601138
 21
100.677338
 31
0.0
  0
LINE
  5
292
100
AcDbEntity
  8
0
  6
Continuous
 62
     8
100
AcDbLine
 10
248.60095
 20
100.677338
 30
0.0
 11
259.934421
 21
100.677338
 31
0.0
  0
ENDBLK
  5
293
100
AcDbEntity
  8
0
100
AcDbBlockEnd
  0
BLOCK
  5
296
100
AcDbEntity
  8
0
100
AcDbBlockBegin
  2
*B36
 70
     0
 10
0.0
 20
0.0
 30
0.0
  3
*B36
  1

  0
LINE
  5
297
100
AcDbEntity
  8
0
  6
Continuous
 62
     8
100
AcDbLine
 10
148.934484
 20
100.699568
 30
0.0
 11
156.823182
 21
100.699568
 31
0.0
  0
LINE
  5
298
100
AcDbEntity
  8
0
  6
Continuous
 62
     8
100
AcDbLine
 10
158.823295
 20
100.699568
 30
0.0
 11
159.823351
 21
100.699568
 31
0.0
  0
LINE
  5
299
100
AcDbEntity
  8
0
  6
Continuous
 62
     8
100
AcDbLine
 10
161.823163
 20
100.699568
 30
0.0
 11
169.712162
 21
100.699568
 31
0.0
  0
LINE
  5
29A
100
AcDbEntity
  8
0
  6
Continuous
 62
     8
100
AcDbLine
 10
171.712275
 20
100.699568
 30
0.0
 11
172.71203
 21
100.699568
 31
0.0
  0
LINE
  5
29B
100
AcDbEntity
  8
0
  6
Continuous
 62
     8
100
AcDbLine
 10
174.712143
 20
100.699568
 30
0.0
 11
182.601142
 21
100.699568
 31
0.0
  0
LINE
  5
29C
100
AcDbEntity
  8
0
  6
Continuous
 62
     8
100
AcDbLine
 10
184.600954
 20
100.699568
 30
0.0
 11
185.60101
 21
100.699568
 31
0.0
  0
LINE
  5
29D
100
AcDbEntity
  8
0
  6
Continuous
 62
     8
100
AcDbLine
 10
187.601123
 20
100.699568
 30
0.0
 11
195.489821
 21
100.699568
 31
0.0
  0
LINE
  5
29E
100
AcDbEntity
  8
0
  6
Continuous
 62
     8
100
AcDbLine
 10
197.489934
 20
100.699568
 30
0.0
 11
198.48999
 21
100.699568
 31
0.0
  0
LINE
  5
29F
100
AcDbEntity
  8
0
  6
Continuous
 62
     8
100
AcDbLine
 10
200.489802
 20
100.699568
 30
0.0
 11
208.378801
 21
100.699568
 31
0.0
  0
LINE
  5
2A0
100
AcDbEntity
  8
0
  6
Continuous
 62
     8
100
AcDbLine
 10
210.378914
 20
100.699568
 30
0.0
 11
211.37897
 21
100.699568
 31
0.0
  0
LINE
  5
2A1
100
AcDbEntity
  8
0
  6
Continuous
 62
     8
100
AcDbLine
 10
213.378782
 20
100.699568
 30
0.0
 11
221.267781
 21
100.699568
 31
0.0
  0
LINE
  5
2A2
100
AcDbEntity
  8
0
  6
Continuous
 62
     8
100
AcDbLine
 10
223.267593
 20
100.699568
 30
0.0
 11
224.26765
 21
100.699568
 31
0.0
  0
LINE
  5
2A3
100
AcDbEntity
  8
0
  6
Continuous
 62
     8
100
AcDbLine
 10
226.267762
 20
100.699568
 30
0.0
 11
234.156461
 21
100.699568
 31
0.0
  0
LINE
  5
2A4
100
AcDbEntity
  8
0
  6
Continuous
 62
     8
100
AcDbLine
 10
236.156573
 20
100.699568
 30
0.0
 11
237.15663
 21
100.699568
 31
0.0
  0
LINE
  5
2A5
100
AcDbEntity
  8
0
  6
Continuous
 62
     8
100
AcDbLine
 10
239.156742
 20
100.699568
 30
0.0
 11
247.045441
 21
100.699568
 31
0.0
  0
LINE
  5
2A6
100
AcDbEntity
  8
0
  6
Continuous
 62
     8
100
AcDbLine
 10
249.045553
 20
100.699568
 30
0.0
 11
250.045609
 21
100.699568
 31
0.0
  0
LINE
  5
2A7
100
AcDbEntity
  8
0
  6
Continuous
 62
     8
100
AcDbLine
 10
252.045422
 20
100.699568
 30
0.0
 11
259.934421
 21
100.699568
 31
0.0
  0
ENDBLK
  5
2A8
100
AcDbEntity
  8
0
100
AcDbBlockEnd
  0
BLOCK
  5
2AB
100
AcDbEntity
  8
0
100
AcDbBlockBegin
  2
*B37
 70
     0
 10
0.0
 20
0.0
 30
0.0
  3
*B37
  1

  0
LINE
  5
2AC
100
AcDbEntity
  8
0
  6
Continuous
 62
     8
100
AcDbLine
 10
234.83448
 20
189.764657
 30
0.0
 11
234.83448
 21
203.036656
 31
0.0
  0
ENDBLK
  5
2AD
100
AcDbEntity
  8
0
100
AcDbBlockEnd
  0
BLOCK
  5
2B0
100
AcDbEntity
  8
0
100
AcDbBlockBegin
  2
*B38
 70
     0
 10
0.0
 20
0.0
 30
0.0
  3
*B38
  1

  0
LINE
  5
2B1
100
AcDbEntity
  8
0
  6
Continuous
 62
     8
100
AcDbLine
 10
139.025545
 20
165.766311
 30
0.0
 11
169.934464
 21
165.766311
 31
0.0
  0
ENDBLK
  5
2B2
100
AcDbEntity
  8
0
100
AcDbBlockEnd
  0
BLOCK
  5
2B5
100
AcDbEntity
  8
0
100
AcDbBlockBegin
  2
*B39
 70
     0
 10
0.0
 20
0.0
 30
0.0
  3
*B39
  1

  0
LINE
  5
2B6
100
AcDbEntity
  8
0
  6
Continuous
 62
     8
100
AcDbLine
 10
223.934498
 20
135.041542
 30
0.0
 11
223.934498
 21
139.041467
 31
0.0
  0
LINE
  5
2B7
100
AcDbEntity
  8
0
  6
Continuous
 62
     8
100
AcDbLine
 10
223.934498
 20
101.927032
 30
0.0
 11
223.934498
 21
105.926957
 31
0.0
  0
LINE
  5
2B8
100
AcDbEntity
  8
0
  6
Continuous
 62
     8
100
AcDbLine
 10
223.934498
 20
111.926394
 30
0.0
 11
223.934498
 21
120.984278
 31
0.0
  0
LINE
  5
2B9
100
AcDbEntity
  8
0
  6
Continuous
 62
     8
100
AcDbLine
 10
223.934498
 20
122.98409
 30
0.0
 11
223.934498
 21
123.983846
 31
0.0
  0
LINE
  5
2BA
100
AcDbEntity
  8
0
  6
Continuous
 62
     8
100
AcDbLine
 10
223.934498
 20
125.983958
 30
0.0
 11
223.934498
 21
135.041542
 31
0.0
  0
ENDBLK
  5
2BB
100
AcDbEntity
  8
0
100
AcDbBlockEnd
  0
BLOCK
  5
2BE
100
AcDbEntity
  8
0
100
AcDbBlockBegin
  2
*B40
 70
     0
 10
0.0
 20
0.0
 30
0.0
  3
*B40
  1

  0
LINE
  5
2BF
100
AcDbEntity
  8
0
  6
Continuous
 62
     8
100
AcDbLine
 10
152.934408
 20
224.561448
 30
0.0
 11
152.934408
 21
238.03412
 31
0.0
  0
ENDBLK
  5
2C0
100
AcDbEntity
  8
0
100
AcDbBlockEnd
  0
BLOCK
  5
2C3
100
AcDbEntity
  8
0
100
AcDbBlockBegin
  2
*B41
 70
     0
 10
0.0
 20
0.0
 30
0.0
  3
*B41
  1

  0
LINE
  5
2C4
100
AcDbEntity
  8
0
  6
Continuous
 62
     8
100
AcDbLine
 10
216.934404
 20
92.42785
 30
0.0
 11
220.934329
 21
92.42785
 31
0.0
  0
LINE
  5
2C5
100
AcDbEntity
  8
0
  6
Continuous
 62
     8
100
AcDbLine
 10
226.934366
 20
92.42785
 30
0.0
 11
230.934291
 21
92.42785
 31
0.0
  0
ENDBLK
  5
2C6
100
AcDbEntity
  8
0
100
AcDbBlockEnd
  0
BLOCK
  5
2C9
100
AcDbEntity
  8
0
100
AcDbBlockBegin
  2
*B42
 70
     0
 10
0.0
 20
0.0
 30
0.0
  3
*B42
  1

  0
LINE
  5
2CA
100
AcDbEntity
  8
0
  6
Continuous
 62
     8
100
AcDbLine
 10
239.034476
 20
189.764657
 30
0.0
 11
239.034476
 21
203.036656
 31
0.0
  0
ENDBLK
  5
2CB
100
AcDbEntity
  8
0
100
AcDbBlockEnd
  0
BLOCK
  5
2CE
100
AcDbEntity
  8
0
100
AcDbBlockBegin
  2
*B43
 70
     0
 10
0.0
 20
0.0
 30
0.0
  3
*B43
  1

  0
LINE
  5
2CF
100
AcDbEntity
  8
0
  6
Continuous
 62
     8
100
AcDbLine
 10
140.025601
 20
89.67792
 30
0.0
 11
169.934464
 21
89.67792
 31
0.0
  0
ENDBLK
  5
2D0
100
AcDbEntity
  8
0
100
AcDbBlockEnd
  0
BLOCK
  5
2D3
100
AcDbEntity
  8
0
100
AcDbBlockBegin
  2
*B44
 70
     0
 10
0.0
 20
0.0
 30
0.0
  3
*B44
  1

  0
LINE
  5
2D4
100
AcDbEntity
  8
0
  6
Continuous
 62
     8
100
AcDbLine
 10
186.934519
 20
93.277702
 30
0.0
 11
186.934519
 21
97.677469
 31
0.0
  0
LINE
  5
2D5
100
AcDbEntity
  8
0
  6
Continuous
 62
     8
100
AcDbLine
 10
186.934519
 20
103.676906
 30
0.0
 11
186.934519
 21
108.076673
 31
0.0
  0
ENDBLK
  5
2D6
100
AcDbEntity
  8
0
100
AcDbBlockEnd
  0
BLOCK
  5
2D9
100
AcDbEntity
  8
0
100
AcDbBlockBegin
  2
*B45
 70
     0
 10
0.0
 20
0.0
 30
0.0
  3
*B45
  1

  0
LINE
  5
2DA
100
AcDbEntity
  8
0
  6
Continuous
 62
     8
100
AcDbLine
 10
236.934328
 20
177.765484
 30
0.0
 11
236.934328
 21
191.764469
 31
0.0
  0
ENDBLK
  5
2DB
100
AcDbEntity
  8
0
100
AcDbBlockEnd
  0
BLOCK
  5
2DE
100
AcDbEntity
  8
0
100
AcDbBlockBegin
  2
*B46
 70
     0
 10
0.0
 20
0.0
 30
0.0
  3
*B46
  1

  0
LINE
  5
2DF
100
AcDbEntity
  8
0
  6
Continuous
 62
     8
100
AcDbLine
 10
255.934496
 20
189.764657
 30
0.0
 11
255.934496
 21
238.03412
 31
0.0
  0
ENDBLK
  5
2E0
100
AcDbEntity
  8
0
100
AcDbBlockEnd
  0
BLOCK
  5
2E3
100
AcDbEntity
  8
0
100
AcDbBlockBegin
  2
*B47
 70
     0
 10
0.0
 20
0.0
 30
0.0
  3
*B47
  1

  0
LINE
  5
2E4
100
AcDbEntity
  8
0
  6
Continuous
 62
     8
100
AcDbLine
 10
160.234308
 20
176.765428
 30
0.0
 11
168.321877
 21
176.765428
 31
0.0
  0
LINE
  5
2E5
100
AcDbEntity
  8
0
  6
Continuous
 62
     8
100
AcDbLine
 10
170.321989
 20
176.765428
 30
0.0
 11
171.321745
 21
176.765428
 31
0.0
  0
LINE
  5
2E6
100
AcDbEntity
  8
0
  6
Continuous
 62
     8
100
AcDbLine
 10
173.321857
 20
176.765428
 30
0.0
 11
181.409426
 21
176.765428
 31
0.0
  0
LINE
  5
2E7
100
AcDbEntity
  8
0
  6
Continuous
 62
     8
100
AcDbLine
 10
183.409538
 20
176.765428
 30
0.0
 11
184.409294
 21
176.765428
 31
0.0
  0
LINE
  5
2E8
100
AcDbEntity
  8
0
  6
Continuous
 62
     8
100
AcDbLine
 10
186.409407
 20
176.765428
 30
0.0
 11
194.496975
 21
176.765428
 31
0.0
  0
LINE
  5
2E9
100
AcDbEntity
  8
0
  6
Continuous
 62
     8
100
AcDbLine
 10
196.496787
 20
176.765428
 30
0.0
 11
197.496843
 21
176.765428
 31
0.0
  0
LINE
  5
2EA
100
AcDbEntity
  8
0
  6
Continuous
 62
     8
100
AcDbLine
 10
199.496956
 20
176.765428
 30
0.0
 11
207.584524
 21
176.765428
 31
0.0
  0
LINE
  5
2EB
100
AcDbEntity
  8
0
  6
Continuous
 62
     8
100
AcDbLine
 10
209.584336
 20
176.765428
 30
0.0
 11
210.584393
 21
176.765428
 31
0.0
  0
LINE
  5
2EC
100
AcDbEntity
  8
0
  6
Continuous
 62
     8
100
AcDbLine
 10
212.584505
 20
176.765428
 30
0.0
 11
220.671773
 21
176.765428
 31
0.0
  0
LINE
  5
2ED
100
AcDbEntity
  8
0
  6
Continuous
 62
     8
100
AcDbLine
 10
222.671885
 20
176.765428
 30
0.0
 11
223.671942
 21
176.765428
 31
0.0
  0
LINE
  5
2EE
100
AcDbEntity
  8
0
  6
Continuous
 62
     8
100
AcDbLine
 10
225.671754
 20
176.765428
 30
0.0
 11
233.759322
 21
176.765428
 31
0.0
  0
LINE
  5
2EF
100
AcDbEntity
  8
0
  6
Continuous
 62
     8
100
AcDbLine
 10
235.759435
 20
176.765428
 30
0.0
 11
236.759491
 21
176.765428
 31
0.0
  0
LINE
  5
2F0
100
AcDbEntity
  8
0
  6
Continuous
 62
     8
100
AcDbLine
 10
238.759303
 20
176.765428
 30
0.0
 11
246.846871
 21
176.765428
 31
0.0
  0
LINE
  5
2F1
100
AcDbEntity
  8
0
  6
Continuous
 62
     8
100
AcDbLine
 10
248.846984
 20
176.765428
 30
0.0
 11
249.84674
 21
176.765428
 31
0.0
  0
LINE
  5
2F2
100
AcDbEntity
  8
0
  6
Continuous
 62
     8
100
AcDbLine
 10
251.846852
 20
176.765428
 30
0.0
 11
259.934421
 21
176.765428
 31
0.0
  0
ENDBLK
  5
2F3
100
AcDbEntity
  8
0
100
AcDbBlockEnd
  0
BLOCK
  5
2F6
100
AcDbEntity
  8
0
100
AcDbBlockBegin
  2
*B48
 70
     0
 10
0.0
 20
0.0
 30
0.0
  3
*B48
  1

  0
LINE
  5
2F7
100
AcDbEntity
  8
0
  6
Continuous
 62
     8
100
AcDbLine
 10
281.025724
 20
92.42785
 30
0.0
 11
285.025649
 21
92.42785
 31
0.0
  0
LINE
  5
2F8
100
AcDbEntity
  8
0
  6
Continuous
 62
     8
100
AcDbLine
 10
242.934365
 20
92.42785
 30
0.0
 11
246.93429
 21
92.42785
 31
0.0
  0
LINE
  5
2F9
100
AcDbEntity
  8
0
  6
Continuous
 62
     8
100
AcDbLine
 10
252.934327
 20
92.42785
 30
0.0
 11
264.479885
 21
92.42785
 31
0.0
  0
LINE
  5
2FA
100
AcDbEntity
  8
0
  6
Continuous
 62
     8
100
AcDbLine
 10
266.479998
 20
92.42785
 30
0.0
 11
267.480054
 21
92.42785
 31
0.0
  0
LINE
  5
2FB
100
AcDbEntity
  8
0
  6
Continuous
 62
     8
100
AcDbLine
 10
269.479866
 20
92.42785
 30
0.0
 11
281.025724
 21
92.42785
 31
0.0
  0
ENDBLK
  5
2FC
100
AcDbEntity
  8
0
100
AcDbBlockEnd
  0
BLOCK
  5
2FF
100
AcDbEntity
  8
0
100
AcDbBlockBegin
  2
*B49
 70
     0
 10
0.0
 20
0.0
 30
0.0
  3
*B49
  1

  0
LINE
  5
300
100
AcDbEntity
  8
0
  6
Continuous
 62
     8
100
AcDbLine
 10
249.934459
 20
135.041542
 30
0.0
 11
249.934459
 21
139.041467
 31
0.0
  0
LINE
  5
301
100
AcDbEntity
  8
0
  6
Continuous
 62
     8
100
AcDbLine
 10
249.934459
 20
101.927032
 30
0.0
 11
249.934459
 21
105.926957
 31
0.0
  0
LINE
  5
302
100
AcDbEntity
  8
0
  6
Continuous
 62
     8
100
AcDbLine
 10
249.934459
 20
111.926394
 30
0.0
 11
249.934459
 21
120.984278
 31
0.0
  0
LINE
  5
303
100
AcDbEntity
  8
0
  6
Continuous
 62
     8
100
AcDbLine
 10
249.934459
 20
122.98409
 30
0.0
 11
249.934459
 21
123.983846
 31
0.0
  0
LINE
  5
304
100
AcDbEntity
  8
0
  6
Continuous
 62
     8
100
AcDbLine
 10
249.934459
 20
125.983958
 30
0.0
 11
249.934459
 21
135.041542
 31
0.0
  0
ENDBLK
  5
305
100
AcDbEntity
  8
0
100
AcDbBlockEnd
  0
BLOCK
  5
308
100
AcDbEntity
  8
0
100
AcDbBlockBegin
  2
*B50
 70
     0
 10
0.0
 20
0.0
 30
0.0
  3
*B50
  1

  0
LINE
  5
309
100
AcDbEntity
  8
0
  6
Continuous
 62
     8
100
AcDbLine
 10
257.934308
 20
187.764845
 30
0.0
 11
284.025593
 21
187.764845
 31
0.0
  0
ENDBLK
  5
30A
100
AcDbEntity
  8
0
100
AcDbBlockEnd
  0
BLOCK
  5
30D
100
AcDbEntity
  8
0
100
AcDbBlockBegin
  2
*B51
 70
     0
 10
0.0
 20
0.0
 30
0.0
  3
*B51
  1

  0
LINE
  5
30E
100
AcDbEntity
  8
0
  6
Continuous
 62
     8
100
AcDbLine
 10
251.584296
 20
148.040771
 30
0.0
 11
251.584296
 21
163.766499
 31
0.0
  0
ENDBLK
  5
30F
100
AcDbEntity
  8
0
100
AcDbBlockEnd
  0
BLOCK
  5
312
100
AcDbEntity
  8
0
100
AcDbBlockBegin
  2
*B52
 70
     0
 10
0.0
 20
0.0
 30
0.0
  3
*B52
  1

  0
LINE
  5
313
100
AcDbEntity
  8
0
  6
Continuous
 62
     8
100
AcDbLine
 10
223.934498
 20
161.766686
 30
0.0
 11
223.934498
 21
174.265738
 31
0.0
  0
LINE
  5
314
100
AcDbEntity
  8
0
  6
Continuous
 62
     8
100
AcDbLine
 10
223.934498
 20
176.26555
 30
0.0
 11
223.934498
 21
177.265606
 31
0.0
  0
LINE
  5
315
100
AcDbEntity
  8
0
  6
Continuous
 62
     8
100
AcDbLine
 10
223.934498
 20
179.265418
 30
0.0
 11
223.934498
 21
191.764469
 31
0.0
  0
ENDBLK
  5
316
100
AcDbEntity
  8
0
100
AcDbBlockEnd
  0
BLOCK
  5
319
100
AcDbEntity
  8
0
100
AcDbBlockBegin
  2
*B53
 70
     0
 10
0.0
 20
0.0
 30
0.0
  3
*B53
  1

  0
LINE
  5
31A
100
AcDbEntity
  8
0
  6
Continuous
 62
     8
100
AcDbLine
 10
249.934459
 20
161.766686
 30
0.0
 11
249.934459
 21
173.64089
 31
0.0
  0
LINE
  5
31B
100
AcDbEntity
  8
0
  6
Continuous
 62
     8
100
AcDbLine
 10
249.934459
 20
175.640702
 30
0.0
 11
249.934459
 21
176.640458
 31
0.0
  0
LINE
  5
31C
100
AcDbEntity
  8
0
  6
Continuous
 62
     8
100
AcDbLine
 10
249.934459
 20
178.64027
 30
0.0
 11
249.934459
 21
190.514474
 31
0.0
  0
ENDBLK
  5
31D
100
AcDbEntity
  8
0
100
AcDbBlockEnd
  0
BLOCK
  5
320
100
AcDbEntity
  8
0
100
AcDbBlockBegin
  2
*B54
 70
     0
 10
0.0
 20
0.0
 30
0.0
  3
*B54
  1

  0
LINE
  5
321
100
AcDbEntity
  8
0
  6
Continuous
 62
     8
100
AcDbLine
 10
179.534283
 20
100.677338
 30
0.0
 11
183.93435
 21
100.677338
 31
0.0
  0
LINE
  5
322
100
AcDbEntity
  8
0
  6
Continuous
 62
     8
100
AcDbLine
 10
189.934387
 20
100.677338
 30
0.0
 11
194.334455
 21
100.677338
 31
0.0
  0
ENDBLK
  5
323
100
AcDbEntity
  8
0
100
AcDbBlockEnd
  0
BLOCK
  5
326
100
AcDbEntity
  8
0
100
AcDbBlockBegin
  2
*B55
 70
     0
 10
0.0
 20
0.0
 30
0.0
  3
*B55
  1

  0
LINE
  5
327
100
AcDbEntity
  8
0
  6
Continuous
 62
     8
100
AcDbLine
 10
217.934461
 20
63.046803
 30
0.0
 11
217.934461
 21
87.678108
 31
0.0
  0
LINE
  5
328
100
AcDbEntity
  8
0
  6
Continuous
 62
     8
100
AcDbLine
 10
217.934461
 20
113.676267
 30
0.0
 11
217.934461
 21
139.041467
 31
0.0
  0
ENDBLK
  5
329
100
AcDbEntity
  8
0
100
AcDbBlockEnd
  0
BLOCK
  5
32C
100
AcDbEntity
  8
0
100
AcDbBlockBegin
  2
*B56
 70
     0
 10
0.0
 20
0.0
 30
0.0
  3
*B56
  1

  0
LINE
  5
32D
100
AcDbEntity
  8
0
  6
Continuous
 62
     8
100
AcDbLine
 10
269.02565
 20
106.676774
 30
0.0
 11
273.025575
 21
106.676774
 31
0.0
  0
LINE
  5
32E
100
AcDbEntity
  8
0
  6
Continuous
 62
     8
100
AcDbLine
 10
230.834255
 20
106.676774
 30
0.0
 11
233.93446
 21
106.676774
 31
0.0
  0
LINE
  5
32F
100
AcDbEntity
  8
0
  6
Continuous
 62
     8
100
AcDbLine
 10
239.934497
 20
106.676774
 30
0.0
 11
251.979933
 21
106.676774
 31
0.0
  0
LINE
  5
330
100
AcDbEntity
  8
0
  6
Continuous
 62
     8
100
AcDbLine
 10
253.980045
 20
106.676774
 30
0.0
 11
254.980102
 21
106.676774
 31
0.0
  0
LINE
  5
331
100
AcDbEntity
  8
0
  6
Continuous
 62
     8
100
AcDbLine
 10
256.979914
 20
106.676774
 30
0.0
 11
269.02565
 21
106.676774
 31
0.0
  0
ENDBLK
  5
332
100
AcDbEntity
  8
0
100
AcDbBlockEnd
  0
BLOCK
  5
335
100
AcDbEntity
  8
0
100
AcDbBlockBegin
  2
*B57
 70
     0
 10
0.0
 20
0.0
 30
0.0
  3
*B57
  1

  0
LINE
  5
336
100
AcDbEntity
  8
0
  6
Continuous
 62
     8
100
AcDbLine
 10
148.934484
 20
100.722098
 30
0.0
 11
160.734487
 21
100.722098
 31
0.0
  0
ENDBLK
  5
337
100
AcDbEntity
  8
0
100
AcDbBlockEnd
  0
BLOCK
  5
33A
100
AcDbEntity
  8
0
100
AcDbBlockBegin
  2
*B58
 70
     0
 10
0.0
 20
0.0
 30
0.0
  3
*B58
  1

  0
LINE
  5
33B
100
AcDbEntity
  8
0
  6
Continuous
 62
     8
100
AcDbLine
 10
257.934308
 20
165.766311
 30
0.0
 11
284.025593
 21
165.766311
 31
0.0
  0
ENDBLK
  5
33C
100
AcDbEntity
  8
0
100
AcDbBlockEnd
  0
BLOCK
  5
33F
100
AcDbEntity
  8
0
100
AcDbBlockBegin
  2
*B59
 70
     0
 10
0.0
 20
0.0
 30
0.0
  3
*B59
  1

  0
LINE
  5
340
100
AcDbEntity
  8
0
  6
Continuous
 62
     8
100
AcDbLine
 10
223.934498
 20
85.428357
 30
0.0
 11
223.934498
 21
89.427981
 31
0.0
  0
LINE
  5
341
100
AcDbEntity
  8
0
  6
Continuous
 62
     8
100
AcDbLine
 10
223.934498
 20
95.427718
 30
0.0
 11
223.934498
 21
99.427342
 31
0.0
  0
ENDBLK
  5
342
100
AcDbEntity
  8
0
100
AcDbBlockEnd
  0
BLOCK
  5
345
100
AcDbEntity
  8
0
100
AcDbBlockBegin
  2
*B60
 70
     0
 10
0.0
 20
0.0
 30
0.0
  3
*B60
  1

  0
LINE
  5
346
100
AcDbEntity
  8
0
  6
Continuous
 62
     8
100
AcDbLine
 10
217.934461
 20
189.764657
 30
0.0
 11
217.934461
 21
216.035886
 31
0.0
  0
ENDBLK
  5
347
100
AcDbEntity
  8
0
100
AcDbBlockEnd
  0
BLOCK
  5
34A
100
AcDbEntity
  8
0
100
AcDbBlockBegin
  2
*B61
 70
     0
 10
0.0
 20
0.0
 30
0.0
  3
*B61
  1

  0
LINE
  5
34B
100
AcDbEntity
  8
0
  6
Continuous
 62
     8
100
AcDbLine
 10
236.934328
 20
123.042369
 30
0.0
 11
236.934328
 21
127.042294
 31
0.0
  0
LINE
  5
34C
100
AcDbEntity
  8
0
  6
Continuous
 62
     8
100
AcDbLine
 10
236.934328
 20
100.577302
 30
0.0
 11
236.934328
 21
103.676906
 31
0.0
  0
LINE
  5
34D
100
AcDbEntity
  8
0
  6
Continuous
 62
     8
100
AcDbLine
 10
236.934328
 20
109.676642
 30
0.0
 11
236.934328
 21
123.042369
 31
0.0
  0
ENDBLK
  5
34E
100
AcDbEntity
  8
0
100
AcDbBlockEnd
  0
BLOCK
  5
351
100
AcDbEntity
  8
0
100
AcDbBlockBegin
  2
*B62
 70
     0
 10
0.0
 20
0.0
 30
0.0
  3
*B62
  1

  0
LINE
  5
352
100
AcDbEntity
  8
0
  6
Continuous
 62
     8
100
AcDbLine
 10
269.02565
 20
94.677601
 30
0.0
 11
273.025575
 21
94.677601
 31
0.0
  0
LINE
  5
353
100
AcDbEntity
  8
0
  6
Continuous
 62
     8
100
AcDbLine
 10
224.834518
 20
94.677601
 30
0.0
 11
227.934422
 21
94.677601
 31
0.0
  0
LINE
  5
354
100
AcDbEntity
  8
0
  6
Continuous
 62
     8
100
AcDbLine
 10
233.93446
 20
94.677601
 30
0.0
 11
239.934497
 21
94.677601
 31
0.0
  0
LINE
  5
355
100
AcDbEntity
  8
0
  6
Continuous
 62
     8
100
AcDbLine
 10
245.934234
 20
94.677601
 30
0.0
 11
254.980102
 21
94.677601
 31
0.0
  0
LINE
  5
356
100
AcDbEntity
  8
0
  6
Continuous
 62
     8
100
AcDbLine
 10
256.979914
 20
94.677601
 30
0.0
 11
257.97997
 21
94.677601
 31
0.0
  0
LINE
  5
357
100
AcDbEntity
  8
0
  6
Continuous
 62
     8
100
AcDbLine
 10
259.980083
 20
94.677601
 30
0.0
 11
269.02565
 21
94.677601
 31
0.0
  0
ENDBLK
  5
358
100
AcDbEntity
  8
0
100
AcDbBlockEnd
  0
BLOCK
  5
35B
100
AcDbEntity
  8
0
100
AcDbBlockBegin
  2
*B63
 70
     0
 10
0.0
 20
0.0
 30
0.0
  3
*B63
  1

  0
LINE
  5
35C
100
AcDbEntity
  8
0
  6
Continuous
 62
     6
100
AcDbLine
 10
249.934459
 20
91.427794
 30
0.0
 11
249.934459
 21
93.427606
 31
0.0
  0
LINE
  5
35D
100
AcDbEntity
  8
0
  6
Continuous
 62
     6
100
AcDbLine
 10
248.934402
 20
92.42785
 30
0.0
 11
250.934515
 21
92.42785
 31
0.0
  0
ENDBLK
  5
35E
100
AcDbEntity
  8
0
100
AcDbBlockEnd
  0
BLOCK
  5
361
100
AcDbEntity
  8
0
100
AcDbBlockBegin
  2
*B64
 70
     0
 10
0.0
 20
0.0
 30
0.0
  3
*B64
  1

  0
LINE
  5
362
100
AcDbEntity
  8
0
  6
Continuous
 62
     6
100
AcDbLine
 10
222.934442
 20
92.42785
 30
0.0
 11
224.934254
 21
92.42785
 31
0.0
  0
LINE
  5
363
100
AcDbEntity
  8
0
  6
Continuous
 62
     6
100
AcDbLine
 10
223.934498
 20
91.427794
 30
0.0
 11
223.934498
 21
93.427606
 31
0.0
  0
ENDBLK
  5
364
100
AcDbEntity
  8
0
100
AcDbBlockEnd
  0
BLOCK
  5
367
100
AcDbEntity
  8
0
100
AcDbBlockBegin
  2
*B65
 70
     0
 10
0.0
 20
0.0
 30
0.0
  3
*B65
  1

  0
LINE
  5
368
100
AcDbEntity
  8
0
  6
Continuous
 62
     6
100
AcDbLine
 10
185.934463
 20
100.677338
 30
0.0
 11
187.934275
 21
100.677338
 31
0.0
  0
LINE
  5
369
100
AcDbEntity
  8
0
  6
Continuous
 62
     6
100
AcDbLine
 10
186.934519
 20
99.677281
 30
0.0
 11
186.934519
 21
101.677094
 31
0.0
  0
ENDBLK
  5
36A
100
AcDbEntity
  8
0
100
AcDbBlockEnd
  0
BLOCK
  5
36D
100
AcDbEntity
  8
0
100
AcDbBlockBegin
  2
*B66
 70
     0
 10
0.0
 20
0.0
 30
0.0
  3
*B66
  1

  0
LINE
  5
36E
100
AcDbEntity
  8
0
  6
Continuous
 62
     6
100
AcDbLine
 10
212.93448
 20
99.677281
 30
0.0
 11
212.93448
 21
101.677094
 31
0.0
  0
LINE
  5
36F
100
AcDbEntity
  8
0
  6
Continuous
 62
     6
100
AcDbLine
 10
211.934423
 20
100.677338
 30
0.0
 11
213.934236
 21
100.677338
 31
0.0
  0
ENDBLK
  5
370
100
AcDbEntity
  8
0
100
AcDbBlockEnd
  0
BLOCK
  5
373
100
AcDbEntity
  8
0
100
AcDbBlockBegin
  2
*B67
 70
     0
 10
0.0
 20
0.0
 30
0.0
  3
*B67
  1

  0
LINE
  5
374
100
AcDbEntity
  8
0
  6
Continuous
 62
     6
100
AcDbLine
 10
248.934402
 20
108.926525
 30
0.0
 11
250.934515
 21
108.926525
 31
0.0
  0
LINE
  5
375
100
AcDbEntity
  8
0
  6
Continuous
 62
     6
100
AcDbLine
 10
249.934459
 20
107.926769
 30
0.0
 11
249.934459
 21
109.926581
 31
0.0
  0
ENDBLK
  5
376
100
AcDbEntity
  8
0
100
AcDbBlockEnd
  0
BLOCK
  5
379
100
AcDbEntity
  8
0
100
AcDbBlockBegin
  2
*B68
 70
     0
 10
0.0
 20
0.0
 30
0.0
  3
*B68
  1

  0
LINE
  5
37A
100
AcDbEntity
  8
0
  6
Continuous
 62
     6
100
AcDbLine
 10
230.934291
 20
93.677845
 30
0.0
 11
230.934291
 21
95.677657
 31
0.0
  0
LINE
  5
37B
100
AcDbEntity
  8
0
  6
Continuous
 62
     6
100
AcDbLine
 10
229.934235
 20
94.677601
 30
0.0
 11
231.934347
 21
94.677601
 31
0.0
  0
ENDBLK
  5
37C
100
AcDbEntity
  8
0
100
AcDbBlockEnd
  0
BLOCK
  5
37F
100
AcDbEntity
  8
0
100
AcDbBlockBegin
  2
*B69
 70
     0
 10
0.0
 20
0.0
 30
0.0
  3
*B69
  1

  0
LINE
  5
380
100
AcDbEntity
  8
0
  6
Continuous
 62
     6
100
AcDbLine
 10
222.934442
 20
108.926525
 30
0.0
 11
224.934254
 21
108.926525
 31
0.0
  0
LINE
  5
381
100
AcDbEntity
  8
0
  6
Continuous
 62
     6
100
AcDbLine
 10
223.934498
 20
107.926769
 30
0.0
 11
223.934498
 21
109.926581
 31
0.0
  0
ENDBLK
  5
382
100
AcDbEntity
  8
0
100
AcDbBlockEnd
  0
BLOCK
  5
385
100
AcDbEntity
  8
0
100
AcDbBlockBegin
  2
*B70
 70
     0
 10
0.0
 20
0.0
 30
0.0
  3
*B70
  1

  0
LINE
  5
386
100
AcDbEntity
  8
0
  6
Continuous
 62
     6
100
AcDbLine
 10
242.934365
 20
93.677845
 30
0.0
 11
242.934365
 21
95.677657
 31
0.0
  0
LINE
  5
387
100
AcDbEntity
  8
0
  6
Continuous
 62
     6
100
AcDbLine
 10
241.934309
 20
94.677601
 30
0.0
 11
243.934422
 21
94.677601
 31
0.0
  0
ENDBLK
  5
388
100
AcDbEntity
  8
0
100
AcDbBlockEnd
  0
BLOCK
  5
38B
100
AcDbEntity
  8
0
100
AcDbBlockBegin
  2
*B71
 70
     0
 10
0.0
 20
0.0
 30
0.0
  3
*B71
  1

  0
LINE
  5
38C
100
AcDbEntity
  8
0
  6
Continuous
 62
     6
100
AcDbLine
 10
236.934328
 20
105.676718
 30
0.0
 11
236.934328
 21
107.67683
 31
0.0
  0
LINE
  5
38D
100
AcDbEntity
  8
0
  6
Continuous
 62
     6
100
AcDbLine
 10
235.934272
 20
106.676774
 30
0.0
 11
237.934384
 21
106.676774
 31
0.0
  0
ENDBLK
  5
38E
100
AcDbEntity
  8
0
100
AcDbBlockEnd
  0
BLOCK
  5
391
100
AcDbEntity
  8
0
100
AcDbBlockBegin
  2
*B72
 70
     0
 10
0.0
 20
0.0
 30
0.0
  3
*B72
  1

  0
TEXT
  5
392
100
AcDbEntity
  8
TEXT
  6
Continuous
 62
     0
100
AcDbText
 10
243.5886
 20
99.5
 30
0.0
 40
4.0
  1
1
100
AcDbText
  0
ENDBLK
  5
393
100
AcDbEntity
  8
0
100
AcDbBlockEnd
  0
BLOCK
  5
396
100
AcDbEntity
  8
0
100
AcDbBlockBegin
  2
*B73
 70
     0
 10
0.0
 20
0.0
 30
0.0
  3
*B73
  1

  0
TEXT
  5
397
100
AcDbEntity
  8
TEXT
  6
Continuous
 62
     0
100
AcDbText
 10
235.5886
 20
97.5
 30
0.0
 40
4.0
  1
2
100
AcDbText
  0
ENDBLK
  5
398
100
AcDbEntity
  8
0
100
AcDbBlockEnd
  0
BLOCK
  5
39B
100
AcDbEntity
  8
0
100
AcDbBlockBegin
  2
*B74
 70
     0
 10
0.0
 20
0.0
 30
0.0
  3
*B74
  1

  0
TEXT
  5
39C
100
AcDbEntity
  8
TEXT
  6
Continuous
 62
     0
100
AcDbText
 10
227.5886
 20
99.5
 30
0.0
 40
4.0
  1
3
100
AcDbText
  0
ENDBLK
  5
39D
100
AcDbEntity
  8
0
100
AcDbBlockEnd
  0
BLOCK
  5
3A0
100
AcDbEntity
  8
0
100
AcDbBlockBegin
  2
*B75
 70
     0
 10
0.0
 20
0.0
 30
0.0
  3
*B75
  1

  0
TEXT
  5
3A1
100
AcDbEntity
  8
TEXT
  6
Continuous
 62
     0
100
AcDbText
 10
214.3
 20
94.14145
 30
0.0
 40
3.0
  1
0
 50
90.0
100
AcDbText
  0
ENDBLK
  5
3A2
100
AcDbEntity
  8
0
100
AcDbBlockEnd
  0
BLOCK
  5
3A5
100
AcDbEntity
  8
0
100
AcDbBlockBegin
  2
*B76
 70
     0
 10
0.0
 20
0.0
 30
0.0
  3
*B76
  1

  0
TEXT
  5
3A6
100
AcDbEntity
  8
TEXT
  6
Continuous
 62
     0
100
AcDbText
 10
208.5
 20
99.34145
 30
0.0
 40
3.0
  1
1
 50
90.0
100
AcDbText
  0
ENDBLK
  5
3A7
100
AcDbEntity
  8
0
100
AcDbBlockEnd
  0
BLOCK
  5
3AA
100
AcDbEntity
  8
0
100
AcDbBlockBegin
  2
*B77
 70
     0
 10
0.0
 20
0.0
 30
0.0
  3
*B77
  1

  0
TEXT
  5
3AB
100
AcDbEntity
  8
TEXT
  6
Continuous
 62
     0
100
AcDbText
 10
173.565799
 20
139.0
 30
0.0
 40
6.0
  1
90%%d
100
AcDbText
  0
ENDBLK
  5
3AC
100
AcDbEntity
  8
0
100
AcDbBlockEnd
  0
BLOCK
  5
3AF
100
AcDbEntity
  8
0
100
AcDbBlockBegin
  2
*B78
 70
     0
 10
0.0
 20
0.0
 30
0.0
  3
*B78
  1

  0
TEXT
  5
3B0
100
AcDbEntity
  8
TEXT
  6
Continuous
 62
     0
100
AcDbText
 10
280.25
 20
173.393585
 30
0.0
 40
3.5
  1
22
 50
90.0
100
AcDbText
  0
ENDBLK
  5
3B1
100
AcDbEntity
  8
0
100
AcDbBlockEnd
  0
BLOCK
  5
3B4
100
AcDbEntity
  8
0
100
AcDbBlockBegin
  2
*B79
 70
     0
 10
0.0
 20
0.0
 30
0.0
  3
*B79
  1

  0
TEXT
  5
3B5
100
AcDbEntity
  8
TEXT
  6
Continuous
 62
     0
100
AcDbText
 10
281.25
 20
94.799775
 30
0.0
 40
3.5
  1
16,5
 50
90.0
100
AcDbText
  0
ENDBLK
  5
3B6
100
AcDbEntity
  8
0
100
AcDbBlockEnd
  0
BLOCK
  5
3B9
100
AcDbEntity
  8
0
100
AcDbBlockBegin
  2
*B80
 70
     0
 10
0.0
 20
0.0
 30
0.0
  3
*B80
  1

  0
TEXT
  5
3BA
100
AcDbEntity
  8
TEXT
  6
Continuous
 62
     0
100
AcDbText
 10
269.25
 20
97.299775
 30
0.0
 40
3.5
  1
12
 50
90.0
100
AcDbText
  0
ENDBLK
  5
3BB
100
AcDbEntity
  8
0
100
AcDbBlockEnd
  0
BLOCK
  5
3BE
100
AcDbEntity
  8
0
100
AcDbBlockBegin
  2
*B81
 70
     0
 10
0.0
 20
0.0
 30
0.0
  3
*B81
  1

  0
TEXT
  5
3BF
100
AcDbEntity
  8
TEXT
  6
Continuous
 62
     0
100
AcDbText
 10
225.575421
 20
237.75
 30
0.0
 40
3.5
  1
54
100
AcDbText
  0
ENDBLK
  5
3C0
100
AcDbEntity
  8
0
100
AcDbBlockEnd
  0
BLOCK
  5
3C3
100
AcDbEntity
  8
0
100
AcDbBlockBegin
  2
*B82
 70
     0
 10
0.0
 20
0.0
 30
0.0
  3
*B82
  1

  0
TEXT
  5
3C4
100
AcDbEntity
  8
TEXT
  6
Continuous
 62
     0
100
AcDbText
 10
233.575421
 20
77.75
 30
0.0
 40
3.5
  1
12
100
AcDbText
  0
ENDBLK
  5
3C5
100
AcDbEntity
  8
0
100
AcDbBlockEnd
  0
BLOCK
  5
3C8
100
AcDbEntity
  8
0
100
AcDbBlockBegin
  2
*B83
 70
     0
 10
0.0
 20
0.0
 30
0.0
  3
*B83
  1

  0
TEXT
  5
3C9
100
AcDbEntity
  8
TEXT
  6
Continuous
 62
     0
100
AcDbText
 10
233.575421
 20
138.75
 30
0.0
 40
3.5
  1
26
100
AcDbText
  0
ENDBLK
  5
3CA
100
AcDbEntity
  8
0
100
AcDbBlockEnd
  0
BLOCK
  5
3CD
100
AcDbEntity
  8
0
100
AcDbBlockBegin
  2
*B84
 70
     0
 10
0.0
 20
0.0
 30
0.0
  3
*B84
  1

  0
TEXT
  5
3CE
100
AcDbEntity
  8
TEXT
  6
Continuous
 62
     0
100
AcDbText
 10
140.25
 20
97.299775
 30
0.0
 40
3.5
  1
22
 50
90.0
100
AcDbText
  0
ENDBLK
  5
3CF
100
AcDbEntity
  8
0
100
AcDbBlockEnd
  0
BLOCK
  5
3D2
100
AcDbEntity
  8
0
100
AcDbBlockBegin
  2
*B85
 70
     0
 10
0.0
 20
0.0
 30
0.0
  3
*B85
  1

  0
TEXT
  5
3D3
100
AcDbEntity
  8
TEXT
  6
Continuous
 62
     0
100
AcDbText
 10
139.25
 20
191.39336
 30
0.0
 40
3.5
  1
58
 50
90.0
100
AcDbText
  0
ENDBLK
  5
3D4
100
AcDbEntity
  8
0
100
AcDbBlockEnd
  0
BLOCK
  5
3D7
100
AcDbEntity
  8
0
100
AcDbBlockBegin
  2
*B86
 70
     0
 10
0.0
 20
0.0
 30
0.0
  3
*B86
  1

  0
TEXT
  5
3D8
100
AcDbEntity
  8
TEXT
  6
Continuous
 62
     0
100
AcDbText
 10
246.333333
 20
202.75
 30
0.0
 40
3.5
  1
M5
100
AcDbText
  0
ENDBLK
  5
3D9
100
AcDbEntity
  8
0
100
AcDbBlockEnd
  0
BLOCK
  5
3DC
100
AcDbEntity
  8
0
100
AcDbBlockBegin
  2
*B87
 70
     0
 10
0.0
 20
0.0
 30
0.0
  3
*B87
  1

  0
TEXT
  5
3DD
100
AcDbEntity
  8
TEXT
  6
Continuous
 62
     0
100
AcDbText
 10
174.075421
 20
237.75
 30
0.0
 40
3.5
  1
48
100
AcDbText
  0
ENDBLK
  5
3DE
100
AcDbEntity
  8
0
100
AcDbBlockEnd
  0
BLOCK
  5
3E1
100
AcDbEntity
  8
0
100
AcDbBlockBegin
  2
*B88
 70
     0
 10
0.0
 20
0.0
 30
0.0
  3
*B88
  1

  0
TEXT
  5
3E2
100
AcDbEntity
  8
TEXT
  6
Continuous
 62
     0
100
AcDbText
 10
224.075421
 20
126.75
 30
0.0
 40
3.5
  1
19
100
AcDbText
  0
ENDBLK
  5
3E3
100
AcDbEntity
  8
0
100
AcDbBlockEnd
  0
BLOCK
  5
3E6
100
AcDbEntity
  8
0
100
AcDbBlockBegin
  2
*B89
 70
     0
 10
0.0
 20
0.0
 30
0.0
  3
*B89
  1

  0
TEXT
  5
3E7
100
AcDbEntity
  8
TEXT
  6
Continuous
 62
     0
100
AcDbText
 10
221.075421
 20
66.75
 30
0.0
 40
3.5
  1
13
100
AcDbText
  0
ENDBLK
  5
3E8
100
AcDbEntity
  8
0
100
AcDbBlockEnd
  0
BLOCK
  5
3EB
100
AcDbEntity
  8
0
100
AcDbBlockBegin
  2
*B90
 70
     0
 10
0.0
 20
0.0
 30
0.0
  3
*B90
  1

  0
TEXT
  5
3EC
100
AcDbEntity
  8
TEXT
  6
Continuous
 62
     0
100
AcDbText
 10
258.383333
 20
151.75
 30
0.0
 40
3.5
  1
%%c3,3
100
AcDbText
  0
ENDBLK
  5
3ED
100
AcDbEntity
  8
0
100
AcDbBlockEnd
  0
BLOCK
  5
3F0
100
AcDbEntity
  8
0
100
AcDbBlockBegin
  2
*B91
 70
     0
 10
0.0
 20
0.0
 30
0.0
  3
*B91
  1

  0
TEXT
  5
3F1
100
AcDbEntity
  8
TEXT
  6
Continuous
 62
     0
100
AcDbText
 10
233.575421
 20
215.75
 30
0.0
 40
3.5
  1
38
100
AcDbText
  0
ENDBLK
  5
3F2
100
AcDbEntity
  8
0
100
AcDbBlockEnd
  0
BLOCK
  5
3F5
100
AcDbEntity
  8
0
100
AcDbBlockBegin
  2
*B92
 70
     0
 10
0.0
 20
0.0
 30
0.0
  3
*B92
  1

  0
TEXT
  5
3F6
100
AcDbEntity
  8
TEXT
  6
Continuous
 62
     0
100
AcDbText
 10
207.333333
 20
138.75
 30
0.0
 40
3.5
  1
6
100
AcDbText
  0
ENDBLK
  5
3F7
100
AcDbEntity
  8
0
100
AcDbBlockEnd
  0
ENDSEC
  0
SECTION
  2
ENTITIES
  0
INSERT
  5
BE
100
AcDbEntity
  8
0
  6
Continuous
 62
   174
100
AcDbBlockReference
  2
*B1
 10
0.0
 20
0.0
 30
0.0
  0
INSERT
  5
1B5
100
AcDbEntity
  8
0
  6
Continuous
 62
   174
100
AcDbBlockReference
  2
*B2
 10
0.0
 20
0.0
 30
0.0
  0
INSERT
  5
1BB
100
AcDbEntity
  8
0
  6
Continuous
 62
   172
100
AcDbBlockReference
  2
*B3
 10
0.0
 20
0.0
 30
0.0
  0
INSERT
  5
1C6
100
AcDbEntity
  8
0
  6
Continuous
 62
   172
100
AcDbBlockReference
  2
*B4
 10
0.0
 20
0.0
 30
0.0
  0
INSERT
  5
1CF
100
AcDbEntity
  8
0
  6
Continuous
 62
   172
100
AcDbBlockReference
  2
*B6
 10
0.0
 20
0.0
 30
0.0
  0
INSERT
  5
1DA
100
AcDbEntity
  8
0
  6
Continuous
 62
   172
100
AcDbBlockReference
  2
*B7
 10
0.0
 20
0.0
 30
0.0
  0
INSERT
  5
1E4
100
AcDbEntity
  8
0
  6
Continuous
 62
     0
100
AcDbBlockReference
  2
*B9
 10
0.0
 20
0.0
 30
0.0
  0
INSERT
  5
1EB
100
AcDbEntity
  8
0
  6
Continuous
 62
     0
100
AcDbBlockReference
  2
*B10
 10
0.0
 20
0.0
 30
0.0
  0
INSERT
  5
1F2
100
AcDbEntity
  8
0
  6
Continuous
 62
     0
100
AcDbBlockReference
  2
*B11
 10
0.0
 20
0.0
 30
0.0
  0
INSERT
  5
1F9
100
AcDbEntity
  8
0
  6
Continuous
 62
     0
100
AcDbBlockReference
  2
*B12
 10
0.0
 20
0.0
 30
0.0
  0
INSERT
  5
200
100
AcDbEntity
  8
0
  6
Continuous
 62
     0
100
AcDbBlockReference
  2
*B13
 10
0.0
 20
0.0
 30
0.0
  0
INSERT
  5
207
100
AcDbEntity
  8
0
  6
Continuous
 62
     0
100
AcDbBlockReference
  2
*B14
 10
0.0
 20
0.0
 30
0.0
  0
INSERT
  5
20E
100
AcDbEntity
  8
0
  6
Continuous
 62
     0
100
AcDbBlockReference
  2
*B15
 10
0.0
 20
0.0
 30
0.0
  0
INSERT
  5
215
100
AcDbEntity
  8
0
  6
Continuous
 62
     0
100
AcDbBlockReference
  2
*B16
 10
0.0
 20
0.0
 30
0.0
  0
INSERT
  5
21C
100
AcDbEntity
  8
0
  6
Continuous
 62
     0
100
AcDbBlockReference
  2
*B17
 10
0.0
 20
0.0
 30
0.0
  0
INSERT
  5
223
100
AcDbEntity
  8
0
  6
Continuous
 62
     0
100
AcDbBlockReference
  2
*B18
 10
0.0
 20
0.0
 30
0.0
  0
INSERT
  5
22A
100
AcDbEntity
  8
0
  6
Continuous
 62
     0
100
AcDbBlockReference
  2
*B19
 10
0.0
 20
0.0
 30
0.0
  0
INSERT
  5
231
100
AcDbEntity
  8
0
  6
Continuous
 62
     0
100
AcDbBlockReference
  2
*B20
 10
0.0
 20
0.0
 30
0.0
  0
INSERT
  5
238
100
AcDbEntity
  8
0
  6
Continuous
 62
     0
100
AcDbBlockReference
  2
*B21
 10
0.0
 20
0.0
 30
0.0
  0
INSERT
  5
23F
100
AcDbEntity
  8
0
  6
Continuous
 62
     0
100
AcDbBlockReference
  2
*B22
 10
0.0
 20
0.0
 30
0.0
  0
INSERT
  5
246
100
AcDbEntity
  8
0
  6
Continuous
 62
     0
100
AcDbBlockReference
  2
*B23
 10
0.0
 20
0.0
 30
0.0
  0
INSERT
  5
24B
100
AcDbEntity
  8
0
  6
Continuous
 62
     8
100
AcDbBlockReference
  2
*B24
 10
0.0
 20
0.0
 30
0.0
  0
INSERT
  5
252
100
AcDbEntity
  8
0
  6
Continuous
 62
     8
100
AcDbBlockReference
  2
*B25
 10
0.0
 20
0.0
 30
0.0
  0
INSERT
  5
258
100
AcDbEntity
  8
0
  6
Continuous
 62
     8
100
AcDbBlockReference
  2
*B26
 10
0.0
 20
0.0
 30
0.0
  0
INSERT
  5
25F
100
AcDbEntity
  8
0
  6
Continuous
 62
     8
100
AcDbBlockReference
  2
*B27
 10
0.0
 20
0.0
 30
0.0
  0
INSERT
  5
268
100
AcDbEntity
  8
0
  6
Continuous
 62
     8
100
AcDbBlockReference
  2
*B28
 10
0.0
 20
0.0
 30
0.0
  0
INSERT
  5
26E
100
AcDbEntity
  8
0
  6
Continuous
 62
     8
100
AcDbBlockReference
  2
*B29
 10
0.0
 20
0.0
 30
0.0
  0
INSERT
  5
273
100
AcDbEntity
  8
0
  6
Continuous
 62
     8
100
AcDbBlockReference
  2
*B30
 10
0.0
 20
0.0
 30
0.0
  0
INSERT
  5
278
100
AcDbEntity
  8
0
  6
Continuous
 62
     8
100
AcDbBlockReference
  2
*B31
 10
0.0
 20
0.0
 30
0.0
  0
INSERT
  5
27F
100
AcDbEntity
  8
0
  6
Continuous
 62
     8
100
AcDbBlockReference
  2
*B32
 10
0.0
 20
0.0
 30
0.0
  0
INSERT
  5
284
100
AcDbEntity
  8
0
  6
Continuous
 62
     8
100
AcDbBlockReference
  2
*B33
 10
0.0
 20
0.0
 30
0.0
  0
INSERT
  5
28A
100
AcDbEntity
  8
0
  6
Continuous
 62
     8
100
AcDbBlockReference
  2
*B34
 10
0.0
 20
0.0
 30
0.0
  0
INSERT
  5
294
100
AcDbEntity
  8
0
  6
Continuous
 62
     8
100
AcDbBlockReference
  2
*B35
 10
0.0
 20
0.0
 30
0.0
  0
INSERT
  5
2A9
100
AcDbEntity
  8
0
  6
Continuous
 62
     8
100
AcDbBlockReference
  2
*B36
 10
0.0
 20
0.0
 30
0.0
  0
INSERT
  5
2AE
100
AcDbEntity
  8
0
  6
Continuous
 62
     8
100
AcDbBlockReference
  2
*B37
 10
0.0
 20
0.0
 30
0.0
  0
INSERT
  5
2B3
100
AcDbEntity
  8
0
  6
Continuous
 62
     8
100
AcDbBlockReference
  2
*B38
 10
0.0
 20
0.0
 30
0.0
  0
INSERT
  5
2BC
100
AcDbEntity
  8
0
  6
Continuous
 62
     8
100
AcDbBlockReference
  2
*B39
 10
0.0
 20
0.0
 30
0.0
  0
INSERT
  5
2C1
100
AcDbEntity
  8
0
  6
Continuous
 62
     8
100
AcDbBlockReference
  2
*B40
 10
0.0
 20
0.0
 30
0.0
  0
INSERT
  5
2C7
100
AcDbEntity
  8
0
  6
Continuous
 62
     8
100
AcDbBlockReference
  2
*B41
 10
0.0
 20
0.0
 30
0.0
  0
INSERT
  5
2CC
100
AcDbEntity
  8
0
  6
Continuous
 62
     8
100
AcDbBlockReference
  2
*B42
 10
0.0
 20
0.0
 30
0.0
  0
INSERT
  5
2D1
100
AcDbEntity
  8
0
  6
Continuous
 62
     8
100
AcDbBlockReference
  2
*B43
 10
0.0
 20
0.0
 30
0.0
  0
INSERT
  5
2D7
100
AcDbEntity
  8
0
  6
Continuous
 62
     8
100
AcDbBlockReference
  2
*B44
 10
0.0
 20
0.0
 30
0.0
  0
INSERT
  5
2DC
100
AcDbEntity
  8
0
  6
Continuous
 62
     8
100
AcDbBlockReference
  2
*B45
 10
0.0
 20
0.0
 30
0.0
  0
INSERT
  5
2E1
100
AcDbEntity
  8
0
  6
Continuous
 62
     8
100
AcDbBlockReference
  2
*B46
 10
0.0
 20
0.0
 30
0.0
  0
INSERT
  5
2F4
100
AcDbEntity
  8
0
  6
Continuous
 62
     8
100
AcDbBlockReference
  2
*B47
 10
0.0
 20
0.0
 30
0.0
  0
INSERT
  5
2FD
100
AcDbEntity
  8
0
  6
Continuous
 62
     8
100
AcDbBlockReference
  2
*B48
 10
0.0
 20
0.0
 30
0.0
  0
INSERT
  5
306
100
AcDbEntity
  8
0
  6
Continuous
 62
     8
100
AcDbBlockReference
  2
*B49
 10
0.0
 20
0.0
 30
0.0
  0
INSERT
  5
30B
100
AcDbEntity
  8
0
  6
Continuous
 62
     8
100
AcDbBlockReference
  2
*B50
 10
0.0
 20
0.0
 30
0.0
  0
INSERT
  5
310
100
AcDbEntity
  8
0
  6
Continuous
 62
     8
100
AcDbBlockReference
  2
*B51
 10
0.0
 20
0.0
 30
0.0
  0
INSERT
  5
317
100
AcDbEntity
  8
0
  6
Continuous
 62
     8
100
AcDbBlockReference
  2
*B52
 10
0.0
 20
0.0
 30
0.0
  0
INSERT
  5
31E
100
AcDbEntity
  8
0
  6
Continuous
 62
     8
100
AcDbBlockReference
  2
*B53
 10
0.0
 20
0.0
 30
0.0
  0
INSERT
  5
324
100
AcDbEntity
  8
0
  6
Continuous
 62
     8
100
AcDbBlockReference
  2
*B54
 10
0.0
 20
0.0
 30
0.0
  0
INSERT
  5
32A
100
AcDbEntity
  8
0
  6
Continuous
 62
     8
100
AcDbBlockReference
  2
*B55
 10
0.0
 20
0.0
 30
0.0
  0
INSERT
  5
333
100
AcDbEntity
  8
0
  6
Continuous
 62
     8
100
AcDbBlockReference
  2
*B56
 10
0.0
 20
0.0
 30
0.0
  0
INSERT
  5
338
100
AcDbEntity
  8
0
  6
Continuous
 62
     8
100
AcDbBlockReference
  2
*B57
 10
0.0
 20
0.0
 30
0.0
  0
INSERT
  5
33D
100
AcDbEntity
  8
0
  6
Continuous
 62
     8
100
AcDbBlockReference
  2
*B58
 10
0.0
 20
0.0
 30
0.0
  0
INSERT
  5
343
100
AcDbEntity
  8
0
  6
Continuous
 62
     8
100
AcDbBlockReference
  2
*B59
 10
0.0
 20
0.0
 30
0.0
  0
INSERT
  5
348
100
AcDbEntity
  8
0
  6
Continuous
 62
     8
100
AcDbBlockReference
  2
*B60
 10
0.0
 20
0.0
 30
0.0
  0
INSERT
  5
34F
100
AcDbEntity
  8
0
  6
Continuous
 62
     8
100
AcDbBlockReference
  2
*B61
 10
0.0
 20
0.0
 30
0.0
  0
INSERT
  5
359
100
AcDbEntity
  8
0
  6
Continuous
 62
     8
100
AcDbBlockReference
  2
*B62
 10
0.0
 20
0.0
 30
0.0
  0
INSERT
  5
35F
100
AcDbEntity
  8
0
  6
Continuous
 62
     6
100
AcDbBlockReference
  2
*B63
 10
0.0
 20
0.0
 30
0.0
  0
INSERT
  5
365
100
AcDbEntity
  8
0
  6
Continuous
 62
     6
100
AcDbBlockReference
  2
*B64
 10
0.0
 20
0.0
 30
0.0
  0
INSERT
  5
36B
100
AcDbEntity
  8
0
  6
Continuous
 62
     6
100
AcDbBlockReference
  2
*B65
 10
0.0
 20
0.0
 30
0.0
  0
INSERT
  5
371
100
AcDbEntity
  8
0
  6
Continuous
 62
     6
100
AcDbBlockReference
  2
*B66
 10
0.0
 20
0.0
 30
0.0
  0
INSERT
  5
377
100
AcDbEntity
  8
0
  6
Continuous
 62
     6
100
AcDbBlockReference
  2
*B67
 10
0.0
 20
0.0
 30
0.0
  0
INSERT
  5
37D
100
AcDbEntity
  8
0
  6
Continuous
 62
     6
100
AcDbBlockReference
  2
*B68
 10
0.0
 20
0.0
 30
0.0
  0
INSERT
  5
383
100
AcDbEntity
  8
0
  6
Continuous
 62
     6
100
AcDbBlockReference
  2
*B69
 10
0.0
 20
0.0
 30
0.0
  0
INSERT
  5
389
100
AcDbEntity
  8
0
  6
Continuous
 62
     6
100
AcDbBlockReference
  2
*B70
 10
0.0
 20
0.0
 30
0.0
  0
INSERT
  5
38F
100
AcDbEntity
  8
0
  6
Continuous
 62
     6
100
AcDbBlockReference
  2
*B71
 10
0.0
 20
0.0
 30
0.0
  0
INSERT
  5
394
100
AcDbEntity
  8
TEXT
  6
Continuous
 62
     0
100
AcDbBlockReference
  2
*B72
 10
0.0
 20
0.0
 30
0.0
  0
INSERT
  5
399
100
AcDbEntity
  8
TEXT
  6
Continuous
 62
     0
100
AcDbBlockReference
  2
*B73
 10
0.0
 20
0.0
 30
0.0
  0
INSERT
  5
39E
100
AcDbEntity
  8
TEXT
  6
Continuous
 62
     0
100
AcDbBlockReference
  2
*B74
 10
0.0
 20
0.0
 30
0.0
  0
INSERT
  5
3A3
100
AcDbEntity
  8
TEXT
  6
Continuous
 62
     0
100
AcDbBlockReference
  2
*B75
 10
0.0
 20
0.0
 30
0.0
  0
INSERT
  5
3A8
100
AcDbEntity
  8
TEXT
  6
Continuous
 62
     0
100
AcDbBlockReference
  2
*B76
 10
0.0
 20
0.0
 30
0.0
  0
INSERT
  5
3AD
100
AcDbEntity
  8
TEXT
  6
Continuous
 62
     0
100
AcDbBlockReference
  2
*B77
 10
0.0
 20
0.0
 30
0.0
  0
INSERT
  5
3B2
100
AcDbEntity
  8
TEXT
  6
Continuous
 62
     0
100
AcDbBlockReference
  2
*B78
 10
0.0
 20
0.0
 30
0.0
  0
INSERT
  5
3B7
100
AcDbEntity
  8
TEXT
  6
Continuous
 62
     0
100
AcDbBlockReference
  2
*B79
 10
0.0
 20
0.0
 30
0.0
  0
INSERT
  5
3BC
100
AcDbEntity
  8
TEXT
  6
Continuous
 62
     0
100
AcDbBlockReference
  2
*B80
 10
0.0
 20
0.0
 30
0.0
  0
INSERT
  5
3C1
100
AcDbEntity
  8
TEXT
  6
Continuous
 62
     0
100
AcDbBlockReference
  2
*B81
 10
0.0
 20
0.0
 30
0.0
  0
INSERT
  5
3C6
100
AcDbEntity
  8
TEXT
  6
Continuous
 62
     0
100
AcDbBlockReference
  2
*B82
 10
0.0
 20
0.0
 30
0.0
  0
INSERT
  5
3CB
100
AcDbEntity
  8
TEXT
  6
Continuous
 62
     0
100
AcDbBlockReference
  2
*B83
 10
0.0
 20
0.0
 30
0.0
  0
INSERT
  5
3D0
100
AcDbEntity
  8
TEXT
  6
Continuous
 62
     0
100
AcDbBlockReference
  2
*B84
 10
0.0
 20
0.0
 30
0.0
  0
INSERT
  5
3D5
100
AcDbEntity
  8
TEXT
  6
Continuous
 62
     0
100
AcDbBlockReference
  2
*B85
 10
0.0
 20
0.0
 30
0.0
  0
INSERT
  5
3DA
100
AcDbEntity
  8
TEXT
  6
Continuous
 62
     0
100
AcDbBlockReference
  2
*B86
 10
0.0
 20
0.0
 30
0.0
  0
INSERT
  5
3DF
100
AcDbEntity
  8
TEXT
  6
Continuous
 62
     0
100
AcDbBlockReference
  2
*B87
 10
0.0
 20
0.0
 30
0.0
  0
INSERT
  5
3E4
100
AcDbEntity
  8
TEXT
  6
Continuous
 62
     0
100
AcDbBlockReference
  2
*B88
 10
0.0
 20
0.0
 30
0.0
  0
INSERT
  5
3E9
100
AcDbEntity
  8
TEXT
  6
Continuous
 62
     0
100
AcDbBlockReference
  2
*B89
 10
0.0
 20
0.0
 30
0.0
  0
INSERT
  5
3EE
100
AcDbEntity
  8
TEXT
  6
Continuous
 62
     0
100
AcDbBlockReference
  2
*B90
 10
0.0
 20
0.0
 30
0.0
  0
INSERT
  5
3F3
100
AcDbEntity
  8
TEXT
  6
Continuous
 62
     0
100
AcDbBlockReference
  2
*B91
 10
0.0
 20
0.0
 30
0.0
  0
INSERT
  5
3F8
100
AcDbEntity
  8
TEXT
  6
Continuous
 62
     0
100
AcDbBlockReference
  2
*B92
 10
0.0
 20
0.0
 30
0.0
  0
ENDSEC
  0
SECTION
  2
OBJECTS
  0
DICTIONARY
  5
19
100
AcDbDictionary
280
     0
281
     1
  3
ACAD_GROUP
350
1A
  3
ACAD_MLINESTYLE
350
1B
  3
ACAD_LAYOUT
350
1E
  3
ACAD_PLOTSETTINGS
350
22
  3
ACAD_PLOTSTYLENAME
350
1F
  3
ACAD_WIPEOUT_VARS
350
23
  0
DICTIONARY
  5
1A
102
{ACAD_REACTORS
330
19
102
}
100
AcDbDictionary
280
     0
281
     1
  0
DICTIONARY
  5
1B
102
{ACAD_REACTORS
330
19
102
}
100
AcDbDictionary
280
     0
281
     1
  3
Standard
350
1C
  0
MLINESTYLE
  5
1C
102
{ACAD_REACTORS
330
1B
102
}
100
AcDbMlineStyle
  2
Standard
 70
     0
  3

 62
     0
 51
90.0
 52
90.0
 71
     2
 49
0.5
 62
   256
  6
BYLAYER
 49
-0.5
 62
   256
  6
BYLAYER
  0
ACDBDICTIONARYWDFLT
  5
1F
102
{ACAD_REACTORS
330
19
102
}
100
AcDbDictionary
281
     1
  3
Normal
350
1D
100
AcDbDictionaryWithDefault
340
1D
  0
ACDBPLACEHOLDER
  5
1D
102
{ACAD_REACTORS
330
1F
102
}
  0
LAYOUT
  5
20
102
{ACAD_REACTORS
330
1E
102
}
100
AcDbPlotSettings
  1

  2

  4

  6

 40
0.0
 41
0.0
 42
0.0
 43
0.0
 44
0.0
 45
0.0
 46
0.0
 47
0.0
 48
0.0
 49
0.0
140
0.0
141
0.0
142
1.0
143
1.0
 70
     0
 72
     0
 73
     0
 74
     0
  7

 75
     0
147
1.0
148
0.0
149
0.0
100
AcDbLayout
  1
Model
 70
     0
 71
     0
 10
0.0
 20
0.0
 11
0.0
 21
0.0
 12
0.0
 22
0.0
 32
0.0
 14
0.0
 24
0.0
 34
0.0
 15
0.0
 25
0.0
 35
0.0
146
0.0
 13
0.0
 23
0.0
 33
0.0
 16
0.0
 26
0.0
 36
0.0
 17
0.0
 27
0.0
 37
0.0
 76
     0
330
A
331
0
345
0
346
0
  0
LAYOUT
  5
21
102
{ACAD_REACTORS
330
1E
102
}
100
AcDbPlotSettings
  1

  2

  4

  6

 40
0.0
 41
0.0
 42
0.0
 43
0.0
 44
0.0
 45
0.0
 46
0.0
 47
0.0
 48
0.0
 49
0.0
140
0.0
141
0.0
142
1.0
143
1.0
 70
     0
 72
     0
 73
     0
 74
     0
  7

 75
     0
147
1.0
148
0.0
149
0.0
100
AcDbLayout
  1
Layout1
 70
     0
 71
     0
 10
0.0
 20
0.0
 11
0.0
 21
0.0
 12
0.0
 22
0.0
 32
0.0
 14
0.0
 24
0.0
 34
0.0
 15
0.0
 25
0.0
 35
0.0
146
0.0
 13
0.0
 23
0.0
 33
0.0
 16
0.0
 26
0.0
 36
0.0
 17
0.0
 27
0.0
 37
0.0
 76
     0
330
B
331
0
345
0
346
0
  0
DICTIONARY
  5
1E
102
{ACAD_REACTORS
330
19
102
}
100
AcDbDictionary
280
     0
281
     1
  3
Layout1
350
21
  3
Model
350
20
  0
DICTIONARY
  5
22
102
{ACAD_REACTORS
330
19
102
}
100
AcDbDictionary
280
     0
281
     1
  0
WIPEOUTVARIABLES
  5
23
100
AcDbWipeoutVariables
 70
     1
  0
ENDSEC
  0
EOF
