  0
SECTION
  2
HEADER
  9
$ACADVER
  1
AC1015
  9
$ACADMAINTVER
 70
     6
  9
$DWGCODEPAGE
  3
DOS850
  9
$INSBASE
 10
0.0
 20
0.0
 30
0.0
  9
$EXTMIN
 10
0.0
 20
0.0
 30
0.0
  9
$EXTMAX
 10
420.0
 20
297.0
 30
0.0
  9
$LIMMIN
 10
0.0
 20
0.0
  9
$LIMMAX
 10
420.0
 20
297.0
  9
$ORTHOMODE
 70
     0
  9
$REGENMODE
 70
     1
  9
$FILLMODE
 70
     1
  9
$QTEXTMODE
 70
     0
  9
$MIRRTEXT
 70
     1
  9
$LTSCALE
 40
25.4
  9
$ATTMODE
 70
     1
  9
$TEXTSIZE
 40
3.5
  9
$TRACEWID
 40
0.05
  9
$TEXTSTYLE
  7
Standard
  9
$CLAYER
  8
0
  9
$CELTYPE
  6
Continuous
  9
$CECOLOR
 62
   256
  9
$CELTSCALE
 40
1.0
  9
$DISPSILH
 70
     0
  9
$DIMSCALE
 40
1.0
  9
$DIMASZ
 40
5.0
  9
$DIMEXO
 40
3.0
  9
$DIMDLI
 40
0.38
  9
$DIMRND
 40
0.0
  9
$DIMDLE
 40
0.0
  9
$DIMEXE
 40
2.0
  9
$DIMTP
 40
0.0
  9
$DIMTM
 40
0.0
  9
$DIMTXT
 40
3.5
  9
$DIMCEN
 40
4.0
  9
$DIMTSZ
 40
0.0
  9
$DIMTOL
 70
     0
  9
$DIMLIM
 70
     0
  9
$DIMTIH
 70
     1
  9
$DIMTOH
 70
     1
  9
$DIMSE1
 70
     0
  9
$DIMSE2
 70
     0
  9
$DIMTAD
 70
     0
  9
$DIMZIN
 70
     0
  9
$DIMBLK
  1

  9
$DIMASO
 70
     1
  9
$DIMSHO
 70
     1
  9
$DIMPOST
  1

  9
$DIMAPOST
  1

  9
$DIMALT
 70
     0
  9
$DIMALTD
 70
     2
  9
$DIMALTF
 40
25.4
  9
$DIMLFAC
 40
1.0
  9
$DIMTOFL
 70
     0
  9
$DIMTVP
 40
0.0
  9
$DIMTIX
 70
     0
  9
$DIMSOXD
 70
     0
  9
$DIMSAH
 70
     0
  9
$DIMBLK1
  1

  9
$DIMBLK2
  1

  9
$DIMSTYLE
  2
Standard
  9
$DIMCLRD
 70
     0
  9
$DIMCLRE
 70
     0
  9
$DIMCLRT
 70
     0
  9
$DIMTFAC
 40
1.0
  9
$DIMGAP
 40
1.0
  9
$DIMJUST
 70
     0
  9
$DIMSD1
 70
     0
  9
$DIMSD2
 70
     0
  9
$DIMTOLJ
 70
     1
  9
$DIMTZIN
 70
     0
  9
$DIMALTZ
 70
     0
  9
$DIMALTTZ
 70
     0
  9
$DIMUPT
 70
     0
  9
$DIMDEC
 70
     4
  9
$DIMTDEC
 70
     4
  9
$DIMALTU
 70
     2
  9
$DIMALTTD
 70
     2
  9
$DIMTXSTY
  7
Standard
  9
$DIMAUNIT
 70
     0
  9
$DIMADEC
 70
     0
  9
$DIMALTRND
 40
0.0
  9
$DIMAZIN
 70
     0
  9
$DIMDSEP
 70
     0
  9
$DIMATFIT
 70
     3
  9
$DIMFRAC
 70
     0
  9
$DIMLDRBLK
  1

  9
$DIMLUNIT
 70
     2
  9
$DIMLWD
 70
     0
  9
$DIMLWE
 70
     0
  9
$DIMTMOVE
 70
     0
  9
$LUNITS
 70
     2
  9
$LUPREC
 70
     4
  9
$SKETCHINC
 40
0.1
  9
$FILLETRAD
 40
0.0
  9
$AUNITS
 70
     0
  9
$AUPREC
 70
     0
  9
$MENU
  1
acad
  9
$ELEVATION
 40
0.0
  9
$PELEVATION
 40
0.0
  9
$THICKNESS
 40
0.0
  9
$LIMCHECK
 70
     0
  9
$CHAMFERA
 40
0.0
  9
$CHAMFERB
 40
0.0
  9
$CHAMFERC
 40
0.0
  9
$CHAMFERD
 40
0.0
  9
$SKPOLY
 70
     0
  9
$TDCREATE
 40
0.000000000
  9
$TDUCREATE
 40
0.000000000
  9
$TDUPDATE
 40
0.000000000
  9
$TDUUPDATE
 40
0.000000000
  9
$TDINDWG
 40
0.0000000000
  9
$TDUSRTIMER
 40
0.0000000000
  9
$USRTIMER
 70
     1
  9
$ANGBASE
 50
0.0
  9
$ANGDIR
 70
     0
  9
$PDMODE
 70
     0
  9
$PDSIZE
 40
0.0
  9
$PLINEWID
 40
0.0
  9
$SPLFRAME
 70
     0
  9
$SPLINETYPE
 70
     6
  9
$SPLINESEGS
 70
     8
  9
$HANDSEED
  5
364
  9
$SURFTAB1
 70
     6
  9
$SURFTAB2
 70
     6
  9
$SURFTYPE
 70
     6
  9
$SURFU
 70
     6
  9
$SURFV
 70
     6
  9
$UCSBASE
  2

  9
$UCSNAME
  2

  9
$UCSORG
 10
0.0
 20
0.0
 30
0.0
  9
$UCSXDIR
 10
1.0
 20
0.0
 30
0.0
  9
$UCSYDIR
 10
0.0
 20
1.0
 30
0.0
  9
$UCSORTHOREF
  2

  9
$UCSORTHOVIEW
 70
     0
  9
$UCSORGTOP
 10
0.0
 20
0.0
 30
0.0
  9
$UCSORGBOTTOM
 10
0.0
 20
0.0
 30
0.0
  9
$UCSORGLEFT
 10
0.0
 20
0.0
 30
0.0
  9
$UCSORGRIGHT
 10
0.0
 20
0.0
 30
0.0
  9
$UCSORGFRONT
 10
0.0
 20
0.0
 30
0.0
  9
$UCSORGBACK
 10
0.0
 20
0.0
 30
0.0
  9
$PUCSBASE
  2

  9
$PUCSNAME
  2

  9
$PUCSORG
 10
0.0
 20
0.0
 30
0.0
  9
$PUCSXDIR
 10
1.0
 20
0.0
 30
0.0
  9
$PUCSYDIR
 10
0.0
 20
1.0
 30
0.0
  9
$PUCSORTHOREF
  2

  9
$PUCSORTHOVIEW
 70
     0
  9
$PUCSORGTOP
 10
0.0
 20
0.0
 30
0.0
  9
$PUCSORGBOTTOM
 10
0.0
 20
0.0
 30
0.0
  9
$PUCSORGLEFT
 10
0.0
 20
0.0
 30
0.0
  9
$PUCSORGRIGHT
 10
0.0
 20
0.0
 30
0.0
  9
$PUCSORGFRONT
 10
0.0
 20
0.0
 30
0.0
  9
$PUCSORGBACK
 10
0.0
 20
0.0
 30
0.0
  9
$USERI1
 70
     0
  9
$USERI2
 70
     0
  9
$USERI3
 70
     0
  9
$USERI4
 70
     0
  9
$USERI5
 70
     0
  9
$USERR1
 40
0.0
  9
$USERR2
 40
0.0
  9
$USERR3
 40
0.0
  9
$USERR4
 40
0.0
  9
$USERR5
 40
0.0
  9
$WORLDVIEW
 70
     1
  9
$SHADEDGE
 70
     3
  9
$SHADEDIF
 70
    70
  9
$TILEMODE
 70
     1
  9
$MAXACTVP
 70
    16
  9
$PINSBASE
 10
0.0
 20
0.0
 30
0.0
  9
$PLIMCHECK
 70
     0
  9
$PEXTMIN
 10
1.000000E+20
 20
1.000000E+20
 30
1.000000E+20
  9
$PEXTMAX
 10
-1.000000E+20
 20
-1.000000E+20
 30
-1.000000E+20
  9
$PLIMMIN
 10
0.0
 20
0.0
  9
$PLIMMAX
 10
420.0
 20
297.0
  9
$UNITMODE
 70
     0
  9
$VISRETAIN
 70
     0
  9
$PLINEGEN
 70
     1
  9
$PSLTSCALE
 70
     0
  9
$TREEDEPTH
 70
  3020
  9
$CMLSTYLE
  2
Standard
  9
$CMLJUST
 70
     0
  9
$CMLSCALE
 40
1.0
  9
$PROXYGRAPHICS
 70
     0
  9
$MEASUREMENT
 70
     0
  9
$CELWEIGHT
370
     0
  9
$ENDCAPS
280
     0
  9
$JOINSTYLE
280
     0
  9
$LWDISPLAY
290
     0
  9
$INSUNITS
 70
     0
  9
$HYPERLINKBASE
  1

  9
$XEDIT
290
     1
  9
$CEPSNTYPE
380
     0
  9
$PSTYLEMODE
290
     0
  9
$FINGERPRINTGUID
  2

  9
$VERSIONGUID
  2

  9
$EXTNAMES
290
     1
  9
$PSVPSCALE
 40
0.0
  0
ENDSEC
  0
SECTION
  2
CLASSES
  0
CLASS
  1
LWPOLYLINE
  2
AcDbPolyline
  3
"AutoCAD"
 90
        0
280
     0
281
     1
  0
CLASS
  1
IMAGE
  2
AcDbRasterImage
  3
ISM
 90
      127
280
     0
281
     1
  0
CLASS
  1
OLE2FRAME
  2
AcDbOle2Frame
  3
""
 90
        0
280
     0
281
     1
  0
CLASS
  1
HATCH
  2
AcDbHatch
  3
"ACAD_SEDONA"
 90
        0
280
     0
281
     1
  0
CLASS
  1
DICTIONARYVAR
  2
AcDbDictionaryVar
  3
"AutoCAD"
 90
        0
280
     0
281
     0
  0
CLASS
  1
RASTERVARIABLES
  2
AcDbRasterVariables
  3
ISM
 90
        0
280
     0
281
     0
  0
CLASS
  1
IMAGEDEF
  2
AcDbRasterImageDef
  3
ISM
 90
        0
280
     0
281
     0
  0
CLASS
  1
IMAGEDEF_REACTOR
  2
AcDbRasterImageDefReactor
  3
ISM
 90
        1
280
     0
281
     0
  0
CLASS
  1
IDBUFFER
  2
AcDbIdBuffer
  3
"Acad"
 90
        0
280
     0
281
     0
  0
CLASS
  1
SPATIAL_FILTER
  2
AcDbSpatialFilter
  3
"Acad"
 90
        0
280
     0
281
     0
  0
CLASS
  1
XRECORD
  2
AcDbXrecord
  3
"<Built In>"
 90
        0
280
     0
281
     0
  0
CLASS
  1
SORTENTSTABLE
  2
AcDbSortentsTable
  3
"AutoCAD"
 90
        0
280
     0
281
     0
  0
CLASS
  1
LAYER_INDEX
  2
AcDbLayerIndex
  3
"Acad"
 90
        0
280
     0
281
     0
  0
CLASS
  1
SPATIAL_INDEX
  2
AcDbSpatialIndex
  3
"Acad"
 90
        0
280
     0
281
     0
  0
CLASS
  1
OBJECT_PTR
  2
CAseDLPNTableRecord
  3
"ASE-LPNTableRecord"
 90
        1
280
     0
281
     0
  0
CLASS
  1
LAYOUT
  2
AcDbLayout
  3
"AutoCAD 2000"
 90
        1
280
     0
281
     0
  0
CLASS
  1
PLOTSETTINGS
  2
AcDbPlotSettings
  3
"AutoCAD 2000"
 90
        1
280
     0
281
     0
  0
CLASS
  1
ACDBDICTIONARYWDFLT
  2
AcDbDictionaryWithDefault
  3
"AutoCAD 2000"
 90
        1
280
     0
281
     0
  0
CLASS
  1
ACDBPLACEHOLDER
  2
AcDbPlaceHolder
  3
"AutoCAD 2000"
 90
        1
280
     0
281
     0
  0
CLASS
  1
VBA_PROJECT
  2
AcDbVbaProject
  3
"acadvba"
 90
        1
280
     0
281
     0
  0
CLASS
  1
WIPEOUT
  2
AcDbWipeout
  3
WipeOut|AutoCAD Express Tool|expresstools@autodesk.com
 90
      127
280
     0
281
     1
  0
CLASS
  1
WIPEOUTVARIABLES
  2
AcDbWipeoutVariables
  3
WipeOut|AutoCAD Express Tool|expresstools@autodesk.com
 90
        0
280
     0
281
     0
  0
CLASS
  1
RTEXT
  2
RText
  3
RText|AutoCAD Express Tool|expresstools@autodesk.com
 90
        0
280
     0
281
     1
  0
CLASS
  1
ARCALIGNEDTEXT
  2
AcDbArcAlignedText
  3
ATEXT|AutoCAD Express Tool|expresstools@autodesk.com
 90
        0
280
     0
281
     1
  0
ENDSEC
  0
SECTION
  2
TABLES
  0
TABLE
  2
VPORT
  5
7
100
AcDbSymbolTable
 70
     1
  0
VPORT
  5
15
100
AcDbSymbolTableRecord
100
AcDbViewportTableRecord
  2
*ACTIVE
 70
     0
 10
0.0
 20
0.0
 11
1.0
 21
1.0
 12
6.591288
 22
4.579184
 13
0.0
 23
0.0
 14
1.0
 24
1.0
 15
0.0
 25
0.0
 16
0.0
 26
0.0
 36
1.0
 17
0.0
 27
0.0
 37
0.0
 40
9.158369
 41
0.688564
 42
50.0
 43
0.0
 44
0.0
 50
0.0
 51
0.0
 71
     0
 72
   100
 73
     1
 74
     1
 75
     0
 76
     0
 77
     0
 78
     0
281
     0
 65
     0
110
0.0
120
0.0
130
0.0
111
1.0
121
0.0
131
0.0
112
0.0
122
1.0
132
0.0
345
0
346
0
 79
     0
146
0.0
  0
ENDTAB
  0
TABLE
  2
LTYPE
  5
4
100
AcDbSymbolTable
 70
     7
  0
LTYPE
  5
11
100
AcDbSymbolTableRecord
100
AcDbLinetypeTableRecord
  2
ByBlock
 70
    64
  3

 72
    65
 73
     0
 40
0.0
  0
LTYPE
  5
12
100
AcDbSymbolTableRecord
100
AcDbLinetypeTableRecord
  2
ByLayer
 70
    64
  3

 72
    65
 73
     0
 40
0.0
  0
LTYPE
  5
13
100
AcDbSymbolTableRecord
100
AcDbLinetypeTableRecord
  2
Continuous
 70
    64
  3
Solid line
 72
    65
 73
     0
 40
0.0
  0
LTYPE
  5
24
100
AcDbSymbolTableRecord
100
AcDbLinetypeTableRecord
  2
HIDDEN
 70
    64
  3
_ _ _ _ _ _ _ _ _ _ _ _ _ _ _ _ _ _ _ _ _ _ _ _
 72
    65
 73
     2
 40
0.1875
 49
0.125
 74
     0
 49
-0.0625
 74
     0
  0
LTYPE
  5
25
100
AcDbSymbolTableRecord
100
AcDbLinetypeTableRecord
  2
DOTTED
 70
    64
  3
...............................................
 72
    65
 73
     2
 40
0.125
 49
0.0
 74
     0
 49
-0.125
 74
     0
  0
LTYPE
  5
26
100
AcDbSymbolTableRecord
100
AcDbLinetypeTableRecord
  2
CENTER
 70
    64
  3
____ _ ____ _ ____ _ ____ _ ____ _ ____ _ ____ 
 72
    65
 73
     4
 40
1.125
 49
0.75
 74
     0
 49
-0.125
 74
     0
 49
0.125
 74
     0
 49
-0.125
 74
     0
  0
LTYPE
  5
27
100
AcDbSymbolTableRecord
100
AcDbLinetypeTableRecord
  2
PHANTOM
 70
    64
  3
______  __  __  ______  __  __  ______  __  __ 
 72
    65
 73
     6
 40
1.25
 49
0.625
 74
     0
 49
-0.125
 74
     0
 49
0.125
 74
     0
 49
-0.125
 74
     0
 49
0.125
 74
     0
 49
-0.125
 74
     0
  0
ENDTAB
  0
TABLE
  2
LAYER
  5
2
100
AcDbSymbolTable
 70
     2
  0
LAYER
  5
14
100
AcDbSymbolTableRecord
100
AcDbLayerTableRecord
  2
0
 70
     0
 62
     7
  6
Continuous
290
     1
370
    -3
390
1D
  0
LAYER
  5
28
100
AcDbSymbolTableRecord
100
AcDbLayerTableRecord
  2
TEXT
 70
     0
 62
     8
  6
Continuous
290
     1
370
    -3
390
1F
  0
ENDTAB
  0
TABLE
  2
STYLE
  5
3
100
AcDbSymbolTable
 70
     1
  0
STYLE
  5
17
100
AcDbSymbolTableRecord
100
AcDbTextStyleTableRecord
  2
Standard
 70
     0
 40
0.0
 41
1.0
 50
0.0
 71
     0
 42
0.0
  3
txt
  4

  0
ENDTAB
  0
TABLE
  2
VIEW
  5
5
100
AcDbSymbolTable
 70
     0
  0
ENDTAB
  0
TABLE
  2
UCS
  5
6
100
AcDbSymbolTable
 70
     0
  0
ENDTAB
  0
TABLE
  2
APPID
  5
8
100
AcDbSymbolTable
 70
     1
  0
APPID
  5
16
100
AcDbSymbolTableRecord
100
AcDbRegAppTableRecord
  2
ACAD
 70
     0
  0
ENDTAB
  0
TABLE
  2
DIMSTYLE
  5
9
100
AcDbSymbolTable
 70
     1
100
AcDbDimStyleTable
 71
     0
  0
DIMSTYLE
105
18
100
AcDbSymbolTableRecord
100
AcDbDimStyleTableRecord
  2
Standard
 70
     0
  3

  4

 40
1.0
 41
0.18
 42
0.0625
 43
0.38
 44
0.18
 45
0.0
 46
0.0
 47
0.0
 48
0.0
 71
     0
 72
     0
 73
     1
 74
     1
 75
     0
 76
     0
 77
     0
 78
     0
 79
     0
140
0.18
141
0.09
142
0.0
143
25.4
144
1.0
145
0.0
146
1.0
147
0.09
148
0.0
170
     0
171
     2
172
     0
173
     0
174
     0
175
     0
176
     0
177
     0
178
     0
179
     0
271
     4
272
     4
273
     2
274
     2
275
     0
276
     0
277
     2
278
    46
279
     0
280
     0
281
     0
282
     0
283
     1
284
     0
285
     0
286
     0
288
     0
340
17
341
0
342
0
343
0
344
0
371
    -2
372
    -2
  0
ENDTAB
  0
TABLE
  2
BLOCK_RECORD
  5
1
100
AcDbSymbolTable
 70
    82
  0
BLOCK_RECORD
  5
A
100
AcDbSymbolTableRecord
100
AcDbBlockTableRecord
  2
*MODEL_SPACE
340
20
  0
BLOCK_RECORD
  5
B
100
AcDbSymbolTableRecord
100
AcDbBlockTableRecord
  2
*PAPER_SPACE
340
21
  0
BLOCK_RECORD
  5
29
100
AcDbSymbolTableRecord
100
AcDbBlockTableRecord
  2
*B0
340
0
  0
BLOCK_RECORD
  5
2C
100
AcDbSymbolTableRecord
100
AcDbBlockTableRecord
  2
*B1
340
0
  0
BLOCK_RECORD
  5
F2
100
AcDbSymbolTableRecord
100
AcDbBlockTableRecord
  2
*B2
340
0
  0
BLOCK_RECORD
  5
177
100
AcDbSymbolTableRecord
100
AcDbBlockTableRecord
  2
*B3
340
0
  0
BLOCK_RECORD
  5
17D
100
AcDbSymbolTableRecord
100
AcDbBlockTableRecord
  2
*B4
340
0
  0
BLOCK_RECORD
  5
188
100
AcDbSymbolTableRecord
100
AcDbBlockTableRecord
  2
*B5
340
0
  0
BLOCK_RECORD
  5
18B
100
AcDbSymbolTableRecord
100
AcDbBlockTableRecord
  2
*B6
340
0
  0
BLOCK_RECORD
  5
192
100
AcDbSymbolTableRecord
100
AcDbBlockTableRecord
  2
*B7
340
0
  0
BLOCK_RECORD
  5
199
100
AcDbSymbolTableRecord
100
AcDbBlockTableRecord
  2
*B8
340
0
  0
BLOCK_RECORD
  5
1A0
100
AcDbSymbolTableRecord
100
AcDbBlockTableRecord
  2
*B9
340
0
  0
BLOCK_RECORD
  5
1A7
100
AcDbSymbolTableRecord
100
AcDbBlockTableRecord
  2
*B10
340
0
  0
BLOCK_RECORD
  5
1AE
100
AcDbSymbolTableRecord
100
AcDbBlockTableRecord
  2
*B11
340
0
  0
BLOCK_RECORD
  5
1B5
100
AcDbSymbolTableRecord
100
AcDbBlockTableRecord
  2
*B12
340
0
  0
BLOCK_RECORD
  5
1BC
100
AcDbSymbolTableRecord
100
AcDbBlockTableRecord
  2
*B13
340
0
  0
BLOCK_RECORD
  5
1C3
100
AcDbSymbolTableRecord
100
AcDbBlockTableRecord
  2
*B14
340
0
  0
BLOCK_RECORD
  5
1CA
100
AcDbSymbolTableRecord
100
AcDbBlockTableRecord
  2
*B15
340
0
  0
BLOCK_RECORD
  5
1D1
100
AcDbSymbolTableRecord
100
AcDbBlockTableRecord
  2
*B16
340
0
  0
BLOCK_RECORD
  5
1D8
100
AcDbSymbolTableRecord
100
AcDbBlockTableRecord
  2
*B17
340
0
  0
BLOCK_RECORD
  5
1DF
100
AcDbSymbolTableRecord
100
AcDbBlockTableRecord
  2
*B18
340
0
  0
BLOCK_RECORD
  5
1E6
100
AcDbSymbolTableRecord
100
AcDbBlockTableRecord
  2
*B19
340
0
  0
BLOCK_RECORD
  5
1ED
100
AcDbSymbolTableRecord
100
AcDbBlockTableRecord
  2
*B20
340
0
  0
BLOCK_RECORD
  5
1F4
100
AcDbSymbolTableRecord
100
AcDbBlockTableRecord
  2
*B21
340
0
  0
BLOCK_RECORD
  5
1FA
100
AcDbSymbolTableRecord
100
AcDbBlockTableRecord
  2
*B22
340
0
  0
BLOCK_RECORD
  5
1FF
100
AcDbSymbolTableRecord
100
AcDbBlockTableRecord
  2
*B23
340
0
  0
BLOCK_RECORD
  5
20A
100
AcDbSymbolTableRecord
100
AcDbBlockTableRecord
  2
*B24
340
0
  0
BLOCK_RECORD
  5
20F
100
AcDbSymbolTableRecord
100
AcDbBlockTableRecord
  2
*B25
340
0
  0
BLOCK_RECORD
  5
215
100
AcDbSymbolTableRecord
100
AcDbBlockTableRecord
  2
*B26
340
0
  0
BLOCK_RECORD
  5
21E
100
AcDbSymbolTableRecord
100
AcDbBlockTableRecord
  2
*B27
340
0
  0
BLOCK_RECORD
  5
227
100
AcDbSymbolTableRecord
100
AcDbBlockTableRecord
  2
*B28
340
0
  0
BLOCK_RECORD
  5
22C
100
AcDbSymbolTableRecord
100
AcDbBlockTableRecord
  2
*B29
340
0
  0
BLOCK_RECORD
  5
231
100
AcDbSymbolTableRecord
100
AcDbBlockTableRecord
  2
*B30
340
0
  0
BLOCK_RECORD
  5
237
100
AcDbSymbolTableRecord
100
AcDbBlockTableRecord
  2
*B31
340
0
  0
BLOCK_RECORD
  5
240
100
AcDbSymbolTableRecord
100
AcDbBlockTableRecord
  2
*B32
340
0
  0
BLOCK_RECORD
  5
249
100
AcDbSymbolTableRecord
100
AcDbBlockTableRecord
  2
*B33
340
0
  0
BLOCK_RECORD
  5
24E
100
AcDbSymbolTableRecord
100
AcDbBlockTableRecord
  2
*B34
340
0
  0
BLOCK_RECORD
  5
255
100
AcDbSymbolTableRecord
100
AcDbBlockTableRecord
  2
*B35
340
0
  0
BLOCK_RECORD
  5
25A
100
AcDbSymbolTableRecord
100
AcDbBlockTableRecord
  2
*B36
340
0
  0
BLOCK_RECORD
  5
263
100
AcDbSymbolTableRecord
100
AcDbBlockTableRecord
  2
*B37
340
0
  0
BLOCK_RECORD
  5
268
100
AcDbSymbolTableRecord
100
AcDbBlockTableRecord
  2
*B38
340
0
  0
BLOCK_RECORD
  5
26D
100
AcDbSymbolTableRecord
100
AcDbBlockTableRecord
  2
*B39
340
0
  0
BLOCK_RECORD
  5
276
100
AcDbSymbolTableRecord
100
AcDbBlockTableRecord
  2
*B40
340
0
  0
BLOCK_RECORD
  5
27D
100
AcDbSymbolTableRecord
100
AcDbBlockTableRecord
  2
*B41
340
0
  0
BLOCK_RECORD
  5
282
100
AcDbSymbolTableRecord
100
AcDbBlockTableRecord
  2
*B42
340
0
  0
BLOCK_RECORD
  5
287
100
AcDbSymbolTableRecord
100
AcDbBlockTableRecord
  2
*B43
340
0
  0
BLOCK_RECORD
  5
28C
100
AcDbSymbolTableRecord
100
AcDbBlockTableRecord
  2
*B44
340
0
  0
BLOCK_RECORD
  5
29D
100
AcDbSymbolTableRecord
100
AcDbBlockTableRecord
  2
*B45
340
0
  0
BLOCK_RECORD
  5
2A2
100
AcDbSymbolTableRecord
100
AcDbBlockTableRecord
  2
*B46
340
0
  0
BLOCK_RECORD
  5
2A7
100
AcDbSymbolTableRecord
100
AcDbBlockTableRecord
  2
*B47
340
0
  0
BLOCK_RECORD
  5
2AE
100
AcDbSymbolTableRecord
100
AcDbBlockTableRecord
  2
*B48
340
0
  0
BLOCK_RECORD
  5
2B4
100
AcDbSymbolTableRecord
100
AcDbBlockTableRecord
  2
*B49
340
0
  0
BLOCK_RECORD
  5
2B9
100
AcDbSymbolTableRecord
100
AcDbBlockTableRecord
  2
*B50
340
0
  0
BLOCK_RECORD
  5
2C0
100
AcDbSymbolTableRecord
100
AcDbBlockTableRecord
  2
*B51
340
0
  0
BLOCK_RECORD
  5
2C6
100
AcDbSymbolTableRecord
100
AcDbBlockTableRecord
  2
*B52
340
0
  0
BLOCK_RECORD
  5
2CB
100
AcDbSymbolTableRecord
100
AcDbBlockTableRecord
  2
*B53
340
0
  0
BLOCK_RECORD
  5
2D1
100
AcDbSymbolTableRecord
100
AcDbBlockTableRecord
  2
*B54
340
0
  0
BLOCK_RECORD
  5
2D6
100
AcDbSymbolTableRecord
100
AcDbBlockTableRecord
  2
*B55
340
0
  0
BLOCK_RECORD
  5
2DC
100
AcDbSymbolTableRecord
100
AcDbBlockTableRecord
  2
*B56
340
0
  0
BLOCK_RECORD
  5
2E2
100
AcDbSymbolTableRecord
100
AcDbBlockTableRecord
  2
*B57
340
0
  0
BLOCK_RECORD
  5
2E8
100
AcDbSymbolTableRecord
100
AcDbBlockTableRecord
  2
*B58
340
0
  0
BLOCK_RECORD
  5
2EE
100
AcDbSymbolTableRecord
100
AcDbBlockTableRecord
  2
*B59
340
0
  0
BLOCK_RECORD
  5
2F4
100
AcDbSymbolTableRecord
100
AcDbBlockTableRecord
  2
*B60
340
0
  0
BLOCK_RECORD
  5
2FA
100
AcDbSymbolTableRecord
100
AcDbBlockTableRecord
  2
*B61
340
0
  0
BLOCK_RECORD
  5
300
100
AcDbSymbolTableRecord
100
AcDbBlockTableRecord
  2
*B62
340
0
  0
BLOCK_RECORD
  5
305
100
AcDbSymbolTableRecord
100
AcDbBlockTableRecord
  2
*B63
340
0
  0
BLOCK_RECORD
  5
30A
100
AcDbSymbolTableRecord
100
AcDbBlockTableRecord
  2
*B64
340
0
  0
BLOCK_RECORD
  5
30F
100
AcDbSymbolTableRecord
100
AcDbBlockTableRecord
  2
*B65
340
0
  0
BLOCK_RECORD
  5
314
100
AcDbSymbolTableRecord
100
AcDbBlockTableRecord
  2
*B66
340
0
  0
BLOCK_RECORD
  5
319
100
AcDbSymbolTableRecord
100
AcDbBlockTableRecord
  2
*B67
340
0
  0
BLOCK_RECORD
  5
31E
100
AcDbSymbolTableRecord
100
AcDbBlockTableRecord
  2
*B68
340
0
  0
BLOCK_RECORD
  5
323
100
AcDbSymbolTableRecord
100
AcDbBlockTableRecord
  2
*B69
340
0
  0
BLOCK_RECORD
  5
328
100
AcDbSymbolTableRecord
100
AcDbBlockTableRecord
  2
*B70
340
0
  0
BLOCK_RECORD
  5
32D
100
AcDbSymbolTableRecord
100
AcDbBlockTableRecord
  2
*B71
340
0
  0
BLOCK_RECORD
  5
332
100
AcDbSymbolTableRecord
100
AcDbBlockTableRecord
  2
*B72
340
0
  0
BLOCK_RECORD
  5
337
100
AcDbSymbolTableRecord
100
AcDbBlockTableRecord
  2
*B73
340
0
  0
BLOCK_RECORD
  5
33C
100
AcDbSymbolTableRecord
100
AcDbBlockTableRecord
  2
*B74
340
0
  0
BLOCK_RECORD
  5
341
100
AcDbSymbolTableRecord
100
AcDbBlockTableRecord
  2
*B75
340
0
  0
BLOCK_RECORD
  5
346
100
AcDbSymbolTableRecord
100
AcDbBlockTableRecord
  2
*B76
340
0
  0
BLOCK_RECORD
  5
34B
100
AcDbSymbolTableRecord
100
AcDbBlockTableRecord
  2
*B77
340
0
  0
BLOCK_RECORD
  5
350
100
AcDbSymbolTableRecord
100
AcDbBlockTableRecord
  2
*B78
340
0
  0
BLOCK_RECORD
  5
355
100
AcDbSymbolTableRecord
100
AcDbBlockTableRecord
  2
*B79
340
0
  0
BLOCK_RECORD
  5
35A
100
AcDbSymbolTableRecord
100
AcDbBlockTableRecord
  2
*B80
340
0
  0
BLOCK_RECORD
  5
35F
100
AcDbSymbolTableRecord
100
AcDbBlockTableRecord
  2
*B81
340
0
  0
ENDTAB
  0
ENDSEC
  0
SECTION
  2
BLOCKS
  0
BLOCK
  5
D
100
AcDbEntity
  8
0
100
AcDbBlockBegin
  2
*MODEL_SPACE
 70
     0
 10
0.0
 20
0.0
 30
0.0
  3
*MODEL_SPACE
  1

  0
ENDBLK
  5
E
100
AcDbEntity
  8
0
100
AcDbBlockEnd
  0
BLOCK
  5
F
100
AcDbEntity
 67
     1
  8
0
100
AcDbBlockBegin
  2
*PAPER_SPACE
 70
     0
 10
0.0
 20
0.0
 30
0.0
  3
*PAPER_SPACE
  1

  0
ENDBLK
  5
10
100
AcDbEntity
 67
     1
  8
0
100
AcDbBlockEnd
  0
BLOCK
  5
2A
100
AcDbEntity
  8
0
100
AcDbBlockBegin
  2
*B0
 70
     0
 10
0.0
 20
0.0
 30
0.0
  3
*B0
  1

  0
ENDBLK
  5
2B
100
AcDbEntity
  8
0
100
AcDbBlockEnd
  0
BLOCK
  5
2D
100
AcDbEntity
  8
0
100
AcDbBlockBegin
  2
*B1
 70
     0
 10
0.0
 20
0.0
 30
0.0
  3
*B1
  1

  0
LINE
  5
2E
100
AcDbEntity
  8
0
  6
HIDDEN
 62
   174
100
AcDbLine
 10
189.320376
 20
228.265627
 30
0.0
 11
188.881512
 21
228.265627
 31
0.0
  0
LINE
  5
2F
100
AcDbEntity
  8
0
  6
HIDDEN
 62
   174
100
AcDbLine
 10
188.881512
 20
228.265627
 30
0.0
 11
187.064107
 21
228.265627
 31
0.0
  0
LINE
  5
30
100
AcDbEntity
  8
0
  6
HIDDEN
 62
   174
100
AcDbLine
 10
187.064107
 20
228.265627
 30
0.0
 11
185.086924
 21
228.265627
 31
0.0
  0
LINE
  5
31
100
AcDbEntity
  8
0
  6
Continuous
 62
   174
100
AcDbLine
 10
160.564107
 20
226.765627
 30
0.0
 11
157.564107
 21
226.765627
 31
0.0
  0
LINE
  5
32
100
AcDbEntity
  8
0
  6
Continuous
 62
   174
100
AcDbLine
 10
160.564107
 20
213.765627
 30
0.0
 11
157.564107
 21
213.765627
 31
0.0
  0
LINE
  5
33
100
AcDbEntity
  8
0
  6
Continuous
 62
   174
100
AcDbLine
 10
157.564107
 20
229.265627
 30
0.0
 11
156.864107
 21
229.265627
 31
0.0
  0
LINE
  5
34
100
AcDbEntity
  8
0
  6
Continuous
 62
   174
100
AcDbLine
 10
157.564107
 20
211.265627
 30
0.0
 11
156.864107
 21
211.265627
 31
0.0
  0
LINE
  5
35
100
AcDbEntity
  8
0
  6
HIDDEN
 62
   174
100
AcDbLine
 10
236.71473
 20
192.265627
 30
0.0
 11
245.464697
 21
192.265627
 31
0.0
  0
LINE
  5
36
100
AcDbEntity
  8
0
  6
Continuous
 62
   174
100
AcDbLine
 10
153.064107
 20
212.465627
 30
0.0
 11
153.731361
 21
211.309909
 31
0.0
  0
LINE
  5
37
100
AcDbEntity
  8
0
  6
HIDDEN
 62
   174
100
AcDbLine
 10
259.289746
 20
197.065627
 30
0.0
 11
254.889679
 21
197.065627
 31
0.0
  0
LINE
  5
38
100
AcDbEntity
  8
0
  6
Continuous
 62
   174
100
AcDbLine
 10
153.064107
 20
228.065627
 30
0.0
 11
153.731383
 21
229.221384
 31
0.0
  0
LINE
  5
39
100
AcDbEntity
  8
0
  6
HIDDEN
 62
   174
100
AcDbLine
 10
253.339577
 20
197.065627
 30
0.0
 11
260.839849
 21
197.065627
 31
0.0
  0
LINE
  5
3A
100
AcDbEntity
  8
0
  6
HIDDEN
 62
   174
100
AcDbLine
 10
245.439107
 20
193.265627
 30
0.0
 11
245.439107
 21
201.265627
 31
0.0
  0
LINE
  5
3B
100
AcDbEntity
  8
0
  6
HIDDEN
 62
   174
100
AcDbLine
 10
245.929107
 20
193.265627
 30
0.0
 11
245.929107
 21
201.265627
 31
0.0
  0
LINE
  5
3C
100
AcDbEntity
  8
0
  6
HIDDEN
 62
   174
100
AcDbLine
 10
227.289748
 20
197.065627
 30
0.0
 11
222.889681
 21
197.065627
 31
0.0
  0
LINE
  5
3D
100
AcDbEntity
  8
0
  6
HIDDEN
 62
   174
100
AcDbLine
 10
260.814107
 20
201.265627
 30
0.0
 11
260.814107
 21
197.065627
 31
0.0
  0
LINE
  5
3E
100
AcDbEntity
  8
0
  6
HIDDEN
 62
   174
100
AcDbLine
 10
228.814107
 20
201.265627
 30
0.0
 11
228.814107
 21
197.065627
 31
0.0
  0
LINE
  5
3F
100
AcDbEntity
  8
0
  6
HIDDEN
 62
   174
100
AcDbLine
 10
157.564107
 20
226.800685
 30
0.0
 11
157.564107
 21
220.30107
 31
0.0
  0
LINE
  5
40
100
AcDbEntity
  8
0
  6
Continuous
 62
   174
100
AcDbLine
 10
157.564107
 20
220.30107
 30
0.0
 11
157.564107
 21
227.015176
 31
0.0
  0
LINE
  5
41
100
AcDbEntity
  8
0
  6
HIDDEN
 62
   174
100
AcDbLine
 10
170.564107
 20
173.652675
 30
0.0
 11
170.564107
 21
177.189693
 31
0.0
  0
LINE
  5
42
100
AcDbEntity
  8
0
  6
HIDDEN
 62
   174
100
AcDbLine
 10
236.689107
 20
193.265627
 30
0.0
 11
236.689107
 21
201.265627
 31
0.0
  0
LINE
  5
43
100
AcDbEntity
  8
0
  6
HIDDEN
 62
   174
100
AcDbLine
 10
245.439107
 20
201.265627
 30
0.0
 11
245.439107
 21
192.265627
 31
0.0
  0
LINE
  5
44
100
AcDbEntity
  8
0
  6
HIDDEN
 62
   174
100
AcDbLine
 10
236.71473
 20
201.265627
 30
0.0
 11
245.464697
 21
201.265627
 31
0.0
  0
LINE
  5
45
100
AcDbEntity
  8
0
  6
HIDDEN
 62
   174
100
AcDbLine
 10
172.564107
 20
212.265627
 30
0.0
 11
172.564107
 21
199.265627
 31
0.0
  0
LINE
  5
46
100
AcDbEntity
  8
0
  6
HIDDEN
 62
   174
100
AcDbLine
 10
253.314107
 20
201.265627
 30
0.0
 11
253.314107
 21
197.065627
 31
0.0
  0
LINE
  5
47
100
AcDbEntity
  8
0
  6
HIDDEN
 62
   174
100
AcDbLine
 10
260.814107
 20
201.265627
 30
0.0
 11
260.814107
 21
197.065627
 31
0.0
  0
LINE
  5
48
100
AcDbEntity
  8
0
  6
HIDDEN
 62
   174
100
AcDbLine
 10
254.864107
 20
197.065627
 30
0.0
 11
254.864107
 21
171.265627
 31
0.0
  0
LINE
  5
49
100
AcDbEntity
  8
0
  6
HIDDEN
 62
   174
100
AcDbLine
 10
227.264107
 20
197.065627
 30
0.0
 11
227.264107
 21
171.265627
 31
0.0
  0
LINE
  5
4A
100
AcDbEntity
  8
0
  6
HIDDEN
 62
   174
100
AcDbLine
 10
254.461899
 20
201.265627
 30
0.0
 11
260.839849
 21
201.265627
 31
0.0
  0
LINE
  5
4B
100
AcDbEntity
  8
0
  6
Continuous
 62
   174
100
AcDbLine
 10
218.064107
 20
171.265627
 30
0.0
 11
218.064107
 21
201.265627
 31
0.0
  0
LINE
  5
4C
100
AcDbEntity
  8
0
  6
Continuous
 62
   174
100
AcDbLine
 10
218.064107
 20
201.265627
 30
0.0
 11
264.064107
 21
201.265627
 31
0.0
  0
LINE
  5
4D
100
AcDbEntity
  8
0
  6
HIDDEN
 62
   174
100
AcDbLine
 10
160.564107
 20
226.800685
 30
0.0
 11
160.564107
 21
220.30107
 31
0.0
  0
LINE
  5
4E
100
AcDbEntity
  8
0
  6
Continuous
 62
   174
100
AcDbLine
 10
160.564107
 20
226.90733
 30
0.0
 11
160.564107
 21
220.30107
 31
0.0
  0
LINE
  5
4F
100
AcDbEntity
  8
0
  6
Continuous
 62
   174
100
AcDbLine
 10
157.564107
 20
227.015176
 30
0.0
 11
157.564107
 21
229.300375
 31
0.0
  0
LINE
  5
50
100
AcDbEntity
  8
0
  6
HIDDEN
 62
   174
100
AcDbLine
 10
170.564107
 20
187.347222
 30
0.0
 11
170.564107
 21
190.881272
 31
0.0
  0
LINE
  5
51
100
AcDbEntity
  8
0
  6
Continuous
 62
   174
100
AcDbLine
 10
153.730249
 20
211.313502
 30
0.0
 11
153.213447
 21
212.543797
 31
0.0
  0
LWPOLYLINE
  5
52
100
AcDbEntity
  8
0
  6
HIDDEN
 62
   174
100
AcDbPolyline
 90
        4
 70
   128
 10
153.064107
 20
213.109101
 10
153.197228
 20
212.500742
 10
153.43031
 20
211.889667
 10
153.728206
 20
211.315378
  0
LINE
  5
53
100
AcDbEntity
  8
0
  6
Continuous
 62
   174
100
AcDbLine
 10
153.064107
 20
228.100548
 30
0.0
 11
153.064107
 21
221.192679
 31
0.0
  0
LINE
  5
54
100
AcDbEntity
  8
0
  6
Continuous
 62
   174
100
AcDbLine
 10
164.364107
 20
179.765627
 30
0.0
 11
170.564107
 21
179.765627
 31
0.0
  0
LINE
  5
55
100
AcDbEntity
  8
0
  6
HIDDEN
 62
   174
100
AcDbLine
 10
236.199107
 20
193.265627
 30
0.0
 11
236.199107
 21
201.265627
 31
0.0
  0
LINE
  5
56
100
AcDbEntity
  8
0
  6
HIDDEN
 62
   174
100
AcDbLine
 10
221.314107
 20
201.265627
 30
0.0
 11
221.314107
 21
197.065627
 31
0.0
  0
LINE
  5
57
100
AcDbEntity
  8
0
  6
HIDDEN
 62
   174
100
AcDbLine
 10
254.438167
 20
201.265627
 30
0.0
 11
254.461899
 21
201.265627
 31
0.0
  0
LINE
  5
58
100
AcDbEntity
  8
0
  6
HIDDEN
 62
   174
100
AcDbLine
 10
221.339579
 20
201.265627
 30
0.0
 11
227.717528
 21
201.265627
 31
0.0
  0
LINE
  5
59
100
AcDbEntity
  8
0
  6
Continuous
 62
   174
100
AcDbLine
 10
218.064107
 20
171.265627
 30
0.0
 11
264.064107
 21
171.265627
 31
0.0
  0
LINE
  5
5A
100
AcDbEntity
  8
0
  6
Continuous
 62
   174
100
AcDbLine
 10
201.564107
 20
225.265627
 30
0.0
 11
201.564107
 21
199.265627
 31
0.0
  0
LINE
  5
5B
100
AcDbEntity
  8
0
  6
Continuous
 62
   174
100
AcDbLine
 10
218.064107
 20
171.265627
 30
0.0
 11
202.064107
 21
171.265627
 31
0.0
  0
LINE
  5
5C
100
AcDbEntity
  8
0
  6
Continuous
 62
   174
100
AcDbLine
 10
218.064107
 20
171.265627
 30
0.0
 11
218.064107
 21
201.265627
 31
0.0
  0
LINE
  5
5D
100
AcDbEntity
  8
0
  6
Continuous
 62
   174
100
AcDbLine
 10
160.564107
 20
220.30107
 30
0.0
 11
160.564107
 21
213.69451
 31
0.0
  0
LINE
  5
5E
100
AcDbEntity
  8
0
  6
HIDDEN
 62
   174
100
AcDbLine
 10
156.864107
 20
215.843736
 30
0.0
 11
153.756927
 21
215.843736
 31
0.0
  0
LINE
  5
5F
100
AcDbEntity
  8
0
  6
HIDDEN
 62
   174
100
AcDbLine
 10
245.439107
 20
193.265627
 30
0.0
 11
245.439107
 21
201.265627
 31
0.0
  0
LINE
  5
60
100
AcDbEntity
  8
0
  6
HIDDEN
 62
   174
100
AcDbLine
 10
236.689107
 20
201.265627
 30
0.0
 11
236.689107
 21
192.265627
 31
0.0
  0
LINE
  5
61
100
AcDbEntity
  8
0
  6
Continuous
 62
   174
100
AcDbLine
 10
160.564107
 20
228.265627
 30
0.0
 11
175.564107
 21
228.265627
 31
0.0
  0
LINE
  5
62
100
AcDbEntity
  8
0
  6
HIDDEN
 62
   174
100
AcDbLine
 10
172.564107
 20
217.481745
 30
0.0
 11
172.564107
 21
212.265627
 31
0.0
  0
LINE
  5
63
100
AcDbEntity
  8
0
  6
HIDDEN
 62
   174
100
AcDbLine
 10
259.264107
 20
197.065627
 30
0.0
 11
259.264107
 21
171.265627
 31
0.0
  0
LINE
  5
64
100
AcDbEntity
  8
0
  6
HIDDEN
 62
   174
100
AcDbLine
 10
222.864107
 20
197.065627
 30
0.0
 11
222.864107
 21
171.265627
 31
0.0
  0
LINE
  5
65
100
AcDbEntity
  8
0
  6
Continuous
 62
   174
100
AcDbLine
 10
218.064107
 20
201.265627
 30
0.0
 11
202.064107
 21
201.265627
 31
0.0
  0
LINE
  5
66
100
AcDbEntity
  8
0
  6
Continuous
 62
   174
100
AcDbLine
 10
264.064107
 20
171.265627
 30
0.0
 11
264.064107
 21
201.265627
 31
0.0
  0
LINE
  5
67
100
AcDbEntity
  8
0
  6
HIDDEN
 62
   174
100
AcDbLine
 10
160.564107
 20
213.801455
 30
0.0
 11
160.564107
 21
220.30107
 31
0.0
  0
LINE
  5
68
100
AcDbEntity
  8
0
  6
Continuous
 62
   174
100
AcDbLine
 10
157.564107
 20
211.301765
 30
0.0
 11
157.564107
 21
213.587265
 31
0.0
  0
LINE
  5
69
100
AcDbEntity
  8
0
  6
Continuous
 62
   174
100
AcDbLine
 10
156.864107
 20
224.878378
 30
0.0
 11
156.864107
 21
220.30107
 31
0.0
  0
LINE
  5
6A
100
AcDbEntity
  8
0
  6
Continuous
 62
   174
100
AcDbLine
 10
156.864107
 20
215.687967
 30
0.0
 11
153.756927
 21
215.687967
 31
0.0
  0
LWPOLYLINE
  5
6B
100
AcDbEntity
  8
0
  6
Continuous
 62
   174
100
AcDbPolyline
 90
        4
 70
   128
 10
153.756927
 20
215.687967
 10
153.429027
 20
216.940782
 10
153.196273
 20
218.163603
 10
153.064107
 20
219.374016
  0
LINE
  5
6C
100
AcDbEntity
  8
0
  6
Continuous
 62
   174
100
AcDbLine
 10
164.364107
 20
191.985269
 30
0.0
 11
164.364107
 21
190.91702
 31
0.0
  0
LINE
  5
6D
100
AcDbEntity
  8
0
  6
Continuous
 62
   174
100
AcDbLine
 10
164.364107
 20
187.382126
 30
0.0
 11
164.364107
 21
184.803729
 31
0.0
  0
LINE
  5
6E
100
AcDbEntity
  8
0
  6
Continuous
 62
   174
100
AcDbLine
 10
153.756927
 20
211.266076
 30
0.0
 11
153.729454
 21
211.314913
 31
0.0
  0
LINE
  5
6F
100
AcDbEntity
  8
0
  6
HIDDEN
 62
   174
100
AcDbLine
 10
153.72812
 20
211.315526
 30
0.0
 11
153.756927
 21
211.266076
 31
0.0
  0
LWPOLYLINE
  5
70
100
AcDbEntity
  8
0
  6
HIDDEN
 62
   174
100
AcDbPolyline
 90
        4
 70
   128
 10
153.756927
 20
215.843736
 10
153.429027
 20
215.217329
 10
153.196273
 20
214.605916
 10
153.064107
 20
214.000712
  0
LINE
  5
71
100
AcDbEntity
  8
0
  6
HIDDEN
 62
   174
100
AcDbLine
 10
170.564107
 20
179.768995
 30
0.0
 11
170.564107
 21
184.768994
 31
0.0
  0
LINE
  5
72
100
AcDbEntity
  8
0
  6
HIDDEN
 62
   174
100
AcDbLine
 10
245.954661
 20
193.265627
 30
0.0
 11
236.224766
 21
193.265627
 31
0.0
  0
LINE
  5
73
100
AcDbEntity
  8
0
  6
HIDDEN
 62
   174
100
AcDbLine
 10
228.814107
 20
201.265627
 30
0.0
 11
228.814107
 21
197.065627
 31
0.0
  0
LINE
  5
74
100
AcDbEntity
  8
0
  6
HIDDEN
 62
   174
100
AcDbLine
 10
227.741261
 20
201.265627
 30
0.0
 11
228.83985
 21
201.265627
 31
0.0
  0
LINE
  5
75
100
AcDbEntity
  8
0
  6
HIDDEN
 62
   174
100
AcDbLine
 10
172.064107
 20
172.304678
 30
0.0
 11
172.064107
 21
182.303739
 31
0.0
  0
LINE
  5
76
100
AcDbEntity
  8
0
  6
Continuous
 62
   174
100
AcDbLine
 10
156.864107
 20
220.30107
 30
0.0
 11
156.864107
 21
215.723763
 31
0.0
  0
LWPOLYLINE
  5
77
100
AcDbEntity
  8
0
  6
Continuous
 62
   174
100
AcDbPolyline
 90
        6
 70
   128
 10
153.213447
 20
212.543797
 10
153.162703
 20
212.754813
 10
153.085799
 20
213.477062
 10
153.162718
 20
214.199301
 10
153.390818
 20
214.93632
 10
153.756927
 20
215.687967
  0
LINE
  5
78
100
AcDbEntity
  8
0
  6
HIDDEN
 62
   174
100
AcDbLine
 10
236.689107
 20
193.265627
 30
0.0
 11
236.689107
 21
201.265627
 31
0.0
  0
LINE
  5
79
100
AcDbEntity
  8
0
  6
HIDDEN
 62
   174
100
AcDbLine
 10
245.439107
 20
201.265627
 30
0.0
 11
245.439107
 21
192.265627
 31
0.0
  0
LINE
  5
7A
100
AcDbEntity
  8
0
  6
HIDDEN
 62
   174
100
AcDbLine
 10
245.954661
 20
201.265627
 30
0.0
 11
236.224766
 21
201.265627
 31
0.0
  0
LINE
  5
7B
100
AcDbEntity
  8
0
  6
Continuous
 62
   174
100
AcDbLine
 10
160.564107
 20
212.265627
 30
0.0
 11
172.564107
 21
212.265627
 31
0.0
  0
LINE
  5
7C
100
AcDbEntity
  8
0
  6
HIDDEN
 62
   174
100
AcDbLine
 10
253.314107
 20
201.265627
 30
0.0
 11
253.314107
 21
197.065627
 31
0.0
  0
LINE
  5
7D
100
AcDbEntity
  8
0
  6
HIDDEN
 62
   174
100
AcDbLine
 10
254.864107
 20
197.065627
 30
0.0
 11
254.864107
 21
171.265627
 31
0.0
  0
LINE
  5
7E
100
AcDbEntity
  8
0
  6
HIDDEN
 62
   174
100
AcDbLine
 10
227.264107
 20
197.065627
 30
0.0
 11
227.264107
 21
171.265627
 31
0.0
  0
LINE
  5
7F
100
AcDbEntity
  8
0
  6
HIDDEN
 62
   174
100
AcDbLine
 10
254.889679
 20
171.265627
 30
0.0
 11
259.289746
 21
171.265627
 31
0.0
  0
LINE
  5
80
100
AcDbEntity
  8
0
  6
HIDDEN
 62
   174
100
AcDbLine
 10
227.717528
 20
201.265627
 30
0.0
 11
227.741261
 21
201.265627
 31
0.0
  0
LINE
  5
81
100
AcDbEntity
  8
0
  6
Continuous
 62
   174
100
AcDbLine
 10
202.064107
 20
171.265627
 30
0.0
 11
202.064107
 21
201.265627
 31
0.0
  0
LINE
  5
82
100
AcDbEntity
  8
0
  6
HIDDEN
 62
   174
100
AcDbLine
 10
172.064107
 20
182.303739
 30
0.0
 11
172.064107
 21
192.3031
 31
0.0
  0
LINE
  5
83
100
AcDbEntity
  8
0
  6
Continuous
 62
   174
100
AcDbLine
 10
153.064107
 20
219.409461
 30
0.0
 11
153.064107
 21
212.501593
 31
0.0
  0
LINE
  5
84
100
AcDbEntity
  8
0
  6
HIDDEN
 62
   174
100
AcDbLine
 10
236.199107
 20
193.265627
 30
0.0
 11
236.199107
 21
201.265627
 31
0.0
  0
LINE
  5
85
100
AcDbEntity
  8
0
  6
HIDDEN
 62
   174
100
AcDbLine
 10
221.314107
 20
201.265627
 30
0.0
 11
221.314107
 21
197.065627
 31
0.0
  0
LINE
  5
86
100
AcDbEntity
  8
0
  6
HIDDEN
 62
   174
100
AcDbLine
 10
222.889681
 20
171.265627
 30
0.0
 11
227.289748
 21
171.265627
 31
0.0
  0
LINE
  5
87
100
AcDbEntity
  8
0
  6
Continuous
 62
   174
100
AcDbLine
 10
160.564107
 20
213.69451
 30
0.0
 11
160.564107
 21
212.301521
 31
0.0
  0
LINE
  5
88
100
AcDbEntity
  8
0
  6
Continuous
 62
   174
100
AcDbLine
 10
157.564107
 20
213.587265
 30
0.0
 11
157.564107
 21
220.30107
 31
0.0
  0
LINE
  5
89
100
AcDbEntity
  8
0
  6
Continuous
 62
   174
100
AcDbLine
 10
156.864107
 20
211.266076
 30
0.0
 11
153.756927
 21
211.266076
 31
0.0
  0
LINE
  5
8A
100
AcDbEntity
  8
0
  6
HIDDEN
 62
   174
100
AcDbLine
 10
236.689107
 20
201.265627
 30
0.0
 11
236.689107
 21
192.265627
 31
0.0
  0
LINE
  5
8B
100
AcDbEntity
  8
0
  6
HIDDEN
 62
   174
100
AcDbLine
 10
245.929107
 20
193.265627
 30
0.0
 11
245.929107
 21
201.265627
 31
0.0
  0
LINE
  5
8C
100
AcDbEntity
  8
0
  6
HIDDEN
 62
   174
100
AcDbLine
 10
221.339579
 20
197.065627
 30
0.0
 11
228.83985
 21
197.065627
 31
0.0
  0
LINE
  5
8D
100
AcDbEntity
  8
0
  6
HIDDEN
 62
   174
100
AcDbLine
 10
259.264107
 20
197.065627
 30
0.0
 11
259.264107
 21
171.265627
 31
0.0
  0
LINE
  5
8E
100
AcDbEntity
  8
0
  6
HIDDEN
 62
   174
100
AcDbLine
 10
222.864107
 20
197.065627
 30
0.0
 11
222.864107
 21
171.265627
 31
0.0
  0
LINE
  5
8F
100
AcDbEntity
  8
0
  6
HIDDEN
 62
   174
100
AcDbLine
 10
253.339577
 20
201.265627
 30
0.0
 11
254.438167
 21
201.265627
 31
0.0
  0
LINE
  5
90
100
AcDbEntity
  8
0
  6
HIDDEN
 62
   174
100
AcDbLine
 10
157.564107
 20
220.30107
 30
0.0
 11
157.564107
 21
213.801455
 31
0.0
  0
LINE
  5
91
100
AcDbEntity
  8
0
  6
Continuous
 62
   174
100
AcDbLine
 10
160.564107
 20
228.300619
 30
0.0
 11
160.564107
 21
226.90733
 31
0.0
  0
LINE
  5
92
100
AcDbEntity
  8
0
  6
Continuous
 62
   174
100
AcDbLine
 10
156.864107
 20
215.723763
 30
0.0
 11
156.864107
 21
211.302066
 31
0.0
  0
LINE
  5
93
100
AcDbEntity
  8
0
  6
Continuous
 62
   174
100
AcDbLine
 10
156.864107
 20
229.300075
 30
0.0
 11
156.864107
 21
224.878378
 31
0.0
  0
LINE
  5
94
100
AcDbEntity
  8
0
  6
Continuous
 62
   174
100
AcDbLine
 10
153.064107
 20
219.374016
 30
0.0
 11
153.064107
 21
221.157238
 31
0.0
  0
LWPOLYLINE
  5
95
100
AcDbEntity
  8
0
  6
Continuous
 62
   174
100
AcDbPolyline
 90
        4
 70
   128
 10
153.064107
 20
221.157238
 10
153.197227
 20
222.373954
 10
153.430313
 20
223.596117
 10
153.756927
 20
224.843287
  0
LINE
  5
96
100
AcDbEntity
  8
0
  6
Continuous
 62
   174
100
AcDbLine
 10
164.364107
 20
179.804049
 30
0.0
 11
164.364107
 21
177.225351
 31
0.0
  0
LINE
  5
97
100
AcDbEntity
  8
0
  6
Continuous
 62
   174
100
AcDbLine
 10
153.756927
 20
224.843287
 30
0.0
 11
156.864107
 21
224.843287
 31
0.0
  0
LINE
  5
98
100
AcDbEntity
  8
0
  6
Continuous
 62
   174
100
AcDbLine
 10
164.364107
 20
173.689857
 30
0.0
 11
164.364107
 21
172.621608
 31
0.0
  0
LINE
  5
99
100
AcDbEntity
  8
0
  6
HIDDEN
 62
   174
100
AcDbLine
 10
156.864107
 20
215.843736
 30
0.0
 11
156.864107
 21
211.266076
 31
0.0
  0
LINE
  5
9A
100
AcDbEntity
  8
0
  6
HIDDEN
 62
   174
100
AcDbLine
 10
172.589765
 20
199.265627
 30
0.0
 11
175.589633
 21
199.265627
 31
0.0
  0
LWPOLYLINE
  5
9B
100
AcDbEntity
  8
0
  6
HIDDEN
 62
   174
100
AcDbPolyline
 90
        4
 70
   128
 10
153.728166
 20
229.215807
 10
153.429027
 20
228.638771
 10
153.196273
 20
228.027357
 10
153.064107
 20
227.422153
  0
LINE
  5
9C
100
AcDbEntity
  8
0
  6
Continuous
 62
   174
100
AcDbLine
 10
170.564107
 20
172.265627
 30
0.0
 11
172.064107
 21
172.265627
 31
0.0
  0
LINE
  5
9D
100
AcDbEntity
  8
0
  6
Continuous
 62
   174
100
AcDbLine
 10
201.589894
 20
225.265627
 30
0.0
 11
198.589725
 21
225.265627
 31
0.0
  0
LINE
  5
9E
100
AcDbEntity
  8
0
  6
Continuous
 62
   174
100
AcDbLine
 10
198.564107
 20
228.265627
 30
0.0
 11
175.564107
 21
228.265627
 31
0.0
  0
LINE
  5
9F
100
AcDbEntity
  8
0
  6
HIDDEN
 62
   174
100
AcDbLine
 10
175.564107
 20
225.300751
 30
0.0
 11
175.564107
 21
228.300619
 31
0.0
  0
LINE
  5
A0
100
AcDbEntity
  8
0
  6
Continuous
 62
   174
100
AcDbLine
 10
164.364107
 20
190.879506
 30
0.0
 11
164.364107
 21
187.344227
 31
0.0
  0
LINE
  5
A1
100
AcDbEntity
  8
0
  6
HIDDEN
 62
   174
100
AcDbLine
 10
201.589894
 20
225.265627
 30
0.0
 11
198.589725
 21
225.265627
 31
0.0
  0
ARC
  5
A2
100
AcDbEntity
  8
0
  6
Continuous
 62
   174
100
AcDbCircle
 10
198.564107
 20
225.265627
 30
0.0
 40
3.0
100
AcDbArc
 50
0.0
 51
18.0
  0
LINE
  5
A3
100
AcDbEntity
  8
0
  6
HIDDEN
 62
   174
100
AcDbLine
 10
156.864107
 20
215.843736
 30
0.0
 11
156.864107
 21
224.687518
 31
0.0
  0
LINE
  5
A4
100
AcDbEntity
  8
0
  6
HIDDEN
 62
   174
100
AcDbLine
 10
198.564107
 20
199.265627
 30
0.0
 11
198.564107
 21
225.265627
 31
0.0
  0
LINE
  5
A5
100
AcDbEntity
  8
0
  6
Continuous
 62
   174
100
AcDbLine
 10
164.364107
 20
187.344227
 30
0.0
 11
170.564107
 21
187.344227
 31
0.0
  0
LINE
  5
A6
100
AcDbEntity
  8
0
  6
HIDDEN
 62
   174
100
AcDbLine
 10
164.364107
 20
184.768994
 30
0.0
 11
170.564107
 21
184.768994
 31
0.0
  0
LINE
  5
A7
100
AcDbEntity
  8
0
  6
HIDDEN
 62
   174
100
AcDbLine
 10
175.564107
 20
228.265627
 30
0.0
 11
183.664107
 21
228.265627
 31
0.0
  0
LINE
  5
A8
100
AcDbEntity
  8
0
  6
HIDDEN
 62
   174
100
AcDbLine
 10
153.756927
 20
229.265178
 30
0.0
 11
153.728076
 21
229.215654
 31
0.0
  0
LINE
  5
A9
100
AcDbEntity
  8
0
  6
Continuous
 62
   174
100
AcDbLine
 10
175.589633
 20
225.265627
 30
0.0
 11
172.589765
 21
225.265627
 31
0.0
  0
LINE
  5
AA
100
AcDbEntity
  8
0
  6
Continuous
 62
   174
100
AcDbLine
 10
170.564107
 20
172.304678
 30
0.0
 11
170.564107
 21
172.621608
 31
0.0
  0
LINE
  5
AB
100
AcDbEntity
  8
0
  6
Continuous
 62
   174
100
AcDbLine
 10
170.564107
 20
191.985269
 30
0.0
 11
170.564107
 21
192.3031
 31
0.0
  0
LINE
  5
AC
100
AcDbEntity
  8
0
  6
HIDDEN
 62
   174
100
AcDbLine
 10
164.364107
 20
177.189693
 30
0.0
 11
170.564107
 21
177.189693
 31
0.0
  0
ARC
  5
AD
100
AcDbEntity
  8
0
  6
Continuous
 62
   174
100
AcDbCircle
 10
198.564107
 20
225.265627
 30
0.0
 40
3.0
100
AcDbArc
 50
-288.0
 51
-270.0
  0
LINE
  5
AE
100
AcDbEntity
  8
0
  6
HIDDEN
 62
   174
100
AcDbLine
 10
198.564107
 20
225.265627
 30
0.0
 11
175.564107
 21
225.265627
 31
0.0
  0
LWPOLYLINE
  5
AF
100
AcDbEntity
  8
0
  6
HIDDEN
 62
   174
100
AcDbPolyline
 90
        4
 70
   128
 10
172.564107
 20
217.481745
 10
172.576666
 20
218.378446
 10
172.597072
 20
219.3166
 10
172.606067
 20
220.265627
  0
LINE
  5
B0
100
AcDbEntity
  8
0
  6
HIDDEN
 62
   174
100
AcDbLine
 10
190.464107
 20
228.265627
 30
0.0
 11
198.564107
 21
228.265627
 31
0.0
  0
LINE
  5
B1
100
AcDbEntity
  8
0
  6
HIDDEN
 62
   174
100
AcDbLine
 10
156.864107
 20
229.265178
 30
0.0
 11
156.864107
 21
224.687518
 31
0.0
  0
LINE
  5
B2
100
AcDbEntity
  8
0
  6
Continuous
 62
   174
100
AcDbLine
 10
164.364107
 20
177.186697
 30
0.0
 11
164.364107
 21
173.650908
 31
0.0
  0
LINE
  5
B3
100
AcDbEntity
  8
0
  6
HIDDEN
 62
   174
100
AcDbLine
 10
190.064107
 20
228.265627
 30
0.0
 11
190.464107
 21
228.265627
 31
0.0
  0
ARC
  5
B4
100
AcDbEntity
  8
0
  6
HIDDEN
 62
   174
100
AcDbCircle
 10
175.564107
 20
225.265627
 30
0.0
 40
3.0
100
AcDbArc
 50
90.0
 51
180.0
  0
LINE
  5
B5
100
AcDbEntity
  8
0
  6
HIDDEN
 62
   174
100
AcDbLine
 10
164.364107
 20
187.347222
 30
0.0
 11
170.564107
 21
187.347222
 31
0.0
  0
LINE
  5
B6
100
AcDbEntity
  8
0
  6
HIDDEN
 62
   174
100
AcDbLine
 10
201.564107
 20
225.265627
 30
0.0
 11
201.564107
 21
199.265627
 31
0.0
  0
ARC
  5
B7
100
AcDbEntity
  8
0
  6
Continuous
 62
   174
100
AcDbCircle
 10
198.564107
 20
225.265627
 30
0.0
 40
3.0
100
AcDbArc
 50
-306.0
 51
-288.0
  0
LINE
  5
B8
100
AcDbEntity
  8
0
  6
Continuous
 62
   174
100
AcDbLine
 10
164.364107
 20
184.765627
 30
0.0
 11
170.564107
 21
184.765627
 31
0.0
  0
LINE
  5
B9
100
AcDbEntity
  8
0
  6
HIDDEN
 62
   174
100
AcDbLine
 10
175.564107
 20
199.265627
 30
0.0
 11
175.564107
 21
225.265627
 31
0.0
  0
LINE
  5
BA
100
AcDbEntity
  8
0
  6
HIDDEN
 62
   174
100
AcDbLine
 10
198.564107
 20
199.265627
 30
0.0
 11
175.564107
 21
199.265627
 31
0.0
  0
LINE
  5
BB
100
AcDbEntity
  8
0
  6
Continuous
 62
   174
100
AcDbLine
 10
164.364107
 20
177.186697
 30
0.0
 11
170.564107
 21
177.186697
 31
0.0
  0
LWPOLYLINE
  5
BC
100
AcDbEntity
  8
0
  6
HIDDEN
 62
   174
100
AcDbPolyline
 90
        4
 70
   128
 10
172.564107
 20
223.049509
 10
172.576667
 20
222.152774
 10
172.597072
 20
221.21462
 10
172.606067
 20
220.265627
  0
LINE
  5
BD
100
AcDbEntity
  8
0
  6
Continuous
 62
   174
100
AcDbLine
 10
175.564107
 20
225.300751
 30
0.0
 11
175.564107
 21
228.300619
 31
0.0
  0
LINE
  5
BE
100
AcDbEntity
  8
0
  6
HIDDEN
 62
   174
100
AcDbLine
 10
189.320376
 20
228.265627
 30
0.0
 11
190.064107
 21
228.265627
 31
0.0
  0
LINE
  5
BF
100
AcDbEntity
  8
0
  6
Continuous
 62
   174
100
AcDbLine
 10
156.864107
 20
229.265178
 30
0.0
 11
153.756927
 21
229.265178
 31
0.0
  0
LINE
  5
C0
100
AcDbEntity
  8
0
  6
Continuous
 62
   174
100
AcDbLine
 10
172.564107
 20
217.481745
 30
0.0
 11
172.564107
 21
199.265627
 31
0.0
  0
LWPOLYLINE
  5
C1
100
AcDbEntity
  8
0
  6
Continuous
 62
   174
100
AcDbPolyline
 90
        6
 70
   128
 10
153.756927
 20
224.843287
 10
153.390801
 20
225.594978
 10
153.162703
 20
226.332024
 10
153.085799
 20
227.054272
 10
153.162718
 20
227.776512
 10
153.213618
 20
227.988094
  0
ARC
  5
C2
100
AcDbEntity
  8
0
  6
Continuous
 62
   174
100
AcDbCircle
 10
198.564107
 20
225.265627
 30
0.0
 40
3.0
100
AcDbArc
 50
-324.0
 51
-306.0
  0
LINE
  5
C3
100
AcDbEntity
  8
0
  6
HIDDEN
 62
   174
100
AcDbLine
 10
175.589633
 20
225.265627
 30
0.0
 11
172.589765
 21
225.265627
 31
0.0
  0
LINE
  5
C4
100
AcDbEntity
  8
0
  6
HIDDEN
 62
   174
100
AcDbLine
 10
201.589894
 20
199.265627
 30
0.0
 11
198.589725
 21
199.265627
 31
0.0
  0
LWPOLYLINE
  5
C5
100
AcDbEntity
  8
0
  6
HIDDEN
 62
   174
100
AcDbPolyline
 90
        4
 70
   128
 10
153.064107
 20
226.530542
 10
153.197228
 20
225.922183
 10
153.43031
 20
225.311108
 10
153.756927
 20
224.687518
  0
LINE
  5
C6
100
AcDbEntity
  8
0
  6
HIDDEN
 62
   174
100
AcDbLine
 10
188.881512
 20
228.265627
 30
0.0
 11
189.320376
 21
228.265627
 31
0.0
  0
LINE
  5
C7
100
AcDbEntity
  8
0
  6
HIDDEN
 62
   174
100
AcDbLine
 10
172.564107
 20
223.049509
 30
0.0
 11
172.564107
 21
225.265627
 31
0.0
  0
LINE
  5
C8
100
AcDbEntity
  8
0
  6
HIDDEN
 62
   174
100
AcDbLine
 10
172.564107
 20
225.300751
 30
0.0
 11
172.564107
 21
223.084645
 31
0.0
  0
LINE
  5
C9
100
AcDbEntity
  8
0
  6
HIDDEN
 62
   174
100
AcDbLine
 10
164.364107
 20
173.652675
 30
0.0
 11
170.564107
 21
173.652675
 31
0.0
  0
LINE
  5
CA
100
AcDbEntity
  8
0
  6
Continuous
 62
   174
100
AcDbLine
 10
164.364107
 20
184.765627
 30
0.0
 11
164.364107
 21
179.765627
 31
0.0
  0
LINE
  5
CB
100
AcDbEntity
  8
0
  6
HIDDEN
 62
   174
100
AcDbLine
 10
187.064107
 20
228.265627
 30
0.0
 11
188.881512
 21
228.265627
 31
0.0
  0
ARC
  5
CC
100
AcDbEntity
  8
0
  6
Continuous
 62
   174
100
AcDbCircle
 10
198.564107
 20
225.265627
 30
0.0
 40
3.0
100
AcDbArc
 50
-342.0
 51
-324.0
  0
LINE
  5
CD
100
AcDbEntity
  8
0
  6
HIDDEN
 62
   174
100
AcDbLine
 10
164.364107
 20
190.881272
 30
0.0
 11
170.564107
 21
190.881272
 31
0.0
  0
LINE
  5
CE
100
AcDbEntity
  8
0
  6
Continuous
 62
   174
100
AcDbLine
 10
170.564107
 20
179.804049
 30
0.0
 11
170.564107
 21
183.799767
 31
0.0
  0
LINE
  5
CF
100
AcDbEntity
  8
0
  6
Continuous
 62
   174
100
AcDbLine
 10
170.564107
 20
183.799767
 30
0.0
 11
170.564107
 21
184.803729
 31
0.0
  0
LINE
  5
D0
100
AcDbEntity
  8
0
  6
Continuous
 62
   174
100
AcDbLine
 10
153.729487
 20
229.216384
 30
0.0
 11
153.756927
 21
229.265178
 31
0.0
  0
LINE
  5
D1
100
AcDbEntity
  8
0
  6
Continuous
 62
   174
100
AcDbLine
 10
170.564107
 20
187.382126
 30
0.0
 11
170.564107
 21
190.91702
 31
0.0
  0
LINE
  5
D2
100
AcDbEntity
  8
0
  6
HIDDEN
 62
   174
100
AcDbLine
 10
202.064107
 20
199.265627
 30
0.0
 11
202.064107
 21
171.265627
 31
0.0
  0
LINE
  5
D3
100
AcDbEntity
  8
0
  6
HIDDEN
 62
   174
100
AcDbLine
 10
156.864107
 20
224.687518
 30
0.0
 11
153.756927
 21
224.687518
 31
0.0
  0
LINE
  5
D4
100
AcDbEntity
  8
0
  6
HIDDEN
 62
   174
100
AcDbLine
 10
185.086924
 20
228.265627
 30
0.0
 11
187.064107
 21
228.265627
 31
0.0
  0
LINE
  5
D5
100
AcDbEntity
  8
0
  6
Continuous
 62
   174
100
AcDbLine
 10
175.564107
 20
225.265627
 30
0.0
 11
198.564107
 21
225.265627
 31
0.0
  0
LINE
  5
D6
100
AcDbEntity
  8
0
  6
HIDDEN
 62
   174
100
AcDbLine
 10
164.364107
 20
179.768995
 30
0.0
 11
170.564107
 21
179.768995
 31
0.0
  0
LINE
  5
D7
100
AcDbEntity
  8
0
  6
HIDDEN
 62
   174
100
AcDbLine
 10
172.564107
 20
212.301521
 30
0.0
 11
172.564107
 21
217.517495
 31
0.0
  0
LINE
  5
D8
100
AcDbEntity
  8
0
  6
Continuous
 62
   174
100
AcDbLine
 10
201.564107
 20
199.265627
 30
0.0
 11
201.564107
 21
225.265627
 31
0.0
  0
LINE
  5
D9
100
AcDbEntity
  8
0
  6
Continuous
 62
   174
100
AcDbLine
 10
198.564107
 20
225.265627
 30
0.0
 11
198.564107
 21
199.265627
 31
0.0
  0
ARC
  5
DA
100
AcDbEntity
  8
0
  6
Continuous
 62
   174
100
AcDbCircle
 10
175.564107
 20
225.265627
 30
0.0
 40
3.0
100
AcDbArc
 50
-270.0
 51
-180.0
  0
LINE
  5
DB
100
AcDbEntity
  8
0
  6
Continuous
 62
   174
100
AcDbLine
 10
164.364107
 20
191.947763
 30
0.0
 11
170.564107
 21
191.947763
 31
0.0
  0
LWPOLYLINE
  5
DC
100
AcDbEntity
  8
0
  6
Continuous
 62
   174
100
AcDbPolyline
 90
        4
 70
   128
 10
172.606067
 20
220.265627
 10
172.597072
 20
221.21461
 10
172.576667
 20
222.152776
 10
172.564107
 20
223.049509
  0
LINE
  5
DD
100
AcDbEntity
  8
0
  6
HIDDEN
 62
   174
100
AcDbLine
 10
184.064432
 20
228.265627
 30
0.0
 11
185.086924
 21
228.265627
 31
0.0
  0
LINE
  5
DE
100
AcDbEntity
  8
0
  6
Continuous
 62
   174
100
AcDbLine
 10
170.564107
 20
173.689857
 30
0.0
 11
170.564107
 21
177.225351
 31
0.0
  0
LINE
  5
DF
100
AcDbEntity
  8
0
  6
Continuous
 62
   174
100
AcDbLine
 10
164.364107
 20
173.650908
 30
0.0
 11
170.564107
 21
173.650908
 31
0.0
  0
LINE
  5
E0
100
AcDbEntity
  8
0
  6
Continuous
 62
   174
100
AcDbLine
 10
172.064107
 20
171.265627
 30
0.0
 11
202.064107
 21
171.265627
 31
0.0
  0
LINE
  5
E1
100
AcDbEntity
  8
0
  6
Continuous
 62
   174
100
AcDbLine
 10
164.364107
 20
172.582846
 30
0.0
 11
170.564107
 21
172.582846
 31
0.0
  0
LINE
  5
E2
100
AcDbEntity
  8
0
  6
Continuous
 62
   174
100
AcDbLine
 10
153.213618
 20
227.988094
 30
0.0
 11
153.730273
 21
229.217795
 31
0.0
  0
LINE
  5
E3
100
AcDbEntity
  8
0
  6
Continuous
 62
   174
100
AcDbLine
 10
198.564107
 20
225.300751
 30
0.0
 11
198.564107
 21
228.300619
 31
0.0
  0
LINE
  5
E4
100
AcDbEntity
  8
0
  6
HIDDEN
 62
   174
100
AcDbLine
 10
198.564107
 20
225.300751
 30
0.0
 11
198.564107
 21
228.300619
 31
0.0
  0
ARC
  5
E5
100
AcDbEntity
  8
0
  6
Continuous
 62
   174
100
AcDbCircle
 10
198.564107
 20
225.265627
 30
0.0
 40
3.0
100
AcDbArc
 50
0.0
 51
90.0
  0
LINE
  5
E6
100
AcDbEntity
  8
0
  6
Continuous
 62
   174
100
AcDbLine
 10
202.064107
 20
199.265627
 30
0.0
 11
172.064107
 21
199.265627
 31
0.0
  0
LWPOLYLINE
  5
E7
100
AcDbEntity
  8
0
  6
HIDDEN
 62
   174
100
AcDbPolyline
 90
        6
 70
   128
 10
175.564107
 20
228.265627
 10
174.658791
 20
228.125767
 10
173.850486
 20
227.728045
 10
173.188638
 20
227.097879
 10
172.736812
 20
226.268825
 10
172.564107
 20
225.265627
  0
LINE
  5
E8
100
AcDbEntity
  8
0
  6
Continuous
 62
   174
100
AcDbLine
 10
175.564107
 20
225.265627
 30
0.0
 11
175.564107
 21
199.265627
 31
0.0
  0
LINE
  5
E9
100
AcDbEntity
  8
0
  6
HIDDEN
 62
   174
100
AcDbLine
 10
183.664107
 20
228.265627
 30
0.0
 11
184.064432
 21
228.265627
 31
0.0
  0
LINE
  5
EA
100
AcDbEntity
  8
0
  6
Continuous
 62
   174
100
AcDbLine
 10
172.564107
 20
225.265627
 30
0.0
 11
172.564107
 21
223.049509
 31
0.0
  0
LINE
  5
EB
100
AcDbEntity
  8
0
  6
Continuous
 62
   174
100
AcDbLine
 10
170.564107
 20
192.265627
 30
0.0
 11
172.064107
 21
192.265627
 31
0.0
  0
LWPOLYLINE
  5
EC
100
AcDbEntity
  8
0
  6
Continuous
 62
   174
100
AcDbPolyline
 90
        4
 70
   128
 10
172.606067
 20
220.265627
 10
172.597072
 20
219.31662
 10
172.576667
 20
218.378454
 10
172.564107
 20
217.481745
  0
LWPOLYLINE
  5
ED
100
AcDbEntity
  8
0
  6
HIDDEN
 62
   174
100
AcDbPolyline
 90
        7
 70
   128
 10
153.756927
 20
224.687518
 10
153.390825
 20
223.184247
 10
153.162725
 20
221.710257
 10
153.085794
 20
220.265865
 10
153.162681
 20
218.821418
 10
153.390774
 20
217.347267
 10
153.756927
 20
215.843736
  0
LINE
  5
EE
100
AcDbEntity
  8
0
  6
Continuous
 62
   174
100
AcDbLine
 10
172.064107
 20
171.265627
 30
0.0
 11
172.064107
 21
199.265627
 31
0.0
  0
LINE
  5
EF
100
AcDbEntity
  8
0
  6
Continuous
 62
   174
100
AcDbLine
 10
164.364107
 20
190.879506
 30
0.0
 11
170.564107
 21
190.879506
 31
0.0
  0
ENDBLK
  5
F0
100
AcDbEntity
  8
0
100
AcDbBlockEnd
  0
BLOCK
  5
F3
100
AcDbEntity
  8
0
100
AcDbBlockBegin
  2
*B2
 70
     0
 10
0.0
 20
0.0
 30
0.0
  3
*B2
  1

  0
ARC
  5
F4
100
AcDbEntity
  8
0
  6
Continuous
 62
   174
100
AcDbCircle
 10
187.064107
 20
98.452463
 30
0.0
 40
3.4
100
AcDbArc
 50
-270.0
 51
-90.0
  0
ARC
  5
F5
100
AcDbEntity
  8
0
  6
Continuous
 62
   174
100
AcDbCircle
 10
187.064107
 20
98.452463
 30
0.0
 40
3.4
100
AcDbArc
 50
-90.0
 51
90.0
  0
ARC
  5
F6
100
AcDbEntity
  8
0
  6
Continuous
 62
   174
100
AcDbCircle
 10
187.064107
 20
98.452463
 30
0.0
 40
3.0
100
AcDbArc
 50
-217.286546
 51
-52.713454
  0
LINE
  5
F7
100
AcDbEntity
  8
0
  6
Continuous
 62
   174
100
AcDbLine
 10
184.67726
 20
100.269867
 30
0.0
 11
188.881512
 21
96.065615
 31
0.0
  0
ARC
  5
F8
100
AcDbEntity
  8
0
  6
Continuous
 62
   174
100
AcDbCircle
 10
187.064107
 20
98.452463
 30
0.0
 40
3.0
100
AcDbArc
 50
-41.228296
 51
131.228296
  0
LINE
  5
F9
100
AcDbEntity
  8
0
  6
Continuous
 62
   174
100
AcDbLine
 10
189.320376
 20
96.47528
 30
0.0
 11
185.086924
 21
100.708731
 31
0.0
  0
LINE
  5
FA
100
AcDbEntity
  8
0
  6
Continuous
 62
   174
100
AcDbLine
 10
160.564107
 20
104.952463
 30
0.0
 11
157.564107
 21
104.952463
 31
0.0
  0
LINE
  5
FB
100
AcDbEntity
  8
0
  6
Continuous
 62
   174
100
AcDbLine
 10
160.564107
 20
91.952463
 30
0.0
 11
157.564107
 21
91.952463
 31
0.0
  0
LINE
  5
FC
100
AcDbEntity
  8
0
  6
Continuous
 62
   174
100
AcDbLine
 10
160.564107
 20
104.952463
 30
0.0
 11
157.564107
 21
104.952463
 31
0.0
  0
LINE
  5
FD
100
AcDbEntity
  8
0
  6
Continuous
 62
   174
100
AcDbLine
 10
160.564107
 20
91.952463
 30
0.0
 11
157.564107
 21
91.952463
 31
0.0
  0
LINE
  5
FE
100
AcDbEntity
  8
0
  6
Continuous
 62
   174
100
AcDbLine
 10
157.564107
 20
107.452463
 30
0.0
 11
156.864107
 21
107.452463
 31
0.0
  0
LINE
  5
FF
100
AcDbEntity
  8
0
  6
Continuous
 62
   174
100
AcDbLine
 10
157.564107
 20
89.452463
 30
0.0
 11
156.864107
 21
89.452463
 31
0.0
  0
LINE
  5
100
100
AcDbEntity
  8
0
  6
Continuous
 62
   174
100
AcDbLine
 10
157.564107
 20
107.452463
 30
0.0
 11
156.864107
 21
107.452463
 31
0.0
  0
LINE
  5
101
100
AcDbEntity
  8
0
  6
Continuous
 62
   174
100
AcDbLine
 10
160.564107
 20
90.452463
 30
0.0
 11
172.606067
 21
90.452463
 31
0.0
  0
LINE
  5
102
100
AcDbEntity
  8
0
  6
Continuous
 62
   174
100
AcDbLine
 10
172.564107
 20
90.952463
 30
0.0
 11
172.564107
 21
92.207465
 31
0.0
  0
ARC
  5
103
100
AcDbEntity
  8
0
  6
Continuous
 62
   174
100
AcDbCircle
 10
232.064107
 20
91.452463
 30
0.0
 40
4.375
100
AcDbArc
 50
14.450991
 51
180.0
  0
LINE
  5
104
100
AcDbEntity
  8
0
  6
Continuous
 62
   174
100
AcDbLine
 10
213.283659
 20
95.861749
 30
0.0
 11
213.283659
 21
101.043176
 31
0.0
  0
LINE
  5
105
100
AcDbEntity
  8
0
  6
Continuous
 62
   174
100
AcDbLine
 10
202.064107
 20
83.452463
 30
0.0
 11
202.064107
 21
113.452463
 31
0.0
  0
LINE
  5
106
100
AcDbEntity
  8
0
  6
Continuous
 62
   174
100
AcDbLine
 10
164.364107
 20
108.177609
 30
0.0
 11
164.364107
 21
107.10876
 31
0.0
  0
LINE
  5
107
100
AcDbEntity
  8
0
  6
Continuous
 62
   174
100
AcDbLine
 10
164.364107
 20
89.882798
 30
0.0
 11
164.364107
 21
88.81485
 31
0.0
  0
LWPOLYLINE
  5
108
100
AcDbEntity
  8
0
  6
Continuous
 62
   174
100
AcDbPolyline
 90
        3
 70
   128
 10
153.756927
 20
106.291269
 10
153.390825
 20
106.291269
 10
153.162725
 20
106.291269
  0
LINE
  5
109
100
AcDbEntity
  8
0
  6
Continuous
 62
   174
100
AcDbLine
 10
153.111949
 20
106.291269
 30
0.0
 11
153.188252
 21
106.291269
 31
0.0
  0
LINE
  5
10A
100
AcDbEntity
  8
0
  6
Continuous
 62
   174
100
AcDbLine
 10
156.864107
 20
106.291269
 30
0.0
 11
153.756927
 21
106.291269
 31
0.0
  0
LINE
  5
10B
100
AcDbEntity
  8
0
  6
Continuous
 62
   174
100
AcDbLine
 10
198.564107
 20
105.952463
 30
0.0
 11
198.564107
 21
90.952463
 31
0.0
  0
LINE
  5
10C
100
AcDbEntity
  8
0
  6
Continuous
 62
   174
100
AcDbLine
 10
198.564107
 20
90.952463
 30
0.0
 11
175.564107
 21
90.952463
 31
0.0
  0
ARC
  5
10D
100
AcDbEntity
  8
0
  6
Continuous
 62
   174
100
AcDbCircle
 10
241.064107
 20
105.452463
 30
0.0
 40
4.865
100
AcDbArc
 50
-180.0
 51
0.0
  0
LINE
  5
10E
100
AcDbEntity
  8
0
  6
Continuous
 62
   174
100
AcDbLine
 10
160.564107
 20
90.452463
 30
0.0
 11
172.606067
 21
90.452463
 31
0.0
  0
ARC
  5
10F
100
AcDbEntity
  8
0
  6
Continuous
 62
   174
100
AcDbCircle
 10
225.064107
 20
108.452463
 30
0.0
 40
2.2
100
AcDbArc
 50
-180.0
 51
0.0
  0
ARC
  5
110
100
AcDbEntity
  8
0
  6
Continuous
 62
   174
100
AcDbCircle
 10
225.064107
 20
108.452463
 30
0.0
 40
2.2
100
AcDbArc
 50
0.0
 51
180.0
  0
LINE
  5
111
100
AcDbEntity
  8
0
  6
Continuous
 62
   174
100
AcDbLine
 10
201.564107
 20
105.952463
 30
0.0
 11
201.564107
 21
90.952463
 31
0.0
  0
LINE
  5
112
100
AcDbEntity
  8
0
  6
Continuous
 62
   174
100
AcDbLine
 10
218.064107
 20
83.452463
 30
0.0
 11
218.064107
 21
113.452463
 31
0.0
  0
LINE
  5
113
100
AcDbEntity
  8
0
  6
Continuous
 62
   174
100
AcDbLine
 10
160.564107
 20
105.102639
 30
0.0
 11
160.564107
 21
91.890721
 31
0.0
  0
LINE
  5
114
100
AcDbEntity
  8
0
  6
Continuous
 62
   174
100
AcDbLine
 10
156.864107
 20
107.495985
 30
0.0
 11
156.864107
 21
106.33491
 31
0.0
  0
LINE
  5
115
100
AcDbEntity
  8
0
  6
Continuous
 62
   174
100
AcDbLine
 10
156.864107
 20
98.362529
 30
0.0
 11
153.756927
 21
98.362529
 31
0.0
  0
LWPOLYLINE
  5
116
100
AcDbEntity
  8
0
  6
Continuous
 62
   174
100
AcDbPolyline
 90
        4
 70
   128
 10
153.756927
 20
98.362529
 10
153.429027
 20
99.447498
 10
153.196273
 20
100.506497
 10
153.064107
 20
101.554741
  0
LINE
  5
117
100
AcDbEntity
  8
0
  6
Continuous
 62
   174
100
AcDbLine
 10
164.364107
 20
90.452463
 30
0.0
 11
164.364107
 21
89.838066
 31
0.0
  0
ARC
  5
118
100
AcDbEntity
  8
0
  6
Continuous
 62
   174
100
AcDbCircle
 10
175.564107
 20
90.952463
 30
0.0
 40
3.0
100
AcDbArc
 50
-180.0
 51
-90.0
  0
LINE
  5
119
100
AcDbEntity
  8
0
  6
Continuous
 62
   174
100
AcDbLine
 10
171.064107
 20
108.452463
 30
0.0
 11
172.064107
 21
108.452463
 31
0.0
  0
LINE
  5
11A
100
AcDbEntity
  8
0
  6
Continuous
 62
   174
100
AcDbLine
 10
171.064107
 20
88.452463
 30
0.0
 11
172.064107
 21
88.452463
 31
0.0
  0
LINE
  5
11B
100
AcDbEntity
  8
0
  6
Continuous
 62
   174
100
AcDbLine
 10
172.564107
 20
105.952463
 30
0.0
 11
172.564107
 21
104.697461
 31
0.0
  0
LINE
  5
11C
100
AcDbEntity
  8
0
  6
Continuous
 62
   174
100
AcDbLine
 10
175.589633
 20
105.952463
 30
0.0
 11
172.589765
 21
105.952463
 31
0.0
  0
ARC
  5
11D
100
AcDbEntity
  8
0
  6
Continuous
 62
   174
100
AcDbCircle
 10
175.564107
 20
105.952463
 30
0.0
 40
3.0
100
AcDbArc
 50
-270.0
 51
-180.0
  0
ARC
  5
11E
100
AcDbEntity
  8
0
  6
Continuous
 62
   174
100
AcDbCircle
 10
241.064107
 20
105.452463
 30
0.0
 40
4.865
100
AcDbArc
 50
0.0
 51
118.805294
  0
ARC
  5
11F
100
AcDbEntity
  8
0
  6
Continuous
 62
   174
100
AcDbCircle
 10
232.064107
 20
91.452463
 30
0.0
 40
4.865
100
AcDbArc
 50
-180.0
 51
0.0
  0
ARC
  5
120
100
AcDbEntity
  8
0
  6
Continuous
 62
   174
100
AcDbCircle
 10
232.064107
 20
91.452463
 30
0.0
 40
4.375
100
AcDbArc
 50
180.0
 51
345.549009
  0
ARC
  5
121
100
AcDbEntity
  8
0
  6
Continuous
 62
   174
100
AcDbCircle
 10
213.064107
 20
98.452463
 30
0.0
 40
3.0
100
AcDbArc
 50
-90.0
 51
90.0
  0
LINE
  5
122
100
AcDbEntity
  8
0
  6
Continuous
 62
   174
100
AcDbLine
 10
198.564107
 20
87.952463
 30
0.0
 11
175.564107
 21
87.952463
 31
0.0
  0
LINE
  5
123
100
AcDbEntity
  8
0
  6
Continuous
 62
   174
100
AcDbLine
 10
218.064107
 20
113.452463
 30
0.0
 11
218.064107
 21
83.452463
 31
0.0
  0
LINE
  5
124
100
AcDbEntity
  8
0
  6
Continuous
 62
   174
100
AcDbLine
 10
164.364107
 20
88.770004
 30
0.0
 11
170.564107
 21
88.770004
 31
0.0
  0
LINE
  5
125
100
AcDbEntity
  8
0
  6
Continuous
 62
   174
100
AcDbLine
 10
164.364107
 20
89.838066
 30
0.0
 11
170.564107
 21
89.838066
 31
0.0
  0
LWPOLYLINE
  5
126
100
AcDbEntity
  8
0
  6
Continuous
 62
   174
100
AcDbPolyline
 90
        6
 70
   128
 10
172.564107
 20
92.207465
 10
172.73645
 20
93.163426
 10
173.18825
 20
94.289866
 10
173.85132
 20
95.570857
 10
174.659851
 20
96.964873
 10
175.564107
 20
98.452463
  0
LINE
  5
127
100
AcDbEntity
  8
0
  6
Continuous
 62
   174
100
AcDbLine
 10
164.364107
 20
107.065092
 30
0.0
 11
170.564107
 21
107.065092
 31
0.0
  0
LINE
  5
128
100
AcDbEntity
  8
0
  6
Continuous
 62
   174
100
AcDbLine
 10
175.564107
 20
98.452463
 30
0.0
 11
175.564107
 21
105.952463
 31
0.0
  0
LINE
  5
129
100
AcDbEntity
  8
0
  6
Continuous
 62
   174
100
AcDbLine
 10
175.564107
 20
105.952463
 30
0.0
 11
198.564107
 21
105.952463
 31
0.0
  0
LINE
  5
12A
100
AcDbEntity
  8
0
  6
Continuous
 62
   174
100
AcDbLine
 10
157.564107
 20
89.452463
 30
0.0
 11
156.864107
 21
89.452463
 31
0.0
  0
LINE
  5
12B
100
AcDbEntity
  8
0
  6
Continuous
 62
   174
100
AcDbLine
 10
160.564107
 20
106.452463
 30
0.0
 11
172.606067
 21
106.452463
 31
0.0
  0
ARC
  5
12C
100
AcDbEntity
  8
0
  6
Continuous
 62
   174
100
AcDbCircle
 10
232.064107
 20
91.452463
 30
0.0
 40
4.865
100
AcDbArc
 50
0.0
 51
118.805294
  0
ARC
  5
12D
100
AcDbEntity
  8
0
  6
Continuous
 62
   174
100
AcDbCircle
 10
241.064107
 20
105.452463
 30
0.0
 40
4.375
100
AcDbArc
 50
0.0
 51
180.0
  0
ARC
  5
12E
100
AcDbEntity
  8
0
  6
Continuous
 62
   174
100
AcDbCircle
 10
232.064107
 20
91.452463
 30
0.0
 40
4.375
100
AcDbArc
 50
-14.450991
 51
0.0
  0
LINE
  5
12F
100
AcDbEntity
  8
0
  6
Continuous
 62
   174
100
AcDbLine
 10
264.064107
 20
113.452463
 30
0.0
 11
218.064107
 21
113.452463
 31
0.0
  0
LINE
  5
130
100
AcDbEntity
  8
0
  6
Continuous
 62
   174
100
AcDbLine
 10
153.064107
 20
101.554741
 30
0.0
 11
153.064107
 21
103.099057
 31
0.0
  0
LWPOLYLINE
  5
131
100
AcDbEntity
  8
0
  6
Continuous
 62
   174
100
AcDbPolyline
 90
        6
 70
   128
 10
175.564107
 20
98.452463
 10
174.658791
 20
99.941823
 10
173.850486
 20
101.335571
 10
173.188638
 20
102.614233
 10
172.736812
 20
103.740337
 10
172.564107
 20
104.697461
  0
LINE
  5
132
100
AcDbEntity
  8
0
  6
Continuous
 62
   174
100
AcDbLine
 10
164.364107
 20
108.134051
 30
0.0
 11
170.564107
 21
108.134051
 31
0.0
  0
LINE
  5
133
100
AcDbEntity
  8
0
  6
Continuous
 62
   174
100
AcDbLine
 10
170.564107
 20
88.452463
 30
0.0
 11
171.064107
 21
88.452463
 31
0.0
  0
ARC
  5
134
100
AcDbEntity
  8
0
  6
Continuous
 62
   174
100
AcDbCircle
 10
250.064107
 20
91.452463
 30
0.0
 40
4.865
100
AcDbArc
 50
-180.0
 51
0.0
  0
ARC
  5
135
100
AcDbEntity
  8
0
  6
Continuous
 62
   174
100
AcDbCircle
 10
241.064107
 20
105.452463
 30
0.0
 40
4.375
100
AcDbArc
 50
-180.0
 51
0.0
  0
ARC
  5
136
100
AcDbEntity
  8
0
  6
Continuous
 62
   174
100
AcDbCircle
 10
213.064107
 20
98.452463
 30
0.0
 40
3.0
100
AcDbArc
 50
-270.0
 51
-90.0
  0
LINE
  5
137
100
AcDbEntity
  8
0
  6
Continuous
 62
   174
100
AcDbLine
 10
212.88824
 20
101.046508
 30
0.0
 11
212.88824
 21
95.858417
 31
0.0
  0
ARC
  5
138
100
AcDbEntity
  8
0
  6
Continuous
 62
   174
100
AcDbCircle
 10
213.064107
 20
98.452463
 30
0.0
 40
2.6
100
AcDbArc
 50
-85.156
 51
85.156
  0
ARC
  5
139
100
AcDbEntity
  8
0
  6
Continuous
 62
   174
100
AcDbCircle
 10
257.064107
 20
108.452463
 30
0.0
 40
3.75
100
AcDbArc
 50
-180.0
 51
0.0
  0
ARC
  5
13A
100
AcDbEntity
  8
0
  6
Continuous
 62
   174
100
AcDbCircle
 10
257.064107
 20
108.452463
 30
0.0
 40
3.75
100
AcDbArc
 50
0.0
 51
180.0
  0
ARC
  5
13B
100
AcDbEntity
  8
0
  6
Continuous
 62
   174
100
AcDbCircle
 10
225.064107
 20
108.452463
 30
0.0
 40
3.75
100
AcDbArc
 50
-180.0
 51
0.0
  0
LINE
  5
13C
100
AcDbEntity
  8
0
  6
Continuous
 62
   174
100
AcDbLine
 10
157.564107
 20
89.497375
 30
0.0
 11
157.564107
 21
91.782875
 31
0.0
  0
LWPOLYLINE
  5
13D
100
AcDbEntity
  8
0
  6
Continuous
 62
   174
100
AcDbPolyline
 90
        4
 70
   128
 10
153.064107
 20
90.70359
 10
153.197227
 20
90.70359
 10
153.430313
 20
90.70359
 10
153.756927
 20
90.70359
  0
LINE
  5
13E
100
AcDbEntity
  8
0
  6
Continuous
 62
   174
100
AcDbLine
 10
153.756927
 20
90.70359
 30
0.0
 11
156.864107
 21
90.70359
 31
0.0
  0
LINE
  5
13F
100
AcDbEntity
  8
0
  6
Continuous
 62
   174
100
AcDbLine
 10
153.064107
 20
101.598687
 30
0.0
 11
153.064107
 21
90.748272
 31
0.0
  0
LWPOLYLINE
  5
140
100
AcDbEntity
  8
0
  6
Continuous
 62
   174
100
AcDbPolyline
 90
        4
 70
   128
 10
153.064107
 20
103.099057
 10
153.197228
 20
104.152766
 10
153.43031
 20
105.211178
 10
153.756927
 20
106.291269
  0
LINE
  5
141
100
AcDbEntity
  8
0
  6
Continuous
 62
   174
100
AcDbLine
 10
160.564107
 20
106.452463
 30
0.0
 11
172.606067
 21
106.452463
 31
0.0
  0
ARC
  5
142
100
AcDbEntity
  8
0
  6
Continuous
 62
   174
100
AcDbCircle
 10
232.064107
 20
91.452463
 30
0.0
 40
4.375
100
AcDbArc
 50
0.0
 51
14.450991
  0
ARC
  5
143
100
AcDbEntity
  8
0
  6
Continuous
 62
   174
100
AcDbCircle
 10
250.064107
 20
91.452463
 30
0.0
 40
4.375
100
AcDbArc
 50
0.0
 51
180.0
  0
ARC
  5
144
100
AcDbEntity
  8
0
  6
Continuous
 62
   174
100
AcDbCircle
 10
213.064107
 20
98.452463
 30
0.0
 40
2.6
100
AcDbArc
 50
-266.121475
 51
-93.878525
  0
LINE
  5
145
100
AcDbEntity
  8
0
  6
Continuous
 62
   174
100
AcDbLine
 10
218.064107
 20
83.452463
 30
0.0
 11
202.064107
 21
83.452463
 31
0.0
  0
LINE
  5
146
100
AcDbEntity
  8
0
  6
Continuous
 62
   174
100
AcDbLine
 10
218.064107
 20
113.452463
 30
0.0
 11
202.064107
 21
113.452463
 31
0.0
  0
LINE
  5
147
100
AcDbEntity
  8
0
  6
Continuous
 62
   174
100
AcDbLine
 10
157.564107
 20
105.210485
 30
0.0
 11
157.564107
 21
107.495985
 31
0.0
  0
LINE
  5
148
100
AcDbEntity
  8
0
  6
Continuous
 62
   174
100
AcDbLine
 10
156.864107
 20
90.748272
 30
0.0
 11
156.864107
 21
89.497375
 31
0.0
  0
LINE
  5
149
100
AcDbEntity
  8
0
  6
Continuous
 62
   174
100
AcDbLine
 10
156.864107
 20
98.406858
 30
0.0
 11
156.864107
 21
90.748272
 31
0.0
  0
LINE
  5
14A
100
AcDbEntity
  8
0
  6
Continuous
 62
   174
100
AcDbLine
 10
156.864107
 20
106.33491
 30
0.0
 11
156.864107
 21
98.406858
 31
0.0
  0
LWPOLYLINE
  5
14B
100
AcDbEntity
  8
0
  6
Continuous
 62
   174
100
AcDbPolyline
 90
        7
 70
   128
 10
153.756927
 20
90.70359
 10
153.390801
 20
92.005556
 10
153.162703
 20
93.282158
 10
153.085799
 20
94.533129
 10
153.162718
 20
95.784084
 10
153.390818
 20
97.060639
 10
153.756927
 20
98.362529
  0
LINE
  5
14C
100
AcDbEntity
  8
0
  6
Continuous
 62
   174
100
AcDbLine
 10
164.364107
 20
107.065092
 30
0.0
 11
164.364107
 21
106.452463
 31
0.0
  0
LINE
  5
14D
100
AcDbEntity
  8
0
  6
Continuous
 62
   174
100
AcDbLine
 10
171.064107
 20
108.452463
 30
0.0
 11
172.064107
 21
108.452463
 31
0.0
  0
LINE
  5
14E
100
AcDbEntity
  8
0
  6
Continuous
 62
   174
100
AcDbLine
 10
172.589765
 20
90.952463
 30
0.0
 11
175.589633
 21
90.952463
 31
0.0
  0
LINE
  5
14F
100
AcDbEntity
  8
0
  6
Continuous
 62
   174
100
AcDbLine
 10
170.564107
 20
88.497319
 30
0.0
 11
170.564107
 21
88.609972
 31
0.0
  0
LINE
  5
150
100
AcDbEntity
  8
0
  6
Continuous
 62
   174
100
AcDbLine
 10
170.564107
 20
88.609972
 30
0.0
 11
170.564107
 21
88.81485
 31
0.0
  0
LINE
  5
151
100
AcDbEntity
  8
0
  6
Continuous
 62
   174
100
AcDbLine
 10
153.064107
 20
106.252463
 30
0.0
 11
153.162703
 21
106.423236
 31
0.0
  0
ARC
  5
152
100
AcDbEntity
  8
0
  6
Continuous
 62
   174
100
AcDbCircle
 10
257.064107
 20
108.452463
 30
0.0
 40
2.2
100
AcDbArc
 50
-180.0
 51
0.0
  0
ARC
  5
153
100
AcDbEntity
  8
0
  6
Continuous
 62
   174
100
AcDbCircle
 10
257.064107
 20
108.452463
 30
0.0
 40
2.2
100
AcDbArc
 50
0.0
 51
180.0
  0
ARC
  5
154
100
AcDbEntity
  8
0
  6
Continuous
 62
   174
100
AcDbCircle
 10
250.064107
 20
91.452463
 30
0.0
 40
4.865
100
AcDbArc
 50
0.0
 51
118.789674
  0
ARC
  5
155
100
AcDbEntity
  8
0
  6
Continuous
 62
   174
100
AcDbCircle
 10
250.064107
 20
91.452463
 30
0.0
 40
4.375
100
AcDbArc
 50
-180.0
 51
0.0
  0
ARC
  5
156
100
AcDbEntity
  8
0
  6
Continuous
 62
   174
100
AcDbCircle
 10
225.064107
 20
108.452463
 30
0.0
 40
3.75
100
AcDbArc
 50
0.0
 51
180.0
  0
LINE
  5
157
100
AcDbEntity
  8
0
  6
Continuous
 62
   174
100
AcDbLine
 10
264.064107
 20
83.452463
 30
0.0
 11
264.064107
 21
113.452463
 31
0.0
  0
LINE
  5
158
100
AcDbEntity
  8
0
  6
Continuous
 62
   174
100
AcDbLine
 10
160.564107
 20
91.890721
 30
0.0
 11
160.564107
 21
90.497432
 31
0.0
  0
LINE
  5
159
100
AcDbEntity
  8
0
  6
Continuous
 62
   174
100
AcDbLine
 10
157.564107
 20
91.782875
 30
0.0
 11
157.564107
 21
105.210485
 31
0.0
  0
LINE
  5
15A
100
AcDbEntity
  8
0
  6
Continuous
 62
   174
100
AcDbLine
 10
172.564107
 20
92.207465
 30
0.0
 11
172.564107
 21
90.952463
 31
0.0
  0
LINE
  5
15B
100
AcDbEntity
  8
0
  6
Continuous
 62
   174
100
AcDbLine
 10
175.564107
 20
90.952463
 30
0.0
 11
175.564107
 21
98.452463
 31
0.0
  0
LINE
  5
15C
100
AcDbEntity
  8
0
  6
Continuous
 62
   174
100
AcDbLine
 10
172.564107
 20
104.697461
 30
0.0
 11
172.564107
 21
105.952463
 31
0.0
  0
LINE
  5
15D
100
AcDbEntity
  8
0
  6
Continuous
 62
   174
100
AcDbLine
 10
218.064107
 20
83.452463
 30
0.0
 11
264.064107
 21
83.452463
 31
0.0
  0
LINE
  5
15E
100
AcDbEntity
  8
0
  6
Continuous
 62
   174
100
AcDbLine
 10
175.564107
 20
108.952463
 30
0.0
 11
198.564107
 21
108.952463
 31
0.0
  0
LINE
  5
15F
100
AcDbEntity
  8
0
  6
Continuous
 62
   174
100
AcDbLine
 10
160.564107
 20
106.496229
 30
0.0
 11
160.564107
 21
105.102639
 31
0.0
  0
LINE
  5
160
100
AcDbEntity
  8
0
  6
Continuous
 62
   174
100
AcDbLine
 10
153.064107
 20
106.296158
 30
0.0
 11
153.064107
 21
103.143082
 31
0.0
  0
LINE
  5
161
100
AcDbEntity
  8
0
  6
Continuous
 62
   174
100
AcDbLine
 10
170.564107
 20
108.452463
 30
0.0
 11
171.064107
 21
108.452463
 31
0.0
  0
LINE
  5
162
100
AcDbEntity
  8
0
  6
Continuous
 62
   174
100
AcDbLine
 10
201.564107
 20
90.952463
 30
0.0
 11
201.564107
 21
105.952463
 31
0.0
  0
ARC
  5
163
100
AcDbEntity
  8
0
  6
Continuous
 62
   174
100
AcDbCircle
 10
198.564107
 20
90.952463
 30
0.0
 40
3.0
100
AcDbArc
 50
-90.0
 51
0.0
  0
LINE
  5
164
100
AcDbEntity
  8
0
  6
Continuous
 62
   174
100
AcDbLine
 10
170.564107
 20
106.522365
 30
0.0
 11
170.564107
 21
107.10876
 31
0.0
  0
LINE
  5
165
100
AcDbEntity
  8
0
  6
Continuous
 62
   174
100
AcDbLine
 10
201.589894
 20
90.952463
 30
0.0
 11
198.589725
 21
90.952463
 31
0.0
  0
LINE
  5
166
100
AcDbEntity
  8
0
  6
Continuous
 62
   174
100
AcDbLine
 10
175.564107
 20
87.997441
 30
0.0
 11
175.564107
 21
90.99731
 31
0.0
  0
LINE
  5
167
100
AcDbEntity
  8
0
  6
Continuous
 62
   174
100
AcDbLine
 10
170.564107
 20
108.383389
 30
0.0
 11
170.564107
 21
108.496041
 31
0.0
  0
LINE
  5
168
100
AcDbEntity
  8
0
  6
Continuous
 62
   174
100
AcDbLine
 10
172.064107
 20
87.452463
 30
0.0
 11
172.064107
 21
90.452463
 31
0.0
  0
LINE
  5
169
100
AcDbEntity
  8
0
  6
Continuous
 62
   174
100
AcDbLine
 10
198.589725
 20
105.952463
 30
0.0
 11
201.589894
 21
105.952463
 31
0.0
  0
LINE
  5
16A
100
AcDbEntity
  8
0
  6
Continuous
 62
   174
100
AcDbLine
 10
170.564107
 20
108.177609
 30
0.0
 11
170.564107
 21
108.383389
 31
0.0
  0
LINE
  5
16B
100
AcDbEntity
  8
0
  6
Continuous
 62
   174
100
AcDbLine
 10
172.064107
 20
106.452463
 30
0.0
 11
172.064107
 21
109.452463
 31
0.0
  0
LINE
  5
16C
100
AcDbEntity
  8
0
  6
Continuous
 62
   174
100
AcDbLine
 10
198.564107
 20
87.997441
 30
0.0
 11
198.564107
 21
90.99731
 31
0.0
  0
LINE
  5
16D
100
AcDbEntity
  8
0
  6
Continuous
 62
   174
100
AcDbLine
 10
175.564107
 20
87.952463
 30
0.0
 11
198.564107
 21
87.952463
 31
0.0
  0
LINE
  5
16E
100
AcDbEntity
  8
0
  6
Continuous
 62
   174
100
AcDbLine
 10
198.564107
 20
108.952463
 30
0.0
 11
175.564107
 21
108.952463
 31
0.0
  0
LINE
  5
16F
100
AcDbEntity
  8
0
  6
Continuous
 62
   174
100
AcDbLine
 10
170.564107
 20
89.882798
 30
0.0
 11
170.564107
 21
90.471296
 31
0.0
  0
LINE
  5
170
100
AcDbEntity
  8
0
  6
Continuous
 62
   174
100
AcDbLine
 10
198.564107
 20
105.996051
 30
0.0
 11
198.564107
 21
108.995919
 31
0.0
  0
LINE
  5
171
100
AcDbEntity
  8
0
  6
Continuous
 62
   174
100
AcDbLine
 10
202.064107
 20
87.452463
 30
0.0
 11
172.064107
 21
87.452463
 31
0.0
  0
LINE
  5
172
100
AcDbEntity
  8
0
  6
Continuous
 62
   174
100
AcDbLine
 10
175.564107
 20
105.996051
 30
0.0
 11
175.564107
 21
108.995919
 31
0.0
  0
LINE
  5
173
100
AcDbEntity
  8
0
  6
Continuous
 62
   174
100
AcDbLine
 10
172.064107
 20
109.452463
 30
0.0
 11
202.064107
 21
109.452463
 31
0.0
  0
ARC
  5
174
100
AcDbEntity
  8
0
  6
Continuous
 62
   174
100
AcDbCircle
 10
198.564107
 20
105.952463
 30
0.0
 40
3.0
100
AcDbArc
 50
0.0
 51
90.0
  0
ENDBLK
  5
175
100
AcDbEntity
  8
0
100
AcDbBlockEnd
  0
BLOCK
  5
178
100
AcDbEntity
  8
0
100
AcDbBlockBegin
  2
*B3
 70
     0
 10
0.0
 20
0.0
 30
0.0
  3
*B3
  1

  0
LINE
  5
179
100
AcDbEntity
  8
0
  6
Continuous
 62
   172
100
AcDbLine
 10
176.867878
 20
176.155433
 30
0.0
 11
156.227855
 21
141.056322
 31
0.0
  0
LINE
  5
17A
100
AcDbEntity
  8
0
  6
Continuous
 62
   172
100
AcDbLine
 10
156.227855
 20
141.056322
 30
0.0
 11
146.417878
 21
141.056322
 31
0.0
  0
ENDBLK
  5
17B
100
AcDbEntity
  8
0
100
AcDbBlockEnd
  0
BLOCK
  5
17E
100
AcDbEntity
  8
0
100
AcDbBlockBegin
  2
*B4
 70
     0
 10
0.0
 20
0.0
 30
0.0
  3
*B4
  1

  0
LINE
  5
17F
100
AcDbEntity
  8
0
  6
Continuous
 62
   172
100
AcDbLine
 10
154.189506
 20
143.183806
 30
0.0
 11
152.089506
 21
143.955433
 31
0.0
  0
LINE
  5
180
100
AcDbEntity
  8
0
  6
Continuous
 62
   172
100
AcDbLine
 10
154.189506
 20
143.183806
 30
0.0
 11
152.089506
 21
142.555433
 31
0.0
  0
LINE
  5
181
100
AcDbEntity
  8
0
  6
Continuous
 62
   172
100
AcDbLine
 10
152.789506
 20
143.183806
 30
0.0
 11
154.189506
 21
143.183806
 31
0.0
  0
LINE
  5
182
100
AcDbEntity
  8
0
  6
Continuous
 62
   172
100
AcDbLine
 10
154.189506
 20
155.227061
 30
0.0
 11
152.089506
 21
154.455433
 31
0.0
  0
LINE
  5
183
100
AcDbEntity
  8
0
  6
Continuous
 62
   172
100
AcDbLine
 10
154.189506
 20
155.227061
 30
0.0
 11
152.089506
 21
155.855433
 31
0.0
  0
LINE
  5
184
100
AcDbEntity
  8
0
  6
Continuous
 62
   172
100
AcDbLine
 10
152.789506
 20
155.227061
 30
0.0
 11
154.189506
 21
155.227061
 31
0.0
  0
ARC
  5
185
100
AcDbEntity
  8
0
  6
Continuous
 62
   172
100
AcDbCircle
 10
152.789506
 20
149.205433
 30
0.0
 40
6.021628
100
AcDbArc
 50
-270.0
 51
-90.0
  0
ENDBLK
  5
186
100
AcDbEntity
  8
0
100
AcDbBlockEnd
  0
BLOCK
  5
189
100
AcDbEntity
  8
0
100
AcDbBlockBegin
  2
*B5
 70
     0
 10
0.0
 20
0.0
 30
0.0
  3
*B5
  1

  0
ENDBLK
  5
18A
100
AcDbEntity
  8
0
100
AcDbBlockEnd
  0
BLOCK
  5
18C
100
AcDbEntity
  8
0
100
AcDbBlockBegin
  2
*B6
 70
     0
 10
0.0
 20
0.0
 30
0.0
  3
*B6
  1

  0
LINE
  5
18D
100
AcDbEntity
  8
0
  6
Continuous
 62
     0
100
AcDbLine
 10
292.351985
 20
201.302404
 30
0.0
 11
292.351985
 21
171.304622
 31
0.0
  0
SOLID
  5
18E
100
AcDbEntity
  8
0
  6
Continuous
 62
     0
100
AcDbTrace
 10
293.352041
 20
196.302724
 30
0.0
 11
292.351985
 21
201.302404
 31
0.0
 12
291.351929
 22
196.302724
 32
0.0
 13
291.351929
 23
196.302724
 33
0.0
  0
SOLID
  5
18F
100
AcDbEntity
  8
0
  6
Continuous
 62
     0
100
AcDbTrace
 10
291.351929
 20
176.304302
 30
0.0
 11
292.351985
 21
171.304622
 31
0.0
 12
293.352041
 22
176.304302
 32
0.0
 13
293.352041
 23
176.304302
 33
0.0
  0
ENDBLK
  5
190
100
AcDbEntity
  8
0
100
AcDbBlockEnd
  0
BLOCK
  5
193
100
AcDbEntity
  8
0
100
AcDbBlockBegin
  2
*B7
 70
     0
 10
0.0
 20
0.0
 30
0.0
  3
*B7
  1

  0
LINE
  5
194
100
AcDbEntity
  8
0
  6
Continuous
 62
     0
100
AcDbLine
 10
279.025612
 20
115.495534
 30
0.0
 11
279.025612
 21
81.497827
 31
0.0
  0
SOLID
  5
195
100
AcDbEntity
  8
0
  6
Continuous
 62
     0
100
AcDbTrace
 10
278.025556
 20
110.495853
 30
0.0
 11
279.025612
 21
105.496173
 31
0.0
 12
280.025668
 22
110.495853
 32
0.0
 13
280.025668
 23
110.495853
 33
0.0
  0
SOLID
  5
196
100
AcDbEntity
  8
0
  6
Continuous
 62
     0
100
AcDbTrace
 10
280.025668
 20
86.497507
 30
0.0
 11
279.025612
 21
91.497188
 31
0.0
 12
278.025556
 22
86.497507
 32
0.0
 13
278.025556
 23
86.497507
 33
0.0
  0
ENDBLK
  5
197
100
AcDbEntity
  8
0
100
AcDbBlockEnd
  0
BLOCK
  5
19A
100
AcDbEntity
  8
0
100
AcDbBlockBegin
  2
*B8
 70
     0
 10
0.0
 20
0.0
 30
0.0
  3
*B8
  1

  0
LINE
  5
19B
100
AcDbEntity
  8
0
  6
Continuous
 62
     0
100
AcDbLine
 10
225.089865
 20
141.041279
 30
0.0
 11
257.089562
 21
141.041279
 31
0.0
  0
SOLID
  5
19C
100
AcDbEntity
  8
0
  6
Continuous
 62
     0
100
AcDbTrace
 10
230.089846
 20
142.041035
 30
0.0
 11
225.089865
 21
141.041279
 31
0.0
 12
230.089846
 22
140.041223
 32
0.0
 13
230.089846
 23
140.041223
 33
0.0
  0
SOLID
  5
19D
100
AcDbEntity
  8
0
  6
Continuous
 62
     0
100
AcDbTrace
 10
252.089882
 20
140.041223
 30
0.0
 11
257.089562
 21
141.041279
 31
0.0
 12
252.089882
 22
142.041035
 32
0.0
 13
252.089882
 23
142.041035
 33
0.0
  0
ENDBLK
  5
19E
100
AcDbEntity
  8
0
100
AcDbBlockEnd
  0
BLOCK
  5
1A1
100
AcDbEntity
  8
0
100
AcDbBlockBegin
  2
*B9
 70
     0
 10
0.0
 20
0.0
 30
0.0
  3
*B9
  1

  0
LINE
  5
1A2
100
AcDbEntity
  8
0
  6
Continuous
 62
     0
100
AcDbLine
 10
260.089731
 20
70.046296
 30
0.0
 11
222.089696
 21
70.046296
 31
0.0
  0
SOLID
  5
1A3
100
AcDbEntity
  8
0
  6
Continuous
 62
     0
100
AcDbTrace
 10
255.08975
 20
71.046352
 30
0.0
 11
250.089769
 21
70.046296
 31
0.0
 12
255.08975
 22
69.04624
 32
0.0
 13
255.08975
 23
69.04624
 33
0.0
  0
SOLID
  5
1A4
100
AcDbEntity
  8
0
  6
Continuous
 62
     0
100
AcDbTrace
 10
227.089677
 20
69.04624
 30
0.0
 11
232.089658
 21
70.046296
 31
0.0
 12
227.089677
 22
71.046352
 32
0.0
 13
227.089677
 23
71.046352
 33
0.0
  0
ENDBLK
  5
1A5
100
AcDbEntity
  8
0
100
AcDbBlockEnd
  0
BLOCK
  5
1A8
100
AcDbEntity
  8
0
100
AcDbBlockBegin
  2
*B10
 70
     0
 10
0.0
 20
0.0
 30
0.0
  3
*B10
  1

  0
LINE
  5
1A9
100
AcDbEntity
  8
0
  6
Continuous
 62
     0
100
AcDbLine
 10
202.089772
 20
244.116468
 30
0.0
 11
264.089656
 21
244.116468
 31
0.0
  0
SOLID
  5
1AA
100
AcDbEntity
  8
0
  6
Continuous
 62
     0
100
AcDbTrace
 10
207.089753
 20
245.116525
 30
0.0
 11
202.089772
 21
244.116468
 31
0.0
 12
207.089753
 22
243.116412
 32
0.0
 13
207.089753
 23
243.116412
 33
0.0
  0
SOLID
  5
1AB
100
AcDbEntity
  8
0
  6
Continuous
 62
     0
100
AcDbTrace
 10
259.089675
 20
243.116412
 30
0.0
 11
264.089656
 21
244.116468
 31
0.0
 12
259.089675
 22
245.116525
 32
0.0
 13
259.089675
 23
245.116525
 33
0.0
  0
ENDBLK
  5
1AC
100
AcDbEntity
  8
0
100
AcDbBlockEnd
  0
BLOCK
  5
1AF
100
AcDbEntity
  8
0
100
AcDbBlockBegin
  2
*B11
 70
     0
 10
0.0
 20
0.0
 30
0.0
  3
*B11
  1

  0
LINE
  5
1B0
100
AcDbEntity
  8
0
  6
Continuous
 62
     0
100
AcDbLine
 10
202.089772
 20
244.116468
 30
0.0
 11
153.089719
 21
244.116468
 31
0.0
  0
SOLID
  5
1B1
100
AcDbEntity
  8
0
  6
Continuous
 62
     0
100
AcDbTrace
 10
197.089791
 20
243.116412
 30
0.0
 11
202.089772
 21
244.116468
 31
0.0
 12
197.089791
 22
245.116525
 32
0.0
 13
197.089791
 23
245.116525
 33
0.0
  0
SOLID
  5
1B2
100
AcDbEntity
  8
0
  6
Continuous
 62
     0
100
AcDbTrace
 10
158.0897
 20
245.116525
 30
0.0
 11
153.089719
 21
244.116468
 31
0.0
 12
158.0897
 22
243.116412
 32
0.0
 13
158.0897
 23
243.116412
 33
0.0
  0
ENDBLK
  5
1B3
100
AcDbEntity
  8
0
100
AcDbBlockEnd
  0
BLOCK
  5
1B6
100
AcDbEntity
  8
0
100
AcDbBlockBegin
  2
*B12
 70
     0
 10
0.0
 20
0.0
 30
0.0
  3
*B12
  1

  0
LINE
  5
1B7
100
AcDbEntity
  8
0
  6
Continuous
 62
     0
100
AcDbLine
 10
244.889717
 20
157.122688
 30
0.0
 11
281.281071
 21
157.122688
 31
0.0
  0
SOLID
  5
1B8
100
AcDbEntity
  8
0
  6
Continuous
 62
     0
100
AcDbTrace
 10
249.889698
 20
156.122932
 30
0.0
 11
254.889679
 21
157.122688
 31
0.0
 12
249.889698
 22
158.122745
 32
0.0
 13
249.889698
 23
158.122745
 33
0.0
  0
SOLID
  5
1B9
100
AcDbEntity
  8
0
  6
Continuous
 62
     0
100
AcDbTrace
 10
264.289727
 20
158.122745
 30
0.0
 11
259.289746
 21
157.122688
 31
0.0
 12
264.289727
 22
156.122932
 32
0.0
 13
264.289727
 23
156.122932
 33
0.0
  0
ENDBLK
  5
1BA
100
AcDbEntity
  8
0
100
AcDbBlockEnd
  0
BLOCK
  5
1BD
100
AcDbEntity
  8
0
100
AcDbBlockBegin
  2
*B13
 70
     0
 10
0.0
 20
0.0
 30
0.0
  3
*B13
  1

  0
LINE
  5
1BE
100
AcDbEntity
  8
0
  6
Continuous
 62
     0
100
AcDbLine
 10
226.714768
 20
217.035642
 30
0.0
 11
273.92139
 21
217.035642
 31
0.0
  0
SOLID
  5
1BF
100
AcDbEntity
  8
0
  6
Continuous
 62
     0
100
AcDbTrace
 10
231.714749
 20
216.035886
 30
0.0
 11
236.71473
 21
217.035642
 31
0.0
 12
231.714749
 22
218.035698
 32
0.0
 13
231.714749
 23
218.035698
 33
0.0
  0
SOLID
  5
1C0
100
AcDbEntity
  8
0
  6
Continuous
 62
     0
100
AcDbTrace
 10
250.464678
 20
218.035698
 30
0.0
 11
245.464697
 21
217.035642
 31
0.0
 12
250.464678
 22
216.035886
 32
0.0
 13
250.464678
 23
216.035886
 33
0.0
  0
ENDBLK
  5
1C1
100
AcDbEntity
  8
0
100
AcDbBlockEnd
  0
BLOCK
  5
1C4
100
AcDbEntity
  8
0
100
AcDbBlockBegin
  2
*B14
 70
     0
 10
0.0
 20
0.0
 30
0.0
  3
*B14
  1

  0
LINE
  5
1C5
100
AcDbEntity
  8
0
  6
Continuous
 62
     0
100
AcDbLine
 10
139.025545
 20
229.300075
 30
0.0
 11
139.025545
 21
171.304622
 31
0.0
  0
SOLID
  5
1C6
100
AcDbEntity
  8
0
  6
Continuous
 62
     0
100
AcDbTrace
 10
140.025601
 20
224.300394
 30
0.0
 11
139.025545
 21
229.300075
 31
0.0
 12
138.025789
 22
224.300394
 32
0.0
 13
138.025789
 23
224.300394
 33
0.0
  0
SOLID
  5
1C7
100
AcDbEntity
  8
0
  6
Continuous
 62
     0
100
AcDbTrace
 10
138.025789
 20
176.304302
 30
0.0
 11
139.025545
 21
171.304622
 31
0.0
 12
140.025601
 22
176.304302
 32
0.0
 13
140.025601
 23
176.304302
 33
0.0
  0
ENDBLK
  5
1C8
100
AcDbEntity
  8
0
100
AcDbBlockEnd
  0
BLOCK
  5
1CB
100
AcDbEntity
  8
0
100
AcDbBlockBegin
  2
*B15
 70
     0
 10
0.0
 20
0.0
 30
0.0
  3
*B15
  1

  0
LINE
  5
1CC
100
AcDbEntity
  8
0
  6
Continuous
 62
     0
100
AcDbLine
 10
292.025442
 20
98.49668
 30
0.0
 11
292.025442
 21
126.021509
 31
0.0
  0
SOLID
  5
1CD
100
AcDbEntity
  8
0
  6
Continuous
 62
     0
100
AcDbTrace
 10
293.025498
 20
103.496361
 30
0.0
 11
292.025442
 21
108.496041
 31
0.0
 12
291.025686
 22
103.496361
 32
0.0
 13
291.025686
 23
103.496361
 33
0.0
  0
SOLID
  5
1CE
100
AcDbEntity
  8
0
  6
Continuous
 62
     0
100
AcDbTrace
 10
291.025686
 20
118.495402
 30
0.0
 11
292.025442
 21
113.495722
 31
0.0
 12
293.025498
 22
118.495402
 32
0.0
 13
293.025498
 23
118.495402
 33
0.0
  0
ENDBLK
  5
1CF
100
AcDbEntity
  8
0
100
AcDbBlockEnd
  0
BLOCK
  5
1D2
100
AcDbEntity
  8
0
100
AcDbBlockBegin
  2
*B16
 70
     0
 10
0.0
 20
0.0
 30
0.0
  3
*B16
  1

  0
LINE
  5
1D3
100
AcDbEntity
  8
0
  6
Continuous
 62
     0
100
AcDbLine
 10
141.025658
 20
83.497939
 30
0.0
 11
141.025658
 21
113.495722
 31
0.0
  0
SOLID
  5
1D4
100
AcDbEntity
  8
0
  6
Continuous
 62
     0
100
AcDbTrace
 10
140.025601
 20
88.497319
 30
0.0
 11
141.025658
 21
83.497939
 31
0.0
 12
142.025714
 22
88.497319
 32
0.0
 13
142.025714
 23
88.497319
 33
0.0
  0
SOLID
  5
1D5
100
AcDbEntity
  8
0
  6
Continuous
 62
     0
100
AcDbTrace
 10
142.025714
 20
108.496041
 30
0.0
 11
141.025658
 21
113.495722
 31
0.0
 12
140.025601
 22
108.496041
 32
0.0
 13
140.025601
 23
108.496041
 33
0.0
  0
ENDBLK
  5
1D6
100
AcDbEntity
  8
0
100
AcDbBlockEnd
  0
BLOCK
  5
1D9
100
AcDbEntity
  8
0
100
AcDbBlockBegin
  2
*B17
 70
     0
 10
0.0
 20
0.0
 30
0.0
  3
*B17
  1

  0
LINE
  5
1DA
100
AcDbEntity
  8
0
  6
Continuous
 62
     0
100
AcDbLine
 10
218.089771
 20
127.042294
 30
0.0
 11
241.089864
 21
127.042294
 31
0.0
  0
SOLID
  5
1DB
100
AcDbEntity
  8
0
  6
Continuous
 62
     0
100
AcDbTrace
 10
223.089752
 20
128.042049
 30
0.0
 11
218.089771
 21
127.042294
 31
0.0
 12
223.089752
 22
126.042237
 32
0.0
 13
223.089752
 23
126.042237
 33
0.0
  0
SOLID
  5
1DC
100
AcDbEntity
  8
0
  6
Continuous
 62
     0
100
AcDbTrace
 10
236.089582
 20
126.042237
 30
0.0
 11
241.089864
 21
127.042294
 31
0.0
 12
236.089582
 22
128.042049
 32
0.0
 13
236.089582
 23
128.042049
 33
0.0
  0
ENDBLK
  5
1DD
100
AcDbEntity
  8
0
100
AcDbBlockEnd
  0
BLOCK
  5
1E0
100
AcDbEntity
  8
0
100
AcDbBlockBegin
  2
*B18
 70
     0
 10
0.0
 20
0.0
 30
0.0
  3
*B18
  1

  0
LINE
  5
1E1
100
AcDbEntity
  8
0
  6
Continuous
 62
     0
100
AcDbLine
 10
218.089771
 20
231.034627
 30
0.0
 11
264.089656
 21
231.034627
 31
0.0
  0
SOLID
  5
1E2
100
AcDbEntity
  8
0
  6
Continuous
 62
     0
100
AcDbTrace
 10
223.089752
 20
232.034683
 30
0.0
 11
218.089771
 21
231.034627
 31
0.0
 12
223.089752
 22
230.034871
 32
0.0
 13
223.089752
 23
230.034871
 33
0.0
  0
SOLID
  5
1E3
100
AcDbEntity
  8
0
  6
Continuous
 62
     0
100
AcDbTrace
 10
259.089675
 20
230.034871
 30
0.0
 11
264.089656
 21
231.034627
 31
0.0
 12
259.089675
 22
232.034683
 32
0.0
 13
259.089675
 23
232.034683
 33
0.0
  0
ENDBLK
  5
1E4
100
AcDbEntity
  8
0
100
AcDbBlockEnd
  0
BLOCK
  5
1E7
100
AcDbEntity
  8
0
100
AcDbBlockBegin
  2
*B19
 70
     0
 10
0.0
 20
0.0
 30
0.0
  3
*B19
  1

  0
LINE
  5
1E8
100
AcDbEntity
  8
0
  6
Continuous
 62
     0
100
AcDbLine
 10
208.089809
 20
141.041279
 30
0.0
 11
235.089827
 21
141.041279
 31
0.0
  0
SOLID
  5
1E9
100
AcDbEntity
  8
0
  6
Continuous
 62
     0
100
AcDbTrace
 10
213.08979
 20
140.041223
 30
0.0
 11
218.089771
 21
141.041279
 31
0.0
 12
213.08979
 22
142.041035
 32
0.0
 13
213.08979
 23
142.041035
 33
0.0
  0
SOLID
  5
1EA
100
AcDbEntity
  8
0
  6
Continuous
 62
     0
100
AcDbTrace
 10
230.089846
 20
142.041035
 30
0.0
 11
225.089865
 21
141.041279
 31
0.0
 12
230.089846
 22
140.041223
 32
0.0
 13
230.089846
 23
140.041223
 33
0.0
  0
ENDBLK
  5
1EB
100
AcDbEntity
  8
0
100
AcDbBlockEnd
  0
BLOCK
  5
1EE
100
AcDbEntity
  8
0
100
AcDbBlockBegin
  2
*B20
 70
     0
 10
0.0
 20
0.0
 30
0.0
  3
*B20
  1

  0
LINE
  5
1EF
100
AcDbEntity
  8
0
  6
Continuous
 62
     0
100
AcDbLine
 10
208.089809
 20
57.047367
 30
0.0
 11
242.08962
 21
57.047367
 31
0.0
  0
SOLID
  5
1F0
100
AcDbEntity
  8
0
  6
Continuous
 62
     0
100
AcDbTrace
 10
213.08979
 20
56.047311
 30
0.0
 11
218.089771
 21
57.047367
 31
0.0
 12
213.08979
 22
58.047123
 32
0.0
 13
213.08979
 23
58.047123
 33
0.0
  0
SOLID
  5
1F1
100
AcDbEntity
  8
0
  6
Continuous
 62
     0
100
AcDbTrace
 10
237.089639
 20
58.047123
 30
0.0
 11
232.089658
 21
57.047367
 31
0.0
 12
237.089639
 22
56.047311
 32
0.0
 13
237.089639
 23
56.047311
 33
0.0
  0
ENDBLK
  5
1F2
100
AcDbEntity
  8
0
100
AcDbBlockEnd
  0
BLOCK
  5
1F5
100
AcDbEntity
  8
0
100
AcDbBlockBegin
  2
*B21
 70
     0
 10
0.0
 20
0.0
 30
0.0
  3
*B21
  1

  0
LINE
  5
1F6
100
AcDbEntity
  8
0
  6
Continuous
 62
     8
100
AcDbLine
 10
218.089771
 20
55.047255
 30
0.0
 11
218.089771
 21
81.497827
 31
0.0
  0
LINE
  5
1F7
100
AcDbEntity
  8
0
  6
Continuous
 62
     8
100
AcDbLine
 10
218.089771
 20
115.495534
 30
0.0
 11
218.089771
 21
143.041091
 31
0.0
  0
ENDBLK
  5
1F8
100
AcDbEntity
  8
0
100
AcDbBlockEnd
  0
BLOCK
  5
1FB
100
AcDbEntity
  8
0
100
AcDbBlockBegin
  2
*B22
 70
     0
 10
0.0
 20
0.0
 30
0.0
  3
*B22
  1

  0
LINE
  5
1FC
100
AcDbEntity
  8
0
  6
Continuous
 62
     8
100
AcDbLine
 10
218.089771
 20
203.302217
 30
0.0
 11
218.089771
 21
233.034439
 31
0.0
  0
ENDBLK
  5
1FD
100
AcDbEntity
  8
0
100
AcDbBlockEnd
  0
BLOCK
  5
200
100
AcDbEntity
  8
0
100
AcDbBlockBegin
  2
*B23
 70
     0
 10
0.0
 20
0.0
 30
0.0
  3
*B23
  1

  0
LINE
  5
201
100
AcDbEntity
  8
0
  6
Continuous
 62
     8
100
AcDbLine
 10
277.025499
 20
105.496173
 30
0.0
 11
281.025724
 21
105.496173
 31
0.0
  0
LINE
  5
202
100
AcDbEntity
  8
0
  6
Continuous
 62
     8
100
AcDbLine
 10
232.714806
 20
105.496173
 30
0.0
 11
238.089695
 21
105.496173
 31
0.0
  0
LINE
  5
203
100
AcDbEntity
  8
0
  6
Continuous
 62
     8
100
AcDbLine
 10
244.089732
 20
105.496173
 30
0.0
 11
251.735101
 21
105.496173
 31
0.0
  0
LINE
  5
204
100
AcDbEntity
  8
0
  6
Continuous
 62
     8
100
AcDbLine
 10
253.734913
 20
105.496173
 30
0.0
 11
254.734969
 21
105.496173
 31
0.0
  0
LINE
  5
205
100
AcDbEntity
  8
0
  6
Continuous
 62
     8
100
AcDbLine
 10
256.735082
 20
105.496173
 30
0.0
 11
264.38045
 21
105.496173
 31
0.0
  0
LINE
  5
206
100
AcDbEntity
  8
0
  6
Continuous
 62
     8
100
AcDbLine
 10
266.380262
 20
105.496173
 30
0.0
 11
267.380319
 21
105.496173
 31
0.0
  0
LINE
  5
207
100
AcDbEntity
  8
0
  6
Continuous
 62
     8
100
AcDbLine
 10
269.380431
 20
105.496173
 30
0.0
 11
277.025499
 21
105.496173
 31
0.0
  0
ENDBLK
  5
208
100
AcDbEntity
  8
0
100
AcDbBlockEnd
  0
BLOCK
  5
20B
100
AcDbEntity
  8
0
100
AcDbBlockBegin
  2
*B24
 70
     0
 10
0.0
 20
0.0
 30
0.0
  3
*B24
  1

  0
LINE
  5
20C
100
AcDbEntity
  8
0
  6
Continuous
 62
     8
100
AcDbLine
 10
245.464697
 20
203.302217
 30
0.0
 11
245.464697
 21
219.035454
 31
0.0
  0
ENDBLK
  5
20D
100
AcDbEntity
  8
0
100
AcDbBlockEnd
  0
BLOCK
  5
210
100
AcDbEntity
  8
0
100
AcDbBlockBegin
  2
*B25
 70
     0
 10
0.0
 20
0.0
 30
0.0
  3
*B25
  1

  0
LINE
  5
211
100
AcDbEntity
  8
0
  6
Continuous
 62
     8
100
AcDbLine
 10
187.089829
 20
91.097345
 30
0.0
 11
187.089829
 21
95.496812
 31
0.0
  0
LINE
  5
212
100
AcDbEntity
  8
0
  6
Continuous
 62
     8
100
AcDbLine
 10
187.089829
 20
101.496549
 30
0.0
 11
187.089829
 21
105.896316
 31
0.0
  0
ENDBLK
  5
213
100
AcDbEntity
  8
0
100
AcDbBlockEnd
  0
BLOCK
  5
216
100
AcDbEntity
  8
0
100
AcDbBlockBegin
  2
*B26
 70
     0
 10
0.0
 20
0.0
 30
0.0
  3
*B26
  1

  0
LINE
  5
217
100
AcDbEntity
  8
0
  6
Continuous
 62
     8
100
AcDbLine
 10
257.089562
 20
167.304997
 30
0.0
 11
257.089562
 21
176.637454
 31
0.0
  0
LINE
  5
218
100
AcDbEntity
  8
0
  6
Continuous
 62
     8
100
AcDbLine
 10
257.089562
 20
178.637567
 30
0.0
 11
257.089562
 21
179.637322
 31
0.0
  0
LINE
  5
219
100
AcDbEntity
  8
0
  6
Continuous
 62
     8
100
AcDbLine
 10
257.089562
 20
181.637135
 30
0.0
 11
257.089562
 21
190.969892
 31
0.0
  0
LINE
  5
21A
100
AcDbEntity
  8
0
  6
Continuous
 62
     8
100
AcDbLine
 10
257.089562
 20
192.969704
 30
0.0
 11
257.089562
 21
193.96976
 31
0.0
  0
LINE
  5
21B
100
AcDbEntity
  8
0
  6
Continuous
 62
     8
100
AcDbLine
 10
257.089562
 20
195.969572
 30
0.0
 11
257.089562
 21
205.302029
 31
0.0
  0
ENDBLK
  5
21C
100
AcDbEntity
  8
0
100
AcDbBlockEnd
  0
BLOCK
  5
21F
100
AcDbEntity
  8
0
100
AcDbBlockBegin
  2
*B27
 70
     0
 10
0.0
 20
0.0
 30
0.0
  3
*B27
  1

  0
LINE
  5
220
100
AcDbEntity
  8
0
  6
Continuous
 62
     8
100
AcDbLine
 10
257.089562
 20
139.041467
 30
0.0
 11
257.089562
 21
143.041091
 31
0.0
  0
LINE
  5
221
100
AcDbEntity
  8
0
  6
Continuous
 62
     8
100
AcDbLine
 10
257.089562
 20
100.746431
 30
0.0
 11
257.089562
 21
105.496173
 31
0.0
  0
LINE
  5
222
100
AcDbEntity
  8
0
  6
Continuous
 62
     8
100
AcDbLine
 10
257.089562
 20
111.49591
 30
0.0
 11
257.089562
 21
122.768698
 31
0.0
  0
LINE
  5
223
100
AcDbEntity
  8
0
  6
Continuous
 62
     8
100
AcDbLine
 10
257.089562
 20
124.76851
 30
0.0
 11
257.089562
 21
125.768566
 31
0.0
  0
LINE
  5
224
100
AcDbEntity
  8
0
  6
Continuous
 62
     8
100
AcDbLine
 10
257.089562
 20
127.768378
 30
0.0
 11
257.089562
 21
139.041467
 31
0.0
  0
ENDBLK
  5
225
100
AcDbEntity
  8
0
100
AcDbBlockEnd
  0
BLOCK
  5
228
100
AcDbEntity
  8
0
100
AcDbBlockBegin
  2
*B28
 70
     0
 10
0.0
 20
0.0
 30
0.0
  3
*B28
  1

  0
LINE
  5
229
100
AcDbEntity
  8
0
  6
Continuous
 62
     8
100
AcDbLine
 10
149.089794
 20
98.541741
 30
0.0
 11
160.889797
 21
98.541741
 31
0.0
  0
ENDBLK
  5
22A
100
AcDbEntity
  8
0
100
AcDbBlockEnd
  0
BLOCK
  5
22D
100
AcDbEntity
  8
0
100
AcDbBlockBegin
  2
*B29
 70
     0
 10
0.0
 20
0.0
 30
0.0
  3
*B29
  1

  0
LINE
  5
22E
100
AcDbEntity
  8
0
  6
Continuous
 62
     8
100
AcDbLine
 10
139.025545
 20
83.497939
 30
0.0
 11
200.08966
 21
83.497939
 31
0.0
  0
ENDBLK
  5
22F
100
AcDbEntity
  8
0
100
AcDbBlockEnd
  0
BLOCK
  5
232
100
AcDbEntity
  8
0
100
AcDbBlockBegin
  2
*B30
 70
     0
 10
0.0
 20
0.0
 30
0.0
  3
*B30
  1

  0
LINE
  5
233
100
AcDbEntity
  8
0
  6
Continuous
 62
     8
100
AcDbLine
 10
139.025545
 20
113.495722
 30
0.0
 11
200.08966
 21
113.495722
 31
0.0
  0
LINE
  5
234
100
AcDbEntity
  8
0
  6
Continuous
 62
     8
100
AcDbLine
 10
266.089768
 20
113.495722
 30
0.0
 11
294.025555
 21
113.495722
 31
0.0
  0
ENDBLK
  5
235
100
AcDbEntity
  8
0
100
AcDbBlockEnd
  0
BLOCK
  5
238
100
AcDbEntity
  8
0
100
AcDbBlockBegin
  2
*B31
 70
     0
 10
0.0
 20
0.0
 30
0.0
  3
*B31
  1

  0
LINE
  5
239
100
AcDbEntity
  8
0
  6
Continuous
 62
     8
100
AcDbLine
 10
225.089865
 20
139.041467
 30
0.0
 11
225.089865
 21
143.041091
 31
0.0
  0
LINE
  5
23A
100
AcDbEntity
  8
0
  6
Continuous
 62
     8
100
AcDbLine
 10
225.089865
 20
100.746431
 30
0.0
 11
225.089865
 21
105.496173
 31
0.0
  0
LINE
  5
23B
100
AcDbEntity
  8
0
  6
Continuous
 62
     8
100
AcDbLine
 10
225.089865
 20
111.49591
 30
0.0
 11
225.089865
 21
122.768698
 31
0.0
  0
LINE
  5
23C
100
AcDbEntity
  8
0
  6
Continuous
 62
     8
100
AcDbLine
 10
225.089865
 20
124.76851
 30
0.0
 11
225.089865
 21
125.768566
 31
0.0
  0
LINE
  5
23D
100
AcDbEntity
  8
0
  6
Continuous
 62
     8
100
AcDbLine
 10
225.089865
 20
127.768378
 30
0.0
 11
225.089865
 21
139.041467
 31
0.0
  0
ENDBLK
  5
23E
100
AcDbEntity
  8
0
100
AcDbBlockEnd
  0
BLOCK
  5
241
100
AcDbEntity
  8
0
100
AcDbBlockBegin
  2
*B32
 70
     0
 10
0.0
 20
0.0
 30
0.0
  3
*B32
  1

  0
LINE
  5
242
100
AcDbEntity
  8
0
  6
Continuous
 62
     8
100
AcDbLine
 10
225.089865
 20
167.304997
 30
0.0
 11
225.089865
 21
176.637454
 31
0.0
  0
LINE
  5
243
100
AcDbEntity
  8
0
  6
Continuous
 62
     8
100
AcDbLine
 10
225.089865
 20
178.637567
 30
0.0
 11
225.089865
 21
179.637322
 31
0.0
  0
LINE
  5
244
100
AcDbEntity
  8
0
  6
Continuous
 62
     8
100
AcDbLine
 10
225.089865
 20
181.637135
 30
0.0
 11
225.089865
 21
190.969892
 31
0.0
  0
LINE
  5
245
100
AcDbEntity
  8
0
  6
Continuous
 62
     8
100
AcDbLine
 10
225.089865
 20
192.969704
 30
0.0
 11
225.089865
 21
193.96976
 31
0.0
  0
LINE
  5
246
100
AcDbEntity
  8
0
  6
Continuous
 62
     8
100
AcDbLine
 10
225.089865
 20
195.969572
 30
0.0
 11
225.089865
 21
205.302029
 31
0.0
  0
ENDBLK
  5
247
100
AcDbEntity
  8
0
100
AcDbBlockEnd
  0
BLOCK
  5
24A
100
AcDbEntity
  8
0
100
AcDbBlockBegin
  2
*B33
 70
     0
 10
0.0
 20
0.0
 30
0.0
  3
*B33
  1

  0
LINE
  5
24B
100
AcDbEntity
  8
0
  6
Continuous
 62
     8
100
AcDbLine
 10
254.889679
 20
155.122876
 30
0.0
 11
254.889679
 21
169.30481
 31
0.0
  0
ENDBLK
  5
24C
100
AcDbEntity
  8
0
100
AcDbBlockEnd
  0
BLOCK
  5
24F
100
AcDbEntity
  8
0
100
AcDbBlockBegin
  2
*B34
 70
     0
 10
0.0
 20
0.0
 30
0.0
  3
*B34
  1

  0
LINE
  5
250
100
AcDbEntity
  8
0
  6
Continuous
 62
     8
100
AcDbLine
 10
232.089658
 20
55.047255
 30
0.0
 11
232.089658
 21
72.046108
 31
0.0
  0
LINE
  5
251
100
AcDbEntity
  8
0
  6
Continuous
 62
     8
100
AcDbLine
 10
232.089658
 20
72.046108
 30
0.0
 11
232.089658
 21
88.497319
 31
0.0
  0
LINE
  5
252
100
AcDbEntity
  8
0
  6
Continuous
 62
     8
100
AcDbLine
 10
232.089658
 20
94.497056
 30
0.0
 11
232.089658
 21
99.871645
 31
0.0
  0
ENDBLK
  5
253
100
AcDbEntity
  8
0
100
AcDbBlockEnd
  0
BLOCK
  5
256
100
AcDbEntity
  8
0
100
AcDbBlockBegin
  2
*B35
 70
     0
 10
0.0
 20
0.0
 30
0.0
  3
*B35
  1

  0
LINE
  5
257
100
AcDbEntity
  8
0
  6
Continuous
 62
     8
100
AcDbLine
 10
236.71473
 20
203.302217
 30
0.0
 11
236.71473
 21
219.035454
 31
0.0
  0
ENDBLK
  5
258
100
AcDbEntity
  8
0
100
AcDbBlockEnd
  0
BLOCK
  5
25B
100
AcDbEntity
  8
0
100
AcDbBlockBegin
  2
*B36
 70
     0
 10
0.0
 20
0.0
 30
0.0
  3
*B36
  1

  0
LINE
  5
25C
100
AcDbEntity
  8
0
  6
Continuous
 62
     8
100
AcDbLine
 10
277.025499
 20
91.497188
 30
0.0
 11
281.025724
 21
91.497188
 31
0.0
  0
LINE
  5
25D
100
AcDbEntity
  8
0
  6
Continuous
 62
     8
100
AcDbLine
 10
241.714711
 20
91.497188
 30
0.0
 11
247.089601
 21
91.497188
 31
0.0
  0
LINE
  5
25E
100
AcDbEntity
  8
0
  6
Continuous
 62
     8
100
AcDbLine
 10
253.089638
 20
91.497188
 30
0.0
 11
262.557578
 21
91.497188
 31
0.0
  0
LINE
  5
25F
100
AcDbEntity
  8
0
  6
Continuous
 62
     8
100
AcDbLine
 10
264.557691
 20
91.497188
 30
0.0
 11
265.557747
 21
91.497188
 31
0.0
  0
LINE
  5
260
100
AcDbEntity
  8
0
  6
Continuous
 62
     8
100
AcDbLine
 10
267.557559
 20
91.497188
 30
0.0
 11
277.025499
 21
91.497188
 31
0.0
  0
ENDBLK
  5
261
100
AcDbEntity
  8
0
100
AcDbBlockEnd
  0
BLOCK
  5
264
100
AcDbEntity
  8
0
100
AcDbBlockBegin
  2
*B37
 70
     0
 10
0.0
 20
0.0
 30
0.0
  3
*B37
  1

  0
LINE
  5
265
100
AcDbEntity
  8
0
  6
Continuous
 62
     8
100
AcDbLine
 10
202.089772
 20
203.302217
 30
0.0
 11
202.089772
 21
246.116281
 31
0.0
  0
ENDBLK
  5
266
100
AcDbEntity
  8
0
100
AcDbBlockEnd
  0
BLOCK
  5
269
100
AcDbEntity
  8
0
100
AcDbBlockBegin
  2
*B38
 70
     0
 10
0.0
 20
0.0
 30
0.0
  3
*B38
  1

  0
LINE
  5
26A
100
AcDbEntity
  8
0
  6
Continuous
 62
     8
100
AcDbLine
 10
137.025733
 20
171.304622
 30
0.0
 11
170.089774
 21
171.304622
 31
0.0
  0
ENDBLK
  5
26B
100
AcDbEntity
  8
0
100
AcDbBlockEnd
  0
BLOCK
  5
26E
100
AcDbEntity
  8
0
100
AcDbBlockBegin
  2
*B39
 70
     0
 10
0.0
 20
0.0
 30
0.0
  3
*B39
  1

  0
LINE
  5
26F
100
AcDbEntity
  8
0
  6
Continuous
 62
     8
100
AcDbLine
 10
290.02563
 20
108.496041
 30
0.0
 11
294.025555
 21
108.496041
 31
0.0
  0
LINE
  5
270
100
AcDbEntity
  8
0
  6
Continuous
 62
     8
100
AcDbLine
 10
249.339652
 20
108.496041
 30
0.0
 11
254.089694
 21
108.496041
 31
0.0
  0
LINE
  5
271
100
AcDbEntity
  8
0
  6
Continuous
 62
     8
100
AcDbLine
 10
260.089731
 20
108.496041
 30
0.0
 11
272.55754
 21
108.496041
 31
0.0
  0
LINE
  5
272
100
AcDbEntity
  8
0
  6
Continuous
 62
     8
100
AcDbLine
 10
274.557652
 20
108.496041
 30
0.0
 11
275.557709
 21
108.496041
 31
0.0
  0
LINE
  5
273
100
AcDbEntity
  8
0
  6
Continuous
 62
     8
100
AcDbLine
 10
277.557521
 20
108.496041
 30
0.0
 11
290.02563
 21
108.496041
 31
0.0
  0
ENDBLK
  5
274
100
AcDbEntity
  8
0
100
AcDbBlockEnd
  0
BLOCK
  5
277
100
AcDbEntity
  8
0
100
AcDbBlockBegin
  2
*B40
 70
     0
 10
0.0
 20
0.0
 30
0.0
  3
*B40
  1

  0
LINE
  5
278
100
AcDbEntity
  8
0
  6
Continuous
 62
     8
100
AcDbLine
 10
250.089769
 20
68.046484
 30
0.0
 11
250.089769
 21
72.046108
 31
0.0
  0
LINE
  5
279
100
AcDbEntity
  8
0
  6
Continuous
 62
     8
100
AcDbLine
 10
250.089769
 20
72.046108
 30
0.0
 11
250.089769
 21
88.497319
 31
0.0
  0
LINE
  5
27A
100
AcDbEntity
  8
0
  6
Continuous
 62
     8
100
AcDbLine
 10
250.089769
 20
94.497056
 30
0.0
 11
250.089769
 21
99.871645
 31
0.0
  0
ENDBLK
  5
27B
100
AcDbEntity
  8
0
100
AcDbBlockEnd
  0
BLOCK
  5
27E
100
AcDbEntity
  8
0
100
AcDbBlockBegin
  2
*B41
 70
     0
 10
0.0
 20
0.0
 30
0.0
  3
*B41
  1

  0
LINE
  5
27F
100
AcDbEntity
  8
0
  6
Continuous
 62
     8
100
AcDbLine
 10
137.025733
 20
229.300075
 30
0.0
 11
151.782646
 21
229.300075
 31
0.0
  0
ENDBLK
  5
280
100
AcDbEntity
  8
0
100
AcDbBlockEnd
  0
BLOCK
  5
283
100
AcDbEntity
  8
0
100
AcDbBlockBegin
  2
*B42
 70
     0
 10
0.0
 20
0.0
 30
0.0
  3
*B42
  1

  0
LINE
  5
284
100
AcDbEntity
  8
0
  6
Continuous
 62
     8
100
AcDbLine
 10
160.389619
 20
182.303438
 30
0.0
 11
174.589877
 21
182.303438
 31
0.0
  0
ENDBLK
  5
285
100
AcDbEntity
  8
0
100
AcDbBlockEnd
  0
BLOCK
  5
288
100
AcDbEntity
  8
0
100
AcDbBlockBegin
  2
*B43
 70
     0
 10
0.0
 20
0.0
 30
0.0
  3
*B43
  1

  0
LINE
  5
289
100
AcDbEntity
  8
0
  6
Continuous
 62
     8
100
AcDbLine
 10
264.089656
 20
203.302217
 30
0.0
 11
264.089656
 21
246.116281
 31
0.0
  0
ENDBLK
  5
28A
100
AcDbEntity
  8
0
100
AcDbBlockEnd
  0
BLOCK
  5
28D
100
AcDbEntity
  8
0
100
AcDbBlockBegin
  2
*B44
 70
     0
 10
0.0
 20
0.0
 30
0.0
  3
*B44
  1

  0
LINE
  5
28E
100
AcDbEntity
  8
0
  6
Continuous
 62
     8
100
AcDbLine
 10
156.589766
 20
98.49668
 30
0.0
 11
167.839723
 21
98.49668
 31
0.0
  0
LINE
  5
28F
100
AcDbEntity
  8
0
  6
Continuous
 62
     8
100
AcDbLine
 10
169.839835
 20
98.49668
 30
0.0
 11
170.839891
 21
98.49668
 31
0.0
  0
LINE
  5
290
100
AcDbEntity
  8
0
  6
Continuous
 62
     8
100
AcDbLine
 10
172.839704
 20
98.49668
 30
0.0
 11
184.089661
 21
98.49668
 31
0.0
  0
LINE
  5
291
100
AcDbEntity
  8
0
  6
Continuous
 62
     8
100
AcDbLine
 10
190.089698
 20
98.49668
 30
0.0
 11
197.589669
 21
98.49668
 31
0.0
  0
LINE
  5
292
100
AcDbEntity
  8
0
  6
Continuous
 62
     8
100
AcDbLine
 10
199.589782
 20
98.49668
 30
0.0
 11
200.589838
 21
98.49668
 31
0.0
  0
LINE
  5
293
100
AcDbEntity
  8
0
  6
Continuous
 62
     8
100
AcDbLine
 10
202.58965
 20
98.49668
 30
0.0
 11
210.089622
 21
98.49668
 31
0.0
  0
LINE
  5
294
100
AcDbEntity
  8
0
  6
Continuous
 62
     8
100
AcDbLine
 10
216.089659
 20
98.49668
 30
0.0
 11
225.339804
 21
98.49668
 31
0.0
  0
LINE
  5
295
100
AcDbEntity
  8
0
  6
Continuous
 62
     8
100
AcDbLine
 10
227.339616
 20
98.49668
 30
0.0
 11
228.339672
 21
98.49668
 31
0.0
  0
LINE
  5
296
100
AcDbEntity
  8
0
  6
Continuous
 62
     8
100
AcDbLine
 10
230.339785
 20
98.49668
 30
0.0
 11
239.589629
 21
98.49668
 31
0.0
  0
LINE
  5
297
100
AcDbEntity
  8
0
  6
Continuous
 62
     8
100
AcDbLine
 10
241.589742
 20
98.49668
 30
0.0
 11
242.589798
 21
98.49668
 31
0.0
  0
LINE
  5
298
100
AcDbEntity
  8
0
  6
Continuous
 62
     8
100
AcDbLine
 10
244.58961
 20
98.49668
 30
0.0
 11
253.839755
 21
98.49668
 31
0.0
  0
LINE
  5
299
100
AcDbEntity
  8
0
  6
Continuous
 62
     8
100
AcDbLine
 10
255.839567
 20
98.49668
 30
0.0
 11
256.839623
 21
98.49668
 31
0.0
  0
LINE
  5
29A
100
AcDbEntity
  8
0
  6
Continuous
 62
     8
100
AcDbLine
 10
258.839736
 20
98.49668
 30
0.0
 11
268.089581
 21
98.49668
 31
0.0
  0
ENDBLK
  5
29B
100
AcDbEntity
  8
0
100
AcDbBlockEnd
  0
BLOCK
  5
29E
100
AcDbEntity
  8
0
100
AcDbBlockBegin
  2
*B45
 70
     0
 10
0.0
 20
0.0
 30
0.0
  3
*B45
  1

  0
LINE
  5
29F
100
AcDbEntity
  8
0
  6
Continuous
 62
     8
100
AcDbLine
 10
259.289746
 20
155.122876
 30
0.0
 11
259.289746
 21
169.30481
 31
0.0
  0
ENDBLK
  5
2A0
100
AcDbEntity
  8
0
100
AcDbBlockEnd
  0
BLOCK
  5
2A3
100
AcDbEntity
  8
0
100
AcDbBlockBegin
  2
*B46
 70
     0
 10
0.0
 20
0.0
 30
0.0
  3
*B46
  1

  0
LINE
  5
2A4
100
AcDbEntity
  8
0
  6
Continuous
 62
     8
100
AcDbLine
 10
266.089768
 20
171.304622
 30
0.0
 11
294.352098
 21
171.304622
 31
0.0
  0
ENDBLK
  5
2A5
100
AcDbEntity
  8
0
100
AcDbBlockEnd
  0
BLOCK
  5
2A8
100
AcDbEntity
  8
0
100
AcDbBlockBegin
  2
*B47
 70
     0
 10
0.0
 20
0.0
 30
0.0
  3
*B47
  1

  0
LINE
  5
2A9
100
AcDbEntity
  8
0
  6
Continuous
 62
     8
100
AcDbLine
 10
149.782534
 20
220.30107
 30
0.0
 11
162.186055
 21
220.30107
 31
0.0
  0
LINE
  5
2AA
100
AcDbEntity
  8
0
  6
Continuous
 62
     8
100
AcDbLine
 10
164.186168
 20
220.30107
 30
0.0
 11
165.186224
 21
220.30107
 31
0.0
  0
LINE
  5
2AB
100
AcDbEntity
  8
0
  6
Continuous
 62
     8
100
AcDbLine
 10
167.186036
 20
220.30107
 30
0.0
 11
179.589858
 21
220.30107
 31
0.0
  0
ENDBLK
  5
2AC
100
AcDbEntity
  8
0
100
AcDbBlockEnd
  0
BLOCK
  5
2AF
100
AcDbEntity
  8
0
100
AcDbBlockBegin
  2
*B48
 70
     0
 10
0.0
 20
0.0
 30
0.0
  3
*B48
  1

  0
LINE
  5
2B0
100
AcDbEntity
  8
0
  6
Continuous
 62
     8
100
AcDbLine
 10
223.7146
 20
91.497188
 30
0.0
 11
229.089789
 21
91.497188
 31
0.0
  0
LINE
  5
2B1
100
AcDbEntity
  8
0
  6
Continuous
 62
     8
100
AcDbLine
 10
235.089827
 20
91.497188
 30
0.0
 11
240.464716
 21
91.497188
 31
0.0
  0
ENDBLK
  5
2B2
100
AcDbEntity
  8
0
100
AcDbBlockEnd
  0
BLOCK
  5
2B5
100
AcDbEntity
  8
0
100
AcDbBlockBegin
  2
*B49
 70
     0
 10
0.0
 20
0.0
 30
0.0
  3
*B49
  1

  0
LINE
  5
2B6
100
AcDbEntity
  8
0
  6
Continuous
 62
     8
100
AcDbLine
 10
241.089864
 20
188.303475
 30
0.0
 11
241.089864
 21
205.302029
 31
0.0
  0
ENDBLK
  5
2B7
100
AcDbEntity
  8
0
100
AcDbBlockEnd
  0
BLOCK
  5
2BA
100
AcDbEntity
  8
0
100
AcDbBlockBegin
  2
*B50
 70
     0
 10
0.0
 20
0.0
 30
0.0
  3
*B50
  1

  0
LINE
  5
2BB
100
AcDbEntity
  8
0
  6
Continuous
 62
     8
100
AcDbLine
 10
241.089864
 20
125.042481
 30
0.0
 11
241.089864
 21
129.042106
 31
0.0
  0
LINE
  5
2BC
100
AcDbEntity
  8
0
  6
Continuous
 62
     8
100
AcDbLine
 10
241.089864
 20
97.121716
 30
0.0
 11
241.089864
 21
102.496305
 31
0.0
  0
LINE
  5
2BD
100
AcDbEntity
  8
0
  6
Continuous
 62
     8
100
AcDbLine
 10
241.089864
 20
108.496041
 30
0.0
 11
241.089864
 21
125.042481
 31
0.0
  0
ENDBLK
  5
2BE
100
AcDbEntity
  8
0
100
AcDbBlockEnd
  0
BLOCK
  5
2C1
100
AcDbEntity
  8
0
100
AcDbBlockBegin
  2
*B51
 70
     0
 10
0.0
 20
0.0
 30
0.0
  3
*B51
  1

  0
LINE
  5
2C2
100
AcDbEntity
  8
0
  6
Continuous
 62
     8
100
AcDbLine
 10
217.339654
 20
108.496041
 30
0.0
 11
222.089696
 21
108.496041
 31
0.0
  0
LINE
  5
2C3
100
AcDbEntity
  8
0
  6
Continuous
 62
     8
100
AcDbLine
 10
228.089733
 20
108.496041
 30
0.0
 11
232.839775
 21
108.496041
 31
0.0
  0
ENDBLK
  5
2C4
100
AcDbEntity
  8
0
100
AcDbBlockEnd
  0
BLOCK
  5
2C7
100
AcDbEntity
  8
0
100
AcDbBlockBegin
  2
*B52
 70
     0
 10
0.0
 20
0.0
 30
0.0
  3
*B52
  1

  0
LINE
  5
2C8
100
AcDbEntity
  8
0
  6
Continuous
 62
     8
100
AcDbLine
 10
153.089719
 20
230.099759
 30
0.0
 11
153.089719
 21
246.116281
 31
0.0
  0
ENDBLK
  5
2C9
100
AcDbEntity
  8
0
100
AcDbBlockEnd
  0
BLOCK
  5
2CC
100
AcDbEntity
  8
0
100
AcDbBlockBegin
  2
*B53
 70
     0
 10
0.0
 20
0.0
 30
0.0
  3
*B53
  1

  0
LINE
  5
2CD
100
AcDbEntity
  8
0
  6
Continuous
 62
     8
100
AcDbLine
 10
213.08979
 20
91.497188
 30
0.0
 11
213.08979
 21
95.496812
 31
0.0
  0
LINE
  5
2CE
100
AcDbEntity
  8
0
  6
Continuous
 62
     8
100
AcDbLine
 10
213.08979
 20
101.496549
 30
0.0
 11
213.08979
 21
105.496173
 31
0.0
  0
ENDBLK
  5
2CF
100
AcDbEntity
  8
0
100
AcDbBlockEnd
  0
BLOCK
  5
2D2
100
AcDbEntity
  8
0
100
AcDbBlockBegin
  2
*B54
 70
     0
 10
0.0
 20
0.0
 30
0.0
  3
*B54
  1

  0
LINE
  5
2D3
100
AcDbEntity
  8
0
  6
Continuous
 62
     8
100
AcDbLine
 10
266.089768
 20
201.302404
 30
0.0
 11
294.352098
 21
201.302404
 31
0.0
  0
ENDBLK
  5
2D4
100
AcDbEntity
  8
0
100
AcDbBlockEnd
  0
BLOCK
  5
2D7
100
AcDbEntity
  8
0
100
AcDbBlockBegin
  2
*B55
 70
     0
 10
0.0
 20
0.0
 30
0.0
  3
*B55
  1

  0
LINE
  5
2D8
100
AcDbEntity
  8
0
  6
Continuous
 62
     6
100
AcDbLine
 10
257.089562
 20
107.495985
 30
0.0
 11
257.089562
 21
109.495797
 31
0.0
  0
LINE
  5
2D9
100
AcDbEntity
  8
0
  6
Continuous
 62
     6
100
AcDbLine
 10
256.089807
 20
108.496041
 30
0.0
 11
258.089619
 21
108.496041
 31
0.0
  0
ENDBLK
  5
2DA
100
AcDbEntity
  8
0
100
AcDbBlockEnd
  0
BLOCK
  5
2DD
100
AcDbEntity
  8
0
100
AcDbBlockBegin
  2
*B56
 70
     0
 10
0.0
 20
0.0
 30
0.0
  3
*B56
  1

  0
LINE
  5
2DE
100
AcDbEntity
  8
0
  6
Continuous
 62
     6
100
AcDbLine
 10
231.089602
 20
91.497188
 30
0.0
 11
233.089714
 21
91.497188
 31
0.0
  0
LINE
  5
2DF
100
AcDbEntity
  8
0
  6
Continuous
 62
     6
100
AcDbLine
 10
232.089658
 20
90.497432
 30
0.0
 11
232.089658
 21
92.497244
 31
0.0
  0
ENDBLK
  5
2E0
100
AcDbEntity
  8
0
100
AcDbBlockEnd
  0
BLOCK
  5
2E3
100
AcDbEntity
  8
0
100
AcDbBlockBegin
  2
*B57
 70
     0
 10
0.0
 20
0.0
 30
0.0
  3
*B57
  1

  0
LINE
  5
2E4
100
AcDbEntity
  8
0
  6
Continuous
 62
     6
100
AcDbLine
 10
187.089829
 20
97.496924
 30
0.0
 11
187.089829
 21
99.496737
 31
0.0
  0
LINE
  5
2E5
100
AcDbEntity
  8
0
  6
Continuous
 62
     6
100
AcDbLine
 10
186.089773
 20
98.49668
 30
0.0
 11
188.089886
 21
98.49668
 31
0.0
  0
ENDBLK
  5
2E6
100
AcDbEntity
  8
0
100
AcDbBlockEnd
  0
BLOCK
  5
2E9
100
AcDbEntity
  8
0
100
AcDbBlockBegin
  2
*B58
 70
     0
 10
0.0
 20
0.0
 30
0.0
  3
*B58
  1

  0
LINE
  5
2EA
100
AcDbEntity
  8
0
  6
Continuous
 62
     6
100
AcDbLine
 10
213.08979
 20
97.496924
 30
0.0
 11
213.08979
 21
99.496737
 31
0.0
  0
LINE
  5
2EB
100
AcDbEntity
  8
0
  6
Continuous
 62
     6
100
AcDbLine
 10
212.089734
 20
98.49668
 30
0.0
 11
214.089847
 21
98.49668
 31
0.0
  0
ENDBLK
  5
2EC
100
AcDbEntity
  8
0
100
AcDbBlockEnd
  0
BLOCK
  5
2EF
100
AcDbEntity
  8
0
100
AcDbBlockBegin
  2
*B59
 70
     0
 10
0.0
 20
0.0
 30
0.0
  3
*B59
  1

  0
LINE
  5
2F0
100
AcDbEntity
  8
0
  6
Continuous
 62
     6
100
AcDbLine
 10
240.089808
 20
105.496173
 30
0.0
 11
242.08962
 21
105.496173
 31
0.0
  0
LINE
  5
2F1
100
AcDbEntity
  8
0
  6
Continuous
 62
     6
100
AcDbLine
 10
241.089864
 20
104.496417
 30
0.0
 11
241.089864
 21
106.496229
 31
0.0
  0
ENDBLK
  5
2F2
100
AcDbEntity
  8
0
100
AcDbBlockEnd
  0
BLOCK
  5
2F5
100
AcDbEntity
  8
0
100
AcDbBlockBegin
  2
*B60
 70
     0
 10
0.0
 20
0.0
 30
0.0
  3
*B60
  1

  0
LINE
  5
2F6
100
AcDbEntity
  8
0
  6
Continuous
 62
     6
100
AcDbLine
 10
225.089865
 20
107.495985
 30
0.0
 11
225.089865
 21
109.495797
 31
0.0
  0
LINE
  5
2F7
100
AcDbEntity
  8
0
  6
Continuous
 62
     6
100
AcDbLine
 10
224.089808
 20
108.496041
 30
0.0
 11
226.089621
 21
108.496041
 31
0.0
  0
ENDBLK
  5
2F8
100
AcDbEntity
  8
0
100
AcDbBlockEnd
  0
BLOCK
  5
2FB
100
AcDbEntity
  8
0
100
AcDbBlockBegin
  2
*B61
 70
     0
 10
0.0
 20
0.0
 30
0.0
  3
*B61
  1

  0
LINE
  5
2FC
100
AcDbEntity
  8
0
  6
Continuous
 62
     6
100
AcDbLine
 10
249.089713
 20
91.497188
 30
0.0
 11
251.089826
 21
91.497188
 31
0.0
  0
LINE
  5
2FD
100
AcDbEntity
  8
0
  6
Continuous
 62
     6
100
AcDbLine
 10
250.089769
 20
90.497432
 30
0.0
 11
250.089769
 21
92.497244
 31
0.0
  0
ENDBLK
  5
2FE
100
AcDbEntity
  8
0
100
AcDbBlockEnd
  0
BLOCK
  5
301
100
AcDbEntity
  8
0
100
AcDbBlockBegin
  2
*B62
 70
     0
 10
0.0
 20
0.0
 30
0.0
  3
*B62
  1

  0
TEXT
  5
302
100
AcDbEntity
  8
TEXT
  6
Continuous
 62
     0
100
AcDbText
 10
248.5886
 20
98.0
 30
0.0
 40
4.0
  1
1
100
AcDbText
  0
ENDBLK
  5
303
100
AcDbEntity
  8
0
100
AcDbBlockEnd
  0
BLOCK
  5
306
100
AcDbEntity
  8
0
100
AcDbBlockBegin
  2
*B63
 70
     0
 10
0.0
 20
0.0
 30
0.0
  3
*B63
  1

  0
TEXT
  5
307
100
AcDbEntity
  8
TEXT
  6
Continuous
 62
     0
100
AcDbText
 10
239.5886
 20
95.0
 30
0.0
 40
4.0
  1
2
100
AcDbText
  0
ENDBLK
  5
308
100
AcDbEntity
  8
0
100
AcDbBlockEnd
  0
BLOCK
  5
30B
100
AcDbEntity
  8
0
100
AcDbBlockBegin
  2
*B64
 70
     0
 10
0.0
 20
0.0
 30
0.0
  3
*B64
  1

  0
TEXT
  5
30C
100
AcDbEntity
  8
TEXT
  6
Continuous
 62
     0
100
AcDbText
 10
230.5886
 20
98.0
 30
0.0
 40
4.0
  1
3
100
AcDbText
  0
ENDBLK
  5
30D
100
AcDbEntity
  8
0
100
AcDbBlockEnd
  0
BLOCK
  5
310
100
AcDbEntity
  8
0
100
AcDbBlockBegin
  2
*B65
 70
     0
 10
0.0
 20
0.0
 30
0.0
  3
*B65
  1

  0
TEXT
  5
311
100
AcDbEntity
  8
TEXT
  6
Continuous
 62
     0
100
AcDbText
 10
214.0
 20
91.44145
 30
0.0
 40
3.0
  1
0
 50
90.0
100
AcDbText
  0
ENDBLK
  5
312
100
AcDbEntity
  8
0
100
AcDbBlockEnd
  0
BLOCK
  5
315
100
AcDbEntity
  8
0
100
AcDbBlockBegin
  2
*B66
 70
     0
 10
0.0
 20
0.0
 30
0.0
  3
*B66
  1

  0
TEXT
  5
316
100
AcDbEntity
  8
TEXT
  6
Continuous
 62
     0
100
AcDbText
 10
208.5
 20
96.94145
 30
0.0
 40
3.0
  1
1
 50
90.0
100
AcDbText
  0
ENDBLK
  5
317
100
AcDbEntity
  8
0
100
AcDbBlockEnd
  0
BLOCK
  5
31A
100
AcDbEntity
  8
0
100
AcDbBlockBegin
  2
*B67
 70
     0
 10
0.0
 20
0.0
 30
0.0
  3
*B67
  1

  0
TEXT
  5
31B
100
AcDbEntity
  8
TEXT
  6
Continuous
 62
     0
100
AcDbText
 10
290.576441
 20
182.932294
 30
0.0
 40
3.5
  1
30
 50
90.0
100
AcDbText
  0
ENDBLK
  5
31C
100
AcDbEntity
  8
0
100
AcDbBlockEnd
  0
BLOCK
  5
31F
100
AcDbEntity
  8
0
100
AcDbBlockBegin
  2
*B68
 70
     0
 10
0.0
 20
0.0
 30
0.0
  3
*B68
  1

  0
TEXT
  5
320
100
AcDbEntity
  8
TEXT
  6
Continuous
 62
     0
100
AcDbText
 10
277.25
 20
95.119129
 30
0.0
 40
3.5
  1
14
 50
90.0
100
AcDbText
  0
ENDBLK
  5
321
100
AcDbEntity
  8
0
100
AcDbBlockEnd
  0
BLOCK
  5
324
100
AcDbEntity
  8
0
100
AcDbBlockBegin
  2
*B69
 70
     0
 10
0.0
 20
0.0
 30
0.0
  3
*B69
  1

  0
TEXT
  5
325
100
AcDbEntity
  8
TEXT
  6
Continuous
 62
     0
100
AcDbText
 10
237.730774
 20
142.75
 30
0.0
 40
3.5
  1
32
100
AcDbText
  0
ENDBLK
  5
326
100
AcDbEntity
  8
0
100
AcDbBlockEnd
  0
BLOCK
  5
329
100
AcDbEntity
  8
0
100
AcDbBlockBegin
  2
*B70
 70
     0
 10
0.0
 20
0.0
 30
0.0
  3
*B70
  1

  0
TEXT
  5
32A
100
AcDbEntity
  8
TEXT
  6
Continuous
 62
     0
100
AcDbText
 10
237.730774
 20
71.75
 30
0.0
 40
3.5
  1
18
100
AcDbText
  0
ENDBLK
  5
32B
100
AcDbEntity
  8
0
100
AcDbBlockEnd
  0
BLOCK
  5
32E
100
AcDbEntity
  8
0
100
AcDbBlockBegin
  2
*B71
 70
     0
 10
0.0
 20
0.0
 30
0.0
  3
*B71
  1

  0
TEXT
  5
32F
100
AcDbEntity
  8
TEXT
  6
Continuous
 62
     0
100
AcDbText
 10
229.730774
 20
245.832714
 30
0.0
 40
3.5
  1
62
100
AcDbText
  0
ENDBLK
  5
330
100
AcDbEntity
  8
0
100
AcDbBlockEnd
  0
BLOCK
  5
333
100
AcDbEntity
  8
0
100
AcDbBlockBegin
  2
*B72
 70
     0
 10
0.0
 20
0.0
 30
0.0
  3
*B72
  1

  0
TEXT
  5
334
100
AcDbEntity
  8
TEXT
  6
Continuous
 62
     0
100
AcDbText
 10
174.230774
 20
245.832714
 30
0.0
 40
3.5
  1
48
100
AcDbText
  0
ENDBLK
  5
335
100
AcDbEntity
  8
0
100
AcDbBlockEnd
  0
BLOCK
  5
338
100
AcDbEntity
  8
0
100
AcDbBlockBegin
  2
*B73
 70
     0
 10
0.0
 20
0.0
 30
0.0
  3
*B73
  1

  0
TEXT
  5
339
100
AcDbEntity
  8
TEXT
  6
Continuous
 62
     0
100
AcDbText
 10
266.709774
 20
158.832714
 30
0.0
 40
3.5
  1
%%c4,4
100
AcDbText
  0
ENDBLK
  5
33A
100
AcDbEntity
  8
0
100
AcDbBlockEnd
  0
BLOCK
  5
33D
100
AcDbEntity
  8
0
100
AcDbBlockBegin
  2
*B74
 70
     0
 10
0.0
 20
0.0
 30
0.0
  3
*B74
  1

  0
TEXT
  5
33E
100
AcDbEntity
  8
TEXT
  6
Continuous
 62
     0
100
AcDbText
 10
253.416667
 20
218.75
 30
0.0
 40
3.5
  1
G 1/8"
100
AcDbText
  0
ENDBLK
  5
33F
100
AcDbEntity
  8
0
100
AcDbBlockEnd
  0
BLOCK
  5
342
100
AcDbEntity
  8
0
100
AcDbBlockBegin
  2
*B75
 70
     0
 10
0.0
 20
0.0
 30
0.0
  3
*B75
  1

  0
TEXT
  5
343
100
AcDbEntity
  8
TEXT
  6
Continuous
 62
     0
100
AcDbText
 10
137.25
 20
196.932069
 30
0.0
 40
3.5
  1
58
 50
90.0
100
AcDbText
  0
ENDBLK
  5
344
100
AcDbEntity
  8
0
100
AcDbBlockEnd
  0
BLOCK
  5
347
100
AcDbEntity
  8
0
100
AcDbBlockBegin
  2
*B76
 70
     0
 10
0.0
 20
0.0
 30
0.0
  3
*B76
  1

  0
TEXT
  5
348
100
AcDbEntity
  8
TEXT
  6
Continuous
 62
     0
100
AcDbText
 10
290.25
 20
121.333333
 30
0.0
 40
3.5
  1
5
 50
90.0
100
AcDbText
  0
ENDBLK
  5
349
100
AcDbEntity
  8
0
100
AcDbBlockEnd
  0
BLOCK
  5
34C
100
AcDbEntity
  8
0
100
AcDbBlockBegin
  2
*B77
 70
     0
 10
0.0
 20
0.0
 30
0.0
  3
*B77
  1

  0
TEXT
  5
34D
100
AcDbEntity
  8
TEXT
  6
Continuous
 62
     0
100
AcDbText
 10
139.25
 20
95.119129
 30
0.0
 40
3.5
  1
30
 50
90.0
100
AcDbText
  0
ENDBLK
  5
34E
100
AcDbEntity
  8
0
100
AcDbBlockEnd
  0
BLOCK
  5
351
100
AcDbEntity
  8
0
100
AcDbBlockBegin
  2
*B78
 70
     0
 10
0.0
 20
0.0
 30
0.0
  3
*B78
  1

  0
TEXT
  5
352
100
AcDbEntity
  8
TEXT
  6
Continuous
 62
     0
100
AcDbText
 10
226.230774
 20
128.75
 30
0.0
 40
3.5
  1
23
100
AcDbText
  0
ENDBLK
  5
353
100
AcDbEntity
  8
0
100
AcDbBlockEnd
  0
BLOCK
  5
356
100
AcDbEntity
  8
0
100
AcDbBlockBegin
  2
*B79
 70
     0
 10
0.0
 20
0.0
 30
0.0
  3
*B79
  1

  0
TEXT
  5
357
100
AcDbEntity
  8
TEXT
  6
Continuous
 62
     0
100
AcDbText
 10
237.730774
 20
232.75
 30
0.0
 40
3.5
  1
46
100
AcDbText
  0
ENDBLK
  5
358
100
AcDbEntity
  8
0
100
AcDbBlockEnd
  0
BLOCK
  5
35B
100
AcDbEntity
  8
0
100
AcDbBlockBegin
  2
*B80
 70
     0
 10
0.0
 20
0.0
 30
0.0
  3
*B80
  1

  0
TEXT
  5
35C
100
AcDbEntity
  8
TEXT
  6
Continuous
 62
     0
100
AcDbText
 10
219.89744
 20
142.75
 30
0.0
 40
3.5
  1
7
100
AcDbText
  0
ENDBLK
  5
35D
100
AcDbEntity
  8
0
100
AcDbBlockEnd
  0
BLOCK
  5
360
100
AcDbEntity
  8
0
100
AcDbBlockBegin
  2
*B81
 70
     0
 10
0.0
 20
0.0
 30
0.0
  3
*B81
  1

  0
TEXT
  5
361
100
AcDbEntity
  8
TEXT
  6
Continuous
 62
     0
100
AcDbText
 10
221.730774
 20
58.75
 30
0.0
 40
3.5
  1
14
100
AcDbText
  0
ENDBLK
  5
362
100
AcDbEntity
  8
0
100
AcDbBlockEnd
  0
ENDSEC
  0
SECTION
  2
ENTITIES
  0
INSERT
  5
F1
100
AcDbEntity
  8
0
  6
Continuous
 62
   174
100
AcDbBlockReference
  2
*B1
 10
0.0
 20
0.0
 30
0.0
  0
INSERT
  5
176
100
AcDbEntity
  8
0
  6
Continuous
 62
   174
100
AcDbBlockReference
  2
*B2
 10
0.0
 20
0.0
 30
0.0
  0
INSERT
  5
17C
100
AcDbEntity
  8
0
  6
Continuous
 62
   172
100
AcDbBlockReference
  2
*B3
 10
0.0
 20
0.0
 30
0.0
  0
INSERT
  5
187
100
AcDbEntity
  8
0
  6
Continuous
 62
   172
100
AcDbBlockReference
  2
*B4
 10
0.0
 20
0.0
 30
0.0
  0
INSERT
  5
191
100
AcDbEntity
  8
0
  6
Continuous
 62
     0
100
AcDbBlockReference
  2
*B6
 10
0.0
 20
0.0
 30
0.0
  0
INSERT
  5
198
100
AcDbEntity
  8
0
  6
Continuous
 62
     0
100
AcDbBlockReference
  2
*B7
 10
0.0
 20
0.0
 30
0.0
  0
INSERT
  5
19F
100
AcDbEntity
  8
0
  6
Continuous
 62
     0
100
AcDbBlockReference
  2
*B8
 10
0.0
 20
0.0
 30
0.0
  0
INSERT
  5
1A6
100
AcDbEntity
  8
0
  6
Continuous
 62
     0
100
AcDbBlockReference
  2
*B9
 10
0.0
 20
0.0
 30
0.0
  0
INSERT
  5
1AD
100
AcDbEntity
  8
0
  6
Continuous
 62
     0
100
AcDbBlockReference
  2
*B10
 10
0.0
 20
0.0
 30
0.0
  0
INSERT
  5
1B4
100
AcDbEntity
  8
0
  6
Continuous
 62
     0
100
AcDbBlockReference
  2
*B11
 10
0.0
 20
0.0
 30
0.0
  0
INSERT
  5
1BB
100
AcDbEntity
  8
0
  6
Continuous
 62
     0
100
AcDbBlockReference
  2
*B12
 10
0.0
 20
0.0
 30
0.0
  0
INSERT
  5
1C2
100
AcDbEntity
  8
0
  6
Continuous
 62
     0
100
AcDbBlockReference
  2
*B13
 10
0.0
 20
0.0
 30
0.0
  0
INSERT
  5
1C9
100
AcDbEntity
  8
0
  6
Continuous
 62
     0
100
AcDbBlockReference
  2
*B14
 10
0.0
 20
0.0
 30
0.0
  0
INSERT
  5
1D0
100
AcDbEntity
  8
0
  6
Continuous
 62
     0
100
AcDbBlockReference
  2
*B15
 10
0.0
 20
0.0
 30
0.0
  0
INSERT
  5
1D7
100
AcDbEntity
  8
0
  6
Continuous
 62
     0
100
AcDbBlockReference
  2
*B16
 10
0.0
 20
0.0
 30
0.0
  0
INSERT
  5
1DE
100
AcDbEntity
  8
0
  6
Continuous
 62
     0
100
AcDbBlockReference
  2
*B17
 10
0.0
 20
0.0
 30
0.0
  0
INSERT
  5
1E5
100
AcDbEntity
  8
0
  6
Continuous
 62
     0
100
AcDbBlockReference
  2
*B18
 10
0.0
 20
0.0
 30
0.0
  0
INSERT
  5
1EC
100
AcDbEntity
  8
0
  6
Continuous
 62
     0
100
AcDbBlockReference
  2
*B19
 10
0.0
 20
0.0
 30
0.0
  0
INSERT
  5
1F3
100
AcDbEntity
  8
0
  6
Continuous
 62
     0
100
AcDbBlockReference
  2
*B20
 10
0.0
 20
0.0
 30
0.0
  0
INSERT
  5
1F9
100
AcDbEntity
  8
0
  6
Continuous
 62
     8
100
AcDbBlockReference
  2
*B21
 10
0.0
 20
0.0
 30
0.0
  0
INSERT
  5
1FE
100
AcDbEntity
  8
0
  6
Continuous
 62
     8
100
AcDbBlockReference
  2
*B22
 10
0.0
 20
0.0
 30
0.0
  0
INSERT
  5
209
100
AcDbEntity
  8
0
  6
Continuous
 62
     8
100
AcDbBlockReference
  2
*B23
 10
0.0
 20
0.0
 30
0.0
  0
INSERT
  5
20E
100
AcDbEntity
  8
0
  6
Continuous
 62
     8
100
AcDbBlockReference
  2
*B24
 10
0.0
 20
0.0
 30
0.0
  0
INSERT
  5
214
100
AcDbEntity
  8
0
  6
Continuous
 62
     8
100
AcDbBlockReference
  2
*B25
 10
0.0
 20
0.0
 30
0.0
  0
INSERT
  5
21D
100
AcDbEntity
  8
0
  6
Continuous
 62
     8
100
AcDbBlockReference
  2
*B26
 10
0.0
 20
0.0
 30
0.0
  0
INSERT
  5
226
100
AcDbEntity
  8
0
  6
Continuous
 62
     8
100
AcDbBlockReference
  2
*B27
 10
0.0
 20
0.0
 30
0.0
  0
INSERT
  5
22B
100
AcDbEntity
  8
0
  6
Continuous
 62
     8
100
AcDbBlockReference
  2
*B28
 10
0.0
 20
0.0
 30
0.0
  0
INSERT
  5
230
100
AcDbEntity
  8
0
  6
Continuous
 62
     8
100
AcDbBlockReference
  2
*B29
 10
0.0
 20
0.0
 30
0.0
  0
INSERT
  5
236
100
AcDbEntity
  8
0
  6
Continuous
 62
     8
100
AcDbBlockReference
  2
*B30
 10
0.0
 20
0.0
 30
0.0
  0
INSERT
  5
23F
100
AcDbEntity
  8
0
  6
Continuous
 62
     8
100
AcDbBlockReference
  2
*B31
 10
0.0
 20
0.0
 30
0.0
  0
INSERT
  5
248
100
AcDbEntity
  8
0
  6
Continuous
 62
     8
100
AcDbBlockReference
  2
*B32
 10
0.0
 20
0.0
 30
0.0
  0
INSERT
  5
24D
100
AcDbEntity
  8
0
  6
Continuous
 62
     8
100
AcDbBlockReference
  2
*B33
 10
0.0
 20
0.0
 30
0.0
  0
INSERT
  5
254
100
AcDbEntity
  8
0
  6
Continuous
 62
     8
100
AcDbBlockReference
  2
*B34
 10
0.0
 20
0.0
 30
0.0
  0
INSERT
  5
259
100
AcDbEntity
  8
0
  6
Continuous
 62
     8
100
AcDbBlockReference
  2
*B35
 10
0.0
 20
0.0
 30
0.0
  0
INSERT
  5
262
100
AcDbEntity
  8
0
  6
Continuous
 62
     8
100
AcDbBlockReference
  2
*B36
 10
0.0
 20
0.0
 30
0.0
  0
INSERT
  5
267
100
AcDbEntity
  8
0
  6
Continuous
 62
     8
100
AcDbBlockReference
  2
*B37
 10
0.0
 20
0.0
 30
0.0
  0
INSERT
  5
26C
100
AcDbEntity
  8
0
  6
Continuous
 62
     8
100
AcDbBlockReference
  2
*B38
 10
0.0
 20
0.0
 30
0.0
  0
INSERT
  5
275
100
AcDbEntity
  8
0
  6
Continuous
 62
     8
100
AcDbBlockReference
  2
*B39
 10
0.0
 20
0.0
 30
0.0
  0
INSERT
  5
27C
100
AcDbEntity
  8
0
  6
Continuous
 62
     8
100
AcDbBlockReference
  2
*B40
 10
0.0
 20
0.0
 30
0.0
  0
INSERT
  5
281
100
AcDbEntity
  8
0
  6
Continuous
 62
     8
100
AcDbBlockReference
  2
*B41
 10
0.0
 20
0.0
 30
0.0
  0
INSERT
  5
286
100
AcDbEntity
  8
0
  6
Continuous
 62
     8
100
AcDbBlockReference
  2
*B42
 10
0.0
 20
0.0
 30
0.0
  0
INSERT
  5
28B
100
AcDbEntity
  8
0
  6
Continuous
 62
     8
100
AcDbBlockReference
  2
*B43
 10
0.0
 20
0.0
 30
0.0
  0
INSERT
  5
29C
100
AcDbEntity
  8
0
  6
Continuous
 62
     8
100
AcDbBlockReference
  2
*B44
 10
0.0
 20
0.0
 30
0.0
  0
INSERT
  5
2A1
100
AcDbEntity
  8
0
  6
Continuous
 62
     8
100
AcDbBlockReference
  2
*B45
 10
0.0
 20
0.0
 30
0.0
  0
INSERT
  5
2A6
100
AcDbEntity
  8
0
  6
Continuous
 62
     8
100
AcDbBlockReference
  2
*B46
 10
0.0
 20
0.0
 30
0.0
  0
INSERT
  5
2AD
100
AcDbEntity
  8
0
  6
Continuous
 62
     8
100
AcDbBlockReference
  2
*B47
 10
0.0
 20
0.0
 30
0.0
  0
INSERT
  5
2B3
100
AcDbEntity
  8
0
  6
Continuous
 62
     8
100
AcDbBlockReference
  2
*B48
 10
0.0
 20
0.0
 30
0.0
  0
INSERT
  5
2B8
100
AcDbEntity
  8
0
  6
Continuous
 62
     8
100
AcDbBlockReference
  2
*B49
 10
0.0
 20
0.0
 30
0.0
  0
INSERT
  5
2BF
100
AcDbEntity
  8
0
  6
Continuous
 62
     8
100
AcDbBlockReference
  2
*B50
 10
0.0
 20
0.0
 30
0.0
  0
INSERT
  5
2C5
100
AcDbEntity
  8
0
  6
Continuous
 62
     8
100
AcDbBlockReference
  2
*B51
 10
0.0
 20
0.0
 30
0.0
  0
INSERT
  5
2CA
100
AcDbEntity
  8
0
  6
Continuous
 62
     8
100
AcDbBlockReference
  2
*B52
 10
0.0
 20
0.0
 30
0.0
  0
INSERT
  5
2D0
100
AcDbEntity
  8
0
  6
Continuous
 62
     8
100
AcDbBlockReference
  2
*B53
 10
0.0
 20
0.0
 30
0.0
  0
INSERT
  5
2D5
100
AcDbEntity
  8
0
  6
Continuous
 62
     8
100
AcDbBlockReference
  2
*B54
 10
0.0
 20
0.0
 30
0.0
  0
INSERT
  5
2DB
100
AcDbEntity
  8
0
  6
Continuous
 62
     6
100
AcDbBlockReference
  2
*B55
 10
0.0
 20
0.0
 30
0.0
  0
INSERT
  5
2E1
100
AcDbEntity
  8
0
  6
Continuous
 62
     6
100
AcDbBlockReference
  2
*B56
 10
0.0
 20
0.0
 30
0.0
  0
INSERT
  5
2E7
100
AcDbEntity
  8
0
  6
Continuous
 62
     6
100
AcDbBlockReference
  2
*B57
 10
0.0
 20
0.0
 30
0.0
  0
INSERT
  5
2ED
100
AcDbEntity
  8
0
  6
Continuous
 62
     6
100
AcDbBlockReference
  2
*B58
 10
0.0
 20
0.0
 30
0.0
  0
INSERT
  5
2F3
100
AcDbEntity
  8
0
  6
Continuous
 62
     6
100
AcDbBlockReference
  2
*B59
 10
0.0
 20
0.0
 30
0.0
  0
INSERT
  5
2F9
100
AcDbEntity
  8
0
  6
Continuous
 62
     6
100
AcDbBlockReference
  2
*B60
 10
0.0
 20
0.0
 30
0.0
  0
INSERT
  5
2FF
100
AcDbEntity
  8
0
  6
Continuous
 62
     6
100
AcDbBlockReference
  2
*B61
 10
0.0
 20
0.0
 30
0.0
  0
INSERT
  5
304
100
AcDbEntity
  8
TEXT
  6
Continuous
 62
     0
100
AcDbBlockReference
  2
*B62
 10
0.0
 20
0.0
 30
0.0
  0
INSERT
  5
309
100
AcDbEntity
  8
TEXT
  6
Continuous
 62
     0
100
AcDbBlockReference
  2
*B63
 10
0.0
 20
0.0
 30
0.0
  0
INSERT
  5
30E
100
AcDbEntity
  8
TEXT
  6
Continuous
 62
     0
100
AcDbBlockReference
  2
*B64
 10
0.0
 20
0.0
 30
0.0
  0
INSERT
  5
313
100
AcDbEntity
  8
TEXT
  6
Continuous
 62
     0
100
AcDbBlockReference
  2
*B65
 10
0.0
 20
0.0
 30
0.0
  0
INSERT
  5
318
100
AcDbEntity
  8
TEXT
  6
Continuous
 62
     0
100
AcDbBlockReference
  2
*B66
 10
0.0
 20
0.0
 30
0.0
  0
INSERT
  5
31D
100
AcDbEntity
  8
TEXT
  6
Continuous
 62
     0
100
AcDbBlockReference
  2
*B67
 10
0.0
 20
0.0
 30
0.0
  0
INSERT
  5
322
100
AcDbEntity
  8
TEXT
  6
Continuous
 62
     0
100
AcDbBlockReference
  2
*B68
 10
0.0
 20
0.0
 30
0.0
  0
INSERT
  5
327
100
AcDbEntity
  8
TEXT
  6
Continuous
 62
     0
100
AcDbBlockReference
  2
*B69
 10
0.0
 20
0.0
 30
0.0
  0
INSERT
  5
32C
100
AcDbEntity
  8
TEXT
  6
Continuous
 62
     0
100
AcDbBlockReference
  2
*B70
 10
0.0
 20
0.0
 30
0.0
  0
INSERT
  5
331
100
AcDbEntity
  8
TEXT
  6
Continuous
 62
     0
100
AcDbBlockReference
  2
*B71
 10
0.0
 20
0.0
 30
0.0
  0
INSERT
  5
336
100
AcDbEntity
  8
TEXT
  6
Continuous
 62
     0
100
AcDbBlockReference
  2
*B72
 10
0.0
 20
0.0
 30
0.0
  0
INSERT
  5
33B
100
AcDbEntity
  8
TEXT
  6
Continuous
 62
     0
100
AcDbBlockReference
  2
*B73
 10
0.0
 20
0.0
 30
0.0
  0
INSERT
  5
340
100
AcDbEntity
  8
TEXT
  6
Continuous
 62
     0
100
AcDbBlockReference
  2
*B74
 10
0.0
 20
0.0
 30
0.0
  0
INSERT
  5
345
100
AcDbEntity
  8
TEXT
  6
Continuous
 62
     0
100
AcDbBlockReference
  2
*B75
 10
0.0
 20
0.0
 30
0.0
  0
INSERT
  5
34A
100
AcDbEntity
  8
TEXT
  6
Continuous
 62
     0
100
AcDbBlockReference
  2
*B76
 10
0.0
 20
0.0
 30
0.0
  0
INSERT
  5
34F
100
AcDbEntity
  8
TEXT
  6
Continuous
 62
     0
100
AcDbBlockReference
  2
*B77
 10
0.0
 20
0.0
 30
0.0
  0
INSERT
  5
354
100
AcDbEntity
  8
TEXT
  6
Continuous
 62
     0
100
AcDbBlockReference
  2
*B78
 10
0.0
 20
0.0
 30
0.0
  0
INSERT
  5
359
100
AcDbEntity
  8
TEXT
  6
Continuous
 62
     0
100
AcDbBlockReference
  2
*B79
 10
0.0
 20
0.0
 30
0.0
  0
INSERT
  5
35E
100
AcDbEntity
  8
TEXT
  6
Continuous
 62
     0
100
AcDbBlockReference
  2
*B80
 10
0.0
 20
0.0
 30
0.0
  0
INSERT
  5
363
100
AcDbEntity
  8
TEXT
  6
Continuous
 62
     0
100
AcDbBlockReference
  2
*B81
 10
0.0
 20
0.0
 30
0.0
  0
ENDSEC
  0
SECTION
  2
OBJECTS
  0
DICTIONARY
  5
19
100
AcDbDictionary
280
     0
281
     1
  3
ACAD_GROUP
350
1A
  3
ACAD_MLINESTYLE
350
1B
  3
ACAD_LAYOUT
350
1E
  3
ACAD_PLOTSETTINGS
350
22
  3
ACAD_PLOTSTYLENAME
350
1F
  3
ACAD_WIPEOUT_VARS
350
23
  0
DICTIONARY
  5
1A
102
{ACAD_REACTORS
330
19
102
}
100
AcDbDictionary
280
     0
281
     1
  0
DICTIONARY
  5
1B
102
{ACAD_REACTORS
330
19
102
}
100
AcDbDictionary
280
     0
281
     1
  3
Standard
350
1C
  0
MLINESTYLE
  5
1C
102
{ACAD_REACTORS
330
1B
102
}
100
AcDbMlineStyle
  2
Standard
 70
     0
  3

 62
     0
 51
90.0
 52
90.0
 71
     2
 49
0.5
 62
   256
  6
BYLAYER
 49
-0.5
 62
   256
  6
BYLAYER
  0
ACDBDICTIONARYWDFLT
  5
1F
102
{ACAD_REACTORS
330
19
102
}
100
AcDbDictionary
281
     1
  3
Normal
350
1D
100
AcDbDictionaryWithDefault
340
1D
  0
ACDBPLACEHOLDER
  5
1D
102
{ACAD_REACTORS
330
1F
102
}
  0
LAYOUT
  5
20
102
{ACAD_REACTORS
330
1E
102
}
100
AcDbPlotSettings
  1

  2

  4

  6

 40
0.0
 41
0.0
 42
0.0
 43
0.0
 44
0.0
 45
0.0
 46
0.0
 47
0.0
 48
0.0
 49
0.0
140
0.0
141
0.0
142
1.0
143
1.0
 70
     0
 72
     0
 73
     0
 74
     0
  7

 75
     0
147
1.0
148
0.0
149
0.0
100
AcDbLayout
  1
Model
 70
     0
 71
     0
 10
0.0
 20
0.0
 11
0.0
 21
0.0
 12
0.0
 22
0.0
 32
0.0
 14
0.0
 24
0.0
 34
0.0
 15
0.0
 25
0.0
 35
0.0
146
0.0
 13
0.0
 23
0.0
 33
0.0
 16
0.0
 26
0.0
 36
0.0
 17
0.0
 27
0.0
 37
0.0
 76
     0
330
A
331
0
345
0
346
0
  0
LAYOUT
  5
21
102
{ACAD_REACTORS
330
1E
102
}
100
AcDbPlotSettings
  1

  2

  4

  6

 40
0.0
 41
0.0
 42
0.0
 43
0.0
 44
0.0
 45
0.0
 46
0.0
 47
0.0
 48
0.0
 49
0.0
140
0.0
141
0.0
142
1.0
143
1.0
 70
     0
 72
     0
 73
     0
 74
     0
  7

 75
     0
147
1.0
148
0.0
149
0.0
100
AcDbLayout
  1
Layout1
 70
     0
 71
     0
 10
0.0
 20
0.0
 11
0.0
 21
0.0
 12
0.0
 22
0.0
 32
0.0
 14
0.0
 24
0.0
 34
0.0
 15
0.0
 25
0.0
 35
0.0
146
0.0
 13
0.0
 23
0.0
 33
0.0
 16
0.0
 26
0.0
 36
0.0
 17
0.0
 27
0.0
 37
0.0
 76
     0
330
B
331
0
345
0
346
0
  0
DICTIONARY
  5
1E
102
{ACAD_REACTORS
330
19
102
}
100
AcDbDictionary
280
     0
281
     1
  3
Layout1
350
21
  3
Model
350
20
  0
DICTIONARY
  5
22
102
{ACAD_REACTORS
330
19
102
}
100
AcDbDictionary
280
     0
281
     1
  0
WIPEOUTVARIABLES
  5
23
100
AcDbWipeoutVariables
 70
     1
  0
ENDSEC
  0
EOF
