  0
SECTION
  2
HEADER
  9
$ACADVER
  1
AC1015
  9
$ACADMAINTVER
 70
     6
  9
$DWGCODEPAGE
  3
DOS850
  9
$INSBASE
 10
0.0
 20
0.0
 30
0.0
  9
$EXTMIN
 10
0.0
 20
0.0
 30
0.0
  9
$EXTMAX
 10
420.0
 20
297.0
 30
0.0
  9
$LIMMIN
 10
0.0
 20
0.0
  9
$LIMMAX
 10
420.0
 20
297.0
  9
$ORTHOMODE
 70
     0
  9
$REGENMODE
 70
     1
  9
$FILLMODE
 70
     1
  9
$QTEXTMODE
 70
     0
  9
$MIRRTEXT
 70
     1
  9
$LTSCALE
 40
25.4
  9
$ATTMODE
 70
     1
  9
$TEXTSIZE
 40
3.5
  9
$TRACEWID
 40
0.05
  9
$TEXTSTYLE
  7
Standard
  9
$CLAYER
  8
0
  9
$CELTYPE
  6
Continuous
  9
$CECOLOR
 62
   256
  9
$CELTSCALE
 40
1.0
  9
$DISPSILH
 70
     0
  9
$DIMSCALE
 40
1.0
  9
$DIMASZ
 40
5.0
  9
$DIMEXO
 40
3.0
  9
$DIMDLI
 40
0.38
  9
$DIMRND
 40
0.0
  9
$DIMDLE
 40
0.0
  9
$DIMEXE
 40
2.0
  9
$DIMTP
 40
0.0
  9
$DIMTM
 40
0.0
  9
$DIMTXT
 40
3.5
  9
$DIMCEN
 40
4.0
  9
$DIMTSZ
 40
0.0
  9
$DIMTOL
 70
     0
  9
$DIMLIM
 70
     0
  9
$DIMTIH
 70
     1
  9
$DIMTOH
 70
     1
  9
$DIMSE1
 70
     0
  9
$DIMSE2
 70
     0
  9
$DIMTAD
 70
     0
  9
$DIMZIN
 70
     0
  9
$DIMBLK
  1

  9
$DIMASO
 70
     1
  9
$DIMSHO
 70
     1
  9
$DIMPOST
  1

  9
$DIMAPOST
  1

  9
$DIMALT
 70
     0
  9
$DIMALTD
 70
     2
  9
$DIMALTF
 40
25.4
  9
$DIMLFAC
 40
1.0
  9
$DIMTOFL
 70
     0
  9
$DIMTVP
 40
0.0
  9
$DIMTIX
 70
     0
  9
$DIMSOXD
 70
     0
  9
$DIMSAH
 70
     0
  9
$DIMBLK1
  1

  9
$DIMBLK2
  1

  9
$DIMSTYLE
  2
Standard
  9
$DIMCLRD
 70
     0
  9
$DIMCLRE
 70
     0
  9
$DIMCLRT
 70
     0
  9
$DIMTFAC
 40
1.0
  9
$DIMGAP
 40
1.0
  9
$DIMJUST
 70
     0
  9
$DIMSD1
 70
     0
  9
$DIMSD2
 70
     0
  9
$DIMTOLJ
 70
     1
  9
$DIMTZIN
 70
     0
  9
$DIMALTZ
 70
     0
  9
$DIMALTTZ
 70
     0
  9
$DIMUPT
 70
     0
  9
$DIMDEC
 70
     4
  9
$DIMTDEC
 70
     4
  9
$DIMALTU
 70
     2
  9
$DIMALTTD
 70
     2
  9
$DIMTXSTY
  7
Standard
  9
$DIMAUNIT
 70
     0
  9
$DIMADEC
 70
     0
  9
$DIMALTRND
 40
0.0
  9
$DIMAZIN
 70
     0
  9
$DIMDSEP
 70
     0
  9
$DIMATFIT
 70
     3
  9
$DIMFRAC
 70
     0
  9
$DIMLDRBLK
  1

  9
$DIMLUNIT
 70
     2
  9
$DIMLWD
 70
     0
  9
$DIMLWE
 70
     0
  9
$DIMTMOVE
 70
     0
  9
$LUNITS
 70
     2
  9
$LUPREC
 70
     4
  9
$SKETCHINC
 40
0.1
  9
$FILLETRAD
 40
0.0
  9
$AUNITS
 70
     0
  9
$AUPREC
 70
     0
  9
$MENU
  1
acad
  9
$ELEVATION
 40
0.0
  9
$PELEVATION
 40
0.0
  9
$THICKNESS
 40
0.0
  9
$LIMCHECK
 70
     0
  9
$CHAMFERA
 40
0.0
  9
$CHAMFERB
 40
0.0
  9
$CHAMFERC
 40
0.0
  9
$CHAMFERD
 40
0.0
  9
$SKPOLY
 70
     0
  9
$TDCREATE
 40
0.000000000
  9
$TDUCREATE
 40
0.000000000
  9
$TDUPDATE
 40
0.000000000
  9
$TDUUPDATE
 40
0.000000000
  9
$TDINDWG
 40
0.0000000000
  9
$TDUSRTIMER
 40
0.0000000000
  9
$USRTIMER
 70
     1
  9
$ANGBASE
 50
0.0
  9
$ANGDIR
 70
     0
  9
$PDMODE
 70
     0
  9
$PDSIZE
 40
0.0
  9
$PLINEWID
 40
0.0
  9
$SPLFRAME
 70
     0
  9
$SPLINETYPE
 70
     6
  9
$SPLINESEGS
 70
     8
  9
$HANDSEED
  5
489
  9
$SURFTAB1
 70
     6
  9
$SURFTAB2
 70
     6
  9
$SURFTYPE
 70
     6
  9
$SURFU
 70
     6
  9
$SURFV
 70
     6
  9
$UCSBASE
  2

  9
$UCSNAME
  2

  9
$UCSORG
 10
0.0
 20
0.0
 30
0.0
  9
$UCSXDIR
 10
1.0
 20
0.0
 30
0.0
  9
$UCSYDIR
 10
0.0
 20
1.0
 30
0.0
  9
$UCSORTHOREF
  2

  9
$UCSORTHOVIEW
 70
     0
  9
$UCSORGTOP
 10
0.0
 20
0.0
 30
0.0
  9
$UCSORGBOTTOM
 10
0.0
 20
0.0
 30
0.0
  9
$UCSORGLEFT
 10
0.0
 20
0.0
 30
0.0
  9
$UCSORGRIGHT
 10
0.0
 20
0.0
 30
0.0
  9
$UCSORGFRONT
 10
0.0
 20
0.0
 30
0.0
  9
$UCSORGBACK
 10
0.0
 20
0.0
 30
0.0
  9
$PUCSBASE
  2

  9
$PUCSNAME
  2

  9
$PUCSORG
 10
0.0
 20
0.0
 30
0.0
  9
$PUCSXDIR
 10
1.0
 20
0.0
 30
0.0
  9
$PUCSYDIR
 10
0.0
 20
1.0
 30
0.0
  9
$PUCSORTHOREF
  2

  9
$PUCSORTHOVIEW
 70
     0
  9
$PUCSORGTOP
 10
0.0
 20
0.0
 30
0.0
  9
$PUCSORGBOTTOM
 10
0.0
 20
0.0
 30
0.0
  9
$PUCSORGLEFT
 10
0.0
 20
0.0
 30
0.0
  9
$PUCSORGRIGHT
 10
0.0
 20
0.0
 30
0.0
  9
$PUCSORGFRONT
 10
0.0
 20
0.0
 30
0.0
  9
$PUCSORGBACK
 10
0.0
 20
0.0
 30
0.0
  9
$USERI1
 70
     0
  9
$USERI2
 70
     0
  9
$USERI3
 70
     0
  9
$USERI4
 70
     0
  9
$USERI5
 70
     0
  9
$USERR1
 40
0.0
  9
$USERR2
 40
0.0
  9
$USERR3
 40
0.0
  9
$USERR4
 40
0.0
  9
$USERR5
 40
0.0
  9
$WORLDVIEW
 70
     1
  9
$SHADEDGE
 70
     3
  9
$SHADEDIF
 70
    70
  9
$TILEMODE
 70
     1
  9
$MAXACTVP
 70
    16
  9
$PINSBASE
 10
0.0
 20
0.0
 30
0.0
  9
$PLIMCHECK
 70
     0
  9
$PEXTMIN
 10
1.000000E+20
 20
1.000000E+20
 30
1.000000E+20
  9
$PEXTMAX
 10
-1.000000E+20
 20
-1.000000E+20
 30
-1.000000E+20
  9
$PLIMMIN
 10
0.0
 20
0.0
  9
$PLIMMAX
 10
420.0
 20
297.0
  9
$UNITMODE
 70
     0
  9
$VISRETAIN
 70
     0
  9
$PLINEGEN
 70
     1
  9
$PSLTSCALE
 70
     0
  9
$TREEDEPTH
 70
  3020
  9
$CMLSTYLE
  2
Standard
  9
$CMLJUST
 70
     0
  9
$CMLSCALE
 40
1.0
  9
$PROXYGRAPHICS
 70
     0
  9
$MEASUREMENT
 70
     0
  9
$CELWEIGHT
370
     0
  9
$ENDCAPS
280
     0
  9
$JOINSTYLE
280
     0
  9
$LWDISPLAY
290
     0
  9
$INSUNITS
 70
     0
  9
$HYPERLINKBASE
  1

  9
$XEDIT
290
     1
  9
$CEPSNTYPE
380
     0
  9
$PSTYLEMODE
290
     0
  9
$FINGERPRINTGUID
  2

  9
$VERSIONGUID
  2

  9
$EXTNAMES
290
     1
  9
$PSVPSCALE
 40
0.0
  0
ENDSEC
  0
SECTION
  2
CLASSES
  0
CLASS
  1
LWPOLYLINE
  2
AcDbPolyline
  3
"AutoCAD"
 90
        0
280
     0
281
     1
  0
CLASS
  1
IMAGE
  2
AcDbRasterImage
  3
ISM
 90
      127
280
     0
281
     1
  0
CLASS
  1
OLE2FRAME
  2
AcDbOle2Frame
  3
""
 90
        0
280
     0
281
     1
  0
CLASS
  1
HATCH
  2
AcDbHatch
  3
"ACAD_SEDONA"
 90
        0
280
     0
281
     1
  0
CLASS
  1
DICTIONARYVAR
  2
AcDbDictionaryVar
  3
"AutoCAD"
 90
        0
280
     0
281
     0
  0
CLASS
  1
RASTERVARIABLES
  2
AcDbRasterVariables
  3
ISM
 90
        0
280
     0
281
     0
  0
CLASS
  1
IMAGEDEF
  2
AcDbRasterImageDef
  3
ISM
 90
        0
280
     0
281
     0
  0
CLASS
  1
IMAGEDEF_REACTOR
  2
AcDbRasterImageDefReactor
  3
ISM
 90
        1
280
     0
281
     0
  0
CLASS
  1
IDBUFFER
  2
AcDbIdBuffer
  3
"Acad"
 90
        0
280
     0
281
     0
  0
CLASS
  1
SPATIAL_FILTER
  2
AcDbSpatialFilter
  3
"Acad"
 90
        0
280
     0
281
     0
  0
CLASS
  1
XRECORD
  2
AcDbXrecord
  3
"<Built In>"
 90
        0
280
     0
281
     0
  0
CLASS
  1
SORTENTSTABLE
  2
AcDbSortentsTable
  3
"AutoCAD"
 90
        0
280
     0
281
     0
  0
CLASS
  1
LAYER_INDEX
  2
AcDbLayerIndex
  3
"Acad"
 90
        0
280
     0
281
     0
  0
CLASS
  1
SPATIAL_INDEX
  2
AcDbSpatialIndex
  3
"Acad"
 90
        0
280
     0
281
     0
  0
CLASS
  1
OBJECT_PTR
  2
CAseDLPNTableRecord
  3
"ASE-LPNTableRecord"
 90
        1
280
     0
281
     0
  0
CLASS
  1
LAYOUT
  2
AcDbLayout
  3
"AutoCAD 2000"
 90
        1
280
     0
281
     0
  0
CLASS
  1
PLOTSETTINGS
  2
AcDbPlotSettings
  3
"AutoCAD 2000"
 90
        1
280
     0
281
     0
  0
CLASS
  1
ACDBDICTIONARYWDFLT
  2
AcDbDictionaryWithDefault
  3
"AutoCAD 2000"
 90
        1
280
     0
281
     0
  0
CLASS
  1
ACDBPLACEHOLDER
  2
AcDbPlaceHolder
  3
"AutoCAD 2000"
 90
        1
280
     0
281
     0
  0
CLASS
  1
VBA_PROJECT
  2
AcDbVbaProject
  3
"acadvba"
 90
        1
280
     0
281
     0
  0
CLASS
  1
WIPEOUT
  2
AcDbWipeout
  3
WipeOut|AutoCAD Express Tool|expresstools@autodesk.com
 90
      127
280
     0
281
     1
  0
CLASS
  1
WIPEOUTVARIABLES
  2
AcDbWipeoutVariables
  3
WipeOut|AutoCAD Express Tool|expresstools@autodesk.com
 90
        0
280
     0
281
     0
  0
CLASS
  1
RTEXT
  2
RText
  3
RText|AutoCAD Express Tool|expresstools@autodesk.com
 90
        0
280
     0
281
     1
  0
CLASS
  1
ARCALIGNEDTEXT
  2
AcDbArcAlignedText
  3
ATEXT|AutoCAD Express Tool|expresstools@autodesk.com
 90
        0
280
     0
281
     1
  0
ENDSEC
  0
SECTION
  2
TABLES
  0
TABLE
  2
VPORT
  5
7
100
AcDbSymbolTable
 70
     1
  0
VPORT
  5
15
100
AcDbSymbolTableRecord
100
AcDbViewportTableRecord
  2
*ACTIVE
 70
     0
 10
0.0
 20
0.0
 11
1.0
 21
1.0
 12
6.591288
 22
4.579184
 13
0.0
 23
0.0
 14
1.0
 24
1.0
 15
0.0
 25
0.0
 16
0.0
 26
0.0
 36
1.0
 17
0.0
 27
0.0
 37
0.0
 40
9.158369
 41
0.688564
 42
50.0
 43
0.0
 44
0.0
 50
0.0
 51
0.0
 71
     0
 72
   100
 73
     1
 74
     1
 75
     0
 76
     0
 77
     0
 78
     0
281
     0
 65
     0
110
0.0
120
0.0
130
0.0
111
1.0
121
0.0
131
0.0
112
0.0
122
1.0
132
0.0
345
0
346
0
 79
     0
146
0.0
  0
ENDTAB
  0
TABLE
  2
LTYPE
  5
4
100
AcDbSymbolTable
 70
     7
  0
LTYPE
  5
11
100
AcDbSymbolTableRecord
100
AcDbLinetypeTableRecord
  2
ByBlock
 70
    64
  3

 72
    65
 73
     0
 40
0.0
  0
LTYPE
  5
12
100
AcDbSymbolTableRecord
100
AcDbLinetypeTableRecord
  2
ByLayer
 70
    64
  3

 72
    65
 73
     0
 40
0.0
  0
LTYPE
  5
13
100
AcDbSymbolTableRecord
100
AcDbLinetypeTableRecord
  2
Continuous
 70
    64
  3
Solid line
 72
    65
 73
     0
 40
0.0
  0
LTYPE
  5
24
100
AcDbSymbolTableRecord
100
AcDbLinetypeTableRecord
  2
HIDDEN
 70
    64
  3
_ _ _ _ _ _ _ _ _ _ _ _ _ _ _ _ _ _ _ _ _ _ _ _
 72
    65
 73
     2
 40
0.1875
 49
0.125
 74
     0
 49
-0.0625
 74
     0
  0
LTYPE
  5
25
100
AcDbSymbolTableRecord
100
AcDbLinetypeTableRecord
  2
DOTTED
 70
    64
  3
...............................................
 72
    65
 73
     2
 40
0.125
 49
0.0
 74
     0
 49
-0.125
 74
     0
  0
LTYPE
  5
26
100
AcDbSymbolTableRecord
100
AcDbLinetypeTableRecord
  2
CENTER
 70
    64
  3
____ _ ____ _ ____ _ ____ _ ____ _ ____ _ ____ 
 72
    65
 73
     4
 40
1.125
 49
0.75
 74
     0
 49
-0.125
 74
     0
 49
0.125
 74
     0
 49
-0.125
 74
     0
  0
LTYPE
  5
27
100
AcDbSymbolTableRecord
100
AcDbLinetypeTableRecord
  2
PHANTOM
 70
    64
  3
______  __  __  ______  __  __  ______  __  __ 
 72
    65
 73
     6
 40
1.25
 49
0.625
 74
     0
 49
-0.125
 74
     0
 49
0.125
 74
     0
 49
-0.125
 74
     0
 49
0.125
 74
     0
 49
-0.125
 74
     0
  0
ENDTAB
  0
TABLE
  2
LAYER
  5
2
100
AcDbSymbolTable
 70
     2
  0
LAYER
  5
14
100
AcDbSymbolTableRecord
100
AcDbLayerTableRecord
  2
0
 70
     0
 62
     7
  6
Continuous
290
     1
370
    -3
390
1D
  0
LAYER
  5
28
100
AcDbSymbolTableRecord
100
AcDbLayerTableRecord
  2
TEXT
 70
     0
 62
     8
  6
Continuous
290
     1
370
    -3
390
1F
  0
ENDTAB
  0
TABLE
  2
STYLE
  5
3
100
AcDbSymbolTable
 70
     1
  0
STYLE
  5
17
100
AcDbSymbolTableRecord
100
AcDbTextStyleTableRecord
  2
Standard
 70
     0
 40
0.0
 41
1.0
 50
0.0
 71
     0
 42
0.0
  3
txt
  4

  0
ENDTAB
  0
TABLE
  2
VIEW
  5
5
100
AcDbSymbolTable
 70
     0
  0
ENDTAB
  0
TABLE
  2
UCS
  5
6
100
AcDbSymbolTable
 70
     0
  0
ENDTAB
  0
TABLE
  2
APPID
  5
8
100
AcDbSymbolTable
 70
     1
  0
APPID
  5
16
100
AcDbSymbolTableRecord
100
AcDbRegAppTableRecord
  2
ACAD
 70
     0
  0
ENDTAB
  0
TABLE
  2
DIMSTYLE
  5
9
100
AcDbSymbolTable
 70
     1
100
AcDbDimStyleTable
 71
     0
  0
DIMSTYLE
105
18
100
AcDbSymbolTableRecord
100
AcDbDimStyleTableRecord
  2
Standard
 70
     0
  3

  4

 40
1.0
 41
0.18
 42
0.0625
 43
0.38
 44
0.18
 45
0.0
 46
0.0
 47
0.0
 48
0.0
 71
     0
 72
     0
 73
     1
 74
     1
 75
     0
 76
     0
 77
     0
 78
     0
 79
     0
140
0.18
141
0.09
142
0.0
143
25.4
144
1.0
145
0.0
146
1.0
147
0.09
148
0.0
170
     0
171
     2
172
     0
173
     0
174
     0
175
     0
176
     0
177
     0
178
     0
179
     0
271
     4
272
     4
273
     2
274
     2
275
     0
276
     0
277
     2
278
    46
279
     0
280
     0
281
     0
282
     0
283
     1
284
     0
285
     0
286
     0
288
     0
340
17
341
0
342
0
343
0
344
0
371
    -2
372
    -2
  0
ENDTAB
  0
TABLE
  2
BLOCK_RECORD
  5
1
100
AcDbSymbolTable
 70
    83
  0
BLOCK_RECORD
  5
A
100
AcDbSymbolTableRecord
100
AcDbBlockTableRecord
  2
*MODEL_SPACE
340
20
  0
BLOCK_RECORD
  5
B
100
AcDbSymbolTableRecord
100
AcDbBlockTableRecord
  2
*PAPER_SPACE
340
21
  0
BLOCK_RECORD
  5
29
100
AcDbSymbolTableRecord
100
AcDbBlockTableRecord
  2
*B0
340
0
  0
BLOCK_RECORD
  5
2C
100
AcDbSymbolTableRecord
100
AcDbBlockTableRecord
  2
*B1
340
0
  0
BLOCK_RECORD
  5
18E
100
AcDbSymbolTableRecord
100
AcDbBlockTableRecord
  2
*B2
340
0
  0
BLOCK_RECORD
  5
266
100
AcDbSymbolTableRecord
100
AcDbBlockTableRecord
  2
*B3
340
0
  0
BLOCK_RECORD
  5
26C
100
AcDbSymbolTableRecord
100
AcDbBlockTableRecord
  2
*B4
340
0
  0
BLOCK_RECORD
  5
277
100
AcDbSymbolTableRecord
100
AcDbBlockTableRecord
  2
*B5
340
0
  0
BLOCK_RECORD
  5
27A
100
AcDbSymbolTableRecord
100
AcDbBlockTableRecord
  2
*B6
340
0
  0
BLOCK_RECORD
  5
281
100
AcDbSymbolTableRecord
100
AcDbBlockTableRecord
  2
*B7
340
0
  0
BLOCK_RECORD
  5
288
100
AcDbSymbolTableRecord
100
AcDbBlockTableRecord
  2
*B8
340
0
  0
BLOCK_RECORD
  5
28F
100
AcDbSymbolTableRecord
100
AcDbBlockTableRecord
  2
*B9
340
0
  0
BLOCK_RECORD
  5
296
100
AcDbSymbolTableRecord
100
AcDbBlockTableRecord
  2
*B10
340
0
  0
BLOCK_RECORD
  5
29D
100
AcDbSymbolTableRecord
100
AcDbBlockTableRecord
  2
*B11
340
0
  0
BLOCK_RECORD
  5
2A4
100
AcDbSymbolTableRecord
100
AcDbBlockTableRecord
  2
*B12
340
0
  0
BLOCK_RECORD
  5
2AB
100
AcDbSymbolTableRecord
100
AcDbBlockTableRecord
  2
*B13
340
0
  0
BLOCK_RECORD
  5
2B2
100
AcDbSymbolTableRecord
100
AcDbBlockTableRecord
  2
*B14
340
0
  0
BLOCK_RECORD
  5
2B9
100
AcDbSymbolTableRecord
100
AcDbBlockTableRecord
  2
*B15
340
0
  0
BLOCK_RECORD
  5
2C0
100
AcDbSymbolTableRecord
100
AcDbBlockTableRecord
  2
*B16
340
0
  0
BLOCK_RECORD
  5
2C7
100
AcDbSymbolTableRecord
100
AcDbBlockTableRecord
  2
*B17
340
0
  0
BLOCK_RECORD
  5
2CE
100
AcDbSymbolTableRecord
100
AcDbBlockTableRecord
  2
*B18
340
0
  0
BLOCK_RECORD
  5
2D5
100
AcDbSymbolTableRecord
100
AcDbBlockTableRecord
  2
*B19
340
0
  0
BLOCK_RECORD
  5
2DA
100
AcDbSymbolTableRecord
100
AcDbBlockTableRecord
  2
*B20
340
0
  0
BLOCK_RECORD
  5
2E0
100
AcDbSymbolTableRecord
100
AcDbBlockTableRecord
  2
*B21
340
0
  0
BLOCK_RECORD
  5
2E5
100
AcDbSymbolTableRecord
100
AcDbBlockTableRecord
  2
*B22
340
0
  0
BLOCK_RECORD
  5
2EA
100
AcDbSymbolTableRecord
100
AcDbBlockTableRecord
  2
*B23
340
0
  0
BLOCK_RECORD
  5
2F0
100
AcDbSymbolTableRecord
100
AcDbBlockTableRecord
  2
*B24
340
0
  0
BLOCK_RECORD
  5
2F5
100
AcDbSymbolTableRecord
100
AcDbBlockTableRecord
  2
*B25
340
0
  0
BLOCK_RECORD
  5
304
100
AcDbSymbolTableRecord
100
AcDbBlockTableRecord
  2
*B26
340
0
  0
BLOCK_RECORD
  5
30A
100
AcDbSymbolTableRecord
100
AcDbBlockTableRecord
  2
*B27
340
0
  0
BLOCK_RECORD
  5
30F
100
AcDbSymbolTableRecord
100
AcDbBlockTableRecord
  2
*B28
340
0
  0
BLOCK_RECORD
  5
314
100
AcDbSymbolTableRecord
100
AcDbBlockTableRecord
  2
*B29
340
0
  0
BLOCK_RECORD
  5
319
100
AcDbSymbolTableRecord
100
AcDbBlockTableRecord
  2
*B30
340
0
  0
BLOCK_RECORD
  5
31E
100
AcDbSymbolTableRecord
100
AcDbBlockTableRecord
  2
*B31
340
0
  0
BLOCK_RECORD
  5
323
100
AcDbSymbolTableRecord
100
AcDbBlockTableRecord
  2
*B32
340
0
  0
BLOCK_RECORD
  5
328
100
AcDbSymbolTableRecord
100
AcDbBlockTableRecord
  2
*B33
340
0
  0
BLOCK_RECORD
  5
32D
100
AcDbSymbolTableRecord
100
AcDbBlockTableRecord
  2
*B34
340
0
  0
BLOCK_RECORD
  5
34B
100
AcDbSymbolTableRecord
100
AcDbBlockTableRecord
  2
*B35
340
0
  0
BLOCK_RECORD
  5
358
100
AcDbSymbolTableRecord
100
AcDbBlockTableRecord
  2
*B36
340
0
  0
BLOCK_RECORD
  5
35D
100
AcDbSymbolTableRecord
100
AcDbBlockTableRecord
  2
*B37
340
0
  0
BLOCK_RECORD
  5
362
100
AcDbSymbolTableRecord
100
AcDbBlockTableRecord
  2
*B38
340
0
  0
BLOCK_RECORD
  5
371
100
AcDbSymbolTableRecord
100
AcDbBlockTableRecord
  2
*B39
340
0
  0
BLOCK_RECORD
  5
377
100
AcDbSymbolTableRecord
100
AcDbBlockTableRecord
  2
*B40
340
0
  0
BLOCK_RECORD
  5
37D
100
AcDbSymbolTableRecord
100
AcDbBlockTableRecord
  2
*B41
340
0
  0
BLOCK_RECORD
  5
383
100
AcDbSymbolTableRecord
100
AcDbBlockTableRecord
  2
*B42
340
0
  0
BLOCK_RECORD
  5
388
100
AcDbSymbolTableRecord
100
AcDbBlockTableRecord
  2
*B43
340
0
  0
BLOCK_RECORD
  5
38E
100
AcDbSymbolTableRecord
100
AcDbBlockTableRecord
  2
*B44
340
0
  0
BLOCK_RECORD
  5
394
100
AcDbSymbolTableRecord
100
AcDbBlockTableRecord
  2
*B45
340
0
  0
BLOCK_RECORD
  5
39B
100
AcDbSymbolTableRecord
100
AcDbBlockTableRecord
  2
*B46
340
0
  0
BLOCK_RECORD
  5
3A1
100
AcDbSymbolTableRecord
100
AcDbBlockTableRecord
  2
*B47
340
0
  0
BLOCK_RECORD
  5
3C2
100
AcDbSymbolTableRecord
100
AcDbBlockTableRecord
  2
*B48
340
0
  0
BLOCK_RECORD
  5
3D1
100
AcDbSymbolTableRecord
100
AcDbBlockTableRecord
  2
*B49
340
0
  0
BLOCK_RECORD
  5
3DA
100
AcDbSymbolTableRecord
100
AcDbBlockTableRecord
  2
*B50
340
0
  0
BLOCK_RECORD
  5
3E1
100
AcDbSymbolTableRecord
100
AcDbBlockTableRecord
  2
*B51
340
0
  0
BLOCK_RECORD
  5
3E6
100
AcDbSymbolTableRecord
100
AcDbBlockTableRecord
  2
*B52
340
0
  0
BLOCK_RECORD
  5
3EB
100
AcDbSymbolTableRecord
100
AcDbBlockTableRecord
  2
*B53
340
0
  0
BLOCK_RECORD
  5
3F1
100
AcDbSymbolTableRecord
100
AcDbBlockTableRecord
  2
*B54
340
0
  0
BLOCK_RECORD
  5
3F7
100
AcDbSymbolTableRecord
100
AcDbBlockTableRecord
  2
*B55
340
0
  0
BLOCK_RECORD
  5
3FD
100
AcDbSymbolTableRecord
100
AcDbBlockTableRecord
  2
*B56
340
0
  0
BLOCK_RECORD
  5
403
100
AcDbSymbolTableRecord
100
AcDbBlockTableRecord
  2
*B57
340
0
  0
BLOCK_RECORD
  5
409
100
AcDbSymbolTableRecord
100
AcDbBlockTableRecord
  2
*B58
340
0
  0
BLOCK_RECORD
  5
40F
100
AcDbSymbolTableRecord
100
AcDbBlockTableRecord
  2
*B59
340
0
  0
BLOCK_RECORD
  5
415
100
AcDbSymbolTableRecord
100
AcDbBlockTableRecord
  2
*B60
340
0
  0
BLOCK_RECORD
  5
41B
100
AcDbSymbolTableRecord
100
AcDbBlockTableRecord
  2
*B61
340
0
  0
BLOCK_RECORD
  5
420
100
AcDbSymbolTableRecord
100
AcDbBlockTableRecord
  2
*B62
340
0
  0
BLOCK_RECORD
  5
425
100
AcDbSymbolTableRecord
100
AcDbBlockTableRecord
  2
*B63
340
0
  0
BLOCK_RECORD
  5
42A
100
AcDbSymbolTableRecord
100
AcDbBlockTableRecord
  2
*B64
340
0
  0
BLOCK_RECORD
  5
42F
100
AcDbSymbolTableRecord
100
AcDbBlockTableRecord
  2
*B65
340
0
  0
BLOCK_RECORD
  5
434
100
AcDbSymbolTableRecord
100
AcDbBlockTableRecord
  2
*B66
340
0
  0
BLOCK_RECORD
  5
439
100
AcDbSymbolTableRecord
100
AcDbBlockTableRecord
  2
*B67
340
0
  0
BLOCK_RECORD
  5
43E
100
AcDbSymbolTableRecord
100
AcDbBlockTableRecord
  2
*B68
340
0
  0
BLOCK_RECORD
  5
443
100
AcDbSymbolTableRecord
100
AcDbBlockTableRecord
  2
*B69
340
0
  0
BLOCK_RECORD
  5
448
100
AcDbSymbolTableRecord
100
AcDbBlockTableRecord
  2
*B70
340
0
  0
BLOCK_RECORD
  5
44D
100
AcDbSymbolTableRecord
100
AcDbBlockTableRecord
  2
*B71
340
0
  0
BLOCK_RECORD
  5
452
100
AcDbSymbolTableRecord
100
AcDbBlockTableRecord
  2
*B72
340
0
  0
BLOCK_RECORD
  5
457
100
AcDbSymbolTableRecord
100
AcDbBlockTableRecord
  2
*B73
340
0
  0
BLOCK_RECORD
  5
45C
100
AcDbSymbolTableRecord
100
AcDbBlockTableRecord
  2
*B74
340
0
  0
BLOCK_RECORD
  5
461
100
AcDbSymbolTableRecord
100
AcDbBlockTableRecord
  2
*B75
340
0
  0
BLOCK_RECORD
  5
466
100
AcDbSymbolTableRecord
100
AcDbBlockTableRecord
  2
*B76
340
0
  0
BLOCK_RECORD
  5
46B
100
AcDbSymbolTableRecord
100
AcDbBlockTableRecord
  2
*B77
340
0
  0
BLOCK_RECORD
  5
470
100
AcDbSymbolTableRecord
100
AcDbBlockTableRecord
  2
*B78
340
0
  0
BLOCK_RECORD
  5
475
100
AcDbSymbolTableRecord
100
AcDbBlockTableRecord
  2
*B79
340
0
  0
BLOCK_RECORD
  5
47A
100
AcDbSymbolTableRecord
100
AcDbBlockTableRecord
  2
*B80
340
0
  0
BLOCK_RECORD
  5
47F
100
AcDbSymbolTableRecord
100
AcDbBlockTableRecord
  2
*B81
340
0
  0
BLOCK_RECORD
  5
484
100
AcDbSymbolTableRecord
100
AcDbBlockTableRecord
  2
*B82
340
0
  0
ENDTAB
  0
ENDSEC
  0
SECTION
  2
BLOCKS
  0
BLOCK
  5
D
100
AcDbEntity
  8
0
100
AcDbBlockBegin
  2
*MODEL_SPACE
 70
     0
 10
0.0
 20
0.0
 30
0.0
  3
*MODEL_SPACE
  1

  0
ENDBLK
  5
E
100
AcDbEntity
  8
0
100
AcDbBlockEnd
  0
BLOCK
  5
F
100
AcDbEntity
 67
     1
  8
0
100
AcDbBlockBegin
  2
*PAPER_SPACE
 70
     0
 10
0.0
 20
0.0
 30
0.0
  3
*PAPER_SPACE
  1

  0
ENDBLK
  5
10
100
AcDbEntity
 67
     1
  8
0
100
AcDbBlockEnd
  0
BLOCK
  5
2A
100
AcDbEntity
  8
0
100
AcDbBlockBegin
  2
*B0
 70
     0
 10
0.0
 20
0.0
 30
0.0
  3
*B0
  1

  0
ENDBLK
  5
2B
100
AcDbEntity
  8
0
100
AcDbBlockEnd
  0
BLOCK
  5
2D
100
AcDbEntity
  8
0
100
AcDbBlockBegin
  2
*B1
 70
     0
 10
0.0
 20
0.0
 30
0.0
  3
*B1
  1

  0
LINE
  5
2E
100
AcDbEntity
  8
0
  6
HIDDEN
 62
   174
100
AcDbLine
 10
182.413087
 20
189.293505
 30
0.0
 11
201.212883
 21
189.293505
 31
0.0
  0
LINE
  5
2F
100
AcDbEntity
  8
0
  6
HIDDEN
 62
   174
100
AcDbLine
 10
182.387365
 20
188.293505
 30
0.0
 11
182.387365
 21
174.293505
 31
0.0
  0
LINE
  5
30
100
AcDbEntity
  8
0
  6
HIDDEN
 62
   174
100
AcDbLine
 10
202.267365
 20
188.293505
 30
0.0
 11
202.267365
 21
174.293505
 31
0.0
  0
LINE
  5
31
100
AcDbEntity
  8
0
  6
HIDDEN
 62
   174
100
AcDbLine
 10
181.333122
 20
188.293505
 30
0.0
 11
202.293148
 21
188.293505
 31
0.0
  0
LINE
  5
32
100
AcDbEntity
  8
0
  6
HIDDEN
 62
   174
100
AcDbLine
 10
181.333122
 20
174.293505
 30
0.0
 11
202.293148
 21
174.293505
 31
0.0
  0
LINE
  5
33
100
AcDbEntity
  8
0
  6
HIDDEN
 62
   174
100
AcDbLine
 10
181.307365
 20
188.293505
 30
0.0
 11
181.307365
 21
174.293505
 31
0.0
  0
LINE
  5
34
100
AcDbEntity
  8
0
  6
HIDDEN
 62
   174
100
AcDbLine
 10
202.267365
 20
188.293505
 30
0.0
 11
202.267365
 21
174.293505
 31
0.0
  0
LINE
  5
35
100
AcDbEntity
  8
0
  6
HIDDEN
 62
   174
100
AcDbLine
 10
181.307365
 20
188.293505
 30
0.0
 11
181.307365
 21
174.293505
 31
0.0
  0
LINE
  5
36
100
AcDbEntity
  8
0
  6
HIDDEN
 62
   174
100
AcDbLine
 10
182.387365
 20
174.293505
 30
0.0
 11
182.387365
 21
189.293505
 31
0.0
  0
LINE
  5
37
100
AcDbEntity
  8
0
  6
HIDDEN
 62
   174
100
AcDbLine
 10
201.187365
 20
174.293505
 30
0.0
 11
201.187365
 21
189.293505
 31
0.0
  0
LINE
  5
38
100
AcDbEntity
  8
0
  6
HIDDEN
 62
   174
100
AcDbLine
 10
182.387365
 20
174.293505
 30
0.0
 11
182.387365
 21
189.293505
 31
0.0
  0
LINE
  5
39
100
AcDbEntity
  8
0
  6
HIDDEN
 62
   174
100
AcDbLine
 10
201.187365
 20
174.293505
 30
0.0
 11
201.187365
 21
189.293505
 31
0.0
  0
LINE
  5
3A
100
AcDbEntity
  8
0
  6
HIDDEN
 62
   174
100
AcDbLine
 10
201.187365
 20
188.293505
 30
0.0
 11
201.187365
 21
174.293505
 31
0.0
  0
LINE
  5
3B
100
AcDbEntity
  8
0
  6
HIDDEN
 62
   174
100
AcDbLine
 10
214.387365
 20
188.293505
 30
0.0
 11
214.387365
 21
174.293505
 31
0.0
  0
LINE
  5
3C
100
AcDbEntity
  8
0
  6
HIDDEN
 62
   174
100
AcDbLine
 10
233.212881
 20
174.293505
 30
0.0
 11
214.413085
 21
174.293505
 31
0.0
  0
LINE
  5
3D
100
AcDbEntity
  8
0
  6
HIDDEN
 62
   174
100
AcDbLine
 10
201.212883
 20
174.293505
 30
0.0
 11
182.413087
 21
174.293505
 31
0.0
  0
LINE
  5
3E
100
AcDbEntity
  8
0
  6
HIDDEN
 62
   174
100
AcDbLine
 10
138.043633
 20
250.293505
 30
0.0
 11
137.604769
 21
250.293505
 31
0.0
  0
LINE
  5
3F
100
AcDbEntity
  8
0
  6
Continuous
 62
   174
100
AcDbLine
 10
313.787365
 20
234.493505
 30
0.0
 11
313.120111
 21
233.337787
 31
0.0
  0
LINE
  5
40
100
AcDbEntity
  8
0
  6
Continuous
 62
   174
100
AcDbLine
 10
109.287365
 20
250.293505
 30
0.0
 11
124.287365
 21
250.293505
 31
0.0
  0
LINE
  5
41
100
AcDbEntity
  8
0
  6
HIDDEN
 62
   174
100
AcDbLine
 10
277.96996
 20
250.293505
 30
0.0
 11
279.787365
 21
250.293505
 31
0.0
  0
LINE
  5
42
100
AcDbEntity
  8
0
  6
HIDDEN
 62
   174
100
AcDbLine
 10
197.307365
 20
220.293505
 30
0.0
 11
197.307365
 21
234.293505
 31
0.0
  0
LINE
  5
43
100
AcDbEntity
  8
0
  6
HIDDEN
 62
   174
100
AcDbLine
 10
218.267365
 20
220.293505
 30
0.0
 11
218.267365
 21
234.293505
 31
0.0
  0
LINE
  5
44
100
AcDbEntity
  8
0
  6
HIDDEN
 62
   174
100
AcDbLine
 10
217.187365
 20
234.293505
 30
0.0
 11
217.187365
 21
219.293505
 31
0.0
  0
LINE
  5
45
100
AcDbEntity
  8
0
  6
Continuous
 62
   174
100
AcDbLine
 10
306.287365
 20
235.721283
 30
0.0
 11
306.287365
 21
242.327242
 31
0.0
  0
LINE
  5
46
100
AcDbEntity
  8
0
  6
Continuous
 62
   174
100
AcDbLine
 10
306.287365
 20
242.327242
 30
0.0
 11
306.287365
 21
248.933802
 31
0.0
  0
LINE
  5
47
100
AcDbEntity
  8
0
  6
Continuous
 62
   174
100
AcDbLine
 10
306.287365
 20
248.933802
 30
0.0
 11
306.287365
 21
250.326791
 31
0.0
  0
LINE
  5
48
100
AcDbEntity
  8
0
  6
HIDDEN
 62
   174
100
AcDbLine
 10
182.387365
 20
188.293505
 30
0.0
 11
182.387365
 21
174.293505
 31
0.0
  0
LINE
  5
49
100
AcDbEntity
  8
0
  6
HIDDEN
 62
   174
100
AcDbLine
 10
234.267365
 20
188.293505
 30
0.0
 11
234.267365
 21
174.293505
 31
0.0
  0
LINE
  5
4A
100
AcDbEntity
  8
0
  6
HIDDEN
 62
   174
100
AcDbLine
 10
214.387365
 20
188.293505
 30
0.0
 11
214.387365
 21
174.293505
 31
0.0
  0
LINE
  5
4B
100
AcDbEntity
  8
0
  6
HIDDEN
 62
   174
100
AcDbLine
 10
135.787365
 20
250.293505
 30
0.0
 11
133.810182
 21
250.293505
 31
0.0
  0
LINE
  5
4C
100
AcDbEntity
  8
0
  6
Continuous
 62
   174
100
AcDbLine
 10
109.287365
 20
248.793505
 30
0.0
 11
106.287365
 21
248.793505
 31
0.0
  0
LINE
  5
4D
100
AcDbEntity
  8
0
  6
HIDDEN
 62
   174
100
AcDbLine
 10
281.764548
 20
250.293505
 30
0.0
 11
282.174212
 21
250.293505
 31
0.0
  0
LINE
  5
4E
100
AcDbEntity
  8
0
  6
HIDDEN
 62
   174
100
AcDbLine
 10
218.292847
 20
220.293505
 30
0.0
 11
197.333121
 21
220.293505
 31
0.0
  0
LINE
  5
4F
100
AcDbEntity
  8
0
  6
HIDDEN
 62
   174
100
AcDbLine
 10
218.292847
 20
234.293505
 30
0.0
 11
197.333121
 21
234.293505
 31
0.0
  0
LINE
  5
50
100
AcDbEntity
  8
0
  6
HIDDEN
 62
   174
100
AcDbLine
 10
265.287365
 20
247.293505
 30
0.0
 11
265.287365
 21
221.293505
 31
0.0
  0
LINE
  5
51
100
AcDbEntity
  8
0
  6
HIDDEN
 62
   174
100
AcDbLine
 10
294.787365
 20
204.330211
 30
0.0
 11
294.787365
 21
194.33085
 31
0.0
  0
LINE
  5
52
100
AcDbEntity
  8
0
  6
HIDDEN
 62
   174
100
AcDbLine
 10
106.287365
 20
242.327242
 30
0.0
 11
106.287365
 21
235.827928
 31
0.0
  0
LINE
  5
53
100
AcDbEntity
  8
0
  6
HIDDEN
 62
   174
100
AcDbLine
 10
106.287365
 20
248.826857
 30
0.0
 11
106.287365
 21
242.327242
 31
0.0
  0
LINE
  5
54
100
AcDbEntity
  8
0
  6
HIDDEN
 62
   174
100
AcDbLine
 10
234.267365
 20
188.293505
 30
0.0
 11
234.267365
 21
174.293505
 31
0.0
  0
LINE
  5
55
100
AcDbEntity
  8
0
  6
HIDDEN
 62
   174
100
AcDbLine
 10
214.387365
 20
174.293505
 30
0.0
 11
214.387365
 21
189.293505
 31
0.0
  0
LINE
  5
56
100
AcDbEntity
  8
0
  6
HIDDEN
 62
   174
100
AcDbLine
 10
279.787365
 20
250.293505
 30
0.0
 11
277.96996
 21
250.293505
 31
0.0
  0
LINE
  5
57
100
AcDbEntity
  8
0
  6
Continuous
 62
   174
100
AcDbLine
 10
306.287365
 20
248.793505
 30
0.0
 11
309.287365
 21
248.793505
 31
0.0
  0
LINE
  5
58
100
AcDbEntity
  8
0
  6
HIDDEN
 62
   174
100
AcDbLine
 10
276.387365
 20
250.293505
 30
0.0
 11
276.787422
 21
250.293505
 31
0.0
  0
LINE
  5
59
100
AcDbEntity
  8
0
  6
HIDDEN
 62
   174
100
AcDbLine
 10
198.387365
 20
234.293505
 30
0.0
 11
198.387365
 21
219.293505
 31
0.0
  0
LINE
  5
5A
100
AcDbEntity
  8
0
  6
HIDDEN
 62
   174
100
AcDbLine
 10
198.387365
 20
220.293505
 30
0.0
 11
198.387365
 21
234.293505
 31
0.0
  0
LINE
  5
5B
100
AcDbEntity
  8
0
  6
Continuous
 62
   174
100
AcDbLine
 10
264.787365
 20
234.293505
 30
0.0
 11
264.787365
 21
174.293505
 31
0.0
  0
LINE
  5
5C
100
AcDbEntity
  8
0
  6
HIDDEN
 62
   174
100
AcDbLine
 10
233.187365
 20
174.293505
 30
0.0
 11
233.187365
 21
189.293505
 31
0.0
  0
LINE
  5
5D
100
AcDbEntity
  8
0
  6
HIDDEN
 62
   174
100
AcDbLine
 10
282.174212
 20
250.293505
 30
0.0
 11
281.764548
 21
250.293505
 31
0.0
  0
LINE
  5
5E
100
AcDbEntity
  8
0
  6
Continuous
 62
   174
100
AcDbLine
 10
106.287365
 20
251.293505
 30
0.0
 11
105.587365
 21
251.293505
 31
0.0
  0
LINE
  5
5F
100
AcDbEntity
  8
0
  6
Continuous
 62
   174
100
AcDbLine
 10
306.287365
 20
234.293505
 30
0.0
 11
294.287365
 21
234.293505
 31
0.0
  0
LINE
  5
60
100
AcDbEntity
  8
0
  6
HIDDEN
 62
   174
100
AcDbLine
 10
276.787422
 20
250.293505
 30
0.0
 11
277.96996
 21
250.293505
 31
0.0
  0
LINE
  5
61
100
AcDbEntity
  8
0
  6
HIDDEN
 62
   174
100
AcDbLine
 10
197.307365
 20
220.293505
 30
0.0
 11
197.307365
 21
234.293505
 31
0.0
  0
LINE
  5
62
100
AcDbEntity
  8
0
  6
HIDDEN
 62
   174
100
AcDbLine
 10
198.387365
 20
234.293505
 30
0.0
 11
198.387365
 21
219.293505
 31
0.0
  0
LINE
  5
63
100
AcDbEntity
  8
0
  6
HIDDEN
 62
   174
100
AcDbLine
 10
198.413086
 20
234.293505
 30
0.0
 11
217.212882
 21
234.293505
 31
0.0
  0
LINE
  5
64
100
AcDbEntity
  8
0
  6
Continuous
 62
   174
100
AcDbLine
 10
248.787365
 20
234.293505
 30
0.0
 11
166.787365
 21
234.293505
 31
0.0
  0
LINE
  5
65
100
AcDbEntity
  8
0
  6
Continuous
 62
   174
100
AcDbLine
 10
166.787365
 20
174.293505
 30
0.0
 11
150.787365
 21
174.293505
 31
0.0
  0
LINE
  5
66
100
AcDbEntity
  8
0
  6
Continuous
 62
   174
100
AcDbLine
 10
166.787365
 20
234.293505
 30
0.0
 11
150.787365
 21
234.293505
 31
0.0
  0
LINE
  5
67
100
AcDbEntity
  8
0
  6
Continuous
 62
   174
100
AcDbLine
 10
248.787365
 20
234.293505
 30
0.0
 11
264.787365
 21
234.293505
 31
0.0
  0
LINE
  5
68
100
AcDbEntity
  8
0
  6
HIDDEN
 62
   174
100
AcDbLine
 10
213.307365
 20
188.293505
 30
0.0
 11
213.307365
 21
174.293505
 31
0.0
  0
LINE
  5
69
100
AcDbEntity
  8
0
  6
HIDDEN
 62
   174
100
AcDbLine
 10
233.187365
 20
174.293505
 30
0.0
 11
233.187365
 21
189.293505
 31
0.0
  0
LINE
  5
6A
100
AcDbEntity
  8
0
  6
Continuous
 62
   174
100
AcDbLine
 10
306.287365
 20
235.793505
 30
0.0
 11
309.287365
 21
235.793505
 31
0.0
  0
LINE
  5
6B
100
AcDbEntity
  8
0
  6
Continuous
 62
   174
100
AcDbLine
 10
309.287365
 20
251.293505
 30
0.0
 11
309.987365
 21
251.293505
 31
0.0
  0
LINE
  5
6C
100
AcDbEntity
  8
0
  6
Continuous
 62
   174
100
AcDbLine
 10
309.287365
 20
233.293505
 30
0.0
 11
309.987365
 21
233.293505
 31
0.0
  0
LINE
  5
6D
100
AcDbEntity
  8
0
  6
Continuous
 62
   174
100
AcDbLine
 10
101.787365
 20
250.093505
 30
0.0
 11
102.454641
 21
251.249262
 31
0.0
  0
LINE
  5
6E
100
AcDbEntity
  8
0
  6
HIDDEN
 62
   174
100
AcDbLine
 10
279.787365
 20
250.293505
 30
0.0
 11
281.764548
 21
250.293505
 31
0.0
  0
LINE
  5
6F
100
AcDbEntity
  8
0
  6
HIDDEN
 62
   174
100
AcDbLine
 10
217.187365
 20
220.293505
 30
0.0
 11
217.187365
 21
234.293505
 31
0.0
  0
LINE
  5
70
100
AcDbEntity
  8
0
  6
Continuous
 62
   174
100
AcDbLine
 10
150.787365
 20
174.293505
 30
0.0
 11
150.787365
 21
234.293505
 31
0.0
  0
LINE
  5
71
100
AcDbEntity
  8
0
  6
HIDDEN
 62
   174
100
AcDbLine
 10
213.33312
 20
188.293505
 30
0.0
 11
234.292846
 21
188.293505
 31
0.0
  0
LINE
  5
72
100
AcDbEntity
  8
0
  6
HIDDEN
 62
   174
100
AcDbLine
 10
213.307365
 20
188.293505
 30
0.0
 11
213.307365
 21
174.293505
 31
0.0
  0
LINE
  5
73
100
AcDbEntity
  8
0
  6
HIDDEN
 62
   174
100
AcDbLine
 10
233.187365
 20
188.293505
 30
0.0
 11
233.187365
 21
174.293505
 31
0.0
  0
LINE
  5
74
100
AcDbEntity
  8
0
  6
HIDDEN
 62
   174
100
AcDbLine
 10
233.187365
 20
188.293505
 30
0.0
 11
233.187365
 21
174.293505
 31
0.0
  0
LINE
  5
75
100
AcDbEntity
  8
0
  6
HIDDEN
 62
   174
100
AcDbLine
 10
137.604769
 20
250.293505
 30
0.0
 11
135.787365
 21
250.293505
 31
0.0
  0
LINE
  5
76
100
AcDbEntity
  8
0
  6
Continuous
 62
   174
100
AcDbLine
 10
109.287365
 20
235.793505
 30
0.0
 11
106.287365
 21
235.793505
 31
0.0
  0
LINE
  5
77
100
AcDbEntity
  8
0
  6
Continuous
 62
   174
100
AcDbLine
 10
109.287365
 20
234.293505
 30
0.0
 11
121.287365
 21
234.293505
 31
0.0
  0
LINE
  5
78
100
AcDbEntity
  8
0
  6
HIDDEN
 62
   174
100
AcDbLine
 10
217.212882
 20
219.293505
 30
0.0
 11
198.413086
 21
219.293505
 31
0.0
  0
LINE
  5
79
100
AcDbEntity
  8
0
  6
HIDDEN
 62
   174
100
AcDbLine
 10
268.287365
 20
250.293505
 30
0.0
 11
276.387365
 21
250.293505
 31
0.0
  0
LINE
  5
7A
100
AcDbEntity
  8
0
  6
HIDDEN
 62
   174
100
AcDbLine
 10
283.187365
 20
250.293505
 30
0.0
 11
291.287365
 21
250.293505
 31
0.0
  0
LINE
  5
7B
100
AcDbEntity
  8
0
  6
HIDDEN
 62
   174
100
AcDbLine
 10
198.387365
 20
220.293505
 30
0.0
 11
198.387365
 21
234.293505
 31
0.0
  0
LINE
  5
7C
100
AcDbEntity
  8
0
  6
Continuous
 62
   174
100
AcDbLine
 10
248.787365
 20
174.293505
 30
0.0
 11
264.787365
 21
174.293505
 31
0.0
  0
LINE
  5
7D
100
AcDbEntity
  8
0
  6
HIDDEN
 62
   174
100
AcDbLine
 10
201.187365
 20
188.293505
 30
0.0
 11
201.187365
 21
174.293505
 31
0.0
  0
LINE
  5
7E
100
AcDbEntity
  8
0
  6
HIDDEN
 62
   174
100
AcDbLine
 10
213.33312
 20
174.293505
 30
0.0
 11
234.292846
 21
174.293505
 31
0.0
  0
LINE
  5
7F
100
AcDbEntity
  8
0
  6
Continuous
 62
   174
100
AcDbLine
 10
106.287365
 20
233.293505
 30
0.0
 11
105.587365
 21
233.293505
 31
0.0
  0
LINE
  5
80
100
AcDbEntity
  8
0
  6
Continuous
 62
   174
100
AcDbLine
 10
294.287365
 20
239.509623
 30
0.0
 11
294.287365
 21
221.293505
 31
0.0
  0
LINE
  5
81
100
AcDbEntity
  8
0
  6
HIDDEN
 62
   174
100
AcDbLine
 10
121.287365
 20
239.509623
 30
0.0
 11
121.287365
 21
234.293505
 31
0.0
  0
LINE
  5
82
100
AcDbEntity
  8
0
  6
HIDDEN
 62
   174
100
AcDbLine
 10
282.787365
 20
250.293505
 30
0.0
 11
283.187365
 21
250.293505
 31
0.0
  0
LINE
  5
83
100
AcDbEntity
  8
0
  6
Continuous
 62
   174
100
AcDbLine
 10
248.787365
 20
234.293505
 30
0.0
 11
248.787365
 21
174.293505
 31
0.0
  0
LINE
  5
84
100
AcDbEntity
  8
0
  6
Continuous
 62
   174
100
AcDbLine
 10
150.287365
 20
247.293505
 30
0.0
 11
150.287365
 21
221.293505
 31
0.0
  0
LINE
  5
85
100
AcDbEntity
  8
0
  6
HIDDEN
 62
   174
100
AcDbLine
 10
120.787365
 20
194.33085
 30
0.0
 11
120.787365
 21
204.330211
 31
0.0
  0
LINE
  5
86
100
AcDbEntity
  8
0
  6
HIDDEN
 62
   174
100
AcDbLine
 10
109.287365
 20
248.826857
 30
0.0
 11
109.287365
 21
242.327242
 31
0.0
  0
LINE
  5
87
100
AcDbEntity
  8
0
  6
HIDDEN
 62
   174
100
AcDbLine
 10
109.287365
 20
235.827928
 30
0.0
 11
109.287365
 21
242.327242
 31
0.0
  0
LINE
  5
88
100
AcDbEntity
  8
0
  6
HIDDEN
 62
   174
100
AcDbLine
 10
214.387365
 20
174.293505
 30
0.0
 11
214.387365
 21
189.293505
 31
0.0
  0
LINE
  5
89
100
AcDbEntity
  8
0
  6
HIDDEN
 62
   174
100
AcDbLine
 10
281.764548
 20
250.293505
 30
0.0
 11
279.787365
 21
250.293505
 31
0.0
  0
LINE
  5
8A
100
AcDbEntity
  8
0
  6
Continuous
 62
   174
100
AcDbLine
 10
101.787365
 20
234.493505
 30
0.0
 11
102.454619
 21
233.337787
 31
0.0
  0
LINE
  5
8B
100
AcDbEntity
  8
0
  6
Continuous
 62
   174
100
AcDbLine
 10
313.787365
 20
250.093505
 30
0.0
 11
313.120088
 21
251.249262
 31
0.0
  0
LINE
  5
8C
100
AcDbEntity
  8
0
  6
Continuous
 62
   174
100
AcDbLine
 10
306.287365
 20
250.293505
 30
0.0
 11
291.287365
 21
250.293505
 31
0.0
  0
LINE
  5
8D
100
AcDbEntity
  8
0
  6
HIDDEN
 62
   174
100
AcDbLine
 10
121.287365
 20
234.293505
 30
0.0
 11
121.287365
 21
221.293505
 31
0.0
  0
LINE
  5
8E
100
AcDbEntity
  8
0
  6
Continuous
 62
   174
100
AcDbLine
 10
166.787365
 20
174.293505
 30
0.0
 11
166.787365
 21
234.293505
 31
0.0
  0
LINE
  5
8F
100
AcDbEntity
  8
0
  6
HIDDEN
 62
   174
100
AcDbLine
 10
282.174212
 20
250.293505
 30
0.0
 11
282.787365
 21
250.293505
 31
0.0
  0
LINE
  5
90
100
AcDbEntity
  8
0
  6
HIDDEN
 62
   174
100
AcDbLine
 10
217.187365
 20
220.293505
 30
0.0
 11
217.187365
 21
234.293505
 31
0.0
  0
LINE
  5
91
100
AcDbEntity
  8
0
  6
HIDDEN
 62
   174
100
AcDbLine
 10
218.267365
 20
220.293505
 30
0.0
 11
218.267365
 21
234.293505
 31
0.0
  0
LINE
  5
92
100
AcDbEntity
  8
0
  6
HIDDEN
 62
   174
100
AcDbLine
 10
217.187365
 20
234.293505
 30
0.0
 11
217.187365
 21
219.293505
 31
0.0
  0
LINE
  5
93
100
AcDbEntity
  8
0
  6
Continuous
 62
   174
100
AcDbLine
 10
166.787365
 20
234.293505
 30
0.0
 11
166.787365
 21
174.293505
 31
0.0
  0
LINE
  5
94
100
AcDbEntity
  8
0
  6
Continuous
 62
   174
100
AcDbLine
 10
248.787365
 20
174.293505
 30
0.0
 11
248.787365
 21
234.293505
 31
0.0
  0
LINE
  5
95
100
AcDbEntity
  8
0
  6
Continuous
 62
   174
100
AcDbLine
 10
166.787365
 20
174.293505
 30
0.0
 11
248.787365
 21
174.293505
 31
0.0
  0
LINE
  5
96
100
AcDbEntity
  8
0
  6
HIDDEN
 62
   174
100
AcDbLine
 10
294.787365
 20
214.329271
 30
0.0
 11
294.787365
 21
204.330211
 31
0.0
  0
LINE
  5
97
100
AcDbEntity
  8
0
  6
HIDDEN
 62
   174
100
AcDbLine
 10
120.787365
 20
204.330211
 30
0.0
 11
120.787365
 21
214.329271
 31
0.0
  0
LINE
  5
98
100
AcDbEntity
  8
0
  6
HIDDEN
 62
   174
100
AcDbLine
 10
306.287365
 20
242.327242
 30
0.0
 11
306.287365
 21
235.827928
 31
0.0
  0
LINE
  5
99
100
AcDbEntity
  8
0
  6
HIDDEN
 62
   174
100
AcDbLine
 10
306.287365
 20
242.327242
 30
0.0
 11
306.287365
 21
248.826857
 31
0.0
  0
LINE
  5
9A
100
AcDbEntity
  8
0
  6
HIDDEN
 62
   174
100
AcDbLine
 10
309.287365
 20
242.327242
 30
0.0
 11
309.287365
 21
248.826857
 31
0.0
  0
LINE
  5
9B
100
AcDbEntity
  8
0
  6
HIDDEN
 62
   174
100
AcDbLine
 10
309.287365
 20
235.827928
 30
0.0
 11
309.287365
 21
242.327242
 31
0.0
  0
LINE
  5
9C
100
AcDbEntity
  8
0
  6
Continuous
 62
   174
100
AcDbLine
 10
302.487365
 20
194.648981
 30
0.0
 11
302.487365
 21
195.717831
 31
0.0
  0
LINE
  5
9D
100
AcDbEntity
  8
0
  6
HIDDEN
 62
   174
100
AcDbLine
 10
302.487365
 20
195.678786
 30
0.0
 11
296.287365
 21
195.678786
 31
0.0
  0
LINE
  5
9E
100
AcDbEntity
  8
0
  6
HIDDEN
 62
   174
100
AcDbLine
 10
294.287365
 20
234.293505
 30
0.0
 11
294.287365
 21
221.293505
 31
0.0
  0
LINE
  5
9F
100
AcDbEntity
  8
0
  6
HIDDEN
 62
   174
100
AcDbLine
 10
302.487365
 20
201.793505
 30
0.0
 11
296.287365
 21
201.793505
 31
0.0
  0
LINE
  5
A0
100
AcDbEntity
  8
0
  6
HIDDEN
 62
   174
100
AcDbLine
 10
302.487365
 20
206.793505
 30
0.0
 11
296.287365
 21
206.793505
 31
0.0
  0
ARC
  5
A1
100
AcDbEntity
  8
0
  6
Continuous
 62
   174
100
AcDbCircle
 10
268.287365
 20
247.293505
 30
0.0
 40
3.0
100
AcDbArc
 50
90.0
 51
180.0
  0
LINE
  5
A2
100
AcDbEntity
  8
0
  6
HIDDEN
 62
   174
100
AcDbLine
 10
309.987365
 20
233.293954
 30
0.0
 11
309.987365
 21
237.715845
 31
0.0
  0
LINE
  5
A3
100
AcDbEntity
  8
0
  6
Continuous
 62
   174
100
AcDbLine
 10
302.487365
 20
199.217571
 30
0.0
 11
296.287365
 21
199.217571
 31
0.0
  0
LINE
  5
A4
100
AcDbEntity
  8
0
  6
Continuous
 62
   174
100
AcDbLine
 10
309.987365
 20
251.293056
 30
0.0
 11
313.094544
 21
251.293056
 31
0.0
  0
LINE
  5
A5
100
AcDbEntity
  8
0
  6
Continuous
 62
   174
100
AcDbLine
 10
313.094544
 20
251.293056
 30
0.0
 11
313.123396
 21
251.243532
 31
0.0
  0
LINE
  5
A6
100
AcDbEntity
  8
0
  6
Continuous
 62
   174
100
AcDbLine
 10
119.287365
 20
209.408298
 30
0.0
 11
119.287365
 21
212.943492
 31
0.0
  0
LINE
  5
A7
100
AcDbEntity
  8
0
  6
Continuous
 62
   174
100
AcDbLine
 10
109.287365
 20
242.327242
 30
0.0
 11
109.287365
 21
235.720983
 31
0.0
  0
ARC
  5
A8
100
AcDbEntity
  8
0
  6
Continuous
 62
   174
100
AcDbCircle
 10
223.787365
 20
224.293505
 30
0.0
 40
3.3
100
AcDbArc
 50
0.0
 51
180.0
  0
LINE
  5
A9
100
AcDbEntity
  8
0
  6
Continuous
 62
   174
100
AcDbLine
 10
102.480185
 20
246.871165
 30
0.0
 11
105.587365
 21
246.871165
 31
0.0
  0
LINE
  5
AA
100
AcDbEntity
  8
0
  6
Continuous
 62
   174
100
AcDbLine
 10
113.087365
 20
195.716028
 30
0.0
 11
113.087365
 21
194.64808
 31
0.0
  0
LINE
  5
AB
100
AcDbEntity
  8
0
  6
Continuous
 62
   174
100
AcDbLine
 10
296.287365
 20
194.293505
 30
0.0
 11
294.787365
 21
194.293505
 31
0.0
  0
LINE
  5
AC
100
AcDbEntity
  8
0
  6
HIDDEN
 62
   174
100
AcDbLine
 10
124.287365
 20
221.293505
 30
0.0
 11
124.287365
 21
247.293505
 31
0.0
  0
ARC
  5
AD
100
AcDbEntity
  8
0
  6
Continuous
 62
   174
100
AcDbCircle
 10
191.787365
 20
224.293505
 30
0.0
 40
3.3
100
AcDbArc
 50
0.0
 51
180.0
  0
LINE
  5
AE
100
AcDbEntity
  8
0
  6
Continuous
 62
   174
100
AcDbLine
 10
313.123351
 20
233.343404
 30
0.0
 11
313.094544
 21
233.293954
 31
0.0
  0
LINE
  5
AF
100
AcDbEntity
  8
0
  6
Continuous
 62
   174
100
AcDbLine
 10
113.087365
 20
195.678786
 30
0.0
 11
119.287365
 21
195.678786
 31
0.0
  0
LINE
  5
B0
100
AcDbEntity
  8
0
  6
HIDDEN
 62
   174
100
AcDbLine
 10
113.087365
 20
195.680553
 30
0.0
 11
119.287365
 21
195.680553
 31
0.0
  0
LINE
  5
B1
100
AcDbEntity
  8
0
  6
Continuous
 62
   174
100
AcDbLine
 10
121.287365
 20
247.293505
 30
0.0
 11
121.287365
 21
245.077387
 31
0.0
  0
LINE
  5
B2
100
AcDbEntity
  8
0
  6
HIDDEN
 62
   174
100
AcDbLine
 10
139.187365
 20
250.293505
 30
0.0
 11
147.287365
 21
250.293505
 31
0.0
  0
LINE
  5
B3
100
AcDbEntity
  8
0
  6
Continuous
 62
   174
100
AcDbLine
 10
119.287365
 20
194.33085
 30
0.0
 11
119.287365
 21
194.64808
 31
0.0
  0
ARC
  5
B4
100
AcDbEntity
  8
0
  6
Continuous
 62
   174
100
AcDbCircle
 10
223.787365
 20
224.293505
 30
0.0
 40
3.3
100
AcDbArc
 50
-180.0
 51
0.0
  0
LINE
  5
B5
100
AcDbEntity
  8
0
  6
Continuous
 62
   174
100
AcDbLine
 10
113.087365
 20
199.214575
 30
0.0
 11
119.287365
 21
199.214575
 31
0.0
  0
LWPOLYLINE
  5
B6
100
AcDbEntity
  8
0
  6
HIDDEN
 62
   174
100
AcDbPolyline
 90
        4
 70
   128
 10
102.451424
 20
251.243685
 10
102.152284
 20
250.666648
 10
101.91953
 20
250.055235
 10
101.787365
 20
249.450031
  0
LWPOLYLINE
  5
B7
100
AcDbEntity
  8
0
  6
HIDDEN
 62
   174
100
AcDbPolyline
 90
        4
 70
   128
 10
121.287365
 20
239.509623
 10
121.299924
 20
240.406324
 10
121.320329
 20
241.344478
 10
121.329325
 20
242.293505
  0
ARC
  5
B8
100
AcDbEntity
  8
0
  6
HIDDEN
 62
   174
100
AcDbCircle
 10
147.287365
 20
247.293505
 30
0.0
 40
3.0
100
AcDbArc
 50
-360.0
 51
-342.0
  0
LINE
  5
B9
100
AcDbEntity
  8
0
  6
HIDDEN
 62
   174
100
AcDbLine
 10
313.094544
 20
246.871165
 30
0.0
 11
309.987365
 21
246.871165
 31
0.0
  0
LINE
  5
BA
100
AcDbEntity
  8
0
  6
HIDDEN
 62
   174
100
AcDbLine
 10
302.487365
 20
199.214575
 30
0.0
 11
296.287365
 21
199.214575
 31
0.0
  0
LINE
  5
BB
100
AcDbEntity
  8
0
  6
Continuous
 62
   174
100
AcDbLine
 10
291.287365
 20
250.293505
 30
0.0
 11
268.287365
 21
250.293505
 31
0.0
  0
LINE
  5
BC
100
AcDbEntity
  8
0
  6
HIDDEN
 62
   174
100
AcDbLine
 10
268.287365
 20
247.293505
 30
0.0
 11
268.287365
 21
221.293505
 31
0.0
  0
LINE
  5
BD
100
AcDbEntity
  8
0
  6
Continuous
 62
   174
100
AcDbLine
 10
309.287365
 20
242.327242
 30
0.0
 11
309.287365
 21
235.613136
 31
0.0
  0
LWPOLYLINE
  5
BE
100
AcDbEntity
  8
0
  6
Continuous
 62
   174
100
AcDbPolyline
 90
        4
 70
   128
 10
102.480185
 20
237.715845
 10
102.152284
 20
238.96866
 10
101.919531
 20
240.191481
 10
101.787365
 20
241.401894
  0
LWPOLYLINE
  5
BF
100
AcDbEntity
  8
0
  6
Continuous
 62
   174
100
AcDbPolyline
 90
        4
 70
   128
 10
121.329325
 20
242.293505
 10
121.32033
 20
243.242488
 10
121.299925
 20
244.180654
 10
121.287365
 20
245.077387
  0
LINE
  5
C0
100
AcDbEntity
  8
0
  6
HIDDEN
 62
   174
100
AcDbLine
 10
135.787365
 20
250.293505
 30
0.0
 11
137.604769
 21
250.293505
 31
0.0
  0
LINE
  5
C1
100
AcDbEntity
  8
0
  6
Continuous
 62
   174
100
AcDbLine
 10
296.287365
 20
206.833205
 30
0.0
 11
296.287365
 21
205.825939
 31
0.0
  0
LINE
  5
C2
100
AcDbEntity
  8
0
  6
HIDDEN
 62
   174
100
AcDbLine
 10
147.287365
 20
221.293505
 30
0.0
 11
124.287365
 21
221.293505
 31
0.0
  0
ARC
  5
C3
100
AcDbEntity
  8
0
  6
Continuous
 62
   174
100
AcDbCircle
 10
147.287365
 20
247.293505
 30
0.0
 40
3.0
100
AcDbArc
 50
0.0
 51
90.0
  0
LINE
  5
C4
100
AcDbEntity
  8
0
  6
HIDDEN
 62
   174
100
AcDbLine
 10
291.287365
 20
250.326791
 30
0.0
 11
291.287365
 21
247.326922
 31
0.0
  0
LINE
  5
C5
100
AcDbEntity
  8
0
  6
Continuous
 62
   174
100
AcDbLine
 10
105.587365
 20
237.715845
 30
0.0
 11
102.480185
 21
237.715845
 31
0.0
  0
LINE
  5
C6
100
AcDbEntity
  8
0
  6
HIDDEN
 62
   174
100
AcDbLine
 10
105.587365
 20
251.293056
 30
0.0
 11
105.587365
 21
246.715396
 31
0.0
  0
LINE
  5
C7
100
AcDbEntity
  8
0
  6
Continuous
 62
   174
100
AcDbLine
 10
113.087365
 20
206.793505
 30
0.0
 11
119.287365
 21
206.793505
 31
0.0
  0
LINE
  5
C8
100
AcDbEntity
  8
0
  6
Continuous
 62
   174
100
AcDbLine
 10
106.287365
 20
235.613437
 30
0.0
 11
106.287365
 21
242.327242
 31
0.0
  0
LINE
  5
C9
100
AcDbEntity
  8
0
  6
Continuous
 62
   174
100
AcDbLine
 10
147.287365
 20
247.293505
 30
0.0
 11
147.287365
 21
221.293505
 31
0.0
  0
LINE
  5
CA
100
AcDbEntity
  8
0
  6
Continuous
 62
   174
100
AcDbLine
 10
268.287365
 20
250.326791
 30
0.0
 11
268.287365
 21
247.326922
 31
0.0
  0
LINE
  5
CB
100
AcDbEntity
  8
0
  6
HIDDEN
 62
   174
100
AcDbLine
 10
302.487365
 20
212.907384
 30
0.0
 11
296.287365
 21
212.907384
 31
0.0
  0
LWPOLYLINE
  5
CC
100
AcDbEntity
  8
0
  6
Continuous
 62
   174
100
AcDbPolyline
 90
        4
 70
   128
 10
121.329325
 20
242.293505
 10
121.32033
 20
241.344498
 10
121.299924
 20
240.406332
 10
121.287365
 20
239.509623
  0
LINE
  5
CD
100
AcDbEntity
  8
0
  6
Continuous
 62
   174
100
AcDbLine
 10
296.287365
 20
214.293505
 30
0.0
 11
294.787365
 21
214.293505
 31
0.0
  0
LINE
  5
CE
100
AcDbEntity
  8
0
  6
Continuous
 62
   174
100
AcDbLine
 10
296.287365
 20
194.648981
 30
0.0
 11
296.287365
 21
194.33085
 31
0.0
  0
LINE
  5
CF
100
AcDbEntity
  8
0
  6
Continuous
 62
   174
100
AcDbLine
 10
147.287365
 20
247.326922
 30
0.0
 11
147.287365
 21
250.326791
 31
0.0
  0
LINE
  5
D0
100
AcDbEntity
  8
0
  6
HIDDEN
 62
   174
100
AcDbLine
 10
309.987365
 20
251.326246
 30
0.0
 11
309.987365
 21
251.326847
 31
0.0
  0
LINE
  5
D1
100
AcDbEntity
  8
0
  6
Continuous
 62
   174
100
AcDbLine
 10
113.087365
 20
201.83022
 30
0.0
 11
113.087365
 21
199.251523
 31
0.0
  0
LINE
  5
D2
100
AcDbEntity
  8
0
  6
Continuous
 62
   174
100
AcDbLine
 10
105.587365
 20
237.749934
 30
0.0
 11
105.587365
 21
233.328538
 31
0.0
  0
LINE
  5
D3
100
AcDbEntity
  8
0
  6
Continuous
 62
   174
100
AcDbLine
 10
102.453507
 20
233.34138
 30
0.0
 11
101.936705
 21
234.571675
 31
0.0
  0
LINE
  5
D4
100
AcDbEntity
  8
0
  6
Continuous
 62
   174
100
AcDbLine
 10
101.787365
 20
241.435933
 30
0.0
 11
101.787365
 21
234.528065
 31
0.0
  0
LINE
  5
D5
100
AcDbEntity
  8
0
  6
HIDDEN
 62
   174
100
AcDbLine
 10
294.287365
 20
247.293505
 30
0.0
 11
294.287365
 21
245.077387
 31
0.0
  0
LWPOLYLINE
  5
D6
100
AcDbEntity
  8
0
  6
Continuous
 62
   174
100
AcDbPolyline
 90
        6
 70
   128
 10
101.936705
 20
234.571675
 10
101.885961
 20
234.782691
 10
101.809057
 20
235.50494
 10
101.885975
 20
236.227179
 10
102.114076
 20
236.964198
 10
102.480185
 20
237.715845
  0
ARC
  5
D7
100
AcDbEntity
  8
0
  6
HIDDEN
 62
   174
100
AcDbCircle
 10
147.287365
 20
247.293505
 30
0.0
 40
3.0
100
AcDbArc
 50
-342.0
 51
-324.0
  0
LINE
  5
D8
100
AcDbEntity
  8
0
  6
Continuous
 62
   174
100
AcDbLine
 10
113.087365
 20
212.907384
 30
0.0
 11
119.287365
 21
212.907384
 31
0.0
  0
LWPOLYLINE
  5
D9
100
AcDbEntity
  8
0
  6
HIDDEN
 62
   174
100
AcDbPolyline
 90
        4
 70
   128
 10
121.287365
 20
245.077387
 10
121.299925
 20
244.180652
 10
121.32033
 20
243.242498
 10
121.329325
 20
242.293505
  0
LINE
  5
DA
100
AcDbEntity
  8
0
  6
HIDDEN
 62
   174
100
AcDbLine
 10
121.287365
 20
247.326922
 30
0.0
 11
121.287365
 21
245.111117
 31
0.0
  0
LINE
  5
DB
100
AcDbEntity
  8
0
  6
Continuous
 62
   174
100
AcDbLine
 10
119.287365
 20
214.293505
 30
0.0
 11
120.787365
 21
214.293505
 31
0.0
  0
LINE
  5
DC
100
AcDbEntity
  8
0
  6
HIDDEN
 62
   174
100
AcDbLine
 10
150.787365
 20
221.293505
 30
0.0
 11
150.787365
 21
193.293505
 31
0.0
  0
LINE
  5
DD
100
AcDbEntity
  8
0
  6
HIDDEN
 62
   174
100
AcDbLine
 10
268.287365
 20
250.326791
 30
0.0
 11
268.287365
 21
247.326922
 31
0.0
  0
LINE
  5
DE
100
AcDbEntity
  8
0
  6
Continuous
 62
   174
100
AcDbLine
 10
291.287365
 20
250.326791
 30
0.0
 11
291.287365
 21
247.326922
 31
0.0
  0
LINE
  5
DF
100
AcDbEntity
  8
0
  6
Continuous
 62
   174
100
AcDbLine
 10
268.287365
 20
247.293505
 30
0.0
 11
291.287365
 21
247.293505
 31
0.0
  0
LINE
  5
E0
100
AcDbEntity
  8
0
  6
HIDDEN
 62
   174
100
AcDbLine
 10
309.987365
 20
237.715845
 30
0.0
 11
313.094544
 21
237.715845
 31
0.0
  0
LINE
  5
E1
100
AcDbEntity
  8
0
  6
HIDDEN
 62
   174
100
AcDbLine
 10
309.987365
 20
246.871165
 30
0.0
 11
309.987365
 21
251.293056
 31
0.0
  0
LWPOLYLINE
  5
E2
100
AcDbEntity
  8
0
  6
HIDDEN
 62
   174
100
AcDbPolyline
 90
        4
 70
   128
 10
294.245405
 20
242.293505
 10
294.2544
 20
241.344498
 10
294.274805
 20
240.406332
 10
294.287365
 20
239.509623
  0
LINE
  5
E3
100
AcDbEntity
  8
0
  6
HIDDEN
 62
   174
100
AcDbLine
 10
294.313045
 20
247.293505
 30
0.0
 11
291.312876
 21
247.293505
 31
0.0
  0
LINE
  5
E4
100
AcDbEntity
  8
0
  6
HIDDEN
 62
   174
100
AcDbLine
 10
294.287365
 20
239.509623
 30
0.0
 11
294.287365
 21
234.293505
 31
0.0
  0
LINE
  5
E5
100
AcDbEntity
  8
0
  6
HIDDEN
 62
   174
100
AcDbLine
 10
137.604769
 20
250.293505
 30
0.0
 11
138.043633
 21
250.293505
 31
0.0
  0
LINE
  5
E6
100
AcDbEntity
  8
0
  6
Continuous
 62
   174
100
AcDbLine
 10
309.287365
 20
249.041348
 30
0.0
 11
309.287365
 21
242.327242
 31
0.0
  0
LINE
  5
E7
100
AcDbEntity
  8
0
  6
HIDDEN
 62
   174
100
AcDbLine
 10
119.287365
 20
209.3751
 30
0.0
 11
119.287365
 21
212.90915
 31
0.0
  0
LINE
  5
E8
100
AcDbEntity
  8
0
  6
Continuous
 62
   174
100
AcDbLine
 10
121.287365
 20
239.509623
 30
0.0
 11
121.287365
 21
221.293505
 31
0.0
  0
LINE
  5
E9
100
AcDbEntity
  8
0
  6
HIDDEN
 62
   174
100
AcDbLine
 10
268.313084
 20
221.293505
 30
0.0
 11
265.312915
 21
221.293505
 31
0.0
  0
LINE
  5
EA
100
AcDbEntity
  8
0
  6
Continuous
 62
   174
100
AcDbLine
 10
101.787365
 20
241.401894
 30
0.0
 11
101.787365
 21
243.185116
 31
0.0
  0
LINE
  5
EB
100
AcDbEntity
  8
0
  6
HIDDEN
 62
   174
100
AcDbLine
 10
296.287365
 20
199.214575
 30
0.0
 11
296.287365
 21
195.678786
 31
0.0
  0
LWPOLYLINE
  5
EC
100
AcDbEntity
  8
0
  6
HIDDEN
 62
   174
100
AcDbPolyline
 90
        4
 70
   128
 10
294.245405
 20
242.293505
 10
294.254399
 20
243.242488
 10
294.274805
 20
244.180654
 10
294.287365
 20
245.077387
  0
ARC
  5
ED
100
AcDbEntity
  8
0
  6
HIDDEN
 62
   174
100
AcDbCircle
 10
291.287365
 20
247.293505
 30
0.0
 40
3.0
100
AcDbArc
 50
36.0
 51
54.0
  0
LINE
  5
EE
100
AcDbEntity
  8
0
  6
Continuous
 62
   174
100
AcDbLine
 10
296.287365
 20
199.254527
 30
0.0
 11
296.287365
 21
195.717831
 31
0.0
  0
LINE
  5
EF
100
AcDbEntity
  8
0
  6
Continuous
 62
   174
100
AcDbLine
 10
109.287365
 20
250.326791
 30
0.0
 11
109.287365
 21
248.933501
 31
0.0
  0
LINE
  5
F0
100
AcDbEntity
  8
0
  6
Continuous
 62
   174
100
AcDbLine
 10
105.587365
 20
251.326246
 30
0.0
 11
105.587365
 21
246.90485
 31
0.0
  0
LINE
  5
F1
100
AcDbEntity
  8
0
  6
Continuous
 62
   174
100
AcDbLine
 10
294.287365
 20
245.077387
 30
0.0
 11
294.287365
 21
247.293505
 31
0.0
  0
LINE
  5
F2
100
AcDbEntity
  8
0
  6
HIDDEN
 62
   174
100
AcDbLine
 10
150.287365
 20
247.293505
 30
0.0
 11
150.287365
 21
221.293505
 31
0.0
  0
LINE
  5
F3
100
AcDbEntity
  8
0
  6
Continuous
 62
   174
100
AcDbLine
 10
309.287365
 20
251.326847
 30
0.0
 11
309.287365
 21
249.041348
 31
0.0
  0
LINE
  5
F4
100
AcDbEntity
  8
0
  6
Continuous
 62
   174
100
AcDbLine
 10
313.787365
 20
249.450031
 30
0.0
 11
313.787365
 21
248.55842
 31
0.0
  0
LINE
  5
F5
100
AcDbEntity
  8
0
  6
Continuous
 62
   174
100
AcDbLine
 10
294.313045
 20
247.293505
 30
0.0
 11
291.312876
 21
247.293505
 31
0.0
  0
LINE
  5
F6
100
AcDbEntity
  8
0
  6
Continuous
 62
   174
100
AcDbLine
 10
265.287365
 20
247.293505
 30
0.0
 11
265.287365
 21
221.293505
 31
0.0
  0
LINE
  5
F7
100
AcDbEntity
  8
0
  6
HIDDEN
 62
   174
100
AcDbLine
 10
296.287365
 20
212.907384
 30
0.0
 11
296.287365
 21
209.372105
 31
0.0
  0
LWPOLYLINE
  5
F8
100
AcDbEntity
  8
0
  6
HIDDEN
 62
   174
100
AcDbPolyline
 90
        6
 70
   128
 10
294.287365
 20
247.293505
 10
294.115022
 20
248.295679
 10
293.663222
 20
249.125254
 10
293.000151
 20
249.756504
 10
292.191621
 20
250.153981
 10
291.287365
 20
250.293505
  0
LINE
  5
F9
100
AcDbEntity
  8
0
  6
Continuous
 62
   174
100
AcDbLine
 10
119.287365
 20
195.716028
 30
0.0
 11
119.287365
 21
199.251523
 31
0.0
  0
LINE
  5
FA
100
AcDbEntity
  8
0
  6
HIDDEN
 62
   174
100
AcDbLine
 10
150.313053
 20
221.293505
 30
0.0
 11
147.312884
 21
221.293505
 31
0.0
  0
LINE
  5
FB
100
AcDbEntity
  8
0
  6
HIDDEN
 62
   174
100
AcDbLine
 10
147.287365
 20
247.293505
 30
0.0
 11
124.287365
 21
247.293505
 31
0.0
  0
LINE
  5
FC
100
AcDbEntity
  8
0
  6
Continuous
 62
   174
100
AcDbLine
 10
109.287365
 20
248.933501
 30
0.0
 11
109.287365
 21
242.327242
 31
0.0
  0
LINE
  5
FD
100
AcDbEntity
  8
0
  6
Continuous
 62
   174
100
AcDbLine
 10
113.087365
 20
213.975641
 30
0.0
 11
119.287365
 21
213.975641
 31
0.0
  0
LINE
  5
FE
100
AcDbEntity
  8
0
  6
Continuous
 62
   174
100
AcDbLine
 10
119.287365
 20
194.293505
 30
0.0
 11
120.787365
 21
194.293505
 31
0.0
  0
LINE
  5
FF
100
AcDbEntity
  8
0
  6
HIDDEN
 62
   174
100
AcDbLine
 10
121.287365
 20
234.327993
 30
0.0
 11
121.287365
 21
239.543667
 31
0.0
  0
LINE
  5
100
100
AcDbEntity
  8
0
  6
Continuous
 62
   174
100
AcDbLine
 10
309.287365
 20
235.613136
 30
0.0
 11
309.287365
 21
233.327937
 31
0.0
  0
LWPOLYLINE
  5
101
100
AcDbEntity
  8
0
  6
HIDDEN
 62
   174
100
AcDbPolyline
 90
        4
 70
   128
 10
313.787365
 20
243.185116
 10
313.654244
 20
244.401832
 10
313.421159
 20
245.623995
 10
313.094544
 20
246.871165
  0
LINE
  5
102
100
AcDbEntity
  8
0
  6
Continuous
 62
   174
100
AcDbLine
 10
313.787365
 20
249.483247
 30
0.0
 11
313.787365
 21
250.126719
 31
0.0
  0
LWPOLYLINE
  5
103
100
AcDbEntity
  8
0
  6
Continuous
 62
   174
100
AcDbPolyline
 90
        4
 70
   128
 10
313.123306
 20
251.243685
 10
313.422445
 20
250.666648
 10
313.655199
 20
250.055235
 10
313.787365
 20
249.450031
  0
LINE
  5
104
100
AcDbEntity
  8
0
  6
Continuous
 62
   174
100
AcDbLine
 10
309.987365
 20
233.327937
 30
0.0
 11
309.987365
 21
237.905846
 31
0.0
  0
LWPOLYLINE
  5
105
100
AcDbEntity
  8
0
  6
HIDDEN
 62
   174
100
AcDbPolyline
 90
        7
 70
   128
 10
102.480185
 20
246.715396
 10
102.114083
 20
245.212125
 10
101.885983
 20
243.738135
 10
101.809052
 20
242.293742
 10
101.885939
 20
240.849296
 10
102.114031
 20
239.375145
 10
102.480185
 20
237.871614
  0
LINE
  5
106
100
AcDbEntity
  8
0
  6
Continuous
 62
   174
100
AcDbLine
 10
309.987365
 20
246.715396
 30
0.0
 11
313.094544
 21
246.715396
 31
0.0
  0
LINE
  5
107
100
AcDbEntity
  8
0
  6
Continuous
 62
   174
100
AcDbLine
 10
302.487365
 20
213.97651
 30
0.0
 11
296.287365
 21
213.97651
 31
0.0
  0
ARC
  5
108
100
AcDbEntity
  8
0
  6
HIDDEN
 62
   174
100
AcDbCircle
 10
291.287365
 20
247.293505
 30
0.0
 40
3.0
100
AcDbArc
 50
18.0
 51
36.0
  0
LINE
  5
109
100
AcDbEntity
  8
0
  6
HIDDEN
 62
   174
100
AcDbLine
 10
147.287365
 20
221.293505
 30
0.0
 11
147.287365
 21
247.293505
 31
0.0
  0
LINE
  5
10A
100
AcDbEntity
  8
0
  6
Continuous
 62
   174
100
AcDbLine
 10
106.287365
 20
233.327937
 30
0.0
 11
106.287365
 21
235.613437
 31
0.0
  0
LINE
  5
10B
100
AcDbEntity
  8
0
  6
Continuous
 62
   174
100
AcDbLine
 10
113.087365
 20
194.610724
 30
0.0
 11
119.287365
 21
194.610724
 31
0.0
  0
LWPOLYLINE
  5
10C
100
AcDbEntity
  8
0
  6
HIDDEN
 62
   174
100
AcDbPolyline
 90
        7
 70
   128
 10
313.094544
 20
246.871165
 10
313.460671
 20
247.622856
 10
313.688769
 20
248.359902
 10
313.765672
 20
249.08215
 10
313.688754
 20
249.804389
 10
313.460654
 20
250.541409
 10
313.094544
 20
251.293056
  0
LINE
  5
10D
100
AcDbEntity
  8
0
  6
HIDDEN
 62
   174
100
AcDbLine
 10
133.810182
 20
250.293505
 30
0.0
 11
135.787365
 21
250.293505
 31
0.0
  0
LINE
  5
10E
100
AcDbEntity
  8
0
  6
Continuous
 62
   174
100
AcDbLine
 10
309.987365
 20
237.871614
 30
0.0
 11
313.094544
 21
237.871614
 31
0.0
  0
LINE
  5
10F
100
AcDbEntity
  8
0
  6
Continuous
 62
   174
100
AcDbLine
 10
113.087365
 20
201.793505
 30
0.0
 11
119.287365
 21
201.793505
 31
0.0
  0
LINE
  5
110
100
AcDbEntity
  8
0
  6
Continuous
 62
   174
100
AcDbLine
 10
124.287365
 20
247.293505
 30
0.0
 11
124.287365
 21
221.293505
 31
0.0
  0
LINE
  5
111
100
AcDbEntity
  8
0
  6
HIDDEN
 62
   174
100
AcDbLine
 10
291.287365
 20
221.293505
 30
0.0
 11
268.287365
 21
221.293505
 31
0.0
  0
LINE
  5
112
100
AcDbEntity
  8
0
  6
Continuous
 62
   174
100
AcDbLine
 10
120.787365
 20
193.293505
 30
0.0
 11
150.787365
 21
193.293505
 31
0.0
  0
LINE
  5
113
100
AcDbEntity
  8
0
  6
HIDDEN
 62
   174
100
AcDbLine
 10
309.987365
 20
233.327937
 30
0.0
 11
309.987365
 21
233.328538
 31
0.0
  0
ARC
  5
114
100
AcDbEntity
  8
0
  6
Continuous
 62
   174
100
AcDbCircle
 10
191.787365
 20
224.293505
 30
0.0
 40
3.3
100
AcDbArc
 50
-180.0
 51
0.0
  0
LINE
  5
115
100
AcDbEntity
  8
0
  6
Continuous
 62
   174
100
AcDbLine
 10
302.487365
 20
201.796872
 30
0.0
 11
302.487365
 21
206.796872
 31
0.0
  0
LINE
  5
116
100
AcDbEntity
  8
0
  6
Continuous
 62
   174
100
AcDbLine
 10
150.313053
 20
247.293505
 30
0.0
 11
147.312884
 21
247.293505
 31
0.0
  0
LINE
  5
117
100
AcDbEntity
  8
0
  6
Continuous
 62
   174
100
AcDbLine
 10
306.287365
 20
234.327993
 30
0.0
 11
306.287365
 21
235.721283
 31
0.0
  0
LINE
  5
118
100
AcDbEntity
  8
0
  6
HIDDEN
 62
   174
100
AcDbLine
 10
119.287365
 20
201.796872
 30
0.0
 11
119.287365
 21
206.796872
 31
0.0
  0
LINE
  5
119
100
AcDbEntity
  8
0
  6
HIDDEN
 62
   174
100
AcDbLine
 10
132.78769
 20
250.293505
 30
0.0
 11
133.810182
 21
250.293505
 31
0.0
  0
LINE
  5
11A
100
AcDbEntity
  8
0
  6
Continuous
 62
   174
100
AcDbLine
 10
113.087365
 20
212.907384
 30
0.0
 11
113.087365
 21
209.372105
 31
0.0
  0
LINE
  5
11B
100
AcDbEntity
  8
0
  6
HIDDEN
 62
   174
100
AcDbLine
 10
121.312923
 20
221.293505
 30
0.0
 11
124.313092
 21
221.293505
 31
0.0
  0
LINE
  5
11C
100
AcDbEntity
  8
0
  6
Continuous
 62
   174
100
AcDbLine
 10
120.787365
 20
193.293505
 30
0.0
 11
120.787365
 21
221.293505
 31
0.0
  0
LINE
  5
11D
100
AcDbEntity
  8
0
  6
HIDDEN
 62
   174
100
AcDbLine
 10
291.287365
 20
247.293505
 30
0.0
 11
268.287365
 21
247.293505
 31
0.0
  0
LINE
  5
11E
100
AcDbEntity
  8
0
  6
Continuous
 62
   174
100
AcDbLine
 10
309.987365
 20
246.748939
 30
0.0
 11
309.987365
 21
251.326847
 31
0.0
  0
LINE
  5
11F
100
AcDbEntity
  8
0
  6
Continuous
 62
   174
100
AcDbLine
 10
296.287365
 20
214.329271
 30
0.0
 11
296.287365
 21
214.012341
 31
0.0
  0
LINE
  5
120
100
AcDbEntity
  8
0
  6
Continuous
 62
   174
100
AcDbLine
 10
101.936876
 20
250.015971
 30
0.0
 11
102.453531
 21
251.245673
 31
0.0
  0
ARC
  5
121
100
AcDbEntity
  8
0
  6
HIDDEN
 62
   174
100
AcDbCircle
 10
291.287365
 20
247.293505
 30
0.0
 40
3.0
100
AcDbArc
 50
0.0
 51
18.0
  0
LINE
  5
122
100
AcDbEntity
  8
0
  6
Continuous
 62
   174
100
AcDbLine
 10
296.287365
 20
205.825939
 30
0.0
 11
296.287365
 21
201.833525
 31
0.0
  0
LINE
  5
123
100
AcDbEntity
  8
0
  6
HIDDEN
 62
   174
100
AcDbLine
 10
119.287365
 20
195.680553
 30
0.0
 11
119.287365
 21
199.217571
 31
0.0
  0
ARC
  5
124
100
AcDbEntity
  8
0
  6
Continuous
 62
   174
100
AcDbCircle
 10
291.287365
 20
247.293505
 30
0.0
 40
3.0
100
AcDbArc
 50
0.0
 51
90.0
  0
LINE
  5
125
100
AcDbEntity
  8
0
  6
HIDDEN
 62
   174
100
AcDbLine
 10
214.413085
 20
189.293505
 30
0.0
 11
233.212881
 21
189.293505
 31
0.0
  0
LINE
  5
126
100
AcDbEntity
  8
0
  6
HIDDEN
 62
   174
100
AcDbLine
 10
132.387365
 20
250.293505
 30
0.0
 11
132.78769
 21
250.293505
 31
0.0
  0
LINE
  5
127
100
AcDbEntity
  8
0
  6
Continuous
 62
   174
100
AcDbLine
 10
313.787365
 20
236.02859
 30
0.0
 11
313.787365
 21
235.136979
 31
0.0
  0
LINE
  5
128
100
AcDbEntity
  8
0
  6
HIDDEN
 62
   174
100
AcDbLine
 10
294.287365
 20
239.543667
 30
0.0
 11
294.287365
 21
234.327993
 31
0.0
  0
LINE
  5
129
100
AcDbEntity
  8
0
  6
HIDDEN
 62
   174
100
AcDbLine
 10
291.287365
 20
247.293505
 30
0.0
 11
291.287365
 21
221.293505
 31
0.0
  0
LINE
  5
12A
100
AcDbEntity
  8
0
  6
HIDDEN
 62
   174
100
AcDbLine
 10
121.287365
 20
245.077387
 30
0.0
 11
121.287365
 21
247.293505
 31
0.0
  0
LINE
  5
12B
100
AcDbEntity
  8
0
  6
HIDDEN
 62
   174
100
AcDbLine
 10
124.313092
 20
247.293505
 30
0.0
 11
121.312923
 21
247.293505
 31
0.0
  0
LINE
  5
12C
100
AcDbEntity
  8
0
  6
Continuous
 62
   174
100
AcDbLine
 10
106.287365
 20
249.041348
 30
0.0
 11
106.287365
 21
251.326847
 31
0.0
  0
LINE
  5
12D
100
AcDbEntity
  8
0
  6
HIDDEN
 62
   174
100
AcDbLine
 10
105.587365
 20
237.871614
 30
0.0
 11
102.480185
 21
237.871614
 31
0.0
  0
LINE
  5
12E
100
AcDbEntity
  8
0
  6
Continuous
 62
   174
100
AcDbLine
 10
302.487365
 20
195.680553
 30
0.0
 11
296.287365
 21
195.680553
 31
0.0
  0
LINE
  5
12F
100
AcDbEntity
  8
0
  6
Continuous
 62
   174
100
AcDbLine
 10
268.287365
 20
221.293505
 30
0.0
 11
268.287365
 21
247.293505
 31
0.0
  0
LINE
  5
130
100
AcDbEntity
  8
0
  6
Continuous
 62
   174
100
AcDbLine
 10
124.287365
 20
247.326922
 30
0.0
 11
124.287365
 21
250.326791
 31
0.0
  0
LWPOLYLINE
  5
131
100
AcDbEntity
  8
0
  6
HIDDEN
 62
   174
100
AcDbPolyline
 90
        4
 70
   128
 10
313.094544
 20
237.715845
 10
313.422445
 20
238.96866
 10
313.655198
 20
240.191481
 10
313.787365
 20
241.401894
  0
LINE
  5
132
100
AcDbEntity
  8
0
  6
Continuous
 62
   174
100
AcDbLine
 10
302.487365
 20
201.796872
 30
0.0
 11
296.287365
 21
201.796872
 31
0.0
  0
LINE
  5
133
100
AcDbEntity
  8
0
  6
HIDDEN
 62
   174
100
AcDbLine
 10
268.313084
 20
247.293505
 30
0.0
 11
265.312915
 21
247.293505
 31
0.0
  0
LWPOLYLINE
  5
134
100
AcDbEntity
  8
0
  6
HIDDEN
 62
   174
100
AcDbPolyline
 90
        4
 70
   128
 10
102.480185
 20
237.871614
 10
102.152284
 20
237.245207
 10
101.91953
 20
236.633794
 10
101.787365
 20
236.02859
  0
LINE
  5
135
100
AcDbEntity
  8
0
  6
HIDDEN
 62
   174
100
AcDbLine
 10
105.587365
 20
237.871614
 30
0.0
 11
105.587365
 21
246.715396
 31
0.0
  0
ARC
  5
136
100
AcDbEntity
  8
0
  6
HIDDEN
 62
   174
100
AcDbCircle
 10
291.287365
 20
247.293505
 30
0.0
 40
3.0
100
AcDbArc
 50
54.0
 51
72.0
  0
LINE
  5
137
100
AcDbEntity
  8
0
  6
HIDDEN
 62
   174
100
AcDbLine
 10
124.287365
 20
250.293505
 30
0.0
 11
132.387365
 21
250.293505
 31
0.0
  0
LINE
  5
138
100
AcDbEntity
  8
0
  6
Continuous
 62
   174
100
AcDbLine
 10
294.787365
 20
221.293505
 30
0.0
 11
294.787365
 21
193.293505
 31
0.0
  0
LINE
  5
139
100
AcDbEntity
  8
0
  6
HIDDEN
 62
   174
100
AcDbLine
 10
296.287365
 20
206.793505
 30
0.0
 11
296.287365
 21
201.793505
 31
0.0
  0
LINE
  5
13A
100
AcDbEntity
  8
0
  6
Continuous
 62
   174
100
AcDbLine
 10
313.787365
 20
236.062846
 30
0.0
 11
313.787365
 21
248.591938
 31
0.0
  0
LINE
  5
13B
100
AcDbEntity
  8
0
  6
HIDDEN
 62
   174
100
AcDbLine
 10
302.487365
 20
209.372105
 30
0.0
 11
296.287365
 21
209.372105
 31
0.0
  0
LINE
  5
13C
100
AcDbEntity
  8
0
  6
Continuous
 62
   174
100
AcDbLine
 10
113.087365
 20
199.214575
 30
0.0
 11
113.087365
 21
195.678786
 31
0.0
  0
ARC
  5
13D
100
AcDbEntity
  8
0
  6
Continuous
 62
   174
100
AcDbCircle
 10
124.287365
 20
247.293505
 30
0.0
 40
3.0
100
AcDbArc
 50
-270.0
 51
-180.0
  0
LINE
  5
13E
100
AcDbEntity
  8
0
  6
HIDDEN
 62
   174
100
AcDbLine
 10
138.043633
 20
250.293505
 30
0.0
 11
138.787365
 21
250.293505
 31
0.0
  0
LINE
  5
13F
100
AcDbEntity
  8
0
  6
Continuous
 62
   174
100
AcDbLine
 10
113.087365
 20
209.408298
 30
0.0
 11
113.087365
 21
206.829901
 31
0.0
  0
LINE
  5
140
100
AcDbEntity
  8
0
  6
Continuous
 62
   174
100
AcDbLine
 10
309.987365
 20
233.293954
 30
0.0
 11
313.094544
 21
233.293954
 31
0.0
  0
LWPOLYLINE
  5
141
100
AcDbEntity
  8
0
  6
Continuous
 62
   174
100
AcDbPolyline
 90
        6
 70
   128
 10
102.480185
 20
246.871165
 10
102.114058
 20
247.622856
 10
101.885961
 20
248.359902
 10
101.809057
 20
249.08215
 10
101.885975
 20
249.804389
 10
101.936876
 20
250.015971
  0
LINE
  5
142
100
AcDbEntity
  8
0
  6
Continuous
 62
   174
100
AcDbLine
 10
302.487365
 20
206.796872
 30
0.0
 11
296.287365
 21
206.796872
 31
0.0
  0
LINE
  5
143
100
AcDbEntity
  8
0
  6
HIDDEN
 62
   174
100
AcDbLine
 10
147.287365
 20
247.326922
 30
0.0
 11
147.287365
 21
250.326791
 31
0.0
  0
LINE
  5
144
100
AcDbEntity
  8
0
  6
HIDDEN
 62
   174
100
AcDbLine
 10
309.987365
 20
237.715845
 30
0.0
 11
309.987365
 21
246.871165
 31
0.0
  0
LINE
  5
145
100
AcDbEntity
  8
0
  6
Continuous
 62
   174
100
AcDbLine
 10
302.487365
 20
199.254527
 30
0.0
 11
302.487365
 21
201.833525
 31
0.0
  0
LINE
  5
146
100
AcDbEntity
  8
0
  6
HIDDEN
 62
   174
100
AcDbLine
 10
105.587365
 20
246.715396
 30
0.0
 11
102.480185
 21
246.715396
 31
0.0
  0
LINE
  5
147
100
AcDbEntity
  8
0
  6
Continuous
 62
   174
100
AcDbLine
 10
113.087365
 20
209.372105
 30
0.0
 11
119.287365
 21
209.372105
 31
0.0
  0
LWPOLYLINE
  5
148
100
AcDbEntity
  8
0
  6
HIDDEN
 62
   174
100
AcDbPolyline
 90
        7
 70
   128
 10
313.094544
 20
233.293954
 10
313.460671
 20
234.045645
 10
313.688769
 20
234.782691
 10
313.765672
 20
235.50494
 10
313.688754
 20
236.227179
 10
313.460654
 20
236.964198
 10
313.094544
 20
237.715845
  0
LINE
  5
149
100
AcDbEntity
  8
0
  6
HIDDEN
 62
   174
100
AcDbLine
 10
113.087365
 20
212.90915
 30
0.0
 11
119.287365
 21
212.90915
 31
0.0
  0
ARC
  5
14A
100
AcDbEntity
  8
0
  6
HIDDEN
 62
   174
100
AcDbCircle
 10
147.287365
 20
247.293505
 30
0.0
 40
3.0
100
AcDbArc
 50
-306.0
 51
-288.0
  0
LINE
  5
14B
100
AcDbEntity
  8
0
  6
HIDDEN
 62
   174
100
AcDbLine
 10
291.312876
 20
221.293505
 30
0.0
 11
294.313045
 21
221.293505
 31
0.0
  0
LINE
  5
14C
100
AcDbEntity
  8
0
  6
Continuous
 62
   174
100
AcDbLine
 10
150.787365
 20
221.293505
 30
0.0
 11
120.787365
 21
221.293505
 31
0.0
  0
LINE
  5
14D
100
AcDbEntity
  8
0
  6
Continuous
 62
   174
100
AcDbLine
 10
294.787365
 20
221.293505
 30
0.0
 11
264.787365
 21
221.293505
 31
0.0
  0
LINE
  5
14E
100
AcDbEntity
  8
0
  6
HIDDEN
 62
   174
100
AcDbLine
 10
124.287365
 20
247.326922
 30
0.0
 11
124.287365
 21
250.326791
 31
0.0
  0
LINE
  5
14F
100
AcDbEntity
  8
0
  6
Continuous
 62
   174
100
AcDbLine
 10
105.587365
 20
242.327242
 30
0.0
 11
105.587365
 21
237.749934
 31
0.0
  0
LINE
  5
150
100
AcDbEntity
  8
0
  6
Continuous
 62
   174
100
AcDbLine
 10
102.452744
 20
251.244262
 30
0.0
 11
102.480185
 21
251.293056
 31
0.0
  0
LINE
  5
151
100
AcDbEntity
  8
0
  6
Continuous
 62
   174
100
AcDbLine
 10
113.087365
 20
206.793505
 30
0.0
 11
113.087365
 21
201.793505
 31
0.0
  0
LINE
  5
152
100
AcDbEntity
  8
0
  6
HIDDEN
 62
   174
100
AcDbLine
 10
138.787365
 20
250.293505
 30
0.0
 11
139.187365
 21
250.293505
 31
0.0
  0
LINE
  5
153
100
AcDbEntity
  8
0
  6
Continuous
 62
   174
100
AcDbLine
 10
309.987365
 20
242.327242
 30
0.0
 11
309.987365
 21
246.748939
 31
0.0
  0
LINE
  5
154
100
AcDbEntity
  8
0
  6
Continuous
 62
   174
100
AcDbLine
 10
302.487365
 20
206.833205
 30
0.0
 11
302.487365
 21
209.411302
 31
0.0
  0
LWPOLYLINE
  5
155
100
AcDbEntity
  8
0
  6
HIDDEN
 62
   174
100
AcDbPolyline
 90
        4
 70
   128
 10
101.787365
 20
235.136979
 10
101.920485
 20
234.52862
 10
102.153568
 20
233.917545
 10
102.451464
 20
233.343255
  0
LINE
  5
156
100
AcDbEntity
  8
0
  6
HIDDEN
 62
   174
100
AcDbLine
 10
102.451378
 20
233.343404
 30
0.0
 11
102.480185
 21
233.293954
 31
0.0
  0
LWPOLYLINE
  5
157
100
AcDbEntity
  8
0
  6
HIDDEN
 62
   174
100
AcDbPolyline
 90
        6
 70
   128
 10
124.287365
 20
250.293505
 10
123.382049
 20
250.153645
 10
122.573744
 20
249.755923
 10
121.911896
 20
249.125757
 10
121.46007
 20
248.296703
 10
121.287365
 20
247.293505
  0
ARC
  5
158
100
AcDbEntity
  8
0
  6
HIDDEN
 62
   174
100
AcDbCircle
 10
291.287365
 20
247.293505
 30
0.0
 40
3.0
100
AcDbArc
 50
72.0
 51
90.0
  0
LINE
  5
159
100
AcDbEntity
  8
0
  6
Continuous
 62
   174
100
AcDbLine
 10
105.587365
 20
233.293954
 30
0.0
 11
102.480185
 21
233.293954
 31
0.0
  0
LINE
  5
15A
100
AcDbEntity
  8
0
  6
HIDDEN
 62
   174
100
AcDbLine
 10
113.087365
 20
209.3751
 30
0.0
 11
119.287365
 21
209.3751
 31
0.0
  0
LINE
  5
15B
100
AcDbEntity
  8
0
  6
Continuous
 62
   174
100
AcDbLine
 10
119.287365
 20
205.82624
 30
0.0
 11
119.287365
 21
206.829901
 31
0.0
  0
LINE
  5
15C
100
AcDbEntity
  8
0
  6
Continuous
 62
   174
100
AcDbLine
 10
113.087365
 20
214.01144
 30
0.0
 11
113.087365
 21
212.943492
 31
0.0
  0
LWPOLYLINE
  5
15D
100
AcDbEntity
  8
0
  6
Continuous
 62
   174
100
AcDbPolyline
 90
        4
 70
   128
 10
101.787365
 20
243.185116
 10
101.920485
 20
244.401832
 10
102.15357
 20
245.623995
 10
102.480185
 20
246.871165
  0
LWPOLYLINE
  5
15E
100
AcDbEntity
  8
0
  6
Continuous
 62
   174
100
AcDbPolyline
 90
        4
 70
   128
 10
313.787365
 20
235.136979
 10
313.654244
 20
234.52862
 10
313.421162
 20
233.917545
 10
313.123265
 20
233.343255
  0
LINE
  5
15F
100
AcDbEntity
  8
0
  6
Continuous
 62
   174
100
AcDbLine
 10
294.287365
 20
221.293505
 30
0.0
 11
294.287365
 21
239.509623
 31
0.0
  0
LINE
  5
160
100
AcDbEntity
  8
0
  6
Continuous
 62
   174
100
AcDbLine
 10
291.287365
 20
221.293505
 30
0.0
 11
291.287365
 21
247.293505
 31
0.0
  0
LINE
  5
161
100
AcDbEntity
  8
0
  6
HIDDEN
 62
   174
100
AcDbLine
 10
150.313053
 20
247.293505
 30
0.0
 11
147.312884
 21
247.293505
 31
0.0
  0
ARC
  5
162
100
AcDbEntity
  8
0
  6
Continuous
 62
   174
100
AcDbCircle
 10
207.787365
 20
184.293505
 30
0.0
 40
3.3
100
AcDbArc
 50
0.0
 51
180.0
  0
LINE
  5
163
100
AcDbEntity
  8
0
  6
Continuous
 62
   174
100
AcDbLine
 10
105.587365
 20
251.293056
 30
0.0
 11
102.480185
 21
251.293056
 31
0.0
  0
LINE
  5
164
100
AcDbEntity
  8
0
  6
Continuous
 62
   174
100
AcDbLine
 10
119.287365
 20
214.01144
 30
0.0
 11
119.287365
 21
214.329271
 31
0.0
  0
LINE
  5
165
100
AcDbEntity
  8
0
  6
Continuous
 62
   174
100
AcDbLine
 10
268.313084
 20
247.293505
 30
0.0
 11
265.312915
 21
247.293505
 31
0.0
  0
ARC
  5
166
100
AcDbEntity
  8
0
  6
Continuous
 62
   174
100
AcDbCircle
 10
207.787365
 20
184.293505
 30
0.0
 40
3.3
100
AcDbArc
 50
-180.0
 51
0.0
  0
LWPOLYLINE
  5
167
100
AcDbEntity
  8
0
  6
Continuous
 62
   174
100
AcDbPolyline
 90
        4
 70
   128
 10
294.287365
 20
239.509623
 10
294.274805
 20
240.406324
 10
294.2544
 20
241.344478
 10
294.245405
 20
242.293505
  0
ARC
  5
168
100
AcDbEntity
  8
0
  6
Continuous
 62
   174
100
AcDbCircle
 10
268.287365
 20
247.293505
 30
0.0
 40
3.0
100
AcDbArc
 50
-270.0
 51
-180.0
  0
ARC
  5
169
100
AcDbEntity
  8
0
  6
HIDDEN
 62
   174
100
AcDbCircle
 10
147.287365
 20
247.293505
 30
0.0
 40
3.0
100
AcDbArc
 50
-288.0
 51
-270.0
  0
LINE
  5
16A
100
AcDbEntity
  8
0
  6
HIDDEN
 62
   174
100
AcDbLine
 10
113.087365
 20
206.796872
 30
0.0
 11
119.287365
 21
206.796872
 31
0.0
  0
LINE
  5
16B
100
AcDbEntity
  8
0
  6
Continuous
 62
   174
100
AcDbLine
 10
105.587365
 20
246.90485
 30
0.0
 11
105.587365
 21
242.327242
 31
0.0
  0
LWPOLYLINE
  5
16C
100
AcDbEntity
  8
0
  6
Continuous
 62
   174
100
AcDbPolyline
 90
        7
 70
   128
 10
313.094544
 20
246.715396
 10
313.460647
 20
245.212125
 10
313.688747
 20
243.738135
 10
313.765678
 20
242.293742
 10
313.688791
 20
240.849296
 10
313.460698
 20
239.375145
 10
313.094544
 20
237.871614
  0
LWPOLYLINE
  5
16D
100
AcDbEntity
  8
0
  6
Continuous
 62
   174
100
AcDbPolyline
 90
        4
 70
   128
 10
313.787365
 20
248.55842
 10
313.654244
 20
247.950061
 10
313.421162
 20
247.338986
 10
313.094544
 20
246.715396
  0
LINE
  5
16E
100
AcDbEntity
  8
0
  6
Continuous
 62
   174
100
AcDbLine
 10
124.313092
 20
247.293505
 30
0.0
 11
121.312923
 21
247.293505
 31
0.0
  0
LINE
  5
16F
100
AcDbEntity
  8
0
  6
HIDDEN
 62
   174
100
AcDbLine
 10
264.787365
 20
193.293505
 30
0.0
 11
264.787365
 21
221.293505
 31
0.0
  0
LINE
  5
170
100
AcDbEntity
  8
0
  6
Continuous
 62
   174
100
AcDbLine
 10
302.487365
 20
212.944994
 30
0.0
 11
302.487365
 21
214.012341
 31
0.0
  0
LWPOLYLINE
  5
171
100
AcDbEntity
  8
0
  6
Continuous
 62
   174
100
AcDbPolyline
 90
        4
 70
   128
 10
294.287365
 20
245.077387
 10
294.274805
 20
244.180652
 10
294.254399
 20
243.242498
 10
294.245405
 20
242.293505
  0
LINE
  5
172
100
AcDbEntity
  8
0
  6
Continuous
 62
   174
100
AcDbLine
 10
124.287365
 20
247.293505
 30
0.0
 11
147.287365
 21
247.293505
 31
0.0
  0
LINE
  5
173
100
AcDbEntity
  8
0
  6
HIDDEN
 62
   174
100
AcDbLine
 10
105.587365
 20
237.871614
 30
0.0
 11
105.587365
 21
233.293954
 31
0.0
  0
LINE
  5
174
100
AcDbEntity
  8
0
  6
Continuous
 62
   174
100
AcDbLine
 10
302.487365
 20
194.611594
 30
0.0
 11
296.287365
 21
194.611594
 31
0.0
  0
LINE
  5
175
100
AcDbEntity
  8
0
  6
HIDDEN
 62
   174
100
AcDbLine
 10
102.480185
 20
251.293056
 30
0.0
 11
102.451333
 21
251.243532
 31
0.0
  0
LINE
  5
176
100
AcDbEntity
  8
0
  6
Continuous
 62
   174
100
AcDbLine
 10
309.987365
 20
237.905846
 30
0.0
 11
309.987365
 21
242.327242
 31
0.0
  0
LINE
  5
177
100
AcDbEntity
  8
0
  6
Continuous
 62
   174
100
AcDbLine
 10
147.287365
 20
250.293505
 30
0.0
 11
124.287365
 21
250.293505
 31
0.0
  0
LINE
  5
178
100
AcDbEntity
  8
0
  6
Continuous
 62
   174
100
AcDbLine
 10
119.287365
 20
201.83022
 30
0.0
 11
119.287365
 21
205.82624
 31
0.0
  0
LINE
  5
179
100
AcDbEntity
  8
0
  6
Continuous
 62
   174
100
AcDbLine
 10
264.787365
 20
193.293505
 30
0.0
 11
294.787365
 21
193.293505
 31
0.0
  0
LINE
  5
17A
100
AcDbEntity
  8
0
  6
Continuous
 62
   174
100
AcDbLine
 10
109.287365
 20
235.720983
 30
0.0
 11
109.287365
 21
234.327993
 31
0.0
  0
LINE
  5
17B
100
AcDbEntity
  8
0
  6
HIDDEN
 62
   174
100
AcDbLine
 10
113.087365
 20
201.796872
 30
0.0
 11
119.287365
 21
201.796872
 31
0.0
  0
LINE
  5
17C
100
AcDbEntity
  8
0
  6
Continuous
 62
   174
100
AcDbLine
 10
101.787365
 20
250.126719
 30
0.0
 11
101.787365
 21
243.218851
 31
0.0
  0
LINE
  5
17D
100
AcDbEntity
  8
0
  6
Continuous
 62
   174
100
AcDbLine
 10
302.487365
 20
212.90915
 30
0.0
 11
296.287365
 21
212.90915
 31
0.0
  0
LINE
  5
17E
100
AcDbEntity
  8
0
  6
Continuous
 62
   174
100
AcDbLine
 10
302.487365
 20
195.680553
 30
0.0
 11
302.487365
 21
199.217571
 31
0.0
  0
LINE
  5
17F
100
AcDbEntity
  8
0
  6
Continuous
 62
   174
100
AcDbLine
 10
150.287365
 20
221.293505
 30
0.0
 11
150.287365
 21
247.293505
 31
0.0
  0
LINE
  5
180
100
AcDbEntity
  8
0
  6
Continuous
 62
   174
100
AcDbLine
 10
302.487365
 20
209.3751
 30
0.0
 11
302.487365
 21
212.90915
 31
0.0
  0
ARC
  5
181
100
AcDbEntity
  8
0
  6
HIDDEN
 62
   174
100
AcDbCircle
 10
147.287365
 20
247.293505
 30
0.0
 40
3.0
100
AcDbArc
 50
-324.0
 51
-306.0
  0
LWPOLYLINE
  5
182
100
AcDbEntity
  8
0
  6
HIDDEN
 62
   174
100
AcDbPolyline
 90
        4
 70
   128
 10
101.787365
 20
248.55842
 10
101.920485
 20
247.950061
 10
102.153568
 20
247.338986
 10
102.480185
 20
246.715396
  0
LINE
  5
183
100
AcDbEntity
  8
0
  6
HIDDEN
 62
   174
100
AcDbLine
 10
294.287365
 20
245.111117
 30
0.0
 11
294.287365
 21
247.326922
 31
0.0
  0
ARC
  5
184
100
AcDbEntity
  8
0
  6
HIDDEN
 62
   174
100
AcDbCircle
 10
124.287365
 20
247.293505
 30
0.0
 40
3.0
100
AcDbArc
 50
90.0
 51
180.0
  0
LINE
  5
185
100
AcDbEntity
  8
0
  6
Continuous
 62
   174
100
AcDbLine
 10
296.287365
 20
212.944994
 30
0.0
 11
296.287365
 21
209.411302
 31
0.0
  0
LINE
  5
186
100
AcDbEntity
  8
0
  6
Continuous
 62
   174
100
AcDbLine
 10
106.287365
 20
242.327242
 30
0.0
 11
106.287365
 21
249.041348
 31
0.0
  0
LINE
  5
187
100
AcDbEntity
  8
0
  6
Continuous
 62
   174
100
AcDbLine
 10
102.480185
 20
233.293954
 30
0.0
 11
102.452712
 21
233.342791
 31
0.0
  0
LWPOLYLINE
  5
188
100
AcDbEntity
  8
0
  6
Continuous
 62
   174
100
AcDbPolyline
 90
        4
 70
   128
 10
313.094544
 20
237.871614
 10
313.422445
 20
237.245207
 10
313.655199
 20
236.633794
 10
313.787365
 20
236.02859
  0
LINE
  5
189
100
AcDbEntity
  8
0
  6
Continuous
 62
   174
100
AcDbLine
 10
313.787365
 20
234.528065
 30
0.0
 11
313.787365
 21
235.171237
 31
0.0
  0
LINE
  5
18A
100
AcDbEntity
  8
0
  6
HIDDEN
 62
   174
100
AcDbLine
 10
113.087365
 20
199.217571
 30
0.0
 11
119.287365
 21
199.217571
 31
0.0
  0
LINE
  5
18B
100
AcDbEntity
  8
0
  6
Continuous
 62
   174
100
AcDbLine
 10
302.487365
 20
209.3751
 30
0.0
 11
296.287365
 21
209.3751
 31
0.0
  0
ENDBLK
  5
18C
100
AcDbEntity
  8
0
100
AcDbBlockEnd
  0
BLOCK
  5
18F
100
AcDbEntity
  8
0
100
AcDbBlockBegin
  2
*B2
 70
     0
 10
0.0
 20
0.0
 30
0.0
  3
*B2
  1

  0
LINE
  5
190
100
AcDbEntity
  8
0
  6
Continuous
 62
   174
100
AcDbLine
 10
161.643143
 20
105.901566
 30
0.0
 11
161.643143
 21
100.709572
 31
0.0
  0
LINE
  5
191
100
AcDbEntity
  8
0
  6
Continuous
 62
   174
100
AcDbLine
 10
253.931587
 20
100.709572
 30
0.0
 11
253.931587
 21
105.901566
 31
0.0
  0
ARC
  5
192
100
AcDbEntity
  8
0
  6
Continuous
 62
   174
100
AcDbCircle
 10
161.787365
 20
103.305569
 30
0.0
 40
2.6
100
AcDbArc
 50
-86.82017
 51
86.82017
  0
ARC
  5
193
100
AcDbEntity
  8
0
  6
Continuous
 62
   174
100
AcDbCircle
 10
253.787365
 20
103.305569
 30
0.0
 40
2.6
100
AcDbArc
 50
-266.82017
 51
-93.17983
  0
LINE
  5
194
100
AcDbEntity
  8
0
  6
Continuous
 62
   174
100
AcDbLine
 10
161.931587
 20
100.709572
 30
0.0
 11
161.931587
 21
105.901566
 31
0.0
  0
LINE
  5
195
100
AcDbEntity
  8
0
  6
Continuous
 62
   174
100
AcDbLine
 10
253.643143
 20
105.901566
 30
0.0
 11
253.643143
 21
100.709572
 31
0.0
  0
ARC
  5
196
100
AcDbEntity
  8
0
  6
Continuous
 62
   174
100
AcDbCircle
 10
279.787365
 20
103.305569
 30
0.0
 40
3.4
100
AcDbArc
 50
-90.0
 51
90.0
  0
ARC
  5
197
100
AcDbEntity
  8
0
  6
Continuous
 62
   174
100
AcDbCircle
 10
279.787365
 20
103.305569
 30
0.0
 40
3.4
100
AcDbArc
 50
-270.0
 51
-90.0
  0
ARC
  5
198
100
AcDbEntity
  8
0
  6
Continuous
 62
   174
100
AcDbCircle
 10
135.787365
 20
103.305569
 30
0.0
 40
3.4
100
AcDbArc
 50
-270.0
 51
-90.0
  0
ARC
  5
199
100
AcDbEntity
  8
0
  6
Continuous
 62
   174
100
AcDbCircle
 10
135.787365
 20
103.305569
 30
0.0
 40
3.4
100
AcDbArc
 50
-90.0
 51
90.0
  0
ARC
  5
19A
100
AcDbEntity
  8
0
  6
Continuous
 62
   174
100
AcDbCircle
 10
279.787365
 20
103.305569
 30
0.0
 40
3.0
100
AcDbArc
 50
-37.286546
 51
127.286546
  0
ARC
  5
19B
100
AcDbEntity
  8
0
  6
Continuous
 62
   174
100
AcDbCircle
 10
135.787365
 20
103.305569
 30
0.0
 40
3.0
100
AcDbArc
 50
-217.286546
 51
-52.713454
  0
LINE
  5
19C
100
AcDbEntity
  8
0
  6
Continuous
 62
   174
100
AcDbLine
 10
282.174212
 20
101.488164
 30
0.0
 11
277.96996
 21
105.692416
 31
0.0
  0
LINE
  5
19D
100
AcDbEntity
  8
0
  6
Continuous
 62
   174
100
AcDbLine
 10
306.287365
 20
109.805569
 30
0.0
 11
309.287365
 21
109.805569
 31
0.0
  0
LINE
  5
19E
100
AcDbEntity
  8
0
  6
Continuous
 62
   174
100
AcDbLine
 10
109.287365
 20
96.805569
 30
0.0
 11
106.287365
 21
96.805569
 31
0.0
  0
LINE
  5
19F
100
AcDbEntity
  8
0
  6
Continuous
 62
   174
100
AcDbLine
 10
109.287365
 20
96.805569
 30
0.0
 11
106.287365
 21
96.805569
 31
0.0
  0
LINE
  5
1A0
100
AcDbEntity
  8
0
  6
Continuous
 62
   174
100
AcDbLine
 10
106.287365
 20
112.305569
 30
0.0
 11
105.587365
 21
112.305569
 31
0.0
  0
LINE
  5
1A1
100
AcDbEntity
  8
0
  6
Continuous
 62
   174
100
AcDbLine
 10
109.287365
 20
111.305569
 30
0.0
 11
121.329325
 21
111.305569
 31
0.0
  0
LINE
  5
1A2
100
AcDbEntity
  8
0
  6
Continuous
 62
   174
100
AcDbLine
 10
306.287365
 20
109.95542
 30
0.0
 11
306.287365
 21
111.34901
 31
0.0
  0
LINE
  5
1A3
100
AcDbEntity
  8
0
  6
Continuous
 62
   174
100
AcDbLine
 10
302.487365
 20
111.963344
 30
0.0
 11
302.487365
 21
113.031292
 31
0.0
  0
LINE
  5
1A4
100
AcDbEntity
  8
0
  6
Continuous
 62
   174
100
AcDbLine
 10
101.835108
 20
111.144375
 30
0.0
 11
101.911712
 21
111.144375
 31
0.0
  0
LWPOLYLINE
  5
1A5
100
AcDbEntity
  8
0
  6
Continuous
 62
   174
100
AcDbPolyline
 90
        4
 70
   128
 10
101.787365
 20
107.952163
 10
101.920485
 20
109.005872
 10
102.153568
 20
110.064285
 10
102.480185
 20
111.144375
  0
LINE
  5
1A6
100
AcDbEntity
  8
0
  6
Continuous
 62
   174
100
AcDbLine
 10
109.287365
 20
109.805569
 30
0.0
 11
106.287365
 21
109.805569
 31
0.0
  0
LINE
  5
1A7
100
AcDbEntity
  8
0
  6
Continuous
 62
   174
100
AcDbLine
 10
106.287365
 20
94.305569
 30
0.0
 11
105.587365
 21
94.305569
 31
0.0
  0
LINE
  5
1A8
100
AcDbEntity
  8
0
  6
Continuous
 62
   174
100
AcDbLine
 10
106.287365
 20
94.305569
 30
0.0
 11
105.587365
 21
94.305569
 31
0.0
  0
LINE
  5
1A9
100
AcDbEntity
  8
0
  6
Continuous
 62
   174
100
AcDbLine
 10
313.787365
 20
95.505569
 30
0.0
 11
313.688769
 21
95.334795
 31
0.0
  0
LINE
  5
1AA
100
AcDbEntity
  8
0
  6
Continuous
 62
   174
100
AcDbLine
 10
294.287365
 20
110.805569
 30
0.0
 11
294.287365
 21
109.550567
 31
0.0
  0
LINE
  5
1AB
100
AcDbEntity
  8
0
  6
Continuous
 62
   174
100
AcDbLine
 10
150.287365
 20
110.805569
 30
0.0
 11
150.287365
 21
95.805569
 31
0.0
  0
LINE
  5
1AC
100
AcDbEntity
  8
0
  6
Continuous
 62
   174
100
AcDbLine
 10
166.787365
 20
118.305569
 30
0.0
 11
150.787365
 21
118.305569
 31
0.0
  0
LINE
  5
1AD
100
AcDbEntity
  8
0
  6
Continuous
 62
   174
100
AcDbLine
 10
109.287365
 20
111.34901
 30
0.0
 11
109.287365
 21
109.95542
 31
0.0
  0
LINE
  5
1AE
100
AcDbEntity
  8
0
  6
Continuous
 62
   174
100
AcDbLine
 10
109.287365
 20
109.95542
 30
0.0
 11
109.287365
 21
96.743503
 31
0.0
  0
LINE
  5
1AF
100
AcDbEntity
  8
0
  6
Continuous
 62
   174
100
AcDbLine
 10
113.087365
 20
113.030391
 30
0.0
 11
113.087365
 21
111.961541
 31
0.0
  0
LINE
  5
1B0
100
AcDbEntity
  8
0
  6
Continuous
 62
   174
100
AcDbLine
 10
309.987365
 20
95.466763
 30
0.0
 11
313.094544
 21
95.466763
 31
0.0
  0
LINE
  5
1B1
100
AcDbEntity
  8
0
  6
Continuous
 62
   174
100
AcDbLine
 10
138.043633
 20
101.328386
 30
0.0
 11
133.810182
 21
105.561837
 31
0.0
  0
LINE
  5
1B2
100
AcDbEntity
  8
0
  6
Continuous
 62
   174
100
AcDbLine
 10
306.287365
 20
96.805569
 30
0.0
 11
309.287365
 21
96.805569
 31
0.0
  0
LINE
  5
1B3
100
AcDbEntity
  8
0
  6
Continuous
 62
   174
100
AcDbLine
 10
106.287365
 20
112.305569
 30
0.0
 11
105.587365
 21
112.305569
 31
0.0
  0
LINE
  5
1B4
100
AcDbEntity
  8
0
  6
Continuous
 62
   174
100
AcDbLine
 10
166.787365
 20
88.305569
 30
0.0
 11
150.787365
 21
88.305569
 31
0.0
  0
LINE
  5
1B5
100
AcDbEntity
  8
0
  6
Continuous
 62
   174
100
AcDbLine
 10
109.287365
 20
96.743503
 30
0.0
 11
109.287365
 21
95.349913
 31
0.0
  0
LINE
  5
1B6
100
AcDbEntity
  8
0
  6
Continuous
 62
   174
100
AcDbLine
 10
309.287365
 20
112.348766
 30
0.0
 11
309.287365
 21
110.063267
 31
0.0
  0
LINE
  5
1B7
100
AcDbEntity
  8
0
  6
Continuous
 62
   174
100
AcDbLine
 10
309.287365
 20
110.063267
 30
0.0
 11
309.287365
 21
96.635656
 31
0.0
  0
LINE
  5
1B8
100
AcDbEntity
  8
0
  6
Continuous
 62
   174
100
AcDbLine
 10
105.587365
 20
112.348766
 30
0.0
 11
105.587365
 21
111.187692
 31
0.0
  0
LINE
  5
1B9
100
AcDbEntity
  8
0
  6
Continuous
 62
   174
100
AcDbLine
 10
309.987365
 20
111.09787
 30
0.0
 11
309.987365
 21
112.348766
 31
0.0
  0
LINE
  5
1BA
100
AcDbEntity
  8
0
  6
Continuous
 62
   174
100
AcDbLine
 10
302.487365
 20
93.668532
 30
0.0
 11
302.487365
 21
94.737382
 31
0.0
  0
LINE
  5
1BB
100
AcDbEntity
  8
0
  6
Continuous
 62
   174
100
AcDbLine
 10
101.787365
 20
111.148939
 30
0.0
 11
101.787365
 21
107.995863
 31
0.0
  0
LINE
  5
1BC
100
AcDbEntity
  8
0
  6
Continuous
 62
   174
100
AcDbLine
 10
101.787365
 20
106.407847
 30
0.0
 11
101.787365
 21
107.952163
 31
0.0
  0
LWPOLYLINE
  5
1BD
100
AcDbEntity
  8
0
  6
Continuous
 62
   174
100
AcDbPolyline
 90
        3
 70
   128
 10
102.480185
 20
111.144375
 10
102.114083
 20
111.144375
 10
101.885983
 20
111.144375
  0
ARC
  5
1BE
100
AcDbEntity
  8
0
  6
Continuous
 62
   174
100
AcDbCircle
 10
135.787365
 20
103.305569
 30
0.0
 40
3.0
100
AcDbArc
 50
-41.228296
 51
131.228296
  0
LINE
  5
1BF
100
AcDbEntity
  8
0
  6
Continuous
 62
   174
100
AcDbLine
 10
309.287365
 20
94.305569
 30
0.0
 11
309.987365
 21
94.305569
 31
0.0
  0
LINE
  5
1C0
100
AcDbEntity
  8
0
  6
Continuous
 62
   174
100
AcDbLine
 10
306.287365
 20
111.305569
 30
0.0
 11
294.245405
 21
111.305569
 31
0.0
  0
LINE
  5
1C1
100
AcDbEntity
  8
0
  6
Continuous
 62
   174
100
AcDbLine
 10
294.287365
 20
97.060571
 30
0.0
 11
294.287365
 21
95.805569
 31
0.0
  0
LINE
  5
1C2
100
AcDbEntity
  8
0
  6
Continuous
 62
   174
100
AcDbLine
 10
166.787365
 20
88.305569
 30
0.0
 11
166.787365
 21
118.305569
 31
0.0
  0
ARC
  5
1C3
100
AcDbEntity
  8
0
  6
Continuous
 62
   174
100
AcDbCircle
 10
207.787365
 20
103.305569
 30
0.0
 40
9.4
100
AcDbArc
 50
0.0
 51
180.0
  0
ARC
  5
1C4
100
AcDbEntity
  8
0
  6
Continuous
 62
   174
100
AcDbCircle
 10
207.787365
 20
103.305569
 30
0.0
 40
9.4
100
AcDbArc
 50
-180.0
 51
0.0
  0
LINE
  5
1C5
100
AcDbEntity
  8
0
  6
Continuous
 62
   174
100
AcDbLine
 10
248.787365
 20
118.305569
 30
0.0
 11
166.787365
 21
118.305569
 31
0.0
  0
LINE
  5
1C6
100
AcDbEntity
  8
0
  6
Continuous
 62
   174
100
AcDbLine
 10
150.787365
 20
88.305569
 30
0.0
 11
150.787365
 21
118.305569
 31
0.0
  0
LINE
  5
1C7
100
AcDbEntity
  8
0
  6
Continuous
 62
   174
100
AcDbLine
 10
248.787365
 20
88.305569
 30
0.0
 11
264.787365
 21
88.305569
 31
0.0
  0
LINE
  5
1C8
100
AcDbEntity
  8
0
  6
Continuous
 62
   174
100
AcDbLine
 10
106.287365
 20
94.350157
 30
0.0
 11
106.287365
 21
96.635656
 31
0.0
  0
LINE
  5
1C9
100
AcDbEntity
  8
0
  6
Continuous
 62
   174
100
AcDbLine
 10
106.287365
 20
96.635656
 30
0.0
 11
106.287365
 21
110.063267
 31
0.0
  0
LINE
  5
1CA
100
AcDbEntity
  8
0
  6
Continuous
 62
   174
100
AcDbLine
 10
309.987365
 20
94.350157
 30
0.0
 11
309.987365
 21
95.511231
 31
0.0
  0
LINE
  5
1CB
100
AcDbEntity
  8
0
  6
Continuous
 62
   174
100
AcDbLine
 10
113.087365
 20
94.735579
 30
0.0
 11
113.087365
 21
93.667631
 31
0.0
  0
LINE
  5
1CC
100
AcDbEntity
  8
0
  6
Continuous
 62
   174
100
AcDbLine
 10
102.480185
 20
95.556696
 30
0.0
 11
105.587365
 21
95.556696
 31
0.0
  0
LINE
  5
1CD
100
AcDbEntity
  8
0
  6
Continuous
 62
   174
100
AcDbLine
 10
313.787365
 20
95.549984
 30
0.0
 11
313.787365
 21
98.703361
 31
0.0
  0
LINE
  5
1CE
100
AcDbEntity
  8
0
  6
Continuous
 62
   174
100
AcDbLine
 10
313.787365
 20
100.203291
 30
0.0
 11
313.787365
 21
98.658974
 31
0.0
  0
LWPOLYLINE
  5
1CF
100
AcDbEntity
  8
0
  6
Continuous
 62
   174
100
AcDbPolyline
 90
        4
 70
   128
 10
313.787365
 20
98.658974
 10
313.654244
 20
97.605266
 10
313.421162
 20
96.546853
 10
313.094544
 20
95.466763
  0
LINE
  5
1D0
100
AcDbEntity
  8
0
  6
Continuous
 62
   174
100
AcDbLine
 10
309.287365
 20
112.305569
 30
0.0
 11
309.987365
 21
112.305569
 31
0.0
  0
LINE
  5
1D1
100
AcDbEntity
  8
0
  6
Continuous
 62
   174
100
AcDbLine
 10
306.287365
 20
95.305569
 30
0.0
 11
294.245405
 21
95.305569
 31
0.0
  0
LINE
  5
1D2
100
AcDbEntity
  8
0
  6
Continuous
 62
   174
100
AcDbLine
 10
109.287365
 20
111.305569
 30
0.0
 11
121.329325
 21
111.305569
 31
0.0
  0
LINE
  5
1D3
100
AcDbEntity
  8
0
  6
Continuous
 62
   174
100
AcDbLine
 10
109.287365
 20
95.305569
 30
0.0
 11
121.329325
 21
95.305569
 31
0.0
  0
LINE
  5
1D4
100
AcDbEntity
  8
0
  6
Continuous
 62
   174
100
AcDbLine
 10
121.287365
 20
95.805569
 30
0.0
 11
121.287365
 21
97.060571
 31
0.0
  0
LINE
  5
1D5
100
AcDbEntity
  8
0
  6
Continuous
 62
   174
100
AcDbLine
 10
248.787365
 20
118.305569
 30
0.0
 11
248.787365
 21
88.305569
 31
0.0
  0
ARC
  5
1D6
100
AcDbEntity
  8
0
  6
Continuous
 62
   174
100
AcDbCircle
 10
207.787365
 20
103.305569
 30
0.0
 40
10.48
100
AcDbArc
 50
-360.0
 51
-180.0
  0
LINE
  5
1D7
100
AcDbEntity
  8
0
  6
Continuous
 62
   174
100
AcDbLine
 10
264.787365
 20
118.305569
 30
0.0
 11
264.787365
 21
88.305569
 31
0.0
  0
LINE
  5
1D8
100
AcDbEntity
  8
0
  6
Continuous
 62
   174
100
AcDbLine
 10
124.287365
 20
113.805569
 30
0.0
 11
147.287365
 21
113.805569
 31
0.0
  0
LINE
  5
1D9
100
AcDbEntity
  8
0
  6
Continuous
 62
   174
100
AcDbLine
 10
306.287365
 20
96.743503
 30
0.0
 11
306.287365
 21
109.95542
 31
0.0
  0
LINE
  5
1DA
100
AcDbEntity
  8
0
  6
Continuous
 62
   174
100
AcDbLine
 10
105.587365
 20
103.25964
 30
0.0
 11
105.587365
 21
95.601053
 31
0.0
  0
LINE
  5
1DB
100
AcDbEntity
  8
0
  6
Continuous
 62
   174
100
AcDbLine
 10
313.094544
 20
111.054442
 30
0.0
 11
309.987365
 21
111.054442
 31
0.0
  0
LINE
  5
1DC
100
AcDbEntity
  8
0
  6
Continuous
 62
   174
100
AcDbLine
 10
101.787365
 20
106.451468
 30
0.0
 11
101.787365
 21
95.601053
 31
0.0
  0
LWPOLYLINE
  5
1DD
100
AcDbEntity
  8
0
  6
Continuous
 62
   174
100
AcDbPolyline
 90
        3
 70
   128
 10
313.094544
 20
95.466763
 10
313.460647
 20
95.466763
 10
313.688747
 20
95.466763
  0
LINE
  5
1DE
100
AcDbEntity
  8
0
  6
Continuous
 62
   174
100
AcDbLine
 10
277.531096
 20
105.282752
 30
0.0
 11
281.764548
 21
101.0493
 31
0.0
  0
LINE
  5
1DF
100
AcDbEntity
  8
0
  6
Continuous
 62
   174
100
AcDbLine
 10
309.287365
 20
112.305569
 30
0.0
 11
309.987365
 21
112.305569
 31
0.0
  0
LINE
  5
1E0
100
AcDbEntity
  8
0
  6
Continuous
 62
   174
100
AcDbLine
 10
101.787365
 20
111.105569
 30
0.0
 11
101.885961
 21
111.276342
 31
0.0
  0
LINE
  5
1E1
100
AcDbEntity
  8
0
  6
Continuous
 62
   174
100
AcDbLine
 10
306.287365
 20
95.305569
 30
0.0
 11
294.245405
 21
95.305569
 31
0.0
  0
LINE
  5
1E2
100
AcDbEntity
  8
0
  6
Continuous
 62
   174
100
AcDbLine
 10
291.287365
 20
92.805569
 30
0.0
 11
268.287365
 21
92.805569
 31
0.0
  0
LINE
  5
1E3
100
AcDbEntity
  8
0
  6
Continuous
 62
   174
100
AcDbLine
 10
248.787365
 20
118.305569
 30
0.0
 11
248.787365
 21
88.305569
 31
0.0
  0
ARC
  5
1E4
100
AcDbEntity
  8
0
  6
Continuous
 62
   174
100
AcDbCircle
 10
279.787365
 20
103.305569
 30
0.0
 40
3.0
100
AcDbArc
 50
-221.228296
 51
-48.771704
  0
LINE
  5
1E5
100
AcDbEntity
  8
0
  6
Continuous
 62
   174
100
AcDbLine
 10
306.287365
 20
109.805569
 30
0.0
 11
309.287365
 21
109.805569
 31
0.0
  0
LINE
  5
1E6
100
AcDbEntity
  8
0
  6
Continuous
 62
   174
100
AcDbLine
 10
306.287365
 20
96.805569
 30
0.0
 11
309.287365
 21
96.805569
 31
0.0
  0
LINE
  5
1E7
100
AcDbEntity
  8
0
  6
Continuous
 62
   174
100
AcDbLine
 10
109.287365
 20
109.805569
 30
0.0
 11
106.287365
 21
109.805569
 31
0.0
  0
LINE
  5
1E8
100
AcDbEntity
  8
0
  6
Continuous
 62
   174
100
AcDbLine
 10
309.287365
 20
94.305569
 30
0.0
 11
309.987365
 21
94.305569
 31
0.0
  0
LINE
  5
1E9
100
AcDbEntity
  8
0
  6
Continuous
 62
   174
100
AcDbLine
 10
306.287365
 20
111.305569
 30
0.0
 11
294.245405
 21
111.305569
 31
0.0
  0
LINE
  5
1EA
100
AcDbEntity
  8
0
  6
Continuous
 62
   174
100
AcDbLine
 10
109.287365
 20
95.305569
 30
0.0
 11
121.329325
 21
95.305569
 31
0.0
  0
LINE
  5
1EB
100
AcDbEntity
  8
0
  6
Continuous
 62
   174
100
AcDbLine
 10
121.287365
 20
109.550567
 30
0.0
 11
121.287365
 21
110.805569
 31
0.0
  0
LINE
  5
1EC
100
AcDbEntity
  8
0
  6
Continuous
 62
   174
100
AcDbLine
 10
265.287365
 20
95.805569
 30
0.0
 11
265.287365
 21
110.805569
 31
0.0
  0
ARC
  5
1ED
100
AcDbEntity
  8
0
  6
Continuous
 62
   174
100
AcDbCircle
 10
207.787365
 20
103.305569
 30
0.0
 40
10.48
100
AcDbArc
 50
-180.0
 51
-61.197359
  0
LINE
  5
1EE
100
AcDbEntity
  8
0
  6
Continuous
 62
   174
100
AcDbLine
 10
248.787365
 20
88.305569
 30
0.0
 11
166.787365
 21
88.305569
 31
0.0
  0
LINE
  5
1EF
100
AcDbEntity
  8
0
  6
Continuous
 62
   174
100
AcDbLine
 10
248.787365
 20
118.305569
 30
0.0
 11
264.787365
 21
118.305569
 31
0.0
  0
LINE
  5
1F0
100
AcDbEntity
  8
0
  6
Continuous
 62
   174
100
AcDbLine
 10
306.287365
 20
95.349913
 30
0.0
 11
306.287365
 21
96.743503
 31
0.0
  0
LINE
  5
1F1
100
AcDbEntity
  8
0
  6
Continuous
 62
   174
100
AcDbLine
 10
106.287365
 20
110.063267
 30
0.0
 11
106.287365
 21
112.348766
 31
0.0
  0
LINE
  5
1F2
100
AcDbEntity
  8
0
  6
Continuous
 62
   174
100
AcDbLine
 10
105.587365
 20
95.601053
 30
0.0
 11
105.587365
 21
94.350157
 31
0.0
  0
LINE
  5
1F3
100
AcDbEntity
  8
0
  6
Continuous
 62
   174
100
AcDbLine
 10
309.987365
 20
95.511231
 30
0.0
 11
309.987365
 21
103.439283
 31
0.0
  0
LWPOLYLINE
  5
1F4
100
AcDbEntity
  8
0
  6
Continuous
 62
   174
100
AcDbPolyline
 90
        4
 70
   128
 10
101.787365
 20
95.556696
 10
101.920485
 20
95.556696
 10
102.15357
 20
95.556696
 10
102.480185
 20
95.556696
  0
LINE
  5
1F5
100
AcDbEntity
  8
0
  6
Continuous
 62
   174
100
AcDbLine
 10
313.787365
 20
100.247455
 30
0.0
 11
313.787365
 21
111.09787
 31
0.0
  0
LINE
  5
1F6
100
AcDbEntity
  8
0
  6
Continuous
 62
   174
100
AcDbLine
 10
313.79086
 20
95.466763
 30
0.0
 11
313.714256
 21
95.466763
 31
0.0
  0
LINE
  5
1F7
100
AcDbEntity
  8
0
  6
Continuous
 62
   174
100
AcDbLine
 10
105.587365
 20
111.144375
 30
0.0
 11
102.480185
 21
111.144375
 31
0.0
  0
LINE
  5
1F8
100
AcDbEntity
  8
0
  6
Continuous
 62
   174
100
AcDbLine
 10
133.400517
 20
105.122974
 30
0.0
 11
137.604769
 21
100.918722
 31
0.0
  0
LINE
  5
1F9
100
AcDbEntity
  8
0
  6
Continuous
 62
   174
100
AcDbLine
 10
166.787365
 20
118.305569
 30
0.0
 11
166.787365
 21
88.305569
 31
0.0
  0
LINE
  5
1FA
100
AcDbEntity
  8
0
  6
Continuous
 62
   174
100
AcDbLine
 10
309.287365
 20
96.635656
 30
0.0
 11
309.287365
 21
94.350157
 31
0.0
  0
LINE
  5
1FB
100
AcDbEntity
  8
0
  6
Continuous
 62
   174
100
AcDbLine
 10
309.987365
 20
103.439283
 30
0.0
 11
309.987365
 21
111.09787
 31
0.0
  0
LINE
  5
1FC
100
AcDbEntity
  8
0
  6
Continuous
 62
   174
100
AcDbLine
 10
105.587365
 20
111.187692
 30
0.0
 11
105.587365
 21
103.25964
 31
0.0
  0
LWPOLYLINE
  5
1FD
100
AcDbEntity
  8
0
  6
Continuous
 62
   174
100
AcDbPolyline
 90
        4
 70
   128
 10
313.787365
 20
111.054442
 10
313.654244
 20
111.054442
 10
313.421159
 20
111.054442
 10
313.094544
 20
111.054442
  0
LINE
  5
1FE
100
AcDbEntity
  8
0
  6
Continuous
 62
   174
100
AcDbLine
 10
113.087365
 20
94.691173
 30
0.0
 11
119.287365
 21
94.691173
 31
0.0
  0
LINE
  5
1FF
100
AcDbEntity
  8
0
  6
Continuous
 62
   174
100
AcDbLine
 10
124.287365
 20
92.805569
 30
0.0
 11
147.287365
 21
92.805569
 31
0.0
  0
LINE
  5
200
100
AcDbEntity
  8
0
  6
Continuous
 62
   174
100
AcDbLine
 10
291.287365
 20
103.305569
 30
0.0
 11
291.287365
 21
95.805569
 31
0.0
  0
LINE
  5
201
100
AcDbEntity
  8
0
  6
Continuous
 62
   174
100
AcDbLine
 10
294.287365
 20
109.550567
 30
0.0
 11
294.287365
 21
110.805569
 31
0.0
  0
LINE
  5
202
100
AcDbEntity
  8
0
  6
Continuous
 62
   174
100
AcDbLine
 10
119.287365
 20
113.305569
 30
0.0
 11
119.787365
 21
113.305569
 31
0.0
  0
ARC
  5
203
100
AcDbEntity
  8
0
  6
Continuous
 62
   174
100
AcDbCircle
 10
124.287365
 20
110.805569
 30
0.0
 40
3.0
100
AcDbArc
 50
-270.0
 51
-180.0
  0
LINE
  5
204
100
AcDbEntity
  8
0
  6
Continuous
 62
   174
100
AcDbLine
 10
295.787365
 20
93.305569
 30
0.0
 11
294.787365
 21
93.305569
 31
0.0
  0
ARC
  5
205
100
AcDbEntity
  8
0
  6
Continuous
 62
   174
100
AcDbCircle
 10
161.787365
 20
103.305569
 30
0.0
 40
3.0
100
AcDbArc
 50
-90.0
 51
90.0
  0
LINE
  5
206
100
AcDbEntity
  8
0
  6
Continuous
 62
   174
100
AcDbLine
 10
113.087365
 20
111.918199
 30
0.0
 11
119.287365
 21
111.918199
 31
0.0
  0
LINE
  5
207
100
AcDbEntity
  8
0
  6
Continuous
 62
   174
100
AcDbLine
 10
119.287365
 20
113.030391
 30
0.0
 11
119.287365
 21
113.23617
 31
0.0
  0
ARC
  5
208
100
AcDbEntity
  8
0
  6
Continuous
 62
   174
100
AcDbCircle
 10
161.787365
 20
103.305569
 30
0.0
 40
3.0
100
AcDbArc
 50
-270.0
 51
-90.0
  0
LINE
  5
209
100
AcDbEntity
  8
0
  6
Continuous
 62
   174
100
AcDbLine
 10
113.087365
 20
95.305569
 30
0.0
 11
113.087365
 21
94.691173
 31
0.0
  0
LINE
  5
20A
100
AcDbEntity
  8
0
  6
Continuous
 62
   174
100
AcDbLine
 10
302.487365
 20
94.692939
 30
0.0
 11
296.287365
 21
94.692939
 31
0.0
  0
LINE
  5
20B
100
AcDbEntity
  8
0
  6
Continuous
 62
   174
100
AcDbLine
 10
120.787365
 20
111.305569
 30
0.0
 11
120.787365
 21
114.305569
 31
0.0
  0
LINE
  5
20C
100
AcDbEntity
  8
0
  6
Continuous
 62
   174
100
AcDbLine
 10
147.312884
 20
110.805569
 30
0.0
 11
150.313053
 21
110.805569
 31
0.0
  0
LINE
  5
20D
100
AcDbEntity
  8
0
  6
Continuous
 62
   174
100
AcDbLine
 10
296.287365
 20
113.305569
 30
0.0
 11
295.787365
 21
113.305569
 31
0.0
  0
ARC
  5
20E
100
AcDbEntity
  8
0
  6
Continuous
 62
   174
100
AcDbCircle
 10
268.287365
 20
110.805569
 30
0.0
 40
3.0
100
AcDbArc
 50
-270.0
 51
-180.0
  0
LINE
  5
20F
100
AcDbEntity
  8
0
  6
Continuous
 62
   174
100
AcDbLine
 10
265.312915
 20
110.805569
 30
0.0
 11
268.313084
 21
110.805569
 31
0.0
  0
LINE
  5
210
100
AcDbEntity
  8
0
  6
Continuous
 62
   174
100
AcDbLine
 10
268.287365
 20
95.850091
 30
0.0
 11
268.287365
 21
92.850223
 31
0.0
  0
LINE
  5
211
100
AcDbEntity
  8
0
  6
Continuous
 62
   174
100
AcDbLine
 10
121.287365
 20
110.805569
 30
0.0
 11
121.287365
 21
109.550567
 31
0.0
  0
ARC
  5
212
100
AcDbEntity
  8
0
  6
Continuous
 62
   174
100
AcDbCircle
 10
161.787365
 20
103.305569
 30
0.0
 40
2.6
100
AcDbArc
 50
-266.82017
 51
-93.17983
  0
LINE
  5
213
100
AcDbEntity
  8
0
  6
Continuous
 62
   174
100
AcDbLine
 10
302.487365
 20
111.919965
 30
0.0
 11
296.287365
 21
111.919965
 31
0.0
  0
LINE
  5
214
100
AcDbEntity
  8
0
  6
Continuous
 62
   174
100
AcDbLine
 10
295.787365
 20
113.305569
 30
0.0
 11
294.787365
 21
113.305569
 31
0.0
  0
LINE
  5
215
100
AcDbEntity
  8
0
  6
Continuous
 62
   174
100
AcDbLine
 10
124.313092
 20
110.805569
 30
0.0
 11
121.312923
 21
110.805569
 31
0.0
  0
LINE
  5
216
100
AcDbEntity
  8
0
  6
Continuous
 62
   174
100
AcDbLine
 10
296.287365
 20
113.348823
 30
0.0
 11
296.287365
 21
113.23617
 31
0.0
  0
LINE
  5
217
100
AcDbEntity
  8
0
  6
Continuous
 62
   174
100
AcDbLine
 10
150.787365
 20
92.305569
 30
0.0
 11
120.787365
 21
92.305569
 31
0.0
  0
LINE
  5
218
100
AcDbEntity
  8
0
  6
Continuous
 62
   174
100
AcDbLine
 10
302.487365
 20
112.988027
 30
0.0
 11
296.287365
 21
112.988027
 31
0.0
  0
LINE
  5
219
100
AcDbEntity
  8
0
  6
Continuous
 62
   174
100
AcDbLine
 10
113.087365
 20
93.623111
 30
0.0
 11
119.287365
 21
93.623111
 31
0.0
  0
LINE
  5
21A
100
AcDbEntity
  8
0
  6
Continuous
 62
   174
100
AcDbLine
 10
291.312876
 20
95.805569
 30
0.0
 11
294.313045
 21
95.805569
 31
0.0
  0
LINE
  5
21B
100
AcDbEntity
  8
0
  6
Continuous
 62
   174
100
AcDbLine
 10
291.287365
 20
95.805569
 30
0.0
 11
268.287365
 21
95.805569
 31
0.0
  0
LINE
  5
21C
100
AcDbEntity
  8
0
  6
Continuous
 62
   174
100
AcDbLine
 10
294.787365
 20
114.305569
 30
0.0
 11
294.787365
 21
111.305569
 31
0.0
  0
LINE
  5
21D
100
AcDbEntity
  8
0
  6
Continuous
 62
   174
100
AcDbLine
 10
268.287365
 20
92.805569
 30
0.0
 11
291.287365
 21
92.805569
 31
0.0
  0
LINE
  5
21E
100
AcDbEntity
  8
0
  6
Continuous
 62
   174
100
AcDbLine
 10
291.287365
 20
113.805569
 30
0.0
 11
268.287365
 21
113.805569
 31
0.0
  0
LINE
  5
21F
100
AcDbEntity
  8
0
  6
Continuous
 62
   174
100
AcDbLine
 10
124.287365
 20
110.848832
 30
0.0
 11
124.287365
 21
113.848701
 31
0.0
  0
LINE
  5
220
100
AcDbEntity
  8
0
  6
Continuous
 62
   174
100
AcDbLine
 10
295.787365
 20
93.305569
 30
0.0
 11
294.787365
 21
93.305569
 31
0.0
  0
LINE
  5
221
100
AcDbEntity
  8
0
  6
Continuous
 62
   174
100
AcDbLine
 10
147.287365
 20
113.805569
 30
0.0
 11
124.287365
 21
113.805569
 31
0.0
  0
LINE
  5
222
100
AcDbEntity
  8
0
  6
Continuous
 62
   174
100
AcDbLine
 10
124.287365
 20
92.850223
 30
0.0
 11
124.287365
 21
95.850091
 31
0.0
  0
LINE
  5
223
100
AcDbEntity
  8
0
  6
Continuous
 62
   174
100
AcDbLine
 10
302.487365
 20
94.692939
 30
0.0
 11
302.487365
 21
95.305569
 31
0.0
  0
LINE
  5
224
100
AcDbEntity
  8
0
  6
Continuous
 62
   174
100
AcDbLine
 10
268.287365
 20
95.805569
 30
0.0
 11
268.287365
 21
110.805569
 31
0.0
  0
LWPOLYLINE
  5
225
100
AcDbEntity
  8
0
  6
Continuous
 62
   174
100
AcDbPolyline
 90
        6
 70
   128
 10
124.287365
 20
103.305569
 10
123.382049
 20
104.794929
 10
122.573744
 20
106.188678
 10
121.911896
 20
107.467339
 10
121.46007
 20
108.593444
 10
121.287365
 20
109.550567
  0
LWPOLYLINE
  5
226
100
AcDbEntity
  8
0
  6
Continuous
 62
   174
100
AcDbPolyline
 90
        6
 70
   128
 10
294.287365
 20
109.550567
 10
294.115022
 20
108.594605
 10
293.663222
 20
107.468165
 10
293.000151
 20
106.187175
 10
292.191621
 20
104.793159
 10
291.287365
 20
103.305569
  0
LINE
  5
227
100
AcDbEntity
  8
0
  6
Continuous
 62
   174
100
AcDbLine
 10
124.287365
 20
110.805569
 30
0.0
 11
147.287365
 21
110.805569
 31
0.0
  0
LINE
  5
228
100
AcDbEntity
  8
0
  6
Continuous
 62
   174
100
AcDbLine
 10
119.287365
 20
93.462753
 30
0.0
 11
119.287365
 21
93.667631
 31
0.0
  0
LINE
  5
229
100
AcDbEntity
  8
0
  6
Continuous
 62
   174
100
AcDbLine
 10
296.287365
 20
111.963344
 30
0.0
 11
296.287365
 21
111.375146
 31
0.0
  0
LWPOLYLINE
  5
22A
100
AcDbEntity
  8
0
  6
Continuous
 62
   174
100
AcDbPolyline
 90
        4
 70
   128
 10
102.480185
 20
103.215635
 10
102.152284
 20
104.300605
 10
101.91953
 20
105.359603
 10
101.787365
 20
106.407847
  0
ARC
  5
22B
100
AcDbEntity
  8
0
  6
Continuous
 62
   174
100
AcDbCircle
 10
253.787365
 20
103.305569
 30
0.0
 40
3.0
100
AcDbArc
 50
-270.0
 51
-90.0
  0
LINE
  5
22C
100
AcDbEntity
  8
0
  6
Continuous
 62
   174
100
AcDbLine
 10
302.487365
 20
93.62398
 30
0.0
 11
296.287365
 21
93.62398
 31
0.0
  0
LINE
  5
22D
100
AcDbEntity
  8
0
  6
Continuous
 62
   174
100
AcDbLine
 10
268.287365
 20
110.805569
 30
0.0
 11
291.287365
 21
110.805569
 31
0.0
  0
LINE
  5
22E
100
AcDbEntity
  8
0
  6
Continuous
 62
   174
100
AcDbLine
 10
120.787365
 20
114.305569
 30
0.0
 11
150.787365
 21
114.305569
 31
0.0
  0
LINE
  5
22F
100
AcDbEntity
  8
0
  6
Continuous
 62
   174
100
AcDbLine
 10
147.287365
 20
110.805569
 30
0.0
 11
147.287365
 21
95.805569
 31
0.0
  0
ARC
  5
230
100
AcDbEntity
  8
0
  6
Continuous
 62
   174
100
AcDbCircle
 10
291.287365
 20
110.805569
 30
0.0
 40
3.0
100
AcDbArc
 50
0.0
 51
90.0
  0
LINE
  5
231
100
AcDbEntity
  8
0
  6
Continuous
 62
   174
100
AcDbLine
 10
291.287365
 20
110.805569
 30
0.0
 11
291.287365
 21
103.305569
 31
0.0
  0
ARC
  5
232
100
AcDbEntity
  8
0
  6
Continuous
 62
   174
100
AcDbCircle
 10
291.287365
 20
95.805569
 30
0.0
 40
3.0
100
AcDbArc
 50
-90.0
 51
0.0
  0
LINE
  5
233
100
AcDbEntity
  8
0
  6
Continuous
 62
   174
100
AcDbLine
 10
294.787365
 20
95.305569
 30
0.0
 11
294.787365
 21
92.305569
 31
0.0
  0
LINE
  5
234
100
AcDbEntity
  8
0
  6
Continuous
 62
   174
100
AcDbLine
 10
147.287365
 20
95.805569
 30
0.0
 11
124.287365
 21
95.805569
 31
0.0
  0
LINE
  5
235
100
AcDbEntity
  8
0
  6
Continuous
 62
   174
100
AcDbLine
 10
119.287365
 20
113.23617
 30
0.0
 11
119.287365
 21
113.348823
 31
0.0
  0
LINE
  5
236
100
AcDbEntity
  8
0
  6
Continuous
 62
   174
100
AcDbLine
 10
302.487365
 20
111.305569
 30
0.0
 11
302.487365
 21
111.919965
 31
0.0
  0
LINE
  5
237
100
AcDbEntity
  8
0
  6
Continuous
 62
   174
100
AcDbLine
 10
119.787365
 20
93.305569
 30
0.0
 11
120.787365
 21
93.305569
 31
0.0
  0
LINE
  5
238
100
AcDbEntity
  8
0
  6
Continuous
 62
   174
100
AcDbLine
 10
119.287365
 20
93.350101
 30
0.0
 11
119.287365
 21
93.462753
 31
0.0
  0
LINE
  5
239
100
AcDbEntity
  8
0
  6
Continuous
 62
   174
100
AcDbLine
 10
268.313084
 20
95.805569
 30
0.0
 11
265.312915
 21
95.805569
 31
0.0
  0
LINE
  5
23A
100
AcDbEntity
  8
0
  6
Continuous
 62
   174
100
AcDbLine
 10
150.313053
 20
95.805569
 30
0.0
 11
147.312884
 21
95.805569
 31
0.0
  0
LINE
  5
23B
100
AcDbEntity
  8
0
  6
Continuous
 62
   174
100
AcDbLine
 10
147.287365
 20
110.848832
 30
0.0
 11
147.287365
 21
113.848701
 31
0.0
  0
LINE
  5
23C
100
AcDbEntity
  8
0
  6
Continuous
 62
   174
100
AcDbLine
 10
124.287365
 20
95.805569
 30
0.0
 11
124.287365
 21
103.305569
 31
0.0
  0
LINE
  5
23D
100
AcDbEntity
  8
0
  6
Continuous
 62
   174
100
AcDbLine
 10
294.287365
 20
95.805569
 30
0.0
 11
294.287365
 21
97.060571
 31
0.0
  0
LINE
  5
23E
100
AcDbEntity
  8
0
  6
Continuous
 62
   174
100
AcDbLine
 10
119.287365
 20
94.735579
 30
0.0
 11
119.287365
 21
95.323777
 31
0.0
  0
LINE
  5
23F
100
AcDbEntity
  8
0
  6
Continuous
 62
   174
100
AcDbLine
 10
264.787365
 20
114.305569
 30
0.0
 11
294.787365
 21
114.305569
 31
0.0
  0
LINE
  5
240
100
AcDbEntity
  8
0
  6
Continuous
 62
   174
100
AcDbLine
 10
147.287365
 20
92.850223
 30
0.0
 11
147.287365
 21
95.850091
 31
0.0
  0
ARC
  5
241
100
AcDbEntity
  8
0
  6
Continuous
 62
   174
100
AcDbCircle
 10
124.287365
 20
95.805569
 30
0.0
 40
3.0
100
AcDbArc
 50
-180.0
 51
-90.0
  0
LINE
  5
242
100
AcDbEntity
  8
0
  6
Continuous
 62
   174
100
AcDbLine
 10
296.287365
 20
93.305569
 30
0.0
 11
295.787365
 21
93.305569
 31
0.0
  0
LINE
  5
243
100
AcDbEntity
  8
0
  6
Continuous
 62
   174
100
AcDbLine
 10
119.787365
 20
113.305569
 30
0.0
 11
120.787365
 21
113.305569
 31
0.0
  0
LINE
  5
244
100
AcDbEntity
  8
0
  6
Continuous
 62
   174
100
AcDbLine
 10
296.287365
 20
95.323777
 30
0.0
 11
296.287365
 21
94.737382
 31
0.0
  0
LINE
  5
245
100
AcDbEntity
  8
0
  6
Continuous
 62
   174
100
AcDbLine
 10
294.313045
 20
110.805569
 30
0.0
 11
291.312876
 21
110.805569
 31
0.0
  0
LINE
  5
246
100
AcDbEntity
  8
0
  6
Continuous
 62
   174
100
AcDbLine
 10
120.787365
 20
92.305569
 30
0.0
 11
120.787365
 21
95.305569
 31
0.0
  0
LINE
  5
247
100
AcDbEntity
  8
0
  6
Continuous
 62
   174
100
AcDbLine
 10
113.087365
 20
111.918199
 30
0.0
 11
113.087365
 21
111.305569
 31
0.0
  0
LINE
  5
248
100
AcDbEntity
  8
0
  6
Continuous
 62
   174
100
AcDbLine
 10
309.987365
 20
103.395502
 30
0.0
 11
313.094544
 21
103.395502
 31
0.0
  0
LINE
  5
249
100
AcDbEntity
  8
0
  6
Continuous
 62
   174
100
AcDbLine
 10
150.287365
 20
95.805569
 30
0.0
 11
150.287365
 21
110.805569
 31
0.0
  0
LINE
  5
24A
100
AcDbEntity
  8
0
  6
Continuous
 62
   174
100
AcDbLine
 10
121.312923
 20
95.805569
 30
0.0
 11
124.313092
 21
95.805569
 31
0.0
  0
LINE
  5
24B
100
AcDbEntity
  8
0
  6
Continuous
 62
   174
100
AcDbLine
 10
121.287365
 20
97.060571
 30
0.0
 11
121.287365
 21
95.805569
 31
0.0
  0
LINE
  5
24C
100
AcDbEntity
  8
0
  6
Continuous
 62
   174
100
AcDbLine
 10
119.787365
 20
113.305569
 30
0.0
 11
120.787365
 21
113.305569
 31
0.0
  0
LINE
  5
24D
100
AcDbEntity
  8
0
  6
Continuous
 62
   174
100
AcDbLine
 10
124.287365
 20
103.305569
 30
0.0
 11
124.287365
 21
110.805569
 31
0.0
  0
ARC
  5
24E
100
AcDbEntity
  8
0
  6
Continuous
 62
   174
100
AcDbCircle
 10
268.287365
 20
95.805569
 30
0.0
 40
3.0
100
AcDbArc
 50
-180.0
 51
-90.0
  0
LWPOLYLINE
  5
24F
100
AcDbEntity
  8
0
  6
Continuous
 62
   174
100
AcDbPolyline
 90
        7
 70
   128
 10
313.094544
 20
111.054442
 10
313.460671
 20
109.752475
 10
313.688769
 20
108.475873
 10
313.765672
 20
107.224903
 10
313.688754
 20
105.973948
 10
313.460654
 20
104.697393
 10
313.094544
 20
103.395502
  0
LINE
  5
250
100
AcDbEntity
  8
0
  6
Continuous
 62
   174
100
AcDbLine
 10
296.287365
 20
113.23617
 30
0.0
 11
296.287365
 21
113.031292
 31
0.0
  0
LINE
  5
251
100
AcDbEntity
  8
0
  6
Continuous
 62
   174
100
AcDbLine
 10
105.587365
 20
103.215635
 30
0.0
 11
102.480185
 21
103.215635
 31
0.0
  0
ARC
  5
252
100
AcDbEntity
  8
0
  6
Continuous
 62
   174
100
AcDbCircle
 10
253.787365
 20
103.305569
 30
0.0
 40
3.0
100
AcDbArc
 50
-90.0
 51
90.0
  0
LINE
  5
253
100
AcDbEntity
  8
0
  6
Continuous
 62
   174
100
AcDbLine
 10
294.787365
 20
92.305569
 30
0.0
 11
264.787365
 21
92.305569
 31
0.0
  0
LINE
  5
254
100
AcDbEntity
  8
0
  6
Continuous
 62
   174
100
AcDbLine
 10
119.287365
 20
111.375146
 30
0.0
 11
119.287365
 21
111.961541
 31
0.0
  0
LINE
  5
255
100
AcDbEntity
  8
0
  6
Continuous
 62
   174
100
AcDbLine
 10
265.287365
 20
110.805569
 30
0.0
 11
265.287365
 21
95.805569
 31
0.0
  0
LINE
  5
256
100
AcDbEntity
  8
0
  6
Continuous
 62
   174
100
AcDbLine
 10
291.287365
 20
113.848701
 30
0.0
 11
291.287365
 21
110.848832
 31
0.0
  0
LWPOLYLINE
  5
257
100
AcDbEntity
  8
0
  6
Continuous
 62
   174
100
AcDbPolyline
 90
        7
 70
   128
 10
102.480185
 20
95.556696
 10
102.114058
 20
96.858662
 10
101.885961
 20
98.135264
 10
101.809057
 20
99.386235
 10
101.885975
 20
100.63719
 10
102.114076
 20
101.913745
 10
102.480185
 20
103.215635
  0
ARC
  5
258
100
AcDbEntity
  8
0
  6
Continuous
 62
   174
100
AcDbCircle
 10
147.287365
 20
110.805569
 30
0.0
 40
3.0
100
AcDbArc
 50
0.0
 51
90.0
  0
LINE
  5
259
100
AcDbEntity
  8
0
  6
Continuous
 62
   174
100
AcDbLine
 10
119.287365
 20
93.305569
 30
0.0
 11
119.787365
 21
93.305569
 31
0.0
  0
LINE
  5
25A
100
AcDbEntity
  8
0
  6
Continuous
 62
   174
100
AcDbLine
 10
296.287365
 20
93.462753
 30
0.0
 11
296.287365
 21
93.350101
 31
0.0
  0
LINE
  5
25B
100
AcDbEntity
  8
0
  6
Continuous
 62
   174
100
AcDbLine
 10
113.087365
 20
112.987157
 30
0.0
 11
119.287365
 21
112.987157
 31
0.0
  0
LWPOLYLINE
  5
25C
100
AcDbEntity
  8
0
  6
Continuous
 62
   174
100
AcDbPolyline
 90
        4
 70
   128
 10
313.094544
 20
103.395502
 10
313.422445
 20
102.310533
 10
313.655199
 20
101.251535
 10
313.787365
 20
100.203291
  0
LINE
  5
25D
100
AcDbEntity
  8
0
  6
Continuous
 62
   174
100
AcDbLine
 10
296.287365
 20
93.668532
 30
0.0
 11
296.287365
 21
93.462753
 31
0.0
  0
LINE
  5
25E
100
AcDbEntity
  8
0
  6
Continuous
 62
   174
100
AcDbLine
 10
268.287365
 20
113.848701
 30
0.0
 11
268.287365
 21
110.848832
 31
0.0
  0
ARC
  5
25F
100
AcDbEntity
  8
0
  6
Continuous
 62
   174
100
AcDbCircle
 10
147.287365
 20
95.805569
 30
0.0
 40
3.0
100
AcDbArc
 50
-90.0
 51
0.0
  0
LWPOLYLINE
  5
260
100
AcDbEntity
  8
0
  6
Continuous
 62
   174
100
AcDbPolyline
 90
        6
 70
   128
 10
291.287365
 20
103.305569
 10
292.192681
 20
101.816209
 10
293.000986
 20
100.42246
 10
293.662834
 20
99.143799
 10
294.114659
 20
98.017694
 10
294.287365
 20
97.060571
  0
ARC
  5
261
100
AcDbEntity
  8
0
  6
Continuous
 62
   174
100
AcDbCircle
 10
253.787365
 20
103.305569
 30
0.0
 40
2.6
100
AcDbArc
 50
-86.82017
 51
86.82017
  0
LINE
  5
262
100
AcDbEntity
  8
0
  6
Continuous
 62
   174
100
AcDbLine
 10
291.287365
 20
95.850091
 30
0.0
 11
291.287365
 21
92.850223
 31
0.0
  0
LWPOLYLINE
  5
263
100
AcDbEntity
  8
0
  6
Continuous
 62
   174
100
AcDbPolyline
 90
        6
 70
   128
 10
121.287365
 20
97.060571
 10
121.459707
 20
98.016533
 10
121.911508
 20
99.142972
 10
122.574578
 20
100.423963
 10
123.383109
 20
101.817979
 10
124.287365
 20
103.305569
  0
ENDBLK
  5
264
100
AcDbEntity
  8
0
100
AcDbBlockEnd
  0
BLOCK
  5
267
100
AcDbEntity
  8
0
100
AcDbBlockBegin
  2
*B3
 70
     0
 10
0.0
 20
0.0
 30
0.0
  3
*B3
  1

  0
LINE
  5
268
100
AcDbEntity
  8
0
  6
Continuous
 62
   172
100
AcDbLine
 10
135.288979
 20
194.925271
 30
0.0
 11
105.803231
 21
144.783682
 31
0.0
  0
LINE
  5
269
100
AcDbEntity
  8
0
  6
Continuous
 62
   172
100
AcDbLine
 10
105.803231
 20
144.783682
 30
0.0
 11
91.788979
 21
144.783682
 31
0.0
  0
ENDBLK
  5
26A
100
AcDbEntity
  8
0
100
AcDbBlockEnd
  0
BLOCK
  5
26D
100
AcDbEntity
  8
0
100
AcDbBlockBegin
  2
*B4
 70
     0
 10
0.0
 20
0.0
 30
0.0
  3
*B4
  1

  0
LINE
  5
26E
100
AcDbEntity
  8
0
  6
Continuous
 62
   172
100
AcDbLine
 10
102.891304
 20
147.822945
 30
0.0
 11
99.891304
 21
148.925271
 31
0.0
  0
LINE
  5
26F
100
AcDbEntity
  8
0
  6
Continuous
 62
   172
100
AcDbLine
 10
102.891304
 20
147.822945
 30
0.0
 11
99.891304
 21
146.925271
 31
0.0
  0
LINE
  5
270
100
AcDbEntity
  8
0
  6
Continuous
 62
   172
100
AcDbLine
 10
100.891304
 20
147.822945
 30
0.0
 11
102.891304
 21
147.822945
 31
0.0
  0
LINE
  5
271
100
AcDbEntity
  8
0
  6
Continuous
 62
   172
100
AcDbLine
 10
102.891304
 20
165.027596
 30
0.0
 11
99.891304
 21
163.925271
 31
0.0
  0
LINE
  5
272
100
AcDbEntity
  8
0
  6
Continuous
 62
   172
100
AcDbLine
 10
102.891304
 20
165.027596
 30
0.0
 11
99.891304
 21
165.925271
 31
0.0
  0
LINE
  5
273
100
AcDbEntity
  8
0
  6
Continuous
 62
   172
100
AcDbLine
 10
100.891304
 20
165.027596
 30
0.0
 11
102.891304
 21
165.027596
 31
0.0
  0
ARC
  5
274
100
AcDbEntity
  8
0
  6
Continuous
 62
   172
100
AcDbCircle
 10
100.891304
 20
156.425271
 30
0.0
 40
8.602325
100
AcDbArc
 50
-270.0
 51
-90.0
  0
ENDBLK
  5
275
100
AcDbEntity
  8
0
100
AcDbBlockEnd
  0
BLOCK
  5
278
100
AcDbEntity
  8
0
100
AcDbBlockBegin
  2
*B5
 70
     0
 10
0.0
 20
0.0
 30
0.0
  3
*B5
  1

  0
ENDBLK
  5
279
100
AcDbEntity
  8
0
100
AcDbBlockEnd
  0
BLOCK
  5
27B
100
AcDbEntity
  8
0
100
AcDbBlockBegin
  2
*B6
 70
     0
 10
0.0
 20
0.0
 30
0.0
  3
*B6
  1

  0
LINE
  5
27C
100
AcDbEntity
  8
0
  6
Continuous
 62
     0
100
AcDbLine
 10
264.813037
 20
268.031902
 30
0.0
 11
313.81309
 21
268.031902
 31
0.0
  0
SOLID
  5
27D
100
AcDbEntity
  8
0
  6
Continuous
 62
     0
100
AcDbTrace
 10
269.813018
 20
269.031959
 30
0.0
 11
264.813037
 21
268.031902
 31
0.0
 12
269.813018
 22
267.032146
 32
0.0
 13
269.813018
 23
267.032146
 33
0.0
  0
SOLID
  5
27E
100
AcDbEntity
  8
0
  6
Continuous
 62
     0
100
AcDbTrace
 10
308.813109
 20
267.032146
 30
0.0
 11
313.81309
 21
268.031902
 31
0.0
 12
308.813109
 22
269.031959
 32
0.0
 13
308.813109
 23
269.031959
 33
0.0
  0
ENDBLK
  5
27F
100
AcDbEntity
  8
0
100
AcDbBlockEnd
  0
BLOCK
  5
282
100
AcDbEntity
  8
0
100
AcDbBlockBegin
  2
*B7
 70
     0
 10
0.0
 20
0.0
 30
0.0
  3
*B7
  1

  0
LINE
  5
283
100
AcDbEntity
  8
0
  6
Continuous
 62
     0
100
AcDbLine
 10
150.812931
 20
268.031902
 30
0.0
 11
101.813178
 21
268.031902
 31
0.0
  0
SOLID
  5
284
100
AcDbEntity
  8
0
  6
Continuous
 62
     0
100
AcDbTrace
 10
145.81295
 20
267.032146
 30
0.0
 11
150.812931
 21
268.031902
 31
0.0
 12
145.81295
 22
269.031959
 32
0.0
 13
145.81295
 23
269.031959
 33
0.0
  0
SOLID
  5
285
100
AcDbEntity
  8
0
  6
Continuous
 62
     0
100
AcDbTrace
 10
106.813159
 20
269.031959
 30
0.0
 11
101.813178
 21
268.031902
 31
0.0
 12
106.813159
 22
267.032146
 32
0.0
 13
106.813159
 23
267.032146
 33
0.0
  0
ENDBLK
  5
286
100
AcDbEntity
  8
0
100
AcDbBlockEnd
  0
BLOCK
  5
289
100
AcDbEntity
  8
0
100
AcDbBlockBegin
  2
*B8
 70
     0
 10
0.0
 20
0.0
 30
0.0
  3
*B8
  1

  0
LINE
  5
28A
100
AcDbEntity
  8
0
  6
Continuous
 62
     0
100
AcDbLine
 10
264.813037
 20
142.041035
 30
0.0
 11
150.812931
 21
142.041035
 31
0.0
  0
SOLID
  5
28B
100
AcDbEntity
  8
0
  6
Continuous
 62
     0
100
AcDbTrace
 10
259.813056
 20
141.041279
 30
0.0
 11
264.813037
 21
142.041035
 31
0.0
 12
259.813056
 22
143.041091
 32
0.0
 13
259.813056
 23
143.041091
 33
0.0
  0
SOLID
  5
28C
100
AcDbEntity
  8
0
  6
Continuous
 62
     0
100
AcDbTrace
 10
155.812912
 20
143.041091
 30
0.0
 11
150.812931
 21
142.041035
 31
0.0
 12
155.812912
 22
141.041279
 32
0.0
 13
155.812912
 23
141.041279
 33
0.0
  0
ENDBLK
  5
28D
100
AcDbEntity
  8
0
100
AcDbBlockEnd
  0
BLOCK
  5
290
100
AcDbEntity
  8
0
100
AcDbBlockBegin
  2
*B9
 70
     0
 10
0.0
 20
0.0
 30
0.0
  3
*B9
  1

  0
LINE
  5
291
100
AcDbEntity
  8
0
  6
Continuous
 62
     0
100
AcDbLine
 10
248.813038
 20
158.039832
 30
0.0
 11
223.813133
 21
158.039832
 31
0.0
  0
SOLID
  5
292
100
AcDbEntity
  8
0
  6
Continuous
 62
     0
100
AcDbTrace
 10
243.813057
 20
157.040076
 30
0.0
 11
248.813038
 21
158.039832
 31
0.0
 12
243.813057
 22
159.039888
 32
0.0
 13
243.813057
 23
159.039888
 33
0.0
  0
SOLID
  5
293
100
AcDbEntity
  8
0
  6
Continuous
 62
     0
100
AcDbTrace
 10
228.813114
 20
159.039888
 30
0.0
 11
223.813133
 21
158.039832
 31
0.0
 12
228.813114
 22
157.040076
 32
0.0
 13
228.813114
 23
157.040076
 33
0.0
  0
ENDBLK
  5
294
100
AcDbEntity
  8
0
100
AcDbBlockEnd
  0
BLOCK
  5
297
100
AcDbEntity
  8
0
100
AcDbBlockBegin
  2
*B10
 70
     0
 10
0.0
 20
0.0
 30
0.0
  3
*B10
  1

  0
LINE
  5
298
100
AcDbEntity
  8
0
  6
Continuous
 62
     0
100
AcDbLine
 10
191.813135
 20
158.039832
 30
0.0
 11
223.813133
 21
158.039832
 31
0.0
  0
SOLID
  5
299
100
AcDbEntity
  8
0
  6
Continuous
 62
     0
100
AcDbTrace
 10
196.813116
 20
159.039888
 30
0.0
 11
191.813135
 21
158.039832
 31
0.0
 12
196.813116
 22
157.040076
 32
0.0
 13
196.813116
 23
157.040076
 33
0.0
  0
SOLID
  5
29A
100
AcDbEntity
  8
0
  6
Continuous
 62
     0
100
AcDbTrace
 10
218.812852
 20
157.040076
 30
0.0
 11
223.813133
 21
158.039832
 31
0.0
 12
218.812852
 22
159.039888
 32
0.0
 13
218.812852
 23
159.039888
 33
0.0
  0
ENDBLK
  5
29B
100
AcDbEntity
  8
0
100
AcDbBlockEnd
  0
BLOCK
  5
29E
100
AcDbEntity
  8
0
100
AcDbBlockBegin
  2
*B11
 70
     0
 10
0.0
 20
0.0
 30
0.0
  3
*B11
  1

  0
LINE
  5
29F
100
AcDbEntity
  8
0
  6
Continuous
 62
     0
100
AcDbLine
 10
166.81293
 20
158.039832
 30
0.0
 11
191.813135
 21
158.039832
 31
0.0
  0
SOLID
  5
2A0
100
AcDbEntity
  8
0
  6
Continuous
 62
     0
100
AcDbTrace
 10
171.812911
 20
159.039888
 30
0.0
 11
166.81293
 21
158.039832
 31
0.0
 12
171.812911
 22
157.040076
 32
0.0
 13
171.812911
 23
157.040076
 33
0.0
  0
SOLID
  5
2A1
100
AcDbEntity
  8
0
  6
Continuous
 62
     0
100
AcDbTrace
 10
186.813154
 20
157.040076
 30
0.0
 11
191.813135
 21
158.039832
 31
0.0
 12
186.813154
 22
159.039888
 32
0.0
 13
186.813154
 23
159.039888
 33
0.0
  0
ENDBLK
  5
2A2
100
AcDbEntity
  8
0
100
AcDbBlockEnd
  0
BLOCK
  5
2A5
100
AcDbEntity
  8
0
100
AcDbBlockBegin
  2
*B12
 70
     0
 10
0.0
 20
0.0
 30
0.0
  3
*B12
  1

  0
LINE
  5
2A6
100
AcDbEntity
  8
0
  6
Continuous
 62
     0
100
AcDbLine
 10
248.813038
 20
248.033481
 30
0.0
 11
207.813134
 21
248.033481
 31
0.0
  0
SOLID
  5
2A7
100
AcDbEntity
  8
0
  6
Continuous
 62
     0
100
AcDbTrace
 10
243.813057
 20
247.033424
 30
0.0
 11
248.813038
 21
248.033481
 31
0.0
 12
243.813057
 22
249.033537
 32
0.0
 13
243.813057
 23
249.033537
 33
0.0
  0
SOLID
  5
2A8
100
AcDbEntity
  8
0
  6
Continuous
 62
     0
100
AcDbTrace
 10
212.813115
 20
249.033537
 30
0.0
 11
207.813134
 21
248.033481
 31
0.0
 12
212.813115
 22
247.033424
 32
0.0
 13
212.813115
 23
247.033424
 33
0.0
  0
ENDBLK
  5
2A9
100
AcDbEntity
  8
0
100
AcDbBlockEnd
  0
BLOCK
  5
2AC
100
AcDbEntity
  8
0
100
AcDbBlockBegin
  2
*B13
 70
     0
 10
0.0
 20
0.0
 30
0.0
  3
*B13
  1

  0
LINE
  5
2AD
100
AcDbEntity
  8
0
  6
Continuous
 62
     0
100
AcDbLine
 10
259.025688
 20
224.328632
 30
0.0
 11
259.025688
 21
184.331489
 31
0.0
  0
SOLID
  5
2AE
100
AcDbEntity
  8
0
  6
Continuous
 62
     0
100
AcDbTrace
 10
260.025744
 20
219.328952
 30
0.0
 11
259.025688
 21
224.328632
 31
0.0
 12
258.025632
 22
219.328952
 32
0.0
 13
258.025632
 23
219.328952
 33
0.0
  0
SOLID
  5
2AF
100
AcDbEntity
  8
0
  6
Continuous
 62
     0
100
AcDbTrace
 10
258.025632
 20
189.331169
 30
0.0
 11
259.025688
 21
184.331489
 31
0.0
 12
260.025744
 22
189.331169
 32
0.0
 13
260.025744
 23
189.331169
 33
0.0
  0
ENDBLK
  5
2B0
100
AcDbEntity
  8
0
100
AcDbBlockEnd
  0
BLOCK
  5
2B3
100
AcDbEntity
  8
0
100
AcDbBlockBegin
  2
*B14
 70
     0
 10
0.0
 20
0.0
 30
0.0
  3
*B14
  1

  0
LINE
  5
2B4
100
AcDbEntity
  8
0
  6
Continuous
 62
     0
100
AcDbLine
 10
89.025736
 20
88.35042
 30
0.0
 11
89.025736
 21
118.348503
 31
0.0
  0
SOLID
  5
2B5
100
AcDbEntity
  8
0
  6
Continuous
 62
     0
100
AcDbTrace
 10
88.02568
 20
93.350101
 30
0.0
 11
89.025736
 21
88.35042
 31
0.0
 12
90.025792
 22
93.350101
 32
0.0
 13
90.025792
 23
93.350101
 33
0.0
  0
SOLID
  5
2B6
100
AcDbEntity
  8
0
  6
Continuous
 62
     0
100
AcDbTrace
 10
90.025792
 20
113.348823
 30
0.0
 11
89.025736
 21
118.348503
 31
0.0
 12
88.02568
 22
113.348823
 32
0.0
 13
88.02568
 23
113.348823
 33
0.0
  0
ENDBLK
  5
2B7
100
AcDbEntity
  8
0
100
AcDbBlockEnd
  0
BLOCK
  5
2BA
100
AcDbEntity
  8
0
100
AcDbBlockBegin
  2
*B15
 70
     0
 10
0.0
 20
0.0
 30
0.0
  3
*B15
  1

  0
LINE
  5
2BB
100
AcDbEntity
  8
0
  6
Continuous
 62
     0
100
AcDbLine
 10
205.113072
 20
248.033481
 30
0.0
 11
166.096458
 21
248.033481
 31
0.0
  0
SOLID
  5
2BC
100
AcDbEntity
  8
0
  6
Continuous
 62
     0
100
AcDbTrace
 10
200.113091
 20
249.033537
 30
0.0
 11
195.113111
 21
248.033481
 31
0.0
 12
200.113091
 22
247.033424
 32
0.0
 13
200.113091
 23
247.033424
 33
0.0
  0
SOLID
  5
2BD
100
AcDbEntity
  8
0
  6
Continuous
 62
     0
100
AcDbTrace
 10
183.512878
 20
247.033424
 30
0.0
 11
188.512859
 21
248.033481
 31
0.0
 12
183.512878
 22
249.033537
 32
0.0
 13
183.512878
 23
249.033537
 33
0.0
  0
ENDBLK
  5
2BE
100
AcDbEntity
  8
0
100
AcDbBlockEnd
  0
BLOCK
  5
2C1
100
AcDbEntity
  8
0
100
AcDbBlockBegin
  2
*B16
 70
     0
 10
0.0
 20
0.0
 30
0.0
  3
*B16
  1

  0
LINE
  5
2C2
100
AcDbEntity
  8
0
  6
Continuous
 62
     0
100
AcDbLine
 10
188.413124
 20
75.093441
 30
0.0
 11
245.921316
 21
75.093441
 31
0.0
  0
SOLID
  5
2C3
100
AcDbEntity
  8
0
  6
Continuous
 62
     0
100
AcDbTrace
 10
193.413105
 20
74.093385
 30
0.0
 11
198.413086
 21
75.093441
 31
0.0
 12
193.413105
 22
76.093197
 32
0.0
 13
193.413105
 23
76.093197
 33
0.0
  0
SOLID
  5
2C4
100
AcDbEntity
  8
0
  6
Continuous
 62
     0
100
AcDbTrace
 10
222.212863
 20
76.093197
 30
0.0
 11
217.212882
 21
75.093441
 31
0.0
 12
222.212863
 22
74.093385
 32
0.0
 13
222.212863
 23
74.093385
 33
0.0
  0
ENDBLK
  5
2C5
100
AcDbEntity
  8
0
100
AcDbBlockEnd
  0
BLOCK
  5
2C8
100
AcDbEntity
  8
0
100
AcDbBlockBegin
  2
*B17
 70
     0
 10
0.0
 20
0.0
 30
0.0
  3
*B17
  1

  0
LINE
  5
2C9
100
AcDbEntity
  8
0
  6
Continuous
 62
     0
100
AcDbLine
 10
282.02548
 20
234.327993
 30
0.0
 11
282.02548
 21
174.332428
 31
0.0
  0
SOLID
  5
2CA
100
AcDbEntity
  8
0
  6
Continuous
 62
     0
100
AcDbTrace
 10
283.025537
 20
229.328313
 30
0.0
 11
282.02548
 21
234.327993
 31
0.0
 12
281.025724
 22
229.328313
 32
0.0
 13
281.025724
 23
229.328313
 33
0.0
  0
SOLID
  5
2CB
100
AcDbEntity
  8
0
  6
Continuous
 62
     0
100
AcDbTrace
 10
281.025724
 20
179.331808
 30
0.0
 11
282.02548
 21
174.332428
 31
0.0
 12
283.025537
 22
179.331808
 32
0.0
 13
283.025537
 23
179.331808
 33
0.0
  0
ENDBLK
  5
2CC
100
AcDbEntity
  8
0
100
AcDbBlockEnd
  0
BLOCK
  5
2CF
100
AcDbEntity
  8
0
100
AcDbBlockBegin
  2
*B18
 70
     0
 10
0.0
 20
0.0
 30
0.0
  3
*B18
  1

  0
LINE
  5
2D0
100
AcDbEntity
  8
0
  6
Continuous
 62
     0
100
AcDbLine
 10
89.025736
 20
251.326246
 30
0.0
 11
89.025736
 21
174.332428
 31
0.0
  0
SOLID
  5
2D1
100
AcDbEntity
  8
0
  6
Continuous
 62
     0
100
AcDbTrace
 10
90.025792
 20
246.326566
 30
0.0
 11
89.025736
 21
251.326246
 31
0.0
 12
88.02568
 22
246.326566
 32
0.0
 13
88.02568
 23
246.326566
 33
0.0
  0
SOLID
  5
2D2
100
AcDbEntity
  8
0
  6
Continuous
 62
     0
100
AcDbTrace
 10
88.02568
 20
179.331808
 30
0.0
 11
89.025736
 21
174.332428
 31
0.0
 12
90.025792
 22
179.331808
 32
0.0
 13
90.025792
 23
179.331808
 33
0.0
  0
ENDBLK
  5
2D3
100
AcDbEntity
  8
0
100
AcDbBlockEnd
  0
BLOCK
  5
2D6
100
AcDbEntity
  8
0
100
AcDbBlockBegin
  2
*B19
 70
     0
 10
0.0
 20
0.0
 30
0.0
  3
*B19
  1

  0
LINE
  5
2D7
100
AcDbEntity
  8
0
  6
Continuous
 62
     8
100
AcDbLine
 10
87.025623
 20
251.326246
 30
0.0
 11
100.505805
 21
251.326246
 31
0.0
  0
ENDBLK
  5
2D8
100
AcDbEntity
  8
0
100
AcDbBlockEnd
  0
BLOCK
  5
2DB
100
AcDbEntity
  8
0
100
AcDbBlockBegin
  2
*B20
 70
     0
 10
0.0
 20
0.0
 30
0.0
  3
*B20
  1

  0
LINE
  5
2DC
100
AcDbEntity
  8
0
  6
Continuous
 62
     8
100
AcDbLine
 10
279.81298
 20
95.950127
 30
0.0
 11
279.81298
 21
100.349593
 31
0.0
  0
LINE
  5
2DD
100
AcDbEntity
  8
0
  6
Continuous
 62
     8
100
AcDbLine
 10
279.81298
 20
106.34933
 30
0.0
 11
279.81298
 21
110.748796
 31
0.0
  0
ENDBLK
  5
2DE
100
AcDbEntity
  8
0
100
AcDbBlockEnd
  0
BLOCK
  5
2E1
100
AcDbEntity
  8
0
100
AcDbBlockBegin
  2
*B21
 70
     0
 10
0.0
 20
0.0
 30
0.0
  3
*B21
  1

  0
LINE
  5
2E2
100
AcDbEntity
  8
0
  6
Continuous
 62
     8
100
AcDbLine
 10
188.512859
 20
226.328444
 30
0.0
 11
188.512859
 21
250.033293
 31
0.0
  0
ENDBLK
  5
2E3
100
AcDbEntity
  8
0
100
AcDbBlockEnd
  0
BLOCK
  5
2E6
100
AcDbEntity
  8
0
100
AcDbBlockBegin
  2
*B22
 70
     0
 10
0.0
 20
0.0
 30
0.0
  3
*B22
  1

  0
LINE
  5
2E7
100
AcDbEntity
  8
0
  6
Continuous
 62
     8
100
AcDbLine
 10
198.413086
 20
73.093629
 30
0.0
 11
198.413086
 21
101.349649
 31
0.0
  0
ENDBLK
  5
2E8
100
AcDbEntity
  8
0
100
AcDbBlockEnd
  0
BLOCK
  5
2EB
100
AcDbEntity
  8
0
100
AcDbBlockBegin
  2
*B23
 70
     0
 10
0.0
 20
0.0
 30
0.0
  3
*B23
  1

  0
LINE
  5
2EC
100
AcDbEntity
  8
0
  6
Continuous
 62
     8
100
AcDbLine
 10
248.813038
 20
156.04002
 30
0.0
 11
248.813038
 21
172.332315
 31
0.0
  0
LINE
  5
2ED
100
AcDbEntity
  8
0
  6
Continuous
 62
     8
100
AcDbLine
 10
248.813038
 20
236.327806
 30
0.0
 11
248.813038
 21
250.033293
 31
0.0
  0
ENDBLK
  5
2EE
100
AcDbEntity
  8
0
100
AcDbBlockEnd
  0
BLOCK
  5
2F1
100
AcDbEntity
  8
0
100
AcDbBlockBegin
  2
*B24
 70
     0
 10
0.0
 20
0.0
 30
0.0
  3
*B24
  1

  0
LINE
  5
2F2
100
AcDbEntity
  8
0
  6
Continuous
 62
     8
100
AcDbLine
 10
97.812953
 20
103.394523
 30
0.0
 11
109.612956
 21
103.394523
 31
0.0
  0
ENDBLK
  5
2F3
100
AcDbEntity
  8
0
100
AcDbBlockEnd
  0
BLOCK
  5
2F6
100
AcDbEntity
  8
0
100
AcDbBlockBegin
  2
*B25
 70
     0
 10
0.0
 20
0.0
 30
0.0
  3
*B25
  1

  0
LINE
  5
2F7
100
AcDbEntity
  8
0
  6
Continuous
 62
     8
100
AcDbLine
 10
207.813134
 20
246.033669
 30
0.0
 11
207.813134
 21
250.033293
 31
0.0
  0
LINE
  5
2F8
100
AcDbEntity
  8
0
  6
Continuous
 62
     8
100
AcDbLine
 10
207.813134
 20
177.032189
 30
0.0
 11
207.813134
 21
181.331921
 31
0.0
  0
LINE
  5
2F9
100
AcDbEntity
  8
0
  6
Continuous
 62
     8
100
AcDbLine
 10
207.813134
 20
187.331357
 30
0.0
 11
207.813134
 21
195.071955
 31
0.0
  0
LINE
  5
2FA
100
AcDbEntity
  8
0
  6
Continuous
 62
     8
100
AcDbLine
 10
207.813134
 20
197.072067
 30
0.0
 11
207.813134
 21
198.071823
 31
0.0
  0
LINE
  5
2FB
100
AcDbEntity
  8
0
  6
Continuous
 62
     8
100
AcDbLine
 10
207.813134
 20
200.071635
 30
0.0
 11
207.813134
 21
207.812533
 31
0.0
  0
LINE
  5
2FC
100
AcDbEntity
  8
0
  6
Continuous
 62
     8
100
AcDbLine
 10
207.813134
 20
209.812346
 30
0.0
 11
207.813134
 21
210.812101
 31
0.0
  0
LINE
  5
2FD
100
AcDbEntity
  8
0
  6
Continuous
 62
     8
100
AcDbLine
 10
207.813134
 20
212.812214
 30
0.0
 11
207.813134
 21
220.552812
 31
0.0
  0
LINE
  5
2FE
100
AcDbEntity
  8
0
  6
Continuous
 62
     8
100
AcDbLine
 10
207.813134
 20
222.552624
 30
0.0
 11
207.813134
 21
223.55268
 31
0.0
  0
LINE
  5
2FF
100
AcDbEntity
  8
0
  6
Continuous
 62
     8
100
AcDbLine
 10
207.813134
 20
225.552492
 30
0.0
 11
207.813134
 21
233.29309
 31
0.0
  0
LINE
  5
300
100
AcDbEntity
  8
0
  6
Continuous
 62
     8
100
AcDbLine
 10
207.813134
 20
235.293202
 30
0.0
 11
207.813134
 21
236.292958
 31
0.0
  0
LINE
  5
301
100
AcDbEntity
  8
0
  6
Continuous
 62
     8
100
AcDbLine
 10
207.813134
 20
238.29277
 30
0.0
 11
207.813134
 21
246.033669
 31
0.0
  0
ENDBLK
  5
302
100
AcDbEntity
  8
0
100
AcDbBlockEnd
  0
BLOCK
  5
305
100
AcDbEntity
  8
0
100
AcDbBlockBegin
  2
*B26
 70
     0
 10
0.0
 20
0.0
 30
0.0
  3
*B26
  1

  0
LINE
  5
306
100
AcDbEntity
  8
0
  6
Continuous
 62
     8
100
AcDbLine
 10
207.813134
 20
89.95039
 30
0.0
 11
207.813134
 21
100.349593
 31
0.0
  0
LINE
  5
307
100
AcDbEntity
  8
0
  6
Continuous
 62
     8
100
AcDbLine
 10
207.813134
 20
106.34933
 30
0.0
 11
207.813134
 21
116.748533
 31
0.0
  0
ENDBLK
  5
308
100
AcDbEntity
  8
0
100
AcDbBlockEnd
  0
BLOCK
  5
30B
100
AcDbEntity
  8
0
100
AcDbBlockBegin
  2
*B27
 70
     0
 10
0.0
 20
0.0
 30
0.0
  3
*B27
  1

  0
LINE
  5
30C
100
AcDbEntity
  8
0
  6
Continuous
 62
     8
100
AcDbLine
 10
87.025623
 20
88.35042
 30
0.0
 11
164.813118
 21
88.35042
 31
0.0
  0
ENDBLK
  5
30D
100
AcDbEntity
  8
0
100
AcDbBlockEnd
  0
BLOCK
  5
310
100
AcDbEntity
  8
0
100
AcDbBlockBegin
  2
*B28
 70
     0
 10
0.0
 20
0.0
 30
0.0
  3
*B28
  1

  0
LINE
  5
311
100
AcDbEntity
  8
0
  6
Continuous
 62
     8
100
AcDbLine
 10
87.025623
 20
118.348503
 30
0.0
 11
164.813118
 21
118.348503
 31
0.0
  0
ENDBLK
  5
312
100
AcDbEntity
  8
0
100
AcDbBlockEnd
  0
BLOCK
  5
315
100
AcDbEntity
  8
0
100
AcDbBlockBegin
  2
*B29
 70
     0
 10
0.0
 20
0.0
 30
0.0
  3
*B29
  1

  0
LINE
  5
316
100
AcDbEntity
  8
0
  6
Continuous
 62
     8
100
AcDbLine
 10
166.81293
 20
156.04002
 30
0.0
 11
166.81293
 21
172.332315
 31
0.0
  0
ENDBLK
  5
317
100
AcDbEntity
  8
0
100
AcDbBlockEnd
  0
BLOCK
  5
31A
100
AcDbEntity
  8
0
100
AcDbBlockBegin
  2
*B30
 70
     0
 10
0.0
 20
0.0
 30
0.0
  3
*B30
  1

  0
LINE
  5
31B
100
AcDbEntity
  8
0
  6
Continuous
 62
     8
100
AcDbLine
 10
306.013012
 20
103.3044
 30
0.0
 11
317.813015
 21
103.3044
 31
0.0
  0
ENDBLK
  5
31C
100
AcDbEntity
  8
0
100
AcDbBlockEnd
  0
BLOCK
  5
31F
100
AcDbEntity
  8
0
100
AcDbBlockBegin
  2
*B31
 70
     0
 10
0.0
 20
0.0
 30
0.0
  3
*B31
  1

  0
LINE
  5
320
100
AcDbEntity
  8
0
  6
Continuous
 62
     8
100
AcDbLine
 10
217.212882
 20
73.093629
 30
0.0
 11
217.212882
 21
101.349649
 31
0.0
  0
ENDBLK
  5
321
100
AcDbEntity
  8
0
100
AcDbBlockEnd
  0
BLOCK
  5
324
100
AcDbEntity
  8
0
100
AcDbBlockBegin
  2
*B32
 70
     0
 10
0.0
 20
0.0
 30
0.0
  3
*B32
  1

  0
LINE
  5
325
100
AcDbEntity
  8
0
  6
Continuous
 62
     8
100
AcDbLine
 10
313.81309
 20
252.125931
 30
0.0
 11
313.81309
 21
270.032015
 31
0.0
  0
ENDBLK
  5
326
100
AcDbEntity
  8
0
100
AcDbBlockEnd
  0
BLOCK
  5
329
100
AcDbEntity
  8
0
100
AcDbBlockBegin
  2
*B33
 70
     0
 10
0.0
 20
0.0
 30
0.0
  3
*B33
  1

  0
LINE
  5
32A
100
AcDbEntity
  8
0
  6
Continuous
 62
     8
100
AcDbLine
 10
87.025623
 20
174.332428
 30
0.0
 11
148.813119
 21
174.332428
 31
0.0
  0
ENDBLK
  5
32B
100
AcDbEntity
  8
0
100
AcDbBlockEnd
  0
BLOCK
  5
32E
100
AcDbEntity
  8
0
100
AcDbBlockBegin
  2
*B34
 70
     0
 10
0.0
 20
0.0
 30
0.0
  3
*B34
  1

  0
LINE
  5
32F
100
AcDbEntity
  8
0
  6
Continuous
 62
     8
100
AcDbLine
 10
97.812953
 20
103.349462
 30
0.0
 11
106.146255
 21
103.349462
 31
0.0
  0
LINE
  5
330
100
AcDbEntity
  8
0
  6
Continuous
 62
     8
100
AcDbLine
 10
108.146367
 20
103.349462
 30
0.0
 11
109.146423
 21
103.349462
 31
0.0
  0
LINE
  5
331
100
AcDbEntity
  8
0
  6
Continuous
 62
     8
100
AcDbLine
 10
111.146235
 20
103.349462
 30
0.0
 11
119.479837
 21
103.349462
 31
0.0
  0
LINE
  5
332
100
AcDbEntity
  8
0
  6
Continuous
 62
     8
100
AcDbLine
 10
121.47965
 20
103.349462
 30
0.0
 11
122.479706
 21
103.349462
 31
0.0
  0
LINE
  5
333
100
AcDbEntity
  8
0
  6
Continuous
 62
     8
100
AcDbLine
 10
124.479818
 20
103.349462
 30
0.0
 11
132.81312
 21
103.349462
 31
0.0
  0
LINE
  5
334
100
AcDbEntity
  8
0
  6
Continuous
 62
     8
100
AcDbLine
 10
138.813157
 20
103.349462
 30
0.0
 11
146.313128
 21
103.349462
 31
0.0
  0
LINE
  5
335
100
AcDbEntity
  8
0
  6
Continuous
 62
     8
100
AcDbLine
 10
148.312941
 20
103.349462
 30
0.0
 11
149.312997
 21
103.349462
 31
0.0
  0
LINE
  5
336
100
AcDbEntity
  8
0
  6
Continuous
 62
     8
100
AcDbLine
 10
151.313109
 20
103.349462
 30
0.0
 11
158.813081
 21
103.349462
 31
0.0
  0
LINE
  5
337
100
AcDbEntity
  8
0
  6
Continuous
 62
     8
100
AcDbLine
 10
164.813118
 20
103.349462
 30
0.0
 11
174.81308
 21
103.349462
 31
0.0
  0
LINE
  5
338
100
AcDbEntity
  8
0
  6
Continuous
 62
     8
100
AcDbLine
 10
176.812892
 20
103.349462
 30
0.0
 11
177.812948
 21
103.349462
 31
0.0
  0
LINE
  5
339
100
AcDbEntity
  8
0
  6
Continuous
 62
     8
100
AcDbLine
 10
179.813061
 20
103.349462
 30
0.0
 11
189.813023
 21
103.349462
 31
0.0
  0
LINE
  5
33A
100
AcDbEntity
  8
0
  6
Continuous
 62
     8
100
AcDbLine
 10
191.813135
 20
103.349462
 30
0.0
 11
192.812891
 21
103.349462
 31
0.0
  0
LINE
  5
33B
100
AcDbEntity
  8
0
  6
Continuous
 62
     8
100
AcDbLine
 10
194.813004
 20
103.349462
 30
0.0
 11
204.812965
 21
103.349462
 31
0.0
  0
LINE
  5
33C
100
AcDbEntity
  8
0
  6
Continuous
 62
     8
100
AcDbLine
 10
210.813003
 20
103.349462
 30
0.0
 11
220.812964
 21
103.349462
 31
0.0
  0
LINE
  5
33D
100
AcDbEntity
  8
0
  6
Continuous
 62
     8
100
AcDbLine
 10
222.813077
 20
103.349462
 30
0.0
 11
223.813133
 21
103.349462
 31
0.0
  0
LINE
  5
33E
100
AcDbEntity
  8
0
  6
Continuous
 62
     8
100
AcDbLine
 10
225.812945
 20
103.349462
 30
0.0
 11
235.812907
 21
103.349462
 31
0.0
  0
LINE
  5
33F
100
AcDbEntity
  8
0
  6
Continuous
 62
     8
100
AcDbLine
 10
237.81302
 20
103.349462
 30
0.0
 11
238.813076
 21
103.349462
 31
0.0
  0
LINE
  5
340
100
AcDbEntity
  8
0
  6
Continuous
 62
     8
100
AcDbLine
 10
240.812888
 20
103.349462
 30
0.0
 11
250.81315
 21
103.349462
 31
0.0
  0
LINE
  5
341
100
AcDbEntity
  8
0
  6
Continuous
 62
     8
100
AcDbLine
 10
256.812887
 20
103.349462
 30
0.0
 11
264.312859
 21
103.349462
 31
0.0
  0
LINE
  5
342
100
AcDbEntity
  8
0
  6
Continuous
 62
     8
100
AcDbLine
 10
266.312971
 20
103.349462
 30
0.0
 11
267.313027
 21
103.349462
 31
0.0
  0
LINE
  5
343
100
AcDbEntity
  8
0
  6
Continuous
 62
     8
100
AcDbLine
 10
269.31284
 20
103.349462
 30
0.0
 11
276.813111
 21
103.349462
 31
0.0
  0
LINE
  5
344
100
AcDbEntity
  8
0
  6
Continuous
 62
     8
100
AcDbLine
 10
282.812848
 20
103.349462
 30
0.0
 11
291.14645
 21
103.349462
 31
0.0
  0
LINE
  5
345
100
AcDbEntity
  8
0
  6
Continuous
 62
     8
100
AcDbLine
 10
293.146262
 20
103.349462
 30
0.0
 11
294.146318
 21
103.349462
 31
0.0
  0
LINE
  5
346
100
AcDbEntity
  8
0
  6
Continuous
 62
     8
100
AcDbLine
 10
296.146431
 20
103.349462
 30
0.0
 11
304.479733
 21
103.349462
 31
0.0
  0
LINE
  5
347
100
AcDbEntity
  8
0
  6
Continuous
 62
     8
100
AcDbLine
 10
306.479545
 20
103.349462
 30
0.0
 11
307.479601
 21
103.349462
 31
0.0
  0
LINE
  5
348
100
AcDbEntity
  8
0
  6
Continuous
 62
     8
100
AcDbLine
 10
309.479713
 20
103.349462
 30
0.0
 11
317.813015
 21
103.349462
 31
0.0
  0
ENDBLK
  5
349
100
AcDbEntity
  8
0
100
AcDbBlockEnd
  0
BLOCK
  5
34C
100
AcDbEntity
  8
0
100
AcDbBlockBegin
  2
*B35
 70
     0
 10
0.0
 20
0.0
 30
0.0
  3
*B35
  1

  0
LINE
  5
34D
100
AcDbEntity
  8
0
  6
Continuous
 62
     8
100
AcDbLine
 10
257.025576
 20
184.331489
 30
0.0
 11
261.0255
 21
184.331489
 31
0.0
  0
LINE
  5
34E
100
AcDbEntity
  8
0
  6
Continuous
 62
     8
100
AcDbLine
 10
200.512934
 20
184.331489
 30
0.0
 11
204.812965
 21
184.331489
 31
0.0
  0
LINE
  5
34F
100
AcDbEntity
  8
0
  6
Continuous
 62
     8
100
AcDbLine
 10
210.813003
 20
184.331489
 30
0.0
 11
218.616085
 21
184.331489
 31
0.0
  0
LINE
  5
350
100
AcDbEntity
  8
0
  6
Continuous
 62
     8
100
AcDbLine
 10
220.616198
 20
184.331489
 30
0.0
 11
221.616254
 21
184.331489
 31
0.0
  0
LINE
  5
351
100
AcDbEntity
  8
0
  6
Continuous
 62
     8
100
AcDbLine
 10
223.616066
 20
184.331489
 30
0.0
 11
231.419449
 21
184.331489
 31
0.0
  0
LINE
  5
352
100
AcDbEntity
  8
0
  6
Continuous
 62
     8
100
AcDbLine
 10
233.419261
 20
184.331489
 30
0.0
 11
234.419317
 21
184.331489
 31
0.0
  0
LINE
  5
353
100
AcDbEntity
  8
0
  6
Continuous
 62
     8
100
AcDbLine
 10
236.41943
 20
184.331489
 30
0.0
 11
244.222512
 21
184.331489
 31
0.0
  0
LINE
  5
354
100
AcDbEntity
  8
0
  6
Continuous
 62
     8
100
AcDbLine
 10
246.222324
 20
184.331489
 30
0.0
 11
247.222381
 21
184.331489
 31
0.0
  0
LINE
  5
355
100
AcDbEntity
  8
0
  6
Continuous
 62
     8
100
AcDbLine
 10
249.222493
 20
184.331489
 30
0.0
 11
257.025576
 21
184.331489
 31
0.0
  0
ENDBLK
  5
356
100
AcDbEntity
  8
0
100
AcDbBlockEnd
  0
BLOCK
  5
359
100
AcDbEntity
  8
0
100
AcDbBlockBegin
  2
*B36
 70
     0
 10
0.0
 20
0.0
 30
0.0
  3
*B36
  1

  0
LINE
  5
35A
100
AcDbEntity
  8
0
  6
Continuous
 62
     8
100
AcDbLine
 10
266.812849
 20
234.327993
 30
0.0
 11
284.025593
 21
234.327993
 31
0.0
  0
ENDBLK
  5
35B
100
AcDbEntity
  8
0
100
AcDbBlockEnd
  0
BLOCK
  5
35E
100
AcDbEntity
  8
0
100
AcDbBlockBegin
  2
*B37
 70
     0
 10
0.0
 20
0.0
 30
0.0
  3
*B37
  1

  0
LINE
  5
35F
100
AcDbEntity
  8
0
  6
Continuous
 62
     8
100
AcDbLine
 10
101.813178
 20
252.125931
 30
0.0
 11
101.813178
 21
270.032015
 31
0.0
  0
ENDBLK
  5
360
100
AcDbEntity
  8
0
100
AcDbBlockEnd
  0
BLOCK
  5
363
100
AcDbEntity
  8
0
100
AcDbBlockBegin
  2
*B38
 70
     0
 10
0.0
 20
0.0
 30
0.0
  3
*B38
  1

  0
LINE
  5
364
100
AcDbEntity
  8
0
  6
Continuous
 62
     8
100
AcDbLine
 10
191.813135
 20
156.04002
 30
0.0
 11
191.813135
 21
160.039945
 31
0.0
  0
LINE
  5
365
100
AcDbEntity
  8
0
  6
Continuous
 62
     8
100
AcDbLine
 10
191.813135
 20
160.039945
 30
0.0
 11
191.813135
 21
168.297844
 31
0.0
  0
LINE
  5
366
100
AcDbEntity
  8
0
  6
Continuous
 62
     8
100
AcDbLine
 10
191.813135
 20
170.297656
 30
0.0
 11
191.813135
 21
171.297712
 31
0.0
  0
LINE
  5
367
100
AcDbEntity
  8
0
  6
Continuous
 62
     8
100
AcDbLine
 10
191.813135
 20
173.297524
 30
0.0
 11
191.813135
 21
181.555724
 31
0.0
  0
LINE
  5
368
100
AcDbEntity
  8
0
  6
Continuous
 62
     8
100
AcDbLine
 10
191.813135
 20
183.555536
 30
0.0
 11
191.813135
 21
184.555593
 31
0.0
  0
LINE
  5
369
100
AcDbEntity
  8
0
  6
Continuous
 62
     8
100
AcDbLine
 10
191.813135
 20
186.555405
 30
0.0
 11
191.813135
 21
194.813304
 31
0.0
  0
LINE
  5
36A
100
AcDbEntity
  8
0
  6
Continuous
 62
     8
100
AcDbLine
 10
191.813135
 20
196.813116
 30
0.0
 11
191.813135
 21
197.813172
 31
0.0
  0
LINE
  5
36B
100
AcDbEntity
  8
0
  6
Continuous
 62
     8
100
AcDbLine
 10
191.813135
 20
199.812984
 30
0.0
 11
191.813135
 21
208.071184
 31
0.0
  0
LINE
  5
36C
100
AcDbEntity
  8
0
  6
Continuous
 62
     8
100
AcDbLine
 10
191.813135
 20
210.070996
 30
0.0
 11
191.813135
 21
211.071053
 31
0.0
  0
LINE
  5
36D
100
AcDbEntity
  8
0
  6
Continuous
 62
     8
100
AcDbLine
 10
191.813135
 20
213.070865
 30
0.0
 11
191.813135
 21
221.328764
 31
0.0
  0
LINE
  5
36E
100
AcDbEntity
  8
0
  6
Continuous
 62
     8
100
AcDbLine
 10
191.813135
 20
227.328501
 30
0.0
 11
191.813135
 21
231.628232
 31
0.0
  0
ENDBLK
  5
36F
100
AcDbEntity
  8
0
100
AcDbBlockEnd
  0
BLOCK
  5
372
100
AcDbEntity
  8
0
100
AcDbBlockBegin
  2
*B39
 70
     0
 10
0.0
 20
0.0
 30
0.0
  3
*B39
  1

  0
LINE
  5
373
100
AcDbEntity
  8
0
  6
Continuous
 62
     8
100
AcDbLine
 10
150.812931
 20
140.041223
 30
0.0
 11
150.812931
 21
172.332315
 31
0.0
  0
LINE
  5
374
100
AcDbEntity
  8
0
  6
Continuous
 62
     8
100
AcDbLine
 10
150.812931
 20
236.327806
 30
0.0
 11
150.812931
 21
270.032015
 31
0.0
  0
ENDBLK
  5
375
100
AcDbEntity
  8
0
100
AcDbBlockEnd
  0
BLOCK
  5
378
100
AcDbEntity
  8
0
100
AcDbBlockBegin
  2
*B40
 70
     0
 10
0.0
 20
0.0
 30
0.0
  3
*B40
  1

  0
LINE
  5
379
100
AcDbEntity
  8
0
  6
Continuous
 62
     8
100
AcDbLine
 10
161.812949
 20
96.349969
 30
0.0
 11
161.812949
 21
100.349593
 31
0.0
  0
LINE
  5
37A
100
AcDbEntity
  8
0
  6
Continuous
 62
     8
100
AcDbLine
 10
161.812949
 20
106.34933
 30
0.0
 11
161.812949
 21
110.348954
 31
0.0
  0
ENDBLK
  5
37B
100
AcDbEntity
  8
0
100
AcDbBlockEnd
  0
BLOCK
  5
37E
100
AcDbEntity
  8
0
100
AcDbBlockBegin
  2
*B41
 70
     0
 10
0.0
 20
0.0
 30
0.0
  3
*B41
  1

  0
LINE
  5
37F
100
AcDbEntity
  8
0
  6
Continuous
 62
     8
100
AcDbLine
 10
264.813037
 20
140.041223
 30
0.0
 11
264.813037
 21
172.332315
 31
0.0
  0
LINE
  5
380
100
AcDbEntity
  8
0
  6
Continuous
 62
     8
100
AcDbLine
 10
264.813037
 20
236.327806
 30
0.0
 11
264.813037
 21
270.032015
 31
0.0
  0
ENDBLK
  5
381
100
AcDbEntity
  8
0
100
AcDbBlockEnd
  0
BLOCK
  5
384
100
AcDbEntity
  8
0
100
AcDbBlockBegin
  2
*B42
 70
     0
 10
0.0
 20
0.0
 30
0.0
  3
*B42
  1

  0
LINE
  5
385
100
AcDbEntity
  8
0
  6
Continuous
 62
     8
100
AcDbLine
 10
266.812849
 20
174.332428
 30
0.0
 11
284.025593
 21
174.332428
 31
0.0
  0
ENDBLK
  5
386
100
AcDbEntity
  8
0
100
AcDbBlockEnd
  0
BLOCK
  5
389
100
AcDbEntity
  8
0
100
AcDbBlockBegin
  2
*B43
 70
     0
 10
0.0
 20
0.0
 30
0.0
  3
*B43
  1

  0
LINE
  5
38A
100
AcDbEntity
  8
0
  6
Continuous
 62
     8
100
AcDbLine
 10
253.813019
 20
96.349969
 30
0.0
 11
253.813019
 21
100.349593
 31
0.0
  0
LINE
  5
38B
100
AcDbEntity
  8
0
  6
Continuous
 62
     8
100
AcDbLine
 10
253.813019
 20
106.34933
 30
0.0
 11
253.813019
 21
110.348954
 31
0.0
  0
ENDBLK
  5
38C
100
AcDbEntity
  8
0
100
AcDbBlockEnd
  0
BLOCK
  5
38F
100
AcDbEntity
  8
0
100
AcDbBlockBegin
  2
*B44
 70
     0
 10
0.0
 20
0.0
 30
0.0
  3
*B44
  1

  0
LINE
  5
390
100
AcDbEntity
  8
0
  6
Continuous
 62
     8
100
AcDbLine
 10
184.512935
 20
224.328632
 30
0.0
 11
188.812966
 21
224.328632
 31
0.0
  0
LINE
  5
391
100
AcDbEntity
  8
0
  6
Continuous
 62
     8
100
AcDbLine
 10
194.813004
 20
224.328632
 30
0.0
 11
199.113035
 21
224.328632
 31
0.0
  0
ENDBLK
  5
392
100
AcDbEntity
  8
0
100
AcDbBlockEnd
  0
BLOCK
  5
395
100
AcDbEntity
  8
0
100
AcDbBlockBegin
  2
*B45
 70
     0
 10
0.0
 20
0.0
 30
0.0
  3
*B45
  1

  0
LINE
  5
396
100
AcDbEntity
  8
0
  6
Continuous
 62
     8
100
AcDbLine
 10
105.312924
 20
242.327242
 30
0.0
 11
114.31313
 21
242.327242
 31
0.0
  0
LINE
  5
397
100
AcDbEntity
  8
0
  6
Continuous
 62
     8
100
AcDbLine
 10
116.312943
 20
242.327242
 30
0.0
 11
117.312999
 21
242.327242
 31
0.0
  0
LINE
  5
398
100
AcDbEntity
  8
0
  6
Continuous
 62
     8
100
AcDbLine
 10
119.313111
 20
242.327242
 30
0.0
 11
128.313017
 21
242.327242
 31
0.0
  0
ENDBLK
  5
399
100
AcDbEntity
  8
0
100
AcDbBlockEnd
  0
BLOCK
  5
39C
100
AcDbEntity
  8
0
100
AcDbBlockBegin
  2
*B46
 70
     0
 10
0.0
 20
0.0
 30
0.0
  3
*B46
  1

  0
LINE
  5
39D
100
AcDbEntity
  8
0
  6
Continuous
 62
     8
100
AcDbLine
 10
135.812988
 20
95.950127
 30
0.0
 11
135.812988
 21
100.349593
 31
0.0
  0
LINE
  5
39E
100
AcDbEntity
  8
0
  6
Continuous
 62
     8
100
AcDbLine
 10
135.812988
 20
106.34933
 30
0.0
 11
135.812988
 21
110.748796
 31
0.0
  0
ENDBLK
  5
39F
100
AcDbEntity
  8
0
100
AcDbBlockEnd
  0
BLOCK
  5
3A2
100
AcDbEntity
  8
0
100
AcDbBlockBegin
  2
*B47
 70
     0
 10
0.0
 20
0.0
 30
0.0
  3
*B47
  1

  0
LINE
  5
3A3
100
AcDbEntity
  8
0
  6
Continuous
 62
     8
100
AcDbLine
 10
109.113078
 20
204.330812
 30
0.0
 11
117.606497
 21
204.330812
 31
0.0
  0
LINE
  5
3A4
100
AcDbEntity
  8
0
  6
Continuous
 62
     8
100
AcDbLine
 10
119.606309
 20
204.330812
 30
0.0
 11
120.606365
 21
204.330812
 31
0.0
  0
LINE
  5
3A5
100
AcDbEntity
  8
0
  6
Continuous
 62
     8
100
AcDbLine
 10
122.606478
 20
204.330812
 30
0.0
 11
131.099596
 21
204.330812
 31
0.0
  0
LINE
  5
3A6
100
AcDbEntity
  8
0
  6
Continuous
 62
     8
100
AcDbLine
 10
133.099709
 20
204.330812
 30
0.0
 11
134.099765
 21
204.330812
 31
0.0
  0
LINE
  5
3A7
100
AcDbEntity
  8
0
  6
Continuous
 62
     8
100
AcDbLine
 10
136.099577
 20
204.330812
 30
0.0
 11
144.592996
 21
204.330812
 31
0.0
  0
LINE
  5
3A8
100
AcDbEntity
  8
0
  6
Continuous
 62
     8
100
AcDbLine
 10
146.593108
 20
204.330812
 30
0.0
 11
147.593164
 21
204.330812
 31
0.0
  0
LINE
  5
3A9
100
AcDbEntity
  8
0
  6
Continuous
 62
     8
100
AcDbLine
 10
149.592977
 20
204.330812
 30
0.0
 11
158.086395
 21
204.330812
 31
0.0
  0
LINE
  5
3AA
100
AcDbEntity
  8
0
  6
Continuous
 62
     8
100
AcDbLine
 10
160.086508
 20
204.330812
 30
0.0
 11
161.086264
 21
204.330812
 31
0.0
  0
LINE
  5
3AB
100
AcDbEntity
  8
0
  6
Continuous
 62
     8
100
AcDbLine
 10
163.086376
 20
204.330812
 30
0.0
 11
171.579795
 21
204.330812
 31
0.0
  0
LINE
  5
3AC
100
AcDbEntity
  8
0
  6
Continuous
 62
     8
100
AcDbLine
 10
173.579607
 20
204.330812
 30
0.0
 11
174.579663
 21
204.330812
 31
0.0
  0
LINE
  5
3AD
100
AcDbEntity
  8
0
  6
Continuous
 62
     8
100
AcDbLine
 10
176.579776
 20
204.330812
 30
0.0
 11
185.072894
 21
204.330812
 31
0.0
  0
LINE
  5
3AE
100
AcDbEntity
  8
0
  6
Continuous
 62
     8
100
AcDbLine
 10
187.073007
 20
204.330812
 30
0.0
 11
188.073063
 21
204.330812
 31
0.0
  0
LINE
  5
3AF
100
AcDbEntity
  8
0
  6
Continuous
 62
     8
100
AcDbLine
 10
190.072875
 20
204.330812
 30
0.0
 11
198.566294
 21
204.330812
 31
0.0
  0
LINE
  5
3B0
100
AcDbEntity
  8
0
  6
Continuous
 62
     8
100
AcDbLine
 10
200.566406
 20
204.330812
 30
0.0
 11
201.566463
 21
204.330812
 31
0.0
  0
LINE
  5
3B1
100
AcDbEntity
  8
0
  6
Continuous
 62
     8
100
AcDbLine
 10
203.566275
 20
204.330812
 30
0.0
 11
212.059693
 21
204.330812
 31
0.0
  0
LINE
  5
3B2
100
AcDbEntity
  8
0
  6
Continuous
 62
     8
100
AcDbLine
 10
214.059806
 20
204.330812
 30
0.0
 11
215.059562
 21
204.330812
 31
0.0
  0
LINE
  5
3B3
100
AcDbEntity
  8
0
  6
Continuous
 62
     8
100
AcDbLine
 10
217.059674
 20
204.330812
 30
0.0
 11
225.553093
 21
204.330812
 31
0.0
  0
LINE
  5
3B4
100
AcDbEntity
  8
0
  6
Continuous
 62
     8
100
AcDbLine
 10
227.552905
 20
204.330812
 30
0.0
 11
228.552961
 21
204.330812
 31
0.0
  0
LINE
  5
3B5
100
AcDbEntity
  8
0
  6
Continuous
 62
     8
100
AcDbLine
 10
230.553074
 20
204.330812
 30
0.0
 11
239.046192
 21
204.330812
 31
0.0
  0
LINE
  5
3B6
100
AcDbEntity
  8
0
  6
Continuous
 62
     8
100
AcDbLine
 10
241.046305
 20
204.330812
 30
0.0
 11
242.046361
 21
204.330812
 31
0.0
  0
LINE
  5
3B7
100
AcDbEntity
  8
0
  6
Continuous
 62
     8
100
AcDbLine
 10
244.046474
 20
204.330812
 30
0.0
 11
252.539592
 21
204.330812
 31
0.0
  0
LINE
  5
3B8
100
AcDbEntity
  8
0
  6
Continuous
 62
     8
100
AcDbLine
 10
254.539704
 20
204.330812
 30
0.0
 11
255.539761
 21
204.330812
 31
0.0
  0
LINE
  5
3B9
100
AcDbEntity
  8
0
  6
Continuous
 62
     8
100
AcDbLine
 10
257.539573
 20
204.330812
 30
0.0
 11
266.032991
 21
204.330812
 31
0.0
  0
LINE
  5
3BA
100
AcDbEntity
  8
0
  6
Continuous
 62
     8
100
AcDbLine
 10
268.033104
 20
204.330812
 30
0.0
 11
269.03286
 21
204.330812
 31
0.0
  0
LINE
  5
3BB
100
AcDbEntity
  8
0
  6
Continuous
 62
     8
100
AcDbLine
 10
271.032972
 20
204.330812
 30
0.0
 11
279.526391
 21
204.330812
 31
0.0
  0
LINE
  5
3BC
100
AcDbEntity
  8
0
  6
Continuous
 62
     8
100
AcDbLine
 10
281.526203
 20
204.330812
 30
0.0
 11
282.526259
 21
204.330812
 31
0.0
  0
LINE
  5
3BD
100
AcDbEntity
  8
0
  6
Continuous
 62
     8
100
AcDbLine
 10
284.526372
 20
204.330812
 30
0.0
 11
293.01949
 21
204.330812
 31
0.0
  0
LINE
  5
3BE
100
AcDbEntity
  8
0
  6
Continuous
 62
     8
100
AcDbLine
 10
295.019603
 20
204.330812
 30
0.0
 11
296.019659
 21
204.330812
 31
0.0
  0
LINE
  5
3BF
100
AcDbEntity
  8
0
  6
Continuous
 62
     8
100
AcDbLine
 10
298.019772
 20
204.330812
 30
0.0
 11
306.51289
 21
204.330812
 31
0.0
  0
ENDBLK
  5
3C0
100
AcDbEntity
  8
0
100
AcDbBlockEnd
  0
BLOCK
  5
3C3
100
AcDbEntity
  8
0
100
AcDbBlockBegin
  2
*B48
 70
     0
 10
0.0
 20
0.0
 30
0.0
  3
*B48
  1

  0
LINE
  5
3C4
100
AcDbEntity
  8
0
  6
Continuous
 62
     8
100
AcDbLine
 10
223.813133
 20
156.04002
 30
0.0
 11
223.813133
 21
160.039945
 31
0.0
  0
LINE
  5
3C5
100
AcDbEntity
  8
0
  6
Continuous
 62
     8
100
AcDbLine
 10
223.813133
 20
160.039945
 30
0.0
 11
223.813133
 21
168.297844
 31
0.0
  0
LINE
  5
3C6
100
AcDbEntity
  8
0
  6
Continuous
 62
     8
100
AcDbLine
 10
223.813133
 20
170.297656
 30
0.0
 11
223.813133
 21
171.297712
 31
0.0
  0
LINE
  5
3C7
100
AcDbEntity
  8
0
  6
Continuous
 62
     8
100
AcDbLine
 10
223.813133
 20
173.297524
 30
0.0
 11
223.813133
 21
181.555724
 31
0.0
  0
LINE
  5
3C8
100
AcDbEntity
  8
0
  6
Continuous
 62
     8
100
AcDbLine
 10
223.813133
 20
183.555536
 30
0.0
 11
223.813133
 21
184.555593
 31
0.0
  0
LINE
  5
3C9
100
AcDbEntity
  8
0
  6
Continuous
 62
     8
100
AcDbLine
 10
223.813133
 20
186.555405
 30
0.0
 11
223.813133
 21
194.813304
 31
0.0
  0
LINE
  5
3CA
100
AcDbEntity
  8
0
  6
Continuous
 62
     8
100
AcDbLine
 10
223.813133
 20
196.813116
 30
0.0
 11
223.813133
 21
197.813172
 31
0.0
  0
LINE
  5
3CB
100
AcDbEntity
  8
0
  6
Continuous
 62
     8
100
AcDbLine
 10
223.813133
 20
199.812984
 30
0.0
 11
223.813133
 21
208.071184
 31
0.0
  0
LINE
  5
3CC
100
AcDbEntity
  8
0
  6
Continuous
 62
     8
100
AcDbLine
 10
223.813133
 20
210.070996
 30
0.0
 11
223.813133
 21
211.071053
 31
0.0
  0
LINE
  5
3CD
100
AcDbEntity
  8
0
  6
Continuous
 62
     8
100
AcDbLine
 10
223.813133
 20
213.070865
 30
0.0
 11
223.813133
 21
221.328764
 31
0.0
  0
LINE
  5
3CE
100
AcDbEntity
  8
0
  6
Continuous
 62
     8
100
AcDbLine
 10
223.813133
 20
227.328501
 30
0.0
 11
223.813133
 21
231.628232
 31
0.0
  0
ENDBLK
  5
3CF
100
AcDbEntity
  8
0
100
AcDbBlockEnd
  0
BLOCK
  5
3D2
100
AcDbEntity
  8
0
100
AcDbBlockBegin
  2
*B49
 70
     0
 10
0.0
 20
0.0
 30
0.0
  3
*B49
  1

  0
LINE
  5
3D3
100
AcDbEntity
  8
0
  6
Continuous
 62
     8
100
AcDbLine
 10
257.025576
 20
224.328632
 30
0.0
 11
261.0255
 21
224.328632
 31
0.0
  0
LINE
  5
3D4
100
AcDbEntity
  8
0
  6
Continuous
 62
     8
100
AcDbLine
 10
216.512933
 20
224.328632
 30
0.0
 11
220.812964
 21
224.328632
 31
0.0
  0
LINE
  5
3D5
100
AcDbEntity
  8
0
  6
Continuous
 62
     8
100
AcDbLine
 10
226.813002
 20
224.328632
 30
0.0
 11
239.419298
 21
224.328632
 31
0.0
  0
LINE
  5
3D6
100
AcDbEntity
  8
0
  6
Continuous
 62
     8
100
AcDbLine
 10
241.419411
 20
224.328632
 30
0.0
 11
242.419167
 21
224.328632
 31
0.0
  0
LINE
  5
3D7
100
AcDbEntity
  8
0
  6
Continuous
 62
     8
100
AcDbLine
 10
244.419279
 20
224.328632
 30
0.0
 11
257.025576
 21
224.328632
 31
0.0
  0
ENDBLK
  5
3D8
100
AcDbEntity
  8
0
100
AcDbBlockEnd
  0
BLOCK
  5
3DB
100
AcDbEntity
  8
0
100
AcDbBlockBegin
  2
*B50
 70
     0
 10
0.0
 20
0.0
 30
0.0
  3
*B50
  1

  0
LINE
  5
3DC
100
AcDbEntity
  8
0
  6
Continuous
 62
     8
100
AcDbLine
 10
287.312951
 20
242.327242
 30
0.0
 11
296.312857
 21
242.327242
 31
0.0
  0
LINE
  5
3DD
100
AcDbEntity
  8
0
  6
Continuous
 62
     8
100
AcDbLine
 10
298.312969
 20
242.327242
 30
0.0
 11
299.313025
 21
242.327242
 31
0.0
  0
LINE
  5
3DE
100
AcDbEntity
  8
0
  6
Continuous
 62
     8
100
AcDbLine
 10
301.312838
 20
242.327242
 30
0.0
 11
310.313044
 21
242.327242
 31
0.0
  0
ENDBLK
  5
3DF
100
AcDbEntity
  8
0
100
AcDbBlockEnd
  0
BLOCK
  5
3E2
100
AcDbEntity
  8
0
100
AcDbBlockBegin
  2
*B51
 70
     0
 10
0.0
 20
0.0
 30
0.0
  3
*B51
  1

  0
LINE
  5
3E3
100
AcDbEntity
  8
0
  6
Continuous
 62
     8
100
AcDbLine
 10
195.113111
 20
226.328444
 30
0.0
 11
195.113111
 21
250.033293
 31
0.0
  0
ENDBLK
  5
3E4
100
AcDbEntity
  8
0
100
AcDbBlockEnd
  0
BLOCK
  5
3E7
100
AcDbEntity
  8
0
100
AcDbBlockBegin
  2
*B52
 70
     0
 10
0.0
 20
0.0
 30
0.0
  3
*B52
  1

  0
LINE
  5
3E8
100
AcDbEntity
  8
0
  6
Continuous
 62
     8
100
AcDbLine
 10
109.113078
 20
204.32991
 30
0.0
 11
123.313036
 21
204.32991
 31
0.0
  0
ENDBLK
  5
3E9
100
AcDbEntity
  8
0
100
AcDbBlockEnd
  0
BLOCK
  5
3EC
100
AcDbEntity
  8
0
100
AcDbBlockBegin
  2
*B53
 70
     0
 10
0.0
 20
0.0
 30
0.0
  3
*B53
  1

  0
LINE
  5
3ED
100
AcDbEntity
  8
0
  6
Continuous
 62
     6
100
AcDbLine
 10
190.813079
 20
224.328632
 30
0.0
 11
192.812891
 21
224.328632
 31
0.0
  0
LINE
  5
3EE
100
AcDbEntity
  8
0
  6
Continuous
 62
     6
100
AcDbLine
 10
191.813135
 20
223.328876
 30
0.0
 11
191.813135
 21
225.328689
 31
0.0
  0
ENDBLK
  5
3EF
100
AcDbEntity
  8
0
100
AcDbBlockEnd
  0
BLOCK
  5
3F2
100
AcDbEntity
  8
0
100
AcDbBlockBegin
  2
*B54
 70
     0
 10
0.0
 20
0.0
 30
0.0
  3
*B54
  1

  0
LINE
  5
3F3
100
AcDbEntity
  8
0
  6
Continuous
 62
     6
100
AcDbLine
 10
223.813133
 20
223.328876
 30
0.0
 11
223.813133
 21
225.328689
 31
0.0
  0
LINE
  5
3F4
100
AcDbEntity
  8
0
  6
Continuous
 62
     6
100
AcDbLine
 10
222.813077
 20
224.328632
 30
0.0
 11
224.812889
 21
224.328632
 31
0.0
  0
ENDBLK
  5
3F5
100
AcDbEntity
  8
0
100
AcDbBlockEnd
  0
BLOCK
  5
3F8
100
AcDbEntity
  8
0
100
AcDbBlockBegin
  2
*B55
 70
     0
 10
0.0
 20
0.0
 30
0.0
  3
*B55
  1

  0
LINE
  5
3F9
100
AcDbEntity
  8
0
  6
Continuous
 62
     6
100
AcDbLine
 10
135.812988
 20
102.349405
 30
0.0
 11
135.812988
 21
104.349518
 31
0.0
  0
LINE
  5
3FA
100
AcDbEntity
  8
0
  6
Continuous
 62
     6
100
AcDbLine
 10
134.812932
 20
103.349462
 30
0.0
 11
136.813045
 21
103.349462
 31
0.0
  0
ENDBLK
  5
3FB
100
AcDbEntity
  8
0
100
AcDbBlockEnd
  0
BLOCK
  5
3FE
100
AcDbEntity
  8
0
100
AcDbBlockBegin
  2
*B56
 70
     0
 10
0.0
 20
0.0
 30
0.0
  3
*B56
  1

  0
LINE
  5
3FF
100
AcDbEntity
  8
0
  6
Continuous
 62
     6
100
AcDbLine
 10
207.813134
 20
102.349405
 30
0.0
 11
207.813134
 21
104.349518
 31
0.0
  0
LINE
  5
400
100
AcDbEntity
  8
0
  6
Continuous
 62
     6
100
AcDbLine
 10
206.813078
 20
103.349462
 30
0.0
 11
208.81289
 21
103.349462
 31
0.0
  0
ENDBLK
  5
401
100
AcDbEntity
  8
0
100
AcDbBlockEnd
  0
BLOCK
  5
404
100
AcDbEntity
  8
0
100
AcDbBlockBegin
  2
*B57
 70
     0
 10
0.0
 20
0.0
 30
0.0
  3
*B57
  1

  0
LINE
  5
405
100
AcDbEntity
  8
0
  6
Continuous
 62
     6
100
AcDbLine
 10
279.81298
 20
102.349405
 30
0.0
 11
279.81298
 21
104.349518
 31
0.0
  0
LINE
  5
406
100
AcDbEntity
  8
0
  6
Continuous
 62
     6
100
AcDbLine
 10
278.812923
 20
103.349462
 30
0.0
 11
280.813036
 21
103.349462
 31
0.0
  0
ENDBLK
  5
407
100
AcDbEntity
  8
0
100
AcDbBlockEnd
  0
BLOCK
  5
40A
100
AcDbEntity
  8
0
100
AcDbBlockBegin
  2
*B58
 70
     0
 10
0.0
 20
0.0
 30
0.0
  3
*B58
  1

  0
LINE
  5
40B
100
AcDbEntity
  8
0
  6
Continuous
 62
     6
100
AcDbLine
 10
207.813134
 20
183.331733
 30
0.0
 11
207.813134
 21
185.331545
 31
0.0
  0
LINE
  5
40C
100
AcDbEntity
  8
0
  6
Continuous
 62
     6
100
AcDbLine
 10
206.813078
 20
184.331489
 30
0.0
 11
208.81289
 21
184.331489
 31
0.0
  0
ENDBLK
  5
40D
100
AcDbEntity
  8
0
100
AcDbBlockEnd
  0
BLOCK
  5
410
100
AcDbEntity
  8
0
100
AcDbBlockBegin
  2
*B59
 70
     0
 10
0.0
 20
0.0
 30
0.0
  3
*B59
  1

  0
LINE
  5
411
100
AcDbEntity
  8
0
  6
Continuous
 62
     6
100
AcDbLine
 10
161.812949
 20
102.349405
 30
0.0
 11
161.812949
 21
104.349518
 31
0.0
  0
LINE
  5
412
100
AcDbEntity
  8
0
  6
Continuous
 62
     6
100
AcDbLine
 10
160.812893
 20
103.349462
 30
0.0
 11
162.813005
 21
103.349462
 31
0.0
  0
ENDBLK
  5
413
100
AcDbEntity
  8
0
100
AcDbBlockEnd
  0
BLOCK
  5
416
100
AcDbEntity
  8
0
100
AcDbBlockBegin
  2
*B60
 70
     0
 10
0.0
 20
0.0
 30
0.0
  3
*B60
  1

  0
LINE
  5
417
100
AcDbEntity
  8
0
  6
Continuous
 62
     6
100
AcDbLine
 10
253.813019
 20
102.349405
 30
0.0
 11
253.813019
 21
104.349518
 31
0.0
  0
LINE
  5
418
100
AcDbEntity
  8
0
  6
Continuous
 62
     6
100
AcDbLine
 10
252.812963
 20
103.349462
 30
0.0
 11
254.813075
 21
103.349462
 31
0.0
  0
ENDBLK
  5
419
100
AcDbEntity
  8
0
100
AcDbBlockEnd
  0
BLOCK
  5
41C
100
AcDbEntity
  8
0
100
AcDbBlockBegin
  2
*B61
 70
     0
 10
0.0
 20
0.0
 30
0.0
  3
*B61
  1

  0
TEXT
  5
41D
100
AcDbEntity
  8
TEXT
  6
Continuous
 62
     0
100
AcDbText
 10
170.471499
 20
201.5
 30
0.0
 40
5.0
  1
12
100
AcDbText
  0
ENDBLK
  5
41E
100
AcDbEntity
  8
0
100
AcDbBlockEnd
  0
BLOCK
  5
421
100
AcDbEntity
  8
0
100
AcDbBlockBegin
  2
*B62
 70
     0
 10
0.0
 20
0.0
 30
0.0
  3
*B62
  1

  0
TEXT
  5
422
100
AcDbEntity
  8
TEXT
  6
Continuous
 62
     0
100
AcDbText
 10
236.471499
 20
201.5
 30
0.0
 40
5.0
  1
10
100
AcDbText
  0
ENDBLK
  5
423
100
AcDbEntity
  8
0
100
AcDbBlockEnd
  0
BLOCK
  5
426
100
AcDbEntity
  8
0
100
AcDbBlockBegin
  2
*B63
 70
     0
 10
0.0
 20
0.0
 30
0.0
  3
*B63
  1

  0
TEXT
  5
427
100
AcDbEntity
  8
TEXT
  6
Continuous
 62
     0
100
AcDbText
 10
222.23575
 20
179.5
 30
0.0
 40
5.0
  1
1
100
AcDbText
  0
ENDBLK
  5
428
100
AcDbEntity
  8
0
100
AcDbBlockEnd
  0
BLOCK
  5
42B
100
AcDbEntity
  8
0
100
AcDbBlockBegin
  2
*B64
 70
     0
 10
0.0
 20
0.0
 30
0.0
  3
*B64
  1

  0
TEXT
  5
42C
100
AcDbEntity
  8
TEXT
  6
Continuous
 62
     0
100
AcDbText
 10
206.23575
 20
224.5
 30
0.0
 40
5.0
  1
2
100
AcDbText
  0
ENDBLK
  5
42D
100
AcDbEntity
  8
0
100
AcDbBlockEnd
  0
BLOCK
  5
430
100
AcDbEntity
  8
0
100
AcDbBlockBegin
  2
*B65
 70
     0
 10
0.0
 20
0.0
 30
0.0
  3
*B65
  1

  0
TEXT
  5
431
100
AcDbEntity
  8
TEXT
  6
Continuous
 62
     0
100
AcDbText
 10
190.23575
 20
178.5
 30
0.0
 40
5.0
  1
3
100
AcDbText
  0
ENDBLK
  5
432
100
AcDbEntity
  8
0
100
AcDbBlockEnd
  0
BLOCK
  5
435
100
AcDbEntity
  8
0
100
AcDbBlockBegin
  2
*B66
 70
     0
 10
0.0
 20
0.0
 30
0.0
  3
*B66
  1

  0
TEXT
  5
436
100
AcDbEntity
  8
TEXT
  6
Continuous
 62
     0
100
AcDbText
 10
163.0
 20
96.44145
 30
0.0
 40
3.0
  1
0
 50
90.0
100
AcDbText
  0
ENDBLK
  5
437
100
AcDbEntity
  8
0
100
AcDbBlockEnd
  0
BLOCK
  5
43A
100
AcDbEntity
  8
0
100
AcDbBlockBegin
  2
*B67
 70
     0
 10
0.0
 20
0.0
 30
0.0
  3
*B67
  1

  0
TEXT
  5
43B
100
AcDbEntity
  8
TEXT
  6
Continuous
 62
     0
100
AcDbText
 10
157.0
 20
101.94145
 30
0.0
 40
3.0
  1
1
 50
90.0
100
AcDbText
  0
ENDBLK
  5
43C
100
AcDbEntity
  8
0
100
AcDbBlockEnd
  0
BLOCK
  5
43F
100
AcDbEntity
  8
0
100
AcDbBlockBegin
  2
*B68
 70
     0
 10
0.0
 20
0.0
 30
0.0
  3
*B68
  1

  0
TEXT
  5
440
100
AcDbEntity
  8
TEXT
  6
Continuous
 62
     0
100
AcDbText
 10
252.5
 20
111.05855
 30
0.0
 40
3.0
  1
0
 50
-90.0
100
AcDbText
  0
ENDBLK
  5
441
100
AcDbEntity
  8
0
100
AcDbBlockEnd
  0
BLOCK
  5
444
100
AcDbEntity
  8
0
100
AcDbBlockBegin
  2
*B69
 70
     0
 10
0.0
 20
0.0
 30
0.0
  3
*B69
  1

  0
TEXT
  5
445
100
AcDbEntity
  8
TEXT
  6
Continuous
 62
     0
100
AcDbText
 10
258.5
 20
104.55855
 30
0.0
 40
3.0
  1
1
 50
-90.0
100
AcDbText
  0
ENDBLK
  5
446
100
AcDbEntity
  8
0
100
AcDbBlockEnd
  0
BLOCK
  5
449
100
AcDbEntity
  8
0
100
AcDbBlockBegin
  2
*B70
 70
     0
 10
0.0
 20
0.0
 30
0.0
  3
*B70
  1

  0
TEXT
  5
44A
100
AcDbEntity
  8
TEXT
  6
Continuous
 62
     0
100
AcDbText
 10
285.954031
 20
269.75
 30
0.0
 40
3.5
  1
48
100
AcDbText
  0
ENDBLK
  5
44B
100
AcDbEntity
  8
0
100
AcDbBlockEnd
  0
BLOCK
  5
44E
100
AcDbEntity
  8
0
100
AcDbBlockBegin
  2
*B71
 70
     0
 10
0.0
 20
0.0
 30
0.0
  3
*B71
  1

  0
TEXT
  5
44F
100
AcDbEntity
  8
TEXT
  6
Continuous
 62
     0
100
AcDbText
 10
122.954031
 20
269.75
 30
0.0
 40
3.5
  1
48
100
AcDbText
  0
ENDBLK
  5
450
100
AcDbEntity
  8
0
100
AcDbBlockEnd
  0
BLOCK
  5
453
100
AcDbEntity
  8
0
100
AcDbBlockBegin
  2
*B72
 70
     0
 10
0.0
 20
0.0
 30
0.0
  3
*B72
  1

  0
TEXT
  5
454
100
AcDbEntity
  8
TEXT
  6
Continuous
 62
     0
100
AcDbText
 10
202.787365
 20
143.75
 30
0.0
 40
3.5
  1
114
100
AcDbText
  0
ENDBLK
  5
455
100
AcDbEntity
  8
0
100
AcDbBlockEnd
  0
BLOCK
  5
458
100
AcDbEntity
  8
0
100
AcDbBlockBegin
  2
*B73
 70
     0
 10
0.0
 20
0.0
 30
0.0
  3
*B73
  1

  0
TEXT
  5
459
100
AcDbEntity
  8
TEXT
  6
Continuous
 62
     0
100
AcDbText
 10
232.954031
 20
159.75
 30
0.0
 40
3.5
  1
25
100
AcDbText
  0
ENDBLK
  5
45A
100
AcDbEntity
  8
0
100
AcDbBlockEnd
  0
BLOCK
  5
45D
100
AcDbEntity
  8
0
100
AcDbBlockBegin
  2
*B74
 70
     0
 10
0.0
 20
0.0
 30
0.0
  3
*B74
  1

  0
TEXT
  5
45E
100
AcDbEntity
  8
TEXT
  6
Continuous
 62
     0
100
AcDbText
 10
204.454031
 20
159.75
 30
0.0
 40
3.5
  1
32
100
AcDbText
  0
ENDBLK
  5
45F
100
AcDbEntity
  8
0
100
AcDbBlockEnd
  0
BLOCK
  5
462
100
AcDbEntity
  8
0
100
AcDbBlockBegin
  2
*B75
 70
     0
 10
0.0
 20
0.0
 30
0.0
  3
*B75
  1

  0
TEXT
  5
463
100
AcDbEntity
  8
TEXT
  6
Continuous
 62
     0
100
AcDbText
 10
175.954031
 20
159.75
 30
0.0
 40
3.5
  1
25
100
AcDbText
  0
ENDBLK
  5
464
100
AcDbEntity
  8
0
100
AcDbBlockEnd
  0
BLOCK
  5
467
100
AcDbEntity
  8
0
100
AcDbBlockBegin
  2
*B76
 70
     0
 10
0.0
 20
0.0
 30
0.0
  3
*B76
  1

  0
TEXT
  5
468
100
AcDbEntity
  8
TEXT
  6
Continuous
 62
     0
100
AcDbText
 10
224.954031
 20
249.75
 30
0.0
 40
3.5
  1
41
100
AcDbText
  0
ENDBLK
  5
469
100
AcDbEntity
  8
0
100
AcDbBlockEnd
  0
BLOCK
  5
46C
100
AcDbEntity
  8
0
100
AcDbBlockBegin
  2
*B77
 70
     0
 10
0.0
 20
0.0
 30
0.0
  3
*B77
  1

  0
TEXT
  5
46D
100
AcDbEntity
  8
TEXT
  6
Continuous
 62
     0
100
AcDbText
 10
257.25
 20
200.960172
 30
0.0
 40
3.5
  1
40
 50
90.0
100
AcDbText
  0
ENDBLK
  5
46E
100
AcDbEntity
  8
0
100
AcDbBlockEnd
  0
BLOCK
  5
471
100
AcDbEntity
  8
0
100
AcDbBlockBegin
  2
*B78
 70
     0
 10
0.0
 20
0.0
 30
0.0
  3
*B78
  1

  0
TEXT
  5
472
100
AcDbEntity
  8
TEXT
  6
Continuous
 62
     0
100
AcDbText
 10
87.25
 20
99.972236
 30
0.0
 40
3.5
  1
30
 50
90.0
100
AcDbText
  0
ENDBLK
  5
473
100
AcDbEntity
  8
0
100
AcDbBlockEnd
  0
BLOCK
  5
476
100
AcDbEntity
  8
0
100
AcDbBlockBegin
  2
*B79
 70
     0
 10
0.0
 20
0.0
 30
0.0
  3
*B79
  1

  0
TEXT
  5
477
100
AcDbEntity
  8
TEXT
  6
Continuous
 62
     0
100
AcDbText
 10
167.383333
 20
249.75
 30
0.0
 40
3.5
  1
%%c6,6
100
AcDbText
  0
ENDBLK
  5
478
100
AcDbEntity
  8
0
100
AcDbBlockEnd
  0
BLOCK
  5
47B
100
AcDbEntity
  8
0
100
AcDbBlockBegin
  2
*B80
 70
     0
 10
0.0
 20
0.0
 30
0.0
  3
*B80
  1

  0
TEXT
  5
47C
100
AcDbEntity
  8
TEXT
  6
Continuous
 62
     0
100
AcDbText
 10
225.416667
 20
76.79745
 30
0.0
 40
3.5
  1
G 1/2"
100
AcDbText
  0
ENDBLK
  5
47D
100
AcDbEntity
  8
0
100
AcDbBlockEnd
  0
BLOCK
  5
480
100
AcDbEntity
  8
0
100
AcDbBlockBegin
  2
*B81
 70
     0
 10
0.0
 20
0.0
 30
0.0
  3
*B81
  1

  0
TEXT
  5
481
100
AcDbEntity
  8
TEXT
  6
Continuous
 62
     0
100
AcDbText
 10
280.25
 20
200.960172
 30
0.0
 40
3.5
  1
60
 50
90.0
100
AcDbText
  0
ENDBLK
  5
482
100
AcDbEntity
  8
0
100
AcDbBlockEnd
  0
BLOCK
  5
485
100
AcDbEntity
  8
0
100
AcDbBlockBegin
  2
*B82
 70
     0
 10
0.0
 20
0.0
 30
0.0
  3
*B82
  1

  0
TEXT
  5
486
100
AcDbEntity
  8
TEXT
  6
Continuous
 62
     0
100
AcDbText
 10
87.25
 20
209.459947
 30
0.0
 40
3.5
  1
77
 50
90.0
100
AcDbText
  0
ENDBLK
  5
487
100
AcDbEntity
  8
0
100
AcDbBlockEnd
  0
ENDSEC
  0
SECTION
  2
ENTITIES
  0
INSERT
  5
18D
100
AcDbEntity
  8
0
  6
Continuous
 62
   174
100
AcDbBlockReference
  2
*B1
 10
0.0
 20
0.0
 30
0.0
  0
INSERT
  5
265
100
AcDbEntity
  8
0
  6
Continuous
 62
   174
100
AcDbBlockReference
  2
*B2
 10
0.0
 20
0.0
 30
0.0
  0
INSERT
  5
26B
100
AcDbEntity
  8
0
  6
Continuous
 62
   172
100
AcDbBlockReference
  2
*B3
 10
0.0
 20
0.0
 30
0.0
  0
INSERT
  5
276
100
AcDbEntity
  8
0
  6
Continuous
 62
   172
100
AcDbBlockReference
  2
*B4
 10
0.0
 20
0.0
 30
0.0
  0
INSERT
  5
280
100
AcDbEntity
  8
0
  6
Continuous
 62
     0
100
AcDbBlockReference
  2
*B6
 10
0.0
 20
0.0
 30
0.0
  0
INSERT
  5
287
100
AcDbEntity
  8
0
  6
Continuous
 62
     0
100
AcDbBlockReference
  2
*B7
 10
0.0
 20
0.0
 30
0.0
  0
INSERT
  5
28E
100
AcDbEntity
  8
0
  6
Continuous
 62
     0
100
AcDbBlockReference
  2
*B8
 10
0.0
 20
0.0
 30
0.0
  0
INSERT
  5
295
100
AcDbEntity
  8
0
  6
Continuous
 62
     0
100
AcDbBlockReference
  2
*B9
 10
0.0
 20
0.0
 30
0.0
  0
INSERT
  5
29C
100
AcDbEntity
  8
0
  6
Continuous
 62
     0
100
AcDbBlockReference
  2
*B10
 10
0.0
 20
0.0
 30
0.0
  0
INSERT
  5
2A3
100
AcDbEntity
  8
0
  6
Continuous
 62
     0
100
AcDbBlockReference
  2
*B11
 10
0.0
 20
0.0
 30
0.0
  0
INSERT
  5
2AA
100
AcDbEntity
  8
0
  6
Continuous
 62
     0
100
AcDbBlockReference
  2
*B12
 10
0.0
 20
0.0
 30
0.0
  0
INSERT
  5
2B1
100
AcDbEntity
  8
0
  6
Continuous
 62
     0
100
AcDbBlockReference
  2
*B13
 10
0.0
 20
0.0
 30
0.0
  0
INSERT
  5
2B8
100
AcDbEntity
  8
0
  6
Continuous
 62
     0
100
AcDbBlockReference
  2
*B14
 10
0.0
 20
0.0
 30
0.0
  0
INSERT
  5
2BF
100
AcDbEntity
  8
0
  6
Continuous
 62
     0
100
AcDbBlockReference
  2
*B15
 10
0.0
 20
0.0
 30
0.0
  0
INSERT
  5
2C6
100
AcDbEntity
  8
0
  6
Continuous
 62
     0
100
AcDbBlockReference
  2
*B16
 10
0.0
 20
0.0
 30
0.0
  0
INSERT
  5
2CD
100
AcDbEntity
  8
0
  6
Continuous
 62
     0
100
AcDbBlockReference
  2
*B17
 10
0.0
 20
0.0
 30
0.0
  0
INSERT
  5
2D4
100
AcDbEntity
  8
0
  6
Continuous
 62
     0
100
AcDbBlockReference
  2
*B18
 10
0.0
 20
0.0
 30
0.0
  0
INSERT
  5
2D9
100
AcDbEntity
  8
0
  6
Continuous
 62
     8
100
AcDbBlockReference
  2
*B19
 10
0.0
 20
0.0
 30
0.0
  0
INSERT
  5
2DF
100
AcDbEntity
  8
0
  6
Continuous
 62
     8
100
AcDbBlockReference
  2
*B20
 10
0.0
 20
0.0
 30
0.0
  0
INSERT
  5
2E4
100
AcDbEntity
  8
0
  6
Continuous
 62
     8
100
AcDbBlockReference
  2
*B21
 10
0.0
 20
0.0
 30
0.0
  0
INSERT
  5
2E9
100
AcDbEntity
  8
0
  6
Continuous
 62
     8
100
AcDbBlockReference
  2
*B22
 10
0.0
 20
0.0
 30
0.0
  0
INSERT
  5
2EF
100
AcDbEntity
  8
0
  6
Continuous
 62
     8
100
AcDbBlockReference
  2
*B23
 10
0.0
 20
0.0
 30
0.0
  0
INSERT
  5
2F4
100
AcDbEntity
  8
0
  6
Continuous
 62
     8
100
AcDbBlockReference
  2
*B24
 10
0.0
 20
0.0
 30
0.0
  0
INSERT
  5
303
100
AcDbEntity
  8
0
  6
Continuous
 62
     8
100
AcDbBlockReference
  2
*B25
 10
0.0
 20
0.0
 30
0.0
  0
INSERT
  5
309
100
AcDbEntity
  8
0
  6
Continuous
 62
     8
100
AcDbBlockReference
  2
*B26
 10
0.0
 20
0.0
 30
0.0
  0
INSERT
  5
30E
100
AcDbEntity
  8
0
  6
Continuous
 62
     8
100
AcDbBlockReference
  2
*B27
 10
0.0
 20
0.0
 30
0.0
  0
INSERT
  5
313
100
AcDbEntity
  8
0
  6
Continuous
 62
     8
100
AcDbBlockReference
  2
*B28
 10
0.0
 20
0.0
 30
0.0
  0
INSERT
  5
318
100
AcDbEntity
  8
0
  6
Continuous
 62
     8
100
AcDbBlockReference
  2
*B29
 10
0.0
 20
0.0
 30
0.0
  0
INSERT
  5
31D
100
AcDbEntity
  8
0
  6
Continuous
 62
     8
100
AcDbBlockReference
  2
*B30
 10
0.0
 20
0.0
 30
0.0
  0
INSERT
  5
322
100
AcDbEntity
  8
0
  6
Continuous
 62
     8
100
AcDbBlockReference
  2
*B31
 10
0.0
 20
0.0
 30
0.0
  0
INSERT
  5
327
100
AcDbEntity
  8
0
  6
Continuous
 62
     8
100
AcDbBlockReference
  2
*B32
 10
0.0
 20
0.0
 30
0.0
  0
INSERT
  5
32C
100
AcDbEntity
  8
0
  6
Continuous
 62
     8
100
AcDbBlockReference
  2
*B33
 10
0.0
 20
0.0
 30
0.0
  0
INSERT
  5
34A
100
AcDbEntity
  8
0
  6
Continuous
 62
     8
100
AcDbBlockReference
  2
*B34
 10
0.0
 20
0.0
 30
0.0
  0
INSERT
  5
357
100
AcDbEntity
  8
0
  6
Continuous
 62
     8
100
AcDbBlockReference
  2
*B35
 10
0.0
 20
0.0
 30
0.0
  0
INSERT
  5
35C
100
AcDbEntity
  8
0
  6
Continuous
 62
     8
100
AcDbBlockReference
  2
*B36
 10
0.0
 20
0.0
 30
0.0
  0
INSERT
  5
361
100
AcDbEntity
  8
0
  6
Continuous
 62
     8
100
AcDbBlockReference
  2
*B37
 10
0.0
 20
0.0
 30
0.0
  0
INSERT
  5
370
100
AcDbEntity
  8
0
  6
Continuous
 62
     8
100
AcDbBlockReference
  2
*B38
 10
0.0
 20
0.0
 30
0.0
  0
INSERT
  5
376
100
AcDbEntity
  8
0
  6
Continuous
 62
     8
100
AcDbBlockReference
  2
*B39
 10
0.0
 20
0.0
 30
0.0
  0
INSERT
  5
37C
100
AcDbEntity
  8
0
  6
Continuous
 62
     8
100
AcDbBlockReference
  2
*B40
 10
0.0
 20
0.0
 30
0.0
  0
INSERT
  5
382
100
AcDbEntity
  8
0
  6
Continuous
 62
     8
100
AcDbBlockReference
  2
*B41
 10
0.0
 20
0.0
 30
0.0
  0
INSERT
  5
387
100
AcDbEntity
  8
0
  6
Continuous
 62
     8
100
AcDbBlockReference
  2
*B42
 10
0.0
 20
0.0
 30
0.0
  0
INSERT
  5
38D
100
AcDbEntity
  8
0
  6
Continuous
 62
     8
100
AcDbBlockReference
  2
*B43
 10
0.0
 20
0.0
 30
0.0
  0
INSERT
  5
393
100
AcDbEntity
  8
0
  6
Continuous
 62
     8
100
AcDbBlockReference
  2
*B44
 10
0.0
 20
0.0
 30
0.0
  0
INSERT
  5
39A
100
AcDbEntity
  8
0
  6
Continuous
 62
     8
100
AcDbBlockReference
  2
*B45
 10
0.0
 20
0.0
 30
0.0
  0
INSERT
  5
3A0
100
AcDbEntity
  8
0
  6
Continuous
 62
     8
100
AcDbBlockReference
  2
*B46
 10
0.0
 20
0.0
 30
0.0
  0
INSERT
  5
3C1
100
AcDbEntity
  8
0
  6
Continuous
 62
     8
100
AcDbBlockReference
  2
*B47
 10
0.0
 20
0.0
 30
0.0
  0
INSERT
  5
3D0
100
AcDbEntity
  8
0
  6
Continuous
 62
     8
100
AcDbBlockReference
  2
*B48
 10
0.0
 20
0.0
 30
0.0
  0
INSERT
  5
3D9
100
AcDbEntity
  8
0
  6
Continuous
 62
     8
100
AcDbBlockReference
  2
*B49
 10
0.0
 20
0.0
 30
0.0
  0
INSERT
  5
3E0
100
AcDbEntity
  8
0
  6
Continuous
 62
     8
100
AcDbBlockReference
  2
*B50
 10
0.0
 20
0.0
 30
0.0
  0
INSERT
  5
3E5
100
AcDbEntity
  8
0
  6
Continuous
 62
     8
100
AcDbBlockReference
  2
*B51
 10
0.0
 20
0.0
 30
0.0
  0
INSERT
  5
3EA
100
AcDbEntity
  8
0
  6
Continuous
 62
     8
100
AcDbBlockReference
  2
*B52
 10
0.0
 20
0.0
 30
0.0
  0
INSERT
  5
3F0
100
AcDbEntity
  8
0
  6
Continuous
 62
     6
100
AcDbBlockReference
  2
*B53
 10
0.0
 20
0.0
 30
0.0
  0
INSERT
  5
3F6
100
AcDbEntity
  8
0
  6
Continuous
 62
     6
100
AcDbBlockReference
  2
*B54
 10
0.0
 20
0.0
 30
0.0
  0
INSERT
  5
3FC
100
AcDbEntity
  8
0
  6
Continuous
 62
     6
100
AcDbBlockReference
  2
*B55
 10
0.0
 20
0.0
 30
0.0
  0
INSERT
  5
402
100
AcDbEntity
  8
0
  6
Continuous
 62
     6
100
AcDbBlockReference
  2
*B56
 10
0.0
 20
0.0
 30
0.0
  0
INSERT
  5
408
100
AcDbEntity
  8
0
  6
Continuous
 62
     6
100
AcDbBlockReference
  2
*B57
 10
0.0
 20
0.0
 30
0.0
  0
INSERT
  5
40E
100
AcDbEntity
  8
0
  6
Continuous
 62
     6
100
AcDbBlockReference
  2
*B58
 10
0.0
 20
0.0
 30
0.0
  0
INSERT
  5
414
100
AcDbEntity
  8
0
  6
Continuous
 62
     6
100
AcDbBlockReference
  2
*B59
 10
0.0
 20
0.0
 30
0.0
  0
INSERT
  5
41A
100
AcDbEntity
  8
0
  6
Continuous
 62
     6
100
AcDbBlockReference
  2
*B60
 10
0.0
 20
0.0
 30
0.0
  0
INSERT
  5
41F
100
AcDbEntity
  8
TEXT
  6
Continuous
 62
     0
100
AcDbBlockReference
  2
*B61
 10
0.0
 20
0.0
 30
0.0
  0
INSERT
  5
424
100
AcDbEntity
  8
TEXT
  6
Continuous
 62
     0
100
AcDbBlockReference
  2
*B62
 10
0.0
 20
0.0
 30
0.0
  0
INSERT
  5
429
100
AcDbEntity
  8
TEXT
  6
Continuous
 62
     0
100
AcDbBlockReference
  2
*B63
 10
0.0
 20
0.0
 30
0.0
  0
INSERT
  5
42E
100
AcDbEntity
  8
TEXT
  6
Continuous
 62
     0
100
AcDbBlockReference
  2
*B64
 10
0.0
 20
0.0
 30
0.0
  0
INSERT
  5
433
100
AcDbEntity
  8
TEXT
  6
Continuous
 62
     0
100
AcDbBlockReference
  2
*B65
 10
0.0
 20
0.0
 30
0.0
  0
INSERT
  5
438
100
AcDbEntity
  8
TEXT
  6
Continuous
 62
     0
100
AcDbBlockReference
  2
*B66
 10
0.0
 20
0.0
 30
0.0
  0
INSERT
  5
43D
100
AcDbEntity
  8
TEXT
  6
Continuous
 62
     0
100
AcDbBlockReference
  2
*B67
 10
0.0
 20
0.0
 30
0.0
  0
INSERT
  5
442
100
AcDbEntity
  8
TEXT
  6
Continuous
 62
     0
100
AcDbBlockReference
  2
*B68
 10
0.0
 20
0.0
 30
0.0
  0
INSERT
  5
447
100
AcDbEntity
  8
TEXT
  6
Continuous
 62
     0
100
AcDbBlockReference
  2
*B69
 10
0.0
 20
0.0
 30
0.0
  0
INSERT
  5
44C
100
AcDbEntity
  8
TEXT
  6
Continuous
 62
     0
100
AcDbBlockReference
  2
*B70
 10
0.0
 20
0.0
 30
0.0
  0
INSERT
  5
451
100
AcDbEntity
  8
TEXT
  6
Continuous
 62
     0
100
AcDbBlockReference
  2
*B71
 10
0.0
 20
0.0
 30
0.0
  0
INSERT
  5
456
100
AcDbEntity
  8
TEXT
  6
Continuous
 62
     0
100
AcDbBlockReference
  2
*B72
 10
0.0
 20
0.0
 30
0.0
  0
INSERT
  5
45B
100
AcDbEntity
  8
TEXT
  6
Continuous
 62
     0
100
AcDbBlockReference
  2
*B73
 10
0.0
 20
0.0
 30
0.0
  0
INSERT
  5
460
100
AcDbEntity
  8
TEXT
  6
Continuous
 62
     0
100
AcDbBlockReference
  2
*B74
 10
0.0
 20
0.0
 30
0.0
  0
INSERT
  5
465
100
AcDbEntity
  8
TEXT
  6
Continuous
 62
     0
100
AcDbBlockReference
  2
*B75
 10
0.0
 20
0.0
 30
0.0
  0
INSERT
  5
46A
100
AcDbEntity
  8
TEXT
  6
Continuous
 62
     0
100
AcDbBlockReference
  2
*B76
 10
0.0
 20
0.0
 30
0.0
  0
INSERT
  5
46F
100
AcDbEntity
  8
TEXT
  6
Continuous
 62
     0
100
AcDbBlockReference
  2
*B77
 10
0.0
 20
0.0
 30
0.0
  0
INSERT
  5
474
100
AcDbEntity
  8
TEXT
  6
Continuous
 62
     0
100
AcDbBlockReference
  2
*B78
 10
0.0
 20
0.0
 30
0.0
  0
INSERT
  5
479
100
AcDbEntity
  8
TEXT
  6
Continuous
 62
     0
100
AcDbBlockReference
  2
*B79
 10
0.0
 20
0.0
 30
0.0
  0
INSERT
  5
47E
100
AcDbEntity
  8
TEXT
  6
Continuous
 62
     0
100
AcDbBlockReference
  2
*B80
 10
0.0
 20
0.0
 30
0.0
  0
INSERT
  5
483
100
AcDbEntity
  8
TEXT
  6
Continuous
 62
     0
100
AcDbBlockReference
  2
*B81
 10
0.0
 20
0.0
 30
0.0
  0
INSERT
  5
488
100
AcDbEntity
  8
TEXT
  6
Continuous
 62
     0
100
AcDbBlockReference
  2
*B82
 10
0.0
 20
0.0
 30
0.0
  0
ENDSEC
  0
SECTION
  2
OBJECTS
  0
DICTIONARY
  5
19
100
AcDbDictionary
280
     0
281
     1
  3
ACAD_GROUP
350
1A
  3
ACAD_MLINESTYLE
350
1B
  3
ACAD_LAYOUT
350
1E
  3
ACAD_PLOTSETTINGS
350
22
  3
ACAD_PLOTSTYLENAME
350
1F
  3
ACAD_WIPEOUT_VARS
350
23
  0
DICTIONARY
  5
1A
102
{ACAD_REACTORS
330
19
102
}
100
AcDbDictionary
280
     0
281
     1
  0
DICTIONARY
  5
1B
102
{ACAD_REACTORS
330
19
102
}
100
AcDbDictionary
280
     0
281
     1
  3
Standard
350
1C
  0
MLINESTYLE
  5
1C
102
{ACAD_REACTORS
330
1B
102
}
100
AcDbMlineStyle
  2
Standard
 70
     0
  3

 62
     0
 51
90.0
 52
90.0
 71
     2
 49
0.5
 62
   256
  6
BYLAYER
 49
-0.5
 62
   256
  6
BYLAYER
  0
ACDBDICTIONARYWDFLT
  5
1F
102
{ACAD_REACTORS
330
19
102
}
100
AcDbDictionary
281
     1
  3
Normal
350
1D
100
AcDbDictionaryWithDefault
340
1D
  0
ACDBPLACEHOLDER
  5
1D
102
{ACAD_REACTORS
330
1F
102
}
  0
LAYOUT
  5
20
102
{ACAD_REACTORS
330
1E
102
}
100
AcDbPlotSettings
  1

  2

  4

  6

 40
0.0
 41
0.0
 42
0.0
 43
0.0
 44
0.0
 45
0.0
 46
0.0
 47
0.0
 48
0.0
 49
0.0
140
0.0
141
0.0
142
1.0
143
1.0
 70
     0
 72
     0
 73
     0
 74
     0
  7

 75
     0
147
1.0
148
0.0
149
0.0
100
AcDbLayout
  1
Model
 70
     0
 71
     0
 10
0.0
 20
0.0
 11
0.0
 21
0.0
 12
0.0
 22
0.0
 32
0.0
 14
0.0
 24
0.0
 34
0.0
 15
0.0
 25
0.0
 35
0.0
146
0.0
 13
0.0
 23
0.0
 33
0.0
 16
0.0
 26
0.0
 36
0.0
 17
0.0
 27
0.0
 37
0.0
 76
     0
330
A
331
0
345
0
346
0
  0
LAYOUT
  5
21
102
{ACAD_REACTORS
330
1E
102
}
100
AcDbPlotSettings
  1

  2

  4

  6

 40
0.0
 41
0.0
 42
0.0
 43
0.0
 44
0.0
 45
0.0
 46
0.0
 47
0.0
 48
0.0
 49
0.0
140
0.0
141
0.0
142
1.0
143
1.0
 70
     0
 72
     0
 73
     0
 74
     0
  7

 75
     0
147
1.0
148
0.0
149
0.0
100
AcDbLayout
  1
Layout1
 70
     0
 71
     0
 10
0.0
 20
0.0
 11
0.0
 21
0.0
 12
0.0
 22
0.0
 32
0.0
 14
0.0
 24
0.0
 34
0.0
 15
0.0
 25
0.0
 35
0.0
146
0.0
 13
0.0
 23
0.0
 33
0.0
 16
0.0
 26
0.0
 36
0.0
 17
0.0
 27
0.0
 37
0.0
 76
     0
330
B
331
0
345
0
346
0
  0
DICTIONARY
  5
1E
102
{ACAD_REACTORS
330
19
102
}
100
AcDbDictionary
280
     0
281
     1
  3
Layout1
350
21
  3
Model
350
20
  0
DICTIONARY
  5
22
102
{ACAD_REACTORS
330
19
102
}
100
AcDbDictionary
280
     0
281
     1
  0
WIPEOUTVARIABLES
  5
23
100
AcDbWipeoutVariables
 70
     1
  0
ENDSEC
  0
EOF
