  0
SECTION
  2
HEADER
  9
$ACADVER
  1
AC1015
  9
$ACADMAINTVER
 70
     6
  9
$DWGCODEPAGE
  3
DOS850
  9
$INSBASE
 10
0.0
 20
0.0
 30
0.0
  9
$EXTMIN
 10
0.0
 20
0.0
 30
0.0
  9
$EXTMAX
 10
420.0
 20
297.0
 30
0.0
  9
$LIMMIN
 10
0.0
 20
0.0
  9
$LIMMAX
 10
420.0
 20
297.0
  9
$ORTHOMODE
 70
     0
  9
$REGENMODE
 70
     1
  9
$FILLMODE
 70
     1
  9
$QTEXTMODE
 70
     0
  9
$MIRRTEXT
 70
     1
  9
$LTSCALE
 40
25.4
  9
$ATTMODE
 70
     1
  9
$TEXTSIZE
 40
3.5
  9
$TRACEWID
 40
0.05
  9
$TEXTSTYLE
  7
Standard
  9
$CLAYER
  8
0
  9
$CELTYPE
  6
Continuous
  9
$CECOLOR
 62
   256
  9
$CELTSCALE
 40
1.0
  9
$DISPSILH
 70
     0
  9
$DIMSCALE
 40
1.0
  9
$DIMASZ
 40
5.0
  9
$DIMEXO
 40
3.0
  9
$DIMDLI
 40
0.38
  9
$DIMRND
 40
0.0
  9
$DIMDLE
 40
0.0
  9
$DIMEXE
 40
2.0
  9
$DIMTP
 40
0.0
  9
$DIMTM
 40
0.0
  9
$DIMTXT
 40
3.5
  9
$DIMCEN
 40
4.0
  9
$DIMTSZ
 40
0.0
  9
$DIMTOL
 70
     0
  9
$DIMLIM
 70
     0
  9
$DIMTIH
 70
     1
  9
$DIMTOH
 70
     1
  9
$DIMSE1
 70
     0
  9
$DIMSE2
 70
     0
  9
$DIMTAD
 70
     0
  9
$DIMZIN
 70
     0
  9
$DIMBLK
  1

  9
$DIMASO
 70
     1
  9
$DIMSHO
 70
     1
  9
$DIMPOST
  1

  9
$DIMAPOST
  1

  9
$DIMALT
 70
     0
  9
$DIMALTD
 70
     2
  9
$DIMALTF
 40
25.4
  9
$DIMLFAC
 40
1.0
  9
$DIMTOFL
 70
     0
  9
$DIMTVP
 40
0.0
  9
$DIMTIX
 70
     0
  9
$DIMSOXD
 70
     0
  9
$DIMSAH
 70
     0
  9
$DIMBLK1
  1

  9
$DIMBLK2
  1

  9
$DIMSTYLE
  2
Standard
  9
$DIMCLRD
 70
     0
  9
$DIMCLRE
 70
     0
  9
$DIMCLRT
 70
     0
  9
$DIMTFAC
 40
1.0
  9
$DIMGAP
 40
1.0
  9
$DIMJUST
 70
     0
  9
$DIMSD1
 70
     0
  9
$DIMSD2
 70
     0
  9
$DIMTOLJ
 70
     1
  9
$DIMTZIN
 70
     0
  9
$DIMALTZ
 70
     0
  9
$DIMALTTZ
 70
     0
  9
$DIMUPT
 70
     0
  9
$DIMDEC
 70
     4
  9
$DIMTDEC
 70
     4
  9
$DIMALTU
 70
     2
  9
$DIMALTTD
 70
     2
  9
$DIMTXSTY
  7
Standard
  9
$DIMAUNIT
 70
     0
  9
$DIMADEC
 70
     0
  9
$DIMALTRND
 40
0.0
  9
$DIMAZIN
 70
     0
  9
$DIMDSEP
 70
     0
  9
$DIMATFIT
 70
     3
  9
$DIMFRAC
 70
     0
  9
$DIMLDRBLK
  1

  9
$DIMLUNIT
 70
     2
  9
$DIMLWD
 70
     0
  9
$DIMLWE
 70
     0
  9
$DIMTMOVE
 70
     0
  9
$LUNITS
 70
     2
  9
$LUPREC
 70
     4
  9
$SKETCHINC
 40
0.1
  9
$FILLETRAD
 40
0.0
  9
$AUNITS
 70
     0
  9
$AUPREC
 70
     0
  9
$MENU
  1
acad
  9
$ELEVATION
 40
0.0
  9
$PELEVATION
 40
0.0
  9
$THICKNESS
 40
0.0
  9
$LIMCHECK
 70
     0
  9
$CHAMFERA
 40
0.0
  9
$CHAMFERB
 40
0.0
  9
$CHAMFERC
 40
0.0
  9
$CHAMFERD
 40
0.0
  9
$SKPOLY
 70
     0
  9
$TDCREATE
 40
0.000000000
  9
$TDUCREATE
 40
0.000000000
  9
$TDUPDATE
 40
0.000000000
  9
$TDUUPDATE
 40
0.000000000
  9
$TDINDWG
 40
0.0000000000
  9
$TDUSRTIMER
 40
0.0000000000
  9
$USRTIMER
 70
     1
  9
$ANGBASE
 50
0.0
  9
$ANGDIR
 70
     0
  9
$PDMODE
 70
     0
  9
$PDSIZE
 40
0.0
  9
$PLINEWID
 40
0.0
  9
$SPLFRAME
 70
     0
  9
$SPLINETYPE
 70
     6
  9
$SPLINESEGS
 70
     8
  9
$HANDSEED
  5
492
  9
$SURFTAB1
 70
     6
  9
$SURFTAB2
 70
     6
  9
$SURFTYPE
 70
     6
  9
$SURFU
 70
     6
  9
$SURFV
 70
     6
  9
$UCSBASE
  2

  9
$UCSNAME
  2

  9
$UCSORG
 10
0.0
 20
0.0
 30
0.0
  9
$UCSXDIR
 10
1.0
 20
0.0
 30
0.0
  9
$UCSYDIR
 10
0.0
 20
1.0
 30
0.0
  9
$UCSORTHOREF
  2

  9
$UCSORTHOVIEW
 70
     0
  9
$UCSORGTOP
 10
0.0
 20
0.0
 30
0.0
  9
$UCSORGBOTTOM
 10
0.0
 20
0.0
 30
0.0
  9
$UCSORGLEFT
 10
0.0
 20
0.0
 30
0.0
  9
$UCSORGRIGHT
 10
0.0
 20
0.0
 30
0.0
  9
$UCSORGFRONT
 10
0.0
 20
0.0
 30
0.0
  9
$UCSORGBACK
 10
0.0
 20
0.0
 30
0.0
  9
$PUCSBASE
  2

  9
$PUCSNAME
  2

  9
$PUCSORG
 10
0.0
 20
0.0
 30
0.0
  9
$PUCSXDIR
 10
1.0
 20
0.0
 30
0.0
  9
$PUCSYDIR
 10
0.0
 20
1.0
 30
0.0
  9
$PUCSORTHOREF
  2

  9
$PUCSORTHOVIEW
 70
     0
  9
$PUCSORGTOP
 10
0.0
 20
0.0
 30
0.0
  9
$PUCSORGBOTTOM
 10
0.0
 20
0.0
 30
0.0
  9
$PUCSORGLEFT
 10
0.0
 20
0.0
 30
0.0
  9
$PUCSORGRIGHT
 10
0.0
 20
0.0
 30
0.0
  9
$PUCSORGFRONT
 10
0.0
 20
0.0
 30
0.0
  9
$PUCSORGBACK
 10
0.0
 20
0.0
 30
0.0
  9
$USERI1
 70
     0
  9
$USERI2
 70
     0
  9
$USERI3
 70
     0
  9
$USERI4
 70
     0
  9
$USERI5
 70
     0
  9
$USERR1
 40
0.0
  9
$USERR2
 40
0.0
  9
$USERR3
 40
0.0
  9
$USERR4
 40
0.0
  9
$USERR5
 40
0.0
  9
$WORLDVIEW
 70
     1
  9
$SHADEDGE
 70
     3
  9
$SHADEDIF
 70
    70
  9
$TILEMODE
 70
     1
  9
$MAXACTVP
 70
    16
  9
$PINSBASE
 10
0.0
 20
0.0
 30
0.0
  9
$PLIMCHECK
 70
     0
  9
$PEXTMIN
 10
1.000000E+20
 20
1.000000E+20
 30
1.000000E+20
  9
$PEXTMAX
 10
-1.000000E+20
 20
-1.000000E+20
 30
-1.000000E+20
  9
$PLIMMIN
 10
0.0
 20
0.0
  9
$PLIMMAX
 10
420.0
 20
297.0
  9
$UNITMODE
 70
     0
  9
$VISRETAIN
 70
     0
  9
$PLINEGEN
 70
     1
  9
$PSLTSCALE
 70
     0
  9
$TREEDEPTH
 70
  3020
  9
$CMLSTYLE
  2
Standard
  9
$CMLJUST
 70
     0
  9
$CMLSCALE
 40
1.0
  9
$PROXYGRAPHICS
 70
     0
  9
$MEASUREMENT
 70
     0
  9
$CELWEIGHT
370
     0
  9
$ENDCAPS
280
     0
  9
$JOINSTYLE
280
     0
  9
$LWDISPLAY
290
     0
  9
$INSUNITS
 70
     0
  9
$HYPERLINKBASE
  1

  9
$XEDIT
290
     1
  9
$CEPSNTYPE
380
     0
  9
$PSTYLEMODE
290
     0
  9
$FINGERPRINTGUID
  2

  9
$VERSIONGUID
  2

  9
$EXTNAMES
290
     1
  9
$PSVPSCALE
 40
0.0
  0
ENDSEC
  0
SECTION
  2
CLASSES
  0
CLASS
  1
LWPOLYLINE
  2
AcDbPolyline
  3
"AutoCAD"
 90
        0
280
     0
281
     1
  0
CLASS
  1
IMAGE
  2
AcDbRasterImage
  3
ISM
 90
      127
280
     0
281
     1
  0
CLASS
  1
OLE2FRAME
  2
AcDbOle2Frame
  3
""
 90
        0
280
     0
281
     1
  0
CLASS
  1
HATCH
  2
AcDbHatch
  3
"ACAD_SEDONA"
 90
        0
280
     0
281
     1
  0
CLASS
  1
DICTIONARYVAR
  2
AcDbDictionaryVar
  3
"AutoCAD"
 90
        0
280
     0
281
     0
  0
CLASS
  1
RASTERVARIABLES
  2
AcDbRasterVariables
  3
ISM
 90
        0
280
     0
281
     0
  0
CLASS
  1
IMAGEDEF
  2
AcDbRasterImageDef
  3
ISM
 90
        0
280
     0
281
     0
  0
CLASS
  1
IMAGEDEF_REACTOR
  2
AcDbRasterImageDefReactor
  3
ISM
 90
        1
280
     0
281
     0
  0
CLASS
  1
IDBUFFER
  2
AcDbIdBuffer
  3
"Acad"
 90
        0
280
     0
281
     0
  0
CLASS
  1
SPATIAL_FILTER
  2
AcDbSpatialFilter
  3
"Acad"
 90
        0
280
     0
281
     0
  0
CLASS
  1
XRECORD
  2
AcDbXrecord
  3
"<Built In>"
 90
        0
280
     0
281
     0
  0
CLASS
  1
SORTENTSTABLE
  2
AcDbSortentsTable
  3
"AutoCAD"
 90
        0
280
     0
281
     0
  0
CLASS
  1
LAYER_INDEX
  2
AcDbLayerIndex
  3
"Acad"
 90
        0
280
     0
281
     0
  0
CLASS
  1
SPATIAL_INDEX
  2
AcDbSpatialIndex
  3
"Acad"
 90
        0
280
     0
281
     0
  0
CLASS
  1
OBJECT_PTR
  2
CAseDLPNTableRecord
  3
"ASE-LPNTableRecord"
 90
        1
280
     0
281
     0
  0
CLASS
  1
LAYOUT
  2
AcDbLayout
  3
"AutoCAD 2000"
 90
        1
280
     0
281
     0
  0
CLASS
  1
PLOTSETTINGS
  2
AcDbPlotSettings
  3
"AutoCAD 2000"
 90
        1
280
     0
281
     0
  0
CLASS
  1
ACDBDICTIONARYWDFLT
  2
AcDbDictionaryWithDefault
  3
"AutoCAD 2000"
 90
        1
280
     0
281
     0
  0
CLASS
  1
ACDBPLACEHOLDER
  2
AcDbPlaceHolder
  3
"AutoCAD 2000"
 90
        1
280
     0
281
     0
  0
CLASS
  1
VBA_PROJECT
  2
AcDbVbaProject
  3
"acadvba"
 90
        1
280
     0
281
     0
  0
CLASS
  1
WIPEOUT
  2
AcDbWipeout
  3
WipeOut|AutoCAD Express Tool|expresstools@autodesk.com
 90
      127
280
     0
281
     1
  0
CLASS
  1
WIPEOUTVARIABLES
  2
AcDbWipeoutVariables
  3
WipeOut|AutoCAD Express Tool|expresstools@autodesk.com
 90
        0
280
     0
281
     0
  0
CLASS
  1
RTEXT
  2
RText
  3
RText|AutoCAD Express Tool|expresstools@autodesk.com
 90
        0
280
     0
281
     1
  0
CLASS
  1
ARCALIGNEDTEXT
  2
AcDbArcAlignedText
  3
ATEXT|AutoCAD Express Tool|expresstools@autodesk.com
 90
        0
280
     0
281
     1
  0
ENDSEC
  0
SECTION
  2
TABLES
  0
TABLE
  2
VPORT
  5
7
100
AcDbSymbolTable
 70
     1
  0
VPORT
  5
15
100
AcDbSymbolTableRecord
100
AcDbViewportTableRecord
  2
*ACTIVE
 70
     0
 10
0.0
 20
0.0
 11
1.0
 21
1.0
 12
6.591288
 22
4.579184
 13
0.0
 23
0.0
 14
1.0
 24
1.0
 15
0.0
 25
0.0
 16
0.0
 26
0.0
 36
1.0
 17
0.0
 27
0.0
 37
0.0
 40
9.158369
 41
0.688564
 42
50.0
 43
0.0
 44
0.0
 50
0.0
 51
0.0
 71
     0
 72
   100
 73
     1
 74
     1
 75
     0
 76
     0
 77
     0
 78
     0
281
     0
 65
     0
110
0.0
120
0.0
130
0.0
111
1.0
121
0.0
131
0.0
112
0.0
122
1.0
132
0.0
345
0
346
0
 79
     0
146
0.0
  0
ENDTAB
  0
TABLE
  2
LTYPE
  5
4
100
AcDbSymbolTable
 70
     7
  0
LTYPE
  5
11
100
AcDbSymbolTableRecord
100
AcDbLinetypeTableRecord
  2
ByBlock
 70
    64
  3

 72
    65
 73
     0
 40
0.0
  0
LTYPE
  5
12
100
AcDbSymbolTableRecord
100
AcDbLinetypeTableRecord
  2
ByLayer
 70
    64
  3

 72
    65
 73
     0
 40
0.0
  0
LTYPE
  5
13
100
AcDbSymbolTableRecord
100
AcDbLinetypeTableRecord
  2
Continuous
 70
    64
  3
Solid line
 72
    65
 73
     0
 40
0.0
  0
LTYPE
  5
24
100
AcDbSymbolTableRecord
100
AcDbLinetypeTableRecord
  2
HIDDEN
 70
    64
  3
_ _ _ _ _ _ _ _ _ _ _ _ _ _ _ _ _ _ _ _ _ _ _ _
 72
    65
 73
     2
 40
0.1875
 49
0.125
 74
     0
 49
-0.0625
 74
     0
  0
LTYPE
  5
25
100
AcDbSymbolTableRecord
100
AcDbLinetypeTableRecord
  2
DOTTED
 70
    64
  3
...............................................
 72
    65
 73
     2
 40
0.125
 49
0.0
 74
     0
 49
-0.125
 74
     0
  0
LTYPE
  5
26
100
AcDbSymbolTableRecord
100
AcDbLinetypeTableRecord
  2
CENTER
 70
    64
  3
____ _ ____ _ ____ _ ____ _ ____ _ ____ _ ____ 
 72
    65
 73
     4
 40
1.125
 49
0.75
 74
     0
 49
-0.125
 74
     0
 49
0.125
 74
     0
 49
-0.125
 74
     0
  0
LTYPE
  5
27
100
AcDbSymbolTableRecord
100
AcDbLinetypeTableRecord
  2
PHANTOM
 70
    64
  3
______  __  __  ______  __  __  ______  __  __ 
 72
    65
 73
     6
 40
1.25
 49
0.625
 74
     0
 49
-0.125
 74
     0
 49
0.125
 74
     0
 49
-0.125
 74
     0
 49
0.125
 74
     0
 49
-0.125
 74
     0
  0
ENDTAB
  0
TABLE
  2
LAYER
  5
2
100
AcDbSymbolTable
 70
     2
  0
LAYER
  5
14
100
AcDbSymbolTableRecord
100
AcDbLayerTableRecord
  2
0
 70
     0
 62
     7
  6
Continuous
290
     1
370
    -3
390
1D
  0
LAYER
  5
28
100
AcDbSymbolTableRecord
100
AcDbLayerTableRecord
  2
TEXT
 70
     0
 62
     8
  6
Continuous
290
     1
370
    -3
390
1F
  0
ENDTAB
  0
TABLE
  2
STYLE
  5
3
100
AcDbSymbolTable
 70
     1
  0
STYLE
  5
17
100
AcDbSymbolTableRecord
100
AcDbTextStyleTableRecord
  2
Standard
 70
     0
 40
0.0
 41
1.0
 50
0.0
 71
     0
 42
0.0
  3
txt
  4

  0
ENDTAB
  0
TABLE
  2
VIEW
  5
5
100
AcDbSymbolTable
 70
     0
  0
ENDTAB
  0
TABLE
  2
UCS
  5
6
100
AcDbSymbolTable
 70
     0
  0
ENDTAB
  0
TABLE
  2
APPID
  5
8
100
AcDbSymbolTable
 70
     1
  0
APPID
  5
16
100
AcDbSymbolTableRecord
100
AcDbRegAppTableRecord
  2
ACAD
 70
     0
  0
ENDTAB
  0
TABLE
  2
DIMSTYLE
  5
9
100
AcDbSymbolTable
 70
     1
100
AcDbDimStyleTable
 71
     0
  0
DIMSTYLE
105
18
100
AcDbSymbolTableRecord
100
AcDbDimStyleTableRecord
  2
Standard
 70
     0
  3

  4

 40
1.0
 41
0.18
 42
0.0625
 43
0.38
 44
0.18
 45
0.0
 46
0.0
 47
0.0
 48
0.0
 71
     0
 72
     0
 73
     1
 74
     1
 75
     0
 76
     0
 77
     0
 78
     0
 79
     0
140
0.18
141
0.09
142
0.0
143
25.4
144
1.0
145
0.0
146
1.0
147
0.09
148
0.0
170
     0
171
     2
172
     0
173
     0
174
     0
175
     0
176
     0
177
     0
178
     0
179
     0
271
     4
272
     4
273
     2
274
     2
275
     0
276
     0
277
     2
278
    46
279
     0
280
     0
281
     0
282
     0
283
     1
284
     0
285
     0
286
     0
288
     0
340
17
341
0
342
0
343
0
344
0
371
    -2
372
    -2
  0
ENDTAB
  0
TABLE
  2
BLOCK_RECORD
  5
1
100
AcDbSymbolTable
 70
    87
  0
BLOCK_RECORD
  5
A
100
AcDbSymbolTableRecord
100
AcDbBlockTableRecord
  2
*MODEL_SPACE
340
20
  0
BLOCK_RECORD
  5
B
100
AcDbSymbolTableRecord
100
AcDbBlockTableRecord
  2
*PAPER_SPACE
340
21
  0
BLOCK_RECORD
  5
29
100
AcDbSymbolTableRecord
100
AcDbBlockTableRecord
  2
*B0
340
0
  0
BLOCK_RECORD
  5
2C
100
AcDbSymbolTableRecord
100
AcDbBlockTableRecord
  2
*B1
340
0
  0
BLOCK_RECORD
  5
18E
100
AcDbSymbolTableRecord
100
AcDbBlockTableRecord
  2
*B2
340
0
  0
BLOCK_RECORD
  5
266
100
AcDbSymbolTableRecord
100
AcDbBlockTableRecord
  2
*B3
340
0
  0
BLOCK_RECORD
  5
26C
100
AcDbSymbolTableRecord
100
AcDbBlockTableRecord
  2
*B4
340
0
  0
BLOCK_RECORD
  5
277
100
AcDbSymbolTableRecord
100
AcDbBlockTableRecord
  2
*B5
340
0
  0
BLOCK_RECORD
  5
27A
100
AcDbSymbolTableRecord
100
AcDbBlockTableRecord
  2
*B6
340
0
  0
BLOCK_RECORD
  5
280
100
AcDbSymbolTableRecord
100
AcDbBlockTableRecord
  2
*B7
340
0
  0
BLOCK_RECORD
  5
28B
100
AcDbSymbolTableRecord
100
AcDbBlockTableRecord
  2
*B8
340
0
  0
BLOCK_RECORD
  5
28E
100
AcDbSymbolTableRecord
100
AcDbBlockTableRecord
  2
*B9
340
0
  0
BLOCK_RECORD
  5
295
100
AcDbSymbolTableRecord
100
AcDbBlockTableRecord
  2
*B10
340
0
  0
BLOCK_RECORD
  5
29C
100
AcDbSymbolTableRecord
100
AcDbBlockTableRecord
  2
*B11
340
0
  0
BLOCK_RECORD
  5
2A3
100
AcDbSymbolTableRecord
100
AcDbBlockTableRecord
  2
*B12
340
0
  0
BLOCK_RECORD
  5
2AA
100
AcDbSymbolTableRecord
100
AcDbBlockTableRecord
  2
*B13
340
0
  0
BLOCK_RECORD
  5
2B1
100
AcDbSymbolTableRecord
100
AcDbBlockTableRecord
  2
*B14
340
0
  0
BLOCK_RECORD
  5
2B8
100
AcDbSymbolTableRecord
100
AcDbBlockTableRecord
  2
*B15
340
0
  0
BLOCK_RECORD
  5
2BF
100
AcDbSymbolTableRecord
100
AcDbBlockTableRecord
  2
*B16
340
0
  0
BLOCK_RECORD
  5
2C6
100
AcDbSymbolTableRecord
100
AcDbBlockTableRecord
  2
*B17
340
0
  0
BLOCK_RECORD
  5
2CD
100
AcDbSymbolTableRecord
100
AcDbBlockTableRecord
  2
*B18
340
0
  0
BLOCK_RECORD
  5
2D4
100
AcDbSymbolTableRecord
100
AcDbBlockTableRecord
  2
*B19
340
0
  0
BLOCK_RECORD
  5
2DB
100
AcDbSymbolTableRecord
100
AcDbBlockTableRecord
  2
*B20
340
0
  0
BLOCK_RECORD
  5
2E2
100
AcDbSymbolTableRecord
100
AcDbBlockTableRecord
  2
*B21
340
0
  0
BLOCK_RECORD
  5
2E9
100
AcDbSymbolTableRecord
100
AcDbBlockTableRecord
  2
*B22
340
0
  0
BLOCK_RECORD
  5
2EF
100
AcDbSymbolTableRecord
100
AcDbBlockTableRecord
  2
*B23
340
0
  0
BLOCK_RECORD
  5
2F4
100
AcDbSymbolTableRecord
100
AcDbBlockTableRecord
  2
*B24
340
0
  0
BLOCK_RECORD
  5
2F9
100
AcDbSymbolTableRecord
100
AcDbBlockTableRecord
  2
*B25
340
0
  0
BLOCK_RECORD
  5
2FE
100
AcDbSymbolTableRecord
100
AcDbBlockTableRecord
  2
*B26
340
0
  0
BLOCK_RECORD
  5
303
100
AcDbSymbolTableRecord
100
AcDbBlockTableRecord
  2
*B27
340
0
  0
BLOCK_RECORD
  5
309
100
AcDbSymbolTableRecord
100
AcDbBlockTableRecord
  2
*B28
340
0
  0
BLOCK_RECORD
  5
30E
100
AcDbSymbolTableRecord
100
AcDbBlockTableRecord
  2
*B29
340
0
  0
BLOCK_RECORD
  5
313
100
AcDbSymbolTableRecord
100
AcDbBlockTableRecord
  2
*B30
340
0
  0
BLOCK_RECORD
  5
319
100
AcDbSymbolTableRecord
100
AcDbBlockTableRecord
  2
*B31
340
0
  0
BLOCK_RECORD
  5
31E
100
AcDbSymbolTableRecord
100
AcDbBlockTableRecord
  2
*B32
340
0
  0
BLOCK_RECORD
  5
323
100
AcDbSymbolTableRecord
100
AcDbBlockTableRecord
  2
*B33
340
0
  0
BLOCK_RECORD
  5
32E
100
AcDbSymbolTableRecord
100
AcDbBlockTableRecord
  2
*B34
340
0
  0
BLOCK_RECORD
  5
333
100
AcDbSymbolTableRecord
100
AcDbBlockTableRecord
  2
*B35
340
0
  0
BLOCK_RECORD
  5
338
100
AcDbSymbolTableRecord
100
AcDbBlockTableRecord
  2
*B36
340
0
  0
BLOCK_RECORD
  5
355
100
AcDbSymbolTableRecord
100
AcDbBlockTableRecord
  2
*B37
340
0
  0
BLOCK_RECORD
  5
362
100
AcDbSymbolTableRecord
100
AcDbBlockTableRecord
  2
*B38
340
0
  0
BLOCK_RECORD
  5
368
100
AcDbSymbolTableRecord
100
AcDbBlockTableRecord
  2
*B39
340
0
  0
BLOCK_RECORD
  5
36E
100
AcDbSymbolTableRecord
100
AcDbBlockTableRecord
  2
*B40
340
0
  0
BLOCK_RECORD
  5
375
100
AcDbSymbolTableRecord
100
AcDbBlockTableRecord
  2
*B41
340
0
  0
BLOCK_RECORD
  5
37A
100
AcDbSymbolTableRecord
100
AcDbBlockTableRecord
  2
*B42
340
0
  0
BLOCK_RECORD
  5
37F
100
AcDbSymbolTableRecord
100
AcDbBlockTableRecord
  2
*B43
340
0
  0
BLOCK_RECORD
  5
385
100
AcDbSymbolTableRecord
100
AcDbBlockTableRecord
  2
*B44
340
0
  0
BLOCK_RECORD
  5
38C
100
AcDbSymbolTableRecord
100
AcDbBlockTableRecord
  2
*B45
340
0
  0
BLOCK_RECORD
  5
392
100
AcDbSymbolTableRecord
100
AcDbBlockTableRecord
  2
*B46
340
0
  0
BLOCK_RECORD
  5
397
100
AcDbSymbolTableRecord
100
AcDbBlockTableRecord
  2
*B47
340
0
  0
BLOCK_RECORD
  5
3A4
100
AcDbSymbolTableRecord
100
AcDbBlockTableRecord
  2
*B48
340
0
  0
BLOCK_RECORD
  5
3AA
100
AcDbSymbolTableRecord
100
AcDbBlockTableRecord
  2
*B49
340
0
  0
BLOCK_RECORD
  5
3AF
100
AcDbSymbolTableRecord
100
AcDbBlockTableRecord
  2
*B50
340
0
  0
BLOCK_RECORD
  5
3BC
100
AcDbSymbolTableRecord
100
AcDbBlockTableRecord
  2
*B51
340
0
  0
BLOCK_RECORD
  5
3C5
100
AcDbSymbolTableRecord
100
AcDbBlockTableRecord
  2
*B52
340
0
  0
BLOCK_RECORD
  5
3CA
100
AcDbSymbolTableRecord
100
AcDbBlockTableRecord
  2
*B53
340
0
  0
BLOCK_RECORD
  5
3D0
100
AcDbSymbolTableRecord
100
AcDbBlockTableRecord
  2
*B54
340
0
  0
BLOCK_RECORD
  5
3EA
100
AcDbSymbolTableRecord
100
AcDbBlockTableRecord
  2
*B55
340
0
  0
BLOCK_RECORD
  5
3EF
100
AcDbSymbolTableRecord
100
AcDbBlockTableRecord
  2
*B56
340
0
  0
BLOCK_RECORD
  5
3F5
100
AcDbSymbolTableRecord
100
AcDbBlockTableRecord
  2
*B57
340
0
  0
BLOCK_RECORD
  5
3FB
100
AcDbSymbolTableRecord
100
AcDbBlockTableRecord
  2
*B58
340
0
  0
BLOCK_RECORD
  5
401
100
AcDbSymbolTableRecord
100
AcDbBlockTableRecord
  2
*B59
340
0
  0
BLOCK_RECORD
  5
407
100
AcDbSymbolTableRecord
100
AcDbBlockTableRecord
  2
*B60
340
0
  0
BLOCK_RECORD
  5
40D
100
AcDbSymbolTableRecord
100
AcDbBlockTableRecord
  2
*B61
340
0
  0
BLOCK_RECORD
  5
413
100
AcDbSymbolTableRecord
100
AcDbBlockTableRecord
  2
*B62
340
0
  0
BLOCK_RECORD
  5
419
100
AcDbSymbolTableRecord
100
AcDbBlockTableRecord
  2
*B63
340
0
  0
BLOCK_RECORD
  5
41F
100
AcDbSymbolTableRecord
100
AcDbBlockTableRecord
  2
*B64
340
0
  0
BLOCK_RECORD
  5
424
100
AcDbSymbolTableRecord
100
AcDbBlockTableRecord
  2
*B65
340
0
  0
BLOCK_RECORD
  5
429
100
AcDbSymbolTableRecord
100
AcDbBlockTableRecord
  2
*B66
340
0
  0
BLOCK_RECORD
  5
42E
100
AcDbSymbolTableRecord
100
AcDbBlockTableRecord
  2
*B67
340
0
  0
BLOCK_RECORD
  5
433
100
AcDbSymbolTableRecord
100
AcDbBlockTableRecord
  2
*B68
340
0
  0
BLOCK_RECORD
  5
438
100
AcDbSymbolTableRecord
100
AcDbBlockTableRecord
  2
*B69
340
0
  0
BLOCK_RECORD
  5
43D
100
AcDbSymbolTableRecord
100
AcDbBlockTableRecord
  2
*B70
340
0
  0
BLOCK_RECORD
  5
442
100
AcDbSymbolTableRecord
100
AcDbBlockTableRecord
  2
*B71
340
0
  0
BLOCK_RECORD
  5
447
100
AcDbSymbolTableRecord
100
AcDbBlockTableRecord
  2
*B72
340
0
  0
BLOCK_RECORD
  5
44C
100
AcDbSymbolTableRecord
100
AcDbBlockTableRecord
  2
*B73
340
0
  0
BLOCK_RECORD
  5
451
100
AcDbSymbolTableRecord
100
AcDbBlockTableRecord
  2
*B74
340
0
  0
BLOCK_RECORD
  5
456
100
AcDbSymbolTableRecord
100
AcDbBlockTableRecord
  2
*B75
340
0
  0
BLOCK_RECORD
  5
45B
100
AcDbSymbolTableRecord
100
AcDbBlockTableRecord
  2
*B76
340
0
  0
BLOCK_RECORD
  5
460
100
AcDbSymbolTableRecord
100
AcDbBlockTableRecord
  2
*B77
340
0
  0
BLOCK_RECORD
  5
465
100
AcDbSymbolTableRecord
100
AcDbBlockTableRecord
  2
*B78
340
0
  0
BLOCK_RECORD
  5
46A
100
AcDbSymbolTableRecord
100
AcDbBlockTableRecord
  2
*B79
340
0
  0
BLOCK_RECORD
  5
46F
100
AcDbSymbolTableRecord
100
AcDbBlockTableRecord
  2
*B80
340
0
  0
BLOCK_RECORD
  5
474
100
AcDbSymbolTableRecord
100
AcDbBlockTableRecord
  2
*B81
340
0
  0
BLOCK_RECORD
  5
479
100
AcDbSymbolTableRecord
100
AcDbBlockTableRecord
  2
*B82
340
0
  0
BLOCK_RECORD
  5
47E
100
AcDbSymbolTableRecord
100
AcDbBlockTableRecord
  2
*B83
340
0
  0
BLOCK_RECORD
  5
483
100
AcDbSymbolTableRecord
100
AcDbBlockTableRecord
  2
*B84
340
0
  0
BLOCK_RECORD
  5
488
100
AcDbSymbolTableRecord
100
AcDbBlockTableRecord
  2
*B85
340
0
  0
BLOCK_RECORD
  5
48D
100
AcDbSymbolTableRecord
100
AcDbBlockTableRecord
  2
*B86
340
0
  0
ENDTAB
  0
ENDSEC
  0
SECTION
  2
BLOCKS
  0
BLOCK
  5
D
100
AcDbEntity
  8
0
100
AcDbBlockBegin
  2
*MODEL_SPACE
 70
     0
 10
0.0
 20
0.0
 30
0.0
  3
*MODEL_SPACE
  1

  0
ENDBLK
  5
E
100
AcDbEntity
  8
0
100
AcDbBlockEnd
  0
BLOCK
  5
F
100
AcDbEntity
 67
     1
  8
0
100
AcDbBlockBegin
  2
*PAPER_SPACE
 70
     0
 10
0.0
 20
0.0
 30
0.0
  3
*PAPER_SPACE
  1

  0
ENDBLK
  5
10
100
AcDbEntity
 67
     1
  8
0
100
AcDbBlockEnd
  0
BLOCK
  5
2A
100
AcDbEntity
  8
0
100
AcDbBlockBegin
  2
*B0
 70
     0
 10
0.0
 20
0.0
 30
0.0
  3
*B0
  1

  0
ENDBLK
  5
2B
100
AcDbEntity
  8
0
100
AcDbBlockEnd
  0
BLOCK
  5
2D
100
AcDbEntity
  8
0
100
AcDbBlockBegin
  2
*B1
 70
     0
 10
0.0
 20
0.0
 30
0.0
  3
*B1
  1

  0
LINE
  5
2E
100
AcDbEntity
  8
0
  6
HIDDEN
 62
   174
100
AcDbLine
 10
217.792152
 20
190.790435
 30
0.0
 11
217.792152
 21
179.790435
 31
0.0
  0
LINE
  5
2F
100
AcDbEntity
  8
0
  6
HIDDEN
 62
   174
100
AcDbLine
 10
230.247152
 20
190.790435
 30
0.0
 11
230.247152
 21
179.790435
 31
0.0
  0
LINE
  5
30
100
AcDbEntity
  8
0
  6
HIDDEN
 62
   174
100
AcDbLine
 10
217.112846
 20
190.790435
 30
0.0
 11
230.272794
 21
190.790435
 31
0.0
  0
LINE
  5
31
100
AcDbEntity
  8
0
  6
HIDDEN
 62
   174
100
AcDbLine
 10
217.112846
 20
179.790435
 30
0.0
 11
230.272794
 21
179.790435
 31
0.0
  0
LINE
  5
32
100
AcDbEntity
  8
0
  6
HIDDEN
 62
   174
100
AcDbLine
 10
217.087152
 20
190.790435
 30
0.0
 11
217.087152
 21
179.790435
 31
0.0
  0
LINE
  5
33
100
AcDbEntity
  8
0
  6
HIDDEN
 62
   174
100
AcDbLine
 10
230.247152
 20
190.790435
 30
0.0
 11
230.247152
 21
179.790435
 31
0.0
  0
LINE
  5
34
100
AcDbEntity
  8
0
  6
HIDDEN
 62
   174
100
AcDbLine
 10
217.087152
 20
190.790435
 30
0.0
 11
217.087152
 21
179.790435
 31
0.0
  0
LINE
  5
35
100
AcDbEntity
  8
0
  6
HIDDEN
 62
   174
100
AcDbLine
 10
217.792152
 20
179.790435
 30
0.0
 11
217.792152
 21
191.790435
 31
0.0
  0
LINE
  5
36
100
AcDbEntity
  8
0
  6
HIDDEN
 62
   174
100
AcDbLine
 10
229.542152
 20
179.790435
 30
0.0
 11
229.542152
 21
191.790435
 31
0.0
  0
LINE
  5
37
100
AcDbEntity
  8
0
  6
HIDDEN
 62
   174
100
AcDbLine
 10
217.792152
 20
179.790435
 30
0.0
 11
217.792152
 21
191.790435
 31
0.0
  0
LINE
  5
38
100
AcDbEntity
  8
0
  6
HIDDEN
 62
   174
100
AcDbLine
 10
229.542152
 20
179.790435
 30
0.0
 11
229.542152
 21
191.790435
 31
0.0
  0
LINE
  5
39
100
AcDbEntity
  8
0
  6
HIDDEN
 62
   174
100
AcDbLine
 10
229.542152
 20
190.790435
 30
0.0
 11
229.542152
 21
179.790435
 31
0.0
  0
LINE
  5
3A
100
AcDbEntity
  8
0
  6
HIDDEN
 62
   174
100
AcDbLine
 10
217.792152
 20
190.790435
 30
0.0
 11
217.792152
 21
179.790435
 31
0.0
  0
LINE
  5
3B
100
AcDbEntity
  8
0
  6
HIDDEN
 62
   174
100
AcDbLine
 10
154.92342
 20
250.790435
 30
0.0
 11
154.484557
 21
250.790435
 31
0.0
  0
LINE
  5
3C
100
AcDbEntity
  8
0
  6
Continuous
 62
   174
100
AcDbLine
 10
302.167152
 20
251.790435
 30
0.0
 11
302.867152
 21
251.790435
 31
0.0
  0
LINE
  5
3D
100
AcDbEntity
  8
0
  6
Continuous
 62
   174
100
AcDbLine
 10
123.167152
 20
233.790435
 30
0.0
 11
122.467152
 21
233.790435
 31
0.0
  0
LINE
  5
3E
100
AcDbEntity
  8
0
  6
Continuous
 62
   174
100
AcDbLine
 10
299.167152
 20
250.790435
 30
0.0
 11
284.167152
 21
250.790435
 31
0.0
  0
LINE
  5
3F
100
AcDbEntity
  8
0
  6
HIDDEN
 62
   174
100
AcDbLine
 10
219.272776
 20
229.790435
 30
0.0
 11
206.112828
 21
229.790435
 31
0.0
  0
LINE
  5
40
100
AcDbEntity
  8
0
  6
HIDDEN
 62
   174
100
AcDbLine
 10
219.247152
 20
218.790435
 30
0.0
 11
219.247152
 21
229.790435
 31
0.0
  0
LINE
  5
41
100
AcDbEntity
  8
0
  6
Continuous
 62
   174
100
AcDbLine
 10
183.667152
 20
179.790435
 30
0.0
 11
183.667152
 21
229.790435
 31
0.0
  0
LINE
  5
42
100
AcDbEntity
  8
0
  6
HIDDEN
 62
   174
100
AcDbLine
 10
261.167152
 20
250.790435
 30
0.0
 11
269.267152
 21
250.790435
 31
0.0
  0
LINE
  5
43
100
AcDbEntity
  8
0
  6
HIDDEN
 62
   174
100
AcDbLine
 10
275.053999
 20
250.790435
 30
0.0
 11
275.667152
 21
250.790435
 31
0.0
  0
LINE
  5
44
100
AcDbEntity
  8
0
  6
Continuous
 62
   174
100
AcDbLine
 10
126.167152
 20
236.217856
 30
0.0
 11
126.167152
 21
234.824867
 31
0.0
  0
LINE
  5
45
100
AcDbEntity
  8
0
  6
Continuous
 62
   174
100
AcDbLine
 10
126.167152
 20
249.430375
 30
0.0
 11
126.167152
 21
242.824416
 31
0.0
  0
LINE
  5
46
100
AcDbEntity
  8
0
  6
Continuous
 62
   174
100
AcDbLine
 10
126.167152
 20
242.824416
 30
0.0
 11
126.167152
 21
236.217856
 31
0.0
  0
LINE
  5
47
100
AcDbEntity
  8
0
  6
HIDDEN
 62
   174
100
AcDbLine
 10
275.053999
 20
250.790435
 30
0.0
 11
274.644335
 21
250.790435
 31
0.0
  0
LINE
  5
48
100
AcDbEntity
  8
0
  6
HIDDEN
 62
   174
100
AcDbLine
 10
154.484557
 20
250.790435
 30
0.0
 11
152.667152
 21
250.790435
 31
0.0
  0
LINE
  5
49
100
AcDbEntity
  8
0
  6
Continuous
 62
   174
100
AcDbLine
 10
126.167152
 20
249.290435
 30
0.0
 11
123.167152
 21
249.290435
 31
0.0
  0
LINE
  5
4A
100
AcDbEntity
  8
0
  6
HIDDEN
 62
   174
100
AcDbLine
 10
218.567719
 20
217.790435
 30
0.0
 11
206.817884
 21
217.790435
 31
0.0
  0
LINE
  5
4B
100
AcDbEntity
  8
0
  6
HIDDEN
 62
   174
100
AcDbLine
 10
219.272776
 20
218.790435
 30
0.0
 11
206.112828
 21
218.790435
 31
0.0
  0
LINE
  5
4C
100
AcDbEntity
  8
0
  6
HIDDEN
 62
   174
100
AcDbLine
 10
269.667209
 20
250.790435
 30
0.0
 11
270.849747
 21
250.790435
 31
0.0
  0
LINE
  5
4D
100
AcDbEntity
  8
0
  6
Continuous
 62
   174
100
AcDbLine
 10
183.667152
 20
229.790435
 30
0.0
 11
183.667152
 21
179.790435
 31
0.0
  0
LINE
  5
4E
100
AcDbEntity
  8
0
  6
Continuous
 62
   174
100
AcDbLine
 10
167.167152
 20
247.790435
 30
0.0
 11
167.167152
 21
221.790435
 31
0.0
  0
LINE
  5
4F
100
AcDbEntity
  8
0
  6
Continuous
 62
   174
100
AcDbLine
 10
241.667152
 20
179.790435
 30
0.0
 11
241.667152
 21
229.790435
 31
0.0
  0
LINE
  5
50
100
AcDbEntity
  8
0
  6
Continuous
 62
   174
100
AcDbLine
 10
241.667152
 20
179.790435
 30
0.0
 11
257.667152
 21
179.790435
 31
0.0
  0
LINE
  5
51
100
AcDbEntity
  8
0
  6
HIDDEN
 62
   174
100
AcDbLine
 10
126.167152
 20
236.324801
 30
0.0
 11
126.167152
 21
242.824416
 31
0.0
  0
LINE
  5
52
100
AcDbEntity
  8
0
  6
HIDDEN
 62
   174
100
AcDbLine
 10
123.167152
 20
242.824416
 30
0.0
 11
123.167152
 21
236.324801
 31
0.0
  0
LINE
  5
53
100
AcDbEntity
  8
0
  6
Continuous
 62
   174
100
AcDbLine
 10
299.167152
 20
242.824416
 30
0.0
 11
299.167152
 21
249.430676
 31
0.0
  0
LINE
  5
54
100
AcDbEntity
  8
0
  6
Continuous
 62
   174
100
AcDbLine
 10
299.167152
 20
249.430676
 30
0.0
 11
299.167152
 21
250.823665
 31
0.0
  0
LINE
  5
55
100
AcDbEntity
  8
0
  6
Continuous
 62
   174
100
AcDbLine
 10
299.167152
 20
234.824867
 30
0.0
 11
299.167152
 21
236.218157
 31
0.0
  0
LINE
  5
56
100
AcDbEntity
  8
0
  6
Continuous
 62
   174
100
AcDbLine
 10
302.167152
 20
249.538221
 30
0.0
 11
302.167152
 21
242.824416
 31
0.0
  0
LINE
  5
57
100
AcDbEntity
  8
0
  6
Continuous
 62
   174
100
AcDbLine
 10
302.167152
 20
251.823721
 30
0.0
 11
302.167152
 21
249.538221
 31
0.0
  0
LINE
  5
58
100
AcDbEntity
  8
0
  6
Continuous
 62
   174
100
AcDbLine
 10
126.167152
 20
234.790435
 30
0.0
 11
138.167152
 21
234.790435
 31
0.0
  0
LINE
  5
59
100
AcDbEntity
  8
0
  6
HIDDEN
 62
   174
100
AcDbLine
 10
218.542152
 20
218.790435
 30
0.0
 11
218.542152
 21
229.790435
 31
0.0
  0
LINE
  5
5A
100
AcDbEntity
  8
0
  6
Continuous
 62
   174
100
AcDbLine
 10
241.667152
 20
229.790435
 30
0.0
 11
241.667152
 21
179.790435
 31
0.0
  0
LINE
  5
5B
100
AcDbEntity
  8
0
  6
Continuous
 62
   174
100
AcDbLine
 10
183.667152
 20
179.790435
 30
0.0
 11
167.667152
 21
179.790435
 31
0.0
  0
LINE
  5
5C
100
AcDbEntity
  8
0
  6
Continuous
 62
   174
100
AcDbLine
 10
123.167152
 20
242.824416
 30
0.0
 11
123.167152
 21
249.538522
 31
0.0
  0
LINE
  5
5D
100
AcDbEntity
  8
0
  6
HIDDEN
 62
   174
100
AcDbLine
 10
229.542152
 20
190.790435
 30
0.0
 11
229.542152
 21
179.790435
 31
0.0
  0
LINE
  5
5E
100
AcDbEntity
  8
0
  6
HIDDEN
 62
   174
100
AcDbLine
 10
274.644335
 20
250.790435
 30
0.0
 11
272.667152
 21
250.790435
 31
0.0
  0
LINE
  5
5F
100
AcDbEntity
  8
0
  6
Continuous
 62
   174
100
AcDbLine
 10
118.667152
 20
234.990435
 30
0.0
 11
119.334406
 21
233.834717
 31
0.0
  0
LINE
  5
60
100
AcDbEntity
  8
0
  6
HIDDEN
 62
   174
100
AcDbLine
 10
138.167152
 20
240.006553
 30
0.0
 11
138.167152
 21
234.790435
 31
0.0
  0
LINE
  5
61
100
AcDbEntity
  8
0
  6
HIDDEN
 62
   174
100
AcDbLine
 10
206.087152
 20
218.790435
 30
0.0
 11
206.087152
 21
229.790435
 31
0.0
  0
LINE
  5
62
100
AcDbEntity
  8
0
  6
HIDDEN
 62
   174
100
AcDbLine
 10
275.667152
 20
250.790435
 30
0.0
 11
276.067152
 21
250.790435
 31
0.0
  0
LINE
  5
63
100
AcDbEntity
  8
0
  6
HIDDEN
 62
   174
100
AcDbLine
 10
287.667152
 20
204.827085
 30
0.0
 11
287.667152
 21
194.827724
 31
0.0
  0
LINE
  5
64
100
AcDbEntity
  8
0
  6
HIDDEN
 62
   174
100
AcDbLine
 10
137.667152
 20
204.827085
 30
0.0
 11
137.667152
 21
214.826145
 31
0.0
  0
LINE
  5
65
100
AcDbEntity
  8
0
  6
HIDDEN
 62
   174
100
AcDbLine
 10
299.167152
 20
242.824416
 30
0.0
 11
299.167152
 21
249.32373
 31
0.0
  0
LINE
  5
66
100
AcDbEntity
  8
0
  6
Continuous
 62
   174
100
AcDbLine
 10
126.167152
 20
236.290435
 30
0.0
 11
123.167152
 21
236.290435
 31
0.0
  0
LINE
  5
67
100
AcDbEntity
  8
0
  6
Continuous
 62
   174
100
AcDbLine
 10
302.167152
 20
233.790435
 30
0.0
 11
302.867152
 21
233.790435
 31
0.0
  0
LINE
  5
68
100
AcDbEntity
  8
0
  6
Continuous
 62
   174
100
AcDbLine
 10
118.667152
 20
250.590435
 30
0.0
 11
119.334428
 21
251.746192
 31
0.0
  0
LINE
  5
69
100
AcDbEntity
  8
0
  6
Continuous
 62
   174
100
AcDbLine
 10
299.167152
 20
234.790435
 30
0.0
 11
287.167152
 21
234.790435
 31
0.0
  0
LINE
  5
6A
100
AcDbEntity
  8
0
  6
Continuous
 62
   174
100
AcDbLine
 10
287.167152
 20
240.006553
 30
0.0
 11
287.167152
 21
221.790435
 31
0.0
  0
LINE
  5
6B
100
AcDbEntity
  8
0
  6
HIDDEN
 62
   174
100
AcDbLine
 10
218.542152
 20
218.790435
 30
0.0
 11
218.542152
 21
229.790435
 31
0.0
  0
LINE
  5
6C
100
AcDbEntity
  8
0
  6
HIDDEN
 62
   174
100
AcDbLine
 10
219.247152
 20
218.790435
 30
0.0
 11
219.247152
 21
229.790435
 31
0.0
  0
LINE
  5
6D
100
AcDbEntity
  8
0
  6
HIDDEN
 62
   174
100
AcDbLine
 10
206.792152
 20
229.790435
 30
0.0
 11
206.792152
 21
217.790435
 31
0.0
  0
LINE
  5
6E
100
AcDbEntity
  8
0
  6
HIDDEN
 62
   174
100
AcDbLine
 10
274.644335
 20
250.790435
 30
0.0
 11
275.053999
 21
250.790435
 31
0.0
  0
LINE
  5
6F
100
AcDbEntity
  8
0
  6
HIDDEN
 62
   174
100
AcDbLine
 10
258.167152
 20
247.790435
 30
0.0
 11
258.167152
 21
221.790435
 31
0.0
  0
LINE
  5
70
100
AcDbEntity
  8
0
  6
HIDDEN
 62
   174
100
AcDbLine
 10
287.667152
 20
214.826145
 30
0.0
 11
287.667152
 21
204.827085
 31
0.0
  0
LINE
  5
71
100
AcDbEntity
  8
0
  6
HIDDEN
 62
   174
100
AcDbLine
 10
137.667152
 20
194.827724
 30
0.0
 11
137.667152
 21
204.827085
 31
0.0
  0
LINE
  5
72
100
AcDbEntity
  8
0
  6
Continuous
 62
   174
100
AcDbLine
 10
241.667152
 20
229.790435
 30
0.0
 11
257.667152
 21
229.790435
 31
0.0
  0
LINE
  5
73
100
AcDbEntity
  8
0
  6
HIDDEN
 62
   174
100
AcDbLine
 10
299.167152
 20
242.824416
 30
0.0
 11
299.167152
 21
236.324801
 31
0.0
  0
LINE
  5
74
100
AcDbEntity
  8
0
  6
HIDDEN
 62
   174
100
AcDbLine
 10
126.167152
 20
249.32373
 30
0.0
 11
126.167152
 21
242.824416
 31
0.0
  0
LINE
  5
75
100
AcDbEntity
  8
0
  6
HIDDEN
 62
   174
100
AcDbLine
 10
302.167152
 20
242.824416
 30
0.0
 11
302.167152
 21
249.32373
 31
0.0
  0
LINE
  5
76
100
AcDbEntity
  8
0
  6
HIDDEN
 62
   174
100
AcDbLine
 10
302.167152
 20
236.324801
 30
0.0
 11
302.167152
 21
242.824416
 31
0.0
  0
LINE
  5
77
100
AcDbEntity
  8
0
  6
Continuous
 62
   174
100
AcDbLine
 10
299.167152
 20
236.290435
 30
0.0
 11
302.167152
 21
236.290435
 31
0.0
  0
LINE
  5
78
100
AcDbEntity
  8
0
  6
Continuous
 62
   174
100
AcDbLine
 10
306.667152
 20
250.590435
 30
0.0
 11
305.999875
 21
251.746192
 31
0.0
  0
LINE
  5
79
100
AcDbEntity
  8
0
  6
Continuous
 62
   174
100
AcDbLine
 10
126.167152
 20
250.790435
 30
0.0
 11
141.167152
 21
250.790435
 31
0.0
  0
LINE
  5
7A
100
AcDbEntity
  8
0
  6
HIDDEN
 62
   174
100
AcDbLine
 10
206.087152
 20
218.790435
 30
0.0
 11
206.087152
 21
229.790435
 31
0.0
  0
LINE
  5
7B
100
AcDbEntity
  8
0
  6
HIDDEN
 62
   174
100
AcDbLine
 10
206.792152
 20
229.790435
 30
0.0
 11
206.792152
 21
217.790435
 31
0.0
  0
LINE
  5
7C
100
AcDbEntity
  8
0
  6
HIDDEN
 62
   174
100
AcDbLine
 10
206.792152
 20
218.790435
 30
0.0
 11
206.792152
 21
229.790435
 31
0.0
  0
LINE
  5
7D
100
AcDbEntity
  8
0
  6
HIDDEN
 62
   174
100
AcDbLine
 10
272.667152
 20
250.790435
 30
0.0
 11
274.644335
 21
250.790435
 31
0.0
  0
LINE
  5
7E
100
AcDbEntity
  8
0
  6
HIDDEN
 62
   174
100
AcDbLine
 10
269.267152
 20
250.790435
 30
0.0
 11
269.667209
 21
250.790435
 31
0.0
  0
LINE
  5
7F
100
AcDbEntity
  8
0
  6
Continuous
 62
   174
100
AcDbLine
 10
257.667152
 20
229.790435
 30
0.0
 11
257.667152
 21
179.790435
 31
0.0
  0
LINE
  5
80
100
AcDbEntity
  8
0
  6
HIDDEN
 62
   174
100
AcDbLine
 10
123.167152
 20
249.32373
 30
0.0
 11
123.167152
 21
242.824416
 31
0.0
  0
LINE
  5
81
100
AcDbEntity
  8
0
  6
Continuous
 62
   174
100
AcDbLine
 10
299.167152
 20
236.218157
 30
0.0
 11
299.167152
 21
242.824416
 31
0.0
  0
LINE
  5
82
100
AcDbEntity
  8
0
  6
Continuous
 62
   174
100
AcDbLine
 10
302.167152
 20
242.824416
 30
0.0
 11
302.167152
 21
236.110311
 31
0.0
  0
LINE
  5
83
100
AcDbEntity
  8
0
  6
Continuous
 62
   174
100
AcDbLine
 10
302.167152
 20
236.110311
 30
0.0
 11
302.167152
 21
233.824811
 31
0.0
  0
LINE
  5
84
100
AcDbEntity
  8
0
  6
HIDDEN
 62
   174
100
AcDbLine
 10
229.567738
 20
179.790435
 30
0.0
 11
217.817903
 21
179.790435
 31
0.0
  0
LINE
  5
85
100
AcDbEntity
  8
0
  6
HIDDEN
 62
   174
100
AcDbLine
 10
207.567701
 20
179.790435
 30
0.0
 11
195.817866
 21
179.790435
 31
0.0
  0
LINE
  5
86
100
AcDbEntity
  8
0
  6
HIDDEN
 62
   174
100
AcDbLine
 10
152.667152
 20
250.790435
 30
0.0
 11
150.689969
 21
250.790435
 31
0.0
  0
LINE
  5
87
100
AcDbEntity
  8
0
  6
Continuous
 62
   174
100
AcDbLine
 10
299.167152
 20
249.290435
 30
0.0
 11
302.167152
 21
249.290435
 31
0.0
  0
LINE
  5
88
100
AcDbEntity
  8
0
  6
Continuous
 62
   174
100
AcDbLine
 10
123.167152
 20
251.790435
 30
0.0
 11
122.467152
 21
251.790435
 31
0.0
  0
LINE
  5
89
100
AcDbEntity
  8
0
  6
Continuous
 62
   174
100
AcDbLine
 10
306.667152
 20
234.990435
 30
0.0
 11
305.999898
 21
233.834717
 31
0.0
  0
LINE
  5
8A
100
AcDbEntity
  8
0
  6
HIDDEN
 62
   174
100
AcDbLine
 10
138.167152
 20
234.790435
 30
0.0
 11
138.167152
 21
221.790435
 31
0.0
  0
LINE
  5
8B
100
AcDbEntity
  8
0
  6
HIDDEN
 62
   174
100
AcDbLine
 10
218.542152
 20
229.790435
 30
0.0
 11
218.542152
 21
217.790435
 31
0.0
  0
LINE
  5
8C
100
AcDbEntity
  8
0
  6
HIDDEN
 62
   174
100
AcDbLine
 10
206.792152
 20
218.790435
 30
0.0
 11
206.792152
 21
229.790435
 31
0.0
  0
LINE
  5
8D
100
AcDbEntity
  8
0
  6
HIDDEN
 62
   174
100
AcDbLine
 10
206.817884
 20
229.790435
 30
0.0
 11
218.567719
 21
229.790435
 31
0.0
  0
LINE
  5
8E
100
AcDbEntity
  8
0
  6
Continuous
 62
   174
100
AcDbLine
 10
183.667152
 20
179.790435
 30
0.0
 11
241.667152
 21
179.790435
 31
0.0
  0
LINE
  5
8F
100
AcDbEntity
  8
0
  6
Continuous
 62
   174
100
AcDbLine
 10
183.667152
 20
229.790435
 30
0.0
 11
167.667152
 21
229.790435
 31
0.0
  0
LINE
  5
90
100
AcDbEntity
  8
0
  6
Continuous
 62
   174
100
AcDbLine
 10
302.867152
 20
242.824416
 30
0.0
 11
302.867152
 21
247.245812
 31
0.0
  0
LINE
  5
91
100
AcDbEntity
  8
0
  6
HIDDEN
 62
   174
100
AcDbLine
 10
272.667152
 20
250.790435
 30
0.0
 11
270.849747
 21
250.790435
 31
0.0
  0
LINE
  5
92
100
AcDbEntity
  8
0
  6
HIDDEN
 62
   174
100
AcDbLine
 10
218.542152
 20
229.790435
 30
0.0
 11
218.542152
 21
217.790435
 31
0.0
  0
LINE
  5
93
100
AcDbEntity
  8
0
  6
HIDDEN
 62
   174
100
AcDbLine
 10
276.067152
 20
250.790435
 30
0.0
 11
284.167152
 21
250.790435
 31
0.0
  0
LINE
  5
94
100
AcDbEntity
  8
0
  6
HIDDEN
 62
   174
100
AcDbLine
 10
270.849747
 20
250.790435
 30
0.0
 11
272.667152
 21
250.790435
 31
0.0
  0
LINE
  5
95
100
AcDbEntity
  8
0
  6
Continuous
 62
   174
100
AcDbLine
 10
241.667152
 20
229.790435
 30
0.0
 11
183.667152
 21
229.790435
 31
0.0
  0
LINE
  5
96
100
AcDbEntity
  8
0
  6
Continuous
 62
   174
100
AcDbLine
 10
167.667152
 20
179.790435
 30
0.0
 11
167.667152
 21
229.790435
 31
0.0
  0
LINE
  5
97
100
AcDbEntity
  8
0
  6
Continuous
 62
   174
100
AcDbLine
 10
126.167152
 20
250.823665
 30
0.0
 11
126.167152
 21
249.430375
 31
0.0
  0
LINE
  5
98
100
AcDbEntity
  8
0
  6
Continuous
 62
   174
100
AcDbLine
 10
123.167152
 20
236.110311
 30
0.0
 11
123.167152
 21
242.824416
 31
0.0
  0
LINE
  5
99
100
AcDbEntity
  8
0
  6
Continuous
 62
   174
100
AcDbLine
 10
123.167152
 20
249.538522
 30
0.0
 11
123.167152
 21
251.823721
 31
0.0
  0
LINE
  5
9A
100
AcDbEntity
  8
0
  6
Continuous
 62
   174
100
AcDbLine
 10
123.167152
 20
233.824811
 30
0.0
 11
123.167152
 21
236.110311
 31
0.0
  0
LINE
  5
9B
100
AcDbEntity
  8
0
  6
Continuous
 62
   174
100
AcDbLine
 10
302.867152
 20
238.402719
 30
0.0
 11
302.867152
 21
242.824416
 31
0.0
  0
LWPOLYLINE
  5
9C
100
AcDbEntity
  8
0
  6
HIDDEN
 62
   174
100
AcDbPolyline
 90
        4
 70
   128
 10
287.125192
 20
242.790435
 10
287.134186
 20
243.739418
 10
287.154592
 20
244.677584
 10
287.167152
 20
245.574317
  0
LINE
  5
9D
100
AcDbEntity
  8
0
  6
Continuous
 62
   174
100
AcDbLine
 10
129.967152
 20
209.905171
 30
0.0
 11
129.967152
 21
207.326775
 31
0.0
  0
LINE
  5
9E
100
AcDbEntity
  8
0
  6
Continuous
 62
   174
100
AcDbLine
 10
306.667152
 20
249.980421
 30
0.0
 11
306.667152
 21
250.623593
 31
0.0
  0
LINE
  5
9F
100
AcDbEntity
  8
0
  6
Continuous
 62
   174
100
AcDbLine
 10
295.367152
 20
195.108524
 30
0.0
 11
289.167152
 21
195.108524
 31
0.0
  0
LINE
  5
A0
100
AcDbEntity
  8
0
  6
Continuous
 62
   174
100
AcDbLine
 10
129.967152
 20
196.175716
 30
0.0
 11
136.167152
 21
196.175716
 31
0.0
  0
LINE
  5
A1
100
AcDbEntity
  8
0
  6
HIDDEN
 62
   174
100
AcDbLine
 10
195.792152
 20
190.790435
 30
0.0
 11
195.792152
 21
179.790435
 31
0.0
  0
LINE
  5
A2
100
AcDbEntity
  8
0
  6
HIDDEN
 62
   174
100
AcDbLine
 10
289.167152
 20
199.711505
 30
0.0
 11
289.167152
 21
196.175716
 31
0.0
  0
LINE
  5
A3
100
AcDbEntity
  8
0
  6
Continuous
 62
   174
100
AcDbLine
 10
302.867152
 20
251.789986
 30
0.0
 11
305.974332
 21
251.789986
 31
0.0
  0
ARC
  5
A4
100
AcDbEntity
  8
0
  6
HIDDEN
 62
   174
100
AcDbCircle
 10
164.167152
 20
247.790435
 30
0.0
 40
3.0
100
AcDbArc
 50
-288.0
 51
-270.0
  0
LINE
  5
A5
100
AcDbEntity
  8
0
  6
Continuous
 62
   174
100
AcDbLine
 10
122.467152
 20
233.790884
 30
0.0
 11
119.359972
 21
233.790884
 31
0.0
  0
LINE
  5
A6
100
AcDbEntity
  8
0
  6
HIDDEN
 62
   174
100
AcDbLine
 10
287.167152
 20
240.006553
 30
0.0
 11
287.167152
 21
234.790435
 31
0.0
  0
LINE
  5
A7
100
AcDbEntity
  8
0
  6
Continuous
 62
   174
100
AcDbLine
 10
261.167152
 20
250.823665
 30
0.0
 11
261.167152
 21
247.823796
 31
0.0
  0
LINE
  5
A8
100
AcDbEntity
  8
0
  6
Continuous
 62
   174
100
AcDbLine
 10
302.867152
 20
233.824811
 30
0.0
 11
302.867152
 21
238.402719
 31
0.0
  0
LINE
  5
A9
100
AcDbEntity
  8
0
  6
Continuous
 62
   174
100
AcDbLine
 10
129.967152
 20
202.290435
 30
0.0
 11
136.167152
 21
202.290435
 31
0.0
  0
LINE
  5
AA
100
AcDbEntity
  8
0
  6
HIDDEN
 62
   174
100
AcDbLine
 10
295.367152
 20
213.404314
 30
0.0
 11
289.167152
 21
213.404314
 31
0.0
  0
LINE
  5
AB
100
AcDbEntity
  8
0
  6
Continuous
 62
   174
100
AcDbLine
 10
141.192684
 20
247.790435
 30
0.0
 11
138.192816
 21
247.790435
 31
0.0
  0
LINE
  5
AC
100
AcDbEntity
  8
0
  6
Continuous
 62
   174
100
AcDbLine
 10
289.167152
 20
194.790435
 30
0.0
 11
287.667152
 21
194.790435
 31
0.0
  0
LINE
  5
AD
100
AcDbEntity
  8
0
  6
HIDDEN
 62
   174
100
AcDbLine
 10
129.967152
 20
196.177483
 30
0.0
 11
136.167152
 21
196.177483
 31
0.0
  0
LWPOLYLINE
  5
AE
100
AcDbEntity
  8
0
  6
HIDDEN
 62
   174
100
AcDbPolyline
 90
        6
 70
   128
 10
287.167152
 20
247.790435
 10
286.994809
 20
248.792609
 10
286.543009
 20
249.622184
 10
285.879939
 20
250.253433
 10
285.071408
 20
250.65091
 10
284.167152
 20
250.790435
  0
LINE
  5
AF
100
AcDbEntity
  8
0
  6
HIDDEN
 62
   174
100
AcDbLine
 10
287.167152
 20
247.790435
 30
0.0
 11
287.167152
 21
245.574317
 31
0.0
  0
ARC
  5
B0
100
AcDbEntity
  8
0
  6
Continuous
 62
   174
100
AcDbCircle
 10
261.167152
 20
247.790435
 30
0.0
 40
3.0
100
AcDbArc
 50
-270.0
 51
-180.0
  0
LINE
  5
B1
100
AcDbEntity
  8
0
  6
Continuous
 62
   174
100
AcDbLine
 10
295.367152
 20
213.442168
 30
0.0
 11
295.367152
 21
214.509215
 31
0.0
  0
LINE
  5
B2
100
AcDbEntity
  8
0
  6
Continuous
 62
   174
100
AcDbLine
 10
129.967152
 20
199.711505
 30
0.0
 11
136.167152
 21
199.711505
 31
0.0
  0
LINE
  5
B3
100
AcDbEntity
  8
0
  6
HIDDEN
 62
   174
100
AcDbLine
 10
287.192788
 20
247.790435
 30
0.0
 11
284.192619
 21
247.790435
 31
0.0
  0
LINE
  5
B4
100
AcDbEntity
  8
0
  6
HIDDEN
 62
   174
100
AcDbLine
 10
195.792152
 20
190.790435
 30
0.0
 11
195.792152
 21
179.790435
 31
0.0
  0
LINE
  5
B5
100
AcDbEntity
  8
0
  6
HIDDEN
 62
   174
100
AcDbLine
 10
289.167152
 20
213.404314
 30
0.0
 11
289.167152
 21
209.869035
 31
0.0
  0
LINE
  5
B6
100
AcDbEntity
  8
0
  6
HIDDEN
 62
   174
100
AcDbLine
 10
284.167152
 20
247.790435
 30
0.0
 11
284.167152
 21
221.790435
 31
0.0
  0
LINE
  5
B7
100
AcDbEntity
  8
0
  6
Continuous
 62
   174
100
AcDbLine
 10
138.167152
 20
240.006553
 30
0.0
 11
138.167152
 21
221.790435
 31
0.0
  0
LINE
  5
B8
100
AcDbEntity
  8
0
  6
Continuous
 62
   174
100
AcDbLine
 10
136.167152
 20
209.905171
 30
0.0
 11
136.167152
 21
213.440366
 31
0.0
  0
LINE
  5
B9
100
AcDbEntity
  8
0
  6
HIDDEN
 62
   174
100
AcDbLine
 10
208.247152
 20
190.790435
 30
0.0
 11
208.247152
 21
179.790435
 31
0.0
  0
LWPOLYLINE
  5
BA
100
AcDbEntity
  8
0
  6
HIDDEN
 62
   174
100
AcDbPolyline
 90
        4
 70
   128
 10
306.667152
 20
243.682046
 10
306.534032
 20
244.898762
 10
306.300946
 20
246.120925
 10
305.974332
 20
247.368095
  0
LINE
  5
BB
100
AcDbEntity
  8
0
  6
Continuous
 62
   174
100
AcDbLine
 10
287.192788
 20
247.790435
 30
0.0
 11
284.192619
 21
247.790435
 31
0.0
  0
LINE
  5
BC
100
AcDbEntity
  8
0
  6
HIDDEN
 62
   174
100
AcDbLine
 10
284.167152
 20
247.790435
 30
0.0
 11
261.167152
 21
247.790435
 31
0.0
  0
LINE
  5
BD
100
AcDbEntity
  8
0
  6
HIDDEN
 62
   174
100
AcDbLine
 10
195.817866
 20
191.790435
 30
0.0
 11
207.567701
 21
191.790435
 31
0.0
  0
LWPOLYLINE
  5
BE
100
AcDbEntity
  8
0
  6
HIDDEN
 62
   174
100
AcDbPolyline
 90
        7
 70
   128
 10
305.974332
 20
247.368095
 10
306.340458
 20
248.119785
 10
306.568556
 20
248.856832
 10
306.64546
 20
249.57908
 10
306.568541
 20
250.301319
 10
306.340441
 20
251.038339
 10
305.974332
 20
251.789986
  0
LINE
  5
BF
100
AcDbEntity
  8
0
  6
HIDDEN
 62
   174
100
AcDbLine
 10
129.967152
 20
207.293801
 30
0.0
 11
136.167152
 21
207.293801
 31
0.0
  0
LINE
  5
C0
100
AcDbEntity
  8
0
  6
HIDDEN
 62
   174
100
AcDbLine
 10
154.92342
 20
250.790435
 30
0.0
 11
155.667152
 21
250.790435
 31
0.0
  0
LINE
  5
C1
100
AcDbEntity
  8
0
  6
HIDDEN
 62
   174
100
AcDbLine
 10
302.867152
 20
238.212775
 30
0.0
 11
302.867152
 21
247.368095
 31
0.0
  0
LINE
  5
C2
100
AcDbEntity
  8
0
  6
Continuous
 62
   174
100
AcDbLine
 10
295.367152
 20
199.714501
 30
0.0
 11
289.167152
 21
199.714501
 31
0.0
  0
LINE
  5
C3
100
AcDbEntity
  8
0
  6
HIDDEN
 62
   174
100
AcDbLine
 10
119.359972
 20
251.789986
 30
0.0
 11
119.331121
 21
251.740462
 31
0.0
  0
LWPOLYLINE
  5
C4
100
AcDbEntity
  8
0
  6
Continuous
 62
   174
100
AcDbPolyline
 90
        6
 70
   128
 10
119.359972
 20
247.368095
 10
118.993846
 20
248.119785
 10
118.765748
 20
248.856832
 10
118.688844
 20
249.57908
 10
118.765763
 20
250.301319
 10
118.816663
 20
250.512901
  0
LINE
  5
C5
100
AcDbEntity
  8
0
  6
Continuous
 62
   174
100
AcDbLine
 10
118.816663
 20
250.512901
 30
0.0
 11
119.333318
 21
251.742602
 31
0.0
  0
ARC
  5
C6
100
AcDbEntity
  8
0
  6
Continuous
 62
   174
100
AcDbCircle
 10
212.667152
 20
186.790435
 30
0.0
 40
2.75
100
AcDbArc
 50
-180.0
 51
0.0
  0
LINE
  5
C7
100
AcDbEntity
  8
0
  6
HIDDEN
 62
   174
100
AcDbLine
 10
289.167152
 20
207.290435
 30
0.0
 11
289.167152
 21
202.290435
 31
0.0
  0
LINE
  5
C8
100
AcDbEntity
  8
0
  6
HIDDEN
 62
   174
100
AcDbLine
 10
138.167152
 20
247.823796
 30
0.0
 11
138.167152
 21
245.607991
 31
0.0
  0
LINE
  5
C9
100
AcDbEntity
  8
0
  6
HIDDEN
 62
   174
100
AcDbLine
 10
284.167152
 20
221.790435
 30
0.0
 11
261.167152
 21
221.790435
 31
0.0
  0
LINE
  5
CA
100
AcDbEntity
  8
0
  6
HIDDEN
 62
   174
100
AcDbLine
 10
195.11281
 20
190.790435
 30
0.0
 11
208.272758
 21
190.790435
 31
0.0
  0
LINE
  5
CB
100
AcDbEntity
  8
0
  6
Continuous
 62
   174
100
AcDbLine
 10
119.359972
 20
233.790884
 30
0.0
 11
119.332499
 21
233.839721
 31
0.0
  0
LINE
  5
CC
100
AcDbEntity
  8
0
  6
Continuous
 62
   174
100
AcDbLine
 10
287.167152
 20
221.790435
 30
0.0
 11
287.167152
 21
240.006553
 31
0.0
  0
ARC
  5
CD
100
AcDbEntity
  8
0
  6
HIDDEN
 62
   174
100
AcDbCircle
 10
284.167152
 20
247.790435
 30
0.0
 40
3.0
100
AcDbArc
 50
18.0
 51
36.0
  0
LINE
  5
CE
100
AcDbEntity
  8
0
  6
HIDDEN
 62
   174
100
AcDbLine
 10
195.792152
 20
179.790435
 30
0.0
 11
195.792152
 21
191.790435
 31
0.0
  0
LINE
  5
CF
100
AcDbEntity
  8
0
  6
Continuous
 62
   174
100
AcDbLine
 10
295.367152
 20
195.145855
 30
0.0
 11
295.367152
 21
196.214705
 31
0.0
  0
LINE
  5
D0
100
AcDbEntity
  8
0
  6
HIDDEN
 62
   174
100
AcDbLine
 10
129.967152
 20
202.293802
 30
0.0
 11
136.167152
 21
202.293802
 31
0.0
  0
LINE
  5
D1
100
AcDbEntity
  8
0
  6
Continuous
 62
   174
100
AcDbLine
 10
295.367152
 20
196.177483
 30
0.0
 11
295.367152
 21
199.714501
 31
0.0
  0
LINE
  5
D2
100
AcDbEntity
  8
0
  6
HIDDEN
 62
   174
100
AcDbLine
 10
155.667152
 20
250.790435
 30
0.0
 11
156.067152
 21
250.790435
 31
0.0
  0
ARC
  5
D3
100
AcDbEntity
  8
0
  6
Continuous
 62
   174
100
AcDbCircle
 10
223.667152
 20
222.790435
 30
0.0
 40
2.75
100
AcDbArc
 50
0.0
 51
180.0
  0
LINE
  5
D4
100
AcDbEntity
  8
0
  6
Continuous
 62
   174
100
AcDbLine
 10
137.667152
 20
193.790435
 30
0.0
 11
167.667152
 21
193.790435
 31
0.0
  0
ARC
  5
D5
100
AcDbEntity
  8
0
  6
HIDDEN
 62
   174
100
AcDbCircle
 10
164.167152
 20
247.790435
 30
0.0
 40
3.0
100
AcDbArc
 50
-324.0
 51
-306.0
  0
ARC
  5
D6
100
AcDbEntity
  8
0
  6
Continuous
 62
   174
100
AcDbCircle
 10
141.167152
 20
247.790435
 30
0.0
 40
3.0
100
AcDbArc
 50
-270.0
 51
-180.0
  0
LWPOLYLINE
  5
D7
100
AcDbEntity
  8
0
  6
HIDDEN
 62
   174
100
AcDbPolyline
 90
        4
 70
   128
 10
305.974332
 20
238.212775
 10
306.302232
 20
239.46559
 10
306.534986
 20
240.688411
 10
306.667152
 20
241.898823
  0
LWPOLYLINE
  5
D8
100
AcDbEntity
  8
0
  6
Continuous
 62
   174
100
AcDbPolyline
 90
        4
 70
   128
 10
138.209112
 20
242.790435
 10
138.200117
 20
241.841428
 10
138.179711
 20
240.903262
 10
138.167152
 20
240.006553
  0
ARC
  5
D9
100
AcDbEntity
  8
0
  6
HIDDEN
 62
   174
100
AcDbCircle
 10
141.167152
 20
247.790435
 30
0.0
 40
3.0
100
AcDbArc
 50
90.0
 51
180.0
  0
LINE
  5
DA
100
AcDbEntity
  8
0
  6
Continuous
 62
   174
100
AcDbLine
 10
261.167152
 20
247.790435
 30
0.0
 11
284.167152
 21
247.790435
 31
0.0
  0
LINE
  5
DB
100
AcDbEntity
  8
0
  6
HIDDEN
 62
   174
100
AcDbLine
 10
217.817903
 20
191.790435
 30
0.0
 11
229.567738
 21
191.790435
 31
0.0
  0
LINE
  5
DC
100
AcDbEntity
  8
0
  6
HIDDEN
 62
   174
100
AcDbLine
 10
261.167152
 20
247.790435
 30
0.0
 11
261.167152
 21
221.790435
 31
0.0
  0
LINE
  5
DD
100
AcDbEntity
  8
0
  6
HIDDEN
 62
   174
100
AcDbLine
 10
195.087152
 20
190.790435
 30
0.0
 11
195.087152
 21
179.790435
 31
0.0
  0
LWPOLYLINE
  5
DE
100
AcDbEntity
  8
0
  6
HIDDEN
 62
   174
100
AcDbPolyline
 90
        7
 70
   128
 10
305.974332
 20
233.790884
 10
306.340458
 20
234.542575
 10
306.568556
 20
235.279621
 10
306.64546
 20
236.00187
 10
306.568541
 20
236.724109
 10
306.340441
 20
237.461128
 10
305.974332
 20
238.212775
  0
LWPOLYLINE
  5
DF
100
AcDbEntity
  8
0
  6
HIDDEN
 62
   174
100
AcDbPolyline
 90
        6
 70
   128
 10
141.167152
 20
250.790435
 10
140.261836
 20
250.650575
 10
139.453531
 20
250.252853
 10
138.791683
 20
249.622687
 10
138.339857
 20
248.793632
 10
138.167152
 20
247.790435
  0
LINE
  5
E0
100
AcDbEntity
  8
0
  6
Continuous
 62
   174
100
AcDbLine
 10
284.167152
 20
221.790435
 30
0.0
 11
284.167152
 21
247.790435
 31
0.0
  0
LINE
  5
E1
100
AcDbEntity
  8
0
  6
HIDDEN
 62
   174
100
AcDbLine
 10
141.167152
 20
221.790435
 30
0.0
 11
141.167152
 21
247.790435
 31
0.0
  0
LINE
  5
E2
100
AcDbEntity
  8
0
  6
HIDDEN
 62
   174
100
AcDbLine
 10
119.331165
 20
233.840334
 30
0.0
 11
119.359972
 21
233.790884
 31
0.0
  0
LWPOLYLINE
  5
E3
100
AcDbEntity
  8
0
  6
HIDDEN
 62
   174
100
AcDbPolyline
 90
        4
 70
   128
 10
118.667152
 20
249.05535
 10
118.800273
 20
248.446991
 10
119.033355
 20
247.835916
 10
119.359972
 20
247.212326
  0
LINE
  5
E4
100
AcDbEntity
  8
0
  6
Continuous
 62
   174
100
AcDbLine
 10
129.967152
 20
213.404314
 30
0.0
 11
136.167152
 21
213.404314
 31
0.0
  0
LINE
  5
E5
100
AcDbEntity
  8
0
  6
HIDDEN
 62
   174
100
AcDbLine
 10
156.067152
 20
250.790435
 30
0.0
 11
164.167152
 21
250.790435
 31
0.0
  0
LINE
  5
E6
100
AcDbEntity
  8
0
  6
Continuous
 62
   174
100
AcDbLine
 10
287.667152
 20
221.790435
 30
0.0
 11
287.667152
 21
193.790435
 31
0.0
  0
LINE
  5
E7
100
AcDbEntity
  8
0
  6
HIDDEN
 62
   174
100
AcDbLine
 10
302.867152
 20
251.82312
 30
0.0
 11
302.867152
 21
251.823721
 31
0.0
  0
LINE
  5
E8
100
AcDbEntity
  8
0
  6
HIDDEN
 62
   174
100
AcDbLine
 10
141.192684
 20
247.790435
 30
0.0
 11
138.192816
 21
247.790435
 31
0.0
  0
ARC
  5
E9
100
AcDbEntity
  8
0
  6
Continuous
 62
   174
100
AcDbCircle
 10
261.167152
 20
247.790435
 30
0.0
 40
3.0
100
AcDbArc
 50
90.0
 51
180.0
  0
LINE
  5
EA
100
AcDbEntity
  8
0
  6
Continuous
 62
   174
100
AcDbLine
 10
284.167152
 20
250.823665
 30
0.0
 11
284.167152
 21
247.823796
 31
0.0
  0
LINE
  5
EB
100
AcDbEntity
  8
0
  6
HIDDEN
 62
   174
100
AcDbLine
 10
208.247152
 20
190.790435
 30
0.0
 11
208.247152
 21
179.790435
 31
0.0
  0
LWPOLYLINE
  5
EC
100
AcDbEntity
  8
0
  6
HIDDEN
 62
   174
100
AcDbPolyline
 90
        4
 70
   128
 10
119.359972
 20
238.368544
 10
119.032072
 20
237.742137
 10
118.799317
 20
237.130724
 10
118.667152
 20
236.52552
  0
ARC
  5
ED
100
AcDbEntity
  8
0
  6
HIDDEN
 62
   174
100
AcDbCircle
 10
284.167152
 20
247.790435
 30
0.0
 40
3.0
100
AcDbArc
 50
0.0
 51
18.0
  0
LINE
  5
EE
100
AcDbEntity
  8
0
  6
HIDDEN
 62
   174
100
AcDbLine
 10
164.167152
 20
247.790435
 30
0.0
 11
141.167152
 21
247.790435
 31
0.0
  0
LINE
  5
EF
100
AcDbEntity
  8
0
  6
Continuous
 62
   174
100
AcDbLine
 10
122.467152
 20
247.401724
 30
0.0
 11
122.467152
 21
242.824416
 31
0.0
  0
LINE
  5
F0
100
AcDbEntity
  8
0
  6
Continuous
 62
   174
100
AcDbLine
 10
295.367152
 20
199.751401
 30
0.0
 11
295.367152
 21
202.330699
 31
0.0
  0
ARC
  5
F1
100
AcDbEntity
  8
0
  6
HIDDEN
 62
   174
100
AcDbCircle
 10
164.167152
 20
247.790435
 30
0.0
 40
3.0
100
AcDbArc
 50
-306.0
 51
-288.0
  0
LINE
  5
F2
100
AcDbEntity
  8
0
  6
HIDDEN
 62
   174
100
AcDbLine
 10
302.867152
 20
238.212775
 30
0.0
 11
305.974332
 21
238.212775
 31
0.0
  0
LINE
  5
F3
100
AcDbEntity
  8
0
  6
Continuous
 62
   174
100
AcDbLine
 10
164.167152
 20
250.790435
 30
0.0
 11
141.167152
 21
250.790435
 31
0.0
  0
LINE
  5
F4
100
AcDbEntity
  8
0
  6
Continuous
 62
   174
100
AcDbLine
 10
136.167152
 20
206.323113
 30
0.0
 11
136.167152
 21
207.326775
 31
0.0
  0
LINE
  5
F5
100
AcDbEntity
  8
0
  6
HIDDEN
 62
   174
100
AcDbLine
 10
295.367152
 20
196.175716
 30
0.0
 11
289.167152
 21
196.175716
 31
0.0
  0
ARC
  5
F6
100
AcDbEntity
  8
0
  6
HIDDEN
 62
   174
100
AcDbCircle
 10
284.167152
 20
247.790435
 30
0.0
 40
3.0
100
AcDbArc
 50
72.0
 51
90.0
  0
ARC
  5
F7
100
AcDbEntity
  8
0
  6
Continuous
 62
   174
100
AcDbCircle
 10
201.667152
 20
222.790435
 30
0.0
 40
2.75
100
AcDbArc
 50
0.0
 51
180.0
  0
LINE
  5
F8
100
AcDbEntity
  8
0
  6
HIDDEN
 62
   174
100
AcDbLine
 10
122.467152
 20
251.789986
 30
0.0
 11
122.467152
 21
247.212326
 31
0.0
  0
LWPOLYLINE
  5
F9
100
AcDbEntity
  8
0
  6
Continuous
 62
   174
100
AcDbPolyline
 90
        4
 70
   128
 10
138.209112
 20
242.790435
 10
138.200117
 20
243.739418
 10
138.179712
 20
244.677584
 10
138.167152
 20
245.574317
  0
LINE
  5
FA
100
AcDbEntity
  8
0
  6
HIDDEN
 62
   174
100
AcDbLine
 10
149.667477
 20
250.790435
 30
0.0
 11
150.689969
 21
250.790435
 31
0.0
  0
LINE
  5
FB
100
AcDbEntity
  8
0
  6
Continuous
 62
   174
100
AcDbLine
 10
289.167152
 20
207.330079
 30
0.0
 11
289.167152
 21
206.322813
 31
0.0
  0
LINE
  5
FC
100
AcDbEntity
  8
0
  6
HIDDEN
 62
   174
100
AcDbLine
 10
284.167152
 20
250.823665
 30
0.0
 11
284.167152
 21
247.823796
 31
0.0
  0
LINE
  5
FD
100
AcDbEntity
  8
0
  6
Continuous
 62
   174
100
AcDbLine
 10
141.167152
 20
247.790435
 30
0.0
 11
164.167152
 21
247.790435
 31
0.0
  0
LINE
  5
FE
100
AcDbEntity
  8
0
  6
HIDDEN
 62
   174
100
AcDbLine
 10
195.087152
 20
190.790435
 30
0.0
 11
195.087152
 21
179.790435
 31
0.0
  0
LINE
  5
FF
100
AcDbEntity
  8
0
  6
HIDDEN
 62
   174
100
AcDbLine
 10
207.542152
 20
179.790435
 30
0.0
 11
207.542152
 21
191.790435
 31
0.0
  0
LINE
  5
100
100
AcDbEntity
  8
0
  6
HIDDEN
 62
   174
100
AcDbLine
 10
164.167152
 20
221.790435
 30
0.0
 11
164.167152
 21
247.790435
 31
0.0
  0
LINE
  5
101
100
AcDbEntity
  8
0
  6
HIDDEN
 62
   174
100
AcDbLine
 10
141.167152
 20
247.823796
 30
0.0
 11
141.167152
 21
250.823665
 31
0.0
  0
LINE
  5
102
100
AcDbEntity
  8
0
  6
Continuous
 62
   174
100
AcDbLine
 10
302.867152
 20
247.212326
 30
0.0
 11
305.974332
 21
247.212326
 31
0.0
  0
LINE
  5
103
100
AcDbEntity
  8
0
  6
Continuous
 62
   174
100
AcDbLine
 10
295.367152
 20
202.293802
 30
0.0
 11
295.367152
 21
207.293801
 31
0.0
  0
LINE
  5
104
100
AcDbEntity
  8
0
  6
HIDDEN
 62
   174
100
AcDbLine
 10
150.689969
 20
250.790435
 30
0.0
 11
152.667152
 21
250.790435
 31
0.0
  0
LINE
  5
105
100
AcDbEntity
  8
0
  6
HIDDEN
 62
   174
100
AcDbLine
 10
287.167152
 20
240.040541
 30
0.0
 11
287.167152
 21
234.824867
 31
0.0
  0
LINE
  5
106
100
AcDbEntity
  8
0
  6
Continuous
 62
   174
100
AcDbLine
 10
141.167152
 20
247.790435
 30
0.0
 11
141.167152
 21
221.790435
 31
0.0
  0
LINE
  5
107
100
AcDbEntity
  8
0
  6
Continuous
 62
   174
100
AcDbLine
 10
129.967152
 20
199.711505
 30
0.0
 11
129.967152
 21
196.175716
 31
0.0
  0
LINE
  5
108
100
AcDbEntity
  8
0
  6
HIDDEN
 62
   174
100
AcDbLine
 10
295.367152
 20
199.711505
 30
0.0
 11
289.167152
 21
199.711505
 31
0.0
  0
LINE
  5
109
100
AcDbEntity
  8
0
  6
HIDDEN
 62
   174
100
AcDbLine
 10
257.667152
 20
193.790435
 30
0.0
 11
257.667152
 21
221.790435
 31
0.0
  0
LINE
  5
10A
100
AcDbEntity
  8
0
  6
HIDDEN
 62
   174
100
AcDbLine
 10
167.167152
 20
247.790435
 30
0.0
 11
167.167152
 21
221.790435
 31
0.0
  0
LINE
  5
10B
100
AcDbEntity
  8
0
  6
Continuous
 62
   174
100
AcDbLine
 10
305.974332
 20
251.789986
 30
0.0
 11
306.003183
 21
251.740462
 31
0.0
  0
LINE
  5
10C
100
AcDbEntity
  8
0
  6
HIDDEN
 62
   174
100
AcDbLine
 10
295.367152
 20
207.290435
 30
0.0
 11
289.167152
 21
207.290435
 31
0.0
  0
LINE
  5
10D
100
AcDbEntity
  8
0
  6
HIDDEN
 62
   174
100
AcDbLine
 10
129.967152
 20
209.87203
 30
0.0
 11
136.167152
 21
209.87203
 31
0.0
  0
LINE
  5
10E
100
AcDbEntity
  8
0
  6
Continuous
 62
   174
100
AcDbLine
 10
138.167152
 20
247.790435
 30
0.0
 11
138.167152
 21
245.574317
 31
0.0
  0
LINE
  5
10F
100
AcDbEntity
  8
0
  6
Continuous
 62
   174
100
AcDbLine
 10
257.667152
 20
193.790435
 30
0.0
 11
287.667152
 21
193.790435
 31
0.0
  0
LINE
  5
110
100
AcDbEntity
  8
0
  6
Continuous
 62
   174
100
AcDbLine
 10
164.167152
 20
247.823796
 30
0.0
 11
164.167152
 21
250.823665
 31
0.0
  0
LWPOLYLINE
  5
111
100
AcDbEntity
  8
0
  6
HIDDEN
 62
   174
100
AcDbPolyline
 90
        4
 70
   128
 10
118.667152
 20
235.633909
 10
118.800273
 20
235.02555
 10
119.033355
 20
234.414475
 10
119.331251
 20
233.840185
  0
LINE
  5
112
100
AcDbEntity
  8
0
  6
Continuous
 62
   174
100
AcDbLine
 10
136.167152
 20
202.327094
 30
0.0
 11
136.167152
 21
206.323113
 31
0.0
  0
LINE
  5
113
100
AcDbEntity
  8
0
  6
HIDDEN
 62
   174
100
AcDbLine
 10
207.542152
 20
190.790435
 30
0.0
 11
207.542152
 21
179.790435
 31
0.0
  0
ARC
  5
114
100
AcDbEntity
  8
0
  6
HIDDEN
 62
   174
100
AcDbCircle
 10
284.167152
 20
247.790435
 30
0.0
 40
3.0
100
AcDbArc
 50
54.0
 51
72.0
  0
LINE
  5
115
100
AcDbEntity
  8
0
  6
HIDDEN
 62
   174
100
AcDbLine
 10
152.667152
 20
250.790435
 30
0.0
 11
154.484557
 21
250.790435
 31
0.0
  0
LINE
  5
116
100
AcDbEntity
  8
0
  6
Continuous
 62
   174
100
AcDbLine
 10
136.167152
 20
196.212902
 30
0.0
 11
136.167152
 21
199.748397
 31
0.0
  0
LINE
  5
117
100
AcDbEntity
  8
0
  6
Continuous
 62
   174
100
AcDbLine
 10
289.167152
 20
195.145855
 30
0.0
 11
289.167152
 21
194.827724
 31
0.0
  0
LWPOLYLINE
  5
118
100
AcDbEntity
  8
0
  6
Continuous
 62
   174
100
AcDbPolyline
 90
        4
 70
   128
 10
119.359972
 20
238.212775
 10
119.032071
 20
239.46559
 10
118.799318
 20
240.688411
 10
118.667152
 20
241.898823
  0
LINE
  5
119
100
AcDbEntity
  8
0
  6
Continuous
 62
   174
100
AcDbLine
 10
302.867152
 20
238.368544
 30
0.0
 11
305.974332
 21
238.368544
 31
0.0
  0
LINE
  5
11A
100
AcDbEntity
  8
0
  6
Continuous
 62
   174
100
AcDbLine
 10
295.367152
 20
196.177483
 30
0.0
 11
289.167152
 21
196.177483
 31
0.0
  0
LINE
  5
11B
100
AcDbEntity
  8
0
  6
Continuous
 62
   174
100
AcDbLine
 10
284.167152
 20
250.790435
 30
0.0
 11
261.167152
 21
250.790435
 31
0.0
  0
ARC
  5
11C
100
AcDbEntity
  8
0
  6
Continuous
 62
   174
100
AcDbCircle
 10
201.667152
 20
222.790435
 30
0.0
 40
2.75
100
AcDbArc
 50
-180.0
 51
0.0
  0
LWPOLYLINE
  5
11D
100
AcDbEntity
  8
0
  6
Continuous
 62
   174
100
AcDbPolyline
 90
        4
 70
   128
 10
306.003093
 20
251.740615
 10
306.302232
 20
251.163578
 10
306.534986
 20
250.552165
 10
306.667152
 20
249.946961
  0
LINE
  5
11E
100
AcDbEntity
  8
0
  6
Continuous
 62
   174
100
AcDbLine
 10
295.367152
 20
214.47344
 30
0.0
 11
289.167152
 21
214.47344
 31
0.0
  0
ARC
  5
11F
100
AcDbEntity
  8
0
  6
Continuous
 62
   174
100
AcDbCircle
 10
223.667152
 20
222.790435
 30
0.0
 40
2.75
100
AcDbArc
 50
-180.0
 51
0.0
  0
LINE
  5
120
100
AcDbEntity
  8
0
  6
HIDDEN
 62
   174
100
AcDbLine
 10
164.167152
 20
247.823796
 30
0.0
 11
164.167152
 21
250.823665
 31
0.0
  0
LINE
  5
121
100
AcDbEntity
  8
0
  6
HIDDEN
 62
   174
100
AcDbLine
 10
136.167152
 20
202.293802
 30
0.0
 11
136.167152
 21
207.293801
 31
0.0
  0
LINE
  5
122
100
AcDbEntity
  8
0
  6
HIDDEN
 62
   174
100
AcDbLine
 10
295.367152
 20
202.290435
 30
0.0
 11
289.167152
 21
202.290435
 31
0.0
  0
LINE
  5
123
100
AcDbEntity
  8
0
  6
HIDDEN
 62
   174
100
AcDbLine
 10
261.192827
 20
247.790435
 30
0.0
 11
258.192658
 21
247.790435
 31
0.0
  0
LINE
  5
124
100
AcDbEntity
  8
0
  6
HIDDEN
 62
   174
100
AcDbLine
 10
154.484557
 20
250.790435
 30
0.0
 11
154.92342
 21
250.790435
 31
0.0
  0
LINE
  5
125
100
AcDbEntity
  8
0
  6
HIDDEN
 62
   174
100
AcDbLine
 10
136.167152
 20
209.87203
 30
0.0
 11
136.167152
 21
213.406079
 31
0.0
  0
LINE
  5
126
100
AcDbEntity
  8
0
  6
Continuous
 62
   174
100
AcDbLine
 10
295.367152
 20
207.293801
 30
0.0
 11
289.167152
 21
207.293801
 31
0.0
  0
LINE
  5
127
100
AcDbEntity
  8
0
  6
Continuous
 62
   174
100
AcDbLine
 10
164.167152
 20
247.790435
 30
0.0
 11
164.167152
 21
221.790435
 31
0.0
  0
LINE
  5
128
100
AcDbEntity
  8
0
  6
Continuous
 62
   174
100
AcDbLine
 10
122.467152
 20
242.824416
 30
0.0
 11
122.467152
 21
238.247108
 31
0.0
  0
LINE
  5
129
100
AcDbEntity
  8
0
  6
Continuous
 62
   174
100
AcDbLine
 10
118.667152
 20
241.932807
 30
0.0
 11
118.667152
 21
235.024939
 31
0.0
  0
LINE
  5
12A
100
AcDbEntity
  8
0
  6
Continuous
 62
   174
100
AcDbLine
 10
129.967152
 20
209.869035
 30
0.0
 11
136.167152
 21
209.869035
 31
0.0
  0
LINE
  5
12B
100
AcDbEntity
  8
0
  6
Continuous
 62
   174
100
AcDbLine
 10
289.167152
 20
206.322813
 30
0.0
 11
289.167152
 21
202.330699
 31
0.0
  0
LINE
  5
12C
100
AcDbEntity
  8
0
  6
Continuous
 62
   174
100
AcDbLine
 10
167.192945
 20
247.790435
 30
0.0
 11
164.192777
 21
247.790435
 31
0.0
  0
LWPOLYLINE
  5
12D
100
AcDbEntity
  8
0
  6
Continuous
 62
   174
100
AcDbPolyline
 90
        4
 70
   128
 10
305.974332
 20
238.368544
 10
306.302232
 20
237.742137
 10
306.534986
 20
237.130724
 10
306.667152
 20
236.52552
  0
LINE
  5
12E
100
AcDbEntity
  8
0
  6
HIDDEN
 62
   174
100
AcDbLine
 10
122.467152
 20
238.368544
 30
0.0
 11
122.467152
 21
247.212326
 31
0.0
  0
LINE
  5
12F
100
AcDbEntity
  8
0
  6
HIDDEN
 62
   174
100
AcDbLine
 10
295.367152
 20
209.869035
 30
0.0
 11
289.167152
 21
209.869035
 31
0.0
  0
LWPOLYLINE
  5
130
100
AcDbEntity
  8
0
  6
HIDDEN
 62
   174
100
AcDbPolyline
 90
        4
 70
   128
 10
138.167152
 20
245.574317
 10
138.179712
 20
244.677582
 10
138.200117
 20
243.739428
 10
138.209112
 20
242.790435
  0
LINE
  5
131
100
AcDbEntity
  8
0
  6
Continuous
 62
   174
100
AcDbLine
 10
136.167152
 20
214.508615
 30
0.0
 11
136.167152
 21
214.826145
 31
0.0
  0
LINE
  5
132
100
AcDbEntity
  8
0
  6
Continuous
 62
   174
100
AcDbLine
 10
119.359972
 20
247.368095
 30
0.0
 11
122.467152
 21
247.368095
 31
0.0
  0
LINE
  5
133
100
AcDbEntity
  8
0
  6
Continuous
 62
   174
100
AcDbLine
 10
119.333294
 20
233.83831
 30
0.0
 11
118.816492
 21
235.068605
 31
0.0
  0
LINE
  5
134
100
AcDbEntity
  8
0
  6
Continuous
 62
   174
100
AcDbLine
 10
129.967152
 20
207.290435
 30
0.0
 11
129.967152
 21
202.290435
 31
0.0
  0
ARC
  5
135
100
AcDbEntity
  8
0
  6
HIDDEN
 62
   174
100
AcDbCircle
 10
284.167152
 20
247.790435
 30
0.0
 40
3.0
100
AcDbArc
 50
36.0
 51
54.0
  0
LINE
  5
136
100
AcDbEntity
  8
0
  6
Continuous
 62
   174
100
AcDbLine
 10
289.167152
 20
199.751401
 30
0.0
 11
289.167152
 21
196.214705
 31
0.0
  0
LINE
  5
137
100
AcDbEntity
  8
0
  6
HIDDEN
 62
   174
100
AcDbLine
 10
207.542152
 20
179.790435
 30
0.0
 11
207.542152
 21
191.790435
 31
0.0
  0
LINE
  5
138
100
AcDbEntity
  8
0
  6
Continuous
 62
   174
100
AcDbLine
 10
129.967152
 20
214.472571
 30
0.0
 11
136.167152
 21
214.472571
 31
0.0
  0
LINE
  5
139
100
AcDbEntity
  8
0
  6
Continuous
 62
   174
100
AcDbLine
 10
287.667152
 20
221.790435
 30
0.0
 11
257.667152
 21
221.790435
 31
0.0
  0
LINE
  5
13A
100
AcDbEntity
  8
0
  6
HIDDEN
 62
   174
100
AcDbLine
 10
167.192945
 20
247.790435
 30
0.0
 11
164.192777
 21
247.790435
 31
0.0
  0
LINE
  5
13B
100
AcDbEntity
  8
0
  6
HIDDEN
 62
   174
100
AcDbLine
 10
302.867152
 20
233.824811
 30
0.0
 11
302.867152
 21
233.825412
 31
0.0
  0
LINE
  5
13C
100
AcDbEntity
  8
0
  6
Continuous
 62
   174
100
AcDbLine
 10
289.167152
 20
214.790435
 30
0.0
 11
287.667152
 21
214.790435
 31
0.0
  0
LINE
  5
13D
100
AcDbEntity
  8
0
  6
Continuous
 62
   174
100
AcDbLine
 10
289.167152
 20
214.826145
 30
0.0
 11
289.167152
 21
214.509215
 31
0.0
  0
LINE
  5
13E
100
AcDbEntity
  8
0
  6
Continuous
 62
   174
100
AcDbLine
 10
261.167152
 20
221.790435
 30
0.0
 11
261.167152
 21
247.790435
 31
0.0
  0
LINE
  5
13F
100
AcDbEntity
  8
0
  6
HIDDEN
 62
   174
100
AcDbLine
 10
207.542152
 20
190.790435
 30
0.0
 11
207.542152
 21
179.790435
 31
0.0
  0
LINE
  5
140
100
AcDbEntity
  8
0
  6
Continuous
 62
   174
100
AcDbLine
 10
302.867152
 20
247.245812
 30
0.0
 11
302.867152
 21
251.823721
 31
0.0
  0
LINE
  5
141
100
AcDbEntity
  8
0
  6
HIDDEN
 62
   174
100
AcDbLine
 10
129.967152
 20
213.406079
 30
0.0
 11
136.167152
 21
213.406079
 31
0.0
  0
LINE
  5
142
100
AcDbEntity
  8
0
  6
Continuous
 62
   174
100
AcDbLine
 10
287.167152
 20
245.574317
 30
0.0
 11
287.167152
 21
247.790435
 31
0.0
  0
ARC
  5
143
100
AcDbEntity
  8
0
  6
Continuous
 62
   174
100
AcDbCircle
 10
164.167152
 20
247.790435
 30
0.0
 40
3.0
100
AcDbArc
 50
0.0
 51
90.0
  0
ARC
  5
144
100
AcDbEntity
  8
0
  6
HIDDEN
 62
   174
100
AcDbCircle
 10
164.167152
 20
247.790435
 30
0.0
 40
3.0
100
AcDbArc
 50
-360.0
 51
-342.0
  0
LINE
  5
145
100
AcDbEntity
  8
0
  6
HIDDEN
 62
   174
100
AcDbLine
 10
122.467152
 20
238.368544
 30
0.0
 11
119.359972
 21
238.368544
 31
0.0
  0
LWPOLYLINE
  5
146
100
AcDbEntity
  8
0
  6
Continuous
 62
   174
100
AcDbPolyline
 90
        4
 70
   128
 10
287.167152
 20
240.006553
 10
287.154593
 20
240.903254
 10
287.134187
 20
241.841408
 10
287.125192
 20
242.790435
  0
LINE
  5
147
100
AcDbEntity
  8
0
  6
HIDDEN
 62
   174
100
AcDbLine
 10
284.192619
 20
221.790435
 30
0.0
 11
287.192788
 21
221.790435
 31
0.0
  0
ARC
  5
148
100
AcDbEntity
  8
0
  6
Continuous
 62
   174
100
AcDbCircle
 10
284.167152
 20
247.790435
 30
0.0
 40
3.0
100
AcDbArc
 50
0.0
 51
90.0
  0
LWPOLYLINE
  5
149
100
AcDbEntity
  8
0
  6
Continuous
 62
   174
100
AcDbPolyline
 90
        4
 70
   128
 10
118.667152
 20
243.682046
 10
118.800272
 20
244.898762
 10
119.033358
 20
246.120925
 10
119.359972
 20
247.368095
  0
LWPOLYLINE
  5
14A
100
AcDbEntity
  8
0
  6
Continuous
 62
   174
100
AcDbPolyline
 90
        6
 70
   128
 10
118.816492
 20
235.068605
 10
118.765748
 20
235.279621
 10
118.688844
 20
236.00187
 10
118.765763
 20
236.724109
 10
118.993863
 20
237.461128
 10
119.359972
 20
238.212775
  0
LWPOLYLINE
  5
14B
100
AcDbEntity
  8
0
  6
Continuous
 62
   174
100
AcDbPolyline
 90
        4
 70
   128
 10
306.667152
 20
235.633909
 10
306.534031
 20
235.02555
 10
306.300949
 20
234.414475
 10
306.003053
 20
233.840185
  0
LINE
  5
14C
100
AcDbEntity
  8
0
  6
HIDDEN
 62
   174
100
AcDbLine
 10
302.867152
 20
247.368095
 30
0.0
 11
302.867152
 21
251.789986
 31
0.0
  0
LINE
  5
14D
100
AcDbEntity
  8
0
  6
HIDDEN
 62
   174
100
AcDbLine
 10
149.267152
 20
250.790435
 30
0.0
 11
149.667477
 21
250.790435
 31
0.0
  0
LINE
  5
14E
100
AcDbEntity
  8
0
  6
Continuous
 62
   174
100
AcDbLine
 10
141.167152
 20
247.823796
 30
0.0
 11
141.167152
 21
250.823665
 31
0.0
  0
LINE
  5
14F
100
AcDbEntity
  8
0
  6
Continuous
 62
   174
100
AcDbLine
 10
122.467152
 20
238.247108
 30
0.0
 11
122.467152
 21
233.825412
 31
0.0
  0
LINE
  5
150
100
AcDbEntity
  8
0
  6
HIDDEN
 62
   174
100
AcDbLine
 10
138.167152
 20
245.574317
 30
0.0
 11
138.167152
 21
247.790435
 31
0.0
  0
LINE
  5
151
100
AcDbEntity
  8
0
  6
HIDDEN
 62
   174
100
AcDbLine
 10
164.167152
 20
221.790435
 30
0.0
 11
141.167152
 21
221.790435
 31
0.0
  0
LINE
  5
152
100
AcDbEntity
  8
0
  6
Continuous
 62
   174
100
AcDbLine
 10
302.867152
 20
233.790884
 30
0.0
 11
305.974332
 21
233.790884
 31
0.0
  0
LINE
  5
153
100
AcDbEntity
  8
0
  6
Continuous
 62
   174
100
AcDbLine
 10
129.967152
 20
196.212902
 30
0.0
 11
129.967152
 21
195.144954
 31
0.0
  0
LINE
  5
154
100
AcDbEntity
  8
0
  6
HIDDEN
 62
   174
100
AcDbLine
 10
136.167152
 20
196.177483
 30
0.0
 11
136.167152
 21
199.714501
 31
0.0
  0
LINE
  5
155
100
AcDbEntity
  8
0
  6
Continuous
 62
   174
100
AcDbLine
 10
122.467152
 20
251.789986
 30
0.0
 11
119.359972
 21
251.789986
 31
0.0
  0
LINE
  5
156
100
AcDbEntity
  8
0
  6
HIDDEN
 62
   174
100
AcDbLine
 10
138.167152
 20
234.824867
 30
0.0
 11
138.167152
 21
240.040541
 31
0.0
  0
LINE
  5
157
100
AcDbEntity
  8
0
  6
Continuous
 62
   174
100
AcDbLine
 10
136.167152
 20
214.790435
 30
0.0
 11
137.667152
 21
214.790435
 31
0.0
  0
LINE
  5
158
100
AcDbEntity
  8
0
  6
HIDDEN
 62
   174
100
AcDbLine
 10
138.192816
 20
221.790435
 30
0.0
 11
141.192684
 21
221.790435
 31
0.0
  0
LINE
  5
159
100
AcDbEntity
  8
0
  6
Continuous
 62
   174
100
AcDbLine
 10
306.667152
 20
236.55972
 30
0.0
 11
306.667152
 21
249.088812
 31
0.0
  0
LINE
  5
15A
100
AcDbEntity
  8
0
  6
HIDDEN
 62
   174
100
AcDbLine
 10
122.467152
 20
247.212326
 30
0.0
 11
119.359972
 21
247.212326
 31
0.0
  0
LINE
  5
15B
100
AcDbEntity
  8
0
  6
Continuous
 62
   174
100
AcDbLine
 10
295.367152
 20
202.293802
 30
0.0
 11
289.167152
 21
202.293802
 31
0.0
  0
LINE
  5
15C
100
AcDbEntity
  8
0
  6
HIDDEN
 62
   174
100
AcDbLine
 10
195.792152
 20
179.790435
 30
0.0
 11
195.792152
 21
191.790435
 31
0.0
  0
LINE
  5
15D
100
AcDbEntity
  8
0
  6
HIDDEN
 62
   174
100
AcDbLine
 10
305.974332
 20
247.368095
 30
0.0
 11
302.867152
 21
247.368095
 31
0.0
  0
LWPOLYLINE
  5
15E
100
AcDbEntity
  8
0
  6
Continuous
 62
   174
100
AcDbPolyline
 90
        7
 70
   128
 10
305.974332
 20
247.212326
 10
306.340434
 20
245.709055
 10
306.568534
 20
244.235065
 10
306.645465
 20
242.790672
 10
306.568578
 20
241.346226
 10
306.340485
 20
239.872075
 10
305.974332
 20
238.368544
  0
LINE
  5
15F
100
AcDbEntity
  8
0
  6
Continuous
 62
   174
100
AcDbLine
 10
295.367152
 20
213.406079
 30
0.0
 11
289.167152
 21
213.406079
 31
0.0
  0
LINE
  5
160
100
AcDbEntity
  8
0
  6
HIDDEN
 62
   174
100
AcDbLine
 10
141.167152
 20
250.790435
 30
0.0
 11
149.267152
 21
250.790435
 31
0.0
  0
LINE
  5
161
100
AcDbEntity
  8
0
  6
HIDDEN
 62
   174
100
AcDbLine
 10
167.192945
 20
221.790435
 30
0.0
 11
164.192777
 21
221.790435
 31
0.0
  0
LINE
  5
162
100
AcDbEntity
  8
0
  6
Continuous
 62
   174
100
AcDbLine
 10
306.667152
 20
236.52552
 30
0.0
 11
306.667152
 21
235.633909
 31
0.0
  0
LINE
  5
163
100
AcDbEntity
  8
0
  6
HIDDEN
 62
   174
100
AcDbLine
 10
261.167152
 20
250.823665
 30
0.0
 11
261.167152
 21
247.823796
 31
0.0
  0
LINE
  5
164
100
AcDbEntity
  8
0
  6
Continuous
 62
   174
100
AcDbLine
 10
295.367152
 20
207.330079
 30
0.0
 11
295.367152
 21
209.908175
 31
0.0
  0
LINE
  5
165
100
AcDbEntity
  8
0
  6
Continuous
 62
   174
100
AcDbLine
 10
306.003139
 20
233.840334
 30
0.0
 11
305.974332
 21
233.790884
 31
0.0
  0
LINE
  5
166
100
AcDbEntity
  8
0
  6
Continuous
 62
   174
100
AcDbLine
 10
258.167152
 20
247.790435
 30
0.0
 11
258.167152
 21
221.790435
 31
0.0
  0
LINE
  5
167
100
AcDbEntity
  8
0
  6
Continuous
 62
   174
100
AcDbLine
 10
167.167152
 20
221.790435
 30
0.0
 11
167.167152
 21
247.790435
 31
0.0
  0
ARC
  5
168
100
AcDbEntity
  8
0
  6
HIDDEN
 62
   174
100
AcDbCircle
 10
164.167152
 20
247.790435
 30
0.0
 40
3.0
100
AcDbArc
 50
-342.0
 51
-324.0
  0
LINE
  5
169
100
AcDbEntity
  8
0
  6
Continuous
 62
   174
100
AcDbLine
 10
129.967152
 20
207.290435
 30
0.0
 11
136.167152
 21
207.290435
 31
0.0
  0
LINE
  5
16A
100
AcDbEntity
  8
0
  6
Continuous
 62
   174
100
AcDbLine
 10
167.667152
 20
221.790435
 30
0.0
 11
137.667152
 21
221.790435
 31
0.0
  0
LINE
  5
16B
100
AcDbEntity
  8
0
  6
Continuous
 62
   174
100
AcDbLine
 10
118.667152
 20
250.623593
 30
0.0
 11
118.667152
 21
243.715725
 31
0.0
  0
LINE
  5
16C
100
AcDbEntity
  8
0
  6
Continuous
 62
   174
100
AcDbLine
 10
129.967152
 20
195.107654
 30
0.0
 11
136.167152
 21
195.107654
 31
0.0
  0
LINE
  5
16D
100
AcDbEntity
  8
0
  6
Continuous
 62
   174
100
AcDbLine
 10
119.332532
 20
251.741192
 30
0.0
 11
119.359972
 21
251.789986
 31
0.0
  0
LINE
  5
16E
100
AcDbEntity
  8
0
  6
Continuous
 62
   174
100
AcDbLine
 10
289.167152
 20
213.442168
 30
0.0
 11
289.167152
 21
209.908175
 31
0.0
  0
LINE
  5
16F
100
AcDbEntity
  8
0
  6
Continuous
 62
   174
100
AcDbLine
 10
261.192827
 20
247.790435
 30
0.0
 11
258.192658
 21
247.790435
 31
0.0
  0
LINE
  5
170
100
AcDbEntity
  8
0
  6
Continuous
 62
   174
100
AcDbLine
 10
122.467152
 20
251.82312
 30
0.0
 11
122.467152
 21
247.401724
 31
0.0
  0
LINE
  5
171
100
AcDbEntity
  8
0
  6
Continuous
 62
   174
100
AcDbLine
 10
122.467152
 20
238.212775
 30
0.0
 11
119.359972
 21
238.212775
 31
0.0
  0
LINE
  5
172
100
AcDbEntity
  8
0
  6
Continuous
 62
   174
100
AcDbLine
 10
129.967152
 20
214.508615
 30
0.0
 11
129.967152
 21
213.440366
 31
0.0
  0
LINE
  5
173
100
AcDbEntity
  8
0
  6
Continuous
 62
   174
100
AcDbLine
 10
129.967152
 20
202.327094
 30
0.0
 11
129.967152
 21
199.748397
 31
0.0
  0
LWPOLYLINE
  5
174
100
AcDbEntity
  8
0
  6
Continuous
 62
   174
100
AcDbPolyline
 90
        4
 70
   128
 10
306.667152
 20
249.05535
 10
306.534031
 20
248.446991
 10
306.300949
 20
247.835916
 10
305.974332
 20
247.212326
  0
LINE
  5
175
100
AcDbEntity
  8
0
  6
HIDDEN
 62
   174
100
AcDbLine
 10
129.967152
 20
199.714501
 30
0.0
 11
136.167152
 21
199.714501
 31
0.0
  0
LINE
  5
176
100
AcDbEntity
  8
0
  6
HIDDEN
 62
   174
100
AcDbLine
 10
287.167152
 20
245.607991
 30
0.0
 11
287.167152
 21
247.823796
 31
0.0
  0
LINE
  5
177
100
AcDbEntity
  8
0
  6
Continuous
 62
   174
100
AcDbLine
 10
136.167152
 20
194.790435
 30
0.0
 11
137.667152
 21
194.790435
 31
0.0
  0
LINE
  5
178
100
AcDbEntity
  8
0
  6
HIDDEN
 62
   174
100
AcDbLine
 10
195.11281
 20
179.790435
 30
0.0
 11
208.272758
 21
179.790435
 31
0.0
  0
LINE
  5
179
100
AcDbEntity
  8
0
  6
HIDDEN
 62
   174
100
AcDbLine
 10
302.867152
 20
233.790884
 30
0.0
 11
302.867152
 21
238.212775
 31
0.0
  0
LINE
  5
17A
100
AcDbEntity
  8
0
  6
Continuous
 62
   174
100
AcDbLine
 10
306.667152
 20
235.024939
 30
0.0
 11
306.667152
 21
235.668411
 31
0.0
  0
LWPOLYLINE
  5
17B
100
AcDbEntity
  8
0
  6
HIDDEN
 62
   174
100
AcDbPolyline
 90
        4
 70
   128
 10
138.167152
 20
240.006553
 10
138.179711
 20
240.903254
 10
138.200116
 20
241.841408
 10
138.209112
 20
242.790435
  0
LINE
  5
17C
100
AcDbEntity
  8
0
  6
HIDDEN
 62
   174
100
AcDbLine
 10
122.467152
 20
238.368544
 30
0.0
 11
122.467152
 21
233.790884
 31
0.0
  0
LINE
  5
17D
100
AcDbEntity
  8
0
  6
Continuous
 62
   174
100
AcDbLine
 10
306.667152
 20
249.946961
 30
0.0
 11
306.667152
 21
249.05535
 31
0.0
  0
LINE
  5
17E
100
AcDbEntity
  8
0
  6
Continuous
 62
   174
100
AcDbLine
 10
295.367152
 20
209.87203
 30
0.0
 11
289.167152
 21
209.87203
 31
0.0
  0
LINE
  5
17F
100
AcDbEntity
  8
0
  6
Continuous
 62
   174
100
AcDbLine
 10
129.967152
 20
213.404314
 30
0.0
 11
129.967152
 21
209.869035
 31
0.0
  0
LINE
  5
180
100
AcDbEntity
  8
0
  6
Continuous
 62
   174
100
AcDbLine
 10
295.367152
 20
209.87203
 30
0.0
 11
295.367152
 21
213.406079
 31
0.0
  0
LINE
  5
181
100
AcDbEntity
  8
0
  6
Continuous
 62
   174
100
AcDbLine
 10
118.667152
 20
241.898823
 30
0.0
 11
118.667152
 21
243.682046
 31
0.0
  0
LWPOLYLINE
  5
182
100
AcDbEntity
  8
0
  6
HIDDEN
 62
   174
100
AcDbPolyline
 90
        4
 70
   128
 10
119.331211
 20
251.740615
 10
119.032072
 20
251.163578
 10
118.799317
 20
250.552165
 10
118.667152
 20
249.946961
  0
LWPOLYLINE
  5
183
100
AcDbEntity
  8
0
  6
Continuous
 62
   174
100
AcDbPolyline
 90
        4
 70
   128
 10
287.167152
 20
245.574317
 10
287.154592
 20
244.677582
 10
287.134187
 20
243.739428
 10
287.125192
 20
242.790435
  0
LINE
  5
184
100
AcDbEntity
  8
0
  6
HIDDEN
 62
   174
100
AcDbLine
 10
287.167152
 20
234.790435
 30
0.0
 11
287.167152
 21
221.790435
 31
0.0
  0
LINE
  5
185
100
AcDbEntity
  8
0
  6
HIDDEN
 62
   174
100
AcDbLine
 10
167.667152
 20
221.790435
 30
0.0
 11
167.667152
 21
193.790435
 31
0.0
  0
LWPOLYLINE
  5
186
100
AcDbEntity
  8
0
  6
HIDDEN
 62
   174
100
AcDbPolyline
 90
        7
 70
   128
 10
119.359972
 20
247.212326
 10
118.99387
 20
245.709055
 10
118.76577
 20
244.235065
 10
118.688839
 20
242.790672
 10
118.765726
 20
241.346226
 10
118.993818
 20
239.872075
 10
119.359972
 20
238.368544
  0
LWPOLYLINE
  5
187
100
AcDbEntity
  8
0
  6
HIDDEN
 62
   174
100
AcDbPolyline
 90
        4
 70
   128
 10
287.125192
 20
242.790435
 10
287.134187
 20
241.841428
 10
287.154592
 20
240.903262
 10
287.167152
 20
240.006553
  0
LINE
  5
188
100
AcDbEntity
  8
0
  6
Continuous
 62
   174
100
AcDbLine
 10
136.167152
 20
194.827724
 30
0.0
 11
136.167152
 21
195.144954
 31
0.0
  0
ARC
  5
189
100
AcDbEntity
  8
0
  6
Continuous
 62
   174
100
AcDbCircle
 10
212.667152
 20
186.790435
 30
0.0
 40
2.75
100
AcDbArc
 50
0.0
 51
180.0
  0
LINE
  5
18A
100
AcDbEntity
  8
0
  6
HIDDEN
 62
   174
100
AcDbLine
 10
261.192827
 20
221.790435
 30
0.0
 11
258.192658
 21
221.790435
 31
0.0
  0
LINE
  5
18B
100
AcDbEntity
  8
0
  6
Continuous
 62
   174
100
AcDbLine
 10
137.667152
 20
193.790435
 30
0.0
 11
137.667152
 21
221.790435
 31
0.0
  0
ENDBLK
  5
18C
100
AcDbEntity
  8
0
100
AcDbBlockEnd
  0
BLOCK
  5
18F
100
AcDbEntity
  8
0
100
AcDbBlockBegin
  2
*B2
 70
     0
 10
0.0
 20
0.0
 30
0.0
  3
*B2
  1

  0
ARC
  5
190
100
AcDbEntity
  8
0
  6
Continuous
 62
   174
100
AcDbCircle
 10
272.667152
 20
111.372928
 30
0.0
 40
3.4
100
AcDbArc
 50
-90.0
 51
90.0
  0
ARC
  5
191
100
AcDbEntity
  8
0
  6
Continuous
 62
   174
100
AcDbCircle
 10
272.667152
 20
111.372928
 30
0.0
 40
3.4
100
AcDbArc
 50
-270.0
 51
-90.0
  0
ARC
  5
192
100
AcDbEntity
  8
0
  6
Continuous
 62
   174
100
AcDbCircle
 10
152.667152
 20
111.372928
 30
0.0
 40
3.4
100
AcDbArc
 50
-270.0
 51
-90.0
  0
ARC
  5
193
100
AcDbEntity
  8
0
  6
Continuous
 62
   174
100
AcDbCircle
 10
152.667152
 20
111.372928
 30
0.0
 40
3.4
100
AcDbArc
 50
-90.0
 51
90.0
  0
ARC
  5
194
100
AcDbEntity
  8
0
  6
Continuous
 62
   174
100
AcDbCircle
 10
272.667152
 20
111.372928
 30
0.0
 40
3.0
100
AcDbArc
 50
-37.286546
 51
127.286546
  0
ARC
  5
195
100
AcDbEntity
  8
0
  6
Continuous
 62
   174
100
AcDbCircle
 10
152.667152
 20
111.372928
 30
0.0
 40
3.0
100
AcDbArc
 50
-217.286546
 51
-52.713454
  0
LINE
  5
196
100
AcDbEntity
  8
0
  6
Continuous
 62
   174
100
AcDbLine
 10
275.053999
 20
109.555523
 30
0.0
 11
270.849747
 21
113.759775
 31
0.0
  0
LINE
  5
197
100
AcDbEntity
  8
0
  6
Continuous
 62
   174
100
AcDbLine
 10
150.280305
 20
113.190332
 30
0.0
 11
154.484557
 21
108.98608
 31
0.0
  0
ARC
  5
198
100
AcDbEntity
  8
0
  6
Continuous
 62
   174
100
AcDbCircle
 10
272.667152
 20
111.372928
 30
0.0
 40
3.0
100
AcDbArc
 50
-221.228296
 51
-48.771704
  0
ARC
  5
199
100
AcDbEntity
  8
0
  6
Continuous
 62
   174
100
AcDbCircle
 10
152.667152
 20
111.372928
 30
0.0
 40
3.0
100
AcDbArc
 50
-41.228296
 51
131.228296
  0
LINE
  5
19A
100
AcDbEntity
  8
0
  6
Continuous
 62
   174
100
AcDbLine
 10
270.410883
 20
113.350111
 30
0.0
 11
274.644335
 21
109.116659
 31
0.0
  0
LINE
  5
19B
100
AcDbEntity
  8
0
  6
Continuous
 62
   174
100
AcDbLine
 10
154.92342
 20
109.395745
 30
0.0
 11
150.689969
 21
113.629196
 31
0.0
  0
LINE
  5
19C
100
AcDbEntity
  8
0
  6
Continuous
 62
   174
100
AcDbLine
 10
299.167152
 20
117.872928
 30
0.0
 11
302.167152
 21
117.872928
 31
0.0
  0
LINE
  5
19D
100
AcDbEntity
  8
0
  6
Continuous
 62
   174
100
AcDbLine
 10
126.167152
 20
117.872928
 30
0.0
 11
123.167152
 21
117.872928
 31
0.0
  0
LINE
  5
19E
100
AcDbEntity
  8
0
  6
Continuous
 62
   174
100
AcDbLine
 10
302.167152
 20
102.372928
 30
0.0
 11
302.867152
 21
102.372928
 31
0.0
  0
LINE
  5
19F
100
AcDbEntity
  8
0
  6
Continuous
 62
   174
100
AcDbLine
 10
123.167152
 20
102.372928
 30
0.0
 11
122.467152
 21
102.372928
 31
0.0
  0
ARC
  5
1A0
100
AcDbEntity
  8
0
  6
Continuous
 62
   174
100
AcDbCircle
 10
212.667152
 20
111.372928
 30
0.0
 40
5.875
100
AcDbArc
 50
-180.0
 51
0.0
  0
LINE
  5
1A1
100
AcDbEntity
  8
0
  6
Continuous
 62
   174
100
AcDbLine
 10
241.667152
 20
126.372928
 30
0.0
 11
257.667152
 21
126.372928
 31
0.0
  0
LINE
  5
1A2
100
AcDbEntity
  8
0
  6
Continuous
 62
   174
100
AcDbLine
 10
299.167152
 20
104.810343
 30
0.0
 11
299.167152
 21
118.022261
 31
0.0
  0
LINE
  5
1A3
100
AcDbEntity
  8
0
  6
Continuous
 62
   174
100
AcDbLine
 10
126.167152
 20
119.41555
 30
0.0
 11
126.167152
 21
118.022261
 31
0.0
  0
LINE
  5
1A4
100
AcDbEntity
  8
0
  6
Continuous
 62
   174
100
AcDbLine
 10
126.167152
 20
118.022261
 30
0.0
 11
126.167152
 21
104.810343
 31
0.0
  0
LINE
  5
1A5
100
AcDbEntity
  8
0
  6
Continuous
 62
   174
100
AcDbLine
 10
123.167152
 20
118.130107
 30
0.0
 11
123.167152
 21
120.415606
 31
0.0
  0
LINE
  5
1A6
100
AcDbEntity
  8
0
  6
Continuous
 62
   174
100
AcDbLine
 10
123.167152
 20
104.702497
 30
0.0
 11
123.167152
 21
118.130107
 31
0.0
  0
LINE
  5
1A7
100
AcDbEntity
  8
0
  6
Continuous
 62
   174
100
AcDbLine
 10
122.467152
 20
111.32618
 30
0.0
 11
122.467152
 21
103.667893
 31
0.0
  0
LINE
  5
1A8
100
AcDbEntity
  8
0
  6
Continuous
 62
   174
100
AcDbLine
 10
178.504968
 20
113.967864
 30
0.0
 11
178.504968
 21
108.777991
 31
0.0
  0
LINE
  5
1A9
100
AcDbEntity
  8
0
  6
Continuous
 62
   174
100
AcDbLine
 10
118.667152
 20
119.215779
 30
0.0
 11
118.667152
 21
116.062403
 31
0.0
  0
LINE
  5
1AA
100
AcDbEntity
  8
0
  6
Continuous
 62
   174
100
AcDbLine
 10
306.667152
 20
108.314295
 30
0.0
 11
306.667152
 21
119.16471
 31
0.0
  0
LINE
  5
1AB
100
AcDbEntity
  8
0
  6
Continuous
 62
   174
100
AcDbLine
 10
302.167152
 20
120.372928
 30
0.0
 11
302.867152
 21
120.372928
 31
0.0
  0
LINE
  5
1AC
100
AcDbEntity
  8
0
  6
Continuous
 62
   174
100
AcDbLine
 10
123.167152
 20
102.372928
 30
0.0
 11
122.467152
 21
102.372928
 31
0.0
  0
LINE
  5
1AD
100
AcDbEntity
  8
0
  6
Continuous
 62
   174
100
AcDbLine
 10
306.667152
 20
103.572928
 30
0.0
 11
306.568556
 21
103.402154
 31
0.0
  0
LINE
  5
1AE
100
AcDbEntity
  8
0
  6
Continuous
 62
   174
100
AcDbLine
 10
126.167152
 20
103.372928
 30
0.0
 11
138.209112
 21
103.372928
 31
0.0
  0
LINE
  5
1AF
100
AcDbEntity
  8
0
  6
Continuous
 62
   174
100
AcDbLine
 10
287.167152
 20
118.872928
 30
0.0
 11
287.167152
 21
117.617926
 31
0.0
  0
LINE
  5
1B0
100
AcDbEntity
  8
0
  6
Continuous
 62
   174
100
AcDbLine
 10
138.167152
 20
103.872928
 30
0.0
 11
138.167152
 21
105.12793
 31
0.0
  0
ARC
  5
1B1
100
AcDbEntity
  8
0
  6
Continuous
 62
   174
100
AcDbCircle
 10
212.667152
 20
111.372928
 30
0.0
 40
6.58
100
AcDbArc
 50
-180.0
 51
-61.197359
  0
LINE
  5
1B2
100
AcDbEntity
  8
0
  6
Continuous
 62
   174
100
AcDbLine
 10
258.167152
 20
103.872928
 30
0.0
 11
258.167152
 21
118.872928
 31
0.0
  0
LINE
  5
1B3
100
AcDbEntity
  8
0
  6
Continuous
 62
   174
100
AcDbLine
 10
241.667152
 20
96.372928
 30
0.0
 11
183.667152
 21
96.372928
 31
0.0
  0
LINE
  5
1B4
100
AcDbEntity
  8
0
  6
Continuous
 62
   174
100
AcDbLine
 10
257.667152
 20
126.372928
 30
0.0
 11
257.667152
 21
96.372928
 31
0.0
  0
LINE
  5
1B5
100
AcDbEntity
  8
0
  6
Continuous
 62
   174
100
AcDbLine
 10
122.467152
 20
120.415606
 30
0.0
 11
122.467152
 21
119.254532
 31
0.0
  0
ARC
  5
1B6
100
AcDbEntity
  8
0
  6
Continuous
 62
   174
100
AcDbCircle
 10
178.667152
 20
111.372928
 30
0.0
 40
3.0
100
AcDbArc
 50
-270.0
 51
-90.0
  0
LINE
  5
1B7
100
AcDbEntity
  8
0
  6
Continuous
 62
   174
100
AcDbLine
 10
302.167152
 20
120.372928
 30
0.0
 11
302.867152
 21
120.372928
 31
0.0
  0
LINE
  5
1B8
100
AcDbEntity
  8
0
  6
Continuous
 62
   174
100
AcDbLine
 10
123.167152
 20
120.372928
 30
0.0
 11
122.467152
 21
120.372928
 31
0.0
  0
LINE
  5
1B9
100
AcDbEntity
  8
0
  6
Continuous
 62
   174
100
AcDbLine
 10
123.167152
 20
120.372928
 30
0.0
 11
122.467152
 21
120.372928
 31
0.0
  0
LINE
  5
1BA
100
AcDbEntity
  8
0
  6
Continuous
 62
   174
100
AcDbLine
 10
141.167152
 20
121.872928
 30
0.0
 11
164.167152
 21
121.872928
 31
0.0
  0
LINE
  5
1BB
100
AcDbEntity
  8
0
  6
Continuous
 62
   174
100
AcDbLine
 10
183.667152
 20
96.372928
 30
0.0
 11
167.667152
 21
96.372928
 31
0.0
  0
LINE
  5
1BC
100
AcDbEntity
  8
0
  6
Continuous
 62
   174
100
AcDbLine
 10
241.667152
 20
126.372928
 30
0.0
 11
241.667152
 21
96.372928
 31
0.0
  0
LINE
  5
1BD
100
AcDbEntity
  8
0
  6
Continuous
 62
   174
100
AcDbLine
 10
183.667152
 20
126.372928
 30
0.0
 11
167.667152
 21
126.372928
 31
0.0
  0
LINE
  5
1BE
100
AcDbEntity
  8
0
  6
Continuous
 62
   174
100
AcDbLine
 10
299.167152
 20
103.416753
 30
0.0
 11
299.167152
 21
104.810343
 31
0.0
  0
ARC
  5
1BF
100
AcDbEntity
  8
0
  6
Continuous
 62
   174
100
AcDbCircle
 10
246.667152
 20
111.372928
 30
0.0
 40
3.0
100
AcDbArc
 50
-270.0
 51
-90.0
  0
ARC
  5
1C0
100
AcDbEntity
  8
0
  6
Continuous
 62
   174
100
AcDbCircle
 10
178.667152
 20
111.372928
 30
0.0
 40
3.0
100
AcDbArc
 50
-90.0
 51
90.0
  0
ARC
  5
1C1
100
AcDbEntity
  8
0
  6
Continuous
 62
   174
100
AcDbCircle
 10
246.667152
 20
111.372928
 30
0.0
 40
2.6
100
AcDbArc
 50
-86.423666
 51
86.423666
  0
LINE
  5
1C2
100
AcDbEntity
  8
0
  6
Continuous
 62
   174
100
AcDbLine
 10
246.829335
 20
108.777991
 30
0.0
 11
246.829335
 21
113.967864
 31
0.0
  0
LWPOLYLINE
  5
1C3
100
AcDbEntity
  8
0
  6
Continuous
 62
   174
100
AcDbPolyline
 90
        4
 70
   128
 10
118.667152
 20
103.624055
 10
118.800272
 20
103.624055
 10
119.033358
 20
103.624055
 10
119.359972
 20
103.624055
  0
LINE
  5
1C4
100
AcDbEntity
  8
0
  6
Continuous
 62
   174
100
AcDbLine
 10
299.167152
 20
104.872928
 30
0.0
 11
302.167152
 21
104.872928
 31
0.0
  0
LINE
  5
1C5
100
AcDbEntity
  8
0
  6
Continuous
 62
   174
100
AcDbLine
 10
126.167152
 20
117.872928
 30
0.0
 11
123.167152
 21
117.872928
 31
0.0
  0
LINE
  5
1C6
100
AcDbEntity
  8
0
  6
Continuous
 62
   174
100
AcDbLine
 10
302.167152
 20
102.372928
 30
0.0
 11
302.867152
 21
102.372928
 31
0.0
  0
LINE
  5
1C7
100
AcDbEntity
  8
0
  6
Continuous
 62
   174
100
AcDbLine
 10
299.167152
 20
103.372928
 30
0.0
 11
287.125192
 21
103.372928
 31
0.0
  0
LINE
  5
1C8
100
AcDbEntity
  8
0
  6
Continuous
 62
   174
100
AcDbLine
 10
299.167152
 20
119.372928
 30
0.0
 11
287.125192
 21
119.372928
 31
0.0
  0
LINE
  5
1C9
100
AcDbEntity
  8
0
  6
Continuous
 62
   174
100
AcDbLine
 10
126.167152
 20
103.372928
 30
0.0
 11
138.209112
 21
103.372928
 31
0.0
  0
LINE
  5
1CA
100
AcDbEntity
  8
0
  6
Continuous
 62
   174
100
AcDbLine
 10
287.167152
 20
105.12793
 30
0.0
 11
287.167152
 21
103.872928
 31
0.0
  0
LINE
  5
1CB
100
AcDbEntity
  8
0
  6
Continuous
 62
   174
100
AcDbLine
 10
138.167152
 20
117.617926
 30
0.0
 11
138.167152
 21
118.872928
 31
0.0
  0
ARC
  5
1CC
100
AcDbEntity
  8
0
  6
Continuous
 62
   174
100
AcDbCircle
 10
212.667152
 20
111.372928
 30
0.0
 40
6.58
100
AcDbArc
 50
0.0
 51
180.0
  0
LINE
  5
1CD
100
AcDbEntity
  8
0
  6
Continuous
 62
   174
100
AcDbLine
 10
183.667152
 20
96.372928
 30
0.0
 11
183.667152
 21
126.372928
 31
0.0
  0
LINE
  5
1CE
100
AcDbEntity
  8
0
  6
Continuous
 62
   174
100
AcDbLine
 10
167.667152
 20
96.372928
 30
0.0
 11
167.667152
 21
126.372928
 31
0.0
  0
LINE
  5
1CF
100
AcDbEntity
  8
0
  6
Continuous
 62
   174
100
AcDbLine
 10
241.667152
 20
96.372928
 30
0.0
 11
257.667152
 21
96.372928
 31
0.0
  0
LINE
  5
1D0
100
AcDbEntity
  8
0
  6
Continuous
 62
   174
100
AcDbLine
 10
302.167152
 20
118.130107
 30
0.0
 11
302.167152
 21
104.702497
 31
0.0
  0
ARC
  5
1D1
100
AcDbEntity
  8
0
  6
Continuous
 62
   174
100
AcDbCircle
 10
178.667152
 20
111.372928
 30
0.0
 40
2.6
100
AcDbArc
 50
-86.423666
 51
86.423666
  0
LINE
  5
1D2
100
AcDbEntity
  8
0
  6
Continuous
 62
   174
100
AcDbLine
 10
129.967152
 20
102.80242
 30
0.0
 11
129.967152
 21
101.734471
 31
0.0
  0
LINE
  5
1D3
100
AcDbEntity
  8
0
  6
Continuous
 62
   174
100
AcDbLine
 10
126.167152
 20
104.872928
 30
0.0
 11
123.167152
 21
104.872928
 31
0.0
  0
LINE
  5
1D4
100
AcDbEntity
  8
0
  6
Continuous
 62
   174
100
AcDbLine
 10
284.167152
 20
100.872928
 30
0.0
 11
261.167152
 21
100.872928
 31
0.0
  0
LINE
  5
1D5
100
AcDbEntity
  8
0
  6
Continuous
 62
   174
100
AcDbLine
 10
183.667152
 20
126.372928
 30
0.0
 11
183.667152
 21
96.372928
 31
0.0
  0
LINE
  5
1D6
100
AcDbEntity
  8
0
  6
Continuous
 62
   174
100
AcDbLine
 10
126.167152
 20
104.810343
 30
0.0
 11
126.167152
 21
103.416753
 31
0.0
  0
LINE
  5
1D7
100
AcDbEntity
  8
0
  6
Continuous
 62
   174
100
AcDbLine
 10
302.167152
 20
104.702497
 30
0.0
 11
302.167152
 21
102.416997
 31
0.0
  0
LINE
  5
1D8
100
AcDbEntity
  8
0
  6
Continuous
 62
   174
100
AcDbLine
 10
123.167152
 20
102.416997
 30
0.0
 11
123.167152
 21
104.702497
 31
0.0
  0
LINE
  5
1D9
100
AcDbEntity
  8
0
  6
Continuous
 62
   174
100
AcDbLine
 10
122.467152
 20
103.667893
 30
0.0
 11
122.467152
 21
102.416997
 31
0.0
  0
ARC
  5
1DA
100
AcDbEntity
  8
0
  6
Continuous
 62
   174
100
AcDbCircle
 10
246.667152
 20
111.372928
 30
0.0
 40
3.0
100
AcDbArc
 50
-90.0
 51
90.0
  0
ARC
  5
1DB
100
AcDbEntity
  8
0
  6
Continuous
 62
   174
100
AcDbCircle
 10
178.667152
 20
111.372928
 30
0.0
 40
2.6
100
AcDbArc
 50
-266.423666
 51
-93.576334
  0
LINE
  5
1DC
100
AcDbEntity
  8
0
  6
Continuous
 62
   174
100
AcDbLine
 10
295.367152
 20
101.735373
 30
0.0
 11
295.367152
 21
102.804222
 31
0.0
  0
LINE
  5
1DD
100
AcDbEntity
  8
0
  6
Continuous
 62
   174
100
AcDbLine
 10
129.967152
 20
121.097231
 30
0.0
 11
129.967152
 21
120.028381
 31
0.0
  0
ARC
  5
1DE
100
AcDbEntity
  8
0
  6
Continuous
 62
   174
100
AcDbCircle
 10
246.667152
 20
111.372928
 30
0.0
 40
2.6
100
AcDbArc
 50
-266.423666
 51
-93.576334
  0
LINE
  5
1DF
100
AcDbEntity
  8
0
  6
Continuous
 62
   174
100
AcDbLine
 10
305.974332
 20
119.1218
 30
0.0
 11
302.867152
 21
119.1218
 31
0.0
  0
LINE
  5
1E0
100
AcDbEntity
  8
0
  6
Continuous
 62
   174
100
AcDbLine
 10
306.667152
 20
103.616824
 30
0.0
 11
306.667152
 21
106.7699
 31
0.0
  0
LINE
  5
1E1
100
AcDbEntity
  8
0
  6
Continuous
 62
   174
100
AcDbLine
 10
299.167152
 20
117.872928
 30
0.0
 11
302.167152
 21
117.872928
 31
0.0
  0
LINE
  5
1E2
100
AcDbEntity
  8
0
  6
Continuous
 62
   174
100
AcDbLine
 10
299.167152
 20
103.372928
 30
0.0
 11
287.125192
 21
103.372928
 31
0.0
  0
LINE
  5
1E3
100
AcDbEntity
  8
0
  6
Continuous
 62
   174
100
AcDbLine
 10
299.167152
 20
118.022261
 30
0.0
 11
299.167152
 21
119.41555
 31
0.0
  0
LINE
  5
1E4
100
AcDbEntity
  8
0
  6
Continuous
 62
   174
100
AcDbLine
 10
302.867152
 20
103.578072
 30
0.0
 11
302.867152
 21
111.506124
 31
0.0
  0
LINE
  5
1E5
100
AcDbEntity
  8
0
  6
Continuous
 62
   174
100
AcDbLine
 10
306.667152
 20
108.270649
 30
0.0
 11
306.667152
 21
106.726333
 31
0.0
  0
LINE
  5
1E6
100
AcDbEntity
  8
0
  6
Continuous
 62
   174
100
AcDbLine
 10
299.167152
 20
104.872928
 30
0.0
 11
302.167152
 21
104.872928
 31
0.0
  0
LINE
  5
1E7
100
AcDbEntity
  8
0
  6
Continuous
 62
   174
100
AcDbLine
 10
118.667152
 20
119.172928
 30
0.0
 11
118.765748
 21
119.343701
 31
0.0
  0
LINE
  5
1E8
100
AcDbEntity
  8
0
  6
Continuous
 62
   174
100
AcDbLine
 10
299.167152
 20
119.372928
 30
0.0
 11
287.125192
 21
119.372928
 31
0.0
  0
LINE
  5
1E9
100
AcDbEntity
  8
0
  6
Continuous
 62
   174
100
AcDbLine
 10
126.167152
 20
119.372928
 30
0.0
 11
138.209112
 21
119.372928
 31
0.0
  0
LINE
  5
1EA
100
AcDbEntity
  8
0
  6
Continuous
 62
   174
100
AcDbLine
 10
126.167152
 20
119.372928
 30
0.0
 11
138.209112
 21
119.372928
 31
0.0
  0
LINE
  5
1EB
100
AcDbEntity
  8
0
  6
Continuous
 62
   174
100
AcDbLine
 10
241.667152
 20
126.372928
 30
0.0
 11
241.667152
 21
96.372928
 31
0.0
  0
LINE
  5
1EC
100
AcDbEntity
  8
0
  6
Continuous
 62
   174
100
AcDbLine
 10
241.667152
 20
126.372928
 30
0.0
 11
183.667152
 21
126.372928
 31
0.0
  0
LINE
  5
1ED
100
AcDbEntity
  8
0
  6
Continuous
 62
   174
100
AcDbLine
 10
302.167152
 20
120.415606
 30
0.0
 11
302.167152
 21
118.130107
 31
0.0
  0
LINE
  5
1EE
100
AcDbEntity
  8
0
  6
Continuous
 62
   174
100
AcDbLine
 10
302.867152
 20
102.416997
 30
0.0
 11
302.867152
 21
103.578072
 31
0.0
  0
LINE
  5
1EF
100
AcDbEntity
  8
0
  6
Continuous
 62
   174
100
AcDbLine
 10
246.504968
 20
113.967864
 30
0.0
 11
246.504968
 21
108.777991
 31
0.0
  0
LINE
  5
1F0
100
AcDbEntity
  8
0
  6
Continuous
 62
   174
100
AcDbLine
 10
178.829335
 20
108.777991
 30
0.0
 11
178.829335
 21
113.967864
 31
0.0
  0
LINE
  5
1F1
100
AcDbEntity
  8
0
  6
Continuous
 62
   174
100
AcDbLine
 10
295.367152
 20
120.029883
 30
0.0
 11
295.367152
 21
121.098132
 31
0.0
  0
LINE
  5
1F2
100
AcDbEntity
  8
0
  6
Continuous
 62
   174
100
AcDbLine
 10
118.667152
 20
114.475206
 30
0.0
 11
118.667152
 21
116.019522
 31
0.0
  0
LINE
  5
1F3
100
AcDbEntity
  8
0
  6
Continuous
 62
   174
100
AcDbLine
 10
118.667152
 20
114.518309
 30
0.0
 11
118.667152
 21
103.667893
 31
0.0
  0
LINE
  5
1F4
100
AcDbEntity
  8
0
  6
Continuous
 62
   174
100
AcDbLine
 10
126.167152
 20
104.872928
 30
0.0
 11
123.167152
 21
104.872928
 31
0.0
  0
ARC
  5
1F5
100
AcDbEntity
  8
0
  6
Continuous
 62
   174
100
AcDbCircle
 10
212.667152
 20
111.372928
 30
0.0
 40
5.875
100
AcDbArc
 50
0.0
 51
180.0
  0
LINE
  5
1F6
100
AcDbEntity
  8
0
  6
Continuous
 62
   174
100
AcDbLine
 10
167.167152
 20
118.872928
 30
0.0
 11
167.167152
 21
103.872928
 31
0.0
  0
LINE
  5
1F7
100
AcDbEntity
  8
0
  6
Continuous
 62
   174
100
AcDbLine
 10
302.867152
 20
119.16471
 30
0.0
 11
302.867152
 21
120.415606
 31
0.0
  0
LINE
  5
1F8
100
AcDbEntity
  8
0
  6
Continuous
 62
   174
100
AcDbLine
 10
302.867152
 20
111.506124
 30
0.0
 11
302.867152
 21
119.16471
 31
0.0
  0
LINE
  5
1F9
100
AcDbEntity
  8
0
  6
Continuous
 62
   174
100
AcDbLine
 10
122.467152
 20
119.254532
 30
0.0
 11
122.467152
 21
111.32618
 31
0.0
  0
LWPOLYLINE
  5
1FA
100
AcDbEntity
  8
0
  6
Continuous
 62
   174
100
AcDbPolyline
 90
        4
 70
   128
 10
306.667152
 20
119.1218
 10
306.534032
 20
119.1218
 10
306.300946
 20
119.1218
 10
305.974332
 20
119.1218
  0
LINE
  5
1FB
100
AcDbEntity
  8
0
  6
Continuous
 62
   174
100
AcDbLine
 10
119.359972
 20
103.624055
 30
0.0
 11
122.467152
 21
103.624055
 31
0.0
  0
LWPOLYLINE
  5
1FC
100
AcDbEntity
  8
0
  6
Continuous
 62
   174
100
AcDbPolyline
 90
        3
 70
   128
 10
305.974332
 20
103.534121
 10
306.340434
 20
103.534121
 10
306.568534
 20
103.534121
  0
LINE
  5
1FD
100
AcDbEntity
  8
0
  6
Continuous
 62
   174
100
AcDbLine
 10
306.670604
 20
103.534121
 30
0.0
 11
306.594
 21
103.534121
 31
0.0
  0
LWPOLYLINE
  5
1FE
100
AcDbEntity
  8
0
  6
Continuous
 62
   174
100
AcDbPolyline
 90
        4
 70
   128
 10
305.974332
 20
111.462861
 10
306.302232
 20
110.377892
 10
306.534986
 20
109.318893
 10
306.667152
 20
108.270649
  0
LINE
  5
1FF
100
AcDbEntity
  8
0
  6
Continuous
 62
   174
100
AcDbLine
 10
295.367152
 20
102.760298
 30
0.0
 11
289.167152
 21
102.760298
 31
0.0
  0
LINE
  5
200
100
AcDbEntity
  8
0
  6
Continuous
 62
   174
100
AcDbLine
 10
164.167152
 20
118.915672
 30
0.0
 11
164.167152
 21
121.915541
 31
0.0
  0
LINE
  5
201
100
AcDbEntity
  8
0
  6
Continuous
 62
   174
100
AcDbLine
 10
258.192658
 20
118.872928
 30
0.0
 11
261.192827
 21
118.872928
 31
0.0
  0
LINE
  5
202
100
AcDbEntity
  8
0
  6
Continuous
 62
   174
100
AcDbLine
 10
136.167152
 20
121.097231
 30
0.0
 11
136.167152
 21
121.30301
 31
0.0
  0
LINE
  5
203
100
AcDbEntity
  8
0
  6
Continuous
 62
   174
100
AcDbLine
 10
122.467152
 20
111.282994
 30
0.0
 11
119.359972
 21
111.282994
 31
0.0
  0
LINE
  5
204
100
AcDbEntity
  8
0
  6
Continuous
 62
   174
100
AcDbLine
 10
287.667152
 20
100.372928
 30
0.0
 11
257.667152
 21
100.372928
 31
0.0
  0
LINE
  5
205
100
AcDbEntity
  8
0
  6
Continuous
 62
   174
100
AcDbLine
 10
129.967152
 20
119.985558
 30
0.0
 11
136.167152
 21
119.985558
 31
0.0
  0
LINE
  5
206
100
AcDbEntity
  8
0
  6
Continuous
 62
   174
100
AcDbLine
 10
261.167152
 20
121.915541
 30
0.0
 11
261.167152
 21
118.915672
 31
0.0
  0
LINE
  5
207
100
AcDbEntity
  8
0
  6
Continuous
 62
   174
100
AcDbLine
 10
295.367152
 20
121.055386
 30
0.0
 11
289.167152
 21
121.055386
 31
0.0
  0
LINE
  5
208
100
AcDbEntity
  8
0
  6
Continuous
 62
   174
100
AcDbLine
 10
138.192816
 20
103.872928
 30
0.0
 11
141.192684
 21
103.872928
 31
0.0
  0
LINE
  5
209
100
AcDbEntity
  8
0
  6
Continuous
 62
   174
100
AcDbLine
 10
137.667152
 20
122.372928
 30
0.0
 11
167.667152
 21
122.372928
 31
0.0
  0
ARC
  5
20A
100
AcDbEntity
  8
0
  6
Continuous
 62
   174
100
AcDbCircle
 10
261.167152
 20
103.872928
 30
0.0
 40
3.0
100
AcDbArc
 50
-180.0
 51
-90.0
  0
LINE
  5
20B
100
AcDbEntity
  8
0
  6
Continuous
 62
   174
100
AcDbLine
 10
257.667152
 20
122.372928
 30
0.0
 11
287.667152
 21
122.372928
 31
0.0
  0
LINE
  5
20C
100
AcDbEntity
  8
0
  6
Continuous
 62
   174
100
AcDbLine
 10
287.167152
 20
117.617926
 30
0.0
 11
287.167152
 21
118.872928
 31
0.0
  0
LINE
  5
20D
100
AcDbEntity
  8
0
  6
Continuous
 62
   174
100
AcDbLine
 10
261.167152
 20
118.872928
 30
0.0
 11
284.167152
 21
118.872928
 31
0.0
  0
ARC
  5
20E
100
AcDbEntity
  8
0
  6
Continuous
 62
   174
100
AcDbCircle
 10
284.167152
 20
103.872928
 30
0.0
 40
3.0
100
AcDbArc
 50
-90.0
 51
0.0
  0
LINE
  5
20F
100
AcDbEntity
  8
0
  6
Continuous
 62
   174
100
AcDbLine
 10
289.167152
 20
101.372928
 30
0.0
 11
288.667152
 21
101.372928
 31
0.0
  0
LINE
  5
210
100
AcDbEntity
  8
0
  6
Continuous
 62
   174
100
AcDbLine
 10
141.167152
 20
111.372928
 30
0.0
 11
141.167152
 21
118.872928
 31
0.0
  0
LINE
  5
211
100
AcDbEntity
  8
0
  6
Continuous
 62
   174
100
AcDbLine
 10
164.167152
 20
100.917063
 30
0.0
 11
164.167152
 21
103.916931
 31
0.0
  0
LINE
  5
212
100
AcDbEntity
  8
0
  6
Continuous
 62
   174
100
AcDbLine
 10
261.167152
 20
103.872928
 30
0.0
 11
261.167152
 21
118.872928
 31
0.0
  0
LINE
  5
213
100
AcDbEntity
  8
0
  6
Continuous
 62
   174
100
AcDbLine
 10
164.167152
 20
118.872928
 30
0.0
 11
164.167152
 21
103.872928
 31
0.0
  0
LWPOLYLINE
  5
214
100
AcDbEntity
  8
0
  6
Continuous
 62
   174
100
AcDbPolyline
 90
        4
 70
   128
 10
119.359972
 20
111.282994
 10
119.032072
 20
112.367963
 10
118.799317
 20
113.426962
 10
118.667152
 20
114.475206
  0
LINE
  5
215
100
AcDbEntity
  8
0
  6
Continuous
 62
   174
100
AcDbLine
 10
284.192619
 20
103.872928
 30
0.0
 11
287.192788
 21
103.872928
 31
0.0
  0
LINE
  5
216
100
AcDbEntity
  8
0
  6
Continuous
 62
   174
100
AcDbLine
 10
287.667152
 20
122.372928
 30
0.0
 11
287.667152
 21
119.372928
 31
0.0
  0
LWPOLYLINE
  5
217
100
AcDbEntity
  8
0
  6
Continuous
 62
   174
100
AcDbPolyline
 90
        3
 70
   128
 10
119.359972
 20
119.211734
 10
118.99387
 20
119.211734
 10
118.76577
 20
119.211734
  0
LINE
  5
218
100
AcDbEntity
  8
0
  6
Continuous
 62
   174
100
AcDbLine
 10
138.167152
 20
105.12793
 30
0.0
 11
138.167152
 21
103.872928
 31
0.0
  0
LINE
  5
219
100
AcDbEntity
  8
0
  6
Continuous
 62
   174
100
AcDbLine
 10
136.667152
 20
121.372928
 30
0.0
 11
137.667152
 21
121.372928
 31
0.0
  0
LINE
  5
21A
100
AcDbEntity
  8
0
  6
Continuous
 62
   174
100
AcDbLine
 10
141.192684
 20
118.872928
 30
0.0
 11
138.192816
 21
118.872928
 31
0.0
  0
LINE
  5
21B
100
AcDbEntity
  8
0
  6
Continuous
 62
   174
100
AcDbLine
 10
129.967152
 20
101.690469
 30
0.0
 11
136.167152
 21
101.690469
 31
0.0
  0
LINE
  5
21C
100
AcDbEntity
  8
0
  6
Continuous
 62
   174
100
AcDbLine
 10
295.367152
 20
102.760298
 30
0.0
 11
295.367152
 21
103.372928
 31
0.0
  0
LWPOLYLINE
  5
21D
100
AcDbEntity
  8
0
  6
Continuous
 62
   174
100
AcDbPolyline
 90
        4
 70
   128
 10
306.667152
 20
106.726333
 10
306.534031
 20
105.672625
 10
306.300949
 20
104.614212
 10
305.974332
 20
103.534121
  0
LINE
  5
21E
100
AcDbEntity
  8
0
  6
Continuous
 62
   174
100
AcDbLine
 10
284.167152
 20
111.372928
 30
0.0
 11
284.167152
 21
103.872928
 31
0.0
  0
LINE
  5
21F
100
AcDbEntity
  8
0
  6
Continuous
 62
   174
100
AcDbLine
 10
302.867152
 20
103.534121
 30
0.0
 11
305.974332
 21
103.534121
 31
0.0
  0
LINE
  5
220
100
AcDbEntity
  8
0
  6
Continuous
 62
   174
100
AcDbLine
 10
295.367152
 20
101.691339
 30
0.0
 11
289.167152
 21
101.691339
 31
0.0
  0
LINE
  5
221
100
AcDbEntity
  8
0
  6
Continuous
 62
   174
100
AcDbLine
 10
137.667152
 20
100.372928
 30
0.0
 11
137.667152
 21
103.372928
 31
0.0
  0
LINE
  5
222
100
AcDbEntity
  8
0
  6
Continuous
 62
   174
100
AcDbLine
 10
258.167152
 20
118.872928
 30
0.0
 11
258.167152
 21
103.872928
 31
0.0
  0
LINE
  5
223
100
AcDbEntity
  8
0
  6
Continuous
 62
   174
100
AcDbLine
 10
287.192788
 20
118.872928
 30
0.0
 11
284.192619
 21
118.872928
 31
0.0
  0
LINE
  5
224
100
AcDbEntity
  8
0
  6
Continuous
 62
   174
100
AcDbLine
 10
136.167152
 20
101.372928
 30
0.0
 11
136.667152
 21
101.372928
 31
0.0
  0
LINE
  5
225
100
AcDbEntity
  8
0
  6
Continuous
 62
   174
100
AcDbLine
 10
167.192945
 20
103.872928
 30
0.0
 11
164.192777
 21
103.872928
 31
0.0
  0
LINE
  5
226
100
AcDbEntity
  8
0
  6
Continuous
 62
   174
100
AcDbLine
 10
164.192777
 20
118.872928
 30
0.0
 11
167.192945
 21
118.872928
 31
0.0
  0
LWPOLYLINE
  5
227
100
AcDbEntity
  8
0
  6
Continuous
 62
   174
100
AcDbPolyline
 90
        6
 70
   128
 10
141.167152
 20
111.372928
 10
140.261836
 20
112.862288
 10
139.453531
 20
114.256037
 10
138.791683
 20
115.534698
 10
138.339857
 20
116.660802
 10
138.167152
 20
117.617926
  0
LINE
  5
228
100
AcDbEntity
  8
0
  6
Continuous
 62
   174
100
AcDbLine
 10
141.167152
 20
118.872928
 30
0.0
 11
164.167152
 21
118.872928
 31
0.0
  0
LINE
  5
229
100
AcDbEntity
  8
0
  6
Continuous
 62
   174
100
AcDbLine
 10
289.167152
 20
101.529593
 30
0.0
 11
289.167152
 21
101.416941
 31
0.0
  0
LINE
  5
22A
100
AcDbEntity
  8
0
  6
Continuous
 62
   174
100
AcDbLine
 10
164.167152
 20
103.872928
 30
0.0
 11
141.167152
 21
103.872928
 31
0.0
  0
LINE
  5
22B
100
AcDbEntity
  8
0
  6
Continuous
 62
   174
100
AcDbLine
 10
289.167152
 20
121.30301
 30
0.0
 11
289.167152
 21
121.098132
 31
0.0
  0
LWPOLYLINE
  5
22C
100
AcDbEntity
  8
0
  6
Continuous
 62
   174
100
AcDbPolyline
 90
        4
 70
   128
 10
118.667152
 20
116.019522
 10
118.800273
 20
117.073231
 10
119.033355
 20
118.131643
 10
119.359972
 20
119.211734
  0
LINE
  5
22D
100
AcDbEntity
  8
0
  6
Continuous
 62
   174
100
AcDbLine
 10
287.667152
 20
103.372928
 30
0.0
 11
287.667152
 21
100.372928
 31
0.0
  0
LINE
  5
22E
100
AcDbEntity
  8
0
  6
Continuous
 62
   174
100
AcDbLine
 10
118.715
 20
119.211734
 30
0.0
 11
118.791304
 21
119.211734
 31
0.0
  0
ARC
  5
22F
100
AcDbEntity
  8
0
  6
Continuous
 62
   174
100
AcDbCircle
 10
141.167152
 20
103.872928
 30
0.0
 40
3.0
100
AcDbArc
 50
-180.0
 51
-90.0
  0
LINE
  5
230
100
AcDbEntity
  8
0
  6
Continuous
 62
   174
100
AcDbLine
 10
284.167152
 20
103.872928
 30
0.0
 11
261.167152
 21
103.872928
 31
0.0
  0
LINE
  5
231
100
AcDbEntity
  8
0
  6
Continuous
 62
   174
100
AcDbLine
 10
136.167152
 20
102.80242
 30
0.0
 11
136.167152
 21
103.390617
 31
0.0
  0
LINE
  5
232
100
AcDbEntity
  8
0
  6
Continuous
 62
   174
100
AcDbLine
 10
137.667152
 20
119.372928
 30
0.0
 11
137.667152
 21
122.372928
 31
0.0
  0
LINE
  5
233
100
AcDbEntity
  8
0
  6
Continuous
 62
   174
100
AcDbLine
 10
295.367152
 20
119.372928
 30
0.0
 11
295.367152
 21
119.987324
 31
0.0
  0
LINE
  5
234
100
AcDbEntity
  8
0
  6
Continuous
 62
   174
100
AcDbLine
 10
136.667152
 20
101.372928
 30
0.0
 11
137.667152
 21
101.372928
 31
0.0
  0
LINE
  5
235
100
AcDbEntity
  8
0
  6
Continuous
 62
   174
100
AcDbLine
 10
261.192827
 20
103.872928
 30
0.0
 11
258.192658
 21
103.872928
 31
0.0
  0
ARC
  5
236
100
AcDbEntity
  8
0
  6
Continuous
 62
   174
100
AcDbCircle
 10
164.167152
 20
103.872928
 30
0.0
 40
3.0
100
AcDbArc
 50
-90.0
 51
0.0
  0
ARC
  5
237
100
AcDbEntity
  8
0
  6
Continuous
 62
   174
100
AcDbCircle
 10
261.167152
 20
118.872928
 30
0.0
 40
3.0
100
AcDbArc
 50
-270.0
 51
-180.0
  0
LINE
  5
238
100
AcDbEntity
  8
0
  6
Continuous
 62
   174
100
AcDbLine
 10
141.167152
 20
100.917063
 30
0.0
 11
141.167152
 21
103.916931
 31
0.0
  0
LWPOLYLINE
  5
239
100
AcDbEntity
  8
0
  6
Continuous
 62
   174
100
AcDbPolyline
 90
        7
 70
   128
 10
119.359972
 20
103.624055
 10
118.993846
 20
104.926021
 10
118.765748
 20
106.202623
 10
118.688844
 20
107.453594
 10
118.765763
 20
108.704549
 10
118.993863
 20
109.981104
 10
119.359972
 20
111.282994
  0
LINE
  5
23A
100
AcDbEntity
  8
0
  6
Continuous
 62
   174
100
AcDbLine
 10
138.167152
 20
118.872928
 30
0.0
 11
138.167152
 21
117.617926
 31
0.0
  0
LINE
  5
23B
100
AcDbEntity
  8
0
  6
Continuous
 62
   174
100
AcDbLine
 10
167.667152
 20
100.372928
 30
0.0
 11
137.667152
 21
100.372928
 31
0.0
  0
LINE
  5
23C
100
AcDbEntity
  8
0
  6
Continuous
 62
   174
100
AcDbLine
 10
295.367152
 20
119.987324
 30
0.0
 11
289.167152
 21
119.987324
 31
0.0
  0
LINE
  5
23D
100
AcDbEntity
  8
0
  6
Continuous
 62
   174
100
AcDbLine
 10
129.967152
 20
121.054516
 30
0.0
 11
136.167152
 21
121.054516
 31
0.0
  0
LINE
  5
23E
100
AcDbEntity
  8
0
  6
Continuous
 62
   174
100
AcDbLine
 10
129.967152
 20
102.758531
 30
0.0
 11
136.167152
 21
102.758531
 31
0.0
  0
LINE
  5
23F
100
AcDbEntity
  8
0
  6
Continuous
 62
   174
100
AcDbLine
 10
141.167152
 20
103.872928
 30
0.0
 11
141.167152
 21
111.372928
 31
0.0
  0
LINE
  5
240
100
AcDbEntity
  8
0
  6
Continuous
 62
   174
100
AcDbLine
 10
288.667152
 20
101.372928
 30
0.0
 11
287.667152
 21
101.372928
 31
0.0
  0
LINE
  5
241
100
AcDbEntity
  8
0
  6
Continuous
 62
   174
100
AcDbLine
 10
136.667152
 20
121.372928
 30
0.0
 11
137.667152
 21
121.372928
 31
0.0
  0
LINE
  5
242
100
AcDbEntity
  8
0
  6
Continuous
 62
   174
100
AcDbLine
 10
261.167152
 20
100.872928
 30
0.0
 11
284.167152
 21
100.872928
 31
0.0
  0
LWPOLYLINE
  5
243
100
AcDbEntity
  8
0
  6
Continuous
 62
   174
100
AcDbPolyline
 90
        7
 70
   128
 10
305.974332
 20
119.1218
 10
306.340458
 20
117.819834
 10
306.568556
 20
116.543232
 10
306.64546
 20
115.292262
 10
306.568541
 20
114.041307
 10
306.340441
 20
112.764752
 10
305.974332
 20
111.462861
  0
LWPOLYLINE
  5
244
100
AcDbEntity
  8
0
  6
Continuous
 62
   174
100
AcDbPolyline
 90
        6
 70
   128
 10
284.167152
 20
111.372928
 10
285.072468
 20
109.883568
 10
285.880773
 20
108.489819
 10
286.542621
 20
107.211157
 10
286.994446
 20
106.085053
 10
287.167152
 20
105.12793
  0
ARC
  5
245
100
AcDbEntity
  8
0
  6
Continuous
 62
   174
100
AcDbCircle
 10
164.167152
 20
118.872928
 30
0.0
 40
3.0
100
AcDbArc
 50
0.0
 51
90.0
  0
LINE
  5
246
100
AcDbEntity
  8
0
  6
Continuous
 62
   174
100
AcDbLine
 10
122.467152
 20
119.211734
 30
0.0
 11
119.359972
 21
119.211734
 31
0.0
  0
LINE
  5
247
100
AcDbEntity
  8
0
  6
Continuous
 62
   174
100
AcDbLine
 10
284.167152
 20
118.872928
 30
0.0
 11
284.167152
 21
111.372928
 31
0.0
  0
LINE
  5
248
100
AcDbEntity
  8
0
  6
Continuous
 62
   174
100
AcDbLine
 10
289.167152
 20
121.372928
 30
0.0
 11
288.667152
 21
121.372928
 31
0.0
  0
LINE
  5
249
100
AcDbEntity
  8
0
  6
Continuous
 62
   174
100
AcDbLine
 10
289.167152
 20
121.415663
 30
0.0
 11
289.167152
 21
121.30301
 31
0.0
  0
LINE
  5
24A
100
AcDbEntity
  8
0
  6
Continuous
 62
   174
100
AcDbLine
 10
136.167152
 20
119.441986
 30
0.0
 11
136.167152
 21
120.028381
 31
0.0
  0
LINE
  5
24B
100
AcDbEntity
  8
0
  6
Continuous
 62
   174
100
AcDbLine
 10
141.167152
 20
100.872928
 30
0.0
 11
164.167152
 21
100.872928
 31
0.0
  0
LINE
  5
24C
100
AcDbEntity
  8
0
  6
Continuous
 62
   174
100
AcDbLine
 10
129.967152
 20
119.985558
 30
0.0
 11
129.967152
 21
119.372928
 31
0.0
  0
LINE
  5
24D
100
AcDbEntity
  8
0
  6
Continuous
 62
   174
100
AcDbLine
 10
167.167152
 20
103.872928
 30
0.0
 11
167.167152
 21
118.872928
 31
0.0
  0
LINE
  5
24E
100
AcDbEntity
  8
0
  6
Continuous
 62
   174
100
AcDbLine
 10
136.167152
 20
121.372928
 30
0.0
 11
136.667152
 21
121.372928
 31
0.0
  0
LINE
  5
24F
100
AcDbEntity
  8
0
  6
Continuous
 62
   174
100
AcDbLine
 10
136.167152
 20
101.529593
 30
0.0
 11
136.167152
 21
101.734471
 31
0.0
  0
LWPOLYLINE
  5
250
100
AcDbEntity
  8
0
  6
Continuous
 62
   174
100
AcDbPolyline
 90
        6
 70
   128
 10
287.167152
 20
117.617926
 10
286.994809
 20
116.661964
 10
286.543009
 20
115.535524
 10
285.879939
 20
114.254534
 10
285.071408
 20
112.860517
 10
284.167152
 20
111.372928
  0
LINE
  5
251
100
AcDbEntity
  8
0
  6
Continuous
 62
   174
100
AcDbLine
 10
289.167152
 20
103.390617
 30
0.0
 11
289.167152
 21
102.804222
 31
0.0
  0
LINE
  5
252
100
AcDbEntity
  8
0
  6
Continuous
 62
   174
100
AcDbLine
 10
284.167152
 20
121.915541
 30
0.0
 11
284.167152
 21
118.915672
 31
0.0
  0
LWPOLYLINE
  5
253
100
AcDbEntity
  8
0
  6
Continuous
 62
   174
100
AcDbPolyline
 90
        6
 70
   128
 10
138.167152
 20
105.12793
 10
138.339494
 20
106.083891
 10
138.791295
 20
107.210331
 10
139.454365
 20
108.491322
 10
140.262896
 20
109.885338
 10
141.167152
 20
111.372928
  0
LINE
  5
254
100
AcDbEntity
  8
0
  6
Continuous
 62
   174
100
AcDbLine
 10
284.167152
 20
121.872928
 30
0.0
 11
261.167152
 21
121.872928
 31
0.0
  0
LINE
  5
255
100
AcDbEntity
  8
0
  6
Continuous
 62
   174
100
AcDbLine
 10
141.167152
 20
118.915672
 30
0.0
 11
141.167152
 21
121.915541
 31
0.0
  0
LINE
  5
256
100
AcDbEntity
  8
0
  6
Continuous
 62
   174
100
AcDbLine
 10
288.667152
 20
121.372928
 30
0.0
 11
287.667152
 21
121.372928
 31
0.0
  0
LINE
  5
257
100
AcDbEntity
  8
0
  6
Continuous
 62
   174
100
AcDbLine
 10
302.867152
 20
111.462861
 30
0.0
 11
305.974332
 21
111.462861
 31
0.0
  0
LINE
  5
258
100
AcDbEntity
  8
0
  6
Continuous
 62
   174
100
AcDbLine
 10
129.967152
 20
103.372928
 30
0.0
 11
129.967152
 21
102.758531
 31
0.0
  0
LINE
  5
259
100
AcDbEntity
  8
0
  6
Continuous
 62
   174
100
AcDbLine
 10
289.167152
 20
120.029883
 30
0.0
 11
289.167152
 21
119.441686
 31
0.0
  0
LINE
  5
25A
100
AcDbEntity
  8
0
  6
Continuous
 62
   174
100
AcDbLine
 10
164.167152
 20
121.872928
 30
0.0
 11
141.167152
 21
121.872928
 31
0.0
  0
LINE
  5
25B
100
AcDbEntity
  8
0
  6
Continuous
 62
   174
100
AcDbLine
 10
288.667152
 20
101.372928
 30
0.0
 11
287.667152
 21
101.372928
 31
0.0
  0
LINE
  5
25C
100
AcDbEntity
  8
0
  6
Continuous
 62
   174
100
AcDbLine
 10
136.167152
 20
121.30301
 30
0.0
 11
136.167152
 21
121.415663
 31
0.0
  0
LINE
  5
25D
100
AcDbEntity
  8
0
  6
Continuous
 62
   174
100
AcDbLine
 10
287.167152
 20
103.872928
 30
0.0
 11
287.167152
 21
105.12793
 31
0.0
  0
ARC
  5
25E
100
AcDbEntity
  8
0
  6
Continuous
 62
   174
100
AcDbCircle
 10
141.167152
 20
118.872928
 30
0.0
 40
3.0
100
AcDbArc
 50
-270.0
 51
-180.0
  0
ARC
  5
25F
100
AcDbEntity
  8
0
  6
Continuous
 62
   174
100
AcDbCircle
 10
284.167152
 20
118.872928
 30
0.0
 40
3.0
100
AcDbArc
 50
0.0
 51
90.0
  0
LINE
  5
260
100
AcDbEntity
  8
0
  6
Continuous
 62
   174
100
AcDbLine
 10
136.167152
 20
101.416941
 30
0.0
 11
136.167152
 21
101.529593
 31
0.0
  0
LINE
  5
261
100
AcDbEntity
  8
0
  6
Continuous
 62
   174
100
AcDbLine
 10
289.167152
 20
101.735373
 30
0.0
 11
289.167152
 21
101.529593
 31
0.0
  0
LINE
  5
262
100
AcDbEntity
  8
0
  6
Continuous
 62
   174
100
AcDbLine
 10
284.167152
 20
103.916931
 30
0.0
 11
284.167152
 21
100.917063
 31
0.0
  0
LINE
  5
263
100
AcDbEntity
  8
0
  6
Continuous
 62
   174
100
AcDbLine
 10
261.167152
 20
103.916931
 30
0.0
 11
261.167152
 21
100.917063
 31
0.0
  0
ENDBLK
  5
264
100
AcDbEntity
  8
0
100
AcDbBlockEnd
  0
BLOCK
  5
267
100
AcDbEntity
  8
0
100
AcDbBlockBegin
  2
*B3
 70
     0
 10
0.0
 20
0.0
 30
0.0
  3
*B3
  1

  0
LINE
  5
268
100
AcDbEntity
  8
0
  6
Continuous
 62
   172
100
AcDbLine
 10
157.723613
 20
143.331874
 30
0.0
 11
147.913637
 21
143.331874
 31
0.0
  0
LINE
  5
269
100
AcDbEntity
  8
0
  6
Continuous
 62
   172
100
AcDbLine
 10
171.0988
 20
120.586883
 30
0.0
 11
157.723613
 21
143.331874
 31
0.0
  0
ENDBLK
  5
26A
100
AcDbEntity
  8
0
100
AcDbBlockEnd
  0
BLOCK
  5
26D
100
AcDbEntity
  8
0
100
AcDbBlockBegin
  2
*B4
 70
     0
 10
0.0
 20
0.0
 30
0.0
  3
*B4
  1

  0
LINE
  5
26E
100
AcDbEntity
  8
0
  6
Continuous
 62
   172
100
AcDbLine
 10
155.685265
 20
145.459358
 30
0.0
 11
153.585265
 21
146.230986
 31
0.0
  0
LINE
  5
26F
100
AcDbEntity
  8
0
  6
Continuous
 62
   172
100
AcDbLine
 10
155.685265
 20
145.459358
 30
0.0
 11
153.585265
 21
144.830986
 31
0.0
  0
LINE
  5
270
100
AcDbEntity
  8
0
  6
Continuous
 62
   172
100
AcDbLine
 10
154.285265
 20
145.459358
 30
0.0
 11
155.685265
 21
145.459358
 31
0.0
  0
LINE
  5
271
100
AcDbEntity
  8
0
  6
Continuous
 62
   172
100
AcDbLine
 10
155.685265
 20
157.502614
 30
0.0
 11
153.585265
 21
156.730986
 31
0.0
  0
LINE
  5
272
100
AcDbEntity
  8
0
  6
Continuous
 62
   172
100
AcDbLine
 10
155.685265
 20
157.502614
 30
0.0
 11
153.585265
 21
158.130986
 31
0.0
  0
LINE
  5
273
100
AcDbEntity
  8
0
  6
Continuous
 62
   172
100
AcDbLine
 10
154.285265
 20
157.502614
 30
0.0
 11
155.685265
 21
157.502614
 31
0.0
  0
ARC
  5
274
100
AcDbEntity
  8
0
  6
Continuous
 62
   172
100
AcDbCircle
 10
154.285265
 20
151.480986
 30
0.0
 40
6.021628
100
AcDbArc
 50
-270.0
 51
-90.0
  0
ENDBLK
  5
275
100
AcDbEntity
  8
0
100
AcDbBlockEnd
  0
BLOCK
  5
278
100
AcDbEntity
  8
0
100
AcDbBlockBegin
  2
*B5
 70
     0
 10
0.0
 20
0.0
 30
0.0
  3
*B5
  1

  0
ENDBLK
  5
279
100
AcDbEntity
  8
0
100
AcDbBlockEnd
  0
BLOCK
  5
27B
100
AcDbEntity
  8
0
100
AcDbBlockBegin
  2
*B6
 70
     0
 10
0.0
 20
0.0
 30
0.0
  3
*B6
  1

  0
LINE
  5
27C
100
AcDbEntity
  8
0
  6
Continuous
 62
   172
100
AcDbLine
 10
141.923449
 20
196.657649
 30
0.0
 11
121.283425
 21
161.558537
 31
0.0
  0
LINE
  5
27D
100
AcDbEntity
  8
0
  6
Continuous
 62
   172
100
AcDbLine
 10
121.283425
 20
161.558537
 30
0.0
 11
111.473449
 21
161.558537
 31
0.0
  0
ENDBLK
  5
27E
100
AcDbEntity
  8
0
100
AcDbBlockEnd
  0
BLOCK
  5
281
100
AcDbEntity
  8
0
100
AcDbBlockBegin
  2
*B7
 70
     0
 10
0.0
 20
0.0
 30
0.0
  3
*B7
  1

  0
LINE
  5
282
100
AcDbEntity
  8
0
  6
Continuous
 62
   172
100
AcDbLine
 10
119.245076
 20
163.686021
 30
0.0
 11
117.145076
 21
164.457649
 31
0.0
  0
LINE
  5
283
100
AcDbEntity
  8
0
  6
Continuous
 62
   172
100
AcDbLine
 10
119.245076
 20
163.686021
 30
0.0
 11
117.145076
 21
163.057649
 31
0.0
  0
LINE
  5
284
100
AcDbEntity
  8
0
  6
Continuous
 62
   172
100
AcDbLine
 10
117.845076
 20
163.686021
 30
0.0
 11
119.245076
 21
163.686021
 31
0.0
  0
LINE
  5
285
100
AcDbEntity
  8
0
  6
Continuous
 62
   172
100
AcDbLine
 10
119.245076
 20
175.729277
 30
0.0
 11
117.145076
 21
174.957649
 31
0.0
  0
LINE
  5
286
100
AcDbEntity
  8
0
  6
Continuous
 62
   172
100
AcDbLine
 10
119.245076
 20
175.729277
 30
0.0
 11
117.145076
 21
176.357649
 31
0.0
  0
LINE
  5
287
100
AcDbEntity
  8
0
  6
Continuous
 62
   172
100
AcDbLine
 10
117.845076
 20
175.729277
 30
0.0
 11
119.245076
 21
175.729277
 31
0.0
  0
ARC
  5
288
100
AcDbEntity
  8
0
  6
Continuous
 62
   172
100
AcDbCircle
 10
117.845076
 20
169.707649
 30
0.0
 40
6.021628
100
AcDbArc
 50
-270.0
 51
-90.0
  0
ENDBLK
  5
289
100
AcDbEntity
  8
0
100
AcDbBlockEnd
  0
BLOCK
  5
28C
100
AcDbEntity
  8
0
100
AcDbBlockBegin
  2
*B8
 70
     0
 10
0.0
 20
0.0
 30
0.0
  3
*B8
  1

  0
ENDBLK
  5
28D
100
AcDbEntity
  8
0
100
AcDbBlockEnd
  0
BLOCK
  5
28F
100
AcDbEntity
  8
0
100
AcDbBlockBegin
  2
*B9
 70
     0
 10
0.0
 20
0.0
 30
0.0
  3
*B9
  1

  0
LINE
  5
290
100
AcDbEntity
  8
0
  6
Continuous
 62
     0
100
AcDbLine
 10
167.692823
 20
148.040771
 30
0.0
 11
257.69278
 21
148.040771
 31
0.0
  0
SOLID
  5
291
100
AcDbEntity
  8
0
  6
Continuous
 62
     0
100
AcDbTrace
 10
172.692804
 20
149.040527
 30
0.0
 11
167.692823
 21
148.040771
 31
0.0
 12
172.692804
 22
147.040715
 32
0.0
 13
172.692804
 23
147.040715
 33
0.0
  0
SOLID
  5
292
100
AcDbEntity
  8
0
  6
Continuous
 62
     0
100
AcDbTrace
 10
252.6928
 20
147.040715
 30
0.0
 11
257.69278
 21
148.040771
 31
0.0
 12
252.6928
 22
149.040527
 32
0.0
 13
252.6928
 23
149.040527
 33
0.0
  0
ENDBLK
  5
293
100
AcDbEntity
  8
0
100
AcDbBlockEnd
  0
BLOCK
  5
296
100
AcDbEntity
  8
0
100
AcDbBlockBegin
  2
*B10
 70
     0
 10
0.0
 20
0.0
 30
0.0
  3
*B10
  1

  0
LINE
  5
297
100
AcDbEntity
  8
0
  6
Continuous
 62
     0
100
AcDbLine
 10
257.69278
 20
267.032146
 30
0.0
 11
306.692834
 21
267.032146
 31
0.0
  0
SOLID
  5
298
100
AcDbEntity
  8
0
  6
Continuous
 62
     0
100
AcDbTrace
 10
262.692761
 20
268.031902
 30
0.0
 11
257.69278
 21
267.032146
 31
0.0
 12
262.692761
 22
266.03209
 32
0.0
 13
262.692761
 23
266.03209
 33
0.0
  0
SOLID
  5
299
100
AcDbEntity
  8
0
  6
Continuous
 62
     0
100
AcDbTrace
 10
301.692853
 20
266.03209
 30
0.0
 11
306.692834
 21
267.032146
 31
0.0
 12
301.692853
 22
268.031902
 32
0.0
 13
301.692853
 23
268.031902
 33
0.0
  0
ENDBLK
  5
29A
100
AcDbEntity
  8
0
100
AcDbBlockEnd
  0
BLOCK
  5
29D
100
AcDbEntity
  8
0
100
AcDbBlockBegin
  2
*B11
 70
     0
 10
0.0
 20
0.0
 30
0.0
  3
*B11
  1

  0
LINE
  5
29E
100
AcDbEntity
  8
0
  6
Continuous
 62
     0
100
AcDbLine
 10
167.692823
 20
267.032146
 30
0.0
 11
118.69277
 21
267.032146
 31
0.0
  0
SOLID
  5
29F
100
AcDbEntity
  8
0
  6
Continuous
 62
     0
100
AcDbTrace
 10
162.692842
 20
266.03209
 30
0.0
 11
167.692823
 21
267.032146
 31
0.0
 12
162.692842
 22
268.031902
 32
0.0
 13
162.692842
 23
268.031902
 33
0.0
  0
SOLID
  5
2A0
100
AcDbEntity
  8
0
  6
Continuous
 62
     0
100
AcDbTrace
 10
123.692751
 20
268.031902
 30
0.0
 11
118.69277
 21
267.032146
 31
0.0
 12
123.692751
 22
266.03209
 32
0.0
 13
123.692751
 23
266.03209
 33
0.0
  0
ENDBLK
  5
2A1
100
AcDbEntity
  8
0
100
AcDbBlockEnd
  0
BLOCK
  5
2A4
100
AcDbEntity
  8
0
100
AcDbBlockBegin
  2
*B12
 70
     0
 10
0.0
 20
0.0
 30
0.0
  3
*B12
  1

  0
LINE
  5
2A5
100
AcDbEntity
  8
0
  6
Continuous
 62
     0
100
AcDbLine
 10
251.692743
 20
164.039569
 30
0.0
 11
213.692708
 21
164.039569
 31
0.0
  0
SOLID
  5
2A6
100
AcDbEntity
  8
0
  6
Continuous
 62
     0
100
AcDbTrace
 10
246.692762
 20
165.039325
 30
0.0
 11
241.692781
 21
164.039569
 31
0.0
 12
246.692762
 22
163.039513
 32
0.0
 13
246.692762
 23
163.039513
 33
0.0
  0
SOLID
  5
2A7
100
AcDbEntity
  8
0
  6
Continuous
 62
     0
100
AcDbTrace
 10
218.692689
 20
163.039513
 30
0.0
 11
223.69267
 21
164.039569
 31
0.0
 12
218.692689
 22
165.039325
 32
0.0
 13
218.692689
 23
165.039325
 33
0.0
  0
ENDBLK
  5
2A8
100
AcDbEntity
  8
0
100
AcDbBlockEnd
  0
BLOCK
  5
2AB
100
AcDbEntity
  8
0
100
AcDbBlockBegin
  2
*B13
 70
     0
 10
0.0
 20
0.0
 30
0.0
  3
*B13
  1

  0
LINE
  5
2AC
100
AcDbEntity
  8
0
  6
Continuous
 62
     0
100
AcDbLine
 10
201.692934
 20
164.039569
 30
0.0
 11
223.69267
 21
164.039569
 31
0.0
  0
SOLID
  5
2AD
100
AcDbEntity
  8
0
  6
Continuous
 62
     0
100
AcDbTrace
 10
206.692915
 20
165.039325
 30
0.0
 11
201.692934
 21
164.039569
 31
0.0
 12
206.692915
 22
163.039513
 32
0.0
 13
206.692915
 23
163.039513
 33
0.0
  0
SOLID
  5
2AE
100
AcDbEntity
  8
0
  6
Continuous
 62
     0
100
AcDbTrace
 10
218.692689
 20
163.039513
 30
0.0
 11
223.69267
 21
164.039569
 31
0.0
 12
218.692689
 22
165.039325
 32
0.0
 13
218.692689
 23
165.039325
 33
0.0
  0
ENDBLK
  5
2AF
100
AcDbEntity
  8
0
100
AcDbBlockEnd
  0
BLOCK
  5
2B2
100
AcDbEntity
  8
0
100
AcDbBlockBegin
  2
*B14
 70
     0
 10
0.0
 20
0.0
 30
0.0
  3
*B14
  1

  0
LINE
  5
2B3
100
AcDbEntity
  8
0
  6
Continuous
 62
     0
100
AcDbLine
 10
173.692861
 20
164.039569
 30
0.0
 11
211.692896
 21
164.039569
 31
0.0
  0
SOLID
  5
2B4
100
AcDbEntity
  8
0
  6
Continuous
 62
     0
100
AcDbTrace
 10
178.692842
 20
163.039513
 30
0.0
 11
183.692822
 21
164.039569
 31
0.0
 12
178.692842
 22
165.039325
 32
0.0
 13
178.692842
 23
165.039325
 33
0.0
  0
SOLID
  5
2B5
100
AcDbEntity
  8
0
  6
Continuous
 62
     0
100
AcDbTrace
 10
206.692915
 20
165.039325
 30
0.0
 11
201.692934
 21
164.039569
 31
0.0
 12
206.692915
 22
163.039513
 32
0.0
 13
206.692915
 23
163.039513
 33
0.0
  0
ENDBLK
  5
2B6
100
AcDbEntity
  8
0
100
AcDbBlockEnd
  0
BLOCK
  5
2B9
100
AcDbEntity
  8
0
100
AcDbBlockBegin
  2
*B15
 70
     0
 10
0.0
 20
0.0
 30
0.0
  3
*B15
  1

  0
LINE
  5
2BA
100
AcDbEntity
  8
0
  6
Continuous
 62
     0
100
AcDbLine
 10
241.692781
 20
242.034044
 30
0.0
 11
212.692652
 21
242.034044
 31
0.0
  0
SOLID
  5
2BB
100
AcDbEntity
  8
0
  6
Continuous
 62
     0
100
AcDbTrace
 10
236.692801
 20
241.033988
 30
0.0
 11
241.692781
 21
242.034044
 31
0.0
 12
236.692801
 22
243.0338
 32
0.0
 13
236.692801
 23
243.0338
 33
0.0
  0
SOLID
  5
2BC
100
AcDbEntity
  8
0
  6
Continuous
 62
     0
100
AcDbTrace
 10
217.692633
 20
243.0338
 30
0.0
 11
212.692652
 21
242.034044
 31
0.0
 12
217.692633
 22
241.033988
 32
0.0
 13
217.692633
 23
241.033988
 33
0.0
  0
ENDBLK
  5
2BD
100
AcDbEntity
  8
0
100
AcDbBlockEnd
  0
BLOCK
  5
2C0
100
AcDbEntity
  8
0
100
AcDbBlockBegin
  2
*B16
 70
     0
 10
0.0
 20
0.0
 30
0.0
  3
*B16
  1

  0
LINE
  5
2C1
100
AcDbEntity
  8
0
  6
Continuous
 62
     0
100
AcDbLine
 10
178.096533
 20
242.034044
 30
0.0
 11
214.442825
 21
242.034044
 31
0.0
  0
SOLID
  5
2C2
100
AcDbEntity
  8
0
  6
Continuous
 62
     0
100
AcDbTrace
 10
193.942723
 20
241.033988
 30
0.0
 11
198.942704
 21
242.034044
 31
0.0
 12
193.942723
 22
243.0338
 32
0.0
 13
193.942723
 23
243.0338
 33
0.0
  0
SOLID
  5
2C3
100
AcDbEntity
  8
0
  6
Continuous
 62
     0
100
AcDbTrace
 10
209.442844
 20
243.0338
 30
0.0
 11
204.442863
 21
242.034044
 31
0.0
 12
209.442844
 22
241.033988
 32
0.0
 13
209.442844
 23
241.033988
 33
0.0
  0
ENDBLK
  5
2C4
100
AcDbEntity
  8
0
100
AcDbBlockEnd
  0
BLOCK
  5
2C7
100
AcDbEntity
  8
0
100
AcDbBlockBegin
  2
*B17
 70
     0
 10
0.0
 20
0.0
 30
0.0
  3
*B17
  1

  0
LINE
  5
2C8
100
AcDbEntity
  8
0
  6
Continuous
 62
     0
100
AcDbLine
 10
252.025595
 20
222.825694
 30
0.0
 11
252.025595
 21
186.828175
 31
0.0
  0
SOLID
  5
2C9
100
AcDbEntity
  8
0
  6
Continuous
 62
     0
100
AcDbTrace
 10
253.025651
 20
217.826014
 30
0.0
 11
252.025595
 21
222.825694
 31
0.0
 12
251.025538
 22
217.826014
 32
0.0
 13
251.025538
 23
217.826014
 33
0.0
  0
SOLID
  5
2CA
100
AcDbEntity
  8
0
  6
Continuous
 62
     0
100
AcDbTrace
 10
251.025538
 20
191.827855
 30
0.0
 11
252.025595
 21
186.828175
 31
0.0
 12
253.025651
 22
191.827855
 32
0.0
 13
253.025651
 23
191.827855
 33
0.0
  0
ENDBLK
  5
2CB
100
AcDbEntity
  8
0
100
AcDbBlockEnd
  0
BLOCK
  5
2CE
100
AcDbEntity
  8
0
100
AcDbBlockBegin
  2
*B18
 70
     0
 10
0.0
 20
0.0
 30
0.0
  3
*B18
  1

  0
LINE
  5
2CF
100
AcDbEntity
  8
0
  6
Continuous
 62
     0
100
AcDbLine
 10
314.025478
 20
229.825187
 30
0.0
 11
314.025478
 21
179.828682
 31
0.0
  0
SOLID
  5
2D0
100
AcDbEntity
  8
0
  6
Continuous
 62
     0
100
AcDbTrace
 10
315.025535
 20
224.825506
 30
0.0
 11
314.025478
 21
229.825187
 31
0.0
 12
313.025723
 22
224.825506
 32
0.0
 13
313.025723
 23
224.825506
 33
0.0
  0
SOLID
  5
2D1
100
AcDbEntity
  8
0
  6
Continuous
 62
     0
100
AcDbTrace
 10
313.025723
 20
184.828362
 30
0.0
 11
314.025478
 21
179.828682
 31
0.0
 12
315.025535
 22
184.828362
 32
0.0
 13
315.025535
 23
184.828362
 33
0.0
  0
ENDBLK
  5
2D2
100
AcDbEntity
  8
0
100
AcDbBlockEnd
  0
BLOCK
  5
2D5
100
AcDbEntity
  8
0
100
AcDbBlockBegin
  2
*B19
 70
     0
 10
0.0
 20
0.0
 30
0.0
  3
*B19
  1

  0
LINE
  5
2D6
100
AcDbEntity
  8
0
  6
Continuous
 62
     0
100
AcDbLine
 10
106.025791
 20
126.415043
 30
0.0
 11
106.025791
 21
96.41726
 31
0.0
  0
SOLID
  5
2D7
100
AcDbEntity
  8
0
  6
Continuous
 62
     0
100
AcDbTrace
 10
107.025547
 20
121.415663
 30
0.0
 11
106.025791
 21
126.415043
 31
0.0
 12
105.025735
 22
121.415663
 32
0.0
 13
105.025735
 23
121.415663
 33
0.0
  0
SOLID
  5
2D8
100
AcDbEntity
  8
0
  6
Continuous
 62
     0
100
AcDbTrace
 10
105.025735
 20
101.416941
 30
0.0
 11
106.025791
 21
96.41726
 31
0.0
 12
107.025547
 22
101.416941
 32
0.0
 13
107.025547
 23
101.416941
 33
0.0
  0
ENDBLK
  5
2D9
100
AcDbEntity
  8
0
100
AcDbBlockEnd
  0
BLOCK
  5
2DC
100
AcDbEntity
  8
0
100
AcDbBlockBegin
  2
*B20
 70
     0
 10
0.0
 20
0.0
 30
0.0
  3
*B20
  1

  0
LINE
  5
2DD
100
AcDbEntity
  8
0
  6
Continuous
 62
     0
100
AcDbLine
 10
246.921372
 20
81.475897
 30
0.0
 11
196.817923
 21
81.475897
 31
0.0
  0
SOLID
  5
2DE
100
AcDbEntity
  8
0
  6
Continuous
 62
     0
100
AcDbTrace
 10
223.5677
 20
82.475953
 30
0.0
 11
218.567719
 21
81.475897
 31
0.0
 12
223.5677
 22
80.476141
 32
0.0
 13
223.5677
 23
80.476141
 33
0.0
  0
SOLID
  5
2DF
100
AcDbEntity
  8
0
  6
Continuous
 62
     0
100
AcDbTrace
 10
201.817904
 20
80.476141
 30
0.0
 11
206.817884
 21
81.475897
 31
0.0
 12
201.817904
 22
82.475953
 32
0.0
 13
201.817904
 23
82.475953
 33
0.0
  0
ENDBLK
  5
2E0
100
AcDbEntity
  8
0
100
AcDbBlockEnd
  0
BLOCK
  5
2E3
100
AcDbEntity
  8
0
100
AcDbBlockBegin
  2
*B21
 70
     0
 10
0.0
 20
0.0
 30
0.0
  3
*B21
  1

  0
LINE
  5
2E4
100
AcDbEntity
  8
0
  6
Continuous
 62
     0
100
AcDbLine
 10
106.025791
 20
251.82312
 30
0.0
 11
106.025791
 21
179.828682
 31
0.0
  0
SOLID
  5
2E5
100
AcDbEntity
  8
0
  6
Continuous
 62
     0
100
AcDbTrace
 10
107.025547
 20
246.82344
 30
0.0
 11
106.025791
 21
251.82312
 31
0.0
 12
105.025735
 22
246.82344
 32
0.0
 13
105.025735
 23
246.82344
 33
0.0
  0
SOLID
  5
2E6
100
AcDbEntity
  8
0
  6
Continuous
 62
     0
100
AcDbTrace
 10
105.025735
 20
184.828362
 30
0.0
 11
106.025791
 21
179.828682
 31
0.0
 12
107.025547
 22
184.828362
 32
0.0
 13
107.025547
 23
184.828362
 33
0.0
  0
ENDBLK
  5
2E7
100
AcDbEntity
  8
0
100
AcDbBlockEnd
  0
BLOCK
  5
2EA
100
AcDbEntity
  8
0
100
AcDbBlockBegin
  2
*B22
 70
     0
 10
0.0
 20
0.0
 30
0.0
  3
*B22
  1

  0
LINE
  5
2EB
100
AcDbEntity
  8
0
  6
Continuous
 62
     8
100
AcDbLine
 10
167.692823
 20
146.040959
 30
0.0
 11
167.692823
 21
177.82887
 31
0.0
  0
LINE
  5
2EC
100
AcDbEntity
  8
0
  6
Continuous
 62
     8
100
AcDbLine
 10
167.692823
 20
231.824999
 30
0.0
 11
167.692823
 21
269.031959
 31
0.0
  0
ENDBLK
  5
2ED
100
AcDbEntity
  8
0
100
AcDbBlockEnd
  0
BLOCK
  5
2F0
100
AcDbEntity
  8
0
100
AcDbBlockBegin
  2
*B23
 70
     0
 10
0.0
 20
0.0
 30
0.0
  3
*B23
  1

  0
LINE
  5
2F1
100
AcDbEntity
  8
0
  6
Continuous
 62
     8
100
AcDbLine
 10
104.025679
 20
179.828682
 30
0.0
 11
165.692711
 21
179.828682
 31
0.0
  0
ENDBLK
  5
2F2
100
AcDbEntity
  8
0
100
AcDbBlockEnd
  0
BLOCK
  5
2F5
100
AcDbEntity
  8
0
100
AcDbBlockBegin
  2
*B24
 70
     0
 10
0.0
 20
0.0
 30
0.0
  3
*B24
  1

  0
LINE
  5
2F6
100
AcDbEntity
  8
0
  6
Continuous
 62
     8
100
AcDbLine
 10
259.692893
 20
179.828682
 30
0.0
 11
316.025591
 21
179.828682
 31
0.0
  0
ENDBLK
  5
2F7
100
AcDbEntity
  8
0
100
AcDbBlockEnd
  0
BLOCK
  5
2FA
100
AcDbEntity
  8
0
100
AcDbBlockBegin
  2
*B25
 70
     0
 10
0.0
 20
0.0
 30
0.0
  3
*B25
  1

  0
LINE
  5
2FB
100
AcDbEntity
  8
0
  6
Continuous
 62
     8
100
AcDbLine
 10
114.692845
 20
111.461363
 30
0.0
 11
126.492848
 21
111.461363
 31
0.0
  0
ENDBLK
  5
2FC
100
AcDbEntity
  8
0
100
AcDbBlockEnd
  0
BLOCK
  5
2FF
100
AcDbEntity
  8
0
100
AcDbBlockBegin
  2
*B26
 70
     0
 10
0.0
 20
0.0
 30
0.0
  3
*B26
  1

  0
LINE
  5
300
100
AcDbEntity
  8
0
  6
Continuous
 62
     8
100
AcDbLine
 10
259.692893
 20
229.825187
 30
0.0
 11
316.025591
 21
229.825187
 31
0.0
  0
ENDBLK
  5
301
100
AcDbEntity
  8
0
100
AcDbBlockEnd
  0
BLOCK
  5
304
100
AcDbEntity
  8
0
100
AcDbBlockBegin
  2
*B27
 70
     0
 10
0.0
 20
0.0
 30
0.0
  3
*B27
  1

  0
LINE
  5
305
100
AcDbEntity
  8
0
  6
Continuous
 62
     8
100
AcDbLine
 10
257.69278
 20
146.040959
 30
0.0
 11
257.69278
 21
177.82887
 31
0.0
  0
LINE
  5
306
100
AcDbEntity
  8
0
  6
Continuous
 62
     8
100
AcDbLine
 10
257.69278
 20
231.824999
 30
0.0
 11
257.69278
 21
269.031959
 31
0.0
  0
ENDBLK
  5
307
100
AcDbEntity
  8
0
100
AcDbBlockEnd
  0
BLOCK
  5
30A
100
AcDbEntity
  8
0
100
AcDbBlockBegin
  2
*B28
 70
     0
 10
0.0
 20
0.0
 30
0.0
  3
*B28
  1

  0
LINE
  5
30B
100
AcDbEntity
  8
0
  6
Continuous
 62
     8
100
AcDbLine
 10
104.025679
 20
96.41726
 30
0.0
 11
181.69271
 21
96.41726
 31
0.0
  0
ENDBLK
  5
30C
100
AcDbEntity
  8
0
100
AcDbBlockEnd
  0
BLOCK
  5
30F
100
AcDbEntity
  8
0
100
AcDbBlockBegin
  2
*B29
 70
     0
 10
0.0
 20
0.0
 30
0.0
  3
*B29
  1

  0
LINE
  5
310
100
AcDbEntity
  8
0
  6
Continuous
 62
     8
100
AcDbLine
 10
104.025679
 20
126.415043
 30
0.0
 11
181.69271
 21
126.415043
 31
0.0
  0
ENDBLK
  5
311
100
AcDbEntity
  8
0
100
AcDbBlockEnd
  0
BLOCK
  5
314
100
AcDbEntity
  8
0
100
AcDbBlockBegin
  2
*B30
 70
     0
 10
0.0
 20
0.0
 30
0.0
  3
*B30
  1

  0
LINE
  5
315
100
AcDbEntity
  8
0
  6
Continuous
 62
     8
100
AcDbLine
 10
246.692762
 20
104.416809
 30
0.0
 11
246.692762
 21
108.416433
 31
0.0
  0
LINE
  5
316
100
AcDbEntity
  8
0
  6
Continuous
 62
     8
100
AcDbLine
 10
246.692762
 20
114.41617
 30
0.0
 11
246.692762
 21
118.415794
 31
0.0
  0
ENDBLK
  5
317
100
AcDbEntity
  8
0
100
AcDbBlockEnd
  0
BLOCK
  5
31A
100
AcDbEntity
  8
0
100
AcDbBlockBegin
  2
*B31
 70
     0
 10
0.0
 20
0.0
 30
0.0
  3
*B31
  1

  0
LINE
  5
31B
100
AcDbEntity
  8
0
  6
Continuous
 62
     8
100
AcDbLine
 10
298.892756
 20
111.371241
 30
0.0
 11
310.692759
 21
111.371241
 31
0.0
  0
ENDBLK
  5
31C
100
AcDbEntity
  8
0
100
AcDbBlockEnd
  0
BLOCK
  5
31F
100
AcDbEntity
  8
0
100
AcDbBlockBegin
  2
*B32
 70
     0
 10
0.0
 20
0.0
 30
0.0
  3
*B32
  1

  0
LINE
  5
320
100
AcDbEntity
  8
0
  6
Continuous
 62
     8
100
AcDbLine
 10
306.692834
 20
252.622805
 30
0.0
 11
306.692834
 21
269.031959
 31
0.0
  0
ENDBLK
  5
321
100
AcDbEntity
  8
0
100
AcDbBlockEnd
  0
BLOCK
  5
324
100
AcDbEntity
  8
0
100
AcDbBlockBegin
  2
*B33
 70
     0
 10
0.0
 20
0.0
 30
0.0
  3
*B33
  1

  0
LINE
  5
325
100
AcDbEntity
  8
0
  6
Continuous
 62
     8
100
AcDbLine
 10
250.025482
 20
186.828175
 30
0.0
 11
254.025707
 21
186.828175
 31
0.0
  0
LINE
  5
326
100
AcDbEntity
  8
0
  6
Continuous
 62
     8
100
AcDbLine
 10
205.942798
 20
186.828175
 30
0.0
 11
209.692783
 21
186.828175
 31
0.0
  0
LINE
  5
327
100
AcDbEntity
  8
0
  6
Continuous
 62
     8
100
AcDbLine
 10
215.692821
 20
186.828175
 30
0.0
 11
223.803821
 21
186.828175
 31
0.0
  0
LINE
  5
328
100
AcDbEntity
  8
0
  6
Continuous
 62
     8
100
AcDbLine
 10
225.803633
 20
186.828175
 30
0.0
 11
226.803689
 21
186.828175
 31
0.0
  0
LINE
  5
329
100
AcDbEntity
  8
0
  6
Continuous
 62
     8
100
AcDbLine
 10
228.803802
 20
186.828175
 30
0.0
 11
236.914802
 21
186.828175
 31
0.0
  0
LINE
  5
32A
100
AcDbEntity
  8
0
  6
Continuous
 62
     8
100
AcDbLine
 10
238.914614
 20
186.828175
 30
0.0
 11
239.91467
 21
186.828175
 31
0.0
  0
LINE
  5
32B
100
AcDbEntity
  8
0
  6
Continuous
 62
     8
100
AcDbLine
 10
241.914783
 20
186.828175
 30
0.0
 11
250.025482
 21
186.828175
 31
0.0
  0
ENDBLK
  5
32C
100
AcDbEntity
  8
0
100
AcDbBlockEnd
  0
BLOCK
  5
32F
100
AcDbEntity
  8
0
100
AcDbBlockBegin
  2
*B34
 70
     0
 10
0.0
 20
0.0
 30
0.0
  3
*B34
  1

  0
LINE
  5
330
100
AcDbEntity
  8
0
  6
Continuous
 62
     8
100
AcDbLine
 10
206.817884
 20
79.476085
 30
0.0
 11
206.817884
 21
109.41649
 31
0.0
  0
ENDBLK
  5
331
100
AcDbEntity
  8
0
100
AcDbBlockEnd
  0
BLOCK
  5
334
100
AcDbEntity
  8
0
100
AcDbBlockBegin
  2
*B35
 70
     0
 10
0.0
 20
0.0
 30
0.0
  3
*B35
  1

  0
LINE
  5
335
100
AcDbEntity
  8
0
  6
Continuous
 62
     8
100
AcDbLine
 10
125.99267
 20
204.826784
 30
0.0
 11
140.192928
 21
204.826784
 31
0.0
  0
ENDBLK
  5
336
100
AcDbEntity
  8
0
100
AcDbBlockEnd
  0
BLOCK
  5
339
100
AcDbEntity
  8
0
100
AcDbBlockBegin
  2
*B36
 70
     0
 10
0.0
 20
0.0
 30
0.0
  3
*B36
  1

  0
LINE
  5
33A
100
AcDbEntity
  8
0
  6
Continuous
 62
     8
100
AcDbLine
 10
125.99267
 20
204.827685
 30
0.0
 11
134.7159
 21
204.827685
 31
0.0
  0
LINE
  5
33B
100
AcDbEntity
  8
0
  6
Continuous
 62
     8
100
AcDbLine
 10
136.716013
 20
204.827685
 30
0.0
 11
137.715769
 21
204.827685
 31
0.0
  0
LINE
  5
33C
100
AcDbEntity
  8
0
  6
Continuous
 62
     8
100
AcDbLine
 10
139.715881
 20
204.827685
 30
0.0
 11
148.439112
 21
204.827685
 31
0.0
  0
LINE
  5
33D
100
AcDbEntity
  8
0
  6
Continuous
 62
     8
100
AcDbLine
 10
150.438924
 20
204.827685
 30
0.0
 11
151.43898
 21
204.827685
 31
0.0
  0
LINE
  5
33E
100
AcDbEntity
  8
0
  6
Continuous
 62
     8
100
AcDbLine
 10
153.439093
 20
204.827685
 30
0.0
 11
162.162023
 21
204.827685
 31
0.0
  0
LINE
  5
33F
100
AcDbEntity
  8
0
  6
Continuous
 62
     8
100
AcDbLine
 10
164.162135
 20
204.827685
 30
0.0
 11
165.162191
 21
204.827685
 31
0.0
  0
LINE
  5
340
100
AcDbEntity
  8
0
  6
Continuous
 62
     8
100
AcDbLine
 10
167.162004
 20
204.827685
 30
0.0
 11
175.885234
 21
204.827685
 31
0.0
  0
LINE
  5
341
100
AcDbEntity
  8
0
  6
Continuous
 62
     8
100
AcDbLine
 10
177.885046
 20
204.827685
 30
0.0
 11
178.885102
 21
204.827685
 31
0.0
  0
LINE
  5
342
100
AcDbEntity
  8
0
  6
Continuous
 62
     8
100
AcDbLine
 10
180.885215
 20
204.827685
 30
0.0
 11
189.608145
 21
204.827685
 31
0.0
  0
LINE
  5
343
100
AcDbEntity
  8
0
  6
Continuous
 62
     8
100
AcDbLine
 10
191.608257
 20
204.827685
 30
0.0
 11
192.608314
 21
204.827685
 31
0.0
  0
LINE
  5
344
100
AcDbEntity
  8
0
  6
Continuous
 62
     8
100
AcDbLine
 10
194.608126
 20
204.827685
 30
0.0
 11
203.331356
 21
204.827685
 31
0.0
  0
LINE
  5
345
100
AcDbEntity
  8
0
  6
Continuous
 62
     8
100
AcDbLine
 10
205.331168
 20
204.827685
 30
0.0
 11
206.331224
 21
204.827685
 31
0.0
  0
LINE
  5
346
100
AcDbEntity
  8
0
  6
Continuous
 62
     8
100
AcDbLine
 10
208.331337
 20
204.827685
 30
0.0
 11
217.054267
 21
204.827685
 31
0.0
  0
LINE
  5
347
100
AcDbEntity
  8
0
  6
Continuous
 62
     8
100
AcDbLine
 10
219.054379
 20
204.827685
 30
0.0
 11
220.054436
 21
204.827685
 31
0.0
  0
LINE
  5
348
100
AcDbEntity
  8
0
  6
Continuous
 62
     8
100
AcDbLine
 10
222.054248
 20
204.827685
 30
0.0
 11
230.777478
 21
204.827685
 31
0.0
  0
LINE
  5
349
100
AcDbEntity
  8
0
  6
Continuous
 62
     8
100
AcDbLine
 10
232.77729
 20
204.827685
 30
0.0
 11
233.777347
 21
204.827685
 31
0.0
  0
LINE
  5
34A
100
AcDbEntity
  8
0
  6
Continuous
 62
     8
100
AcDbLine
 10
235.777459
 20
204.827685
 30
0.0
 11
244.500389
 21
204.827685
 31
0.0
  0
LINE
  5
34B
100
AcDbEntity
  8
0
  6
Continuous
 62
     8
100
AcDbLine
 10
246.500502
 20
204.827685
 30
0.0
 11
247.500558
 21
204.827685
 31
0.0
  0
LINE
  5
34C
100
AcDbEntity
  8
0
  6
Continuous
 62
     8
100
AcDbLine
 10
249.50037
 20
204.827685
 30
0.0
 11
258.2236
 21
204.827685
 31
0.0
  0
LINE
  5
34D
100
AcDbEntity
  8
0
  6
Continuous
 62
     8
100
AcDbLine
 10
260.223413
 20
204.827685
 30
0.0
 11
261.223469
 21
204.827685
 31
0.0
  0
LINE
  5
34E
100
AcDbEntity
  8
0
  6
Continuous
 62
     8
100
AcDbLine
 10
263.223581
 20
204.827685
 30
0.0
 11
271.946511
 21
204.827685
 31
0.0
  0
LINE
  5
34F
100
AcDbEntity
  8
0
  6
Continuous
 62
     8
100
AcDbLine
 10
273.946624
 20
204.827685
 30
0.0
 11
274.94668
 21
204.827685
 31
0.0
  0
LINE
  5
350
100
AcDbEntity
  8
0
  6
Continuous
 62
     8
100
AcDbLine
 10
276.946492
 20
204.827685
 30
0.0
 11
285.669723
 21
204.827685
 31
0.0
  0
LINE
  5
351
100
AcDbEntity
  8
0
  6
Continuous
 62
     8
100
AcDbLine
 10
287.669535
 20
204.827685
 30
0.0
 11
288.669591
 21
204.827685
 31
0.0
  0
LINE
  5
352
100
AcDbEntity
  8
0
  6
Continuous
 62
     8
100
AcDbLine
 10
290.669703
 20
204.827685
 30
0.0
 11
299.392633
 21
204.827685
 31
0.0
  0
ENDBLK
  5
353
100
AcDbEntity
  8
0
100
AcDbBlockEnd
  0
BLOCK
  5
356
100
AcDbEntity
  8
0
100
AcDbBlockBegin
  2
*B37
 70
     0
 10
0.0
 20
0.0
 30
0.0
  3
*B37
  1

  0
LINE
  5
357
100
AcDbEntity
  8
0
  6
Continuous
 62
     8
100
AcDbLine
 10
201.692934
 20
162.039757
 30
0.0
 11
201.692934
 21
166.039381
 31
0.0
  0
LINE
  5
358
100
AcDbEntity
  8
0
  6
Continuous
 62
     8
100
AcDbLine
 10
201.692934
 20
166.039381
 30
0.0
 11
201.692934
 21
175.736232
 31
0.0
  0
LINE
  5
359
100
AcDbEntity
  8
0
  6
Continuous
 62
     8
100
AcDbLine
 10
201.692934
 20
177.736044
 30
0.0
 11
201.692934
 21
178.7361
 31
0.0
  0
LINE
  5
35A
100
AcDbEntity
  8
0
  6
Continuous
 62
     8
100
AcDbLine
 10
201.692934
 20
180.735912
 30
0.0
 11
201.692934
 21
190.432763
 31
0.0
  0
LINE
  5
35B
100
AcDbEntity
  8
0
  6
Continuous
 62
     8
100
AcDbLine
 10
201.692934
 20
192.432575
 30
0.0
 11
201.692934
 21
193.432631
 31
0.0
  0
LINE
  5
35C
100
AcDbEntity
  8
0
  6
Continuous
 62
     8
100
AcDbLine
 10
201.692934
 20
195.432444
 30
0.0
 11
201.692934
 21
205.129294
 31
0.0
  0
LINE
  5
35D
100
AcDbEntity
  8
0
  6
Continuous
 62
     8
100
AcDbLine
 10
201.692934
 20
207.129107
 30
0.0
 11
201.692934
 21
208.129163
 31
0.0
  0
LINE
  5
35E
100
AcDbEntity
  8
0
  6
Continuous
 62
     8
100
AcDbLine
 10
201.692934
 20
210.128975
 30
0.0
 11
201.692934
 21
219.825826
 31
0.0
  0
LINE
  5
35F
100
AcDbEntity
  8
0
  6
Continuous
 62
     8
100
AcDbLine
 10
201.692934
 20
225.825562
 30
0.0
 11
201.692934
 21
229.575248
 31
0.0
  0
ENDBLK
  5
360
100
AcDbEntity
  8
0
100
AcDbBlockEnd
  0
BLOCK
  5
363
100
AcDbEntity
  8
0
100
AcDbBlockBegin
  2
*B38
 70
     0
 10
0.0
 20
0.0
 30
0.0
  3
*B38
  1

  0
LINE
  5
364
100
AcDbEntity
  8
0
  6
Continuous
 62
     8
100
AcDbLine
 10
178.692842
 20
104.416809
 30
0.0
 11
178.692842
 21
108.416433
 31
0.0
  0
LINE
  5
365
100
AcDbEntity
  8
0
  6
Continuous
 62
     8
100
AcDbLine
 10
178.692842
 20
114.41617
 30
0.0
 11
178.692842
 21
118.415794
 31
0.0
  0
ENDBLK
  5
366
100
AcDbEntity
  8
0
100
AcDbBlockEnd
  0
BLOCK
  5
369
100
AcDbEntity
  8
0
100
AcDbBlockBegin
  2
*B39
 70
     0
 10
0.0
 20
0.0
 30
0.0
  3
*B39
  1

  0
LINE
  5
36A
100
AcDbEntity
  8
0
  6
Continuous
 62
     8
100
AcDbLine
 10
272.692723
 20
104.016666
 30
0.0
 11
272.692723
 21
108.416433
 31
0.0
  0
LINE
  5
36B
100
AcDbEntity
  8
0
  6
Continuous
 62
     8
100
AcDbLine
 10
272.692723
 20
114.41617
 30
0.0
 11
272.692723
 21
118.815637
 31
0.0
  0
ENDBLK
  5
36C
100
AcDbEntity
  8
0
100
AcDbBlockEnd
  0
BLOCK
  5
36F
100
AcDbEntity
  8
0
100
AcDbBlockBegin
  2
*B40
 70
     0
 10
0.0
 20
0.0
 30
0.0
  3
*B40
  1

  0
LINE
  5
370
100
AcDbEntity
  8
0
  6
Continuous
 62
     8
100
AcDbLine
 10
280.192695
 20
242.824416
 30
0.0
 11
289.192901
 21
242.824416
 31
0.0
  0
LINE
  5
371
100
AcDbEntity
  8
0
  6
Continuous
 62
     8
100
AcDbLine
 10
291.192713
 20
242.824416
 30
0.0
 11
292.192769
 21
242.824416
 31
0.0
  0
LINE
  5
372
100
AcDbEntity
  8
0
  6
Continuous
 62
     8
100
AcDbLine
 10
294.192882
 20
242.824416
 30
0.0
 11
303.192787
 21
242.824416
 31
0.0
  0
ENDBLK
  5
373
100
AcDbEntity
  8
0
100
AcDbBlockEnd
  0
BLOCK
  5
376
100
AcDbEntity
  8
0
100
AcDbBlockBegin
  2
*B41
 70
     0
 10
0.0
 20
0.0
 30
0.0
  3
*B41
  1

  0
LINE
  5
377
100
AcDbEntity
  8
0
  6
Continuous
 62
     8
100
AcDbLine
 10
118.69277
 20
252.622805
 30
0.0
 11
118.69277
 21
269.031959
 31
0.0
  0
ENDBLK
  5
378
100
AcDbEntity
  8
0
100
AcDbBlockEnd
  0
BLOCK
  5
37B
100
AcDbEntity
  8
0
100
AcDbBlockBegin
  2
*B42
 70
     0
 10
0.0
 20
0.0
 30
0.0
  3
*B42
  1

  0
LINE
  5
37C
100
AcDbEntity
  8
0
  6
Continuous
 62
     8
100
AcDbLine
 10
198.942704
 20
224.825506
 30
0.0
 11
198.942704
 21
244.033856
 31
0.0
  0
ENDBLK
  5
37D
100
AcDbEntity
  8
0
100
AcDbBlockEnd
  0
BLOCK
  5
380
100
AcDbEntity
  8
0
100
AcDbBlockBegin
  2
*B43
 70
     0
 10
0.0
 20
0.0
 30
0.0
  3
*B43
  1

  0
LINE
  5
381
100
AcDbEntity
  8
0
  6
Continuous
 62
     8
100
AcDbLine
 10
241.692781
 20
162.039757
 30
0.0
 11
241.692781
 21
177.82887
 31
0.0
  0
LINE
  5
382
100
AcDbEntity
  8
0
  6
Continuous
 62
     8
100
AcDbLine
 10
241.692781
 20
231.824999
 30
0.0
 11
241.692781
 21
244.033856
 31
0.0
  0
ENDBLK
  5
383
100
AcDbEntity
  8
0
100
AcDbBlockEnd
  0
BLOCK
  5
386
100
AcDbEntity
  8
0
100
AcDbBlockBegin
  2
*B44
 70
     0
 10
0.0
 20
0.0
 30
0.0
  3
*B44
  1

  0
LINE
  5
387
100
AcDbEntity
  8
0
  6
Continuous
 62
     8
100
AcDbLine
 10
122.192817
 20
242.824416
 30
0.0
 11
131.192722
 21
242.824416
 31
0.0
  0
LINE
  5
388
100
AcDbEntity
  8
0
  6
Continuous
 62
     8
100
AcDbLine
 10
133.192835
 20
242.824416
 30
0.0
 11
134.192891
 21
242.824416
 31
0.0
  0
LINE
  5
389
100
AcDbEntity
  8
0
  6
Continuous
 62
     8
100
AcDbLine
 10
136.192703
 20
242.824416
 30
0.0
 11
145.192909
 21
242.824416
 31
0.0
  0
ENDBLK
  5
38A
100
AcDbEntity
  8
0
100
AcDbBlockEnd
  0
BLOCK
  5
38D
100
AcDbEntity
  8
0
100
AcDbBlockBegin
  2
*B45
 70
     0
 10
0.0
 20
0.0
 30
0.0
  3
*B45
  1

  0
LINE
  5
38E
100
AcDbEntity
  8
0
  6
Continuous
 62
     8
100
AcDbLine
 10
194.94278
 20
222.825694
 30
0.0
 11
198.692765
 21
222.825694
 31
0.0
  0
LINE
  5
38F
100
AcDbEntity
  8
0
  6
Continuous
 62
     8
100
AcDbLine
 10
204.692802
 20
222.825694
 30
0.0
 11
208.442788
 21
222.825694
 31
0.0
  0
ENDBLK
  5
390
100
AcDbEntity
  8
0
100
AcDbBlockEnd
  0
BLOCK
  5
393
100
AcDbEntity
  8
0
100
AcDbBlockBegin
  2
*B46
 70
     0
 10
0.0
 20
0.0
 30
0.0
  3
*B46
  1

  0
LINE
  5
394
100
AcDbEntity
  8
0
  6
Continuous
 62
     8
100
AcDbLine
 10
104.025679
 20
251.82312
 30
0.0
 11
117.385697
 21
251.82312
 31
0.0
  0
ENDBLK
  5
395
100
AcDbEntity
  8
0
100
AcDbBlockEnd
  0
BLOCK
  5
398
100
AcDbEntity
  8
0
100
AcDbBlockBegin
  2
*B47
 70
     0
 10
0.0
 20
0.0
 30
0.0
  3
*B47
  1

  0
LINE
  5
399
100
AcDbEntity
  8
0
  6
Continuous
 62
     8
100
AcDbLine
 10
223.69267
 20
162.039757
 30
0.0
 11
223.69267
 21
166.039381
 31
0.0
  0
LINE
  5
39A
100
AcDbEntity
  8
0
  6
Continuous
 62
     8
100
AcDbLine
 10
223.69267
 20
166.039381
 30
0.0
 11
223.69267
 21
175.736232
 31
0.0
  0
LINE
  5
39B
100
AcDbEntity
  8
0
  6
Continuous
 62
     8
100
AcDbLine
 10
223.69267
 20
177.736044
 30
0.0
 11
223.69267
 21
178.7361
 31
0.0
  0
LINE
  5
39C
100
AcDbEntity
  8
0
  6
Continuous
 62
     8
100
AcDbLine
 10
223.69267
 20
180.735912
 30
0.0
 11
223.69267
 21
190.432763
 31
0.0
  0
LINE
  5
39D
100
AcDbEntity
  8
0
  6
Continuous
 62
     8
100
AcDbLine
 10
223.69267
 20
192.432575
 30
0.0
 11
223.69267
 21
193.432631
 31
0.0
  0
LINE
  5
39E
100
AcDbEntity
  8
0
  6
Continuous
 62
     8
100
AcDbLine
 10
223.69267
 20
195.432444
 30
0.0
 11
223.69267
 21
205.129294
 31
0.0
  0
LINE
  5
39F
100
AcDbEntity
  8
0
  6
Continuous
 62
     8
100
AcDbLine
 10
223.69267
 20
207.129107
 30
0.0
 11
223.69267
 21
208.129163
 31
0.0
  0
LINE
  5
3A0
100
AcDbEntity
  8
0
  6
Continuous
 62
     8
100
AcDbLine
 10
223.69267
 20
210.128975
 30
0.0
 11
223.69267
 21
219.825826
 31
0.0
  0
LINE
  5
3A1
100
AcDbEntity
  8
0
  6
Continuous
 62
     8
100
AcDbLine
 10
223.69267
 20
225.825562
 30
0.0
 11
223.69267
 21
229.575248
 31
0.0
  0
ENDBLK
  5
3A2
100
AcDbEntity
  8
0
100
AcDbBlockEnd
  0
BLOCK
  5
3A5
100
AcDbEntity
  8
0
100
AcDbBlockBegin
  2
*B48
 70
     0
 10
0.0
 20
0.0
 30
0.0
  3
*B48
  1

  0
LINE
  5
3A6
100
AcDbEntity
  8
0
  6
Continuous
 62
     8
100
AcDbLine
 10
212.692652
 20
101.54191
 30
0.0
 11
212.692652
 21
108.416433
 31
0.0
  0
LINE
  5
3A7
100
AcDbEntity
  8
0
  6
Continuous
 62
     8
100
AcDbLine
 10
212.692652
 20
114.41617
 30
0.0
 11
212.692652
 21
121.290393
 31
0.0
  0
ENDBLK
  5
3A8
100
AcDbEntity
  8
0
100
AcDbBlockEnd
  0
BLOCK
  5
3AB
100
AcDbEntity
  8
0
100
AcDbBlockBegin
  2
*B49
 70
     0
 10
0.0
 20
0.0
 30
0.0
  3
*B49
  1

  0
LINE
  5
3AC
100
AcDbEntity
  8
0
  6
Continuous
 62
     8
100
AcDbLine
 10
183.692822
 20
162.039757
 30
0.0
 11
183.692822
 21
177.82887
 31
0.0
  0
ENDBLK
  5
3AD
100
AcDbEntity
  8
0
100
AcDbBlockEnd
  0
BLOCK
  5
3B0
100
AcDbEntity
  8
0
100
AcDbBlockBegin
  2
*B50
 70
     0
 10
0.0
 20
0.0
 30
0.0
  3
*B50
  1

  0
LINE
  5
3B1
100
AcDbEntity
  8
0
  6
Continuous
 62
     8
100
AcDbLine
 10
212.692652
 20
240.033932
 30
0.0
 11
212.692652
 21
244.033856
 31
0.0
  0
LINE
  5
3B2
100
AcDbEntity
  8
0
  6
Continuous
 62
     8
100
AcDbLine
 10
212.692652
 20
180.078921
 30
0.0
 11
212.692652
 21
183.828607
 31
0.0
  0
LINE
  5
3B3
100
AcDbEntity
  8
0
  6
Continuous
 62
     8
100
AcDbLine
 10
212.692652
 20
189.828043
 30
0.0
 11
212.692652
 21
198.62998
 31
0.0
  0
LINE
  5
3B4
100
AcDbEntity
  8
0
  6
Continuous
 62
     8
100
AcDbLine
 10
212.692652
 20
200.629792
 30
0.0
 11
212.692652
 21
201.629548
 31
0.0
  0
LINE
  5
3B5
100
AcDbEntity
  8
0
  6
Continuous
 62
     8
100
AcDbLine
 10
212.692652
 20
203.62936
 30
0.0
 11
212.692652
 21
212.431297
 31
0.0
  0
LINE
  5
3B6
100
AcDbEntity
  8
0
  6
Continuous
 62
     8
100
AcDbLine
 10
212.692652
 20
214.431109
 30
0.0
 11
212.692652
 21
215.431166
 31
0.0
  0
LINE
  5
3B7
100
AcDbEntity
  8
0
  6
Continuous
 62
     8
100
AcDbLine
 10
212.692652
 20
217.430978
 30
0.0
 11
212.692652
 21
226.232615
 31
0.0
  0
LINE
  5
3B8
100
AcDbEntity
  8
0
  6
Continuous
 62
     8
100
AcDbLine
 10
212.692652
 20
228.232427
 30
0.0
 11
212.692652
 21
229.232483
 31
0.0
  0
LINE
  5
3B9
100
AcDbEntity
  8
0
  6
Continuous
 62
     8
100
AcDbLine
 10
212.692652
 20
231.232295
 30
0.0
 11
212.692652
 21
240.033932
 31
0.0
  0
ENDBLK
  5
3BA
100
AcDbEntity
  8
0
100
AcDbBlockEnd
  0
BLOCK
  5
3BD
100
AcDbEntity
  8
0
100
AcDbBlockBegin
  2
*B51
 70
     0
 10
0.0
 20
0.0
 30
0.0
  3
*B51
  1

  0
LINE
  5
3BE
100
AcDbEntity
  8
0
  6
Continuous
 62
     8
100
AcDbLine
 10
250.025482
 20
222.825694
 30
0.0
 11
254.025707
 21
222.825694
 31
0.0
  0
LINE
  5
3BF
100
AcDbEntity
  8
0
  6
Continuous
 62
     8
100
AcDbLine
 10
216.942816
 20
222.825694
 30
0.0
 11
220.692801
 21
222.825694
 31
0.0
  0
LINE
  5
3C0
100
AcDbEntity
  8
0
  6
Continuous
 62
     8
100
AcDbLine
 10
226.692839
 20
222.825694
 30
0.0
 11
235.85917
 21
222.825694
 31
0.0
  0
LINE
  5
3C1
100
AcDbEntity
  8
0
  6
Continuous
 62
     8
100
AcDbLine
 10
237.859282
 20
222.825694
 30
0.0
 11
238.859339
 21
222.825694
 31
0.0
  0
LINE
  5
3C2
100
AcDbEntity
  8
0
  6
Continuous
 62
     8
100
AcDbLine
 10
240.859151
 20
222.825694
 30
0.0
 11
250.025482
 21
222.825694
 31
0.0
  0
ENDBLK
  5
3C3
100
AcDbEntity
  8
0
100
AcDbBlockEnd
  0
BLOCK
  5
3C6
100
AcDbEntity
  8
0
100
AcDbBlockBegin
  2
*B52
 70
     0
 10
0.0
 20
0.0
 30
0.0
  3
*B52
  1

  0
LINE
  5
3C7
100
AcDbEntity
  8
0
  6
Continuous
 62
     8
100
AcDbLine
 10
204.442863
 20
224.825506
 30
0.0
 11
204.442863
 21
244.033856
 31
0.0
  0
ENDBLK
  5
3C8
100
AcDbEntity
  8
0
100
AcDbBlockEnd
  0
BLOCK
  5
3CB
100
AcDbEntity
  8
0
100
AcDbBlockBegin
  2
*B53
 70
     0
 10
0.0
 20
0.0
 30
0.0
  3
*B53
  1

  0
LINE
  5
3CC
100
AcDbEntity
  8
0
  6
Continuous
 62
     8
100
AcDbLine
 10
152.692881
 20
104.016666
 30
0.0
 11
152.692881
 21
108.416433
 31
0.0
  0
LINE
  5
3CD
100
AcDbEntity
  8
0
  6
Continuous
 62
     8
100
AcDbLine
 10
152.692881
 20
114.41617
 30
0.0
 11
152.692881
 21
118.815637
 31
0.0
  0
ENDBLK
  5
3CE
100
AcDbEntity
  8
0
100
AcDbBlockEnd
  0
BLOCK
  5
3D1
100
AcDbEntity
  8
0
100
AcDbBlockBegin
  2
*B54
 70
     0
 10
0.0
 20
0.0
 30
0.0
  3
*B54
  1

  0
LINE
  5
3D2
100
AcDbEntity
  8
0
  6
Continuous
 62
     8
100
AcDbLine
 10
114.692845
 20
111.416302
 30
0.0
 11
123.026147
 21
111.416302
 31
0.0
  0
LINE
  5
3D3
100
AcDbEntity
  8
0
  6
Continuous
 62
     8
100
AcDbLine
 10
125.026259
 20
111.416302
 30
0.0
 11
126.026015
 21
111.416302
 31
0.0
  0
LINE
  5
3D4
100
AcDbEntity
  8
0
  6
Continuous
 62
     8
100
AcDbLine
 10
128.026128
 20
111.416302
 30
0.0
 11
136.359429
 21
111.416302
 31
0.0
  0
LINE
  5
3D5
100
AcDbEntity
  8
0
  6
Continuous
 62
     8
100
AcDbLine
 10
138.359542
 20
111.416302
 30
0.0
 11
139.359598
 21
111.416302
 31
0.0
  0
LINE
  5
3D6
100
AcDbEntity
  8
0
  6
Continuous
 62
     8
100
AcDbLine
 10
141.35941
 20
111.416302
 30
0.0
 11
149.692712
 21
111.416302
 31
0.0
  0
LINE
  5
3D7
100
AcDbEntity
  8
0
  6
Continuous
 62
     8
100
AcDbLine
 10
155.692749
 20
111.416302
 30
0.0
 11
163.19272
 21
111.416302
 31
0.0
  0
LINE
  5
3D8
100
AcDbEntity
  8
0
  6
Continuous
 62
     8
100
AcDbLine
 10
165.192833
 20
111.416302
 30
0.0
 11
166.192889
 21
111.416302
 31
0.0
  0
LINE
  5
3D9
100
AcDbEntity
  8
0
  6
Continuous
 62
     8
100
AcDbLine
 10
168.192701
 20
111.416302
 30
0.0
 11
175.692673
 21
111.416302
 31
0.0
  0
LINE
  5
3DA
100
AcDbEntity
  8
0
  6
Continuous
 62
     8
100
AcDbLine
 10
181.69271
 20
111.416302
 30
0.0
 11
193.192906
 21
111.416302
 31
0.0
  0
LINE
  5
3DB
100
AcDbEntity
  8
0
  6
Continuous
 62
     8
100
AcDbLine
 10
195.192719
 20
111.416302
 30
0.0
 11
196.192775
 21
111.416302
 31
0.0
  0
LINE
  5
3DC
100
AcDbEntity
  8
0
  6
Continuous
 62
     8
100
AcDbLine
 10
198.192887
 20
111.416302
 30
0.0
 11
209.692783
 21
111.416302
 31
0.0
  0
LINE
  5
3DD
100
AcDbEntity
  8
0
  6
Continuous
 62
     8
100
AcDbLine
 10
215.692821
 20
111.416302
 30
0.0
 11
227.192717
 21
111.416302
 31
0.0
  0
LINE
  5
3DE
100
AcDbEntity
  8
0
  6
Continuous
 62
     8
100
AcDbLine
 10
229.192829
 20
111.416302
 30
0.0
 11
230.192885
 21
111.416302
 31
0.0
  0
LINE
  5
3DF
100
AcDbEntity
  8
0
  6
Continuous
 62
     8
100
AcDbLine
 10
232.192698
 20
111.416302
 30
0.0
 11
243.692894
 21
111.416302
 31
0.0
  0
LINE
  5
3E0
100
AcDbEntity
  8
0
  6
Continuous
 62
     8
100
AcDbLine
 10
249.692631
 20
111.416302
 30
0.0
 11
257.192903
 21
111.416302
 31
0.0
  0
LINE
  5
3E1
100
AcDbEntity
  8
0
  6
Continuous
 62
     8
100
AcDbLine
 10
259.192715
 20
111.416302
 30
0.0
 11
260.192771
 21
111.416302
 31
0.0
  0
LINE
  5
3E2
100
AcDbEntity
  8
0
  6
Continuous
 62
     8
100
AcDbLine
 10
262.192883
 20
111.416302
 30
0.0
 11
269.692855
 21
111.416302
 31
0.0
  0
LINE
  5
3E3
100
AcDbEntity
  8
0
  6
Continuous
 62
     8
100
AcDbLine
 10
275.692892
 20
111.416302
 30
0.0
 11
284.026194
 21
111.416302
 31
0.0
  0
LINE
  5
3E4
100
AcDbEntity
  8
0
  6
Continuous
 62
     8
100
AcDbLine
 10
286.026006
 20
111.416302
 30
0.0
 11
287.026062
 21
111.416302
 31
0.0
  0
LINE
  5
3E5
100
AcDbEntity
  8
0
  6
Continuous
 62
     8
100
AcDbLine
 10
289.026175
 20
111.416302
 30
0.0
 11
297.359476
 21
111.416302
 31
0.0
  0
LINE
  5
3E6
100
AcDbEntity
  8
0
  6
Continuous
 62
     8
100
AcDbLine
 10
299.359288
 20
111.416302
 30
0.0
 11
300.359344
 21
111.416302
 31
0.0
  0
LINE
  5
3E7
100
AcDbEntity
  8
0
  6
Continuous
 62
     8
100
AcDbLine
 10
302.359457
 20
111.416302
 30
0.0
 11
310.692759
 21
111.416302
 31
0.0
  0
ENDBLK
  5
3E8
100
AcDbEntity
  8
0
100
AcDbBlockEnd
  0
BLOCK
  5
3EB
100
AcDbEntity
  8
0
100
AcDbBlockBegin
  2
*B55
 70
     0
 10
0.0
 20
0.0
 30
0.0
  3
*B55
  1

  0
LINE
  5
3EC
100
AcDbEntity
  8
0
  6
Continuous
 62
     8
100
AcDbLine
 10
218.567719
 20
79.476085
 30
0.0
 11
218.567719
 21
109.41649
 31
0.0
  0
ENDBLK
  5
3ED
100
AcDbEntity
  8
0
100
AcDbBlockEnd
  0
BLOCK
  5
3F0
100
AcDbEntity
  8
0
100
AcDbBlockBegin
  2
*B56
 70
     0
 10
0.0
 20
0.0
 30
0.0
  3
*B56
  1

  0
LINE
  5
3F1
100
AcDbEntity
  8
0
  6
Continuous
 62
     6
100
AcDbLine
 10
272.692723
 20
110.416245
 30
0.0
 11
272.692723
 21
112.416058
 31
0.0
  0
LINE
  5
3F2
100
AcDbEntity
  8
0
  6
Continuous
 62
     6
100
AcDbLine
 10
271.692667
 20
111.416302
 30
0.0
 11
273.69278
 21
111.416302
 31
0.0
  0
ENDBLK
  5
3F3
100
AcDbEntity
  8
0
100
AcDbBlockEnd
  0
BLOCK
  5
3F6
100
AcDbEntity
  8
0
100
AcDbBlockBegin
  2
*B57
 70
     0
 10
0.0
 20
0.0
 30
0.0
  3
*B57
  1

  0
LINE
  5
3F7
100
AcDbEntity
  8
0
  6
Continuous
 62
     6
100
AcDbLine
 10
178.692842
 20
110.416245
 30
0.0
 11
178.692842
 21
112.416058
 31
0.0
  0
LINE
  5
3F8
100
AcDbEntity
  8
0
  6
Continuous
 62
     6
100
AcDbLine
 10
177.692785
 20
111.416302
 30
0.0
 11
179.692898
 21
111.416302
 31
0.0
  0
ENDBLK
  5
3F9
100
AcDbEntity
  8
0
100
AcDbBlockEnd
  0
BLOCK
  5
3FC
100
AcDbEntity
  8
0
100
AcDbBlockBegin
  2
*B58
 70
     0
 10
0.0
 20
0.0
 30
0.0
  3
*B58
  1

  0
LINE
  5
3FD
100
AcDbEntity
  8
0
  6
Continuous
 62
     6
100
AcDbLine
 10
223.69267
 20
221.825638
 30
0.0
 11
223.69267
 21
223.82575
 31
0.0
  0
LINE
  5
3FE
100
AcDbEntity
  8
0
  6
Continuous
 62
     6
100
AcDbLine
 10
222.692914
 20
222.825694
 30
0.0
 11
224.692726
 21
222.825694
 31
0.0
  0
ENDBLK
  5
3FF
100
AcDbEntity
  8
0
100
AcDbBlockEnd
  0
BLOCK
  5
402
100
AcDbEntity
  8
0
100
AcDbBlockBegin
  2
*B59
 70
     0
 10
0.0
 20
0.0
 30
0.0
  3
*B59
  1

  0
LINE
  5
403
100
AcDbEntity
  8
0
  6
Continuous
 62
     6
100
AcDbLine
 10
246.692762
 20
110.416245
 30
0.0
 11
246.692762
 21
112.416058
 31
0.0
  0
LINE
  5
404
100
AcDbEntity
  8
0
  6
Continuous
 62
     6
100
AcDbLine
 10
245.692706
 20
111.416302
 30
0.0
 11
247.692819
 21
111.416302
 31
0.0
  0
ENDBLK
  5
405
100
AcDbEntity
  8
0
100
AcDbBlockEnd
  0
BLOCK
  5
408
100
AcDbEntity
  8
0
100
AcDbBlockBegin
  2
*B60
 70
     0
 10
0.0
 20
0.0
 30
0.0
  3
*B60
  1

  0
LINE
  5
409
100
AcDbEntity
  8
0
  6
Continuous
 62
     6
100
AcDbLine
 10
212.692652
 20
110.416245
 30
0.0
 11
212.692652
 21
112.416058
 31
0.0
  0
LINE
  5
40A
100
AcDbEntity
  8
0
  6
Continuous
 62
     6
100
AcDbLine
 10
211.692896
 20
111.416302
 30
0.0
 11
213.692708
 21
111.416302
 31
0.0
  0
ENDBLK
  5
40B
100
AcDbEntity
  8
0
100
AcDbBlockEnd
  0
BLOCK
  5
40E
100
AcDbEntity
  8
0
100
AcDbBlockBegin
  2
*B61
 70
     0
 10
0.0
 20
0.0
 30
0.0
  3
*B61
  1

  0
LINE
  5
40F
100
AcDbEntity
  8
0
  6
Continuous
 62
     6
100
AcDbLine
 10
152.692881
 20
110.416245
 30
0.0
 11
152.692881
 21
112.416058
 31
0.0
  0
LINE
  5
410
100
AcDbEntity
  8
0
  6
Continuous
 62
     6
100
AcDbLine
 10
151.692824
 20
111.416302
 30
0.0
 11
153.692937
 21
111.416302
 31
0.0
  0
ENDBLK
  5
411
100
AcDbEntity
  8
0
100
AcDbBlockEnd
  0
BLOCK
  5
414
100
AcDbEntity
  8
0
100
AcDbBlockBegin
  2
*B62
 70
     0
 10
0.0
 20
0.0
 30
0.0
  3
*B62
  1

  0
LINE
  5
415
100
AcDbEntity
  8
0
  6
Continuous
 62
     6
100
AcDbLine
 10
211.692896
 20
186.828175
 30
0.0
 11
213.692708
 21
186.828175
 31
0.0
  0
LINE
  5
416
100
AcDbEntity
  8
0
  6
Continuous
 62
     6
100
AcDbLine
 10
212.692652
 20
185.828419
 30
0.0
 11
212.692652
 21
187.828231
 31
0.0
  0
ENDBLK
  5
417
100
AcDbEntity
  8
0
100
AcDbBlockEnd
  0
BLOCK
  5
41A
100
AcDbEntity
  8
0
100
AcDbBlockBegin
  2
*B63
 70
     0
 10
0.0
 20
0.0
 30
0.0
  3
*B63
  1

  0
LINE
  5
41B
100
AcDbEntity
  8
0
  6
Continuous
 62
     6
100
AcDbLine
 10
201.692934
 20
221.825638
 30
0.0
 11
201.692934
 21
223.82575
 31
0.0
  0
LINE
  5
41C
100
AcDbEntity
  8
0
  6
Continuous
 62
     6
100
AcDbLine
 10
200.692878
 20
222.825694
 30
0.0
 11
202.69269
 21
222.825694
 31
0.0
  0
ENDBLK
  5
41D
100
AcDbEntity
  8
0
100
AcDbBlockEnd
  0
BLOCK
  5
420
100
AcDbEntity
  8
0
100
AcDbBlockBegin
  2
*B64
 70
     0
 10
0.0
 20
0.0
 30
0.0
  3
*B64
  1

  0
TEXT
  5
421
100
AcDbEntity
  8
TEXT
  6
Continuous
 62
     0
100
AcDbText
 10
187.471499
 20
202.5
 30
0.0
 40
5.0
  1
12
100
AcDbText
  0
ENDBLK
  5
422
100
AcDbEntity
  8
0
100
AcDbBlockEnd
  0
BLOCK
  5
425
100
AcDbEntity
  8
0
100
AcDbBlockBegin
  2
*B65
 70
     0
 10
0.0
 20
0.0
 30
0.0
  3
*B65
  1

  0
TEXT
  5
426
100
AcDbEntity
  8
TEXT
  6
Continuous
 62
     0
100
AcDbText
 10
230.471499
 20
202.5
 30
0.0
 40
5.0
  1
10
100
AcDbText
  0
ENDBLK
  5
427
100
AcDbEntity
  8
0
100
AcDbBlockEnd
  0
BLOCK
  5
42A
100
AcDbEntity
  8
0
100
AcDbBlockBegin
  2
*B66
 70
     0
 10
0.0
 20
0.0
 30
0.0
  3
*B66
  1

  0
TEXT
  5
42B
100
AcDbEntity
  8
TEXT
  6
Continuous
 62
     0
100
AcDbText
 10
221.73575
 20
183.0
 30
0.0
 40
5.0
  1
1
100
AcDbText
  0
ENDBLK
  5
42C
100
AcDbEntity
  8
0
100
AcDbBlockEnd
  0
BLOCK
  5
42F
100
AcDbEntity
  8
0
100
AcDbBlockBegin
  2
*B67
 70
     0
 10
0.0
 20
0.0
 30
0.0
  3
*B67
  1

  0
TEXT
  5
430
100
AcDbEntity
  8
TEXT
  6
Continuous
 62
     0
100
AcDbText
 10
180.1
 20
104.24145
 30
0.0
 40
3.0
  1
0
 50
90.0
100
AcDbText
  0
ENDBLK
  5
431
100
AcDbEntity
  8
0
100
AcDbBlockEnd
  0
BLOCK
  5
434
100
AcDbEntity
  8
0
100
AcDbBlockBegin
  2
*B68
 70
     0
 10
0.0
 20
0.0
 30
0.0
  3
*B68
  1

  0
TEXT
  5
435
100
AcDbEntity
  8
TEXT
  6
Continuous
 62
     0
100
AcDbText
 10
210.73575
 20
221.5
 30
0.0
 40
5.0
  1
2
100
AcDbText
  0
ENDBLK
  5
436
100
AcDbEntity
  8
0
100
AcDbBlockEnd
  0
BLOCK
  5
439
100
AcDbEntity
  8
0
100
AcDbBlockBegin
  2
*B69
 70
     0
 10
0.0
 20
0.0
 30
0.0
  3
*B69
  1

  0
TEXT
  5
43A
100
AcDbEntity
  8
TEXT
  6
Continuous
 62
     0
100
AcDbText
 10
199.73575
 20
183.0
 30
0.0
 40
5.0
  1
3
100
AcDbText
  0
ENDBLK
  5
43B
100
AcDbEntity
  8
0
100
AcDbBlockEnd
  0
BLOCK
  5
43E
100
AcDbEntity
  8
0
100
AcDbBlockBegin
  2
*B70
 70
     0
 10
0.0
 20
0.0
 30
0.0
  3
*B70
  1

  0
TEXT
  5
43F
100
AcDbEntity
  8
TEXT
  6
Continuous
 62
     0
100
AcDbText
 10
173.5
 20
110.44145
 30
0.0
 40
3.0
  1
1
 50
90.0
100
AcDbText
  0
ENDBLK
  5
440
100
AcDbEntity
  8
0
100
AcDbBlockEnd
  0
BLOCK
  5
443
100
AcDbEntity
  8
0
100
AcDbBlockBegin
  2
*B71
 70
     0
 10
0.0
 20
0.0
 30
0.0
  3
*B71
  1

  0
TEXT
  5
444
100
AcDbEntity
  8
TEXT
  6
Continuous
 62
     0
100
AcDbText
 10
245.3
 20
117.75855
 30
0.0
 40
3.0
  1
0
 50
-90.0
100
AcDbText
  0
ENDBLK
  5
445
100
AcDbEntity
  8
0
100
AcDbBlockEnd
  0
BLOCK
  5
448
100
AcDbEntity
  8
0
100
AcDbBlockBegin
  2
*B72
 70
     0
 10
0.0
 20
0.0
 30
0.0
  3
*B72
  1

  0
TEXT
  5
449
100
AcDbEntity
  8
TEXT
  6
Continuous
 62
     0
100
AcDbText
 10
251.0
 20
112.55855
 30
0.0
 40
3.0
  1
1
 50
-90.0
100
AcDbText
  0
ENDBLK
  5
44A
100
AcDbEntity
  8
0
100
AcDbBlockEnd
  0
BLOCK
  5
44D
100
AcDbEntity
  8
0
100
AcDbBlockBegin
  2
*B73
 70
     0
 10
0.0
 20
0.0
 30
0.0
  3
*B73
  1

  0
TEXT
  5
44E
100
AcDbEntity
  8
TEXT
  6
Continuous
 62
     0
100
AcDbText
 10
128.448699
 20
149.0
 30
0.0
 40
6.0
  1
180%%d
100
AcDbText
  0
ENDBLK
  5
44F
100
AcDbEntity
  8
0
100
AcDbBlockEnd
  0
BLOCK
  5
452
100
AcDbEntity
  8
0
100
AcDbBlockBegin
  2
*B74
 70
     0
 10
0.0
 20
0.0
 30
0.0
  3
*B74
  1

  0
TEXT
  5
453
100
AcDbEntity
  8
TEXT
  6
Continuous
 62
     0
100
AcDbText
 10
209.333819
 20
149.75
 30
0.0
 40
3.5
  1
90
100
AcDbText
  0
ENDBLK
  5
454
100
AcDbEntity
  8
0
100
AcDbBlockEnd
  0
BLOCK
  5
457
100
AcDbEntity
  8
0
100
AcDbBlockBegin
  2
*B75
 70
     0
 10
0.0
 20
0.0
 30
0.0
  3
*B75
  1

  0
TEXT
  5
458
100
AcDbEntity
  8
TEXT
  6
Continuous
 62
     0
100
AcDbText
 10
278.833819
 20
268.75
 30
0.0
 40
3.5
  1
48
100
AcDbText
  0
ENDBLK
  5
459
100
AcDbEntity
  8
0
100
AcDbBlockEnd
  0
BLOCK
  5
45C
100
AcDbEntity
  8
0
100
AcDbBlockBegin
  2
*B76
 70
     0
 10
0.0
 20
0.0
 30
0.0
  3
*B76
  1

  0
TEXT
  5
45D
100
AcDbEntity
  8
TEXT
  6
Continuous
 62
     0
100
AcDbText
 10
139.833819
 20
268.75
 30
0.0
 40
3.5
  1
48
100
AcDbText
  0
ENDBLK
  5
45E
100
AcDbEntity
  8
0
100
AcDbBlockEnd
  0
BLOCK
  5
461
100
AcDbEntity
  8
0
100
AcDbBlockBegin
  2
*B77
 70
     0
 10
0.0
 20
0.0
 30
0.0
  3
*B77
  1

  0
TEXT
  5
462
100
AcDbEntity
  8
TEXT
  6
Continuous
 62
     0
100
AcDbText
 10
229.333819
 20
165.75
 30
0.0
 40
3.5
  1
18
100
AcDbText
  0
ENDBLK
  5
463
100
AcDbEntity
  8
0
100
AcDbBlockEnd
  0
BLOCK
  5
466
100
AcDbEntity
  8
0
100
AcDbBlockBegin
  2
*B78
 70
     0
 10
0.0
 20
0.0
 30
0.0
  3
*B78
  1

  0
TEXT
  5
467
100
AcDbEntity
  8
TEXT
  6
Continuous
 62
     0
100
AcDbText
 10
209.333819
 20
165.75
 30
0.0
 40
3.5
  1
22
100
AcDbText
  0
ENDBLK
  5
468
100
AcDbEntity
  8
0
100
AcDbBlockEnd
  0
BLOCK
  5
46B
100
AcDbEntity
  8
0
100
AcDbBlockBegin
  2
*B79
 70
     0
 10
0.0
 20
0.0
 30
0.0
  3
*B79
  1

  0
TEXT
  5
46C
100
AcDbEntity
  8
TEXT
  6
Continuous
 62
     0
100
AcDbText
 10
189.333819
 20
165.75
 30
0.0
 40
3.5
  1
18
100
AcDbText
  0
ENDBLK
  5
46D
100
AcDbEntity
  8
0
100
AcDbBlockEnd
  0
BLOCK
  5
470
100
AcDbEntity
  8
0
100
AcDbBlockBegin
  2
*B80
 70
     0
 10
0.0
 20
0.0
 30
0.0
  3
*B80
  1

  0
TEXT
  5
471
100
AcDbEntity
  8
TEXT
  6
Continuous
 62
     0
100
AcDbText
 10
223.833819
 20
243.75
 30
0.0
 40
3.5
  1
29
100
AcDbText
  0
ENDBLK
  5
472
100
AcDbEntity
  8
0
100
AcDbBlockEnd
  0
BLOCK
  5
475
100
AcDbEntity
  8
0
100
AcDbBlockBegin
  2
*B81
 70
     0
 10
0.0
 20
0.0
 30
0.0
  3
*B81
  1

  0
TEXT
  5
476
100
AcDbEntity
  8
TEXT
  6
Continuous
 62
     0
100
AcDbText
 10
179.383333
 20
243.75
 30
0.0
 40
3.5
  1
%%c5,5
100
AcDbText
  0
ENDBLK
  5
477
100
AcDbEntity
  8
0
100
AcDbBlockEnd
  0
BLOCK
  5
47A
100
AcDbEntity
  8
0
100
AcDbBlockBegin
  2
*B82
 70
     0
 10
0.0
 20
0.0
 30
0.0
  3
*B82
  1

  0
TEXT
  5
47B
100
AcDbEntity
  8
TEXT
  6
Continuous
 62
     0
100
AcDbText
 10
250.25
 20
201.457102
 30
0.0
 40
3.5
  1
36
 50
90.0
100
AcDbText
  0
ENDBLK
  5
47C
100
AcDbEntity
  8
0
100
AcDbBlockEnd
  0
BLOCK
  5
47F
100
AcDbEntity
  8
0
100
AcDbBlockBegin
  2
*B83
 70
     0
 10
0.0
 20
0.0
 30
0.0
  3
*B83
  1

  0
TEXT
  5
480
100
AcDbEntity
  8
TEXT
  6
Continuous
 62
     0
100
AcDbText
 10
312.25
 20
201.457102
 30
0.0
 40
3.5
  1
50
 50
90.0
100
AcDbText
  0
ENDBLK
  5
481
100
AcDbEntity
  8
0
100
AcDbBlockEnd
  0
BLOCK
  5
484
100
AcDbEntity
  8
0
100
AcDbBlockBegin
  2
*B84
 70
     0
 10
0.0
 20
0.0
 30
0.0
  3
*B84
  1

  0
TEXT
  5
485
100
AcDbEntity
  8
TEXT
  6
Continuous
 62
     0
100
AcDbText
 10
104.25
 20
108.039594
 30
0.0
 40
3.5
  1
30
 50
90.0
100
AcDbText
  0
ENDBLK
  5
486
100
AcDbEntity
  8
0
100
AcDbBlockEnd
  0
BLOCK
  5
489
100
AcDbEntity
  8
0
100
AcDbBlockBegin
  2
*B85
 70
     0
 10
0.0
 20
0.0
 30
0.0
  3
*B85
  1

  0
TEXT
  5
48A
100
AcDbEntity
  8
TEXT
  6
Continuous
 62
     0
100
AcDbText
 10
226.416667
 20
83.180504
 30
0.0
 40
3.5
  1
G 1/4"
100
AcDbText
  0
ENDBLK
  5
48B
100
AcDbEntity
  8
0
100
AcDbBlockEnd
  0
BLOCK
  5
48E
100
AcDbEntity
  8
0
100
AcDbBlockBegin
  2
*B86
 70
     0
 10
0.0
 20
0.0
 30
0.0
  3
*B86
  1

  0
TEXT
  5
48F
100
AcDbEntity
  8
TEXT
  6
Continuous
 62
     0
100
AcDbText
 10
104.25
 20
212.456877
 30
0.0
 40
3.5
  1
72
 50
90.0
100
AcDbText
  0
ENDBLK
  5
490
100
AcDbEntity
  8
0
100
AcDbBlockEnd
  0
ENDSEC
  0
SECTION
  2
ENTITIES
  0
INSERT
  5
18D
100
AcDbEntity
  8
0
  6
Continuous
 62
   174
100
AcDbBlockReference
  2
*B1
 10
0.0
 20
0.0
 30
0.0
  0
INSERT
  5
265
100
AcDbEntity
  8
0
  6
Continuous
 62
   174
100
AcDbBlockReference
  2
*B2
 10
0.0
 20
0.0
 30
0.0
  0
INSERT
  5
26B
100
AcDbEntity
  8
0
  6
Continuous
 62
   172
100
AcDbBlockReference
  2
*B3
 10
0.0
 20
0.0
 30
0.0
  0
INSERT
  5
276
100
AcDbEntity
  8
0
  6
Continuous
 62
   172
100
AcDbBlockReference
  2
*B4
 10
0.0
 20
0.0
 30
0.0
  0
INSERT
  5
27F
100
AcDbEntity
  8
0
  6
Continuous
 62
   172
100
AcDbBlockReference
  2
*B6
 10
0.0
 20
0.0
 30
0.0
  0
INSERT
  5
28A
100
AcDbEntity
  8
0
  6
Continuous
 62
   172
100
AcDbBlockReference
  2
*B7
 10
0.0
 20
0.0
 30
0.0
  0
INSERT
  5
294
100
AcDbEntity
  8
0
  6
Continuous
 62
     0
100
AcDbBlockReference
  2
*B9
 10
0.0
 20
0.0
 30
0.0
  0
INSERT
  5
29B
100
AcDbEntity
  8
0
  6
Continuous
 62
     0
100
AcDbBlockReference
  2
*B10
 10
0.0
 20
0.0
 30
0.0
  0
INSERT
  5
2A2
100
AcDbEntity
  8
0
  6
Continuous
 62
     0
100
AcDbBlockReference
  2
*B11
 10
0.0
 20
0.0
 30
0.0
  0
INSERT
  5
2A9
100
AcDbEntity
  8
0
  6
Continuous
 62
     0
100
AcDbBlockReference
  2
*B12
 10
0.0
 20
0.0
 30
0.0
  0
INSERT
  5
2B0
100
AcDbEntity
  8
0
  6
Continuous
 62
     0
100
AcDbBlockReference
  2
*B13
 10
0.0
 20
0.0
 30
0.0
  0
INSERT
  5
2B7
100
AcDbEntity
  8
0
  6
Continuous
 62
     0
100
AcDbBlockReference
  2
*B14
 10
0.0
 20
0.0
 30
0.0
  0
INSERT
  5
2BE
100
AcDbEntity
  8
0
  6
Continuous
 62
     0
100
AcDbBlockReference
  2
*B15
 10
0.0
 20
0.0
 30
0.0
  0
INSERT
  5
2C5
100
AcDbEntity
  8
0
  6
Continuous
 62
     0
100
AcDbBlockReference
  2
*B16
 10
0.0
 20
0.0
 30
0.0
  0
INSERT
  5
2CC
100
AcDbEntity
  8
0
  6
Continuous
 62
     0
100
AcDbBlockReference
  2
*B17
 10
0.0
 20
0.0
 30
0.0
  0
INSERT
  5
2D3
100
AcDbEntity
  8
0
  6
Continuous
 62
     0
100
AcDbBlockReference
  2
*B18
 10
0.0
 20
0.0
 30
0.0
  0
INSERT
  5
2DA
100
AcDbEntity
  8
0
  6
Continuous
 62
     0
100
AcDbBlockReference
  2
*B19
 10
0.0
 20
0.0
 30
0.0
  0
INSERT
  5
2E1
100
AcDbEntity
  8
0
  6
Continuous
 62
     0
100
AcDbBlockReference
  2
*B20
 10
0.0
 20
0.0
 30
0.0
  0
INSERT
  5
2E8
100
AcDbEntity
  8
0
  6
Continuous
 62
     0
100
AcDbBlockReference
  2
*B21
 10
0.0
 20
0.0
 30
0.0
  0
INSERT
  5
2EE
100
AcDbEntity
  8
0
  6
Continuous
 62
     8
100
AcDbBlockReference
  2
*B22
 10
0.0
 20
0.0
 30
0.0
  0
INSERT
  5
2F3
100
AcDbEntity
  8
0
  6
Continuous
 62
     8
100
AcDbBlockReference
  2
*B23
 10
0.0
 20
0.0
 30
0.0
  0
INSERT
  5
2F8
100
AcDbEntity
  8
0
  6
Continuous
 62
     8
100
AcDbBlockReference
  2
*B24
 10
0.0
 20
0.0
 30
0.0
  0
INSERT
  5
2FD
100
AcDbEntity
  8
0
  6
Continuous
 62
     8
100
AcDbBlockReference
  2
*B25
 10
0.0
 20
0.0
 30
0.0
  0
INSERT
  5
302
100
AcDbEntity
  8
0
  6
Continuous
 62
     8
100
AcDbBlockReference
  2
*B26
 10
0.0
 20
0.0
 30
0.0
  0
INSERT
  5
308
100
AcDbEntity
  8
0
  6
Continuous
 62
     8
100
AcDbBlockReference
  2
*B27
 10
0.0
 20
0.0
 30
0.0
  0
INSERT
  5
30D
100
AcDbEntity
  8
0
  6
Continuous
 62
     8
100
AcDbBlockReference
  2
*B28
 10
0.0
 20
0.0
 30
0.0
  0
INSERT
  5
312
100
AcDbEntity
  8
0
  6
Continuous
 62
     8
100
AcDbBlockReference
  2
*B29
 10
0.0
 20
0.0
 30
0.0
  0
INSERT
  5
318
100
AcDbEntity
  8
0
  6
Continuous
 62
     8
100
AcDbBlockReference
  2
*B30
 10
0.0
 20
0.0
 30
0.0
  0
INSERT
  5
31D
100
AcDbEntity
  8
0
  6
Continuous
 62
     8
100
AcDbBlockReference
  2
*B31
 10
0.0
 20
0.0
 30
0.0
  0
INSERT
  5
322
100
AcDbEntity
  8
0
  6
Continuous
 62
     8
100
AcDbBlockReference
  2
*B32
 10
0.0
 20
0.0
 30
0.0
  0
INSERT
  5
32D
100
AcDbEntity
  8
0
  6
Continuous
 62
     8
100
AcDbBlockReference
  2
*B33
 10
0.0
 20
0.0
 30
0.0
  0
INSERT
  5
332
100
AcDbEntity
  8
0
  6
Continuous
 62
     8
100
AcDbBlockReference
  2
*B34
 10
0.0
 20
0.0
 30
0.0
  0
INSERT
  5
337
100
AcDbEntity
  8
0
  6
Continuous
 62
     8
100
AcDbBlockReference
  2
*B35
 10
0.0
 20
0.0
 30
0.0
  0
INSERT
  5
354
100
AcDbEntity
  8
0
  6
Continuous
 62
     8
100
AcDbBlockReference
  2
*B36
 10
0.0
 20
0.0
 30
0.0
  0
INSERT
  5
361
100
AcDbEntity
  8
0
  6
Continuous
 62
     8
100
AcDbBlockReference
  2
*B37
 10
0.0
 20
0.0
 30
0.0
  0
INSERT
  5
367
100
AcDbEntity
  8
0
  6
Continuous
 62
     8
100
AcDbBlockReference
  2
*B38
 10
0.0
 20
0.0
 30
0.0
  0
INSERT
  5
36D
100
AcDbEntity
  8
0
  6
Continuous
 62
     8
100
AcDbBlockReference
  2
*B39
 10
0.0
 20
0.0
 30
0.0
  0
INSERT
  5
374
100
AcDbEntity
  8
0
  6
Continuous
 62
     8
100
AcDbBlockReference
  2
*B40
 10
0.0
 20
0.0
 30
0.0
  0
INSERT
  5
379
100
AcDbEntity
  8
0
  6
Continuous
 62
     8
100
AcDbBlockReference
  2
*B41
 10
0.0
 20
0.0
 30
0.0
  0
INSERT
  5
37E
100
AcDbEntity
  8
0
  6
Continuous
 62
     8
100
AcDbBlockReference
  2
*B42
 10
0.0
 20
0.0
 30
0.0
  0
INSERT
  5
384
100
AcDbEntity
  8
0
  6
Continuous
 62
     8
100
AcDbBlockReference
  2
*B43
 10
0.0
 20
0.0
 30
0.0
  0
INSERT
  5
38B
100
AcDbEntity
  8
0
  6
Continuous
 62
     8
100
AcDbBlockReference
  2
*B44
 10
0.0
 20
0.0
 30
0.0
  0
INSERT
  5
391
100
AcDbEntity
  8
0
  6
Continuous
 62
     8
100
AcDbBlockReference
  2
*B45
 10
0.0
 20
0.0
 30
0.0
  0
INSERT
  5
396
100
AcDbEntity
  8
0
  6
Continuous
 62
     8
100
AcDbBlockReference
  2
*B46
 10
0.0
 20
0.0
 30
0.0
  0
INSERT
  5
3A3
100
AcDbEntity
  8
0
  6
Continuous
 62
     8
100
AcDbBlockReference
  2
*B47
 10
0.0
 20
0.0
 30
0.0
  0
INSERT
  5
3A9
100
AcDbEntity
  8
0
  6
Continuous
 62
     8
100
AcDbBlockReference
  2
*B48
 10
0.0
 20
0.0
 30
0.0
  0
INSERT
  5
3AE
100
AcDbEntity
  8
0
  6
Continuous
 62
     8
100
AcDbBlockReference
  2
*B49
 10
0.0
 20
0.0
 30
0.0
  0
INSERT
  5
3BB
100
AcDbEntity
  8
0
  6
Continuous
 62
     8
100
AcDbBlockReference
  2
*B50
 10
0.0
 20
0.0
 30
0.0
  0
INSERT
  5
3C4
100
AcDbEntity
  8
0
  6
Continuous
 62
     8
100
AcDbBlockReference
  2
*B51
 10
0.0
 20
0.0
 30
0.0
  0
INSERT
  5
3C9
100
AcDbEntity
  8
0
  6
Continuous
 62
     8
100
AcDbBlockReference
  2
*B52
 10
0.0
 20
0.0
 30
0.0
  0
INSERT
  5
3CF
100
AcDbEntity
  8
0
  6
Continuous
 62
     8
100
AcDbBlockReference
  2
*B53
 10
0.0
 20
0.0
 30
0.0
  0
INSERT
  5
3E9
100
AcDbEntity
  8
0
  6
Continuous
 62
     8
100
AcDbBlockReference
  2
*B54
 10
0.0
 20
0.0
 30
0.0
  0
INSERT
  5
3EE
100
AcDbEntity
  8
0
  6
Continuous
 62
     8
100
AcDbBlockReference
  2
*B55
 10
0.0
 20
0.0
 30
0.0
  0
INSERT
  5
3F4
100
AcDbEntity
  8
0
  6
Continuous
 62
     6
100
AcDbBlockReference
  2
*B56
 10
0.0
 20
0.0
 30
0.0
  0
INSERT
  5
3FA
100
AcDbEntity
  8
0
  6
Continuous
 62
     6
100
AcDbBlockReference
  2
*B57
 10
0.0
 20
0.0
 30
0.0
  0
INSERT
  5
400
100
AcDbEntity
  8
0
  6
Continuous
 62
     6
100
AcDbBlockReference
  2
*B58
 10
0.0
 20
0.0
 30
0.0
  0
INSERT
  5
406
100
AcDbEntity
  8
0
  6
Continuous
 62
     6
100
AcDbBlockReference
  2
*B59
 10
0.0
 20
0.0
 30
0.0
  0
INSERT
  5
40C
100
AcDbEntity
  8
0
  6
Continuous
 62
     6
100
AcDbBlockReference
  2
*B60
 10
0.0
 20
0.0
 30
0.0
  0
INSERT
  5
412
100
AcDbEntity
  8
0
  6
Continuous
 62
     6
100
AcDbBlockReference
  2
*B61
 10
0.0
 20
0.0
 30
0.0
  0
INSERT
  5
418
100
AcDbEntity
  8
0
  6
Continuous
 62
     6
100
AcDbBlockReference
  2
*B62
 10
0.0
 20
0.0
 30
0.0
  0
INSERT
  5
41E
100
AcDbEntity
  8
0
  6
Continuous
 62
     6
100
AcDbBlockReference
  2
*B63
 10
0.0
 20
0.0
 30
0.0
  0
INSERT
  5
423
100
AcDbEntity
  8
TEXT
  6
Continuous
 62
     0
100
AcDbBlockReference
  2
*B64
 10
0.0
 20
0.0
 30
0.0
  0
INSERT
  5
428
100
AcDbEntity
  8
TEXT
  6
Continuous
 62
     0
100
AcDbBlockReference
  2
*B65
 10
0.0
 20
0.0
 30
0.0
  0
INSERT
  5
42D
100
AcDbEntity
  8
TEXT
  6
Continuous
 62
     0
100
AcDbBlockReference
  2
*B66
 10
0.0
 20
0.0
 30
0.0
  0
INSERT
  5
432
100
AcDbEntity
  8
TEXT
  6
Continuous
 62
     0
100
AcDbBlockReference
  2
*B67
 10
0.0
 20
0.0
 30
0.0
  0
INSERT
  5
437
100
AcDbEntity
  8
TEXT
  6
Continuous
 62
     0
100
AcDbBlockReference
  2
*B68
 10
0.0
 20
0.0
 30
0.0
  0
INSERT
  5
43C
100
AcDbEntity
  8
TEXT
  6
Continuous
 62
     0
100
AcDbBlockReference
  2
*B69
 10
0.0
 20
0.0
 30
0.0
  0
INSERT
  5
441
100
AcDbEntity
  8
TEXT
  6
Continuous
 62
     0
100
AcDbBlockReference
  2
*B70
 10
0.0
 20
0.0
 30
0.0
  0
INSERT
  5
446
100
AcDbEntity
  8
TEXT
  6
Continuous
 62
     0
100
AcDbBlockReference
  2
*B71
 10
0.0
 20
0.0
 30
0.0
  0
INSERT
  5
44B
100
AcDbEntity
  8
TEXT
  6
Continuous
 62
     0
100
AcDbBlockReference
  2
*B72
 10
0.0
 20
0.0
 30
0.0
  0
INSERT
  5
450
100
AcDbEntity
  8
TEXT
  6
Continuous
 62
     0
100
AcDbBlockReference
  2
*B73
 10
0.0
 20
0.0
 30
0.0
  0
INSERT
  5
455
100
AcDbEntity
  8
TEXT
  6
Continuous
 62
     0
100
AcDbBlockReference
  2
*B74
 10
0.0
 20
0.0
 30
0.0
  0
INSERT
  5
45A
100
AcDbEntity
  8
TEXT
  6
Continuous
 62
     0
100
AcDbBlockReference
  2
*B75
 10
0.0
 20
0.0
 30
0.0
  0
INSERT
  5
45F
100
AcDbEntity
  8
TEXT
  6
Continuous
 62
     0
100
AcDbBlockReference
  2
*B76
 10
0.0
 20
0.0
 30
0.0
  0
INSERT
  5
464
100
AcDbEntity
  8
TEXT
  6
Continuous
 62
     0
100
AcDbBlockReference
  2
*B77
 10
0.0
 20
0.0
 30
0.0
  0
INSERT
  5
469
100
AcDbEntity
  8
TEXT
  6
Continuous
 62
     0
100
AcDbBlockReference
  2
*B78
 10
0.0
 20
0.0
 30
0.0
  0
INSERT
  5
46E
100
AcDbEntity
  8
TEXT
  6
Continuous
 62
     0
100
AcDbBlockReference
  2
*B79
 10
0.0
 20
0.0
 30
0.0
  0
INSERT
  5
473
100
AcDbEntity
  8
TEXT
  6
Continuous
 62
     0
100
AcDbBlockReference
  2
*B80
 10
0.0
 20
0.0
 30
0.0
  0
INSERT
  5
478
100
AcDbEntity
  8
TEXT
  6
Continuous
 62
     0
100
AcDbBlockReference
  2
*B81
 10
0.0
 20
0.0
 30
0.0
  0
INSERT
  5
47D
100
AcDbEntity
  8
TEXT
  6
Continuous
 62
     0
100
AcDbBlockReference
  2
*B82
 10
0.0
 20
0.0
 30
0.0
  0
INSERT
  5
482
100
AcDbEntity
  8
TEXT
  6
Continuous
 62
     0
100
AcDbBlockReference
  2
*B83
 10
0.0
 20
0.0
 30
0.0
  0
INSERT
  5
487
100
AcDbEntity
  8
TEXT
  6
Continuous
 62
     0
100
AcDbBlockReference
  2
*B84
 10
0.0
 20
0.0
 30
0.0
  0
INSERT
  5
48C
100
AcDbEntity
  8
TEXT
  6
Continuous
 62
     0
100
AcDbBlockReference
  2
*B85
 10
0.0
 20
0.0
 30
0.0
  0
INSERT
  5
491
100
AcDbEntity
  8
TEXT
  6
Continuous
 62
     0
100
AcDbBlockReference
  2
*B86
 10
0.0
 20
0.0
 30
0.0
  0
ENDSEC
  0
SECTION
  2
OBJECTS
  0
DICTIONARY
  5
19
100
AcDbDictionary
280
     0
281
     1
  3
ACAD_GROUP
350
1A
  3
ACAD_MLINESTYLE
350
1B
  3
ACAD_LAYOUT
350
1E
  3
ACAD_PLOTSETTINGS
350
22
  3
ACAD_PLOTSTYLENAME
350
1F
  3
ACAD_WIPEOUT_VARS
350
23
  0
DICTIONARY
  5
1A
102
{ACAD_REACTORS
330
19
102
}
100
AcDbDictionary
280
     0
281
     1
  0
DICTIONARY
  5
1B
102
{ACAD_REACTORS
330
19
102
}
100
AcDbDictionary
280
     0
281
     1
  3
Standard
350
1C
  0
MLINESTYLE
  5
1C
102
{ACAD_REACTORS
330
1B
102
}
100
AcDbMlineStyle
  2
Standard
 70
     0
  3

 62
     0
 51
90.0
 52
90.0
 71
     2
 49
0.5
 62
   256
  6
BYLAYER
 49
-0.5
 62
   256
  6
BYLAYER
  0
ACDBDICTIONARYWDFLT
  5
1F
102
{ACAD_REACTORS
330
19
102
}
100
AcDbDictionary
281
     1
  3
Normal
350
1D
100
AcDbDictionaryWithDefault
340
1D
  0
ACDBPLACEHOLDER
  5
1D
102
{ACAD_REACTORS
330
1F
102
}
  0
LAYOUT
  5
20
102
{ACAD_REACTORS
330
1E
102
}
100
AcDbPlotSettings
  1

  2

  4

  6

 40
0.0
 41
0.0
 42
0.0
 43
0.0
 44
0.0
 45
0.0
 46
0.0
 47
0.0
 48
0.0
 49
0.0
140
0.0
141
0.0
142
1.0
143
1.0
 70
     0
 72
     0
 73
     0
 74
     0
  7

 75
     0
147
1.0
148
0.0
149
0.0
100
AcDbLayout
  1
Model
 70
     0
 71
     0
 10
0.0
 20
0.0
 11
0.0
 21
0.0
 12
0.0
 22
0.0
 32
0.0
 14
0.0
 24
0.0
 34
0.0
 15
0.0
 25
0.0
 35
0.0
146
0.0
 13
0.0
 23
0.0
 33
0.0
 16
0.0
 26
0.0
 36
0.0
 17
0.0
 27
0.0
 37
0.0
 76
     0
330
A
331
0
345
0
346
0
  0
LAYOUT
  5
21
102
{ACAD_REACTORS
330
1E
102
}
100
AcDbPlotSettings
  1

  2

  4

  6

 40
0.0
 41
0.0
 42
0.0
 43
0.0
 44
0.0
 45
0.0
 46
0.0
 47
0.0
 48
0.0
 49
0.0
140
0.0
141
0.0
142
1.0
143
1.0
 70
     0
 72
     0
 73
     0
 74
     0
  7

 75
     0
147
1.0
148
0.0
149
0.0
100
AcDbLayout
  1
Layout1
 70
     0
 71
     0
 10
0.0
 20
0.0
 11
0.0
 21
0.0
 12
0.0
 22
0.0
 32
0.0
 14
0.0
 24
0.0
 34
0.0
 15
0.0
 25
0.0
 35
0.0
146
0.0
 13
0.0
 23
0.0
 33
0.0
 16
0.0
 26
0.0
 36
0.0
 17
0.0
 27
0.0
 37
0.0
 76
     0
330
B
331
0
345
0
346
0
  0
DICTIONARY
  5
1E
102
{ACAD_REACTORS
330
19
102
}
100
AcDbDictionary
280
     0
281
     1
  3
Layout1
350
21
  3
Model
350
20
  0
DICTIONARY
  5
22
102
{ACAD_REACTORS
330
19
102
}
100
AcDbDictionary
280
     0
281
     1
  0
WIPEOUTVARIABLES
  5
23
100
AcDbWipeoutVariables
 70
     1
  0
ENDSEC
  0
EOF
