  0
SECTION
  2
HEADER
  9
$ACADVER
  1
AC1015
  9
$ACADMAINTVER
 70
     6
  9
$DWGCODEPAGE
  3
DOS850
  9
$INSBASE
 10
0.0
 20
0.0
 30
0.0
  9
$EXTMIN
 10
0.0
 20
0.0
 30
0.0
  9
$EXTMAX
 10
297.0
 20
210.0
 30
0.0
  9
$LIMMIN
 10
0.0
 20
0.0
  9
$LIMMAX
 10
297.0
 20
210.0
  9
$ORTHOMODE
 70
     0
  9
$REGENMODE
 70
     1
  9
$FILLMODE
 70
     1
  9
$QTEXTMODE
 70
     0
  9
$MIRRTEXT
 70
     1
  9
$LTSCALE
 40
25.4
  9
$ATTMODE
 70
     1
  9
$TEXTSIZE
 40
3.5
  9
$TRACEWID
 40
0.05
  9
$TEXTSTYLE
  7
Standard
  9
$CLAYER
  8
0
  9
$CELTYPE
  6
Continuous
  9
$CECOLOR
 62
   256
  9
$CELTSCALE
 40
1.0
  9
$DISPSILH
 70
     0
  9
$DIMSCALE
 40
1.0
  9
$DIMASZ
 40
5.0
  9
$DIMEXO
 40
3.0
  9
$DIMDLI
 40
0.38
  9
$DIMRND
 40
0.0
  9
$DIMDLE
 40
0.0
  9
$DIMEXE
 40
2.0
  9
$DIMTP
 40
0.0
  9
$DIMTM
 40
0.0
  9
$DIMTXT
 40
3.5
  9
$DIMCEN
 40
4.0
  9
$DIMTSZ
 40
0.0
  9
$DIMTOL
 70
     0
  9
$DIMLIM
 70
     0
  9
$DIMTIH
 70
     1
  9
$DIMTOH
 70
     1
  9
$DIMSE1
 70
     0
  9
$DIMSE2
 70
     0
  9
$DIMTAD
 70
     0
  9
$DIMZIN
 70
     0
  9
$DIMBLK
  1

  9
$DIMASO
 70
     1
  9
$DIMSHO
 70
     1
  9
$DIMPOST
  1

  9
$DIMAPOST
  1

  9
$DIMALT
 70
     0
  9
$DIMALTD
 70
     2
  9
$DIMALTF
 40
25.4
  9
$DIMLFAC
 40
1.0
  9
$DIMTOFL
 70
     0
  9
$DIMTVP
 40
0.0
  9
$DIMTIX
 70
     0
  9
$DIMSOXD
 70
     0
  9
$DIMSAH
 70
     0
  9
$DIMBLK1
  1

  9
$DIMBLK2
  1

  9
$DIMSTYLE
  2
Standard
  9
$DIMCLRD
 70
     0
  9
$DIMCLRE
 70
     0
  9
$DIMCLRT
 70
     0
  9
$DIMTFAC
 40
1.0
  9
$DIMGAP
 40
1.0
  9
$DIMJUST
 70
     0
  9
$DIMSD1
 70
     0
  9
$DIMSD2
 70
     0
  9
$DIMTOLJ
 70
     1
  9
$DIMTZIN
 70
     0
  9
$DIMALTZ
 70
     0
  9
$DIMALTTZ
 70
     0
  9
$DIMUPT
 70
     0
  9
$DIMDEC
 70
     4
  9
$DIMTDEC
 70
     4
  9
$DIMALTU
 70
     2
  9
$DIMALTTD
 70
     2
  9
$DIMTXSTY
  7
Standard
  9
$DIMAUNIT
 70
     0
  9
$DIMADEC
 70
     0
  9
$DIMALTRND
 40
0.0
  9
$DIMAZIN
 70
     0
  9
$DIMDSEP
 70
     0
  9
$DIMATFIT
 70
     3
  9
$DIMFRAC
 70
     0
  9
$DIMLDRBLK
  1

  9
$DIMLUNIT
 70
     2
  9
$DIMLWD
 70
     0
  9
$DIMLWE
 70
     0
  9
$DIMTMOVE
 70
     0
  9
$LUNITS
 70
     2
  9
$LUPREC
 70
     4
  9
$SKETCHINC
 40
0.1
  9
$FILLETRAD
 40
0.0
  9
$AUNITS
 70
     0
  9
$AUPREC
 70
     0
  9
$MENU
  1
acad
  9
$ELEVATION
 40
0.0
  9
$PELEVATION
 40
0.0
  9
$THICKNESS
 40
0.0
  9
$LIMCHECK
 70
     0
  9
$CHAMFERA
 40
0.0
  9
$CHAMFERB
 40
0.0
  9
$CHAMFERC
 40
0.0
  9
$CHAMFERD
 40
0.0
  9
$SKPOLY
 70
     0
  9
$TDCREATE
 40
0.000000000
  9
$TDUCREATE
 40
0.000000000
  9
$TDUPDATE
 40
0.000000000
  9
$TDUUPDATE
 40
0.000000000
  9
$TDINDWG
 40
0.0000000000
  9
$TDUSRTIMER
 40
0.0000000000
  9
$USRTIMER
 70
     1
  9
$ANGBASE
 50
0.0
  9
$ANGDIR
 70
     0
  9
$PDMODE
 70
     0
  9
$PDSIZE
 40
0.0
  9
$PLINEWID
 40
0.0
  9
$SPLFRAME
 70
     0
  9
$SPLINETYPE
 70
     6
  9
$SPLINESEGS
 70
     8
  9
$HANDSEED
  5
5E9
  9
$SURFTAB1
 70
     6
  9
$SURFTAB2
 70
     6
  9
$SURFTYPE
 70
     6
  9
$SURFU
 70
     6
  9
$SURFV
 70
     6
  9
$UCSBASE
  2

  9
$UCSNAME
  2

  9
$UCSORG
 10
0.0
 20
0.0
 30
0.0
  9
$UCSXDIR
 10
1.0
 20
0.0
 30
0.0
  9
$UCSYDIR
 10
0.0
 20
1.0
 30
0.0
  9
$UCSORTHOREF
  2

  9
$UCSORTHOVIEW
 70
     0
  9
$UCSORGTOP
 10
0.0
 20
0.0
 30
0.0
  9
$UCSORGBOTTOM
 10
0.0
 20
0.0
 30
0.0
  9
$UCSORGLEFT
 10
0.0
 20
0.0
 30
0.0
  9
$UCSORGRIGHT
 10
0.0
 20
0.0
 30
0.0
  9
$UCSORGFRONT
 10
0.0
 20
0.0
 30
0.0
  9
$UCSORGBACK
 10
0.0
 20
0.0
 30
0.0
  9
$PUCSBASE
  2

  9
$PUCSNAME
  2

  9
$PUCSORG
 10
0.0
 20
0.0
 30
0.0
  9
$PUCSXDIR
 10
1.0
 20
0.0
 30
0.0
  9
$PUCSYDIR
 10
0.0
 20
1.0
 30
0.0
  9
$PUCSORTHOREF
  2

  9
$PUCSORTHOVIEW
 70
     0
  9
$PUCSORGTOP
 10
0.0
 20
0.0
 30
0.0
  9
$PUCSORGBOTTOM
 10
0.0
 20
0.0
 30
0.0
  9
$PUCSORGLEFT
 10
0.0
 20
0.0
 30
0.0
  9
$PUCSORGRIGHT
 10
0.0
 20
0.0
 30
0.0
  9
$PUCSORGFRONT
 10
0.0
 20
0.0
 30
0.0
  9
$PUCSORGBACK
 10
0.0
 20
0.0
 30
0.0
  9
$USERI1
 70
     0
  9
$USERI2
 70
     0
  9
$USERI3
 70
     0
  9
$USERI4
 70
     0
  9
$USERI5
 70
     0
  9
$USERR1
 40
0.0
  9
$USERR2
 40
0.0
  9
$USERR3
 40
0.0
  9
$USERR4
 40
0.0
  9
$USERR5
 40
0.0
  9
$WORLDVIEW
 70
     1
  9
$SHADEDGE
 70
     3
  9
$SHADEDIF
 70
    70
  9
$TILEMODE
 70
     1
  9
$MAXACTVP
 70
    16
  9
$PINSBASE
 10
0.0
 20
0.0
 30
0.0
  9
$PLIMCHECK
 70
     0
  9
$PEXTMIN
 10
1.000000E+20
 20
1.000000E+20
 30
1.000000E+20
  9
$PEXTMAX
 10
-1.000000E+20
 20
-1.000000E+20
 30
-1.000000E+20
  9
$PLIMMIN
 10
0.0
 20
0.0
  9
$PLIMMAX
 10
297.0
 20
210.0
  9
$UNITMODE
 70
     0
  9
$VISRETAIN
 70
     0
  9
$PLINEGEN
 70
     1
  9
$PSLTSCALE
 70
     0
  9
$TREEDEPTH
 70
  3020
  9
$CMLSTYLE
  2
Standard
  9
$CMLJUST
 70
     0
  9
$CMLSCALE
 40
1.0
  9
$PROXYGRAPHICS
 70
     0
  9
$MEASUREMENT
 70
     0
  9
$CELWEIGHT
370
     0
  9
$ENDCAPS
280
     0
  9
$JOINSTYLE
280
     0
  9
$LWDISPLAY
290
     0
  9
$INSUNITS
 70
     0
  9
$HYPERLINKBASE
  1

  9
$XEDIT
290
     1
  9
$CEPSNTYPE
380
     0
  9
$PSTYLEMODE
290
     0
  9
$FINGERPRINTGUID
  2

  9
$VERSIONGUID
  2

  9
$EXTNAMES
290
     1
  9
$PSVPSCALE
 40
0.0
  0
ENDSEC
  0
SECTION
  2
CLASSES
  0
CLASS
  1
LWPOLYLINE
  2
AcDbPolyline
  3
"AutoCAD"
 90
        0
280
     0
281
     1
  0
CLASS
  1
IMAGE
  2
AcDbRasterImage
  3
ISM
 90
      127
280
     0
281
     1
  0
CLASS
  1
OLE2FRAME
  2
AcDbOle2Frame
  3
""
 90
        0
280
     0
281
     1
  0
CLASS
  1
HATCH
  2
AcDbHatch
  3
"ACAD_SEDONA"
 90
        0
280
     0
281
     1
  0
CLASS
  1
DICTIONARYVAR
  2
AcDbDictionaryVar
  3
"AutoCAD"
 90
        0
280
     0
281
     0
  0
CLASS
  1
RASTERVARIABLES
  2
AcDbRasterVariables
  3
ISM
 90
        0
280
     0
281
     0
  0
CLASS
  1
IMAGEDEF
  2
AcDbRasterImageDef
  3
ISM
 90
        0
280
     0
281
     0
  0
CLASS
  1
IMAGEDEF_REACTOR
  2
AcDbRasterImageDefReactor
  3
ISM
 90
        1
280
     0
281
     0
  0
CLASS
  1
IDBUFFER
  2
AcDbIdBuffer
  3
"Acad"
 90
        0
280
     0
281
     0
  0
CLASS
  1
SPATIAL_FILTER
  2
AcDbSpatialFilter
  3
"Acad"
 90
        0
280
     0
281
     0
  0
CLASS
  1
XRECORD
  2
AcDbXrecord
  3
"<Built In>"
 90
        0
280
     0
281
     0
  0
CLASS
  1
SORTENTSTABLE
  2
AcDbSortentsTable
  3
"AutoCAD"
 90
        0
280
     0
281
     0
  0
CLASS
  1
LAYER_INDEX
  2
AcDbLayerIndex
  3
"Acad"
 90
        0
280
     0
281
     0
  0
CLASS
  1
SPATIAL_INDEX
  2
AcDbSpatialIndex
  3
"Acad"
 90
        0
280
     0
281
     0
  0
CLASS
  1
OBJECT_PTR
  2
CAseDLPNTableRecord
  3
"ASE-LPNTableRecord"
 90
        1
280
     0
281
     0
  0
CLASS
  1
LAYOUT
  2
AcDbLayout
  3
"AutoCAD 2000"
 90
        1
280
     0
281
     0
  0
CLASS
  1
PLOTSETTINGS
  2
AcDbPlotSettings
  3
"AutoCAD 2000"
 90
        1
280
     0
281
     0
  0
CLASS
  1
ACDBDICTIONARYWDFLT
  2
AcDbDictionaryWithDefault
  3
"AutoCAD 2000"
 90
        1
280
     0
281
     0
  0
CLASS
  1
ACDBPLACEHOLDER
  2
AcDbPlaceHolder
  3
"AutoCAD 2000"
 90
        1
280
     0
281
     0
  0
CLASS
  1
VBA_PROJECT
  2
AcDbVbaProject
  3
"acadvba"
 90
        1
280
     0
281
     0
  0
CLASS
  1
WIPEOUT
  2
AcDbWipeout
  3
WipeOut|AutoCAD Express Tool|expresstools@autodesk.com
 90
      127
280
     0
281
     1
  0
CLASS
  1
WIPEOUTVARIABLES
  2
AcDbWipeoutVariables
  3
WipeOut|AutoCAD Express Tool|expresstools@autodesk.com
 90
        0
280
     0
281
     0
  0
CLASS
  1
RTEXT
  2
RText
  3
RText|AutoCAD Express Tool|expresstools@autodesk.com
 90
        0
280
     0
281
     1
  0
CLASS
  1
ARCALIGNEDTEXT
  2
AcDbArcAlignedText
  3
ATEXT|AutoCAD Express Tool|expresstools@autodesk.com
 90
        0
280
     0
281
     1
  0
ENDSEC
  0
SECTION
  2
TABLES
  0
TABLE
  2
VPORT
  5
7
100
AcDbSymbolTable
 70
     1
  0
VPORT
  5
15
100
AcDbSymbolTableRecord
100
AcDbViewportTableRecord
  2
*ACTIVE
 70
     0
 10
0.0
 20
0.0
 11
1.0
 21
1.0
 12
6.591288
 22
4.579184
 13
0.0
 23
0.0
 14
1.0
 24
1.0
 15
0.0
 25
0.0
 16
0.0
 26
0.0
 36
1.0
 17
0.0
 27
0.0
 37
0.0
 40
9.158369
 41
0.688564
 42
50.0
 43
0.0
 44
0.0
 50
0.0
 51
0.0
 71
     0
 72
   100
 73
     1
 74
     1
 75
     0
 76
     0
 77
     0
 78
     0
281
     0
 65
     0
110
0.0
120
0.0
130
0.0
111
1.0
121
0.0
131
0.0
112
0.0
122
1.0
132
0.0
345
0
346
0
 79
     0
146
0.0
  0
ENDTAB
  0
TABLE
  2
LTYPE
  5
4
100
AcDbSymbolTable
 70
     7
  0
LTYPE
  5
11
100
AcDbSymbolTableRecord
100
AcDbLinetypeTableRecord
  2
ByBlock
 70
    64
  3

 72
    65
 73
     0
 40
0.0
  0
LTYPE
  5
12
100
AcDbSymbolTableRecord
100
AcDbLinetypeTableRecord
  2
ByLayer
 70
    64
  3

 72
    65
 73
     0
 40
0.0
  0
LTYPE
  5
13
100
AcDbSymbolTableRecord
100
AcDbLinetypeTableRecord
  2
Continuous
 70
    64
  3
Solid line
 72
    65
 73
     0
 40
0.0
  0
LTYPE
  5
24
100
AcDbSymbolTableRecord
100
AcDbLinetypeTableRecord
  2
HIDDEN
 70
    64
  3
_ _ _ _ _ _ _ _ _ _ _ _ _ _ _ _ _ _ _ _ _ _ _ _
 72
    65
 73
     2
 40
0.1875
 49
0.125
 74
     0
 49
-0.0625
 74
     0
  0
LTYPE
  5
25
100
AcDbSymbolTableRecord
100
AcDbLinetypeTableRecord
  2
DOTTED
 70
    64
  3
...............................................
 72
    65
 73
     2
 40
0.125
 49
0.0
 74
     0
 49
-0.125
 74
     0
  0
LTYPE
  5
26
100
AcDbSymbolTableRecord
100
AcDbLinetypeTableRecord
  2
CENTER
 70
    64
  3
____ _ ____ _ ____ _ ____ _ ____ _ ____ _ ____ 
 72
    65
 73
     4
 40
1.125
 49
0.75
 74
     0
 49
-0.125
 74
     0
 49
0.125
 74
     0
 49
-0.125
 74
     0
  0
LTYPE
  5
27
100
AcDbSymbolTableRecord
100
AcDbLinetypeTableRecord
  2
PHANTOM
 70
    64
  3
______  __  __  ______  __  __  ______  __  __ 
 72
    65
 73
     6
 40
1.25
 49
0.625
 74
     0
 49
-0.125
 74
     0
 49
0.125
 74
     0
 49
-0.125
 74
     0
 49
0.125
 74
     0
 49
-0.125
 74
     0
  0
ENDTAB
  0
TABLE
  2
LAYER
  5
2
100
AcDbSymbolTable
 70
     2
  0
LAYER
  5
14
100
AcDbSymbolTableRecord
100
AcDbLayerTableRecord
  2
0
 70
     0
 62
     7
  6
Continuous
290
     1
370
    -3
390
1D
  0
LAYER
  5
28
100
AcDbSymbolTableRecord
100
AcDbLayerTableRecord
  2
TEXT
 70
     0
 62
     8
  6
Continuous
290
     1
370
    -3
390
1F
  0
ENDTAB
  0
TABLE
  2
STYLE
  5
3
100
AcDbSymbolTable
 70
     1
  0
STYLE
  5
17
100
AcDbSymbolTableRecord
100
AcDbTextStyleTableRecord
  2
Standard
 70
     0
 40
0.0
 41
1.0
 50
0.0
 71
     0
 42
0.0
  3
txt
  4

  0
ENDTAB
  0
TABLE
  2
VIEW
  5
5
100
AcDbSymbolTable
 70
     0
  0
ENDTAB
  0
TABLE
  2
UCS
  5
6
100
AcDbSymbolTable
 70
     0
  0
ENDTAB
  0
TABLE
  2
APPID
  5
8
100
AcDbSymbolTable
 70
     1
  0
APPID
  5
16
100
AcDbSymbolTableRecord
100
AcDbRegAppTableRecord
  2
ACAD
 70
     0
  0
ENDTAB
  0
TABLE
  2
DIMSTYLE
  5
9
100
AcDbSymbolTable
 70
     1
100
AcDbDimStyleTable
 71
     0
  0
DIMSTYLE
105
18
100
AcDbSymbolTableRecord
100
AcDbDimStyleTableRecord
  2
Standard
 70
     0
  3

  4

 40
1.0
 41
0.18
 42
0.0625
 43
0.38
 44
0.18
 45
0.0
 46
0.0
 47
0.0
 48
0.0
 71
     0
 72
     0
 73
     1
 74
     1
 75
     0
 76
     0
 77
     0
 78
     0
 79
     0
140
0.18
141
0.09
142
0.0
143
25.4
144
1.0
145
0.0
146
1.0
147
0.09
148
0.0
170
     0
171
     2
172
     0
173
     0
174
     0
175
     0
176
     0
177
     0
178
     0
179
     0
271
     4
272
     4
273
     2
274
     2
275
     0
276
     0
277
     2
278
    46
279
     0
280
     0
281
     0
282
     0
283
     1
284
     0
285
     0
286
     0
288
     0
340
17
341
0
342
0
343
0
344
0
371
    -2
372
    -2
  0
ENDTAB
  0
TABLE
  2
BLOCK_RECORD
  5
1
100
AcDbSymbolTable
 70
   104
  0
BLOCK_RECORD
  5
A
100
AcDbSymbolTableRecord
100
AcDbBlockTableRecord
  2
*MODEL_SPACE
340
20
  0
BLOCK_RECORD
  5
B
100
AcDbSymbolTableRecord
100
AcDbBlockTableRecord
  2
*PAPER_SPACE
340
21
  0
BLOCK_RECORD
  5
29
100
AcDbSymbolTableRecord
100
AcDbBlockTableRecord
  2
*B0
340
0
  0
BLOCK_RECORD
  5
2C
100
AcDbSymbolTableRecord
100
AcDbBlockTableRecord
  2
*B1
340
0
  0
BLOCK_RECORD
  5
21E
100
AcDbSymbolTableRecord
100
AcDbBlockTableRecord
  2
*B2
340
0
  0
BLOCK_RECORD
  5
305
100
AcDbSymbolTableRecord
100
AcDbBlockTableRecord
  2
*B3
340
0
  0
BLOCK_RECORD
  5
30B
100
AcDbSymbolTableRecord
100
AcDbBlockTableRecord
  2
*B4
340
0
  0
BLOCK_RECORD
  5
316
100
AcDbSymbolTableRecord
100
AcDbBlockTableRecord
  2
*B5
340
0
  0
BLOCK_RECORD
  5
319
100
AcDbSymbolTableRecord
100
AcDbBlockTableRecord
  2
*B6
340
0
  0
BLOCK_RECORD
  5
31F
100
AcDbSymbolTableRecord
100
AcDbBlockTableRecord
  2
*B7
340
0
  0
BLOCK_RECORD
  5
32A
100
AcDbSymbolTableRecord
100
AcDbBlockTableRecord
  2
*B8
340
0
  0
BLOCK_RECORD
  5
32D
100
AcDbSymbolTableRecord
100
AcDbBlockTableRecord
  2
*B9
340
0
  0
BLOCK_RECORD
  5
334
100
AcDbSymbolTableRecord
100
AcDbBlockTableRecord
  2
*B10
340
0
  0
BLOCK_RECORD
  5
33B
100
AcDbSymbolTableRecord
100
AcDbBlockTableRecord
  2
*B11
340
0
  0
BLOCK_RECORD
  5
342
100
AcDbSymbolTableRecord
100
AcDbBlockTableRecord
  2
*B12
340
0
  0
BLOCK_RECORD
  5
349
100
AcDbSymbolTableRecord
100
AcDbBlockTableRecord
  2
*B13
340
0
  0
BLOCK_RECORD
  5
350
100
AcDbSymbolTableRecord
100
AcDbBlockTableRecord
  2
*B14
340
0
  0
BLOCK_RECORD
  5
357
100
AcDbSymbolTableRecord
100
AcDbBlockTableRecord
  2
*B15
340
0
  0
BLOCK_RECORD
  5
35E
100
AcDbSymbolTableRecord
100
AcDbBlockTableRecord
  2
*B16
340
0
  0
BLOCK_RECORD
  5
365
100
AcDbSymbolTableRecord
100
AcDbBlockTableRecord
  2
*B17
340
0
  0
BLOCK_RECORD
  5
36C
100
AcDbSymbolTableRecord
100
AcDbBlockTableRecord
  2
*B18
340
0
  0
BLOCK_RECORD
  5
373
100
AcDbSymbolTableRecord
100
AcDbBlockTableRecord
  2
*B19
340
0
  0
BLOCK_RECORD
  5
37A
100
AcDbSymbolTableRecord
100
AcDbBlockTableRecord
  2
*B20
340
0
  0
BLOCK_RECORD
  5
381
100
AcDbSymbolTableRecord
100
AcDbBlockTableRecord
  2
*B21
340
0
  0
BLOCK_RECORD
  5
388
100
AcDbSymbolTableRecord
100
AcDbBlockTableRecord
  2
*B22
340
0
  0
BLOCK_RECORD
  5
38F
100
AcDbSymbolTableRecord
100
AcDbBlockTableRecord
  2
*B23
340
0
  0
BLOCK_RECORD
  5
396
100
AcDbSymbolTableRecord
100
AcDbBlockTableRecord
  2
*B24
340
0
  0
BLOCK_RECORD
  5
39D
100
AcDbSymbolTableRecord
100
AcDbBlockTableRecord
  2
*B25
340
0
  0
BLOCK_RECORD
  5
3A4
100
AcDbSymbolTableRecord
100
AcDbBlockTableRecord
  2
*B26
340
0
  0
BLOCK_RECORD
  5
3AF
100
AcDbSymbolTableRecord
100
AcDbBlockTableRecord
  2
*B27
340
0
  0
BLOCK_RECORD
  5
3B5
100
AcDbSymbolTableRecord
100
AcDbBlockTableRecord
  2
*B28
340
0
  0
BLOCK_RECORD
  5
3BA
100
AcDbSymbolTableRecord
100
AcDbBlockTableRecord
  2
*B29
340
0
  0
BLOCK_RECORD
  5
3BF
100
AcDbSymbolTableRecord
100
AcDbBlockTableRecord
  2
*B30
340
0
  0
BLOCK_RECORD
  5
3CA
100
AcDbSymbolTableRecord
100
AcDbBlockTableRecord
  2
*B31
340
0
  0
BLOCK_RECORD
  5
3D9
100
AcDbSymbolTableRecord
100
AcDbBlockTableRecord
  2
*B32
340
0
  0
BLOCK_RECORD
  5
3DF
100
AcDbSymbolTableRecord
100
AcDbBlockTableRecord
  2
*B33
340
0
  0
BLOCK_RECORD
  5
3E4
100
AcDbSymbolTableRecord
100
AcDbBlockTableRecord
  2
*B34
340
0
  0
BLOCK_RECORD
  5
3EA
100
AcDbSymbolTableRecord
100
AcDbBlockTableRecord
  2
*B35
340
0
  0
BLOCK_RECORD
  5
3EF
100
AcDbSymbolTableRecord
100
AcDbBlockTableRecord
  2
*B36
340
0
  0
BLOCK_RECORD
  5
3F4
100
AcDbSymbolTableRecord
100
AcDbBlockTableRecord
  2
*B37
340
0
  0
BLOCK_RECORD
  5
421
100
AcDbSymbolTableRecord
100
AcDbBlockTableRecord
  2
*B38
340
0
  0
BLOCK_RECORD
  5
426
100
AcDbSymbolTableRecord
100
AcDbBlockTableRecord
  2
*B39
340
0
  0
BLOCK_RECORD
  5
431
100
AcDbSymbolTableRecord
100
AcDbBlockTableRecord
  2
*B40
340
0
  0
BLOCK_RECORD
  5
440
100
AcDbSymbolTableRecord
100
AcDbBlockTableRecord
  2
*B41
340
0
  0
BLOCK_RECORD
  5
445
100
AcDbSymbolTableRecord
100
AcDbBlockTableRecord
  2
*B42
340
0
  0
BLOCK_RECORD
  5
44A
100
AcDbSymbolTableRecord
100
AcDbBlockTableRecord
  2
*B43
340
0
  0
BLOCK_RECORD
  5
451
100
AcDbSymbolTableRecord
100
AcDbBlockTableRecord
  2
*B44
340
0
  0
BLOCK_RECORD
  5
456
100
AcDbSymbolTableRecord
100
AcDbBlockTableRecord
  2
*B45
340
0
  0
BLOCK_RECORD
  5
45C
100
AcDbSymbolTableRecord
100
AcDbBlockTableRecord
  2
*B46
340
0
  0
BLOCK_RECORD
  5
488
100
AcDbSymbolTableRecord
100
AcDbBlockTableRecord
  2
*B47
340
0
  0
BLOCK_RECORD
  5
48D
100
AcDbSymbolTableRecord
100
AcDbBlockTableRecord
  2
*B48
340
0
  0
BLOCK_RECORD
  5
492
100
AcDbSymbolTableRecord
100
AcDbBlockTableRecord
  2
*B49
340
0
  0
BLOCK_RECORD
  5
497
100
AcDbSymbolTableRecord
100
AcDbBlockTableRecord
  2
*B50
340
0
  0
BLOCK_RECORD
  5
4A6
100
AcDbSymbolTableRecord
100
AcDbBlockTableRecord
  2
*B51
340
0
  0
BLOCK_RECORD
  5
4AC
100
AcDbSymbolTableRecord
100
AcDbBlockTableRecord
  2
*B52
340
0
  0
BLOCK_RECORD
  5
4BB
100
AcDbSymbolTableRecord
100
AcDbBlockTableRecord
  2
*B53
340
0
  0
BLOCK_RECORD
  5
4C6
100
AcDbSymbolTableRecord
100
AcDbBlockTableRecord
  2
*B54
340
0
  0
BLOCK_RECORD
  5
4D1
100
AcDbSymbolTableRecord
100
AcDbBlockTableRecord
  2
*B55
340
0
  0
BLOCK_RECORD
  5
4D6
100
AcDbSymbolTableRecord
100
AcDbBlockTableRecord
  2
*B56
340
0
  0
BLOCK_RECORD
  5
4DC
100
AcDbSymbolTableRecord
100
AcDbBlockTableRecord
  2
*B57
340
0
  0
BLOCK_RECORD
  5
4E2
100
AcDbSymbolTableRecord
100
AcDbBlockTableRecord
  2
*B58
340
0
  0
BLOCK_RECORD
  5
4E8
100
AcDbSymbolTableRecord
100
AcDbBlockTableRecord
  2
*B59
340
0
  0
BLOCK_RECORD
  5
4ED
100
AcDbSymbolTableRecord
100
AcDbBlockTableRecord
  2
*B60
340
0
  0
BLOCK_RECORD
  5
4FA
100
AcDbSymbolTableRecord
100
AcDbBlockTableRecord
  2
*B61
340
0
  0
BLOCK_RECORD
  5
4FF
100
AcDbSymbolTableRecord
100
AcDbBlockTableRecord
  2
*B62
340
0
  0
BLOCK_RECORD
  5
505
100
AcDbSymbolTableRecord
100
AcDbBlockTableRecord
  2
*B63
340
0
  0
BLOCK_RECORD
  5
50B
100
AcDbSymbolTableRecord
100
AcDbBlockTableRecord
  2
*B64
340
0
  0
BLOCK_RECORD
  5
510
100
AcDbSymbolTableRecord
100
AcDbBlockTableRecord
  2
*B65
340
0
  0
BLOCK_RECORD
  5
51F
100
AcDbSymbolTableRecord
100
AcDbBlockTableRecord
  2
*B66
340
0
  0
BLOCK_RECORD
  5
525
100
AcDbSymbolTableRecord
100
AcDbBlockTableRecord
  2
*B67
340
0
  0
BLOCK_RECORD
  5
52B
100
AcDbSymbolTableRecord
100
AcDbBlockTableRecord
  2
*B68
340
0
  0
BLOCK_RECORD
  5
531
100
AcDbSymbolTableRecord
100
AcDbBlockTableRecord
  2
*B69
340
0
  0
BLOCK_RECORD
  5
537
100
AcDbSymbolTableRecord
100
AcDbBlockTableRecord
  2
*B70
340
0
  0
BLOCK_RECORD
  5
53D
100
AcDbSymbolTableRecord
100
AcDbBlockTableRecord
  2
*B71
340
0
  0
BLOCK_RECORD
  5
543
100
AcDbSymbolTableRecord
100
AcDbBlockTableRecord
  2
*B72
340
0
  0
BLOCK_RECORD
  5
549
100
AcDbSymbolTableRecord
100
AcDbBlockTableRecord
  2
*B73
340
0
  0
BLOCK_RECORD
  5
54F
100
AcDbSymbolTableRecord
100
AcDbBlockTableRecord
  2
*B74
340
0
  0
BLOCK_RECORD
  5
555
100
AcDbSymbolTableRecord
100
AcDbBlockTableRecord
  2
*B75
340
0
  0
BLOCK_RECORD
  5
55B
100
AcDbSymbolTableRecord
100
AcDbBlockTableRecord
  2
*B76
340
0
  0
BLOCK_RECORD
  5
562
100
AcDbSymbolTableRecord
100
AcDbBlockTableRecord
  2
*B77
340
0
  0
BLOCK_RECORD
  5
567
100
AcDbSymbolTableRecord
100
AcDbBlockTableRecord
  2
*B78
340
0
  0
BLOCK_RECORD
  5
56C
100
AcDbSymbolTableRecord
100
AcDbBlockTableRecord
  2
*B79
340
0
  0
BLOCK_RECORD
  5
571
100
AcDbSymbolTableRecord
100
AcDbBlockTableRecord
  2
*B80
340
0
  0
BLOCK_RECORD
  5
576
100
AcDbSymbolTableRecord
100
AcDbBlockTableRecord
  2
*B81
340
0
  0
BLOCK_RECORD
  5
57B
100
AcDbSymbolTableRecord
100
AcDbBlockTableRecord
  2
*B82
340
0
  0
BLOCK_RECORD
  5
580
100
AcDbSymbolTableRecord
100
AcDbBlockTableRecord
  2
*B83
340
0
  0
BLOCK_RECORD
  5
585
100
AcDbSymbolTableRecord
100
AcDbBlockTableRecord
  2
*B84
340
0
  0
BLOCK_RECORD
  5
58A
100
AcDbSymbolTableRecord
100
AcDbBlockTableRecord
  2
*B85
340
0
  0
BLOCK_RECORD
  5
58F
100
AcDbSymbolTableRecord
100
AcDbBlockTableRecord
  2
*B86
340
0
  0
BLOCK_RECORD
  5
594
100
AcDbSymbolTableRecord
100
AcDbBlockTableRecord
  2
*B87
340
0
  0
BLOCK_RECORD
  5
599
100
AcDbSymbolTableRecord
100
AcDbBlockTableRecord
  2
*B88
340
0
  0
BLOCK_RECORD
  5
59E
100
AcDbSymbolTableRecord
100
AcDbBlockTableRecord
  2
*B89
340
0
  0
BLOCK_RECORD
  5
5A3
100
AcDbSymbolTableRecord
100
AcDbBlockTableRecord
  2
*B90
340
0
  0
BLOCK_RECORD
  5
5A8
100
AcDbSymbolTableRecord
100
AcDbBlockTableRecord
  2
*B91
340
0
  0
BLOCK_RECORD
  5
5AD
100
AcDbSymbolTableRecord
100
AcDbBlockTableRecord
  2
*B92
340
0
  0
BLOCK_RECORD
  5
5B2
100
AcDbSymbolTableRecord
100
AcDbBlockTableRecord
  2
*B93
340
0
  0
BLOCK_RECORD
  5
5B7
100
AcDbSymbolTableRecord
100
AcDbBlockTableRecord
  2
*B94
340
0
  0
BLOCK_RECORD
  5
5BC
100
AcDbSymbolTableRecord
100
AcDbBlockTableRecord
  2
*B95
340
0
  0
BLOCK_RECORD
  5
5C1
100
AcDbSymbolTableRecord
100
AcDbBlockTableRecord
  2
*B96
340
0
  0
BLOCK_RECORD
  5
5C6
100
AcDbSymbolTableRecord
100
AcDbBlockTableRecord
  2
*B97
340
0
  0
BLOCK_RECORD
  5
5CB
100
AcDbSymbolTableRecord
100
AcDbBlockTableRecord
  2
*B98
340
0
  0
BLOCK_RECORD
  5
5D0
100
AcDbSymbolTableRecord
100
AcDbBlockTableRecord
  2
*B99
340
0
  0
BLOCK_RECORD
  5
5D5
100
AcDbSymbolTableRecord
100
AcDbBlockTableRecord
  2
*B100
340
0
  0
BLOCK_RECORD
  5
5DA
100
AcDbSymbolTableRecord
100
AcDbBlockTableRecord
  2
*B101
340
0
  0
BLOCK_RECORD
  5
5DF
100
AcDbSymbolTableRecord
100
AcDbBlockTableRecord
  2
*B102
340
0
  0
BLOCK_RECORD
  5
5E4
100
AcDbSymbolTableRecord
100
AcDbBlockTableRecord
  2
*B103
340
0
  0
ENDTAB
  0
ENDSEC
  0
SECTION
  2
BLOCKS
  0
BLOCK
  5
D
100
AcDbEntity
  8
0
100
AcDbBlockBegin
  2
*MODEL_SPACE
 70
     0
 10
0.0
 20
0.0
 30
0.0
  3
*MODEL_SPACE
  1

  0
ENDBLK
  5
E
100
AcDbEntity
  8
0
100
AcDbBlockEnd
  0
BLOCK
  5
F
100
AcDbEntity
 67
     1
  8
0
100
AcDbBlockBegin
  2
*PAPER_SPACE
 70
     0
 10
0.0
 20
0.0
 30
0.0
  3
*PAPER_SPACE
  1

  0
ENDBLK
  5
10
100
AcDbEntity
 67
     1
  8
0
100
AcDbBlockEnd
  0
BLOCK
  5
2A
100
AcDbEntity
  8
0
100
AcDbBlockBegin
  2
*B0
 70
     0
 10
0.0
 20
0.0
 30
0.0
  3
*B0
  1

  0
ENDBLK
  5
2B
100
AcDbEntity
  8
0
100
AcDbBlockEnd
  0
BLOCK
  5
2D
100
AcDbEntity
  8
0
100
AcDbBlockBegin
  2
*B1
 70
     0
 10
0.0
 20
0.0
 30
0.0
  3
*B1
  1

  0
LINE
  5
2E
100
AcDbEntity
  8
0
  6
HIDDEN
 62
   174
100
AcDbLine
 10
204.899402
 20
171.32172
 30
0.0
 11
204.899402
 21
171.37172
 31
0.0
  0
LINE
  5
2F
100
AcDbEntity
  8
0
  6
HIDDEN
 62
   174
100
AcDbLine
 10
211.699402
 20
171.32172
 30
0.0
 11
211.699402
 21
171.37172
 31
0.0
  0
LINE
  5
30
100
AcDbEntity
  8
0
  6
HIDDEN
 62
   174
100
AcDbLine
 10
90.985753
 20
171.32172
 30
0.0
 11
90.985753
 21
171.37172
 31
0.0
  0
LINE
  5
31
100
AcDbEntity
  8
0
  6
HIDDEN
 62
   174
100
AcDbLine
 10
84.185753
 20
171.32172
 30
0.0
 11
84.185753
 21
171.37172
 31
0.0
  0
LINE
  5
32
100
AcDbEntity
  8
0
  6
HIDDEN
 62
   174
100
AcDbLine
 10
84.585753
 20
171.32172
 30
0.0
 11
84.585753
 21
171.37172
 31
0.0
  0
LINE
  5
33
100
AcDbEntity
  8
0
  6
HIDDEN
 62
   174
100
AcDbLine
 10
211.299402
 20
171.32172
 30
0.0
 11
211.299402
 21
171.37172
 31
0.0
  0
LINE
  5
34
100
AcDbEntity
  8
0
  6
HIDDEN
 62
   174
100
AcDbLine
 10
90.585753
 20
171.32172
 30
0.0
 11
90.585753
 21
171.37172
 31
0.0
  0
LINE
  5
35
100
AcDbEntity
  8
0
  6
HIDDEN
 62
   174
100
AcDbLine
 10
205.299402
 20
171.32172
 30
0.0
 11
205.299402
 21
171.37172
 31
0.0
  0
LINE
  5
36
100
AcDbEntity
  8
0
  6
HIDDEN
 62
   174
100
AcDbLine
 10
85.60857
 20
171.37172
 30
0.0
 11
85.60857
 21
171.32172
 31
0.0
  0
LINE
  5
37
100
AcDbEntity
  8
0
  6
HIDDEN
 62
   174
100
AcDbLine
 10
210.276585
 20
171.37172
 30
0.0
 11
210.276585
 21
171.32172
 31
0.0
  0
LINE
  5
38
100
AcDbEntity
  8
0
  6
HIDDEN
 62
   174
100
AcDbLine
 10
89.842021
 20
171.37172
 30
0.0
 11
89.842021
 21
171.32172
 31
0.0
  0
LINE
  5
39
100
AcDbEntity
  8
0
  6
HIDDEN
 62
   174
100
AcDbLine
 10
206.043133
 20
171.37172
 30
0.0
 11
206.043133
 21
171.32172
 31
0.0
  0
LINE
  5
3A
100
AcDbEntity
  8
0
  6
HIDDEN
 62
   174
100
AcDbLine
 10
210.686249
 20
171.37172
 30
0.0
 11
210.686249
 21
171.32172
 31
0.0
  0
LINE
  5
3B
100
AcDbEntity
  8
0
  6
HIDDEN
 62
   174
100
AcDbLine
 10
85.198905
 20
171.37172
 30
0.0
 11
85.198905
 21
171.32172
 31
0.0
  0
LINE
  5
3C
100
AcDbEntity
  8
0
  6
HIDDEN
 62
   174
100
AcDbLine
 10
206.617568
 20
171.37172
 30
0.0
 11
206.49096
 21
171.37172
 31
0.0
  0
LINE
  5
3D
100
AcDbEntity
  8
0
  6
HIDDEN
 62
   174
100
AcDbLine
 10
208.317441
 20
171.37172
 30
0.0
 11
206.617568
 21
171.37172
 31
0.0
  0
LINE
  5
3E
100
AcDbEntity
  8
0
  6
HIDDEN
 62
   174
100
AcDbLine
 10
210.311105
 20
171.37172
 30
0.0
 11
208.317441
 21
171.37172
 31
0.0
  0
LINE
  5
3F
100
AcDbEntity
  8
0
  6
HIDDEN
 62
   174
100
AcDbLine
 10
210.706227
 20
171.37172
 30
0.0
 11
210.311105
 21
171.37172
 31
0.0
  0
LINE
  5
40
100
AcDbEntity
  8
0
  6
HIDDEN
 62
   174
100
AcDbLine
 10
210.721735
 20
171.37172
 30
0.0
 11
210.706227
 21
171.37172
 31
0.0
  0
LINE
  5
41
100
AcDbEntity
  8
0
  6
HIDDEN
 62
   174
100
AcDbLine
 10
211.261946
 20
171.37172
 30
0.0
 11
210.721735
 21
171.37172
 31
0.0
  0
LINE
  5
42
100
AcDbEntity
  8
0
  6
HIDDEN
 62
   174
100
AcDbLine
 10
211.331836
 20
171.37172
 30
0.0
 11
211.261946
 21
171.37172
 31
0.0
  0
LINE
  5
43
100
AcDbEntity
  8
0
  6
HIDDEN
 62
   174
100
AcDbLine
 10
208.299402
 20
171.37172
 30
0.0
 11
206.481997
 21
171.37172
 31
0.0
  0
LINE
  5
44
100
AcDbEntity
  8
0
  6
HIDDEN
 62
   174
100
AcDbLine
 10
90.603926
 20
171.37172
 30
0.0
 11
89.860205
 21
171.37172
 31
0.0
  0
LINE
  5
45
100
AcDbEntity
  8
0
  6
HIDDEN
 62
   174
100
AcDbLine
 10
210.294748
 20
171.37172
 30
0.0
 11
208.317866
 21
171.37172
 31
0.0
  0
LINE
  5
46
100
AcDbEntity
  8
0
  6
HIDDEN
 62
   174
100
AcDbLine
 10
208.317866
 20
171.37172
 30
0.0
 11
208.218873
 21
171.37172
 31
0.0
  0
LINE
  5
47
100
AcDbEntity
  8
0
  6
HIDDEN
 62
   174
100
AcDbLine
 10
89.403157
 20
171.37172
 30
0.0
 11
87.585753
 21
171.37172
 31
0.0
  0
LINE
  5
48
100
AcDbEntity
  8
0
  6
Continuous
 62
   174
100
AcDbLine
 10
237.442577
 20
154.37172
 30
0.0
 11
238.142577
 21
154.37172
 31
0.0
  0
LINE
  5
49
100
AcDbEntity
  8
0
  6
Continuous
 62
   174
100
AcDbLine
 10
241.942577
 20
155.57172
 30
0.0
 11
241.275323
 21
154.416002
 31
0.0
  0
LINE
  5
4A
100
AcDbEntity
  8
0
  6
HIDDEN
 62
   174
100
AcDbLine
 10
73.442577
 20
155.37172
 30
0.0
 11
73.442577
 21
142.37172
 31
0.0
  0
LINE
  5
4B
100
AcDbEntity
  8
0
  6
HIDDEN
 62
   174
100
AcDbLine
 10
118.942577
 20
131.37172
 30
0.0
 11
118.892577
 21
131.37172
 31
0.0
  0
LINE
  5
4C
100
AcDbEntity
  8
0
  6
Continuous
 62
   174
100
AcDbLine
 10
118.942577
 20
143.37172
 30
0.0
 11
118.942577
 21
107.37172
 31
0.0
  0
LINE
  5
4D
100
AcDbEntity
  8
0
  6
HIDDEN
 62
   174
100
AcDbLine
 10
118.942577
 20
131.382597
 30
0.0
 11
118.942577
 21
119.383222
 31
0.0
  0
LINE
  5
4E
100
AcDbEntity
  8
0
  6
HIDDEN
 62
   174
100
AcDbLine
 10
176.942577
 20
119.383222
 30
0.0
 11
176.942577
 21
131.382597
 31
0.0
  0
LINE
  5
4F
100
AcDbEntity
  8
0
  6
Continuous
 62
   174
100
AcDbLine
 10
176.942577
 20
107.37172
 30
0.0
 11
176.942577
 21
143.37172
 31
0.0
  0
LINE
  5
50
100
AcDbEntity
  8
0
  6
HIDDEN
 62
   174
100
AcDbLine
 10
206.481997
 20
171.37172
 30
0.0
 11
206.481997
 21
171.32172
 31
0.0
  0
LINE
  5
51
100
AcDbEntity
  8
0
  6
HIDDEN
 62
   174
100
AcDbLine
 10
84.590006
 20
171.37172
 30
0.0
 11
84.203806
 21
171.37172
 31
0.0
  0
LINE
  5
52
100
AcDbEntity
  8
0
  6
HIDDEN
 62
   174
100
AcDbLine
 10
84.659471
 20
171.37172
 30
0.0
 11
84.590006
 21
171.37172
 31
0.0
  0
LINE
  5
53
100
AcDbEntity
  8
0
  6
HIDDEN
 62
   174
100
AcDbLine
 10
85.610312
 20
171.37172
 30
0.0
 11
84.659471
 21
171.37172
 31
0.0
  0
LINE
  5
54
100
AcDbEntity
  8
0
  6
HIDDEN
 62
   174
100
AcDbLine
 10
87.603976
 20
171.37172
 30
0.0
 11
85.610312
 21
171.37172
 31
0.0
  0
LINE
  5
55
100
AcDbEntity
  8
0
  6
HIDDEN
 62
   174
100
AcDbLine
 10
89.303849
 20
171.37172
 30
0.0
 11
87.603976
 21
171.37172
 31
0.0
  0
LINE
  5
56
100
AcDbEntity
  8
0
  6
HIDDEN
 62
   174
100
AcDbLine
 10
89.430458
 20
171.37172
 30
0.0
 11
89.303849
 21
171.37172
 31
0.0
  0
LINE
  5
57
100
AcDbEntity
  8
0
  6
HIDDEN
 62
   174
100
AcDbLine
 10
89.872739
 20
171.37172
 30
0.0
 11
89.430458
 21
171.37172
 31
0.0
  0
LINE
  5
58
100
AcDbEntity
  8
0
  6
HIDDEN
 62
   174
100
AcDbLine
 10
210.686249
 20
171.37172
 30
0.0
 11
210.276585
 21
171.37172
 31
0.0
  0
LINE
  5
59
100
AcDbEntity
  8
0
  6
Continuous
 62
   174
100
AcDbLine
 10
234.442577
 20
169.87172
 30
0.0
 11
237.442577
 21
169.87172
 31
0.0
  0
LINE
  5
5A
100
AcDbEntity
  8
0
  6
HIDDEN
 62
   174
100
AcDbLine
 10
131.085618
 20
117.37172
 30
0.0
 11
142.835599
 21
117.37172
 31
0.0
  0
LINE
  5
5B
100
AcDbEntity
  8
0
  6
Continuous
 62
   174
100
AcDbLine
 10
241.942577
 20
171.17172
 30
0.0
 11
241.275301
 21
172.327477
 31
0.0
  0
LINE
  5
5C
100
AcDbEntity
  8
0
  6
HIDDEN
 62
   174
100
AcDbLine
 10
153.085605
 20
117.37172
 30
0.0
 11
164.835586
 21
117.37172
 31
0.0
  0
ARC
  5
5D
100
AcDbEntity
  8
0
  6
Continuous
 62
   174
100
AcDbCircle
 10
158.942577
 20
137.87172
 30
0.0
 40
2.75
100
AcDbArc
 50
0.0
 51
180.0
  0
ARC
  5
5E
100
AcDbEntity
  8
0
  6
Continuous
 62
   174
100
AcDbCircle
 10
158.942577
 20
137.87172
 30
0.0
 40
2.75
100
AcDbArc
 50
-180.0
 51
0.0
  0
ARC
  5
5F
100
AcDbEntity
  8
0
  6
Continuous
 62
   174
100
AcDbCircle
 10
136.942577
 20
137.87172
 30
0.0
 40
2.75
100
AcDbArc
 50
0.0
 51
180.0
  0
ARC
  5
60
100
AcDbEntity
  8
0
  6
Continuous
 62
   174
100
AcDbCircle
 10
136.942577
 20
137.87172
 30
0.0
 40
2.75
100
AcDbArc
 50
-180.0
 51
0.0
  0
LINE
  5
61
100
AcDbEntity
  8
0
  6
HIDDEN
 62
   174
100
AcDbLine
 10
176.992577
 20
131.382597
 30
0.0
 11
176.992577
 21
119.383222
 31
0.0
  0
LINE
  5
62
100
AcDbEntity
  8
0
  6
HIDDEN
 62
   174
100
AcDbLine
 10
118.892577
 20
131.382597
 30
0.0
 11
118.892577
 21
119.383222
 31
0.0
  0
ARC
  5
63
100
AcDbEntity
  8
0
  6
Continuous
 62
   174
100
AcDbCircle
 10
147.942577
 20
112.87172
 30
0.0
 40
2.75
100
AcDbArc
 50
0.0
 51
180.0
  0
ARC
  5
64
100
AcDbEntity
  8
0
  6
Continuous
 62
   174
100
AcDbCircle
 10
147.942577
 20
112.87172
 30
0.0
 40
2.75
100
AcDbArc
 50
-180.0
 51
0.0
  0
LINE
  5
65
100
AcDbEntity
  8
0
  6
Continuous
 62
   174
100
AcDbLine
 10
102.942577
 20
107.37172
 30
0.0
 11
102.942577
 21
114.37172
 31
0.0
  0
LINE
  5
66
100
AcDbEntity
  8
0
  6
Continuous
 62
   174
100
AcDbLine
 10
102.942577
 20
114.37172
 30
0.0
 11
102.942577
 21
142.37172
 31
0.0
  0
LINE
  5
67
100
AcDbEntity
  8
0
  6
HIDDEN
 62
   174
100
AcDbLine
 10
118.942577
 20
131.37172
 30
0.0
 11
118.892577
 21
131.37172
 31
0.0
  0
LINE
  5
68
100
AcDbEntity
  8
0
  6
Continuous
 62
   174
100
AcDbLine
 10
192.942577
 20
107.37172
 30
0.0
 11
192.942577
 21
114.37172
 31
0.0
  0
LINE
  5
69
100
AcDbEntity
  8
0
  6
Continuous
 62
   174
100
AcDbLine
 10
61.442577
 20
169.87172
 30
0.0
 11
58.442577
 21
169.87172
 31
0.0
  0
LINE
  5
6A
100
AcDbEntity
  8
0
  6
HIDDEN
 62
   174
100
AcDbLine
 10
142.835599
 20
105.37172
 30
0.0
 11
131.085618
 21
105.37172
 31
0.0
  0
LINE
  5
6B
100
AcDbEntity
  8
0
  6
Continuous
 62
   174
100
AcDbLine
 10
234.442577
 20
155.37172
 30
0.0
 11
222.442577
 21
155.37172
 31
0.0
  0
LINE
  5
6C
100
AcDbEntity
  8
0
  6
HIDDEN
 62
   174
100
AcDbLine
 10
164.835586
 20
105.37172
 30
0.0
 11
163.405714
 21
105.37172
 31
0.0
  0
LINE
  5
6D
100
AcDbEntity
  8
0
  6
HIDDEN
 62
   174
100
AcDbLine
 10
163.405714
 20
105.37172
 30
0.0
 11
153.085605
 21
105.37172
 31
0.0
  0
LINE
  5
6E
100
AcDbEntity
  8
0
  6
HIDDEN
 62
   174
100
AcDbLine
 10
176.942577
 20
119.37172
 30
0.0
 11
176.992577
 21
119.37172
 31
0.0
  0
LINE
  5
6F
100
AcDbEntity
  8
0
  6
Continuous
 62
   174
100
AcDbLine
 10
192.942577
 20
142.37172
 30
0.0
 11
192.942577
 21
143.37172
 31
0.0
  0
LINE
  5
70
100
AcDbEntity
  8
0
  6
Continuous
 62
   174
100
AcDbLine
 10
171.942577
 20
105.37172
 30
0.0
 11
171.942577
 21
107.37172
 31
0.0
  0
LINE
  5
71
100
AcDbEntity
  8
0
  6
HIDDEN
 62
   174
100
AcDbLine
 10
91.003934
 20
171.37172
 30
0.0
 11
90.618159
 21
171.37172
 31
0.0
  0
LINE
  5
72
100
AcDbEntity
  8
0
  6
HIDDEN
 62
   174
100
AcDbLine
 10
90.008057
 20
171.37172
 30
0.0
 11
89.872739
 21
171.37172
 31
0.0
  0
LINE
  5
73
100
AcDbEntity
  8
0
  6
HIDDEN
 62
   174
100
AcDbLine
 10
90.548482
 20
171.37172
 30
0.0
 11
90.008057
 21
171.37172
 31
0.0
  0
LINE
  5
74
100
AcDbEntity
  8
0
  6
HIDDEN
 62
   174
100
AcDbLine
 10
90.618159
 20
171.37172
 30
0.0
 11
90.548482
 21
171.37172
 31
0.0
  0
LINE
  5
75
100
AcDbEntity
  8
0
  6
HIDDEN
 62
   174
100
AcDbLine
 10
205.303258
 20
171.37172
 30
0.0
 11
204.917484
 21
171.37172
 31
0.0
  0
LINE
  5
76
100
AcDbEntity
  8
0
  6
HIDDEN
 62
   174
100
AcDbLine
 10
205.372936
 20
171.37172
 30
0.0
 11
205.303258
 21
171.37172
 31
0.0
  0
LINE
  5
77
100
AcDbEntity
  8
0
  6
HIDDEN
 62
   174
100
AcDbLine
 10
206.49096
 20
171.37172
 30
0.0
 11
205.372936
 21
171.37172
 31
0.0
  0
LINE
  5
78
100
AcDbEntity
  8
0
  6
HIDDEN
 62
   174
100
AcDbLine
 10
85.613073
 20
171.37172
 30
0.0
 11
84.603814
 21
171.37172
 31
0.0
  0
LINE
  5
79
100
AcDbEntity
  8
0
  6
HIDDEN
 62
   174
100
AcDbLine
 10
89.421323
 20
171.37172
 30
0.0
 11
87.603976
 21
171.37172
 31
0.0
  0
LINE
  5
7A
100
AcDbEntity
  8
0
  6
HIDDEN
 62
   174
100
AcDbLine
 10
87.603976
 20
171.37172
 30
0.0
 11
85.776858
 21
171.37172
 31
0.0
  0
LINE
  5
7B
100
AcDbEntity
  8
0
  6
HIDDEN
 62
   174
100
AcDbLine
 10
85.776858
 20
171.37172
 30
0.0
 11
85.613073
 21
171.37172
 31
0.0
  0
LINE
  5
7C
100
AcDbEntity
  8
0
  6
HIDDEN
 62
   174
100
AcDbLine
 10
211.317603
 20
171.37172
 30
0.0
 11
210.704315
 21
171.37172
 31
0.0
  0
LINE
  5
7D
100
AcDbEntity
  8
0
  6
HIDDEN
 62
   174
100
AcDbLine
 10
210.276585
 20
171.37172
 30
0.0
 11
208.299402
 21
171.37172
 31
0.0
  0
LINE
  5
7E
100
AcDbEntity
  8
0
  6
HIDDEN
 62
   174
100
AcDbLine
 10
206.485649
 20
171.37172
 30
0.0
 11
205.317491
 21
171.37172
 31
0.0
  0
LINE
  5
7F
100
AcDbEntity
  8
0
  6
HIDDEN
 62
   174
100
AcDbLine
 10
208.218873
 20
171.37172
 30
0.0
 11
206.485649
 21
171.37172
 31
0.0
  0
LINE
  5
80
100
AcDbEntity
  8
0
  6
HIDDEN
 62
   174
100
AcDbLine
 10
89.842021
 20
171.37172
 30
0.0
 11
89.403157
 21
171.37172
 31
0.0
  0
LINE
  5
81
100
AcDbEntity
  8
0
  6
Continuous
 62
   174
100
AcDbLine
 10
237.442577
 20
172.37172
 30
0.0
 11
238.142577
 21
172.37172
 31
0.0
  0
LINE
  5
82
100
AcDbEntity
  8
0
  6
Continuous
 62
   174
100
AcDbLine
 10
61.442577
 20
155.37172
 30
0.0
 11
73.442577
 21
155.37172
 31
0.0
  0
LINE
  5
83
100
AcDbEntity
  8
0
  6
HIDDEN
 62
   174
100
AcDbLine
 10
176.942577
 20
119.37172
 30
0.0
 11
176.992577
 21
119.37172
 31
0.0
  0
LINE
  5
84
100
AcDbEntity
  8
0
  6
Continuous
 62
   174
100
AcDbLine
 10
171.942577
 20
143.37172
 30
0.0
 11
171.942577
 21
145.37172
 31
0.0
  0
LINE
  5
85
100
AcDbEntity
  8
0
  6
Continuous
 62
   174
100
AcDbLine
 10
58.442577
 20
154.37172
 30
0.0
 11
57.742577
 21
154.37172
 31
0.0
  0
LINE
  5
86
100
AcDbEntity
  8
0
  6
HIDDEN
 62
   174
100
AcDbLine
 10
73.442577
 20
160.587838
 30
0.0
 11
73.442577
 21
155.37172
 31
0.0
  0
LINE
  5
87
100
AcDbEntity
  8
0
  6
Continuous
 62
   174
100
AcDbLine
 10
102.942577
 20
143.37172
 30
0.0
 11
118.942577
 21
143.37172
 31
0.0
  0
LINE
  5
88
100
AcDbEntity
  8
0
  6
HIDDEN
 62
   174
100
AcDbLine
 10
118.942577
 20
119.37172
 30
0.0
 11
118.892577
 21
119.37172
 31
0.0
  0
LINE
  5
89
100
AcDbEntity
  8
0
  6
Continuous
 62
   174
100
AcDbLine
 10
118.942577
 20
107.37172
 30
0.0
 11
102.942577
 21
107.37172
 31
0.0
  0
LINE
  5
8A
100
AcDbEntity
  8
0
  6
HIDDEN
 62
   174
100
AcDbLine
 10
87.585753
 20
171.37172
 30
0.0
 11
85.60857
 21
171.37172
 31
0.0
  0
LINE
  5
8B
100
AcDbEntity
  8
0
  6
Continuous
 62
   174
100
AcDbLine
 10
53.942577
 20
155.57172
 30
0.0
 11
54.609831
 21
154.416002
 31
0.0
  0
LINE
  5
8C
100
AcDbEntity
  8
0
  6
Continuous
 62
   174
100
AcDbLine
 10
222.442577
 20
160.587838
 30
0.0
 11
222.442577
 21
142.37172
 31
0.0
  0
LINE
  5
8D
100
AcDbEntity
  8
0
  6
HIDDEN
 62
   174
100
AcDbLine
 10
118.942577
 20
119.37172
 30
0.0
 11
118.892577
 21
119.37172
 31
0.0
  0
LINE
  5
8E
100
AcDbEntity
  8
0
  6
Continuous
 62
   174
100
AcDbLine
 10
192.942577
 20
114.37172
 30
0.0
 11
192.942577
 21
142.37172
 31
0.0
  0
LINE
  5
8F
100
AcDbEntity
  8
0
  6
Continuous
 62
   174
100
AcDbLine
 10
102.442577
 20
168.37172
 30
0.0
 11
102.442577
 21
142.37172
 31
0.0
  0
LINE
  5
90
100
AcDbEntity
  8
0
  6
HIDDEN
 62
   174
100
AcDbLine
 10
89.403157
 20
171.37172
 30
0.0
 11
89.403157
 21
171.32172
 31
0.0
  0
LINE
  5
91
100
AcDbEntity
  8
0
  6
HIDDEN
 62
   174
100
AcDbLine
 10
211.717398
 20
171.37172
 30
0.0
 11
211.331836
 21
171.37172
 31
0.0
  0
LINE
  5
92
100
AcDbEntity
  8
0
  6
Continuous
 62
   174
100
AcDbLine
 10
234.442577
 20
156.87172
 30
0.0
 11
237.442577
 21
156.87172
 31
0.0
  0
LINE
  5
93
100
AcDbEntity
  8
0
  6
Continuous
 62
   174
100
AcDbLine
 10
53.942577
 20
171.17172
 30
0.0
 11
54.609854
 21
172.327477
 31
0.0
  0
LINE
  5
94
100
AcDbEntity
  8
0
  6
Continuous
 62
   174
100
AcDbLine
 10
234.442577
 20
171.37172
 30
0.0
 11
219.442577
 21
171.37172
 31
0.0
  0
LINE
  5
95
100
AcDbEntity
  8
0
  6
Continuous
 62
   174
100
AcDbLine
 10
102.942577
 20
142.37172
 30
0.0
 11
102.942577
 21
143.37172
 31
0.0
  0
LINE
  5
96
100
AcDbEntity
  8
0
  6
HIDDEN
 62
   174
100
AcDbLine
 10
176.942577
 20
131.37172
 30
0.0
 11
176.992577
 21
131.37172
 31
0.0
  0
LINE
  5
97
100
AcDbEntity
  8
0
  6
Continuous
 62
   174
100
AcDbLine
 10
171.942577
 20
107.37172
 30
0.0
 11
171.942577
 21
143.37172
 31
0.0
  0
LINE
  5
98
100
AcDbEntity
  8
0
  6
Continuous
 62
   174
100
AcDbLine
 10
61.442577
 20
156.87172
 30
0.0
 11
58.442577
 21
156.87172
 31
0.0
  0
LINE
  5
99
100
AcDbEntity
  8
0
  6
Continuous
 62
   174
100
AcDbLine
 10
58.442577
 20
172.37172
 30
0.0
 11
57.742577
 21
172.37172
 31
0.0
  0
LINE
  5
9A
100
AcDbEntity
  8
0
  6
Continuous
 62
   174
100
AcDbLine
 10
61.442577
 20
171.37172
 30
0.0
 11
76.442577
 21
171.37172
 31
0.0
  0
LINE
  5
9B
100
AcDbEntity
  8
0
  6
HIDDEN
 62
   174
100
AcDbLine
 10
176.942577
 20
131.37172
 30
0.0
 11
176.992577
 21
131.37172
 31
0.0
  0
LINE
  5
9C
100
AcDbEntity
  8
0
  6
Continuous
 62
   174
100
AcDbLine
 10
118.942577
 20
143.37172
 30
0.0
 11
123.942577
 21
143.37172
 31
0.0
  0
LINE
  5
9D
100
AcDbEntity
  8
0
  6
HIDDEN
 62
   174
100
AcDbLine
 10
132.12738
 20
105.37172
 30
0.0
 11
132.61066
 21
105.37172
 31
0.0
  0
LINE
  5
9E
100
AcDbEntity
  8
0
  6
Continuous
 62
   174
100
AcDbLine
 10
238.142577
 20
158.949829
 30
0.0
 11
241.249757
 21
158.949829
 31
0.0
  0
LINE
  5
9F
100
AcDbEntity
  8
0
  6
Continuous
 62
   174
100
AcDbLine
 10
230.642577
 20
130.453315
 30
0.0
 11
230.642577
 21
133.987364
 31
0.0
  0
LINE
  5
A0
100
AcDbEntity
  8
0
  6
HIDDEN
 62
   174
100
AcDbLine
 10
181.460645
 20
143.32172
 30
0.0
 11
179.240317
 21
143.32172
 31
0.0
  0
LINE
  5
A1
100
AcDbEntity
  8
0
  6
Continuous
 62
   174
100
AcDbLine
 10
222.442577
 20
166.155602
 30
0.0
 11
222.442577
 21
168.37172
 31
0.0
  0
LINE
  5
A2
100
AcDbEntity
  8
0
  6
HIDDEN
 62
   174
100
AcDbLine
 10
184.708502
 20
143.37172
 30
0.0
 11
184.484387
 21
143.37172
 31
0.0
  0
LINE
  5
A3
100
AcDbEntity
  8
0
  6
Continuous
 62
   174
100
AcDbLine
 10
193.442577
 20
168.37172
 30
0.0
 11
193.442577
 21
142.37172
 31
0.0
  0
LINE
  5
A4
100
AcDbEntity
  8
0
  6
HIDDEN
 62
   174
100
AcDbLine
 10
163.292577
 20
145.37172
 30
0.0
 11
163.292577
 21
105.37172
 31
0.0
  0
LINE
  5
A5
100
AcDbEntity
  8
0
  6
Continuous
 62
   174
100
AcDbLine
 10
57.742577
 20
172.379647
 30
0.0
 11
57.742577
 21
167.958109
 31
0.0
  0
LINE
  5
A6
100
AcDbEntity
  8
0
  6
HIDDEN
 62
   174
100
AcDbLine
 10
57.742577
 20
158.949829
 30
0.0
 11
57.742577
 21
167.793611
 31
0.0
  0
LINE
  5
A7
100
AcDbEntity
  8
0
  6
Continuous
 62
   174
100
AcDbLine
 10
123.942577
 20
105.37172
 30
0.0
 11
171.942577
 21
105.37172
 31
0.0
  0
LINE
  5
A8
100
AcDbEntity
  8
0
  6
Continuous
 62
   174
100
AcDbLine
 10
230.642577
 20
116.758768
 30
0.0
 11
230.642577
 21
120.295786
 31
0.0
  0
LINE
  5
A9
100
AcDbEntity
  8
0
  6
HIDDEN
 62
   174
100
AcDbLine
 10
152.362577
 20
115.37172
 30
0.0
 11
152.362577
 21
105.37172
 31
0.0
  0
LINE
  5
AA
100
AcDbEntity
  8
0
  6
HIDDEN
 62
   174
100
AcDbLine
 10
131.067577
 20
115.37172
 30
0.0
 11
131.067577
 21
105.37172
 31
0.0
  0
LINE
  5
AB
100
AcDbEntity
  8
0
  6
HIDDEN
 62
   174
100
AcDbLine
 10
130.380773
 20
115.37172
 30
0.0
 11
143.540658
 21
115.37172
 31
0.0
  0
LINE
  5
AC
100
AcDbEntity
  8
0
  6
Continuous
 62
   174
100
AcDbLine
 10
234.442577
 20
156.774469
 30
0.0
 11
234.442577
 21
163.380647
 31
0.0
  0
LINE
  5
AD
100
AcDbEntity
  8
0
  6
Continuous
 62
   174
100
AcDbLine
 10
238.142577
 20
158.959109
 30
0.0
 11
238.142577
 21
163.380647
 31
0.0
  0
LINE
  5
AE
100
AcDbEntity
  8
0
  6
HIDDEN
 62
   174
100
AcDbLine
 10
238.142577
 20
167.94938
 30
0.0
 11
238.142577
 21
172.371271
 31
0.0
  0
LINE
  5
AF
100
AcDbEntity
  8
0
  6
HIDDEN
 62
   174
100
AcDbLine
 10
206.481997
 20
171.37172
 30
0.0
 11
208.299402
 21
171.37172
 31
0.0
  0
LINE
  5
B0
100
AcDbEntity
  8
0
  6
HIDDEN
 62
   174
100
AcDbLine
 10
141.362577
 20
135.37172
 30
0.0
 11
141.362577
 21
145.37172
 31
0.0
  0
LINE
  5
B1
100
AcDbEntity
  8
0
  6
Continuous
 62
   174
100
AcDbLine
 10
57.742577
 20
154.372169
 30
0.0
 11
54.635398
 21
154.372169
 31
0.0
  0
LINE
  5
B2
100
AcDbEntity
  8
0
  6
Continuous
 62
   174
100
AcDbLine
 10
65.242577
 20
127.87172
 30
0.0
 11
71.442577
 21
127.87172
 31
0.0
  0
LINE
  5
B3
100
AcDbEntity
  8
0
  6
HIDDEN
 62
   174
100
AcDbLine
 10
65.242577
 20
127.875086
 30
0.0
 11
71.442577
 21
127.875086
 31
0.0
  0
LINE
  5
B4
100
AcDbEntity
  8
0
  6
HIDDEN
 62
   174
100
AcDbLine
 10
222.442577
 20
168.37172
 30
0.0
 11
222.442577
 21
166.155602
 31
0.0
  0
LINE
  5
B5
100
AcDbEntity
  8
0
  6
Continuous
 62
   174
100
AcDbLine
 10
71.442577
 20
115.38336
 30
0.0
 11
71.442577
 21
115.700519
 31
0.0
  0
LINE
  5
B6
100
AcDbEntity
  8
0
  6
HIDDEN
 62
   174
100
AcDbLine
 10
219.442577
 20
142.37172
 30
0.0
 11
196.442577
 21
142.37172
 31
0.0
  0
LINE
  5
B7
100
AcDbEntity
  8
0
  6
HIDDEN
 62
   174
100
AcDbLine
 10
116.484389
 20
143.37172
 30
0.0
 11
114.462684
 21
143.37172
 31
0.0
  0
LINE
  5
B8
100
AcDbEntity
  8
0
  6
HIDDEN
 62
   174
100
AcDbLine
 10
182.462682
 20
143.37172
 30
0.0
 11
182.387694
 21
143.37172
 31
0.0
  0
LINE
  5
B9
100
AcDbEntity
  8
0
  6
HIDDEN
 62
   174
100
AcDbLine
 10
181.460645
 20
143.37172
 30
0.0
 11
179.240317
 21
143.37172
 31
0.0
  0
LINE
  5
BA
100
AcDbEntity
  8
0
  6
Continuous
 62
   174
100
AcDbLine
 10
196.442577
 20
142.37172
 30
0.0
 11
196.442577
 21
168.37172
 31
0.0
  0
LINE
  5
BB
100
AcDbEntity
  8
0
  6
HIDDEN
 62
   174
100
AcDbLine
 10
61.442577
 20
169.880397
 30
0.0
 11
61.442577
 21
163.380647
 31
0.0
  0
LINE
  5
BC
100
AcDbEntity
  8
0
  6
HIDDEN
 62
   174
100
AcDbLine
 10
184.662871
 20
143.32172
 30
0.0
 11
184.662871
 21
143.37172
 31
0.0
  0
LINE
  5
BD
100
AcDbEntity
  8
0
  6
Continuous
 62
   174
100
AcDbLine
 10
102.442577
 20
142.37172
 30
0.0
 11
102.442577
 21
168.37172
 31
0.0
  0
LINE
  5
BE
100
AcDbEntity
  8
0
  6
Continuous
 62
   174
100
AcDbLine
 10
230.642577
 20
120.307297
 30
0.0
 11
230.642577
 21
122.886421
 31
0.0
  0
LINE
  5
BF
100
AcDbEntity
  8
0
  6
Continuous
 62
   174
100
AcDbLine
 10
65.242577
 20
115.688939
 30
0.0
 11
71.442577
 21
115.688939
 31
0.0
  0
LWPOLYLINE
  5
C0
100
AcDbEntity
  8
0
  6
Continuous
 62
   174
100
AcDbPolyline
 90
        4
 70
   128
 10
222.442577
 20
160.587838
 10
222.430018
 20
161.484539
 10
222.409613
 20
162.422693
 10
222.400617
 20
163.37172
  0
LINE
  5
C1
100
AcDbEntity
  8
0
  6
Continuous
 62
   174
100
AcDbLine
 10
76.442577
 20
168.37172
 30
0.0
 11
76.442577
 21
142.37172
 31
0.0
  0
LINE
  5
C2
100
AcDbEntity
  8
0
  6
Continuous
 62
   174
100
AcDbLine
 10
230.642577
 20
122.875087
 30
0.0
 11
230.642577
 21
127.875086
 31
0.0
  0
LINE
  5
C3
100
AcDbEntity
  8
0
  6
HIDDEN
 62
   174
100
AcDbLine
 10
102.46076
 20
168.37172
 30
0.0
 11
99.46081
 21
168.37172
 31
0.0
  0
LINE
  5
C4
100
AcDbEntity
  8
0
  6
HIDDEN
 62
   174
100
AcDbLine
 10
142.817577
 20
115.37172
 30
0.0
 11
142.817577
 21
105.37172
 31
0.0
  0
LINE
  5
C5
100
AcDbEntity
  8
0
  6
HIDDEN
 62
   174
100
AcDbLine
 10
230.642577
 20
120.29279
 30
0.0
 11
224.442577
 21
120.29279
 31
0.0
  0
LINE
  5
C6
100
AcDbEntity
  8
0
  6
HIDDEN
 62
   174
100
AcDbLine
 10
208.299402
 20
171.37172
 30
0.0
 11
210.276585
 21
171.37172
 31
0.0
  0
LINE
  5
C7
100
AcDbEntity
  8
0
  6
HIDDEN
 62
   174
100
AcDbLine
 10
165.522577
 20
115.37172
 30
0.0
 11
165.522577
 21
105.37172
 31
0.0
  0
LINE
  5
C8
100
AcDbEntity
  8
0
  6
HIDDEN
 62
   174
100
AcDbLine
 10
237.442577
 20
163.380647
 30
0.0
 11
237.442577
 21
169.880397
 31
0.0
  0
LINE
  5
C9
100
AcDbEntity
  8
0
  6
HIDDEN
 62
   174
100
AcDbLine
 10
230.642577
 20
133.985599
 30
0.0
 11
224.442577
 21
133.985599
 31
0.0
  0
LINE
  5
CA
100
AcDbEntity
  8
0
  6
Continuous
 62
   174
100
AcDbLine
 10
65.242577
 20
133.985599
 30
0.0
 11
65.242577
 21
130.45032
 31
0.0
  0
LINE
  5
CB
100
AcDbEntity
  8
0
  6
HIDDEN
 62
   174
100
AcDbLine
 10
76.442577
 20
171.37172
 30
0.0
 11
84.185753
 21
171.37172
 31
0.0
  0
LINE
  5
CC
100
AcDbEntity
  8
0
  6
HIDDEN
 62
   174
100
AcDbLine
 10
85.217102
 20
171.32172
 30
0.0
 11
84.603814
 21
171.32172
 31
0.0
  0
LINE
  5
CD
100
AcDbEntity
  8
0
  6
Continuous
 62
   174
100
AcDbLine
 10
171.942577
 20
107.37172
 30
0.0
 11
171.942577
 21
143.37172
 31
0.0
  0
LINE
  5
CE
100
AcDbEntity
  8
0
  6
Continuous
 62
   174
100
AcDbLine
 10
57.742577
 20
158.803185
 30
0.0
 11
57.742577
 21
154.381647
 31
0.0
  0
LINE
  5
CF
100
AcDbEntity
  8
0
  6
Continuous
 62
   174
100
AcDbLine
 10
65.242577
 20
130.461071
 30
0.0
 11
65.242577
 21
127.882797
 31
0.0
  0
LINE
  5
D0
100
AcDbEntity
  8
0
  6
Continuous
 62
   174
100
AcDbLine
 10
230.642577
 20
115.701369
 30
0.0
 11
230.642577
 21
116.770321
 31
0.0
  0
LINE
  5
D1
100
AcDbEntity
  8
0
  6
HIDDEN
 62
   174
100
AcDbLine
 10
113.460647
 20
143.32172
 30
0.0
 11
111.240319
 21
143.32172
 31
0.0
  0
LINE
  5
D2
100
AcDbEntity
  8
0
  6
HIDDEN
 62
   174
100
AcDbLine
 10
99.442577
 20
168.37172
 30
0.0
 11
76.442577
 21
168.37172
 31
0.0
  0
ARC
  5
D3
100
AcDbEntity
  8
0
  6
HIDDEN
 62
   174
100
AcDbCircle
 10
196.442577
 20
168.37172
 30
0.0
 40
3.0
100
AcDbArc
 50
-270.0
 51
-180.0
  0
LINE
  5
D4
100
AcDbEntity
  8
0
  6
Continuous
 62
   174
100
AcDbLine
 10
237.442577
 20
172.380284
 30
0.0
 11
237.442577
 21
170.094739
 31
0.0
  0
LINE
  5
D5
100
AcDbEntity
  8
0
  6
HIDDEN
 62
   174
100
AcDbLine
 10
238.142577
 20
172.379647
 30
0.0
 11
238.142577
 21
172.380284
 31
0.0
  0
LWPOLYLINE
  5
D6
100
AcDbEntity
  8
0
  6
HIDDEN
 62
   174
100
AcDbPolyline
 90
        4
 70
   128
 10
53.942577
 20
169.636635
 10
54.075698
 20
169.028276
 10
54.30878
 20
168.417201
 10
54.635398
 20
167.793611
  0
LINE
  5
D7
100
AcDbEntity
  8
0
  6
HIDDEN
 62
   174
100
AcDbLine
 10
219.460719
 20
142.37172
 30
0.0
 11
222.460669
 21
142.37172
 31
0.0
  0
LINE
  5
D8
100
AcDbEntity
  8
0
  6
HIDDEN
 62
   174
100
AcDbLine
 10
111.222283
 20
143.32172
 30
0.0
 11
111.222283
 21
143.37172
 31
0.0
  0
LINE
  5
D9
100
AcDbEntity
  8
0
  6
Continuous
 62
   174
100
AcDbLine
 10
176.942577
 20
143.37172
 30
0.0
 11
176.942577
 21
107.37172
 31
0.0
  0
LINE
  5
DA
100
AcDbEntity
  8
0
  6
Continuous
 62
   174
100
AcDbLine
 10
234.442577
 20
155.381134
 30
0.0
 11
234.442577
 21
156.774469
 31
0.0
  0
LINE
  5
DB
100
AcDbEntity
  8
0
  6
Continuous
 62
   174
100
AcDbLine
 10
238.142577
 20
163.380647
 30
0.0
 11
238.142577
 21
167.802397
 31
0.0
  0
LINE
  5
DC
100
AcDbEntity
  8
0
  6
HIDDEN
 62
   174
100
AcDbLine
 10
57.742577
 20
172.371271
 30
0.0
 11
57.742577
 21
167.793611
 31
0.0
  0
ARC
  5
DD
100
AcDbEntity
  8
0
  6
HIDDEN
 62
   174
100
AcDbCircle
 10
219.442577
 20
168.37172
 30
0.0
 40
3.0
100
AcDbArc
 50
72.0
 51
90.0
  0
LINE
  5
DE
100
AcDbEntity
  8
0
  6
Continuous
 62
   174
100
AcDbLine
 10
71.442577
 20
130.461071
 30
0.0
 11
71.442577
 21
133.996135
 31
0.0
  0
LINE
  5
DF
100
AcDbEntity
  8
0
  6
HIDDEN
 62
   174
100
AcDbLine
 10
152.362577
 20
115.37172
 30
0.0
 11
152.362577
 21
105.37172
 31
0.0
  0
LINE
  5
E0
100
AcDbEntity
  8
0
  6
HIDDEN
 62
   174
100
AcDbLine
 10
131.067577
 20
115.37172
 30
0.0
 11
131.067577
 21
105.37172
 31
0.0
  0
LWPOLYLINE
  5
E1
100
AcDbEntity
  8
0
  6
HIDDEN
 62
   174
100
AcDbPolyline
 90
        4
 70
   128
 10
241.942577
 20
164.263331
 10
241.809457
 20
165.480047
 10
241.576372
 20
166.70221
 10
241.249757
 20
167.94938
  0
LINE
  5
E2
100
AcDbEntity
  8
0
  6
HIDDEN
 62
   174
100
AcDbLine
 10
71.442577
 20
122.875087
 30
0.0
 11
71.442577
 21
127.875086
 31
0.0
  0
LWPOLYLINE
  5
E3
100
AcDbEntity
  8
0
  6
Continuous
 62
   174
100
AcDbPolyline
 90
        4
 70
   128
 10
241.278518
 20
172.3219
 10
241.577658
 20
171.744863
 10
241.810412
 20
171.13345
 10
241.942577
 20
170.528246
  0
LINE
  5
E4
100
AcDbEntity
  8
0
  6
Continuous
 62
   174
100
AcDbLine
 10
65.242577
 20
133.985599
 30
0.0
 11
71.442577
 21
133.985599
 31
0.0
  0
LINE
  5
E5
100
AcDbEntity
  8
0
  6
HIDDEN
 62
   174
100
AcDbLine
 10
84.185753
 20
171.37172
 30
0.0
 11
84.586078
 21
171.37172
 31
0.0
  0
LINE
  5
E6
100
AcDbEntity
  8
0
  6
HIDDEN
 62
   174
100
AcDbLine
 10
210.276585
 20
171.37172
 30
0.0
 11
210.686249
 21
171.37172
 31
0.0
  0
LINE
  5
E7
100
AcDbEntity
  8
0
  6
HIDDEN
 62
   174
100
AcDbLine
 10
76.460698
 20
168.37172
 30
0.0
 11
73.460748
 21
168.37172
 31
0.0
  0
LINE
  5
E8
100
AcDbEntity
  8
0
  6
HIDDEN
 62
   174
100
AcDbLine
 10
196.460607
 20
142.37172
 30
0.0
 11
193.460657
 21
142.37172
 31
0.0
  0
LINE
  5
E9
100
AcDbEntity
  8
0
  6
HIDDEN
 62
   174
100
AcDbLine
 10
114.462684
 20
143.37172
 30
0.0
 11
114.387696
 21
143.37172
 31
0.0
  0
LINE
  5
EA
100
AcDbEntity
  8
0
  6
HIDDEN
 62
   174
100
AcDbLine
 10
182.387694
 20
143.37172
 30
0.0
 11
181.533721
 21
143.37172
 31
0.0
  0
LINE
  5
EB
100
AcDbEntity
  8
0
  6
HIDDEN
 62
   174
100
AcDbLine
 10
116.6811
 20
143.37172
 30
0.0
 11
114.460772
 21
143.37172
 31
0.0
  0
LINE
  5
EC
100
AcDbEntity
  8
0
  6
HIDDEN
 62
   174
100
AcDbLine
 10
72.942577
 20
115.38336
 30
0.0
 11
72.942577
 21
125.38291
 31
0.0
  0
LINE
  5
ED
100
AcDbEntity
  8
0
  6
HIDDEN
 62
   174
100
AcDbLine
 10
61.442577
 20
156.881109
 30
0.0
 11
61.442577
 21
163.380647
 31
0.0
  0
LINE
  5
EE
100
AcDbEntity
  8
0
  6
HIDDEN
 62
   174
100
AcDbLine
 10
73.442577
 20
168.380422
 30
0.0
 11
73.442577
 21
166.164342
 31
0.0
  0
LINE
  5
EF
100
AcDbEntity
  8
0
  6
Continuous
 62
   174
100
AcDbLine
 10
73.442577
 20
168.37172
 30
0.0
 11
73.442577
 21
166.155602
 31
0.0
  0
LINE
  5
F0
100
AcDbEntity
  8
0
  6
Continuous
 62
   174
100
AcDbLine
 10
196.442577
 20
168.37172
 30
0.0
 11
219.442577
 21
168.37172
 31
0.0
  0
LINE
  5
F1
100
AcDbEntity
  8
0
  6
Continuous
 62
   174
100
AcDbLine
 10
241.942577
 20
157.106805
 30
0.0
 11
241.942577
 21
156.215194
 31
0.0
  0
LINE
  5
F2
100
AcDbEntity
  8
0
  6
Continuous
 62
   174
100
AcDbLine
 10
196.460607
 20
168.37172
 30
0.0
 11
193.460657
 21
168.37172
 31
0.0
  0
LINE
  5
F3
100
AcDbEntity
  8
0
  6
Continuous
 62
   174
100
AcDbLine
 10
219.442577
 20
171.380159
 30
0.0
 11
219.442577
 21
168.380422
 31
0.0
  0
LINE
  5
F4
100
AcDbEntity
  8
0
  6
HIDDEN
 62
   174
100
AcDbLine
 10
65.242577
 20
120.295786
 30
0.0
 11
71.442577
 21
120.295786
 31
0.0
  0
LINE
  5
F5
100
AcDbEntity
  8
0
  6
HIDDEN
 62
   174
100
AcDbLine
 10
142.817577
 20
115.37172
 30
0.0
 11
142.817577
 21
105.37172
 31
0.0
  0
LINE
  5
F6
100
AcDbEntity
  8
0
  6
Continuous
 62
   174
100
AcDbLine
 10
123.942577
 20
143.37172
 30
0.0
 11
123.942577
 21
107.37172
 31
0.0
  0
LINE
  5
F7
100
AcDbEntity
  8
0
  6
HIDDEN
 62
   174
100
AcDbLine
 10
237.442577
 20
156.881109
 30
0.0
 11
237.442577
 21
163.380647
 31
0.0
  0
LWPOLYLINE
  5
F8
100
AcDbEntity
  8
0
  6
Continuous
 62
   174
100
AcDbPolyline
 90
        4
 70
   128
 10
73.484537
 20
163.37172
 10
73.475542
 20
162.422713
 10
73.455137
 20
161.484547
 10
73.442577
 20
160.587838
  0
LINE
  5
F9
100
AcDbEntity
  8
0
  6
HIDDEN
 62
   174
100
AcDbLine
 10
210.686249
 20
171.37172
 30
0.0
 11
211.299402
 21
171.37172
 31
0.0
  0
LINE
  5
FA
100
AcDbEntity
  8
0
  6
HIDDEN
 62
   174
100
AcDbLine
 10
211.317603
 20
171.32172
 30
0.0
 11
206.500094
 21
171.32172
 31
0.0
  0
LINE
  5
FB
100
AcDbEntity
  8
0
  6
HIDDEN
 62
   174
100
AcDbLine
 10
152.380759
 20
105.37172
 30
0.0
 11
165.540645
 21
105.37172
 31
0.0
  0
LINE
  5
FC
100
AcDbEntity
  8
0
  6
HIDDEN
 62
   174
100
AcDbLine
 10
129.310758
 20
145.37172
 30
0.0
 11
132.61066
 21
145.37172
 31
0.0
  0
LINE
  5
FD
100
AcDbEntity
  8
0
  6
HIDDEN
 62
   174
100
AcDbLine
 10
241.249757
 20
167.94938
 30
0.0
 11
238.142577
 21
167.94938
 31
0.0
  0
LINE
  5
FE
100
AcDbEntity
  8
0
  6
Continuous
 62
   174
100
AcDbLine
 10
54.635398
 20
154.372169
 30
0.0
 11
54.607924
 21
154.421006
 31
0.0
  0
LINE
  5
FF
100
AcDbEntity
  8
0
  6
HIDDEN
 62
   174
100
AcDbLine
 10
222.460669
 20
168.37172
 30
0.0
 11
219.460719
 21
168.37172
 31
0.0
  0
LINE
  5
100
100
AcDbEntity
  8
0
  6
HIDDEN
 62
   174
100
AcDbLine
 10
84.586078
 20
171.37172
 30
0.0
 11
85.60857
 21
171.37172
 31
0.0
  0
LINE
  5
101
100
AcDbEntity
  8
0
  6
HIDDEN
 62
   174
100
AcDbLine
 10
184.680886
 20
143.32172
 30
0.0
 11
182.46077
 21
143.32172
 31
0.0
  0
LINE
  5
102
100
AcDbEntity
  8
0
  6
Continuous
 62
   174
100
AcDbLine
 10
222.442577
 20
142.37172
 30
0.0
 11
222.442577
 21
160.587838
 31
0.0
  0
ARC
  5
103
100
AcDbEntity
  8
0
  6
Continuous
 62
   174
100
AcDbCircle
 10
99.442577
 20
168.37172
 30
0.0
 40
3.0
100
AcDbArc
 50
0.0
 51
90.0
  0
LINE
  5
104
100
AcDbEntity
  8
0
  6
Continuous
 62
   174
100
AcDbLine
 10
237.442577
 20
156.666554
 30
0.0
 11
237.442577
 21
154.381222
 31
0.0
  0
LINE
  5
105
100
AcDbEntity
  8
0
  6
Continuous
 62
   174
100
AcDbLine
 10
238.142577
 20
167.802397
 30
0.0
 11
238.142577
 21
172.380284
 31
0.0
  0
LINE
  5
106
100
AcDbEntity
  8
0
  6
HIDDEN
 62
   174
100
AcDbLine
 10
54.635398
 20
172.371271
 30
0.0
 11
54.606546
 21
172.321747
 31
0.0
  0
LINE
  5
107
100
AcDbEntity
  8
0
  6
Continuous
 62
   174
100
AcDbLine
 10
65.242577
 20
120.29279
 30
0.0
 11
65.242577
 21
116.757001
 31
0.0
  0
LINE
  5
108
100
AcDbEntity
  8
0
  6
HIDDEN
 62
   174
100
AcDbLine
 10
102.442577
 20
168.37172
 30
0.0
 11
102.442577
 21
142.37172
 31
0.0
  0
LINE
  5
109
100
AcDbEntity
  8
0
  6
HIDDEN
 62
   174
100
AcDbLine
 10
90.603926
 20
171.32172
 30
0.0
 11
85.626669
 21
171.32172
 31
0.0
  0
LINE
  5
10A
100
AcDbEntity
  8
0
  6
Continuous
 62
   174
100
AcDbLine
 10
61.442577
 20
156.774044
 30
0.0
 11
61.442577
 21
155.381134
 31
0.0
  0
LINE
  5
10B
100
AcDbEntity
  8
0
  6
HIDDEN
 62
   174
100
AcDbLine
 10
129.292577
 20
145.37172
 30
0.0
 11
129.292577
 21
105.37172
 31
0.0
  0
ARC
  5
10C
100
AcDbEntity
  8
0
  6
HIDDEN
 62
   174
100
AcDbCircle
 10
219.442577
 20
168.37172
 30
0.0
 40
3.0
100
AcDbArc
 50
54.0
 51
72.0
  0
LINE
  5
10D
100
AcDbEntity
  8
0
  6
Continuous
 62
   174
100
AcDbLine
 10
224.442577
 20
135.382247
 30
0.0
 11
224.442577
 21
135.0653
 31
0.0
  0
LINE
  5
10E
100
AcDbEntity
  8
0
  6
Continuous
 62
   174
100
AcDbLine
 10
192.942577
 20
143.37172
 30
0.0
 11
176.942577
 21
143.37172
 31
0.0
  0
LWPOLYLINE
  5
10F
100
AcDbEntity
  8
0
  6
Continuous
 62
   174
100
AcDbPolyline
 90
        4
 70
   128
 10
241.942577
 20
156.215194
 10
241.809457
 20
155.606835
 10
241.576374
 20
154.99576
 10
241.278478
 20
154.42147
  0
LINE
  5
110
100
AcDbEntity
  8
0
  6
Continuous
 62
   174
100
AcDbLine
 10
230.642577
 20
120.295786
 30
0.0
 11
224.442577
 21
120.295786
 31
0.0
  0
LINE
  5
111
100
AcDbEntity
  8
0
  6
HIDDEN
 62
   174
100
AcDbLine
 10
182.442577
 20
143.37172
 30
0.0
 11
182.442577
 21
143.32172
 31
0.0
  0
LINE
  5
112
100
AcDbEntity
  8
0
  6
HIDDEN
 62
   174
100
AcDbLine
 10
114.387696
 20
143.37172
 30
0.0
 11
113.533723
 21
143.37172
 31
0.0
  0
LINE
  5
113
100
AcDbEntity
  8
0
  6
HIDDEN
 62
   174
100
AcDbLine
 10
181.533721
 20
143.37172
 30
0.0
 11
181.458733
 21
143.37172
 31
0.0
  0
LINE
  5
114
100
AcDbEntity
  8
0
  6
Continuous
 62
   174
100
AcDbLine
 10
192.942577
 20
114.37172
 30
0.0
 11
222.942577
 21
114.37172
 31
0.0
  0
LINE
  5
115
100
AcDbEntity
  8
0
  6
HIDDEN
 62
   174
100
AcDbLine
 10
142.817577
 20
105.37172
 30
0.0
 11
142.817577
 21
117.37172
 31
0.0
  0
LINE
  5
116
100
AcDbEntity
  8
0
  6
HIDDEN
 62
   174
100
AcDbLine
 10
72.942577
 20
125.38291
 30
0.0
 11
72.942577
 21
135.382247
 31
0.0
  0
LINE
  5
117
100
AcDbEntity
  8
0
  6
HIDDEN
 62
   174
100
AcDbLine
 10
234.442577
 20
163.380647
 30
0.0
 11
234.442577
 21
156.881109
 31
0.0
  0
LINE
  5
118
100
AcDbEntity
  8
0
  6
HIDDEN
 62
   174
100
AcDbLine
 10
224.442577
 20
120.29279
 30
0.0
 11
224.442577
 21
116.757001
 31
0.0
  0
LINE
  5
119
100
AcDbEntity
  8
0
  6
Continuous
 62
   174
100
AcDbLine
 10
171.942577
 20
145.37172
 30
0.0
 11
123.942577
 21
145.37172
 31
0.0
  0
LINE
  5
11A
100
AcDbEntity
  8
0
  6
HIDDEN
 62
   174
100
AcDbLine
 10
85.60857
 20
171.37172
 30
0.0
 11
87.585753
 21
171.37172
 31
0.0
  0
LINE
  5
11B
100
AcDbEntity
  8
0
  6
HIDDEN
 62
   174
100
AcDbLine
 10
211.299402
 20
171.37172
 30
0.0
 11
211.699402
 21
171.37172
 31
0.0
  0
LINE
  5
11C
100
AcDbEntity
  8
0
  6
Continuous
 62
   174
100
AcDbLine
 10
71.442577
 20
122.883022
 30
0.0
 11
71.442577
 21
126.878848
 31
0.0
  0
LWPOLYLINE
  5
11D
100
AcDbEntity
  8
0
  6
Continuous
 62
   174
100
AcDbPolyline
 90
        6
 70
   128
 10
54.091917
 20
155.64989
 10
54.041173
 20
155.860906
 10
53.96427
 20
156.583155
 10
54.041188
 20
157.305394
 10
54.269288
 20
158.042413
 10
54.635398
 20
158.79406
  0
LINE
  5
11E
100
AcDbEntity
  8
0
  6
HIDDEN
 62
   174
100
AcDbLine
 10
87.603976
 20
171.32172
 30
0.0
 11
91.003934
 21
171.32172
 31
0.0
  0
LINE
  5
11F
100
AcDbEntity
  8
0
  6
HIDDEN
 62
   174
100
AcDbLine
 10
153.067577
 20
115.37172
 30
0.0
 11
153.067577
 21
105.37172
 31
0.0
  0
LINE
  5
120
100
AcDbEntity
  8
0
  6
HIDDEN
 62
   174
100
AcDbLine
 10
132.592577
 20
145.37172
 30
0.0
 11
132.592577
 21
105.37172
 31
0.0
  0
LINE
  5
121
100
AcDbEntity
  8
0
  6
HIDDEN
 62
   174
100
AcDbLine
 10
71.442577
 20
116.758768
 30
0.0
 11
71.442577
 21
120.295786
 31
0.0
  0
LINE
  5
122
100
AcDbEntity
  8
0
  6
HIDDEN
 62
   174
100
AcDbLine
 10
110.96076
 20
143.32172
 30
0.0
 11
116.96066
 21
143.32172
 31
0.0
  0
LINE
  5
123
100
AcDbEntity
  8
0
  6
Continuous
 62
   174
100
AcDbLine
 10
234.442577
 20
169.987249
 30
0.0
 11
234.442577
 21
171.380159
 31
0.0
  0
LINE
  5
124
100
AcDbEntity
  8
0
  6
HIDDEN
 62
   174
100
AcDbLine
 10
65.242577
 20
116.758768
 30
0.0
 11
71.442577
 21
116.758768
 31
0.0
  0
LWPOLYLINE
  5
125
100
AcDbEntity
  8
0
  6
Continuous
 62
   174
100
AcDbPolyline
 90
        4
 70
   128
 10
73.484537
 20
163.37172
 10
73.475543
 20
164.320703
 10
73.455137
 20
165.258869
 10
73.442577
 20
166.155602
  0
LINE
  5
126
100
AcDbEntity
  8
0
  6
HIDDEN
 62
   174
100
AcDbLine
 10
116.942577
 20
143.32172
 30
0.0
 11
116.942577
 21
143.37172
 31
0.0
  0
LINE
  5
127
100
AcDbEntity
  8
0
  6
HIDDEN
 62
   174
100
AcDbLine
 10
113.442577
 20
143.37172
 30
0.0
 11
113.442577
 21
143.32172
 31
0.0
  0
LINE
  5
128
100
AcDbEntity
  8
0
  6
HIDDEN
 62
   174
100
AcDbLine
 10
184.680886
 20
143.37172
 30
0.0
 11
182.46077
 21
143.37172
 31
0.0
  0
LINE
  5
129
100
AcDbEntity
  8
0
  6
HIDDEN
 62
   174
100
AcDbLine
 10
196.460607
 20
168.37172
 30
0.0
 11
193.460657
 21
168.37172
 31
0.0
  0
LINE
  5
12A
100
AcDbEntity
  8
0
  6
HIDDEN
 62
   174
100
AcDbLine
 10
165.522577
 20
115.37172
 30
0.0
 11
165.522577
 21
105.37172
 31
0.0
  0
LINE
  5
12B
100
AcDbEntity
  8
0
  6
HIDDEN
 62
   174
100
AcDbLine
 10
131.067577
 20
105.37172
 30
0.0
 11
131.067577
 21
117.37172
 31
0.0
  0
LINE
  5
12C
100
AcDbEntity
  8
0
  6
HIDDEN
 62
   174
100
AcDbLine
 10
153.817577
 20
135.37172
 30
0.0
 11
153.817577
 21
145.37172
 31
0.0
  0
LINE
  5
12D
100
AcDbEntity
  8
0
  6
Continuous
 62
   174
100
AcDbLine
 10
57.742577
 20
167.958109
 30
0.0
 11
57.742577
 21
163.380647
 31
0.0
  0
LINE
  5
12E
100
AcDbEntity
  8
0
  6
Continuous
 62
   174
100
AcDbLine
 10
230.642577
 20
127.885983
 30
0.0
 11
230.642577
 21
130.464046
 31
0.0
  0
LINE
  5
12F
100
AcDbEntity
  8
0
  6
Continuous
 62
   174
100
AcDbLine
 10
54.60872
 20
154.419595
 30
0.0
 11
54.091917
 21
155.64989
 31
0.0
  0
LINE
  5
130
100
AcDbEntity
  8
0
  6
HIDDEN
 62
   174
100
AcDbLine
 10
54.606591
 20
154.421619
 30
0.0
 11
54.635398
 21
154.372169
 31
0.0
  0
LINE
  5
131
100
AcDbEntity
  8
0
  6
HIDDEN
 62
   174
100
AcDbLine
 10
196.442577
 20
171.37172
 30
0.0
 11
204.899402
 21
171.37172
 31
0.0
  0
LINE
  5
132
100
AcDbEntity
  8
0
  6
HIDDEN
 62
   174
100
AcDbLine
 10
211.699402
 20
171.37172
 30
0.0
 11
219.442577
 21
171.37172
 31
0.0
  0
ARC
  5
133
100
AcDbEntity
  8
0
  6
HIDDEN
 62
   174
100
AcDbCircle
 10
99.442577
 20
168.37172
 30
0.0
 40
3.0
100
AcDbArc
 50
0.0
 51
18.0
  0
LINE
  5
134
100
AcDbEntity
  8
0
  6
Continuous
 62
   174
100
AcDbLine
 10
76.442577
 20
168.37172
 30
0.0
 11
99.442577
 21
168.37172
 31
0.0
  0
LINE
  5
135
100
AcDbEntity
  8
0
  6
Continuous
 62
   174
100
AcDbLine
 10
237.442577
 20
163.380647
 30
0.0
 11
237.442577
 21
156.666554
 31
0.0
  0
LINE
  5
136
100
AcDbEntity
  8
0
  6
HIDDEN
 62
   174
100
AcDbLine
 10
224.442577
 20
133.985599
 30
0.0
 11
224.442577
 21
130.45032
 31
0.0
  0
LINE
  5
137
100
AcDbEntity
  8
0
  6
Continuous
 62
   174
100
AcDbLine
 10
241.942577
 20
170.528246
 30
0.0
 11
241.942577
 21
169.636635
 31
0.0
  0
LINE
  5
138
100
AcDbEntity
  8
0
  6
HIDDEN
 62
   174
100
AcDbLine
 10
65.242577
 20
122.875087
 30
0.0
 11
71.442577
 21
122.875087
 31
0.0
  0
LWPOLYLINE
  5
139
100
AcDbEntity
  8
0
  6
HIDDEN
 62
   174
100
AcDbPolyline
 90
        6
 70
   128
 10
76.442577
 20
171.37172
 10
75.537261
 20
171.23186
 10
74.728956
 20
170.834138
 10
74.067108
 20
170.203972
 10
73.615283
 20
169.374917
 10
73.442577
 20
168.37172
  0
LINE
  5
13A
100
AcDbEntity
  8
0
  6
Continuous
 62
   174
100
AcDbLine
 10
230.642577
 20
127.875086
 30
0.0
 11
224.442577
 21
127.875086
 31
0.0
  0
LINE
  5
13B
100
AcDbEntity
  8
0
  6
HIDDEN
 62
   174
100
AcDbLine
 10
87.585753
 20
171.37172
 30
0.0
 11
89.403157
 21
171.37172
 31
0.0
  0
LINE
  5
13C
100
AcDbEntity
  8
0
  6
HIDDEN
 62
   174
100
AcDbLine
 10
206.061212
 20
171.32172
 30
0.0
 11
205.317491
 21
171.32172
 31
0.0
  0
LINE
  5
13D
100
AcDbEntity
  8
0
  6
Continuous
 62
   174
100
AcDbLine
 10
61.442577
 20
163.380647
 30
0.0
 11
61.442577
 21
156.774044
 31
0.0
  0
ARC
  5
13E
100
AcDbEntity
  8
0
  6
HIDDEN
 62
   174
100
AcDbCircle
 10
219.442577
 20
168.37172
 30
0.0
 40
3.0
100
AcDbArc
 50
36.0
 51
54.0
  0
LINE
  5
13F
100
AcDbEntity
  8
0
  6
HIDDEN
 62
   174
100
AcDbLine
 10
164.817577
 20
115.37172
 30
0.0
 11
164.817577
 21
105.37172
 31
0.0
  0
LINE
  5
140
100
AcDbEntity
  8
0
  6
HIDDEN
 62
   174
100
AcDbLine
 10
129.292577
 20
145.37172
 30
0.0
 11
129.292577
 21
105.37172
 31
0.0
  0
LINE
  5
141
100
AcDbEntity
  8
0
  6
Continuous
 62
   174
100
AcDbLine
 10
241.942577
 20
155.581244
 30
0.0
 11
241.942577
 21
156.224485
 31
0.0
  0
LWPOLYLINE
  5
142
100
AcDbEntity
  8
0
  6
HIDDEN
 62
   174
100
AcDbPolyline
 90
        4
 70
   128
 10
73.442577
 20
166.155602
 10
73.455137
 20
165.258867
 10
73.475542
 20
164.320713
 10
73.484537
 20
163.37172
  0
LINE
  5
143
100
AcDbEntity
  8
0
  6
Continuous
 62
   174
100
AcDbLine
 10
224.442577
 20
120.307297
 30
0.0
 11
224.442577
 21
116.770321
 31
0.0
  0
LINE
  5
144
100
AcDbEntity
  8
0
  6
HIDDEN
 62
   174
100
AcDbLine
 10
113.533723
 20
143.37172
 30
0.0
 11
113.458735
 21
143.37172
 31
0.0
  0
LINE
  5
145
100
AcDbEntity
  8
0
  6
HIDDEN
 62
   174
100
AcDbLine
 10
181.458733
 20
143.37172
 30
0.0
 11
179.437028
 21
143.37172
 31
0.0
  0
LINE
  5
146
100
AcDbEntity
  8
0
  6
HIDDEN
 62
   174
100
AcDbLine
 10
193.442577
 20
168.37172
 30
0.0
 11
193.442577
 21
142.37172
 31
0.0
  0
LINE
  5
147
100
AcDbEntity
  8
0
  6
HIDDEN
 62
   174
100
AcDbLine
 10
142.067577
 20
135.37172
 30
0.0
 11
142.067577
 21
145.37172
 31
0.0
  0
LINE
  5
148
100
AcDbEntity
  8
0
  6
HIDDEN
 62
   174
100
AcDbLine
 10
238.142577
 20
154.372169
 30
0.0
 11
238.142577
 21
158.79406
 31
0.0
  0
LWPOLYLINE
  5
149
100
AcDbEntity
  8
0
  6
Continuous
 62
   174
100
AcDbPolyline
 90
        4
 70
   128
 10
241.249757
 20
158.949829
 10
241.577658
 20
158.323422
 10
241.810412
 20
157.712009
 10
241.942577
 20
157.106805
  0
LWPOLYLINE
  5
14A
100
AcDbEntity
  8
0
  6
Continuous
 62
   174
100
AcDbPolyline
 90
        7
 70
   128
 10
241.249757
 20
167.793611
 10
241.615859
 20
166.29034
 10
241.843959
 20
164.81635
 10
241.92089
 20
163.371957
 10
241.844003
 20
161.927511
 10
241.615911
 20
160.45336
 10
241.249757
 20
158.949829
  0
LINE
  5
14B
100
AcDbEntity
  8
0
  6
Continuous
 62
   174
100
AcDbLine
 10
238.142577
 20
172.371271
 30
0.0
 11
241.249757
 21
172.371271
 31
0.0
  0
LINE
  5
14C
100
AcDbEntity
  8
0
  6
Continuous
 62
   174
100
AcDbLine
 10
71.442577
 20
126.878848
 30
0.0
 11
71.442577
 21
127.882797
 31
0.0
  0
LINE
  5
14D
100
AcDbEntity
  8
0
  6
HIDDEN
 62
   174
100
AcDbLine
 10
110.942577
 20
143.32172
 30
0.0
 11
110.942577
 21
143.37172
 31
0.0
  0
LINE
  5
14E
100
AcDbEntity
  8
0
  6
HIDDEN
 62
   174
100
AcDbLine
 10
102.46076
 20
142.37172
 30
0.0
 11
99.46081
 21
142.37172
 31
0.0
  0
LINE
  5
14F
100
AcDbEntity
  8
0
  6
HIDDEN
 62
   174
100
AcDbLine
 10
210.273659
 20
171.32172
 30
0.0
 11
206.046059
 21
171.32172
 31
0.0
  0
LINE
  5
150
100
AcDbEntity
  8
0
  6
HIDDEN
 62
   174
100
AcDbLine
 10
142.817577
 20
105.37172
 30
0.0
 11
142.817577
 21
117.37172
 31
0.0
  0
LINE
  5
151
100
AcDbEntity
  8
0
  6
HIDDEN
 62
   174
100
AcDbLine
 10
163.310757
 20
145.37172
 30
0.0
 11
166.610659
 21
145.37172
 31
0.0
  0
LINE
  5
152
100
AcDbEntity
  8
0
  6
HIDDEN
 62
   174
100
AcDbLine
 10
230.642577
 20
122.87172
 30
0.0
 11
224.442577
 21
122.87172
 31
0.0
  0
LINE
  5
153
100
AcDbEntity
  8
0
  6
HIDDEN
 62
   174
100
AcDbLine
 10
230.642577
 20
130.45032
 30
0.0
 11
224.442577
 21
130.45032
 31
0.0
  0
LINE
  5
154
100
AcDbEntity
  8
0
  6
HIDDEN
 62
   174
100
AcDbLine
 10
89.403157
 20
171.37172
 30
0.0
 11
89.842021
 21
171.37172
 31
0.0
  0
LINE
  5
155
100
AcDbEntity
  8
0
  6
Continuous
 62
   174
100
AcDbLine
 10
99.442577
 20
171.37172
 30
0.0
 11
76.442577
 21
171.37172
 31
0.0
  0
LINE
  5
156
100
AcDbEntity
  8
0
  6
HIDDEN
 62
   174
100
AcDbLine
 10
84.203806
 20
171.32172
 30
0.0
 11
87.603976
 21
171.32172
 31
0.0
  0
LINE
  5
157
100
AcDbEntity
  8
0
  6
Continuous
 62
   174
100
AcDbLine
 10
241.249757
 20
172.371271
 30
0.0
 11
241.278608
 21
172.321747
 31
0.0
  0
LINE
  5
158
100
AcDbEntity
  8
0
  6
Continuous
 62
   174
100
AcDbLine
 10
65.242577
 20
135.053856
 30
0.0
 11
71.442577
 21
135.053856
 31
0.0
  0
LINE
  5
159
100
AcDbEntity
  8
0
  6
HIDDEN
 62
   174
100
AcDbLine
 10
178.960758
 20
143.32172
 30
0.0
 11
184.960658
 21
143.32172
 31
0.0
  0
LINE
  5
15A
100
AcDbEntity
  8
0
  6
HIDDEN
 62
   174
100
AcDbLine
 10
153.067577
 20
115.37172
 30
0.0
 11
153.067577
 21
105.37172
 31
0.0
  0
LINE
  5
15B
100
AcDbEntity
  8
0
  6
Continuous
 62
   174
100
AcDbLine
 10
234.442577
 20
163.380647
 30
0.0
 11
234.442577
 21
169.987249
 31
0.0
  0
LINE
  5
15C
100
AcDbEntity
  8
0
  6
HIDDEN
 62
   174
100
AcDbLine
 10
132.592577
 20
145.37172
 30
0.0
 11
132.592577
 21
105.37172
 31
0.0
  0
LINE
  5
15D
100
AcDbEntity
  8
0
  6
Continuous
 62
   174
100
AcDbLine
 10
57.742577
 20
163.380647
 30
0.0
 11
57.742577
 21
158.803185
 31
0.0
  0
LINE
  5
15E
100
AcDbEntity
  8
0
  6
Continuous
 62
   174
100
AcDbLine
 10
241.278564
 20
154.421619
 30
0.0
 11
241.249757
 21
154.372169
 31
0.0
  0
LINE
  5
15F
100
AcDbEntity
  8
0
  6
Continuous
 62
   174
100
AcDbLine
 10
230.642577
 20
116.758768
 30
0.0
 11
224.442577
 21
116.758768
 31
0.0
  0
LINE
  5
160
100
AcDbEntity
  8
0
  6
HIDDEN
 62
   174
100
AcDbLine
 10
90.585753
 20
171.37172
 30
0.0
 11
90.985753
 21
171.37172
 31
0.0
  0
LINE
  5
161
100
AcDbEntity
  8
0
  6
HIDDEN
 62
   174
100
AcDbLine
 10
76.442577
 20
142.37172
 30
0.0
 11
76.442577
 21
168.37172
 31
0.0
  0
ARC
  5
162
100
AcDbEntity
  8
0
  6
HIDDEN
 62
   174
100
AcDbCircle
 10
99.442577
 20
168.37172
 30
0.0
 40
3.0
100
AcDbArc
 50
-342.0
 51
-324.0
  0
LINE
  5
163
100
AcDbEntity
  8
0
  6
Continuous
 62
   174
100
AcDbLine
 10
118.942577
 20
143.37172
 30
0.0
 11
118.942577
 21
107.37172
 31
0.0
  0
LINE
  5
164
100
AcDbEntity
  8
0
  6
HIDDEN
 62
   174
100
AcDbLine
 10
131.067577
 20
105.37172
 30
0.0
 11
131.067577
 21
117.37172
 31
0.0
  0
LINE
  5
165
100
AcDbEntity
  8
0
  6
HIDDEN
 62
   174
100
AcDbLine
 10
153.817577
 20
145.37172
 30
0.0
 11
153.817577
 21
133.37172
 31
0.0
  0
LINE
  5
166
100
AcDbEntity
  8
0
  6
HIDDEN
 62
   174
100
AcDbLine
 10
153.817577
 20
135.37172
 30
0.0
 11
153.817577
 21
145.37172
 31
0.0
  0
LINE
  5
167
100
AcDbEntity
  8
0
  6
Continuous
 62
   174
100
AcDbLine
 10
58.442577
 20
156.666766
 30
0.0
 11
58.442577
 21
163.380647
 31
0.0
  0
LINE
  5
168
100
AcDbEntity
  8
0
  6
Continuous
 62
   174
100
AcDbLine
 10
123.942577
 20
105.37172
 30
0.0
 11
123.942577
 21
107.37172
 31
0.0
  0
ARC
  5
169
100
AcDbEntity
  8
0
  6
HIDDEN
 62
   174
100
AcDbCircle
 10
76.442577
 20
168.37172
 30
0.0
 40
3.0
100
AcDbArc
 50
90.0
 51
180.0
  0
LINE
  5
16A
100
AcDbEntity
  8
0
  6
HIDDEN
 62
   174
100
AcDbLine
 10
219.442577
 20
168.37172
 30
0.0
 11
196.442577
 21
168.37172
 31
0.0
  0
LINE
  5
16B
100
AcDbEntity
  8
0
  6
HIDDEN
 62
   174
100
AcDbLine
 10
196.442577
 20
168.37172
 30
0.0
 11
196.442577
 21
142.37172
 31
0.0
  0
LINE
  5
16C
100
AcDbEntity
  8
0
  6
HIDDEN
 62
   174
100
AcDbLine
 10
222.942577
 20
135.382247
 30
0.0
 11
222.942577
 21
125.38291
 31
0.0
  0
LINE
  5
16D
100
AcDbEntity
  8
0
  6
Continuous
 62
   174
100
AcDbLine
 10
61.442577
 20
169.986825
 30
0.0
 11
61.442577
 21
163.380647
 31
0.0
  0
LINE
  5
16E
100
AcDbEntity
  8
0
  6
Continuous
 62
   174
100
AcDbLine
 10
241.942577
 20
170.536808
 30
0.0
 11
241.942577
 21
171.180262
 31
0.0
  0
LWPOLYLINE
  5
16F
100
AcDbEntity
  8
0
  6
HIDDEN
 62
   174
100
AcDbPolyline
 90
        4
 70
   128
 10
73.442577
 20
160.587838
 10
73.455137
 20
161.484539
 10
73.475542
 20
162.422693
 10
73.484537
 20
163.37172
  0
LINE
  5
170
100
AcDbEntity
  8
0
  6
HIDDEN
 62
   174
100
AcDbLine
 10
65.242577
 20
130.453315
 30
0.0
 11
71.442577
 21
130.453315
 31
0.0
  0
ARC
  5
171
100
AcDbEntity
  8
0
  6
HIDDEN
 62
   174
100
AcDbCircle
 10
219.442577
 20
168.37172
 30
0.0
 40
3.0
100
AcDbArc
 50
18.0
 51
36.0
  0
LINE
  5
172
100
AcDbEntity
  8
0
  6
HIDDEN
 62
   174
100
AcDbLine
 10
89.842021
 20
171.37172
 30
0.0
 11
90.585753
 21
171.37172
 31
0.0
  0
LINE
  5
173
100
AcDbEntity
  8
0
  6
Continuous
 62
   174
100
AcDbLine
 10
53.942577
 20
162.489074
 30
0.0
 11
53.942577
 21
155.581244
 31
0.0
  0
LINE
  5
174
100
AcDbEntity
  8
0
  6
Continuous
 62
   174
100
AcDbLine
 10
222.460669
 20
168.37172
 30
0.0
 11
219.460719
 21
168.37172
 31
0.0
  0
LINE
  5
175
100
AcDbEntity
  8
0
  6
HIDDEN
 62
   174
100
AcDbLine
 10
113.458735
 20
143.37172
 30
0.0
 11
111.43703
 21
143.37172
 31
0.0
  0
LINE
  5
176
100
AcDbEntity
  8
0
  6
HIDDEN
 62
   174
100
AcDbLine
 10
179.437028
 20
143.37172
 30
0.0
 11
179.212913
 21
143.37172
 31
0.0
  0
LINE
  5
177
100
AcDbEntity
  8
0
  6
HIDDEN
 62
   174
100
AcDbLine
 10
164.817577
 20
115.37172
 30
0.0
 11
164.817577
 21
105.37172
 31
0.0
  0
LINE
  5
178
100
AcDbEntity
  8
0
  6
HIDDEN
 62
   174
100
AcDbLine
 10
238.142577
 20
154.381222
 30
0.0
 11
238.142577
 21
154.381647
 31
0.0
  0
LWPOLYLINE
  5
179
100
AcDbEntity
  8
0
  6
HIDDEN
 62
   174
100
AcDbPolyline
 90
        4
 70
   128
 10
54.606636
 20
172.3219
 10
54.307497
 20
171.744863
 10
54.074743
 20
171.13345
 10
53.942577
 20
170.528246
  0
LINE
  5
17A
100
AcDbEntity
  8
0
  6
HIDDEN
 62
   174
100
AcDbLine
 10
90.985753
 20
171.37172
 30
0.0
 11
99.442577
 21
171.37172
 31
0.0
  0
LINE
  5
17B
100
AcDbEntity
  8
0
  6
HIDDEN
 62
   174
100
AcDbLine
 10
73.460748
 20
142.37172
 30
0.0
 11
76.460698
 21
142.37172
 31
0.0
  0
LINE
  5
17C
100
AcDbEntity
  8
0
  6
Continuous
 62
   174
100
AcDbLine
 10
176.942577
 20
107.37172
 30
0.0
 11
192.942577
 21
107.37172
 31
0.0
  0
LINE
  5
17D
100
AcDbEntity
  8
0
  6
HIDDEN
 62
   174
100
AcDbLine
 10
142.067577
 20
135.37172
 30
0.0
 11
142.067577
 21
145.37172
 31
0.0
  0
LINE
  5
17E
100
AcDbEntity
  8
0
  6
HIDDEN
 62
   174
100
AcDbLine
 10
238.142577
 20
158.79406
 30
0.0
 11
238.142577
 21
167.94938
 31
0.0
  0
LINE
  5
17F
100
AcDbEntity
  8
0
  6
Continuous
 62
   174
100
AcDbLine
 10
57.742577
 20
172.371271
 30
0.0
 11
54.635398
 21
172.371271
 31
0.0
  0
LINE
  5
180
100
AcDbEntity
  8
0
  6
HIDDEN
 62
   174
100
AcDbLine
 10
184.942577
 20
143.32172
 30
0.0
 11
184.942577
 21
143.37172
 31
0.0
  0
LINE
  5
181
100
AcDbEntity
  8
0
  6
Continuous
 62
   174
100
AcDbLine
 10
71.442577
 20
135.06445
 30
0.0
 11
71.442577
 21
135.382247
 31
0.0
  0
LINE
  5
182
100
AcDbEntity
  8
0
  6
HIDDEN
 62
   174
100
AcDbLine
 10
208.317441
 20
171.32172
 30
0.0
 11
211.717398
 21
171.32172
 31
0.0
  0
LINE
  5
183
100
AcDbEntity
  8
0
  6
Continuous
 62
   174
100
AcDbLine
 10
99.442577
 20
168.37172
 30
0.0
 11
99.442577
 21
142.37172
 31
0.0
  0
LINE
  5
184
100
AcDbEntity
  8
0
  6
HIDDEN
 62
   174
100
AcDbLine
 10
130.362577
 20
115.37172
 30
0.0
 11
130.362577
 21
105.37172
 31
0.0
  0
LINE
  5
185
100
AcDbEntity
  8
0
  6
HIDDEN
 62
   174
100
AcDbLine
 10
154.540757
 20
135.37172
 30
0.0
 11
141.38066
 21
135.37172
 31
0.0
  0
LINE
  5
186
100
AcDbEntity
  8
0
  6
Continuous
 62
   174
100
AcDbLine
 10
123.942577
 20
107.37172
 30
0.0
 11
123.942577
 21
143.37172
 31
0.0
  0
LINE
  5
187
100
AcDbEntity
  8
0
  6
HIDDEN
 62
   174
100
AcDbLine
 10
113.460647
 20
143.37172
 30
0.0
 11
111.240319
 21
143.37172
 31
0.0
  0
LINE
  5
188
100
AcDbEntity
  8
0
  6
HIDDEN
 62
   174
100
AcDbLine
 10
163.292577
 20
145.37172
 30
0.0
 11
163.292577
 21
105.37172
 31
0.0
  0
LWPOLYLINE
  5
189
100
AcDbEntity
  8
0
  6
Continuous
 62
   174
100
AcDbPolyline
 90
        4
 70
   128
 10
54.635398
 20
158.79406
 10
54.307497
 20
160.046875
 10
54.074743
 20
161.269696
 10
53.942577
 20
162.480109
  0
LINE
  5
18A
100
AcDbEntity
  8
0
  6
Continuous
 62
   174
100
AcDbLine
 10
230.642577
 20
133.998047
 30
0.0
 11
230.642577
 21
135.0653
 31
0.0
  0
LWPOLYLINE
  5
18B
100
AcDbEntity
  8
0
  6
HIDDEN
 62
   174
100
AcDbPolyline
 90
        4
 70
   128
 10
53.942577
 20
156.215194
 10
54.075698
 20
155.606835
 10
54.30878
 20
154.99576
 10
54.606677
 20
154.42147
  0
LINE
  5
18C
100
AcDbEntity
  8
0
  6
HIDDEN
 62
   174
100
AcDbLine
 10
164.817577
 20
105.37172
 30
0.0
 11
164.817577
 21
117.37172
 31
0.0
  0
LINE
  5
18D
100
AcDbEntity
  8
0
  6
HIDDEN
 62
   174
100
AcDbLine
 10
163.310757
 20
105.37172
 30
0.0
 11
166.610659
 21
105.37172
 31
0.0
  0
LWPOLYLINE
  5
18E
100
AcDbEntity
  8
0
  6
Continuous
 62
   174
100
AcDbPolyline
 90
        6
 70
   128
 10
54.635398
 20
167.94938
 10
54.269271
 20
168.701071
 10
54.041173
 20
169.438117
 10
53.96427
 20
170.160365
 10
54.041188
 20
170.882604
 10
54.092088
 20
171.094186
  0
ARC
  5
18F
100
AcDbEntity
  8
0
  6
HIDDEN
 62
   174
100
AcDbCircle
 10
99.442577
 20
168.37172
 30
0.0
 40
3.0
100
AcDbArc
 50
-324.0
 51
-306.0
  0
LINE
  5
190
100
AcDbEntity
  8
0
  6
Continuous
 62
   174
100
AcDbLine
 10
58.442577
 20
154.381222
 30
0.0
 11
58.442577
 21
156.666766
 31
0.0
  0
LINE
  5
191
100
AcDbEntity
  8
0
  6
Continuous
 62
   174
100
AcDbLine
 10
219.442577
 20
171.37172
 30
0.0
 11
196.442577
 21
171.37172
 31
0.0
  0
ARC
  5
192
100
AcDbEntity
  8
0
  6
Continuous
 62
   174
100
AcDbCircle
 10
219.442577
 20
168.37172
 30
0.0
 40
3.0
100
AcDbArc
 50
0.0
 51
90.0
  0
LINE
  5
193
100
AcDbEntity
  8
0
  6
HIDDEN
 62
   174
100
AcDbLine
 10
178.942577
 20
143.32172
 30
0.0
 11
178.942577
 21
143.37172
 31
0.0
  0
LINE
  5
194
100
AcDbEntity
  8
0
  6
HIDDEN
 62
   174
100
AcDbLine
 10
143.522577
 20
115.37172
 30
0.0
 11
143.522577
 21
105.37172
 31
0.0
  0
LINE
  5
195
100
AcDbEntity
  8
0
  6
HIDDEN
 62
   174
100
AcDbLine
 10
142.067577
 20
145.37172
 30
0.0
 11
142.067577
 21
133.37172
 31
0.0
  0
LINE
  5
196
100
AcDbEntity
  8
0
  6
HIDDEN
 62
   174
100
AcDbLine
 10
222.942577
 20
125.38291
 30
0.0
 11
222.942577
 21
115.38336
 31
0.0
  0
LINE
  5
197
100
AcDbEntity
  8
0
  6
Continuous
 62
   174
100
AcDbLine
 10
61.442577
 20
171.380159
 30
0.0
 11
61.442577
 21
169.986825
 31
0.0
  0
LINE
  5
198
100
AcDbEntity
  8
0
  6
HIDDEN
 62
   174
100
AcDbLine
 10
224.442577
 20
127.87172
 30
0.0
 11
224.442577
 21
122.87172
 31
0.0
  0
LINE
  5
199
100
AcDbEntity
  8
0
  6
Continuous
 62
   174
100
AcDbLine
 10
65.242577
 20
122.883022
 30
0.0
 11
65.242577
 21
120.30411
 31
0.0
  0
LINE
  5
19A
100
AcDbEntity
  8
0
  6
Continuous
 62
   174
100
AcDbLine
 10
53.942577
 20
171.180262
 30
0.0
 11
53.942577
 21
164.272219
 31
0.0
  0
LINE
  5
19B
100
AcDbEntity
  8
0
  6
HIDDEN
 62
   174
100
AcDbLine
 10
73.442577
 20
155.381134
 30
0.0
 11
73.442577
 21
160.596951
 31
0.0
  0
LINE
  5
19C
100
AcDbEntity
  8
0
  6
Continuous
 62
   174
100
AcDbLine
 10
123.942577
 20
143.37172
 30
0.0
 11
123.942577
 21
145.37172
 31
0.0
  0
LINE
  5
19D
100
AcDbEntity
  8
0
  6
HIDDEN
 62
   174
100
AcDbLine
 10
222.442577
 20
160.587838
 30
0.0
 11
222.442577
 21
155.37172
 31
0.0
  0
ARC
  5
19E
100
AcDbEntity
  8
0
  6
HIDDEN
 62
   174
100
AcDbCircle
 10
219.442577
 20
168.37172
 30
0.0
 40
3.0
100
AcDbArc
 50
0.0
 51
18.0
  0
LINE
  5
19F
100
AcDbEntity
  8
0
  6
Continuous
 62
   174
100
AcDbLine
 10
72.942577
 20
114.37172
 30
0.0
 11
102.942577
 21
114.37172
 31
0.0
  0
LINE
  5
1A0
100
AcDbEntity
  8
0
  6
Continuous
 62
   174
100
AcDbLine
 10
102.46076
 20
168.37172
 30
0.0
 11
99.46081
 21
168.37172
 31
0.0
  0
LINE
  5
1A1
100
AcDbEntity
  8
0
  6
HIDDEN
 62
   174
100
AcDbLine
 10
99.442577
 20
168.380422
 30
0.0
 11
99.442577
 21
171.380159
 31
0.0
  0
LINE
  5
1A2
100
AcDbEntity
  8
0
  6
HIDDEN
 62
   174
100
AcDbLine
 10
179.222283
 20
143.32172
 30
0.0
 11
179.222283
 21
143.37172
 31
0.0
  0
LINE
  5
1A3
100
AcDbEntity
  8
0
  6
Continuous
 62
   174
100
AcDbLine
 10
102.942577
 20
142.37172
 30
0.0
 11
102.942577
 21
114.37172
 31
0.0
  0
LINE
  5
1A4
100
AcDbEntity
  8
0
  6
HIDDEN
 62
   174
100
AcDbLine
 10
179.212913
 20
143.37172
 30
0.0
 11
178.960758
 21
143.37172
 31
0.0
  0
LINE
  5
1A5
100
AcDbEntity
  8
0
  6
Continuous
 62
   174
100
AcDbLine
 10
238.142577
 20
154.381222
 30
0.0
 11
238.142577
 21
158.959109
 31
0.0
  0
LWPOLYLINE
  5
1A6
100
AcDbEntity
  8
0
  6
Continuous
 62
   174
100
AcDbPolyline
 90
        4
 70
   128
 10
241.942577
 20
169.636635
 10
241.809457
 20
169.028276
 10
241.576374
 20
168.417201
 10
241.249757
 20
167.793611
  0
LINE
  5
1A7
100
AcDbEntity
  8
0
  6
Continuous
 62
   174
100
AcDbLine
 10
230.642577
 20
122.875087
 30
0.0
 11
224.442577
 21
122.875087
 31
0.0
  0
LINE
  5
1A8
100
AcDbEntity
  8
0
  6
Continuous
 62
   174
100
AcDbLine
 10
71.442577
 20
116.768622
 30
0.0
 11
71.442577
 21
120.30411
 31
0.0
  0
LINE
  5
1A9
100
AcDbEntity
  8
0
  6
HIDDEN
 62
   174
100
AcDbLine
 10
153.067577
 20
105.37172
 30
0.0
 11
153.067577
 21
117.37172
 31
0.0
  0
LINE
  5
1AA
100
AcDbEntity
  8
0
  6
Continuous
 62
   174
100
AcDbLine
 10
224.442577
 20
135.37172
 30
0.0
 11
222.942577
 21
135.37172
 31
0.0
  0
LINE
  5
1AB
100
AcDbEntity
  8
0
  6
Continuous
 62
   174
100
AcDbLine
 10
102.942577
 20
142.37172
 30
0.0
 11
72.942577
 21
142.37172
 31
0.0
  0
LINE
  5
1AC
100
AcDbEntity
  8
0
  6
HIDDEN
 62
   174
100
AcDbLine
 10
204.917484
 20
171.32172
 30
0.0
 11
208.317441
 21
171.32172
 31
0.0
  0
LINE
  5
1AD
100
AcDbEntity
  8
0
  6
HIDDEN
 62
   174
100
AcDbLine
 10
154.522577
 20
135.37172
 30
0.0
 11
154.522577
 21
145.37172
 31
0.0
  0
LINE
  5
1AE
100
AcDbEntity
  8
0
  6
HIDDEN
 62
   174
100
AcDbLine
 10
153.817577
 20
145.37172
 30
0.0
 11
153.817577
 21
133.37172
 31
0.0
  0
LINE
  5
1AF
100
AcDbEntity
  8
0
  6
HIDDEN
 62
   174
100
AcDbLine
 10
238.142577
 20
158.79406
 30
0.0
 11
241.249757
 21
158.79406
 31
0.0
  0
LWPOLYLINE
  5
1B0
100
AcDbEntity
  8
0
  6
Continuous
 62
   174
100
AcDbPolyline
 90
        4
 70
   128
 10
53.942577
 20
164.263331
 10
54.075697
 20
165.480047
 10
54.308783
 20
166.70221
 10
54.635398
 20
167.94938
  0
LINE
  5
1B1
100
AcDbEntity
  8
0
  6
HIDDEN
 62
   174
100
AcDbLine
 10
57.742577
 20
158.949829
 30
0.0
 11
57.742577
 21
154.372169
 31
0.0
  0
LINE
  5
1B2
100
AcDbEntity
  8
0
  6
Continuous
 62
   174
100
AcDbLine
 10
65.242577
 20
130.45032
 30
0.0
 11
71.442577
 21
130.45032
 31
0.0
  0
LINE
  5
1B3
100
AcDbEntity
  8
0
  6
HIDDEN
 62
   174
100
AcDbLine
 10
184.942577
 20
143.32172
 30
0.0
 11
184.942577
 21
143.37172
 31
0.0
  0
LINE
  5
1B4
100
AcDbEntity
  8
0
  6
HIDDEN
 62
   174
100
AcDbLine
 10
153.835699
 20
133.37172
 30
0.0
 11
142.085718
 21
133.37172
 31
0.0
  0
LINE
  5
1B5
100
AcDbEntity
  8
0
  6
HIDDEN
 62
   174
100
AcDbLine
 10
130.362577
 20
115.37172
 30
0.0
 11
130.362577
 21
105.37172
 31
0.0
  0
LINE
  5
1B6
100
AcDbEntity
  8
0
  6
HIDDEN
 62
   174
100
AcDbLine
 10
234.442577
 20
163.380647
 30
0.0
 11
234.442577
 21
169.880397
 31
0.0
  0
LWPOLYLINE
  5
1B7
100
AcDbEntity
  8
0
  6
HIDDEN
 62
   174
100
AcDbPolyline
 90
        4
 70
   128
 10
54.635398
 20
158.949829
 10
54.307497
 20
158.323422
 10
54.074743
 20
157.712009
 10
53.942577
 20
157.106805
  0
LINE
  5
1B8
100
AcDbEntity
  8
0
  6
Continuous
 62
   174
100
AcDbLine
 10
65.242577
 20
120.29279
 30
0.0
 11
71.442577
 21
120.29279
 31
0.0
  0
LINE
  5
1B9
100
AcDbEntity
  8
0
  6
Continuous
 62
   174
100
AcDbLine
 10
76.460698
 20
168.37172
 30
0.0
 11
73.460748
 21
168.37172
 31
0.0
  0
LINE
  5
1BA
100
AcDbEntity
  8
0
  6
HIDDEN
 62
   174
100
AcDbLine
 10
222.442577
 20
155.37172
 30
0.0
 11
222.442577
 21
142.37172
 31
0.0
  0
LINE
  5
1BB
100
AcDbEntity
  8
0
  6
HIDDEN
 62
   174
100
AcDbLine
 10
181.442577
 20
143.37172
 30
0.0
 11
181.442577
 21
143.32172
 31
0.0
  0
ARC
  5
1BC
100
AcDbEntity
  8
0
  6
Continuous
 62
   174
100
AcDbCircle
 10
196.442577
 20
168.37172
 30
0.0
 40
3.0
100
AcDbArc
 50
90.0
 51
180.0
  0
LINE
  5
1BD
100
AcDbEntity
  8
0
  6
Continuous
 62
   174
100
AcDbLine
 10
230.642577
 20
130.453315
 30
0.0
 11
224.442577
 21
130.453315
 31
0.0
  0
LINE
  5
1BE
100
AcDbEntity
  8
0
  6
HIDDEN
 62
   174
100
AcDbLine
 10
116.662871
 20
143.32172
 30
0.0
 11
116.662871
 21
143.37172
 31
0.0
  0
ARC
  5
1BF
100
AcDbEntity
  8
0
  6
HIDDEN
 62
   174
100
AcDbCircle
 10
99.442577
 20
168.37172
 30
0.0
 40
3.0
100
AcDbArc
 50
-306.0
 51
-288.0
  0
LINE
  5
1C0
100
AcDbEntity
  8
0
  6
HIDDEN
 62
   174
100
AcDbLine
 10
164.817577
 20
105.37172
 30
0.0
 11
164.817577
 21
117.37172
 31
0.0
  0
LINE
  5
1C1
100
AcDbEntity
  8
0
  6
Continuous
 62
   174
100
AcDbLine
 10
58.442577
 20
170.094952
 30
0.0
 11
58.442577
 21
172.380284
 31
0.0
  0
LWPOLYLINE
  5
1C2
100
AcDbEntity
  8
0
  6
HIDDEN
 62
   174
100
AcDbPolyline
 90
        7
 70
   128
 10
241.249757
 20
154.372169
 10
241.615884
 20
155.12386
 10
241.843981
 20
155.860906
 10
241.920885
 20
156.583155
 10
241.843967
 20
157.305394
 10
241.615866
 20
158.042413
 10
241.249757
 20
158.79406
  0
LWPOLYLINE
  5
1C3
100
AcDbEntity
  8
0
  6
HIDDEN
 62
   174
100
AcDbPolyline
 90
        7
 70
   128
 10
54.635398
 20
167.793611
 10
54.269295
 20
166.29034
 10
54.041195
 20
164.81635
 10
53.964264
 20
163.371957
 10
54.041151
 20
161.927511
 10
54.269244
 20
160.45336
 10
54.635398
 20
158.949829
  0
LINE
  5
1C4
100
AcDbEntity
  8
0
  6
HIDDEN
 62
   174
100
AcDbLine
 10
230.642577
 20
127.87172
 30
0.0
 11
224.442577
 21
127.87172
 31
0.0
  0
LINE
  5
1C5
100
AcDbEntity
  8
0
  6
Continuous
 62
   174
100
AcDbLine
 10
224.442577
 20
115.37172
 30
0.0
 11
222.942577
 21
115.37172
 31
0.0
  0
LINE
  5
1C6
100
AcDbEntity
  8
0
  6
HIDDEN
 62
   174
100
AcDbLine
 10
73.442577
 20
166.155602
 30
0.0
 11
73.442577
 21
168.37172
 31
0.0
  0
LINE
  5
1C7
100
AcDbEntity
  8
0
  6
HIDDEN
 62
   174
100
AcDbLine
 10
141.362577
 20
135.37172
 30
0.0
 11
141.362577
 21
145.37172
 31
0.0
  0
LINE
  5
1C8
100
AcDbEntity
  8
0
  6
Continuous
 62
   174
100
AcDbLine
 10
118.942577
 20
107.37172
 30
0.0
 11
123.942577
 21
107.37172
 31
0.0
  0
LINE
  5
1C9
100
AcDbEntity
  8
0
  6
Continuous
 62
   174
100
AcDbLine
 10
237.442577
 20
170.094739
 30
0.0
 11
237.442577
 21
163.380647
 31
0.0
  0
LINE
  5
1CA
100
AcDbEntity
  8
0
  6
Continuous
 62
   174
100
AcDbLine
 10
54.635398
 20
167.94938
 30
0.0
 11
57.742577
 21
167.94938
 31
0.0
  0
LINE
  5
1CB
100
AcDbEntity
  8
0
  6
Continuous
 62
   174
100
AcDbLine
 10
65.242577
 20
122.87172
 30
0.0
 11
71.442577
 21
122.87172
 31
0.0
  0
LINE
  5
1CC
100
AcDbEntity
  8
0
  6
HIDDEN
 62
   174
100
AcDbLine
 10
222.442577
 20
160.596951
 30
0.0
 11
222.442577
 21
155.381134
 31
0.0
  0
LINE
  5
1CD
100
AcDbEntity
  8
0
  6
HIDDEN
 62
   174
100
AcDbLine
 10
178.942577
 20
143.32172
 30
0.0
 11
178.942577
 21
143.37172
 31
0.0
  0
LINE
  5
1CE
100
AcDbEntity
  8
0
  6
Continuous
 62
   174
100
AcDbLine
 10
224.442577
 20
133.998047
 30
0.0
 11
224.442577
 21
130.464046
 31
0.0
  0
LINE
  5
1CF
100
AcDbEntity
  8
0
  6
HIDDEN
 62
   174
100
AcDbLine
 10
89.403157
 20
171.32172
 30
0.0
 11
85.198905
 21
171.32172
 31
0.0
  0
LINE
  5
1D0
100
AcDbEntity
  8
0
  6
Continuous
 62
   174
100
AcDbLine
 10
196.442577
 20
171.380159
 30
0.0
 11
196.442577
 21
168.380422
 31
0.0
  0
LINE
  5
1D1
100
AcDbEntity
  8
0
  6
HIDDEN
 62
   174
100
AcDbLine
 10
143.522577
 20
115.37172
 30
0.0
 11
143.522577
 21
105.37172
 31
0.0
  0
LINE
  5
1D2
100
AcDbEntity
  8
0
  6
HIDDEN
 62
   174
100
AcDbLine
 10
142.067577
 20
145.37172
 30
0.0
 11
142.067577
 21
133.37172
 31
0.0
  0
LINE
  5
1D3
100
AcDbEntity
  8
0
  6
Continuous
 62
   174
100
AcDbLine
 10
57.742577
 20
158.79406
 30
0.0
 11
54.635398
 21
158.79406
 31
0.0
  0
LINE
  5
1D4
100
AcDbEntity
  8
0
  6
HIDDEN
 62
   174
100
AcDbLine
 10
57.742577
 20
158.949829
 30
0.0
 11
54.635398
 21
158.949829
 31
0.0
  0
LINE
  5
1D5
100
AcDbEntity
  8
0
  6
HIDDEN
 62
   174
100
AcDbLine
 10
57.742577
 20
167.793611
 30
0.0
 11
54.635398
 21
167.793611
 31
0.0
  0
LINE
  5
1D6
100
AcDbEntity
  8
0
  6
Continuous
 62
   174
100
AcDbLine
 10
230.642577
 20
135.054725
 30
0.0
 11
224.442577
 21
135.054725
 31
0.0
  0
LWPOLYLINE
  5
1D7
100
AcDbEntity
  8
0
  6
HIDDEN
 62
   174
100
AcDbPolyline
 90
        4
 70
   128
 10
222.400617
 20
163.37172
 10
222.409612
 20
162.422713
 10
222.430018
 20
161.484547
 10
222.442577
 20
160.587838
  0
LINE
  5
1D8
100
AcDbEntity
  8
0
  6
HIDDEN
 62
   174
100
AcDbLine
 10
114.442577
 20
143.37172
 30
0.0
 11
114.442577
 21
143.32172
 31
0.0
  0
LINE
  5
1D9
100
AcDbEntity
  8
0
  6
HIDDEN
 62
   174
100
AcDbLine
 10
116.96066
 20
143.37172
 30
0.0
 11
116.708504
 21
143.37172
 31
0.0
  0
LINE
  5
1DA
100
AcDbEntity
  8
0
  6
HIDDEN
 62
   174
100
AcDbLine
 10
111.43703
 20
143.37172
 30
0.0
 11
111.212915
 21
143.37172
 31
0.0
  0
LINE
  5
1DB
100
AcDbEntity
  8
0
  6
Continuous
 62
   174
100
AcDbLine
 10
192.942577
 20
114.37172
 30
0.0
 11
192.942577
 21
142.37172
 31
0.0
  0
LINE
  5
1DC
100
AcDbEntity
  8
0
  6
HIDDEN
 62
   174
100
AcDbLine
 10
71.442577
 20
130.453315
 30
0.0
 11
71.442577
 21
133.987364
 31
0.0
  0
LINE
  5
1DD
100
AcDbEntity
  8
0
  6
Continuous
 62
   174
100
AcDbLine
 10
241.942577
 20
157.116058
 30
0.0
 11
241.942577
 21
169.645236
 31
0.0
  0
LINE
  5
1DE
100
AcDbEntity
  8
0
  6
HIDDEN
 62
   174
100
AcDbLine
 10
116.942577
 20
143.32172
 30
0.0
 11
116.942577
 21
143.37172
 31
0.0
  0
LINE
  5
1DF
100
AcDbEntity
  8
0
  6
Continuous
 62
   174
100
AcDbLine
 10
224.442577
 20
127.885983
 30
0.0
 11
224.442577
 21
126.878636
 31
0.0
  0
LINE
  5
1E0
100
AcDbEntity
  8
0
  6
Continuous
 62
   174
100
AcDbLine
 10
65.242577
 20
135.06445
 30
0.0
 11
65.242577
 21
133.996135
 31
0.0
  0
LINE
  5
1E1
100
AcDbEntity
  8
0
  6
HIDDEN
 62
   174
100
AcDbLine
 10
65.242577
 20
133.987364
 30
0.0
 11
71.442577
 21
133.987364
 31
0.0
  0
LINE
  5
1E2
100
AcDbEntity
  8
0
  6
HIDDEN
 62
   174
100
AcDbLine
 10
142.085718
 20
145.37172
 30
0.0
 11
153.835699
 21
145.37172
 31
0.0
  0
LINE
  5
1E3
100
AcDbEntity
  8
0
  6
HIDDEN
 62
   174
100
AcDbLine
 10
153.067577
 20
105.37172
 30
0.0
 11
153.067577
 21
117.37172
 31
0.0
  0
LINE
  5
1E4
100
AcDbEntity
  8
0
  6
HIDDEN
 62
   174
100
AcDbLine
 10
230.642577
 20
116.757001
 30
0.0
 11
224.442577
 21
116.757001
 31
0.0
  0
LINE
  5
1E5
100
AcDbEntity
  8
0
  6
Continuous
 62
   174
100
AcDbLine
 10
71.442577
 20
135.37172
 30
0.0
 11
72.942577
 21
135.37172
 31
0.0
  0
LINE
  5
1E6
100
AcDbEntity
  8
0
  6
Continuous
 62
   174
100
AcDbLine
 10
222.942577
 20
142.37172
 30
0.0
 11
222.942577
 21
114.37172
 31
0.0
  0
LINE
  5
1E7
100
AcDbEntity
  8
0
  6
HIDDEN
 62
   174
100
AcDbLine
 10
219.442577
 20
171.380159
 30
0.0
 11
219.442577
 21
168.380422
 31
0.0
  0
LINE
  5
1E8
100
AcDbEntity
  8
0
  6
HIDDEN
 62
   174
100
AcDbLine
 10
154.522577
 20
135.37172
 30
0.0
 11
154.522577
 21
145.37172
 31
0.0
  0
LINE
  5
1E9
100
AcDbEntity
  8
0
  6
Continuous
 62
   174
100
AcDbLine
 10
176.942577
 20
107.37172
 30
0.0
 11
171.942577
 21
107.37172
 31
0.0
  0
LINE
  5
1EA
100
AcDbEntity
  8
0
  6
HIDDEN
 62
   174
100
AcDbLine
 10
58.442577
 20
163.380647
 30
0.0
 11
58.442577
 21
156.881109
 31
0.0
  0
LINE
  5
1EB
100
AcDbEntity
  8
0
  6
Continuous
 62
   174
100
AcDbLine
 10
238.142577
 20
154.372169
 30
0.0
 11
241.249757
 21
154.372169
 31
0.0
  0
LWPOLYLINE
  5
1EC
100
AcDbEntity
  8
0
  6
HIDDEN
 62
   174
100
AcDbPolyline
 90
        6
 70
   128
 10
222.442577
 20
168.37172
 10
222.270235
 20
169.373894
 10
221.818434
 20
170.203469
 10
221.155364
 20
170.834718
 10
220.346833
 20
171.232196
 10
219.442577
 20
171.37172
  0
LINE
  5
1ED
100
AcDbEntity
  8
0
  6
HIDDEN
 62
   174
100
AcDbLine
 10
219.442577
 20
168.37172
 30
0.0
 11
219.442577
 21
142.37172
 31
0.0
  0
LINE
  5
1EE
100
AcDbEntity
  8
0
  6
Continuous
 62
   174
100
AcDbLine
 10
224.442577
 20
115.701369
 30
0.0
 11
224.442577
 21
115.38336
 31
0.0
  0
LINE
  5
1EF
100
AcDbEntity
  8
0
  6
HIDDEN
 62
   174
100
AcDbLine
 10
196.442577
 20
171.380159
 30
0.0
 11
196.442577
 21
168.380422
 31
0.0
  0
LINE
  5
1F0
100
AcDbEntity
  8
0
  6
HIDDEN
 62
   174
100
AcDbLine
 10
129.310758
 20
105.37172
 30
0.0
 11
132.12738
 21
105.37172
 31
0.0
  0
LINE
  5
1F1
100
AcDbEntity
  8
0
  6
Continuous
 62
   174
100
AcDbLine
 10
230.642577
 20
115.689809
 30
0.0
 11
224.442577
 21
115.689809
 31
0.0
  0
LINE
  5
1F2
100
AcDbEntity
  8
0
  6
Continuous
 62
   174
100
AcDbLine
 10
73.442577
 20
160.587838
 30
0.0
 11
73.442577
 21
142.37172
 31
0.0
  0
LINE
  5
1F3
100
AcDbEntity
  8
0
  6
HIDDEN
 62
   174
100
AcDbLine
 10
116.6811
 20
143.32172
 30
0.0
 11
114.460772
 21
143.32172
 31
0.0
  0
LINE
  5
1F4
100
AcDbEntity
  8
0
  6
HIDDEN
 62
   174
100
AcDbLine
 10
184.960658
 20
143.37172
 30
0.0
 11
184.708502
 21
143.37172
 31
0.0
  0
ARC
  5
1F5
100
AcDbEntity
  8
0
  6
HIDDEN
 62
   174
100
AcDbCircle
 10
99.442577
 20
168.37172
 30
0.0
 40
3.0
100
AcDbArc
 50
-288.0
 51
-270.0
  0
LINE
  5
1F6
100
AcDbEntity
  8
0
  6
Continuous
 62
   174
100
AcDbLine
 10
58.442577
 20
163.380647
 30
0.0
 11
58.442577
 21
170.094952
 31
0.0
  0
LWPOLYLINE
  5
1F7
100
AcDbEntity
  8
0
  6
HIDDEN
 62
   174
100
AcDbPolyline
 90
        7
 70
   128
 10
241.249757
 20
167.94938
 10
241.615884
 20
168.701071
 10
241.843981
 20
169.438117
 10
241.920885
 20
170.160365
 10
241.843967
 20
170.882604
 10
241.615866
 20
171.619624
 10
241.249757
 20
172.371271
  0
LINE
  5
1F8
100
AcDbEntity
  8
0
  6
HIDDEN
 62
   174
100
AcDbLine
 10
222.442577
 20
166.164342
 30
0.0
 11
222.442577
 21
168.380422
 31
0.0
  0
LINE
  5
1F9
100
AcDbEntity
  8
0
  6
HIDDEN
 62
   174
100
AcDbLine
 10
204.899402
 20
171.37172
 30
0.0
 11
205.299459
 21
171.37172
 31
0.0
  0
LINE
  5
1FA
100
AcDbEntity
  8
0
  6
HIDDEN
 62
   174
100
AcDbLine
 10
110.942577
 20
143.32172
 30
0.0
 11
110.942577
 21
143.37172
 31
0.0
  0
LINE
  5
1FB
100
AcDbEntity
  8
0
  6
HIDDEN
 62
   174
100
AcDbLine
 10
152.380759
 20
115.37172
 30
0.0
 11
165.540645
 21
115.37172
 31
0.0
  0
LINE
  5
1FC
100
AcDbEntity
  8
0
  6
HIDDEN
 62
   174
100
AcDbLine
 10
130.380773
 20
105.37172
 30
0.0
 11
143.540658
 21
105.37172
 31
0.0
  0
LINE
  5
1FD
100
AcDbEntity
  8
0
  6
HIDDEN
 62
   174
100
AcDbLine
 10
166.592577
 20
145.37172
 30
0.0
 11
166.592577
 21
105.37172
 31
0.0
  0
LINE
  5
1FE
100
AcDbEntity
  8
0
  6
Continuous
 62
   174
100
AcDbLine
 10
54.607957
 20
172.322477
 30
0.0
 11
54.635398
 21
172.371271
 31
0.0
  0
LINE
  5
1FF
100
AcDbEntity
  8
0
  6
Continuous
 62
   174
100
AcDbLine
 10
71.442577
 20
115.37172
 30
0.0
 11
72.942577
 21
115.37172
 31
0.0
  0
LINE
  5
200
100
AcDbEntity
  8
0
  6
Continuous
 62
   174
100
AcDbLine
 10
222.942577
 20
142.37172
 30
0.0
 11
192.942577
 21
142.37172
 31
0.0
  0
LINE
  5
201
100
AcDbEntity
  8
0
  6
Continuous
 62
   174
100
AcDbLine
 10
72.942577
 20
114.37172
 30
0.0
 11
72.942577
 21
142.37172
 31
0.0
  0
LINE
  5
202
100
AcDbEntity
  8
0
  6
HIDDEN
 62
   174
100
AcDbLine
 10
76.442577
 20
168.380422
 30
0.0
 11
76.442577
 21
171.380159
 31
0.0
  0
LINE
  5
203
100
AcDbEntity
  8
0
  6
HIDDEN
 62
   174
100
AcDbLine
 10
154.540757
 20
145.37172
 30
0.0
 11
141.38066
 21
145.37172
 31
0.0
  0
LINE
  5
204
100
AcDbEntity
  8
0
  6
Continuous
 62
   174
100
AcDbLine
 10
176.942577
 20
143.37172
 30
0.0
 11
171.942577
 21
143.37172
 31
0.0
  0
LINE
  5
205
100
AcDbEntity
  8
0
  6
Continuous
 62
   174
100
AcDbLine
 10
65.242577
 20
116.768622
 30
0.0
 11
65.242577
 21
115.700519
 31
0.0
  0
LINE
  5
206
100
AcDbEntity
  8
0
  6
Continuous
 62
   174
100
AcDbLine
 10
65.242577
 20
116.757001
 30
0.0
 11
71.442577
 21
116.757001
 31
0.0
  0
LWPOLYLINE
  5
207
100
AcDbEntity
  8
0
  6
HIDDEN
 62
   174
100
AcDbPolyline
 90
        4
 70
   128
 10
222.400617
 20
163.37172
 10
222.409612
 20
164.320703
 10
222.430017
 20
165.258869
 10
222.442577
 20
166.155602
  0
LINE
  5
208
100
AcDbEntity
  8
0
  6
HIDDEN
 62
   174
100
AcDbLine
 10
111.212915
 20
143.37172
 30
0.0
 11
110.96076
 21
143.37172
 31
0.0
  0
LINE
  5
209
100
AcDbEntity
  8
0
  6
HIDDEN
 62
   174
100
AcDbLine
 10
116.708504
 20
143.37172
 30
0.0
 11
116.484389
 21
143.37172
 31
0.0
  0
LINE
  5
20A
100
AcDbEntity
  8
0
  6
HIDDEN
 62
   174
100
AcDbLine
 10
184.484387
 20
143.37172
 30
0.0
 11
182.462682
 21
143.37172
 31
0.0
  0
LINE
  5
20B
100
AcDbEntity
  8
0
  6
Continuous
 62
   174
100
AcDbLine
 10
238.142577
 20
167.793611
 30
0.0
 11
241.249757
 21
167.793611
 31
0.0
  0
LINE
  5
20C
100
AcDbEntity
  8
0
  6
Continuous
 62
   174
100
AcDbLine
 10
224.442577
 20
126.878636
 30
0.0
 11
224.442577
 21
122.886421
 31
0.0
  0
LINE
  5
20D
100
AcDbEntity
  8
0
  6
HIDDEN
 62
   174
100
AcDbLine
 10
166.592577
 20
145.37172
 30
0.0
 11
166.592577
 21
105.37172
 31
0.0
  0
LWPOLYLINE
  5
20E
100
AcDbEntity
  8
0
  6
HIDDEN
 62
   174
100
AcDbPolyline
 90
        4
 70
   128
 10
241.249757
 20
158.79406
 10
241.577658
 20
160.046875
 10
241.810411
 20
161.269696
 10
241.942577
 20
162.480109
  0
LINE
  5
20F
100
AcDbEntity
  8
0
  6
Continuous
 62
   174
100
AcDbLine
 10
53.942577
 20
162.480109
 30
0.0
 11
53.942577
 21
164.263331
 31
0.0
  0
LWPOLYLINE
  5
210
100
AcDbEntity
  8
0
  6
Continuous
 62
   174
100
AcDbPolyline
 90
        4
 70
   128
 10
222.442577
 20
166.155602
 10
222.430017
 20
165.258867
 10
222.409612
 20
164.320713
 10
222.400617
 20
163.37172
  0
LINE
  5
211
100
AcDbEntity
  8
0
  6
HIDDEN
 62
   174
100
AcDbLine
 10
205.299459
 20
171.37172
 30
0.0
 11
206.481997
 21
171.37172
 31
0.0
  0
LINE
  5
212
100
AcDbEntity
  8
0
  6
Continuous
 62
   174
100
AcDbLine
 10
230.642577
 20
133.987364
 30
0.0
 11
224.442577
 21
133.987364
 31
0.0
  0
LINE
  5
213
100
AcDbEntity
  8
0
  6
Continuous
 62
   174
100
AcDbLine
 10
65.242577
 20
127.87172
 30
0.0
 11
65.242577
 21
122.87172
 31
0.0
  0
LINE
  5
214
100
AcDbEntity
  8
0
  6
HIDDEN
 62
   174
100
AcDbLine
 10
99.442577
 20
142.37172
 30
0.0
 11
76.442577
 21
142.37172
 31
0.0
  0
LINE
  5
215
100
AcDbEntity
  8
0
  6
Continuous
 62
   174
100
AcDbLine
 10
76.442577
 20
168.380422
 30
0.0
 11
76.442577
 21
171.380159
 31
0.0
  0
LINE
  5
216
100
AcDbEntity
  8
0
  6
HIDDEN
 62
   174
100
AcDbLine
 10
58.442577
 20
169.880397
 30
0.0
 11
58.442577
 21
163.380647
 31
0.0
  0
LINE
  5
217
100
AcDbEntity
  8
0
  6
Continuous
 62
   174
100
AcDbLine
 10
54.092088
 20
171.094186
 30
0.0
 11
54.608744
 21
172.323887
 31
0.0
  0
ARC
  5
218
100
AcDbEntity
  8
0
  6
Continuous
 62
   174
100
AcDbCircle
 10
76.442577
 20
168.37172
 30
0.0
 40
3.0
100
AcDbArc
 50
-270.0
 51
-180.0
  0
LINE
  5
219
100
AcDbEntity
  8
0
  6
Continuous
 62
   174
100
AcDbLine
 10
219.442577
 20
142.37172
 30
0.0
 11
219.442577
 21
168.37172
 31
0.0
  0
LINE
  5
21A
100
AcDbEntity
  8
0
  6
HIDDEN
 62
   174
100
AcDbLine
 10
99.442577
 20
142.37172
 30
0.0
 11
99.442577
 21
168.37172
 31
0.0
  0
LINE
  5
21B
100
AcDbEntity
  8
0
  6
Continuous
 62
   174
100
AcDbLine
 10
99.442577
 20
168.380422
 30
0.0
 11
99.442577
 21
171.380159
 31
0.0
  0
ENDBLK
  5
21C
100
AcDbEntity
  8
0
100
AcDbBlockEnd
  0
BLOCK
  5
21F
100
AcDbEntity
  8
0
100
AcDbBlockBegin
  2
*B2
 70
     0
 10
0.0
 20
0.0
 30
0.0
  3
*B2
  1

  0
ARC
  5
220
100
AcDbEntity
  8
0
  6
Continuous
 62
   174
100
AcDbCircle
 10
208.299402
 20
48.00085
 30
0.0
 40
3.4
100
AcDbArc
 50
-90.0
 51
90.0
  0
ARC
  5
221
100
AcDbEntity
  8
0
  6
Continuous
 62
   174
100
AcDbCircle
 10
208.299402
 20
48.00085
 30
0.0
 40
3.4
100
AcDbArc
 50
-270.0
 51
-90.0
  0
ARC
  5
222
100
AcDbEntity
  8
0
  6
Continuous
 62
   174
100
AcDbCircle
 10
87.585753
 20
48.215421
 30
0.0
 40
3.4
100
AcDbArc
 50
-270.0
 51
-90.0
  0
ARC
  5
223
100
AcDbEntity
  8
0
  6
Continuous
 62
   174
100
AcDbCircle
 10
87.585753
 20
48.215421
 30
0.0
 40
3.4
100
AcDbArc
 50
-90.0
 51
90.0
  0
ARC
  5
224
100
AcDbEntity
  8
0
  6
Continuous
 62
   174
100
AcDbCircle
 10
208.299402
 20
48.00085
 30
0.0
 40
3.0
100
AcDbArc
 50
-37.286546
 51
127.286546
  0
ARC
  5
225
100
AcDbEntity
  8
0
  6
Continuous
 62
   174
100
AcDbCircle
 10
87.585753
 20
48.215421
 30
0.0
 40
3.0
100
AcDbArc
 50
-217.286546
 51
-52.713454
  0
LINE
  5
226
100
AcDbEntity
  8
0
  6
Continuous
 62
   174
100
AcDbLine
 10
210.686249
 20
46.183445
 30
0.0
 11
206.481997
 21
50.387697
 31
0.0
  0
LINE
  5
227
100
AcDbEntity
  8
0
  6
Continuous
 62
   174
100
AcDbLine
 10
85.198905
 20
50.032826
 30
0.0
 11
89.403157
 21
45.828574
 31
0.0
  0
ARC
  5
228
100
AcDbEntity
  8
0
  6
Continuous
 62
   174
100
AcDbCircle
 10
208.299402
 20
48.00085
 30
0.0
 40
3.0
100
AcDbArc
 50
-221.228296
 51
-48.771704
  0
ARC
  5
229
100
AcDbEntity
  8
0
  6
Continuous
 62
   174
100
AcDbCircle
 10
87.585753
 20
48.215421
 30
0.0
 40
3.0
100
AcDbArc
 50
-41.228296
 51
131.228296
  0
LINE
  5
22A
100
AcDbEntity
  8
0
  6
Continuous
 62
   174
100
AcDbLine
 10
206.043133
 20
49.978033
 30
0.0
 11
210.276585
 21
45.744581
 31
0.0
  0
LINE
  5
22B
100
AcDbEntity
  8
0
  6
Continuous
 62
   174
100
AcDbLine
 10
89.842021
 20
46.238238
 30
0.0
 11
85.60857
 21
50.47169
 31
0.0
  0
LINE
  5
22C
100
AcDbEntity
  8
0
  6
Continuous
 62
   174
100
AcDbLine
 10
234.442577
 20
54.608135
 30
0.0
 11
237.442577
 21
54.608135
 31
0.0
  0
LINE
  5
22D
100
AcDbEntity
  8
0
  6
Continuous
 62
   174
100
AcDbLine
 10
234.442577
 20
54.608135
 30
0.0
 11
237.442577
 21
54.608135
 31
0.0
  0
LINE
  5
22E
100
AcDbEntity
  8
0
  6
Continuous
 62
   174
100
AcDbLine
 10
61.442577
 20
56.108135
 30
0.0
 11
73.484537
 21
56.108135
 31
0.0
  0
LINE
  5
22F
100
AcDbEntity
  8
0
  6
Continuous
 62
   174
100
AcDbLine
 10
222.442577
 20
55.608135
 30
0.0
 11
222.442577
 21
54.353133
 31
0.0
  0
LINE
  5
230
100
AcDbEntity
  8
0
  6
Continuous
 62
   174
100
AcDbLine
 10
222.442577
 20
41.863137
 30
0.0
 11
222.442577
 21
40.608135
 31
0.0
  0
LINE
  5
231
100
AcDbEntity
  8
0
  6
Continuous
 62
   174
100
AcDbLine
 10
73.442577
 20
54.353133
 30
0.0
 11
73.442577
 21
55.608135
 31
0.0
  0
LINE
  5
232
100
AcDbEntity
  8
0
  6
Continuous
 62
   174
100
AcDbLine
 10
118.942577
 20
59.108135
 30
0.0
 11
118.942577
 21
37.108135
 31
0.0
  0
LINE
  5
233
100
AcDbEntity
  8
0
  6
Continuous
 62
   174
100
AcDbLine
 10
219.442577
 20
37.608135
 30
0.0
 11
196.442577
 21
37.608135
 31
0.0
  0
LINE
  5
234
100
AcDbEntity
  8
0
  6
Continuous
 62
   174
100
AcDbLine
 10
234.442577
 20
54.729649
 30
0.0
 11
234.442577
 21
56.123196
 31
0.0
  0
LINE
  5
235
100
AcDbEntity
  8
0
  6
Continuous
 62
   174
100
AcDbLine
 10
234.442577
 20
40.124171
 30
0.0
 11
234.442577
 21
41.517506
 31
0.0
  0
LINE
  5
236
100
AcDbEntity
  8
0
  6
Continuous
 62
   174
100
AcDbLine
 10
234.442577
 20
41.517506
 30
0.0
 11
234.442577
 21
54.729649
 31
0.0
  0
LINE
  5
237
100
AcDbEntity
  8
0
  6
Continuous
 62
   174
100
AcDbLine
 10
61.442577
 20
41.517506
 30
0.0
 11
61.442577
 21
40.124171
 31
0.0
  0
LINE
  5
238
100
AcDbEntity
  8
0
  6
Continuous
 62
   174
100
AcDbLine
 10
61.442577
 20
56.123196
 30
0.0
 11
61.442577
 21
54.729649
 31
0.0
  0
LINE
  5
239
100
AcDbEntity
  8
0
  6
Continuous
 62
   174
100
AcDbLine
 10
61.442577
 20
54.729649
 30
0.0
 11
61.442577
 21
41.517506
 31
0.0
  0
LINE
  5
23A
100
AcDbEntity
  8
0
  6
Continuous
 62
   174
100
AcDbLine
 10
58.442577
 20
54.837351
 30
0.0
 11
58.442577
 21
57.123108
 31
0.0
  0
LINE
  5
23B
100
AcDbEntity
  8
0
  6
Continuous
 62
   174
100
AcDbLine
 10
238.142577
 20
55.872102
 30
0.0
 11
238.142577
 21
57.123108
 31
0.0
  0
LINE
  5
23C
100
AcDbEntity
  8
0
  6
Continuous
 62
   174
100
AcDbLine
 10
57.742577
 20
40.375264
 30
0.0
 11
57.742577
 21
39.124046
 31
0.0
  0
LINE
  5
23D
100
AcDbEntity
  8
0
  6
Continuous
 62
   174
100
AcDbLine
 10
238.142577
 20
48.213542
 30
0.0
 11
238.142577
 21
55.872102
 31
0.0
  0
LINE
  5
23E
100
AcDbEntity
  8
0
  6
Continuous
 62
   174
100
AcDbLine
 10
57.742577
 20
48.033613
 30
0.0
 11
57.742577
 21
40.375264
 31
0.0
  0
LINE
  5
23F
100
AcDbEntity
  8
0
  6
Continuous
 62
   174
100
AcDbLine
 10
241.942577
 20
45.005857
 30
0.0
 11
241.942577
 21
43.461541
 31
0.0
  0
LINE
  5
240
100
AcDbEntity
  8
0
  6
Continuous
 62
   174
100
AcDbLine
 10
53.942577
 20
51.210414
 30
0.0
 11
53.942577
 21
52.75473
 31
0.0
  0
LINE
  5
241
100
AcDbEntity
  8
0
  6
Continuous
 62
   174
100
AcDbLine
 10
241.942577
 20
45.021554
 30
0.0
 11
241.942577
 21
55.872102
 31
0.0
  0
LWPOLYLINE
  5
242
100
AcDbEntity
  8
0
  6
Continuous
 62
   174
100
AcDbPolyline
 90
        3
 70
   128
 10
241.249757
 20
40.269329
 10
241.615859
 20
40.269329
 10
241.843959
 20
40.269329
  0
LINE
  5
243
100
AcDbEntity
  8
0
  6
Continuous
 62
   174
100
AcDbLine
 10
241.938463
 20
40.269329
 30
0.0
 11
241.861988
 21
40.269329
 31
0.0
  0
LINE
  5
244
100
AcDbEntity
  8
0
  6
Continuous
 62
   174
100
AcDbLine
 10
53.982954
 20
55.946942
 30
0.0
 11
54.059429
 21
55.946942
 31
0.0
  0
LINE
  5
245
100
AcDbEntity
  8
0
  6
Continuous
 62
   174
100
AcDbLine
 10
58.442577
 20
39.108135
 30
0.0
 11
57.742577
 21
39.108135
 31
0.0
  0
LINE
  5
246
100
AcDbEntity
  8
0
  6
Continuous
 62
   174
100
AcDbLine
 10
61.442577
 20
56.108135
 30
0.0
 11
73.484537
 21
56.108135
 31
0.0
  0
LINE
  5
247
100
AcDbEntity
  8
0
  6
Continuous
 62
   174
100
AcDbLine
 10
102.442577
 20
55.608135
 30
0.0
 11
102.442577
 21
40.608135
 31
0.0
  0
ARC
  5
248
100
AcDbEntity
  8
0
  6
Continuous
 62
   174
100
AcDbCircle
 10
147.942577
 20
48.108135
 30
0.0
 40
6.58
100
AcDbArc
 50
-179.112683
 51
-61.210326
  0
LINE
  5
249
100
AcDbEntity
  8
0
  6
Continuous
 62
   174
100
AcDbLine
 10
102.942577
 20
37.108135
 30
0.0
 11
102.942577
 21
59.108135
 31
0.0
  0
LINE
  5
24A
100
AcDbEntity
  8
0
  6
Continuous
 62
   174
100
AcDbLine
 10
237.442577
 20
39.108135
 30
0.0
 11
238.142577
 21
39.108135
 31
0.0
  0
LINE
  5
24B
100
AcDbEntity
  8
0
  6
Continuous
 62
   174
100
AcDbLine
 10
58.442577
 20
39.108135
 30
0.0
 11
57.742577
 21
39.108135
 31
0.0
  0
LINE
  5
24C
100
AcDbEntity
  8
0
  6
Continuous
 62
   174
100
AcDbLine
 10
234.442577
 20
40.108135
 30
0.0
 11
222.400617
 21
40.108135
 31
0.0
  0
LINE
  5
24D
100
AcDbEntity
  8
0
  6
Continuous
 62
   174
100
AcDbLine
 10
102.942577
 20
37.108135
 30
0.0
 11
118.942577
 21
37.108135
 31
0.0
  0
LINE
  5
24E
100
AcDbEntity
  8
0
  6
Continuous
 62
   174
100
AcDbLine
 10
102.942577
 20
59.108135
 30
0.0
 11
118.942577
 21
59.108135
 31
0.0
  0
LINE
  5
24F
100
AcDbEntity
  8
0
  6
Continuous
 62
   174
100
AcDbLine
 10
118.942577
 20
37.108135
 30
0.0
 11
118.942577
 21
59.108135
 31
0.0
  0
LINE
  5
250
100
AcDbEntity
  8
0
  6
Continuous
 62
   174
100
AcDbLine
 10
234.442577
 20
41.608135
 30
0.0
 11
237.442577
 21
41.608135
 31
0.0
  0
LINE
  5
251
100
AcDbEntity
  8
0
  6
Continuous
 62
   174
100
AcDbLine
 10
61.442577
 20
54.608135
 30
0.0
 11
58.442577
 21
54.608135
 31
0.0
  0
LINE
  5
252
100
AcDbEntity
  8
0
  6
Continuous
 62
   174
100
AcDbLine
 10
237.442577
 20
57.108135
 30
0.0
 11
238.142577
 21
57.108135
 31
0.0
  0
LINE
  5
253
100
AcDbEntity
  8
0
  6
Continuous
 62
   174
100
AcDbLine
 10
241.942577
 20
40.308135
 30
0.0
 11
241.843981
 21
40.137362
 31
0.0
  0
LINE
  5
254
100
AcDbEntity
  8
0
  6
Continuous
 62
   174
100
AcDbLine
 10
234.442577
 20
40.108135
 30
0.0
 11
222.400617
 21
40.108135
 31
0.0
  0
LINE
  5
255
100
AcDbEntity
  8
0
  6
Continuous
 62
   174
100
AcDbLine
 10
99.442577
 20
37.608135
 30
0.0
 11
76.442577
 21
37.608135
 31
0.0
  0
LINE
  5
256
100
AcDbEntity
  8
0
  6
Continuous
 62
   174
100
AcDbLine
 10
76.442577
 20
58.608135
 30
0.0
 11
99.442577
 21
58.608135
 31
0.0
  0
LINE
  5
257
100
AcDbEntity
  8
0
  6
Continuous
 62
   174
100
AcDbLine
 10
118.942577
 20
59.108135
 30
0.0
 11
123.942577
 21
59.108135
 31
0.0
  0
LINE
  5
258
100
AcDbEntity
  8
0
  6
Continuous
 62
   174
100
AcDbLine
 10
176.942577
 20
37.108135
 30
0.0
 11
171.942577
 21
37.108135
 31
0.0
  0
LINE
  5
259
100
AcDbEntity
  8
0
  6
Continuous
 62
   174
100
AcDbLine
 10
234.442577
 20
41.608135
 30
0.0
 11
237.442577
 21
41.608135
 31
0.0
  0
LINE
  5
25A
100
AcDbEntity
  8
0
  6
Continuous
 62
   174
100
AcDbLine
 10
61.442577
 20
54.608135
 30
0.0
 11
58.442577
 21
54.608135
 31
0.0
  0
LINE
  5
25B
100
AcDbEntity
  8
0
  6
Continuous
 62
   174
100
AcDbLine
 10
237.442577
 20
57.108135
 30
0.0
 11
238.142577
 21
57.108135
 31
0.0
  0
LINE
  5
25C
100
AcDbEntity
  8
0
  6
Continuous
 62
   174
100
AcDbLine
 10
61.442577
 20
40.108135
 30
0.0
 11
73.484537
 21
40.108135
 31
0.0
  0
LINE
  5
25D
100
AcDbEntity
  8
0
  6
Continuous
 62
   174
100
AcDbLine
 10
73.442577
 20
40.608135
 30
0.0
 11
73.442577
 21
41.863137
 31
0.0
  0
LINE
  5
25E
100
AcDbEntity
  8
0
  6
Continuous
 62
   174
100
AcDbLine
 10
171.942577
 20
59.108135
 30
0.0
 11
171.942577
 21
37.108135
 31
0.0
  0
LINE
  5
25F
100
AcDbEntity
  8
0
  6
Continuous
 62
   174
100
AcDbLine
 10
176.942577
 20
37.108135
 30
0.0
 11
176.942577
 21
59.108135
 31
0.0
  0
ARC
  5
260
100
AcDbEntity
  8
0
  6
Continuous
 62
   174
100
AcDbCircle
 10
147.942577
 20
48.108135
 30
0.0
 40
6.58
100
AcDbArc
 50
0.0
 51
0.887317
  0
ARC
  5
261
100
AcDbEntity
  8
0
  6
Continuous
 62
   174
100
AcDbCircle
 10
147.942577
 20
48.108135
 30
0.0
 40
6.58
100
AcDbArc
 50
-180.0
 51
-179.112683
  0
ARC
  5
262
100
AcDbEntity
  8
0
  6
Continuous
 62
   174
100
AcDbCircle
 10
147.942577
 20
48.108135
 30
0.0
 40
6.58
100
AcDbArc
 50
-180.887317
 51
-180.0
  0
ARC
  5
263
100
AcDbEntity
  8
0
  6
Continuous
 62
   174
100
AcDbCircle
 10
147.942577
 20
48.108135
 30
0.0
 40
6.58
100
AcDbArc
 50
-359.112683
 51
-180.887317
  0
LINE
  5
264
100
AcDbEntity
  8
0
  6
Continuous
 62
   174
100
AcDbLine
 10
118.942577
 20
37.108135
 30
0.0
 11
123.942577
 21
37.108135
 31
0.0
  0
LINE
  5
265
100
AcDbEntity
  8
0
  6
Continuous
 62
   174
100
AcDbLine
 10
238.142577
 20
40.285194
 30
0.0
 11
238.142577
 21
48.213542
 31
0.0
  0
LINE
  5
266
100
AcDbEntity
  8
0
  6
Continuous
 62
   174
100
AcDbLine
 10
57.742577
 20
55.961961
 30
0.0
 11
57.742577
 21
48.033613
 31
0.0
  0
ARC
  5
267
100
AcDbEntity
  8
0
  6
Continuous
 62
   174
100
AcDbCircle
 10
164.942577
 20
39.858135
 30
0.0
 40
1.65
100
AcDbArc
 50
0.0
 51
180.0
  0
ARC
  5
268
100
AcDbEntity
  8
0
  6
Continuous
 62
   174
100
AcDbCircle
 10
164.942577
 20
39.858135
 30
0.0
 40
1.65
100
AcDbArc
 50
180.0
 51
360.0
  0
LINE
  5
269
100
AcDbEntity
  8
0
  6
Continuous
 62
   174
100
AcDbLine
 10
230.642577
 20
38.442568
 30
0.0
 11
230.642577
 21
39.51152
 31
0.0
  0
LINE
  5
26A
100
AcDbEntity
  8
0
  6
Continuous
 62
   174
100
AcDbLine
 10
65.242577
 20
57.804587
 30
0.0
 11
65.242577
 21
56.735847
 31
0.0
  0
LWPOLYLINE
  5
26B
100
AcDbEntity
  8
0
  6
Continuous
 62
   174
100
AcDbPolyline
 90
        4
 70
   128
 10
241.942577
 20
55.857008
 10
241.809457
 20
55.857008
 10
241.576372
 20
55.857008
 10
241.249757
 20
55.857008
  0
LINE
  5
26C
100
AcDbEntity
  8
0
  6
Continuous
 62
   174
100
AcDbLine
 10
65.242577
 20
39.509608
 30
0.0
 11
65.242577
 21
38.441718
 31
0.0
  0
LINE
  5
26D
100
AcDbEntity
  8
0
  6
Continuous
 62
   174
100
AcDbLine
 10
54.635398
 20
40.359263
 30
0.0
 11
57.742577
 21
40.359263
 31
0.0
  0
LINE
  5
26E
100
AcDbEntity
  8
0
  6
Continuous
 62
   174
100
AcDbLine
 10
241.942577
 20
40.324069
 30
0.0
 11
241.942577
 21
43.477394
 31
0.0
  0
LINE
  5
26F
100
AcDbEntity
  8
0
  6
Continuous
 62
   174
100
AcDbLine
 10
53.942577
 20
55.923086
 30
0.0
 11
53.942577
 21
52.769973
 31
0.0
  0
LINE
  5
270
100
AcDbEntity
  8
0
  6
Continuous
 62
   174
100
AcDbLine
 10
53.942577
 20
51.225813
 30
0.0
 11
53.942577
 21
40.375264
 31
0.0
  0
LINE
  5
271
100
AcDbEntity
  8
0
  6
Continuous
 62
   174
100
AcDbLine
 10
58.442577
 20
57.108135
 30
0.0
 11
57.742577
 21
57.108135
 31
0.0
  0
LINE
  5
272
100
AcDbEntity
  8
0
  6
Continuous
 62
   174
100
AcDbLine
 10
61.442577
 20
40.108135
 30
0.0
 11
73.484537
 21
40.108135
 31
0.0
  0
LINE
  5
273
100
AcDbEntity
  8
0
  6
Continuous
 62
   174
100
AcDbLine
 10
193.442577
 20
40.608135
 30
0.0
 11
193.442577
 21
55.608135
 31
0.0
  0
LINE
  5
274
100
AcDbEntity
  8
0
  6
Continuous
 62
   174
100
AcDbLine
 10
237.442577
 20
41.409803
 30
0.0
 11
237.442577
 21
39.124046
 31
0.0
  0
LINE
  5
275
100
AcDbEntity
  8
0
  6
Continuous
 62
   174
100
AcDbLine
 10
237.442577
 20
57.123108
 30
0.0
 11
237.442577
 21
54.837564
 31
0.0
  0
LINE
  5
276
100
AcDbEntity
  8
0
  6
Continuous
 62
   174
100
AcDbLine
 10
237.442577
 20
54.837564
 30
0.0
 11
237.442577
 21
41.409803
 31
0.0
  0
LINE
  5
277
100
AcDbEntity
  8
0
  6
Continuous
 62
   174
100
AcDbLine
 10
58.442577
 20
39.124046
 30
0.0
 11
58.442577
 21
41.409803
 31
0.0
  0
LINE
  5
278
100
AcDbEntity
  8
0
  6
Continuous
 62
   174
100
AcDbLine
 10
58.442577
 20
41.409803
 30
0.0
 11
58.442577
 21
54.837351
 31
0.0
  0
LINE
  5
279
100
AcDbEntity
  8
0
  6
Continuous
 62
   174
100
AcDbLine
 10
238.142577
 20
39.124046
 30
0.0
 11
238.142577
 21
40.285194
 31
0.0
  0
LINE
  5
27A
100
AcDbEntity
  8
0
  6
Continuous
 62
   174
100
AcDbLine
 10
57.742577
 20
57.123108
 30
0.0
 11
57.742577
 21
55.961961
 31
0.0
  0
ARC
  5
27B
100
AcDbEntity
  8
0
  6
Continuous
 62
   174
100
AcDbCircle
 10
130.942577
 20
56.358135
 30
0.0
 40
1.65
100
AcDbArc
 50
0.0
 51
180.0
  0
ARC
  5
27C
100
AcDbEntity
  8
0
  6
Continuous
 62
   174
100
AcDbCircle
 10
130.942577
 20
56.358135
 30
0.0
 40
1.65
100
AcDbArc
 50
180.0
 51
360.0
  0
LINE
  5
27D
100
AcDbEntity
  8
0
  6
Continuous
 62
   174
100
AcDbLine
 10
241.249757
 20
55.857008
 30
0.0
 11
238.142577
 21
55.857008
 31
0.0
  0
LINE
  5
27E
100
AcDbEntity
  8
0
  6
Continuous
 62
   174
100
AcDbLine
 10
61.442577
 20
41.608135
 30
0.0
 11
58.442577
 21
41.608135
 31
0.0
  0
LINE
  5
27F
100
AcDbEntity
  8
0
  6
Continuous
 62
   174
100
AcDbLine
 10
58.442577
 20
57.108135
 30
0.0
 11
57.742577
 21
57.108135
 31
0.0
  0
LINE
  5
280
100
AcDbEntity
  8
0
  6
Continuous
 62
   174
100
AcDbLine
 10
234.442577
 20
56.108135
 30
0.0
 11
222.400617
 21
56.108135
 31
0.0
  0
LINE
  5
281
100
AcDbEntity
  8
0
  6
Continuous
 62
   174
100
AcDbLine
 10
192.942577
 20
59.108135
 30
0.0
 11
176.942577
 21
59.108135
 31
0.0
  0
LINE
  5
282
100
AcDbEntity
  8
0
  6
Continuous
 62
   174
100
AcDbLine
 10
192.942577
 20
59.108135
 30
0.0
 11
192.942577
 21
37.108135
 31
0.0
  0
LINE
  5
283
100
AcDbEntity
  8
0
  6
Continuous
 62
   174
100
AcDbLine
 10
230.642577
 20
56.737546
 30
0.0
 11
230.642577
 21
57.805437
 31
0.0
  0
LWPOLYLINE
  5
284
100
AcDbEntity
  8
0
  6
Continuous
 62
   174
100
AcDbPolyline
 90
        4
 70
   128
 10
53.942577
 20
40.359263
 10
54.075697
 20
40.359263
 10
54.308783
 20
40.359263
 10
54.635398
 20
40.359263
  0
LINE
  5
285
100
AcDbEntity
  8
0
  6
Continuous
 62
   174
100
AcDbLine
 10
61.442577
 20
41.608135
 30
0.0
 11
58.442577
 21
41.608135
 31
0.0
  0
LINE
  5
286
100
AcDbEntity
  8
0
  6
Continuous
 62
   174
100
AcDbLine
 10
237.442577
 20
39.108135
 30
0.0
 11
238.142577
 21
39.108135
 31
0.0
  0
LINE
  5
287
100
AcDbEntity
  8
0
  6
Continuous
 62
   174
100
AcDbLine
 10
53.942577
 20
55.908135
 30
0.0
 11
54.041173
 21
56.078909
 31
0.0
  0
LINE
  5
288
100
AcDbEntity
  8
0
  6
Continuous
 62
   174
100
AcDbLine
 10
234.442577
 20
56.108135
 30
0.0
 11
222.400617
 21
56.108135
 31
0.0
  0
LINE
  5
289
100
AcDbEntity
  8
0
  6
Continuous
 62
   174
100
AcDbLine
 10
196.442577
 20
58.608135
 30
0.0
 11
219.442577
 21
58.608135
 31
0.0
  0
LINE
  5
28A
100
AcDbEntity
  8
0
  6
Continuous
 62
   174
100
AcDbLine
 10
192.942577
 20
37.108135
 30
0.0
 11
176.942577
 21
37.108135
 31
0.0
  0
LINE
  5
28B
100
AcDbEntity
  8
0
  6
Continuous
 62
   174
100
AcDbLine
 10
176.942577
 20
59.108135
 30
0.0
 11
176.942577
 21
37.108135
 31
0.0
  0
LINE
  5
28C
100
AcDbEntity
  8
0
  6
Continuous
 62
   174
100
AcDbLine
 10
176.942577
 20
59.108135
 30
0.0
 11
171.942577
 21
59.108135
 31
0.0
  0
LWPOLYLINE
  5
28D
100
AcDbEntity
  8
0
  6
Continuous
 62
   174
100
AcDbPolyline
 90
        3
 70
   128
 10
54.635398
 20
55.946942
 10
54.269295
 20
55.946942
 10
54.041195
 20
55.946942
  0
LINE
  5
28E
100
AcDbEntity
  8
0
  6
Continuous
 62
   174
100
AcDbLine
 10
71.442577
 20
58.010645
 30
0.0
 11
71.442577
 21
58.123021
 31
0.0
  0
LINE
  5
28F
100
AcDbEntity
  8
0
  6
Continuous
 62
   174
100
AcDbLine
 10
192.942577
 20
59.108135
 30
0.0
 11
222.942577
 21
59.108135
 31
0.0
  0
LINE
  5
290
100
AcDbEntity
  8
0
  6
Continuous
 62
   174
100
AcDbLine
 10
102.46076
 20
40.608135
 30
0.0
 11
99.46081
 21
40.608135
 31
0.0
  0
LINE
  5
291
100
AcDbEntity
  8
0
  6
Continuous
 62
   174
100
AcDbLine
 10
65.242577
 20
57.789724
 30
0.0
 11
71.442577
 21
57.789724
 31
0.0
  0
LINE
  5
292
100
AcDbEntity
  8
0
  6
Continuous
 62
   174
100
AcDbLine
 10
71.442577
 20
58.108135
 30
0.0
 11
71.942577
 21
58.108135
 31
0.0
  0
LINE
  5
293
100
AcDbEntity
  8
0
  6
Continuous
 62
   174
100
AcDbLine
 10
222.442577
 20
40.608135
 30
0.0
 11
222.442577
 21
41.863137
 31
0.0
  0
LINE
  5
294
100
AcDbEntity
  8
0
  6
Continuous
 62
   174
100
AcDbLine
 10
222.942577
 20
59.108135
 30
0.0
 11
222.942577
 21
56.108135
 31
0.0
  0
ARC
  5
295
100
AcDbEntity
  8
0
  6
Continuous
 62
   174
100
AcDbCircle
 10
147.942577
 20
48.108135
 30
0.0
 40
5.875
100
AcDbArc
 50
180.0
 51
360.0
  0
LINE
  5
296
100
AcDbEntity
  8
0
  6
Continuous
 62
   174
100
AcDbLine
 10
219.442577
 20
58.608135
 30
0.0
 11
196.442577
 21
58.608135
 31
0.0
  0
LINE
  5
297
100
AcDbEntity
  8
0
  6
Continuous
 62
   174
100
AcDbLine
 10
57.742577
 20
55.946942
 30
0.0
 11
54.635398
 21
55.946942
 31
0.0
  0
LINE
  5
298
100
AcDbEntity
  8
0
  6
Continuous
 62
   174
100
AcDbLine
 10
65.242577
 20
39.493739
 30
0.0
 11
71.442577
 21
39.493739
 31
0.0
  0
LINE
  5
299
100
AcDbEntity
  8
0
  6
Continuous
 62
   174
100
AcDbLine
 10
102.942577
 20
37.108135
 30
0.0
 11
72.942577
 21
37.108135
 31
0.0
  0
LINE
  5
29A
100
AcDbEntity
  8
0
  6
Continuous
 62
   174
100
AcDbLine
 10
230.642577
 20
38.426547
 30
0.0
 11
224.442577
 21
38.426547
 31
0.0
  0
ARC
  5
29B
100
AcDbEntity
  8
0
  6
Continuous
 62
   174
100
AcDbCircle
 10
181.942577
 20
48.108135
 30
0.0
 40
3.0
100
AcDbArc
 50
-180.0
 51
0.0
  0
LINE
  5
29C
100
AcDbEntity
  8
0
  6
Continuous
 62
   174
100
AcDbLine
 10
71.942577
 20
58.108135
 30
0.0
 11
72.942577
 21
58.108135
 31
0.0
  0
LINE
  5
29D
100
AcDbEntity
  8
0
  6
Continuous
 62
   174
100
AcDbLine
 10
72.942577
 20
59.108135
 30
0.0
 11
102.942577
 21
59.108135
 31
0.0
  0
ARC
  5
29E
100
AcDbEntity
  8
0
  6
Continuous
 62
   174
100
AcDbCircle
 10
181.942577
 20
48.108135
 30
0.0
 40
2.720294
100
AcDbArc
 50
-259.408609
 51
-100.591391
  0
LINE
  5
29F
100
AcDbEntity
  8
0
  6
Continuous
 62
   174
100
AcDbLine
 10
76.460698
 20
55.608135
 30
0.0
 11
73.460748
 21
55.608135
 31
0.0
  0
LINE
  5
2A0
100
AcDbEntity
  8
0
  6
Continuous
 62
   174
100
AcDbLine
 10
224.442577
 20
38.442568
 30
0.0
 11
224.442577
 21
38.236722
 31
0.0
  0
LINE
  5
2A1
100
AcDbEntity
  8
0
  6
Continuous
 62
   174
100
AcDbLine
 10
76.442577
 20
37.624284
 30
0.0
 11
76.442577
 21
40.624021
 31
0.0
  0
LINE
  5
2A2
100
AcDbEntity
  8
0
  6
Continuous
 62
   174
100
AcDbLine
 10
230.642577
 20
56.722532
 30
0.0
 11
224.442577
 21
56.722532
 31
0.0
  0
LINE
  5
2A3
100
AcDbEntity
  8
0
  6
Continuous
 62
   174
100
AcDbLine
 10
222.942577
 20
40.108135
 30
0.0
 11
222.942577
 21
37.108135
 31
0.0
  0
LINE
  5
2A4
100
AcDbEntity
  8
0
  6
Continuous
 62
   174
100
AcDbLine
 10
238.142577
 20
48.198069
 30
0.0
 11
241.249757
 21
48.198069
 31
0.0
  0
LINE
  5
2A5
100
AcDbEntity
  8
0
  6
Continuous
 62
   174
100
AcDbLine
 10
171.942577
 20
59.108135
 30
0.0
 11
123.942577
 21
59.108135
 31
0.0
  0
LINE
  5
2A6
100
AcDbEntity
  8
0
  6
Continuous
 62
   174
100
AcDbLine
 10
71.442577
 20
38.108135
 30
0.0
 11
71.942577
 21
38.108135
 31
0.0
  0
LINE
  5
2A7
100
AcDbEntity
  8
0
  6
Continuous
 62
   174
100
AcDbLine
 10
193.460657
 20
55.608135
 30
0.0
 11
196.460607
 21
55.608135
 31
0.0
  0
LINE
  5
2A8
100
AcDbEntity
  8
0
  6
Continuous
 62
   174
100
AcDbLine
 10
99.442577
 20
55.623133
 30
0.0
 11
99.442577
 21
58.623083
 31
0.0
  0
LINE
  5
2A9
100
AcDbEntity
  8
0
  6
Continuous
 62
   174
100
AcDbLine
 10
219.460719
 20
40.608135
 30
0.0
 11
222.460669
 21
40.608135
 31
0.0
  0
LINE
  5
2AA
100
AcDbEntity
  8
0
  6
Continuous
 62
   174
100
AcDbLine
 10
65.242577
 20
40.108135
 30
0.0
 11
65.242577
 21
39.493739
 31
0.0
  0
LINE
  5
2AB
100
AcDbEntity
  8
0
  6
Continuous
 62
   174
100
AcDbLine
 10
71.942577
 20
38.108135
 30
0.0
 11
72.942577
 21
38.108135
 31
0.0
  0
ARC
  5
2AC
100
AcDbEntity
  8
0
  6
Continuous
 62
   174
100
AcDbCircle
 10
181.942577
 20
48.108135
 30
0.0
 40
3.0
100
AcDbArc
 50
0.0
 51
180.0
  0
LINE
  5
2AD
100
AcDbEntity
  8
0
  6
Continuous
 62
   174
100
AcDbLine
 10
102.442577
 20
40.608135
 30
0.0
 11
102.442577
 21
55.608135
 31
0.0
  0
LINE
  5
2AE
100
AcDbEntity
  8
0
  6
Continuous
 62
   174
100
AcDbLine
 10
224.442577
 20
38.108135
 30
0.0
 11
223.942577
 21
38.108135
 31
0.0
  0
LINE
  5
2AF
100
AcDbEntity
  8
0
  6
Continuous
 62
   174
100
AcDbLine
 10
224.442577
 20
38.236722
 30
0.0
 11
224.442577
 21
38.124134
 31
0.0
  0
LINE
  5
2B0
100
AcDbEntity
  8
0
  6
Continuous
 62
   174
100
AcDbLine
 10
71.442577
 20
56.149325
 30
0.0
 11
71.442577
 21
56.735847
 31
0.0
  0
LINE
  5
2B1
100
AcDbEntity
  8
0
  6
Continuous
 62
   174
100
AcDbLine
 10
230.642577
 20
56.108135
 30
0.0
 11
230.642577
 21
56.722532
 31
0.0
  0
LINE
  5
2B2
100
AcDbEntity
  8
0
  6
Continuous
 62
   174
100
AcDbLine
 10
71.942577
 20
58.108135
 30
0.0
 11
72.942577
 21
58.108135
 31
0.0
  0
ARC
  5
2B3
100
AcDbEntity
  8
0
  6
Continuous
 62
   174
100
AcDbCircle
 10
113.942577
 20
48.108135
 30
0.0
 40
2.720294
100
AcDbArc
 50
-259.408609
 51
-100.591391
  0
LINE
  5
2B4
100
AcDbEntity
  8
0
  6
Continuous
 62
   174
100
AcDbLine
 10
71.442577
 20
38.236722
 30
0.0
 11
71.442577
 21
38.441718
 31
0.0
  0
LINE
  5
2B5
100
AcDbEntity
  8
0
  6
Continuous
 62
   174
100
AcDbLine
 10
223.942577
 20
38.108135
 30
0.0
 11
222.942577
 21
38.108135
 31
0.0
  0
ARC
  5
2B6
100
AcDbEntity
  8
0
  6
Continuous
 62
   174
100
AcDbCircle
 10
76.442577
 20
40.608135
 30
0.0
 40
3.0
100
AcDbArc
 50
-180.0
 51
-90.0
  0
LINE
  5
2B7
100
AcDbEntity
  8
0
  6
Continuous
 62
   174
100
AcDbLine
 10
99.46081
 20
55.608135
 30
0.0
 11
102.46076
 21
55.608135
 31
0.0
  0
LINE
  5
2B8
100
AcDbEntity
  8
0
  6
Continuous
 62
   174
100
AcDbLine
 10
193.442577
 20
55.608135
 30
0.0
 11
193.442577
 21
40.608135
 31
0.0
  0
LINE
  5
2B9
100
AcDbEntity
  8
0
  6
Continuous
 62
   174
100
AcDbLine
 10
224.442577
 20
58.108135
 30
0.0
 11
223.942577
 21
58.108135
 31
0.0
  0
LINE
  5
2BA
100
AcDbEntity
  8
0
  6
Continuous
 62
   174
100
AcDbLine
 10
76.442577
 20
55.608135
 30
0.0
 11
99.442577
 21
55.608135
 31
0.0
  0
LINE
  5
2BB
100
AcDbEntity
  8
0
  6
Continuous
 62
   174
100
AcDbLine
 10
99.442577
 20
37.624284
 30
0.0
 11
99.442577
 21
40.624021
 31
0.0
  0
LWPOLYLINE
  5
2BC
100
AcDbEntity
  8
0
  6
Continuous
 62
   174
100
AcDbPolyline
 90
        4
 70
   128
 10
53.942577
 20
52.75473
 10
54.075698
 20
53.808439
 10
54.30878
 20
54.866851
 10
54.635398
 20
55.946942
  0
LINE
  5
2BD
100
AcDbEntity
  8
0
  6
Continuous
 62
   174
100
AcDbLine
 10
71.442577
 20
38.124134
 30
0.0
 11
71.442577
 21
38.236722
 31
0.0
  0
LINE
  5
2BE
100
AcDbEntity
  8
0
  6
Continuous
 62
   174
100
AcDbLine
 10
222.942577
 20
37.108135
 30
0.0
 11
192.942577
 21
37.108135
 31
0.0
  0
LINE
  5
2BF
100
AcDbEntity
  8
0
  6
Continuous
 62
   174
100
AcDbLine
 10
238.142577
 20
40.269329
 30
0.0
 11
241.249757
 21
40.269329
 31
0.0
  0
LINE
  5
2C0
100
AcDbEntity
  8
0
  6
Continuous
 62
   174
100
AcDbLine
 10
219.442577
 20
40.608135
 30
0.0
 11
196.442577
 21
40.608135
 31
0.0
  0
LINE
  5
2C1
100
AcDbEntity
  8
0
  6
Continuous
 62
   174
100
AcDbLine
 10
99.442577
 20
58.608135
 30
0.0
 11
76.442577
 21
58.608135
 31
0.0
  0
LWPOLYLINE
  5
2C2
100
AcDbEntity
  8
0
  6
Continuous
 62
   174
100
AcDbPolyline
 90
        4
 70
   128
 10
54.635398
 20
48.018202
 10
54.307497
 20
49.103171
 10
54.074743
 20
50.16217
 10
53.942577
 20
51.210414
  0
ARC
  5
2C3
100
AcDbEntity
  8
0
  6
Continuous
 62
   174
100
AcDbCircle
 10
219.442577
 20
55.608135
 30
0.0
 40
3.0
100
AcDbArc
 50
0.0
 51
90.0
  0
LINE
  5
2C4
100
AcDbEntity
  8
0
  6
Continuous
 62
   174
100
AcDbLine
 10
223.942577
 20
58.108135
 30
0.0
 11
222.942577
 21
58.108135
 31
0.0
  0
ARC
  5
2C5
100
AcDbEntity
  8
0
  6
Continuous
 62
   174
100
AcDbCircle
 10
181.942577
 20
48.108135
 30
0.0
 40
2.720294
100
AcDbArc
 50
-79.408609
 51
79.408609
  0
LINE
  5
2C6
100
AcDbEntity
  8
0
  6
Continuous
 62
   174
100
AcDbLine
 10
65.242577
 20
56.720765
 30
0.0
 11
71.442577
 21
56.720765
 31
0.0
  0
LWPOLYLINE
  5
2C7
100
AcDbEntity
  8
0
  6
Continuous
 62
   174
100
AcDbPolyline
 90
        7
 70
   128
 10
54.635398
 20
40.359263
 10
54.269271
 20
41.661229
 10
54.041173
 20
42.937831
 10
53.96427
 20
44.188802
 10
54.041188
 20
45.439756
 10
54.269288
 20
46.716311
 10
54.635398
 20
48.018202
  0
LINE
  5
2C8
100
AcDbEntity
  8
0
  6
Continuous
 62
   174
100
AcDbLine
 10
57.742577
 20
48.018202
 30
0.0
 11
54.635398
 21
48.018202
 31
0.0
  0
LINE
  5
2C9
100
AcDbEntity
  8
0
  6
Continuous
 62
   174
100
AcDbLine
 10
223.942577
 20
38.108135
 30
0.0
 11
222.942577
 21
38.108135
 31
0.0
  0
LINE
  5
2CA
100
AcDbEntity
  8
0
  6
Continuous
 62
   174
100
AcDbLine
 10
99.442577
 20
55.608135
 30
0.0
 11
99.442577
 21
40.608135
 31
0.0
  0
LINE
  5
2CB
100
AcDbEntity
  8
0
  6
Continuous
 62
   174
100
AcDbLine
 10
196.442577
 20
40.624021
 30
0.0
 11
196.442577
 21
37.624284
 31
0.0
  0
LWPOLYLINE
  5
2CC
100
AcDbEntity
  8
0
  6
Continuous
 62
   174
100
AcDbPolyline
 90
        6
 70
   128
 10
76.442577
 20
48.108135
 10
75.537261
 20
49.597495
 10
74.728956
 20
50.991244
 10
74.067108
 20
52.269906
 10
73.615283
 20
53.39601
 10
73.442577
 20
54.353133
  0
LINE
  5
2CD
100
AcDbEntity
  8
0
  6
Continuous
 62
   174
100
AcDbLine
 10
71.442577
 20
39.509608
 30
0.0
 11
71.442577
 21
40.09783
 31
0.0
  0
LINE
  5
2CE
100
AcDbEntity
  8
0
  6
Continuous
 62
   174
100
AcDbLine
 10
224.442577
 20
58.010432
 30
0.0
 11
224.442577
 21
57.805437
 31
0.0
  0
LINE
  5
2CF
100
AcDbEntity
  8
0
  6
Continuous
 62
   174
100
AcDbLine
 10
224.442577
 20
40.09783
 30
0.0
 11
224.442577
 21
39.51152
 31
0.0
  0
ARC
  5
2D0
100
AcDbEntity
  8
0
  6
Continuous
 62
   174
100
AcDbCircle
 10
99.442577
 20
55.608135
 30
0.0
 40
3.0
100
AcDbArc
 50
0.0
 51
90.0
  0
LINE
  5
2D1
100
AcDbEntity
  8
0
  6
Continuous
 62
   174
100
AcDbLine
 10
196.442577
 20
58.623083
 30
0.0
 11
196.442577
 21
55.623133
 31
0.0
  0
LINE
  5
2D2
100
AcDbEntity
  8
0
  6
Continuous
 62
   174
100
AcDbLine
 10
114.442577
 20
45.434187
 30
0.0
 11
114.442577
 21
50.782084
 31
0.0
  0
LINE
  5
2D3
100
AcDbEntity
  8
0
  6
Continuous
 62
   174
100
AcDbLine
 10
196.442577
 20
37.608135
 30
0.0
 11
219.442577
 21
37.608135
 31
0.0
  0
LINE
  5
2D4
100
AcDbEntity
  8
0
  6
Continuous
 62
   174
100
AcDbLine
 10
65.242577
 20
56.720765
 30
0.0
 11
65.242577
 21
56.108135
 31
0.0
  0
LINE
  5
2D5
100
AcDbEntity
  8
0
  6
Continuous
 62
   174
100
AcDbLine
 10
196.442577
 20
40.608135
 30
0.0
 11
196.442577
 21
55.608135
 31
0.0
  0
LINE
  5
2D6
100
AcDbEntity
  8
0
  6
Continuous
 62
   174
100
AcDbLine
 10
65.242577
 20
38.425677
 30
0.0
 11
71.442577
 21
38.425677
 31
0.0
  0
LINE
  5
2D7
100
AcDbEntity
  8
0
  6
Continuous
 62
   174
100
AcDbLine
 10
222.460669
 20
55.608135
 30
0.0
 11
219.460719
 21
55.608135
 31
0.0
  0
LWPOLYLINE
  5
2D8
100
AcDbEntity
  8
0
  6
Continuous
 62
   174
100
AcDbPolyline
 90
        7
 70
   128
 10
241.249757
 20
55.857008
 10
241.615884
 20
54.555042
 10
241.843981
 20
53.27844
 10
241.920885
 20
52.027469
 10
241.843967
 20
50.776514
 10
241.615866
 20
49.499959
 10
241.249757
 20
48.198069
  0
LINE
  5
2D9
100
AcDbEntity
  8
0
  6
Continuous
 62
   174
100
AcDbLine
 10
123.942577
 20
59.108135
 30
0.0
 11
123.942577
 21
37.108135
 31
0.0
  0
LINE
  5
2DA
100
AcDbEntity
  8
0
  6
Continuous
 62
   174
100
AcDbLine
 10
230.642577
 20
39.495506
 30
0.0
 11
230.642577
 21
40.108135
 31
0.0
  0
LINE
  5
2DB
100
AcDbEntity
  8
0
  6
Continuous
 62
   174
100
AcDbLine
 10
99.442577
 20
40.608135
 30
0.0
 11
76.442577
 21
40.608135
 31
0.0
  0
LINE
  5
2DC
100
AcDbEntity
  8
0
  6
Continuous
 62
   174
100
AcDbLine
 10
224.442577
 20
56.737546
 30
0.0
 11
224.442577
 21
56.149325
 31
0.0
  0
LINE
  5
2DD
100
AcDbEntity
  8
0
  6
Continuous
 62
   174
100
AcDbLine
 10
113.442577
 20
50.782084
 30
0.0
 11
113.442577
 21
45.434187
 31
0.0
  0
LWPOLYLINE
  5
2DE
100
AcDbEntity
  8
0
  6
Continuous
 62
   174
100
AcDbPolyline
 90
        6
 70
   128
 10
222.442577
 20
54.353133
 10
222.270235
 20
53.397172
 10
221.818434
 20
52.270732
 10
221.155364
 20
50.989741
 10
220.346833
 20
49.595725
 10
219.442577
 20
48.108135
  0
LINE
  5
2DF
100
AcDbEntity
  8
0
  6
Continuous
 62
   174
100
AcDbLine
 10
224.442577
 20
58.123021
 30
0.0
 11
224.442577
 21
58.010432
 31
0.0
  0
LINE
  5
2E0
100
AcDbEntity
  8
0
  6
Continuous
 62
   174
100
AcDbLine
 10
76.442577
 20
55.623133
 30
0.0
 11
76.442577
 21
58.623083
 31
0.0
  0
LINE
  5
2E1
100
AcDbEntity
  8
0
  6
Continuous
 62
   174
100
AcDbLine
 10
181.442577
 20
50.782084
 30
0.0
 11
181.442577
 21
45.434187
 31
0.0
  0
ARC
  5
2E2
100
AcDbEntity
  8
0
  6
Continuous
 62
   174
100
AcDbCircle
 10
196.442577
 20
40.608135
 30
0.0
 40
3.0
100
AcDbArc
 50
-180.0
 51
-90.0
  0
LINE
  5
2E3
100
AcDbEntity
  8
0
  6
Continuous
 62
   174
100
AcDbLine
 10
196.460607
 20
40.608135
 30
0.0
 11
193.460657
 21
40.608135
 31
0.0
  0
LINE
  5
2E4
100
AcDbEntity
  8
0
  6
Continuous
 62
   174
100
AcDbLine
 10
73.442577
 20
41.863137
 30
0.0
 11
73.442577
 21
40.608135
 31
0.0
  0
LINE
  5
2E5
100
AcDbEntity
  8
0
  6
Continuous
 62
   174
100
AcDbLine
 10
76.442577
 20
48.108135
 30
0.0
 11
76.442577
 21
55.608135
 31
0.0
  0
LINE
  5
2E6
100
AcDbEntity
  8
0
  6
Continuous
 62
   174
100
AcDbLine
 10
196.442577
 20
55.608135
 30
0.0
 11
219.442577
 21
55.608135
 31
0.0
  0
LWPOLYLINE
  5
2E7
100
AcDbEntity
  8
0
  6
Continuous
 62
   174
100
AcDbPolyline
 90
        6
 70
   128
 10
73.442577
 20
41.863137
 10
73.61492
 20
42.819099
 10
74.06672
 20
43.945539
 10
74.729791
 20
45.226529
 10
75.538321
 20
46.620546
 10
76.442577
 20
48.108135
  0
ARC
  5
2E8
100
AcDbEntity
  8
0
  6
Continuous
 62
   174
100
AcDbCircle
 10
113.942577
 20
48.108135
 30
0.0
 40
3.0
100
AcDbArc
 50
0.0
 51
180.0
  0
ARC
  5
2E9
100
AcDbEntity
  8
0
  6
Continuous
 62
   174
100
AcDbCircle
 10
99.442577
 20
40.608135
 30
0.0
 40
3.0
100
AcDbArc
 50
-90.0
 51
0.0
  0
LWPOLYLINE
  5
2EA
100
AcDbEntity
  8
0
  6
Continuous
 62
   174
100
AcDbPolyline
 90
        4
 70
   128
 10
241.942577
 20
43.461541
 10
241.809457
 20
42.407832
 10
241.576374
 20
41.34942
 10
241.249757
 20
40.269329
  0
LINE
  5
2EB
100
AcDbEntity
  8
0
  6
Continuous
 62
   174
100
AcDbLine
 10
219.442577
 20
58.623083
 30
0.0
 11
219.442577
 21
55.623133
 31
0.0
  0
LINE
  5
2EC
100
AcDbEntity
  8
0
  6
Continuous
 62
   174
100
AcDbLine
 10
219.442577
 20
48.108135
 30
0.0
 11
219.442577
 21
40.608135
 31
0.0
  0
LINE
  5
2ED
100
AcDbEntity
  8
0
  6
Continuous
 62
   174
100
AcDbLine
 10
182.442577
 20
45.434187
 30
0.0
 11
182.442577
 21
50.782084
 31
0.0
  0
LINE
  5
2EE
100
AcDbEntity
  8
0
  6
Continuous
 62
   174
100
AcDbLine
 10
222.442577
 20
54.353133
 30
0.0
 11
222.442577
 21
55.608135
 31
0.0
  0
ARC
  5
2EF
100
AcDbEntity
  8
0
  6
Continuous
 62
   174
100
AcDbCircle
 10
76.442577
 20
55.608135
 30
0.0
 40
3.0
100
AcDbArc
 50
-270.0
 51
-180.0
  0
LINE
  5
2F0
100
AcDbEntity
  8
0
  6
Continuous
 62
   174
100
AcDbLine
 10
72.942577
 20
37.108135
 30
0.0
 11
72.942577
 21
40.108135
 31
0.0
  0
LINE
  5
2F1
100
AcDbEntity
  8
0
  6
Continuous
 62
   174
100
AcDbLine
 10
230.642577
 20
57.790594
 30
0.0
 11
224.442577
 21
57.790594
 31
0.0
  0
LINE
  5
2F2
100
AcDbEntity
  8
0
  6
Continuous
 62
   174
100
AcDbLine
 10
76.442577
 20
40.608135
 30
0.0
 11
76.442577
 21
48.108135
 31
0.0
  0
LINE
  5
2F3
100
AcDbEntity
  8
0
  6
Continuous
 62
   174
100
AcDbLine
 10
71.442577
 20
57.804587
 30
0.0
 11
71.442577
 21
58.010645
 31
0.0
  0
LINE
  5
2F4
100
AcDbEntity
  8
0
  6
Continuous
 62
   174
100
AcDbLine
 10
219.442577
 20
40.624021
 30
0.0
 11
219.442577
 21
37.624284
 31
0.0
  0
LWPOLYLINE
  5
2F5
100
AcDbEntity
  8
0
  6
Continuous
 62
   174
100
AcDbPolyline
 90
        4
 70
   128
 10
241.249757
 20
48.198069
 10
241.577658
 20
47.1131
 10
241.810412
 20
46.054101
 10
241.942577
 20
45.005857
  0
LINE
  5
2F6
100
AcDbEntity
  8
0
  6
Continuous
 62
   174
100
AcDbLine
 10
230.642577
 20
39.495506
 30
0.0
 11
224.442577
 21
39.495506
 31
0.0
  0
ARC
  5
2F7
100
AcDbEntity
  8
0
  6
Continuous
 62
   174
100
AcDbCircle
 10
147.942577
 20
48.108135
 30
0.0
 40
5.875
100
AcDbArc
 50
0.0
 51
180.0
  0
LINE
  5
2F8
100
AcDbEntity
  8
0
  6
Continuous
 62
   174
100
AcDbLine
 10
72.942577
 20
56.108135
 30
0.0
 11
72.942577
 21
59.108135
 31
0.0
  0
LINE
  5
2F9
100
AcDbEntity
  8
0
  6
Continuous
 62
   174
100
AcDbLine
 10
76.442577
 20
37.608135
 30
0.0
 11
99.442577
 21
37.608135
 31
0.0
  0
LINE
  5
2FA
100
AcDbEntity
  8
0
  6
Continuous
 62
   174
100
AcDbLine
 10
171.942577
 20
37.108135
 30
0.0
 11
123.942577
 21
37.108135
 31
0.0
  0
ARC
  5
2FB
100
AcDbEntity
  8
0
  6
Continuous
 62
   174
100
AcDbCircle
 10
219.442577
 20
40.608135
 30
0.0
 40
3.0
100
AcDbArc
 50
-90.0
 51
0.0
  0
ARC
  5
2FC
100
AcDbEntity
  8
0
  6
Continuous
 62
   174
100
AcDbCircle
 10
113.942577
 20
48.108135
 30
0.0
 40
3.0
100
AcDbArc
 50
-180.0
 51
0.0
  0
ARC
  5
2FD
100
AcDbEntity
  8
0
  6
Continuous
 62
   174
100
AcDbCircle
 10
196.442577
 20
55.608135
 30
0.0
 40
3.0
100
AcDbArc
 50
-270.0
 51
-180.0
  0
LINE
  5
2FE
100
AcDbEntity
  8
0
  6
Continuous
 62
   174
100
AcDbLine
 10
219.442577
 20
55.608135
 30
0.0
 11
219.442577
 21
48.108135
 31
0.0
  0
LINE
  5
2FF
100
AcDbEntity
  8
0
  6
Continuous
 62
   174
100
AcDbLine
 10
73.460748
 20
40.608135
 30
0.0
 11
76.460698
 21
40.608135
 31
0.0
  0
ARC
  5
300
100
AcDbEntity
  8
0
  6
Continuous
 62
   174
100
AcDbCircle
 10
113.942577
 20
48.108135
 30
0.0
 40
2.720294
100
AcDbArc
 50
-79.408609
 51
79.408609
  0
LWPOLYLINE
  5
301
100
AcDbEntity
  8
0
  6
Continuous
 62
   174
100
AcDbPolyline
 90
        6
 70
   128
 10
219.442577
 20
48.108135
 10
220.347893
 20
46.618775
 10
221.156198
 20
45.225027
 10
221.818046
 20
43.946365
 10
222.269872
 20
42.820261
 10
222.442577
 20
41.863137
  0
LINE
  5
302
100
AcDbEntity
  8
0
  6
Continuous
 62
   174
100
AcDbLine
 10
73.442577
 20
55.608135
 30
0.0
 11
73.442577
 21
54.353133
 31
0.0
  0
ENDBLK
  5
303
100
AcDbEntity
  8
0
100
AcDbBlockEnd
  0
BLOCK
  5
306
100
AcDbEntity
  8
0
100
AcDbBlockBegin
  2
*B3
 70
     0
 10
0.0
 20
0.0
 30
0.0
  3
*B3
  1

  0
LINE
  5
307
100
AcDbEntity
  8
0
  6
Continuous
 62
   172
100
AcDbLine
 10
101.384849
 20
73.839182
 30
0.0
 11
92.976298
 21
73.839182
 31
0.0
  0
LINE
  5
308
100
AcDbEntity
  8
0
  6
Continuous
 62
   172
100
AcDbLine
 10
112.849294
 20
54.343475
 30
0.0
 11
101.384849
 21
73.839182
 31
0.0
  0
ENDBLK
  5
309
100
AcDbEntity
  8
0
100
AcDbBlockEnd
  0
BLOCK
  5
30C
100
AcDbEntity
  8
0
100
AcDbBlockBegin
  2
*B4
 70
     0
 10
0.0
 20
0.0
 30
0.0
  3
*B4
  1

  0
LINE
  5
30D
100
AcDbEntity
  8
0
  6
Continuous
 62
   172
100
AcDbLine
 10
99.637693
 20
75.66274
 30
0.0
 11
97.837693
 21
76.324135
 31
0.0
  0
LINE
  5
30E
100
AcDbEntity
  8
0
  6
Continuous
 62
   172
100
AcDbLine
 10
99.637693
 20
75.66274
 30
0.0
 11
97.837693
 21
75.124135
 31
0.0
  0
LINE
  5
30F
100
AcDbEntity
  8
0
  6
Continuous
 62
   172
100
AcDbLine
 10
98.437693
 20
75.66274
 30
0.0
 11
99.637693
 21
75.66274
 31
0.0
  0
LINE
  5
310
100
AcDbEntity
  8
0
  6
Continuous
 62
   172
100
AcDbLine
 10
99.637693
 20
85.98553
 30
0.0
 11
97.837693
 21
85.324135
 31
0.0
  0
LINE
  5
311
100
AcDbEntity
  8
0
  6
Continuous
 62
   172
100
AcDbLine
 10
99.637693
 20
85.98553
 30
0.0
 11
97.837693
 21
86.524135
 31
0.0
  0
LINE
  5
312
100
AcDbEntity
  8
0
  6
Continuous
 62
   172
100
AcDbLine
 10
98.437693
 20
85.98553
 30
0.0
 11
99.637693
 21
85.98553
 31
0.0
  0
ARC
  5
313
100
AcDbEntity
  8
0
  6
Continuous
 62
   172
100
AcDbCircle
 10
98.437693
 20
80.824135
 30
0.0
 40
5.161395
100
AcDbArc
 50
-270.0
 51
-90.0
  0
ENDBLK
  5
314
100
AcDbEntity
  8
0
100
AcDbBlockEnd
  0
BLOCK
  5
317
100
AcDbEntity
  8
0
100
AcDbBlockBegin
  2
*B5
 70
     0
 10
0.0
 20
0.0
 30
0.0
  3
*B5
  1

  0
ENDBLK
  5
318
100
AcDbEntity
  8
0
100
AcDbBlockEnd
  0
BLOCK
  5
31A
100
AcDbEntity
  8
0
100
AcDbBlockBegin
  2
*B6
 70
     0
 10
0.0
 20
0.0
 30
0.0
  3
*B6
  1

  0
LINE
  5
31B
100
AcDbEntity
  8
0
  6
Continuous
 62
   172
100
AcDbLine
 10
91.059366
 20
119.566326
 30
0.0
 11
73.367917
 21
89.481373
 31
0.0
  0
LINE
  5
31C
100
AcDbEntity
  8
0
  6
Continuous
 62
   172
100
AcDbLine
 10
73.367917
 20
89.481373
 30
0.0
 11
64.959366
 21
89.481373
 31
0.0
  0
ENDBLK
  5
31D
100
AcDbEntity
  8
0
100
AcDbBlockEnd
  0
BLOCK
  5
320
100
AcDbEntity
  8
0
100
AcDbBlockBegin
  2
*B7
 70
     0
 10
0.0
 20
0.0
 30
0.0
  3
*B7
  1

  0
LINE
  5
321
100
AcDbEntity
  8
0
  6
Continuous
 62
   172
100
AcDbLine
 10
71.620761
 20
91.304931
 30
0.0
 11
69.820761
 21
91.966326
 31
0.0
  0
LINE
  5
322
100
AcDbEntity
  8
0
  6
Continuous
 62
   172
100
AcDbLine
 10
71.620761
 20
91.304931
 30
0.0
 11
69.820761
 21
90.766326
 31
0.0
  0
LINE
  5
323
100
AcDbEntity
  8
0
  6
Continuous
 62
   172
100
AcDbLine
 10
70.420761
 20
91.304931
 30
0.0
 11
71.620761
 21
91.304931
 31
0.0
  0
LINE
  5
324
100
AcDbEntity
  8
0
  6
Continuous
 62
   172
100
AcDbLine
 10
71.620761
 20
101.627721
 30
0.0
 11
69.820761
 21
100.966326
 31
0.0
  0
LINE
  5
325
100
AcDbEntity
  8
0
  6
Continuous
 62
   172
100
AcDbLine
 10
71.620761
 20
101.627721
 30
0.0
 11
69.820761
 21
102.166326
 31
0.0
  0
LINE
  5
326
100
AcDbEntity
  8
0
  6
Continuous
 62
   172
100
AcDbLine
 10
70.420761
 20
101.627721
 30
0.0
 11
71.620761
 21
101.627721
 31
0.0
  0
ARC
  5
327
100
AcDbEntity
  8
0
  6
Continuous
 62
   172
100
AcDbCircle
 10
70.420761
 20
96.466326
 30
0.0
 40
5.161395
100
AcDbArc
 50
-270.0
 51
-90.0
  0
ENDBLK
  5
328
100
AcDbEntity
  8
0
100
AcDbBlockEnd
  0
BLOCK
  5
32B
100
AcDbEntity
  8
0
100
AcDbBlockBegin
  2
*B8
 70
     0
 10
0.0
 20
0.0
 30
0.0
  3
*B8
  1

  0
ENDBLK
  5
32C
100
AcDbEntity
  8
0
100
AcDbBlockEnd
  0
BLOCK
  5
32E
100
AcDbEntity
  8
0
100
AcDbBlockBegin
  2
*B9
 70
     0
 10
0.0
 20
0.0
 30
0.0
  3
*B9
  1

  0
LINE
  5
32F
100
AcDbEntity
  8
0
  6
Continuous
 62
     0
100
AcDbLine
 10
158.960596
 20
92.513043
 30
0.0
 11
171.960733
 21
92.513043
 31
0.0
  0
SOLID
  5
330
100
AcDbEntity
  8
0
  6
Continuous
 62
     0
100
AcDbTrace
 10
162.460608
 20
93.112948
 30
0.0
 11
158.960596
 21
92.513043
 31
0.0
 12
162.460608
 22
91.912926
 32
0.0
 13
162.460608
 23
91.912926
 33
0.0
  0
SOLID
  5
331
100
AcDbEntity
  8
0
  6
Continuous
 62
     0
100
AcDbTrace
 10
168.460721
 20
91.912926
 30
0.0
 11
171.960733
 21
92.513043
 31
0.0
 12
168.460721
 22
93.112948
 32
0.0
 13
168.460721
 23
93.112948
 33
0.0
  0
ENDBLK
  5
332
100
AcDbEntity
  8
0
100
AcDbBlockEnd
  0
BLOCK
  5
335
100
AcDbEntity
  8
0
100
AcDbBlockBegin
  2
*B10
 70
     0
 10
0.0
 20
0.0
 30
0.0
  3
*B10
  1

  0
LINE
  5
336
100
AcDbEntity
  8
0
  6
Continuous
 62
     0
100
AcDbLine
 10
136.960609
 20
92.513043
 30
0.0
 11
158.960596
 21
92.513043
 31
0.0
  0
SOLID
  5
337
100
AcDbEntity
  8
0
  6
Continuous
 62
     0
100
AcDbTrace
 10
140.460621
 20
93.112948
 30
0.0
 11
136.960609
 21
92.513043
 31
0.0
 12
140.460621
 22
91.912926
 32
0.0
 13
140.460621
 23
91.912926
 33
0.0
  0
SOLID
  5
338
100
AcDbEntity
  8
0
  6
Continuous
 62
     0
100
AcDbTrace
 10
155.460796
 20
91.912926
 30
0.0
 11
158.960596
 21
92.513043
 31
0.0
 12
155.460796
 22
93.112948
 32
0.0
 13
155.460796
 23
93.112948
 33
0.0
  0
ENDBLK
  5
339
100
AcDbEntity
  8
0
100
AcDbBlockEnd
  0
BLOCK
  5
33C
100
AcDbEntity
  8
0
100
AcDbBlockBegin
  2
*B11
 70
     0
 10
0.0
 20
0.0
 30
0.0
  3
*B11
  1

  0
LINE
  5
33D
100
AcDbEntity
  8
0
  6
Continuous
 62
     0
100
AcDbLine
 10
147.960709
 20
155.00938
 30
0.0
 11
171.960733
 21
155.00938
 31
0.0
  0
SOLID
  5
33E
100
AcDbEntity
  8
0
  6
Continuous
 62
     0
100
AcDbTrace
 10
151.460721
 20
155.609498
 30
0.0
 11
147.960709
 21
155.00938
 31
0.0
 12
151.460721
 22
154.409475
 32
0.0
 13
151.460721
 23
154.409475
 33
0.0
  0
SOLID
  5
33F
100
AcDbEntity
  8
0
  6
Continuous
 62
     0
100
AcDbTrace
 10
168.460721
 20
154.409475
 30
0.0
 11
171.960733
 21
155.00938
 31
0.0
 12
168.460721
 22
155.609498
 32
0.0
 13
168.460721
 23
155.609498
 33
0.0
  0
ENDBLK
  5
340
100
AcDbEntity
  8
0
100
AcDbBlockEnd
  0
BLOCK
  5
343
100
AcDbEntity
  8
0
100
AcDbBlockBegin
  2
*B12
 70
     0
 10
0.0
 20
0.0
 30
0.0
  3
*B12
  1

  0
LINE
  5
344
100
AcDbEntity
  8
0
  6
Continuous
 62
     0
100
AcDbLine
 10
176.357416
 20
24.016806
 30
0.0
 11
135.085693
 21
24.016806
 31
0.0
  0
SOLID
  5
345
100
AcDbEntity
  8
0
  6
Continuous
 62
     0
100
AcDbTrace
 10
157.335711
 20
24.616711
 30
0.0
 11
153.835699
 21
24.016806
 31
0.0
 12
157.335711
 22
23.416901
 32
0.0
 13
157.335711
 23
23.416901
 33
0.0
  0
SOLID
  5
346
100
AcDbEntity
  8
0
  6
Continuous
 62
     0
100
AcDbTrace
 10
138.585706
 20
23.416901
 30
0.0
 11
142.085718
 21
24.016806
 31
0.0
 12
138.585706
 22
24.616711
 32
0.0
 13
138.585706
 23
24.616711
 33
0.0
  0
ENDBLK
  5
347
100
AcDbEntity
  8
0
100
AcDbBlockEnd
  0
BLOCK
  5
34A
100
AcDbEntity
  8
0
100
AcDbBlockBegin
  2
*B13
 70
     0
 10
0.0
 20
0.0
 30
0.0
  3
*B13
  1

  0
LINE
  5
34B
100
AcDbEntity
  8
0
  6
Continuous
 62
     0
100
AcDbLine
 10
146.710765
 20
155.00938
 30
0.0
 11
116.784129
 21
155.00938
 31
0.0
  0
SOLID
  5
34C
100
AcDbEntity
  8
0
  6
Continuous
 62
     0
100
AcDbTrace
 10
143.210752
 20
155.609498
 30
0.0
 11
139.71074
 21
155.00938
 31
0.0
 12
143.210752
 22
154.409475
 32
0.0
 13
143.210752
 23
154.409475
 33
0.0
  0
SOLID
  5
34D
100
AcDbEntity
  8
0
  6
Continuous
 62
     0
100
AcDbTrace
 10
130.710678
 20
154.409475
 30
0.0
 11
134.21069
 21
155.00938
 31
0.0
 12
130.710678
 22
155.609498
 32
0.0
 13
130.710678
 23
155.609498
 33
0.0
  0
ENDBLK
  5
34E
100
AcDbEntity
  8
0
100
AcDbBlockEnd
  0
BLOCK
  5
351
100
AcDbEntity
  8
0
100
AcDbBlockBegin
  2
*B14
 70
     0
 10
0.0
 20
0.0
 30
0.0
  3
*B14
  1

  0
LINE
  5
352
100
AcDbEntity
  8
0
  6
Continuous
 62
     0
100
AcDbLine
 10
186.018139
 20
137.882134
 30
0.0
 11
186.018139
 21
112.883472
 31
0.0
  0
SOLID
  5
353
100
AcDbEntity
  8
0
  6
Continuous
 62
     0
100
AcDbTrace
 10
186.618044
 20
134.382334
 30
0.0
 11
186.018139
 21
137.882134
 31
0.0
 12
185.418021
 22
134.382334
 32
0.0
 13
185.418021
 23
134.382334
 33
0.0
  0
SOLID
  5
354
100
AcDbEntity
  8
0
  6
Continuous
 62
     0
100
AcDbTrace
 10
185.418021
 20
116.383272
 30
0.0
 11
186.018139
 21
112.883472
 31
0.0
 12
186.618044
 22
116.383272
 32
0.0
 13
186.618044
 23
116.383272
 33
0.0
  0
ENDBLK
  5
355
100
AcDbEntity
  8
0
100
AcDbBlockEnd
  0
BLOCK
  5
358
100
AcDbEntity
  8
0
100
AcDbBlockBegin
  2
*B15
 70
     0
 10
0.0
 20
0.0
 30
0.0
  3
*B15
  1

  0
LINE
  5
359
100
AcDbEntity
  8
0
  6
Continuous
 62
     0
100
AcDbLine
 10
237.018137
 20
105.384022
 30
0.0
 11
237.018137
 21
145.381797
 31
0.0
  0
SOLID
  5
35A
100
AcDbEntity
  8
0
  6
Continuous
 62
     0
100
AcDbTrace
 10
236.41802
 20
108.883822
 30
0.0
 11
237.018137
 21
105.384022
 31
0.0
 12
237.618042
 22
108.883822
 32
0.0
 13
237.618042
 23
108.883822
 33
0.0
  0
SOLID
  5
35B
100
AcDbEntity
  8
0
  6
Continuous
 62
     0
100
AcDbTrace
 10
237.618042
 20
141.881997
 30
0.0
 11
237.018137
 21
145.381797
 31
0.0
 12
236.41802
 22
141.881997
 32
0.0
 13
236.41802
 23
141.881997
 33
0.0
  0
ENDBLK
  5
35C
100
AcDbEntity
  8
0
100
AcDbBlockEnd
  0
BLOCK
  5
35F
100
AcDbEntity
  8
0
100
AcDbBlockBegin
  2
*B16
 70
     0
 10
0.0
 20
0.0
 30
0.0
  3
*B16
  1

  0
LINE
  5
360
100
AcDbEntity
  8
0
  6
Continuous
 62
     0
100
AcDbLine
 10
102.960822
 20
81.013518
 30
0.0
 11
192.960595
 21
81.013518
 31
0.0
  0
SOLID
  5
361
100
AcDbEntity
  8
0
  6
Continuous
 62
     0
100
AcDbTrace
 10
106.460622
 20
81.613636
 30
0.0
 11
102.960822
 21
81.013518
 31
0.0
 12
106.460622
 22
80.413613
 32
0.0
 13
106.460622
 23
80.413613
 33
0.0
  0
SOLID
  5
362
100
AcDbEntity
  8
0
  6
Continuous
 62
     0
100
AcDbTrace
 10
189.460582
 20
80.413613
 30
0.0
 11
192.960595
 21
81.013518
 31
0.0
 12
189.460582
 22
81.613636
 32
0.0
 13
189.460582
 23
81.613636
 33
0.0
  0
ENDBLK
  5
363
100
AcDbEntity
  8
0
100
AcDbBlockEnd
  0
BLOCK
  5
366
100
AcDbEntity
  8
0
100
AcDbBlockBegin
  2
*B17
 70
     0
 10
0.0
 20
0.0
 30
0.0
  3
*B17
  1

  0
LINE
  5
367
100
AcDbEntity
  8
0
  6
Continuous
 62
     0
100
AcDbLine
 10
241.960556
 20
180.008042
 30
0.0
 11
193.460657
 21
180.008042
 31
0.0
  0
SOLID
  5
368
100
AcDbEntity
  8
0
  6
Continuous
 62
     0
100
AcDbTrace
 10
238.460544
 20
179.408137
 30
0.0
 11
241.960556
 21
180.008042
 31
0.0
 12
238.460544
 22
180.607947
 32
0.0
 13
238.460544
 23
180.607947
 33
0.0
  0
SOLID
  5
369
100
AcDbEntity
  8
0
  6
Continuous
 62
     0
100
AcDbTrace
 10
196.96067
 20
180.607947
 30
0.0
 11
193.460657
 21
180.008042
 31
0.0
 12
196.96067
 22
179.408137
 32
0.0
 13
196.96067
 23
179.408137
 33
0.0
  0
ENDBLK
  5
36A
100
AcDbEntity
  8
0
100
AcDbBlockEnd
  0
BLOCK
  5
36D
100
AcDbEntity
  8
0
100
AcDbBlockBegin
  2
*B18
 70
     0
 10
0.0
 20
0.0
 30
0.0
  3
*B18
  1

  0
LINE
  5
36E
100
AcDbEntity
  8
0
  6
Continuous
 62
     0
100
AcDbLine
 10
102.46076
 20
181.007955
 30
0.0
 11
53.960649
 21
181.007955
 31
0.0
  0
SOLID
  5
36F
100
AcDbEntity
  8
0
  6
Continuous
 62
     0
100
AcDbTrace
 10
98.960747
 20
180.40805
 30
0.0
 11
102.46076
 21
181.007955
 31
0.0
 12
98.960747
 22
181.60786
 32
0.0
 13
98.960747
 23
181.60786
 33
0.0
  0
SOLID
  5
370
100
AcDbEntity
  8
0
  6
Continuous
 62
     0
100
AcDbTrace
 10
57.460661
 20
181.60786
 30
0.0
 11
53.960649
 21
181.007955
 31
0.0
 12
57.460661
 22
180.40805
 32
0.0
 13
57.460661
 23
180.40805
 33
0.0
  0
ENDBLK
  5
371
100
AcDbEntity
  8
0
100
AcDbBlockEnd
  0
BLOCK
  5
374
100
AcDbEntity
  8
0
100
AcDbBlockBegin
  2
*B19
 70
     0
 10
0.0
 20
0.0
 30
0.0
  3
*B19
  1

  0
LINE
  5
375
100
AcDbEntity
  8
0
  6
Continuous
 62
     0
100
AcDbLine
 10
123.960684
 20
92.513043
 30
0.0
 11
136.960609
 21
92.513043
 31
0.0
  0
SOLID
  5
376
100
AcDbEntity
  8
0
  6
Continuous
 62
     0
100
AcDbTrace
 10
127.460697
 20
93.112948
 30
0.0
 11
123.960684
 21
92.513043
 31
0.0
 12
127.460697
 22
91.912926
 32
0.0
 13
127.460697
 23
91.912926
 33
0.0
  0
SOLID
  5
377
100
AcDbEntity
  8
0
  6
Continuous
 62
     0
100
AcDbTrace
 10
133.460809
 20
91.912926
 30
0.0
 11
136.960609
 21
92.513043
 31
0.0
 12
133.460809
 22
93.112948
 32
0.0
 13
133.460809
 23
93.112948
 33
0.0
  0
ENDBLK
  5
378
100
AcDbEntity
  8
0
100
AcDbBlockEnd
  0
BLOCK
  5
37B
100
AcDbEntity
  8
0
100
AcDbBlockBegin
  2
*B20
 70
     0
 10
0.0
 20
0.0
 30
0.0
  3
*B20
  1

  0
LINE
  5
37C
100
AcDbEntity
  8
0
  6
Continuous
 62
     0
100
AcDbLine
 10
157.960683
 20
69.014356
 30
0.0
 11
178.960758
 21
69.014356
 31
0.0
  0
SOLID
  5
37D
100
AcDbEntity
  8
0
  6
Continuous
 62
     0
100
AcDbTrace
 10
161.460696
 20
68.414238
 30
0.0
 11
164.960708
 21
69.014356
 31
0.0
 12
161.460696
 22
69.614261
 32
0.0
 13
161.460696
 23
69.614261
 33
0.0
  0
SOLID
  5
37E
100
AcDbEntity
  8
0
  6
Continuous
 62
     0
100
AcDbTrace
 10
175.460745
 20
69.614261
 30
0.0
 11
171.960733
 21
69.014356
 31
0.0
 12
175.460745
 22
68.414238
 32
0.0
 13
175.460745
 23
68.414238
 33
0.0
  0
ENDBLK
  5
37F
100
AcDbEntity
  8
0
100
AcDbBlockEnd
  0
BLOCK
  5
382
100
AcDbEntity
  8
0
100
AcDbBlockBegin
  2
*B21
 70
     0
 10
0.0
 20
0.0
 30
0.0
  3
*B21
  1

  0
LINE
  5
383
100
AcDbEntity
  8
0
  6
Continuous
 62
     0
100
AcDbLine
 10
46.018068
 20
59.122933
 30
0.0
 11
46.018068
 21
37.124221
 31
0.0
  0
SOLID
  5
384
100
AcDbEntity
  8
0
  6
Continuous
 62
     0
100
AcDbTrace
 10
46.618185
 20
55.623133
 30
0.0
 11
46.018068
 21
59.122933
 31
0.0
 12
45.418163
 22
55.623133
 32
0.0
 13
45.418163
 23
55.623133
 33
0.0
  0
SOLID
  5
385
100
AcDbEntity
  8
0
  6
Continuous
 62
     0
100
AcDbTrace
 10
45.418163
 20
40.624021
 30
0.0
 11
46.018068
 21
37.124221
 31
0.0
 12
46.618185
 22
40.624021
 32
0.0
 13
46.618185
 23
40.624021
 33
0.0
  0
ENDBLK
  5
386
100
AcDbEntity
  8
0
100
AcDbBlockEnd
  0
BLOCK
  5
389
100
AcDbEntity
  8
0
100
AcDbBlockBegin
  2
*B22
 70
     0
 10
0.0
 20
0.0
 30
0.0
  3
*B22
  1

  0
LINE
  5
38A
100
AcDbEntity
  8
0
  6
Continuous
 62
     0
100
AcDbLine
 10
45.018155
 20
172.379647
 30
0.0
 11
45.018155
 21
105.384022
 31
0.0
  0
SOLID
  5
38B
100
AcDbEntity
  8
0
  6
Continuous
 62
     0
100
AcDbTrace
 10
45.618273
 20
168.879847
 30
0.0
 11
45.018155
 21
172.379647
 31
0.0
 12
44.41825
 22
168.879847
 32
0.0
 13
44.41825
 23
168.879847
 33
0.0
  0
SOLID
  5
38C
100
AcDbEntity
  8
0
  6
Continuous
 62
     0
100
AcDbTrace
 10
44.41825
 20
108.883822
 30
0.0
 11
45.018155
 21
105.384022
 31
0.0
 12
45.618273
 22
108.883822
 32
0.0
 13
45.618273
 23
108.883822
 33
0.0
  0
ENDBLK
  5
38D
100
AcDbEntity
  8
0
100
AcDbBlockEnd
  0
BLOCK
  5
390
100
AcDbEntity
  8
0
100
AcDbBlockBegin
  2
*B23
 70
     0
 10
0.0
 20
0.0
 30
0.0
  3
*B23
  1

  0
LINE
  5
391
100
AcDbEntity
  8
0
  6
Continuous
 62
     0
100
AcDbLine
 10
130.960709
 20
69.014356
 30
0.0
 11
164.960708
 21
69.014356
 31
0.0
  0
SOLID
  5
392
100
AcDbEntity
  8
0
  6
Continuous
 62
     0
100
AcDbTrace
 10
134.460721
 20
69.614261
 30
0.0
 11
130.960709
 21
69.014356
 31
0.0
 12
134.460721
 22
68.414238
 32
0.0
 13
134.460721
 23
68.414238
 33
0.0
  0
SOLID
  5
393
100
AcDbEntity
  8
0
  6
Continuous
 62
     0
100
AcDbTrace
 10
161.460696
 20
68.414238
 30
0.0
 11
164.960708
 21
69.014356
 31
0.0
 12
161.460696
 22
69.614261
 32
0.0
 13
161.460696
 23
69.614261
 33
0.0
  0
ENDBLK
  5
394
100
AcDbEntity
  8
0
100
AcDbBlockEnd
  0
BLOCK
  5
397
100
AcDbEntity
  8
0
100
AcDbBlockBegin
  2
*B24
 70
     0
 10
0.0
 20
0.0
 30
0.0
  3
*B24
  1

  0
LINE
  5
398
100
AcDbEntity
  8
0
  6
Continuous
 62
     0
100
AcDbLine
 10
139.018215
 20
63.372827
 30
0.0
 11
139.018215
 21
32.87454
 31
0.0
  0
SOLID
  5
399
100
AcDbEntity
  8
0
  6
Continuous
 62
     0
100
AcDbTrace
 10
138.418098
 20
59.873027
 30
0.0
 11
139.018215
 21
56.373227
 31
0.0
 12
139.61812
 22
59.873027
 32
0.0
 13
139.61812
 23
59.873027
 33
0.0
  0
SOLID
  5
39A
100
AcDbEntity
  8
0
  6
Continuous
 62
     0
100
AcDbTrace
 10
139.61812
 20
36.37434
 30
0.0
 11
139.018215
 21
39.87414
 31
0.0
 12
138.418098
 22
36.37434
 32
0.0
 13
138.418098
 23
36.37434
 33
0.0
  0
ENDBLK
  5
39B
100
AcDbEntity
  8
0
100
AcDbBlockEnd
  0
BLOCK
  5
39E
100
AcDbEntity
  8
0
100
AcDbBlockBegin
  2
*B25
 70
     0
 10
0.0
 20
0.0
 30
0.0
  3
*B25
  1

  0
LINE
  5
39F
100
AcDbEntity
  8
0
  6
Continuous
 62
     8
100
AcDbLine
 10
137.018178
 20
56.373227
 30
0.0
 11
141.01804
 21
56.373227
 31
0.0
  0
LINE
  5
3A0
100
AcDbEntity
  8
0
  6
Continuous
 62
     8
100
AcDbLine
 10
126.310808
 20
56.373227
 30
0.0
 11
129.460734
 21
56.373227
 31
0.0
  0
LINE
  5
3A1
100
AcDbEntity
  8
0
  6
Continuous
 62
     8
100
AcDbLine
 10
132.460684
 20
56.373227
 30
0.0
 11
137.018178
 21
56.373227
 31
0.0
  0
ENDBLK
  5
3A2
100
AcDbEntity
  8
0
100
AcDbBlockEnd
  0
BLOCK
  5
3A5
100
AcDbEntity
  8
0
100
AcDbBlockBegin
  2
*B26
 70
     0
 10
0.0
 20
0.0
 30
0.0
  3
*B26
  1

  0
LINE
  5
3A6
100
AcDbEntity
  8
0
  6
Continuous
 62
     8
100
AcDbLine
 10
184.018101
 20
137.882134
 30
0.0
 11
188.018176
 21
137.882134
 31
0.0
  0
LINE
  5
3A7
100
AcDbEntity
  8
0
  6
Continuous
 62
     8
100
AcDbLine
 10
153.210727
 20
137.882134
 30
0.0
 11
157.460621
 21
137.882134
 31
0.0
  0
LINE
  5
3A8
100
AcDbEntity
  8
0
  6
Continuous
 62
     8
100
AcDbLine
 10
160.460783
 20
137.882134
 30
0.0
 11
166.313256
 21
137.882134
 31
0.0
  0
LINE
  5
3A9
100
AcDbEntity
  8
0
  6
Continuous
 62
     8
100
AcDbLine
 10
167.313169
 20
137.882134
 30
0.0
 11
168.313081
 21
137.882134
 31
0.0
  0
LINE
  5
3AA
100
AcDbEntity
  8
0
  6
Continuous
 62
     8
100
AcDbLine
 10
169.313206
 20
137.882134
 30
0.0
 11
175.165679
 21
137.882134
 31
0.0
  0
LINE
  5
3AB
100
AcDbEntity
  8
0
  6
Continuous
 62
     8
100
AcDbLine
 10
176.165591
 20
137.882134
 30
0.0
 11
177.165716
 21
137.882134
 31
0.0
  0
LINE
  5
3AC
100
AcDbEntity
  8
0
  6
Continuous
 62
     8
100
AcDbLine
 10
178.165629
 20
137.882134
 30
0.0
 11
184.018101
 21
137.882134
 31
0.0
  0
ENDBLK
  5
3AD
100
AcDbEntity
  8
0
100
AcDbBlockEnd
  0
BLOCK
  5
3B0
100
AcDbEntity
  8
0
100
AcDbBlockBegin
  2
*B27
 70
     0
 10
0.0
 20
0.0
 30
0.0
  3
*B27
  1

  0
LINE
  5
3B1
100
AcDbEntity
  8
0
  6
Continuous
 62
     8
100
AcDbLine
 10
131.21074
 20
137.882134
 30
0.0
 11
135.460634
 21
137.882134
 31
0.0
  0
LINE
  5
3B2
100
AcDbEntity
  8
0
  6
Continuous
 62
     8
100
AcDbLine
 10
138.460796
 20
137.882134
 30
0.0
 11
142.71069
 21
137.882134
 31
0.0
  0
ENDBLK
  5
3B3
100
AcDbEntity
  8
0
100
AcDbBlockEnd
  0
BLOCK
  5
3B6
100
AcDbEntity
  8
0
100
AcDbBlockBegin
  2
*B28
 70
     0
 10
0.0
 20
0.0
 30
0.0
  3
*B28
  1

  0
LINE
  5
3B7
100
AcDbEntity
  8
0
  6
Continuous
 62
     8
100
AcDbLine
 10
53.960649
 20
172.179537
 30
0.0
 11
53.960649
 21
183.00778
 31
0.0
  0
ENDBLK
  5
3B8
100
AcDbEntity
  8
0
100
AcDbBlockEnd
  0
BLOCK
  5
3BB
100
AcDbEntity
  8
0
100
AcDbBlockBegin
  2
*B29
 70
     0
 10
0.0
 20
0.0
 30
0.0
  3
*B29
  1

  0
LINE
  5
3BC
100
AcDbEntity
  8
0
  6
Continuous
 62
     8
100
AcDbLine
 10
139.71074
 20
138.882047
 30
0.0
 11
139.71074
 21
157.009418
 31
0.0
  0
ENDBLK
  5
3BD
100
AcDbEntity
  8
0
100
AcDbBlockEnd
  0
BLOCK
  5
3C0
100
AcDbEntity
  8
0
100
AcDbBlockBegin
  2
*B30
 70
     0
 10
0.0
 20
0.0
 30
0.0
  3
*B30
  1

  0
LINE
  5
3C1
100
AcDbEntity
  8
0
  6
Continuous
 62
     8
100
AcDbLine
 10
164.960708
 20
67.014318
 30
0.0
 11
164.960708
 21
71.014181
 31
0.0
  0
LINE
  5
3C2
100
AcDbEntity
  8
0
  6
Continuous
 62
     8
100
AcDbLine
 10
164.960708
 20
35.224239
 30
0.0
 11
164.960708
 21
38.374165
 31
0.0
  0
LINE
  5
3C3
100
AcDbEntity
  8
0
  6
Continuous
 62
     8
100
AcDbLine
 10
164.960708
 20
41.373902
 30
0.0
 11
164.960708
 21
47.920812
 31
0.0
  0
LINE
  5
3C4
100
AcDbEntity
  8
0
  6
Continuous
 62
     8
100
AcDbLine
 10
164.960708
 20
48.920937
 30
0.0
 11
164.960708
 21
49.920849
 31
0.0
  0
LINE
  5
3C5
100
AcDbEntity
  8
0
  6
Continuous
 62
     8
100
AcDbLine
 10
164.960708
 20
50.920762
 30
0.0
 11
164.960708
 21
57.467671
 31
0.0
  0
LINE
  5
3C6
100
AcDbEntity
  8
0
  6
Continuous
 62
     8
100
AcDbLine
 10
164.960708
 20
58.467584
 30
0.0
 11
164.960708
 21
59.467496
 31
0.0
  0
LINE
  5
3C7
100
AcDbEntity
  8
0
  6
Continuous
 62
     8
100
AcDbLine
 10
164.960708
 20
60.467409
 30
0.0
 11
164.960708
 21
67.014318
 31
0.0
  0
ENDBLK
  5
3C8
100
AcDbEntity
  8
0
100
AcDbBlockEnd
  0
BLOCK
  5
3CB
100
AcDbEntity
  8
0
100
AcDbBlockBegin
  2
*B31
 70
     0
 10
0.0
 20
0.0
 30
0.0
  3
*B31
  1

  0
LINE
  5
3CC
100
AcDbEntity
  8
0
  6
Continuous
 62
     8
100
AcDbLine
 10
164.960708
 20
102.384072
 30
0.0
 11
164.960708
 21
107.550606
 31
0.0
  0
LINE
  5
3CD
100
AcDbEntity
  8
0
  6
Continuous
 62
     8
100
AcDbLine
 10
164.960708
 20
108.550518
 30
0.0
 11
164.960708
 21
109.550431
 31
0.0
  0
LINE
  5
3CE
100
AcDbEntity
  8
0
  6
Continuous
 62
     8
100
AcDbLine
 10
164.960708
 20
110.550343
 30
0.0
 11
164.960708
 21
115.716664
 31
0.0
  0
LINE
  5
3CF
100
AcDbEntity
  8
0
  6
Continuous
 62
     8
100
AcDbLine
 10
164.960708
 20
116.716576
 30
0.0
 11
164.960708
 21
117.716701
 31
0.0
  0
LINE
  5
3D0
100
AcDbEntity
  8
0
  6
Continuous
 62
     8
100
AcDbLine
 10
164.960708
 20
118.716614
 30
0.0
 11
164.960708
 21
123.882935
 31
0.0
  0
LINE
  5
3D1
100
AcDbEntity
  8
0
  6
Continuous
 62
     8
100
AcDbLine
 10
164.960708
 20
124.882847
 30
0.0
 11
164.960708
 21
125.88276
 31
0.0
  0
LINE
  5
3D2
100
AcDbEntity
  8
0
  6
Continuous
 62
     8
100
AcDbLine
 10
164.960708
 20
126.882672
 30
0.0
 11
164.960708
 21
132.049205
 31
0.0
  0
LINE
  5
3D3
100
AcDbEntity
  8
0
  6
Continuous
 62
     8
100
AcDbLine
 10
164.960708
 20
133.049118
 30
0.0
 11
164.960708
 21
134.04903
 31
0.0
  0
LINE
  5
3D4
100
AcDbEntity
  8
0
  6
Continuous
 62
     8
100
AcDbLine
 10
164.960708
 20
135.048943
 30
0.0
 11
164.960708
 21
140.215264
 31
0.0
  0
LINE
  5
3D5
100
AcDbEntity
  8
0
  6
Continuous
 62
     8
100
AcDbLine
 10
164.960708
 20
141.215176
 30
0.0
 11
164.960708
 21
142.215301
 31
0.0
  0
LINE
  5
3D6
100
AcDbEntity
  8
0
  6
Continuous
 62
     8
100
AcDbLine
 10
164.960708
 20
143.215214
 30
0.0
 11
164.960708
 21
148.381534
 31
0.0
  0
ENDBLK
  5
3D7
100
AcDbEntity
  8
0
100
AcDbBlockEnd
  0
BLOCK
  5
3DA
100
AcDbEntity
  8
0
100
AcDbBlockBegin
  2
*B32
 70
     0
 10
0.0
 20
0.0
 30
0.0
  3
*B32
  1

  0
LINE
  5
3DB
100
AcDbEntity
  8
0
  6
Continuous
 62
     8
100
AcDbLine
 10
113.96071
 20
42.123996
 30
0.0
 11
113.96071
 21
46.623708
 31
0.0
  0
LINE
  5
3DC
100
AcDbEntity
  8
0
  6
Continuous
 62
     8
100
AcDbLine
 10
113.96071
 20
49.623446
 30
0.0
 11
113.96071
 21
54.123371
 31
0.0
  0
ENDBLK
  5
3DD
100
AcDbEntity
  8
0
100
AcDbBlockEnd
  0
BLOCK
  5
3E0
100
AcDbEntity
  8
0
100
AcDbBlockBegin
  2
*B33
 70
     0
 10
0.0
 20
0.0
 30
0.0
  3
*B33
  1

  0
LINE
  5
3E1
100
AcDbEntity
  8
0
  6
Continuous
 62
     8
100
AcDbLine
 10
123.960684
 20
90.513006
 30
0.0
 11
123.960684
 21
104.38411
 31
0.0
  0
ENDBLK
  5
3E2
100
AcDbEntity
  8
0
100
AcDbBlockEnd
  0
BLOCK
  5
3E5
100
AcDbEntity
  8
0
100
AcDbBlockBegin
  2
*B34
 70
     0
 10
0.0
 20
0.0
 30
0.0
  3
*B34
  1

  0
LINE
  5
3E6
100
AcDbEntity
  8
0
  6
Continuous
 62
     8
100
AcDbLine
 10
87.603976
 20
41.831266
 30
0.0
 11
87.603976
 21
46.730986
 31
0.0
  0
LINE
  5
3E7
100
AcDbEntity
  8
0
  6
Continuous
 62
     8
100
AcDbLine
 10
87.603976
 20
49.730724
 30
0.0
 11
87.603976
 21
54.630444
 31
0.0
  0
ENDBLK
  5
3E8
100
AcDbEntity
  8
0
100
AcDbBlockEnd
  0
BLOCK
  5
3EB
100
AcDbEntity
  8
0
100
AcDbBlockBegin
  2
*B35
 70
     0
 10
0.0
 20
0.0
 30
0.0
  3
*B35
  1

  0
LINE
  5
3EC
100
AcDbEntity
  8
0
  6
Continuous
 62
     8
100
AcDbLine
 10
102.960822
 20
79.013693
 30
0.0
 11
102.960822
 21
106.383935
 31
0.0
  0
ENDBLK
  5
3ED
100
AcDbEntity
  8
0
100
AcDbBlockEnd
  0
BLOCK
  5
3F0
100
AcDbEntity
  8
0
100
AcDbBlockBegin
  2
*B36
 70
     0
 10
0.0
 20
0.0
 30
0.0
  3
*B36
  1

  0
LINE
  5
3F1
100
AcDbEntity
  8
0
  6
Continuous
 62
     8
100
AcDbLine
 10
193.460657
 20
169.380334
 30
0.0
 11
193.460657
 21
182.007867
 31
0.0
  0
ENDBLK
  5
3F2
100
AcDbEntity
  8
0
100
AcDbBlockEnd
  0
BLOCK
  5
3F5
100
AcDbEntity
  8
0
100
AcDbBlockBegin
  2
*B37
 70
     0
 10
0.0
 20
0.0
 30
0.0
  3
*B37
  1

  0
LINE
  5
3F6
100
AcDbEntity
  8
0
  6
Continuous
 62
     8
100
AcDbLine
 10
62.260751
 20
125.38291
 30
0.0
 11
67.565577
 21
125.38291
 31
0.0
  0
LINE
  5
3F7
100
AcDbEntity
  8
0
  6
Continuous
 62
     8
100
AcDbLine
 10
68.565489
 20
125.38291
 30
0.0
 11
69.565402
 21
125.38291
 31
0.0
  0
LINE
  5
3F8
100
AcDbEntity
  8
0
  6
Continuous
 62
     8
100
AcDbLine
 10
70.565527
 20
125.38291
 30
0.0
 11
75.870353
 21
125.38291
 31
0.0
  0
LINE
  5
3F9
100
AcDbEntity
  8
0
  6
Continuous
 62
     8
100
AcDbLine
 10
76.870265
 20
125.38291
 30
0.0
 11
77.870178
 21
125.38291
 31
0.0
  0
LINE
  5
3FA
100
AcDbEntity
  8
0
  6
Continuous
 62
     8
100
AcDbLine
 10
78.870302
 20
125.38291
 30
0.0
 11
84.174916
 21
125.38291
 31
0.0
  0
LINE
  5
3FB
100
AcDbEntity
  8
0
  6
Continuous
 62
     8
100
AcDbLine
 10
85.175041
 20
125.38291
 30
0.0
 11
86.174953
 21
125.38291
 31
0.0
  0
LINE
  5
3FC
100
AcDbEntity
  8
0
  6
Continuous
 62
     8
100
AcDbLine
 10
87.175078
 20
125.38291
 30
0.0
 11
92.479692
 21
125.38291
 31
0.0
  0
LINE
  5
3FD
100
AcDbEntity
  8
0
  6
Continuous
 62
     8
100
AcDbLine
 10
93.479816
 20
125.38291
 30
0.0
 11
94.479729
 21
125.38291
 31
0.0
  0
LINE
  5
3FE
100
AcDbEntity
  8
0
  6
Continuous
 62
     8
100
AcDbLine
 10
95.479854
 20
125.38291
 30
0.0
 11
100.784467
 21
125.38291
 31
0.0
  0
LINE
  5
3FF
100
AcDbEntity
  8
0
  6
Continuous
 62
     8
100
AcDbLine
 10
101.784592
 20
125.38291
 30
0.0
 11
102.784505
 21
125.38291
 31
0.0
  0
LINE
  5
400
100
AcDbEntity
  8
0
  6
Continuous
 62
     8
100
AcDbLine
 10
103.78463
 20
125.38291
 30
0.0
 11
109.089243
 21
125.38291
 31
0.0
  0
LINE
  5
401
100
AcDbEntity
  8
0
  6
Continuous
 62
     8
100
AcDbLine
 10
110.089368
 20
125.38291
 30
0.0
 11
111.08928
 21
125.38291
 31
0.0
  0
LINE
  5
402
100
AcDbEntity
  8
0
  6
Continuous
 62
     8
100
AcDbLine
 10
112.089193
 20
125.38291
 30
0.0
 11
117.394019
 21
125.38291
 31
0.0
  0
LINE
  5
403
100
AcDbEntity
  8
0
  6
Continuous
 62
     8
100
AcDbLine
 10
118.394144
 20
125.38291
 30
0.0
 11
119.394056
 21
125.38291
 31
0.0
  0
LINE
  5
404
100
AcDbEntity
  8
0
  6
Continuous
 62
     8
100
AcDbLine
 10
120.393969
 20
125.38291
 30
0.0
 11
125.698794
 21
125.38291
 31
0.0
  0
LINE
  5
405
100
AcDbEntity
  8
0
  6
Continuous
 62
     8
100
AcDbLine
 10
126.698707
 20
125.38291
 30
0.0
 11
127.698832
 21
125.38291
 31
0.0
  0
LINE
  5
406
100
AcDbEntity
  8
0
  6
Continuous
 62
     8
100
AcDbLine
 10
128.698744
 20
125.38291
 30
0.0
 11
134.00357
 21
125.38291
 31
0.0
  0
LINE
  5
407
100
AcDbEntity
  8
0
  6
Continuous
 62
     8
100
AcDbLine
 10
135.003483
 20
125.38291
 30
0.0
 11
136.003608
 21
125.38291
 31
0.0
  0
LINE
  5
408
100
AcDbEntity
  8
0
  6
Continuous
 62
     8
100
AcDbLine
 10
137.00352
 20
125.38291
 30
0.0
 11
142.308346
 21
125.38291
 31
0.0
  0
LINE
  5
409
100
AcDbEntity
  8
0
  6
Continuous
 62
     8
100
AcDbLine
 10
143.308258
 20
125.38291
 30
0.0
 11
144.308383
 21
125.38291
 31
0.0
  0
LINE
  5
40A
100
AcDbEntity
  8
0
  6
Continuous
 62
     8
100
AcDbLine
 10
145.308296
 20
125.38291
 30
0.0
 11
150.613122
 21
125.38291
 31
0.0
  0
LINE
  5
40B
100
AcDbEntity
  8
0
  6
Continuous
 62
     8
100
AcDbLine
 10
151.613034
 20
125.38291
 30
0.0
 11
152.613159
 21
125.38291
 31
0.0
  0
LINE
  5
40C
100
AcDbEntity
  8
0
  6
Continuous
 62
     8
100
AcDbLine
 10
153.613071
 20
125.38291
 30
0.0
 11
158.917897
 21
125.38291
 31
0.0
  0
LINE
  5
40D
100
AcDbEntity
  8
0
  6
Continuous
 62
     8
100
AcDbLine
 10
159.91781
 20
125.38291
 30
0.0
 11
160.917935
 21
125.38291
 31
0.0
  0
LINE
  5
40E
100
AcDbEntity
  8
0
  6
Continuous
 62
     8
100
AcDbLine
 10
161.917847
 20
125.38291
 30
0.0
 11
167.222673
 21
125.38291
 31
0.0
  0
LINE
  5
40F
100
AcDbEntity
  8
0
  6
Continuous
 62
     8
100
AcDbLine
 10
168.222585
 20
125.38291
 30
0.0
 11
169.22271
 21
125.38291
 31
0.0
  0
LINE
  5
410
100
AcDbEntity
  8
0
  6
Continuous
 62
     8
100
AcDbLine
 10
170.222623
 20
125.38291
 30
0.0
 11
175.527449
 21
125.38291
 31
0.0
  0
LINE
  5
411
100
AcDbEntity
  8
0
  6
Continuous
 62
     8
100
AcDbLine
 10
176.527361
 20
125.38291
 30
0.0
 11
177.527274
 21
125.38291
 31
0.0
  0
LINE
  5
412
100
AcDbEntity
  8
0
  6
Continuous
 62
     8
100
AcDbLine
 10
178.527399
 20
125.38291
 30
0.0
 11
183.832012
 21
125.38291
 31
0.0
  0
LINE
  5
413
100
AcDbEntity
  8
0
  6
Continuous
 62
     8
100
AcDbLine
 10
184.832137
 20
125.38291
 30
0.0
 11
185.832049
 21
125.38291
 31
0.0
  0
LINE
  5
414
100
AcDbEntity
  8
0
  6
Continuous
 62
     8
100
AcDbLine
 10
186.832174
 20
125.38291
 30
0.0
 11
192.136788
 21
125.38291
 31
0.0
  0
LINE
  5
415
100
AcDbEntity
  8
0
  6
Continuous
 62
     8
100
AcDbLine
 10
193.136913
 20
125.38291
 30
0.0
 11
194.136825
 21
125.38291
 31
0.0
  0
LINE
  5
416
100
AcDbEntity
  8
0
  6
Continuous
 62
     8
100
AcDbLine
 10
195.13695
 20
125.38291
 30
0.0
 11
200.441563
 21
125.38291
 31
0.0
  0
LINE
  5
417
100
AcDbEntity
  8
0
  6
Continuous
 62
     8
100
AcDbLine
 10
201.441688
 20
125.38291
 30
0.0
 11
202.441601
 21
125.38291
 31
0.0
  0
LINE
  5
418
100
AcDbEntity
  8
0
  6
Continuous
 62
     8
100
AcDbLine
 10
203.441726
 20
125.38291
 30
0.0
 11
208.746339
 21
125.38291
 31
0.0
  0
LINE
  5
419
100
AcDbEntity
  8
0
  6
Continuous
 62
     8
100
AcDbLine
 10
209.746464
 20
125.38291
 30
0.0
 11
210.746377
 21
125.38291
 31
0.0
  0
LINE
  5
41A
100
AcDbEntity
  8
0
  6
Continuous
 62
     8
100
AcDbLine
 10
211.746289
 20
125.38291
 30
0.0
 11
217.051115
 21
125.38291
 31
0.0
  0
LINE
  5
41B
100
AcDbEntity
  8
0
  6
Continuous
 62
     8
100
AcDbLine
 10
218.05124
 20
125.38291
 30
0.0
 11
219.051152
 21
125.38291
 31
0.0
  0
LINE
  5
41C
100
AcDbEntity
  8
0
  6
Continuous
 62
     8
100
AcDbLine
 10
220.051065
 20
125.38291
 30
0.0
 11
225.355891
 21
125.38291
 31
0.0
  0
LINE
  5
41D
100
AcDbEntity
  8
0
  6
Continuous
 62
     8
100
AcDbLine
 10
226.355803
 20
125.38291
 30
0.0
 11
227.355928
 21
125.38291
 31
0.0
  0
LINE
  5
41E
100
AcDbEntity
  8
0
  6
Continuous
 62
     8
100
AcDbLine
 10
228.35584
 20
125.38291
 30
0.0
 11
233.660666
 21
125.38291
 31
0.0
  0
ENDBLK
  5
41F
100
AcDbEntity
  8
0
100
AcDbBlockEnd
  0
BLOCK
  5
422
100
AcDbEntity
  8
0
100
AcDbBlockBegin
  2
*B38
 70
     0
 10
0.0
 20
0.0
 30
0.0
  3
*B38
  1

  0
LINE
  5
423
100
AcDbEntity
  8
0
  6
Continuous
 62
     8
100
AcDbLine
 10
134.21069
 20
138.882047
 30
0.0
 11
134.21069
 21
157.009418
 31
0.0
  0
ENDBLK
  5
424
100
AcDbEntity
  8
0
100
AcDbBlockEnd
  0
BLOCK
  5
427
100
AcDbEntity
  8
0
100
AcDbBlockBegin
  2
*B39
 70
     0
 10
0.0
 20
0.0
 30
0.0
  3
*B39
  1

  0
LINE
  5
428
100
AcDbEntity
  8
0
  6
Continuous
 62
     8
100
AcDbLine
 10
137.018178
 20
39.87414
 30
0.0
 11
141.01804
 21
39.87414
 31
0.0
  0
LINE
  5
429
100
AcDbEntity
  8
0
  6
Continuous
 62
     8
100
AcDbLine
 10
141.01804
 20
39.87414
 30
0.0
 11
146.498971
 21
39.87414
 31
0.0
  0
LINE
  5
42A
100
AcDbEntity
  8
0
  6
Continuous
 62
     8
100
AcDbLine
 10
147.499096
 20
39.87414
 30
0.0
 11
148.499009
 21
39.87414
 31
0.0
  0
LINE
  5
42B
100
AcDbEntity
  8
0
  6
Continuous
 62
     8
100
AcDbLine
 10
149.498921
 20
39.87414
 30
0.0
 11
154.979852
 21
39.87414
 31
0.0
  0
LINE
  5
42C
100
AcDbEntity
  8
0
  6
Continuous
 62
     8
100
AcDbLine
 10
155.979765
 20
39.87414
 30
0.0
 11
156.97989
 21
39.87414
 31
0.0
  0
LINE
  5
42D
100
AcDbEntity
  8
0
  6
Continuous
 62
     8
100
AcDbLine
 10
157.979802
 20
39.87414
 30
0.0
 11
163.460733
 21
39.87414
 31
0.0
  0
LINE
  5
42E
100
AcDbEntity
  8
0
  6
Continuous
 62
     8
100
AcDbLine
 10
166.460683
 20
39.87414
 30
0.0
 11
169.610609
 21
39.87414
 31
0.0
  0
ENDBLK
  5
42F
100
AcDbEntity
  8
0
100
AcDbBlockEnd
  0
BLOCK
  5
432
100
AcDbEntity
  8
0
100
AcDbBlockBegin
  2
*B40
 70
     0
 10
0.0
 20
0.0
 30
0.0
  3
*B40
  1

  0
LINE
  5
433
100
AcDbEntity
  8
0
  6
Continuous
 62
     8
100
AcDbLine
 10
147.960709
 20
153.009555
 30
0.0
 11
147.960709
 21
157.009418
 31
0.0
  0
LINE
  5
434
100
AcDbEntity
  8
0
  6
Continuous
 62
     8
100
AcDbLine
 10
147.960709
 20
107.133816
 30
0.0
 11
147.960709
 21
111.38371
 31
0.0
  0
LINE
  5
435
100
AcDbEntity
  8
0
  6
Continuous
 62
     8
100
AcDbLine
 10
147.960709
 20
114.383447
 30
0.0
 11
147.960709
 21
119.708879
 31
0.0
  0
LINE
  5
436
100
AcDbEntity
  8
0
  6
Continuous
 62
     8
100
AcDbLine
 10
147.960709
 20
120.708791
 30
0.0
 11
147.960709
 21
121.708704
 31
0.0
  0
LINE
  5
437
100
AcDbEntity
  8
0
  6
Continuous
 62
     8
100
AcDbLine
 10
147.960709
 20
122.708616
 30
0.0
 11
147.960709
 21
128.034048
 31
0.0
  0
LINE
  5
438
100
AcDbEntity
  8
0
  6
Continuous
 62
     8
100
AcDbLine
 10
147.960709
 20
129.03396
 30
0.0
 11
147.960709
 21
130.033873
 31
0.0
  0
LINE
  5
439
100
AcDbEntity
  8
0
  6
Continuous
 62
     8
100
AcDbLine
 10
147.960709
 20
131.033785
 30
0.0
 11
147.960709
 21
136.359217
 31
0.0
  0
LINE
  5
43A
100
AcDbEntity
  8
0
  6
Continuous
 62
     8
100
AcDbLine
 10
147.960709
 20
137.359129
 30
0.0
 11
147.960709
 21
138.359042
 31
0.0
  0
LINE
  5
43B
100
AcDbEntity
  8
0
  6
Continuous
 62
     8
100
AcDbLine
 10
147.960709
 20
139.358954
 30
0.0
 11
147.960709
 21
144.684386
 31
0.0
  0
LINE
  5
43C
100
AcDbEntity
  8
0
  6
Continuous
 62
     8
100
AcDbLine
 10
147.960709
 20
145.684299
 30
0.0
 11
147.960709
 21
146.684211
 31
0.0
  0
LINE
  5
43D
100
AcDbEntity
  8
0
  6
Continuous
 62
     8
100
AcDbLine
 10
147.960709
 20
147.684124
 30
0.0
 11
147.960709
 21
153.009555
 31
0.0
  0
ENDBLK
  5
43E
100
AcDbEntity
  8
0
100
AcDbBlockEnd
  0
BLOCK
  5
441
100
AcDbEntity
  8
0
100
AcDbBlockBegin
  2
*B41
 70
     0
 10
0.0
 20
0.0
 30
0.0
  3
*B41
  1

  0
LINE
  5
442
100
AcDbEntity
  8
0
  6
Continuous
 62
     8
100
AcDbLine
 10
241.960556
 20
172.179537
 30
0.0
 11
241.960556
 21
182.007867
 31
0.0
  0
ENDBLK
  5
443
100
AcDbEntity
  8
0
100
AcDbBlockEnd
  0
BLOCK
  5
446
100
AcDbEntity
  8
0
100
AcDbBlockBegin
  2
*B42
 70
     0
 10
0.0
 20
0.0
 30
0.0
  3
*B42
  1

  0
LINE
  5
447
100
AcDbEntity
  8
0
  6
Continuous
 62
     8
100
AcDbLine
 10
44.018243
 20
37.124221
 30
0.0
 11
71.960773
 21
37.124221
 31
0.0
  0
ENDBLK
  5
448
100
AcDbEntity
  8
0
100
AcDbBlockEnd
  0
BLOCK
  5
44B
100
AcDbEntity
  8
0
100
AcDbBlockBegin
  2
*B43
 70
     0
 10
0.0
 20
0.0
 30
0.0
  3
*B43
  1

  0
LINE
  5
44C
100
AcDbEntity
  8
0
  6
Continuous
 62
     8
100
AcDbLine
 10
130.960709
 20
67.014318
 30
0.0
 11
130.960709
 21
71.014181
 31
0.0
  0
LINE
  5
44D
100
AcDbEntity
  8
0
  6
Continuous
 62
     8
100
AcDbLine
 10
130.960709
 20
51.723326
 30
0.0
 11
130.960709
 21
54.873252
 31
0.0
  0
LINE
  5
44E
100
AcDbEntity
  8
0
  6
Continuous
 62
     8
100
AcDbLine
 10
130.960709
 20
57.87299
 30
0.0
 11
130.960709
 21
67.014318
 31
0.0
  0
ENDBLK
  5
44F
100
AcDbEntity
  8
0
100
AcDbBlockEnd
  0
BLOCK
  5
452
100
AcDbEntity
  8
0
100
AcDbBlockBegin
  2
*B44
 70
     0
 10
0.0
 20
0.0
 30
0.0
  3
*B44
  1

  0
LINE
  5
453
100
AcDbEntity
  8
0
  6
Continuous
 62
     8
100
AcDbLine
 10
153.835699
 20
22.016981
 30
0.0
 11
153.835699
 21
47.123771
 31
0.0
  0
ENDBLK
  5
454
100
AcDbEntity
  8
0
100
AcDbBlockEnd
  0
BLOCK
  5
457
100
AcDbEntity
  8
0
100
AcDbBlockBegin
  2
*B45
 70
     0
 10
0.0
 20
0.0
 30
0.0
  3
*B45
  1

  0
LINE
  5
458
100
AcDbEntity
  8
0
  6
Continuous
 62
     8
100
AcDbLine
 10
201.917534
 20
48.016406
 30
0.0
 11
206.817466
 21
48.016406
 31
0.0
  0
LINE
  5
459
100
AcDbEntity
  8
0
  6
Continuous
 62
     8
100
AcDbLine
 10
209.817416
 20
48.016406
 30
0.0
 11
214.717561
 21
48.016406
 31
0.0
  0
ENDBLK
  5
45A
100
AcDbEntity
  8
0
100
AcDbBlockEnd
  0
BLOCK
  5
45D
100
AcDbEntity
  8
0
100
AcDbBlockBegin
  2
*B46
 70
     0
 10
0.0
 20
0.0
 30
0.0
  3
*B46
  1

  0
LINE
  5
45E
100
AcDbEntity
  8
0
  6
Continuous
 62
     8
100
AcDbLine
 10
58.460786
 20
48.123683
 30
0.0
 11
63.603527
 21
48.123683
 31
0.0
  0
LINE
  5
45F
100
AcDbEntity
  8
0
  6
Continuous
 62
     8
100
AcDbLine
 10
64.603652
 20
48.123683
 30
0.0
 11
65.603565
 21
48.123683
 31
0.0
  0
LINE
  5
460
100
AcDbEntity
  8
0
  6
Continuous
 62
     8
100
AcDbLine
 10
66.603689
 20
48.123683
 30
0.0
 11
71.74643
 21
48.123683
 31
0.0
  0
LINE
  5
461
100
AcDbEntity
  8
0
  6
Continuous
 62
     8
100
AcDbLine
 10
72.746555
 20
48.123683
 30
0.0
 11
73.746468
 21
48.123683
 31
0.0
  0
LINE
  5
462
100
AcDbEntity
  8
0
  6
Continuous
 62
     8
100
AcDbLine
 10
74.74638
 20
48.123683
 30
0.0
 11
79.889334
 21
48.123683
 31
0.0
  0
LINE
  5
463
100
AcDbEntity
  8
0
  6
Continuous
 62
     8
100
AcDbLine
 10
80.889246
 20
48.123683
 30
0.0
 11
81.889371
 21
48.123683
 31
0.0
  0
LINE
  5
464
100
AcDbEntity
  8
0
  6
Continuous
 62
     8
100
AcDbLine
 10
82.889284
 20
48.123683
 30
0.0
 11
88.032237
 21
48.123683
 31
0.0
  0
LINE
  5
465
100
AcDbEntity
  8
0
  6
Continuous
 62
     8
100
AcDbLine
 10
89.03215
 20
48.123683
 30
0.0
 11
90.032062
 21
48.123683
 31
0.0
  0
LINE
  5
466
100
AcDbEntity
  8
0
  6
Continuous
 62
     8
100
AcDbLine
 10
91.032187
 20
48.123683
 30
0.0
 11
96.174928
 21
48.123683
 31
0.0
  0
LINE
  5
467
100
AcDbEntity
  8
0
  6
Continuous
 62
     8
100
AcDbLine
 10
97.175053
 20
48.123683
 30
0.0
 11
98.174965
 21
48.123683
 31
0.0
  0
LINE
  5
468
100
AcDbEntity
  8
0
  6
Continuous
 62
     8
100
AcDbLine
 10
99.17509
 20
48.123683
 30
0.0
 11
104.317831
 21
48.123683
 31
0.0
  0
LINE
  5
469
100
AcDbEntity
  8
0
  6
Continuous
 62
     8
100
AcDbLine
 10
105.317956
 20
48.123683
 30
0.0
 11
106.317869
 21
48.123683
 31
0.0
  0
LINE
  5
46A
100
AcDbEntity
  8
0
  6
Continuous
 62
     8
100
AcDbLine
 10
107.317781
 20
48.123683
 30
0.0
 11
112.460735
 21
48.123683
 31
0.0
  0
LINE
  5
46B
100
AcDbEntity
  8
0
  6
Continuous
 62
     8
100
AcDbLine
 10
115.460685
 20
48.123683
 30
0.0
 11
120.960734
 21
48.123683
 31
0.0
  0
LINE
  5
46C
100
AcDbEntity
  8
0
  6
Continuous
 62
     8
100
AcDbLine
 10
121.960647
 20
48.123683
 30
0.0
 11
122.960772
 21
48.123683
 31
0.0
  0
LINE
  5
46D
100
AcDbEntity
  8
0
  6
Continuous
 62
     8
100
AcDbLine
 10
123.960684
 20
48.123683
 30
0.0
 11
129.460734
 21
48.123683
 31
0.0
  0
LINE
  5
46E
100
AcDbEntity
  8
0
  6
Continuous
 62
     8
100
AcDbLine
 10
130.460647
 20
48.123683
 30
0.0
 11
131.460772
 21
48.123683
 31
0.0
  0
LINE
  5
46F
100
AcDbEntity
  8
0
  6
Continuous
 62
     8
100
AcDbLine
 10
132.460684
 20
48.123683
 30
0.0
 11
137.960734
 21
48.123683
 31
0.0
  0
LINE
  5
470
100
AcDbEntity
  8
0
  6
Continuous
 62
     8
100
AcDbLine
 10
138.960646
 20
48.123683
 30
0.0
 11
139.960771
 21
48.123683
 31
0.0
  0
LINE
  5
471
100
AcDbEntity
  8
0
  6
Continuous
 62
     8
100
AcDbLine
 10
140.960684
 20
48.123683
 30
0.0
 11
146.460734
 21
48.123683
 31
0.0
  0
LINE
  5
472
100
AcDbEntity
  8
0
  6
Continuous
 62
     8
100
AcDbLine
 10
149.460684
 20
48.123683
 30
0.0
 11
154.960733
 21
48.123683
 31
0.0
  0
LINE
  5
473
100
AcDbEntity
  8
0
  6
Continuous
 62
     8
100
AcDbLine
 10
155.960646
 20
48.123683
 30
0.0
 11
156.960771
 21
48.123683
 31
0.0
  0
LINE
  5
474
100
AcDbEntity
  8
0
  6
Continuous
 62
     8
100
AcDbLine
 10
157.960683
 20
48.123683
 30
0.0
 11
163.460733
 21
48.123683
 31
0.0
  0
LINE
  5
475
100
AcDbEntity
  8
0
  6
Continuous
 62
     8
100
AcDbLine
 10
164.460646
 20
48.123683
 30
0.0
 11
165.460771
 21
48.123683
 31
0.0
  0
LINE
  5
476
100
AcDbEntity
  8
0
  6
Continuous
 62
     8
100
AcDbLine
 10
166.460683
 20
48.123683
 30
0.0
 11
171.960733
 21
48.123683
 31
0.0
  0
LINE
  5
477
100
AcDbEntity
  8
0
  6
Continuous
 62
     8
100
AcDbLine
 10
172.960645
 20
48.123683
 30
0.0
 11
173.96077
 21
48.123683
 31
0.0
  0
LINE
  5
478
100
AcDbEntity
  8
0
  6
Continuous
 62
     8
100
AcDbLine
 10
174.960683
 20
48.123683
 30
0.0
 11
180.460733
 21
48.123683
 31
0.0
  0
LINE
  5
479
100
AcDbEntity
  8
0
  6
Continuous
 62
     8
100
AcDbLine
 10
183.460683
 20
48.123683
 30
0.0
 11
188.603636
 21
48.123683
 31
0.0
  0
LINE
  5
47A
100
AcDbEntity
  8
0
  6
Continuous
 62
     8
100
AcDbLine
 10
189.603549
 20
48.123683
 30
0.0
 11
190.603461
 21
48.123683
 31
0.0
  0
LINE
  5
47B
100
AcDbEntity
  8
0
  6
Continuous
 62
     8
100
AcDbLine
 10
191.603586
 20
48.123683
 30
0.0
 11
196.746327
 21
48.123683
 31
0.0
  0
LINE
  5
47C
100
AcDbEntity
  8
0
  6
Continuous
 62
     8
100
AcDbLine
 10
197.746452
 20
48.123683
 30
0.0
 11
198.746364
 21
48.123683
 31
0.0
  0
LINE
  5
47D
100
AcDbEntity
  8
0
  6
Continuous
 62
     8
100
AcDbLine
 10
199.746489
 20
48.123683
 30
0.0
 11
204.88923
 21
48.123683
 31
0.0
  0
LINE
  5
47E
100
AcDbEntity
  8
0
  6
Continuous
 62
     8
100
AcDbLine
 10
205.889355
 20
48.123683
 30
0.0
 11
206.889268
 21
48.123683
 31
0.0
  0
LINE
  5
47F
100
AcDbEntity
  8
0
  6
Continuous
 62
     8
100
AcDbLine
 10
207.88918
 20
48.123683
 30
0.0
 11
213.032134
 21
48.123683
 31
0.0
  0
LINE
  5
480
100
AcDbEntity
  8
0
  6
Continuous
 62
     8
100
AcDbLine
 10
214.032046
 20
48.123683
 30
0.0
 11
215.032171
 21
48.123683
 31
0.0
  0
LINE
  5
481
100
AcDbEntity
  8
0
  6
Continuous
 62
     8
100
AcDbLine
 10
216.032084
 20
48.123683
 30
0.0
 11
221.175037
 21
48.123683
 31
0.0
  0
LINE
  5
482
100
AcDbEntity
  8
0
  6
Continuous
 62
     8
100
AcDbLine
 10
222.174949
 20
48.123683
 30
0.0
 11
223.175074
 21
48.123683
 31
0.0
  0
LINE
  5
483
100
AcDbEntity
  8
0
  6
Continuous
 62
     8
100
AcDbLine
 10
224.174987
 20
48.123683
 30
0.0
 11
229.317728
 21
48.123683
 31
0.0
  0
LINE
  5
484
100
AcDbEntity
  8
0
  6
Continuous
 62
     8
100
AcDbLine
 10
230.317853
 20
48.123683
 30
0.0
 11
231.317765
 21
48.123683
 31
0.0
  0
LINE
  5
485
100
AcDbEntity
  8
0
  6
Continuous
 62
     8
100
AcDbLine
 10
232.31789
 20
48.123683
 30
0.0
 11
237.460631
 21
48.123683
 31
0.0
  0
ENDBLK
  5
486
100
AcDbEntity
  8
0
100
AcDbBlockEnd
  0
BLOCK
  5
489
100
AcDbEntity
  8
0
100
AcDbBlockBegin
  2
*B47
 70
     0
 10
0.0
 20
0.0
 30
0.0
  3
*B47
  1

  0
LINE
  5
48A
100
AcDbEntity
  8
0
  6
Continuous
 62
     8
100
AcDbLine
 10
172.960645
 20
145.381797
 30
0.0
 11
239.017962
 21
145.381797
 31
0.0
  0
ENDBLK
  5
48B
100
AcDbEntity
  8
0
100
AcDbBlockEnd
  0
BLOCK
  5
48E
100
AcDbEntity
  8
0
100
AcDbBlockBegin
  2
*B48
 70
     0
 10
0.0
 20
0.0
 30
0.0
  3
*B48
  1

  0
LINE
  5
48F
100
AcDbEntity
  8
0
  6
Continuous
 62
     8
100
AcDbLine
 10
171.960733
 20
60.122846
 30
0.0
 11
171.960733
 21
71.014181
 31
0.0
  0
ENDBLK
  5
490
100
AcDbEntity
  8
0
100
AcDbBlockEnd
  0
BLOCK
  5
493
100
AcDbEntity
  8
0
100
AcDbBlockBegin
  2
*B49
 70
     0
 10
0.0
 20
0.0
 30
0.0
  3
*B49
  1

  0
LINE
  5
494
100
AcDbEntity
  8
0
  6
Continuous
 62
     8
100
AcDbLine
 10
43.018118
 20
172.379647
 30
0.0
 11
53.653474
 21
172.379647
 31
0.0
  0
ENDBLK
  5
495
100
AcDbEntity
  8
0
100
AcDbBlockEnd
  0
BLOCK
  5
498
100
AcDbEntity
  8
0
100
AcDbBlockBegin
  2
*B50
 70
     0
 10
0.0
 20
0.0
 30
0.0
  3
*B50
  1

  0
LINE
  5
499
100
AcDbEntity
  8
0
  6
Continuous
 62
     8
100
AcDbLine
 10
136.960609
 20
90.513006
 30
0.0
 11
136.960609
 21
94.512868
 31
0.0
  0
LINE
  5
49A
100
AcDbEntity
  8
0
  6
Continuous
 62
     8
100
AcDbLine
 10
136.960609
 20
94.512868
 30
0.0
 11
136.960609
 21
100.486851
 31
0.0
  0
LINE
  5
49B
100
AcDbEntity
  8
0
  6
Continuous
 62
     8
100
AcDbLine
 10
136.960609
 20
101.486764
 30
0.0
 11
136.960609
 21
102.486676
 31
0.0
  0
LINE
  5
49C
100
AcDbEntity
  8
0
  6
Continuous
 62
     8
100
AcDbLine
 10
136.960609
 20
103.486801
 30
0.0
 11
136.960609
 21
109.460785
 31
0.0
  0
LINE
  5
49D
100
AcDbEntity
  8
0
  6
Continuous
 62
     8
100
AcDbLine
 10
136.960609
 20
110.460697
 30
0.0
 11
136.960609
 21
111.46061
 31
0.0
  0
LINE
  5
49E
100
AcDbEntity
  8
0
  6
Continuous
 62
     8
100
AcDbLine
 10
136.960609
 20
112.460522
 30
0.0
 11
136.960609
 21
118.434505
 31
0.0
  0
LINE
  5
49F
100
AcDbEntity
  8
0
  6
Continuous
 62
     8
100
AcDbLine
 10
136.960609
 20
119.434418
 30
0.0
 11
136.960609
 21
120.43433
 31
0.0
  0
LINE
  5
4A0
100
AcDbEntity
  8
0
  6
Continuous
 62
     8
100
AcDbLine
 10
136.960609
 20
121.434455
 30
0.0
 11
136.960609
 21
127.408439
 31
0.0
  0
LINE
  5
4A1
100
AcDbEntity
  8
0
  6
Continuous
 62
     8
100
AcDbLine
 10
136.960609
 20
128.408351
 30
0.0
 11
136.960609
 21
129.408264
 31
0.0
  0
LINE
  5
4A2
100
AcDbEntity
  8
0
  6
Continuous
 62
     8
100
AcDbLine
 10
136.960609
 20
130.408176
 30
0.0
 11
136.960609
 21
136.382159
 31
0.0
  0
LINE
  5
4A3
100
AcDbEntity
  8
0
  6
Continuous
 62
     8
100
AcDbLine
 10
136.960609
 20
139.382109
 30
0.0
 11
136.960609
 21
143.631791
 31
0.0
  0
ENDBLK
  5
4A4
100
AcDbEntity
  8
0
100
AcDbBlockEnd
  0
BLOCK
  5
4A7
100
AcDbEntity
  8
0
100
AcDbBlockBegin
  2
*B51
 70
     0
 10
0.0
 20
0.0
 30
0.0
  3
*B51
  1

  0
LINE
  5
4A8
100
AcDbEntity
  8
0
  6
Continuous
 62
     8
100
AcDbLine
 10
181.960708
 20
42.123996
 30
0.0
 11
181.960708
 21
46.623708
 31
0.0
  0
LINE
  5
4A9
100
AcDbEntity
  8
0
  6
Continuous
 62
     8
100
AcDbLine
 10
181.960708
 20
49.623446
 30
0.0
 11
181.960708
 21
54.123371
 31
0.0
  0
ENDBLK
  5
4AA
100
AcDbEntity
  8
0
100
AcDbBlockEnd
  0
BLOCK
  5
4AD
100
AcDbEntity
  8
0
100
AcDbBlockBegin
  2
*B52
 70
     0
 10
0.0
 20
0.0
 30
0.0
  3
*B52
  1

  0
LINE
  5
4AE
100
AcDbEntity
  8
0
  6
Continuous
 62
     8
100
AcDbLine
 10
130.960709
 20
102.384072
 30
0.0
 11
130.960709
 21
107.550606
 31
0.0
  0
LINE
  5
4AF
100
AcDbEntity
  8
0
  6
Continuous
 62
     8
100
AcDbLine
 10
130.960709
 20
108.550518
 30
0.0
 11
130.960709
 21
109.550431
 31
0.0
  0
LINE
  5
4B0
100
AcDbEntity
  8
0
  6
Continuous
 62
     8
100
AcDbLine
 10
130.960709
 20
110.550343
 30
0.0
 11
130.960709
 21
115.716664
 31
0.0
  0
LINE
  5
4B1
100
AcDbEntity
  8
0
  6
Continuous
 62
     8
100
AcDbLine
 10
130.960709
 20
116.716576
 30
0.0
 11
130.960709
 21
117.716701
 31
0.0
  0
LINE
  5
4B2
100
AcDbEntity
  8
0
  6
Continuous
 62
     8
100
AcDbLine
 10
130.960709
 20
118.716614
 30
0.0
 11
130.960709
 21
123.882935
 31
0.0
  0
LINE
  5
4B3
100
AcDbEntity
  8
0
  6
Continuous
 62
     8
100
AcDbLine
 10
130.960709
 20
124.882847
 30
0.0
 11
130.960709
 21
125.88276
 31
0.0
  0
LINE
  5
4B4
100
AcDbEntity
  8
0
  6
Continuous
 62
     8
100
AcDbLine
 10
130.960709
 20
126.882672
 30
0.0
 11
130.960709
 21
132.049205
 31
0.0
  0
LINE
  5
4B5
100
AcDbEntity
  8
0
  6
Continuous
 62
     8
100
AcDbLine
 10
130.960709
 20
133.049118
 30
0.0
 11
130.960709
 21
134.04903
 31
0.0
  0
LINE
  5
4B6
100
AcDbEntity
  8
0
  6
Continuous
 62
     8
100
AcDbLine
 10
130.960709
 20
135.048943
 30
0.0
 11
130.960709
 21
140.215264
 31
0.0
  0
LINE
  5
4B7
100
AcDbEntity
  8
0
  6
Continuous
 62
     8
100
AcDbLine
 10
130.960709
 20
141.215176
 30
0.0
 11
130.960709
 21
142.215301
 31
0.0
  0
LINE
  5
4B8
100
AcDbEntity
  8
0
  6
Continuous
 62
     8
100
AcDbLine
 10
130.960709
 20
143.215214
 30
0.0
 11
130.960709
 21
148.381534
 31
0.0
  0
ENDBLK
  5
4B9
100
AcDbEntity
  8
0
100
AcDbBlockEnd
  0
BLOCK
  5
4BC
100
AcDbEntity
  8
0
100
AcDbBlockBegin
  2
*B53
 70
     0
 10
0.0
 20
0.0
 30
0.0
  3
*B53
  1

  0
LINE
  5
4BD
100
AcDbEntity
  8
0
  6
Continuous
 62
     8
100
AcDbLine
 10
50.960699
 20
163.380647
 30
0.0
 11
55.835777
 21
163.380647
 31
0.0
  0
LINE
  5
4BE
100
AcDbEntity
  8
0
  6
Continuous
 62
     8
100
AcDbLine
 10
56.835689
 20
163.380647
 30
0.0
 11
57.835814
 21
163.380647
 31
0.0
  0
LINE
  5
4BF
100
AcDbEntity
  8
0
  6
Continuous
 62
     8
100
AcDbLine
 10
58.835727
 20
163.380647
 30
0.0
 11
63.710805
 21
163.380647
 31
0.0
  0
LINE
  5
4C0
100
AcDbEntity
  8
0
  6
Continuous
 62
     8
100
AcDbLine
 10
64.710717
 20
163.380647
 30
0.0
 11
65.710842
 21
163.380647
 31
0.0
  0
LINE
  5
4C1
100
AcDbEntity
  8
0
  6
Continuous
 62
     8
100
AcDbLine
 10
66.710755
 20
163.380647
 30
0.0
 11
71.585833
 21
163.380647
 31
0.0
  0
LINE
  5
4C2
100
AcDbEntity
  8
0
  6
Continuous
 62
     8
100
AcDbLine
 10
72.585745
 20
163.380647
 30
0.0
 11
73.585658
 21
163.380647
 31
0.0
  0
LINE
  5
4C3
100
AcDbEntity
  8
0
  6
Continuous
 62
     8
100
AcDbLine
 10
74.585783
 20
163.380647
 30
0.0
 11
79.460648
 21
163.380647
 31
0.0
  0
ENDBLK
  5
4C4
100
AcDbEntity
  8
0
100
AcDbBlockEnd
  0
BLOCK
  5
4C7
100
AcDbEntity
  8
0
100
AcDbBlockBegin
  2
*B54
 70
     0
 10
0.0
 20
0.0
 30
0.0
  3
*B54
  1

  0
LINE
  5
4C8
100
AcDbEntity
  8
0
  6
Continuous
 62
     8
100
AcDbLine
 10
216.460769
 20
163.380647
 30
0.0
 11
221.335635
 21
163.380647
 31
0.0
  0
LINE
  5
4C9
100
AcDbEntity
  8
0
  6
Continuous
 62
     8
100
AcDbLine
 10
222.33576
 20
163.380647
 30
0.0
 11
223.335672
 21
163.380647
 31
0.0
  0
LINE
  5
4CA
100
AcDbEntity
  8
0
  6
Continuous
 62
     8
100
AcDbLine
 10
224.335585
 20
163.380647
 30
0.0
 11
229.210663
 21
163.380647
 31
0.0
  0
LINE
  5
4CB
100
AcDbEntity
  8
0
  6
Continuous
 62
     8
100
AcDbLine
 10
230.210575
 20
163.380647
 30
0.0
 11
231.2107
 21
163.380647
 31
0.0
  0
LINE
  5
4CC
100
AcDbEntity
  8
0
  6
Continuous
 62
     8
100
AcDbLine
 10
232.210613
 20
163.380647
 30
0.0
 11
237.08569
 21
163.380647
 31
0.0
  0
LINE
  5
4CD
100
AcDbEntity
  8
0
  6
Continuous
 62
     8
100
AcDbLine
 10
238.085603
 20
163.380647
 30
0.0
 11
239.085728
 21
163.380647
 31
0.0
  0
LINE
  5
4CE
100
AcDbEntity
  8
0
  6
Continuous
 62
     8
100
AcDbLine
 10
240.08564
 20
163.380647
 30
0.0
 11
244.960718
 21
163.380647
 31
0.0
  0
ENDBLK
  5
4CF
100
AcDbEntity
  8
0
100
AcDbBlockEnd
  0
BLOCK
  5
4D2
100
AcDbEntity
  8
0
100
AcDbBlockBegin
  2
*B55
 70
     0
 10
0.0
 20
0.0
 30
0.0
  3
*B55
  1

  0
LINE
  5
4D3
100
AcDbEntity
  8
0
  6
Continuous
 62
     8
100
AcDbLine
 10
192.960595
 20
79.013693
 30
0.0
 11
192.960595
 21
106.383935
 31
0.0
  0
ENDBLK
  5
4D4
100
AcDbEntity
  8
0
100
AcDbBlockEnd
  0
BLOCK
  5
4D7
100
AcDbEntity
  8
0
100
AcDbBlockBegin
  2
*B56
 70
     0
 10
0.0
 20
0.0
 30
0.0
  3
*B56
  1

  0
LINE
  5
4D8
100
AcDbEntity
  8
0
  6
Continuous
 62
     8
100
AcDbLine
 10
81.203856
 20
48.230961
 30
0.0
 11
86.104001
 21
48.230961
 31
0.0
  0
LINE
  5
4D9
100
AcDbEntity
  8
0
  6
Continuous
 62
     8
100
AcDbLine
 10
89.103951
 20
48.230961
 30
0.0
 11
94.003884
 21
48.230961
 31
0.0
  0
ENDBLK
  5
4DA
100
AcDbEntity
  8
0
100
AcDbBlockEnd
  0
BLOCK
  5
4DD
100
AcDbEntity
  8
0
100
AcDbBlockBegin
  2
*B57
 70
     0
 10
0.0
 20
0.0
 30
0.0
  3
*B57
  1

  0
LINE
  5
4DE
100
AcDbEntity
  8
0
  6
Continuous
 62
     8
100
AcDbLine
 10
171.960733
 20
90.513006
 30
0.0
 11
171.960733
 21
104.38411
 31
0.0
  0
LINE
  5
4DF
100
AcDbEntity
  8
0
  6
Continuous
 62
     8
100
AcDbLine
 10
171.960733
 20
146.381709
 30
0.0
 11
171.960733
 21
157.009418
 31
0.0
  0
ENDBLK
  5
4E0
100
AcDbEntity
  8
0
100
AcDbBlockEnd
  0
BLOCK
  5
4E3
100
AcDbEntity
  8
0
100
AcDbBlockBegin
  2
*B58
 70
     0
 10
0.0
 20
0.0
 30
0.0
  3
*B58
  1

  0
LINE
  5
4E4
100
AcDbEntity
  8
0
  6
Continuous
 62
     8
100
AcDbLine
 10
147.960709
 20
39.249168
 30
0.0
 11
147.960709
 21
46.623708
 31
0.0
  0
LINE
  5
4E5
100
AcDbEntity
  8
0
  6
Continuous
 62
     8
100
AcDbLine
 10
147.960709
 20
49.623446
 30
0.0
 11
147.960709
 21
56.998199
 31
0.0
  0
ENDBLK
  5
4E6
100
AcDbEntity
  8
0
100
AcDbBlockEnd
  0
BLOCK
  5
4E9
100
AcDbEntity
  8
0
100
AcDbBlockBegin
  2
*B59
 70
     0
 10
0.0
 20
0.0
 30
0.0
  3
*B59
  1

  0
LINE
  5
4EA
100
AcDbEntity
  8
0
  6
Continuous
 62
     8
100
AcDbLine
 10
102.46076
 20
169.380334
 30
0.0
 11
102.46076
 21
183.00778
 31
0.0
  0
ENDBLK
  5
4EB
100
AcDbEntity
  8
0
100
AcDbBlockEnd
  0
BLOCK
  5
4EE
100
AcDbEntity
  8
0
100
AcDbBlockBegin
  2
*B60
 70
     0
 10
0.0
 20
0.0
 30
0.0
  3
*B60
  1

  0
LINE
  5
4EF
100
AcDbEntity
  8
0
  6
Continuous
 62
     8
100
AcDbLine
 10
184.018101
 20
112.883472
 30
0.0
 11
188.018176
 21
112.883472
 31
0.0
  0
LINE
  5
4F0
100
AcDbEntity
  8
0
  6
Continuous
 62
     8
100
AcDbLine
 10
142.210628
 20
112.883472
 30
0.0
 11
146.460734
 21
112.883472
 31
0.0
  0
LINE
  5
4F1
100
AcDbEntity
  8
0
  6
Continuous
 62
     8
100
AcDbLine
 10
149.460684
 20
112.883472
 30
0.0
 11
155.849969
 21
112.883472
 31
0.0
  0
LINE
  5
4F2
100
AcDbEntity
  8
0
  6
Continuous
 62
     8
100
AcDbLine
 10
156.850094
 20
112.883472
 30
0.0
 11
157.850007
 21
112.883472
 31
0.0
  0
LINE
  5
4F3
100
AcDbEntity
  8
0
  6
Continuous
 62
     8
100
AcDbLine
 10
158.850132
 20
112.883472
 30
0.0
 11
165.239418
 21
112.883472
 31
0.0
  0
LINE
  5
4F4
100
AcDbEntity
  8
0
  6
Continuous
 62
     8
100
AcDbLine
 10
166.23933
 20
112.883472
 30
0.0
 11
167.239455
 21
112.883472
 31
0.0
  0
LINE
  5
4F5
100
AcDbEntity
  8
0
  6
Continuous
 62
     8
100
AcDbLine
 10
168.239367
 20
112.883472
 30
0.0
 11
174.628866
 21
112.883472
 31
0.0
  0
LINE
  5
4F6
100
AcDbEntity
  8
0
  6
Continuous
 62
     8
100
AcDbLine
 10
175.628778
 20
112.883472
 30
0.0
 11
176.628691
 21
112.883472
 31
0.0
  0
LINE
  5
4F7
100
AcDbEntity
  8
0
  6
Continuous
 62
     8
100
AcDbLine
 10
177.628816
 20
112.883472
 30
0.0
 11
184.018101
 21
112.883472
 31
0.0
  0
ENDBLK
  5
4F8
100
AcDbEntity
  8
0
100
AcDbBlockEnd
  0
BLOCK
  5
4FB
100
AcDbEntity
  8
0
100
AcDbBlockBegin
  2
*B61
 70
     0
 10
0.0
 20
0.0
 30
0.0
  3
*B61
  1

  0
LINE
  5
4FC
100
AcDbEntity
  8
0
  6
Continuous
 62
     8
100
AcDbLine
 10
44.018243
 20
59.122933
 30
0.0
 11
71.960773
 21
59.122933
 31
0.0
  0
ENDBLK
  5
4FD
100
AcDbEntity
  8
0
100
AcDbBlockEnd
  0
BLOCK
  5
500
100
AcDbEntity
  8
0
100
AcDbBlockBegin
  2
*B62
 70
     0
 10
0.0
 20
0.0
 30
0.0
  3
*B62
  1

  0
LINE
  5
501
100
AcDbEntity
  8
0
  6
Continuous
 62
     8
100
AcDbLine
 10
43.018118
 20
105.384022
 30
0.0
 11
122.960772
 21
105.384022
 31
0.0
  0
LINE
  5
502
100
AcDbEntity
  8
0
  6
Continuous
 62
     8
100
AcDbLine
 10
172.960645
 20
105.384022
 30
0.0
 11
239.017962
 21
105.384022
 31
0.0
  0
ENDBLK
  5
503
100
AcDbEntity
  8
0
100
AcDbBlockEnd
  0
BLOCK
  5
506
100
AcDbEntity
  8
0
100
AcDbBlockBegin
  2
*B63
 70
     0
 10
0.0
 20
0.0
 30
0.0
  3
*B63
  1

  0
LINE
  5
507
100
AcDbEntity
  8
0
  6
Continuous
 62
     8
100
AcDbLine
 10
208.317441
 20
41.616711
 30
0.0
 11
208.317441
 21
46.516431
 31
0.0
  0
LINE
  5
508
100
AcDbEntity
  8
0
  6
Continuous
 62
     8
100
AcDbLine
 10
208.317441
 20
49.516168
 30
0.0
 11
208.317441
 21
54.415888
 31
0.0
  0
ENDBLK
  5
509
100
AcDbEntity
  8
0
100
AcDbBlockEnd
  0
BLOCK
  5
50C
100
AcDbEntity
  8
0
100
AcDbBlockBegin
  2
*B64
 70
     0
 10
0.0
 20
0.0
 30
0.0
  3
*B64
  1

  0
LINE
  5
50D
100
AcDbEntity
  8
0
  6
Continuous
 62
     8
100
AcDbLine
 10
142.085718
 20
22.016981
 30
0.0
 11
142.085718
 21
47.123771
 31
0.0
  0
ENDBLK
  5
50E
100
AcDbEntity
  8
0
100
AcDbBlockEnd
  0
BLOCK
  5
511
100
AcDbEntity
  8
0
100
AcDbBlockBegin
  2
*B65
 70
     0
 10
0.0
 20
0.0
 30
0.0
  3
*B65
  1

  0
LINE
  5
512
100
AcDbEntity
  8
0
  6
Continuous
 62
     8
100
AcDbLine
 10
158.960596
 20
90.513006
 30
0.0
 11
158.960596
 21
94.512868
 31
0.0
  0
LINE
  5
513
100
AcDbEntity
  8
0
  6
Continuous
 62
     8
100
AcDbLine
 10
158.960596
 20
94.512868
 30
0.0
 11
158.960596
 21
100.486851
 31
0.0
  0
LINE
  5
514
100
AcDbEntity
  8
0
  6
Continuous
 62
     8
100
AcDbLine
 10
158.960596
 20
101.486764
 30
0.0
 11
158.960596
 21
102.486676
 31
0.0
  0
LINE
  5
515
100
AcDbEntity
  8
0
  6
Continuous
 62
     8
100
AcDbLine
 10
158.960596
 20
103.486801
 30
0.0
 11
158.960596
 21
109.460785
 31
0.0
  0
LINE
  5
516
100
AcDbEntity
  8
0
  6
Continuous
 62
     8
100
AcDbLine
 10
158.960596
 20
110.460697
 30
0.0
 11
158.960596
 21
111.46061
 31
0.0
  0
LINE
  5
517
100
AcDbEntity
  8
0
  6
Continuous
 62
     8
100
AcDbLine
 10
158.960596
 20
112.460522
 30
0.0
 11
158.960596
 21
118.434505
 31
0.0
  0
LINE
  5
518
100
AcDbEntity
  8
0
  6
Continuous
 62
     8
100
AcDbLine
 10
158.960596
 20
119.434418
 30
0.0
 11
158.960596
 21
120.43433
 31
0.0
  0
LINE
  5
519
100
AcDbEntity
  8
0
  6
Continuous
 62
     8
100
AcDbLine
 10
158.960596
 20
121.434455
 30
0.0
 11
158.960596
 21
127.408439
 31
0.0
  0
LINE
  5
51A
100
AcDbEntity
  8
0
  6
Continuous
 62
     8
100
AcDbLine
 10
158.960596
 20
128.408351
 30
0.0
 11
158.960596
 21
129.408264
 31
0.0
  0
LINE
  5
51B
100
AcDbEntity
  8
0
  6
Continuous
 62
     8
100
AcDbLine
 10
158.960596
 20
130.408176
 30
0.0
 11
158.960596
 21
136.382159
 31
0.0
  0
LINE
  5
51C
100
AcDbEntity
  8
0
  6
Continuous
 62
     8
100
AcDbLine
 10
158.960596
 20
139.382109
 30
0.0
 11
158.960596
 21
143.631791
 31
0.0
  0
ENDBLK
  5
51D
100
AcDbEntity
  8
0
100
AcDbBlockEnd
  0
BLOCK
  5
520
100
AcDbEntity
  8
0
100
AcDbBlockBegin
  2
*B66
 70
     0
 10
0.0
 20
0.0
 30
0.0
  3
*B66
  1

  0
LINE
  5
521
100
AcDbEntity
  8
0
  6
Continuous
 62
     6
100
AcDbLine
 10
147.460646
 20
112.883472
 30
0.0
 11
148.460771
 21
112.883472
 31
0.0
  0
LINE
  5
522
100
AcDbEntity
  8
0
  6
Continuous
 62
     6
100
AcDbLine
 10
147.960709
 20
112.383622
 30
0.0
 11
147.960709
 21
113.383535
 31
0.0
  0
ENDBLK
  5
523
100
AcDbEntity
  8
0
100
AcDbBlockEnd
  0
BLOCK
  5
526
100
AcDbEntity
  8
0
100
AcDbBlockBegin
  2
*B67
 70
     0
 10
0.0
 20
0.0
 30
0.0
  3
*B67
  1

  0
LINE
  5
527
100
AcDbEntity
  8
0
  6
Continuous
 62
     6
100
AcDbLine
 10
207.817591
 20
48.016406
 30
0.0
 11
208.817503
 21
48.016406
 31
0.0
  0
LINE
  5
528
100
AcDbEntity
  8
0
  6
Continuous
 62
     6
100
AcDbLine
 10
208.317441
 20
47.516343
 30
0.0
 11
208.317441
 21
48.516256
 31
0.0
  0
ENDBLK
  5
529
100
AcDbEntity
  8
0
100
AcDbBlockEnd
  0
BLOCK
  5
52C
100
AcDbEntity
  8
0
100
AcDbBlockBegin
  2
*B68
 70
     0
 10
0.0
 20
0.0
 30
0.0
  3
*B68
  1

  0
LINE
  5
52D
100
AcDbEntity
  8
0
  6
Continuous
 62
     6
100
AcDbLine
 10
147.460646
 20
48.123683
 30
0.0
 11
148.460771
 21
48.123683
 31
0.0
  0
LINE
  5
52E
100
AcDbEntity
  8
0
  6
Continuous
 62
     6
100
AcDbLine
 10
147.960709
 20
47.623621
 30
0.0
 11
147.960709
 21
48.623533
 31
0.0
  0
ENDBLK
  5
52F
100
AcDbEntity
  8
0
100
AcDbBlockEnd
  0
BLOCK
  5
532
100
AcDbEntity
  8
0
100
AcDbBlockBegin
  2
*B69
 70
     0
 10
0.0
 20
0.0
 30
0.0
  3
*B69
  1

  0
LINE
  5
533
100
AcDbEntity
  8
0
  6
Continuous
 62
     6
100
AcDbLine
 10
87.603976
 20
47.730899
 30
0.0
 11
87.603976
 21
48.730811
 31
0.0
  0
LINE
  5
534
100
AcDbEntity
  8
0
  6
Continuous
 62
     6
100
AcDbLine
 10
87.103914
 20
48.230961
 30
0.0
 11
88.103826
 21
48.230961
 31
0.0
  0
ENDBLK
  5
535
100
AcDbEntity
  8
0
100
AcDbBlockEnd
  0
BLOCK
  5
538
100
AcDbEntity
  8
0
100
AcDbBlockBegin
  2
*B70
 70
     0
 10
0.0
 20
0.0
 30
0.0
  3
*B70
  1

  0
LINE
  5
539
100
AcDbEntity
  8
0
  6
Continuous
 62
     6
100
AcDbLine
 10
136.460759
 20
137.882134
 30
0.0
 11
137.460671
 21
137.882134
 31
0.0
  0
LINE
  5
53A
100
AcDbEntity
  8
0
  6
Continuous
 62
     6
100
AcDbLine
 10
136.960609
 20
137.382072
 30
0.0
 11
136.960609
 21
138.382197
 31
0.0
  0
ENDBLK
  5
53B
100
AcDbEntity
  8
0
100
AcDbBlockEnd
  0
BLOCK
  5
53E
100
AcDbEntity
  8
0
100
AcDbBlockBegin
  2
*B71
 70
     0
 10
0.0
 20
0.0
 30
0.0
  3
*B71
  1

  0
LINE
  5
53F
100
AcDbEntity
  8
0
  6
Continuous
 62
     6
100
AcDbLine
 10
113.96071
 20
47.623621
 30
0.0
 11
113.96071
 21
48.623533
 31
0.0
  0
LINE
  5
540
100
AcDbEntity
  8
0
  6
Continuous
 62
     6
100
AcDbLine
 10
113.460647
 20
48.123683
 30
0.0
 11
114.460772
 21
48.123683
 31
0.0
  0
ENDBLK
  5
541
100
AcDbEntity
  8
0
100
AcDbBlockEnd
  0
BLOCK
  5
544
100
AcDbEntity
  8
0
100
AcDbBlockBegin
  2
*B72
 70
     0
 10
0.0
 20
0.0
 30
0.0
  3
*B72
  1

  0
LINE
  5
545
100
AcDbEntity
  8
0
  6
Continuous
 62
     6
100
AcDbLine
 10
164.960708
 20
39.374077
 30
0.0
 11
164.960708
 21
40.37399
 31
0.0
  0
LINE
  5
546
100
AcDbEntity
  8
0
  6
Continuous
 62
     6
100
AcDbLine
 10
164.460646
 20
39.87414
 30
0.0
 11
165.460771
 21
39.87414
 31
0.0
  0
ENDBLK
  5
547
100
AcDbEntity
  8
0
100
AcDbBlockEnd
  0
BLOCK
  5
54A
100
AcDbEntity
  8
0
100
AcDbBlockBegin
  2
*B73
 70
     0
 10
0.0
 20
0.0
 30
0.0
  3
*B73
  1

  0
LINE
  5
54B
100
AcDbEntity
  8
0
  6
Continuous
 62
     6
100
AcDbLine
 10
130.460647
 20
56.373227
 30
0.0
 11
131.460772
 21
56.373227
 31
0.0
  0
LINE
  5
54C
100
AcDbEntity
  8
0
  6
Continuous
 62
     6
100
AcDbLine
 10
130.960709
 20
55.873165
 30
0.0
 11
130.960709
 21
56.873077
 31
0.0
  0
ENDBLK
  5
54D
100
AcDbEntity
  8
0
100
AcDbBlockEnd
  0
BLOCK
  5
550
100
AcDbEntity
  8
0
100
AcDbBlockBegin
  2
*B74
 70
     0
 10
0.0
 20
0.0
 30
0.0
  3
*B74
  1

  0
LINE
  5
551
100
AcDbEntity
  8
0
  6
Continuous
 62
     6
100
AcDbLine
 10
181.960708
 20
47.623621
 30
0.0
 11
181.960708
 21
48.623533
 31
0.0
  0
LINE
  5
552
100
AcDbEntity
  8
0
  6
Continuous
 62
     6
100
AcDbLine
 10
181.460645
 20
48.123683
 30
0.0
 11
182.46077
 21
48.123683
 31
0.0
  0
ENDBLK
  5
553
100
AcDbEntity
  8
0
100
AcDbBlockEnd
  0
BLOCK
  5
556
100
AcDbEntity
  8
0
100
AcDbBlockBegin
  2
*B75
 70
     0
 10
0.0
 20
0.0
 30
0.0
  3
*B75
  1

  0
LINE
  5
557
100
AcDbEntity
  8
0
  6
Continuous
 62
     6
100
AcDbLine
 10
158.460746
 20
137.882134
 30
0.0
 11
159.460658
 21
137.882134
 31
0.0
  0
LINE
  5
558
100
AcDbEntity
  8
0
  6
Continuous
 62
     6
100
AcDbLine
 10
158.960596
 20
137.382072
 30
0.0
 11
158.960596
 21
138.382197
 31
0.0
  0
ENDBLK
  5
559
100
AcDbEntity
  8
0
100
AcDbBlockEnd
  0
BLOCK
  5
55C
100
AcDbEntity
  8
0
100
AcDbBlockBegin
  2
*B76
 70
     0
 10
0.0
 20
0.0
 30
0.0
  3
*B76
  1

  0
LINE
  5
55D
100
AcDbEntity
  8
0
  6
Continuous
 62
     0
100
AcDbLine
 10
109.518141
 20
69.264387
 30
0.0
 11
123.861054
 21
69.264387
 31
0.0
  0
LINE
  5
55E
100
AcDbEntity
  8
0
  6
Continuous
 62
     0
100
AcDbLine
 10
123.861054
 20
69.264387
 30
0.0
 11
130.16473
 21
57.818395
 31
0.0
  0
SOLID
  5
55F
100
AcDbEntity
  8
0
  6
Continuous
 62
     0
100
AcDbTrace
 10
127.950775
 20
60.594655
 30
0.0
 11
130.16473
 21
57.818395
 31
0.0
 12
129.001883
 22
61.173529
 32
0.0
 13
129.001883
 23
61.173529
 33
0.0
  0
ENDBLK
  5
560
100
AcDbEntity
  8
0
100
AcDbBlockEnd
  0
BLOCK
  5
563
100
AcDbEntity
  8
0
100
AcDbBlockBegin
  2
*B77
 70
     0
 10
0.0
 20
0.0
 30
0.0
  3
*B77
  1

  0
TEXT
  5
564
100
AcDbEntity
  8
TEXT
  6
Continuous
 62
     0
100
AcDbText
 10
156.83575
 20
107.5
 30
0.0
 40
5.0
  1
1
100
AcDbText
  0
ENDBLK
  5
565
100
AcDbEntity
  8
0
100
AcDbBlockEnd
  0
BLOCK
  5
568
100
AcDbEntity
  8
0
100
AcDbBlockBegin
  2
*B78
 70
     0
 10
0.0
 20
0.0
 30
0.0
  3
*B78
  1

  0
TEXT
  5
569
100
AcDbEntity
  8
TEXT
  6
Continuous
 62
     0
100
AcDbText
 10
146.23575
 20
137.5
 30
0.0
 40
5.0
  1
2
100
AcDbText
  0
ENDBLK
  5
56A
100
AcDbEntity
  8
0
100
AcDbBlockEnd
  0
BLOCK
  5
56D
100
AcDbEntity
  8
0
100
AcDbBlockBegin
  2
*B79
 70
     0
 10
0.0
 20
0.0
 30
0.0
  3
*B79
  1

  0
TEXT
  5
56E
100
AcDbEntity
  8
TEXT
  6
Continuous
 62
     0
100
AcDbText
 10
134.93575
 20
107.7
 30
0.0
 40
5.0
  1
3
100
AcDbText
  0
ENDBLK
  5
56F
100
AcDbEntity
  8
0
100
AcDbBlockEnd
  0
BLOCK
  5
572
100
AcDbEntity
  8
0
100
AcDbBlockBegin
  2
*B80
 70
     0
 10
0.0
 20
0.0
 30
0.0
  3
*B80
  1

  0
TEXT
  5
573
100
AcDbEntity
  8
TEXT
  6
Continuous
 62
     0
100
AcDbText
 10
126.471499
 20
122.5
 30
0.0
 40
5.0
  1
12
100
AcDbText
  0
ENDBLK
  5
574
100
AcDbEntity
  8
0
100
AcDbBlockEnd
  0
BLOCK
  5
577
100
AcDbEntity
  8
0
100
AcDbBlockBegin
  2
*B81
 70
     0
 10
0.0
 20
0.0
 30
0.0
  3
*B81
  1

  0
TEXT
  5
578
100
AcDbEntity
  8
TEXT
  6
Continuous
 62
     0
100
AcDbText
 10
162.471499
 20
122.5
 30
0.0
 40
5.0
  1
10
100
AcDbText
  0
ENDBLK
  5
579
100
AcDbEntity
  8
0
100
AcDbBlockEnd
  0
BLOCK
  5
57C
100
AcDbEntity
  8
0
100
AcDbBlockBegin
  2
*B82
 70
     0
 10
0.0
 20
0.0
 30
0.0
  3
*B82
  1

  0
TEXT
  5
57D
100
AcDbEntity
  8
TEXT
  6
Continuous
 62
     0
100
AcDbText
 10
79.438662
 20
78.5
 30
0.0
 40
5.0
  1
180░
100
AcDbText
  0
ENDBLK
  5
57E
100
AcDbEntity
  8
0
100
AcDbBlockEnd
  0
BLOCK
  5
581
100
AcDbEntity
  8
0
100
AcDbBlockBegin
  2
*B83
 70
     0
 10
0.0
 20
0.0
 30
0.0
  3
*B83
  1

  0
TEXT
  5
582
100
AcDbEntity
  8
TEXT
  6
Continuous
 62
     0
100
AcDbText
 10
109.45
 20
46.665025
 30
0.0
 40
3.5
  1
1
 50
90.0
100
AcDbText
  0
ENDBLK
  5
583
100
AcDbEntity
  8
0
100
AcDbBlockEnd
  0
BLOCK
  5
586
100
AcDbEntity
  8
0
100
AcDbBlockBegin
  2
*B84
 70
     0
 10
0.0
 20
0.0
 30
0.0
  3
*B84
  1

  0
TEXT
  5
587
100
AcDbEntity
  8
TEXT
  6
Continuous
 62
     0
100
AcDbText
 10
115.55
 20
41.065025
 30
0.0
 40
3.5
  1
0
 50
90.0
100
AcDbText
  0
ENDBLK
  5
588
100
AcDbEntity
  8
0
100
AcDbBlockEnd
  0
BLOCK
  5
58B
100
AcDbEntity
  8
0
100
AcDbBlockBegin
  2
*B85
 70
     0
 10
0.0
 20
0.0
 30
0.0
  3
*B85
  1

  0
TEXT
  5
58C
100
AcDbEntity
  8
TEXT
  6
Continuous
 62
     0
100
AcDbText
 10
186.45
 20
49.534975
 30
0.0
 40
3.5
  1
1
 50
-90.0
100
AcDbText
  0
ENDBLK
  5
58D
100
AcDbEntity
  8
0
100
AcDbBlockEnd
  0
BLOCK
  5
590
100
AcDbEntity
  8
0
100
AcDbBlockBegin
  2
*B86
 70
     0
 10
0.0
 20
0.0
 30
0.0
  3
*B86
  1

  0
TEXT
  5
591
100
AcDbEntity
  8
TEXT
  6
Continuous
 62
     0
100
AcDbText
 10
180.35
 20
55.034975
 30
0.0
 40
3.5
  1
0
 50
-90.0
100
AcDbText
  0
ENDBLK
  5
592
100
AcDbEntity
  8
0
100
AcDbBlockEnd
  0
BLOCK
  5
595
100
AcDbEntity
  8
0
100
AcDbBlockBegin
  2
*B87
 70
     0
 10
0.0
 20
0.0
 30
0.0
  3
*B87
  1

  0
TEXT
  5
596
100
AcDbEntity
  8
TEXT
  6
Continuous
 62
     0
100
AcDbText
 10
109.5
 20
71.5
 30
0.0
 40
3.0
  1
%%c3,3
100
AcDbText
  0
ENDBLK
  5
597
100
AcDbEntity
  8
0
100
AcDbBlockEnd
  0
BLOCK
  5
59A
100
AcDbEntity
  8
0
100
AcDbBlockBegin
  2
*B88
 70
     0
 10
0.0
 20
0.0
 30
0.0
  3
*B88
  1

  0
TEXT
  5
59B
100
AcDbEntity
  8
TEXT
  6
Continuous
 62
     0
100
AcDbText
 10
162.585434
 20
94.0
 30
0.0
 40
3.0
  1
13
100
AcDbText
  0
ENDBLK
  5
59C
100
AcDbEntity
  8
0
100
AcDbBlockEnd
  0
BLOCK
  5
59F
100
AcDbEntity
  8
0
100
AcDbBlockBegin
  2
*B89
 70
     0
 10
0.0
 20
0.0
 30
0.0
  3
*B89
  1

  0
TEXT
  5
5A0
100
AcDbEntity
  8
TEXT
  6
Continuous
 62
     0
100
AcDbText
 10
145.085434
 20
94.0
 30
0.0
 40
3.0
  1
22
100
AcDbText
  0
ENDBLK
  5
5A1
100
AcDbEntity
  8
0
100
AcDbBlockEnd
  0
BLOCK
  5
5A4
100
AcDbEntity
  8
0
100
AcDbBlockBegin
  2
*B90
 70
     0
 10
0.0
 20
0.0
 30
0.0
  3
*B90
  1

  0
TEXT
  5
5A5
100
AcDbEntity
  8
TEXT
  6
Continuous
 62
     0
100
AcDbText
 10
157.085434
 20
156.5
 30
0.0
 40
3.0
  1
24
100
AcDbText
  0
ENDBLK
  5
5A6
100
AcDbEntity
  8
0
100
AcDbBlockEnd
  0
BLOCK
  5
5A9
100
AcDbEntity
  8
0
100
AcDbBlockBegin
  2
*B91
 70
     0
 10
0.0
 20
0.0
 30
0.0
  3
*B91
  1

  0
TEXT
  5
5AA
100
AcDbEntity
  8
TEXT
  6
Continuous
 62
     0
100
AcDbText
 10
158.785714
 20
25.5
 30
0.0
 40
3.0
  1
G 1/4"
100
AcDbText
  0
ENDBLK
  5
5AB
100
AcDbEntity
  8
0
100
AcDbBlockEnd
  0
BLOCK
  5
5AE
100
AcDbEntity
  8
0
100
AcDbBlockBegin
  2
*B92
 70
     0
 10
0.0
 20
0.0
 30
0.0
  3
*B92
  1

  0
TEXT
  5
5AF
100
AcDbEntity
  8
TEXT
  6
Continuous
 62
     0
100
AcDbText
 10
117.891071
 20
156.5
 30
0.0
 40
3.0
  1
%%c5,5
100
AcDbText
  0
ENDBLK
  5
5B0
100
AcDbEntity
  8
0
100
AcDbBlockEnd
  0
BLOCK
  5
5B3
100
AcDbEntity
  8
0
100
AcDbBlockBegin
  2
*B93
 70
     0
 10
0.0
 20
0.0
 30
0.0
  3
*B93
  1

  0
TEXT
  5
5B4
100
AcDbEntity
  8
TEXT
  6
Continuous
 62
     0
100
AcDbText
 10
184.5
 20
122.514577
 30
0.0
 40
3.0
  1
25
 50
90.0
100
AcDbText
  0
ENDBLK
  5
5B5
100
AcDbEntity
  8
0
100
AcDbBlockEnd
  0
BLOCK
  5
5B8
100
AcDbEntity
  8
0
100
AcDbBlockBegin
  2
*B94
 70
     0
 10
0.0
 20
0.0
 30
0.0
  3
*B94
  1

  0
TEXT
  5
5B9
100
AcDbEntity
  8
TEXT
  6
Continuous
 62
     0
100
AcDbText
 10
235.5
 20
122.514577
 30
0.0
 40
3.0
  1
40
 50
90.0
100
AcDbText
  0
ENDBLK
  5
5BA
100
AcDbEntity
  8
0
100
AcDbBlockEnd
  0
BLOCK
  5
5BD
100
AcDbEntity
  8
0
100
AcDbBlockBegin
  2
*B95
 70
     0
 10
0.0
 20
0.0
 30
0.0
  3
*B95
  1

  0
TEXT
  5
5BE
100
AcDbEntity
  8
TEXT
  6
Continuous
 62
     0
100
AcDbText
 10
145.085434
 20
82.5
 30
0.0
 40
3.0
  1
90
100
AcDbText
  0
ENDBLK
  5
5BF
100
AcDbEntity
  8
0
100
AcDbBlockEnd
  0
BLOCK
  5
5C2
100
AcDbEntity
  8
0
100
AcDbBlockBegin
  2
*B96
 70
     0
 10
0.0
 20
0.0
 30
0.0
  3
*B96
  1

  0
TEXT
  5
5C3
100
AcDbEntity
  8
TEXT
  6
Continuous
 62
     0
100
AcDbText
 10
214.835434
 20
181.5
 30
0.0
 40
3.0
  1
48
100
AcDbText
  0
ENDBLK
  5
5C4
100
AcDbEntity
  8
0
100
AcDbBlockEnd
  0
BLOCK
  5
5C7
100
AcDbEntity
  8
0
100
AcDbBlockBegin
  2
*B97
 70
     0
 10
0.0
 20
0.0
 30
0.0
  3
*B97
  1

  0
TEXT
  5
5C8
100
AcDbEntity
  8
TEXT
  6
Continuous
 62
     0
100
AcDbText
 10
75.335434
 20
182.5
 30
0.0
 40
3.0
  1
48
100
AcDbText
  0
ENDBLK
  5
5C9
100
AcDbEntity
  8
0
100
AcDbBlockEnd
  0
BLOCK
  5
5CC
100
AcDbEntity
  8
0
100
AcDbBlockBegin
  2
*B98
 70
     0
 10
0.0
 20
0.0
 30
0.0
  3
*B98
  1

  0
TEXT
  5
5CD
100
AcDbEntity
  8
TEXT
  6
Continuous
 62
     0
100
AcDbText
 10
127.585434
 20
94.0
 30
0.0
 40
3.0
  1
13
100
AcDbText
  0
ENDBLK
  5
5CE
100
AcDbEntity
  8
0
100
AcDbBlockEnd
  0
BLOCK
  5
5D1
100
AcDbEntity
  8
0
100
AcDbBlockBegin
  2
*B99
 70
     0
 10
0.0
 20
0.0
 30
0.0
  3
*B99
  1

  0
TEXT
  5
5D2
100
AcDbEntity
  8
TEXT
  6
Continuous
 62
     0
100
AcDbText
 10
167.014006
 20
70.5
 30
0.0
 40
3.0
  1
7
100
AcDbText
  0
ENDBLK
  5
5D3
100
AcDbEntity
  8
0
100
AcDbBlockEnd
  0
BLOCK
  5
5D6
100
AcDbEntity
  8
0
100
AcDbBlockBegin
  2
*B100
 70
     0
 10
0.0
 20
0.0
 30
0.0
  3
*B100
  1

  0
TEXT
  5
5D7
100
AcDbEntity
  8
TEXT
  6
Continuous
 62
     0
100
AcDbText
 10
44.5
 20
45.250993
 30
0.0
 40
3.0
  1
22
 50
90.0
100
AcDbText
  0
ENDBLK
  5
5D8
100
AcDbEntity
  8
0
100
AcDbBlockEnd
  0
BLOCK
  5
5DB
100
AcDbEntity
  8
0
100
AcDbBlockBegin
  2
*B101
 70
     0
 10
0.0
 20
0.0
 30
0.0
  3
*B101
  1

  0
TEXT
  5
5DC
100
AcDbEntity
  8
TEXT
  6
Continuous
 62
     0
100
AcDbText
 10
43.5
 20
136.014352
 30
0.0
 40
3.0
  1
67
 50
90.0
100
AcDbText
  0
ENDBLK
  5
5DD
100
AcDbEntity
  8
0
100
AcDbBlockEnd
  0
BLOCK
  5
5E0
100
AcDbEntity
  8
0
100
AcDbBlockBegin
  2
*B102
 70
     0
 10
0.0
 20
0.0
 30
0.0
  3
*B102
  1

  0
TEXT
  5
5E1
100
AcDbEntity
  8
TEXT
  6
Continuous
 62
     0
100
AcDbText
 10
145.085434
 20
70.5
 30
0.0
 40
3.0
  1
34
100
AcDbText
  0
ENDBLK
  5
5E2
100
AcDbEntity
  8
0
100
AcDbBlockEnd
  0
BLOCK
  5
5E5
100
AcDbEntity
  8
0
100
AcDbBlockBegin
  2
*B103
 70
     0
 10
0.0
 20
0.0
 30
0.0
  3
*B103
  1

  0
TEXT
  5
5E6
100
AcDbEntity
  8
TEXT
  6
Continuous
 62
     0
100
AcDbText
 10
137.5
 20
43.108135
 30
0.0
 40
3.0
  1
16,5
 50
90.0
100
AcDbText
  0
ENDBLK
  5
5E7
100
AcDbEntity
  8
0
100
AcDbBlockEnd
  0
ENDSEC
  0
SECTION
  2
ENTITIES
  0
INSERT
  5
21D
100
AcDbEntity
  8
0
  6
Continuous
 62
   174
100
AcDbBlockReference
  2
*B1
 10
0.0
 20
0.0
 30
0.0
  0
INSERT
  5
304
100
AcDbEntity
  8
0
  6
Continuous
 62
   174
100
AcDbBlockReference
  2
*B2
 10
0.0
 20
0.0
 30
0.0
  0
INSERT
  5
30A
100
AcDbEntity
  8
0
  6
Continuous
 62
   172
100
AcDbBlockReference
  2
*B3
 10
0.0
 20
0.0
 30
0.0
  0
INSERT
  5
315
100
AcDbEntity
  8
0
  6
Continuous
 62
   172
100
AcDbBlockReference
  2
*B4
 10
0.0
 20
0.0
 30
0.0
  0
INSERT
  5
31E
100
AcDbEntity
  8
0
  6
Continuous
 62
   172
100
AcDbBlockReference
  2
*B6
 10
0.0
 20
0.0
 30
0.0
  0
INSERT
  5
329
100
AcDbEntity
  8
0
  6
Continuous
 62
   172
100
AcDbBlockReference
  2
*B7
 10
0.0
 20
0.0
 30
0.0
  0
INSERT
  5
333
100
AcDbEntity
  8
0
  6
Continuous
 62
     0
100
AcDbBlockReference
  2
*B9
 10
0.0
 20
0.0
 30
0.0
  0
INSERT
  5
33A
100
AcDbEntity
  8
0
  6
Continuous
 62
     0
100
AcDbBlockReference
  2
*B10
 10
0.0
 20
0.0
 30
0.0
  0
INSERT
  5
341
100
AcDbEntity
  8
0
  6
Continuous
 62
     0
100
AcDbBlockReference
  2
*B11
 10
0.0
 20
0.0
 30
0.0
  0
INSERT
  5
348
100
AcDbEntity
  8
0
  6
Continuous
 62
     0
100
AcDbBlockReference
  2
*B12
 10
0.0
 20
0.0
 30
0.0
  0
INSERT
  5
34F
100
AcDbEntity
  8
0
  6
Continuous
 62
     0
100
AcDbBlockReference
  2
*B13
 10
0.0
 20
0.0
 30
0.0
  0
INSERT
  5
356
100
AcDbEntity
  8
0
  6
Continuous
 62
     0
100
AcDbBlockReference
  2
*B14
 10
0.0
 20
0.0
 30
0.0
  0
INSERT
  5
35D
100
AcDbEntity
  8
0
  6
Continuous
 62
     0
100
AcDbBlockReference
  2
*B15
 10
0.0
 20
0.0
 30
0.0
  0
INSERT
  5
364
100
AcDbEntity
  8
0
  6
Continuous
 62
     0
100
AcDbBlockReference
  2
*B16
 10
0.0
 20
0.0
 30
0.0
  0
INSERT
  5
36B
100
AcDbEntity
  8
0
  6
Continuous
 62
     0
100
AcDbBlockReference
  2
*B17
 10
0.0
 20
0.0
 30
0.0
  0
INSERT
  5
372
100
AcDbEntity
  8
0
  6
Continuous
 62
     0
100
AcDbBlockReference
  2
*B18
 10
0.0
 20
0.0
 30
0.0
  0
INSERT
  5
379
100
AcDbEntity
  8
0
  6
Continuous
 62
     0
100
AcDbBlockReference
  2
*B19
 10
0.0
 20
0.0
 30
0.0
  0
INSERT
  5
380
100
AcDbEntity
  8
0
  6
Continuous
 62
     0
100
AcDbBlockReference
  2
*B20
 10
0.0
 20
0.0
 30
0.0
  0
INSERT
  5
387
100
AcDbEntity
  8
0
  6
Continuous
 62
     0
100
AcDbBlockReference
  2
*B21
 10
0.0
 20
0.0
 30
0.0
  0
INSERT
  5
38E
100
AcDbEntity
  8
0
  6
Continuous
 62
     0
100
AcDbBlockReference
  2
*B22
 10
0.0
 20
0.0
 30
0.0
  0
INSERT
  5
395
100
AcDbEntity
  8
0
  6
Continuous
 62
     0
100
AcDbBlockReference
  2
*B23
 10
0.0
 20
0.0
 30
0.0
  0
INSERT
  5
39C
100
AcDbEntity
  8
0
  6
Continuous
 62
     0
100
AcDbBlockReference
  2
*B24
 10
0.0
 20
0.0
 30
0.0
  0
INSERT
  5
3A3
100
AcDbEntity
  8
0
  6
Continuous
 62
     8
100
AcDbBlockReference
  2
*B25
 10
0.0
 20
0.0
 30
0.0
  0
INSERT
  5
3AE
100
AcDbEntity
  8
0
  6
Continuous
 62
     8
100
AcDbBlockReference
  2
*B26
 10
0.0
 20
0.0
 30
0.0
  0
INSERT
  5
3B4
100
AcDbEntity
  8
0
  6
Continuous
 62
     8
100
AcDbBlockReference
  2
*B27
 10
0.0
 20
0.0
 30
0.0
  0
INSERT
  5
3B9
100
AcDbEntity
  8
0
  6
Continuous
 62
     8
100
AcDbBlockReference
  2
*B28
 10
0.0
 20
0.0
 30
0.0
  0
INSERT
  5
3BE
100
AcDbEntity
  8
0
  6
Continuous
 62
     8
100
AcDbBlockReference
  2
*B29
 10
0.0
 20
0.0
 30
0.0
  0
INSERT
  5
3C9
100
AcDbEntity
  8
0
  6
Continuous
 62
     8
100
AcDbBlockReference
  2
*B30
 10
0.0
 20
0.0
 30
0.0
  0
INSERT
  5
3D8
100
AcDbEntity
  8
0
  6
Continuous
 62
     8
100
AcDbBlockReference
  2
*B31
 10
0.0
 20
0.0
 30
0.0
  0
INSERT
  5
3DE
100
AcDbEntity
  8
0
  6
Continuous
 62
     8
100
AcDbBlockReference
  2
*B32
 10
0.0
 20
0.0
 30
0.0
  0
INSERT
  5
3E3
100
AcDbEntity
  8
0
  6
Continuous
 62
     8
100
AcDbBlockReference
  2
*B33
 10
0.0
 20
0.0
 30
0.0
  0
INSERT
  5
3E9
100
AcDbEntity
  8
0
  6
Continuous
 62
     8
100
AcDbBlockReference
  2
*B34
 10
0.0
 20
0.0
 30
0.0
  0
INSERT
  5
3EE
100
AcDbEntity
  8
0
  6
Continuous
 62
     8
100
AcDbBlockReference
  2
*B35
 10
0.0
 20
0.0
 30
0.0
  0
INSERT
  5
3F3
100
AcDbEntity
  8
0
  6
Continuous
 62
     8
100
AcDbBlockReference
  2
*B36
 10
0.0
 20
0.0
 30
0.0
  0
INSERT
  5
420
100
AcDbEntity
  8
0
  6
Continuous
 62
     8
100
AcDbBlockReference
  2
*B37
 10
0.0
 20
0.0
 30
0.0
  0
INSERT
  5
425
100
AcDbEntity
  8
0
  6
Continuous
 62
     8
100
AcDbBlockReference
  2
*B38
 10
0.0
 20
0.0
 30
0.0
  0
INSERT
  5
430
100
AcDbEntity
  8
0
  6
Continuous
 62
     8
100
AcDbBlockReference
  2
*B39
 10
0.0
 20
0.0
 30
0.0
  0
INSERT
  5
43F
100
AcDbEntity
  8
0
  6
Continuous
 62
     8
100
AcDbBlockReference
  2
*B40
 10
0.0
 20
0.0
 30
0.0
  0
INSERT
  5
444
100
AcDbEntity
  8
0
  6
Continuous
 62
     8
100
AcDbBlockReference
  2
*B41
 10
0.0
 20
0.0
 30
0.0
  0
INSERT
  5
449
100
AcDbEntity
  8
0
  6
Continuous
 62
     8
100
AcDbBlockReference
  2
*B42
 10
0.0
 20
0.0
 30
0.0
  0
INSERT
  5
450
100
AcDbEntity
  8
0
  6
Continuous
 62
     8
100
AcDbBlockReference
  2
*B43
 10
0.0
 20
0.0
 30
0.0
  0
INSERT
  5
455
100
AcDbEntity
  8
0
  6
Continuous
 62
     8
100
AcDbBlockReference
  2
*B44
 10
0.0
 20
0.0
 30
0.0
  0
INSERT
  5
45B
100
AcDbEntity
  8
0
  6
Continuous
 62
     8
100
AcDbBlockReference
  2
*B45
 10
0.0
 20
0.0
 30
0.0
  0
INSERT
  5
487
100
AcDbEntity
  8
0
  6
Continuous
 62
     8
100
AcDbBlockReference
  2
*B46
 10
0.0
 20
0.0
 30
0.0
  0
INSERT
  5
48C
100
AcDbEntity
  8
0
  6
Continuous
 62
     8
100
AcDbBlockReference
  2
*B47
 10
0.0
 20
0.0
 30
0.0
  0
INSERT
  5
491
100
AcDbEntity
  8
0
  6
Continuous
 62
     8
100
AcDbBlockReference
  2
*B48
 10
0.0
 20
0.0
 30
0.0
  0
INSERT
  5
496
100
AcDbEntity
  8
0
  6
Continuous
 62
     8
100
AcDbBlockReference
  2
*B49
 10
0.0
 20
0.0
 30
0.0
  0
INSERT
  5
4A5
100
AcDbEntity
  8
0
  6
Continuous
 62
     8
100
AcDbBlockReference
  2
*B50
 10
0.0
 20
0.0
 30
0.0
  0
INSERT
  5
4AB
100
AcDbEntity
  8
0
  6
Continuous
 62
     8
100
AcDbBlockReference
  2
*B51
 10
0.0
 20
0.0
 30
0.0
  0
INSERT
  5
4BA
100
AcDbEntity
  8
0
  6
Continuous
 62
     8
100
AcDbBlockReference
  2
*B52
 10
0.0
 20
0.0
 30
0.0
  0
INSERT
  5
4C5
100
AcDbEntity
  8
0
  6
Continuous
 62
     8
100
AcDbBlockReference
  2
*B53
 10
0.0
 20
0.0
 30
0.0
  0
INSERT
  5
4D0
100
AcDbEntity
  8
0
  6
Continuous
 62
     8
100
AcDbBlockReference
  2
*B54
 10
0.0
 20
0.0
 30
0.0
  0
INSERT
  5
4D5
100
AcDbEntity
  8
0
  6
Continuous
 62
     8
100
AcDbBlockReference
  2
*B55
 10
0.0
 20
0.0
 30
0.0
  0
INSERT
  5
4DB
100
AcDbEntity
  8
0
  6
Continuous
 62
     8
100
AcDbBlockReference
  2
*B56
 10
0.0
 20
0.0
 30
0.0
  0
INSERT
  5
4E1
100
AcDbEntity
  8
0
  6
Continuous
 62
     8
100
AcDbBlockReference
  2
*B57
 10
0.0
 20
0.0
 30
0.0
  0
INSERT
  5
4E7
100
AcDbEntity
  8
0
  6
Continuous
 62
     8
100
AcDbBlockReference
  2
*B58
 10
0.0
 20
0.0
 30
0.0
  0
INSERT
  5
4EC
100
AcDbEntity
  8
0
  6
Continuous
 62
     8
100
AcDbBlockReference
  2
*B59
 10
0.0
 20
0.0
 30
0.0
  0
INSERT
  5
4F9
100
AcDbEntity
  8
0
  6
Continuous
 62
     8
100
AcDbBlockReference
  2
*B60
 10
0.0
 20
0.0
 30
0.0
  0
INSERT
  5
4FE
100
AcDbEntity
  8
0
  6
Continuous
 62
     8
100
AcDbBlockReference
  2
*B61
 10
0.0
 20
0.0
 30
0.0
  0
INSERT
  5
504
100
AcDbEntity
  8
0
  6
Continuous
 62
     8
100
AcDbBlockReference
  2
*B62
 10
0.0
 20
0.0
 30
0.0
  0
INSERT
  5
50A
100
AcDbEntity
  8
0
  6
Continuous
 62
     8
100
AcDbBlockReference
  2
*B63
 10
0.0
 20
0.0
 30
0.0
  0
INSERT
  5
50F
100
AcDbEntity
  8
0
  6
Continuous
 62
     8
100
AcDbBlockReference
  2
*B64
 10
0.0
 20
0.0
 30
0.0
  0
INSERT
  5
51E
100
AcDbEntity
  8
0
  6
Continuous
 62
     8
100
AcDbBlockReference
  2
*B65
 10
0.0
 20
0.0
 30
0.0
  0
INSERT
  5
524
100
AcDbEntity
  8
0
  6
Continuous
 62
     6
100
AcDbBlockReference
  2
*B66
 10
0.0
 20
0.0
 30
0.0
  0
INSERT
  5
52A
100
AcDbEntity
  8
0
  6
Continuous
 62
     6
100
AcDbBlockReference
  2
*B67
 10
0.0
 20
0.0
 30
0.0
  0
INSERT
  5
530
100
AcDbEntity
  8
0
  6
Continuous
 62
     6
100
AcDbBlockReference
  2
*B68
 10
0.0
 20
0.0
 30
0.0
  0
INSERT
  5
536
100
AcDbEntity
  8
0
  6
Continuous
 62
     6
100
AcDbBlockReference
  2
*B69
 10
0.0
 20
0.0
 30
0.0
  0
INSERT
  5
53C
100
AcDbEntity
  8
0
  6
Continuous
 62
     6
100
AcDbBlockReference
  2
*B70
 10
0.0
 20
0.0
 30
0.0
  0
INSERT
  5
542
100
AcDbEntity
  8
0
  6
Continuous
 62
     6
100
AcDbBlockReference
  2
*B71
 10
0.0
 20
0.0
 30
0.0
  0
INSERT
  5
548
100
AcDbEntity
  8
0
  6
Continuous
 62
     6
100
AcDbBlockReference
  2
*B72
 10
0.0
 20
0.0
 30
0.0
  0
INSERT
  5
54E
100
AcDbEntity
  8
0
  6
Continuous
 62
     6
100
AcDbBlockReference
  2
*B73
 10
0.0
 20
0.0
 30
0.0
  0
INSERT
  5
554
100
AcDbEntity
  8
0
  6
Continuous
 62
     6
100
AcDbBlockReference
  2
*B74
 10
0.0
 20
0.0
 30
0.0
  0
INSERT
  5
55A
100
AcDbEntity
  8
0
  6
Continuous
 62
     6
100
AcDbBlockReference
  2
*B75
 10
0.0
 20
0.0
 30
0.0
  0
INSERT
  5
561
100
AcDbEntity
  8
0
  6
Continuous
 62
     0
100
AcDbBlockReference
  2
*B76
 10
0.0
 20
0.0
 30
0.0
  0
INSERT
  5
566
100
AcDbEntity
  8
TEXT
  6
Continuous
 62
     0
100
AcDbBlockReference
  2
*B77
 10
0.0
 20
0.0
 30
0.0
  0
INSERT
  5
56B
100
AcDbEntity
  8
TEXT
  6
Continuous
 62
     0
100
AcDbBlockReference
  2
*B78
 10
0.0
 20
0.0
 30
0.0
  0
INSERT
  5
570
100
AcDbEntity
  8
TEXT
  6
Continuous
 62
     0
100
AcDbBlockReference
  2
*B79
 10
0.0
 20
0.0
 30
0.0
  0
INSERT
  5
575
100
AcDbEntity
  8
TEXT
  6
Continuous
 62
     0
100
AcDbBlockReference
  2
*B80
 10
0.0
 20
0.0
 30
0.0
  0
INSERT
  5
57A
100
AcDbEntity
  8
TEXT
  6
Continuous
 62
     0
100
AcDbBlockReference
  2
*B81
 10
0.0
 20
0.0
 30
0.0
  0
INSERT
  5
57F
100
AcDbEntity
  8
TEXT
  6
Continuous
 62
     0
100
AcDbBlockReference
  2
*B82
 10
0.0
 20
0.0
 30
0.0
  0
INSERT
  5
584
100
AcDbEntity
  8
TEXT
  6
Continuous
 62
     0
100
AcDbBlockReference
  2
*B83
 10
0.0
 20
0.0
 30
0.0
  0
INSERT
  5
589
100
AcDbEntity
  8
TEXT
  6
Continuous
 62
     0
100
AcDbBlockReference
  2
*B84
 10
0.0
 20
0.0
 30
0.0
  0
INSERT
  5
58E
100
AcDbEntity
  8
TEXT
  6
Continuous
 62
     0
100
AcDbBlockReference
  2
*B85
 10
0.0
 20
0.0
 30
0.0
  0
INSERT
  5
593
100
AcDbEntity
  8
TEXT
  6
Continuous
 62
     0
100
AcDbBlockReference
  2
*B86
 10
0.0
 20
0.0
 30
0.0
  0
INSERT
  5
598
100
AcDbEntity
  8
TEXT
  6
Continuous
 62
     0
100
AcDbBlockReference
  2
*B87
 10
0.0
 20
0.0
 30
0.0
  0
INSERT
  5
59D
100
AcDbEntity
  8
TEXT
  6
Continuous
 62
     0
100
AcDbBlockReference
  2
*B88
 10
0.0
 20
0.0
 30
0.0
  0
INSERT
  5
5A2
100
AcDbEntity
  8
TEXT
  6
Continuous
 62
     0
100
AcDbBlockReference
  2
*B89
 10
0.0
 20
0.0
 30
0.0
  0
INSERT
  5
5A7
100
AcDbEntity
  8
TEXT
  6
Continuous
 62
     0
100
AcDbBlockReference
  2
*B90
 10
0.0
 20
0.0
 30
0.0
  0
INSERT
  5
5AC
100
AcDbEntity
  8
TEXT
  6
Continuous
 62
     0
100
AcDbBlockReference
  2
*B91
 10
0.0
 20
0.0
 30
0.0
  0
INSERT
  5
5B1
100
AcDbEntity
  8
TEXT
  6
Continuous
 62
     0
100
AcDbBlockReference
  2
*B92
 10
0.0
 20
0.0
 30
0.0
  0
INSERT
  5
5B6
100
AcDbEntity
  8
TEXT
  6
Continuous
 62
     0
100
AcDbBlockReference
  2
*B93
 10
0.0
 20
0.0
 30
0.0
  0
INSERT
  5
5BB
100
AcDbEntity
  8
TEXT
  6
Continuous
 62
     0
100
AcDbBlockReference
  2
*B94
 10
0.0
 20
0.0
 30
0.0
  0
INSERT
  5
5C0
100
AcDbEntity
  8
TEXT
  6
Continuous
 62
     0
100
AcDbBlockReference
  2
*B95
 10
0.0
 20
0.0
 30
0.0
  0
INSERT
  5
5C5
100
AcDbEntity
  8
TEXT
  6
Continuous
 62
     0
100
AcDbBlockReference
  2
*B96
 10
0.0
 20
0.0
 30
0.0
  0
INSERT
  5
5CA
100
AcDbEntity
  8
TEXT
  6
Continuous
 62
     0
100
AcDbBlockReference
  2
*B97
 10
0.0
 20
0.0
 30
0.0
  0
INSERT
  5
5CF
100
AcDbEntity
  8
TEXT
  6
Continuous
 62
     0
100
AcDbBlockReference
  2
*B98
 10
0.0
 20
0.0
 30
0.0
  0
INSERT
  5
5D4
100
AcDbEntity
  8
TEXT
  6
Continuous
 62
     0
100
AcDbBlockReference
  2
*B99
 10
0.0
 20
0.0
 30
0.0
  0
INSERT
  5
5D9
100
AcDbEntity
  8
TEXT
  6
Continuous
 62
     0
100
AcDbBlockReference
  2
*B100
 10
0.0
 20
0.0
 30
0.0
  0
INSERT
  5
5DE
100
AcDbEntity
  8
TEXT
  6
Continuous
 62
     0
100
AcDbBlockReference
  2
*B101
 10
0.0
 20
0.0
 30
0.0
  0
INSERT
  5
5E3
100
AcDbEntity
  8
TEXT
  6
Continuous
 62
     0
100
AcDbBlockReference
  2
*B102
 10
0.0
 20
0.0
 30
0.0
  0
INSERT
  5
5E8
100
AcDbEntity
  8
TEXT
  6
Continuous
 62
     0
100
AcDbBlockReference
  2
*B103
 10
0.0
 20
0.0
 30
0.0
  0
ENDSEC
  0
SECTION
  2
OBJECTS
  0
DICTIONARY
  5
19
100
AcDbDictionary
280
     0
281
     1
  3
ACAD_GROUP
350
1A
  3
ACAD_MLINESTYLE
350
1B
  3
ACAD_LAYOUT
350
1E
  3
ACAD_PLOTSETTINGS
350
22
  3
ACAD_PLOTSTYLENAME
350
1F
  3
ACAD_WIPEOUT_VARS
350
23
  0
DICTIONARY
  5
1A
102
{ACAD_REACTORS
330
19
102
}
100
AcDbDictionary
280
     0
281
     1
  0
DICTIONARY
  5
1B
102
{ACAD_REACTORS
330
19
102
}
100
AcDbDictionary
280
     0
281
     1
  3
Standard
350
1C
  0
MLINESTYLE
  5
1C
102
{ACAD_REACTORS
330
1B
102
}
100
AcDbMlineStyle
  2
Standard
 70
     0
  3

 62
     0
 51
90.0
 52
90.0
 71
     2
 49
0.5
 62
   256
  6
BYLAYER
 49
-0.5
 62
   256
  6
BYLAYER
  0
ACDBDICTIONARYWDFLT
  5
1F
102
{ACAD_REACTORS
330
19
102
}
100
AcDbDictionary
281
     1
  3
Normal
350
1D
100
AcDbDictionaryWithDefault
340
1D
  0
ACDBPLACEHOLDER
  5
1D
102
{ACAD_REACTORS
330
1F
102
}
  0
LAYOUT
  5
20
102
{ACAD_REACTORS
330
1E
102
}
100
AcDbPlotSettings
  1

  2

  4

  6

 40
0.0
 41
0.0
 42
0.0
 43
0.0
 44
0.0
 45
0.0
 46
0.0
 47
0.0
 48
0.0
 49
0.0
140
0.0
141
0.0
142
1.0
143
1.0
 70
     0
 72
     0
 73
     0
 74
     0
  7

 75
     0
147
1.0
148
0.0
149
0.0
100
AcDbLayout
  1
Model
 70
     0
 71
     0
 10
0.0
 20
0.0
 11
0.0
 21
0.0
 12
0.0
 22
0.0
 32
0.0
 14
0.0
 24
0.0
 34
0.0
 15
0.0
 25
0.0
 35
0.0
146
0.0
 13
0.0
 23
0.0
 33
0.0
 16
0.0
 26
0.0
 36
0.0
 17
0.0
 27
0.0
 37
0.0
 76
     0
330
A
331
0
345
0
346
0
  0
LAYOUT
  5
21
102
{ACAD_REACTORS
330
1E
102
}
100
AcDbPlotSettings
  1

  2

  4

  6

 40
0.0
 41
0.0
 42
0.0
 43
0.0
 44
0.0
 45
0.0
 46
0.0
 47
0.0
 48
0.0
 49
0.0
140
0.0
141
0.0
142
1.0
143
1.0
 70
     0
 72
     0
 73
     0
 74
     0
  7

 75
     0
147
1.0
148
0.0
149
0.0
100
AcDbLayout
  1
Layout1
 70
     0
 71
     0
 10
0.0
 20
0.0
 11
0.0
 21
0.0
 12
0.0
 22
0.0
 32
0.0
 14
0.0
 24
0.0
 34
0.0
 15
0.0
 25
0.0
 35
0.0
146
0.0
 13
0.0
 23
0.0
 33
0.0
 16
0.0
 26
0.0
 36
0.0
 17
0.0
 27
0.0
 37
0.0
 76
     0
330
B
331
0
345
0
346
0
  0
DICTIONARY
  5
1E
102
{ACAD_REACTORS
330
19
102
}
100
AcDbDictionary
280
     0
281
     1
  3
Layout1
350
21
  3
Model
350
20
  0
DICTIONARY
  5
22
102
{ACAD_REACTORS
330
19
102
}
100
AcDbDictionary
280
     0
281
     1
  0
WIPEOUTVARIABLES
  5
23
100
AcDbWipeoutVariables
 70
     1
  0
ENDSEC
  0
EOF
