  0
SECTION
  2
HEADER
  9
$ACADVER
  1
AC1015
  9
$ACADMAINTVER
 70
     6
  9
$DWGCODEPAGE
  3
DOS850
  9
$INSBASE
 10
0.0
 20
0.0
 30
0.0
  9
$EXTMIN
 10
0.0
 20
0.0
 30
0.0
  9
$EXTMAX
 10
420.0
 20
297.0
 30
0.0
  9
$LIMMIN
 10
0.0
 20
0.0
  9
$LIMMAX
 10
420.0
 20
297.0
  9
$ORTHOMODE
 70
     0
  9
$REGENMODE
 70
     1
  9
$FILLMODE
 70
     1
  9
$QTEXTMODE
 70
     0
  9
$MIRRTEXT
 70
     1
  9
$LTSCALE
 40
25.4
  9
$ATTMODE
 70
     1
  9
$TEXTSIZE
 40
3.5
  9
$TRACEWID
 40
0.05
  9
$TEXTSTYLE
  7
Standard
  9
$CLAYER
  8
0
  9
$CELTYPE
  6
Continuous
  9
$CECOLOR
 62
   256
  9
$CELTSCALE
 40
1.0
  9
$DISPSILH
 70
     0
  9
$DIMSCALE
 40
1.0
  9
$DIMASZ
 40
5.0
  9
$DIMEXO
 40
3.0
  9
$DIMDLI
 40
0.38
  9
$DIMRND
 40
0.0
  9
$DIMDLE
 40
0.0
  9
$DIMEXE
 40
2.0
  9
$DIMTP
 40
0.0
  9
$DIMTM
 40
0.0
  9
$DIMTXT
 40
3.5
  9
$DIMCEN
 40
4.0
  9
$DIMTSZ
 40
0.0
  9
$DIMTOL
 70
     0
  9
$DIMLIM
 70
     0
  9
$DIMTIH
 70
     1
  9
$DIMTOH
 70
     1
  9
$DIMSE1
 70
     0
  9
$DIMSE2
 70
     0
  9
$DIMTAD
 70
     0
  9
$DIMZIN
 70
     0
  9
$DIMBLK
  1

  9
$DIMASO
 70
     1
  9
$DIMSHO
 70
     1
  9
$DIMPOST
  1

  9
$DIMAPOST
  1

  9
$DIMALT
 70
     0
  9
$DIMALTD
 70
     2
  9
$DIMALTF
 40
25.4
  9
$DIMLFAC
 40
1.0
  9
$DIMTOFL
 70
     0
  9
$DIMTVP
 40
0.0
  9
$DIMTIX
 70
     0
  9
$DIMSOXD
 70
     0
  9
$DIMSAH
 70
     0
  9
$DIMBLK1
  1

  9
$DIMBLK2
  1

  9
$DIMSTYLE
  2
Standard
  9
$DIMCLRD
 70
     0
  9
$DIMCLRE
 70
     0
  9
$DIMCLRT
 70
     0
  9
$DIMTFAC
 40
1.0
  9
$DIMGAP
 40
1.0
  9
$DIMJUST
 70
     0
  9
$DIMSD1
 70
     0
  9
$DIMSD2
 70
     0
  9
$DIMTOLJ
 70
     1
  9
$DIMTZIN
 70
     0
  9
$DIMALTZ
 70
     0
  9
$DIMALTTZ
 70
     0
  9
$DIMUPT
 70
     0
  9
$DIMDEC
 70
     4
  9
$DIMTDEC
 70
     4
  9
$DIMALTU
 70
     2
  9
$DIMALTTD
 70
     2
  9
$DIMTXSTY
  7
Standard
  9
$DIMAUNIT
 70
     0
  9
$DIMADEC
 70
     0
  9
$DIMALTRND
 40
0.0
  9
$DIMAZIN
 70
     0
  9
$DIMDSEP
 70
     0
  9
$DIMATFIT
 70
     3
  9
$DIMFRAC
 70
     0
  9
$DIMLDRBLK
  1

  9
$DIMLUNIT
 70
     2
  9
$DIMLWD
 70
     0
  9
$DIMLWE
 70
     0
  9
$DIMTMOVE
 70
     0
  9
$LUNITS
 70
     2
  9
$LUPREC
 70
     4
  9
$SKETCHINC
 40
0.1
  9
$FILLETRAD
 40
0.0
  9
$AUNITS
 70
     0
  9
$AUPREC
 70
     0
  9
$MENU
  1
acad
  9
$ELEVATION
 40
0.0
  9
$PELEVATION
 40
0.0
  9
$THICKNESS
 40
0.0
  9
$LIMCHECK
 70
     0
  9
$CHAMFERA
 40
0.0
  9
$CHAMFERB
 40
0.0
  9
$CHAMFERC
 40
0.0
  9
$CHAMFERD
 40
0.0
  9
$SKPOLY
 70
     0
  9
$TDCREATE
 40
0.000000000
  9
$TDUCREATE
 40
0.000000000
  9
$TDUPDATE
 40
0.000000000
  9
$TDUUPDATE
 40
0.000000000
  9
$TDINDWG
 40
0.0000000000
  9
$TDUSRTIMER
 40
0.0000000000
  9
$USRTIMER
 70
     1
  9
$ANGBASE
 50
0.0
  9
$ANGDIR
 70
     0
  9
$PDMODE
 70
     0
  9
$PDSIZE
 40
0.0
  9
$PLINEWID
 40
0.0
  9
$SPLFRAME
 70
     0
  9
$SPLINETYPE
 70
     6
  9
$SPLINESEGS
 70
     8
  9
$HANDSEED
  5
3E5
  9
$SURFTAB1
 70
     6
  9
$SURFTAB2
 70
     6
  9
$SURFTYPE
 70
     6
  9
$SURFU
 70
     6
  9
$SURFV
 70
     6
  9
$UCSBASE
  2

  9
$UCSNAME
  2

  9
$UCSORG
 10
0.0
 20
0.0
 30
0.0
  9
$UCSXDIR
 10
1.0
 20
0.0
 30
0.0
  9
$UCSYDIR
 10
0.0
 20
1.0
 30
0.0
  9
$UCSORTHOREF
  2

  9
$UCSORTHOVIEW
 70
     0
  9
$UCSORGTOP
 10
0.0
 20
0.0
 30
0.0
  9
$UCSORGBOTTOM
 10
0.0
 20
0.0
 30
0.0
  9
$UCSORGLEFT
 10
0.0
 20
0.0
 30
0.0
  9
$UCSORGRIGHT
 10
0.0
 20
0.0
 30
0.0
  9
$UCSORGFRONT
 10
0.0
 20
0.0
 30
0.0
  9
$UCSORGBACK
 10
0.0
 20
0.0
 30
0.0
  9
$PUCSBASE
  2

  9
$PUCSNAME
  2

  9
$PUCSORG
 10
0.0
 20
0.0
 30
0.0
  9
$PUCSXDIR
 10
1.0
 20
0.0
 30
0.0
  9
$PUCSYDIR
 10
0.0
 20
1.0
 30
0.0
  9
$PUCSORTHOREF
  2

  9
$PUCSORTHOVIEW
 70
     0
  9
$PUCSORGTOP
 10
0.0
 20
0.0
 30
0.0
  9
$PUCSORGBOTTOM
 10
0.0
 20
0.0
 30
0.0
  9
$PUCSORGLEFT
 10
0.0
 20
0.0
 30
0.0
  9
$PUCSORGRIGHT
 10
0.0
 20
0.0
 30
0.0
  9
$PUCSORGFRONT
 10
0.0
 20
0.0
 30
0.0
  9
$PUCSORGBACK
 10
0.0
 20
0.0
 30
0.0
  9
$USERI1
 70
     0
  9
$USERI2
 70
     0
  9
$USERI3
 70
     0
  9
$USERI4
 70
     0
  9
$USERI5
 70
     0
  9
$USERR1
 40
0.0
  9
$USERR2
 40
0.0
  9
$USERR3
 40
0.0
  9
$USERR4
 40
0.0
  9
$USERR5
 40
0.0
  9
$WORLDVIEW
 70
     1
  9
$SHADEDGE
 70
     3
  9
$SHADEDIF
 70
    70
  9
$TILEMODE
 70
     1
  9
$MAXACTVP
 70
    16
  9
$PINSBASE
 10
0.0
 20
0.0
 30
0.0
  9
$PLIMCHECK
 70
     0
  9
$PEXTMIN
 10
1.000000E+20
 20
1.000000E+20
 30
1.000000E+20
  9
$PEXTMAX
 10
-1.000000E+20
 20
-1.000000E+20
 30
-1.000000E+20
  9
$PLIMMIN
 10
0.0
 20
0.0
  9
$PLIMMAX
 10
420.0
 20
297.0
  9
$UNITMODE
 70
     0
  9
$VISRETAIN
 70
     0
  9
$PLINEGEN
 70
     1
  9
$PSLTSCALE
 70
     0
  9
$TREEDEPTH
 70
  3020
  9
$CMLSTYLE
  2
Standard
  9
$CMLJUST
 70
     0
  9
$CMLSCALE
 40
1.0
  9
$PROXYGRAPHICS
 70
     0
  9
$MEASUREMENT
 70
     0
  9
$CELWEIGHT
370
     0
  9
$ENDCAPS
280
     0
  9
$JOINSTYLE
280
     0
  9
$LWDISPLAY
290
     0
  9
$INSUNITS
 70
     0
  9
$HYPERLINKBASE
  1

  9
$XEDIT
290
     1
  9
$CEPSNTYPE
380
     0
  9
$PSTYLEMODE
290
     0
  9
$FINGERPRINTGUID
  2

  9
$VERSIONGUID
  2

  9
$EXTNAMES
290
     1
  9
$PSVPSCALE
 40
0.0
  0
ENDSEC
  0
SECTION
  2
CLASSES
  0
CLASS
  1
LWPOLYLINE
  2
AcDbPolyline
  3
"AutoCAD"
 90
        0
280
     0
281
     1
  0
CLASS
  1
IMAGE
  2
AcDbRasterImage
  3
ISM
 90
      127
280
     0
281
     1
  0
CLASS
  1
OLE2FRAME
  2
AcDbOle2Frame
  3
""
 90
        0
280
     0
281
     1
  0
CLASS
  1
HATCH
  2
AcDbHatch
  3
"ACAD_SEDONA"
 90
        0
280
     0
281
     1
  0
CLASS
  1
DICTIONARYVAR
  2
AcDbDictionaryVar
  3
"AutoCAD"
 90
        0
280
     0
281
     0
  0
CLASS
  1
RASTERVARIABLES
  2
AcDbRasterVariables
  3
ISM
 90
        0
280
     0
281
     0
  0
CLASS
  1
IMAGEDEF
  2
AcDbRasterImageDef
  3
ISM
 90
        0
280
     0
281
     0
  0
CLASS
  1
IMAGEDEF_REACTOR
  2
AcDbRasterImageDefReactor
  3
ISM
 90
        1
280
     0
281
     0
  0
CLASS
  1
IDBUFFER
  2
AcDbIdBuffer
  3
"Acad"
 90
        0
280
     0
281
     0
  0
CLASS
  1
SPATIAL_FILTER
  2
AcDbSpatialFilter
  3
"Acad"
 90
        0
280
     0
281
     0
  0
CLASS
  1
XRECORD
  2
AcDbXrecord
  3
"<Built In>"
 90
        0
280
     0
281
     0
  0
CLASS
  1
SORTENTSTABLE
  2
AcDbSortentsTable
  3
"AutoCAD"
 90
        0
280
     0
281
     0
  0
CLASS
  1
LAYER_INDEX
  2
AcDbLayerIndex
  3
"Acad"
 90
        0
280
     0
281
     0
  0
CLASS
  1
SPATIAL_INDEX
  2
AcDbSpatialIndex
  3
"Acad"
 90
        0
280
     0
281
     0
  0
CLASS
  1
OBJECT_PTR
  2
CAseDLPNTableRecord
  3
"ASE-LPNTableRecord"
 90
        1
280
     0
281
     0
  0
CLASS
  1
LAYOUT
  2
AcDbLayout
  3
"AutoCAD 2000"
 90
        1
280
     0
281
     0
  0
CLASS
  1
PLOTSETTINGS
  2
AcDbPlotSettings
  3
"AutoCAD 2000"
 90
        1
280
     0
281
     0
  0
CLASS
  1
ACDBDICTIONARYWDFLT
  2
AcDbDictionaryWithDefault
  3
"AutoCAD 2000"
 90
        1
280
     0
281
     0
  0
CLASS
  1
ACDBPLACEHOLDER
  2
AcDbPlaceHolder
  3
"AutoCAD 2000"
 90
        1
280
     0
281
     0
  0
CLASS
  1
VBA_PROJECT
  2
AcDbVbaProject
  3
"acadvba"
 90
        1
280
     0
281
     0
  0
CLASS
  1
WIPEOUT
  2
AcDbWipeout
  3
WipeOut|AutoCAD Express Tool|expresstools@autodesk.com
 90
      127
280
     0
281
     1
  0
CLASS
  1
WIPEOUTVARIABLES
  2
AcDbWipeoutVariables
  3
WipeOut|AutoCAD Express Tool|expresstools@autodesk.com
 90
        0
280
     0
281
     0
  0
CLASS
  1
RTEXT
  2
RText
  3
RText|AutoCAD Express Tool|expresstools@autodesk.com
 90
        0
280
     0
281
     1
  0
CLASS
  1
ARCALIGNEDTEXT
  2
AcDbArcAlignedText
  3
ATEXT|AutoCAD Express Tool|expresstools@autodesk.com
 90
        0
280
     0
281
     1
  0
ENDSEC
  0
SECTION
  2
TABLES
  0
TABLE
  2
VPORT
  5
7
100
AcDbSymbolTable
 70
     1
  0
VPORT
  5
15
100
AcDbSymbolTableRecord
100
AcDbViewportTableRecord
  2
*ACTIVE
 70
     0
 10
0.0
 20
0.0
 11
1.0
 21
1.0
 12
6.591288
 22
4.579184
 13
0.0
 23
0.0
 14
1.0
 24
1.0
 15
0.0
 25
0.0
 16
0.0
 26
0.0
 36
1.0
 17
0.0
 27
0.0
 37
0.0
 40
9.158369
 41
0.688564
 42
50.0
 43
0.0
 44
0.0
 50
0.0
 51
0.0
 71
     0
 72
   100
 73
     1
 74
     1
 75
     0
 76
     0
 77
     0
 78
     0
281
     0
 65
     0
110
0.0
120
0.0
130
0.0
111
1.0
121
0.0
131
0.0
112
0.0
122
1.0
132
0.0
345
0
346
0
 79
     0
146
0.0
  0
ENDTAB
  0
TABLE
  2
LTYPE
  5
4
100
AcDbSymbolTable
 70
     7
  0
LTYPE
  5
11
100
AcDbSymbolTableRecord
100
AcDbLinetypeTableRecord
  2
ByBlock
 70
    64
  3

 72
    65
 73
     0
 40
0.0
  0
LTYPE
  5
12
100
AcDbSymbolTableRecord
100
AcDbLinetypeTableRecord
  2
ByLayer
 70
    64
  3

 72
    65
 73
     0
 40
0.0
  0
LTYPE
  5
13
100
AcDbSymbolTableRecord
100
AcDbLinetypeTableRecord
  2
Continuous
 70
    64
  3
Solid line
 72
    65
 73
     0
 40
0.0
  0
LTYPE
  5
24
100
AcDbSymbolTableRecord
100
AcDbLinetypeTableRecord
  2
HIDDEN
 70
    64
  3
_ _ _ _ _ _ _ _ _ _ _ _ _ _ _ _ _ _ _ _ _ _ _ _
 72
    65
 73
     2
 40
0.1875
 49
0.125
 74
     0
 49
-0.0625
 74
     0
  0
LTYPE
  5
25
100
AcDbSymbolTableRecord
100
AcDbLinetypeTableRecord
  2
DOTTED
 70
    64
  3
...............................................
 72
    65
 73
     2
 40
0.125
 49
0.0
 74
     0
 49
-0.125
 74
     0
  0
LTYPE
  5
26
100
AcDbSymbolTableRecord
100
AcDbLinetypeTableRecord
  2
CENTER
 70
    64
  3
____ _ ____ _ ____ _ ____ _ ____ _ ____ _ ____ 
 72
    65
 73
     4
 40
1.125
 49
0.75
 74
     0
 49
-0.125
 74
     0
 49
0.125
 74
     0
 49
-0.125
 74
     0
  0
LTYPE
  5
27
100
AcDbSymbolTableRecord
100
AcDbLinetypeTableRecord
  2
PHANTOM
 70
    64
  3
______  __  __  ______  __  __  ______  __  __ 
 72
    65
 73
     6
 40
1.25
 49
0.625
 74
     0
 49
-0.125
 74
     0
 49
0.125
 74
     0
 49
-0.125
 74
     0
 49
0.125
 74
     0
 49
-0.125
 74
     0
  0
ENDTAB
  0
TABLE
  2
LAYER
  5
2
100
AcDbSymbolTable
 70
     2
  0
LAYER
  5
14
100
AcDbSymbolTableRecord
100
AcDbLayerTableRecord
  2
0
 70
     0
 62
     7
  6
Continuous
290
     1
370
    -3
390
1D
  0
LAYER
  5
28
100
AcDbSymbolTableRecord
100
AcDbLayerTableRecord
  2
TEXT
 70
     0
 62
     8
  6
Continuous
290
     1
370
    -3
390
1F
  0
ENDTAB
  0
TABLE
  2
STYLE
  5
3
100
AcDbSymbolTable
 70
     1
  0
STYLE
  5
17
100
AcDbSymbolTableRecord
100
AcDbTextStyleTableRecord
  2
Standard
 70
     0
 40
0.0
 41
1.0
 50
0.0
 71
     0
 42
0.0
  3
txt
  4

  0
ENDTAB
  0
TABLE
  2
VIEW
  5
5
100
AcDbSymbolTable
 70
     0
  0
ENDTAB
  0
TABLE
  2
UCS
  5
6
100
AcDbSymbolTable
 70
     0
  0
ENDTAB
  0
TABLE
  2
APPID
  5
8
100
AcDbSymbolTable
 70
     1
  0
APPID
  5
16
100
AcDbSymbolTableRecord
100
AcDbRegAppTableRecord
  2
ACAD
 70
     0
  0
ENDTAB
  0
TABLE
  2
DIMSTYLE
  5
9
100
AcDbSymbolTable
 70
     1
100
AcDbDimStyleTable
 71
     0
  0
DIMSTYLE
105
18
100
AcDbSymbolTableRecord
100
AcDbDimStyleTableRecord
  2
Standard
 70
     0
  3

  4

 40
1.0
 41
0.18
 42
0.0625
 43
0.38
 44
0.18
 45
0.0
 46
0.0
 47
0.0
 48
0.0
 71
     0
 72
     0
 73
     1
 74
     1
 75
     0
 76
     0
 77
     0
 78
     0
 79
     0
140
0.18
141
0.09
142
0.0
143
25.4
144
1.0
145
0.0
146
1.0
147
0.09
148
0.0
170
     0
171
     2
172
     0
173
     0
174
     0
175
     0
176
     0
177
     0
178
     0
179
     0
271
     4
272
     4
273
     2
274
     2
275
     0
276
     0
277
     2
278
    46
279
     0
280
     0
281
     0
282
     0
283
     1
284
     0
285
     0
286
     0
288
     0
340
17
341
0
342
0
343
0
344
0
371
    -2
372
    -2
  0
ENDTAB
  0
TABLE
  2
BLOCK_RECORD
  5
1
100
AcDbSymbolTable
 70
    85
  0
BLOCK_RECORD
  5
A
100
AcDbSymbolTableRecord
100
AcDbBlockTableRecord
  2
*MODEL_SPACE
340
20
  0
BLOCK_RECORD
  5
B
100
AcDbSymbolTableRecord
100
AcDbBlockTableRecord
  2
*PAPER_SPACE
340
21
  0
BLOCK_RECORD
  5
29
100
AcDbSymbolTableRecord
100
AcDbBlockTableRecord
  2
*B0
340
0
  0
BLOCK_RECORD
  5
2C
100
AcDbSymbolTableRecord
100
AcDbBlockTableRecord
  2
*B1
340
0
  0
BLOCK_RECORD
  5
11E
100
AcDbSymbolTableRecord
100
AcDbBlockTableRecord
  2
*B2
340
0
  0
BLOCK_RECORD
  5
194
100
AcDbSymbolTableRecord
100
AcDbBlockTableRecord
  2
*B3
340
0
  0
BLOCK_RECORD
  5
19A
100
AcDbSymbolTableRecord
100
AcDbBlockTableRecord
  2
*B4
340
0
  0
BLOCK_RECORD
  5
1A5
100
AcDbSymbolTableRecord
100
AcDbBlockTableRecord
  2
*B5
340
0
  0
BLOCK_RECORD
  5
1A8
100
AcDbSymbolTableRecord
100
AcDbBlockTableRecord
  2
*B6
340
0
  0
BLOCK_RECORD
  5
1AF
100
AcDbSymbolTableRecord
100
AcDbBlockTableRecord
  2
*B7
340
0
  0
BLOCK_RECORD
  5
1B6
100
AcDbSymbolTableRecord
100
AcDbBlockTableRecord
  2
*B8
340
0
  0
BLOCK_RECORD
  5
1BD
100
AcDbSymbolTableRecord
100
AcDbBlockTableRecord
  2
*B9
340
0
  0
BLOCK_RECORD
  5
1C4
100
AcDbSymbolTableRecord
100
AcDbBlockTableRecord
  2
*B10
340
0
  0
BLOCK_RECORD
  5
1CB
100
AcDbSymbolTableRecord
100
AcDbBlockTableRecord
  2
*B11
340
0
  0
BLOCK_RECORD
  5
1D2
100
AcDbSymbolTableRecord
100
AcDbBlockTableRecord
  2
*B12
340
0
  0
BLOCK_RECORD
  5
1D9
100
AcDbSymbolTableRecord
100
AcDbBlockTableRecord
  2
*B13
340
0
  0
BLOCK_RECORD
  5
1E0
100
AcDbSymbolTableRecord
100
AcDbBlockTableRecord
  2
*B14
340
0
  0
BLOCK_RECORD
  5
1E7
100
AcDbSymbolTableRecord
100
AcDbBlockTableRecord
  2
*B15
340
0
  0
BLOCK_RECORD
  5
1EE
100
AcDbSymbolTableRecord
100
AcDbBlockTableRecord
  2
*B16
340
0
  0
BLOCK_RECORD
  5
1F5
100
AcDbSymbolTableRecord
100
AcDbBlockTableRecord
  2
*B17
340
0
  0
BLOCK_RECORD
  5
1FC
100
AcDbSymbolTableRecord
100
AcDbBlockTableRecord
  2
*B18
340
0
  0
BLOCK_RECORD
  5
203
100
AcDbSymbolTableRecord
100
AcDbBlockTableRecord
  2
*B19
340
0
  0
BLOCK_RECORD
  5
20A
100
AcDbSymbolTableRecord
100
AcDbBlockTableRecord
  2
*B20
340
0
  0
BLOCK_RECORD
  5
211
100
AcDbSymbolTableRecord
100
AcDbBlockTableRecord
  2
*B21
340
0
  0
BLOCK_RECORD
  5
216
100
AcDbSymbolTableRecord
100
AcDbBlockTableRecord
  2
*B22
340
0
  0
BLOCK_RECORD
  5
21B
100
AcDbSymbolTableRecord
100
AcDbBlockTableRecord
  2
*B23
340
0
  0
BLOCK_RECORD
  5
22F
100
AcDbSymbolTableRecord
100
AcDbBlockTableRecord
  2
*B24
340
0
  0
BLOCK_RECORD
  5
234
100
AcDbSymbolTableRecord
100
AcDbBlockTableRecord
  2
*B25
340
0
  0
BLOCK_RECORD
  5
23C
100
AcDbSymbolTableRecord
100
AcDbBlockTableRecord
  2
*B26
340
0
  0
BLOCK_RECORD
  5
242
100
AcDbSymbolTableRecord
100
AcDbBlockTableRecord
  2
*B27
340
0
  0
BLOCK_RECORD
  5
248
100
AcDbSymbolTableRecord
100
AcDbBlockTableRecord
  2
*B28
340
0
  0
BLOCK_RECORD
  5
255
100
AcDbSymbolTableRecord
100
AcDbBlockTableRecord
  2
*B29
340
0
  0
BLOCK_RECORD
  5
274
100
AcDbSymbolTableRecord
100
AcDbBlockTableRecord
  2
*B30
340
0
  0
BLOCK_RECORD
  5
27F
100
AcDbSymbolTableRecord
100
AcDbBlockTableRecord
  2
*B31
340
0
  0
BLOCK_RECORD
  5
284
100
AcDbSymbolTableRecord
100
AcDbBlockTableRecord
  2
*B32
340
0
  0
BLOCK_RECORD
  5
28A
100
AcDbSymbolTableRecord
100
AcDbBlockTableRecord
  2
*B33
340
0
  0
BLOCK_RECORD
  5
28F
100
AcDbSymbolTableRecord
100
AcDbBlockTableRecord
  2
*B34
340
0
  0
BLOCK_RECORD
  5
2A1
100
AcDbSymbolTableRecord
100
AcDbBlockTableRecord
  2
*B35
340
0
  0
BLOCK_RECORD
  5
2A8
100
AcDbSymbolTableRecord
100
AcDbBlockTableRecord
  2
*B36
340
0
  0
BLOCK_RECORD
  5
2AD
100
AcDbSymbolTableRecord
100
AcDbBlockTableRecord
  2
*B37
340
0
  0
BLOCK_RECORD
  5
2B3
100
AcDbSymbolTableRecord
100
AcDbBlockTableRecord
  2
*B38
340
0
  0
BLOCK_RECORD
  5
2B8
100
AcDbSymbolTableRecord
100
AcDbBlockTableRecord
  2
*B39
340
0
  0
BLOCK_RECORD
  5
2BD
100
AcDbSymbolTableRecord
100
AcDbBlockTableRecord
  2
*B40
340
0
  0
BLOCK_RECORD
  5
2D1
100
AcDbSymbolTableRecord
100
AcDbBlockTableRecord
  2
*B41
340
0
  0
BLOCK_RECORD
  5
2D7
100
AcDbSymbolTableRecord
100
AcDbBlockTableRecord
  2
*B42
340
0
  0
BLOCK_RECORD
  5
2E6
100
AcDbSymbolTableRecord
100
AcDbBlockTableRecord
  2
*B43
340
0
  0
BLOCK_RECORD
  5
2EC
100
AcDbSymbolTableRecord
100
AcDbBlockTableRecord
  2
*B44
340
0
  0
BLOCK_RECORD
  5
2F2
100
AcDbSymbolTableRecord
100
AcDbBlockTableRecord
  2
*B45
340
0
  0
BLOCK_RECORD
  5
2F7
100
AcDbSymbolTableRecord
100
AcDbBlockTableRecord
  2
*B46
340
0
  0
BLOCK_RECORD
  5
306
100
AcDbSymbolTableRecord
100
AcDbBlockTableRecord
  2
*B47
340
0
  0
BLOCK_RECORD
  5
30C
100
AcDbSymbolTableRecord
100
AcDbBlockTableRecord
  2
*B48
340
0
  0
BLOCK_RECORD
  5
311
100
AcDbSymbolTableRecord
100
AcDbBlockTableRecord
  2
*B49
340
0
  0
BLOCK_RECORD
  5
32C
100
AcDbSymbolTableRecord
100
AcDbBlockTableRecord
  2
*B50
340
0
  0
BLOCK_RECORD
  5
332
100
AcDbSymbolTableRecord
100
AcDbBlockTableRecord
  2
*B51
340
0
  0
BLOCK_RECORD
  5
338
100
AcDbSymbolTableRecord
100
AcDbBlockTableRecord
  2
*B52
340
0
  0
BLOCK_RECORD
  5
33D
100
AcDbSymbolTableRecord
100
AcDbBlockTableRecord
  2
*B53
340
0
  0
BLOCK_RECORD
  5
343
100
AcDbSymbolTableRecord
100
AcDbBlockTableRecord
  2
*B54
340
0
  0
BLOCK_RECORD
  5
349
100
AcDbSymbolTableRecord
100
AcDbBlockTableRecord
  2
*B55
340
0
  0
BLOCK_RECORD
  5
34F
100
AcDbSymbolTableRecord
100
AcDbBlockTableRecord
  2
*B56
340
0
  0
BLOCK_RECORD
  5
355
100
AcDbSymbolTableRecord
100
AcDbBlockTableRecord
  2
*B57
340
0
  0
BLOCK_RECORD
  5
35B
100
AcDbSymbolTableRecord
100
AcDbBlockTableRecord
  2
*B58
340
0
  0
BLOCK_RECORD
  5
361
100
AcDbSymbolTableRecord
100
AcDbBlockTableRecord
  2
*B59
340
0
  0
BLOCK_RECORD
  5
367
100
AcDbSymbolTableRecord
100
AcDbBlockTableRecord
  2
*B60
340
0
  0
BLOCK_RECORD
  5
36D
100
AcDbSymbolTableRecord
100
AcDbBlockTableRecord
  2
*B61
340
0
  0
BLOCK_RECORD
  5
372
100
AcDbSymbolTableRecord
100
AcDbBlockTableRecord
  2
*B62
340
0
  0
BLOCK_RECORD
  5
377
100
AcDbSymbolTableRecord
100
AcDbBlockTableRecord
  2
*B63
340
0
  0
BLOCK_RECORD
  5
37C
100
AcDbSymbolTableRecord
100
AcDbBlockTableRecord
  2
*B64
340
0
  0
BLOCK_RECORD
  5
381
100
AcDbSymbolTableRecord
100
AcDbBlockTableRecord
  2
*B65
340
0
  0
BLOCK_RECORD
  5
386
100
AcDbSymbolTableRecord
100
AcDbBlockTableRecord
  2
*B66
340
0
  0
BLOCK_RECORD
  5
38B
100
AcDbSymbolTableRecord
100
AcDbBlockTableRecord
  2
*B67
340
0
  0
BLOCK_RECORD
  5
390
100
AcDbSymbolTableRecord
100
AcDbBlockTableRecord
  2
*B68
340
0
  0
BLOCK_RECORD
  5
395
100
AcDbSymbolTableRecord
100
AcDbBlockTableRecord
  2
*B69
340
0
  0
BLOCK_RECORD
  5
39A
100
AcDbSymbolTableRecord
100
AcDbBlockTableRecord
  2
*B70
340
0
  0
BLOCK_RECORD
  5
39F
100
AcDbSymbolTableRecord
100
AcDbBlockTableRecord
  2
*B71
340
0
  0
BLOCK_RECORD
  5
3A4
100
AcDbSymbolTableRecord
100
AcDbBlockTableRecord
  2
*B72
340
0
  0
BLOCK_RECORD
  5
3A9
100
AcDbSymbolTableRecord
100
AcDbBlockTableRecord
  2
*B73
340
0
  0
BLOCK_RECORD
  5
3AE
100
AcDbSymbolTableRecord
100
AcDbBlockTableRecord
  2
*B74
340
0
  0
BLOCK_RECORD
  5
3B3
100
AcDbSymbolTableRecord
100
AcDbBlockTableRecord
  2
*B75
340
0
  0
BLOCK_RECORD
  5
3B8
100
AcDbSymbolTableRecord
100
AcDbBlockTableRecord
  2
*B76
340
0
  0
BLOCK_RECORD
  5
3BD
100
AcDbSymbolTableRecord
100
AcDbBlockTableRecord
  2
*B77
340
0
  0
BLOCK_RECORD
  5
3C2
100
AcDbSymbolTableRecord
100
AcDbBlockTableRecord
  2
*B78
340
0
  0
BLOCK_RECORD
  5
3C7
100
AcDbSymbolTableRecord
100
AcDbBlockTableRecord
  2
*B79
340
0
  0
BLOCK_RECORD
  5
3CC
100
AcDbSymbolTableRecord
100
AcDbBlockTableRecord
  2
*B80
340
0
  0
BLOCK_RECORD
  5
3D1
100
AcDbSymbolTableRecord
100
AcDbBlockTableRecord
  2
*B81
340
0
  0
BLOCK_RECORD
  5
3D6
100
AcDbSymbolTableRecord
100
AcDbBlockTableRecord
  2
*B82
340
0
  0
BLOCK_RECORD
  5
3DB
100
AcDbSymbolTableRecord
100
AcDbBlockTableRecord
  2
*B83
340
0
  0
BLOCK_RECORD
  5
3E0
100
AcDbSymbolTableRecord
100
AcDbBlockTableRecord
  2
*B84
340
0
  0
ENDTAB
  0
ENDSEC
  0
SECTION
  2
BLOCKS
  0
BLOCK
  5
D
100
AcDbEntity
  8
0
100
AcDbBlockBegin
  2
*MODEL_SPACE
 70
     0
 10
0.0
 20
0.0
 30
0.0
  3
*MODEL_SPACE
  1

  0
ENDBLK
  5
E
100
AcDbEntity
  8
0
100
AcDbBlockEnd
  0
BLOCK
  5
F
100
AcDbEntity
 67
     1
  8
0
100
AcDbBlockBegin
  2
*PAPER_SPACE
 70
     0
 10
0.0
 20
0.0
 30
0.0
  3
*PAPER_SPACE
  1

  0
ENDBLK
  5
10
100
AcDbEntity
 67
     1
  8
0
100
AcDbBlockEnd
  0
BLOCK
  5
2A
100
AcDbEntity
  8
0
100
AcDbBlockBegin
  2
*B0
 70
     0
 10
0.0
 20
0.0
 30
0.0
  3
*B0
  1

  0
ENDBLK
  5
2B
100
AcDbEntity
  8
0
100
AcDbBlockEnd
  0
BLOCK
  5
2D
100
AcDbEntity
  8
0
100
AcDbBlockBegin
  2
*B1
 70
     0
 10
0.0
 20
0.0
 30
0.0
  3
*B1
  1

  0
LINE
  5
2E
100
AcDbEntity
  8
0
  6
HIDDEN
 62
   174
100
AcDbLine
 10
156.782444
 20
245.50614
 30
0.0
 11
156.343581
 21
245.50614
 31
0.0
  0
LINE
  5
2F
100
AcDbEntity
  8
0
  6
HIDDEN
 62
   174
100
AcDbLine
 10
154.526176
 20
245.50614
 30
0.0
 11
152.548993
 21
245.50614
 31
0.0
  0
LINE
  5
30
100
AcDbEntity
  8
0
  6
HIDDEN
 62
   174
100
AcDbLine
 10
156.343581
 20
245.50614
 30
0.0
 11
154.526176
 21
245.50614
 31
0.0
  0
LINE
  5
31
100
AcDbEntity
  8
0
  6
Continuous
 62
   174
100
AcDbLine
 10
128.026176
 20
244.00614
 30
0.0
 11
125.026176
 21
244.00614
 31
0.0
  0
LINE
  5
32
100
AcDbEntity
  8
0
  6
Continuous
 62
   174
100
AcDbLine
 10
128.026176
 20
231.00614
 30
0.0
 11
125.026176
 21
231.00614
 31
0.0
  0
LINE
  5
33
100
AcDbEntity
  8
0
  6
HIDDEN
 62
   174
100
AcDbLine
 10
233.151898
 20
184.50614
 30
0.0
 11
251.951694
 21
184.50614
 31
0.0
  0
LINE
  5
34
100
AcDbEntity
  8
0
  6
Continuous
 62
   174
100
AcDbLine
 10
125.026176
 20
246.50614
 30
0.0
 11
124.326176
 21
246.50614
 31
0.0
  0
LINE
  5
35
100
AcDbEntity
  8
0
  6
Continuous
 62
   174
100
AcDbLine
 10
125.026176
 20
228.50614
 30
0.0
 11
124.326176
 21
228.50614
 31
0.0
  0
LINE
  5
36
100
AcDbEntity
  8
0
  6
HIDDEN
 62
   174
100
AcDbLine
 10
201.1519
 20
184.50614
 30
0.0
 11
219.951696
 21
184.50614
 31
0.0
  0
LINE
  5
37
100
AcDbEntity
  8
0
  6
Continuous
 62
   174
100
AcDbLine
 10
120.526176
 20
229.70614
 30
0.0
 11
121.19343
 21
228.550422
 31
0.0
  0
LINE
  5
38
100
AcDbEntity
  8
0
  6
HIDDEN
 62
   174
100
AcDbLine
 10
265.151896
 20
184.50614
 30
0.0
 11
283.951693
 21
184.50614
 31
0.0
  0
LINE
  5
39
100
AcDbEntity
  8
0
  6
HIDDEN
 62
   174
100
AcDbLine
 10
233.126176
 20
183.50614
 30
0.0
 11
233.126176
 21
169.50614
 31
0.0
  0
LINE
  5
3A
100
AcDbEntity
  8
0
  6
HIDDEN
 62
   174
100
AcDbLine
 10
253.006176
 20
183.50614
 30
0.0
 11
253.006176
 21
169.50614
 31
0.0
  0
LINE
  5
3B
100
AcDbEntity
  8
0
  6
HIDDEN
 62
   174
100
AcDbLine
 10
265.126176
 20
169.50614
 30
0.0
 11
265.126176
 21
184.50614
 31
0.0
  0
LINE
  5
3C
100
AcDbEntity
  8
0
  6
HIDDEN
 62
   174
100
AcDbLine
 10
265.126176
 20
183.50614
 30
0.0
 11
265.126176
 21
169.50614
 31
0.0
  0
LINE
  5
3D
100
AcDbEntity
  8
0
  6
Continuous
 62
   174
100
AcDbLine
 10
185.526176
 20
169.50614
 30
0.0
 11
185.526176
 21
229.50614
 31
0.0
  0
LINE
  5
3E
100
AcDbEntity
  8
0
  6
Continuous
 62
   174
100
AcDbLine
 10
169.526176
 20
169.50614
 30
0.0
 11
169.526176
 21
229.50614
 31
0.0
  0
LINE
  5
3F
100
AcDbEntity
  8
0
  6
HIDDEN
 62
   174
100
AcDbLine
 10
139.526176
 20
189.543858
 30
0.0
 11
139.526176
 21
199.543219
 31
0.0
  0
LINE
  5
40
100
AcDbEntity
  8
0
  6
HIDDEN
 62
   174
100
AcDbLine
 10
125.026176
 20
237.54025
 30
0.0
 11
125.026176
 21
231.040936
 31
0.0
  0
LINE
  5
41
100
AcDbEntity
  8
0
  6
HIDDEN
 62
   174
100
AcDbLine
 10
125.026176
 20
244.039865
 30
0.0
 11
125.026176
 21
237.54025
 31
0.0
  0
LINE
  5
42
100
AcDbEntity
  8
0
  6
Continuous
 62
   174
100
AcDbLine
 10
121.218996
 20
242.0838
 30
0.0
 11
124.326176
 21
242.0838
 31
0.0
  0
LINE
  5
43
100
AcDbEntity
  8
0
  6
HIDDEN
 62
   174
100
AcDbLine
 10
232.071934
 20
169.50614
 30
0.0
 11
253.03196
 21
169.50614
 31
0.0
  0
LINE
  5
44
100
AcDbEntity
  8
0
  6
HIDDEN
 62
   174
100
AcDbLine
 10
251.926176
 20
183.50614
 30
0.0
 11
251.926176
 21
169.50614
 31
0.0
  0
LINE
  5
45
100
AcDbEntity
  8
0
  6
HIDDEN
 62
   174
100
AcDbLine
 10
233.126176
 20
183.50614
 30
0.0
 11
233.126176
 21
169.50614
 31
0.0
  0
LINE
  5
46
100
AcDbEntity
  8
0
  6
HIDDEN
 62
   174
100
AcDbLine
 10
265.126176
 20
183.50614
 30
0.0
 11
265.126176
 21
169.50614
 31
0.0
  0
LINE
  5
47
100
AcDbEntity
  8
0
  6
HIDDEN
 62
   174
100
AcDbLine
 10
285.006176
 20
183.50614
 30
0.0
 11
285.006176
 21
169.50614
 31
0.0
  0
LINE
  5
48
100
AcDbEntity
  8
0
  6
HIDDEN
 62
   174
100
AcDbLine
 10
264.046176
 20
183.50614
 30
0.0
 11
264.046176
 21
169.50614
 31
0.0
  0
LINE
  5
49
100
AcDbEntity
  8
0
  6
HIDDEN
 62
   174
100
AcDbLine
 10
285.006176
 20
183.50614
 30
0.0
 11
285.006176
 21
169.50614
 31
0.0
  0
LINE
  5
4A
100
AcDbEntity
  8
0
  6
HIDDEN
 62
   174
100
AcDbLine
 10
201.126176
 20
183.50614
 30
0.0
 11
201.126176
 21
169.50614
 31
0.0
  0
LINE
  5
4B
100
AcDbEntity
  8
0
  6
HIDDEN
 62
   174
100
AcDbLine
 10
201.126176
 20
183.50614
 30
0.0
 11
201.126176
 21
169.50614
 31
0.0
  0
LINE
  5
4C
100
AcDbEntity
  8
0
  6
Continuous
 62
   174
100
AcDbLine
 10
185.526176
 20
169.50614
 30
0.0
 11
299.526176
 21
169.50614
 31
0.0
  0
LINE
  5
4D
100
AcDbEntity
  8
0
  6
Continuous
 62
   174
100
AcDbLine
 10
185.526176
 20
169.50614
 30
0.0
 11
169.526176
 21
169.50614
 31
0.0
  0
LINE
  5
4E
100
AcDbEntity
  8
0
  6
HIDDEN
 62
   174
100
AcDbLine
 10
283.926176
 20
169.50614
 30
0.0
 11
283.926176
 21
184.50614
 31
0.0
  0
LINE
  5
4F
100
AcDbEntity
  8
0
  6
HIDDEN
 62
   174
100
AcDbLine
 10
200.071936
 20
169.50614
 30
0.0
 11
221.031661
 21
169.50614
 31
0.0
  0
LINE
  5
50
100
AcDbEntity
  8
0
  6
HIDDEN
 62
   174
100
AcDbLine
 10
201.126176
 20
169.50614
 30
0.0
 11
201.126176
 21
184.50614
 31
0.0
  0
LINE
  5
51
100
AcDbEntity
  8
0
  6
HIDDEN
 62
   174
100
AcDbLine
 10
219.926176
 20
169.50614
 30
0.0
 11
219.926176
 21
184.50614
 31
0.0
  0
LINE
  5
52
100
AcDbEntity
  8
0
  6
Continuous
 62
   174
100
AcDbLine
 10
185.526176
 20
229.50614
 30
0.0
 11
185.526176
 21
169.50614
 31
0.0
  0
LINE
  5
53
100
AcDbEntity
  8
0
  6
Continuous
 62
   174
100
AcDbLine
 10
128.026176
 20
237.54025
 30
0.0
 11
128.026176
 21
230.93399
 31
0.0
  0
LINE
  5
54
100
AcDbEntity
  8
0
  6
Continuous
 62
   174
100
AcDbLine
 10
125.026176
 20
237.54025
 30
0.0
 11
125.026176
 21
244.254355
 31
0.0
  0
LINE
  5
55
100
AcDbEntity
  8
0
  6
Continuous
 62
   174
100
AcDbLine
 10
125.026176
 20
228.540945
 30
0.0
 11
125.026176
 21
230.826445
 31
0.0
  0
LINE
  5
56
100
AcDbEntity
  8
0
  6
HIDDEN
 62
   174
100
AcDbLine
 10
121.190189
 20
228.55604
 30
0.0
 11
121.218996
 21
228.50659
 31
0.0
  0
LINE
  5
57
100
AcDbEntity
  8
0
  6
HIDDEN
 62
   174
100
AcDbLine
 10
124.326176
 20
233.08425
 30
0.0
 11
124.326176
 21
228.50659
 31
0.0
  0
LINE
  5
58
100
AcDbEntity
  8
0
  6
HIDDEN
 62
   174
100
AcDbLine
 10
251.926176
 20
169.50614
 30
0.0
 11
251.926176
 21
184.50614
 31
0.0
  0
LINE
  5
59
100
AcDbEntity
  8
0
  6
HIDDEN
 62
   174
100
AcDbLine
 10
200.071936
 20
183.50614
 30
0.0
 11
221.031661
 21
183.50614
 31
0.0
  0
LINE
  5
5A
100
AcDbEntity
  8
0
  6
HIDDEN
 62
   174
100
AcDbLine
 10
221.006176
 20
183.50614
 30
0.0
 11
221.006176
 21
169.50614
 31
0.0
  0
LINE
  5
5B
100
AcDbEntity
  8
0
  6
HIDDEN
 62
   174
100
AcDbLine
 10
219.926176
 20
169.50614
 30
0.0
 11
219.926176
 21
184.50614
 31
0.0
  0
LINE
  5
5C
100
AcDbEntity
  8
0
  6
Continuous
 62
   174
100
AcDbLine
 10
169.026176
 20
242.50614
 30
0.0
 11
169.026176
 21
216.50614
 31
0.0
  0
LINE
  5
5D
100
AcDbEntity
  8
0
  6
Continuous
 62
   174
100
AcDbLine
 10
185.526176
 20
229.50614
 30
0.0
 11
169.526176
 21
229.50614
 31
0.0
  0
LINE
  5
5E
100
AcDbEntity
  8
0
  6
Continuous
 62
   174
100
AcDbLine
 10
128.026176
 20
245.539799
 30
0.0
 11
128.026176
 21
244.146509
 31
0.0
  0
LINE
  5
5F
100
AcDbEntity
  8
0
  6
Continuous
 62
   174
100
AcDbLine
 10
125.026176
 20
230.826445
 30
0.0
 11
125.026176
 21
237.54025
 31
0.0
  0
LINE
  5
60
100
AcDbEntity
  8
0
  6
Continuous
 62
   174
100
AcDbLine
 10
124.326176
 20
232.962942
 30
0.0
 11
124.326176
 21
228.541546
 31
0.0
  0
LINE
  5
61
100
AcDbEntity
  8
0
  6
Continuous
 62
   174
100
AcDbLine
 10
124.326176
 20
242.117558
 30
0.0
 11
124.326176
 21
237.54025
 31
0.0
  0
LINE
  5
62
100
AcDbEntity
  8
0
  6
Continuous
 62
   174
100
AcDbLine
 10
124.326176
 20
237.54025
 30
0.0
 11
124.326176
 21
232.962942
 31
0.0
  0
LINE
  5
63
100
AcDbEntity
  8
0
  6
Continuous
 62
   174
100
AcDbLine
 10
124.326176
 20
246.539254
 30
0.0
 11
124.326176
 21
242.117558
 31
0.0
  0
LINE
  5
64
100
AcDbEntity
  8
0
  6
Continuous
 62
   174
100
AcDbLine
 10
124.326176
 20
232.92848
 30
0.0
 11
121.218996
 21
232.92848
 31
0.0
  0
LINE
  5
65
100
AcDbEntity
  8
0
  6
Continuous
 62
   174
100
AcDbLine
 10
120.526176
 20
236.614529
 30
0.0
 11
120.526176
 21
238.397752
 31
0.0
  0
LINE
  5
66
100
AcDbEntity
  8
0
  6
Continuous
 62
   174
100
AcDbLine
 10
131.826176
 20
209.224448
 30
0.0
 11
131.826176
 21
208.1565
 31
0.0
  0
LINE
  5
67
100
AcDbEntity
  8
0
  6
Continuous
 62
   174
100
AcDbLine
 10
131.826176
 20
204.621305
 30
0.0
 11
131.826176
 21
202.042909
 31
0.0
  0
LINE
  5
68
100
AcDbEntity
  8
0
  6
Continuous
 62
   174
100
AcDbLine
 10
131.826176
 20
190.929036
 30
0.0
 11
131.826176
 21
189.861088
 31
0.0
  0
LINE
  5
69
100
AcDbEntity
  8
0
  6
HIDDEN
 62
   174
100
AcDbLine
 10
124.326176
 20
233.08425
 30
0.0
 11
121.218996
 21
233.08425
 31
0.0
  0
LINE
  5
6A
100
AcDbEntity
  8
0
  6
Continuous
 62
   174
100
AcDbLine
 10
120.526176
 20
236.648941
 30
0.0
 11
120.526176
 21
229.740772
 31
0.0
  0
LINE
  5
6B
100
AcDbEntity
  8
0
  6
HIDDEN
 62
   174
100
AcDbLine
 10
232.071934
 20
183.50614
 30
0.0
 11
253.03196
 21
183.50614
 31
0.0
  0
LINE
  5
6C
100
AcDbEntity
  8
0
  6
HIDDEN
 62
   174
100
AcDbLine
 10
232.046176
 20
183.50614
 30
0.0
 11
232.046176
 21
169.50614
 31
0.0
  0
LINE
  5
6D
100
AcDbEntity
  8
0
  6
HIDDEN
 62
   174
100
AcDbLine
 10
264.046176
 20
183.50614
 30
0.0
 11
264.046176
 21
169.50614
 31
0.0
  0
LINE
  5
6E
100
AcDbEntity
  8
0
  6
HIDDEN
 62
   174
100
AcDbLine
 10
200.046176
 20
183.50614
 30
0.0
 11
200.046176
 21
169.50614
 31
0.0
  0
LINE
  5
6F
100
AcDbEntity
  8
0
  6
HIDDEN
 62
   174
100
AcDbLine
 10
200.046176
 20
183.50614
 30
0.0
 11
200.046176
 21
169.50614
 31
0.0
  0
LINE
  5
70
100
AcDbEntity
  8
0
  6
HIDDEN
 62
   174
100
AcDbLine
 10
219.926176
 20
183.50614
 30
0.0
 11
219.926176
 21
169.50614
 31
0.0
  0
LINE
  5
71
100
AcDbEntity
  8
0
  6
HIDDEN
 62
   174
100
AcDbLine
 10
219.926176
 20
183.50614
 30
0.0
 11
219.926176
 21
169.50614
 31
0.0
  0
LINE
  5
72
100
AcDbEntity
  8
0
  6
HIDDEN
 62
   174
100
AcDbLine
 10
140.026176
 20
229.50614
 30
0.0
 11
140.026176
 21
216.50614
 31
0.0
  0
LINE
  5
73
100
AcDbEntity
  8
0
  6
HIDDEN
 62
   174
100
AcDbLine
 10
138.026176
 20
204.587735
 30
0.0
 11
138.026176
 21
208.121785
 31
0.0
  0
LWPOLYLINE
  5
74
100
AcDbEntity
  8
0
  6
Continuous
 62
   174
100
AcDbPolyline
 90
        4
 70
   128
 10
121.218996
 20
232.92848
 10
120.891095
 20
234.181295
 10
120.658342
 20
235.404116
 10
120.526176
 20
236.614529
  0
LINE
  5
75
100
AcDbEntity
  8
0
  6
Continuous
 62
   174
100
AcDbLine
 10
124.326176
 20
228.50659
 30
0.0
 11
121.218996
 21
228.50659
 31
0.0
  0
LINE
  5
76
100
AcDbEntity
  8
0
  6
Continuous
 62
   174
100
AcDbLine
 10
121.218996
 20
228.50659
 30
0.0
 11
121.191523
 21
228.555426
 31
0.0
  0
LINE
  5
77
100
AcDbEntity
  8
0
  6
Continuous
 62
   174
100
AcDbLine
 10
121.192318
 20
228.554016
 30
0.0
 11
120.675516
 21
229.78431
 31
0.0
  0
LINE
  5
78
100
AcDbEntity
  8
0
  6
HIDDEN
 62
   174
100
AcDbLine
 10
232.046176
 20
183.50614
 30
0.0
 11
232.046176
 21
169.50614
 31
0.0
  0
LINE
  5
79
100
AcDbEntity
  8
0
  6
HIDDEN
 62
   174
100
AcDbLine
 10
253.006176
 20
183.50614
 30
0.0
 11
253.006176
 21
169.50614
 31
0.0
  0
LINE
  5
7A
100
AcDbEntity
  8
0
  6
HIDDEN
 62
   174
100
AcDbLine
 10
233.126176
 20
169.50614
 30
0.0
 11
233.126176
 21
184.50614
 31
0.0
  0
LINE
  5
7B
100
AcDbEntity
  8
0
  6
HIDDEN
 62
   174
100
AcDbLine
 10
233.126176
 20
169.50614
 30
0.0
 11
233.126176
 21
184.50614
 31
0.0
  0
LINE
  5
7C
100
AcDbEntity
  8
0
  6
HIDDEN
 62
   174
100
AcDbLine
 10
264.071631
 20
183.50614
 30
0.0
 11
285.031657
 21
183.50614
 31
0.0
  0
LINE
  5
7D
100
AcDbEntity
  8
0
  6
HIDDEN
 62
   174
100
AcDbLine
 10
265.126176
 20
169.50614
 30
0.0
 11
265.126176
 21
184.50614
 31
0.0
  0
LINE
  5
7E
100
AcDbEntity
  8
0
  6
HIDDEN
 62
   174
100
AcDbLine
 10
283.926176
 20
169.50614
 30
0.0
 11
283.926176
 21
184.50614
 31
0.0
  0
LINE
  5
7F
100
AcDbEntity
  8
0
  6
HIDDEN
 62
   174
100
AcDbLine
 10
221.006176
 20
183.50614
 30
0.0
 11
221.006176
 21
169.50614
 31
0.0
  0
LINE
  5
80
100
AcDbEntity
  8
0
  6
HIDDEN
 62
   174
100
AcDbLine
 10
128.026176
 20
244.039865
 30
0.0
 11
128.026176
 21
237.54025
 31
0.0
  0
LINE
  5
81
100
AcDbEntity
  8
0
  6
HIDDEN
 62
   174
100
AcDbLine
 10
128.026176
 20
231.040936
 30
0.0
 11
128.026176
 21
237.54025
 31
0.0
  0
LWPOLYLINE
  5
82
100
AcDbEntity
  8
0
  6
Continuous
 62
   174
100
AcDbPolyline
 90
        4
 70
   128
 10
120.526176
 20
238.397752
 10
120.659296
 20
239.614467
 10
120.892381
 20
240.836631
 10
121.218996
 20
242.0838
  0
LWPOLYLINE
  5
83
100
AcDbEntity
  8
0
  6
HIDDEN
 62
   174
100
AcDbPolyline
 90
        4
 70
   128
 10
121.218996
 20
233.08425
 10
120.891096
 20
232.457842
 10
120.658341
 20
231.846429
 10
120.526176
 20
231.241225
  0
LINE
  5
84
100
AcDbEntity
  8
0
  6
HIDDEN
 62
   174
100
AcDbLine
 10
251.926176
 20
183.50614
 30
0.0
 11
251.926176
 21
169.50614
 31
0.0
  0
LINE
  5
85
100
AcDbEntity
  8
0
  6
HIDDEN
 62
   174
100
AcDbLine
 10
283.926176
 20
183.50614
 30
0.0
 11
283.926176
 21
169.50614
 31
0.0
  0
LINE
  5
86
100
AcDbEntity
  8
0
  6
Continuous
 62
   174
100
AcDbLine
 10
120.526176
 20
245.30614
 30
0.0
 11
121.193452
 21
246.461897
 31
0.0
  0
LINE
  5
87
100
AcDbEntity
  8
0
  6
HIDDEN
 62
   174
100
AcDbLine
 10
201.126176
 20
169.50614
 30
0.0
 11
201.126176
 21
184.50614
 31
0.0
  0
LINE
  5
88
100
AcDbEntity
  8
0
  6
HIDDEN
 62
   174
100
AcDbLine
 10
251.951694
 20
169.50614
 30
0.0
 11
233.151898
 21
169.50614
 31
0.0
  0
LINE
  5
89
100
AcDbEntity
  8
0
  6
HIDDEN
 62
   174
100
AcDbLine
 10
219.951696
 20
169.50614
 30
0.0
 11
201.1519
 21
169.50614
 31
0.0
  0
LINE
  5
8A
100
AcDbEntity
  8
0
  6
HIDDEN
 62
   174
100
AcDbLine
 10
283.951693
 20
169.50614
 30
0.0
 11
265.151896
 21
169.50614
 31
0.0
  0
LINE
  5
8B
100
AcDbEntity
  8
0
  6
Continuous
 62
   174
100
AcDbLine
 10
128.026176
 20
245.50614
 30
0.0
 11
143.026176
 21
245.50614
 31
0.0
  0
LINE
  5
8C
100
AcDbEntity
  8
0
  6
Continuous
 62
   174
100
AcDbLine
 10
299.526176
 20
229.50614
 30
0.0
 11
185.526176
 21
229.50614
 31
0.0
  0
LINE
  5
8D
100
AcDbEntity
  8
0
  6
Continuous
 62
   174
100
AcDbLine
 10
299.526176
 20
169.50614
 30
0.0
 11
299.526176
 21
229.50614
 31
0.0
  0
LINE
  5
8E
100
AcDbEntity
  8
0
  6
Continuous
 62
   174
100
AcDbLine
 10
125.026176
 20
244.254355
 30
0.0
 11
125.026176
 21
246.539855
 31
0.0
  0
LWPOLYLINE
  5
8F
100
AcDbEntity
  8
0
  6
Continuous
 62
   174
100
AcDbPolyline
 90
        6
 70
   128
 10
120.675516
 20
229.78431
 10
120.624772
 20
229.995327
 10
120.547868
 20
230.717575
 10
120.624786
 20
231.439814
 10
120.852887
 20
232.176833
 10
121.218996
 20
232.92848
  0
LINE
  5
90
100
AcDbEntity
  8
0
  6
HIDDEN
 62
   174
100
AcDbLine
 10
138.026176
 20
197.009508
 30
0.0
 11
138.026176
 21
202.009507
 31
0.0
  0
LINE
  5
91
100
AcDbEntity
  8
0
  6
HIDDEN
 62
   174
100
AcDbLine
 10
251.926176
 20
169.50614
 30
0.0
 11
251.926176
 21
184.50614
 31
0.0
  0
LINE
  5
92
100
AcDbEntity
  8
0
  6
HIDDEN
 62
   174
100
AcDbLine
 10
264.071631
 20
169.50614
 30
0.0
 11
285.031657
 21
169.50614
 31
0.0
  0
LINE
  5
93
100
AcDbEntity
  8
0
  6
HIDDEN
 62
   174
100
AcDbLine
 10
283.926176
 20
183.50614
 30
0.0
 11
283.926176
 21
169.50614
 31
0.0
  0
LINE
  5
94
100
AcDbEntity
  8
0
  6
Continuous
 62
   174
100
AcDbLine
 10
128.026176
 20
229.50614
 30
0.0
 11
140.026176
 21
229.50614
 31
0.0
  0
LINE
  5
95
100
AcDbEntity
  8
0
  6
HIDDEN
 62
   174
100
AcDbLine
 10
140.026176
 20
234.722258
 30
0.0
 11
140.026176
 21
229.50614
 31
0.0
  0
LINE
  5
96
100
AcDbEntity
  8
0
  6
HIDDEN
 62
   174
100
AcDbLine
 10
139.526176
 20
199.543219
 30
0.0
 11
139.526176
 21
209.542279
 31
0.0
  0
LINE
  5
97
100
AcDbEntity
  8
0
  6
Continuous
 62
   174
100
AcDbLine
 10
128.026176
 20
230.93399
 30
0.0
 11
128.026176
 21
229.541001
 31
0.0
  0
LINE
  5
98
100
AcDbEntity
  8
0
  6
Continuous
 62
   174
100
AcDbLine
 10
128.026176
 20
244.146509
 30
0.0
 11
128.026176
 21
237.54025
 31
0.0
  0
LINE
  5
99
100
AcDbEntity
  8
0
  6
Continuous
 62
   174
100
AcDbLine
 10
131.826176
 20
197.043228
 30
0.0
 11
131.826176
 21
194.464531
 31
0.0
  0
LWPOLYLINE
  5
9A
100
AcDbEntity
  8
0
  6
HIDDEN
 62
   174
100
AcDbPolyline
 90
        4
 70
   128
 10
120.526176
 20
230.349614
 10
120.659296
 20
229.741255
 10
120.892379
 20
229.13018
 10
121.190275
 20
228.555891
  0
LINE
  5
9B
100
AcDbEntity
  8
0
  6
HIDDEN
 62
   174
100
AcDbLine
 10
140.026176
 20
229.541001
 30
0.0
 11
140.026176
 21
234.756675
 31
0.0
  0
LINE
  5
9C
100
AcDbEntity
  8
0
  6
Continuous
 62
   174
100
AcDbLine
 10
143.026176
 20
242.50614
 30
0.0
 11
143.026176
 21
216.50614
 31
0.0
  0
LINE
  5
9D
100
AcDbEntity
  8
0
  6
HIDDEN
 62
   174
100
AcDbLine
 10
157.526176
 20
245.50614
 30
0.0
 11
157.926176
 21
245.50614
 31
0.0
  0
LINE
  5
9E
100
AcDbEntity
  8
0
  6
Continuous
 62
   174
100
AcDbLine
 10
143.026176
 20
242.50614
 30
0.0
 11
166.026176
 21
242.50614
 31
0.0
  0
LINE
  5
9F
100
AcDbEntity
  8
0
  6
Continuous
 62
   174
100
AcDbLine
 10
120.675687
 20
245.228607
 30
0.0
 11
121.192342
 21
246.458308
 31
0.0
  0
LINE
  5
A0
100
AcDbEntity
  8
0
  6
Continuous
 62
   174
100
AcDbLine
 10
139.526176
 20
188.50614
 30
0.0
 11
139.526176
 21
216.50614
 31
0.0
  0
ARC
  5
A1
100
AcDbEntity
  8
0
  6
Continuous
 62
   174
100
AcDbCircle
 10
226.526176
 20
179.50614
 30
0.0
 40
3.3
100
AcDbArc
 50
0.0
 51
180.0
  0
ARC
  5
A2
100
AcDbEntity
  8
0
  6
HIDDEN
 62
   174
100
AcDbCircle
 10
166.026176
 20
242.50614
 30
0.0
 40
3.0
100
AcDbArc
 50
-288.0
 51
-270.0
  0
LWPOLYLINE
  5
A3
100
AcDbEntity
  8
0
  6
Continuous
 62
   174
100
AcDbPolyline
 90
        4
 70
   128
 10
140.068136
 20
237.50614
 10
140.059141
 20
236.557133
 10
140.038735
 20
235.618967
 10
140.026176
 20
234.722258
  0
LINE
  5
A4
100
AcDbEntity
  8
0
  6
Continuous
 62
   174
100
AcDbLine
 10
166.026176
 20
242.53993
 30
0.0
 11
166.026176
 21
245.539799
 31
0.0
  0
LINE
  5
A5
100
AcDbEntity
  8
0
  6
HIDDEN
 62
   174
100
AcDbLine
 10
166.026176
 20
242.53993
 30
0.0
 11
166.026176
 21
245.539799
 31
0.0
  0
LWPOLYLINE
  5
A6
100
AcDbEntity
  8
0
  6
Continuous
 62
   174
100
AcDbPolyline
 90
        4
 70
   128
 10
140.068136
 20
237.50614
 10
140.059141
 20
238.455123
 10
140.038736
 20
239.39329
 10
140.026176
 20
240.290023
  0
LINE
  5
A7
100
AcDbEntity
  8
0
  6
Continuous
 62
   174
100
AcDbLine
 10
143.051906
 20
242.50614
 30
0.0
 11
140.051737
 21
242.50614
 31
0.0
  0
LINE
  5
A8
100
AcDbEntity
  8
0
  6
HIDDEN
 62
   174
100
AcDbLine
 10
237.03166
 20
215.50614
 30
0.0
 11
216.071935
 21
215.50614
 31
0.0
  0
LINE
  5
A9
100
AcDbEntity
  8
0
  6
HIDDEN
 62
   174
100
AcDbLine
 10
217.126176
 20
229.50614
 30
0.0
 11
217.126176
 21
214.50614
 31
0.0
  0
LINE
  5
AA
100
AcDbEntity
  8
0
  6
HIDDEN
 62
   174
100
AcDbLine
 10
249.126176
 20
215.50614
 30
0.0
 11
249.126176
 21
229.50614
 31
0.0
  0
LWPOLYLINE
  5
AB
100
AcDbEntity
  8
0
  6
HIDDEN
 62
   174
100
AcDbPolyline
 90
        4
 70
   128
 10
121.190235
 20
246.45632
 10
120.891096
 20
245.879284
 10
120.658341
 20
245.267871
 10
120.526176
 20
244.662667
  0
LINE
  5
AC
100
AcDbEntity
  8
0
  6
Continuous
 62
   174
100
AcDbLine
 10
124.326176
 20
246.505691
 30
0.0
 11
121.218996
 21
246.505691
 31
0.0
  0
LINE
  5
AD
100
AcDbEntity
  8
0
  6
HIDDEN
 62
   174
100
AcDbLine
 10
237.006176
 20
215.50614
 30
0.0
 11
237.006176
 21
229.50614
 31
0.0
  0
LINE
  5
AE
100
AcDbEntity
  8
0
  6
HIDDEN
 62
   174
100
AcDbLine
 10
237.006176
 20
215.50614
 30
0.0
 11
237.006176
 21
229.50614
 31
0.0
  0
ARC
  5
AF
100
AcDbEntity
  8
0
  6
HIDDEN
 62
   174
100
AcDbCircle
 10
166.026176
 20
242.50614
 30
0.0
 40
3.0
100
AcDbArc
 50
-306.0
 51
-288.0
  0
LINE
  5
B0
100
AcDbEntity
  8
0
  6
HIDDEN
 62
   174
100
AcDbLine
 10
156.343581
 20
245.50614
 30
0.0
 11
156.782444
 21
245.50614
 31
0.0
  0
LINE
  5
B1
100
AcDbEntity
  8
0
  6
HIDDEN
 62
   174
100
AcDbLine
 10
249.126176
 20
229.50614
 30
0.0
 11
249.126176
 21
214.50614
 31
0.0
  0
LINE
  5
B2
100
AcDbEntity
  8
0
  6
Continuous
 62
   174
100
AcDbLine
 10
131.826176
 20
194.42721
 30
0.0
 11
131.826176
 21
190.891422
 31
0.0
  0
ARC
  5
B3
100
AcDbEntity
  8
0
  6
Continuous
 62
   174
100
AcDbCircle
 10
143.026176
 20
242.50614
 30
0.0
 40
3.0
100
AcDbArc
 50
-270.0
 51
-180.0
  0
LINE
  5
B4
100
AcDbEntity
  8
0
  6
HIDDEN
 62
   174
100
AcDbLine
 10
235.926176
 20
229.50614
 30
0.0
 11
235.926176
 21
214.50614
 31
0.0
  0
LINE
  5
B5
100
AcDbEntity
  8
0
  6
HIDDEN
 62
   174
100
AcDbLine
 10
248.046176
 20
215.50614
 30
0.0
 11
248.046176
 21
229.50614
 31
0.0
  0
LINE
  5
B6
100
AcDbEntity
  8
0
  6
Continuous
 62
   174
100
AcDbLine
 10
143.026176
 20
242.53993
 30
0.0
 11
143.026176
 21
245.539799
 31
0.0
  0
LWPOLYLINE
  5
B7
100
AcDbEntity
  8
0
  6
HIDDEN
 62
   174
100
AcDbPolyline
 90
        4
 70
   128
 10
140.026176
 20
234.722258
 10
140.038735
 20
235.618959
 10
140.05914
 20
236.557114
 10
140.068136
 20
237.50614
  0
LINE
  5
B8
100
AcDbEntity
  8
0
  6
HIDDEN
 62
   174
100
AcDbLine
 10
169.051867
 20
242.50614
 30
0.0
 11
166.051698
 21
242.50614
 31
0.0
  0
LINE
  5
B9
100
AcDbEntity
  8
0
  6
HIDDEN
 62
   174
100
AcDbLine
 10
267.951694
 20
214.50614
 30
0.0
 11
249.151897
 21
214.50614
 31
0.0
  0
LINE
  5
BA
100
AcDbEntity
  8
0
  6
HIDDEN
 62
   174
100
AcDbLine
 10
235.951695
 20
214.50614
 30
0.0
 11
217.151899
 21
214.50614
 31
0.0
  0
LINE
  5
BB
100
AcDbEntity
  8
0
  6
HIDDEN
 62
   174
100
AcDbLine
 10
269.031658
 20
229.50614
 30
0.0
 11
248.071632
 21
229.50614
 31
0.0
  0
LWPOLYLINE
  5
BC
100
AcDbEntity
  8
0
  6
HIDDEN
 62
   174
100
AcDbPolyline
 90
        4
 70
   128
 10
140.026176
 20
240.290023
 10
140.038736
 20
239.393287
 10
140.059141
 20
238.455133
 10
140.068136
 20
237.50614
  0
LINE
  5
BD
100
AcDbEntity
  8
0
  6
HIDDEN
 62
   174
100
AcDbLine
 10
267.926176
 20
229.50614
 30
0.0
 11
267.926176
 21
214.50614
 31
0.0
  0
LINE
  5
BE
100
AcDbEntity
  8
0
  6
HIDDEN
 62
   174
100
AcDbLine
 10
217.126176
 20
229.50614
 30
0.0
 11
217.126176
 21
214.50614
 31
0.0
  0
LINE
  5
BF
100
AcDbEntity
  8
0
  6
HIDDEN
 62
   174
100
AcDbLine
 10
267.926176
 20
215.50614
 30
0.0
 11
267.926176
 21
229.50614
 31
0.0
  0
ARC
  5
C0
100
AcDbEntity
  8
0
  6
HIDDEN
 62
   174
100
AcDbCircle
 10
166.026176
 20
242.50614
 30
0.0
 40
3.0
100
AcDbArc
 50
-324.0
 51
-306.0
  0
LINE
  5
C1
100
AcDbEntity
  8
0
  6
HIDDEN
 62
   174
100
AcDbLine
 10
124.326176
 20
241.928031
 30
0.0
 11
121.218996
 21
241.928031
 31
0.0
  0
LINE
  5
C2
100
AcDbEntity
  8
0
  6
Continuous
 62
   174
100
AcDbLine
 10
131.826176
 20
202.00614
 30
0.0
 11
131.826176
 21
197.00614
 31
0.0
  0
ARC
  5
C3
100
AcDbEntity
  8
0
  6
Continuous
 62
   174
100
AcDbCircle
 10
274.526176
 20
219.50614
 30
0.0
 40
3.3
100
AcDbArc
 50
-180.0
 51
0.0
  0
LINE
  5
C4
100
AcDbEntity
  8
0
  6
Continuous
 62
   174
100
AcDbLine
 10
131.826176
 20
202.00614
 30
0.0
 11
138.026176
 21
202.00614
 31
0.0
  0
LINE
  5
C5
100
AcDbEntity
  8
0
  6
Continuous
 62
   174
100
AcDbLine
 10
121.191556
 20
246.456897
 30
0.0
 11
121.218996
 21
246.505691
 31
0.0
  0
LINE
  5
C6
100
AcDbEntity
  8
0
  6
HIDDEN
 62
   174
100
AcDbLine
 10
152.548993
 20
245.50614
 30
0.0
 11
154.526176
 21
245.50614
 31
0.0
  0
LINE
  5
C7
100
AcDbEntity
  8
0
  6
Continuous
 62
   174
100
AcDbLine
 10
138.026176
 20
190.929036
 30
0.0
 11
138.026176
 21
194.464531
 31
0.0
  0
LINE
  5
C8
100
AcDbEntity
  8
0
  6
Continuous
 62
   174
100
AcDbLine
 10
166.026176
 20
245.50614
 30
0.0
 11
143.026176
 21
245.50614
 31
0.0
  0
LINE
  5
C9
100
AcDbEntity
  8
0
  6
HIDDEN
 62
   174
100
AcDbLine
 10
169.526176
 20
216.50614
 30
0.0
 11
169.526176
 21
188.50614
 31
0.0
  0
LINE
  5
CA
100
AcDbEntity
  8
0
  6
Continuous
 62
   174
100
AcDbLine
 10
138.026176
 20
209.50614
 30
0.0
 11
139.526176
 21
209.50614
 31
0.0
  0
LINE
  5
CB
100
AcDbEntity
  8
0
  6
Continuous
 62
   174
100
AcDbLine
 10
131.826176
 20
209.188276
 30
0.0
 11
138.026176
 21
209.188276
 31
0.0
  0
LINE
  5
CC
100
AcDbEntity
  8
0
  6
Continuous
 62
   174
100
AcDbLine
 10
140.026176
 20
234.722258
 30
0.0
 11
140.026176
 21
216.50614
 31
0.0
  0
LINE
  5
CD
100
AcDbEntity
  8
0
  6
HIDDEN
 62
   174
100
AcDbLine
 10
269.031658
 20
215.50614
 30
0.0
 11
248.071632
 21
215.50614
 31
0.0
  0
LINE
  5
CE
100
AcDbEntity
  8
0
  6
HIDDEN
 62
   174
100
AcDbLine
 10
140.051737
 20
216.50614
 30
0.0
 11
143.051906
 21
216.50614
 31
0.0
  0
ARC
  5
CF
100
AcDbEntity
  8
0
  6
HIDDEN
 62
   174
100
AcDbCircle
 10
166.026176
 20
242.50614
 30
0.0
 40
3.0
100
AcDbArc
 50
-342.0
 51
-324.0
  0
LINE
  5
D0
100
AcDbEntity
  8
0
  6
HIDDEN
 62
   174
100
AcDbLine
 10
121.218996
 20
246.505691
 30
0.0
 11
121.190145
 21
246.456167
 31
0.0
  0
LINE
  5
D1
100
AcDbEntity
  8
0
  6
Continuous
 62
   174
100
AcDbLine
 10
131.826176
 20
204.58474
 30
0.0
 11
138.026176
 21
204.58474
 31
0.0
  0
LINE
  5
D2
100
AcDbEntity
  8
0
  6
Continuous
 62
   174
100
AcDbLine
 10
131.826176
 20
208.120019
 30
0.0
 11
131.826176
 21
204.58474
 31
0.0
  0
ARC
  5
D3
100
AcDbEntity
  8
0
  6
HIDDEN
 62
   174
100
AcDbCircle
 10
143.026176
 20
242.50614
 30
0.0
 40
3.0
100
AcDbArc
 50
90.0
 51
180.0
  0
LINE
  5
D4
100
AcDbEntity
  8
0
  6
Continuous
 62
   174
100
AcDbLine
 10
131.826176
 20
190.891422
 30
0.0
 11
138.026176
 21
190.891422
 31
0.0
  0
LINE
  5
D5
100
AcDbEntity
  8
0
  6
HIDDEN
 62
   174
100
AcDbLine
 10
124.326176
 20
246.505691
 30
0.0
 11
124.326176
 21
241.928031
 31
0.0
  0
LINE
  5
D6
100
AcDbEntity
  8
0
  6
Continuous
 62
   174
100
AcDbLine
 10
131.826176
 20
208.120019
 30
0.0
 11
138.026176
 21
208.120019
 31
0.0
  0
LINE
  5
D7
100
AcDbEntity
  8
0
  6
HIDDEN
 62
   174
100
AcDbLine
 10
166.026176
 20
242.50614
 30
0.0
 11
143.026176
 21
242.50614
 31
0.0
  0
LINE
  5
D8
100
AcDbEntity
  8
0
  6
HIDDEN
 62
   174
100
AcDbLine
 10
169.026176
 20
242.50614
 30
0.0
 11
169.026176
 21
216.50614
 31
0.0
  0
ARC
  5
D9
100
AcDbEntity
  8
0
  6
Continuous
 62
   174
100
AcDbCircle
 10
258.526176
 20
179.50614
 30
0.0
 40
3.3
100
AcDbArc
 50
-180.0
 51
0.0
  0
LWPOLYLINE
  5
DA
100
AcDbEntity
  8
0
  6
HIDDEN
 62
   174
100
AcDbPolyline
 90
        7
 70
   128
 10
121.218996
 20
241.928031
 10
120.852894
 20
240.424761
 10
120.624794
 20
238.95077
 10
120.547863
 20
237.506378
 10
120.62475
 20
236.061931
 10
120.852842
 20
234.58778
 10
121.218996
 20
233.08425
  0
LINE
  5
DB
100
AcDbEntity
  8
0
  6
HIDDEN
 62
   174
100
AcDbLine
 10
131.826176
 20
202.009507
 30
0.0
 11
138.026176
 21
202.009507
 31
0.0
  0
LINE
  5
DC
100
AcDbEntity
  8
0
  6
HIDDEN
 62
   174
100
AcDbLine
 10
267.926176
 20
229.50614
 30
0.0
 11
267.926176
 21
214.50614
 31
0.0
  0
LINE
  5
DD
100
AcDbEntity
  8
0
  6
Continuous
 62
   174
100
AcDbLine
 10
169.026176
 20
216.50614
 30
0.0
 11
169.026176
 21
242.50614
 31
0.0
  0
LINE
  5
DE
100
AcDbEntity
  8
0
  6
Continuous
 62
   174
100
AcDbLine
 10
138.026176
 20
201.039248
 30
0.0
 11
138.026176
 21
202.042909
 31
0.0
  0
LINE
  5
DF
100
AcDbEntity
  8
0
  6
HIDDEN
 62
   174
100
AcDbLine
 10
248.046176
 20
215.50614
 30
0.0
 11
248.046176
 21
229.50614
 31
0.0
  0
LINE
  5
E0
100
AcDbEntity
  8
0
  6
HIDDEN
 62
   174
100
AcDbLine
 10
131.826176
 20
197.009508
 30
0.0
 11
138.026176
 21
197.009508
 31
0.0
  0
LINE
  5
E1
100
AcDbEntity
  8
0
  6
HIDDEN
 62
   174
100
AcDbLine
 10
217.126176
 20
215.50614
 30
0.0
 11
217.126176
 21
229.50614
 31
0.0
  0
LINE
  5
E2
100
AcDbEntity
  8
0
  6
HIDDEN
 62
   174
100
AcDbLine
 10
143.051906
 20
242.50614
 30
0.0
 11
140.051737
 21
242.50614
 31
0.0
  0
LINE
  5
E3
100
AcDbEntity
  8
0
  6
HIDDEN
 62
   174
100
AcDbLine
 10
216.046176
 20
215.50614
 30
0.0
 11
216.046176
 21
229.50614
 31
0.0
  0
LINE
  5
E4
100
AcDbEntity
  8
0
  6
HIDDEN
 62
   174
100
AcDbLine
 10
237.03166
 20
229.50614
 30
0.0
 11
216.071935
 21
229.50614
 31
0.0
  0
LINE
  5
E5
100
AcDbEntity
  8
0
  6
HIDDEN
 62
   174
100
AcDbLine
 10
131.826176
 20
194.430206
 30
0.0
 11
138.026176
 21
194.430206
 31
0.0
  0
LINE
  5
E6
100
AcDbEntity
  8
0
  6
HIDDEN
 62
   174
100
AcDbLine
 10
151.526501
 20
245.50614
 30
0.0
 11
152.548993
 21
245.50614
 31
0.0
  0
LINE
  5
E7
100
AcDbEntity
  8
0
  6
HIDDEN
 62
   174
100
AcDbLine
 10
269.006176
 20
215.50614
 30
0.0
 11
269.006176
 21
229.50614
 31
0.0
  0
LINE
  5
E8
100
AcDbEntity
  8
0
  6
HIDDEN
 62
   174
100
AcDbLine
 10
249.126176
 20
229.50614
 30
0.0
 11
249.126176
 21
214.50614
 31
0.0
  0
ARC
  5
E9
100
AcDbEntity
  8
0
  6
Continuous
 62
   174
100
AcDbCircle
 10
226.526176
 20
179.50614
 30
0.0
 40
3.3
100
AcDbArc
 50
-180.0
 51
0.0
  0
LWPOLYLINE
  5
EA
100
AcDbEntity
  8
0
  6
HIDDEN
 62
   174
100
AcDbPolyline
 90
        4
 70
   128
 10
120.526176
 20
243.771055
 10
120.659296
 20
243.162696
 10
120.892379
 20
242.551622
 10
121.218996
 20
241.928031
  0
LINE
  5
EB
100
AcDbEntity
  8
0
  6
HIDDEN
 62
   174
100
AcDbLine
 10
235.926176
 20
215.50614
 30
0.0
 11
235.926176
 21
229.50614
 31
0.0
  0
LINE
  5
EC
100
AcDbEntity
  8
0
  6
HIDDEN
 62
   174
100
AcDbLine
 10
143.026176
 20
242.53993
 30
0.0
 11
143.026176
 21
245.539799
 31
0.0
  0
LINE
  5
ED
100
AcDbEntity
  8
0
  6
HIDDEN
 62
   174
100
AcDbLine
 10
124.326176
 20
233.08425
 30
0.0
 11
124.326176
 21
241.928031
 31
0.0
  0
LINE
  5
EE
100
AcDbEntity
  8
0
  6
HIDDEN
 62
   174
100
AcDbLine
 10
131.826176
 20
190.893188
 30
0.0
 11
138.026176
 21
190.893188
 31
0.0
  0
LINE
  5
EF
100
AcDbEntity
  8
0
  6
HIDDEN
 62
   174
100
AcDbLine
 10
151.126176
 20
245.50614
 30
0.0
 11
151.526501
 21
245.50614
 31
0.0
  0
LINE
  5
F0
100
AcDbEntity
  8
0
  6
HIDDEN
 62
   174
100
AcDbLine
 10
269.006176
 20
215.50614
 30
0.0
 11
269.006176
 21
229.50614
 31
0.0
  0
LINE
  5
F1
100
AcDbEntity
  8
0
  6
HIDDEN
 62
   174
100
AcDbLine
 10
140.026176
 20
242.53993
 30
0.0
 11
140.026176
 21
240.324125
 31
0.0
  0
LINE
  5
F2
100
AcDbEntity
  8
0
  6
HIDDEN
 62
   174
100
AcDbLine
 10
131.826176
 20
208.121785
 30
0.0
 11
138.026176
 21
208.121785
 31
0.0
  0
LINE
  5
F3
100
AcDbEntity
  8
0
  6
HIDDEN
 62
   174
100
AcDbLine
 10
131.826176
 20
204.587735
 30
0.0
 11
138.026176
 21
204.587735
 31
0.0
  0
ARC
  5
F4
100
AcDbEntity
  8
0
  6
HIDDEN
 62
   174
100
AcDbCircle
 10
166.026176
 20
242.50614
 30
0.0
 40
3.0
100
AcDbArc
 50
-360.0
 51
-342.0
  0
LINE
  5
F5
100
AcDbEntity
  8
0
  6
Continuous
 62
   174
100
AcDbLine
 10
140.026176
 20
242.50614
 30
0.0
 11
140.026176
 21
240.290023
 31
0.0
  0
LINE
  5
F6
100
AcDbEntity
  8
0
  6
HIDDEN
 62
   174
100
AcDbLine
 10
217.126176
 20
215.50614
 30
0.0
 11
217.126176
 21
229.50614
 31
0.0
  0
LINE
  5
F7
100
AcDbEntity
  8
0
  6
HIDDEN
 62
   174
100
AcDbLine
 10
249.151897
 20
229.50614
 30
0.0
 11
267.951694
 21
229.50614
 31
0.0
  0
LINE
  5
F8
100
AcDbEntity
  8
0
  6
HIDDEN
 62
   174
100
AcDbLine
 10
169.051867
 20
216.50614
 30
0.0
 11
166.051698
 21
216.50614
 31
0.0
  0
LINE
  5
F9
100
AcDbEntity
  8
0
  6
HIDDEN
 62
   174
100
AcDbLine
 10
166.026176
 20
216.50614
 30
0.0
 11
166.026176
 21
242.50614
 31
0.0
  0
LINE
  5
FA
100
AcDbEntity
  8
0
  6
HIDDEN
 62
   174
100
AcDbLine
 10
138.026176
 20
190.893188
 30
0.0
 11
138.026176
 21
194.430206
 31
0.0
  0
LINE
  5
FB
100
AcDbEntity
  8
0
  6
HIDDEN
 62
   174
100
AcDbLine
 10
140.026176
 20
240.290023
 30
0.0
 11
140.026176
 21
242.50614
 31
0.0
  0
LINE
  5
FC
100
AcDbEntity
  8
0
  6
Continuous
 62
   174
100
AcDbLine
 10
139.526176
 20
188.50614
 30
0.0
 11
169.526176
 21
188.50614
 31
0.0
  0
LWPOLYLINE
  5
FD
100
AcDbEntity
  8
0
  6
HIDDEN
 62
   174
100
AcDbPolyline
 90
        6
 70
   128
 10
143.026176
 20
245.50614
 10
142.12086
 20
245.366281
 10
141.312555
 20
244.968558
 10
140.650707
 20
244.338392
 10
140.198881
 20
243.509338
 10
140.026176
 20
242.50614
  0
LINE
  5
FE
100
AcDbEntity
  8
0
  6
HIDDEN
 62
   174
100
AcDbLine
 10
156.782444
 20
245.50614
 30
0.0
 11
157.526176
 21
245.50614
 31
0.0
  0
LINE
  5
FF
100
AcDbEntity
  8
0
  6
HIDDEN
 62
   174
100
AcDbLine
 10
166.026176
 20
216.50614
 30
0.0
 11
143.026176
 21
216.50614
 31
0.0
  0
LINE
  5
100
100
AcDbEntity
  8
0
  6
Continuous
 62
   174
100
AcDbLine
 10
131.826176
 20
197.00614
 30
0.0
 11
138.026176
 21
197.00614
 31
0.0
  0
LINE
  5
101
100
AcDbEntity
  8
0
  6
HIDDEN
 62
   174
100
AcDbLine
 10
143.026176
 20
245.50614
 30
0.0
 11
151.126176
 21
245.50614
 31
0.0
  0
LINE
  5
102
100
AcDbEntity
  8
0
  6
Continuous
 62
   174
100
AcDbLine
 10
138.026176
 20
189.543858
 30
0.0
 11
138.026176
 21
189.861088
 31
0.0
  0
LINE
  5
103
100
AcDbEntity
  8
0
  6
HIDDEN
 62
   174
100
AcDbLine
 10
235.926176
 20
215.50614
 30
0.0
 11
235.926176
 21
229.50614
 31
0.0
  0
LINE
  5
104
100
AcDbEntity
  8
0
  6
HIDDEN
 62
   174
100
AcDbLine
 10
157.926176
 20
245.50614
 30
0.0
 11
166.026176
 21
245.50614
 31
0.0
  0
LINE
  5
105
100
AcDbEntity
  8
0
  6
Continuous
 62
   174
100
AcDbLine
 10
131.826176
 20
189.82336
 30
0.0
 11
138.026176
 21
189.82336
 31
0.0
  0
LWPOLYLINE
  5
106
100
AcDbEntity
  8
0
  6
Continuous
 62
   174
100
AcDbPolyline
 90
        6
 70
   128
 10
121.218996
 20
242.0838
 10
120.85287
 20
242.835491
 10
120.624772
 20
243.572537
 10
120.547868
 20
244.294786
 10
120.624786
 20
245.017025
 10
120.675687
 20
245.228607
  0
LINE
  5
107
100
AcDbEntity
  8
0
  6
Continuous
 62
   174
100
AcDbLine
 10
138.026176
 20
209.224448
 30
0.0
 11
138.026176
 21
209.542279
 31
0.0
  0
ARC
  5
108
100
AcDbEntity
  8
0
  6
Continuous
 62
   174
100
AcDbCircle
 10
210.526176
 20
219.50614
 30
0.0
 40
3.3
100
AcDbArc
 50
0.0
 51
180.0
  0
LINE
  5
109
100
AcDbEntity
  8
0
  6
Continuous
 62
   174
100
AcDbLine
 10
131.826176
 20
194.42721
 30
0.0
 11
138.026176
 21
194.42721
 31
0.0
  0
LINE
  5
10A
100
AcDbEntity
  8
0
  6
HIDDEN
 62
   174
100
AcDbLine
 10
154.526176
 20
245.50614
 30
0.0
 11
156.343581
 21
245.50614
 31
0.0
  0
LINE
  5
10B
100
AcDbEntity
  8
0
  6
HIDDEN
 62
   174
100
AcDbLine
 10
216.046176
 20
215.50614
 30
0.0
 11
216.046176
 21
229.50614
 31
0.0
  0
ARC
  5
10C
100
AcDbEntity
  8
0
  6
Continuous
 62
   174
100
AcDbCircle
 10
258.526176
 20
179.50614
 30
0.0
 40
3.3
100
AcDbArc
 50
0.0
 51
180.0
  0
LINE
  5
10D
100
AcDbEntity
  8
0
  6
Continuous
 62
   174
100
AcDbLine
 10
166.026176
 20
242.50614
 30
0.0
 11
166.026176
 21
216.50614
 31
0.0
  0
ARC
  5
10E
100
AcDbEntity
  8
0
  6
Continuous
 62
   174
100
AcDbCircle
 10
274.526176
 20
219.50614
 30
0.0
 40
3.3
100
AcDbArc
 50
0.0
 51
180.0
  0
LINE
  5
10F
100
AcDbEntity
  8
0
  6
Continuous
 62
   174
100
AcDbLine
 10
120.526176
 20
245.339727
 30
0.0
 11
120.526176
 21
238.431859
 31
0.0
  0
LINE
  5
110
100
AcDbEntity
  8
0
  6
HIDDEN
 62
   174
100
AcDbLine
 10
143.026176
 20
216.50614
 30
0.0
 11
143.026176
 21
242.50614
 31
0.0
  0
LINE
  5
111
100
AcDbEntity
  8
0
  6
HIDDEN
 62
   174
100
AcDbLine
 10
249.126176
 20
215.50614
 30
0.0
 11
249.126176
 21
229.50614
 31
0.0
  0
LINE
  5
112
100
AcDbEntity
  8
0
  6
HIDDEN
 62
   174
100
AcDbLine
 10
217.151899
 20
229.50614
 30
0.0
 11
235.951695
 21
229.50614
 31
0.0
  0
LINE
  5
113
100
AcDbEntity
  8
0
  6
Continuous
 62
   174
100
AcDbLine
 10
138.026176
 20
197.043228
 30
0.0
 11
138.026176
 21
201.039248
 31
0.0
  0
ARC
  5
114
100
AcDbEntity
  8
0
  6
Continuous
 62
   174
100
AcDbCircle
 10
210.526176
 20
219.50614
 30
0.0
 40
3.3
100
AcDbArc
 50
-180.0
 51
0.0
  0
ARC
  5
115
100
AcDbEntity
  8
0
  6
Continuous
 62
   174
100
AcDbCircle
 10
166.026176
 20
242.50614
 30
0.0
 40
3.0
100
AcDbArc
 50
0.0
 51
90.0
  0
LINE
  5
116
100
AcDbEntity
  8
0
  6
Continuous
 62
   174
100
AcDbLine
 10
169.051867
 20
242.50614
 30
0.0
 11
166.051698
 21
242.50614
 31
0.0
  0
LINE
  5
117
100
AcDbEntity
  8
0
  6
Continuous
 62
   174
100
AcDbLine
 10
138.026176
 20
189.50614
 30
0.0
 11
139.526176
 21
189.50614
 31
0.0
  0
LINE
  5
118
100
AcDbEntity
  8
0
  6
Continuous
 62
   174
100
AcDbLine
 10
138.026176
 20
204.621305
 30
0.0
 11
138.026176
 21
208.1565
 31
0.0
  0
LINE
  5
119
100
AcDbEntity
  8
0
  6
Continuous
 62
   174
100
AcDbLine
 10
169.526176
 20
216.50614
 30
0.0
 11
139.526176
 21
216.50614
 31
0.0
  0
LINE
  5
11A
100
AcDbEntity
  8
0
  6
HIDDEN
 62
   174
100
AcDbLine
 10
235.926176
 20
229.50614
 30
0.0
 11
235.926176
 21
214.50614
 31
0.0
  0
LINE
  5
11B
100
AcDbEntity
  8
0
  6
HIDDEN
 62
   174
100
AcDbLine
 10
267.926176
 20
215.50614
 30
0.0
 11
267.926176
 21
229.50614
 31
0.0
  0
ENDBLK
  5
11C
100
AcDbEntity
  8
0
100
AcDbBlockEnd
  0
BLOCK
  5
11F
100
AcDbEntity
  8
0
100
AcDbBlockBegin
  2
*B2
 70
     0
 10
0.0
 20
0.0
 30
0.0
  3
*B2
  1

  0
LINE
  5
120
100
AcDbEntity
  8
0
  6
Continuous
 62
   174
100
AcDbLine
 10
180.381954
 20
109.40663
 30
0.0
 11
180.381954
 21
104.214636
 31
0.0
  0
ARC
  5
121
100
AcDbEntity
  8
0
  6
Continuous
 62
   174
100
AcDbCircle
 10
180.526176
 20
106.810633
 30
0.0
 40
2.6
100
AcDbArc
 50
-86.82017
 51
86.82017
  0
LINE
  5
122
100
AcDbEntity
  8
0
  6
Continuous
 62
   174
100
AcDbLine
 10
180.670398
 20
104.214636
 30
0.0
 11
180.670398
 21
109.40663
 31
0.0
  0
ARC
  5
123
100
AcDbEntity
  8
0
  6
Continuous
 62
   174
100
AcDbCircle
 10
154.526176
 20
106.810633
 30
0.0
 40
3.4
100
AcDbArc
 50
-270.0
 51
-90.0
  0
ARC
  5
124
100
AcDbEntity
  8
0
  6
Continuous
 62
   174
100
AcDbCircle
 10
154.526176
 20
106.810633
 30
0.0
 40
3.4
100
AcDbArc
 50
-90.0
 51
90.0
  0
ARC
  5
125
100
AcDbEntity
  8
0
  6
Continuous
 62
   174
100
AcDbCircle
 10
154.526176
 20
106.810633
 30
0.0
 40
3.0
100
AcDbArc
 50
-217.286546
 51
-52.713454
  0
LINE
  5
126
100
AcDbEntity
  8
0
  6
Continuous
 62
   174
100
AcDbLine
 10
152.139329
 20
108.628038
 30
0.0
 11
156.343581
 21
104.423786
 31
0.0
  0
ARC
  5
127
100
AcDbEntity
  8
0
  6
Continuous
 62
   174
100
AcDbCircle
 10
154.526176
 20
106.810633
 30
0.0
 40
3.0
100
AcDbArc
 50
-41.228296
 51
131.228296
  0
LINE
  5
128
100
AcDbEntity
  8
0
  6
Continuous
 62
   174
100
AcDbLine
 10
156.782444
 20
104.83345
 30
0.0
 11
152.548993
 21
109.066902
 31
0.0
  0
LINE
  5
129
100
AcDbEntity
  8
0
  6
Continuous
 62
   174
100
AcDbLine
 10
128.026176
 20
113.310633
 30
0.0
 11
125.026176
 21
113.310633
 31
0.0
  0
LINE
  5
12A
100
AcDbEntity
  8
0
  6
Continuous
 62
   174
100
AcDbLine
 10
128.026176
 20
100.310633
 30
0.0
 11
125.026176
 21
100.310633
 31
0.0
  0
LINE
  5
12B
100
AcDbEntity
  8
0
  6
Continuous
 62
   174
100
AcDbLine
 10
128.026176
 20
113.310633
 30
0.0
 11
125.026176
 21
113.310633
 31
0.0
  0
LINE
  5
12C
100
AcDbEntity
  8
0
  6
Continuous
 62
   174
100
AcDbLine
 10
128.026176
 20
100.310633
 30
0.0
 11
125.026176
 21
100.310633
 31
0.0
  0
LINE
  5
12D
100
AcDbEntity
  8
0
  6
Continuous
 62
   174
100
AcDbLine
 10
125.026176
 20
97.810633
 30
0.0
 11
124.326176
 21
97.810633
 31
0.0
  0
LINE
  5
12E
100
AcDbEntity
  8
0
  6
Continuous
 62
   174
100
AcDbLine
 10
140.026176
 20
113.055631
 30
0.0
 11
140.026176
 21
114.310633
 31
0.0
  0
LINE
  5
12F
100
AcDbEntity
  8
0
  6
Continuous
 62
   174
100
AcDbLine
 10
185.526176
 20
121.810633
 30
0.0
 11
185.526176
 21
91.810633
 31
0.0
  0
LINE
  5
130
100
AcDbEntity
  8
0
  6
Continuous
 62
   174
100
AcDbLine
 10
128.026176
 20
100.248356
 30
0.0
 11
128.026176
 21
98.854766
 31
0.0
  0
LINE
  5
131
100
AcDbEntity
  8
0
  6
Continuous
 62
   174
100
AcDbLine
 10
131.826176
 20
97.128175
 30
0.0
 11
138.026176
 21
97.128175
 31
0.0
  0
LINE
  5
132
100
AcDbEntity
  8
0
  6
Continuous
 62
   174
100
AcDbLine
 10
131.826176
 20
98.196237
 30
0.0
 11
138.026176
 21
98.196237
 31
0.0
  0
LINE
  5
133
100
AcDbEntity
  8
0
  6
Continuous
 62
   174
100
AcDbLine
 10
131.826176
 20
115.423263
 30
0.0
 11
138.026176
 21
115.423263
 31
0.0
  0
LINE
  5
134
100
AcDbEntity
  8
0
  6
Continuous
 62
   174
100
AcDbLine
 10
140.051737
 20
99.310633
 30
0.0
 11
143.051906
 21
99.310633
 31
0.0
  0
LINE
  5
135
100
AcDbEntity
  8
0
  6
Continuous
 62
   174
100
AcDbLine
 10
138.026176
 20
96.810633
 30
0.0
 11
138.526176
 21
96.810633
 31
0.0
  0
ARC
  5
136
100
AcDbEntity
  8
0
  6
Continuous
 62
   174
100
AcDbCircle
 10
143.026176
 20
114.310633
 30
0.0
 40
3.0
100
AcDbArc
 50
-270.0
 51
-180.0
  0
ARC
  5
137
100
AcDbEntity
  8
0
  6
Continuous
 62
   174
100
AcDbCircle
 10
226.526176
 20
106.810633
 30
0.0
 40
10.48
100
AcDbArc
 50
-180.0
 51
-61.197359
  0
LINE
  5
138
100
AcDbEntity
  8
0
  6
Continuous
 62
   174
100
AcDbLine
 10
166.026176
 20
96.355076
 30
0.0
 11
166.026176
 21
99.354944
 31
0.0
  0
LINE
  5
139
100
AcDbEntity
  8
0
  6
Continuous
 62
   174
100
AcDbLine
 10
125.026176
 20
115.810633
 30
0.0
 11
124.326176
 21
115.810633
 31
0.0
  0
LINE
  5
13A
100
AcDbEntity
  8
0
  6
Continuous
 62
   174
100
AcDbLine
 10
185.526176
 20
91.810633
 30
0.0
 11
185.526176
 21
121.810633
 31
0.0
  0
LINE
  5
13B
100
AcDbEntity
  8
0
  6
Continuous
 62
   174
100
AcDbLine
 10
143.026176
 20
117.310633
 30
0.0
 11
166.026176
 21
117.310633
 31
0.0
  0
LINE
  5
13C
100
AcDbEntity
  8
0
  6
Continuous
 62
   174
100
AcDbLine
 10
185.526176
 20
91.810633
 30
0.0
 11
169.526176
 21
91.810633
 31
0.0
  0
LINE
  5
13D
100
AcDbEntity
  8
0
  6
Continuous
 62
   174
100
AcDbLine
 10
128.026176
 20
113.460274
 30
0.0
 11
128.026176
 21
100.248356
 31
0.0
  0
LINE
  5
13E
100
AcDbEntity
  8
0
  6
Continuous
 62
   174
100
AcDbLine
 10
124.326176
 20
114.692545
 30
0.0
 11
124.326176
 21
106.764493
 31
0.0
  0
LINE
  5
13F
100
AcDbEntity
  8
0
  6
Continuous
 62
   174
100
AcDbLine
 10
120.526176
 20
114.653792
 30
0.0
 11
120.526176
 21
111.500416
 31
0.0
  0
LWPOLYLINE
  5
140
100
AcDbEntity
  8
0
  6
Continuous
 62
   174
100
AcDbPolyline
 90
        4
 70
   128
 10
120.526176
 20
111.457228
 10
120.659296
 20
112.510937
 10
120.892379
 20
113.569349
 10
121.218996
 20
114.64944
  0
LWPOLYLINE
  5
141
100
AcDbEntity
  8
0
  6
Continuous
 62
   174
100
AcDbPolyline
 90
        6
 70
   128
 10
140.026176
 20
100.565635
 10
140.198518
 20
101.521597
 10
140.650319
 20
102.648037
 10
141.313389
 20
103.929027
 10
142.12192
 20
105.323044
 10
143.026176
 20
106.810633
  0
LINE
  5
142
100
AcDbEntity
  8
0
  6
Continuous
 62
   174
100
AcDbLine
 10
131.826176
 20
116.492222
 30
0.0
 11
138.026176
 21
116.492222
 31
0.0
  0
LINE
  5
143
100
AcDbEntity
  8
0
  6
Continuous
 62
   174
100
AcDbLine
 10
131.826176
 20
115.423263
 30
0.0
 11
131.826176
 21
114.810633
 31
0.0
  0
LINE
  5
144
100
AcDbEntity
  8
0
  6
Continuous
 62
   174
100
AcDbLine
 10
138.526176
 20
116.810633
 30
0.0
 11
139.526176
 21
116.810633
 31
0.0
  0
LINE
  5
145
100
AcDbEntity
  8
0
  6
Continuous
 62
   174
100
AcDbLine
 10
138.026176
 20
96.967607
 30
0.0
 11
138.026176
 21
97.172484
 31
0.0
  0
ARC
  5
146
100
AcDbEntity
  8
0
  6
Continuous
 62
   174
100
AcDbCircle
 10
258.526176
 20
106.810633
 30
0.0
 40
9.4
100
AcDbArc
 50
0.0
 51
180.0
  0
ARC
  5
147
100
AcDbEntity
  8
0
  6
Continuous
 62
   174
100
AcDbCircle
 10
226.526176
 20
106.810633
 30
0.0
 40
9.4
100
AcDbArc
 50
0.0
 51
180.0
  0
LINE
  5
148
100
AcDbEntity
  8
0
  6
Continuous
 62
   174
100
AcDbLine
 10
166.026176
 20
117.310633
 30
0.0
 11
143.026176
 21
117.310633
 31
0.0
  0
LINE
  5
149
100
AcDbEntity
  8
0
  6
Continuous
 62
   174
100
AcDbLine
 10
299.526176
 20
91.810633
 30
0.0
 11
185.526176
 21
91.810633
 31
0.0
  0
LINE
  5
14A
100
AcDbEntity
  8
0
  6
Continuous
 62
   174
100
AcDbLine
 10
169.526176
 20
91.810633
 30
0.0
 11
169.526176
 21
121.810633
 31
0.0
  0
LINE
  5
14B
100
AcDbEntity
  8
0
  6
Continuous
 62
   174
100
AcDbLine
 10
125.026176
 20
113.56812
 30
0.0
 11
125.026176
 21
115.85362
 31
0.0
  0
LINE
  5
14C
100
AcDbEntity
  8
0
  6
Continuous
 62
   174
100
AcDbLine
 10
124.326176
 20
115.85362
 30
0.0
 11
124.326176
 21
114.692545
 31
0.0
  0
LWPOLYLINE
  5
14D
100
AcDbEntity
  8
0
  6
Continuous
 62
   174
100
AcDbPolyline
 90
        3
 70
   128
 10
121.218996
 20
114.64944
 10
120.852894
 20
114.64944
 10
120.624794
 20
114.64944
  0
LWPOLYLINE
  5
14E
100
AcDbEntity
  8
0
  6
Continuous
 62
   174
100
AcDbPolyline
 90
        6
 70
   128
 10
143.026176
 20
106.810633
 10
142.12086
 20
108.299993
 10
141.312555
 20
109.693742
 10
140.650707
 20
110.972404
 10
140.198881
 20
112.098508
 10
140.026176
 20
113.055631
  0
LINE
  5
14F
100
AcDbEntity
  8
0
  6
Continuous
 62
   174
100
AcDbLine
 10
131.826176
 20
98.810633
 30
0.0
 11
131.826176
 21
98.196237
 31
0.0
  0
LINE
  5
150
100
AcDbEntity
  8
0
  6
Continuous
 62
   174
100
AcDbLine
 10
143.026176
 20
99.310633
 30
0.0
 11
143.026176
 21
106.810633
 31
0.0
  0
LINE
  5
151
100
AcDbEntity
  8
0
  6
Continuous
 62
   174
100
AcDbLine
 10
138.026176
 20
116.810633
 30
0.0
 11
138.526176
 21
116.810633
 31
0.0
  0
LINE
  5
152
100
AcDbEntity
  8
0
  6
Continuous
 62
   174
100
AcDbLine
 10
138.526176
 20
96.810633
 30
0.0
 11
139.526176
 21
96.810633
 31
0.0
  0
LINE
  5
153
100
AcDbEntity
  8
0
  6
Continuous
 62
   174
100
AcDbLine
 10
143.051906
 20
114.310633
 30
0.0
 11
140.051737
 21
114.310633
 31
0.0
  0
LINE
  5
154
100
AcDbEntity
  8
0
  6
Continuous
 62
   174
100
AcDbLine
 10
169.526176
 20
95.810633
 30
0.0
 11
139.526176
 21
95.810633
 31
0.0
  0
LINE
  5
155
100
AcDbEntity
  8
0
  6
Continuous
 62
   174
100
AcDbLine
 10
166.051698
 20
114.310633
 30
0.0
 11
169.051867
 21
114.310633
 31
0.0
  0
ARC
  5
156
100
AcDbEntity
  8
0
  6
Continuous
 62
   174
100
AcDbCircle
 10
166.026176
 20
99.310633
 30
0.0
 40
3.0
100
AcDbArc
 50
-90.0
 51
0.0
  0
LINE
  5
157
100
AcDbEntity
  8
0
  6
Continuous
 62
   174
100
AcDbLine
 10
128.026176
 20
98.810633
 30
0.0
 11
140.068136
 21
98.810633
 31
0.0
  0
LINE
  5
158
100
AcDbEntity
  8
0
  6
Continuous
 62
   174
100
AcDbLine
 10
128.026176
 20
114.810633
 30
0.0
 11
140.068136
 21
114.810633
 31
0.0
  0
LINE
  5
159
100
AcDbEntity
  8
0
  6
Continuous
 62
   174
100
AcDbLine
 10
185.526176
 20
121.810633
 30
0.0
 11
169.526176
 21
121.810633
 31
0.0
  0
LINE
  5
15A
100
AcDbEntity
  8
0
  6
Continuous
 62
   174
100
AcDbLine
 10
128.026176
 20
114.853563
 30
0.0
 11
128.026176
 21
113.460274
 31
0.0
  0
LINE
  5
15B
100
AcDbEntity
  8
0
  6
Continuous
 62
   174
100
AcDbLine
 10
125.026176
 20
97.85501
 30
0.0
 11
125.026176
 21
100.14051
 31
0.0
  0
LINE
  5
15C
100
AcDbEntity
  8
0
  6
Continuous
 62
   174
100
AcDbLine
 10
124.326176
 20
106.764493
 30
0.0
 11
124.326176
 21
99.105906
 31
0.0
  0
LINE
  5
15D
100
AcDbEntity
  8
0
  6
Continuous
 62
   174
100
AcDbLine
 10
131.826176
 20
98.240433
 30
0.0
 11
131.826176
 21
97.172484
 31
0.0
  0
LINE
  5
15E
100
AcDbEntity
  8
0
  6
Continuous
 62
   174
100
AcDbLine
 10
120.526176
 20
109.956322
 30
0.0
 11
120.526176
 21
99.105906
 31
0.0
  0
LINE
  5
15F
100
AcDbEntity
  8
0
  6
Continuous
 62
   174
100
AcDbLine
 10
143.026176
 20
106.810633
 30
0.0
 11
143.026176
 21
114.310633
 31
0.0
  0
LINE
  5
160
100
AcDbEntity
  8
0
  6
Continuous
 62
   174
100
AcDbLine
 10
166.026176
 20
99.310633
 30
0.0
 11
143.026176
 21
99.310633
 31
0.0
  0
LINE
  5
161
100
AcDbEntity
  8
0
  6
Continuous
 62
   174
100
AcDbLine
 10
140.026176
 20
114.310633
 30
0.0
 11
140.026176
 21
113.055631
 31
0.0
  0
LINE
  5
162
100
AcDbEntity
  8
0
  6
Continuous
 62
   174
100
AcDbLine
 10
139.526176
 20
117.810633
 30
0.0
 11
169.526176
 21
117.810633
 31
0.0
  0
LINE
  5
163
100
AcDbEntity
  8
0
  6
Continuous
 62
   174
100
AcDbLine
 10
138.026176
 20
114.879999
 30
0.0
 11
138.026176
 21
115.466394
 31
0.0
  0
ARC
  5
164
100
AcDbEntity
  8
0
  6
Continuous
 62
   174
100
AcDbCircle
 10
258.526176
 20
106.810633
 30
0.0
 40
10.48
100
AcDbArc
 50
-360.0
 51
-180.0
  0
LINE
  5
165
100
AcDbEntity
  8
0
  6
Continuous
 62
   174
100
AcDbLine
 10
169.026176
 20
99.310633
 30
0.0
 11
169.026176
 21
114.310633
 31
0.0
  0
LINE
  5
166
100
AcDbEntity
  8
0
  6
Continuous
 62
   174
100
AcDbLine
 10
128.026176
 20
98.810633
 30
0.0
 11
140.068136
 21
98.810633
 31
0.0
  0
LINE
  5
167
100
AcDbEntity
  8
0
  6
Continuous
 62
   174
100
AcDbLine
 10
121.218996
 20
99.061761
 30
0.0
 11
124.326176
 21
99.061761
 31
0.0
  0
LINE
  5
168
100
AcDbEntity
  8
0
  6
Continuous
 62
   174
100
AcDbLine
 10
124.326176
 20
114.64944
 30
0.0
 11
121.218996
 21
114.64944
 31
0.0
  0
LINE
  5
169
100
AcDbEntity
  8
0
  6
Continuous
 62
   174
100
AcDbLine
 10
140.026176
 20
100.565635
 30
0.0
 11
140.026176
 21
99.310633
 31
0.0
  0
LINE
  5
16A
100
AcDbEntity
  8
0
  6
Continuous
 62
   174
100
AcDbLine
 10
138.026176
 20
116.741023
 30
0.0
 11
138.026176
 21
116.853676
 31
0.0
  0
LINE
  5
16B
100
AcDbEntity
  8
0
  6
Continuous
 62
   174
100
AcDbLine
 10
139.526176
 20
114.810633
 30
0.0
 11
139.526176
 21
117.810633
 31
0.0
  0
ARC
  5
16C
100
AcDbEntity
  8
0
  6
Continuous
 62
   174
100
AcDbCircle
 10
226.526176
 20
106.810633
 30
0.0
 40
9.4
100
AcDbArc
 50
-180.0
 51
0.0
  0
LINE
  5
16D
100
AcDbEntity
  8
0
  6
Continuous
 62
   174
100
AcDbLine
 10
169.051867
 20
99.310633
 30
0.0
 11
166.051698
 21
99.310633
 31
0.0
  0
LINE
  5
16E
100
AcDbEntity
  8
0
  6
Continuous
 62
   174
100
AcDbLine
 10
128.026176
 20
114.810633
 30
0.0
 11
140.068136
 21
114.810633
 31
0.0
  0
LINE
  5
16F
100
AcDbEntity
  8
0
  6
Continuous
 62
   174
100
AcDbLine
 10
140.026176
 20
99.310633
 30
0.0
 11
140.026176
 21
100.565635
 31
0.0
  0
LINE
  5
170
100
AcDbEntity
  8
0
  6
Continuous
 62
   174
100
AcDbLine
 10
299.526176
 20
121.810633
 30
0.0
 11
185.526176
 21
121.810633
 31
0.0
  0
LINE
  5
171
100
AcDbEntity
  8
0
  6
Continuous
 62
   174
100
AcDbLine
 10
125.026176
 20
100.14051
 30
0.0
 11
125.026176
 21
113.56812
 31
0.0
  0
LINE
  5
172
100
AcDbEntity
  8
0
  6
Continuous
 62
   174
100
AcDbLine
 10
124.326176
 20
99.105906
 30
0.0
 11
124.326176
 21
97.85501
 31
0.0
  0
LINE
  5
173
100
AcDbEntity
  8
0
  6
Continuous
 62
   174
100
AcDbLine
 10
120.526176
 20
109.912912
 30
0.0
 11
120.526176
 21
111.457228
 31
0.0
  0
LWPOLYLINE
  5
174
100
AcDbEntity
  8
0
  6
Continuous
 62
   174
100
AcDbPolyline
 90
        7
 70
   128
 10
121.218996
 20
99.061761
 10
120.85287
 20
100.363727
 10
120.624772
 20
101.640329
 10
120.547868
 20
102.891299
 10
120.624786
 20
104.142254
 10
120.852887
 20
105.418809
 10
121.218996
 20
106.7207
  0
LINE
  5
175
100
AcDbEntity
  8
0
  6
Continuous
 62
   174
100
AcDbLine
 10
138.526176
 20
116.810633
 30
0.0
 11
139.526176
 21
116.810633
 31
0.0
  0
LINE
  5
176
100
AcDbEntity
  8
0
  6
Continuous
 62
   174
100
AcDbLine
 10
166.026176
 20
114.310633
 30
0.0
 11
166.026176
 21
99.310633
 31
0.0
  0
ARC
  5
177
100
AcDbEntity
  8
0
  6
Continuous
 62
   174
100
AcDbCircle
 10
258.526176
 20
106.810633
 30
0.0
 40
9.4
100
AcDbArc
 50
-180.0
 51
0.0
  0
LINE
  5
178
100
AcDbEntity
  8
0
  6
Continuous
 62
   174
100
AcDbLine
 10
143.026176
 20
96.355076
 30
0.0
 11
143.026176
 21
99.354944
 31
0.0
  0
LINE
  5
179
100
AcDbEntity
  8
0
  6
Continuous
 62
   174
100
AcDbLine
 10
166.026176
 20
114.353685
 30
0.0
 11
166.026176
 21
117.353554
 31
0.0
  0
LINE
  5
17A
100
AcDbEntity
  8
0
  6
Continuous
 62
   174
100
AcDbLine
 10
169.026176
 20
114.310633
 30
0.0
 11
169.026176
 21
99.310633
 31
0.0
  0
LINE
  5
17B
100
AcDbEntity
  8
0
  6
Continuous
 62
   174
100
AcDbLine
 10
299.526176
 20
121.810633
 30
0.0
 11
299.526176
 21
91.810633
 31
0.0
  0
LWPOLYLINE
  5
17C
100
AcDbEntity
  8
0
  6
Continuous
 62
   174
100
AcDbPolyline
 90
        4
 70
   128
 10
120.526176
 20
99.061761
 10
120.659296
 20
99.061761
 10
120.892381
 20
99.061761
 10
121.218996
 20
99.061761
  0
LINE
  5
17D
100
AcDbEntity
  8
0
  6
Continuous
 62
   174
100
AcDbLine
 10
120.573921
 20
114.64944
 30
0.0
 11
120.650525
 21
114.64944
 31
0.0
  0
ARC
  5
17E
100
AcDbEntity
  8
0
  6
Continuous
 62
   174
100
AcDbCircle
 10
143.026176
 20
99.310633
 30
0.0
 40
3.0
100
AcDbArc
 50
-180.0
 51
-90.0
  0
LINE
  5
17F
100
AcDbEntity
  8
0
  6
Continuous
 62
   174
100
AcDbLine
 10
138.026176
 20
116.535244
 30
0.0
 11
138.026176
 21
116.741023
 31
0.0
  0
ARC
  5
180
100
AcDbEntity
  8
0
  6
Continuous
 62
   174
100
AcDbCircle
 10
258.526176
 20
106.810633
 30
0.0
 40
10.48
100
AcDbArc
 50
-180.0
 51
-61.205132
  0
LINE
  5
181
100
AcDbEntity
  8
0
  6
Continuous
 62
   174
100
AcDbLine
 10
139.526176
 20
95.810633
 30
0.0
 11
139.526176
 21
98.810633
 31
0.0
  0
ARC
  5
182
100
AcDbEntity
  8
0
  6
Continuous
 62
   174
100
AcDbCircle
 10
166.026176
 20
114.310633
 30
0.0
 40
3.0
100
AcDbArc
 50
0.0
 51
90.0
  0
LINE
  5
183
100
AcDbEntity
  8
0
  6
Continuous
 62
   174
100
AcDbLine
 10
125.026176
 20
97.810633
 30
0.0
 11
124.326176
 21
97.810633
 31
0.0
  0
LINE
  5
184
100
AcDbEntity
  8
0
  6
Continuous
 62
   174
100
AcDbLine
 10
125.026176
 20
115.810633
 30
0.0
 11
124.326176
 21
115.810633
 31
0.0
  0
LINE
  5
185
100
AcDbEntity
  8
0
  6
Continuous
 62
   174
100
AcDbLine
 10
120.526176
 20
114.610633
 30
0.0
 11
120.624772
 21
114.781407
 31
0.0
  0
LINE
  5
186
100
AcDbEntity
  8
0
  6
Continuous
 62
   174
100
AcDbLine
 10
131.826176
 20
116.535244
 30
0.0
 11
131.826176
 21
115.466394
 31
0.0
  0
LINE
  5
187
100
AcDbEntity
  8
0
  6
Continuous
 62
   174
100
AcDbLine
 10
124.326176
 20
106.7207
 30
0.0
 11
121.218996
 21
106.7207
 31
0.0
  0
LWPOLYLINE
  5
188
100
AcDbEntity
  8
0
  6
Continuous
 62
   174
100
AcDbPolyline
 90
        4
 70
   128
 10
121.218996
 20
106.7207
 10
120.891096
 20
107.805669
 10
120.658341
 20
108.864668
 10
120.526176
 20
109.912912
  0
LINE
  5
189
100
AcDbEntity
  8
0
  6
Continuous
 62
   174
100
AcDbLine
 10
143.026176
 20
114.310633
 30
0.0
 11
166.026176
 21
114.310633
 31
0.0
  0
LINE
  5
18A
100
AcDbEntity
  8
0
  6
Continuous
 62
   174
100
AcDbLine
 10
138.026176
 20
96.854954
 30
0.0
 11
138.026176
 21
96.967607
 31
0.0
  0
LINE
  5
18B
100
AcDbEntity
  8
0
  6
Continuous
 62
   174
100
AcDbLine
 10
138.026176
 20
98.240433
 30
0.0
 11
138.026176
 21
98.82863
 31
0.0
  0
ARC
  5
18C
100
AcDbEntity
  8
0
  6
Continuous
 62
   174
100
AcDbCircle
 10
226.526176
 20
106.810633
 30
0.0
 40
10.48
100
AcDbArc
 50
-360.0
 51
-180.0
  0
LINE
  5
18D
100
AcDbEntity
  8
0
  6
Continuous
 62
   174
100
AcDbLine
 10
143.026176
 20
96.310633
 30
0.0
 11
166.026176
 21
96.310633
 31
0.0
  0
ARC
  5
18E
100
AcDbEntity
  8
0
  6
Continuous
 62
   174
100
AcDbCircle
 10
180.526176
 20
106.810633
 30
0.0
 40
3.0
100
AcDbArc
 50
-270.0
 51
-90.0
  0
ARC
  5
18F
100
AcDbEntity
  8
0
  6
Continuous
 62
   174
100
AcDbCircle
 10
180.526176
 20
106.810633
 30
0.0
 40
2.6
100
AcDbArc
 50
-266.82017
 51
-93.17983
  0
LINE
  5
190
100
AcDbEntity
  8
0
  6
Continuous
 62
   174
100
AcDbLine
 10
143.026176
 20
114.353685
 30
0.0
 11
143.026176
 21
117.353554
 31
0.0
  0
ARC
  5
191
100
AcDbEntity
  8
0
  6
Continuous
 62
   174
100
AcDbCircle
 10
180.526176
 20
106.810633
 30
0.0
 40
3.0
100
AcDbArc
 50
-90.0
 51
90.0
  0
ENDBLK
  5
192
100
AcDbEntity
  8
0
100
AcDbBlockEnd
  0
BLOCK
  5
195
100
AcDbEntity
  8
0
100
AcDbBlockBegin
  2
*B3
 70
     0
 10
0.0
 20
0.0
 30
0.0
  3
*B3
  1

  0
LINE
  5
196
100
AcDbEntity
  8
0
  6
Continuous
 62
   172
100
AcDbLine
 10
157.925298
 20
191.339782
 30
0.0
 11
131.388124
 21
146.212352
 31
0.0
  0
LINE
  5
197
100
AcDbEntity
  8
0
  6
Continuous
 62
   172
100
AcDbLine
 10
131.388124
 20
146.212352
 30
0.0
 11
118.775298
 21
146.212352
 31
0.0
  0
ENDBLK
  5
198
100
AcDbEntity
  8
0
100
AcDbBlockEnd
  0
BLOCK
  5
19B
100
AcDbEntity
  8
0
100
AcDbBlockBegin
  2
*B4
 70
     0
 10
0.0
 20
0.0
 30
0.0
  3
*B4
  1

  0
LINE
  5
19C
100
AcDbEntity
  8
0
  6
Continuous
 62
   172
100
AcDbLine
 10
128.76739
 20
148.947689
 30
0.0
 11
126.06739
 21
149.939782
 31
0.0
  0
LINE
  5
19D
100
AcDbEntity
  8
0
  6
Continuous
 62
   172
100
AcDbLine
 10
128.76739
 20
148.947689
 30
0.0
 11
126.06739
 21
148.139782
 31
0.0
  0
LINE
  5
19E
100
AcDbEntity
  8
0
  6
Continuous
 62
   172
100
AcDbLine
 10
126.96739
 20
148.947689
 30
0.0
 11
128.76739
 21
148.947689
 31
0.0
  0
LINE
  5
19F
100
AcDbEntity
  8
0
  6
Continuous
 62
   172
100
AcDbLine
 10
128.76739
 20
164.431874
 30
0.0
 11
126.06739
 21
163.439782
 31
0.0
  0
LINE
  5
1A0
100
AcDbEntity
  8
0
  6
Continuous
 62
   172
100
AcDbLine
 10
128.76739
 20
164.431874
 30
0.0
 11
126.06739
 21
165.239782
 31
0.0
  0
LINE
  5
1A1
100
AcDbEntity
  8
0
  6
Continuous
 62
   172
100
AcDbLine
 10
126.96739
 20
164.431874
 30
0.0
 11
128.76739
 21
164.431874
 31
0.0
  0
ARC
  5
1A2
100
AcDbEntity
  8
0
  6
Continuous
 62
   172
100
AcDbCircle
 10
126.96739
 20
156.689782
 30
0.0
 40
7.742093
100
AcDbArc
 50
-270.0
 51
-90.0
  0
ENDBLK
  5
1A3
100
AcDbEntity
  8
0
100
AcDbBlockEnd
  0
BLOCK
  5
1A6
100
AcDbEntity
  8
0
100
AcDbBlockBegin
  2
*B5
 70
     0
 10
0.0
 20
0.0
 30
0.0
  3
*B5
  1

  0
ENDBLK
  5
1A7
100
AcDbEntity
  8
0
100
AcDbBlockEnd
  0
BLOCK
  5
1A9
100
AcDbEntity
  8
0
100
AcDbBlockBegin
  2
*B6
 70
     0
 10
0.0
 20
0.0
 30
0.0
  3
*B6
  1

  0
LINE
  5
1AA
100
AcDbEntity
  8
0
  6
Continuous
 62
     0
100
AcDbLine
 10
329.025421
 20
121.853056
 30
0.0
 11
329.025421
 21
91.855273
 31
0.0
  0
SOLID
  5
1AB
100
AcDbEntity
  8
0
  6
Continuous
 62
     0
100
AcDbTrace
 10
330.025477
 20
116.853676
 30
0.0
 11
329.025421
 21
121.853056
 31
0.0
 12
328.025665
 22
116.853676
 32
0.0
 13
328.025665
 23
116.853676
 33
0.0
  0
SOLID
  5
1AC
100
AcDbEntity
  8
0
  6
Continuous
 62
     0
100
AcDbTrace
 10
328.025665
 20
96.854954
 30
0.0
 11
329.025421
 21
91.855273
 31
0.0
 12
330.025477
 22
96.854954
 32
0.0
 13
330.025477
 23
96.854954
 33
0.0
  0
ENDBLK
  5
1AD
100
AcDbEntity
  8
0
100
AcDbBlockEnd
  0
BLOCK
  5
1B0
100
AcDbEntity
  8
0
100
AcDbBlockBegin
  2
*B7
 70
     0
 10
0.0
 20
0.0
 30
0.0
  3
*B7
  1

  0
LINE
  5
1B1
100
AcDbEntity
  8
0
  6
Continuous
 62
     0
100
AcDbLine
 10
330.025477
 20
229.541001
 30
0.0
 11
330.025477
 21
169.545135
 31
0.0
  0
SOLID
  5
1B2
100
AcDbEntity
  8
0
  6
Continuous
 62
     0
100
AcDbTrace
 10
331.025534
 20
224.541321
 30
0.0
 11
330.025477
 21
229.541001
 31
0.0
 12
329.025421
 22
224.541321
 32
0.0
 13
329.025421
 23
224.541321
 33
0.0
  0
SOLID
  5
1B3
100
AcDbEntity
  8
0
  6
Continuous
 62
     0
100
AcDbTrace
 10
329.025421
 20
174.544816
 30
0.0
 11
330.025477
 21
169.545135
 31
0.0
 12
331.025534
 22
174.544816
 32
0.0
 13
331.025534
 23
174.544816
 33
0.0
  0
ENDBLK
  5
1B4
100
AcDbEntity
  8
0
100
AcDbBlockEnd
  0
BLOCK
  5
1B7
100
AcDbEntity
  8
0
100
AcDbBlockBegin
  2
*B8
 70
     0
 10
0.0
 20
0.0
 30
0.0
  3
*B8
  1

  0
LINE
  5
1B8
100
AcDbEntity
  8
0
  6
Continuous
 62
     0
100
AcDbLine
 10
316.025591
 20
219.54164
 30
0.0
 11
316.025591
 21
179.544497
 31
0.0
  0
SOLID
  5
1B9
100
AcDbEntity
  8
0
  6
Continuous
 62
     0
100
AcDbTrace
 10
317.025647
 20
214.54196
 30
0.0
 11
316.025591
 21
219.54164
 31
0.0
 12
315.025535
 22
214.54196
 32
0.0
 13
315.025535
 23
214.54196
 33
0.0
  0
SOLID
  5
1BA
100
AcDbEntity
  8
0
  6
Continuous
 62
     0
100
AcDbTrace
 10
315.025535
 20
184.544177
 30
0.0
 11
316.025591
 21
179.544497
 31
0.0
 12
317.025647
 22
184.544177
 32
0.0
 13
317.025647
 23
184.544177
 33
0.0
  0
ENDBLK
  5
1BB
100
AcDbEntity
  8
0
100
AcDbBlockEnd
  0
BLOCK
  5
1BE
100
AcDbEntity
  8
0
100
AcDbBlockBegin
  2
*B9
 70
     0
 10
0.0
 20
0.0
 30
0.0
  3
*B9
  1

  0
LINE
  5
1BF
100
AcDbEntity
  8
0
  6
Continuous
 62
     0
100
AcDbLine
 10
169.551744
 20
260.032654
 30
0.0
 11
120.551991
 21
260.032654
 31
0.0
  0
SOLID
  5
1C0
100
AcDbEntity
  8
0
  6
Continuous
 62
     0
100
AcDbTrace
 10
164.551764
 20
259.032598
 30
0.0
 11
169.551744
 21
260.032654
 31
0.0
 12
164.551764
 22
261.03241
 32
0.0
 13
164.551764
 23
261.03241
 33
0.0
  0
SOLID
  5
1C1
100
AcDbEntity
  8
0
  6
Continuous
 62
     0
100
AcDbTrace
 10
125.551972
 20
261.03241
 30
0.0
 11
120.551991
 21
260.032654
 31
0.0
 12
125.551972
 22
259.032598
 32
0.0
 13
125.551972
 23
259.032598
 33
0.0
  0
ENDBLK
  5
1C2
100
AcDbEntity
  8
0
100
AcDbBlockEnd
  0
BLOCK
  5
1C5
100
AcDbEntity
  8
0
100
AcDbBlockBegin
  2
*B10
 70
     0
 10
0.0
 20
0.0
 30
0.0
  3
*B10
  1

  0
LINE
  5
1C6
100
AcDbEntity
  8
0
  6
Continuous
 62
     0
100
AcDbLine
 10
258.551645
 20
244.033856
 30
0.0
 11
299.551849
 21
244.033856
 31
0.0
  0
SOLID
  5
1C7
100
AcDbEntity
  8
0
  6
Continuous
 62
     0
100
AcDbTrace
 10
263.551626
 20
245.033612
 30
0.0
 11
258.551645
 21
244.033856
 31
0.0
 12
263.551626
 22
243.0338
 32
0.0
 13
263.551626
 23
243.0338
 33
0.0
  0
SOLID
  5
1C8
100
AcDbEntity
  8
0
  6
Continuous
 62
     0
100
AcDbTrace
 10
294.551868
 20
243.0338
 30
0.0
 11
299.551849
 21
244.033856
 31
0.0
 12
294.551868
 22
245.033612
 32
0.0
 13
294.551868
 23
245.033612
 33
0.0
  0
ENDBLK
  5
1C9
100
AcDbEntity
  8
0
100
AcDbBlockEnd
  0
BLOCK
  5
1CC
100
AcDbEntity
  8
0
100
AcDbBlockBegin
  2
*B11
 70
     0
 10
0.0
 20
0.0
 30
0.0
  3
*B11
  1

  0
LINE
  5
1CD
100
AcDbEntity
  8
0
  6
Continuous
 62
     0
100
AcDbLine
 10
226.551647
 20
244.033856
 30
0.0
 11
258.551645
 21
244.033856
 31
0.0
  0
SOLID
  5
1CE
100
AcDbEntity
  8
0
  6
Continuous
 62
     0
100
AcDbTrace
 10
231.551929
 20
245.033612
 30
0.0
 11
226.551647
 21
244.033856
 31
0.0
 12
231.551929
 22
243.0338
 32
0.0
 13
231.551929
 23
243.0338
 33
0.0
  0
SOLID
  5
1CF
100
AcDbEntity
  8
0
  6
Continuous
 62
     0
100
AcDbTrace
 10
253.551664
 20
243.0338
 30
0.0
 11
258.551645
 21
244.033856
 31
0.0
 12
253.551664
 22
245.033612
 32
0.0
 13
253.551664
 23
245.033612
 33
0.0
  0
ENDBLK
  5
1D0
100
AcDbEntity
  8
0
100
AcDbBlockEnd
  0
BLOCK
  5
1D3
100
AcDbEntity
  8
0
100
AcDbBlockBegin
  2
*B12
 70
     0
 10
0.0
 20
0.0
 30
0.0
  3
*B12
  1

  0
LINE
  5
1D4
100
AcDbEntity
  8
0
  6
Continuous
 62
     0
100
AcDbLine
 10
274.551644
 20
155.040264
 30
0.0
 11
299.551849
 21
155.040264
 31
0.0
  0
SOLID
  5
1D5
100
AcDbEntity
  8
0
  6
Continuous
 62
     0
100
AcDbTrace
 10
279.551926
 20
156.04002
 30
0.0
 11
274.551644
 21
155.040264
 31
0.0
 12
279.551926
 22
154.040208
 32
0.0
 13
279.551926
 23
154.040208
 33
0.0
  0
SOLID
  5
1D6
100
AcDbEntity
  8
0
  6
Continuous
 62
     0
100
AcDbTrace
 10
294.551868
 20
154.040208
 30
0.0
 11
299.551849
 21
155.040264
 31
0.0
 12
294.551868
 22
156.04002
 32
0.0
 13
294.551868
 23
156.04002
 33
0.0
  0
ENDBLK
  5
1D7
100
AcDbEntity
  8
0
100
AcDbBlockEnd
  0
BLOCK
  5
1DA
100
AcDbEntity
  8
0
100
AcDbBlockBegin
  2
*B13
 70
     0
 10
0.0
 20
0.0
 30
0.0
  3
*B13
  1

  0
LINE
  5
1DB
100
AcDbEntity
  8
0
  6
Continuous
 62
     0
100
AcDbLine
 10
242.551947
 20
155.040264
 30
0.0
 11
274.551644
 21
155.040264
 31
0.0
  0
SOLID
  5
1DC
100
AcDbEntity
  8
0
  6
Continuous
 62
     0
100
AcDbTrace
 10
247.551928
 20
156.04002
 30
0.0
 11
242.551947
 21
155.040264
 31
0.0
 12
247.551928
 22
154.040208
 32
0.0
 13
247.551928
 23
154.040208
 33
0.0
  0
SOLID
  5
1DD
100
AcDbEntity
  8
0
  6
Continuous
 62
     0
100
AcDbTrace
 10
269.551663
 20
154.040208
 30
0.0
 11
274.551644
 21
155.040264
 31
0.0
 12
269.551663
 22
156.04002
 32
0.0
 13
269.551663
 23
156.04002
 33
0.0
  0
ENDBLK
  5
1DE
100
AcDbEntity
  8
0
100
AcDbBlockEnd
  0
BLOCK
  5
1E1
100
AcDbEntity
  8
0
100
AcDbBlockBegin
  2
*B14
 70
     0
 10
0.0
 20
0.0
 30
0.0
  3
*B14
  1

  0
LINE
  5
1E2
100
AcDbEntity
  8
0
  6
Continuous
 62
     0
100
AcDbLine
 10
210.551648
 20
155.040264
 30
0.0
 11
242.551947
 21
155.040264
 31
0.0
  0
SOLID
  5
1E3
100
AcDbEntity
  8
0
  6
Continuous
 62
     0
100
AcDbTrace
 10
215.551929
 20
156.04002
 30
0.0
 11
210.551648
 21
155.040264
 31
0.0
 12
215.551929
 22
154.040208
 32
0.0
 13
215.551929
 23
154.040208
 33
0.0
  0
SOLID
  5
1E4
100
AcDbEntity
  8
0
  6
Continuous
 62
     0
100
AcDbTrace
 10
237.551665
 20
154.040208
 30
0.0
 11
242.551947
 21
155.040264
 31
0.0
 12
237.551665
 22
156.04002
 32
0.0
 13
237.551665
 23
156.04002
 33
0.0
  0
ENDBLK
  5
1E5
100
AcDbEntity
  8
0
100
AcDbBlockEnd
  0
BLOCK
  5
1E8
100
AcDbEntity
  8
0
100
AcDbBlockBegin
  2
*B15
 70
     0
 10
0.0
 20
0.0
 30
0.0
  3
*B15
  1

  0
LINE
  5
1E9
100
AcDbEntity
  8
0
  6
Continuous
 62
     0
100
AcDbLine
 10
185.551744
 20
155.040264
 30
0.0
 11
210.551648
 21
155.040264
 31
0.0
  0
SOLID
  5
1EA
100
AcDbEntity
  8
0
  6
Continuous
 62
     0
100
AcDbTrace
 10
190.551724
 20
156.04002
 30
0.0
 11
185.551744
 21
155.040264
 31
0.0
 12
190.551724
 22
154.040208
 32
0.0
 13
190.551724
 23
154.040208
 33
0.0
  0
SOLID
  5
1EB
100
AcDbEntity
  8
0
  6
Continuous
 62
     0
100
AcDbTrace
 10
205.551667
 20
154.040208
 30
0.0
 11
210.551648
 21
155.040264
 31
0.0
 12
205.551667
 22
156.04002
 32
0.0
 13
205.551667
 23
156.04002
 33
0.0
  0
ENDBLK
  5
1EC
100
AcDbEntity
  8
0
100
AcDbBlockEnd
  0
BLOCK
  5
1EF
100
AcDbEntity
  8
0
100
AcDbBlockBegin
  2
*B16
 70
     0
 10
0.0
 20
0.0
 30
0.0
  3
*B16
  1

  0
LINE
  5
1F0
100
AcDbEntity
  8
0
  6
Continuous
 62
     0
100
AcDbLine
 10
210.551648
 20
260.032654
 30
0.0
 11
274.551644
 21
260.032654
 31
0.0
  0
SOLID
  5
1F1
100
AcDbEntity
  8
0
  6
Continuous
 62
     0
100
AcDbTrace
 10
215.551929
 20
261.03241
 30
0.0
 11
210.551648
 21
260.032654
 31
0.0
 12
215.551929
 22
259.032598
 32
0.0
 13
215.551929
 23
259.032598
 33
0.0
  0
SOLID
  5
1F2
100
AcDbEntity
  8
0
  6
Continuous
 62
     0
100
AcDbTrace
 10
269.551663
 20
259.032598
 30
0.0
 11
274.551644
 21
260.032654
 31
0.0
 12
269.551663
 22
261.03241
 32
0.0
 13
269.551663
 23
261.03241
 33
0.0
  0
ENDBLK
  5
1F3
100
AcDbEntity
  8
0
100
AcDbBlockEnd
  0
BLOCK
  5
1F6
100
AcDbEntity
  8
0
100
AcDbBlockBegin
  2
*B17
 70
     0
 10
0.0
 20
0.0
 30
0.0
  3
*B17
  1

  0
LINE
  5
1F7
100
AcDbEntity
  8
0
  6
Continuous
 62
     0
100
AcDbLine
 10
108.025603
 20
246.539254
 30
0.0
 11
108.025603
 21
169.545135
 31
0.0
  0
SOLID
  5
1F8
100
AcDbEntity
  8
0
  6
Continuous
 62
     0
100
AcDbTrace
 10
109.02566
 20
241.539574
 30
0.0
 11
108.025603
 21
246.539254
 31
0.0
 12
107.025547
 22
241.539574
 32
0.0
 13
107.025547
 23
241.539574
 33
0.0
  0
SOLID
  5
1F9
100
AcDbEntity
  8
0
  6
Continuous
 62
     0
100
AcDbTrace
 10
107.025547
 20
174.544816
 30
0.0
 11
108.025603
 21
169.545135
 31
0.0
 12
109.02566
 22
174.544816
 32
0.0
 13
109.02566
 23
174.544816
 33
0.0
  0
ENDBLK
  5
1FA
100
AcDbEntity
  8
0
100
AcDbBlockEnd
  0
BLOCK
  5
1FD
100
AcDbEntity
  8
0
100
AcDbBlockBegin
  2
*B18
 70
     0
 10
0.0
 20
0.0
 30
0.0
  3
*B18
  1

  0
LINE
  5
1FE
100
AcDbEntity
  8
0
  6
Continuous
 62
     0
100
AcDbLine
 10
169.551744
 20
139.041467
 30
0.0
 11
299.551849
 21
139.041467
 31
0.0
  0
SOLID
  5
1FF
100
AcDbEntity
  8
0
  6
Continuous
 62
     0
100
AcDbTrace
 10
174.551725
 20
140.041223
 30
0.0
 11
169.551744
 21
139.041467
 31
0.0
 12
174.551725
 22
138.04141
 32
0.0
 13
174.551725
 23
138.04141
 33
0.0
  0
SOLID
  5
200
100
AcDbEntity
  8
0
  6
Continuous
 62
     0
100
AcDbTrace
 10
294.551868
 20
138.04141
 30
0.0
 11
299.551849
 21
139.041467
 31
0.0
 12
294.551868
 22
140.041223
 32
0.0
 13
294.551868
 23
140.041223
 33
0.0
  0
ENDBLK
  5
201
100
AcDbEntity
  8
0
100
AcDbBlockEnd
  0
BLOCK
  5
204
100
AcDbEntity
  8
0
100
AcDbBlockBegin
  2
*B19
 70
     0
 10
0.0
 20
0.0
 30
0.0
  3
*B19
  1

  0
LINE
  5
205
100
AcDbEntity
  8
0
  6
Continuous
 62
     0
100
AcDbLine
 10
239.151936
 20
77.748141
 30
0.0
 11
294.92137
 21
77.748141
 31
0.0
  0
SOLID
  5
206
100
AcDbEntity
  8
0
  6
Continuous
 62
     0
100
AcDbTrace
 10
244.151917
 20
76.748385
 30
0.0
 11
249.151897
 21
77.748141
 31
0.0
 12
244.151917
 22
78.748198
 32
0.0
 13
244.151917
 23
78.748198
 33
0.0
  0
SOLID
  5
207
100
AcDbEntity
  8
0
  6
Continuous
 62
     0
100
AcDbTrace
 10
272.951674
 20
78.748198
 30
0.0
 11
267.951694
 21
77.748141
 31
0.0
 12
272.951674
 22
76.748385
 32
0.0
 13
272.951674
 23
76.748385
 33
0.0
  0
ENDBLK
  5
208
100
AcDbEntity
  8
0
100
AcDbBlockEnd
  0
BLOCK
  5
20B
100
AcDbEntity
  8
0
100
AcDbBlockBegin
  2
*B20
 70
     0
 10
0.0
 20
0.0
 30
0.0
  3
*B20
  1

  0
LINE
  5
20C
100
AcDbEntity
  8
0
  6
Continuous
 62
     0
100
AcDbLine
 10
184.09657
 20
244.033856
 30
0.0
 11
223.851886
 21
244.033856
 31
0.0
  0
SOLID
  5
20D
100
AcDbEntity
  8
0
  6
Continuous
 62
     0
100
AcDbTrace
 10
202.251692
 20
243.0338
 30
0.0
 11
207.251673
 21
244.033856
 31
0.0
 12
202.251692
 22
245.033612
 32
0.0
 13
202.251692
 23
245.033612
 33
0.0
  0
SOLID
  5
20E
100
AcDbEntity
  8
0
  6
Continuous
 62
     0
100
AcDbTrace
 10
218.851905
 20
245.033612
 30
0.0
 11
213.851924
 21
244.033856
 31
0.0
 12
218.851905
 22
243.0338
 32
0.0
 13
218.851905
 23
243.0338
 33
0.0
  0
ENDBLK
  5
20F
100
AcDbEntity
  8
0
100
AcDbBlockEnd
  0
BLOCK
  5
212
100
AcDbEntity
  8
0
100
AcDbBlockBegin
  2
*B21
 70
     0
 10
0.0
 20
0.0
 30
0.0
  3
*B21
  1

  0
LINE
  5
213
100
AcDbEntity
  8
0
  6
Continuous
 62
     8
100
AcDbLine
 10
301.551661
 20
91.855273
 30
0.0
 11
331.025534
 21
91.855273
 31
0.0
  0
ENDBLK
  5
214
100
AcDbEntity
  8
0
100
AcDbBlockEnd
  0
BLOCK
  5
217
100
AcDbEntity
  8
0
100
AcDbBlockBegin
  2
*B22
 70
     0
 10
0.0
 20
0.0
 30
0.0
  3
*B22
  1

  0
LINE
  5
218
100
AcDbEntity
  8
0
  6
Continuous
 62
     8
100
AcDbLine
 10
301.551661
 20
121.853056
 30
0.0
 11
331.025534
 21
121.853056
 31
0.0
  0
ENDBLK
  5
219
100
AcDbEntity
  8
0
100
AcDbBlockEnd
  0
BLOCK
  5
21C
100
AcDbEntity
  8
0
100
AcDbBlockBegin
  2
*B23
 70
     0
 10
0.0
 20
0.0
 30
0.0
  3
*B23
  1

  0
LINE
  5
21D
100
AcDbEntity
  8
0
  6
Continuous
 62
     8
100
AcDbLine
 10
274.551644
 20
153.040452
 30
0.0
 11
274.551644
 21
157.040076
 31
0.0
  0
LINE
  5
21E
100
AcDbEntity
  8
0
  6
Continuous
 62
     8
100
AcDbLine
 10
274.551644
 20
258.032842
 30
0.0
 11
274.551644
 21
262.032466
 31
0.0
  0
LINE
  5
21F
100
AcDbEntity
  8
0
  6
Continuous
 62
     8
100
AcDbLine
 10
274.551644
 20
157.040076
 30
0.0
 11
274.551644
 21
164.940791
 31
0.0
  0
LINE
  5
220
100
AcDbEntity
  8
0
  6
Continuous
 62
     8
100
AcDbLine
 10
274.551644
 20
166.940603
 30
0.0
 11
274.551644
 21
167.940359
 31
0.0
  0
LINE
  5
221
100
AcDbEntity
  8
0
  6
Continuous
 62
     8
100
AcDbLine
 10
274.551644
 20
169.940472
 30
0.0
 11
274.551644
 21
177.840886
 31
0.0
  0
LINE
  5
222
100
AcDbEntity
  8
0
  6
Continuous
 62
     8
100
AcDbLine
 10
274.551644
 20
179.840698
 30
0.0
 11
274.551644
 21
180.840755
 31
0.0
  0
LINE
  5
223
100
AcDbEntity
  8
0
  6
Continuous
 62
     8
100
AcDbLine
 10
274.551644
 20
182.840567
 30
0.0
 11
274.551644
 21
190.741282
 31
0.0
  0
LINE
  5
224
100
AcDbEntity
  8
0
  6
Continuous
 62
     8
100
AcDbLine
 10
274.551644
 20
192.741094
 30
0.0
 11
274.551644
 21
193.74115
 31
0.0
  0
LINE
  5
225
100
AcDbEntity
  8
0
  6
Continuous
 62
     8
100
AcDbLine
 10
274.551644
 20
195.740962
 30
0.0
 11
274.551644
 21
203.641677
 31
0.0
  0
LINE
  5
226
100
AcDbEntity
  8
0
  6
Continuous
 62
     8
100
AcDbLine
 10
274.551644
 20
205.641489
 30
0.0
 11
274.551644
 21
206.641245
 31
0.0
  0
LINE
  5
227
100
AcDbEntity
  8
0
  6
Continuous
 62
     8
100
AcDbLine
 10
274.551644
 20
208.641357
 30
0.0
 11
274.551644
 21
216.541772
 31
0.0
  0
LINE
  5
228
100
AcDbEntity
  8
0
  6
Continuous
 62
     8
100
AcDbLine
 10
274.551644
 20
222.541509
 30
0.0
 11
274.551644
 21
231.038833
 31
0.0
  0
LINE
  5
229
100
AcDbEntity
  8
0
  6
Continuous
 62
     8
100
AcDbLine
 10
274.551644
 20
233.038645
 30
0.0
 11
274.551644
 21
234.038701
 31
0.0
  0
LINE
  5
22A
100
AcDbEntity
  8
0
  6
Continuous
 62
     8
100
AcDbLine
 10
274.551644
 20
236.038513
 30
0.0
 11
274.551644
 21
244.535837
 31
0.0
  0
LINE
  5
22B
100
AcDbEntity
  8
0
  6
Continuous
 62
     8
100
AcDbLine
 10
274.551644
 20
246.535649
 30
0.0
 11
274.551644
 21
247.535706
 31
0.0
  0
LINE
  5
22C
100
AcDbEntity
  8
0
  6
Continuous
 62
     8
100
AcDbLine
 10
274.551644
 20
249.535518
 30
0.0
 11
274.551644
 21
258.032842
 31
0.0
  0
ENDBLK
  5
22D
100
AcDbEntity
  8
0
100
AcDbBlockEnd
  0
BLOCK
  5
230
100
AcDbEntity
  8
0
100
AcDbBlockBegin
  2
*B24
 70
     0
 10
0.0
 20
0.0
 30
0.0
  3
*B24
  1

  0
LINE
  5
231
100
AcDbEntity
  8
0
  6
Continuous
 62
     8
100
AcDbLine
 10
213.851924
 20
221.541452
 30
0.0
 11
213.851924
 21
246.033669
 31
0.0
  0
ENDBLK
  5
232
100
AcDbEntity
  8
0
100
AcDbBlockEnd
  0
BLOCK
  5
235
100
AcDbEntity
  8
0
100
AcDbBlockBegin
  2
*B25
 70
     0
 10
0.0
 20
0.0
 30
0.0
  3
*B25
  1

  0
LINE
  5
236
100
AcDbEntity
  8
0
  6
Continuous
 62
     8
100
AcDbLine
 10
242.551947
 20
153.040452
 30
0.0
 11
242.551947
 21
157.040076
 31
0.0
  0
LINE
  5
237
100
AcDbEntity
  8
0
  6
Continuous
 62
     8
100
AcDbLine
 10
242.551947
 20
157.040076
 30
0.0
 11
242.551947
 21
170.292249
 31
0.0
  0
LINE
  5
238
100
AcDbEntity
  8
0
  6
Continuous
 62
     8
100
AcDbLine
 10
242.551947
 20
172.292061
 30
0.0
 11
242.551947
 21
173.291817
 31
0.0
  0
LINE
  5
239
100
AcDbEntity
  8
0
  6
Continuous
 62
     8
100
AcDbLine
 10
242.551947
 20
175.291929
 30
0.0
 11
242.551947
 21
188.543801
 31
0.0
  0
ENDBLK
  5
23A
100
AcDbEntity
  8
0
100
AcDbBlockEnd
  0
BLOCK
  5
23D
100
AcDbEntity
  8
0
100
AcDbBlockBegin
  2
*B26
 70
     0
 10
0.0
 20
0.0
 30
0.0
  3
*B26
  1

  0
LINE
  5
23E
100
AcDbEntity
  8
0
  6
Continuous
 62
     8
100
AcDbLine
 10
106.025791
 20
169.545135
 30
0.0
 11
167.551932
 21
169.545135
 31
0.0
  0
LINE
  5
23F
100
AcDbEntity
  8
0
  6
Continuous
 62
     8
100
AcDbLine
 10
301.551661
 20
169.545135
 30
0.0
 11
332.02559
 21
169.545135
 31
0.0
  0
ENDBLK
  5
240
100
AcDbEntity
  8
0
100
AcDbBlockEnd
  0
BLOCK
  5
243
100
AcDbEntity
  8
0
100
AcDbBlockBegin
  2
*B27
 70
     0
 10
0.0
 20
0.0
 30
0.0
  3
*B27
  1

  0
LINE
  5
244
100
AcDbEntity
  8
0
  6
Continuous
 62
     8
100
AcDbLine
 10
219.251747
 20
179.544497
 30
0.0
 11
223.551779
 21
179.544497
 31
0.0
  0
LINE
  5
245
100
AcDbEntity
  8
0
  6
Continuous
 62
     8
100
AcDbLine
 10
229.551816
 20
179.544497
 30
0.0
 11
233.851848
 21
179.544497
 31
0.0
  0
ENDBLK
  5
246
100
AcDbEntity
  8
0
100
AcDbBlockEnd
  0
BLOCK
  5
249
100
AcDbEntity
  8
0
100
AcDbBlockBegin
  2
*B28
 70
     0
 10
0.0
 20
0.0
 30
0.0
  3
*B28
  1

  0
LINE
  5
24A
100
AcDbEntity
  8
0
  6
Continuous
 62
     8
100
AcDbLine
 10
314.025478
 20
179.544497
 30
0.0
 11
318.025703
 21
179.544497
 31
0.0
  0
LINE
  5
24B
100
AcDbEntity
  8
0
  6
Continuous
 62
     8
100
AcDbLine
 10
251.251745
 20
179.544497
 30
0.0
 11
255.551777
 21
179.544497
 31
0.0
  0
LINE
  5
24C
100
AcDbEntity
  8
0
  6
Continuous
 62
     8
100
AcDbLine
 10
261.551814
 20
179.544497
 30
0.0
 11
270.92032
 21
179.544497
 31
0.0
  0
LINE
  5
24D
100
AcDbEntity
  8
0
  6
Continuous
 62
     8
100
AcDbLine
 10
272.920132
 20
179.544497
 30
0.0
 11
273.920188
 21
179.544497
 31
0.0
  0
LINE
  5
24E
100
AcDbEntity
  8
0
  6
Continuous
 62
     8
100
AcDbLine
 10
275.9203
 20
179.544497
 30
0.0
 11
285.288806
 21
179.544497
 31
0.0
  0
LINE
  5
24F
100
AcDbEntity
  8
0
  6
Continuous
 62
     8
100
AcDbLine
 10
287.288618
 20
179.544497
 30
0.0
 11
288.288674
 21
179.544497
 31
0.0
  0
LINE
  5
250
100
AcDbEntity
  8
0
  6
Continuous
 62
     8
100
AcDbLine
 10
290.288787
 20
179.544497
 30
0.0
 11
299.656992
 21
179.544497
 31
0.0
  0
LINE
  5
251
100
AcDbEntity
  8
0
  6
Continuous
 62
     8
100
AcDbLine
 10
301.657104
 20
179.544497
 30
0.0
 11
302.657161
 21
179.544497
 31
0.0
  0
LINE
  5
252
100
AcDbEntity
  8
0
  6
Continuous
 62
     8
100
AcDbLine
 10
304.656973
 20
179.544497
 30
0.0
 11
314.025478
 21
179.544497
 31
0.0
  0
ENDBLK
  5
253
100
AcDbEntity
  8
0
100
AcDbBlockEnd
  0
BLOCK
  5
256
100
AcDbEntity
  8
0
100
AcDbBlockBegin
  2
*B29
 70
     0
 10
0.0
 20
0.0
 30
0.0
  3
*B29
  1

  0
LINE
  5
257
100
AcDbEntity
  8
0
  6
Continuous
 62
     8
100
AcDbLine
 10
127.851892
 20
199.542918
 30
0.0
 11
135.758915
 21
199.542918
 31
0.0
  0
LINE
  5
258
100
AcDbEntity
  8
0
  6
Continuous
 62
     8
100
AcDbLine
 10
137.759027
 20
199.542918
 30
0.0
 11
138.759084
 21
199.542918
 31
0.0
  0
LINE
  5
259
100
AcDbEntity
  8
0
  6
Continuous
 62
     8
100
AcDbLine
 10
140.758896
 20
199.542918
 30
0.0
 11
148.66622
 21
199.542918
 31
0.0
  0
LINE
  5
25A
100
AcDbEntity
  8
0
  6
Continuous
 62
     8
100
AcDbLine
 10
150.666032
 20
199.542918
 30
0.0
 11
151.666088
 21
199.542918
 31
0.0
  0
LINE
  5
25B
100
AcDbEntity
  8
0
  6
Continuous
 62
     8
100
AcDbLine
 10
153.666201
 20
199.542918
 30
0.0
 11
161.573224
 21
199.542918
 31
0.0
  0
LINE
  5
25C
100
AcDbEntity
  8
0
  6
Continuous
 62
     8
100
AcDbLine
 10
163.573337
 20
199.542918
 30
0.0
 11
164.573393
 21
199.542918
 31
0.0
  0
LINE
  5
25D
100
AcDbEntity
  8
0
  6
Continuous
 62
     8
100
AcDbLine
 10
166.573205
 20
199.542918
 30
0.0
 11
174.480529
 21
199.542918
 31
0.0
  0
LINE
  5
25E
100
AcDbEntity
  8
0
  6
Continuous
 62
     8
100
AcDbLine
 10
176.480341
 20
199.542918
 30
0.0
 11
177.480397
 21
199.542918
 31
0.0
  0
LINE
  5
25F
100
AcDbEntity
  8
0
  6
Continuous
 62
     8
100
AcDbLine
 10
179.48051
 20
199.542918
 30
0.0
 11
187.387533
 21
199.542918
 31
0.0
  0
LINE
  5
260
100
AcDbEntity
  8
0
  6
Continuous
 62
     8
100
AcDbLine
 10
189.387646
 20
199.542918
 30
0.0
 11
190.387402
 21
199.542918
 31
0.0
  0
LINE
  5
261
100
AcDbEntity
  8
0
  6
Continuous
 62
     8
100
AcDbLine
 10
192.387514
 20
199.542918
 30
0.0
 11
200.294538
 21
199.542918
 31
0.0
  0
LINE
  5
262
100
AcDbEntity
  8
0
  6
Continuous
 62
     8
100
AcDbLine
 10
202.29465
 20
199.542918
 30
0.0
 11
203.294706
 21
199.542918
 31
0.0
  0
LINE
  5
263
100
AcDbEntity
  8
0
  6
Continuous
 62
     8
100
AcDbLine
 10
205.294819
 20
199.542918
 30
0.0
 11
213.201842
 21
199.542918
 31
0.0
  0
LINE
  5
264
100
AcDbEntity
  8
0
  6
Continuous
 62
     8
100
AcDbLine
 10
215.201654
 20
199.542918
 30
0.0
 11
216.201711
 21
199.542918
 31
0.0
  0
LINE
  5
265
100
AcDbEntity
  8
0
  6
Continuous
 62
     8
100
AcDbLine
 10
218.201823
 20
199.542918
 30
0.0
 11
226.108847
 21
199.542918
 31
0.0
  0
LINE
  5
266
100
AcDbEntity
  8
0
  6
Continuous
 62
     8
100
AcDbLine
 10
228.108959
 20
199.542918
 30
0.0
 11
229.109015
 21
199.542918
 31
0.0
  0
LINE
  5
267
100
AcDbEntity
  8
0
  6
Continuous
 62
     8
100
AcDbLine
 10
231.108828
 20
199.542918
 30
0.0
 11
239.016151
 21
199.542918
 31
0.0
  0
LINE
  5
268
100
AcDbEntity
  8
0
  6
Continuous
 62
     8
100
AcDbLine
 10
241.015964
 20
199.542918
 30
0.0
 11
242.01602
 21
199.542918
 31
0.0
  0
LINE
  5
269
100
AcDbEntity
  8
0
  6
Continuous
 62
     8
100
AcDbLine
 10
244.016132
 20
199.542918
 30
0.0
 11
251.923156
 21
199.542918
 31
0.0
  0
LINE
  5
26A
100
AcDbEntity
  8
0
  6
Continuous
 62
     8
100
AcDbLine
 10
253.923268
 20
199.542918
 30
0.0
 11
254.923325
 21
199.542918
 31
0.0
  0
LINE
  5
26B
100
AcDbEntity
  8
0
  6
Continuous
 62
     8
100
AcDbLine
 10
256.923137
 20
199.542918
 30
0.0
 11
264.830461
 21
199.542918
 31
0.0
  0
LINE
  5
26C
100
AcDbEntity
  8
0
  6
Continuous
 62
     8
100
AcDbLine
 10
266.830273
 20
199.542918
 30
0.0
 11
267.830329
 21
199.542918
 31
0.0
  0
LINE
  5
26D
100
AcDbEntity
  8
0
  6
Continuous
 62
     8
100
AcDbLine
 10
269.830441
 20
199.542918
 30
0.0
 11
277.737465
 21
199.542918
 31
0.0
  0
LINE
  5
26E
100
AcDbEntity
  8
0
  6
Continuous
 62
     8
100
AcDbLine
 10
279.737577
 20
199.542918
 30
0.0
 11
280.737634
 21
199.542918
 31
0.0
  0
LINE
  5
26F
100
AcDbEntity
  8
0
  6
Continuous
 62
     8
100
AcDbLine
 10
282.737446
 20
199.542918
 30
0.0
 11
290.64477
 21
199.542918
 31
0.0
  0
LINE
  5
270
100
AcDbEntity
  8
0
  6
Continuous
 62
     8
100
AcDbLine
 10
292.644582
 20
199.542918
 30
0.0
 11
293.644638
 21
199.542918
 31
0.0
  0
LINE
  5
271
100
AcDbEntity
  8
0
  6
Continuous
 62
     8
100
AcDbLine
 10
295.644751
 20
199.542918
 30
0.0
 11
303.551774
 21
199.542918
 31
0.0
  0
ENDBLK
  5
272
100
AcDbEntity
  8
0
100
AcDbBlockEnd
  0
BLOCK
  5
275
100
AcDbEntity
  8
0
100
AcDbBlockBegin
  2
*B30
 70
     0
 10
0.0
 20
0.0
 30
0.0
  3
*B30
  1

  0
LINE
  5
276
100
AcDbEntity
  8
0
  6
Continuous
 62
     8
100
AcDbLine
 10
314.025478
 20
219.54164
 30
0.0
 11
318.025703
 21
219.54164
 31
0.0
  0
LINE
  5
277
100
AcDbEntity
  8
0
  6
Continuous
 62
     8
100
AcDbLine
 10
267.251744
 20
219.54164
 30
0.0
 11
271.551776
 21
219.54164
 31
0.0
  0
LINE
  5
278
100
AcDbEntity
  8
0
  6
Continuous
 62
     8
100
AcDbLine
 10
277.551813
 20
219.54164
 30
0.0
 11
286.376281
 21
219.54164
 31
0.0
  0
LINE
  5
279
100
AcDbEntity
  8
0
  6
Continuous
 62
     8
100
AcDbLine
 10
288.376393
 20
219.54164
 30
0.0
 11
289.37645
 21
219.54164
 31
0.0
  0
LINE
  5
27A
100
AcDbEntity
  8
0
  6
Continuous
 62
     8
100
AcDbLine
 10
291.376262
 20
219.54164
 30
0.0
 11
300.20103
 21
219.54164
 31
0.0
  0
LINE
  5
27B
100
AcDbEntity
  8
0
  6
Continuous
 62
     8
100
AcDbLine
 10
302.200842
 20
219.54164
 30
0.0
 11
303.200898
 21
219.54164
 31
0.0
  0
LINE
  5
27C
100
AcDbEntity
  8
0
  6
Continuous
 62
     8
100
AcDbLine
 10
305.201011
 20
219.54164
 30
0.0
 11
314.025478
 21
219.54164
 31
0.0
  0
ENDBLK
  5
27D
100
AcDbEntity
  8
0
100
AcDbBlockEnd
  0
BLOCK
  5
280
100
AcDbEntity
  8
0
100
AcDbBlockBegin
  2
*B31
 70
     0
 10
0.0
 20
0.0
 30
0.0
  3
*B31
  1

  0
LINE
  5
281
100
AcDbEntity
  8
0
  6
Continuous
 62
     8
100
AcDbLine
 10
120.551991
 20
247.338939
 30
0.0
 11
120.551991
 21
262.032466
 31
0.0
  0
ENDBLK
  5
282
100
AcDbEntity
  8
0
100
AcDbBlockEnd
  0
BLOCK
  5
285
100
AcDbEntity
  8
0
100
AcDbBlockBegin
  2
*B32
 70
     0
 10
0.0
 20
0.0
 30
0.0
  3
*B32
  1

  0
LINE
  5
286
100
AcDbEntity
  8
0
  6
Continuous
 62
     8
100
AcDbLine
 10
203.251748
 20
219.54164
 30
0.0
 11
207.55178
 21
219.54164
 31
0.0
  0
LINE
  5
287
100
AcDbEntity
  8
0
  6
Continuous
 62
     8
100
AcDbLine
 10
213.551817
 20
219.54164
 30
0.0
 11
217.851849
 21
219.54164
 31
0.0
  0
ENDBLK
  5
288
100
AcDbEntity
  8
0
100
AcDbBlockEnd
  0
BLOCK
  5
28B
100
AcDbEntity
  8
0
100
AcDbBlockBegin
  2
*B33
 70
     0
 10
0.0
 20
0.0
 30
0.0
  3
*B33
  1

  0
LINE
  5
28C
100
AcDbEntity
  8
0
  6
Continuous
 62
     8
100
AcDbLine
 10
301.551661
 20
229.541001
 30
0.0
 11
332.02559
 21
229.541001
 31
0.0
  0
ENDBLK
  5
28D
100
AcDbEntity
  8
0
100
AcDbBlockEnd
  0
BLOCK
  5
290
100
AcDbEntity
  8
0
100
AcDbBlockBegin
  2
*B34
 70
     0
 10
0.0
 20
0.0
 30
0.0
  3
*B34
  1

  0
LINE
  5
291
100
AcDbEntity
  8
0
  6
Continuous
 62
     8
100
AcDbLine
 10
173.55197
 20
106.854315
 30
0.0
 11
177.551894
 21
106.854315
 31
0.0
  0
LINE
  5
292
100
AcDbEntity
  8
0
  6
Continuous
 62
     8
100
AcDbLine
 10
183.551931
 20
106.854315
 30
0.0
 11
193.551893
 21
106.854315
 31
0.0
  0
LINE
  5
293
100
AcDbEntity
  8
0
  6
Continuous
 62
     8
100
AcDbLine
 10
195.551705
 20
106.854315
 30
0.0
 11
196.551762
 21
106.854315
 31
0.0
  0
LINE
  5
294
100
AcDbEntity
  8
0
  6
Continuous
 62
     8
100
AcDbLine
 10
198.551874
 20
106.854315
 30
0.0
 11
208.551836
 21
106.854315
 31
0.0
  0
LINE
  5
295
100
AcDbEntity
  8
0
  6
Continuous
 62
     8
100
AcDbLine
 10
210.551648
 20
106.854315
 30
0.0
 11
211.551704
 21
106.854315
 31
0.0
  0
LINE
  5
296
100
AcDbEntity
  8
0
  6
Continuous
 62
     8
100
AcDbLine
 10
213.551817
 20
106.854315
 30
0.0
 11
223.551779
 21
106.854315
 31
0.0
  0
LINE
  5
297
100
AcDbEntity
  8
0
  6
Continuous
 62
     8
100
AcDbLine
 10
229.551816
 20
106.854315
 30
0.0
 11
240.051656
 21
106.854315
 31
0.0
  0
LINE
  5
298
100
AcDbEntity
  8
0
  6
Continuous
 62
     8
100
AcDbLine
 10
242.051768
 20
106.854315
 30
0.0
 11
243.051825
 21
106.854315
 31
0.0
  0
LINE
  5
299
100
AcDbEntity
  8
0
  6
Continuous
 62
     8
100
AcDbLine
 10
245.051937
 20
106.854315
 30
0.0
 11
255.551777
 21
106.854315
 31
0.0
  0
LINE
  5
29A
100
AcDbEntity
  8
0
  6
Continuous
 62
     8
100
AcDbLine
 10
261.551814
 20
106.854315
 30
0.0
 11
272.21838
 21
106.854315
 31
0.0
  0
LINE
  5
29B
100
AcDbEntity
  8
0
  6
Continuous
 62
     8
100
AcDbLine
 10
274.218493
 20
106.854315
 30
0.0
 11
275.218549
 21
106.854315
 31
0.0
  0
LINE
  5
29C
100
AcDbEntity
  8
0
  6
Continuous
 62
     8
100
AcDbLine
 10
277.218361
 20
106.854315
 30
0.0
 11
287.885227
 21
106.854315
 31
0.0
  0
LINE
  5
29D
100
AcDbEntity
  8
0
  6
Continuous
 62
     8
100
AcDbLine
 10
289.885039
 20
106.854315
 30
0.0
 11
290.885096
 21
106.854315
 31
0.0
  0
LINE
  5
29E
100
AcDbEntity
  8
0
  6
Continuous
 62
     8
100
AcDbLine
 10
292.885208
 20
106.854315
 30
0.0
 11
303.551774
 21
106.854315
 31
0.0
  0
ENDBLK
  5
29F
100
AcDbEntity
  8
0
100
AcDbBlockEnd
  0
BLOCK
  5
2A2
100
AcDbEntity
  8
0
100
AcDbBlockBegin
  2
*B35
 70
     0
 10
0.0
 20
0.0
 30
0.0
  3
*B35
  1

  0
LINE
  5
2A3
100
AcDbEntity
  8
0
  6
Continuous
 62
     8
100
AcDbLine
 10
124.051738
 20
237.54025
 30
0.0
 11
133.051944
 21
237.54025
 31
0.0
  0
LINE
  5
2A4
100
AcDbEntity
  8
0
  6
Continuous
 62
     8
100
AcDbLine
 10
135.051756
 20
237.54025
 30
0.0
 11
136.051812
 21
237.54025
 31
0.0
  0
LINE
  5
2A5
100
AcDbEntity
  8
0
  6
Continuous
 62
     8
100
AcDbLine
 10
138.051925
 20
237.54025
 30
0.0
 11
147.05183
 21
237.54025
 31
0.0
  0
ENDBLK
  5
2A6
100
AcDbEntity
  8
0
100
AcDbBlockEnd
  0
BLOCK
  5
2A9
100
AcDbEntity
  8
0
100
AcDbBlockBegin
  2
*B36
 70
     0
 10
0.0
 20
0.0
 30
0.0
  3
*B36
  1

  0
LINE
  5
2AA
100
AcDbEntity
  8
0
  6
Continuous
 62
     8
100
AcDbLine
 10
267.951694
 20
75.748329
 30
0.0
 11
267.951694
 21
104.854503
 31
0.0
  0
ENDBLK
  5
2AB
100
AcDbEntity
  8
0
100
AcDbBlockEnd
  0
BLOCK
  5
2AE
100
AcDbEntity
  8
0
100
AcDbBlockBegin
  2
*B37
 70
     0
 10
0.0
 20
0.0
 30
0.0
  3
*B37
  1

  0
LINE
  5
2AF
100
AcDbEntity
  8
0
  6
Continuous
 62
     8
100
AcDbLine
 10
226.551647
 20
93.455243
 30
0.0
 11
226.551647
 21
103.854446
 31
0.0
  0
LINE
  5
2B0
100
AcDbEntity
  8
0
  6
Continuous
 62
     8
100
AcDbLine
 10
226.551647
 20
109.854183
 30
0.0
 11
226.551647
 21
120.253386
 31
0.0
  0
ENDBLK
  5
2B1
100
AcDbEntity
  8
0
100
AcDbBlockEnd
  0
BLOCK
  5
2B4
100
AcDbEntity
  8
0
100
AcDbBlockBegin
  2
*B38
 70
     0
 10
0.0
 20
0.0
 30
0.0
  3
*B38
  1

  0
LINE
  5
2B5
100
AcDbEntity
  8
0
  6
Continuous
 62
     8
100
AcDbLine
 10
207.251673
 20
221.541452
 30
0.0
 11
207.251673
 21
246.033669
 31
0.0
  0
ENDBLK
  5
2B6
100
AcDbEntity
  8
0
100
AcDbBlockEnd
  0
BLOCK
  5
2B9
100
AcDbEntity
  8
0
100
AcDbBlockBegin
  2
*B39
 70
     0
 10
0.0
 20
0.0
 30
0.0
  3
*B39
  1

  0
LINE
  5
2BA
100
AcDbEntity
  8
0
  6
Continuous
 62
     8
100
AcDbLine
 10
185.551744
 20
153.040452
 30
0.0
 11
185.551744
 21
167.545323
 31
0.0
  0
ENDBLK
  5
2BB
100
AcDbEntity
  8
0
100
AcDbBlockEnd
  0
BLOCK
  5
2BE
100
AcDbEntity
  8
0
100
AcDbBlockBegin
  2
*B40
 70
     0
 10
0.0
 20
0.0
 30
0.0
  3
*B40
  1

  0
LINE
  5
2BF
100
AcDbEntity
  8
0
  6
Continuous
 62
     8
100
AcDbLine
 10
210.551648
 20
153.040452
 30
0.0
 11
210.551648
 21
157.040076
 31
0.0
  0
LINE
  5
2C0
100
AcDbEntity
  8
0
  6
Continuous
 62
     8
100
AcDbLine
 10
210.551648
 20
258.032842
 30
0.0
 11
210.551648
 21
262.032466
 31
0.0
  0
LINE
  5
2C1
100
AcDbEntity
  8
0
  6
Continuous
 62
     8
100
AcDbLine
 10
210.551648
 20
157.040076
 30
0.0
 11
210.551648
 21
164.940791
 31
0.0
  0
LINE
  5
2C2
100
AcDbEntity
  8
0
  6
Continuous
 62
     8
100
AcDbLine
 10
210.551648
 20
166.940603
 30
0.0
 11
210.551648
 21
167.940359
 31
0.0
  0
LINE
  5
2C3
100
AcDbEntity
  8
0
  6
Continuous
 62
     8
100
AcDbLine
 10
210.551648
 20
169.940472
 30
0.0
 11
210.551648
 21
177.840886
 31
0.0
  0
LINE
  5
2C4
100
AcDbEntity
  8
0
  6
Continuous
 62
     8
100
AcDbLine
 10
210.551648
 20
179.840698
 30
0.0
 11
210.551648
 21
180.840755
 31
0.0
  0
LINE
  5
2C5
100
AcDbEntity
  8
0
  6
Continuous
 62
     8
100
AcDbLine
 10
210.551648
 20
182.840567
 30
0.0
 11
210.551648
 21
190.741282
 31
0.0
  0
LINE
  5
2C6
100
AcDbEntity
  8
0
  6
Continuous
 62
     8
100
AcDbLine
 10
210.551648
 20
192.741094
 30
0.0
 11
210.551648
 21
193.74115
 31
0.0
  0
LINE
  5
2C7
100
AcDbEntity
  8
0
  6
Continuous
 62
     8
100
AcDbLine
 10
210.551648
 20
195.740962
 30
0.0
 11
210.551648
 21
203.641677
 31
0.0
  0
LINE
  5
2C8
100
AcDbEntity
  8
0
  6
Continuous
 62
     8
100
AcDbLine
 10
210.551648
 20
205.641489
 30
0.0
 11
210.551648
 21
206.641245
 31
0.0
  0
LINE
  5
2C9
100
AcDbEntity
  8
0
  6
Continuous
 62
     8
100
AcDbLine
 10
210.551648
 20
208.641357
 30
0.0
 11
210.551648
 21
216.541772
 31
0.0
  0
LINE
  5
2CA
100
AcDbEntity
  8
0
  6
Continuous
 62
     8
100
AcDbLine
 10
210.551648
 20
222.541509
 30
0.0
 11
210.551648
 21
231.038833
 31
0.0
  0
LINE
  5
2CB
100
AcDbEntity
  8
0
  6
Continuous
 62
     8
100
AcDbLine
 10
210.551648
 20
233.038645
 30
0.0
 11
210.551648
 21
234.038701
 31
0.0
  0
LINE
  5
2CC
100
AcDbEntity
  8
0
  6
Continuous
 62
     8
100
AcDbLine
 10
210.551648
 20
236.038513
 30
0.0
 11
210.551648
 21
244.535837
 31
0.0
  0
LINE
  5
2CD
100
AcDbEntity
  8
0
  6
Continuous
 62
     8
100
AcDbLine
 10
210.551648
 20
246.535649
 30
0.0
 11
210.551648
 21
247.535706
 31
0.0
  0
LINE
  5
2CE
100
AcDbEntity
  8
0
  6
Continuous
 62
     8
100
AcDbLine
 10
210.551648
 20
249.535518
 30
0.0
 11
210.551648
 21
258.032842
 31
0.0
  0
ENDBLK
  5
2CF
100
AcDbEntity
  8
0
100
AcDbBlockEnd
  0
BLOCK
  5
2D2
100
AcDbEntity
  8
0
100
AcDbBlockBegin
  2
*B41
 70
     0
 10
0.0
 20
0.0
 30
0.0
  3
*B41
  1

  0
LINE
  5
2D3
100
AcDbEntity
  8
0
  6
Continuous
 62
     8
100
AcDbLine
 10
299.551849
 20
137.041354
 30
0.0
 11
299.551849
 21
167.545323
 31
0.0
  0
LINE
  5
2D4
100
AcDbEntity
  8
0
  6
Continuous
 62
     8
100
AcDbLine
 10
299.551849
 20
231.540813
 30
0.0
 11
299.551849
 21
246.033669
 31
0.0
  0
ENDBLK
  5
2D5
100
AcDbEntity
  8
0
100
AcDbBlockEnd
  0
BLOCK
  5
2D8
100
AcDbEntity
  8
0
100
AcDbBlockBegin
  2
*B42
 70
     0
 10
0.0
 20
0.0
 30
0.0
  3
*B42
  1

  0
LINE
  5
2D9
100
AcDbEntity
  8
0
  6
Continuous
 62
     8
100
AcDbLine
 10
258.551645
 20
242.034044
 30
0.0
 11
258.551645
 21
246.033669
 31
0.0
  0
LINE
  5
2DA
100
AcDbEntity
  8
0
  6
Continuous
 62
     8
100
AcDbLine
 10
258.551645
 20
172.245197
 30
0.0
 11
258.551645
 21
176.544628
 31
0.0
  0
LINE
  5
2DB
100
AcDbEntity
  8
0
  6
Continuous
 62
     8
100
AcDbLine
 10
258.551645
 20
182.544365
 30
0.0
 11
258.551645
 21
190.442677
 31
0.0
  0
LINE
  5
2DC
100
AcDbEntity
  8
0
  6
Continuous
 62
     8
100
AcDbLine
 10
258.551645
 20
192.442489
 30
0.0
 11
258.551645
 21
193.442245
 31
0.0
  0
LINE
  5
2DD
100
AcDbEntity
  8
0
  6
Continuous
 62
     8
100
AcDbLine
 10
258.551645
 20
195.442057
 30
0.0
 11
258.551645
 21
203.340368
 31
0.0
  0
LINE
  5
2DE
100
AcDbEntity
  8
0
  6
Continuous
 62
     8
100
AcDbLine
 10
258.551645
 20
205.34018
 30
0.0
 11
258.551645
 21
206.340237
 31
0.0
  0
LINE
  5
2DF
100
AcDbEntity
  8
0
  6
Continuous
 62
     8
100
AcDbLine
 10
258.551645
 20
208.340049
 30
0.0
 11
258.551645
 21
216.23806
 31
0.0
  0
LINE
  5
2E0
100
AcDbEntity
  8
0
  6
Continuous
 62
     8
100
AcDbLine
 10
258.551645
 20
218.238173
 30
0.0
 11
258.551645
 21
219.237928
 31
0.0
  0
LINE
  5
2E1
100
AcDbEntity
  8
0
  6
Continuous
 62
     8
100
AcDbLine
 10
258.551645
 20
221.237741
 30
0.0
 11
258.551645
 21
229.136052
 31
0.0
  0
LINE
  5
2E2
100
AcDbEntity
  8
0
  6
Continuous
 62
     8
100
AcDbLine
 10
258.551645
 20
231.135864
 30
0.0
 11
258.551645
 21
232.135921
 31
0.0
  0
LINE
  5
2E3
100
AcDbEntity
  8
0
  6
Continuous
 62
     8
100
AcDbLine
 10
258.551645
 20
234.135733
 30
0.0
 11
258.551645
 21
242.034044
 31
0.0
  0
ENDBLK
  5
2E4
100
AcDbEntity
  8
0
100
AcDbBlockEnd
  0
BLOCK
  5
2E7
100
AcDbEntity
  8
0
100
AcDbBlockBegin
  2
*B43
 70
     0
 10
0.0
 20
0.0
 30
0.0
  3
*B43
  1

  0
LINE
  5
2E8
100
AcDbEntity
  8
0
  6
Continuous
 62
     8
100
AcDbLine
 10
169.551744
 20
137.041354
 30
0.0
 11
169.551744
 21
167.545323
 31
0.0
  0
LINE
  5
2E9
100
AcDbEntity
  8
0
  6
Continuous
 62
     8
100
AcDbLine
 10
169.551744
 20
231.540813
 30
0.0
 11
169.551744
 21
262.032466
 31
0.0
  0
ENDBLK
  5
2EA
100
AcDbEntity
  8
0
100
AcDbBlockEnd
  0
BLOCK
  5
2ED
100
AcDbEntity
  8
0
100
AcDbBlockBegin
  2
*B44
 70
     0
 10
0.0
 20
0.0
 30
0.0
  3
*B44
  1

  0
LINE
  5
2EE
100
AcDbEntity
  8
0
  6
Continuous
 62
     8
100
AcDbLine
 10
147.151866
 20
106.854315
 30
0.0
 11
151.551933
 21
106.854315
 31
0.0
  0
LINE
  5
2EF
100
AcDbEntity
  8
0
  6
Continuous
 62
     8
100
AcDbLine
 10
157.55197
 20
106.854315
 30
0.0
 11
161.951737
 21
106.854315
 31
0.0
  0
ENDBLK
  5
2F0
100
AcDbEntity
  8
0
100
AcDbBlockEnd
  0
BLOCK
  5
2F3
100
AcDbEntity
  8
0
100
AcDbBlockBegin
  2
*B45
 70
     0
 10
0.0
 20
0.0
 30
0.0
  3
*B45
  1

  0
LINE
  5
2F4
100
AcDbEntity
  8
0
  6
Continuous
 62
     8
100
AcDbLine
 10
106.025791
 20
246.539254
 30
0.0
 11
119.244618
 21
246.539254
 31
0.0
  0
ENDBLK
  5
2F5
100
AcDbEntity
  8
0
100
AcDbBlockEnd
  0
BLOCK
  5
2F8
100
AcDbEntity
  8
0
100
AcDbBlockBegin
  2
*B46
 70
     0
 10
0.0
 20
0.0
 30
0.0
  3
*B46
  1

  0
LINE
  5
2F9
100
AcDbEntity
  8
0
  6
Continuous
 62
     8
100
AcDbLine
 10
226.551647
 20
242.034044
 30
0.0
 11
226.551647
 21
246.033669
 31
0.0
  0
LINE
  5
2FA
100
AcDbEntity
  8
0
  6
Continuous
 62
     8
100
AcDbLine
 10
226.551647
 20
172.245197
 30
0.0
 11
226.551647
 21
176.544628
 31
0.0
  0
LINE
  5
2FB
100
AcDbEntity
  8
0
  6
Continuous
 62
     8
100
AcDbLine
 10
226.551647
 20
182.544365
 30
0.0
 11
226.551647
 21
190.442677
 31
0.0
  0
LINE
  5
2FC
100
AcDbEntity
  8
0
  6
Continuous
 62
     8
100
AcDbLine
 10
226.551647
 20
192.442489
 30
0.0
 11
226.551647
 21
193.442245
 31
0.0
  0
LINE
  5
2FD
100
AcDbEntity
  8
0
  6
Continuous
 62
     8
100
AcDbLine
 10
226.551647
 20
195.442057
 30
0.0
 11
226.551647
 21
203.340368
 31
0.0
  0
LINE
  5
2FE
100
AcDbEntity
  8
0
  6
Continuous
 62
     8
100
AcDbLine
 10
226.551647
 20
205.34018
 30
0.0
 11
226.551647
 21
206.340237
 31
0.0
  0
LINE
  5
2FF
100
AcDbEntity
  8
0
  6
Continuous
 62
     8
100
AcDbLine
 10
226.551647
 20
208.340049
 30
0.0
 11
226.551647
 21
216.23806
 31
0.0
  0
LINE
  5
300
100
AcDbEntity
  8
0
  6
Continuous
 62
     8
100
AcDbLine
 10
226.551647
 20
218.238173
 30
0.0
 11
226.551647
 21
219.237928
 31
0.0
  0
LINE
  5
301
100
AcDbEntity
  8
0
  6
Continuous
 62
     8
100
AcDbLine
 10
226.551647
 20
221.237741
 30
0.0
 11
226.551647
 21
229.136052
 31
0.0
  0
LINE
  5
302
100
AcDbEntity
  8
0
  6
Continuous
 62
     8
100
AcDbLine
 10
226.551647
 20
231.135864
 30
0.0
 11
226.551647
 21
232.135921
 31
0.0
  0
LINE
  5
303
100
AcDbEntity
  8
0
  6
Continuous
 62
     8
100
AcDbLine
 10
226.551647
 20
234.135733
 30
0.0
 11
226.551647
 21
242.034044
 31
0.0
  0
ENDBLK
  5
304
100
AcDbEntity
  8
0
100
AcDbBlockEnd
  0
BLOCK
  5
307
100
AcDbEntity
  8
0
100
AcDbBlockBegin
  2
*B47
 70
     0
 10
0.0
 20
0.0
 30
0.0
  3
*B47
  1

  0
LINE
  5
308
100
AcDbEntity
  8
0
  6
Continuous
 62
     8
100
AcDbLine
 10
180.551763
 20
99.854822
 30
0.0
 11
180.551763
 21
103.854446
 31
0.0
  0
LINE
  5
309
100
AcDbEntity
  8
0
  6
Continuous
 62
     8
100
AcDbLine
 10
180.551763
 20
109.854183
 30
0.0
 11
180.551763
 21
113.853807
 31
0.0
  0
ENDBLK
  5
30A
100
AcDbEntity
  8
0
100
AcDbBlockEnd
  0
BLOCK
  5
30D
100
AcDbEntity
  8
0
100
AcDbBlockBegin
  2
*B48
 70
     0
 10
0.0
 20
0.0
 30
0.0
  3
*B48
  1

  0
LINE
  5
30E
100
AcDbEntity
  8
0
  6
Continuous
 62
     8
100
AcDbLine
 10
249.151897
 20
75.748329
 30
0.0
 11
249.151897
 21
104.854503
 31
0.0
  0
ENDBLK
  5
30F
100
AcDbEntity
  8
0
100
AcDbBlockEnd
  0
BLOCK
  5
312
100
AcDbEntity
  8
0
100
AcDbBlockBegin
  2
*B49
 70
     0
 10
0.0
 20
0.0
 30
0.0
  3
*B49
  1

  0
LINE
  5
313
100
AcDbEntity
  8
0
  6
Continuous
 62
     8
100
AcDbLine
 10
116.551766
 20
106.876845
 30
0.0
 11
124.918413
 21
106.876845
 31
0.0
  0
LINE
  5
314
100
AcDbEntity
  8
0
  6
Continuous
 62
     8
100
AcDbLine
 10
126.918526
 20
106.876845
 30
0.0
 11
127.918582
 21
106.876845
 31
0.0
  0
LINE
  5
315
100
AcDbEntity
  8
0
  6
Continuous
 62
     8
100
AcDbLine
 10
129.918394
 20
106.876845
 30
0.0
 11
138.285041
 21
106.876845
 31
0.0
  0
LINE
  5
316
100
AcDbEntity
  8
0
  6
Continuous
 62
     8
100
AcDbLine
 10
140.285153
 20
106.876845
 30
0.0
 11
141.28521
 21
106.876845
 31
0.0
  0
LINE
  5
317
100
AcDbEntity
  8
0
  6
Continuous
 62
     8
100
AcDbLine
 10
143.285322
 20
106.876845
 30
0.0
 11
151.651969
 21
106.876845
 31
0.0
  0
LINE
  5
318
100
AcDbEntity
  8
0
  6
Continuous
 62
     8
100
AcDbLine
 10
153.651781
 20
106.876845
 30
0.0
 11
154.651837
 21
106.876845
 31
0.0
  0
LINE
  5
319
100
AcDbEntity
  8
0
  6
Continuous
 62
     8
100
AcDbLine
 10
156.65195
 20
106.876845
 30
0.0
 11
165.018597
 21
106.876845
 31
0.0
  0
LINE
  5
31A
100
AcDbEntity
  8
0
  6
Continuous
 62
     8
100
AcDbLine
 10
167.018409
 20
106.876845
 30
0.0
 11
168.018465
 21
106.876845
 31
0.0
  0
LINE
  5
31B
100
AcDbEntity
  8
0
  6
Continuous
 62
     8
100
AcDbLine
 10
170.018578
 20
106.876845
 30
0.0
 11
178.385224
 21
106.876845
 31
0.0
  0
LINE
  5
31C
100
AcDbEntity
  8
0
  6
Continuous
 62
     8
100
AcDbLine
 10
180.385036
 20
106.876845
 30
0.0
 11
181.385093
 21
106.876845
 31
0.0
  0
LINE
  5
31D
100
AcDbEntity
  8
0
  6
Continuous
 62
     8
100
AcDbLine
 10
183.385205
 20
106.876845
 30
0.0
 11
191.751852
 21
106.876845
 31
0.0
  0
LINE
  5
31E
100
AcDbEntity
  8
0
  6
Continuous
 62
     8
100
AcDbLine
 10
193.751965
 20
106.876845
 30
0.0
 11
194.75172
 21
106.876845
 31
0.0
  0
LINE
  5
31F
100
AcDbEntity
  8
0
  6
Continuous
 62
     8
100
AcDbLine
 10
196.751833
 20
106.876845
 30
0.0
 11
205.11848
 21
106.876845
 31
0.0
  0
LINE
  5
320
100
AcDbEntity
  8
0
  6
Continuous
 62
     8
100
AcDbLine
 10
207.118592
 20
106.876845
 30
0.0
 11
208.118348
 21
106.876845
 31
0.0
  0
LINE
  5
321
100
AcDbEntity
  8
0
  6
Continuous
 62
     8
100
AcDbLine
 10
210.118461
 20
106.876845
 30
0.0
 11
218.485107
 21
106.876845
 31
0.0
  0
LINE
  5
322
100
AcDbEntity
  8
0
  6
Continuous
 62
     8
100
AcDbLine
 10
220.48522
 20
106.876845
 30
0.0
 11
221.485276
 21
106.876845
 31
0.0
  0
LINE
  5
323
100
AcDbEntity
  8
0
  6
Continuous
 62
     8
100
AcDbLine
 10
223.485088
 20
106.876845
 30
0.0
 11
231.851735
 21
106.876845
 31
0.0
  0
LINE
  5
324
100
AcDbEntity
  8
0
  6
Continuous
 62
     8
100
AcDbLine
 10
233.851848
 20
106.876845
 30
0.0
 11
234.851904
 21
106.876845
 31
0.0
  0
LINE
  5
325
100
AcDbEntity
  8
0
  6
Continuous
 62
     8
100
AcDbLine
 10
236.851716
 20
106.876845
 30
0.0
 11
245.218363
 21
106.876845
 31
0.0
  0
LINE
  5
326
100
AcDbEntity
  8
0
  6
Continuous
 62
     8
100
AcDbLine
 10
247.218475
 20
106.876845
 30
0.0
 11
248.218532
 21
106.876845
 31
0.0
  0
LINE
  5
327
100
AcDbEntity
  8
0
  6
Continuous
 62
     8
100
AcDbLine
 10
250.218344
 20
106.876845
 30
0.0
 11
258.584991
 21
106.876845
 31
0.0
  0
LINE
  5
328
100
AcDbEntity
  8
0
  6
Continuous
 62
     8
100
AcDbLine
 10
260.585103
 20
106.876845
 30
0.0
 11
261.585159
 21
106.876845
 31
0.0
  0
LINE
  5
329
100
AcDbEntity
  8
0
  6
Continuous
 62
     8
100
AcDbLine
 10
263.585272
 20
106.876845
 30
0.0
 11
271.951919
 21
106.876845
 31
0.0
  0
ENDBLK
  5
32A
100
AcDbEntity
  8
0
100
AcDbBlockEnd
  0
BLOCK
  5
32D
100
AcDbEntity
  8
0
100
AcDbBlockBegin
  2
*B50
 70
     0
 10
0.0
 20
0.0
 30
0.0
  3
*B50
  1

  0
LINE
  5
32E
100
AcDbEntity
  8
0
  6
Continuous
 62
     8
100
AcDbLine
 10
154.551802
 20
99.454679
 30
0.0
 11
154.551802
 21
103.854446
 31
0.0
  0
LINE
  5
32F
100
AcDbEntity
  8
0
  6
Continuous
 62
     8
100
AcDbLine
 10
154.551802
 20
109.854183
 30
0.0
 11
154.551802
 21
114.25365
 31
0.0
  0
ENDBLK
  5
330
100
AcDbEntity
  8
0
100
AcDbBlockEnd
  0
BLOCK
  5
333
100
AcDbEntity
  8
0
100
AcDbBlockBegin
  2
*B51
 70
     0
 10
0.0
 20
0.0
 30
0.0
  3
*B51
  1

  0
LINE
  5
334
100
AcDbEntity
  8
0
  6
Continuous
 62
     8
100
AcDbLine
 10
258.551645
 20
93.455243
 30
0.0
 11
258.551645
 21
103.854446
 31
0.0
  0
LINE
  5
335
100
AcDbEntity
  8
0
  6
Continuous
 62
     8
100
AcDbLine
 10
258.551645
 20
109.854183
 30
0.0
 11
258.551645
 21
120.253386
 31
0.0
  0
ENDBLK
  5
336
100
AcDbEntity
  8
0
100
AcDbBlockEnd
  0
BLOCK
  5
339
100
AcDbEntity
  8
0
100
AcDbBlockBegin
  2
*B52
 70
     0
 10
0.0
 20
0.0
 30
0.0
  3
*B52
  1

  0
LINE
  5
33A
100
AcDbEntity
  8
0
  6
Continuous
 62
     8
100
AcDbLine
 10
116.551766
 20
106.899376
 30
0.0
 11
128.351769
 21
106.899376
 31
0.0
  0
ENDBLK
  5
33B
100
AcDbEntity
  8
0
100
AcDbBlockEnd
  0
BLOCK
  5
33E
100
AcDbEntity
  8
0
100
AcDbBlockBegin
  2
*B53
 70
     0
 10
0.0
 20
0.0
 30
0.0
  3
*B53
  1

  0
LINE
  5
33F
100
AcDbEntity
  8
0
  6
Continuous
 62
     6
100
AcDbLine
 10
153.551745
 20
106.854315
 30
0.0
 11
155.551858
 21
106.854315
 31
0.0
  0
LINE
  5
340
100
AcDbEntity
  8
0
  6
Continuous
 62
     6
100
AcDbLine
 10
154.551802
 20
105.854259
 30
0.0
 11
154.551802
 21
107.854071
 31
0.0
  0
ENDBLK
  5
341
100
AcDbEntity
  8
0
100
AcDbBlockEnd
  0
BLOCK
  5
344
100
AcDbEntity
  8
0
100
AcDbBlockBegin
  2
*B54
 70
     0
 10
0.0
 20
0.0
 30
0.0
  3
*B54
  1

  0
LINE
  5
345
100
AcDbEntity
  8
0
  6
Continuous
 62
     6
100
AcDbLine
 10
225.551891
 20
179.544497
 30
0.0
 11
227.551703
 21
179.544497
 31
0.0
  0
LINE
  5
346
100
AcDbEntity
  8
0
  6
Continuous
 62
     6
100
AcDbLine
 10
226.551647
 20
178.544741
 30
0.0
 11
226.551647
 21
180.544553
 31
0.0
  0
ENDBLK
  5
347
100
AcDbEntity
  8
0
100
AcDbBlockEnd
  0
BLOCK
  5
34A
100
AcDbEntity
  8
0
100
AcDbBlockBegin
  2
*B55
 70
     0
 10
0.0
 20
0.0
 30
0.0
  3
*B55
  1

  0
LINE
  5
34B
100
AcDbEntity
  8
0
  6
Continuous
 62
     6
100
AcDbLine
 10
225.551891
 20
106.854315
 30
0.0
 11
227.551703
 21
106.854315
 31
0.0
  0
LINE
  5
34C
100
AcDbEntity
  8
0
  6
Continuous
 62
     6
100
AcDbLine
 10
226.551647
 20
105.854259
 30
0.0
 11
226.551647
 21
107.854071
 31
0.0
  0
ENDBLK
  5
34D
100
AcDbEntity
  8
0
100
AcDbBlockEnd
  0
BLOCK
  5
350
100
AcDbEntity
  8
0
100
AcDbBlockBegin
  2
*B56
 70
     0
 10
0.0
 20
0.0
 30
0.0
  3
*B56
  1

  0
LINE
  5
351
100
AcDbEntity
  8
0
  6
Continuous
 62
     6
100
AcDbLine
 10
257.551889
 20
179.544497
 30
0.0
 11
259.551702
 21
179.544497
 31
0.0
  0
LINE
  5
352
100
AcDbEntity
  8
0
  6
Continuous
 62
     6
100
AcDbLine
 10
258.551645
 20
178.544741
 30
0.0
 11
258.551645
 21
180.544553
 31
0.0
  0
ENDBLK
  5
353
100
AcDbEntity
  8
0
100
AcDbBlockEnd
  0
BLOCK
  5
356
100
AcDbEntity
  8
0
100
AcDbBlockBegin
  2
*B57
 70
     0
 10
0.0
 20
0.0
 30
0.0
  3
*B57
  1

  0
LINE
  5
357
100
AcDbEntity
  8
0
  6
Continuous
 62
     6
100
AcDbLine
 10
209.551892
 20
219.54164
 30
0.0
 11
211.551704
 21
219.54164
 31
0.0
  0
LINE
  5
358
100
AcDbEntity
  8
0
  6
Continuous
 62
     6
100
AcDbLine
 10
210.551648
 20
218.541884
 30
0.0
 11
210.551648
 21
220.541697
 31
0.0
  0
ENDBLK
  5
359
100
AcDbEntity
  8
0
100
AcDbBlockEnd
  0
BLOCK
  5
35C
100
AcDbEntity
  8
0
100
AcDbBlockBegin
  2
*B58
 70
     0
 10
0.0
 20
0.0
 30
0.0
  3
*B58
  1

  0
LINE
  5
35D
100
AcDbEntity
  8
0
  6
Continuous
 62
     6
100
AcDbLine
 10
180.551763
 20
105.854259
 30
0.0
 11
180.551763
 21
107.854071
 31
0.0
  0
LINE
  5
35E
100
AcDbEntity
  8
0
  6
Continuous
 62
     6
100
AcDbLine
 10
179.551706
 20
106.854315
 30
0.0
 11
181.551819
 21
106.854315
 31
0.0
  0
ENDBLK
  5
35F
100
AcDbEntity
  8
0
100
AcDbBlockEnd
  0
BLOCK
  5
362
100
AcDbEntity
  8
0
100
AcDbBlockBegin
  2
*B59
 70
     0
 10
0.0
 20
0.0
 30
0.0
  3
*B59
  1

  0
LINE
  5
363
100
AcDbEntity
  8
0
  6
Continuous
 62
     6
100
AcDbLine
 10
258.551645
 20
105.854259
 30
0.0
 11
258.551645
 21
107.854071
 31
0.0
  0
LINE
  5
364
100
AcDbEntity
  8
0
  6
Continuous
 62
     6
100
AcDbLine
 10
257.551889
 20
106.854315
 30
0.0
 11
259.551702
 21
106.854315
 31
0.0
  0
ENDBLK
  5
365
100
AcDbEntity
  8
0
100
AcDbBlockEnd
  0
BLOCK
  5
368
100
AcDbEntity
  8
0
100
AcDbBlockBegin
  2
*B60
 70
     0
 10
0.0
 20
0.0
 30
0.0
  3
*B60
  1

  0
LINE
  5
369
100
AcDbEntity
  8
0
  6
Continuous
 62
     6
100
AcDbLine
 10
274.551644
 20
218.541884
 30
0.0
 11
274.551644
 21
220.541697
 31
0.0
  0
LINE
  5
36A
100
AcDbEntity
  8
0
  6
Continuous
 62
     6
100
AcDbLine
 10
273.551888
 20
219.54164
 30
0.0
 11
275.551701
 21
219.54164
 31
0.0
  0
ENDBLK
  5
36B
100
AcDbEntity
  8
0
100
AcDbBlockEnd
  0
BLOCK
  5
36E
100
AcDbEntity
  8
0
100
AcDbBlockBegin
  2
*B61
 70
     0
 10
0.0
 20
0.0
 30
0.0
  3
*B61
  1

  0
TEXT
  5
36F
100
AcDbEntity
  8
TEXT
  6
Continuous
 62
     0
100
AcDbText
 10
189.971499
 20
197.0
 30
0.0
 40
5.0
  1
14
100
AcDbText
  0
ENDBLK
  5
370
100
AcDbEntity
  8
0
100
AcDbBlockEnd
  0
BLOCK
  5
373
100
AcDbEntity
  8
0
100
AcDbBlockBegin
  2
*B62
 70
     0
 10
0.0
 20
0.0
 30
0.0
  3
*B62
  1

  0
TEXT
  5
374
100
AcDbEntity
  8
TEXT
  6
Continuous
 62
     0
100
AcDbText
 10
287.471499
 20
197.5
 30
0.0
 40
5.0
  1
12
100
AcDbText
  0
ENDBLK
  5
375
100
AcDbEntity
  8
0
100
AcDbBlockEnd
  0
BLOCK
  5
378
100
AcDbEntity
  8
0
100
AcDbBlockBegin
  2
*B63
 70
     0
 10
0.0
 20
0.0
 30
0.0
  3
*B63
  1

  0
TEXT
  5
379
100
AcDbEntity
  8
TEXT
  6
Continuous
 62
     0
100
AcDbText
 10
240.73575
 20
172.5
 30
0.0
 40
5.0
  1
1
100
AcDbText
  0
ENDBLK
  5
37A
100
AcDbEntity
  8
0
100
AcDbBlockEnd
  0
BLOCK
  5
37D
100
AcDbEntity
  8
0
100
AcDbBlockBegin
  2
*B64
 70
     0
 10
0.0
 20
0.0
 30
0.0
  3
*B64
  1

  0
TEXT
  5
37E
100
AcDbEntity
  8
TEXT
  6
Continuous
 62
     0
100
AcDbText
 10
256.73575
 20
221.0
 30
0.0
 40
5.0
  1
2
100
AcDbText
  0
ENDBLK
  5
37F
100
AcDbEntity
  8
0
100
AcDbBlockEnd
  0
BLOCK
  5
382
100
AcDbEntity
  8
0
100
AcDbBlockBegin
  2
*B65
 70
     0
 10
0.0
 20
0.0
 30
0.0
  3
*B65
  1

  0
TEXT
  5
383
100
AcDbEntity
  8
TEXT
  6
Continuous
 62
     0
100
AcDbText
 10
272.73575
 20
173.0
 30
0.0
 40
5.0
  1
3
100
AcDbText
  0
ENDBLK
  5
384
100
AcDbEntity
  8
0
100
AcDbBlockEnd
  0
BLOCK
  5
387
100
AcDbEntity
  8
0
100
AcDbBlockBegin
  2
*B66
 70
     0
 10
0.0
 20
0.0
 30
0.0
  3
*B66
  1

  0
TEXT
  5
388
100
AcDbEntity
  8
TEXT
  6
Continuous
 62
     0
100
AcDbText
 10
224.23575
 20
221.0
 30
0.0
 40
5.0
  1
4
100
AcDbText
  0
ENDBLK
  5
389
100
AcDbEntity
  8
0
100
AcDbBlockEnd
  0
BLOCK
  5
38C
100
AcDbEntity
  8
0
100
AcDbBlockBegin
  2
*B67
 70
     0
 10
0.0
 20
0.0
 30
0.0
  3
*B67
  1

  0
TEXT
  5
38D
100
AcDbEntity
  8
TEXT
  6
Continuous
 62
     0
100
AcDbText
 10
208.73575
 20
172.5
 30
0.0
 40
5.0
  1
5
100
AcDbText
  0
ENDBLK
  5
38E
100
AcDbEntity
  8
0
100
AcDbBlockEnd
  0
BLOCK
  5
391
100
AcDbEntity
  8
0
100
AcDbBlockBegin
  2
*B68
 70
     0
 10
0.0
 20
0.0
 30
0.0
  3
*B68
  1

  0
TEXT
  5
392
100
AcDbEntity
  8
TEXT
  6
Continuous
 62
     0
100
AcDbText
 10
181.9
 20
100.34145
 30
0.0
 40
3.0
  1
0
 50
90.0
100
AcDbText
  0
ENDBLK
  5
393
100
AcDbEntity
  8
0
100
AcDbBlockEnd
  0
BLOCK
  5
396
100
AcDbEntity
  8
0
100
AcDbBlockBegin
  2
*B69
 70
     0
 10
0.0
 20
0.0
 30
0.0
  3
*B69
  1

  0
TEXT
  5
397
100
AcDbEntity
  8
TEXT
  6
Continuous
 62
     0
100
AcDbText
 10
175.9
 20
105.54145
 30
0.0
 40
3.0
  1
1
 50
90.0
100
AcDbText
  0
ENDBLK
  5
398
100
AcDbEntity
  8
0
100
AcDbBlockEnd
  0
BLOCK
  5
39B
100
AcDbEntity
  8
0
100
AcDbBlockBegin
  2
*B70
 70
     0
 10
0.0
 20
0.0
 30
0.0
  3
*B70
  1

  0
TEXT
  5
39C
100
AcDbEntity
  8
TEXT
  6
Continuous
 62
     0
100
AcDbText
 10
327.25
 20
103.4773
 30
0.0
 40
3.5
  1
30
 50
90.0
100
AcDbText
  0
ENDBLK
  5
39D
100
AcDbEntity
  8
0
100
AcDbBlockEnd
  0
BLOCK
  5
3A0
100
AcDbEntity
  8
0
100
AcDbBlockBegin
  2
*B71
 70
     0
 10
0.0
 20
0.0
 30
0.0
  3
*B71
  1

  0
TEXT
  5
3A1
100
AcDbEntity
  8
TEXT
  6
Continuous
 62
     0
100
AcDbText
 10
328.25
 20
196.172807
 30
0.0
 40
3.5
  1
60
 50
90.0
100
AcDbText
  0
ENDBLK
  5
3A2
100
AcDbEntity
  8
0
100
AcDbBlockEnd
  0
BLOCK
  5
3A5
100
AcDbEntity
  8
0
100
AcDbBlockBegin
  2
*B72
 70
     0
 10
0.0
 20
0.0
 30
0.0
  3
*B72
  1

  0
TEXT
  5
3A6
100
AcDbEntity
  8
TEXT
  6
Continuous
 62
     0
100
AcDbText
 10
314.25
 20
196.172807
 30
0.0
 40
3.5
  1
40
 50
90.0
100
AcDbText
  0
ENDBLK
  5
3A7
100
AcDbEntity
  8
0
100
AcDbBlockEnd
  0
BLOCK
  5
3AA
100
AcDbEntity
  8
0
100
AcDbBlockBegin
  2
*B73
 70
     0
 10
0.0
 20
0.0
 30
0.0
  3
*B73
  1

  0
TEXT
  5
3AB
100
AcDbEntity
  8
TEXT
  6
Continuous
 62
     0
100
AcDbText
 10
141.692842
 20
261.75
 30
0.0
 40
3.5
  1
48
100
AcDbText
  0
ENDBLK
  5
3AC
100
AcDbEntity
  8
0
100
AcDbBlockEnd
  0
BLOCK
  5
3AF
100
AcDbEntity
  8
0
100
AcDbBlockBegin
  2
*B74
 70
     0
 10
0.0
 20
0.0
 30
0.0
  3
*B74
  1

  0
TEXT
  5
3B0
100
AcDbEntity
  8
TEXT
  6
Continuous
 62
     0
100
AcDbText
 10
275.692842
 20
245.75
 30
0.0
 40
3.5
  1
41
100
AcDbText
  0
ENDBLK
  5
3B1
100
AcDbEntity
  8
0
100
AcDbBlockEnd
  0
BLOCK
  5
3B4
100
AcDbEntity
  8
0
100
AcDbBlockBegin
  2
*B75
 70
     0
 10
0.0
 20
0.0
 30
0.0
  3
*B75
  1

  0
TEXT
  5
3B5
100
AcDbEntity
  8
TEXT
  6
Continuous
 62
     0
100
AcDbText
 10
239.192842
 20
245.75
 30
0.0
 40
3.5
  1
32
100
AcDbText
  0
ENDBLK
  5
3B6
100
AcDbEntity
  8
0
100
AcDbBlockEnd
  0
BLOCK
  5
3B9
100
AcDbEntity
  8
0
100
AcDbBlockBegin
  2
*B76
 70
     0
 10
0.0
 20
0.0
 30
0.0
  3
*B76
  1

  0
TEXT
  5
3BA
100
AcDbEntity
  8
TEXT
  6
Continuous
 62
     0
100
AcDbText
 10
283.692842
 20
156.75
 30
0.0
 40
3.5
  1
25
100
AcDbText
  0
ENDBLK
  5
3BB
100
AcDbEntity
  8
0
100
AcDbBlockEnd
  0
BLOCK
  5
3BE
100
AcDbEntity
  8
0
100
AcDbBlockBegin
  2
*B77
 70
     0
 10
0.0
 20
0.0
 30
0.0
  3
*B77
  1

  0
TEXT
  5
3BF
100
AcDbEntity
  8
TEXT
  6
Continuous
 62
     0
100
AcDbText
 10
255.192842
 20
156.75
 30
0.0
 40
3.5
  1
32
100
AcDbText
  0
ENDBLK
  5
3C0
100
AcDbEntity
  8
0
100
AcDbBlockEnd
  0
BLOCK
  5
3C3
100
AcDbEntity
  8
0
100
AcDbBlockBegin
  2
*B78
 70
     0
 10
0.0
 20
0.0
 30
0.0
  3
*B78
  1

  0
TEXT
  5
3C4
100
AcDbEntity
  8
TEXT
  6
Continuous
 62
     0
100
AcDbText
 10
223.192842
 20
156.75
 30
0.0
 40
3.5
  1
32
100
AcDbText
  0
ENDBLK
  5
3C5
100
AcDbEntity
  8
0
100
AcDbBlockEnd
  0
BLOCK
  5
3C8
100
AcDbEntity
  8
0
100
AcDbBlockBegin
  2
*B79
 70
     0
 10
0.0
 20
0.0
 30
0.0
  3
*B79
  1

  0
TEXT
  5
3C9
100
AcDbEntity
  8
TEXT
  6
Continuous
 62
     0
100
AcDbText
 10
194.692842
 20
156.75
 30
0.0
 40
3.5
  1
25
100
AcDbText
  0
ENDBLK
  5
3CA
100
AcDbEntity
  8
0
100
AcDbBlockEnd
  0
BLOCK
  5
3CD
100
AcDbEntity
  8
0
100
AcDbBlockBegin
  2
*B80
 70
     0
 10
0.0
 20
0.0
 30
0.0
  3
*B80
  1

  0
TEXT
  5
3CE
100
AcDbEntity
  8
TEXT
  6
Continuous
 62
     0
100
AcDbText
 10
239.192842
 20
261.75
 30
0.0
 40
3.5
  1
64
100
AcDbText
  0
ENDBLK
  5
3CF
100
AcDbEntity
  8
0
100
AcDbBlockEnd
  0
BLOCK
  5
3D2
100
AcDbEntity
  8
0
100
AcDbBlockBegin
  2
*B81
 70
     0
 10
0.0
 20
0.0
 30
0.0
  3
*B81
  1

  0
TEXT
  5
3D3
100
AcDbEntity
  8
TEXT
  6
Continuous
 62
     0
100
AcDbText
 10
106.25
 20
204.672582
 30
0.0
 40
3.5
  1
77
 50
90.0
100
AcDbText
  0
ENDBLK
  5
3D4
100
AcDbEntity
  8
0
100
AcDbBlockEnd
  0
BLOCK
  5
3D7
100
AcDbEntity
  8
0
100
AcDbBlockBegin
  2
*B82
 70
     0
 10
0.0
 20
0.0
 30
0.0
  3
*B82
  1

  0
TEXT
  5
3D8
100
AcDbEntity
  8
TEXT
  6
Continuous
 62
     0
100
AcDbText
 10
229.526176
 20
140.75
 30
0.0
 40
3.5
  1
130
100
AcDbText
  0
ENDBLK
  5
3D9
100
AcDbEntity
  8
0
100
AcDbBlockEnd
  0
BLOCK
  5
3DC
100
AcDbEntity
  8
0
100
AcDbBlockBegin
  2
*B83
 70
     0
 10
0.0
 20
0.0
 30
0.0
  3
*B83
  1

  0
TEXT
  5
3DD
100
AcDbEntity
  8
TEXT
  6
Continuous
 62
     0
100
AcDbText
 10
274.416667
 20
79.452443
 30
0.0
 40
3.5
  1
G 1/2"
100
AcDbText
  0
ENDBLK
  5
3DE
100
AcDbEntity
  8
0
100
AcDbBlockEnd
  0
BLOCK
  5
3E1
100
AcDbEntity
  8
0
100
AcDbBlockBegin
  2
*B84
 70
     0
 10
0.0
 20
0.0
 30
0.0
  3
*B84
  1

  0
TEXT
  5
3E2
100
AcDbEntity
  8
TEXT
  6
Continuous
 62
     0
100
AcDbText
 10
185.383333
 20
245.75
 30
0.0
 40
3.5
  1
%%c6,6
100
AcDbText
  0
ENDBLK
  5
3E3
100
AcDbEntity
  8
0
100
AcDbBlockEnd
  0
ENDSEC
  0
SECTION
  2
ENTITIES
  0
INSERT
  5
11D
100
AcDbEntity
  8
0
  6
HIDDEN
 62
   174
100
AcDbBlockReference
  2
*B1
 10
0.0
 20
0.0
 30
0.0
  0
INSERT
  5
193
100
AcDbEntity
  8
0
  6
Continuous
 62
   174
100
AcDbBlockReference
  2
*B2
 10
0.0
 20
0.0
 30
0.0
  0
INSERT
  5
199
100
AcDbEntity
  8
0
  6
Continuous
 62
   172
100
AcDbBlockReference
  2
*B3
 10
0.0
 20
0.0
 30
0.0
  0
INSERT
  5
1A4
100
AcDbEntity
  8
0
  6
Continuous
 62
   172
100
AcDbBlockReference
  2
*B4
 10
0.0
 20
0.0
 30
0.0
  0
INSERT
  5
1AE
100
AcDbEntity
  8
0
  6
Continuous
 62
     0
100
AcDbBlockReference
  2
*B6
 10
0.0
 20
0.0
 30
0.0
  0
INSERT
  5
1B5
100
AcDbEntity
  8
0
  6
Continuous
 62
     0
100
AcDbBlockReference
  2
*B7
 10
0.0
 20
0.0
 30
0.0
  0
INSERT
  5
1BC
100
AcDbEntity
  8
0
  6
Continuous
 62
     0
100
AcDbBlockReference
  2
*B8
 10
0.0
 20
0.0
 30
0.0
  0
INSERT
  5
1C3
100
AcDbEntity
  8
0
  6
Continuous
 62
     0
100
AcDbBlockReference
  2
*B9
 10
0.0
 20
0.0
 30
0.0
  0
INSERT
  5
1CA
100
AcDbEntity
  8
0
  6
Continuous
 62
     0
100
AcDbBlockReference
  2
*B10
 10
0.0
 20
0.0
 30
0.0
  0
INSERT
  5
1D1
100
AcDbEntity
  8
0
  6
Continuous
 62
     0
100
AcDbBlockReference
  2
*B11
 10
0.0
 20
0.0
 30
0.0
  0
INSERT
  5
1D8
100
AcDbEntity
  8
0
  6
Continuous
 62
     0
100
AcDbBlockReference
  2
*B12
 10
0.0
 20
0.0
 30
0.0
  0
INSERT
  5
1DF
100
AcDbEntity
  8
0
  6
Continuous
 62
     0
100
AcDbBlockReference
  2
*B13
 10
0.0
 20
0.0
 30
0.0
  0
INSERT
  5
1E6
100
AcDbEntity
  8
0
  6
Continuous
 62
     0
100
AcDbBlockReference
  2
*B14
 10
0.0
 20
0.0
 30
0.0
  0
INSERT
  5
1ED
100
AcDbEntity
  8
0
  6
Continuous
 62
     0
100
AcDbBlockReference
  2
*B15
 10
0.0
 20
0.0
 30
0.0
  0
INSERT
  5
1F4
100
AcDbEntity
  8
0
  6
Continuous
 62
     0
100
AcDbBlockReference
  2
*B16
 10
0.0
 20
0.0
 30
0.0
  0
INSERT
  5
1FB
100
AcDbEntity
  8
0
  6
Continuous
 62
     0
100
AcDbBlockReference
  2
*B17
 10
0.0
 20
0.0
 30
0.0
  0
INSERT
  5
202
100
AcDbEntity
  8
0
  6
Continuous
 62
     0
100
AcDbBlockReference
  2
*B18
 10
0.0
 20
0.0
 30
0.0
  0
INSERT
  5
209
100
AcDbEntity
  8
0
  6
Continuous
 62
     0
100
AcDbBlockReference
  2
*B19
 10
0.0
 20
0.0
 30
0.0
  0
INSERT
  5
210
100
AcDbEntity
  8
0
  6
Continuous
 62
     0
100
AcDbBlockReference
  2
*B20
 10
0.0
 20
0.0
 30
0.0
  0
INSERT
  5
215
100
AcDbEntity
  8
0
  6
Continuous
 62
     8
100
AcDbBlockReference
  2
*B21
 10
0.0
 20
0.0
 30
0.0
  0
INSERT
  5
21A
100
AcDbEntity
  8
0
  6
Continuous
 62
     8
100
AcDbBlockReference
  2
*B22
 10
0.0
 20
0.0
 30
0.0
  0
INSERT
  5
22E
100
AcDbEntity
  8
0
  6
Continuous
 62
     8
100
AcDbBlockReference
  2
*B23
 10
0.0
 20
0.0
 30
0.0
  0
INSERT
  5
233
100
AcDbEntity
  8
0
  6
Continuous
 62
     8
100
AcDbBlockReference
  2
*B24
 10
0.0
 20
0.0
 30
0.0
  0
INSERT
  5
23B
100
AcDbEntity
  8
0
  6
Continuous
 62
     8
100
AcDbBlockReference
  2
*B25
 10
0.0
 20
0.0
 30
0.0
  0
INSERT
  5
241
100
AcDbEntity
  8
0
  6
Continuous
 62
     8
100
AcDbBlockReference
  2
*B26
 10
0.0
 20
0.0
 30
0.0
  0
INSERT
  5
247
100
AcDbEntity
  8
0
  6
Continuous
 62
     8
100
AcDbBlockReference
  2
*B27
 10
0.0
 20
0.0
 30
0.0
  0
INSERT
  5
254
100
AcDbEntity
  8
0
  6
Continuous
 62
     8
100
AcDbBlockReference
  2
*B28
 10
0.0
 20
0.0
 30
0.0
  0
INSERT
  5
273
100
AcDbEntity
  8
0
  6
Continuous
 62
     8
100
AcDbBlockReference
  2
*B29
 10
0.0
 20
0.0
 30
0.0
  0
INSERT
  5
27E
100
AcDbEntity
  8
0
  6
Continuous
 62
     8
100
AcDbBlockReference
  2
*B30
 10
0.0
 20
0.0
 30
0.0
  0
INSERT
  5
283
100
AcDbEntity
  8
0
  6
Continuous
 62
     8
100
AcDbBlockReference
  2
*B31
 10
0.0
 20
0.0
 30
0.0
  0
INSERT
  5
289
100
AcDbEntity
  8
0
  6
Continuous
 62
     8
100
AcDbBlockReference
  2
*B32
 10
0.0
 20
0.0
 30
0.0
  0
INSERT
  5
28E
100
AcDbEntity
  8
0
  6
Continuous
 62
     8
100
AcDbBlockReference
  2
*B33
 10
0.0
 20
0.0
 30
0.0
  0
INSERT
  5
2A0
100
AcDbEntity
  8
0
  6
Continuous
 62
     8
100
AcDbBlockReference
  2
*B34
 10
0.0
 20
0.0
 30
0.0
  0
INSERT
  5
2A7
100
AcDbEntity
  8
0
  6
Continuous
 62
     8
100
AcDbBlockReference
  2
*B35
 10
0.0
 20
0.0
 30
0.0
  0
INSERT
  5
2AC
100
AcDbEntity
  8
0
  6
Continuous
 62
     8
100
AcDbBlockReference
  2
*B36
 10
0.0
 20
0.0
 30
0.0
  0
INSERT
  5
2B2
100
AcDbEntity
  8
0
  6
Continuous
 62
     8
100
AcDbBlockReference
  2
*B37
 10
0.0
 20
0.0
 30
0.0
  0
INSERT
  5
2B7
100
AcDbEntity
  8
0
  6
Continuous
 62
     8
100
AcDbBlockReference
  2
*B38
 10
0.0
 20
0.0
 30
0.0
  0
INSERT
  5
2BC
100
AcDbEntity
  8
0
  6
Continuous
 62
     8
100
AcDbBlockReference
  2
*B39
 10
0.0
 20
0.0
 30
0.0
  0
INSERT
  5
2D0
100
AcDbEntity
  8
0
  6
Continuous
 62
     8
100
AcDbBlockReference
  2
*B40
 10
0.0
 20
0.0
 30
0.0
  0
INSERT
  5
2D6
100
AcDbEntity
  8
0
  6
Continuous
 62
     8
100
AcDbBlockReference
  2
*B41
 10
0.0
 20
0.0
 30
0.0
  0
INSERT
  5
2E5
100
AcDbEntity
  8
0
  6
Continuous
 62
     8
100
AcDbBlockReference
  2
*B42
 10
0.0
 20
0.0
 30
0.0
  0
INSERT
  5
2EB
100
AcDbEntity
  8
0
  6
Continuous
 62
     8
100
AcDbBlockReference
  2
*B43
 10
0.0
 20
0.0
 30
0.0
  0
INSERT
  5
2F1
100
AcDbEntity
  8
0
  6
Continuous
 62
     8
100
AcDbBlockReference
  2
*B44
 10
0.0
 20
0.0
 30
0.0
  0
INSERT
  5
2F6
100
AcDbEntity
  8
0
  6
Continuous
 62
     8
100
AcDbBlockReference
  2
*B45
 10
0.0
 20
0.0
 30
0.0
  0
INSERT
  5
305
100
AcDbEntity
  8
0
  6
Continuous
 62
     8
100
AcDbBlockReference
  2
*B46
 10
0.0
 20
0.0
 30
0.0
  0
INSERT
  5
30B
100
AcDbEntity
  8
0
  6
Continuous
 62
     8
100
AcDbBlockReference
  2
*B47
 10
0.0
 20
0.0
 30
0.0
  0
INSERT
  5
310
100
AcDbEntity
  8
0
  6
Continuous
 62
     8
100
AcDbBlockReference
  2
*B48
 10
0.0
 20
0.0
 30
0.0
  0
INSERT
  5
32B
100
AcDbEntity
  8
0
  6
Continuous
 62
     8
100
AcDbBlockReference
  2
*B49
 10
0.0
 20
0.0
 30
0.0
  0
INSERT
  5
331
100
AcDbEntity
  8
0
  6
Continuous
 62
     8
100
AcDbBlockReference
  2
*B50
 10
0.0
 20
0.0
 30
0.0
  0
INSERT
  5
337
100
AcDbEntity
  8
0
  6
Continuous
 62
     8
100
AcDbBlockReference
  2
*B51
 10
0.0
 20
0.0
 30
0.0
  0
INSERT
  5
33C
100
AcDbEntity
  8
0
  6
Continuous
 62
     8
100
AcDbBlockReference
  2
*B52
 10
0.0
 20
0.0
 30
0.0
  0
INSERT
  5
342
100
AcDbEntity
  8
0
  6
Continuous
 62
     6
100
AcDbBlockReference
  2
*B53
 10
0.0
 20
0.0
 30
0.0
  0
INSERT
  5
348
100
AcDbEntity
  8
0
  6
Continuous
 62
     6
100
AcDbBlockReference
  2
*B54
 10
0.0
 20
0.0
 30
0.0
  0
INSERT
  5
34E
100
AcDbEntity
  8
0
  6
Continuous
 62
     6
100
AcDbBlockReference
  2
*B55
 10
0.0
 20
0.0
 30
0.0
  0
INSERT
  5
354
100
AcDbEntity
  8
0
  6
Continuous
 62
     6
100
AcDbBlockReference
  2
*B56
 10
0.0
 20
0.0
 30
0.0
  0
INSERT
  5
35A
100
AcDbEntity
  8
0
  6
Continuous
 62
     6
100
AcDbBlockReference
  2
*B57
 10
0.0
 20
0.0
 30
0.0
  0
INSERT
  5
360
100
AcDbEntity
  8
0
  6
Continuous
 62
     6
100
AcDbBlockReference
  2
*B58
 10
0.0
 20
0.0
 30
0.0
  0
INSERT
  5
366
100
AcDbEntity
  8
0
  6
Continuous
 62
     6
100
AcDbBlockReference
  2
*B59
 10
0.0
 20
0.0
 30
0.0
  0
INSERT
  5
36C
100
AcDbEntity
  8
0
  6
Continuous
 62
     6
100
AcDbBlockReference
  2
*B60
 10
0.0
 20
0.0
 30
0.0
  0
INSERT
  5
371
100
AcDbEntity
  8
TEXT
  6
Continuous
 62
     0
100
AcDbBlockReference
  2
*B61
 10
0.0
 20
0.0
 30
0.0
  0
INSERT
  5
376
100
AcDbEntity
  8
TEXT
  6
Continuous
 62
     0
100
AcDbBlockReference
  2
*B62
 10
0.0
 20
0.0
 30
0.0
  0
INSERT
  5
37B
100
AcDbEntity
  8
TEXT
  6
Continuous
 62
     0
100
AcDbBlockReference
  2
*B63
 10
0.0
 20
0.0
 30
0.0
  0
INSERT
  5
380
100
AcDbEntity
  8
TEXT
  6
Continuous
 62
     0
100
AcDbBlockReference
  2
*B64
 10
0.0
 20
0.0
 30
0.0
  0
INSERT
  5
385
100
AcDbEntity
  8
TEXT
  6
Continuous
 62
     0
100
AcDbBlockReference
  2
*B65
 10
0.0
 20
0.0
 30
0.0
  0
INSERT
  5
38A
100
AcDbEntity
  8
TEXT
  6
Continuous
 62
     0
100
AcDbBlockReference
  2
*B66
 10
0.0
 20
0.0
 30
0.0
  0
INSERT
  5
38F
100
AcDbEntity
  8
TEXT
  6
Continuous
 62
     0
100
AcDbBlockReference
  2
*B67
 10
0.0
 20
0.0
 30
0.0
  0
INSERT
  5
394
100
AcDbEntity
  8
TEXT
  6
Continuous
 62
     0
100
AcDbBlockReference
  2
*B68
 10
0.0
 20
0.0
 30
0.0
  0
INSERT
  5
399
100
AcDbEntity
  8
TEXT
  6
Continuous
 62
     0
100
AcDbBlockReference
  2
*B69
 10
0.0
 20
0.0
 30
0.0
  0
INSERT
  5
39E
100
AcDbEntity
  8
TEXT
  6
Continuous
 62
     0
100
AcDbBlockReference
  2
*B70
 10
0.0
 20
0.0
 30
0.0
  0
INSERT
  5
3A3
100
AcDbEntity
  8
TEXT
  6
Continuous
 62
     0
100
AcDbBlockReference
  2
*B71
 10
0.0
 20
0.0
 30
0.0
  0
INSERT
  5
3A8
100
AcDbEntity
  8
TEXT
  6
Continuous
 62
     0
100
AcDbBlockReference
  2
*B72
 10
0.0
 20
0.0
 30
0.0
  0
INSERT
  5
3AD
100
AcDbEntity
  8
TEXT
  6
Continuous
 62
     0
100
AcDbBlockReference
  2
*B73
 10
0.0
 20
0.0
 30
0.0
  0
INSERT
  5
3B2
100
AcDbEntity
  8
TEXT
  6
Continuous
 62
     0
100
AcDbBlockReference
  2
*B74
 10
0.0
 20
0.0
 30
0.0
  0
INSERT
  5
3B7
100
AcDbEntity
  8
TEXT
  6
Continuous
 62
     0
100
AcDbBlockReference
  2
*B75
 10
0.0
 20
0.0
 30
0.0
  0
INSERT
  5
3BC
100
AcDbEntity
  8
TEXT
  6
Continuous
 62
     0
100
AcDbBlockReference
  2
*B76
 10
0.0
 20
0.0
 30
0.0
  0
INSERT
  5
3C1
100
AcDbEntity
  8
TEXT
  6
Continuous
 62
     0
100
AcDbBlockReference
  2
*B77
 10
0.0
 20
0.0
 30
0.0
  0
INSERT
  5
3C6
100
AcDbEntity
  8
TEXT
  6
Continuous
 62
     0
100
AcDbBlockReference
  2
*B78
 10
0.0
 20
0.0
 30
0.0
  0
INSERT
  5
3CB
100
AcDbEntity
  8
TEXT
  6
Continuous
 62
     0
100
AcDbBlockReference
  2
*B79
 10
0.0
 20
0.0
 30
0.0
  0
INSERT
  5
3D0
100
AcDbEntity
  8
TEXT
  6
Continuous
 62
     0
100
AcDbBlockReference
  2
*B80
 10
0.0
 20
0.0
 30
0.0
  0
INSERT
  5
3D5
100
AcDbEntity
  8
TEXT
  6
Continuous
 62
     0
100
AcDbBlockReference
  2
*B81
 10
0.0
 20
0.0
 30
0.0
  0
INSERT
  5
3DA
100
AcDbEntity
  8
TEXT
  6
Continuous
 62
     0
100
AcDbBlockReference
  2
*B82
 10
0.0
 20
0.0
 30
0.0
  0
INSERT
  5
3DF
100
AcDbEntity
  8
TEXT
  6
Continuous
 62
     0
100
AcDbBlockReference
  2
*B83
 10
0.0
 20
0.0
 30
0.0
  0
INSERT
  5
3E4
100
AcDbEntity
  8
TEXT
  6
Continuous
 62
     0
100
AcDbBlockReference
  2
*B84
 10
0.0
 20
0.0
 30
0.0
  0
ENDSEC
  0
SECTION
  2
OBJECTS
  0
DICTIONARY
  5
19
100
AcDbDictionary
280
     0
281
     1
  3
ACAD_GROUP
350
1A
  3
ACAD_MLINESTYLE
350
1B
  3
ACAD_LAYOUT
350
1E
  3
ACAD_PLOTSETTINGS
350
22
  3
ACAD_PLOTSTYLENAME
350
1F
  3
ACAD_WIPEOUT_VARS
350
23
  0
DICTIONARY
  5
1A
102
{ACAD_REACTORS
330
19
102
}
100
AcDbDictionary
280
     0
281
     1
  0
DICTIONARY
  5
1B
102
{ACAD_REACTORS
330
19
102
}
100
AcDbDictionary
280
     0
281
     1
  3
Standard
350
1C
  0
MLINESTYLE
  5
1C
102
{ACAD_REACTORS
330
1B
102
}
100
AcDbMlineStyle
  2
Standard
 70
     0
  3

 62
     0
 51
90.0
 52
90.0
 71
     2
 49
0.5
 62
   256
  6
BYLAYER
 49
-0.5
 62
   256
  6
BYLAYER
  0
ACDBDICTIONARYWDFLT
  5
1F
102
{ACAD_REACTORS
330
19
102
}
100
AcDbDictionary
281
     1
  3
Normal
350
1D
100
AcDbDictionaryWithDefault
340
1D
  0
ACDBPLACEHOLDER
  5
1D
102
{ACAD_REACTORS
330
1F
102
}
  0
LAYOUT
  5
20
102
{ACAD_REACTORS
330
1E
102
}
100
AcDbPlotSettings
  1

  2

  4

  6

 40
0.0
 41
0.0
 42
0.0
 43
0.0
 44
0.0
 45
0.0
 46
0.0
 47
0.0
 48
0.0
 49
0.0
140
0.0
141
0.0
142
1.0
143
1.0
 70
     0
 72
     0
 73
     0
 74
     0
  7

 75
     0
147
1.0
148
0.0
149
0.0
100
AcDbLayout
  1
Model
 70
     0
 71
     0
 10
0.0
 20
0.0
 11
0.0
 21
0.0
 12
0.0
 22
0.0
 32
0.0
 14
0.0
 24
0.0
 34
0.0
 15
0.0
 25
0.0
 35
0.0
146
0.0
 13
0.0
 23
0.0
 33
0.0
 16
0.0
 26
0.0
 36
0.0
 17
0.0
 27
0.0
 37
0.0
 76
     0
330
A
331
0
345
0
346
0
  0
LAYOUT
  5
21
102
{ACAD_REACTORS
330
1E
102
}
100
AcDbPlotSettings
  1

  2

  4

  6

 40
0.0
 41
0.0
 42
0.0
 43
0.0
 44
0.0
 45
0.0
 46
0.0
 47
0.0
 48
0.0
 49
0.0
140
0.0
141
0.0
142
1.0
143
1.0
 70
     0
 72
     0
 73
     0
 74
     0
  7

 75
     0
147
1.0
148
0.0
149
0.0
100
AcDbLayout
  1
Layout1
 70
     0
 71
     0
 10
0.0
 20
0.0
 11
0.0
 21
0.0
 12
0.0
 22
0.0
 32
0.0
 14
0.0
 24
0.0
 34
0.0
 15
0.0
 25
0.0
 35
0.0
146
0.0
 13
0.0
 23
0.0
 33
0.0
 16
0.0
 26
0.0
 36
0.0
 17
0.0
 27
0.0
 37
0.0
 76
     0
330
B
331
0
345
0
346
0
  0
DICTIONARY
  5
1E
102
{ACAD_REACTORS
330
19
102
}
100
AcDbDictionary
280
     0
281
     1
  3
Layout1
350
21
  3
Model
350
20
  0
DICTIONARY
  5
22
102
{ACAD_REACTORS
330
19
102
}
100
AcDbDictionary
280
     0
281
     1
  0
WIPEOUTVARIABLES
  5
23
100
AcDbWipeoutVariables
 70
     1
  0
ENDSEC
  0
EOF
