  0
SECTION
  2
HEADER
  9
$ACADVER
  1
AC1015
  9
$ACADMAINTVER
 70
     6
  9
$DWGCODEPAGE
  3
DOS850
  9
$INSBASE
 10
0.0
 20
0.0
 30
0.0
  9
$EXTMIN
 10
0.0
 20
0.0
 30
0.0
  9
$EXTMAX
 10
297.0
 20
210.0
 30
0.0
  9
$LIMMIN
 10
0.0
 20
0.0
  9
$LIMMAX
 10
297.0
 20
210.0
  9
$ORTHOMODE
 70
     0
  9
$REGENMODE
 70
     1
  9
$FILLMODE
 70
     1
  9
$QTEXTMODE
 70
     0
  9
$MIRRTEXT
 70
     1
  9
$LTSCALE
 40
25.4
  9
$ATTMODE
 70
     1
  9
$TEXTSIZE
 40
3.5
  9
$TRACEWID
 40
0.05
  9
$TEXTSTYLE
  7
Standard
  9
$CLAYER
  8
0
  9
$CELTYPE
  6
Continuous
  9
$CECOLOR
 62
   256
  9
$CELTSCALE
 40
1.0
  9
$DISPSILH
 70
     0
  9
$DIMSCALE
 40
1.0
  9
$DIMASZ
 40
5.0
  9
$DIMEXO
 40
3.0
  9
$DIMDLI
 40
0.38
  9
$DIMRND
 40
0.0
  9
$DIMDLE
 40
0.0
  9
$DIMEXE
 40
2.0
  9
$DIMTP
 40
0.0
  9
$DIMTM
 40
0.0
  9
$DIMTXT
 40
3.5
  9
$DIMCEN
 40
4.0
  9
$DIMTSZ
 40
0.0
  9
$DIMTOL
 70
     0
  9
$DIMLIM
 70
     0
  9
$DIMTIH
 70
     1
  9
$DIMTOH
 70
     1
  9
$DIMSE1
 70
     0
  9
$DIMSE2
 70
     0
  9
$DIMTAD
 70
     0
  9
$DIMZIN
 70
     0
  9
$DIMBLK
  1

  9
$DIMASO
 70
     1
  9
$DIMSHO
 70
     1
  9
$DIMPOST
  1

  9
$DIMAPOST
  1

  9
$DIMALT
 70
     0
  9
$DIMALTD
 70
     2
  9
$DIMALTF
 40
25.4
  9
$DIMLFAC
 40
1.0
  9
$DIMTOFL
 70
     0
  9
$DIMTVP
 40
0.0
  9
$DIMTIX
 70
     0
  9
$DIMSOXD
 70
     0
  9
$DIMSAH
 70
     0
  9
$DIMBLK1
  1

  9
$DIMBLK2
  1

  9
$DIMSTYLE
  2
Standard
  9
$DIMCLRD
 70
     0
  9
$DIMCLRE
 70
     0
  9
$DIMCLRT
 70
     0
  9
$DIMTFAC
 40
1.0
  9
$DIMGAP
 40
1.0
  9
$DIMJUST
 70
     0
  9
$DIMSD1
 70
     0
  9
$DIMSD2
 70
     0
  9
$DIMTOLJ
 70
     1
  9
$DIMTZIN
 70
     0
  9
$DIMALTZ
 70
     0
  9
$DIMALTTZ
 70
     0
  9
$DIMUPT
 70
     0
  9
$DIMDEC
 70
     4
  9
$DIMTDEC
 70
     4
  9
$DIMALTU
 70
     2
  9
$DIMALTTD
 70
     2
  9
$DIMTXSTY
  7
Standard
  9
$DIMAUNIT
 70
     0
  9
$DIMADEC
 70
     0
  9
$DIMALTRND
 40
0.0
  9
$DIMAZIN
 70
     0
  9
$DIMDSEP
 70
     0
  9
$DIMATFIT
 70
     3
  9
$DIMFRAC
 70
     0
  9
$DIMLDRBLK
  1

  9
$DIMLUNIT
 70
     2
  9
$DIMLWD
 70
     0
  9
$DIMLWE
 70
     0
  9
$DIMTMOVE
 70
     0
  9
$LUNITS
 70
     2
  9
$LUPREC
 70
     4
  9
$SKETCHINC
 40
0.1
  9
$FILLETRAD
 40
0.0
  9
$AUNITS
 70
     0
  9
$AUPREC
 70
     0
  9
$MENU
  1
acad
  9
$ELEVATION
 40
0.0
  9
$PELEVATION
 40
0.0
  9
$THICKNESS
 40
0.0
  9
$LIMCHECK
 70
     0
  9
$CHAMFERA
 40
0.0
  9
$CHAMFERB
 40
0.0
  9
$CHAMFERC
 40
0.0
  9
$CHAMFERD
 40
0.0
  9
$SKPOLY
 70
     0
  9
$TDCREATE
 40
0.000000000
  9
$TDUCREATE
 40
0.000000000
  9
$TDUPDATE
 40
0.000000000
  9
$TDUUPDATE
 40
0.000000000
  9
$TDINDWG
 40
0.0000000000
  9
$TDUSRTIMER
 40
0.0000000000
  9
$USRTIMER
 70
     1
  9
$ANGBASE
 50
0.0
  9
$ANGDIR
 70
     0
  9
$PDMODE
 70
     0
  9
$PDSIZE
 40
0.0
  9
$PLINEWID
 40
0.0
  9
$SPLFRAME
 70
     0
  9
$SPLINETYPE
 70
     6
  9
$SPLINESEGS
 70
     8
  9
$HANDSEED
  5
546
  9
$SURFTAB1
 70
     6
  9
$SURFTAB2
 70
     6
  9
$SURFTYPE
 70
     6
  9
$SURFU
 70
     6
  9
$SURFV
 70
     6
  9
$UCSBASE
  2

  9
$UCSNAME
  2

  9
$UCSORG
 10
0.0
 20
0.0
 30
0.0
  9
$UCSXDIR
 10
1.0
 20
0.0
 30
0.0
  9
$UCSYDIR
 10
0.0
 20
1.0
 30
0.0
  9
$UCSORTHOREF
  2

  9
$UCSORTHOVIEW
 70
     0
  9
$UCSORGTOP
 10
0.0
 20
0.0
 30
0.0
  9
$UCSORGBOTTOM
 10
0.0
 20
0.0
 30
0.0
  9
$UCSORGLEFT
 10
0.0
 20
0.0
 30
0.0
  9
$UCSORGRIGHT
 10
0.0
 20
0.0
 30
0.0
  9
$UCSORGFRONT
 10
0.0
 20
0.0
 30
0.0
  9
$UCSORGBACK
 10
0.0
 20
0.0
 30
0.0
  9
$PUCSBASE
  2

  9
$PUCSNAME
  2

  9
$PUCSORG
 10
0.0
 20
0.0
 30
0.0
  9
$PUCSXDIR
 10
1.0
 20
0.0
 30
0.0
  9
$PUCSYDIR
 10
0.0
 20
1.0
 30
0.0
  9
$PUCSORTHOREF
  2

  9
$PUCSORTHOVIEW
 70
     0
  9
$PUCSORGTOP
 10
0.0
 20
0.0
 30
0.0
  9
$PUCSORGBOTTOM
 10
0.0
 20
0.0
 30
0.0
  9
$PUCSORGLEFT
 10
0.0
 20
0.0
 30
0.0
  9
$PUCSORGRIGHT
 10
0.0
 20
0.0
 30
0.0
  9
$PUCSORGFRONT
 10
0.0
 20
0.0
 30
0.0
  9
$PUCSORGBACK
 10
0.0
 20
0.0
 30
0.0
  9
$USERI1
 70
     0
  9
$USERI2
 70
     0
  9
$USERI3
 70
     0
  9
$USERI4
 70
     0
  9
$USERI5
 70
     0
  9
$USERR1
 40
0.0
  9
$USERR2
 40
0.0
  9
$USERR3
 40
0.0
  9
$USERR4
 40
0.0
  9
$USERR5
 40
0.0
  9
$WORLDVIEW
 70
     1
  9
$SHADEDGE
 70
     3
  9
$SHADEDIF
 70
    70
  9
$TILEMODE
 70
     1
  9
$MAXACTVP
 70
    16
  9
$PINSBASE
 10
0.0
 20
0.0
 30
0.0
  9
$PLIMCHECK
 70
     0
  9
$PEXTMIN
 10
1.000000E+20
 20
1.000000E+20
 30
1.000000E+20
  9
$PEXTMAX
 10
-1.000000E+20
 20
-1.000000E+20
 30
-1.000000E+20
  9
$PLIMMIN
 10
0.0
 20
0.0
  9
$PLIMMAX
 10
297.0
 20
210.0
  9
$UNITMODE
 70
     0
  9
$VISRETAIN
 70
     0
  9
$PLINEGEN
 70
     1
  9
$PSLTSCALE
 70
     0
  9
$TREEDEPTH
 70
  3020
  9
$CMLSTYLE
  2
Standard
  9
$CMLJUST
 70
     0
  9
$CMLSCALE
 40
1.0
  9
$PROXYGRAPHICS
 70
     0
  9
$MEASUREMENT
 70
     0
  9
$CELWEIGHT
370
     0
  9
$ENDCAPS
280
     0
  9
$JOINSTYLE
280
     0
  9
$LWDISPLAY
290
     0
  9
$INSUNITS
 70
     0
  9
$HYPERLINKBASE
  1

  9
$XEDIT
290
     1
  9
$CEPSNTYPE
380
     0
  9
$PSTYLEMODE
290
     0
  9
$FINGERPRINTGUID
  2

  9
$VERSIONGUID
  2

  9
$EXTNAMES
290
     1
  9
$PSVPSCALE
 40
0.0
  0
ENDSEC
  0
SECTION
  2
CLASSES
  0
CLASS
  1
LWPOLYLINE
  2
AcDbPolyline
  3
"AutoCAD"
 90
        0
280
     0
281
     1
  0
CLASS
  1
IMAGE
  2
AcDbRasterImage
  3
ISM
 90
      127
280
     0
281
     1
  0
CLASS
  1
OLE2FRAME
  2
AcDbOle2Frame
  3
""
 90
        0
280
     0
281
     1
  0
CLASS
  1
HATCH
  2
AcDbHatch
  3
"ACAD_SEDONA"
 90
        0
280
     0
281
     1
  0
CLASS
  1
DICTIONARYVAR
  2
AcDbDictionaryVar
  3
"AutoCAD"
 90
        0
280
     0
281
     0
  0
CLASS
  1
RASTERVARIABLES
  2
AcDbRasterVariables
  3
ISM
 90
        0
280
     0
281
     0
  0
CLASS
  1
IMAGEDEF
  2
AcDbRasterImageDef
  3
ISM
 90
        0
280
     0
281
     0
  0
CLASS
  1
IMAGEDEF_REACTOR
  2
AcDbRasterImageDefReactor
  3
ISM
 90
        1
280
     0
281
     0
  0
CLASS
  1
IDBUFFER
  2
AcDbIdBuffer
  3
"Acad"
 90
        0
280
     0
281
     0
  0
CLASS
  1
SPATIAL_FILTER
  2
AcDbSpatialFilter
  3
"Acad"
 90
        0
280
     0
281
     0
  0
CLASS
  1
XRECORD
  2
AcDbXrecord
  3
"<Built In>"
 90
        0
280
     0
281
     0
  0
CLASS
  1
SORTENTSTABLE
  2
AcDbSortentsTable
  3
"AutoCAD"
 90
        0
280
     0
281
     0
  0
CLASS
  1
LAYER_INDEX
  2
AcDbLayerIndex
  3
"Acad"
 90
        0
280
     0
281
     0
  0
CLASS
  1
SPATIAL_INDEX
  2
AcDbSpatialIndex
  3
"Acad"
 90
        0
280
     0
281
     0
  0
CLASS
  1
OBJECT_PTR
  2
CAseDLPNTableRecord
  3
"ASE-LPNTableRecord"
 90
        1
280
     0
281
     0
  0
CLASS
  1
LAYOUT
  2
AcDbLayout
  3
"AutoCAD 2000"
 90
        1
280
     0
281
     0
  0
CLASS
  1
PLOTSETTINGS
  2
AcDbPlotSettings
  3
"AutoCAD 2000"
 90
        1
280
     0
281
     0
  0
CLASS
  1
ACDBDICTIONARYWDFLT
  2
AcDbDictionaryWithDefault
  3
"AutoCAD 2000"
 90
        1
280
     0
281
     0
  0
CLASS
  1
ACDBPLACEHOLDER
  2
AcDbPlaceHolder
  3
"AutoCAD 2000"
 90
        1
280
     0
281
     0
  0
CLASS
  1
VBA_PROJECT
  2
AcDbVbaProject
  3
"acadvba"
 90
        1
280
     0
281
     0
  0
CLASS
  1
WIPEOUT
  2
AcDbWipeout
  3
WipeOut|AutoCAD Express Tool|expresstools@autodesk.com
 90
      127
280
     0
281
     1
  0
CLASS
  1
WIPEOUTVARIABLES
  2
AcDbWipeoutVariables
  3
WipeOut|AutoCAD Express Tool|expresstools@autodesk.com
 90
        0
280
     0
281
     0
  0
CLASS
  1
RTEXT
  2
RText
  3
RText|AutoCAD Express Tool|expresstools@autodesk.com
 90
        0
280
     0
281
     1
  0
CLASS
  1
ARCALIGNEDTEXT
  2
AcDbArcAlignedText
  3
ATEXT|AutoCAD Express Tool|expresstools@autodesk.com
 90
        0
280
     0
281
     1
  0
ENDSEC
  0
SECTION
  2
TABLES
  0
TABLE
  2
VPORT
  5
7
100
AcDbSymbolTable
 70
     1
  0
VPORT
  5
15
100
AcDbSymbolTableRecord
100
AcDbViewportTableRecord
  2
*ACTIVE
 70
     0
 10
0.0
 20
0.0
 11
1.0
 21
1.0
 12
6.591288
 22
4.579184
 13
0.0
 23
0.0
 14
1.0
 24
1.0
 15
0.0
 25
0.0
 16
0.0
 26
0.0
 36
1.0
 17
0.0
 27
0.0
 37
0.0
 40
9.158369
 41
0.688564
 42
50.0
 43
0.0
 44
0.0
 50
0.0
 51
0.0
 71
     0
 72
   100
 73
     1
 74
     1
 75
     0
 76
     0
 77
     0
 78
     0
281
     0
 65
     0
110
0.0
120
0.0
130
0.0
111
1.0
121
0.0
131
0.0
112
0.0
122
1.0
132
0.0
345
0
346
0
 79
     0
146
0.0
  0
ENDTAB
  0
TABLE
  2
LTYPE
  5
4
100
AcDbSymbolTable
 70
     7
  0
LTYPE
  5
11
100
AcDbSymbolTableRecord
100
AcDbLinetypeTableRecord
  2
ByBlock
 70
    64
  3

 72
    65
 73
     0
 40
0.0
  0
LTYPE
  5
12
100
AcDbSymbolTableRecord
100
AcDbLinetypeTableRecord
  2
ByLayer
 70
    64
  3

 72
    65
 73
     0
 40
0.0
  0
LTYPE
  5
13
100
AcDbSymbolTableRecord
100
AcDbLinetypeTableRecord
  2
Continuous
 70
    64
  3
Solid line
 72
    65
 73
     0
 40
0.0
  0
LTYPE
  5
24
100
AcDbSymbolTableRecord
100
AcDbLinetypeTableRecord
  2
HIDDEN
 70
    64
  3
_ _ _ _ _ _ _ _ _ _ _ _ _ _ _ _ _ _ _ _ _ _ _ _
 72
    65
 73
     2
 40
0.1875
 49
0.125
 74
     0
 49
-0.0625
 74
     0
  0
LTYPE
  5
25
100
AcDbSymbolTableRecord
100
AcDbLinetypeTableRecord
  2
DOTTED
 70
    64
  3
...............................................
 72
    65
 73
     2
 40
0.125
 49
0.0
 74
     0
 49
-0.125
 74
     0
  0
LTYPE
  5
26
100
AcDbSymbolTableRecord
100
AcDbLinetypeTableRecord
  2
CENTER
 70
    64
  3
____ _ ____ _ ____ _ ____ _ ____ _ ____ _ ____ 
 72
    65
 73
     4
 40
1.125
 49
0.75
 74
     0
 49
-0.125
 74
     0
 49
0.125
 74
     0
 49
-0.125
 74
     0
  0
LTYPE
  5
27
100
AcDbSymbolTableRecord
100
AcDbLinetypeTableRecord
  2
PHANTOM
 70
    64
  3
______  __  __  ______  __  __  ______  __  __ 
 72
    65
 73
     6
 40
1.25
 49
0.625
 74
     0
 49
-0.125
 74
     0
 49
0.125
 74
     0
 49
-0.125
 74
     0
 49
0.125
 74
     0
 49
-0.125
 74
     0
  0
ENDTAB
  0
TABLE
  2
LAYER
  5
2
100
AcDbSymbolTable
 70
     2
  0
LAYER
  5
14
100
AcDbSymbolTableRecord
100
AcDbLayerTableRecord
  2
0
 70
     0
 62
     7
  6
Continuous
290
     1
370
    -3
390
1D
  0
LAYER
  5
28
100
AcDbSymbolTableRecord
100
AcDbLayerTableRecord
  2
TEXT
 70
     0
 62
     8
  6
Continuous
290
     1
370
    -3
390
1F
  0
ENDTAB
  0
TABLE
  2
STYLE
  5
3
100
AcDbSymbolTable
 70
     1
  0
STYLE
  5
17
100
AcDbSymbolTableRecord
100
AcDbTextStyleTableRecord
  2
Standard
 70
     0
 40
0.0
 41
1.0
 50
0.0
 71
     0
 42
0.0
  3
txt
  4

  0
ENDTAB
  0
TABLE
  2
VIEW
  5
5
100
AcDbSymbolTable
 70
     0
  0
ENDTAB
  0
TABLE
  2
UCS
  5
6
100
AcDbSymbolTable
 70
     0
  0
ENDTAB
  0
TABLE
  2
APPID
  5
8
100
AcDbSymbolTable
 70
     1
  0
APPID
  5
16
100
AcDbSymbolTableRecord
100
AcDbRegAppTableRecord
  2
ACAD
 70
     0
  0
ENDTAB
  0
TABLE
  2
DIMSTYLE
  5
9
100
AcDbSymbolTable
 70
     1
100
AcDbDimStyleTable
 71
     0
  0
DIMSTYLE
105
18
100
AcDbSymbolTableRecord
100
AcDbDimStyleTableRecord
  2
Standard
 70
     0
  3

  4

 40
1.0
 41
0.18
 42
0.0625
 43
0.38
 44
0.18
 45
0.0
 46
0.0
 47
0.0
 48
0.0
 71
     0
 72
     0
 73
     1
 74
     1
 75
     0
 76
     0
 77
     0
 78
     0
 79
     0
140
0.18
141
0.09
142
0.0
143
25.4
144
1.0
145
0.0
146
1.0
147
0.09
148
0.0
170
     0
171
     2
172
     0
173
     0
174
     0
175
     0
176
     0
177
     0
178
     0
179
     0
271
     4
272
     4
273
     2
274
     2
275
     0
276
     0
277
     2
278
    46
279
     0
280
     0
281
     0
282
     0
283
     1
284
     0
285
     0
286
     0
288
     0
340
17
341
0
342
0
343
0
344
0
371
    -2
372
    -2
  0
ENDTAB
  0
TABLE
  2
BLOCK_RECORD
  5
1
100
AcDbSymbolTable
 70
   105
  0
BLOCK_RECORD
  5
A
100
AcDbSymbolTableRecord
100
AcDbBlockTableRecord
  2
*MODEL_SPACE
340
20
  0
BLOCK_RECORD
  5
B
100
AcDbSymbolTableRecord
100
AcDbBlockTableRecord
  2
*PAPER_SPACE
340
21
  0
BLOCK_RECORD
  5
29
100
AcDbSymbolTableRecord
100
AcDbBlockTableRecord
  2
*B0
340
0
  0
BLOCK_RECORD
  5
2C
100
AcDbSymbolTableRecord
100
AcDbBlockTableRecord
  2
*B1
340
0
  0
BLOCK_RECORD
  5
17B
100
AcDbSymbolTableRecord
100
AcDbBlockTableRecord
  2
*B2
340
0
  0
BLOCK_RECORD
  5
224
100
AcDbSymbolTableRecord
100
AcDbBlockTableRecord
  2
*B3
340
0
  0
BLOCK_RECORD
  5
22A
100
AcDbSymbolTableRecord
100
AcDbBlockTableRecord
  2
*B4
340
0
  0
BLOCK_RECORD
  5
235
100
AcDbSymbolTableRecord
100
AcDbBlockTableRecord
  2
*B5
340
0
  0
BLOCK_RECORD
  5
238
100
AcDbSymbolTableRecord
100
AcDbBlockTableRecord
  2
*B6
340
0
  0
BLOCK_RECORD
  5
23F
100
AcDbSymbolTableRecord
100
AcDbBlockTableRecord
  2
*B7
340
0
  0
BLOCK_RECORD
  5
246
100
AcDbSymbolTableRecord
100
AcDbBlockTableRecord
  2
*B8
340
0
  0
BLOCK_RECORD
  5
24D
100
AcDbSymbolTableRecord
100
AcDbBlockTableRecord
  2
*B9
340
0
  0
BLOCK_RECORD
  5
254
100
AcDbSymbolTableRecord
100
AcDbBlockTableRecord
  2
*B10
340
0
  0
BLOCK_RECORD
  5
25B
100
AcDbSymbolTableRecord
100
AcDbBlockTableRecord
  2
*B11
340
0
  0
BLOCK_RECORD
  5
262
100
AcDbSymbolTableRecord
100
AcDbBlockTableRecord
  2
*B12
340
0
  0
BLOCK_RECORD
  5
269
100
AcDbSymbolTableRecord
100
AcDbBlockTableRecord
  2
*B13
340
0
  0
BLOCK_RECORD
  5
270
100
AcDbSymbolTableRecord
100
AcDbBlockTableRecord
  2
*B14
340
0
  0
BLOCK_RECORD
  5
277
100
AcDbSymbolTableRecord
100
AcDbBlockTableRecord
  2
*B15
340
0
  0
BLOCK_RECORD
  5
27E
100
AcDbSymbolTableRecord
100
AcDbBlockTableRecord
  2
*B16
340
0
  0
BLOCK_RECORD
  5
285
100
AcDbSymbolTableRecord
100
AcDbBlockTableRecord
  2
*B17
340
0
  0
BLOCK_RECORD
  5
28C
100
AcDbSymbolTableRecord
100
AcDbBlockTableRecord
  2
*B18
340
0
  0
BLOCK_RECORD
  5
293
100
AcDbSymbolTableRecord
100
AcDbBlockTableRecord
  2
*B19
340
0
  0
BLOCK_RECORD
  5
29A
100
AcDbSymbolTableRecord
100
AcDbBlockTableRecord
  2
*B20
340
0
  0
BLOCK_RECORD
  5
2A1
100
AcDbSymbolTableRecord
100
AcDbBlockTableRecord
  2
*B21
340
0
  0
BLOCK_RECORD
  5
2A8
100
AcDbSymbolTableRecord
100
AcDbBlockTableRecord
  2
*B22
340
0
  0
BLOCK_RECORD
  5
2AF
100
AcDbSymbolTableRecord
100
AcDbBlockTableRecord
  2
*B23
340
0
  0
BLOCK_RECORD
  5
2B6
100
AcDbSymbolTableRecord
100
AcDbBlockTableRecord
  2
*B24
340
0
  0
BLOCK_RECORD
  5
2BD
100
AcDbSymbolTableRecord
100
AcDbBlockTableRecord
  2
*B25
340
0
  0
BLOCK_RECORD
  5
2C4
100
AcDbSymbolTableRecord
100
AcDbBlockTableRecord
  2
*B26
340
0
  0
BLOCK_RECORD
  5
2C9
100
AcDbSymbolTableRecord
100
AcDbBlockTableRecord
  2
*B27
340
0
  0
BLOCK_RECORD
  5
2D6
100
AcDbSymbolTableRecord
100
AcDbBlockTableRecord
  2
*B28
340
0
  0
BLOCK_RECORD
  5
2DD
100
AcDbSymbolTableRecord
100
AcDbBlockTableRecord
  2
*B29
340
0
  0
BLOCK_RECORD
  5
2E2
100
AcDbSymbolTableRecord
100
AcDbBlockTableRecord
  2
*B30
340
0
  0
BLOCK_RECORD
  5
2E8
100
AcDbSymbolTableRecord
100
AcDbBlockTableRecord
  2
*B31
340
0
  0
BLOCK_RECORD
  5
2F3
100
AcDbSymbolTableRecord
100
AcDbBlockTableRecord
  2
*B32
340
0
  0
BLOCK_RECORD
  5
2F9
100
AcDbSymbolTableRecord
100
AcDbBlockTableRecord
  2
*B33
340
0
  0
BLOCK_RECORD
  5
2FF
100
AcDbSymbolTableRecord
100
AcDbBlockTableRecord
  2
*B34
340
0
  0
BLOCK_RECORD
  5
310
100
AcDbSymbolTableRecord
100
AcDbBlockTableRecord
  2
*B35
340
0
  0
BLOCK_RECORD
  5
331
100
AcDbSymbolTableRecord
100
AcDbBlockTableRecord
  2
*B36
340
0
  0
BLOCK_RECORD
  5
360
100
AcDbSymbolTableRecord
100
AcDbBlockTableRecord
  2
*B37
340
0
  0
BLOCK_RECORD
  5
37A
100
AcDbSymbolTableRecord
100
AcDbBlockTableRecord
  2
*B38
340
0
  0
BLOCK_RECORD
  5
37F
100
AcDbSymbolTableRecord
100
AcDbBlockTableRecord
  2
*B39
340
0
  0
BLOCK_RECORD
  5
385
100
AcDbSymbolTableRecord
100
AcDbBlockTableRecord
  2
*B40
340
0
  0
BLOCK_RECORD
  5
390
100
AcDbSymbolTableRecord
100
AcDbBlockTableRecord
  2
*B41
340
0
  0
BLOCK_RECORD
  5
3AA
100
AcDbSymbolTableRecord
100
AcDbBlockTableRecord
  2
*B42
340
0
  0
BLOCK_RECORD
  5
3B0
100
AcDbSymbolTableRecord
100
AcDbBlockTableRecord
  2
*B43
340
0
  0
BLOCK_RECORD
  5
3B5
100
AcDbSymbolTableRecord
100
AcDbBlockTableRecord
  2
*B44
340
0
  0
BLOCK_RECORD
  5
3BA
100
AcDbSymbolTableRecord
100
AcDbBlockTableRecord
  2
*B45
340
0
  0
BLOCK_RECORD
  5
3C1
100
AcDbSymbolTableRecord
100
AcDbBlockTableRecord
  2
*B46
340
0
  0
BLOCK_RECORD
  5
3C6
100
AcDbSymbolTableRecord
100
AcDbBlockTableRecord
  2
*B47
340
0
  0
BLOCK_RECORD
  5
3CB
100
AcDbSymbolTableRecord
100
AcDbBlockTableRecord
  2
*B48
340
0
  0
BLOCK_RECORD
  5
3D8
100
AcDbSymbolTableRecord
100
AcDbBlockTableRecord
  2
*B49
340
0
  0
BLOCK_RECORD
  5
3DD
100
AcDbSymbolTableRecord
100
AcDbBlockTableRecord
  2
*B50
340
0
  0
BLOCK_RECORD
  5
3E2
100
AcDbSymbolTableRecord
100
AcDbBlockTableRecord
  2
*B51
340
0
  0
BLOCK_RECORD
  5
3E7
100
AcDbSymbolTableRecord
100
AcDbBlockTableRecord
  2
*B52
340
0
  0
BLOCK_RECORD
  5
3F3
100
AcDbSymbolTableRecord
100
AcDbBlockTableRecord
  2
*B53
340
0
  0
BLOCK_RECORD
  5
3F8
100
AcDbSymbolTableRecord
100
AcDbBlockTableRecord
  2
*B54
340
0
  0
BLOCK_RECORD
  5
3FD
100
AcDbSymbolTableRecord
100
AcDbBlockTableRecord
  2
*B55
340
0
  0
BLOCK_RECORD
  5
402
100
AcDbSymbolTableRecord
100
AcDbBlockTableRecord
  2
*B56
340
0
  0
BLOCK_RECORD
  5
408
100
AcDbSymbolTableRecord
100
AcDbBlockTableRecord
  2
*B57
340
0
  0
BLOCK_RECORD
  5
41B
100
AcDbSymbolTableRecord
100
AcDbBlockTableRecord
  2
*B58
340
0
  0
BLOCK_RECORD
  5
42E
100
AcDbSymbolTableRecord
100
AcDbBlockTableRecord
  2
*B59
340
0
  0
BLOCK_RECORD
  5
458
100
AcDbSymbolTableRecord
100
AcDbBlockTableRecord
  2
*B60
340
0
  0
BLOCK_RECORD
  5
45D
100
AcDbSymbolTableRecord
100
AcDbBlockTableRecord
  2
*B61
340
0
  0
BLOCK_RECORD
  5
463
100
AcDbSymbolTableRecord
100
AcDbBlockTableRecord
  2
*B62
340
0
  0
BLOCK_RECORD
  5
468
100
AcDbSymbolTableRecord
100
AcDbBlockTableRecord
  2
*B63
340
0
  0
BLOCK_RECORD
  5
46D
100
AcDbSymbolTableRecord
100
AcDbBlockTableRecord
  2
*B64
340
0
  0
BLOCK_RECORD
  5
474
100
AcDbSymbolTableRecord
100
AcDbBlockTableRecord
  2
*B65
340
0
  0
BLOCK_RECORD
  5
479
100
AcDbSymbolTableRecord
100
AcDbBlockTableRecord
  2
*B66
340
0
  0
BLOCK_RECORD
  5
47F
100
AcDbSymbolTableRecord
100
AcDbBlockTableRecord
  2
*B67
340
0
  0
BLOCK_RECORD
  5
485
100
AcDbSymbolTableRecord
100
AcDbBlockTableRecord
  2
*B68
340
0
  0
BLOCK_RECORD
  5
48B
100
AcDbSymbolTableRecord
100
AcDbBlockTableRecord
  2
*B69
340
0
  0
BLOCK_RECORD
  5
491
100
AcDbSymbolTableRecord
100
AcDbBlockTableRecord
  2
*B70
340
0
  0
BLOCK_RECORD
  5
497
100
AcDbSymbolTableRecord
100
AcDbBlockTableRecord
  2
*B71
340
0
  0
BLOCK_RECORD
  5
49D
100
AcDbSymbolTableRecord
100
AcDbBlockTableRecord
  2
*B72
340
0
  0
BLOCK_RECORD
  5
4A3
100
AcDbSymbolTableRecord
100
AcDbBlockTableRecord
  2
*B73
340
0
  0
BLOCK_RECORD
  5
4A9
100
AcDbSymbolTableRecord
100
AcDbBlockTableRecord
  2
*B74
340
0
  0
BLOCK_RECORD
  5
4AF
100
AcDbSymbolTableRecord
100
AcDbBlockTableRecord
  2
*B75
340
0
  0
BLOCK_RECORD
  5
4B5
100
AcDbSymbolTableRecord
100
AcDbBlockTableRecord
  2
*B76
340
0
  0
BLOCK_RECORD
  5
4BA
100
AcDbSymbolTableRecord
100
AcDbBlockTableRecord
  2
*B77
340
0
  0
BLOCK_RECORD
  5
4BF
100
AcDbSymbolTableRecord
100
AcDbBlockTableRecord
  2
*B78
340
0
  0
BLOCK_RECORD
  5
4C4
100
AcDbSymbolTableRecord
100
AcDbBlockTableRecord
  2
*B79
340
0
  0
BLOCK_RECORD
  5
4C9
100
AcDbSymbolTableRecord
100
AcDbBlockTableRecord
  2
*B80
340
0
  0
BLOCK_RECORD
  5
4CE
100
AcDbSymbolTableRecord
100
AcDbBlockTableRecord
  2
*B81
340
0
  0
BLOCK_RECORD
  5
4D3
100
AcDbSymbolTableRecord
100
AcDbBlockTableRecord
  2
*B82
340
0
  0
BLOCK_RECORD
  5
4D8
100
AcDbSymbolTableRecord
100
AcDbBlockTableRecord
  2
*B83
340
0
  0
BLOCK_RECORD
  5
4DD
100
AcDbSymbolTableRecord
100
AcDbBlockTableRecord
  2
*B84
340
0
  0
BLOCK_RECORD
  5
4E2
100
AcDbSymbolTableRecord
100
AcDbBlockTableRecord
  2
*B85
340
0
  0
BLOCK_RECORD
  5
4E7
100
AcDbSymbolTableRecord
100
AcDbBlockTableRecord
  2
*B86
340
0
  0
BLOCK_RECORD
  5
4EC
100
AcDbSymbolTableRecord
100
AcDbBlockTableRecord
  2
*B87
340
0
  0
BLOCK_RECORD
  5
4F1
100
AcDbSymbolTableRecord
100
AcDbBlockTableRecord
  2
*B88
340
0
  0
BLOCK_RECORD
  5
4F6
100
AcDbSymbolTableRecord
100
AcDbBlockTableRecord
  2
*B89
340
0
  0
BLOCK_RECORD
  5
4FB
100
AcDbSymbolTableRecord
100
AcDbBlockTableRecord
  2
*B90
340
0
  0
BLOCK_RECORD
  5
500
100
AcDbSymbolTableRecord
100
AcDbBlockTableRecord
  2
*B91
340
0
  0
BLOCK_RECORD
  5
505
100
AcDbSymbolTableRecord
100
AcDbBlockTableRecord
  2
*B92
340
0
  0
BLOCK_RECORD
  5
50A
100
AcDbSymbolTableRecord
100
AcDbBlockTableRecord
  2
*B93
340
0
  0
BLOCK_RECORD
  5
50F
100
AcDbSymbolTableRecord
100
AcDbBlockTableRecord
  2
*B94
340
0
  0
BLOCK_RECORD
  5
514
100
AcDbSymbolTableRecord
100
AcDbBlockTableRecord
  2
*B95
340
0
  0
BLOCK_RECORD
  5
519
100
AcDbSymbolTableRecord
100
AcDbBlockTableRecord
  2
*B96
340
0
  0
BLOCK_RECORD
  5
51E
100
AcDbSymbolTableRecord
100
AcDbBlockTableRecord
  2
*B97
340
0
  0
BLOCK_RECORD
  5
523
100
AcDbSymbolTableRecord
100
AcDbBlockTableRecord
  2
*B98
340
0
  0
BLOCK_RECORD
  5
528
100
AcDbSymbolTableRecord
100
AcDbBlockTableRecord
  2
*B99
340
0
  0
BLOCK_RECORD
  5
52D
100
AcDbSymbolTableRecord
100
AcDbBlockTableRecord
  2
*B100
340
0
  0
BLOCK_RECORD
  5
532
100
AcDbSymbolTableRecord
100
AcDbBlockTableRecord
  2
*B101
340
0
  0
BLOCK_RECORD
  5
537
100
AcDbSymbolTableRecord
100
AcDbBlockTableRecord
  2
*B102
340
0
  0
BLOCK_RECORD
  5
53C
100
AcDbSymbolTableRecord
100
AcDbBlockTableRecord
  2
*B103
340
0
  0
BLOCK_RECORD
  5
541
100
AcDbSymbolTableRecord
100
AcDbBlockTableRecord
  2
*B104
340
0
  0
ENDTAB
  0
ENDSEC
  0
SECTION
  2
BLOCKS
  0
BLOCK
  5
D
100
AcDbEntity
  8
0
100
AcDbBlockBegin
  2
*MODEL_SPACE
 70
     0
 10
0.0
 20
0.0
 30
0.0
  3
*MODEL_SPACE
  1

  0
ENDBLK
  5
E
100
AcDbEntity
  8
0
100
AcDbBlockEnd
  0
BLOCK
  5
F
100
AcDbEntity
 67
     1
  8
0
100
AcDbBlockBegin
  2
*PAPER_SPACE
 70
     0
 10
0.0
 20
0.0
 30
0.0
  3
*PAPER_SPACE
  1

  0
ENDBLK
  5
10
100
AcDbEntity
 67
     1
  8
0
100
AcDbBlockEnd
  0
BLOCK
  5
2A
100
AcDbEntity
  8
0
100
AcDbBlockBegin
  2
*B0
 70
     0
 10
0.0
 20
0.0
 30
0.0
  3
*B0
  1

  0
ENDBLK
  5
2B
100
AcDbEntity
  8
0
100
AcDbBlockEnd
  0
BLOCK
  5
2D
100
AcDbEntity
  8
0
100
AcDbBlockBegin
  2
*B1
 70
     0
 10
0.0
 20
0.0
 30
0.0
  3
*B1
  1

  0
LINE
  5
2E
100
AcDbEntity
  8
0
  6
HIDDEN
 62
   174
100
AcDbLine
 10
69.46489
 20
180.909314
 30
0.0
 11
69.46489
 21
180.959314
 31
0.0
  0
LINE
  5
2F
100
AcDbEntity
  8
0
  6
HIDDEN
 62
   174
100
AcDbLine
 10
62.66489
 20
180.909314
 30
0.0
 11
62.66489
 21
180.959314
 31
0.0
  0
LINE
  5
30
100
AcDbEntity
  8
0
  6
HIDDEN
 62
   174
100
AcDbLine
 10
63.06489
 20
180.909314
 30
0.0
 11
63.06489
 21
180.959314
 31
0.0
  0
LINE
  5
31
100
AcDbEntity
  8
0
  6
HIDDEN
 62
   174
100
AcDbLine
 10
69.06489
 20
180.909314
 30
0.0
 11
69.06489
 21
180.959314
 31
0.0
  0
LINE
  5
32
100
AcDbEntity
  8
0
  6
HIDDEN
 62
   174
100
AcDbLine
 10
64.087707
 20
180.959314
 30
0.0
 11
64.087707
 21
180.909314
 31
0.0
  0
LINE
  5
33
100
AcDbEntity
  8
0
  6
HIDDEN
 62
   174
100
AcDbLine
 10
68.321158
 20
180.959314
 30
0.0
 11
68.321158
 21
180.909314
 31
0.0
  0
LINE
  5
34
100
AcDbEntity
  8
0
  6
HIDDEN
 62
   174
100
AcDbLine
 10
63.678043
 20
180.959314
 30
0.0
 11
63.678043
 21
180.909314
 31
0.0
  0
LINE
  5
35
100
AcDbEntity
  8
0
  6
HIDDEN
 62
   174
100
AcDbLine
 10
67.882295
 20
180.959314
 30
0.0
 11
67.882295
 21
180.909314
 31
0.0
  0
LINE
  5
36
100
AcDbEntity
  8
0
  6
HIDDEN
 62
   174
100
AcDbLine
 10
69.482979
 20
180.959314
 30
0.0
 11
69.097416
 21
180.959314
 31
0.0
  0
LINE
  5
37
100
AcDbEntity
  8
0
  6
HIDDEN
 62
   174
100
AcDbLine
 10
63.069051
 20
180.959314
 30
0.0
 11
62.683064
 21
180.959314
 31
0.0
  0
LINE
  5
38
100
AcDbEntity
  8
0
  6
HIDDEN
 62
   174
100
AcDbLine
 10
63.138516
 20
180.959314
 30
0.0
 11
63.069051
 21
180.959314
 31
0.0
  0
LINE
  5
39
100
AcDbEntity
  8
0
  6
HIDDEN
 62
   174
100
AcDbLine
 10
64.089357
 20
180.959314
 30
0.0
 11
63.138516
 21
180.959314
 31
0.0
  0
LINE
  5
3A
100
AcDbEntity
  8
0
  6
HIDDEN
 62
   174
100
AcDbLine
 10
66.083021
 20
180.959314
 30
0.0
 11
64.089357
 21
180.959314
 31
0.0
  0
LINE
  5
3B
100
AcDbEntity
  8
0
  6
HIDDEN
 62
   174
100
AcDbLine
 10
68.487315
 20
180.959314
 30
0.0
 11
68.351784
 21
180.959314
 31
0.0
  0
LINE
  5
3C
100
AcDbEntity
  8
0
  6
HIDDEN
 62
   174
100
AcDbLine
 10
67.882295
 20
180.959314
 30
0.0
 11
66.06489
 21
180.959314
 31
0.0
  0
LINE
  5
3D
100
AcDbEntity
  8
0
  6
HIDDEN
 62
   174
100
AcDbLine
 10
143.603112
 20
118.959314
 30
0.0
 11
164.563037
 21
118.959314
 31
0.0
  0
LINE
  5
3E
100
AcDbEntity
  8
0
  6
HIDDEN
 62
   174
100
AcDbLine
 10
144.66489
 20
104.959314
 30
0.0
 11
144.66489
 21
119.959314
 31
0.0
  0
LINE
  5
3F
100
AcDbEntity
  8
0
  6
HIDDEN
 62
   174
100
AcDbLine
 10
111.602938
 20
104.959314
 30
0.0
 11
132.563076
 21
104.959314
 31
0.0
  0
LINE
  5
40
100
AcDbEntity
  8
0
  6
HIDDEN
 62
   174
100
AcDbLine
 10
131.46489
 20
104.959314
 30
0.0
 11
131.46489
 21
119.959314
 31
0.0
  0
LINE
  5
41
100
AcDbEntity
  8
0
  6
HIDDEN
 62
   174
100
AcDbLine
 10
112.66489
 20
118.959314
 30
0.0
 11
112.66489
 21
104.959314
 31
0.0
  0
LINE
  5
42
100
AcDbEntity
  8
0
  6
HIDDEN
 62
   174
100
AcDbLine
 10
131.483077
 20
104.959314
 30
0.0
 11
112.682937
 21
104.959314
 31
0.0
  0
LINE
  5
43
100
AcDbEntity
  8
0
  6
HIDDEN
 62
   174
100
AcDbLine
 10
51.06489
 20
134.969918
 30
0.0
 11
51.06489
 21
144.969256
 31
0.0
  0
LINE
  5
44
100
AcDbEntity
  8
0
  6
HIDDEN
 62
   174
100
AcDbLine
 10
39.56489
 20
166.468118
 30
0.0
 11
39.56489
 21
172.967656
 31
0.0
  0
LINE
  5
45
100
AcDbEntity
  8
0
  6
HIDDEN
 62
   174
100
AcDbLine
 10
195.983063
 20
116.959314
 30
0.0
 11
200.183035
 21
116.959314
 31
0.0
  0
LINE
  5
46
100
AcDbEntity
  8
0
  6
HIDDEN
 62
   174
100
AcDbLine
 10
67.783106
 20
180.959314
 30
0.0
 11
66.083021
 21
180.959314
 31
0.0
  0
LINE
  5
47
100
AcDbEntity
  8
0
  6
HIDDEN
 62
   174
100
AcDbLine
 10
67.909503
 20
180.959314
 30
0.0
 11
67.783106
 21
180.959314
 31
0.0
  0
LINE
  5
48
100
AcDbEntity
  8
0
  6
HIDDEN
 62
   174
100
AcDbLine
 10
64.092118
 20
180.959314
 30
0.0
 11
63.083071
 21
180.959314
 31
0.0
  0
LINE
  5
49
100
AcDbEntity
  8
0
  6
HIDDEN
 62
   174
100
AcDbLine
 10
112.682937
 20
119.959314
 30
0.0
 11
131.483077
 21
119.959314
 31
0.0
  0
LINE
  5
4A
100
AcDbEntity
  8
0
  6
HIDDEN
 62
   174
100
AcDbLine
 10
144.66489
 20
118.959314
 30
0.0
 11
144.66489
 21
104.959314
 31
0.0
  0
LINE
  5
4B
100
AcDbEntity
  8
0
  6
HIDDEN
 62
   174
100
AcDbLine
 10
143.58489
 20
118.959314
 30
0.0
 11
143.58489
 21
104.959314
 31
0.0
  0
LINE
  5
4C
100
AcDbEntity
  8
0
  6
HIDDEN
 62
   174
100
AcDbLine
 10
176.66489
 20
118.959314
 30
0.0
 11
176.66489
 21
104.959314
 31
0.0
  0
LINE
  5
4D
100
AcDbEntity
  8
0
  6
HIDDEN
 62
   174
100
AcDbLine
 10
175.58489
 20
118.959314
 30
0.0
 11
175.58489
 21
104.959314
 31
0.0
  0
LINE
  5
4E
100
AcDbEntity
  8
0
  6
HIDDEN
 62
   174
100
AcDbLine
 10
195.46489
 20
118.959314
 30
0.0
 11
195.46489
 21
104.959314
 31
0.0
  0
LINE
  5
4F
100
AcDbEntity
  8
0
  6
Continuous
 62
   174
100
AcDbLine
 10
97.06489
 20
164.959314
 30
0.0
 11
97.06489
 21
104.959314
 31
0.0
  0
LINE
  5
50
100
AcDbEntity
  8
0
  6
HIDDEN
 62
   174
100
AcDbLine
 10
195.983063
 20
116.959314
 30
0.0
 11
200.183035
 21
116.959314
 31
0.0
  0
LINE
  5
51
100
AcDbEntity
  8
0
  6
HIDDEN
 62
   174
100
AcDbLine
 10
66.083021
 20
180.959314
 30
0.0
 11
64.255903
 21
180.959314
 31
0.0
  0
LINE
  5
52
100
AcDbEntity
  8
0
  6
HIDDEN
 62
   174
100
AcDbLine
 10
69.082971
 20
180.959314
 30
0.0
 11
68.33925
 21
180.959314
 31
0.0
  0
LINE
  5
53
100
AcDbEntity
  8
0
  6
Continuous
 62
   174
100
AcDbLine
 10
39.56489
 20
166.459314
 30
0.0
 11
36.56489
 21
166.459314
 31
0.0
  0
LINE
  5
54
100
AcDbEntity
  8
0
  6
HIDDEN
 62
   174
100
AcDbLine
 10
164.54489
 20
118.959314
 30
0.0
 11
164.54489
 21
104.959314
 31
0.0
  0
LINE
  5
55
100
AcDbEntity
  8
0
  6
HIDDEN
 62
   174
100
AcDbLine
 10
163.46489
 20
118.959314
 30
0.0
 11
163.46489
 21
104.959314
 31
0.0
  0
LINE
  5
56
100
AcDbEntity
  8
0
  6
HIDDEN
 62
   174
100
AcDbLine
 10
196.54489
 20
118.959314
 30
0.0
 11
196.54489
 21
104.959314
 31
0.0
  0
LINE
  5
57
100
AcDbEntity
  8
0
  6
Continuous
 62
   174
100
AcDbLine
 10
32.06489
 20
180.759314
 30
0.0
 11
32.732166
 21
181.915071
 31
0.0
  0
LINE
  5
58
100
AcDbEntity
  8
0
  6
HIDDEN
 62
   174
100
AcDbLine
 10
112.66489
 20
118.959314
 30
0.0
 11
112.66489
 21
104.959314
 31
0.0
  0
LINE
  5
59
100
AcDbEntity
  8
0
  6
Continuous
 62
   174
100
AcDbLine
 10
97.06489
 20
104.959314
 30
0.0
 11
81.06489
 21
104.959314
 31
0.0
  0
LINE
  5
5A
100
AcDbEntity
  8
0
  6
HIDDEN
 62
   174
100
AcDbLine
 10
51.06489
 20
124.970369
 30
0.0
 11
51.06489
 21
134.969918
 31
0.0
  0
LINE
  5
5B
100
AcDbEntity
  8
0
  6
HIDDEN
 62
   174
100
AcDbLine
 10
200.16489
 20
116.959314
 30
0.0
 11
198.06489
 21
118.17175
 31
0.0
  0
LINE
  5
5C
100
AcDbEntity
  8
0
  6
HIDDEN
 62
   174
100
AcDbLine
 10
36.56489
 20
172.967656
 30
0.0
 11
36.56489
 21
166.468118
 31
0.0
  0
LINE
  5
5D
100
AcDbEntity
  8
0
  6
HIDDEN
 62
   174
100
AcDbLine
 10
67.900368
 20
180.959314
 30
0.0
 11
66.083021
 21
180.959314
 31
0.0
  0
LINE
  5
5E
100
AcDbEntity
  8
0
  6
Continuous
 62
   174
100
AcDbLine
 10
36.56489
 20
181.959314
 30
0.0
 11
35.86489
 21
181.959314
 31
0.0
  0
LINE
  5
5F
100
AcDbEntity
  8
0
  6
HIDDEN
 62
   174
100
AcDbLine
 10
176.683073
 20
119.959314
 30
0.0
 11
195.483
 21
119.959314
 31
0.0
  0
LINE
  5
60
100
AcDbEntity
  8
0
  6
HIDDEN
 62
   174
100
AcDbLine
 10
163.46489
 20
104.959314
 30
0.0
 11
163.46489
 21
119.959314
 31
0.0
  0
LINE
  5
61
100
AcDbEntity
  8
0
  6
HIDDEN
 62
   174
100
AcDbLine
 10
175.603074
 20
104.959314
 30
0.0
 11
196.562999
 21
104.959314
 31
0.0
  0
LINE
  5
62
100
AcDbEntity
  8
0
  6
HIDDEN
 62
   174
100
AcDbLine
 10
195.46489
 20
118.959314
 30
0.0
 11
195.46489
 21
104.959314
 31
0.0
  0
LINE
  5
63
100
AcDbEntity
  8
0
  6
HIDDEN
 62
   174
100
AcDbLine
 10
132.54489
 20
118.959314
 30
0.0
 11
132.54489
 21
104.959314
 31
0.0
  0
LINE
  5
64
100
AcDbEntity
  8
0
  6
HIDDEN
 62
   174
100
AcDbLine
 10
131.46489
 20
118.959314
 30
0.0
 11
131.46489
 21
104.959314
 31
0.0
  0
LINE
  5
65
100
AcDbEntity
  8
0
  6
HIDDEN
 62
   174
100
AcDbLine
 10
97.06489
 20
128.959314
 30
0.0
 11
97.01489
 21
128.959314
 31
0.0
  0
LINE
  5
66
100
AcDbEntity
  8
0
  6
HIDDEN
 62
   174
100
AcDbLine
 10
97.06489
 20
140.969606
 30
0.0
 11
97.06489
 21
128.970231
 31
0.0
  0
LINE
  5
67
100
AcDbEntity
  8
0
  6
Continuous
 62
   174
100
AcDbLine
 10
211.06489
 20
164.959314
 30
0.0
 11
97.06489
 21
164.959314
 31
0.0
  0
LINE
  5
68
100
AcDbEntity
  8
0
  6
Continuous
 62
   174
100
AcDbLine
 10
80.56489
 20
177.959314
 30
0.0
 11
80.56489
 21
151.959314
 31
0.0
  0
LINE
  5
69
100
AcDbEntity
  8
0
  6
Continuous
 62
   174
100
AcDbLine
 10
211.06489
 20
104.959314
 30
0.0
 11
211.06489
 21
164.959314
 31
0.0
  0
LINE
  5
6A
100
AcDbEntity
  8
0
  6
HIDDEN
 62
   174
100
AcDbLine
 10
36.56489
 20
179.467406
 30
0.0
 11
36.56489
 21
172.967656
 31
0.0
  0
LINE
  5
6B
100
AcDbEntity
  8
0
  6
HIDDEN
 62
   174
100
AcDbLine
 10
164.54489
 20
118.959314
 30
0.0
 11
164.54489
 21
104.959314
 31
0.0
  0
LINE
  5
6C
100
AcDbEntity
  8
0
  6
HIDDEN
 62
   174
100
AcDbLine
 10
163.46489
 20
104.959314
 30
0.0
 11
163.46489
 21
119.959314
 31
0.0
  0
LINE
  5
6D
100
AcDbEntity
  8
0
  6
HIDDEN
 62
   174
100
AcDbLine
 10
175.603074
 20
118.959314
 30
0.0
 11
196.562999
 21
118.959314
 31
0.0
  0
LINE
  5
6E
100
AcDbEntity
  8
0
  6
HIDDEN
 62
   174
100
AcDbLine
 10
176.66489
 20
104.959314
 30
0.0
 11
176.66489
 21
119.959314
 31
0.0
  0
LINE
  5
6F
100
AcDbEntity
  8
0
  6
HIDDEN
 62
   174
100
AcDbLine
 10
132.54489
 20
118.959314
 30
0.0
 11
132.54489
 21
104.959314
 31
0.0
  0
LINE
  5
70
100
AcDbEntity
  8
0
  6
HIDDEN
 62
   174
100
AcDbLine
 10
112.66489
 20
104.959314
 30
0.0
 11
112.66489
 21
119.959314
 31
0.0
  0
LINE
  5
71
100
AcDbEntity
  8
0
  6
HIDDEN
 62
   174
100
AcDbLine
 10
131.46489
 20
104.959314
 30
0.0
 11
131.46489
 21
119.959314
 31
0.0
  0
LINE
  5
72
100
AcDbEntity
  8
0
  6
HIDDEN
 62
   174
100
AcDbLine
 10
68.351784
 20
180.959314
 30
0.0
 11
67.909503
 21
180.959314
 31
0.0
  0
LINE
  5
73
100
AcDbEntity
  8
0
  6
HIDDEN
 62
   174
100
AcDbLine
 10
69.097416
 20
180.959314
 30
0.0
 11
69.027527
 21
180.959314
 31
0.0
  0
LINE
  5
74
100
AcDbEntity
  8
0
  6
HIDDEN
 62
   174
100
AcDbLine
 10
64.255903
 20
180.959314
 30
0.0
 11
64.092118
 21
180.959314
 31
0.0
  0
LINE
  5
75
100
AcDbEntity
  8
0
  6
Continuous
 62
   174
100
AcDbLine
 10
32.06489
 20
165.159314
 30
0.0
 11
32.732144
 21
164.003596
 31
0.0
  0
LINE
  5
76
100
AcDbEntity
  8
0
  6
HIDDEN
 62
   174
100
AcDbLine
 10
143.603112
 20
104.959314
 30
0.0
 11
164.563037
 21
104.959314
 31
0.0
  0
LINE
  5
77
100
AcDbEntity
  8
0
  6
HIDDEN
 62
   174
100
AcDbLine
 10
144.66489
 20
104.959314
 30
0.0
 11
144.66489
 21
119.959314
 31
0.0
  0
LINE
  5
78
100
AcDbEntity
  8
0
  6
HIDDEN
 62
   174
100
AcDbLine
 10
144.66489
 20
118.959314
 30
0.0
 11
144.66489
 21
104.959314
 31
0.0
  0
LINE
  5
79
100
AcDbEntity
  8
0
  6
HIDDEN
 62
   174
100
AcDbLine
 10
176.66489
 20
104.959314
 30
0.0
 11
176.66489
 21
119.959314
 31
0.0
  0
LINE
  5
7A
100
AcDbEntity
  8
0
  6
HIDDEN
 62
   174
100
AcDbLine
 10
176.66489
 20
118.959314
 30
0.0
 11
176.66489
 21
104.959314
 31
0.0
  0
LINE
  5
7B
100
AcDbEntity
  8
0
  6
HIDDEN
 62
   174
100
AcDbLine
 10
112.66489
 20
104.959314
 30
0.0
 11
112.66489
 21
119.959314
 31
0.0
  0
LINE
  5
7C
100
AcDbEntity
  8
0
  6
Continuous
 62
   174
100
AcDbLine
 10
39.56489
 20
180.959314
 30
0.0
 11
54.56489
 21
180.959314
 31
0.0
  0
LINE
  5
7D
100
AcDbEntity
  8
0
  6
HIDDEN
 62
   174
100
AcDbLine
 10
51.56489
 20
170.175432
 30
0.0
 11
51.56489
 21
164.959314
 31
0.0
  0
LINE
  5
7E
100
AcDbEntity
  8
0
  6
HIDDEN
 62
   174
100
AcDbLine
 10
51.56489
 20
164.959314
 30
0.0
 11
51.56489
 21
151.959314
 31
0.0
  0
LINE
  5
7F
100
AcDbEntity
  8
0
  6
HIDDEN
 62
   174
100
AcDbLine
 10
97.01489
 20
140.969606
 30
0.0
 11
97.01489
 21
128.970231
 31
0.0
  0
LINE
  5
80
100
AcDbEntity
  8
0
  6
Continuous
 62
   174
100
AcDbLine
 10
81.06489
 20
104.959314
 30
0.0
 11
81.06489
 21
164.959314
 31
0.0
  0
LINE
  5
81
100
AcDbEntity
  8
0
  6
Continuous
 62
   174
100
AcDbLine
 10
81.06489
 20
164.959314
 30
0.0
 11
97.06489
 21
164.959314
 31
0.0
  0
LINE
  5
82
100
AcDbEntity
  8
0
  6
HIDDEN
 62
   174
100
AcDbLine
 10
97.06489
 20
140.959314
 30
0.0
 11
97.01489
 21
140.959314
 31
0.0
  0
LINE
  5
83
100
AcDbEntity
  8
0
  6
Continuous
 62
   174
100
AcDbLine
 10
97.06489
 20
164.959314
 30
0.0
 11
97.06489
 21
104.959314
 31
0.0
  0
LINE
  5
84
100
AcDbEntity
  8
0
  6
HIDDEN
 62
   174
100
AcDbLine
 10
39.56489
 20
179.467406
 30
0.0
 11
39.56489
 21
172.967656
 31
0.0
  0
LINE
  5
85
100
AcDbEntity
  8
0
  6
HIDDEN
 62
   174
100
AcDbLine
 10
69.027527
 20
180.959314
 30
0.0
 11
68.487315
 21
180.959314
 31
0.0
  0
LINE
  5
86
100
AcDbEntity
  8
0
  6
HIDDEN
 62
   174
100
AcDbLine
 10
68.321158
 20
180.959314
 30
0.0
 11
67.882295
 21
180.959314
 31
0.0
  0
LINE
  5
87
100
AcDbEntity
  8
0
  6
HIDDEN
 62
   174
100
AcDbLine
 10
66.06489
 20
180.959314
 30
0.0
 11
64.087707
 21
180.959314
 31
0.0
  0
LINE
  5
88
100
AcDbEntity
  8
0
  6
Continuous
 62
   174
100
AcDbLine
 10
39.56489
 20
179.459314
 30
0.0
 11
36.56489
 21
179.459314
 31
0.0
  0
LINE
  5
89
100
AcDbEntity
  8
0
  6
HIDDEN
 62
   174
100
AcDbLine
 10
144.683111
 20
119.959314
 30
0.0
 11
163.483038
 21
119.959314
 31
0.0
  0
LINE
  5
8A
100
AcDbEntity
  8
0
  6
HIDDEN
 62
   174
100
AcDbLine
 10
143.58489
 20
118.959314
 30
0.0
 11
143.58489
 21
104.959314
 31
0.0
  0
LINE
  5
8B
100
AcDbEntity
  8
0
  6
HIDDEN
 62
   174
100
AcDbLine
 10
163.46489
 20
118.959314
 30
0.0
 11
163.46489
 21
104.959314
 31
0.0
  0
LINE
  5
8C
100
AcDbEntity
  8
0
  6
HIDDEN
 62
   174
100
AcDbLine
 10
196.54489
 20
118.959314
 30
0.0
 11
196.54489
 21
104.959314
 31
0.0
  0
LINE
  5
8D
100
AcDbEntity
  8
0
  6
HIDDEN
 62
   174
100
AcDbLine
 10
111.58489
 20
118.959314
 30
0.0
 11
111.58489
 21
104.959314
 31
0.0
  0
LINE
  5
8E
100
AcDbEntity
  8
0
  6
HIDDEN
 62
   174
100
AcDbLine
 10
195.483
 20
104.959314
 30
0.0
 11
176.683073
 21
104.959314
 31
0.0
  0
LINE
  5
8F
100
AcDbEntity
  8
0
  6
Continuous
 62
   174
100
AcDbLine
 10
39.56489
 20
164.959314
 30
0.0
 11
51.56489
 21
164.959314
 31
0.0
  0
LINE
  5
90
100
AcDbEntity
  8
0
  6
HIDDEN
 62
   174
100
AcDbLine
 10
97.06489
 20
128.959314
 30
0.0
 11
97.01489
 21
128.959314
 31
0.0
  0
LINE
  5
91
100
AcDbEntity
  8
0
  6
Continuous
 62
   174
100
AcDbLine
 10
36.56489
 20
163.959314
 30
0.0
 11
35.86489
 21
163.959314
 31
0.0
  0
LINE
  5
92
100
AcDbEntity
  8
0
  6
HIDDEN
 62
   174
100
AcDbLine
 10
175.58489
 20
118.959314
 30
0.0
 11
175.58489
 21
104.959314
 31
0.0
  0
LINE
  5
93
100
AcDbEntity
  8
0
  6
HIDDEN
 62
   174
100
AcDbLine
 10
195.46489
 20
104.959314
 30
0.0
 11
195.46489
 21
119.959314
 31
0.0
  0
LINE
  5
94
100
AcDbEntity
  8
0
  6
HIDDEN
 62
   174
100
AcDbLine
 10
195.46489
 20
104.959314
 30
0.0
 11
195.46489
 21
119.959314
 31
0.0
  0
LINE
  5
95
100
AcDbEntity
  8
0
  6
HIDDEN
 62
   174
100
AcDbLine
 10
111.602938
 20
118.959314
 30
0.0
 11
132.563076
 21
118.959314
 31
0.0
  0
LINE
  5
96
100
AcDbEntity
  8
0
  6
HIDDEN
 62
   174
100
AcDbLine
 10
111.58489
 20
118.959314
 30
0.0
 11
111.58489
 21
104.959314
 31
0.0
  0
LINE
  5
97
100
AcDbEntity
  8
0
  6
HIDDEN
 62
   174
100
AcDbLine
 10
131.46489
 20
118.959314
 30
0.0
 11
131.46489
 21
104.959314
 31
0.0
  0
LINE
  5
98
100
AcDbEntity
  8
0
  6
HIDDEN
 62
   174
100
AcDbLine
 10
163.483038
 20
104.959314
 30
0.0
 11
144.683111
 21
104.959314
 31
0.0
  0
LINE
  5
99
100
AcDbEntity
  8
0
  6
HIDDEN
 62
   174
100
AcDbLine
 10
97.06489
 20
140.959314
 30
0.0
 11
97.01489
 21
140.959314
 31
0.0
  0
LINE
  5
9A
100
AcDbEntity
  8
0
  6
Continuous
 62
   174
100
AcDbLine
 10
97.06489
 20
104.959314
 30
0.0
 11
211.06489
 21
104.959314
 31
0.0
  0
LINE
  5
9B
100
AcDbEntity
  8
0
  6
HIDDEN
 62
   174
100
AcDbLine
 10
195.96489
 20
116.959314
 30
0.0
 11
198.06489
 21
118.17175
 31
0.0
  0
LINE
  5
9C
100
AcDbEntity
  8
0
  6
HIDDEN
 62
   174
100
AcDbLine
 10
200.16489
 20
114.959314
 30
0.0
 11
200.16489
 21
104.959314
 31
0.0
  0
LINE
  5
9D
100
AcDbEntity
  8
0
  6
Continuous
 62
   174
100
AcDbLine
 10
43.36489
 20
129.880384
 30
0.0
 11
49.56489
 21
129.880384
 31
0.0
  0
LINE
  5
9E
100
AcDbEntity
  8
0
  6
Continuous
 62
   174
100
AcDbLine
 10
43.36489
 20
140.037914
 30
0.0
 11
49.56489
 21
140.037914
 31
0.0
  0
LINE
  5
9F
100
AcDbEntity
  8
0
  6
HIDDEN
 62
   174
100
AcDbLine
 10
179.46489
 20
150.959314
 30
0.0
 11
179.46489
 21
164.959314
 31
0.0
  0
LINE
  5
A0
100
AcDbEntity
  8
0
  6
HIDDEN
 62
   174
100
AcDbLine
 10
107.96489
 20
114.959314
 30
0.0
 11
107.96489
 21
104.959314
 31
0.0
  0
LINE
  5
A1
100
AcDbEntity
  8
0
  6
HIDDEN
 62
   174
100
AcDbLine
 10
200.56489
 20
114.959314
 30
0.0
 11
200.56489
 21
104.959314
 31
0.0
  0
LINE
  5
A2
100
AcDbEntity
  8
0
  6
HIDDEN
 62
   174
100
AcDbLine
 10
195.96489
 20
104.959314
 30
0.0
 11
195.96489
 21
116.959314
 31
0.0
  0
LINE
  5
A3
100
AcDbEntity
  8
0
  6
Continuous
 62
   174
100
AcDbLine
 10
49.56489
 20
136.46607
 30
0.0
 11
49.56489
 21
137.469806
 31
0.0
  0
LINE
  5
A4
100
AcDbEntity
  8
0
  6
HIDDEN
 62
   174
100
AcDbLine
 10
180.54489
 20
150.959314
 30
0.0
 11
180.54489
 21
164.959314
 31
0.0
  0
LINE
  5
A5
100
AcDbEntity
  8
0
  6
HIDDEN
 62
   174
100
AcDbLine
 10
67.882295
 20
180.959314
 30
0.0
 11
68.321158
 21
180.959314
 31
0.0
  0
ARC
  5
A6
100
AcDbEntity
  8
0
  6
Continuous
 62
   174
100
AcDbCircle
 10
122.06489
 20
154.959314
 30
0.0
 40
3.3
100
AcDbArc
 50
-180.0
 51
0.0
  0
LINE
  5
A7
100
AcDbEntity
  8
0
  6
HIDDEN
 62
   174
100
AcDbLine
 10
69.082971
 20
180.909314
 30
0.0
 11
64.105926
 21
180.909314
 31
0.0
  0
LINE
  5
A8
100
AcDbEntity
  8
0
  6
HIDDEN
 62
   174
100
AcDbLine
 10
195.583055
 20
104.959314
 30
0.0
 11
200.583042
 21
104.959314
 31
0.0
  0
LINE
  5
A9
100
AcDbEntity
  8
0
  6
Continuous
 62
   174
100
AcDbLine
 10
32.06489
 20
180.767271
 30
0.0
 11
32.06489
 21
173.859228
 31
0.0
  0
LINE
  5
AA
100
AcDbEntity
  8
0
  6
HIDDEN
 62
   174
100
AcDbLine
 10
35.86489
 20
181.958865
 30
0.0
 11
35.86489
 21
177.381205
 31
0.0
  0
LINE
  5
AB
100
AcDbEntity
  8
0
  6
Continuous
 62
   174
100
AcDbLine
 10
77.56489
 20
177.959314
 30
0.0
 11
77.56489
 21
151.959314
 31
0.0
  0
LINE
  5
AC
100
AcDbEntity
  8
0
  6
HIDDEN
 62
   174
100
AcDbLine
 10
107.983115
 20
116.959314
 30
0.0
 11
112.183087
 21
116.959314
 31
0.0
  0
LINE
  5
AD
100
AcDbEntity
  8
0
  6
HIDDEN
 62
   174
100
AcDbLine
 10
107.96489
 20
104.959314
 30
0.0
 11
107.96489
 21
116.959314
 31
0.0
  0
LINE
  5
AE
100
AcDbEntity
  8
0
  6
HIDDEN
 62
   174
100
AcDbLine
 10
160.682986
 20
164.959314
 30
0.0
 11
179.482913
 21
164.959314
 31
0.0
  0
LINE
  5
AF
100
AcDbEntity
  8
0
  6
Continuous
 62
   174
100
AcDbLine
 10
43.36489
 20
132.470031
 30
0.0
 11
43.36489
 21
129.891332
 31
0.0
  0
LWPOLYLINE
  5
B0
100
AcDbEntity
  8
0
  6
HIDDEN
 62
   174
100
AcDbPolyline
 90
        4
 70
   128
 10
32.75771
 20
168.537424
 10
32.42981
 20
167.911016
 10
32.197055
 20
167.299603
 10
32.06489
 20
166.694399
  0
LINE
  5
B1
100
AcDbEntity
  8
0
  6
HIDDEN
 62
   174
100
AcDbLine
 10
148.54489
 20
150.959314
 30
0.0
 11
148.54489
 21
164.959314
 31
0.0
  0
LINE
  5
B2
100
AcDbEntity
  8
0
  6
HIDDEN
 62
   174
100
AcDbLine
 10
128.66489
 20
164.959314
 30
0.0
 11
128.66489
 21
149.959314
 31
0.0
  0
LINE
  5
B3
100
AcDbEntity
  8
0
  6
HIDDEN
 62
   174
100
AcDbLine
 10
159.58489
 20
150.959314
 30
0.0
 11
159.58489
 21
164.959314
 31
0.0
  0
ARC
  5
B4
100
AcDbEntity
  8
0
  6
Continuous
 62
   174
100
AcDbCircle
 10
170.06489
 20
114.959314
 30
0.0
 40
3.3
100
AcDbArc
 50
0.0
 51
180.0
  0
LINE
  5
B5
100
AcDbEntity
  8
0
  6
Continuous
 62
   174
100
AcDbLine
 10
36.56489
 20
179.681961
 30
0.0
 11
36.56489
 21
181.967293
 31
0.0
  0
LINE
  5
B6
100
AcDbEntity
  8
0
  6
HIDDEN
 62
   174
100
AcDbLine
 10
89.06489
 20
164.909314
 30
0.0
 11
89.06489
 21
164.959314
 31
0.0
  0
LINE
  5
B7
100
AcDbEntity
  8
0
  6
Continuous
 62
   174
100
AcDbLine
 10
80.583133
 20
177.959314
 30
0.0
 11
77.582971
 21
177.959314
 31
0.0
  0
LINE
  5
B8
100
AcDbEntity
  8
0
  6
HIDDEN
 62
   174
100
AcDbLine
 10
67.882295
 20
180.909314
 30
0.0
 11
63.678043
 21
180.909314
 31
0.0
  0
LINE
  5
B9
100
AcDbEntity
  8
0
  6
Continuous
 62
   174
100
AcDbLine
 10
43.36489
 20
129.880384
 30
0.0
 11
43.36489
 21
126.344595
 31
0.0
  0
LINE
  5
BA
100
AcDbEntity
  8
0
  6
HIDDEN
 62
   174
100
AcDbLine
 10
51.56489
 20
175.743196
 30
0.0
 11
51.56489
 21
177.959314
 31
0.0
  0
ARC
  5
BB
100
AcDbEntity
  8
0
  6
Continuous
 62
   174
100
AcDbCircle
 10
186.06489
 20
154.959314
 30
0.0
 40
3.3
100
AcDbArc
 50
0.0
 51
180.0
  0
LINE
  5
BC
100
AcDbEntity
  8
0
  6
HIDDEN
 62
   174
100
AcDbLine
 10
112.16489
 20
114.959314
 30
0.0
 11
112.16489
 21
104.959314
 31
0.0
  0
LINE
  5
BD
100
AcDbEntity
  8
0
  6
HIDDEN
 62
   174
100
AcDbLine
 10
195.56489
 20
114.959314
 30
0.0
 11
195.56489
 21
104.959314
 31
0.0
  0
LINE
  5
BE
100
AcDbEntity
  8
0
  6
Continuous
 62
   174
100
AcDbLine
 10
43.36489
 20
140.048293
 30
0.0
 11
43.36489
 21
137.469806
 31
0.0
  0
LINE
  5
BF
100
AcDbEntity
  8
0
  6
Continuous
 62
   174
100
AcDbLine
 10
43.36489
 20
132.459314
 30
0.0
 11
49.56489
 21
132.459314
 31
0.0
  0
LWPOLYLINE
  5
C0
100
AcDbEntity
  8
0
  6
Continuous
 62
   174
100
AcDbPolyline
 90
        6
 70
   128
 10
32.75771
 20
177.536974
 10
32.391584
 20
178.288665
 10
32.163486
 20
179.025711
 10
32.086582
 20
179.74796
 10
32.163501
 20
180.470199
 10
32.214401
 20
180.681781
  0
LINE
  5
C1
100
AcDbEntity
  8
0
  6
HIDDEN
 62
   174
100
AcDbLine
 10
81.06489
 20
151.959314
 30
0.0
 11
81.06489
 21
123.959314
 31
0.0
  0
LINE
  5
C2
100
AcDbEntity
  8
0
  6
HIDDEN
 62
   174
100
AcDbLine
 10
127.58489
 20
150.959314
 30
0.0
 11
127.58489
 21
164.959314
 31
0.0
  0
LINE
  5
C3
100
AcDbEntity
  8
0
  6
HIDDEN
 62
   174
100
AcDbLine
 10
147.46489
 20
164.959314
 30
0.0
 11
147.46489
 21
149.959314
 31
0.0
  0
LINE
  5
C4
100
AcDbEntity
  8
0
  6
HIDDEN
 62
   174
100
AcDbLine
 10
32.75771
 20
181.958865
 30
0.0
 11
32.728859
 21
181.909341
 31
0.0
  0
LINE
  5
C5
100
AcDbEntity
  8
0
  6
HIDDEN
 62
   174
100
AcDbLine
 10
80.56489
 20
177.959314
 30
0.0
 11
80.56489
 21
151.959314
 31
0.0
  0
LINE
  5
C6
100
AcDbEntity
  8
0
  6
Continuous
 62
   174
100
AcDbLine
 10
77.56489
 20
177.967431
 30
0.0
 11
77.56489
 21
180.967381
 31
0.0
  0
LINE
  5
C7
100
AcDbEntity
  8
0
  6
Continuous
 62
   174
100
AcDbLine
 10
39.56489
 20
172.967656
 30
0.0
 11
39.56489
 21
166.361265
 31
0.0
  0
LINE
  5
C8
100
AcDbEntity
  8
0
  6
HIDDEN
 62
   174
100
AcDbLine
 10
200.183035
 20
104.959314
 30
0.0
 11
195.983063
 21
104.959314
 31
0.0
  0
LINE
  5
C9
100
AcDbEntity
  8
0
  6
HIDDEN
 62
   174
100
AcDbLine
 10
32.728903
 20
164.009214
 30
0.0
 11
32.75771
 21
163.959764
 31
0.0
  0
LINE
  5
CA
100
AcDbEntity
  8
0
  6
Continuous
 62
   174
100
AcDbLine
 10
54.56489
 20
177.959314
 30
0.0
 11
77.56489
 21
177.959314
 31
0.0
  0
LINE
  5
CB
100
AcDbEntity
  8
0
  6
HIDDEN
 62
   174
100
AcDbLine
 10
180.54489
 20
150.959314
 30
0.0
 11
180.54489
 21
164.959314
 31
0.0
  0
LINE
  5
CC
100
AcDbEntity
  8
0
  6
Continuous
 62
   174
100
AcDbLine
 10
39.56489
 20
180.967381
 30
0.0
 11
39.56489
 21
179.574046
 31
0.0
  0
LINE
  5
CD
100
AcDbEntity
  8
0
  6
Continuous
 62
   174
100
AcDbLine
 10
81.06489
 20
151.959314
 30
0.0
 11
51.06489
 21
151.959314
 31
0.0
  0
LINE
  5
CE
100
AcDbEntity
  8
0
  6
HIDDEN
 62
   174
100
AcDbLine
 10
91.579409
 20
164.959314
 30
0.0
 11
89.485052
 21
164.959314
 31
0.0
  0
LINE
  5
CF
100
AcDbEntity
  8
0
  6
HIDDEN
 62
   174
100
AcDbLine
 10
94.825991
 20
164.959314
 30
0.0
 11
94.681113
 21
164.959314
 31
0.0
  0
LINE
  5
D0
100
AcDbEntity
  8
0
  6
HIDDEN
 62
   174
100
AcDbLine
 10
91.58302
 20
164.909314
 30
0.0
 11
89.362692
 21
164.909314
 31
0.0
  0
LINE
  5
D1
100
AcDbEntity
  8
0
  6
HIDDEN
 62
   174
100
AcDbLine
 10
69.06489
 20
180.959314
 30
0.0
 11
69.46489
 21
180.959314
 31
0.0
  0
LINE
  5
D2
100
AcDbEntity
  8
0
  6
HIDDEN
 62
   174
100
AcDbLine
 10
92.56489
 20
164.959314
 30
0.0
 11
92.56489
 21
164.909314
 31
0.0
  0
LINE
  5
D3
100
AcDbEntity
  8
0
  6
HIDDEN
 62
   174
100
AcDbLine
 10
112.183087
 20
104.959314
 30
0.0
 11
107.983115
 21
104.959314
 31
0.0
  0
LINE
  5
D4
100
AcDbEntity
  8
0
  6
HIDDEN
 62
   174
100
AcDbLine
 10
107.583107
 20
104.959314
 30
0.0
 11
112.583095
 21
104.959314
 31
0.0
  0
LINE
  5
D5
100
AcDbEntity
  8
0
  6
Continuous
 62
   174
100
AcDbLine
 10
54.56489
 20
177.967431
 30
0.0
 11
54.56489
 21
180.967381
 31
0.0
  0
LINE
  5
D6
100
AcDbEntity
  8
0
  6
Continuous
 62
   174
100
AcDbLine
 10
35.86489
 20
172.967656
 30
0.0
 11
35.86489
 21
168.390406
 31
0.0
  0
LINE
  5
D7
100
AcDbEntity
  8
0
  6
HIDDEN
 62
   174
100
AcDbLine
 10
107.96489
 20
114.959314
 30
0.0
 11
107.96489
 21
104.959314
 31
0.0
  0
LINE
  5
D8
100
AcDbEntity
  8
0
  6
HIDDEN
 62
   174
100
AcDbLine
 10
43.36489
 20
140.040909
 30
0.0
 11
49.56489
 21
140.040909
 31
0.0
  0
LINE
  5
D9
100
AcDbEntity
  8
0
  6
Continuous
 62
   174
100
AcDbLine
 10
54.583071
 20
177.959314
 30
0.0
 11
51.583122
 21
177.959314
 31
0.0
  0
LINE
  5
DA
100
AcDbEntity
  8
0
  6
HIDDEN
 62
   174
100
AcDbLine
 10
94.803261
 20
164.909314
 30
0.0
 11
92.582933
 21
164.909314
 31
0.0
  0
LINE
  5
DB
100
AcDbEntity
  8
0
  6
HIDDEN
 62
   174
100
AcDbLine
 10
54.583071
 20
177.959314
 30
0.0
 11
51.583122
 21
177.959314
 31
0.0
  0
LINE
  5
DC
100
AcDbEntity
  8
0
  6
HIDDEN
 62
   174
100
AcDbLine
 10
94.803261
 20
164.959314
 30
0.0
 11
92.582933
 21
164.959314
 31
0.0
  0
LINE
  5
DD
100
AcDbEntity
  8
0
  6
HIDDEN
 62
   174
100
AcDbLine
 10
160.66489
 20
150.959314
 30
0.0
 11
160.66489
 21
164.959314
 31
0.0
  0
LWPOLYLINE
  5
DE
100
AcDbEntity
  8
0
  6
HIDDEN
 62
   174
100
AcDbPolyline
 90
        7
 70
   128
 10
32.75771
 20
177.381205
 10
32.391608
 20
175.877934
 10
32.163508
 20
174.403944
 10
32.086577
 20
172.959552
 10
32.163464
 20
171.515105
 10
32.391556
 20
170.040954
 10
32.75771
 20
168.537424
  0
LINE
  5
DF
100
AcDbEntity
  8
0
  6
HIDDEN
 62
   174
100
AcDbLine
 10
43.36489
 20
137.462681
 30
0.0
 11
49.56489
 21
137.462681
 31
0.0
  0
LINE
  5
E0
100
AcDbEntity
  8
0
  6
HIDDEN
 62
   174
100
AcDbLine
 10
80.583133
 20
177.959314
 30
0.0
 11
77.582971
 21
177.959314
 31
0.0
  0
LINE
  5
E1
100
AcDbEntity
  8
0
  6
HIDDEN
 62
   174
100
AcDbLine
 10
107.96489
 20
104.959314
 30
0.0
 11
107.96489
 21
116.959314
 31
0.0
  0
LINE
  5
E2
100
AcDbEntity
  8
0
  6
HIDDEN
 62
   174
100
AcDbLine
 10
77.56489
 20
151.959314
 30
0.0
 11
77.56489
 21
177.959314
 31
0.0
  0
LINE
  5
E3
100
AcDbEntity
  8
0
  6
Continuous
 62
   174
100
AcDbLine
 10
35.86489
 20
168.390406
 30
0.0
 11
35.86489
 21
163.968656
 31
0.0
  0
LINE
  5
E4
100
AcDbEntity
  8
0
  6
Continuous
 62
   174
100
AcDbLine
 10
35.86489
 20
177.545118
 30
0.0
 11
35.86489
 21
172.967656
 31
0.0
  0
LINE
  5
E5
100
AcDbEntity
  8
0
  6
HIDDEN
 62
   174
100
AcDbLine
 10
159.58489
 20
150.959314
 30
0.0
 11
159.58489
 21
164.959314
 31
0.0
  0
ARC
  5
E6
100
AcDbEntity
  8
0
  6
HIDDEN
 62
   174
100
AcDbCircle
 10
77.56489
 20
177.959314
 30
0.0
 40
3.0
100
AcDbArc
 50
-288.0
 51
-270.0
  0
LINE
  5
E7
100
AcDbEntity
  8
0
  6
HIDDEN
 62
   174
100
AcDbLine
 10
147.46489
 20
164.959314
 30
0.0
 11
147.46489
 21
149.959314
 31
0.0
  0
LINE
  5
E8
100
AcDbEntity
  8
0
  6
Continuous
 62
   174
100
AcDbLine
 10
43.36489
 20
126.355631
 30
0.0
 11
43.36489
 21
125.28774
 31
0.0
  0
LWPOLYLINE
  5
E9
100
AcDbEntity
  8
0
  6
HIDDEN
 62
   174
100
AcDbPolyline
 90
        4
 70
   128
 10
32.728949
 20
181.909494
 10
32.42981
 20
181.332458
 10
32.197055
 20
180.721045
 10
32.06489
 20
180.115841
  0
LINE
  5
EA
100
AcDbEntity
  8
0
  6
HIDDEN
 62
   174
100
AcDbLine
 10
63.065215
 20
180.959314
 30
0.0
 11
64.087707
 21
180.959314
 31
0.0
  0
LINE
  5
EB
100
AcDbEntity
  8
0
  6
HIDDEN
 62
   174
100
AcDbLine
 10
89.344596
 20
164.909314
 30
0.0
 11
89.344596
 21
164.959314
 31
0.0
  0
LINE
  5
EC
100
AcDbEntity
  8
0
  6
HIDDEN
 62
   174
100
AcDbLine
 10
54.56489
 20
177.967431
 30
0.0
 11
54.56489
 21
180.967381
 31
0.0
  0
LINE
  5
ED
100
AcDbEntity
  8
0
  6
Continuous
 62
   174
100
AcDbLine
 10
36.56489
 20
163.968231
 30
0.0
 11
36.56489
 21
166.253775
 31
0.0
  0
LINE
  5
EE
100
AcDbEntity
  8
0
  6
Continuous
 62
   174
100
AcDbLine
 10
32.06489
 20
172.076295
 30
0.0
 11
32.06489
 21
165.168253
 31
0.0
  0
LWPOLYLINE
  5
EF
100
AcDbEntity
  8
0
  6
HIDDEN
 62
   174
100
AcDbPolyline
 90
        6
 70
   128
 10
54.56489
 20
180.959314
 10
53.659574
 20
180.819455
 10
52.851269
 20
180.421732
 10
52.189421
 20
179.791566
 10
51.737595
 20
178.962512
 10
51.56489
 20
177.959314
  0
LINE
  5
F0
100
AcDbEntity
  8
0
  6
HIDDEN
 62
   174
100
AcDbLine
 10
179.46489
 20
150.959314
 30
0.0
 11
179.46489
 21
164.959314
 31
0.0
  0
ARC
  5
F1
100
AcDbEntity
  8
0
  6
Continuous
 62
   174
100
AcDbCircle
 10
138.06489
 20
114.959314
 30
0.0
 40
3.3
100
AcDbArc
 50
180.0
 51
360.0
  0
LINE
  5
F2
100
AcDbEntity
  8
0
  6
Continuous
 62
   174
100
AcDbLine
 10
49.56489
 20
124.959314
 30
0.0
 11
51.06489
 21
124.959314
 31
0.0
  0
LINE
  5
F3
100
AcDbEntity
  8
0
  6
HIDDEN
 62
   174
100
AcDbLine
 10
160.66489
 20
164.959314
 30
0.0
 11
160.66489
 21
149.959314
 31
0.0
  0
LINE
  5
F4
100
AcDbEntity
  8
0
  6
HIDDEN
 62
   174
100
AcDbLine
 10
200.56489
 20
114.959314
 30
0.0
 11
200.56489
 21
104.959314
 31
0.0
  0
LINE
  5
F5
100
AcDbEntity
  8
0
  6
HIDDEN
 62
   174
100
AcDbLine
 10
77.56489
 20
177.959314
 30
0.0
 11
54.56489
 21
177.959314
 31
0.0
  0
LINE
  5
F6
100
AcDbEntity
  8
0
  6
Continuous
 62
   174
100
AcDbLine
 10
43.36489
 20
143.573193
 30
0.0
 11
49.56489
 21
143.573193
 31
0.0
  0
LINE
  5
F7
100
AcDbEntity
  8
0
  6
HIDDEN
 62
   174
100
AcDbLine
 10
54.56489
 20
180.959314
 30
0.0
 11
62.66489
 21
180.959314
 31
0.0
  0
LINE
  5
F8
100
AcDbEntity
  8
0
  6
HIDDEN
 62
   174
100
AcDbLine
 10
62.683064
 20
180.909314
 30
0.0
 11
66.083021
 21
180.909314
 31
0.0
  0
ARC
  5
F9
100
AcDbEntity
  8
0
  6
Continuous
 62
   174
100
AcDbCircle
 10
77.56489
 20
177.959314
 30
0.0
 40
3.0
100
AcDbArc
 50
0.0
 51
90.0
  0
LINE
  5
FA
100
AcDbEntity
  8
0
  6
HIDDEN
 62
   174
100
AcDbLine
 10
80.583133
 20
151.959314
 30
0.0
 11
77.582971
 21
151.959314
 31
0.0
  0
LINE
  5
FB
100
AcDbEntity
  8
0
  6
HIDDEN
 62
   174
100
AcDbLine
 10
128.66489
 20
150.959314
 30
0.0
 11
128.66489
 21
164.959314
 31
0.0
  0
LINE
  5
FC
100
AcDbEntity
  8
0
  6
HIDDEN
 62
   174
100
AcDbLine
 10
179.46489
 20
164.959314
 30
0.0
 11
179.46489
 21
149.959314
 31
0.0
  0
LINE
  5
FD
100
AcDbEntity
  8
0
  6
HIDDEN
 62
   174
100
AcDbLine
 10
195.56489
 20
114.959314
 30
0.0
 11
195.56489
 21
104.959314
 31
0.0
  0
LINE
  5
FE
100
AcDbEntity
  8
0
  6
Continuous
 62
   174
100
AcDbLine
 10
32.75771
 20
177.536974
 30
0.0
 11
35.86489
 21
177.536974
 31
0.0
  0
LINE
  5
FF
100
AcDbEntity
  8
0
  6
Continuous
 62
   174
100
AcDbLine
 10
43.36489
 20
137.459314
 30
0.0
 11
43.36489
 21
132.459314
 31
0.0
  0
ARC
  5
100
100
AcDbEntity
  8
0
  6
HIDDEN
 62
   174
100
AcDbCircle
 10
54.56489
 20
177.959314
 30
0.0
 40
3.0
100
AcDbArc
 50
90.0
 51
180.0
  0
LINE
  5
101
100
AcDbEntity
  8
0
  6
HIDDEN
 62
   174
100
AcDbLine
 10
89.485052
 20
164.959314
 30
0.0
 11
89.339962
 21
164.959314
 31
0.0
  0
LINE
  5
102
100
AcDbEntity
  8
0
  6
HIDDEN
 62
   174
100
AcDbLine
 10
148.56295
 20
150.959314
 30
0.0
 11
127.603025
 21
150.959314
 31
0.0
  0
LINE
  5
103
100
AcDbEntity
  8
0
  6
HIDDEN
 62
   174
100
AcDbLine
 10
195.96489
 20
104.959314
 30
0.0
 11
195.96489
 21
116.959314
 31
0.0
  0
LINE
  5
104
100
AcDbEntity
  8
0
  6
HIDDEN
 62
   174
100
AcDbLine
 10
49.56489
 20
132.462682
 30
0.0
 11
49.56489
 21
137.462681
 31
0.0
  0
LINE
  5
105
100
AcDbEntity
  8
0
  6
Continuous
 62
   174
100
AcDbLine
 10
43.36489
 20
126.344595
 30
0.0
 11
49.56489
 21
126.344595
 31
0.0
  0
LINE
  5
106
100
AcDbEntity
  8
0
  6
HIDDEN
 62
   174
100
AcDbLine
 10
148.54489
 20
150.959314
 30
0.0
 11
148.54489
 21
164.959314
 31
0.0
  0
LINE
  5
107
100
AcDbEntity
  8
0
  6
HIDDEN
 62
   174
100
AcDbLine
 10
179.46489
 20
164.959314
 30
0.0
 11
179.46489
 21
149.959314
 31
0.0
  0
LINE
  5
108
100
AcDbEntity
  8
0
  6
HIDDEN
 62
   174
100
AcDbLine
 10
66.083021
 20
180.909314
 30
0.0
 11
69.482979
 21
180.909314
 31
0.0
  0
LINE
  5
109
100
AcDbEntity
  8
0
  6
HIDDEN
 62
   174
100
AcDbLine
 10
107.96489
 20
116.959314
 30
0.0
 11
110.06489
 21
118.17175
 31
0.0
  0
LINE
  5
10A
100
AcDbEntity
  8
0
  6
HIDDEN
 62
   174
100
AcDbLine
 10
200.16489
 20
104.959314
 30
0.0
 11
200.16489
 21
116.959314
 31
0.0
  0
LINE
  5
10B
100
AcDbEntity
  8
0
  6
HIDDEN
 62
   174
100
AcDbLine
 10
35.86489
 20
168.537424
 30
0.0
 11
32.75771
 21
168.537424
 31
0.0
  0
LINE
  5
10C
100
AcDbEntity
  8
0
  6
Continuous
 62
   174
100
AcDbLine
 10
43.36489
 20
143.573193
 30
0.0
 11
43.36489
 21
140.037914
 31
0.0
  0
LINE
  5
10D
100
AcDbEntity
  8
0
  6
HIDDEN
 62
   174
100
AcDbLine
 10
160.66489
 20
164.959314
 30
0.0
 11
160.66489
 21
149.959314
 31
0.0
  0
LINE
  5
10E
100
AcDbEntity
  8
0
  6
HIDDEN
 62
   174
100
AcDbLine
 10
112.16489
 20
114.959314
 30
0.0
 11
112.16489
 21
104.959314
 31
0.0
  0
LINE
  5
10F
100
AcDbEntity
  8
0
  6
Continuous
 62
   174
100
AcDbLine
 10
35.86489
 20
163.959764
 30
0.0
 11
32.75771
 21
163.959764
 31
0.0
  0
LWPOLYLINE
  5
110
100
AcDbEntity
  8
0
  6
Continuous
 62
   174
100
AcDbPolyline
 90
        4
 70
   128
 10
51.60685
 20
172.959314
 10
51.597855
 20
172.010307
 10
51.577449
 20
171.072141
 10
51.56489
 20
170.175432
  0
LINE
  5
111
100
AcDbEntity
  8
0
  6
Continuous
 62
   174
100
AcDbLine
 10
49.56489
 20
144.651459
 30
0.0
 11
49.56489
 21
144.969256
 31
0.0
  0
LINE
  5
112
100
AcDbEntity
  8
0
  6
Continuous
 62
   174
100
AcDbLine
 10
36.56489
 20
172.967656
 30
0.0
 11
36.56489
 21
179.681961
 31
0.0
  0
ARC
  5
113
100
AcDbEntity
  8
0
  6
Continuous
 62
   174
100
AcDbCircle
 10
54.56489
 20
177.959314
 30
0.0
 40
3.0
100
AcDbArc
 50
-270.0
 51
-180.0
  0
LINE
  5
114
100
AcDbEntity
  8
0
  6
HIDDEN
 62
   174
100
AcDbLine
 10
112.56489
 20
114.959314
 30
0.0
 11
112.56489
 21
104.959314
 31
0.0
  0
LINE
  5
115
100
AcDbEntity
  8
0
  6
Continuous
 62
   174
100
AcDbLine
 10
43.36489
 20
144.651459
 30
0.0
 11
43.36489
 21
143.583356
 31
0.0
  0
LINE
  5
116
100
AcDbEntity
  8
0
  6
Continuous
 62
   174
100
AcDbLine
 10
32.75771
 20
163.959764
 30
0.0
 11
32.730237
 21
164.0086
 31
0.0
  0
LINE
  5
117
100
AcDbEntity
  8
0
  6
HIDDEN
 62
   174
100
AcDbLine
 10
49.56489
 20
126.346362
 30
0.0
 11
49.56489
 21
129.88338
 31
0.0
  0
LINE
  5
118
100
AcDbEntity
  8
0
  6
HIDDEN
 62
   174
100
AcDbLine
 10
127.58489
 20
150.959314
 30
0.0
 11
127.58489
 21
164.959314
 31
0.0
  0
LINE
  5
119
100
AcDbEntity
  8
0
  6
HIDDEN
 62
   174
100
AcDbLine
 10
147.46489
 20
150.959314
 30
0.0
 11
147.46489
 21
164.959314
 31
0.0
  0
LINE
  5
11A
100
AcDbEntity
  8
0
  6
HIDDEN
 62
   174
100
AcDbLine
 10
180.562912
 20
164.959314
 30
0.0
 11
159.602987
 21
164.959314
 31
0.0
  0
LINE
  5
11B
100
AcDbEntity
  8
0
  6
HIDDEN
 62
   174
100
AcDbLine
 10
128.683024
 20
164.959314
 30
0.0
 11
147.482951
 21
164.959314
 31
0.0
  0
LINE
  5
11C
100
AcDbEntity
  8
0
  6
Continuous
 62
   174
100
AcDbLine
 10
36.56489
 20
166.253775
 30
0.0
 11
36.56489
 21
172.967656
 31
0.0
  0
LINE
  5
11D
100
AcDbEntity
  8
0
  6
HIDDEN
 62
   174
100
AcDbLine
 10
147.482951
 20
149.959314
 30
0.0
 11
128.683024
 21
149.959314
 31
0.0
  0
ARC
  5
11E
100
AcDbEntity
  8
0
  6
Continuous
 62
   174
100
AcDbCircle
 10
186.06489
 20
154.959314
 30
0.0
 40
3.3
100
AcDbArc
 50
-180.0
 51
0.0
  0
ARC
  5
11F
100
AcDbEntity
  8
0
  6
Continuous
 62
   174
100
AcDbCircle
 10
122.06489
 20
154.959314
 30
0.0
 40
3.3
100
AcDbArc
 50
0.0
 51
180.0
  0
LINE
  5
120
100
AcDbEntity
  8
0
  6
HIDDEN
 62
   174
100
AcDbLine
 10
63.696147
 20
180.909314
 30
0.0
 11
63.083071
 21
180.909314
 31
0.0
  0
LWPOLYLINE
  5
121
100
AcDbEntity
  8
0
  6
HIDDEN
 62
   174
100
AcDbPolyline
 90
        4
 70
   128
 10
32.06489
 20
165.802788
 10
32.198011
 20
165.194429
 10
32.431093
 20
164.583354
 10
32.728989
 20
164.009065
  0
LINE
  5
122
100
AcDbEntity
  8
0
  6
Continuous
 62
   174
100
AcDbLine
 10
32.06489
 20
172.067703
 30
0.0
 11
32.06489
 21
173.850926
 31
0.0
  0
LWPOLYLINE
  5
123
100
AcDbEntity
  8
0
  6
HIDDEN
 62
   174
100
AcDbPolyline
 90
        4
 70
   128
 10
32.06489
 20
179.224229
 10
32.198011
 20
178.61587
 10
32.431093
 20
178.004796
 10
32.75771
 20
177.381205
  0
LINE
  5
124
100
AcDbEntity
  8
0
  6
HIDDEN
 62
   174
100
AcDbLine
 10
195.96489
 20
114.959314
 30
0.0
 11
195.96489
 21
104.959314
 31
0.0
  0
LINE
  5
125
100
AcDbEntity
  8
0
  6
Continuous
 62
   174
100
AcDbLine
 10
43.36489
 20
125.276533
 30
0.0
 11
49.56489
 21
125.276533
 31
0.0
  0
LINE
  5
126
100
AcDbEntity
  8
0
  6
Continuous
 62
   174
100
AcDbLine
 10
35.86489
 20
181.958865
 30
0.0
 11
32.75771
 21
181.958865
 31
0.0
  0
LWPOLYLINE
  5
127
100
AcDbEntity
  8
0
  6
Continuous
 62
   174
100
AcDbPolyline
 90
        4
 70
   128
 10
51.60685
 20
172.959314
 10
51.597855
 20
173.908297
 10
51.57745
 20
174.846464
 10
51.56489
 20
175.743196
  0
LINE
  5
128
100
AcDbEntity
  8
0
  6
HIDDEN
 62
   174
100
AcDbLine
 10
94.681113
 20
164.959314
 30
0.0
 11
92.586757
 21
164.959314
 31
0.0
  0
LINE
  5
129
100
AcDbEntity
  8
0
  6
HIDDEN
 62
   174
100
AcDbLine
 10
180.562912
 20
150.959314
 30
0.0
 11
159.602987
 21
150.959314
 31
0.0
  0
LINE
  5
12A
100
AcDbEntity
  8
0
  6
HIDDEN
 62
   174
100
AcDbLine
 10
49.56489
 20
140.040909
 30
0.0
 11
49.56489
 21
143.574959
 31
0.0
  0
LINE
  5
12B
100
AcDbEntity
  8
0
  6
HIDDEN
 62
   174
100
AcDbLine
 10
92.586757
 20
164.959314
 30
0.0
 11
91.579409
 21
164.959314
 31
0.0
  0
LINE
  5
12C
100
AcDbEntity
  8
0
  6
Continuous
 62
   174
100
AcDbLine
 10
35.86489
 20
181.966868
 30
0.0
 11
35.86489
 21
177.545118
 31
0.0
  0
LINE
  5
12D
100
AcDbEntity
  8
0
  6
Continuous
 62
   174
100
AcDbLine
 10
35.86489
 20
168.381654
 30
0.0
 11
32.75771
 21
168.381654
 31
0.0
  0
LWPOLYLINE
  5
12E
100
AcDbEntity
  8
0
  6
HIDDEN
 62
   174
100
AcDbPolyline
 90
        4
 70
   128
 10
51.56489
 20
175.743196
 10
51.57745
 20
174.846461
 10
51.597855
 20
173.908307
 10
51.60685
 20
172.959314
  0
LINE
  5
12F
100
AcDbEntity
  8
0
  6
HIDDEN
 62
   174
100
AcDbLine
 10
91.56489
 20
164.959314
 30
0.0
 11
91.56489
 21
164.909314
 31
0.0
  0
ARC
  5
130
100
AcDbEntity
  8
0
  6
Continuous
 62
   174
100
AcDbCircle
 10
77.56489
 20
177.959314
 30
0.0
 40
3.0
100
AcDbArc
 50
-342.0
 51
-324.0
  0
LINE
  5
131
100
AcDbEntity
  8
0
  6
HIDDEN
 62
   174
100
AcDbLine
 10
112.16489
 20
116.959314
 30
0.0
 11
110.06489
 21
118.17175
 31
0.0
  0
LINE
  5
132
100
AcDbEntity
  8
0
  6
HIDDEN
 62
   174
100
AcDbLine
 10
200.16489
 20
114.959314
 30
0.0
 11
200.16489
 21
104.959314
 31
0.0
  0
LINE
  5
133
100
AcDbEntity
  8
0
  6
HIDDEN
 62
   174
100
AcDbLine
 10
147.46489
 20
150.959314
 30
0.0
 11
147.46489
 21
164.959314
 31
0.0
  0
LINE
  5
134
100
AcDbEntity
  8
0
  6
HIDDEN
 62
   174
100
AcDbLine
 10
43.36489
 20
132.462682
 30
0.0
 11
49.56489
 21
132.462682
 31
0.0
  0
LINE
  5
135
100
AcDbEntity
  8
0
  6
Continuous
 62
   174
100
AcDbLine
 10
32.73027
 20
181.910071
 30
0.0
 11
32.75771
 21
181.958865
 31
0.0
  0
LINE
  5
136
100
AcDbEntity
  8
0
  6
HIDDEN
 62
   174
100
AcDbLine
 10
51.56489
 20
164.968143
 30
0.0
 11
51.56489
 21
170.18396
 31
0.0
  0
LINE
  5
137
100
AcDbEntity
  8
0
  6
Continuous
 62
   174
100
AcDbLine
 10
43.36489
 20
144.64145
 30
0.0
 11
49.56489
 21
144.64145
 31
0.0
  0
LINE
  5
138
100
AcDbEntity
  8
0
  6
Continuous
 62
   174
100
AcDbLine
 10
49.56489
 20
140.048293
 30
0.0
 11
49.56489
 21
143.583356
 31
0.0
  0
LINE
  5
139
100
AcDbEntity
  8
0
  6
HIDDEN
 62
   174
100
AcDbLine
 10
77.56489
 20
177.967431
 30
0.0
 11
77.56489
 21
180.967381
 31
0.0
  0
LWPOLYLINE
  5
13A
100
AcDbEntity
  8
0
  6
Continuous
 62
   174
100
AcDbPolyline
 90
        4
 70
   128
 10
32.75771
 20
168.381654
 10
32.429809
 20
169.634469
 10
32.197056
 20
170.85729
 10
32.06489
 20
172.067703
  0
LINE
  5
13B
100
AcDbEntity
  8
0
  6
Continuous
 62
   174
100
AcDbLine
 10
32.214401
 20
180.681781
 30
0.0
 11
32.731056
 21
181.911482
 31
0.0
  0
LINE
  5
13C
100
AcDbEntity
  8
0
  6
HIDDEN
 62
   174
100
AcDbLine
 10
179.482913
 20
149.959314
 30
0.0
 11
160.682986
 21
149.959314
 31
0.0
  0
LINE
  5
13D
100
AcDbEntity
  8
0
  6
HIDDEN
 62
   174
100
AcDbLine
 10
128.66489
 20
164.959314
 30
0.0
 11
128.66489
 21
149.959314
 31
0.0
  0
LINE
  5
13E
100
AcDbEntity
  8
0
  6
HIDDEN
 62
   174
100
AcDbLine
 10
128.66489
 20
150.959314
 30
0.0
 11
128.66489
 21
164.959314
 31
0.0
  0
ARC
  5
13F
100
AcDbEntity
  8
0
  6
Continuous
 62
   174
100
AcDbCircle
 10
77.56489
 20
177.959314
 30
0.0
 40
3.0
100
AcDbArc
 50
-324.0
 51
-306.0
  0
LINE
  5
140
100
AcDbEntity
  8
0
  6
Continuous
 62
   174
100
AcDbLine
 10
51.56489
 20
170.175432
 30
0.0
 11
51.56489
 21
151.959314
 31
0.0
  0
LINE
  5
141
100
AcDbEntity
  8
0
  6
HIDDEN
 62
   174
100
AcDbLine
 10
51.583122
 20
151.959314
 30
0.0
 11
54.583071
 21
151.959314
 31
0.0
  0
LINE
  5
142
100
AcDbEntity
  8
0
  6
HIDDEN
 62
   174
100
AcDbLine
 10
107.56489
 20
114.959314
 30
0.0
 11
107.56489
 21
104.959314
 31
0.0
  0
LINE
  5
143
100
AcDbEntity
  8
0
  6
HIDDEN
 62
   174
100
AcDbLine
 10
43.36489
 20
129.88338
 30
0.0
 11
49.56489
 21
129.88338
 31
0.0
  0
LINE
  5
144
100
AcDbEntity
  8
0
  6
HIDDEN
 62
   174
100
AcDbLine
 10
43.36489
 20
126.346362
 30
0.0
 11
49.56489
 21
126.346362
 31
0.0
  0
LINE
  5
145
100
AcDbEntity
  8
0
  6
Continuous
 62
   174
100
AcDbLine
 10
51.56489
 20
177.959314
 30
0.0
 11
51.56489
 21
175.743196
 31
0.0
  0
LINE
  5
146
100
AcDbEntity
  8
0
  6
HIDDEN
 62
   174
100
AcDbLine
 10
95.06489
 20
164.909314
 30
0.0
 11
95.06489
 21
164.959314
 31
0.0
  0
LINE
  5
147
100
AcDbEntity
  8
0
  6
HIDDEN
 62
   174
100
AcDbLine
 10
51.56489
 20
177.967431
 30
0.0
 11
51.56489
 21
175.751563
 31
0.0
  0
LINE
  5
148
100
AcDbEntity
  8
0
  6
Continuous
 62
   174
100
AcDbLine
 10
49.56489
 20
126.355631
 30
0.0
 11
49.56489
 21
129.891332
 31
0.0
  0
LINE
  5
149
100
AcDbEntity
  8
0
  6
Continuous
 62
   174
100
AcDbLine
 10
80.56489
 20
151.959314
 30
0.0
 11
80.56489
 21
177.959314
 31
0.0
  0
LINE
  5
14A
100
AcDbEntity
  8
0
  6
Continuous
 62
   174
100
AcDbLine
 10
39.56489
 20
166.361265
 30
0.0
 11
39.56489
 21
164.968143
 31
0.0
  0
LINE
  5
14B
100
AcDbEntity
  8
0
  6
HIDDEN
 62
   174
100
AcDbLine
 10
195.96489
 20
114.959314
 30
0.0
 11
195.96489
 21
104.959314
 31
0.0
  0
LINE
  5
14C
100
AcDbEntity
  8
0
  6
HIDDEN
 62
   174
100
AcDbLine
 10
69.46489
 20
180.959314
 30
0.0
 11
77.56489
 21
180.959314
 31
0.0
  0
LINE
  5
14D
100
AcDbEntity
  8
0
  6
HIDDEN
 62
   174
100
AcDbLine
 10
160.66489
 20
150.959314
 30
0.0
 11
160.66489
 21
164.959314
 31
0.0
  0
ARC
  5
14E
100
AcDbEntity
  8
0
  6
HIDDEN
 62
   174
100
AcDbCircle
 10
77.56489
 20
177.959314
 30
0.0
 40
3.0
100
AcDbArc
 50
0.0
 51
18.0
  0
LINE
  5
14F
100
AcDbEntity
  8
0
  6
HIDDEN
 62
   174
100
AcDbLine
 10
112.16489
 20
104.959314
 30
0.0
 11
112.16489
 21
116.959314
 31
0.0
  0
LINE
  5
150
100
AcDbEntity
  8
0
  6
HIDDEN
 62
   174
100
AcDbLine
 10
112.16489
 20
104.959314
 30
0.0
 11
112.16489
 21
116.959314
 31
0.0
  0
LINE
  5
151
100
AcDbEntity
  8
0
  6
Continuous
 62
   174
100
AcDbLine
 10
43.36489
 20
137.459314
 30
0.0
 11
49.56489
 21
137.459314
 31
0.0
  0
LINE
  5
152
100
AcDbEntity
  8
0
  6
Continuous
 62
   174
100
AcDbLine
 10
77.56489
 20
180.959314
 30
0.0
 11
54.56489
 21
180.959314
 31
0.0
  0
LINE
  5
153
100
AcDbEntity
  8
0
  6
HIDDEN
 62
   174
100
AcDbLine
 10
54.56489
 20
151.959314
 30
0.0
 11
54.56489
 21
177.959314
 31
0.0
  0
LINE
  5
154
100
AcDbEntity
  8
0
  6
HIDDEN
 62
   174
100
AcDbLine
 10
89.339962
 20
164.959314
 30
0.0
 11
89.083133
 21
164.959314
 31
0.0
  0
LINE
  5
155
100
AcDbEntity
  8
0
  6
HIDDEN
 62
   174
100
AcDbLine
 10
91.58302
 20
164.959314
 30
0.0
 11
89.362692
 21
164.959314
 31
0.0
  0
LINE
  5
156
100
AcDbEntity
  8
0
  6
HIDDEN
 62
   174
100
AcDbLine
 10
107.983115
 20
116.959314
 30
0.0
 11
112.183087
 21
116.959314
 31
0.0
  0
LINE
  5
157
100
AcDbEntity
  8
0
  6
Continuous
 62
   174
100
AcDbLine
 10
32.731032
 20
164.00719
 30
0.0
 11
32.21423
 21
165.237484
 31
0.0
  0
LINE
  5
158
100
AcDbEntity
  8
0
  6
HIDDEN
 62
   174
100
AcDbLine
 10
35.86489
 20
168.537424
 30
0.0
 11
35.86489
 21
177.381205
 31
0.0
  0
LINE
  5
159
100
AcDbEntity
  8
0
  6
Continuous
 62
   174
100
AcDbLine
 10
54.56489
 20
177.959314
 30
0.0
 11
54.56489
 21
151.959314
 31
0.0
  0
LINE
  5
15A
100
AcDbEntity
  8
0
  6
Continuous
 62
   174
100
AcDbLine
 10
49.56489
 20
144.959314
 30
0.0
 11
51.06489
 21
144.959314
 31
0.0
  0
LINE
  5
15B
100
AcDbEntity
  8
0
  6
HIDDEN
 62
   174
100
AcDbLine
 10
107.56489
 20
114.959314
 30
0.0
 11
107.56489
 21
104.959314
 31
0.0
  0
LWPOLYLINE
  5
15C
100
AcDbEntity
  8
0
  6
HIDDEN
 62
   174
100
AcDbPolyline
 90
        4
 70
   128
 10
51.56489
 20
170.175432
 10
51.577449
 20
171.072133
 10
51.597854
 20
172.010288
 10
51.60685
 20
172.959314
  0
LINE
  5
15D
100
AcDbEntity
  8
0
  6
HIDDEN
 62
   174
100
AcDbLine
 10
89.083133
 20
164.909314
 30
0.0
 11
95.083033
 21
164.909314
 31
0.0
  0
LINE
  5
15E
100
AcDbEntity
  8
0
  6
HIDDEN
 62
   174
100
AcDbLine
 10
95.083033
 20
164.959314
 30
0.0
 11
94.825991
 21
164.959314
 31
0.0
  0
LINE
  5
15F
100
AcDbEntity
  8
0
  6
HIDDEN
 62
   174
100
AcDbLine
 10
66.06489
 20
180.959314
 30
0.0
 11
67.882295
 21
180.959314
 31
0.0
  0
LINE
  5
160
100
AcDbEntity
  8
0
  6
HIDDEN
 62
   174
100
AcDbLine
 10
64.087707
 20
180.959314
 30
0.0
 11
66.06489
 21
180.959314
 31
0.0
  0
LINE
  5
161
100
AcDbEntity
  8
0
  6
HIDDEN
 62
   174
100
AcDbLine
 10
89.06489
 20
164.909314
 30
0.0
 11
89.06489
 21
164.959314
 31
0.0
  0
LINE
  5
162
100
AcDbEntity
  8
0
  6
Continuous
 62
   174
100
AcDbLine
 10
51.06489
 20
123.959314
 30
0.0
 11
81.06489
 21
123.959314
 31
0.0
  0
LINE
  5
163
100
AcDbEntity
  8
0
  6
HIDDEN
 62
   174
100
AcDbLine
 10
148.56295
 20
164.959314
 30
0.0
 11
127.603025
 21
164.959314
 31
0.0
  0
ARC
  5
164
100
AcDbEntity
  8
0
  6
Continuous
 62
   174
100
AcDbCircle
 10
77.56489
 20
177.959314
 30
0.0
 40
3.0
100
AcDbArc
 50
-306.0
 51
-288.0
  0
LWPOLYLINE
  5
165
100
AcDbEntity
  8
0
  6
Continuous
 62
   174
100
AcDbPolyline
 90
        4
 70
   128
 10
32.06489
 20
173.850926
 10
32.19801
 20
175.067641
 10
32.431096
 20
176.289805
 10
32.75771
 20
177.536974
  0
LINE
  5
166
100
AcDbEntity
  8
0
  6
Continuous
 62
   174
100
AcDbLine
 10
51.06489
 20
123.959314
 30
0.0
 11
51.06489
 21
151.959314
 31
0.0
  0
LINE
  5
167
100
AcDbEntity
  8
0
  6
HIDDEN
 62
   174
100
AcDbLine
 10
200.16489
 20
104.959314
 30
0.0
 11
200.16489
 21
116.959314
 31
0.0
  0
LWPOLYLINE
  5
168
100
AcDbEntity
  8
0
  6
Continuous
 62
   174
100
AcDbPolyline
 90
        6
 70
   128
 10
32.21423
 20
165.237484
 10
32.163486
 20
165.448501
 10
32.086582
 20
166.170749
 10
32.163501
 20
166.892988
 10
32.391601
 20
167.630007
 10
32.75771
 20
168.381654
  0
LINE
  5
169
100
AcDbEntity
  8
0
  6
HIDDEN
 62
   174
100
AcDbLine
 10
62.66489
 20
180.959314
 30
0.0
 11
63.065215
 21
180.959314
 31
0.0
  0
LINE
  5
16A
100
AcDbEntity
  8
0
  6
Continuous
 62
   174
100
AcDbLine
 10
49.56489
 20
132.470031
 30
0.0
 11
49.56489
 21
136.46607
 31
0.0
  0
LINE
  5
16B
100
AcDbEntity
  8
0
  6
HIDDEN
 62
   174
100
AcDbLine
 10
77.56489
 20
151.959314
 30
0.0
 11
54.56489
 21
151.959314
 31
0.0
  0
LINE
  5
16C
100
AcDbEntity
  8
0
  6
HIDDEN
 62
   174
100
AcDbLine
 10
112.56489
 20
114.959314
 30
0.0
 11
112.56489
 21
104.959314
 31
0.0
  0
LINE
  5
16D
100
AcDbEntity
  8
0
  6
HIDDEN
 62
   174
100
AcDbLine
 10
43.36489
 20
143.574959
 30
0.0
 11
49.56489
 21
143.574959
 31
0.0
  0
LINE
  5
16E
100
AcDbEntity
  8
0
  6
Continuous
 62
   174
100
AcDbLine
 10
49.56489
 20
124.970369
 30
0.0
 11
49.56489
 21
125.28774
 31
0.0
  0
LINE
  5
16F
100
AcDbEntity
  8
0
  6
HIDDEN
 62
   174
100
AcDbLine
 10
94.785184
 20
164.909314
 30
0.0
 11
94.785184
 21
164.959314
 31
0.0
  0
ARC
  5
170
100
AcDbEntity
  8
0
  6
Continuous
 62
   174
100
AcDbCircle
 10
170.06489
 20
114.959314
 30
0.0
 40
3.3
100
AcDbArc
 50
180.0
 51
360.0
  0
LINE
  5
171
100
AcDbEntity
  8
0
  6
HIDDEN
 62
   174
100
AcDbLine
 10
35.86489
 20
168.537424
 30
0.0
 11
35.86489
 21
163.959764
 31
0.0
  0
ARC
  5
172
100
AcDbEntity
  8
0
  6
Continuous
 62
   174
100
AcDbCircle
 10
138.06489
 20
114.959314
 30
0.0
 40
3.3
100
AcDbArc
 50
0.0
 51
180.0
  0
LINE
  5
173
100
AcDbEntity
  8
0
  6
Continuous
 62
   174
100
AcDbLine
 10
39.56489
 20
179.574046
 30
0.0
 11
39.56489
 21
172.967656
 31
0.0
  0
LINE
  5
174
100
AcDbEntity
  8
0
  6
HIDDEN
 62
   174
100
AcDbLine
 10
107.583107
 20
114.959314
 30
0.0
 11
112.583095
 21
114.959314
 31
0.0
  0
LINE
  5
175
100
AcDbEntity
  8
0
  6
HIDDEN
 62
   174
100
AcDbLine
 10
195.583055
 20
114.959314
 30
0.0
 11
200.583042
 21
114.959314
 31
0.0
  0
LINE
  5
176
100
AcDbEntity
  8
0
  6
HIDDEN
 62
   174
100
AcDbLine
 10
35.86489
 20
177.381205
 30
0.0
 11
32.75771
 21
177.381205
 31
0.0
  0
LINE
  5
177
100
AcDbEntity
  8
0
  6
HIDDEN
 62
   174
100
AcDbLine
 10
68.321158
 20
180.959314
 30
0.0
 11
69.06489
 21
180.959314
 31
0.0
  0
LINE
  5
178
100
AcDbEntity
  8
0
  6
HIDDEN
 62
   174
100
AcDbLine
 10
95.06489
 20
164.909314
 30
0.0
 11
95.06489
 21
164.959314
 31
0.0
  0
ENDBLK
  5
179
100
AcDbEntity
  8
0
100
AcDbBlockEnd
  0
BLOCK
  5
17C
100
AcDbEntity
  8
0
100
AcDbBlockBegin
  2
*B2
 70
     0
 10
0.0
 20
0.0
 30
0.0
  3
*B2
  1

  0
ARC
  5
17D
100
AcDbEntity
  8
0
  6
Continuous
 62
   174
100
AcDbCircle
 10
66.06489
 20
44.686947
 30
0.0
 40
3.4
100
AcDbArc
 50
-270.0
 51
-90.0
  0
ARC
  5
17E
100
AcDbEntity
  8
0
  6
Continuous
 62
   174
100
AcDbCircle
 10
66.06489
 20
44.686947
 30
0.0
 40
3.4
100
AcDbArc
 50
-90.0
 51
90.0
  0
ARC
  5
17F
100
AcDbEntity
  8
0
  6
Continuous
 62
   174
100
AcDbCircle
 10
66.06489
 20
44.686947
 30
0.0
 40
3.0
100
AcDbArc
 50
-217.286546
 51
-52.713454
  0
LINE
  5
180
100
AcDbEntity
  8
0
  6
Continuous
 62
   174
100
AcDbLine
 10
63.678043
 20
46.504352
 30
0.0
 11
67.882295
 21
42.3001
 31
0.0
  0
ARC
  5
181
100
AcDbEntity
  8
0
  6
Continuous
 62
   174
100
AcDbCircle
 10
66.06489
 20
44.686947
 30
0.0
 40
3.0
100
AcDbArc
 50
-41.228296
 51
131.228296
  0
LINE
  5
182
100
AcDbEntity
  8
0
  6
Continuous
 62
   174
100
AcDbLine
 10
68.321158
 20
42.709764
 30
0.0
 11
64.087707
 21
46.943216
 31
0.0
  0
LINE
  5
183
100
AcDbEntity
  8
0
  6
Continuous
 62
   174
100
AcDbLine
 10
39.56489
 20
51.186947
 30
0.0
 11
36.56489
 21
51.186947
 31
0.0
  0
LINE
  5
184
100
AcDbEntity
  8
0
  6
Continuous
 62
   174
100
AcDbLine
 10
39.56489
 20
38.186947
 30
0.0
 11
36.56489
 21
38.186947
 31
0.0
  0
LINE
  5
185
100
AcDbEntity
  8
0
  6
Continuous
 62
   174
100
AcDbLine
 10
39.56489
 20
51.186947
 30
0.0
 11
36.56489
 21
51.186947
 31
0.0
  0
LINE
  5
186
100
AcDbEntity
  8
0
  6
Continuous
 62
   174
100
AcDbLine
 10
39.56489
 20
38.186947
 30
0.0
 11
36.56489
 21
38.186947
 31
0.0
  0
LINE
  5
187
100
AcDbEntity
  8
0
  6
Continuous
 62
   174
100
AcDbLine
 10
36.56489
 20
53.686947
 30
0.0
 11
35.86489
 21
53.686947
 31
0.0
  0
LINE
  5
188
100
AcDbEntity
  8
0
  6
Continuous
 62
   174
100
AcDbLine
 10
36.56489
 20
35.686947
 30
0.0
 11
35.86489
 21
35.686947
 31
0.0
  0
LINE
  5
189
100
AcDbEntity
  8
0
  6
Continuous
 62
   174
100
AcDbLine
 10
36.56489
 20
53.686947
 30
0.0
 11
35.86489
 21
53.686947
 31
0.0
  0
LINE
  5
18A
100
AcDbEntity
  8
0
  6
Continuous
 62
   174
100
AcDbLine
 10
32.06489
 20
52.486947
 30
0.0
 11
32.163486
 21
52.657721
 31
0.0
  0
ARC
  5
18B
100
AcDbEntity
  8
0
  6
HIDDEN
 62
   174
100
AcDbCircle
 10
198.06489
 20
34.561947
 30
0.0
 40
2.1
100
AcDbArc
 50
0.0
 51
180.0
  0
LINE
  5
18C
100
AcDbEntity
  8
0
  6
Continuous
 62
   174
100
AcDbLine
 10
39.56489
 20
52.702208
 30
0.0
 11
39.56489
 21
51.308661
 31
0.0
  0
ARC
  5
18D
100
AcDbEntity
  8
0
  6
HIDDEN
 62
   174
100
AcDbCircle
 10
110.06489
 20
54.561947
 30
0.0
 40
2.5
100
AcDbArc
 50
0.0
 51
180.0
  0
LINE
  5
18E
100
AcDbEntity
  8
0
  6
Continuous
 62
   174
100
AcDbLine
 10
35.86489
 20
52.540973
 30
0.0
 11
35.86489
 21
44.612625
 31
0.0
  0
ARC
  5
18F
100
AcDbEntity
  8
0
  6
HIDDEN
 62
   174
100
AcDbCircle
 10
198.06489
 20
34.561947
 30
0.0
 40
2.5
100
AcDbArc
 50
-118.807171
 51
0.0
  0
LINE
  5
190
100
AcDbEntity
  8
0
  6
Continuous
 62
   174
100
AcDbLine
 10
43.36489
 20
36.08862
 30
0.0
 11
43.36489
 21
35.02073
 31
0.0
  0
LINE
  5
191
100
AcDbEntity
  8
0
  6
HIDDEN
 62
   174
100
AcDbLine
 10
35.86489
 20
44.597014
 30
0.0
 11
35.86489
 21
36.938074
 31
0.0
  0
LWPOLYLINE
  5
192
100
AcDbEntity
  8
0
  6
HIDDEN
 62
   174
100
AcDbPolyline
 90
        4
 70
   128
 10
32.75771
 20
52.525753
 10
32.42981
 20
51.440784
 10
32.197055
 20
50.381786
 10
32.06489
 20
49.333542
  0
LINE
  5
193
100
AcDbEntity
  8
0
  6
HIDDEN
 62
   174
100
AcDbLine
 10
49.56489
 20
42.188196
 30
0.0
 11
49.56489
 21
47.189065
 31
0.0
  0
LWPOLYLINE
  5
194
100
AcDbEntity
  8
0
  6
Continuous
 62
   174
100
AcDbPolyline
 90
        3
 70
   128
 10
32.75771
 20
52.525753
 10
32.391608
 20
52.525753
 10
32.163508
 20
52.525753
  0
LINE
  5
195
100
AcDbEntity
  8
0
  6
HIDDEN
 62
   174
100
AcDbLine
 10
43.36489
 20
49.767996
 30
0.0
 11
49.56489
 21
49.767996
 31
0.0
  0
LINE
  5
196
100
AcDbEntity
  8
0
  6
Continuous
 62
   174
100
AcDbLine
 10
39.56489
 20
36.686947
 30
0.0
 11
51.60685
 21
36.686947
 31
0.0
  0
LINE
  5
197
100
AcDbEntity
  8
0
  6
HIDDEN
 62
   174
100
AcDbLine
 10
97.06489
 20
50.686947
 30
0.0
 11
97.01489
 21
50.686947
 31
0.0
  0
LINE
  5
198
100
AcDbEntity
  8
0
  6
HIDDEN
 62
   174
100
AcDbLine
 10
97.06489
 20
50.702383
 30
0.0
 11
97.06489
 21
44.702695
 31
0.0
  0
LINE
  5
199
100
AcDbEntity
  8
0
  6
Continuous
 62
   174
100
AcDbLine
 10
211.06489
 20
59.686947
 30
0.0
 11
97.06489
 21
59.686947
 31
0.0
  0
LINE
  5
19A
100
AcDbEntity
  8
0
  6
Continuous
 62
   174
100
AcDbLine
 10
81.06489
 20
59.686947
 30
0.0
 11
97.06489
 21
59.686947
 31
0.0
  0
LINE
  5
19B
100
AcDbEntity
  8
0
  6
HIDDEN
 62
   174
100
AcDbLine
 10
36.56489
 20
51.202233
 30
0.0
 11
36.56489
 21
38.202945
 31
0.0
  0
LWPOLYLINE
  5
19C
100
AcDbEntity
  8
0
  6
HIDDEN
 62
   174
100
AcDbPolyline
 90
        4
 70
   128
 10
32.06489
 20
47.789225
 10
32.198011
 20
46.735517
 10
32.431093
 20
45.677104
 10
32.75771
 20
44.597014
  0
LINE
  5
19D
100
AcDbEntity
  8
0
  6
Continuous
 62
   174
100
AcDbLine
 10
32.105115
 20
52.525753
 30
0.0
 11
32.18159
 21
52.525753
 31
0.0
  0
LINE
  5
19E
100
AcDbEntity
  8
0
  6
HIDDEN
 62
   174
100
AcDbLine
 10
43.36489
 20
53.302914
 30
0.0
 11
49.56489
 21
53.302914
 31
0.0
  0
LINE
  5
19F
100
AcDbEntity
  8
0
  6
HIDDEN
 62
   174
100
AcDbLine
 10
43.36489
 20
47.184829
 30
0.0
 11
49.56489
 21
47.184829
 31
0.0
  0
LWPOLYLINE
  5
1A0
100
AcDbEntity
  8
0
  6
HIDDEN
 62
   174
100
AcDbPolyline
 90
        4
 70
   128
 10
51.60685
 20
36.686947
 10
51.597855
 20
36.743435
 10
51.577449
 20
36.912722
 10
51.56489
 20
37.186947
  0
LINE
  5
1A1
100
AcDbEntity
  8
0
  6
HIDDEN
 62
   174
100
AcDbLine
 10
51.56489
 20
37.203033
 30
0.0
 11
51.56489
 21
52.202145
 31
0.0
  0
LINE
  5
1A2
100
AcDbEntity
  8
0
  6
Continuous
 62
   174
100
AcDbLine
 10
36.56489
 20
35.686947
 30
0.0
 11
35.86489
 21
35.686947
 31
0.0
  0
LINE
  5
1A3
100
AcDbEntity
  8
0
  6
Continuous
 62
   174
100
AcDbLine
 10
51.56489
 20
37.186947
 30
0.0
 11
51.56489
 21
38.441949
 31
0.0
  0
LINE
  5
1A4
100
AcDbEntity
  8
0
  6
Continuous
 62
   174
100
AcDbLine
 10
51.56489
 20
50.931945
 30
0.0
 11
51.56489
 21
52.186947
 31
0.0
  0
LINE
  5
1A5
100
AcDbEntity
  8
0
  6
Continuous
 62
   174
100
AcDbLine
 10
80.56489
 20
52.186947
 30
0.0
 11
80.56489
 21
37.186947
 31
0.0
  0
LINE
  5
1A6
100
AcDbEntity
  8
0
  6
Continuous
 62
   174
100
AcDbLine
 10
77.56489
 20
34.186947
 30
0.0
 11
54.56489
 21
34.186947
 31
0.0
  0
LINE
  5
1A7
100
AcDbEntity
  8
0
  6
HIDDEN
 62
   174
100
AcDbLine
 10
97.06489
 20
44.702695
 30
0.0
 11
97.06489
 21
38.703008
 31
0.0
  0
LINE
  5
1A8
100
AcDbEntity
  8
0
  6
Continuous
 62
   174
100
AcDbLine
 10
211.06489
 20
29.686947
 30
0.0
 11
97.06489
 21
29.686947
 31
0.0
  0
LINE
  5
1A9
100
AcDbEntity
  8
0
  6
Continuous
 62
   174
100
AcDbLine
 10
54.56489
 20
55.186947
 30
0.0
 11
77.56489
 21
55.186947
 31
0.0
  0
LINE
  5
1AA
100
AcDbEntity
  8
0
  6
HIDDEN
 62
   174
100
AcDbLine
 10
39.56489
 20
38.202945
 30
0.0
 11
39.56489
 21
51.202233
 31
0.0
  0
LINE
  5
1AB
100
AcDbEntity
  8
0
  6
Continuous
 62
   174
100
AcDbLine
 10
36.56489
 20
37.988815
 30
0.0
 11
36.56489
 21
51.416363
 31
0.0
  0
LINE
  5
1AC
100
AcDbEntity
  8
0
  6
Continuous
 62
   174
100
AcDbLine
 10
35.86489
 20
44.612625
 30
0.0
 11
35.86489
 21
36.954276
 31
0.0
  0
ARC
  5
1AD
100
AcDbEntity
  8
0
  6
HIDDEN
 62
   174
100
AcDbCircle
 10
198.06489
 20
34.561947
 30
0.0
 40
2.5
100
AcDbArc
 50
0.0
 51
180.0
  0
LINE
  5
1AE
100
AcDbEntity
  8
0
  6
HIDDEN
 62
   174
100
AcDbLine
 10
35.86489
 20
52.525753
 30
0.0
 11
35.86489
 21
44.597014
 31
0.0
  0
LINE
  5
1AF
100
AcDbEntity
  8
0
  6
Continuous
 62
   174
100
AcDbLine
 10
35.86489
 20
52.525753
 30
0.0
 11
32.75771
 21
52.525753
 31
0.0
  0
LINE
  5
1B0
100
AcDbEntity
  8
0
  6
Continuous
 62
   174
100
AcDbLine
 10
43.36489
 20
53.299577
 30
0.0
 11
49.56489
 21
53.299577
 31
0.0
  0
LWPOLYLINE
  5
1B1
100
AcDbEntity
  8
0
  6
Continuous
 62
   174
100
AcDbPolyline
 90
        6
 70
   128
 10
51.56489
 20
38.441949
 10
51.737232
 20
39.397911
 10
52.189033
 20
40.524351
 10
52.852103
 20
41.805341
 10
53.660634
 20
43.199357
 10
54.56489
 20
44.686947
  0
LINE
  5
1B2
100
AcDbEntity
  8
0
  6
HIDDEN
 62
   174
100
AcDbLine
 10
43.36489
 20
47.184829
 30
0.0
 11
43.36489
 21
42.185699
 31
0.0
  0
LINE
  5
1B3
100
AcDbEntity
  8
0
  6
Continuous
 62
   174
100
AcDbLine
 10
81.06489
 20
29.686947
 30
0.0
 11
97.06489
 21
29.686947
 31
0.0
  0
LINE
  5
1B4
100
AcDbEntity
  8
0
  6
Continuous
 62
   174
100
AcDbLine
 10
81.06489
 20
29.686947
 30
0.0
 11
81.06489
 21
59.686947
 31
0.0
  0
LINE
  5
1B5
100
AcDbEntity
  8
0
  6
Continuous
 62
   174
100
AcDbLine
 10
97.06489
 20
29.686947
 30
0.0
 11
97.06489
 21
59.686947
 31
0.0
  0
LINE
  5
1B6
100
AcDbEntity
  8
0
  6
Continuous
 62
   174
100
AcDbLine
 10
211.06489
 20
59.686947
 30
0.0
 11
211.06489
 21
29.686947
 31
0.0
  0
ARC
  5
1B7
100
AcDbEntity
  8
0
  6
HIDDEN
 62
   174
100
AcDbCircle
 10
198.06489
 20
34.561947
 30
0.0
 40
2.1
100
AcDbArc
 50
180.0
 51
360.0
  0
LINE
  5
1B8
100
AcDbEntity
  8
0
  6
Continuous
 62
   174
100
AcDbLine
 10
35.86489
 20
36.954276
 30
0.0
 11
35.86489
 21
35.703058
 31
0.0
  0
LINE
  5
1B9
100
AcDbEntity
  8
0
  6
HIDDEN
 62
   174
100
AcDbLine
 10
43.36489
 20
42.201533
 30
0.0
 11
43.36489
 21
39.623471
 31
0.0
  0
LINE
  5
1BA
100
AcDbEntity
  8
0
  6
Continuous
 62
   174
100
AcDbLine
 10
32.75771
 20
36.938074
 30
0.0
 11
35.86489
 21
36.938074
 31
0.0
  0
LINE
  5
1BB
100
AcDbEntity
  8
0
  6
HIDDEN
 62
   174
100
AcDbLine
 10
49.56489
 20
49.767996
 30
0.0
 11
49.56489
 21
53.302914
 31
0.0
  0
LINE
  5
1BC
100
AcDbEntity
  8
0
  6
HIDDEN
 62
   174
100
AcDbLine
 10
43.36489
 20
39.608894
 30
0.0
 11
49.56489
 21
39.608894
 31
0.0
  0
LINE
  5
1BD
100
AcDbEntity
  8
0
  6
HIDDEN
 62
   174
100
AcDbLine
 10
43.36489
 20
39.60747
 30
0.0
 11
49.56489
 21
39.60747
 31
0.0
  0
LINE
  5
1BE
100
AcDbEntity
  8
0
  6
Continuous
 62
   174
100
AcDbLine
 10
43.36489
 20
54.368536
 30
0.0
 11
49.56489
 21
54.368536
 31
0.0
  0
LINE
  5
1BF
100
AcDbEntity
  8
0
  6
Continuous
 62
   174
100
AcDbLine
 10
39.56489
 20
36.686947
 30
0.0
 11
51.60685
 21
36.686947
 31
0.0
  0
LINE
  5
1C0
100
AcDbEntity
  8
0
  6
HIDDEN
 62
   174
100
AcDbLine
 10
97.01489
 20
44.702695
 30
0.0
 11
97.01489
 21
50.702383
 31
0.0
  0
ARC
  5
1C1
100
AcDbEntity
  8
0
  6
HIDDEN
 62
   174
100
AcDbCircle
 10
110.06489
 20
54.561947
 30
0.0
 40
2.1
100
AcDbArc
 50
180.0
 51
360.0
  0
LINE
  5
1C2
100
AcDbEntity
  8
0
  6
HIDDEN
 62
   174
100
AcDbLine
 10
43.36489
 20
47.189065
 30
0.0
 11
49.56489
 21
47.189065
 31
0.0
  0
LINE
  5
1C3
100
AcDbEntity
  8
0
  6
Continuous
 62
   174
100
AcDbLine
 10
43.36489
 20
36.072551
 30
0.0
 11
49.56489
 21
36.072551
 31
0.0
  0
LINE
  5
1C4
100
AcDbEntity
  8
0
  6
HIDDEN
 62
   174
100
AcDbLine
 10
43.36489
 20
42.185699
 30
0.0
 11
49.56489
 21
42.185699
 31
0.0
  0
LINE
  5
1C5
100
AcDbEntity
  8
0
  6
Continuous
 62
   174
100
AcDbLine
 10
43.36489
 20
36.686947
 30
0.0
 11
43.36489
 21
36.072551
 31
0.0
  0
LINE
  5
1C6
100
AcDbEntity
  8
0
  6
Continuous
 62
   174
100
AcDbLine
 10
39.56489
 20
52.686947
 30
0.0
 11
51.60685
 21
52.686947
 31
0.0
  0
LINE
  5
1C7
100
AcDbEntity
  8
0
  6
HIDDEN
 62
   174
100
AcDbLine
 10
97.01489
 20
44.702695
 30
0.0
 11
97.01489
 21
38.703008
 31
0.0
  0
LINE
  5
1C8
100
AcDbEntity
  8
0
  6
Continuous
 62
   174
100
AcDbLine
 10
39.56489
 20
51.308661
 30
0.0
 11
39.56489
 21
38.096518
 31
0.0
  0
LINE
  5
1C9
100
AcDbEntity
  8
0
  6
Continuous
 62
   174
100
AcDbLine
 10
36.56489
 20
51.416363
 30
0.0
 11
36.56489
 21
53.70212
 31
0.0
  0
LWPOLYLINE
  5
1CA
100
AcDbEntity
  8
0
  6
Continuous
 62
   174
100
AcDbPolyline
 90
        4
 70
   128
 10
32.06489
 20
36.938074
 10
32.19801
 20
36.938074
 10
32.431096
 20
36.938074
 10
32.75771
 20
36.938074
  0
LINE
  5
1CB
100
AcDbEntity
  8
0
  6
HIDDEN
 62
   174
100
AcDbLine
 10
43.36489
 20
36.072746
 30
0.0
 11
49.56489
 21
36.072746
 31
0.0
  0
LINE
  5
1CC
100
AcDbEntity
  8
0
  6
HIDDEN
 62
   174
100
AcDbLine
 10
43.36489
 20
42.188196
 30
0.0
 11
49.56489
 21
42.188196
 31
0.0
  0
LINE
  5
1CD
100
AcDbEntity
  8
0
  6
Continuous
 62
   174
100
AcDbLine
 10
35.86489
 20
44.597014
 30
0.0
 11
32.75771
 21
44.597014
 31
0.0
  0
LINE
  5
1CE
100
AcDbEntity
  8
0
  6
HIDDEN
 62
   174
100
AcDbLine
 10
43.36489
 20
49.763429
 30
0.0
 11
49.56489
 21
49.763429
 31
0.0
  0
LINE
  5
1CF
100
AcDbEntity
  8
0
  6
Continuous
 62
   174
100
AcDbLine
 10
43.36489
 20
53.299577
 30
0.0
 11
43.36489
 21
52.686947
 31
0.0
  0
LINE
  5
1D0
100
AcDbEntity
  8
0
  6
Continuous
 62
   174
100
AcDbLine
 10
97.06489
 20
59.686947
 30
0.0
 11
97.06489
 21
29.686947
 31
0.0
  0
LINE
  5
1D1
100
AcDbEntity
  8
0
  6
Continuous
 62
   174
100
AcDbLine
 10
39.56489
 20
38.096518
 30
0.0
 11
39.56489
 21
36.702971
 31
0.0
  0
LINE
  5
1D2
100
AcDbEntity
  8
0
  6
HIDDEN
 62
   174
100
AcDbLine
 10
43.36489
 20
49.778733
 30
0.0
 11
43.36489
 21
47.200459
 31
0.0
  0
LWPOLYLINE
  5
1D3
100
AcDbEntity
  8
0
  6
HIDDEN
 62
   174
100
AcDbPolyline
 90
        7
 70
   128
 10
32.75771
 20
44.597014
 10
32.391584
 20
43.295047
 10
32.163486
 20
42.018445
 10
32.086582
 20
40.767475
 10
32.163501
 20
39.51652
 10
32.391601
 20
38.239965
 10
32.75771
 20
36.938074
  0
LINE
  5
1D4
100
AcDbEntity
  8
0
  6
Continuous
 62
   174
100
AcDbLine
 10
32.06489
 20
52.502098
 30
0.0
 11
32.06489
 21
49.348985
 31
0.0
  0
LINE
  5
1D5
100
AcDbEntity
  8
0
  6
Continuous
 62
   174
100
AcDbLine
 10
32.06489
 20
47.789225
 30
0.0
 11
32.06489
 21
49.333542
 31
0.0
  0
LINE
  5
1D6
100
AcDbEntity
  8
0
  6
HIDDEN
 62
   174
100
AcDbLine
 10
49.56489
 20
36.072746
 30
0.0
 11
49.56489
 21
39.608894
 31
0.0
  0
LINE
  5
1D7
100
AcDbEntity
  8
0
  6
Continuous
 62
   174
100
AcDbLine
 10
32.06489
 20
47.804825
 30
0.0
 11
32.06489
 21
36.954276
 31
0.0
  0
LWPOLYLINE
  5
1D8
100
AcDbEntity
  8
0
  6
Continuous
 62
   174
100
AcDbPolyline
 90
        4
 70
   128
 10
32.06489
 20
49.333542
 10
32.198011
 20
50.38725
 10
32.431093
 20
51.445663
 10
32.75771
 20
52.525753
  0
LWPOLYLINE
  5
1D9
100
AcDbEntity
  8
0
  6
Continuous
 62
   174
100
AcDbPolyline
 90
        4
 70
   128
 10
32.75771
 20
44.597014
 10
32.42981
 20
45.681983
 10
32.197055
 20
46.740981
 10
32.06489
 20
47.789225
  0
LWPOLYLINE
  5
1DA
100
AcDbEntity
  8
0
  6
Continuous
 62
   174
100
AcDbPolyline
 90
        7
 70
   128
 10
32.75771
 20
36.938074
 10
32.391584
 20
38.240041
 10
32.163486
 20
39.516643
 10
32.086582
 20
40.767613
 10
32.163501
 20
42.018568
 10
32.391601
 20
43.295123
 10
32.75771
 20
44.597014
  0
LINE
  5
1DB
100
AcDbEntity
  8
0
  6
HIDDEN
 62
   174
100
AcDbLine
 10
43.36489
 20
39.60747
 30
0.0
 11
43.36489
 21
36.686947
 31
0.0
  0
ARC
  5
1DC
100
AcDbEntity
  8
0
  6
Continuous
 62
   174
100
AcDbCircle
 10
54.56489
 20
37.186947
 30
0.0
 40
3.0
100
AcDbArc
 50
-180.0
 51
-90.0
  0
LINE
  5
1DD
100
AcDbEntity
  8
0
  6
HIDDEN
 62
   174
100
AcDbLine
 10
43.36489
 20
52.686947
 30
0.0
 11
43.36489
 21
49.763429
 31
0.0
  0
LINE
  5
1DE
100
AcDbEntity
  8
0
  6
Continuous
 62
   174
100
AcDbLine
 10
39.56489
 20
52.686947
 30
0.0
 11
51.60685
 21
52.686947
 31
0.0
  0
LINE
  5
1DF
100
AcDbEntity
  8
0
  6
HIDDEN
 62
   174
100
AcDbLine
 10
97.06489
 20
38.686947
 30
0.0
 11
97.01489
 21
38.686947
 31
0.0
  0
LINE
  5
1E0
100
AcDbEntity
  8
0
  6
HIDDEN
 62
   174
100
AcDbLine
 10
51.06489
 20
34.703146
 30
0.0
 11
51.06489
 21
54.702033
 31
0.0
  0
LINE
  5
1E1
100
AcDbEntity
  8
0
  6
Continuous
 62
   174
100
AcDbLine
 10
36.56489
 20
35.703058
 30
0.0
 11
36.56489
 21
37.988815
 31
0.0
  0
LINE
  5
1E2
100
AcDbEntity
  8
0
  6
Continuous
 62
   174
100
AcDbLine
 10
35.86489
 20
53.70212
 30
0.0
 11
35.86489
 21
52.540973
 31
0.0
  0
ARC
  5
1E3
100
AcDbEntity
  8
0
  6
HIDDEN
 62
   174
100
AcDbCircle
 10
110.06489
 20
54.561947
 30
0.0
 40
2.1
100
AcDbArc
 50
0.0
 51
180.0
  0
ARC
  5
1E4
100
AcDbEntity
  8
0
  6
HIDDEN
 62
   174
100
AcDbCircle
 10
110.06489
 20
54.561947
 30
0.0
 40
2.5
100
AcDbArc
 50
-118.810059
 51
0.0
  0
LINE
  5
1E5
100
AcDbEntity
  8
0
  6
Continuous
 62
   174
100
AcDbLine
 10
43.36489
 20
54.383599
 30
0.0
 11
43.36489
 21
53.314859
 31
0.0
  0
LINE
  5
1E6
100
AcDbEntity
  8
0
  6
HIDDEN
 62
   174
100
AcDbLine
 10
35.86489
 20
44.597014
 30
0.0
 11
32.75771
 21
44.597014
 31
0.0
  0
LINE
  5
1E7
100
AcDbEntity
  8
0
  6
Continuous
 62
   174
100
AcDbLine
 10
43.36489
 20
35.004489
 30
0.0
 11
49.56489
 21
35.004489
 31
0.0
  0
LWPOLYLINE
  5
1E8
100
AcDbEntity
  8
0
  6
HIDDEN
 62
   174
100
AcDbPolyline
 90
        4
 70
   128
 10
51.56489
 20
52.186947
 10
51.577449
 20
52.46117
 10
51.597854
 20
52.630457
 10
51.60685
 20
52.686947
  0
LWPOLYLINE
  5
1E9
100
AcDbEntity
  8
0
  6
Continuous
 62
   174
100
AcDbPolyline
 90
        6
 70
   128
 10
54.56489
 20
44.686947
 10
53.659574
 20
46.176307
 10
52.851269
 20
47.570056
 10
52.189421
 20
48.848717
 10
51.737595
 20
49.974822
 10
51.56489
 20
50.931945
  0
LINE
  5
1EA
100
AcDbEntity
  8
0
  6
Continuous
 62
   174
100
AcDbLine
 10
51.06489
 20
52.686947
 30
0.0
 11
51.06489
 21
55.686947
 31
0.0
  0
ARC
  5
1EB
100
AcDbEntity
  8
0
  6
Continuous
 62
   174
100
AcDbCircle
 10
77.56489
 20
37.186947
 30
0.0
 40
3.0
100
AcDbArc
 50
-90.0
 51
0.0
  0
LINE
  5
1EC
100
AcDbEntity
  8
0
  6
Continuous
 62
   174
100
AcDbLine
 10
49.56489
 20
34.686947
 30
0.0
 11
50.06489
 21
34.686947
 31
0.0
  0
LINE
  5
1ED
100
AcDbEntity
  8
0
  6
Continuous
 62
   174
100
AcDbLine
 10
91.56489
 20
47.360895
 30
0.0
 11
91.56489
 21
42.012999
 31
0.0
  0
LINE
  5
1EE
100
AcDbEntity
  8
0
  6
Continuous
 62
   174
100
AcDbLine
 10
81.06489
 20
33.686947
 30
0.0
 11
51.06489
 21
33.686947
 31
0.0
  0
LINE
  5
1EF
100
AcDbEntity
  8
0
  6
Continuous
 62
   174
100
AcDbLine
 10
77.56489
 20
52.202145
 30
0.0
 11
77.56489
 21
55.202095
 31
0.0
  0
LINE
  5
1F0
100
AcDbEntity
  8
0
  6
Continuous
 62
   174
100
AcDbLine
 10
51.06489
 20
33.686947
 30
0.0
 11
51.06489
 21
36.686947
 31
0.0
  0
LINE
  5
1F1
100
AcDbEntity
  8
0
  6
Continuous
 62
   174
100
AcDbLine
 10
49.56489
 20
34.703146
 30
0.0
 11
49.56489
 21
34.815734
 31
0.0
  0
LINE
  5
1F2
100
AcDbEntity
  8
0
  6
Continuous
 62
   174
100
AcDbLine
 10
77.56489
 20
52.186947
 30
0.0
 11
77.56489
 21
37.186947
 31
0.0
  0
ARC
  5
1F3
100
AcDbEntity
  8
0
  6
Continuous
 62
   174
100
AcDbCircle
 10
170.06489
 20
44.686947
 30
0.0
 40
9.4
100
AcDbArc
 50
-167.614007
 51
0.0
  0
LINE
  5
1F4
100
AcDbEntity
  8
0
  6
Continuous
 62
   174
100
AcDbLine
 10
80.56489
 20
37.186947
 30
0.0
 11
80.56489
 21
52.186947
 31
0.0
  0
LINE
  5
1F5
100
AcDbEntity
  8
0
  6
Continuous
 62
   174
100
AcDbLine
 10
51.56489
 20
38.441949
 30
0.0
 11
51.56489
 21
37.186947
 31
0.0
  0
LINE
  5
1F6
100
AcDbEntity
  8
0
  6
Continuous
 62
   174
100
AcDbLine
 10
49.56489
 20
52.728337
 30
0.0
 11
49.56489
 21
53.314859
 31
0.0
  0
ARC
  5
1F7
100
AcDbEntity
  8
0
  6
Continuous
 62
   174
100
AcDbCircle
 10
170.06489
 20
44.686947
 30
0.0
 40
9.4
100
AcDbArc
 50
0.0
 51
180.0
  0
ARC
  5
1F8
100
AcDbEntity
  8
0
  6
Continuous
 62
   174
100
AcDbCircle
 10
138.06489
 20
44.686947
 30
0.0
 40
9.4
100
AcDbArc
 50
-180.0
 51
0.0
  0
LINE
  5
1F9
100
AcDbEntity
  8
0
  6
Continuous
 62
   174
100
AcDbLine
 10
77.56489
 20
34.203295
 30
0.0
 11
77.56489
 21
37.203033
 31
0.0
  0
LINE
  5
1FA
100
AcDbEntity
  8
0
  6
Continuous
 62
   174
100
AcDbLine
 10
49.56489
 20
54.589657
 30
0.0
 11
49.56489
 21
54.702033
 31
0.0
  0
LINE
  5
1FB
100
AcDbEntity
  8
0
  6
Continuous
 62
   174
100
AcDbLine
 10
50.06489
 20
54.686947
 30
0.0
 11
51.06489
 21
54.686947
 31
0.0
  0
LINE
  5
1FC
100
AcDbEntity
  8
0
  6
Continuous
 62
   174
100
AcDbLine
 10
49.56489
 20
36.08862
 30
0.0
 11
49.56489
 21
36.676841
 31
0.0
  0
LINE
  5
1FD
100
AcDbEntity
  8
0
  6
Continuous
 62
   174
100
AcDbLine
 10
54.56489
 20
52.202145
 30
0.0
 11
54.56489
 21
55.202095
 31
0.0
  0
LINE
  5
1FE
100
AcDbEntity
  8
0
  6
Continuous
 62
   174
100
AcDbLine
 10
54.56489
 20
37.186947
 30
0.0
 11
54.56489
 21
44.686947
 31
0.0
  0
LINE
  5
1FF
100
AcDbEntity
  8
0
  6
Continuous
 62
   174
100
AcDbLine
 10
54.56489
 20
44.686947
 30
0.0
 11
54.56489
 21
52.186947
 31
0.0
  0
ARC
  5
200
100
AcDbEntity
  8
0
  6
Continuous
 62
   174
100
AcDbCircle
 10
138.06489
 20
44.686947
 30
0.0
 40
10.48
100
AcDbArc
 50
-360.0
 51
-180.0
  0
ARC
  5
201
100
AcDbEntity
  8
0
  6
Continuous
 62
   174
100
AcDbCircle
 10
138.06489
 20
44.686947
 30
0.0
 40
10.48
100
AcDbArc
 50
-180.0
 51
-61.197359
  0
ARC
  5
202
100
AcDbEntity
  8
0
  6
Continuous
 62
   174
100
AcDbCircle
 10
92.06489
 20
44.686947
 30
0.0
 40
2.720294
100
AcDbArc
 50
-259.408609
 51
-100.591391
  0
ARC
  5
203
100
AcDbEntity
  8
0
  6
Continuous
 62
   174
100
AcDbCircle
 10
170.06489
 20
44.686947
 30
0.0
 40
10.48
100
AcDbArc
 50
-180.0
 51
-61.205132
  0
LINE
  5
204
100
AcDbEntity
  8
0
  6
Continuous
 62
   174
100
AcDbLine
 10
50.06489
 20
34.686947
 30
0.0
 11
51.06489
 21
34.686947
 31
0.0
  0
LINE
  5
205
100
AcDbEntity
  8
0
  6
Continuous
 62
   174
100
AcDbLine
 10
49.56489
 20
34.815734
 30
0.0
 11
49.56489
 21
35.02073
 31
0.0
  0
ARC
  5
206
100
AcDbEntity
  8
0
  6
Continuous
 62
   174
100
AcDbCircle
 10
92.06489
 20
44.686947
 30
0.0
 40
2.720294
100
AcDbArc
 50
-79.408609
 51
79.408609
  0
ARC
  5
207
100
AcDbEntity
  8
0
  6
Continuous
 62
   174
100
AcDbCircle
 10
92.06489
 20
44.686947
 30
0.0
 40
3.0
100
AcDbArc
 50
-180.0
 51
0.0
  0
LINE
  5
208
100
AcDbEntity
  8
0
  6
Continuous
 62
   174
100
AcDbLine
 10
49.56489
 20
54.686947
 30
0.0
 11
50.06489
 21
54.686947
 31
0.0
  0
LINE
  5
209
100
AcDbEntity
  8
0
  6
HIDDEN
 62
   174
100
AcDbLine
 10
49.56489
 20
49.778733
 30
0.0
 11
49.56489
 21
52.728337
 31
0.0
  0
ARC
  5
20A
100
AcDbEntity
  8
0
  6
Continuous
 62
   174
100
AcDbCircle
 10
77.56489
 20
52.186947
 30
0.0
 40
3.0
100
AcDbArc
 50
0.0
 51
90.0
  0
LINE
  5
20B
100
AcDbEntity
  8
0
  6
HIDDEN
 62
   174
100
AcDbLine
 10
49.56489
 20
36.676841
 30
0.0
 11
49.56489
 21
39.623471
 31
0.0
  0
LINE
  5
20C
100
AcDbEntity
  8
0
  6
Continuous
 62
   174
100
AcDbLine
 10
54.56489
 20
34.203295
 30
0.0
 11
54.56489
 21
37.203033
 31
0.0
  0
LINE
  5
20D
100
AcDbEntity
  8
0
  6
Continuous
 62
   174
100
AcDbLine
 10
54.583071
 20
52.186947
 30
0.0
 11
51.583122
 21
52.186947
 31
0.0
  0
ARC
  5
20E
100
AcDbEntity
  8
0
  6
Continuous
 62
   174
100
AcDbCircle
 10
170.06489
 20
44.686947
 30
0.0
 40
10.48
100
AcDbArc
 50
-360.0
 51
-180.0
  0
LINE
  5
20F
100
AcDbEntity
  8
0
  6
HIDDEN
 62
   174
100
AcDbLine
 10
81.06489
 20
55.686947
 30
0.0
 11
81.06489
 21
33.686947
 31
0.0
  0
LINE
  5
210
100
AcDbEntity
  8
0
  6
Continuous
 62
   174
100
AcDbLine
 10
51.56489
 20
52.186947
 30
0.0
 11
51.56489
 21
50.931945
 31
0.0
  0
LINE
  5
211
100
AcDbEntity
  8
0
  6
Continuous
 62
   174
100
AcDbLine
 10
51.06489
 20
55.686947
 30
0.0
 11
81.06489
 21
55.686947
 31
0.0
  0
LINE
  5
212
100
AcDbEntity
  8
0
  6
Continuous
 62
   174
100
AcDbLine
 10
49.56489
 20
54.383599
 30
0.0
 11
49.56489
 21
54.589657
 31
0.0
  0
ARC
  5
213
100
AcDbEntity
  8
0
  6
Continuous
 62
   174
100
AcDbCircle
 10
138.06489
 20
44.686947
 30
0.0
 40
9.4
100
AcDbArc
 50
0.0
 51
180.0
  0
LINE
  5
214
100
AcDbEntity
  8
0
  6
Continuous
 62
   174
100
AcDbLine
 10
80.583133
 20
37.186947
 30
0.0
 11
77.582971
 21
37.186947
 31
0.0
  0
ARC
  5
215
100
AcDbEntity
  8
0
  6
Continuous
 62
   174
100
AcDbCircle
 10
54.56489
 20
52.186947
 30
0.0
 40
3.0
100
AcDbArc
 50
-270.0
 51
-180.0
  0
LINE
  5
216
100
AcDbEntity
  8
0
  6
Continuous
 62
   174
100
AcDbLine
 10
77.56489
 20
55.186947
 30
0.0
 11
54.56489
 21
55.186947
 31
0.0
  0
LINE
  5
217
100
AcDbEntity
  8
0
  6
HIDDEN
 62
   174
100
AcDbLine
 10
49.56489
 20
42.201533
 30
0.0
 11
49.56489
 21
47.200459
 31
0.0
  0
LINE
  5
218
100
AcDbEntity
  8
0
  6
Continuous
 62
   174
100
AcDbLine
 10
77.582971
 20
52.186947
 30
0.0
 11
80.583133
 21
52.186947
 31
0.0
  0
LINE
  5
219
100
AcDbEntity
  8
0
  6
Continuous
 62
   174
100
AcDbLine
 10
50.06489
 20
54.686947
 30
0.0
 11
51.06489
 21
54.686947
 31
0.0
  0
LINE
  5
21A
100
AcDbEntity
  8
0
  6
HIDDEN
 62
   174
100
AcDbLine
 10
51.06489
 20
36.686947
 30
0.0
 11
51.06489
 21
52.686947
 31
0.0
  0
LINE
  5
21B
100
AcDbEntity
  8
0
  6
Continuous
 62
   174
100
AcDbLine
 10
54.56489
 20
34.186947
 30
0.0
 11
77.56489
 21
34.186947
 31
0.0
  0
LINE
  5
21C
100
AcDbEntity
  8
0
  6
Continuous
 62
   174
100
AcDbLine
 10
54.56489
 20
52.186947
 30
0.0
 11
77.56489
 21
52.186947
 31
0.0
  0
ARC
  5
21D
100
AcDbEntity
  8
0
  6
Continuous
 62
   174
100
AcDbCircle
 10
170.06489
 20
44.686947
 30
0.0
 40
9.4
100
AcDbArc
 50
180.0
 51
192.385993
  0
ARC
  5
21E
100
AcDbEntity
  8
0
  6
Continuous
 62
   174
100
AcDbCircle
 10
92.06489
 20
44.686947
 30
0.0
 40
3.0
100
AcDbArc
 50
-360.0
 51
-180.0
  0
LINE
  5
21F
100
AcDbEntity
  8
0
  6
Continuous
 62
   174
100
AcDbLine
 10
51.583122
 20
37.186947
 30
0.0
 11
54.583071
 21
37.186947
 31
0.0
  0
LINE
  5
220
100
AcDbEntity
  8
0
  6
Continuous
 62
   174
100
AcDbLine
 10
77.56489
 20
37.186947
 30
0.0
 11
54.56489
 21
37.186947
 31
0.0
  0
LINE
  5
221
100
AcDbEntity
  8
0
  6
Continuous
 62
   174
100
AcDbLine
 10
92.56489
 20
42.012999
 30
0.0
 11
92.56489
 21
47.360895
 31
0.0
  0
ENDBLK
  5
222
100
AcDbEntity
  8
0
100
AcDbBlockEnd
  0
BLOCK
  5
225
100
AcDbEntity
  8
0
100
AcDbBlockBegin
  2
*B3
 70
     0
 10
0.0
 20
0.0
 30
0.0
  3
*B3
  1

  0
LINE
  5
226
100
AcDbEntity
  8
0
  6
Continuous
 62
   172
100
AcDbLine
 10
68.880078
 20
126.041784
 30
0.0
 11
45.291479
 21
85.928514
 31
0.0
  0
LINE
  5
227
100
AcDbEntity
  8
0
  6
Continuous
 62
   172
100
AcDbLine
 10
45.291479
 20
85.928514
 30
0.0
 11
34.080078
 21
85.928514
 31
0.0
  0
ENDBLK
  5
228
100
AcDbEntity
  8
0
100
AcDbBlockEnd
  0
BLOCK
  5
22B
100
AcDbEntity
  8
0
100
AcDbBlockBegin
  2
*B4
 70
     0
 10
0.0
 20
0.0
 30
0.0
  3
*B4
  1

  0
LINE
  5
22C
100
AcDbEntity
  8
0
  6
Continuous
 62
   172
100
AcDbLine
 10
42.961938
 20
88.359924
 30
0.0
 11
40.561938
 21
89.241784
 31
0.0
  0
LINE
  5
22D
100
AcDbEntity
  8
0
  6
Continuous
 62
   172
100
AcDbLine
 10
42.961938
 20
88.359924
 30
0.0
 11
40.561938
 21
87.641784
 31
0.0
  0
LINE
  5
22E
100
AcDbEntity
  8
0
  6
Continuous
 62
   172
100
AcDbLine
 10
41.361938
 20
88.359924
 30
0.0
 11
42.961938
 21
88.359924
 31
0.0
  0
LINE
  5
22F
100
AcDbEntity
  8
0
  6
Continuous
 62
   172
100
AcDbLine
 10
42.961938
 20
102.123644
 30
0.0
 11
40.561938
 21
101.241784
 31
0.0
  0
LINE
  5
230
100
AcDbEntity
  8
0
  6
Continuous
 62
   172
100
AcDbLine
 10
42.961938
 20
102.123644
 30
0.0
 11
40.561938
 21
102.841784
 31
0.0
  0
LINE
  5
231
100
AcDbEntity
  8
0
  6
Continuous
 62
   172
100
AcDbLine
 10
41.361938
 20
102.123644
 30
0.0
 11
42.961938
 21
102.123644
 31
0.0
  0
ARC
  5
232
100
AcDbEntity
  8
0
  6
Continuous
 62
   172
100
AcDbCircle
 10
41.361938
 20
95.241784
 30
0.0
 40
6.88186
100
AcDbArc
 50
-270.0
 51
-90.0
  0
ENDBLK
  5
233
100
AcDbEntity
  8
0
100
AcDbBlockEnd
  0
BLOCK
  5
236
100
AcDbEntity
  8
0
100
AcDbBlockBegin
  2
*B5
 70
     0
 10
0.0
 20
0.0
 30
0.0
  3
*B5
  1

  0
ENDBLK
  5
237
100
AcDbEntity
  8
0
100
AcDbBlockEnd
  0
BLOCK
  5
239
100
AcDbEntity
  8
0
100
AcDbBlockBegin
  2
*B6
 70
     0
 10
0.0
 20
0.0
 30
0.0
  3
*B6
  1

  0
LINE
  5
23A
100
AcDbEntity
  8
0
  6
Continuous
 62
     0
100
AcDbLine
 10
224.018213
 20
154.968806
 30
0.0
 11
224.018213
 21
114.971031
 31
0.0
  0
SOLID
  5
23B
100
AcDbEntity
  8
0
  6
Continuous
 62
     0
100
AcDbTrace
 10
224.618118
 20
151.469006
 30
0.0
 11
224.018213
 21
154.968806
 31
0.0
 12
223.418095
 22
151.469006
 32
0.0
 13
223.418095
 23
151.469006
 33
0.0
  0
SOLID
  5
23C
100
AcDbEntity
  8
0
  6
Continuous
 62
     0
100
AcDbTrace
 10
223.418095
 20
118.470831
 30
0.0
 11
224.018213
 21
114.971031
 31
0.0
 12
224.618118
 22
118.470831
 32
0.0
 13
224.618118
 23
118.470831
 33
0.0
  0
ENDBLK
  5
23D
100
AcDbEntity
  8
0
100
AcDbBlockEnd
  0
BLOCK
  5
240
100
AcDbEntity
  8
0
100
AcDbBlockBegin
  2
*B7
 70
     0
 10
0.0
 20
0.0
 30
0.0
  3
*B7
  1

  0
LINE
  5
241
100
AcDbEntity
  8
0
  6
Continuous
 62
     0
100
AcDbLine
 10
236.018013
 20
164.968143
 30
0.0
 11
236.018013
 21
104.971481
 31
0.0
  0
SOLID
  5
242
100
AcDbEntity
  8
0
  6
Continuous
 62
     0
100
AcDbTrace
 10
236.61813
 20
161.468343
 30
0.0
 11
236.018013
 21
164.968143
 31
0.0
 12
235.418108
 22
161.468343
 32
0.0
 13
235.418108
 23
161.468343
 33
0.0
  0
SOLID
  5
243
100
AcDbEntity
  8
0
  6
Continuous
 62
     0
100
AcDbTrace
 10
235.418108
 20
108.471281
 30
0.0
 11
236.018013
 21
104.971481
 31
0.0
 12
236.61813
 22
108.471281
 32
0.0
 13
236.61813
 23
108.471281
 33
0.0
  0
ENDBLK
  5
244
100
AcDbEntity
  8
0
100
AcDbBlockEnd
  0
BLOCK
  5
247
100
AcDbEntity
  8
0
100
AcDbBlockBegin
  2
*B8
 70
     0
 10
0.0
 20
0.0
 30
0.0
  3
*B8
  1

  0
LINE
  5
248
100
AcDbEntity
  8
0
  6
Continuous
 62
     0
100
AcDbLine
 10
236.018013
 20
29.703371
 30
0.0
 11
236.018013
 21
59.701808
 31
0.0
  0
SOLID
  5
249
100
AcDbEntity
  8
0
  6
Continuous
 62
     0
100
AcDbTrace
 10
235.418108
 20
33.203171
 30
0.0
 11
236.018013
 21
29.703371
 31
0.0
 12
236.61813
 22
33.203171
 32
0.0
 13
236.61813
 23
33.203171
 33
0.0
  0
SOLID
  5
24A
100
AcDbEntity
  8
0
  6
Continuous
 62
     0
100
AcDbTrace
 10
236.61813
 20
56.202008
 30
0.0
 11
236.018013
 21
59.701808
 31
0.0
 12
235.418108
 22
56.202008
 32
0.0
 13
235.418108
 23
56.202008
 33
0.0
  0
ENDBLK
  5
24B
100
AcDbEntity
  8
0
100
AcDbBlockEnd
  0
BLOCK
  5
24E
100
AcDbEntity
  8
0
100
AcDbBlockBegin
  2
*B9
 70
     0
 10
0.0
 20
0.0
 30
0.0
  3
*B9
  1

  0
LINE
  5
24F
100
AcDbEntity
  8
0
  6
Continuous
 62
     0
100
AcDbLine
 10
97.08307
 20
92.012981
 30
0.0
 11
122.083007
 21
92.012981
 31
0.0
  0
SOLID
  5
250
100
AcDbEntity
  8
0
  6
Continuous
 62
     0
100
AcDbTrace
 10
100.583083
 20
92.612886
 30
0.0
 11
97.08307
 21
92.012981
 31
0.0
 12
100.583083
 22
91.413076
 32
0.0
 13
100.583083
 23
91.413076
 33
0.0
  0
SOLID
  5
251
100
AcDbEntity
  8
0
  6
Continuous
 62
     0
100
AcDbTrace
 10
118.582995
 20
91.413076
 30
0.0
 11
122.083007
 21
92.012981
 31
0.0
 12
118.582995
 22
92.612886
 32
0.0
 13
118.582995
 23
92.612886
 33
0.0
  0
ENDBLK
  5
252
100
AcDbEntity
  8
0
100
AcDbBlockEnd
  0
BLOCK
  5
255
100
AcDbEntity
  8
0
100
AcDbBlockBegin
  2
*B10
 70
     0
 10
0.0
 20
0.0
 30
0.0
  3
*B10
  1

  0
LINE
  5
256
100
AcDbEntity
  8
0
  6
Continuous
 62
     0
100
AcDbLine
 10
110.082995
 20
68.014443
 30
0.0
 11
198.082942
 21
68.014443
 31
0.0
  0
SOLID
  5
257
100
AcDbEntity
  8
0
  6
Continuous
 62
     0
100
AcDbTrace
 10
113.583007
 20
68.614348
 30
0.0
 11
110.082995
 21
68.014443
 31
0.0
 12
113.583007
 22
67.414326
 32
0.0
 13
113.583007
 23
67.414326
 33
0.0
  0
SOLID
  5
258
100
AcDbEntity
  8
0
  6
Continuous
 62
     0
100
AcDbTrace
 10
194.58293
 20
67.414326
 30
0.0
 11
198.082942
 21
68.014443
 31
0.0
 12
194.58293
 22
68.614348
 32
0.0
 13
194.58293
 23
68.614348
 33
0.0
  0
ENDBLK
  5
259
100
AcDbEntity
  8
0
100
AcDbBlockEnd
  0
BLOCK
  5
25C
100
AcDbEntity
  8
0
100
AcDbBlockBegin
  2
*B11
 70
     0
 10
0.0
 20
0.0
 30
0.0
  3
*B11
  1

  0
LINE
  5
25D
100
AcDbEntity
  8
0
  6
Continuous
 62
     0
100
AcDbLine
 10
186.08293
 20
92.012981
 30
0.0
 11
211.08308
 21
92.012981
 31
0.0
  0
SOLID
  5
25E
100
AcDbEntity
  8
0
  6
Continuous
 62
     0
100
AcDbTrace
 10
189.582943
 20
92.612886
 30
0.0
 11
186.08293
 21
92.012981
 31
0.0
 12
189.582943
 22
91.413076
 32
0.0
 13
189.582943
 23
91.413076
 33
0.0
  0
SOLID
  5
25F
100
AcDbEntity
  8
0
  6
Continuous
 62
     0
100
AcDbTrace
 10
207.583067
 20
91.413076
 30
0.0
 11
211.08308
 21
92.012981
 31
0.0
 12
207.583067
 22
92.612886
 32
0.0
 13
207.583067
 23
92.612886
 33
0.0
  0
ENDBLK
  5
260
100
AcDbEntity
  8
0
100
AcDbBlockEnd
  0
BLOCK
  5
263
100
AcDbEntity
  8
0
100
AcDbBlockBegin
  2
*B12
 70
     0
 10
0.0
 20
0.0
 30
0.0
  3
*B12
  1

  0
LINE
  5
264
100
AcDbEntity
  8
0
  6
Continuous
 62
     0
100
AcDbLine
 10
214.285901
 20
16.017294
 30
0.0
 11
188.983038
 21
16.017294
 31
0.0
  0
SOLID
  5
265
100
AcDbEntity
  8
0
  6
Continuous
 62
     0
100
AcDbTrace
 10
203.683047
 20
16.617199
 30
0.0
 11
200.183035
 21
16.017294
 31
0.0
 12
203.683047
 22
15.417389
 32
0.0
 13
203.683047
 23
15.417389
 33
0.0
  0
SOLID
  5
266
100
AcDbEntity
  8
0
  6
Continuous
 62
     0
100
AcDbTrace
 10
192.48305
 20
15.417389
 30
0.0
 11
195.983063
 21
16.017294
 31
0.0
 12
192.48305
 22
16.617199
 32
0.0
 13
192.48305
 23
16.617199
 33
0.0
  0
ENDBLK
  5
267
100
AcDbEntity
  8
0
100
AcDbBlockEnd
  0
BLOCK
  5
26A
100
AcDbEntity
  8
0
100
AcDbBlockBegin
  2
*B13
 70
     0
 10
0.0
 20
0.0
 30
0.0
  3
*B13
  1

  0
LINE
  5
26B
100
AcDbEntity
  8
0
  6
Continuous
 62
     0
100
AcDbLine
 10
121.683
 20
16.017294
 30
0.0
 11
154.482976
 21
16.017294
 31
0.0
  0
SOLID
  5
26C
100
AcDbEntity
  8
0
  6
Continuous
 62
     0
100
AcDbTrace
 10
125.183012
 20
15.417389
 30
0.0
 11
128.683024
 21
16.017294
 31
0.0
 12
125.183012
 22
16.617199
 32
0.0
 13
125.183012
 23
16.617199
 33
0.0
  0
SOLID
  5
26D
100
AcDbEntity
  8
0
  6
Continuous
 62
     0
100
AcDbTrace
 10
150.982964
 20
16.617199
 30
0.0
 11
147.482951
 21
16.017294
 31
0.0
 12
150.982964
 22
15.417389
 32
0.0
 13
150.982964
 23
15.417389
 33
0.0
  0
ENDBLK
  5
26E
100
AcDbEntity
  8
0
100
AcDbBlockEnd
  0
BLOCK
  5
271
100
AcDbEntity
  8
0
100
AcDbBlockBegin
  2
*B14
 70
     0
 10
0.0
 20
0.0
 30
0.0
  3
*B14
  1

  0
LINE
  5
272
100
AcDbEntity
  8
0
  6
Continuous
 62
     0
100
AcDbLine
 10
122.083007
 20
92.012981
 30
0.0
 11
154.082969
 21
92.012981
 31
0.0
  0
SOLID
  5
273
100
AcDbEntity
  8
0
  6
Continuous
 62
     0
100
AcDbTrace
 10
125.583019
 20
92.612886
 30
0.0
 11
122.083007
 21
92.012981
 31
0.0
 12
125.583019
 22
91.413076
 32
0.0
 13
125.583019
 23
91.413076
 33
0.0
  0
SOLID
  5
274
100
AcDbEntity
  8
0
  6
Continuous
 62
     0
100
AcDbTrace
 10
150.582956
 20
91.413076
 30
0.0
 11
154.082969
 21
92.012981
 31
0.0
 12
150.582956
 22
92.612886
 32
0.0
 13
150.582956
 23
92.612886
 33
0.0
  0
ENDBLK
  5
275
100
AcDbEntity
  8
0
100
AcDbBlockEnd
  0
BLOCK
  5
278
100
AcDbEntity
  8
0
100
AcDbBlockBegin
  2
*B15
 70
     0
 10
0.0
 20
0.0
 30
0.0
  3
*B15
  1

  0
LINE
  5
279
100
AcDbEntity
  8
0
  6
Continuous
 62
     0
100
AcDbLine
 10
170.083056
 20
177.008305
 30
0.0
 11
211.08308
 21
177.008305
 31
0.0
  0
SOLID
  5
27A
100
AcDbEntity
  8
0
  6
Continuous
 62
     0
100
AcDbTrace
 10
173.583068
 20
177.60821
 30
0.0
 11
170.083056
 21
177.008305
 31
0.0
 12
173.583068
 22
176.408187
 32
0.0
 13
173.583068
 23
176.408187
 33
0.0
  0
SOLID
  5
27B
100
AcDbEntity
  8
0
  6
Continuous
 62
     0
100
AcDbTrace
 10
207.583067
 20
176.408187
 30
0.0
 11
211.08308
 21
177.008305
 31
0.0
 12
207.583067
 22
177.60821
 32
0.0
 13
207.583067
 23
177.60821
 33
0.0
  0
ENDBLK
  5
27C
100
AcDbEntity
  8
0
100
AcDbBlockEnd
  0
BLOCK
  5
27F
100
AcDbEntity
  8
0
100
AcDbBlockBegin
  2
*B16
 70
     0
 10
0.0
 20
0.0
 30
0.0
  3
*B16
  1

  0
LINE
  5
280
100
AcDbEntity
  8
0
  6
Continuous
 62
     0
100
AcDbLine
 10
170.083056
 20
177.008305
 30
0.0
 11
138.083094
 21
177.008305
 31
0.0
  0
SOLID
  5
281
100
AcDbEntity
  8
0
  6
Continuous
 62
     0
100
AcDbTrace
 10
166.583043
 20
176.408187
 30
0.0
 11
170.083056
 21
177.008305
 31
0.0
 12
166.583043
 22
177.60821
 32
0.0
 13
166.583043
 23
177.60821
 33
0.0
  0
SOLID
  5
282
100
AcDbEntity
  8
0
  6
Continuous
 62
     0
100
AcDbTrace
 10
141.583107
 20
177.60821
 30
0.0
 11
138.083094
 21
177.008305
 31
0.0
 12
141.583107
 22
176.408187
 32
0.0
 13
141.583107
 23
176.408187
 33
0.0
  0
ENDBLK
  5
283
100
AcDbEntity
  8
0
100
AcDbBlockEnd
  0
BLOCK
  5
286
100
AcDbEntity
  8
0
100
AcDbBlockBegin
  2
*B17
 70
     0
 10
0.0
 20
0.0
 30
0.0
  3
*B17
  1

  0
LINE
  5
287
100
AcDbEntity
  8
0
  6
Continuous
 62
     0
100
AcDbLine
 10
81.082983
 20
80.013606
 30
0.0
 11
211.08308
 21
80.013606
 31
0.0
  0
SOLID
  5
288
100
AcDbEntity
  8
0
  6
Continuous
 62
     0
100
AcDbTrace
 10
84.582996
 20
80.613723
 30
0.0
 11
81.082983
 21
80.013606
 31
0.0
 12
84.582996
 22
79.413701
 32
0.0
 13
84.582996
 23
79.413701
 33
0.0
  0
SOLID
  5
289
100
AcDbEntity
  8
0
  6
Continuous
 62
     0
100
AcDbTrace
 10
207.583067
 20
79.413701
 30
0.0
 11
211.08308
 21
80.013606
 31
0.0
 12
207.583067
 22
80.613723
 32
0.0
 13
207.583067
 23
80.613723
 33
0.0
  0
ENDBLK
  5
28A
100
AcDbEntity
  8
0
100
AcDbBlockEnd
  0
BLOCK
  5
28D
100
AcDbEntity
  8
0
100
AcDbBlockBegin
  2
*B18
 70
     0
 10
0.0
 20
0.0
 30
0.0
  3
*B18
  1

  0
LINE
  5
28E
100
AcDbEntity
  8
0
  6
Continuous
 62
     0
100
AcDbLine
 10
23.018168
 20
181.966868
 30
0.0
 11
23.018168
 21
104.971481
 31
0.0
  0
SOLID
  5
28F
100
AcDbEntity
  8
0
  6
Continuous
 62
     0
100
AcDbTrace
 10
23.618073
 20
178.467068
 30
0.0
 11
23.018168
 21
181.966868
 31
0.0
 12
22.418263
 22
178.467068
 32
0.0
 13
22.418263
 23
178.467068
 33
0.0
  0
SOLID
  5
290
100
AcDbEntity
  8
0
  6
Continuous
 62
     0
100
AcDbTrace
 10
22.418263
 20
108.471281
 30
0.0
 11
23.018168
 21
104.971481
 31
0.0
 12
23.618073
 22
108.471281
 32
0.0
 13
23.618073
 23
108.471281
 33
0.0
  0
ENDBLK
  5
291
100
AcDbEntity
  8
0
100
AcDbBlockEnd
  0
BLOCK
  5
294
100
AcDbEntity
  8
0
100
AcDbBlockBegin
  2
*B19
 70
     0
 10
0.0
 20
0.0
 30
0.0
  3
*B19
  1

  0
LINE
  5
295
100
AcDbEntity
  8
0
  6
Continuous
 62
     0
100
AcDbLine
 10
80.583133
 20
190.00738
 30
0.0
 11
32.083022
 21
190.00738
 31
0.0
  0
SOLID
  5
296
100
AcDbEntity
  8
0
  6
Continuous
 62
     0
100
AcDbTrace
 10
77.083121
 20
189.407475
 30
0.0
 11
80.583133
 21
190.00738
 31
0.0
 12
77.083121
 22
190.607497
 32
0.0
 13
77.083121
 23
190.607497
 33
0.0
  0
SOLID
  5
297
100
AcDbEntity
  8
0
  6
Continuous
 62
     0
100
AcDbTrace
 10
35.583035
 20
190.607497
 30
0.0
 11
32.083022
 21
190.00738
 31
0.0
 12
35.583035
 22
189.407475
 32
0.0
 13
35.583035
 23
189.407475
 33
0.0
  0
ENDBLK
  5
298
100
AcDbEntity
  8
0
100
AcDbBlockEnd
  0
BLOCK
  5
29B
100
AcDbEntity
  8
0
100
AcDbBlockBegin
  2
*B20
 70
     0
 10
0.0
 20
0.0
 30
0.0
  3
*B20
  1

  0
LINE
  5
29C
100
AcDbEntity
  8
0
  6
Continuous
 62
     0
100
AcDbLine
 10
101.22165
 20
177.008305
 30
0.0
 11
132.382934
 21
177.008305
 31
0.0
  0
SOLID
  5
29D
100
AcDbEntity
  8
0
  6
Continuous
 62
     0
100
AcDbTrace
 10
115.283092
 20
176.408187
 30
0.0
 11
118.783105
 21
177.008305
 31
0.0
 12
115.283092
 22
177.60821
 32
0.0
 13
115.283092
 23
177.60821
 33
0.0
  0
SOLID
  5
29E
100
AcDbEntity
  8
0
  6
Continuous
 62
     0
100
AcDbTrace
 10
128.882922
 20
177.60821
 30
0.0
 11
125.383122
 21
177.008305
 31
0.0
 12
128.882922
 22
176.408187
 32
0.0
 13
128.882922
 23
176.408187
 33
0.0
  0
ENDBLK
  5
29F
100
AcDbEntity
  8
0
100
AcDbBlockEnd
  0
BLOCK
  5
2A2
100
AcDbEntity
  8
0
100
AcDbBlockBegin
  2
*B21
 70
     0
 10
0.0
 20
0.0
 30
0.0
  3
*B21
  1

  0
LINE
  5
2A3
100
AcDbEntity
  8
0
  6
Continuous
 62
     0
100
AcDbLine
 10
154.082969
 20
92.012981
 30
0.0
 11
186.08293
 21
92.012981
 31
0.0
  0
SOLID
  5
2A4
100
AcDbEntity
  8
0
  6
Continuous
 62
     0
100
AcDbTrace
 10
157.582981
 20
92.612886
 30
0.0
 11
154.082969
 21
92.012981
 31
0.0
 12
157.582981
 22
91.413076
 32
0.0
 13
157.582981
 23
91.413076
 33
0.0
  0
SOLID
  5
2A5
100
AcDbEntity
  8
0
  6
Continuous
 62
     0
100
AcDbTrace
 10
182.582918
 20
91.413076
 30
0.0
 11
186.08293
 21
92.012981
 31
0.0
 12
182.582918
 22
92.612886
 32
0.0
 13
182.582918
 23
92.612886
 33
0.0
  0
ENDBLK
  5
2A6
100
AcDbEntity
  8
0
100
AcDbBlockEnd
  0
BLOCK
  5
2A9
100
AcDbEntity
  8
0
100
AcDbBlockBegin
  2
*B22
 70
     0
 10
0.0
 20
0.0
 30
0.0
  3
*B22
  1

  0
LINE
  5
2AA
100
AcDbEntity
  8
0
  6
Continuous
 62
     0
100
AcDbLine
 10
224.018213
 20
34.578236
 30
0.0
 11
224.018213
 21
54.577123
 31
0.0
  0
SOLID
  5
2AB
100
AcDbEntity
  8
0
  6
Continuous
 62
     0
100
AcDbTrace
 10
223.418095
 20
38.078036
 30
0.0
 11
224.018213
 21
34.578236
 31
0.0
 12
224.618118
 22
38.078036
 32
0.0
 13
224.618118
 23
38.078036
 33
0.0
  0
SOLID
  5
2AC
100
AcDbEntity
  8
0
  6
Continuous
 62
     0
100
AcDbTrace
 10
224.618118
 20
51.077323
 30
0.0
 11
224.018213
 21
54.577123
 31
0.0
 12
223.418095
 22
51.077323
 32
0.0
 13
223.418095
 23
51.077323
 33
0.0
  0
ENDBLK
  5
2AD
100
AcDbEntity
  8
0
100
AcDbBlockEnd
  0
BLOCK
  5
2B0
100
AcDbEntity
  8
0
100
AcDbBlockBegin
  2
*B23
 70
     0
 10
0.0
 20
0.0
 30
0.0
  3
*B23
  1

  0
LINE
  5
2B1
100
AcDbEntity
  8
0
  6
Continuous
 62
     0
100
AcDbLine
 10
122.083007
 20
190.00738
 30
0.0
 11
186.08293
 21
190.00738
 31
0.0
  0
SOLID
  5
2B2
100
AcDbEntity
  8
0
  6
Continuous
 62
     0
100
AcDbTrace
 10
125.583019
 20
190.607497
 30
0.0
 11
122.083007
 21
190.00738
 31
0.0
 12
125.583019
 22
189.407475
 32
0.0
 13
125.583019
 23
189.407475
 33
0.0
  0
SOLID
  5
2B3
100
AcDbEntity
  8
0
  6
Continuous
 62
     0
100
AcDbTrace
 10
182.582918
 20
189.407475
 30
0.0
 11
186.08293
 21
190.00738
 31
0.0
 12
182.582918
 22
190.607497
 32
0.0
 13
182.582918
 23
190.607497
 33
0.0
  0
ENDBLK
  5
2B4
100
AcDbEntity
  8
0
100
AcDbBlockEnd
  0
BLOCK
  5
2B7
100
AcDbEntity
  8
0
100
AcDbBlockBegin
  2
*B24
 70
     0
 10
0.0
 20
0.0
 30
0.0
  3
*B24
  1

  0
LINE
  5
2B8
100
AcDbEntity
  8
0
  6
Continuous
 62
     0
100
AcDbLine
 10
191.082918
 20
68.014443
 30
0.0
 11
218.082892
 21
68.014443
 31
0.0
  0
SOLID
  5
2B9
100
AcDbEntity
  8
0
  6
Continuous
 62
     0
100
AcDbTrace
 10
194.58293
 20
67.414326
 30
0.0
 11
198.082942
 21
68.014443
 31
0.0
 12
194.58293
 22
68.614348
 32
0.0
 13
194.58293
 23
68.614348
 33
0.0
  0
SOLID
  5
2BA
100
AcDbEntity
  8
0
  6
Continuous
 62
     0
100
AcDbTrace
 10
214.58288
 20
68.614348
 30
0.0
 11
211.08308
 21
68.014443
 31
0.0
 12
214.58288
 22
67.414326
 32
0.0
 13
214.58288
 23
67.414326
 33
0.0
  0
ENDBLK
  5
2BB
100
AcDbEntity
  8
0
100
AcDbBlockEnd
  0
BLOCK
  5
2BE
100
AcDbEntity
  8
0
100
AcDbBlockBegin
  2
*B25
 70
     0
 10
0.0
 20
0.0
 30
0.0
  3
*B25
  1

  0
LINE
  5
2BF
100
AcDbEntity
  8
0
  6
Continuous
 62
     0
100
AcDbLine
 10
23.018168
 20
33.703233
 30
0.0
 11
23.018168
 21
55.701945
 31
0.0
  0
SOLID
  5
2C0
100
AcDbEntity
  8
0
  6
Continuous
 62
     0
100
AcDbTrace
 10
22.418263
 20
37.203033
 30
0.0
 11
23.018168
 21
33.703233
 31
0.0
 12
23.618073
 22
37.203033
 32
0.0
 13
23.618073
 23
37.203033
 33
0.0
  0
SOLID
  5
2C1
100
AcDbEntity
  8
0
  6
Continuous
 62
     0
100
AcDbTrace
 10
23.618073
 20
52.202145
 30
0.0
 11
23.018168
 21
55.701945
 31
0.0
 12
22.418263
 22
52.202145
 32
0.0
 13
22.418263
 23
52.202145
 33
0.0
  0
ENDBLK
  5
2C2
100
AcDbEntity
  8
0
100
AcDbBlockEnd
  0
BLOCK
  5
2C5
100
AcDbEntity
  8
0
100
AcDbBlockBegin
  2
*B26
 70
     0
 10
0.0
 20
0.0
 30
0.0
  3
*B26
  1

  0
LINE
  5
2C6
100
AcDbEntity
  8
0
  6
Continuous
 62
     8
100
AcDbLine
 10
97.08307
 20
90.013156
 30
0.0
 11
97.08307
 21
103.971569
 31
0.0
  0
ENDBLK
  5
2C7
100
AcDbEntity
  8
0
100
AcDbBlockEnd
  0
BLOCK
  5
2CA
100
AcDbEntity
  8
0
100
AcDbBlockBegin
  2
*B27
 70
     0
 10
0.0
 20
0.0
 30
0.0
  3
*B27
  1

  0
LINE
  5
2CB
100
AcDbEntity
  8
0
  6
Continuous
 62
     8
100
AcDbLine
 10
198.082942
 20
66.014406
 30
0.0
 11
198.082942
 21
70.014268
 31
0.0
  0
LINE
  5
2CC
100
AcDbEntity
  8
0
  6
Continuous
 62
     8
100
AcDbLine
 10
198.082942
 20
29.478406
 30
0.0
 11
198.082942
 21
33.078261
 31
0.0
  0
LINE
  5
2CD
100
AcDbEntity
  8
0
  6
Continuous
 62
     8
100
AcDbLine
 10
198.082942
 20
36.077999
 30
0.0
 11
198.082942
 21
41.312297
 31
0.0
  0
LINE
  5
2CE
100
AcDbEntity
  8
0
  6
Continuous
 62
     8
100
AcDbLine
 10
198.082942
 20
42.31221
 30
0.0
 11
198.082942
 21
43.312122
 31
0.0
  0
LINE
  5
2CF
100
AcDbEntity
  8
0
  6
Continuous
 62
     8
100
AcDbLine
 10
198.082942
 20
44.312247
 30
0.0
 11
198.082942
 21
49.546334
 31
0.0
  0
LINE
  5
2D0
100
AcDbEntity
  8
0
  6
Continuous
 62
     8
100
AcDbLine
 10
198.082942
 20
50.546246
 30
0.0
 11
198.082942
 21
51.546159
 31
0.0
  0
LINE
  5
2D1
100
AcDbEntity
  8
0
  6
Continuous
 62
     8
100
AcDbLine
 10
198.082942
 20
52.546283
 30
0.0
 11
198.082942
 21
57.78037
 31
0.0
  0
LINE
  5
2D2
100
AcDbEntity
  8
0
  6
Continuous
 62
     8
100
AcDbLine
 10
198.082942
 20
58.780282
 30
0.0
 11
198.082942
 21
59.780407
 31
0.0
  0
LINE
  5
2D3
100
AcDbEntity
  8
0
  6
Continuous
 62
     8
100
AcDbLine
 10
198.082942
 20
60.78032
 30
0.0
 11
198.082942
 21
66.014406
 31
0.0
  0
ENDBLK
  5
2D4
100
AcDbEntity
  8
0
100
AcDbBlockEnd
  0
BLOCK
  5
2D7
100
AcDbEntity
  8
0
100
AcDbBlockBegin
  2
*B28
 70
     0
 10
0.0
 20
0.0
 30
0.0
  3
*B28
  1

  0
LINE
  5
2D8
100
AcDbEntity
  8
0
  6
Continuous
 62
     8
100
AcDbLine
 10
198.082942
 20
101.971744
 30
0.0
 11
198.082942
 21
109.471406
 31
0.0
  0
LINE
  5
2D9
100
AcDbEntity
  8
0
  6
Continuous
 62
     8
100
AcDbLine
 10
198.082942
 20
110.471319
 30
0.0
 11
198.082942
 21
111.471231
 31
0.0
  0
LINE
  5
2DA
100
AcDbEntity
  8
0
  6
Continuous
 62
     8
100
AcDbLine
 10
198.082942
 20
112.471144
 30
0.0
 11
198.082942
 21
119.970806
 31
0.0
  0
ENDBLK
  5
2DB
100
AcDbEntity
  8
0
100
AcDbBlockEnd
  0
BLOCK
  5
2DE
100
AcDbEntity
  8
0
100
AcDbBlockBegin
  2
*B29
 70
     0
 10
0.0
 20
0.0
 30
0.0
  3
*B29
  1

  0
LINE
  5
2DF
100
AcDbEntity
  8
0
  6
Continuous
 62
     8
100
AcDbLine
 10
147.482951
 20
14.017469
 30
0.0
 11
147.482951
 21
43.70257
 31
0.0
  0
ENDBLK
  5
2E0
100
AcDbEntity
  8
0
100
AcDbBlockEnd
  0
BLOCK
  5
2E3
100
AcDbEntity
  8
0
100
AcDbBlockBegin
  2
*B30
 70
     0
 10
0.0
 20
0.0
 30
0.0
  3
*B30
  1

  0
LINE
  5
2E4
100
AcDbEntity
  8
0
  6
Continuous
 62
     8
100
AcDbLine
 10
66.083021
 20
38.303
 30
0.0
 11
66.083021
 21
43.20272
 31
0.0
  0
LINE
  5
2E5
100
AcDbEntity
  8
0
  6
Continuous
 62
     8
100
AcDbLine
 10
66.083021
 20
46.202458
 30
0.0
 11
66.083021
 21
51.102178
 31
0.0
  0
ENDBLK
  5
2E6
100
AcDbEntity
  8
0
100
AcDbBlockEnd
  0
BLOCK
  5
2E9
100
AcDbEntity
  8
0
100
AcDbBlockBegin
  2
*B31
 70
     0
 10
0.0
 20
0.0
 30
0.0
  3
*B31
  1

  0
LINE
  5
2EA
100
AcDbEntity
  8
0
  6
Continuous
 62
     8
100
AcDbLine
 10
222.018175
 20
34.578236
 30
0.0
 11
226.018038
 21
34.578236
 31
0.0
  0
LINE
  5
2EB
100
AcDbEntity
  8
0
  6
Continuous
 62
     8
100
AcDbLine
 10
192.9829
 20
34.578236
 30
0.0
 11
196.582968
 21
34.578236
 31
0.0
  0
LINE
  5
2EC
100
AcDbEntity
  8
0
  6
Continuous
 62
     8
100
AcDbLine
 10
199.582917
 20
34.578236
 30
0.0
 11
205.061299
 21
34.578236
 31
0.0
  0
LINE
  5
2ED
100
AcDbEntity
  8
0
  6
Continuous
 62
     8
100
AcDbLine
 10
206.061424
 20
34.578236
 30
0.0
 11
207.061337
 21
34.578236
 31
0.0
  0
LINE
  5
2EE
100
AcDbEntity
  8
0
  6
Continuous
 62
     8
100
AcDbLine
 10
208.061462
 20
34.578236
 30
0.0
 11
213.539631
 21
34.578236
 31
0.0
  0
LINE
  5
2EF
100
AcDbEntity
  8
0
  6
Continuous
 62
     8
100
AcDbLine
 10
214.539756
 20
34.578236
 30
0.0
 11
215.539669
 21
34.578236
 31
0.0
  0
LINE
  5
2F0
100
AcDbEntity
  8
0
  6
Continuous
 62
     8
100
AcDbLine
 10
216.539793
 20
34.578236
 30
0.0
 11
222.018175
 21
34.578236
 31
0.0
  0
ENDBLK
  5
2F1
100
AcDbEntity
  8
0
100
AcDbBlockEnd
  0
BLOCK
  5
2F4
100
AcDbEntity
  8
0
100
AcDbBlockBegin
  2
*B32
 70
     0
 10
0.0
 20
0.0
 30
0.0
  3
*B32
  1

  0
LINE
  5
2F5
100
AcDbEntity
  8
0
  6
Continuous
 62
     8
100
AcDbLine
 10
21.018131
 20
104.971481
 30
0.0
 11
80.083071
 21
104.971481
 31
0.0
  0
LINE
  5
2F6
100
AcDbEntity
  8
0
  6
Continuous
 62
     8
100
AcDbLine
 10
212.082992
 20
104.971481
 30
0.0
 11
238.01805
 21
104.971481
 31
0.0
  0
ENDBLK
  5
2F7
100
AcDbEntity
  8
0
100
AcDbBlockEnd
  0
BLOCK
  5
2FA
100
AcDbEntity
  8
0
100
AcDbBlockBegin
  2
*B33
 70
     0
 10
0.0
 20
0.0
 30
0.0
  3
*B33
  1

  0
LINE
  5
2FB
100
AcDbEntity
  8
0
  6
Continuous
 62
     8
100
AcDbLine
 10
131.783029
 20
114.971031
 30
0.0
 11
136.583119
 21
114.971031
 31
0.0
  0
LINE
  5
2FC
100
AcDbEntity
  8
0
  6
Continuous
 62
     8
100
AcDbLine
 10
139.583069
 20
114.971031
 30
0.0
 11
144.382946
 21
114.971031
 31
0.0
  0
ENDBLK
  5
2FD
100
AcDbEntity
  8
0
100
AcDbBlockEnd
  0
BLOCK
  5
300
100
AcDbEntity
  8
0
100
AcDbBlockBegin
  2
*B34
 70
     0
 10
0.0
 20
0.0
 30
0.0
  3
*B34
  1

  0
LINE
  5
301
100
AcDbEntity
  8
0
  6
Continuous
 62
     8
100
AcDbLine
 10
222.018175
 20
114.971031
 30
0.0
 11
226.018038
 21
114.971031
 31
0.0
  0
LINE
  5
302
100
AcDbEntity
  8
0
  6
Continuous
 62
     8
100
AcDbLine
 10
163.782991
 20
114.971031
 30
0.0
 11
168.583081
 21
114.971031
 31
0.0
  0
LINE
  5
303
100
AcDbEntity
  8
0
  6
Continuous
 62
     8
100
AcDbLine
 10
171.583031
 20
114.971031
 30
0.0
 11
177.488824
 21
114.971031
 31
0.0
  0
LINE
  5
304
100
AcDbEntity
  8
0
  6
Continuous
 62
     8
100
AcDbLine
 10
178.488949
 20
114.971031
 30
0.0
 11
179.488861
 21
114.971031
 31
0.0
  0
LINE
  5
305
100
AcDbEntity
  8
0
  6
Continuous
 62
     8
100
AcDbLine
 10
180.488774
 20
114.971031
 30
0.0
 11
186.394779
 21
114.971031
 31
0.0
  0
LINE
  5
306
100
AcDbEntity
  8
0
  6
Continuous
 62
     8
100
AcDbLine
 10
187.394691
 20
114.971031
 30
0.0
 11
188.394604
 21
114.971031
 31
0.0
  0
LINE
  5
307
100
AcDbEntity
  8
0
  6
Continuous
 62
     8
100
AcDbLine
 10
189.394729
 20
114.971031
 30
0.0
 11
195.300522
 21
114.971031
 31
0.0
  0
LINE
  5
308
100
AcDbEntity
  8
0
  6
Continuous
 62
     8
100
AcDbLine
 10
196.300647
 20
114.971031
 30
0.0
 11
197.300559
 21
114.971031
 31
0.0
  0
LINE
  5
309
100
AcDbEntity
  8
0
  6
Continuous
 62
     8
100
AcDbLine
 10
198.300472
 20
114.971031
 30
0.0
 11
204.206477
 21
114.971031
 31
0.0
  0
LINE
  5
30A
100
AcDbEntity
  8
0
  6
Continuous
 62
     8
100
AcDbLine
 10
205.20639
 20
114.971031
 30
0.0
 11
206.206302
 21
114.971031
 31
0.0
  0
LINE
  5
30B
100
AcDbEntity
  8
0
  6
Continuous
 62
     8
100
AcDbLine
 10
207.206427
 20
114.971031
 30
0.0
 11
213.11222
 21
114.971031
 31
0.0
  0
LINE
  5
30C
100
AcDbEntity
  8
0
  6
Continuous
 62
     8
100
AcDbLine
 10
214.112345
 20
114.971031
 30
0.0
 11
215.112257
 21
114.971031
 31
0.0
  0
LINE
  5
30D
100
AcDbEntity
  8
0
  6
Continuous
 62
     8
100
AcDbLine
 10
216.11217
 20
114.971031
 30
0.0
 11
222.018175
 21
114.971031
 31
0.0
  0
ENDBLK
  5
30E
100
AcDbEntity
  8
0
100
AcDbBlockEnd
  0
BLOCK
  5
311
100
AcDbEntity
  8
0
100
AcDbBlockBegin
  2
*B35
 70
     0
 10
0.0
 20
0.0
 30
0.0
  3
*B35
  1

  0
LINE
  5
312
100
AcDbEntity
  8
0
  6
Continuous
 62
     8
100
AcDbLine
 10
222.018175
 20
54.577123
 30
0.0
 11
226.018038
 21
54.577123
 31
0.0
  0
LINE
  5
313
100
AcDbEntity
  8
0
  6
Continuous
 62
     8
100
AcDbLine
 10
104.982953
 20
54.577123
 30
0.0
 11
108.58302
 21
54.577123
 31
0.0
  0
LINE
  5
314
100
AcDbEntity
  8
0
  6
Continuous
 62
     8
100
AcDbLine
 10
111.58297
 20
54.577123
 30
0.0
 11
116.685561
 21
54.577123
 31
0.0
  0
LINE
  5
315
100
AcDbEntity
  8
0
  6
Continuous
 62
     8
100
AcDbLine
 10
117.685474
 20
54.577123
 30
0.0
 11
118.685599
 21
54.577123
 31
0.0
  0
LINE
  5
316
100
AcDbEntity
  8
0
  6
Continuous
 62
     8
100
AcDbLine
 10
119.685511
 20
54.577123
 30
0.0
 11
124.788103
 21
54.577123
 31
0.0
  0
LINE
  5
317
100
AcDbEntity
  8
0
  6
Continuous
 62
     8
100
AcDbLine
 10
125.788015
 20
54.577123
 30
0.0
 11
126.787928
 21
54.577123
 31
0.0
  0
LINE
  5
318
100
AcDbEntity
  8
0
  6
Continuous
 62
     8
100
AcDbLine
 10
127.788053
 20
54.577123
 30
0.0
 11
132.890644
 21
54.577123
 31
0.0
  0
LINE
  5
319
100
AcDbEntity
  8
0
  6
Continuous
 62
     8
100
AcDbLine
 10
133.890557
 20
54.577123
 30
0.0
 11
134.890469
 21
54.577123
 31
0.0
  0
LINE
  5
31A
100
AcDbEntity
  8
0
  6
Continuous
 62
     8
100
AcDbLine
 10
135.890594
 20
54.577123
 30
0.0
 11
140.992973
 21
54.577123
 31
0.0
  0
LINE
  5
31B
100
AcDbEntity
  8
0
  6
Continuous
 62
     8
100
AcDbLine
 10
141.993098
 20
54.577123
 30
0.0
 11
142.993011
 21
54.577123
 31
0.0
  0
LINE
  5
31C
100
AcDbEntity
  8
0
  6
Continuous
 62
     8
100
AcDbLine
 10
143.993136
 20
54.577123
 30
0.0
 11
149.095515
 21
54.577123
 31
0.0
  0
LINE
  5
31D
100
AcDbEntity
  8
0
  6
Continuous
 62
     8
100
AcDbLine
 10
150.09564
 20
54.577123
 30
0.0
 11
151.095552
 21
54.577123
 31
0.0
  0
LINE
  5
31E
100
AcDbEntity
  8
0
  6
Continuous
 62
     8
100
AcDbLine
 10
152.095465
 20
54.577123
 30
0.0
 11
157.198056
 21
54.577123
 31
0.0
  0
LINE
  5
31F
100
AcDbEntity
  8
0
  6
Continuous
 62
     8
100
AcDbLine
 10
158.197969
 20
54.577123
 30
0.0
 11
159.198094
 21
54.577123
 31
0.0
  0
LINE
  5
320
100
AcDbEntity
  8
0
  6
Continuous
 62
     8
100
AcDbLine
 10
160.198006
 20
54.577123
 30
0.0
 11
165.300598
 21
54.577123
 31
0.0
  0
LINE
  5
321
100
AcDbEntity
  8
0
  6
Continuous
 62
     8
100
AcDbLine
 10
166.30051
 20
54.577123
 30
0.0
 11
167.300635
 21
54.577123
 31
0.0
  0
LINE
  5
322
100
AcDbEntity
  8
0
  6
Continuous
 62
     8
100
AcDbLine
 10
168.300548
 20
54.577123
 30
0.0
 11
173.403139
 21
54.577123
 31
0.0
  0
LINE
  5
323
100
AcDbEntity
  8
0
  6
Continuous
 62
     8
100
AcDbLine
 10
174.403052
 20
54.577123
 30
0.0
 11
175.402964
 21
54.577123
 31
0.0
  0
LINE
  5
324
100
AcDbEntity
  8
0
  6
Continuous
 62
     8
100
AcDbLine
 10
176.403089
 20
54.577123
 30
0.0
 11
181.505468
 21
54.577123
 31
0.0
  0
LINE
  5
325
100
AcDbEntity
  8
0
  6
Continuous
 62
     8
100
AcDbLine
 10
182.505593
 20
54.577123
 30
0.0
 11
183.505506
 21
54.577123
 31
0.0
  0
LINE
  5
326
100
AcDbEntity
  8
0
  6
Continuous
 62
     8
100
AcDbLine
 10
184.50563
 20
54.577123
 30
0.0
 11
189.60801
 21
54.577123
 31
0.0
  0
LINE
  5
327
100
AcDbEntity
  8
0
  6
Continuous
 62
     8
100
AcDbLine
 10
190.608135
 20
54.577123
 30
0.0
 11
191.608047
 21
54.577123
 31
0.0
  0
LINE
  5
328
100
AcDbEntity
  8
0
  6
Continuous
 62
     8
100
AcDbLine
 10
192.608172
 20
54.577123
 30
0.0
 11
197.710551
 21
54.577123
 31
0.0
  0
LINE
  5
329
100
AcDbEntity
  8
0
  6
Continuous
 62
     8
100
AcDbLine
 10
198.710676
 20
54.577123
 30
0.0
 11
199.710588
 21
54.577123
 31
0.0
  0
LINE
  5
32A
100
AcDbEntity
  8
0
  6
Continuous
 62
     8
100
AcDbLine
 10
200.710501
 20
54.577123
 30
0.0
 11
205.813092
 21
54.577123
 31
0.0
  0
LINE
  5
32B
100
AcDbEntity
  8
0
  6
Continuous
 62
     8
100
AcDbLine
 10
206.813005
 20
54.577123
 30
0.0
 11
207.81313
 21
54.577123
 31
0.0
  0
LINE
  5
32C
100
AcDbEntity
  8
0
  6
Continuous
 62
     8
100
AcDbLine
 10
208.813042
 20
54.577123
 30
0.0
 11
213.915634
 21
54.577123
 31
0.0
  0
LINE
  5
32D
100
AcDbEntity
  8
0
  6
Continuous
 62
     8
100
AcDbLine
 10
214.915546
 20
54.577123
 30
0.0
 11
215.915671
 21
54.577123
 31
0.0
  0
LINE
  5
32E
100
AcDbEntity
  8
0
  6
Continuous
 62
     8
100
AcDbLine
 10
216.915584
 20
54.577123
 30
0.0
 11
222.018175
 21
54.577123
 31
0.0
  0
ENDBLK
  5
32F
100
AcDbEntity
  8
0
100
AcDbBlockEnd
  0
BLOCK
  5
332
100
AcDbEntity
  8
0
100
AcDbBlockBegin
  2
*B36
 70
     0
 10
0.0
 20
0.0
 30
0.0
  3
*B36
  1

  0
LINE
  5
333
100
AcDbEntity
  8
0
  6
Continuous
 62
     8
100
AcDbLine
 10
40.383124
 20
134.969918
 30
0.0
 11
45.414976
 21
134.969918
 31
0.0
  0
LINE
  5
334
100
AcDbEntity
  8
0
  6
Continuous
 62
     8
100
AcDbLine
 10
46.414889
 20
134.969918
 30
0.0
 11
47.414801
 21
134.969918
 31
0.0
  0
LINE
  5
335
100
AcDbEntity
  8
0
  6
Continuous
 62
     8
100
AcDbLine
 10
48.414926
 20
134.969918
 30
0.0
 11
53.446778
 21
134.969918
 31
0.0
  0
LINE
  5
336
100
AcDbEntity
  8
0
  6
Continuous
 62
     8
100
AcDbLine
 10
54.446691
 20
134.969918
 30
0.0
 11
55.446603
 21
134.969918
 31
0.0
  0
LINE
  5
337
100
AcDbEntity
  8
0
  6
Continuous
 62
     8
100
AcDbLine
 10
56.446728
 20
134.969918
 30
0.0
 11
61.47858
 21
134.969918
 31
0.0
  0
LINE
  5
338
100
AcDbEntity
  8
0
  6
Continuous
 62
     8
100
AcDbLine
 10
62.478493
 20
134.969918
 30
0.0
 11
63.478405
 21
134.969918
 31
0.0
  0
LINE
  5
339
100
AcDbEntity
  8
0
  6
Continuous
 62
     8
100
AcDbLine
 10
64.47853
 20
134.969918
 30
0.0
 11
69.510382
 21
134.969918
 31
0.0
  0
LINE
  5
33A
100
AcDbEntity
  8
0
  6
Continuous
 62
     8
100
AcDbLine
 10
70.510295
 20
134.969918
 30
0.0
 11
71.51042
 21
134.969918
 31
0.0
  0
LINE
  5
33B
100
AcDbEntity
  8
0
  6
Continuous
 62
     8
100
AcDbLine
 10
72.510332
 20
134.969918
 30
0.0
 11
77.542184
 21
134.969918
 31
0.0
  0
LINE
  5
33C
100
AcDbEntity
  8
0
  6
Continuous
 62
     8
100
AcDbLine
 10
78.542097
 20
134.969918
 30
0.0
 11
79.542222
 21
134.969918
 31
0.0
  0
LINE
  5
33D
100
AcDbEntity
  8
0
  6
Continuous
 62
     8
100
AcDbLine
 10
80.542134
 20
134.969918
 30
0.0
 11
85.573986
 21
134.969918
 31
0.0
  0
LINE
  5
33E
100
AcDbEntity
  8
0
  6
Continuous
 62
     8
100
AcDbLine
 10
86.573899
 20
134.969918
 30
0.0
 11
87.574023
 21
134.969918
 31
0.0
  0
LINE
  5
33F
100
AcDbEntity
  8
0
  6
Continuous
 62
     8
100
AcDbLine
 10
88.573936
 20
134.969918
 30
0.0
 11
93.605788
 21
134.969918
 31
0.0
  0
LINE
  5
340
100
AcDbEntity
  8
0
  6
Continuous
 62
     8
100
AcDbLine
 10
94.6057
 20
134.969918
 30
0.0
 11
95.605825
 21
134.969918
 31
0.0
  0
LINE
  5
341
100
AcDbEntity
  8
0
  6
Continuous
 62
     8
100
AcDbLine
 10
96.605738
 20
134.969918
 30
0.0
 11
101.63759
 21
134.969918
 31
0.0
  0
LINE
  5
342
100
AcDbEntity
  8
0
  6
Continuous
 62
     8
100
AcDbLine
 10
102.637502
 20
134.969918
 30
0.0
 11
103.637627
 21
134.969918
 31
0.0
  0
LINE
  5
343
100
AcDbEntity
  8
0
  6
Continuous
 62
     8
100
AcDbLine
 10
104.63754
 20
134.969918
 30
0.0
 11
109.669392
 21
134.969918
 31
0.0
  0
LINE
  5
344
100
AcDbEntity
  8
0
  6
Continuous
 62
     8
100
AcDbLine
 10
110.669304
 20
134.969918
 30
0.0
 11
111.669429
 21
134.969918
 31
0.0
  0
LINE
  5
345
100
AcDbEntity
  8
0
  6
Continuous
 62
     8
100
AcDbLine
 10
112.669342
 20
134.969918
 30
0.0
 11
117.701194
 21
134.969918
 31
0.0
  0
LINE
  5
346
100
AcDbEntity
  8
0
  6
Continuous
 62
     8
100
AcDbLine
 10
118.701319
 20
134.969918
 30
0.0
 11
119.701231
 21
134.969918
 31
0.0
  0
LINE
  5
347
100
AcDbEntity
  8
0
  6
Continuous
 62
     8
100
AcDbLine
 10
120.701144
 20
134.969918
 30
0.0
 11
125.732996
 21
134.969918
 31
0.0
  0
LINE
  5
348
100
AcDbEntity
  8
0
  6
Continuous
 62
     8
100
AcDbLine
 10
126.733121
 20
134.969918
 30
0.0
 11
127.733033
 21
134.969918
 31
0.0
  0
LINE
  5
349
100
AcDbEntity
  8
0
  6
Continuous
 62
     8
100
AcDbLine
 10
128.732946
 20
134.969918
 30
0.0
 11
133.764798
 21
134.969918
 31
0.0
  0
LINE
  5
34A
100
AcDbEntity
  8
0
  6
Continuous
 62
     8
100
AcDbLine
 10
134.764923
 20
134.969918
 30
0.0
 11
135.764835
 21
134.969918
 31
0.0
  0
LINE
  5
34B
100
AcDbEntity
  8
0
  6
Continuous
 62
     8
100
AcDbLine
 10
136.764748
 20
134.969918
 30
0.0
 11
141.7966
 21
134.969918
 31
0.0
  0
LINE
  5
34C
100
AcDbEntity
  8
0
  6
Continuous
 62
     8
100
AcDbLine
 10
142.796725
 20
134.969918
 30
0.0
 11
143.796637
 21
134.969918
 31
0.0
  0
LINE
  5
34D
100
AcDbEntity
  8
0
  6
Continuous
 62
     8
100
AcDbLine
 10
144.79655
 20
134.969918
 30
0.0
 11
149.828402
 21
134.969918
 31
0.0
  0
LINE
  5
34E
100
AcDbEntity
  8
0
  6
Continuous
 62
     8
100
AcDbLine
 10
150.828526
 20
134.969918
 30
0.0
 11
151.828439
 21
134.969918
 31
0.0
  0
LINE
  5
34F
100
AcDbEntity
  8
0
  6
Continuous
 62
     8
100
AcDbLine
 10
152.828564
 20
134.969918
 30
0.0
 11
157.860204
 21
134.969918
 31
0.0
  0
LINE
  5
350
100
AcDbEntity
  8
0
  6
Continuous
 62
     8
100
AcDbLine
 10
158.860328
 20
134.969918
 30
0.0
 11
159.860241
 21
134.969918
 31
0.0
  0
LINE
  5
351
100
AcDbEntity
  8
0
  6
Continuous
 62
     8
100
AcDbLine
 10
160.860366
 20
134.969918
 30
0.0
 11
165.892005
 21
134.969918
 31
0.0
  0
LINE
  5
352
100
AcDbEntity
  8
0
  6
Continuous
 62
     8
100
AcDbLine
 10
166.89213
 20
134.969918
 30
0.0
 11
167.892043
 21
134.969918
 31
0.0
  0
LINE
  5
353
100
AcDbEntity
  8
0
  6
Continuous
 62
     8
100
AcDbLine
 10
168.892168
 20
134.969918
 30
0.0
 11
173.92402
 21
134.969918
 31
0.0
  0
LINE
  5
354
100
AcDbEntity
  8
0
  6
Continuous
 62
     8
100
AcDbLine
 10
174.923932
 20
134.969918
 30
0.0
 11
175.923845
 21
134.969918
 31
0.0
  0
LINE
  5
355
100
AcDbEntity
  8
0
  6
Continuous
 62
     8
100
AcDbLine
 10
176.92397
 20
134.969918
 30
0.0
 11
181.955822
 21
134.969918
 31
0.0
  0
LINE
  5
356
100
AcDbEntity
  8
0
  6
Continuous
 62
     8
100
AcDbLine
 10
182.955734
 20
134.969918
 30
0.0
 11
183.955647
 21
134.969918
 31
0.0
  0
LINE
  5
357
100
AcDbEntity
  8
0
  6
Continuous
 62
     8
100
AcDbLine
 10
184.955772
 20
134.969918
 30
0.0
 11
189.987624
 21
134.969918
 31
0.0
  0
LINE
  5
358
100
AcDbEntity
  8
0
  6
Continuous
 62
     8
100
AcDbLine
 10
190.987536
 20
134.969918
 30
0.0
 11
191.987449
 21
134.969918
 31
0.0
  0
LINE
  5
359
100
AcDbEntity
  8
0
  6
Continuous
 62
     8
100
AcDbLine
 10
192.987574
 20
134.969918
 30
0.0
 11
198.019426
 21
134.969918
 31
0.0
  0
LINE
  5
35A
100
AcDbEntity
  8
0
  6
Continuous
 62
     8
100
AcDbLine
 10
199.019338
 20
134.969918
 30
0.0
 11
200.019463
 21
134.969918
 31
0.0
  0
LINE
  5
35B
100
AcDbEntity
  8
0
  6
Continuous
 62
     8
100
AcDbLine
 10
201.019376
 20
134.969918
 30
0.0
 11
206.051228
 21
134.969918
 31
0.0
  0
LINE
  5
35C
100
AcDbEntity
  8
0
  6
Continuous
 62
     8
100
AcDbLine
 10
207.05114
 20
134.969918
 30
0.0
 11
208.051265
 21
134.969918
 31
0.0
  0
LINE
  5
35D
100
AcDbEntity
  8
0
  6
Continuous
 62
     8
100
AcDbLine
 10
209.051178
 20
134.969918
 30
0.0
 11
214.08303
 21
134.969918
 31
0.0
  0
ENDBLK
  5
35E
100
AcDbEntity
  8
0
100
AcDbBlockEnd
  0
BLOCK
  5
361
100
AcDbEntity
  8
0
100
AcDbBlockBegin
  2
*B37
 70
     0
 10
0.0
 20
0.0
 30
0.0
  3
*B37
  1

  0
LINE
  5
362
100
AcDbEntity
  8
0
  6
Continuous
 62
     8
100
AcDbLine
 10
186.08293
 20
90.013156
 30
0.0
 11
186.08293
 21
94.012806
 31
0.0
  0
LINE
  5
363
100
AcDbEntity
  8
0
  6
Continuous
 62
     8
100
AcDbLine
 10
186.08293
 20
188.007555
 30
0.0
 11
186.08293
 21
192.007417
 31
0.0
  0
LINE
  5
364
100
AcDbEntity
  8
0
  6
Continuous
 62
     8
100
AcDbLine
 10
186.08293
 20
94.012806
 30
0.0
 11
186.08293
 21
99.935381
 31
0.0
  0
LINE
  5
365
100
AcDbEntity
  8
0
  6
Continuous
 62
     8
100
AcDbLine
 10
186.08293
 20
100.935293
 30
0.0
 11
186.08293
 21
101.935206
 31
0.0
  0
LINE
  5
366
100
AcDbEntity
  8
0
  6
Continuous
 62
     8
100
AcDbLine
 10
186.08293
 20
102.935118
 30
0.0
 11
186.08293
 21
108.857481
 31
0.0
  0
LINE
  5
367
100
AcDbEntity
  8
0
  6
Continuous
 62
     8
100
AcDbLine
 10
186.08293
 20
109.857606
 30
0.0
 11
186.08293
 21
110.857518
 31
0.0
  0
LINE
  5
368
100
AcDbEntity
  8
0
  6
Continuous
 62
     8
100
AcDbLine
 10
186.08293
 20
111.857431
 30
0.0
 11
186.08293
 21
117.779793
 31
0.0
  0
LINE
  5
369
100
AcDbEntity
  8
0
  6
Continuous
 62
     8
100
AcDbLine
 10
186.08293
 20
118.779706
 30
0.0
 11
186.08293
 21
119.779618
 31
0.0
  0
LINE
  5
36A
100
AcDbEntity
  8
0
  6
Continuous
 62
     8
100
AcDbLine
 10
186.08293
 20
120.779743
 30
0.0
 11
186.08293
 21
126.702106
 31
0.0
  0
LINE
  5
36B
100
AcDbEntity
  8
0
  6
Continuous
 62
     8
100
AcDbLine
 10
186.08293
 20
127.702018
 30
0.0
 11
186.08293
 21
128.701931
 31
0.0
  0
LINE
  5
36C
100
AcDbEntity
  8
0
  6
Continuous
 62
     8
100
AcDbLine
 10
186.08293
 20
129.701843
 30
0.0
 11
186.08293
 21
135.624418
 31
0.0
  0
LINE
  5
36D
100
AcDbEntity
  8
0
  6
Continuous
 62
     8
100
AcDbLine
 10
186.08293
 20
136.624331
 30
0.0
 11
186.08293
 21
137.624243
 31
0.0
  0
LINE
  5
36E
100
AcDbEntity
  8
0
  6
Continuous
 62
     8
100
AcDbLine
 10
186.08293
 20
138.624156
 30
0.0
 11
186.08293
 21
144.546518
 31
0.0
  0
LINE
  5
36F
100
AcDbEntity
  8
0
  6
Continuous
 62
     8
100
AcDbLine
 10
186.08293
 20
145.546431
 30
0.0
 11
186.08293
 21
146.546556
 31
0.0
  0
LINE
  5
370
100
AcDbEntity
  8
0
  6
Continuous
 62
     8
100
AcDbLine
 10
186.08293
 20
147.546468
 30
0.0
 11
186.08293
 21
153.468831
 31
0.0
  0
LINE
  5
371
100
AcDbEntity
  8
0
  6
Continuous
 62
     8
100
AcDbLine
 10
186.08293
 20
156.468781
 30
0.0
 11
186.08293
 21
162.103512
 31
0.0
  0
LINE
  5
372
100
AcDbEntity
  8
0
  6
Continuous
 62
     8
100
AcDbLine
 10
186.08293
 20
163.103424
 30
0.0
 11
186.08293
 21
164.103337
 31
0.0
  0
LINE
  5
373
100
AcDbEntity
  8
0
  6
Continuous
 62
     8
100
AcDbLine
 10
186.08293
 20
165.103462
 30
0.0
 11
186.08293
 21
170.738193
 31
0.0
  0
LINE
  5
374
100
AcDbEntity
  8
0
  6
Continuous
 62
     8
100
AcDbLine
 10
186.08293
 20
171.738105
 30
0.0
 11
186.08293
 21
172.738018
 31
0.0
  0
LINE
  5
375
100
AcDbEntity
  8
0
  6
Continuous
 62
     8
100
AcDbLine
 10
186.08293
 20
173.738143
 30
0.0
 11
186.08293
 21
179.372874
 31
0.0
  0
LINE
  5
376
100
AcDbEntity
  8
0
  6
Continuous
 62
     8
100
AcDbLine
 10
186.08293
 20
180.372786
 30
0.0
 11
186.08293
 21
181.372699
 31
0.0
  0
LINE
  5
377
100
AcDbEntity
  8
0
  6
Continuous
 62
     8
100
AcDbLine
 10
186.08293
 20
182.372611
 30
0.0
 11
186.08293
 21
188.007555
 31
0.0
  0
ENDBLK
  5
378
100
AcDbEntity
  8
0
100
AcDbBlockEnd
  0
BLOCK
  5
37B
100
AcDbEntity
  8
0
100
AcDbBlockBegin
  2
*B38
 70
     0
 10
0.0
 20
0.0
 30
0.0
  3
*B38
  1

  0
LINE
  5
37C
100
AcDbEntity
  8
0
  6
Continuous
 62
     8
100
AcDbLine
 10
125.383122
 20
155.968718
 30
0.0
 11
125.383122
 21
179.00813
 31
0.0
  0
ENDBLK
  5
37D
100
AcDbEntity
  8
0
100
AcDbBlockEnd
  0
BLOCK
  5
380
100
AcDbEntity
  8
0
100
AcDbBlockBegin
  2
*B39
 70
     0
 10
0.0
 20
0.0
 30
0.0
  3
*B39
  1

  0
LINE
  5
381
100
AcDbEntity
  8
0
  6
Continuous
 62
     8
100
AcDbLine
 10
115.782942
 20
154.968806
 30
0.0
 11
120.583032
 21
154.968806
 31
0.0
  0
LINE
  5
382
100
AcDbEntity
  8
0
  6
Continuous
 62
     8
100
AcDbLine
 10
123.582982
 20
154.968806
 30
0.0
 11
128.383072
 21
154.968806
 31
0.0
  0
ENDBLK
  5
383
100
AcDbEntity
  8
0
100
AcDbBlockEnd
  0
BLOCK
  5
386
100
AcDbEntity
  8
0
100
AcDbBlockBegin
  2
*B40
 70
     0
 10
0.0
 20
0.0
 30
0.0
  3
*B40
  1

  0
LINE
  5
387
100
AcDbEntity
  8
0
  6
Continuous
 62
     8
100
AcDbLine
 10
29.083072
 20
172.967656
 30
0.0
 11
33.95815
 21
172.967656
 31
0.0
  0
LINE
  5
388
100
AcDbEntity
  8
0
  6
Continuous
 62
     8
100
AcDbLine
 10
34.958063
 20
172.967656
 30
0.0
 11
35.957975
 21
172.967656
 31
0.0
  0
LINE
  5
389
100
AcDbEntity
  8
0
  6
Continuous
 62
     8
100
AcDbLine
 10
36.9581
 20
172.967656
 30
0.0
 11
41.832966
 21
172.967656
 31
0.0
  0
LINE
  5
38A
100
AcDbEntity
  8
0
  6
Continuous
 62
     8
100
AcDbLine
 10
42.833091
 20
172.967656
 30
0.0
 11
43.833003
 21
172.967656
 31
0.0
  0
LINE
  5
38B
100
AcDbEntity
  8
0
  6
Continuous
 62
     8
100
AcDbLine
 10
44.833128
 20
172.967656
 30
0.0
 11
49.707994
 21
172.967656
 31
0.0
  0
LINE
  5
38C
100
AcDbEntity
  8
0
  6
Continuous
 62
     8
100
AcDbLine
 10
50.708118
 20
172.967656
 30
0.0
 11
51.708031
 21
172.967656
 31
0.0
  0
LINE
  5
38D
100
AcDbEntity
  8
0
  6
Continuous
 62
     8
100
AcDbLine
 10
52.708156
 20
172.967656
 30
0.0
 11
57.583021
 21
172.967656
 31
0.0
  0
ENDBLK
  5
38E
100
AcDbEntity
  8
0
100
AcDbBlockEnd
  0
BLOCK
  5
391
100
AcDbEntity
  8
0
100
AcDbBlockBegin
  2
*B41
 70
     0
 10
0.0
 20
0.0
 30
0.0
  3
*B41
  1

  0
LINE
  5
392
100
AcDbEntity
  8
0
  6
Continuous
 62
     8
100
AcDbLine
 10
122.083007
 20
90.013156
 30
0.0
 11
122.083007
 21
94.012806
 31
0.0
  0
LINE
  5
393
100
AcDbEntity
  8
0
  6
Continuous
 62
     8
100
AcDbLine
 10
122.083007
 20
188.007555
 30
0.0
 11
122.083007
 21
192.007417
 31
0.0
  0
LINE
  5
394
100
AcDbEntity
  8
0
  6
Continuous
 62
     8
100
AcDbLine
 10
122.083007
 20
94.012806
 30
0.0
 11
122.083007
 21
99.935381
 31
0.0
  0
LINE
  5
395
100
AcDbEntity
  8
0
  6
Continuous
 62
     8
100
AcDbLine
 10
122.083007
 20
100.935293
 30
0.0
 11
122.083007
 21
101.935206
 31
0.0
  0
LINE
  5
396
100
AcDbEntity
  8
0
  6
Continuous
 62
     8
100
AcDbLine
 10
122.083007
 20
102.935118
 30
0.0
 11
122.083007
 21
108.857481
 31
0.0
  0
LINE
  5
397
100
AcDbEntity
  8
0
  6
Continuous
 62
     8
100
AcDbLine
 10
122.083007
 20
109.857606
 30
0.0
 11
122.083007
 21
110.857518
 31
0.0
  0
LINE
  5
398
100
AcDbEntity
  8
0
  6
Continuous
 62
     8
100
AcDbLine
 10
122.083007
 20
111.857431
 30
0.0
 11
122.083007
 21
117.779793
 31
0.0
  0
LINE
  5
399
100
AcDbEntity
  8
0
  6
Continuous
 62
     8
100
AcDbLine
 10
122.083007
 20
118.779706
 30
0.0
 11
122.083007
 21
119.779618
 31
0.0
  0
LINE
  5
39A
100
AcDbEntity
  8
0
  6
Continuous
 62
     8
100
AcDbLine
 10
122.083007
 20
120.779743
 30
0.0
 11
122.083007
 21
126.702106
 31
0.0
  0
LINE
  5
39B
100
AcDbEntity
  8
0
  6
Continuous
 62
     8
100
AcDbLine
 10
122.083007
 20
127.702018
 30
0.0
 11
122.083007
 21
128.701931
 31
0.0
  0
LINE
  5
39C
100
AcDbEntity
  8
0
  6
Continuous
 62
     8
100
AcDbLine
 10
122.083007
 20
129.701843
 30
0.0
 11
122.083007
 21
135.624418
 31
0.0
  0
LINE
  5
39D
100
AcDbEntity
  8
0
  6
Continuous
 62
     8
100
AcDbLine
 10
122.083007
 20
136.624331
 30
0.0
 11
122.083007
 21
137.624243
 31
0.0
  0
LINE
  5
39E
100
AcDbEntity
  8
0
  6
Continuous
 62
     8
100
AcDbLine
 10
122.083007
 20
138.624156
 30
0.0
 11
122.083007
 21
144.546518
 31
0.0
  0
LINE
  5
39F
100
AcDbEntity
  8
0
  6
Continuous
 62
     8
100
AcDbLine
 10
122.083007
 20
145.546431
 30
0.0
 11
122.083007
 21
146.546556
 31
0.0
  0
LINE
  5
3A0
100
AcDbEntity
  8
0
  6
Continuous
 62
     8
100
AcDbLine
 10
122.083007
 20
147.546468
 30
0.0
 11
122.083007
 21
153.468831
 31
0.0
  0
LINE
  5
3A1
100
AcDbEntity
  8
0
  6
Continuous
 62
     8
100
AcDbLine
 10
122.083007
 20
156.468781
 30
0.0
 11
122.083007
 21
162.103512
 31
0.0
  0
LINE
  5
3A2
100
AcDbEntity
  8
0
  6
Continuous
 62
     8
100
AcDbLine
 10
122.083007
 20
163.103424
 30
0.0
 11
122.083007
 21
164.103337
 31
0.0
  0
LINE
  5
3A3
100
AcDbEntity
  8
0
  6
Continuous
 62
     8
100
AcDbLine
 10
122.083007
 20
165.103462
 30
0.0
 11
122.083007
 21
170.738193
 31
0.0
  0
LINE
  5
3A4
100
AcDbEntity
  8
0
  6
Continuous
 62
     8
100
AcDbLine
 10
122.083007
 20
171.738105
 30
0.0
 11
122.083007
 21
172.738018
 31
0.0
  0
LINE
  5
3A5
100
AcDbEntity
  8
0
  6
Continuous
 62
     8
100
AcDbLine
 10
122.083007
 20
173.738143
 30
0.0
 11
122.083007
 21
179.372874
 31
0.0
  0
LINE
  5
3A6
100
AcDbEntity
  8
0
  6
Continuous
 62
     8
100
AcDbLine
 10
122.083007
 20
180.372786
 30
0.0
 11
122.083007
 21
181.372699
 31
0.0
  0
LINE
  5
3A7
100
AcDbEntity
  8
0
  6
Continuous
 62
     8
100
AcDbLine
 10
122.083007
 20
182.372611
 30
0.0
 11
122.083007
 21
188.007555
 31
0.0
  0
ENDBLK
  5
3A8
100
AcDbEntity
  8
0
100
AcDbBlockEnd
  0
BLOCK
  5
3AB
100
AcDbEntity
  8
0
100
AcDbBlockBegin
  2
*B42
 70
     0
 10
0.0
 20
0.0
 30
0.0
  3
*B42
  1

  0
LINE
  5
3AC
100
AcDbEntity
  8
0
  6
Continuous
 62
     8
100
AcDbLine
 10
211.08308
 20
78.013781
 30
0.0
 11
211.08308
 21
103.971569
 31
0.0
  0
LINE
  5
3AD
100
AcDbEntity
  8
0
  6
Continuous
 62
     8
100
AcDbLine
 10
211.08308
 20
165.968056
 30
0.0
 11
211.08308
 21
179.00813
 31
0.0
  0
ENDBLK
  5
3AE
100
AcDbEntity
  8
0
100
AcDbBlockEnd
  0
BLOCK
  5
3B1
100
AcDbEntity
  8
0
100
AcDbBlockBegin
  2
*B43
 70
     0
 10
0.0
 20
0.0
 30
0.0
  3
*B43
  1

  0
LINE
  5
3B2
100
AcDbEntity
  8
0
  6
Continuous
 62
     8
100
AcDbLine
 10
195.983063
 20
14.017469
 30
0.0
 11
195.983063
 21
33.578324
 31
0.0
  0
ENDBLK
  5
3B3
100
AcDbEntity
  8
0
100
AcDbBlockEnd
  0
BLOCK
  5
3B6
100
AcDbEntity
  8
0
100
AcDbBlockBegin
  2
*B44
 70
     0
 10
0.0
 20
0.0
 30
0.0
  3
*B44
  1

  0
LINE
  5
3B7
100
AcDbEntity
  8
0
  6
Continuous
 62
     8
100
AcDbLine
 10
21.018131
 20
55.701945
 30
0.0
 11
50.083147
 21
55.701945
 31
0.0
  0
ENDBLK
  5
3B8
100
AcDbEntity
  8
0
100
AcDbBlockEnd
  0
BLOCK
  5
3BB
100
AcDbEntity
  8
0
100
AcDbBlockBegin
  2
*B45
 70
     0
 10
0.0
 20
0.0
 30
0.0
  3
*B45
  1

  0
LINE
  5
3BC
100
AcDbEntity
  8
0
  6
Continuous
 62
     8
100
AcDbLine
 10
110.082995
 20
66.014406
 30
0.0
 11
110.082995
 21
70.014268
 31
0.0
  0
LINE
  5
3BD
100
AcDbEntity
  8
0
  6
Continuous
 62
     8
100
AcDbLine
 10
110.082995
 20
49.477293
 30
0.0
 11
110.082995
 21
53.077148
 31
0.0
  0
LINE
  5
3BE
100
AcDbEntity
  8
0
  6
Continuous
 62
     8
100
AcDbLine
 10
110.082995
 20
56.076886
 30
0.0
 11
110.082995
 21
66.014406
 31
0.0
  0
ENDBLK
  5
3BF
100
AcDbEntity
  8
0
100
AcDbBlockEnd
  0
BLOCK
  5
3C2
100
AcDbEntity
  8
0
100
AcDbBlockBegin
  2
*B46
 70
     0
 10
0.0
 20
0.0
 30
0.0
  3
*B46
  1

  0
LINE
  5
3C3
100
AcDbEntity
  8
0
  6
Continuous
 62
     8
100
AcDbLine
 10
212.082992
 20
29.703371
 30
0.0
 11
238.01805
 21
29.703371
 31
0.0
  0
ENDBLK
  5
3C4
100
AcDbEntity
  8
0
100
AcDbBlockEnd
  0
BLOCK
  5
3C7
100
AcDbEntity
  8
0
100
AcDbBlockBegin
  2
*B47
 70
     0
 10
0.0
 20
0.0
 30
0.0
  3
*B47
  1

  0
LINE
  5
3C8
100
AcDbEntity
  8
0
  6
Continuous
 62
     8
100
AcDbLine
 10
212.082992
 20
59.701808
 30
0.0
 11
238.01805
 21
59.701808
 31
0.0
  0
ENDBLK
  5
3C9
100
AcDbEntity
  8
0
100
AcDbBlockEnd
  0
BLOCK
  5
3CC
100
AcDbEntity
  8
0
100
AcDbBlockBegin
  2
*B48
 70
     0
 10
0.0
 20
0.0
 30
0.0
  3
*B48
  1

  0
LINE
  5
3CD
100
AcDbEntity
  8
0
  6
Continuous
 62
     8
100
AcDbLine
 10
222.018175
 20
154.968806
 30
0.0
 11
226.018038
 21
154.968806
 31
0.0
  0
LINE
  5
3CE
100
AcDbEntity
  8
0
  6
Continuous
 62
     8
100
AcDbLine
 10
179.783078
 20
154.968806
 30
0.0
 11
184.582955
 21
154.968806
 31
0.0
  0
LINE
  5
3CF
100
AcDbEntity
  8
0
  6
Continuous
 62
     8
100
AcDbLine
 10
187.582905
 20
154.968806
 30
0.0
 11
193.941813
 21
154.968806
 31
0.0
  0
LINE
  5
3D0
100
AcDbEntity
  8
0
  6
Continuous
 62
     8
100
AcDbLine
 10
194.941726
 20
154.968806
 30
0.0
 11
195.941851
 21
154.968806
 31
0.0
  0
LINE
  5
3D1
100
AcDbEntity
  8
0
  6
Continuous
 62
     8
100
AcDbLine
 10
196.941763
 20
154.968806
 30
0.0
 11
203.300459
 21
154.968806
 31
0.0
  0
LINE
  5
3D2
100
AcDbEntity
  8
0
  6
Continuous
 62
     8
100
AcDbLine
 10
204.300584
 20
154.968806
 30
0.0
 11
205.300497
 21
154.968806
 31
0.0
  0
LINE
  5
3D3
100
AcDbEntity
  8
0
  6
Continuous
 62
     8
100
AcDbLine
 10
206.300622
 20
154.968806
 30
0.0
 11
212.659317
 21
154.968806
 31
0.0
  0
LINE
  5
3D4
100
AcDbEntity
  8
0
  6
Continuous
 62
     8
100
AcDbLine
 10
213.65923
 20
154.968806
 30
0.0
 11
214.659355
 21
154.968806
 31
0.0
  0
LINE
  5
3D5
100
AcDbEntity
  8
0
  6
Continuous
 62
     8
100
AcDbLine
 10
215.659267
 20
154.968806
 30
0.0
 11
222.018175
 21
154.968806
 31
0.0
  0
ENDBLK
  5
3D6
100
AcDbEntity
  8
0
100
AcDbBlockEnd
  0
BLOCK
  5
3D9
100
AcDbEntity
  8
0
100
AcDbBlockBegin
  2
*B49
 70
     0
 10
0.0
 20
0.0
 30
0.0
  3
*B49
  1

  0
LINE
  5
3DA
100
AcDbEntity
  8
0
  6
Continuous
 62
     8
100
AcDbLine
 10
212.082992
 20
164.968143
 30
0.0
 11
238.01805
 21
164.968143
 31
0.0
  0
ENDBLK
  5
3DB
100
AcDbEntity
  8
0
100
AcDbBlockEnd
  0
BLOCK
  5
3DE
100
AcDbEntity
  8
0
100
AcDbBlockBegin
  2
*B50
 70
     0
 10
0.0
 20
0.0
 30
0.0
  3
*B50
  1

  0
LINE
  5
3DF
100
AcDbEntity
  8
0
  6
Continuous
 62
     8
100
AcDbLine
 10
21.018131
 20
33.703233
 30
0.0
 11
50.083147
 21
33.703233
 31
0.0
  0
ENDBLK
  5
3E0
100
AcDbEntity
  8
0
100
AcDbBlockEnd
  0
BLOCK
  5
3E3
100
AcDbEntity
  8
0
100
AcDbBlockBegin
  2
*B51
 70
     0
 10
0.0
 20
0.0
 30
0.0
  3
*B51
  1

  0
LINE
  5
3E4
100
AcDbEntity
  8
0
  6
Continuous
 62
     8
100
AcDbLine
 10
200.183035
 20
14.017469
 30
0.0
 11
200.183035
 21
33.578324
 31
0.0
  0
ENDBLK
  5
3E5
100
AcDbEntity
  8
0
100
AcDbBlockEnd
  0
BLOCK
  5
3E8
100
AcDbEntity
  8
0
100
AcDbBlockBegin
  2
*B52
 70
     0
 10
0.0
 20
0.0
 30
0.0
  3
*B52
  1

  0
LINE
  5
3E9
100
AcDbEntity
  8
0
  6
Continuous
 62
     8
100
AcDbLine
 10
154.082969
 20
90.013156
 30
0.0
 11
154.082969
 21
94.012806
 31
0.0
  0
LINE
  5
3EA
100
AcDbEntity
  8
0
  6
Continuous
 62
     8
100
AcDbLine
 10
154.082969
 20
94.012806
 30
0.0
 11
154.082969
 21
99.002384
 31
0.0
  0
LINE
  5
3EB
100
AcDbEntity
  8
0
  6
Continuous
 62
     8
100
AcDbLine
 10
154.082969
 20
100.002296
 30
0.0
 11
154.082969
 21
101.002421
 31
0.0
  0
LINE
  5
3EC
100
AcDbEntity
  8
0
  6
Continuous
 62
     8
100
AcDbLine
 10
154.082969
 20
102.002334
 30
0.0
 11
154.082969
 21
106.991912
 31
0.0
  0
LINE
  5
3ED
100
AcDbEntity
  8
0
  6
Continuous
 62
     8
100
AcDbLine
 10
154.082969
 20
107.991825
 30
0.0
 11
154.082969
 21
108.991737
 31
0.0
  0
LINE
  5
3EE
100
AcDbEntity
  8
0
  6
Continuous
 62
     8
100
AcDbLine
 10
154.082969
 20
109.99165
 30
0.0
 11
154.082969
 21
114.981228
 31
0.0
  0
LINE
  5
3EF
100
AcDbEntity
  8
0
  6
Continuous
 62
     8
100
AcDbLine
 10
154.082969
 20
115.98114
 30
0.0
 11
154.082969
 21
116.981053
 31
0.0
  0
LINE
  5
3F0
100
AcDbEntity
  8
0
  6
Continuous
 62
     8
100
AcDbLine
 10
154.082969
 20
117.980965
 30
0.0
 11
154.082969
 21
122.970544
 31
0.0
  0
ENDBLK
  5
3F1
100
AcDbEntity
  8
0
100
AcDbBlockEnd
  0
BLOCK
  5
3F4
100
AcDbEntity
  8
0
100
AcDbBlockBegin
  2
*B53
 70
     0
 10
0.0
 20
0.0
 30
0.0
  3
*B53
  1

  0
LINE
  5
3F5
100
AcDbEntity
  8
0
  6
Continuous
 62
     8
100
AcDbLine
 10
21.018131
 20
181.966868
 30
0.0
 11
31.775847
 21
181.966868
 31
0.0
  0
ENDBLK
  5
3F6
100
AcDbEntity
  8
0
100
AcDbBlockEnd
  0
BLOCK
  5
3F9
100
AcDbEntity
  8
0
100
AcDbBlockBegin
  2
*B54
 70
     0
 10
0.0
 20
0.0
 30
0.0
  3
*B54
  1

  0
LINE
  5
3FA
100
AcDbEntity
  8
0
  6
Continuous
 62
     8
100
AcDbLine
 10
211.08308
 20
60.70172
 30
0.0
 11
211.08308
 21
70.014268
 31
0.0
  0
ENDBLK
  5
3FB
100
AcDbEntity
  8
0
100
AcDbBlockEnd
  0
BLOCK
  5
3FE
100
AcDbEntity
  8
0
100
AcDbBlockBegin
  2
*B55
 70
     0
 10
0.0
 20
0.0
 30
0.0
  3
*B55
  1

  0
LINE
  5
3FF
100
AcDbEntity
  8
0
  6
Continuous
 62
     8
100
AcDbLine
 10
128.683024
 20
14.017469
 30
0.0
 11
128.683024
 21
43.70257
 31
0.0
  0
ENDBLK
  5
400
100
AcDbEntity
  8
0
100
AcDbBlockEnd
  0
BLOCK
  5
403
100
AcDbEntity
  8
0
100
AcDbBlockBegin
  2
*B56
 70
     0
 10
0.0
 20
0.0
 30
0.0
  3
*B56
  1

  0
LINE
  5
404
100
AcDbEntity
  8
0
  6
Continuous
 62
     8
100
AcDbLine
 10
138.083094
 20
32.303313
 30
0.0
 11
138.083094
 21
43.20272
 31
0.0
  0
LINE
  5
405
100
AcDbEntity
  8
0
  6
Continuous
 62
     8
100
AcDbLine
 10
138.083094
 20
46.202458
 30
0.0
 11
138.083094
 21
57.101865
 31
0.0
  0
ENDBLK
  5
406
100
AcDbEntity
  8
0
100
AcDbBlockEnd
  0
BLOCK
  5
409
100
AcDbEntity
  8
0
100
AcDbBlockBegin
  2
*B57
 70
     0
 10
0.0
 20
0.0
 30
0.0
  3
*B57
  1

  0
LINE
  5
40A
100
AcDbEntity
  8
0
  6
Continuous
 62
     8
100
AcDbLine
 10
170.083056
 20
175.008267
 30
0.0
 11
170.083056
 21
179.00813
 31
0.0
  0
LINE
  5
40B
100
AcDbEntity
  8
0
  6
Continuous
 62
     8
100
AcDbLine
 10
170.083056
 20
108.671391
 30
0.0
 11
170.083056
 21
113.471056
 31
0.0
  0
LINE
  5
40C
100
AcDbEntity
  8
0
  6
Continuous
 62
     8
100
AcDbLine
 10
170.083056
 20
116.471006
 30
0.0
 11
170.083056
 21
122.262086
 31
0.0
  0
LINE
  5
40D
100
AcDbEntity
  8
0
  6
Continuous
 62
     8
100
AcDbLine
 10
170.083056
 20
123.261999
 30
0.0
 11
170.083056
 21
124.262124
 31
0.0
  0
LINE
  5
40E
100
AcDbEntity
  8
0
  6
Continuous
 62
     8
100
AcDbLine
 10
170.083056
 20
125.262036
 30
0.0
 11
170.083056
 21
131.053117
 31
0.0
  0
LINE
  5
40F
100
AcDbEntity
  8
0
  6
Continuous
 62
     8
100
AcDbLine
 10
170.083056
 20
132.053029
 30
0.0
 11
170.083056
 21
133.053154
 31
0.0
  0
LINE
  5
410
100
AcDbEntity
  8
0
  6
Continuous
 62
     8
100
AcDbLine
 10
170.083056
 20
134.053066
 30
0.0
 11
170.083056
 21
139.844147
 31
0.0
  0
LINE
  5
411
100
AcDbEntity
  8
0
  6
Continuous
 62
     8
100
AcDbLine
 10
170.083056
 20
140.844059
 30
0.0
 11
170.083056
 21
141.843972
 31
0.0
  0
LINE
  5
412
100
AcDbEntity
  8
0
  6
Continuous
 62
     8
100
AcDbLine
 10
170.083056
 20
142.844097
 30
0.0
 11
170.083056
 21
148.635177
 31
0.0
  0
LINE
  5
413
100
AcDbEntity
  8
0
  6
Continuous
 62
     8
100
AcDbLine
 10
170.083056
 20
149.635089
 30
0.0
 11
170.083056
 21
150.635214
 31
0.0
  0
LINE
  5
414
100
AcDbEntity
  8
0
  6
Continuous
 62
     8
100
AcDbLine
 10
170.083056
 20
151.635127
 30
0.0
 11
170.083056
 21
157.426207
 31
0.0
  0
LINE
  5
415
100
AcDbEntity
  8
0
  6
Continuous
 62
     8
100
AcDbLine
 10
170.083056
 20
158.42612
 30
0.0
 11
170.083056
 21
159.426032
 31
0.0
  0
LINE
  5
416
100
AcDbEntity
  8
0
  6
Continuous
 62
     8
100
AcDbLine
 10
170.083056
 20
160.426157
 30
0.0
 11
170.083056
 21
166.217237
 31
0.0
  0
LINE
  5
417
100
AcDbEntity
  8
0
  6
Continuous
 62
     8
100
AcDbLine
 10
170.083056
 20
167.21715
 30
0.0
 11
170.083056
 21
168.217275
 31
0.0
  0
LINE
  5
418
100
AcDbEntity
  8
0
  6
Continuous
 62
     8
100
AcDbLine
 10
170.083056
 20
169.217187
 30
0.0
 11
170.083056
 21
175.008267
 31
0.0
  0
ENDBLK
  5
419
100
AcDbEntity
  8
0
100
AcDbBlockEnd
  0
BLOCK
  5
41C
100
AcDbEntity
  8
0
100
AcDbBlockBegin
  2
*B58
 70
     0
 10
0.0
 20
0.0
 30
0.0
  3
*B58
  1

  0
LINE
  5
41D
100
AcDbEntity
  8
0
  6
Continuous
 62
     8
100
AcDbLine
 10
138.083094
 20
175.008267
 30
0.0
 11
138.083094
 21
179.00813
 31
0.0
  0
LINE
  5
41E
100
AcDbEntity
  8
0
  6
Continuous
 62
     8
100
AcDbLine
 10
138.083094
 20
108.671391
 30
0.0
 11
138.083094
 21
113.471056
 31
0.0
  0
LINE
  5
41F
100
AcDbEntity
  8
0
  6
Continuous
 62
     8
100
AcDbLine
 10
138.083094
 20
116.471006
 30
0.0
 11
138.083094
 21
122.262086
 31
0.0
  0
LINE
  5
420
100
AcDbEntity
  8
0
  6
Continuous
 62
     8
100
AcDbLine
 10
138.083094
 20
123.261999
 30
0.0
 11
138.083094
 21
124.262124
 31
0.0
  0
LINE
  5
421
100
AcDbEntity
  8
0
  6
Continuous
 62
     8
100
AcDbLine
 10
138.083094
 20
125.262036
 30
0.0
 11
138.083094
 21
131.053117
 31
0.0
  0
LINE
  5
422
100
AcDbEntity
  8
0
  6
Continuous
 62
     8
100
AcDbLine
 10
138.083094
 20
132.053029
 30
0.0
 11
138.083094
 21
133.053154
 31
0.0
  0
LINE
  5
423
100
AcDbEntity
  8
0
  6
Continuous
 62
     8
100
AcDbLine
 10
138.083094
 20
134.053066
 30
0.0
 11
138.083094
 21
139.844147
 31
0.0
  0
LINE
  5
424
100
AcDbEntity
  8
0
  6
Continuous
 62
     8
100
AcDbLine
 10
138.083094
 20
140.844059
 30
0.0
 11
138.083094
 21
141.843972
 31
0.0
  0
LINE
  5
425
100
AcDbEntity
  8
0
  6
Continuous
 62
     8
100
AcDbLine
 10
138.083094
 20
142.844097
 30
0.0
 11
138.083094
 21
148.635177
 31
0.0
  0
LINE
  5
426
100
AcDbEntity
  8
0
  6
Continuous
 62
     8
100
AcDbLine
 10
138.083094
 20
149.635089
 30
0.0
 11
138.083094
 21
150.635214
 31
0.0
  0
LINE
  5
427
100
AcDbEntity
  8
0
  6
Continuous
 62
     8
100
AcDbLine
 10
138.083094
 20
151.635127
 30
0.0
 11
138.083094
 21
157.426207
 31
0.0
  0
LINE
  5
428
100
AcDbEntity
  8
0
  6
Continuous
 62
     8
100
AcDbLine
 10
138.083094
 20
158.42612
 30
0.0
 11
138.083094
 21
159.426032
 31
0.0
  0
LINE
  5
429
100
AcDbEntity
  8
0
  6
Continuous
 62
     8
100
AcDbLine
 10
138.083094
 20
160.426157
 30
0.0
 11
138.083094
 21
166.217237
 31
0.0
  0
LINE
  5
42A
100
AcDbEntity
  8
0
  6
Continuous
 62
     8
100
AcDbLine
 10
138.083094
 20
167.21715
 30
0.0
 11
138.083094
 21
168.217275
 31
0.0
  0
LINE
  5
42B
100
AcDbEntity
  8
0
  6
Continuous
 62
     8
100
AcDbLine
 10
138.083094
 20
169.217187
 30
0.0
 11
138.083094
 21
175.008267
 31
0.0
  0
ENDBLK
  5
42C
100
AcDbEntity
  8
0
100
AcDbBlockEnd
  0
BLOCK
  5
42F
100
AcDbEntity
  8
0
100
AcDbBlockBegin
  2
*B59
 70
     0
 10
0.0
 20
0.0
 30
0.0
  3
*B59
  1

  0
LINE
  5
430
100
AcDbEntity
  8
0
  6
Continuous
 62
     8
100
AcDbLine
 10
32.583085
 20
44.702695
 30
0.0
 11
38.333166
 21
44.702695
 31
0.0
  0
LINE
  5
431
100
AcDbEntity
  8
0
  6
Continuous
 62
     8
100
AcDbLine
 10
39.333078
 20
44.702695
 30
0.0
 11
40.332991
 21
44.702695
 31
0.0
  0
LINE
  5
432
100
AcDbEntity
  8
0
  6
Continuous
 62
     8
100
AcDbLine
 10
41.333116
 20
44.702695
 30
0.0
 11
47.082984
 21
44.702695
 31
0.0
  0
LINE
  5
433
100
AcDbEntity
  8
0
  6
Continuous
 62
     8
100
AcDbLine
 10
48.083109
 20
44.702695
 30
0.0
 11
49.083022
 21
44.702695
 31
0.0
  0
LINE
  5
434
100
AcDbEntity
  8
0
  6
Continuous
 62
     8
100
AcDbLine
 10
50.083147
 20
44.702695
 30
0.0
 11
55.833015
 21
44.702695
 31
0.0
  0
LINE
  5
435
100
AcDbEntity
  8
0
  6
Continuous
 62
     8
100
AcDbLine
 10
56.83314
 20
44.702695
 30
0.0
 11
57.833053
 21
44.702695
 31
0.0
  0
LINE
  5
436
100
AcDbEntity
  8
0
  6
Continuous
 62
     8
100
AcDbLine
 10
58.832965
 20
44.702695
 30
0.0
 11
64.583046
 21
44.702695
 31
0.0
  0
LINE
  5
437
100
AcDbEntity
  8
0
  6
Continuous
 62
     8
100
AcDbLine
 10
67.582996
 20
44.702695
 30
0.0
 11
73.249804
 21
44.702695
 31
0.0
  0
LINE
  5
438
100
AcDbEntity
  8
0
  6
Continuous
 62
     8
100
AcDbLine
 10
74.249717
 20
44.702695
 30
0.0
 11
75.249629
 21
44.702695
 31
0.0
  0
LINE
  5
439
100
AcDbEntity
  8
0
  6
Continuous
 62
     8
100
AcDbLine
 10
76.249754
 20
44.702695
 30
0.0
 11
81.91635
 21
44.702695
 31
0.0
  0
LINE
  5
43A
100
AcDbEntity
  8
0
  6
Continuous
 62
     8
100
AcDbLine
 10
82.916475
 20
44.702695
 30
0.0
 11
83.916387
 21
44.702695
 31
0.0
  0
LINE
  5
43B
100
AcDbEntity
  8
0
  6
Continuous
 62
     8
100
AcDbLine
 10
84.9163
 20
44.702695
 30
0.0
 11
90.583108
 21
44.702695
 31
0.0
  0
LINE
  5
43C
100
AcDbEntity
  8
0
  6
Continuous
 62
     8
100
AcDbLine
 10
93.583058
 20
44.702695
 30
0.0
 11
99.783068
 21
44.702695
 31
0.0
  0
LINE
  5
43D
100
AcDbEntity
  8
0
  6
Continuous
 62
     8
100
AcDbLine
 10
100.78298
 20
44.702695
 30
0.0
 11
101.783105
 21
44.702695
 31
0.0
  0
LINE
  5
43E
100
AcDbEntity
  8
0
  6
Continuous
 62
     8
100
AcDbLine
 10
102.783018
 20
44.702695
 30
0.0
 11
108.983027
 21
44.702695
 31
0.0
  0
LINE
  5
43F
100
AcDbEntity
  8
0
  6
Continuous
 62
     8
100
AcDbLine
 10
109.98294
 20
44.702695
 30
0.0
 11
110.983065
 21
44.702695
 31
0.0
  0
LINE
  5
440
100
AcDbEntity
  8
0
  6
Continuous
 62
     8
100
AcDbLine
 10
111.982977
 20
44.702695
 30
0.0
 11
118.182987
 21
44.702695
 31
0.0
  0
LINE
  5
441
100
AcDbEntity
  8
0
  6
Continuous
 62
     8
100
AcDbLine
 10
119.183112
 20
44.702695
 30
0.0
 11
120.183025
 21
44.702695
 31
0.0
  0
LINE
  5
442
100
AcDbEntity
  8
0
  6
Continuous
 62
     8
100
AcDbLine
 10
121.182937
 20
44.702695
 30
0.0
 11
127.382947
 21
44.702695
 31
0.0
  0
LINE
  5
443
100
AcDbEntity
  8
0
  6
Continuous
 62
     8
100
AcDbLine
 10
128.383072
 20
44.702695
 30
0.0
 11
129.382984
 21
44.702695
 31
0.0
  0
LINE
  5
444
100
AcDbEntity
  8
0
  6
Continuous
 62
     8
100
AcDbLine
 10
130.383109
 20
44.702695
 30
0.0
 11
136.583119
 21
44.702695
 31
0.0
  0
LINE
  5
445
100
AcDbEntity
  8
0
  6
Continuous
 62
     8
100
AcDbLine
 10
139.583069
 20
44.702695
 30
0.0
 11
145.19422
 21
44.702695
 31
0.0
  0
LINE
  5
446
100
AcDbEntity
  8
0
  6
Continuous
 62
     8
100
AcDbLine
 10
146.194133
 20
44.702695
 30
0.0
 11
147.194045
 21
44.702695
 31
0.0
  0
LINE
  5
447
100
AcDbEntity
  8
0
  6
Continuous
 62
     8
100
AcDbLine
 10
148.19417
 20
44.702695
 30
0.0
 11
153.805321
 21
44.702695
 31
0.0
  0
LINE
  5
448
100
AcDbEntity
  8
0
  6
Continuous
 62
     8
100
AcDbLine
 10
154.805234
 20
44.702695
 30
0.0
 11
155.805146
 21
44.702695
 31
0.0
  0
LINE
  5
449
100
AcDbEntity
  8
0
  6
Continuous
 62
     8
100
AcDbLine
 10
156.805271
 20
44.702695
 30
0.0
 11
162.416423
 21
44.702695
 31
0.0
  0
LINE
  5
44A
100
AcDbEntity
  8
0
  6
Continuous
 62
     8
100
AcDbLine
 10
163.416335
 20
44.702695
 30
0.0
 11
164.416248
 21
44.702695
 31
0.0
  0
LINE
  5
44B
100
AcDbEntity
  8
0
  6
Continuous
 62
     8
100
AcDbLine
 10
165.416373
 20
44.702695
 30
0.0
 11
171.027524
 21
44.702695
 31
0.0
  0
LINE
  5
44C
100
AcDbEntity
  8
0
  6
Continuous
 62
     8
100
AcDbLine
 10
172.027436
 20
44.702695
 30
0.0
 11
173.027561
 21
44.702695
 31
0.0
  0
LINE
  5
44D
100
AcDbEntity
  8
0
  6
Continuous
 62
     8
100
AcDbLine
 10
174.027474
 20
44.702695
 30
0.0
 11
179.638625
 21
44.702695
 31
0.0
  0
LINE
  5
44E
100
AcDbEntity
  8
0
  6
Continuous
 62
     8
100
AcDbLine
 10
180.638537
 20
44.702695
 30
0.0
 11
181.63845
 21
44.702695
 31
0.0
  0
LINE
  5
44F
100
AcDbEntity
  8
0
  6
Continuous
 62
     8
100
AcDbLine
 10
182.638575
 20
44.702695
 30
0.0
 11
188.249726
 21
44.702695
 31
0.0
  0
LINE
  5
450
100
AcDbEntity
  8
0
  6
Continuous
 62
     8
100
AcDbLine
 10
189.249639
 20
44.702695
 30
0.0
 11
190.249763
 21
44.702695
 31
0.0
  0
LINE
  5
451
100
AcDbEntity
  8
0
  6
Continuous
 62
     8
100
AcDbLine
 10
191.249676
 20
44.702695
 30
0.0
 11
196.860827
 21
44.702695
 31
0.0
  0
LINE
  5
452
100
AcDbEntity
  8
0
  6
Continuous
 62
     8
100
AcDbLine
 10
197.86074
 20
44.702695
 30
0.0
 11
198.860865
 21
44.702695
 31
0.0
  0
LINE
  5
453
100
AcDbEntity
  8
0
  6
Continuous
 62
     8
100
AcDbLine
 10
199.860777
 20
44.702695
 30
0.0
 11
205.471928
 21
44.702695
 31
0.0
  0
LINE
  5
454
100
AcDbEntity
  8
0
  6
Continuous
 62
     8
100
AcDbLine
 10
206.471841
 20
44.702695
 30
0.0
 11
207.471966
 21
44.702695
 31
0.0
  0
LINE
  5
455
100
AcDbEntity
  8
0
  6
Continuous
 62
     8
100
AcDbLine
 10
208.471878
 20
44.702695
 30
0.0
 11
214.08303
 21
44.702695
 31
0.0
  0
ENDBLK
  5
456
100
AcDbEntity
  8
0
100
AcDbBlockEnd
  0
BLOCK
  5
459
100
AcDbEntity
  8
0
100
AcDbBlockBegin
  2
*B60
 70
     0
 10
0.0
 20
0.0
 30
0.0
  3
*B60
  1

  0
LINE
  5
45A
100
AcDbEntity
  8
0
  6
Continuous
 62
     8
100
AcDbLine
 10
32.083022
 20
181.766546
 30
0.0
 11
32.083022
 21
192.007417
 31
0.0
  0
ENDBLK
  5
45B
100
AcDbEntity
  8
0
100
AcDbBlockEnd
  0
BLOCK
  5
45E
100
AcDbEntity
  8
0
100
AcDbBlockBegin
  2
*B61
 70
     0
 10
0.0
 20
0.0
 30
0.0
  3
*B61
  1

  0
LINE
  5
45F
100
AcDbEntity
  8
0
  6
Continuous
 62
     8
100
AcDbLine
 10
92.083083
 20
38.703008
 30
0.0
 11
92.083083
 21
43.20272
 31
0.0
  0
LINE
  5
460
100
AcDbEntity
  8
0
  6
Continuous
 62
     8
100
AcDbLine
 10
92.083083
 20
46.202458
 30
0.0
 11
92.083083
 21
50.702383
 31
0.0
  0
ENDBLK
  5
461
100
AcDbEntity
  8
0
100
AcDbBlockEnd
  0
BLOCK
  5
464
100
AcDbEntity
  8
0
100
AcDbBlockBegin
  2
*B62
 70
     0
 10
0.0
 20
0.0
 30
0.0
  3
*B62
  1

  0
LINE
  5
465
100
AcDbEntity
  8
0
  6
Continuous
 62
     8
100
AcDbLine
 10
80.583133
 20
178.967343
 30
0.0
 11
80.583133
 21
192.007417
 31
0.0
  0
ENDBLK
  5
466
100
AcDbEntity
  8
0
100
AcDbBlockEnd
  0
BLOCK
  5
469
100
AcDbEntity
  8
0
100
AcDbBlockBegin
  2
*B63
 70
     0
 10
0.0
 20
0.0
 30
0.0
  3
*B63
  1

  0
LINE
  5
46A
100
AcDbEntity
  8
0
  6
Continuous
 62
     8
100
AcDbLine
 10
81.082983
 20
78.013781
 30
0.0
 11
81.082983
 21
103.971569
 31
0.0
  0
ENDBLK
  5
46B
100
AcDbEntity
  8
0
100
AcDbBlockEnd
  0
BLOCK
  5
46E
100
AcDbEntity
  8
0
100
AcDbBlockBegin
  2
*B64
 70
     0
 10
0.0
 20
0.0
 30
0.0
  3
*B64
  1

  0
LINE
  5
46F
100
AcDbEntity
  8
0
  6
Continuous
 62
     8
100
AcDbLine
 10
110.082995
 20
101.971744
 30
0.0
 11
110.082995
 21
109.471406
 31
0.0
  0
LINE
  5
470
100
AcDbEntity
  8
0
  6
Continuous
 62
     8
100
AcDbLine
 10
110.082995
 20
110.471319
 30
0.0
 11
110.082995
 21
111.471231
 31
0.0
  0
LINE
  5
471
100
AcDbEntity
  8
0
  6
Continuous
 62
     8
100
AcDbLine
 10
110.082995
 20
112.471144
 30
0.0
 11
110.082995
 21
119.970806
 31
0.0
  0
ENDBLK
  5
472
100
AcDbEntity
  8
0
100
AcDbBlockEnd
  0
BLOCK
  5
475
100
AcDbEntity
  8
0
100
AcDbBlockBegin
  2
*B65
 70
     0
 10
0.0
 20
0.0
 30
0.0
  3
*B65
  1

  0
LINE
  5
476
100
AcDbEntity
  8
0
  6
Continuous
 62
     8
100
AcDbLine
 10
118.783105
 20
155.968718
 30
0.0
 11
118.783105
 21
179.00813
 31
0.0
  0
ENDBLK
  5
477
100
AcDbEntity
  8
0
100
AcDbBlockEnd
  0
BLOCK
  5
47A
100
AcDbEntity
  8
0
100
AcDbBlockBegin
  2
*B66
 70
     0
 10
0.0
 20
0.0
 30
0.0
  3
*B66
  1

  0
LINE
  5
47B
100
AcDbEntity
  8
0
  6
Continuous
 62
     6
100
AcDbLine
 10
137.583032
 20
44.702695
 30
0.0
 11
138.582944
 21
44.702695
 31
0.0
  0
LINE
  5
47C
100
AcDbEntity
  8
0
  6
Continuous
 62
     6
100
AcDbLine
 10
138.083094
 20
44.202633
 30
0.0
 11
138.083094
 21
45.202545
 31
0.0
  0
ENDBLK
  5
47D
100
AcDbEntity
  8
0
100
AcDbBlockEnd
  0
BLOCK
  5
480
100
AcDbEntity
  8
0
100
AcDbBlockBegin
  2
*B67
 70
     0
 10
0.0
 20
0.0
 30
0.0
  3
*B67
  1

  0
LINE
  5
481
100
AcDbEntity
  8
0
  6
Continuous
 62
     6
100
AcDbLine
 10
169.582993
 20
114.971031
 30
0.0
 11
170.582906
 21
114.971031
 31
0.0
  0
LINE
  5
482
100
AcDbEntity
  8
0
  6
Continuous
 62
     6
100
AcDbLine
 10
170.083056
 20
114.470969
 30
0.0
 11
170.083056
 21
115.471094
 31
0.0
  0
ENDBLK
  5
483
100
AcDbEntity
  8
0
100
AcDbBlockEnd
  0
BLOCK
  5
486
100
AcDbEntity
  8
0
100
AcDbBlockBegin
  2
*B68
 70
     0
 10
0.0
 20
0.0
 30
0.0
  3
*B68
  1

  0
LINE
  5
487
100
AcDbEntity
  8
0
  6
Continuous
 62
     6
100
AcDbLine
 10
198.082942
 20
34.078174
 30
0.0
 11
198.082942
 21
35.078086
 31
0.0
  0
LINE
  5
488
100
AcDbEntity
  8
0
  6
Continuous
 62
     6
100
AcDbLine
 10
197.583092
 20
34.578236
 30
0.0
 11
198.583005
 21
34.578236
 31
0.0
  0
ENDBLK
  5
489
100
AcDbEntity
  8
0
100
AcDbBlockEnd
  0
BLOCK
  5
48C
100
AcDbEntity
  8
0
100
AcDbBlockBegin
  2
*B69
 70
     0
 10
0.0
 20
0.0
 30
0.0
  3
*B69
  1

  0
LINE
  5
48D
100
AcDbEntity
  8
0
  6
Continuous
 62
     6
100
AcDbLine
 10
186.08293
 20
154.468743
 30
0.0
 11
186.08293
 21
155.468656
 31
0.0
  0
LINE
  5
48E
100
AcDbEntity
  8
0
  6
Continuous
 62
     6
100
AcDbLine
 10
185.58308
 20
154.968806
 30
0.0
 11
186.582993
 21
154.968806
 31
0.0
  0
ENDBLK
  5
48F
100
AcDbEntity
  8
0
100
AcDbBlockEnd
  0
BLOCK
  5
492
100
AcDbEntity
  8
0
100
AcDbBlockBegin
  2
*B70
 70
     0
 10
0.0
 20
0.0
 30
0.0
  3
*B70
  1

  0
LINE
  5
493
100
AcDbEntity
  8
0
  6
Continuous
 62
     6
100
AcDbLine
 10
32.083022
 20
44.202633
 30
0.0
 11
32.083022
 21
45.202545
 31
0.0
  0
LINE
  5
494
100
AcDbEntity
  8
0
  6
Continuous
 62
     6
100
AcDbLine
 10
31.58296
 20
44.702695
 30
0.0
 11
32.583085
 21
44.702695
 31
0.0
  0
ENDBLK
  5
495
100
AcDbEntity
  8
0
100
AcDbBlockEnd
  0
BLOCK
  5
498
100
AcDbEntity
  8
0
100
AcDbBlockBegin
  2
*B71
 70
     0
 10
0.0
 20
0.0
 30
0.0
  3
*B71
  1

  0
LINE
  5
499
100
AcDbEntity
  8
0
  6
Continuous
 62
     6
100
AcDbLine
 10
137.583032
 20
114.971031
 30
0.0
 11
138.582944
 21
114.971031
 31
0.0
  0
LINE
  5
49A
100
AcDbEntity
  8
0
  6
Continuous
 62
     6
100
AcDbLine
 10
138.083094
 20
114.470969
 30
0.0
 11
138.083094
 21
115.471094
 31
0.0
  0
ENDBLK
  5
49B
100
AcDbEntity
  8
0
100
AcDbBlockEnd
  0
BLOCK
  5
49E
100
AcDbEntity
  8
0
100
AcDbBlockBegin
  2
*B72
 70
     0
 10
0.0
 20
0.0
 30
0.0
  3
*B72
  1

  0
LINE
  5
49F
100
AcDbEntity
  8
0
  6
Continuous
 62
     6
100
AcDbLine
 10
109.582932
 20
54.577123
 30
0.0
 11
110.583057
 21
54.577123
 31
0.0
  0
LINE
  5
4A0
100
AcDbEntity
  8
0
  6
Continuous
 62
     6
100
AcDbLine
 10
110.082995
 20
54.077061
 30
0.0
 11
110.082995
 21
55.076973
 31
0.0
  0
ENDBLK
  5
4A1
100
AcDbEntity
  8
0
100
AcDbBlockEnd
  0
BLOCK
  5
4A4
100
AcDbEntity
  8
0
100
AcDbBlockBegin
  2
*B73
 70
     0
 10
0.0
 20
0.0
 30
0.0
  3
*B73
  1

  0
LINE
  5
4A5
100
AcDbEntity
  8
0
  6
Continuous
 62
     6
100
AcDbLine
 10
92.083083
 20
44.202633
 30
0.0
 11
92.083083
 21
45.202545
 31
0.0
  0
LINE
  5
4A6
100
AcDbEntity
  8
0
  6
Continuous
 62
     6
100
AcDbLine
 10
91.58302
 20
44.702695
 30
0.0
 11
92.582933
 21
44.702695
 31
0.0
  0
ENDBLK
  5
4A7
100
AcDbEntity
  8
0
100
AcDbBlockEnd
  0
BLOCK
  5
4AA
100
AcDbEntity
  8
0
100
AcDbBlockBegin
  2
*B74
 70
     0
 10
0.0
 20
0.0
 30
0.0
  3
*B74
  1

  0
LINE
  5
4AB
100
AcDbEntity
  8
0
  6
Continuous
 62
     6
100
AcDbLine
 10
66.083021
 20
44.202633
 30
0.0
 11
66.083021
 21
45.202545
 31
0.0
  0
LINE
  5
4AC
100
AcDbEntity
  8
0
  6
Continuous
 62
     6
100
AcDbLine
 10
65.582959
 20
44.702695
 30
0.0
 11
66.583084
 21
44.702695
 31
0.0
  0
ENDBLK
  5
4AD
100
AcDbEntity
  8
0
100
AcDbBlockEnd
  0
BLOCK
  5
4B0
100
AcDbEntity
  8
0
100
AcDbBlockBegin
  2
*B75
 70
     0
 10
0.0
 20
0.0
 30
0.0
  3
*B75
  1

  0
LINE
  5
4B1
100
AcDbEntity
  8
0
  6
Continuous
 62
     6
100
AcDbLine
 10
121.582945
 20
154.968806
 30
0.0
 11
122.58307
 21
154.968806
 31
0.0
  0
LINE
  5
4B2
100
AcDbEntity
  8
0
  6
Continuous
 62
     6
100
AcDbLine
 10
122.083007
 20
154.468743
 30
0.0
 11
122.083007
 21
155.468656
 31
0.0
  0
ENDBLK
  5
4B3
100
AcDbEntity
  8
0
100
AcDbBlockEnd
  0
BLOCK
  5
4B6
100
AcDbEntity
  8
0
100
AcDbBlockBegin
  2
*B76
 70
     0
 10
0.0
 20
0.0
 30
0.0
  3
*B76
  1

  0
TEXT
  5
4B7
100
AcDbEntity
  8
TEXT
  6
Continuous
 62
     0
100
AcDbText
 10
183.8829
 20
110.0
 30
0.0
 40
6.0
  1
3
100
AcDbText
  0
ENDBLK
  5
4B8
100
AcDbEntity
  8
0
100
AcDbBlockEnd
  0
BLOCK
  5
4BB
100
AcDbEntity
  8
0
100
AcDbBlockBegin
  2
*B77
 70
     0
 10
0.0
 20
0.0
 30
0.0
  3
*B77
  1

  0
TEXT
  5
4BC
100
AcDbEntity
  8
TEXT
  6
Continuous
 62
     0
100
AcDbText
 10
167.8829
 20
155.0
 30
0.0
 40
6.0
  1
2
100
AcDbText
  0
ENDBLK
  5
4BD
100
AcDbEntity
  8
0
100
AcDbBlockEnd
  0
BLOCK
  5
4C0
100
AcDbEntity
  8
0
100
AcDbBlockBegin
  2
*B78
 70
     0
 10
0.0
 20
0.0
 30
0.0
  3
*B78
  1

  0
TEXT
  5
4C1
100
AcDbEntity
  8
TEXT
  6
Continuous
 62
     0
100
AcDbText
 10
151.8829
 20
109.0
 30
0.0
 40
6.0
  1
1
100
AcDbText
  0
ENDBLK
  5
4C2
100
AcDbEntity
  8
0
100
AcDbBlockEnd
  0
BLOCK
  5
4C5
100
AcDbEntity
  8
0
100
AcDbBlockBegin
  2
*B79
 70
     0
 10
0.0
 20
0.0
 30
0.0
  3
*B79
  1

  0
TEXT
  5
4C6
100
AcDbEntity
  8
TEXT
  6
Continuous
 62
     0
100
AcDbText
 10
99.765799
 20
132.0
 30
0.0
 40
6.0
  1
14
100
AcDbText
  0
ENDBLK
  5
4C7
100
AcDbEntity
  8
0
100
AcDbBlockEnd
  0
BLOCK
  5
4CA
100
AcDbEntity
  8
0
100
AcDbBlockBegin
  2
*B80
 70
     0
 10
0.0
 20
0.0
 30
0.0
  3
*B80
  1

  0
TEXT
  5
4CB
100
AcDbEntity
  8
TEXT
  6
Continuous
 62
     0
100
AcDbText
 10
198.765799
 20
133.0
 30
0.0
 40
6.0
  1
12
100
AcDbText
  0
ENDBLK
  5
4CC
100
AcDbEntity
  8
0
100
AcDbBlockEnd
  0
BLOCK
  5
4CF
100
AcDbEntity
  8
0
100
AcDbBlockBegin
  2
*B81
 70
     0
 10
0.0
 20
0.0
 30
0.0
  3
*B81
  1

  0
TEXT
  5
4D0
100
AcDbEntity
  8
TEXT
  6
Continuous
 62
     0
100
AcDbText
 10
134.8829
 20
155.0
 30
0.0
 40
6.0
  1
4
100
AcDbText
  0
ENDBLK
  5
4D1
100
AcDbEntity
  8
0
100
AcDbBlockEnd
  0
BLOCK
  5
4D4
100
AcDbEntity
  8
0
100
AcDbBlockBegin
  2
*B82
 70
     0
 10
0.0
 20
0.0
 30
0.0
  3
*B82
  1

  0
TEXT
  5
4D5
100
AcDbEntity
  8
TEXT
  6
Continuous
 62
     0
100
AcDbText
 10
119.8829
 20
110.0
 30
0.0
 40
6.0
  1
5
100
AcDbText
  0
ENDBLK
  5
4D6
100
AcDbEntity
  8
0
100
AcDbBlockEnd
  0
BLOCK
  5
4D9
100
AcDbEntity
  8
0
100
AcDbBlockBegin
  2
*B83
 70
     0
 10
0.0
 20
0.0
 30
0.0
  3
*B83
  1

  0
TEXT
  5
4DA
100
AcDbEntity
  8
TEXT
  6
Continuous
 62
     0
100
AcDbText
 10
87.6
 20
43.265025
 30
0.0
 40
3.5
  1
1
 50
90.0
100
AcDbText
  0
ENDBLK
  5
4DB
100
AcDbEntity
  8
0
100
AcDbBlockEnd
  0
BLOCK
  5
4DE
100
AcDbEntity
  8
0
100
AcDbBlockBegin
  2
*B84
 70
     0
 10
0.0
 20
0.0
 30
0.0
  3
*B84
  1

  0
TEXT
  5
4DF
100
AcDbEntity
  8
TEXT
  6
Continuous
 62
     0
100
AcDbText
 10
93.55
 20
37.665025
 30
0.0
 40
3.5
  1
0
 50
90.0
100
AcDbText
  0
ENDBLK
  5
4E0
100
AcDbEntity
  8
0
100
AcDbBlockEnd
  0
BLOCK
  5
4E3
100
AcDbEntity
  8
0
100
AcDbBlockBegin
  2
*B85
 70
     0
 10
0.0
 20
0.0
 30
0.0
  3
*B85
  1

  0
TEXT
  5
4E4
100
AcDbEntity
  8
TEXT
  6
Continuous
 62
     0
100
AcDbText
 10
222.5
 20
132.102171
 30
0.0
 40
3.0
  1
40
 50
90.0
100
AcDbText
  0
ENDBLK
  5
4E5
100
AcDbEntity
  8
0
100
AcDbBlockEnd
  0
BLOCK
  5
4E8
100
AcDbEntity
  8
0
100
AcDbBlockBegin
  2
*B86
 70
     0
 10
0.0
 20
0.0
 30
0.0
  3
*B86
  1

  0
TEXT
  5
4E9
100
AcDbEntity
  8
TEXT
  6
Continuous
 62
     0
100
AcDbText
 10
234.5
 20
132.102171
 30
0.0
 40
3.0
  1
60
 50
90.0
100
AcDbText
  0
ENDBLK
  5
4EA
100
AcDbEntity
  8
0
100
AcDbBlockEnd
  0
BLOCK
  5
4ED
100
AcDbEntity
  8
0
100
AcDbBlockBegin
  2
*B87
 70
     0
 10
0.0
 20
0.0
 30
0.0
  3
*B87
  1

  0
TEXT
  5
4EE
100
AcDbEntity
  8
TEXT
  6
Continuous
 62
     0
100
AcDbText
 10
234.5
 20
41.829804
 30
0.0
 40
3.0
  1
30
 50
90.0
100
AcDbText
  0
ENDBLK
  5
4EF
100
AcDbEntity
  8
0
100
AcDbBlockEnd
  0
BLOCK
  5
4F2
100
AcDbEntity
  8
0
100
AcDbBlockBegin
  2
*B88
 70
     0
 10
0.0
 20
0.0
 30
0.0
  3
*B88
  1

  0
TEXT
  5
4F3
100
AcDbEntity
  8
TEXT
  6
Continuous
 62
     0
100
AcDbText
 10
106.707747
 20
93.5
 30
0.0
 40
3.0
  1
25
100
AcDbText
  0
ENDBLK
  5
4F4
100
AcDbEntity
  8
0
100
AcDbBlockEnd
  0
BLOCK
  5
4F7
100
AcDbEntity
  8
0
100
AcDbBlockBegin
  2
*B89
 70
     0
 10
0.0
 20
0.0
 30
0.0
  3
*B89
  1

  0
TEXT
  5
4F8
100
AcDbEntity
  8
TEXT
  6
Continuous
 62
     0
100
AcDbText
 10
151.207747
 20
69.5
 30
0.0
 40
3.0
  1
88
100
AcDbText
  0
ENDBLK
  5
4F9
100
AcDbEntity
  8
0
100
AcDbBlockEnd
  0
BLOCK
  5
4FC
100
AcDbEntity
  8
0
100
AcDbBlockBegin
  2
*B90
 70
     0
 10
0.0
 20
0.0
 30
0.0
  3
*B90
  1

  0
TEXT
  5
4FD
100
AcDbEntity
  8
TEXT
  6
Continuous
 62
     0
100
AcDbText
 10
195.707747
 20
93.5
 30
0.0
 40
3.0
  1
25
100
AcDbText
  0
ENDBLK
  5
4FE
100
AcDbEntity
  8
0
100
AcDbBlockEnd
  0
BLOCK
  5
501
100
AcDbEntity
  8
0
100
AcDbBlockBegin
  2
*B91
 70
     0
 10
0.0
 20
0.0
 30
0.0
  3
*B91
  1

  0
TEXT
  5
502
100
AcDbEntity
  8
TEXT
  6
Continuous
 62
     0
100
AcDbText
 10
206.857143
 20
17.5
 30
0.0
 40
3.0
  1
M5
100
AcDbText
  0
ENDBLK
  5
503
100
AcDbEntity
  8
0
100
AcDbBlockEnd
  0
BLOCK
  5
506
100
AcDbEntity
  8
0
100
AcDbBlockBegin
  2
*B92
 70
     0
 10
0.0
 20
0.0
 30
0.0
  3
*B92
  1

  0
TEXT
  5
507
100
AcDbEntity
  8
TEXT
  6
Continuous
 62
     0
100
AcDbText
 10
129.785714
 20
17.5
 30
0.0
 40
3.0
  1
G 1/2"
100
AcDbText
  0
ENDBLK
  5
508
100
AcDbEntity
  8
0
100
AcDbBlockEnd
  0
BLOCK
  5
50B
100
AcDbEntity
  8
0
100
AcDbBlockBegin
  2
*B93
 70
     0
 10
0.0
 20
0.0
 30
0.0
  3
*B93
  1

  0
TEXT
  5
50C
100
AcDbEntity
  8
TEXT
  6
Continuous
 62
     0
100
AcDbText
 10
135.207747
 20
93.5
 30
0.0
 40
3.0
  1
32
100
AcDbText
  0
ENDBLK
  5
50D
100
AcDbEntity
  8
0
100
AcDbBlockEnd
  0
BLOCK
  5
510
100
AcDbEntity
  8
0
100
AcDbBlockBegin
  2
*B94
 70
     0
 10
0.0
 20
0.0
 30
0.0
  3
*B94
  1

  0
TEXT
  5
511
100
AcDbEntity
  8
TEXT
  6
Continuous
 62
     0
100
AcDbText
 10
187.707747
 20
178.5
 30
0.0
 40
3.0
  1
41
100
AcDbText
  0
ENDBLK
  5
512
100
AcDbEntity
  8
0
100
AcDbBlockEnd
  0
BLOCK
  5
515
100
AcDbEntity
  8
0
100
AcDbBlockBegin
  2
*B95
 70
     0
 10
0.0
 20
0.0
 30
0.0
  3
*B95
  1

  0
TEXT
  5
516
100
AcDbEntity
  8
TEXT
  6
Continuous
 62
     0
100
AcDbText
 10
151.207747
 20
178.5
 30
0.0
 40
3.0
  1
32
100
AcDbText
  0
ENDBLK
  5
517
100
AcDbEntity
  8
0
100
AcDbBlockEnd
  0
BLOCK
  5
51A
100
AcDbEntity
  8
0
100
AcDbBlockBegin
  2
*B96
 70
     0
 10
0.0
 20
0.0
 30
0.0
  3
*B96
  1

  0
TEXT
  5
51B
100
AcDbEntity
  8
TEXT
  6
Continuous
 62
     0
100
AcDbText
 10
141.779176
 20
81.5
 30
0.0
 40
3.0
  1
130
100
AcDbText
  0
ENDBLK
  5
51C
100
AcDbEntity
  8
0
100
AcDbBlockEnd
  0
BLOCK
  5
51F
100
AcDbEntity
  8
0
100
AcDbBlockBegin
  2
*B97
 70
     0
 10
0.0
 20
0.0
 30
0.0
  3
*B97
  1

  0
TEXT
  5
520
100
AcDbEntity
  8
TEXT
  6
Continuous
 62
     0
100
AcDbText
 10
21.5
 20
140.601947
 30
0.0
 40
3.0
  1
77
 50
90.0
100
AcDbText
  0
ENDBLK
  5
521
100
AcDbEntity
  8
0
100
AcDbBlockEnd
  0
BLOCK
  5
524
100
AcDbEntity
  8
0
100
AcDbBlockBegin
  2
*B98
 70
     0
 10
0.0
 20
0.0
 30
0.0
  3
*B98
  1

  0
TEXT
  5
525
100
AcDbEntity
  8
TEXT
  6
Continuous
 62
     0
100
AcDbText
 10
53.457747
 20
191.5
 30
0.0
 40
3.0
  1
48
100
AcDbText
  0
ENDBLK
  5
526
100
AcDbEntity
  8
0
100
AcDbBlockEnd
  0
BLOCK
  5
529
100
AcDbEntity
  8
0
100
AcDbBlockBegin
  2
*B99
 70
     0
 10
0.0
 20
0.0
 30
0.0
  3
*B99
  1

  0
TEXT
  5
52A
100
AcDbEntity
  8
TEXT
  6
Continuous
 62
     0
100
AcDbText
 10
102.328571
 20
178.5
 30
0.0
 40
3.0
  1
%%c6,6
100
AcDbText
  0
ENDBLK
  5
52B
100
AcDbEntity
  8
0
100
AcDbBlockEnd
  0
BLOCK
  5
52E
100
AcDbEntity
  8
0
100
AcDbBlockBegin
  2
*B100
 70
     0
 10
0.0
 20
0.0
 30
0.0
  3
*B100
  1

  0
TEXT
  5
52F
100
AcDbEntity
  8
TEXT
  6
Continuous
 62
     0
100
AcDbText
 10
167.207747
 20
93.5
 30
0.0
 40
3.0
  1
32
100
AcDbText
  0
ENDBLK
  5
530
100
AcDbEntity
  8
0
100
AcDbBlockEnd
  0
BLOCK
  5
533
100
AcDbEntity
  8
0
100
AcDbBlockBegin
  2
*B101
 70
     0
 10
0.0
 20
0.0
 30
0.0
  3
*B101
  1

  0
TEXT
  5
534
100
AcDbEntity
  8
TEXT
  6
Continuous
 62
     0
100
AcDbText
 10
222.5
 20
41.704804
 30
0.0
 40
3.0
  1
20
 50
90.0
100
AcDbText
  0
ENDBLK
  5
535
100
AcDbEntity
  8
0
100
AcDbBlockEnd
  0
BLOCK
  5
538
100
AcDbEntity
  8
0
100
AcDbBlockBegin
  2
*B102
 70
     0
 10
0.0
 20
0.0
 30
0.0
  3
*B102
  1

  0
TEXT
  5
539
100
AcDbEntity
  8
TEXT
  6
Continuous
 62
     0
100
AcDbText
 10
151.207747
 20
191.5
 30
0.0
 40
3.0
  1
64
100
AcDbText
  0
ENDBLK
  5
53A
100
AcDbEntity
  8
0
100
AcDbBlockEnd
  0
BLOCK
  5
53D
100
AcDbEntity
  8
0
100
AcDbBlockBegin
  2
*B103
 70
     0
 10
0.0
 20
0.0
 30
0.0
  3
*B103
  1

  0
TEXT
  5
53E
100
AcDbEntity
  8
TEXT
  6
Continuous
 62
     0
100
AcDbText
 10
201.707747
 20
69.5
 30
0.0
 40
3.0
  1
13
100
AcDbText
  0
ENDBLK
  5
53F
100
AcDbEntity
  8
0
100
AcDbBlockEnd
  0
BLOCK
  5
542
100
AcDbEntity
  8
0
100
AcDbBlockBegin
  2
*B104
 70
     0
 10
0.0
 20
0.0
 30
0.0
  3
*B104
  1

  0
TEXT
  5
543
100
AcDbEntity
  8
TEXT
  6
Continuous
 62
     0
100
AcDbText
 10
21.5
 20
41.829804
 30
0.0
 40
3.0
  1
22
 50
90.0
100
AcDbText
  0
ENDBLK
  5
544
100
AcDbEntity
  8
0
100
AcDbBlockEnd
  0
ENDSEC
  0
SECTION
  2
ENTITIES
  0
INSERT
  5
17A
100
AcDbEntity
  8
0
  6
HIDDEN
 62
   174
100
AcDbBlockReference
  2
*B1
 10
0.0
 20
0.0
 30
0.0
  0
INSERT
  5
223
100
AcDbEntity
  8
0
  6
Continuous
 62
   174
100
AcDbBlockReference
  2
*B2
 10
0.0
 20
0.0
 30
0.0
  0
INSERT
  5
229
100
AcDbEntity
  8
0
  6
Continuous
 62
   172
100
AcDbBlockReference
  2
*B3
 10
0.0
 20
0.0
 30
0.0
  0
INSERT
  5
234
100
AcDbEntity
  8
0
  6
Continuous
 62
   172
100
AcDbBlockReference
  2
*B4
 10
0.0
 20
0.0
 30
0.0
  0
INSERT
  5
23E
100
AcDbEntity
  8
0
  6
Continuous
 62
     0
100
AcDbBlockReference
  2
*B6
 10
0.0
 20
0.0
 30
0.0
  0
INSERT
  5
245
100
AcDbEntity
  8
0
  6
Continuous
 62
     0
100
AcDbBlockReference
  2
*B7
 10
0.0
 20
0.0
 30
0.0
  0
INSERT
  5
24C
100
AcDbEntity
  8
0
  6
Continuous
 62
     0
100
AcDbBlockReference
  2
*B8
 10
0.0
 20
0.0
 30
0.0
  0
INSERT
  5
253
100
AcDbEntity
  8
0
  6
Continuous
 62
     0
100
AcDbBlockReference
  2
*B9
 10
0.0
 20
0.0
 30
0.0
  0
INSERT
  5
25A
100
AcDbEntity
  8
0
  6
Continuous
 62
     0
100
AcDbBlockReference
  2
*B10
 10
0.0
 20
0.0
 30
0.0
  0
INSERT
  5
261
100
AcDbEntity
  8
0
  6
Continuous
 62
     0
100
AcDbBlockReference
  2
*B11
 10
0.0
 20
0.0
 30
0.0
  0
INSERT
  5
268
100
AcDbEntity
  8
0
  6
Continuous
 62
     0
100
AcDbBlockReference
  2
*B12
 10
0.0
 20
0.0
 30
0.0
  0
INSERT
  5
26F
100
AcDbEntity
  8
0
  6
Continuous
 62
     0
100
AcDbBlockReference
  2
*B13
 10
0.0
 20
0.0
 30
0.0
  0
INSERT
  5
276
100
AcDbEntity
  8
0
  6
Continuous
 62
     0
100
AcDbBlockReference
  2
*B14
 10
0.0
 20
0.0
 30
0.0
  0
INSERT
  5
27D
100
AcDbEntity
  8
0
  6
Continuous
 62
     0
100
AcDbBlockReference
  2
*B15
 10
0.0
 20
0.0
 30
0.0
  0
INSERT
  5
284
100
AcDbEntity
  8
0
  6
Continuous
 62
     0
100
AcDbBlockReference
  2
*B16
 10
0.0
 20
0.0
 30
0.0
  0
INSERT
  5
28B
100
AcDbEntity
  8
0
  6
Continuous
 62
     0
100
AcDbBlockReference
  2
*B17
 10
0.0
 20
0.0
 30
0.0
  0
INSERT
  5
292
100
AcDbEntity
  8
0
  6
Continuous
 62
     0
100
AcDbBlockReference
  2
*B18
 10
0.0
 20
0.0
 30
0.0
  0
INSERT
  5
299
100
AcDbEntity
  8
0
  6
Continuous
 62
     0
100
AcDbBlockReference
  2
*B19
 10
0.0
 20
0.0
 30
0.0
  0
INSERT
  5
2A0
100
AcDbEntity
  8
0
  6
Continuous
 62
     0
100
AcDbBlockReference
  2
*B20
 10
0.0
 20
0.0
 30
0.0
  0
INSERT
  5
2A7
100
AcDbEntity
  8
0
  6
Continuous
 62
     0
100
AcDbBlockReference
  2
*B21
 10
0.0
 20
0.0
 30
0.0
  0
INSERT
  5
2AE
100
AcDbEntity
  8
0
  6
Continuous
 62
     0
100
AcDbBlockReference
  2
*B22
 10
0.0
 20
0.0
 30
0.0
  0
INSERT
  5
2B5
100
AcDbEntity
  8
0
  6
Continuous
 62
     0
100
AcDbBlockReference
  2
*B23
 10
0.0
 20
0.0
 30
0.0
  0
INSERT
  5
2BC
100
AcDbEntity
  8
0
  6
Continuous
 62
     0
100
AcDbBlockReference
  2
*B24
 10
0.0
 20
0.0
 30
0.0
  0
INSERT
  5
2C3
100
AcDbEntity
  8
0
  6
Continuous
 62
     0
100
AcDbBlockReference
  2
*B25
 10
0.0
 20
0.0
 30
0.0
  0
INSERT
  5
2C8
100
AcDbEntity
  8
0
  6
Continuous
 62
     8
100
AcDbBlockReference
  2
*B26
 10
0.0
 20
0.0
 30
0.0
  0
INSERT
  5
2D5
100
AcDbEntity
  8
0
  6
Continuous
 62
     8
100
AcDbBlockReference
  2
*B27
 10
0.0
 20
0.0
 30
0.0
  0
INSERT
  5
2DC
100
AcDbEntity
  8
0
  6
Continuous
 62
     8
100
AcDbBlockReference
  2
*B28
 10
0.0
 20
0.0
 30
0.0
  0
INSERT
  5
2E1
100
AcDbEntity
  8
0
  6
Continuous
 62
     8
100
AcDbBlockReference
  2
*B29
 10
0.0
 20
0.0
 30
0.0
  0
INSERT
  5
2E7
100
AcDbEntity
  8
0
  6
Continuous
 62
     8
100
AcDbBlockReference
  2
*B30
 10
0.0
 20
0.0
 30
0.0
  0
INSERT
  5
2F2
100
AcDbEntity
  8
0
  6
Continuous
 62
     8
100
AcDbBlockReference
  2
*B31
 10
0.0
 20
0.0
 30
0.0
  0
INSERT
  5
2F8
100
AcDbEntity
  8
0
  6
Continuous
 62
     8
100
AcDbBlockReference
  2
*B32
 10
0.0
 20
0.0
 30
0.0
  0
INSERT
  5
2FE
100
AcDbEntity
  8
0
  6
Continuous
 62
     8
100
AcDbBlockReference
  2
*B33
 10
0.0
 20
0.0
 30
0.0
  0
INSERT
  5
30F
100
AcDbEntity
  8
0
  6
Continuous
 62
     8
100
AcDbBlockReference
  2
*B34
 10
0.0
 20
0.0
 30
0.0
  0
INSERT
  5
330
100
AcDbEntity
  8
0
  6
Continuous
 62
     8
100
AcDbBlockReference
  2
*B35
 10
0.0
 20
0.0
 30
0.0
  0
INSERT
  5
35F
100
AcDbEntity
  8
0
  6
Continuous
 62
     8
100
AcDbBlockReference
  2
*B36
 10
0.0
 20
0.0
 30
0.0
  0
INSERT
  5
379
100
AcDbEntity
  8
0
  6
Continuous
 62
     8
100
AcDbBlockReference
  2
*B37
 10
0.0
 20
0.0
 30
0.0
  0
INSERT
  5
37E
100
AcDbEntity
  8
0
  6
Continuous
 62
     8
100
AcDbBlockReference
  2
*B38
 10
0.0
 20
0.0
 30
0.0
  0
INSERT
  5
384
100
AcDbEntity
  8
0
  6
Continuous
 62
     8
100
AcDbBlockReference
  2
*B39
 10
0.0
 20
0.0
 30
0.0
  0
INSERT
  5
38F
100
AcDbEntity
  8
0
  6
Continuous
 62
     8
100
AcDbBlockReference
  2
*B40
 10
0.0
 20
0.0
 30
0.0
  0
INSERT
  5
3A9
100
AcDbEntity
  8
0
  6
Continuous
 62
     8
100
AcDbBlockReference
  2
*B41
 10
0.0
 20
0.0
 30
0.0
  0
INSERT
  5
3AF
100
AcDbEntity
  8
0
  6
Continuous
 62
     8
100
AcDbBlockReference
  2
*B42
 10
0.0
 20
0.0
 30
0.0
  0
INSERT
  5
3B4
100
AcDbEntity
  8
0
  6
Continuous
 62
     8
100
AcDbBlockReference
  2
*B43
 10
0.0
 20
0.0
 30
0.0
  0
INSERT
  5
3B9
100
AcDbEntity
  8
0
  6
Continuous
 62
     8
100
AcDbBlockReference
  2
*B44
 10
0.0
 20
0.0
 30
0.0
  0
INSERT
  5
3C0
100
AcDbEntity
  8
0
  6
Continuous
 62
     8
100
AcDbBlockReference
  2
*B45
 10
0.0
 20
0.0
 30
0.0
  0
INSERT
  5
3C5
100
AcDbEntity
  8
0
  6
Continuous
 62
     8
100
AcDbBlockReference
  2
*B46
 10
0.0
 20
0.0
 30
0.0
  0
INSERT
  5
3CA
100
AcDbEntity
  8
0
  6
Continuous
 62
     8
100
AcDbBlockReference
  2
*B47
 10
0.0
 20
0.0
 30
0.0
  0
INSERT
  5
3D7
100
AcDbEntity
  8
0
  6
Continuous
 62
     8
100
AcDbBlockReference
  2
*B48
 10
0.0
 20
0.0
 30
0.0
  0
INSERT
  5
3DC
100
AcDbEntity
  8
0
  6
Continuous
 62
     8
100
AcDbBlockReference
  2
*B49
 10
0.0
 20
0.0
 30
0.0
  0
INSERT
  5
3E1
100
AcDbEntity
  8
0
  6
Continuous
 62
     8
100
AcDbBlockReference
  2
*B50
 10
0.0
 20
0.0
 30
0.0
  0
INSERT
  5
3E6
100
AcDbEntity
  8
0
  6
Continuous
 62
     8
100
AcDbBlockReference
  2
*B51
 10
0.0
 20
0.0
 30
0.0
  0
INSERT
  5
3F2
100
AcDbEntity
  8
0
  6
Continuous
 62
     8
100
AcDbBlockReference
  2
*B52
 10
0.0
 20
0.0
 30
0.0
  0
INSERT
  5
3F7
100
AcDbEntity
  8
0
  6
Continuous
 62
     8
100
AcDbBlockReference
  2
*B53
 10
0.0
 20
0.0
 30
0.0
  0
INSERT
  5
3FC
100
AcDbEntity
  8
0
  6
Continuous
 62
     8
100
AcDbBlockReference
  2
*B54
 10
0.0
 20
0.0
 30
0.0
  0
INSERT
  5
401
100
AcDbEntity
  8
0
  6
Continuous
 62
     8
100
AcDbBlockReference
  2
*B55
 10
0.0
 20
0.0
 30
0.0
  0
INSERT
  5
407
100
AcDbEntity
  8
0
  6
Continuous
 62
     8
100
AcDbBlockReference
  2
*B56
 10
0.0
 20
0.0
 30
0.0
  0
INSERT
  5
41A
100
AcDbEntity
  8
0
  6
Continuous
 62
     8
100
AcDbBlockReference
  2
*B57
 10
0.0
 20
0.0
 30
0.0
  0
INSERT
  5
42D
100
AcDbEntity
  8
0
  6
Continuous
 62
     8
100
AcDbBlockReference
  2
*B58
 10
0.0
 20
0.0
 30
0.0
  0
INSERT
  5
457
100
AcDbEntity
  8
0
  6
Continuous
 62
     8
100
AcDbBlockReference
  2
*B59
 10
0.0
 20
0.0
 30
0.0
  0
INSERT
  5
45C
100
AcDbEntity
  8
0
  6
Continuous
 62
     8
100
AcDbBlockReference
  2
*B60
 10
0.0
 20
0.0
 30
0.0
  0
INSERT
  5
462
100
AcDbEntity
  8
0
  6
Continuous
 62
     8
100
AcDbBlockReference
  2
*B61
 10
0.0
 20
0.0
 30
0.0
  0
INSERT
  5
467
100
AcDbEntity
  8
0
  6
Continuous
 62
     8
100
AcDbBlockReference
  2
*B62
 10
0.0
 20
0.0
 30
0.0
  0
INSERT
  5
46C
100
AcDbEntity
  8
0
  6
Continuous
 62
     8
100
AcDbBlockReference
  2
*B63
 10
0.0
 20
0.0
 30
0.0
  0
INSERT
  5
473
100
AcDbEntity
  8
0
  6
Continuous
 62
     8
100
AcDbBlockReference
  2
*B64
 10
0.0
 20
0.0
 30
0.0
  0
INSERT
  5
478
100
AcDbEntity
  8
0
  6
Continuous
 62
     8
100
AcDbBlockReference
  2
*B65
 10
0.0
 20
0.0
 30
0.0
  0
INSERT
  5
47E
100
AcDbEntity
  8
0
  6
Continuous
 62
     6
100
AcDbBlockReference
  2
*B66
 10
0.0
 20
0.0
 30
0.0
  0
INSERT
  5
484
100
AcDbEntity
  8
0
  6
Continuous
 62
     6
100
AcDbBlockReference
  2
*B67
 10
0.0
 20
0.0
 30
0.0
  0
INSERT
  5
48A
100
AcDbEntity
  8
0
  6
Continuous
 62
     6
100
AcDbBlockReference
  2
*B68
 10
0.0
 20
0.0
 30
0.0
  0
INSERT
  5
490
100
AcDbEntity
  8
0
  6
Continuous
 62
     6
100
AcDbBlockReference
  2
*B69
 10
0.0
 20
0.0
 30
0.0
  0
INSERT
  5
496
100
AcDbEntity
  8
0
  6
Continuous
 62
     6
100
AcDbBlockReference
  2
*B70
 10
0.0
 20
0.0
 30
0.0
  0
INSERT
  5
49C
100
AcDbEntity
  8
0
  6
Continuous
 62
     6
100
AcDbBlockReference
  2
*B71
 10
0.0
 20
0.0
 30
0.0
  0
INSERT
  5
4A2
100
AcDbEntity
  8
0
  6
Continuous
 62
     6
100
AcDbBlockReference
  2
*B72
 10
0.0
 20
0.0
 30
0.0
  0
INSERT
  5
4A8
100
AcDbEntity
  8
0
  6
Continuous
 62
     6
100
AcDbBlockReference
  2
*B73
 10
0.0
 20
0.0
 30
0.0
  0
INSERT
  5
4AE
100
AcDbEntity
  8
0
  6
Continuous
 62
     6
100
AcDbBlockReference
  2
*B74
 10
0.0
 20
0.0
 30
0.0
  0
INSERT
  5
4B4
100
AcDbEntity
  8
0
  6
Continuous
 62
     6
100
AcDbBlockReference
  2
*B75
 10
0.0
 20
0.0
 30
0.0
  0
INSERT
  5
4B9
100
AcDbEntity
  8
TEXT
  6
Continuous
 62
     0
100
AcDbBlockReference
  2
*B76
 10
0.0
 20
0.0
 30
0.0
  0
INSERT
  5
4BE
100
AcDbEntity
  8
TEXT
  6
Continuous
 62
     0
100
AcDbBlockReference
  2
*B77
 10
0.0
 20
0.0
 30
0.0
  0
INSERT
  5
4C3
100
AcDbEntity
  8
TEXT
  6
Continuous
 62
     0
100
AcDbBlockReference
  2
*B78
 10
0.0
 20
0.0
 30
0.0
  0
INSERT
  5
4C8
100
AcDbEntity
  8
TEXT
  6
Continuous
 62
     0
100
AcDbBlockReference
  2
*B79
 10
0.0
 20
0.0
 30
0.0
  0
INSERT
  5
4CD
100
AcDbEntity
  8
TEXT
  6
Continuous
 62
     0
100
AcDbBlockReference
  2
*B80
 10
0.0
 20
0.0
 30
0.0
  0
INSERT
  5
4D2
100
AcDbEntity
  8
TEXT
  6
Continuous
 62
     0
100
AcDbBlockReference
  2
*B81
 10
0.0
 20
0.0
 30
0.0
  0
INSERT
  5
4D7
100
AcDbEntity
  8
TEXT
  6
Continuous
 62
     0
100
AcDbBlockReference
  2
*B82
 10
0.0
 20
0.0
 30
0.0
  0
INSERT
  5
4DC
100
AcDbEntity
  8
TEXT
  6
Continuous
 62
     0
100
AcDbBlockReference
  2
*B83
 10
0.0
 20
0.0
 30
0.0
  0
INSERT
  5
4E1
100
AcDbEntity
  8
TEXT
  6
Continuous
 62
     0
100
AcDbBlockReference
  2
*B84
 10
0.0
 20
0.0
 30
0.0
  0
INSERT
  5
4E6
100
AcDbEntity
  8
TEXT
  6
Continuous
 62
     0
100
AcDbBlockReference
  2
*B85
 10
0.0
 20
0.0
 30
0.0
  0
INSERT
  5
4EB
100
AcDbEntity
  8
TEXT
  6
Continuous
 62
     0
100
AcDbBlockReference
  2
*B86
 10
0.0
 20
0.0
 30
0.0
  0
INSERT
  5
4F0
100
AcDbEntity
  8
TEXT
  6
Continuous
 62
     0
100
AcDbBlockReference
  2
*B87
 10
0.0
 20
0.0
 30
0.0
  0
INSERT
  5
4F5
100
AcDbEntity
  8
TEXT
  6
Continuous
 62
     0
100
AcDbBlockReference
  2
*B88
 10
0.0
 20
0.0
 30
0.0
  0
INSERT
  5
4FA
100
AcDbEntity
  8
TEXT
  6
Continuous
 62
     0
100
AcDbBlockReference
  2
*B89
 10
0.0
 20
0.0
 30
0.0
  0
INSERT
  5
4FF
100
AcDbEntity
  8
TEXT
  6
Continuous
 62
     0
100
AcDbBlockReference
  2
*B90
 10
0.0
 20
0.0
 30
0.0
  0
INSERT
  5
504
100
AcDbEntity
  8
TEXT
  6
Continuous
 62
     0
100
AcDbBlockReference
  2
*B91
 10
0.0
 20
0.0
 30
0.0
  0
INSERT
  5
509
100
AcDbEntity
  8
TEXT
  6
Continuous
 62
     0
100
AcDbBlockReference
  2
*B92
 10
0.0
 20
0.0
 30
0.0
  0
INSERT
  5
50E
100
AcDbEntity
  8
TEXT
  6
Continuous
 62
     0
100
AcDbBlockReference
  2
*B93
 10
0.0
 20
0.0
 30
0.0
  0
INSERT
  5
513
100
AcDbEntity
  8
TEXT
  6
Continuous
 62
     0
100
AcDbBlockReference
  2
*B94
 10
0.0
 20
0.0
 30
0.0
  0
INSERT
  5
518
100
AcDbEntity
  8
TEXT
  6
Continuous
 62
     0
100
AcDbBlockReference
  2
*B95
 10
0.0
 20
0.0
 30
0.0
  0
INSERT
  5
51D
100
AcDbEntity
  8
TEXT
  6
Continuous
 62
     0
100
AcDbBlockReference
  2
*B96
 10
0.0
 20
0.0
 30
0.0
  0
INSERT
  5
522
100
AcDbEntity
  8
TEXT
  6
Continuous
 62
     0
100
AcDbBlockReference
  2
*B97
 10
0.0
 20
0.0
 30
0.0
  0
INSERT
  5
527
100
AcDbEntity
  8
TEXT
  6
Continuous
 62
     0
100
AcDbBlockReference
  2
*B98
 10
0.0
 20
0.0
 30
0.0
  0
INSERT
  5
52C
100
AcDbEntity
  8
TEXT
  6
Continuous
 62
     0
100
AcDbBlockReference
  2
*B99
 10
0.0
 20
0.0
 30
0.0
  0
INSERT
  5
531
100
AcDbEntity
  8
TEXT
  6
Continuous
 62
     0
100
AcDbBlockReference
  2
*B100
 10
0.0
 20
0.0
 30
0.0
  0
INSERT
  5
536
100
AcDbEntity
  8
TEXT
  6
Continuous
 62
     0
100
AcDbBlockReference
  2
*B101
 10
0.0
 20
0.0
 30
0.0
  0
INSERT
  5
53B
100
AcDbEntity
  8
TEXT
  6
Continuous
 62
     0
100
AcDbBlockReference
  2
*B102
 10
0.0
 20
0.0
 30
0.0
  0
INSERT
  5
540
100
AcDbEntity
  8
TEXT
  6
Continuous
 62
     0
100
AcDbBlockReference
  2
*B103
 10
0.0
 20
0.0
 30
0.0
  0
INSERT
  5
545
100
AcDbEntity
  8
TEXT
  6
Continuous
 62
     0
100
AcDbBlockReference
  2
*B104
 10
0.0
 20
0.0
 30
0.0
  0
ENDSEC
  0
SECTION
  2
OBJECTS
  0
DICTIONARY
  5
19
100
AcDbDictionary
280
     0
281
     1
  3
ACAD_GROUP
350
1A
  3
ACAD_MLINESTYLE
350
1B
  3
ACAD_LAYOUT
350
1E
  3
ACAD_PLOTSETTINGS
350
22
  3
ACAD_PLOTSTYLENAME
350
1F
  3
ACAD_WIPEOUT_VARS
350
23
  0
DICTIONARY
  5
1A
102
{ACAD_REACTORS
330
19
102
}
100
AcDbDictionary
280
     0
281
     1
  0
DICTIONARY
  5
1B
102
{ACAD_REACTORS
330
19
102
}
100
AcDbDictionary
280
     0
281
     1
  3
Standard
350
1C
  0
MLINESTYLE
  5
1C
102
{ACAD_REACTORS
330
1B
102
}
100
AcDbMlineStyle
  2
Standard
 70
     0
  3

 62
     0
 51
90.0
 52
90.0
 71
     2
 49
0.5
 62
   256
  6
BYLAYER
 49
-0.5
 62
   256
  6
BYLAYER
  0
ACDBDICTIONARYWDFLT
  5
1F
102
{ACAD_REACTORS
330
19
102
}
100
AcDbDictionary
281
     1
  3
Normal
350
1D
100
AcDbDictionaryWithDefault
340
1D
  0
ACDBPLACEHOLDER
  5
1D
102
{ACAD_REACTORS
330
1F
102
}
  0
LAYOUT
  5
20
102
{ACAD_REACTORS
330
1E
102
}
100
AcDbPlotSettings
  1

  2

  4

  6

 40
0.0
 41
0.0
 42
0.0
 43
0.0
 44
0.0
 45
0.0
 46
0.0
 47
0.0
 48
0.0
 49
0.0
140
0.0
141
0.0
142
1.0
143
1.0
 70
     0
 72
     0
 73
     0
 74
     0
  7

 75
     0
147
1.0
148
0.0
149
0.0
100
AcDbLayout
  1
Model
 70
     0
 71
     0
 10
0.0
 20
0.0
 11
0.0
 21
0.0
 12
0.0
 22
0.0
 32
0.0
 14
0.0
 24
0.0
 34
0.0
 15
0.0
 25
0.0
 35
0.0
146
0.0
 13
0.0
 23
0.0
 33
0.0
 16
0.0
 26
0.0
 36
0.0
 17
0.0
 27
0.0
 37
0.0
 76
     0
330
A
331
0
345
0
346
0
  0
LAYOUT
  5
21
102
{ACAD_REACTORS
330
1E
102
}
100
AcDbPlotSettings
  1

  2

  4

  6

 40
0.0
 41
0.0
 42
0.0
 43
0.0
 44
0.0
 45
0.0
 46
0.0
 47
0.0
 48
0.0
 49
0.0
140
0.0
141
0.0
142
1.0
143
1.0
 70
     0
 72
     0
 73
     0
 74
     0
  7

 75
     0
147
1.0
148
0.0
149
0.0
100
AcDbLayout
  1
Layout1
 70
     0
 71
     0
 10
0.0
 20
0.0
 11
0.0
 21
0.0
 12
0.0
 22
0.0
 32
0.0
 14
0.0
 24
0.0
 34
0.0
 15
0.0
 25
0.0
 35
0.0
146
0.0
 13
0.0
 23
0.0
 33
0.0
 16
0.0
 26
0.0
 36
0.0
 17
0.0
 27
0.0
 37
0.0
 76
     0
330
B
331
0
345
0
346
0
  0
DICTIONARY
  5
1E
102
{ACAD_REACTORS
330
19
102
}
100
AcDbDictionary
280
     0
281
     1
  3
Layout1
350
21
  3
Model
350
20
  0
DICTIONARY
  5
22
102
{ACAD_REACTORS
330
19
102
}
100
AcDbDictionary
280
     0
281
     1
  0
WIPEOUTVARIABLES
  5
23
100
AcDbWipeoutVariables
 70
     1
  0
ENDSEC
  0
EOF
