  0
SECTION
  2
HEADER
  9
$ACADVER
  1
AC1015
  9
$ACADMAINTVER
 70
     6
  9
$DWGCODEPAGE
  3
DOS850
  9
$INSBASE
 10
0.0
 20
0.0
 30
0.0
  9
$EXTMIN
 10
0.0
 20
0.0
 30
0.0
  9
$EXTMAX
 10
420.0
 20
297.0
 30
0.0
  9
$LIMMIN
 10
0.0
 20
0.0
  9
$LIMMAX
 10
420.0
 20
297.0
  9
$ORTHOMODE
 70
     0
  9
$REGENMODE
 70
     1
  9
$FILLMODE
 70
     1
  9
$QTEXTMODE
 70
     0
  9
$MIRRTEXT
 70
     1
  9
$LTSCALE
 40
25.4
  9
$ATTMODE
 70
     1
  9
$TEXTSIZE
 40
3.5
  9
$TRACEWID
 40
0.05
  9
$TEXTSTYLE
  7
Standard
  9
$CLAYER
  8
0
  9
$CELTYPE
  6
Continuous
  9
$CECOLOR
 62
   256
  9
$CELTSCALE
 40
1.0
  9
$DISPSILH
 70
     0
  9
$DIMSCALE
 40
1.0
  9
$DIMASZ
 40
5.0
  9
$DIMEXO
 40
3.0
  9
$DIMDLI
 40
0.38
  9
$DIMRND
 40
0.0
  9
$DIMDLE
 40
0.0
  9
$DIMEXE
 40
2.0
  9
$DIMTP
 40
0.0
  9
$DIMTM
 40
0.0
  9
$DIMTXT
 40
3.5
  9
$DIMCEN
 40
4.0
  9
$DIMTSZ
 40
0.0
  9
$DIMTOL
 70
     0
  9
$DIMLIM
 70
     0
  9
$DIMTIH
 70
     1
  9
$DIMTOH
 70
     1
  9
$DIMSE1
 70
     0
  9
$DIMSE2
 70
     0
  9
$DIMTAD
 70
     0
  9
$DIMZIN
 70
     0
  9
$DIMBLK
  1

  9
$DIMASO
 70
     1
  9
$DIMSHO
 70
     1
  9
$DIMPOST
  1

  9
$DIMAPOST
  1

  9
$DIMALT
 70
     0
  9
$DIMALTD
 70
     2
  9
$DIMALTF
 40
25.4
  9
$DIMLFAC
 40
1.0
  9
$DIMTOFL
 70
     0
  9
$DIMTVP
 40
0.0
  9
$DIMTIX
 70
     0
  9
$DIMSOXD
 70
     0
  9
$DIMSAH
 70
     0
  9
$DIMBLK1
  1

  9
$DIMBLK2
  1

  9
$DIMSTYLE
  2
Standard
  9
$DIMCLRD
 70
     0
  9
$DIMCLRE
 70
     0
  9
$DIMCLRT
 70
     0
  9
$DIMTFAC
 40
1.0
  9
$DIMGAP
 40
1.0
  9
$DIMJUST
 70
     0
  9
$DIMSD1
 70
     0
  9
$DIMSD2
 70
     0
  9
$DIMTOLJ
 70
     1
  9
$DIMTZIN
 70
     0
  9
$DIMALTZ
 70
     0
  9
$DIMALTTZ
 70
     0
  9
$DIMUPT
 70
     0
  9
$DIMDEC
 70
     4
  9
$DIMTDEC
 70
     4
  9
$DIMALTU
 70
     2
  9
$DIMALTTD
 70
     2
  9
$DIMTXSTY
  7
Standard
  9
$DIMAUNIT
 70
     0
  9
$DIMADEC
 70
     0
  9
$DIMALTRND
 40
0.0
  9
$DIMAZIN
 70
     0
  9
$DIMDSEP
 70
     0
  9
$DIMATFIT
 70
     3
  9
$DIMFRAC
 70
     0
  9
$DIMLDRBLK
  1

  9
$DIMLUNIT
 70
     2
  9
$DIMLWD
 70
     0
  9
$DIMLWE
 70
     0
  9
$DIMTMOVE
 70
     0
  9
$LUNITS
 70
     2
  9
$LUPREC
 70
     4
  9
$SKETCHINC
 40
0.1
  9
$FILLETRAD
 40
0.0
  9
$AUNITS
 70
     0
  9
$AUPREC
 70
     0
  9
$MENU
  1
acad
  9
$ELEVATION
 40
0.0
  9
$PELEVATION
 40
0.0
  9
$THICKNESS
 40
0.0
  9
$LIMCHECK
 70
     0
  9
$CHAMFERA
 40
0.0
  9
$CHAMFERB
 40
0.0
  9
$CHAMFERC
 40
0.0
  9
$CHAMFERD
 40
0.0
  9
$SKPOLY
 70
     0
  9
$TDCREATE
 40
0.000000000
  9
$TDUCREATE
 40
0.000000000
  9
$TDUPDATE
 40
0.000000000
  9
$TDUUPDATE
 40
0.000000000
  9
$TDINDWG
 40
0.0000000000
  9
$TDUSRTIMER
 40
0.0000000000
  9
$USRTIMER
 70
     1
  9
$ANGBASE
 50
0.0
  9
$ANGDIR
 70
     0
  9
$PDMODE
 70
     0
  9
$PDSIZE
 40
0.0
  9
$PLINEWID
 40
0.0
  9
$SPLFRAME
 70
     0
  9
$SPLINETYPE
 70
     6
  9
$SPLINESEGS
 70
     8
  9
$HANDSEED
  5
446
  9
$SURFTAB1
 70
     6
  9
$SURFTAB2
 70
     6
  9
$SURFTYPE
 70
     6
  9
$SURFU
 70
     6
  9
$SURFV
 70
     6
  9
$UCSBASE
  2

  9
$UCSNAME
  2

  9
$UCSORG
 10
0.0
 20
0.0
 30
0.0
  9
$UCSXDIR
 10
1.0
 20
0.0
 30
0.0
  9
$UCSYDIR
 10
0.0
 20
1.0
 30
0.0
  9
$UCSORTHOREF
  2

  9
$UCSORTHOVIEW
 70
     0
  9
$UCSORGTOP
 10
0.0
 20
0.0
 30
0.0
  9
$UCSORGBOTTOM
 10
0.0
 20
0.0
 30
0.0
  9
$UCSORGLEFT
 10
0.0
 20
0.0
 30
0.0
  9
$UCSORGRIGHT
 10
0.0
 20
0.0
 30
0.0
  9
$UCSORGFRONT
 10
0.0
 20
0.0
 30
0.0
  9
$UCSORGBACK
 10
0.0
 20
0.0
 30
0.0
  9
$PUCSBASE
  2

  9
$PUCSNAME
  2

  9
$PUCSORG
 10
0.0
 20
0.0
 30
0.0
  9
$PUCSXDIR
 10
1.0
 20
0.0
 30
0.0
  9
$PUCSYDIR
 10
0.0
 20
1.0
 30
0.0
  9
$PUCSORTHOREF
  2

  9
$PUCSORTHOVIEW
 70
     0
  9
$PUCSORGTOP
 10
0.0
 20
0.0
 30
0.0
  9
$PUCSORGBOTTOM
 10
0.0
 20
0.0
 30
0.0
  9
$PUCSORGLEFT
 10
0.0
 20
0.0
 30
0.0
  9
$PUCSORGRIGHT
 10
0.0
 20
0.0
 30
0.0
  9
$PUCSORGFRONT
 10
0.0
 20
0.0
 30
0.0
  9
$PUCSORGBACK
 10
0.0
 20
0.0
 30
0.0
  9
$USERI1
 70
     0
  9
$USERI2
 70
     0
  9
$USERI3
 70
     0
  9
$USERI4
 70
     0
  9
$USERI5
 70
     0
  9
$USERR1
 40
0.0
  9
$USERR2
 40
0.0
  9
$USERR3
 40
0.0
  9
$USERR4
 40
0.0
  9
$USERR5
 40
0.0
  9
$WORLDVIEW
 70
     1
  9
$SHADEDGE
 70
     3
  9
$SHADEDIF
 70
    70
  9
$TILEMODE
 70
     1
  9
$MAXACTVP
 70
    16
  9
$PINSBASE
 10
0.0
 20
0.0
 30
0.0
  9
$PLIMCHECK
 70
     0
  9
$PEXTMIN
 10
1.000000E+20
 20
1.000000E+20
 30
1.000000E+20
  9
$PEXTMAX
 10
-1.000000E+20
 20
-1.000000E+20
 30
-1.000000E+20
  9
$PLIMMIN
 10
0.0
 20
0.0
  9
$PLIMMAX
 10
420.0
 20
297.0
  9
$UNITMODE
 70
     0
  9
$VISRETAIN
 70
     0
  9
$PLINEGEN
 70
     1
  9
$PSLTSCALE
 70
     0
  9
$TREEDEPTH
 70
  3020
  9
$CMLSTYLE
  2
Standard
  9
$CMLJUST
 70
     0
  9
$CMLSCALE
 40
1.0
  9
$PROXYGRAPHICS
 70
     0
  9
$MEASUREMENT
 70
     0
  9
$CELWEIGHT
370
     0
  9
$ENDCAPS
280
     0
  9
$JOINSTYLE
280
     0
  9
$LWDISPLAY
290
     0
  9
$INSUNITS
 70
     0
  9
$HYPERLINKBASE
  1

  9
$XEDIT
290
     1
  9
$CEPSNTYPE
380
     0
  9
$PSTYLEMODE
290
     0
  9
$FINGERPRINTGUID
  2

  9
$VERSIONGUID
  2

  9
$EXTNAMES
290
     1
  9
$PSVPSCALE
 40
0.0
  0
ENDSEC
  0
SECTION
  2
CLASSES
  0
CLASS
  1
LWPOLYLINE
  2
AcDbPolyline
  3
"AutoCAD"
 90
        0
280
     0
281
     1
  0
CLASS
  1
IMAGE
  2
AcDbRasterImage
  3
ISM
 90
      127
280
     0
281
     1
  0
CLASS
  1
OLE2FRAME
  2
AcDbOle2Frame
  3
""
 90
        0
280
     0
281
     1
  0
CLASS
  1
HATCH
  2
AcDbHatch
  3
"ACAD_SEDONA"
 90
        0
280
     0
281
     1
  0
CLASS
  1
DICTIONARYVAR
  2
AcDbDictionaryVar
  3
"AutoCAD"
 90
        0
280
     0
281
     0
  0
CLASS
  1
RASTERVARIABLES
  2
AcDbRasterVariables
  3
ISM
 90
        0
280
     0
281
     0
  0
CLASS
  1
IMAGEDEF
  2
AcDbRasterImageDef
  3
ISM
 90
        0
280
     0
281
     0
  0
CLASS
  1
IMAGEDEF_REACTOR
  2
AcDbRasterImageDefReactor
  3
ISM
 90
        1
280
     0
281
     0
  0
CLASS
  1
IDBUFFER
  2
AcDbIdBuffer
  3
"Acad"
 90
        0
280
     0
281
     0
  0
CLASS
  1
SPATIAL_FILTER
  2
AcDbSpatialFilter
  3
"Acad"
 90
        0
280
     0
281
     0
  0
CLASS
  1
XRECORD
  2
AcDbXrecord
  3
"<Built In>"
 90
        0
280
     0
281
     0
  0
CLASS
  1
SORTENTSTABLE
  2
AcDbSortentsTable
  3
"AutoCAD"
 90
        0
280
     0
281
     0
  0
CLASS
  1
LAYER_INDEX
  2
AcDbLayerIndex
  3
"Acad"
 90
        0
280
     0
281
     0
  0
CLASS
  1
SPATIAL_INDEX
  2
AcDbSpatialIndex
  3
"Acad"
 90
        0
280
     0
281
     0
  0
CLASS
  1
OBJECT_PTR
  2
CAseDLPNTableRecord
  3
"ASE-LPNTableRecord"
 90
        1
280
     0
281
     0
  0
CLASS
  1
LAYOUT
  2
AcDbLayout
  3
"AutoCAD 2000"
 90
        1
280
     0
281
     0
  0
CLASS
  1
PLOTSETTINGS
  2
AcDbPlotSettings
  3
"AutoCAD 2000"
 90
        1
280
     0
281
     0
  0
CLASS
  1
ACDBDICTIONARYWDFLT
  2
AcDbDictionaryWithDefault
  3
"AutoCAD 2000"
 90
        1
280
     0
281
     0
  0
CLASS
  1
ACDBPLACEHOLDER
  2
AcDbPlaceHolder
  3
"AutoCAD 2000"
 90
        1
280
     0
281
     0
  0
CLASS
  1
VBA_PROJECT
  2
AcDbVbaProject
  3
"acadvba"
 90
        1
280
     0
281
     0
  0
CLASS
  1
WIPEOUT
  2
AcDbWipeout
  3
WipeOut|AutoCAD Express Tool|expresstools@autodesk.com
 90
      127
280
     0
281
     1
  0
CLASS
  1
WIPEOUTVARIABLES
  2
AcDbWipeoutVariables
  3
WipeOut|AutoCAD Express Tool|expresstools@autodesk.com
 90
        0
280
     0
281
     0
  0
CLASS
  1
RTEXT
  2
RText
  3
RText|AutoCAD Express Tool|expresstools@autodesk.com
 90
        0
280
     0
281
     1
  0
CLASS
  1
ARCALIGNEDTEXT
  2
AcDbArcAlignedText
  3
ATEXT|AutoCAD Express Tool|expresstools@autodesk.com
 90
        0
280
     0
281
     1
  0
ENDSEC
  0
SECTION
  2
TABLES
  0
TABLE
  2
VPORT
  5
7
100
AcDbSymbolTable
 70
     1
  0
VPORT
  5
15
100
AcDbSymbolTableRecord
100
AcDbViewportTableRecord
  2
*ACTIVE
 70
     0
 10
0.0
 20
0.0
 11
1.0
 21
1.0
 12
6.591288
 22
4.579184
 13
0.0
 23
0.0
 14
1.0
 24
1.0
 15
0.0
 25
0.0
 16
0.0
 26
0.0
 36
1.0
 17
0.0
 27
0.0
 37
0.0
 40
9.158369
 41
0.688564
 42
50.0
 43
0.0
 44
0.0
 50
0.0
 51
0.0
 71
     0
 72
   100
 73
     1
 74
     1
 75
     0
 76
     0
 77
     0
 78
     0
281
     0
 65
     0
110
0.0
120
0.0
130
0.0
111
1.0
121
0.0
131
0.0
112
0.0
122
1.0
132
0.0
345
0
346
0
 79
     0
146
0.0
  0
ENDTAB
  0
TABLE
  2
LTYPE
  5
4
100
AcDbSymbolTable
 70
     7
  0
LTYPE
  5
11
100
AcDbSymbolTableRecord
100
AcDbLinetypeTableRecord
  2
ByBlock
 70
    64
  3

 72
    65
 73
     0
 40
0.0
  0
LTYPE
  5
12
100
AcDbSymbolTableRecord
100
AcDbLinetypeTableRecord
  2
ByLayer
 70
    64
  3

 72
    65
 73
     0
 40
0.0
  0
LTYPE
  5
13
100
AcDbSymbolTableRecord
100
AcDbLinetypeTableRecord
  2
Continuous
 70
    64
  3
Solid line
 72
    65
 73
     0
 40
0.0
  0
LTYPE
  5
24
100
AcDbSymbolTableRecord
100
AcDbLinetypeTableRecord
  2
HIDDEN
 70
    64
  3
_ _ _ _ _ _ _ _ _ _ _ _ _ _ _ _ _ _ _ _ _ _ _ _
 72
    65
 73
     2
 40
0.1875
 49
0.125
 74
     0
 49
-0.0625
 74
     0
  0
LTYPE
  5
25
100
AcDbSymbolTableRecord
100
AcDbLinetypeTableRecord
  2
DOTTED
 70
    64
  3
...............................................
 72
    65
 73
     2
 40
0.125
 49
0.0
 74
     0
 49
-0.125
 74
     0
  0
LTYPE
  5
26
100
AcDbSymbolTableRecord
100
AcDbLinetypeTableRecord
  2
CENTER
 70
    64
  3
____ _ ____ _ ____ _ ____ _ ____ _ ____ _ ____ 
 72
    65
 73
     4
 40
1.125
 49
0.75
 74
     0
 49
-0.125
 74
     0
 49
0.125
 74
     0
 49
-0.125
 74
     0
  0
LTYPE
  5
27
100
AcDbSymbolTableRecord
100
AcDbLinetypeTableRecord
  2
PHANTOM
 70
    64
  3
______  __  __  ______  __  __  ______  __  __ 
 72
    65
 73
     6
 40
1.25
 49
0.625
 74
     0
 49
-0.125
 74
     0
 49
0.125
 74
     0
 49
-0.125
 74
     0
 49
0.125
 74
     0
 49
-0.125
 74
     0
  0
ENDTAB
  0
TABLE
  2
LAYER
  5
2
100
AcDbSymbolTable
 70
     2
  0
LAYER
  5
14
100
AcDbSymbolTableRecord
100
AcDbLayerTableRecord
  2
0
 70
     0
 62
     7
  6
Continuous
290
     1
370
    -3
390
1D
  0
LAYER
  5
28
100
AcDbSymbolTableRecord
100
AcDbLayerTableRecord
  2
TEXT
 70
     0
 62
     8
  6
Continuous
290
     1
370
    -3
390
1F
  0
ENDTAB
  0
TABLE
  2
STYLE
  5
3
100
AcDbSymbolTable
 70
     1
  0
STYLE
  5
17
100
AcDbSymbolTableRecord
100
AcDbTextStyleTableRecord
  2
Standard
 70
     0
 40
0.0
 41
1.0
 50
0.0
 71
     0
 42
0.0
  3
txt
  4

  0
ENDTAB
  0
TABLE
  2
VIEW
  5
5
100
AcDbSymbolTable
 70
     0
  0
ENDTAB
  0
TABLE
  2
UCS
  5
6
100
AcDbSymbolTable
 70
     0
  0
ENDTAB
  0
TABLE
  2
APPID
  5
8
100
AcDbSymbolTable
 70
     1
  0
APPID
  5
16
100
AcDbSymbolTableRecord
100
AcDbRegAppTableRecord
  2
ACAD
 70
     0
  0
ENDTAB
  0
TABLE
  2
DIMSTYLE
  5
9
100
AcDbSymbolTable
 70
     1
100
AcDbDimStyleTable
 71
     0
  0
DIMSTYLE
105
18
100
AcDbSymbolTableRecord
100
AcDbDimStyleTableRecord
  2
Standard
 70
     0
  3

  4

 40
1.0
 41
0.18
 42
0.0625
 43
0.38
 44
0.18
 45
0.0
 46
0.0
 47
0.0
 48
0.0
 71
     0
 72
     0
 73
     1
 74
     1
 75
     0
 76
     0
 77
     0
 78
     0
 79
     0
140
0.18
141
0.09
142
0.0
143
25.4
144
1.0
145
0.0
146
1.0
147
0.09
148
0.0
170
     0
171
     2
172
     0
173
     0
174
     0
175
     0
176
     0
177
     0
178
     0
179
     0
271
     4
272
     4
273
     2
274
     2
275
     0
276
     0
277
     2
278
    46
279
     0
280
     0
281
     0
282
     0
283
     1
284
     0
285
     0
286
     0
288
     0
340
17
341
0
342
0
343
0
344
0
371
    -2
372
    -2
  0
ENDTAB
  0
TABLE
  2
BLOCK_RECORD
  5
1
100
AcDbSymbolTable
 70
   104
  0
BLOCK_RECORD
  5
A
100
AcDbSymbolTableRecord
100
AcDbBlockTableRecord
  2
*MODEL_SPACE
340
20
  0
BLOCK_RECORD
  5
B
100
AcDbSymbolTableRecord
100
AcDbBlockTableRecord
  2
*PAPER_SPACE
340
21
  0
BLOCK_RECORD
  5
29
100
AcDbSymbolTableRecord
100
AcDbBlockTableRecord
  2
*B0
340
0
  0
BLOCK_RECORD
  5
2C
100
AcDbSymbolTableRecord
100
AcDbBlockTableRecord
  2
*B1
340
0
  0
BLOCK_RECORD
  5
C9
100
AcDbSymbolTableRecord
100
AcDbBlockTableRecord
  2
*B2
340
0
  0
BLOCK_RECORD
  5
1BC
100
AcDbSymbolTableRecord
100
AcDbBlockTableRecord
  2
*B3
340
0
  0
BLOCK_RECORD
  5
1C2
100
AcDbSymbolTableRecord
100
AcDbBlockTableRecord
  2
*B4
340
0
  0
BLOCK_RECORD
  5
1CD
100
AcDbSymbolTableRecord
100
AcDbBlockTableRecord
  2
*B5
340
0
  0
BLOCK_RECORD
  5
1D0
100
AcDbSymbolTableRecord
100
AcDbBlockTableRecord
  2
*B6
340
0
  0
BLOCK_RECORD
  5
1D6
100
AcDbSymbolTableRecord
100
AcDbBlockTableRecord
  2
*B7
340
0
  0
BLOCK_RECORD
  5
1E1
100
AcDbSymbolTableRecord
100
AcDbBlockTableRecord
  2
*B8
340
0
  0
BLOCK_RECORD
  5
1E4
100
AcDbSymbolTableRecord
100
AcDbBlockTableRecord
  2
*B9
340
0
  0
BLOCK_RECORD
  5
1EB
100
AcDbSymbolTableRecord
100
AcDbBlockTableRecord
  2
*B10
340
0
  0
BLOCK_RECORD
  5
1F2
100
AcDbSymbolTableRecord
100
AcDbBlockTableRecord
  2
*B11
340
0
  0
BLOCK_RECORD
  5
1F9
100
AcDbSymbolTableRecord
100
AcDbBlockTableRecord
  2
*B12
340
0
  0
BLOCK_RECORD
  5
200
100
AcDbSymbolTableRecord
100
AcDbBlockTableRecord
  2
*B13
340
0
  0
BLOCK_RECORD
  5
207
100
AcDbSymbolTableRecord
100
AcDbBlockTableRecord
  2
*B14
340
0
  0
BLOCK_RECORD
  5
20E
100
AcDbSymbolTableRecord
100
AcDbBlockTableRecord
  2
*B15
340
0
  0
BLOCK_RECORD
  5
215
100
AcDbSymbolTableRecord
100
AcDbBlockTableRecord
  2
*B16
340
0
  0
BLOCK_RECORD
  5
21C
100
AcDbSymbolTableRecord
100
AcDbBlockTableRecord
  2
*B17
340
0
  0
BLOCK_RECORD
  5
223
100
AcDbSymbolTableRecord
100
AcDbBlockTableRecord
  2
*B18
340
0
  0
BLOCK_RECORD
  5
22A
100
AcDbSymbolTableRecord
100
AcDbBlockTableRecord
  2
*B19
340
0
  0
BLOCK_RECORD
  5
231
100
AcDbSymbolTableRecord
100
AcDbBlockTableRecord
  2
*B20
340
0
  0
BLOCK_RECORD
  5
238
100
AcDbSymbolTableRecord
100
AcDbBlockTableRecord
  2
*B21
340
0
  0
BLOCK_RECORD
  5
23F
100
AcDbSymbolTableRecord
100
AcDbBlockTableRecord
  2
*B22
340
0
  0
BLOCK_RECORD
  5
246
100
AcDbSymbolTableRecord
100
AcDbBlockTableRecord
  2
*B23
340
0
  0
BLOCK_RECORD
  5
24D
100
AcDbSymbolTableRecord
100
AcDbBlockTableRecord
  2
*B24
340
0
  0
BLOCK_RECORD
  5
254
100
AcDbSymbolTableRecord
100
AcDbBlockTableRecord
  2
*B25
340
0
  0
BLOCK_RECORD
  5
25B
100
AcDbSymbolTableRecord
100
AcDbBlockTableRecord
  2
*B26
340
0
  0
BLOCK_RECORD
  5
270
100
AcDbSymbolTableRecord
100
AcDbBlockTableRecord
  2
*B27
340
0
  0
BLOCK_RECORD
  5
275
100
AcDbSymbolTableRecord
100
AcDbBlockTableRecord
  2
*B28
340
0
  0
BLOCK_RECORD
  5
27A
100
AcDbSymbolTableRecord
100
AcDbBlockTableRecord
  2
*B29
340
0
  0
BLOCK_RECORD
  5
280
100
AcDbSymbolTableRecord
100
AcDbBlockTableRecord
  2
*B30
340
0
  0
BLOCK_RECORD
  5
287
100
AcDbSymbolTableRecord
100
AcDbBlockTableRecord
  2
*B31
340
0
  0
BLOCK_RECORD
  5
290
100
AcDbSymbolTableRecord
100
AcDbBlockTableRecord
  2
*B32
340
0
  0
BLOCK_RECORD
  5
296
100
AcDbSymbolTableRecord
100
AcDbBlockTableRecord
  2
*B33
340
0
  0
BLOCK_RECORD
  5
29F
100
AcDbSymbolTableRecord
100
AcDbBlockTableRecord
  2
*B34
340
0
  0
BLOCK_RECORD
  5
2A6
100
AcDbSymbolTableRecord
100
AcDbBlockTableRecord
  2
*B35
340
0
  0
BLOCK_RECORD
  5
2AB
100
AcDbSymbolTableRecord
100
AcDbBlockTableRecord
  2
*B36
340
0
  0
BLOCK_RECORD
  5
2B5
100
AcDbSymbolTableRecord
100
AcDbBlockTableRecord
  2
*B37
340
0
  0
BLOCK_RECORD
  5
2BA
100
AcDbSymbolTableRecord
100
AcDbBlockTableRecord
  2
*B38
340
0
  0
BLOCK_RECORD
  5
2C3
100
AcDbSymbolTableRecord
100
AcDbBlockTableRecord
  2
*B39
340
0
  0
BLOCK_RECORD
  5
2C9
100
AcDbSymbolTableRecord
100
AcDbBlockTableRecord
  2
*B40
340
0
  0
BLOCK_RECORD
  5
2DE
100
AcDbSymbolTableRecord
100
AcDbBlockTableRecord
  2
*B41
340
0
  0
BLOCK_RECORD
  5
2E3
100
AcDbSymbolTableRecord
100
AcDbBlockTableRecord
  2
*B42
340
0
  0
BLOCK_RECORD
  5
2EC
100
AcDbSymbolTableRecord
100
AcDbBlockTableRecord
  2
*B43
340
0
  0
BLOCK_RECORD
  5
2F1
100
AcDbSymbolTableRecord
100
AcDbBlockTableRecord
  2
*B44
340
0
  0
BLOCK_RECORD
  5
2F6
100
AcDbSymbolTableRecord
100
AcDbBlockTableRecord
  2
*B45
340
0
  0
BLOCK_RECORD
  5
2FB
100
AcDbSymbolTableRecord
100
AcDbBlockTableRecord
  2
*B46
340
0
  0
BLOCK_RECORD
  5
300
100
AcDbSymbolTableRecord
100
AcDbBlockTableRecord
  2
*B47
340
0
  0
BLOCK_RECORD
  5
30C
100
AcDbSymbolTableRecord
100
AcDbBlockTableRecord
  2
*B48
340
0
  0
BLOCK_RECORD
  5
312
100
AcDbSymbolTableRecord
100
AcDbBlockTableRecord
  2
*B49
340
0
  0
BLOCK_RECORD
  5
31B
100
AcDbSymbolTableRecord
100
AcDbBlockTableRecord
  2
*B50
340
0
  0
BLOCK_RECORD
  5
322
100
AcDbSymbolTableRecord
100
AcDbBlockTableRecord
  2
*B51
340
0
  0
BLOCK_RECORD
  5
327
100
AcDbSymbolTableRecord
100
AcDbBlockTableRecord
  2
*B52
340
0
  0
BLOCK_RECORD
  5
32E
100
AcDbSymbolTableRecord
100
AcDbBlockTableRecord
  2
*B53
340
0
  0
BLOCK_RECORD
  5
335
100
AcDbSymbolTableRecord
100
AcDbBlockTableRecord
  2
*B54
340
0
  0
BLOCK_RECORD
  5
33C
100
AcDbSymbolTableRecord
100
AcDbBlockTableRecord
  2
*B55
340
0
  0
BLOCK_RECORD
  5
341
100
AcDbSymbolTableRecord
100
AcDbBlockTableRecord
  2
*B56
340
0
  0
BLOCK_RECORD
  5
346
100
AcDbSymbolTableRecord
100
AcDbBlockTableRecord
  2
*B57
340
0
  0
BLOCK_RECORD
  5
34B
100
AcDbSymbolTableRecord
100
AcDbBlockTableRecord
  2
*B58
340
0
  0
BLOCK_RECORD
  5
351
100
AcDbSymbolTableRecord
100
AcDbBlockTableRecord
  2
*B59
340
0
  0
BLOCK_RECORD
  5
357
100
AcDbSymbolTableRecord
100
AcDbBlockTableRecord
  2
*B60
340
0
  0
BLOCK_RECORD
  5
35C
100
AcDbSymbolTableRecord
100
AcDbBlockTableRecord
  2
*B61
340
0
  0
BLOCK_RECORD
  5
362
100
AcDbSymbolTableRecord
100
AcDbBlockTableRecord
  2
*B62
340
0
  0
BLOCK_RECORD
  5
367
100
AcDbSymbolTableRecord
100
AcDbBlockTableRecord
  2
*B63
340
0
  0
BLOCK_RECORD
  5
36D
100
AcDbSymbolTableRecord
100
AcDbBlockTableRecord
  2
*B64
340
0
  0
BLOCK_RECORD
  5
376
100
AcDbSymbolTableRecord
100
AcDbBlockTableRecord
  2
*B65
340
0
  0
BLOCK_RECORD
  5
37D
100
AcDbSymbolTableRecord
100
AcDbBlockTableRecord
  2
*B66
340
0
  0
BLOCK_RECORD
  5
382
100
AcDbSymbolTableRecord
100
AcDbBlockTableRecord
  2
*B67
340
0
  0
BLOCK_RECORD
  5
387
100
AcDbSymbolTableRecord
100
AcDbBlockTableRecord
  2
*B68
340
0
  0
BLOCK_RECORD
  5
38D
100
AcDbSymbolTableRecord
100
AcDbBlockTableRecord
  2
*B69
340
0
  0
BLOCK_RECORD
  5
393
100
AcDbSymbolTableRecord
100
AcDbBlockTableRecord
  2
*B70
340
0
  0
BLOCK_RECORD
  5
399
100
AcDbSymbolTableRecord
100
AcDbBlockTableRecord
  2
*B71
340
0
  0
BLOCK_RECORD
  5
39F
100
AcDbSymbolTableRecord
100
AcDbBlockTableRecord
  2
*B72
340
0
  0
BLOCK_RECORD
  5
3A5
100
AcDbSymbolTableRecord
100
AcDbBlockTableRecord
  2
*B73
340
0
  0
BLOCK_RECORD
  5
3AB
100
AcDbSymbolTableRecord
100
AcDbBlockTableRecord
  2
*B74
340
0
  0
BLOCK_RECORD
  5
3B1
100
AcDbSymbolTableRecord
100
AcDbBlockTableRecord
  2
*B75
340
0
  0
BLOCK_RECORD
  5
3B7
100
AcDbSymbolTableRecord
100
AcDbBlockTableRecord
  2
*B76
340
0
  0
BLOCK_RECORD
  5
3BD
100
AcDbSymbolTableRecord
100
AcDbBlockTableRecord
  2
*B77
340
0
  0
BLOCK_RECORD
  5
3C3
100
AcDbSymbolTableRecord
100
AcDbBlockTableRecord
  2
*B78
340
0
  0
BLOCK_RECORD
  5
3C9
100
AcDbSymbolTableRecord
100
AcDbBlockTableRecord
  2
*B79
340
0
  0
BLOCK_RECORD
  5
3CE
100
AcDbSymbolTableRecord
100
AcDbBlockTableRecord
  2
*B80
340
0
  0
BLOCK_RECORD
  5
3D3
100
AcDbSymbolTableRecord
100
AcDbBlockTableRecord
  2
*B81
340
0
  0
BLOCK_RECORD
  5
3D8
100
AcDbSymbolTableRecord
100
AcDbBlockTableRecord
  2
*B82
340
0
  0
BLOCK_RECORD
  5
3DD
100
AcDbSymbolTableRecord
100
AcDbBlockTableRecord
  2
*B83
340
0
  0
BLOCK_RECORD
  5
3E2
100
AcDbSymbolTableRecord
100
AcDbBlockTableRecord
  2
*B84
340
0
  0
BLOCK_RECORD
  5
3E7
100
AcDbSymbolTableRecord
100
AcDbBlockTableRecord
  2
*B85
340
0
  0
BLOCK_RECORD
  5
3EC
100
AcDbSymbolTableRecord
100
AcDbBlockTableRecord
  2
*B86
340
0
  0
BLOCK_RECORD
  5
3F1
100
AcDbSymbolTableRecord
100
AcDbBlockTableRecord
  2
*B87
340
0
  0
BLOCK_RECORD
  5
3F6
100
AcDbSymbolTableRecord
100
AcDbBlockTableRecord
  2
*B88
340
0
  0
BLOCK_RECORD
  5
3FB
100
AcDbSymbolTableRecord
100
AcDbBlockTableRecord
  2
*B89
340
0
  0
BLOCK_RECORD
  5
400
100
AcDbSymbolTableRecord
100
AcDbBlockTableRecord
  2
*B90
340
0
  0
BLOCK_RECORD
  5
405
100
AcDbSymbolTableRecord
100
AcDbBlockTableRecord
  2
*B91
340
0
  0
BLOCK_RECORD
  5
40A
100
AcDbSymbolTableRecord
100
AcDbBlockTableRecord
  2
*B92
340
0
  0
BLOCK_RECORD
  5
40F
100
AcDbSymbolTableRecord
100
AcDbBlockTableRecord
  2
*B93
340
0
  0
BLOCK_RECORD
  5
414
100
AcDbSymbolTableRecord
100
AcDbBlockTableRecord
  2
*B94
340
0
  0
BLOCK_RECORD
  5
419
100
AcDbSymbolTableRecord
100
AcDbBlockTableRecord
  2
*B95
340
0
  0
BLOCK_RECORD
  5
41E
100
AcDbSymbolTableRecord
100
AcDbBlockTableRecord
  2
*B96
340
0
  0
BLOCK_RECORD
  5
423
100
AcDbSymbolTableRecord
100
AcDbBlockTableRecord
  2
*B97
340
0
  0
BLOCK_RECORD
  5
428
100
AcDbSymbolTableRecord
100
AcDbBlockTableRecord
  2
*B98
340
0
  0
BLOCK_RECORD
  5
42D
100
AcDbSymbolTableRecord
100
AcDbBlockTableRecord
  2
*B99
340
0
  0
BLOCK_RECORD
  5
432
100
AcDbSymbolTableRecord
100
AcDbBlockTableRecord
  2
*B100
340
0
  0
BLOCK_RECORD
  5
437
100
AcDbSymbolTableRecord
100
AcDbBlockTableRecord
  2
*B101
340
0
  0
BLOCK_RECORD
  5
43C
100
AcDbSymbolTableRecord
100
AcDbBlockTableRecord
  2
*B102
340
0
  0
BLOCK_RECORD
  5
441
100
AcDbSymbolTableRecord
100
AcDbBlockTableRecord
  2
*B103
340
0
  0
ENDTAB
  0
ENDSEC
  0
SECTION
  2
BLOCKS
  0
BLOCK
  5
D
100
AcDbEntity
  8
0
100
AcDbBlockBegin
  2
*MODEL_SPACE
 70
     0
 10
0.0
 20
0.0
 30
0.0
  3
*MODEL_SPACE
  1

  0
ENDBLK
  5
E
100
AcDbEntity
  8
0
100
AcDbBlockEnd
  0
BLOCK
  5
F
100
AcDbEntity
 67
     1
  8
0
100
AcDbBlockBegin
  2
*PAPER_SPACE
 70
     0
 10
0.0
 20
0.0
 30
0.0
  3
*PAPER_SPACE
  1

  0
ENDBLK
  5
10
100
AcDbEntity
 67
     1
  8
0
100
AcDbBlockEnd
  0
BLOCK
  5
2A
100
AcDbEntity
  8
0
100
AcDbBlockBegin
  2
*B0
 70
     0
 10
0.0
 20
0.0
 30
0.0
  3
*B0
  1

  0
ENDBLK
  5
2B
100
AcDbEntity
  8
0
100
AcDbBlockEnd
  0
BLOCK
  5
2D
100
AcDbEntity
  8
0
100
AcDbBlockBegin
  2
*B1
 70
     0
 10
0.0
 20
0.0
 30
0.0
  3
*B1
  1

  0
ARC
  5
2E
100
AcDbEntity
  8
0
  6
Continuous
 62
   174
100
AcDbCircle
 10
212.902893
 20
97.645661
 30
0.0
 40
3.0
100
AcDbArc
 50
-90.0
 51
90.0
  0
ARC
  5
2F
100
AcDbEntity
  8
0
  6
Continuous
 62
   174
100
AcDbCircle
 10
212.902893
 20
97.645661
 30
0.0
 40
3.0
100
AcDbArc
 50
-270.0
 51
-90.0
  0
ARC
  5
30
100
AcDbEntity
  8
0
  6
Continuous
 62
   174
100
AcDbCircle
 10
212.902893
 20
97.645661
 30
0.0
 40
2.7
100
AcDbArc
 50
-264.884304
 51
-95.115696
  0
LINE
  5
31
100
AcDbEntity
  8
0
  6
Continuous
 62
   174
100
AcDbLine
 10
212.662141
 20
100.334906
 30
0.0
 11
212.662141
 21
94.956416
 31
0.0
  0
ARC
  5
32
100
AcDbEntity
  8
0
  6
Continuous
 62
   174
100
AcDbCircle
 10
212.902893
 20
97.645661
 30
0.0
 40
2.7
100
AcDbArc
 50
-84.507675
 51
84.507675
  0
LINE
  5
33
100
AcDbEntity
  8
0
  6
Continuous
 62
   174
100
AcDbLine
 10
213.161316
 20
94.958056
 30
0.0
 11
213.161316
 21
100.333265
 31
0.0
  0
ARC
  5
34
100
AcDbEntity
  8
0
  6
Continuous
 62
   174
100
AcDbCircle
 10
186.902893
 20
97.645661
 30
0.0
 40
3.4
100
AcDbArc
 50
-270.0
 51
-90.0
  0
ARC
  5
35
100
AcDbEntity
  8
0
  6
Continuous
 62
   174
100
AcDbCircle
 10
186.902893
 20
97.645661
 30
0.0
 40
3.4
100
AcDbArc
 50
-90.0
 51
90.0
  0
ARC
  5
36
100
AcDbEntity
  8
0
  6
Continuous
 62
   174
100
AcDbCircle
 10
186.902893
 20
97.645661
 30
0.0
 40
3.0
100
AcDbArc
 50
-217.286546
 51
-52.713454
  0
LINE
  5
37
100
AcDbEntity
  8
0
  6
Continuous
 62
   174
100
AcDbLine
 10
184.516046
 20
99.463066
 30
0.0
 11
188.720298
 21
95.258813
 31
0.0
  0
ARC
  5
38
100
AcDbEntity
  8
0
  6
Continuous
 62
   174
100
AcDbCircle
 10
186.902893
 20
97.645661
 30
0.0
 40
3.0
100
AcDbArc
 50
-41.228296
 51
131.228296
  0
LINE
  5
39
100
AcDbEntity
  8
0
  6
Continuous
 62
   174
100
AcDbLine
 10
189.159161
 20
95.668478
 30
0.0
 11
184.92571
 21
99.901929
 31
0.0
  0
LINE
  5
3A
100
AcDbEntity
  8
0
  6
Continuous
 62
   174
100
AcDbLine
 10
160.402893
 20
104.145661
 30
0.0
 11
157.402893
 21
104.145661
 31
0.0
  0
LINE
  5
3B
100
AcDbEntity
  8
0
  6
Continuous
 62
   174
100
AcDbLine
 10
160.402893
 20
104.145661
 30
0.0
 11
157.402893
 21
104.145661
 31
0.0
  0
LINE
  5
3C
100
AcDbEntity
  8
0
  6
Continuous
 62
   174
100
AcDbLine
 10
157.402893
 20
106.645661
 30
0.0
 11
156.702893
 21
106.645661
 31
0.0
  0
ARC
  5
3D
100
AcDbEntity
  8
0
  6
Continuous
 62
   174
100
AcDbCircle
 10
223.902893
 20
105.895661
 30
0.0
 40
1.65
100
AcDbArc
 50
-180.0
 51
0.0
  0
ARC
  5
3E
100
AcDbEntity
  8
0
  6
Continuous
 62
   174
100
AcDbCircle
 10
230.902893
 20
91.645661
 30
0.0
 40
2.1
100
AcDbArc
 50
-180.0
 51
0.0
  0
LINE
  5
3F
100
AcDbEntity
  8
0
  6
Continuous
 62
   174
100
AcDbLine
 10
160.402893
 20
91.083827
 30
0.0
 11
160.402893
 21
89.690537
 31
0.0
  0
LINE
  5
40
100
AcDbEntity
  8
0
  6
Continuous
 62
   174
100
AcDbLine
 10
160.402893
 20
105.689335
 30
0.0
 11
160.402893
 21
104.296045
 31
0.0
  0
LINE
  5
41
100
AcDbEntity
  8
0
  6
Continuous
 62
   174
100
AcDbLine
 10
160.402893
 20
104.296045
 30
0.0
 11
160.402893
 21
91.083827
 31
0.0
  0
LINE
  5
42
100
AcDbEntity
  8
0
  6
Continuous
 62
   174
100
AcDbLine
 10
260.703935
 20
108.645661
 30
0.0
 11
225.101851
 21
108.645661
 31
0.0
  0
LINE
  5
43
100
AcDbEntity
  8
0
  6
Continuous
 62
   174
100
AcDbLine
 10
225.101851
 20
86.645661
 30
0.0
 11
260.703935
 21
86.645661
 31
0.0
  0
LINE
  5
44
100
AcDbEntity
  8
0
  6
Continuous
 62
   174
100
AcDbLine
 10
164.202893
 20
107.371016
 30
0.0
 11
164.202893
 21
106.301866
 31
0.0
  0
LINE
  5
45
100
AcDbEntity
  8
0
  6
Continuous
 62
   174
100
AcDbLine
 10
164.202893
 20
89.076204
 30
0.0
 11
164.202893
 21
88.008256
 31
0.0
  0
LINE
  5
46
100
AcDbEntity
  8
0
  6
Continuous
 62
   174
100
AcDbLine
 10
153.595713
 20
89.896788
 30
0.0
 11
156.702893
 21
89.896788
 31
0.0
  0
LINE
  5
47
100
AcDbEntity
  8
0
  6
Continuous
 62
   174
100
AcDbLine
 10
160.402893
 20
91.145661
 30
0.0
 11
157.402893
 21
91.145661
 31
0.0
  0
LINE
  5
48
100
AcDbEntity
  8
0
  6
Continuous
 62
   174
100
AcDbLine
 10
217.902893
 20
108.645661
 30
0.0
 11
201.902893
 21
108.645661
 31
0.0
  0
LINE
  5
49
100
AcDbEntity
  8
0
  6
Continuous
 62
   174
100
AcDbLine
 10
222.703935
 20
108.645661
 30
0.0
 11
217.902893
 21
108.645661
 31
0.0
  0
LWPOLYLINE
  5
4A
100
AcDbEntity
  8
0
  6
Continuous
 62
   174
100
AcDbPolyline
 90
        4
 70
   128
 10
152.902893
 20
89.896788
 10
153.036013
 20
89.896788
 10
153.269099
 20
89.896788
 10
153.595713
 20
89.896788
  0
LINE
  5
4B
100
AcDbEntity
  8
0
  6
Continuous
 62
   174
100
AcDbLine
 10
152.95063
 20
105.484467
 30
0.0
 11
153.027234
 21
105.484467
 31
0.0
  0
LINE
  5
4C
100
AcDbEntity
  8
0
  6
Continuous
 62
   174
100
AcDbLine
 10
156.702893
 20
105.484467
 30
0.0
 11
153.595713
 21
105.484467
 31
0.0
  0
LINE
  5
4D
100
AcDbEntity
  8
0
  6
Continuous
 62
   174
100
AcDbLine
 10
164.202893
 20
89.031264
 30
0.0
 11
170.402893
 21
89.031264
 31
0.0
  0
LINE
  5
4E
100
AcDbEntity
  8
0
  6
Continuous
 62
   174
100
AcDbLine
 10
160.402893
 20
89.645661
 30
0.0
 11
172.444853
 21
89.645661
 31
0.0
  0
ARC
  5
4F
100
AcDbEntity
  8
0
  6
Continuous
 62
   174
100
AcDbCircle
 10
248.902893
 20
103.645661
 30
0.0
 40
2.5
100
AcDbArc
 50
-180.0
 51
0.0
  0
ARC
  5
50
100
AcDbEntity
  8
0
  6
Continuous
 62
   174
100
AcDbCircle
 10
242.902893
 20
91.645661
 30
0.0
 40
2.5
100
AcDbArc
 50
-180.0
 51
0.0
  0
ARC
  5
51
100
AcDbEntity
  8
0
  6
Continuous
 62
   174
100
AcDbCircle
 10
242.902893
 20
91.645661
 30
0.0
 40
2.5
100
AcDbArc
 50
0.0
 51
118.810059
  0
ARC
  5
52
100
AcDbEntity
  8
0
  6
Continuous
 62
   174
100
AcDbCircle
 10
254.902893
 20
91.645661
 30
0.0
 40
2.5
100
AcDbArc
 50
-180.0
 51
0.0
  0
LINE
  5
53
100
AcDbEntity
  8
0
  6
Continuous
 62
   174
100
AcDbLine
 10
217.902893
 20
108.645661
 30
0.0
 11
217.902893
 21
86.645661
 31
0.0
  0
ARC
  5
54
100
AcDbEntity
  8
0
  6
Continuous
 62
   174
100
AcDbCircle
 10
242.902893
 20
91.645661
 30
0.0
 40
2.1
100
AcDbArc
 50
-180.0
 51
0.0
  0
LINE
  5
55
100
AcDbEntity
  8
0
  6
Continuous
 62
   174
100
AcDbLine
 10
156.702893
 20
97.599964
 30
0.0
 11
156.702893
 21
89.941678
 31
0.0
  0
LINE
  5
56
100
AcDbEntity
  8
0
  6
Continuous
 62
   174
100
AcDbLine
 10
157.402893
 20
106.645661
 30
0.0
 11
156.702893
 21
106.645661
 31
0.0
  0
LINE
  5
57
100
AcDbEntity
  8
0
  6
Continuous
 62
   174
100
AcDbLine
 10
152.902893
 20
105.445661
 30
0.0
 11
153.001489
 21
105.616434
 31
0.0
  0
ARC
  5
58
100
AcDbEntity
  8
0
  6
Continuous
 62
   174
100
AcDbCircle
 10
223.902893
 20
105.895661
 30
0.0
 40
1.65
100
AcDbArc
 50
0.0
 51
180.0
  0
LINE
  5
59
100
AcDbEntity
  8
0
  6
Continuous
 62
   174
100
AcDbLine
 10
160.402893
 20
89.645661
 30
0.0
 11
172.444853
 21
89.645661
 31
0.0
  0
LINE
  5
5A
100
AcDbEntity
  8
0
  6
Continuous
 62
   174
100
AcDbLine
 10
172.402893
 20
103.890659
 30
0.0
 11
172.402893
 21
105.145661
 31
0.0
  0
ARC
  5
5B
100
AcDbEntity
  8
0
  6
Continuous
 62
   174
100
AcDbCircle
 10
223.902893
 20
89.395661
 30
0.0
 40
1.65
100
AcDbArc
 50
-180.0
 51
0.0
  0
ARC
  5
5C
100
AcDbEntity
  8
0
  6
Continuous
 62
   174
100
AcDbCircle
 10
223.902893
 20
89.395661
 30
0.0
 40
1.65
100
AcDbArc
 50
0.0
 51
180.0
  0
ARC
  5
5D
100
AcDbEntity
  8
0
  6
Continuous
 62
   174
100
AcDbCircle
 10
261.902893
 20
89.395661
 30
0.0
 40
1.65
100
AcDbArc
 50
0.0
 51
180.0
  0
ARC
  5
5E
100
AcDbEntity
  8
0
  6
Continuous
 62
   174
100
AcDbCircle
 10
254.902893
 20
91.645661
 30
0.0
 40
2.1
100
AcDbArc
 50
20.590384
 51
180.0
  0
ARC
  5
5F
100
AcDbEntity
  8
0
  6
Continuous
 62
   174
100
AcDbCircle
 10
254.902893
 20
91.645661
 30
0.0
 40
2.1
100
AcDbArc
 50
180.0
 51
339.409616
  0
ARC
  5
60
100
AcDbEntity
  8
0
  6
Continuous
 62
   174
100
AcDbCircle
 10
254.902893
 20
91.645661
 30
0.0
 40
2.1
100
AcDbArc
 50
-20.590384
 51
0.0
  0
ARC
  5
61
100
AcDbEntity
  8
0
  6
Continuous
 62
   174
100
AcDbCircle
 10
254.902893
 20
91.645661
 30
0.0
 40
2.1
100
AcDbArc
 50
0.0
 51
20.590384
  0
LINE
  5
62
100
AcDbEntity
  8
0
  6
Continuous
 62
   174
100
AcDbLine
 10
157.402893
 20
104.403591
 30
0.0
 11
157.402893
 21
106.689391
 31
0.0
  0
LINE
  5
63
100
AcDbEntity
  8
0
  6
Continuous
 62
   174
100
AcDbLine
 10
157.402893
 20
90.976281
 30
0.0
 11
157.402893
 21
104.403591
 31
0.0
  0
LINE
  5
64
100
AcDbEntity
  8
0
  6
Continuous
 62
   174
100
AcDbLine
 10
217.902893
 20
86.645661
 30
0.0
 11
222.703935
 21
86.645661
 31
0.0
  0
ARC
  5
65
100
AcDbEntity
  8
0
  6
Continuous
 62
   174
100
AcDbCircle
 10
261.902893
 20
105.895661
 30
0.0
 40
3.0
100
AcDbArc
 50
-114.74561
 51
66.443536
  0
ARC
  5
66
100
AcDbEntity
  8
0
  6
Continuous
 62
   174
100
AcDbCircle
 10
223.902893
 20
105.895661
 30
0.0
 40
3.0
100
AcDbArc
 50
-114.74561
 51
66.443536
  0
ARC
  5
67
100
AcDbEntity
  8
0
  6
Continuous
 62
   174
100
AcDbCircle
 10
223.902893
 20
89.395661
 30
0.0
 40
3.0
100
AcDbArc
 50
65.25439
 51
246.443536
  0
ARC
  5
68
100
AcDbEntity
  8
0
  6
Continuous
 62
   174
100
AcDbCircle
 10
223.902893
 20
89.395661
 30
0.0
 40
3.0
100
AcDbArc
 50
-66.443536
 51
65.25439
  0
ARC
  5
69
100
AcDbEntity
  8
0
  6
Continuous
 62
   174
100
AcDbCircle
 10
261.902893
 20
89.395661
 30
0.0
 40
3.0
100
AcDbArc
 50
-66.443536
 51
65.25439
  0
LINE
  5
6A
100
AcDbEntity
  8
0
  6
Continuous
 62
   174
100
AcDbLine
 10
156.702893
 20
97.555727
 30
0.0
 11
153.595713
 21
97.555727
 31
0.0
  0
LWPOLYLINE
  5
6B
100
AcDbEntity
  8
0
  6
Continuous
 62
   174
100
AcDbPolyline
 90
        7
 70
   128
 10
153.595713
 20
89.896788
 10
153.229587
 20
91.198754
 10
153.001489
 20
92.475356
 10
152.924585
 20
93.726327
 10
153.001503
 20
94.977282
 10
153.229604
 20
96.253837
 10
153.595713
 20
97.555727
  0
LINE
  5
6C
100
AcDbEntity
  8
0
  6
Continuous
 62
   174
100
AcDbLine
 10
157.402893
 20
88.645661
 30
0.0
 11
156.702893
 21
88.645661
 31
0.0
  0
LINE
  5
6D
100
AcDbEntity
  8
0
  6
Continuous
 62
   174
100
AcDbLine
 10
201.402893
 20
105.145661
 30
0.0
 11
201.402893
 21
90.145661
 31
0.0
  0
ARC
  5
6E
100
AcDbEntity
  8
0
  6
Continuous
 62
   174
100
AcDbCircle
 10
236.902893
 20
103.645661
 30
0.0
 40
2.5
100
AcDbArc
 50
-180.0
 51
0.0
  0
ARC
  5
6F
100
AcDbEntity
  8
0
  6
Continuous
 62
   174
100
AcDbCircle
 10
236.902893
 20
103.645661
 30
0.0
 40
2.5
100
AcDbArc
 50
0.0
 51
118.807171
  0
LINE
  5
70
100
AcDbEntity
  8
0
  6
Continuous
 62
   174
100
AcDbLine
 10
198.402893
 20
87.145661
 30
0.0
 11
175.402893
 21
87.145661
 31
0.0
  0
LINE
  5
71
100
AcDbEntity
  8
0
  6
Continuous
 62
   174
100
AcDbLine
 10
175.402893
 20
108.145661
 30
0.0
 11
198.402893
 21
108.145661
 31
0.0
  0
LWPOLYLINE
  5
72
100
AcDbEntity
  8
0
  6
Continuous
 62
   174
100
AcDbPolyline
 90
        4
 70
   128
 10
153.595713
 20
97.555727
 10
153.267813
 20
98.640696
 10
153.035058
 20
99.699695
 10
152.902893
 20
100.747939
  0
LINE
  5
73
100
AcDbEntity
  8
0
  6
Continuous
 62
   174
100
AcDbLine
 10
164.202893
 20
87.963202
 30
0.0
 11
170.402893
 21
87.963202
 31
0.0
  0
ARC
  5
74
100
AcDbEntity
  8
0
  6
Continuous
 62
   174
100
AcDbCircle
 10
261.902893
 20
89.395661
 30
0.0
 40
1.65
100
AcDbArc
 50
-180.0
 51
0.0
  0
LINE
  5
75
100
AcDbEntity
  8
0
  6
Continuous
 62
   174
100
AcDbLine
 10
217.902893
 20
86.645661
 30
0.0
 11
217.902893
 21
108.645661
 31
0.0
  0
ARC
  5
76
100
AcDbEntity
  8
0
  6
Continuous
 62
   174
100
AcDbCircle
 10
254.902893
 20
91.645661
 30
0.0
 40
2.5
100
AcDbArc
 50
0.0
 51
118.810059
  0
LINE
  5
77
100
AcDbEntity
  8
0
  6
Continuous
 62
   174
100
AcDbLine
 10
217.902893
 20
86.645661
 30
0.0
 11
201.902893
 21
86.645661
 31
0.0
  0
ARC
  5
78
100
AcDbEntity
  8
0
  6
Continuous
 62
   174
100
AcDbCircle
 10
261.902893
 20
105.895661
 30
0.0
 40
3.0
100
AcDbArc
 50
113.556464
 51
245.25439
  0
LINE
  5
79
100
AcDbEntity
  8
0
  6
Continuous
 62
   174
100
AcDbLine
 10
222.703935
 20
108.645661
 30
0.0
 11
225.101851
 21
108.645661
 31
0.0
  0
ARC
  5
7A
100
AcDbEntity
  8
0
  6
Continuous
 62
   174
100
AcDbCircle
 10
223.902893
 20
105.895661
 30
0.0
 40
3.0
100
AcDbArc
 50
113.556464
 51
245.25439
  0
LINE
  5
7B
100
AcDbEntity
  8
0
  6
Continuous
 62
   174
100
AcDbLine
 10
152.902893
 20
100.747939
 30
0.0
 11
152.902893
 21
102.292255
 31
0.0
  0
LINE
  5
7C
100
AcDbEntity
  8
0
  6
Continuous
 62
   174
100
AcDbLine
 10
260.703935
 20
86.645661
 30
0.0
 11
263.101851
 21
86.645661
 31
0.0
  0
ARC
  5
7D
100
AcDbEntity
  8
0
  6
Continuous
 62
   174
100
AcDbCircle
 10
261.902893
 20
89.395661
 30
0.0
 40
3.0
100
AcDbArc
 50
65.25439
 51
246.443536
  0
ARC
  5
7E
100
AcDbEntity
  8
0
  6
Continuous
 62
   174
100
AcDbCircle
 10
261.902893
 20
105.895661
 30
0.0
 40
1.65
100
AcDbArc
 50
-180.0
 51
0.0
  0
ARC
  5
7F
100
AcDbEntity
  8
0
  6
Continuous
 62
   174
100
AcDbCircle
 10
261.902893
 20
105.895661
 30
0.0
 40
1.65
100
AcDbArc
 50
0.0
 51
180.0
  0
LINE
  5
80
100
AcDbEntity
  8
0
  6
Continuous
 62
   174
100
AcDbLine
 10
160.402893
 20
105.645661
 30
0.0
 11
172.444853
 21
105.645661
 31
0.0
  0
LINE
  5
81
100
AcDbEntity
  8
0
  6
Continuous
 62
   174
100
AcDbLine
 10
160.402893
 20
105.645661
 30
0.0
 11
172.444853
 21
105.645661
 31
0.0
  0
LINE
  5
82
100
AcDbEntity
  8
0
  6
Continuous
 62
   174
100
AcDbLine
 10
172.402893
 20
90.145661
 30
0.0
 11
172.402893
 21
91.400663
 31
0.0
  0
ARC
  5
83
100
AcDbEntity
  8
0
  6
Continuous
 62
   174
100
AcDbCircle
 10
248.902893
 20
103.645661
 30
0.0
 40
2.5
100
AcDbArc
 50
0.0
 51
118.810059
  0
ARC
  5
84
100
AcDbEntity
  8
0
  6
Continuous
 62
   174
100
AcDbCircle
 10
248.902893
 20
103.645661
 30
0.0
 40
2.1
100
AcDbArc
 50
0.0
 51
180.0
  0
ARC
  5
85
100
AcDbEntity
  8
0
  6
Continuous
 62
   174
100
AcDbCircle
 10
248.902893
 20
103.645661
 30
0.0
 40
2.1
100
AcDbArc
 50
-180.0
 51
0.0
  0
ARC
  5
86
100
AcDbEntity
  8
0
  6
Continuous
 62
   174
100
AcDbCircle
 10
236.902893
 20
103.645661
 30
0.0
 40
2.1
100
AcDbArc
 50
0.0
 51
180.0
  0
ARC
  5
87
100
AcDbEntity
  8
0
  6
Continuous
 62
   174
100
AcDbCircle
 10
236.902893
 20
103.645661
 30
0.0
 40
2.1
100
AcDbArc
 50
-180.0
 51
0.0
  0
ARC
  5
88
100
AcDbEntity
  8
0
  6
Continuous
 62
   174
100
AcDbCircle
 10
230.902893
 20
91.645661
 30
0.0
 40
2.1
100
AcDbArc
 50
0.0
 51
180.0
  0
ARC
  5
89
100
AcDbEntity
  8
0
  6
Continuous
 62
   174
100
AcDbCircle
 10
242.902893
 20
91.645661
 30
0.0
 40
2.1
100
AcDbArc
 50
0.0
 51
180.0
  0
LINE
  5
8A
100
AcDbEntity
  8
0
  6
Continuous
 62
   174
100
AcDbLine
 10
267.902893
 20
86.645661
 30
0.0
 11
267.902893
 21
108.645661
 31
0.0
  0
LINE
  5
8B
100
AcDbEntity
  8
0
  6
Continuous
 62
   174
100
AcDbLine
 10
157.402893
 20
88.690481
 30
0.0
 11
157.402893
 21
90.976281
 31
0.0
  0
LINE
  5
8C
100
AcDbEntity
  8
0
  6
Continuous
 62
   174
100
AcDbLine
 10
156.702893
 20
106.689391
 30
0.0
 11
156.702893
 21
105.528316
 31
0.0
  0
LINE
  5
8D
100
AcDbEntity
  8
0
  6
Continuous
 62
   174
100
AcDbLine
 10
156.702893
 20
89.941678
 30
0.0
 11
156.702893
 21
88.690481
 31
0.0
  0
LINE
  5
8E
100
AcDbEntity
  8
0
  6
Continuous
 62
   174
100
AcDbLine
 10
260.703935
 20
108.645661
 30
0.0
 11
263.101851
 21
108.645661
 31
0.0
  0
LINE
  5
8F
100
AcDbEntity
  8
0
  6
Continuous
 62
   174
100
AcDbLine
 10
156.702893
 20
105.528316
 30
0.0
 11
156.702893
 21
97.599964
 31
0.0
  0
LINE
  5
90
100
AcDbEntity
  8
0
  6
Continuous
 62
   174
100
AcDbLine
 10
222.703935
 20
86.645661
 30
0.0
 11
225.101851
 21
86.645661
 31
0.0
  0
LINE
  5
91
100
AcDbEntity
  8
0
  6
Continuous
 62
   174
100
AcDbLine
 10
152.902893
 20
105.489264
 30
0.0
 11
152.902893
 21
102.336187
 31
0.0
  0
LINE
  5
92
100
AcDbEntity
  8
0
  6
Continuous
 62
   174
100
AcDbLine
 10
152.902893
 20
100.792093
 30
0.0
 11
152.902893
 21
89.941678
 31
0.0
  0
LWPOLYLINE
  5
93
100
AcDbEntity
  8
0
  6
Continuous
 62
   174
100
AcDbPolyline
 90
        3
 70
   128
 10
153.595713
 20
105.484467
 10
153.229611
 20
105.484467
 10
153.001511
 20
105.484467
  0
LINE
  5
94
100
AcDbEntity
  8
0
  6
Continuous
 62
   174
100
AcDbLine
 10
160.402893
 20
91.145661
 30
0.0
 11
157.402893
 21
91.145661
 31
0.0
  0
LINE
  5
95
100
AcDbEntity
  8
0
  6
Continuous
 62
   174
100
AcDbLine
 10
157.402893
 20
88.645661
 30
0.0
 11
156.702893
 21
88.645661
 31
0.0
  0
ARC
  5
96
100
AcDbEntity
  8
0
  6
Continuous
 62
   174
100
AcDbCircle
 10
230.902893
 20
91.645661
 30
0.0
 40
2.5
100
AcDbArc
 50
-180.0
 51
0.0
  0
ARC
  5
97
100
AcDbEntity
  8
0
  6
Continuous
 62
   174
100
AcDbCircle
 10
230.902893
 20
91.645661
 30
0.0
 40
2.5
100
AcDbArc
 50
0.0
 51
118.810059
  0
LINE
  5
98
100
AcDbEntity
  8
0
  6
Continuous
 62
   174
100
AcDbLine
 10
267.902893
 20
108.645661
 30
0.0
 11
263.101851
 21
108.645661
 31
0.0
  0
LINE
  5
99
100
AcDbEntity
  8
0
  6
Continuous
 62
   174
100
AcDbLine
 10
263.101851
 20
86.645661
 30
0.0
 11
267.902893
 21
86.645661
 31
0.0
  0
LWPOLYLINE
  5
9A
100
AcDbEntity
  8
0
  6
Continuous
 62
   174
100
AcDbPolyline
 90
        4
 70
   128
 10
152.902893
 20
102.292255
 10
153.036013
 20
103.345964
 10
153.269096
 20
104.404376
 10
153.595713
 20
105.484467
  0
LWPOLYLINE
  5
9B
100
AcDbEntity
  8
0
  6
Continuous
 62
   174
100
AcDbPolyline
 90
        6
 70
   128
 10
175.402893
 20
97.645661
 10
174.497577
 20
99.135021
 10
173.689272
 20
100.52877
 10
173.027424
 20
101.807431
 10
172.575598
 20
102.933536
 10
172.402893
 20
103.890659
  0
LINE
  5
9C
100
AcDbEntity
  8
0
  6
Continuous
 62
   174
100
AcDbLine
 10
170.402893
 20
107.576795
 30
0.0
 11
170.402893
 21
107.689147
 31
0.0
  0
LINE
  5
9D
100
AcDbEntity
  8
0
  6
Continuous
 62
   174
100
AcDbLine
 10
171.902893
 20
108.645661
 30
0.0
 11
201.902893
 21
108.645661
 31
0.0
  0
LINE
  5
9E
100
AcDbEntity
  8
0
  6
Continuous
 62
   174
100
AcDbLine
 10
171.902893
 20
105.645661
 30
0.0
 11
171.902893
 21
108.645661
 31
0.0
  0
LINE
  5
9F
100
AcDbEntity
  8
0
  6
Continuous
 62
   174
100
AcDbLine
 10
198.402893
 20
108.145661
 30
0.0
 11
175.402893
 21
108.145661
 31
0.0
  0
LINE
  5
A0
100
AcDbEntity
  8
0
  6
Continuous
 62
   174
100
AcDbLine
 10
164.202893
 20
106.258291
 30
0.0
 11
170.402893
 21
106.258291
 31
0.0
  0
LINE
  5
A1
100
AcDbEntity
  8
0
  6
Continuous
 62
   174
100
AcDbLine
 10
170.402893
 20
87.690725
 30
0.0
 11
170.402893
 21
87.803378
 31
0.0
  0
LINE
  5
A2
100
AcDbEntity
  8
0
  6
Continuous
 62
   174
100
AcDbLine
 10
201.902893
 20
86.645661
 30
0.0
 11
171.902893
 21
86.645661
 31
0.0
  0
LINE
  5
A3
100
AcDbEntity
  8
0
  6
Continuous
 62
   174
100
AcDbLine
 10
198.428407
 20
105.145661
 30
0.0
 11
201.428576
 21
105.145661
 31
0.0
  0
LINE
  5
A4
100
AcDbEntity
  8
0
  6
Continuous
 62
   174
100
AcDbLine
 10
175.402893
 20
87.145661
 30
0.0
 11
198.402893
 21
87.145661
 31
0.0
  0
LWPOLYLINE
  5
A5
100
AcDbEntity
  8
0
  6
Continuous
 62
   174
100
AcDbPolyline
 90
        6
 70
   128
 10
172.402893
 20
91.400663
 10
172.575235
 20
92.356625
 10
173.027036
 20
93.483064
 10
173.690106
 20
94.764055
 10
174.498637
 20
96.158071
 10
175.402893
 20
97.645661
  0
LINE
  5
A6
100
AcDbEntity
  8
0
  6
Continuous
 62
   174
100
AcDbLine
 10
172.402893
 20
91.400663
 30
0.0
 11
172.402893
 21
90.145661
 31
0.0
  0
LINE
  5
A7
100
AcDbEntity
  8
0
  6
Continuous
 62
   174
100
AcDbLine
 10
175.402893
 20
105.145661
 30
0.0
 11
198.402893
 21
105.145661
 31
0.0
  0
LINE
  5
A8
100
AcDbEntity
  8
0
  6
Continuous
 62
   174
100
AcDbLine
 10
170.402893
 20
107.645661
 30
0.0
 11
170.902893
 21
107.645661
 31
0.0
  0
LINE
  5
A9
100
AcDbEntity
  8
0
  6
Continuous
 62
   174
100
AcDbLine
 10
175.402893
 20
90.145661
 30
0.0
 11
175.402893
 21
97.645661
 31
0.0
  0
LINE
  5
AA
100
AcDbEntity
  8
0
  6
Continuous
 62
   174
100
AcDbLine
 10
170.402893
 20
87.803378
 30
0.0
 11
170.402893
 21
88.008256
 31
0.0
  0
LINE
  5
AB
100
AcDbEntity
  8
0
  6
Continuous
 62
   174
100
AcDbLine
 10
198.402893
 20
105.189457
 30
0.0
 11
198.402893
 21
108.189325
 31
0.0
  0
LINE
  5
AC
100
AcDbEntity
  8
0
  6
Continuous
 62
   174
100
AcDbLine
 10
198.402893
 20
90.145661
 30
0.0
 11
175.402893
 21
90.145661
 31
0.0
  0
LINE
  5
AD
100
AcDbEntity
  8
0
  6
Continuous
 62
   174
100
AcDbLine
 10
201.428576
 20
90.145661
 30
0.0
 11
198.428407
 21
90.145661
 31
0.0
  0
LINE
  5
AE
100
AcDbEntity
  8
0
  6
Continuous
 62
   174
100
AcDbLine
 10
164.202893
 20
89.645661
 30
0.0
 11
164.202893
 21
89.031264
 31
0.0
  0
LINE
  5
AF
100
AcDbEntity
  8
0
  6
Continuous
 62
   174
100
AcDbLine
 10
170.902893
 20
107.645661
 30
0.0
 11
171.902893
 21
107.645661
 31
0.0
  0
LINE
  5
B0
100
AcDbEntity
  8
0
  6
Continuous
 62
   174
100
AcDbLine
 10
201.402893
 20
90.145661
 30
0.0
 11
201.402893
 21
105.145661
 31
0.0
  0
LINE
  5
B1
100
AcDbEntity
  8
0
  6
Continuous
 62
   174
100
AcDbLine
 10
175.402893
 20
97.645661
 30
0.0
 11
175.402893
 21
105.145661
 31
0.0
  0
LINE
  5
B2
100
AcDbEntity
  8
0
  6
Continuous
 62
   174
100
AcDbLine
 10
170.402893
 20
89.076204
 30
0.0
 11
170.402893
 21
89.664402
 31
0.0
  0
ARC
  5
B3
100
AcDbEntity
  8
0
  6
Continuous
 62
   174
100
AcDbCircle
 10
198.402893
 20
105.145661
 30
0.0
 40
3.0
100
AcDbArc
 50
0.0
 51
90.0
  0
LINE
  5
B4
100
AcDbEntity
  8
0
  6
Continuous
 62
   174
100
AcDbLine
 10
198.402893
 20
87.190847
 30
0.0
 11
198.402893
 21
90.190415
 31
0.0
  0
LINE
  5
B5
100
AcDbEntity
  8
0
  6
Continuous
 62
   174
100
AcDbLine
 10
170.402893
 20
87.645661
 30
0.0
 11
170.902893
 21
87.645661
 31
0.0
  0
LINE
  5
B6
100
AcDbEntity
  8
0
  6
Continuous
 62
   174
100
AcDbLine
 10
170.402893
 20
107.371016
 30
0.0
 11
170.402893
 21
107.576795
 31
0.0
  0
LINE
  5
B7
100
AcDbEntity
  8
0
  6
Continuous
 62
   174
100
AcDbLine
 10
164.202893
 20
107.327249
 30
0.0
 11
170.402893
 21
107.327249
 31
0.0
  0
ARC
  5
B8
100
AcDbEntity
  8
0
  6
Continuous
 62
   174
100
AcDbCircle
 10
175.402893
 20
90.145661
 30
0.0
 40
3.0
100
AcDbArc
 50
-180.0
 51
-90.0
  0
LINE
  5
B9
100
AcDbEntity
  8
0
  6
Continuous
 62
   174
100
AcDbLine
 10
175.402893
 20
87.190847
 30
0.0
 11
175.402893
 21
90.190415
 31
0.0
  0
LINE
  5
BA
100
AcDbEntity
  8
0
  6
Continuous
 62
   174
100
AcDbLine
 10
170.402893
 20
105.71547
 30
0.0
 11
170.402893
 21
106.301866
 31
0.0
  0
LINE
  5
BB
100
AcDbEntity
  8
0
  6
Continuous
 62
   174
100
AcDbLine
 10
175.428615
 20
105.145661
 30
0.0
 11
172.428446
 21
105.145661
 31
0.0
  0
ARC
  5
BC
100
AcDbEntity
  8
0
  6
Continuous
 62
   174
100
AcDbCircle
 10
198.402893
 20
90.145661
 30
0.0
 40
3.0
100
AcDbArc
 50
-90.0
 51
0.0
  0
LINE
  5
BD
100
AcDbEntity
  8
0
  6
Continuous
 62
   174
100
AcDbLine
 10
170.902893
 20
107.645661
 30
0.0
 11
171.902893
 21
107.645661
 31
0.0
  0
LINE
  5
BE
100
AcDbEntity
  8
0
  6
Continuous
 62
   174
100
AcDbLine
 10
172.428446
 20
90.145661
 30
0.0
 11
175.428615
 21
90.145661
 31
0.0
  0
ARC
  5
BF
100
AcDbEntity
  8
0
  6
Continuous
 62
   174
100
AcDbCircle
 10
175.402893
 20
105.145661
 30
0.0
 40
3.0
100
AcDbArc
 50
-270.0
 51
-180.0
  0
LINE
  5
C0
100
AcDbEntity
  8
0
  6
Continuous
 62
   174
100
AcDbLine
 10
172.402893
 20
105.145661
 30
0.0
 11
172.402893
 21
103.890659
 31
0.0
  0
LINE
  5
C1
100
AcDbEntity
  8
0
  6
Continuous
 62
   174
100
AcDbLine
 10
171.902893
 20
86.645661
 30
0.0
 11
171.902893
 21
89.645661
 31
0.0
  0
LINE
  5
C2
100
AcDbEntity
  8
0
  6
Continuous
 62
   174
100
AcDbLine
 10
198.402893
 20
105.145661
 30
0.0
 11
198.402893
 21
90.145661
 31
0.0
  0
LINE
  5
C3
100
AcDbEntity
  8
0
  6
Continuous
 62
   174
100
AcDbLine
 10
164.202893
 20
106.258291
 30
0.0
 11
164.202893
 21
105.645661
 31
0.0
  0
LINE
  5
C4
100
AcDbEntity
  8
0
  6
Continuous
 62
   174
100
AcDbLine
 10
175.402893
 20
105.189457
 30
0.0
 11
175.402893
 21
108.189325
 31
0.0
  0
LINE
  5
C5
100
AcDbEntity
  8
0
  6
Continuous
 62
   174
100
AcDbLine
 10
170.902893
 20
87.645661
 30
0.0
 11
171.902893
 21
87.645661
 31
0.0
  0
LINE
  5
C6
100
AcDbEntity
  8
0
  6
Continuous
 62
   174
100
AcDbLine
 10
201.902893
 20
108.645661
 30
0.0
 11
201.902893
 21
86.645661
 31
0.0
  0
ENDBLK
  5
C7
100
AcDbEntity
  8
0
100
AcDbBlockEnd
  0
BLOCK
  5
CA
100
AcDbEntity
  8
0
100
AcDbBlockBegin
  2
*B2
 70
     0
 10
0.0
 20
0.0
 30
0.0
  3
*B2
  1

  0
LINE
  5
CB
100
AcDbEntity
  8
0
  6
HIDDEN
 62
   174
100
AcDbLine
 10
189.159161
 20
218.1756
 30
0.0
 11
188.720298
 21
218.1756
 31
0.0
  0
LINE
  5
CC
100
AcDbEntity
  8
0
  6
HIDDEN
 62
   174
100
AcDbLine
 10
186.902893
 20
218.1756
 30
0.0
 11
184.92571
 21
218.1756
 31
0.0
  0
LINE
  5
CD
100
AcDbEntity
  8
0
  6
HIDDEN
 62
   174
100
AcDbLine
 10
188.720298
 20
218.1756
 30
0.0
 11
186.902893
 21
218.1756
 31
0.0
  0
LINE
  5
CE
100
AcDbEntity
  8
0
  6
Continuous
 62
   174
100
AcDbLine
 10
160.402893
 20
216.6756
 30
0.0
 11
157.402893
 21
216.6756
 31
0.0
  0
LINE
  5
CF
100
AcDbEntity
  8
0
  6
Continuous
 62
   174
100
AcDbLine
 10
160.402893
 20
203.6756
 30
0.0
 11
157.402893
 21
203.6756
 31
0.0
  0
LINE
  5
D0
100
AcDbEntity
  8
0
  6
Continuous
 62
   174
100
AcDbLine
 10
157.402893
 20
219.1756
 30
0.0
 11
156.702893
 21
219.1756
 31
0.0
  0
LINE
  5
D1
100
AcDbEntity
  8
0
  6
Continuous
 62
   174
100
AcDbLine
 10
157.402893
 20
201.1756
 30
0.0
 11
156.702893
 21
201.1756
 31
0.0
  0
LINE
  5
D2
100
AcDbEntity
  8
0
  6
HIDDEN
 62
   174
100
AcDbLine
 10
263.578362
 20
181.9256
 30
0.0
 11
263.14127
 21
181.9256
 31
0.0
  0
LINE
  5
D3
100
AcDbEntity
  8
0
  6
HIDDEN
 62
   174
100
AcDbLine
 10
260.71578
 20
181.9256
 30
0.0
 11
260.278387
 21
181.9256
 31
0.0
  0
LINE
  5
D4
100
AcDbEntity
  8
0
  6
HIDDEN
 62
   174
100
AcDbLine
 10
263.14127
 20
181.9256
 30
0.0
 11
260.71578
 21
181.9256
 31
0.0
  0
LINE
  5
D5
100
AcDbEntity
  8
0
  6
Continuous
 62
   174
100
AcDbLine
 10
152.902893
 20
202.3756
 30
0.0
 11
153.570147
 21
201.219882
 31
0.0
  0
LINE
  5
D6
100
AcDbEntity
  8
0
  6
Continuous
 62
   174
100
AcDbLine
 10
152.902893
 20
217.9756
 30
0.0
 11
153.570169
 21
219.131357
 31
0.0
  0
LINE
  5
D7
100
AcDbEntity
  8
0
  6
HIDDEN
 62
   174
100
AcDbLine
 10
225.578628
 20
181.9256
 30
0.0
 11
225.141234
 21
181.9256
 31
0.0
  0
LINE
  5
D8
100
AcDbEntity
  8
0
  6
HIDDEN
 62
   174
100
AcDbLine
 10
260.71578
 20
181.9256
 30
0.0
 11
260.278387
 21
181.9256
 31
0.0
  0
LINE
  5
D9
100
AcDbEntity
  8
0
  6
HIDDEN
 62
   174
100
AcDbLine
 10
245.428648
 20
183.1756
 30
0.0
 11
240.428367
 21
183.1756
 31
0.0
  0
LINE
  5
DA
100
AcDbEntity
  8
0
  6
HIDDEN
 62
   174
100
AcDbLine
 10
245.402893
 20
178.1756
 30
0.0
 11
245.402893
 21
183.1756
 31
0.0
  0
LINE
  5
DB
100
AcDbEntity
  8
0
  6
HIDDEN
 62
   174
100
AcDbLine
 10
222.252893
 20
181.9256
 30
0.0
 11
222.252893
 21
161.1756
 31
0.0
  0
LINE
  5
DC
100
AcDbEntity
  8
0
  6
HIDDEN
 62
   174
100
AcDbLine
 10
222.252893
 20
181.9256
 30
0.0
 11
222.252893
 21
161.1756
 31
0.0
  0
LINE
  5
DD
100
AcDbEntity
  8
0
  6
HIDDEN
 62
   174
100
AcDbLine
 10
264.902893
 20
183.1756
 30
0.0
 11
264.902893
 21
181.9256
 31
0.0
  0
LINE
  5
DE
100
AcDbEntity
  8
0
  6
HIDDEN
 62
   174
100
AcDbLine
 10
263.552893
 20
181.9256
 30
0.0
 11
263.552893
 21
161.1756
 31
0.0
  0
LINE
  5
DF
100
AcDbEntity
  8
0
  6
HIDDEN
 62
   174
100
AcDbLine
 10
222.252893
 20
181.9256
 30
0.0
 11
222.252893
 21
161.1756
 31
0.0
  0
LINE
  5
E0
100
AcDbEntity
  8
0
  6
Continuous
 62
   174
100
AcDbLine
 10
217.902893
 20
161.1756
 30
0.0
 11
201.902893
 21
161.1756
 31
0.0
  0
LINE
  5
E1
100
AcDbEntity
  8
0
  6
HIDDEN
 62
   174
100
AcDbLine
 10
171.902893
 20
162.215195
 30
0.0
 11
171.902893
 21
172.214556
 31
0.0
  0
LINE
  5
E2
100
AcDbEntity
  8
0
  6
HIDDEN
 62
   174
100
AcDbLine
 10
160.402893
 20
216.711202
 30
0.0
 11
160.402893
 21
210.211887
 31
0.0
  0
LINE
  5
E3
100
AcDbEntity
  8
0
  6
HIDDEN
 62
   174
100
AcDbLine
 10
160.402893
 20
203.712273
 30
0.0
 11
160.402893
 21
210.211887
 31
0.0
  0
LINE
  5
E4
100
AcDbEntity
  8
0
  6
HIDDEN
 62
   174
100
AcDbLine
 10
157.402893
 20
210.211887
 30
0.0
 11
157.402893
 21
203.712273
 31
0.0
  0
LINE
  5
E5
100
AcDbEntity
  8
0
  6
HIDDEN
 62
   174
100
AcDbLine
 10
157.402893
 20
216.711202
 30
0.0
 11
157.402893
 21
210.211887
 31
0.0
  0
LINE
  5
E6
100
AcDbEntity
  8
0
  6
HIDDEN
 62
   174
100
AcDbLine
 10
225.578628
 20
181.9256
 30
0.0
 11
225.141234
 21
181.9256
 31
0.0
  0
LINE
  5
E7
100
AcDbEntity
  8
0
  6
HIDDEN
 62
   174
100
AcDbLine
 10
222.715745
 20
181.9256
 30
0.0
 11
222.278652
 21
181.9256
 31
0.0
  0
LINE
  5
E8
100
AcDbEntity
  8
0
  6
HIDDEN
 62
   174
100
AcDbLine
 10
225.141234
 20
181.9256
 30
0.0
 11
222.715745
 21
181.9256
 31
0.0
  0
LINE
  5
E9
100
AcDbEntity
  8
0
  6
HIDDEN
 62
   174
100
AcDbLine
 10
240.828509
 20
177.1756
 30
0.0
 11
245.028505
 21
177.1756
 31
0.0
  0
LINE
  5
EA
100
AcDbEntity
  8
0
  6
HIDDEN
 62
   174
100
AcDbLine
 10
225.552893
 20
181.9256
 30
0.0
 11
225.552893
 21
161.1756
 31
0.0
  0
LINE
  5
EB
100
AcDbEntity
  8
0
  6
HIDDEN
 62
   174
100
AcDbLine
 10
220.902893
 20
183.1756
 30
0.0
 11
220.902893
 21
181.9256
 31
0.0
  0
LINE
  5
EC
100
AcDbEntity
  8
0
  6
HIDDEN
 62
   174
100
AcDbLine
 10
260.252893
 20
181.9256
 30
0.0
 11
260.252893
 21
161.1756
 31
0.0
  0
LINE
  5
ED
100
AcDbEntity
  8
0
  6
HIDDEN
 62
   174
100
AcDbLine
 10
220.902893
 20
183.1756
 30
0.0
 11
220.902893
 21
181.9256
 31
0.0
  0
LINE
  5
EE
100
AcDbEntity
  8
0
  6
Continuous
 62
   174
100
AcDbLine
 10
267.902893
 20
161.1756
 30
0.0
 11
267.902893
 21
183.1756
 31
0.0
  0
LINE
  5
EF
100
AcDbEntity
  8
0
  6
Continuous
 62
   174
100
AcDbLine
 10
225.101851
 20
183.1756
 30
0.0
 11
260.703935
 21
183.1756
 31
0.0
  0
LINE
  5
F0
100
AcDbEntity
  8
0
  6
Continuous
 62
   174
100
AcDbLine
 10
156.702893
 20
210.211887
 30
0.0
 11
156.702893
 21
205.63458
 31
0.0
  0
LINE
  5
F1
100
AcDbEntity
  8
0
  6
Continuous
 62
   174
100
AcDbLine
 10
152.902893
 20
209.283989
 30
0.0
 11
152.902893
 21
211.067211
 31
0.0
  0
LWPOLYLINE
  5
F2
100
AcDbEntity
  8
0
  6
Continuous
 62
   174
100
AcDbPolyline
 90
        4
 70
   128
 10
152.902893
 20
211.067211
 10
153.036013
 20
212.283927
 10
153.269099
 20
213.50609
 10
153.595713
 20
214.75326
  0
LINE
  5
F3
100
AcDbEntity
  8
0
  6
Continuous
 62
   174
100
AcDbLine
 10
153.595713
 20
214.75326
 30
0.0
 11
156.702893
 21
214.75326
 31
0.0
  0
LINE
  5
F4
100
AcDbEntity
  8
0
  6
HIDDEN
 62
   174
100
AcDbLine
 10
240.402893
 20
178.1756
 30
0.0
 11
240.402893
 21
183.1756
 31
0.0
  0
LINE
  5
F5
100
AcDbEntity
  8
0
  6
HIDDEN
 62
   174
100
AcDbLine
 10
240.802893
 20
183.1756
 30
0.0
 11
240.802893
 21
177.1756
 31
0.0
  0
LINE
  5
F6
100
AcDbEntity
  8
0
  6
HIDDEN
 62
   174
100
AcDbLine
 10
245.002893
 20
178.1756
 30
0.0
 11
245.002893
 21
183.1756
 31
0.0
  0
LINE
  5
F7
100
AcDbEntity
  8
0
  6
HIDDEN
 62
   174
100
AcDbLine
 10
222.252893
 20
181.9256
 30
0.0
 11
222.252893
 21
161.1756
 31
0.0
  0
LINE
  5
F8
100
AcDbEntity
  8
0
  6
Continuous
 62
   174
100
AcDbLine
 10
217.902893
 20
161.1756
 30
0.0
 11
217.902893
 21
183.1756
 31
0.0
  0
LINE
  5
F9
100
AcDbEntity
  8
0
  6
Continuous
 62
   174
100
AcDbLine
 10
160.402893
 20
216.817846
 30
0.0
 11
160.402893
 21
210.211887
 31
0.0
  0
LINE
  5
FA
100
AcDbEntity
  8
0
  6
Continuous
 62
   174
100
AcDbLine
 10
160.402893
 20
210.211887
 30
0.0
 11
160.402893
 21
203.605328
 31
0.0
  0
LINE
  5
FB
100
AcDbEntity
  8
0
  6
HIDDEN
 62
   174
100
AcDbLine
 10
263.101851
 20
183.1756
 30
0.0
 11
263.101851
 21
181.9256
 31
0.0
  0
LWPOLYLINE
  5
FC
100
AcDbEntity
  8
0
  6
Continuous
 62
   174
100
AcDbPolyline
 90
        4
 70
   128
 10
153.595713
 20
205.59794
 10
153.267812
 20
206.850755
 10
153.035059
 20
208.073576
 10
152.902893
 20
209.283989
  0
LINE
  5
FD
100
AcDbEntity
  8
0
  6
HIDDEN
 62
   174
100
AcDbLine
 10
264.928393
 20
181.9256
 30
0.0
 11
258.928657
 21
181.9256
 31
0.0
  0
LINE
  5
FE
100
AcDbEntity
  8
0
  6
HIDDEN
 62
   174
100
AcDbLine
 10
225.141234
 20
181.9256
 30
0.0
 11
222.715745
 21
181.9256
 31
0.0
  0
LINE
  5
FF
100
AcDbEntity
  8
0
  6
HIDDEN
 62
   174
100
AcDbLine
 10
245.002893
 20
178.1756
 30
0.0
 11
245.002893
 21
183.1756
 31
0.0
  0
LINE
  5
100
100
AcDbEntity
  8
0
  6
HIDDEN
 62
   174
100
AcDbLine
 10
240.802893
 20
183.1756
 30
0.0
 11
240.802893
 21
177.1756
 31
0.0
  0
LINE
  5
101
100
AcDbEntity
  8
0
  6
Continuous
 62
   174
100
AcDbLine
 10
217.902893
 20
161.1756
 30
0.0
 11
217.902893
 21
183.1756
 31
0.0
  0
LINE
  5
102
100
AcDbEntity
  8
0
  6
HIDDEN
 62
   174
100
AcDbLine
 10
260.252893
 20
181.9256
 30
0.0
 11
260.252893
 21
161.1756
 31
0.0
  0
LINE
  5
103
100
AcDbEntity
  8
0
  6
HIDDEN
 62
   174
100
AcDbLine
 10
263.552893
 20
181.9256
 30
0.0
 11
263.552893
 21
161.1756
 31
0.0
  0
LINE
  5
104
100
AcDbEntity
  8
0
  6
Continuous
 62
   174
100
AcDbLine
 10
217.902893
 20
183.1756
 30
0.0
 11
222.703935
 21
183.1756
 31
0.0
  0
LINE
  5
105
100
AcDbEntity
  8
0
  6
Continuous
 62
   174
100
AcDbLine
 10
156.702893
 20
214.789195
 30
0.0
 11
156.702893
 21
210.211887
 31
0.0
  0
LINE
  5
106
100
AcDbEntity
  8
0
  6
Continuous
 62
   174
100
AcDbLine
 10
156.702893
 20
205.59794
 30
0.0
 11
153.595713
 21
205.59794
 31
0.0
  0
LINE
  5
107
100
AcDbEntity
  8
0
  6
HIDDEN
 62
   174
100
AcDbLine
 10
258.928657
 20
183.1756
 30
0.0
 11
260.729599
 21
183.1756
 31
0.0
  0
LINE
  5
108
100
AcDbEntity
  8
0
  6
HIDDEN
 62
   174
100
AcDbLine
 10
263.578362
 20
181.9256
 30
0.0
 11
263.14127
 21
181.9256
 31
0.0
  0
LINE
  5
109
100
AcDbEntity
  8
0
  6
HIDDEN
 62
   174
100
AcDbLine
 10
263.14127
 20
181.9256
 30
0.0
 11
260.71578
 21
181.9256
 31
0.0
  0
LINE
  5
10A
100
AcDbEntity
  8
0
  6
HIDDEN
 62
   174
100
AcDbLine
 10
245.428648
 20
178.1756
 30
0.0
 11
240.428367
 21
178.1756
 31
0.0
  0
LINE
  5
10B
100
AcDbEntity
  8
0
  6
Continuous
 62
   174
100
AcDbLine
 10
217.902893
 20
161.1756
 30
0.0
 11
267.902893
 21
161.1756
 31
0.0
  0
LINE
  5
10C
100
AcDbEntity
  8
0
  6
HIDDEN
 62
   174
100
AcDbLine
 10
240.828509
 20
183.1756
 30
0.0
 11
245.028505
 21
183.1756
 31
0.0
  0
LINE
  5
10D
100
AcDbEntity
  8
0
  6
Continuous
 62
   174
100
AcDbLine
 10
160.402893
 20
203.605328
 30
0.0
 11
160.402893
 21
202.212338
 31
0.0
  0
LINE
  5
10E
100
AcDbEntity
  8
0
  6
Continuous
 62
   174
100
AcDbLine
 10
160.402893
 20
218.211136
 30
0.0
 11
160.402893
 21
216.817846
 31
0.0
  0
LINE
  5
10F
100
AcDbEntity
  8
0
  6
Continuous
 62
   174
100
AcDbLine
 10
164.202893
 20
181.896086
 30
0.0
 11
164.202893
 21
180.827837
 31
0.0
  0
LINE
  5
110
100
AcDbEntity
  8
0
  6
HIDDEN
 62
   174
100
AcDbLine
 10
222.715745
 20
181.9256
 30
0.0
 11
222.278652
 21
181.9256
 31
0.0
  0
LINE
  5
111
100
AcDbEntity
  8
0
  6
HIDDEN
 62
   174
100
AcDbLine
 10
172.402893
 20
207.391718
 30
0.0
 11
172.402893
 21
202.1756
 31
0.0
  0
LINE
  5
112
100
AcDbEntity
  8
0
  6
HIDDEN
 62
   174
100
AcDbLine
 10
172.402893
 20
202.1756
 30
0.0
 11
172.402893
 21
189.1756
 31
0.0
  0
LINE
  5
113
100
AcDbEntity
  8
0
  6
HIDDEN
 62
   174
100
AcDbLine
 10
240.402893
 20
178.1756
 30
0.0
 11
240.402893
 21
183.1756
 31
0.0
  0
LINE
  5
114
100
AcDbEntity
  8
0
  6
HIDDEN
 62
   174
100
AcDbLine
 10
245.002893
 20
183.1756
 30
0.0
 11
245.002893
 21
177.1756
 31
0.0
  0
LINE
  5
115
100
AcDbEntity
  8
0
  6
HIDDEN
 62
   174
100
AcDbLine
 10
240.802893
 20
178.1756
 30
0.0
 11
240.802893
 21
183.1756
 31
0.0
  0
LINE
  5
116
100
AcDbEntity
  8
0
  6
HIDDEN
 62
   174
100
AcDbLine
 10
225.552893
 20
181.9256
 30
0.0
 11
225.552893
 21
161.1756
 31
0.0
  0
LINE
  5
117
100
AcDbEntity
  8
0
  6
HIDDEN
 62
   174
100
AcDbLine
 10
226.902893
 20
183.1756
 30
0.0
 11
226.902893
 21
181.9256
 31
0.0
  0
LINE
  5
118
100
AcDbEntity
  8
0
  6
Continuous
 62
   174
100
AcDbLine
 10
201.902893
 20
161.1756
 30
0.0
 11
201.902893
 21
183.1756
 31
0.0
  0
LINE
  5
119
100
AcDbEntity
  8
0
  6
HIDDEN
 62
   174
100
AcDbLine
 10
258.902893
 20
183.1756
 30
0.0
 11
258.902893
 21
181.9256
 31
0.0
  0
LINE
  5
11A
100
AcDbEntity
  8
0
  6
HIDDEN
 62
   174
100
AcDbLine
 10
226.902893
 20
183.1756
 30
0.0
 11
226.902893
 21
181.9256
 31
0.0
  0
LINE
  5
11B
100
AcDbEntity
  8
0
  6
HIDDEN
 62
   174
100
AcDbLine
 10
264.902893
 20
183.1756
 30
0.0
 11
264.902893
 21
181.9256
 31
0.0
  0
LINE
  5
11C
100
AcDbEntity
  8
0
  6
Continuous
 62
   174
100
AcDbLine
 10
157.402893
 20
203.498082
 30
0.0
 11
157.402893
 21
210.211887
 31
0.0
  0
LINE
  5
11D
100
AcDbEntity
  8
0
  6
Continuous
 62
   174
100
AcDbLine
 10
156.702893
 20
219.210591
 30
0.0
 11
156.702893
 21
214.789195
 31
0.0
  0
LINE
  5
11E
100
AcDbEntity
  8
0
  6
HIDDEN
 62
   174
100
AcDbLine
 10
260.703935
 20
183.1756
 30
0.0
 11
260.703935
 21
181.9256
 31
0.0
  0
LINE
  5
11F
100
AcDbEntity
  8
0
  6
Continuous
 62
   174
100
AcDbLine
 10
164.202893
 20
177.292643
 30
0.0
 11
164.202893
 21
174.714246
 31
0.0
  0
LINE
  5
120
100
AcDbEntity
  8
0
  6
Continuous
 62
   174
100
AcDbLine
 10
160.402893
 20
218.1756
 30
0.0
 11
175.402893
 21
218.1756
 31
0.0
  0
LINE
  5
121
100
AcDbEntity
  8
0
  6
HIDDEN
 62
   174
100
AcDbLine
 10
245.402893
 20
178.1756
 30
0.0
 11
245.402893
 21
183.1756
 31
0.0
  0
LINE
  5
122
100
AcDbEntity
  8
0
  6
HIDDEN
 62
   174
100
AcDbLine
 10
240.802893
 20
178.1756
 30
0.0
 11
240.802893
 21
183.1756
 31
0.0
  0
LINE
  5
123
100
AcDbEntity
  8
0
  6
HIDDEN
 62
   174
100
AcDbLine
 10
263.552893
 20
181.9256
 30
0.0
 11
263.552893
 21
161.1756
 31
0.0
  0
LINE
  5
124
100
AcDbEntity
  8
0
  6
HIDDEN
 62
   174
100
AcDbLine
 10
263.552893
 20
181.9256
 30
0.0
 11
263.552893
 21
161.1756
 31
0.0
  0
LINE
  5
125
100
AcDbEntity
  8
0
  6
HIDDEN
 62
   174
100
AcDbLine
 10
260.252893
 20
181.9256
 30
0.0
 11
260.252893
 21
161.1756
 31
0.0
  0
LINE
  5
126
100
AcDbEntity
  8
0
  6
HIDDEN
 62
   174
100
AcDbLine
 10
225.552893
 20
181.9256
 30
0.0
 11
225.552893
 21
161.1756
 31
0.0
  0
LINE
  5
127
100
AcDbEntity
  8
0
  6
Continuous
 62
   174
100
AcDbLine
 10
217.902893
 20
183.1756
 30
0.0
 11
201.902893
 21
183.1756
 31
0.0
  0
LINE
  5
128
100
AcDbEntity
  8
0
  6
HIDDEN
 62
   174
100
AcDbLine
 10
171.902893
 20
172.214556
 30
0.0
 11
171.902893
 21
182.213917
 31
0.0
  0
LINE
  5
129
100
AcDbEntity
  8
0
  6
Continuous
 62
   174
100
AcDbLine
 10
157.402893
 20
201.212583
 30
0.0
 11
157.402893
 21
203.498082
 31
0.0
  0
LINE
  5
12A
100
AcDbEntity
  8
0
  6
Continuous
 62
   174
100
AcDbLine
 10
263.101851
 20
183.1756
 30
0.0
 11
267.902893
 21
183.1756
 31
0.0
  0
LINE
  5
12B
100
AcDbEntity
  8
0
  6
HIDDEN
 62
   174
100
AcDbLine
 10
260.278387
 20
161.1756
 30
0.0
 11
263.578362
 21
161.1756
 31
0.0
  0
LINE
  5
12C
100
AcDbEntity
  8
0
  6
HIDDEN
 62
   174
100
AcDbLine
 10
263.127451
 20
183.1756
 30
0.0
 11
264.928393
 21
183.1756
 31
0.0
  0
LINE
  5
12D
100
AcDbEntity
  8
0
  6
Continuous
 62
   174
100
AcDbLine
 10
160.402893
 20
202.1756
 30
0.0
 11
172.402893
 21
202.1756
 31
0.0
  0
LINE
  5
12E
100
AcDbEntity
  8
0
  6
HIDDEN
 62
   174
100
AcDbLine
 10
245.002893
 20
183.1756
 30
0.0
 11
245.002893
 21
177.1756
 31
0.0
  0
LINE
  5
12F
100
AcDbEntity
  8
0
  6
Continuous
 62
   174
100
AcDbLine
 10
201.402893
 20
215.1756
 30
0.0
 11
201.402893
 21
189.1756
 31
0.0
  0
LINE
  5
130
100
AcDbEntity
  8
0
  6
HIDDEN
 62
   174
100
AcDbLine
 10
260.252893
 20
181.9256
 30
0.0
 11
260.252893
 21
161.1756
 31
0.0
  0
LINE
  5
131
100
AcDbEntity
  8
0
  6
HIDDEN
 62
   174
100
AcDbLine
 10
225.552893
 20
181.9256
 30
0.0
 11
225.552893
 21
161.1756
 31
0.0
  0
LINE
  5
132
100
AcDbEntity
  8
0
  6
HIDDEN
 62
   174
100
AcDbLine
 10
258.902893
 20
183.1756
 30
0.0
 11
258.902893
 21
181.9256
 31
0.0
  0
LINE
  5
133
100
AcDbEntity
  8
0
  6
Continuous
 62
   174
100
AcDbLine
 10
157.402893
 20
210.211887
 30
0.0
 11
157.402893
 21
216.925993
 31
0.0
  0
LINE
  5
134
100
AcDbEntity
  8
0
  6
Continuous
 62
   174
100
AcDbLine
 10
157.402893
 20
216.925993
 30
0.0
 11
157.402893
 21
219.211192
 31
0.0
  0
LINE
  5
135
100
AcDbEntity
  8
0
  6
Continuous
 62
   174
100
AcDbLine
 10
156.702893
 20
205.63458
 30
0.0
 11
156.702893
 21
201.212883
 31
0.0
  0
LINE
  5
136
100
AcDbEntity
  8
0
  6
HIDDEN
 62
   174
100
AcDbLine
 10
170.402893
 20
177.257195
 30
0.0
 11
170.402893
 21
180.791245
 31
0.0
  0
LINE
  5
137
100
AcDbEntity
  8
0
  6
HIDDEN
 62
   174
100
AcDbLine
 10
222.278652
 20
161.1756
 30
0.0
 11
225.578628
 21
161.1756
 31
0.0
  0
LINE
  5
138
100
AcDbEntity
  8
0
  6
Continuous
 62
   174
100
AcDbLine
 10
222.72686
 20
183.1756
 30
0.0
 11
225.13042
 21
183.1756
 31
0.0
  0
LINE
  5
139
100
AcDbEntity
  8
0
  6
HIDDEN
 62
   174
100
AcDbLine
 10
226.928658
 20
181.9256
 30
0.0
 11
225.127416
 21
181.9256
 31
0.0
  0
LINE
  5
13A
100
AcDbEntity
  8
0
  6
HIDDEN
 62
   174
100
AcDbLine
 10
164.202893
 20
180.791245
 30
0.0
 11
170.402893
 21
180.791245
 31
0.0
  0
LINE
  5
13B
100
AcDbEntity
  8
0
  6
HIDDEN
 62
   174
100
AcDbLine
 10
175.402893
 20
189.1756
 30
0.0
 11
175.402893
 21
215.1756
 31
0.0
  0
LINE
  5
13C
100
AcDbEntity
  8
0
  6
Continuous
 62
   174
100
AcDbLine
 10
170.402893
 20
177.292643
 30
0.0
 11
170.402893
 21
180.827837
 31
0.0
  0
LINE
  5
13D
100
AcDbEntity
  8
0
  6
HIDDEN
 62
   174
100
AcDbLine
 10
201.402893
 20
215.1756
 30
0.0
 11
201.402893
 21
189.1756
 31
0.0
  0
LINE
  5
13E
100
AcDbEntity
  8
0
  6
Continuous
 62
   174
100
AcDbLine
 10
153.569035
 20
201.223475
 30
0.0
 11
153.052233
 21
202.45377
 31
0.0
  0
LINE
  5
13F
100
AcDbEntity
  8
0
  6
Continuous
 62
   174
100
AcDbLine
 10
156.702893
 20
219.175151
 30
0.0
 11
153.595713
 21
219.175151
 31
0.0
  0
LINE
  5
140
100
AcDbEntity
  8
0
  6
HIDDEN
 62
   174
100
AcDbLine
 10
172.402893
 20
212.959482
 30
0.0
 11
172.402893
 21
215.1756
 31
0.0
  0
LINE
  5
141
100
AcDbEntity
  8
0
  6
Continuous
 62
   174
100
AcDbLine
 10
170.402893
 20
181.896086
 30
0.0
 11
170.402893
 21
182.213917
 31
0.0
  0
LINE
  5
142
100
AcDbEntity
  8
0
  6
Continuous
 62
   174
100
AcDbLine
 10
225.101851
 20
183.1756
 30
0.0
 11
225.101851
 21
181.9256
 31
0.0
  0
LINE
  5
143
100
AcDbEntity
  8
0
  6
Continuous
 62
   174
100
AcDbLine
 10
164.202893
 20
163.560881
 30
0.0
 11
170.402893
 21
163.560881
 31
0.0
  0
LINE
  5
144
100
AcDbEntity
  8
0
  6
HIDDEN
 62
   174
100
AcDbLine
 10
184.92571
 20
218.1756
 30
0.0
 11
186.902893
 21
218.1756
 31
0.0
  0
LINE
  5
145
100
AcDbEntity
  8
0
  6
HIDDEN
 62
   174
100
AcDbLine
 10
201.428576
 20
215.1756
 30
0.0
 11
198.428407
 21
215.1756
 31
0.0
  0
LINE
  5
146
100
AcDbEntity
  8
0
  6
HIDDEN
 62
   174
100
AcDbLine
 10
156.702893
 20
205.753709
 30
0.0
 11
156.702893
 21
214.597491
 31
0.0
  0
LWPOLYLINE
  5
147
100
AcDbEntity
  8
0
  6
HIDDEN
 62
   174
100
AcDbPolyline
 90
        4
 70
   128
 10
172.402893
 20
207.391718
 10
172.415452
 20
208.288419
 10
172.435857
 20
209.226573
 10
172.444853
 20
210.1756
  0
LINE
  5
148
100
AcDbEntity
  8
0
  6
HIDDEN
 62
   174
100
AcDbLine
 10
164.202893
 20
163.562648
 30
0.0
 11
170.402893
 21
163.562648
 31
0.0
  0
LINE
  5
149
100
AcDbEntity
  8
0
  6
Continuous
 62
   174
100
AcDbLine
 10
164.202893
 20
167.09667
 30
0.0
 11
164.202893
 21
163.560881
 31
0.0
  0
LINE
  5
14A
100
AcDbEntity
  8
0
  6
Continuous
 62
   174
100
AcDbLine
 10
170.402893
 20
163.600373
 30
0.0
 11
170.402893
 21
167.135868
 31
0.0
  0
LINE
  5
14B
100
AcDbEntity
  8
0
  6
Continuous
 62
   174
100
AcDbLine
 10
198.402893
 20
215.211568
 30
0.0
 11
198.402893
 21
218.211136
 31
0.0
  0
LINE
  5
14C
100
AcDbEntity
  8
0
  6
Continuous
 62
   174
100
AcDbLine
 10
152.902893
 20
209.320278
 30
0.0
 11
152.902893
 21
202.41241
 31
0.0
  0
LINE
  5
14D
100
AcDbEntity
  8
0
  6
Continuous
 62
   174
100
AcDbLine
 10
201.902893
 20
189.1756
 30
0.0
 11
201.902893
 21
183.1756
 31
0.0
  0
LINE
  5
14E
100
AcDbEntity
  8
0
  6
HIDDEN
 62
   174
100
AcDbLine
 10
170.402893
 20
163.562648
 30
0.0
 11
170.402893
 21
167.099666
 31
0.0
  0
LINE
  5
14F
100
AcDbEntity
  8
0
  6
HIDDEN
 62
   174
100
AcDbLine
 10
172.402893
 20
202.212338
 30
0.0
 11
172.402893
 21
207.428012
 31
0.0
  0
LWPOLYLINE
  5
150
100
AcDbEntity
  8
0
  6
Continuous
 62
   174
100
AcDbPolyline
 90
        6
 70
   128
 10
153.052233
 20
202.45377
 10
153.001489
 20
202.664786
 10
152.924585
 20
203.387035
 10
153.001503
 20
204.109274
 10
153.229604
 20
204.846293
 10
153.595713
 20
205.59794
  0
LINE
  5
151
100
AcDbEntity
  8
0
  6
HIDDEN
 62
   174
100
AcDbLine
 10
222.676392
 20
183.1756
 30
0.0
 11
222.72686
 21
183.1756
 31
0.0
  0
LINE
  5
152
100
AcDbEntity
  8
0
  6
HIDDEN
 62
   174
100
AcDbLine
 10
164.202893
 20
167.099666
 30
0.0
 11
170.402893
 21
167.099666
 31
0.0
  0
LINE
  5
153
100
AcDbEntity
  8
0
  6
HIDDEN
 62
   174
100
AcDbLine
 10
164.202893
 20
169.678967
 30
0.0
 11
170.402893
 21
169.678967
 31
0.0
  0
LWPOLYLINE
  5
154
100
AcDbEntity
  8
0
  6
HIDDEN
 62
   174
100
AcDbPolyline
 90
        6
 70
   128
 10
175.402893
 20
218.1756
 10
174.497577
 20
218.03574
 10
173.689272
 20
217.638018
 10
173.027424
 20
217.007852
 10
172.575598
 20
216.178798
 10
172.402893
 20
215.1756
  0
LINE
  5
155
100
AcDbEntity
  8
0
  6
HIDDEN
 62
   174
100
AcDbLine
 10
186.902893
 20
218.1756
 30
0.0
 11
188.720298
 21
218.1756
 31
0.0
  0
LINE
  5
156
100
AcDbEntity
  8
0
  6
HIDDEN
 62
   174
100
AcDbLine
 10
198.402893
 20
189.1756
 30
0.0
 11
198.402893
 21
215.1756
 31
0.0
  0
LINE
  5
157
100
AcDbEntity
  8
0
  6
Continuous
 62
   174
100
AcDbLine
 10
164.202893
 20
177.2542
 30
0.0
 11
170.402893
 21
177.2542
 31
0.0
  0
LINE
  5
158
100
AcDbEntity
  8
0
  6
HIDDEN
 62
   174
100
AcDbLine
 10
164.202893
 20
174.678967
 30
0.0
 11
170.402893
 21
174.678967
 31
0.0
  0
LINE
  5
159
100
AcDbEntity
  8
0
  6
Continuous
 62
   174
100
AcDbLine
 10
175.428615
 20
215.1756
 30
0.0
 11
172.428446
 21
215.1756
 31
0.0
  0
LINE
  5
15A
100
AcDbEntity
  8
0
  6
Continuous
 62
   174
100
AcDbLine
 10
171.902893
 20
161.1756
 30
0.0
 11
201.902893
 21
161.1756
 31
0.0
  0
LINE
  5
15B
100
AcDbEntity
  8
0
  6
HIDDEN
 62
   174
100
AcDbLine
 10
201.428576
 20
189.1756
 30
0.0
 11
198.428407
 21
189.1756
 31
0.0
  0
LINE
  5
15C
100
AcDbEntity
  8
0
  6
HIDDEN
 62
   174
100
AcDbLine
 10
225.101851
 20
183.1756
 30
0.0
 11
225.101851
 21
181.9256
 31
0.0
  0
LWPOLYLINE
  5
15D
100
AcDbEntity
  8
0
  6
Continuous
 62
   174
100
AcDbPolyline
 90
        4
 70
   128
 10
172.444853
 20
210.1756
 10
172.435858
 20
211.124583
 10
172.415453
 20
212.062749
 10
172.402893
 20
212.959482
  0
LINE
  5
15E
100
AcDbEntity
  8
0
  6
Continuous
 62
   174
100
AcDbLine
 10
164.202893
 20
180.789479
 30
0.0
 11
164.202893
 21
177.2542
 31
0.0
  0
LINE
  5
15F
100
AcDbEntity
  8
0
  6
Continuous
 62
   174
100
AcDbLine
 10
260.703935
 20
183.1756
 30
0.0
 11
260.703935
 21
181.9256
 31
0.0
  0
LINE
  5
160
100
AcDbEntity
  8
0
  6
HIDDEN
 62
   174
100
AcDbLine
 10
188.720298
 20
218.1756
 30
0.0
 11
189.159161
 21
218.1756
 31
0.0
  0
LINE
  5
161
100
AcDbEntity
  8
0
  6
Continuous
 62
   174
100
AcDbLine
 10
170.402893
 20
169.714866
 30
0.0
 11
170.402893
 21
173.710585
 31
0.0
  0
LINE
  5
162
100
AcDbEntity
  8
0
  6
HIDDEN
 62
   174
100
AcDbLine
 10
264.928393
 20
181.9256
 30
0.0
 11
263.127451
 21
181.9256
 31
0.0
  0
LINE
  5
163
100
AcDbEntity
  8
0
  6
Continuous
 62
   174
100
AcDbLine
 10
170.402893
 20
182.1756
 30
0.0
 11
171.902893
 21
182.1756
 31
0.0
  0
LINE
  5
164
100
AcDbEntity
  8
0
  6
HIDDEN
 62
   174
100
AcDbLine
 10
225.13042
 20
183.1756
 30
0.0
 11
225.184193
 21
183.1756
 31
0.0
  0
LINE
  5
165
100
AcDbEntity
  8
0
  6
HIDDEN
 62
   174
100
AcDbLine
 10
156.702893
 20
214.597491
 30
0.0
 11
153.595713
 21
214.597491
 31
0.0
  0
LINE
  5
166
100
AcDbEntity
  8
0
  6
HIDDEN
 62
   174
100
AcDbLine
 10
156.702893
 20
219.175151
 30
0.0
 11
156.702893
 21
214.597491
 31
0.0
  0
LINE
  5
167
100
AcDbEntity
  8
0
  6
Continuous
 62
   174
100
AcDbLine
 10
175.402893
 20
215.1756
 30
0.0
 11
198.402893
 21
215.1756
 31
0.0
  0
LINE
  5
168
100
AcDbEntity
  8
0
  6
HIDDEN
 62
   174
100
AcDbLine
 10
156.702893
 20
205.753709
 30
0.0
 11
153.595713
 21
205.753709
 31
0.0
  0
LINE
  5
169
100
AcDbEntity
  8
0
  6
HIDDEN
 62
   174
100
AcDbLine
 10
170.402893
 20
169.678967
 30
0.0
 11
170.402893
 21
174.678967
 31
0.0
  0
LINE
  5
16A
100
AcDbEntity
  8
0
  6
Continuous
 62
   174
100
AcDbLine
 10
172.402893
 20
215.1756
 30
0.0
 11
172.402893
 21
212.959482
 31
0.0
  0
LINE
  5
16B
100
AcDbEntity
  8
0
  6
Continuous
 62
   174
100
AcDbLine
 10
164.202893
 20
174.6756
 30
0.0
 11
170.402893
 21
174.6756
 31
0.0
  0
LINE
  5
16C
100
AcDbEntity
  8
0
  6
HIDDEN
 62
   174
100
AcDbLine
 10
189.159161
 20
218.1756
 30
0.0
 11
189.902893
 21
218.1756
 31
0.0
  0
LINE
  5
16D
100
AcDbEntity
  8
0
  6
Continuous
 62
   174
100
AcDbLine
 10
171.902893
 20
161.1756
 30
0.0
 11
171.902893
 21
189.1756
 31
0.0
  0
LINE
  5
16E
100
AcDbEntity
  8
0
  6
Continuous
 62
   174
100
AcDbLine
 10
263.101851
 20
183.1756
 30
0.0
 11
263.101851
 21
181.9256
 31
0.0
  0
LWPOLYLINE
  5
16F
100
AcDbEntity
  8
0
  6
HIDDEN
 62
   174
100
AcDbPolyline
 90
        4
 70
   128
 10
172.402893
 20
212.959482
 10
172.415453
 20
212.062747
 10
172.435858
 20
211.124593
 10
172.444853
 20
210.1756
  0
LINE
  5
170
100
AcDbEntity
  8
0
  6
HIDDEN
 62
   174
100
AcDbLine
 10
153.566906
 20
201.225499
 30
0.0
 11
153.595713
 21
201.176049
 31
0.0
  0
LINE
  5
171
100
AcDbEntity
  8
0
  6
HIDDEN
 62
   174
100
AcDbLine
 10
220.928621
 20
183.1756
 30
0.0
 11
222.676392
 21
183.1756
 31
0.0
  0
LWPOLYLINE
  5
172
100
AcDbEntity
  8
0
  6
Continuous
 62
   174
100
AcDbPolyline
 90
        6
 70
   128
 10
153.595713
 20
214.75326
 10
153.229587
 20
215.504951
 10
153.001489
 20
216.241997
 10
152.924585
 20
216.964245
 10
153.001503
 20
217.686484
 10
153.052404
 20
217.898067
  0
LINE
  5
173
100
AcDbEntity
  8
0
  6
HIDDEN
 62
   174
100
AcDbLine
 10
226.928658
 20
181.9256
 30
0.0
 11
220.928621
 21
181.9256
 31
0.0
  0
LINE
  5
174
100
AcDbEntity
  8
0
  6
Continuous
 62
   174
100
AcDbLine
 10
152.902893
 20
218.011365
 30
0.0
 11
152.902893
 21
211.103196
 31
0.0
  0
LINE
  5
175
100
AcDbEntity
  8
0
  6
HIDDEN
 62
   174
100
AcDbLine
 10
258.928657
 20
183.1756
 30
0.0
 11
260.676427
 21
183.1756
 31
0.0
  0
LINE
  5
176
100
AcDbEntity
  8
0
  6
HIDDEN
 62
   174
100
AcDbLine
 10
263.130455
 20
183.1756
 30
0.0
 11
263.184228
 21
183.1756
 31
0.0
  0
LINE
  5
177
100
AcDbEntity
  8
0
  6
HIDDEN
 62
   174
100
AcDbLine
 10
172.428446
 20
189.1756
 30
0.0
 11
175.428615
 21
189.1756
 31
0.0
  0
LINE
  5
178
100
AcDbEntity
  8
0
  6
Continuous
 62
   174
100
AcDbLine
 10
164.202893
 20
181.857736
 30
0.0
 11
170.402893
 21
181.857736
 31
0.0
  0
LINE
  5
179
100
AcDbEntity
  8
0
  6
Continuous
 62
   174
100
AcDbLine
 10
170.402893
 20
173.710585
 30
0.0
 11
170.402893
 21
174.714246
 31
0.0
  0
LINE
  5
17A
100
AcDbEntity
  8
0
  6
Continuous
 62
   174
100
AcDbLine
 10
201.902893
 20
183.1756
 30
0.0
 11
201.902893
 21
161.1756
 31
0.0
  0
LINE
  5
17B
100
AcDbEntity
  8
0
  6
Continuous
 62
   174
100
AcDbLine
 10
172.402893
 20
207.391718
 30
0.0
 11
172.402893
 21
189.1756
 31
0.0
  0
LINE
  5
17C
100
AcDbEntity
  8
0
  6
HIDDEN
 62
   174
100
AcDbLine
 10
198.402893
 20
215.211568
 30
0.0
 11
198.402893
 21
218.211136
 31
0.0
  0
LINE
  5
17D
100
AcDbEntity
  8
0
  6
HIDDEN
 62
   174
100
AcDbLine
 10
222.729564
 20
181.9256
 30
0.0
 11
220.928621
 21
181.9256
 31
0.0
  0
LINE
  5
17E
100
AcDbEntity
  8
0
  6
Continuous
 62
   174
100
AcDbLine
 10
164.202893
 20
169.6756
 30
0.0
 11
170.402893
 21
169.6756
 31
0.0
  0
ARC
  5
17F
100
AcDbEntity
  8
0
  6
HIDDEN
 62
   174
100
AcDbCircle
 10
198.402893
 20
215.1756
 30
0.0
 40
3.0
100
AcDbArc
 50
0.0
 51
18.0
  0
LINE
  5
180
100
AcDbEntity
  8
0
  6
HIDDEN
 62
   174
100
AcDbLine
 10
183.502893
 20
218.1756
 30
0.0
 11
183.903218
 21
218.1756
 31
0.0
  0
ARC
  5
181
100
AcDbEntity
  8
0
  6
HIDDEN
 62
   174
100
AcDbCircle
 10
175.402893
 20
215.1756
 30
0.0
 40
3.0
100
AcDbArc
 50
90.0
 51
180.0
  0
LINE
  5
182
100
AcDbEntity
  8
0
  6
HIDDEN
 62
   174
100
AcDbLine
 10
263.184228
 20
183.1756
 30
0.0
 11
264.928393
 21
183.1756
 31
0.0
  0
LINE
  5
183
100
AcDbEntity
  8
0
  6
HIDDEN
 62
   174
100
AcDbLine
 10
260.676427
 20
183.1756
 30
0.0
 11
260.726895
 21
183.1756
 31
0.0
  0
LINE
  5
184
100
AcDbEntity
  8
0
  6
Continuous
 62
   174
100
AcDbLine
 10
164.202893
 20
163.600373
 30
0.0
 11
164.202893
 21
162.532425
 31
0.0
  0
LINE
  5
185
100
AcDbEntity
  8
0
  6
Continuous
 62
   174
100
AcDbLine
 10
164.202893
 20
167.09667
 30
0.0
 11
170.402893
 21
167.09667
 31
0.0
  0
ARC
  5
186
100
AcDbEntity
  8
0
  6
Continuous
 62
   174
100
AcDbCircle
 10
198.402893
 20
215.1756
 30
0.0
 40
3.0
100
AcDbArc
 50
-342.0
 51
-324.0
  0
LINE
  5
187
100
AcDbEntity
  8
0
  6
HIDDEN
 62
   174
100
AcDbLine
 10
189.902893
 20
218.1756
 30
0.0
 11
190.302893
 21
218.1756
 31
0.0
  0
LINE
  5
188
100
AcDbEntity
  8
0
  6
HIDDEN
 62
   174
100
AcDbLine
 10
260.729599
 20
181.9256
 30
0.0
 11
258.928657
 21
181.9256
 31
0.0
  0
LWPOLYLINE
  5
189
100
AcDbEntity
  8
0
  6
Continuous
 62
   174
100
AcDbPolyline
 90
        4
 70
   128
 10
172.444853
 20
210.1756
 10
172.435858
 20
209.226593
 10
172.415452
 20
208.288427
 10
172.402893
 20
207.391718
  0
LINE
  5
18A
100
AcDbEntity
  8
0
  6
Continuous
 62
   174
100
AcDbLine
 10
201.402893
 20
189.1756
 30
0.0
 11
201.402893
 21
215.1756
 31
0.0
  0
LINE
  5
18B
100
AcDbEntity
  8
0
  6
Continuous
 62
   174
100
AcDbLine
 10
175.402893
 20
215.211568
 30
0.0
 11
175.402893
 21
218.211136
 31
0.0
  0
LINE
  5
18C
100
AcDbEntity
  8
0
  6
Continuous
 62
   174
100
AcDbLine
 10
260.703935
 20
181.9256
 30
0.0
 11
263.101851
 21
181.9256
 31
0.0
  0
LINE
  5
18D
100
AcDbEntity
  8
0
  6
Continuous
 62
   174
100
AcDbLine
 10
260.726895
 20
183.1756
 30
0.0
 11
263.130455
 21
183.1756
 31
0.0
  0
LINE
  5
18E
100
AcDbEntity
  8
0
  6
HIDDEN
 62
   174
100
AcDbLine
 10
183.903218
 20
218.1756
 30
0.0
 11
184.92571
 21
218.1756
 31
0.0
  0
LINE
  5
18F
100
AcDbEntity
  8
0
  6
Continuous
 62
   174
100
AcDbLine
 10
153.052404
 20
217.898067
 30
0.0
 11
153.569059
 21
219.127768
 31
0.0
  0
LINE
  5
190
100
AcDbEntity
  8
0
  6
HIDDEN
 62
   174
100
AcDbLine
 10
172.402893
 20
215.211568
 30
0.0
 11
172.402893
 21
212.995462
 31
0.0
  0
LINE
  5
191
100
AcDbEntity
  8
0
  6
HIDDEN
 62
   174
100
AcDbLine
 10
190.302893
 20
218.1756
 30
0.0
 11
198.402893
 21
218.1756
 31
0.0
  0
ARC
  5
192
100
AcDbEntity
  8
0
  6
HIDDEN
 62
   174
100
AcDbCircle
 10
198.402893
 20
215.1756
 30
0.0
 40
3.0
100
AcDbArc
 50
-324.0
 51
-306.0
  0
LINE
  5
193
100
AcDbEntity
  8
0
  6
HIDDEN
 62
   174
100
AcDbLine
 10
175.402893
 20
215.211568
 30
0.0
 11
175.402893
 21
218.211136
 31
0.0
  0
LINE
  5
194
100
AcDbEntity
  8
0
  6
HIDDEN
 62
   174
100
AcDbLine
 10
225.127416
 20
183.1756
 30
0.0
 11
226.928658
 21
183.1756
 31
0.0
  0
LINE
  5
195
100
AcDbEntity
  8
0
  6
Continuous
 62
   174
100
AcDbLine
 10
222.703935
 20
183.1756
 30
0.0
 11
222.703935
 21
181.9256
 31
0.0
  0
LWPOLYLINE
  5
196
100
AcDbEntity
  8
0
  6
HIDDEN
 62
   174
100
AcDbPolyline
 90
        4
 70
   128
 10
153.595713
 20
205.753709
 10
153.267813
 20
205.127302
 10
153.035058
 20
204.515889
 10
152.902893
 20
203.910685
  0
LINE
  5
197
100
AcDbEntity
  8
0
  6
HIDDEN
 62
   174
100
AcDbLine
 10
175.402893
 20
218.1756
 30
0.0
 11
183.502893
 21
218.1756
 31
0.0
  0
LINE
  5
198
100
AcDbEntity
  8
0
  6
Continuous
 62
   174
100
AcDbLine
 10
198.402893
 20
215.1756
 30
0.0
 11
198.402893
 21
189.1756
 31
0.0
  0
LINE
  5
199
100
AcDbEntity
  8
0
  6
HIDDEN
 62
   174
100
AcDbLine
 10
225.184193
 20
183.1756
 30
0.0
 11
226.928658
 21
183.1756
 31
0.0
  0
LWPOLYLINE
  5
19A
100
AcDbEntity
  8
0
  6
HIDDEN
 62
   174
100
AcDbPolyline
 90
        4
 70
   128
 10
152.902893
 20
216.440515
 10
153.036013
 20
215.832156
 10
153.269096
 20
215.221081
 10
153.595713
 20
214.597491
  0
LINE
  5
19B
100
AcDbEntity
  8
0
  6
Continuous
 62
   174
100
AcDbLine
 10
153.568273
 20
219.126357
 30
0.0
 11
153.595713
 21
219.175151
 31
0.0
  0
LINE
  5
19C
100
AcDbEntity
  8
0
  6
Continuous
 62
   174
100
AcDbLine
 10
164.202893
 20
169.714866
 30
0.0
 11
164.202893
 21
167.135868
 31
0.0
  0
LINE
  5
19D
100
AcDbEntity
  8
0
  6
HIDDEN
 62
   174
100
AcDbLine
 10
175.428615
 20
215.1756
 30
0.0
 11
172.428446
 21
215.1756
 31
0.0
  0
LWPOLYLINE
  5
19E
100
AcDbEntity
  8
0
  6
HIDDEN
 62
   174
100
AcDbPolyline
 90
        7
 70
   128
 10
153.595713
 20
214.597491
 10
153.229611
 20
213.09422
 10
153.001511
 20
211.62023
 10
152.92458
 20
210.175838
 10
153.001467
 20
208.731391
 10
153.229559
 20
207.25724
 10
153.595713
 20
205.753709
  0
ARC
  5
19F
100
AcDbEntity
  8
0
  6
Continuous
 62
   174
100
AcDbCircle
 10
175.402893
 20
215.1756
 30
0.0
 40
3.0
100
AcDbArc
 50
-270.0
 51
-180.0
  0
LINE
  5
1A0
100
AcDbEntity
  8
0
  6
Continuous
 62
   174
100
AcDbLine
 10
170.402893
 20
162.1756
 30
0.0
 11
171.902893
 21
162.1756
 31
0.0
  0
LINE
  5
1A1
100
AcDbEntity
  8
0
  6
HIDDEN
 62
   174
100
AcDbLine
 10
198.402893
 20
189.1756
 30
0.0
 11
175.402893
 21
189.1756
 31
0.0
  0
ARC
  5
1A2
100
AcDbEntity
  8
0
  6
Continuous
 62
   174
100
AcDbCircle
 10
198.402893
 20
215.1756
 30
0.0
 40
3.0
100
AcDbArc
 50
0.0
 51
90.0
  0
LINE
  5
1A3
100
AcDbEntity
  8
0
  6
HIDDEN
 62
   174
100
AcDbLine
 10
260.278387
 20
161.1756
 30
0.0
 11
263.578362
 21
161.1756
 31
0.0
  0
ARC
  5
1A4
100
AcDbEntity
  8
0
  6
HIDDEN
 62
   174
100
AcDbCircle
 10
198.402893
 20
215.1756
 30
0.0
 40
3.0
100
AcDbArc
 50
-306.0
 51
-288.0
  0
LINE
  5
1A5
100
AcDbEntity
  8
0
  6
Continuous
 62
   174
100
AcDbLine
 10
201.428576
 20
215.1756
 30
0.0
 11
198.428407
 21
215.1756
 31
0.0
  0
LWPOLYLINE
  5
1A6
100
AcDbEntity
  8
0
  6
HIDDEN
 62
   174
100
AcDbPolyline
 90
        4
 70
   128
 10
152.902893
 20
203.019074
 10
153.036013
 20
202.410715
 10
153.269096
 20
201.79964
 10
153.566992
 20
201.225351
  0
LINE
  5
1A7
100
AcDbEntity
  8
0
  6
Continuous
 62
   174
100
AcDbLine
 10
170.402893
 20
162.215195
 30
0.0
 11
170.402893
 21
162.532425
 31
0.0
  0
LINE
  5
1A8
100
AcDbEntity
  8
0
  6
HIDDEN
 62
   174
100
AcDbLine
 10
220.928621
 20
183.1756
 30
0.0
 11
222.729564
 21
183.1756
 31
0.0
  0
LINE
  5
1A9
100
AcDbEntity
  8
0
  6
HIDDEN
 62
   174
100
AcDbLine
 10
222.278652
 20
161.1756
 30
0.0
 11
225.578628
 21
161.1756
 31
0.0
  0
LINE
  5
1AA
100
AcDbEntity
  8
0
  6
Continuous
 62
   174
100
AcDbLine
 10
222.703935
 20
181.9256
 30
0.0
 11
225.101851
 21
181.9256
 31
0.0
  0
ARC
  5
1AB
100
AcDbEntity
  8
0
  6
HIDDEN
 62
   174
100
AcDbCircle
 10
198.402893
 20
215.1756
 30
0.0
 40
3.0
100
AcDbArc
 50
-288.0
 51
-270.0
  0
LINE
  5
1AC
100
AcDbEntity
  8
0
  6
Continuous
 62
   174
100
AcDbLine
 10
164.202893
 20
162.492819
 30
0.0
 11
170.402893
 21
162.492819
 31
0.0
  0
LINE
  5
1AD
100
AcDbEntity
  8
0
  6
Continuous
 62
   174
100
AcDbLine
 10
153.595713
 20
201.176049
 30
0.0
 11
153.56824
 21
201.224886
 31
0.0
  0
LINE
  5
1AE
100
AcDbEntity
  8
0
  6
Continuous
 62
   174
100
AcDbLine
 10
164.202893
 20
174.6756
 30
0.0
 11
164.202893
 21
169.6756
 31
0.0
  0
LINE
  5
1AF
100
AcDbEntity
  8
0
  6
HIDDEN
 62
   174
100
AcDbLine
 10
198.402893
 20
215.1756
 30
0.0
 11
175.402893
 21
215.1756
 31
0.0
  0
LINE
  5
1B0
100
AcDbEntity
  8
0
  6
HIDDEN
 62
   174
100
AcDbLine
 10
156.702893
 20
205.753709
 30
0.0
 11
156.702893
 21
201.176049
 31
0.0
  0
LINE
  5
1B1
100
AcDbEntity
  8
0
  6
HIDDEN
 62
   174
100
AcDbLine
 10
222.703935
 20
183.1756
 30
0.0
 11
222.703935
 21
181.9256
 31
0.0
  0
LINE
  5
1B2
100
AcDbEntity
  8
0
  6
HIDDEN
 62
   174
100
AcDbLine
 10
153.595713
 20
219.175151
 30
0.0
 11
153.566862
 21
219.125627
 31
0.0
  0
LINE
  5
1B3
100
AcDbEntity
  8
0
  6
Continuous
 62
   174
100
AcDbLine
 10
198.402893
 20
218.1756
 30
0.0
 11
175.402893
 21
218.1756
 31
0.0
  0
LWPOLYLINE
  5
1B4
100
AcDbEntity
  8
0
  6
HIDDEN
 62
   174
100
AcDbPolyline
 90
        4
 70
   128
 10
153.566952
 20
219.12578
 10
153.267813
 20
218.548744
 10
153.035058
 20
217.93733
 10
152.902893
 20
217.332126
  0
LINE
  5
1B5
100
AcDbEntity
  8
0
  6
HIDDEN
 62
   174
100
AcDbLine
 10
164.202893
 20
177.257195
 30
0.0
 11
170.402893
 21
177.257195
 31
0.0
  0
LINE
  5
1B6
100
AcDbEntity
  8
0
  6
Continuous
 62
   174
100
AcDbLine
 10
156.702893
 20
201.176049
 30
0.0
 11
153.595713
 21
201.176049
 31
0.0
  0
LINE
  5
1B7
100
AcDbEntity
  8
0
  6
Continuous
 62
   174
100
AcDbLine
 10
164.202893
 20
180.789479
 30
0.0
 11
170.402893
 21
180.789479
 31
0.0
  0
LINE
  5
1B8
100
AcDbEntity
  8
0
  6
Continuous
 62
   174
100
AcDbLine
 10
175.402893
 20
215.1756
 30
0.0
 11
175.402893
 21
189.1756
 31
0.0
  0
LINE
  5
1B9
100
AcDbEntity
  8
0
  6
Continuous
 62
   174
100
AcDbLine
 10
201.902893
 20
189.1756
 30
0.0
 11
171.902893
 21
189.1756
 31
0.0
  0
ENDBLK
  5
1BA
100
AcDbEntity
  8
0
100
AcDbBlockEnd
  0
BLOCK
  5
1BD
100
AcDbEntity
  8
0
100
AcDbBlockBegin
  2
*B3
 70
     0
 10
0.0
 20
0.0
 30
0.0
  3
*B3
  1

  0
LINE
  5
1BE
100
AcDbEntity
  8
0
  6
Continuous
 62
   172
100
AcDbLine
 10
198.572138
 20
128.600105
 30
0.0
 11
188.762161
 21
128.600105
 31
0.0
  0
LINE
  5
1BF
100
AcDbEntity
  8
0
  6
Continuous
 62
   172
100
AcDbLine
 10
211.947324
 20
105.855114
 30
0.0
 11
198.572138
 21
128.600105
 31
0.0
  0
ENDBLK
  5
1C0
100
AcDbEntity
  8
0
100
AcDbBlockEnd
  0
BLOCK
  5
1C3
100
AcDbEntity
  8
0
100
AcDbBlockBegin
  2
*B4
 70
     0
 10
0.0
 20
0.0
 30
0.0
  3
*B4
  1

  0
LINE
  5
1C4
100
AcDbEntity
  8
0
  6
Continuous
 62
   172
100
AcDbLine
 10
196.533789
 20
130.727589
 30
0.0
 11
194.433789
 21
131.499217
 31
0.0
  0
LINE
  5
1C5
100
AcDbEntity
  8
0
  6
Continuous
 62
   172
100
AcDbLine
 10
196.533789
 20
130.727589
 30
0.0
 11
194.433789
 21
130.099217
 31
0.0
  0
LINE
  5
1C6
100
AcDbEntity
  8
0
  6
Continuous
 62
   172
100
AcDbLine
 10
195.133789
 20
130.727589
 30
0.0
 11
196.533789
 21
130.727589
 31
0.0
  0
LINE
  5
1C7
100
AcDbEntity
  8
0
  6
Continuous
 62
   172
100
AcDbLine
 10
196.533789
 20
142.770845
 30
0.0
 11
194.433789
 21
141.999217
 31
0.0
  0
LINE
  5
1C8
100
AcDbEntity
  8
0
  6
Continuous
 62
   172
100
AcDbLine
 10
196.533789
 20
142.770845
 30
0.0
 11
194.433789
 21
143.399217
 31
0.0
  0
LINE
  5
1C9
100
AcDbEntity
  8
0
  6
Continuous
 62
   172
100
AcDbLine
 10
195.133789
 20
142.770845
 30
0.0
 11
196.533789
 21
142.770845
 31
0.0
  0
ARC
  5
1CA
100
AcDbEntity
  8
0
  6
Continuous
 62
   172
100
AcDbCircle
 10
195.133789
 20
136.749217
 30
0.0
 40
6.021628
100
AcDbArc
 50
-270.0
 51
-90.0
  0
ENDBLK
  5
1CB
100
AcDbEntity
  8
0
100
AcDbBlockEnd
  0
BLOCK
  5
1CE
100
AcDbEntity
  8
0
100
AcDbBlockBegin
  2
*B5
 70
     0
 10
0.0
 20
0.0
 30
0.0
  3
*B5
  1

  0
ENDBLK
  5
1CF
100
AcDbEntity
  8
0
100
AcDbBlockEnd
  0
BLOCK
  5
1D1
100
AcDbEntity
  8
0
100
AcDbBlockBegin
  2
*B6
 70
     0
 10
0.0
 20
0.0
 30
0.0
  3
*B6
  1

  0
LINE
  5
1D2
100
AcDbEntity
  8
0
  6
Continuous
 62
   172
100
AcDbLine
 10
174.506269
 20
163.8877
 30
0.0
 11
153.866245
 21
128.788588
 31
0.0
  0
LINE
  5
1D3
100
AcDbEntity
  8
0
  6
Continuous
 62
   172
100
AcDbLine
 10
153.866245
 20
128.788588
 30
0.0
 11
144.056269
 21
128.788588
 31
0.0
  0
ENDBLK
  5
1D4
100
AcDbEntity
  8
0
100
AcDbBlockEnd
  0
BLOCK
  5
1D7
100
AcDbEntity
  8
0
100
AcDbBlockBegin
  2
*B7
 70
     0
 10
0.0
 20
0.0
 30
0.0
  3
*B7
  1

  0
LINE
  5
1D8
100
AcDbEntity
  8
0
  6
Continuous
 62
   172
100
AcDbLine
 10
151.827897
 20
130.916072
 30
0.0
 11
149.727897
 21
131.6877
 31
0.0
  0
LINE
  5
1D9
100
AcDbEntity
  8
0
  6
Continuous
 62
   172
100
AcDbLine
 10
151.827897
 20
130.916072
 30
0.0
 11
149.727897
 21
130.2877
 31
0.0
  0
LINE
  5
1DA
100
AcDbEntity
  8
0
  6
Continuous
 62
   172
100
AcDbLine
 10
150.427897
 20
130.916072
 30
0.0
 11
151.827897
 21
130.916072
 31
0.0
  0
LINE
  5
1DB
100
AcDbEntity
  8
0
  6
Continuous
 62
   172
100
AcDbLine
 10
151.827897
 20
142.959327
 30
0.0
 11
149.727897
 21
142.1877
 31
0.0
  0
LINE
  5
1DC
100
AcDbEntity
  8
0
  6
Continuous
 62
   172
100
AcDbLine
 10
151.827897
 20
142.959327
 30
0.0
 11
149.727897
 21
143.5877
 31
0.0
  0
LINE
  5
1DD
100
AcDbEntity
  8
0
  6
Continuous
 62
   172
100
AcDbLine
 10
150.427897
 20
142.959327
 30
0.0
 11
151.827897
 21
142.959327
 31
0.0
  0
ARC
  5
1DE
100
AcDbEntity
  8
0
  6
Continuous
 62
   172
100
AcDbCircle
 10
150.427897
 20
136.9377
 30
0.0
 40
6.021628
100
AcDbArc
 50
-270.0
 51
-90.0
  0
ENDBLK
  5
1DF
100
AcDbEntity
  8
0
100
AcDbBlockEnd
  0
BLOCK
  5
1E2
100
AcDbEntity
  8
0
100
AcDbBlockBegin
  2
*B8
 70
     0
 10
0.0
 20
0.0
 30
0.0
  3
*B8
  1

  0
ENDBLK
  5
1E3
100
AcDbEntity
  8
0
100
AcDbBlockEnd
  0
BLOCK
  5
1E5
100
AcDbEntity
  8
0
100
AcDbBlockBegin
  2
*B9
 70
     0
 10
0.0
 20
0.0
 30
0.0
  3
*B9
  1

  0
LINE
  5
1E6
100
AcDbEntity
  8
0
  6
Continuous
 62
     0
100
AcDbLine
 10
152.9284
 20
229.034815
 30
0.0
 11
201.928453
 21
229.034815
 31
0.0
  0
SOLID
  5
1E7
100
AcDbEntity
  8
0
  6
Continuous
 62
     0
100
AcDbTrace
 10
157.928681
 20
230.034871
 30
0.0
 11
152.9284
 21
229.034815
 31
0.0
 12
157.928681
 22
228.034759
 32
0.0
 13
157.928681
 23
228.034759
 33
0.0
  0
SOLID
  5
1E8
100
AcDbEntity
  8
0
  6
Continuous
 62
     0
100
AcDbTrace
 10
196.928473
 20
228.034759
 30
0.0
 11
201.928453
 21
229.034815
 31
0.0
 12
196.928473
 22
230.034871
 32
0.0
 13
196.928473
 23
230.034871
 33
0.0
  0
ENDBLK
  5
1E9
100
AcDbEntity
  8
0
100
AcDbBlockEnd
  0
BLOCK
  5
1EC
100
AcDbEntity
  8
0
100
AcDbBlockBegin
  2
*B10
 70
     0
 10
0.0
 20
0.0
 30
0.0
  3
*B10
  1

  0
LINE
  5
1ED
100
AcDbEntity
  8
0
  6
Continuous
 62
     0
100
AcDbLine
 10
201.928453
 20
229.034815
 30
0.0
 11
267.928562
 21
229.034815
 31
0.0
  0
SOLID
  5
1EE
100
AcDbEntity
  8
0
  6
Continuous
 62
     0
100
AcDbTrace
 10
206.928434
 20
230.034871
 30
0.0
 11
201.928453
 21
229.034815
 31
0.0
 12
206.928434
 22
228.034759
 32
0.0
 13
206.928434
 23
228.034759
 33
0.0
  0
SOLID
  5
1EF
100
AcDbEntity
  8
0
  6
Continuous
 62
     0
100
AcDbTrace
 10
262.928581
 20
228.034759
 30
0.0
 11
267.928562
 21
229.034815
 31
0.0
 12
262.928581
 22
230.034871
 32
0.0
 13
262.928581
 23
230.034871
 33
0.0
  0
ENDBLK
  5
1F0
100
AcDbEntity
  8
0
100
AcDbBlockEnd
  0
BLOCK
  5
1F3
100
AcDbEntity
  8
0
100
AcDbBlockBegin
  2
*B11
 70
     0
 10
0.0
 20
0.0
 30
0.0
  3
*B11
  1

  0
LINE
  5
1F4
100
AcDbEntity
  8
0
  6
Continuous
 62
     0
100
AcDbLine
 10
291.525564
 20
115.938635
 30
0.0
 11
291.525564
 21
79.441237
 31
0.0
  0
SOLID
  5
1F5
100
AcDbEntity
  8
0
  6
Continuous
 62
     0
100
AcDbTrace
 10
290.525508
 20
110.938954
 30
0.0
 11
291.525564
 21
105.939274
 31
0.0
 12
292.52562
 22
110.938954
 32
0.0
 13
292.52562
 23
110.938954
 33
0.0
  0
SOLID
  5
1F6
100
AcDbEntity
  8
0
  6
Continuous
 62
     0
100
AcDbTrace
 10
292.52562
 20
84.440918
 30
0.0
 11
291.525564
 21
89.440598
 31
0.0
 12
290.525508
 22
84.440918
 32
0.0
 13
290.525508
 23
84.440918
 33
0.0
  0
ENDBLK
  5
1F7
100
AcDbEntity
  8
0
100
AcDbBlockEnd
  0
BLOCK
  5
1FA
100
AcDbEntity
  8
0
100
AcDbBlockBegin
  2
*B12
 70
     0
 10
0.0
 20
0.0
 30
0.0
  3
*B12
  1

  0
LINE
  5
1FB
100
AcDbEntity
  8
0
  6
Continuous
 62
     0
100
AcDbLine
 10
279.025612
 20
113.688884
 30
0.0
 11
279.025612
 21
81.690989
 31
0.0
  0
SOLID
  5
1FC
100
AcDbEntity
  8
0
  6
Continuous
 62
     0
100
AcDbTrace
 10
278.025556
 20
108.689203
 30
0.0
 11
279.025612
 21
103.689523
 31
0.0
 12
280.025668
 22
108.689203
 32
0.0
 13
280.025668
 23
108.689203
 33
0.0
  0
SOLID
  5
1FD
100
AcDbEntity
  8
0
  6
Continuous
 62
     0
100
AcDbTrace
 10
280.025668
 20
86.690669
 30
0.0
 11
279.025612
 21
91.69035
 31
0.0
 12
278.025556
 22
86.690669
 32
0.0
 13
278.025556
 23
86.690669
 33
0.0
  0
ENDBLK
  5
1FE
100
AcDbEntity
  8
0
100
AcDbBlockEnd
  0
BLOCK
  5
201
100
AcDbEntity
  8
0
100
AcDbBlockBegin
  2
*B13
 70
     0
 10
0.0
 20
0.0
 30
0.0
  3
*B13
  1

  0
LINE
  5
202
100
AcDbEntity
  8
0
  6
Continuous
 62
     0
100
AcDbLine
 10
258.928657
 20
122.042613
 30
0.0
 11
226.928658
 21
122.042613
 31
0.0
  0
SOLID
  5
203
100
AcDbEntity
  8
0
  6
Continuous
 62
     0
100
AcDbTrace
 10
253.928375
 20
123.042369
 30
0.0
 11
248.928394
 21
122.042613
 31
0.0
 12
253.928375
 22
121.042557
 32
0.0
 13
253.928375
 23
121.042557
 33
0.0
  0
SOLID
  5
204
100
AcDbEntity
  8
0
  6
Continuous
 62
     0
100
AcDbTrace
 10
231.928639
 20
121.042557
 30
0.0
 11
236.92862
 21
122.042613
 31
0.0
 12
231.928639
 22
123.042369
 32
0.0
 13
231.928639
 23
123.042369
 33
0.0
  0
ENDBLK
  5
205
100
AcDbEntity
  8
0
100
AcDbBlockEnd
  0
BLOCK
  5
208
100
AcDbEntity
  8
0
100
AcDbBlockBegin
  2
*B14
 70
     0
 10
0.0
 20
0.0
 30
0.0
  3
*B14
  1

  0
LINE
  5
209
100
AcDbEntity
  8
0
  6
Continuous
 62
     0
100
AcDbLine
 10
220.928621
 20
75.045977
 30
0.0
 11
252.928619
 21
75.045977
 31
0.0
  0
SOLID
  5
20A
100
AcDbEntity
  8
0
  6
Continuous
 62
     0
100
AcDbTrace
 10
225.928602
 20
74.04592
 30
0.0
 11
230.928583
 21
75.045977
 31
0.0
 12
225.928602
 22
76.045732
 32
0.0
 13
225.928602
 23
76.045732
 33
0.0
  0
SOLID
  5
20B
100
AcDbEntity
  8
0
  6
Continuous
 62
     0
100
AcDbTrace
 10
247.928638
 20
76.045732
 30
0.0
 11
242.928658
 21
75.045977
 31
0.0
 12
247.928638
 22
74.04592
 32
0.0
 13
247.928638
 23
74.04592
 33
0.0
  0
ENDBLK
  5
20C
100
AcDbEntity
  8
0
100
AcDbBlockEnd
  0
BLOCK
  5
20F
100
AcDbEntity
  8
0
100
AcDbBlockBegin
  2
*B15
 70
     0
 10
0.0
 20
0.0
 30
0.0
  3
*B15
  1

  0
LINE
  5
210
100
AcDbEntity
  8
0
  6
Continuous
 62
     0
100
AcDbLine
 10
217.928452
 20
208.036337
 30
0.0
 11
267.928562
 21
208.036337
 31
0.0
  0
SOLID
  5
211
100
AcDbEntity
  8
0
  6
Continuous
 62
     0
100
AcDbTrace
 10
222.928433
 20
209.036393
 30
0.0
 11
217.928452
 21
208.036337
 31
0.0
 12
222.928433
 22
207.036581
 32
0.0
 13
222.928433
 23
207.036581
 33
0.0
  0
SOLID
  5
212
100
AcDbEntity
  8
0
  6
Continuous
 62
     0
100
AcDbTrace
 10
262.928581
 20
207.036581
 30
0.0
 11
267.928562
 21
208.036337
 31
0.0
 12
262.928581
 22
209.036393
 32
0.0
 13
262.928581
 23
209.036393
 33
0.0
  0
ENDBLK
  5
213
100
AcDbEntity
  8
0
100
AcDbBlockEnd
  0
BLOCK
  5
216
100
AcDbEntity
  8
0
100
AcDbBlockBegin
  2
*B16
 70
     0
 10
0.0
 20
0.0
 30
0.0
  3
*B16
  1

  0
LINE
  5
217
100
AcDbEntity
  8
0
  6
Continuous
 62
     0
100
AcDbLine
 10
230.828547
 20
195.037408
 30
0.0
 11
263.338037
 21
195.037408
 31
0.0
  0
SOLID
  5
218
100
AcDbEntity
  8
0
  6
Continuous
 62
     0
100
AcDbTrace
 10
235.828528
 20
194.037352
 30
0.0
 11
240.828509
 21
195.037408
 31
0.0
 12
235.828528
 22
196.037164
 32
0.0
 13
235.828528
 23
196.037164
 33
0.0
  0
SOLID
  5
219
100
AcDbEntity
  8
0
  6
Continuous
 62
     0
100
AcDbTrace
 10
250.028486
 20
196.037164
 30
0.0
 11
245.028505
 21
195.037408
 31
0.0
 12
250.028486
 22
194.037352
 32
0.0
 13
250.028486
 23
194.037352
 33
0.0
  0
ENDBLK
  5
21A
100
AcDbEntity
  8
0
100
AcDbBlockEnd
  0
BLOCK
  5
21D
100
AcDbEntity
  8
0
100
AcDbBlockBegin
  2
*B17
 70
     0
 10
0.0
 20
0.0
 30
0.0
  3
*B17
  1

  0
LINE
  5
21E
100
AcDbEntity
  8
0
  6
Continuous
 62
     0
100
AcDbLine
 10
217.928452
 20
122.042613
 30
0.0
 11
236.92862
 21
122.042613
 31
0.0
  0
SOLID
  5
21F
100
AcDbEntity
  8
0
  6
Continuous
 62
     0
100
AcDbTrace
 10
222.928433
 20
123.042369
 30
0.0
 11
217.928452
 21
122.042613
 31
0.0
 12
222.928433
 22
121.042557
 32
0.0
 13
222.928433
 23
121.042557
 33
0.0
  0
SOLID
  5
220
100
AcDbEntity
  8
0
  6
Continuous
 62
     0
100
AcDbTrace
 10
231.928639
 20
121.042557
 30
0.0
 11
236.92862
 21
122.042613
 31
0.0
 12
231.928639
 22
123.042369
 32
0.0
 13
231.928639
 23
123.042369
 33
0.0
  0
ENDBLK
  5
221
100
AcDbEntity
  8
0
100
AcDbBlockEnd
  0
BLOCK
  5
224
100
AcDbEntity
  8
0
100
AcDbBlockBegin
  2
*B18
 70
     0
 10
0.0
 20
0.0
 30
0.0
  3
*B18
  1

  0
LINE
  5
225
100
AcDbEntity
  8
0
  6
Continuous
 62
     0
100
AcDbLine
 10
207.928491
 20
63.046803
 30
0.0
 11
240.928545
 21
63.046803
 31
0.0
  0
SOLID
  5
226
100
AcDbEntity
  8
0
  6
Continuous
 62
     0
100
AcDbTrace
 10
212.928472
 20
62.046747
 30
0.0
 11
217.928452
 21
63.046803
 31
0.0
 12
212.928472
 22
64.04686
 32
0.0
 13
212.928472
 23
64.04686
 33
0.0
  0
SOLID
  5
227
100
AcDbEntity
  8
0
  6
Continuous
 62
     0
100
AcDbTrace
 10
235.928564
 20
64.04686
 30
0.0
 11
230.928583
 21
63.046803
 31
0.0
 12
235.928564
 22
62.046747
 32
0.0
 13
235.928564
 23
62.046747
 33
0.0
  0
ENDBLK
  5
228
100
AcDbEntity
  8
0
100
AcDbBlockEnd
  0
BLOCK
  5
22B
100
AcDbEntity
  8
0
100
AcDbBlockBegin
  2
*B19
 70
     0
 10
0.0
 20
0.0
 30
0.0
  3
*B19
  1

  0
LINE
  5
22C
100
AcDbEntity
  8
0
  6
Continuous
 62
     0
100
AcDbLine
 10
141.025658
 20
219.210591
 30
0.0
 11
141.025658
 21
161.215439
 31
0.0
  0
SOLID
  5
22D
100
AcDbEntity
  8
0
  6
Continuous
 62
     0
100
AcDbTrace
 10
142.025714
 20
214.210911
 30
0.0
 11
141.025658
 21
219.210591
 31
0.0
 12
140.025601
 22
214.210911
 32
0.0
 13
140.025601
 23
214.210911
 33
0.0
  0
SOLID
  5
22E
100
AcDbEntity
  8
0
  6
Continuous
 62
     0
100
AcDbTrace
 10
140.025601
 20
166.215119
 30
0.0
 11
141.025658
 21
161.215439
 31
0.0
 12
142.025714
 22
166.215119
 32
0.0
 13
142.025714
 23
166.215119
 33
0.0
  0
ENDBLK
  5
22F
100
AcDbEntity
  8
0
100
AcDbBlockEnd
  0
BLOCK
  5
232
100
AcDbEntity
  8
0
100
AcDbBlockBegin
  2
*B20
 70
     0
 10
0.0
 20
0.0
 30
0.0
  3
*B20
  1

  0
LINE
  5
233
100
AcDbEntity
  8
0
  6
Continuous
 62
     0
100
AcDbLine
 10
142.025714
 20
86.690669
 30
0.0
 11
142.025714
 21
108.689203
 31
0.0
  0
SOLID
  5
234
100
AcDbEntity
  8
0
  6
Continuous
 62
     0
100
AcDbTrace
 10
141.025658
 20
91.69035
 30
0.0
 11
142.025714
 21
86.690669
 31
0.0
 12
143.02577
 22
91.69035
 32
0.0
 13
143.02577
 23
91.69035
 33
0.0
  0
SOLID
  5
235
100
AcDbEntity
  8
0
  6
Continuous
 62
     0
100
AcDbTrace
 10
143.02577
 20
103.689523
 30
0.0
 11
142.025714
 21
108.689203
 31
0.0
 12
141.025658
 22
103.689523
 32
0.0
 13
141.025658
 23
103.689523
 33
0.0
  0
ENDBLK
  5
236
100
AcDbEntity
  8
0
100
AcDbBlockEnd
  0
BLOCK
  5
239
100
AcDbEntity
  8
0
100
AcDbBlockBegin
  2
*B21
 70
     0
 10
0.0
 20
0.0
 30
0.0
  3
*B21
  1

  0
LINE
  5
23A
100
AcDbEntity
  8
0
  6
Continuous
 62
     0
100
AcDbLine
 10
250.278425
 20
147.040715
 30
0.0
 11
284.954753
 21
147.040715
 31
0.0
  0
SOLID
  5
23B
100
AcDbEntity
  8
0
  6
Continuous
 62
     0
100
AcDbTrace
 10
255.278406
 20
146.040959
 30
0.0
 11
260.278387
 21
147.040715
 31
0.0
 12
255.278406
 22
148.040771
 32
0.0
 13
255.278406
 23
148.040771
 33
0.0
  0
SOLID
  5
23C
100
AcDbEntity
  8
0
  6
Continuous
 62
     0
100
AcDbTrace
 10
268.578644
 20
148.040771
 30
0.0
 11
263.578362
 21
147.040715
 31
0.0
 12
268.578644
 22
146.040959
 32
0.0
 13
268.578644
 23
146.040959
 33
0.0
  0
ENDBLK
  5
23D
100
AcDbEntity
  8
0
100
AcDbBlockEnd
  0
BLOCK
  5
240
100
AcDbEntity
  8
0
100
AcDbBlockBegin
  2
*B22
 70
     0
 10
0.0
 20
0.0
 30
0.0
  3
*B22
  1

  0
LINE
  5
241
100
AcDbEntity
  8
0
  6
Continuous
 62
     0
100
AcDbLine
 10
223.92849
 20
134.041786
 30
0.0
 11
261.928525
 21
134.041786
 31
0.0
  0
SOLID
  5
242
100
AcDbEntity
  8
0
  6
Continuous
 62
     0
100
AcDbTrace
 10
228.928471
 20
135.041542
 30
0.0
 11
223.92849
 21
134.041786
 31
0.0
 12
228.928471
 22
133.04173
 32
0.0
 13
228.928471
 23
133.04173
 33
0.0
  0
SOLID
  5
243
100
AcDbEntity
  8
0
  6
Continuous
 62
     0
100
AcDbTrace
 10
256.928544
 20
133.04173
 30
0.0
 11
261.928525
 21
134.041786
 31
0.0
 12
256.928544
 22
135.041542
 32
0.0
 13
256.928544
 23
135.041542
 33
0.0
  0
ENDBLK
  5
244
100
AcDbEntity
  8
0
100
AcDbBlockEnd
  0
BLOCK
  5
247
100
AcDbEntity
  8
0
100
AcDbBlockBegin
  2
*B23
 70
     0
 10
0.0
 20
0.0
 30
0.0
  3
*B23
  1

  0
LINE
  5
248
100
AcDbEntity
  8
0
  6
Continuous
 62
     0
100
AcDbLine
 10
291.025686
 20
183.213673
 30
0.0
 11
291.025686
 21
161.215439
 31
0.0
  0
SOLID
  5
249
100
AcDbEntity
  8
0
  6
Continuous
 62
     0
100
AcDbTrace
 10
292.025442
 20
178.213992
 30
0.0
 11
291.025686
 21
183.213673
 31
0.0
 12
290.02563
 22
178.213992
 32
0.0
 13
290.02563
 23
178.213992
 33
0.0
  0
SOLID
  5
24A
100
AcDbEntity
  8
0
  6
Continuous
 62
     0
100
AcDbTrace
 10
290.02563
 20
166.215119
 30
0.0
 11
291.025686
 21
161.215439
 31
0.0
 12
292.025442
 22
166.215119
 32
0.0
 13
292.025442
 23
166.215119
 33
0.0
  0
ENDBLK
  5
24B
100
AcDbEntity
  8
0
100
AcDbBlockEnd
  0
BLOCK
  5
24E
100
AcDbEntity
  8
0
100
AcDbBlockBegin
  2
*B24
 70
     0
 10
0.0
 20
0.0
 30
0.0
  3
*B24
  1

  0
LINE
  5
24F
100
AcDbEntity
  8
0
  6
Continuous
 62
     0
100
AcDbLine
 10
206.046438
 20
134.041786
 30
0.0
 11
233.928452
 21
134.041786
 31
0.0
  0
SOLID
  5
250
100
AcDbEntity
  8
0
  6
Continuous
 62
     0
100
AcDbTrace
 10
212.928472
 20
133.04173
 30
0.0
 11
217.928452
 21
134.041786
 31
0.0
 12
212.928472
 22
135.041542
 32
0.0
 13
212.928472
 23
135.041542
 33
0.0
  0
SOLID
  5
251
100
AcDbEntity
  8
0
  6
Continuous
 62
     0
100
AcDbTrace
 10
228.928471
 20
135.041542
 30
0.0
 11
223.92849
 21
134.041786
 31
0.0
 12
228.928471
 22
133.04173
 32
0.0
 13
228.928471
 23
133.04173
 33
0.0
  0
ENDBLK
  5
252
100
AcDbEntity
  8
0
100
AcDbBlockEnd
  0
BLOCK
  5
255
100
AcDbEntity
  8
0
100
AcDbBlockBegin
  2
*B25
 70
     0
 10
0.0
 20
0.0
 30
0.0
  3
*B25
  1

  0
LINE
  5
256
100
AcDbEntity
  8
0
  6
Continuous
 62
     0
100
AcDbLine
 10
232.928395
 20
63.046803
 30
0.0
 11
264.928393
 21
63.046803
 31
0.0
  0
SOLID
  5
257
100
AcDbEntity
  8
0
  6
Continuous
 62
     0
100
AcDbTrace
 10
237.928376
 20
62.046747
 30
0.0
 11
242.928658
 21
63.046803
 31
0.0
 12
237.928376
 22
64.04686
 32
0.0
 13
237.928376
 23
64.04686
 33
0.0
  0
SOLID
  5
258
100
AcDbEntity
  8
0
  6
Continuous
 62
     0
100
AcDbTrace
 10
259.928412
 20
64.04686
 30
0.0
 11
254.928432
 21
63.046803
 31
0.0
 12
259.928412
 22
62.046747
 32
0.0
 13
259.928412
 23
62.046747
 33
0.0
  0
ENDBLK
  5
259
100
AcDbEntity
  8
0
100
AcDbBlockEnd
  0
BLOCK
  5
25C
100
AcDbEntity
  8
0
100
AcDbBlockBegin
  2
*B26
 70
     0
 10
0.0
 20
0.0
 30
0.0
  3
*B26
  1

  0
LINE
  5
25D
100
AcDbEntity
  8
0
  6
Continuous
 62
     8
100
AcDbLine
 10
148.928475
 20
97.712317
 30
0.0
 11
158.150682
 21
97.712317
 31
0.0
  0
LINE
  5
25E
100
AcDbEntity
  8
0
  6
Continuous
 62
     8
100
AcDbLine
 10
160.150795
 20
97.712317
 30
0.0
 11
161.150851
 21
97.712317
 31
0.0
  0
LINE
  5
25F
100
AcDbEntity
  8
0
  6
Continuous
 62
     8
100
AcDbLine
 10
163.150663
 20
97.712317
 30
0.0
 11
172.37287
 21
97.712317
 31
0.0
  0
LINE
  5
260
100
AcDbEntity
  8
0
  6
Continuous
 62
     8
100
AcDbLine
 10
174.372983
 20
97.712317
 30
0.0
 11
175.373039
 21
97.712317
 31
0.0
  0
LINE
  5
261
100
AcDbEntity
  8
0
  6
Continuous
 62
     8
100
AcDbLine
 10
177.372851
 20
97.712317
 30
0.0
 11
186.595058
 21
97.712317
 31
0.0
  0
LINE
  5
262
100
AcDbEntity
  8
0
  6
Continuous
 62
     8
100
AcDbLine
 10
188.595171
 20
97.712317
 30
0.0
 11
189.595227
 21
97.712317
 31
0.0
  0
LINE
  5
263
100
AcDbEntity
  8
0
  6
Continuous
 62
     8
100
AcDbLine
 10
191.59534
 20
97.712317
 30
0.0
 11
200.817547
 21
97.712317
 31
0.0
  0
LINE
  5
264
100
AcDbEntity
  8
0
  6
Continuous
 62
     8
100
AcDbLine
 10
202.817359
 20
97.712317
 30
0.0
 11
203.817415
 21
97.712317
 31
0.0
  0
LINE
  5
265
100
AcDbEntity
  8
0
  6
Continuous
 62
     8
100
AcDbLine
 10
205.817528
 20
97.712317
 30
0.0
 11
215.039735
 21
97.712317
 31
0.0
  0
LINE
  5
266
100
AcDbEntity
  8
0
  6
Continuous
 62
     8
100
AcDbLine
 10
217.039547
 20
97.712317
 30
0.0
 11
218.039603
 21
97.712317
 31
0.0
  0
LINE
  5
267
100
AcDbEntity
  8
0
  6
Continuous
 62
     8
100
AcDbLine
 10
220.039716
 20
97.712317
 30
0.0
 11
229.261923
 21
97.712317
 31
0.0
  0
LINE
  5
268
100
AcDbEntity
  8
0
  6
Continuous
 62
     8
100
AcDbLine
 10
231.261735
 20
97.712317
 30
0.0
 11
232.261791
 21
97.712317
 31
0.0
  0
LINE
  5
269
100
AcDbEntity
  8
0
  6
Continuous
 62
     8
100
AcDbLine
 10
234.261904
 20
97.712317
 30
0.0
 11
243.484111
 21
97.712317
 31
0.0
  0
LINE
  5
26A
100
AcDbEntity
  8
0
  6
Continuous
 62
     8
100
AcDbLine
 10
245.484223
 20
97.712317
 30
0.0
 11
246.483979
 21
97.712317
 31
0.0
  0
LINE
  5
26B
100
AcDbEntity
  8
0
  6
Continuous
 62
     8
100
AcDbLine
 10
248.484092
 20
97.712317
 30
0.0
 11
257.706299
 21
97.712317
 31
0.0
  0
LINE
  5
26C
100
AcDbEntity
  8
0
  6
Continuous
 62
     8
100
AcDbLine
 10
259.706411
 20
97.712317
 30
0.0
 11
260.706167
 21
97.712317
 31
0.0
  0
LINE
  5
26D
100
AcDbEntity
  8
0
  6
Continuous
 62
     8
100
AcDbLine
 10
262.70628
 20
97.712317
 30
0.0
 11
271.928487
 21
97.712317
 31
0.0
  0
ENDBLK
  5
26E
100
AcDbEntity
  8
0
100
AcDbBlockEnd
  0
BLOCK
  5
271
100
AcDbEntity
  8
0
100
AcDbBlockBegin
  2
*B27
 70
     0
 10
0.0
 20
0.0
 30
0.0
  3
*B27
  1

  0
LINE
  5
272
100
AcDbEntity
  8
0
  6
Continuous
 62
     8
100
AcDbLine
 10
201.928453
 20
191.213222
 30
0.0
 11
201.928453
 21
231.034627
 31
0.0
  0
ENDBLK
  5
273
100
AcDbEntity
  8
0
100
AcDbBlockEnd
  0
BLOCK
  5
276
100
AcDbEntity
  8
0
100
AcDbBlockBegin
  2
*B28
 70
     0
 10
0.0
 20
0.0
 30
0.0
  3
*B28
  1

  0
LINE
  5
277
100
AcDbEntity
  8
0
  6
Continuous
 62
     8
100
AcDbLine
 10
139.025545
 20
219.210591
 30
0.0
 11
151.621327
 21
219.210591
 31
0.0
  0
ENDBLK
  5
278
100
AcDbEntity
  8
0
100
AcDbBlockEnd
  0
BLOCK
  5
27B
100
AcDbEntity
  8
0
100
AcDbBlockBegin
  2
*B29
 70
     0
 10
0.0
 20
0.0
 30
0.0
  3
*B29
  1

  0
LINE
  5
27C
100
AcDbEntity
  8
0
  6
Continuous
 62
     8
100
AcDbLine
 10
216.928396
 20
89.440598
 30
0.0
 11
220.928621
 21
89.440598
 31
0.0
  0
LINE
  5
27D
100
AcDbEntity
  8
0
  6
Continuous
 62
     8
100
AcDbLine
 10
226.928658
 20
89.440598
 30
0.0
 11
230.928583
 21
89.440598
 31
0.0
  0
ENDBLK
  5
27E
100
AcDbEntity
  8
0
100
AcDbBlockEnd
  0
BLOCK
  5
281
100
AcDbEntity
  8
0
100
AcDbBlockBegin
  2
*B30
 70
     0
 10
0.0
 20
0.0
 30
0.0
  3
*B30
  1

  0
LINE
  5
282
100
AcDbEntity
  8
0
  6
Continuous
 62
     8
100
AcDbLine
 10
261.928525
 20
157.215514
 30
0.0
 11
261.928525
 21
169.089718
 31
0.0
  0
LINE
  5
283
100
AcDbEntity
  8
0
  6
Continuous
 62
     8
100
AcDbLine
 10
261.928525
 20
171.08953
 30
0.0
 11
261.928525
 21
172.089586
 31
0.0
  0
LINE
  5
284
100
AcDbEntity
  8
0
  6
Continuous
 62
     8
100
AcDbLine
 10
261.928525
 20
174.089398
 30
0.0
 11
261.928525
 21
185.963602
 31
0.0
  0
ENDBLK
  5
285
100
AcDbEntity
  8
0
100
AcDbBlockEnd
  0
BLOCK
  5
288
100
AcDbEntity
  8
0
100
AcDbBlockBegin
  2
*B31
 70
     0
 10
0.0
 20
0.0
 30
0.0
  3
*B31
  1

  0
LINE
  5
289
100
AcDbEntity
  8
0
  6
Continuous
 62
     8
100
AcDbLine
 10
289.525452
 20
89.440598
 30
0.0
 11
293.525677
 21
89.440598
 31
0.0
  0
LINE
  5
28A
100
AcDbEntity
  8
0
  6
Continuous
 62
     8
100
AcDbLine
 10
254.928432
 20
89.440598
 30
0.0
 11
258.928657
 21
89.440598
 31
0.0
  0
LINE
  5
28B
100
AcDbEntity
  8
0
  6
Continuous
 62
     8
100
AcDbLine
 10
264.928393
 20
89.440598
 30
0.0
 11
274.727082
 21
89.440598
 31
0.0
  0
LINE
  5
28C
100
AcDbEntity
  8
0
  6
Continuous
 62
     8
100
AcDbLine
 10
276.727195
 20
89.440598
 30
0.0
 11
277.726951
 21
89.440598
 31
0.0
  0
LINE
  5
28D
100
AcDbEntity
  8
0
  6
Continuous
 62
     8
100
AcDbLine
 10
279.727063
 20
89.440598
 30
0.0
 11
289.525452
 21
89.440598
 31
0.0
  0
ENDBLK
  5
28E
100
AcDbEntity
  8
0
100
AcDbBlockEnd
  0
BLOCK
  5
291
100
AcDbEntity
  8
0
100
AcDbBlockBegin
  2
*B32
 70
     0
 10
0.0
 20
0.0
 30
0.0
  3
*B32
  1

  0
LINE
  5
292
100
AcDbEntity
  8
0
  6
Continuous
 62
     8
100
AcDbLine
 10
261.928525
 20
82.441106
 30
0.0
 11
261.928525
 21
86.44073
 31
0.0
  0
LINE
  5
293
100
AcDbEntity
  8
0
  6
Continuous
 62
     8
100
AcDbLine
 10
261.928525
 20
92.440467
 30
0.0
 11
261.928525
 21
96.440091
 31
0.0
  0
ENDBLK
  5
294
100
AcDbEntity
  8
0
100
AcDbBlockEnd
  0
BLOCK
  5
297
100
AcDbEntity
  8
0
100
AcDbBlockBegin
  2
*B33
 70
     0
 10
0.0
 20
0.0
 30
0.0
  3
*B33
  1

  0
LINE
  5
298
100
AcDbEntity
  8
0
  6
Continuous
 62
     8
100
AcDbLine
 10
261.928525
 20
132.041974
 30
0.0
 11
261.928525
 21
136.041598
 31
0.0
  0
LINE
  5
299
100
AcDbEntity
  8
0
  6
Continuous
 62
     8
100
AcDbLine
 10
261.928525
 20
98.939781
 30
0.0
 11
261.928525
 21
102.939706
 31
0.0
  0
LINE
  5
29A
100
AcDbEntity
  8
0
  6
Continuous
 62
     8
100
AcDbLine
 10
261.928525
 20
108.939142
 30
0.0
 11
261.928525
 21
117.990718
 31
0.0
  0
LINE
  5
29B
100
AcDbEntity
  8
0
  6
Continuous
 62
     8
100
AcDbLine
 10
261.928525
 20
119.99053
 30
0.0
 11
261.928525
 21
120.990586
 31
0.0
  0
LINE
  5
29C
100
AcDbEntity
  8
0
  6
Continuous
 62
     8
100
AcDbLine
 10
261.928525
 20
122.990398
 30
0.0
 11
261.928525
 21
132.041974
 31
0.0
  0
ENDBLK
  5
29D
100
AcDbEntity
  8
0
100
AcDbBlockEnd
  0
BLOCK
  5
2A0
100
AcDbEntity
  8
0
100
AcDbBlockBegin
  2
*B34
 70
     0
 10
0.0
 20
0.0
 30
0.0
  3
*B34
  1

  0
LINE
  5
2A1
100
AcDbEntity
  8
0
  6
Continuous
 62
     8
100
AcDbLine
 10
230.928583
 20
61.046991
 30
0.0
 11
230.928583
 21
77.045789
 31
0.0
  0
LINE
  5
2A2
100
AcDbEntity
  8
0
  6
Continuous
 62
     8
100
AcDbLine
 10
230.928583
 20
77.045789
 30
0.0
 11
230.928583
 21
88.690481
 31
0.0
  0
LINE
  5
2A3
100
AcDbEntity
  8
0
  6
Continuous
 62
     8
100
AcDbLine
 10
230.928583
 20
94.690218
 30
0.0
 11
230.928583
 21
97.790122
 31
0.0
  0
ENDBLK
  5
2A4
100
AcDbEntity
  8
0
100
AcDbBlockEnd
  0
BLOCK
  5
2A7
100
AcDbEntity
  8
0
100
AcDbBlockBegin
  2
*B35
 70
     0
 10
0.0
 20
0.0
 30
0.0
  3
*B35
  1

  0
LINE
  5
2A8
100
AcDbEntity
  8
0
  6
Continuous
 62
     8
100
AcDbLine
 10
240.828509
 20
185.213485
 30
0.0
 11
240.828509
 21
197.03722
 31
0.0
  0
ENDBLK
  5
2A9
100
AcDbEntity
  8
0
100
AcDbBlockEnd
  0
BLOCK
  5
2AC
100
AcDbEntity
  8
0
100
AcDbBlockBegin
  2
*B36
 70
     0
 10
0.0
 20
0.0
 30
0.0
  3
*B36
  1

  0
LINE
  5
2AD
100
AcDbEntity
  8
0
  6
Continuous
 62
     8
100
AcDbLine
 10
277.025499
 20
103.689523
 30
0.0
 11
281.025724
 21
103.689523
 31
0.0
  0
LINE
  5
2AE
100
AcDbEntity
  8
0
  6
Continuous
 62
     8
100
AcDbLine
 10
230.828547
 20
103.689523
 30
0.0
 11
233.928452
 21
103.689523
 31
0.0
  0
LINE
  5
2AF
100
AcDbEntity
  8
0
  6
Continuous
 62
     8
100
AcDbLine
 10
239.928489
 20
103.689523
 30
0.0
 11
245.928526
 21
103.689523
 31
0.0
  0
LINE
  5
2B0
100
AcDbEntity
  8
0
  6
Continuous
 62
     8
100
AcDbLine
 10
251.928563
 20
103.689523
 30
0.0
 11
261.977191
 21
103.689523
 31
0.0
  0
LINE
  5
2B1
100
AcDbEntity
  8
0
  6
Continuous
 62
     8
100
AcDbLine
 10
263.977003
 20
103.689523
 30
0.0
 11
264.977059
 21
103.689523
 31
0.0
  0
LINE
  5
2B2
100
AcDbEntity
  8
0
  6
Continuous
 62
     8
100
AcDbLine
 10
266.977172
 20
103.689523
 30
0.0
 11
277.025499
 21
103.689523
 31
0.0
  0
ENDBLK
  5
2B3
100
AcDbEntity
  8
0
100
AcDbBlockEnd
  0
BLOCK
  5
2B6
100
AcDbEntity
  8
0
100
AcDbBlockBegin
  2
*B37
 70
     0
 10
0.0
 20
0.0
 30
0.0
  3
*B37
  1

  0
LINE
  5
2B7
100
AcDbEntity
  8
0
  6
Continuous
 62
     8
100
AcDbLine
 10
148.928475
 20
97.734847
 30
0.0
 11
160.728478
 21
97.734847
 31
0.0
  0
ENDBLK
  5
2B8
100
AcDbEntity
  8
0
100
AcDbBlockEnd
  0
BLOCK
  5
2BB
100
AcDbEntity
  8
0
100
AcDbBlockBegin
  2
*B38
 70
     0
 10
0.0
 20
0.0
 30
0.0
  3
*B38
  1

  0
LINE
  5
2BC
100
AcDbEntity
  8
0
  6
Continuous
 62
     8
100
AcDbLine
 10
277.025499
 20
91.69035
 30
0.0
 11
281.025724
 21
91.69035
 31
0.0
  0
LINE
  5
2BD
100
AcDbEntity
  8
0
  6
Continuous
 62
     8
100
AcDbLine
 10
224.82851
 20
91.69035
 30
0.0
 11
227.928414
 21
91.69035
 31
0.0
  0
LINE
  5
2BE
100
AcDbEntity
  8
0
  6
Continuous
 62
     8
100
AcDbLine
 10
233.928452
 20
91.69035
 30
0.0
 11
239.928489
 21
91.69035
 31
0.0
  0
LINE
  5
2BF
100
AcDbEntity
  8
0
  6
Continuous
 62
     8
100
AcDbLine
 10
245.928526
 20
91.69035
 30
0.0
 11
251.928563
 21
91.69035
 31
0.0
  0
LINE
  5
2C0
100
AcDbEntity
  8
0
  6
Continuous
 62
     8
100
AcDbLine
 10
257.9286
 20
91.69035
 30
0.0
 11
277.025499
 21
91.69035
 31
0.0
  0
ENDBLK
  5
2C1
100
AcDbEntity
  8
0
100
AcDbBlockEnd
  0
BLOCK
  5
2C4
100
AcDbEntity
  8
0
100
AcDbBlockBegin
  2
*B39
 70
     0
 10
0.0
 20
0.0
 30
0.0
  3
*B39
  1

  0
LINE
  5
2C5
100
AcDbEntity
  8
0
  6
Continuous
 62
     8
100
AcDbLine
 10
186.928511
 20
90.290451
 30
0.0
 11
186.928511
 21
94.690218
 31
0.0
  0
LINE
  5
2C6
100
AcDbEntity
  8
0
  6
Continuous
 62
     8
100
AcDbLine
 10
186.928511
 20
100.689654
 30
0.0
 11
186.928511
 21
105.089421
 31
0.0
  0
ENDBLK
  5
2C7
100
AcDbEntity
  8
0
100
AcDbBlockEnd
  0
BLOCK
  5
2CA
100
AcDbEntity
  8
0
100
AcDbBlockBegin
  2
*B40
 70
     0
 10
0.0
 20
0.0
 30
0.0
  3
*B40
  1

  0
LINE
  5
2CB
100
AcDbEntity
  8
0
  6
Continuous
 62
     8
100
AcDbLine
 10
160.228601
 20
172.214556
 30
0.0
 11
168.195105
 21
172.214556
 31
0.0
  0
LINE
  5
2CC
100
AcDbEntity
  8
0
  6
Continuous
 62
     8
100
AcDbLine
 10
170.195217
 20
172.214556
 30
0.0
 11
171.195273
 21
172.214556
 31
0.0
  0
LINE
  5
2CD
100
AcDbEntity
  8
0
  6
Continuous
 62
     8
100
AcDbLine
 10
173.195086
 20
172.214556
 30
0.0
 11
181.16189
 21
172.214556
 31
0.0
  0
LINE
  5
2CE
100
AcDbEntity
  8
0
  6
Continuous
 62
     8
100
AcDbLine
 10
183.162003
 20
172.214556
 30
0.0
 11
184.161758
 21
172.214556
 31
0.0
  0
LINE
  5
2CF
100
AcDbEntity
  8
0
  6
Continuous
 62
     8
100
AcDbLine
 10
186.161871
 20
172.214556
 30
0.0
 11
194.128675
 21
172.214556
 31
0.0
  0
LINE
  5
2D0
100
AcDbEntity
  8
0
  6
Continuous
 62
     8
100
AcDbLine
 10
196.128488
 20
172.214556
 30
0.0
 11
197.128544
 21
172.214556
 31
0.0
  0
LINE
  5
2D1
100
AcDbEntity
  8
0
  6
Continuous
 62
     8
100
AcDbLine
 10
199.128656
 20
172.214556
 30
0.0
 11
207.09516
 21
172.214556
 31
0.0
  0
LINE
  5
2D2
100
AcDbEntity
  8
0
  6
Continuous
 62
     8
100
AcDbLine
 10
209.095273
 20
172.214556
 30
0.0
 11
210.095029
 21
172.214556
 31
0.0
  0
LINE
  5
2D3
100
AcDbEntity
  8
0
  6
Continuous
 62
     8
100
AcDbLine
 10
212.095141
 20
172.214556
 30
0.0
 11
220.061946
 21
172.214556
 31
0.0
  0
LINE
  5
2D4
100
AcDbEntity
  8
0
  6
Continuous
 62
     8
100
AcDbLine
 10
222.061758
 20
172.214556
 30
0.0
 11
223.061814
 21
172.214556
 31
0.0
  0
LINE
  5
2D5
100
AcDbEntity
  8
0
  6
Continuous
 62
     8
100
AcDbLine
 10
225.061927
 20
172.214556
 30
0.0
 11
233.028431
 21
172.214556
 31
0.0
  0
LINE
  5
2D6
100
AcDbEntity
  8
0
  6
Continuous
 62
     8
100
AcDbLine
 10
235.028543
 20
172.214556
 30
0.0
 11
236.0286
 21
172.214556
 31
0.0
  0
LINE
  5
2D7
100
AcDbEntity
  8
0
  6
Continuous
 62
     8
100
AcDbLine
 10
238.028412
 20
172.214556
 30
0.0
 11
245.995216
 21
172.214556
 31
0.0
  0
LINE
  5
2D8
100
AcDbEntity
  8
0
  6
Continuous
 62
     8
100
AcDbLine
 10
247.995028
 20
172.214556
 30
0.0
 11
248.995085
 21
172.214556
 31
0.0
  0
LINE
  5
2D9
100
AcDbEntity
  8
0
  6
Continuous
 62
     8
100
AcDbLine
 10
250.995197
 20
172.214556
 30
0.0
 11
258.961701
 21
172.214556
 31
0.0
  0
LINE
  5
2DA
100
AcDbEntity
  8
0
  6
Continuous
 62
     8
100
AcDbLine
 10
260.961814
 20
172.214556
 30
0.0
 11
261.96187
 21
172.214556
 31
0.0
  0
LINE
  5
2DB
100
AcDbEntity
  8
0
  6
Continuous
 62
     8
100
AcDbLine
 10
263.961682
 20
172.214556
 30
0.0
 11
271.928487
 21
172.214556
 31
0.0
  0
ENDBLK
  5
2DC
100
AcDbEntity
  8
0
100
AcDbBlockEnd
  0
BLOCK
  5
2DF
100
AcDbEntity
  8
0
100
AcDbBlockBegin
  2
*B41
 70
     0
 10
0.0
 20
0.0
 30
0.0
  3
*B41
  1

  0
LINE
  5
2E0
100
AcDbEntity
  8
0
  6
Continuous
 62
     8
100
AcDbLine
 10
260.278387
 20
145.040903
 30
0.0
 11
260.278387
 21
159.215326
 31
0.0
  0
ENDBLK
  5
2E1
100
AcDbEntity
  8
0
100
AcDbBlockEnd
  0
BLOCK
  5
2E4
100
AcDbEntity
  8
0
100
AcDbBlockBegin
  2
*B42
 70
     0
 10
0.0
 20
0.0
 30
0.0
  3
*B42
  1

  0
LINE
  5
2E5
100
AcDbEntity
  8
0
  6
Continuous
 62
     8
100
AcDbLine
 10
254.928432
 20
61.046991
 30
0.0
 11
254.928432
 21
65.046616
 31
0.0
  0
LINE
  5
2E6
100
AcDbEntity
  8
0
  6
Continuous
 62
     8
100
AcDbLine
 10
254.928432
 20
65.046616
 30
0.0
 11
254.928432
 21
74.368858
 31
0.0
  0
LINE
  5
2E7
100
AcDbEntity
  8
0
  6
Continuous
 62
     8
100
AcDbLine
 10
254.928432
 20
76.36867
 30
0.0
 11
254.928432
 21
77.368727
 31
0.0
  0
LINE
  5
2E8
100
AcDbEntity
  8
0
  6
Continuous
 62
     8
100
AcDbLine
 10
254.928432
 20
79.368539
 30
0.0
 11
254.928432
 21
88.690481
 31
0.0
  0
LINE
  5
2E9
100
AcDbEntity
  8
0
  6
Continuous
 62
     8
100
AcDbLine
 10
254.928432
 20
94.690218
 30
0.0
 11
254.928432
 21
97.790122
 31
0.0
  0
ENDBLK
  5
2EA
100
AcDbEntity
  8
0
100
AcDbBlockEnd
  0
BLOCK
  5
2ED
100
AcDbEntity
  8
0
100
AcDbBlockBegin
  2
*B43
 70
     0
 10
0.0
 20
0.0
 30
0.0
  3
*B43
  1

  0
LINE
  5
2EE
100
AcDbEntity
  8
0
  6
Continuous
 62
     8
100
AcDbLine
 10
269.928374
 20
161.215439
 30
0.0
 11
293.025498
 21
161.215439
 31
0.0
  0
ENDBLK
  5
2EF
100
AcDbEntity
  8
0
100
AcDbBlockEnd
  0
BLOCK
  5
2F2
100
AcDbEntity
  8
0
100
AcDbBlockBegin
  2
*B44
 70
     0
 10
0.0
 20
0.0
 30
0.0
  3
*B44
  1

  0
LINE
  5
2F3
100
AcDbEntity
  8
0
  6
Continuous
 62
     8
100
AcDbLine
 10
217.928452
 20
185.213485
 30
0.0
 11
217.928452
 21
210.036149
 31
0.0
  0
ENDBLK
  5
2F4
100
AcDbEntity
  8
0
100
AcDbBlockEnd
  0
BLOCK
  5
2F7
100
AcDbEntity
  8
0
100
AcDbBlockBegin
  2
*B45
 70
     0
 10
0.0
 20
0.0
 30
0.0
  3
*B45
  1

  0
LINE
  5
2F8
100
AcDbEntity
  8
0
  6
Continuous
 62
     8
100
AcDbLine
 10
267.928562
 20
185.213485
 30
0.0
 11
267.928562
 21
231.034627
 31
0.0
  0
ENDBLK
  5
2F9
100
AcDbEntity
  8
0
100
AcDbBlockEnd
  0
BLOCK
  5
2FC
100
AcDbEntity
  8
0
100
AcDbBlockBegin
  2
*B46
 70
     0
 10
0.0
 20
0.0
 30
0.0
  3
*B46
  1

  0
LINE
  5
2FD
100
AcDbEntity
  8
0
  6
Continuous
 62
     8
100
AcDbLine
 10
269.928374
 20
183.213673
 30
0.0
 11
293.025498
 21
183.213673
 31
0.0
  0
ENDBLK
  5
2FE
100
AcDbEntity
  8
0
100
AcDbBlockEnd
  0
BLOCK
  5
301
100
AcDbEntity
  8
0
100
AcDbBlockBegin
  2
*B47
 70
     0
 10
0.0
 20
0.0
 30
0.0
  3
*B47
  1

  0
LINE
  5
302
100
AcDbEntity
  8
0
  6
Continuous
 62
     8
100
AcDbLine
 10
205.928679
 20
97.690086
 30
0.0
 11
209.928603
 21
97.690086
 31
0.0
  0
LINE
  5
303
100
AcDbEntity
  8
0
  6
Continuous
 62
     8
100
AcDbLine
 10
215.92864
 20
97.690086
 30
0.0
 11
226.178541
 21
97.690086
 31
0.0
  0
LINE
  5
304
100
AcDbEntity
  8
0
  6
Continuous
 62
     8
100
AcDbLine
 10
228.178654
 20
97.690086
 30
0.0
 11
229.17841
 21
97.690086
 31
0.0
  0
LINE
  5
305
100
AcDbEntity
  8
0
  6
Continuous
 62
     8
100
AcDbLine
 10
231.178522
 20
97.690086
 30
0.0
 11
241.428423
 21
97.690086
 31
0.0
  0
LINE
  5
306
100
AcDbEntity
  8
0
  6
Continuous
 62
     8
100
AcDbLine
 10
243.428535
 20
97.690086
 30
0.0
 11
244.428592
 21
97.690086
 31
0.0
  0
LINE
  5
307
100
AcDbEntity
  8
0
  6
Continuous
 62
     8
100
AcDbLine
 10
246.428404
 20
97.690086
 30
0.0
 11
256.678605
 21
97.690086
 31
0.0
  0
LINE
  5
308
100
AcDbEntity
  8
0
  6
Continuous
 62
     8
100
AcDbLine
 10
258.678417
 20
97.690086
 30
0.0
 11
259.678473
 21
97.690086
 31
0.0
  0
LINE
  5
309
100
AcDbEntity
  8
0
  6
Continuous
 62
     8
100
AcDbLine
 10
261.678586
 20
97.690086
 30
0.0
 11
271.928487
 21
97.690086
 31
0.0
  0
ENDBLK
  5
30A
100
AcDbEntity
  8
0
100
AcDbBlockEnd
  0
BLOCK
  5
30D
100
AcDbEntity
  8
0
100
AcDbBlockBegin
  2
*B48
 70
     0
 10
0.0
 20
0.0
 30
0.0
  3
*B48
  1

  0
LINE
  5
30E
100
AcDbEntity
  8
0
  6
Continuous
 62
     8
100
AcDbLine
 10
179.528575
 20
97.690086
 30
0.0
 11
183.928642
 21
97.690086
 31
0.0
  0
LINE
  5
30F
100
AcDbEntity
  8
0
  6
Continuous
 62
     8
100
AcDbLine
 10
189.928379
 20
97.690086
 30
0.0
 11
194.328446
 21
97.690086
 31
0.0
  0
ENDBLK
  5
310
100
AcDbEntity
  8
0
100
AcDbBlockEnd
  0
BLOCK
  5
313
100
AcDbEntity
  8
0
100
AcDbBlockBegin
  2
*B49
 70
     0
 10
0.0
 20
0.0
 30
0.0
  3
*B49
  1

  0
LINE
  5
314
100
AcDbEntity
  8
0
  6
Continuous
 62
     8
100
AcDbLine
 10
223.92849
 20
132.041974
 30
0.0
 11
223.92849
 21
136.041598
 31
0.0
  0
LINE
  5
315
100
AcDbEntity
  8
0
  6
Continuous
 62
     8
100
AcDbLine
 10
223.92849
 20
98.939781
 30
0.0
 11
223.92849
 21
102.939706
 31
0.0
  0
LINE
  5
316
100
AcDbEntity
  8
0
  6
Continuous
 62
     8
100
AcDbLine
 10
223.92849
 20
108.939142
 30
0.0
 11
223.92849
 21
117.990718
 31
0.0
  0
LINE
  5
317
100
AcDbEntity
  8
0
  6
Continuous
 62
     8
100
AcDbLine
 10
223.92849
 20
119.99053
 30
0.0
 11
223.92849
 21
120.990586
 31
0.0
  0
LINE
  5
318
100
AcDbEntity
  8
0
  6
Continuous
 62
     8
100
AcDbLine
 10
223.92849
 20
122.990398
 30
0.0
 11
223.92849
 21
132.041974
 31
0.0
  0
ENDBLK
  5
319
100
AcDbEntity
  8
0
100
AcDbBlockEnd
  0
BLOCK
  5
31C
100
AcDbEntity
  8
0
100
AcDbBlockBegin
  2
*B50
 70
     0
 10
0.0
 20
0.0
 30
0.0
  3
*B50
  1

  0
LINE
  5
31D
100
AcDbEntity
  8
0
  6
Continuous
 62
     8
100
AcDbLine
 10
236.92862
 20
120.042801
 30
0.0
 11
236.92862
 21
124.042425
 31
0.0
  0
LINE
  5
31E
100
AcDbEntity
  8
0
  6
Continuous
 62
     8
100
AcDbLine
 10
236.92862
 20
97.590051
 30
0.0
 11
236.92862
 21
100.689654
 31
0.0
  0
LINE
  5
31F
100
AcDbEntity
  8
0
  6
Continuous
 62
     8
100
AcDbLine
 10
236.92862
 20
106.689391
 30
0.0
 11
236.92862
 21
120.042801
 31
0.0
  0
ENDBLK
  5
320
100
AcDbEntity
  8
0
100
AcDbBlockEnd
  0
BLOCK
  5
323
100
AcDbEntity
  8
0
100
AcDbBlockBegin
  2
*B51
 70
     0
 10
0.0
 20
0.0
 30
0.0
  3
*B51
  1

  0
LINE
  5
324
100
AcDbEntity
  8
0
  6
Continuous
 62
     8
100
AcDbLine
 10
160.228601
 20
172.214255
 30
0.0
 11
174.428558
 21
172.214255
 31
0.0
  0
ENDBLK
  5
325
100
AcDbEntity
  8
0
100
AcDbBlockEnd
  0
BLOCK
  5
328
100
AcDbEntity
  8
0
100
AcDbBlockBegin
  2
*B52
 70
     0
 10
0.0
 20
0.0
 30
0.0
  3
*B52
  1

  0
LINE
  5
329
100
AcDbEntity
  8
0
  6
Continuous
 62
     8
100
AcDbLine
 10
223.92849
 20
157.215514
 30
0.0
 11
223.92849
 21
169.089718
 31
0.0
  0
LINE
  5
32A
100
AcDbEntity
  8
0
  6
Continuous
 62
     8
100
AcDbLine
 10
223.92849
 20
171.08953
 30
0.0
 11
223.92849
 21
172.089586
 31
0.0
  0
LINE
  5
32B
100
AcDbEntity
  8
0
  6
Continuous
 62
     8
100
AcDbLine
 10
223.92849
 20
174.089398
 30
0.0
 11
223.92849
 21
185.963602
 31
0.0
  0
ENDBLK
  5
32C
100
AcDbEntity
  8
0
100
AcDbBlockEnd
  0
BLOCK
  5
32F
100
AcDbEntity
  8
0
100
AcDbBlockBegin
  2
*B53
 70
     0
 10
0.0
 20
0.0
 30
0.0
  3
*B53
  1

  0
LINE
  5
330
100
AcDbEntity
  8
0
  6
Continuous
 62
     8
100
AcDbLine
 10
156.428447
 20
210.211887
 30
0.0
 11
165.428653
 21
210.211887
 31
0.0
  0
LINE
  5
331
100
AcDbEntity
  8
0
  6
Continuous
 62
     8
100
AcDbLine
 10
167.428465
 20
210.211887
 30
0.0
 11
168.428521
 21
210.211887
 31
0.0
  0
LINE
  5
332
100
AcDbEntity
  8
0
  6
Continuous
 62
     8
100
AcDbLine
 10
170.428634
 20
210.211887
 30
0.0
 11
179.428539
 21
210.211887
 31
0.0
  0
ENDBLK
  5
333
100
AcDbEntity
  8
0
100
AcDbBlockEnd
  0
BLOCK
  5
336
100
AcDbEntity
  8
0
100
AcDbBlockBegin
  2
*B54
 70
     0
 10
0.0
 20
0.0
 30
0.0
  3
*B54
  1

  0
LINE
  5
337
100
AcDbEntity
  8
0
  6
Continuous
 62
     8
100
AcDbLine
 10
242.928658
 20
61.046991
 30
0.0
 11
242.928658
 21
77.045789
 31
0.0
  0
LINE
  5
338
100
AcDbEntity
  8
0
  6
Continuous
 62
     8
100
AcDbLine
 10
242.928658
 20
77.045789
 30
0.0
 11
242.928658
 21
88.690481
 31
0.0
  0
LINE
  5
339
100
AcDbEntity
  8
0
  6
Continuous
 62
     8
100
AcDbLine
 10
242.928658
 20
94.690218
 30
0.0
 11
242.928658
 21
97.790122
 31
0.0
  0
ENDBLK
  5
33A
100
AcDbEntity
  8
0
100
AcDbBlockEnd
  0
BLOCK
  5
33D
100
AcDbEntity
  8
0
100
AcDbBlockBegin
  2
*B55
 70
     0
 10
0.0
 20
0.0
 30
0.0
  3
*B55
  1

  0
LINE
  5
33E
100
AcDbEntity
  8
0
  6
Continuous
 62
     8
100
AcDbLine
 10
140.025601
 20
108.689203
 30
0.0
 11
169.928455
 21
108.689203
 31
0.0
  0
ENDBLK
  5
33F
100
AcDbEntity
  8
0
100
AcDbBlockEnd
  0
BLOCK
  5
342
100
AcDbEntity
  8
0
100
AcDbBlockBegin
  2
*B56
 70
     0
 10
0.0
 20
0.0
 30
0.0
  3
*B56
  1

  0
LINE
  5
343
100
AcDbEntity
  8
0
  6
Continuous
 62
     8
100
AcDbLine
 10
242.928658
 20
173.214612
 30
0.0
 11
242.928658
 21
187.213597
 31
0.0
  0
ENDBLK
  5
344
100
AcDbEntity
  8
0
100
AcDbBlockEnd
  0
BLOCK
  5
347
100
AcDbEntity
  8
0
100
AcDbBlockBegin
  2
*B57
 70
     0
 10
0.0
 20
0.0
 30
0.0
  3
*B57
  1

  0
LINE
  5
348
100
AcDbEntity
  8
0
  6
Continuous
 62
     8
100
AcDbLine
 10
263.578362
 20
145.040903
 30
0.0
 11
263.578362
 21
159.215326
 31
0.0
  0
ENDBLK
  5
349
100
AcDbEntity
  8
0
100
AcDbBlockEnd
  0
BLOCK
  5
34C
100
AcDbEntity
  8
0
100
AcDbBlockBegin
  2
*B58
 70
     0
 10
0.0
 20
0.0
 30
0.0
  3
*B58
  1

  0
LINE
  5
34D
100
AcDbEntity
  8
0
  6
Continuous
 62
     8
100
AcDbLine
 10
217.928452
 20
61.046991
 30
0.0
 11
217.928452
 21
84.690857
 31
0.0
  0
LINE
  5
34E
100
AcDbEntity
  8
0
  6
Continuous
 62
     8
100
AcDbLine
 10
217.928452
 20
110.689015
 30
0.0
 11
217.928452
 21
136.041598
 31
0.0
  0
ENDBLK
  5
34F
100
AcDbEntity
  8
0
100
AcDbBlockEnd
  0
BLOCK
  5
352
100
AcDbEntity
  8
0
100
AcDbBlockBegin
  2
*B59
 70
     0
 10
0.0
 20
0.0
 30
0.0
  3
*B59
  1

  0
LINE
  5
353
100
AcDbEntity
  8
0
  6
Continuous
 62
     8
100
AcDbLine
 10
216.928396
 20
105.939274
 30
0.0
 11
220.928621
 21
105.939274
 31
0.0
  0
LINE
  5
354
100
AcDbEntity
  8
0
  6
Continuous
 62
     8
100
AcDbLine
 10
226.928658
 20
105.939274
 30
0.0
 11
230.928583
 21
105.939274
 31
0.0
  0
ENDBLK
  5
355
100
AcDbEntity
  8
0
100
AcDbBlockEnd
  0
BLOCK
  5
358
100
AcDbEntity
  8
0
100
AcDbBlockBegin
  2
*B60
 70
     0
 10
0.0
 20
0.0
 30
0.0
  3
*B60
  1

  0
LINE
  5
359
100
AcDbEntity
  8
0
  6
Continuous
 62
     8
100
AcDbLine
 10
245.028505
 20
185.213485
 30
0.0
 11
245.028505
 21
197.03722
 31
0.0
  0
ENDBLK
  5
35A
100
AcDbEntity
  8
0
100
AcDbBlockEnd
  0
BLOCK
  5
35D
100
AcDbEntity
  8
0
100
AcDbBlockBegin
  2
*B61
 70
     0
 10
0.0
 20
0.0
 30
0.0
  3
*B61
  1

  0
LINE
  5
35E
100
AcDbEntity
  8
0
  6
Continuous
 62
     8
100
AcDbLine
 10
223.92849
 20
82.441106
 30
0.0
 11
223.92849
 21
86.44073
 31
0.0
  0
LINE
  5
35F
100
AcDbEntity
  8
0
  6
Continuous
 62
     8
100
AcDbLine
 10
223.92849
 20
92.440467
 30
0.0
 11
223.92849
 21
96.440091
 31
0.0
  0
ENDBLK
  5
360
100
AcDbEntity
  8
0
100
AcDbBlockEnd
  0
BLOCK
  5
363
100
AcDbEntity
  8
0
100
AcDbBlockBegin
  2
*B62
 70
     0
 10
0.0
 20
0.0
 30
0.0
  3
*B62
  1

  0
LINE
  5
364
100
AcDbEntity
  8
0
  6
Continuous
 62
     8
100
AcDbLine
 10
140.025601
 20
86.690669
 30
0.0
 11
169.928455
 21
86.690669
 31
0.0
  0
ENDBLK
  5
365
100
AcDbEntity
  8
0
100
AcDbBlockEnd
  0
BLOCK
  5
368
100
AcDbEntity
  8
0
100
AcDbBlockBegin
  2
*B63
 70
     0
 10
0.0
 20
0.0
 30
0.0
  3
*B63
  1

  0
LINE
  5
369
100
AcDbEntity
  8
0
  6
Continuous
 62
     8
100
AcDbLine
 10
212.928472
 20
90.690594
 30
0.0
 11
212.928472
 21
94.690218
 31
0.0
  0
LINE
  5
36A
100
AcDbEntity
  8
0
  6
Continuous
 62
     8
100
AcDbLine
 10
212.928472
 20
100.689654
 30
0.0
 11
212.928472
 21
104.689579
 31
0.0
  0
ENDBLK
  5
36B
100
AcDbEntity
  8
0
100
AcDbBlockEnd
  0
BLOCK
  5
36E
100
AcDbEntity
  8
0
100
AcDbBlockBegin
  2
*B64
 70
     0
 10
0.0
 20
0.0
 30
0.0
  3
*B64
  1

  0
LINE
  5
36F
100
AcDbEntity
  8
0
  6
Continuous
 62
     8
100
AcDbLine
 10
289.525452
 20
105.939274
 30
0.0
 11
293.525677
 21
105.939274
 31
0.0
  0
LINE
  5
370
100
AcDbEntity
  8
0
  6
Continuous
 62
     8
100
AcDbLine
 10
254.928432
 20
105.939274
 30
0.0
 11
258.928657
 21
105.939274
 31
0.0
  0
LINE
  5
371
100
AcDbEntity
  8
0
  6
Continuous
 62
     8
100
AcDbLine
 10
264.928393
 20
105.939274
 30
0.0
 11
274.727082
 21
105.939274
 31
0.0
  0
LINE
  5
372
100
AcDbEntity
  8
0
  6
Continuous
 62
     8
100
AcDbLine
 10
276.727195
 20
105.939274
 30
0.0
 11
277.726951
 21
105.939274
 31
0.0
  0
LINE
  5
373
100
AcDbEntity
  8
0
  6
Continuous
 62
     8
100
AcDbLine
 10
279.727063
 20
105.939274
 30
0.0
 11
289.525452
 21
105.939274
 31
0.0
  0
ENDBLK
  5
374
100
AcDbEntity
  8
0
100
AcDbBlockEnd
  0
BLOCK
  5
377
100
AcDbEntity
  8
0
100
AcDbBlockBegin
  2
*B65
 70
     0
 10
0.0
 20
0.0
 30
0.0
  3
*B65
  1

  0
LINE
  5
378
100
AcDbEntity
  8
0
  6
Continuous
 62
     8
100
AcDbLine
 10
248.928394
 20
120.042801
 30
0.0
 11
248.928394
 21
124.042425
 31
0.0
  0
LINE
  5
379
100
AcDbEntity
  8
0
  6
Continuous
 62
     8
100
AcDbLine
 10
248.928394
 20
97.590051
 30
0.0
 11
248.928394
 21
100.689654
 31
0.0
  0
LINE
  5
37A
100
AcDbEntity
  8
0
  6
Continuous
 62
     8
100
AcDbLine
 10
248.928394
 20
106.689391
 30
0.0
 11
248.928394
 21
120.042801
 31
0.0
  0
ENDBLK
  5
37B
100
AcDbEntity
  8
0
100
AcDbBlockEnd
  0
BLOCK
  5
37E
100
AcDbEntity
  8
0
100
AcDbBlockBegin
  2
*B66
 70
     0
 10
0.0
 20
0.0
 30
0.0
  3
*B66
  1

  0
LINE
  5
37F
100
AcDbEntity
  8
0
  6
Continuous
 62
     8
100
AcDbLine
 10
139.025545
 20
161.215439
 30
0.0
 11
169.928455
 21
161.215439
 31
0.0
  0
ENDBLK
  5
380
100
AcDbEntity
  8
0
100
AcDbBlockEnd
  0
BLOCK
  5
383
100
AcDbEntity
  8
0
100
AcDbBlockBegin
  2
*B67
 70
     0
 10
0.0
 20
0.0
 30
0.0
  3
*B67
  1

  0
LINE
  5
384
100
AcDbEntity
  8
0
  6
Continuous
 62
     8
100
AcDbLine
 10
152.9284
 20
220.010276
 30
0.0
 11
152.9284
 21
231.034627
 31
0.0
  0
ENDBLK
  5
385
100
AcDbEntity
  8
0
100
AcDbBlockEnd
  0
BLOCK
  5
388
100
AcDbEntity
  8
0
100
AcDbBlockBegin
  2
*B68
 70
     0
 10
0.0
 20
0.0
 30
0.0
  3
*B68
  1

  0
LINE
  5
389
100
AcDbEntity
  8
0
  6
Continuous
 62
     6
100
AcDbLine
 10
247.928638
 20
103.689523
 30
0.0
 11
249.928451
 21
103.689523
 31
0.0
  0
LINE
  5
38A
100
AcDbEntity
  8
0
  6
Continuous
 62
     6
100
AcDbLine
 10
248.928394
 20
102.689466
 30
0.0
 11
248.928394
 21
104.689579
 31
0.0
  0
ENDBLK
  5
38B
100
AcDbEntity
  8
0
100
AcDbBlockEnd
  0
BLOCK
  5
38E
100
AcDbEntity
  8
0
100
AcDbBlockBegin
  2
*B69
 70
     0
 10
0.0
 20
0.0
 30
0.0
  3
*B69
  1

  0
LINE
  5
38F
100
AcDbEntity
  8
0
  6
Continuous
 62
     6
100
AcDbLine
 10
261.928525
 20
104.939518
 30
0.0
 11
261.928525
 21
106.93933
 31
0.0
  0
LINE
  5
390
100
AcDbEntity
  8
0
  6
Continuous
 62
     6
100
AcDbLine
 10
260.928469
 20
105.939274
 30
0.0
 11
262.928581
 21
105.939274
 31
0.0
  0
ENDBLK
  5
391
100
AcDbEntity
  8
0
100
AcDbBlockEnd
  0
BLOCK
  5
394
100
AcDbEntity
  8
0
100
AcDbBlockBegin
  2
*B70
 70
     0
 10
0.0
 20
0.0
 30
0.0
  3
*B70
  1

  0
LINE
  5
395
100
AcDbEntity
  8
0
  6
Continuous
 62
     6
100
AcDbLine
 10
222.928433
 20
105.939274
 30
0.0
 11
224.928546
 21
105.939274
 31
0.0
  0
LINE
  5
396
100
AcDbEntity
  8
0
  6
Continuous
 62
     6
100
AcDbLine
 10
223.92849
 20
104.939518
 30
0.0
 11
223.92849
 21
106.93933
 31
0.0
  0
ENDBLK
  5
397
100
AcDbEntity
  8
0
100
AcDbBlockEnd
  0
BLOCK
  5
39A
100
AcDbEntity
  8
0
100
AcDbBlockBegin
  2
*B71
 70
     0
 10
0.0
 20
0.0
 30
0.0
  3
*B71
  1

  0
LINE
  5
39B
100
AcDbEntity
  8
0
  6
Continuous
 62
     6
100
AcDbLine
 10
230.928583
 20
90.690594
 30
0.0
 11
230.928583
 21
92.690406
 31
0.0
  0
LINE
  5
39C
100
AcDbEntity
  8
0
  6
Continuous
 62
     6
100
AcDbLine
 10
229.928527
 20
91.69035
 30
0.0
 11
231.928639
 21
91.69035
 31
0.0
  0
ENDBLK
  5
39D
100
AcDbEntity
  8
0
100
AcDbBlockEnd
  0
BLOCK
  5
3A0
100
AcDbEntity
  8
0
100
AcDbBlockBegin
  2
*B72
 70
     0
 10
0.0
 20
0.0
 30
0.0
  3
*B72
  1

  0
LINE
  5
3A1
100
AcDbEntity
  8
0
  6
Continuous
 62
     6
100
AcDbLine
 10
211.928415
 20
97.690086
 30
0.0
 11
213.928528
 21
97.690086
 31
0.0
  0
LINE
  5
3A2
100
AcDbEntity
  8
0
  6
Continuous
 62
     6
100
AcDbLine
 10
212.928472
 20
96.69003
 30
0.0
 11
212.928472
 21
98.689842
 31
0.0
  0
ENDBLK
  5
3A3
100
AcDbEntity
  8
0
100
AcDbBlockEnd
  0
BLOCK
  5
3A6
100
AcDbEntity
  8
0
100
AcDbBlockBegin
  2
*B73
 70
     0
 10
0.0
 20
0.0
 30
0.0
  3
*B73
  1

  0
LINE
  5
3A7
100
AcDbEntity
  8
0
  6
Continuous
 62
     6
100
AcDbLine
 10
241.928601
 20
91.69035
 30
0.0
 11
243.928413
 21
91.69035
 31
0.0
  0
LINE
  5
3A8
100
AcDbEntity
  8
0
  6
Continuous
 62
     6
100
AcDbLine
 10
242.928658
 20
90.690594
 30
0.0
 11
242.928658
 21
92.690406
 31
0.0
  0
ENDBLK
  5
3A9
100
AcDbEntity
  8
0
100
AcDbBlockEnd
  0
BLOCK
  5
3AC
100
AcDbEntity
  8
0
100
AcDbBlockBegin
  2
*B74
 70
     0
 10
0.0
 20
0.0
 30
0.0
  3
*B74
  1

  0
LINE
  5
3AD
100
AcDbEntity
  8
0
  6
Continuous
 62
     6
100
AcDbLine
 10
260.928469
 20
89.440598
 30
0.0
 11
262.928581
 21
89.440598
 31
0.0
  0
LINE
  5
3AE
100
AcDbEntity
  8
0
  6
Continuous
 62
     6
100
AcDbLine
 10
261.928525
 20
88.440542
 30
0.0
 11
261.928525
 21
90.440655
 31
0.0
  0
ENDBLK
  5
3AF
100
AcDbEntity
  8
0
100
AcDbBlockEnd
  0
BLOCK
  5
3B2
100
AcDbEntity
  8
0
100
AcDbBlockBegin
  2
*B75
 70
     0
 10
0.0
 20
0.0
 30
0.0
  3
*B75
  1

  0
LINE
  5
3B3
100
AcDbEntity
  8
0
  6
Continuous
 62
     6
100
AcDbLine
 10
186.928511
 20
96.69003
 30
0.0
 11
186.928511
 21
98.689842
 31
0.0
  0
LINE
  5
3B4
100
AcDbEntity
  8
0
  6
Continuous
 62
     6
100
AcDbLine
 10
185.928454
 20
97.690086
 30
0.0
 11
187.928567
 21
97.690086
 31
0.0
  0
ENDBLK
  5
3B5
100
AcDbEntity
  8
0
100
AcDbBlockEnd
  0
BLOCK
  5
3B8
100
AcDbEntity
  8
0
100
AcDbBlockBegin
  2
*B76
 70
     0
 10
0.0
 20
0.0
 30
0.0
  3
*B76
  1

  0
LINE
  5
3B9
100
AcDbEntity
  8
0
  6
Continuous
 62
     6
100
AcDbLine
 10
222.928433
 20
89.440598
 30
0.0
 11
224.928546
 21
89.440598
 31
0.0
  0
LINE
  5
3BA
100
AcDbEntity
  8
0
  6
Continuous
 62
     6
100
AcDbLine
 10
223.92849
 20
88.440542
 30
0.0
 11
223.92849
 21
90.440655
 31
0.0
  0
ENDBLK
  5
3BB
100
AcDbEntity
  8
0
100
AcDbBlockEnd
  0
BLOCK
  5
3BE
100
AcDbEntity
  8
0
100
AcDbBlockBegin
  2
*B77
 70
     0
 10
0.0
 20
0.0
 30
0.0
  3
*B77
  1

  0
LINE
  5
3BF
100
AcDbEntity
  8
0
  6
Continuous
 62
     6
100
AcDbLine
 10
253.928375
 20
91.69035
 30
0.0
 11
255.928488
 21
91.69035
 31
0.0
  0
LINE
  5
3C0
100
AcDbEntity
  8
0
  6
Continuous
 62
     6
100
AcDbLine
 10
254.928432
 20
90.690594
 30
0.0
 11
254.928432
 21
92.690406
 31
0.0
  0
ENDBLK
  5
3C1
100
AcDbEntity
  8
0
100
AcDbBlockEnd
  0
BLOCK
  5
3C4
100
AcDbEntity
  8
0
100
AcDbBlockBegin
  2
*B78
 70
     0
 10
0.0
 20
0.0
 30
0.0
  3
*B78
  1

  0
LINE
  5
3C5
100
AcDbEntity
  8
0
  6
Continuous
 62
     6
100
AcDbLine
 10
235.928564
 20
103.689523
 30
0.0
 11
237.928376
 21
103.689523
 31
0.0
  0
LINE
  5
3C6
100
AcDbEntity
  8
0
  6
Continuous
 62
     6
100
AcDbLine
 10
236.92862
 20
102.689466
 30
0.0
 11
236.92862
 21
104.689579
 31
0.0
  0
ENDBLK
  5
3C7
100
AcDbEntity
  8
0
100
AcDbBlockEnd
  0
BLOCK
  5
3CA
100
AcDbEntity
  8
0
100
AcDbBlockBegin
  2
*B79
 70
     0
 10
0.0
 20
0.0
 30
0.0
  3
*B79
  1

  0
TEXT
  5
3CB
100
AcDbEntity
  8
TEXT
  6
Continuous
 62
     0
100
AcDbText
 10
229.5886
 20
95.8
 30
0.0
 40
4.0
  1
5
100
AcDbText
  0
ENDBLK
  5
3CC
100
AcDbEntity
  8
0
100
AcDbBlockEnd
  0
BLOCK
  5
3CF
100
AcDbEntity
  8
0
100
AcDbBlockBegin
  2
*B80
 70
     0
 10
0.0
 20
0.0
 30
0.0
  3
*B80
  1

  0
TEXT
  5
3D0
100
AcDbEntity
  8
TEXT
  6
Continuous
 62
     0
100
AcDbText
 10
235.1886
 20
95.0
 30
0.0
 40
4.0
  1
4
100
AcDbText
  0
ENDBLK
  5
3D1
100
AcDbEntity
  8
0
100
AcDbBlockEnd
  0
BLOCK
  5
3D4
100
AcDbEntity
  8
0
100
AcDbBlockBegin
  2
*B81
 70
     0
 10
0.0
 20
0.0
 30
0.0
  3
*B81
  1

  0
TEXT
  5
3D5
100
AcDbEntity
  8
TEXT
  6
Continuous
 62
     0
100
AcDbText
 10
253.7886
 20
95.8
 30
0.0
 40
4.0
  1
3
100
AcDbText
  0
ENDBLK
  5
3D6
100
AcDbEntity
  8
0
100
AcDbBlockEnd
  0
BLOCK
  5
3D9
100
AcDbEntity
  8
0
100
AcDbBlockBegin
  2
*B82
 70
     0
 10
0.0
 20
0.0
 30
0.0
  3
*B82
  1

  0
TEXT
  5
3DA
100
AcDbEntity
  8
TEXT
  6
Continuous
 62
     0
100
AcDbText
 10
247.3886
 20
95.2
 30
0.0
 40
4.0
  1
2
100
AcDbText
  0
ENDBLK
  5
3DB
100
AcDbEntity
  8
0
100
AcDbBlockEnd
  0
BLOCK
  5
3DE
100
AcDbEntity
  8
0
100
AcDbBlockBegin
  2
*B83
 70
     0
 10
0.0
 20
0.0
 30
0.0
  3
*B83
  1

  0
TEXT
  5
3DF
100
AcDbEntity
  8
TEXT
  6
Continuous
 62
     0
100
AcDbText
 10
241.3886
 20
96.0
 30
0.0
 40
4.0
  1
1
100
AcDbText
  0
ENDBLK
  5
3E0
100
AcDbEntity
  8
0
100
AcDbBlockEnd
  0
BLOCK
  5
3E3
100
AcDbEntity
  8
0
100
AcDbBlockBegin
  2
*B84
 70
     0
 10
0.0
 20
0.0
 30
0.0
  3
*B84
  1

  0
TEXT
  5
3E4
100
AcDbEntity
  8
TEXT
  6
Continuous
 62
     0
100
AcDbText
 10
214.3
 20
90.94145
 30
0.0
 40
3.0
  1
0
 50
90.0
100
AcDbText
  0
ENDBLK
  5
3E5
100
AcDbEntity
  8
0
100
AcDbBlockEnd
  0
BLOCK
  5
3E8
100
AcDbEntity
  8
0
100
AcDbBlockBegin
  2
*B85
 70
     0
 10
0.0
 20
0.0
 30
0.0
  3
*B85
  1

  0
TEXT
  5
3E9
100
AcDbEntity
  8
TEXT
  6
Continuous
 62
     0
100
AcDbText
 10
208.5
 20
96.34145
 30
0.0
 40
3.0
  1
1
 50
90.0
100
AcDbText
  0
ENDBLK
  5
3EA
100
AcDbEntity
  8
0
100
AcDbBlockEnd
  0
BLOCK
  5
3ED
100
AcDbEntity
  8
0
100
AcDbBlockBegin
  2
*B86
 70
     0
 10
0.0
 20
0.0
 30
0.0
  3
*B86
  1

  0
TEXT
  5
3EE
100
AcDbEntity
  8
TEXT
  6
Continuous
 62
     0
100
AcDbText
 10
174.565799
 20
134.0
 30
0.0
 40
6.0
  1
90%%d
100
AcDbText
  0
ENDBLK
  5
3EF
100
AcDbEntity
  8
0
100
AcDbBlockEnd
  0
BLOCK
  5
3F2
100
AcDbEntity
  8
0
100
AcDbBlockBegin
  2
*B87
 70
     0
 10
0.0
 20
0.0
 30
0.0
  3
*B87
  1

  0
TEXT
  5
3F3
100
AcDbEntity
  8
TEXT
  6
Continuous
 62
     0
100
AcDbText
 10
174.069559
 20
230.75
 30
0.0
 40
3.5
  1
48
100
AcDbText
  0
ENDBLK
  5
3F4
100
AcDbEntity
  8
0
100
AcDbBlockEnd
  0
BLOCK
  5
3F7
100
AcDbEntity
  8
0
100
AcDbBlockBegin
  2
*B88
 70
     0
 10
0.0
 20
0.0
 30
0.0
  3
*B88
  1

  0
TEXT
  5
3F8
100
AcDbEntity
  8
TEXT
  6
Continuous
 62
     0
100
AcDbText
 10
231.569559
 20
230.75
 30
0.0
 40
3.5
  1
66
100
AcDbText
  0
ENDBLK
  5
3F9
100
AcDbEntity
  8
0
100
AcDbBlockEnd
  0
BLOCK
  5
3FC
100
AcDbEntity
  8
0
100
AcDbBlockBegin
  2
*B89
 70
     0
 10
0.0
 20
0.0
 30
0.0
  3
*B89
  1

  0
TEXT
  5
3FD
100
AcDbEntity
  8
TEXT
  6
Continuous
 62
     0
100
AcDbText
 10
289.75
 20
91.812327
 30
0.0
 40
3.5
  1
16,5
 50
90.0
100
AcDbText
  0
ENDBLK
  5
3FE
100
AcDbEntity
  8
0
100
AcDbBlockEnd
  0
BLOCK
  5
401
100
AcDbEntity
  8
0
100
AcDbBlockBegin
  2
*B90
 70
     0
 10
0.0
 20
0.0
 30
0.0
  3
*B90
  1

  0
TEXT
  5
402
100
AcDbEntity
  8
TEXT
  6
Continuous
 62
     0
100
AcDbText
 10
277.25
 20
94.312327
 30
0.0
 40
3.5
  1
12
 50
90.0
100
AcDbText
  0
ENDBLK
  5
403
100
AcDbEntity
  8
0
100
AcDbBlockEnd
  0
BLOCK
  5
406
100
AcDbEntity
  8
0
100
AcDbBlockBegin
  2
*B91
 70
     0
 10
0.0
 20
0.0
 30
0.0
  3
*B91
  1

  0
TEXT
  5
407
100
AcDbEntity
  8
TEXT
  6
Continuous
 62
     0
100
AcDbText
 10
239.569559
 20
123.75
 30
0.0
 40
3.5
  1
12
100
AcDbText
  0
ENDBLK
  5
408
100
AcDbEntity
  8
0
100
AcDbBlockEnd
  0
BLOCK
  5
40B
100
AcDbEntity
  8
0
100
AcDbBlockBegin
  2
*B92
 70
     0
 10
0.0
 20
0.0
 30
0.0
  3
*B92
  1

  0
TEXT
  5
40C
100
AcDbEntity
  8
TEXT
  6
Continuous
 62
     0
100
AcDbText
 10
233.569559
 20
76.75
 30
0.0
 40
3.5
  1
12
100
AcDbText
  0
ENDBLK
  5
40D
100
AcDbEntity
  8
0
100
AcDbBlockEnd
  0
BLOCK
  5
410
100
AcDbEntity
  8
0
100
AcDbBlockBegin
  2
*B93
 70
     0
 10
0.0
 20
0.0
 30
0.0
  3
*B93
  1

  0
TEXT
  5
411
100
AcDbEntity
  8
TEXT
  6
Continuous
 62
     0
100
AcDbText
 10
239.569559
 20
209.75
 30
0.0
 40
3.5
  1
50
100
AcDbText
  0
ENDBLK
  5
412
100
AcDbEntity
  8
0
100
AcDbBlockEnd
  0
BLOCK
  5
415
100
AcDbEntity
  8
0
100
AcDbBlockBegin
  2
*B94
 70
     0
 10
0.0
 20
0.0
 30
0.0
  3
*B94
  1

  0
TEXT
  5
416
100
AcDbEntity
  8
TEXT
  6
Continuous
 62
     0
100
AcDbText
 10
252.0
 20
196.75
 30
0.0
 40
3.5
  1
M 5
100
AcDbText
  0
ENDBLK
  5
417
100
AcDbEntity
  8
0
100
AcDbBlockEnd
  0
BLOCK
  5
41A
100
AcDbEntity
  8
0
100
AcDbBlockBegin
  2
*B95
 70
     0
 10
0.0
 20
0.0
 30
0.0
  3
*B95
  1

  0
TEXT
  5
41B
100
AcDbEntity
  8
TEXT
  6
Continuous
 62
     0
100
AcDbText
 10
224.069559
 20
123.75
 30
0.0
 40
3.5
  1
19
100
AcDbText
  0
ENDBLK
  5
41C
100
AcDbEntity
  8
0
100
AcDbBlockEnd
  0
BLOCK
  5
41F
100
AcDbEntity
  8
0
100
AcDbBlockBegin
  2
*B96
 70
     0
 10
0.0
 20
0.0
 30
0.0
  3
*B96
  1

  0
TEXT
  5
420
100
AcDbEntity
  8
TEXT
  6
Continuous
 62
     0
100
AcDbText
 10
221.069559
 20
64.75
 30
0.0
 40
3.5
  1
13
100
AcDbText
  0
ENDBLK
  5
421
100
AcDbEntity
  8
0
100
AcDbBlockEnd
  0
BLOCK
  5
424
100
AcDbEntity
  8
0
100
AcDbBlockBegin
  2
*B97
 70
     0
 10
0.0
 20
0.0
 30
0.0
  3
*B97
  1

  0
TEXT
  5
425
100
AcDbEntity
  8
TEXT
  6
Continuous
 62
     0
100
AcDbText
 10
139.25
 20
186.842042
 30
0.0
 40
3.5
  1
58
 50
90.0
100
AcDbText
  0
ENDBLK
  5
426
100
AcDbEntity
  8
0
100
AcDbBlockEnd
  0
BLOCK
  5
429
100
AcDbEntity
  8
0
100
AcDbBlockBegin
  2
*B98
 70
     0
 10
0.0
 20
0.0
 30
0.0
  3
*B98
  1

  0
TEXT
  5
42A
100
AcDbEntity
  8
TEXT
  6
Continuous
 62
     0
100
AcDbText
 10
140.25
 20
94.312327
 30
0.0
 40
3.5
  1
22
 50
90.0
100
AcDbText
  0
ENDBLK
  5
42B
100
AcDbEntity
  8
0
100
AcDbBlockEnd
  0
BLOCK
  5
42E
100
AcDbEntity
  8
0
100
AcDbBlockBegin
  2
*B99
 70
     0
 10
0.0
 20
0.0
 30
0.0
  3
*B99
  1

  0
TEXT
  5
42F
100
AcDbEntity
  8
TEXT
  6
Continuous
 62
     0
100
AcDbText
 10
270.383333
 20
148.75
 30
0.0
 40
3.5
  1
%%c3,3
100
AcDbText
  0
ENDBLK
  5
430
100
AcDbEntity
  8
0
100
AcDbBlockEnd
  0
BLOCK
  5
433
100
AcDbEntity
  8
0
100
AcDbBlockBegin
  2
*B100
 70
     0
 10
0.0
 20
0.0
 30
0.0
  3
*B100
  1

  0
TEXT
  5
434
100
AcDbEntity
  8
TEXT
  6
Continuous
 62
     0
100
AcDbText
 10
239.569559
 20
135.75
 30
0.0
 40
3.5
  1
38
100
AcDbText
  0
ENDBLK
  5
435
100
AcDbEntity
  8
0
100
AcDbBlockEnd
  0
BLOCK
  5
438
100
AcDbEntity
  8
0
100
AcDbBlockBegin
  2
*B101
 70
     0
 10
0.0
 20
0.0
 30
0.0
  3
*B101
  1

  0
TEXT
  5
439
100
AcDbEntity
  8
TEXT
  6
Continuous
 62
     0
100
AcDbText
 10
289.25
 20
168.842267
 30
0.0
 40
3.5
  1
22
 50
90.0
100
AcDbText
  0
ENDBLK
  5
43A
100
AcDbEntity
  8
0
100
AcDbBlockEnd
  0
BLOCK
  5
43D
100
AcDbEntity
  8
0
100
AcDbBlockBegin
  2
*B102
 70
     0
 10
0.0
 20
0.0
 30
0.0
  3
*B102
  1

  0
TEXT
  5
43E
100
AcDbEntity
  8
TEXT
  6
Continuous
 62
     0
100
AcDbText
 10
207.333333
 20
135.75
 30
0.0
 40
3.5
  1
6
100
AcDbText
  0
ENDBLK
  5
43F
100
AcDbEntity
  8
0
100
AcDbBlockEnd
  0
BLOCK
  5
442
100
AcDbEntity
  8
0
100
AcDbBlockBegin
  2
*B103
 70
     0
 10
0.0
 20
0.0
 30
0.0
  3
*B103
  1

  0
TEXT
  5
443
100
AcDbEntity
  8
TEXT
  6
Continuous
 62
     0
100
AcDbText
 10
245.569559
 20
64.75
 30
0.0
 40
3.5
  1
12
100
AcDbText
  0
ENDBLK
  5
444
100
AcDbEntity
  8
0
100
AcDbBlockEnd
  0
ENDSEC
  0
SECTION
  2
ENTITIES
  0
INSERT
  5
C8
100
AcDbEntity
  8
0
  6
Continuous
 62
   174
100
AcDbBlockReference
  2
*B1
 10
0.0
 20
0.0
 30
0.0
  0
INSERT
  5
1BB
100
AcDbEntity
  8
0
  6
Continuous
 62
   174
100
AcDbBlockReference
  2
*B2
 10
0.0
 20
0.0
 30
0.0
  0
INSERT
  5
1C1
100
AcDbEntity
  8
0
  6
Continuous
 62
   172
100
AcDbBlockReference
  2
*B3
 10
0.0
 20
0.0
 30
0.0
  0
INSERT
  5
1CC
100
AcDbEntity
  8
0
  6
Continuous
 62
   172
100
AcDbBlockReference
  2
*B4
 10
0.0
 20
0.0
 30
0.0
  0
INSERT
  5
1D5
100
AcDbEntity
  8
0
  6
Continuous
 62
   172
100
AcDbBlockReference
  2
*B6
 10
0.0
 20
0.0
 30
0.0
  0
INSERT
  5
1E0
100
AcDbEntity
  8
0
  6
Continuous
 62
   172
100
AcDbBlockReference
  2
*B7
 10
0.0
 20
0.0
 30
0.0
  0
INSERT
  5
1EA
100
AcDbEntity
  8
0
  6
Continuous
 62
     0
100
AcDbBlockReference
  2
*B9
 10
0.0
 20
0.0
 30
0.0
  0
INSERT
  5
1F1
100
AcDbEntity
  8
0
  6
Continuous
 62
     0
100
AcDbBlockReference
  2
*B10
 10
0.0
 20
0.0
 30
0.0
  0
INSERT
  5
1F8
100
AcDbEntity
  8
0
  6
Continuous
 62
     0
100
AcDbBlockReference
  2
*B11
 10
0.0
 20
0.0
 30
0.0
  0
INSERT
  5
1FF
100
AcDbEntity
  8
0
  6
Continuous
 62
     0
100
AcDbBlockReference
  2
*B12
 10
0.0
 20
0.0
 30
0.0
  0
INSERT
  5
206
100
AcDbEntity
  8
0
  6
Continuous
 62
     0
100
AcDbBlockReference
  2
*B13
 10
0.0
 20
0.0
 30
0.0
  0
INSERT
  5
20D
100
AcDbEntity
  8
0
  6
Continuous
 62
     0
100
AcDbBlockReference
  2
*B14
 10
0.0
 20
0.0
 30
0.0
  0
INSERT
  5
214
100
AcDbEntity
  8
0
  6
Continuous
 62
     0
100
AcDbBlockReference
  2
*B15
 10
0.0
 20
0.0
 30
0.0
  0
INSERT
  5
21B
100
AcDbEntity
  8
0
  6
Continuous
 62
     0
100
AcDbBlockReference
  2
*B16
 10
0.0
 20
0.0
 30
0.0
  0
INSERT
  5
222
100
AcDbEntity
  8
0
  6
Continuous
 62
     0
100
AcDbBlockReference
  2
*B17
 10
0.0
 20
0.0
 30
0.0
  0
INSERT
  5
229
100
AcDbEntity
  8
0
  6
Continuous
 62
     0
100
AcDbBlockReference
  2
*B18
 10
0.0
 20
0.0
 30
0.0
  0
INSERT
  5
230
100
AcDbEntity
  8
0
  6
Continuous
 62
     0
100
AcDbBlockReference
  2
*B19
 10
0.0
 20
0.0
 30
0.0
  0
INSERT
  5
237
100
AcDbEntity
  8
0
  6
Continuous
 62
     0
100
AcDbBlockReference
  2
*B20
 10
0.0
 20
0.0
 30
0.0
  0
INSERT
  5
23E
100
AcDbEntity
  8
0
  6
Continuous
 62
     0
100
AcDbBlockReference
  2
*B21
 10
0.0
 20
0.0
 30
0.0
  0
INSERT
  5
245
100
AcDbEntity
  8
0
  6
Continuous
 62
     0
100
AcDbBlockReference
  2
*B22
 10
0.0
 20
0.0
 30
0.0
  0
INSERT
  5
24C
100
AcDbEntity
  8
0
  6
Continuous
 62
     0
100
AcDbBlockReference
  2
*B23
 10
0.0
 20
0.0
 30
0.0
  0
INSERT
  5
253
100
AcDbEntity
  8
0
  6
Continuous
 62
     0
100
AcDbBlockReference
  2
*B24
 10
0.0
 20
0.0
 30
0.0
  0
INSERT
  5
25A
100
AcDbEntity
  8
0
  6
Continuous
 62
     0
100
AcDbBlockReference
  2
*B25
 10
0.0
 20
0.0
 30
0.0
  0
INSERT
  5
26F
100
AcDbEntity
  8
0
  6
Continuous
 62
     8
100
AcDbBlockReference
  2
*B26
 10
0.0
 20
0.0
 30
0.0
  0
INSERT
  5
274
100
AcDbEntity
  8
0
  6
Continuous
 62
     8
100
AcDbBlockReference
  2
*B27
 10
0.0
 20
0.0
 30
0.0
  0
INSERT
  5
279
100
AcDbEntity
  8
0
  6
Continuous
 62
     8
100
AcDbBlockReference
  2
*B28
 10
0.0
 20
0.0
 30
0.0
  0
INSERT
  5
27F
100
AcDbEntity
  8
0
  6
Continuous
 62
     8
100
AcDbBlockReference
  2
*B29
 10
0.0
 20
0.0
 30
0.0
  0
INSERT
  5
286
100
AcDbEntity
  8
0
  6
Continuous
 62
     8
100
AcDbBlockReference
  2
*B30
 10
0.0
 20
0.0
 30
0.0
  0
INSERT
  5
28F
100
AcDbEntity
  8
0
  6
Continuous
 62
     8
100
AcDbBlockReference
  2
*B31
 10
0.0
 20
0.0
 30
0.0
  0
INSERT
  5
295
100
AcDbEntity
  8
0
  6
Continuous
 62
     8
100
AcDbBlockReference
  2
*B32
 10
0.0
 20
0.0
 30
0.0
  0
INSERT
  5
29E
100
AcDbEntity
  8
0
  6
Continuous
 62
     8
100
AcDbBlockReference
  2
*B33
 10
0.0
 20
0.0
 30
0.0
  0
INSERT
  5
2A5
100
AcDbEntity
  8
0
  6
Continuous
 62
     8
100
AcDbBlockReference
  2
*B34
 10
0.0
 20
0.0
 30
0.0
  0
INSERT
  5
2AA
100
AcDbEntity
  8
0
  6
Continuous
 62
     8
100
AcDbBlockReference
  2
*B35
 10
0.0
 20
0.0
 30
0.0
  0
INSERT
  5
2B4
100
AcDbEntity
  8
0
  6
Continuous
 62
     8
100
AcDbBlockReference
  2
*B36
 10
0.0
 20
0.0
 30
0.0
  0
INSERT
  5
2B9
100
AcDbEntity
  8
0
  6
Continuous
 62
     8
100
AcDbBlockReference
  2
*B37
 10
0.0
 20
0.0
 30
0.0
  0
INSERT
  5
2C2
100
AcDbEntity
  8
0
  6
Continuous
 62
     8
100
AcDbBlockReference
  2
*B38
 10
0.0
 20
0.0
 30
0.0
  0
INSERT
  5
2C8
100
AcDbEntity
  8
0
  6
Continuous
 62
     8
100
AcDbBlockReference
  2
*B39
 10
0.0
 20
0.0
 30
0.0
  0
INSERT
  5
2DD
100
AcDbEntity
  8
0
  6
Continuous
 62
     8
100
AcDbBlockReference
  2
*B40
 10
0.0
 20
0.0
 30
0.0
  0
INSERT
  5
2E2
100
AcDbEntity
  8
0
  6
Continuous
 62
     8
100
AcDbBlockReference
  2
*B41
 10
0.0
 20
0.0
 30
0.0
  0
INSERT
  5
2EB
100
AcDbEntity
  8
0
  6
Continuous
 62
     8
100
AcDbBlockReference
  2
*B42
 10
0.0
 20
0.0
 30
0.0
  0
INSERT
  5
2F0
100
AcDbEntity
  8
0
  6
Continuous
 62
     8
100
AcDbBlockReference
  2
*B43
 10
0.0
 20
0.0
 30
0.0
  0
INSERT
  5
2F5
100
AcDbEntity
  8
0
  6
Continuous
 62
     8
100
AcDbBlockReference
  2
*B44
 10
0.0
 20
0.0
 30
0.0
  0
INSERT
  5
2FA
100
AcDbEntity
  8
0
  6
Continuous
 62
     8
100
AcDbBlockReference
  2
*B45
 10
0.0
 20
0.0
 30
0.0
  0
INSERT
  5
2FF
100
AcDbEntity
  8
0
  6
Continuous
 62
     8
100
AcDbBlockReference
  2
*B46
 10
0.0
 20
0.0
 30
0.0
  0
INSERT
  5
30B
100
AcDbEntity
  8
0
  6
Continuous
 62
     8
100
AcDbBlockReference
  2
*B47
 10
0.0
 20
0.0
 30
0.0
  0
INSERT
  5
311
100
AcDbEntity
  8
0
  6
Continuous
 62
     8
100
AcDbBlockReference
  2
*B48
 10
0.0
 20
0.0
 30
0.0
  0
INSERT
  5
31A
100
AcDbEntity
  8
0
  6
Continuous
 62
     8
100
AcDbBlockReference
  2
*B49
 10
0.0
 20
0.0
 30
0.0
  0
INSERT
  5
321
100
AcDbEntity
  8
0
  6
Continuous
 62
     8
100
AcDbBlockReference
  2
*B50
 10
0.0
 20
0.0
 30
0.0
  0
INSERT
  5
326
100
AcDbEntity
  8
0
  6
Continuous
 62
     8
100
AcDbBlockReference
  2
*B51
 10
0.0
 20
0.0
 30
0.0
  0
INSERT
  5
32D
100
AcDbEntity
  8
0
  6
Continuous
 62
     8
100
AcDbBlockReference
  2
*B52
 10
0.0
 20
0.0
 30
0.0
  0
INSERT
  5
334
100
AcDbEntity
  8
0
  6
Continuous
 62
     8
100
AcDbBlockReference
  2
*B53
 10
0.0
 20
0.0
 30
0.0
  0
INSERT
  5
33B
100
AcDbEntity
  8
0
  6
Continuous
 62
     8
100
AcDbBlockReference
  2
*B54
 10
0.0
 20
0.0
 30
0.0
  0
INSERT
  5
340
100
AcDbEntity
  8
0
  6
Continuous
 62
     8
100
AcDbBlockReference
  2
*B55
 10
0.0
 20
0.0
 30
0.0
  0
INSERT
  5
345
100
AcDbEntity
  8
0
  6
Continuous
 62
     8
100
AcDbBlockReference
  2
*B56
 10
0.0
 20
0.0
 30
0.0
  0
INSERT
  5
34A
100
AcDbEntity
  8
0
  6
Continuous
 62
     8
100
AcDbBlockReference
  2
*B57
 10
0.0
 20
0.0
 30
0.0
  0
INSERT
  5
350
100
AcDbEntity
  8
0
  6
Continuous
 62
     8
100
AcDbBlockReference
  2
*B58
 10
0.0
 20
0.0
 30
0.0
  0
INSERT
  5
356
100
AcDbEntity
  8
0
  6
Continuous
 62
     8
100
AcDbBlockReference
  2
*B59
 10
0.0
 20
0.0
 30
0.0
  0
INSERT
  5
35B
100
AcDbEntity
  8
0
  6
Continuous
 62
     8
100
AcDbBlockReference
  2
*B60
 10
0.0
 20
0.0
 30
0.0
  0
INSERT
  5
361
100
AcDbEntity
  8
0
  6
Continuous
 62
     8
100
AcDbBlockReference
  2
*B61
 10
0.0
 20
0.0
 30
0.0
  0
INSERT
  5
366
100
AcDbEntity
  8
0
  6
Continuous
 62
     8
100
AcDbBlockReference
  2
*B62
 10
0.0
 20
0.0
 30
0.0
  0
INSERT
  5
36C
100
AcDbEntity
  8
0
  6
Continuous
 62
     8
100
AcDbBlockReference
  2
*B63
 10
0.0
 20
0.0
 30
0.0
  0
INSERT
  5
375
100
AcDbEntity
  8
0
  6
Continuous
 62
     8
100
AcDbBlockReference
  2
*B64
 10
0.0
 20
0.0
 30
0.0
  0
INSERT
  5
37C
100
AcDbEntity
  8
0
  6
Continuous
 62
     8
100
AcDbBlockReference
  2
*B65
 10
0.0
 20
0.0
 30
0.0
  0
INSERT
  5
381
100
AcDbEntity
  8
0
  6
Continuous
 62
     8
100
AcDbBlockReference
  2
*B66
 10
0.0
 20
0.0
 30
0.0
  0
INSERT
  5
386
100
AcDbEntity
  8
0
  6
Continuous
 62
     8
100
AcDbBlockReference
  2
*B67
 10
0.0
 20
0.0
 30
0.0
  0
INSERT
  5
38C
100
AcDbEntity
  8
0
  6
Continuous
 62
     6
100
AcDbBlockReference
  2
*B68
 10
0.0
 20
0.0
 30
0.0
  0
INSERT
  5
392
100
AcDbEntity
  8
0
  6
Continuous
 62
     6
100
AcDbBlockReference
  2
*B69
 10
0.0
 20
0.0
 30
0.0
  0
INSERT
  5
398
100
AcDbEntity
  8
0
  6
Continuous
 62
     6
100
AcDbBlockReference
  2
*B70
 10
0.0
 20
0.0
 30
0.0
  0
INSERT
  5
39E
100
AcDbEntity
  8
0
  6
Continuous
 62
     6
100
AcDbBlockReference
  2
*B71
 10
0.0
 20
0.0
 30
0.0
  0
INSERT
  5
3A4
100
AcDbEntity
  8
0
  6
Continuous
 62
     6
100
AcDbBlockReference
  2
*B72
 10
0.0
 20
0.0
 30
0.0
  0
INSERT
  5
3AA
100
AcDbEntity
  8
0
  6
Continuous
 62
     6
100
AcDbBlockReference
  2
*B73
 10
0.0
 20
0.0
 30
0.0
  0
INSERT
  5
3B0
100
AcDbEntity
  8
0
  6
Continuous
 62
     6
100
AcDbBlockReference
  2
*B74
 10
0.0
 20
0.0
 30
0.0
  0
INSERT
  5
3B6
100
AcDbEntity
  8
0
  6
Continuous
 62
     6
100
AcDbBlockReference
  2
*B75
 10
0.0
 20
0.0
 30
0.0
  0
INSERT
  5
3BC
100
AcDbEntity
  8
0
  6
Continuous
 62
     6
100
AcDbBlockReference
  2
*B76
 10
0.0
 20
0.0
 30
0.0
  0
INSERT
  5
3C2
100
AcDbEntity
  8
0
  6
Continuous
 62
     6
100
AcDbBlockReference
  2
*B77
 10
0.0
 20
0.0
 30
0.0
  0
INSERT
  5
3C8
100
AcDbEntity
  8
0
  6
Continuous
 62
     6
100
AcDbBlockReference
  2
*B78
 10
0.0
 20
0.0
 30
0.0
  0
INSERT
  5
3CD
100
AcDbEntity
  8
TEXT
  6
Continuous
 62
     0
100
AcDbBlockReference
  2
*B79
 10
0.0
 20
0.0
 30
0.0
  0
INSERT
  5
3D2
100
AcDbEntity
  8
TEXT
  6
Continuous
 62
     0
100
AcDbBlockReference
  2
*B80
 10
0.0
 20
0.0
 30
0.0
  0
INSERT
  5
3D7
100
AcDbEntity
  8
TEXT
  6
Continuous
 62
     0
100
AcDbBlockReference
  2
*B81
 10
0.0
 20
0.0
 30
0.0
  0
INSERT
  5
3DC
100
AcDbEntity
  8
TEXT
  6
Continuous
 62
     0
100
AcDbBlockReference
  2
*B82
 10
0.0
 20
0.0
 30
0.0
  0
INSERT
  5
3E1
100
AcDbEntity
  8
TEXT
  6
Continuous
 62
     0
100
AcDbBlockReference
  2
*B83
 10
0.0
 20
0.0
 30
0.0
  0
INSERT
  5
3E6
100
AcDbEntity
  8
TEXT
  6
Continuous
 62
     0
100
AcDbBlockReference
  2
*B84
 10
0.0
 20
0.0
 30
0.0
  0
INSERT
  5
3EB
100
AcDbEntity
  8
TEXT
  6
Continuous
 62
     0
100
AcDbBlockReference
  2
*B85
 10
0.0
 20
0.0
 30
0.0
  0
INSERT
  5
3F0
100
AcDbEntity
  8
TEXT
  6
Continuous
 62
     0
100
AcDbBlockReference
  2
*B86
 10
0.0
 20
0.0
 30
0.0
  0
INSERT
  5
3F5
100
AcDbEntity
  8
TEXT
  6
Continuous
 62
     0
100
AcDbBlockReference
  2
*B87
 10
0.0
 20
0.0
 30
0.0
  0
INSERT
  5
3FA
100
AcDbEntity
  8
TEXT
  6
Continuous
 62
     0
100
AcDbBlockReference
  2
*B88
 10
0.0
 20
0.0
 30
0.0
  0
INSERT
  5
3FF
100
AcDbEntity
  8
TEXT
  6
Continuous
 62
     0
100
AcDbBlockReference
  2
*B89
 10
0.0
 20
0.0
 30
0.0
  0
INSERT
  5
404
100
AcDbEntity
  8
TEXT
  6
Continuous
 62
     0
100
AcDbBlockReference
  2
*B90
 10
0.0
 20
0.0
 30
0.0
  0
INSERT
  5
409
100
AcDbEntity
  8
TEXT
  6
Continuous
 62
     0
100
AcDbBlockReference
  2
*B91
 10
0.0
 20
0.0
 30
0.0
  0
INSERT
  5
40E
100
AcDbEntity
  8
TEXT
  6
Continuous
 62
     0
100
AcDbBlockReference
  2
*B92
 10
0.0
 20
0.0
 30
0.0
  0
INSERT
  5
413
100
AcDbEntity
  8
TEXT
  6
Continuous
 62
     0
100
AcDbBlockReference
  2
*B93
 10
0.0
 20
0.0
 30
0.0
  0
INSERT
  5
418
100
AcDbEntity
  8
TEXT
  6
Continuous
 62
     0
100
AcDbBlockReference
  2
*B94
 10
0.0
 20
0.0
 30
0.0
  0
INSERT
  5
41D
100
AcDbEntity
  8
TEXT
  6
Continuous
 62
     0
100
AcDbBlockReference
  2
*B95
 10
0.0
 20
0.0
 30
0.0
  0
INSERT
  5
422
100
AcDbEntity
  8
TEXT
  6
Continuous
 62
     0
100
AcDbBlockReference
  2
*B96
 10
0.0
 20
0.0
 30
0.0
  0
INSERT
  5
427
100
AcDbEntity
  8
TEXT
  6
Continuous
 62
     0
100
AcDbBlockReference
  2
*B97
 10
0.0
 20
0.0
 30
0.0
  0
INSERT
  5
42C
100
AcDbEntity
  8
TEXT
  6
Continuous
 62
     0
100
AcDbBlockReference
  2
*B98
 10
0.0
 20
0.0
 30
0.0
  0
INSERT
  5
431
100
AcDbEntity
  8
TEXT
  6
Continuous
 62
     0
100
AcDbBlockReference
  2
*B99
 10
0.0
 20
0.0
 30
0.0
  0
INSERT
  5
436
100
AcDbEntity
  8
TEXT
  6
Continuous
 62
     0
100
AcDbBlockReference
  2
*B100
 10
0.0
 20
0.0
 30
0.0
  0
INSERT
  5
43B
100
AcDbEntity
  8
TEXT
  6
Continuous
 62
     0
100
AcDbBlockReference
  2
*B101
 10
0.0
 20
0.0
 30
0.0
  0
INSERT
  5
440
100
AcDbEntity
  8
TEXT
  6
Continuous
 62
     0
100
AcDbBlockReference
  2
*B102
 10
0.0
 20
0.0
 30
0.0
  0
INSERT
  5
445
100
AcDbEntity
  8
TEXT
  6
Continuous
 62
     0
100
AcDbBlockReference
  2
*B103
 10
0.0
 20
0.0
 30
0.0
  0
ENDSEC
  0
SECTION
  2
OBJECTS
  0
DICTIONARY
  5
19
100
AcDbDictionary
280
     0
281
     1
  3
ACAD_GROUP
350
1A
  3
ACAD_MLINESTYLE
350
1B
  3
ACAD_LAYOUT
350
1E
  3
ACAD_PLOTSETTINGS
350
22
  3
ACAD_PLOTSTYLENAME
350
1F
  3
ACAD_WIPEOUT_VARS
350
23
  0
DICTIONARY
  5
1A
102
{ACAD_REACTORS
330
19
102
}
100
AcDbDictionary
280
     0
281
     1
  0
DICTIONARY
  5
1B
102
{ACAD_REACTORS
330
19
102
}
100
AcDbDictionary
280
     0
281
     1
  3
Standard
350
1C
  0
MLINESTYLE
  5
1C
102
{ACAD_REACTORS
330
1B
102
}
100
AcDbMlineStyle
  2
Standard
 70
     0
  3

 62
     0
 51
90.0
 52
90.0
 71
     2
 49
0.5
 62
   256
  6
BYLAYER
 49
-0.5
 62
   256
  6
BYLAYER
  0
ACDBDICTIONARYWDFLT
  5
1F
102
{ACAD_REACTORS
330
19
102
}
100
AcDbDictionary
281
     1
  3
Normal
350
1D
100
AcDbDictionaryWithDefault
340
1D
  0
ACDBPLACEHOLDER
  5
1D
102
{ACAD_REACTORS
330
1F
102
}
  0
LAYOUT
  5
20
102
{ACAD_REACTORS
330
1E
102
}
100
AcDbPlotSettings
  1

  2

  4

  6

 40
0.0
 41
0.0
 42
0.0
 43
0.0
 44
0.0
 45
0.0
 46
0.0
 47
0.0
 48
0.0
 49
0.0
140
0.0
141
0.0
142
1.0
143
1.0
 70
     0
 72
     0
 73
     0
 74
     0
  7

 75
     0
147
1.0
148
0.0
149
0.0
100
AcDbLayout
  1
Model
 70
     0
 71
     0
 10
0.0
 20
0.0
 11
0.0
 21
0.0
 12
0.0
 22
0.0
 32
0.0
 14
0.0
 24
0.0
 34
0.0
 15
0.0
 25
0.0
 35
0.0
146
0.0
 13
0.0
 23
0.0
 33
0.0
 16
0.0
 26
0.0
 36
0.0
 17
0.0
 27
0.0
 37
0.0
 76
     0
330
A
331
0
345
0
346
0
  0
LAYOUT
  5
21
102
{ACAD_REACTORS
330
1E
102
}
100
AcDbPlotSettings
  1

  2

  4

  6

 40
0.0
 41
0.0
 42
0.0
 43
0.0
 44
0.0
 45
0.0
 46
0.0
 47
0.0
 48
0.0
 49
0.0
140
0.0
141
0.0
142
1.0
143
1.0
 70
     0
 72
     0
 73
     0
 74
     0
  7

 75
     0
147
1.0
148
0.0
149
0.0
100
AcDbLayout
  1
Layout1
 70
     0
 71
     0
 10
0.0
 20
0.0
 11
0.0
 21
0.0
 12
0.0
 22
0.0
 32
0.0
 14
0.0
 24
0.0
 34
0.0
 15
0.0
 25
0.0
 35
0.0
146
0.0
 13
0.0
 23
0.0
 33
0.0
 16
0.0
 26
0.0
 36
0.0
 17
0.0
 27
0.0
 37
0.0
 76
     0
330
B
331
0
345
0
346
0
  0
DICTIONARY
  5
1E
102
{ACAD_REACTORS
330
19
102
}
100
AcDbDictionary
280
     0
281
     1
  3
Layout1
350
21
  3
Model
350
20
  0
DICTIONARY
  5
22
102
{ACAD_REACTORS
330
19
102
}
100
AcDbDictionary
280
     0
281
     1
  0
WIPEOUTVARIABLES
  5
23
100
AcDbWipeoutVariables
 70
     1
  0
ENDSEC
  0
EOF
