  0
SECTION
  2
HEADER
  9
$ACADVER
  1
AC1015
  9
$ACADMAINTVER
 70
     6
  9
$DWGCODEPAGE
  3
DOS850
  9
$INSBASE
 10
0.0
 20
0.0
 30
0.0
  9
$EXTMIN
 10
0.0
 20
0.0
 30
0.0
  9
$EXTMAX
 10
420.0
 20
297.0
 30
0.0
  9
$LIMMIN
 10
0.0
 20
0.0
  9
$LIMMAX
 10
420.0
 20
297.0
  9
$ORTHOMODE
 70
     0
  9
$REGENMODE
 70
     1
  9
$FILLMODE
 70
     1
  9
$QTEXTMODE
 70
     0
  9
$MIRRTEXT
 70
     1
  9
$LTSCALE
 40
25.4
  9
$ATTMODE
 70
     1
  9
$TEXTSIZE
 40
3.5
  9
$TRACEWID
 40
0.05
  9
$TEXTSTYLE
  7
Standard
  9
$CLAYER
  8
0
  9
$CELTYPE
  6
Continuous
  9
$CECOLOR
 62
   256
  9
$CELTSCALE
 40
1.0
  9
$DISPSILH
 70
     0
  9
$DIMSCALE
 40
1.0
  9
$DIMASZ
 40
5.0
  9
$DIMEXO
 40
3.0
  9
$DIMDLI
 40
0.38
  9
$DIMRND
 40
0.0
  9
$DIMDLE
 40
0.0
  9
$DIMEXE
 40
2.0
  9
$DIMTP
 40
0.0
  9
$DIMTM
 40
0.0
  9
$DIMTXT
 40
3.5
  9
$DIMCEN
 40
4.0
  9
$DIMTSZ
 40
0.0
  9
$DIMTOL
 70
     0
  9
$DIMLIM
 70
     0
  9
$DIMTIH
 70
     1
  9
$DIMTOH
 70
     1
  9
$DIMSE1
 70
     0
  9
$DIMSE2
 70
     0
  9
$DIMTAD
 70
     0
  9
$DIMZIN
 70
     0
  9
$DIMBLK
  1

  9
$DIMASO
 70
     1
  9
$DIMSHO
 70
     1
  9
$DIMPOST
  1

  9
$DIMAPOST
  1

  9
$DIMALT
 70
     0
  9
$DIMALTD
 70
     2
  9
$DIMALTF
 40
25.4
  9
$DIMLFAC
 40
1.0
  9
$DIMTOFL
 70
     0
  9
$DIMTVP
 40
0.0
  9
$DIMTIX
 70
     0
  9
$DIMSOXD
 70
     0
  9
$DIMSAH
 70
     0
  9
$DIMBLK1
  1

  9
$DIMBLK2
  1

  9
$DIMSTYLE
  2
Standard
  9
$DIMCLRD
 70
     0
  9
$DIMCLRE
 70
     0
  9
$DIMCLRT
 70
     0
  9
$DIMTFAC
 40
1.0
  9
$DIMGAP
 40
1.0
  9
$DIMJUST
 70
     0
  9
$DIMSD1
 70
     0
  9
$DIMSD2
 70
     0
  9
$DIMTOLJ
 70
     1
  9
$DIMTZIN
 70
     0
  9
$DIMALTZ
 70
     0
  9
$DIMALTTZ
 70
     0
  9
$DIMUPT
 70
     0
  9
$DIMDEC
 70
     4
  9
$DIMTDEC
 70
     4
  9
$DIMALTU
 70
     2
  9
$DIMALTTD
 70
     2
  9
$DIMTXSTY
  7
Standard
  9
$DIMAUNIT
 70
     0
  9
$DIMADEC
 70
     0
  9
$DIMALTRND
 40
0.0
  9
$DIMAZIN
 70
     0
  9
$DIMDSEP
 70
     0
  9
$DIMATFIT
 70
     3
  9
$DIMFRAC
 70
     0
  9
$DIMLDRBLK
  1

  9
$DIMLUNIT
 70
     2
  9
$DIMLWD
 70
     0
  9
$DIMLWE
 70
     0
  9
$DIMTMOVE
 70
     0
  9
$LUNITS
 70
     2
  9
$LUPREC
 70
     4
  9
$SKETCHINC
 40
0.1
  9
$FILLETRAD
 40
0.0
  9
$AUNITS
 70
     0
  9
$AUPREC
 70
     0
  9
$MENU
  1
acad
  9
$ELEVATION
 40
0.0
  9
$PELEVATION
 40
0.0
  9
$THICKNESS
 40
0.0
  9
$LIMCHECK
 70
     0
  9
$CHAMFERA
 40
0.0
  9
$CHAMFERB
 40
0.0
  9
$CHAMFERC
 40
0.0
  9
$CHAMFERD
 40
0.0
  9
$SKPOLY
 70
     0
  9
$TDCREATE
 40
0.000000000
  9
$TDUCREATE
 40
0.000000000
  9
$TDUPDATE
 40
0.000000000
  9
$TDUUPDATE
 40
0.000000000
  9
$TDINDWG
 40
0.0000000000
  9
$TDUSRTIMER
 40
0.0000000000
  9
$USRTIMER
 70
     1
  9
$ANGBASE
 50
0.0
  9
$ANGDIR
 70
     0
  9
$PDMODE
 70
     0
  9
$PDSIZE
 40
0.0
  9
$PLINEWID
 40
0.0
  9
$SPLFRAME
 70
     0
  9
$SPLINETYPE
 70
     6
  9
$SPLINESEGS
 70
     8
  9
$HANDSEED
  5
3E6
  9
$SURFTAB1
 70
     6
  9
$SURFTAB2
 70
     6
  9
$SURFTYPE
 70
     6
  9
$SURFU
 70
     6
  9
$SURFV
 70
     6
  9
$UCSBASE
  2

  9
$UCSNAME
  2

  9
$UCSORG
 10
0.0
 20
0.0
 30
0.0
  9
$UCSXDIR
 10
1.0
 20
0.0
 30
0.0
  9
$UCSYDIR
 10
0.0
 20
1.0
 30
0.0
  9
$UCSORTHOREF
  2

  9
$UCSORTHOVIEW
 70
     0
  9
$UCSORGTOP
 10
0.0
 20
0.0
 30
0.0
  9
$UCSORGBOTTOM
 10
0.0
 20
0.0
 30
0.0
  9
$UCSORGLEFT
 10
0.0
 20
0.0
 30
0.0
  9
$UCSORGRIGHT
 10
0.0
 20
0.0
 30
0.0
  9
$UCSORGFRONT
 10
0.0
 20
0.0
 30
0.0
  9
$UCSORGBACK
 10
0.0
 20
0.0
 30
0.0
  9
$PUCSBASE
  2

  9
$PUCSNAME
  2

  9
$PUCSORG
 10
0.0
 20
0.0
 30
0.0
  9
$PUCSXDIR
 10
1.0
 20
0.0
 30
0.0
  9
$PUCSYDIR
 10
0.0
 20
1.0
 30
0.0
  9
$PUCSORTHOREF
  2

  9
$PUCSORTHOVIEW
 70
     0
  9
$PUCSORGTOP
 10
0.0
 20
0.0
 30
0.0
  9
$PUCSORGBOTTOM
 10
0.0
 20
0.0
 30
0.0
  9
$PUCSORGLEFT
 10
0.0
 20
0.0
 30
0.0
  9
$PUCSORGRIGHT
 10
0.0
 20
0.0
 30
0.0
  9
$PUCSORGFRONT
 10
0.0
 20
0.0
 30
0.0
  9
$PUCSORGBACK
 10
0.0
 20
0.0
 30
0.0
  9
$USERI1
 70
     0
  9
$USERI2
 70
     0
  9
$USERI3
 70
     0
  9
$USERI4
 70
     0
  9
$USERI5
 70
     0
  9
$USERR1
 40
0.0
  9
$USERR2
 40
0.0
  9
$USERR3
 40
0.0
  9
$USERR4
 40
0.0
  9
$USERR5
 40
0.0
  9
$WORLDVIEW
 70
     1
  9
$SHADEDGE
 70
     3
  9
$SHADEDIF
 70
    70
  9
$TILEMODE
 70
     1
  9
$MAXACTVP
 70
    16
  9
$PINSBASE
 10
0.0
 20
0.0
 30
0.0
  9
$PLIMCHECK
 70
     0
  9
$PEXTMIN
 10
1.000000E+20
 20
1.000000E+20
 30
1.000000E+20
  9
$PEXTMAX
 10
-1.000000E+20
 20
-1.000000E+20
 30
-1.000000E+20
  9
$PLIMMIN
 10
0.0
 20
0.0
  9
$PLIMMAX
 10
420.0
 20
297.0
  9
$UNITMODE
 70
     0
  9
$VISRETAIN
 70
     0
  9
$PLINEGEN
 70
     1
  9
$PSLTSCALE
 70
     0
  9
$TREEDEPTH
 70
  3020
  9
$CMLSTYLE
  2
Standard
  9
$CMLJUST
 70
     0
  9
$CMLSCALE
 40
1.0
  9
$PROXYGRAPHICS
 70
     0
  9
$MEASUREMENT
 70
     0
  9
$CELWEIGHT
370
     0
  9
$ENDCAPS
280
     0
  9
$JOINSTYLE
280
     0
  9
$LWDISPLAY
290
     0
  9
$INSUNITS
 70
     0
  9
$HYPERLINKBASE
  1

  9
$XEDIT
290
     1
  9
$CEPSNTYPE
380
     0
  9
$PSTYLEMODE
290
     0
  9
$FINGERPRINTGUID
  2

  9
$VERSIONGUID
  2

  9
$EXTNAMES
290
     1
  9
$PSVPSCALE
 40
0.0
  0
ENDSEC
  0
SECTION
  2
CLASSES
  0
CLASS
  1
LWPOLYLINE
  2
AcDbPolyline
  3
"AutoCAD"
 90
        0
280
     0
281
     1
  0
CLASS
  1
IMAGE
  2
AcDbRasterImage
  3
ISM
 90
      127
280
     0
281
     1
  0
CLASS
  1
OLE2FRAME
  2
AcDbOle2Frame
  3
""
 90
        0
280
     0
281
     1
  0
CLASS
  1
HATCH
  2
AcDbHatch
  3
"ACAD_SEDONA"
 90
        0
280
     0
281
     1
  0
CLASS
  1
DICTIONARYVAR
  2
AcDbDictionaryVar
  3
"AutoCAD"
 90
        0
280
     0
281
     0
  0
CLASS
  1
RASTERVARIABLES
  2
AcDbRasterVariables
  3
ISM
 90
        0
280
     0
281
     0
  0
CLASS
  1
IMAGEDEF
  2
AcDbRasterImageDef
  3
ISM
 90
        0
280
     0
281
     0
  0
CLASS
  1
IMAGEDEF_REACTOR
  2
AcDbRasterImageDefReactor
  3
ISM
 90
        1
280
     0
281
     0
  0
CLASS
  1
IDBUFFER
  2
AcDbIdBuffer
  3
"Acad"
 90
        0
280
     0
281
     0
  0
CLASS
  1
SPATIAL_FILTER
  2
AcDbSpatialFilter
  3
"Acad"
 90
        0
280
     0
281
     0
  0
CLASS
  1
XRECORD
  2
AcDbXrecord
  3
"<Built In>"
 90
        0
280
     0
281
     0
  0
CLASS
  1
SORTENTSTABLE
  2
AcDbSortentsTable
  3
"AutoCAD"
 90
        0
280
     0
281
     0
  0
CLASS
  1
LAYER_INDEX
  2
AcDbLayerIndex
  3
"Acad"
 90
        0
280
     0
281
     0
  0
CLASS
  1
SPATIAL_INDEX
  2
AcDbSpatialIndex
  3
"Acad"
 90
        0
280
     0
281
     0
  0
CLASS
  1
OBJECT_PTR
  2
CAseDLPNTableRecord
  3
"ASE-LPNTableRecord"
 90
        1
280
     0
281
     0
  0
CLASS
  1
LAYOUT
  2
AcDbLayout
  3
"AutoCAD 2000"
 90
        1
280
     0
281
     0
  0
CLASS
  1
PLOTSETTINGS
  2
AcDbPlotSettings
  3
"AutoCAD 2000"
 90
        1
280
     0
281
     0
  0
CLASS
  1
ACDBDICTIONARYWDFLT
  2
AcDbDictionaryWithDefault
  3
"AutoCAD 2000"
 90
        1
280
     0
281
     0
  0
CLASS
  1
ACDBPLACEHOLDER
  2
AcDbPlaceHolder
  3
"AutoCAD 2000"
 90
        1
280
     0
281
     0
  0
CLASS
  1
VBA_PROJECT
  2
AcDbVbaProject
  3
"acadvba"
 90
        1
280
     0
281
     0
  0
CLASS
  1
WIPEOUT
  2
AcDbWipeout
  3
WipeOut|AutoCAD Express Tool|expresstools@autodesk.com
 90
      127
280
     0
281
     1
  0
CLASS
  1
WIPEOUTVARIABLES
  2
AcDbWipeoutVariables
  3
WipeOut|AutoCAD Express Tool|expresstools@autodesk.com
 90
        0
280
     0
281
     0
  0
CLASS
  1
RTEXT
  2
RText
  3
RText|AutoCAD Express Tool|expresstools@autodesk.com
 90
        0
280
     0
281
     1
  0
CLASS
  1
ARCALIGNEDTEXT
  2
AcDbArcAlignedText
  3
ATEXT|AutoCAD Express Tool|expresstools@autodesk.com
 90
        0
280
     0
281
     1
  0
ENDSEC
  0
SECTION
  2
TABLES
  0
TABLE
  2
VPORT
  5
7
100
AcDbSymbolTable
 70
     1
  0
VPORT
  5
15
100
AcDbSymbolTableRecord
100
AcDbViewportTableRecord
  2
*ACTIVE
 70
     0
 10
0.0
 20
0.0
 11
1.0
 21
1.0
 12
6.591288
 22
4.579184
 13
0.0
 23
0.0
 14
1.0
 24
1.0
 15
0.0
 25
0.0
 16
0.0
 26
0.0
 36
1.0
 17
0.0
 27
0.0
 37
0.0
 40
9.158369
 41
0.688564
 42
50.0
 43
0.0
 44
0.0
 50
0.0
 51
0.0
 71
     0
 72
   100
 73
     1
 74
     1
 75
     0
 76
     0
 77
     0
 78
     0
281
     0
 65
     0
110
0.0
120
0.0
130
0.0
111
1.0
121
0.0
131
0.0
112
0.0
122
1.0
132
0.0
345
0
346
0
 79
     0
146
0.0
  0
ENDTAB
  0
TABLE
  2
LTYPE
  5
4
100
AcDbSymbolTable
 70
     7
  0
LTYPE
  5
11
100
AcDbSymbolTableRecord
100
AcDbLinetypeTableRecord
  2
ByBlock
 70
    64
  3

 72
    65
 73
     0
 40
0.0
  0
LTYPE
  5
12
100
AcDbSymbolTableRecord
100
AcDbLinetypeTableRecord
  2
ByLayer
 70
    64
  3

 72
    65
 73
     0
 40
0.0
  0
LTYPE
  5
13
100
AcDbSymbolTableRecord
100
AcDbLinetypeTableRecord
  2
Continuous
 70
    64
  3
Solid line
 72
    65
 73
     0
 40
0.0
  0
LTYPE
  5
24
100
AcDbSymbolTableRecord
100
AcDbLinetypeTableRecord
  2
HIDDEN
 70
    64
  3
_ _ _ _ _ _ _ _ _ _ _ _ _ _ _ _ _ _ _ _ _ _ _ _
 72
    65
 73
     2
 40
0.1875
 49
0.125
 74
     0
 49
-0.0625
 74
     0
  0
LTYPE
  5
25
100
AcDbSymbolTableRecord
100
AcDbLinetypeTableRecord
  2
DOTTED
 70
    64
  3
...............................................
 72
    65
 73
     2
 40
0.125
 49
0.0
 74
     0
 49
-0.125
 74
     0
  0
LTYPE
  5
26
100
AcDbSymbolTableRecord
100
AcDbLinetypeTableRecord
  2
CENTER
 70
    64
  3
____ _ ____ _ ____ _ ____ _ ____ _ ____ _ ____ 
 72
    65
 73
     4
 40
1.125
 49
0.75
 74
     0
 49
-0.125
 74
     0
 49
0.125
 74
     0
 49
-0.125
 74
     0
  0
LTYPE
  5
27
100
AcDbSymbolTableRecord
100
AcDbLinetypeTableRecord
  2
PHANTOM
 70
    64
  3
______  __  __  ______  __  __  ______  __  __ 
 72
    65
 73
     6
 40
1.25
 49
0.625
 74
     0
 49
-0.125
 74
     0
 49
0.125
 74
     0
 49
-0.125
 74
     0
 49
0.125
 74
     0
 49
-0.125
 74
     0
  0
ENDTAB
  0
TABLE
  2
LAYER
  5
2
100
AcDbSymbolTable
 70
     2
  0
LAYER
  5
14
100
AcDbSymbolTableRecord
100
AcDbLayerTableRecord
  2
0
 70
     0
 62
     7
  6
Continuous
290
     1
370
    -3
390
1D
  0
LAYER
  5
28
100
AcDbSymbolTableRecord
100
AcDbLayerTableRecord
  2
TEXT
 70
     0
 62
     8
  6
Continuous
290
     1
370
    -3
390
1F
  0
ENDTAB
  0
TABLE
  2
STYLE
  5
3
100
AcDbSymbolTable
 70
     1
  0
STYLE
  5
17
100
AcDbSymbolTableRecord
100
AcDbTextStyleTableRecord
  2
Standard
 70
     0
 40
0.0
 41
1.0
 50
0.0
 71
     0
 42
0.0
  3
txt
  4

  0
ENDTAB
  0
TABLE
  2
VIEW
  5
5
100
AcDbSymbolTable
 70
     0
  0
ENDTAB
  0
TABLE
  2
UCS
  5
6
100
AcDbSymbolTable
 70
     0
  0
ENDTAB
  0
TABLE
  2
APPID
  5
8
100
AcDbSymbolTable
 70
     1
  0
APPID
  5
16
100
AcDbSymbolTableRecord
100
AcDbRegAppTableRecord
  2
ACAD
 70
     0
  0
ENDTAB
  0
TABLE
  2
DIMSTYLE
  5
9
100
AcDbSymbolTable
 70
     1
100
AcDbDimStyleTable
 71
     0
  0
DIMSTYLE
105
18
100
AcDbSymbolTableRecord
100
AcDbDimStyleTableRecord
  2
Standard
 70
     0
  3

  4

 40
1.0
 41
0.18
 42
0.0625
 43
0.38
 44
0.18
 45
0.0
 46
0.0
 47
0.0
 48
0.0
 71
     0
 72
     0
 73
     1
 74
     1
 75
     0
 76
     0
 77
     0
 78
     0
 79
     0
140
0.18
141
0.09
142
0.0
143
25.4
144
1.0
145
0.0
146
1.0
147
0.09
148
0.0
170
     0
171
     2
172
     0
173
     0
174
     0
175
     0
176
     0
177
     0
178
     0
179
     0
271
     4
272
     4
273
     2
274
     2
275
     0
276
     0
277
     2
278
    46
279
     0
280
     0
281
     0
282
     0
283
     1
284
     0
285
     0
286
     0
288
     0
340
17
341
0
342
0
343
0
344
0
371
    -2
372
    -2
  0
ENDTAB
  0
TABLE
  2
BLOCK_RECORD
  5
1
100
AcDbSymbolTable
 70
    89
  0
BLOCK_RECORD
  5
A
100
AcDbSymbolTableRecord
100
AcDbBlockTableRecord
  2
*MODEL_SPACE
340
20
  0
BLOCK_RECORD
  5
B
100
AcDbSymbolTableRecord
100
AcDbBlockTableRecord
  2
*PAPER_SPACE
340
21
  0
BLOCK_RECORD
  5
29
100
AcDbSymbolTableRecord
100
AcDbBlockTableRecord
  2
*B0
340
0
  0
BLOCK_RECORD
  5
2C
100
AcDbSymbolTableRecord
100
AcDbBlockTableRecord
  2
*B1
340
0
  0
BLOCK_RECORD
  5
11E
100
AcDbSymbolTableRecord
100
AcDbBlockTableRecord
  2
*B2
340
0
  0
BLOCK_RECORD
  5
194
100
AcDbSymbolTableRecord
100
AcDbBlockTableRecord
  2
*B3
340
0
  0
BLOCK_RECORD
  5
19A
100
AcDbSymbolTableRecord
100
AcDbBlockTableRecord
  2
*B4
340
0
  0
BLOCK_RECORD
  5
1A5
100
AcDbSymbolTableRecord
100
AcDbBlockTableRecord
  2
*B5
340
0
  0
BLOCK_RECORD
  5
1A8
100
AcDbSymbolTableRecord
100
AcDbBlockTableRecord
  2
*B6
340
0
  0
BLOCK_RECORD
  5
1AE
100
AcDbSymbolTableRecord
100
AcDbBlockTableRecord
  2
*B7
340
0
  0
BLOCK_RECORD
  5
1B9
100
AcDbSymbolTableRecord
100
AcDbBlockTableRecord
  2
*B8
340
0
  0
BLOCK_RECORD
  5
1BC
100
AcDbSymbolTableRecord
100
AcDbBlockTableRecord
  2
*B9
340
0
  0
BLOCK_RECORD
  5
1C3
100
AcDbSymbolTableRecord
100
AcDbBlockTableRecord
  2
*B10
340
0
  0
BLOCK_RECORD
  5
1CA
100
AcDbSymbolTableRecord
100
AcDbBlockTableRecord
  2
*B11
340
0
  0
BLOCK_RECORD
  5
1D1
100
AcDbSymbolTableRecord
100
AcDbBlockTableRecord
  2
*B12
340
0
  0
BLOCK_RECORD
  5
1D8
100
AcDbSymbolTableRecord
100
AcDbBlockTableRecord
  2
*B13
340
0
  0
BLOCK_RECORD
  5
1DF
100
AcDbSymbolTableRecord
100
AcDbBlockTableRecord
  2
*B14
340
0
  0
BLOCK_RECORD
  5
1E6
100
AcDbSymbolTableRecord
100
AcDbBlockTableRecord
  2
*B15
340
0
  0
BLOCK_RECORD
  5
1ED
100
AcDbSymbolTableRecord
100
AcDbBlockTableRecord
  2
*B16
340
0
  0
BLOCK_RECORD
  5
1F4
100
AcDbSymbolTableRecord
100
AcDbBlockTableRecord
  2
*B17
340
0
  0
BLOCK_RECORD
  5
1FB
100
AcDbSymbolTableRecord
100
AcDbBlockTableRecord
  2
*B18
340
0
  0
BLOCK_RECORD
  5
202
100
AcDbSymbolTableRecord
100
AcDbBlockTableRecord
  2
*B19
340
0
  0
BLOCK_RECORD
  5
209
100
AcDbSymbolTableRecord
100
AcDbBlockTableRecord
  2
*B20
340
0
  0
BLOCK_RECORD
  5
210
100
AcDbSymbolTableRecord
100
AcDbBlockTableRecord
  2
*B21
340
0
  0
BLOCK_RECORD
  5
217
100
AcDbSymbolTableRecord
100
AcDbBlockTableRecord
  2
*B22
340
0
  0
BLOCK_RECORD
  5
21E
100
AcDbSymbolTableRecord
100
AcDbBlockTableRecord
  2
*B23
340
0
  0
BLOCK_RECORD
  5
225
100
AcDbSymbolTableRecord
100
AcDbBlockTableRecord
  2
*B24
340
0
  0
BLOCK_RECORD
  5
240
100
AcDbSymbolTableRecord
100
AcDbBlockTableRecord
  2
*B25
340
0
  0
BLOCK_RECORD
  5
246
100
AcDbSymbolTableRecord
100
AcDbBlockTableRecord
  2
*B26
340
0
  0
BLOCK_RECORD
  5
24C
100
AcDbSymbolTableRecord
100
AcDbBlockTableRecord
  2
*B27
340
0
  0
BLOCK_RECORD
  5
257
100
AcDbSymbolTableRecord
100
AcDbBlockTableRecord
  2
*B28
340
0
  0
BLOCK_RECORD
  5
25C
100
AcDbSymbolTableRecord
100
AcDbBlockTableRecord
  2
*B29
340
0
  0
BLOCK_RECORD
  5
261
100
AcDbSymbolTableRecord
100
AcDbBlockTableRecord
  2
*B30
340
0
  0
BLOCK_RECORD
  5
27A
100
AcDbSymbolTableRecord
100
AcDbBlockTableRecord
  2
*B31
340
0
  0
BLOCK_RECORD
  5
27F
100
AcDbSymbolTableRecord
100
AcDbBlockTableRecord
  2
*B32
340
0
  0
BLOCK_RECORD
  5
291
100
AcDbSymbolTableRecord
100
AcDbBlockTableRecord
  2
*B33
340
0
  0
BLOCK_RECORD
  5
296
100
AcDbSymbolTableRecord
100
AcDbBlockTableRecord
  2
*B34
340
0
  0
BLOCK_RECORD
  5
2A3
100
AcDbSymbolTableRecord
100
AcDbBlockTableRecord
  2
*B35
340
0
  0
BLOCK_RECORD
  5
2A9
100
AcDbSymbolTableRecord
100
AcDbBlockTableRecord
  2
*B36
340
0
  0
BLOCK_RECORD
  5
2AE
100
AcDbSymbolTableRecord
100
AcDbBlockTableRecord
  2
*B37
340
0
  0
BLOCK_RECORD
  5
2B4
100
AcDbSymbolTableRecord
100
AcDbBlockTableRecord
  2
*B38
340
0
  0
BLOCK_RECORD
  5
2BA
100
AcDbSymbolTableRecord
100
AcDbBlockTableRecord
  2
*B39
340
0
  0
BLOCK_RECORD
  5
2BF
100
AcDbSymbolTableRecord
100
AcDbBlockTableRecord
  2
*B40
340
0
  0
BLOCK_RECORD
  5
2C4
100
AcDbSymbolTableRecord
100
AcDbBlockTableRecord
  2
*B41
340
0
  0
BLOCK_RECORD
  5
2C9
100
AcDbSymbolTableRecord
100
AcDbBlockTableRecord
  2
*B42
340
0
  0
BLOCK_RECORD
  5
2CF
100
AcDbSymbolTableRecord
100
AcDbBlockTableRecord
  2
*B43
340
0
  0
BLOCK_RECORD
  5
2DB
100
AcDbSymbolTableRecord
100
AcDbBlockTableRecord
  2
*B44
340
0
  0
BLOCK_RECORD
  5
2E4
100
AcDbSymbolTableRecord
100
AcDbBlockTableRecord
  2
*B45
340
0
  0
BLOCK_RECORD
  5
2F6
100
AcDbSymbolTableRecord
100
AcDbBlockTableRecord
  2
*B46
340
0
  0
BLOCK_RECORD
  5
2FC
100
AcDbSymbolTableRecord
100
AcDbBlockTableRecord
  2
*B47
340
0
  0
BLOCK_RECORD
  5
303
100
AcDbSymbolTableRecord
100
AcDbBlockTableRecord
  2
*B48
340
0
  0
BLOCK_RECORD
  5
308
100
AcDbSymbolTableRecord
100
AcDbBlockTableRecord
  2
*B49
340
0
  0
BLOCK_RECORD
  5
30D
100
AcDbSymbolTableRecord
100
AcDbBlockTableRecord
  2
*B50
340
0
  0
BLOCK_RECORD
  5
313
100
AcDbSymbolTableRecord
100
AcDbBlockTableRecord
  2
*B51
340
0
  0
BLOCK_RECORD
  5
319
100
AcDbSymbolTableRecord
100
AcDbBlockTableRecord
  2
*B52
340
0
  0
BLOCK_RECORD
  5
31E
100
AcDbSymbolTableRecord
100
AcDbBlockTableRecord
  2
*B53
340
0
  0
BLOCK_RECORD
  5
326
100
AcDbSymbolTableRecord
100
AcDbBlockTableRecord
  2
*B54
340
0
  0
BLOCK_RECORD
  5
333
100
AcDbSymbolTableRecord
100
AcDbBlockTableRecord
  2
*B55
340
0
  0
BLOCK_RECORD
  5
339
100
AcDbSymbolTableRecord
100
AcDbBlockTableRecord
  2
*B56
340
0
  0
BLOCK_RECORD
  5
33F
100
AcDbSymbolTableRecord
100
AcDbBlockTableRecord
  2
*B57
340
0
  0
BLOCK_RECORD
  5
345
100
AcDbSymbolTableRecord
100
AcDbBlockTableRecord
  2
*B58
340
0
  0
BLOCK_RECORD
  5
34B
100
AcDbSymbolTableRecord
100
AcDbBlockTableRecord
  2
*B59
340
0
  0
BLOCK_RECORD
  5
351
100
AcDbSymbolTableRecord
100
AcDbBlockTableRecord
  2
*B60
340
0
  0
BLOCK_RECORD
  5
357
100
AcDbSymbolTableRecord
100
AcDbBlockTableRecord
  2
*B61
340
0
  0
BLOCK_RECORD
  5
35D
100
AcDbSymbolTableRecord
100
AcDbBlockTableRecord
  2
*B62
340
0
  0
BLOCK_RECORD
  5
363
100
AcDbSymbolTableRecord
100
AcDbBlockTableRecord
  2
*B63
340
0
  0
BLOCK_RECORD
  5
369
100
AcDbSymbolTableRecord
100
AcDbBlockTableRecord
  2
*B64
340
0
  0
BLOCK_RECORD
  5
36E
100
AcDbSymbolTableRecord
100
AcDbBlockTableRecord
  2
*B65
340
0
  0
BLOCK_RECORD
  5
373
100
AcDbSymbolTableRecord
100
AcDbBlockTableRecord
  2
*B66
340
0
  0
BLOCK_RECORD
  5
378
100
AcDbSymbolTableRecord
100
AcDbBlockTableRecord
  2
*B67
340
0
  0
BLOCK_RECORD
  5
37D
100
AcDbSymbolTableRecord
100
AcDbBlockTableRecord
  2
*B68
340
0
  0
BLOCK_RECORD
  5
382
100
AcDbSymbolTableRecord
100
AcDbBlockTableRecord
  2
*B69
340
0
  0
BLOCK_RECORD
  5
387
100
AcDbSymbolTableRecord
100
AcDbBlockTableRecord
  2
*B70
340
0
  0
BLOCK_RECORD
  5
38C
100
AcDbSymbolTableRecord
100
AcDbBlockTableRecord
  2
*B71
340
0
  0
BLOCK_RECORD
  5
391
100
AcDbSymbolTableRecord
100
AcDbBlockTableRecord
  2
*B72
340
0
  0
BLOCK_RECORD
  5
396
100
AcDbSymbolTableRecord
100
AcDbBlockTableRecord
  2
*B73
340
0
  0
BLOCK_RECORD
  5
39B
100
AcDbSymbolTableRecord
100
AcDbBlockTableRecord
  2
*B74
340
0
  0
BLOCK_RECORD
  5
3A0
100
AcDbSymbolTableRecord
100
AcDbBlockTableRecord
  2
*B75
340
0
  0
BLOCK_RECORD
  5
3A5
100
AcDbSymbolTableRecord
100
AcDbBlockTableRecord
  2
*B76
340
0
  0
BLOCK_RECORD
  5
3AA
100
AcDbSymbolTableRecord
100
AcDbBlockTableRecord
  2
*B77
340
0
  0
BLOCK_RECORD
  5
3AF
100
AcDbSymbolTableRecord
100
AcDbBlockTableRecord
  2
*B78
340
0
  0
BLOCK_RECORD
  5
3B4
100
AcDbSymbolTableRecord
100
AcDbBlockTableRecord
  2
*B79
340
0
  0
BLOCK_RECORD
  5
3B9
100
AcDbSymbolTableRecord
100
AcDbBlockTableRecord
  2
*B80
340
0
  0
BLOCK_RECORD
  5
3BE
100
AcDbSymbolTableRecord
100
AcDbBlockTableRecord
  2
*B81
340
0
  0
BLOCK_RECORD
  5
3C3
100
AcDbSymbolTableRecord
100
AcDbBlockTableRecord
  2
*B82
340
0
  0
BLOCK_RECORD
  5
3C8
100
AcDbSymbolTableRecord
100
AcDbBlockTableRecord
  2
*B83
340
0
  0
BLOCK_RECORD
  5
3CD
100
AcDbSymbolTableRecord
100
AcDbBlockTableRecord
  2
*B84
340
0
  0
BLOCK_RECORD
  5
3D2
100
AcDbSymbolTableRecord
100
AcDbBlockTableRecord
  2
*B85
340
0
  0
BLOCK_RECORD
  5
3D7
100
AcDbSymbolTableRecord
100
AcDbBlockTableRecord
  2
*B86
340
0
  0
BLOCK_RECORD
  5
3DC
100
AcDbSymbolTableRecord
100
AcDbBlockTableRecord
  2
*B87
340
0
  0
BLOCK_RECORD
  5
3E1
100
AcDbSymbolTableRecord
100
AcDbBlockTableRecord
  2
*B88
340
0
  0
ENDTAB
  0
ENDSEC
  0
SECTION
  2
BLOCKS
  0
BLOCK
  5
D
100
AcDbEntity
  8
0
100
AcDbBlockBegin
  2
*MODEL_SPACE
 70
     0
 10
0.0
 20
0.0
 30
0.0
  3
*MODEL_SPACE
  1

  0
ENDBLK
  5
E
100
AcDbEntity
  8
0
100
AcDbBlockEnd
  0
BLOCK
  5
F
100
AcDbEntity
 67
     1
  8
0
100
AcDbBlockBegin
  2
*PAPER_SPACE
 70
     0
 10
0.0
 20
0.0
 30
0.0
  3
*PAPER_SPACE
  1

  0
ENDBLK
  5
10
100
AcDbEntity
 67
     1
  8
0
100
AcDbBlockEnd
  0
BLOCK
  5
2A
100
AcDbEntity
  8
0
100
AcDbBlockBegin
  2
*B0
 70
     0
 10
0.0
 20
0.0
 30
0.0
  3
*B0
  1

  0
ENDBLK
  5
2B
100
AcDbEntity
  8
0
100
AcDbBlockEnd
  0
BLOCK
  5
2D
100
AcDbEntity
  8
0
100
AcDbBlockBegin
  2
*B1
 70
     0
 10
0.0
 20
0.0
 30
0.0
  3
*B1
  1

  0
LINE
  5
2E
100
AcDbEntity
  8
0
  6
HIDDEN
 62
   174
100
AcDbLine
 10
177.946526
 20
241.057764
 30
0.0
 11
177.507662
 21
241.057764
 31
0.0
  0
LINE
  5
2F
100
AcDbEntity
  8
0
  6
HIDDEN
 62
   174
100
AcDbLine
 10
175.690258
 20
241.057764
 30
0.0
 11
173.713075
 21
241.057764
 31
0.0
  0
LINE
  5
30
100
AcDbEntity
  8
0
  6
HIDDEN
 62
   174
100
AcDbLine
 10
177.507662
 20
241.057764
 30
0.0
 11
175.690258
 21
241.057764
 31
0.0
  0
LINE
  5
31
100
AcDbEntity
  8
0
  6
Continuous
 62
   174
100
AcDbLine
 10
149.190258
 20
239.557764
 30
0.0
 11
146.190258
 21
239.557764
 31
0.0
  0
LINE
  5
32
100
AcDbEntity
  8
0
  6
Continuous
 62
   174
100
AcDbLine
 10
149.190258
 20
226.557764
 30
0.0
 11
146.190258
 21
226.557764
 31
0.0
  0
LINE
  5
33
100
AcDbEntity
  8
0
  6
HIDDEN
 62
   174
100
AcDbLine
 10
218.84079
 20
182.057764
 30
0.0
 11
230.590925
 21
182.057764
 31
0.0
  0
LINE
  5
34
100
AcDbEntity
  8
0
  6
Continuous
 62
   174
100
AcDbLine
 10
146.190258
 20
242.057764
 30
0.0
 11
145.490258
 21
242.057764
 31
0.0
  0
LINE
  5
35
100
AcDbEntity
  8
0
  6
Continuous
 62
   174
100
AcDbLine
 10
146.190258
 20
224.057764
 30
0.0
 11
145.490258
 21
224.057764
 31
0.0
  0
LINE
  5
36
100
AcDbEntity
  8
0
  6
HIDDEN
 62
   174
100
AcDbLine
 10
240.840826
 20
182.057764
 30
0.0
 11
252.590961
 21
182.057764
 31
0.0
  0
LINE
  5
37
100
AcDbEntity
  8
0
  6
Continuous
 62
   174
100
AcDbLine
 10
141.690258
 20
225.257764
 30
0.0
 11
142.357512
 21
224.102046
 31
0.0
  0
LINE
  5
38
100
AcDbEntity
  8
0
  6
HIDDEN
 62
   174
100
AcDbLine
 10
262.840862
 20
182.057764
 30
0.0
 11
274.590998
 21
182.057764
 31
0.0
  0
LINE
  5
39
100
AcDbEntity
  8
0
  6
HIDDEN
 62
   174
100
AcDbLine
 10
218.815258
 20
181.057764
 30
0.0
 11
218.815258
 21
170.057764
 31
0.0
  0
LINE
  5
3A
100
AcDbEntity
  8
0
  6
HIDDEN
 62
   174
100
AcDbLine
 10
231.270258
 20
181.057764
 30
0.0
 11
231.270258
 21
170.057764
 31
0.0
  0
LINE
  5
3B
100
AcDbEntity
  8
0
  6
HIDDEN
 62
   174
100
AcDbLine
 10
230.565258
 20
170.057764
 30
0.0
 11
230.565258
 21
182.057764
 31
0.0
  0
LINE
  5
3C
100
AcDbEntity
  8
0
  6
HIDDEN
 62
   174
100
AcDbLine
 10
274.565258
 20
170.057764
 30
0.0
 11
274.565258
 21
182.057764
 31
0.0
  0
LINE
  5
3D
100
AcDbEntity
  8
0
  6
HIDDEN
 62
   174
100
AcDbLine
 10
274.565258
 20
181.057764
 30
0.0
 11
274.565258
 21
170.057764
 31
0.0
  0
LINE
  5
3E
100
AcDbEntity
  8
0
  6
HIDDEN
 62
   174
100
AcDbLine
 10
252.590961
 20
170.057764
 30
0.0
 11
240.840826
 21
170.057764
 31
0.0
  0
LINE
  5
3F
100
AcDbEntity
  8
0
  6
HIDDEN
 62
   174
100
AcDbLine
 10
274.590998
 20
170.057764
 30
0.0
 11
262.840862
 21
170.057764
 31
0.0
  0
LINE
  5
40
100
AcDbEntity
  8
0
  6
Continuous
 62
   174
100
AcDbLine
 10
149.190258
 20
241.057764
 30
0.0
 11
164.190258
 21
241.057764
 31
0.0
  0
LINE
  5
41
100
AcDbEntity
  8
0
  6
Continuous
 62
   174
100
AcDbLine
 10
286.690258
 20
220.057764
 30
0.0
 11
206.690258
 21
220.057764
 31
0.0
  0
LINE
  5
42
100
AcDbEntity
  8
0
  6
HIDDEN
 62
   174
100
AcDbLine
 10
160.690258
 20
195.095086
 30
0.0
 11
160.690258
 21
205.094447
 31
0.0
  0
LINE
  5
43
100
AcDbEntity
  8
0
  6
HIDDEN
 62
   174
100
AcDbLine
 10
146.190258
 20
233.092418
 30
0.0
 11
146.190258
 21
226.592803
 31
0.0
  0
LINE
  5
44
100
AcDbEntity
  8
0
  6
Continuous
 62
   174
100
AcDbLine
 10
145.490258
 20
228.480104
 30
0.0
 11
142.383078
 21
228.480104
 31
0.0
  0
LINE
  5
45
100
AcDbEntity
  8
0
  6
HIDDEN
 62
   174
100
AcDbLine
 10
159.190258
 20
192.561131
 30
0.0
 11
159.190258
 21
197.561131
 31
0.0
  0
LINE
  5
46
100
AcDbEntity
  8
0
  6
HIDDEN
 62
   174
100
AcDbLine
 10
230.565258
 20
170.057764
 30
0.0
 11
230.565258
 21
182.057764
 31
0.0
  0
LINE
  5
47
100
AcDbEntity
  8
0
  6
HIDDEN
 62
   174
100
AcDbLine
 10
240.110258
 20
181.057764
 30
0.0
 11
240.110258
 21
170.057764
 31
0.0
  0
LINE
  5
48
100
AcDbEntity
  8
0
  6
HIDDEN
 62
   174
100
AcDbLine
 10
240.815258
 20
181.057764
 30
0.0
 11
240.815258
 21
170.057764
 31
0.0
  0
LINE
  5
49
100
AcDbEntity
  8
0
  6
Continuous
 62
   174
100
AcDbLine
 10
206.690258
 20
220.057764
 30
0.0
 11
190.690258
 21
220.057764
 31
0.0
  0
LINE
  5
4A
100
AcDbEntity
  8
0
  6
HIDDEN
 62
   174
100
AcDbLine
 10
253.270258
 20
181.057764
 30
0.0
 11
253.270258
 21
170.057764
 31
0.0
  0
LINE
  5
4B
100
AcDbEntity
  8
0
  6
HIDDEN
 62
   174
100
AcDbLine
 10
240.110258
 20
181.057764
 30
0.0
 11
240.110258
 21
170.057764
 31
0.0
  0
LINE
  5
4C
100
AcDbEntity
  8
0
  6
Continuous
 62
   174
100
AcDbLine
 10
206.690258
 20
220.057764
 30
0.0
 11
206.690258
 21
170.057764
 31
0.0
  0
LINE
  5
4D
100
AcDbEntity
  8
0
  6
Continuous
 62
   174
100
AcDbLine
 10
190.690258
 20
170.057764
 30
0.0
 11
190.690258
 21
220.057764
 31
0.0
  0
LINE
  5
4E
100
AcDbEntity
  8
0
  6
Continuous
 62
   174
100
AcDbLine
 10
146.190258
 20
226.378613
 30
0.0
 11
146.190258
 21
233.092418
 31
0.0
  0
LINE
  5
4F
100
AcDbEntity
  8
0
  6
HIDDEN
 62
   174
100
AcDbLine
 10
159.190258
 20
200.139359
 30
0.0
 11
159.190258
 21
203.673409
 31
0.0
  0
LINE
  5
50
100
AcDbEntity
  8
0
  6
Continuous
 62
   174
100
AcDbLine
 10
145.490258
 20
224.058213
 30
0.0
 11
142.383078
 21
224.058213
 31
0.0
  0
LINE
  5
51
100
AcDbEntity
  8
0
  6
Continuous
 62
   174
100
AcDbLine
 10
142.383078
 20
224.058213
 30
0.0
 11
142.355605
 21
224.10705
 31
0.0
  0
LINE
  5
52
100
AcDbEntity
  8
0
  6
HIDDEN
 62
   174
100
AcDbLine
 10
231.270258
 20
181.057764
 30
0.0
 11
231.270258
 21
170.057764
 31
0.0
  0
LINE
  5
53
100
AcDbEntity
  8
0
  6
HIDDEN
 62
   174
100
AcDbLine
 10
230.565258
 20
181.057764
 30
0.0
 11
230.565258
 21
170.057764
 31
0.0
  0
LINE
  5
54
100
AcDbEntity
  8
0
  6
HIDDEN
 62
   174
100
AcDbLine
 10
274.565258
 20
170.057764
 30
0.0
 11
274.565258
 21
182.057764
 31
0.0
  0
LINE
  5
55
100
AcDbEntity
  8
0
  6
HIDDEN
 62
   174
100
AcDbLine
 10
240.815258
 20
170.057764
 30
0.0
 11
240.815258
 21
182.057764
 31
0.0
  0
LINE
  5
56
100
AcDbEntity
  8
0
  6
Continuous
 62
   174
100
AcDbLine
 10
206.690258
 20
170.057764
 30
0.0
 11
206.690258
 21
220.057764
 31
0.0
  0
LINE
  5
57
100
AcDbEntity
  8
0
  6
Continuous
 62
   174
100
AcDbLine
 10
190.190258
 20
238.057764
 30
0.0
 11
190.190258
 21
212.057764
 31
0.0
  0
LINE
  5
58
100
AcDbEntity
  8
0
  6
HIDDEN
 62
   174
100
AcDbLine
 10
149.190258
 20
239.591732
 30
0.0
 11
149.190258
 21
233.092418
 31
0.0
  0
LINE
  5
59
100
AcDbEntity
  8
0
  6
HIDDEN
 62
   174
100
AcDbLine
 10
146.190258
 20
239.591732
 30
0.0
 11
146.190258
 21
233.092418
 31
0.0
  0
LINE
  5
5A
100
AcDbEntity
  8
0
  6
Continuous
 62
   174
100
AcDbLine
 10
145.490258
 20
228.51511
 30
0.0
 11
145.490258
 21
224.093413
 31
0.0
  0
LINE
  5
5B
100
AcDbEntity
  8
0
  6
HIDDEN
 62
   174
100
AcDbLine
 10
145.490258
 20
228.635873
 30
0.0
 11
142.383078
 21
228.635873
 31
0.0
  0
LWPOLYLINE
  5
5C
100
AcDbEntity
  8
0
  6
HIDDEN
 62
   174
100
AcDbPolyline
 90
        4
 70
   128
 10
142.383078
 20
228.635873
 10
142.055177
 20
228.009466
 10
141.822423
 20
227.398053
 10
141.690258
 20
226.792849
  0
LINE
  5
5D
100
AcDbEntity
  8
0
  6
HIDDEN
 62
   174
100
AcDbLine
 10
218.815258
 20
170.057764
 30
0.0
 11
218.815258
 21
182.057764
 31
0.0
  0
LINE
  5
5E
100
AcDbEntity
  8
0
  6
HIDDEN
 62
   174
100
AcDbLine
 10
230.565258
 20
181.057764
 30
0.0
 11
230.565258
 21
170.057764
 31
0.0
  0
LINE
  5
5F
100
AcDbEntity
  8
0
  6
HIDDEN
 62
   174
100
AcDbLine
 10
218.815258
 20
181.057764
 30
0.0
 11
218.815258
 21
170.057764
 31
0.0
  0
LINE
  5
60
100
AcDbEntity
  8
0
  6
HIDDEN
 62
   174
100
AcDbLine
 10
262.815258
 20
181.057764
 30
0.0
 11
262.815258
 21
170.057764
 31
0.0
  0
LINE
  5
61
100
AcDbEntity
  8
0
  6
HIDDEN
 62
   174
100
AcDbLine
 10
275.270258
 20
181.057764
 30
0.0
 11
275.270258
 21
170.057764
 31
0.0
  0
LINE
  5
62
100
AcDbEntity
  8
0
  6
HIDDEN
 62
   174
100
AcDbLine
 10
262.815258
 20
170.057764
 30
0.0
 11
262.815258
 21
182.057764
 31
0.0
  0
LINE
  5
63
100
AcDbEntity
  8
0
  6
Continuous
 62
   174
100
AcDbLine
 10
141.690258
 20
240.857764
 30
0.0
 11
142.357534
 21
242.013521
 31
0.0
  0
LINE
  5
64
100
AcDbEntity
  8
0
  6
HIDDEN
 62
   174
100
AcDbLine
 10
253.270258
 20
181.057764
 30
0.0
 11
253.270258
 21
170.057764
 31
0.0
  0
LINE
  5
65
100
AcDbEntity
  8
0
  6
HIDDEN
 62
   174
100
AcDbLine
 10
240.13577
 20
170.057764
 30
0.0
 11
253.296018
 21
170.057764
 31
0.0
  0
LINE
  5
66
100
AcDbEntity
  8
0
  6
HIDDEN
 62
   174
100
AcDbLine
 10
240.13577
 20
181.057764
 30
0.0
 11
253.296018
 21
181.057764
 31
0.0
  0
LINE
  5
67
100
AcDbEntity
  8
0
  6
HIDDEN
 62
   174
100
AcDbLine
 10
161.190258
 20
225.057764
 30
0.0
 11
161.190258
 21
212.057764
 31
0.0
  0
LINE
  5
68
100
AcDbEntity
  8
0
  6
Continuous
 62
   174
100
AcDbLine
 10
286.690258
 20
170.057764
 30
0.0
 11
286.690258
 21
220.057764
 31
0.0
  0
LINE
  5
69
100
AcDbEntity
  8
0
  6
Continuous
 62
   174
100
AcDbLine
 10
149.190258
 20
241.091666
 30
0.0
 11
149.190258
 21
239.698377
 31
0.0
  0
LINE
  5
6A
100
AcDbEntity
  8
0
  6
Continuous
 62
   174
100
AcDbLine
 10
149.190258
 20
233.092418
 30
0.0
 11
149.190258
 21
226.485858
 31
0.0
  0
LINE
  5
6B
100
AcDbEntity
  8
0
  6
Continuous
 62
   174
100
AcDbLine
 10
145.490258
 20
237.669725
 30
0.0
 11
145.490258
 21
233.092418
 31
0.0
  0
LINE
  5
6C
100
AcDbEntity
  8
0
  6
Continuous
 62
   174
100
AcDbLine
 10
145.490258
 20
233.092418
 30
0.0
 11
145.490258
 21
228.51511
 31
0.0
  0
LINE
  5
6D
100
AcDbEntity
  8
0
  6
Continuous
 62
   174
100
AcDbLine
 10
145.490258
 20
242.091122
 30
0.0
 11
145.490258
 21
237.669725
 31
0.0
  0
LINE
  5
6E
100
AcDbEntity
  8
0
  6
Continuous
 62
   174
100
AcDbLine
 10
142.3564
 20
224.105639
 30
0.0
 11
141.839598
 21
225.335934
 31
0.0
  0
LINE
  5
6F
100
AcDbEntity
  8
0
  6
HIDDEN
 62
   174
100
AcDbLine
 10
145.490258
 20
228.635873
 30
0.0
 11
145.490258
 21
224.058213
 31
0.0
  0
LINE
  5
70
100
AcDbEntity
  8
0
  6
Continuous
 62
   174
100
AcDbLine
 10
141.690258
 20
232.200809
 30
0.0
 11
141.690258
 21
225.29294
 31
0.0
  0
LINE
  5
71
100
AcDbEntity
  8
0
  6
HIDDEN
 62
   174
100
AcDbLine
 10
218.815258
 20
170.057764
 30
0.0
 11
218.815258
 21
182.057764
 31
0.0
  0
LINE
  5
72
100
AcDbEntity
  8
0
  6
HIDDEN
 62
   174
100
AcDbLine
 10
275.270258
 20
181.057764
 30
0.0
 11
275.270258
 21
170.057764
 31
0.0
  0
LINE
  5
73
100
AcDbEntity
  8
0
  6
HIDDEN
 62
   174
100
AcDbLine
 10
262.135806
 20
181.057764
 30
0.0
 11
275.295753
 21
181.057764
 31
0.0
  0
LINE
  5
74
100
AcDbEntity
  8
0
  6
HIDDEN
 62
   174
100
AcDbLine
 10
262.815258
 20
170.057764
 30
0.0
 11
262.815258
 21
182.057764
 31
0.0
  0
LINE
  5
75
100
AcDbEntity
  8
0
  6
HIDDEN
 62
   174
100
AcDbLine
 10
252.565258
 20
181.057764
 30
0.0
 11
252.565258
 21
170.057764
 31
0.0
  0
LINE
  5
76
100
AcDbEntity
  8
0
  6
Continuous
 62
   174
100
AcDbLine
 10
149.190258
 20
225.057764
 30
0.0
 11
161.190258
 21
225.057764
 31
0.0
  0
LINE
  5
77
100
AcDbEntity
  8
0
  6
Continuous
 62
   174
100
AcDbLine
 10
206.690258
 20
170.057764
 30
0.0
 11
190.690258
 21
170.057764
 31
0.0
  0
LINE
  5
78
100
AcDbEntity
  8
0
  6
Continuous
 62
   174
100
AcDbLine
 10
146.190258
 20
224.093113
 30
0.0
 11
146.190258
 21
226.378613
 31
0.0
  0
LWPOLYLINE
  5
79
100
AcDbEntity
  8
0
  6
Continuous
 62
   174
100
AcDbPolyline
 90
        4
 70
   128
 10
142.383078
 20
228.480104
 10
142.055177
 20
229.732919
 10
141.822424
 20
230.95574
 10
141.690258
 20
232.166153
  0
LINE
  5
7A
100
AcDbEntity
  8
0
  6
Continuous
 62
   174
100
AcDbLine
 10
141.690258
 20
232.166153
 30
0.0
 11
141.690258
 21
233.949375
 31
0.0
  0
LINE
  5
7B
100
AcDbEntity
  8
0
  6
HIDDEN
 62
   174
100
AcDbLine
 10
218.110258
 20
181.057764
 30
0.0
 11
218.110258
 21
170.057764
 31
0.0
  0
LINE
  5
7C
100
AcDbEntity
  8
0
  6
HIDDEN
 62
   174
100
AcDbLine
 10
218.110258
 20
181.057764
 30
0.0
 11
218.110258
 21
170.057764
 31
0.0
  0
LINE
  5
7D
100
AcDbEntity
  8
0
  6
HIDDEN
 62
   174
100
AcDbLine
 10
262.815258
 20
181.057764
 30
0.0
 11
262.815258
 21
170.057764
 31
0.0
  0
LINE
  5
7E
100
AcDbEntity
  8
0
  6
HIDDEN
 62
   174
100
AcDbLine
 10
240.815258
 20
170.057764
 30
0.0
 11
240.815258
 21
182.057764
 31
0.0
  0
LINE
  5
7F
100
AcDbEntity
  8
0
  6
HIDDEN
 62
   174
100
AcDbLine
 10
252.565258
 20
170.057764
 30
0.0
 11
252.565258
 21
182.057764
 31
0.0
  0
LINE
  5
80
100
AcDbEntity
  8
0
  6
HIDDEN
 62
   174
100
AcDbLine
 10
230.590925
 20
170.057764
 30
0.0
 11
218.84079
 21
170.057764
 31
0.0
  0
LINE
  5
81
100
AcDbEntity
  8
0
  6
Continuous
 62
   174
100
AcDbLine
 10
149.190258
 20
226.485858
 30
0.0
 11
149.190258
 21
225.092869
 31
0.0
  0
LINE
  5
82
100
AcDbEntity
  8
0
  6
Continuous
 62
   174
100
AcDbLine
 10
149.190258
 20
239.698377
 30
0.0
 11
149.190258
 21
233.092418
 31
0.0
  0
LINE
  5
83
100
AcDbEntity
  8
0
  6
Continuous
 62
   174
100
AcDbLine
 10
146.190258
 20
233.092418
 30
0.0
 11
146.190258
 21
239.806523
 31
0.0
  0
LINE
  5
84
100
AcDbEntity
  8
0
  6
Continuous
 62
   174
100
AcDbLine
 10
146.190258
 20
239.806523
 30
0.0
 11
146.190258
 21
242.091722
 31
0.0
  0
LINE
  5
85
100
AcDbEntity
  8
0
  6
Continuous
 62
   174
100
AcDbLine
 10
152.990258
 20
204.776616
 30
0.0
 11
152.990258
 21
203.708367
 31
0.0
  0
LINE
  5
86
100
AcDbEntity
  8
0
  6
Continuous
 62
   174
100
AcDbLine
 10
152.990258
 20
200.173173
 30
0.0
 11
152.990258
 21
197.594776
 31
0.0
  0
LINE
  5
87
100
AcDbEntity
  8
0
  6
Continuous
 62
   174
100
AcDbLine
 10
152.990258
 20
192.595096
 30
0.0
 11
152.990258
 21
190.016398
 31
0.0
  0
LINE
  5
88
100
AcDbEntity
  8
0
  6
Continuous
 62
   174
100
AcDbLine
 10
152.990258
 20
186.480904
 30
0.0
 11
152.990258
 21
185.412955
 31
0.0
  0
LWPOLYLINE
  5
89
100
AcDbEntity
  8
0
  6
Continuous
 62
   174
100
AcDbPolyline
 90
        6
 70
   128
 10
141.839598
 20
225.335934
 10
141.788853
 20
225.54695
 10
141.71195
 20
226.269199
 10
141.788868
 20
226.991438
 10
142.016969
 20
227.728457
 10
142.383078
 20
228.480104
  0
LWPOLYLINE
  5
8A
100
AcDbEntity
  8
0
  6
HIDDEN
 62
   174
100
AcDbPolyline
 90
        4
 70
   128
 10
141.690258
 20
225.901238
 10
141.823378
 20
225.292879
 10
142.056461
 20
224.681804
 10
142.354357
 20
224.107515
  0
LINE
  5
8B
100
AcDbEntity
  8
0
  6
HIDDEN
 62
   174
100
AcDbLine
 10
218.136034
 20
181.057764
 30
0.0
 11
231.295981
 21
181.057764
 31
0.0
  0
LINE
  5
8C
100
AcDbEntity
  8
0
  6
HIDDEN
 62
   174
100
AcDbLine
 10
218.136034
 20
170.057764
 30
0.0
 11
231.295981
 21
170.057764
 31
0.0
  0
LINE
  5
8D
100
AcDbEntity
  8
0
  6
HIDDEN
 62
   174
100
AcDbLine
 10
262.135806
 20
170.057764
 30
0.0
 11
275.295753
 21
170.057764
 31
0.0
  0
LINE
  5
8E
100
AcDbEntity
  8
0
  6
HIDDEN
 62
   174
100
AcDbLine
 10
262.110258
 20
181.057764
 30
0.0
 11
262.110258
 21
170.057764
 31
0.0
  0
LINE
  5
8F
100
AcDbEntity
  8
0
  6
HIDDEN
 62
   174
100
AcDbLine
 10
262.110258
 20
181.057764
 30
0.0
 11
262.110258
 21
170.057764
 31
0.0
  0
LINE
  5
90
100
AcDbEntity
  8
0
  6
HIDDEN
 62
   174
100
AcDbLine
 10
274.565258
 20
181.057764
 30
0.0
 11
274.565258
 21
170.057764
 31
0.0
  0
LINE
  5
91
100
AcDbEntity
  8
0
  6
HIDDEN
 62
   174
100
AcDbLine
 10
240.815258
 20
181.057764
 30
0.0
 11
240.815258
 21
170.057764
 31
0.0
  0
LINE
  5
92
100
AcDbEntity
  8
0
  6
HIDDEN
 62
   174
100
AcDbLine
 10
252.565258
 20
170.057764
 30
0.0
 11
252.565258
 21
182.057764
 31
0.0
  0
LINE
  5
93
100
AcDbEntity
  8
0
  6
HIDDEN
 62
   174
100
AcDbLine
 10
252.565258
 20
181.057764
 30
0.0
 11
252.565258
 21
170.057764
 31
0.0
  0
LINE
  5
94
100
AcDbEntity
  8
0
  6
HIDDEN
 62
   174
100
AcDbLine
 10
161.190258
 20
230.273882
 30
0.0
 11
161.190258
 21
225.057764
 31
0.0
  0
LINE
  5
95
100
AcDbEntity
  8
0
  6
Continuous
 62
   174
100
AcDbLine
 10
206.690258
 20
170.057764
 30
0.0
 11
286.690258
 21
170.057764
 31
0.0
  0
LINE
  5
96
100
AcDbEntity
  8
0
  6
HIDDEN
 62
   174
100
AcDbLine
 10
160.690258
 20
185.095725
 30
0.0
 11
160.690258
 21
195.095086
 31
0.0
  0
LINE
  5
97
100
AcDbEntity
  8
0
  6
HIDDEN
 62
   174
100
AcDbLine
 10
149.190258
 20
226.592803
 30
0.0
 11
149.190258
 21
233.092418
 31
0.0
  0
LWPOLYLINE
  5
98
100
AcDbEntity
  8
0
  6
Continuous
 62
   174
100
AcDbPolyline
 90
        4
 70
   128
 10
141.690258
 20
233.949375
 10
141.823378
 20
235.166091
 10
142.056463
 20
236.388254
 10
142.383078
 20
237.635424
  0
LINE
  5
99
100
AcDbEntity
  8
0
  6
Continuous
 62
   174
100
AcDbLine
 10
142.383078
 20
237.635424
 30
0.0
 11
145.490258
 21
237.635424
 31
0.0
  0
LINE
  5
9A
100
AcDbEntity
  8
0
  6
HIDDEN
 62
   174
100
AcDbLine
 10
142.354271
 20
224.107663
 30
0.0
 11
142.383078
 21
224.058213
 31
0.0
  0
LINE
  5
9B
100
AcDbEntity
  8
0
  6
HIDDEN
 62
   174
100
AcDbLine
 10
161.190258
 20
225.092869
 30
0.0
 11
161.190258
 21
230.308542
 31
0.0
  0
LINE
  5
9C
100
AcDbEntity
  8
0
  6
HIDDEN
 62
   174
100
AcDbLine
 10
251.110258
 20
209.057764
 30
0.0
 11
251.110258
 21
220.057764
 31
0.0
  0
LINE
  5
9D
100
AcDbEntity
  8
0
  6
HIDDEN
 62
   174
100
AcDbLine
 10
251.815258
 20
209.057764
 30
0.0
 11
251.815258
 21
220.057764
 31
0.0
  0
LINE
  5
9E
100
AcDbEntity
  8
0
  6
Continuous
 62
   174
100
AcDbLine
 10
159.190258
 20
185.095725
 30
0.0
 11
159.190258
 21
185.412955
 31
0.0
  0
ARC
  5
9F
100
AcDbEntity
  8
0
  6
HIDDEN
 62
   174
100
AcDbCircle
 10
187.190258
 20
238.057764
 30
0.0
 40
3.0
100
AcDbArc
 50
-342.0
 51
-324.0
  0
LINE
  5
A0
100
AcDbEntity
  8
0
  6
HIDDEN
 62
   174
100
AcDbLine
 10
159.190258
 20
186.444812
 30
0.0
 11
159.190258
 21
189.98183
 31
0.0
  0
LINE
  5
A1
100
AcDbEntity
  8
0
  6
HIDDEN
 62
   174
100
AcDbLine
 10
264.270258
 20
209.057764
 30
0.0
 11
264.270258
 21
220.057764
 31
0.0
  0
LINE
  5
A2
100
AcDbEntity
  8
0
  6
Continuous
 62
   174
100
AcDbLine
 10
159.190258
 20
200.173173
 30
0.0
 11
159.190258
 21
203.708367
 31
0.0
  0
LINE
  5
A3
100
AcDbEntity
  8
0
  6
HIDDEN
 62
   174
100
AcDbLine
 10
161.190258
 20
235.841646
 30
0.0
 11
161.190258
 21
238.057764
 31
0.0
  0
LINE
  5
A4
100
AcDbEntity
  8
0
  6
HIDDEN
 62
   174
100
AcDbLine
 10
161.21604
 20
212.057764
 30
0.0
 11
164.215908
 21
212.057764
 31
0.0
  0
LINE
  5
A5
100
AcDbEntity
  8
0
  6
HIDDEN
 62
   174
100
AcDbLine
 10
187.190258
 20
212.057764
 30
0.0
 11
187.190258
 21
238.057764
 31
0.0
  0
LINE
  5
A6
100
AcDbEntity
  8
0
  6
HIDDEN
 62
   174
100
AcDbLine
 10
251.110258
 20
209.057764
 30
0.0
 11
251.110258
 21
220.057764
 31
0.0
  0
ARC
  5
A7
100
AcDbEntity
  8
0
  6
Continuous
 62
   174
100
AcDbCircle
 10
235.690258
 20
177.057764
 30
0.0
 40
2.75
100
AcDbArc
 50
-180.0
 51
0.0
  0
LINE
  5
A8
100
AcDbEntity
  8
0
  6
HIDDEN
 62
   174
100
AcDbLine
 10
242.270258
 20
209.057764
 30
0.0
 11
242.270258
 21
220.057764
 31
0.0
  0
LINE
  5
A9
100
AcDbEntity
  8
0
  6
Continuous
 62
   174
100
AcDbLine
 10
187.190258
 20
238.092098
 30
0.0
 11
187.190258
 21
241.091666
 31
0.0
  0
LINE
  5
AA
100
AcDbEntity
  8
0
  6
HIDDEN
 62
   174
100
AcDbLine
 10
152.990258
 20
186.444812
 30
0.0
 11
159.190258
 21
186.444812
 31
0.0
  0
ARC
  5
AB
100
AcDbEntity
  8
0
  6
HIDDEN
 62
   174
100
AcDbCircle
 10
164.190258
 20
238.057764
 30
0.0
 40
3.0
100
AcDbArc
 50
90.0
 51
180.0
  0
LINE
  5
AC
100
AcDbEntity
  8
0
  6
HIDDEN
 62
   174
100
AcDbLine
 10
190.215869
 20
212.057764
 30
0.0
 11
187.216001
 21
212.057764
 31
0.0
  0
LINE
  5
AD
100
AcDbEntity
  8
0
  6
Continuous
 62
   174
100
AcDbLine
 10
164.190258
 20
238.057764
 30
0.0
 11
187.190258
 21
238.057764
 31
0.0
  0
LINE
  5
AE
100
AcDbEntity
  8
0
  6
HIDDEN
 62
   174
100
AcDbLine
 10
187.190258
 20
238.057764
 30
0.0
 11
164.190258
 21
238.057764
 31
0.0
  0
LINE
  5
AF
100
AcDbEntity
  8
0
  6
HIDDEN
 62
   174
100
AcDbLine
 10
242.270258
 20
209.057764
 30
0.0
 11
242.270258
 21
220.057764
 31
0.0
  0
LINE
  5
B0
100
AcDbEntity
  8
0
  6
HIDDEN
 62
   174
100
AcDbLine
 10
229.815258
 20
209.057764
 30
0.0
 11
229.815258
 21
220.057764
 31
0.0
  0
LINE
  5
B1
100
AcDbEntity
  8
0
  6
Continuous
 62
   174
100
AcDbLine
 10
159.190258
 20
204.776616
 30
0.0
 11
159.190258
 21
205.094447
 31
0.0
  0
LINE
  5
B2
100
AcDbEntity
  8
0
  6
Continuous
 62
   174
100
AcDbLine
 10
159.190258
 20
186.480904
 30
0.0
 11
159.190258
 21
190.016398
 31
0.0
  0
LINE
  5
B3
100
AcDbEntity
  8
0
  6
Continuous
 62
   174
100
AcDbLine
 10
152.990258
 20
203.671643
 30
0.0
 11
159.190258
 21
203.671643
 31
0.0
  0
LINE
  5
B4
100
AcDbEntity
  8
0
  6
HIDDEN
 62
   174
100
AcDbLine
 10
229.840808
 20
220.057764
 30
0.0
 11
241.590943
 21
220.057764
 31
0.0
  0
LINE
  5
B5
100
AcDbEntity
  8
0
  6
HIDDEN
 62
   174
100
AcDbLine
 10
145.490258
 20
228.635873
 30
0.0
 11
145.490258
 21
237.479655
 31
0.0
  0
LINE
  5
B6
100
AcDbEntity
  8
0
  6
HIDDEN
 62
   174
100
AcDbLine
 10
152.990258
 20
197.561131
 30
0.0
 11
159.190258
 21
197.561131
 31
0.0
  0
LINE
  5
B7
100
AcDbEntity
  8
0
  6
HIDDEN
 62
   174
100
AcDbLine
 10
263.565258
 20
220.057764
 30
0.0
 11
263.565258
 21
208.057764
 31
0.0
  0
LWPOLYLINE
  5
B8
100
AcDbEntity
  8
0
  6
HIDDEN
 62
   174
100
AcDbPolyline
 90
        6
 70
   128
 10
164.190258
 20
241.057764
 10
163.284942
 20
240.917904
 10
162.476636
 20
240.520182
 10
161.814789
 20
239.890016
 10
161.362963
 20
239.060962
 10
161.190258
 20
238.057764
  0
ARC
  5
B9
100
AcDbEntity
  8
0
  6
Continuous
 62
   174
100
AcDbCircle
 10
235.690258
 20
177.057764
 30
0.0
 40
2.75
100
AcDbArc
 50
0.0
 51
180.0
  0
LINE
  5
BA
100
AcDbEntity
  8
0
  6
HIDDEN
 62
   174
100
AcDbLine
 10
229.110258
 20
209.057764
 30
0.0
 11
229.110258
 21
220.057764
 31
0.0
  0
LINE
  5
BB
100
AcDbEntity
  8
0
  6
HIDDEN
 62
   174
100
AcDbLine
 10
241.565258
 20
220.057764
 30
0.0
 11
241.565258
 21
208.057764
 31
0.0
  0
LINE
  5
BC
100
AcDbEntity
  8
0
  6
Continuous
 62
   174
100
AcDbLine
 10
152.990258
 20
204.7399
 30
0.0
 11
159.190258
 21
204.7399
 31
0.0
  0
LWPOLYLINE
  5
BD
100
AcDbEntity
  8
0
  6
Continuous
 62
   174
100
AcDbPolyline
 90
        4
 70
   128
 10
161.232218
 20
233.057764
 10
161.223222
 20
232.108757
 10
161.202817
 20
231.170591
 10
161.190258
 20
230.273882
  0
LINE
  5
BE
100
AcDbEntity
  8
0
  6
HIDDEN
 62
   174
100
AcDbLine
 10
241.565258
 20
209.057764
 30
0.0
 11
241.565258
 21
220.057764
 31
0.0
  0
LINE
  5
BF
100
AcDbEntity
  8
0
  6
HIDDEN
 62
   174
100
AcDbLine
 10
172.290258
 20
241.057764
 30
0.0
 11
172.690582
 21
241.057764
 31
0.0
  0
ARC
  5
C0
100
AcDbEntity
  8
0
  6
Continuous
 62
   174
100
AcDbCircle
 10
164.190258
 20
238.057764
 30
0.0
 40
3.0
100
AcDbArc
 50
-270.0
 51
-180.0
  0
LINE
  5
C1
100
AcDbEntity
  8
0
  6
HIDDEN
 62
   174
100
AcDbLine
 10
229.815258
 20
209.057764
 30
0.0
 11
229.815258
 21
220.057764
 31
0.0
  0
LINE
  5
C2
100
AcDbEntity
  8
0
  6
HIDDEN
 62
   174
100
AcDbLine
 10
152.990258
 20
200.139359
 30
0.0
 11
159.190258
 21
200.139359
 31
0.0
  0
LINE
  5
C3
100
AcDbEntity
  8
0
  6
HIDDEN
 62
   174
100
AcDbLine
 10
229.110258
 20
209.057764
 30
0.0
 11
229.110258
 21
220.057764
 31
0.0
  0
LINE
  5
C4
100
AcDbEntity
  8
0
  6
Continuous
 62
   174
100
AcDbLine
 10
145.490258
 20
242.057315
 30
0.0
 11
142.383078
 21
242.057315
 31
0.0
  0
LINE
  5
C5
100
AcDbEntity
  8
0
  6
HIDDEN
 62
   174
100
AcDbLine
 10
264.295735
 20
220.057764
 30
0.0
 11
251.135788
 21
220.057764
 31
0.0
  0
LINE
  5
C6
100
AcDbEntity
  8
0
  6
HIDDEN
 62
   174
100
AcDbLine
 10
164.190258
 20
241.057764
 30
0.0
 11
172.290258
 21
241.057764
 31
0.0
  0
LINE
  5
C7
100
AcDbEntity
  8
0
  6
HIDDEN
 62
   174
100
AcDbLine
 10
190.215869
 20
238.057764
 30
0.0
 11
187.216001
 21
238.057764
 31
0.0
  0
LINE
  5
C8
100
AcDbEntity
  8
0
  6
HIDDEN
 62
   174
100
AcDbLine
 10
229.815258
 20
220.057764
 30
0.0
 11
229.815258
 21
208.057764
 31
0.0
  0
LINE
  5
C9
100
AcDbEntity
  8
0
  6
HIDDEN
 62
   174
100
AcDbLine
 10
145.490258
 20
242.057315
 30
0.0
 11
145.490258
 21
237.479655
 31
0.0
  0
ARC
  5
CA
100
AcDbEntity
  8
0
  6
Continuous
 62
   174
100
AcDbCircle
 10
224.690258
 20
213.057764
 30
0.0
 40
2.75
100
AcDbArc
 50
-180.0
 51
0.0
  0
LINE
  5
CB
100
AcDbEntity
  8
0
  6
HIDDEN
 62
   174
100
AcDbLine
 10
229.815258
 20
220.057764
 30
0.0
 11
229.815258
 21
208.057764
 31
0.0
  0
LINE
  5
CC
100
AcDbEntity
  8
0
  6
Continuous
 62
   174
100
AcDbLine
 10
164.190258
 20
238.092098
 30
0.0
 11
164.190258
 21
241.091666
 31
0.0
  0
LINE
  5
CD
100
AcDbEntity
  8
0
  6
Continuous
 62
   174
100
AcDbLine
 10
152.990258
 20
186.443045
 30
0.0
 11
159.190258
 21
186.443045
 31
0.0
  0
LINE
  5
CE
100
AcDbEntity
  8
0
  6
HIDDEN
 62
   174
100
AcDbLine
 10
152.990258
 20
203.673409
 30
0.0
 11
159.190258
 21
203.673409
 31
0.0
  0
LINE
  5
CF
100
AcDbEntity
  8
0
  6
Continuous
 62
   174
100
AcDbLine
 10
152.990258
 20
185.374983
 30
0.0
 11
159.190258
 21
185.374983
 31
0.0
  0
LINE
  5
D0
100
AcDbEntity
  8
0
  6
HIDDEN
 62
   174
100
AcDbLine
 10
263.59098
 20
208.057764
 30
0.0
 11
251.840844
 21
208.057764
 31
0.0
  0
ARC
  5
D1
100
AcDbEntity
  8
0
  6
HIDDEN
 62
   174
100
AcDbCircle
 10
187.190258
 20
238.057764
 30
0.0
 40
3.0
100
AcDbArc
 50
-360.0
 51
-342.0
  0
LINE
  5
D2
100
AcDbEntity
  8
0
  6
Continuous
 62
   174
100
AcDbLine
 10
164.190258
 20
238.057764
 30
0.0
 11
164.190258
 21
212.057764
 31
0.0
  0
LINE
  5
D3
100
AcDbEntity
  8
0
  6
HIDDEN
 62
   174
100
AcDbLine
 10
177.946526
 20
241.057764
 30
0.0
 11
178.690258
 21
241.057764
 31
0.0
  0
LINE
  5
D4
100
AcDbEntity
  8
0
  6
HIDDEN
 62
   174
100
AcDbLine
 10
263.565258
 20
220.057764
 30
0.0
 11
263.565258
 21
208.057764
 31
0.0
  0
LINE
  5
D5
100
AcDbEntity
  8
0
  6
HIDDEN
 62
   174
100
AcDbLine
 10
145.490258
 20
237.479655
 30
0.0
 11
142.383078
 21
237.479655
 31
0.0
  0
LINE
  5
D6
100
AcDbEntity
  8
0
  6
HIDDEN
 62
   174
100
AcDbLine
 10
264.295735
 20
209.057764
 30
0.0
 11
251.135788
 21
209.057764
 31
0.0
  0
LINE
  5
D7
100
AcDbEntity
  8
0
  6
Continuous
 62
   174
100
AcDbLine
 10
159.190258
 20
185.057764
 30
0.0
 11
160.690258
 21
185.057764
 31
0.0
  0
LWPOLYLINE
  5
D8
100
AcDbEntity
  8
0
  6
HIDDEN
 62
   174
100
AcDbPolyline
 90
        4
 70
   128
 10
142.354317
 20
242.007944
 10
142.055177
 20
241.430908
 10
141.822423
 20
240.819494
 10
141.690258
 20
240.21429
  0
LINE
  5
D9
100
AcDbEntity
  8
0
  6
Continuous
 62
   174
100
AcDbLine
 10
141.839769
 20
240.780231
 30
0.0
 11
142.356424
 21
242.009932
 31
0.0
  0
LINE
  5
DA
100
AcDbEntity
  8
0
  6
Continuous
 62
   174
100
AcDbLine
 10
152.990258
 20
203.671643
 30
0.0
 11
152.990258
 21
200.136364
 31
0.0
  0
ARC
  5
DB
100
AcDbEntity
  8
0
  6
HIDDEN
 62
   174
100
AcDbCircle
 10
187.190258
 20
238.057764
 30
0.0
 40
3.0
100
AcDbArc
 50
-288.0
 51
-270.0
  0
LINE
  5
DC
100
AcDbEntity
  8
0
  6
Continuous
 62
   174
100
AcDbLine
 10
142.355637
 20
242.008521
 30
0.0
 11
142.383078
 21
242.057315
 31
0.0
  0
LWPOLYLINE
  5
DD
100
AcDbEntity
  8
0
  6
HIDDEN
 62
   174
100
AcDbPolyline
 90
        4
 70
   128
 10
161.190258
 20
230.273882
 10
161.202817
 20
231.170583
 10
161.223222
 20
232.108737
 10
161.232218
 20
233.057764
  0
ARC
  5
DE
100
AcDbEntity
  8
0
  6
Continuous
 62
   174
100
AcDbCircle
 10
224.690258
 20
213.057764
 30
0.0
 40
2.75
100
AcDbArc
 50
0.0
 51
180.0
  0
LWPOLYLINE
  5
DF
100
AcDbEntity
  8
0
  6
Continuous
 62
   174
100
AcDbPolyline
 90
        4
 70
   128
 10
161.232218
 20
233.057764
 10
161.223223
 20
234.006747
 10
161.202818
 20
234.944913
 10
161.190258
 20
235.841646
  0
LINE
  5
E0
100
AcDbEntity
  8
0
  6
HIDDEN
 62
   174
100
AcDbLine
 10
241.590943
 20
208.057764
 30
0.0
 11
229.840808
 21
208.057764
 31
0.0
  0
ARC
  5
E1
100
AcDbEntity
  8
0
  6
Continuous
 62
   174
100
AcDbCircle
 10
257.690258
 20
177.057764
 30
0.0
 40
2.75
100
AcDbArc
 50
180.0
 51
360.0
  0
LINE
  5
E2
100
AcDbEntity
  8
0
  6
Continuous
 62
   174
100
AcDbLine
 10
159.190258
 20
196.591115
 30
0.0
 11
159.190258
 21
197.594776
 31
0.0
  0
LINE
  5
E3
100
AcDbEntity
  8
0
  6
Continuous
 62
   174
100
AcDbLine
 10
152.990258
 20
192.557764
 30
0.0
 11
159.190258
 21
192.557764
 31
0.0
  0
LINE
  5
E4
100
AcDbEntity
  8
0
  6
Continuous
 62
   174
100
AcDbLine
 10
159.190258
 20
205.057764
 30
0.0
 11
160.690258
 21
205.057764
 31
0.0
  0
LINE
  5
E5
100
AcDbEntity
  8
0
  6
HIDDEN
 62
   174
100
AcDbLine
 10
241.565258
 20
209.057764
 30
0.0
 11
241.565258
 21
220.057764
 31
0.0
  0
ARC
  5
E6
100
AcDbEntity
  8
0
  6
HIDDEN
 62
   174
100
AcDbCircle
 10
187.190258
 20
238.057764
 30
0.0
 40
3.0
100
AcDbArc
 50
-324.0
 51
-306.0
  0
LINE
  5
E7
100
AcDbEntity
  8
0
  6
Continuous
 62
   174
100
AcDbLine
 10
164.215908
 20
238.057764
 30
0.0
 11
161.21604
 21
238.057764
 31
0.0
  0
ARC
  5
E8
100
AcDbEntity
  8
0
  6
Continuous
 62
   174
100
AcDbCircle
 10
268.690258
 20
213.057764
 30
0.0
 40
2.75
100
AcDbArc
 50
-180.0
 51
0.0
  0
LINE
  5
E9
100
AcDbEntity
  8
0
  6
HIDDEN
 62
   174
100
AcDbLine
 10
175.690258
 20
241.057764
 30
0.0
 11
177.507662
 21
241.057764
 31
0.0
  0
LINE
  5
EA
100
AcDbEntity
  8
0
  6
Continuous
 62
   174
100
AcDbLine
 10
141.690258
 20
240.891895
 30
0.0
 11
141.690258
 21
233.983727
 31
0.0
  0
LINE
  5
EB
100
AcDbEntity
  8
0
  6
HIDDEN
 62
   174
100
AcDbLine
 10
164.215908
 20
238.057764
 30
0.0
 11
161.21604
 21
238.057764
 31
0.0
  0
LINE
  5
EC
100
AcDbEntity
  8
0
  6
Continuous
 62
   174
100
AcDbLine
 10
190.215869
 20
238.057764
 30
0.0
 11
187.216001
 21
238.057764
 31
0.0
  0
LINE
  5
ED
100
AcDbEntity
  8
0
  6
HIDDEN
 62
   174
100
AcDbLine
 10
152.990258
 20
192.561131
 30
0.0
 11
159.190258
 21
192.561131
 31
0.0
  0
LINE
  5
EE
100
AcDbEntity
  8
0
  6
HIDDEN
 62
   174
100
AcDbLine
 10
178.690258
 20
241.057764
 30
0.0
 11
179.090258
 21
241.057764
 31
0.0
  0
ARC
  5
EF
100
AcDbEntity
  8
0
  6
Continuous
 62
   174
100
AcDbCircle
 10
257.690258
 20
177.057764
 30
0.0
 40
2.75
100
AcDbArc
 50
0.0
 51
180.0
  0
LINE
  5
F0
100
AcDbEntity
  8
0
  6
Continuous
 62
   174
100
AcDbLine
 10
160.690258
 20
184.057764
 30
0.0
 11
160.690258
 21
212.057764
 31
0.0
  0
LINE
  5
F1
100
AcDbEntity
  8
0
  6
HIDDEN
 62
   174
100
AcDbLine
 10
177.507662
 20
241.057764
 30
0.0
 11
177.946526
 21
241.057764
 31
0.0
  0
LINE
  5
F2
100
AcDbEntity
  8
0
  6
Continuous
 62
   174
100
AcDbLine
 10
187.190258
 20
238.057764
 30
0.0
 11
187.190258
 21
212.057764
 31
0.0
  0
LINE
  5
F3
100
AcDbEntity
  8
0
  6
HIDDEN
 62
   174
100
AcDbLine
 10
187.190258
 20
238.092098
 30
0.0
 11
187.190258
 21
241.091666
 31
0.0
  0
LWPOLYLINE
  5
F4
100
AcDbEntity
  8
0
  6
HIDDEN
 62
   174
100
AcDbPolyline
 90
        7
 70
   128
 10
142.383078
 20
237.479655
 10
142.016975
 20
235.976384
 10
141.788876
 20
234.502394
 10
141.711945
 20
233.058002
 10
141.788832
 20
231.613555
 10
142.016924
 20
230.139404
 10
142.383078
 20
228.635873
  0
LWPOLYLINE
  5
F5
100
AcDbEntity
  8
0
  6
Continuous
 62
   174
100
AcDbPolyline
 90
        6
 70
   128
 10
142.383078
 20
237.635424
 10
142.016951
 20
238.387115
 10
141.788853
 20
239.124161
 10
141.71195
 20
239.846409
 10
141.788868
 20
240.568649
 10
141.839769
 20
240.780231
  0
LINE
  5
F6
100
AcDbEntity
  8
0
  6
HIDDEN
 62
   174
100
AcDbLine
 10
164.190258
 20
212.057764
 30
0.0
 11
164.190258
 21
238.057764
 31
0.0
  0
LINE
  5
F7
100
AcDbEntity
  8
0
  6
HIDDEN
 62
   174
100
AcDbLine
 10
251.815258
 20
209.057764
 30
0.0
 11
251.815258
 21
220.057764
 31
0.0
  0
LINE
  5
F8
100
AcDbEntity
  8
0
  6
HIDDEN
 62
   174
100
AcDbLine
 10
251.815258
 20
220.057764
 30
0.0
 11
251.815258
 21
208.057764
 31
0.0
  0
LINE
  5
F9
100
AcDbEntity
  8
0
  6
HIDDEN
 62
   174
100
AcDbLine
 10
251.815258
 20
220.057764
 30
0.0
 11
251.815258
 21
208.057764
 31
0.0
  0
LINE
  5
FA
100
AcDbEntity
  8
0
  6
HIDDEN
 62
   174
100
AcDbLine
 10
152.990258
 20
189.98183
 30
0.0
 11
159.190258
 21
189.98183
 31
0.0
  0
ARC
  5
FB
100
AcDbEntity
  8
0
  6
Continuous
 62
   174
100
AcDbCircle
 10
268.690258
 20
213.057764
 30
0.0
 40
2.75
100
AcDbArc
 50
0.0
 51
180.0
  0
LINE
  5
FC
100
AcDbEntity
  8
0
  6
HIDDEN
 62
   174
100
AcDbLine
 10
179.090258
 20
241.057764
 30
0.0
 11
187.190258
 21
241.057764
 31
0.0
  0
LINE
  5
FD
100
AcDbEntity
  8
0
  6
Continuous
 62
   174
100
AcDbLine
 10
159.190258
 20
192.595096
 30
0.0
 11
159.190258
 21
196.591115
 31
0.0
  0
LINE
  5
FE
100
AcDbEntity
  8
0
  6
Continuous
 62
   174
100
AcDbLine
 10
160.690258
 20
184.057764
 30
0.0
 11
190.690258
 21
184.057764
 31
0.0
  0
ARC
  5
FF
100
AcDbEntity
  8
0
  6
Continuous
 62
   174
100
AcDbCircle
 10
187.190258
 20
238.057764
 30
0.0
 40
3.0
100
AcDbArc
 50
0.0
 51
90.0
  0
ARC
  5
100
100
AcDbEntity
  8
0
  6
HIDDEN
 62
   174
100
AcDbCircle
 10
187.190258
 20
238.057764
 30
0.0
 40
3.0
100
AcDbArc
 50
-306.0
 51
-288.0
  0
LWPOLYLINE
  5
101
100
AcDbEntity
  8
0
  6
HIDDEN
 62
   174
100
AcDbPolyline
 90
        4
 70
   128
 10
161.190258
 20
235.841646
 10
161.202818
 20
234.944911
 10
161.223223
 20
234.006757
 10
161.232218
 20
233.057764
  0
LINE
  5
102
100
AcDbEntity
  8
0
  6
HIDDEN
 62
   174
100
AcDbLine
 10
161.190258
 20
238.092098
 30
0.0
 11
161.190258
 21
235.875993
 31
0.0
  0
LINE
  5
103
100
AcDbEntity
  8
0
  6
HIDDEN
 62
   174
100
AcDbLine
 10
173.713075
 20
241.057764
 30
0.0
 11
175.690258
 21
241.057764
 31
0.0
  0
LINE
  5
104
100
AcDbEntity
  8
0
  6
HIDDEN
 62
   174
100
AcDbLine
 10
187.190258
 20
212.057764
 30
0.0
 11
164.190258
 21
212.057764
 31
0.0
  0
LINE
  5
105
100
AcDbEntity
  8
0
  6
HIDDEN
 62
   174
100
AcDbLine
 10
242.296
 20
220.057764
 30
0.0
 11
229.135752
 21
220.057764
 31
0.0
  0
LINE
  5
106
100
AcDbEntity
  8
0
  6
Continuous
 62
   174
100
AcDbLine
 10
152.990258
 20
197.557764
 30
0.0
 11
159.190258
 21
197.557764
 31
0.0
  0
LINE
  5
107
100
AcDbEntity
  8
0
  6
Continuous
 62
   174
100
AcDbLine
 10
190.190258
 20
212.057764
 30
0.0
 11
190.190258
 21
238.057764
 31
0.0
  0
LINE
  5
108
100
AcDbEntity
  8
0
  6
HIDDEN
 62
   174
100
AcDbLine
 10
263.565258
 20
209.057764
 30
0.0
 11
263.565258
 21
220.057764
 31
0.0
  0
LINE
  5
109
100
AcDbEntity
  8
0
  6
HIDDEN
 62
   174
100
AcDbLine
 10
263.565258
 20
209.057764
 30
0.0
 11
263.565258
 21
220.057764
 31
0.0
  0
LINE
  5
10A
100
AcDbEntity
  8
0
  6
Continuous
 62
   174
100
AcDbLine
 10
190.690258
 20
212.057764
 30
0.0
 11
160.690258
 21
212.057764
 31
0.0
  0
LINE
  5
10B
100
AcDbEntity
  8
0
  6
HIDDEN
 62
   174
100
AcDbLine
 10
142.383078
 20
242.057315
 30
0.0
 11
142.354226
 21
242.007791
 31
0.0
  0
LINE
  5
10C
100
AcDbEntity
  8
0
  6
HIDDEN
 62
   174
100
AcDbLine
 10
172.690582
 20
241.057764
 30
0.0
 11
173.713075
 21
241.057764
 31
0.0
  0
LINE
  5
10D
100
AcDbEntity
  8
0
  6
Continuous
 62
   174
100
AcDbLine
 10
152.990258
 20
189.978834
 30
0.0
 11
152.990258
 21
186.443045
 31
0.0
  0
LINE
  5
10E
100
AcDbEntity
  8
0
  6
HIDDEN
 62
   174
100
AcDbLine
 10
251.840844
 20
220.057764
 30
0.0
 11
263.59098
 21
220.057764
 31
0.0
  0
LINE
  5
10F
100
AcDbEntity
  8
0
  6
Continuous
 62
   174
100
AcDbLine
 10
152.990258
 20
200.136364
 30
0.0
 11
159.190258
 21
200.136364
 31
0.0
  0
LINE
  5
110
100
AcDbEntity
  8
0
  6
Continuous
 62
   174
100
AcDbLine
 10
161.190258
 20
230.273882
 30
0.0
 11
161.190258
 21
212.057764
 31
0.0
  0
LINE
  5
111
100
AcDbEntity
  8
0
  6
HIDDEN
 62
   174
100
AcDbLine
 10
190.690258
 20
212.057764
 30
0.0
 11
190.690258
 21
184.057764
 31
0.0
  0
LINE
  5
112
100
AcDbEntity
  8
0
  6
HIDDEN
 62
   174
100
AcDbLine
 10
164.190258
 20
238.092098
 30
0.0
 11
164.190258
 21
241.091666
 31
0.0
  0
LINE
  5
113
100
AcDbEntity
  8
0
  6
Continuous
 62
   174
100
AcDbLine
 10
187.190258
 20
241.057764
 30
0.0
 11
164.190258
 21
241.057764
 31
0.0
  0
LINE
  5
114
100
AcDbEntity
  8
0
  6
HIDDEN
 62
   174
100
AcDbLine
 10
264.270258
 20
209.057764
 30
0.0
 11
264.270258
 21
220.057764
 31
0.0
  0
LINE
  5
115
100
AcDbEntity
  8
0
  6
Continuous
 62
   174
100
AcDbLine
 10
152.990258
 20
197.557764
 30
0.0
 11
152.990258
 21
192.557764
 31
0.0
  0
LINE
  5
116
100
AcDbEntity
  8
0
  6
HIDDEN
 62
   174
100
AcDbLine
 10
242.296
 20
209.057764
 30
0.0
 11
229.135752
 21
209.057764
 31
0.0
  0
LWPOLYLINE
  5
117
100
AcDbEntity
  8
0
  6
HIDDEN
 62
   174
100
AcDbPolyline
 90
        4
 70
   128
 10
141.690258
 20
239.322679
 10
141.823378
 20
238.71432
 10
142.056461
 20
238.103245
 10
142.383078
 20
237.479655
  0
LINE
  5
118
100
AcDbEntity
  8
0
  6
HIDDEN
 62
   174
100
AcDbLine
 10
241.565258
 20
220.057764
 30
0.0
 11
241.565258
 21
208.057764
 31
0.0
  0
LINE
  5
119
100
AcDbEntity
  8
0
  6
Continuous
 62
   174
100
AcDbLine
 10
161.190258
 20
238.057764
 30
0.0
 11
161.190258
 21
235.841646
 31
0.0
  0
LINE
  5
11A
100
AcDbEntity
  8
0
  6
Continuous
 62
   174
100
AcDbLine
 10
152.990258
 20
189.978834
 30
0.0
 11
159.190258
 21
189.978834
 31
0.0
  0
LINE
  5
11B
100
AcDbEntity
  8
0
  6
HIDDEN
 62
   174
100
AcDbLine
 10
190.190258
 20
238.057764
 30
0.0
 11
190.190258
 21
212.057764
 31
0.0
  0
ENDBLK
  5
11C
100
AcDbEntity
  8
0
100
AcDbBlockEnd
  0
BLOCK
  5
11F
100
AcDbEntity
  8
0
100
AcDbBlockBegin
  2
*B2
 70
     0
 10
0.0
 20
0.0
 30
0.0
  3
*B2
  1

  0
ARC
  5
120
100
AcDbEntity
  8
0
  6
Continuous
 62
   174
100
AcDbCircle
 10
175.690258
 20
107.545133
 30
0.0
 40
3.4
100
AcDbArc
 50
-270.0
 51
-90.0
  0
ARC
  5
121
100
AcDbEntity
  8
0
  6
Continuous
 62
   174
100
AcDbCircle
 10
175.690258
 20
107.545133
 30
0.0
 40
3.4
100
AcDbArc
 50
-90.0
 51
90.0
  0
ARC
  5
122
100
AcDbEntity
  8
0
  6
Continuous
 62
   174
100
AcDbCircle
 10
175.690258
 20
107.545133
 30
0.0
 40
3.0
100
AcDbArc
 50
-217.286546
 51
-52.713454
  0
LINE
  5
123
100
AcDbEntity
  8
0
  6
Continuous
 62
   174
100
AcDbLine
 10
173.30341
 20
109.362538
 30
0.0
 11
177.507662
 21
105.158286
 31
0.0
  0
ARC
  5
124
100
AcDbEntity
  8
0
  6
Continuous
 62
   174
100
AcDbCircle
 10
175.690258
 20
107.545133
 30
0.0
 40
3.0
100
AcDbArc
 50
-41.228296
 51
131.228296
  0
LINE
  5
125
100
AcDbEntity
  8
0
  6
Continuous
 62
   174
100
AcDbLine
 10
177.946526
 20
105.56795
 30
0.0
 11
173.713075
 21
109.801402
 31
0.0
  0
LINE
  5
126
100
AcDbEntity
  8
0
  6
Continuous
 62
   174
100
AcDbLine
 10
149.190258
 20
114.045133
 30
0.0
 11
146.190258
 21
114.045133
 31
0.0
  0
LINE
  5
127
100
AcDbEntity
  8
0
  6
Continuous
 62
   174
100
AcDbLine
 10
149.190258
 20
101.045133
 30
0.0
 11
146.190258
 21
101.045133
 31
0.0
  0
LINE
  5
128
100
AcDbEntity
  8
0
  6
Continuous
 62
   174
100
AcDbLine
 10
149.190258
 20
114.045133
 30
0.0
 11
146.190258
 21
114.045133
 31
0.0
  0
LINE
  5
129
100
AcDbEntity
  8
0
  6
Continuous
 62
   174
100
AcDbLine
 10
149.190258
 20
101.045133
 30
0.0
 11
146.190258
 21
101.045133
 31
0.0
  0
LINE
  5
12A
100
AcDbEntity
  8
0
  6
Continuous
 62
   174
100
AcDbLine
 10
146.190258
 20
116.545133
 30
0.0
 11
145.490258
 21
116.545133
 31
0.0
  0
LINE
  5
12B
100
AcDbEntity
  8
0
  6
Continuous
 62
   174
100
AcDbLine
 10
146.190258
 20
98.545133
 30
0.0
 11
145.490258
 21
98.545133
 31
0.0
  0
LINE
  5
12C
100
AcDbEntity
  8
0
  6
Continuous
 62
   174
100
AcDbLine
 10
146.190258
 20
116.545133
 30
0.0
 11
145.490258
 21
116.545133
 31
0.0
  0
LINE
  5
12D
100
AcDbEntity
  8
0
  6
Continuous
 62
   174
100
AcDbLine
 10
190.690258
 20
92.545133
 30
0.0
 11
190.690258
 21
122.545133
 31
0.0
  0
LINE
  5
12E
100
AcDbEntity
  8
0
  6
Continuous
 62
   174
100
AcDbLine
 10
149.190258
 20
100.982852
 30
0.0
 11
149.190258
 21
99.589262
 31
0.0
  0
LINE
  5
12F
100
AcDbEntity
  8
0
  6
Continuous
 62
   174
100
AcDbLine
 10
145.490258
 20
115.427041
 30
0.0
 11
145.490258
 21
107.498689
 31
0.0
  0
LWPOLYLINE
  5
130
100
AcDbEntity
  8
0
  6
Continuous
 62
   174
100
AcDbPolyline
 90
        4
 70
   128
 10
141.690258
 20
99.79626
 10
141.823378
 20
99.79626
 10
142.056463
 20
99.79626
 10
142.383078
 20
99.79626
  0
LINE
  5
131
100
AcDbEntity
  8
0
  6
Continuous
 62
   174
100
AcDbLine
 10
141.690258
 20
110.690818
 30
0.0
 11
141.690258
 21
99.840403
 31
0.0
  0
LINE
  5
132
100
AcDbEntity
  8
0
  6
Continuous
 62
   174
100
AcDbLine
 10
152.990258
 20
97.862675
 30
0.0
 11
159.190258
 21
97.862675
 31
0.0
  0
LINE
  5
133
100
AcDbEntity
  8
0
  6
Continuous
 62
   174
100
AcDbLine
 10
152.990258
 20
99.545133
 30
0.0
 11
152.990258
 21
98.930737
 31
0.0
  0
ARC
  5
134
100
AcDbEntity
  8
0
  6
Continuous
 62
   174
100
AcDbCircle
 10
164.190258
 20
100.045133
 30
0.0
 40
3.0
100
AcDbArc
 50
-180.0
 51
-90.0
  0
LINE
  5
135
100
AcDbEntity
  8
0
  6
Continuous
 62
   174
100
AcDbLine
 10
159.190258
 20
97.702103
 30
0.0
 11
159.190258
 21
97.906981
 31
0.0
  0
ARC
  5
136
100
AcDbEntity
  8
0
  6
Continuous
 62
   174
100
AcDbCircle
 10
257.690258
 20
107.545133
 30
0.0
 40
5.875
100
AcDbArc
 50
0.0
 51
180.0
  0
LINE
  5
137
100
AcDbEntity
  8
0
  6
Continuous
 62
   174
100
AcDbLine
 10
149.190258
 20
99.545133
 30
0.0
 11
161.232218
 21
99.545133
 31
0.0
  0
LINE
  5
138
100
AcDbEntity
  8
0
  6
Continuous
 62
   174
100
AcDbLine
 10
149.190258
 20
115.545133
 30
0.0
 11
161.232218
 21
115.545133
 31
0.0
  0
LINE
  5
139
100
AcDbEntity
  8
0
  6
Continuous
 62
   174
100
AcDbLine
 10
161.190258
 20
100.045133
 30
0.0
 11
161.190258
 21
101.300135
 31
0.0
  0
LINE
  5
13A
100
AcDbEntity
  8
0
  6
Continuous
 62
   174
100
AcDbLine
 10
190.190258
 20
115.045133
 30
0.0
 11
190.190258
 21
100.045133
 31
0.0
  0
LINE
  5
13B
100
AcDbEntity
  8
0
  6
Continuous
 62
   174
100
AcDbLine
 10
206.690258
 20
92.545133
 30
0.0
 11
206.690258
 21
122.545133
 31
0.0
  0
LINE
  5
13C
100
AcDbEntity
  8
0
  6
Continuous
 62
   174
100
AcDbLine
 10
206.690258
 20
122.545133
 30
0.0
 11
206.690258
 21
92.545133
 31
0.0
  0
LINE
  5
13D
100
AcDbEntity
  8
0
  6
Continuous
 62
   174
100
AcDbLine
 10
149.190258
 20
115.588059
 30
0.0
 11
149.190258
 21
114.19477
 31
0.0
  0
LINE
  5
13E
100
AcDbEntity
  8
0
  6
Continuous
 62
   174
100
AcDbLine
 10
149.190258
 20
114.19477
 30
0.0
 11
149.190258
 21
100.982852
 31
0.0
  0
LINE
  5
13F
100
AcDbEntity
  8
0
  6
Continuous
 62
   174
100
AcDbLine
 10
145.490258
 20
116.588116
 30
0.0
 11
145.490258
 21
115.427041
 31
0.0
  0
LINE
  5
140
100
AcDbEntity
  8
0
  6
Continuous
 62
   174
100
AcDbLine
 10
145.490258
 20
99.840403
 30
0.0
 11
145.490258
 21
98.589506
 31
0.0
  0
ARC
  5
141
100
AcDbEntity
  8
0
  6
Continuous
 62
   174
100
AcDbCircle
 10
201.690258
 20
107.545133
 30
0.0
 40
3.0
100
AcDbArc
 50
-270.0
 51
-90.0
  0
LINE
  5
142
100
AcDbEntity
  8
0
  6
Continuous
 62
   174
100
AcDbLine
 10
161.190258
 20
101.300135
 30
0.0
 11
161.190258
 21
100.045133
 31
0.0
  0
LINE
  5
143
100
AcDbEntity
  8
0
  6
Continuous
 62
   174
100
AcDbLine
 10
164.190258
 20
100.045133
 30
0.0
 11
164.190258
 21
107.545133
 31
0.0
  0
LINE
  5
144
100
AcDbEntity
  8
0
  6
Continuous
 62
   174
100
AcDbLine
 10
159.190258
 20
117.545133
 30
0.0
 11
159.690258
 21
117.545133
 31
0.0
  0
LINE
  5
145
100
AcDbEntity
  8
0
  6
Continuous
 62
   174
100
AcDbLine
 10
159.190258
 20
117.475519
 30
0.0
 11
159.190258
 21
117.587872
 31
0.0
  0
LINE
  5
146
100
AcDbEntity
  8
0
  6
Continuous
 62
   174
100
AcDbLine
 10
190.690258
 20
96.545133
 30
0.0
 11
160.690258
 21
96.545133
 31
0.0
  0
LINE
  5
147
100
AcDbEntity
  8
0
  6
Continuous
 62
   174
100
AcDbLine
 10
160.690258
 20
118.545133
 30
0.0
 11
190.690258
 21
118.545133
 31
0.0
  0
ARC
  5
148
100
AcDbEntity
  8
0
  6
Continuous
 62
   174
100
AcDbCircle
 10
187.190258
 20
115.045133
 30
0.0
 40
3.0
100
AcDbArc
 50
0.0
 51
90.0
  0
ARC
  5
149
100
AcDbEntity
  8
0
  6
Continuous
 62
   174
100
AcDbCircle
 10
235.690258
 20
107.545133
 30
0.0
 40
5.875
100
AcDbArc
 50
0.0
 51
180.0
  0
LINE
  5
14A
100
AcDbEntity
  8
0
  6
Continuous
 62
   174
100
AcDbLine
 10
286.690258
 20
122.545133
 30
0.0
 11
206.690258
 21
122.545133
 31
0.0
  0
LINE
  5
14B
100
AcDbEntity
  8
0
  6
Continuous
 62
   174
100
AcDbLine
 10
164.190258
 20
118.045133
 30
0.0
 11
187.190258
 21
118.045133
 31
0.0
  0
LINE
  5
14C
100
AcDbEntity
  8
0
  6
Continuous
 62
   174
100
AcDbLine
 10
146.190258
 20
114.302316
 30
0.0
 11
146.190258
 21
116.588116
 31
0.0
  0
LINE
  5
14D
100
AcDbEntity
  8
0
  6
Continuous
 62
   174
100
AcDbLine
 10
146.190258
 20
100.875006
 30
0.0
 11
146.190258
 21
114.302316
 31
0.0
  0
ARC
  5
14E
100
AcDbEntity
  8
0
  6
Continuous
 62
   174
100
AcDbCircle
 10
201.690258
 20
107.545133
 30
0.0
 40
2.6
100
AcDbArc
 50
-266.423666
 51
-93.576334
  0
LINE
  5
14F
100
AcDbEntity
  8
0
  6
Continuous
 62
   174
100
AcDbLine
 10
152.990258
 20
116.157763
 30
0.0
 11
159.190258
 21
116.157763
 31
0.0
  0
LINE
  5
150
100
AcDbEntity
  8
0
  6
Continuous
 62
   174
100
AcDbLine
 10
159.690258
 20
97.545133
 30
0.0
 11
160.690258
 21
97.545133
 31
0.0
  0
LINE
  5
151
100
AcDbEntity
  8
0
  6
Continuous
 62
   174
100
AcDbLine
 10
160.690258
 20
115.545133
 30
0.0
 11
160.690258
 21
118.545133
 31
0.0
  0
ARC
  5
152
100
AcDbEntity
  8
0
  6
Continuous
 62
   174
100
AcDbCircle
 10
235.690258
 20
107.545133
 30
0.0
 40
6.58
100
AcDbArc
 50
0.0
 51
180.0
  0
ARC
  5
153
100
AcDbEntity
  8
0
  6
Continuous
 62
   174
100
AcDbCircle
 10
235.690258
 20
107.545133
 30
0.0
 40
6.58
100
AcDbArc
 50
-180.0
 51
-61.194706
  0
LINE
  5
154
100
AcDbEntity
  8
0
  6
Continuous
 62
   174
100
AcDbLine
 10
149.190258
 20
99.545133
 30
0.0
 11
161.232218
 21
99.545133
 31
0.0
  0
ARC
  5
155
100
AcDbEntity
  8
0
  6
Continuous
 62
   174
100
AcDbCircle
 10
201.690258
 20
107.545133
 30
0.0
 40
3.0
100
AcDbArc
 50
-90.0
 51
90.0
  0
LINE
  5
156
100
AcDbEntity
  8
0
  6
Continuous
 62
   174
100
AcDbLine
 10
201.528074
 20
110.14007
 30
0.0
 11
201.528074
 21
104.950196
 31
0.0
  0
LINE
  5
157
100
AcDbEntity
  8
0
  6
Continuous
 62
   174
100
AcDbLine
 10
152.990258
 20
98.974929
 30
0.0
 11
152.990258
 21
97.906981
 31
0.0
  0
LWPOLYLINE
  5
158
100
AcDbEntity
  8
0
  6
Continuous
 62
   174
100
AcDbPolyline
 90
        3
 70
   128
 10
142.383078
 20
115.383939
 10
142.016975
 20
115.383939
 10
141.788876
 20
115.383939
  0
LINE
  5
159
100
AcDbEntity
  8
0
  6
Continuous
 62
   174
100
AcDbLine
 10
145.490258
 20
107.4552
 30
0.0
 11
142.383078
 21
107.4552
 31
0.0
  0
LWPOLYLINE
  5
15A
100
AcDbEntity
  8
0
  6
Continuous
 62
   174
100
AcDbPolyline
 90
        7
 70
   128
 10
142.383078
 20
99.79626
 10
142.016951
 20
101.098227
 10
141.788853
 20
102.374828
 10
141.71195
 20
103.625799
 10
141.788868
 20
104.876754
 10
142.016969
 20
106.153309
 10
142.383078
 20
107.4552
  0
LWPOLYLINE
  5
15B
100
AcDbEntity
  8
0
  6
Continuous
 62
   174
100
AcDbPolyline
 90
        6
 70
   128
 10
164.190258
 20
107.545133
 10
163.284942
 20
109.034493
 10
162.476636
 20
110.428242
 10
161.814789
 20
111.706903
 10
161.362963
 20
112.833008
 10
161.190258
 20
113.790131
  0
LWPOLYLINE
  5
15C
100
AcDbEntity
  8
0
  6
Continuous
 62
   174
100
AcDbPolyline
 90
        6
 70
   128
 10
161.190258
 20
101.300135
 10
161.3626
 20
102.256097
 10
161.8144
 20
103.382536
 10
162.477471
 20
104.663527
 10
163.286001
 20
106.057543
 10
164.190258
 20
107.545133
  0
LINE
  5
15D
100
AcDbEntity
  8
0
  6
Continuous
 62
   174
100
AcDbLine
 10
164.190258
 20
115.045133
 30
0.0
 11
187.190258
 21
115.045133
 31
0.0
  0
LINE
  5
15E
100
AcDbEntity
  8
0
  6
Continuous
 62
   174
100
AcDbLine
 10
187.190258
 20
115.045133
 30
0.0
 11
187.190258
 21
100.045133
 31
0.0
  0
LINE
  5
15F
100
AcDbEntity
  8
0
  6
Continuous
 62
   174
100
AcDbLine
 10
159.190258
 20
97.58945
 30
0.0
 11
159.190258
 21
97.702103
 31
0.0
  0
ARC
  5
160
100
AcDbEntity
  8
0
  6
Continuous
 62
   174
100
AcDbCircle
 10
164.190258
 20
115.045133
 30
0.0
 40
3.0
100
AcDbArc
 50
-270.0
 51
-180.0
  0
LINE
  5
161
100
AcDbEntity
  8
0
  6
Continuous
 62
   174
100
AcDbLine
 10
159.190258
 20
117.26974
 30
0.0
 11
159.190258
 21
117.475519
 31
0.0
  0
LINE
  5
162
100
AcDbEntity
  8
0
  6
Continuous
 62
   174
100
AcDbLine
 10
145.490258
 20
107.498689
 30
0.0
 11
145.490258
 21
99.840403
 31
0.0
  0
LINE
  5
163
100
AcDbEntity
  8
0
  6
Continuous
 62
   174
100
AcDbLine
 10
141.690258
 20
115.388288
 30
0.0
 11
141.690258
 21
112.234912
 31
0.0
  0
LWPOLYLINE
  5
164
100
AcDbEntity
  8
0
  6
Continuous
 62
   174
100
AcDbPolyline
 90
        4
 70
   128
 10
141.690258
 20
112.191727
 10
141.823378
 20
113.245436
 10
142.056461
 20
114.303849
 10
142.383078
 20
115.383939
  0
LINE
  5
165
100
AcDbEntity
  8
0
  6
Continuous
 62
   174
100
AcDbLine
 10
164.190258
 20
107.545133
 30
0.0
 11
164.190258
 21
115.045133
 31
0.0
  0
LINE
  5
166
100
AcDbEntity
  8
0
  6
Continuous
 62
   174
100
AcDbLine
 10
159.190258
 20
98.974929
 30
0.0
 11
159.190258
 21
99.563127
 31
0.0
  0
LINE
  5
167
100
AcDbEntity
  8
0
  6
Continuous
 62
   174
100
AcDbLine
 10
190.190258
 20
100.045133
 30
0.0
 11
190.190258
 21
115.045133
 31
0.0
  0
ARC
  5
168
100
AcDbEntity
  8
0
  6
Continuous
 62
   174
100
AcDbCircle
 10
235.690258
 20
107.545133
 30
0.0
 40
5.875
100
AcDbArc
 50
-180.0
 51
0.0
  0
LINE
  5
169
100
AcDbEntity
  8
0
  6
Continuous
 62
   174
100
AcDbLine
 10
141.690258
 20
115.345133
 30
0.0
 11
141.788854
 21
115.515907
 31
0.0
  0
LINE
  5
16A
100
AcDbEntity
  8
0
  6
Continuous
 62
   174
100
AcDbLine
 10
149.190258
 20
115.545133
 30
0.0
 11
161.232218
 21
115.545133
 31
0.0
  0
LINE
  5
16B
100
AcDbEntity
  8
0
  6
Continuous
 62
   174
100
AcDbLine
 10
286.690258
 20
92.545133
 30
0.0
 11
206.690258
 21
92.545133
 31
0.0
  0
LINE
  5
16C
100
AcDbEntity
  8
0
  6
Continuous
 62
   174
100
AcDbLine
 10
146.190258
 20
98.589506
 30
0.0
 11
146.190258
 21
100.875006
 31
0.0
  0
LINE
  5
16D
100
AcDbEntity
  8
0
  6
Continuous
 62
   174
100
AcDbLine
 10
152.990258
 20
117.26974
 30
0.0
 11
152.990258
 21
116.200891
 31
0.0
  0
LINE
  5
16E
100
AcDbEntity
  8
0
  6
Continuous
 62
   174
100
AcDbLine
 10
201.852441
 20
104.950196
 30
0.0
 11
201.852441
 21
110.14007
 31
0.0
  0
LINE
  5
16F
100
AcDbEntity
  8
0
  6
Continuous
 62
   174
100
AcDbLine
 10
141.690258
 20
110.647411
 30
0.0
 11
141.690258
 21
112.191727
 31
0.0
  0
LINE
  5
170
100
AcDbEntity
  8
0
  6
Continuous
 62
   174
100
AcDbLine
 10
141.737924
 20
115.383939
 30
0.0
 11
141.814528
 21
115.383939
 31
0.0
  0
LINE
  5
171
100
AcDbEntity
  8
0
  6
Continuous
 62
   174
100
AcDbLine
 10
145.490258
 20
115.383939
 30
0.0
 11
142.383078
 21
115.383939
 31
0.0
  0
LINE
  5
172
100
AcDbEntity
  8
0
  6
Continuous
 62
   174
100
AcDbLine
 10
152.990258
 20
98.930737
 30
0.0
 11
159.190258
 21
98.930737
 31
0.0
  0
LINE
  5
173
100
AcDbEntity
  8
0
  6
Continuous
 62
   174
100
AcDbLine
 10
152.990258
 20
116.157763
 30
0.0
 11
152.990258
 21
115.545133
 31
0.0
  0
LINE
  5
174
100
AcDbEntity
  8
0
  6
Continuous
 62
   174
100
AcDbLine
 10
159.190258
 20
97.545133
 30
0.0
 11
159.690258
 21
97.545133
 31
0.0
  0
LINE
  5
175
100
AcDbEntity
  8
0
  6
Continuous
 62
   174
100
AcDbLine
 10
187.190258
 20
100.045133
 30
0.0
 11
164.190258
 21
100.045133
 31
0.0
  0
LINE
  5
176
100
AcDbEntity
  8
0
  6
Continuous
 62
   174
100
AcDbLine
 10
161.190258
 20
115.045133
 30
0.0
 11
161.190258
 21
113.790131
 31
0.0
  0
ARC
  5
177
100
AcDbEntity
  8
0
  6
Continuous
 62
   174
100
AcDbCircle
 10
257.690258
 20
107.545133
 30
0.0
 40
6.58
100
AcDbArc
 50
-180.0
 51
-61.194706
  0
LINE
  5
178
100
AcDbEntity
  8
0
  6
Continuous
 62
   174
100
AcDbLine
 10
187.190258
 20
97.089572
 30
0.0
 11
187.190258
 21
100.08914
 31
0.0
  0
ARC
  5
179
100
AcDbEntity
  8
0
  6
Continuous
 62
   174
100
AcDbCircle
 10
187.190258
 20
100.045133
 30
0.0
 40
3.0
100
AcDbArc
 50
-90.0
 51
0.0
  0
LINE
  5
17A
100
AcDbEntity
  8
0
  6
Continuous
 62
   174
100
AcDbLine
 10
146.190258
 20
98.545133
 30
0.0
 11
145.490258
 21
98.545133
 31
0.0
  0
LINE
  5
17B
100
AcDbEntity
  8
0
  6
Continuous
 62
   174
100
AcDbLine
 10
142.383078
 20
99.79626
 30
0.0
 11
145.490258
 21
99.79626
 31
0.0
  0
LINE
  5
17C
100
AcDbEntity
  8
0
  6
Continuous
 62
   174
100
AcDbLine
 10
152.990258
 20
117.226722
 30
0.0
 11
159.190258
 21
117.226722
 31
0.0
  0
LINE
  5
17D
100
AcDbEntity
  8
0
  6
Continuous
 62
   174
100
AcDbLine
 10
161.21604
 20
100.045133
 30
0.0
 11
164.215908
 21
100.045133
 31
0.0
  0
LINE
  5
17E
100
AcDbEntity
  8
0
  6
Continuous
 62
   174
100
AcDbLine
 10
187.190258
 20
118.045133
 30
0.0
 11
164.190258
 21
118.045133
 31
0.0
  0
ARC
  5
17F
100
AcDbEntity
  8
0
  6
Continuous
 62
   174
100
AcDbCircle
 10
257.690258
 20
107.545133
 30
0.0
 40
6.58
100
AcDbArc
 50
0.0
 51
180.0
  0
LINE
  5
180
100
AcDbEntity
  8
0
  6
Continuous
 62
   174
100
AcDbLine
 10
190.215869
 20
100.045133
 30
0.0
 11
187.216001
 21
100.045133
 31
0.0
  0
ARC
  5
181
100
AcDbEntity
  8
0
  6
Continuous
 62
   174
100
AcDbCircle
 10
257.690258
 20
107.545133
 30
0.0
 40
5.875
100
AcDbArc
 50
-180.0
 51
0.0
  0
LINE
  5
182
100
AcDbEntity
  8
0
  6
Continuous
 62
   174
100
AcDbLine
 10
187.216001
 20
115.045133
 30
0.0
 11
190.215869
 21
115.045133
 31
0.0
  0
LINE
  5
183
100
AcDbEntity
  8
0
  6
Continuous
 62
   174
100
AcDbLine
 10
161.190258
 20
113.790131
 30
0.0
 11
161.190258
 21
115.045133
 31
0.0
  0
LINE
  5
184
100
AcDbEntity
  8
0
  6
Continuous
 62
   174
100
AcDbLine
 10
206.690258
 20
92.545133
 30
0.0
 11
190.690258
 21
92.545133
 31
0.0
  0
LINE
  5
185
100
AcDbEntity
  8
0
  6
Continuous
 62
   174
100
AcDbLine
 10
286.690258
 20
122.545133
 30
0.0
 11
286.690258
 21
92.545133
 31
0.0
  0
LINE
  5
186
100
AcDbEntity
  8
0
  6
Continuous
 62
   174
100
AcDbLine
 10
206.690258
 20
122.545133
 30
0.0
 11
190.690258
 21
122.545133
 31
0.0
  0
ARC
  5
187
100
AcDbEntity
  8
0
  6
Continuous
 62
   174
100
AcDbCircle
 10
201.690258
 20
107.545133
 30
0.0
 40
2.6
100
AcDbArc
 50
-86.423666
 51
86.423666
  0
LWPOLYLINE
  5
188
100
AcDbEntity
  8
0
  6
Continuous
 62
   174
100
AcDbPolyline
 90
        4
 70
   128
 10
142.383078
 20
107.4552
 10
142.055177
 20
108.540169
 10
141.822423
 20
109.599167
 10
141.690258
 20
110.647411
  0
LINE
  5
189
100
AcDbEntity
  8
0
  6
Continuous
 62
   174
100
AcDbLine
 10
159.690258
 20
117.545133
 30
0.0
 11
160.690258
 21
117.545133
 31
0.0
  0
LINE
  5
18A
100
AcDbEntity
  8
0
  6
Continuous
 62
   174
100
AcDbLine
 10
159.690258
 20
117.545133
 30
0.0
 11
160.690258
 21
117.545133
 31
0.0
  0
LINE
  5
18B
100
AcDbEntity
  8
0
  6
Continuous
 62
   174
100
AcDbLine
 10
164.215908
 20
115.045133
 30
0.0
 11
161.21604
 21
115.045133
 31
0.0
  0
LINE
  5
18C
100
AcDbEntity
  8
0
  6
Continuous
 62
   174
100
AcDbLine
 10
159.190258
 20
115.614495
 30
0.0
 11
159.190258
 21
116.200891
 31
0.0
  0
LINE
  5
18D
100
AcDbEntity
  8
0
  6
Continuous
 62
   174
100
AcDbLine
 10
160.690258
 20
96.545133
 30
0.0
 11
160.690258
 21
99.545133
 31
0.0
  0
LINE
  5
18E
100
AcDbEntity
  8
0
  6
Continuous
 62
   174
100
AcDbLine
 10
164.190258
 20
97.089572
 30
0.0
 11
164.190258
 21
100.08914
 31
0.0
  0
LINE
  5
18F
100
AcDbEntity
  8
0
  6
Continuous
 62
   174
100
AcDbLine
 10
187.190258
 20
115.088181
 30
0.0
 11
187.190258
 21
118.08805
 31
0.0
  0
LINE
  5
190
100
AcDbEntity
  8
0
  6
Continuous
 62
   174
100
AcDbLine
 10
164.190258
 20
97.045133
 30
0.0
 11
187.190258
 21
97.045133
 31
0.0
  0
LINE
  5
191
100
AcDbEntity
  8
0
  6
Continuous
 62
   174
100
AcDbLine
 10
164.190258
 20
115.088181
 30
0.0
 11
164.190258
 21
118.08805
 31
0.0
  0
ENDBLK
  5
192
100
AcDbEntity
  8
0
100
AcDbBlockEnd
  0
BLOCK
  5
195
100
AcDbEntity
  8
0
100
AcDbBlockBegin
  2
*B3
 70
     0
 10
0.0
 20
0.0
 30
0.0
  3
*B3
  1

  0
LINE
  5
196
100
AcDbEntity
  8
0
  6
Continuous
 62
   172
100
AcDbLine
 10
182.317159
 20
143.135678
 30
0.0
 11
171.105758
 21
143.135678
 31
0.0
  0
LINE
  5
197
100
AcDbEntity
  8
0
  6
Continuous
 62
   172
100
AcDbLine
 10
197.603086
 20
117.141402
 30
0.0
 11
182.317159
 21
143.135678
 31
0.0
  0
ENDBLK
  5
198
100
AcDbEntity
  8
0
100
AcDbBlockEnd
  0
BLOCK
  5
19B
100
AcDbEntity
  8
0
100
AcDbBlockBegin
  2
*B4
 70
     0
 10
0.0
 20
0.0
 30
0.0
  3
*B4
  1

  0
LINE
  5
19C
100
AcDbEntity
  8
0
  6
Continuous
 62
   172
100
AcDbLine
 10
179.987618
 20
145.567088
 30
0.0
 11
177.587618
 21
146.448948
 31
0.0
  0
LINE
  5
19D
100
AcDbEntity
  8
0
  6
Continuous
 62
   172
100
AcDbLine
 10
179.987618
 20
145.567088
 30
0.0
 11
177.587618
 21
144.848948
 31
0.0
  0
LINE
  5
19E
100
AcDbEntity
  8
0
  6
Continuous
 62
   172
100
AcDbLine
 10
178.387618
 20
145.567088
 30
0.0
 11
179.987618
 21
145.567088
 31
0.0
  0
LINE
  5
19F
100
AcDbEntity
  8
0
  6
Continuous
 62
   172
100
AcDbLine
 10
179.987618
 20
159.330808
 30
0.0
 11
177.587618
 21
158.448948
 31
0.0
  0
LINE
  5
1A0
100
AcDbEntity
  8
0
  6
Continuous
 62
   172
100
AcDbLine
 10
179.987618
 20
159.330808
 30
0.0
 11
177.587618
 21
160.048948
 31
0.0
  0
LINE
  5
1A1
100
AcDbEntity
  8
0
  6
Continuous
 62
   172
100
AcDbLine
 10
178.387618
 20
159.330808
 30
0.0
 11
179.987618
 21
159.330808
 31
0.0
  0
ARC
  5
1A2
100
AcDbEntity
  8
0
  6
Continuous
 62
   172
100
AcDbCircle
 10
178.387618
 20
152.448948
 30
0.0
 40
6.88186
100
AcDbArc
 50
-270.0
 51
-90.0
  0
ENDBLK
  5
1A3
100
AcDbEntity
  8
0
100
AcDbBlockEnd
  0
BLOCK
  5
1A6
100
AcDbEntity
  8
0
100
AcDbBlockBegin
  2
*B5
 70
     0
 10
0.0
 20
0.0
 30
0.0
  3
*B5
  1

  0
ENDBLK
  5
1A7
100
AcDbEntity
  8
0
100
AcDbBlockEnd
  0
BLOCK
  5
1A9
100
AcDbEntity
  8
0
100
AcDbBlockBegin
  2
*B6
 70
     0
 10
0.0
 20
0.0
 30
0.0
  3
*B6
  1

  0
LINE
  5
1AA
100
AcDbEntity
  8
0
  6
Continuous
 62
   172
100
AcDbLine
 10
164.962426
 20
186.836531
 30
0.0
 11
141.373827
 21
146.723261
 31
0.0
  0
LINE
  5
1AB
100
AcDbEntity
  8
0
  6
Continuous
 62
   172
100
AcDbLine
 10
141.373827
 20
146.723261
 30
0.0
 11
130.162426
 21
146.723261
 31
0.0
  0
ENDBLK
  5
1AC
100
AcDbEntity
  8
0
100
AcDbBlockEnd
  0
BLOCK
  5
1AF
100
AcDbEntity
  8
0
100
AcDbBlockBegin
  2
*B7
 70
     0
 10
0.0
 20
0.0
 30
0.0
  3
*B7
  1

  0
LINE
  5
1B0
100
AcDbEntity
  8
0
  6
Continuous
 62
   172
100
AcDbLine
 10
139.044286
 20
149.154671
 30
0.0
 11
136.644286
 21
150.036531
 31
0.0
  0
LINE
  5
1B1
100
AcDbEntity
  8
0
  6
Continuous
 62
   172
100
AcDbLine
 10
139.044286
 20
149.154671
 30
0.0
 11
136.644286
 21
148.436531
 31
0.0
  0
LINE
  5
1B2
100
AcDbEntity
  8
0
  6
Continuous
 62
   172
100
AcDbLine
 10
137.444286
 20
149.154671
 30
0.0
 11
139.044286
 21
149.154671
 31
0.0
  0
LINE
  5
1B3
100
AcDbEntity
  8
0
  6
Continuous
 62
   172
100
AcDbLine
 10
139.044286
 20
162.918392
 30
0.0
 11
136.644286
 21
162.036531
 31
0.0
  0
LINE
  5
1B4
100
AcDbEntity
  8
0
  6
Continuous
 62
   172
100
AcDbLine
 10
139.044286
 20
162.918392
 30
0.0
 11
136.644286
 21
163.636531
 31
0.0
  0
LINE
  5
1B5
100
AcDbEntity
  8
0
  6
Continuous
 62
   172
100
AcDbLine
 10
137.444286
 20
162.918392
 30
0.0
 11
139.044286
 21
162.918392
 31
0.0
  0
ARC
  5
1B6
100
AcDbEntity
  8
0
  6
Continuous
 62
   172
100
AcDbCircle
 10
137.444286
 20
156.036531
 30
0.0
 40
6.88186
100
AcDbArc
 50
-270.0
 51
-90.0
  0
ENDBLK
  5
1B7
100
AcDbEntity
  8
0
100
AcDbBlockEnd
  0
BLOCK
  5
1BA
100
AcDbEntity
  8
0
100
AcDbBlockBegin
  2
*B8
 70
     0
 10
0.0
 20
0.0
 30
0.0
  3
*B8
  1

  0
ENDBLK
  5
1BB
100
AcDbEntity
  8
0
100
AcDbBlockEnd
  0
BLOCK
  5
1BD
100
AcDbEntity
  8
0
100
AcDbBlockBegin
  2
*B9
 70
     0
 10
0.0
 20
0.0
 30
0.0
  3
*B9
  1

  0
LINE
  5
1BE
100
AcDbEntity
  8
0
  6
Continuous
 62
     0
100
AcDbLine
 10
314.025478
 20
122.587552
 30
0.0
 11
314.025478
 21
92.589769
 31
0.0
  0
SOLID
  5
1BF
100
AcDbEntity
  8
0
  6
Continuous
 62
     0
100
AcDbTrace
 10
315.025535
 20
117.587872
 30
0.0
 11
314.025478
 21
122.587552
 31
0.0
 12
313.025723
 22
117.587872
 32
0.0
 13
313.025723
 23
117.587872
 33
0.0
  0
SOLID
  5
1C0
100
AcDbEntity
  8
0
  6
Continuous
 62
     0
100
AcDbTrace
 10
313.025723
 20
97.58945
 30
0.0
 11
314.025478
 21
92.589769
 31
0.0
 12
315.025535
 22
97.58945
 32
0.0
 13
315.025535
 23
97.58945
 33
0.0
  0
ENDBLK
  5
1C1
100
AcDbEntity
  8
0
100
AcDbBlockEnd
  0
BLOCK
  5
1C4
100
AcDbEntity
  8
0
100
AcDbBlockBegin
  2
*B10
 70
     0
 10
0.0
 20
0.0
 30
0.0
  3
*B10
  1

  0
LINE
  5
1C5
100
AcDbEntity
  8
0
  6
Continuous
 62
     0
100
AcDbLine
 10
190.716047
 20
253.033161
 30
0.0
 11
141.715994
 21
253.033161
 31
0.0
  0
SOLID
  5
1C6
100
AcDbEntity
  8
0
  6
Continuous
 62
     0
100
AcDbTrace
 10
185.715766
 20
252.033105
 30
0.0
 11
190.716047
 21
253.033161
 31
0.0
 12
185.715766
 22
254.032917
 32
0.0
 13
185.715766
 23
254.032917
 33
0.0
  0
SOLID
  5
1C7
100
AcDbEntity
  8
0
  6
Continuous
 62
     0
100
AcDbTrace
 10
146.715975
 20
254.032917
 30
0.0
 11
141.715994
 21
253.033161
 31
0.0
 12
146.715975
 22
252.033105
 32
0.0
 13
146.715975
 23
252.033105
 33
0.0
  0
ENDBLK
  5
1C8
100
AcDbEntity
  8
0
100
AcDbBlockEnd
  0
BLOCK
  5
1CB
100
AcDbEntity
  8
0
100
AcDbBlockBegin
  2
*B11
 70
     0
 10
0.0
 20
0.0
 30
0.0
  3
*B11
  1

  0
LINE
  5
1CC
100
AcDbEntity
  8
0
  6
Continuous
 62
     0
100
AcDbLine
 10
258.715968
 20
154.040208
 30
0.0
 11
296.716003
 21
154.040208
 31
0.0
  0
SOLID
  5
1CD
100
AcDbEntity
  8
0
  6
Continuous
 62
     0
100
AcDbTrace
 10
263.715949
 20
153.040452
 30
0.0
 11
268.71593
 21
154.040208
 31
0.0
 12
263.715949
 22
155.040264
 32
0.0
 13
263.715949
 23
155.040264
 33
0.0
  0
SOLID
  5
1CE
100
AcDbEntity
  8
0
  6
Continuous
 62
     0
100
AcDbTrace
 10
291.715722
 20
155.040264
 30
0.0
 11
286.715741
 21
154.040208
 31
0.0
 12
291.715722
 22
153.040452
 32
0.0
 13
291.715722
 23
153.040452
 33
0.0
  0
ENDBLK
  5
1CF
100
AcDbEntity
  8
0
100
AcDbBlockEnd
  0
BLOCK
  5
1D2
100
AcDbEntity
  8
0
100
AcDbBlockBegin
  2
*B12
 70
     0
 10
0.0
 20
0.0
 30
0.0
  3
*B12
  1

  0
LINE
  5
1D3
100
AcDbEntity
  8
0
  6
Continuous
 62
     0
100
AcDbLine
 10
224.715858
 20
154.040208
 30
0.0
 11
246.715894
 21
154.040208
 31
0.0
  0
SOLID
  5
1D4
100
AcDbEntity
  8
0
  6
Continuous
 62
     0
100
AcDbTrace
 10
229.715838
 20
155.040264
 30
0.0
 11
224.715858
 21
154.040208
 31
0.0
 12
229.715838
 22
153.040452
 32
0.0
 13
229.715838
 23
153.040452
 33
0.0
  0
SOLID
  5
1D5
100
AcDbEntity
  8
0
  6
Continuous
 62
     0
100
AcDbTrace
 10
241.715913
 20
153.040452
 30
0.0
 11
246.715894
 21
154.040208
 31
0.0
 12
241.715913
 22
155.040264
 32
0.0
 13
241.715913
 23
155.040264
 33
0.0
  0
ENDBLK
  5
1D6
100
AcDbEntity
  8
0
100
AcDbBlockEnd
  0
BLOCK
  5
1D9
100
AcDbEntity
  8
0
100
AcDbBlockBegin
  2
*B13
 70
     0
 10
0.0
 20
0.0
 30
0.0
  3
*B13
  1

  0
LINE
  5
1DA
100
AcDbEntity
  8
0
  6
Continuous
 62
     0
100
AcDbLine
 10
246.715894
 20
154.040208
 30
0.0
 11
268.71593
 21
154.040208
 31
0.0
  0
SOLID
  5
1DB
100
AcDbEntity
  8
0
  6
Continuous
 62
     0
100
AcDbTrace
 10
251.715875
 20
155.040264
 30
0.0
 11
246.715894
 21
154.040208
 31
0.0
 12
251.715875
 22
153.040452
 32
0.0
 13
251.715875
 23
153.040452
 33
0.0
  0
SOLID
  5
1DC
100
AcDbEntity
  8
0
  6
Continuous
 62
     0
100
AcDbTrace
 10
263.715949
 20
153.040452
 30
0.0
 11
268.71593
 21
154.040208
 31
0.0
 12
263.715949
 22
155.040264
 32
0.0
 13
263.715949
 23
155.040264
 33
0.0
  0
ENDBLK
  5
1DD
100
AcDbEntity
  8
0
100
AcDbBlockEnd
  0
BLOCK
  5
1E0
100
AcDbEntity
  8
0
100
AcDbBlockBegin
  2
*B14
 70
     0
 10
0.0
 20
0.0
 30
0.0
  3
*B14
  1

  0
LINE
  5
1E1
100
AcDbEntity
  8
0
  6
Continuous
 62
     0
100
AcDbLine
 10
196.715784
 20
154.040208
 30
0.0
 11
234.715819
 21
154.040208
 31
0.0
  0
SOLID
  5
1E2
100
AcDbEntity
  8
0
  6
Continuous
 62
     0
100
AcDbTrace
 10
201.715765
 20
153.040452
 30
0.0
 11
206.715746
 21
154.040208
 31
0.0
 12
201.715765
 22
155.040264
 32
0.0
 13
201.715765
 23
155.040264
 33
0.0
  0
SOLID
  5
1E3
100
AcDbEntity
  8
0
  6
Continuous
 62
     0
100
AcDbTrace
 10
229.715838
 20
155.040264
 30
0.0
 11
224.715858
 21
154.040208
 31
0.0
 12
229.715838
 22
153.040452
 32
0.0
 13
229.715838
 23
153.040452
 33
0.0
  0
ENDBLK
  5
1E4
100
AcDbEntity
  8
0
100
AcDbBlockEnd
  0
BLOCK
  5
1E7
100
AcDbEntity
  8
0
100
AcDbBlockBegin
  2
*B15
 70
     0
 10
0.0
 20
0.0
 30
0.0
  3
*B15
  1

  0
LINE
  5
1E8
100
AcDbEntity
  8
0
  6
Continuous
 62
     0
100
AcDbLine
 10
257.715912
 20
236.034307
 30
0.0
 11
286.715741
 21
236.034307
 31
0.0
  0
SOLID
  5
1E9
100
AcDbEntity
  8
0
  6
Continuous
 62
     0
100
AcDbTrace
 10
262.715893
 20
237.034364
 30
0.0
 11
257.715912
 21
236.034307
 31
0.0
 12
262.715893
 22
235.034552
 32
0.0
 13
262.715893
 23
235.034552
 33
0.0
  0
SOLID
  5
1EA
100
AcDbEntity
  8
0
  6
Continuous
 62
     0
100
AcDbTrace
 10
281.71576
 20
235.034552
 30
0.0
 11
286.715741
 21
236.034307
 31
0.0
 12
281.71576
 22
237.034364
 32
0.0
 13
281.71576
 23
237.034364
 33
0.0
  0
ENDBLK
  5
1EB
100
AcDbEntity
  8
0
100
AcDbBlockEnd
  0
BLOCK
  5
1EE
100
AcDbEntity
  8
0
100
AcDbBlockBegin
  2
*B16
 70
     0
 10
0.0
 20
0.0
 30
0.0
  3
*B16
  1

  0
LINE
  5
1EF
100
AcDbEntity
  8
0
  6
Continuous
 62
     0
100
AcDbLine
 10
235.715876
 20
236.034307
 30
0.0
 11
257.715912
 21
236.034307
 31
0.0
  0
SOLID
  5
1F0
100
AcDbEntity
  8
0
  6
Continuous
 62
     0
100
AcDbTrace
 10
240.715857
 20
237.034364
 30
0.0
 11
235.715876
 21
236.034307
 31
0.0
 12
240.715857
 22
235.034552
 32
0.0
 13
240.715857
 23
235.034552
 33
0.0
  0
SOLID
  5
1F1
100
AcDbEntity
  8
0
  6
Continuous
 62
     0
100
AcDbTrace
 10
252.715931
 20
235.034552
 30
0.0
 11
257.715912
 21
236.034307
 31
0.0
 12
252.715931
 22
237.034364
 32
0.0
 13
252.715931
 23
237.034364
 33
0.0
  0
ENDBLK
  5
1F2
100
AcDbEntity
  8
0
100
AcDbBlockEnd
  0
BLOCK
  5
1F5
100
AcDbEntity
  8
0
100
AcDbBlockBegin
  2
*B17
 70
     0
 10
0.0
 20
0.0
 30
0.0
  3
*B17
  1

  0
LINE
  5
1F6
100
AcDbEntity
  8
0
  6
Continuous
 62
     0
100
AcDbLine
 10
315.025535
 20
220.093188
 30
0.0
 11
315.025535
 21
170.096984
 31
0.0
  0
SOLID
  5
1F7
100
AcDbEntity
  8
0
  6
Continuous
 62
     0
100
AcDbTrace
 10
316.025591
 20
215.093508
 30
0.0
 11
315.025535
 21
220.093188
 31
0.0
 12
314.025478
 22
215.093508
 32
0.0
 13
314.025478
 23
215.093508
 33
0.0
  0
SOLID
  5
1F8
100
AcDbEntity
  8
0
  6
Continuous
 62
     0
100
AcDbTrace
 10
314.025478
 20
175.096364
 30
0.0
 11
315.025535
 21
170.096984
 31
0.0
 12
316.025591
 22
175.096364
 32
0.0
 13
316.025591
 23
175.096364
 33
0.0
  0
ENDBLK
  5
1F9
100
AcDbEntity
  8
0
100
AcDbBlockEnd
  0
BLOCK
  5
1FC
100
AcDbEntity
  8
0
100
AcDbBlockBegin
  2
*B18
 70
     0
 10
0.0
 20
0.0
 30
0.0
  3
*B18
  1

  0
LINE
  5
1FD
100
AcDbEntity
  8
0
  6
Continuous
 62
     0
100
AcDbLine
 10
302.025704
 20
213.093696
 30
0.0
 11
302.025704
 21
177.096477
 31
0.0
  0
SOLID
  5
1FE
100
AcDbEntity
  8
0
  6
Continuous
 62
     0
100
AcDbTrace
 10
303.02546
 20
208.094015
 30
0.0
 11
302.025704
 21
213.093696
 31
0.0
 12
301.025648
 22
208.094015
 32
0.0
 13
301.025648
 23
208.094015
 33
0.0
  0
SOLID
  5
1FF
100
AcDbEntity
  8
0
  6
Continuous
 62
     0
100
AcDbTrace
 10
301.025648
 20
182.095857
 30
0.0
 11
302.025704
 21
177.096477
 31
0.0
 12
303.02546
 22
182.095857
 32
0.0
 13
303.02546
 23
182.095857
 33
0.0
  0
ENDBLK
  5
200
100
AcDbEntity
  8
0
100
AcDbBlockEnd
  0
BLOCK
  5
203
100
AcDbEntity
  8
0
100
AcDbBlockBegin
  2
*B19
 70
     0
 10
0.0
 20
0.0
 30
0.0
  3
*B19
  1

  0
LINE
  5
204
100
AcDbEntity
  8
0
  6
Continuous
 62
     0
100
AcDbLine
 10
128.025827
 20
242.091122
 30
0.0
 11
128.025827
 21
170.096984
 31
0.0
  0
SOLID
  5
205
100
AcDbEntity
  8
0
  6
Continuous
 62
     0
100
AcDbTrace
 10
129.025583
 20
237.091441
 30
0.0
 11
128.025827
 21
242.091122
 31
0.0
 12
127.025771
 22
237.091441
 32
0.0
 13
127.025771
 23
237.091441
 33
0.0
  0
SOLID
  5
206
100
AcDbEntity
  8
0
  6
Continuous
 62
     0
100
AcDbTrace
 10
127.025771
 20
175.096364
 30
0.0
 11
128.025827
 21
170.096984
 31
0.0
 12
129.025583
 22
175.096364
 32
0.0
 13
129.025583
 23
175.096364
 33
0.0
  0
ENDBLK
  5
207
100
AcDbEntity
  8
0
100
AcDbBlockEnd
  0
BLOCK
  5
20A
100
AcDbEntity
  8
0
100
AcDbBlockBegin
  2
*B20
 70
     0
 10
0.0
 20
0.0
 30
0.0
  3
*B20
  1

  0
LINE
  5
20B
100
AcDbEntity
  8
0
  6
Continuous
 62
     0
100
AcDbLine
 10
241.840882
 20
77.553778
 30
0.0
 11
290.921445
 21
77.553778
 31
0.0
  0
SOLID
  5
20C
100
AcDbEntity
  8
0
  6
Continuous
 62
     0
100
AcDbTrace
 10
246.840863
 20
76.554022
 30
0.0
 11
251.840844
 21
77.553778
 31
0.0
 12
246.840863
 22
78.553834
 32
0.0
 13
246.840863
 23
78.553834
 33
0.0
  0
SOLID
  5
20D
100
AcDbEntity
  8
0
  6
Continuous
 62
     0
100
AcDbTrace
 10
268.590961
 20
78.553834
 30
0.0
 11
263.59098
 21
77.553778
 31
0.0
 12
268.590961
 22
76.554022
 32
0.0
 13
268.590961
 23
76.554022
 33
0.0
  0
ENDBLK
  5
20E
100
AcDbEntity
  8
0
100
AcDbBlockEnd
  0
BLOCK
  5
211
100
AcDbEntity
  8
0
100
AcDbBlockBegin
  2
*B21
 70
     0
 10
0.0
 20
0.0
 30
0.0
  3
*B21
  1

  0
LINE
  5
212
100
AcDbEntity
  8
0
  6
Continuous
 62
     0
100
AcDbLine
 10
224.715858
 20
253.033161
 30
0.0
 11
268.71593
 21
253.033161
 31
0.0
  0
SOLID
  5
213
100
AcDbEntity
  8
0
  6
Continuous
 62
     0
100
AcDbTrace
 10
229.715838
 20
254.032917
 30
0.0
 11
224.715858
 21
253.033161
 31
0.0
 12
229.715838
 22
252.033105
 32
0.0
 13
229.715838
 23
252.033105
 33
0.0
  0
SOLID
  5
214
100
AcDbEntity
  8
0
  6
Continuous
 62
     0
100
AcDbTrace
 10
263.715949
 20
252.033105
 30
0.0
 11
268.71593
 21
253.033161
 31
0.0
 12
263.715949
 22
254.032917
 32
0.0
 13
263.715949
 23
254.032917
 33
0.0
  0
ENDBLK
  5
215
100
AcDbEntity
  8
0
100
AcDbBlockEnd
  0
BLOCK
  5
218
100
AcDbEntity
  8
0
100
AcDbBlockBegin
  2
*B22
 70
     0
 10
0.0
 20
0.0
 30
0.0
  3
*B22
  1

  0
LINE
  5
219
100
AcDbEntity
  8
0
  6
Continuous
 62
     0
100
AcDbLine
 10
190.716047
 20
140.041223
 30
0.0
 11
286.715741
 21
140.041223
 31
0.0
  0
SOLID
  5
21A
100
AcDbEntity
  8
0
  6
Continuous
 62
     0
100
AcDbTrace
 10
195.716028
 20
141.041279
 30
0.0
 11
190.716047
 21
140.041223
 31
0.0
 12
195.716028
 22
139.041467
 32
0.0
 13
195.716028
 23
139.041467
 33
0.0
  0
SOLID
  5
21B
100
AcDbEntity
  8
0
  6
Continuous
 62
     0
100
AcDbTrace
 10
281.71576
 20
139.041467
 30
0.0
 11
286.715741
 21
140.041223
 31
0.0
 12
281.71576
 22
141.041279
 32
0.0
 13
281.71576
 23
141.041279
 33
0.0
  0
ENDBLK
  5
21C
100
AcDbEntity
  8
0
100
AcDbBlockEnd
  0
BLOCK
  5
21F
100
AcDbEntity
  8
0
100
AcDbBlockBegin
  2
*B23
 70
     0
 10
0.0
 20
0.0
 30
0.0
  3
*B23
  1

  0
LINE
  5
220
100
AcDbEntity
  8
0
  6
Continuous
 62
     0
100
AcDbLine
 10
201.096325
 20
236.034307
 30
0.0
 11
237.465749
 21
236.034307
 31
0.0
  0
SOLID
  5
221
100
AcDbEntity
  8
0
  6
Continuous
 62
     0
100
AcDbTrace
 10
216.965947
 20
235.034552
 30
0.0
 11
221.965928
 21
236.034307
 31
0.0
 12
216.965947
 22
237.034364
 32
0.0
 13
216.965947
 23
237.034364
 33
0.0
  0
SOLID
  5
222
100
AcDbEntity
  8
0
  6
Continuous
 62
     0
100
AcDbTrace
 10
232.465768
 20
237.034364
 30
0.0
 11
227.465787
 21
236.034307
 31
0.0
 12
232.465768
 22
235.034552
 32
0.0
 13
232.465768
 23
235.034552
 33
0.0
  0
ENDBLK
  5
223
100
AcDbEntity
  8
0
100
AcDbBlockEnd
  0
BLOCK
  5
226
100
AcDbEntity
  8
0
100
AcDbBlockBegin
  2
*B24
 70
     0
 10
0.0
 20
0.0
 30
0.0
  3
*B24
  1

  0
LINE
  5
227
100
AcDbEntity
  8
0
  6
Continuous
 62
     8
100
AcDbLine
 10
137.716069
 20
107.611341
 30
0.0
 11
145.882645
 21
107.611341
 31
0.0
  0
LINE
  5
228
100
AcDbEntity
  8
0
  6
Continuous
 62
     8
100
AcDbLine
 10
147.882457
 20
107.611341
 30
0.0
 11
148.882513
 21
107.611341
 31
0.0
  0
LINE
  5
229
100
AcDbEntity
  8
0
  6
Continuous
 62
     8
100
AcDbLine
 10
150.882626
 20
107.611341
 30
0.0
 11
159.049201
 21
107.611341
 31
0.0
  0
LINE
  5
22A
100
AcDbEntity
  8
0
  6
Continuous
 62
     8
100
AcDbLine
 10
161.049314
 20
107.611341
 30
0.0
 11
162.04937
 21
107.611341
 31
0.0
  0
LINE
  5
22B
100
AcDbEntity
  8
0
  6
Continuous
 62
     8
100
AcDbLine
 10
164.049182
 20
107.611341
 30
0.0
 11
172.215757
 21
107.611341
 31
0.0
  0
LINE
  5
22C
100
AcDbEntity
  8
0
  6
Continuous
 62
     8
100
AcDbLine
 10
174.21587
 20
107.611341
 30
0.0
 11
175.215926
 21
107.611341
 31
0.0
  0
LINE
  5
22D
100
AcDbEntity
  8
0
  6
Continuous
 62
     8
100
AcDbLine
 10
177.216039
 20
107.611341
 30
0.0
 11
185.382614
 21
107.611341
 31
0.0
  0
LINE
  5
22E
100
AcDbEntity
  8
0
  6
Continuous
 62
     8
100
AcDbLine
 10
187.382426
 20
107.611341
 30
0.0
 11
188.382483
 21
107.611341
 31
0.0
  0
LINE
  5
22F
100
AcDbEntity
  8
0
  6
Continuous
 62
     8
100
AcDbLine
 10
190.382595
 20
107.611341
 30
0.0
 11
198.54917
 21
107.611341
 31
0.0
  0
LINE
  5
230
100
AcDbEntity
  8
0
  6
Continuous
 62
     8
100
AcDbLine
 10
200.549283
 20
107.611341
 30
0.0
 11
201.549339
 21
107.611341
 31
0.0
  0
LINE
  5
231
100
AcDbEntity
  8
0
  6
Continuous
 62
     8
100
AcDbLine
 10
203.549151
 20
107.611341
 30
0.0
 11
211.716027
 21
107.611341
 31
0.0
  0
LINE
  5
232
100
AcDbEntity
  8
0
  6
Continuous
 62
     8
100
AcDbLine
 10
213.715839
 20
107.611341
 30
0.0
 11
214.715896
 21
107.611341
 31
0.0
  0
LINE
  5
233
100
AcDbEntity
  8
0
  6
Continuous
 62
     8
100
AcDbLine
 10
216.716008
 20
107.611341
 30
0.0
 11
224.882584
 21
107.611341
 31
0.0
  0
LINE
  5
234
100
AcDbEntity
  8
0
  6
Continuous
 62
     8
100
AcDbLine
 10
226.882396
 20
107.611341
 30
0.0
 11
227.882452
 21
107.611341
 31
0.0
  0
LINE
  5
235
100
AcDbEntity
  8
0
  6
Continuous
 62
     8
100
AcDbLine
 10
229.882565
 20
107.611341
 30
0.0
 11
238.04914
 21
107.611341
 31
0.0
  0
LINE
  5
236
100
AcDbEntity
  8
0
  6
Continuous
 62
     8
100
AcDbLine
 10
240.049253
 20
107.611341
 30
0.0
 11
241.049309
 21
107.611341
 31
0.0
  0
LINE
  5
237
100
AcDbEntity
  8
0
  6
Continuous
 62
     8
100
AcDbLine
 10
243.049121
 20
107.611341
 30
0.0
 11
251.215997
 21
107.611341
 31
0.0
  0
LINE
  5
238
100
AcDbEntity
  8
0
  6
Continuous
 62
     8
100
AcDbLine
 10
253.215809
 20
107.611341
 30
0.0
 11
254.215865
 21
107.611341
 31
0.0
  0
LINE
  5
239
100
AcDbEntity
  8
0
  6
Continuous
 62
     8
100
AcDbLine
 10
256.215978
 20
107.611341
 30
0.0
 11
264.382553
 21
107.611341
 31
0.0
  0
LINE
  5
23A
100
AcDbEntity
  8
0
  6
Continuous
 62
     8
100
AcDbLine
 10
266.382666
 20
107.611341
 30
0.0
 11
267.382421
 21
107.611341
 31
0.0
  0
LINE
  5
23B
100
AcDbEntity
  8
0
  6
Continuous
 62
     8
100
AcDbLine
 10
269.382534
 20
107.611341
 30
0.0
 11
277.549109
 21
107.611341
 31
0.0
  0
LINE
  5
23C
100
AcDbEntity
  8
0
  6
Continuous
 62
     8
100
AcDbLine
 10
279.549222
 20
107.611341
 30
0.0
 11
280.549278
 21
107.611341
 31
0.0
  0
LINE
  5
23D
100
AcDbEntity
  8
0
  6
Continuous
 62
     8
100
AcDbLine
 10
282.54909
 20
107.611341
 30
0.0
 11
290.715966
 21
107.611341
 31
0.0
  0
ENDBLK
  5
23E
100
AcDbEntity
  8
0
100
AcDbBlockEnd
  0
BLOCK
  5
241
100
AcDbEntity
  8
0
100
AcDbBlockBegin
  2
*B25
 70
     0
 10
0.0
 20
0.0
 30
0.0
  3
*B25
  1

  0
LINE
  5
242
100
AcDbEntity
  8
0
  6
Continuous
 62
     8
100
AcDbLine
 10
190.716047
 20
138.04141
 30
0.0
 11
190.716047
 21
168.096871
 31
0.0
  0
LINE
  5
243
100
AcDbEntity
  8
0
  6
Continuous
 62
     8
100
AcDbLine
 10
190.716047
 20
222.093
 30
0.0
 11
190.716047
 21
255.032973
 31
0.0
  0
ENDBLK
  5
244
100
AcDbEntity
  8
0
100
AcDbBlockEnd
  0
BLOCK
  5
247
100
AcDbEntity
  8
0
100
AcDbBlockBegin
  2
*B26
 70
     0
 10
0.0
 20
0.0
 30
0.0
  3
*B26
  1

  0
LINE
  5
248
100
AcDbEntity
  8
0
  6
Continuous
 62
     8
100
AcDbLine
 10
228.966022
 20
177.096477
 30
0.0
 11
232.716007
 21
177.096477
 31
0.0
  0
LINE
  5
249
100
AcDbEntity
  8
0
  6
Continuous
 62
     8
100
AcDbLine
 10
238.715744
 20
177.096477
 30
0.0
 11
242.46573
 21
177.096477
 31
0.0
  0
ENDBLK
  5
24A
100
AcDbEntity
  8
0
100
AcDbBlockEnd
  0
BLOCK
  5
24D
100
AcDbEntity
  8
0
100
AcDbBlockBegin
  2
*B27
 70
     0
 10
0.0
 20
0.0
 30
0.0
  3
*B27
  1

  0
LINE
  5
24E
100
AcDbEntity
  8
0
  6
Continuous
 62
     8
100
AcDbLine
 10
300.025592
 20
177.096477
 30
0.0
 11
304.025517
 21
177.096477
 31
0.0
  0
LINE
  5
24F
100
AcDbEntity
  8
0
  6
Continuous
 62
     8
100
AcDbLine
 10
250.965757
 20
177.096477
 30
0.0
 11
254.715743
 21
177.096477
 31
0.0
  0
LINE
  5
250
100
AcDbEntity
  8
0
  6
Continuous
 62
     8
100
AcDbLine
 10
260.71578
 20
177.096477
 30
0.0
 11
270.48563
 21
177.096477
 31
0.0
  0
LINE
  5
251
100
AcDbEntity
  8
0
  6
Continuous
 62
     8
100
AcDbLine
 10
272.485743
 20
177.096477
 30
0.0
 11
273.485799
 21
177.096477
 31
0.0
  0
LINE
  5
252
100
AcDbEntity
  8
0
  6
Continuous
 62
     8
100
AcDbLine
 10
275.485911
 20
177.096477
 30
0.0
 11
285.255761
 21
177.096477
 31
0.0
  0
LINE
  5
253
100
AcDbEntity
  8
0
  6
Continuous
 62
     8
100
AcDbLine
 10
287.255573
 20
177.096477
 30
0.0
 11
288.25563
 21
177.096477
 31
0.0
  0
LINE
  5
254
100
AcDbEntity
  8
0
  6
Continuous
 62
     8
100
AcDbLine
 10
290.255742
 20
177.096477
 30
0.0
 11
300.025592
 21
177.096477
 31
0.0
  0
ENDBLK
  5
255
100
AcDbEntity
  8
0
100
AcDbBlockEnd
  0
BLOCK
  5
258
100
AcDbEntity
  8
0
100
AcDbBlockBegin
  2
*B28
 70
     0
 10
0.0
 20
0.0
 30
0.0
  3
*B28
  1

  0
LINE
  5
259
100
AcDbEntity
  8
0
  6
Continuous
 62
     8
100
AcDbLine
 10
251.840844
 20
75.553966
 30
0.0
 11
251.840844
 21
105.588999
 31
0.0
  0
ENDBLK
  5
25A
100
AcDbEntity
  8
0
100
AcDbBlockEnd
  0
BLOCK
  5
25D
100
AcDbEntity
  8
0
100
AcDbBlockBegin
  2
*B29
 70
     0
 10
0.0
 20
0.0
 30
0.0
  3
*B29
  1

  0
LINE
  5
25E
100
AcDbEntity
  8
0
  6
Continuous
 62
     8
100
AcDbLine
 10
137.716069
 20
107.633572
 30
0.0
 11
149.515772
 21
107.633572
 31
0.0
  0
ENDBLK
  5
25F
100
AcDbEntity
  8
0
100
AcDbBlockEnd
  0
BLOCK
  5
262
100
AcDbEntity
  8
0
100
AcDbBlockBegin
  2
*B30
 70
     0
 10
0.0
 20
0.0
 30
0.0
  3
*B30
  1

  0
LINE
  5
263
100
AcDbEntity
  8
0
  6
Continuous
 62
     8
100
AcDbLine
 10
149.015894
 20
195.095086
 30
0.0
 11
157.3522
 21
195.095086
 31
0.0
  0
LINE
  5
264
100
AcDbEntity
  8
0
  6
Continuous
 62
     8
100
AcDbLine
 10
159.352312
 20
195.095086
 30
0.0
 11
160.352368
 21
195.095086
 31
0.0
  0
LINE
  5
265
100
AcDbEntity
  8
0
  6
Continuous
 62
     8
100
AcDbLine
 10
162.35218
 20
195.095086
 30
0.0
 11
170.688486
 21
195.095086
 31
0.0
  0
LINE
  5
266
100
AcDbEntity
  8
0
  6
Continuous
 62
     8
100
AcDbLine
 10
172.688599
 20
195.095086
 30
0.0
 11
173.688655
 21
195.095086
 31
0.0
  0
LINE
  5
267
100
AcDbEntity
  8
0
  6
Continuous
 62
     8
100
AcDbLine
 10
175.688767
 20
195.095086
 30
0.0
 11
184.025073
 21
195.095086
 31
0.0
  0
LINE
  5
268
100
AcDbEntity
  8
0
  6
Continuous
 62
     8
100
AcDbLine
 10
186.024885
 20
195.095086
 30
0.0
 11
187.024941
 21
195.095086
 31
0.0
  0
LINE
  5
269
100
AcDbEntity
  8
0
  6
Continuous
 62
     8
100
AcDbLine
 10
189.025054
 20
195.095086
 30
0.0
 11
197.36136
 21
195.095086
 31
0.0
  0
LINE
  5
26A
100
AcDbEntity
  8
0
  6
Continuous
 62
     8
100
AcDbLine
 10
199.361472
 20
195.095086
 30
0.0
 11
200.361228
 21
195.095086
 31
0.0
  0
LINE
  5
26B
100
AcDbEntity
  8
0
  6
Continuous
 62
     8
100
AcDbLine
 10
202.361341
 20
195.095086
 30
0.0
 11
210.697646
 21
195.095086
 31
0.0
  0
LINE
  5
26C
100
AcDbEntity
  8
0
  6
Continuous
 62
     8
100
AcDbLine
 10
212.697759
 20
195.095086
 30
0.0
 11
213.697815
 21
195.095086
 31
0.0
  0
LINE
  5
26D
100
AcDbEntity
  8
0
  6
Continuous
 62
     8
100
AcDbLine
 10
215.697627
 20
195.095086
 30
0.0
 11
224.033933
 21
195.095086
 31
0.0
  0
LINE
  5
26E
100
AcDbEntity
  8
0
  6
Continuous
 62
     8
100
AcDbLine
 10
226.034045
 20
195.095086
 30
0.0
 11
227.034101
 21
195.095086
 31
0.0
  0
LINE
  5
26F
100
AcDbEntity
  8
0
  6
Continuous
 62
     8
100
AcDbLine
 10
229.033914
 20
195.095086
 30
0.0
 11
237.37052
 21
195.095086
 31
0.0
  0
LINE
  5
270
100
AcDbEntity
  8
0
  6
Continuous
 62
     8
100
AcDbLine
 10
239.370332
 20
195.095086
 30
0.0
 11
240.370388
 21
195.095086
 31
0.0
  0
LINE
  5
271
100
AcDbEntity
  8
0
  6
Continuous
 62
     8
100
AcDbLine
 10
242.370501
 20
195.095086
 30
0.0
 11
250.706806
 21
195.095086
 31
0.0
  0
LINE
  5
272
100
AcDbEntity
  8
0
  6
Continuous
 62
     8
100
AcDbLine
 10
252.706919
 20
195.095086
 30
0.0
 11
253.706675
 21
195.095086
 31
0.0
  0
LINE
  5
273
100
AcDbEntity
  8
0
  6
Continuous
 62
     8
100
AcDbLine
 10
255.706787
 20
195.095086
 30
0.0
 11
264.043093
 21
195.095086
 31
0.0
  0
LINE
  5
274
100
AcDbEntity
  8
0
  6
Continuous
 62
     8
100
AcDbLine
 10
266.043205
 20
195.095086
 30
0.0
 11
267.043262
 21
195.095086
 31
0.0
  0
LINE
  5
275
100
AcDbEntity
  8
0
  6
Continuous
 62
     8
100
AcDbLine
 10
269.043074
 20
195.095086
 30
0.0
 11
277.379379
 21
195.095086
 31
0.0
  0
LINE
  5
276
100
AcDbEntity
  8
0
  6
Continuous
 62
     8
100
AcDbLine
 10
279.379492
 20
195.095086
 30
0.0
 11
280.379548
 21
195.095086
 31
0.0
  0
LINE
  5
277
100
AcDbEntity
  8
0
  6
Continuous
 62
     8
100
AcDbLine
 10
282.379661
 20
195.095086
 30
0.0
 11
290.715966
 21
195.095086
 31
0.0
  0
ENDBLK
  5
278
100
AcDbEntity
  8
0
100
AcDbBlockEnd
  0
BLOCK
  5
27B
100
AcDbEntity
  8
0
100
AcDbBlockBegin
  2
*B31
 70
     0
 10
0.0
 20
0.0
 30
0.0
  3
*B31
  1

  0
LINE
  5
27C
100
AcDbEntity
  8
0
  6
Continuous
 62
     8
100
AcDbLine
 10
288.715854
 20
92.589769
 30
0.0
 11
316.025591
 21
92.589769
 31
0.0
  0
ENDBLK
  5
27D
100
AcDbEntity
  8
0
100
AcDbBlockEnd
  0
BLOCK
  5
280
100
AcDbEntity
  8
0
100
AcDbBlockBegin
  2
*B32
 70
     0
 10
0.0
 20
0.0
 30
0.0
  3
*B32
  1

  0
LINE
  5
281
100
AcDbEntity
  8
0
  6
Continuous
 62
     8
100
AcDbLine
 10
268.71593
 20
152.040396
 30
0.0
 11
268.71593
 21
156.04002
 31
0.0
  0
LINE
  5
282
100
AcDbEntity
  8
0
  6
Continuous
 62
     8
100
AcDbLine
 10
268.71593
 20
251.033349
 30
0.0
 11
268.71593
 21
255.032973
 31
0.0
  0
LINE
  5
283
100
AcDbEntity
  8
0
  6
Continuous
 62
     8
100
AcDbLine
 10
268.71593
 20
156.04002
 30
0.0
 11
268.71593
 21
165.803862
 31
0.0
  0
LINE
  5
284
100
AcDbEntity
  8
0
  6
Continuous
 62
     8
100
AcDbLine
 10
268.71593
 20
167.803674
 30
0.0
 11
268.71593
 21
168.80373
 31
0.0
  0
LINE
  5
285
100
AcDbEntity
  8
0
  6
Continuous
 62
     8
100
AcDbLine
 10
268.71593
 20
170.803542
 30
0.0
 11
268.71593
 21
180.567083
 31
0.0
  0
LINE
  5
286
100
AcDbEntity
  8
0
  6
Continuous
 62
     8
100
AcDbLine
 10
268.71593
 20
182.567196
 30
0.0
 11
268.71593
 21
183.566952
 31
0.0
  0
LINE
  5
287
100
AcDbEntity
  8
0
  6
Continuous
 62
     8
100
AcDbLine
 10
268.71593
 20
185.566764
 30
0.0
 11
268.71593
 21
195.330606
 31
0.0
  0
LINE
  5
288
100
AcDbEntity
  8
0
  6
Continuous
 62
     8
100
AcDbLine
 10
268.71593
 20
197.330418
 30
0.0
 11
268.71593
 21
198.330474
 31
0.0
  0
LINE
  5
289
100
AcDbEntity
  8
0
  6
Continuous
 62
     8
100
AcDbLine
 10
268.71593
 20
200.330286
 30
0.0
 11
268.71593
 21
210.093827
 31
0.0
  0
LINE
  5
28A
100
AcDbEntity
  8
0
  6
Continuous
 62
     8
100
AcDbLine
 10
268.71593
 20
216.093564
 30
0.0
 11
268.71593
 21
224.407039
 31
0.0
  0
LINE
  5
28B
100
AcDbEntity
  8
0
  6
Continuous
 62
     8
100
AcDbLine
 10
268.71593
 20
226.406851
 30
0.0
 11
268.71593
 21
227.406907
 31
0.0
  0
LINE
  5
28C
100
AcDbEntity
  8
0
  6
Continuous
 62
     8
100
AcDbLine
 10
268.71593
 20
229.406719
 30
0.0
 11
268.71593
 21
237.720194
 31
0.0
  0
LINE
  5
28D
100
AcDbEntity
  8
0
  6
Continuous
 62
     8
100
AcDbLine
 10
268.71593
 20
239.720006
 30
0.0
 11
268.71593
 21
240.719762
 31
0.0
  0
LINE
  5
28E
100
AcDbEntity
  8
0
  6
Continuous
 62
     8
100
AcDbLine
 10
268.71593
 20
242.719874
 30
0.0
 11
268.71593
 21
251.033349
 31
0.0
  0
ENDBLK
  5
28F
100
AcDbEntity
  8
0
100
AcDbBlockEnd
  0
BLOCK
  5
292
100
AcDbEntity
  8
0
100
AcDbBlockBegin
  2
*B33
 70
     0
 10
0.0
 20
0.0
 30
0.0
  3
*B33
  1

  0
LINE
  5
293
100
AcDbEntity
  8
0
  6
Continuous
 62
     8
100
AcDbLine
 10
288.715854
 20
122.587552
 30
0.0
 11
316.025591
 21
122.587552
 31
0.0
  0
ENDBLK
  5
294
100
AcDbEntity
  8
0
100
AcDbBlockEnd
  0
BLOCK
  5
297
100
AcDbEntity
  8
0
100
AcDbBlockBegin
  2
*B34
 70
     0
 10
0.0
 20
0.0
 30
0.0
  3
*B34
  1

  0
LINE
  5
298
100
AcDbEntity
  8
0
  6
Continuous
 62
     8
100
AcDbLine
 10
257.715912
 20
234.034495
 30
0.0
 11
257.715912
 21
238.03412
 31
0.0
  0
LINE
  5
299
100
AcDbEntity
  8
0
  6
Continuous
 62
     8
100
AcDbLine
 10
257.715912
 20
170.346923
 30
0.0
 11
257.715912
 21
174.096608
 31
0.0
  0
LINE
  5
29A
100
AcDbEntity
  8
0
  6
Continuous
 62
     8
100
AcDbLine
 10
257.715912
 20
180.096045
 30
0.0
 11
257.715912
 21
189.831047
 31
0.0
  0
LINE
  5
29B
100
AcDbEntity
  8
0
  6
Continuous
 62
     8
100
AcDbLine
 10
257.715912
 20
191.830859
 30
0.0
 11
257.715912
 21
192.830915
 31
0.0
  0
LINE
  5
29C
100
AcDbEntity
  8
0
  6
Continuous
 62
     8
100
AcDbLine
 10
257.715912
 20
194.830728
 30
0.0
 11
257.715912
 21
204.56543
 31
0.0
  0
LINE
  5
29D
100
AcDbEntity
  8
0
  6
Continuous
 62
     8
100
AcDbLine
 10
257.715912
 20
206.565242
 30
0.0
 11
257.715912
 21
207.565298
 31
0.0
  0
LINE
  5
29E
100
AcDbEntity
  8
0
  6
Continuous
 62
     8
100
AcDbLine
 10
257.715912
 20
209.56511
 30
0.0
 11
257.715912
 21
219.300113
 31
0.0
  0
LINE
  5
29F
100
AcDbEntity
  8
0
  6
Continuous
 62
     8
100
AcDbLine
 10
257.715912
 20
221.299925
 30
0.0
 11
257.715912
 21
222.299681
 31
0.0
  0
LINE
  5
2A0
100
AcDbEntity
  8
0
  6
Continuous
 62
     8
100
AcDbLine
 10
257.715912
 20
224.299493
 30
0.0
 11
257.715912
 21
234.034495
 31
0.0
  0
ENDBLK
  5
2A1
100
AcDbEntity
  8
0
100
AcDbBlockEnd
  0
BLOCK
  5
2A4
100
AcDbEntity
  8
0
100
AcDbBlockBegin
  2
*B35
 70
     0
 10
0.0
 20
0.0
 30
0.0
  3
*B35
  1

  0
LINE
  5
2A5
100
AcDbEntity
  8
0
  6
Continuous
 62
     8
100
AcDbLine
 10
257.715912
 20
97.714419
 30
0.0
 11
257.715912
 21
104.588943
 31
0.0
  0
LINE
  5
2A6
100
AcDbEntity
  8
0
  6
Continuous
 62
     8
100
AcDbLine
 10
257.715912
 20
110.588379
 30
0.0
 11
257.715912
 21
117.462902
 31
0.0
  0
ENDBLK
  5
2A7
100
AcDbEntity
  8
0
100
AcDbBlockEnd
  0
BLOCK
  5
2AA
100
AcDbEntity
  8
0
100
AcDbBlockBegin
  2
*B36
 70
     0
 10
0.0
 20
0.0
 30
0.0
  3
*B36
  1

  0
LINE
  5
2AB
100
AcDbEntity
  8
0
  6
Continuous
 62
     8
100
AcDbLine
 10
221.965928
 20
215.093508
 30
0.0
 11
221.965928
 21
238.03412
 31
0.0
  0
ENDBLK
  5
2AC
100
AcDbEntity
  8
0
100
AcDbBlockEnd
  0
BLOCK
  5
2AF
100
AcDbEntity
  8
0
100
AcDbBlockBegin
  2
*B37
 70
     0
 10
0.0
 20
0.0
 30
0.0
  3
*B37
  1

  0
LINE
  5
2B0
100
AcDbEntity
  8
0
  6
Continuous
 62
     8
100
AcDbLine
 10
217.966003
 20
213.093696
 30
0.0
 11
221.715989
 21
213.093696
 31
0.0
  0
LINE
  5
2B1
100
AcDbEntity
  8
0
  6
Continuous
 62
     8
100
AcDbLine
 10
227.716026
 20
213.093696
 30
0.0
 11
231.466012
 21
213.093696
 31
0.0
  0
ENDBLK
  5
2B2
100
AcDbEntity
  8
0
100
AcDbBlockEnd
  0
BLOCK
  5
2B5
100
AcDbEntity
  8
0
100
AcDbBlockBegin
  2
*B38
 70
     0
 10
0.0
 20
0.0
 30
0.0
  3
*B38
  1

  0
LINE
  5
2B6
100
AcDbEntity
  8
0
  6
Continuous
 62
     8
100
AcDbLine
 10
126.025715
 20
170.096984
 30
0.0
 11
188.715935
 21
170.096984
 31
0.0
  0
LINE
  5
2B7
100
AcDbEntity
  8
0
  6
Continuous
 62
     8
100
AcDbLine
 10
288.715854
 20
170.096984
 30
0.0
 11
317.025647
 21
170.096984
 31
0.0
  0
ENDBLK
  5
2B8
100
AcDbEntity
  8
0
100
AcDbBlockEnd
  0
BLOCK
  5
2BB
100
AcDbEntity
  8
0
100
AcDbBlockBegin
  2
*B39
 70
     0
 10
0.0
 20
0.0
 30
0.0
  3
*B39
  1

  0
LINE
  5
2BC
100
AcDbEntity
  8
0
  6
Continuous
 62
     8
100
AcDbLine
 10
141.715994
 20
242.890806
 30
0.0
 11
141.715994
 21
255.032973
 31
0.0
  0
ENDBLK
  5
2BD
100
AcDbEntity
  8
0
100
AcDbBlockEnd
  0
BLOCK
  5
2C0
100
AcDbEntity
  8
0
100
AcDbBlockBegin
  2
*B40
 70
     0
 10
0.0
 20
0.0
 30
0.0
  3
*B40
  1

  0
LINE
  5
2C1
100
AcDbEntity
  8
0
  6
Continuous
 62
     8
100
AcDbLine
 10
227.465787
 20
215.093508
 30
0.0
 11
227.465787
 21
238.03412
 31
0.0
  0
ENDBLK
  5
2C2
100
AcDbEntity
  8
0
100
AcDbBlockEnd
  0
BLOCK
  5
2C5
100
AcDbEntity
  8
0
100
AcDbBlockBegin
  2
*B41
 70
     0
 10
0.0
 20
0.0
 30
0.0
  3
*B41
  1

  0
LINE
  5
2C6
100
AcDbEntity
  8
0
  6
Continuous
 62
     8
100
AcDbLine
 10
288.715854
 20
220.093188
 30
0.0
 11
317.025647
 21
220.093188
 31
0.0
  0
ENDBLK
  5
2C7
100
AcDbEntity
  8
0
100
AcDbBlockEnd
  0
BLOCK
  5
2CA
100
AcDbEntity
  8
0
100
AcDbBlockBegin
  2
*B42
 70
     0
 10
0.0
 20
0.0
 30
0.0
  3
*B42
  1

  0
LINE
  5
2CB
100
AcDbEntity
  8
0
  6
Continuous
 62
     8
100
AcDbLine
 10
168.315868
 20
107.588811
 30
0.0
 11
172.715936
 21
107.588811
 31
0.0
  0
LINE
  5
2CC
100
AcDbEntity
  8
0
  6
Continuous
 62
     8
100
AcDbLine
 10
178.715973
 20
107.588811
 30
0.0
 11
183.11604
 21
107.588811
 31
0.0
  0
ENDBLK
  5
2CD
100
AcDbEntity
  8
0
100
AcDbBlockEnd
  0
BLOCK
  5
2D0
100
AcDbEntity
  8
0
100
AcDbBlockBegin
  2
*B43
 70
     0
 10
0.0
 20
0.0
 30
0.0
  3
*B43
  1

  0
LINE
  5
2D1
100
AcDbEntity
  8
0
  6
Continuous
 62
     8
100
AcDbLine
 10
194.715972
 20
107.588811
 30
0.0
 11
198.715897
 21
107.588811
 31
0.0
  0
LINE
  5
2D2
100
AcDbEntity
  8
0
  6
Continuous
 62
     8
100
AcDbLine
 10
204.715934
 20
107.588811
 30
0.0
 11
216.21583
 21
107.588811
 31
0.0
  0
LINE
  5
2D3
100
AcDbEntity
  8
0
  6
Continuous
 62
     8
100
AcDbLine
 10
218.215942
 20
107.588811
 30
0.0
 11
219.215999
 21
107.588811
 31
0.0
  0
LINE
  5
2D4
100
AcDbEntity
  8
0
  6
Continuous
 62
     8
100
AcDbLine
 10
221.215811
 20
107.588811
 30
0.0
 11
232.716007
 21
107.588811
 31
0.0
  0
LINE
  5
2D5
100
AcDbEntity
  8
0
  6
Continuous
 62
     8
100
AcDbLine
 10
238.715744
 20
107.588811
 30
0.0
 11
254.715743
 21
107.588811
 31
0.0
  0
LINE
  5
2D6
100
AcDbEntity
  8
0
  6
Continuous
 62
     8
100
AcDbLine
 10
260.71578
 20
107.588811
 30
0.0
 11
273.215733
 21
107.588811
 31
0.0
  0
LINE
  5
2D7
100
AcDbEntity
  8
0
  6
Continuous
 62
     8
100
AcDbLine
 10
275.215845
 20
107.588811
 30
0.0
 11
276.215901
 21
107.588811
 31
0.0
  0
LINE
  5
2D8
100
AcDbEntity
  8
0
  6
Continuous
 62
     8
100
AcDbLine
 10
278.215714
 20
107.588811
 30
0.0
 11
290.715966
 21
107.588811
 31
0.0
  0
ENDBLK
  5
2D9
100
AcDbEntity
  8
0
100
AcDbBlockEnd
  0
BLOCK
  5
2DC
100
AcDbEntity
  8
0
100
AcDbBlockBegin
  2
*B44
 70
     0
 10
0.0
 20
0.0
 30
0.0
  3
*B44
  1

  0
LINE
  5
2DD
100
AcDbEntity
  8
0
  6
Continuous
 62
     8
100
AcDbLine
 10
300.025592
 20
213.093696
 30
0.0
 11
304.025517
 21
213.093696
 31
0.0
  0
LINE
  5
2DE
100
AcDbEntity
  8
0
  6
Continuous
 62
     8
100
AcDbLine
 10
261.965775
 20
213.093696
 30
0.0
 11
265.715761
 21
213.093696
 31
0.0
  0
LINE
  5
2DF
100
AcDbEntity
  8
0
  6
Continuous
 62
     8
100
AcDbLine
 10
271.715798
 20
213.093696
 30
0.0
 11
283.370705
 21
213.093696
 31
0.0
  0
LINE
  5
2E0
100
AcDbEntity
  8
0
  6
Continuous
 62
     8
100
AcDbLine
 10
285.370817
 20
213.093696
 30
0.0
 11
286.370573
 21
213.093696
 31
0.0
  0
LINE
  5
2E1
100
AcDbEntity
  8
0
  6
Continuous
 62
     8
100
AcDbLine
 10
288.370686
 20
213.093696
 30
0.0
 11
300.025592
 21
213.093696
 31
0.0
  0
ENDBLK
  5
2E2
100
AcDbEntity
  8
0
100
AcDbBlockEnd
  0
BLOCK
  5
2E5
100
AcDbEntity
  8
0
100
AcDbBlockBegin
  2
*B45
 70
     0
 10
0.0
 20
0.0
 30
0.0
  3
*B45
  1

  0
LINE
  5
2E6
100
AcDbEntity
  8
0
  6
Continuous
 62
     8
100
AcDbLine
 10
224.715858
 20
152.040396
 30
0.0
 11
224.715858
 21
156.04002
 31
0.0
  0
LINE
  5
2E7
100
AcDbEntity
  8
0
  6
Continuous
 62
     8
100
AcDbLine
 10
224.715858
 20
251.033349
 30
0.0
 11
224.715858
 21
255.032973
 31
0.0
  0
LINE
  5
2E8
100
AcDbEntity
  8
0
  6
Continuous
 62
     8
100
AcDbLine
 10
224.715858
 20
156.04002
 30
0.0
 11
224.715858
 21
165.803862
 31
0.0
  0
LINE
  5
2E9
100
AcDbEntity
  8
0
  6
Continuous
 62
     8
100
AcDbLine
 10
224.715858
 20
167.803674
 30
0.0
 11
224.715858
 21
168.80373
 31
0.0
  0
LINE
  5
2EA
100
AcDbEntity
  8
0
  6
Continuous
 62
     8
100
AcDbLine
 10
224.715858
 20
170.803542
 30
0.0
 11
224.715858
 21
180.567083
 31
0.0
  0
LINE
  5
2EB
100
AcDbEntity
  8
0
  6
Continuous
 62
     8
100
AcDbLine
 10
224.715858
 20
182.567196
 30
0.0
 11
224.715858
 21
183.566952
 31
0.0
  0
LINE
  5
2EC
100
AcDbEntity
  8
0
  6
Continuous
 62
     8
100
AcDbLine
 10
224.715858
 20
185.566764
 30
0.0
 11
224.715858
 21
195.330606
 31
0.0
  0
LINE
  5
2ED
100
AcDbEntity
  8
0
  6
Continuous
 62
     8
100
AcDbLine
 10
224.715858
 20
197.330418
 30
0.0
 11
224.715858
 21
198.330474
 31
0.0
  0
LINE
  5
2EE
100
AcDbEntity
  8
0
  6
Continuous
 62
     8
100
AcDbLine
 10
224.715858
 20
200.330286
 30
0.0
 11
224.715858
 21
210.093827
 31
0.0
  0
LINE
  5
2EF
100
AcDbEntity
  8
0
  6
Continuous
 62
     8
100
AcDbLine
 10
224.715858
 20
216.093564
 30
0.0
 11
224.715858
 21
224.407039
 31
0.0
  0
LINE
  5
2F0
100
AcDbEntity
  8
0
  6
Continuous
 62
     8
100
AcDbLine
 10
224.715858
 20
226.406851
 30
0.0
 11
224.715858
 21
227.406907
 31
0.0
  0
LINE
  5
2F1
100
AcDbEntity
  8
0
  6
Continuous
 62
     8
100
AcDbLine
 10
224.715858
 20
229.406719
 30
0.0
 11
224.715858
 21
237.720194
 31
0.0
  0
LINE
  5
2F2
100
AcDbEntity
  8
0
  6
Continuous
 62
     8
100
AcDbLine
 10
224.715858
 20
239.720006
 30
0.0
 11
224.715858
 21
240.719762
 31
0.0
  0
LINE
  5
2F3
100
AcDbEntity
  8
0
  6
Continuous
 62
     8
100
AcDbLine
 10
224.715858
 20
242.719874
 30
0.0
 11
224.715858
 21
251.033349
 31
0.0
  0
ENDBLK
  5
2F4
100
AcDbEntity
  8
0
100
AcDbBlockEnd
  0
BLOCK
  5
2F7
100
AcDbEntity
  8
0
100
AcDbBlockBegin
  2
*B46
 70
     0
 10
0.0
 20
0.0
 30
0.0
  3
*B46
  1

  0
LINE
  5
2F8
100
AcDbEntity
  8
0
  6
Continuous
 62
     8
100
AcDbLine
 10
201.715765
 20
100.589318
 30
0.0
 11
201.715765
 21
104.588943
 31
0.0
  0
LINE
  5
2F9
100
AcDbEntity
  8
0
  6
Continuous
 62
     8
100
AcDbLine
 10
201.715765
 20
110.588379
 30
0.0
 11
201.715765
 21
114.588304
 31
0.0
  0
ENDBLK
  5
2FA
100
AcDbEntity
  8
0
100
AcDbBlockEnd
  0
BLOCK
  5
2FD
100
AcDbEntity
  8
0
100
AcDbBlockBegin
  2
*B47
 70
     0
 10
0.0
 20
0.0
 30
0.0
  3
*B47
  1

  0
LINE
  5
2FE
100
AcDbEntity
  8
0
  6
Continuous
 62
     8
100
AcDbLine
 10
145.216041
 20
233.092418
 30
0.0
 11
154.215946
 21
233.092418
 31
0.0
  0
LINE
  5
2FF
100
AcDbEntity
  8
0
  6
Continuous
 62
     8
100
AcDbLine
 10
156.216059
 20
233.092418
 30
0.0
 11
157.215815
 21
233.092418
 31
0.0
  0
LINE
  5
300
100
AcDbEntity
  8
0
  6
Continuous
 62
     8
100
AcDbLine
 10
159.215927
 20
233.092418
 30
0.0
 11
168.215833
 21
233.092418
 31
0.0
  0
ENDBLK
  5
301
100
AcDbEntity
  8
0
100
AcDbBlockEnd
  0
BLOCK
  5
304
100
AcDbEntity
  8
0
100
AcDbBlockBegin
  2
*B48
 70
     0
 10
0.0
 20
0.0
 30
0.0
  3
*B48
  1

  0
LINE
  5
305
100
AcDbEntity
  8
0
  6
Continuous
 62
     8
100
AcDbLine
 10
263.59098
 20
75.553966
 30
0.0
 11
263.59098
 21
105.588999
 31
0.0
  0
ENDBLK
  5
306
100
AcDbEntity
  8
0
100
AcDbBlockEnd
  0
BLOCK
  5
309
100
AcDbEntity
  8
0
100
AcDbBlockBegin
  2
*B49
 70
     0
 10
0.0
 20
0.0
 30
0.0
  3
*B49
  1

  0
LINE
  5
30A
100
AcDbEntity
  8
0
  6
Continuous
 62
     8
100
AcDbLine
 10
126.025715
 20
242.091122
 30
0.0
 11
140.408621
 21
242.091122
 31
0.0
  0
ENDBLK
  5
30B
100
AcDbEntity
  8
0
100
AcDbBlockEnd
  0
BLOCK
  5
30E
100
AcDbEntity
  8
0
100
AcDbBlockBegin
  2
*B50
 70
     0
 10
0.0
 20
0.0
 30
0.0
  3
*B50
  1

  0
LINE
  5
30F
100
AcDbEntity
  8
0
  6
Continuous
 62
     8
100
AcDbLine
 10
175.715804
 20
100.189176
 30
0.0
 11
175.715804
 21
104.588943
 31
0.0
  0
LINE
  5
310
100
AcDbEntity
  8
0
  6
Continuous
 62
     8
100
AcDbLine
 10
175.715804
 20
110.588379
 30
0.0
 11
175.715804
 21
114.988146
 31
0.0
  0
ENDBLK
  5
311
100
AcDbEntity
  8
0
100
AcDbBlockEnd
  0
BLOCK
  5
314
100
AcDbEntity
  8
0
100
AcDbBlockBegin
  2
*B51
 70
     0
 10
0.0
 20
0.0
 30
0.0
  3
*B51
  1

  0
LINE
  5
315
100
AcDbEntity
  8
0
  6
Continuous
 62
     8
100
AcDbLine
 10
286.715741
 20
138.04141
 30
0.0
 11
286.715741
 21
168.096871
 31
0.0
  0
LINE
  5
316
100
AcDbEntity
  8
0
  6
Continuous
 62
     8
100
AcDbLine
 10
286.715741
 20
222.093
 30
0.0
 11
286.715741
 21
238.03412
 31
0.0
  0
ENDBLK
  5
317
100
AcDbEntity
  8
0
100
AcDbBlockEnd
  0
BLOCK
  5
31A
100
AcDbEntity
  8
0
100
AcDbBlockBegin
  2
*B52
 70
     0
 10
0.0
 20
0.0
 30
0.0
  3
*B52
  1

  0
LINE
  5
31B
100
AcDbEntity
  8
0
  6
Continuous
 62
     8
100
AcDbLine
 10
206.715746
 20
152.040396
 30
0.0
 11
206.715746
 21
168.096871
 31
0.0
  0
ENDBLK
  5
31C
100
AcDbEntity
  8
0
100
AcDbBlockEnd
  0
BLOCK
  5
31F
100
AcDbEntity
  8
0
100
AcDbBlockBegin
  2
*B53
 70
     0
 10
0.0
 20
0.0
 30
0.0
  3
*B53
  1

  0
LINE
  5
320
100
AcDbEntity
  8
0
  6
Continuous
 62
     8
100
AcDbLine
 10
246.715894
 20
152.040396
 30
0.0
 11
246.715894
 21
156.04002
 31
0.0
  0
LINE
  5
321
100
AcDbEntity
  8
0
  6
Continuous
 62
     8
100
AcDbLine
 10
246.715894
 20
156.04002
 30
0.0
 11
246.715894
 21
168.568211
 31
0.0
  0
LINE
  5
322
100
AcDbEntity
  8
0
  6
Continuous
 62
     8
100
AcDbLine
 10
246.715894
 20
170.568023
 30
0.0
 11
246.715894
 21
171.567779
 31
0.0
  0
LINE
  5
323
100
AcDbEntity
  8
0
  6
Continuous
 62
     8
100
AcDbLine
 10
246.715894
 20
173.567591
 30
0.0
 11
246.715894
 21
186.095781
 31
0.0
  0
ENDBLK
  5
324
100
AcDbEntity
  8
0
100
AcDbBlockEnd
  0
BLOCK
  5
327
100
AcDbEntity
  8
0
100
AcDbBlockBegin
  2
*B54
 70
     0
 10
0.0
 20
0.0
 30
0.0
  3
*B54
  1

  0
LINE
  5
328
100
AcDbEntity
  8
0
  6
Continuous
 62
     8
100
AcDbLine
 10
235.715876
 20
234.034495
 30
0.0
 11
235.715876
 21
238.03412
 31
0.0
  0
LINE
  5
329
100
AcDbEntity
  8
0
  6
Continuous
 62
     8
100
AcDbLine
 10
235.715876
 20
170.346923
 30
0.0
 11
235.715876
 21
174.096608
 31
0.0
  0
LINE
  5
32A
100
AcDbEntity
  8
0
  6
Continuous
 62
     8
100
AcDbLine
 10
235.715876
 20
180.096045
 30
0.0
 11
235.715876
 21
189.831047
 31
0.0
  0
LINE
  5
32B
100
AcDbEntity
  8
0
  6
Continuous
 62
     8
100
AcDbLine
 10
235.715876
 20
191.830859
 30
0.0
 11
235.715876
 21
192.830915
 31
0.0
  0
LINE
  5
32C
100
AcDbEntity
  8
0
  6
Continuous
 62
     8
100
AcDbLine
 10
235.715876
 20
194.830728
 30
0.0
 11
235.715876
 21
204.56543
 31
0.0
  0
LINE
  5
32D
100
AcDbEntity
  8
0
  6
Continuous
 62
     8
100
AcDbLine
 10
235.715876
 20
206.565242
 30
0.0
 11
235.715876
 21
207.565298
 31
0.0
  0
LINE
  5
32E
100
AcDbEntity
  8
0
  6
Continuous
 62
     8
100
AcDbLine
 10
235.715876
 20
209.56511
 30
0.0
 11
235.715876
 21
219.300113
 31
0.0
  0
LINE
  5
32F
100
AcDbEntity
  8
0
  6
Continuous
 62
     8
100
AcDbLine
 10
235.715876
 20
221.299925
 30
0.0
 11
235.715876
 21
222.299681
 31
0.0
  0
LINE
  5
330
100
AcDbEntity
  8
0
  6
Continuous
 62
     8
100
AcDbLine
 10
235.715876
 20
224.299493
 30
0.0
 11
235.715876
 21
234.034495
 31
0.0
  0
ENDBLK
  5
331
100
AcDbEntity
  8
0
100
AcDbBlockEnd
  0
BLOCK
  5
334
100
AcDbEntity
  8
0
100
AcDbBlockBegin
  2
*B55
 70
     0
 10
0.0
 20
0.0
 30
0.0
  3
*B55
  1

  0
LINE
  5
335
100
AcDbEntity
  8
0
  6
Continuous
 62
     8
100
AcDbLine
 10
235.715876
 20
97.714419
 30
0.0
 11
235.715876
 21
104.588943
 31
0.0
  0
LINE
  5
336
100
AcDbEntity
  8
0
  6
Continuous
 62
     8
100
AcDbLine
 10
235.715876
 20
110.588379
 30
0.0
 11
235.715876
 21
117.462902
 31
0.0
  0
ENDBLK
  5
337
100
AcDbEntity
  8
0
100
AcDbBlockEnd
  0
BLOCK
  5
33A
100
AcDbEntity
  8
0
100
AcDbBlockBegin
  2
*B56
 70
     0
 10
0.0
 20
0.0
 30
0.0
  3
*B56
  1

  0
LINE
  5
33B
100
AcDbEntity
  8
0
  6
Continuous
 62
     6
100
AcDbLine
 10
234.715819
 20
177.096477
 30
0.0
 11
236.715932
 21
177.096477
 31
0.0
  0
LINE
  5
33C
100
AcDbEntity
  8
0
  6
Continuous
 62
     6
100
AcDbLine
 10
235.715876
 20
176.09642
 30
0.0
 11
235.715876
 21
178.096232
 31
0.0
  0
ENDBLK
  5
33D
100
AcDbEntity
  8
0
100
AcDbBlockEnd
  0
BLOCK
  5
340
100
AcDbEntity
  8
0
100
AcDbBlockBegin
  2
*B57
 70
     0
 10
0.0
 20
0.0
 30
0.0
  3
*B57
  1

  0
LINE
  5
341
100
AcDbEntity
  8
0
  6
Continuous
 62
     6
100
AcDbLine
 10
268.71593
 20
212.09394
 30
0.0
 11
268.71593
 21
214.093752
 31
0.0
  0
LINE
  5
342
100
AcDbEntity
  8
0
  6
Continuous
 62
     6
100
AcDbLine
 10
267.715874
 20
213.093696
 30
0.0
 11
269.715986
 21
213.093696
 31
0.0
  0
ENDBLK
  5
343
100
AcDbEntity
  8
0
100
AcDbBlockEnd
  0
BLOCK
  5
346
100
AcDbEntity
  8
0
100
AcDbBlockBegin
  2
*B58
 70
     0
 10
0.0
 20
0.0
 30
0.0
  3
*B58
  1

  0
LINE
  5
347
100
AcDbEntity
  8
0
  6
Continuous
 62
     6
100
AcDbLine
 10
235.715876
 20
106.588755
 30
0.0
 11
235.715876
 21
108.588567
 31
0.0
  0
LINE
  5
348
100
AcDbEntity
  8
0
  6
Continuous
 62
     6
100
AcDbLine
 10
234.715819
 20
107.588811
 30
0.0
 11
236.715932
 21
107.588811
 31
0.0
  0
ENDBLK
  5
349
100
AcDbEntity
  8
0
100
AcDbBlockEnd
  0
BLOCK
  5
34C
100
AcDbEntity
  8
0
100
AcDbBlockBegin
  2
*B59
 70
     0
 10
0.0
 20
0.0
 30
0.0
  3
*B59
  1

  0
LINE
  5
34D
100
AcDbEntity
  8
0
  6
Continuous
 62
     6
100
AcDbLine
 10
256.715856
 20
177.096477
 30
0.0
 11
258.715968
 21
177.096477
 31
0.0
  0
LINE
  5
34E
100
AcDbEntity
  8
0
  6
Continuous
 62
     6
100
AcDbLine
 10
257.715912
 20
176.09642
 30
0.0
 11
257.715912
 21
178.096232
 31
0.0
  0
ENDBLK
  5
34F
100
AcDbEntity
  8
0
100
AcDbBlockEnd
  0
BLOCK
  5
352
100
AcDbEntity
  8
0
100
AcDbBlockBegin
  2
*B60
 70
     0
 10
0.0
 20
0.0
 30
0.0
  3
*B60
  1

  0
LINE
  5
353
100
AcDbEntity
  8
0
  6
Continuous
 62
     6
100
AcDbLine
 10
223.715801
 20
213.093696
 30
0.0
 11
225.715914
 21
213.093696
 31
0.0
  0
LINE
  5
354
100
AcDbEntity
  8
0
  6
Continuous
 62
     6
100
AcDbLine
 10
224.715858
 20
212.09394
 30
0.0
 11
224.715858
 21
214.093752
 31
0.0
  0
ENDBLK
  5
355
100
AcDbEntity
  8
0
100
AcDbBlockEnd
  0
BLOCK
  5
358
100
AcDbEntity
  8
0
100
AcDbBlockBegin
  2
*B61
 70
     0
 10
0.0
 20
0.0
 30
0.0
  3
*B61
  1

  0
LINE
  5
359
100
AcDbEntity
  8
0
  6
Continuous
 62
     6
100
AcDbLine
 10
257.715912
 20
106.588755
 30
0.0
 11
257.715912
 21
108.588567
 31
0.0
  0
LINE
  5
35A
100
AcDbEntity
  8
0
  6
Continuous
 62
     6
100
AcDbLine
 10
256.715856
 20
107.588811
 30
0.0
 11
258.715968
 21
107.588811
 31
0.0
  0
ENDBLK
  5
35B
100
AcDbEntity
  8
0
100
AcDbBlockEnd
  0
BLOCK
  5
35E
100
AcDbEntity
  8
0
100
AcDbBlockBegin
  2
*B62
 70
     0
 10
0.0
 20
0.0
 30
0.0
  3
*B62
  1

  0
LINE
  5
35F
100
AcDbEntity
  8
0
  6
Continuous
 62
     6
100
AcDbLine
 10
175.715804
 20
106.588755
 30
0.0
 11
175.715804
 21
108.588567
 31
0.0
  0
LINE
  5
360
100
AcDbEntity
  8
0
  6
Continuous
 62
     6
100
AcDbLine
 10
174.716048
 20
107.588811
 30
0.0
 11
176.71586
 21
107.588811
 31
0.0
  0
ENDBLK
  5
361
100
AcDbEntity
  8
0
100
AcDbBlockEnd
  0
BLOCK
  5
364
100
AcDbEntity
  8
0
100
AcDbBlockBegin
  2
*B63
 70
     0
 10
0.0
 20
0.0
 30
0.0
  3
*B63
  1

  0
LINE
  5
365
100
AcDbEntity
  8
0
  6
Continuous
 62
     6
100
AcDbLine
 10
201.715765
 20
106.588755
 30
0.0
 11
201.715765
 21
108.588567
 31
0.0
  0
LINE
  5
366
100
AcDbEntity
  8
0
  6
Continuous
 62
     6
100
AcDbLine
 10
200.716009
 20
107.588811
 30
0.0
 11
202.715821
 21
107.588811
 31
0.0
  0
ENDBLK
  5
367
100
AcDbEntity
  8
0
100
AcDbBlockEnd
  0
BLOCK
  5
36A
100
AcDbEntity
  8
0
100
AcDbBlockBegin
  2
*B64
 70
     0
 10
0.0
 20
0.0
 30
0.0
  3
*B64
  1

  0
TEXT
  5
36B
100
AcDbEntity
  8
TEXT
  6
Continuous
 62
     0
100
AcDbText
 10
153.448699
 20
151.0
 30
0.0
 40
6.0
  1
180%%d
100
AcDbText
  0
ENDBLK
  5
36C
100
AcDbEntity
  8
0
100
AcDbBlockEnd
  0
BLOCK
  5
36F
100
AcDbEntity
  8
0
100
AcDbBlockBegin
  2
*B65
 70
     0
 10
0.0
 20
0.0
 30
0.0
  3
*B65
  1

  0
TEXT
  5
370
100
AcDbEntity
  8
TEXT
  6
Continuous
 62
     0
100
AcDbText
 10
209.471499
 20
192.5
 30
0.0
 40
5.0
  1
14
100
AcDbText
  0
ENDBLK
  5
371
100
AcDbEntity
  8
0
100
AcDbBlockEnd
  0
BLOCK
  5
374
100
AcDbEntity
  8
0
100
AcDbBlockBegin
  2
*B66
 70
     0
 10
0.0
 20
0.0
 30
0.0
  3
*B66
  1

  0
TEXT
  5
375
100
AcDbEntity
  8
TEXT
  6
Continuous
 62
     0
100
AcDbText
 10
276.471499
 20
192.5
 30
0.0
 40
5.0
  1
12
100
AcDbText
  0
ENDBLK
  5
376
100
AcDbEntity
  8
0
100
AcDbBlockEnd
  0
BLOCK
  5
379
100
AcDbEntity
  8
0
100
AcDbBlockBegin
  2
*B67
 70
     0
 10
0.0
 20
0.0
 30
0.0
  3
*B67
  1

  0
TEXT
  5
37A
100
AcDbEntity
  8
TEXT
  6
Continuous
 62
     0
100
AcDbText
 10
244.73575
 20
172.5
 30
0.0
 40
5.0
  1
1
100
AcDbText
  0
ENDBLK
  5
37B
100
AcDbEntity
  8
0
100
AcDbBlockEnd
  0
BLOCK
  5
37E
100
AcDbEntity
  8
0
100
AcDbBlockBegin
  2
*B68
 70
     0
 10
0.0
 20
0.0
 30
0.0
  3
*B68
  1

  0
TEXT
  5
37F
100
AcDbEntity
  8
TEXT
  6
Continuous
 62
     0
100
AcDbText
 10
256.23575
 20
212.5
 30
0.0
 40
5.0
  1
2
100
AcDbText
  0
ENDBLK
  5
380
100
AcDbEntity
  8
0
100
AcDbBlockEnd
  0
BLOCK
  5
383
100
AcDbEntity
  8
0
100
AcDbBlockBegin
  2
*B69
 70
     0
 10
0.0
 20
0.0
 30
0.0
  3
*B69
  1

  0
TEXT
  5
384
100
AcDbEntity
  8
TEXT
  6
Continuous
 62
     0
100
AcDbText
 10
266.73575
 20
172.5
 30
0.0
 40
5.0
  1
3
100
AcDbText
  0
ENDBLK
  5
385
100
AcDbEntity
  8
0
100
AcDbBlockEnd
  0
BLOCK
  5
388
100
AcDbEntity
  8
0
100
AcDbBlockBegin
  2
*B70
 70
     0
 10
0.0
 20
0.0
 30
0.0
  3
*B70
  1

  0
TEXT
  5
389
100
AcDbEntity
  8
TEXT
  6
Continuous
 62
     0
100
AcDbText
 10
233.73575
 20
212.5
 30
0.0
 40
5.0
  1
4
100
AcDbText
  0
ENDBLK
  5
38A
100
AcDbEntity
  8
0
100
AcDbBlockEnd
  0
BLOCK
  5
38D
100
AcDbEntity
  8
0
100
AcDbBlockBegin
  2
*B71
 70
     0
 10
0.0
 20
0.0
 30
0.0
  3
*B71
  1

  0
TEXT
  5
38E
100
AcDbEntity
  8
TEXT
  6
Continuous
 62
     0
100
AcDbText
 10
223.23575
 20
173.0
 30
0.0
 40
5.0
  1
5
100
AcDbText
  0
ENDBLK
  5
38F
100
AcDbEntity
  8
0
100
AcDbBlockEnd
  0
BLOCK
  5
392
100
AcDbEntity
  8
0
100
AcDbBlockBegin
  2
*B72
 70
     0
 10
0.0
 20
0.0
 30
0.0
  3
*B72
  1

  0
TEXT
  5
393
100
AcDbEntity
  8
TEXT
  6
Continuous
 62
     0
100
AcDbText
 10
203.0
 20
100.84145
 30
0.0
 40
3.0
  1
0
 50
90.0
100
AcDbText
  0
ENDBLK
  5
394
100
AcDbEntity
  8
0
100
AcDbBlockEnd
  0
BLOCK
  5
397
100
AcDbEntity
  8
0
100
AcDbBlockBegin
  2
*B73
 70
     0
 10
0.0
 20
0.0
 30
0.0
  3
*B73
  1

  0
TEXT
  5
398
100
AcDbEntity
  8
TEXT
  6
Continuous
 62
     0
100
AcDbText
 10
197.5
 20
106.34145
 30
0.0
 40
3.0
  1
1
 50
90.0
100
AcDbText
  0
ENDBLK
  5
399
100
AcDbEntity
  8
0
100
AcDbBlockEnd
  0
BLOCK
  5
39C
100
AcDbEntity
  8
0
100
AcDbBlockBegin
  2
*B74
 70
     0
 10
0.0
 20
0.0
 30
0.0
  3
*B74
  1

  0
TEXT
  5
39D
100
AcDbEntity
  8
TEXT
  6
Continuous
 62
     0
100
AcDbText
 10
312.25
 20
104.2118
 30
0.0
 40
3.5
  1
30
 50
90.0
100
AcDbText
  0
ENDBLK
  5
39E
100
AcDbEntity
  8
0
100
AcDbBlockEnd
  0
BLOCK
  5
3A1
100
AcDbEntity
  8
0
100
AcDbBlockBegin
  2
*B75
 70
     0
 10
0.0
 20
0.0
 30
0.0
  3
*B75
  1

  0
TEXT
  5
3A2
100
AcDbEntity
  8
TEXT
  6
Continuous
 62
     0
100
AcDbText
 10
162.856924
 20
254.75
 30
0.0
 40
3.5
  1
48
100
AcDbText
  0
ENDBLK
  5
3A3
100
AcDbEntity
  8
0
100
AcDbBlockEnd
  0
BLOCK
  5
3A6
100
AcDbEntity
  8
0
100
AcDbBlockBegin
  2
*B76
 70
     0
 10
0.0
 20
0.0
 30
0.0
  3
*B76
  1

  0
TEXT
  5
3A7
100
AcDbEntity
  8
TEXT
  6
Continuous
 62
     0
100
AcDbText
 10
274.356924
 20
155.75
 30
0.0
 40
3.5
  1
18
100
AcDbText
  0
ENDBLK
  5
3A8
100
AcDbEntity
  8
0
100
AcDbBlockEnd
  0
BLOCK
  5
3AB
100
AcDbEntity
  8
0
100
AcDbBlockBegin
  2
*B77
 70
     0
 10
0.0
 20
0.0
 30
0.0
  3
*B77
  1

  0
TEXT
  5
3AC
100
AcDbEntity
  8
TEXT
  6
Continuous
 62
     0
100
AcDbText
 10
232.356924
 20
155.75
 30
0.0
 40
3.5
  1
22
100
AcDbText
  0
ENDBLK
  5
3AD
100
AcDbEntity
  8
0
100
AcDbBlockEnd
  0
BLOCK
  5
3B0
100
AcDbEntity
  8
0
100
AcDbBlockBegin
  2
*B78
 70
     0
 10
0.0
 20
0.0
 30
0.0
  3
*B78
  1

  0
TEXT
  5
3B1
100
AcDbEntity
  8
TEXT
  6
Continuous
 62
     0
100
AcDbText
 10
254.356924
 20
155.75
 30
0.0
 40
3.5
  1
22
100
AcDbText
  0
ENDBLK
  5
3B2
100
AcDbEntity
  8
0
100
AcDbBlockEnd
  0
BLOCK
  5
3B5
100
AcDbEntity
  8
0
100
AcDbBlockBegin
  2
*B79
 70
     0
 10
0.0
 20
0.0
 30
0.0
  3
*B79
  1

  0
TEXT
  5
3B6
100
AcDbEntity
  8
TEXT
  6
Continuous
 62
     0
100
AcDbText
 10
212.356924
 20
155.75
 30
0.0
 40
3.5
  1
18
100
AcDbText
  0
ENDBLK
  5
3B7
100
AcDbEntity
  8
0
100
AcDbBlockEnd
  0
BLOCK
  5
3BA
100
AcDbEntity
  8
0
100
AcDbBlockBegin
  2
*B80
 70
     0
 10
0.0
 20
0.0
 30
0.0
  3
*B80
  1

  0
TEXT
  5
3BB
100
AcDbEntity
  8
TEXT
  6
Continuous
 62
     0
100
AcDbText
 10
268.856924
 20
237.75
 30
0.0
 40
3.5
  1
29
100
AcDbText
  0
ENDBLK
  5
3BC
100
AcDbEntity
  8
0
100
AcDbBlockEnd
  0
BLOCK
  5
3BF
100
AcDbEntity
  8
0
100
AcDbBlockBegin
  2
*B81
 70
     0
 10
0.0
 20
0.0
 30
0.0
  3
*B81
  1

  0
TEXT
  5
3C0
100
AcDbEntity
  8
TEXT
  6
Continuous
 62
     0
100
AcDbText
 10
243.356924
 20
237.75
 30
0.0
 40
3.5
  1
22
100
AcDbText
  0
ENDBLK
  5
3C1
100
AcDbEntity
  8
0
100
AcDbBlockEnd
  0
BLOCK
  5
3C4
100
AcDbEntity
  8
0
100
AcDbBlockBegin
  2
*B82
 70
     0
 10
0.0
 20
0.0
 30
0.0
  3
*B82
  1

  0
TEXT
  5
3C5
100
AcDbEntity
  8
TEXT
  6
Continuous
 62
     0
100
AcDbText
 10
313.25
 20
191.724431
 30
0.0
 40
3.5
  1
50
 50
90.0
100
AcDbText
  0
ENDBLK
  5
3C6
100
AcDbEntity
  8
0
100
AcDbBlockEnd
  0
BLOCK
  5
3C9
100
AcDbEntity
  8
0
100
AcDbBlockBegin
  2
*B83
 70
     0
 10
0.0
 20
0.0
 30
0.0
  3
*B83
  1

  0
TEXT
  5
3CA
100
AcDbEntity
  8
TEXT
  6
Continuous
 62
     0
100
AcDbText
 10
300.25
 20
191.724431
 30
0.0
 40
3.5
  1
36
 50
90.0
100
AcDbText
  0
ENDBLK
  5
3CB
100
AcDbEntity
  8
0
100
AcDbBlockEnd
  0
BLOCK
  5
3CE
100
AcDbEntity
  8
0
100
AcDbBlockBegin
  2
*B84
 70
     0
 10
0.0
 20
0.0
 30
0.0
  3
*B84
  1

  0
TEXT
  5
3CF
100
AcDbEntity
  8
TEXT
  6
Continuous
 62
     0
100
AcDbText
 10
126.25
 20
202.724206
 30
0.0
 40
3.5
  1
72
 50
90.0
100
AcDbText
  0
ENDBLK
  5
3D0
100
AcDbEntity
  8
0
100
AcDbBlockEnd
  0
BLOCK
  5
3D3
100
AcDbEntity
  8
0
100
AcDbBlockBegin
  2
*B85
 70
     0
 10
0.0
 20
0.0
 30
0.0
  3
*B85
  1

  0
TEXT
  5
3D4
100
AcDbEntity
  8
TEXT
  6
Continuous
 62
     0
100
AcDbText
 10
270.416667
 20
79.258132
 30
0.0
 40
3.5
  1
G 1/4"
100
AcDbText
  0
ENDBLK
  5
3D5
100
AcDbEntity
  8
0
100
AcDbBlockEnd
  0
BLOCK
  5
3D8
100
AcDbEntity
  8
0
100
AcDbBlockBegin
  2
*B86
 70
     0
 10
0.0
 20
0.0
 30
0.0
  3
*B86
  1

  0
TEXT
  5
3D9
100
AcDbEntity
  8
TEXT
  6
Continuous
 62
     0
100
AcDbText
 10
243.356924
 20
254.75
 30
0.0
 40
3.5
  1
44
100
AcDbText
  0
ENDBLK
  5
3DA
100
AcDbEntity
  8
0
100
AcDbBlockEnd
  0
BLOCK
  5
3DD
100
AcDbEntity
  8
0
100
AcDbBlockBegin
  2
*B87
 70
     0
 10
0.0
 20
0.0
 30
0.0
  3
*B87
  1

  0
TEXT
  5
3DE
100
AcDbEntity
  8
TEXT
  6
Continuous
 62
     0
100
AcDbText
 10
235.356924
 20
141.75
 30
0.0
 40
3.5
  1
96
100
AcDbText
  0
ENDBLK
  5
3DF
100
AcDbEntity
  8
0
100
AcDbBlockEnd
  0
BLOCK
  5
3E2
100
AcDbEntity
  8
0
100
AcDbBlockBegin
  2
*B88
 70
     0
 10
0.0
 20
0.0
 30
0.0
  3
*B88
  1

  0
TEXT
  5
3E3
100
AcDbEntity
  8
TEXT
  6
Continuous
 62
     0
100
AcDbText
 10
202.383333
 20
237.75
 30
0.0
 40
3.5
  1
%%c5,5
100
AcDbText
  0
ENDBLK
  5
3E4
100
AcDbEntity
  8
0
100
AcDbBlockEnd
  0
ENDSEC
  0
SECTION
  2
ENTITIES
  0
INSERT
  5
11D
100
AcDbEntity
  8
0
  6
HIDDEN
 62
   174
100
AcDbBlockReference
  2
*B1
 10
0.0
 20
0.0
 30
0.0
  0
INSERT
  5
193
100
AcDbEntity
  8
0
  6
Continuous
 62
   174
100
AcDbBlockReference
  2
*B2
 10
0.0
 20
0.0
 30
0.0
  0
INSERT
  5
199
100
AcDbEntity
  8
0
  6
Continuous
 62
   172
100
AcDbBlockReference
  2
*B3
 10
0.0
 20
0.0
 30
0.0
  0
INSERT
  5
1A4
100
AcDbEntity
  8
0
  6
Continuous
 62
   172
100
AcDbBlockReference
  2
*B4
 10
0.0
 20
0.0
 30
0.0
  0
INSERT
  5
1AD
100
AcDbEntity
  8
0
  6
Continuous
 62
   172
100
AcDbBlockReference
  2
*B6
 10
0.0
 20
0.0
 30
0.0
  0
INSERT
  5
1B8
100
AcDbEntity
  8
0
  6
Continuous
 62
   172
100
AcDbBlockReference
  2
*B7
 10
0.0
 20
0.0
 30
0.0
  0
INSERT
  5
1C2
100
AcDbEntity
  8
0
  6
Continuous
 62
     0
100
AcDbBlockReference
  2
*B9
 10
0.0
 20
0.0
 30
0.0
  0
INSERT
  5
1C9
100
AcDbEntity
  8
0
  6
Continuous
 62
     0
100
AcDbBlockReference
  2
*B10
 10
0.0
 20
0.0
 30
0.0
  0
INSERT
  5
1D0
100
AcDbEntity
  8
0
  6
Continuous
 62
     0
100
AcDbBlockReference
  2
*B11
 10
0.0
 20
0.0
 30
0.0
  0
INSERT
  5
1D7
100
AcDbEntity
  8
0
  6
Continuous
 62
     0
100
AcDbBlockReference
  2
*B12
 10
0.0
 20
0.0
 30
0.0
  0
INSERT
  5
1DE
100
AcDbEntity
  8
0
  6
Continuous
 62
     0
100
AcDbBlockReference
  2
*B13
 10
0.0
 20
0.0
 30
0.0
  0
INSERT
  5
1E5
100
AcDbEntity
  8
0
  6
Continuous
 62
     0
100
AcDbBlockReference
  2
*B14
 10
0.0
 20
0.0
 30
0.0
  0
INSERT
  5
1EC
100
AcDbEntity
  8
0
  6
Continuous
 62
     0
100
AcDbBlockReference
  2
*B15
 10
0.0
 20
0.0
 30
0.0
  0
INSERT
  5
1F3
100
AcDbEntity
  8
0
  6
Continuous
 62
     0
100
AcDbBlockReference
  2
*B16
 10
0.0
 20
0.0
 30
0.0
  0
INSERT
  5
1FA
100
AcDbEntity
  8
0
  6
Continuous
 62
     0
100
AcDbBlockReference
  2
*B17
 10
0.0
 20
0.0
 30
0.0
  0
INSERT
  5
201
100
AcDbEntity
  8
0
  6
Continuous
 62
     0
100
AcDbBlockReference
  2
*B18
 10
0.0
 20
0.0
 30
0.0
  0
INSERT
  5
208
100
AcDbEntity
  8
0
  6
Continuous
 62
     0
100
AcDbBlockReference
  2
*B19
 10
0.0
 20
0.0
 30
0.0
  0
INSERT
  5
20F
100
AcDbEntity
  8
0
  6
Continuous
 62
     0
100
AcDbBlockReference
  2
*B20
 10
0.0
 20
0.0
 30
0.0
  0
INSERT
  5
216
100
AcDbEntity
  8
0
  6
Continuous
 62
     0
100
AcDbBlockReference
  2
*B21
 10
0.0
 20
0.0
 30
0.0
  0
INSERT
  5
21D
100
AcDbEntity
  8
0
  6
Continuous
 62
     0
100
AcDbBlockReference
  2
*B22
 10
0.0
 20
0.0
 30
0.0
  0
INSERT
  5
224
100
AcDbEntity
  8
0
  6
Continuous
 62
     0
100
AcDbBlockReference
  2
*B23
 10
0.0
 20
0.0
 30
0.0
  0
INSERT
  5
23F
100
AcDbEntity
  8
0
  6
Continuous
 62
     8
100
AcDbBlockReference
  2
*B24
 10
0.0
 20
0.0
 30
0.0
  0
INSERT
  5
245
100
AcDbEntity
  8
0
  6
Continuous
 62
     8
100
AcDbBlockReference
  2
*B25
 10
0.0
 20
0.0
 30
0.0
  0
INSERT
  5
24B
100
AcDbEntity
  8
0
  6
Continuous
 62
     8
100
AcDbBlockReference
  2
*B26
 10
0.0
 20
0.0
 30
0.0
  0
INSERT
  5
256
100
AcDbEntity
  8
0
  6
Continuous
 62
     8
100
AcDbBlockReference
  2
*B27
 10
0.0
 20
0.0
 30
0.0
  0
INSERT
  5
25B
100
AcDbEntity
  8
0
  6
Continuous
 62
     8
100
AcDbBlockReference
  2
*B28
 10
0.0
 20
0.0
 30
0.0
  0
INSERT
  5
260
100
AcDbEntity
  8
0
  6
Continuous
 62
     8
100
AcDbBlockReference
  2
*B29
 10
0.0
 20
0.0
 30
0.0
  0
INSERT
  5
279
100
AcDbEntity
  8
0
  6
Continuous
 62
     8
100
AcDbBlockReference
  2
*B30
 10
0.0
 20
0.0
 30
0.0
  0
INSERT
  5
27E
100
AcDbEntity
  8
0
  6
Continuous
 62
     8
100
AcDbBlockReference
  2
*B31
 10
0.0
 20
0.0
 30
0.0
  0
INSERT
  5
290
100
AcDbEntity
  8
0
  6
Continuous
 62
     8
100
AcDbBlockReference
  2
*B32
 10
0.0
 20
0.0
 30
0.0
  0
INSERT
  5
295
100
AcDbEntity
  8
0
  6
Continuous
 62
     8
100
AcDbBlockReference
  2
*B33
 10
0.0
 20
0.0
 30
0.0
  0
INSERT
  5
2A2
100
AcDbEntity
  8
0
  6
Continuous
 62
     8
100
AcDbBlockReference
  2
*B34
 10
0.0
 20
0.0
 30
0.0
  0
INSERT
  5
2A8
100
AcDbEntity
  8
0
  6
Continuous
 62
     8
100
AcDbBlockReference
  2
*B35
 10
0.0
 20
0.0
 30
0.0
  0
INSERT
  5
2AD
100
AcDbEntity
  8
0
  6
Continuous
 62
     8
100
AcDbBlockReference
  2
*B36
 10
0.0
 20
0.0
 30
0.0
  0
INSERT
  5
2B3
100
AcDbEntity
  8
0
  6
Continuous
 62
     8
100
AcDbBlockReference
  2
*B37
 10
0.0
 20
0.0
 30
0.0
  0
INSERT
  5
2B9
100
AcDbEntity
  8
0
  6
Continuous
 62
     8
100
AcDbBlockReference
  2
*B38
 10
0.0
 20
0.0
 30
0.0
  0
INSERT
  5
2BE
100
AcDbEntity
  8
0
  6
Continuous
 62
     8
100
AcDbBlockReference
  2
*B39
 10
0.0
 20
0.0
 30
0.0
  0
INSERT
  5
2C3
100
AcDbEntity
  8
0
  6
Continuous
 62
     8
100
AcDbBlockReference
  2
*B40
 10
0.0
 20
0.0
 30
0.0
  0
INSERT
  5
2C8
100
AcDbEntity
  8
0
  6
Continuous
 62
     8
100
AcDbBlockReference
  2
*B41
 10
0.0
 20
0.0
 30
0.0
  0
INSERT
  5
2CE
100
AcDbEntity
  8
0
  6
Continuous
 62
     8
100
AcDbBlockReference
  2
*B42
 10
0.0
 20
0.0
 30
0.0
  0
INSERT
  5
2DA
100
AcDbEntity
  8
0
  6
Continuous
 62
     8
100
AcDbBlockReference
  2
*B43
 10
0.0
 20
0.0
 30
0.0
  0
INSERT
  5
2E3
100
AcDbEntity
  8
0
  6
Continuous
 62
     8
100
AcDbBlockReference
  2
*B44
 10
0.0
 20
0.0
 30
0.0
  0
INSERT
  5
2F5
100
AcDbEntity
  8
0
  6
Continuous
 62
     8
100
AcDbBlockReference
  2
*B45
 10
0.0
 20
0.0
 30
0.0
  0
INSERT
  5
2FB
100
AcDbEntity
  8
0
  6
Continuous
 62
     8
100
AcDbBlockReference
  2
*B46
 10
0.0
 20
0.0
 30
0.0
  0
INSERT
  5
302
100
AcDbEntity
  8
0
  6
Continuous
 62
     8
100
AcDbBlockReference
  2
*B47
 10
0.0
 20
0.0
 30
0.0
  0
INSERT
  5
307
100
AcDbEntity
  8
0
  6
Continuous
 62
     8
100
AcDbBlockReference
  2
*B48
 10
0.0
 20
0.0
 30
0.0
  0
INSERT
  5
30C
100
AcDbEntity
  8
0
  6
Continuous
 62
     8
100
AcDbBlockReference
  2
*B49
 10
0.0
 20
0.0
 30
0.0
  0
INSERT
  5
312
100
AcDbEntity
  8
0
  6
Continuous
 62
     8
100
AcDbBlockReference
  2
*B50
 10
0.0
 20
0.0
 30
0.0
  0
INSERT
  5
318
100
AcDbEntity
  8
0
  6
Continuous
 62
     8
100
AcDbBlockReference
  2
*B51
 10
0.0
 20
0.0
 30
0.0
  0
INSERT
  5
31D
100
AcDbEntity
  8
0
  6
Continuous
 62
     8
100
AcDbBlockReference
  2
*B52
 10
0.0
 20
0.0
 30
0.0
  0
INSERT
  5
325
100
AcDbEntity
  8
0
  6
Continuous
 62
     8
100
AcDbBlockReference
  2
*B53
 10
0.0
 20
0.0
 30
0.0
  0
INSERT
  5
332
100
AcDbEntity
  8
0
  6
Continuous
 62
     8
100
AcDbBlockReference
  2
*B54
 10
0.0
 20
0.0
 30
0.0
  0
INSERT
  5
338
100
AcDbEntity
  8
0
  6
Continuous
 62
     8
100
AcDbBlockReference
  2
*B55
 10
0.0
 20
0.0
 30
0.0
  0
INSERT
  5
33E
100
AcDbEntity
  8
0
  6
Continuous
 62
     6
100
AcDbBlockReference
  2
*B56
 10
0.0
 20
0.0
 30
0.0
  0
INSERT
  5
344
100
AcDbEntity
  8
0
  6
Continuous
 62
     6
100
AcDbBlockReference
  2
*B57
 10
0.0
 20
0.0
 30
0.0
  0
INSERT
  5
34A
100
AcDbEntity
  8
0
  6
Continuous
 62
     6
100
AcDbBlockReference
  2
*B58
 10
0.0
 20
0.0
 30
0.0
  0
INSERT
  5
350
100
AcDbEntity
  8
0
  6
Continuous
 62
     6
100
AcDbBlockReference
  2
*B59
 10
0.0
 20
0.0
 30
0.0
  0
INSERT
  5
356
100
AcDbEntity
  8
0
  6
Continuous
 62
     6
100
AcDbBlockReference
  2
*B60
 10
0.0
 20
0.0
 30
0.0
  0
INSERT
  5
35C
100
AcDbEntity
  8
0
  6
Continuous
 62
     6
100
AcDbBlockReference
  2
*B61
 10
0.0
 20
0.0
 30
0.0
  0
INSERT
  5
362
100
AcDbEntity
  8
0
  6
Continuous
 62
     6
100
AcDbBlockReference
  2
*B62
 10
0.0
 20
0.0
 30
0.0
  0
INSERT
  5
368
100
AcDbEntity
  8
0
  6
Continuous
 62
     6
100
AcDbBlockReference
  2
*B63
 10
0.0
 20
0.0
 30
0.0
  0
INSERT
  5
36D
100
AcDbEntity
  8
TEXT
  6
Continuous
 62
     0
100
AcDbBlockReference
  2
*B64
 10
0.0
 20
0.0
 30
0.0
  0
INSERT
  5
372
100
AcDbEntity
  8
TEXT
  6
Continuous
 62
     0
100
AcDbBlockReference
  2
*B65
 10
0.0
 20
0.0
 30
0.0
  0
INSERT
  5
377
100
AcDbEntity
  8
TEXT
  6
Continuous
 62
     0
100
AcDbBlockReference
  2
*B66
 10
0.0
 20
0.0
 30
0.0
  0
INSERT
  5
37C
100
AcDbEntity
  8
TEXT
  6
Continuous
 62
     0
100
AcDbBlockReference
  2
*B67
 10
0.0
 20
0.0
 30
0.0
  0
INSERT
  5
381
100
AcDbEntity
  8
TEXT
  6
Continuous
 62
     0
100
AcDbBlockReference
  2
*B68
 10
0.0
 20
0.0
 30
0.0
  0
INSERT
  5
386
100
AcDbEntity
  8
TEXT
  6
Continuous
 62
     0
100
AcDbBlockReference
  2
*B69
 10
0.0
 20
0.0
 30
0.0
  0
INSERT
  5
38B
100
AcDbEntity
  8
TEXT
  6
Continuous
 62
     0
100
AcDbBlockReference
  2
*B70
 10
0.0
 20
0.0
 30
0.0
  0
INSERT
  5
390
100
AcDbEntity
  8
TEXT
  6
Continuous
 62
     0
100
AcDbBlockReference
  2
*B71
 10
0.0
 20
0.0
 30
0.0
  0
INSERT
  5
395
100
AcDbEntity
  8
TEXT
  6
Continuous
 62
     0
100
AcDbBlockReference
  2
*B72
 10
0.0
 20
0.0
 30
0.0
  0
INSERT
  5
39A
100
AcDbEntity
  8
TEXT
  6
Continuous
 62
     0
100
AcDbBlockReference
  2
*B73
 10
0.0
 20
0.0
 30
0.0
  0
INSERT
  5
39F
100
AcDbEntity
  8
TEXT
  6
Continuous
 62
     0
100
AcDbBlockReference
  2
*B74
 10
0.0
 20
0.0
 30
0.0
  0
INSERT
  5
3A4
100
AcDbEntity
  8
TEXT
  6
Continuous
 62
     0
100
AcDbBlockReference
  2
*B75
 10
0.0
 20
0.0
 30
0.0
  0
INSERT
  5
3A9
100
AcDbEntity
  8
TEXT
  6
Continuous
 62
     0
100
AcDbBlockReference
  2
*B76
 10
0.0
 20
0.0
 30
0.0
  0
INSERT
  5
3AE
100
AcDbEntity
  8
TEXT
  6
Continuous
 62
     0
100
AcDbBlockReference
  2
*B77
 10
0.0
 20
0.0
 30
0.0
  0
INSERT
  5
3B3
100
AcDbEntity
  8
TEXT
  6
Continuous
 62
     0
100
AcDbBlockReference
  2
*B78
 10
0.0
 20
0.0
 30
0.0
  0
INSERT
  5
3B8
100
AcDbEntity
  8
TEXT
  6
Continuous
 62
     0
100
AcDbBlockReference
  2
*B79
 10
0.0
 20
0.0
 30
0.0
  0
INSERT
  5
3BD
100
AcDbEntity
  8
TEXT
  6
Continuous
 62
     0
100
AcDbBlockReference
  2
*B80
 10
0.0
 20
0.0
 30
0.0
  0
INSERT
  5
3C2
100
AcDbEntity
  8
TEXT
  6
Continuous
 62
     0
100
AcDbBlockReference
  2
*B81
 10
0.0
 20
0.0
 30
0.0
  0
INSERT
  5
3C7
100
AcDbEntity
  8
TEXT
  6
Continuous
 62
     0
100
AcDbBlockReference
  2
*B82
 10
0.0
 20
0.0
 30
0.0
  0
INSERT
  5
3CC
100
AcDbEntity
  8
TEXT
  6
Continuous
 62
     0
100
AcDbBlockReference
  2
*B83
 10
0.0
 20
0.0
 30
0.0
  0
INSERT
  5
3D1
100
AcDbEntity
  8
TEXT
  6
Continuous
 62
     0
100
AcDbBlockReference
  2
*B84
 10
0.0
 20
0.0
 30
0.0
  0
INSERT
  5
3D6
100
AcDbEntity
  8
TEXT
  6
Continuous
 62
     0
100
AcDbBlockReference
  2
*B85
 10
0.0
 20
0.0
 30
0.0
  0
INSERT
  5
3DB
100
AcDbEntity
  8
TEXT
  6
Continuous
 62
     0
100
AcDbBlockReference
  2
*B86
 10
0.0
 20
0.0
 30
0.0
  0
INSERT
  5
3E0
100
AcDbEntity
  8
TEXT
  6
Continuous
 62
     0
100
AcDbBlockReference
  2
*B87
 10
0.0
 20
0.0
 30
0.0
  0
INSERT
  5
3E5
100
AcDbEntity
  8
TEXT
  6
Continuous
 62
     0
100
AcDbBlockReference
  2
*B88
 10
0.0
 20
0.0
 30
0.0
  0
ENDSEC
  0
SECTION
  2
OBJECTS
  0
DICTIONARY
  5
19
100
AcDbDictionary
280
     0
281
     1
  3
ACAD_GROUP
350
1A
  3
ACAD_MLINESTYLE
350
1B
  3
ACAD_LAYOUT
350
1E
  3
ACAD_PLOTSETTINGS
350
22
  3
ACAD_PLOTSTYLENAME
350
1F
  3
ACAD_WIPEOUT_VARS
350
23
  0
DICTIONARY
  5
1A
102
{ACAD_REACTORS
330
19
102
}
100
AcDbDictionary
280
     0
281
     1
  0
DICTIONARY
  5
1B
102
{ACAD_REACTORS
330
19
102
}
100
AcDbDictionary
280
     0
281
     1
  3
Standard
350
1C
  0
MLINESTYLE
  5
1C
102
{ACAD_REACTORS
330
1B
102
}
100
AcDbMlineStyle
  2
Standard
 70
     0
  3

 62
     0
 51
90.0
 52
90.0
 71
     2
 49
0.5
 62
   256
  6
BYLAYER
 49
-0.5
 62
   256
  6
BYLAYER
  0
ACDBDICTIONARYWDFLT
  5
1F
102
{ACAD_REACTORS
330
19
102
}
100
AcDbDictionary
281
     1
  3
Normal
350
1D
100
AcDbDictionaryWithDefault
340
1D
  0
ACDBPLACEHOLDER
  5
1D
102
{ACAD_REACTORS
330
1F
102
}
  0
LAYOUT
  5
20
102
{ACAD_REACTORS
330
1E
102
}
100
AcDbPlotSettings
  1

  2

  4

  6

 40
0.0
 41
0.0
 42
0.0
 43
0.0
 44
0.0
 45
0.0
 46
0.0
 47
0.0
 48
0.0
 49
0.0
140
0.0
141
0.0
142
1.0
143
1.0
 70
     0
 72
     0
 73
     0
 74
     0
  7

 75
     0
147
1.0
148
0.0
149
0.0
100
AcDbLayout
  1
Model
 70
     0
 71
     0
 10
0.0
 20
0.0
 11
0.0
 21
0.0
 12
0.0
 22
0.0
 32
0.0
 14
0.0
 24
0.0
 34
0.0
 15
0.0
 25
0.0
 35
0.0
146
0.0
 13
0.0
 23
0.0
 33
0.0
 16
0.0
 26
0.0
 36
0.0
 17
0.0
 27
0.0
 37
0.0
 76
     0
330
A
331
0
345
0
346
0
  0
LAYOUT
  5
21
102
{ACAD_REACTORS
330
1E
102
}
100
AcDbPlotSettings
  1

  2

  4

  6

 40
0.0
 41
0.0
 42
0.0
 43
0.0
 44
0.0
 45
0.0
 46
0.0
 47
0.0
 48
0.0
 49
0.0
140
0.0
141
0.0
142
1.0
143
1.0
 70
     0
 72
     0
 73
     0
 74
     0
  7

 75
     0
147
1.0
148
0.0
149
0.0
100
AcDbLayout
  1
Layout1
 70
     0
 71
     0
 10
0.0
 20
0.0
 11
0.0
 21
0.0
 12
0.0
 22
0.0
 32
0.0
 14
0.0
 24
0.0
 34
0.0
 15
0.0
 25
0.0
 35
0.0
146
0.0
 13
0.0
 23
0.0
 33
0.0
 16
0.0
 26
0.0
 36
0.0
 17
0.0
 27
0.0
 37
0.0
 76
     0
330
B
331
0
345
0
346
0
  0
DICTIONARY
  5
1E
102
{ACAD_REACTORS
330
19
102
}
100
AcDbDictionary
280
     0
281
     1
  3
Layout1
350
21
  3
Model
350
20
  0
DICTIONARY
  5
22
102
{ACAD_REACTORS
330
19
102
}
100
AcDbDictionary
280
     0
281
     1
  0
WIPEOUTVARIABLES
  5
23
100
AcDbWipeoutVariables
 70
     1
  0
ENDSEC
  0
EOF
