  0
SECTION
  2
HEADER
  9
$ACADVER
  1
AC1015
  9
$ACADMAINTVER
 70
     6
  9
$DWGCODEPAGE
  3
DOS850
  9
$INSBASE
 10
0.0
 20
0.0
 30
0.0
  9
$EXTMIN
 10
0.0
 20
0.0
 30
0.0
  9
$EXTMAX
 10
420.0
 20
297.0
 30
0.0
  9
$LIMMIN
 10
0.0
 20
0.0
  9
$LIMMAX
 10
420.0
 20
297.0
  9
$ORTHOMODE
 70
     0
  9
$REGENMODE
 70
     1
  9
$FILLMODE
 70
     1
  9
$QTEXTMODE
 70
     0
  9
$MIRRTEXT
 70
     1
  9
$LTSCALE
 40
25.4
  9
$ATTMODE
 70
     1
  9
$TEXTSIZE
 40
3.5
  9
$TRACEWID
 40
0.05
  9
$TEXTSTYLE
  7
Standard
  9
$CLAYER
  8
0
  9
$CELTYPE
  6
Continuous
  9
$CECOLOR
 62
   256
  9
$CELTSCALE
 40
1.0
  9
$DISPSILH
 70
     0
  9
$DIMSCALE
 40
1.0
  9
$DIMASZ
 40
5.0
  9
$DIMEXO
 40
3.0
  9
$DIMDLI
 40
0.38
  9
$DIMRND
 40
0.0
  9
$DIMDLE
 40
0.0
  9
$DIMEXE
 40
2.0
  9
$DIMTP
 40
0.0
  9
$DIMTM
 40
0.0
  9
$DIMTXT
 40
3.5
  9
$DIMCEN
 40
4.0
  9
$DIMTSZ
 40
0.0
  9
$DIMTOL
 70
     0
  9
$DIMLIM
 70
     0
  9
$DIMTIH
 70
     1
  9
$DIMTOH
 70
     1
  9
$DIMSE1
 70
     0
  9
$DIMSE2
 70
     0
  9
$DIMTAD
 70
     0
  9
$DIMZIN
 70
     0
  9
$DIMBLK
  1

  9
$DIMASO
 70
     1
  9
$DIMSHO
 70
     1
  9
$DIMPOST
  1

  9
$DIMAPOST
  1

  9
$DIMALT
 70
     0
  9
$DIMALTD
 70
     2
  9
$DIMALTF
 40
25.4
  9
$DIMLFAC
 40
1.0
  9
$DIMTOFL
 70
     0
  9
$DIMTVP
 40
0.0
  9
$DIMTIX
 70
     0
  9
$DIMSOXD
 70
     0
  9
$DIMSAH
 70
     0
  9
$DIMBLK1
  1

  9
$DIMBLK2
  1

  9
$DIMSTYLE
  2
Standard
  9
$DIMCLRD
 70
     0
  9
$DIMCLRE
 70
     0
  9
$DIMCLRT
 70
     0
  9
$DIMTFAC
 40
1.0
  9
$DIMGAP
 40
1.0
  9
$DIMJUST
 70
     0
  9
$DIMSD1
 70
     0
  9
$DIMSD2
 70
     0
  9
$DIMTOLJ
 70
     1
  9
$DIMTZIN
 70
     0
  9
$DIMALTZ
 70
     0
  9
$DIMALTTZ
 70
     0
  9
$DIMUPT
 70
     0
  9
$DIMDEC
 70
     4
  9
$DIMTDEC
 70
     4
  9
$DIMALTU
 70
     2
  9
$DIMALTTD
 70
     2
  9
$DIMTXSTY
  7
Standard
  9
$DIMAUNIT
 70
     0
  9
$DIMADEC
 70
     0
  9
$DIMALTRND
 40
0.0
  9
$DIMAZIN
 70
     0
  9
$DIMDSEP
 70
     0
  9
$DIMATFIT
 70
     3
  9
$DIMFRAC
 70
     0
  9
$DIMLDRBLK
  1

  9
$DIMLUNIT
 70
     2
  9
$DIMLWD
 70
     0
  9
$DIMLWE
 70
     0
  9
$DIMTMOVE
 70
     0
  9
$LUNITS
 70
     2
  9
$LUPREC
 70
     4
  9
$SKETCHINC
 40
0.1
  9
$FILLETRAD
 40
0.0
  9
$AUNITS
 70
     0
  9
$AUPREC
 70
     0
  9
$MENU
  1
acad
  9
$ELEVATION
 40
0.0
  9
$PELEVATION
 40
0.0
  9
$THICKNESS
 40
0.0
  9
$LIMCHECK
 70
     0
  9
$CHAMFERA
 40
0.0
  9
$CHAMFERB
 40
0.0
  9
$CHAMFERC
 40
0.0
  9
$CHAMFERD
 40
0.0
  9
$SKPOLY
 70
     0
  9
$TDCREATE
 40
0.000000000
  9
$TDUCREATE
 40
0.000000000
  9
$TDUPDATE
 40
0.000000000
  9
$TDUUPDATE
 40
0.000000000
  9
$TDINDWG
 40
0.0000000000
  9
$TDUSRTIMER
 40
0.0000000000
  9
$USRTIMER
 70
     1
  9
$ANGBASE
 50
0.0
  9
$ANGDIR
 70
     0
  9
$PDMODE
 70
     0
  9
$PDSIZE
 40
0.0
  9
$PLINEWID
 40
0.0
  9
$SPLFRAME
 70
     0
  9
$SPLINETYPE
 70
     6
  9
$SPLINESEGS
 70
     8
  9
$HANDSEED
  5
445
  9
$SURFTAB1
 70
     6
  9
$SURFTAB2
 70
     6
  9
$SURFTYPE
 70
     6
  9
$SURFU
 70
     6
  9
$SURFV
 70
     6
  9
$UCSBASE
  2

  9
$UCSNAME
  2

  9
$UCSORG
 10
0.0
 20
0.0
 30
0.0
  9
$UCSXDIR
 10
1.0
 20
0.0
 30
0.0
  9
$UCSYDIR
 10
0.0
 20
1.0
 30
0.0
  9
$UCSORTHOREF
  2

  9
$UCSORTHOVIEW
 70
     0
  9
$UCSORGTOP
 10
0.0
 20
0.0
 30
0.0
  9
$UCSORGBOTTOM
 10
0.0
 20
0.0
 30
0.0
  9
$UCSORGLEFT
 10
0.0
 20
0.0
 30
0.0
  9
$UCSORGRIGHT
 10
0.0
 20
0.0
 30
0.0
  9
$UCSORGFRONT
 10
0.0
 20
0.0
 30
0.0
  9
$UCSORGBACK
 10
0.0
 20
0.0
 30
0.0
  9
$PUCSBASE
  2

  9
$PUCSNAME
  2

  9
$PUCSORG
 10
0.0
 20
0.0
 30
0.0
  9
$PUCSXDIR
 10
1.0
 20
0.0
 30
0.0
  9
$PUCSYDIR
 10
0.0
 20
1.0
 30
0.0
  9
$PUCSORTHOREF
  2

  9
$PUCSORTHOVIEW
 70
     0
  9
$PUCSORGTOP
 10
0.0
 20
0.0
 30
0.0
  9
$PUCSORGBOTTOM
 10
0.0
 20
0.0
 30
0.0
  9
$PUCSORGLEFT
 10
0.0
 20
0.0
 30
0.0
  9
$PUCSORGRIGHT
 10
0.0
 20
0.0
 30
0.0
  9
$PUCSORGFRONT
 10
0.0
 20
0.0
 30
0.0
  9
$PUCSORGBACK
 10
0.0
 20
0.0
 30
0.0
  9
$USERI1
 70
     0
  9
$USERI2
 70
     0
  9
$USERI3
 70
     0
  9
$USERI4
 70
     0
  9
$USERI5
 70
     0
  9
$USERR1
 40
0.0
  9
$USERR2
 40
0.0
  9
$USERR3
 40
0.0
  9
$USERR4
 40
0.0
  9
$USERR5
 40
0.0
  9
$WORLDVIEW
 70
     1
  9
$SHADEDGE
 70
     3
  9
$SHADEDIF
 70
    70
  9
$TILEMODE
 70
     1
  9
$MAXACTVP
 70
    16
  9
$PINSBASE
 10
0.0
 20
0.0
 30
0.0
  9
$PLIMCHECK
 70
     0
  9
$PEXTMIN
 10
1.000000E+20
 20
1.000000E+20
 30
1.000000E+20
  9
$PEXTMAX
 10
-1.000000E+20
 20
-1.000000E+20
 30
-1.000000E+20
  9
$PLIMMIN
 10
0.0
 20
0.0
  9
$PLIMMAX
 10
420.0
 20
297.0
  9
$UNITMODE
 70
     0
  9
$VISRETAIN
 70
     0
  9
$PLINEGEN
 70
     1
  9
$PSLTSCALE
 70
     0
  9
$TREEDEPTH
 70
  3020
  9
$CMLSTYLE
  2
Standard
  9
$CMLJUST
 70
     0
  9
$CMLSCALE
 40
1.0
  9
$PROXYGRAPHICS
 70
     0
  9
$MEASUREMENT
 70
     0
  9
$CELWEIGHT
370
     0
  9
$ENDCAPS
280
     0
  9
$JOINSTYLE
280
     0
  9
$LWDISPLAY
290
     0
  9
$INSUNITS
 70
     0
  9
$HYPERLINKBASE
  1

  9
$XEDIT
290
     1
  9
$CEPSNTYPE
380
     0
  9
$PSTYLEMODE
290
     0
  9
$FINGERPRINTGUID
  2

  9
$VERSIONGUID
  2

  9
$EXTNAMES
290
     1
  9
$PSVPSCALE
 40
0.0
  0
ENDSEC
  0
SECTION
  2
CLASSES
  0
CLASS
  1
LWPOLYLINE
  2
AcDbPolyline
  3
"AutoCAD"
 90
        0
280
     0
281
     1
  0
CLASS
  1
IMAGE
  2
AcDbRasterImage
  3
ISM
 90
      127
280
     0
281
     1
  0
CLASS
  1
OLE2FRAME
  2
AcDbOle2Frame
  3
""
 90
        0
280
     0
281
     1
  0
CLASS
  1
HATCH
  2
AcDbHatch
  3
"ACAD_SEDONA"
 90
        0
280
     0
281
     1
  0
CLASS
  1
DICTIONARYVAR
  2
AcDbDictionaryVar
  3
"AutoCAD"
 90
        0
280
     0
281
     0
  0
CLASS
  1
RASTERVARIABLES
  2
AcDbRasterVariables
  3
ISM
 90
        0
280
     0
281
     0
  0
CLASS
  1
IMAGEDEF
  2
AcDbRasterImageDef
  3
ISM
 90
        0
280
     0
281
     0
  0
CLASS
  1
IMAGEDEF_REACTOR
  2
AcDbRasterImageDefReactor
  3
ISM
 90
        1
280
     0
281
     0
  0
CLASS
  1
IDBUFFER
  2
AcDbIdBuffer
  3
"Acad"
 90
        0
280
     0
281
     0
  0
CLASS
  1
SPATIAL_FILTER
  2
AcDbSpatialFilter
  3
"Acad"
 90
        0
280
     0
281
     0
  0
CLASS
  1
XRECORD
  2
AcDbXrecord
  3
"<Built In>"
 90
        0
280
     0
281
     0
  0
CLASS
  1
SORTENTSTABLE
  2
AcDbSortentsTable
  3
"AutoCAD"
 90
        0
280
     0
281
     0
  0
CLASS
  1
LAYER_INDEX
  2
AcDbLayerIndex
  3
"Acad"
 90
        0
280
     0
281
     0
  0
CLASS
  1
SPATIAL_INDEX
  2
AcDbSpatialIndex
  3
"Acad"
 90
        0
280
     0
281
     0
  0
CLASS
  1
OBJECT_PTR
  2
CAseDLPNTableRecord
  3
"ASE-LPNTableRecord"
 90
        1
280
     0
281
     0
  0
CLASS
  1
LAYOUT
  2
AcDbLayout
  3
"AutoCAD 2000"
 90
        1
280
     0
281
     0
  0
CLASS
  1
PLOTSETTINGS
  2
AcDbPlotSettings
  3
"AutoCAD 2000"
 90
        1
280
     0
281
     0
  0
CLASS
  1
ACDBDICTIONARYWDFLT
  2
AcDbDictionaryWithDefault
  3
"AutoCAD 2000"
 90
        1
280
     0
281
     0
  0
CLASS
  1
ACDBPLACEHOLDER
  2
AcDbPlaceHolder
  3
"AutoCAD 2000"
 90
        1
280
     0
281
     0
  0
CLASS
  1
VBA_PROJECT
  2
AcDbVbaProject
  3
"acadvba"
 90
        1
280
     0
281
     0
  0
CLASS
  1
WIPEOUT
  2
AcDbWipeout
  3
WipeOut|AutoCAD Express Tool|expresstools@autodesk.com
 90
      127
280
     0
281
     1
  0
CLASS
  1
WIPEOUTVARIABLES
  2
AcDbWipeoutVariables
  3
WipeOut|AutoCAD Express Tool|expresstools@autodesk.com
 90
        0
280
     0
281
     0
  0
CLASS
  1
RTEXT
  2
RText
  3
RText|AutoCAD Express Tool|expresstools@autodesk.com
 90
        0
280
     0
281
     1
  0
CLASS
  1
ARCALIGNEDTEXT
  2
AcDbArcAlignedText
  3
ATEXT|AutoCAD Express Tool|expresstools@autodesk.com
 90
        0
280
     0
281
     1
  0
ENDSEC
  0
SECTION
  2
TABLES
  0
TABLE
  2
VPORT
  5
7
100
AcDbSymbolTable
 70
     1
  0
VPORT
  5
15
100
AcDbSymbolTableRecord
100
AcDbViewportTableRecord
  2
*ACTIVE
 70
     0
 10
0.0
 20
0.0
 11
1.0
 21
1.0
 12
6.591288
 22
4.579184
 13
0.0
 23
0.0
 14
1.0
 24
1.0
 15
0.0
 25
0.0
 16
0.0
 26
0.0
 36
1.0
 17
0.0
 27
0.0
 37
0.0
 40
9.158369
 41
0.688564
 42
50.0
 43
0.0
 44
0.0
 50
0.0
 51
0.0
 71
     0
 72
   100
 73
     1
 74
     1
 75
     0
 76
     0
 77
     0
 78
     0
281
     0
 65
     0
110
0.0
120
0.0
130
0.0
111
1.0
121
0.0
131
0.0
112
0.0
122
1.0
132
0.0
345
0
346
0
 79
     0
146
0.0
  0
ENDTAB
  0
TABLE
  2
LTYPE
  5
4
100
AcDbSymbolTable
 70
     7
  0
LTYPE
  5
11
100
AcDbSymbolTableRecord
100
AcDbLinetypeTableRecord
  2
ByBlock
 70
    64
  3

 72
    65
 73
     0
 40
0.0
  0
LTYPE
  5
12
100
AcDbSymbolTableRecord
100
AcDbLinetypeTableRecord
  2
ByLayer
 70
    64
  3

 72
    65
 73
     0
 40
0.0
  0
LTYPE
  5
13
100
AcDbSymbolTableRecord
100
AcDbLinetypeTableRecord
  2
Continuous
 70
    64
  3
Solid line
 72
    65
 73
     0
 40
0.0
  0
LTYPE
  5
24
100
AcDbSymbolTableRecord
100
AcDbLinetypeTableRecord
  2
HIDDEN
 70
    64
  3
_ _ _ _ _ _ _ _ _ _ _ _ _ _ _ _ _ _ _ _ _ _ _ _
 72
    65
 73
     2
 40
0.1875
 49
0.125
 74
     0
 49
-0.0625
 74
     0
  0
LTYPE
  5
25
100
AcDbSymbolTableRecord
100
AcDbLinetypeTableRecord
  2
DOTTED
 70
    64
  3
...............................................
 72
    65
 73
     2
 40
0.125
 49
0.0
 74
     0
 49
-0.125
 74
     0
  0
LTYPE
  5
26
100
AcDbSymbolTableRecord
100
AcDbLinetypeTableRecord
  2
CENTER
 70
    64
  3
____ _ ____ _ ____ _ ____ _ ____ _ ____ _ ____ 
 72
    65
 73
     4
 40
1.125
 49
0.75
 74
     0
 49
-0.125
 74
     0
 49
0.125
 74
     0
 49
-0.125
 74
     0
  0
LTYPE
  5
27
100
AcDbSymbolTableRecord
100
AcDbLinetypeTableRecord
  2
PHANTOM
 70
    64
  3
______  __  __  ______  __  __  ______  __  __ 
 72
    65
 73
     6
 40
1.25
 49
0.625
 74
     0
 49
-0.125
 74
     0
 49
0.125
 74
     0
 49
-0.125
 74
     0
 49
0.125
 74
     0
 49
-0.125
 74
     0
  0
ENDTAB
  0
TABLE
  2
LAYER
  5
2
100
AcDbSymbolTable
 70
     2
  0
LAYER
  5
14
100
AcDbSymbolTableRecord
100
AcDbLayerTableRecord
  2
0
 70
     0
 62
     7
  6
Continuous
290
     1
370
    -3
390
1D
  0
LAYER
  5
28
100
AcDbSymbolTableRecord
100
AcDbLayerTableRecord
  2
TEXT
 70
     0
 62
     8
  6
Continuous
290
     1
370
    -3
390
1F
  0
ENDTAB
  0
TABLE
  2
STYLE
  5
3
100
AcDbSymbolTable
 70
     1
  0
STYLE
  5
17
100
AcDbSymbolTableRecord
100
AcDbTextStyleTableRecord
  2
Standard
 70
     0
 40
0.0
 41
1.0
 50
0.0
 71
     0
 42
0.0
  3
txt
  4

  0
ENDTAB
  0
TABLE
  2
VIEW
  5
5
100
AcDbSymbolTable
 70
     0
  0
ENDTAB
  0
TABLE
  2
UCS
  5
6
100
AcDbSymbolTable
 70
     0
  0
ENDTAB
  0
TABLE
  2
APPID
  5
8
100
AcDbSymbolTable
 70
     1
  0
APPID
  5
16
100
AcDbSymbolTableRecord
100
AcDbRegAppTableRecord
  2
ACAD
 70
     0
  0
ENDTAB
  0
TABLE
  2
DIMSTYLE
  5
9
100
AcDbSymbolTable
 70
     1
100
AcDbDimStyleTable
 71
     0
  0
DIMSTYLE
105
18
100
AcDbSymbolTableRecord
100
AcDbDimStyleTableRecord
  2
Standard
 70
     0
  3

  4

 40
1.0
 41
0.18
 42
0.0625
 43
0.38
 44
0.18
 45
0.0
 46
0.0
 47
0.0
 48
0.0
 71
     0
 72
     0
 73
     1
 74
     1
 75
     0
 76
     0
 77
     0
 78
     0
 79
     0
140
0.18
141
0.09
142
0.0
143
25.4
144
1.0
145
0.0
146
1.0
147
0.09
148
0.0
170
     0
171
     2
172
     0
173
     0
174
     0
175
     0
176
     0
177
     0
178
     0
179
     0
271
     4
272
     4
273
     2
274
     2
275
     0
276
     0
277
     2
278
    46
279
     0
280
     0
281
     0
282
     0
283
     1
284
     0
285
     0
286
     0
288
     0
340
17
341
0
342
0
343
0
344
0
371
    -2
372
    -2
  0
ENDTAB
  0
TABLE
  2
BLOCK_RECORD
  5
1
100
AcDbSymbolTable
 70
    91
  0
BLOCK_RECORD
  5
A
100
AcDbSymbolTableRecord
100
AcDbBlockTableRecord
  2
*MODEL_SPACE
340
20
  0
BLOCK_RECORD
  5
B
100
AcDbSymbolTableRecord
100
AcDbBlockTableRecord
  2
*PAPER_SPACE
340
21
  0
BLOCK_RECORD
  5
29
100
AcDbSymbolTableRecord
100
AcDbBlockTableRecord
  2
*B0
340
0
  0
BLOCK_RECORD
  5
2C
100
AcDbSymbolTableRecord
100
AcDbBlockTableRecord
  2
*B1
340
0
  0
BLOCK_RECORD
  5
A7
100
AcDbSymbolTableRecord
100
AcDbBlockTableRecord
  2
*B2
340
0
  0
BLOCK_RECORD
  5
1F7
100
AcDbSymbolTableRecord
100
AcDbBlockTableRecord
  2
*B3
340
0
  0
BLOCK_RECORD
  5
1FD
100
AcDbSymbolTableRecord
100
AcDbBlockTableRecord
  2
*B4
340
0
  0
BLOCK_RECORD
  5
208
100
AcDbSymbolTableRecord
100
AcDbBlockTableRecord
  2
*B5
340
0
  0
BLOCK_RECORD
  5
20B
100
AcDbSymbolTableRecord
100
AcDbBlockTableRecord
  2
*B6
340
0
  0
BLOCK_RECORD
  5
212
100
AcDbSymbolTableRecord
100
AcDbBlockTableRecord
  2
*B7
340
0
  0
BLOCK_RECORD
  5
219
100
AcDbSymbolTableRecord
100
AcDbBlockTableRecord
  2
*B8
340
0
  0
BLOCK_RECORD
  5
220
100
AcDbSymbolTableRecord
100
AcDbBlockTableRecord
  2
*B9
340
0
  0
BLOCK_RECORD
  5
227
100
AcDbSymbolTableRecord
100
AcDbBlockTableRecord
  2
*B10
340
0
  0
BLOCK_RECORD
  5
22E
100
AcDbSymbolTableRecord
100
AcDbBlockTableRecord
  2
*B11
340
0
  0
BLOCK_RECORD
  5
235
100
AcDbSymbolTableRecord
100
AcDbBlockTableRecord
  2
*B12
340
0
  0
BLOCK_RECORD
  5
23C
100
AcDbSymbolTableRecord
100
AcDbBlockTableRecord
  2
*B13
340
0
  0
BLOCK_RECORD
  5
243
100
AcDbSymbolTableRecord
100
AcDbBlockTableRecord
  2
*B14
340
0
  0
BLOCK_RECORD
  5
24A
100
AcDbSymbolTableRecord
100
AcDbBlockTableRecord
  2
*B15
340
0
  0
BLOCK_RECORD
  5
251
100
AcDbSymbolTableRecord
100
AcDbBlockTableRecord
  2
*B16
340
0
  0
BLOCK_RECORD
  5
258
100
AcDbSymbolTableRecord
100
AcDbBlockTableRecord
  2
*B17
340
0
  0
BLOCK_RECORD
  5
25F
100
AcDbSymbolTableRecord
100
AcDbBlockTableRecord
  2
*B18
340
0
  0
BLOCK_RECORD
  5
266
100
AcDbSymbolTableRecord
100
AcDbBlockTableRecord
  2
*B19
340
0
  0
BLOCK_RECORD
  5
26D
100
AcDbSymbolTableRecord
100
AcDbBlockTableRecord
  2
*B20
340
0
  0
BLOCK_RECORD
  5
274
100
AcDbSymbolTableRecord
100
AcDbBlockTableRecord
  2
*B21
340
0
  0
BLOCK_RECORD
  5
27B
100
AcDbSymbolTableRecord
100
AcDbBlockTableRecord
  2
*B22
340
0
  0
BLOCK_RECORD
  5
282
100
AcDbSymbolTableRecord
100
AcDbBlockTableRecord
  2
*B23
340
0
  0
BLOCK_RECORD
  5
28E
100
AcDbSymbolTableRecord
100
AcDbBlockTableRecord
  2
*B24
340
0
  0
BLOCK_RECORD
  5
294
100
AcDbSymbolTableRecord
100
AcDbBlockTableRecord
  2
*B25
340
0
  0
BLOCK_RECORD
  5
299
100
AcDbSymbolTableRecord
100
AcDbBlockTableRecord
  2
*B26
340
0
  0
BLOCK_RECORD
  5
29E
100
AcDbSymbolTableRecord
100
AcDbBlockTableRecord
  2
*B27
340
0
  0
BLOCK_RECORD
  5
2A6
100
AcDbSymbolTableRecord
100
AcDbBlockTableRecord
  2
*B28
340
0
  0
BLOCK_RECORD
  5
2AC
100
AcDbSymbolTableRecord
100
AcDbBlockTableRecord
  2
*B29
340
0
  0
BLOCK_RECORD
  5
2B2
100
AcDbSymbolTableRecord
100
AcDbBlockTableRecord
  2
*B30
340
0
  0
BLOCK_RECORD
  5
2B7
100
AcDbSymbolTableRecord
100
AcDbBlockTableRecord
  2
*B31
340
0
  0
BLOCK_RECORD
  5
2D2
100
AcDbSymbolTableRecord
100
AcDbBlockTableRecord
  2
*B32
340
0
  0
BLOCK_RECORD
  5
2D7
100
AcDbSymbolTableRecord
100
AcDbBlockTableRecord
  2
*B33
340
0
  0
BLOCK_RECORD
  5
2E3
100
AcDbSymbolTableRecord
100
AcDbBlockTableRecord
  2
*B34
340
0
  0
BLOCK_RECORD
  5
2E9
100
AcDbSymbolTableRecord
100
AcDbBlockTableRecord
  2
*B35
340
0
  0
BLOCK_RECORD
  5
2EF
100
AcDbSymbolTableRecord
100
AcDbBlockTableRecord
  2
*B36
340
0
  0
BLOCK_RECORD
  5
2F7
100
AcDbSymbolTableRecord
100
AcDbBlockTableRecord
  2
*B37
340
0
  0
BLOCK_RECORD
  5
2FC
100
AcDbSymbolTableRecord
100
AcDbBlockTableRecord
  2
*B38
340
0
  0
BLOCK_RECORD
  5
305
100
AcDbSymbolTableRecord
100
AcDbBlockTableRecord
  2
*B39
340
0
  0
BLOCK_RECORD
  5
30A
100
AcDbSymbolTableRecord
100
AcDbBlockTableRecord
  2
*B40
340
0
  0
BLOCK_RECORD
  5
311
100
AcDbSymbolTableRecord
100
AcDbBlockTableRecord
  2
*B41
340
0
  0
BLOCK_RECORD
  5
317
100
AcDbSymbolTableRecord
100
AcDbBlockTableRecord
  2
*B42
340
0
  0
BLOCK_RECORD
  5
323
100
AcDbSymbolTableRecord
100
AcDbBlockTableRecord
  2
*B43
340
0
  0
BLOCK_RECORD
  5
328
100
AcDbSymbolTableRecord
100
AcDbBlockTableRecord
  2
*B44
340
0
  0
BLOCK_RECORD
  5
32D
100
AcDbSymbolTableRecord
100
AcDbBlockTableRecord
  2
*B45
340
0
  0
BLOCK_RECORD
  5
332
100
AcDbSymbolTableRecord
100
AcDbBlockTableRecord
  2
*B46
340
0
  0
BLOCK_RECORD
  5
343
100
AcDbSymbolTableRecord
100
AcDbBlockTableRecord
  2
*B47
340
0
  0
BLOCK_RECORD
  5
348
100
AcDbSymbolTableRecord
100
AcDbBlockTableRecord
  2
*B48
340
0
  0
BLOCK_RECORD
  5
34D
100
AcDbSymbolTableRecord
100
AcDbBlockTableRecord
  2
*B49
340
0
  0
BLOCK_RECORD
  5
352
100
AcDbSymbolTableRecord
100
AcDbBlockTableRecord
  2
*B50
340
0
  0
BLOCK_RECORD
  5
35A
100
AcDbSymbolTableRecord
100
AcDbBlockTableRecord
  2
*B51
340
0
  0
BLOCK_RECORD
  5
35F
100
AcDbSymbolTableRecord
100
AcDbBlockTableRecord
  2
*B52
340
0
  0
BLOCK_RECORD
  5
376
100
AcDbSymbolTableRecord
100
AcDbBlockTableRecord
  2
*B53
340
0
  0
BLOCK_RECORD
  5
37C
100
AcDbSymbolTableRecord
100
AcDbBlockTableRecord
  2
*B54
340
0
  0
BLOCK_RECORD
  5
382
100
AcDbSymbolTableRecord
100
AcDbBlockTableRecord
  2
*B55
340
0
  0
BLOCK_RECORD
  5
38D
100
AcDbSymbolTableRecord
100
AcDbBlockTableRecord
  2
*B56
340
0
  0
BLOCK_RECORD
  5
392
100
AcDbSymbolTableRecord
100
AcDbBlockTableRecord
  2
*B57
340
0
  0
BLOCK_RECORD
  5
399
100
AcDbSymbolTableRecord
100
AcDbBlockTableRecord
  2
*B58
340
0
  0
BLOCK_RECORD
  5
39F
100
AcDbSymbolTableRecord
100
AcDbBlockTableRecord
  2
*B59
340
0
  0
BLOCK_RECORD
  5
3A5
100
AcDbSymbolTableRecord
100
AcDbBlockTableRecord
  2
*B60
340
0
  0
BLOCK_RECORD
  5
3AB
100
AcDbSymbolTableRecord
100
AcDbBlockTableRecord
  2
*B61
340
0
  0
BLOCK_RECORD
  5
3B1
100
AcDbSymbolTableRecord
100
AcDbBlockTableRecord
  2
*B62
340
0
  0
BLOCK_RECORD
  5
3B7
100
AcDbSymbolTableRecord
100
AcDbBlockTableRecord
  2
*B63
340
0
  0
BLOCK_RECORD
  5
3BD
100
AcDbSymbolTableRecord
100
AcDbBlockTableRecord
  2
*B64
340
0
  0
BLOCK_RECORD
  5
3C3
100
AcDbSymbolTableRecord
100
AcDbBlockTableRecord
  2
*B65
340
0
  0
BLOCK_RECORD
  5
3C8
100
AcDbSymbolTableRecord
100
AcDbBlockTableRecord
  2
*B66
340
0
  0
BLOCK_RECORD
  5
3CD
100
AcDbSymbolTableRecord
100
AcDbBlockTableRecord
  2
*B67
340
0
  0
BLOCK_RECORD
  5
3D2
100
AcDbSymbolTableRecord
100
AcDbBlockTableRecord
  2
*B68
340
0
  0
BLOCK_RECORD
  5
3D7
100
AcDbSymbolTableRecord
100
AcDbBlockTableRecord
  2
*B69
340
0
  0
BLOCK_RECORD
  5
3DC
100
AcDbSymbolTableRecord
100
AcDbBlockTableRecord
  2
*B70
340
0
  0
BLOCK_RECORD
  5
3E1
100
AcDbSymbolTableRecord
100
AcDbBlockTableRecord
  2
*B71
340
0
  0
BLOCK_RECORD
  5
3E6
100
AcDbSymbolTableRecord
100
AcDbBlockTableRecord
  2
*B72
340
0
  0
BLOCK_RECORD
  5
3EB
100
AcDbSymbolTableRecord
100
AcDbBlockTableRecord
  2
*B73
340
0
  0
BLOCK_RECORD
  5
3F0
100
AcDbSymbolTableRecord
100
AcDbBlockTableRecord
  2
*B74
340
0
  0
BLOCK_RECORD
  5
3F5
100
AcDbSymbolTableRecord
100
AcDbBlockTableRecord
  2
*B75
340
0
  0
BLOCK_RECORD
  5
3FA
100
AcDbSymbolTableRecord
100
AcDbBlockTableRecord
  2
*B76
340
0
  0
BLOCK_RECORD
  5
3FF
100
AcDbSymbolTableRecord
100
AcDbBlockTableRecord
  2
*B77
340
0
  0
BLOCK_RECORD
  5
404
100
AcDbSymbolTableRecord
100
AcDbBlockTableRecord
  2
*B78
340
0
  0
BLOCK_RECORD
  5
409
100
AcDbSymbolTableRecord
100
AcDbBlockTableRecord
  2
*B79
340
0
  0
BLOCK_RECORD
  5
40E
100
AcDbSymbolTableRecord
100
AcDbBlockTableRecord
  2
*B80
340
0
  0
BLOCK_RECORD
  5
413
100
AcDbSymbolTableRecord
100
AcDbBlockTableRecord
  2
*B81
340
0
  0
BLOCK_RECORD
  5
418
100
AcDbSymbolTableRecord
100
AcDbBlockTableRecord
  2
*B82
340
0
  0
BLOCK_RECORD
  5
41D
100
AcDbSymbolTableRecord
100
AcDbBlockTableRecord
  2
*B83
340
0
  0
BLOCK_RECORD
  5
422
100
AcDbSymbolTableRecord
100
AcDbBlockTableRecord
  2
*B84
340
0
  0
BLOCK_RECORD
  5
427
100
AcDbSymbolTableRecord
100
AcDbBlockTableRecord
  2
*B85
340
0
  0
BLOCK_RECORD
  5
42C
100
AcDbSymbolTableRecord
100
AcDbBlockTableRecord
  2
*B86
340
0
  0
BLOCK_RECORD
  5
431
100
AcDbSymbolTableRecord
100
AcDbBlockTableRecord
  2
*B87
340
0
  0
BLOCK_RECORD
  5
436
100
AcDbSymbolTableRecord
100
AcDbBlockTableRecord
  2
*B88
340
0
  0
BLOCK_RECORD
  5
43B
100
AcDbSymbolTableRecord
100
AcDbBlockTableRecord
  2
*B89
340
0
  0
BLOCK_RECORD
  5
440
100
AcDbSymbolTableRecord
100
AcDbBlockTableRecord
  2
*B90
340
0
  0
ENDTAB
  0
ENDSEC
  0
SECTION
  2
BLOCKS
  0
BLOCK
  5
D
100
AcDbEntity
  8
0
100
AcDbBlockBegin
  2
*MODEL_SPACE
 70
     0
 10
0.0
 20
0.0
 30
0.0
  3
*MODEL_SPACE
  1

  0
ENDBLK
  5
E
100
AcDbEntity
  8
0
100
AcDbBlockEnd
  0
BLOCK
  5
F
100
AcDbEntity
 67
     1
  8
0
100
AcDbBlockBegin
  2
*PAPER_SPACE
 70
     0
 10
0.0
 20
0.0
 30
0.0
  3
*PAPER_SPACE
  1

  0
ENDBLK
  5
10
100
AcDbEntity
 67
     1
  8
0
100
AcDbBlockEnd
  0
BLOCK
  5
2A
100
AcDbEntity
  8
0
100
AcDbBlockBegin
  2
*B0
 70
     0
 10
0.0
 20
0.0
 30
0.0
  3
*B0
  1

  0
ENDBLK
  5
2B
100
AcDbEntity
  8
0
100
AcDbBlockEnd
  0
BLOCK
  5
2D
100
AcDbEntity
  8
0
100
AcDbBlockBegin
  2
*B1
 70
     0
 10
0.0
 20
0.0
 30
0.0
  3
*B1
  1

  0
ARC
  5
2E
100
AcDbEntity
  8
0
  6
Continuous
 62
   174
100
AcDbCircle
 10
253.109388
 20
103.520226
 30
0.0
 40
6.58
100
AcDbArc
 50
0.0
 51
180.0
  0
ARC
  5
2F
100
AcDbEntity
  8
0
  6
Continuous
 62
   174
100
AcDbCircle
 10
253.109388
 20
103.520226
 30
0.0
 40
6.58
100
AcDbArc
 50
-180.0
 51
-61.194706
  0
ARC
  5
30
100
AcDbEntity
  8
0
  6
Continuous
 62
   174
100
AcDbCircle
 10
231.109388
 20
103.520226
 30
0.0
 40
6.58
100
AcDbArc
 50
0.0
 51
180.0
  0
ARC
  5
31
100
AcDbEntity
  8
0
  6
Continuous
 62
   174
100
AcDbCircle
 10
231.109388
 20
103.520226
 30
0.0
 40
6.58
100
AcDbArc
 50
-180.0
 51
-61.210326
  0
ARC
  5
32
100
AcDbEntity
  8
0
  6
Continuous
 62
   174
100
AcDbCircle
 10
231.109388
 20
103.520226
 30
0.0
 40
5.875
100
AcDbArc
 50
0.0
 51
180.0
  0
ARC
  5
33
100
AcDbEntity
  8
0
  6
Continuous
 62
   174
100
AcDbCircle
 10
231.109388
 20
103.520226
 30
0.0
 40
5.875
100
AcDbArc
 50
-180.0
 51
0.0
  0
ARC
  5
34
100
AcDbEntity
  8
0
  6
Continuous
 62
   174
100
AcDbCircle
 10
171.109388
 20
103.520226
 30
0.0
 40
3.4
100
AcDbArc
 50
-270.0
 51
-90.0
  0
ARC
  5
35
100
AcDbEntity
  8
0
  6
Continuous
 62
   174
100
AcDbCircle
 10
171.109388
 20
103.520226
 30
0.0
 40
3.4
100
AcDbArc
 50
-90.0
 51
90.0
  0
ARC
  5
36
100
AcDbEntity
  8
0
  6
Continuous
 62
   174
100
AcDbCircle
 10
253.109388
 20
103.520226
 30
0.0
 40
5.875
100
AcDbArc
 50
0.0
 51
180.0
  0
ARC
  5
37
100
AcDbEntity
  8
0
  6
Continuous
 62
   174
100
AcDbCircle
 10
253.109388
 20
103.520226
 30
0.0
 40
5.875
100
AcDbArc
 50
-180.0
 51
0.0
  0
ARC
  5
38
100
AcDbEntity
  8
0
  6
Continuous
 62
   174
100
AcDbCircle
 10
171.109388
 20
103.520226
 30
0.0
 40
3.0
100
AcDbArc
 50
-217.286546
 51
-52.713454
  0
LINE
  5
39
100
AcDbEntity
  8
0
  6
Continuous
 62
   174
100
AcDbLine
 10
168.722541
 20
105.337631
 30
0.0
 11
172.926793
 21
101.133379
 31
0.0
  0
ARC
  5
3A
100
AcDbEntity
  8
0
  6
Continuous
 62
   174
100
AcDbCircle
 10
171.109388
 20
103.520226
 30
0.0
 40
3.0
100
AcDbArc
 50
-41.228296
 51
131.228296
  0
LINE
  5
3B
100
AcDbEntity
  8
0
  6
Continuous
 62
   174
100
AcDbLine
 10
144.609388
 20
110.020226
 30
0.0
 11
141.609388
 21
110.020226
 31
0.0
  0
LINE
  5
3C
100
AcDbEntity
  8
0
  6
Continuous
 62
   174
100
AcDbLine
 10
144.609388
 20
95.520226
 30
0.0
 11
156.651348
 21
95.520226
 31
0.0
  0
LINE
  5
3D
100
AcDbEntity
  8
0
  6
Continuous
 62
   174
100
AcDbLine
 10
144.609388
 20
111.520226
 30
0.0
 11
156.651348
 21
111.520226
 31
0.0
  0
LINE
  5
3E
100
AcDbEntity
  8
0
  6
Continuous
 62
   174
100
AcDbLine
 10
140.909388
 20
95.815845
 30
0.0
 11
140.909388
 21
94.564648
 31
0.0
  0
LINE
  5
3F
100
AcDbEntity
  8
0
  6
Continuous
 62
   174
100
AcDbLine
 10
140.909388
 20
111.402483
 30
0.0
 11
140.909388
 21
103.474131
 31
0.0
  0
LWPOLYLINE
  5
40
100
AcDbEntity
  8
0
  6
Continuous
 62
   174
100
AcDbPolyline
 90
        4
 70
   128
 10
137.109388
 20
108.166821
 10
137.242508
 20
109.220529
 10
137.475591
 20
110.278942
 10
137.802208
 20
111.359032
  0
LINE
  5
41
100
AcDbEntity
  8
0
  6
Continuous
 62
   174
100
AcDbLine
 10
148.409388
 20
112.132856
 30
0.0
 11
148.409388
 21
111.520226
 31
0.0
  0
LINE
  5
42
100
AcDbEntity
  8
0
  6
Continuous
 62
   174
100
AcDbLine
 10
156.609388
 20
97.275228
 30
0.0
 11
156.609388
 21
96.020226
 31
0.0
  0
LINE
  5
43
100
AcDbEntity
  8
0
  6
Continuous
 62
   174
100
AcDbLine
 10
155.109388
 20
93.520226
 30
0.0
 11
156.109388
 21
93.520226
 31
0.0
  0
LINE
  5
44
100
AcDbEntity
  8
0
  6
Continuous
 62
   174
100
AcDbLine
 10
154.609388
 20
113.450961
 30
0.0
 11
154.609388
 21
113.563313
 31
0.0
  0
LINE
  5
45
100
AcDbEntity
  8
0
  6
Continuous
 62
   174
100
AcDbLine
 10
154.609388
 20
111.589637
 30
0.0
 11
154.609388
 21
112.176032
 31
0.0
  0
ARC
  5
46
100
AcDbEntity
  8
0
  6
Continuous
 62
   174
100
AcDbCircle
 10
182.609388
 20
111.020226
 30
0.0
 40
3.0
100
AcDbArc
 50
0.0
 51
90.0
  0
LINE
  5
47
100
AcDbEntity
  8
0
  6
Continuous
 62
   174
100
AcDbLine
 10
173.365656
 20
101.543043
 30
0.0
 11
169.132205
 21
105.776495
 31
0.0
  0
LINE
  5
48
100
AcDbEntity
  8
0
  6
Continuous
 62
   174
100
AcDbLine
 10
144.609388
 20
97.020226
 30
0.0
 11
141.609388
 21
97.020226
 31
0.0
  0
LINE
  5
49
100
AcDbEntity
  8
0
  6
Continuous
 62
   174
100
AcDbLine
 10
144.609388
 20
96.957994
 30
0.0
 11
144.609388
 21
95.564704
 31
0.0
  0
LINE
  5
4A
100
AcDbEntity
  8
0
  6
Continuous
 62
   174
100
AcDbLine
 10
141.609388
 20
94.564648
 30
0.0
 11
141.609388
 21
96.850448
 31
0.0
  0
LWPOLYLINE
  5
4B
100
AcDbEntity
  8
0
  6
Continuous
 62
   174
100
AcDbPolyline
 90
        3
 70
   128
 10
137.802208
 20
111.359032
 10
137.436106
 20
111.359032
 10
137.208006
 20
111.359032
  0
LINE
  5
4C
100
AcDbEntity
  8
0
  6
Continuous
 62
   174
100
AcDbLine
 10
137.157011
 20
111.359032
 30
0.0
 11
137.233615
 21
111.359032
 31
0.0
  0
LINE
  5
4D
100
AcDbEntity
  8
0
  6
Continuous
 62
   174
100
AcDbLine
 10
148.409388
 20
113.201815
 30
0.0
 11
154.609388
 21
113.201815
 31
0.0
  0
ARC
  5
4E
100
AcDbEntity
  8
0
  6
Continuous
 62
   174
100
AcDbCircle
 10
159.609388
 20
96.020226
 30
0.0
 40
3.0
100
AcDbArc
 50
-180.0
 51
-90.0
  0
LINE
  5
4F
100
AcDbEntity
  8
0
  6
Continuous
 62
   174
100
AcDbLine
 10
159.609388
 20
103.520226
 30
0.0
 11
159.609388
 21
111.020226
 31
0.0
  0
ARC
  5
50
100
AcDbEntity
  8
0
  6
Continuous
 62
   174
100
AcDbCircle
 10
197.109388
 20
103.520226
 30
0.0
 40
2.6
100
AcDbArc
 50
-266.248271
 51
-93.751729
  0
LINE
  5
51
100
AcDbEntity
  8
0
  6
Continuous
 62
   174
100
AcDbLine
 10
185.609388
 20
96.020226
 30
0.0
 11
185.609388
 21
111.020226
 31
0.0
  0
LINE
  5
52
100
AcDbEntity
  8
0
  6
Continuous
 62
   174
100
AcDbLine
 10
185.634956
 20
96.020226
 30
0.0
 11
182.635088
 21
96.020226
 31
0.0
  0
LINE
  5
53
100
AcDbEntity
  8
0
  6
Continuous
 62
   174
100
AcDbLine
 10
144.609388
 20
95.520226
 30
0.0
 11
156.651348
 21
95.520226
 31
0.0
  0
LINE
  5
54
100
AcDbEntity
  8
0
  6
Continuous
 62
   174
100
AcDbLine
 10
202.109388
 20
88.520226
 30
0.0
 11
282.109388
 21
88.520226
 31
0.0
  0
LINE
  5
55
100
AcDbEntity
  8
0
  6
Continuous
 62
   174
100
AcDbLine
 10
186.109388
 20
88.520226
 30
0.0
 11
186.109388
 21
118.520226
 31
0.0
  0
LINE
  5
56
100
AcDbEntity
  8
0
  6
Continuous
 62
   174
100
AcDbLine
 10
141.609388
 20
96.850448
 30
0.0
 11
141.609388
 21
110.277758
 31
0.0
  0
LINE
  5
57
100
AcDbEntity
  8
0
  6
Continuous
 62
   174
100
AcDbLine
 10
137.109388
 20
106.622504
 30
0.0
 11
137.109388
 21
108.166821
 31
0.0
  0
LWPOLYLINE
  5
58
100
AcDbEntity
  8
0
  6
Continuous
 62
   174
100
AcDbPolyline
 90
        6
 70
   128
 10
159.609388
 20
103.520226
 10
158.704072
 20
105.009586
 10
157.895767
 20
106.403335
 10
157.233919
 20
107.681996
 10
156.782093
 20
108.808101
 10
156.609388
 20
109.765224
  0
LWPOLYLINE
  5
59
100
AcDbEntity
  8
0
  6
Continuous
 62
   174
100
AcDbPolyline
 90
        6
 70
   128
 10
156.609388
 20
97.275228
 10
156.78173
 20
98.23119
 10
157.233531
 20
99.35763
 10
157.896601
 20
100.63862
 10
158.705132
 20
102.032636
 10
159.609388
 20
103.520226
  0
LINE
  5
5A
100
AcDbEntity
  8
0
  6
Continuous
 62
   174
100
AcDbLine
 10
159.609388
 20
96.020226
 30
0.0
 11
159.609388
 21
103.520226
 31
0.0
  0
LINE
  5
5B
100
AcDbEntity
  8
0
  6
Continuous
 62
   174
100
AcDbLine
 10
186.109388
 20
92.520226
 30
0.0
 11
156.109388
 21
92.520226
 31
0.0
  0
LINE
  5
5C
100
AcDbEntity
  8
0
  6
Continuous
 62
   174
100
AcDbLine
 10
156.109388
 20
114.520226
 30
0.0
 11
186.109388
 21
114.520226
 31
0.0
  0
LINE
  5
5D
100
AcDbEntity
  8
0
  6
Continuous
 62
   174
100
AcDbLine
 10
156.609388
 20
96.020226
 30
0.0
 11
156.609388
 21
97.275228
 31
0.0
  0
LINE
  5
5E
100
AcDbEntity
  8
0
  6
Continuous
 62
   174
100
AcDbLine
 10
282.109388
 20
88.520226
 30
0.0
 11
282.109388
 21
118.520226
 31
0.0
  0
LINE
  5
5F
100
AcDbEntity
  8
0
  6
Continuous
 62
   174
100
AcDbLine
 10
282.109388
 20
118.520226
 30
0.0
 11
202.109388
 21
118.520226
 31
0.0
  0
LINE
  5
60
100
AcDbEntity
  8
0
  6
Continuous
 62
   174
100
AcDbLine
 10
144.609388
 20
111.563501
 30
0.0
 11
144.609388
 21
110.170212
 31
0.0
  0
LINE
  5
61
100
AcDbEntity
  8
0
  6
Continuous
 62
   174
100
AcDbLine
 10
140.909388
 20
112.563558
 30
0.0
 11
140.909388
 21
111.402483
 31
0.0
  0
LWPOLYLINE
  5
62
100
AcDbEntity
  8
0
  6
Continuous
 62
   174
100
AcDbPolyline
 90
        4
 70
   128
 10
137.802208
 20
103.430293
 10
137.474308
 20
104.515262
 10
137.241553
 20
105.57426
 10
137.109388
 20
106.622504
  0
LINE
  5
63
100
AcDbEntity
  8
0
  6
Continuous
 62
   174
100
AcDbLine
 10
154.609388
 20
93.520226
 30
0.0
 11
155.109388
 21
93.520226
 31
0.0
  0
ARC
  5
64
100
AcDbEntity
  8
0
  6
Continuous
 62
   174
100
AcDbCircle
 10
197.109388
 20
103.520226
 30
0.0
 40
3.0
100
AcDbArc
 50
-90.0
 51
90.0
  0
LINE
  5
65
100
AcDbEntity
  8
0
  6
Continuous
 62
   174
100
AcDbLine
 10
197.282337
 20
100.925985
 30
0.0
 11
197.282337
 21
106.114467
 31
0.0
  0
LINE
  5
66
100
AcDbEntity
  8
0
  6
Continuous
 62
   174
100
AcDbLine
 10
144.609388
 20
97.020226
 30
0.0
 11
141.609388
 21
97.020226
 31
0.0
  0
LINE
  5
67
100
AcDbEntity
  8
0
  6
Continuous
 62
   174
100
AcDbLine
 10
141.609388
 20
112.520226
 30
0.0
 11
140.909388
 21
112.520226
 31
0.0
  0
LINE
  5
68
100
AcDbEntity
  8
0
  6
Continuous
 62
   174
100
AcDbLine
 10
185.609388
 20
111.020226
 30
0.0
 11
185.609388
 21
96.020226
 31
0.0
  0
LINE
  5
69
100
AcDbEntity
  8
0
  6
Continuous
 62
   174
100
AcDbLine
 10
202.109388
 20
88.520226
 30
0.0
 11
202.109388
 21
118.520226
 31
0.0
  0
LINE
  5
6A
100
AcDbEntity
  8
0
  6
Continuous
 62
   174
100
AcDbLine
 10
159.609388
 20
114.020226
 30
0.0
 11
182.609388
 21
114.020226
 31
0.0
  0
LINE
  5
6B
100
AcDbEntity
  8
0
  6
Continuous
 62
   174
100
AcDbLine
 10
202.109388
 20
88.520226
 30
0.0
 11
186.109388
 21
88.520226
 31
0.0
  0
LWPOLYLINE
  5
6C
100
AcDbEntity
  8
0
  6
Continuous
 62
   174
100
AcDbPolyline
 90
        7
 70
   128
 10
137.802208
 20
95.771353
 10
137.436082
 20
97.07332
 10
137.207984
 20
98.349921
 10
137.13108
 20
99.600892
 10
137.207998
 20
100.851847
 10
137.436099
 20
102.128402
 10
137.802208
 20
103.430293
  0
LINE
  5
6D
100
AcDbEntity
  8
0
  6
Continuous
 62
   174
100
AcDbLine
 10
154.609388
 20
113.244882
 30
0.0
 11
154.609388
 21
113.450961
 31
0.0
  0
LINE
  5
6E
100
AcDbEntity
  8
0
  6
Continuous
 62
   174
100
AcDbLine
 10
154.609388
 20
94.950371
 30
0.0
 11
154.609388
 21
95.538568
 31
0.0
  0
ARC
  5
6F
100
AcDbEntity
  8
0
  6
Continuous
 62
   174
100
AcDbCircle
 10
197.109388
 20
103.520226
 30
0.0
 40
2.6
100
AcDbArc
 50
-86.185925
 51
86.185925
  0
LINE
  5
70
100
AcDbEntity
  8
0
  6
Continuous
 62
   174
100
AcDbLine
 10
156.109388
 20
92.520226
 30
0.0
 11
156.109388
 21
95.520226
 31
0.0
  0
LINE
  5
71
100
AcDbEntity
  8
0
  6
Continuous
 62
   174
100
AcDbLine
 10
182.635088
 20
111.020226
 30
0.0
 11
185.634956
 21
111.020226
 31
0.0
  0
LINE
  5
72
100
AcDbEntity
  8
0
  6
Continuous
 62
   174
100
AcDbLine
 10
144.609388
 20
110.020226
 30
0.0
 11
141.609388
 21
110.020226
 31
0.0
  0
LINE
  5
73
100
AcDbEntity
  8
0
  6
Continuous
 62
   174
100
AcDbLine
 10
141.609388
 20
94.520226
 30
0.0
 11
140.909388
 21
94.520226
 31
0.0
  0
LINE
  5
74
100
AcDbEntity
  8
0
  6
Continuous
 62
   174
100
AcDbLine
 10
202.109388
 20
118.520226
 30
0.0
 11
202.109388
 21
88.520226
 31
0.0
  0
LINE
  5
75
100
AcDbEntity
  8
0
  6
Continuous
 62
   174
100
AcDbLine
 10
144.609388
 20
110.170212
 30
0.0
 11
144.609388
 21
96.957994
 31
0.0
  0
LINE
  5
76
100
AcDbEntity
  8
0
  6
Continuous
 62
   174
100
AcDbLine
 10
141.609388
 20
110.277758
 30
0.0
 11
141.609388
 21
112.563558
 31
0.0
  0
LINE
  5
77
100
AcDbEntity
  8
0
  6
Continuous
 62
   174
100
AcDbLine
 10
140.909388
 20
103.474131
 30
0.0
 11
140.909388
 21
95.815845
 31
0.0
  0
LINE
  5
78
100
AcDbEntity
  8
0
  6
Continuous
 62
   174
100
AcDbLine
 10
137.802208
 20
95.771353
 30
0.0
 11
140.909388
 21
95.771353
 31
0.0
  0
LINE
  5
79
100
AcDbEntity
  8
0
  6
Continuous
 62
   174
100
AcDbLine
 10
140.909388
 20
111.359032
 30
0.0
 11
137.802208
 21
111.359032
 31
0.0
  0
LINE
  5
7A
100
AcDbEntity
  8
0
  6
Continuous
 62
   174
100
AcDbLine
 10
148.409388
 20
94.90583
 30
0.0
 11
154.609388
 21
94.90583
 31
0.0
  0
LINE
  5
7B
100
AcDbEntity
  8
0
  6
Continuous
 62
   174
100
AcDbLine
 10
148.409388
 20
95.520226
 30
0.0
 11
148.409388
 21
94.90583
 31
0.0
  0
LINE
  5
7C
100
AcDbEntity
  8
0
  6
Continuous
 62
   174
100
AcDbLine
 10
156.635127
 20
96.020226
 30
0.0
 11
159.634995
 21
96.020226
 31
0.0
  0
LINE
  5
7D
100
AcDbEntity
  8
0
  6
Continuous
 62
   174
100
AcDbLine
 10
155.109388
 20
113.520226
 30
0.0
 11
156.109388
 21
113.520226
 31
0.0
  0
LINE
  5
7E
100
AcDbEntity
  8
0
  6
Continuous
 62
   174
100
AcDbLine
 10
182.609388
 20
111.020226
 30
0.0
 11
182.609388
 21
96.020226
 31
0.0
  0
LINE
  5
7F
100
AcDbEntity
  8
0
  6
Continuous
 62
   174
100
AcDbLine
 10
156.609388
 20
111.020226
 30
0.0
 11
156.609388
 21
109.765224
 31
0.0
  0
LINE
  5
80
100
AcDbEntity
  8
0
  6
Continuous
 62
   174
100
AcDbLine
 10
154.609388
 20
93.564892
 30
0.0
 11
154.609388
 21
93.677244
 31
0.0
  0
LINE
  5
81
100
AcDbEntity
  8
0
  6
Continuous
 62
   174
100
AcDbLine
 10
154.609388
 20
93.677244
 30
0.0
 11
154.609388
 21
93.882422
 31
0.0
  0
ARC
  5
82
100
AcDbEntity
  8
0
  6
Continuous
 62
   174
100
AcDbCircle
 10
159.609388
 20
111.020226
 30
0.0
 40
3.0
100
AcDbArc
 50
-270.0
 51
-180.0
  0
ARC
  5
83
100
AcDbEntity
  8
0
  6
Continuous
 62
   174
100
AcDbCircle
 10
197.109388
 20
103.520226
 30
0.0
 40
3.0
100
AcDbArc
 50
-270.0
 51
-90.0
  0
LINE
  5
84
100
AcDbEntity
  8
0
  6
Continuous
 62
   174
100
AcDbLine
 10
182.609388
 20
93.065014
 30
0.0
 11
182.609388
 21
96.064582
 31
0.0
  0
LINE
  5
85
100
AcDbEntity
  8
0
  6
Continuous
 62
   174
100
AcDbLine
 10
137.109388
 20
111.320226
 30
0.0
 11
137.207984
 21
111.491
 31
0.0
  0
LINE
  5
86
100
AcDbEntity
  8
0
  6
Continuous
 62
   174
100
AcDbLine
 10
144.609388
 20
111.520226
 30
0.0
 11
156.651348
 21
111.520226
 31
0.0
  0
LINE
  5
87
100
AcDbEntity
  8
0
  6
Continuous
 62
   174
100
AcDbLine
 10
156.609388
 20
109.765224
 30
0.0
 11
156.609388
 21
111.020226
 31
0.0
  0
LINE
  5
88
100
AcDbEntity
  8
0
  6
Continuous
 62
   174
100
AcDbLine
 10
182.609388
 20
93.020226
 30
0.0
 11
159.609388
 21
93.020226
 31
0.0
  0
LINE
  5
89
100
AcDbEntity
  8
0
  6
Continuous
 62
   174
100
AcDbLine
 10
148.409388
 20
113.244882
 30
0.0
 11
148.409388
 21
112.176032
 31
0.0
  0
LWPOLYLINE
  5
8A
100
AcDbEntity
  8
0
  6
Continuous
 62
   174
100
AcDbPolyline
 90
        4
 70
   128
 10
137.109388
 20
95.771353
 10
137.242508
 20
95.771353
 10
137.475594
 20
95.771353
 10
137.802208
 20
95.771353
  0
LINE
  5
8B
100
AcDbEntity
  8
0
  6
Continuous
 62
   174
100
AcDbLine
 10
148.409388
 20
94.950371
 30
0.0
 11
148.409388
 21
93.882422
 31
0.0
  0
LINE
  5
8C
100
AcDbEntity
  8
0
  6
Continuous
 62
   174
100
AcDbLine
 10
140.909388
 20
103.430293
 30
0.0
 11
137.802208
 21
103.430293
 31
0.0
  0
LINE
  5
8D
100
AcDbEntity
  8
0
  6
Continuous
 62
   174
100
AcDbLine
 10
148.409388
 20
93.837768
 30
0.0
 11
154.609388
 21
93.837768
 31
0.0
  0
LINE
  5
8E
100
AcDbEntity
  8
0
  6
Continuous
 62
   174
100
AcDbLine
 10
154.609388
 20
113.520226
 30
0.0
 11
155.109388
 21
113.520226
 31
0.0
  0
LINE
  5
8F
100
AcDbEntity
  8
0
  6
Continuous
 62
   174
100
AcDbLine
 10
155.109388
 20
113.520226
 30
0.0
 11
156.109388
 21
113.520226
 31
0.0
  0
LINE
  5
90
100
AcDbEntity
  8
0
  6
Continuous
 62
   174
100
AcDbLine
 10
182.609388
 20
96.020226
 30
0.0
 11
159.609388
 21
96.020226
 31
0.0
  0
LINE
  5
91
100
AcDbEntity
  8
0
  6
Continuous
 62
   174
100
AcDbLine
 10
156.109388
 20
111.520226
 30
0.0
 11
156.109388
 21
114.520226
 31
0.0
  0
LINE
  5
92
100
AcDbEntity
  8
0
  6
Continuous
 62
   174
100
AcDbLine
 10
141.609388
 20
112.520226
 30
0.0
 11
140.909388
 21
112.520226
 31
0.0
  0
LINE
  5
93
100
AcDbEntity
  8
0
  6
Continuous
 62
   174
100
AcDbLine
 10
141.609388
 20
94.520226
 30
0.0
 11
140.909388
 21
94.520226
 31
0.0
  0
LINE
  5
94
100
AcDbEntity
  8
0
  6
Continuous
 62
   174
100
AcDbLine
 10
202.109388
 20
118.520226
 30
0.0
 11
186.109388
 21
118.520226
 31
0.0
  0
LINE
  5
95
100
AcDbEntity
  8
0
  6
Continuous
 62
   174
100
AcDbLine
 10
137.109388
 20
111.36343
 30
0.0
 11
137.109388
 21
108.210354
 31
0.0
  0
LINE
  5
96
100
AcDbEntity
  8
0
  6
Continuous
 62
   174
100
AcDbLine
 10
137.109388
 20
106.66626
 30
0.0
 11
137.109388
 21
95.815845
 31
0.0
  0
LINE
  5
97
100
AcDbEntity
  8
0
  6
Continuous
 62
   174
100
AcDbLine
 10
148.409388
 20
112.132856
 30
0.0
 11
154.609388
 21
112.132856
 31
0.0
  0
LINE
  5
98
100
AcDbEntity
  8
0
  6
Continuous
 62
   174
100
AcDbLine
 10
159.609388
 20
111.020226
 30
0.0
 11
182.609388
 21
111.020226
 31
0.0
  0
LINE
  5
99
100
AcDbEntity
  8
0
  6
Continuous
 62
   174
100
AcDbLine
 10
159.634995
 20
111.020226
 30
0.0
 11
156.635127
 21
111.020226
 31
0.0
  0
LINE
  5
9A
100
AcDbEntity
  8
0
  6
Continuous
 62
   174
100
AcDbLine
 10
196.939261
 20
106.114654
 30
0.0
 11
196.939261
 21
100.925798
 31
0.0
  0
LINE
  5
9B
100
AcDbEntity
  8
0
  6
Continuous
 62
   174
100
AcDbLine
 10
182.609388
 20
114.020226
 30
0.0
 11
159.609388
 21
114.020226
 31
0.0
  0
LINE
  5
9C
100
AcDbEntity
  8
0
  6
Continuous
 62
   174
100
AcDbLine
 10
159.609388
 20
93.065014
 30
0.0
 11
159.609388
 21
96.064582
 31
0.0
  0
ARC
  5
9D
100
AcDbEntity
  8
0
  6
Continuous
 62
   174
100
AcDbCircle
 10
210.109388
 20
114.770226
 30
0.0
 40
2.2
100
AcDbArc
 50
-180.0
 51
0.0
  0
LINE
  5
9E
100
AcDbEntity
  8
0
  6
Continuous
 62
   174
100
AcDbLine
 10
159.609388
 20
111.063623
 30
0.0
 11
159.609388
 21
114.063492
 31
0.0
  0
ARC
  5
9F
100
AcDbEntity
  8
0
  6
Continuous
 62
   174
100
AcDbCircle
 10
274.109388
 20
92.270226
 30
0.0
 40
2.2
100
AcDbArc
 50
-180.0
 51
0.0
  0
LINE
  5
A0
100
AcDbEntity
  8
0
  6
Continuous
 62
   174
100
AcDbLine
 10
182.609388
 20
111.063623
 30
0.0
 11
182.609388
 21
114.063492
 31
0.0
  0
ARC
  5
A1
100
AcDbEntity
  8
0
  6
Continuous
 62
   174
100
AcDbCircle
 10
182.609388
 20
96.020226
 30
0.0
 40
3.0
100
AcDbArc
 50
-90.0
 51
0.0
  0
ARC
  5
A2
100
AcDbEntity
  8
0
  6
Continuous
 62
   174
100
AcDbCircle
 10
274.109388
 20
92.270226
 30
0.0
 40
2.2
100
AcDbArc
 50
0.0
 51
180.0
  0
LINE
  5
A3
100
AcDbEntity
  8
0
  6
Continuous
 62
   174
100
AcDbLine
 10
159.609388
 20
93.020226
 30
0.0
 11
182.609388
 21
93.020226
 31
0.0
  0
ARC
  5
A4
100
AcDbEntity
  8
0
  6
Continuous
 62
   174
100
AcDbCircle
 10
210.109388
 20
114.770226
 30
0.0
 40
2.2
100
AcDbArc
 50
0.0
 51
180.0
  0
ENDBLK
  5
A5
100
AcDbEntity
  8
0
100
AcDbBlockEnd
  0
BLOCK
  5
A8
100
AcDbEntity
  8
0
100
AcDbBlockBegin
  2
*B2
 70
     0
 10
0.0
 20
0.0
 30
0.0
  3
*B2
  1

  0
LINE
  5
A9
100
AcDbEntity
  8
0
  6
HIDDEN
 62
   174
100
AcDbLine
 10
237.010031
 20
207.600905
 30
0.0
 11
225.259895
 21
207.600905
 31
0.0
  0
LINE
  5
AA
100
AcDbEntity
  8
0
  6
HIDDEN
 62
   174
100
AcDbLine
 10
259.010067
 20
207.600905
 30
0.0
 11
247.259932
 21
207.600905
 31
0.0
  0
LINE
  5
AB
100
AcDbEntity
  8
0
  6
HIDDEN
 62
   174
100
AcDbLine
 10
258.984388
 20
208.600905
 30
0.0
 11
258.984388
 21
219.600905
 31
0.0
  0
LINE
  5
AC
100
AcDbEntity
  8
0
  6
HIDDEN
 62
   174
100
AcDbLine
 10
246.529388
 20
208.600905
 30
0.0
 11
246.529388
 21
219.600905
 31
0.0
  0
LINE
  5
AD
100
AcDbEntity
  8
0
  6
HIDDEN
 62
   174
100
AcDbLine
 10
259.715123
 20
208.600905
 30
0.0
 11
246.554875
 21
208.600905
 31
0.0
  0
LINE
  5
AE
100
AcDbEntity
  8
0
  6
HIDDEN
 62
   174
100
AcDbLine
 10
259.715123
 20
219.600905
 30
0.0
 11
246.554875
 21
219.600905
 31
0.0
  0
LINE
  5
AF
100
AcDbEntity
  8
0
  6
HIDDEN
 62
   174
100
AcDbLine
 10
259.689388
 20
208.600905
 30
0.0
 11
259.689388
 21
219.600905
 31
0.0
  0
LINE
  5
B0
100
AcDbEntity
  8
0
  6
HIDDEN
 62
   174
100
AcDbLine
 10
246.529388
 20
208.600905
 30
0.0
 11
246.529388
 21
219.600905
 31
0.0
  0
LINE
  5
B1
100
AcDbEntity
  8
0
  6
HIDDEN
 62
   174
100
AcDbLine
 10
259.689388
 20
208.600905
 30
0.0
 11
259.689388
 21
219.600905
 31
0.0
  0
LINE
  5
B2
100
AcDbEntity
  8
0
  6
HIDDEN
 62
   174
100
AcDbLine
 10
258.984388
 20
219.600905
 30
0.0
 11
258.984388
 21
207.600905
 31
0.0
  0
LINE
  5
B3
100
AcDbEntity
  8
0
  6
HIDDEN
 62
   174
100
AcDbLine
 10
247.234388
 20
219.600905
 30
0.0
 11
247.234388
 21
207.600905
 31
0.0
  0
LINE
  5
B4
100
AcDbEntity
  8
0
  6
HIDDEN
 62
   174
100
AcDbLine
 10
258.984388
 20
219.600905
 30
0.0
 11
258.984388
 21
207.600905
 31
0.0
  0
LINE
  5
B5
100
AcDbEntity
  8
0
  6
HIDDEN
 62
   174
100
AcDbLine
 10
247.234388
 20
219.600905
 30
0.0
 11
247.234388
 21
207.600905
 31
0.0
  0
LINE
  5
B6
100
AcDbEntity
  8
0
  6
HIDDEN
 62
   174
100
AcDbLine
 10
258.984388
 20
208.600905
 30
0.0
 11
258.984388
 21
219.600905
 31
0.0
  0
LINE
  5
B7
100
AcDbEntity
  8
0
  6
HIDDEN
 62
   174
100
AcDbLine
 10
224.529388
 20
208.600905
 30
0.0
 11
224.529388
 21
219.600905
 31
0.0
  0
LINE
  5
B8
100
AcDbEntity
  8
0
  6
HIDDEN
 62
   174
100
AcDbLine
 10
225.234388
 20
219.600905
 30
0.0
 11
225.234388
 21
207.600905
 31
0.0
  0
LINE
  5
B9
100
AcDbEntity
  8
0
  6
HIDDEN
 62
   174
100
AcDbLine
 10
246.109388
 20
181.100905
 30
0.0
 11
246.109388
 21
186.400905
 31
0.0
  0
LINE
  5
BA
100
AcDbEntity
  8
0
  6
HIDDEN
 62
   174
100
AcDbLine
 10
238.135056
 20
186.400905
 30
0.0
 11
246.134906
 21
186.400905
 31
0.0
  0
LINE
  5
BB
100
AcDbEntity
  8
0
  6
Continuous
 62
   174
100
AcDbLine
 10
202.109388
 20
179.600905
 30
0.0
 11
202.109388
 21
219.600905
 31
0.0
  0
LINE
  5
BC
100
AcDbEntity
  8
0
  6
HIDDEN
 62
   174
100
AcDbLine
 10
216.109388
 20
181.100905
 30
0.0
 11
216.109388
 21
186.400905
 31
0.0
  0
LINE
  5
BD
100
AcDbEntity
  8
0
  6
Continuous
 62
   174
100
AcDbLine
 10
202.109388
 20
219.600905
 30
0.0
 11
282.109388
 21
219.600905
 31
0.0
  0
LINE
  5
BE
100
AcDbEntity
  8
0
  6
HIDDEN
 62
   174
100
AcDbLine
 10
270.109388
 20
179.600905
 30
0.0
 11
270.109388
 21
181.100905
 31
0.0
  0
LINE
  5
BF
100
AcDbEntity
  8
0
  6
HIDDEN
 62
   174
100
AcDbLine
 10
248.135018
 20
179.600905
 30
0.0
 11
247.989621
 21
179.600905
 31
0.0
  0
LINE
  5
C0
100
AcDbEntity
  8
0
  6
HIDDEN
 62
   174
100
AcDbLine
 10
236.280341
 20
179.600905
 30
0.0
 11
236.134944
 21
179.600905
 31
0.0
  0
LINE
  5
C1
100
AcDbEntity
  8
0
  6
HIDDEN
 62
   174
100
AcDbLine
 10
247.989621
 20
179.600905
 30
0.0
 11
236.280341
 21
179.600905
 31
0.0
  0
LINE
  5
C2
100
AcDbEntity
  8
0
  6
HIDDEN
 62
   174
100
AcDbLine
 10
258.280377
 20
179.600905
 30
0.0
 11
258.13498
 21
179.600905
 31
0.0
  0
LINE
  5
C3
100
AcDbEntity
  8
0
  6
HIDDEN
 62
   174
100
AcDbLine
 10
269.989657
 20
179.600905
 30
0.0
 11
258.280377
 21
179.600905
 31
0.0
  0
LINE
  5
C4
100
AcDbEntity
  8
0
  6
HIDDEN
 62
   174
100
AcDbLine
 10
247.234388
 20
208.600905
 30
0.0
 11
247.234388
 21
219.600905
 31
0.0
  0
LINE
  5
C5
100
AcDbEntity
  8
0
  6
HIDDEN
 62
   174
100
AcDbLine
 10
237.689388
 20
208.600905
 30
0.0
 11
237.689388
 21
219.600905
 31
0.0
  0
LINE
  5
C6
100
AcDbEntity
  8
0
  6
HIDDEN
 62
   174
100
AcDbLine
 10
237.689388
 20
208.600905
 30
0.0
 11
237.689388
 21
219.600905
 31
0.0
  0
LINE
  5
C7
100
AcDbEntity
  8
0
  6
HIDDEN
 62
   174
100
AcDbLine
 10
225.234388
 20
208.600905
 30
0.0
 11
225.234388
 21
219.600905
 31
0.0
  0
LINE
  5
C8
100
AcDbEntity
  8
0
  6
Continuous
 62
   174
100
AcDbLine
 10
185.609388
 20
236.671973
 30
0.0
 11
185.609388
 21
210.671973
 31
0.0
  0
LINE
  5
C9
100
AcDbEntity
  8
0
  6
HIDDEN
 62
   174
100
AcDbLine
 10
248.109388
 20
179.600905
 30
0.0
 11
248.109388
 21
181.100905
 31
0.0
  0
LINE
  5
CA
100
AcDbEntity
  8
0
  6
HIDDEN
 62
   174
100
AcDbLine
 10
226.109388
 20
179.600905
 30
0.0
 11
226.109388
 21
181.100905
 31
0.0
  0
LINE
  5
CB
100
AcDbEntity
  8
0
  6
HIDDEN
 62
   174
100
AcDbLine
 10
214.109388
 20
179.600905
 30
0.0
 11
214.109388
 21
181.100905
 31
0.0
  0
LINE
  5
CC
100
AcDbEntity
  8
0
  6
HIDDEN
 62
   174
100
AcDbLine
 10
270.109388
 20
179.600905
 30
0.0
 11
270.109388
 21
181.100905
 31
0.0
  0
LINE
  5
CD
100
AcDbEntity
  8
0
  6
Continuous
 62
   174
100
AcDbLine
 10
144.609388
 20
225.100079
 30
0.0
 11
144.609388
 21
223.707089
 31
0.0
  0
LINE
  5
CE
100
AcDbEntity
  8
0
  6
HIDDEN
 62
   174
100
AcDbLine
 10
237.715087
 20
219.600905
 30
0.0
 11
224.55514
 21
219.600905
 31
0.0
  0
LINE
  5
CF
100
AcDbEntity
  8
0
  6
HIDDEN
 62
   174
100
AcDbLine
 10
237.715087
 20
208.600905
 30
0.0
 11
224.55514
 21
208.600905
 31
0.0
  0
LINE
  5
D0
100
AcDbEntity
  8
0
  6
HIDDEN
 62
   174
100
AcDbLine
 10
225.234388
 20
208.600905
 30
0.0
 11
225.234388
 21
219.600905
 31
0.0
  0
LINE
  5
D1
100
AcDbEntity
  8
0
  6
Continuous
 62
   174
100
AcDbLine
 10
144.609388
 20
238.171973
 30
0.0
 11
141.609388
 21
238.171973
 31
0.0
  0
LINE
  5
D2
100
AcDbEntity
  8
0
  6
Continuous
 62
   174
100
AcDbLine
 10
141.609388
 20
222.671973
 30
0.0
 11
140.909388
 21
222.671973
 31
0.0
  0
LINE
  5
D3
100
AcDbEntity
  8
0
  6
HIDDEN
 62
   174
100
AcDbLine
 10
156.609388
 20
223.671973
 30
0.0
 11
156.609388
 21
210.671973
 31
0.0
  0
LINE
  5
D4
100
AcDbEntity
  8
0
  6
HIDDEN
 62
   174
100
AcDbLine
 10
260.135093
 20
186.400905
 30
0.0
 11
268.134942
 21
186.400905
 31
0.0
  0
LINE
  5
D5
100
AcDbEntity
  8
0
  6
Continuous
 62
   174
100
AcDbLine
 10
186.109388
 20
179.600905
 30
0.0
 11
186.109388
 21
219.600905
 31
0.0
  0
LINE
  5
D6
100
AcDbEntity
  8
0
  6
HIDDEN
 62
   174
100
AcDbLine
 10
156.109388
 20
193.709307
 30
0.0
 11
156.109388
 21
203.708668
 31
0.0
  0
LINE
  5
D7
100
AcDbEntity
  8
0
  6
HIDDEN
 62
   174
100
AcDbLine
 10
144.609388
 20
225.207024
 30
0.0
 11
144.609388
 21
231.706638
 31
0.0
  0
LINE
  5
D8
100
AcDbEntity
  8
0
  6
HIDDEN
 62
   174
100
AcDbLine
 10
236.984388
 20
208.600905
 30
0.0
 11
236.984388
 21
219.600905
 31
0.0
  0
LINE
  5
D9
100
AcDbEntity
  8
0
  6
Continuous
 62
   174
100
AcDbLine
 10
144.609388
 20
225.171973
 30
0.0
 11
141.609388
 21
225.171973
 31
0.0
  0
LINE
  5
DA
100
AcDbEntity
  8
0
  6
Continuous
 62
   174
100
AcDbLine
 10
141.609388
 20
240.671973
 30
0.0
 11
140.909388
 21
240.671973
 31
0.0
  0
LINE
  5
DB
100
AcDbEntity
  8
0
  6
Continuous
 62
   174
100
AcDbLine
 10
137.109388
 20
239.471973
 30
0.0
 11
137.776664
 21
240.627729
 31
0.0
  0
LINE
  5
DC
100
AcDbEntity
  8
0
  6
HIDDEN
 62
   174
100
AcDbLine
 10
238.135056
 20
181.100905
 30
0.0
 11
246.134906
 21
181.100905
 31
0.0
  0
LINE
  5
DD
100
AcDbEntity
  8
0
  6
Continuous
 62
   174
100
AcDbLine
 10
282.109388
 20
179.600905
 30
0.0
 11
282.109388
 21
219.600905
 31
0.0
  0
LINE
  5
DE
100
AcDbEntity
  8
0
  6
HIDDEN
 62
   174
100
AcDbLine
 10
214.109388
 20
179.600905
 30
0.0
 11
214.109388
 21
181.100905
 31
0.0
  0
LINE
  5
DF
100
AcDbEntity
  8
0
  6
HIDDEN
 62
   174
100
AcDbLine
 10
258.109388
 20
179.600905
 30
0.0
 11
258.109388
 21
181.100905
 31
0.0
  0
LINE
  5
E0
100
AcDbEntity
  8
0
  6
HIDDEN
 62
   174
100
AcDbLine
 10
247.234388
 20
208.600905
 30
0.0
 11
247.234388
 21
219.600905
 31
0.0
  0
LINE
  5
E1
100
AcDbEntity
  8
0
  6
HIDDEN
 62
   174
100
AcDbLine
 10
236.984388
 20
208.600905
 30
0.0
 11
236.984388
 21
219.600905
 31
0.0
  0
LINE
  5
E2
100
AcDbEntity
  8
0
  6
HIDDEN
 62
   174
100
AcDbLine
 10
173.365656
 20
239.671973
 30
0.0
 11
172.926793
 21
239.671973
 31
0.0
  0
LINE
  5
E3
100
AcDbEntity
  8
0
  6
Continuous
 62
   174
100
AcDbLine
 10
137.109388
 20
223.871973
 30
0.0
 11
137.776642
 21
222.716255
 31
0.0
  0
LINE
  5
E4
100
AcDbEntity
  8
0
  6
HIDDEN
 62
   174
100
AcDbLine
 10
238.109388
 20
181.100905
 30
0.0
 11
238.109388
 21
186.400905
 31
0.0
  0
LINE
  5
E5
100
AcDbEntity
  8
0
  6
HIDDEN
 62
   174
100
AcDbLine
 10
268.109388
 20
181.100905
 30
0.0
 11
268.109388
 21
186.400905
 31
0.0
  0
LINE
  5
E6
100
AcDbEntity
  8
0
  6
HIDDEN
 62
   174
100
AcDbLine
 10
216.109388
 20
181.100905
 30
0.0
 11
216.109388
 21
186.400905
 31
0.0
  0
LINE
  5
E7
100
AcDbEntity
  8
0
  6
HIDDEN
 62
   174
100
AcDbLine
 10
216.13502
 20
186.400905
 30
0.0
 11
224.13487
 21
186.400905
 31
0.0
  0
LINE
  5
E8
100
AcDbEntity
  8
0
  6
HIDDEN
 62
   174
100
AcDbLine
 10
141.609388
 20
231.706638
 30
0.0
 11
141.609388
 21
225.207024
 31
0.0
  0
LINE
  5
E9
100
AcDbEntity
  8
0
  6
HIDDEN
 62
   174
100
AcDbLine
 10
141.609388
 20
238.206253
 30
0.0
 11
141.609388
 21
231.706638
 31
0.0
  0
LINE
  5
EA
100
AcDbEntity
  8
0
  6
Continuous
 62
   174
100
AcDbLine
 10
144.609388
 20
239.706187
 30
0.0
 11
144.609388
 21
238.312597
 31
0.0
  0
LINE
  5
EB
100
AcDbEntity
  8
0
  6
Continuous
 62
   174
100
AcDbLine
 10
144.609388
 20
238.312597
 30
0.0
 11
144.609388
 21
231.706638
 31
0.0
  0
LINE
  5
EC
100
AcDbEntity
  8
0
  6
Continuous
 62
   174
100
AcDbLine
 10
144.609388
 20
231.706638
 30
0.0
 11
144.609388
 21
225.100079
 31
0.0
  0
LINE
  5
ED
100
AcDbEntity
  8
0
  6
Continuous
 62
   174
100
AcDbLine
 10
141.609388
 20
224.992833
 30
0.0
 11
141.609388
 21
231.706638
 31
0.0
  0
LINE
  5
EE
100
AcDbEntity
  8
0
  6
HIDDEN
 62
   174
100
AcDbLine
 10
225.234388
 20
219.600905
 30
0.0
 11
225.234388
 21
207.600905
 31
0.0
  0
LINE
  5
EF
100
AcDbEntity
  8
0
  6
HIDDEN
 62
   174
100
AcDbLine
 10
225.259895
 20
219.600905
 30
0.0
 11
237.010031
 21
219.600905
 31
0.0
  0
LINE
  5
F0
100
AcDbEntity
  8
0
  6
HIDDEN
 62
   174
100
AcDbLine
 10
247.259932
 20
219.600905
 30
0.0
 11
259.010067
 21
219.600905
 31
0.0
  0
LINE
  5
F1
100
AcDbEntity
  8
0
  6
HIDDEN
 62
   174
100
AcDbLine
 10
171.109388
 20
239.671973
 30
0.0
 11
169.132205
 21
239.671973
 31
0.0
  0
LINE
  5
F2
100
AcDbEntity
  8
0
  6
Continuous
 62
   174
100
AcDbLine
 10
144.609388
 20
239.671973
 30
0.0
 11
159.609388
 21
239.671973
 31
0.0
  0
LINE
  5
F3
100
AcDbEntity
  8
0
  6
HIDDEN
 62
   174
100
AcDbLine
 10
246.109388
 20
181.100905
 30
0.0
 11
246.109388
 21
186.400905
 31
0.0
  0
LINE
  5
F4
100
AcDbEntity
  8
0
  6
HIDDEN
 62
   174
100
AcDbLine
 10
260.135093
 20
181.100905
 30
0.0
 11
268.134942
 21
181.100905
 31
0.0
  0
LINE
  5
F5
100
AcDbEntity
  8
0
  6
HIDDEN
 62
   174
100
AcDbLine
 10
258.13498
 20
181.100905
 30
0.0
 11
270.135055
 21
181.100905
 31
0.0
  0
LINE
  5
F6
100
AcDbEntity
  8
0
  6
Continuous
 62
   174
100
AcDbLine
 10
202.109388
 20
179.600905
 30
0.0
 11
282.109388
 21
179.600905
 31
0.0
  0
LINE
  5
F7
100
AcDbEntity
  8
0
  6
HIDDEN
 62
   174
100
AcDbLine
 10
216.13502
 20
181.100905
 30
0.0
 11
224.13487
 21
181.100905
 31
0.0
  0
LINE
  5
F8
100
AcDbEntity
  8
0
  6
HIDDEN
 62
   174
100
AcDbLine
 10
236.109388
 20
179.600905
 30
0.0
 11
236.109388
 21
181.100905
 31
0.0
  0
LINE
  5
F9
100
AcDbEntity
  8
0
  6
Continuous
 62
   174
100
AcDbLine
 10
202.109388
 20
179.600905
 30
0.0
 11
202.109388
 21
219.600905
 31
0.0
  0
LINE
  5
FA
100
AcDbEntity
  8
0
  6
HIDDEN
 62
   174
100
AcDbLine
 10
224.529388
 20
208.600905
 30
0.0
 11
224.529388
 21
219.600905
 31
0.0
  0
LINE
  5
FB
100
AcDbEntity
  8
0
  6
HIDDEN
 62
   174
100
AcDbLine
 10
236.984388
 20
219.600905
 30
0.0
 11
236.984388
 21
207.600905
 31
0.0
  0
LINE
  5
FC
100
AcDbEntity
  8
0
  6
HIDDEN
 62
   174
100
AcDbLine
 10
238.109388
 20
181.100905
 30
0.0
 11
238.109388
 21
186.400905
 31
0.0
  0
LINE
  5
FD
100
AcDbEntity
  8
0
  6
HIDDEN
 62
   174
100
AcDbLine
 10
236.134944
 20
181.100905
 30
0.0
 11
248.135018
 21
181.100905
 31
0.0
  0
LINE
  5
FE
100
AcDbEntity
  8
0
  6
HIDDEN
 62
   174
100
AcDbLine
 10
268.109388
 20
181.100905
 30
0.0
 11
268.109388
 21
186.400905
 31
0.0
  0
LINE
  5
FF
100
AcDbEntity
  8
0
  6
HIDDEN
 62
   174
100
AcDbLine
 10
260.109388
 20
181.100905
 30
0.0
 11
260.109388
 21
186.400905
 31
0.0
  0
LINE
  5
100
100
AcDbEntity
  8
0
  6
HIDDEN
 62
   174
100
AcDbLine
 10
224.109388
 20
181.100905
 30
0.0
 11
224.109388
 21
186.400905
 31
0.0
  0
LINE
  5
101
100
AcDbEntity
  8
0
  6
HIDDEN
 62
   174
100
AcDbLine
 10
224.109388
 20
181.100905
 30
0.0
 11
224.109388
 21
186.400905
 31
0.0
  0
LINE
  5
102
100
AcDbEntity
  8
0
  6
Continuous
 62
   174
100
AcDbLine
 10
202.109388
 20
179.600905
 30
0.0
 11
186.109388
 21
179.600905
 31
0.0
  0
LINE
  5
103
100
AcDbEntity
  8
0
  6
Continuous
 62
   174
100
AcDbLine
 10
202.109388
 20
219.600905
 30
0.0
 11
186.109388
 21
219.600905
 31
0.0
  0
LINE
  5
104
100
AcDbEntity
  8
0
  6
HIDDEN
 62
   174
100
AcDbLine
 10
156.109388
 20
183.709946
 30
0.0
 11
156.109388
 21
193.709307
 31
0.0
  0
LINE
  5
105
100
AcDbEntity
  8
0
  6
HIDDEN
 62
   174
100
AcDbLine
 10
236.109388
 20
179.600905
 30
0.0
 11
236.109388
 21
181.100905
 31
0.0
  0
LINE
  5
106
100
AcDbEntity
  8
0
  6
HIDDEN
 62
   174
100
AcDbLine
 10
144.609388
 20
238.206253
 30
0.0
 11
144.609388
 21
231.706638
 31
0.0
  0
LINE
  5
107
100
AcDbEntity
  8
0
  6
Continuous
 62
   174
100
AcDbLine
 10
141.609388
 20
231.706638
 30
0.0
 11
141.609388
 21
238.420744
 31
0.0
  0
LINE
  5
108
100
AcDbEntity
  8
0
  6
Continuous
 62
   174
100
AcDbLine
 10
141.609388
 20
238.420744
 30
0.0
 11
141.609388
 21
240.705943
 31
0.0
  0
LINE
  5
109
100
AcDbEntity
  8
0
  6
Continuous
 62
   174
100
AcDbLine
 10
141.609388
 20
222.707334
 30
0.0
 11
141.609388
 21
224.992833
 31
0.0
  0
LINE
  5
10A
100
AcDbEntity
  8
0
  6
HIDDEN
 62
   174
100
AcDbLine
 10
236.984388
 20
219.600905
 30
0.0
 11
236.984388
 21
207.600905
 31
0.0
  0
LINE
  5
10B
100
AcDbEntity
  8
0
  6
HIDDEN
 62
   174
100
AcDbLine
 10
172.926793
 20
239.671973
 30
0.0
 11
171.109388
 21
239.671973
 31
0.0
  0
LINE
  5
10C
100
AcDbEntity
  8
0
  6
Continuous
 62
   174
100
AcDbLine
 10
144.609388
 20
223.671973
 30
0.0
 11
156.609388
 21
223.671973
 31
0.0
  0
LINE
  5
10D
100
AcDbEntity
  8
0
  6
HIDDEN
 62
   174
100
AcDbLine
 10
156.609388
 20
228.88809
 30
0.0
 11
156.609388
 21
223.671973
 31
0.0
  0
LINE
  5
10E
100
AcDbEntity
  8
0
  6
HIDDEN
 62
   174
100
AcDbLine
 10
260.109388
 20
181.100905
 30
0.0
 11
260.109388
 21
186.400905
 31
0.0
  0
LINE
  5
10F
100
AcDbEntity
  8
0
  6
HIDDEN
 62
   174
100
AcDbLine
 10
214.134908
 20
181.100905
 30
0.0
 11
226.134982
 21
181.100905
 31
0.0
  0
LINE
  5
110
100
AcDbEntity
  8
0
  6
HIDDEN
 62
   174
100
AcDbLine
 10
248.109388
 20
179.600905
 30
0.0
 11
248.109388
 21
181.100905
 31
0.0
  0
LINE
  5
111
100
AcDbEntity
  8
0
  6
HIDDEN
 62
   174
100
AcDbLine
 10
226.109388
 20
179.600905
 30
0.0
 11
226.109388
 21
181.100905
 31
0.0
  0
LINE
  5
112
100
AcDbEntity
  8
0
  6
HIDDEN
 62
   174
100
AcDbLine
 10
258.109388
 20
179.600905
 30
0.0
 11
258.109388
 21
181.100905
 31
0.0
  0
LINE
  5
113
100
AcDbEntity
  8
0
  6
HIDDEN
 62
   174
100
AcDbLine
 10
270.135055
 20
179.600905
 30
0.0
 11
269.989657
 21
179.600905
 31
0.0
  0
LINE
  5
114
100
AcDbEntity
  8
0
  6
HIDDEN
 62
   174
100
AcDbLine
 10
226.134982
 20
179.600905
 30
0.0
 11
225.989585
 21
179.600905
 31
0.0
  0
LINE
  5
115
100
AcDbEntity
  8
0
  6
HIDDEN
 62
   174
100
AcDbLine
 10
214.280305
 20
179.600905
 30
0.0
 11
214.134908
 21
179.600905
 31
0.0
  0
LINE
  5
116
100
AcDbEntity
  8
0
  6
HIDDEN
 62
   174
100
AcDbLine
 10
225.989585
 20
179.600905
 30
0.0
 11
214.280305
 21
179.600905
 31
0.0
  0
LINE
  5
117
100
AcDbEntity
  8
0
  6
Continuous
 62
   174
100
AcDbLine
 10
137.802208
 20
222.672422
 30
0.0
 11
137.774735
 21
222.721259
 31
0.0
  0
LINE
  5
118
100
AcDbEntity
  8
0
  6
HIDDEN
 62
   174
100
AcDbLine
 10
260.094538
 20
181.100905
 30
0.0
 11
260.304823
 21
181.100905
 31
0.0
  0
LINE
  5
119
100
AcDbEntity
  8
0
  6
HIDDEN
 62
   174
100
AcDbLine
 10
140.909388
 20
236.093863
 30
0.0
 11
137.802208
 21
236.093863
 31
0.0
  0
LWPOLYLINE
  5
11A
100
AcDbEntity
  8
0
  6
Continuous
 62
   174
100
AcDbPolyline
 90
        4
 70
   128
 10
156.651348
 20
231.671973
 10
156.642353
 20
232.620956
 10
156.621948
 20
233.559122
 10
156.609388
 20
234.455855
  0
LINE
  5
11B
100
AcDbEntity
  8
0
  6
HIDDEN
 62
   174
100
AcDbLine
 10
215.134964
 20
179.100905
 30
0.0
 11
225.134926
 21
179.100905
 31
0.0
  0
LINE
  5
11C
100
AcDbEntity
  8
0
  6
HIDDEN
 62
   174
100
AcDbLine
 10
223.965139
 20
181.100905
 30
0.0
 11
224.175425
 21
181.100905
 31
0.0
  0
LINE
  5
11D
100
AcDbEntity
  8
0
  6
HIDDEN
 62
   174
100
AcDbLine
 10
259.135036
 20
179.100905
 30
0.0
 11
269.134998
 21
179.100905
 31
0.0
  0
LINE
  5
11E
100
AcDbEntity
  8
0
  6
Continuous
 62
   174
100
AcDbLine
 10
159.609388
 20
236.671973
 30
0.0
 11
182.609388
 21
236.671973
 31
0.0
  0
LWPOLYLINE
  5
11F
100
AcDbEntity
  8
0
  6
HIDDEN
 62
   174
100
AcDbPolyline
 90
        4
 70
   128
 10
137.802208
 20
227.250082
 10
137.474308
 20
226.623675
 10
137.241553
 20
226.012262
 10
137.109388
 20
225.407058
  0
ARC
  5
120
100
AcDbEntity
  8
0
  6
HIDDEN
 62
   174
100
AcDbCircle
 10
247.109388
 20
180.100905
 30
0.0
 40
1.0
100
AcDbArc
 50
0.0
 51
90.0
  0
ARC
  5
121
100
AcDbEntity
  8
0
  6
Continuous
 62
   174
100
AcDbCircle
 10
215.109388
 20
180.100905
 30
0.0
 40
1.0
100
AcDbArc
 50
-149.399543
 51
-90.0
  0
LINE
  5
122
100
AcDbEntity
  8
0
  6
Continuous
 62
   174
100
AcDbLine
 10
154.609388
 20
183.671973
 30
0.0
 11
156.109388
 21
183.671973
 31
0.0
  0
LINE
  5
123
100
AcDbEntity
  8
0
  6
Continuous
 62
   174
100
AcDbLine
 10
154.609388
 20
183.709946
 30
0.0
 11
154.609388
 21
184.027176
 31
0.0
  0
LINE
  5
124
100
AcDbEntity
  8
0
  6
Continuous
 62
   174
100
AcDbLine
 10
137.109388
 20
230.815029
 30
0.0
 11
137.109388
 21
223.907161
 31
0.0
  0
ARC
  5
125
100
AcDbEntity
  8
0
  6
Continuous
 62
   174
100
AcDbCircle
 10
225.109388
 20
180.100905
 30
0.0
 40
1.0
100
AcDbArc
 50
270.0
 51
329.399543
  0
ARC
  5
126
100
AcDbEntity
  8
0
  6
HIDDEN
 62
   174
100
AcDbCircle
 10
215.109388
 20
180.100905
 30
0.0
 40
1.0
100
AcDbArc
 50
0.0
 51
90.0
  0
ARC
  5
127
100
AcDbEntity
  8
0
  6
HIDDEN
 62
   174
100
AcDbCircle
 10
269.109388
 20
180.100905
 30
0.0
 40
1.0
100
AcDbArc
 50
90.0
 51
180.0
  0
LINE
  5
128
100
AcDbEntity
  8
0
  6
Continuous
 62
   174
100
AcDbLine
 10
148.409388
 20
183.989192
 30
0.0
 11
154.609388
 21
183.989192
 31
0.0
  0
LINE
  5
129
100
AcDbEntity
  8
0
  6
HIDDEN
 62
   174
100
AcDbLine
 10
148.409388
 20
202.287617
 30
0.0
 11
154.609388
 21
202.287617
 31
0.0
  0
LINE
  5
12A
100
AcDbEntity
  8
0
  6
HIDDEN
 62
   174
100
AcDbLine
 10
156.609388
 20
223.707089
 30
0.0
 11
156.609388
 21
228.923063
 31
0.0
  0
LWPOLYLINE
  5
12B
100
AcDbEntity
  8
0
  6
HIDDEN
 62
   174
100
AcDbPolyline
 90
        4
 70
   128
 10
137.109388
 20
224.515446
 10
137.242508
 20
223.907087
 10
137.475591
 20
223.296013
 10
137.773487
 20
222.721723
  0
ARC
  5
12C
100
AcDbEntity
  8
0
  6
HIDDEN
 62
   174
100
AcDbCircle
 10
225.109388
 20
180.100905
 30
0.0
 40
1.0
100
AcDbArc
 50
0.0
 51
90.0
  0
LINE
  5
12D
100
AcDbEntity
  8
0
  6
HIDDEN
 62
   174
100
AcDbLine
 10
224.175425
 20
181.100905
 30
0.0
 11
225.134926
 21
181.100905
 31
0.0
  0
ARC
  5
12E
100
AcDbEntity
  8
0
  6
HIDDEN
 62
   174
100
AcDbCircle
 10
237.109388
 20
180.100905
 30
0.0
 40
1.0
100
AcDbArc
 50
-90.0
 51
0.0
  0
ARC
  5
12F
100
AcDbEntity
  8
0
  6
HIDDEN
 62
   174
100
AcDbCircle
 10
269.109388
 20
180.100905
 30
0.0
 40
1.0
100
AcDbArc
 50
329.399543
 51
334.285714
  0
LINE
  5
130
100
AcDbEntity
  8
0
  6
HIDDEN
 62
   174
100
AcDbLine
 10
167.709388
 20
239.671973
 30
0.0
 11
168.109713
 21
239.671973
 31
0.0
  0
LINE
  5
131
100
AcDbEntity
  8
0
  6
HIDDEN
 62
   174
100
AcDbLine
 10
159.609388
 20
210.671973
 30
0.0
 11
159.609388
 21
236.671973
 31
0.0
  0
LINE
  5
132
100
AcDbEntity
  8
0
  6
Continuous
 62
   174
100
AcDbLine
 10
140.909388
 20
236.283946
 30
0.0
 11
140.909388
 21
231.706638
 31
0.0
  0
LINE
  5
133
100
AcDbEntity
  8
0
  6
Continuous
 62
   174
100
AcDbLine
 10
148.409388
 20
191.209617
 30
0.0
 11
148.409388
 21
188.630919
 31
0.0
  0
ARC
  5
134
100
AcDbEntity
  8
0
  6
HIDDEN
 62
   174
100
AcDbCircle
 10
259.109388
 20
180.100905
 30
0.0
 40
1.0
100
AcDbArc
 50
-270.0
 51
-180.0
  0
LWPOLYLINE
  5
135
100
AcDbEntity
  8
0
  6
Continuous
 62
   174
100
AcDbPolyline
 90
        4
 70
   128
 10
137.802208
 20
227.094313
 10
137.474307
 20
228.347128
 10
137.241554
 20
229.569949
 10
137.109388
 20
230.780361
  0
ARC
  5
136
100
AcDbEntity
  8
0
  6
HIDDEN
 62
   174
100
AcDbCircle
 10
215.109388
 20
180.100905
 30
0.0
 40
1.0
100
AcDbArc
 50
-270.0
 51
-180.0
  0
ARC
  5
137
100
AcDbEntity
  8
0
  6
HIDDEN
 62
   174
100
AcDbCircle
 10
237.109388
 20
180.100905
 30
0.0
 40
1.0
100
AcDbArc
 50
-270.0
 51
-180.0
  0
ARC
  5
138
100
AcDbEntity
  8
0
  6
HIDDEN
 62
   174
100
AcDbCircle
 10
259.109388
 20
180.100905
 30
0.0
 40
1.0
100
AcDbArc
 50
-90.0
 51
0.0
  0
LINE
  5
139
100
AcDbEntity
  8
0
  6
HIDDEN
 62
   174
100
AcDbLine
 10
182.609388
 20
236.706319
 30
0.0
 11
182.609388
 21
239.706187
 31
0.0
  0
ARC
  5
13A
100
AcDbEntity
  8
0
  6
HIDDEN
 62
   174
100
AcDbCircle
 10
237.109388
 20
180.100905
 30
0.0
 40
1.0
100
AcDbArc
 50
-180.0
 51
-154.285714
  0
ARC
  5
13B
100
AcDbEntity
  8
0
  6
HIDDEN
 62
   174
100
AcDbCircle
 10
247.109388
 20
180.100905
 30
0.0
 40
1.0
100
AcDbArc
 50
329.399543
 51
334.285714
  0
LINE
  5
13C
100
AcDbEntity
  8
0
  6
HIDDEN
 62
   174
100
AcDbLine
 10
260.304823
 20
181.100905
 30
0.0
 11
267.965212
 21
181.100905
 31
0.0
  0
LWPOLYLINE
  5
13D
100
AcDbEntity
  8
0
  6
Continuous
 62
   174
100
AcDbPolyline
 90
        4
 70
   128
 10
137.109388
 20
232.563584
 10
137.242508
 20
233.780299
 10
137.475594
 20
235.002463
 10
137.802208
 20
236.249633
  0
ARC
  5
13E
100
AcDbEntity
  8
0
  6
HIDDEN
 62
   174
100
AcDbCircle
 10
215.109388
 20
180.100905
 30
0.0
 40
1.0
100
AcDbArc
 50
-154.285714
 51
-149.399543
  0
LINE
  5
13F
100
AcDbEntity
  8
0
  6
HIDDEN
 62
   174
100
AcDbLine
 10
159.609388
 20
239.671973
 30
0.0
 11
167.709388
 21
239.671973
 31
0.0
  0
LINE
  5
140
100
AcDbEntity
  8
0
  6
HIDDEN
 62
   174
100
AcDbLine
 10
168.109713
 20
239.671973
 30
0.0
 11
169.132205
 21
239.671973
 31
0.0
  0
LINE
  5
141
100
AcDbEntity
  8
0
  6
Continuous
 62
   174
100
AcDbLine
 10
182.609388
 20
239.671973
 30
0.0
 11
159.609388
 21
239.671973
 31
0.0
  0
ARC
  5
142
100
AcDbEntity
  8
0
  6
HIDDEN
 62
   174
100
AcDbCircle
 10
182.609388
 20
236.671973
 30
0.0
 40
3.0
100
AcDbArc
 50
0.0
 51
18.0
  0
ARC
  5
143
100
AcDbEntity
  8
0
  6
Continuous
 62
   174
100
AcDbCircle
 10
237.109388
 20
180.100905
 30
0.0
 40
1.0
100
AcDbArc
 50
-149.399543
 51
-90.0
  0
LINE
  5
144
100
AcDbEntity
  8
0
  6
HIDDEN
 62
   174
100
AcDbLine
 10
267.965212
 20
181.100905
 30
0.0
 11
268.175497
 21
181.100905
 31
0.0
  0
LINE
  5
145
100
AcDbEntity
  8
0
  6
Continuous
 62
   174
100
AcDbLine
 10
186.109388
 20
210.671973
 30
0.0
 11
156.109388
 21
210.671973
 31
0.0
  0
LINE
  5
146
100
AcDbEntity
  8
0
  6
Continuous
 62
   174
100
AcDbLine
 10
185.634956
 20
236.671973
 30
0.0
 11
182.635088
 21
236.671973
 31
0.0
  0
LINE
  5
147
100
AcDbEntity
  8
0
  6
Continuous
 62
   174
100
AcDbLine
 10
137.109388
 20
230.780361
 30
0.0
 11
137.109388
 21
232.563584
 31
0.0
  0
ARC
  5
148
100
AcDbEntity
  8
0
  6
HIDDEN
 62
   174
100
AcDbCircle
 10
269.109388
 20
180.100905
 30
0.0
 40
1.0
100
AcDbArc
 50
180.0
 51
270.0
  0
ARC
  5
149
100
AcDbEntity
  8
0
  6
HIDDEN
 62
   174
100
AcDbCircle
 10
259.109388
 20
180.100905
 30
0.0
 40
1.0
100
AcDbArc
 50
-90.0
 51
0.0
  0
LINE
  5
14A
100
AcDbEntity
  8
0
  6
Continuous
 62
   174
100
AcDbLine
 10
140.909388
 20
231.706638
 30
0.0
 11
140.909388
 21
227.129331
 31
0.0
  0
LINE
  5
14B
100
AcDbEntity
  8
0
  6
Continuous
 62
   174
100
AcDbLine
 10
148.409388
 20
198.787694
 30
0.0
 11
148.409388
 21
196.209297
 31
0.0
  0
ARC
  5
14C
100
AcDbEntity
  8
0
  6
HIDDEN
 62
   174
100
AcDbCircle
 10
225.109388
 20
180.100905
 30
0.0
 40
1.0
100
AcDbArc
 50
90.0
 51
180.0
  0
LINE
  5
14D
100
AcDbEntity
  8
0
  6
HIDDEN
 62
   174
100
AcDbLine
 10
268.175497
 20
181.100905
 30
0.0
 11
269.134998
 21
181.100905
 31
0.0
  0
LINE
  5
14E
100
AcDbEntity
  8
0
  6
Continuous
 62
   174
100
AcDbLine
 10
185.609388
 20
210.671973
 30
0.0
 11
185.609388
 21
236.671973
 31
0.0
  0
LINE
  5
14F
100
AcDbEntity
  8
0
  6
HIDDEN
 62
   174
100
AcDbLine
 10
137.773401
 20
222.721872
 30
0.0
 11
137.802208
 21
222.672422
 31
0.0
  0
LWPOLYLINE
  5
150
100
AcDbEntity
  8
0
  6
Continuous
 62
   174
100
AcDbPolyline
 90
        4
 70
   128
 10
156.651348
 20
231.671973
 10
156.642353
 20
230.722965
 10
156.621947
 20
229.784799
 10
156.609388
 20
228.88809
  0
ARC
  5
151
100
AcDbEntity
  8
0
  6
HIDDEN
 62
   174
100
AcDbCircle
 10
247.109388
 20
180.100905
 30
0.0
 40
1.0
100
AcDbArc
 50
0.0
 51
90.0
  0
LINE
  5
152
100
AcDbEntity
  8
0
  6
HIDDEN
 62
   174
100
AcDbLine
 10
140.909388
 20
227.250082
 30
0.0
 11
140.909388
 21
222.672422
 31
0.0
  0
LINE
  5
153
100
AcDbEntity
  8
0
  6
Continuous
 62
   174
100
AcDbLine
 10
154.609388
 20
203.671973
 30
0.0
 11
156.109388
 21
203.671973
 31
0.0
  0
ARC
  5
154
100
AcDbEntity
  8
0
  6
HIDDEN
 62
   174
100
AcDbCircle
 10
237.109388
 20
180.100905
 30
0.0
 40
1.0
100
AcDbArc
 50
-154.285714
 51
-149.399543
  0
LINE
  5
155
100
AcDbEntity
  8
0
  6
HIDDEN
 62
   174
100
AcDbLine
 10
246.175461
 20
181.100905
 30
0.0
 11
247.134962
 21
181.100905
 31
0.0
  0
ARC
  5
156
100
AcDbEntity
  8
0
  6
HIDDEN
 62
   174
100
AcDbCircle
 10
237.109388
 20
180.100905
 30
0.0
 40
1.0
100
AcDbArc
 50
-90.0
 51
0.0
  0
ARC
  5
157
100
AcDbEntity
  8
0
  6
HIDDEN
 62
   174
100
AcDbCircle
 10
269.109388
 20
180.100905
 30
0.0
 40
1.0
100
AcDbArc
 50
0.0
 51
90.0
  0
LWPOLYLINE
  5
158
100
AcDbEntity
  8
0
  6
HIDDEN
 62
   174
100
AcDbPolyline
 90
        7
 70
   128
 10
137.802208
 20
236.093863
 10
137.436106
 20
234.590593
 10
137.208006
 20
233.116603
 10
137.131075
 20
231.67221
 10
137.207962
 20
230.227763
 10
137.436054
 20
228.753612
 10
137.802208
 20
227.250082
  0
LWPOLYLINE
  5
159
100
AcDbEntity
  8
0
  6
HIDDEN
 62
   174
100
AcDbPolyline
 90
        4
 70
   128
 10
137.109388
 20
237.936888
 10
137.242508
 20
237.328529
 10
137.475591
 20
236.717454
 10
137.802208
 20
236.093863
  0
LINE
  5
15A
100
AcDbEntity
  8
0
  6
HIDDEN
 62
   174
100
AcDbLine
 10
173.365656
 20
239.671973
 30
0.0
 11
174.109388
 21
239.671973
 31
0.0
  0
LINE
  5
15B
100
AcDbEntity
  8
0
  6
Continuous
 62
   174
100
AcDbLine
 10
140.909388
 20
227.094313
 30
0.0
 11
137.802208
 21
227.094313
 31
0.0
  0
LINE
  5
15C
100
AcDbEntity
  8
0
  6
HIDDEN
 62
   174
100
AcDbLine
 10
154.609388
 20
191.17534
 30
0.0
 11
154.609388
 21
196.175339
 31
0.0
  0
ARC
  5
15D
100
AcDbEntity
  8
0
  6
HIDDEN
 62
   174
100
AcDbCircle
 10
225.109388
 20
180.100905
 30
0.0
 40
1.0
100
AcDbArc
 50
334.285714
 51
360.0
  0
LINE
  5
15E
100
AcDbEntity
  8
0
  6
HIDDEN
 62
   174
100
AcDbLine
 10
185.634956
 20
210.671973
 30
0.0
 11
182.635088
 21
210.671973
 31
0.0
  0
ARC
  5
15F
100
AcDbEntity
  8
0
  6
HIDDEN
 62
   174
100
AcDbCircle
 10
182.609388
 20
236.671973
 30
0.0
 40
3.0
100
AcDbArc
 50
-342.0
 51
-324.0
  0
ARC
  5
160
100
AcDbEntity
  8
0
  6
Continuous
 62
   174
100
AcDbCircle
 10
247.109388
 20
180.100905
 30
0.0
 40
1.0
100
AcDbArc
 50
270.0
 51
329.399543
  0
LINE
  5
161
100
AcDbEntity
  8
0
  6
HIDDEN
 62
   174
100
AcDbLine
 10
260.304823
 20
181.100905
 30
0.0
 11
267.965212
 21
181.100905
 31
0.0
  0
ARC
  5
162
100
AcDbEntity
  8
0
  6
HIDDEN
 62
   174
100
AcDbCircle
 10
247.109388
 20
180.100905
 30
0.0
 40
1.0
100
AcDbArc
 50
90.0
 51
180.0
  0
LINE
  5
163
100
AcDbEntity
  8
0
  6
Continuous
 62
   174
100
AcDbLine
 10
182.609388
 20
236.671973
 30
0.0
 11
182.609388
 21
210.671973
 31
0.0
  0
LINE
  5
164
100
AcDbEntity
  8
0
  6
Continuous
 62
   174
100
AcDbLine
 10
148.409388
 20
203.390837
 30
0.0
 11
148.409388
 21
202.322588
 31
0.0
  0
LINE
  5
165
100
AcDbEntity
  8
0
  6
Continuous
 62
   174
100
AcDbLine
 10
148.409388
 20
202.285852
 30
0.0
 11
148.409388
 21
198.750572
 31
0.0
  0
LINE
  5
166
100
AcDbEntity
  8
0
  6
Continuous
 62
   174
100
AcDbLine
 10
154.609388
 20
185.095124
 30
0.0
 11
154.609388
 21
188.630919
 31
0.0
  0
ARC
  5
167
100
AcDbEntity
  8
0
  6
Continuous
 62
   174
100
AcDbCircle
 10
182.609388
 20
236.671973
 30
0.0
 40
3.0
100
AcDbArc
 50
0.0
 51
90.0
  0
ARC
  5
168
100
AcDbEntity
  8
0
  6
HIDDEN
 62
   174
100
AcDbCircle
 10
247.109388
 20
180.100905
 30
0.0
 40
1.0
100
AcDbArc
 50
180.0
 51
270.0
  0
ARC
  5
169
100
AcDbEntity
  8
0
  6
HIDDEN
 62
   174
100
AcDbCircle
 10
247.109388
 20
180.100905
 30
0.0
 40
1.0
100
AcDbArc
 50
90.0
 51
180.0
  0
LINE
  5
16A
100
AcDbEntity
  8
0
  6
HIDDEN
 62
   174
100
AcDbLine
 10
148.409388
 20
188.596038
 30
0.0
 11
154.609388
 21
188.596038
 31
0.0
  0
LINE
  5
16B
100
AcDbEntity
  8
0
  6
HIDDEN
 62
   174
100
AcDbLine
 10
137.802208
 20
240.671523
 30
0.0
 11
137.773357
 21
240.621999
 31
0.0
  0
LINE
  5
16C
100
AcDbEntity
  8
0
  6
HIDDEN
 62
   174
100
AcDbLine
 10
156.635127
 20
210.671973
 30
0.0
 11
159.634995
 21
210.671973
 31
0.0
  0
LINE
  5
16D
100
AcDbEntity
  8
0
  6
HIDDEN
 62
   174
100
AcDbLine
 10
237.135
 20
179.100905
 30
0.0
 11
247.134962
 21
179.100905
 31
0.0
  0
LINE
  5
16E
100
AcDbEntity
  8
0
  6
HIDDEN
 62
   174
100
AcDbLine
 10
245.965176
 20
181.100905
 30
0.0
 11
246.175461
 21
181.100905
 31
0.0
  0
LINE
  5
16F
100
AcDbEntity
  8
0
  6
HIDDEN
 62
   174
100
AcDbLine
 10
140.909388
 20
227.250082
 30
0.0
 11
140.909388
 21
236.093863
 31
0.0
  0
LINE
  5
170
100
AcDbEntity
  8
0
  6
Continuous
 62
   174
100
AcDbLine
 10
140.909388
 20
240.671523
 30
0.0
 11
137.802208
 21
240.671523
 31
0.0
  0
ARC
  5
171
100
AcDbEntity
  8
0
  6
HIDDEN
 62
   174
100
AcDbCircle
 10
269.109388
 20
180.100905
 30
0.0
 40
1.0
100
AcDbArc
 50
329.399543
 51
334.285714
  0
LINE
  5
172
100
AcDbEntity
  8
0
  6
HIDDEN
 62
   174
100
AcDbLine
 10
182.609388
 20
210.671973
 30
0.0
 11
182.609388
 21
236.671973
 31
0.0
  0
LINE
  5
173
100
AcDbEntity
  8
0
  6
HIDDEN
 62
   174
100
AcDbLine
 10
185.609388
 20
236.671973
 30
0.0
 11
185.609388
 21
210.671973
 31
0.0
  0
ARC
  5
174
100
AcDbEntity
  8
0
  6
HIDDEN
 62
   174
100
AcDbCircle
 10
247.109388
 20
180.100905
 30
0.0
 40
1.0
100
AcDbArc
 50
-25.714286
 51
0.0
  0
LINE
  5
175
100
AcDbEntity
  8
0
  6
HIDDEN
 62
   174
100
AcDbLine
 10
245.965176
 20
181.100905
 30
0.0
 11
246.175461
 21
181.100905
 31
0.0
  0
ARC
  5
176
100
AcDbEntity
  8
0
  6
HIDDEN
 62
   174
100
AcDbCircle
 10
269.109388
 20
180.100905
 30
0.0
 40
1.0
100
AcDbArc
 50
-25.714286
 51
0.0
  0
LINE
  5
177
100
AcDbEntity
  8
0
  6
Continuous
 62
   174
100
AcDbLine
 10
156.609388
 20
236.671973
 30
0.0
 11
156.609388
 21
234.455855
 31
0.0
  0
LINE
  5
178
100
AcDbEntity
  8
0
  6
Continuous
 62
   174
100
AcDbLine
 10
182.609388
 20
236.706319
 30
0.0
 11
182.609388
 21
239.706187
 31
0.0
  0
ARC
  5
179
100
AcDbEntity
  8
0
  6
Continuous
 62
   174
100
AcDbCircle
 10
259.109388
 20
180.100905
 30
0.0
 40
1.0
100
AcDbArc
 50
-149.399543
 51
-90.0
  0
ARC
  5
17A
100
AcDbEntity
  8
0
  6
HIDDEN
 62
   174
100
AcDbCircle
 10
269.109388
 20
180.100905
 30
0.0
 40
1.0
100
AcDbArc
 50
-25.714286
 51
0.0
  0
LINE
  5
17B
100
AcDbEntity
  8
0
  6
Continuous
 62
   174
100
AcDbLine
 10
237.135
 20
179.100905
 30
0.0
 11
247.134962
 21
179.100905
 31
0.0
  0
ARC
  5
17C
100
AcDbEntity
  8
0
  6
HIDDEN
 62
   174
100
AcDbCircle
 10
259.109388
 20
180.100905
 30
0.0
 40
1.0
100
AcDbArc
 50
-154.285714
 51
-149.399543
  0
LINE
  5
17D
100
AcDbEntity
  8
0
  6
HIDDEN
 62
   174
100
AcDbLine
 10
259.135036
 20
181.100905
 30
0.0
 11
260.094538
 21
181.100905
 31
0.0
  0
LINE
  5
17E
100
AcDbEntity
  8
0
  6
Continuous
 62
   174
100
AcDbLine
 10
148.409388
 20
185.057254
 30
0.0
 11
154.609388
 21
185.057254
 31
0.0
  0
ARC
  5
17F
100
AcDbEntity
  8
0
  6
HIDDEN
 62
   174
100
AcDbCircle
 10
259.109388
 20
180.100905
 30
0.0
 40
1.0
100
AcDbArc
 50
-180.0
 51
-154.285714
  0
LINE
  5
180
100
AcDbEntity
  8
0
  6
Continuous
 62
   174
100
AcDbLine
 10
154.609388
 20
198.787694
 30
0.0
 11
154.609388
 21
202.322588
 31
0.0
  0
LWPOLYLINE
  5
181
100
AcDbEntity
  8
0
  6
Continuous
 62
   174
100
AcDbPolyline
 90
        6
 70
   128
 10
137.802208
 20
236.249633
 10
137.436082
 20
237.001323
 10
137.207984
 20
237.73837
 10
137.13108
 20
238.460618
 10
137.207998
 20
239.182857
 10
137.258899
 20
239.394439
  0
LWPOLYLINE
  5
182
100
AcDbEntity
  8
0
  6
HIDDEN
 62
   174
100
AcDbPolyline
 90
        4
 70
   128
 10
156.609388
 20
228.88809
 10
156.621947
 20
229.784792
 10
156.642352
 20
230.722946
 10
156.651348
 20
231.671973
  0
LINE
  5
183
100
AcDbEntity
  8
0
  6
Continuous
 62
   174
100
AcDbLine
 10
148.409388
 20
203.354109
 30
0.0
 11
154.609388
 21
203.354109
 31
0.0
  0
LINE
  5
184
100
AcDbEntity
  8
0
  6
Continuous
 62
   174
100
AcDbLine
 10
156.109388
 20
182.671973
 30
0.0
 11
186.109388
 21
182.671973
 31
0.0
  0
ARC
  5
185
100
AcDbEntity
  8
0
  6
HIDDEN
 62
   174
100
AcDbCircle
 10
182.609388
 20
236.671973
 30
0.0
 40
3.0
100
AcDbArc
 50
-324.0
 51
-306.0
  0
ARC
  5
186
100
AcDbEntity
  8
0
  6
HIDDEN
 62
   174
100
AcDbCircle
 10
225.109388
 20
180.100905
 30
0.0
 40
1.0
100
AcDbArc
 50
180.0
 51
270.0
  0
ARC
  5
187
100
AcDbEntity
  8
0
  6
HIDDEN
 62
   174
100
AcDbCircle
 10
215.109388
 20
180.100905
 30
0.0
 40
1.0
100
AcDbArc
 50
-90.0
 51
0.0
  0
LINE
  5
188
100
AcDbEntity
  8
0
  6
HIDDEN
 62
   174
100
AcDbLine
 10
246.175461
 20
181.100905
 30
0.0
 11
247.134962
 21
181.100905
 31
0.0
  0
LINE
  5
189
100
AcDbEntity
  8
0
  6
HIDDEN
 62
   174
100
AcDbLine
 10
148.409388
 20
191.17534
 30
0.0
 11
154.609388
 21
191.17534
 31
0.0
  0
LINE
  5
18A
100
AcDbEntity
  8
0
  6
Continuous
 62
   174
100
AcDbLine
 10
159.609388
 20
236.671973
 30
0.0
 11
159.609388
 21
210.671973
 31
0.0
  0
LINE
  5
18B
100
AcDbEntity
  8
0
  6
HIDDEN
 62
   174
100
AcDbLine
 10
185.634956
 20
236.671973
 30
0.0
 11
182.635088
 21
236.671973
 31
0.0
  0
ARC
  5
18C
100
AcDbEntity
  8
0
  6
HIDDEN
 62
   174
100
AcDbCircle
 10
225.109388
 20
180.100905
 30
0.0
 40
1.0
100
AcDbArc
 50
329.399543
 51
334.285714
  0
ARC
  5
18D
100
AcDbEntity
  8
0
  6
HIDDEN
 62
   174
100
AcDbCircle
 10
225.109388
 20
180.100905
 30
0.0
 40
1.0
100
AcDbArc
 50
90.0
 51
180.0
  0
ARC
  5
18E
100
AcDbEntity
  8
0
  6
HIDDEN
 62
   174
100
AcDbCircle
 10
225.109388
 20
180.100905
 30
0.0
 40
1.0
100
AcDbArc
 50
180.0
 51
270.0
  0
ARC
  5
18F
100
AcDbEntity
  8
0
  6
HIDDEN
 62
   174
100
AcDbCircle
 10
247.109388
 20
180.100905
 30
0.0
 40
1.0
100
AcDbArc
 50
329.399543
 51
334.285714
  0
LINE
  5
190
100
AcDbEntity
  8
0
  6
HIDDEN
 62
   174
100
AcDbLine
 10
238.304787
 20
181.100905
 30
0.0
 11
245.965176
 21
181.100905
 31
0.0
  0
ARC
  5
191
100
AcDbEntity
  8
0
  6
HIDDEN
 62
   174
100
AcDbCircle
 10
237.109388
 20
180.100905
 30
0.0
 40
1.0
100
AcDbArc
 50
-180.0
 51
-154.285714
  0
ARC
  5
192
100
AcDbEntity
  8
0
  6
HIDDEN
 62
   174
100
AcDbCircle
 10
215.109388
 20
180.100905
 30
0.0
 40
1.0
100
AcDbArc
 50
-90.0
 51
0.0
  0
ARC
  5
193
100
AcDbEntity
  8
0
  6
Continuous
 62
   174
100
AcDbCircle
 10
237.109388
 20
180.100905
 30
0.0
 40
1.0
100
AcDbArc
 50
-149.399543
 51
-90.0
  0
ARC
  5
194
100
AcDbEntity
  8
0
  6
Continuous
 62
   174
100
AcDbCircle
 10
269.109388
 20
180.100905
 30
0.0
 40
1.0
100
AcDbArc
 50
270.0
 51
329.399543
  0
LINE
  5
195
100
AcDbEntity
  8
0
  6
HIDDEN
 62
   174
100
AcDbLine
 10
260.094538
 20
181.100905
 30
0.0
 11
260.304823
 21
181.100905
 31
0.0
  0
ARC
  5
196
100
AcDbEntity
  8
0
  6
HIDDEN
 62
   174
100
AcDbCircle
 10
269.109388
 20
180.100905
 30
0.0
 40
1.0
100
AcDbArc
 50
0.0
 51
90.0
  0
LWPOLYLINE
  5
197
100
AcDbEntity
  8
0
  6
HIDDEN
 62
   174
100
AcDbPolyline
 90
        4
 70
   128
 10
137.773447
 20
240.622153
 10
137.474308
 20
240.045116
 10
137.241553
 20
239.433703
 10
137.109388
 20
238.828499
  0
LINE
  5
198
100
AcDbEntity
  8
0
  6
Continuous
 62
   174
100
AcDbLine
 10
140.909388
 20
222.672422
 30
0.0
 11
137.802208
 21
222.672422
 31
0.0
  0
LINE
  5
199
100
AcDbEntity
  8
0
  6
HIDDEN
 62
   174
100
AcDbLine
 10
216.094465
 20
181.100905
 30
0.0
 11
216.30475
 21
181.100905
 31
0.0
  0
LINE
  5
19A
100
AcDbEntity
  8
0
  6
HIDDEN
 62
   174
100
AcDbLine
 10
216.30475
 20
181.100905
 30
0.0
 11
223.965139
 21
181.100905
 31
0.0
  0
ARC
  5
19B
100
AcDbEntity
  8
0
  6
HIDDEN
 62
   174
100
AcDbCircle
 10
259.109388
 20
180.100905
 30
0.0
 40
1.0
100
AcDbArc
 50
-154.285714
 51
-149.399543
  0
ARC
  5
19C
100
AcDbEntity
  8
0
  6
HIDDEN
 62
   174
100
AcDbCircle
 10
182.609388
 20
236.671973
 30
0.0
 40
3.0
100
AcDbArc
 50
-306.0
 51
-288.0
  0
LINE
  5
19D
100
AcDbEntity
  8
0
  6
Continuous
 62
   174
100
AcDbLine
 10
137.802208
 20
236.249633
 30
0.0
 11
140.909388
 21
236.249633
 31
0.0
  0
LINE
  5
19E
100
AcDbEntity
  8
0
  6
HIDDEN
 62
   174
100
AcDbLine
 10
140.909388
 20
227.250082
 30
0.0
 11
137.802208
 21
227.250082
 31
0.0
  0
ARC
  5
19F
100
AcDbEntity
  8
0
  6
HIDDEN
 62
   174
100
AcDbCircle
 10
269.109388
 20
180.100905
 30
0.0
 40
1.0
100
AcDbArc
 50
180.0
 51
270.0
  0
LINE
  5
1A0
100
AcDbEntity
  8
0
  6
Continuous
 62
   174
100
AcDbLine
 10
156.609388
 20
228.88809
 30
0.0
 11
156.609388
 21
210.671973
 31
0.0
  0
LINE
  5
1A1
100
AcDbEntity
  8
0
  6
HIDDEN
 62
   174
100
AcDbLine
 10
186.109388
 20
210.671973
 30
0.0
 11
186.109388
 21
182.671973
 31
0.0
  0
LINE
  5
1A2
100
AcDbEntity
  8
0
  6
HIDDEN
 62
   174
100
AcDbLine
 10
237.135
 20
181.100905
 30
0.0
 11
238.094501
 21
181.100905
 31
0.0
  0
LINE
  5
1A3
100
AcDbEntity
  8
0
  6
Continuous
 62
   174
100
AcDbLine
 10
148.409388
 20
202.285852
 30
0.0
 11
154.609388
 21
202.285852
 31
0.0
  0
ARC
  5
1A4
100
AcDbEntity
  8
0
  6
HIDDEN
 62
   174
100
AcDbCircle
 10
225.109388
 20
180.100905
 30
0.0
 40
1.0
100
AcDbArc
 50
334.285714
 51
360.0
  0
LINE
  5
1A5
100
AcDbEntity
  8
0
  6
HIDDEN
 62
   174
100
AcDbLine
 10
238.094501
 20
181.100905
 30
0.0
 11
238.304787
 21
181.100905
 31
0.0
  0
ARC
  5
1A6
100
AcDbEntity
  8
0
  6
HIDDEN
 62
   174
100
AcDbCircle
 10
237.109388
 20
180.100905
 30
0.0
 40
1.0
100
AcDbArc
 50
-154.285714
 51
-149.399543
  0
LINE
  5
1A7
100
AcDbEntity
  8
0
  6
Continuous
 62
   174
100
AcDbLine
 10
156.109388
 20
182.671973
 30
0.0
 11
156.109388
 21
210.671973
 31
0.0
  0
LINE
  5
1A8
100
AcDbEntity
  8
0
  6
Continuous
 62
   174
100
AcDbLine
 10
137.109388
 20
239.506116
 30
0.0
 11
137.109388
 21
232.598248
 31
0.0
  0
ARC
  5
1A9
100
AcDbEntity
  8
0
  6
HIDDEN
 62
   174
100
AcDbCircle
 10
225.109388
 20
180.100905
 30
0.0
 40
1.0
100
AcDbArc
 50
329.399543
 51
334.285714
  0
ARC
  5
1AA
100
AcDbEntity
  8
0
  6
HIDDEN
 62
   174
100
AcDbCircle
 10
215.109388
 20
180.100905
 30
0.0
 40
1.0
100
AcDbArc
 50
-154.285714
 51
-149.399543
  0
ARC
  5
1AB
100
AcDbEntity
  8
0
  6
Continuous
 62
   174
100
AcDbCircle
 10
247.109388
 20
180.100905
 30
0.0
 40
1.0
100
AcDbArc
 50
270.0
 51
329.399543
  0
LINE
  5
1AC
100
AcDbEntity
  8
0
  6
Continuous
 62
   174
100
AcDbLine
 10
259.135036
 20
179.100905
 30
0.0
 11
269.134998
 21
179.100905
 31
0.0
  0
ARC
  5
1AD
100
AcDbEntity
  8
0
  6
HIDDEN
 62
   174
100
AcDbCircle
 10
259.109388
 20
180.100905
 30
0.0
 40
1.0
100
AcDbArc
 50
0.0
 51
90.0
  0
LINE
  5
1AE
100
AcDbEntity
  8
0
  6
Continuous
 62
   174
100
AcDbLine
 10
159.634995
 20
236.671973
 30
0.0
 11
156.635127
 21
236.671973
 31
0.0
  0
LINE
  5
1AF
100
AcDbEntity
  8
0
  6
HIDDEN
 62
   174
100
AcDbLine
 10
156.609388
 20
234.455855
 30
0.0
 11
156.609388
 21
236.671973
 31
0.0
  0
LINE
  5
1B0
100
AcDbEntity
  8
0
  6
Continuous
 62
   174
100
AcDbLine
 10
154.609388
 20
191.209617
 30
0.0
 11
154.609388
 21
195.205336
 31
0.0
  0
ARC
  5
1B1
100
AcDbEntity
  8
0
  6
Continuous
 62
   174
100
AcDbCircle
 10
225.109388
 20
180.100905
 30
0.0
 40
1.0
100
AcDbArc
 50
270.0
 51
329.399543
  0
ARC
  5
1B2
100
AcDbEntity
  8
0
  6
HIDDEN
 62
   174
100
AcDbCircle
 10
215.109388
 20
180.100905
 30
0.0
 40
1.0
100
AcDbArc
 50
-270.0
 51
-180.0
  0
LINE
  5
1B3
100
AcDbEntity
  8
0
  6
HIDDEN
 62
   174
100
AcDbLine
 10
148.409388
 20
185.059021
 30
0.0
 11
154.609388
 21
185.059021
 31
0.0
  0
LINE
  5
1B4
100
AcDbEntity
  8
0
  6
HIDDEN
 62
   174
100
AcDbLine
 10
159.609388
 20
236.706319
 30
0.0
 11
159.609388
 21
239.706187
 31
0.0
  0
ARC
  5
1B5
100
AcDbEntity
  8
0
  6
HIDDEN
 62
   174
100
AcDbCircle
 10
247.109388
 20
180.100905
 30
0.0
 40
1.0
100
AcDbArc
 50
180.0
 51
270.0
  0
LINE
  5
1B6
100
AcDbEntity
  8
0
  6
HIDDEN
 62
   174
100
AcDbLine
 10
148.409388
 20
196.175339
 30
0.0
 11
154.609388
 21
196.175339
 31
0.0
  0
LINE
  5
1B7
100
AcDbEntity
  8
0
  6
Continuous
 62
   174
100
AcDbLine
 10
148.409388
 20
188.593042
 30
0.0
 11
148.409388
 21
185.057254
 31
0.0
  0
ARC
  5
1B8
100
AcDbEntity
  8
0
  6
HIDDEN
 62
   174
100
AcDbCircle
 10
182.609388
 20
236.671973
 30
0.0
 40
3.0
100
AcDbArc
 50
-288.0
 51
-270.0
  0
LINE
  5
1B9
100
AcDbEntity
  8
0
  6
HIDDEN
 62
   174
100
AcDbLine
 10
268.175497
 20
181.100905
 30
0.0
 11
269.134998
 21
181.100905
 31
0.0
  0
LINE
  5
1BA
100
AcDbEntity
  8
0
  6
Continuous
 62
   174
100
AcDbLine
 10
137.258899
 20
239.394439
 30
0.0
 11
137.775554
 21
240.62414
 31
0.0
  0
LINE
  5
1BB
100
AcDbEntity
  8
0
  6
HIDDEN
 62
   174
100
AcDbLine
 10
148.409388
 20
198.753568
 30
0.0
 11
154.609388
 21
198.753568
 31
0.0
  0
ARC
  5
1BC
100
AcDbEntity
  8
0
  6
HIDDEN
 62
   174
100
AcDbCircle
 10
159.609388
 20
236.671973
 30
0.0
 40
3.0
100
AcDbArc
 50
90.0
 51
180.0
  0
ARC
  5
1BD
100
AcDbEntity
  8
0
  6
HIDDEN
 62
   174
100
AcDbCircle
 10
225.109388
 20
180.100905
 30
0.0
 40
1.0
100
AcDbArc
 50
0.0
 51
90.0
  0
LINE
  5
1BE
100
AcDbEntity
  8
0
  6
HIDDEN
 62
   174
100
AcDbLine
 10
267.965212
 20
181.100905
 30
0.0
 11
268.175497
 21
181.100905
 31
0.0
  0
LINE
  5
1BF
100
AcDbEntity
  8
0
  6
Continuous
 62
   174
100
AcDbLine
 10
154.609388
 20
203.390837
 30
0.0
 11
154.609388
 21
203.708668
 31
0.0
  0
LINE
  5
1C0
100
AcDbEntity
  8
0
  6
HIDDEN
 62
   174
100
AcDbLine
 10
237.135
 20
181.100905
 30
0.0
 11
238.094501
 21
181.100905
 31
0.0
  0
ARC
  5
1C1
100
AcDbEntity
  8
0
  6
HIDDEN
 62
   174
100
AcDbCircle
 10
247.109388
 20
180.100905
 30
0.0
 40
1.0
100
AcDbArc
 50
-25.714286
 51
0.0
  0
LINE
  5
1C2
100
AcDbEntity
  8
0
  6
Continuous
 62
   174
100
AcDbLine
 10
148.409388
 20
196.171973
 30
0.0
 11
154.609388
 21
196.171973
 31
0.0
  0
LINE
  5
1C3
100
AcDbEntity
  8
0
  6
HIDDEN
 62
   174
100
AcDbLine
 10
182.609388
 20
210.671973
 30
0.0
 11
159.609388
 21
210.671973
 31
0.0
  0
LINE
  5
1C4
100
AcDbEntity
  8
0
  6
Continuous
 62
   174
100
AcDbLine
 10
140.909388
 20
240.705643
 30
0.0
 11
140.909388
 21
236.283946
 31
0.0
  0
ARC
  5
1C5
100
AcDbEntity
  8
0
  6
HIDDEN
 62
   174
100
AcDbCircle
 10
215.109388
 20
180.100905
 30
0.0
 40
1.0
100
AcDbArc
 50
-180.0
 51
-154.285714
  0
LINE
  5
1C6
100
AcDbEntity
  8
0
  6
HIDDEN
 62
   174
100
AcDbLine
 10
215.134964
 20
181.100905
 30
0.0
 11
216.094465
 21
181.100905
 31
0.0
  0
ARC
  5
1C7
100
AcDbEntity
  8
0
  6
HIDDEN
 62
   174
100
AcDbCircle
 10
237.109388
 20
180.100905
 30
0.0
 40
1.0
100
AcDbArc
 50
0.0
 51
90.0
  0
ARC
  5
1C8
100
AcDbEntity
  8
0
  6
Continuous
 62
   174
100
AcDbCircle
 10
259.109388
 20
180.100905
 30
0.0
 40
1.0
100
AcDbArc
 50
-149.399543
 51
-90.0
  0
LINE
  5
1C9
100
AcDbEntity
  8
0
  6
Continuous
 62
   174
100
AcDbLine
 10
154.609388
 20
195.205336
 30
0.0
 11
154.609388
 21
196.209297
 31
0.0
  0
LINE
  5
1CA
100
AcDbEntity
  8
0
  6
Continuous
 62
   174
100
AcDbLine
 10
215.134964
 20
179.100905
 30
0.0
 11
225.134926
 21
179.100905
 31
0.0
  0
LINE
  5
1CB
100
AcDbEntity
  8
0
  6
HIDDEN
 62
   174
100
AcDbLine
 10
216.30475
 20
181.100905
 30
0.0
 11
223.965139
 21
181.100905
 31
0.0
  0
LINE
  5
1CC
100
AcDbEntity
  8
0
  6
Continuous
 62
   174
100
AcDbLine
 10
148.409388
 20
198.750572
 30
0.0
 11
154.609388
 21
198.750572
 31
0.0
  0
LINE
  5
1CD
100
AcDbEntity
  8
0
  6
Continuous
 62
   174
100
AcDbLine
 10
148.409388
 20
191.171973
 30
0.0
 11
154.609388
 21
191.171973
 31
0.0
  0
LINE
  5
1CE
100
AcDbEntity
  8
0
  6
HIDDEN
 62
   174
100
AcDbLine
 10
238.094501
 20
181.100905
 30
0.0
 11
238.304787
 21
181.100905
 31
0.0
  0
LINE
  5
1CF
100
AcDbEntity
  8
0
  6
HIDDEN
 62
   174
100
AcDbLine
 10
156.609388
 20
236.706319
 30
0.0
 11
156.609388
 21
234.490213
 31
0.0
  0
LINE
  5
1D0
100
AcDbEntity
  8
0
  6
Continuous
 62
   174
100
AcDbLine
 10
148.409388
 20
196.171973
 30
0.0
 11
148.409388
 21
191.171973
 31
0.0
  0
LINE
  5
1D1
100
AcDbEntity
  8
0
  6
HIDDEN
 62
   174
100
AcDbLine
 10
172.926793
 20
239.671973
 30
0.0
 11
173.365656
 21
239.671973
 31
0.0
  0
LINE
  5
1D2
100
AcDbEntity
  8
0
  6
HIDDEN
 62
   174
100
AcDbLine
 10
182.609388
 20
236.671973
 30
0.0
 11
159.609388
 21
236.671973
 31
0.0
  0
LINE
  5
1D3
100
AcDbEntity
  8
0
  6
Continuous
 62
   174
100
AcDbLine
 10
137.77553
 20
222.719848
 30
0.0
 11
137.258728
 21
223.950142
 31
0.0
  0
LINE
  5
1D4
100
AcDbEntity
  8
0
  6
HIDDEN
 62
   174
100
AcDbLine
 10
174.509388
 20
239.671973
 30
0.0
 11
182.609388
 21
239.671973
 31
0.0
  0
LINE
  5
1D5
100
AcDbEntity
  8
0
  6
Continuous
 62
   174
100
AcDbLine
 10
137.774768
 20
240.62273
 30
0.0
 11
137.802208
 21
240.671523
 31
0.0
  0
LINE
  5
1D6
100
AcDbEntity
  8
0
  6
HIDDEN
 62
   174
100
AcDbLine
 10
169.132205
 20
239.671973
 30
0.0
 11
171.109388
 21
239.671973
 31
0.0
  0
LINE
  5
1D7
100
AcDbEntity
  8
0
  6
HIDDEN
 62
   174
100
AcDbLine
 10
224.175425
 20
181.100905
 30
0.0
 11
225.134926
 21
181.100905
 31
0.0
  0
ARC
  5
1D8
100
AcDbEntity
  8
0
  6
HIDDEN
 62
   174
100
AcDbCircle
 10
215.109388
 20
180.100905
 30
0.0
 40
1.0
100
AcDbArc
 50
-180.0
 51
-154.285714
  0
ARC
  5
1D9
100
AcDbEntity
  8
0
  6
HIDDEN
 62
   174
100
AcDbCircle
 10
237.109388
 20
180.100905
 30
0.0
 40
1.0
100
AcDbArc
 50
0.0
 51
90.0
  0
LINE
  5
1DA
100
AcDbEntity
  8
0
  6
HIDDEN
 62
   174
100
AcDbLine
 10
154.609388
 20
185.059021
 30
0.0
 11
154.609388
 21
188.596038
 31
0.0
  0
ARC
  5
1DB
100
AcDbEntity
  8
0
  6
HIDDEN
 62
   174
100
AcDbCircle
 10
237.109388
 20
180.100905
 30
0.0
 40
1.0
100
AcDbArc
 50
-270.0
 51
-180.0
  0
ARC
  5
1DC
100
AcDbEntity
  8
0
  6
HIDDEN
 62
   174
100
AcDbCircle
 10
259.109388
 20
180.100905
 30
0.0
 40
1.0
100
AcDbArc
 50
0.0
 51
90.0
  0
LINE
  5
1DD
100
AcDbEntity
  8
0
  6
HIDDEN
 62
   174
100
AcDbLine
 10
140.909388
 20
240.671523
 30
0.0
 11
140.909388
 21
236.093863
 31
0.0
  0
LINE
  5
1DE
100
AcDbEntity
  8
0
  6
Continuous
 62
   174
100
AcDbLine
 10
140.909388
 20
227.129331
 30
0.0
 11
140.909388
 21
222.707634
 31
0.0
  0
LINE
  5
1DF
100
AcDbEntity
  8
0
  6
HIDDEN
 62
   174
100
AcDbLine
 10
223.965139
 20
181.100905
 30
0.0
 11
224.175425
 21
181.100905
 31
0.0
  0
ARC
  5
1E0
100
AcDbEntity
  8
0
  6
Continuous
 62
   174
100
AcDbCircle
 10
269.109388
 20
180.100905
 30
0.0
 40
1.0
100
AcDbArc
 50
270.0
 51
329.399543
  0
LINE
  5
1E1
100
AcDbEntity
  8
0
  6
HIDDEN
 62
   174
100
AcDbLine
 10
174.109388
 20
239.671973
 30
0.0
 11
174.509388
 21
239.671973
 31
0.0
  0
ARC
  5
1E2
100
AcDbEntity
  8
0
  6
Continuous
 62
   174
100
AcDbCircle
 10
215.109388
 20
180.100905
 30
0.0
 40
1.0
100
AcDbArc
 50
-149.399543
 51
-90.0
  0
LINE
  5
1E3
100
AcDbEntity
  8
0
  6
HIDDEN
 62
   174
100
AcDbLine
 10
216.094465
 20
181.100905
 30
0.0
 11
216.30475
 21
181.100905
 31
0.0
  0
ARC
  5
1E4
100
AcDbEntity
  8
0
  6
HIDDEN
 62
   174
100
AcDbCircle
 10
259.109388
 20
180.100905
 30
0.0
 40
1.0
100
AcDbArc
 50
-270.0
 51
-180.0
  0
LINE
  5
1E5
100
AcDbEntity
  8
0
  6
HIDDEN
 62
   174
100
AcDbLine
 10
259.135036
 20
181.100905
 30
0.0
 11
260.094538
 21
181.100905
 31
0.0
  0
LINE
  5
1E6
100
AcDbEntity
  8
0
  6
HIDDEN
 62
   174
100
AcDbLine
 10
171.109388
 20
239.671973
 30
0.0
 11
172.926793
 21
239.671973
 31
0.0
  0
LWPOLYLINE
  5
1E7
100
AcDbEntity
  8
0
  6
Continuous
 62
   174
100
AcDbPolyline
 90
        6
 70
   128
 10
137.258728
 20
223.950142
 10
137.207984
 20
224.161159
 10
137.13108
 20
224.883407
 10
137.207998
 20
225.605646
 10
137.436099
 20
226.342666
 10
137.802208
 20
227.094313
  0
ARC
  5
1E8
100
AcDbEntity
  8
0
  6
HIDDEN
 62
   174
100
AcDbCircle
 10
215.109388
 20
180.100905
 30
0.0
 40
1.0
100
AcDbArc
 50
0.0
 51
90.0
  0
LINE
  5
1E9
100
AcDbEntity
  8
0
  6
HIDDEN
 62
   174
100
AcDbLine
 10
238.304787
 20
181.100905
 30
0.0
 11
245.965176
 21
181.100905
 31
0.0
  0
LWPOLYLINE
  5
1EA
100
AcDbEntity
  8
0
  6
HIDDEN
 62
   174
100
AcDbPolyline
 90
        6
 70
   128
 10
159.609388
 20
239.671973
 10
158.704072
 20
239.532113
 10
157.895767
 20
239.134391
 10
157.233919
 20
238.504225
 10
156.782093
 20
237.67517
 10
156.609388
 20
236.671973
  0
ARC
  5
1EB
100
AcDbEntity
  8
0
  6
Continuous
 62
   174
100
AcDbCircle
 10
159.609388
 20
236.671973
 30
0.0
 40
3.0
100
AcDbArc
 50
-270.0
 51
-180.0
  0
LINE
  5
1EC
100
AcDbEntity
  8
0
  6
Continuous
 62
   174
100
AcDbLine
 10
159.609388
 20
236.706319
 30
0.0
 11
159.609388
 21
239.706187
 31
0.0
  0
LINE
  5
1ED
100
AcDbEntity
  8
0
  6
HIDDEN
 62
   174
100
AcDbLine
 10
154.609388
 20
198.753568
 30
0.0
 11
154.609388
 21
202.287617
 31
0.0
  0
LINE
  5
1EE
100
AcDbEntity
  8
0
  6
Continuous
 62
   174
100
AcDbLine
 10
148.409388
 20
185.095124
 30
0.0
 11
148.409388
 21
184.027176
 31
0.0
  0
LINE
  5
1EF
100
AcDbEntity
  8
0
  6
HIDDEN
 62
   174
100
AcDbLine
 10
215.134964
 20
181.100905
 30
0.0
 11
216.094465
 21
181.100905
 31
0.0
  0
ARC
  5
1F0
100
AcDbEntity
  8
0
  6
HIDDEN
 62
   174
100
AcDbCircle
 10
259.109388
 20
180.100905
 30
0.0
 40
1.0
100
AcDbArc
 50
-180.0
 51
-154.285714
  0
ARC
  5
1F1
100
AcDbEntity
  8
0
  6
HIDDEN
 62
   174
100
AcDbCircle
 10
269.109388
 20
180.100905
 30
0.0
 40
1.0
100
AcDbArc
 50
90.0
 51
180.0
  0
LINE
  5
1F2
100
AcDbEntity
  8
0
  6
Continuous
 62
   174
100
AcDbLine
 10
148.409388
 20
188.593042
 30
0.0
 11
154.609388
 21
188.593042
 31
0.0
  0
LWPOLYLINE
  5
1F3
100
AcDbEntity
  8
0
  6
HIDDEN
 62
   174
100
AcDbPolyline
 90
        4
 70
   128
 10
156.609388
 20
234.455855
 10
156.621948
 20
233.559119
 10
156.642353
 20
232.620966
 10
156.651348
 20
231.671973
  0
LINE
  5
1F4
100
AcDbEntity
  8
0
  6
HIDDEN
 62
   174
100
AcDbLine
 10
159.634995
 20
236.671973
 30
0.0
 11
156.635127
 21
236.671973
 31
0.0
  0
ENDBLK
  5
1F5
100
AcDbEntity
  8
0
100
AcDbBlockEnd
  0
BLOCK
  5
1F8
100
AcDbEntity
  8
0
100
AcDbBlockBegin
  2
*B3
 70
     0
 10
0.0
 20
0.0
 30
0.0
  3
*B3
  1

  0
LINE
  5
1F9
100
AcDbEntity
  8
0
  6
Continuous
 62
   172
100
AcDbLine
 10
166.282602
 20
184.884969
 30
0.0
 11
142.694003
 21
144.771698
 31
0.0
  0
LINE
  5
1FA
100
AcDbEntity
  8
0
  6
Continuous
 62
   172
100
AcDbLine
 10
142.694003
 20
144.771698
 30
0.0
 11
131.482602
 21
144.771698
 31
0.0
  0
ENDBLK
  5
1FB
100
AcDbEntity
  8
0
100
AcDbBlockEnd
  0
BLOCK
  5
1FE
100
AcDbEntity
  8
0
100
AcDbBlockBegin
  2
*B4
 70
     0
 10
0.0
 20
0.0
 30
0.0
  3
*B4
  1

  0
LINE
  5
1FF
100
AcDbEntity
  8
0
  6
Continuous
 62
   172
100
AcDbLine
 10
140.364462
 20
147.203109
 30
0.0
 11
137.964462
 21
148.084969
 31
0.0
  0
LINE
  5
200
100
AcDbEntity
  8
0
  6
Continuous
 62
   172
100
AcDbLine
 10
140.364462
 20
147.203109
 30
0.0
 11
137.964462
 21
146.484969
 31
0.0
  0
LINE
  5
201
100
AcDbEntity
  8
0
  6
Continuous
 62
   172
100
AcDbLine
 10
138.764462
 20
147.203109
 30
0.0
 11
140.364462
 21
147.203109
 31
0.0
  0
LINE
  5
202
100
AcDbEntity
  8
0
  6
Continuous
 62
   172
100
AcDbLine
 10
140.364462
 20
160.966829
 30
0.0
 11
137.964462
 21
160.084969
 31
0.0
  0
LINE
  5
203
100
AcDbEntity
  8
0
  6
Continuous
 62
   172
100
AcDbLine
 10
140.364462
 20
160.966829
 30
0.0
 11
137.964462
 21
161.684969
 31
0.0
  0
LINE
  5
204
100
AcDbEntity
  8
0
  6
Continuous
 62
   172
100
AcDbLine
 10
138.764462
 20
160.966829
 30
0.0
 11
140.364462
 21
160.966829
 31
0.0
  0
ARC
  5
205
100
AcDbEntity
  8
0
  6
Continuous
 62
   172
100
AcDbCircle
 10
138.764462
 20
154.084969
 30
0.0
 40
6.88186
100
AcDbArc
 50
-270.0
 51
-90.0
  0
ENDBLK
  5
206
100
AcDbEntity
  8
0
100
AcDbBlockEnd
  0
BLOCK
  5
209
100
AcDbEntity
  8
0
100
AcDbBlockBegin
  2
*B5
 70
     0
 10
0.0
 20
0.0
 30
0.0
  3
*B5
  1

  0
ENDBLK
  5
20A
100
AcDbEntity
  8
0
100
AcDbBlockEnd
  0
BLOCK
  5
20C
100
AcDbEntity
  8
0
100
AcDbBlockBegin
  2
*B6
 70
     0
 10
0.0
 20
0.0
 30
0.0
  3
*B6
  1

  0
LINE
  5
20D
100
AcDbEntity
  8
0
  6
Continuous
 62
     0
100
AcDbLine
 10
186.135135
 20
252.033105
 30
0.0
 11
137.135081
 21
252.033105
 31
0.0
  0
SOLID
  5
20E
100
AcDbEntity
  8
0
  6
Continuous
 62
     0
100
AcDbTrace
 10
181.135154
 20
251.033349
 30
0.0
 11
186.135135
 21
252.033105
 31
0.0
 12
181.135154
 22
253.033161
 32
0.0
 13
181.135154
 23
253.033161
 33
0.0
  0
SOLID
  5
20F
100
AcDbEntity
  8
0
  6
Continuous
 62
     0
100
AcDbTrace
 10
142.135062
 20
253.033161
 30
0.0
 11
137.135081
 21
252.033105
 31
0.0
 12
142.135062
 22
251.033349
 32
0.0
 13
142.135062
 23
251.033349
 33
0.0
  0
ENDBLK
  5
210
100
AcDbEntity
  8
0
100
AcDbBlockEnd
  0
BLOCK
  5
213
100
AcDbEntity
  8
0
100
AcDbBlockBegin
  2
*B7
 70
     0
 10
0.0
 20
0.0
 30
0.0
  3
*B7
  1

  0
LINE
  5
214
100
AcDbEntity
  8
0
  6
Continuous
 62
     0
100
AcDbLine
 10
313.025723
 20
219.636569
 30
0.0
 11
313.025723
 21
179.639425
 31
0.0
  0
SOLID
  5
215
100
AcDbEntity
  8
0
  6
Continuous
 62
     0
100
AcDbTrace
 10
314.025478
 20
214.636889
 30
0.0
 11
313.025723
 21
219.636569
 31
0.0
 12
312.025666
 22
214.636889
 32
0.0
 13
312.025666
 23
214.636889
 33
0.0
  0
SOLID
  5
216
100
AcDbEntity
  8
0
  6
Continuous
 62
     0
100
AcDbTrace
 10
312.025666
 20
184.638805
 30
0.0
 11
313.025723
 21
179.639425
 31
0.0
 12
314.025478
 22
184.638805
 32
0.0
 13
314.025478
 23
184.638805
 33
0.0
  0
ENDBLK
  5
217
100
AcDbEntity
  8
0
100
AcDbBlockEnd
  0
BLOCK
  5
21A
100
AcDbEntity
  8
0
100
AcDbBlockBegin
  2
*B8
 70
     0
 10
0.0
 20
0.0
 30
0.0
  3
*B8
  1

  0
LINE
  5
21B
100
AcDbEntity
  8
0
  6
Continuous
 62
     0
100
AcDbLine
 10
313.025723
 20
118.562994
 30
0.0
 11
313.025723
 21
88.565211
 31
0.0
  0
SOLID
  5
21C
100
AcDbEntity
  8
0
  6
Continuous
 62
     0
100
AcDbTrace
 10
314.025478
 20
113.563313
 30
0.0
 11
313.025723
 21
118.562994
 31
0.0
 12
312.025666
 22
113.563313
 32
0.0
 13
312.025666
 23
113.563313
 33
0.0
  0
SOLID
  5
21D
100
AcDbEntity
  8
0
  6
Continuous
 62
     0
100
AcDbTrace
 10
312.025666
 20
93.564892
 30
0.0
 11
313.025723
 21
88.565211
 31
0.0
 12
314.025478
 22
93.564892
 32
0.0
 13
314.025478
 23
93.564892
 33
0.0
  0
ENDBLK
  5
21E
100
AcDbEntity
  8
0
100
AcDbBlockEnd
  0
BLOCK
  5
221
100
AcDbEntity
  8
0
100
AcDbBlockBegin
  2
*B9
 70
     0
 10
0.0
 20
0.0
 30
0.0
  3
*B9
  1

  0
LINE
  5
222
100
AcDbEntity
  8
0
  6
Continuous
 62
     0
100
AcDbLine
 10
299.025536
 20
124.81267
 30
0.0
 11
299.025536
 21
82.315536
 31
0.0
  0
SOLID
  5
223
100
AcDbEntity
  8
0
  6
Continuous
 62
     0
100
AcDbTrace
 10
298.025479
 20
119.812989
 30
0.0
 11
299.025536
 21
114.813309
 31
0.0
 12
300.025592
 22
119.812989
 32
0.0
 13
300.025592
 23
119.812989
 33
0.0
  0
SOLID
  5
224
100
AcDbEntity
  8
0
  6
Continuous
 62
     0
100
AcDbTrace
 10
300.025592
 20
87.315216
 30
0.0
 11
299.025536
 21
92.314897
 31
0.0
 12
298.025479
 22
87.315216
 32
0.0
 13
298.025479
 23
87.315216
 33
0.0
  0
ENDBLK
  5
225
100
AcDbEntity
  8
0
100
AcDbBlockEnd
  0
BLOCK
  5
228
100
AcDbEntity
  8
0
100
AcDbBlockBegin
  2
*B10
 70
     0
 10
0.0
 20
0.0
 30
0.0
  3
*B10
  1

  0
LINE
  5
229
100
AcDbEntity
  8
0
  6
Continuous
 62
     0
100
AcDbLine
 10
210.134983
 20
131.72925
 30
0.0
 11
274.134979
 21
131.72925
 31
0.0
  0
SOLID
  5
22A
100
AcDbEntity
  8
0
  6
Continuous
 62
     0
100
AcDbTrace
 10
215.134964
 20
132.729306
 30
0.0
 11
210.134983
 21
131.72925
 31
0.0
 12
215.134964
 22
130.729194
 32
0.0
 13
215.134964
 23
130.729194
 33
0.0
  0
SOLID
  5
22B
100
AcDbEntity
  8
0
  6
Continuous
 62
     0
100
AcDbTrace
 10
269.134998
 20
130.729194
 30
0.0
 11
274.134979
 21
131.72925
 31
0.0
 12
269.134998
 22
132.729306
 32
0.0
 13
269.134998
 23
132.729306
 33
0.0
  0
ENDBLK
  5
22C
100
AcDbEntity
  8
0
100
AcDbBlockEnd
  0
BLOCK
  5
22F
100
AcDbEntity
  8
0
100
AcDbBlockBegin
  2
*B11
 70
     0
 10
0.0
 20
0.0
 30
0.0
  3
*B11
  1

  0
LINE
  5
230
100
AcDbEntity
  8
0
  6
Continuous
 62
     0
100
AcDbLine
 10
254.135056
 20
162.039757
 30
0.0
 11
292.135091
 21
162.039757
 31
0.0
  0
SOLID
  5
231
100
AcDbEntity
  8
0
  6
Continuous
 62
     0
100
AcDbTrace
 10
259.135036
 20
161.039701
 30
0.0
 11
264.135017
 21
162.039757
 31
0.0
 12
259.135036
 22
163.039513
 32
0.0
 13
259.135036
 23
163.039513
 33
0.0
  0
SOLID
  5
232
100
AcDbEntity
  8
0
  6
Continuous
 62
     0
100
AcDbTrace
 10
287.13511
 20
163.039513
 30
0.0
 11
282.135129
 21
162.039757
 31
0.0
 12
287.13511
 22
161.039701
 32
0.0
 13
287.13511
 23
161.039701
 33
0.0
  0
ENDBLK
  5
233
100
AcDbEntity
  8
0
100
AcDbBlockEnd
  0
BLOCK
  5
236
100
AcDbEntity
  8
0
100
AcDbBlockBegin
  2
*B12
 70
     0
 10
0.0
 20
0.0
 30
0.0
  3
*B12
  1

  0
LINE
  5
237
100
AcDbEntity
  8
0
  6
Continuous
 62
     0
100
AcDbLine
 10
242.134981
 20
162.039757
 30
0.0
 11
264.135017
 21
162.039757
 31
0.0
  0
SOLID
  5
238
100
AcDbEntity
  8
0
  6
Continuous
 62
     0
100
AcDbTrace
 10
247.134962
 20
163.039513
 30
0.0
 11
242.134981
 21
162.039757
 31
0.0
 12
247.134962
 22
161.039701
 32
0.0
 13
247.134962
 23
161.039701
 33
0.0
  0
SOLID
  5
239
100
AcDbEntity
  8
0
  6
Continuous
 62
     0
100
AcDbTrace
 10
259.135036
 20
161.039701
 30
0.0
 11
264.135017
 21
162.039757
 31
0.0
 12
259.135036
 22
163.039513
 32
0.0
 13
259.135036
 23
163.039513
 33
0.0
  0
ENDBLK
  5
23A
100
AcDbEntity
  8
0
100
AcDbBlockEnd
  0
BLOCK
  5
23D
100
AcDbEntity
  8
0
100
AcDbBlockBegin
  2
*B13
 70
     0
 10
0.0
 20
0.0
 30
0.0
  3
*B13
  1

  0
LINE
  5
23E
100
AcDbEntity
  8
0
  6
Continuous
 62
     0
100
AcDbLine
 10
220.134945
 20
162.039757
 30
0.0
 11
242.134981
 21
162.039757
 31
0.0
  0
SOLID
  5
23F
100
AcDbEntity
  8
0
  6
Continuous
 62
     0
100
AcDbTrace
 10
225.134926
 20
163.039513
 30
0.0
 11
220.134945
 21
162.039757
 31
0.0
 12
225.134926
 22
161.039701
 32
0.0
 13
225.134926
 23
161.039701
 33
0.0
  0
SOLID
  5
240
100
AcDbEntity
  8
0
  6
Continuous
 62
     0
100
AcDbTrace
 10
237.135
 20
161.039701
 30
0.0
 11
242.134981
 21
162.039757
 31
0.0
 12
237.135
 22
163.039513
 32
0.0
 13
237.135
 23
163.039513
 33
0.0
  0
ENDBLK
  5
241
100
AcDbEntity
  8
0
100
AcDbBlockEnd
  0
BLOCK
  5
244
100
AcDbEntity
  8
0
100
AcDbBlockBegin
  2
*B14
 70
     0
 10
0.0
 20
0.0
 30
0.0
  3
*B14
  1

  0
LINE
  5
245
100
AcDbEntity
  8
0
  6
Continuous
 62
     0
100
AcDbLine
 10
192.135172
 20
162.039757
 30
0.0
 11
230.134907
 21
162.039757
 31
0.0
  0
SOLID
  5
246
100
AcDbEntity
  8
0
  6
Continuous
 62
     0
100
AcDbTrace
 10
197.135153
 20
161.039701
 30
0.0
 11
202.135134
 21
162.039757
 31
0.0
 12
197.135153
 22
163.039513
 32
0.0
 13
197.135153
 23
163.039513
 33
0.0
  0
SOLID
  5
247
100
AcDbEntity
  8
0
  6
Continuous
 62
     0
100
AcDbTrace
 10
225.134926
 20
163.039513
 30
0.0
 11
220.134945
 21
162.039757
 31
0.0
 12
225.134926
 22
161.039701
 32
0.0
 13
225.134926
 23
161.039701
 33
0.0
  0
ENDBLK
  5
248
100
AcDbEntity
  8
0
100
AcDbBlockEnd
  0
BLOCK
  5
24B
100
AcDbEntity
  8
0
100
AcDbBlockBegin
  2
*B15
 70
     0
 10
0.0
 20
0.0
 30
0.0
  3
*B15
  1

  0
LINE
  5
24C
100
AcDbEntity
  8
0
  6
Continuous
 62
     0
100
AcDbLine
 10
186.135135
 20
146.040959
 30
0.0
 11
282.135129
 21
146.040959
 31
0.0
  0
SOLID
  5
24D
100
AcDbEntity
  8
0
  6
Continuous
 62
     0
100
AcDbTrace
 10
191.135116
 20
147.040715
 30
0.0
 11
186.135135
 21
146.040959
 31
0.0
 12
191.135116
 22
145.040903
 32
0.0
 13
191.135116
 23
145.040903
 33
0.0
  0
SOLID
  5
24E
100
AcDbEntity
  8
0
  6
Continuous
 62
     0
100
AcDbTrace
 10
277.134848
 20
145.040903
 30
0.0
 11
282.135129
 21
146.040959
 31
0.0
 12
277.134848
 22
147.040715
 32
0.0
 13
277.134848
 23
147.040715
 33
0.0
  0
ENDBLK
  5
24F
100
AcDbEntity
  8
0
100
AcDbBlockEnd
  0
BLOCK
  5
252
100
AcDbEntity
  8
0
100
AcDbBlockBegin
  2
*B16
 70
     0
 10
0.0
 20
0.0
 30
0.0
  3
*B16
  1

  0
LINE
  5
253
100
AcDbEntity
  8
0
  6
Continuous
 62
     0
100
AcDbLine
 10
253.134999
 20
252.033105
 30
0.0
 11
282.135129
 21
252.033105
 31
0.0
  0
SOLID
  5
254
100
AcDbEntity
  8
0
  6
Continuous
 62
     0
100
AcDbTrace
 10
258.13498
 20
253.033161
 30
0.0
 11
253.134999
 21
252.033105
 31
0.0
 12
258.13498
 22
251.033349
 32
0.0
 13
258.13498
 23
251.033349
 33
0.0
  0
SOLID
  5
255
100
AcDbEntity
  8
0
  6
Continuous
 62
     0
100
AcDbTrace
 10
277.134848
 20
251.033349
 30
0.0
 11
282.135129
 21
252.033105
 31
0.0
 12
277.134848
 22
253.033161
 32
0.0
 13
277.134848
 23
253.033161
 33
0.0
  0
ENDBLK
  5
256
100
AcDbEntity
  8
0
100
AcDbBlockEnd
  0
BLOCK
  5
259
100
AcDbEntity
  8
0
100
AcDbBlockBegin
  2
*B17
 70
     0
 10
0.0
 20
0.0
 30
0.0
  3
*B17
  1

  0
LINE
  5
25A
100
AcDbEntity
  8
0
  6
Continuous
 62
     0
100
AcDbLine
 10
253.134999
 20
252.033105
 30
0.0
 11
231.134963
 21
252.033105
 31
0.0
  0
SOLID
  5
25B
100
AcDbEntity
  8
0
  6
Continuous
 62
     0
100
AcDbTrace
 10
248.135018
 20
251.033349
 30
0.0
 11
253.134999
 21
252.033105
 31
0.0
 12
248.135018
 22
253.033161
 32
0.0
 13
248.135018
 23
253.033161
 33
0.0
  0
SOLID
  5
25C
100
AcDbEntity
  8
0
  6
Continuous
 62
     0
100
AcDbTrace
 10
236.134944
 20
253.033161
 30
0.0
 11
231.134963
 21
252.033105
 31
0.0
 12
236.134944
 22
251.033349
 32
0.0
 13
236.134944
 23
251.033349
 33
0.0
  0
ENDBLK
  5
25D
100
AcDbEntity
  8
0
100
AcDbBlockEnd
  0
BLOCK
  5
260
100
AcDbEntity
  8
0
100
AcDbBlockBegin
  2
*B18
 70
     0
 10
0.0
 20
0.0
 30
0.0
  3
*B18
  1

  0
LINE
  5
261
100
AcDbEntity
  8
0
  6
Continuous
 62
     0
100
AcDbLine
 10
123.025546
 20
240.705643
 30
0.0
 11
123.025546
 21
179.639425
 31
0.0
  0
SOLID
  5
262
100
AcDbEntity
  8
0
  6
Continuous
 62
     0
100
AcDbTrace
 10
124.025602
 20
235.705962
 30
0.0
 11
123.025546
 21
240.705643
 31
0.0
 12
122.02579
 22
235.705962
 32
0.0
 13
122.02579
 23
235.705962
 33
0.0
  0
SOLID
  5
263
100
AcDbEntity
  8
0
  6
Continuous
 62
     0
100
AcDbTrace
 10
122.02579
 20
184.638805
 30
0.0
 11
123.025546
 21
179.639425
 31
0.0
 12
124.025602
 22
184.638805
 32
0.0
 13
124.025602
 23
184.638805
 33
0.0
  0
ENDBLK
  5
264
100
AcDbEntity
  8
0
100
AcDbBlockEnd
  0
BLOCK
  5
267
100
AcDbEntity
  8
0
100
AcDbBlockBegin
  2
*B19
 70
     0
 10
0.0
 20
0.0
 30
0.0
  3
*B19
  1

  0
LINE
  5
268
100
AcDbEntity
  8
0
  6
Continuous
 62
     0
100
AcDbLine
 10
218.596559
 20
234.034495
 30
0.0
 11
256.134868
 21
234.034495
 31
0.0
  0
SOLID
  5
269
100
AcDbEntity
  8
0
  6
Continuous
 62
     0
100
AcDbTrace
 10
233.135076
 20
233.034439
 30
0.0
 11
238.135056
 21
234.034495
 31
0.0
 12
233.135076
 22
235.034552
 32
0.0
 13
233.135076
 23
235.034552
 33
0.0
  0
SOLID
  5
26A
100
AcDbEntity
  8
0
  6
Continuous
 62
     0
100
AcDbTrace
 10
251.134887
 20
235.034552
 30
0.0
 11
246.134906
 21
234.034495
 31
0.0
 12
251.134887
 22
233.034439
 32
0.0
 13
251.134887
 23
233.034439
 33
0.0
  0
ENDBLK
  5
26B
100
AcDbEntity
  8
0
100
AcDbBlockEnd
  0
BLOCK
  5
26E
100
AcDbEntity
  8
0
100
AcDbBlockBegin
  2
*B20
 70
     0
 10
0.0
 20
0.0
 30
0.0
  3
*B20
  1

  0
LINE
  5
26F
100
AcDbEntity
  8
0
  6
Continuous
 62
     0
100
AcDbLine
 10
297.954884
 20
74.733253
 30
0.0
 11
261.935134
 21
74.733253
 31
0.0
  0
SOLID
  5
270
100
AcDbEntity
  8
0
  6
Continuous
 62
     0
100
AcDbTrace
 10
281.335144
 20
75.733309
 30
0.0
 11
276.334863
 21
74.733253
 31
0.0
 12
281.335144
 22
73.733497
 32
0.0
 13
281.335144
 23
73.733497
 33
0.0
  0
SOLID
  5
271
100
AcDbEntity
  8
0
  6
Continuous
 62
     0
100
AcDbTrace
 10
266.935115
 20
73.733497
 30
0.0
 11
271.935096
 21
74.733253
 31
0.0
 12
266.935115
 22
75.733309
 32
0.0
 13
266.935115
 23
75.733309
 33
0.0
  0
ENDBLK
  5
272
100
AcDbEntity
  8
0
100
AcDbBlockEnd
  0
BLOCK
  5
275
100
AcDbEntity
  8
0
100
AcDbBlockBegin
  2
*B21
 70
     0
 10
0.0
 20
0.0
 30
0.0
  3
*B21
  1

  0
LINE
  5
276
100
AcDbEntity
  8
0
  6
Continuous
 62
     0
100
AcDbLine
 10
198.129802
 20
74.733253
 30
0.0
 11
247.009993
 21
74.733253
 31
0.0
  0
SOLID
  5
277
100
AcDbEntity
  8
0
  6
Continuous
 62
     0
100
AcDbTrace
 10
220.259914
 20
73.733497
 30
0.0
 11
225.259895
 21
74.733253
 31
0.0
 12
220.259914
 22
75.733309
 32
0.0
 13
220.259914
 23
75.733309
 33
0.0
  0
SOLID
  5
278
100
AcDbEntity
  8
0
  6
Continuous
 62
     0
100
AcDbTrace
 10
242.010012
 20
75.733309
 30
0.0
 11
237.010031
 21
74.733253
 31
0.0
 12
242.010012
 22
73.733497
 32
0.0
 13
242.010012
 23
73.733497
 33
0.0
  0
ENDBLK
  5
279
100
AcDbEntity
  8
0
100
AcDbBlockEnd
  0
BLOCK
  5
27C
100
AcDbEntity
  8
0
100
AcDbBlockBegin
  2
*B22
 70
     0
 10
0.0
 20
0.0
 30
0.0
  3
*B22
  1

  0
LINE
  5
27D
100
AcDbEntity
  8
0
  6
Continuous
 62
     0
100
AcDbLine
 10
264.135017
 20
131.72925
 30
0.0
 11
292.135091
 21
131.72925
 31
0.0
  0
SOLID
  5
27E
100
AcDbEntity
  8
0
  6
Continuous
 62
     0
100
AcDbTrace
 10
269.134998
 20
130.729194
 30
0.0
 11
274.134979
 21
131.72925
 31
0.0
 12
269.134998
 22
132.729306
 32
0.0
 13
269.134998
 23
132.729306
 33
0.0
  0
SOLID
  5
27F
100
AcDbEntity
  8
0
  6
Continuous
 62
     0
100
AcDbTrace
 10
287.13511
 20
132.729306
 30
0.0
 11
282.135129
 21
131.72925
 31
0.0
 12
287.13511
 22
130.729194
 32
0.0
 13
287.13511
 23
130.729194
 33
0.0
  0
ENDBLK
  5
280
100
AcDbEntity
  8
0
100
AcDbBlockEnd
  0
BLOCK
  5
283
100
AcDbEntity
  8
0
100
AcDbBlockBegin
  2
*B23
 70
     0
 10
0.0
 20
0.0
 30
0.0
  3
*B23
  1

  0
LINE
  5
284
100
AcDbEntity
  8
0
  6
Continuous
 62
     8
100
AcDbLine
 10
253.134999
 20
250.033293
 30
0.0
 11
253.134999
 21
254.032917
 31
0.0
  0
LINE
  5
285
100
AcDbEntity
  8
0
  6
Continuous
 62
     8
100
AcDbLine
 10
253.134999
 20
203.637471
 30
0.0
 11
253.134999
 21
211.486816
 31
0.0
  0
LINE
  5
286
100
AcDbEntity
  8
0
  6
Continuous
 62
     8
100
AcDbLine
 10
253.134999
 20
213.486629
 30
0.0
 11
253.134999
 21
214.486685
 31
0.0
  0
LINE
  5
287
100
AcDbEntity
  8
0
  6
Continuous
 62
     8
100
AcDbLine
 10
253.134999
 20
216.486497
 30
0.0
 11
253.134999
 21
224.335542
 31
0.0
  0
LINE
  5
288
100
AcDbEntity
  8
0
  6
Continuous
 62
     8
100
AcDbLine
 10
253.134999
 20
226.335354
 30
0.0
 11
253.134999
 21
227.33541
 31
0.0
  0
LINE
  5
289
100
AcDbEntity
  8
0
  6
Continuous
 62
     8
100
AcDbLine
 10
253.134999
 20
229.335222
 30
0.0
 11
253.134999
 21
237.184567
 31
0.0
  0
LINE
  5
28A
100
AcDbEntity
  8
0
  6
Continuous
 62
     8
100
AcDbLine
 10
253.134999
 20
239.18438
 30
0.0
 11
253.134999
 21
240.184135
 31
0.0
  0
LINE
  5
28B
100
AcDbEntity
  8
0
  6
Continuous
 62
     8
100
AcDbLine
 10
253.134999
 20
242.184248
 30
0.0
 11
253.134999
 21
250.033293
 31
0.0
  0
ENDBLK
  5
28C
100
AcDbEntity
  8
0
100
AcDbBlockEnd
  0
BLOCK
  5
28F
100
AcDbEntity
  8
0
100
AcDbBlockBegin
  2
*B24
 70
     0
 10
0.0
 20
0.0
 30
0.0
  3
*B24
  1

  0
LINE
  5
290
100
AcDbEntity
  8
0
  6
Continuous
 62
     8
100
AcDbLine
 10
253.134999
 20
93.689861
 30
0.0
 11
253.134999
 21
100.564384
 31
0.0
  0
LINE
  5
291
100
AcDbEntity
  8
0
  6
Continuous
 62
     8
100
AcDbLine
 10
253.134999
 20
106.563821
 30
0.0
 11
253.134999
 21
113.438344
 31
0.0
  0
ENDBLK
  5
292
100
AcDbEntity
  8
0
100
AcDbBlockEnd
  0
BLOCK
  5
295
100
AcDbEntity
  8
0
100
AcDbBlockBegin
  2
*B25
 70
     0
 10
0.0
 20
0.0
 30
0.0
  3
*B25
  1

  0
LINE
  5
296
100
AcDbEntity
  8
0
  6
Continuous
 62
     8
100
AcDbLine
 10
225.259895
 20
72.73344
 30
0.0
 11
225.259895
 21
101.56414
 31
0.0
  0
ENDBLK
  5
297
100
AcDbEntity
  8
0
100
AcDbBlockEnd
  0
BLOCK
  5
29A
100
AcDbEntity
  8
0
100
AcDbBlockBegin
  2
*B26
 70
     0
 10
0.0
 20
0.0
 30
0.0
  3
*B26
  1

  0
LINE
  5
29B
100
AcDbEntity
  8
0
  6
Continuous
 62
     8
100
AcDbLine
 10
202.135134
 20
160.039945
 30
0.0
 11
202.135134
 21
177.639313
 31
0.0
  0
ENDBLK
  5
29C
100
AcDbEntity
  8
0
100
AcDbBlockEnd
  0
BLOCK
  5
29F
100
AcDbEntity
  8
0
100
AcDbBlockBegin
  2
*B27
 70
     0
 10
0.0
 20
0.0
 30
0.0
  3
*B27
  1

  0
LINE
  5
2A0
100
AcDbEntity
  8
0
  6
Continuous
 62
     8
100
AcDbLine
 10
242.134981
 20
160.039945
 30
0.0
 11
242.134981
 21
164.039569
 31
0.0
  0
LINE
  5
2A1
100
AcDbEntity
  8
0
  6
Continuous
 62
     8
100
AcDbLine
 10
242.134981
 20
164.039569
 30
0.0
 11
242.134981
 21
174.73918
 31
0.0
  0
LINE
  5
2A2
100
AcDbEntity
  8
0
  6
Continuous
 62
     8
100
AcDbLine
 10
242.134981
 20
176.738992
 30
0.0
 11
242.134981
 21
177.739048
 31
0.0
  0
LINE
  5
2A3
100
AcDbEntity
  8
0
  6
Continuous
 62
     8
100
AcDbLine
 10
242.134981
 20
179.73886
 30
0.0
 11
242.134981
 21
190.438471
 31
0.0
  0
ENDBLK
  5
2A4
100
AcDbEntity
  8
0
100
AcDbBlockEnd
  0
BLOCK
  5
2A7
100
AcDbEntity
  8
0
100
AcDbBlockBegin
  2
*B28
 70
     0
 10
0.0
 20
0.0
 30
0.0
  3
*B28
  1

  0
LINE
  5
2A8
100
AcDbEntity
  8
0
  6
Continuous
 62
     8
100
AcDbLine
 10
171.134892
 20
96.164618
 30
0.0
 11
171.134892
 21
100.564384
 31
0.0
  0
LINE
  5
2A9
100
AcDbEntity
  8
0
  6
Continuous
 62
     8
100
AcDbLine
 10
171.134892
 20
106.563821
 30
0.0
 11
171.134892
 21
110.963588
 31
0.0
  0
ENDBLK
  5
2AA
100
AcDbEntity
  8
0
100
AcDbBlockEnd
  0
BLOCK
  5
2AD
100
AcDbEntity
  8
0
100
AcDbBlockBegin
  2
*B29
 70
     0
 10
0.0
 20
0.0
 30
0.0
  3
*B29
  1

  0
LINE
  5
2AE
100
AcDbEntity
  8
0
  6
Continuous
 62
     8
100
AcDbLine
 10
282.135129
 20
144.040847
 30
0.0
 11
282.135129
 21
177.639313
 31
0.0
  0
LINE
  5
2AF
100
AcDbEntity
  8
0
  6
Continuous
 62
     8
100
AcDbLine
 10
282.135129
 20
221.636381
 30
0.0
 11
282.135129
 21
254.032917
 31
0.0
  0
ENDBLK
  5
2B0
100
AcDbEntity
  8
0
100
AcDbBlockEnd
  0
BLOCK
  5
2B3
100
AcDbEntity
  8
0
100
AcDbBlockBegin
  2
*B30
 70
     0
 10
0.0
 20
0.0
 30
0.0
  3
*B30
  1

  0
LINE
  5
2B4
100
AcDbEntity
  8
0
  6
Continuous
 62
     8
100
AcDbLine
 10
282.135129
 20
120.562806
 30
0.0
 11
282.135129
 21
133.729062
 31
0.0
  0
ENDBLK
  5
2B5
100
AcDbEntity
  8
0
100
AcDbBlockEnd
  0
BLOCK
  5
2B8
100
AcDbEntity
  8
0
100
AcDbBlockBegin
  2
*B31
 70
     0
 10
0.0
 20
0.0
 30
0.0
  3
*B31
  1

  0
LINE
  5
2B9
100
AcDbEntity
  8
0
  6
Continuous
 62
     8
100
AcDbLine
 10
133.135157
 20
103.586483
 30
0.0
 11
141.301732
 21
103.586483
 31
0.0
  0
LINE
  5
2BA
100
AcDbEntity
  8
0
  6
Continuous
 62
     8
100
AcDbLine
 10
143.301845
 20
103.586483
 30
0.0
 11
144.3016
 21
103.586483
 31
0.0
  0
LINE
  5
2BB
100
AcDbEntity
  8
0
  6
Continuous
 62
     8
100
AcDbLine
 10
146.301713
 20
103.586483
 30
0.0
 11
154.468288
 21
103.586483
 31
0.0
  0
LINE
  5
2BC
100
AcDbEntity
  8
0
  6
Continuous
 62
     8
100
AcDbLine
 10
156.468401
 20
103.586483
 30
0.0
 11
157.468457
 21
103.586483
 31
0.0
  0
LINE
  5
2BD
100
AcDbEntity
  8
0
  6
Continuous
 62
     8
100
AcDbLine
 10
159.468269
 20
103.586483
 30
0.0
 11
167.635145
 21
103.586483
 31
0.0
  0
LINE
  5
2BE
100
AcDbEntity
  8
0
  6
Continuous
 62
     8
100
AcDbLine
 10
169.634957
 20
103.586483
 30
0.0
 11
170.635014
 21
103.586483
 31
0.0
  0
LINE
  5
2BF
100
AcDbEntity
  8
0
  6
Continuous
 62
     8
100
AcDbLine
 10
172.635126
 20
103.586483
 30
0.0
 11
180.801702
 21
103.586483
 31
0.0
  0
LINE
  5
2C0
100
AcDbEntity
  8
0
  6
Continuous
 62
     8
100
AcDbLine
 10
182.801814
 20
103.586483
 30
0.0
 11
183.80157
 21
103.586483
 31
0.0
  0
LINE
  5
2C1
100
AcDbEntity
  8
0
  6
Continuous
 62
     8
100
AcDbLine
 10
185.801682
 20
103.586483
 30
0.0
 11
193.968258
 21
103.586483
 31
0.0
  0
LINE
  5
2C2
100
AcDbEntity
  8
0
  6
Continuous
 62
     8
100
AcDbLine
 10
195.96837
 20
103.586483
 30
0.0
 11
196.968427
 21
103.586483
 31
0.0
  0
LINE
  5
2C3
100
AcDbEntity
  8
0
  6
Continuous
 62
     8
100
AcDbLine
 10
198.968239
 20
103.586483
 30
0.0
 11
207.135115
 21
103.586483
 31
0.0
  0
LINE
  5
2C4
100
AcDbEntity
  8
0
  6
Continuous
 62
     8
100
AcDbLine
 10
209.134927
 20
103.586483
 30
0.0
 11
210.134983
 21
103.586483
 31
0.0
  0
LINE
  5
2C5
100
AcDbEntity
  8
0
  6
Continuous
 62
     8
100
AcDbLine
 10
212.135096
 20
103.586483
 30
0.0
 11
220.301671
 21
103.586483
 31
0.0
  0
LINE
  5
2C6
100
AcDbEntity
  8
0
  6
Continuous
 62
     8
100
AcDbLine
 10
222.301784
 20
103.586483
 30
0.0
 11
223.301539
 21
103.586483
 31
0.0
  0
LINE
  5
2C7
100
AcDbEntity
  8
0
  6
Continuous
 62
     8
100
AcDbLine
 10
225.301652
 20
103.586483
 30
0.0
 11
233.468227
 21
103.586483
 31
0.0
  0
LINE
  5
2C8
100
AcDbEntity
  8
0
  6
Continuous
 62
     8
100
AcDbLine
 10
235.46834
 20
103.586483
 30
0.0
 11
236.468396
 21
103.586483
 31
0.0
  0
LINE
  5
2C9
100
AcDbEntity
  8
0
  6
Continuous
 62
     8
100
AcDbLine
 10
238.468208
 20
103.586483
 30
0.0
 11
246.635084
 21
103.586483
 31
0.0
  0
LINE
  5
2CA
100
AcDbEntity
  8
0
  6
Continuous
 62
     8
100
AcDbLine
 10
248.634896
 20
103.586483
 30
0.0
 11
249.634953
 21
103.586483
 31
0.0
  0
LINE
  5
2CB
100
AcDbEntity
  8
0
  6
Continuous
 62
     8
100
AcDbLine
 10
251.635065
 20
103.586483
 30
0.0
 11
259.801641
 21
103.586483
 31
0.0
  0
LINE
  5
2CC
100
AcDbEntity
  8
0
  6
Continuous
 62
     8
100
AcDbLine
 10
261.801753
 20
103.586483
 30
0.0
 11
262.801509
 21
103.586483
 31
0.0
  0
LINE
  5
2CD
100
AcDbEntity
  8
0
  6
Continuous
 62
     8
100
AcDbLine
 10
264.801621
 20
103.586483
 30
0.0
 11
272.968197
 21
103.586483
 31
0.0
  0
LINE
  5
2CE
100
AcDbEntity
  8
0
  6
Continuous
 62
     8
100
AcDbLine
 10
274.968309
 20
103.586483
 30
0.0
 11
275.968366
 21
103.586483
 31
0.0
  0
LINE
  5
2CF
100
AcDbEntity
  8
0
  6
Continuous
 62
     8
100
AcDbLine
 10
277.968178
 20
103.586483
 30
0.0
 11
286.135054
 21
103.586483
 31
0.0
  0
ENDBLK
  5
2D0
100
AcDbEntity
  8
0
100
AcDbBlockEnd
  0
BLOCK
  5
2D3
100
AcDbEntity
  8
0
100
AcDbBlockBegin
  2
*B32
 70
     0
 10
0.0
 20
0.0
 30
0.0
  3
*B32
  1

  0
LINE
  5
2D4
100
AcDbEntity
  8
0
  6
Continuous
 62
     8
100
AcDbLine
 10
271.935096
 20
72.73344
 30
0.0
 11
271.935096
 21
90.315084
 31
0.0
  0
ENDBLK
  5
2D5
100
AcDbEntity
  8
0
100
AcDbBlockEnd
  0
BLOCK
  5
2D8
100
AcDbEntity
  8
0
100
AcDbBlockBegin
  2
*B33
 70
     0
 10
0.0
 20
0.0
 30
0.0
  3
*B33
  1

  0
LINE
  5
2D9
100
AcDbEntity
  8
0
  6
Continuous
 62
     8
100
AcDbLine
 10
231.134963
 20
250.033293
 30
0.0
 11
231.134963
 21
254.032917
 31
0.0
  0
LINE
  5
2DA
100
AcDbEntity
  8
0
  6
Continuous
 62
     8
100
AcDbLine
 10
231.134963
 20
203.637471
 30
0.0
 11
231.134963
 21
211.486816
 31
0.0
  0
LINE
  5
2DB
100
AcDbEntity
  8
0
  6
Continuous
 62
     8
100
AcDbLine
 10
231.134963
 20
213.486629
 30
0.0
 11
231.134963
 21
214.486685
 31
0.0
  0
LINE
  5
2DC
100
AcDbEntity
  8
0
  6
Continuous
 62
     8
100
AcDbLine
 10
231.134963
 20
216.486497
 30
0.0
 11
231.134963
 21
224.335542
 31
0.0
  0
LINE
  5
2DD
100
AcDbEntity
  8
0
  6
Continuous
 62
     8
100
AcDbLine
 10
231.134963
 20
226.335354
 30
0.0
 11
231.134963
 21
227.33541
 31
0.0
  0
LINE
  5
2DE
100
AcDbEntity
  8
0
  6
Continuous
 62
     8
100
AcDbLine
 10
231.134963
 20
229.335222
 30
0.0
 11
231.134963
 21
237.184567
 31
0.0
  0
LINE
  5
2DF
100
AcDbEntity
  8
0
  6
Continuous
 62
     8
100
AcDbLine
 10
231.134963
 20
239.18438
 30
0.0
 11
231.134963
 21
240.184135
 31
0.0
  0
LINE
  5
2E0
100
AcDbEntity
  8
0
  6
Continuous
 62
     8
100
AcDbLine
 10
231.134963
 20
242.184248
 30
0.0
 11
231.134963
 21
250.033293
 31
0.0
  0
ENDBLK
  5
2E1
100
AcDbEntity
  8
0
100
AcDbBlockEnd
  0
BLOCK
  5
2E4
100
AcDbEntity
  8
0
100
AcDbBlockBegin
  2
*B34
 70
     0
 10
0.0
 20
0.0
 30
0.0
  3
*B34
  1

  0
LINE
  5
2E5
100
AcDbEntity
  8
0
  6
Continuous
 62
     8
100
AcDbLine
 10
231.134963
 20
93.689861
 30
0.0
 11
231.134963
 21
100.564384
 31
0.0
  0
LINE
  5
2E6
100
AcDbEntity
  8
0
  6
Continuous
 62
     8
100
AcDbLine
 10
231.134963
 20
106.563821
 30
0.0
 11
231.134963
 21
113.438344
 31
0.0
  0
ENDBLK
  5
2E7
100
AcDbEntity
  8
0
100
AcDbBlockEnd
  0
BLOCK
  5
2EA
100
AcDbEntity
  8
0
100
AcDbBlockBegin
  2
*B35
 70
     0
 10
0.0
 20
0.0
 30
0.0
  3
*B35
  1

  0
LINE
  5
2EB
100
AcDbEntity
  8
0
  6
Continuous
 62
     8
100
AcDbLine
 10
121.025734
 20
179.639425
 30
0.0
 11
184.135022
 21
179.639425
 31
0.0
  0
LINE
  5
2EC
100
AcDbEntity
  8
0
  6
Continuous
 62
     8
100
AcDbLine
 10
284.134941
 20
179.639425
 30
0.0
 11
315.025535
 21
179.639425
 31
0.0
  0
ENDBLK
  5
2ED
100
AcDbEntity
  8
0
100
AcDbBlockEnd
  0
BLOCK
  5
2F0
100
AcDbEntity
  8
0
100
AcDbBlockBegin
  2
*B36
 70
     0
 10
0.0
 20
0.0
 30
0.0
  3
*B36
  1

  0
LINE
  5
2F1
100
AcDbEntity
  8
0
  6
Continuous
 62
     8
100
AcDbLine
 10
220.134945
 20
160.039945
 30
0.0
 11
220.134945
 21
164.039569
 31
0.0
  0
LINE
  5
2F2
100
AcDbEntity
  8
0
  6
Continuous
 62
     8
100
AcDbLine
 10
220.134945
 20
164.039569
 30
0.0
 11
220.134945
 21
174.73918
 31
0.0
  0
LINE
  5
2F3
100
AcDbEntity
  8
0
  6
Continuous
 62
     8
100
AcDbLine
 10
220.134945
 20
176.738992
 30
0.0
 11
220.134945
 21
177.739048
 31
0.0
  0
LINE
  5
2F4
100
AcDbEntity
  8
0
  6
Continuous
 62
     8
100
AcDbLine
 10
220.134945
 20
179.73886
 30
0.0
 11
220.134945
 21
190.438471
 31
0.0
  0
ENDBLK
  5
2F5
100
AcDbEntity
  8
0
100
AcDbBlockEnd
  0
BLOCK
  5
2F8
100
AcDbEntity
  8
0
100
AcDbBlockBegin
  2
*B37
 70
     0
 10
0.0
 20
0.0
 30
0.0
  3
*B37
  1

  0
LINE
  5
2F9
100
AcDbEntity
  8
0
  6
Continuous
 62
     8
100
AcDbLine
 10
284.134941
 20
88.565211
 30
0.0
 11
315.025535
 21
88.565211
 31
0.0
  0
ENDBLK
  5
2FA
100
AcDbEntity
  8
0
100
AcDbBlockEnd
  0
BLOCK
  5
2FD
100
AcDbEntity
  8
0
100
AcDbBlockBegin
  2
*B38
 70
     0
 10
0.0
 20
0.0
 30
0.0
  3
*B38
  1

  0
LINE
  5
2FE
100
AcDbEntity
  8
0
  6
Continuous
 62
     8
100
AcDbLine
 10
297.025723
 20
92.314897
 30
0.0
 11
301.025648
 21
92.314897
 31
0.0
  0
LINE
  5
2FF
100
AcDbEntity
  8
0
  6
Continuous
 62
     8
100
AcDbLine
 10
267.934871
 20
92.314897
 30
0.0
 11
271.135111
 21
92.314897
 31
0.0
  0
LINE
  5
300
100
AcDbEntity
  8
0
  6
Continuous
 62
     8
100
AcDbLine
 10
277.134848
 20
92.314897
 30
0.0
 11
284.580145
 21
92.314897
 31
0.0
  0
LINE
  5
301
100
AcDbEntity
  8
0
  6
Continuous
 62
     8
100
AcDbLine
 10
286.580257
 20
92.314897
 30
0.0
 11
287.580314
 21
92.314897
 31
0.0
  0
LINE
  5
302
100
AcDbEntity
  8
0
  6
Continuous
 62
     8
100
AcDbLine
 10
289.580126
 20
92.314897
 30
0.0
 11
297.025723
 21
92.314897
 31
0.0
  0
ENDBLK
  5
303
100
AcDbEntity
  8
0
100
AcDbBlockEnd
  0
BLOCK
  5
306
100
AcDbEntity
  8
0
100
AcDbBlockBegin
  2
*B39
 70
     0
 10
0.0
 20
0.0
 30
0.0
  3
*B39
  1

  0
LINE
  5
307
100
AcDbEntity
  8
0
  6
Continuous
 62
     8
100
AcDbLine
 10
276.334863
 20
72.73344
 30
0.0
 11
276.334863
 21
90.315084
 31
0.0
  0
ENDBLK
  5
308
100
AcDbEntity
  8
0
100
AcDbBlockEnd
  0
BLOCK
  5
30B
100
AcDbEntity
  8
0
100
AcDbBlockBegin
  2
*B40
 70
     0
 10
0.0
 20
0.0
 30
0.0
  3
*B40
  1

  0
LINE
  5
30C
100
AcDbEntity
  8
0
  6
Continuous
 62
     8
100
AcDbLine
 10
210.134983
 20
129.729438
 30
0.0
 11
210.134983
 21
133.729062
 31
0.0
  0
LINE
  5
30D
100
AcDbEntity
  8
0
  6
Continuous
 62
     8
100
AcDbLine
 10
210.134983
 20
108.613801
 30
0.0
 11
210.134983
 21
111.81344
 31
0.0
  0
LINE
  5
30E
100
AcDbEntity
  8
0
  6
Continuous
 62
     8
100
AcDbLine
 10
210.134983
 20
117.813177
 30
0.0
 11
210.134983
 21
129.729438
 31
0.0
  0
ENDBLK
  5
30F
100
AcDbEntity
  8
0
100
AcDbBlockEnd
  0
BLOCK
  5
312
100
AcDbEntity
  8
0
100
AcDbBlockBegin
  2
*B41
 70
     0
 10
0.0
 20
0.0
 30
0.0
  3
*B41
  1

  0
LINE
  5
313
100
AcDbEntity
  8
0
  6
Continuous
 62
     8
100
AcDbLine
 10
163.734956
 20
103.564253
 30
0.0
 11
168.135023
 21
103.564253
 31
0.0
  0
LINE
  5
314
100
AcDbEntity
  8
0
  6
Continuous
 62
     8
100
AcDbLine
 10
174.13506
 20
103.564253
 30
0.0
 11
178.535128
 21
103.564253
 31
0.0
  0
ENDBLK
  5
315
100
AcDbEntity
  8
0
100
AcDbBlockEnd
  0
BLOCK
  5
318
100
AcDbEntity
  8
0
100
AcDbBlockBegin
  2
*B42
 70
     0
 10
0.0
 20
0.0
 30
0.0
  3
*B42
  1

  0
LINE
  5
319
100
AcDbEntity
  8
0
  6
Continuous
 62
     8
100
AcDbLine
 10
190.135059
 20
103.564253
 30
0.0
 11
194.134984
 21
103.564253
 31
0.0
  0
LINE
  5
31A
100
AcDbEntity
  8
0
  6
Continuous
 62
     8
100
AcDbLine
 10
200.135021
 20
103.564253
 30
0.0
 11
211.634917
 21
103.564253
 31
0.0
  0
LINE
  5
31B
100
AcDbEntity
  8
0
  6
Continuous
 62
     8
100
AcDbLine
 10
213.63503
 20
103.564253
 30
0.0
 11
214.635086
 21
103.564253
 31
0.0
  0
LINE
  5
31C
100
AcDbEntity
  8
0
  6
Continuous
 62
     8
100
AcDbLine
 10
216.634898
 20
103.564253
 30
0.0
 11
228.135095
 21
103.564253
 31
0.0
  0
LINE
  5
31D
100
AcDbEntity
  8
0
  6
Continuous
 62
     8
100
AcDbLine
 10
234.135132
 20
103.564253
 30
0.0
 11
250.13483
 21
103.564253
 31
0.0
  0
LINE
  5
31E
100
AcDbEntity
  8
0
  6
Continuous
 62
     8
100
AcDbLine
 10
256.134868
 20
103.564253
 30
0.0
 11
268.63512
 21
103.564253
 31
0.0
  0
LINE
  5
31F
100
AcDbEntity
  8
0
  6
Continuous
 62
     8
100
AcDbLine
 10
270.634933
 20
103.564253
 30
0.0
 11
271.634989
 21
103.564253
 31
0.0
  0
LINE
  5
320
100
AcDbEntity
  8
0
  6
Continuous
 62
     8
100
AcDbLine
 10
273.635101
 20
103.564253
 30
0.0
 11
286.135054
 21
103.564253
 31
0.0
  0
ENDBLK
  5
321
100
AcDbEntity
  8
0
100
AcDbBlockEnd
  0
BLOCK
  5
324
100
AcDbEntity
  8
0
100
AcDbBlockBegin
  2
*B43
 70
     0
 10
0.0
 20
0.0
 30
0.0
  3
*B43
  1

  0
LINE
  5
325
100
AcDbEntity
  8
0
  6
Continuous
 62
     8
100
AcDbLine
 10
284.134941
 20
219.636569
 30
0.0
 11
315.025535
 21
219.636569
 31
0.0
  0
ENDBLK
  5
326
100
AcDbEntity
  8
0
100
AcDbBlockEnd
  0
BLOCK
  5
329
100
AcDbEntity
  8
0
100
AcDbBlockBegin
  2
*B44
 70
     0
 10
0.0
 20
0.0
 30
0.0
  3
*B44
  1

  0
LINE
  5
32A
100
AcDbEntity
  8
0
  6
Continuous
 62
     8
100
AcDbLine
 10
246.134906
 20
188.438659
 30
0.0
 11
246.134906
 21
236.034307
 31
0.0
  0
ENDBLK
  5
32B
100
AcDbEntity
  8
0
100
AcDbBlockEnd
  0
BLOCK
  5
32E
100
AcDbEntity
  8
0
100
AcDbBlockBegin
  2
*B45
 70
     0
 10
0.0
 20
0.0
 30
0.0
  3
*B45
  1

  0
LINE
  5
32F
100
AcDbEntity
  8
0
  6
Continuous
 62
     8
100
AcDbLine
 10
121.025734
 20
240.705643
 30
0.0
 11
135.828009
 21
240.705643
 31
0.0
  0
ENDBLK
  5
330
100
AcDbEntity
  8
0
100
AcDbBlockEnd
  0
BLOCK
  5
333
100
AcDbEntity
  8
0
100
AcDbBlockBegin
  2
*B46
 70
     0
 10
0.0
 20
0.0
 30
0.0
  3
*B46
  1

  0
LINE
  5
334
100
AcDbEntity
  8
0
  6
Continuous
 62
     8
100
AcDbLine
 10
297.025723
 20
114.813309
 30
0.0
 11
301.025648
 21
114.813309
 31
0.0
  0
LINE
  5
335
100
AcDbEntity
  8
0
  6
Continuous
 62
     8
100
AcDbLine
 10
203.934875
 20
114.813309
 30
0.0
 11
207.135115
 21
114.813309
 31
0.0
  0
LINE
  5
336
100
AcDbEntity
  8
0
  6
Continuous
 62
     8
100
AcDbLine
 10
213.135152
 20
114.813309
 30
0.0
 11
222.950063
 21
114.813309
 31
0.0
  0
LINE
  5
337
100
AcDbEntity
  8
0
  6
Continuous
 62
     8
100
AcDbLine
 10
224.950175
 20
114.813309
 30
0.0
 11
225.950232
 21
114.813309
 31
0.0
  0
LINE
  5
338
100
AcDbEntity
  8
0
  6
Continuous
 62
     8
100
AcDbLine
 10
227.950044
 20
114.813309
 30
0.0
 11
237.765255
 21
114.813309
 31
0.0
  0
LINE
  5
339
100
AcDbEntity
  8
0
  6
Continuous
 62
     8
100
AcDbLine
 10
239.765368
 20
114.813309
 30
0.0
 11
240.765123
 21
114.813309
 31
0.0
  0
LINE
  5
33A
100
AcDbEntity
  8
0
  6
Continuous
 62
     8
100
AcDbLine
 10
242.765236
 20
114.813309
 30
0.0
 11
252.580147
 21
114.813309
 31
0.0
  0
LINE
  5
33B
100
AcDbEntity
  8
0
  6
Continuous
 62
     8
100
AcDbLine
 10
254.580259
 20
114.813309
 30
0.0
 11
255.580316
 21
114.813309
 31
0.0
  0
LINE
  5
33C
100
AcDbEntity
  8
0
  6
Continuous
 62
     8
100
AcDbLine
 10
257.580428
 20
114.813309
 30
0.0
 11
267.395339
 21
114.813309
 31
0.0
  0
LINE
  5
33D
100
AcDbEntity
  8
0
  6
Continuous
 62
     8
100
AcDbLine
 10
269.395452
 20
114.813309
 30
0.0
 11
270.395508
 21
114.813309
 31
0.0
  0
LINE
  5
33E
100
AcDbEntity
  8
0
  6
Continuous
 62
     8
100
AcDbLine
 10
272.39532
 20
114.813309
 30
0.0
 11
282.210531
 21
114.813309
 31
0.0
  0
LINE
  5
33F
100
AcDbEntity
  8
0
  6
Continuous
 62
     8
100
AcDbLine
 10
284.210644
 20
114.813309
 30
0.0
 11
285.2104
 21
114.813309
 31
0.0
  0
LINE
  5
340
100
AcDbEntity
  8
0
  6
Continuous
 62
     8
100
AcDbLine
 10
287.210512
 20
114.813309
 30
0.0
 11
297.025723
 21
114.813309
 31
0.0
  0
ENDBLK
  5
341
100
AcDbEntity
  8
0
100
AcDbBlockEnd
  0
BLOCK
  5
344
100
AcDbEntity
  8
0
100
AcDbBlockBegin
  2
*B47
 70
     0
 10
0.0
 20
0.0
 30
0.0
  3
*B47
  1

  0
LINE
  5
345
100
AcDbEntity
  8
0
  6
Continuous
 62
     8
100
AcDbLine
 10
237.010031
 20
72.73344
 30
0.0
 11
237.010031
 21
101.56414
 31
0.0
  0
ENDBLK
  5
346
100
AcDbEntity
  8
0
100
AcDbBlockEnd
  0
BLOCK
  5
349
100
AcDbEntity
  8
0
100
AcDbBlockBegin
  2
*B48
 70
     0
 10
0.0
 20
0.0
 30
0.0
  3
*B48
  1

  0
LINE
  5
34A
100
AcDbEntity
  8
0
  6
Continuous
 62
     8
100
AcDbLine
 10
133.135157
 20
103.609014
 30
0.0
 11
144.93516
 21
103.609014
 31
0.0
  0
ENDBLK
  5
34B
100
AcDbEntity
  8
0
100
AcDbBlockEnd
  0
BLOCK
  5
34E
100
AcDbEntity
  8
0
100
AcDbBlockBegin
  2
*B49
 70
     0
 10
0.0
 20
0.0
 30
0.0
  3
*B49
  1

  0
LINE
  5
34F
100
AcDbEntity
  8
0
  6
Continuous
 62
     8
100
AcDbLine
 10
284.134941
 20
118.562994
 30
0.0
 11
315.025535
 21
118.562994
 31
0.0
  0
ENDBLK
  5
350
100
AcDbEntity
  8
0
100
AcDbBlockEnd
  0
BLOCK
  5
353
100
AcDbEntity
  8
0
100
AcDbBlockBegin
  2
*B50
 70
     0
 10
0.0
 20
0.0
 30
0.0
  3
*B50
  1

  0
LINE
  5
354
100
AcDbEntity
  8
0
  6
Continuous
 62
     8
100
AcDbLine
 10
264.135017
 20
160.039945
 30
0.0
 11
264.135017
 21
164.039569
 31
0.0
  0
LINE
  5
355
100
AcDbEntity
  8
0
  6
Continuous
 62
     8
100
AcDbLine
 10
264.135017
 20
164.039569
 30
0.0
 11
264.135017
 21
174.73918
 31
0.0
  0
LINE
  5
356
100
AcDbEntity
  8
0
  6
Continuous
 62
     8
100
AcDbLine
 10
264.135017
 20
176.738992
 30
0.0
 11
264.135017
 21
177.739048
 31
0.0
  0
LINE
  5
357
100
AcDbEntity
  8
0
  6
Continuous
 62
     8
100
AcDbLine
 10
264.135017
 20
179.73886
 30
0.0
 11
264.135017
 21
190.438471
 31
0.0
  0
ENDBLK
  5
358
100
AcDbEntity
  8
0
100
AcDbBlockEnd
  0
BLOCK
  5
35B
100
AcDbEntity
  8
0
100
AcDbBlockBegin
  2
*B51
 70
     0
 10
0.0
 20
0.0
 30
0.0
  3
*B51
  1

  0
LINE
  5
35C
100
AcDbEntity
  8
0
  6
Continuous
 62
     8
100
AcDbLine
 10
137.135081
 20
241.505327
 30
0.0
 11
137.135081
 21
254.032917
 31
0.0
  0
ENDBLK
  5
35D
100
AcDbEntity
  8
0
100
AcDbBlockEnd
  0
BLOCK
  5
360
100
AcDbEntity
  8
0
100
AcDbBlockBegin
  2
*B52
 70
     0
 10
0.0
 20
0.0
 30
0.0
  3
*B52
  1

  0
LINE
  5
361
100
AcDbEntity
  8
0
  6
Continuous
 62
     8
100
AcDbLine
 10
144.434981
 20
193.709307
 30
0.0
 11
153.405147
 21
193.709307
 31
0.0
  0
LINE
  5
362
100
AcDbEntity
  8
0
  6
Continuous
 62
     8
100
AcDbLine
 10
155.404959
 20
193.709307
 30
0.0
 11
156.405015
 21
193.709307
 31
0.0
  0
LINE
  5
363
100
AcDbEntity
  8
0
  6
Continuous
 62
     8
100
AcDbLine
 10
158.405128
 20
193.709307
 30
0.0
 11
167.374992
 21
193.709307
 31
0.0
  0
LINE
  5
364
100
AcDbEntity
  8
0
  6
Continuous
 62
     8
100
AcDbLine
 10
169.375105
 20
193.709307
 30
0.0
 11
170.375161
 21
193.709307
 31
0.0
  0
LINE
  5
365
100
AcDbEntity
  8
0
  6
Continuous
 62
     8
100
AcDbLine
 10
172.374973
 20
193.709307
 30
0.0
 11
181.345139
 21
193.709307
 31
0.0
  0
LINE
  5
366
100
AcDbEntity
  8
0
  6
Continuous
 62
     8
100
AcDbLine
 10
183.344951
 20
193.709307
 30
0.0
 11
184.345007
 21
193.709307
 31
0.0
  0
LINE
  5
367
100
AcDbEntity
  8
0
  6
Continuous
 62
     8
100
AcDbLine
 10
186.345119
 20
193.709307
 30
0.0
 11
195.314984
 21
193.709307
 31
0.0
  0
LINE
  5
368
100
AcDbEntity
  8
0
  6
Continuous
 62
     8
100
AcDbLine
 10
197.315097
 20
193.709307
 30
0.0
 11
198.315153
 21
193.709307
 31
0.0
  0
LINE
  5
369
100
AcDbEntity
  8
0
  6
Continuous
 62
     8
100
AcDbLine
 10
200.314965
 20
193.709307
 30
0.0
 11
209.285131
 21
193.709307
 31
0.0
  0
LINE
  5
36A
100
AcDbEntity
  8
0
  6
Continuous
 62
     8
100
AcDbLine
 10
211.284943
 20
193.709307
 30
0.0
 11
212.284999
 21
193.709307
 31
0.0
  0
LINE
  5
36B
100
AcDbEntity
  8
0
  6
Continuous
 62
     8
100
AcDbLine
 10
214.285111
 20
193.709307
 30
0.0
 11
223.254976
 21
193.709307
 31
0.0
  0
LINE
  5
36C
100
AcDbEntity
  8
0
  6
Continuous
 62
     8
100
AcDbLine
 10
225.255089
 20
193.709307
 30
0.0
 11
226.255145
 21
193.709307
 31
0.0
  0
LINE
  5
36D
100
AcDbEntity
  8
0
  6
Continuous
 62
     8
100
AcDbLine
 10
228.254957
 20
193.709307
 30
0.0
 11
237.225122
 21
193.709307
 31
0.0
  0
LINE
  5
36E
100
AcDbEntity
  8
0
  6
Continuous
 62
     8
100
AcDbLine
 10
239.224935
 20
193.709307
 30
0.0
 11
240.224991
 21
193.709307
 31
0.0
  0
LINE
  5
36F
100
AcDbEntity
  8
0
  6
Continuous
 62
     8
100
AcDbLine
 10
242.225103
 20
193.709307
 30
0.0
 11
251.194968
 21
193.709307
 31
0.0
  0
LINE
  5
370
100
AcDbEntity
  8
0
  6
Continuous
 62
     8
100
AcDbLine
 10
253.195081
 20
193.709307
 30
0.0
 11
254.195137
 21
193.709307
 31
0.0
  0
LINE
  5
371
100
AcDbEntity
  8
0
  6
Continuous
 62
     8
100
AcDbLine
 10
256.194949
 20
193.709307
 30
0.0
 11
265.165114
 21
193.709307
 31
0.0
  0
LINE
  5
372
100
AcDbEntity
  8
0
  6
Continuous
 62
     8
100
AcDbLine
 10
267.164927
 20
193.709307
 30
0.0
 11
268.164983
 21
193.709307
 31
0.0
  0
LINE
  5
373
100
AcDbEntity
  8
0
  6
Continuous
 62
     8
100
AcDbLine
 10
270.165095
 20
193.709307
 30
0.0
 11
279.13496
 21
193.709307
 31
0.0
  0
ENDBLK
  5
374
100
AcDbEntity
  8
0
100
AcDbBlockEnd
  0
BLOCK
  5
377
100
AcDbEntity
  8
0
100
AcDbBlockBegin
  2
*B53
 70
     0
 10
0.0
 20
0.0
 30
0.0
  3
*B53
  1

  0
LINE
  5
378
100
AcDbEntity
  8
0
  6
Continuous
 62
     8
100
AcDbLine
 10
197.135153
 20
96.56476
 30
0.0
 11
197.135153
 21
100.564384
 31
0.0
  0
LINE
  5
379
100
AcDbEntity
  8
0
  6
Continuous
 62
     8
100
AcDbLine
 10
197.135153
 20
106.563821
 30
0.0
 11
197.135153
 21
110.563745
 31
0.0
  0
ENDBLK
  5
37A
100
AcDbEntity
  8
0
100
AcDbBlockEnd
  0
BLOCK
  5
37D
100
AcDbEntity
  8
0
100
AcDbBlockBegin
  2
*B54
 70
     0
 10
0.0
 20
0.0
 30
0.0
  3
*B54
  1

  0
LINE
  5
37E
100
AcDbEntity
  8
0
  6
Continuous
 62
     8
100
AcDbLine
 10
186.135135
 20
144.040847
 30
0.0
 11
186.135135
 21
177.639313
 31
0.0
  0
LINE
  5
37F
100
AcDbEntity
  8
0
  6
Continuous
 62
     8
100
AcDbLine
 10
186.135135
 20
221.636381
 30
0.0
 11
186.135135
 21
254.032917
 31
0.0
  0
ENDBLK
  5
380
100
AcDbEntity
  8
0
100
AcDbBlockEnd
  0
BLOCK
  5
383
100
AcDbEntity
  8
0
100
AcDbBlockBegin
  2
*B55
 70
     0
 10
0.0
 20
0.0
 30
0.0
  3
*B55
  1

  0
LINE
  5
384
100
AcDbEntity
  8
0
  6
Continuous
 62
     8
100
AcDbLine
 10
274.134979
 20
129.729438
 30
0.0
 11
274.134979
 21
133.729062
 31
0.0
  0
LINE
  5
385
100
AcDbEntity
  8
0
  6
Continuous
 62
     8
100
AcDbLine
 10
274.134979
 20
86.115389
 30
0.0
 11
274.134979
 21
89.315028
 31
0.0
  0
LINE
  5
386
100
AcDbEntity
  8
0
  6
Continuous
 62
     8
100
AcDbLine
 10
274.134979
 20
95.314765
 30
0.0
 11
274.134979
 21
103.453102
 31
0.0
  0
LINE
  5
387
100
AcDbEntity
  8
0
  6
Continuous
 62
     8
100
AcDbLine
 10
274.134979
 20
105.452914
 30
0.0
 11
274.134979
 21
106.452971
 31
0.0
  0
LINE
  5
388
100
AcDbEntity
  8
0
  6
Continuous
 62
     8
100
AcDbLine
 10
274.134979
 20
108.452783
 30
0.0
 11
274.134979
 21
116.59142
 31
0.0
  0
LINE
  5
389
100
AcDbEntity
  8
0
  6
Continuous
 62
     8
100
AcDbLine
 10
274.134979
 20
118.591232
 30
0.0
 11
274.134979
 21
119.590988
 31
0.0
  0
LINE
  5
38A
100
AcDbEntity
  8
0
  6
Continuous
 62
     8
100
AcDbLine
 10
274.134979
 20
121.5908
 30
0.0
 11
274.134979
 21
129.729438
 31
0.0
  0
ENDBLK
  5
38B
100
AcDbEntity
  8
0
100
AcDbBlockEnd
  0
BLOCK
  5
38E
100
AcDbEntity
  8
0
100
AcDbBlockBegin
  2
*B56
 70
     0
 10
0.0
 20
0.0
 30
0.0
  3
*B56
  1

  0
LINE
  5
38F
100
AcDbEntity
  8
0
  6
Continuous
 62
     8
100
AcDbLine
 10
238.135056
 20
188.438659
 30
0.0
 11
238.135056
 21
236.034307
 31
0.0
  0
ENDBLK
  5
390
100
AcDbEntity
  8
0
100
AcDbBlockEnd
  0
BLOCK
  5
393
100
AcDbEntity
  8
0
100
AcDbBlockBegin
  2
*B57
 70
     0
 10
0.0
 20
0.0
 30
0.0
  3
*B57
  1

  0
LINE
  5
394
100
AcDbEntity
  8
0
  6
Continuous
 62
     8
100
AcDbLine
 10
140.635128
 20
231.706638
 30
0.0
 11
149.635034
 21
231.706638
 31
0.0
  0
LINE
  5
395
100
AcDbEntity
  8
0
  6
Continuous
 62
     8
100
AcDbLine
 10
151.635146
 20
231.706638
 30
0.0
 11
152.635202
 21
231.706638
 31
0.0
  0
LINE
  5
396
100
AcDbEntity
  8
0
  6
Continuous
 62
     8
100
AcDbLine
 10
154.635015
 20
231.706638
 30
0.0
 11
163.63492
 21
231.706638
 31
0.0
  0
ENDBLK
  5
397
100
AcDbEntity
  8
0
100
AcDbBlockEnd
  0
BLOCK
  5
39A
100
AcDbEntity
  8
0
100
AcDbBlockBegin
  2
*B58
 70
     0
 10
0.0
 20
0.0
 30
0.0
  3
*B58
  1

  0
LINE
  5
39B
100
AcDbEntity
  8
0
  6
Continuous
 62
     6
100
AcDbLine
 10
231.134963
 20
102.564197
 30
0.0
 11
231.134963
 21
104.564009
 31
0.0
  0
LINE
  5
39C
100
AcDbEntity
  8
0
  6
Continuous
 62
     6
100
AcDbLine
 10
230.134907
 20
103.564253
 30
0.0
 11
232.135019
 21
103.564253
 31
0.0
  0
ENDBLK
  5
39D
100
AcDbEntity
  8
0
100
AcDbBlockEnd
  0
BLOCK
  5
3A0
100
AcDbEntity
  8
0
100
AcDbBlockBegin
  2
*B59
 70
     0
 10
0.0
 20
0.0
 30
0.0
  3
*B59
  1

  0
LINE
  5
3A1
100
AcDbEntity
  8
0
  6
Continuous
 62
     6
100
AcDbLine
 10
273.134923
 20
92.314897
 30
0.0
 11
275.135036
 21
92.314897
 31
0.0
  0
LINE
  5
3A2
100
AcDbEntity
  8
0
  6
Continuous
 62
     6
100
AcDbLine
 10
274.134979
 20
91.315141
 30
0.0
 11
274.134979
 21
93.314953
 31
0.0
  0
ENDBLK
  5
3A3
100
AcDbEntity
  8
0
100
AcDbBlockEnd
  0
BLOCK
  5
3A6
100
AcDbEntity
  8
0
100
AcDbBlockBegin
  2
*B60
 70
     0
 10
0.0
 20
0.0
 30
0.0
  3
*B60
  1

  0
LINE
  5
3A7
100
AcDbEntity
  8
0
  6
Continuous
 62
     6
100
AcDbLine
 10
210.134983
 20
113.813252
 30
0.0
 11
210.134983
 21
115.813365
 31
0.0
  0
LINE
  5
3A8
100
AcDbEntity
  8
0
  6
Continuous
 62
     6
100
AcDbLine
 10
209.134927
 20
114.813309
 30
0.0
 11
211.135039
 21
114.813309
 31
0.0
  0
ENDBLK
  5
3A9
100
AcDbEntity
  8
0
100
AcDbBlockEnd
  0
BLOCK
  5
3AC
100
AcDbEntity
  8
0
100
AcDbBlockBegin
  2
*B61
 70
     0
 10
0.0
 20
0.0
 30
0.0
  3
*B61
  1

  0
LINE
  5
3AD
100
AcDbEntity
  8
0
  6
Continuous
 62
     6
100
AcDbLine
 10
171.134892
 20
102.564197
 30
0.0
 11
171.134892
 21
104.564009
 31
0.0
  0
LINE
  5
3AE
100
AcDbEntity
  8
0
  6
Continuous
 62
     6
100
AcDbLine
 10
170.135136
 20
103.564253
 30
0.0
 11
172.134948
 21
103.564253
 31
0.0
  0
ENDBLK
  5
3AF
100
AcDbEntity
  8
0
100
AcDbBlockEnd
  0
BLOCK
  5
3B2
100
AcDbEntity
  8
0
100
AcDbBlockBegin
  2
*B62
 70
     0
 10
0.0
 20
0.0
 30
0.0
  3
*B62
  1

  0
LINE
  5
3B3
100
AcDbEntity
  8
0
  6
Continuous
 62
     6
100
AcDbLine
 10
281.135073
 20
193.709307
 30
0.0
 11
283.134885
 21
193.709307
 31
0.0
  0
LINE
  5
3B4
100
AcDbEntity
  8
0
  6
Continuous
 62
     6
100
AcDbLine
 10
282.135129
 20
192.709551
 30
0.0
 11
282.135129
 21
194.709363
 31
0.0
  0
ENDBLK
  5
3B5
100
AcDbEntity
  8
0
100
AcDbBlockEnd
  0
BLOCK
  5
3B8
100
AcDbEntity
  8
0
100
AcDbBlockBegin
  2
*B63
 70
     0
 10
0.0
 20
0.0
 30
0.0
  3
*B63
  1

  0
LINE
  5
3B9
100
AcDbEntity
  8
0
  6
Continuous
 62
     6
100
AcDbLine
 10
253.134999
 20
102.564197
 30
0.0
 11
253.134999
 21
104.564009
 31
0.0
  0
LINE
  5
3BA
100
AcDbEntity
  8
0
  6
Continuous
 62
     6
100
AcDbLine
 10
252.134943
 20
103.564253
 30
0.0
 11
254.135056
 21
103.564253
 31
0.0
  0
ENDBLK
  5
3BB
100
AcDbEntity
  8
0
100
AcDbBlockEnd
  0
BLOCK
  5
3BE
100
AcDbEntity
  8
0
100
AcDbBlockBegin
  2
*B64
 70
     0
 10
0.0
 20
0.0
 30
0.0
  3
*B64
  1

  0
LINE
  5
3BF
100
AcDbEntity
  8
0
  6
Continuous
 62
     6
100
AcDbLine
 10
197.135153
 20
102.564197
 30
0.0
 11
197.135153
 21
104.564009
 31
0.0
  0
LINE
  5
3C0
100
AcDbEntity
  8
0
  6
Continuous
 62
     6
100
AcDbLine
 10
196.135097
 20
103.564253
 30
0.0
 11
198.134909
 21
103.564253
 31
0.0
  0
ENDBLK
  5
3C1
100
AcDbEntity
  8
0
100
AcDbBlockEnd
  0
BLOCK
  5
3C4
100
AcDbEntity
  8
0
100
AcDbBlockBegin
  2
*B65
 70
     0
 10
0.0
 20
0.0
 30
0.0
  3
*B65
  1

  0
TEXT
  5
3C5
100
AcDbEntity
  8
TEXT
  6
Continuous
 62
     0
100
AcDbText
 10
240.5886
 20
182.0
 30
0.0
 40
4.0
  1
1
100
AcDbText
  0
ENDBLK
  5
3C6
100
AcDbEntity
  8
0
100
AcDbBlockEnd
  0
BLOCK
  5
3C9
100
AcDbEntity
  8
0
100
AcDbBlockBegin
  2
*B66
 70
     0
 10
0.0
 20
0.0
 30
0.0
  3
*B66
  1

  0
TEXT
  5
3CA
100
AcDbEntity
  8
TEXT
  6
Continuous
 62
     0
100
AcDbText
 10
251.5886
 20
212.0
 30
0.0
 40
4.0
  1
2
100
AcDbText
  0
ENDBLK
  5
3CB
100
AcDbEntity
  8
0
100
AcDbBlockEnd
  0
BLOCK
  5
3CE
100
AcDbEntity
  8
0
100
AcDbBlockBegin
  2
*B67
 70
     0
 10
0.0
 20
0.0
 30
0.0
  3
*B67
  1

  0
TEXT
  5
3CF
100
AcDbEntity
  8
TEXT
  6
Continuous
 62
     0
100
AcDbText
 10
262.5886
 20
182.0
 30
0.0
 40
4.0
  1
3
100
AcDbText
  0
ENDBLK
  5
3D0
100
AcDbEntity
  8
0
100
AcDbBlockEnd
  0
BLOCK
  5
3D3
100
AcDbEntity
  8
0
100
AcDbBlockBegin
  2
*B68
 70
     0
 10
0.0
 20
0.0
 30
0.0
  3
*B68
  1

  0
TEXT
  5
3D4
100
AcDbEntity
  8
TEXT
  6
Continuous
 62
     0
100
AcDbText
 10
229.5886
 20
212.0
 30
0.0
 40
4.0
  1
4
100
AcDbText
  0
ENDBLK
  5
3D5
100
AcDbEntity
  8
0
100
AcDbBlockEnd
  0
BLOCK
  5
3D8
100
AcDbEntity
  8
0
100
AcDbBlockBegin
  2
*B69
 70
     0
 10
0.0
 20
0.0
 30
0.0
  3
*B69
  1

  0
TEXT
  5
3D9
100
AcDbEntity
  8
TEXT
  6
Continuous
 62
     0
100
AcDbText
 10
218.5886
 20
182.0
 30
0.0
 40
4.0
  1
5
100
AcDbText
  0
ENDBLK
  5
3DA
100
AcDbEntity
  8
0
100
AcDbBlockEnd
  0
BLOCK
  5
3DD
100
AcDbEntity
  8
0
100
AcDbBlockBegin
  2
*B70
 70
     0
 10
0.0
 20
0.0
 30
0.0
  3
*B70
  1

  0
TEXT
  5
3DE
100
AcDbEntity
  8
TEXT
  6
Continuous
 62
     0
100
AcDbText
 10
198.5
 20
97.24145
 30
0.0
 40
3.0
  1
0
 50
90.0
100
AcDbText
  0
ENDBLK
  5
3DF
100
AcDbEntity
  8
0
100
AcDbBlockEnd
  0
BLOCK
  5
3E2
100
AcDbEntity
  8
0
100
AcDbBlockBegin
  2
*B71
 70
     0
 10
0.0
 20
0.0
 30
0.0
  3
*B71
  1

  0
TEXT
  5
3E3
100
AcDbEntity
  8
TEXT
  6
Continuous
 62
     0
100
AcDbText
 10
192.9
 20
102.24145
 30
0.0
 40
3.0
  1
1
 50
90.0
100
AcDbText
  0
ENDBLK
  5
3E4
100
AcDbEntity
  8
0
100
AcDbBlockEnd
  0
BLOCK
  5
3E7
100
AcDbEntity
  8
0
100
AcDbBlockBegin
  2
*B72
 70
     0
 10
0.0
 20
0.0
 30
0.0
  3
*B72
  1

  0
TEXT
  5
3E8
100
AcDbEntity
  8
TEXT
  6
Continuous
 62
     0
100
AcDbText
 10
204.471499
 20
191.5
 30
0.0
 40
5.0
  1
14
100
AcDbText
  0
ENDBLK
  5
3E9
100
AcDbEntity
  8
0
100
AcDbBlockEnd
  0
BLOCK
  5
3EC
100
AcDbEntity
  8
0
100
AcDbBlockBegin
  2
*B73
 70
     0
 10
0.0
 20
0.0
 30
0.0
  3
*B73
  1

  0
TEXT
  5
3ED
100
AcDbEntity
  8
TEXT
  6
Continuous
 62
     0
100
AcDbText
 10
271.471499
 20
191.5
 30
0.0
 40
5.0
  1
12
100
AcDbText
  0
ENDBLK
  5
3EE
100
AcDbEntity
  8
0
100
AcDbBlockEnd
  0
BLOCK
  5
3F1
100
AcDbEntity
  8
0
100
AcDbBlockBegin
  2
*B74
 70
     0
 10
0.0
 20
0.0
 30
0.0
  3
*B74
  1

  0
TEXT
  5
3F2
100
AcDbEntity
  8
TEXT
  6
Continuous
 62
     0
100
AcDbText
 10
158.276054
 20
253.75
 30
0.0
 40
3.5
  1
48
100
AcDbText
  0
ENDBLK
  5
3F3
100
AcDbEntity
  8
0
100
AcDbBlockEnd
  0
BLOCK
  5
3F6
100
AcDbEntity
  8
0
100
AcDbBlockBegin
  2
*B75
 70
     0
 10
0.0
 20
0.0
 30
0.0
  3
*B75
  1

  0
TEXT
  5
3F7
100
AcDbEntity
  8
TEXT
  6
Continuous
 62
     0
100
AcDbText
 10
311.25
 20
196.267572
 30
0.0
 40
3.5
  1
40
 50
90.0
100
AcDbText
  0
ENDBLK
  5
3F8
100
AcDbEntity
  8
0
100
AcDbBlockEnd
  0
BLOCK
  5
3FB
100
AcDbEntity
  8
0
100
AcDbBlockBegin
  2
*B76
 70
     0
 10
0.0
 20
0.0
 30
0.0
  3
*B76
  1

  0
TEXT
  5
3FC
100
AcDbEntity
  8
TEXT
  6
Continuous
 62
     0
100
AcDbText
 10
311.25
 20
100.186893
 30
0.0
 40
3.5
  1
30
 50
90.0
100
AcDbText
  0
ENDBLK
  5
3FD
100
AcDbEntity
  8
0
100
AcDbBlockEnd
  0
BLOCK
  5
400
100
AcDbEntity
  8
0
100
AcDbBlockBegin
  2
*B77
 70
     0
 10
0.0
 20
0.0
 30
0.0
  3
*B77
  1

  0
TEXT
  5
401
100
AcDbEntity
  8
TEXT
  6
Continuous
 62
     0
100
AcDbText
 10
297.25
 20
97.686893
 30
0.0
 40
3.5
  1
22,5
 50
90.0
100
AcDbText
  0
ENDBLK
  5
402
100
AcDbEntity
  8
0
100
AcDbBlockEnd
  0
BLOCK
  5
405
100
AcDbEntity
  8
0
100
AcDbBlockBegin
  2
*B78
 70
     0
 10
0.0
 20
0.0
 30
0.0
  3
*B78
  1

  0
TEXT
  5
406
100
AcDbEntity
  8
TEXT
  6
Continuous
 62
     0
100
AcDbText
 10
238.776054
 20
133.437377
 30
0.0
 40
3.5
  1
64
100
AcDbText
  0
ENDBLK
  5
407
100
AcDbEntity
  8
0
100
AcDbBlockEnd
  0
BLOCK
  5
40A
100
AcDbEntity
  8
0
100
AcDbBlockBegin
  2
*B79
 70
     0
 10
0.0
 20
0.0
 30
0.0
  3
*B79
  1

  0
TEXT
  5
40B
100
AcDbEntity
  8
TEXT
  6
Continuous
 62
     0
100
AcDbText
 10
269.776054
 20
163.75
 30
0.0
 40
3.5
  1
18
100
AcDbText
  0
ENDBLK
  5
40C
100
AcDbEntity
  8
0
100
AcDbBlockEnd
  0
BLOCK
  5
40F
100
AcDbEntity
  8
0
100
AcDbBlockBegin
  2
*B80
 70
     0
 10
0.0
 20
0.0
 30
0.0
  3
*B80
  1

  0
TEXT
  5
410
100
AcDbEntity
  8
TEXT
  6
Continuous
 62
     0
100
AcDbText
 10
249.776054
 20
163.75
 30
0.0
 40
3.5
  1
22
100
AcDbText
  0
ENDBLK
  5
411
100
AcDbEntity
  8
0
100
AcDbBlockEnd
  0
BLOCK
  5
414
100
AcDbEntity
  8
0
100
AcDbBlockBegin
  2
*B81
 70
     0
 10
0.0
 20
0.0
 30
0.0
  3
*B81
  1

  0
TEXT
  5
415
100
AcDbEntity
  8
TEXT
  6
Continuous
 62
     0
100
AcDbText
 10
227.776054
 20
163.75
 30
0.0
 40
3.5
  1
22
100
AcDbText
  0
ENDBLK
  5
416
100
AcDbEntity
  8
0
100
AcDbBlockEnd
  0
BLOCK
  5
419
100
AcDbEntity
  8
0
100
AcDbBlockBegin
  2
*B82
 70
     0
 10
0.0
 20
0.0
 30
0.0
  3
*B82
  1

  0
TEXT
  5
41A
100
AcDbEntity
  8
TEXT
  6
Continuous
 62
     0
100
AcDbText
 10
207.776054
 20
163.75
 30
0.0
 40
3.5
  1
18
100
AcDbText
  0
ENDBLK
  5
41B
100
AcDbEntity
  8
0
100
AcDbBlockEnd
  0
BLOCK
  5
41E
100
AcDbEntity
  8
0
100
AcDbBlockBegin
  2
*B83
 70
     0
 10
0.0
 20
0.0
 30
0.0
  3
*B83
  1

  0
TEXT
  5
41F
100
AcDbEntity
  8
TEXT
  6
Continuous
 62
     0
100
AcDbText
 10
230.776054
 20
147.75
 30
0.0
 40
3.5
  1
96
100
AcDbText
  0
ENDBLK
  5
420
100
AcDbEntity
  8
0
100
AcDbBlockEnd
  0
BLOCK
  5
423
100
AcDbEntity
  8
0
100
AcDbBlockBegin
  2
*B84
 70
     0
 10
0.0
 20
0.0
 30
0.0
  3
*B84
  1

  0
TEXT
  5
424
100
AcDbEntity
  8
TEXT
  6
Continuous
 62
     0
100
AcDbText
 10
264.276054
 20
253.75
 30
0.0
 40
3.5
  1
29
100
AcDbText
  0
ENDBLK
  5
425
100
AcDbEntity
  8
0
100
AcDbBlockEnd
  0
BLOCK
  5
428
100
AcDbEntity
  8
0
100
AcDbBlockBegin
  2
*B85
 70
     0
 10
0.0
 20
0.0
 30
0.0
  3
*B85
  1

  0
TEXT
  5
429
100
AcDbEntity
  8
TEXT
  6
Continuous
 62
     0
100
AcDbText
 10
238.776054
 20
253.75
 30
0.0
 40
3.5
  1
22
100
AcDbText
  0
ENDBLK
  5
42A
100
AcDbEntity
  8
0
100
AcDbBlockEnd
  0
BLOCK
  5
42D
100
AcDbEntity
  8
0
100
AcDbBlockBegin
  2
*B86
 70
     0
 10
0.0
 20
0.0
 30
0.0
  3
*B86
  1

  0
TEXT
  5
42E
100
AcDbEntity
  8
TEXT
  6
Continuous
 62
     0
100
AcDbText
 10
121.25
 20
206.802881
 30
0.0
 40
3.5
  1
61
 50
90.0
100
AcDbText
  0
ENDBLK
  5
42F
100
AcDbEntity
  8
0
100
AcDbBlockEnd
  0
BLOCK
  5
432
100
AcDbEntity
  8
0
100
AcDbBlockBegin
  2
*B87
 70
     0
 10
0.0
 20
0.0
 30
0.0
  3
*B87
  1

  0
TEXT
  5
433
100
AcDbEntity
  8
TEXT
  6
Continuous
 62
     0
100
AcDbText
 10
219.883333
 20
235.75
 30
0.0
 40
3.5
  1
%%c8
100
AcDbText
  0
ENDBLK
  5
434
100
AcDbEntity
  8
0
100
AcDbBlockEnd
  0
BLOCK
  5
437
100
AcDbEntity
  8
0
100
AcDbBlockBegin
  2
*B88
 70
     0
 10
0.0
 20
0.0
 30
0.0
  3
*B88
  1

  0
TEXT
  5
438
100
AcDbEntity
  8
TEXT
  6
Continuous
 62
     0
100
AcDbText
 10
283.383333
 20
76.437377
 30
0.0
 40
3.5
  1
%%c4,4
100
AcDbText
  0
ENDBLK
  5
439
100
AcDbEntity
  8
0
100
AcDbBlockEnd
  0
BLOCK
  5
43C
100
AcDbEntity
  8
0
100
AcDbBlockBegin
  2
*B89
 70
     0
 10
0.0
 20
0.0
 30
0.0
  3
*B89
  1

  0
TEXT
  5
43D
100
AcDbEntity
  8
TEXT
  6
Continuous
 62
     0
100
AcDbText
 10
199.416667
 20
76.437377
 30
0.0
 40
3.5
  1
G 1/4"
100
AcDbText
  0
ENDBLK
  5
43E
100
AcDbEntity
  8
0
100
AcDbBlockEnd
  0
BLOCK
  5
441
100
AcDbEntity
  8
0
100
AcDbBlockBegin
  2
*B90
 70
     0
 10
0.0
 20
0.0
 30
0.0
  3
*B90
  1

  0
TEXT
  5
442
100
AcDbEntity
  8
TEXT
  6
Continuous
 62
     0
100
AcDbText
 10
276.442721
 20
133.437377
 30
0.0
 40
3.5
  1
8
100
AcDbText
  0
ENDBLK
  5
443
100
AcDbEntity
  8
0
100
AcDbBlockEnd
  0
ENDSEC
  0
SECTION
  2
ENTITIES
  0
INSERT
  5
A6
100
AcDbEntity
  8
0
  6
Continuous
 62
   174
100
AcDbBlockReference
  2
*B1
 10
0.0
 20
0.0
 30
0.0
  0
INSERT
  5
1F6
100
AcDbEntity
  8
0
  6
HIDDEN
 62
   174
100
AcDbBlockReference
  2
*B2
 10
0.0
 20
0.0
 30
0.0
  0
INSERT
  5
1FC
100
AcDbEntity
  8
0
  6
Continuous
 62
   172
100
AcDbBlockReference
  2
*B3
 10
0.0
 20
0.0
 30
0.0
  0
INSERT
  5
207
100
AcDbEntity
  8
0
  6
Continuous
 62
   172
100
AcDbBlockReference
  2
*B4
 10
0.0
 20
0.0
 30
0.0
  0
INSERT
  5
211
100
AcDbEntity
  8
0
  6
Continuous
 62
     0
100
AcDbBlockReference
  2
*B6
 10
0.0
 20
0.0
 30
0.0
  0
INSERT
  5
218
100
AcDbEntity
  8
0
  6
Continuous
 62
     0
100
AcDbBlockReference
  2
*B7
 10
0.0
 20
0.0
 30
0.0
  0
INSERT
  5
21F
100
AcDbEntity
  8
0
  6
Continuous
 62
     0
100
AcDbBlockReference
  2
*B8
 10
0.0
 20
0.0
 30
0.0
  0
INSERT
  5
226
100
AcDbEntity
  8
0
  6
Continuous
 62
     0
100
AcDbBlockReference
  2
*B9
 10
0.0
 20
0.0
 30
0.0
  0
INSERT
  5
22D
100
AcDbEntity
  8
0
  6
Continuous
 62
     0
100
AcDbBlockReference
  2
*B10
 10
0.0
 20
0.0
 30
0.0
  0
INSERT
  5
234
100
AcDbEntity
  8
0
  6
Continuous
 62
     0
100
AcDbBlockReference
  2
*B11
 10
0.0
 20
0.0
 30
0.0
  0
INSERT
  5
23B
100
AcDbEntity
  8
0
  6
Continuous
 62
     0
100
AcDbBlockReference
  2
*B12
 10
0.0
 20
0.0
 30
0.0
  0
INSERT
  5
242
100
AcDbEntity
  8
0
  6
Continuous
 62
     0
100
AcDbBlockReference
  2
*B13
 10
0.0
 20
0.0
 30
0.0
  0
INSERT
  5
249
100
AcDbEntity
  8
0
  6
Continuous
 62
     0
100
AcDbBlockReference
  2
*B14
 10
0.0
 20
0.0
 30
0.0
  0
INSERT
  5
250
100
AcDbEntity
  8
0
  6
Continuous
 62
     0
100
AcDbBlockReference
  2
*B15
 10
0.0
 20
0.0
 30
0.0
  0
INSERT
  5
257
100
AcDbEntity
  8
0
  6
Continuous
 62
     0
100
AcDbBlockReference
  2
*B16
 10
0.0
 20
0.0
 30
0.0
  0
INSERT
  5
25E
100
AcDbEntity
  8
0
  6
Continuous
 62
     0
100
AcDbBlockReference
  2
*B17
 10
0.0
 20
0.0
 30
0.0
  0
INSERT
  5
265
100
AcDbEntity
  8
0
  6
Continuous
 62
     0
100
AcDbBlockReference
  2
*B18
 10
0.0
 20
0.0
 30
0.0
  0
INSERT
  5
26C
100
AcDbEntity
  8
0
  6
Continuous
 62
     0
100
AcDbBlockReference
  2
*B19
 10
0.0
 20
0.0
 30
0.0
  0
INSERT
  5
273
100
AcDbEntity
  8
0
  6
Continuous
 62
     0
100
AcDbBlockReference
  2
*B20
 10
0.0
 20
0.0
 30
0.0
  0
INSERT
  5
27A
100
AcDbEntity
  8
0
  6
Continuous
 62
     0
100
AcDbBlockReference
  2
*B21
 10
0.0
 20
0.0
 30
0.0
  0
INSERT
  5
281
100
AcDbEntity
  8
0
  6
Continuous
 62
     0
100
AcDbBlockReference
  2
*B22
 10
0.0
 20
0.0
 30
0.0
  0
INSERT
  5
28D
100
AcDbEntity
  8
0
  6
Continuous
 62
     8
100
AcDbBlockReference
  2
*B23
 10
0.0
 20
0.0
 30
0.0
  0
INSERT
  5
293
100
AcDbEntity
  8
0
  6
Continuous
 62
     8
100
AcDbBlockReference
  2
*B24
 10
0.0
 20
0.0
 30
0.0
  0
INSERT
  5
298
100
AcDbEntity
  8
0
  6
Continuous
 62
     8
100
AcDbBlockReference
  2
*B25
 10
0.0
 20
0.0
 30
0.0
  0
INSERT
  5
29D
100
AcDbEntity
  8
0
  6
Continuous
 62
     8
100
AcDbBlockReference
  2
*B26
 10
0.0
 20
0.0
 30
0.0
  0
INSERT
  5
2A5
100
AcDbEntity
  8
0
  6
Continuous
 62
     8
100
AcDbBlockReference
  2
*B27
 10
0.0
 20
0.0
 30
0.0
  0
INSERT
  5
2AB
100
AcDbEntity
  8
0
  6
Continuous
 62
     8
100
AcDbBlockReference
  2
*B28
 10
0.0
 20
0.0
 30
0.0
  0
INSERT
  5
2B1
100
AcDbEntity
  8
0
  6
Continuous
 62
     8
100
AcDbBlockReference
  2
*B29
 10
0.0
 20
0.0
 30
0.0
  0
INSERT
  5
2B6
100
AcDbEntity
  8
0
  6
Continuous
 62
     8
100
AcDbBlockReference
  2
*B30
 10
0.0
 20
0.0
 30
0.0
  0
INSERT
  5
2D1
100
AcDbEntity
  8
0
  6
Continuous
 62
     8
100
AcDbBlockReference
  2
*B31
 10
0.0
 20
0.0
 30
0.0
  0
INSERT
  5
2D6
100
AcDbEntity
  8
0
  6
Continuous
 62
     8
100
AcDbBlockReference
  2
*B32
 10
0.0
 20
0.0
 30
0.0
  0
INSERT
  5
2E2
100
AcDbEntity
  8
0
  6
Continuous
 62
     8
100
AcDbBlockReference
  2
*B33
 10
0.0
 20
0.0
 30
0.0
  0
INSERT
  5
2E8
100
AcDbEntity
  8
0
  6
Continuous
 62
     8
100
AcDbBlockReference
  2
*B34
 10
0.0
 20
0.0
 30
0.0
  0
INSERT
  5
2EE
100
AcDbEntity
  8
0
  6
Continuous
 62
     8
100
AcDbBlockReference
  2
*B35
 10
0.0
 20
0.0
 30
0.0
  0
INSERT
  5
2F6
100
AcDbEntity
  8
0
  6
Continuous
 62
     8
100
AcDbBlockReference
  2
*B36
 10
0.0
 20
0.0
 30
0.0
  0
INSERT
  5
2FB
100
AcDbEntity
  8
0
  6
Continuous
 62
     8
100
AcDbBlockReference
  2
*B37
 10
0.0
 20
0.0
 30
0.0
  0
INSERT
  5
304
100
AcDbEntity
  8
0
  6
Continuous
 62
     8
100
AcDbBlockReference
  2
*B38
 10
0.0
 20
0.0
 30
0.0
  0
INSERT
  5
309
100
AcDbEntity
  8
0
  6
Continuous
 62
     8
100
AcDbBlockReference
  2
*B39
 10
0.0
 20
0.0
 30
0.0
  0
INSERT
  5
310
100
AcDbEntity
  8
0
  6
Continuous
 62
     8
100
AcDbBlockReference
  2
*B40
 10
0.0
 20
0.0
 30
0.0
  0
INSERT
  5
316
100
AcDbEntity
  8
0
  6
Continuous
 62
     8
100
AcDbBlockReference
  2
*B41
 10
0.0
 20
0.0
 30
0.0
  0
INSERT
  5
322
100
AcDbEntity
  8
0
  6
Continuous
 62
     8
100
AcDbBlockReference
  2
*B42
 10
0.0
 20
0.0
 30
0.0
  0
INSERT
  5
327
100
AcDbEntity
  8
0
  6
Continuous
 62
     8
100
AcDbBlockReference
  2
*B43
 10
0.0
 20
0.0
 30
0.0
  0
INSERT
  5
32C
100
AcDbEntity
  8
0
  6
Continuous
 62
     8
100
AcDbBlockReference
  2
*B44
 10
0.0
 20
0.0
 30
0.0
  0
INSERT
  5
331
100
AcDbEntity
  8
0
  6
Continuous
 62
     8
100
AcDbBlockReference
  2
*B45
 10
0.0
 20
0.0
 30
0.0
  0
INSERT
  5
342
100
AcDbEntity
  8
0
  6
Continuous
 62
     8
100
AcDbBlockReference
  2
*B46
 10
0.0
 20
0.0
 30
0.0
  0
INSERT
  5
347
100
AcDbEntity
  8
0
  6
Continuous
 62
     8
100
AcDbBlockReference
  2
*B47
 10
0.0
 20
0.0
 30
0.0
  0
INSERT
  5
34C
100
AcDbEntity
  8
0
  6
Continuous
 62
     8
100
AcDbBlockReference
  2
*B48
 10
0.0
 20
0.0
 30
0.0
  0
INSERT
  5
351
100
AcDbEntity
  8
0
  6
Continuous
 62
     8
100
AcDbBlockReference
  2
*B49
 10
0.0
 20
0.0
 30
0.0
  0
INSERT
  5
359
100
AcDbEntity
  8
0
  6
Continuous
 62
     8
100
AcDbBlockReference
  2
*B50
 10
0.0
 20
0.0
 30
0.0
  0
INSERT
  5
35E
100
AcDbEntity
  8
0
  6
Continuous
 62
     8
100
AcDbBlockReference
  2
*B51
 10
0.0
 20
0.0
 30
0.0
  0
INSERT
  5
375
100
AcDbEntity
  8
0
  6
Continuous
 62
     8
100
AcDbBlockReference
  2
*B52
 10
0.0
 20
0.0
 30
0.0
  0
INSERT
  5
37B
100
AcDbEntity
  8
0
  6
Continuous
 62
     8
100
AcDbBlockReference
  2
*B53
 10
0.0
 20
0.0
 30
0.0
  0
INSERT
  5
381
100
AcDbEntity
  8
0
  6
Continuous
 62
     8
100
AcDbBlockReference
  2
*B54
 10
0.0
 20
0.0
 30
0.0
  0
INSERT
  5
38C
100
AcDbEntity
  8
0
  6
Continuous
 62
     8
100
AcDbBlockReference
  2
*B55
 10
0.0
 20
0.0
 30
0.0
  0
INSERT
  5
391
100
AcDbEntity
  8
0
  6
Continuous
 62
     8
100
AcDbBlockReference
  2
*B56
 10
0.0
 20
0.0
 30
0.0
  0
INSERT
  5
398
100
AcDbEntity
  8
0
  6
Continuous
 62
     8
100
AcDbBlockReference
  2
*B57
 10
0.0
 20
0.0
 30
0.0
  0
INSERT
  5
39E
100
AcDbEntity
  8
0
  6
Continuous
 62
     6
100
AcDbBlockReference
  2
*B58
 10
0.0
 20
0.0
 30
0.0
  0
INSERT
  5
3A4
100
AcDbEntity
  8
0
  6
Continuous
 62
     6
100
AcDbBlockReference
  2
*B59
 10
0.0
 20
0.0
 30
0.0
  0
INSERT
  5
3AA
100
AcDbEntity
  8
0
  6
Continuous
 62
     6
100
AcDbBlockReference
  2
*B60
 10
0.0
 20
0.0
 30
0.0
  0
INSERT
  5
3B0
100
AcDbEntity
  8
0
  6
Continuous
 62
     6
100
AcDbBlockReference
  2
*B61
 10
0.0
 20
0.0
 30
0.0
  0
INSERT
  5
3B6
100
AcDbEntity
  8
0
  6
Continuous
 62
     6
100
AcDbBlockReference
  2
*B62
 10
0.0
 20
0.0
 30
0.0
  0
INSERT
  5
3BC
100
AcDbEntity
  8
0
  6
Continuous
 62
     6
100
AcDbBlockReference
  2
*B63
 10
0.0
 20
0.0
 30
0.0
  0
INSERT
  5
3C2
100
AcDbEntity
  8
0
  6
Continuous
 62
     6
100
AcDbBlockReference
  2
*B64
 10
0.0
 20
0.0
 30
0.0
  0
INSERT
  5
3C7
100
AcDbEntity
  8
TEXT
  6
Continuous
 62
     0
100
AcDbBlockReference
  2
*B65
 10
0.0
 20
0.0
 30
0.0
  0
INSERT
  5
3CC
100
AcDbEntity
  8
TEXT
  6
Continuous
 62
     0
100
AcDbBlockReference
  2
*B66
 10
0.0
 20
0.0
 30
0.0
  0
INSERT
  5
3D1
100
AcDbEntity
  8
TEXT
  6
Continuous
 62
     0
100
AcDbBlockReference
  2
*B67
 10
0.0
 20
0.0
 30
0.0
  0
INSERT
  5
3D6
100
AcDbEntity
  8
TEXT
  6
Continuous
 62
     0
100
AcDbBlockReference
  2
*B68
 10
0.0
 20
0.0
 30
0.0
  0
INSERT
  5
3DB
100
AcDbEntity
  8
TEXT
  6
Continuous
 62
     0
100
AcDbBlockReference
  2
*B69
 10
0.0
 20
0.0
 30
0.0
  0
INSERT
  5
3E0
100
AcDbEntity
  8
TEXT
  6
Continuous
 62
     0
100
AcDbBlockReference
  2
*B70
 10
0.0
 20
0.0
 30
0.0
  0
INSERT
  5
3E5
100
AcDbEntity
  8
TEXT
  6
Continuous
 62
     0
100
AcDbBlockReference
  2
*B71
 10
0.0
 20
0.0
 30
0.0
  0
INSERT
  5
3EA
100
AcDbEntity
  8
TEXT
  6
Continuous
 62
     0
100
AcDbBlockReference
  2
*B72
 10
0.0
 20
0.0
 30
0.0
  0
INSERT
  5
3EF
100
AcDbEntity
  8
TEXT
  6
Continuous
 62
     0
100
AcDbBlockReference
  2
*B73
 10
0.0
 20
0.0
 30
0.0
  0
INSERT
  5
3F4
100
AcDbEntity
  8
TEXT
  6
Continuous
 62
     0
100
AcDbBlockReference
  2
*B74
 10
0.0
 20
0.0
 30
0.0
  0
INSERT
  5
3F9
100
AcDbEntity
  8
TEXT
  6
Continuous
 62
     0
100
AcDbBlockReference
  2
*B75
 10
0.0
 20
0.0
 30
0.0
  0
INSERT
  5
3FE
100
AcDbEntity
  8
TEXT
  6
Continuous
 62
     0
100
AcDbBlockReference
  2
*B76
 10
0.0
 20
0.0
 30
0.0
  0
INSERT
  5
403
100
AcDbEntity
  8
TEXT
  6
Continuous
 62
     0
100
AcDbBlockReference
  2
*B77
 10
0.0
 20
0.0
 30
0.0
  0
INSERT
  5
408
100
AcDbEntity
  8
TEXT
  6
Continuous
 62
     0
100
AcDbBlockReference
  2
*B78
 10
0.0
 20
0.0
 30
0.0
  0
INSERT
  5
40D
100
AcDbEntity
  8
TEXT
  6
Continuous
 62
     0
100
AcDbBlockReference
  2
*B79
 10
0.0
 20
0.0
 30
0.0
  0
INSERT
  5
412
100
AcDbEntity
  8
TEXT
  6
Continuous
 62
     0
100
AcDbBlockReference
  2
*B80
 10
0.0
 20
0.0
 30
0.0
  0
INSERT
  5
417
100
AcDbEntity
  8
TEXT
  6
Continuous
 62
     0
100
AcDbBlockReference
  2
*B81
 10
0.0
 20
0.0
 30
0.0
  0
INSERT
  5
41C
100
AcDbEntity
  8
TEXT
  6
Continuous
 62
     0
100
AcDbBlockReference
  2
*B82
 10
0.0
 20
0.0
 30
0.0
  0
INSERT
  5
421
100
AcDbEntity
  8
TEXT
  6
Continuous
 62
     0
100
AcDbBlockReference
  2
*B83
 10
0.0
 20
0.0
 30
0.0
  0
INSERT
  5
426
100
AcDbEntity
  8
TEXT
  6
Continuous
 62
     0
100
AcDbBlockReference
  2
*B84
 10
0.0
 20
0.0
 30
0.0
  0
INSERT
  5
42B
100
AcDbEntity
  8
TEXT
  6
Continuous
 62
     0
100
AcDbBlockReference
  2
*B85
 10
0.0
 20
0.0
 30
0.0
  0
INSERT
  5
430
100
AcDbEntity
  8
TEXT
  6
Continuous
 62
     0
100
AcDbBlockReference
  2
*B86
 10
0.0
 20
0.0
 30
0.0
  0
INSERT
  5
435
100
AcDbEntity
  8
TEXT
  6
Continuous
 62
     0
100
AcDbBlockReference
  2
*B87
 10
0.0
 20
0.0
 30
0.0
  0
INSERT
  5
43A
100
AcDbEntity
  8
TEXT
  6
Continuous
 62
     0
100
AcDbBlockReference
  2
*B88
 10
0.0
 20
0.0
 30
0.0
  0
INSERT
  5
43F
100
AcDbEntity
  8
TEXT
  6
Continuous
 62
     0
100
AcDbBlockReference
  2
*B89
 10
0.0
 20
0.0
 30
0.0
  0
INSERT
  5
444
100
AcDbEntity
  8
TEXT
  6
Continuous
 62
     0
100
AcDbBlockReference
  2
*B90
 10
0.0
 20
0.0
 30
0.0
  0
ENDSEC
  0
SECTION
  2
OBJECTS
  0
DICTIONARY
  5
19
100
AcDbDictionary
280
     0
281
     1
  3
ACAD_GROUP
350
1A
  3
ACAD_MLINESTYLE
350
1B
  3
ACAD_LAYOUT
350
1E
  3
ACAD_PLOTSETTINGS
350
22
  3
ACAD_PLOTSTYLENAME
350
1F
  3
ACAD_WIPEOUT_VARS
350
23
  0
DICTIONARY
  5
1A
102
{ACAD_REACTORS
330
19
102
}
100
AcDbDictionary
280
     0
281
     1
  0
DICTIONARY
  5
1B
102
{ACAD_REACTORS
330
19
102
}
100
AcDbDictionary
280
     0
281
     1
  3
Standard
350
1C
  0
MLINESTYLE
  5
1C
102
{ACAD_REACTORS
330
1B
102
}
100
AcDbMlineStyle
  2
Standard
 70
     0
  3

 62
     0
 51
90.0
 52
90.0
 71
     2
 49
0.5
 62
   256
  6
BYLAYER
 49
-0.5
 62
   256
  6
BYLAYER
  0
ACDBDICTIONARYWDFLT
  5
1F
102
{ACAD_REACTORS
330
19
102
}
100
AcDbDictionary
281
     1
  3
Normal
350
1D
100
AcDbDictionaryWithDefault
340
1D
  0
ACDBPLACEHOLDER
  5
1D
102
{ACAD_REACTORS
330
1F
102
}
  0
LAYOUT
  5
20
102
{ACAD_REACTORS
330
1E
102
}
100
AcDbPlotSettings
  1

  2

  4

  6

 40
0.0
 41
0.0
 42
0.0
 43
0.0
 44
0.0
 45
0.0
 46
0.0
 47
0.0
 48
0.0
 49
0.0
140
0.0
141
0.0
142
1.0
143
1.0
 70
     0
 72
     0
 73
     0
 74
     0
  7

 75
     0
147
1.0
148
0.0
149
0.0
100
AcDbLayout
  1
Model
 70
     0
 71
     0
 10
0.0
 20
0.0
 11
0.0
 21
0.0
 12
0.0
 22
0.0
 32
0.0
 14
0.0
 24
0.0
 34
0.0
 15
0.0
 25
0.0
 35
0.0
146
0.0
 13
0.0
 23
0.0
 33
0.0
 16
0.0
 26
0.0
 36
0.0
 17
0.0
 27
0.0
 37
0.0
 76
     0
330
A
331
0
345
0
346
0
  0
LAYOUT
  5
21
102
{ACAD_REACTORS
330
1E
102
}
100
AcDbPlotSettings
  1

  2

  4

  6

 40
0.0
 41
0.0
 42
0.0
 43
0.0
 44
0.0
 45
0.0
 46
0.0
 47
0.0
 48
0.0
 49
0.0
140
0.0
141
0.0
142
1.0
143
1.0
 70
     0
 72
     0
 73
     0
 74
     0
  7

 75
     0
147
1.0
148
0.0
149
0.0
100
AcDbLayout
  1
Layout1
 70
     0
 71
     0
 10
0.0
 20
0.0
 11
0.0
 21
0.0
 12
0.0
 22
0.0
 32
0.0
 14
0.0
 24
0.0
 34
0.0
 15
0.0
 25
0.0
 35
0.0
146
0.0
 13
0.0
 23
0.0
 33
0.0
 16
0.0
 26
0.0
 36
0.0
 17
0.0
 27
0.0
 37
0.0
 76
     0
330
B
331
0
345
0
346
0
  0
DICTIONARY
  5
1E
102
{ACAD_REACTORS
330
19
102
}
100
AcDbDictionary
280
     0
281
     1
  3
Layout1
350
21
  3
Model
350
20
  0
DICTIONARY
  5
22
102
{ACAD_REACTORS
330
19
102
}
100
AcDbDictionary
280
     0
281
     1
  0
WIPEOUTVARIABLES
  5
23
100
AcDbWipeoutVariables
 70
     1
  0
ENDSEC
  0
EOF
