  0
SECTION
  2
HEADER
  9
$ACADVER
  1
AC1015
  9
$ACADMAINTVER
 70
     6
  9
$DWGCODEPAGE
  3
DOS850
  9
$INSBASE
 10
0.0
 20
0.0
 30
0.0
  9
$EXTMIN
 10
0.0
 20
0.0
 30
0.0
  9
$EXTMAX
 10
420.0
 20
297.0
 30
0.0
  9
$LIMMIN
 10
0.0
 20
0.0
  9
$LIMMAX
 10
420.0
 20
297.0
  9
$ORTHOMODE
 70
     0
  9
$REGENMODE
 70
     1
  9
$FILLMODE
 70
     1
  9
$QTEXTMODE
 70
     0
  9
$MIRRTEXT
 70
     1
  9
$LTSCALE
 40
25.4
  9
$ATTMODE
 70
     1
  9
$TEXTSIZE
 40
3.5
  9
$TRACEWID
 40
0.05
  9
$TEXTSTYLE
  7
Standard
  9
$CLAYER
  8
0
  9
$CELTYPE
  6
Continuous
  9
$CECOLOR
 62
   256
  9
$CELTSCALE
 40
1.0
  9
$DISPSILH
 70
     0
  9
$DIMSCALE
 40
1.0
  9
$DIMASZ
 40
5.0
  9
$DIMEXO
 40
3.0
  9
$DIMDLI
 40
0.38
  9
$DIMRND
 40
0.0
  9
$DIMDLE
 40
0.0
  9
$DIMEXE
 40
2.0
  9
$DIMTP
 40
0.0
  9
$DIMTM
 40
0.0
  9
$DIMTXT
 40
3.5
  9
$DIMCEN
 40
4.0
  9
$DIMTSZ
 40
0.0
  9
$DIMTOL
 70
     0
  9
$DIMLIM
 70
     0
  9
$DIMTIH
 70
     1
  9
$DIMTOH
 70
     1
  9
$DIMSE1
 70
     0
  9
$DIMSE2
 70
     0
  9
$DIMTAD
 70
     0
  9
$DIMZIN
 70
     0
  9
$DIMBLK
  1

  9
$DIMASO
 70
     1
  9
$DIMSHO
 70
     1
  9
$DIMPOST
  1

  9
$DIMAPOST
  1

  9
$DIMALT
 70
     0
  9
$DIMALTD
 70
     2
  9
$DIMALTF
 40
25.4
  9
$DIMLFAC
 40
1.0
  9
$DIMTOFL
 70
     0
  9
$DIMTVP
 40
0.0
  9
$DIMTIX
 70
     0
  9
$DIMSOXD
 70
     0
  9
$DIMSAH
 70
     0
  9
$DIMBLK1
  1

  9
$DIMBLK2
  1

  9
$DIMSTYLE
  2
Standard
  9
$DIMCLRD
 70
     0
  9
$DIMCLRE
 70
     0
  9
$DIMCLRT
 70
     0
  9
$DIMTFAC
 40
1.0
  9
$DIMGAP
 40
1.0
  9
$DIMJUST
 70
     0
  9
$DIMSD1
 70
     0
  9
$DIMSD2
 70
     0
  9
$DIMTOLJ
 70
     1
  9
$DIMTZIN
 70
     0
  9
$DIMALTZ
 70
     0
  9
$DIMALTTZ
 70
     0
  9
$DIMUPT
 70
     0
  9
$DIMDEC
 70
     4
  9
$DIMTDEC
 70
     4
  9
$DIMALTU
 70
     2
  9
$DIMALTTD
 70
     2
  9
$DIMTXSTY
  7
Standard
  9
$DIMAUNIT
 70
     0
  9
$DIMADEC
 70
     0
  9
$DIMALTRND
 40
0.0
  9
$DIMAZIN
 70
     0
  9
$DIMDSEP
 70
     0
  9
$DIMATFIT
 70
     3
  9
$DIMFRAC
 70
     0
  9
$DIMLDRBLK
  1

  9
$DIMLUNIT
 70
     2
  9
$DIMLWD
 70
     0
  9
$DIMLWE
 70
     0
  9
$DIMTMOVE
 70
     0
  9
$LUNITS
 70
     2
  9
$LUPREC
 70
     4
  9
$SKETCHINC
 40
0.1
  9
$FILLETRAD
 40
0.0
  9
$AUNITS
 70
     0
  9
$AUPREC
 70
     0
  9
$MENU
  1
acad
  9
$ELEVATION
 40
0.0
  9
$PELEVATION
 40
0.0
  9
$THICKNESS
 40
0.0
  9
$LIMCHECK
 70
     0
  9
$CHAMFERA
 40
0.0
  9
$CHAMFERB
 40
0.0
  9
$CHAMFERC
 40
0.0
  9
$CHAMFERD
 40
0.0
  9
$SKPOLY
 70
     0
  9
$TDCREATE
 40
0.000000000
  9
$TDUCREATE
 40
0.000000000
  9
$TDUPDATE
 40
0.000000000
  9
$TDUUPDATE
 40
0.000000000
  9
$TDINDWG
 40
0.0000000000
  9
$TDUSRTIMER
 40
0.0000000000
  9
$USRTIMER
 70
     1
  9
$ANGBASE
 50
0.0
  9
$ANGDIR
 70
     0
  9
$PDMODE
 70
     0
  9
$PDSIZE
 40
0.0
  9
$PLINEWID
 40
0.0
  9
$SPLFRAME
 70
     0
  9
$SPLINETYPE
 70
     6
  9
$SPLINESEGS
 70
     8
  9
$HANDSEED
  5
52C
  9
$SURFTAB1
 70
     6
  9
$SURFTAB2
 70
     6
  9
$SURFTYPE
 70
     6
  9
$SURFU
 70
     6
  9
$SURFV
 70
     6
  9
$UCSBASE
  2

  9
$UCSNAME
  2

  9
$UCSORG
 10
0.0
 20
0.0
 30
0.0
  9
$UCSXDIR
 10
1.0
 20
0.0
 30
0.0
  9
$UCSYDIR
 10
0.0
 20
1.0
 30
0.0
  9
$UCSORTHOREF
  2

  9
$UCSORTHOVIEW
 70
     0
  9
$UCSORGTOP
 10
0.0
 20
0.0
 30
0.0
  9
$UCSORGBOTTOM
 10
0.0
 20
0.0
 30
0.0
  9
$UCSORGLEFT
 10
0.0
 20
0.0
 30
0.0
  9
$UCSORGRIGHT
 10
0.0
 20
0.0
 30
0.0
  9
$UCSORGFRONT
 10
0.0
 20
0.0
 30
0.0
  9
$UCSORGBACK
 10
0.0
 20
0.0
 30
0.0
  9
$PUCSBASE
  2

  9
$PUCSNAME
  2

  9
$PUCSORG
 10
0.0
 20
0.0
 30
0.0
  9
$PUCSXDIR
 10
1.0
 20
0.0
 30
0.0
  9
$PUCSYDIR
 10
0.0
 20
1.0
 30
0.0
  9
$PUCSORTHOREF
  2

  9
$PUCSORTHOVIEW
 70
     0
  9
$PUCSORGTOP
 10
0.0
 20
0.0
 30
0.0
  9
$PUCSORGBOTTOM
 10
0.0
 20
0.0
 30
0.0
  9
$PUCSORGLEFT
 10
0.0
 20
0.0
 30
0.0
  9
$PUCSORGRIGHT
 10
0.0
 20
0.0
 30
0.0
  9
$PUCSORGFRONT
 10
0.0
 20
0.0
 30
0.0
  9
$PUCSORGBACK
 10
0.0
 20
0.0
 30
0.0
  9
$USERI1
 70
     0
  9
$USERI2
 70
     0
  9
$USERI3
 70
     0
  9
$USERI4
 70
     0
  9
$USERI5
 70
     0
  9
$USERR1
 40
0.0
  9
$USERR2
 40
0.0
  9
$USERR3
 40
0.0
  9
$USERR4
 40
0.0
  9
$USERR5
 40
0.0
  9
$WORLDVIEW
 70
     1
  9
$SHADEDGE
 70
     3
  9
$SHADEDIF
 70
    70
  9
$TILEMODE
 70
     1
  9
$MAXACTVP
 70
    16
  9
$PINSBASE
 10
0.0
 20
0.0
 30
0.0
  9
$PLIMCHECK
 70
     0
  9
$PEXTMIN
 10
1.000000E+20
 20
1.000000E+20
 30
1.000000E+20
  9
$PEXTMAX
 10
-1.000000E+20
 20
-1.000000E+20
 30
-1.000000E+20
  9
$PLIMMIN
 10
0.0
 20
0.0
  9
$PLIMMAX
 10
420.0
 20
297.0
  9
$UNITMODE
 70
     0
  9
$VISRETAIN
 70
     0
  9
$PLINEGEN
 70
     1
  9
$PSLTSCALE
 70
     0
  9
$TREEDEPTH
 70
  3020
  9
$CMLSTYLE
  2
Standard
  9
$CMLJUST
 70
     0
  9
$CMLSCALE
 40
1.0
  9
$PROXYGRAPHICS
 70
     0
  9
$MEASUREMENT
 70
     0
  9
$CELWEIGHT
370
     0
  9
$ENDCAPS
280
     0
  9
$JOINSTYLE
280
     0
  9
$LWDISPLAY
290
     0
  9
$INSUNITS
 70
     0
  9
$HYPERLINKBASE
  1

  9
$XEDIT
290
     1
  9
$CEPSNTYPE
380
     0
  9
$PSTYLEMODE
290
     0
  9
$FINGERPRINTGUID
  2

  9
$VERSIONGUID
  2

  9
$EXTNAMES
290
     1
  9
$PSVPSCALE
 40
0.0
  0
ENDSEC
  0
SECTION
  2
CLASSES
  0
CLASS
  1
LWPOLYLINE
  2
AcDbPolyline
  3
"AutoCAD"
 90
        0
280
     0
281
     1
  0
CLASS
  1
IMAGE
  2
AcDbRasterImage
  3
ISM
 90
      127
280
     0
281
     1
  0
CLASS
  1
OLE2FRAME
  2
AcDbOle2Frame
  3
""
 90
        0
280
     0
281
     1
  0
CLASS
  1
HATCH
  2
AcDbHatch
  3
"ACAD_SEDONA"
 90
        0
280
     0
281
     1
  0
CLASS
  1
DICTIONARYVAR
  2
AcDbDictionaryVar
  3
"AutoCAD"
 90
        0
280
     0
281
     0
  0
CLASS
  1
RASTERVARIABLES
  2
AcDbRasterVariables
  3
ISM
 90
        0
280
     0
281
     0
  0
CLASS
  1
IMAGEDEF
  2
AcDbRasterImageDef
  3
ISM
 90
        0
280
     0
281
     0
  0
CLASS
  1
IMAGEDEF_REACTOR
  2
AcDbRasterImageDefReactor
  3
ISM
 90
        1
280
     0
281
     0
  0
CLASS
  1
IDBUFFER
  2
AcDbIdBuffer
  3
"Acad"
 90
        0
280
     0
281
     0
  0
CLASS
  1
SPATIAL_FILTER
  2
AcDbSpatialFilter
  3
"Acad"
 90
        0
280
     0
281
     0
  0
CLASS
  1
XRECORD
  2
AcDbXrecord
  3
"<Built In>"
 90
        0
280
     0
281
     0
  0
CLASS
  1
SORTENTSTABLE
  2
AcDbSortentsTable
  3
"AutoCAD"
 90
        0
280
     0
281
     0
  0
CLASS
  1
LAYER_INDEX
  2
AcDbLayerIndex
  3
"Acad"
 90
        0
280
     0
281
     0
  0
CLASS
  1
SPATIAL_INDEX
  2
AcDbSpatialIndex
  3
"Acad"
 90
        0
280
     0
281
     0
  0
CLASS
  1
OBJECT_PTR
  2
CAseDLPNTableRecord
  3
"ASE-LPNTableRecord"
 90
        1
280
     0
281
     0
  0
CLASS
  1
LAYOUT
  2
AcDbLayout
  3
"AutoCAD 2000"
 90
        1
280
     0
281
     0
  0
CLASS
  1
PLOTSETTINGS
  2
AcDbPlotSettings
  3
"AutoCAD 2000"
 90
        1
280
     0
281
     0
  0
CLASS
  1
ACDBDICTIONARYWDFLT
  2
AcDbDictionaryWithDefault
  3
"AutoCAD 2000"
 90
        1
280
     0
281
     0
  0
CLASS
  1
ACDBPLACEHOLDER
  2
AcDbPlaceHolder
  3
"AutoCAD 2000"
 90
        1
280
     0
281
     0
  0
CLASS
  1
VBA_PROJECT
  2
AcDbVbaProject
  3
"acadvba"
 90
        1
280
     0
281
     0
  0
CLASS
  1
WIPEOUT
  2
AcDbWipeout
  3
WipeOut|AutoCAD Express Tool|expresstools@autodesk.com
 90
      127
280
     0
281
     1
  0
CLASS
  1
WIPEOUTVARIABLES
  2
AcDbWipeoutVariables
  3
WipeOut|AutoCAD Express Tool|expresstools@autodesk.com
 90
        0
280
     0
281
     0
  0
CLASS
  1
RTEXT
  2
RText
  3
RText|AutoCAD Express Tool|expresstools@autodesk.com
 90
        0
280
     0
281
     1
  0
CLASS
  1
ARCALIGNEDTEXT
  2
AcDbArcAlignedText
  3
ATEXT|AutoCAD Express Tool|expresstools@autodesk.com
 90
        0
280
     0
281
     1
  0
ENDSEC
  0
SECTION
  2
TABLES
  0
TABLE
  2
VPORT
  5
7
100
AcDbSymbolTable
 70
     1
  0
VPORT
  5
15
100
AcDbSymbolTableRecord
100
AcDbViewportTableRecord
  2
*ACTIVE
 70
     0
 10
0.0
 20
0.0
 11
1.0
 21
1.0
 12
6.591288
 22
4.579184
 13
0.0
 23
0.0
 14
1.0
 24
1.0
 15
0.0
 25
0.0
 16
0.0
 26
0.0
 36
1.0
 17
0.0
 27
0.0
 37
0.0
 40
9.158369
 41
0.688564
 42
50.0
 43
0.0
 44
0.0
 50
0.0
 51
0.0
 71
     0
 72
   100
 73
     1
 74
     1
 75
     0
 76
     0
 77
     0
 78
     0
281
     0
 65
     0
110
0.0
120
0.0
130
0.0
111
1.0
121
0.0
131
0.0
112
0.0
122
1.0
132
0.0
345
0
346
0
 79
     0
146
0.0
  0
ENDTAB
  0
TABLE
  2
LTYPE
  5
4
100
AcDbSymbolTable
 70
     7
  0
LTYPE
  5
11
100
AcDbSymbolTableRecord
100
AcDbLinetypeTableRecord
  2
ByBlock
 70
    64
  3

 72
    65
 73
     0
 40
0.0
  0
LTYPE
  5
12
100
AcDbSymbolTableRecord
100
AcDbLinetypeTableRecord
  2
ByLayer
 70
    64
  3

 72
    65
 73
     0
 40
0.0
  0
LTYPE
  5
13
100
AcDbSymbolTableRecord
100
AcDbLinetypeTableRecord
  2
Continuous
 70
    64
  3
Solid line
 72
    65
 73
     0
 40
0.0
  0
LTYPE
  5
24
100
AcDbSymbolTableRecord
100
AcDbLinetypeTableRecord
  2
HIDDEN
 70
    64
  3
_ _ _ _ _ _ _ _ _ _ _ _ _ _ _ _ _ _ _ _ _ _ _ _
 72
    65
 73
     2
 40
0.1875
 49
0.125
 74
     0
 49
-0.0625
 74
     0
  0
LTYPE
  5
25
100
AcDbSymbolTableRecord
100
AcDbLinetypeTableRecord
  2
DOTTED
 70
    64
  3
...............................................
 72
    65
 73
     2
 40
0.125
 49
0.0
 74
     0
 49
-0.125
 74
     0
  0
LTYPE
  5
26
100
AcDbSymbolTableRecord
100
AcDbLinetypeTableRecord
  2
CENTER
 70
    64
  3
____ _ ____ _ ____ _ ____ _ ____ _ ____ _ ____ 
 72
    65
 73
     4
 40
1.125
 49
0.75
 74
     0
 49
-0.125
 74
     0
 49
0.125
 74
     0
 49
-0.125
 74
     0
  0
LTYPE
  5
27
100
AcDbSymbolTableRecord
100
AcDbLinetypeTableRecord
  2
PHANTOM
 70
    64
  3
______  __  __  ______  __  __  ______  __  __ 
 72
    65
 73
     6
 40
1.25
 49
0.625
 74
     0
 49
-0.125
 74
     0
 49
0.125
 74
     0
 49
-0.125
 74
     0
 49
0.125
 74
     0
 49
-0.125
 74
     0
  0
ENDTAB
  0
TABLE
  2
LAYER
  5
2
100
AcDbSymbolTable
 70
     2
  0
LAYER
  5
14
100
AcDbSymbolTableRecord
100
AcDbLayerTableRecord
  2
0
 70
     0
 62
     7
  6
Continuous
290
     1
370
    -3
390
1D
  0
LAYER
  5
28
100
AcDbSymbolTableRecord
100
AcDbLayerTableRecord
  2
TEXT
 70
     0
 62
     8
  6
Continuous
290
     1
370
    -3
390
1F
  0
ENDTAB
  0
TABLE
  2
STYLE
  5
3
100
AcDbSymbolTable
 70
     1
  0
STYLE
  5
17
100
AcDbSymbolTableRecord
100
AcDbTextStyleTableRecord
  2
Standard
 70
     0
 40
0.0
 41
1.0
 50
0.0
 71
     0
 42
0.0
  3
txt
  4

  0
ENDTAB
  0
TABLE
  2
VIEW
  5
5
100
AcDbSymbolTable
 70
     0
  0
ENDTAB
  0
TABLE
  2
UCS
  5
6
100
AcDbSymbolTable
 70
     0
  0
ENDTAB
  0
TABLE
  2
APPID
  5
8
100
AcDbSymbolTable
 70
     1
  0
APPID
  5
16
100
AcDbSymbolTableRecord
100
AcDbRegAppTableRecord
  2
ACAD
 70
     0
  0
ENDTAB
  0
TABLE
  2
DIMSTYLE
  5
9
100
AcDbSymbolTable
 70
     1
100
AcDbDimStyleTable
 71
     0
  0
DIMSTYLE
105
18
100
AcDbSymbolTableRecord
100
AcDbDimStyleTableRecord
  2
Standard
 70
     0
  3

  4

 40
1.0
 41
0.18
 42
0.0625
 43
0.38
 44
0.18
 45
0.0
 46
0.0
 47
0.0
 48
0.0
 71
     0
 72
     0
 73
     1
 74
     1
 75
     0
 76
     0
 77
     0
 78
     0
 79
     0
140
0.18
141
0.09
142
0.0
143
25.4
144
1.0
145
0.0
146
1.0
147
0.09
148
0.0
170
     0
171
     2
172
     0
173
     0
174
     0
175
     0
176
     0
177
     0
178
     0
179
     0
271
     4
272
     4
273
     2
274
     2
275
     0
276
     0
277
     2
278
    46
279
     0
280
     0
281
     0
282
     0
283
     1
284
     0
285
     0
286
     0
288
     0
340
17
341
0
342
0
343
0
344
0
371
    -2
372
    -2
  0
ENDTAB
  0
TABLE
  2
BLOCK_RECORD
  5
1
100
AcDbSymbolTable
 70
   107
  0
BLOCK_RECORD
  5
A
100
AcDbSymbolTableRecord
100
AcDbBlockTableRecord
  2
*MODEL_SPACE
340
20
  0
BLOCK_RECORD
  5
B
100
AcDbSymbolTableRecord
100
AcDbBlockTableRecord
  2
*PAPER_SPACE
340
21
  0
BLOCK_RECORD
  5
29
100
AcDbSymbolTableRecord
100
AcDbBlockTableRecord
  2
*B0
340
0
  0
BLOCK_RECORD
  5
2C
100
AcDbSymbolTableRecord
100
AcDbBlockTableRecord
  2
*B1
340
0
  0
BLOCK_RECORD
  5
11E
100
AcDbSymbolTableRecord
100
AcDbBlockTableRecord
  2
*B2
340
0
  0
BLOCK_RECORD
  5
276
100
AcDbSymbolTableRecord
100
AcDbBlockTableRecord
  2
*B3
340
0
  0
BLOCK_RECORD
  5
27C
100
AcDbSymbolTableRecord
100
AcDbBlockTableRecord
  2
*B4
340
0
  0
BLOCK_RECORD
  5
287
100
AcDbSymbolTableRecord
100
AcDbBlockTableRecord
  2
*B5
340
0
  0
BLOCK_RECORD
  5
28A
100
AcDbSymbolTableRecord
100
AcDbBlockTableRecord
  2
*B6
340
0
  0
BLOCK_RECORD
  5
291
100
AcDbSymbolTableRecord
100
AcDbBlockTableRecord
  2
*B7
340
0
  0
BLOCK_RECORD
  5
298
100
AcDbSymbolTableRecord
100
AcDbBlockTableRecord
  2
*B8
340
0
  0
BLOCK_RECORD
  5
29F
100
AcDbSymbolTableRecord
100
AcDbBlockTableRecord
  2
*B9
340
0
  0
BLOCK_RECORD
  5
2A6
100
AcDbSymbolTableRecord
100
AcDbBlockTableRecord
  2
*B10
340
0
  0
BLOCK_RECORD
  5
2AD
100
AcDbSymbolTableRecord
100
AcDbBlockTableRecord
  2
*B11
340
0
  0
BLOCK_RECORD
  5
2B4
100
AcDbSymbolTableRecord
100
AcDbBlockTableRecord
  2
*B12
340
0
  0
BLOCK_RECORD
  5
2BB
100
AcDbSymbolTableRecord
100
AcDbBlockTableRecord
  2
*B13
340
0
  0
BLOCK_RECORD
  5
2C2
100
AcDbSymbolTableRecord
100
AcDbBlockTableRecord
  2
*B14
340
0
  0
BLOCK_RECORD
  5
2C9
100
AcDbSymbolTableRecord
100
AcDbBlockTableRecord
  2
*B15
340
0
  0
BLOCK_RECORD
  5
2D0
100
AcDbSymbolTableRecord
100
AcDbBlockTableRecord
  2
*B16
340
0
  0
BLOCK_RECORD
  5
2D7
100
AcDbSymbolTableRecord
100
AcDbBlockTableRecord
  2
*B17
340
0
  0
BLOCK_RECORD
  5
2DE
100
AcDbSymbolTableRecord
100
AcDbBlockTableRecord
  2
*B18
340
0
  0
BLOCK_RECORD
  5
2E5
100
AcDbSymbolTableRecord
100
AcDbBlockTableRecord
  2
*B19
340
0
  0
BLOCK_RECORD
  5
2EC
100
AcDbSymbolTableRecord
100
AcDbBlockTableRecord
  2
*B20
340
0
  0
BLOCK_RECORD
  5
2F3
100
AcDbSymbolTableRecord
100
AcDbBlockTableRecord
  2
*B21
340
0
  0
BLOCK_RECORD
  5
2FA
100
AcDbSymbolTableRecord
100
AcDbBlockTableRecord
  2
*B22
340
0
  0
BLOCK_RECORD
  5
301
100
AcDbSymbolTableRecord
100
AcDbBlockTableRecord
  2
*B23
340
0
  0
BLOCK_RECORD
  5
308
100
AcDbSymbolTableRecord
100
AcDbBlockTableRecord
  2
*B24
340
0
  0
BLOCK_RECORD
  5
30D
100
AcDbSymbolTableRecord
100
AcDbBlockTableRecord
  2
*B25
340
0
  0
BLOCK_RECORD
  5
313
100
AcDbSymbolTableRecord
100
AcDbBlockTableRecord
  2
*B26
340
0
  0
BLOCK_RECORD
  5
330
100
AcDbSymbolTableRecord
100
AcDbBlockTableRecord
  2
*B27
340
0
  0
BLOCK_RECORD
  5
336
100
AcDbSymbolTableRecord
100
AcDbBlockTableRecord
  2
*B28
340
0
  0
BLOCK_RECORD
  5
33D
100
AcDbSymbolTableRecord
100
AcDbBlockTableRecord
  2
*B29
340
0
  0
BLOCK_RECORD
  5
346
100
AcDbSymbolTableRecord
100
AcDbBlockTableRecord
  2
*B30
340
0
  0
BLOCK_RECORD
  5
34C
100
AcDbSymbolTableRecord
100
AcDbBlockTableRecord
  2
*B31
340
0
  0
BLOCK_RECORD
  5
351
100
AcDbSymbolTableRecord
100
AcDbBlockTableRecord
  2
*B32
340
0
  0
BLOCK_RECORD
  5
356
100
AcDbSymbolTableRecord
100
AcDbBlockTableRecord
  2
*B33
340
0
  0
BLOCK_RECORD
  5
35B
100
AcDbSymbolTableRecord
100
AcDbBlockTableRecord
  2
*B34
340
0
  0
BLOCK_RECORD
  5
361
100
AcDbSymbolTableRecord
100
AcDbBlockTableRecord
  2
*B35
340
0
  0
BLOCK_RECORD
  5
380
100
AcDbSymbolTableRecord
100
AcDbBlockTableRecord
  2
*B36
340
0
  0
BLOCK_RECORD
  5
385
100
AcDbSymbolTableRecord
100
AcDbBlockTableRecord
  2
*B37
340
0
  0
BLOCK_RECORD
  5
38A
100
AcDbSymbolTableRecord
100
AcDbBlockTableRecord
  2
*B38
340
0
  0
BLOCK_RECORD
  5
38F
100
AcDbSymbolTableRecord
100
AcDbBlockTableRecord
  2
*B39
340
0
  0
BLOCK_RECORD
  5
396
100
AcDbSymbolTableRecord
100
AcDbBlockTableRecord
  2
*B40
340
0
  0
BLOCK_RECORD
  5
39F
100
AcDbSymbolTableRecord
100
AcDbBlockTableRecord
  2
*B41
340
0
  0
BLOCK_RECORD
  5
3A4
100
AcDbSymbolTableRecord
100
AcDbBlockTableRecord
  2
*B42
340
0
  0
BLOCK_RECORD
  5
3A9
100
AcDbSymbolTableRecord
100
AcDbBlockTableRecord
  2
*B43
340
0
  0
BLOCK_RECORD
  5
3B2
100
AcDbSymbolTableRecord
100
AcDbBlockTableRecord
  2
*B44
340
0
  0
BLOCK_RECORD
  5
3B9
100
AcDbSymbolTableRecord
100
AcDbBlockTableRecord
  2
*B45
340
0
  0
BLOCK_RECORD
  5
3BE
100
AcDbSymbolTableRecord
100
AcDbBlockTableRecord
  2
*B46
340
0
  0
BLOCK_RECORD
  5
3C3
100
AcDbSymbolTableRecord
100
AcDbBlockTableRecord
  2
*B47
340
0
  0
BLOCK_RECORD
  5
3C8
100
AcDbSymbolTableRecord
100
AcDbBlockTableRecord
  2
*B48
340
0
  0
BLOCK_RECORD
  5
3DB
100
AcDbSymbolTableRecord
100
AcDbBlockTableRecord
  2
*B49
340
0
  0
BLOCK_RECORD
  5
3E2
100
AcDbSymbolTableRecord
100
AcDbBlockTableRecord
  2
*B50
340
0
  0
BLOCK_RECORD
  5
3E8
100
AcDbSymbolTableRecord
100
AcDbBlockTableRecord
  2
*B51
340
0
  0
BLOCK_RECORD
  5
3EE
100
AcDbSymbolTableRecord
100
AcDbBlockTableRecord
  2
*B52
340
0
  0
BLOCK_RECORD
  5
3F5
100
AcDbSymbolTableRecord
100
AcDbBlockTableRecord
  2
*B53
340
0
  0
BLOCK_RECORD
  5
3FE
100
AcDbSymbolTableRecord
100
AcDbBlockTableRecord
  2
*B54
340
0
  0
BLOCK_RECORD
  5
407
100
AcDbSymbolTableRecord
100
AcDbBlockTableRecord
  2
*B55
340
0
  0
BLOCK_RECORD
  5
40D
100
AcDbSymbolTableRecord
100
AcDbBlockTableRecord
  2
*B56
340
0
  0
BLOCK_RECORD
  5
412
100
AcDbSymbolTableRecord
100
AcDbBlockTableRecord
  2
*B57
340
0
  0
BLOCK_RECORD
  5
418
100
AcDbSymbolTableRecord
100
AcDbBlockTableRecord
  2
*B58
340
0
  0
BLOCK_RECORD
  5
41D
100
AcDbSymbolTableRecord
100
AcDbBlockTableRecord
  2
*B59
340
0
  0
BLOCK_RECORD
  5
430
100
AcDbSymbolTableRecord
100
AcDbBlockTableRecord
  2
*B60
340
0
  0
BLOCK_RECORD
  5
436
100
AcDbSymbolTableRecord
100
AcDbBlockTableRecord
  2
*B61
340
0
  0
BLOCK_RECORD
  5
43B
100
AcDbSymbolTableRecord
100
AcDbBlockTableRecord
  2
*B62
340
0
  0
BLOCK_RECORD
  5
440
100
AcDbSymbolTableRecord
100
AcDbBlockTableRecord
  2
*B63
340
0
  0
BLOCK_RECORD
  5
445
100
AcDbSymbolTableRecord
100
AcDbBlockTableRecord
  2
*B64
340
0
  0
BLOCK_RECORD
  5
44A
100
AcDbSymbolTableRecord
100
AcDbBlockTableRecord
  2
*B65
340
0
  0
BLOCK_RECORD
  5
44F
100
AcDbSymbolTableRecord
100
AcDbBlockTableRecord
  2
*B66
340
0
  0
BLOCK_RECORD
  5
455
100
AcDbSymbolTableRecord
100
AcDbBlockTableRecord
  2
*B67
340
0
  0
BLOCK_RECORD
  5
45C
100
AcDbSymbolTableRecord
100
AcDbBlockTableRecord
  2
*B68
340
0
  0
BLOCK_RECORD
  5
463
100
AcDbSymbolTableRecord
100
AcDbBlockTableRecord
  2
*B69
340
0
  0
BLOCK_RECORD
  5
469
100
AcDbSymbolTableRecord
100
AcDbBlockTableRecord
  2
*B70
340
0
  0
BLOCK_RECORD
  5
46F
100
AcDbSymbolTableRecord
100
AcDbBlockTableRecord
  2
*B71
340
0
  0
BLOCK_RECORD
  5
475
100
AcDbSymbolTableRecord
100
AcDbBlockTableRecord
  2
*B72
340
0
  0
BLOCK_RECORD
  5
47B
100
AcDbSymbolTableRecord
100
AcDbBlockTableRecord
  2
*B73
340
0
  0
BLOCK_RECORD
  5
481
100
AcDbSymbolTableRecord
100
AcDbBlockTableRecord
  2
*B74
340
0
  0
BLOCK_RECORD
  5
487
100
AcDbSymbolTableRecord
100
AcDbBlockTableRecord
  2
*B75
340
0
  0
BLOCK_RECORD
  5
48D
100
AcDbSymbolTableRecord
100
AcDbBlockTableRecord
  2
*B76
340
0
  0
BLOCK_RECORD
  5
493
100
AcDbSymbolTableRecord
100
AcDbBlockTableRecord
  2
*B77
340
0
  0
BLOCK_RECORD
  5
499
100
AcDbSymbolTableRecord
100
AcDbBlockTableRecord
  2
*B78
340
0
  0
BLOCK_RECORD
  5
49F
100
AcDbSymbolTableRecord
100
AcDbBlockTableRecord
  2
*B79
340
0
  0
BLOCK_RECORD
  5
4A5
100
AcDbSymbolTableRecord
100
AcDbBlockTableRecord
  2
*B80
340
0
  0
BLOCK_RECORD
  5
4AA
100
AcDbSymbolTableRecord
100
AcDbBlockTableRecord
  2
*B81
340
0
  0
BLOCK_RECORD
  5
4AF
100
AcDbSymbolTableRecord
100
AcDbBlockTableRecord
  2
*B82
340
0
  0
BLOCK_RECORD
  5
4B4
100
AcDbSymbolTableRecord
100
AcDbBlockTableRecord
  2
*B83
340
0
  0
BLOCK_RECORD
  5
4B9
100
AcDbSymbolTableRecord
100
AcDbBlockTableRecord
  2
*B84
340
0
  0
BLOCK_RECORD
  5
4BE
100
AcDbSymbolTableRecord
100
AcDbBlockTableRecord
  2
*B85
340
0
  0
BLOCK_RECORD
  5
4C3
100
AcDbSymbolTableRecord
100
AcDbBlockTableRecord
  2
*B86
340
0
  0
BLOCK_RECORD
  5
4C8
100
AcDbSymbolTableRecord
100
AcDbBlockTableRecord
  2
*B87
340
0
  0
BLOCK_RECORD
  5
4CD
100
AcDbSymbolTableRecord
100
AcDbBlockTableRecord
  2
*B88
340
0
  0
BLOCK_RECORD
  5
4D2
100
AcDbSymbolTableRecord
100
AcDbBlockTableRecord
  2
*B89
340
0
  0
BLOCK_RECORD
  5
4D7
100
AcDbSymbolTableRecord
100
AcDbBlockTableRecord
  2
*B90
340
0
  0
BLOCK_RECORD
  5
4DC
100
AcDbSymbolTableRecord
100
AcDbBlockTableRecord
  2
*B91
340
0
  0
BLOCK_RECORD
  5
4E1
100
AcDbSymbolTableRecord
100
AcDbBlockTableRecord
  2
*B92
340
0
  0
BLOCK_RECORD
  5
4E6
100
AcDbSymbolTableRecord
100
AcDbBlockTableRecord
  2
*B93
340
0
  0
BLOCK_RECORD
  5
4EB
100
AcDbSymbolTableRecord
100
AcDbBlockTableRecord
  2
*B94
340
0
  0
BLOCK_RECORD
  5
4F0
100
AcDbSymbolTableRecord
100
AcDbBlockTableRecord
  2
*B95
340
0
  0
BLOCK_RECORD
  5
4F5
100
AcDbSymbolTableRecord
100
AcDbBlockTableRecord
  2
*B96
340
0
  0
BLOCK_RECORD
  5
4FA
100
AcDbSymbolTableRecord
100
AcDbBlockTableRecord
  2
*B97
340
0
  0
BLOCK_RECORD
  5
4FF
100
AcDbSymbolTableRecord
100
AcDbBlockTableRecord
  2
*B98
340
0
  0
BLOCK_RECORD
  5
504
100
AcDbSymbolTableRecord
100
AcDbBlockTableRecord
  2
*B99
340
0
  0
BLOCK_RECORD
  5
509
100
AcDbSymbolTableRecord
100
AcDbBlockTableRecord
  2
*B100
340
0
  0
BLOCK_RECORD
  5
50E
100
AcDbSymbolTableRecord
100
AcDbBlockTableRecord
  2
*B101
340
0
  0
BLOCK_RECORD
  5
513
100
AcDbSymbolTableRecord
100
AcDbBlockTableRecord
  2
*B102
340
0
  0
BLOCK_RECORD
  5
518
100
AcDbSymbolTableRecord
100
AcDbBlockTableRecord
  2
*B103
340
0
  0
BLOCK_RECORD
  5
51D
100
AcDbSymbolTableRecord
100
AcDbBlockTableRecord
  2
*B104
340
0
  0
BLOCK_RECORD
  5
522
100
AcDbSymbolTableRecord
100
AcDbBlockTableRecord
  2
*B105
340
0
  0
BLOCK_RECORD
  5
527
100
AcDbSymbolTableRecord
100
AcDbBlockTableRecord
  2
*B106
340
0
  0
ENDTAB
  0
ENDSEC
  0
SECTION
  2
BLOCKS
  0
BLOCK
  5
D
100
AcDbEntity
  8
0
100
AcDbBlockBegin
  2
*MODEL_SPACE
 70
     0
 10
0.0
 20
0.0
 30
0.0
  3
*MODEL_SPACE
  1

  0
ENDBLK
  5
E
100
AcDbEntity
  8
0
100
AcDbBlockEnd
  0
BLOCK
  5
F
100
AcDbEntity
 67
     1
  8
0
100
AcDbBlockBegin
  2
*PAPER_SPACE
 70
     0
 10
0.0
 20
0.0
 30
0.0
  3
*PAPER_SPACE
  1

  0
ENDBLK
  5
10
100
AcDbEntity
 67
     1
  8
0
100
AcDbBlockEnd
  0
BLOCK
  5
2A
100
AcDbEntity
  8
0
100
AcDbBlockBegin
  2
*B0
 70
     0
 10
0.0
 20
0.0
 30
0.0
  3
*B0
  1

  0
ENDBLK
  5
2B
100
AcDbEntity
  8
0
100
AcDbBlockEnd
  0
BLOCK
  5
2D
100
AcDbEntity
  8
0
100
AcDbBlockBegin
  2
*B1
 70
     0
 10
0.0
 20
0.0
 30
0.0
  3
*B1
  1

  0
ARC
  5
2E
100
AcDbEntity
  8
0
  6
Continuous
 62
   174
100
AcDbCircle
 10
224.418058
 20
121.132709
 30
0.0
 40
4.865
100
AcDbArc
 50
-180.0
 51
0.0
  0
ARC
  5
2F
100
AcDbEntity
  8
0
  6
Continuous
 62
   174
100
AcDbCircle
 10
224.418058
 20
121.132709
 30
0.0
 40
4.865
100
AcDbArc
 50
0.0
 51
118.805294
  0
ARC
  5
30
100
AcDbEntity
  8
0
  6
Continuous
 62
   174
100
AcDbCircle
 10
233.418058
 20
107.132709
 30
0.0
 40
4.865
100
AcDbArc
 50
-180.0
 51
0.0
  0
ARC
  5
31
100
AcDbEntity
  8
0
  6
Continuous
 62
   174
100
AcDbCircle
 10
233.418058
 20
107.132709
 30
0.0
 40
4.865
100
AcDbArc
 50
0.0
 51
118.789674
  0
ARC
  5
32
100
AcDbEntity
  8
0
  6
Continuous
 62
   174
100
AcDbCircle
 10
240.418058
 20
124.132709
 30
0.0
 40
2.2
100
AcDbArc
 50
-180.0
 51
0.0
  0
ARC
  5
33
100
AcDbEntity
  8
0
  6
Continuous
 62
   174
100
AcDbCircle
 10
240.418058
 20
124.132709
 30
0.0
 40
2.2
100
AcDbArc
 50
0.0
 51
180.0
  0
ARC
  5
34
100
AcDbEntity
  8
0
  6
Continuous
 62
   174
100
AcDbCircle
 10
197.418058
 20
107.132709
 30
0.0
 40
4.865
100
AcDbArc
 50
-180.0
 51
0.0
  0
ARC
  5
35
100
AcDbEntity
  8
0
  6
Continuous
 62
   174
100
AcDbCircle
 10
197.418058
 20
107.132709
 30
0.0
 40
4.865
100
AcDbArc
 50
0.0
 51
118.789674
  0
ARC
  5
36
100
AcDbEntity
  8
0
  6
Continuous
 62
   174
100
AcDbCircle
 10
215.418058
 20
107.132709
 30
0.0
 40
4.865
100
AcDbArc
 50
-180.0
 51
0.0
  0
ARC
  5
37
100
AcDbEntity
  8
0
  6
Continuous
 62
   174
100
AcDbCircle
 10
215.418058
 20
107.132709
 30
0.0
 40
4.865
100
AcDbArc
 50
0.0
 51
118.789674
  0
ARC
  5
38
100
AcDbEntity
  8
0
  6
Continuous
 62
   174
100
AcDbCircle
 10
206.418058
 20
121.132709
 30
0.0
 40
4.865
100
AcDbArc
 50
-180.0
 51
0.0
  0
ARC
  5
39
100
AcDbEntity
  8
0
  6
Continuous
 62
   174
100
AcDbCircle
 10
206.418058
 20
121.132709
 30
0.0
 40
4.865
100
AcDbArc
 50
0.0
 51
118.805294
  0
ARC
  5
3A
100
AcDbEntity
  8
0
  6
Continuous
 62
   174
100
AcDbCircle
 10
224.418058
 20
121.132709
 30
0.0
 40
4.375
100
AcDbArc
 50
0.0
 51
180.0
  0
ARC
  5
3B
100
AcDbEntity
  8
0
  6
Continuous
 62
   174
100
AcDbCircle
 10
224.418058
 20
121.132709
 30
0.0
 40
4.375
100
AcDbArc
 50
-180.0
 51
0.0
  0
ARC
  5
3C
100
AcDbEntity
  8
0
  6
Continuous
 62
   174
100
AcDbCircle
 10
206.418058
 20
121.132709
 30
0.0
 40
4.375
100
AcDbArc
 50
-180.0
 51
0.0
  0
ARC
  5
3D
100
AcDbEntity
  8
0
  6
Continuous
 62
   174
100
AcDbCircle
 10
197.418058
 20
107.132709
 30
0.0
 40
4.375
100
AcDbArc
 50
0.0
 51
180.0
  0
ARC
  5
3E
100
AcDbEntity
  8
0
  6
Continuous
 62
   174
100
AcDbCircle
 10
197.418058
 20
107.132709
 30
0.0
 40
4.375
100
AcDbArc
 50
-180.0
 51
0.0
  0
ARC
  5
3F
100
AcDbEntity
  8
0
  6
Continuous
 62
   174
100
AcDbCircle
 10
190.418058
 20
124.132709
 30
0.0
 40
2.2
100
AcDbArc
 50
-180.0
 51
0.0
  0
ARC
  5
40
100
AcDbEntity
  8
0
  6
Continuous
 62
   174
100
AcDbCircle
 10
190.418058
 20
124.132709
 30
0.0
 40
2.2
100
AcDbArc
 50
0.0
 51
180.0
  0
LINE
  5
41
100
AcDbEntity
  8
0
  6
Continuous
 62
   174
100
AcDbLine
 10
307.918058
 20
123.132709
 30
0.0
 11
308.618058
 21
123.132709
 31
0.0
  0
ARC
  5
42
100
AcDbEntity
  8
0
  6
Continuous
 62
   174
100
AcDbCircle
 10
240.418058
 20
124.132709
 30
0.0
 40
3.75
100
AcDbArc
 50
0.0
 51
180.0
  0
ARC
  5
43
100
AcDbEntity
  8
0
  6
Continuous
 62
   174
100
AcDbCircle
 10
190.418058
 20
124.132709
 30
0.0
 40
3.75
100
AcDbArc
 50
-180.0
 51
0.0
  0
LINE
  5
44
100
AcDbEntity
  8
0
  6
Continuous
 62
   174
100
AcDbLine
 10
118.418058
 20
121.932709
 30
0.0
 11
118.516654
 21
122.103483
 31
0.0
  0
LINE
  5
45
100
AcDbEntity
  8
0
  6
Continuous
 62
   174
100
AcDbLine
 10
304.918058
 20
122.132709
 30
0.0
 11
292.876098
 21
122.132709
 31
0.0
  0
LINE
  5
46
100
AcDbEntity
  8
0
  6
Continuous
 62
   174
100
AcDbLine
 10
292.918058
 20
107.887711
 30
0.0
 11
292.918058
 21
106.632709
 31
0.0
  0
LINE
  5
47
100
AcDbEntity
  8
0
  6
Continuous
 62
   174
100
AcDbLine
 10
137.918058
 20
120.377707
 30
0.0
 11
137.918058
 21
121.632709
 31
0.0
  0
ARC
  5
48
100
AcDbEntity
  8
0
  6
Continuous
 62
   174
100
AcDbCircle
 10
252.418058
 20
114.132709
 30
0.0
 40
3.0
100
AcDbArc
 50
-270.0
 51
-90.0
  0
ARC
  5
49
100
AcDbEntity
  8
0
  6
Continuous
 62
   174
100
AcDbCircle
 10
252.418058
 20
114.132709
 30
0.0
 40
2.6
100
AcDbArc
 50
-265.156
 51
-94.844
  0
LINE
  5
4A
100
AcDbEntity
  8
0
  6
Continuous
 62
   174
100
AcDbLine
 10
252.198506
 20
116.723423
 30
0.0
 11
252.198506
 21
111.541996
 31
0.0
  0
LINE
  5
4B
100
AcDbEntity
  8
0
  6
Continuous
 62
   174
100
AcDbLine
 10
247.418058
 20
99.132709
 30
0.0
 11
247.418058
 21
129.132709
 31
0.0
  0
LINE
  5
4C
100
AcDbEntity
  8
0
  6
Continuous
 62
   174
100
AcDbLine
 10
183.418058
 20
129.132709
 30
0.0
 11
167.418058
 21
129.132709
 31
0.0
  0
ARC
  5
4D
100
AcDbEntity
  8
0
  6
Continuous
 62
   174
100
AcDbCircle
 10
206.418058
 20
121.132709
 30
0.0
 40
4.375
100
AcDbArc
 50
0.0
 51
180.0
  0
ARC
  5
4E
100
AcDbEntity
  8
0
  6
Continuous
 62
   174
100
AcDbCircle
 10
152.418058
 20
114.132709
 30
0.0
 40
3.4
100
AcDbArc
 50
-270.0
 51
-90.0
  0
ARC
  5
4F
100
AcDbEntity
  8
0
  6
Continuous
 62
   174
100
AcDbCircle
 10
215.418058
 20
107.132709
 30
0.0
 40
4.375
100
AcDbArc
 50
0.0
 51
180.0
  0
ARC
  5
50
100
AcDbEntity
  8
0
  6
Continuous
 62
   174
100
AcDbCircle
 10
215.418058
 20
107.132709
 30
0.0
 40
4.375
100
AcDbArc
 50
-180.0
 51
0.0
  0
ARC
  5
51
100
AcDbEntity
  8
0
  6
Continuous
 62
   174
100
AcDbCircle
 10
233.418058
 20
107.132709
 30
0.0
 40
4.375
100
AcDbArc
 50
0.0
 51
180.0
  0
ARC
  5
52
100
AcDbEntity
  8
0
  6
Continuous
 62
   174
100
AcDbCircle
 10
233.418058
 20
107.132709
 30
0.0
 40
4.375
100
AcDbArc
 50
-180.0
 51
0.0
  0
LINE
  5
53
100
AcDbEntity
  8
0
  6
Continuous
 62
   174
100
AcDbLine
 10
304.918058
 20
120.632709
 30
0.0
 11
307.918058
 21
120.632709
 31
0.0
  0
LINE
  5
54
100
AcDbEntity
  8
0
  6
Continuous
 62
   174
100
AcDbLine
 10
122.918058
 20
105.132709
 30
0.0
 11
122.218058
 21
105.132709
 31
0.0
  0
LINE
  5
55
100
AcDbEntity
  8
0
  6
Continuous
 62
   174
100
AcDbLine
 10
122.918058
 20
123.132709
 30
0.0
 11
122.218058
 21
123.132709
 31
0.0
  0
LINE
  5
56
100
AcDbEntity
  8
0
  6
Continuous
 62
   174
100
AcDbLine
 10
252.593925
 20
111.538664
 30
0.0
 11
252.593925
 21
116.726755
 31
0.0
  0
LINE
  5
57
100
AcDbEntity
  8
0
  6
Continuous
 62
   174
100
AcDbLine
 10
183.418058
 20
99.132709
 30
0.0
 11
183.418058
 21
129.132709
 31
0.0
  0
LINE
  5
58
100
AcDbEntity
  8
0
  6
Continuous
 62
   174
100
AcDbLine
 10
266.918058
 20
124.632709
 30
0.0
 11
289.918058
 21
124.632709
 31
0.0
  0
LINE
  5
59
100
AcDbEntity
  8
0
  6
Continuous
 62
   174
100
AcDbLine
 10
304.918058
 20
120.632709
 30
0.0
 11
307.918058
 21
120.632709
 31
0.0
  0
LINE
  5
5A
100
AcDbEntity
  8
0
  6
Continuous
 62
   174
100
AcDbLine
 10
125.918058
 20
120.632709
 30
0.0
 11
122.918058
 21
120.632709
 31
0.0
  0
LINE
  5
5B
100
AcDbEntity
  8
0
  6
Continuous
 62
   174
100
AcDbLine
 10
167.418058
 20
99.132709
 30
0.0
 11
167.418058
 21
129.132709
 31
0.0
  0
LINE
  5
5C
100
AcDbEntity
  8
0
  6
Continuous
 62
   174
100
AcDbLine
 10
247.418058
 20
129.132709
 30
0.0
 11
263.418058
 21
129.132709
 31
0.0
  0
LINE
  5
5D
100
AcDbEntity
  8
0
  6
Continuous
 62
   174
100
AcDbLine
 10
125.918058
 20
107.569885
 30
0.0
 11
125.918058
 21
106.176295
 31
0.0
  0
LINE
  5
5E
100
AcDbEntity
  8
0
  6
Continuous
 62
   174
100
AcDbLine
 10
125.918058
 20
122.175393
 30
0.0
 11
125.918058
 21
120.781803
 31
0.0
  0
LINE
  5
5F
100
AcDbEntity
  8
0
  6
Continuous
 62
   174
100
AcDbLine
 10
125.918058
 20
120.781803
 30
0.0
 11
125.918058
 21
107.569885
 31
0.0
  0
LINE
  5
60
100
AcDbEntity
  8
0
  6
Continuous
 62
   174
100
AcDbLine
 10
154.674326
 20
112.155526
 30
0.0
 11
150.440875
 21
116.388978
 31
0.0
  0
LINE
  5
61
100
AcDbEntity
  8
0
  6
Continuous
 62
   174
100
AcDbLine
 10
125.918058
 20
107.632709
 30
0.0
 11
122.918058
 21
107.632709
 31
0.0
  0
LINE
  5
62
100
AcDbEntity
  8
0
  6
Continuous
 62
   174
100
AcDbLine
 10
307.918058
 20
105.132709
 30
0.0
 11
308.618058
 21
105.132709
 31
0.0
  0
LINE
  5
63
100
AcDbEntity
  8
0
  6
Continuous
 62
   174
100
AcDbLine
 10
137.918058
 20
106.632709
 30
0.0
 11
137.918058
 21
107.887711
 31
0.0
  0
LINE
  5
64
100
AcDbEntity
  8
0
  6
Continuous
 62
   174
100
AcDbLine
 10
163.918058
 20
103.632709
 30
0.0
 11
140.918058
 21
103.632709
 31
0.0
  0
LINE
  5
65
100
AcDbEntity
  8
0
  6
Continuous
 62
   174
100
AcDbLine
 10
140.918058
 20
124.632709
 30
0.0
 11
163.918058
 21
124.632709
 31
0.0
  0
LINE
  5
66
100
AcDbEntity
  8
0
  6
Continuous
 62
   174
100
AcDbLine
 10
183.418058
 20
99.132709
 30
0.0
 11
247.418058
 21
99.132709
 31
0.0
  0
LINE
  5
67
100
AcDbEntity
  8
0
  6
Continuous
 62
   174
100
AcDbLine
 10
304.918058
 20
106.176295
 30
0.0
 11
304.918058
 21
107.569885
 31
0.0
  0
LINE
  5
68
100
AcDbEntity
  8
0
  6
Continuous
 62
   174
100
AcDbLine
 10
307.918058
 20
107.462039
 30
0.0
 11
307.918058
 21
105.176539
 31
0.0
  0
ARC
  5
69
100
AcDbEntity
  8
0
  6
Continuous
 62
   174
100
AcDbCircle
 10
278.418058
 20
114.132709
 30
0.0
 40
3.4
100
AcDbArc
 50
-90.0
 51
90.0
  0
ARC
  5
6A
100
AcDbEntity
  8
0
  6
Continuous
 62
   174
100
AcDbCircle
 10
278.418058
 20
114.132709
 30
0.0
 40
3.4
100
AcDbArc
 50
-270.0
 51
-90.0
  0
LINE
  5
6B
100
AcDbEntity
  8
0
  6
Continuous
 62
   174
100
AcDbLine
 10
304.918058
 20
106.132709
 30
0.0
 11
292.876098
 21
106.132709
 31
0.0
  0
LINE
  5
6C
100
AcDbEntity
  8
0
  6
Continuous
 62
   174
100
AcDbLine
 10
125.918058
 20
122.132709
 30
0.0
 11
137.960018
 21
122.132709
 31
0.0
  0
LINE
  5
6D
100
AcDbEntity
  8
0
  6
Continuous
 62
   174
100
AcDbLine
 10
292.918058
 20
121.632709
 30
0.0
 11
292.918058
 21
120.377707
 31
0.0
  0
LINE
  5
6E
100
AcDbEntity
  8
0
  6
Continuous
 62
   174
100
AcDbLine
 10
125.918058
 20
120.632709
 30
0.0
 11
122.918058
 21
120.632709
 31
0.0
  0
LINE
  5
6F
100
AcDbEntity
  8
0
  6
Continuous
 62
   174
100
AcDbLine
 10
307.918058
 20
105.132709
 30
0.0
 11
308.618058
 21
105.132709
 31
0.0
  0
ARC
  5
70
100
AcDbEntity
  8
0
  6
Continuous
 62
   174
100
AcDbCircle
 10
240.418058
 20
124.132709
 30
0.0
 40
3.75
100
AcDbArc
 50
-180.0
 51
0.0
  0
ARC
  5
71
100
AcDbEntity
  8
0
  6
Continuous
 62
   174
100
AcDbCircle
 10
190.418058
 20
124.132709
 30
0.0
 40
3.75
100
AcDbArc
 50
0.0
 51
180.0
  0
LINE
  5
72
100
AcDbEntity
  8
0
  6
Continuous
 62
   174
100
AcDbLine
 10
304.918058
 20
106.132709
 30
0.0
 11
292.876098
 21
106.132709
 31
0.0
  0
LINE
  5
73
100
AcDbEntity
  8
0
  6
Continuous
 62
   174
100
AcDbLine
 10
125.918058
 20
122.132709
 30
0.0
 11
137.960018
 21
122.132709
 31
0.0
  0
LINE
  5
74
100
AcDbEntity
  8
0
  6
Continuous
 62
   174
100
AcDbLine
 10
178.63761
 20
111.541996
 30
0.0
 11
178.63761
 21
116.723423
 31
0.0
  0
LINE
  5
75
100
AcDbEntity
  8
0
  6
Continuous
 62
   174
100
AcDbLine
 10
166.918058
 20
121.632709
 30
0.0
 11
166.918058
 21
106.632709
 31
0.0
  0
LINE
  5
76
100
AcDbEntity
  8
0
  6
Continuous
 62
   174
100
AcDbLine
 10
183.418058
 20
129.132709
 30
0.0
 11
183.418058
 21
99.132709
 31
0.0
  0
LINE
  5
77
100
AcDbEntity
  8
0
  6
Continuous
 62
   174
100
AcDbLine
 10
289.918058
 20
103.632709
 30
0.0
 11
266.918058
 21
103.632709
 31
0.0
  0
LINE
  5
78
100
AcDbEntity
  8
0
  6
Continuous
 62
   174
100
AcDbLine
 10
122.918058
 20
120.889649
 30
0.0
 11
122.918058
 21
123.175149
 31
0.0
  0
LINE
  5
79
100
AcDbEntity
  8
0
  6
Continuous
 62
   174
100
AcDbLine
 10
280.804905
 20
112.315304
 30
0.0
 11
276.600653
 21
116.519557
 31
0.0
  0
LINE
  5
7A
100
AcDbEntity
  8
0
  6
Continuous
 62
   174
100
AcDbLine
 10
304.918058
 20
107.632709
 30
0.0
 11
307.918058
 21
107.632709
 31
0.0
  0
LINE
  5
7B
100
AcDbEntity
  8
0
  6
Continuous
 62
   174
100
AcDbLine
 10
307.918058
 20
123.132709
 30
0.0
 11
308.618058
 21
123.132709
 31
0.0
  0
LINE
  5
7C
100
AcDbEntity
  8
0
  6
Continuous
 62
   174
100
AcDbLine
 10
122.918058
 20
105.132709
 30
0.0
 11
122.218058
 21
105.132709
 31
0.0
  0
LINE
  5
7D
100
AcDbEntity
  8
0
  6
Continuous
 62
   174
100
AcDbLine
 10
122.918058
 20
123.132709
 30
0.0
 11
122.218058
 21
123.132709
 31
0.0
  0
LINE
  5
7E
100
AcDbEntity
  8
0
  6
Continuous
 62
   174
100
AcDbLine
 10
125.918058
 20
106.132709
 30
0.0
 11
137.960018
 21
106.132709
 31
0.0
  0
LINE
  5
7F
100
AcDbEntity
  8
0
  6
Continuous
 62
   174
100
AcDbLine
 10
178.24219
 20
116.726755
 30
0.0
 11
178.24219
 21
111.538664
 31
0.0
  0
LINE
  5
80
100
AcDbEntity
  8
0
  6
Continuous
 62
   174
100
AcDbLine
 10
263.918058
 20
106.632709
 30
0.0
 11
263.918058
 21
121.632709
 31
0.0
  0
LINE
  5
81
100
AcDbEntity
  8
0
  6
Continuous
 62
   174
100
AcDbLine
 10
247.418058
 20
129.132709
 30
0.0
 11
247.418058
 21
99.132709
 31
0.0
  0
LINE
  5
82
100
AcDbEntity
  8
0
  6
Continuous
 62
   174
100
AcDbLine
 10
263.418058
 20
129.132709
 30
0.0
 11
263.418058
 21
99.132709
 31
0.0
  0
LINE
  5
83
100
AcDbEntity
  8
0
  6
Continuous
 62
   174
100
AcDbLine
 10
247.418058
 20
99.132709
 30
0.0
 11
263.418058
 21
99.132709
 31
0.0
  0
LINE
  5
84
100
AcDbEntity
  8
0
  6
Continuous
 62
   174
100
AcDbLine
 10
304.918058
 20
120.781803
 30
0.0
 11
304.918058
 21
122.175393
 31
0.0
  0
LINE
  5
85
100
AcDbEntity
  8
0
  6
Continuous
 62
   174
100
AcDbLine
 10
304.918058
 20
107.569885
 30
0.0
 11
304.918058
 21
120.781803
 31
0.0
  0
LINE
  5
86
100
AcDbEntity
  8
0
  6
Continuous
 62
   174
100
AcDbLine
 10
307.918058
 20
123.175149
 30
0.0
 11
307.918058
 21
120.889649
 31
0.0
  0
LINE
  5
87
100
AcDbEntity
  8
0
  6
Continuous
 62
   174
100
AcDbLine
 10
307.918058
 20
120.889649
 30
0.0
 11
307.918058
 21
107.462039
 31
0.0
  0
ARC
  5
88
100
AcDbEntity
  8
0
  6
Continuous
 62
   174
100
AcDbCircle
 10
152.418058
 20
114.132709
 30
0.0
 40
3.4
100
AcDbArc
 50
-90.0
 51
90.0
  0
ARC
  5
89
100
AcDbEntity
  8
0
  6
Continuous
 62
   174
100
AcDbCircle
 10
278.418058
 20
114.132709
 30
0.0
 40
3.0
100
AcDbArc
 50
-37.286546
 51
127.286546
  0
ARC
  5
8A
100
AcDbEntity
  8
0
  6
Continuous
 62
   174
100
AcDbCircle
 10
152.418058
 20
114.132709
 30
0.0
 40
3.0
100
AcDbArc
 50
-217.286546
 51
-52.713454
  0
LINE
  5
8B
100
AcDbEntity
  8
0
  6
Continuous
 62
   174
100
AcDbLine
 10
150.03121
 20
115.950114
 30
0.0
 11
154.235462
 21
111.745862
 31
0.0
  0
ARC
  5
8C
100
AcDbEntity
  8
0
  6
Continuous
 62
   174
100
AcDbCircle
 10
278.418058
 20
114.132709
 30
0.0
 40
3.0
100
AcDbArc
 50
-221.228296
 51
-48.771704
  0
ARC
  5
8D
100
AcDbEntity
  8
0
  6
Continuous
 62
   174
100
AcDbCircle
 10
152.418058
 20
114.132709
 30
0.0
 40
3.0
100
AcDbArc
 50
-41.228296
 51
131.228296
  0
LINE
  5
8E
100
AcDbEntity
  8
0
  6
Continuous
 62
   174
100
AcDbLine
 10
276.161789
 20
116.109892
 30
0.0
 11
280.395241
 21
111.876441
 31
0.0
  0
LINE
  5
8F
100
AcDbEntity
  8
0
  6
Continuous
 62
   174
100
AcDbLine
 10
304.918058
 20
107.632709
 30
0.0
 11
307.918058
 21
107.632709
 31
0.0
  0
LINE
  5
90
100
AcDbEntity
  8
0
  6
Continuous
 62
   174
100
AcDbLine
 10
125.918058
 20
107.632709
 30
0.0
 11
122.918058
 21
107.632709
 31
0.0
  0
LINE
  5
91
100
AcDbEntity
  8
0
  6
Continuous
 62
   174
100
AcDbLine
 10
312.418058
 20
106.332709
 30
0.0
 11
312.319461
 21
106.161936
 31
0.0
  0
LINE
  5
92
100
AcDbEntity
  8
0
  6
Continuous
 62
   174
100
AcDbLine
 10
304.918058
 20
122.132709
 30
0.0
 11
292.876098
 21
122.132709
 31
0.0
  0
LINE
  5
93
100
AcDbEntity
  8
0
  6
Continuous
 62
   174
100
AcDbLine
 10
125.918058
 20
106.132709
 30
0.0
 11
137.960018
 21
106.132709
 31
0.0
  0
ARC
  5
94
100
AcDbEntity
  8
0
  6
Continuous
 62
   174
100
AcDbCircle
 10
252.418058
 20
114.132709
 30
0.0
 40
3.0
100
AcDbArc
 50
-90.0
 51
90.0
  0
ARC
  5
95
100
AcDbEntity
  8
0
  6
Continuous
 62
   174
100
AcDbCircle
 10
178.418058
 20
114.132709
 30
0.0
 40
3.0
100
AcDbArc
 50
-270.0
 51
-90.0
  0
ARC
  5
96
100
AcDbEntity
  8
0
  6
Continuous
 62
   174
100
AcDbCircle
 10
178.418058
 20
114.132709
 30
0.0
 40
3.0
100
AcDbArc
 50
-90.0
 51
90.0
  0
ARC
  5
97
100
AcDbEntity
  8
0
  6
Continuous
 62
   174
100
AcDbCircle
 10
252.418058
 20
114.132709
 30
0.0
 40
2.6
100
AcDbArc
 50
-86.121475
 51
86.121475
  0
ARC
  5
98
100
AcDbEntity
  8
0
  6
Continuous
 62
   174
100
AcDbCircle
 10
178.418058
 20
114.132709
 30
0.0
 40
2.6
100
AcDbArc
 50
-266.121475
 51
-93.878525
  0
ARC
  5
99
100
AcDbEntity
  8
0
  6
Continuous
 62
   174
100
AcDbCircle
 10
178.418058
 20
114.132709
 30
0.0
 40
2.6
100
AcDbArc
 50
-85.156
 51
85.156
  0
LINE
  5
9A
100
AcDbEntity
  8
0
  6
Continuous
 62
   174
100
AcDbLine
 10
247.418058
 20
129.132709
 30
0.0
 11
183.418058
 21
129.132709
 31
0.0
  0
LINE
  5
9B
100
AcDbEntity
  8
0
  6
Continuous
 62
   174
100
AcDbLine
 10
183.418058
 20
99.132709
 30
0.0
 11
167.418058
 21
99.132709
 31
0.0
  0
LINE
  5
9C
100
AcDbEntity
  8
0
  6
Continuous
 62
   174
100
AcDbLine
 10
122.218058
 20
122.014074
 30
0.0
 11
122.218058
 21
114.086022
 31
0.0
  0
LWPOLYLINE
  5
9D
100
AcDbEntity
  8
0
  6
Continuous
 62
   174
100
AcDbPolyline
 90
        6
 70
   128
 10
137.918058
 20
107.887711
 10
138.0904
 20
108.843673
 10
138.542201
 20
109.970113
 10
139.205271
 20
111.251103
 10
140.013801
 20
112.64512
 10
140.918058
 20
114.132709
  0
LINE
  5
9E
100
AcDbEntity
  8
0
  6
Continuous
 62
   174
100
AcDbLine
 10
266.918058
 20
121.632709
 30
0.0
 11
289.918058
 21
121.632709
 31
0.0
  0
LINE
  5
9F
100
AcDbEntity
  8
0
  6
Continuous
 62
   174
100
AcDbLine
 10
312.418058
 20
111.030431
 30
0.0
 11
312.418058
 21
109.486115
 31
0.0
  0
LINE
  5
A0
100
AcDbEntity
  8
0
  6
Continuous
 62
   174
100
AcDbLine
 10
266.918058
 20
103.632709
 30
0.0
 11
289.918058
 21
103.632709
 31
0.0
  0
LINE
  5
A1
100
AcDbEntity
  8
0
  6
Continuous
 62
   174
100
AcDbLine
 10
266.943526
 20
106.632709
 30
0.0
 11
263.943658
 21
106.632709
 31
0.0
  0
LWPOLYLINE
  5
A2
100
AcDbEntity
  8
0
  6
Continuous
 62
   174
100
AcDbPolyline
 90
        4
 70
   128
 10
312.418058
 20
109.486115
 10
312.284937
 20
108.432406
 10
312.051855
 20
107.373994
 10
311.725237
 20
106.293903
  0
LWPOLYLINE
  5
A3
100
AcDbEntity
  8
0
  6
Continuous
 62
   174
100
AcDbPolyline
 90
        4
 70
   128
 10
118.418058
 20
118.779304
 10
118.551178
 20
119.833012
 10
118.784261
 20
120.891425
 10
119.110878
 20
121.971516
  0
LWPOLYLINE
  5
A4
100
AcDbEntity
  8
0
  6
Continuous
 62
   174
100
AcDbPolyline
 90
        6
 70
   128
 10
292.918058
 20
120.377707
 10
292.745715
 20
119.421746
 10
292.293915
 20
118.295306
 10
291.630844
 20
117.014315
 10
290.822314
 20
115.620299
 10
289.918058
 20
114.132709
  0
LINE
  5
A5
100
AcDbEntity
  8
0
  6
Continuous
 62
   174
100
AcDbLine
 10
294.918058
 20
104.289136
 30
0.0
 11
294.918058
 21
104.176483
 31
0.0
  0
LINE
  5
A6
100
AcDbEntity
  8
0
  6
Continuous
 62
   174
100
AcDbLine
 10
136.418058
 20
104.132709
 30
0.0
 11
137.418058
 21
104.132709
 31
0.0
  0
ARC
  5
A7
100
AcDbEntity
  8
0
  6
Continuous
 62
   174
100
AcDbCircle
 10
266.918058
 20
121.632709
 30
0.0
 40
3.0
100
AcDbArc
 50
-270.0
 51
-180.0
  0
LWPOLYLINE
  5
A8
100
AcDbEntity
  8
0
  6
Continuous
 62
   174
100
AcDbPolyline
 90
        7
 70
   128
 10
311.725237
 20
121.881582
 10
312.091364
 20
120.579616
 10
312.319462
 20
119.303014
 10
312.396365
 20
118.052043
 10
312.319447
 20
116.801088
 10
312.091347
 20
115.524533
 10
311.725237
 20
114.222643
  0
LINE
  5
A9
100
AcDbEntity
  8
0
  6
Continuous
 62
   174
100
AcDbLine
 10
301.118058
 20
105.520079
 30
0.0
 11
294.918058
 21
105.520079
 31
0.0
  0
LINE
  5
AA
100
AcDbEntity
  8
0
  6
Continuous
 62
   174
100
AcDbLine
 10
135.918058
 20
104.289136
 30
0.0
 11
135.918058
 21
104.494014
 31
0.0
  0
LINE
  5
AB
100
AcDbEntity
  8
0
  6
Continuous
 62
   174
100
AcDbLine
 10
266.918058
 20
106.676474
 30
0.0
 11
266.918058
 21
103.676605
 31
0.0
  0
LINE
  5
AC
100
AcDbEntity
  8
0
  6
Continuous
 62
   174
100
AcDbLine
 10
289.918058
 20
121.632709
 30
0.0
 11
289.918058
 21
114.132709
 31
0.0
  0
LINE
  5
AD
100
AcDbEntity
  8
0
  6
Continuous
 62
   174
100
AcDbLine
 10
163.943739
 20
121.632709
 30
0.0
 11
166.943607
 21
121.632709
 31
0.0
  0
LINE
  5
AE
100
AcDbEntity
  8
0
  6
Continuous
 62
   174
100
AcDbLine
 10
122.918058
 20
107.462039
 30
0.0
 11
122.918058
 21
120.889649
 31
0.0
  0
LWPOLYLINE
  5
AF
100
AcDbEntity
  8
0
  6
Continuous
 62
   174
100
AcDbPolyline
 90
        4
 70
   128
 10
311.725237
 20
114.222643
 10
312.053138
 20
113.137674
 10
312.285892
 20
112.078675
 10
312.418058
 20
111.030431
  0
LINE
  5
B0
100
AcDbEntity
  8
0
  6
Continuous
 62
   174
100
AcDbLine
 10
301.118058
 20
123.815168
 30
0.0
 11
294.918058
 21
123.815168
 31
0.0
  0
LWPOLYLINE
  5
B1
100
AcDbEntity
  8
0
  6
Continuous
 62
   174
100
AcDbPolyline
 90
        7
 70
   128
 10
119.110878
 20
106.383837
 10
118.744751
 20
107.685803
 10
118.516653
 20
108.962405
 10
118.43975
 20
110.213375
 10
118.516668
 20
111.46433
 10
118.744769
 20
112.740885
 10
119.110878
 20
114.042776
  0
LINE
  5
B2
100
AcDbEntity
  8
0
  6
Continuous
 62
   174
100
AcDbLine
 10
294.918058
 20
124.062552
 30
0.0
 11
294.918058
 21
123.857675
 31
0.0
  0
LINE
  5
B3
100
AcDbEntity
  8
0
  6
Continuous
 62
   174
100
AcDbLine
 10
163.918058
 20
103.676605
 30
0.0
 11
163.918058
 21
106.676474
 31
0.0
  0
LINE
  5
B4
100
AcDbEntity
  8
0
  6
Continuous
 62
   174
100
AcDbLine
 10
135.918058
 20
104.132709
 30
0.0
 11
136.418058
 21
104.132709
 31
0.0
  0
LINE
  5
B5
100
AcDbEntity
  8
0
  6
Continuous
 62
   174
100
AcDbLine
 10
122.218058
 20
114.086022
 30
0.0
 11
122.218058
 21
106.427436
 31
0.0
  0
LINE
  5
B6
100
AcDbEntity
  8
0
  6
Continuous
 62
   174
100
AcDbLine
 10
301.118058
 20
122.747106
 30
0.0
 11
294.918058
 21
122.747106
 31
0.0
  0
LINE
  5
B7
100
AcDbEntity
  8
0
  6
Continuous
 62
   174
100
AcDbLine
 10
289.918058
 20
106.676474
 30
0.0
 11
289.918058
 21
103.676605
 31
0.0
  0
LWPOLYLINE
  5
B8
100
AcDbEntity
  8
0
  6
Continuous
 62
   174
100
AcDbPolyline
 90
        4
 70
   128
 10
119.110878
 20
114.042776
 10
118.782977
 20
115.127745
 10
118.550223
 20
116.186743
 10
118.418058
 20
117.234988
  0
LINE
  5
B9
100
AcDbEntity
  8
0
  6
Continuous
 62
   174
100
AcDbLine
 10
129.718058
 20
105.518313
 30
0.0
 11
135.918058
 21
105.518313
 31
0.0
  0
LINE
  5
BA
100
AcDbEntity
  8
0
  6
Continuous
 62
   174
100
AcDbLine
 10
289.918058
 20
106.632709
 30
0.0
 11
266.918058
 21
106.632709
 31
0.0
  0
ARC
  5
BB
100
AcDbEntity
  8
0
  6
Continuous
 62
   174
100
AcDbCircle
 10
266.918058
 20
106.632709
 30
0.0
 40
3.0
100
AcDbArc
 50
-180.0
 51
-90.0
  0
LINE
  5
BC
100
AcDbEntity
  8
0
  6
Continuous
 62
   174
100
AcDbLine
 10
263.918058
 20
121.632709
 30
0.0
 11
263.918058
 21
106.632709
 31
0.0
  0
ARC
  5
BD
100
AcDbEntity
  8
0
  6
Continuous
 62
   174
100
AcDbCircle
 10
289.918058
 20
121.632709
 30
0.0
 40
3.0
100
AcDbArc
 50
0.0
 51
90.0
  0
LWPOLYLINE
  5
BE
100
AcDbEntity
  8
0
  6
Continuous
 62
   174
100
AcDbPolyline
 90
        6
 70
   128
 10
289.918058
 20
114.132709
 10
290.823374
 20
112.643349
 10
291.631679
 20
111.2496
 10
292.293527
 20
109.970939
 10
292.745352
 20
108.844835
 10
292.918058
 20
107.887711
  0
ARC
  5
BF
100
AcDbEntity
  8
0
  6
Continuous
 62
   174
100
AcDbCircle
 10
140.918058
 20
106.632709
 30
0.0
 40
3.0
100
AcDbArc
 50
-180.0
 51
-90.0
  0
LINE
  5
C0
100
AcDbEntity
  8
0
  6
Continuous
 62
   174
100
AcDbLine
 10
163.918058
 20
121.675215
 30
0.0
 11
163.918058
 21
124.675083
 31
0.0
  0
LINE
  5
C1
100
AcDbEntity
  8
0
  6
Continuous
 62
   174
100
AcDbLine
 10
122.918058
 20
105.176539
 30
0.0
 11
122.918058
 21
107.462039
 31
0.0
  0
LINE
  5
C2
100
AcDbEntity
  8
0
  6
Continuous
 62
   174
100
AcDbLine
 10
312.421603
 20
106.293903
 30
0.0
 11
312.344999
 21
106.293903
 31
0.0
  0
LWPOLYLINE
  5
C3
100
AcDbEntity
  8
0
  6
Continuous
 62
   174
100
AcDbPolyline
 90
        6
 70
   128
 10
140.918058
 20
114.132709
 10
140.012742
 20
115.622069
 10
139.204437
 20
117.015818
 10
138.542589
 20
118.29448
 10
138.090763
 20
119.420584
 10
137.918058
 20
120.377707
  0
LINE
  5
C4
100
AcDbEntity
  8
0
  6
Continuous
 62
   174
100
AcDbLine
 10
294.918058
 20
124.175205
 30
0.0
 11
294.918058
 21
124.062552
 31
0.0
  0
ARC
  5
C5
100
AcDbEntity
  8
0
  6
Continuous
 62
   174
100
AcDbCircle
 10
163.918058
 20
106.632709
 30
0.0
 40
3.0
100
AcDbArc
 50
-90.0
 51
0.0
  0
LINE
  5
C6
100
AcDbEntity
  8
0
  6
Continuous
 62
   174
100
AcDbLine
 10
140.918058
 20
103.676605
 30
0.0
 11
140.918058
 21
106.676474
 31
0.0
  0
LINE
  5
C7
100
AcDbEntity
  8
0
  6
Continuous
 62
   174
100
AcDbLine
 10
129.718058
 20
122.745339
 30
0.0
 11
135.918058
 21
122.745339
 31
0.0
  0
LINE
  5
C8
100
AcDbEntity
  8
0
  6
Continuous
 62
   174
100
AcDbLine
 10
289.918058
 20
124.632709
 30
0.0
 11
266.918058
 21
124.632709
 31
0.0
  0
LINE
  5
C9
100
AcDbEntity
  8
0
  6
Continuous
 62
   174
100
AcDbLine
 10
301.118058
 20
105.520079
 30
0.0
 11
301.118058
 21
106.132709
 31
0.0
  0
LINE
  5
CA
100
AcDbEntity
  8
0
  6
Continuous
 62
   174
100
AcDbLine
 10
135.918058
 20
124.132709
 30
0.0
 11
136.418058
 21
124.132709
 31
0.0
  0
LINE
  5
CB
100
AcDbEntity
  8
0
  6
Continuous
 62
   174
100
AcDbLine
 10
289.943619
 20
106.632709
 30
0.0
 11
292.943788
 21
106.632709
 31
0.0
  0
LINE
  5
CC
100
AcDbEntity
  8
0
  6
Continuous
 62
   174
100
AcDbLine
 10
308.618058
 20
114.265666
 30
0.0
 11
308.618058
 21
121.924253
 31
0.0
  0
LINE
  5
CD
100
AcDbEntity
  8
0
  6
Continuous
 62
   174
100
AcDbLine
 10
122.218058
 20
114.042776
 30
0.0
 11
119.110878
 21
114.042776
 31
0.0
  0
LINE
  5
CE
100
AcDbEntity
  8
0
  6
Continuous
 62
   174
100
AcDbLine
 10
263.418058
 20
125.132709
 30
0.0
 11
293.418058
 21
125.132709
 31
0.0
  0
LINE
  5
CF
100
AcDbEntity
  8
0
  6
Continuous
 62
   174
100
AcDbLine
 10
118.418058
 20
117.277851
 30
0.0
 11
118.418058
 21
106.427436
 31
0.0
  0
LINE
  5
D0
100
AcDbEntity
  8
0
  6
Continuous
 62
   174
100
AcDbLine
 10
137.918058
 20
107.887711
 30
0.0
 11
137.918058
 21
106.632709
 31
0.0
  0
LINE
  5
D1
100
AcDbEntity
  8
0
  6
Continuous
 62
   174
100
AcDbLine
 10
163.918058
 20
124.632709
 30
0.0
 11
140.918058
 21
124.632709
 31
0.0
  0
LINE
  5
D2
100
AcDbEntity
  8
0
  6
Continuous
 62
   174
100
AcDbLine
 10
140.918058
 20
121.675215
 30
0.0
 11
140.918058
 21
124.675083
 31
0.0
  0
LINE
  5
D3
100
AcDbEntity
  8
0
  6
Continuous
 62
   174
100
AcDbLine
 10
308.618058
 20
106.337614
 30
0.0
 11
308.618058
 21
114.265666
 31
0.0
  0
LINE
  5
D4
100
AcDbEntity
  8
0
  6
Continuous
 62
   174
100
AcDbLine
 10
140.943646
 20
121.632709
 30
0.0
 11
137.943778
 21
121.632709
 31
0.0
  0
LINE
  5
D5
100
AcDbEntity
  8
0
  6
Continuous
 62
   174
100
AcDbLine
 10
294.918058
 20
122.789726
 30
0.0
 11
294.918058
 21
122.201529
 31
0.0
  0
LWPOLYLINE
  5
D6
100
AcDbEntity
  8
0
  6
Continuous
 62
   174
100
AcDbPolyline
 90
        3
 70
   128
 10
311.725237
 20
106.293903
 10
312.09134
 20
106.293903
 10
312.319439
 20
106.293903
  0
LINE
  5
D7
100
AcDbEntity
  8
0
  6
Continuous
 62
   174
100
AcDbLine
 10
163.918058
 20
121.632709
 30
0.0
 11
163.918058
 21
106.632709
 31
0.0
  0
LINE
  5
D8
100
AcDbEntity
  8
0
  6
Continuous
 62
   174
100
AcDbLine
 10
293.418058
 20
106.132709
 30
0.0
 11
293.418058
 21
103.132709
 31
0.0
  0
LINE
  5
D9
100
AcDbEntity
  8
0
  6
Continuous
 62
   174
100
AcDbLine
 10
129.718058
 20
104.450251
 30
0.0
 11
135.918058
 21
104.450251
 31
0.0
  0
LINE
  5
DA
100
AcDbEntity
  8
0
  6
Continuous
 62
   174
100
AcDbLine
 10
289.918058
 20
124.675083
 30
0.0
 11
289.918058
 21
121.675215
 31
0.0
  0
LWPOLYLINE
  5
DB
100
AcDbEntity
  8
0
  6
Continuous
 62
   174
100
AcDbPolyline
 90
        4
 70
   128
 10
118.418058
 20
106.383837
 10
118.551178
 20
106.383837
 10
118.784263
 20
106.383837
 10
119.110878
 20
106.383837
  0
LINE
  5
DC
100
AcDbEntity
  8
0
  6
Continuous
 62
   174
100
AcDbLine
 10
263.943658
 20
121.632709
 30
0.0
 11
266.943526
 21
121.632709
 31
0.0
  0
LINE
  5
DD
100
AcDbEntity
  8
0
  6
Continuous
 62
   174
100
AcDbLine
 10
308.618058
 20
105.176539
 30
0.0
 11
308.618058
 21
106.337614
 31
0.0
  0
LINE
  5
DE
100
AcDbEntity
  8
0
  6
Continuous
 62
   174
100
AcDbLine
 10
140.918058
 20
114.132709
 30
0.0
 11
140.918058
 21
121.632709
 31
0.0
  0
LINE
  5
DF
100
AcDbEntity
  8
0
  6
Continuous
 62
   174
100
AcDbLine
 10
118.418058
 20
117.234988
 30
0.0
 11
118.418058
 21
118.779304
 31
0.0
  0
LINE
  5
E0
100
AcDbEntity
  8
0
  6
Continuous
 62
   174
100
AcDbLine
 10
293.418058
 20
125.132709
 30
0.0
 11
293.418058
 21
122.132709
 31
0.0
  0
LINE
  5
E1
100
AcDbEntity
  8
0
  6
Continuous
 62
   174
100
AcDbLine
 10
166.943607
 20
106.632709
 30
0.0
 11
163.943739
 21
106.632709
 31
0.0
  0
LINE
  5
E2
100
AcDbEntity
  8
0
  6
Continuous
 62
   174
100
AcDbLine
 10
118.465962
 20
121.971516
 30
0.0
 11
118.542266
 21
121.971516
 31
0.0
  0
LINE
  5
E3
100
AcDbEntity
  8
0
  6
Continuous
 62
   174
100
AcDbLine
 10
135.918058
 20
122.201529
 30
0.0
 11
135.918058
 21
122.787924
 31
0.0
  0
LINE
  5
E4
100
AcDbEntity
  8
0
  6
Continuous
 62
   174
100
AcDbLine
 10
312.418058
 20
106.376367
 30
0.0
 11
312.418058
 21
109.529443
 31
0.0
  0
LINE
  5
E5
100
AcDbEntity
  8
0
  6
Continuous
 62
   174
100
AcDbLine
 10
163.918058
 20
106.632709
 30
0.0
 11
140.918058
 21
106.632709
 31
0.0
  0
LINE
  5
E6
100
AcDbEntity
  8
0
  6
Continuous
 62
   174
100
AcDbLine
 10
294.918058
 20
106.15016
 30
0.0
 11
294.918058
 21
105.563765
 31
0.0
  0
LINE
  5
E7
100
AcDbEntity
  8
0
  6
Continuous
 62
   174
100
AcDbLine
 10
166.918058
 20
106.632709
 30
0.0
 11
166.918058
 21
121.632709
 31
0.0
  0
LINE
  5
E8
100
AcDbEntity
  8
0
  6
Continuous
 62
   174
100
AcDbLine
 10
129.718058
 20
105.561962
 30
0.0
 11
129.718058
 21
104.494014
 31
0.0
  0
LINE
  5
E9
100
AcDbEntity
  8
0
  6
Continuous
 62
   174
100
AcDbLine
 10
119.110878
 20
106.383837
 30
0.0
 11
122.218058
 21
106.383837
 31
0.0
  0
LINE
  5
EA
100
AcDbEntity
  8
0
  6
Continuous
 62
   174
100
AcDbLine
 10
292.918058
 20
120.377707
 30
0.0
 11
292.918058
 21
121.632709
 31
0.0
  0
LINE
  5
EB
100
AcDbEntity
  8
0
  6
Continuous
 62
   174
100
AcDbLine
 10
266.918058
 20
124.675083
 30
0.0
 11
266.918058
 21
121.675215
 31
0.0
  0
LINE
  5
EC
100
AcDbEntity
  8
0
  6
Continuous
 62
   174
100
AcDbLine
 10
140.918058
 20
103.632709
 30
0.0
 11
163.918058
 21
103.632709
 31
0.0
  0
LINE
  5
ED
100
AcDbEntity
  8
0
  6
Continuous
 62
   174
100
AcDbLine
 10
137.943778
 20
106.632709
 30
0.0
 11
140.943646
 21
106.632709
 31
0.0
  0
LINE
  5
EE
100
AcDbEntity
  8
0
  6
Continuous
 62
   174
100
AcDbLine
 10
118.418058
 20
121.975322
 30
0.0
 11
118.418058
 21
118.822246
 31
0.0
  0
LINE
  5
EF
100
AcDbEntity
  8
0
  6
Continuous
 62
   174
100
AcDbLine
 10
129.718058
 20
106.132709
 30
0.0
 11
129.718058
 21
105.518313
 31
0.0
  0
LINE
  5
F0
100
AcDbEntity
  8
0
  6
Continuous
 62
   174
100
AcDbLine
 10
294.418058
 20
124.132709
 30
0.0
 11
293.418058
 21
124.132709
 31
0.0
  0
LINE
  5
F1
100
AcDbEntity
  8
0
  6
Continuous
 62
   174
100
AcDbLine
 10
135.918058
 20
124.062552
 30
0.0
 11
135.918058
 21
124.175205
 31
0.0
  0
LINE
  5
F2
100
AcDbEntity
  8
0
  6
Continuous
 62
   174
100
AcDbLine
 10
312.418058
 20
111.073837
 30
0.0
 11
312.418058
 21
121.924253
 31
0.0
  0
LINE
  5
F3
100
AcDbEntity
  8
0
  6
Continuous
 62
   174
100
AcDbLine
 10
137.418058
 20
122.132709
 30
0.0
 11
137.418058
 21
125.132709
 31
0.0
  0
LINE
  5
F4
100
AcDbEntity
  8
0
  6
Continuous
 62
   174
100
AcDbLine
 10
129.718058
 20
123.856773
 30
0.0
 11
129.718058
 21
122.787924
 31
0.0
  0
LINE
  5
F5
100
AcDbEntity
  8
0
  6
Continuous
 62
   174
100
AcDbLine
 10
140.918058
 20
121.632709
 30
0.0
 11
163.918058
 21
121.632709
 31
0.0
  0
LINE
  5
F6
100
AcDbEntity
  8
0
  6
Continuous
 62
   174
100
AcDbLine
 10
308.618058
 20
121.924253
 30
0.0
 11
308.618058
 21
123.175149
 31
0.0
  0
LINE
  5
F7
100
AcDbEntity
  8
0
  6
Continuous
 62
   174
100
AcDbLine
 10
129.718058
 20
123.814298
 30
0.0
 11
135.918058
 21
123.814298
 31
0.0
  0
LINE
  5
F8
100
AcDbEntity
  8
0
  6
Continuous
 62
   174
100
AcDbLine
 10
294.418058
 20
104.132709
 30
0.0
 11
293.418058
 21
104.132709
 31
0.0
  0
LINE
  5
F9
100
AcDbEntity
  8
0
  6
Continuous
 62
   174
100
AcDbLine
 10
292.918058
 20
106.632709
 30
0.0
 11
292.918058
 21
107.887711
 31
0.0
  0
LINE
  5
FA
100
AcDbEntity
  8
0
  6
Continuous
 62
   174
100
AcDbLine
 10
167.418058
 20
103.132709
 30
0.0
 11
137.418058
 21
103.132709
 31
0.0
  0
LINE
  5
FB
100
AcDbEntity
  8
0
  6
Continuous
 62
   174
100
AcDbLine
 10
122.218058
 20
123.175149
 30
0.0
 11
122.218058
 21
122.014074
 31
0.0
  0
LINE
  5
FC
100
AcDbEntity
  8
0
  6
Continuous
 62
   174
100
AcDbLine
 10
135.918058
 20
104.176483
 30
0.0
 11
135.918058
 21
104.289136
 31
0.0
  0
LINE
  5
FD
100
AcDbEntity
  8
0
  6
Continuous
 62
   174
100
AcDbLine
 10
135.918058
 20
123.856773
 30
0.0
 11
135.918058
 21
124.062552
 31
0.0
  0
LINE
  5
FE
100
AcDbEntity
  8
0
  6
Continuous
 62
   174
100
AcDbLine
 10
301.118058
 20
122.789726
 30
0.0
 11
301.118058
 21
123.857675
 31
0.0
  0
LINE
  5
FF
100
AcDbEntity
  8
0
  6
Continuous
 62
   174
100
AcDbLine
 10
140.918058
 20
106.632709
 30
0.0
 11
140.918058
 21
114.132709
 31
0.0
  0
LINE
  5
100
100
AcDbEntity
  8
0
  6
Continuous
 62
   174
100
AcDbLine
 10
294.418058
 20
104.132709
 30
0.0
 11
293.418058
 21
104.132709
 31
0.0
  0
LINE
  5
101
100
AcDbEntity
  8
0
  6
Continuous
 62
   174
100
AcDbLine
 10
293.418058
 20
103.132709
 30
0.0
 11
263.418058
 21
103.132709
 31
0.0
  0
LWPOLYLINE
  5
102
100
AcDbEntity
  8
0
  6
Continuous
 62
   174
100
AcDbPolyline
 90
        4
 70
   128
 10
312.418058
 20
121.881582
 10
312.284937
 20
121.881582
 10
312.051852
 20
121.881582
 10
311.725237
 20
121.881582
  0
LINE
  5
103
100
AcDbEntity
  8
0
  6
Continuous
 62
   174
100
AcDbLine
 10
129.718058
 20
122.745339
 30
0.0
 11
129.718058
 21
122.132709
 31
0.0
  0
LINE
  5
104
100
AcDbEntity
  8
0
  6
Continuous
 62
   174
100
AcDbLine
 10
137.418058
 20
125.132709
 30
0.0
 11
167.418058
 21
125.132709
 31
0.0
  0
LINE
  5
105
100
AcDbEntity
  8
0
  6
Continuous
 62
   174
100
AcDbLine
 10
289.918058
 20
114.132709
 30
0.0
 11
289.918058
 21
106.632709
 31
0.0
  0
LINE
  5
106
100
AcDbEntity
  8
0
  6
Continuous
 62
   174
100
AcDbLine
 10
292.943788
 20
121.632709
 30
0.0
 11
289.943619
 21
121.632709
 31
0.0
  0
LINE
  5
107
100
AcDbEntity
  8
0
  6
Continuous
 62
   174
100
AcDbLine
 10
308.618058
 20
106.293903
 30
0.0
 11
311.725237
 21
106.293903
 31
0.0
  0
LINE
  5
108
100
AcDbEntity
  8
0
  6
Continuous
 62
   174
100
AcDbLine
 10
294.918058
 20
124.132709
 30
0.0
 11
294.418058
 21
124.132709
 31
0.0
  0
LINE
  5
109
100
AcDbEntity
  8
0
  6
Continuous
 62
   174
100
AcDbLine
 10
135.918058
 20
105.561962
 30
0.0
 11
135.918058
 21
106.15016
 31
0.0
  0
LINE
  5
10A
100
AcDbEntity
  8
0
  6
Continuous
 62
   174
100
AcDbLine
 10
137.418058
 20
103.132709
 30
0.0
 11
137.418058
 21
106.132709
 31
0.0
  0
LINE
  5
10B
100
AcDbEntity
  8
0
  6
Continuous
 62
   174
100
AcDbLine
 10
122.218058
 20
106.427436
 30
0.0
 11
122.218058
 21
105.176539
 31
0.0
  0
LINE
  5
10C
100
AcDbEntity
  8
0
  6
Continuous
 62
   174
100
AcDbLine
 10
136.418058
 20
124.132709
 30
0.0
 11
137.418058
 21
124.132709
 31
0.0
  0
LINE
  5
10D
100
AcDbEntity
  8
0
  6
Continuous
 62
   174
100
AcDbLine
 10
301.118058
 20
104.494915
 30
0.0
 11
301.118058
 21
105.563765
 31
0.0
  0
LINE
  5
10E
100
AcDbEntity
  8
0
  6
Continuous
 62
   174
100
AcDbLine
 10
308.618058
 20
114.222643
 30
0.0
 11
311.725237
 21
114.222643
 31
0.0
  0
LINE
  5
10F
100
AcDbEntity
  8
0
  6
Continuous
 62
   174
100
AcDbLine
 10
122.218058
 20
121.971516
 30
0.0
 11
119.110878
 21
121.971516
 31
0.0
  0
LINE
  5
110
100
AcDbEntity
  8
0
  6
Continuous
 62
   174
100
AcDbLine
 10
311.725237
 20
121.881582
 30
0.0
 11
308.618058
 21
121.881582
 31
0.0
  0
LINE
  5
111
100
AcDbEntity
  8
0
  6
Continuous
 62
   174
100
AcDbLine
 10
301.118058
 20
104.451121
 30
0.0
 11
294.918058
 21
104.451121
 31
0.0
  0
LINE
  5
112
100
AcDbEntity
  8
0
  6
Continuous
 62
   174
100
AcDbLine
 10
266.918058
 20
106.632709
 30
0.0
 11
266.918058
 21
121.632709
 31
0.0
  0
LINE
  5
113
100
AcDbEntity
  8
0
  6
Continuous
 62
   174
100
AcDbLine
 10
137.918058
 20
121.632709
 30
0.0
 11
137.918058
 21
120.377707
 31
0.0
  0
LINE
  5
114
100
AcDbEntity
  8
0
  6
Continuous
 62
   174
100
AcDbLine
 10
294.918058
 20
104.494915
 30
0.0
 11
294.918058
 21
104.289136
 31
0.0
  0
ARC
  5
115
100
AcDbEntity
  8
0
  6
Continuous
 62
   174
100
AcDbCircle
 10
140.918058
 20
121.632709
 30
0.0
 40
3.0
100
AcDbArc
 50
-270.0
 51
-180.0
  0
LINE
  5
116
100
AcDbEntity
  8
0
  6
Continuous
 62
   174
100
AcDbLine
 10
301.118058
 20
122.132709
 30
0.0
 11
301.118058
 21
122.747106
 31
0.0
  0
LINE
  5
117
100
AcDbEntity
  8
0
  6
Continuous
 62
   174
100
AcDbLine
 10
294.918058
 20
104.132709
 30
0.0
 11
294.418058
 21
104.132709
 31
0.0
  0
LWPOLYLINE
  5
118
100
AcDbEntity
  8
0
  6
Continuous
 62
   174
100
AcDbPolyline
 90
        3
 70
   128
 10
119.110878
 20
121.971516
 10
118.744775
 20
121.971516
 10
118.516676
 20
121.971516
  0
LINE
  5
119
100
AcDbEntity
  8
0
  6
Continuous
 62
   174
100
AcDbLine
 10
136.418058
 20
124.132709
 30
0.0
 11
137.418058
 21
124.132709
 31
0.0
  0
ARC
  5
11A
100
AcDbEntity
  8
0
  6
Continuous
 62
   174
100
AcDbCircle
 10
289.918058
 20
106.632709
 30
0.0
 40
3.0
100
AcDbArc
 50
-90.0
 51
0.0
  0
ARC
  5
11B
100
AcDbEntity
  8
0
  6
Continuous
 62
   174
100
AcDbCircle
 10
163.918058
 20
121.632709
 30
0.0
 40
3.0
100
AcDbArc
 50
0.0
 51
90.0
  0
ENDBLK
  5
11C
100
AcDbEntity
  8
0
100
AcDbBlockEnd
  0
BLOCK
  5
11F
100
AcDbEntity
  8
0
100
AcDbBlockBegin
  2
*B2
 70
     0
 10
0.0
 20
0.0
 30
0.0
  3
*B2
  1

  0
LINE
  5
120
100
AcDbEntity
  8
0
  6
HIDDEN
 62
   174
100
AcDbLine
 10
242.643571
 20
212.88087
 30
0.0
 11
238.243804
 21
212.88087
 31
0.0
  0
LINE
  5
121
100
AcDbEntity
  8
0
  6
HIDDEN
 62
   174
100
AcDbLine
 10
219.793058
 20
209.08087
 30
0.0
 11
219.793058
 21
217.08087
 31
0.0
  0
LINE
  5
122
100
AcDbEntity
  8
0
  6
HIDDEN
 62
   174
100
AcDbLine
 10
210.553058
 20
209.08087
 30
0.0
 11
210.553058
 21
217.08087
 31
0.0
  0
LINE
  5
123
100
AcDbEntity
  8
0
  6
HIDDEN
 62
   174
100
AcDbLine
 10
220.283058
 20
209.08087
 30
0.0
 11
220.283058
 21
217.08087
 31
0.0
  0
LINE
  5
124
100
AcDbEntity
  8
0
  6
HIDDEN
 62
   174
100
AcDbLine
 10
210.553058
 20
209.08087
 30
0.0
 11
210.553058
 21
217.08087
 31
0.0
  0
LINE
  5
125
100
AcDbEntity
  8
0
  6
HIDDEN
 62
   174
100
AcDbLine
 10
220.30858
 20
217.08087
 30
0.0
 11
210.578685
 21
217.08087
 31
0.0
  0
LINE
  5
126
100
AcDbEntity
  8
0
  6
HIDDEN
 62
   174
100
AcDbLine
 10
220.283058
 20
209.08087
 30
0.0
 11
220.283058
 21
217.08087
 31
0.0
  0
LINE
  5
127
100
AcDbEntity
  8
0
  6
HIDDEN
 62
   174
100
AcDbLine
 10
220.30858
 20
209.08087
 30
0.0
 11
210.578685
 21
209.08087
 31
0.0
  0
LINE
  5
128
100
AcDbEntity
  8
0
  6
HIDDEN
 62
   174
100
AcDbLine
 10
219.793058
 20
217.08087
 30
0.0
 11
219.793058
 21
208.08087
 31
0.0
  0
LINE
  5
129
100
AcDbEntity
  8
0
  6
HIDDEN
 62
   174
100
AcDbLine
 10
211.043058
 20
217.08087
 30
0.0
 11
211.043058
 21
208.08087
 31
0.0
  0
LINE
  5
12A
100
AcDbEntity
  8
0
  6
HIDDEN
 62
   174
100
AcDbLine
 10
219.793058
 20
217.08087
 30
0.0
 11
219.793058
 21
208.08087
 31
0.0
  0
LINE
  5
12B
100
AcDbEntity
  8
0
  6
HIDDEN
 62
   174
100
AcDbLine
 10
211.043058
 20
217.08087
 30
0.0
 11
211.043058
 21
208.08087
 31
0.0
  0
LINE
  5
12C
100
AcDbEntity
  8
0
  6
HIDDEN
 62
   174
100
AcDbLine
 10
211.043058
 20
209.08087
 30
0.0
 11
211.043058
 21
217.08087
 31
0.0
  0
LINE
  5
12D
100
AcDbEntity
  8
0
  6
HIDDEN
 62
   174
100
AcDbLine
 10
280.804905
 20
244.08087
 30
0.0
 11
280.395241
 21
244.08087
 31
0.0
  0
LINE
  5
12E
100
AcDbEntity
  8
0
  6
HIDDEN
 62
   174
100
AcDbLine
 10
154.674326
 20
244.08087
 30
0.0
 11
154.235462
 21
244.08087
 31
0.0
  0
LINE
  5
12F
100
AcDbEntity
  8
0
  6
Continuous
 62
   174
100
AcDbLine
 10
125.918058
 20
242.58087
 30
0.0
 11
122.918058
 21
242.58087
 31
0.0
  0
LINE
  5
130
100
AcDbEntity
  8
0
  6
HIDDEN
 62
   174
100
AcDbLine
 10
236.668058
 20
217.08087
 30
0.0
 11
236.668058
 21
212.88087
 31
0.0
  0
LINE
  5
131
100
AcDbEntity
  8
0
  6
Continuous
 62
   174
100
AcDbLine
 10
307.918058
 20
227.08087
 30
0.0
 11
308.618058
 21
227.08087
 31
0.0
  0
LINE
  5
132
100
AcDbEntity
  8
0
  6
HIDDEN
 62
   174
100
AcDbLine
 10
236.693702
 20
217.08087
 30
0.0
 11
237.636681
 21
217.08087
 31
0.0
  0
LINE
  5
133
100
AcDbEntity
  8
0
  6
Continuous
 62
   174
100
AcDbLine
 10
312.418058
 20
228.28087
 30
0.0
 11
311.750804
 21
227.125152
 31
0.0
  0
LINE
  5
134
100
AcDbEntity
  8
0
  6
Continuous
 62
   174
100
AcDbLine
 10
292.918058
 20
233.296988
 30
0.0
 11
292.918058
 21
215.08087
 31
0.0
  0
LINE
  5
135
100
AcDbEntity
  8
0
  6
Continuous
 62
   174
100
AcDbLine
 10
183.418058
 20
217.08087
 30
0.0
 11
247.418058
 21
217.08087
 31
0.0
  0
LINE
  5
136
100
AcDbEntity
  8
0
  6
HIDDEN
 62
   174
100
AcDbLine
 10
293.418058
 20
208.117146
 30
0.0
 11
293.418058
 21
198.118086
 31
0.0
  0
LINE
  5
137
100
AcDbEntity
  8
0
  6
Continuous
 62
   174
100
AcDbLine
 10
125.918058
 20
229.508858
 30
0.0
 11
125.918058
 21
228.115869
 31
0.0
  0
LINE
  5
138
100
AcDbEntity
  8
0
  6
HIDDEN
 62
   174
100
AcDbLine
 10
278.418058
 20
244.08087
 30
0.0
 11
276.600653
 21
244.08087
 31
0.0
  0
LINE
  5
139
100
AcDbEntity
  8
0
  6
HIDDEN
 62
   174
100
AcDbLine
 10
244.168058
 20
217.08087
 30
0.0
 11
244.168058
 21
212.88087
 31
0.0
  0
LINE
  5
13A
100
AcDbEntity
  8
0
  6
HIDDEN
 62
   174
100
AcDbLine
 10
242.618058
 20
212.88087
 30
0.0
 11
242.618058
 21
187.08087
 31
0.0
  0
LINE
  5
13B
100
AcDbEntity
  8
0
  6
HIDDEN
 62
   174
100
AcDbLine
 10
188.218058
 20
212.88087
 30
0.0
 11
188.218058
 21
187.08087
 31
0.0
  0
LINE
  5
13C
100
AcDbEntity
  8
0
  6
Continuous
 62
   174
100
AcDbLine
 10
122.918058
 20
227.08087
 30
0.0
 11
122.218058
 21
227.08087
 31
0.0
  0
LINE
  5
13D
100
AcDbEntity
  8
0
  6
HIDDEN
 62
   174
100
AcDbLine
 10
186.693592
 20
217.08087
 30
0.0
 11
193.083558
 21
217.08087
 31
0.0
  0
LINE
  5
13E
100
AcDbEntity
  8
0
  6
Continuous
 62
   174
100
AcDbLine
 10
304.918058
 20
244.08087
 30
0.0
 11
289.918058
 21
244.08087
 31
0.0
  0
LINE
  5
13F
100
AcDbEntity
  8
0
  6
Continuous
 62
   174
100
AcDbLine
 10
247.418058
 20
187.08087
 30
0.0
 11
263.418058
 21
187.08087
 31
0.0
  0
LINE
  5
140
100
AcDbEntity
  8
0
  6
HIDDEN
 62
   174
100
AcDbLine
 10
304.918058
 20
236.115117
 30
0.0
 11
304.918058
 21
229.615803
 31
0.0
  0
LINE
  5
141
100
AcDbEntity
  8
0
  6
Continuous
 62
   174
100
AcDbLine
 10
125.918058
 20
242.721376
 30
0.0
 11
125.918058
 21
236.115117
 31
0.0
  0
LINE
  5
142
100
AcDbEntity
  8
0
  6
Continuous
 62
   174
100
AcDbLine
 10
304.918058
 20
228.115869
 30
0.0
 11
304.918058
 21
229.509158
 31
0.0
  0
LINE
  5
143
100
AcDbEntity
  8
0
  6
Continuous
 62
   174
100
AcDbLine
 10
304.918058
 20
229.509158
 30
0.0
 11
304.918058
 21
236.115117
 31
0.0
  0
LINE
  5
144
100
AcDbEntity
  8
0
  6
HIDDEN
 62
   174
100
AcDbLine
 10
236.693702
 20
212.88087
 30
0.0
 11
244.193673
 21
212.88087
 31
0.0
  0
LINE
  5
145
100
AcDbEntity
  8
0
  6
HIDDEN
 62
   174
100
AcDbLine
 10
152.418058
 20
244.08087
 30
0.0
 11
150.440875
 21
244.08087
 31
0.0
  0
LINE
  5
146
100
AcDbEntity
  8
0
  6
HIDDEN
 62
   174
100
AcDbLine
 10
154.235462
 20
244.08087
 30
0.0
 11
152.418058
 21
244.08087
 31
0.0
  0
LINE
  5
147
100
AcDbEntity
  8
0
  6
HIDDEN
 62
   174
100
AcDbLine
 10
236.668058
 20
217.08087
 30
0.0
 11
236.668058
 21
212.88087
 31
0.0
  0
LINE
  5
148
100
AcDbEntity
  8
0
  6
HIDDEN
 62
   174
100
AcDbLine
 10
242.618058
 20
212.88087
 30
0.0
 11
242.618058
 21
187.08087
 31
0.0
  0
LINE
  5
149
100
AcDbEntity
  8
0
  6
HIDDEN
 62
   174
100
AcDbLine
 10
186.668058
 20
217.08087
 30
0.0
 11
186.668058
 21
212.88087
 31
0.0
  0
LINE
  5
14A
100
AcDbEntity
  8
0
  6
HIDDEN
 62
   174
100
AcDbLine
 10
137.918058
 20
228.08087
 30
0.0
 11
137.918058
 21
215.08087
 31
0.0
  0
LINE
  5
14B
100
AcDbEntity
  8
0
  6
Continuous
 62
   174
100
AcDbLine
 10
183.418058
 20
217.08087
 30
0.0
 11
167.418058
 21
217.08087
 31
0.0
  0
LINE
  5
14C
100
AcDbEntity
  8
0
  6
HIDDEN
 62
   174
100
AcDbLine
 10
137.418058
 20
198.118086
 30
0.0
 11
137.418058
 21
208.117146
 31
0.0
  0
LINE
  5
14D
100
AcDbEntity
  8
0
  6
Continuous
 62
   174
100
AcDbLine
 10
307.918058
 20
236.115117
 30
0.0
 11
307.918058
 21
229.401011
 31
0.0
  0
LINE
  5
14E
100
AcDbEntity
  8
0
  6
HIDDEN
 62
   174
100
AcDbLine
 10
280.395241
 20
244.08087
 30
0.0
 11
278.418058
 21
244.08087
 31
0.0
  0
LINE
  5
14F
100
AcDbEntity
  8
0
  6
HIDDEN
 62
   174
100
AcDbLine
 10
192.643762
 20
212.88087
 30
0.0
 11
188.243694
 21
212.88087
 31
0.0
  0
LINE
  5
150
100
AcDbEntity
  8
0
  6
Continuous
 62
   174
100
AcDbLine
 10
304.918058
 20
229.58087
 30
0.0
 11
307.918058
 21
229.58087
 31
0.0
  0
LINE
  5
151
100
AcDbEntity
  8
0
  6
HIDDEN
 62
   174
100
AcDbLine
 10
238.218058
 20
212.88087
 30
0.0
 11
238.218058
 21
187.08087
 31
0.0
  0
LINE
  5
152
100
AcDbEntity
  8
0
  6
HIDDEN
 62
   174
100
AcDbLine
 10
192.618058
 20
212.88087
 30
0.0
 11
192.618058
 21
187.08087
 31
0.0
  0
LINE
  5
153
100
AcDbEntity
  8
0
  6
Continuous
 62
   174
100
AcDbLine
 10
307.918058
 20
245.08087
 30
0.0
 11
308.618058
 21
245.08087
 31
0.0
  0
LINE
  5
154
100
AcDbEntity
  8
0
  6
HIDDEN
 62
   174
100
AcDbLine
 10
186.668058
 20
217.08087
 30
0.0
 11
186.668058
 21
212.88087
 31
0.0
  0
LINE
  5
155
100
AcDbEntity
  8
0
  6
HIDDEN
 62
   174
100
AcDbLine
 10
194.168058
 20
217.08087
 30
0.0
 11
194.168058
 21
212.88087
 31
0.0
  0
LINE
  5
156
100
AcDbEntity
  8
0
  6
HIDDEN
 62
   174
100
AcDbLine
 10
193.083558
 20
217.08087
 30
0.0
 11
193.250585
 21
217.08087
 31
0.0
  0
LINE
  5
157
100
AcDbEntity
  8
0
  6
Continuous
 62
   174
100
AcDbLine
 10
304.918058
 20
228.08087
 30
0.0
 11
292.918058
 21
228.08087
 31
0.0
  0
LINE
  5
158
100
AcDbEntity
  8
0
  6
Continuous
 62
   174
100
AcDbLine
 10
183.418058
 20
187.08087
 30
0.0
 11
183.418058
 21
217.08087
 31
0.0
  0
LINE
  5
159
100
AcDbEntity
  8
0
  6
HIDDEN
 62
   174
100
AcDbLine
 10
293.418058
 20
198.118086
 30
0.0
 11
293.418058
 21
188.118725
 31
0.0
  0
LINE
  5
15A
100
AcDbEntity
  8
0
  6
HIDDEN
 62
   174
100
AcDbLine
 10
137.418058
 20
188.118725
 30
0.0
 11
137.418058
 21
198.118086
 31
0.0
  0
LINE
  5
15B
100
AcDbEntity
  8
0
  6
Continuous
 62
   174
100
AcDbLine
 10
304.918058
 20
236.115117
 30
0.0
 11
304.918058
 21
242.721677
 31
0.0
  0
LINE
  5
15C
100
AcDbEntity
  8
0
  6
HIDDEN
 62
   174
100
AcDbLine
 10
192.618058
 20
212.88087
 30
0.0
 11
192.618058
 21
187.08087
 31
0.0
  0
LINE
  5
15D
100
AcDbEntity
  8
0
  6
Continuous
 62
   174
100
AcDbLine
 10
122.918058
 20
245.08087
 30
0.0
 11
122.218058
 21
245.08087
 31
0.0
  0
LINE
  5
15E
100
AcDbEntity
  8
0
  6
HIDDEN
 62
   174
100
AcDbLine
 10
194.168058
 20
217.08087
 30
0.0
 11
194.168058
 21
212.88087
 31
0.0
  0
LINE
  5
15F
100
AcDbEntity
  8
0
  6
Continuous
 62
   174
100
AcDbLine
 10
312.418058
 20
243.88087
 30
0.0
 11
311.750781
 21
245.036626
 31
0.0
  0
LINE
  5
160
100
AcDbEntity
  8
0
  6
Continuous
 62
   174
100
AcDbLine
 10
263.418058
 20
217.08087
 30
0.0
 11
263.418058
 21
187.08087
 31
0.0
  0
LINE
  5
161
100
AcDbEntity
  8
0
  6
Continuous
 62
   174
100
AcDbLine
 10
247.418058
 20
217.08087
 30
0.0
 11
263.418058
 21
217.08087
 31
0.0
  0
LINE
  5
162
100
AcDbEntity
  8
0
  6
HIDDEN
 62
   174
100
AcDbLine
 10
125.918058
 20
229.615803
 30
0.0
 11
125.918058
 21
236.115117
 31
0.0
  0
LINE
  5
163
100
AcDbEntity
  8
0
  6
Continuous
 62
   174
100
AcDbLine
 10
125.918058
 20
244.114666
 30
0.0
 11
125.918058
 21
242.721376
 31
0.0
  0
LINE
  5
164
100
AcDbEntity
  8
0
  6
Continuous
 62
   174
100
AcDbLine
 10
125.918058
 20
236.115117
 30
0.0
 11
125.918058
 21
229.508858
 31
0.0
  0
LINE
  5
165
100
AcDbEntity
  8
0
  6
HIDDEN
 62
   174
100
AcDbLine
 10
211.068649
 20
217.08087
 30
0.0
 11
219.818616
 21
217.08087
 31
0.0
  0
LINE
  5
166
100
AcDbEntity
  8
0
  6
HIDDEN
 62
   174
100
AcDbLine
 10
186.693592
 20
212.88087
 30
0.0
 11
194.193563
 21
212.88087
 31
0.0
  0
LINE
  5
167
100
AcDbEntity
  8
0
  6
Continuous
 62
   174
100
AcDbLine
 10
125.918058
 20
229.58087
 30
0.0
 11
122.918058
 21
229.58087
 31
0.0
  0
LINE
  5
168
100
AcDbEntity
  8
0
  6
Continuous
 62
   174
100
AcDbLine
 10
125.918058
 20
244.08087
 30
0.0
 11
140.918058
 21
244.08087
 31
0.0
  0
LINE
  5
169
100
AcDbEntity
  8
0
  6
HIDDEN
 62
   174
100
AcDbLine
 10
137.918058
 20
233.296988
 30
0.0
 11
137.918058
 21
228.08087
 31
0.0
  0
LINE
  5
16A
100
AcDbEntity
  8
0
  6
Continuous
 62
   174
100
AcDbLine
 10
183.418058
 20
187.08087
 30
0.0
 11
247.418058
 21
187.08087
 31
0.0
  0
LINE
  5
16B
100
AcDbEntity
  8
0
  6
Continuous
 62
   174
100
AcDbLine
 10
167.418058
 20
187.08087
 30
0.0
 11
167.418058
 21
217.08087
 31
0.0
  0
LINE
  5
16C
100
AcDbEntity
  8
0
  6
Continuous
 62
   174
100
AcDbLine
 10
166.918058
 20
241.08087
 30
0.0
 11
166.918058
 21
215.08087
 31
0.0
  0
LINE
  5
16D
100
AcDbEntity
  8
0
  6
HIDDEN
 62
   174
100
AcDbLine
 10
307.918058
 20
236.115117
 30
0.0
 11
307.918058
 21
242.614732
 31
0.0
  0
LINE
  5
16E
100
AcDbEntity
  8
0
  6
HIDDEN
 62
   174
100
AcDbLine
 10
122.918058
 20
236.115117
 30
0.0
 11
122.918058
 21
229.615803
 31
0.0
  0
LINE
  5
16F
100
AcDbEntity
  8
0
  6
Continuous
 62
   174
100
AcDbLine
 10
304.918058
 20
242.721677
 30
0.0
 11
304.918058
 21
244.114666
 31
0.0
  0
LINE
  5
170
100
AcDbEntity
  8
0
  6
Continuous
 62
   174
100
AcDbLine
 10
122.918058
 20
242.829223
 30
0.0
 11
122.918058
 21
245.114422
 31
0.0
  0
LINE
  5
171
100
AcDbEntity
  8
0
  6
Continuous
 62
   174
100
AcDbLine
 10
307.918058
 20
229.401011
 30
0.0
 11
307.918058
 21
227.115812
 31
0.0
  0
LINE
  5
172
100
AcDbEntity
  8
0
  6
Continuous
 62
   174
100
AcDbLine
 10
307.918058
 20
245.114422
 30
0.0
 11
307.918058
 21
242.828922
 31
0.0
  0
LINE
  5
173
100
AcDbEntity
  8
0
  6
HIDDEN
 62
   174
100
AcDbLine
 10
219.793058
 20
209.08087
 30
0.0
 11
219.793058
 21
217.08087
 31
0.0
  0
LINE
  5
174
100
AcDbEntity
  8
0
  6
HIDDEN
 62
   174
100
AcDbLine
 10
211.043058
 20
209.08087
 30
0.0
 11
211.043058
 21
217.08087
 31
0.0
  0
LINE
  5
175
100
AcDbEntity
  8
0
  6
HIDDEN
 62
   174
100
AcDbLine
 10
238.218058
 20
212.88087
 30
0.0
 11
238.218058
 21
187.08087
 31
0.0
  0
LINE
  5
176
100
AcDbEntity
  8
0
  6
HIDDEN
 62
   174
100
AcDbLine
 10
238.243804
 20
187.08087
 30
0.0
 11
242.643571
 21
187.08087
 31
0.0
  0
LINE
  5
177
100
AcDbEntity
  8
0
  6
HIDDEN
 62
   174
100
AcDbLine
 10
188.243694
 20
187.08087
 30
0.0
 11
192.643762
 21
187.08087
 31
0.0
  0
LINE
  5
178
100
AcDbEntity
  8
0
  6
HIDDEN
 62
   174
100
AcDbLine
 10
193.250585
 20
217.08087
 30
0.0
 11
194.193563
 21
217.08087
 31
0.0
  0
LINE
  5
179
100
AcDbEntity
  8
0
  6
Continuous
 62
   174
100
AcDbLine
 10
118.418058
 20
243.88087
 30
0.0
 11
119.085334
 21
245.036626
 31
0.0
  0
LINE
  5
17A
100
AcDbEntity
  8
0
  6
Continuous
 62
   174
100
AcDbLine
 10
125.918058
 20
228.08087
 30
0.0
 11
137.918058
 21
228.08087
 31
0.0
  0
LINE
  5
17B
100
AcDbEntity
  8
0
  6
Continuous
 62
   174
100
AcDbLine
 10
247.418058
 20
217.08087
 30
0.0
 11
247.418058
 21
187.08087
 31
0.0
  0
LINE
  5
17C
100
AcDbEntity
  8
0
  6
Continuous
 62
   174
100
AcDbLine
 10
247.418058
 20
187.08087
 30
0.0
 11
247.418058
 21
217.08087
 31
0.0
  0
LINE
  5
17D
100
AcDbEntity
  8
0
  6
HIDDEN
 62
   174
100
AcDbLine
 10
304.918058
 20
236.115117
 30
0.0
 11
304.918058
 21
242.614732
 31
0.0
  0
LINE
  5
17E
100
AcDbEntity
  8
0
  6
HIDDEN
 62
   174
100
AcDbLine
 10
125.918058
 20
242.614732
 30
0.0
 11
125.918058
 21
236.115117
 31
0.0
  0
LINE
  5
17F
100
AcDbEntity
  8
0
  6
Continuous
 62
   174
100
AcDbLine
 10
122.918058
 20
229.401312
 30
0.0
 11
122.918058
 21
236.115117
 31
0.0
  0
LINE
  5
180
100
AcDbEntity
  8
0
  6
Continuous
 62
   174
100
AcDbLine
 10
122.918058
 20
236.115117
 30
0.0
 11
122.918058
 21
242.829223
 31
0.0
  0
LINE
  5
181
100
AcDbEntity
  8
0
  6
Continuous
 62
   174
100
AcDbLine
 10
122.918058
 20
227.115812
 30
0.0
 11
122.918058
 21
229.401312
 31
0.0
  0
LINE
  5
182
100
AcDbEntity
  8
0
  6
Continuous
 62
   174
100
AcDbLine
 10
307.918058
 20
242.828922
 30
0.0
 11
307.918058
 21
236.115117
 31
0.0
  0
LINE
  5
183
100
AcDbEntity
  8
0
  6
Continuous
 62
   174
100
AcDbLine
 10
304.918058
 20
242.58087
 30
0.0
 11
307.918058
 21
242.58087
 31
0.0
  0
LINE
  5
184
100
AcDbEntity
  8
0
  6
HIDDEN
 62
   174
100
AcDbLine
 10
244.168058
 20
217.08087
 30
0.0
 11
244.168058
 21
212.88087
 31
0.0
  0
LINE
  5
185
100
AcDbEntity
  8
0
  6
HIDDEN
 62
   174
100
AcDbLine
 10
188.218058
 20
212.88087
 30
0.0
 11
188.218058
 21
187.08087
 31
0.0
  0
LINE
  5
186
100
AcDbEntity
  8
0
  6
HIDDEN
 62
   174
100
AcDbLine
 10
237.803707
 20
217.08087
 30
0.0
 11
244.193673
 21
217.08087
 31
0.0
  0
LINE
  5
187
100
AcDbEntity
  8
0
  6
HIDDEN
 62
   174
100
AcDbLine
 10
237.636681
 20
217.08087
 30
0.0
 11
237.803707
 21
217.08087
 31
0.0
  0
LINE
  5
188
100
AcDbEntity
  8
0
  6
Continuous
 62
   174
100
AcDbLine
 10
118.418058
 20
228.28087
 30
0.0
 11
119.085312
 21
227.125152
 31
0.0
  0
LINE
  5
189
100
AcDbEntity
  8
0
  6
Continuous
 62
   174
100
AcDbLine
 10
183.418058
 20
187.08087
 30
0.0
 11
183.418058
 21
217.08087
 31
0.0
  0
LINE
  5
18A
100
AcDbEntity
  8
0
  6
HIDDEN
 62
   174
100
AcDbLine
 10
263.918058
 20
241.08087
 30
0.0
 11
263.918058
 21
215.08087
 31
0.0
  0
LINE
  5
18B
100
AcDbEntity
  8
0
  6
Continuous
 62
   174
100
AcDbLine
 10
183.418058
 20
187.08087
 30
0.0
 11
167.418058
 21
187.08087
 31
0.0
  0
LINE
  5
18C
100
AcDbEntity
  8
0
  6
HIDDEN
 62
   174
100
AcDbLine
 10
307.918058
 20
229.615803
 30
0.0
 11
307.918058
 21
236.115117
 31
0.0
  0
LINE
  5
18D
100
AcDbEntity
  8
0
  6
HIDDEN
 62
   174
100
AcDbLine
 10
122.918058
 20
242.614732
 30
0.0
 11
122.918058
 21
236.115117
 31
0.0
  0
LINE
  5
18E
100
AcDbEntity
  8
0
  6
Continuous
 62
   174
100
AcDbLine
 10
129.718058
 20
195.618095
 30
0.0
 11
129.718058
 21
193.039398
 31
0.0
  0
ARC
  5
18F
100
AcDbEntity
  8
0
  6
HIDDEN
 62
   174
100
AcDbCircle
 10
289.918058
 20
241.08087
 30
0.0
 40
3.0
100
AcDbArc
 50
0.0
 51
18.0
  0
LWPOLYLINE
  5
190
100
AcDbEntity
  8
0
  6
Continuous
 62
   174
100
AcDbPolyline
 90
        4
 70
   128
 10
292.918058
 20
238.864752
 10
292.905497
 20
237.968016
 10
292.885092
 20
237.029863
 10
292.876098
 20
236.08087
  0
LINE
  5
191
100
AcDbEntity
  8
0
  6
HIDDEN
 62
   174
100
AcDbLine
 10
122.218058
 20
245.08042
 30
0.0
 11
122.218058
 21
240.50276
 31
0.0
  0
LINE
  5
192
100
AcDbEntity
  8
0
  6
Continuous
 62
   174
100
AcDbLine
 10
118.567569
 20
243.803336
 30
0.0
 11
119.084224
 21
245.033037
 31
0.0
  0
LINE
  5
193
100
AcDbEntity
  8
0
  6
Continuous
 62
   174
100
AcDbLine
 10
129.718058
 20
207.763006
 30
0.0
 11
135.918058
 21
207.763006
 31
0.0
  0
LWPOLYLINE
  5
194
100
AcDbEntity
  8
0
  6
HIDDEN
 62
   174
100
AcDbPolyline
 90
        6
 70
   128
 10
140.918058
 20
244.08087
 10
140.012742
 20
243.94101
 10
139.204437
 20
243.543288
 10
138.542589
 20
242.913122
 10
138.090763
 20
242.084067
 10
137.918058
 20
241.08087
  0
LINE
  5
195
100
AcDbEntity
  8
0
  6
HIDDEN
 62
   174
100
AcDbLine
 10
140.918058
 20
215.08087
 30
0.0
 11
140.918058
 21
241.08087
 31
0.0
  0
LINE
  5
196
100
AcDbEntity
  8
0
  6
HIDDEN
 62
   174
100
AcDbLine
 10
266.943526
 20
241.08087
 30
0.0
 11
263.943658
 21
241.08087
 31
0.0
  0
LINE
  5
197
100
AcDbEntity
  8
0
  6
Continuous
 62
   174
100
AcDbLine
 10
122.218058
 20
240.692425
 30
0.0
 11
122.218058
 21
236.115117
 31
0.0
  0
LWPOLYLINE
  5
198
100
AcDbEntity
  8
0
  6
Continuous
 62
   174
100
AcDbPolyline
 90
        4
 70
   128
 10
137.960018
 20
236.08087
 10
137.951023
 20
235.131862
 10
137.930617
 20
234.193696
 10
137.918058
 20
233.296988
  0
LINE
  5
199
100
AcDbEntity
  8
0
  6
Continuous
 62
   174
100
AcDbLine
 10
137.918058
 20
241.08087
 30
0.0
 11
137.918058
 21
238.864752
 31
0.0
  0
ARC
  5
19A
100
AcDbEntity
  8
0
  6
HIDDEN
 62
   174
100
AcDbCircle
 10
140.918058
 20
241.08087
 30
0.0
 40
3.0
100
AcDbArc
 50
90.0
 51
180.0
  0
LINE
  5
19B
100
AcDbEntity
  8
0
  6
Continuous
 62
   174
100
AcDbLine
 10
135.918058
 20
199.614115
 30
0.0
 11
135.918058
 21
200.617776
 31
0.0
  0
LINE
  5
19C
100
AcDbEntity
  8
0
  6
HIDDEN
 62
   174
100
AcDbLine
 10
163.918058
 20
241.08087
 30
0.0
 11
140.918058
 21
241.08087
 31
0.0
  0
LINE
  5
19D
100
AcDbEntity
  8
0
  6
Continuous
 62
   174
100
AcDbLine
 10
294.918058
 20
208.117146
 30
0.0
 11
294.918058
 21
207.800217
 31
0.0
  0
LINE
  5
19E
100
AcDbEntity
  8
0
  6
HIDDEN
 62
   174
100
AcDbLine
 10
289.918058
 20
215.08087
 30
0.0
 11
266.918058
 21
215.08087
 31
0.0
  0
LINE
  5
19F
100
AcDbEntity
  8
0
  6
HIDDEN
 62
   174
100
AcDbLine
 10
166.943607
 20
215.08087
 30
0.0
 11
163.943739
 21
215.08087
 31
0.0
  0
LINE
  5
1A0
100
AcDbEntity
  8
0
  6
Continuous
 62
   174
100
AcDbLine
 10
293.418058
 20
215.08087
 30
0.0
 11
293.418058
 21
187.08087
 31
0.0
  0
LINE
  5
1A1
100
AcDbEntity
  8
0
  6
Continuous
 62
   174
100
AcDbLine
 10
266.918058
 20
215.08087
 30
0.0
 11
266.918058
 21
241.08087
 31
0.0
  0
LINE
  5
1A2
100
AcDbEntity
  8
0
  6
HIDDEN
 62
   174
100
AcDbLine
 10
129.718058
 20
189.467918
 30
0.0
 11
135.918058
 21
189.467918
 31
0.0
  0
LINE
  5
1A3
100
AcDbEntity
  8
0
  6
Continuous
 62
   174
100
AcDbLine
 10
301.118058
 20
206.732869
 30
0.0
 11
301.118058
 21
207.800217
 31
0.0
  0
ARC
  5
1A4
100
AcDbEntity
  8
0
  6
Continuous
 62
   174
100
AcDbCircle
 10
140.918058
 20
241.08087
 30
0.0
 40
3.0
100
AcDbArc
 50
-270.0
 51
-180.0
  0
LINE
  5
1A5
100
AcDbEntity
  8
0
  6
HIDDEN
 62
   174
100
AcDbLine
 10
276.600653
 20
244.08087
 30
0.0
 11
278.418058
 21
244.08087
 31
0.0
  0
LINE
  5
1A6
100
AcDbEntity
  8
0
  6
Continuous
 62
   174
100
AcDbLine
 10
163.918058
 20
241.114798
 30
0.0
 11
163.918058
 21
244.114666
 31
0.0
  0
LINE
  5
1A7
100
AcDbEntity
  8
0
  6
HIDDEN
 62
   174
100
AcDbLine
 10
289.918058
 20
244.114666
 30
0.0
 11
289.918058
 21
241.114798
 31
0.0
  0
LINE
  5
1A8
100
AcDbEntity
  8
0
  6
Continuous
 62
   174
100
AcDbLine
 10
163.918058
 20
241.08087
 30
0.0
 11
163.918058
 21
215.08087
 31
0.0
  0
LINE
  5
1A9
100
AcDbEntity
  8
0
  6
Continuous
 62
   174
100
AcDbLine
 10
308.618058
 20
227.115812
 30
0.0
 11
308.618058
 21
231.693721
 31
0.0
  0
LINE
  5
1AA
100
AcDbEntity
  8
0
  6
Continuous
 62
   174
100
AcDbLine
 10
122.218058
 20
231.50321
 30
0.0
 11
119.110878
 21
231.50321
 31
0.0
  0
LWPOLYLINE
  5
1AB
100
AcDbEntity
  8
0
  6
Continuous
 62
   174
100
AcDbPolyline
 90
        4
 70
   128
 10
312.418058
 20
228.924343
 10
312.284937
 20
228.315984
 10
312.051855
 20
227.70491
 10
311.753958
 20
227.13062
  0
LINE
  5
1AC
100
AcDbEntity
  8
0
  6
HIDDEN
 62
   174
100
AcDbLine
 10
266.918058
 20
244.08087
 30
0.0
 11
275.018058
 21
244.08087
 31
0.0
  0
LINE
  5
1AD
100
AcDbEntity
  8
0
  6
HIDDEN
 62
   174
100
AcDbLine
 10
166.943607
 20
241.08087
 30
0.0
 11
163.943739
 21
241.08087
 31
0.0
  0
LINE
  5
1AE
100
AcDbEntity
  8
0
  6
Continuous
 62
   174
100
AcDbLine
 10
119.083437
 20
245.031627
 30
0.0
 11
119.110878
 21
245.08042
 31
0.0
  0
LWPOLYLINE
  5
1AF
100
AcDbEntity
  8
0
  6
HIDDEN
 62
   174
100
AcDbPolyline
 90
        4
 70
   128
 10
118.418058
 20
228.924343
 10
118.551178
 20
228.315984
 10
118.784261
 20
227.70491
 10
119.082157
 20
227.13062
  0
LINE
  5
1B0
100
AcDbEntity
  8
0
  6
Continuous
 62
   174
100
AcDbLine
 10
308.618058
 20
231.658979
 30
0.0
 11
311.725237
 21
231.658979
 31
0.0
  0
LINE
  5
1B1
100
AcDbEntity
  8
0
  6
Continuous
 62
   174
100
AcDbLine
 10
118.418058
 20
243.914595
 30
0.0
 11
118.418058
 21
237.006726
 31
0.0
  0
LWPOLYLINE
  5
1B2
100
AcDbEntity
  8
0
  6
HIDDEN
 62
   174
100
AcDbPolyline
 90
        4
 70
   128
 10
118.418058
 20
242.345785
 10
118.551178
 20
241.737426
 10
118.784261
 20
241.126351
 10
119.110878
 20
240.50276
  0
LINE
  5
1B3
100
AcDbEntity
  8
0
  6
Continuous
 62
   174
100
AcDbLine
 10
129.718058
 20
193.001939
 30
0.0
 11
129.718058
 21
189.466151
 31
0.0
  0
LINE
  5
1B4
100
AcDbEntity
  8
0
  6
Continuous
 62
   174
100
AcDbLine
 10
293.418058
 20
215.08087
 30
0.0
 11
263.418058
 21
215.08087
 31
0.0
  0
LINE
  5
1B5
100
AcDbEntity
  8
0
  6
HIDDEN
 62
   174
100
AcDbLine
 10
163.918058
 20
215.08087
 30
0.0
 11
163.918058
 21
241.08087
 31
0.0
  0
LINE
  5
1B6
100
AcDbEntity
  8
0
  6
HIDDEN
 62
   174
100
AcDbLine
 10
266.918058
 20
244.114666
 30
0.0
 11
266.918058
 21
241.114798
 31
0.0
  0
LINE
  5
1B7
100
AcDbEntity
  8
0
  6
HIDDEN
 62
   174
100
AcDbLine
 10
163.918058
 20
241.114798
 30
0.0
 11
163.918058
 21
244.114666
 31
0.0
  0
LINE
  5
1B8
100
AcDbEntity
  8
0
  6
HIDDEN
 62
   174
100
AcDbLine
 10
266.918058
 20
241.08087
 30
0.0
 11
266.918058
 21
215.08087
 31
0.0
  0
LWPOLYLINE
  5
1B9
100
AcDbEntity
  8
0
  6
HIDDEN
 62
   174
100
AcDbPolyline
 90
        7
 70
   128
 10
119.110878
 20
240.50276
 10
118.744775
 20
238.99949
 10
118.516676
 20
237.5255
 10
118.439745
 20
236.081107
 10
118.516632
 20
234.63666
 10
118.744724
 20
233.162509
 10
119.110878
 20
231.658979
  0
LINE
  5
1BA
100
AcDbEntity
  8
0
  6
HIDDEN
 62
   174
100
AcDbLine
 10
278.418058
 20
244.08087
 30
0.0
 11
280.395241
 21
244.08087
 31
0.0
  0
LINE
  5
1BB
100
AcDbEntity
  8
0
  6
Continuous
 62
   174
100
AcDbLine
 10
137.418058
 20
187.08087
 30
0.0
 11
167.418058
 21
187.08087
 31
0.0
  0
LINE
  5
1BC
100
AcDbEntity
  8
0
  6
Continuous
 62
   174
100
AcDbLine
 10
122.218058
 20
231.537809
 30
0.0
 11
122.218058
 21
227.116413
 31
0.0
  0
LINE
  5
1BD
100
AcDbEntity
  8
0
  6
HIDDEN
 62
   174
100
AcDbLine
 10
301.118058
 20
189.466151
 30
0.0
 11
294.918058
 21
189.466151
 31
0.0
  0
LINE
  5
1BE
100
AcDbEntity
  8
0
  6
HIDDEN
 62
   174
100
AcDbLine
 10
292.918058
 20
233.331542
 30
0.0
 11
292.918058
 21
228.115869
 31
0.0
  0
LINE
  5
1BF
100
AcDbEntity
  8
0
  6
HIDDEN
 62
   174
100
AcDbLine
 10
140.918058
 20
244.08087
 30
0.0
 11
149.018058
 21
244.08087
 31
0.0
  0
ARC
  5
1C0
100
AcDbEntity
  8
0
  6
Continuous
 62
   174
100
AcDbCircle
 10
289.918058
 20
241.08087
 30
0.0
 40
3.0
100
AcDbArc
 50
0.0
 51
90.0
  0
ARC
  5
1C1
100
AcDbEntity
  8
0
  6
HIDDEN
 62
   174
100
AcDbCircle
 10
163.918058
 20
241.08087
 30
0.0
 40
3.0
100
AcDbArc
 50
-306.0
 51
-288.0
  0
LINE
  5
1C2
100
AcDbEntity
  8
0
  6
Continuous
 62
   174
100
AcDbLine
 10
129.718058
 20
203.196173
 30
0.0
 11
129.718058
 21
200.617776
 31
0.0
  0
LINE
  5
1C3
100
AcDbEntity
  8
0
  6
Continuous
 62
   174
100
AcDbLine
 10
122.218058
 20
227.081319
 30
0.0
 11
119.110878
 21
227.081319
 31
0.0
  0
LINE
  5
1C4
100
AcDbEntity
  8
0
  6
HIDDEN
 62
   174
100
AcDbLine
 10
129.718058
 20
203.162465
 30
0.0
 11
135.918058
 21
203.162465
 31
0.0
  0
LINE
  5
1C5
100
AcDbEntity
  8
0
  6
HIDDEN
 62
   174
100
AcDbLine
 10
150.440875
 20
244.08087
 30
0.0
 11
152.418058
 21
244.08087
 31
0.0
  0
LINE
  5
1C6
100
AcDbEntity
  8
0
  6
Continuous
 62
   174
100
AcDbLine
 10
166.918058
 20
215.08087
 30
0.0
 11
166.918058
 21
241.08087
 31
0.0
  0
LINE
  5
1C7
100
AcDbEntity
  8
0
  6
HIDDEN
 62
   174
100
AcDbLine
 10
122.218058
 20
231.658979
 30
0.0
 11
122.218058
 21
240.50276
 31
0.0
  0
LINE
  5
1C8
100
AcDbEntity
  8
0
  6
HIDDEN
 62
   174
100
AcDbLine
 10
129.718058
 20
200.584236
 30
0.0
 11
135.918058
 21
200.584236
 31
0.0
  0
LWPOLYLINE
  5
1C9
100
AcDbEntity
  8
0
  6
HIDDEN
 62
   174
100
AcDbPolyline
 90
        4
 70
   128
 10
119.110878
 20
231.658979
 10
118.782977
 20
231.032572
 10
118.550223
 20
230.421159
 10
118.418058
 20
229.815955
  0
LINE
  5
1CA
100
AcDbEntity
  8
0
  6
HIDDEN
 62
   174
100
AcDbLine
 10
301.118058
 20
203.15947
 30
0.0
 11
294.918058
 21
203.15947
 31
0.0
  0
ARC
  5
1CB
100
AcDbEntity
  8
0
  6
HIDDEN
 62
   174
100
AcDbCircle
 10
289.918058
 20
241.08087
 30
0.0
 40
3.0
100
AcDbArc
 50
72.0
 51
90.0
  0
LINE
  5
1CC
100
AcDbEntity
  8
0
  6
HIDDEN
 62
   174
100
AcDbLine
 10
280.395241
 20
244.08087
 30
0.0
 11
280.804905
 21
244.08087
 31
0.0
  0
LINE
  5
1CD
100
AcDbEntity
  8
0
  6
HIDDEN
 62
   174
100
AcDbLine
 10
275.018058
 20
244.08087
 30
0.0
 11
275.418115
 21
244.08087
 31
0.0
  0
LINE
  5
1CE
100
AcDbEntity
  8
0
  6
Continuous
 62
   174
100
AcDbLine
 10
263.918058
 20
241.08087
 30
0.0
 11
263.918058
 21
215.08087
 31
0.0
  0
LINE
  5
1CF
100
AcDbEntity
  8
0
  6
Continuous
 62
   174
100
AcDbLine
 10
266.918058
 20
244.114666
 30
0.0
 11
266.918058
 21
241.114798
 31
0.0
  0
LINE
  5
1D0
100
AcDbEntity
  8
0
  6
Continuous
 62
   174
100
AcDbLine
 10
122.218058
 20
236.115117
 30
0.0
 11
122.218058
 21
231.537809
 31
0.0
  0
LINE
  5
1D1
100
AcDbEntity
  8
0
  6
Continuous
 62
   174
100
AcDbLine
 10
129.718058
 20
189.466151
 30
0.0
 11
135.918058
 21
189.466151
 31
0.0
  0
LINE
  5
1D2
100
AcDbEntity
  8
0
  6
Continuous
 62
   174
100
AcDbLine
 10
308.618058
 20
240.50276
 30
0.0
 11
311.725237
 21
240.50276
 31
0.0
  0
LINE
  5
1D3
100
AcDbEntity
  8
0
  6
Continuous
 62
   174
100
AcDbLine
 10
311.725237
 20
245.08042
 30
0.0
 11
311.754089
 21
245.030896
 31
0.0
  0
LWPOLYLINE
  5
1D4
100
AcDbEntity
  8
0
  6
HIDDEN
 62
   174
100
AcDbPolyline
 90
        4
 70
   128
 10
119.082117
 20
245.03105
 10
118.782977
 20
244.454013
 10
118.550223
 20
243.8426
 10
118.418058
 20
243.237396
  0
LINE
  5
1D5
100
AcDbEntity
  8
0
  6
Continuous
 62
   174
100
AcDbLine
 10
140.918058
 20
241.08087
 30
0.0
 11
140.918058
 21
215.08087
 31
0.0
  0
LINE
  5
1D6
100
AcDbEntity
  8
0
  6
Continuous
 62
   174
100
AcDbLine
 10
140.918058
 20
241.08087
 30
0.0
 11
163.918058
 21
241.08087
 31
0.0
  0
LINE
  5
1D7
100
AcDbEntity
  8
0
  6
HIDDEN
 62
   174
100
AcDbLine
 10
129.718058
 20
195.584237
 30
0.0
 11
135.918058
 21
195.584237
 31
0.0
  0
LINE
  5
1D8
100
AcDbEntity
  8
0
  6
HIDDEN
 62
   174
100
AcDbLine
 10
308.618058
 20
245.114121
 30
0.0
 11
308.618058
 21
245.114422
 31
0.0
  0
LINE
  5
1D9
100
AcDbEntity
  8
0
  6
HIDDEN
 62
   174
100
AcDbLine
 10
301.118058
 20
193.001939
 30
0.0
 11
294.918058
 21
193.001939
 31
0.0
  0
LWPOLYLINE
  5
1DA
100
AcDbEntity
  8
0
  6
HIDDEN
 62
   174
100
AcDbPolyline
 90
        4
 70
   128
 10
137.918058
 20
233.296988
 10
137.930617
 20
234.193689
 10
137.951022
 20
235.131843
 10
137.960018
 20
236.08087
  0
LINE
  5
1DB
100
AcDbEntity
  8
0
  6
Continuous
 62
   174
100
AcDbLine
 10
129.718058
 20
206.694749
 30
0.0
 11
129.718058
 21
203.15947
 31
0.0
  0
LINE
  5
1DC
100
AcDbEntity
  8
0
  6
HIDDEN
 62
   174
100
AcDbLine
 10
152.418058
 20
244.08087
 30
0.0
 11
154.235462
 21
244.08087
 31
0.0
  0
LINE
  5
1DD
100
AcDbEntity
  8
0
  6
HIDDEN
 62
   174
100
AcDbLine
 10
266.943526
 20
215.08087
 30
0.0
 11
263.943658
 21
215.08087
 31
0.0
  0
LINE
  5
1DE
100
AcDbEntity
  8
0
  6
Continuous
 62
   174
100
AcDbLine
 10
301.118058
 20
200.62108
 30
0.0
 11
301.118058
 21
203.199177
 31
0.0
  0
LINE
  5
1DF
100
AcDbEntity
  8
0
  6
Continuous
 62
   174
100
AcDbLine
 10
129.718058
 20
206.694749
 30
0.0
 11
135.918058
 21
206.694749
 31
0.0
  0
LINE
  5
1E0
100
AcDbEntity
  8
0
  6
Continuous
 62
   174
100
AcDbLine
 10
301.118058
 20
207.763875
 30
0.0
 11
294.918058
 21
207.763875
 31
0.0
  0
LINE
  5
1E1
100
AcDbEntity
  8
0
  6
Continuous
 62
   174
100
AcDbLine
 10
263.418058
 20
187.08087
 30
0.0
 11
293.418058
 21
187.08087
 31
0.0
  0
LINE
  5
1E2
100
AcDbEntity
  8
0
  6
HIDDEN
 62
   174
100
AcDbLine
 10
122.218058
 20
231.658979
 30
0.0
 11
119.110878
 21
231.658979
 31
0.0
  0
LINE
  5
1E3
100
AcDbEntity
  8
0
  6
Continuous
 62
   174
100
AcDbLine
 10
163.918058
 20
244.08087
 30
0.0
 11
140.918058
 21
244.08087
 31
0.0
  0
LINE
  5
1E4
100
AcDbEntity
  8
0
  6
HIDDEN
 62
   174
100
AcDbLine
 10
280.804905
 20
244.08087
 30
0.0
 11
281.418058
 21
244.08087
 31
0.0
  0
LINE
  5
1E5
100
AcDbEntity
  8
0
  6
HIDDEN
 62
   174
100
AcDbLine
 10
122.218058
 20
231.658979
 30
0.0
 11
122.218058
 21
227.081319
 31
0.0
  0
LWPOLYLINE
  5
1E6
100
AcDbEntity
  8
0
  6
Continuous
 62
   174
100
AcDbPolyline
 90
        7
 70
   128
 10
311.725237
 20
240.50276
 10
312.09134
 20
238.99949
 10
312.319439
 20
237.5255
 10
312.39637
 20
236.081107
 10
312.319483
 20
234.63666
 10
312.091391
 20
233.162509
 10
311.725237
 20
231.658979
  0
LINE
  5
1E7
100
AcDbEntity
  8
0
  6
HIDDEN
 62
   174
100
AcDbLine
 10
275.418115
 20
244.08087
 30
0.0
 11
276.600653
 21
244.08087
 31
0.0
  0
LINE
  5
1E8
100
AcDbEntity
  8
0
  6
Continuous
 62
   174
100
AcDbLine
 10
137.418058
 20
187.08087
 30
0.0
 11
137.418058
 21
215.08087
 31
0.0
  0
ARC
  5
1E9
100
AcDbEntity
  8
0
  6
HIDDEN
 62
   174
100
AcDbCircle
 10
163.918058
 20
241.08087
 30
0.0
 40
3.0
100
AcDbArc
 50
-288.0
 51
-270.0
  0
LINE
  5
1EA
100
AcDbEntity
  8
0
  6
HIDDEN
 62
   174
100
AcDbLine
 10
149.018058
 20
244.08087
 30
0.0
 11
149.418383
 21
244.08087
 31
0.0
  0
LINE
  5
1EB
100
AcDbEntity
  8
0
  6
Continuous
 62
   174
100
AcDbLine
 10
308.618058
 20
240.536814
 30
0.0
 11
308.618058
 21
245.114422
 31
0.0
  0
LINE
  5
1EC
100
AcDbEntity
  8
0
  6
Continuous
 62
   174
100
AcDbLine
 10
118.418058
 20
235.189258
 30
0.0
 11
118.418058
 21
236.972481
 31
0.0
  0
LINE
  5
1ED
100
AcDbEntity
  8
0
  6
Continuous
 62
   174
100
AcDbLine
 10
301.118058
 20
189.467918
 30
0.0
 11
294.918058
 21
189.467918
 31
0.0
  0
LINE
  5
1EE
100
AcDbEntity
  8
0
  6
HIDDEN
 62
   174
100
AcDbLine
 10
301.118058
 20
200.58087
 30
0.0
 11
294.918058
 21
200.58087
 31
0.0
  0
LINE
  5
1EF
100
AcDbEntity
  8
0
  6
Continuous
 62
   174
100
AcDbLine
 10
301.118058
 20
195.584237
 30
0.0
 11
301.118058
 21
200.584236
 31
0.0
  0
LINE
  5
1F0
100
AcDbEntity
  8
0
  6
Continuous
 62
   174
100
AcDbLine
 10
294.918058
 20
208.08087
 30
0.0
 11
293.418058
 21
208.08087
 31
0.0
  0
LINE
  5
1F1
100
AcDbEntity
  8
0
  6
HIDDEN
 62
   174
100
AcDbLine
 10
154.235462
 20
244.08087
 30
0.0
 11
154.674326
 21
244.08087
 31
0.0
  0
LINE
  5
1F2
100
AcDbEntity
  8
0
  6
Continuous
 62
   174
100
AcDbLine
 10
292.918058
 20
215.08087
 30
0.0
 11
292.918058
 21
233.296988
 31
0.0
  0
LINE
  5
1F3
100
AcDbEntity
  8
0
  6
HIDDEN
 62
   174
100
AcDbLine
 10
122.218058
 20
240.50276
 30
0.0
 11
119.110878
 21
240.50276
 31
0.0
  0
LINE
  5
1F4
100
AcDbEntity
  8
0
  6
Continuous
 62
   174
100
AcDbLine
 10
301.118058
 20
206.696514
 30
0.0
 11
294.918058
 21
206.696514
 31
0.0
  0
LWPOLYLINE
  5
1F5
100
AcDbEntity
  8
0
  6
Continuous
 62
   174
100
AcDbPolyline
 90
        4
 70
   128
 10
118.418058
 20
236.972481
 10
118.551178
 20
238.189196
 10
118.784263
 20
239.41136
 10
119.110878
 20
240.65853
  0
LWPOLYLINE
  5
1F6
100
AcDbEntity
  8
0
  6
HIDDEN
 62
   174
100
AcDbPolyline
 90
        4
 70
   128
 10
292.876098
 20
236.08087
 10
292.885092
 20
237.029853
 10
292.905498
 20
237.968019
 10
292.918058
 20
238.864752
  0
LINE
  5
1F7
100
AcDbEntity
  8
0
  6
HIDDEN
 62
   174
100
AcDbLine
 10
281.418058
 20
244.08087
 30
0.0
 11
281.818058
 21
244.08087
 31
0.0
  0
LINE
  5
1F8
100
AcDbEntity
  8
0
  6
Continuous
 62
   174
100
AcDbLine
 10
135.918058
 20
188.118725
 30
0.0
 11
135.918058
 21
188.435955
 31
0.0
  0
LINE
  5
1F9
100
AcDbEntity
  8
0
  6
Continuous
 62
   174
100
AcDbLine
 10
129.718058
 20
207.799315
 30
0.0
 11
129.718058
 21
206.731067
 31
0.0
  0
LWPOLYLINE
  5
1FA
100
AcDbEntity
  8
0
  6
Continuous
 62
   174
100
AcDbPolyline
 90
        4
 70
   128
 10
311.753999
 20
245.03105
 10
312.053138
 20
244.454013
 10
312.285892
 20
243.8426
 10
312.418058
 20
243.237396
  0
LINE
  5
1FB
100
AcDbEntity
  8
0
  6
Continuous
 62
   174
100
AcDbLine
 10
140.943646
 20
241.08087
 30
0.0
 11
137.943778
 21
241.08087
 31
0.0
  0
LINE
  5
1FC
100
AcDbEntity
  8
0
  6
Continuous
 62
   174
100
AcDbLine
 10
137.918058
 20
233.296988
 30
0.0
 11
137.918058
 21
215.08087
 31
0.0
  0
LINE
  5
1FD
100
AcDbEntity
  8
0
  6
Continuous
 62
   174
100
AcDbLine
 10
312.418058
 20
229.850721
 30
0.0
 11
312.418058
 21
242.379513
 31
0.0
  0
LINE
  5
1FE
100
AcDbEntity
  8
0
  6
Continuous
 62
   174
100
AcDbLine
 10
294.918058
 20
199.613514
 30
0.0
 11
294.918058
 21
195.6214
 31
0.0
  0
LINE
  5
1FF
100
AcDbEntity
  8
0
  6
Continuous
 62
   174
100
AcDbLine
 10
266.943526
 20
241.08087
 30
0.0
 11
263.943658
 21
241.08087
 31
0.0
  0
LINE
  5
200
100
AcDbEntity
  8
0
  6
HIDDEN
 62
   174
100
AcDbLine
 10
135.918058
 20
195.584237
 30
0.0
 11
135.918058
 21
200.584236
 31
0.0
  0
LINE
  5
201
100
AcDbEntity
  8
0
  6
Continuous
 62
   174
100
AcDbLine
 10
312.418058
 20
243.271122
 30
0.0
 11
312.418058
 21
243.914595
 31
0.0
  0
LINE
  5
202
100
AcDbEntity
  8
0
  6
Continuous
 62
   174
100
AcDbLine
 10
129.718058
 20
188.398089
 30
0.0
 11
135.918058
 21
188.398089
 31
0.0
  0
LINE
  5
203
100
AcDbEntity
  8
0
  6
HIDDEN
 62
   174
100
AcDbLine
 10
149.418383
 20
244.08087
 30
0.0
 11
150.440875
 21
244.08087
 31
0.0
  0
LINE
  5
204
100
AcDbEntity
  8
0
  6
HIDDEN
 62
   174
100
AcDbLine
 10
137.918058
 20
238.864752
 30
0.0
 11
137.918058
 21
241.08087
 31
0.0
  0
LINE
  5
205
100
AcDbEntity
  8
0
  6
HIDDEN
 62
   174
100
AcDbLine
 10
263.418058
 20
187.08087
 30
0.0
 11
263.418058
 21
215.08087
 31
0.0
  0
LINE
  5
206
100
AcDbEntity
  8
0
  6
HIDDEN
 62
   174
100
AcDbLine
 10
292.918058
 20
241.08087
 30
0.0
 11
292.918058
 21
238.864752
 31
0.0
  0
LINE
  5
207
100
AcDbEntity
  8
0
  6
HIDDEN
 62
   174
100
AcDbLine
 10
155.818058
 20
244.08087
 30
0.0
 11
163.918058
 21
244.08087
 31
0.0
  0
LINE
  5
208
100
AcDbEntity
  8
0
  6
HIDDEN
 62
   174
100
AcDbLine
 10
154.674326
 20
244.08087
 30
0.0
 11
155.418058
 21
244.08087
 31
0.0
  0
LINE
  5
209
100
AcDbEntity
  8
0
  6
Continuous
 62
   174
100
AcDbLine
 10
308.618058
 20
231.693721
 30
0.0
 11
308.618058
 21
236.115117
 31
0.0
  0
LINE
  5
20A
100
AcDbEntity
  8
0
  6
Continuous
 62
   174
100
AcDbLine
 10
292.943788
 20
241.08087
 30
0.0
 11
289.943619
 21
241.08087
 31
0.0
  0
LINE
  5
20B
100
AcDbEntity
  8
0
  6
HIDDEN
 62
   174
100
AcDbLine
 10
166.918058
 20
241.08087
 30
0.0
 11
166.918058
 21
215.08087
 31
0.0
  0
ARC
  5
20C
100
AcDbEntity
  8
0
  6
Continuous
 62
   174
100
AcDbCircle
 10
163.918058
 20
241.08087
 30
0.0
 40
3.0
100
AcDbArc
 50
-342.0
 51
-324.0
  0
LINE
  5
20D
100
AcDbEntity
  8
0
  6
Continuous
 62
   174
100
AcDbLine
 10
129.718058
 20
195.58087
 30
0.0
 11
135.918058
 21
195.58087
 31
0.0
  0
LWPOLYLINE
  5
20E
100
AcDbEntity
  8
0
  6
HIDDEN
 62
   174
100
AcDbPolyline
 90
        7
 70
   128
 10
311.725237
 20
240.65853
 10
312.091364
 20
241.41022
 10
312.319462
 20
242.147267
 10
312.396365
 20
242.869515
 10
312.319447
 20
243.591754
 10
312.091347
 20
244.328773
 10
311.725237
 20
245.08042
  0
LINE
  5
20F
100
AcDbEntity
  8
0
  6
HIDDEN
 62
   174
100
AcDbLine
 10
137.918058
 20
228.115869
 30
0.0
 11
137.918058
 21
233.331542
 31
0.0
  0
LINE
  5
210
100
AcDbEntity
  8
0
  6
HIDDEN
 62
   174
100
AcDbLine
 10
281.818058
 20
244.08087
 30
0.0
 11
289.918058
 21
244.08087
 31
0.0
  0
LINE
  5
211
100
AcDbEntity
  8
0
  6
HIDDEN
 62
   174
100
AcDbLine
 10
308.618058
 20
231.50321
 30
0.0
 11
311.725237
 21
231.50321
 31
0.0
  0
LINE
  5
212
100
AcDbEntity
  8
0
  6
HIDDEN
 62
   174
100
AcDbLine
 10
119.082071
 20
227.130769
 30
0.0
 11
119.110878
 21
227.081319
 31
0.0
  0
LINE
  5
213
100
AcDbEntity
  8
0
  6
Continuous
 62
   174
100
AcDbLine
 10
119.110878
 20
227.081319
 30
0.0
 11
119.083405
 21
227.130156
 31
0.0
  0
LWPOLYLINE
  5
214
100
AcDbEntity
  8
0
  6
HIDDEN
 62
   174
100
AcDbPolyline
 90
        4
 70
   128
 10
292.876098
 20
236.08087
 10
292.885093
 20
235.131862
 10
292.905498
 20
234.193696
 10
292.918058
 20
233.296988
  0
LINE
  5
215
100
AcDbEntity
  8
0
  6
HIDDEN
 62
   174
100
AcDbLine
 10
289.918058
 20
241.08087
 30
0.0
 11
289.918058
 21
215.08087
 31
0.0
  0
LINE
  5
216
100
AcDbEntity
  8
0
  6
Continuous
 62
   174
100
AcDbLine
 10
301.118058
 20
189.467918
 30
0.0
 11
301.118058
 21
193.004935
 31
0.0
  0
LINE
  5
217
100
AcDbEntity
  8
0
  6
Continuous
 62
   174
100
AcDbLine
 10
135.918058
 20
188.08087
 30
0.0
 11
137.418058
 21
188.08087
 31
0.0
  0
LINE
  5
218
100
AcDbEntity
  8
0
  6
Continuous
 62
   174
100
AcDbLine
 10
294.918058
 20
188.436856
 30
0.0
 11
294.918058
 21
188.118725
 31
0.0
  0
LINE
  5
219
100
AcDbEntity
  8
0
  6
HIDDEN
 62
   174
100
AcDbLine
 10
301.118058
 20
195.58087
 30
0.0
 11
294.918058
 21
195.58087
 31
0.0
  0
LINE
  5
21A
100
AcDbEntity
  8
0
  6
Continuous
 62
   174
100
AcDbLine
 10
301.118058
 20
203.162465
 30
0.0
 11
301.118058
 21
206.696514
 31
0.0
  0
LINE
  5
21B
100
AcDbEntity
  8
0
  6
Continuous
 62
   174
100
AcDbLine
 10
292.918058
 20
238.864752
 30
0.0
 11
292.918058
 21
241.08087
 31
0.0
  0
LINE
  5
21C
100
AcDbEntity
  8
0
  6
Continuous
 62
   174
100
AcDbLine
 10
289.918058
 20
215.08087
 30
0.0
 11
289.918058
 21
241.08087
 31
0.0
  0
LINE
  5
21D
100
AcDbEntity
  8
0
  6
Continuous
 62
   174
100
AcDbLine
 10
301.118058
 20
203.162465
 30
0.0
 11
294.918058
 21
203.162465
 31
0.0
  0
LINE
  5
21E
100
AcDbEntity
  8
0
  6
HIDDEN
 62
   174
100
AcDbLine
 10
155.418058
 20
244.08087
 30
0.0
 11
155.818058
 21
244.08087
 31
0.0
  0
LINE
  5
21F
100
AcDbEntity
  8
0
  6
HIDDEN
 62
   174
100
AcDbLine
 10
167.418058
 20
215.08087
 30
0.0
 11
167.418058
 21
187.08087
 31
0.0
  0
LINE
  5
220
100
AcDbEntity
  8
0
  6
Continuous
 62
   174
100
AcDbLine
 10
312.418058
 20
228.315639
 30
0.0
 11
312.418058
 21
228.959112
 31
0.0
  0
LINE
  5
221
100
AcDbEntity
  8
0
  6
Continuous
 62
   174
100
AcDbLine
 10
135.918058
 20
203.196173
 30
0.0
 11
135.918058
 21
206.731067
 31
0.0
  0
LINE
  5
222
100
AcDbEntity
  8
0
  6
HIDDEN
 62
   174
100
AcDbLine
 10
301.118058
 20
206.694749
 30
0.0
 11
294.918058
 21
206.694749
 31
0.0
  0
LWPOLYLINE
  5
223
100
AcDbEntity
  8
0
  6
Continuous
 62
   174
100
AcDbPolyline
 90
        4
 70
   128
 10
312.418058
 20
242.345785
 10
312.284937
 20
241.737426
 10
312.051855
 20
241.126351
 10
311.725237
 20
240.50276
  0
LINE
  5
224
100
AcDbEntity
  8
0
  6
Continuous
 62
   174
100
AcDbLine
 10
122.218058
 20
245.08042
 30
0.0
 11
119.110878
 21
245.08042
 31
0.0
  0
LINE
  5
225
100
AcDbEntity
  8
0
  6
Continuous
 62
   174
100
AcDbLine
 10
294.918058
 20
193.042402
 30
0.0
 11
294.918058
 21
189.505706
 31
0.0
  0
ARC
  5
226
100
AcDbEntity
  8
0
  6
HIDDEN
 62
   174
100
AcDbCircle
 10
266.918058
 20
241.08087
 30
0.0
 40
3.0
100
AcDbArc
 50
-270.0
 51
-180.0
  0
LWPOLYLINE
  5
227
100
AcDbEntity
  8
0
  6
HIDDEN
 62
   174
100
AcDbPolyline
 90
        4
 70
   128
 10
312.418058
 20
236.972481
 10
312.284937
 20
238.189196
 10
312.051852
 20
239.41136
 10
311.725237
 20
240.65853
  0
LINE
  5
228
100
AcDbEntity
  8
0
  6
Continuous
 62
   174
100
AcDbLine
 10
119.110878
 20
240.65853
 30
0.0
 11
122.218058
 21
240.65853
 31
0.0
  0
LINE
  5
229
100
AcDbEntity
  8
0
  6
Continuous
 62
   174
100
AcDbLine
 10
140.918058
 20
241.114798
 30
0.0
 11
140.918058
 21
244.114666
 31
0.0
  0
LINE
  5
22A
100
AcDbEntity
  8
0
  6
HIDDEN
 62
   174
100
AcDbLine
 10
211.068649
 20
208.08087
 30
0.0
 11
219.818616
 21
208.08087
 31
0.0
  0
LINE
  5
22B
100
AcDbEntity
  8
0
  6
HIDDEN
 62
   174
100
AcDbLine
 10
294.918058
 20
206.694749
 30
0.0
 11
294.918058
 21
203.15947
 31
0.0
  0
LINE
  5
22C
100
AcDbEntity
  8
0
  6
Continuous
 62
   174
100
AcDbLine
 10
301.118058
 20
193.042402
 30
0.0
 11
301.118058
 21
195.6214
 31
0.0
  0
LINE
  5
22D
100
AcDbEntity
  8
0
  6
HIDDEN
 62
   174
100
AcDbLine
 10
308.618058
 20
227.081319
 30
0.0
 11
308.618058
 21
231.50321
 31
0.0
  0
LINE
  5
22E
100
AcDbEntity
  8
0
  6
HIDDEN
 62
   174
100
AcDbLine
 10
292.918058
 20
233.296988
 30
0.0
 11
292.918058
 21
228.08087
 31
0.0
  0
LINE
  5
22F
100
AcDbEntity
  8
0
  6
Continuous
 62
   174
100
AcDbLine
 10
294.918058
 20
200.62108
 30
0.0
 11
294.918058
 21
199.613514
 31
0.0
  0
ARC
  5
230
100
AcDbEntity
  8
0
  6
Continuous
 62
   174
100
AcDbCircle
 10
266.918058
 20
241.08087
 30
0.0
 40
3.0
100
AcDbArc
 50
90.0
 51
180.0
  0
ARC
  5
231
100
AcDbEntity
  8
0
  6
Continuous
 62
   174
100
AcDbCircle
 10
163.918058
 20
241.08087
 30
0.0
 40
3.0
100
AcDbArc
 50
-324.0
 51
-306.0
  0
LINE
  5
232
100
AcDbEntity
  8
0
  6
HIDDEN
 62
   174
100
AcDbLine
 10
140.918058
 20
241.114798
 30
0.0
 11
140.918058
 21
244.114666
 31
0.0
  0
LINE
  5
233
100
AcDbEntity
  8
0
  6
Continuous
 62
   174
100
AcDbLine
 10
119.0842
 20
227.128745
 30
0.0
 11
118.567398
 21
228.359039
 31
0.0
  0
LINE
  5
234
100
AcDbEntity
  8
0
  6
Continuous
 62
   174
100
AcDbLine
 10
312.418058
 20
243.237396
 30
0.0
 11
312.418058
 21
242.345785
 31
0.0
  0
ARC
  5
235
100
AcDbEntity
  8
0
  6
HIDDEN
 62
   174
100
AcDbCircle
 10
289.918058
 20
241.08087
 30
0.0
 40
3.0
100
AcDbArc
 50
54.0
 51
72.0
  0
LINE
  5
236
100
AcDbEntity
  8
0
  6
Continuous
 62
   174
100
AcDbLine
 10
129.718058
 20
203.15947
 30
0.0
 11
135.918058
 21
203.15947
 31
0.0
  0
LINE
  5
237
100
AcDbEntity
  8
0
  6
Continuous
 62
   174
100
AcDbLine
 10
301.118058
 20
200.584236
 30
0.0
 11
294.918058
 21
200.584236
 31
0.0
  0
LINE
  5
238
100
AcDbEntity
  8
0
  6
HIDDEN
 62
   174
100
AcDbLine
 10
137.918058
 20
241.114798
 30
0.0
 11
137.918058
 21
238.898993
 31
0.0
  0
LINE
  5
239
100
AcDbEntity
  8
0
  6
Continuous
 62
   174
100
AcDbLine
 10
266.918058
 20
241.08087
 30
0.0
 11
289.918058
 21
241.08087
 31
0.0
  0
LINE
  5
23A
100
AcDbEntity
  8
0
  6
Continuous
 62
   174
100
AcDbLine
 10
308.618058
 20
236.115117
 30
0.0
 11
308.618058
 21
240.536814
 31
0.0
  0
LINE
  5
23B
100
AcDbEntity
  8
0
  6
Continuous
 62
   174
100
AcDbLine
 10
311.754044
 20
227.130769
 30
0.0
 11
311.725237
 21
227.081319
 31
0.0
  0
LINE
  5
23C
100
AcDbEntity
  8
0
  6
HIDDEN
 62
   174
100
AcDbLine
 10
292.943788
 20
241.08087
 30
0.0
 11
289.943619
 21
241.08087
 31
0.0
  0
LINE
  5
23D
100
AcDbEntity
  8
0
  6
Continuous
 62
   174
100
AcDbLine
 10
118.418058
 20
235.223508
 30
0.0
 11
118.418058
 21
228.315639
 31
0.0
  0
LWPOLYLINE
  5
23E
100
AcDbEntity
  8
0
  6
Continuous
 62
   174
100
AcDbPolyline
 90
        6
 70
   128
 10
119.110878
 20
240.65853
 10
118.744751
 20
241.41022
 10
118.516653
 20
242.147267
 10
118.43975
 20
242.869515
 10
118.516668
 20
243.591754
 10
118.567569
 20
243.803336
  0
LINE
  5
23F
100
AcDbEntity
  8
0
  6
HIDDEN
 62
   174
100
AcDbLine
 10
289.943619
 20
215.08087
 30
0.0
 11
292.943788
 21
215.08087
 31
0.0
  0
LINE
  5
240
100
AcDbEntity
  8
0
  6
Continuous
 62
   174
100
AcDbLine
 10
289.918058
 20
244.08087
 30
0.0
 11
266.918058
 21
244.08087
 31
0.0
  0
LINE
  5
241
100
AcDbEntity
  8
0
  6
HIDDEN
 62
   174
100
AcDbLine
 10
140.943646
 20
241.08087
 30
0.0
 11
137.943778
 21
241.08087
 31
0.0
  0
LINE
  5
242
100
AcDbEntity
  8
0
  6
Continuous
 62
   174
100
AcDbLine
 10
129.718058
 20
189.503903
 30
0.0
 11
129.718058
 21
188.435955
 31
0.0
  0
LWPOLYLINE
  5
243
100
AcDbEntity
  8
0
  6
Continuous
 62
   174
100
AcDbPolyline
 90
        4
 70
   128
 10
311.725237
 20
231.658979
 10
312.053138
 20
231.032572
 10
312.285892
 20
230.421159
 10
312.418058
 20
229.815955
  0
LINE
  5
244
100
AcDbEntity
  8
0
  6
Continuous
 62
   174
100
AcDbLine
 10
129.718058
 20
193.001939
 30
0.0
 11
135.918058
 21
193.001939
 31
0.0
  0
LWPOLYLINE
  5
245
100
AcDbEntity
  8
0
  6
Continuous
 62
   174
100
AcDbPolyline
 90
        4
 70
   128
 10
292.918058
 20
233.296988
 10
292.905498
 20
234.193689
 10
292.885093
 20
235.131843
 10
292.876098
 20
236.08087
  0
LINE
  5
246
100
AcDbEntity
  8
0
  6
HIDDEN
 62
   174
100
AcDbLine
 10
163.918058
 20
215.08087
 30
0.0
 11
140.918058
 21
215.08087
 31
0.0
  0
ARC
  5
247
100
AcDbEntity
  8
0
  6
HIDDEN
 62
   174
100
AcDbCircle
 10
163.918058
 20
241.08087
 30
0.0
 40
3.0
100
AcDbArc
 50
0.0
 51
18.0
  0
LWPOLYLINE
  5
248
100
AcDbEntity
  8
0
  6
Continuous
 62
   174
100
AcDbPolyline
 90
        6
 70
   128
 10
118.567398
 20
228.359039
 10
118.516653
 20
228.570056
 10
118.43975
 20
229.292304
 10
118.516668
 20
230.014544
 10
118.744769
 20
230.751563
 10
119.110878
 20
231.50321
  0
LWPOLYLINE
  5
249
100
AcDbEntity
  8
0
  6
HIDDEN
 62
   174
100
AcDbPolyline
 90
        7
 70
   128
 10
311.725237
 20
227.081319
 10
312.091364
 20
227.83301
 10
312.319462
 20
228.570056
 10
312.396365
 20
229.292304
 10
312.319447
 20
230.014544
 10
312.091347
 20
230.751563
 10
311.725237
 20
231.50321
  0
LINE
  5
24A
100
AcDbEntity
  8
0
  6
Continuous
 62
   174
100
AcDbLine
 10
294.918058
 20
188.08087
 30
0.0
 11
293.418058
 21
188.08087
 31
0.0
  0
LINE
  5
24B
100
AcDbEntity
  8
0
  6
Continuous
 62
   174
100
AcDbLine
 10
135.918058
 20
207.799315
 30
0.0
 11
135.918058
 21
208.117146
 31
0.0
  0
LINE
  5
24C
100
AcDbEntity
  8
0
  6
HIDDEN
 62
   174
100
AcDbLine
 10
119.110878
 20
245.08042
 30
0.0
 11
119.082026
 21
245.030896
 31
0.0
  0
LINE
  5
24D
100
AcDbEntity
  8
0
  6
Continuous
 62
   174
100
AcDbLine
 10
122.218058
 20
245.114121
 30
0.0
 11
122.218058
 21
240.692425
 31
0.0
  0
LINE
  5
24E
100
AcDbEntity
  8
0
  6
Continuous
 62
   174
100
AcDbLine
 10
312.418058
 20
229.815955
 30
0.0
 11
312.418058
 21
228.924343
 31
0.0
  0
LINE
  5
24F
100
AcDbEntity
  8
0
  6
Continuous
 62
   174
100
AcDbLine
 10
129.718058
 20
200.58087
 30
0.0
 11
135.918058
 21
200.58087
 31
0.0
  0
LINE
  5
250
100
AcDbEntity
  8
0
  6
HIDDEN
 62
   174
100
AcDbLine
 10
294.918058
 20
200.58087
 30
0.0
 11
294.918058
 21
195.58087
 31
0.0
  0
LWPOLYLINE
  5
251
100
AcDbEntity
  8
0
  6
Continuous
 62
   174
100
AcDbPolyline
 90
        4
 70
   128
 10
137.960018
 20
236.08087
 10
137.951023
 20
237.029853
 10
137.930618
 20
237.968019
 10
137.918058
 20
238.864752
  0
ARC
  5
252
100
AcDbEntity
  8
0
  6
HIDDEN
 62
   174
100
AcDbCircle
 10
289.918058
 20
241.08087
 30
0.0
 40
3.0
100
AcDbArc
 50
36.0
 51
54.0
  0
LINE
  5
253
100
AcDbEntity
  8
0
  6
Continuous
 62
   174
100
AcDbLine
 10
135.918058
 20
195.618095
 30
0.0
 11
135.918058
 21
199.614115
 31
0.0
  0
LINE
  5
254
100
AcDbEntity
  8
0
  6
HIDDEN
 62
   174
100
AcDbLine
 10
137.943778
 20
215.08087
 30
0.0
 11
140.943646
 21
215.08087
 31
0.0
  0
ARC
  5
255
100
AcDbEntity
  8
0
  6
Continuous
 62
   174
100
AcDbCircle
 10
163.918058
 20
241.08087
 30
0.0
 40
3.0
100
AcDbArc
 50
0.0
 51
90.0
  0
LINE
  5
256
100
AcDbEntity
  8
0
  6
Continuous
 62
   174
100
AcDbLine
 10
301.118058
 20
193.004935
 30
0.0
 11
294.918058
 21
193.004935
 31
0.0
  0
LINE
  5
257
100
AcDbEntity
  8
0
  6
HIDDEN
 62
   174
100
AcDbLine
 10
292.918058
 20
228.08087
 30
0.0
 11
292.918058
 21
215.08087
 31
0.0
  0
LINE
  5
258
100
AcDbEntity
  8
0
  6
Continuous
 62
   174
100
AcDbLine
 10
135.918058
 20
189.503903
 30
0.0
 11
135.918058
 21
193.039398
 31
0.0
  0
LINE
  5
259
100
AcDbEntity
  8
0
  6
Continuous
 62
   174
100
AcDbLine
 10
294.918058
 20
206.732869
 30
0.0
 11
294.918058
 21
203.199177
 31
0.0
  0
LINE
  5
25A
100
AcDbEntity
  8
0
  6
HIDDEN
 62
   174
100
AcDbLine
 10
135.918058
 20
203.162465
 30
0.0
 11
135.918058
 21
206.696514
 31
0.0
  0
LINE
  5
25B
100
AcDbEntity
  8
0
  6
HIDDEN
 62
   174
100
AcDbLine
 10
311.725237
 20
240.65853
 30
0.0
 11
308.618058
 21
240.65853
 31
0.0
  0
LINE
  5
25C
100
AcDbEntity
  8
0
  6
HIDDEN
 62
   174
100
AcDbLine
 10
308.618058
 20
240.65853
 30
0.0
 11
308.618058
 21
245.08042
 31
0.0
  0
LWPOLYLINE
  5
25D
100
AcDbEntity
  8
0
  6
HIDDEN
 62
   174
100
AcDbPolyline
 90
        6
 70
   128
 10
292.918058
 20
241.08087
 10
292.745715
 20
242.083044
 10
292.293915
 20
242.912618
 10
291.630844
 20
243.543868
 10
290.822314
 20
243.941345
 10
289.918058
 20
244.08087
  0
LINE
  5
25E
100
AcDbEntity
  8
0
  6
Continuous
 62
   174
100
AcDbLine
 10
167.418058
 20
215.08087
 30
0.0
 11
137.418058
 21
215.08087
 31
0.0
  0
LINE
  5
25F
100
AcDbEntity
  8
0
  6
HIDDEN
 62
   174
100
AcDbLine
 10
289.918058
 20
241.08087
 30
0.0
 11
266.918058
 21
241.08087
 31
0.0
  0
LINE
  5
260
100
AcDbEntity
  8
0
  6
Continuous
 62
   174
100
AcDbLine
 10
301.118058
 20
195.584237
 30
0.0
 11
294.918058
 21
195.584237
 31
0.0
  0
LINE
  5
261
100
AcDbEntity
  8
0
  6
Continuous
 62
   174
100
AcDbLine
 10
166.943607
 20
241.08087
 30
0.0
 11
163.943739
 21
241.08087
 31
0.0
  0
LINE
  5
262
100
AcDbEntity
  8
0
  6
Continuous
 62
   174
100
AcDbLine
 10
308.618058
 20
227.081319
 30
0.0
 11
311.725237
 21
227.081319
 31
0.0
  0
LINE
  5
263
100
AcDbEntity
  8
0
  6
Continuous
 62
   174
100
AcDbLine
 10
301.118058
 20
188.436856
 30
0.0
 11
301.118058
 21
189.505706
 31
0.0
  0
LINE
  5
264
100
AcDbEntity
  8
0
  6
HIDDEN
 62
   174
100
AcDbLine
 10
135.918058
 20
189.467918
 30
0.0
 11
135.918058
 21
193.004935
 31
0.0
  0
LINE
  5
265
100
AcDbEntity
  8
0
  6
Continuous
 62
   174
100
AcDbLine
 10
308.618058
 20
245.08042
 30
0.0
 11
311.725237
 21
245.08042
 31
0.0
  0
LINE
  5
266
100
AcDbEntity
  8
0
  6
HIDDEN
 62
   174
100
AcDbLine
 10
292.918058
 20
238.898993
 30
0.0
 11
292.918058
 21
241.114798
 31
0.0
  0
LINE
  5
267
100
AcDbEntity
  8
0
  6
Continuous
 62
   174
100
AcDbLine
 10
289.918058
 20
244.114666
 30
0.0
 11
289.918058
 21
241.114798
 31
0.0
  0
LINE
  5
268
100
AcDbEntity
  8
0
  6
HIDDEN
 62
   174
100
AcDbLine
 10
308.618058
 20
227.115812
 30
0.0
 11
308.618058
 21
227.116413
 31
0.0
  0
LINE
  5
269
100
AcDbEntity
  8
0
  6
HIDDEN
 62
   174
100
AcDbLine
 10
294.918058
 20
193.001939
 30
0.0
 11
294.918058
 21
189.466151
 31
0.0
  0
LINE
  5
26A
100
AcDbEntity
  8
0
  6
Continuous
 62
   174
100
AcDbLine
 10
301.118058
 20
188.398959
 30
0.0
 11
294.918058
 21
188.398959
 31
0.0
  0
LINE
  5
26B
100
AcDbEntity
  8
0
  6
HIDDEN
 62
   174
100
AcDbLine
 10
129.718058
 20
193.004935
 30
0.0
 11
135.918058
 21
193.004935
 31
0.0
  0
LINE
  5
26C
100
AcDbEntity
  8
0
  6
HIDDEN
 62
   174
100
AcDbLine
 10
129.718058
 20
206.696514
 30
0.0
 11
135.918058
 21
206.696514
 31
0.0
  0
LWPOLYLINE
  5
26D
100
AcDbEntity
  8
0
  6
Continuous
 62
   174
100
AcDbPolyline
 90
        4
 70
   128
 10
119.110878
 20
231.50321
 10
118.782977
 20
232.756025
 10
118.550224
 20
233.978846
 10
118.418058
 20
235.189258
  0
LWPOLYLINE
  5
26E
100
AcDbEntity
  8
0
  6
HIDDEN
 62
   174
100
AcDbPolyline
 90
        4
 70
   128
 10
137.918058
 20
238.864752
 10
137.930618
 20
237.968016
 10
137.951023
 20
237.029863
 10
137.960018
 20
236.08087
  0
LINE
  5
26F
100
AcDbEntity
  8
0
  6
HIDDEN
 62
   174
100
AcDbLine
 10
308.618058
 20
231.50321
 30
0.0
 11
308.618058
 21
240.65853
 31
0.0
  0
LWPOLYLINE
  5
270
100
AcDbEntity
  8
0
  6
HIDDEN
 62
   174
100
AcDbPolyline
 90
        4
 70
   128
 10
311.725237
 20
231.50321
 10
312.053138
 20
232.756025
 10
312.285891
 20
233.978846
 10
312.418058
 20
235.189258
  0
LINE
  5
271
100
AcDbEntity
  8
0
  6
Continuous
 62
   174
100
AcDbLine
 10
129.718058
 20
200.58087
 30
0.0
 11
129.718058
 21
195.58087
 31
0.0
  0
LINE
  5
272
100
AcDbEntity
  8
0
  6
Continuous
 62
   174
100
AcDbLine
 10
135.918058
 20
208.08087
 30
0.0
 11
137.418058
 21
208.08087
 31
0.0
  0
ARC
  5
273
100
AcDbEntity
  8
0
  6
HIDDEN
 62
   174
100
AcDbCircle
 10
289.918058
 20
241.08087
 30
0.0
 40
3.0
100
AcDbArc
 50
18.0
 51
36.0
  0
ENDBLK
  5
274
100
AcDbEntity
  8
0
100
AcDbBlockEnd
  0
BLOCK
  5
277
100
AcDbEntity
  8
0
100
AcDbBlockBegin
  2
*B3
 70
     0
 10
0.0
 20
0.0
 30
0.0
  3
*B3
  1

  0
LINE
  5
278
100
AcDbEntity
  8
0
  6
Continuous
 62
   172
100
AcDbLine
 10
145.298638
 20
191.340856
 30
0.0
 11
124.658614
 21
156.241744
 31
0.0
  0
LINE
  5
279
100
AcDbEntity
  8
0
  6
Continuous
 62
   172
100
AcDbLine
 10
124.658614
 20
156.241744
 30
0.0
 11
114.848638
 21
156.241744
 31
0.0
  0
ENDBLK
  5
27A
100
AcDbEntity
  8
0
100
AcDbBlockEnd
  0
BLOCK
  5
27D
100
AcDbEntity
  8
0
100
AcDbBlockBegin
  2
*B4
 70
     0
 10
0.0
 20
0.0
 30
0.0
  3
*B4
  1

  0
LINE
  5
27E
100
AcDbEntity
  8
0
  6
Continuous
 62
   172
100
AcDbLine
 10
122.620265
 20
158.369228
 30
0.0
 11
120.520265
 21
159.140856
 31
0.0
  0
LINE
  5
27F
100
AcDbEntity
  8
0
  6
Continuous
 62
   172
100
AcDbLine
 10
122.620265
 20
158.369228
 30
0.0
 11
120.520265
 21
157.740856
 31
0.0
  0
LINE
  5
280
100
AcDbEntity
  8
0
  6
Continuous
 62
   172
100
AcDbLine
 10
121.220265
 20
158.369228
 30
0.0
 11
122.620265
 21
158.369228
 31
0.0
  0
LINE
  5
281
100
AcDbEntity
  8
0
  6
Continuous
 62
   172
100
AcDbLine
 10
122.620265
 20
170.412484
 30
0.0
 11
120.520265
 21
169.640856
 31
0.0
  0
LINE
  5
282
100
AcDbEntity
  8
0
  6
Continuous
 62
   172
100
AcDbLine
 10
122.620265
 20
170.412484
 30
0.0
 11
120.520265
 21
171.040856
 31
0.0
  0
LINE
  5
283
100
AcDbEntity
  8
0
  6
Continuous
 62
   172
100
AcDbLine
 10
121.220265
 20
170.412484
 30
0.0
 11
122.620265
 21
170.412484
 31
0.0
  0
ARC
  5
284
100
AcDbEntity
  8
0
  6
Continuous
 62
   172
100
AcDbCircle
 10
121.220265
 20
164.390856
 30
0.0
 40
6.021628
100
AcDbArc
 50
-270.0
 51
-90.0
  0
ENDBLK
  5
285
100
AcDbEntity
  8
0
100
AcDbBlockEnd
  0
BLOCK
  5
288
100
AcDbEntity
  8
0
100
AcDbBlockBegin
  2
*B5
 70
     0
 10
0.0
 20
0.0
 30
0.0
  3
*B5
  1

  0
ENDBLK
  5
289
100
AcDbEntity
  8
0
100
AcDbBlockEnd
  0
BLOCK
  5
28B
100
AcDbEntity
  8
0
100
AcDbBlockBegin
  2
*B6
 70
     0
 10
0.0
 20
0.0
 30
0.0
  3
*B6
  1

  0
LINE
  5
28C
100
AcDbEntity
  8
0
  6
Continuous
 62
     0
100
AcDbLine
 10
263.44378
 20
261.03241
 30
0.0
 11
312.443533
 21
261.03241
 31
0.0
  0
SOLID
  5
28D
100
AcDbEntity
  8
0
  6
Continuous
 62
     0
100
AcDbTrace
 10
268.443761
 20
262.032466
 30
0.0
 11
263.44378
 21
261.03241
 31
0.0
 12
268.443761
 22
260.032654
 32
0.0
 13
268.443761
 23
260.032654
 33
0.0
  0
SOLID
  5
28E
100
AcDbEntity
  8
0
  6
Continuous
 62
     0
100
AcDbTrace
 10
307.443552
 20
260.032654
 30
0.0
 11
312.443533
 21
261.03241
 31
0.0
 12
307.443552
 22
262.032466
 32
0.0
 13
307.443552
 23
262.032466
 33
0.0
  0
ENDBLK
  5
28F
100
AcDbEntity
  8
0
100
AcDbBlockEnd
  0
BLOCK
  5
292
100
AcDbEntity
  8
0
100
AcDbBlockBegin
  2
*B7
 70
     0
 10
0.0
 20
0.0
 30
0.0
  3
*B7
  1

  0
LINE
  5
293
100
AcDbEntity
  8
0
  6
Continuous
 62
     0
100
AcDbLine
 10
167.443786
 20
261.03241
 30
0.0
 11
118.443732
 21
261.03241
 31
0.0
  0
SOLID
  5
294
100
AcDbEntity
  8
0
  6
Continuous
 62
     0
100
AcDbTrace
 10
162.443805
 20
260.032654
 30
0.0
 11
167.443786
 21
261.03241
 31
0.0
 12
162.443805
 22
262.032466
 32
0.0
 13
162.443805
 23
262.032466
 33
0.0
  0
SOLID
  5
295
100
AcDbEntity
  8
0
  6
Continuous
 62
     0
100
AcDbTrace
 10
123.443713
 20
262.032466
 30
0.0
 11
118.443732
 21
261.03241
 31
0.0
 12
123.443713
 22
260.032654
 32
0.0
 13
123.443713
 23
260.032654
 33
0.0
  0
ENDBLK
  5
296
100
AcDbEntity
  8
0
100
AcDbBlockEnd
  0
BLOCK
  5
299
100
AcDbEntity
  8
0
100
AcDbBlockBegin
  2
*B8
 70
     0
 10
0.0
 20
0.0
 30
0.0
  3
*B8
  1

  0
LINE
  5
29A
100
AcDbEntity
  8
0
  6
Continuous
 62
     0
100
AcDbLine
 10
263.44378
 20
261.03241
 30
0.0
 11
167.443786
 21
261.03241
 31
0.0
  0
SOLID
  5
29B
100
AcDbEntity
  8
0
  6
Continuous
 62
     0
100
AcDbTrace
 10
258.443799
 20
260.032654
 30
0.0
 11
263.44378
 21
261.03241
 31
0.0
 12
258.443799
 22
262.032466
 32
0.0
 13
258.443799
 23
262.032466
 33
0.0
  0
SOLID
  5
29C
100
AcDbEntity
  8
0
  6
Continuous
 62
     0
100
AcDbTrace
 10
172.443767
 20
262.032466
 30
0.0
 11
167.443786
 21
261.03241
 31
0.0
 12
172.443767
 22
260.032654
 32
0.0
 13
172.443767
 23
260.032654
 33
0.0
  0
ENDBLK
  5
29D
100
AcDbEntity
  8
0
100
AcDbBlockEnd
  0
BLOCK
  5
2A0
100
AcDbEntity
  8
0
100
AcDbBlockBegin
  2
*B9
 70
     0
 10
0.0
 20
0.0
 30
0.0
  3
*B9
  1

  0
LINE
  5
2A1
100
AcDbEntity
  8
0
  6
Continuous
 62
     0
100
AcDbLine
 10
324.428587
 20
217.116451
 30
0.0
 11
324.428587
 21
187.118669
 31
0.0
  0
SOLID
  5
2A2
100
AcDbEntity
  8
0
  6
Continuous
 62
     0
100
AcDbTrace
 10
325.428643
 20
212.117071
 30
0.0
 11
324.428587
 21
217.116451
 31
0.0
 12
323.428531
 22
212.117071
 32
0.0
 13
323.428531
 23
212.117071
 33
0.0
  0
SOLID
  5
2A3
100
AcDbEntity
  8
0
  6
Continuous
 62
     0
100
AcDbTrace
 10
323.428531
 20
192.118349
 30
0.0
 11
324.428587
 21
187.118669
 31
0.0
 12
325.428643
 22
192.118349
 32
0.0
 13
325.428643
 23
192.118349
 33
0.0
  0
ENDBLK
  5
2A4
100
AcDbEntity
  8
0
100
AcDbBlockEnd
  0
BLOCK
  5
2A7
100
AcDbEntity
  8
0
100
AcDbBlockBegin
  2
*B10
 70
     0
 10
0.0
 20
0.0
 30
0.0
  3
*B10
  1

  0
LINE
  5
2A8
100
AcDbEntity
  8
0
  6
Continuous
 62
     0
100
AcDbLine
 10
225.443745
 20
86.25628
 30
0.0
 11
187.443709
 21
86.25628
 31
0.0
  0
SOLID
  5
2A9
100
AcDbEntity
  8
0
  6
Continuous
 62
     0
100
AcDbTrace
 10
220.443764
 20
87.256336
 30
0.0
 11
215.443783
 21
86.25628
 31
0.0
 12
220.443764
 22
85.256524
 32
0.0
 13
220.443764
 23
85.256524
 33
0.0
  0
SOLID
  5
2AA
100
AcDbEntity
  8
0
  6
Continuous
 62
     0
100
AcDbTrace
 10
192.44369
 20
85.256524
 30
0.0
 11
197.443671
 21
86.25628
 31
0.0
 12
192.44369
 22
87.256336
 32
0.0
 13
192.44369
 23
87.256336
 33
0.0
  0
ENDBLK
  5
2AB
100
AcDbEntity
  8
0
100
AcDbBlockEnd
  0
BLOCK
  5
2AE
100
AcDbEntity
  8
0
100
AcDbBlockBegin
  2
*B11
 70
     0
 10
0.0
 20
0.0
 30
0.0
  3
*B11
  1

  0
LINE
  5
2AF
100
AcDbEntity
  8
0
  6
Continuous
 62
     0
100
AcDbLine
 10
234.44365
 20
143.280215
 30
0.0
 11
196.443615
 21
143.280215
 31
0.0
  0
SOLID
  5
2B0
100
AcDbEntity
  8
0
  6
Continuous
 62
     0
100
AcDbTrace
 10
229.443669
 20
144.280272
 30
0.0
 11
224.443688
 21
143.280215
 31
0.0
 12
229.443669
 22
142.280159
 32
0.0
 13
229.443669
 23
142.280159
 33
0.0
  0
SOLID
  5
2B1
100
AcDbEntity
  8
0
  6
Continuous
 62
     0
100
AcDbTrace
 10
201.443596
 20
142.280159
 30
0.0
 11
206.443577
 21
143.280215
 31
0.0
 12
201.443596
 22
144.280272
 32
0.0
 13
201.443596
 23
144.280272
 33
0.0
  0
ENDBLK
  5
2B2
100
AcDbEntity
  8
0
100
AcDbBlockEnd
  0
BLOCK
  5
2B5
100
AcDbEntity
  8
0
100
AcDbBlockBegin
  2
*B12
 70
     0
 10
0.0
 20
0.0
 30
0.0
  3
*B12
  1

  0
LINE
  5
2B6
100
AcDbEntity
  8
0
  6
Continuous
 62
     0
100
AcDbLine
 10
201.068687
 20
231.034627
 30
0.0
 11
247.324519
 21
231.034627
 31
0.0
  0
SOLID
  5
2B7
100
AcDbEntity
  8
0
  6
Continuous
 62
     0
100
AcDbTrace
 10
206.068668
 20
230.034871
 30
0.0
 11
211.068649
 21
231.034627
 31
0.0
 12
206.068668
 22
232.034683
 32
0.0
 13
206.068668
 23
232.034683
 33
0.0
  0
SOLID
  5
2B8
100
AcDbEntity
  8
0
  6
Continuous
 62
     0
100
AcDbTrace
 10
224.818597
 20
232.034683
 30
0.0
 11
219.818616
 21
231.034627
 31
0.0
 12
224.818597
 22
230.034871
 32
0.0
 13
224.818597
 23
230.034871
 33
0.0
  0
ENDBLK
  5
2B9
100
AcDbEntity
  8
0
100
AcDbBlockEnd
  0
BLOCK
  5
2BC
100
AcDbEntity
  8
0
100
AcDbBlockBegin
  2
*B13
 70
     0
 10
0.0
 20
0.0
 30
0.0
  3
*B13
  1

  0
LINE
  5
2BD
100
AcDbEntity
  8
0
  6
Continuous
 62
     0
100
AcDbLine
 10
247.443781
 20
245.033612
 30
0.0
 11
183.443785
 21
245.033612
 31
0.0
  0
SOLID
  5
2BE
100
AcDbEntity
  8
0
  6
Continuous
 62
     0
100
AcDbTrace
 10
242.4438
 20
244.033856
 30
0.0
 11
247.443781
 21
245.033612
 31
0.0
 12
242.4438
 22
246.033669
 32
0.0
 13
242.4438
 23
246.033669
 33
0.0
  0
SOLID
  5
2BF
100
AcDbEntity
  8
0
  6
Continuous
 62
     0
100
AcDbTrace
 10
188.443766
 20
246.033669
 30
0.0
 11
183.443785
 21
245.033612
 31
0.0
 12
188.443766
 22
244.033856
 32
0.0
 13
188.443766
 23
244.033856
 33
0.0
  0
ENDBLK
  5
2C0
100
AcDbEntity
  8
0
100
AcDbBlockEnd
  0
BLOCK
  5
2C3
100
AcDbEntity
  8
0
100
AcDbBlockBegin
  2
*B14
 70
     0
 10
0.0
 20
0.0
 30
0.0
  3
*B14
  1

  0
LINE
  5
2C4
100
AcDbEntity
  8
0
  6
Continuous
 62
     0
100
AcDbLine
 10
228.243542
 20
172.038817
 30
0.0
 11
264.35792
 21
172.038817
 31
0.0
  0
SOLID
  5
2C5
100
AcDbEntity
  8
0
  6
Continuous
 62
     0
100
AcDbTrace
 10
233.243823
 20
171.039062
 30
0.0
 11
238.243804
 21
172.038817
 31
0.0
 12
233.243823
 22
173.038874
 32
0.0
 13
233.243823
 23
173.038874
 33
0.0
  0
SOLID
  5
2C6
100
AcDbEntity
  8
0
  6
Continuous
 62
     0
100
AcDbTrace
 10
247.643552
 20
173.038874
 30
0.0
 11
242.643571
 21
172.038817
 31
0.0
 12
247.643552
 22
171.039062
 32
0.0
 13
247.643552
 23
171.039062
 33
0.0
  0
ENDBLK
  5
2C7
100
AcDbEntity
  8
0
100
AcDbBlockEnd
  0
BLOCK
  5
2CA
100
AcDbEntity
  8
0
100
AcDbBlockBegin
  2
*B15
 70
     0
 10
0.0
 20
0.0
 30
0.0
  3
*B15
  1

  0
LINE
  5
2CB
100
AcDbEntity
  8
0
  6
Continuous
 62
     0
100
AcDbLine
 10
183.443785
 20
143.280215
 30
0.0
 11
206.443577
 21
143.280215
 31
0.0
  0
SOLID
  5
2CC
100
AcDbEntity
  8
0
  6
Continuous
 62
     0
100
AcDbTrace
 10
188.443766
 20
144.280272
 30
0.0
 11
183.443785
 21
143.280215
 31
0.0
 12
188.443766
 22
142.280159
 32
0.0
 13
188.443766
 23
142.280159
 33
0.0
  0
SOLID
  5
2CD
100
AcDbEntity
  8
0
  6
Continuous
 62
     0
100
AcDbTrace
 10
201.443596
 20
142.280159
 30
0.0
 11
206.443577
 21
143.280215
 31
0.0
 12
201.443596
 22
144.280272
 32
0.0
 13
201.443596
 23
144.280272
 33
0.0
  0
ENDBLK
  5
2CE
100
AcDbEntity
  8
0
100
AcDbBlockEnd
  0
BLOCK
  5
2D1
100
AcDbEntity
  8
0
100
AcDbBlockBegin
  2
*B16
 70
     0
 10
0.0
 20
0.0
 30
0.0
  3
*B16
  1

  0
LINE
  5
2D2
100
AcDbEntity
  8
0
  6
Continuous
 62
     0
100
AcDbLine
 10
205.443821
 20
72.285233
 30
0.0
 11
243.443556
 21
72.285233
 31
0.0
  0
SOLID
  5
2D3
100
AcDbEntity
  8
0
  6
Continuous
 62
     0
100
AcDbTrace
 10
210.443802
 20
71.285477
 30
0.0
 11
215.443783
 21
72.285233
 31
0.0
 12
210.443802
 22
73.285289
 32
0.0
 13
210.443802
 23
73.285289
 33
0.0
  0
SOLID
  5
2D4
100
AcDbEntity
  8
0
  6
Continuous
 62
     0
100
AcDbTrace
 10
238.443575
 20
73.285289
 30
0.0
 11
233.443594
 21
72.285233
 31
0.0
 12
238.443575
 22
71.285477
 32
0.0
 13
238.443575
 23
71.285477
 33
0.0
  0
ENDBLK
  5
2D5
100
AcDbEntity
  8
0
100
AcDbBlockEnd
  0
BLOCK
  5
2D8
100
AcDbEntity
  8
0
100
AcDbBlockBegin
  2
*B17
 70
     0
 10
0.0
 20
0.0
 30
0.0
  3
*B17
  1

  0
LINE
  5
2D9
100
AcDbEntity
  8
0
  6
Continuous
 62
     0
100
AcDbLine
 10
106.428638
 20
99.176803
 30
0.0
 11
106.428638
 21
129.174886
 31
0.0
  0
SOLID
  5
2DA
100
AcDbEntity
  8
0
  6
Continuous
 62
     0
100
AcDbTrace
 10
105.428581
 20
104.176483
 30
0.0
 11
106.428638
 21
99.176803
 31
0.0
 12
107.428694
 22
104.176483
 32
0.0
 13
107.428694
 23
104.176483
 33
0.0
  0
SOLID
  5
2DB
100
AcDbEntity
  8
0
  6
Continuous
 62
     0
100
AcDbTrace
 10
107.428694
 20
124.175205
 30
0.0
 11
106.428638
 21
129.174886
 31
0.0
 12
105.428581
 22
124.175205
 32
0.0
 13
105.428581
 23
124.175205
 33
0.0
  0
ENDBLK
  5
2DC
100
AcDbEntity
  8
0
100
AcDbBlockEnd
  0
BLOCK
  5
2DF
100
AcDbEntity
  8
0
100
AcDbBlockBegin
  2
*B18
 70
     0
 10
0.0
 20
0.0
 30
0.0
  3
*B18
  1

  0
LINE
  5
2E0
100
AcDbEntity
  8
0
  6
Continuous
 62
     0
100
AcDbLine
 10
106.428638
 20
245.114121
 30
0.0
 11
106.428638
 21
187.118669
 31
0.0
  0
SOLID
  5
2E1
100
AcDbEntity
  8
0
  6
Continuous
 62
     0
100
AcDbTrace
 10
107.428694
 20
240.114441
 30
0.0
 11
106.428638
 21
245.114121
 31
0.0
 12
105.428581
 22
240.114441
 32
0.0
 13
105.428581
 23
240.114441
 33
0.0
  0
SOLID
  5
2E2
100
AcDbEntity
  8
0
  6
Continuous
 62
     0
100
AcDbTrace
 10
105.428581
 20
192.118349
 30
0.0
 11
106.428638
 21
187.118669
 31
0.0
 12
107.428694
 22
192.118349
 32
0.0
 13
107.428694
 23
192.118349
 33
0.0
  0
ENDBLK
  5
2E3
100
AcDbEntity
  8
0
100
AcDbBlockEnd
  0
BLOCK
  5
2E6
100
AcDbEntity
  8
0
100
AcDbBlockBegin
  2
*B19
 70
     0
 10
0.0
 20
0.0
 30
0.0
  3
*B19
  1

  0
LINE
  5
2E7
100
AcDbEntity
  8
0
  6
Continuous
 62
     0
100
AcDbLine
 10
173.443823
 20
157.279201
 30
0.0
 11
200.44384
 21
157.279201
 31
0.0
  0
SOLID
  5
2E8
100
AcDbEntity
  8
0
  6
Continuous
 62
     0
100
AcDbTrace
 10
178.443804
 20
156.279144
 30
0.0
 11
183.443785
 21
157.279201
 31
0.0
 12
178.443804
 22
158.279257
 32
0.0
 13
178.443804
 23
158.279257
 33
0.0
  0
SOLID
  5
2E9
100
AcDbEntity
  8
0
  6
Continuous
 62
     0
100
AcDbTrace
 10
195.443559
 20
158.279257
 30
0.0
 11
190.443578
 21
157.279201
 31
0.0
 12
195.443559
 22
156.279144
 32
0.0
 13
195.443559
 23
156.279144
 33
0.0
  0
ENDBLK
  5
2EA
100
AcDbEntity
  8
0
100
AcDbBlockEnd
  0
BLOCK
  5
2ED
100
AcDbEntity
  8
0
100
AcDbBlockBegin
  2
*B20
 70
     0
 10
0.0
 20
0.0
 30
0.0
  3
*B20
  1

  0
LINE
  5
2EE
100
AcDbEntity
  8
0
  6
Continuous
 62
     0
100
AcDbLine
 10
190.443578
 20
157.279201
 30
0.0
 11
240.443687
 21
157.279201
 31
0.0
  0
SOLID
  5
2EF
100
AcDbEntity
  8
0
  6
Continuous
 62
     0
100
AcDbTrace
 10
195.443559
 20
158.279257
 30
0.0
 11
190.443578
 21
157.279201
 31
0.0
 12
195.443559
 22
156.279144
 32
0.0
 13
195.443559
 23
156.279144
 33
0.0
  0
SOLID
  5
2F0
100
AcDbEntity
  8
0
  6
Continuous
 62
     0
100
AcDbTrace
 10
235.443707
 20
156.279144
 30
0.0
 11
240.443687
 21
157.279201
 31
0.0
 12
235.443707
 22
158.279257
 32
0.0
 13
235.443707
 23
158.279257
 33
0.0
  0
ENDBLK
  5
2F1
100
AcDbEntity
  8
0
100
AcDbBlockEnd
  0
BLOCK
  5
2F4
100
AcDbEntity
  8
0
100
AcDbBlockBegin
  2
*B21
 70
     0
 10
0.0
 20
0.0
 30
0.0
  3
*B21
  1

  0
LINE
  5
2F5
100
AcDbEntity
  8
0
  6
Continuous
 62
     0
100
AcDbLine
 10
257.428722
 20
114.175844
 30
0.0
 11
257.428722
 21
143.259487
 31
0.0
  0
SOLID
  5
2F6
100
AcDbEntity
  8
0
  6
Continuous
 62
     0
100
AcDbTrace
 10
258.428478
 20
119.175525
 30
0.0
 11
257.428722
 21
124.175205
 31
0.0
 12
256.428666
 22
119.175525
 32
0.0
 13
256.428666
 23
119.175525
 33
0.0
  0
SOLID
  5
2F7
100
AcDbEntity
  8
0
  6
Continuous
 62
     0
100
AcDbTrace
 10
256.428666
 20
134.174266
 30
0.0
 11
257.428722
 21
129.174886
 31
0.0
 12
258.428478
 22
134.174266
 32
0.0
 13
258.428478
 23
134.174266
 33
0.0
  0
ENDBLK
  5
2F8
100
AcDbEntity
  8
0
100
AcDbBlockEnd
  0
BLOCK
  5
2FB
100
AcDbEntity
  8
0
100
AcDbBlockBegin
  2
*B22
 70
     0
 10
0.0
 20
0.0
 30
0.0
  3
*B22
  1

  0
LINE
  5
2FC
100
AcDbEntity
  8
0
  6
Continuous
 62
     0
100
AcDbLine
 10
173.443823
 20
72.285233
 30
0.0
 11
207.443633
 21
72.285233
 31
0.0
  0
SOLID
  5
2FD
100
AcDbEntity
  8
0
  6
Continuous
 62
     0
100
AcDbTrace
 10
178.443804
 20
71.285477
 30
0.0
 11
183.443785
 21
72.285233
 31
0.0
 12
178.443804
 22
73.285289
 32
0.0
 13
178.443804
 23
73.285289
 33
0.0
  0
SOLID
  5
2FE
100
AcDbEntity
  8
0
  6
Continuous
 62
     0
100
AcDbTrace
 10
202.443652
 20
73.285289
 30
0.0
 11
197.443671
 21
72.285233
 31
0.0
 12
202.443652
 22
71.285477
 32
0.0
 13
202.443652
 23
71.285477
 33
0.0
  0
ENDBLK
  5
2FF
100
AcDbEntity
  8
0
100
AcDbBlockEnd
  0
BLOCK
  5
302
100
AcDbEntity
  8
0
100
AcDbBlockBegin
  2
*B23
 70
     0
 10
0.0
 20
0.0
 30
0.0
  3
*B23
  1

  0
LINE
  5
303
100
AcDbEntity
  8
0
  6
Continuous
 62
     0
100
AcDbLine
 10
324.02544
 20
97.176991
 30
0.0
 11
324.02544
 21
131.174698
 31
0.0
  0
SOLID
  5
304
100
AcDbEntity
  8
0
  6
Continuous
 62
     0
100
AcDbTrace
 10
325.025496
 20
102.176671
 30
0.0
 11
324.02544
 21
107.176352
 31
0.0
 12
323.025684
 22
102.176671
 32
0.0
 13
323.025684
 23
102.176671
 33
0.0
  0
SOLID
  5
305
100
AcDbEntity
  8
0
  6
Continuous
 62
     0
100
AcDbTrace
 10
323.025684
 20
126.175017
 30
0.0
 11
324.02544
 21
121.175337
 31
0.0
 12
325.025496
 22
126.175017
 32
0.0
 13
325.025496
 23
126.175017
 33
0.0
  0
ENDBLK
  5
306
100
AcDbEntity
  8
0
100
AcDbBlockEnd
  0
BLOCK
  5
309
100
AcDbEntity
  8
0
100
AcDbBlockBegin
  2
*B24
 70
     0
 10
0.0
 20
0.0
 30
0.0
  3
*B24
  1

  0
LINE
  5
30A
100
AcDbEntity
  8
0
  6
Continuous
 62
     8
100
AcDbLine
 10
183.443785
 20
219.116564
 30
0.0
 11
183.443785
 21
247.033424
 31
0.0
  0
ENDBLK
  5
30B
100
AcDbEntity
  8
0
100
AcDbBlockEnd
  0
BLOCK
  5
30E
100
AcDbEntity
  8
0
100
AcDbBlockBegin
  2
*B25
 70
     0
 10
0.0
 20
0.0
 30
0.0
  3
*B25
  1

  0
LINE
  5
30F
100
AcDbEntity
  8
0
  6
Continuous
 62
     8
100
AcDbLine
 10
183.443785
 20
70.28542
 30
0.0
 11
183.443785
 21
97.176991
 31
0.0
  0
LINE
  5
310
100
AcDbEntity
  8
0
  6
Continuous
 62
     8
100
AcDbLine
 10
183.443785
 20
131.174698
 30
0.0
 11
183.443785
 21
159.279013
 31
0.0
  0
ENDBLK
  5
311
100
AcDbEntity
  8
0
100
AcDbBlockEnd
  0
BLOCK
  5
314
100
AcDbEntity
  8
0
100
AcDbBlockBegin
  2
*B26
 70
     0
 10
0.0
 20
0.0
 30
0.0
  3
*B26
  1

  0
LINE
  5
315
100
AcDbEntity
  8
0
  6
Continuous
 62
     8
100
AcDbLine
 10
114.443808
 20
114.175844
 30
0.0
 11
122.777109
 21
114.175844
 31
0.0
  0
LINE
  5
316
100
AcDbEntity
  8
0
  6
Continuous
 62
     8
100
AcDbLine
 10
124.776921
 20
114.175844
 30
0.0
 11
125.776978
 21
114.175844
 31
0.0
  0
LINE
  5
317
100
AcDbEntity
  8
0
  6
Continuous
 62
     8
100
AcDbLine
 10
127.77709
 20
114.175844
 30
0.0
 11
136.110392
 21
114.175844
 31
0.0
  0
LINE
  5
318
100
AcDbEntity
  8
0
  6
Continuous
 62
     8
100
AcDbLine
 10
138.110504
 20
114.175844
 30
0.0
 11
139.11026
 21
114.175844
 31
0.0
  0
LINE
  5
319
100
AcDbEntity
  8
0
  6
Continuous
 62
     8
100
AcDbLine
 10
141.110373
 20
114.175844
 30
0.0
 11
149.443674
 21
114.175844
 31
0.0
  0
LINE
  5
31A
100
AcDbEntity
  8
0
  6
Continuous
 62
     8
100
AcDbLine
 10
155.443711
 20
114.175844
 30
0.0
 11
162.943683
 21
114.175844
 31
0.0
  0
LINE
  5
31B
100
AcDbEntity
  8
0
  6
Continuous
 62
     8
100
AcDbLine
 10
164.943795
 20
114.175844
 30
0.0
 11
165.943851
 21
114.175844
 31
0.0
  0
LINE
  5
31C
100
AcDbEntity
  8
0
  6
Continuous
 62
     8
100
AcDbLine
 10
167.943664
 20
114.175844
 30
0.0
 11
175.443635
 21
114.175844
 31
0.0
  0
LINE
  5
31D
100
AcDbEntity
  8
0
  6
Continuous
 62
     8
100
AcDbLine
 10
181.443672
 20
114.175844
 30
0.0
 11
191.043792
 21
114.175844
 31
0.0
  0
LINE
  5
31E
100
AcDbEntity
  8
0
  6
Continuous
 62
     8
100
AcDbLine
 10
193.043604
 20
114.175844
 30
0.0
 11
194.04366
 21
114.175844
 31
0.0
  0
LINE
  5
31F
100
AcDbEntity
  8
0
  6
Continuous
 62
     8
100
AcDbLine
 10
196.043773
 20
114.175844
 30
0.0
 11
205.643592
 21
114.175844
 31
0.0
  0
LINE
  5
320
100
AcDbEntity
  8
0
  6
Continuous
 62
     8
100
AcDbLine
 10
207.643704
 20
114.175844
 30
0.0
 11
208.643761
 21
114.175844
 31
0.0
  0
LINE
  5
321
100
AcDbEntity
  8
0
  6
Continuous
 62
     8
100
AcDbLine
 10
210.643573
 20
114.175844
 30
0.0
 11
220.243692
 21
114.175844
 31
0.0
  0
LINE
  5
322
100
AcDbEntity
  8
0
  6
Continuous
 62
     8
100
AcDbLine
 10
222.243805
 20
114.175844
 30
0.0
 11
223.243561
 21
114.175844
 31
0.0
  0
LINE
  5
323
100
AcDbEntity
  8
0
  6
Continuous
 62
     8
100
AcDbLine
 10
225.243673
 20
114.175844
 30
0.0
 11
234.843793
 21
114.175844
 31
0.0
  0
LINE
  5
324
100
AcDbEntity
  8
0
  6
Continuous
 62
     8
100
AcDbLine
 10
236.843605
 20
114.175844
 30
0.0
 11
237.843661
 21
114.175844
 31
0.0
  0
LINE
  5
325
100
AcDbEntity
  8
0
  6
Continuous
 62
     8
100
AcDbLine
 10
239.843774
 20
114.175844
 30
0.0
 11
249.443593
 21
114.175844
 31
0.0
  0
LINE
  5
326
100
AcDbEntity
  8
0
  6
Continuous
 62
     8
100
AcDbLine
 10
255.44363
 20
114.175844
 30
0.0
 11
262.943602
 21
114.175844
 31
0.0
  0
LINE
  5
327
100
AcDbEntity
  8
0
  6
Continuous
 62
     8
100
AcDbLine
 10
264.943714
 20
114.175844
 30
0.0
 11
265.94377
 21
114.175844
 31
0.0
  0
LINE
  5
328
100
AcDbEntity
  8
0
  6
Continuous
 62
     8
100
AcDbLine
 10
267.943583
 20
114.175844
 30
0.0
 11
275.443554
 21
114.175844
 31
0.0
  0
LINE
  5
329
100
AcDbEntity
  8
0
  6
Continuous
 62
     8
100
AcDbLine
 10
281.443591
 20
114.175844
 30
0.0
 11
289.776893
 21
114.175844
 31
0.0
  0
LINE
  5
32A
100
AcDbEntity
  8
0
  6
Continuous
 62
     8
100
AcDbLine
 10
291.777005
 20
114.175844
 30
0.0
 11
292.777061
 21
114.175844
 31
0.0
  0
LINE
  5
32B
100
AcDbEntity
  8
0
  6
Continuous
 62
     8
100
AcDbLine
 10
294.776874
 20
114.175844
 30
0.0
 11
303.110175
 21
114.175844
 31
0.0
  0
LINE
  5
32C
100
AcDbEntity
  8
0
  6
Continuous
 62
     8
100
AcDbLine
 10
305.110288
 20
114.175844
 30
0.0
 11
306.110344
 21
114.175844
 31
0.0
  0
LINE
  5
32D
100
AcDbEntity
  8
0
  6
Continuous
 62
     8
100
AcDbLine
 10
308.110456
 20
114.175844
 30
0.0
 11
316.443758
 21
114.175844
 31
0.0
  0
ENDBLK
  5
32E
100
AcDbEntity
  8
0
100
AcDbBlockEnd
  0
BLOCK
  5
331
100
AcDbEntity
  8
0
100
AcDbBlockBegin
  2
*B27
 70
     0
 10
0.0
 20
0.0
 30
0.0
  3
*B27
  1

  0
LINE
  5
332
100
AcDbEntity
  8
0
  6
Continuous
 62
     8
100
AcDbLine
 10
182.693667
 20
124.175205
 30
0.0
 11
187.443709
 21
124.175205
 31
0.0
  0
LINE
  5
333
100
AcDbEntity
  8
0
  6
Continuous
 62
     8
100
AcDbLine
 10
193.443747
 20
124.175205
 30
0.0
 11
198.193789
 21
124.175205
 31
0.0
  0
ENDBLK
  5
334
100
AcDbEntity
  8
0
100
AcDbBlockEnd
  0
BLOCK
  5
337
100
AcDbEntity
  8
0
100
AcDbBlockBegin
  2
*B28
 70
     0
 10
0.0
 20
0.0
 30
0.0
  3
*B28
  1

  0
LINE
  5
338
100
AcDbEntity
  8
0
  6
Continuous
 62
     8
100
AcDbLine
 10
255.42861
 20
124.175205
 30
0.0
 11
259.428535
 21
124.175205
 31
0.0
  0
LINE
  5
339
100
AcDbEntity
  8
0
  6
Continuous
 62
     8
100
AcDbLine
 10
232.693777
 20
124.175205
 30
0.0
 11
237.443819
 21
124.175205
 31
0.0
  0
LINE
  5
33A
100
AcDbEntity
  8
0
  6
Continuous
 62
     8
100
AcDbLine
 10
243.443556
 20
124.175205
 30
0.0
 11
255.42861
 21
124.175205
 31
0.0
  0
ENDBLK
  5
33B
100
AcDbEntity
  8
0
100
AcDbBlockEnd
  0
BLOCK
  5
33E
100
AcDbEntity
  8
0
100
AcDbBlockBegin
  2
*B29
 70
     0
 10
0.0
 20
0.0
 30
0.0
  3
*B29
  1

  0
LINE
  5
33F
100
AcDbEntity
  8
0
  6
Continuous
 62
     8
100
AcDbLine
 10
233.443594
 20
70.28542
 30
0.0
 11
233.443594
 21
74.285045
 31
0.0
  0
LINE
  5
340
100
AcDbEntity
  8
0
  6
Continuous
 62
     8
100
AcDbLine
 10
233.443594
 20
74.285045
 30
0.0
 11
233.443594
 21
86.730924
 31
0.0
  0
LINE
  5
341
100
AcDbEntity
  8
0
  6
Continuous
 62
     8
100
AcDbLine
 10
233.443594
 20
88.731036
 30
0.0
 11
233.443594
 21
89.730792
 31
0.0
  0
LINE
  5
342
100
AcDbEntity
  8
0
  6
Continuous
 62
     8
100
AcDbLine
 10
233.443594
 20
91.730604
 30
0.0
 11
233.443594
 21
104.176483
 31
0.0
  0
LINE
  5
343
100
AcDbEntity
  8
0
  6
Continuous
 62
     8
100
AcDbLine
 10
233.443594
 20
110.17622
 30
0.0
 11
233.443594
 21
115.550809
 31
0.0
  0
ENDBLK
  5
344
100
AcDbEntity
  8
0
100
AcDbBlockEnd
  0
BLOCK
  5
347
100
AcDbEntity
  8
0
100
AcDbBlockBegin
  2
*B30
 70
     0
 10
0.0
 20
0.0
 30
0.0
  3
*B30
  1

  0
LINE
  5
348
100
AcDbEntity
  8
0
  6
Continuous
 62
     8
100
AcDbLine
 10
152.443843
 20
106.776509
 30
0.0
 11
152.443843
 21
111.175976
 31
0.0
  0
LINE
  5
349
100
AcDbEntity
  8
0
  6
Continuous
 62
     8
100
AcDbLine
 10
152.443843
 20
117.175713
 30
0.0
 11
152.443843
 21
121.575179
 31
0.0
  0
ENDBLK
  5
34A
100
AcDbEntity
  8
0
100
AcDbBlockEnd
  0
BLOCK
  5
34D
100
AcDbEntity
  8
0
100
AcDbBlockBegin
  2
*B31
 70
     0
 10
0.0
 20
0.0
 30
0.0
  3
*B31
  1

  0
LINE
  5
34E
100
AcDbEntity
  8
0
  6
Continuous
 62
     8
100
AcDbLine
 10
263.44378
 20
219.116564
 30
0.0
 11
263.44378
 21
263.032522
 31
0.0
  0
ENDBLK
  5
34F
100
AcDbEntity
  8
0
100
AcDbBlockEnd
  0
BLOCK
  5
352
100
AcDbEntity
  8
0
100
AcDbBlockBegin
  2
*B32
 70
     0
 10
0.0
 20
0.0
 30
0.0
  3
*B32
  1

  0
LINE
  5
353
100
AcDbEntity
  8
0
  6
Continuous
 62
     8
100
AcDbLine
 10
242.643571
 20
170.039005
 30
0.0
 11
242.643571
 21
185.118856
 31
0.0
  0
ENDBLK
  5
354
100
AcDbEntity
  8
0
100
AcDbBlockEnd
  0
BLOCK
  5
357
100
AcDbEntity
  8
0
100
AcDbBlockBegin
  2
*B33
 70
     0
 10
0.0
 20
0.0
 30
0.0
  3
*B33
  1

  0
LINE
  5
358
100
AcDbEntity
  8
0
  6
Continuous
 62
     8
100
AcDbLine
 10
219.818616
 20
219.116564
 30
0.0
 11
219.818616
 21
233.034439
 31
0.0
  0
ENDBLK
  5
359
100
AcDbEntity
  8
0
100
AcDbBlockEnd
  0
BLOCK
  5
35C
100
AcDbEntity
  8
0
100
AcDbBlockBegin
  2
*B34
 70
     0
 10
0.0
 20
0.0
 30
0.0
  3
*B34
  1

  0
LINE
  5
35D
100
AcDbEntity
  8
0
  6
Continuous
 62
     8
100
AcDbLine
 10
252.443762
 20
107.176352
 30
0.0
 11
252.443762
 21
111.175976
 31
0.0
  0
LINE
  5
35E
100
AcDbEntity
  8
0
  6
Continuous
 62
     8
100
AcDbLine
 10
252.443762
 20
117.175713
 30
0.0
 11
252.443762
 21
121.175337
 31
0.0
  0
ENDBLK
  5
35F
100
AcDbEntity
  8
0
100
AcDbBlockEnd
  0
BLOCK
  5
362
100
AcDbEntity
  8
0
100
AcDbBlockBegin
  2
*B35
 70
     0
 10
0.0
 20
0.0
 30
0.0
  3
*B35
  1

  0
LINE
  5
363
100
AcDbEntity
  8
0
  6
Continuous
 62
     8
100
AcDbLine
 10
125.743632
 20
198.117485
 30
0.0
 11
133.915014
 21
198.117485
 31
0.0
  0
LINE
  5
364
100
AcDbEntity
  8
0
  6
Continuous
 62
     8
100
AcDbLine
 10
135.915127
 20
198.117485
 30
0.0
 11
136.915183
 21
198.117485
 31
0.0
  0
LINE
  5
365
100
AcDbEntity
  8
0
  6
Continuous
 62
     8
100
AcDbLine
 10
138.915296
 20
198.117485
 30
0.0
 11
147.086678
 21
198.117485
 31
0.0
  0
LINE
  5
366
100
AcDbEntity
  8
0
  6
Continuous
 62
     8
100
AcDbLine
 10
149.08649
 20
198.117485
 30
0.0
 11
150.086546
 21
198.117485
 31
0.0
  0
LINE
  5
367
100
AcDbEntity
  8
0
  6
Continuous
 62
     8
100
AcDbLine
 10
152.086658
 20
198.117485
 30
0.0
 11
160.25804
 21
198.117485
 31
0.0
  0
LINE
  5
368
100
AcDbEntity
  8
0
  6
Continuous
 62
     8
100
AcDbLine
 10
162.257853
 20
198.117485
 30
0.0
 11
163.257909
 21
198.117485
 31
0.0
  0
LINE
  5
369
100
AcDbEntity
  8
0
  6
Continuous
 62
     8
100
AcDbLine
 10
165.258021
 20
198.117485
 30
0.0
 11
173.429403
 21
198.117485
 31
0.0
  0
LINE
  5
36A
100
AcDbEntity
  8
0
  6
Continuous
 62
     8
100
AcDbLine
 10
175.429516
 20
198.117485
 30
0.0
 11
176.429272
 21
198.117485
 31
0.0
  0
LINE
  5
36B
100
AcDbEntity
  8
0
  6
Continuous
 62
     8
100
AcDbLine
 10
178.429384
 20
198.117485
 30
0.0
 11
186.600766
 21
198.117485
 31
0.0
  0
LINE
  5
36C
100
AcDbEntity
  8
0
  6
Continuous
 62
     8
100
AcDbLine
 10
188.600879
 20
198.117485
 30
0.0
 11
189.600935
 21
198.117485
 31
0.0
  0
LINE
  5
36D
100
AcDbEntity
  8
0
  6
Continuous
 62
     8
100
AcDbLine
 10
191.600747
 20
198.117485
 30
0.0
 11
199.772129
 21
198.117485
 31
0.0
  0
LINE
  5
36E
100
AcDbEntity
  8
0
  6
Continuous
 62
     8
100
AcDbLine
 10
201.772242
 20
198.117485
 30
0.0
 11
202.772298
 21
198.117485
 31
0.0
  0
LINE
  5
36F
100
AcDbEntity
  8
0
  6
Continuous
 62
     8
100
AcDbLine
 10
204.77241
 20
198.117485
 30
0.0
 11
212.943792
 21
198.117485
 31
0.0
  0
LINE
  5
370
100
AcDbEntity
  8
0
  6
Continuous
 62
     8
100
AcDbLine
 10
214.943604
 20
198.117485
 30
0.0
 11
215.943661
 21
198.117485
 31
0.0
  0
LINE
  5
371
100
AcDbEntity
  8
0
  6
Continuous
 62
     8
100
AcDbLine
 10
217.943773
 20
198.117485
 30
0.0
 11
226.115155
 21
198.117485
 31
0.0
  0
LINE
  5
372
100
AcDbEntity
  8
0
  6
Continuous
 62
     8
100
AcDbLine
 10
228.114967
 20
198.117485
 30
0.0
 11
229.115024
 21
198.117485
 31
0.0
  0
LINE
  5
373
100
AcDbEntity
  8
0
  6
Continuous
 62
     8
100
AcDbLine
 10
231.115136
 20
198.117485
 30
0.0
 11
239.286518
 21
198.117485
 31
0.0
  0
LINE
  5
374
100
AcDbEntity
  8
0
  6
Continuous
 62
     8
100
AcDbLine
 10
241.286631
 20
198.117485
 30
0.0
 11
242.286687
 21
198.117485
 31
0.0
  0
LINE
  5
375
100
AcDbEntity
  8
0
  6
Continuous
 62
     8
100
AcDbLine
 10
244.286499
 20
198.117485
 30
0.0
 11
252.457881
 21
198.117485
 31
0.0
  0
LINE
  5
376
100
AcDbEntity
  8
0
  6
Continuous
 62
     8
100
AcDbLine
 10
254.457994
 20
198.117485
 30
0.0
 11
255.45805
 21
198.117485
 31
0.0
  0
LINE
  5
377
100
AcDbEntity
  8
0
  6
Continuous
 62
     8
100
AcDbLine
 10
257.457862
 20
198.117485
 30
0.0
 11
265.629244
 21
198.117485
 31
0.0
  0
LINE
  5
378
100
AcDbEntity
  8
0
  6
Continuous
 62
     8
100
AcDbLine
 10
267.629356
 20
198.117485
 30
0.0
 11
268.629413
 21
198.117485
 31
0.0
  0
LINE
  5
379
100
AcDbEntity
  8
0
  6
Continuous
 62
     8
100
AcDbLine
 10
270.629525
 20
198.117485
 30
0.0
 11
278.800907
 21
198.117485
 31
0.0
  0
LINE
  5
37A
100
AcDbEntity
  8
0
  6
Continuous
 62
     8
100
AcDbLine
 10
280.800719
 20
198.117485
 30
0.0
 11
281.800776
 21
198.117485
 31
0.0
  0
LINE
  5
37B
100
AcDbEntity
  8
0
  6
Continuous
 62
     8
100
AcDbLine
 10
283.800888
 20
198.117485
 30
0.0
 11
291.97227
 21
198.117485
 31
0.0
  0
LINE
  5
37C
100
AcDbEntity
  8
0
  6
Continuous
 62
     8
100
AcDbLine
 10
293.972082
 20
198.117485
 30
0.0
 11
294.972138
 21
198.117485
 31
0.0
  0
LINE
  5
37D
100
AcDbEntity
  8
0
  6
Continuous
 62
     8
100
AcDbLine
 10
296.972251
 20
198.117485
 30
0.0
 11
305.143633
 21
198.117485
 31
0.0
  0
ENDBLK
  5
37E
100
AcDbEntity
  8
0
100
AcDbBlockEnd
  0
BLOCK
  5
381
100
AcDbEntity
  8
0
100
AcDbBlockBegin
  2
*B36
 70
     0
 10
0.0
 20
0.0
 30
0.0
  3
*B36
  1

  0
LINE
  5
382
100
AcDbEntity
  8
0
  6
Continuous
 62
     8
100
AcDbLine
 10
290.943675
 20
198.118386
 30
0.0
 11
305.143633
 21
198.118386
 31
0.0
  0
ENDBLK
  5
383
100
AcDbEntity
  8
0
100
AcDbBlockEnd
  0
BLOCK
  5
386
100
AcDbEntity
  8
0
100
AcDbBlockBegin
  2
*B37
 70
     0
 10
0.0
 20
0.0
 30
0.0
  3
*B37
  1

  0
LINE
  5
387
100
AcDbEntity
  8
0
  6
Continuous
 62
     8
100
AcDbLine
 10
238.243804
 20
170.039005
 30
0.0
 11
238.243804
 21
185.118856
 31
0.0
  0
ENDBLK
  5
388
100
AcDbEntity
  8
0
100
AcDbBlockEnd
  0
BLOCK
  5
38B
100
AcDbEntity
  8
0
100
AcDbBlockBegin
  2
*B38
 70
     0
 10
0.0
 20
0.0
 30
0.0
  3
*B38
  1

  0
LINE
  5
38C
100
AcDbEntity
  8
0
  6
Continuous
 62
     8
100
AcDbLine
 10
167.443786
 20
219.116564
 30
0.0
 11
167.443786
 21
263.032522
 31
0.0
  0
ENDBLK
  5
38D
100
AcDbEntity
  8
0
100
AcDbBlockEnd
  0
BLOCK
  5
390
100
AcDbEntity
  8
0
100
AcDbBlockBegin
  2
*B39
 70
     0
 10
0.0
 20
0.0
 30
0.0
  3
*B39
  1

  0
LINE
  5
391
100
AcDbEntity
  8
0
  6
Continuous
 62
     8
100
AcDbLine
 10
197.443671
 20
70.28542
 30
0.0
 11
197.443671
 21
88.256092
 31
0.0
  0
LINE
  5
392
100
AcDbEntity
  8
0
  6
Continuous
 62
     8
100
AcDbLine
 10
197.443671
 20
88.256092
 30
0.0
 11
197.443671
 21
104.176483
 31
0.0
  0
LINE
  5
393
100
AcDbEntity
  8
0
  6
Continuous
 62
     8
100
AcDbLine
 10
197.443671
 20
110.17622
 30
0.0
 11
197.443671
 21
115.550809
 31
0.0
  0
ENDBLK
  5
394
100
AcDbEntity
  8
0
100
AcDbBlockEnd
  0
BLOCK
  5
397
100
AcDbEntity
  8
0
100
AcDbBlockBegin
  2
*B40
 70
     0
 10
0.0
 20
0.0
 30
0.0
  3
*B40
  1

  0
LINE
  5
398
100
AcDbEntity
  8
0
  6
Continuous
 62
     8
100
AcDbLine
 10
240.443687
 20
155.279388
 30
0.0
 11
240.443687
 21
159.279013
 31
0.0
  0
LINE
  5
399
100
AcDbEntity
  8
0
  6
Continuous
 62
     8
100
AcDbLine
 10
240.443687
 20
116.425595
 30
0.0
 11
240.443687
 21
121.175337
 31
0.0
  0
LINE
  5
39A
100
AcDbEntity
  8
0
  6
Continuous
 62
     8
100
AcDbLine
 10
240.443687
 20
127.174773
 30
0.0
 11
240.443687
 21
138.727241
 31
0.0
  0
LINE
  5
39B
100
AcDbEntity
  8
0
  6
Continuous
 62
     8
100
AcDbLine
 10
240.443687
 20
140.727053
 30
0.0
 11
240.443687
 21
141.727109
 31
0.0
  0
LINE
  5
39C
100
AcDbEntity
  8
0
  6
Continuous
 62
     8
100
AcDbLine
 10
240.443687
 20
143.726921
 30
0.0
 11
240.443687
 21
155.279388
 31
0.0
  0
ENDBLK
  5
39D
100
AcDbEntity
  8
0
100
AcDbBlockEnd
  0
BLOCK
  5
3A0
100
AcDbEntity
  8
0
100
AcDbBlockBegin
  2
*B41
 70
     0
 10
0.0
 20
0.0
 30
0.0
  3
*B41
  1

  0
LINE
  5
3A1
100
AcDbEntity
  8
0
  6
Continuous
 62
     8
100
AcDbLine
 10
247.443781
 20
219.116564
 30
0.0
 11
247.443781
 21
247.033424
 31
0.0
  0
ENDBLK
  5
3A2
100
AcDbEntity
  8
0
100
AcDbBlockEnd
  0
BLOCK
  5
3A5
100
AcDbEntity
  8
0
100
AcDbBlockBegin
  2
*B42
 70
     0
 10
0.0
 20
0.0
 30
0.0
  3
*B42
  1

  0
LINE
  5
3A6
100
AcDbEntity
  8
0
  6
Continuous
 62
     8
100
AcDbLine
 10
104.428825
 20
187.118669
 30
0.0
 11
135.443788
 21
187.118669
 31
0.0
  0
ENDBLK
  5
3A7
100
AcDbEntity
  8
0
100
AcDbBlockEnd
  0
BLOCK
  5
3AA
100
AcDbEntity
  8
0
100
AcDbBlockBegin
  2
*B43
 70
     0
 10
0.0
 20
0.0
 30
0.0
  3
*B43
  1

  0
LINE
  5
3AB
100
AcDbEntity
  8
0
  6
Continuous
 62
     8
100
AcDbLine
 10
190.443578
 20
155.279388
 30
0.0
 11
190.443578
 21
159.279013
 31
0.0
  0
LINE
  5
3AC
100
AcDbEntity
  8
0
  6
Continuous
 62
     8
100
AcDbLine
 10
190.443578
 20
116.425595
 30
0.0
 11
190.443578
 21
121.175337
 31
0.0
  0
LINE
  5
3AD
100
AcDbEntity
  8
0
  6
Continuous
 62
     8
100
AcDbLine
 10
190.443578
 20
127.174773
 30
0.0
 11
190.443578
 21
138.727241
 31
0.0
  0
LINE
  5
3AE
100
AcDbEntity
  8
0
  6
Continuous
 62
     8
100
AcDbLine
 10
190.443578
 20
140.727053
 30
0.0
 11
190.443578
 21
141.727109
 31
0.0
  0
LINE
  5
3AF
100
AcDbEntity
  8
0
  6
Continuous
 62
     8
100
AcDbLine
 10
190.443578
 20
143.726921
 30
0.0
 11
190.443578
 21
155.279388
 31
0.0
  0
ENDBLK
  5
3B0
100
AcDbEntity
  8
0
100
AcDbBlockEnd
  0
BLOCK
  5
3B3
100
AcDbEntity
  8
0
100
AcDbBlockBegin
  2
*B44
 70
     0
 10
0.0
 20
0.0
 30
0.0
  3
*B44
  1

  0
LINE
  5
3B4
100
AcDbEntity
  8
0
  6
Continuous
 62
     8
100
AcDbLine
 10
285.943694
 20
236.115117
 30
0.0
 11
294.9436
 21
236.115117
 31
0.0
  0
LINE
  5
3B5
100
AcDbEntity
  8
0
  6
Continuous
 62
     8
100
AcDbLine
 10
296.943712
 20
236.115117
 30
0.0
 11
297.943769
 21
236.115117
 31
0.0
  0
LINE
  5
3B6
100
AcDbEntity
  8
0
  6
Continuous
 62
     8
100
AcDbLine
 10
299.943581
 20
236.115117
 30
0.0
 11
308.943787
 21
236.115117
 31
0.0
  0
ENDBLK
  5
3B7
100
AcDbEntity
  8
0
100
AcDbBlockEnd
  0
BLOCK
  5
3BA
100
AcDbEntity
  8
0
100
AcDbBlockBegin
  2
*B45
 70
     0
 10
0.0
 20
0.0
 30
0.0
  3
*B45
  1

  0
LINE
  5
3BB
100
AcDbEntity
  8
0
  6
Continuous
 62
     8
100
AcDbLine
 10
104.428825
 20
99.176803
 30
0.0
 11
165.443673
 21
99.176803
 31
0.0
  0
ENDBLK
  5
3BC
100
AcDbEntity
  8
0
100
AcDbBlockEnd
  0
BLOCK
  5
3BF
100
AcDbEntity
  8
0
100
AcDbBlockBegin
  2
*B46
 70
     0
 10
0.0
 20
0.0
 30
0.0
  3
*B46
  1

  0
LINE
  5
3C0
100
AcDbEntity
  8
0
  6
Continuous
 62
     8
100
AcDbLine
 10
211.068649
 20
219.116564
 30
0.0
 11
211.068649
 21
233.034439
 31
0.0
  0
ENDBLK
  5
3C1
100
AcDbEntity
  8
0
100
AcDbBlockEnd
  0
BLOCK
  5
3C4
100
AcDbEntity
  8
0
100
AcDbBlockBegin
  2
*B47
 70
     0
 10
0.0
 20
0.0
 30
0.0
  3
*B47
  1

  0
LINE
  5
3C5
100
AcDbEntity
  8
0
  6
Continuous
 62
     8
100
AcDbLine
 10
304.643755
 20
114.130783
 30
0.0
 11
316.443758
 21
114.130783
 31
0.0
  0
ENDBLK
  5
3C6
100
AcDbEntity
  8
0
100
AcDbBlockEnd
  0
BLOCK
  5
3C9
100
AcDbEntity
  8
0
100
AcDbBlockBegin
  2
*B48
 70
     0
 10
0.0
 20
0.0
 30
0.0
  3
*B48
  1

  0
LINE
  5
3CA
100
AcDbEntity
  8
0
  6
Continuous
 62
     8
100
AcDbLine
 10
322.025628
 20
121.175337
 30
0.0
 11
326.025553
 21
121.175337
 31
0.0
  0
LINE
  5
3CB
100
AcDbEntity
  8
0
  6
Continuous
 62
     8
100
AcDbLine
 10
216.06863
 20
121.175337
 30
0.0
 11
221.44382
 21
121.175337
 31
0.0
  0
LINE
  5
3CC
100
AcDbEntity
  8
0
  6
Continuous
 62
     8
100
AcDbLine
 10
227.443557
 20
121.175337
 30
0.0
 11
236.669669
 21
121.175337
 31
0.0
  0
LINE
  5
3CD
100
AcDbEntity
  8
0
  6
Continuous
 62
     8
100
AcDbLine
 10
238.669782
 20
121.175337
 30
0.0
 11
239.669538
 21
121.175337
 31
0.0
  0
LINE
  5
3CE
100
AcDbEntity
  8
0
  6
Continuous
 62
     8
100
AcDbLine
 10
241.66965
 20
121.175337
 30
0.0
 11
250.895762
 21
121.175337
 31
0.0
  0
LINE
  5
3CF
100
AcDbEntity
  8
0
  6
Continuous
 62
     8
100
AcDbLine
 10
252.895575
 20
121.175337
 30
0.0
 11
253.895631
 21
121.175337
 31
0.0
  0
LINE
  5
3D0
100
AcDbEntity
  8
0
  6
Continuous
 62
     8
100
AcDbLine
 10
255.895743
 20
121.175337
 30
0.0
 11
265.121555
 21
121.175337
 31
0.0
  0
LINE
  5
3D1
100
AcDbEntity
  8
0
  6
Continuous
 62
     8
100
AcDbLine
 10
267.121668
 20
121.175337
 30
0.0
 11
268.121724
 21
121.175337
 31
0.0
  0
LINE
  5
3D2
100
AcDbEntity
  8
0
  6
Continuous
 62
     8
100
AcDbLine
 10
270.121536
 20
121.175337
 30
0.0
 11
279.347649
 21
121.175337
 31
0.0
  0
LINE
  5
3D3
100
AcDbEntity
  8
0
  6
Continuous
 62
     8
100
AcDbLine
 10
281.347761
 20
121.175337
 30
0.0
 11
282.347517
 21
121.175337
 31
0.0
  0
LINE
  5
3D4
100
AcDbEntity
  8
0
  6
Continuous
 62
     8
100
AcDbLine
 10
284.34763
 20
121.175337
 30
0.0
 11
293.573742
 21
121.175337
 31
0.0
  0
LINE
  5
3D5
100
AcDbEntity
  8
0
  6
Continuous
 62
     8
100
AcDbLine
 10
295.573554
 20
121.175337
 30
0.0
 11
296.57361
 21
121.175337
 31
0.0
  0
LINE
  5
3D6
100
AcDbEntity
  8
0
  6
Continuous
 62
     8
100
AcDbLine
 10
298.573723
 20
121.175337
 30
0.0
 11
307.799535
 21
121.175337
 31
0.0
  0
LINE
  5
3D7
100
AcDbEntity
  8
0
  6
Continuous
 62
     8
100
AcDbLine
 10
309.799647
 20
121.175337
 30
0.0
 11
310.799704
 21
121.175337
 31
0.0
  0
LINE
  5
3D8
100
AcDbEntity
  8
0
  6
Continuous
 62
     8
100
AcDbLine
 10
312.799516
 20
121.175337
 30
0.0
 11
322.025628
 21
121.175337
 31
0.0
  0
ENDBLK
  5
3D9
100
AcDbEntity
  8
0
100
AcDbBlockEnd
  0
BLOCK
  5
3DC
100
AcDbEntity
  8
0
100
AcDbBlockBegin
  2
*B49
 70
     0
 10
0.0
 20
0.0
 30
0.0
  3
*B49
  1

  0
LINE
  5
3DD
100
AcDbEntity
  8
0
  6
Continuous
 62
     8
100
AcDbLine
 10
121.943779
 20
236.115117
 30
0.0
 11
130.943685
 21
236.115117
 31
0.0
  0
LINE
  5
3DE
100
AcDbEntity
  8
0
  6
Continuous
 62
     8
100
AcDbLine
 10
132.943797
 20
236.115117
 30
0.0
 11
133.943853
 21
236.115117
 31
0.0
  0
LINE
  5
3DF
100
AcDbEntity
  8
0
  6
Continuous
 62
     8
100
AcDbLine
 10
135.943666
 20
236.115117
 30
0.0
 11
144.943571
 21
236.115117
 31
0.0
  0
ENDBLK
  5
3E0
100
AcDbEntity
  8
0
100
AcDbBlockEnd
  0
BLOCK
  5
3E3
100
AcDbEntity
  8
0
100
AcDbBlockBegin
  2
*B50
 70
     0
 10
0.0
 20
0.0
 30
0.0
  3
*B50
  1

  0
LINE
  5
3E4
100
AcDbEntity
  8
0
  6
Continuous
 62
     8
100
AcDbLine
 10
178.443804
 20
107.176352
 30
0.0
 11
178.443804
 21
111.175976
 31
0.0
  0
LINE
  5
3E5
100
AcDbEntity
  8
0
  6
Continuous
 62
     8
100
AcDbLine
 10
178.443804
 20
117.175713
 30
0.0
 11
178.443804
 21
121.175337
 31
0.0
  0
ENDBLK
  5
3E6
100
AcDbEntity
  8
0
100
AcDbBlockEnd
  0
BLOCK
  5
3E9
100
AcDbEntity
  8
0
100
AcDbBlockBegin
  2
*B51
 70
     0
 10
0.0
 20
0.0
 30
0.0
  3
*B51
  1

  0
LINE
  5
3EA
100
AcDbEntity
  8
0
  6
Continuous
 62
     8
100
AcDbLine
 10
278.443723
 20
106.776509
 30
0.0
 11
278.443723
 21
111.175976
 31
0.0
  0
LINE
  5
3EB
100
AcDbEntity
  8
0
  6
Continuous
 62
     8
100
AcDbLine
 10
278.443723
 20
117.175713
 30
0.0
 11
278.443723
 21
121.575179
 31
0.0
  0
ENDBLK
  5
3EC
100
AcDbEntity
  8
0
100
AcDbBlockEnd
  0
BLOCK
  5
3EF
100
AcDbEntity
  8
0
100
AcDbBlockBegin
  2
*B52
 70
     0
 10
0.0
 20
0.0
 30
0.0
  3
*B52
  1

  0
LINE
  5
3F0
100
AcDbEntity
  8
0
  6
Continuous
 62
     8
100
AcDbLine
 10
206.443577
 20
141.280403
 30
0.0
 11
206.443577
 21
145.280027
 31
0.0
  0
LINE
  5
3F1
100
AcDbEntity
  8
0
  6
Continuous
 62
     8
100
AcDbLine
 10
206.443577
 20
112.800879
 30
0.0
 11
206.443577
 21
118.175468
 31
0.0
  0
LINE
  5
3F2
100
AcDbEntity
  8
0
  6
Continuous
 62
     8
100
AcDbLine
 10
206.443577
 20
124.175205
 30
0.0
 11
206.443577
 21
141.280403
 31
0.0
  0
ENDBLK
  5
3F3
100
AcDbEntity
  8
0
100
AcDbBlockEnd
  0
BLOCK
  5
3F6
100
AcDbEntity
  8
0
100
AcDbBlockBegin
  2
*B53
 70
     0
 10
0.0
 20
0.0
 30
0.0
  3
*B53
  1

  0
LINE
  5
3F7
100
AcDbEntity
  8
0
  6
Continuous
 62
     8
100
AcDbLine
 10
190.443578
 20
183.119044
 30
0.0
 11
190.443578
 21
191.051903
 31
0.0
  0
LINE
  5
3F8
100
AcDbEntity
  8
0
  6
Continuous
 62
     8
100
AcDbLine
 10
190.443578
 20
193.051715
 30
0.0
 11
190.443578
 21
194.051471
 31
0.0
  0
LINE
  5
3F9
100
AcDbEntity
  8
0
  6
Continuous
 62
     8
100
AcDbLine
 10
190.443578
 20
196.051283
 30
0.0
 11
190.443578
 21
203.984141
 31
0.0
  0
LINE
  5
3FA
100
AcDbEntity
  8
0
  6
Continuous
 62
     8
100
AcDbLine
 10
190.443578
 20
205.983953
 30
0.0
 11
190.443578
 21
206.98401
 31
0.0
  0
LINE
  5
3FB
100
AcDbEntity
  8
0
  6
Continuous
 62
     8
100
AcDbLine
 10
190.443578
 20
208.983822
 30
0.0
 11
190.443578
 21
216.91668
 31
0.0
  0
ENDBLK
  5
3FC
100
AcDbEntity
  8
0
100
AcDbBlockEnd
  0
BLOCK
  5
3FF
100
AcDbEntity
  8
0
100
AcDbBlockBegin
  2
*B54
 70
     0
 10
0.0
 20
0.0
 30
0.0
  3
*B54
  1

  0
LINE
  5
400
100
AcDbEntity
  8
0
  6
Continuous
 62
     8
100
AcDbLine
 10
240.443687
 20
183.119044
 30
0.0
 11
240.443687
 21
191.051903
 31
0.0
  0
LINE
  5
401
100
AcDbEntity
  8
0
  6
Continuous
 62
     8
100
AcDbLine
 10
240.443687
 20
193.051715
 30
0.0
 11
240.443687
 21
194.051471
 31
0.0
  0
LINE
  5
402
100
AcDbEntity
  8
0
  6
Continuous
 62
     8
100
AcDbLine
 10
240.443687
 20
196.051283
 30
0.0
 11
240.443687
 21
203.984141
 31
0.0
  0
LINE
  5
403
100
AcDbEntity
  8
0
  6
Continuous
 62
     8
100
AcDbLine
 10
240.443687
 20
205.983953
 30
0.0
 11
240.443687
 21
206.98401
 31
0.0
  0
LINE
  5
404
100
AcDbEntity
  8
0
  6
Continuous
 62
     8
100
AcDbLine
 10
240.443687
 20
208.983822
 30
0.0
 11
240.443687
 21
216.91668
 31
0.0
  0
ENDBLK
  5
405
100
AcDbEntity
  8
0
100
AcDbBlockEnd
  0
BLOCK
  5
408
100
AcDbEntity
  8
0
100
AcDbBlockBegin
  2
*B55
 70
     0
 10
0.0
 20
0.0
 30
0.0
  3
*B55
  1

  0
LINE
  5
409
100
AcDbEntity
  8
0
  6
Continuous
 62
     8
100
AcDbLine
 10
104.428825
 20
129.174886
 30
0.0
 11
165.443673
 21
129.174886
 31
0.0
  0
LINE
  5
40A
100
AcDbEntity
  8
0
  6
Continuous
 62
     8
100
AcDbLine
 10
249.443593
 20
129.174886
 30
0.0
 11
259.428535
 21
129.174886
 31
0.0
  0
ENDBLK
  5
40B
100
AcDbEntity
  8
0
100
AcDbBlockEnd
  0
BLOCK
  5
40E
100
AcDbEntity
  8
0
100
AcDbBlockBegin
  2
*B56
 70
     0
 10
0.0
 20
0.0
 30
0.0
  3
*B56
  1

  0
LINE
  5
40F
100
AcDbEntity
  8
0
  6
Continuous
 62
     8
100
AcDbLine
 10
312.443533
 20
245.913806
 30
0.0
 11
312.443533
 21
263.032522
 31
0.0
  0
ENDBLK
  5
410
100
AcDbEntity
  8
0
100
AcDbBlockEnd
  0
BLOCK
  5
413
100
AcDbEntity
  8
0
100
AcDbBlockBegin
  2
*B57
 70
     0
 10
0.0
 20
0.0
 30
0.0
  3
*B57
  1

  0
LINE
  5
414
100
AcDbEntity
  8
0
  6
Continuous
 62
     8
100
AcDbLine
 10
198.068819
 20
121.175337
 30
0.0
 11
203.443708
 21
121.175337
 31
0.0
  0
LINE
  5
415
100
AcDbEntity
  8
0
  6
Continuous
 62
     8
100
AcDbLine
 10
209.443746
 20
121.175337
 30
0.0
 11
214.818635
 21
121.175337
 31
0.0
  0
ENDBLK
  5
416
100
AcDbEntity
  8
0
100
AcDbBlockEnd
  0
BLOCK
  5
419
100
AcDbEntity
  8
0
100
AcDbBlockBegin
  2
*B58
 70
     0
 10
0.0
 20
0.0
 30
0.0
  3
*B58
  1

  0
LINE
  5
41A
100
AcDbEntity
  8
0
  6
Continuous
 62
     8
100
AcDbLine
 10
118.443732
 20
245.913806
 30
0.0
 11
118.443732
 21
263.032522
 31
0.0
  0
ENDBLK
  5
41B
100
AcDbEntity
  8
0
100
AcDbBlockEnd
  0
BLOCK
  5
41E
100
AcDbEntity
  8
0
100
AcDbBlockBegin
  2
*B59
 70
     0
 10
0.0
 20
0.0
 30
0.0
  3
*B59
  1

  0
LINE
  5
41F
100
AcDbEntity
  8
0
  6
Continuous
 62
     8
100
AcDbLine
 10
322.025628
 20
107.176352
 30
0.0
 11
326.025553
 21
107.176352
 31
0.0
  0
LINE
  5
420
100
AcDbEntity
  8
0
  6
Continuous
 62
     8
100
AcDbLine
 10
225.068536
 20
107.176352
 30
0.0
 11
230.443726
 21
107.176352
 31
0.0
  0
LINE
  5
421
100
AcDbEntity
  8
0
  6
Continuous
 62
     8
100
AcDbLine
 10
236.443763
 20
107.176352
 30
0.0
 11
244.383831
 21
107.176352
 31
0.0
  0
LINE
  5
422
100
AcDbEntity
  8
0
  6
Continuous
 62
     8
100
AcDbLine
 10
246.383944
 20
107.176352
 30
0.0
 11
247.384
 21
107.176352
 31
0.0
  0
LINE
  5
423
100
AcDbEntity
  8
0
  6
Continuous
 62
     8
100
AcDbLine
 10
249.383812
 20
107.176352
 30
0.0
 11
257.324181
 21
107.176352
 31
0.0
  0
LINE
  5
424
100
AcDbEntity
  8
0
  6
Continuous
 62
     8
100
AcDbLine
 10
259.324293
 20
107.176352
 30
0.0
 11
260.324349
 21
107.176352
 31
0.0
  0
LINE
  5
425
100
AcDbEntity
  8
0
  6
Continuous
 62
     8
100
AcDbLine
 10
262.324162
 20
107.176352
 30
0.0
 11
270.26453
 21
107.176352
 31
0.0
  0
LINE
  5
426
100
AcDbEntity
  8
0
  6
Continuous
 62
     8
100
AcDbLine
 10
272.264342
 20
107.176352
 30
0.0
 11
273.264399
 21
107.176352
 31
0.0
  0
LINE
  5
427
100
AcDbEntity
  8
0
  6
Continuous
 62
     8
100
AcDbLine
 10
275.264511
 20
107.176352
 30
0.0
 11
283.20488
 21
107.176352
 31
0.0
  0
LINE
  5
428
100
AcDbEntity
  8
0
  6
Continuous
 62
     8
100
AcDbLine
 10
285.204692
 20
107.176352
 30
0.0
 11
286.204748
 21
107.176352
 31
0.0
  0
LINE
  5
429
100
AcDbEntity
  8
0
  6
Continuous
 62
     8
100
AcDbLine
 10
288.204861
 20
107.176352
 30
0.0
 11
296.144929
 21
107.176352
 31
0.0
  0
LINE
  5
42A
100
AcDbEntity
  8
0
  6
Continuous
 62
     8
100
AcDbLine
 10
298.145041
 20
107.176352
 30
0.0
 11
299.145098
 21
107.176352
 31
0.0
  0
LINE
  5
42B
100
AcDbEntity
  8
0
  6
Continuous
 62
     8
100
AcDbLine
 10
301.14491
 20
107.176352
 30
0.0
 11
309.085279
 21
107.176352
 31
0.0
  0
LINE
  5
42C
100
AcDbEntity
  8
0
  6
Continuous
 62
     8
100
AcDbLine
 10
311.085391
 20
107.176352
 30
0.0
 11
312.085447
 21
107.176352
 31
0.0
  0
LINE
  5
42D
100
AcDbEntity
  8
0
  6
Continuous
 62
     8
100
AcDbLine
 10
314.085259
 20
107.176352
 30
0.0
 11
322.025628
 21
107.176352
 31
0.0
  0
ENDBLK
  5
42E
100
AcDbEntity
  8
0
100
AcDbBlockEnd
  0
BLOCK
  5
431
100
AcDbEntity
  8
0
100
AcDbBlockBegin
  2
*B60
 70
     0
 10
0.0
 20
0.0
 30
0.0
  3
*B60
  1

  0
LINE
  5
432
100
AcDbEntity
  8
0
  6
Continuous
 62
     8
100
AcDbLine
 10
207.068725
 20
107.176352
 30
0.0
 11
212.443614
 21
107.176352
 31
0.0
  0
LINE
  5
433
100
AcDbEntity
  8
0
  6
Continuous
 62
     8
100
AcDbLine
 10
218.443651
 20
107.176352
 30
0.0
 11
223.818541
 21
107.176352
 31
0.0
  0
ENDBLK
  5
434
100
AcDbEntity
  8
0
100
AcDbBlockEnd
  0
BLOCK
  5
437
100
AcDbEntity
  8
0
100
AcDbBlockBegin
  2
*B61
 70
     0
 10
0.0
 20
0.0
 30
0.0
  3
*B61
  1

  0
LINE
  5
438
100
AcDbEntity
  8
0
  6
Continuous
 62
     8
100
AcDbLine
 10
215.443783
 20
204.117522
 30
0.0
 11
215.443783
 21
221.116376
 31
0.0
  0
ENDBLK
  5
439
100
AcDbEntity
  8
0
100
AcDbBlockEnd
  0
BLOCK
  5
43C
100
AcDbEntity
  8
0
100
AcDbBlockBegin
  2
*B62
 70
     0
 10
0.0
 20
0.0
 30
0.0
  3
*B62
  1

  0
LINE
  5
43D
100
AcDbEntity
  8
0
  6
Continuous
 62
     8
100
AcDbLine
 10
249.443593
 20
187.118669
 30
0.0
 11
326.428699
 21
187.118669
 31
0.0
  0
ENDBLK
  5
43E
100
AcDbEntity
  8
0
100
AcDbBlockEnd
  0
BLOCK
  5
441
100
AcDbEntity
  8
0
100
AcDbBlockBegin
  2
*B63
 70
     0
 10
0.0
 20
0.0
 30
0.0
  3
*B63
  1

  0
LINE
  5
442
100
AcDbEntity
  8
0
  6
Continuous
 62
     8
100
AcDbLine
 10
249.443593
 20
217.116451
 30
0.0
 11
326.428699
 21
217.116451
 31
0.0
  0
ENDBLK
  5
443
100
AcDbEntity
  8
0
100
AcDbBlockEnd
  0
BLOCK
  5
446
100
AcDbEntity
  8
0
100
AcDbBlockBegin
  2
*B64
 70
     0
 10
0.0
 20
0.0
 30
0.0
  3
*B64
  1

  0
LINE
  5
447
100
AcDbEntity
  8
0
  6
Continuous
 62
     8
100
AcDbLine
 10
114.443808
 20
114.220905
 30
0.0
 11
126.243811
 21
114.220905
 31
0.0
  0
ENDBLK
  5
448
100
AcDbEntity
  8
0
100
AcDbBlockEnd
  0
BLOCK
  5
44B
100
AcDbEntity
  8
0
100
AcDbBlockBegin
  2
*B65
 70
     0
 10
0.0
 20
0.0
 30
0.0
  3
*B65
  1

  0
LINE
  5
44C
100
AcDbEntity
  8
0
  6
Continuous
 62
     8
100
AcDbLine
 10
104.428825
 20
245.114121
 30
0.0
 11
117.13666
 21
245.114121
 31
0.0
  0
ENDBLK
  5
44D
100
AcDbEntity
  8
0
100
AcDbBlockEnd
  0
BLOCK
  5
450
100
AcDbEntity
  8
0
100
AcDbBlockBegin
  2
*B66
 70
     0
 10
0.0
 20
0.0
 30
0.0
  3
*B66
  1

  0
LINE
  5
451
100
AcDbEntity
  8
0
  6
Continuous
 62
     8
100
AcDbLine
 10
189.068613
 20
107.176352
 30
0.0
 11
194.443803
 21
107.176352
 31
0.0
  0
LINE
  5
452
100
AcDbEntity
  8
0
  6
Continuous
 62
     8
100
AcDbLine
 10
200.44384
 20
107.176352
 30
0.0
 11
205.818729
 21
107.176352
 31
0.0
  0
ENDBLK
  5
453
100
AcDbEntity
  8
0
100
AcDbBlockEnd
  0
BLOCK
  5
456
100
AcDbEntity
  8
0
100
AcDbBlockBegin
  2
*B67
 70
     0
 10
0.0
 20
0.0
 30
0.0
  3
*B67
  1

  0
LINE
  5
457
100
AcDbEntity
  8
0
  6
Continuous
 62
     8
100
AcDbLine
 10
215.443783
 20
70.28542
 30
0.0
 11
215.443783
 21
88.256092
 31
0.0
  0
LINE
  5
458
100
AcDbEntity
  8
0
  6
Continuous
 62
     8
100
AcDbLine
 10
215.443783
 20
88.256092
 30
0.0
 11
215.443783
 21
104.176483
 31
0.0
  0
LINE
  5
459
100
AcDbEntity
  8
0
  6
Continuous
 62
     8
100
AcDbLine
 10
215.443783
 20
110.17622
 30
0.0
 11
215.443783
 21
115.550809
 31
0.0
  0
ENDBLK
  5
45A
100
AcDbEntity
  8
0
100
AcDbBlockEnd
  0
BLOCK
  5
45D
100
AcDbEntity
  8
0
100
AcDbBlockBegin
  2
*B68
 70
     0
 10
0.0
 20
0.0
 30
0.0
  3
*B68
  1

  0
LINE
  5
45E
100
AcDbEntity
  8
0
  6
Continuous
 62
     8
100
AcDbLine
 10
224.443688
 20
141.280403
 30
0.0
 11
224.443688
 21
145.280027
 31
0.0
  0
LINE
  5
45F
100
AcDbEntity
  8
0
  6
Continuous
 62
     8
100
AcDbLine
 10
224.443688
 20
112.800879
 30
0.0
 11
224.443688
 21
118.175468
 31
0.0
  0
LINE
  5
460
100
AcDbEntity
  8
0
  6
Continuous
 62
     8
100
AcDbLine
 10
224.443688
 20
124.175205
 30
0.0
 11
224.443688
 21
141.280403
 31
0.0
  0
ENDBLK
  5
461
100
AcDbEntity
  8
0
100
AcDbBlockEnd
  0
BLOCK
  5
464
100
AcDbEntity
  8
0
100
AcDbBlockBegin
  2
*B69
 70
     0
 10
0.0
 20
0.0
 30
0.0
  3
*B69
  1

  0
LINE
  5
465
100
AcDbEntity
  8
0
  6
Continuous
 62
     6
100
AcDbLine
 10
197.443671
 20
106.176295
 30
0.0
 11
197.443671
 21
108.176408
 31
0.0
  0
LINE
  5
466
100
AcDbEntity
  8
0
  6
Continuous
 62
     6
100
AcDbLine
 10
196.443615
 20
107.176352
 30
0.0
 11
198.443727
 21
107.176352
 31
0.0
  0
ENDBLK
  5
467
100
AcDbEntity
  8
0
100
AcDbBlockEnd
  0
BLOCK
  5
46A
100
AcDbEntity
  8
0
100
AcDbBlockBegin
  2
*B70
 70
     0
 10
0.0
 20
0.0
 30
0.0
  3
*B70
  1

  0
LINE
  5
46B
100
AcDbEntity
  8
0
  6
Continuous
 62
     6
100
AcDbLine
 10
239.443631
 20
124.175205
 30
0.0
 11
241.443744
 21
124.175205
 31
0.0
  0
LINE
  5
46C
100
AcDbEntity
  8
0
  6
Continuous
 62
     6
100
AcDbLine
 10
240.443687
 20
123.175149
 30
0.0
 11
240.443687
 21
125.174961
 31
0.0
  0
ENDBLK
  5
46D
100
AcDbEntity
  8
0
100
AcDbBlockEnd
  0
BLOCK
  5
470
100
AcDbEntity
  8
0
100
AcDbBlockBegin
  2
*B71
 70
     0
 10
0.0
 20
0.0
 30
0.0
  3
*B71
  1

  0
LINE
  5
471
100
AcDbEntity
  8
0
  6
Continuous
 62
     6
100
AcDbLine
 10
178.443804
 20
113.175788
 30
0.0
 11
178.443804
 21
115.1759
 31
0.0
  0
LINE
  5
472
100
AcDbEntity
  8
0
  6
Continuous
 62
     6
100
AcDbLine
 10
177.443748
 20
114.175844
 30
0.0
 11
179.44356
 21
114.175844
 31
0.0
  0
ENDBLK
  5
473
100
AcDbEntity
  8
0
100
AcDbBlockEnd
  0
BLOCK
  5
476
100
AcDbEntity
  8
0
100
AcDbBlockBegin
  2
*B72
 70
     0
 10
0.0
 20
0.0
 30
0.0
  3
*B72
  1

  0
LINE
  5
477
100
AcDbEntity
  8
0
  6
Continuous
 62
     6
100
AcDbLine
 10
214.443727
 20
107.176352
 30
0.0
 11
216.443539
 21
107.176352
 31
0.0
  0
LINE
  5
478
100
AcDbEntity
  8
0
  6
Continuous
 62
     6
100
AcDbLine
 10
215.443783
 20
106.176295
 30
0.0
 11
215.443783
 21
108.176408
 31
0.0
  0
ENDBLK
  5
479
100
AcDbEntity
  8
0
100
AcDbBlockEnd
  0
BLOCK
  5
47C
100
AcDbEntity
  8
0
100
AcDbBlockBegin
  2
*B73
 70
     0
 10
0.0
 20
0.0
 30
0.0
  3
*B73
  1

  0
LINE
  5
47D
100
AcDbEntity
  8
0
  6
Continuous
 62
     6
100
AcDbLine
 10
277.443666
 20
114.175844
 30
0.0
 11
279.443779
 21
114.175844
 31
0.0
  0
LINE
  5
47E
100
AcDbEntity
  8
0
  6
Continuous
 62
     6
100
AcDbLine
 10
278.443723
 20
113.175788
 30
0.0
 11
278.443723
 21
115.1759
 31
0.0
  0
ENDBLK
  5
47F
100
AcDbEntity
  8
0
100
AcDbBlockEnd
  0
BLOCK
  5
482
100
AcDbEntity
  8
0
100
AcDbBlockBegin
  2
*B74
 70
     0
 10
0.0
 20
0.0
 30
0.0
  3
*B74
  1

  0
LINE
  5
483
100
AcDbEntity
  8
0
  6
Continuous
 62
     6
100
AcDbLine
 10
151.443787
 20
114.175844
 30
0.0
 11
153.443599
 21
114.175844
 31
0.0
  0
LINE
  5
484
100
AcDbEntity
  8
0
  6
Continuous
 62
     6
100
AcDbLine
 10
152.443843
 20
113.175788
 30
0.0
 11
152.443843
 21
115.1759
 31
0.0
  0
ENDBLK
  5
485
100
AcDbEntity
  8
0
100
AcDbBlockEnd
  0
BLOCK
  5
488
100
AcDbEntity
  8
0
100
AcDbBlockBegin
  2
*B75
 70
     0
 10
0.0
 20
0.0
 30
0.0
  3
*B75
  1

  0
LINE
  5
489
100
AcDbEntity
  8
0
  6
Continuous
 62
     6
100
AcDbLine
 10
223.443632
 20
121.175337
 30
0.0
 11
225.443745
 21
121.175337
 31
0.0
  0
LINE
  5
48A
100
AcDbEntity
  8
0
  6
Continuous
 62
     6
100
AcDbLine
 10
224.443688
 20
120.175281
 30
0.0
 11
224.443688
 21
122.175393
 31
0.0
  0
ENDBLK
  5
48B
100
AcDbEntity
  8
0
100
AcDbBlockEnd
  0
BLOCK
  5
48E
100
AcDbEntity
  8
0
100
AcDbBlockBegin
  2
*B76
 70
     0
 10
0.0
 20
0.0
 30
0.0
  3
*B76
  1

  0
LINE
  5
48F
100
AcDbEntity
  8
0
  6
Continuous
 62
     6
100
AcDbLine
 10
205.443821
 20
121.175337
 30
0.0
 11
207.443633
 21
121.175337
 31
0.0
  0
LINE
  5
490
100
AcDbEntity
  8
0
  6
Continuous
 62
     6
100
AcDbLine
 10
206.443577
 20
120.175281
 30
0.0
 11
206.443577
 21
122.175393
 31
0.0
  0
ENDBLK
  5
491
100
AcDbEntity
  8
0
100
AcDbBlockEnd
  0
BLOCK
  5
494
100
AcDbEntity
  8
0
100
AcDbBlockBegin
  2
*B77
 70
     0
 10
0.0
 20
0.0
 30
0.0
  3
*B77
  1

  0
LINE
  5
495
100
AcDbEntity
  8
0
  6
Continuous
 62
     6
100
AcDbLine
 10
189.443822
 20
124.175205
 30
0.0
 11
191.443634
 21
124.175205
 31
0.0
  0
LINE
  5
496
100
AcDbEntity
  8
0
  6
Continuous
 62
     6
100
AcDbLine
 10
190.443578
 20
123.175149
 30
0.0
 11
190.443578
 21
125.174961
 31
0.0
  0
ENDBLK
  5
497
100
AcDbEntity
  8
0
100
AcDbBlockEnd
  0
BLOCK
  5
49A
100
AcDbEntity
  8
0
100
AcDbBlockBegin
  2
*B78
 70
     0
 10
0.0
 20
0.0
 30
0.0
  3
*B78
  1

  0
LINE
  5
49B
100
AcDbEntity
  8
0
  6
Continuous
 62
     6
100
AcDbLine
 10
251.443706
 20
114.175844
 30
0.0
 11
253.443518
 21
114.175844
 31
0.0
  0
LINE
  5
49C
100
AcDbEntity
  8
0
  6
Continuous
 62
     6
100
AcDbLine
 10
252.443762
 20
113.175788
 30
0.0
 11
252.443762
 21
115.1759
 31
0.0
  0
ENDBLK
  5
49D
100
AcDbEntity
  8
0
100
AcDbBlockEnd
  0
BLOCK
  5
4A0
100
AcDbEntity
  8
0
100
AcDbBlockBegin
  2
*B79
 70
     0
 10
0.0
 20
0.0
 30
0.0
  3
*B79
  1

  0
LINE
  5
4A1
100
AcDbEntity
  8
0
  6
Continuous
 62
     6
100
AcDbLine
 10
233.443594
 20
106.176295
 30
0.0
 11
233.443594
 21
108.176408
 31
0.0
  0
LINE
  5
4A2
100
AcDbEntity
  8
0
  6
Continuous
 62
     6
100
AcDbLine
 10
232.443538
 20
107.176352
 30
0.0
 11
234.44365
 21
107.176352
 31
0.0
  0
ENDBLK
  5
4A3
100
AcDbEntity
  8
0
100
AcDbBlockEnd
  0
BLOCK
  5
4A6
100
AcDbEntity
  8
0
100
AcDbBlockBegin
  2
*B80
 70
     0
 10
0.0
 20
0.0
 30
0.0
  3
*B80
  1

  0
TEXT
  5
4A7
100
AcDbEntity
  8
TEXT
  6
Continuous
 62
     0
100
AcDbText
 10
213.5886
 20
114.4
 30
0.0
 40
4.0
  1
1
100
AcDbText
  0
ENDBLK
  5
4A8
100
AcDbEntity
  8
0
100
AcDbBlockEnd
  0
BLOCK
  5
4AB
100
AcDbEntity
  8
0
100
AcDbBlockBegin
  2
*B81
 70
     0
 10
0.0
 20
0.0
 30
0.0
  3
*B81
  1

  0
TEXT
  5
4AC
100
AcDbEntity
  8
TEXT
  6
Continuous
 62
     0
100
AcDbText
 10
222.5886
 20
109.4
 30
0.0
 40
4.0
  1
2
100
AcDbText
  0
ENDBLK
  5
4AD
100
AcDbEntity
  8
0
100
AcDbBlockEnd
  0
BLOCK
  5
4B0
100
AcDbEntity
  8
0
100
AcDbBlockBegin
  2
*B82
 70
     0
 10
0.0
 20
0.0
 30
0.0
  3
*B82
  1

  0
TEXT
  5
4B1
100
AcDbEntity
  8
TEXT
  6
Continuous
 62
     0
100
AcDbText
 10
231.5886
 20
114.4
 30
0.0
 40
4.0
  1
3
100
AcDbText
  0
ENDBLK
  5
4B2
100
AcDbEntity
  8
0
100
AcDbBlockEnd
  0
BLOCK
  5
4B5
100
AcDbEntity
  8
0
100
AcDbBlockBegin
  2
*B83
 70
     0
 10
0.0
 20
0.0
 30
0.0
  3
*B83
  1

  0
TEXT
  5
4B6
100
AcDbEntity
  8
TEXT
  6
Continuous
 62
     0
100
AcDbText
 10
204.3886
 20
110.4
 30
0.0
 40
4.0
  1
4
100
AcDbText
  0
ENDBLK
  5
4B7
100
AcDbEntity
  8
0
100
AcDbBlockEnd
  0
BLOCK
  5
4BA
100
AcDbEntity
  8
0
100
AcDbBlockBegin
  2
*B84
 70
     0
 10
0.0
 20
0.0
 30
0.0
  3
*B84
  1

  0
TEXT
  5
4BB
100
AcDbEntity
  8
TEXT
  6
Continuous
 62
     0
100
AcDbText
 10
195.5886
 20
114.4
 30
0.0
 40
4.0
  1
5
100
AcDbText
  0
ENDBLK
  5
4BC
100
AcDbEntity
  8
0
100
AcDbBlockEnd
  0
BLOCK
  5
4BF
100
AcDbEntity
  8
0
100
AcDbBlockBegin
  2
*B85
 70
     0
 10
0.0
 20
0.0
 30
0.0
  3
*B85
  1

  0
TEXT
  5
4C0
100
AcDbEntity
  8
TEXT
  6
Continuous
 62
     0
100
AcDbText
 10
179.4
 20
107.84145
 30
0.0
 40
3.0
  1
0
 50
90.0
100
AcDbText
  0
ENDBLK
  5
4C1
100
AcDbEntity
  8
0
100
AcDbBlockEnd
  0
BLOCK
  5
4C4
100
AcDbEntity
  8
0
100
AcDbBlockBegin
  2
*B86
 70
     0
 10
0.0
 20
0.0
 30
0.0
  3
*B86
  1

  0
TEXT
  5
4C5
100
AcDbEntity
  8
TEXT
  6
Continuous
 62
     0
100
AcDbText
 10
173.5
 20
113.14145
 30
0.0
 40
3.0
  1
1
 50
90.0
100
AcDbText
  0
ENDBLK
  5
4C6
100
AcDbEntity
  8
0
100
AcDbBlockEnd
  0
BLOCK
  5
4C9
100
AcDbEntity
  8
0
100
AcDbBlockBegin
  2
*B87
 70
     0
 10
0.0
 20
0.0
 30
0.0
  3
*B87
  1

  0
TEXT
  5
4CA
100
AcDbEntity
  8
TEXT
  6
Continuous
 62
     0
100
AcDbText
 10
253.5
 20
118.94145
 30
0.0
 40
3.0
  1
0
 50
90.0
100
AcDbText
  0
ENDBLK
  5
4CB
100
AcDbEntity
  8
0
100
AcDbBlockEnd
  0
BLOCK
  5
4CE
100
AcDbEntity
  8
0
100
AcDbBlockBegin
  2
*B88
 70
     0
 10
0.0
 20
0.0
 30
0.0
  3
*B88
  1

  0
TEXT
  5
4CF
100
AcDbEntity
  8
TEXT
  6
Continuous
 62
     0
100
AcDbText
 10
256.5
 20
115.45855
 30
0.0
 40
3.0
  1
1
 50
-90.0
100
AcDbText
  0
ENDBLK
  5
4D0
100
AcDbEntity
  8
0
100
AcDbBlockEnd
  0
BLOCK
  5
4D3
100
AcDbEntity
  8
0
100
AcDbBlockBegin
  2
*B89
 70
     0
 10
0.0
 20
0.0
 30
0.0
  3
*B89
  1

  0
TEXT
  5
4D4
100
AcDbEntity
  8
TEXT
  6
Continuous
 62
     0
100
AcDbText
 10
284.584724
 20
262.75
 30
0.0
 40
3.5
  1
48
100
AcDbText
  0
ENDBLK
  5
4D5
100
AcDbEntity
  8
0
100
AcDbBlockEnd
  0
BLOCK
  5
4D8
100
AcDbEntity
  8
0
100
AcDbBlockBegin
  2
*B90
 70
     0
 10
0.0
 20
0.0
 30
0.0
  3
*B90
  1

  0
TEXT
  5
4D9
100
AcDbEntity
  8
TEXT
  6
Continuous
 62
     0
100
AcDbText
 10
139.584724
 20
262.75
 30
0.0
 40
3.5
  1
48
100
AcDbText
  0
ENDBLK
  5
4DA
100
AcDbEntity
  8
0
100
AcDbBlockEnd
  0
BLOCK
  5
4DD
100
AcDbEntity
  8
0
100
AcDbBlockBegin
  2
*B91
 70
     0
 10
0.0
 20
0.0
 30
0.0
  3
*B91
  1

  0
TEXT
  5
4DE
100
AcDbEntity
  8
TEXT
  6
Continuous
 62
     0
100
AcDbText
 10
212.084724
 20
262.75
 30
0.0
 40
3.5
  1
96
100
AcDbText
  0
ENDBLK
  5
4DF
100
AcDbEntity
  8
0
100
AcDbBlockEnd
  0
BLOCK
  5
4E2
100
AcDbEntity
  8
0
100
AcDbBlockBegin
  2
*B92
 70
     0
 10
0.0
 20
0.0
 30
0.0
  3
*B92
  1

  0
TEXT
  5
4E3
100
AcDbEntity
  8
TEXT
  6
Continuous
 62
     0
100
AcDbText
 10
322.653013
 20
198.747536
 30
0.0
 40
3.5
  1
30
 50
90.0
100
AcDbText
  0
ENDBLK
  5
4E4
100
AcDbEntity
  8
0
100
AcDbBlockEnd
  0
BLOCK
  5
4E7
100
AcDbEntity
  8
0
100
AcDbBlockBegin
  2
*B93
 70
     0
 10
0.0
 20
0.0
 30
0.0
  3
*B93
  1

  0
TEXT
  5
4E8
100
AcDbEntity
  8
TEXT
  6
Continuous
 62
     0
100
AcDbText
 10
203.084724
 20
87.961237
 30
0.0
 40
3.5
  1
18
100
AcDbText
  0
ENDBLK
  5
4E9
100
AcDbEntity
  8
0
100
AcDbBlockEnd
  0
BLOCK
  5
4EC
100
AcDbEntity
  8
0
100
AcDbBlockBegin
  2
*B94
 70
     0
 10
0.0
 20
0.0
 30
0.0
  3
*B94
  1

  0
TEXT
  5
4ED
100
AcDbEntity
  8
TEXT
  6
Continuous
 62
     0
100
AcDbText
 10
212.084724
 20
144.989169
 30
0.0
 40
3.5
  1
18
100
AcDbText
  0
ENDBLK
  5
4EE
100
AcDbEntity
  8
0
100
AcDbBlockEnd
  0
BLOCK
  5
4F1
100
AcDbEntity
  8
0
100
AcDbBlockBegin
  2
*B95
 70
     0
 10
0.0
 20
0.0
 30
0.0
  3
*B95
  1

  0
TEXT
  5
4F2
100
AcDbEntity
  8
TEXT
  6
Continuous
 62
     0
100
AcDbText
 10
226.81968
 20
232.75
 30
0.0
 40
3.5
  1
G 1/8"
100
AcDbText
  0
ENDBLK
  5
4F3
100
AcDbEntity
  8
0
100
AcDbBlockEnd
  0
BLOCK
  5
4F6
100
AcDbEntity
  8
0
100
AcDbBlockBegin
  2
*B96
 70
     0
 10
0.0
 20
0.0
 30
0.0
  3
*B96
  1

  0
TEXT
  5
4F7
100
AcDbEntity
  8
TEXT
  6
Continuous
 62
     0
100
AcDbText
 10
212.084724
 20
246.75
 30
0.0
 40
3.5
  1
64
100
AcDbText
  0
ENDBLK
  5
4F8
100
AcDbEntity
  8
0
100
AcDbBlockEnd
  0
BLOCK
  5
4FB
100
AcDbEntity
  8
0
100
AcDbBlockBegin
  2
*B97
 70
     0
 10
0.0
 20
0.0
 30
0.0
  3
*B97
  1

  0
TEXT
  5
4FC
100
AcDbEntity
  8
TEXT
  6
Continuous
 62
     0
100
AcDbText
 10
249.786346
 20
173.75
 30
0.0
 40
3.5
  1
%%c4,4
100
AcDbText
  0
ENDBLK
  5
4FD
100
AcDbEntity
  8
0
100
AcDbBlockEnd
  0
BLOCK
  5
500
100
AcDbEntity
  8
0
100
AcDbBlockBegin
  2
*B98
 70
     0
 10
0.0
 20
0.0
 30
0.0
  3
*B98
  1

  0
TEXT
  5
501
100
AcDbEntity
  8
TEXT
  6
Continuous
 62
     0
100
AcDbText
 10
191.584724
 20
144.989169
 30
0.0
 40
3.5
  1
23
100
AcDbText
  0
ENDBLK
  5
502
100
AcDbEntity
  8
0
100
AcDbBlockEnd
  0
BLOCK
  5
505
100
AcDbEntity
  8
0
100
AcDbBlockBegin
  2
*B99
 70
     0
 10
0.0
 20
0.0
 30
0.0
  3
*B99
  1

  0
TEXT
  5
506
100
AcDbEntity
  8
TEXT
  6
Continuous
 62
     0
100
AcDbText
 10
221.084724
 20
73.989169
 30
0.0
 40
3.5
  1
18
100
AcDbText
  0
ENDBLK
  5
507
100
AcDbEntity
  8
0
100
AcDbBlockEnd
  0
BLOCK
  5
50A
100
AcDbEntity
  8
0
100
AcDbBlockBegin
  2
*B100
 70
     0
 10
0.0
 20
0.0
 30
0.0
  3
*B100
  1

  0
TEXT
  5
50B
100
AcDbEntity
  8
TEXT
  6
Continuous
 62
     0
100
AcDbText
 10
104.653013
 20
110.799376
 30
0.0
 40
3.5
  1
30
 50
90.0
100
AcDbText
  0
ENDBLK
  5
50C
100
AcDbEntity
  8
0
100
AcDbBlockEnd
  0
BLOCK
  5
50F
100
AcDbEntity
  8
0
100
AcDbBlockBegin
  2
*B101
 70
     0
 10
0.0
 20
0.0
 30
0.0
  3
*B101
  1

  0
TEXT
  5
510
100
AcDbEntity
  8
TEXT
  6
Continuous
 62
     0
100
AcDbText
 10
104.653013
 20
212.747312
 30
0.0
 40
3.5
  1
58
 50
90.0
100
AcDbText
  0
ENDBLK
  5
511
100
AcDbEntity
  8
0
100
AcDbBlockEnd
  0
BLOCK
  5
514
100
AcDbEntity
  8
0
100
AcDbBlockBegin
  2
*B102
 70
     0
 10
0.0
 20
0.0
 30
0.0
  3
*B102
  1

  0
TEXT
  5
515
100
AcDbEntity
  8
TEXT
  6
Continuous
 62
     0
100
AcDbText
 10
185.251391
 20
158.989169
 30
0.0
 40
3.5
  1
7
100
AcDbText
  0
ENDBLK
  5
516
100
AcDbEntity
  8
0
100
AcDbBlockEnd
  0
BLOCK
  5
519
100
AcDbEntity
  8
0
100
AcDbBlockBegin
  2
*B103
 70
     0
 10
0.0
 20
0.0
 30
0.0
  3
*B103
  1

  0
TEXT
  5
51A
100
AcDbEntity
  8
TEXT
  6
Continuous
 62
     0
100
AcDbText
 10
212.084724
 20
158.989169
 30
0.0
 40
3.5
  1
50
100
AcDbText
  0
ENDBLK
  5
51B
100
AcDbEntity
  8
0
100
AcDbBlockEnd
  0
BLOCK
  5
51E
100
AcDbEntity
  8
0
100
AcDbBlockBegin
  2
*B104
 70
     0
 10
0.0
 20
0.0
 30
0.0
  3
*B104
  1

  0
TEXT
  5
51F
100
AcDbEntity
  8
TEXT
  6
Continuous
 62
     0
100
AcDbText
 10
255.653013
 20
138.572503
 30
0.0
 40
3.5
  1
5
 50
90.0
100
AcDbText
  0
ENDBLK
  5
520
100
AcDbEntity
  8
0
100
AcDbBlockEnd
  0
BLOCK
  5
523
100
AcDbEntity
  8
0
100
AcDbBlockBegin
  2
*B105
 70
     0
 10
0.0
 20
0.0
 30
0.0
  3
*B105
  1

  0
TEXT
  5
524
100
AcDbEntity
  8
TEXT
  6
Continuous
 62
     0
100
AcDbText
 10
187.084724
 20
73.989169
 30
0.0
 40
3.5
  1
14
100
AcDbText
  0
ENDBLK
  5
525
100
AcDbEntity
  8
0
100
AcDbBlockEnd
  0
BLOCK
  5
528
100
AcDbEntity
  8
0
100
AcDbBlockBegin
  2
*B106
 70
     0
 10
0.0
 20
0.0
 30
0.0
  3
*B106
  1

  0
TEXT
  5
529
100
AcDbEntity
  8
TEXT
  6
Continuous
 62
     0
100
AcDbText
 10
322.25
 20
110.799376
 30
0.0
 40
3.5
  1
14
 50
90.0
100
AcDbText
  0
ENDBLK
  5
52A
100
AcDbEntity
  8
0
100
AcDbBlockEnd
  0
ENDSEC
  0
SECTION
  2
ENTITIES
  0
INSERT
  5
11D
100
AcDbEntity
  8
0
  6
Continuous
 62
   174
100
AcDbBlockReference
  2
*B1
 10
0.0
 20
0.0
 30
0.0
  0
INSERT
  5
275
100
AcDbEntity
  8
0
  6
HIDDEN
 62
   174
100
AcDbBlockReference
  2
*B2
 10
0.0
 20
0.0
 30
0.0
  0
INSERT
  5
27B
100
AcDbEntity
  8
0
  6
Continuous
 62
   172
100
AcDbBlockReference
  2
*B3
 10
0.0
 20
0.0
 30
0.0
  0
INSERT
  5
286
100
AcDbEntity
  8
0
  6
Continuous
 62
   172
100
AcDbBlockReference
  2
*B4
 10
0.0
 20
0.0
 30
0.0
  0
INSERT
  5
290
100
AcDbEntity
  8
0
  6
Continuous
 62
     0
100
AcDbBlockReference
  2
*B6
 10
0.0
 20
0.0
 30
0.0
  0
INSERT
  5
297
100
AcDbEntity
  8
0
  6
Continuous
 62
     0
100
AcDbBlockReference
  2
*B7
 10
0.0
 20
0.0
 30
0.0
  0
INSERT
  5
29E
100
AcDbEntity
  8
0
  6
Continuous
 62
     0
100
AcDbBlockReference
  2
*B8
 10
0.0
 20
0.0
 30
0.0
  0
INSERT
  5
2A5
100
AcDbEntity
  8
0
  6
Continuous
 62
     0
100
AcDbBlockReference
  2
*B9
 10
0.0
 20
0.0
 30
0.0
  0
INSERT
  5
2AC
100
AcDbEntity
  8
0
  6
Continuous
 62
     0
100
AcDbBlockReference
  2
*B10
 10
0.0
 20
0.0
 30
0.0
  0
INSERT
  5
2B3
100
AcDbEntity
  8
0
  6
Continuous
 62
     0
100
AcDbBlockReference
  2
*B11
 10
0.0
 20
0.0
 30
0.0
  0
INSERT
  5
2BA
100
AcDbEntity
  8
0
  6
Continuous
 62
     0
100
AcDbBlockReference
  2
*B12
 10
0.0
 20
0.0
 30
0.0
  0
INSERT
  5
2C1
100
AcDbEntity
  8
0
  6
Continuous
 62
     0
100
AcDbBlockReference
  2
*B13
 10
0.0
 20
0.0
 30
0.0
  0
INSERT
  5
2C8
100
AcDbEntity
  8
0
  6
Continuous
 62
     0
100
AcDbBlockReference
  2
*B14
 10
0.0
 20
0.0
 30
0.0
  0
INSERT
  5
2CF
100
AcDbEntity
  8
0
  6
Continuous
 62
     0
100
AcDbBlockReference
  2
*B15
 10
0.0
 20
0.0
 30
0.0
  0
INSERT
  5
2D6
100
AcDbEntity
  8
0
  6
Continuous
 62
     0
100
AcDbBlockReference
  2
*B16
 10
0.0
 20
0.0
 30
0.0
  0
INSERT
  5
2DD
100
AcDbEntity
  8
0
  6
Continuous
 62
     0
100
AcDbBlockReference
  2
*B17
 10
0.0
 20
0.0
 30
0.0
  0
INSERT
  5
2E4
100
AcDbEntity
  8
0
  6
Continuous
 62
     0
100
AcDbBlockReference
  2
*B18
 10
0.0
 20
0.0
 30
0.0
  0
INSERT
  5
2EB
100
AcDbEntity
  8
0
  6
Continuous
 62
     0
100
AcDbBlockReference
  2
*B19
 10
0.0
 20
0.0
 30
0.0
  0
INSERT
  5
2F2
100
AcDbEntity
  8
0
  6
Continuous
 62
     0
100
AcDbBlockReference
  2
*B20
 10
0.0
 20
0.0
 30
0.0
  0
INSERT
  5
2F9
100
AcDbEntity
  8
0
  6
Continuous
 62
     0
100
AcDbBlockReference
  2
*B21
 10
0.0
 20
0.0
 30
0.0
  0
INSERT
  5
300
100
AcDbEntity
  8
0
  6
Continuous
 62
     0
100
AcDbBlockReference
  2
*B22
 10
0.0
 20
0.0
 30
0.0
  0
INSERT
  5
307
100
AcDbEntity
  8
0
  6
Continuous
 62
     0
100
AcDbBlockReference
  2
*B23
 10
0.0
 20
0.0
 30
0.0
  0
INSERT
  5
30C
100
AcDbEntity
  8
0
  6
Continuous
 62
     8
100
AcDbBlockReference
  2
*B24
 10
0.0
 20
0.0
 30
0.0
  0
INSERT
  5
312
100
AcDbEntity
  8
0
  6
Continuous
 62
     8
100
AcDbBlockReference
  2
*B25
 10
0.0
 20
0.0
 30
0.0
  0
INSERT
  5
32F
100
AcDbEntity
  8
0
  6
Continuous
 62
     8
100
AcDbBlockReference
  2
*B26
 10
0.0
 20
0.0
 30
0.0
  0
INSERT
  5
335
100
AcDbEntity
  8
0
  6
Continuous
 62
     8
100
AcDbBlockReference
  2
*B27
 10
0.0
 20
0.0
 30
0.0
  0
INSERT
  5
33C
100
AcDbEntity
  8
0
  6
Continuous
 62
     8
100
AcDbBlockReference
  2
*B28
 10
0.0
 20
0.0
 30
0.0
  0
INSERT
  5
345
100
AcDbEntity
  8
0
  6
Continuous
 62
     8
100
AcDbBlockReference
  2
*B29
 10
0.0
 20
0.0
 30
0.0
  0
INSERT
  5
34B
100
AcDbEntity
  8
0
  6
Continuous
 62
     8
100
AcDbBlockReference
  2
*B30
 10
0.0
 20
0.0
 30
0.0
  0
INSERT
  5
350
100
AcDbEntity
  8
0
  6
Continuous
 62
     8
100
AcDbBlockReference
  2
*B31
 10
0.0
 20
0.0
 30
0.0
  0
INSERT
  5
355
100
AcDbEntity
  8
0
  6
Continuous
 62
     8
100
AcDbBlockReference
  2
*B32
 10
0.0
 20
0.0
 30
0.0
  0
INSERT
  5
35A
100
AcDbEntity
  8
0
  6
Continuous
 62
     8
100
AcDbBlockReference
  2
*B33
 10
0.0
 20
0.0
 30
0.0
  0
INSERT
  5
360
100
AcDbEntity
  8
0
  6
Continuous
 62
     8
100
AcDbBlockReference
  2
*B34
 10
0.0
 20
0.0
 30
0.0
  0
INSERT
  5
37F
100
AcDbEntity
  8
0
  6
Continuous
 62
     8
100
AcDbBlockReference
  2
*B35
 10
0.0
 20
0.0
 30
0.0
  0
INSERT
  5
384
100
AcDbEntity
  8
0
  6
Continuous
 62
     8
100
AcDbBlockReference
  2
*B36
 10
0.0
 20
0.0
 30
0.0
  0
INSERT
  5
389
100
AcDbEntity
  8
0
  6
Continuous
 62
     8
100
AcDbBlockReference
  2
*B37
 10
0.0
 20
0.0
 30
0.0
  0
INSERT
  5
38E
100
AcDbEntity
  8
0
  6
Continuous
 62
     8
100
AcDbBlockReference
  2
*B38
 10
0.0
 20
0.0
 30
0.0
  0
INSERT
  5
395
100
AcDbEntity
  8
0
  6
Continuous
 62
     8
100
AcDbBlockReference
  2
*B39
 10
0.0
 20
0.0
 30
0.0
  0
INSERT
  5
39E
100
AcDbEntity
  8
0
  6
Continuous
 62
     8
100
AcDbBlockReference
  2
*B40
 10
0.0
 20
0.0
 30
0.0
  0
INSERT
  5
3A3
100
AcDbEntity
  8
0
  6
Continuous
 62
     8
100
AcDbBlockReference
  2
*B41
 10
0.0
 20
0.0
 30
0.0
  0
INSERT
  5
3A8
100
AcDbEntity
  8
0
  6
Continuous
 62
     8
100
AcDbBlockReference
  2
*B42
 10
0.0
 20
0.0
 30
0.0
  0
INSERT
  5
3B1
100
AcDbEntity
  8
0
  6
Continuous
 62
     8
100
AcDbBlockReference
  2
*B43
 10
0.0
 20
0.0
 30
0.0
  0
INSERT
  5
3B8
100
AcDbEntity
  8
0
  6
Continuous
 62
     8
100
AcDbBlockReference
  2
*B44
 10
0.0
 20
0.0
 30
0.0
  0
INSERT
  5
3BD
100
AcDbEntity
  8
0
  6
Continuous
 62
     8
100
AcDbBlockReference
  2
*B45
 10
0.0
 20
0.0
 30
0.0
  0
INSERT
  5
3C2
100
AcDbEntity
  8
0
  6
Continuous
 62
     8
100
AcDbBlockReference
  2
*B46
 10
0.0
 20
0.0
 30
0.0
  0
INSERT
  5
3C7
100
AcDbEntity
  8
0
  6
Continuous
 62
     8
100
AcDbBlockReference
  2
*B47
 10
0.0
 20
0.0
 30
0.0
  0
INSERT
  5
3DA
100
AcDbEntity
  8
0
  6
Continuous
 62
     8
100
AcDbBlockReference
  2
*B48
 10
0.0
 20
0.0
 30
0.0
  0
INSERT
  5
3E1
100
AcDbEntity
  8
0
  6
Continuous
 62
     8
100
AcDbBlockReference
  2
*B49
 10
0.0
 20
0.0
 30
0.0
  0
INSERT
  5
3E7
100
AcDbEntity
  8
0
  6
Continuous
 62
     8
100
AcDbBlockReference
  2
*B50
 10
0.0
 20
0.0
 30
0.0
  0
INSERT
  5
3ED
100
AcDbEntity
  8
0
  6
Continuous
 62
     8
100
AcDbBlockReference
  2
*B51
 10
0.0
 20
0.0
 30
0.0
  0
INSERT
  5
3F4
100
AcDbEntity
  8
0
  6
Continuous
 62
     8
100
AcDbBlockReference
  2
*B52
 10
0.0
 20
0.0
 30
0.0
  0
INSERT
  5
3FD
100
AcDbEntity
  8
0
  6
Continuous
 62
     8
100
AcDbBlockReference
  2
*B53
 10
0.0
 20
0.0
 30
0.0
  0
INSERT
  5
406
100
AcDbEntity
  8
0
  6
Continuous
 62
     8
100
AcDbBlockReference
  2
*B54
 10
0.0
 20
0.0
 30
0.0
  0
INSERT
  5
40C
100
AcDbEntity
  8
0
  6
Continuous
 62
     8
100
AcDbBlockReference
  2
*B55
 10
0.0
 20
0.0
 30
0.0
  0
INSERT
  5
411
100
AcDbEntity
  8
0
  6
Continuous
 62
     8
100
AcDbBlockReference
  2
*B56
 10
0.0
 20
0.0
 30
0.0
  0
INSERT
  5
417
100
AcDbEntity
  8
0
  6
Continuous
 62
     8
100
AcDbBlockReference
  2
*B57
 10
0.0
 20
0.0
 30
0.0
  0
INSERT
  5
41C
100
AcDbEntity
  8
0
  6
Continuous
 62
     8
100
AcDbBlockReference
  2
*B58
 10
0.0
 20
0.0
 30
0.0
  0
INSERT
  5
42F
100
AcDbEntity
  8
0
  6
Continuous
 62
     8
100
AcDbBlockReference
  2
*B59
 10
0.0
 20
0.0
 30
0.0
  0
INSERT
  5
435
100
AcDbEntity
  8
0
  6
Continuous
 62
     8
100
AcDbBlockReference
  2
*B60
 10
0.0
 20
0.0
 30
0.0
  0
INSERT
  5
43A
100
AcDbEntity
  8
0
  6
Continuous
 62
     8
100
AcDbBlockReference
  2
*B61
 10
0.0
 20
0.0
 30
0.0
  0
INSERT
  5
43F
100
AcDbEntity
  8
0
  6
Continuous
 62
     8
100
AcDbBlockReference
  2
*B62
 10
0.0
 20
0.0
 30
0.0
  0
INSERT
  5
444
100
AcDbEntity
  8
0
  6
Continuous
 62
     8
100
AcDbBlockReference
  2
*B63
 10
0.0
 20
0.0
 30
0.0
  0
INSERT
  5
449
100
AcDbEntity
  8
0
  6
Continuous
 62
     8
100
AcDbBlockReference
  2
*B64
 10
0.0
 20
0.0
 30
0.0
  0
INSERT
  5
44E
100
AcDbEntity
  8
0
  6
Continuous
 62
     8
100
AcDbBlockReference
  2
*B65
 10
0.0
 20
0.0
 30
0.0
  0
INSERT
  5
454
100
AcDbEntity
  8
0
  6
Continuous
 62
     8
100
AcDbBlockReference
  2
*B66
 10
0.0
 20
0.0
 30
0.0
  0
INSERT
  5
45B
100
AcDbEntity
  8
0
  6
Continuous
 62
     8
100
AcDbBlockReference
  2
*B67
 10
0.0
 20
0.0
 30
0.0
  0
INSERT
  5
462
100
AcDbEntity
  8
0
  6
Continuous
 62
     8
100
AcDbBlockReference
  2
*B68
 10
0.0
 20
0.0
 30
0.0
  0
INSERT
  5
468
100
AcDbEntity
  8
0
  6
Continuous
 62
     6
100
AcDbBlockReference
  2
*B69
 10
0.0
 20
0.0
 30
0.0
  0
INSERT
  5
46E
100
AcDbEntity
  8
0
  6
Continuous
 62
     6
100
AcDbBlockReference
  2
*B70
 10
0.0
 20
0.0
 30
0.0
  0
INSERT
  5
474
100
AcDbEntity
  8
0
  6
Continuous
 62
     6
100
AcDbBlockReference
  2
*B71
 10
0.0
 20
0.0
 30
0.0
  0
INSERT
  5
47A
100
AcDbEntity
  8
0
  6
Continuous
 62
     6
100
AcDbBlockReference
  2
*B72
 10
0.0
 20
0.0
 30
0.0
  0
INSERT
  5
480
100
AcDbEntity
  8
0
  6
Continuous
 62
     6
100
AcDbBlockReference
  2
*B73
 10
0.0
 20
0.0
 30
0.0
  0
INSERT
  5
486
100
AcDbEntity
  8
0
  6
Continuous
 62
     6
100
AcDbBlockReference
  2
*B74
 10
0.0
 20
0.0
 30
0.0
  0
INSERT
  5
48C
100
AcDbEntity
  8
0
  6
Continuous
 62
     6
100
AcDbBlockReference
  2
*B75
 10
0.0
 20
0.0
 30
0.0
  0
INSERT
  5
492
100
AcDbEntity
  8
0
  6
Continuous
 62
     6
100
AcDbBlockReference
  2
*B76
 10
0.0
 20
0.0
 30
0.0
  0
INSERT
  5
498
100
AcDbEntity
  8
0
  6
Continuous
 62
     6
100
AcDbBlockReference
  2
*B77
 10
0.0
 20
0.0
 30
0.0
  0
INSERT
  5
49E
100
AcDbEntity
  8
0
  6
Continuous
 62
     6
100
AcDbBlockReference
  2
*B78
 10
0.0
 20
0.0
 30
0.0
  0
INSERT
  5
4A4
100
AcDbEntity
  8
0
  6
Continuous
 62
     6
100
AcDbBlockReference
  2
*B79
 10
0.0
 20
0.0
 30
0.0
  0
INSERT
  5
4A9
100
AcDbEntity
  8
TEXT
  6
Continuous
 62
     0
100
AcDbBlockReference
  2
*B80
 10
0.0
 20
0.0
 30
0.0
  0
INSERT
  5
4AE
100
AcDbEntity
  8
TEXT
  6
Continuous
 62
     0
100
AcDbBlockReference
  2
*B81
 10
0.0
 20
0.0
 30
0.0
  0
INSERT
  5
4B3
100
AcDbEntity
  8
TEXT
  6
Continuous
 62
     0
100
AcDbBlockReference
  2
*B82
 10
0.0
 20
0.0
 30
0.0
  0
INSERT
  5
4B8
100
AcDbEntity
  8
TEXT
  6
Continuous
 62
     0
100
AcDbBlockReference
  2
*B83
 10
0.0
 20
0.0
 30
0.0
  0
INSERT
  5
4BD
100
AcDbEntity
  8
TEXT
  6
Continuous
 62
     0
100
AcDbBlockReference
  2
*B84
 10
0.0
 20
0.0
 30
0.0
  0
INSERT
  5
4C2
100
AcDbEntity
  8
TEXT
  6
Continuous
 62
     0
100
AcDbBlockReference
  2
*B85
 10
0.0
 20
0.0
 30
0.0
  0
INSERT
  5
4C7
100
AcDbEntity
  8
TEXT
  6
Continuous
 62
     0
100
AcDbBlockReference
  2
*B86
 10
0.0
 20
0.0
 30
0.0
  0
INSERT
  5
4CC
100
AcDbEntity
  8
TEXT
  6
Continuous
 62
     0
100
AcDbBlockReference
  2
*B87
 10
0.0
 20
0.0
 30
0.0
  0
INSERT
  5
4D1
100
AcDbEntity
  8
TEXT
  6
Continuous
 62
     0
100
AcDbBlockReference
  2
*B88
 10
0.0
 20
0.0
 30
0.0
  0
INSERT
  5
4D6
100
AcDbEntity
  8
TEXT
  6
Continuous
 62
     0
100
AcDbBlockReference
  2
*B89
 10
0.0
 20
0.0
 30
0.0
  0
INSERT
  5
4DB
100
AcDbEntity
  8
TEXT
  6
Continuous
 62
     0
100
AcDbBlockReference
  2
*B90
 10
0.0
 20
0.0
 30
0.0
  0
INSERT
  5
4E0
100
AcDbEntity
  8
TEXT
  6
Continuous
 62
     0
100
AcDbBlockReference
  2
*B91
 10
0.0
 20
0.0
 30
0.0
  0
INSERT
  5
4E5
100
AcDbEntity
  8
TEXT
  6
Continuous
 62
     0
100
AcDbBlockReference
  2
*B92
 10
0.0
 20
0.0
 30
0.0
  0
INSERT
  5
4EA
100
AcDbEntity
  8
TEXT
  6
Continuous
 62
     0
100
AcDbBlockReference
  2
*B93
 10
0.0
 20
0.0
 30
0.0
  0
INSERT
  5
4EF
100
AcDbEntity
  8
TEXT
  6
Continuous
 62
     0
100
AcDbBlockReference
  2
*B94
 10
0.0
 20
0.0
 30
0.0
  0
INSERT
  5
4F4
100
AcDbEntity
  8
TEXT
  6
Continuous
 62
     0
100
AcDbBlockReference
  2
*B95
 10
0.0
 20
0.0
 30
0.0
  0
INSERT
  5
4F9
100
AcDbEntity
  8
TEXT
  6
Continuous
 62
     0
100
AcDbBlockReference
  2
*B96
 10
0.0
 20
0.0
 30
0.0
  0
INSERT
  5
4FE
100
AcDbEntity
  8
TEXT
  6
Continuous
 62
     0
100
AcDbBlockReference
  2
*B97
 10
0.0
 20
0.0
 30
0.0
  0
INSERT
  5
503
100
AcDbEntity
  8
TEXT
  6
Continuous
 62
     0
100
AcDbBlockReference
  2
*B98
 10
0.0
 20
0.0
 30
0.0
  0
INSERT
  5
508
100
AcDbEntity
  8
TEXT
  6
Continuous
 62
     0
100
AcDbBlockReference
  2
*B99
 10
0.0
 20
0.0
 30
0.0
  0
INSERT
  5
50D
100
AcDbEntity
  8
TEXT
  6
Continuous
 62
     0
100
AcDbBlockReference
  2
*B100
 10
0.0
 20
0.0
 30
0.0
  0
INSERT
  5
512
100
AcDbEntity
  8
TEXT
  6
Continuous
 62
     0
100
AcDbBlockReference
  2
*B101
 10
0.0
 20
0.0
 30
0.0
  0
INSERT
  5
517
100
AcDbEntity
  8
TEXT
  6
Continuous
 62
     0
100
AcDbBlockReference
  2
*B102
 10
0.0
 20
0.0
 30
0.0
  0
INSERT
  5
51C
100
AcDbEntity
  8
TEXT
  6
Continuous
 62
     0
100
AcDbBlockReference
  2
*B103
 10
0.0
 20
0.0
 30
0.0
  0
INSERT
  5
521
100
AcDbEntity
  8
TEXT
  6
Continuous
 62
     0
100
AcDbBlockReference
  2
*B104
 10
0.0
 20
0.0
 30
0.0
  0
INSERT
  5
526
100
AcDbEntity
  8
TEXT
  6
Continuous
 62
     0
100
AcDbBlockReference
  2
*B105
 10
0.0
 20
0.0
 30
0.0
  0
INSERT
  5
52B
100
AcDbEntity
  8
TEXT
  6
Continuous
 62
     0
100
AcDbBlockReference
  2
*B106
 10
0.0
 20
0.0
 30
0.0
  0
ENDSEC
  0
SECTION
  2
OBJECTS
  0
DICTIONARY
  5
19
100
AcDbDictionary
280
     0
281
     1
  3
ACAD_GROUP
350
1A
  3
ACAD_MLINESTYLE
350
1B
  3
ACAD_LAYOUT
350
1E
  3
ACAD_PLOTSETTINGS
350
22
  3
ACAD_PLOTSTYLENAME
350
1F
  3
ACAD_WIPEOUT_VARS
350
23
  0
DICTIONARY
  5
1A
102
{ACAD_REACTORS
330
19
102
}
100
AcDbDictionary
280
     0
281
     1
  0
DICTIONARY
  5
1B
102
{ACAD_REACTORS
330
19
102
}
100
AcDbDictionary
280
     0
281
     1
  3
Standard
350
1C
  0
MLINESTYLE
  5
1C
102
{ACAD_REACTORS
330
1B
102
}
100
AcDbMlineStyle
  2
Standard
 70
     0
  3

 62
     0
 51
90.0
 52
90.0
 71
     2
 49
0.5
 62
   256
  6
BYLAYER
 49
-0.5
 62
   256
  6
BYLAYER
  0
ACDBDICTIONARYWDFLT
  5
1F
102
{ACAD_REACTORS
330
19
102
}
100
AcDbDictionary
281
     1
  3
Normal
350
1D
100
AcDbDictionaryWithDefault
340
1D
  0
ACDBPLACEHOLDER
  5
1D
102
{ACAD_REACTORS
330
1F
102
}
  0
LAYOUT
  5
20
102
{ACAD_REACTORS
330
1E
102
}
100
AcDbPlotSettings
  1

  2

  4

  6

 40
0.0
 41
0.0
 42
0.0
 43
0.0
 44
0.0
 45
0.0
 46
0.0
 47
0.0
 48
0.0
 49
0.0
140
0.0
141
0.0
142
1.0
143
1.0
 70
     0
 72
     0
 73
     0
 74
     0
  7

 75
     0
147
1.0
148
0.0
149
0.0
100
AcDbLayout
  1
Model
 70
     0
 71
     0
 10
0.0
 20
0.0
 11
0.0
 21
0.0
 12
0.0
 22
0.0
 32
0.0
 14
0.0
 24
0.0
 34
0.0
 15
0.0
 25
0.0
 35
0.0
146
0.0
 13
0.0
 23
0.0
 33
0.0
 16
0.0
 26
0.0
 36
0.0
 17
0.0
 27
0.0
 37
0.0
 76
     0
330
A
331
0
345
0
346
0
  0
LAYOUT
  5
21
102
{ACAD_REACTORS
330
1E
102
}
100
AcDbPlotSettings
  1

  2

  4

  6

 40
0.0
 41
0.0
 42
0.0
 43
0.0
 44
0.0
 45
0.0
 46
0.0
 47
0.0
 48
0.0
 49
0.0
140
0.0
141
0.0
142
1.0
143
1.0
 70
     0
 72
     0
 73
     0
 74
     0
  7

 75
     0
147
1.0
148
0.0
149
0.0
100
AcDbLayout
  1
Layout1
 70
     0
 71
     0
 10
0.0
 20
0.0
 11
0.0
 21
0.0
 12
0.0
 22
0.0
 32
0.0
 14
0.0
 24
0.0
 34
0.0
 15
0.0
 25
0.0
 35
0.0
146
0.0
 13
0.0
 23
0.0
 33
0.0
 16
0.0
 26
0.0
 36
0.0
 17
0.0
 27
0.0
 37
0.0
 76
     0
330
B
331
0
345
0
346
0
  0
DICTIONARY
  5
1E
102
{ACAD_REACTORS
330
19
102
}
100
AcDbDictionary
280
     0
281
     1
  3
Layout1
350
21
  3
Model
350
20
  0
DICTIONARY
  5
22
102
{ACAD_REACTORS
330
19
102
}
100
AcDbDictionary
280
     0
281
     1
  0
WIPEOUTVARIABLES
  5
23
100
AcDbWipeoutVariables
 70
     1
  0
ENDSEC
  0
EOF
