  0
SECTION
  2
HEADER
  9
$ACADVER
  1
AC1015
  9
$ACADMAINTVER
 70
     6
  9
$DWGCODEPAGE
  3
DOS850
  9
$INSBASE
 10
0.0
 20
0.0
 30
0.0
  9
$EXTMIN
 10
0.0
 20
0.0
 30
0.0
  9
$EXTMAX
 10
420.0
 20
297.0
 30
0.0
  9
$LIMMIN
 10
0.0
 20
0.0
  9
$LIMMAX
 10
420.0
 20
297.0
  9
$ORTHOMODE
 70
     0
  9
$REGENMODE
 70
     1
  9
$FILLMODE
 70
     1
  9
$QTEXTMODE
 70
     0
  9
$MIRRTEXT
 70
     1
  9
$LTSCALE
 40
25.4
  9
$ATTMODE
 70
     1
  9
$TEXTSIZE
 40
3.5
  9
$TRACEWID
 40
0.05
  9
$TEXTSTYLE
  7
Standard
  9
$CLAYER
  8
0
  9
$CELTYPE
  6
Continuous
  9
$CECOLOR
 62
   256
  9
$CELTSCALE
 40
1.0
  9
$DISPSILH
 70
     0
  9
$DIMSCALE
 40
1.0
  9
$DIMASZ
 40
5.0
  9
$DIMEXO
 40
3.0
  9
$DIMDLI
 40
0.38
  9
$DIMRND
 40
0.0
  9
$DIMDLE
 40
0.0
  9
$DIMEXE
 40
2.0
  9
$DIMTP
 40
0.0
  9
$DIMTM
 40
0.0
  9
$DIMTXT
 40
3.5
  9
$DIMCEN
 40
4.0
  9
$DIMTSZ
 40
0.0
  9
$DIMTOL
 70
     0
  9
$DIMLIM
 70
     0
  9
$DIMTIH
 70
     1
  9
$DIMTOH
 70
     1
  9
$DIMSE1
 70
     0
  9
$DIMSE2
 70
     0
  9
$DIMTAD
 70
     0
  9
$DIMZIN
 70
     0
  9
$DIMBLK
  1

  9
$DIMASO
 70
     1
  9
$DIMSHO
 70
     1
  9
$DIMPOST
  1

  9
$DIMAPOST
  1

  9
$DIMALT
 70
     0
  9
$DIMALTD
 70
     2
  9
$DIMALTF
 40
25.4
  9
$DIMLFAC
 40
1.0
  9
$DIMTOFL
 70
     0
  9
$DIMTVP
 40
0.0
  9
$DIMTIX
 70
     0
  9
$DIMSOXD
 70
     0
  9
$DIMSAH
 70
     0
  9
$DIMBLK1
  1

  9
$DIMBLK2
  1

  9
$DIMSTYLE
  2
Standard
  9
$DIMCLRD
 70
     0
  9
$DIMCLRE
 70
     0
  9
$DIMCLRT
 70
     0
  9
$DIMTFAC
 40
1.0
  9
$DIMGAP
 40
1.0
  9
$DIMJUST
 70
     0
  9
$DIMSD1
 70
     0
  9
$DIMSD2
 70
     0
  9
$DIMTOLJ
 70
     1
  9
$DIMTZIN
 70
     0
  9
$DIMALTZ
 70
     0
  9
$DIMALTTZ
 70
     0
  9
$DIMUPT
 70
     0
  9
$DIMDEC
 70
     4
  9
$DIMTDEC
 70
     4
  9
$DIMALTU
 70
     2
  9
$DIMALTTD
 70
     2
  9
$DIMTXSTY
  7
Standard
  9
$DIMAUNIT
 70
     0
  9
$DIMADEC
 70
     0
  9
$DIMALTRND
 40
0.0
  9
$DIMAZIN
 70
     0
  9
$DIMDSEP
 70
     0
  9
$DIMATFIT
 70
     3
  9
$DIMFRAC
 70
     0
  9
$DIMLDRBLK
  1

  9
$DIMLUNIT
 70
     2
  9
$DIMLWD
 70
     0
  9
$DIMLWE
 70
     0
  9
$DIMTMOVE
 70
     0
  9
$LUNITS
 70
     2
  9
$LUPREC
 70
     4
  9
$SKETCHINC
 40
0.1
  9
$FILLETRAD
 40
0.0
  9
$AUNITS
 70
     0
  9
$AUPREC
 70
     0
  9
$MENU
  1
acad
  9
$ELEVATION
 40
0.0
  9
$PELEVATION
 40
0.0
  9
$THICKNESS
 40
0.0
  9
$LIMCHECK
 70
     0
  9
$CHAMFERA
 40
0.0
  9
$CHAMFERB
 40
0.0
  9
$CHAMFERC
 40
0.0
  9
$CHAMFERD
 40
0.0
  9
$SKPOLY
 70
     0
  9
$TDCREATE
 40
0.000000000
  9
$TDUCREATE
 40
0.000000000
  9
$TDUPDATE
 40
0.000000000
  9
$TDUUPDATE
 40
0.000000000
  9
$TDINDWG
 40
0.0000000000
  9
$TDUSRTIMER
 40
0.0000000000
  9
$USRTIMER
 70
     1
  9
$ANGBASE
 50
0.0
  9
$ANGDIR
 70
     0
  9
$PDMODE
 70
     0
  9
$PDSIZE
 40
0.0
  9
$PLINEWID
 40
0.0
  9
$SPLFRAME
 70
     0
  9
$SPLINETYPE
 70
     6
  9
$SPLINESEGS
 70
     8
  9
$HANDSEED
  5
51F
  9
$SURFTAB1
 70
     6
  9
$SURFTAB2
 70
     6
  9
$SURFTYPE
 70
     6
  9
$SURFU
 70
     6
  9
$SURFV
 70
     6
  9
$UCSBASE
  2

  9
$UCSNAME
  2

  9
$UCSORG
 10
0.0
 20
0.0
 30
0.0
  9
$UCSXDIR
 10
1.0
 20
0.0
 30
0.0
  9
$UCSYDIR
 10
0.0
 20
1.0
 30
0.0
  9
$UCSORTHOREF
  2

  9
$UCSORTHOVIEW
 70
     0
  9
$UCSORGTOP
 10
0.0
 20
0.0
 30
0.0
  9
$UCSORGBOTTOM
 10
0.0
 20
0.0
 30
0.0
  9
$UCSORGLEFT
 10
0.0
 20
0.0
 30
0.0
  9
$UCSORGRIGHT
 10
0.0
 20
0.0
 30
0.0
  9
$UCSORGFRONT
 10
0.0
 20
0.0
 30
0.0
  9
$UCSORGBACK
 10
0.0
 20
0.0
 30
0.0
  9
$PUCSBASE
  2

  9
$PUCSNAME
  2

  9
$PUCSORG
 10
0.0
 20
0.0
 30
0.0
  9
$PUCSXDIR
 10
1.0
 20
0.0
 30
0.0
  9
$PUCSYDIR
 10
0.0
 20
1.0
 30
0.0
  9
$PUCSORTHOREF
  2

  9
$PUCSORTHOVIEW
 70
     0
  9
$PUCSORGTOP
 10
0.0
 20
0.0
 30
0.0
  9
$PUCSORGBOTTOM
 10
0.0
 20
0.0
 30
0.0
  9
$PUCSORGLEFT
 10
0.0
 20
0.0
 30
0.0
  9
$PUCSORGRIGHT
 10
0.0
 20
0.0
 30
0.0
  9
$PUCSORGFRONT
 10
0.0
 20
0.0
 30
0.0
  9
$PUCSORGBACK
 10
0.0
 20
0.0
 30
0.0
  9
$USERI1
 70
     0
  9
$USERI2
 70
     0
  9
$USERI3
 70
     0
  9
$USERI4
 70
     0
  9
$USERI5
 70
     0
  9
$USERR1
 40
0.0
  9
$USERR2
 40
0.0
  9
$USERR3
 40
0.0
  9
$USERR4
 40
0.0
  9
$USERR5
 40
0.0
  9
$WORLDVIEW
 70
     1
  9
$SHADEDGE
 70
     3
  9
$SHADEDIF
 70
    70
  9
$TILEMODE
 70
     1
  9
$MAXACTVP
 70
    16
  9
$PINSBASE
 10
0.0
 20
0.0
 30
0.0
  9
$PLIMCHECK
 70
     0
  9
$PEXTMIN
 10
1.000000E+20
 20
1.000000E+20
 30
1.000000E+20
  9
$PEXTMAX
 10
-1.000000E+20
 20
-1.000000E+20
 30
-1.000000E+20
  9
$PLIMMIN
 10
0.0
 20
0.0
  9
$PLIMMAX
 10
420.0
 20
297.0
  9
$UNITMODE
 70
     0
  9
$VISRETAIN
 70
     0
  9
$PLINEGEN
 70
     1
  9
$PSLTSCALE
 70
     0
  9
$TREEDEPTH
 70
  3020
  9
$CMLSTYLE
  2
Standard
  9
$CMLJUST
 70
     0
  9
$CMLSCALE
 40
1.0
  9
$PROXYGRAPHICS
 70
     0
  9
$MEASUREMENT
 70
     0
  9
$CELWEIGHT
370
     0
  9
$ENDCAPS
280
     0
  9
$JOINSTYLE
280
     0
  9
$LWDISPLAY
290
     0
  9
$INSUNITS
 70
     0
  9
$HYPERLINKBASE
  1

  9
$XEDIT
290
     1
  9
$CEPSNTYPE
380
     0
  9
$PSTYLEMODE
290
     0
  9
$FINGERPRINTGUID
  2

  9
$VERSIONGUID
  2

  9
$EXTNAMES
290
     1
  9
$PSVPSCALE
 40
0.0
  0
ENDSEC
  0
SECTION
  2
CLASSES
  0
CLASS
  1
LWPOLYLINE
  2
AcDbPolyline
  3
"AutoCAD"
 90
        0
280
     0
281
     1
  0
CLASS
  1
IMAGE
  2
AcDbRasterImage
  3
ISM
 90
      127
280
     0
281
     1
  0
CLASS
  1
OLE2FRAME
  2
AcDbOle2Frame
  3
""
 90
        0
280
     0
281
     1
  0
CLASS
  1
HATCH
  2
AcDbHatch
  3
"ACAD_SEDONA"
 90
        0
280
     0
281
     1
  0
CLASS
  1
DICTIONARYVAR
  2
AcDbDictionaryVar
  3
"AutoCAD"
 90
        0
280
     0
281
     0
  0
CLASS
  1
RASTERVARIABLES
  2
AcDbRasterVariables
  3
ISM
 90
        0
280
     0
281
     0
  0
CLASS
  1
IMAGEDEF
  2
AcDbRasterImageDef
  3
ISM
 90
        0
280
     0
281
     0
  0
CLASS
  1
IMAGEDEF_REACTOR
  2
AcDbRasterImageDefReactor
  3
ISM
 90
        1
280
     0
281
     0
  0
CLASS
  1
IDBUFFER
  2
AcDbIdBuffer
  3
"Acad"
 90
        0
280
     0
281
     0
  0
CLASS
  1
SPATIAL_FILTER
  2
AcDbSpatialFilter
  3
"Acad"
 90
        0
280
     0
281
     0
  0
CLASS
  1
XRECORD
  2
AcDbXrecord
  3
"<Built In>"
 90
        0
280
     0
281
     0
  0
CLASS
  1
SORTENTSTABLE
  2
AcDbSortentsTable
  3
"AutoCAD"
 90
        0
280
     0
281
     0
  0
CLASS
  1
LAYER_INDEX
  2
AcDbLayerIndex
  3
"Acad"
 90
        0
280
     0
281
     0
  0
CLASS
  1
SPATIAL_INDEX
  2
AcDbSpatialIndex
  3
"Acad"
 90
        0
280
     0
281
     0
  0
CLASS
  1
OBJECT_PTR
  2
CAseDLPNTableRecord
  3
"ASE-LPNTableRecord"
 90
        1
280
     0
281
     0
  0
CLASS
  1
LAYOUT
  2
AcDbLayout
  3
"AutoCAD 2000"
 90
        1
280
     0
281
     0
  0
CLASS
  1
PLOTSETTINGS
  2
AcDbPlotSettings
  3
"AutoCAD 2000"
 90
        1
280
     0
281
     0
  0
CLASS
  1
ACDBDICTIONARYWDFLT
  2
AcDbDictionaryWithDefault
  3
"AutoCAD 2000"
 90
        1
280
     0
281
     0
  0
CLASS
  1
ACDBPLACEHOLDER
  2
AcDbPlaceHolder
  3
"AutoCAD 2000"
 90
        1
280
     0
281
     0
  0
CLASS
  1
VBA_PROJECT
  2
AcDbVbaProject
  3
"acadvba"
 90
        1
280
     0
281
     0
  0
CLASS
  1
WIPEOUT
  2
AcDbWipeout
  3
WipeOut|AutoCAD Express Tool|expresstools@autodesk.com
 90
      127
280
     0
281
     1
  0
CLASS
  1
WIPEOUTVARIABLES
  2
AcDbWipeoutVariables
  3
WipeOut|AutoCAD Express Tool|expresstools@autodesk.com
 90
        0
280
     0
281
     0
  0
CLASS
  1
RTEXT
  2
RText
  3
RText|AutoCAD Express Tool|expresstools@autodesk.com
 90
        0
280
     0
281
     1
  0
CLASS
  1
ARCALIGNEDTEXT
  2
AcDbArcAlignedText
  3
ATEXT|AutoCAD Express Tool|expresstools@autodesk.com
 90
        0
280
     0
281
     1
  0
ENDSEC
  0
SECTION
  2
TABLES
  0
TABLE
  2
VPORT
  5
7
100
AcDbSymbolTable
 70
     1
  0
VPORT
  5
15
100
AcDbSymbolTableRecord
100
AcDbViewportTableRecord
  2
*ACTIVE
 70
     0
 10
0.0
 20
0.0
 11
1.0
 21
1.0
 12
6.591288
 22
4.579184
 13
0.0
 23
0.0
 14
1.0
 24
1.0
 15
0.0
 25
0.0
 16
0.0
 26
0.0
 36
1.0
 17
0.0
 27
0.0
 37
0.0
 40
9.158369
 41
0.688564
 42
50.0
 43
0.0
 44
0.0
 50
0.0
 51
0.0
 71
     0
 72
   100
 73
     1
 74
     1
 75
     0
 76
     0
 77
     0
 78
     0
281
     0
 65
     0
110
0.0
120
0.0
130
0.0
111
1.0
121
0.0
131
0.0
112
0.0
122
1.0
132
0.0
345
0
346
0
 79
     0
146
0.0
  0
ENDTAB
  0
TABLE
  2
LTYPE
  5
4
100
AcDbSymbolTable
 70
     7
  0
LTYPE
  5
11
100
AcDbSymbolTableRecord
100
AcDbLinetypeTableRecord
  2
ByBlock
 70
    64
  3

 72
    65
 73
     0
 40
0.0
  0
LTYPE
  5
12
100
AcDbSymbolTableRecord
100
AcDbLinetypeTableRecord
  2
ByLayer
 70
    64
  3

 72
    65
 73
     0
 40
0.0
  0
LTYPE
  5
13
100
AcDbSymbolTableRecord
100
AcDbLinetypeTableRecord
  2
Continuous
 70
    64
  3
Solid line
 72
    65
 73
     0
 40
0.0
  0
LTYPE
  5
24
100
AcDbSymbolTableRecord
100
AcDbLinetypeTableRecord
  2
HIDDEN
 70
    64
  3
_ _ _ _ _ _ _ _ _ _ _ _ _ _ _ _ _ _ _ _ _ _ _ _
 72
    65
 73
     2
 40
0.1875
 49
0.125
 74
     0
 49
-0.0625
 74
     0
  0
LTYPE
  5
25
100
AcDbSymbolTableRecord
100
AcDbLinetypeTableRecord
  2
DOTTED
 70
    64
  3
...............................................
 72
    65
 73
     2
 40
0.125
 49
0.0
 74
     0
 49
-0.125
 74
     0
  0
LTYPE
  5
26
100
AcDbSymbolTableRecord
100
AcDbLinetypeTableRecord
  2
CENTER
 70
    64
  3
____ _ ____ _ ____ _ ____ _ ____ _ ____ _ ____ 
 72
    65
 73
     4
 40
1.125
 49
0.75
 74
     0
 49
-0.125
 74
     0
 49
0.125
 74
     0
 49
-0.125
 74
     0
  0
LTYPE
  5
27
100
AcDbSymbolTableRecord
100
AcDbLinetypeTableRecord
  2
PHANTOM
 70
    64
  3
______  __  __  ______  __  __  ______  __  __ 
 72
    65
 73
     6
 40
1.25
 49
0.625
 74
     0
 49
-0.125
 74
     0
 49
0.125
 74
     0
 49
-0.125
 74
     0
 49
0.125
 74
     0
 49
-0.125
 74
     0
  0
ENDTAB
  0
TABLE
  2
LAYER
  5
2
100
AcDbSymbolTable
 70
     2
  0
LAYER
  5
14
100
AcDbSymbolTableRecord
100
AcDbLayerTableRecord
  2
0
 70
     0
 62
     7
  6
Continuous
290
     1
370
    -3
390
1D
  0
LAYER
  5
28
100
AcDbSymbolTableRecord
100
AcDbLayerTableRecord
  2
TEXT
 70
     0
 62
     8
  6
Continuous
290
     1
370
    -3
390
1F
  0
ENDTAB
  0
TABLE
  2
STYLE
  5
3
100
AcDbSymbolTable
 70
     1
  0
STYLE
  5
17
100
AcDbSymbolTableRecord
100
AcDbTextStyleTableRecord
  2
Standard
 70
     0
 40
0.0
 41
1.0
 50
0.0
 71
     0
 42
0.0
  3
txt
  4

  0
ENDTAB
  0
TABLE
  2
VIEW
  5
5
100
AcDbSymbolTable
 70
     0
  0
ENDTAB
  0
TABLE
  2
UCS
  5
6
100
AcDbSymbolTable
 70
     0
  0
ENDTAB
  0
TABLE
  2
APPID
  5
8
100
AcDbSymbolTable
 70
     1
  0
APPID
  5
16
100
AcDbSymbolTableRecord
100
AcDbRegAppTableRecord
  2
ACAD
 70
     0
  0
ENDTAB
  0
TABLE
  2
DIMSTYLE
  5
9
100
AcDbSymbolTable
 70
     1
100
AcDbDimStyleTable
 71
     0
  0
DIMSTYLE
105
18
100
AcDbSymbolTableRecord
100
AcDbDimStyleTableRecord
  2
Standard
 70
     0
  3

  4

 40
1.0
 41
0.18
 42
0.0625
 43
0.38
 44
0.18
 45
0.0
 46
0.0
 47
0.0
 48
0.0
 71
     0
 72
     0
 73
     1
 74
     1
 75
     0
 76
     0
 77
     0
 78
     0
 79
     0
140
0.18
141
0.09
142
0.0
143
25.4
144
1.0
145
0.0
146
1.0
147
0.09
148
0.0
170
     0
171
     2
172
     0
173
     0
174
     0
175
     0
176
     0
177
     0
178
     0
179
     0
271
     4
272
     4
273
     2
274
     2
275
     0
276
     0
277
     2
278
    46
279
     0
280
     0
281
     0
282
     0
283
     1
284
     0
285
     0
286
     0
288
     0
340
17
341
0
342
0
343
0
344
0
371
    -2
372
    -2
  0
ENDTAB
  0
TABLE
  2
BLOCK_RECORD
  5
1
100
AcDbSymbolTable
 70
    97
  0
BLOCK_RECORD
  5
A
100
AcDbSymbolTableRecord
100
AcDbBlockTableRecord
  2
*MODEL_SPACE
340
20
  0
BLOCK_RECORD
  5
B
100
AcDbSymbolTableRecord
100
AcDbBlockTableRecord
  2
*PAPER_SPACE
340
21
  0
BLOCK_RECORD
  5
29
100
AcDbSymbolTableRecord
100
AcDbBlockTableRecord
  2
*B0
340
0
  0
BLOCK_RECORD
  5
2C
100
AcDbSymbolTableRecord
100
AcDbBlockTableRecord
  2
*B1
340
0
  0
BLOCK_RECORD
  5
1B0
100
AcDbSymbolTableRecord
100
AcDbBlockTableRecord
  2
*B2
340
0
  0
BLOCK_RECORD
  5
28C
100
AcDbSymbolTableRecord
100
AcDbBlockTableRecord
  2
*B3
340
0
  0
BLOCK_RECORD
  5
292
100
AcDbSymbolTableRecord
100
AcDbBlockTableRecord
  2
*B4
340
0
  0
BLOCK_RECORD
  5
29D
100
AcDbSymbolTableRecord
100
AcDbBlockTableRecord
  2
*B5
340
0
  0
BLOCK_RECORD
  5
2A0
100
AcDbSymbolTableRecord
100
AcDbBlockTableRecord
  2
*B6
340
0
  0
BLOCK_RECORD
  5
2A7
100
AcDbSymbolTableRecord
100
AcDbBlockTableRecord
  2
*B7
340
0
  0
BLOCK_RECORD
  5
2AE
100
AcDbSymbolTableRecord
100
AcDbBlockTableRecord
  2
*B8
340
0
  0
BLOCK_RECORD
  5
2B5
100
AcDbSymbolTableRecord
100
AcDbBlockTableRecord
  2
*B9
340
0
  0
BLOCK_RECORD
  5
2BC
100
AcDbSymbolTableRecord
100
AcDbBlockTableRecord
  2
*B10
340
0
  0
BLOCK_RECORD
  5
2C3
100
AcDbSymbolTableRecord
100
AcDbBlockTableRecord
  2
*B11
340
0
  0
BLOCK_RECORD
  5
2CA
100
AcDbSymbolTableRecord
100
AcDbBlockTableRecord
  2
*B12
340
0
  0
BLOCK_RECORD
  5
2D1
100
AcDbSymbolTableRecord
100
AcDbBlockTableRecord
  2
*B13
340
0
  0
BLOCK_RECORD
  5
2D8
100
AcDbSymbolTableRecord
100
AcDbBlockTableRecord
  2
*B14
340
0
  0
BLOCK_RECORD
  5
2DF
100
AcDbSymbolTableRecord
100
AcDbBlockTableRecord
  2
*B15
340
0
  0
BLOCK_RECORD
  5
2E6
100
AcDbSymbolTableRecord
100
AcDbBlockTableRecord
  2
*B16
340
0
  0
BLOCK_RECORD
  5
2ED
100
AcDbSymbolTableRecord
100
AcDbBlockTableRecord
  2
*B17
340
0
  0
BLOCK_RECORD
  5
2F4
100
AcDbSymbolTableRecord
100
AcDbBlockTableRecord
  2
*B18
340
0
  0
BLOCK_RECORD
  5
2FB
100
AcDbSymbolTableRecord
100
AcDbBlockTableRecord
  2
*B19
340
0
  0
BLOCK_RECORD
  5
302
100
AcDbSymbolTableRecord
100
AcDbBlockTableRecord
  2
*B20
340
0
  0
BLOCK_RECORD
  5
309
100
AcDbSymbolTableRecord
100
AcDbBlockTableRecord
  2
*B21
340
0
  0
BLOCK_RECORD
  5
310
100
AcDbSymbolTableRecord
100
AcDbBlockTableRecord
  2
*B22
340
0
  0
BLOCK_RECORD
  5
315
100
AcDbSymbolTableRecord
100
AcDbBlockTableRecord
  2
*B23
340
0
  0
BLOCK_RECORD
  5
329
100
AcDbSymbolTableRecord
100
AcDbBlockTableRecord
  2
*B24
340
0
  0
BLOCK_RECORD
  5
32E
100
AcDbSymbolTableRecord
100
AcDbBlockTableRecord
  2
*B25
340
0
  0
BLOCK_RECORD
  5
333
100
AcDbSymbolTableRecord
100
AcDbBlockTableRecord
  2
*B26
340
0
  0
BLOCK_RECORD
  5
339
100
AcDbSymbolTableRecord
100
AcDbBlockTableRecord
  2
*B27
340
0
  0
BLOCK_RECORD
  5
33E
100
AcDbSymbolTableRecord
100
AcDbBlockTableRecord
  2
*B28
340
0
  0
BLOCK_RECORD
  5
343
100
AcDbSymbolTableRecord
100
AcDbBlockTableRecord
  2
*B29
340
0
  0
BLOCK_RECORD
  5
34D
100
AcDbSymbolTableRecord
100
AcDbBlockTableRecord
  2
*B30
340
0
  0
BLOCK_RECORD
  5
352
100
AcDbSymbolTableRecord
100
AcDbBlockTableRecord
  2
*B31
340
0
  0
BLOCK_RECORD
  5
357
100
AcDbSymbolTableRecord
100
AcDbBlockTableRecord
  2
*B32
340
0
  0
BLOCK_RECORD
  5
362
100
AcDbSymbolTableRecord
100
AcDbBlockTableRecord
  2
*B33
340
0
  0
BLOCK_RECORD
  5
368
100
AcDbSymbolTableRecord
100
AcDbBlockTableRecord
  2
*B34
340
0
  0
BLOCK_RECORD
  5
36D
100
AcDbSymbolTableRecord
100
AcDbBlockTableRecord
  2
*B35
340
0
  0
BLOCK_RECORD
  5
381
100
AcDbSymbolTableRecord
100
AcDbBlockTableRecord
  2
*B36
340
0
  0
BLOCK_RECORD
  5
3A2
100
AcDbSymbolTableRecord
100
AcDbBlockTableRecord
  2
*B37
340
0
  0
BLOCK_RECORD
  5
3B1
100
AcDbSymbolTableRecord
100
AcDbBlockTableRecord
  2
*B38
340
0
  0
BLOCK_RECORD
  5
3B7
100
AcDbSymbolTableRecord
100
AcDbBlockTableRecord
  2
*B39
340
0
  0
BLOCK_RECORD
  5
3BC
100
AcDbSymbolTableRecord
100
AcDbBlockTableRecord
  2
*B40
340
0
  0
BLOCK_RECORD
  5
3C1
100
AcDbSymbolTableRecord
100
AcDbBlockTableRecord
  2
*B41
340
0
  0
BLOCK_RECORD
  5
3C6
100
AcDbSymbolTableRecord
100
AcDbBlockTableRecord
  2
*B42
340
0
  0
BLOCK_RECORD
  5
3CB
100
AcDbSymbolTableRecord
100
AcDbBlockTableRecord
  2
*B43
340
0
  0
BLOCK_RECORD
  5
3D0
100
AcDbSymbolTableRecord
100
AcDbBlockTableRecord
  2
*B44
340
0
  0
BLOCK_RECORD
  5
3D6
100
AcDbSymbolTableRecord
100
AcDbBlockTableRecord
  2
*B45
340
0
  0
BLOCK_RECORD
  5
3DB
100
AcDbSymbolTableRecord
100
AcDbBlockTableRecord
  2
*B46
340
0
  0
BLOCK_RECORD
  5
3E4
100
AcDbSymbolTableRecord
100
AcDbBlockTableRecord
  2
*B47
340
0
  0
BLOCK_RECORD
  5
3EB
100
AcDbSymbolTableRecord
100
AcDbBlockTableRecord
  2
*B48
340
0
  0
BLOCK_RECORD
  5
3F1
100
AcDbSymbolTableRecord
100
AcDbBlockTableRecord
  2
*B49
340
0
  0
BLOCK_RECORD
  5
418
100
AcDbSymbolTableRecord
100
AcDbBlockTableRecord
  2
*B50
340
0
  0
BLOCK_RECORD
  5
41E
100
AcDbSymbolTableRecord
100
AcDbBlockTableRecord
  2
*B51
340
0
  0
BLOCK_RECORD
  5
424
100
AcDbSymbolTableRecord
100
AcDbBlockTableRecord
  2
*B52
340
0
  0
BLOCK_RECORD
  5
42A
100
AcDbSymbolTableRecord
100
AcDbBlockTableRecord
  2
*B53
340
0
  0
BLOCK_RECORD
  5
430
100
AcDbSymbolTableRecord
100
AcDbBlockTableRecord
  2
*B54
340
0
  0
BLOCK_RECORD
  5
43F
100
AcDbSymbolTableRecord
100
AcDbBlockTableRecord
  2
*B55
340
0
  0
BLOCK_RECORD
  5
445
100
AcDbSymbolTableRecord
100
AcDbBlockTableRecord
  2
*B56
340
0
  0
BLOCK_RECORD
  5
44C
100
AcDbSymbolTableRecord
100
AcDbBlockTableRecord
  2
*B57
340
0
  0
BLOCK_RECORD
  5
452
100
AcDbSymbolTableRecord
100
AcDbBlockTableRecord
  2
*B58
340
0
  0
BLOCK_RECORD
  5
457
100
AcDbSymbolTableRecord
100
AcDbBlockTableRecord
  2
*B59
340
0
  0
BLOCK_RECORD
  5
45C
100
AcDbSymbolTableRecord
100
AcDbBlockTableRecord
  2
*B60
340
0
  0
BLOCK_RECORD
  5
462
100
AcDbSymbolTableRecord
100
AcDbBlockTableRecord
  2
*B61
340
0
  0
BLOCK_RECORD
  5
468
100
AcDbSymbolTableRecord
100
AcDbBlockTableRecord
  2
*B62
340
0
  0
BLOCK_RECORD
  5
46E
100
AcDbSymbolTableRecord
100
AcDbBlockTableRecord
  2
*B63
340
0
  0
BLOCK_RECORD
  5
474
100
AcDbSymbolTableRecord
100
AcDbBlockTableRecord
  2
*B64
340
0
  0
BLOCK_RECORD
  5
47A
100
AcDbSymbolTableRecord
100
AcDbBlockTableRecord
  2
*B65
340
0
  0
BLOCK_RECORD
  5
480
100
AcDbSymbolTableRecord
100
AcDbBlockTableRecord
  2
*B66
340
0
  0
BLOCK_RECORD
  5
486
100
AcDbSymbolTableRecord
100
AcDbBlockTableRecord
  2
*B67
340
0
  0
BLOCK_RECORD
  5
48C
100
AcDbSymbolTableRecord
100
AcDbBlockTableRecord
  2
*B68
340
0
  0
BLOCK_RECORD
  5
492
100
AcDbSymbolTableRecord
100
AcDbBlockTableRecord
  2
*B69
340
0
  0
BLOCK_RECORD
  5
498
100
AcDbSymbolTableRecord
100
AcDbBlockTableRecord
  2
*B70
340
0
  0
BLOCK_RECORD
  5
49D
100
AcDbSymbolTableRecord
100
AcDbBlockTableRecord
  2
*B71
340
0
  0
BLOCK_RECORD
  5
4A2
100
AcDbSymbolTableRecord
100
AcDbBlockTableRecord
  2
*B72
340
0
  0
BLOCK_RECORD
  5
4A7
100
AcDbSymbolTableRecord
100
AcDbBlockTableRecord
  2
*B73
340
0
  0
BLOCK_RECORD
  5
4AC
100
AcDbSymbolTableRecord
100
AcDbBlockTableRecord
  2
*B74
340
0
  0
BLOCK_RECORD
  5
4B1
100
AcDbSymbolTableRecord
100
AcDbBlockTableRecord
  2
*B75
340
0
  0
BLOCK_RECORD
  5
4B6
100
AcDbSymbolTableRecord
100
AcDbBlockTableRecord
  2
*B76
340
0
  0
BLOCK_RECORD
  5
4BB
100
AcDbSymbolTableRecord
100
AcDbBlockTableRecord
  2
*B77
340
0
  0
BLOCK_RECORD
  5
4C0
100
AcDbSymbolTableRecord
100
AcDbBlockTableRecord
  2
*B78
340
0
  0
BLOCK_RECORD
  5
4C5
100
AcDbSymbolTableRecord
100
AcDbBlockTableRecord
  2
*B79
340
0
  0
BLOCK_RECORD
  5
4CA
100
AcDbSymbolTableRecord
100
AcDbBlockTableRecord
  2
*B80
340
0
  0
BLOCK_RECORD
  5
4CF
100
AcDbSymbolTableRecord
100
AcDbBlockTableRecord
  2
*B81
340
0
  0
BLOCK_RECORD
  5
4D4
100
AcDbSymbolTableRecord
100
AcDbBlockTableRecord
  2
*B82
340
0
  0
BLOCK_RECORD
  5
4D9
100
AcDbSymbolTableRecord
100
AcDbBlockTableRecord
  2
*B83
340
0
  0
BLOCK_RECORD
  5
4DE
100
AcDbSymbolTableRecord
100
AcDbBlockTableRecord
  2
*B84
340
0
  0
BLOCK_RECORD
  5
4E3
100
AcDbSymbolTableRecord
100
AcDbBlockTableRecord
  2
*B85
340
0
  0
BLOCK_RECORD
  5
4E8
100
AcDbSymbolTableRecord
100
AcDbBlockTableRecord
  2
*B86
340
0
  0
BLOCK_RECORD
  5
4ED
100
AcDbSymbolTableRecord
100
AcDbBlockTableRecord
  2
*B87
340
0
  0
BLOCK_RECORD
  5
4F2
100
AcDbSymbolTableRecord
100
AcDbBlockTableRecord
  2
*B88
340
0
  0
BLOCK_RECORD
  5
4F7
100
AcDbSymbolTableRecord
100
AcDbBlockTableRecord
  2
*B89
340
0
  0
BLOCK_RECORD
  5
4FC
100
AcDbSymbolTableRecord
100
AcDbBlockTableRecord
  2
*B90
340
0
  0
BLOCK_RECORD
  5
501
100
AcDbSymbolTableRecord
100
AcDbBlockTableRecord
  2
*B91
340
0
  0
BLOCK_RECORD
  5
506
100
AcDbSymbolTableRecord
100
AcDbBlockTableRecord
  2
*B92
340
0
  0
BLOCK_RECORD
  5
50B
100
AcDbSymbolTableRecord
100
AcDbBlockTableRecord
  2
*B93
340
0
  0
BLOCK_RECORD
  5
510
100
AcDbSymbolTableRecord
100
AcDbBlockTableRecord
  2
*B94
340
0
  0
BLOCK_RECORD
  5
515
100
AcDbSymbolTableRecord
100
AcDbBlockTableRecord
  2
*B95
340
0
  0
BLOCK_RECORD
  5
51A
100
AcDbSymbolTableRecord
100
AcDbBlockTableRecord
  2
*B96
340
0
  0
ENDTAB
  0
ENDSEC
  0
SECTION
  2
BLOCKS
  0
BLOCK
  5
D
100
AcDbEntity
  8
0
100
AcDbBlockBegin
  2
*MODEL_SPACE
 70
     0
 10
0.0
 20
0.0
 30
0.0
  3
*MODEL_SPACE
  1

  0
ENDBLK
  5
E
100
AcDbEntity
  8
0
100
AcDbBlockEnd
  0
BLOCK
  5
F
100
AcDbEntity
 67
     1
  8
0
100
AcDbBlockBegin
  2
*PAPER_SPACE
 70
     0
 10
0.0
 20
0.0
 30
0.0
  3
*PAPER_SPACE
  1

  0
ENDBLK
  5
10
100
AcDbEntity
 67
     1
  8
0
100
AcDbBlockEnd
  0
BLOCK
  5
2A
100
AcDbEntity
  8
0
100
AcDbBlockBegin
  2
*B0
 70
     0
 10
0.0
 20
0.0
 30
0.0
  3
*B0
  1

  0
ENDBLK
  5
2B
100
AcDbEntity
  8
0
100
AcDbBlockEnd
  0
BLOCK
  5
2D
100
AcDbEntity
  8
0
100
AcDbBlockBegin
  2
*B1
 70
     0
 10
0.0
 20
0.0
 30
0.0
  3
*B1
  1

  0
LINE
  5
2E
100
AcDbEntity
  8
0
  6
HIDDEN
 62
   174
100
AcDbLine
 10
310.079447
 20
241.962999
 30
0.0
 11
309.669783
 21
241.962999
 31
0.0
  0
LINE
  5
2F
100
AcDbEntity
  8
0
  6
HIDDEN
 62
   174
100
AcDbLine
 10
307.6926
 20
241.962999
 30
0.0
 11
305.875195
 21
241.962999
 31
0.0
  0
LINE
  5
30
100
AcDbEntity
  8
0
  6
HIDDEN
 62
   174
100
AcDbLine
 10
309.669783
 20
241.962999
 30
0.0
 11
307.6926
 21
241.962999
 31
0.0
  0
LINE
  5
31
100
AcDbEntity
  8
0
  6
HIDDEN
 62
   174
100
AcDbLine
 10
133.948868
 20
241.962999
 30
0.0
 11
133.510005
 21
241.962999
 31
0.0
  0
LINE
  5
32
100
AcDbEntity
  8
0
  6
HIDDEN
 62
   174
100
AcDbLine
 10
131.6926
 20
241.962999
 30
0.0
 11
129.715417
 21
241.962999
 31
0.0
  0
LINE
  5
33
100
AcDbEntity
  8
0
  6
HIDDEN
 62
   174
100
AcDbLine
 10
133.510005
 20
241.962999
 30
0.0
 11
131.6926
 21
241.962999
 31
0.0
  0
LINE
  5
34
100
AcDbEntity
  8
0
  6
Continuous
 62
   174
100
AcDbLine
 10
334.1926
 20
240.462999
 30
0.0
 11
337.1926
 21
240.462999
 31
0.0
  0
LINE
  5
35
100
AcDbEntity
  8
0
  6
Continuous
 62
   174
100
AcDbLine
 10
334.1926
 20
227.462999
 30
0.0
 11
337.1926
 21
227.462999
 31
0.0
  0
LINE
  5
36
100
AcDbEntity
  8
0
  6
Continuous
 62
   174
100
AcDbLine
 10
105.1926
 20
240.462999
 30
0.0
 11
102.1926
 21
240.462999
 31
0.0
  0
LINE
  5
37
100
AcDbEntity
  8
0
  6
Continuous
 62
   174
100
AcDbLine
 10
105.1926
 20
227.462999
 30
0.0
 11
102.1926
 21
227.462999
 31
0.0
  0
LINE
  5
38
100
AcDbEntity
  8
0
  6
HIDDEN
 62
   174
100
AcDbLine
 10
210.318232
 20
180.962999
 30
0.0
 11
229.118328
 21
180.962999
 31
0.0
  0
LINE
  5
39
100
AcDbEntity
  8
0
  6
Continuous
 62
   174
100
AcDbLine
 10
337.1926
 20
242.962999
 30
0.0
 11
337.8926
 21
242.962999
 31
0.0
  0
LINE
  5
3A
100
AcDbEntity
  8
0
  6
Continuous
 62
   174
100
AcDbLine
 10
337.1926
 20
224.962999
 30
0.0
 11
337.8926
 21
224.962999
 31
0.0
  0
LINE
  5
3B
100
AcDbEntity
  8
0
  6
Continuous
 62
   174
100
AcDbLine
 10
102.1926
 20
242.962999
 30
0.0
 11
101.4926
 21
242.962999
 31
0.0
  0
LINE
  5
3C
100
AcDbEntity
  8
0
  6
HIDDEN
 62
   174
100
AcDbLine
 10
209.238267
 20
179.962999
 30
0.0
 11
230.198293
 21
179.962999
 31
0.0
  0
LINE
  5
3D
100
AcDbEntity
  8
0
  6
HIDDEN
 62
   174
100
AcDbLine
 10
209.238267
 20
165.962999
 30
0.0
 11
230.198293
 21
165.962999
 31
0.0
  0
LINE
  5
3E
100
AcDbEntity
  8
0
  6
HIDDEN
 62
   174
100
AcDbLine
 10
210.2926
 20
165.962999
 30
0.0
 11
210.2926
 21
180.962999
 31
0.0
  0
LINE
  5
3F
100
AcDbEntity
  8
0
  6
HIDDEN
 62
   174
100
AcDbLine
 10
229.0926
 20
179.962999
 30
0.0
 11
229.0926
 21
165.962999
 31
0.0
  0
LINE
  5
40
100
AcDbEntity
  8
0
  6
HIDDEN
 62
   174
100
AcDbLine
 10
241.238265
 20
179.962999
 30
0.0
 11
262.198291
 21
179.962999
 31
0.0
  0
LINE
  5
41
100
AcDbEntity
  8
0
  6
HIDDEN
 62
   174
100
AcDbLine
 10
241.238265
 20
165.962999
 30
0.0
 11
262.198291
 21
165.962999
 31
0.0
  0
LINE
  5
42
100
AcDbEntity
  8
0
  6
HIDDEN
 62
   174
100
AcDbLine
 10
241.2126
 20
179.962999
 30
0.0
 11
241.2126
 21
165.962999
 31
0.0
  0
LINE
  5
43
100
AcDbEntity
  8
0
  6
HIDDEN
 62
   174
100
AcDbLine
 10
261.0926
 20
179.962999
 30
0.0
 11
261.0926
 21
165.962999
 31
0.0
  0
LINE
  5
44
100
AcDbEntity
  8
0
  6
HIDDEN
 62
   174
100
AcDbLine
 10
198.1726
 20
179.962999
 30
0.0
 11
198.1726
 21
165.962999
 31
0.0
  0
LINE
  5
45
100
AcDbEntity
  8
0
  6
HIDDEN
 62
   174
100
AcDbLine
 10
177.238269
 20
179.962999
 30
0.0
 11
198.198295
 21
179.962999
 31
0.0
  0
LINE
  5
46
100
AcDbEntity
  8
0
  6
HIDDEN
 62
   174
100
AcDbLine
 10
177.238269
 20
165.962999
 30
0.0
 11
198.198295
 21
165.962999
 31
0.0
  0
LINE
  5
47
100
AcDbEntity
  8
0
  6
HIDDEN
 62
   174
100
AcDbLine
 10
178.2926
 20
165.962999
 30
0.0
 11
178.2926
 21
180.962999
 31
0.0
  0
LINE
  5
48
100
AcDbEntity
  8
0
  6
HIDDEN
 62
   174
100
AcDbLine
 10
197.0926
 20
165.962999
 30
0.0
 11
197.0926
 21
180.962999
 31
0.0
  0
LINE
  5
49
100
AcDbEntity
  8
0
  6
HIDDEN
 62
   174
100
AcDbLine
 10
229.118328
 20
165.962999
 30
0.0
 11
210.318232
 21
165.962999
 31
0.0
  0
LINE
  5
4A
100
AcDbEntity
  8
0
  6
Continuous
 62
   174
100
AcDbLine
 10
334.1926
 20
225.962999
 30
0.0
 11
322.1926
 21
225.962999
 31
0.0
  0
LINE
  5
4B
100
AcDbEntity
  8
0
  6
Continuous
 62
   174
100
AcDbLine
 10
322.1926
 20
231.179117
 30
0.0
 11
322.1926
 21
212.962999
 31
0.0
  0
LINE
  5
4C
100
AcDbEntity
  8
0
  6
HIDDEN
 62
   174
100
AcDbLine
 10
117.1926
 20
231.179117
 30
0.0
 11
117.1926
 21
225.962999
 31
0.0
  0
LINE
  5
4D
100
AcDbEntity
  8
0
  6
HIDDEN
 62
   174
100
AcDbLine
 10
296.1926
 20
241.962999
 30
0.0
 11
304.2926
 21
241.962999
 31
0.0
  0
LINE
  5
4E
100
AcDbEntity
  8
0
  6
Continuous
 62
   174
100
AcDbLine
 10
162.6926
 20
165.962999
 30
0.0
 11
146.6926
 21
165.962999
 31
0.0
  0
LINE
  5
4F
100
AcDbEntity
  8
0
  6
HIDDEN
 62
   174
100
AcDbLine
 10
322.6926
 20
196.000214
 30
0.0
 11
322.6926
 21
186.000853
 31
0.0
  0
LINE
  5
50
100
AcDbEntity
  8
0
  6
HIDDEN
 62
   174
100
AcDbLine
 10
116.6926
 20
196.000214
 30
0.0
 11
116.6926
 21
205.999575
 31
0.0
  0
LINE
  5
51
100
AcDbEntity
  8
0
  6
HIDDEN
 62
   174
100
AcDbLine
 10
105.1926
 20
240.49686
 30
0.0
 11
105.1926
 21
233.997545
 31
0.0
  0
LINE
  5
52
100
AcDbEntity
  8
0
  6
Continuous
 62
   174
100
AcDbLine
 10
334.1926
 20
233.997545
 30
0.0
 11
334.1926
 21
240.603805
 31
0.0
  0
LINE
  5
53
100
AcDbEntity
  8
0
  6
HIDDEN
 62
   174
100
AcDbLine
 10
209.2126
 20
179.962999
 30
0.0
 11
209.2126
 21
165.962999
 31
0.0
  0
LINE
  5
54
100
AcDbEntity
  8
0
  6
HIDDEN
 62
   174
100
AcDbLine
 10
241.2126
 20
179.962999
 30
0.0
 11
241.2126
 21
165.962999
 31
0.0
  0
LINE
  5
55
100
AcDbEntity
  8
0
  6
HIDDEN
 62
   174
100
AcDbLine
 10
242.2926
 20
165.962999
 30
0.0
 11
242.2926
 21
180.962999
 31
0.0
  0
LINE
  5
56
100
AcDbEntity
  8
0
  6
HIDDEN
 62
   174
100
AcDbLine
 10
198.1726
 20
179.962999
 30
0.0
 11
198.1726
 21
165.962999
 31
0.0
  0
LINE
  5
57
100
AcDbEntity
  8
0
  6
HIDDEN
 62
   174
100
AcDbLine
 10
178.2926
 20
165.962999
 30
0.0
 11
178.2926
 21
180.962999
 31
0.0
  0
LINE
  5
58
100
AcDbEntity
  8
0
  6
HIDDEN
 62
   174
100
AcDbLine
 10
197.0926
 20
179.962999
 30
0.0
 11
197.0926
 21
165.962999
 31
0.0
  0
LINE
  5
59
100
AcDbEntity
  8
0
  6
Continuous
 62
   174
100
AcDbLine
 10
105.1926
 20
241.962999
 30
0.0
 11
120.1926
 21
241.962999
 31
0.0
  0
LINE
  5
5A
100
AcDbEntity
  8
0
  6
Continuous
 62
   174
100
AcDbLine
 10
162.6926
 20
165.962999
 30
0.0
 11
162.6926
 21
225.962999
 31
0.0
  0
LINE
  5
5B
100
AcDbEntity
  8
0
  6
Continuous
 62
   174
100
AcDbLine
 10
162.6926
 20
225.962999
 30
0.0
 11
162.6926
 21
165.962999
 31
0.0
  0
LINE
  5
5C
100
AcDbEntity
  8
0
  6
HIDDEN
 62
   174
100
AcDbLine
 10
293.1926
 20
238.962999
 30
0.0
 11
293.1926
 21
212.962999
 31
0.0
  0
LINE
  5
5D
100
AcDbEntity
  8
0
  6
HIDDEN
 62
   174
100
AcDbLine
 10
209.2126
 20
179.962999
 30
0.0
 11
209.2126
 21
165.962999
 31
0.0
  0
LINE
  5
5E
100
AcDbEntity
  8
0
  6
HIDDEN
 62
   174
100
AcDbLine
 10
261.0926
 20
179.962999
 30
0.0
 11
261.0926
 21
165.962999
 31
0.0
  0
LINE
  5
5F
100
AcDbEntity
  8
0
  6
Continuous
 62
   174
100
AcDbLine
 10
341.6926
 20
241.762999
 30
0.0
 11
341.025323
 21
242.918756
 31
0.0
  0
LINE
  5
60
100
AcDbEntity
  8
0
  6
HIDDEN
 62
   174
100
AcDbLine
 10
178.2926
 20
179.962999
 30
0.0
 11
178.2926
 21
165.962999
 31
0.0
  0
LINE
  5
61
100
AcDbEntity
  8
0
  6
HIDDEN
 62
   174
100
AcDbLine
 10
197.0926
 20
165.962999
 30
0.0
 11
197.0926
 21
180.962999
 31
0.0
  0
LINE
  5
62
100
AcDbEntity
  8
0
  6
HIDDEN
 62
   174
100
AcDbLine
 10
197.11833
 20
165.962999
 30
0.0
 11
178.318233
 21
165.962999
 31
0.0
  0
LINE
  5
63
100
AcDbEntity
  8
0
  6
Continuous
 62
   174
100
AcDbLine
 10
334.1926
 20
241.962999
 30
0.0
 11
319.1926
 21
241.962999
 31
0.0
  0
LINE
  5
64
100
AcDbEntity
  8
0
  6
HIDDEN
 62
   174
100
AcDbLine
 10
117.1926
 20
225.962999
 30
0.0
 11
117.1926
 21
212.962999
 31
0.0
  0
LINE
  5
65
100
AcDbEntity
  8
0
  6
HIDDEN
 62
   174
100
AcDbLine
 10
309.669783
 20
241.962999
 30
0.0
 11
310.079447
 21
241.962999
 31
0.0
  0
LINE
  5
66
100
AcDbEntity
  8
0
  6
Continuous
 62
   174
100
AcDbLine
 10
146.1926
 20
238.962999
 30
0.0
 11
146.1926
 21
212.962999
 31
0.0
  0
LINE
  5
67
100
AcDbEntity
  8
0
  6
Continuous
 62
   174
100
AcDbLine
 10
292.6926
 20
225.962999
 30
0.0
 11
292.6926
 21
165.962999
 31
0.0
  0
LINE
  5
68
100
AcDbEntity
  8
0
  6
Continuous
 62
   174
100
AcDbLine
 10
276.6926
 20
165.962999
 30
0.0
 11
292.6926
 21
165.962999
 31
0.0
  0
LINE
  5
69
100
AcDbEntity
  8
0
  6
HIDDEN
 62
   174
100
AcDbLine
 10
102.1926
 20
240.49686
 30
0.0
 11
102.1926
 21
233.997545
 31
0.0
  0
LINE
  5
6A
100
AcDbEntity
  8
0
  6
Continuous
 62
   174
100
AcDbLine
 10
341.6926
 20
226.162999
 30
0.0
 11
341.025346
 21
225.007281
 31
0.0
  0
LINE
  5
6B
100
AcDbEntity
  8
0
  6
HIDDEN
 62
   174
100
AcDbLine
 10
242.31823
 20
180.962999
 30
0.0
 11
261.118326
 21
180.962999
 31
0.0
  0
LINE
  5
6C
100
AcDbEntity
  8
0
  6
HIDDEN
 62
   174
100
AcDbLine
 10
210.2926
 20
165.962999
 30
0.0
 11
210.2926
 21
180.962999
 31
0.0
  0
LINE
  5
6D
100
AcDbEntity
  8
0
  6
HIDDEN
 62
   174
100
AcDbLine
 10
242.2926
 20
179.962999
 30
0.0
 11
242.2926
 21
165.962999
 31
0.0
  0
LINE
  5
6E
100
AcDbEntity
  8
0
  6
HIDDEN
 62
   174
100
AcDbLine
 10
177.2126
 20
179.962999
 30
0.0
 11
177.2126
 21
165.962999
 31
0.0
  0
LINE
  5
6F
100
AcDbEntity
  8
0
  6
Continuous
 62
   174
100
AcDbLine
 10
105.1926
 20
225.962999
 30
0.0
 11
117.1926
 21
225.962999
 31
0.0
  0
LINE
  5
70
100
AcDbEntity
  8
0
  6
Continuous
 62
   174
100
AcDbLine
 10
276.6926
 20
225.962999
 30
0.0
 11
162.6926
 21
225.962999
 31
0.0
  0
LINE
  5
71
100
AcDbEntity
  8
0
  6
HIDDEN
 62
   174
100
AcDbLine
 10
229.0926
 20
165.962999
 30
0.0
 11
229.0926
 21
180.962999
 31
0.0
  0
LINE
  5
72
100
AcDbEntity
  8
0
  6
HIDDEN
 62
   174
100
AcDbLine
 10
262.1726
 20
179.962999
 30
0.0
 11
262.1726
 21
165.962999
 31
0.0
  0
LINE
  5
73
100
AcDbEntity
  8
0
  6
HIDDEN
 62
   174
100
AcDbLine
 10
242.2926
 20
165.962999
 30
0.0
 11
242.2926
 21
180.962999
 31
0.0
  0
LINE
  5
74
100
AcDbEntity
  8
0
  6
HIDDEN
 62
   174
100
AcDbLine
 10
242.2926
 20
179.962999
 30
0.0
 11
242.2926
 21
165.962999
 31
0.0
  0
LINE
  5
75
100
AcDbEntity
  8
0
  6
HIDDEN
 62
   174
100
AcDbLine
 10
310.079447
 20
241.962999
 30
0.0
 11
310.6926
 21
241.962999
 31
0.0
  0
LINE
  5
76
100
AcDbEntity
  8
0
  6
Continuous
 62
   174
100
AcDbLine
 10
162.6926
 20
165.962999
 30
0.0
 11
276.6926
 21
165.962999
 31
0.0
  0
LINE
  5
77
100
AcDbEntity
  8
0
  6
Continuous
 62
   174
100
AcDbLine
 10
162.6926
 20
225.962999
 30
0.0
 11
146.6926
 21
225.962999
 31
0.0
  0
LINE
  5
78
100
AcDbEntity
  8
0
  6
Continuous
 62
   174
100
AcDbLine
 10
276.6926
 20
225.962999
 30
0.0
 11
292.6926
 21
225.962999
 31
0.0
  0
LINE
  5
79
100
AcDbEntity
  8
0
  6
HIDDEN
 62
   174
100
AcDbLine
 10
334.1926
 20
233.997545
 30
0.0
 11
334.1926
 21
227.497931
 31
0.0
  0
LINE
  5
7A
100
AcDbEntity
  8
0
  6
HIDDEN
 62
   174
100
AcDbLine
 10
334.1926
 20
233.997545
 30
0.0
 11
334.1926
 21
240.49686
 31
0.0
  0
LINE
  5
7B
100
AcDbEntity
  8
0
  6
HIDDEN
 62
   174
100
AcDbLine
 10
105.1926
 20
227.497931
 30
0.0
 11
105.1926
 21
233.997545
 31
0.0
  0
LINE
  5
7C
100
AcDbEntity
  8
0
  6
HIDDEN
 62
   174
100
AcDbLine
 10
337.1926
 20
233.997545
 30
0.0
 11
337.1926
 21
240.49686
 31
0.0
  0
LINE
  5
7D
100
AcDbEntity
  8
0
  6
Continuous
 62
   174
100
AcDbLine
 10
102.1926
 20
224.962999
 30
0.0
 11
101.4926
 21
224.962999
 31
0.0
  0
LINE
  5
7E
100
AcDbEntity
  8
0
  6
HIDDEN
 62
   174
100
AcDbLine
 10
178.318233
 20
180.962999
 30
0.0
 11
197.11833
 21
180.962999
 31
0.0
  0
LINE
  5
7F
100
AcDbEntity
  8
0
  6
HIDDEN
 62
   174
100
AcDbLine
 10
230.1726
 20
179.962999
 30
0.0
 11
230.1726
 21
165.962999
 31
0.0
  0
LINE
  5
80
100
AcDbEntity
  8
0
  6
HIDDEN
 62
   174
100
AcDbLine
 10
210.2926
 20
179.962999
 30
0.0
 11
210.2926
 21
165.962999
 31
0.0
  0
LINE
  5
81
100
AcDbEntity
  8
0
  6
HIDDEN
 62
   174
100
AcDbLine
 10
262.1726
 20
179.962999
 30
0.0
 11
262.1726
 21
165.962999
 31
0.0
  0
LINE
  5
82
100
AcDbEntity
  8
0
  6
HIDDEN
 62
   174
100
AcDbLine
 10
261.0926
 20
165.962999
 30
0.0
 11
261.0926
 21
180.962999
 31
0.0
  0
LINE
  5
83
100
AcDbEntity
  8
0
  6
HIDDEN
 62
   174
100
AcDbLine
 10
261.0926
 20
165.962999
 30
0.0
 11
261.0926
 21
180.962999
 31
0.0
  0
LINE
  5
84
100
AcDbEntity
  8
0
  6
Continuous
 62
   174
100
AcDbLine
 10
97.6926
 20
241.762999
 30
0.0
 11
98.359876
 21
242.918756
 31
0.0
  0
LINE
  5
85
100
AcDbEntity
  8
0
  6
HIDDEN
 62
   174
100
AcDbLine
 10
177.2126
 20
179.962999
 30
0.0
 11
177.2126
 21
165.962999
 31
0.0
  0
LINE
  5
86
100
AcDbEntity
  8
0
  6
HIDDEN
 62
   174
100
AcDbLine
 10
310.6926
 20
241.962999
 30
0.0
 11
311.0926
 21
241.962999
 31
0.0
  0
LINE
  5
87
100
AcDbEntity
  8
0
  6
Continuous
 62
   174
100
AcDbLine
 10
276.6926
 20
225.962999
 30
0.0
 11
276.6926
 21
165.962999
 31
0.0
  0
LINE
  5
88
100
AcDbEntity
  8
0
  6
Continuous
 62
   174
100
AcDbLine
 10
97.6926
 20
226.162999
 30
0.0
 11
98.359854
 21
225.007281
 31
0.0
  0
LINE
  5
89
100
AcDbEntity
  8
0
  6
HIDDEN
 62
   174
100
AcDbLine
 10
210.2926
 20
179.962999
 30
0.0
 11
210.2926
 21
165.962999
 31
0.0
  0
LINE
  5
8A
100
AcDbEntity
  8
0
  6
HIDDEN
 62
   174
100
AcDbLine
 10
230.1726
 20
179.962999
 30
0.0
 11
230.1726
 21
165.962999
 31
0.0
  0
LINE
  5
8B
100
AcDbEntity
  8
0
  6
HIDDEN
 62
   174
100
AcDbLine
 10
229.0926
 20
179.962999
 30
0.0
 11
229.0926
 21
165.962999
 31
0.0
  0
LINE
  5
8C
100
AcDbEntity
  8
0
  6
HIDDEN
 62
   174
100
AcDbLine
 10
178.2926
 20
179.962999
 30
0.0
 11
178.2926
 21
165.962999
 31
0.0
  0
LINE
  5
8D
100
AcDbEntity
  8
0
  6
HIDDEN
 62
   174
100
AcDbLine
 10
305.875195
 20
241.962999
 30
0.0
 11
307.6926
 21
241.962999
 31
0.0
  0
LINE
  5
8E
100
AcDbEntity
  8
0
  6
HIDDEN
 62
   174
100
AcDbLine
 10
304.2926
 20
241.962999
 30
0.0
 11
304.692657
 21
241.962999
 31
0.0
  0
LINE
  5
8F
100
AcDbEntity
  8
0
  6
Continuous
 62
   174
100
AcDbLine
 10
276.6926
 20
165.962999
 30
0.0
 11
276.6926
 21
225.962999
 31
0.0
  0
LINE
  5
90
100
AcDbEntity
  8
0
  6
Continuous
 62
   174
100
AcDbLine
 10
146.6926
 20
165.962999
 30
0.0
 11
146.6926
 21
225.962999
 31
0.0
  0
LINE
  5
91
100
AcDbEntity
  8
0
  6
HIDDEN
 62
   174
100
AcDbLine
 10
322.6926
 20
205.999575
 30
0.0
 11
322.6926
 21
196.000214
 31
0.0
  0
LINE
  5
92
100
AcDbEntity
  8
0
  6
HIDDEN
 62
   174
100
AcDbLine
 10
116.6926
 20
186.000853
 30
0.0
 11
116.6926
 21
196.000214
 31
0.0
  0
LINE
  5
93
100
AcDbEntity
  8
0
  6
HIDDEN
 62
   174
100
AcDbLine
 10
337.1926
 20
227.497931
 30
0.0
 11
337.1926
 21
233.997545
 31
0.0
  0
LINE
  5
94
100
AcDbEntity
  8
0
  6
HIDDEN
 62
   174
100
AcDbLine
 10
229.0926
 20
165.962999
 30
0.0
 11
229.0926
 21
180.962999
 31
0.0
  0
LINE
  5
95
100
AcDbEntity
  8
0
  6
HIDDEN
 62
   174
100
AcDbLine
 10
197.0926
 20
179.962999
 30
0.0
 11
197.0926
 21
165.962999
 31
0.0
  0
LINE
  5
96
100
AcDbEntity
  8
0
  6
HIDDEN
 62
   174
100
AcDbLine
 10
261.118326
 20
165.962999
 30
0.0
 11
242.31823
 21
165.962999
 31
0.0
  0
LINE
  5
97
100
AcDbEntity
  8
0
  6
HIDDEN
 62
   174
100
AcDbLine
 10
311.0926
 20
241.962999
 30
0.0
 11
319.1926
 21
241.962999
 31
0.0
  0
LINE
  5
98
100
AcDbEntity
  8
0
  6
HIDDEN
 62
   174
100
AcDbLine
 10
307.6926
 20
241.962999
 30
0.0
 11
309.669783
 21
241.962999
 31
0.0
  0
LINE
  5
99
100
AcDbEntity
  8
0
  6
HIDDEN
 62
   174
100
AcDbLine
 10
304.692657
 20
241.962999
 30
0.0
 11
305.875195
 21
241.962999
 31
0.0
  0
LINE
  5
9A
100
AcDbEntity
  8
0
  6
HIDDEN
 62
   174
100
AcDbLine
 10
102.1926
 20
233.997545
 30
0.0
 11
102.1926
 21
227.497931
 31
0.0
  0
LINE
  5
9B
100
AcDbEntity
  8
0
  6
Continuous
 62
   174
100
AcDbLine
 10
334.1926
 20
227.391286
 30
0.0
 11
334.1926
 21
233.997545
 31
0.0
  0
LINE
  5
9C
100
AcDbEntity
  8
0
  6
HIDDEN
 62
   174
100
AcDbLine
 10
101.4926
 20
242.96255
 30
0.0
 11
101.4926
 21
238.38489
 31
0.0
  0
LINE
  5
9D
100
AcDbEntity
  8
0
  6
HIDDEN
 62
   174
100
AcDbLine
 10
135.0926
 20
241.962999
 30
0.0
 11
143.1926
 21
241.962999
 31
0.0
  0
LINE
  5
9E
100
AcDbEntity
  8
0
  6
HIDDEN
 62
   174
100
AcDbLine
 10
214.198294
 20
211.962999
 30
0.0
 11
193.238268
 21
211.962999
 31
0.0
  0
ARC
  5
9F
100
AcDbEntity
  8
0
  6
Continuous
 62
   174
100
AcDbCircle
 10
251.6926
 20
215.962999
 30
0.0
 40
3.3
100
AcDbArc
 50
-180.0
 51
0.0
  0
LINE
  5
A0
100
AcDbEntity
  8
0
  6
Continuous
 62
   174
100
AcDbLine
 10
101.4926
 20
229.385339
 30
0.0
 11
98.38542
 21
229.385339
 31
0.0
  0
LINE
  5
A1
100
AcDbEntity
  8
0
  6
Continuous
 62
   174
100
AcDbLine
 10
98.38542
 20
238.540659
 30
0.0
 11
101.4926
 21
238.540659
 31
0.0
  0
LINE
  5
A2
100
AcDbEntity
  8
0
  6
Continuous
 62
   174
100
AcDbLine
 10
330.3926
 20
186.318984
 30
0.0
 11
330.3926
 21
187.387834
 31
0.0
  0
LWPOLYLINE
  5
A3
100
AcDbEntity
  8
0
  6
HIDDEN
 62
   174
100
AcDbPolyline
 90
        7
 70
   128
 10
340.99978
 20
238.540659
 10
341.365906
 20
239.29235
 10
341.594004
 20
240.029396
 10
341.670908
 20
240.751645
 10
341.593989
 20
241.473884
 10
341.365889
 20
242.210903
 10
340.99978
 20
242.96255
  0
LINE
  5
A4
100
AcDbEntity
  8
0
  6
Continuous
 62
   174
100
AcDbLine
 10
116.6926
 20
184.962999
 30
0.0
 11
146.6926
 21
184.962999
 31
0.0
  0
LINE
  5
A5
100
AcDbEntity
  8
0
  6
HIDDEN
 62
   174
100
AcDbLine
 10
98.38542
 20
242.96255
 30
0.0
 11
98.356569
 21
242.913026
 31
0.0
  0
LINE
  5
A6
100
AcDbEntity
  8
0
  6
Continuous
 62
   174
100
AcDbLine
 10
337.8926
 20
229.575849
 30
0.0
 11
337.8926
 21
233.997545
 31
0.0
  0
LINE
  5
A7
100
AcDbEntity
  8
0
  6
HIDDEN
 62
   174
100
AcDbLine
 10
330.3926
 20
198.462999
 30
0.0
 11
324.1926
 21
198.462999
 31
0.0
  0
LWPOLYLINE
  5
A8
100
AcDbEntity
  8
0
  6
HIDDEN
 62
   174
100
AcDbPolyline
 90
        4
 70
   128
 10
322.15064
 20
233.962999
 10
322.159635
 20
233.013992
 10
322.18004
 20
232.075826
 10
322.1926
 20
231.179117
  0
LINE
  5
A9
100
AcDbEntity
  8
0
  6
HIDDEN
 62
   174
100
AcDbLine
 10
134.6926
 20
241.962999
 30
0.0
 11
135.0926
 21
241.962999
 31
0.0
  0
LINE
  5
AA
100
AcDbEntity
  8
0
  6
HIDDEN
 62
   174
100
AcDbLine
 10
133.948868
 20
241.962999
 30
0.0
 11
134.6926
 21
241.962999
 31
0.0
  0
LINE
  5
AB
100
AcDbEntity
  8
0
  6
HIDDEN
 62
   174
100
AcDbLine
 10
98.356613
 20
225.012899
 30
0.0
 11
98.38542
 21
224.963449
 31
0.0
  0
LWPOLYLINE
  5
AC
100
AcDbEntity
  8
0
  6
HIDDEN
 62
   174
100
AcDbPolyline
 90
        7
 70
   128
 10
340.99978
 20
224.963449
 10
341.365906
 20
225.715139
 10
341.594004
 20
226.452186
 10
341.670908
 20
227.174434
 10
341.593989
 20
227.896673
 10
341.365889
 20
228.633692
 10
340.99978
 20
229.385339
  0
LINE
  5
AD
100
AcDbEntity
  8
0
  6
HIDDEN
 62
   174
100
AcDbLine
 10
101.4926
 20
238.38489
 30
0.0
 11
98.38542
 21
238.38489
 31
0.0
  0
LINE
  5
AE
100
AcDbEntity
  8
0
  6
Continuous
 62
   174
100
AcDbLine
 10
108.9926
 20
186.280218
 30
0.0
 11
115.1926
 21
186.280218
 31
0.0
  0
LWPOLYLINE
  5
AF
100
AcDbEntity
  8
0
  6
HIDDEN
 62
   174
100
AcDbPolyline
 90
        4
 70
   128
 10
117.1926
 20
231.179117
 10
117.205159
 20
232.075818
 10
117.225564
 20
233.013973
 10
117.23456
 20
233.962999
  0
ARC
  5
B0
100
AcDbEntity
  8
0
  6
Continuous
 62
   174
100
AcDbCircle
 10
120.1926
 20
238.962999
 30
0.0
 40
3.0
100
AcDbArc
 50
-270.0
 51
-180.0
  0
LINE
  5
B1
100
AcDbEntity
  8
0
  6
Continuous
 62
   174
100
AcDbLine
 10
102.1926
 20
224.99824
 30
0.0
 11
102.1926
 21
227.28374
 31
0.0
  0
LWPOLYLINE
  5
B2
100
AcDbEntity
  8
0
  6
HIDDEN
 62
   174
100
AcDbPolyline
 90
        4
 70
   128
 10
341.6926
 20
234.854611
 10
341.55948
 20
236.071326
 10
341.326394
 20
237.29349
 10
340.99978
 20
238.540659
  0
LINE
  5
B3
100
AcDbEntity
  8
0
  6
HIDDEN
 62
   174
100
AcDbLine
 10
330.3926
 20
201.041599
 30
0.0
 11
324.1926
 21
201.041599
 31
0.0
  0
LINE
  5
B4
100
AcDbEntity
  8
0
  6
Continuous
 62
   174
100
AcDbLine
 10
319.1926
 20
212.962999
 30
0.0
 11
319.1926
 21
238.962999
 31
0.0
  0
LINE
  5
B5
100
AcDbEntity
  8
0
  6
HIDDEN
 62
   174
100
AcDbLine
 10
226.2926
 20
225.962999
 30
0.0
 11
226.2926
 21
210.962999
 31
0.0
  0
ARC
  5
B6
100
AcDbEntity
  8
0
  6
Continuous
 62
   174
100
AcDbCircle
 10
251.6926
 20
215.962999
 30
0.0
 40
3.3
100
AcDbArc
 50
0.0
 51
180.0
  0
ARC
  5
B7
100
AcDbEntity
  8
0
  6
Continuous
 62
   174
100
AcDbCircle
 10
296.1926
 20
238.962999
 30
0.0
 40
3.0
100
AcDbArc
 50
-270.0
 51
-180.0
  0
ARC
  5
B8
100
AcDbEntity
  8
0
  6
HIDDEN
 62
   174
100
AcDbCircle
 10
143.1926
 20
238.962999
 30
0.0
 40
3.0
100
AcDbArc
 50
-288.0
 51
-270.0
  0
LINE
  5
B9
100
AcDbEntity
  8
0
  6
HIDDEN
 62
   174
100
AcDbLine
 10
296.218228
 20
238.962999
 30
0.0
 11
293.21806
 21
238.962999
 31
0.0
  0
ARC
  5
BA
100
AcDbEntity
  8
0
  6
HIDDEN
 62
   174
100
AcDbCircle
 10
319.1926
 20
238.962999
 30
0.0
 40
3.0
100
AcDbArc
 50
18.0
 51
36.0
  0
LINE
  5
BB
100
AcDbEntity
  8
0
  6
HIDDEN
 62
   174
100
AcDbLine
 10
133.510005
 20
241.962999
 30
0.0
 11
133.948868
 21
241.962999
 31
0.0
  0
LINE
  5
BC
100
AcDbEntity
  8
0
  6
Continuous
 62
   174
100
AcDbLine
 10
120.1926
 20
238.962999
 30
0.0
 11
143.1926
 21
238.962999
 31
0.0
  0
LWPOLYLINE
  5
BD
100
AcDbEntity
  8
0
  6
HIDDEN
 62
   174
100
AcDbPolyline
 90
        4
 70
   128
 10
98.356659
 20
242.913179
 10
98.05752
 20
242.336143
 10
97.824765
 20
241.72473
 10
97.6926
 20
241.119526
  0
LWPOLYLINE
  5
BE
100
AcDbEntity
  8
0
  6
HIDDEN
 62
   174
100
AcDbPolyline
 90
        6
 70
   128
 10
120.1926
 20
241.962999
 10
119.287284
 20
241.82314
 10
118.478979
 20
241.425417
 10
117.817131
 20
240.795251
 10
117.365305
 20
239.966197
 10
117.1926
 20
238.962999
  0
LINE
  5
BF
100
AcDbEntity
  8
0
  6
Continuous
 62
   174
100
AcDbLine
 10
115.1926
 20
205.962999
 30
0.0
 11
116.6926
 21
205.962999
 31
0.0
  0
LINE
  5
C0
100
AcDbEntity
  8
0
  6
Continuous
 62
   174
100
AcDbLine
 10
115.1926
 20
185.962999
 30
0.0
 11
116.6926
 21
185.962999
 31
0.0
  0
LINE
  5
C1
100
AcDbEntity
  8
0
  6
HIDDEN
 62
   174
100
AcDbLine
 10
131.6926
 20
241.962999
 30
0.0
 11
133.510005
 21
241.962999
 31
0.0
  0
LINE
  5
C2
100
AcDbEntity
  8
0
  6
HIDDEN
 62
   174
100
AcDbLine
 10
214.198294
 20
225.962999
 30
0.0
 11
193.238268
 21
225.962999
 31
0.0
  0
ARC
  5
C3
100
AcDbEntity
  8
0
  6
Continuous
 62
   174
100
AcDbCircle
 10
187.6926
 20
215.962999
 30
0.0
 40
3.3
100
AcDbArc
 50
0.0
 51
180.0
  0
LINE
  5
C4
100
AcDbEntity
  8
0
  6
Continuous
 62
   174
100
AcDbLine
 10
319.1926
 20
241.996794
 30
0.0
 11
319.1926
 21
238.997226
 31
0.0
  0
LINE
  5
C5
100
AcDbEntity
  8
0
  6
HIDDEN
 62
   174
100
AcDbLine
 10
101.4926
 20
229.541109
 30
0.0
 11
98.38542
 21
229.541109
 31
0.0
  0
LINE
  5
C6
100
AcDbEntity
  8
0
  6
HIDDEN
 62
   174
100
AcDbLine
 10
129.715417
 20
241.962999
 30
0.0
 11
131.6926
 21
241.962999
 31
0.0
  0
LINE
  5
C7
100
AcDbEntity
  8
0
  6
Continuous
 62
   174
100
AcDbLine
 10
97.6926
 20
233.071388
 30
0.0
 11
97.6926
 21
234.854611
 31
0.0
  0
LINE
  5
C8
100
AcDbEntity
  8
0
  6
Continuous
 62
   174
100
AcDbLine
 10
330.3926
 20
187.350047
 30
0.0
 11
324.1926
 21
187.350047
 31
0.0
  0
LWPOLYLINE
  5
C9
100
AcDbEntity
  8
0
  6
Continuous
 62
   174
100
AcDbPolyline
 90
        6
 70
   128
 10
98.38542
 20
238.540659
 10
98.019294
 20
239.29235
 10
97.791196
 20
240.029396
 10
97.714292
 20
240.751645
 10
97.79121
 20
241.473884
 10
97.842111
 20
241.685466
  0
LINE
  5
CA
100
AcDbEntity
  8
0
  6
HIDDEN
 62
   174
100
AcDbLine
 10
330.3926
 20
204.576878
 30
0.0
 11
324.1926
 21
204.576878
 31
0.0
  0
LINE
  5
CB
100
AcDbEntity
  8
0
  6
HIDDEN
 62
   174
100
AcDbLine
 10
214.1726
 20
211.962999
 30
0.0
 11
214.1726
 21
225.962999
 31
0.0
  0
LINE
  5
CC
100
AcDbEntity
  8
0
  6
HIDDEN
 62
   174
100
AcDbLine
 10
245.0926
 20
225.962999
 30
0.0
 11
245.0926
 21
210.962999
 31
0.0
  0
ARC
  5
CD
100
AcDbEntity
  8
0
  6
HIDDEN
 62
   174
100
AcDbCircle
 10
143.1926
 20
238.962999
 30
0.0
 40
3.0
100
AcDbArc
 50
-306.0
 51
-288.0
  0
LINE
  5
CE
100
AcDbEntity
  8
0
  6
Continuous
 62
   174
100
AcDbLine
 10
115.1926
 20
197.496243
 30
0.0
 11
115.1926
 21
198.499904
 31
0.0
  0
LINE
  5
CF
100
AcDbEntity
  8
0
  6
Continuous
 62
   174
100
AcDbLine
 10
334.1926
 20
240.603805
 30
0.0
 11
334.1926
 21
241.996794
 31
0.0
  0
LINE
  5
D0
100
AcDbEntity
  8
0
  6
Continuous
 62
   174
100
AcDbLine
 10
334.1926
 20
225.997996
 30
0.0
 11
334.1926
 21
227.391286
 31
0.0
  0
LINE
  5
D1
100
AcDbEntity
  8
0
  6
Continuous
 62
   174
100
AcDbLine
 10
102.1926
 20
227.28374
 30
0.0
 11
102.1926
 21
233.997545
 31
0.0
  0
LINE
  5
D2
100
AcDbEntity
  8
0
  6
Continuous
 62
   174
100
AcDbLine
 10
330.3926
 20
204.615297
 30
0.0
 11
330.3926
 21
205.682645
 31
0.0
  0
LWPOLYLINE
  5
D3
100
AcDbEntity
  8
0
  6
HIDDEN
 62
   174
100
AcDbPolyline
 90
        4
 70
   128
 10
97.6926
 20
240.227914
 10
97.82572
 20
239.619555
 10
98.058803
 20
239.008481
 10
98.38542
 20
238.38489
  0
LINE
  5
D4
100
AcDbEntity
  8
0
  6
Continuous
 62
   174
100
AcDbLine
 10
337.8926
 20
238.38489
 30
0.0
 11
340.99978
 21
238.38489
 31
0.0
  0
LINE
  5
D5
100
AcDbEntity
  8
0
  6
HIDDEN
 62
   174
100
AcDbLine
 10
146.2182
 20
238.962999
 30
0.0
 11
143.218331
 21
238.962999
 31
0.0
  0
LINE
  5
D6
100
AcDbEntity
  8
0
  6
Continuous
 62
   174
100
AcDbLine
 10
146.2182
 20
238.962999
 30
0.0
 11
143.218331
 21
238.962999
 31
0.0
  0
LINE
  5
D7
100
AcDbEntity
  8
0
  6
Continuous
 62
   174
100
AcDbLine
 10
337.8926
 20
238.418941
 30
0.0
 11
337.8926
 21
242.99685
 31
0.0
  0
LWPOLYLINE
  5
D8
100
AcDbEntity
  8
0
  6
Continuous
 62
   174
100
AcDbPolyline
 90
        6
 70
   128
 10
97.84194
 20
226.241169
 10
97.791196
 20
226.452186
 10
97.714292
 20
227.174434
 10
97.79121
 20
227.896673
 10
98.019311
 20
228.633692
 10
98.38542
 20
229.385339
  0
LINE
  5
D9
100
AcDbEntity
  8
0
  6
Continuous
 62
   174
100
AcDbLine
 10
108.9926
 20
190.884069
 30
0.0
 11
115.1926
 21
190.884069
 31
0.0
  0
LINE
  5
DA
100
AcDbEntity
  8
0
  6
HIDDEN
 62
   174
100
AcDbLine
 10
128.692925
 20
241.962999
 30
0.0
 11
129.715417
 21
241.962999
 31
0.0
  0
LINE
  5
DB
100
AcDbEntity
  8
0
  6
HIDDEN
 62
   174
100
AcDbLine
 10
226.2926
 20
225.962999
 30
0.0
 11
226.2926
 21
210.962999
 31
0.0
  0
LINE
  5
DC
100
AcDbEntity
  8
0
  6
HIDDEN
 62
   174
100
AcDbLine
 10
296.1926
 20
241.996794
 30
0.0
 11
296.1926
 21
238.997226
 31
0.0
  0
LINE
  5
DD
100
AcDbEntity
  8
0
  6
Continuous
 62
   174
100
AcDbLine
 10
108.9926
 20
193.500524
 30
0.0
 11
108.9926
 21
190.921526
 31
0.0
  0
LINE
  5
DE
100
AcDbEntity
  8
0
  6
HIDDEN
 62
   174
100
AcDbLine
 10
322.218189
 20
238.962999
 30
0.0
 11
319.218321
 21
238.962999
 31
0.0
  0
LINE
  5
DF
100
AcDbEntity
  8
0
  6
HIDDEN
 62
   174
100
AcDbLine
 10
193.2126
 20
211.962999
 30
0.0
 11
193.2126
 21
225.962999
 31
0.0
  0
LINE
  5
E0
100
AcDbEntity
  8
0
  6
HIDDEN
 62
   174
100
AcDbLine
 10
330.3926
 20
190.884069
 30
0.0
 11
324.1926
 21
190.884069
 31
0.0
  0
ARC
  5
E1
100
AcDbEntity
  8
0
  6
HIDDEN
 62
   174
100
AcDbCircle
 10
143.1926
 20
238.962999
 30
0.0
 40
3.0
100
AcDbArc
 50
-324.0
 51
-306.0
  0
LINE
  5
E2
100
AcDbEntity
  8
0
  6
HIDDEN
 62
   174
100
AcDbLine
 10
319.1926
 20
238.962999
 30
0.0
 11
296.1926
 21
238.962999
 31
0.0
  0
LWPOLYLINE
  5
E3
100
AcDbEntity
  8
0
  6
Continuous
 62
   174
100
AcDbPolyline
 90
        4
 70
   128
 10
97.6926
 20
234.854611
 10
97.82572
 20
236.071326
 10
98.058806
 20
237.29349
 10
98.38542
 20
238.540659
  0
LWPOLYLINE
  5
E4
100
AcDbEntity
  8
0
  6
Continuous
 62
   174
100
AcDbPolyline
 90
        4
 70
   128
 10
117.23456
 20
233.962999
 10
117.225565
 20
234.911982
 10
117.20516
 20
235.850149
 10
117.1926
 20
236.746881
  0
LWPOLYLINE
  5
E5
100
AcDbEntity
  8
0
  6
HIDDEN
 62
   174
100
AcDbPolyline
 90
        4
 70
   128
 10
322.15064
 20
233.962999
 10
322.159634
 20
234.911982
 10
322.18004
 20
235.850149
 10
322.1926
 20
236.746881
  0
LINE
  5
E6
100
AcDbEntity
  8
0
  6
HIDDEN
 62
   174
100
AcDbLine
 10
245.0926
 20
211.962999
 30
0.0
 11
245.0926
 21
225.962999
 31
0.0
  0
LINE
  5
E7
100
AcDbEntity
  8
0
  6
Continuous
 62
   174
100
AcDbLine
 10
296.1926
 20
212.962999
 30
0.0
 11
296.1926
 21
238.962999
 31
0.0
  0
LINE
  5
E8
100
AcDbEntity
  8
0
  6
Continuous
 62
   174
100
AcDbLine
 10
108.9926
 20
198.462999
 30
0.0
 11
115.1926
 21
198.462999
 31
0.0
  0
LINE
  5
E9
100
AcDbEntity
  8
0
  6
HIDDEN
 62
   174
100
AcDbLine
 10
194.2926
 20
211.962999
 30
0.0
 11
194.2926
 21
225.962999
 31
0.0
  0
LWPOLYLINE
  5
EA
100
AcDbEntity
  8
0
  6
Continuous
 62
   174
100
AcDbPolyline
 90
        4
 70
   128
 10
98.38542
 20
229.385339
 10
98.057519
 20
230.638154
 10
97.824766
 20
231.860975
 10
97.6926
 20
233.071388
  0
LINE
  5
EB
100
AcDbEntity
  8
0
  6
HIDDEN
 62
   174
100
AcDbLine
 10
101.4926
 20
229.541109
 30
0.0
 11
101.4926
 21
224.963449
 31
0.0
  0
LINE
  5
EC
100
AcDbEntity
  8
0
  6
Continuous
 62
   174
100
AcDbLine
 10
330.3926
 20
201.044594
 30
0.0
 11
324.1926
 21
201.044594
 31
0.0
  0
LINE
  5
ED
100
AcDbEntity
  8
0
  6
Continuous
 62
   174
100
AcDbLine
 10
322.6926
 20
212.962999
 30
0.0
 11
292.6926
 21
212.962999
 31
0.0
  0
LINE
  5
EE
100
AcDbEntity
  8
0
  6
Continuous
 62
   174
100
AcDbLine
 10
105.1926
 20
227.390985
 30
0.0
 11
105.1926
 21
225.997996
 31
0.0
  0
LINE
  5
EF
100
AcDbEntity
  8
0
  6
Continuous
 62
   174
100
AcDbLine
 10
102.1926
 20
240.711651
 30
0.0
 11
102.1926
 21
242.99685
 31
0.0
  0
LINE
  5
F0
100
AcDbEntity
  8
0
  6
HIDDEN
 62
   174
100
AcDbLine
 10
330.3926
 20
187.34828
 30
0.0
 11
324.1926
 21
187.34828
 31
0.0
  0
LWPOLYLINE
  5
F1
100
AcDbEntity
  8
0
  6
Continuous
 62
   174
100
AcDbPolyline
 90
        4
 70
   128
 10
117.23456
 20
233.962999
 10
117.225565
 20
233.013992
 10
117.205159
 20
232.075826
 10
117.1926
 20
231.179117
  0
ARC
  5
F2
100
AcDbEntity
  8
0
  6
Continuous
 62
   174
100
AcDbCircle
 10
319.1926
 20
238.962999
 30
0.0
 40
3.0
100
AcDbArc
 50
0.0
 51
90.0
  0
LINE
  5
F3
100
AcDbEntity
  8
0
  6
Continuous
 62
   174
100
AcDbLine
 10
322.218189
 20
238.962999
 30
0.0
 11
319.218321
 21
238.962999
 31
0.0
  0
LWPOLYLINE
  5
F4
100
AcDbEntity
  8
0
  6
Continuous
 62
   174
100
AcDbPolyline
 90
        4
 70
   128
 10
341.028541
 20
242.913179
 10
341.32768
 20
242.336143
 10
341.560434
 20
241.72473
 10
341.6926
 20
241.119526
  0
LINE
  5
F5
100
AcDbEntity
  8
0
  6
HIDDEN
 62
   174
100
AcDbLine
 10
319.1926
 20
212.962999
 30
0.0
 11
296.1926
 21
212.962999
 31
0.0
  0
LINE
  5
F6
100
AcDbEntity
  8
0
  6
Continuous
 62
   174
100
AcDbLine
 10
101.4926
 20
233.997545
 30
0.0
 11
101.4926
 21
229.420238
 31
0.0
  0
LINE
  5
F7
100
AcDbEntity
  8
0
  6
HIDDEN
 62
   174
100
AcDbLine
 10
146.6926
 20
212.962999
 30
0.0
 11
146.6926
 21
184.962999
 31
0.0
  0
LINE
  5
F8
100
AcDbEntity
  8
0
  6
HIDDEN
 62
   174
100
AcDbLine
 10
117.1926
 20
238.997226
 30
0.0
 11
117.1926
 21
236.78112
 31
0.0
  0
LINE
  5
F9
100
AcDbEntity
  8
0
  6
Continuous
 62
   174
100
AcDbLine
 10
330.3926
 20
204.578644
 30
0.0
 11
324.1926
 21
204.578644
 31
0.0
  0
LINE
  5
FA
100
AcDbEntity
  8
0
  6
Continuous
 62
   174
100
AcDbLine
 10
120.1926
 20
238.962999
 30
0.0
 11
120.1926
 21
212.962999
 31
0.0
  0
LINE
  5
FB
100
AcDbEntity
  8
0
  6
Continuous
 62
   174
100
AcDbLine
 10
115.1926
 20
193.500524
 30
0.0
 11
115.1926
 21
197.496243
 31
0.0
  0
LINE
  5
FC
100
AcDbEntity
  8
0
  6
HIDDEN
 62
   174
100
AcDbLine
 10
296.218228
 20
212.962999
 30
0.0
 11
293.21806
 21
212.962999
 31
0.0
  0
LINE
  5
FD
100
AcDbEntity
  8
0
  6
HIDDEN
 62
   174
100
AcDbLine
 10
213.118329
 20
210.962999
 30
0.0
 11
194.318233
 21
210.962999
 31
0.0
  0
LINE
  5
FE
100
AcDbEntity
  8
0
  6
Continuous
 62
   174
100
AcDbLine
 10
143.1926
 20
238.997226
 30
0.0
 11
143.1926
 21
241.996794
 31
0.0
  0
LINE
  5
FF
100
AcDbEntity
  8
0
  6
Continuous
 62
   174
100
AcDbLine
 10
337.8926
 20
229.541109
 30
0.0
 11
340.99978
 21
229.541109
 31
0.0
  0
LINE
  5
100
100
AcDbEntity
  8
0
  6
Continuous
 62
   174
100
AcDbLine
 10
324.1926
 20
205.999575
 30
0.0
 11
324.1926
 21
205.682645
 31
0.0
  0
LINE
  5
101
100
AcDbEntity
  8
0
  6
HIDDEN
 62
   174
100
AcDbLine
 10
225.2126
 20
211.962999
 30
0.0
 11
225.2126
 21
225.962999
 31
0.0
  0
ARC
  5
102
100
AcDbEntity
  8
0
  6
HIDDEN
 62
   174
100
AcDbCircle
 10
143.1926
 20
238.962999
 30
0.0
 40
3.0
100
AcDbArc
 50
-342.0
 51
-324.0
  0
LWPOLYLINE
  5
103
100
AcDbEntity
  8
0
  6
HIDDEN
 62
   174
100
AcDbPolyline
 90
        4
 70
   128
 10
117.1926
 20
236.746881
 10
117.20516
 20
235.850146
 10
117.225565
 20
234.911992
 10
117.23456
 20
233.962999
  0
LINE
  5
104
100
AcDbEntity
  8
0
  6
HIDDEN
 62
   174
100
AcDbLine
 10
108.9926
 20
201.044594
 30
0.0
 11
115.1926
 21
201.044594
 31
0.0
  0
LINE
  5
105
100
AcDbEntity
  8
0
  6
HIDDEN
 62
   174
100
AcDbLine
 10
319.1926
 20
238.962999
 30
0.0
 11
319.1926
 21
212.962999
 31
0.0
  0
LINE
  5
106
100
AcDbEntity
  8
0
  6
Continuous
 62
   174
100
AcDbLine
 10
324.1926
 20
204.615297
 30
0.0
 11
324.1926
 21
201.081305
 31
0.0
  0
LINE
  5
107
100
AcDbEntity
  8
0
  6
Continuous
 62
   174
100
AcDbLine
 10
330.3926
 20
190.887065
 30
0.0
 11
324.1926
 21
190.887065
 31
0.0
  0
LINE
  5
108
100
AcDbEntity
  8
0
  6
HIDDEN
 62
   174
100
AcDbLine
 10
213.0926
 20
225.962999
 30
0.0
 11
213.0926
 21
210.962999
 31
0.0
  0
LINE
  5
109
100
AcDbEntity
  8
0
  6
HIDDEN
 62
   174
100
AcDbLine
 10
324.1926
 20
204.576878
 30
0.0
 11
324.1926
 21
201.041599
 31
0.0
  0
LINE
  5
10A
100
AcDbEntity
  8
0
  6
Continuous
 62
   174
100
AcDbLine
 10
330.3926
 20
190.92453
 30
0.0
 11
330.3926
 21
193.503828
 31
0.0
  0
LINE
  5
10B
100
AcDbEntity
  8
0
  6
Continuous
 62
   174
100
AcDbLine
 10
324.1926
 20
190.92453
 30
0.0
 11
324.1926
 21
187.387834
 31
0.0
  0
LINE
  5
10C
100
AcDbEntity
  8
0
  6
HIDDEN
 62
   174
100
AcDbLine
 10
245.118327
 20
210.962999
 30
0.0
 11
226.318231
 21
210.962999
 31
0.0
  0
LINE
  5
10D
100
AcDbEntity
  8
0
  6
HIDDEN
 62
   174
100
AcDbLine
 10
246.1726
 20
211.962999
 30
0.0
 11
246.1726
 21
225.962999
 31
0.0
  0
LINE
  5
10E
100
AcDbEntity
  8
0
  6
HIDDEN
 62
   174
100
AcDbLine
 10
194.318233
 20
225.962999
 30
0.0
 11
213.118329
 21
225.962999
 31
0.0
  0
LINE
  5
10F
100
AcDbEntity
  8
0
  6
Continuous
 62
   174
100
AcDbLine
 10
101.4926
 20
229.420238
 30
0.0
 11
101.4926
 21
224.998541
 31
0.0
  0
LWPOLYLINE
  5
110
100
AcDbEntity
  8
0
  6
Continuous
 62
   174
100
AcDbPolyline
 90
        4
 70
   128
 10
341.6926
 20
226.806473
 10
341.559479
 20
226.198114
 10
341.326397
 20
225.587039
 10
341.028501
 20
225.01275
  0
LWPOLYLINE
  5
111
100
AcDbEntity
  8
0
  6
HIDDEN
 62
   174
100
AcDbPolyline
 90
        7
 70
   128
 10
98.38542
 20
238.38489
 10
98.019318
 20
236.881619
 10
97.791218
 20
235.407629
 10
97.714287
 20
233.963237
 10
97.791174
 20
232.51879
 10
98.019266
 20
231.044639
 10
98.38542
 20
229.541109
  0
LINE
  5
112
100
AcDbEntity
  8
0
  6
HIDDEN
 62
   174
100
AcDbLine
 10
337.8926
 20
238.540659
 30
0.0
 11
337.8926
 21
242.96255
 31
0.0
  0
ARC
  5
113
100
AcDbEntity
  8
0
  6
HIDDEN
 62
   174
100
AcDbCircle
 10
319.1926
 20
238.962999
 30
0.0
 40
3.0
100
AcDbArc
 50
36.0
 51
54.0
  0
LINE
  5
114
100
AcDbEntity
  8
0
  6
HIDDEN
 62
   174
100
AcDbLine
 10
128.2926
 20
241.962999
 30
0.0
 11
128.692925
 21
241.962999
 31
0.0
  0
LINE
  5
115
100
AcDbEntity
  8
0
  6
Continuous
 62
   174
100
AcDbLine
 10
322.1926
 20
236.746881
 30
0.0
 11
322.1926
 21
238.962999
 31
0.0
  0
ARC
  5
116
100
AcDbEntity
  8
0
  6
Continuous
 62
   174
100
AcDbCircle
 10
296.1926
 20
238.962999
 30
0.0
 40
3.0
100
AcDbArc
 50
90.0
 51
180.0
  0
LINE
  5
117
100
AcDbEntity
  8
0
  6
HIDDEN
 62
   174
100
AcDbLine
 10
115.1926
 20
193.466367
 30
0.0
 11
115.1926
 21
198.466366
 31
0.0
  0
LINE
  5
118
100
AcDbEntity
  8
0
  6
Continuous
 62
   174
100
AcDbLine
 10
97.6926
 20
233.105936
 30
0.0
 11
97.6926
 21
226.198068
 31
0.0
  0
LINE
  5
119
100
AcDbEntity
  8
0
  6
Continuous
 62
   174
100
AcDbLine
 10
330.3926
 20
193.466367
 30
0.0
 11
324.1926
 21
193.466367
 31
0.0
  0
LINE
  5
11A
100
AcDbEntity
  8
0
  6
Continuous
 62
   174
100
AcDbLine
 10
115.1926
 20
205.681744
 30
0.0
 11
115.1926
 21
205.999575
 31
0.0
  0
LINE
  5
11B
100
AcDbEntity
  8
0
  6
HIDDEN
 62
   174
100
AcDbLine
 10
319.1926
 20
241.996794
 30
0.0
 11
319.1926
 21
238.997226
 31
0.0
  0
LINE
  5
11C
100
AcDbEntity
  8
0
  6
HIDDEN
 62
   174
100
AcDbLine
 10
296.1926
 20
238.962999
 30
0.0
 11
296.1926
 21
212.962999
 31
0.0
  0
LINE
  5
11D
100
AcDbEntity
  8
0
  6
HIDDEN
 62
   174
100
AcDbLine
 10
117.1926
 20
225.997996
 30
0.0
 11
117.1926
 21
231.21367
 31
0.0
  0
LINE
  5
11E
100
AcDbEntity
  8
0
  6
HIDDEN
 62
   174
100
AcDbLine
 10
322.1926
 20
238.962999
 30
0.0
 11
322.1926
 21
236.746881
 31
0.0
  0
LINE
  5
11F
100
AcDbEntity
  8
0
  6
Continuous
 62
   174
100
AcDbLine
 10
319.1926
 20
241.962999
 30
0.0
 11
296.1926
 21
241.962999
 31
0.0
  0
LINE
  5
120
100
AcDbEntity
  8
0
  6
HIDDEN
 62
   174
100
AcDbLine
 10
120.1926
 20
241.962999
 30
0.0
 11
128.2926
 21
241.962999
 31
0.0
  0
LINE
  5
121
100
AcDbEntity
  8
0
  6
Continuous
 62
   174
100
AcDbLine
 10
324.1926
 20
186.318984
 30
0.0
 11
324.1926
 21
186.000853
 31
0.0
  0
LINE
  5
122
100
AcDbEntity
  8
0
  6
HIDDEN
 62
   174
100
AcDbLine
 10
120.218239
 20
238.962999
 30
0.0
 11
117.21837
 21
238.962999
 31
0.0
  0
LINE
  5
123
100
AcDbEntity
  8
0
  6
HIDDEN
 62
   174
100
AcDbLine
 10
194.2926
 20
225.962999
 30
0.0
 11
194.2926
 21
210.962999
 31
0.0
  0
LINE
  5
124
100
AcDbEntity
  8
0
  6
Continuous
 62
   174
100
AcDbLine
 10
97.6926
 20
241.797023
 30
0.0
 11
97.6926
 21
234.889154
 31
0.0
  0
LINE
  5
125
100
AcDbEntity
  8
0
  6
Continuous
 62
   174
100
AcDbLine
 10
340.99978
 20
242.96255
 30
0.0
 11
341.028631
 21
242.913026
 31
0.0
  0
LWPOLYLINE
  5
126
100
AcDbEntity
  8
0
  6
Continuous
 62
   174
100
AcDbPolyline
 90
        4
 70
   128
 10
322.1926
 20
231.179117
 10
322.18004
 20
232.075818
 10
322.159635
 20
233.013973
 10
322.15064
 20
233.962999
  0
LINE
  5
127
100
AcDbEntity
  8
0
  6
Continuous
 62
   174
100
AcDbLine
 10
322.1926
 20
212.962999
 30
0.0
 11
322.1926
 21
231.179117
 31
0.0
  0
LINE
  5
128
100
AcDbEntity
  8
0
  6
HIDDEN
 62
   174
100
AcDbLine
 10
193.2126
 20
211.962999
 30
0.0
 11
193.2126
 21
225.962999
 31
0.0
  0
ARC
  5
129
100
AcDbEntity
  8
0
  6
HIDDEN
 62
   174
100
AcDbCircle
 10
143.1926
 20
238.962999
 30
0.0
 40
3.0
100
AcDbArc
 50
-360.0
 51
-342.0
  0
LINE
  5
12A
100
AcDbEntity
  8
0
  6
HIDDEN
 62
   174
100
AcDbLine
 10
120.1926
 20
238.997226
 30
0.0
 11
120.1926
 21
241.996794
 31
0.0
  0
LINE
  5
12B
100
AcDbEntity
  8
0
  6
Continuous
 62
   174
100
AcDbLine
 10
341.028587
 20
225.012899
 30
0.0
 11
340.99978
 21
224.963449
 31
0.0
  0
LWPOLYLINE
  5
12C
100
AcDbEntity
  8
0
  6
Continuous
 62
   174
100
AcDbPolyline
 90
        7
 70
   128
 10
340.99978
 20
238.38489
 10
341.365882
 20
236.881619
 10
341.593982
 20
235.407629
 10
341.670913
 20
233.963237
 10
341.594026
 20
232.51879
 10
341.365933
 20
231.044639
 10
340.99978
 20
229.541109
  0
LINE
  5
12D
100
AcDbEntity
  8
0
  6
Continuous
 62
   174
100
AcDbLine
 10
296.1926
 20
238.962999
 30
0.0
 11
319.1926
 21
238.962999
 31
0.0
  0
LINE
  5
12E
100
AcDbEntity
  8
0
  6
Continuous
 62
   174
100
AcDbLine
 10
101.4926
 20
242.996249
 30
0.0
 11
101.4926
 21
238.574853
 31
0.0
  0
LWPOLYLINE
  5
12F
100
AcDbEntity
  8
0
  6
HIDDEN
 62
   174
100
AcDbPolyline
 90
        4
 70
   128
 10
97.6926
 20
226.806473
 10
97.82572
 20
226.198114
 10
98.058803
 20
225.587039
 10
98.356699
 20
225.01275
  0
LINE
  5
130
100
AcDbEntity
  8
0
  6
HIDDEN
 62
   174
100
AcDbLine
 10
115.1926
 20
187.350047
 30
0.0
 11
115.1926
 21
190.887065
 31
0.0
  0
LWPOLYLINE
  5
131
100
AcDbEntity
  8
0
  6
HIDDEN
 62
   174
100
AcDbPolyline
 90
        6
 70
   128
 10
322.1926
 20
238.962999
 10
322.020257
 20
239.965174
 10
321.568457
 20
240.794748
 10
320.905387
 20
241.425998
 10
320.096856
 20
241.823475
 10
319.1926
 20
241.962999
  0
LINE
  5
132
100
AcDbEntity
  8
0
  6
Continuous
 62
   174
100
AcDbLine
 10
296.218228
 20
238.962999
 30
0.0
 11
293.21806
 21
238.962999
 31
0.0
  0
LINE
  5
133
100
AcDbEntity
  8
0
  6
Continuous
 62
   174
100
AcDbLine
 10
337.1926
 20
242.99685
 30
0.0
 11
337.1926
 21
240.71135
 31
0.0
  0
LINE
  5
134
100
AcDbEntity
  8
0
  6
Continuous
 62
   174
100
AcDbLine
 10
330.3926
 20
198.503509
 30
0.0
 11
330.3926
 21
201.081305
 31
0.0
  0
LINE
  5
135
100
AcDbEntity
  8
0
  6
Continuous
 62
   174
100
AcDbLine
 10
105.1926
 20
241.996794
 30
0.0
 11
105.1926
 21
240.603504
 31
0.0
  0
LINE
  5
136
100
AcDbEntity
  8
0
  6
HIDDEN
 62
   174
100
AcDbLine
 10
146.2182
 20
212.962999
 30
0.0
 11
143.218331
 21
212.962999
 31
0.0
  0
LINE
  5
137
100
AcDbEntity
  8
0
  6
Continuous
 62
   174
100
AcDbLine
 10
105.1926
 20
240.603504
 30
0.0
 11
105.1926
 21
233.997545
 31
0.0
  0
LWPOLYLINE
  5
138
100
AcDbEntity
  8
0
  6
HIDDEN
 62
   174
100
AcDbPolyline
 90
        4
 70
   128
 10
340.99978
 20
229.385339
 10
341.32768
 20
230.638154
 10
341.560434
 20
231.860975
 10
341.6926
 20
233.071388
  0
LINE
  5
139
100
AcDbEntity
  8
0
  6
HIDDEN
 62
   174
100
AcDbLine
 10
292.6926
 20
184.962999
 30
0.0
 11
292.6926
 21
212.962999
 31
0.0
  0
LINE
  5
13A
100
AcDbEntity
  8
0
  6
HIDDEN
 62
   174
100
AcDbLine
 10
214.1726
 20
211.962999
 30
0.0
 11
214.1726
 21
225.962999
 31
0.0
  0
LINE
  5
13B
100
AcDbEntity
  8
0
  6
Continuous
 62
   174
100
AcDbLine
 10
322.6926
 20
212.962999
 30
0.0
 11
322.6926
 21
184.962999
 31
0.0
  0
LINE
  5
13C
100
AcDbEntity
  8
0
  6
Continuous
 62
   174
100
AcDbLine
 10
341.6926
 20
227.698084
 30
0.0
 11
341.6926
 21
226.806473
 31
0.0
  0
LWPOLYLINE
  5
13D
100
AcDbEntity
  8
0
  6
Continuous
 62
   174
100
AcDbPolyline
 90
        4
 70
   128
 10
322.1926
 20
236.746881
 10
322.18004
 20
235.850146
 10
322.159635
 20
234.911992
 10
322.15064
 20
233.962999
  0
LINE
  5
13E
100
AcDbEntity
  8
0
  6
HIDDEN
 62
   174
100
AcDbLine
 10
108.9926
 20
204.578644
 30
0.0
 11
115.1926
 21
204.578644
 31
0.0
  0
LINE
  5
13F
100
AcDbEntity
  8
0
  6
HIDDEN
 62
   174
100
AcDbLine
 10
143.1926
 20
212.962999
 30
0.0
 11
120.1926
 21
212.962999
 31
0.0
  0
LINE
  5
140
100
AcDbEntity
  8
0
  6
HIDDEN
 62
   174
100
AcDbLine
 10
115.1926
 20
201.044594
 30
0.0
 11
115.1926
 21
204.578644
 31
0.0
  0
LINE
  5
141
100
AcDbEntity
  8
0
  6
HIDDEN
 62
   174
100
AcDbLine
 10
337.8926
 20
242.996249
 30
0.0
 11
337.8926
 21
242.99685
 31
0.0
  0
ARC
  5
142
100
AcDbEntity
  8
0
  6
HIDDEN
 62
   174
100
AcDbCircle
 10
319.1926
 20
238.962999
 30
0.0
 40
3.0
100
AcDbArc
 50
72.0
 51
90.0
  0
LINE
  5
143
100
AcDbEntity
  8
0
  6
Continuous
 62
   174
100
AcDbLine
 10
324.1926
 20
197.495942
 30
0.0
 11
324.1926
 21
193.503828
 31
0.0
  0
ARC
  5
144
100
AcDbEntity
  8
0
  6
Continuous
 62
   174
100
AcDbCircle
 10
203.6926
 20
175.962999
 30
0.0
 40
3.3
100
AcDbArc
 50
-180.0
 51
0.0
  0
LINE
  5
145
100
AcDbEntity
  8
0
  6
Continuous
 62
   174
100
AcDbLine
 10
143.1926
 20
238.962999
 30
0.0
 11
143.1926
 21
212.962999
 31
0.0
  0
LINE
  5
146
100
AcDbEntity
  8
0
  6
HIDDEN
 62
   174
100
AcDbLine
 10
143.1926
 20
238.997226
 30
0.0
 11
143.1926
 21
241.996794
 31
0.0
  0
LINE
  5
147
100
AcDbEntity
  8
0
  6
Continuous
 62
   174
100
AcDbLine
 10
337.1926
 20
227.28344
 30
0.0
 11
337.1926
 21
224.99824
 31
0.0
  0
LINE
  5
148
100
AcDbEntity
  8
0
  6
HIDDEN
 62
   174
100
AcDbLine
 10
322.1926
 20
231.21367
 30
0.0
 11
322.1926
 21
225.997996
 31
0.0
  0
LINE
  5
149
100
AcDbEntity
  8
0
  6
Continuous
 62
   174
100
AcDbLine
 10
324.1926
 20
205.962999
 30
0.0
 11
322.6926
 21
205.962999
 31
0.0
  0
ARC
  5
14A
100
AcDbEntity
  8
0
  6
Continuous
 62
   174
100
AcDbCircle
 10
235.6926
 20
175.962999
 30
0.0
 40
3.3
100
AcDbArc
 50
0.0
 51
180.0
  0
LINE
  5
14B
100
AcDbEntity
  8
0
  6
Continuous
 62
   174
100
AcDbLine
 10
330.3926
 20
201.044594
 30
0.0
 11
330.3926
 21
204.578644
 31
0.0
  0
LINE
  5
14C
100
AcDbEntity
  8
0
  6
Continuous
 62
   174
100
AcDbLine
 10
117.1926
 20
231.179117
 30
0.0
 11
117.1926
 21
212.962999
 31
0.0
  0
LINE
  5
14D
100
AcDbEntity
  8
0
  6
Continuous
 62
   174
100
AcDbLine
 10
102.1926
 20
233.997545
 30
0.0
 11
102.1926
 21
240.711651
 31
0.0
  0
LINE
  5
14E
100
AcDbEntity
  8
0
  6
HIDDEN
 62
   174
100
AcDbLine
 10
108.9926
 20
190.887065
 30
0.0
 11
115.1926
 21
190.887065
 31
0.0
  0
LINE
  5
14F
100
AcDbEntity
  8
0
  6
HIDDEN
 62
   174
100
AcDbLine
 10
108.9926
 20
187.350047
 30
0.0
 11
115.1926
 21
187.350047
 31
0.0
  0
LINE
  5
150
100
AcDbEntity
  8
0
  6
HIDDEN
 62
   174
100
AcDbLine
 10
120.1926
 20
212.962999
 30
0.0
 11
120.1926
 21
238.962999
 31
0.0
  0
LINE
  5
151
100
AcDbEntity
  8
0
  6
HIDDEN
 62
   174
100
AcDbLine
 10
194.2926
 20
211.962999
 30
0.0
 11
194.2926
 21
225.962999
 31
0.0
  0
LINE
  5
152
100
AcDbEntity
  8
0
  6
Continuous
 62
   174
100
AcDbLine
 10
330.3926
 20
198.466366
 30
0.0
 11
324.1926
 21
198.466366
 31
0.0
  0
LINE
  5
153
100
AcDbEntity
  8
0
  6
Continuous
 62
   174
100
AcDbLine
 10
108.9926
 20
198.462999
 30
0.0
 11
108.9926
 21
193.462999
 31
0.0
  0
LINE
  5
154
100
AcDbEntity
  8
0
  6
Continuous
 62
   174
100
AcDbLine
 10
330.3926
 20
193.466367
 30
0.0
 11
330.3926
 21
198.466366
 31
0.0
  0
LINE
  5
155
100
AcDbEntity
  8
0
  6
HIDDEN
 62
   174
100
AcDbLine
 10
194.2926
 20
225.962999
 30
0.0
 11
194.2926
 21
210.962999
 31
0.0
  0
LINE
  5
156
100
AcDbEntity
  8
0
  6
HIDDEN
 62
   174
100
AcDbLine
 10
226.2926
 20
211.962999
 30
0.0
 11
226.2926
 21
225.962999
 31
0.0
  0
LINE
  5
157
100
AcDbEntity
  8
0
  6
Continuous
 62
   174
100
AcDbLine
 10
337.8926
 20
233.997545
 30
0.0
 11
337.8926
 21
238.418941
 31
0.0
  0
LINE
  5
158
100
AcDbEntity
  8
0
  6
Continuous
 62
   174
100
AcDbLine
 10
337.8926
 20
224.99824
 30
0.0
 11
337.8926
 21
229.575849
 31
0.0
  0
LINE
  5
159
100
AcDbEntity
  8
0
  6
Continuous
 62
   174
100
AcDbLine
 10
108.9926
 20
193.462999
 30
0.0
 11
115.1926
 21
193.462999
 31
0.0
  0
LINE
  5
15A
100
AcDbEntity
  8
0
  6
Continuous
 62
   174
100
AcDbLine
 10
120.218239
 20
238.962999
 30
0.0
 11
117.21837
 21
238.962999
 31
0.0
  0
ARC
  5
15B
100
AcDbEntity
  8
0
  6
HIDDEN
 62
   174
100
AcDbCircle
 10
319.1926
 20
238.962999
 30
0.0
 40
3.0
100
AcDbArc
 50
54.0
 51
72.0
  0
LINE
  5
15C
100
AcDbEntity
  8
0
  6
HIDDEN
 62
   174
100
AcDbLine
 10
337.8926
 20
224.99824
 30
0.0
 11
337.8926
 21
224.998541
 31
0.0
  0
LINE
  5
15D
100
AcDbEntity
  8
0
  6
Continuous
 62
   174
100
AcDbLine
 10
108.9926
 20
201.078601
 30
0.0
 11
108.9926
 21
198.499904
 31
0.0
  0
LINE
  5
15E
100
AcDbEntity
  8
0
  6
HIDDEN
 62
   174
100
AcDbLine
 10
226.318231
 20
225.962999
 30
0.0
 11
245.118327
 21
225.962999
 31
0.0
  0
LINE
  5
15F
100
AcDbEntity
  8
0
  6
Continuous
 62
   174
100
AcDbLine
 10
108.9926
 20
187.386031
 30
0.0
 11
108.9926
 21
186.318083
 31
0.0
  0
LWPOLYLINE
  5
160
100
AcDbEntity
  8
0
  6
Continuous
 62
   174
100
AcDbPolyline
 90
        4
 70
   128
 10
340.99978
 20
229.541109
 10
341.32768
 20
228.914701
 10
341.560434
 20
228.303288
 10
341.6926
 20
227.698084
  0
LINE
  5
161
100
AcDbEntity
  8
0
  6
HIDDEN
 62
   174
100
AcDbLine
 10
101.4926
 20
229.541109
 30
0.0
 11
101.4926
 21
238.38489
 31
0.0
  0
LINE
  5
162
100
AcDbEntity
  8
0
  6
Continuous
 62
   174
100
AcDbLine
 10
108.9926
 20
205.645135
 30
0.0
 11
115.1926
 21
205.645135
 31
0.0
  0
ARC
  5
163
100
AcDbEntity
  8
0
  6
HIDDEN
 62
   174
100
AcDbCircle
 10
120.1926
 20
238.962999
 30
0.0
 40
3.0
100
AcDbArc
 50
90.0
 51
180.0
  0
LINE
  5
164
100
AcDbEntity
  8
0
  6
HIDDEN
 62
   174
100
AcDbLine
 10
117.1926
 20
236.746881
 30
0.0
 11
117.1926
 21
238.962999
 31
0.0
  0
LINE
  5
165
100
AcDbEntity
  8
0
  6
HIDDEN
 62
   174
100
AcDbLine
 10
213.0926
 20
211.962999
 30
0.0
 11
213.0926
 21
225.962999
 31
0.0
  0
LINE
  5
166
100
AcDbEntity
  8
0
  6
Continuous
 62
   174
100
AcDbLine
 10
296.1926
 20
241.996794
 30
0.0
 11
296.1926
 21
238.997226
 31
0.0
  0
LINE
  5
167
100
AcDbEntity
  8
0
  6
Continuous
 62
   174
100
AcDbLine
 10
337.1926
 20
240.71135
 30
0.0
 11
337.1926
 21
233.997545
 31
0.0
  0
LINE
  5
168
100
AcDbEntity
  8
0
  6
Continuous
 62
   174
100
AcDbLine
 10
337.1926
 20
233.997545
 30
0.0
 11
337.1926
 21
227.28344
 31
0.0
  0
LINE
  5
169
100
AcDbEntity
  8
0
  6
HIDDEN
 62
   174
100
AcDbLine
 10
322.1926
 20
236.78112
 30
0.0
 11
322.1926
 21
238.997226
 31
0.0
  0
LINE
  5
16A
100
AcDbEntity
  8
0
  6
Continuous
 62
   174
100
AcDbLine
 10
108.9926
 20
204.576878
 30
0.0
 11
108.9926
 21
201.041599
 31
0.0
  0
LINE
  5
16B
100
AcDbEntity
  8
0
  6
Continuous
 62
   174
100
AcDbLine
 10
146.6926
 20
212.962999
 30
0.0
 11
116.6926
 21
212.962999
 31
0.0
  0
LINE
  5
16C
100
AcDbEntity
  8
0
  6
HIDDEN
 62
   174
100
AcDbLine
 10
246.198292
 20
225.962999
 30
0.0
 11
225.238266
 21
225.962999
 31
0.0
  0
ARC
  5
16D
100
AcDbEntity
  8
0
  6
Continuous
 62
   174
100
AcDbCircle
 10
235.6926
 20
175.962999
 30
0.0
 40
3.3
100
AcDbArc
 50
-180.0
 51
0.0
  0
LINE
  5
16E
100
AcDbEntity
  8
0
  6
HIDDEN
 62
   174
100
AcDbLine
 10
324.1926
 20
198.462999
 30
0.0
 11
324.1926
 21
193.462999
 31
0.0
  0
LINE
  5
16F
100
AcDbEntity
  8
0
  6
Continuous
 62
   174
100
AcDbLine
 10
337.8926
 20
224.963449
 30
0.0
 11
340.99978
 21
224.963449
 31
0.0
  0
LINE
  5
170
100
AcDbEntity
  8
0
  6
Continuous
 62
   174
100
AcDbLine
 10
108.9926
 20
204.576878
 30
0.0
 11
115.1926
 21
204.576878
 31
0.0
  0
LINE
  5
171
100
AcDbEntity
  8
0
  6
Continuous
 62
   174
100
AcDbLine
 10
108.9926
 20
201.041599
 30
0.0
 11
115.1926
 21
201.041599
 31
0.0
  0
LINE
  5
172
100
AcDbEntity
  8
0
  6
Continuous
 62
   174
100
AcDbLine
 10
330.3926
 20
205.646004
 30
0.0
 11
324.1926
 21
205.646004
 31
0.0
  0
LINE
  5
173
100
AcDbEntity
  8
0
  6
Continuous
 62
   174
100
AcDbLine
 10
292.6926
 20
184.962999
 30
0.0
 11
322.6926
 21
184.962999
 31
0.0
  0
ARC
  5
174
100
AcDbEntity
  8
0
  6
Continuous
 62
   174
100
AcDbCircle
 10
187.6926
 20
215.962999
 30
0.0
 40
3.3
100
AcDbArc
 50
-180.0
 51
0.0
  0
LINE
  5
175
100
AcDbEntity
  8
0
  6
Continuous
 62
   174
100
AcDbLine
 10
108.9926
 20
205.681744
 30
0.0
 11
108.9926
 21
204.613495
 31
0.0
  0
LINE
  5
176
100
AcDbEntity
  8
0
  6
Continuous
 62
   174
100
AcDbLine
 10
117.1926
 20
238.962999
 30
0.0
 11
117.1926
 21
236.746881
 31
0.0
  0
LINE
  5
177
100
AcDbEntity
  8
0
  6
HIDDEN
 62
   174
100
AcDbLine
 10
245.0926
 20
211.962999
 30
0.0
 11
245.0926
 21
225.962999
 31
0.0
  0
LWPOLYLINE
  5
178
100
AcDbEntity
  8
0
  6
HIDDEN
 62
   174
100
AcDbPolyline
 90
        4
 70
   128
 10
98.38542
 20
229.541109
 10
98.05752
 20
228.914701
 10
97.824765
 20
228.303288
 10
97.6926
 20
227.698084
  0
LINE
  5
179
100
AcDbEntity
  8
0
  6
HIDDEN
 62
   174
100
AcDbLine
 10
108.9926
 20
193.466367
 30
0.0
 11
115.1926
 21
193.466367
 31
0.0
  0
LINE
  5
17A
100
AcDbEntity
  8
0
  6
Continuous
 62
   174
100
AcDbLine
 10
105.1926
 20
233.997545
 30
0.0
 11
105.1926
 21
227.390985
 31
0.0
  0
LINE
  5
17B
100
AcDbEntity
  8
0
  6
Continuous
 62
   174
100
AcDbLine
 10
101.4926
 20
224.963449
 30
0.0
 11
98.38542
 21
224.963449
 31
0.0
  0
LINE
  5
17C
100
AcDbEntity
  8
0
  6
Continuous
 62
   174
100
AcDbLine
 10
341.6926
 20
241.15355
 30
0.0
 11
341.6926
 21
241.797023
 31
0.0
  0
LINE
  5
17D
100
AcDbEntity
  8
0
  6
Continuous
 62
   174
100
AcDbLine
 10
324.1926
 20
185.962999
 30
0.0
 11
322.6926
 21
185.962999
 31
0.0
  0
LINE
  5
17E
100
AcDbEntity
  8
0
  6
HIDDEN
 62
   174
100
AcDbLine
 10
245.0926
 20
225.962999
 30
0.0
 11
245.0926
 21
210.962999
 31
0.0
  0
LINE
  5
17F
100
AcDbEntity
  8
0
  6
HIDDEN
 62
   174
100
AcDbLine
 10
340.99978
 20
238.540659
 30
0.0
 11
337.8926
 21
238.540659
 31
0.0
  0
LINE
  5
180
100
AcDbEntity
  8
0
  6
Continuous
 62
   174
100
AcDbLine
 10
330.3926
 20
186.281088
 30
0.0
 11
324.1926
 21
186.281088
 31
0.0
  0
LINE
  5
181
100
AcDbEntity
  8
0
  6
Continuous
 62
   174
100
AcDbLine
 10
143.1926
 20
241.962999
 30
0.0
 11
120.1926
 21
241.962999
 31
0.0
  0
LINE
  5
182
100
AcDbEntity
  8
0
  6
HIDDEN
 62
   174
100
AcDbLine
 10
337.8926
 20
224.963449
 30
0.0
 11
337.8926
 21
229.385339
 31
0.0
  0
LINE
  5
183
100
AcDbEntity
  8
0
  6
Continuous
 62
   174
100
AcDbLine
 10
341.6926
 20
227.73315
 30
0.0
 11
341.6926
 21
240.261941
 31
0.0
  0
LINE
  5
184
100
AcDbEntity
  8
0
  6
HIDDEN
 62
   174
100
AcDbLine
 10
322.1926
 20
225.962999
 30
0.0
 11
322.1926
 21
212.962999
 31
0.0
  0
LINE
  5
185
100
AcDbEntity
  8
0
  6
Continuous
 62
   174
100
AcDbLine
 10
120.1926
 20
238.997226
 30
0.0
 11
120.1926
 21
241.996794
 31
0.0
  0
LINE
  5
186
100
AcDbEntity
  8
0
  6
HIDDEN
 62
   174
100
AcDbLine
 10
337.8926
 20
229.385339
 30
0.0
 11
337.8926
 21
238.540659
 31
0.0
  0
LINE
  5
187
100
AcDbEntity
  8
0
  6
Continuous
 62
   174
100
AcDbLine
 10
98.358742
 20
225.010875
 30
0.0
 11
97.84194
 21
226.241169
 31
0.0
  0
LINE
  5
188
100
AcDbEntity
  8
0
  6
Continuous
 62
   174
100
AcDbLine
 10
341.6926
 20
226.198068
 30
0.0
 11
341.6926
 21
226.84154
 31
0.0
  0
LINE
  5
189
100
AcDbEntity
  8
0
  6
Continuous
 62
   174
100
AcDbLine
 10
98.35798
 20
242.913756
 30
0.0
 11
98.38542
 21
242.96255
 31
0.0
  0
LINE
  5
18A
100
AcDbEntity
  8
0
  6
HIDDEN
 62
   174
100
AcDbLine
 10
108.9926
 20
198.466366
 30
0.0
 11
115.1926
 21
198.466366
 31
0.0
  0
LINE
  5
18B
100
AcDbEntity
  8
0
  6
HIDDEN
 62
   174
100
AcDbLine
 10
117.21837
 20
212.962999
 30
0.0
 11
120.218239
 21
212.962999
 31
0.0
  0
LINE
  5
18C
100
AcDbEntity
  8
0
  6
Continuous
 62
   174
100
AcDbLine
 10
115.1926
 20
201.078601
 30
0.0
 11
115.1926
 21
204.613495
 31
0.0
  0
LINE
  5
18D
100
AcDbEntity
  8
0
  6
Continuous
 62
   174
100
AcDbLine
 10
146.1926
 20
212.962999
 30
0.0
 11
146.1926
 21
238.962999
 31
0.0
  0
LINE
  5
18E
100
AcDbEntity
  8
0
  6
Continuous
 62
   174
100
AcDbLine
 10
97.842111
 20
241.685466
 30
0.0
 11
98.358766
 21
242.915167
 31
0.0
  0
LINE
  5
18F
100
AcDbEntity
  8
0
  6
Continuous
 62
   174
100
AcDbLine
 10
115.1926
 20
186.000853
 30
0.0
 11
115.1926
 21
186.318083
 31
0.0
  0
LINE
  5
190
100
AcDbEntity
  8
0
  6
HIDDEN
 62
   174
100
AcDbLine
 10
213.0926
 20
225.962999
 30
0.0
 11
213.0926
 21
210.962999
 31
0.0
  0
LINE
  5
191
100
AcDbEntity
  8
0
  6
HIDDEN
 62
   174
100
AcDbLine
 10
246.198292
 20
211.962999
 30
0.0
 11
225.238266
 21
211.962999
 31
0.0
  0
LINE
  5
192
100
AcDbEntity
  8
0
  6
HIDDEN
 62
   174
100
AcDbLine
 10
322.1926
 20
231.179117
 30
0.0
 11
322.1926
 21
225.962999
 31
0.0
  0
LINE
  5
193
100
AcDbEntity
  8
0
  6
Continuous
 62
   174
100
AcDbLine
 10
324.1926
 20
198.503509
 30
0.0
 11
324.1926
 21
197.495942
 31
0.0
  0
LINE
  5
194
100
AcDbEntity
  8
0
  6
HIDDEN
 62
   174
100
AcDbLine
 10
246.1726
 20
211.962999
 30
0.0
 11
246.1726
 21
225.962999
 31
0.0
  0
LINE
  5
195
100
AcDbEntity
  8
0
  6
Continuous
 62
   174
100
AcDbLine
 10
116.6926
 20
184.962999
 30
0.0
 11
116.6926
 21
212.962999
 31
0.0
  0
LINE
  5
196
100
AcDbEntity
  8
0
  6
Continuous
 62
   174
100
AcDbLine
 10
101.4926
 20
238.574853
 30
0.0
 11
101.4926
 21
233.997545
 31
0.0
  0
LINE
  5
197
100
AcDbEntity
  8
0
  6
HIDDEN
 62
   174
100
AcDbLine
 10
324.1926
 20
190.884069
 30
0.0
 11
324.1926
 21
187.34828
 31
0.0
  0
LINE
  5
198
100
AcDbEntity
  8
0
  6
Continuous
 62
   174
100
AcDbLine
 10
108.9926
 20
187.34828
 30
0.0
 11
115.1926
 21
187.34828
 31
0.0
  0
LINE
  5
199
100
AcDbEntity
  8
0
  6
Continuous
 62
   174
100
AcDbLine
 10
330.3926
 20
187.350047
 30
0.0
 11
330.3926
 21
190.887065
 31
0.0
  0
LINE
  5
19A
100
AcDbEntity
  8
0
  6
HIDDEN
 62
   174
100
AcDbLine
 10
226.2926
 20
211.962999
 30
0.0
 11
226.2926
 21
225.962999
 31
0.0
  0
LINE
  5
19B
100
AcDbEntity
  8
0
  6
HIDDEN
 62
   174
100
AcDbLine
 10
143.1926
 20
238.962999
 30
0.0
 11
120.1926
 21
238.962999
 31
0.0
  0
ARC
  5
19C
100
AcDbEntity
  8
0
  6
Continuous
 62
   174
100
AcDbCircle
 10
203.6926
 20
175.962999
 30
0.0
 40
3.3
100
AcDbArc
 50
0.0
 51
180.0
  0
LINE
  5
19D
100
AcDbEntity
  8
0
  6
Continuous
 62
   174
100
AcDbLine
 10
337.8926
 20
242.96255
 30
0.0
 11
340.99978
 21
242.96255
 31
0.0
  0
LINE
  5
19E
100
AcDbEntity
  8
0
  6
HIDDEN
 62
   174
100
AcDbLine
 10
337.8926
 20
229.385339
 30
0.0
 11
340.99978
 21
229.385339
 31
0.0
  0
LINE
  5
19F
100
AcDbEntity
  8
0
  6
HIDDEN
 62
   174
100
AcDbLine
 10
213.0926
 20
211.962999
 30
0.0
 11
213.0926
 21
225.962999
 31
0.0
  0
LINE
  5
1A0
100
AcDbEntity
  8
0
  6
Continuous
 62
   174
100
AcDbLine
 10
101.4926
 20
242.96255
 30
0.0
 11
98.38542
 21
242.96255
 31
0.0
  0
ARC
  5
1A1
100
AcDbEntity
  8
0
  6
HIDDEN
 62
   174
100
AcDbCircle
 10
319.1926
 20
238.962999
 30
0.0
 40
3.0
100
AcDbArc
 50
0.0
 51
18.0
  0
LINE
  5
1A2
100
AcDbEntity
  8
0
  6
Continuous
 62
   174
100
AcDbLine
 10
115.1926
 20
187.386031
 30
0.0
 11
115.1926
 21
190.921526
 31
0.0
  0
LINE
  5
1A3
100
AcDbEntity
  8
0
  6
Continuous
 62
   174
100
AcDbLine
 10
341.6926
 20
241.119526
 30
0.0
 11
341.6926
 21
240.227914
 31
0.0
  0
LWPOLYLINE
  5
1A4
100
AcDbEntity
  8
0
  6
Continuous
 62
   174
100
AcDbPolyline
 90
        4
 70
   128
 10
341.6926
 20
240.227914
 10
341.559479
 20
239.619555
 10
341.326397
 20
239.008481
 10
340.99978
 20
238.38489
  0
LINE
  5
1A5
100
AcDbEntity
  8
0
  6
Continuous
 62
   174
100
AcDbLine
 10
108.9926
 20
190.884069
 30
0.0
 11
108.9926
 21
187.34828
 31
0.0
  0
LINE
  5
1A6
100
AcDbEntity
  8
0
  6
HIDDEN
 62
   174
100
AcDbLine
 10
319.218321
 20
212.962999
 30
0.0
 11
322.218189
 21
212.962999
 31
0.0
  0
LINE
  5
1A7
100
AcDbEntity
  8
0
  6
HIDDEN
 62
   174
100
AcDbLine
 10
225.2126
 20
211.962999
 30
0.0
 11
225.2126
 21
225.962999
 31
0.0
  0
LINE
  5
1A8
100
AcDbEntity
  8
0
  6
HIDDEN
 62
   174
100
AcDbLine
 10
143.1926
 20
212.962999
 30
0.0
 11
143.1926
 21
238.962999
 31
0.0
  0
LINE
  5
1A9
100
AcDbEntity
  8
0
  6
Continuous
 62
   174
100
AcDbLine
 10
98.38542
 20
224.963449
 30
0.0
 11
98.357947
 21
225.012285
 31
0.0
  0
LINE
  5
1AA
100
AcDbEntity
  8
0
  6
HIDDEN
 62
   174
100
AcDbLine
 10
330.3926
 20
193.462999
 30
0.0
 11
324.1926
 21
193.462999
 31
0.0
  0
LINE
  5
1AB
100
AcDbEntity
  8
0
  6
Continuous
 62
   174
100
AcDbLine
 10
293.1926
 20
238.962999
 30
0.0
 11
293.1926
 21
212.962999
 31
0.0
  0
LINE
  5
1AC
100
AcDbEntity
  8
0
  6
HIDDEN
 62
   174
100
AcDbLine
 10
146.1926
 20
238.962999
 30
0.0
 11
146.1926
 21
212.962999
 31
0.0
  0
ARC
  5
1AD
100
AcDbEntity
  8
0
  6
Continuous
 62
   174
100
AcDbCircle
 10
143.1926
 20
238.962999
 30
0.0
 40
3.0
100
AcDbArc
 50
0.0
 51
90.0
  0
ENDBLK
  5
1AE
100
AcDbEntity
  8
0
100
AcDbBlockEnd
  0
BLOCK
  5
1B1
100
AcDbEntity
  8
0
100
AcDbBlockBegin
  2
*B2
 70
     0
 10
0.0
 20
0.0
 30
0.0
  3
*B2
  1

  0
LINE
  5
1B2
100
AcDbEntity
  8
0
  6
Continuous
 62
   174
100
AcDbLine
 10
157.548378
 20
97.690616
 30
0.0
 11
157.548378
 21
92.498622
 31
0.0
  0
LINE
  5
1B3
100
AcDbEntity
  8
0
  6
Continuous
 62
   174
100
AcDbLine
 10
281.836822
 20
92.498622
 30
0.0
 11
281.836822
 21
97.690616
 31
0.0
  0
ARC
  5
1B4
100
AcDbEntity
  8
0
  6
Continuous
 62
   174
100
AcDbCircle
 10
157.6926
 20
95.094619
 30
0.0
 40
2.6
100
AcDbArc
 50
-86.82017
 51
86.82017
  0
ARC
  5
1B5
100
AcDbEntity
  8
0
  6
Continuous
 62
   174
100
AcDbCircle
 10
281.6926
 20
95.094619
 30
0.0
 40
2.6
100
AcDbArc
 50
-266.82017
 51
-93.17983
  0
LINE
  5
1B6
100
AcDbEntity
  8
0
  6
Continuous
 62
   174
100
AcDbLine
 10
157.836822
 20
92.498622
 30
0.0
 11
157.836822
 21
97.690616
 31
0.0
  0
LINE
  5
1B7
100
AcDbEntity
  8
0
  6
Continuous
 62
   174
100
AcDbLine
 10
281.548378
 20
97.690616
 30
0.0
 11
281.548378
 21
92.498622
 31
0.0
  0
ARC
  5
1B8
100
AcDbEntity
  8
0
  6
Continuous
 62
   174
100
AcDbCircle
 10
131.6926
 20
95.094619
 30
0.0
 40
3.4
100
AcDbArc
 50
-270.0
 51
-90.0
  0
ARC
  5
1B9
100
AcDbEntity
  8
0
  6
Continuous
 62
   174
100
AcDbCircle
 10
131.6926
 20
95.094619
 30
0.0
 40
3.4
100
AcDbArc
 50
-90.0
 51
90.0
  0
ARC
  5
1BA
100
AcDbEntity
  8
0
  6
Continuous
 62
   174
100
AcDbCircle
 10
307.6926
 20
95.094619
 30
0.0
 40
3.4
100
AcDbArc
 50
-90.0
 51
90.0
  0
ARC
  5
1BB
100
AcDbEntity
  8
0
  6
Continuous
 62
   174
100
AcDbCircle
 10
307.6926
 20
95.094619
 30
0.0
 40
3.4
100
AcDbArc
 50
-270.0
 51
-90.0
  0
ARC
  5
1BC
100
AcDbEntity
  8
0
  6
Continuous
 62
   174
100
AcDbCircle
 10
131.6926
 20
95.094619
 30
0.0
 40
3.0
100
AcDbArc
 50
-217.286546
 51
-52.713454
  0
ARC
  5
1BD
100
AcDbEntity
  8
0
  6
Continuous
 62
   174
100
AcDbCircle
 10
307.6926
 20
95.094619
 30
0.0
 40
3.0
100
AcDbArc
 50
-37.286546
 51
127.286546
  0
LINE
  5
1BE
100
AcDbEntity
  8
0
  6
Continuous
 62
   174
100
AcDbLine
 10
129.305753
 20
96.912024
 30
0.0
 11
133.510005
 21
92.707772
 31
0.0
  0
LINE
  5
1BF
100
AcDbEntity
  8
0
  6
Continuous
 62
   174
100
AcDbLine
 10
334.1926
 20
88.594619
 30
0.0
 11
337.1926
 21
88.594619
 31
0.0
  0
LINE
  5
1C0
100
AcDbEntity
  8
0
  6
Continuous
 62
   174
100
AcDbLine
 10
102.1926
 20
104.094619
 30
0.0
 11
101.4926
 21
104.094619
 31
0.0
  0
LINE
  5
1C1
100
AcDbEntity
  8
0
  6
Continuous
 62
   174
100
AcDbLine
 10
105.1926
 20
87.094619
 30
0.0
 11
117.23456
 21
87.094619
 31
0.0
  0
LINE
  5
1C2
100
AcDbEntity
  8
0
  6
Continuous
 62
   174
100
AcDbLine
 10
334.1926
 20
103.094619
 30
0.0
 11
322.15064
 21
103.094619
 31
0.0
  0
LINE
  5
1C3
100
AcDbEntity
  8
0
  6
Continuous
 62
   174
100
AcDbLine
 10
117.1926
 20
101.339617
 30
0.0
 11
117.1926
 21
102.594619
 31
0.0
  0
LINE
  5
1C4
100
AcDbEntity
  8
0
  6
Continuous
 62
   174
100
AcDbLine
 10
105.1926
 20
88.533068
 30
0.0
 11
105.1926
 21
87.139778
 31
0.0
  0
LINE
  5
1C5
100
AcDbEntity
  8
0
  6
Continuous
 62
   174
100
AcDbLine
 10
101.4926
 20
87.390919
 30
0.0
 11
101.4926
 21
86.139722
 31
0.0
  0
LWPOLYLINE
  5
1C6
100
AcDbEntity
  8
0
  6
Continuous
 62
   174
100
AcDbPolyline
 90
        3
 70
   128
 10
98.38542
 20
102.933425
 10
98.019318
 20
102.933425
 10
97.791218
 20
102.933425
  0
LINE
  5
1C7
100
AcDbEntity
  8
0
  6
Continuous
 62
   174
100
AcDbLine
 10
101.4926
 20
95.004686
 30
0.0
 11
98.38542
 21
95.004686
 31
0.0
  0
ARC
  5
1C8
100
AcDbEntity
  8
0
  6
Continuous
 62
   174
100
AcDbCircle
 10
131.6926
 20
95.094619
 30
0.0
 40
3.0
100
AcDbArc
 50
-41.228296
 51
131.228296
  0
LINE
  5
1C9
100
AcDbEntity
  8
0
  6
Continuous
 62
   174
100
AcDbLine
 10
105.1926
 20
101.594619
 30
0.0
 11
102.1926
 21
101.594619
 31
0.0
  0
LINE
  5
1CA
100
AcDbEntity
  8
0
  6
Continuous
 62
   174
100
AcDbLine
 10
334.1926
 20
101.594619
 30
0.0
 11
337.1926
 21
101.594619
 31
0.0
  0
LINE
  5
1CB
100
AcDbEntity
  8
0
  6
Continuous
 62
   174
100
AcDbLine
 10
276.6926
 20
80.094619
 30
0.0
 11
162.6926
 21
80.094619
 31
0.0
  0
LINE
  5
1CC
100
AcDbEntity
  8
0
  6
Continuous
 62
   174
100
AcDbLine
 10
276.6926
 20
110.094619
 30
0.0
 11
292.6926
 21
110.094619
 31
0.0
  0
LINE
  5
1CD
100
AcDbEntity
  8
0
  6
Continuous
 62
   174
100
AcDbLine
 10
337.1926
 20
104.138331
 30
0.0
 11
337.1926
 21
101.852832
 31
0.0
  0
LINE
  5
1CE
100
AcDbEntity
  8
0
  6
Continuous
 62
   174
100
AcDbLine
 10
337.8926
 20
86.139722
 30
0.0
 11
337.8926
 21
87.300797
 31
0.0
  0
LINE
  5
1CF
100
AcDbEntity
  8
0
  6
Continuous
 62
   174
100
AcDbLine
 10
330.3926
 20
85.458097
 30
0.0
 11
330.3926
 21
86.527247
 31
0.0
  0
LWPOLYLINE
  5
1D0
100
AcDbEntity
  8
0
  6
Continuous
 62
   174
100
AcDbPolyline
 90
        4
 70
   128
 10
97.6926
 20
87.345746
 10
97.82572
 20
87.345746
 10
98.058806
 20
87.345746
 10
98.38542
 20
87.345746
  0
LINE
  5
1D1
100
AcDbEntity
  8
0
  6
Continuous
 62
   174
100
AcDbLine
 10
340.99978
 20
102.843492
 30
0.0
 11
337.8926
 21
102.843492
 31
0.0
  0
LINE
  5
1D2
100
AcDbEntity
  8
0
  6
Continuous
 62
   174
100
AcDbLine
 10
310.079447
 20
93.277214
 30
0.0
 11
305.875195
 21
97.481466
 31
0.0
  0
LINE
  5
1D3
100
AcDbEntity
  8
0
  6
Continuous
 62
   174
100
AcDbLine
 10
337.1926
 20
104.094619
 30
0.0
 11
337.8926
 21
104.094619
 31
0.0
  0
LINE
  5
1D4
100
AcDbEntity
  8
0
  6
Continuous
 62
   174
100
AcDbLine
 10
105.1926
 20
103.094619
 30
0.0
 11
117.23456
 21
103.094619
 31
0.0
  0
LINE
  5
1D5
100
AcDbEntity
  8
0
  6
Continuous
 62
   174
100
AcDbLine
 10
334.1926
 20
87.094619
 30
0.0
 11
322.15064
 21
87.094619
 31
0.0
  0
LINE
  5
1D6
100
AcDbEntity
  8
0
  6
Continuous
 62
   174
100
AcDbLine
 10
293.1926
 20
87.594619
 30
0.0
 11
293.1926
 21
102.594619
 31
0.0
  0
LINE
  5
1D7
100
AcDbEntity
  8
0
  6
Continuous
 62
   174
100
AcDbLine
 10
146.6926
 20
80.094619
 30
0.0
 11
146.6926
 21
110.094619
 31
0.0
  0
LINE
  5
1D8
100
AcDbEntity
  8
0
  6
Continuous
 62
   174
100
AcDbLine
 10
101.4926
 20
102.977257
 30
0.0
 11
101.4926
 21
95.049205
 31
0.0
  0
LINE
  5
1D9
100
AcDbEntity
  8
0
  6
Continuous
 62
   174
100
AcDbLine
 10
97.6926
 20
98.196897
 30
0.0
 11
97.6926
 21
99.741213
 31
0.0
  0
LINE
  5
1DA
100
AcDbEntity
  8
0
  6
Continuous
 62
   174
100
AcDbLine
 10
337.8926
 20
95.184552
 30
0.0
 11
340.99978
 21
95.184552
 31
0.0
  0
ARC
  5
1DB
100
AcDbEntity
  8
0
  6
Continuous
 62
   174
100
AcDbCircle
 10
307.6926
 20
95.094619
 30
0.0
 40
3.0
100
AcDbArc
 50
-221.228296
 51
-48.771704
  0
LINE
  5
1DC
100
AcDbEntity
  8
0
  6
Continuous
 62
   174
100
AcDbLine
 10
105.1926
 20
88.594619
 30
0.0
 11
102.1926
 21
88.594619
 31
0.0
  0
LINE
  5
1DD
100
AcDbEntity
  8
0
  6
Continuous
 62
   174
100
AcDbLine
 10
337.1926
 20
104.094619
 30
0.0
 11
337.8926
 21
104.094619
 31
0.0
  0
LINE
  5
1DE
100
AcDbEntity
  8
0
  6
Continuous
 62
   174
100
AcDbLine
 10
97.6926
 20
102.894619
 30
0.0
 11
97.791196
 21
103.065392
 31
0.0
  0
LINE
  5
1DF
100
AcDbEntity
  8
0
  6
Continuous
 62
   174
100
AcDbLine
 10
334.1926
 20
103.094619
 30
0.0
 11
322.15064
 21
103.094619
 31
0.0
  0
LINE
  5
1E0
100
AcDbEntity
  8
0
  6
Continuous
 62
   174
100
AcDbLine
 10
146.1926
 20
102.594619
 30
0.0
 11
146.1926
 21
87.594619
 31
0.0
  0
LINE
  5
1E1
100
AcDbEntity
  8
0
  6
Continuous
 62
   174
100
AcDbLine
 10
276.6926
 20
110.094619
 30
0.0
 11
276.6926
 21
80.094619
 31
0.0
  0
LINE
  5
1E2
100
AcDbEntity
  8
0
  6
Continuous
 62
   174
100
AcDbLine
 10
276.6926
 20
110.094619
 30
0.0
 11
162.6926
 21
110.094619
 31
0.0
  0
LINE
  5
1E3
100
AcDbEntity
  8
0
  6
Continuous
 62
   174
100
AcDbLine
 10
292.6926
 20
110.094619
 30
0.0
 11
292.6926
 21
80.094619
 31
0.0
  0
LINE
  5
1E4
100
AcDbEntity
  8
0
  6
Continuous
 62
   174
100
AcDbLine
 10
276.6926
 20
80.094619
 30
0.0
 11
292.6926
 21
80.094619
 31
0.0
  0
LINE
  5
1E5
100
AcDbEntity
  8
0
  6
Continuous
 62
   174
100
AcDbLine
 10
101.4926
 20
104.138331
 30
0.0
 11
101.4926
 21
102.977257
 31
0.0
  0
LINE
  5
1E6
100
AcDbEntity
  8
0
  6
Continuous
 62
   174
100
AcDbLine
 10
337.8926
 20
102.887435
 30
0.0
 11
337.8926
 21
104.138331
 31
0.0
  0
LINE
  5
1E7
100
AcDbEntity
  8
0
  6
Continuous
 62
   174
100
AcDbLine
 10
337.8926
 20
87.300797
 30
0.0
 11
337.8926
 21
95.229149
 31
0.0
  0
LINE
  5
1E8
100
AcDbEntity
  8
0
  6
Continuous
 62
   174
100
AcDbLine
 10
97.6926
 20
102.938504
 30
0.0
 11
97.6926
 21
99.785428
 31
0.0
  0
LINE
  5
1E9
100
AcDbEntity
  8
0
  6
Continuous
 62
   174
100
AcDbLine
 10
97.740254
 20
102.933425
 30
0.0
 11
97.816858
 21
102.933425
 31
0.0
  0
LINE
  5
1EA
100
AcDbEntity
  8
0
  6
Continuous
 62
   174
100
AcDbLine
 10
341.696005
 20
87.255813
 30
0.0
 11
341.619401
 21
87.255813
 31
0.0
  0
LWPOLYLINE
  5
1EB
100
AcDbEntity
  8
0
  6
Continuous
 62
   174
100
AcDbPolyline
 90
        4
 70
   128
 10
98.38542
 20
95.004686
 10
98.05752
 20
96.089655
 10
97.824765
 20
97.148653
 10
97.6926
 20
98.196897
  0
LINE
  5
1EC
100
AcDbEntity
  8
0
  6
Continuous
 62
   174
100
AcDbLine
 10
305.436331
 20
97.071802
 30
0.0
 11
309.669783
 21
92.83835
 31
0.0
  0
LINE
  5
1ED
100
AcDbEntity
  8
0
  6
Continuous
 62
   174
100
AcDbLine
 10
105.1926
 20
88.594619
 30
0.0
 11
102.1926
 21
88.594619
 31
0.0
  0
LINE
  5
1EE
100
AcDbEntity
  8
0
  6
Continuous
 62
   174
100
AcDbLine
 10
162.6926
 20
80.094619
 30
0.0
 11
146.6926
 21
80.094619
 31
0.0
  0
LINE
  5
1EF
100
AcDbEntity
  8
0
  6
Continuous
 62
   174
100
AcDbLine
 10
102.1926
 20
88.425522
 30
0.0
 11
102.1926
 21
101.852832
 31
0.0
  0
LWPOLYLINE
  5
1F0
100
AcDbEntity
  8
0
  6
Continuous
 62
   174
100
AcDbPolyline
 90
        3
 70
   128
 10
340.99978
 20
87.255813
 10
341.365882
 20
87.255813
 10
341.593982
 20
87.255813
  0
LWPOLYLINE
  5
1F1
100
AcDbEntity
  8
0
  6
Continuous
 62
   174
100
AcDbPolyline
 90
        4
 70
   128
 10
97.6926
 20
99.741213
 10
97.82572
 20
100.794922
 10
98.058803
 20
101.853335
 10
98.38542
 20
102.933425
  0
LINE
  5
1F2
100
AcDbEntity
  8
0
  6
Continuous
 62
   174
100
AcDbLine
 10
105.1926
 20
101.594619
 30
0.0
 11
102.1926
 21
101.594619
 31
0.0
  0
LINE
  5
1F3
100
AcDbEntity
  8
0
  6
Continuous
 62
   174
100
AcDbLine
 10
334.1926
 20
88.594619
 30
0.0
 11
337.1926
 21
88.594619
 31
0.0
  0
LINE
  5
1F4
100
AcDbEntity
  8
0
  6
Continuous
 62
   174
100
AcDbLine
 10
102.1926
 20
104.094619
 30
0.0
 11
101.4926
 21
104.094619
 31
0.0
  0
LINE
  5
1F5
100
AcDbEntity
  8
0
  6
Continuous
 62
   174
100
AcDbLine
 10
337.1926
 20
86.094619
 30
0.0
 11
337.8926
 21
86.094619
 31
0.0
  0
LINE
  5
1F6
100
AcDbEntity
  8
0
  6
Continuous
 62
   174
100
AcDbLine
 10
341.6926
 20
87.294619
 30
0.0
 11
341.594004
 21
87.123845
 31
0.0
  0
LINE
  5
1F7
100
AcDbEntity
  8
0
  6
Continuous
 62
   174
100
AcDbLine
 10
105.1926
 20
103.094619
 30
0.0
 11
117.23456
 21
103.094619
 31
0.0
  0
LINE
  5
1F8
100
AcDbEntity
  8
0
  6
Continuous
 62
   174
100
AcDbLine
 10
105.1926
 20
87.094619
 30
0.0
 11
117.23456
 21
87.094619
 31
0.0
  0
LINE
  5
1F9
100
AcDbEntity
  8
0
  6
Continuous
 62
   174
100
AcDbLine
 10
319.1926
 20
84.594619
 30
0.0
 11
296.1926
 21
84.594619
 31
0.0
  0
LINE
  5
1FA
100
AcDbEntity
  8
0
  6
Continuous
 62
   174
100
AcDbLine
 10
276.6926
 20
110.094619
 30
0.0
 11
276.6926
 21
80.094619
 31
0.0
  0
LINE
  5
1FB
100
AcDbEntity
  8
0
  6
Continuous
 62
   174
100
AcDbLine
 10
105.1926
 20
103.138576
 30
0.0
 11
105.1926
 21
101.744986
 31
0.0
  0
LINE
  5
1FC
100
AcDbEntity
  8
0
  6
Continuous
 62
   174
100
AcDbLine
 10
334.1926
 20
101.745286
 30
0.0
 11
334.1926
 21
103.138576
 31
0.0
  0
LINE
  5
1FD
100
AcDbEntity
  8
0
  6
Continuous
 62
   174
100
AcDbLine
 10
334.1926
 20
87.139778
 30
0.0
 11
334.1926
 21
88.533068
 31
0.0
  0
LINE
  5
1FE
100
AcDbEntity
  8
0
  6
Continuous
 62
   174
100
AcDbLine
 10
334.1926
 20
88.533068
 30
0.0
 11
334.1926
 21
101.745286
 31
0.0
  0
LINE
  5
1FF
100
AcDbEntity
  8
0
  6
Continuous
 62
   174
100
AcDbLine
 10
337.8926
 20
95.229149
 30
0.0
 11
337.8926
 21
102.887435
 31
0.0
  0
LINE
  5
200
100
AcDbEntity
  8
0
  6
Continuous
 62
   174
100
AcDbLine
 10
108.9926
 20
86.525445
 30
0.0
 11
108.9926
 21
85.457497
 31
0.0
  0
LINE
  5
201
100
AcDbEntity
  8
0
  6
Continuous
 62
   174
100
AcDbLine
 10
97.6926
 20
98.241034
 30
0.0
 11
97.6926
 21
87.390919
 31
0.0
  0
LWPOLYLINE
  5
202
100
AcDbEntity
  8
0
  6
Continuous
 62
   174
100
AcDbPolyline
 90
        4
 70
   128
 10
341.6926
 20
90.448024
 10
341.559479
 20
89.394316
 10
341.326397
 20
88.335903
 10
340.99978
 20
87.255813
  0
LINE
  5
203
100
AcDbEntity
  8
0
  6
Continuous
 62
   174
100
AcDbLine
 10
337.8926
 20
87.255813
 30
0.0
 11
340.99978
 21
87.255813
 31
0.0
  0
LWPOLYLINE
  5
204
100
AcDbEntity
  8
0
  6
Continuous
 62
   174
100
AcDbPolyline
 90
        4
 70
   128
 10
340.99978
 20
95.184552
 10
341.32768
 20
94.099583
 10
341.560434
 20
93.040585
 10
341.6926
 20
91.992341
  0
LINE
  5
205
100
AcDbEntity
  8
0
  6
Continuous
 62
   174
100
AcDbLine
 10
133.948868
 20
93.117436
 30
0.0
 11
129.715417
 21
97.350888
 31
0.0
  0
LINE
  5
206
100
AcDbEntity
  8
0
  6
Continuous
 62
   174
100
AcDbLine
 10
102.1926
 20
86.094619
 30
0.0
 11
101.4926
 21
86.094619
 31
0.0
  0
LINE
  5
207
100
AcDbEntity
  8
0
  6
Continuous
 62
   174
100
AcDbLine
 10
117.1926
 20
87.594619
 30
0.0
 11
117.1926
 21
88.849621
 31
0.0
  0
LINE
  5
208
100
AcDbEntity
  8
0
  6
Continuous
 62
   174
100
AcDbLine
 10
322.1926
 20
102.594619
 30
0.0
 11
322.1926
 21
101.339617
 31
0.0
  0
LINE
  5
209
100
AcDbEntity
  8
0
  6
Continuous
 62
   174
100
AcDbLine
 10
162.6926
 20
80.094619
 30
0.0
 11
162.6926
 21
110.094619
 31
0.0
  0
LINE
  5
20A
100
AcDbEntity
  8
0
  6
Continuous
 62
   174
100
AcDbLine
 10
120.1926
 20
105.594619
 30
0.0
 11
143.1926
 21
105.594619
 31
0.0
  0
LINE
  5
20B
100
AcDbEntity
  8
0
  6
Continuous
 62
   174
100
AcDbLine
 10
162.6926
 20
110.094619
 30
0.0
 11
146.6926
 21
110.094619
 31
0.0
  0
LINE
  5
20C
100
AcDbEntity
  8
0
  6
Continuous
 62
   174
100
AcDbLine
 10
105.1926
 20
101.744986
 30
0.0
 11
105.1926
 21
88.533068
 31
0.0
  0
LINE
  5
20D
100
AcDbEntity
  8
0
  6
Continuous
 62
   174
100
AcDbLine
 10
102.1926
 20
101.852832
 30
0.0
 11
102.1926
 21
104.138331
 31
0.0
  0
LINE
  5
20E
100
AcDbEntity
  8
0
  6
Continuous
 62
   174
100
AcDbLine
 10
102.1926
 20
86.139722
 30
0.0
 11
102.1926
 21
88.425522
 31
0.0
  0
LINE
  5
20F
100
AcDbEntity
  8
0
  6
Continuous
 62
   174
100
AcDbLine
 10
337.1926
 20
101.852832
 30
0.0
 11
337.1926
 21
88.425522
 31
0.0
  0
LINE
  5
210
100
AcDbEntity
  8
0
  6
Continuous
 62
   174
100
AcDbLine
 10
108.9926
 20
104.819956
 30
0.0
 11
108.9926
 21
103.751106
 31
0.0
  0
LWPOLYLINE
  5
211
100
AcDbEntity
  8
0
  6
Continuous
 62
   174
100
AcDbPolyline
 90
        4
 70
   128
 10
341.6926
 20
102.843492
 10
341.55948
 20
102.843492
 10
341.326394
 20
102.843492
 10
340.99978
 20
102.843492
  0
LINE
  5
212
100
AcDbEntity
  8
0
  6
Continuous
 62
   174
100
AcDbLine
 10
330.3926
 20
103.752909
 30
0.0
 11
330.3926
 21
104.820857
 31
0.0
  0
LINE
  5
213
100
AcDbEntity
  8
0
  6
Continuous
 62
   174
100
AcDbLine
 10
98.38542
 20
87.345746
 30
0.0
 11
101.4926
 21
87.345746
 31
0.0
  0
LINE
  5
214
100
AcDbEntity
  8
0
  6
Continuous
 62
   174
100
AcDbLine
 10
341.6926
 20
87.339549
 30
0.0
 11
341.6926
 21
90.492926
 31
0.0
  0
LINE
  5
215
100
AcDbEntity
  8
0
  6
Continuous
 62
   174
100
AcDbLine
 10
341.6926
 20
91.992341
 30
0.0
 11
341.6926
 21
90.448024
 31
0.0
  0
LINE
  5
216
100
AcDbEntity
  8
0
  6
Continuous
 62
   174
100
AcDbLine
 10
341.6926
 20
92.03702
 30
0.0
 11
341.6926
 21
102.887435
 31
0.0
  0
LINE
  5
217
100
AcDbEntity
  8
0
  6
Continuous
 62
   174
100
AcDbLine
 10
101.4926
 20
102.933425
 30
0.0
 11
98.38542
 21
102.933425
 31
0.0
  0
LINE
  5
218
100
AcDbEntity
  8
0
  6
Continuous
 62
   174
100
AcDbLine
 10
334.1926
 20
101.594619
 30
0.0
 11
337.1926
 21
101.594619
 31
0.0
  0
LINE
  5
219
100
AcDbEntity
  8
0
  6
Continuous
 62
   174
100
AcDbLine
 10
102.1926
 20
86.094619
 30
0.0
 11
101.4926
 21
86.094619
 31
0.0
  0
LINE
  5
21A
100
AcDbEntity
  8
0
  6
Continuous
 62
   174
100
AcDbLine
 10
337.1926
 20
86.094619
 30
0.0
 11
337.8926
 21
86.094619
 31
0.0
  0
LINE
  5
21B
100
AcDbEntity
  8
0
  6
Continuous
 62
   174
100
AcDbLine
 10
334.1926
 20
87.094619
 30
0.0
 11
322.15064
 21
87.094619
 31
0.0
  0
LINE
  5
21C
100
AcDbEntity
  8
0
  6
Continuous
 62
   174
100
AcDbLine
 10
322.1926
 20
88.849621
 30
0.0
 11
322.1926
 21
87.594619
 31
0.0
  0
LINE
  5
21D
100
AcDbEntity
  8
0
  6
Continuous
 62
   174
100
AcDbLine
 10
162.6926
 20
110.094619
 30
0.0
 11
162.6926
 21
80.094619
 31
0.0
  0
LINE
  5
21E
100
AcDbEntity
  8
0
  6
Continuous
 62
   174
100
AcDbLine
 10
337.1926
 20
88.425522
 30
0.0
 11
337.1926
 21
86.139722
 31
0.0
  0
LINE
  5
21F
100
AcDbEntity
  8
0
  6
Continuous
 62
   174
100
AcDbLine
 10
101.4926
 20
95.049205
 30
0.0
 11
101.4926
 21
87.390919
 31
0.0
  0
LINE
  5
220
100
AcDbEntity
  8
0
  6
Continuous
 62
   174
100
AcDbLine
 10
322.1926
 20
101.339617
 30
0.0
 11
322.1926
 21
102.594619
 31
0.0
  0
LINE
  5
221
100
AcDbEntity
  8
0
  6
Continuous
 62
   174
100
AcDbLine
 10
319.1926
 20
87.639656
 30
0.0
 11
319.1926
 21
84.639788
 31
0.0
  0
ARC
  5
222
100
AcDbEntity
  8
0
  6
Continuous
 62
   174
100
AcDbCircle
 10
157.6926
 20
95.094619
 30
0.0
 40
3.0
100
AcDbArc
 50
-270.0
 51
-90.0
  0
LINE
  5
223
100
AcDbEntity
  8
0
  6
Continuous
 62
   174
100
AcDbLine
 10
117.1926
 20
88.849621
 30
0.0
 11
117.1926
 21
87.594619
 31
0.0
  0
LINE
  5
224
100
AcDbEntity
  8
0
  6
Continuous
 62
   174
100
AcDbLine
 10
319.1926
 20
95.094619
 30
0.0
 11
319.1926
 21
87.594619
 31
0.0
  0
LINE
  5
225
100
AcDbEntity
  8
0
  6
Continuous
 62
   174
100
AcDbLine
 10
120.1926
 20
102.594619
 30
0.0
 11
143.1926
 21
102.594619
 31
0.0
  0
LINE
  5
226
100
AcDbEntity
  8
0
  6
Continuous
 62
   174
100
AcDbLine
 10
115.1926
 20
86.525445
 30
0.0
 11
115.1926
 21
87.113643
 31
0.0
  0
LINE
  5
227
100
AcDbEntity
  8
0
  6
Continuous
 62
   174
100
AcDbLine
 10
143.218331
 20
102.594619
 30
0.0
 11
146.2182
 21
102.594619
 31
0.0
  0
ARC
  5
228
100
AcDbEntity
  8
0
  6
Continuous
 62
   174
100
AcDbCircle
 10
203.6926
 20
95.094619
 30
0.0
 40
9.4
100
AcDbArc
 50
0.0
 51
180.0
  0
ARC
  5
229
100
AcDbEntity
  8
0
  6
Continuous
 62
   174
100
AcDbCircle
 10
281.6926
 20
95.094619
 30
0.0
 40
3.0
100
AcDbArc
 50
-90.0
 51
90.0
  0
LINE
  5
22A
100
AcDbEntity
  8
0
  6
Continuous
 62
   174
100
AcDbLine
 10
330.3926
 20
86.481989
 30
0.0
 11
324.1926
 21
86.481989
 31
0.0
  0
ARC
  5
22B
100
AcDbEntity
  8
0
  6
Continuous
 62
   174
100
AcDbCircle
 10
319.1926
 20
102.594619
 30
0.0
 40
3.0
100
AcDbArc
 50
0.0
 51
90.0
  0
LINE
  5
22C
100
AcDbEntity
  8
0
  6
Continuous
 62
   174
100
AcDbLine
 10
143.1926
 20
105.594619
 30
0.0
 11
120.1926
 21
105.594619
 31
0.0
  0
LWPOLYLINE
  5
22D
100
AcDbEntity
  8
0
  6
Continuous
 62
   174
100
AcDbPolyline
 90
        6
 70
   128
 10
120.1926
 20
95.094619
 10
119.287284
 20
96.583979
 10
118.478979
 20
97.977728
 10
117.817131
 20
99.256389
 10
117.365305
 20
100.382494
 10
117.1926
 20
101.339617
  0
LINE
  5
22E
100
AcDbEntity
  8
0
  6
Continuous
 62
   174
100
AcDbLine
 10
319.1926
 20
102.594619
 30
0.0
 11
319.1926
 21
95.094619
 31
0.0
  0
ARC
  5
22F
100
AcDbEntity
  8
0
  6
Continuous
 62
   174
100
AcDbCircle
 10
319.1926
 20
87.594619
 30
0.0
 40
3.0
100
AcDbArc
 50
-90.0
 51
0.0
  0
ARC
  5
230
100
AcDbEntity
  8
0
  6
Continuous
 62
   174
100
AcDbCircle
 10
203.6926
 20
95.094619
 30
0.0
 40
9.4
100
AcDbArc
 50
-180.0
 51
0.0
  0
LINE
  5
231
100
AcDbEntity
  8
0
  6
Continuous
 62
   174
100
AcDbLine
 10
293.1926
 20
102.594619
 30
0.0
 11
293.1926
 21
87.594619
 31
0.0
  0
ARC
  5
232
100
AcDbEntity
  8
0
  6
Continuous
 62
   174
100
AcDbCircle
 10
143.1926
 20
87.594619
 30
0.0
 40
3.0
100
AcDbArc
 50
-90.0
 51
0.0
  0
LINE
  5
233
100
AcDbEntity
  8
0
  6
Continuous
 62
   174
100
AcDbLine
 10
143.1926
 20
102.594619
 30
0.0
 11
143.1926
 21
87.594619
 31
0.0
  0
LINE
  5
234
100
AcDbEntity
  8
0
  6
Continuous
 62
   174
100
AcDbLine
 10
324.1926
 20
103.752909
 30
0.0
 11
324.1926
 21
103.164711
 31
0.0
  0
ARC
  5
235
100
AcDbEntity
  8
0
  6
Continuous
 62
   174
100
AcDbCircle
 10
157.6926
 20
95.094619
 30
0.0
 40
3.0
100
AcDbArc
 50
-90.0
 51
90.0
  0
LINE
  5
236
100
AcDbEntity
  8
0
  6
Continuous
 62
   174
100
AcDbLine
 10
319.218321
 20
87.594619
 30
0.0
 11
322.218189
 21
87.594619
 31
0.0
  0
LINE
  5
237
100
AcDbEntity
  8
0
  6
Continuous
 62
   174
100
AcDbLine
 10
120.1926
 20
87.594619
 30
0.0
 11
120.1926
 21
95.094619
 31
0.0
  0
LINE
  5
238
100
AcDbEntity
  8
0
  6
Continuous
 62
   174
100
AcDbLine
 10
319.1926
 20
87.594619
 30
0.0
 11
296.1926
 21
87.594619
 31
0.0
  0
ARC
  5
239
100
AcDbEntity
  8
0
  6
Continuous
 62
   174
100
AcDbCircle
 10
281.6926
 20
95.094619
 30
0.0
 40
3.0
100
AcDbArc
 50
-270.0
 51
-90.0
  0
LINE
  5
23A
100
AcDbEntity
  8
0
  6
Continuous
 62
   174
100
AcDbLine
 10
120.1926
 20
95.094619
 30
0.0
 11
120.1926
 21
102.594619
 31
0.0
  0
LINE
  5
23B
100
AcDbEntity
  8
0
  6
Continuous
 62
   174
100
AcDbLine
 10
115.1926
 20
103.164711
 30
0.0
 11
115.1926
 21
103.751106
 31
0.0
  0
LINE
  5
23C
100
AcDbEntity
  8
0
  6
Continuous
 62
   174
100
AcDbLine
 10
296.1926
 20
87.639656
 30
0.0
 11
296.1926
 21
84.639788
 31
0.0
  0
ARC
  5
23D
100
AcDbEntity
  8
0
  6
Continuous
 62
   174
100
AcDbCircle
 10
235.6926
 20
95.094619
 30
0.0
 40
9.4
100
AcDbArc
 50
0.0
 51
180.0
  0
ARC
  5
23E
100
AcDbEntity
  8
0
  6
Continuous
 62
   174
100
AcDbCircle
 10
120.1926
 20
102.594619
 30
0.0
 40
3.0
100
AcDbArc
 50
-270.0
 51
-180.0
  0
LINE
  5
23F
100
AcDbEntity
  8
0
  6
Continuous
 62
   174
100
AcDbLine
 10
120.1926
 20
84.639788
 30
0.0
 11
120.1926
 21
87.639656
 31
0.0
  0
LINE
  5
240
100
AcDbEntity
  8
0
  6
Continuous
 62
   174
100
AcDbLine
 10
108.9926
 20
86.480223
 30
0.0
 11
115.1926
 21
86.480223
 31
0.0
  0
LINE
  5
241
100
AcDbEntity
  8
0
  6
Continuous
 62
   174
100
AcDbLine
 10
324.1926
 20
87.113643
 30
0.0
 11
324.1926
 21
86.527247
 31
0.0
  0
LINE
  5
242
100
AcDbEntity
  8
0
  6
Continuous
 62
   174
100
AcDbLine
 10
108.9926
 20
103.707249
 30
0.0
 11
108.9926
 21
103.094619
 31
0.0
  0
LINE
  5
243
100
AcDbEntity
  8
0
  6
Continuous
 62
   174
100
AcDbLine
 10
117.1926
 20
102.594619
 30
0.0
 11
117.1926
 21
101.339617
 31
0.0
  0
ARC
  5
244
100
AcDbEntity
  8
0
  6
Continuous
 62
   174
100
AcDbCircle
 10
296.1926
 20
102.594619
 30
0.0
 40
3.0
100
AcDbArc
 50
-270.0
 51
-180.0
  0
LINE
  5
245
100
AcDbEntity
  8
0
  6
Continuous
 62
   174
100
AcDbLine
 10
120.1926
 20
84.594619
 30
0.0
 11
143.1926
 21
84.594619
 31
0.0
  0
ARC
  5
246
100
AcDbEntity
  8
0
  6
Continuous
 62
   174
100
AcDbCircle
 10
203.6926
 20
95.094619
 30
0.0
 40
10.48
100
AcDbArc
 50
-180.0
 51
-61.197359
  0
LINE
  5
247
100
AcDbEntity
  8
0
  6
Continuous
 62
   174
100
AcDbLine
 10
324.1926
 20
105.025735
 30
0.0
 11
324.1926
 21
104.820857
 31
0.0
  0
ARC
  5
248
100
AcDbEntity
  8
0
  6
Continuous
 62
   174
100
AcDbCircle
 10
235.6926
 20
95.094619
 30
0.0
 40
10.48
100
AcDbArc
 50
-180.0
 51
-61.205132
  0
ARC
  5
249
100
AcDbEntity
  8
0
  6
Continuous
 62
   174
100
AcDbCircle
 10
235.6926
 20
95.094619
 30
0.0
 40
9.4
100
AcDbArc
 50
-180.0
 51
0.0
  0
ARC
  5
24A
100
AcDbEntity
  8
0
  6
Continuous
 62
   174
100
AcDbCircle
 10
296.1926
 20
87.594619
 30
0.0
 40
3.0
100
AcDbArc
 50
-180.0
 51
-90.0
  0
LINE
  5
24B
100
AcDbEntity
  8
0
  6
Continuous
 62
   174
100
AcDbLine
 10
296.218228
 20
87.594619
 30
0.0
 11
293.21806
 21
87.594619
 31
0.0
  0
LINE
  5
24C
100
AcDbEntity
  8
0
  6
Continuous
 62
   174
100
AcDbLine
 10
296.1926
 20
105.638266
 30
0.0
 11
296.1926
 21
102.638698
 31
0.0
  0
LINE
  5
24D
100
AcDbEntity
  8
0
  6
Continuous
 62
   174
100
AcDbLine
 10
143.1926
 20
102.638698
 30
0.0
 11
143.1926
 21
105.638266
 31
0.0
  0
LINE
  5
24E
100
AcDbEntity
  8
0
  6
Continuous
 62
   174
100
AcDbLine
 10
115.1926
 20
105.026035
 30
0.0
 11
115.1926
 21
105.138388
 31
0.0
  0
LINE
  5
24F
100
AcDbEntity
  8
0
  6
Continuous
 62
   174
100
AcDbLine
 10
293.21806
 20
102.594619
 30
0.0
 11
296.218228
 21
102.594619
 31
0.0
  0
ARC
  5
250
100
AcDbEntity
  8
0
  6
Continuous
 62
   174
100
AcDbCircle
 10
281.6926
 20
95.094619
 30
0.0
 40
2.6
100
AcDbArc
 50
-86.82017
 51
86.82017
  0
LWPOLYLINE
  5
251
100
AcDbEntity
  8
0
  6
Continuous
 62
   174
100
AcDbPolyline
 90
        6
 70
   128
 10
117.1926
 20
88.849621
 10
117.364942
 20
89.805583
 10
117.816743
 20
90.932022
 10
118.479813
 20
92.213013
 10
119.288344
 20
93.607029
 10
120.1926
 20
95.094619
  0
LINE
  5
252
100
AcDbEntity
  8
0
  6
Continuous
 62
   174
100
AcDbLine
 10
108.9926
 20
87.094619
 30
0.0
 11
108.9926
 21
86.480223
 31
0.0
  0
LINE
  5
253
100
AcDbEntity
  8
0
  6
Continuous
 62
   174
100
AcDbLine
 10
330.3926
 20
103.094619
 30
0.0
 11
330.3926
 21
103.709015
 31
0.0
  0
LINE
  5
254
100
AcDbEntity
  8
0
  6
Continuous
 62
   174
100
AcDbLine
 10
115.1926
 20
104.819956
 30
0.0
 11
115.1926
 21
105.026035
 31
0.0
  0
LINE
  5
255
100
AcDbEntity
  8
0
  6
Continuous
 62
   174
100
AcDbLine
 10
324.1926
 20
85.252318
 30
0.0
 11
324.1926
 21
85.139966
 31
0.0
  0
LINE
  5
256
100
AcDbEntity
  8
0
  6
Continuous
 62
   174
100
AcDbLine
 10
324.1926
 20
85.458097
 30
0.0
 11
324.1926
 21
85.252318
 31
0.0
  0
LWPOLYLINE
  5
257
100
AcDbEntity
  8
0
  6
Continuous
 62
   174
100
AcDbPolyline
 90
        7
 70
   128
 10
98.38542
 20
87.345746
 10
98.019294
 20
88.647713
 10
97.791196
 20
89.924314
 10
97.714292
 20
91.175285
 10
97.79121
 20
92.42624
 10
98.019311
 20
93.702795
 10
98.38542
 20
95.004686
  0
LINE
  5
258
100
AcDbEntity
  8
0
  6
Continuous
 62
   174
100
AcDbLine
 10
116.6926
 20
106.094619
 30
0.0
 11
146.6926
 21
106.094619
 31
0.0
  0
ARC
  5
259
100
AcDbEntity
  8
0
  6
Continuous
 62
   174
100
AcDbCircle
 10
203.6926
 20
95.094619
 30
0.0
 40
10.48
100
AcDbArc
 50
-360.0
 51
-180.0
  0
LINE
  5
25A
100
AcDbEntity
  8
0
  6
Continuous
 62
   174
100
AcDbLine
 10
120.1926
 20
102.638698
 30
0.0
 11
120.1926
 21
105.638266
 31
0.0
  0
LINE
  5
25B
100
AcDbEntity
  8
0
  6
Continuous
 62
   174
100
AcDbLine
 10
296.1926
 20
102.594619
 30
0.0
 11
319.1926
 21
102.594619
 31
0.0
  0
ARC
  5
25C
100
AcDbEntity
  8
0
  6
Continuous
 62
   174
100
AcDbCircle
 10
120.1926
 20
87.594619
 30
0.0
 40
3.0
100
AcDbArc
 50
-180.0
 51
-90.0
  0
ARC
  5
25D
100
AcDbEntity
  8
0
  6
Continuous
 62
   174
100
AcDbCircle
 10
235.6926
 20
95.094619
 30
0.0
 40
10.48
100
AcDbArc
 50
-360.0
 51
-180.0
  0
LINE
  5
25E
100
AcDbEntity
  8
0
  6
Continuous
 62
   174
100
AcDbLine
 10
143.1926
 20
87.594619
 30
0.0
 11
120.1926
 21
87.594619
 31
0.0
  0
LINE
  5
25F
100
AcDbEntity
  8
0
  6
Continuous
 62
   174
100
AcDbLine
 10
322.1926
 20
87.594619
 30
0.0
 11
322.1926
 21
88.849621
 31
0.0
  0
LINE
  5
260
100
AcDbEntity
  8
0
  6
Continuous
 62
   174
100
AcDbLine
 10
115.6926
 20
105.094619
 30
0.0
 11
116.6926
 21
105.094619
 31
0.0
  0
LINE
  5
261
100
AcDbEntity
  8
0
  6
Continuous
 62
   174
100
AcDbLine
 10
323.6926
 20
85.094619
 30
0.0
 11
322.6926
 21
85.094619
 31
0.0
  0
LINE
  5
262
100
AcDbEntity
  8
0
  6
Continuous
 62
   174
100
AcDbLine
 10
330.3926
 20
104.777077
 30
0.0
 11
324.1926
 21
104.777077
 31
0.0
  0
LINE
  5
263
100
AcDbEntity
  8
0
  6
Continuous
 62
   174
100
AcDbLine
 10
319.1926
 20
105.594619
 30
0.0
 11
296.1926
 21
105.594619
 31
0.0
  0
LINE
  5
264
100
AcDbEntity
  8
0
  6
Continuous
 62
   174
100
AcDbLine
 10
108.9926
 20
85.412161
 30
0.0
 11
115.1926
 21
85.412161
 31
0.0
  0
LINE
  5
265
100
AcDbEntity
  8
0
  6
Continuous
 62
   174
100
AcDbLine
 10
324.1926
 20
105.138388
 30
0.0
 11
324.1926
 21
105.025735
 31
0.0
  0
ARC
  5
266
100
AcDbEntity
  8
0
  6
Continuous
 62
   174
100
AcDbCircle
 10
157.6926
 20
95.094619
 30
0.0
 40
2.6
100
AcDbArc
 50
-266.82017
 51
-93.17983
  0
LINE
  5
267
100
AcDbEntity
  8
0
  6
Continuous
 62
   174
100
AcDbLine
 10
115.1926
 20
85.094619
 30
0.0
 11
115.6926
 21
85.094619
 31
0.0
  0
LINE
  5
268
100
AcDbEntity
  8
0
  6
Continuous
 62
   174
100
AcDbLine
 10
324.1926
 20
105.094619
 30
0.0
 11
323.6926
 21
105.094619
 31
0.0
  0
LINE
  5
269
100
AcDbEntity
  8
0
  6
Continuous
 62
   174
100
AcDbLine
 10
296.1926
 20
87.594619
 30
0.0
 11
296.1926
 21
102.594619
 31
0.0
  0
LINE
  5
26A
100
AcDbEntity
  8
0
  6
Continuous
 62
   174
100
AcDbLine
 10
115.1926
 20
85.252318
 30
0.0
 11
115.1926
 21
85.457497
 31
0.0
  0
LINE
  5
26B
100
AcDbEntity
  8
0
  6
Continuous
 62
   174
100
AcDbLine
 10
116.6926
 20
84.094619
 30
0.0
 11
116.6926
 21
87.094619
 31
0.0
  0
LINE
  5
26C
100
AcDbEntity
  8
0
  6
Continuous
 62
   174
100
AcDbLine
 10
330.3926
 20
86.481989
 30
0.0
 11
330.3926
 21
87.094619
 31
0.0
  0
LINE
  5
26D
100
AcDbEntity
  8
0
  6
Continuous
 62
   174
100
AcDbLine
 10
322.218189
 20
102.594619
 30
0.0
 11
319.218321
 21
102.594619
 31
0.0
  0
LINE
  5
26E
100
AcDbEntity
  8
0
  6
Continuous
 62
   174
100
AcDbLine
 10
323.6926
 20
105.094619
 30
0.0
 11
322.6926
 21
105.094619
 31
0.0
  0
LINE
  5
26F
100
AcDbEntity
  8
0
  6
Continuous
 62
   174
100
AcDbLine
 10
117.21837
 20
87.594619
 30
0.0
 11
120.218239
 21
87.594619
 31
0.0
  0
LINE
  5
270
100
AcDbEntity
  8
0
  6
Continuous
 62
   174
100
AcDbLine
 10
322.6926
 20
84.094619
 30
0.0
 11
292.6926
 21
84.094619
 31
0.0
  0
LINE
  5
271
100
AcDbEntity
  8
0
  6
Continuous
 62
   174
100
AcDbLine
 10
108.9926
 20
103.707249
 30
0.0
 11
115.1926
 21
103.707249
 31
0.0
  0
LINE
  5
272
100
AcDbEntity
  8
0
  6
Continuous
 62
   174
100
AcDbLine
 10
115.6926
 20
85.094619
 30
0.0
 11
116.6926
 21
85.094619
 31
0.0
  0
LINE
  5
273
100
AcDbEntity
  8
0
  6
Continuous
 62
   174
100
AcDbLine
 10
330.3926
 20
85.41303
 30
0.0
 11
324.1926
 21
85.41303
 31
0.0
  0
LINE
  5
274
100
AcDbEntity
  8
0
  6
Continuous
 62
   174
100
AcDbLine
 10
108.9926
 20
104.776207
 30
0.0
 11
115.1926
 21
104.776207
 31
0.0
  0
LINE
  5
275
100
AcDbEntity
  8
0
  6
Continuous
 62
   174
100
AcDbLine
 10
146.2182
 20
87.594619
 30
0.0
 11
143.218331
 21
87.594619
 31
0.0
  0
LINE
  5
276
100
AcDbEntity
  8
0
  6
Continuous
 62
   174
100
AcDbLine
 10
330.3926
 20
103.709015
 30
0.0
 11
324.1926
 21
103.709015
 31
0.0
  0
LINE
  5
277
100
AcDbEntity
  8
0
  6
Continuous
 62
   174
100
AcDbLine
 10
323.6926
 20
85.094619
 30
0.0
 11
322.6926
 21
85.094619
 31
0.0
  0
LINE
  5
278
100
AcDbEntity
  8
0
  6
Continuous
 62
   174
100
AcDbLine
 10
143.1926
 20
84.639788
 30
0.0
 11
143.1926
 21
87.639656
 31
0.0
  0
LWPOLYLINE
  5
279
100
AcDbEntity
  8
0
  6
Continuous
 62
   174
100
AcDbPolyline
 90
        7
 70
   128
 10
340.99978
 20
102.843492
 10
341.365906
 20
101.541525
 10
341.594004
 20
100.264924
 10
341.670908
 20
99.013953
 10
341.593989
 20
97.762998
 10
341.365889
 20
96.486443
 10
340.99978
 20
95.184552
  0
LINE
  5
27A
100
AcDbEntity
  8
0
  6
Continuous
 62
   174
100
AcDbLine
 10
115.6926
 20
105.094619
 30
0.0
 11
116.6926
 21
105.094619
 31
0.0
  0
LINE
  5
27B
100
AcDbEntity
  8
0
  6
Continuous
 62
   174
100
AcDbLine
 10
319.1926
 20
105.638266
 30
0.0
 11
319.1926
 21
102.638698
 31
0.0
  0
LINE
  5
27C
100
AcDbEntity
  8
0
  6
Continuous
 62
   174
100
AcDbLine
 10
116.6926
 20
103.094619
 30
0.0
 11
116.6926
 21
106.094619
 31
0.0
  0
LINE
  5
27D
100
AcDbEntity
  8
0
  6
Continuous
 62
   174
100
AcDbLine
 10
115.1926
 20
85.139966
 30
0.0
 11
115.1926
 21
85.252318
 31
0.0
  0
LINE
  5
27E
100
AcDbEntity
  8
0
  6
Continuous
 62
   174
100
AcDbLine
 10
322.6926
 20
87.094619
 30
0.0
 11
322.6926
 21
84.094619
 31
0.0
  0
ARC
  5
27F
100
AcDbEntity
  8
0
  6
Continuous
 62
   174
100
AcDbCircle
 10
143.1926
 20
102.594619
 30
0.0
 40
3.0
100
AcDbArc
 50
0.0
 51
90.0
  0
LINE
  5
280
100
AcDbEntity
  8
0
  6
Continuous
 62
   174
100
AcDbLine
 10
322.6926
 20
106.094619
 30
0.0
 11
322.6926
 21
103.094619
 31
0.0
  0
LINE
  5
281
100
AcDbEntity
  8
0
  6
Continuous
 62
   174
100
AcDbLine
 10
120.218239
 20
102.594619
 30
0.0
 11
117.21837
 21
102.594619
 31
0.0
  0
LWPOLYLINE
  5
282
100
AcDbEntity
  8
0
  6
Continuous
 62
   174
100
AcDbPolyline
 90
        6
 70
   128
 10
319.1926
 20
95.094619
 10
320.097916
 20
93.605259
 10
320.906221
 20
92.21151
 10
321.568069
 20
90.932849
 10
322.019894
 20
89.806744
 10
322.1926
 20
88.849621
  0
LINE
  5
283
100
AcDbEntity
  8
0
  6
Continuous
 62
   174
100
AcDbLine
 10
324.1926
 20
85.094619
 30
0.0
 11
323.6926
 21
85.094619
 31
0.0
  0
LINE
  5
284
100
AcDbEntity
  8
0
  6
Continuous
 62
   174
100
AcDbLine
 10
115.1926
 20
105.094619
 30
0.0
 11
115.6926
 21
105.094619
 31
0.0
  0
LINE
  5
285
100
AcDbEntity
  8
0
  6
Continuous
 62
   174
100
AcDbLine
 10
146.6926
 20
84.094619
 30
0.0
 11
116.6926
 21
84.094619
 31
0.0
  0
LINE
  5
286
100
AcDbEntity
  8
0
  6
Continuous
 62
   174
100
AcDbLine
 10
296.1926
 20
84.594619
 30
0.0
 11
319.1926
 21
84.594619
 31
0.0
  0
LINE
  5
287
100
AcDbEntity
  8
0
  6
Continuous
 62
   174
100
AcDbLine
 10
146.1926
 20
87.594619
 30
0.0
 11
146.1926
 21
102.594619
 31
0.0
  0
LWPOLYLINE
  5
288
100
AcDbEntity
  8
0
  6
Continuous
 62
   174
100
AcDbPolyline
 90
        6
 70
   128
 10
322.1926
 20
101.339617
 10
322.020257
 20
100.383655
 10
321.568457
 20
99.257216
 10
320.905387
 20
97.976225
 10
320.096856
 20
96.582209
 10
319.1926
 20
95.094619
  0
LINE
  5
289
100
AcDbEntity
  8
0
  6
Continuous
 62
   174
100
AcDbLine
 10
292.6926
 20
106.094619
 30
0.0
 11
322.6926
 21
106.094619
 31
0.0
  0
ENDBLK
  5
28A
100
AcDbEntity
  8
0
100
AcDbBlockEnd
  0
BLOCK
  5
28D
100
AcDbEntity
  8
0
100
AcDbBlockBegin
  2
*B3
 70
     0
 10
0.0
 20
0.0
 30
0.0
  3
*B3
  1

  0
LINE
  5
28E
100
AcDbEntity
  8
0
  6
Continuous
 62
   172
100
AcDbLine
 10
123.063134
 20
186.80437
 30
0.0
 11
99.474535
 21
146.691099
 31
0.0
  0
LINE
  5
28F
100
AcDbEntity
  8
0
  6
Continuous
 62
   172
100
AcDbLine
 10
99.474535
 20
146.691099
 30
0.0
 11
88.263134
 21
146.691099
 31
0.0
  0
ENDBLK
  5
290
100
AcDbEntity
  8
0
100
AcDbBlockEnd
  0
BLOCK
  5
293
100
AcDbEntity
  8
0
100
AcDbBlockBegin
  2
*B4
 70
     0
 10
0.0
 20
0.0
 30
0.0
  3
*B4
  1

  0
LINE
  5
294
100
AcDbEntity
  8
0
  6
Continuous
 62
   172
100
AcDbLine
 10
97.144994
 20
149.122509
 30
0.0
 11
94.744994
 21
150.00437
 31
0.0
  0
LINE
  5
295
100
AcDbEntity
  8
0
  6
Continuous
 62
   172
100
AcDbLine
 10
97.144994
 20
149.122509
 30
0.0
 11
94.744994
 21
148.40437
 31
0.0
  0
LINE
  5
296
100
AcDbEntity
  8
0
  6
Continuous
 62
   172
100
AcDbLine
 10
95.544994
 20
149.122509
 30
0.0
 11
97.144994
 21
149.122509
 31
0.0
  0
LINE
  5
297
100
AcDbEntity
  8
0
  6
Continuous
 62
   172
100
AcDbLine
 10
97.144994
 20
162.88623
 30
0.0
 11
94.744994
 21
162.00437
 31
0.0
  0
LINE
  5
298
100
AcDbEntity
  8
0
  6
Continuous
 62
   172
100
AcDbLine
 10
97.144994
 20
162.88623
 30
0.0
 11
94.744994
 21
163.60437
 31
0.0
  0
LINE
  5
299
100
AcDbEntity
  8
0
  6
Continuous
 62
   172
100
AcDbLine
 10
95.544994
 20
162.88623
 30
0.0
 11
97.144994
 21
162.88623
 31
0.0
  0
ARC
  5
29A
100
AcDbEntity
  8
0
  6
Continuous
 62
   172
100
AcDbCircle
 10
95.544994
 20
156.00437
 30
0.0
 40
6.88186
100
AcDbArc
 50
-270.0
 51
-90.0
  0
ENDBLK
  5
29B
100
AcDbEntity
  8
0
100
AcDbBlockEnd
  0
BLOCK
  5
29E
100
AcDbEntity
  8
0
100
AcDbBlockBegin
  2
*B5
 70
     0
 10
0.0
 20
0.0
 30
0.0
  3
*B5
  1

  0
ENDBLK
  5
29F
100
AcDbEntity
  8
0
100
AcDbBlockEnd
  0
BLOCK
  5
2A1
100
AcDbEntity
  8
0
100
AcDbBlockBegin
  2
*B6
 70
     0
 10
0.0
 20
0.0
 30
0.0
  3
*B6
  1

  0
LINE
  5
2A2
100
AcDbEntity
  8
0
  6
Continuous
 62
     0
100
AcDbLine
 10
292.718182
 20
254.032917
 30
0.0
 11
341.718235
 21
254.032917
 31
0.0
  0
SOLID
  5
2A3
100
AcDbEntity
  8
0
  6
Continuous
 62
     0
100
AcDbTrace
 10
297.718163
 20
255.032973
 30
0.0
 11
292.718182
 21
254.032917
 31
0.0
 12
297.718163
 22
253.033161
 32
0.0
 13
297.718163
 23
253.033161
 33
0.0
  0
SOLID
  5
2A4
100
AcDbEntity
  8
0
  6
Continuous
 62
     0
100
AcDbTrace
 10
336.718254
 20
253.033161
 30
0.0
 11
341.718235
 21
254.032917
 31
0.0
 12
336.718254
 22
255.032973
 32
0.0
 13
336.718254
 23
255.032973
 33
0.0
  0
ENDBLK
  5
2A5
100
AcDbEntity
  8
0
100
AcDbBlockEnd
  0
BLOCK
  5
2A8
100
AcDbEntity
  8
0
100
AcDbBlockBegin
  2
*B7
 70
     0
 10
0.0
 20
0.0
 30
0.0
  3
*B7
  1

  0
LINE
  5
2A9
100
AcDbEntity
  8
0
  6
Continuous
 62
     0
100
AcDbLine
 10
146.718378
 20
254.032917
 30
0.0
 11
97.718325
 21
254.032917
 31
0.0
  0
SOLID
  5
2AA
100
AcDbEntity
  8
0
  6
Continuous
 62
     0
100
AcDbTrace
 10
141.718397
 20
253.033161
 30
0.0
 11
146.718378
 21
254.032917
 31
0.0
 12
141.718397
 22
255.032973
 32
0.0
 13
141.718397
 23
255.032973
 33
0.0
  0
SOLID
  5
2AB
100
AcDbEntity
  8
0
  6
Continuous
 62
     0
100
AcDbTrace
 10
102.718306
 20
255.032973
 30
0.0
 11
97.718325
 21
254.032917
 31
0.0
 12
102.718306
 22
253.033161
 32
0.0
 13
102.718306
 23
253.033161
 33
0.0
  0
ENDBLK
  5
2AC
100
AcDbEntity
  8
0
100
AcDbBlockEnd
  0
BLOCK
  5
2AF
100
AcDbEntity
  8
0
100
AcDbBlockBegin
  2
*B8
 70
     0
 10
0.0
 20
0.0
 30
0.0
  3
*B8
  1

  0
LINE
  5
2B0
100
AcDbEntity
  8
0
  6
Continuous
 62
     0
100
AcDbLine
 10
292.718182
 20
130.041862
 30
0.0
 11
146.718378
 21
130.041862
 31
0.0
  0
SOLID
  5
2B1
100
AcDbEntity
  8
0
  6
Continuous
 62
     0
100
AcDbTrace
 10
287.718201
 20
129.042106
 30
0.0
 11
292.718182
 21
130.041862
 31
0.0
 12
287.718201
 22
131.041918
 32
0.0
 13
287.718201
 23
131.041918
 33
0.0
  0
SOLID
  5
2B2
100
AcDbEntity
  8
0
  6
Continuous
 62
     0
100
AcDbTrace
 10
151.718359
 20
131.041918
 30
0.0
 11
146.718378
 21
130.041862
 31
0.0
 12
151.718359
 22
129.042106
 32
0.0
 13
151.718359
 23
129.042106
 33
0.0
  0
ENDBLK
  5
2B3
100
AcDbEntity
  8
0
100
AcDbBlockEnd
  0
BLOCK
  5
2B6
100
AcDbEntity
  8
0
100
AcDbBlockBegin
  2
*B9
 70
     0
 10
0.0
 20
0.0
 30
0.0
  3
*B9
  1

  0
LINE
  5
2B7
100
AcDbEntity
  8
0
  6
Continuous
 62
     0
100
AcDbLine
 10
276.718183
 20
240.033932
 30
0.0
 11
235.718279
 21
240.033932
 31
0.0
  0
SOLID
  5
2B8
100
AcDbEntity
  8
0
  6
Continuous
 62
     0
100
AcDbTrace
 10
271.718202
 20
239.034176
 30
0.0
 11
276.718183
 21
240.033932
 31
0.0
 12
271.718202
 22
241.033988
 32
0.0
 13
271.718202
 23
241.033988
 33
0.0
  0
SOLID
  5
2B9
100
AcDbEntity
  8
0
  6
Continuous
 62
     0
100
AcDbTrace
 10
240.71826
 20
241.033988
 30
0.0
 11
235.718279
 21
240.033932
 31
0.0
 12
240.71826
 22
239.034176
 32
0.0
 13
240.71826
 23
239.034176
 33
0.0
  0
ENDBLK
  5
2BA
100
AcDbEntity
  8
0
100
AcDbBlockEnd
  0
BLOCK
  5
2BD
100
AcDbEntity
  8
0
100
AcDbBlockBegin
  2
*B10
 70
     0
 10
0.0
 20
0.0
 30
0.0
  3
*B10
  1

  0
LINE
  5
2BE
100
AcDbEntity
  8
0
  6
Continuous
 62
     0
100
AcDbLine
 10
203.718281
 20
240.033932
 30
0.0
 11
235.718279
 21
240.033932
 31
0.0
  0
SOLID
  5
2BF
100
AcDbEntity
  8
0
  6
Continuous
 62
     0
100
AcDbTrace
 10
208.718262
 20
241.033988
 30
0.0
 11
203.718281
 21
240.033932
 31
0.0
 12
208.718262
 22
239.034176
 32
0.0
 13
208.718262
 23
239.034176
 33
0.0
  0
SOLID
  5
2C0
100
AcDbEntity
  8
0
  6
Continuous
 62
     0
100
AcDbTrace
 10
230.718298
 20
239.034176
 30
0.0
 11
235.718279
 21
240.033932
 31
0.0
 12
230.718298
 22
241.033988
 32
0.0
 13
230.718298
 23
241.033988
 33
0.0
  0
ENDBLK
  5
2C1
100
AcDbEntity
  8
0
100
AcDbBlockEnd
  0
BLOCK
  5
2C4
100
AcDbEntity
  8
0
100
AcDbBlockBegin
  2
*B11
 70
     0
 10
0.0
 20
0.0
 30
0.0
  3
*B11
  1

  0
LINE
  5
2C5
100
AcDbEntity
  8
0
  6
Continuous
 62
     0
100
AcDbLine
 10
276.718183
 20
146.040959
 30
0.0
 11
251.718278
 21
146.040959
 31
0.0
  0
SOLID
  5
2C6
100
AcDbEntity
  8
0
  6
Continuous
 62
     0
100
AcDbTrace
 10
271.718202
 20
145.040903
 30
0.0
 11
276.718183
 21
146.040959
 31
0.0
 12
271.718202
 22
147.040715
 32
0.0
 13
271.718202
 23
147.040715
 33
0.0
  0
SOLID
  5
2C7
100
AcDbEntity
  8
0
  6
Continuous
 62
     0
100
AcDbTrace
 10
256.718259
 20
147.040715
 30
0.0
 11
251.718278
 21
146.040959
 31
0.0
 12
256.718259
 22
145.040903
 32
0.0
 13
256.718259
 23
145.040903
 33
0.0
  0
ENDBLK
  5
2C8
100
AcDbEntity
  8
0
100
AcDbBlockEnd
  0
BLOCK
  5
2CB
100
AcDbEntity
  8
0
100
AcDbBlockBegin
  2
*B12
 70
     0
 10
0.0
 20
0.0
 30
0.0
  3
*B12
  1

  0
LINE
  5
2CC
100
AcDbEntity
  8
0
  6
Continuous
 62
     0
100
AcDbLine
 10
219.71828
 20
146.040959
 30
0.0
 11
251.718278
 21
146.040959
 31
0.0
  0
SOLID
  5
2CD
100
AcDbEntity
  8
0
  6
Continuous
 62
     0
100
AcDbTrace
 10
224.718261
 20
147.040715
 30
0.0
 11
219.71828
 21
146.040959
 31
0.0
 12
224.718261
 22
145.040903
 32
0.0
 13
224.718261
 23
145.040903
 33
0.0
  0
SOLID
  5
2CE
100
AcDbEntity
  8
0
  6
Continuous
 62
     0
100
AcDbTrace
 10
246.718297
 20
145.040903
 30
0.0
 11
251.718278
 21
146.040959
 31
0.0
 12
246.718297
 22
147.040715
 32
0.0
 13
246.718297
 23
147.040715
 33
0.0
  0
ENDBLK
  5
2CF
100
AcDbEntity
  8
0
100
AcDbBlockEnd
  0
BLOCK
  5
2D2
100
AcDbEntity
  8
0
100
AcDbBlockBegin
  2
*B13
 70
     0
 10
0.0
 20
0.0
 30
0.0
  3
*B13
  1

  0
LINE
  5
2D3
100
AcDbEntity
  8
0
  6
Continuous
 62
     0
100
AcDbLine
 10
187.718282
 20
146.040959
 30
0.0
 11
219.71828
 21
146.040959
 31
0.0
  0
SOLID
  5
2D4
100
AcDbEntity
  8
0
  6
Continuous
 62
     0
100
AcDbTrace
 10
192.718263
 20
147.040715
 30
0.0
 11
187.718282
 21
146.040959
 31
0.0
 12
192.718263
 22
145.040903
 32
0.0
 13
192.718263
 23
145.040903
 33
0.0
  0
SOLID
  5
2D5
100
AcDbEntity
  8
0
  6
Continuous
 62
     0
100
AcDbTrace
 10
214.718299
 20
145.040903
 30
0.0
 11
219.71828
 21
146.040959
 31
0.0
 12
214.718299
 22
147.040715
 32
0.0
 13
214.718299
 23
147.040715
 33
0.0
  0
ENDBLK
  5
2D6
100
AcDbEntity
  8
0
100
AcDbBlockEnd
  0
BLOCK
  5
2D9
100
AcDbEntity
  8
0
100
AcDbBlockBegin
  2
*B14
 70
     0
 10
0.0
 20
0.0
 30
0.0
  3
*B14
  1

  0
LINE
  5
2DA
100
AcDbEntity
  8
0
  6
Continuous
 62
     0
100
AcDbLine
 10
162.718377
 20
146.040959
 30
0.0
 11
187.718282
 21
146.040959
 31
0.0
  0
SOLID
  5
2DB
100
AcDbEntity
  8
0
  6
Continuous
 62
     0
100
AcDbTrace
 10
167.718358
 20
147.040715
 30
0.0
 11
162.718377
 21
146.040959
 31
0.0
 12
167.718358
 22
145.040903
 32
0.0
 13
167.718358
 23
145.040903
 33
0.0
  0
SOLID
  5
2DC
100
AcDbEntity
  8
0
  6
Continuous
 62
     0
100
AcDbTrace
 10
182.718301
 20
145.040903
 30
0.0
 11
187.718282
 21
146.040959
 31
0.0
 12
182.718301
 22
147.040715
 32
0.0
 13
182.718301
 23
147.040715
 33
0.0
  0
ENDBLK
  5
2DD
100
AcDbEntity
  8
0
100
AcDbBlockEnd
  0
BLOCK
  5
2E0
100
AcDbEntity
  8
0
100
AcDbBlockBegin
  2
*B15
 70
     0
 10
0.0
 20
0.0
 30
0.0
  3
*B15
  1

  0
LINE
  5
2E1
100
AcDbEntity
  8
0
  6
Continuous
 62
     0
100
AcDbLine
 10
162.096534
 20
240.033932
 30
0.0
 11
201.018219
 21
240.033932
 31
0.0
  0
SOLID
  5
2E2
100
AcDbEntity
  8
0
  6
Continuous
 62
     0
100
AcDbTrace
 10
179.418325
 20
239.034176
 30
0.0
 11
184.418306
 21
240.033932
 31
0.0
 12
179.418325
 22
241.033988
 32
0.0
 13
179.418325
 23
241.033988
 33
0.0
  0
SOLID
  5
2E3
100
AcDbEntity
  8
0
  6
Continuous
 62
     0
100
AcDbTrace
 10
196.018238
 20
241.033988
 30
0.0
 11
191.018257
 21
240.033932
 31
0.0
 12
196.018238
 22
239.034176
 32
0.0
 13
196.018238
 23
239.034176
 33
0.0
  0
ENDBLK
  5
2E4
100
AcDbEntity
  8
0
100
AcDbBlockEnd
  0
BLOCK
  5
2E7
100
AcDbEntity
  8
0
100
AcDbBlockBegin
  2
*B16
 70
     0
 10
0.0
 20
0.0
 30
0.0
  3
*B16
  1

  0
LINE
  5
2E8
100
AcDbEntity
  8
0
  6
Continuous
 62
     0
100
AcDbLine
 10
84.025755
 20
80.140285
 30
0.0
 11
84.025755
 21
110.138068
 31
0.0
  0
SOLID
  5
2E9
100
AcDbEntity
  8
0
  6
Continuous
 62
     0
100
AcDbTrace
 10
83.025699
 20
85.139966
 30
0.0
 11
84.025755
 21
80.140285
 31
0.0
 12
85.025811
 22
85.139966
 32
0.0
 13
85.025811
 23
85.139966
 33
0.0
  0
SOLID
  5
2EA
100
AcDbEntity
  8
0
  6
Continuous
 62
     0
100
AcDbTrace
 10
85.025811
 20
105.138388
 30
0.0
 11
84.025755
 21
110.138068
 31
0.0
 12
83.025699
 22
105.138388
 32
0.0
 13
83.025699
 23
105.138388
 33
0.0
  0
ENDBLK
  5
2EB
100
AcDbEntity
  8
0
100
AcDbBlockEnd
  0
BLOCK
  5
2EE
100
AcDbEntity
  8
0
100
AcDbBlockBegin
  2
*B17
 70
     0
 10
0.0
 20
0.0
 30
0.0
  3
*B17
  1

  0
LINE
  5
2EF
100
AcDbEntity
  8
0
  6
Continuous
 62
     0
100
AcDbLine
 10
85.025811
 20
242.996249
 30
0.0
 11
85.025811
 21
166.002431
 31
0.0
  0
SOLID
  5
2F0
100
AcDbEntity
  8
0
  6
Continuous
 62
     0
100
AcDbTrace
 10
86.025567
 20
237.996869
 30
0.0
 11
85.025811
 21
242.996249
 31
0.0
 12
84.025755
 22
237.996869
 32
0.0
 13
84.025755
 23
237.996869
 33
0.0
  0
SOLID
  5
2F1
100
AcDbEntity
  8
0
  6
Continuous
 62
     0
100
AcDbTrace
 10
84.025755
 20
171.002111
 30
0.0
 11
85.025811
 21
166.002431
 31
0.0
 12
86.025567
 22
171.002111
 32
0.0
 13
86.025567
 23
171.002111
 33
0.0
  0
ENDBLK
  5
2F2
100
AcDbEntity
  8
0
100
AcDbBlockEnd
  0
BLOCK
  5
2F5
100
AcDbEntity
  8
0
100
AcDbBlockBegin
  2
*B18
 70
     0
 10
0.0
 20
0.0
 30
0.0
  3
*B18
  1

  0
LINE
  5
2F6
100
AcDbEntity
  8
0
  6
Continuous
 62
     0
100
AcDbLine
 10
187.718282
 20
254.032917
 30
0.0
 11
251.718278
 21
254.032917
 31
0.0
  0
SOLID
  5
2F7
100
AcDbEntity
  8
0
  6
Continuous
 62
     0
100
AcDbTrace
 10
192.718263
 20
255.032973
 30
0.0
 11
187.718282
 21
254.032917
 31
0.0
 12
192.718263
 22
253.033161
 32
0.0
 13
192.718263
 23
253.033161
 33
0.0
  0
SOLID
  5
2F8
100
AcDbEntity
  8
0
  6
Continuous
 62
     0
100
AcDbTrace
 10
246.718297
 20
253.033161
 30
0.0
 11
251.718278
 21
254.032917
 31
0.0
 12
246.718297
 22
255.032973
 32
0.0
 13
246.718297
 23
255.032973
 33
0.0
  0
ENDBLK
  5
2F9
100
AcDbEntity
  8
0
100
AcDbBlockEnd
  0
BLOCK
  5
2FC
100
AcDbEntity
  8
0
100
AcDbBlockBegin
  2
*B19
 70
     0
 10
0.0
 20
0.0
 30
0.0
  3
*B19
  1

  0
LINE
  5
2FD
100
AcDbEntity
  8
0
  6
Continuous
 62
     0
100
AcDbLine
 10
216.318269
 20
64.630551
 30
0.0
 11
272.921333
 21
64.630551
 31
0.0
  0
SOLID
  5
2FE
100
AcDbEntity
  8
0
  6
Continuous
 62
     0
100
AcDbTrace
 10
221.31825
 20
63.630495
 30
0.0
 11
226.318231
 21
64.630551
 31
0.0
 12
221.31825
 22
65.630307
 32
0.0
 13
221.31825
 23
65.630307
 33
0.0
  0
SOLID
  5
2FF
100
AcDbEntity
  8
0
  6
Continuous
 62
     0
100
AcDbTrace
 10
250.118308
 20
65.630307
 30
0.0
 11
245.118327
 21
64.630551
 31
0.0
 12
250.118308
 22
63.630495
 32
0.0
 13
250.118308
 23
63.630495
 33
0.0
  0
ENDBLK
  5
300
100
AcDbEntity
  8
0
100
AcDbBlockEnd
  0
BLOCK
  5
303
100
AcDbEntity
  8
0
100
AcDbBlockBegin
  2
*B20
 70
     0
 10
0.0
 20
0.0
 30
0.0
  3
*B20
  1

  0
LINE
  5
304
100
AcDbEntity
  8
0
  6
Continuous
 62
     0
100
AcDbLine
 10
286.025705
 20
215.998936
 30
0.0
 11
286.025705
 21
176.001792
 31
0.0
  0
SOLID
  5
305
100
AcDbEntity
  8
0
  6
Continuous
 62
     0
100
AcDbTrace
 10
287.025461
 20
210.999255
 30
0.0
 11
286.025705
 21
215.998936
 31
0.0
 12
285.025649
 22
210.999255
 32
0.0
 13
285.025649
 23
210.999255
 33
0.0
  0
SOLID
  5
306
100
AcDbEntity
  8
0
  6
Continuous
 62
     0
100
AcDbTrace
 10
285.025649
 20
181.001172
 30
0.0
 11
286.025705
 21
176.001792
 31
0.0
 12
287.025461
 22
181.001172
 32
0.0
 13
287.025461
 23
181.001172
 33
0.0
  0
ENDBLK
  5
307
100
AcDbEntity
  8
0
100
AcDbBlockEnd
  0
BLOCK
  5
30A
100
AcDbEntity
  8
0
100
AcDbBlockBegin
  2
*B21
 70
     0
 10
0.0
 20
0.0
 30
0.0
  3
*B21
  1

  0
LINE
  5
30B
100
AcDbEntity
  8
0
  6
Continuous
 62
     0
100
AcDbLine
 10
310.025554
 20
225.997996
 30
0.0
 11
310.025554
 21
166.002431
 31
0.0
  0
SOLID
  5
30C
100
AcDbEntity
  8
0
  6
Continuous
 62
     0
100
AcDbTrace
 10
311.02561
 20
220.998316
 30
0.0
 11
310.025554
 21
225.997996
 31
0.0
 12
309.025497
 22
220.998316
 32
0.0
 13
309.025497
 23
220.998316
 33
0.0
  0
SOLID
  5
30D
100
AcDbEntity
  8
0
  6
Continuous
 62
     0
100
AcDbTrace
 10
309.025497
 20
171.002111
 30
0.0
 11
310.025554
 21
166.002431
 31
0.0
 12
311.02561
 22
171.002111
 32
0.0
 13
311.02561
 23
171.002111
 33
0.0
  0
ENDBLK
  5
30E
100
AcDbEntity
  8
0
100
AcDbBlockEnd
  0
BLOCK
  5
311
100
AcDbEntity
  8
0
100
AcDbBlockBegin
  2
*B22
 70
     0
 10
0.0
 20
0.0
 30
0.0
  3
*B22
  1

  0
LINE
  5
312
100
AcDbEntity
  8
0
  6
Continuous
 62
     8
100
AcDbLine
 10
82.025642
 20
80.140285
 30
0.0
 11
144.718266
 21
80.140285
 31
0.0
  0
ENDBLK
  5
313
100
AcDbEntity
  8
0
100
AcDbBlockEnd
  0
BLOCK
  5
316
100
AcDbEntity
  8
0
100
AcDbBlockBegin
  2
*B23
 70
     0
 10
0.0
 20
0.0
 30
0.0
  3
*B23
  1

  0
LINE
  5
317
100
AcDbEntity
  8
0
  6
Continuous
 62
     8
100
AcDbLine
 10
251.718278
 20
144.040847
 30
0.0
 11
251.718278
 21
148.040771
 31
0.0
  0
LINE
  5
318
100
AcDbEntity
  8
0
  6
Continuous
 62
     8
100
AcDbLine
 10
251.718278
 20
252.033105
 30
0.0
 11
251.718278
 21
256.03303
 31
0.0
  0
LINE
  5
319
100
AcDbEntity
  8
0
  6
Continuous
 62
     8
100
AcDbLine
 10
251.718278
 20
148.040771
 30
0.0
 11
251.718278
 21
157.032566
 31
0.0
  0
LINE
  5
31A
100
AcDbEntity
  8
0
  6
Continuous
 62
     8
100
AcDbLine
 10
251.718278
 20
159.032378
 30
0.0
 11
251.718278
 21
160.032434
 31
0.0
  0
LINE
  5
31B
100
AcDbEntity
  8
0
  6
Continuous
 62
     8
100
AcDbLine
 10
251.718278
 20
162.032247
 30
0.0
 11
251.718278
 21
171.024342
 31
0.0
  0
LINE
  5
31C
100
AcDbEntity
  8
0
  6
Continuous
 62
     8
100
AcDbLine
 10
251.718278
 20
173.024154
 30
0.0
 11
251.718278
 21
174.02391
 31
0.0
  0
LINE
  5
31D
100
AcDbEntity
  8
0
  6
Continuous
 62
     8
100
AcDbLine
 10
251.718278
 20
176.023722
 30
0.0
 11
251.718278
 21
185.015817
 31
0.0
  0
LINE
  5
31E
100
AcDbEntity
  8
0
  6
Continuous
 62
     8
100
AcDbLine
 10
251.718278
 20
187.015629
 30
0.0
 11
251.718278
 21
188.015685
 31
0.0
  0
LINE
  5
31F
100
AcDbEntity
  8
0
  6
Continuous
 62
     8
100
AcDbLine
 10
251.718278
 20
190.015497
 30
0.0
 11
251.718278
 21
199.007292
 31
0.0
  0
LINE
  5
320
100
AcDbEntity
  8
0
  6
Continuous
 62
     8
100
AcDbLine
 10
251.718278
 20
201.007404
 30
0.0
 11
251.718278
 21
202.00716
 31
0.0
  0
LINE
  5
321
100
AcDbEntity
  8
0
  6
Continuous
 62
     8
100
AcDbLine
 10
251.718278
 20
204.006972
 30
0.0
 11
251.718278
 21
212.999067
 31
0.0
  0
LINE
  5
322
100
AcDbEntity
  8
0
  6
Continuous
 62
     8
100
AcDbLine
 10
251.718278
 20
218.998504
 30
0.0
 11
251.718278
 21
226.676917
 31
0.0
  0
LINE
  5
323
100
AcDbEntity
  8
0
  6
Continuous
 62
     8
100
AcDbLine
 10
251.718278
 20
228.676729
 30
0.0
 11
251.718278
 21
229.676785
 31
0.0
  0
LINE
  5
324
100
AcDbEntity
  8
0
  6
Continuous
 62
     8
100
AcDbLine
 10
251.718278
 20
231.676598
 30
0.0
 11
251.718278
 21
239.355011
 31
0.0
  0
LINE
  5
325
100
AcDbEntity
  8
0
  6
Continuous
 62
     8
100
AcDbLine
 10
251.718278
 20
241.354823
 30
0.0
 11
251.718278
 21
242.354879
 31
0.0
  0
LINE
  5
326
100
AcDbEntity
  8
0
  6
Continuous
 62
     8
100
AcDbLine
 10
251.718278
 20
244.354692
 30
0.0
 11
251.718278
 21
252.033105
 31
0.0
  0
ENDBLK
  5
327
100
AcDbEntity
  8
0
100
AcDbBlockEnd
  0
BLOCK
  5
32A
100
AcDbEntity
  8
0
100
AcDbBlockBegin
  2
*B24
 70
     0
 10
0.0
 20
0.0
 30
0.0
  3
*B24
  1

  0
LINE
  5
32B
100
AcDbEntity
  8
0
  6
Continuous
 62
     8
100
AcDbLine
 10
191.018257
 20
217.998748
 30
0.0
 11
191.018257
 21
242.034044
 31
0.0
  0
ENDBLK
  5
32C
100
AcDbEntity
  8
0
100
AcDbBlockEnd
  0
BLOCK
  5
32F
100
AcDbEntity
  8
0
100
AcDbBlockBegin
  2
*B25
 70
     0
 10
0.0
 20
0.0
 30
0.0
  3
*B25
  1

  0
LINE
  5
330
100
AcDbEntity
  8
0
  6
Continuous
 62
     8
100
AcDbLine
 10
82.025642
 20
110.138068
 30
0.0
 11
144.718266
 21
110.138068
 31
0.0
  0
ENDBLK
  5
331
100
AcDbEntity
  8
0
100
AcDbBlockEnd
  0
BLOCK
  5
334
100
AcDbEntity
  8
0
100
AcDbBlockBegin
  2
*B26
 70
     0
 10
0.0
 20
0.0
 30
0.0
  3
*B26
  1

  0
LINE
  5
335
100
AcDbEntity
  8
0
  6
Continuous
 62
     8
100
AcDbLine
 10
281.718163
 20
88.139534
 30
0.0
 11
281.718163
 21
92.139459
 31
0.0
  0
LINE
  5
336
100
AcDbEntity
  8
0
  6
Continuous
 62
     8
100
AcDbLine
 10
281.718163
 20
98.138895
 30
0.0
 11
281.718163
 21
102.138519
 31
0.0
  0
ENDBLK
  5
337
100
AcDbEntity
  8
0
100
AcDbBlockEnd
  0
BLOCK
  5
33A
100
AcDbEntity
  8
0
100
AcDbBlockBegin
  2
*B27
 70
     0
 10
0.0
 20
0.0
 30
0.0
  3
*B27
  1

  0
LINE
  5
33B
100
AcDbEntity
  8
0
  6
Continuous
 62
     8
100
AcDbLine
 10
333.918157
 20
95.094266
 30
0.0
 11
345.71816
 21
95.094266
 31
0.0
  0
ENDBLK
  5
33C
100
AcDbEntity
  8
0
100
AcDbBlockEnd
  0
BLOCK
  5
33F
100
AcDbEntity
  8
0
100
AcDbBlockBegin
  2
*B28
 70
     0
 10
0.0
 20
0.0
 30
0.0
  3
*B28
  1

  0
LINE
  5
340
100
AcDbEntity
  8
0
  6
Continuous
 62
     8
100
AcDbLine
 10
341.718235
 20
243.795934
 30
0.0
 11
341.718235
 21
256.03303
 31
0.0
  0
ENDBLK
  5
341
100
AcDbEntity
  8
0
100
AcDbBlockEnd
  0
BLOCK
  5
344
100
AcDbEntity
  8
0
100
AcDbBlockBegin
  2
*B29
 70
     0
 10
0.0
 20
0.0
 30
0.0
  3
*B29
  1

  0
LINE
  5
345
100
AcDbEntity
  8
0
  6
Continuous
 62
     8
100
AcDbLine
 10
219.71828
 20
144.040847
 30
0.0
 11
219.71828
 21
148.040771
 31
0.0
  0
LINE
  5
346
100
AcDbEntity
  8
0
  6
Continuous
 62
     8
100
AcDbLine
 10
219.71828
 20
148.040771
 30
0.0
 11
219.71828
 21
157.02776
 31
0.0
  0
LINE
  5
347
100
AcDbEntity
  8
0
  6
Continuous
 62
     8
100
AcDbLine
 10
219.71828
 20
159.027572
 30
0.0
 11
219.71828
 21
160.027628
 31
0.0
  0
LINE
  5
348
100
AcDbEntity
  8
0
  6
Continuous
 62
     8
100
AcDbLine
 10
219.71828
 20
162.02744
 30
0.0
 11
219.71828
 21
171.014428
 31
0.0
  0
LINE
  5
349
100
AcDbEntity
  8
0
  6
Continuous
 62
     8
100
AcDbLine
 10
219.71828
 20
173.01424
 30
0.0
 11
219.71828
 21
174.013996
 31
0.0
  0
LINE
  5
34A
100
AcDbEntity
  8
0
  6
Continuous
 62
     8
100
AcDbLine
 10
219.71828
 20
176.014109
 30
0.0
 11
219.71828
 21
185.001097
 31
0.0
  0
ENDBLK
  5
34B
100
AcDbEntity
  8
0
100
AcDbBlockEnd
  0
BLOCK
  5
34E
100
AcDbEntity
  8
0
100
AcDbBlockBegin
  2
*B30
 70
     0
 10
0.0
 20
0.0
 30
0.0
  3
*B30
  1

  0
LINE
  5
34F
100
AcDbEntity
  8
0
  6
Continuous
 62
     8
100
AcDbLine
 10
294.718294
 20
166.002431
 30
0.0
 11
312.025666
 21
166.002431
 31
0.0
  0
ENDBLK
  5
350
100
AcDbEntity
  8
0
100
AcDbBlockEnd
  0
BLOCK
  5
353
100
AcDbEntity
  8
0
100
AcDbBlockBegin
  2
*B31
 70
     0
 10
0.0
 20
0.0
 30
0.0
  3
*B31
  1

  0
LINE
  5
354
100
AcDbEntity
  8
0
  6
Continuous
 62
     8
100
AcDbLine
 10
83.025699
 20
166.002431
 30
0.0
 11
144.718266
 21
166.002431
 31
0.0
  0
ENDBLK
  5
355
100
AcDbEntity
  8
0
100
AcDbBlockEnd
  0
BLOCK
  5
358
100
AcDbEntity
  8
0
100
AcDbBlockBegin
  2
*B32
 70
     0
 10
0.0
 20
0.0
 30
0.0
  3
*B32
  1

  0
LINE
  5
359
100
AcDbEntity
  8
0
  6
Continuous
 62
     8
100
AcDbLine
 10
284.025593
 20
176.001792
 30
0.0
 11
288.025517
 21
176.001792
 31
0.0
  0
LINE
  5
35A
100
AcDbEntity
  8
0
  6
Continuous
 62
     8
100
AcDbLine
 10
228.418078
 20
176.001792
 30
0.0
 11
232.71811
 21
176.001792
 31
0.0
  0
LINE
  5
35B
100
AcDbEntity
  8
0
  6
Continuous
 62
     8
100
AcDbLine
 10
238.718147
 20
176.001792
 30
0.0
 11
250.487208
 21
176.001792
 31
0.0
  0
LINE
  5
35C
100
AcDbEntity
  8
0
  6
Continuous
 62
     8
100
AcDbLine
 10
252.487321
 20
176.001792
 30
0.0
 11
253.487377
 21
176.001792
 31
0.0
  0
LINE
  5
35D
100
AcDbEntity
  8
0
  6
Continuous
 62
     8
100
AcDbLine
 10
255.487189
 20
176.001792
 30
0.0
 11
267.256551
 21
176.001792
 31
0.0
  0
LINE
  5
35E
100
AcDbEntity
  8
0
  6
Continuous
 62
     8
100
AcDbLine
 10
269.256363
 20
176.001792
 30
0.0
 11
270.256419
 21
176.001792
 31
0.0
  0
LINE
  5
35F
100
AcDbEntity
  8
0
  6
Continuous
 62
     8
100
AcDbLine
 10
272.256532
 20
176.001792
 30
0.0
 11
284.025593
 21
176.001792
 31
0.0
  0
ENDBLK
  5
360
100
AcDbEntity
  8
0
100
AcDbBlockEnd
  0
BLOCK
  5
363
100
AcDbEntity
  8
0
100
AcDbBlockBegin
  2
*B33
 70
     0
 10
0.0
 20
0.0
 30
0.0
  3
*B33
  1

  0
LINE
  5
364
100
AcDbEntity
  8
0
  6
Continuous
 62
     8
100
AcDbLine
 10
196.418381
 20
176.001792
 30
0.0
 11
200.718112
 21
176.001792
 31
0.0
  0
LINE
  5
365
100
AcDbEntity
  8
0
  6
Continuous
 62
     8
100
AcDbLine
 10
206.718149
 20
176.001792
 30
0.0
 11
211.018181
 21
176.001792
 31
0.0
  0
ENDBLK
  5
366
100
AcDbEntity
  8
0
100
AcDbBlockEnd
  0
BLOCK
  5
369
100
AcDbEntity
  8
0
100
AcDbBlockBegin
  2
*B34
 70
     0
 10
0.0
 20
0.0
 30
0.0
  3
*B34
  1

  0
LINE
  5
36A
100
AcDbEntity
  8
0
  6
Continuous
 62
     8
100
AcDbLine
 10
105.018225
 20
195.999913
 30
0.0
 11
119.218183
 21
195.999913
 31
0.0
  0
ENDBLK
  5
36B
100
AcDbEntity
  8
0
100
AcDbBlockEnd
  0
BLOCK
  5
36E
100
AcDbEntity
  8
0
100
AcDbBlockBegin
  2
*B35
 70
     0
 10
0.0
 20
0.0
 30
0.0
  3
*B35
  1

  0
LINE
  5
36F
100
AcDbEntity
  8
0
  6
Continuous
 62
     8
100
AcDbLine
 10
187.718282
 20
144.040847
 30
0.0
 11
187.718282
 21
148.040771
 31
0.0
  0
LINE
  5
370
100
AcDbEntity
  8
0
  6
Continuous
 62
     8
100
AcDbLine
 10
187.718282
 20
252.033105
 30
0.0
 11
187.718282
 21
256.03303
 31
0.0
  0
LINE
  5
371
100
AcDbEntity
  8
0
  6
Continuous
 62
     8
100
AcDbLine
 10
187.718282
 20
148.040771
 30
0.0
 11
187.718282
 21
157.032566
 31
0.0
  0
LINE
  5
372
100
AcDbEntity
  8
0
  6
Continuous
 62
     8
100
AcDbLine
 10
187.718282
 20
159.032378
 30
0.0
 11
187.718282
 21
160.032434
 31
0.0
  0
LINE
  5
373
100
AcDbEntity
  8
0
  6
Continuous
 62
     8
100
AcDbLine
 10
187.718282
 20
162.032247
 30
0.0
 11
187.718282
 21
171.024342
 31
0.0
  0
LINE
  5
374
100
AcDbEntity
  8
0
  6
Continuous
 62
     8
100
AcDbLine
 10
187.718282
 20
173.024154
 30
0.0
 11
187.718282
 21
174.02391
 31
0.0
  0
LINE
  5
375
100
AcDbEntity
  8
0
  6
Continuous
 62
     8
100
AcDbLine
 10
187.718282
 20
176.023722
 30
0.0
 11
187.718282
 21
185.015817
 31
0.0
  0
LINE
  5
376
100
AcDbEntity
  8
0
  6
Continuous
 62
     8
100
AcDbLine
 10
187.718282
 20
187.015629
 30
0.0
 11
187.718282
 21
188.015685
 31
0.0
  0
LINE
  5
377
100
AcDbEntity
  8
0
  6
Continuous
 62
     8
100
AcDbLine
 10
187.718282
 20
190.015497
 30
0.0
 11
187.718282
 21
199.007292
 31
0.0
  0
LINE
  5
378
100
AcDbEntity
  8
0
  6
Continuous
 62
     8
100
AcDbLine
 10
187.718282
 20
201.007404
 30
0.0
 11
187.718282
 21
202.00716
 31
0.0
  0
LINE
  5
379
100
AcDbEntity
  8
0
  6
Continuous
 62
     8
100
AcDbLine
 10
187.718282
 20
204.006972
 30
0.0
 11
187.718282
 21
212.999067
 31
0.0
  0
LINE
  5
37A
100
AcDbEntity
  8
0
  6
Continuous
 62
     8
100
AcDbLine
 10
187.718282
 20
218.998504
 30
0.0
 11
187.718282
 21
226.676917
 31
0.0
  0
LINE
  5
37B
100
AcDbEntity
  8
0
  6
Continuous
 62
     8
100
AcDbLine
 10
187.718282
 20
228.676729
 30
0.0
 11
187.718282
 21
229.676785
 31
0.0
  0
LINE
  5
37C
100
AcDbEntity
  8
0
  6
Continuous
 62
     8
100
AcDbLine
 10
187.718282
 20
231.676598
 30
0.0
 11
187.718282
 21
239.355011
 31
0.0
  0
LINE
  5
37D
100
AcDbEntity
  8
0
  6
Continuous
 62
     8
100
AcDbLine
 10
187.718282
 20
241.354823
 30
0.0
 11
187.718282
 21
242.354879
 31
0.0
  0
LINE
  5
37E
100
AcDbEntity
  8
0
  6
Continuous
 62
     8
100
AcDbLine
 10
187.718282
 20
244.354692
 30
0.0
 11
187.718282
 21
252.033105
 31
0.0
  0
ENDBLK
  5
37F
100
AcDbEntity
  8
0
100
AcDbBlockEnd
  0
BLOCK
  5
382
100
AcDbEntity
  8
0
100
AcDbBlockBegin
  2
*B36
 70
     0
 10
0.0
 20
0.0
 30
0.0
  3
*B36
  1

  0
LINE
  5
383
100
AcDbEntity
  8
0
  6
Continuous
 62
     8
100
AcDbLine
 10
93.7184
 20
95.139027
 30
0.0
 11
102.051702
 21
95.139027
 31
0.0
  0
LINE
  5
384
100
AcDbEntity
  8
0
  6
Continuous
 62
     8
100
AcDbLine
 10
104.051514
 20
95.139027
 30
0.0
 11
105.05157
 21
95.139027
 31
0.0
  0
LINE
  5
385
100
AcDbEntity
  8
0
  6
Continuous
 62
     8
100
AcDbLine
 10
107.051682
 20
95.139027
 30
0.0
 11
115.384984
 21
95.139027
 31
0.0
  0
LINE
  5
386
100
AcDbEntity
  8
0
  6
Continuous
 62
     8
100
AcDbLine
 10
117.384796
 20
95.139027
 30
0.0
 11
118.384852
 21
95.139027
 31
0.0
  0
LINE
  5
387
100
AcDbEntity
  8
0
  6
Continuous
 62
     8
100
AcDbLine
 10
120.384965
 20
95.139027
 30
0.0
 11
128.718266
 21
95.139027
 31
0.0
  0
LINE
  5
388
100
AcDbEntity
  8
0
  6
Continuous
 62
     8
100
AcDbLine
 10
134.718304
 20
95.139027
 30
0.0
 11
142.218275
 21
95.139027
 31
0.0
  0
LINE
  5
389
100
AcDbEntity
  8
0
  6
Continuous
 62
     8
100
AcDbLine
 10
144.218388
 20
95.139027
 30
0.0
 11
145.218143
 21
95.139027
 31
0.0
  0
LINE
  5
38A
100
AcDbEntity
  8
0
  6
Continuous
 62
     8
100
AcDbLine
 10
147.218256
 20
95.139027
 30
0.0
 11
154.718227
 21
95.139027
 31
0.0
  0
LINE
  5
38B
100
AcDbEntity
  8
0
  6
Continuous
 62
     8
100
AcDbLine
 10
160.718265
 20
95.139027
 30
0.0
 11
170.718226
 21
95.139027
 31
0.0
  0
LINE
  5
38C
100
AcDbEntity
  8
0
  6
Continuous
 62
     8
100
AcDbLine
 10
172.718339
 20
95.139027
 30
0.0
 11
173.718095
 21
95.139027
 31
0.0
  0
LINE
  5
38D
100
AcDbEntity
  8
0
  6
Continuous
 62
     8
100
AcDbLine
 10
175.718207
 20
95.139027
 30
0.0
 11
185.718169
 21
95.139027
 31
0.0
  0
LINE
  5
38E
100
AcDbEntity
  8
0
  6
Continuous
 62
     8
100
AcDbLine
 10
187.718282
 20
95.139027
 30
0.0
 11
188.718338
 21
95.139027
 31
0.0
  0
LINE
  5
38F
100
AcDbEntity
  8
0
  6
Continuous
 62
     8
100
AcDbLine
 10
190.71815
 20
95.139027
 30
0.0
 11
200.718112
 21
95.139027
 31
0.0
  0
LINE
  5
390
100
AcDbEntity
  8
0
  6
Continuous
 62
     8
100
AcDbLine
 10
206.718149
 20
95.139027
 30
0.0
 11
217.218289
 21
95.139027
 31
0.0
  0
LINE
  5
391
100
AcDbEntity
  8
0
  6
Continuous
 62
     8
100
AcDbLine
 10
219.218102
 20
95.139027
 30
0.0
 11
220.218158
 21
95.139027
 31
0.0
  0
LINE
  5
392
100
AcDbEntity
  8
0
  6
Continuous
 62
     8
100
AcDbLine
 10
222.21827
 20
95.139027
 30
0.0
 11
232.71811
 21
95.139027
 31
0.0
  0
LINE
  5
393
100
AcDbEntity
  8
0
  6
Continuous
 62
     8
100
AcDbLine
 10
238.718147
 20
95.139027
 30
0.0
 11
248.718109
 21
95.139027
 31
0.0
  0
LINE
  5
394
100
AcDbEntity
  8
0
  6
Continuous
 62
     8
100
AcDbLine
 10
250.718222
 20
95.139027
 30
0.0
 11
251.718278
 21
95.139027
 31
0.0
  0
LINE
  5
395
100
AcDbEntity
  8
0
  6
Continuous
 62
     8
100
AcDbLine
 10
253.71809
 20
95.139027
 30
0.0
 11
263.718052
 21
95.139027
 31
0.0
  0
LINE
  5
396
100
AcDbEntity
  8
0
  6
Continuous
 62
     8
100
AcDbLine
 10
265.718164
 20
95.139027
 30
0.0
 11
266.718221
 21
95.139027
 31
0.0
  0
LINE
  5
397
100
AcDbEntity
  8
0
  6
Continuous
 62
     8
100
AcDbLine
 10
268.718333
 20
95.139027
 30
0.0
 11
278.718295
 21
95.139027
 31
0.0
  0
LINE
  5
398
100
AcDbEntity
  8
0
  6
Continuous
 62
     8
100
AcDbLine
 10
284.718332
 20
95.139027
 30
0.0
 11
292.218304
 21
95.139027
 31
0.0
  0
LINE
  5
399
100
AcDbEntity
  8
0
  6
Continuous
 62
     8
100
AcDbLine
 10
294.218116
 20
95.139027
 30
0.0
 11
295.218172
 21
95.139027
 31
0.0
  0
LINE
  5
39A
100
AcDbEntity
  8
0
  6
Continuous
 62
     8
100
AcDbLine
 10
297.218285
 20
95.139027
 30
0.0
 11
304.718256
 21
95.139027
 31
0.0
  0
LINE
  5
39B
100
AcDbEntity
  8
0
  6
Continuous
 62
     8
100
AcDbLine
 10
310.718293
 20
95.139027
 30
0.0
 11
319.051595
 21
95.139027
 31
0.0
  0
LINE
  5
39C
100
AcDbEntity
  8
0
  6
Continuous
 62
     8
100
AcDbLine
 10
321.051407
 20
95.139027
 30
0.0
 11
322.051463
 21
95.139027
 31
0.0
  0
LINE
  5
39D
100
AcDbEntity
  8
0
  6
Continuous
 62
     8
100
AcDbLine
 10
324.051576
 20
95.139027
 30
0.0
 11
332.384877
 21
95.139027
 31
0.0
  0
LINE
  5
39E
100
AcDbEntity
  8
0
  6
Continuous
 62
     8
100
AcDbLine
 10
334.384689
 20
95.139027
 30
0.0
 11
335.384746
 21
95.139027
 31
0.0
  0
LINE
  5
39F
100
AcDbEntity
  8
0
  6
Continuous
 62
     8
100
AcDbLine
 10
337.384858
 20
95.139027
 30
0.0
 11
345.71816
 21
95.139027
 31
0.0
  0
ENDBLK
  5
3A0
100
AcDbEntity
  8
0
100
AcDbBlockEnd
  0
BLOCK
  5
3A3
100
AcDbEntity
  8
0
100
AcDbBlockBegin
  2
*B37
 70
     0
 10
0.0
 20
0.0
 30
0.0
  3
*B37
  1

  0
LINE
  5
3A4
100
AcDbEntity
  8
0
  6
Continuous
 62
     8
100
AcDbLine
 10
203.718281
 20
238.03412
 30
0.0
 11
203.718281
 21
242.034044
 31
0.0
  0
LINE
  5
3A5
100
AcDbEntity
  8
0
  6
Continuous
 62
     8
100
AcDbLine
 10
203.718281
 20
168.702192
 30
0.0
 11
203.718281
 21
173.001924
 31
0.0
  0
LINE
  5
3A6
100
AcDbEntity
  8
0
  6
Continuous
 62
     8
100
AcDbLine
 10
203.718281
 20
179.00136
 30
0.0
 11
203.718281
 21
186.808348
 31
0.0
  0
LINE
  5
3A7
100
AcDbEntity
  8
0
  6
Continuous
 62
     8
100
AcDbLine
 10
203.718281
 20
188.80816
 30
0.0
 11
203.718281
 21
189.808216
 31
0.0
  0
LINE
  5
3A8
100
AcDbEntity
  8
0
  6
Continuous
 62
     8
100
AcDbLine
 10
203.718281
 20
191.808028
 30
0.0
 11
203.718281
 21
199.614716
 31
0.0
  0
LINE
  5
3A9
100
AcDbEntity
  8
0
  6
Continuous
 62
     8
100
AcDbLine
 10
203.718281
 20
201.614528
 30
0.0
 11
203.718281
 21
202.614584
 31
0.0
  0
LINE
  5
3AA
100
AcDbEntity
  8
0
  6
Continuous
 62
     8
100
AcDbLine
 10
203.718281
 20
204.614396
 30
0.0
 11
203.718281
 21
212.421083
 31
0.0
  0
LINE
  5
3AB
100
AcDbEntity
  8
0
  6
Continuous
 62
     8
100
AcDbLine
 10
203.718281
 20
214.421196
 30
0.0
 11
203.718281
 21
215.420952
 31
0.0
  0
LINE
  5
3AC
100
AcDbEntity
  8
0
  6
Continuous
 62
     8
100
AcDbLine
 10
203.718281
 20
217.420764
 30
0.0
 11
203.718281
 21
225.227752
 31
0.0
  0
LINE
  5
3AD
100
AcDbEntity
  8
0
  6
Continuous
 62
     8
100
AcDbLine
 10
203.718281
 20
227.227564
 30
0.0
 11
203.718281
 21
228.22762
 31
0.0
  0
LINE
  5
3AE
100
AcDbEntity
  8
0
  6
Continuous
 62
     8
100
AcDbLine
 10
203.718281
 20
230.227432
 30
0.0
 11
203.718281
 21
238.03412
 31
0.0
  0
ENDBLK
  5
3AF
100
AcDbEntity
  8
0
100
AcDbBlockEnd
  0
BLOCK
  5
3B2
100
AcDbEntity
  8
0
100
AcDbBlockBegin
  2
*B38
 70
     0
 10
0.0
 20
0.0
 30
0.0
  3
*B38
  1

  0
LINE
  5
3B3
100
AcDbEntity
  8
0
  6
Continuous
 62
     8
100
AcDbLine
 10
292.718182
 20
128.042049
 30
0.0
 11
292.718182
 21
164.002619
 31
0.0
  0
LINE
  5
3B4
100
AcDbEntity
  8
0
  6
Continuous
 62
     8
100
AcDbLine
 10
292.718182
 20
227.997808
 30
0.0
 11
292.718182
 21
256.03303
 31
0.0
  0
ENDBLK
  5
3B5
100
AcDbEntity
  8
0
100
AcDbBlockEnd
  0
BLOCK
  5
3B8
100
AcDbEntity
  8
0
100
AcDbBlockBegin
  2
*B39
 70
     0
 10
0.0
 20
0.0
 30
0.0
  3
*B39
  1

  0
LINE
  5
3B9
100
AcDbEntity
  8
0
  6
Continuous
 62
     8
100
AcDbLine
 10
294.718294
 20
225.997996
 30
0.0
 11
312.025666
 21
225.997996
 31
0.0
  0
ENDBLK
  5
3BA
100
AcDbEntity
  8
0
100
AcDbBlockEnd
  0
BLOCK
  5
3BD
100
AcDbEntity
  8
0
100
AcDbBlockBegin
  2
*B40
 70
     0
 10
0.0
 20
0.0
 30
0.0
  3
*B40
  1

  0
LINE
  5
3BE
100
AcDbEntity
  8
0
  6
Continuous
 62
     8
100
AcDbLine
 10
226.318231
 20
62.630739
 30
0.0
 11
226.318231
 21
93.139215
 31
0.0
  0
ENDBLK
  5
3BF
100
AcDbEntity
  8
0
100
AcDbBlockEnd
  0
BLOCK
  5
3C2
100
AcDbEntity
  8
0
100
AcDbBlockBegin
  2
*B41
 70
     0
 10
0.0
 20
0.0
 30
0.0
  3
*B41
  1

  0
LINE
  5
3C3
100
AcDbEntity
  8
0
  6
Continuous
 62
     8
100
AcDbLine
 10
83.025699
 20
242.996249
 30
0.0
 11
96.410952
 21
242.996249
 31
0.0
  0
ENDBLK
  5
3C4
100
AcDbEntity
  8
0
100
AcDbBlockEnd
  0
BLOCK
  5
3C7
100
AcDbEntity
  8
0
100
AcDbBlockBegin
  2
*B42
 70
     0
 10
0.0
 20
0.0
 30
0.0
  3
*B42
  1

  0
LINE
  5
3C8
100
AcDbEntity
  8
0
  6
Continuous
 62
     8
100
AcDbLine
 10
93.7184
 20
95.184088
 30
0.0
 11
105.518403
 21
95.184088
 31
0.0
  0
ENDBLK
  5
3C9
100
AcDbEntity
  8
0
100
AcDbBlockEnd
  0
BLOCK
  5
3CC
100
AcDbEntity
  8
0
100
AcDbBlockBegin
  2
*B43
 70
     0
 10
0.0
 20
0.0
 30
0.0
  3
*B43
  1

  0
LINE
  5
3CD
100
AcDbEntity
  8
0
  6
Continuous
 62
     8
100
AcDbLine
 10
97.718325
 20
243.795934
 30
0.0
 11
97.718325
 21
256.03303
 31
0.0
  0
ENDBLK
  5
3CE
100
AcDbEntity
  8
0
100
AcDbBlockEnd
  0
BLOCK
  5
3D1
100
AcDbEntity
  8
0
100
AcDbBlockBegin
  2
*B44
 70
     0
 10
0.0
 20
0.0
 30
0.0
  3
*B44
  1

  0
LINE
  5
3D2
100
AcDbEntity
  8
0
  6
Continuous
 62
     8
100
AcDbLine
 10
146.718378
 20
128.042049
 30
0.0
 11
146.718378
 21
164.002619
 31
0.0
  0
LINE
  5
3D3
100
AcDbEntity
  8
0
  6
Continuous
 62
     8
100
AcDbLine
 10
146.718378
 20
227.997808
 30
0.0
 11
146.718378
 21
256.03303
 31
0.0
  0
ENDBLK
  5
3D4
100
AcDbEntity
  8
0
100
AcDbBlockEnd
  0
BLOCK
  5
3D7
100
AcDbEntity
  8
0
100
AcDbBlockBegin
  2
*B45
 70
     0
 10
0.0
 20
0.0
 30
0.0
  3
*B45
  1

  0
LINE
  5
3D8
100
AcDbEntity
  8
0
  6
Continuous
 62
     8
100
AcDbLine
 10
245.118327
 20
62.630739
 30
0.0
 11
245.118327
 21
93.139215
 31
0.0
  0
ENDBLK
  5
3D9
100
AcDbEntity
  8
0
100
AcDbBlockEnd
  0
BLOCK
  5
3DC
100
AcDbEntity
  8
0
100
AcDbBlockBegin
  2
*B46
 70
     0
 10
0.0
 20
0.0
 30
0.0
  3
*B46
  1

  0
LINE
  5
3DD
100
AcDbEntity
  8
0
  6
Continuous
 62
     8
100
AcDbLine
 10
284.025593
 20
215.998936
 30
0.0
 11
288.025517
 21
215.998936
 31
0.0
  0
LINE
  5
3DE
100
AcDbEntity
  8
0
  6
Continuous
 62
     8
100
AcDbLine
 10
244.418077
 20
215.998936
 30
0.0
 11
248.718109
 21
215.998936
 31
0.0
  0
LINE
  5
3DF
100
AcDbEntity
  8
0
  6
Continuous
 62
     8
100
AcDbLine
 10
254.718146
 20
215.998936
 30
0.0
 11
266.872029
 21
215.998936
 31
0.0
  0
LINE
  5
3E0
100
AcDbEntity
  8
0
  6
Continuous
 62
     8
100
AcDbLine
 10
268.871841
 20
215.998936
 30
0.0
 11
269.871898
 21
215.998936
 31
0.0
  0
LINE
  5
3E1
100
AcDbEntity
  8
0
  6
Continuous
 62
     8
100
AcDbLine
 10
271.87201
 20
215.998936
 30
0.0
 11
284.025593
 21
215.998936
 31
0.0
  0
ENDBLK
  5
3E2
100
AcDbEntity
  8
0
100
AcDbBlockEnd
  0
BLOCK
  5
3E5
100
AcDbEntity
  8
0
100
AcDbBlockBegin
  2
*B47
 70
     0
 10
0.0
 20
0.0
 30
0.0
  3
*B47
  1

  0
LINE
  5
3E6
100
AcDbEntity
  8
0
  6
Continuous
 62
     8
100
AcDbLine
 10
315.218096
 20
233.997545
 30
0.0
 11
324.218302
 21
233.997545
 31
0.0
  0
LINE
  5
3E7
100
AcDbEntity
  8
0
  6
Continuous
 62
     8
100
AcDbLine
 10
326.218114
 20
233.997545
 30
0.0
 11
327.21817
 21
233.997545
 31
0.0
  0
LINE
  5
3E8
100
AcDbEntity
  8
0
  6
Continuous
 62
     8
100
AcDbLine
 10
329.218283
 20
233.997545
 30
0.0
 11
338.218188
 21
233.997545
 31
0.0
  0
ENDBLK
  5
3E9
100
AcDbEntity
  8
0
100
AcDbBlockEnd
  0
BLOCK
  5
3EC
100
AcDbEntity
  8
0
100
AcDbBlockBegin
  2
*B48
 70
     0
 10
0.0
 20
0.0
 30
0.0
  3
*B48
  1

  0
LINE
  5
3ED
100
AcDbEntity
  8
0
  6
Continuous
 62
     8
100
AcDbLine
 10
276.718183
 20
144.040847
 30
0.0
 11
276.718183
 21
164.002619
 31
0.0
  0
LINE
  5
3EE
100
AcDbEntity
  8
0
  6
Continuous
 62
     8
100
AcDbLine
 10
276.718183
 20
227.997808
 30
0.0
 11
276.718183
 21
242.034044
 31
0.0
  0
ENDBLK
  5
3EF
100
AcDbEntity
  8
0
100
AcDbBlockEnd
  0
BLOCK
  5
3F2
100
AcDbEntity
  8
0
100
AcDbBlockBegin
  2
*B49
 70
     0
 10
0.0
 20
0.0
 30
0.0
  3
*B49
  1

  0
LINE
  5
3F3
100
AcDbEntity
  8
0
  6
Continuous
 62
     8
100
AcDbLine
 10
105.018225
 20
196.000814
 30
0.0
 11
113.040605
 21
196.000814
 31
0.0
  0
LINE
  5
3F4
100
AcDbEntity
  8
0
  6
Continuous
 62
     8
100
AcDbLine
 10
115.040417
 20
196.000814
 30
0.0
 11
116.040473
 21
196.000814
 31
0.0
  0
LINE
  5
3F5
100
AcDbEntity
  8
0
  6
Continuous
 62
     8
100
AcDbLine
 10
118.040586
 20
196.000814
 30
0.0
 11
126.062665
 21
196.000814
 31
0.0
  0
LINE
  5
3F6
100
AcDbEntity
  8
0
  6
Continuous
 62
     8
100
AcDbLine
 10
128.062778
 20
196.000814
 30
0.0
 11
129.062834
 21
196.000814
 31
0.0
  0
LINE
  5
3F7
100
AcDbEntity
  8
0
  6
Continuous
 62
     8
100
AcDbLine
 10
131.062646
 20
196.000814
 30
0.0
 11
139.085026
 21
196.000814
 31
0.0
  0
LINE
  5
3F8
100
AcDbEntity
  8
0
  6
Continuous
 62
     8
100
AcDbLine
 10
141.084838
 20
196.000814
 30
0.0
 11
142.084894
 21
196.000814
 31
0.0
  0
LINE
  5
3F9
100
AcDbEntity
  8
0
  6
Continuous
 62
     8
100
AcDbLine
 10
144.085007
 20
196.000814
 30
0.0
 11
152.107086
 21
196.000814
 31
0.0
  0
LINE
  5
3FA
100
AcDbEntity
  8
0
  6
Continuous
 62
     8
100
AcDbLine
 10
154.107199
 20
196.000814
 30
0.0
 11
155.107255
 21
196.000814
 31
0.0
  0
LINE
  5
3FB
100
AcDbEntity
  8
0
  6
Continuous
 62
     8
100
AcDbLine
 10
157.107067
 20
196.000814
 30
0.0
 11
165.129447
 21
196.000814
 31
0.0
  0
LINE
  5
3FC
100
AcDbEntity
  8
0
  6
Continuous
 62
     8
100
AcDbLine
 10
167.129259
 20
196.000814
 30
0.0
 11
168.129315
 21
196.000814
 31
0.0
  0
LINE
  5
3FD
100
AcDbEntity
  8
0
  6
Continuous
 62
     8
100
AcDbLine
 10
170.129428
 20
196.000814
 30
0.0
 11
178.151507
 21
196.000814
 31
0.0
  0
LINE
  5
3FE
100
AcDbEntity
  8
0
  6
Continuous
 62
     8
100
AcDbLine
 10
180.15162
 20
196.000814
 30
0.0
 11
181.151676
 21
196.000814
 31
0.0
  0
LINE
  5
3FF
100
AcDbEntity
  8
0
  6
Continuous
 62
     8
100
AcDbLine
 10
183.151488
 20
196.000814
 30
0.0
 11
191.173868
 21
196.000814
 31
0.0
  0
LINE
  5
400
100
AcDbEntity
  8
0
  6
Continuous
 62
     8
100
AcDbLine
 10
193.17368
 20
196.000814
 30
0.0
 11
194.173737
 21
196.000814
 31
0.0
  0
LINE
  5
401
100
AcDbEntity
  8
0
  6
Continuous
 62
     8
100
AcDbLine
 10
196.173849
 20
196.000814
 30
0.0
 11
204.195929
 21
196.000814
 31
0.0
  0
LINE
  5
402
100
AcDbEntity
  8
0
  6
Continuous
 62
     8
100
AcDbLine
 10
206.196041
 20
196.000814
 30
0.0
 11
207.196097
 21
196.000814
 31
0.0
  0
LINE
  5
403
100
AcDbEntity
  8
0
  6
Continuous
 62
     8
100
AcDbLine
 10
209.19591
 20
196.000814
 30
0.0
 11
217.218289
 21
196.000814
 31
0.0
  0
LINE
  5
404
100
AcDbEntity
  8
0
  6
Continuous
 62
     8
100
AcDbLine
 10
219.218102
 20
196.000814
 30
0.0
 11
220.218158
 21
196.000814
 31
0.0
  0
LINE
  5
405
100
AcDbEntity
  8
0
  6
Continuous
 62
     8
100
AcDbLine
 10
222.21827
 20
196.000814
 30
0.0
 11
230.24035
 21
196.000814
 31
0.0
  0
LINE
  5
406
100
AcDbEntity
  8
0
  6
Continuous
 62
     8
100
AcDbLine
 10
232.240462
 20
196.000814
 30
0.0
 11
233.240519
 21
196.000814
 31
0.0
  0
LINE
  5
407
100
AcDbEntity
  8
0
  6
Continuous
 62
     8
100
AcDbLine
 10
235.240331
 20
196.000814
 30
0.0
 11
243.262711
 21
196.000814
 31
0.0
  0
LINE
  5
408
100
AcDbEntity
  8
0
  6
Continuous
 62
     8
100
AcDbLine
 10
245.262523
 20
196.000814
 30
0.0
 11
246.262579
 21
196.000814
 31
0.0
  0
LINE
  5
409
100
AcDbEntity
  8
0
  6
Continuous
 62
     8
100
AcDbLine
 10
248.262691
 20
196.000814
 30
0.0
 11
256.284771
 21
196.000814
 31
0.0
  0
LINE
  5
40A
100
AcDbEntity
  8
0
  6
Continuous
 62
     8
100
AcDbLine
 10
258.284883
 20
196.000814
 30
0.0
 11
259.28494
 21
196.000814
 31
0.0
  0
LINE
  5
40B
100
AcDbEntity
  8
0
  6
Continuous
 62
     8
100
AcDbLine
 10
261.284752
 20
196.000814
 30
0.0
 11
269.307132
 21
196.000814
 31
0.0
  0
LINE
  5
40C
100
AcDbEntity
  8
0
  6
Continuous
 62
     8
100
AcDbLine
 10
271.306944
 20
196.000814
 30
0.0
 11
272.307
 21
196.000814
 31
0.0
  0
LINE
  5
40D
100
AcDbEntity
  8
0
  6
Continuous
 62
     8
100
AcDbLine
 10
274.307113
 20
196.000814
 30
0.0
 11
282.329192
 21
196.000814
 31
0.0
  0
LINE
  5
40E
100
AcDbEntity
  8
0
  6
Continuous
 62
     8
100
AcDbLine
 10
284.329305
 20
196.000814
 30
0.0
 11
285.329361
 21
196.000814
 31
0.0
  0
LINE
  5
40F
100
AcDbEntity
  8
0
  6
Continuous
 62
     8
100
AcDbLine
 10
287.329173
 20
196.000814
 30
0.0
 11
295.351553
 21
196.000814
 31
0.0
  0
LINE
  5
410
100
AcDbEntity
  8
0
  6
Continuous
 62
     8
100
AcDbLine
 10
297.351665
 20
196.000814
 30
0.0
 11
298.351421
 21
196.000814
 31
0.0
  0
LINE
  5
411
100
AcDbEntity
  8
0
  6
Continuous
 62
     8
100
AcDbLine
 10
300.351534
 20
196.000814
 30
0.0
 11
308.373613
 21
196.000814
 31
0.0
  0
LINE
  5
412
100
AcDbEntity
  8
0
  6
Continuous
 62
     8
100
AcDbLine
 10
310.373726
 20
196.000814
 30
0.0
 11
311.373782
 21
196.000814
 31
0.0
  0
LINE
  5
413
100
AcDbEntity
  8
0
  6
Continuous
 62
     8
100
AcDbLine
 10
313.373594
 20
196.000814
 30
0.0
 11
321.395974
 21
196.000814
 31
0.0
  0
LINE
  5
414
100
AcDbEntity
  8
0
  6
Continuous
 62
     8
100
AcDbLine
 10
323.395786
 20
196.000814
 30
0.0
 11
324.395843
 21
196.000814
 31
0.0
  0
LINE
  5
415
100
AcDbEntity
  8
0
  6
Continuous
 62
     8
100
AcDbLine
 10
326.395955
 20
196.000814
 30
0.0
 11
334.418335
 21
196.000814
 31
0.0
  0
ENDBLK
  5
416
100
AcDbEntity
  8
0
100
AcDbBlockEnd
  0
BLOCK
  5
419
100
AcDbEntity
  8
0
100
AcDbBlockBegin
  2
*B50
 70
     0
 10
0.0
 20
0.0
 30
0.0
  3
*B50
  1

  0
LINE
  5
41A
100
AcDbEntity
  8
0
  6
Continuous
 62
     8
100
AcDbLine
 10
203.718281
 20
81.739955
 30
0.0
 11
203.718281
 21
92.139459
 31
0.0
  0
LINE
  5
41B
100
AcDbEntity
  8
0
  6
Continuous
 62
     8
100
AcDbLine
 10
203.718281
 20
98.138895
 30
0.0
 11
203.718281
 21
108.538098
 31
0.0
  0
ENDBLK
  5
41C
100
AcDbEntity
  8
0
100
AcDbBlockEnd
  0
BLOCK
  5
41F
100
AcDbEntity
  8
0
100
AcDbBlockBegin
  2
*B51
 70
     0
 10
0.0
 20
0.0
 30
0.0
  3
*B51
  1

  0
LINE
  5
420
100
AcDbEntity
  8
0
  6
Continuous
 62
     8
100
AcDbLine
 10
180.418382
 20
215.998936
 30
0.0
 11
184.718113
 21
215.998936
 31
0.0
  0
LINE
  5
421
100
AcDbEntity
  8
0
  6
Continuous
 62
     8
100
AcDbLine
 10
190.71815
 20
215.998936
 30
0.0
 11
195.018182
 21
215.998936
 31
0.0
  0
ENDBLK
  5
422
100
AcDbEntity
  8
0
100
AcDbBlockEnd
  0
BLOCK
  5
425
100
AcDbEntity
  8
0
100
AcDbBlockBegin
  2
*B52
 70
     0
 10
0.0
 20
0.0
 30
0.0
  3
*B52
  1

  0
LINE
  5
426
100
AcDbEntity
  8
0
  6
Continuous
 62
     8
100
AcDbLine
 10
157.718396
 20
88.139534
 30
0.0
 11
157.718396
 21
92.139459
 31
0.0
  0
LINE
  5
427
100
AcDbEntity
  8
0
  6
Continuous
 62
     8
100
AcDbLine
 10
157.718396
 20
98.138895
 30
0.0
 11
157.718396
 21
102.138519
 31
0.0
  0
ENDBLK
  5
428
100
AcDbEntity
  8
0
100
AcDbBlockEnd
  0
BLOCK
  5
42B
100
AcDbEntity
  8
0
100
AcDbBlockBegin
  2
*B53
 70
     0
 10
0.0
 20
0.0
 30
0.0
  3
*B53
  1

  0
LINE
  5
42C
100
AcDbEntity
  8
0
  6
Continuous
 62
     8
100
AcDbLine
 10
307.718124
 20
87.739692
 30
0.0
 11
307.718124
 21
92.139459
 31
0.0
  0
LINE
  5
42D
100
AcDbEntity
  8
0
  6
Continuous
 62
     8
100
AcDbLine
 10
307.718124
 20
98.138895
 30
0.0
 11
307.718124
 21
102.538662
 31
0.0
  0
ENDBLK
  5
42E
100
AcDbEntity
  8
0
100
AcDbBlockEnd
  0
BLOCK
  5
431
100
AcDbEntity
  8
0
100
AcDbBlockBegin
  2
*B54
 70
     0
 10
0.0
 20
0.0
 30
0.0
  3
*B54
  1

  0
LINE
  5
432
100
AcDbEntity
  8
0
  6
Continuous
 62
     8
100
AcDbLine
 10
235.718279
 20
238.03412
 30
0.0
 11
235.718279
 21
242.034044
 31
0.0
  0
LINE
  5
433
100
AcDbEntity
  8
0
  6
Continuous
 62
     8
100
AcDbLine
 10
235.718279
 20
168.702192
 30
0.0
 11
235.718279
 21
173.001924
 31
0.0
  0
LINE
  5
434
100
AcDbEntity
  8
0
  6
Continuous
 62
     8
100
AcDbLine
 10
235.718279
 20
179.00136
 30
0.0
 11
235.718279
 21
186.808348
 31
0.0
  0
LINE
  5
435
100
AcDbEntity
  8
0
  6
Continuous
 62
     8
100
AcDbLine
 10
235.718279
 20
188.80816
 30
0.0
 11
235.718279
 21
189.808216
 31
0.0
  0
LINE
  5
436
100
AcDbEntity
  8
0
  6
Continuous
 62
     8
100
AcDbLine
 10
235.718279
 20
191.808028
 30
0.0
 11
235.718279
 21
199.614716
 31
0.0
  0
LINE
  5
437
100
AcDbEntity
  8
0
  6
Continuous
 62
     8
100
AcDbLine
 10
235.718279
 20
201.614528
 30
0.0
 11
235.718279
 21
202.614584
 31
0.0
  0
LINE
  5
438
100
AcDbEntity
  8
0
  6
Continuous
 62
     8
100
AcDbLine
 10
235.718279
 20
204.614396
 30
0.0
 11
235.718279
 21
212.421083
 31
0.0
  0
LINE
  5
439
100
AcDbEntity
  8
0
  6
Continuous
 62
     8
100
AcDbLine
 10
235.718279
 20
214.421196
 30
0.0
 11
235.718279
 21
215.420952
 31
0.0
  0
LINE
  5
43A
100
AcDbEntity
  8
0
  6
Continuous
 62
     8
100
AcDbLine
 10
235.718279
 20
217.420764
 30
0.0
 11
235.718279
 21
225.227752
 31
0.0
  0
LINE
  5
43B
100
AcDbEntity
  8
0
  6
Continuous
 62
     8
100
AcDbLine
 10
235.718279
 20
227.227564
 30
0.0
 11
235.718279
 21
228.22762
 31
0.0
  0
LINE
  5
43C
100
AcDbEntity
  8
0
  6
Continuous
 62
     8
100
AcDbLine
 10
235.718279
 20
230.227432
 30
0.0
 11
235.718279
 21
238.03412
 31
0.0
  0
ENDBLK
  5
43D
100
AcDbEntity
  8
0
100
AcDbBlockEnd
  0
BLOCK
  5
440
100
AcDbEntity
  8
0
100
AcDbBlockBegin
  2
*B55
 70
     0
 10
0.0
 20
0.0
 30
0.0
  3
*B55
  1

  0
LINE
  5
441
100
AcDbEntity
  8
0
  6
Continuous
 62
     8
100
AcDbLine
 10
131.718135
 20
87.739692
 30
0.0
 11
131.718135
 21
92.139459
 31
0.0
  0
LINE
  5
442
100
AcDbEntity
  8
0
  6
Continuous
 62
     8
100
AcDbLine
 10
131.718135
 20
98.138895
 30
0.0
 11
131.718135
 21
102.538662
 31
0.0
  0
ENDBLK
  5
443
100
AcDbEntity
  8
0
100
AcDbBlockEnd
  0
BLOCK
  5
446
100
AcDbEntity
  8
0
100
AcDbBlockBegin
  2
*B56
 70
     0
 10
0.0
 20
0.0
 30
0.0
  3
*B56
  1

  0
LINE
  5
447
100
AcDbEntity
  8
0
  6
Continuous
 62
     8
100
AcDbLine
 10
101.218371
 20
233.997545
 30
0.0
 11
110.218277
 21
233.997545
 31
0.0
  0
LINE
  5
448
100
AcDbEntity
  8
0
  6
Continuous
 62
     8
100
AcDbLine
 10
112.21839
 20
233.997545
 30
0.0
 11
113.218145
 21
233.997545
 31
0.0
  0
LINE
  5
449
100
AcDbEntity
  8
0
  6
Continuous
 62
     8
100
AcDbLine
 10
115.218258
 20
233.997545
 30
0.0
 11
124.218163
 21
233.997545
 31
0.0
  0
ENDBLK
  5
44A
100
AcDbEntity
  8
0
100
AcDbBlockEnd
  0
BLOCK
  5
44D
100
AcDbEntity
  8
0
100
AcDbBlockBegin
  2
*B57
 70
     0
 10
0.0
 20
0.0
 30
0.0
  3
*B57
  1

  0
LINE
  5
44E
100
AcDbEntity
  8
0
  6
Continuous
 62
     8
100
AcDbLine
 10
235.718279
 20
81.739955
 30
0.0
 11
235.718279
 21
92.139459
 31
0.0
  0
LINE
  5
44F
100
AcDbEntity
  8
0
  6
Continuous
 62
     8
100
AcDbLine
 10
235.718279
 20
98.138895
 30
0.0
 11
235.718279
 21
108.538098
 31
0.0
  0
ENDBLK
  5
450
100
AcDbEntity
  8
0
100
AcDbBlockEnd
  0
BLOCK
  5
453
100
AcDbEntity
  8
0
100
AcDbBlockBegin
  2
*B58
 70
     0
 10
0.0
 20
0.0
 30
0.0
  3
*B58
  1

  0
LINE
  5
454
100
AcDbEntity
  8
0
  6
Continuous
 62
     8
100
AcDbLine
 10
184.418306
 20
217.998748
 30
0.0
 11
184.418306
 21
242.034044
 31
0.0
  0
ENDBLK
  5
455
100
AcDbEntity
  8
0
100
AcDbBlockEnd
  0
BLOCK
  5
458
100
AcDbEntity
  8
0
100
AcDbBlockBegin
  2
*B59
 70
     0
 10
0.0
 20
0.0
 30
0.0
  3
*B59
  1

  0
LINE
  5
459
100
AcDbEntity
  8
0
  6
Continuous
 62
     8
100
AcDbLine
 10
162.718377
 20
144.040847
 30
0.0
 11
162.718377
 21
164.002619
 31
0.0
  0
ENDBLK
  5
45A
100
AcDbEntity
  8
0
100
AcDbBlockEnd
  0
BLOCK
  5
45D
100
AcDbEntity
  8
0
100
AcDbBlockBegin
  2
*B60
 70
     0
 10
0.0
 20
0.0
 30
0.0
  3
*B60
  1

  0
LINE
  5
45E
100
AcDbEntity
  8
0
  6
Continuous
 62
     6
100
AcDbLine
 10
235.718279
 20
94.139271
 30
0.0
 11
235.718279
 21
96.139083
 31
0.0
  0
LINE
  5
45F
100
AcDbEntity
  8
0
  6
Continuous
 62
     6
100
AcDbLine
 10
234.718223
 20
95.139027
 30
0.0
 11
236.718335
 21
95.139027
 31
0.0
  0
ENDBLK
  5
460
100
AcDbEntity
  8
0
100
AcDbBlockEnd
  0
BLOCK
  5
463
100
AcDbEntity
  8
0
100
AcDbBlockBegin
  2
*B61
 70
     0
 10
0.0
 20
0.0
 30
0.0
  3
*B61
  1

  0
LINE
  5
464
100
AcDbEntity
  8
0
  6
Continuous
 62
     6
100
AcDbLine
 10
203.718281
 20
94.139271
 30
0.0
 11
203.718281
 21
96.139083
 31
0.0
  0
LINE
  5
465
100
AcDbEntity
  8
0
  6
Continuous
 62
     6
100
AcDbLine
 10
202.718225
 20
95.139027
 30
0.0
 11
204.718337
 21
95.139027
 31
0.0
  0
ENDBLK
  5
466
100
AcDbEntity
  8
0
100
AcDbBlockEnd
  0
BLOCK
  5
469
100
AcDbEntity
  8
0
100
AcDbBlockBegin
  2
*B62
 70
     0
 10
0.0
 20
0.0
 30
0.0
  3
*B62
  1

  0
LINE
  5
46A
100
AcDbEntity
  8
0
  6
Continuous
 62
     6
100
AcDbLine
 10
307.718124
 20
94.139271
 30
0.0
 11
307.718124
 21
96.139083
 31
0.0
  0
LINE
  5
46B
100
AcDbEntity
  8
0
  6
Continuous
 62
     6
100
AcDbLine
 10
306.718068
 20
95.139027
 30
0.0
 11
308.718181
 21
95.139027
 31
0.0
  0
ENDBLK
  5
46C
100
AcDbEntity
  8
0
100
AcDbBlockEnd
  0
BLOCK
  5
46F
100
AcDbEntity
  8
0
100
AcDbBlockBegin
  2
*B63
 70
     0
 10
0.0
 20
0.0
 30
0.0
  3
*B63
  1

  0
LINE
  5
470
100
AcDbEntity
  8
0
  6
Continuous
 62
     6
100
AcDbLine
 10
157.718396
 20
94.139271
 30
0.0
 11
157.718396
 21
96.139083
 31
0.0
  0
LINE
  5
471
100
AcDbEntity
  8
0
  6
Continuous
 62
     6
100
AcDbLine
 10
156.71834
 20
95.139027
 30
0.0
 11
158.718152
 21
95.139027
 31
0.0
  0
ENDBLK
  5
472
100
AcDbEntity
  8
0
100
AcDbBlockEnd
  0
BLOCK
  5
475
100
AcDbEntity
  8
0
100
AcDbBlockBegin
  2
*B64
 70
     0
 10
0.0
 20
0.0
 30
0.0
  3
*B64
  1

  0
LINE
  5
476
100
AcDbEntity
  8
0
  6
Continuous
 62
     6
100
AcDbLine
 10
251.718278
 20
214.998879
 30
0.0
 11
251.718278
 21
216.998692
 31
0.0
  0
LINE
  5
477
100
AcDbEntity
  8
0
  6
Continuous
 62
     6
100
AcDbLine
 10
250.718222
 20
215.998936
 30
0.0
 11
252.718334
 21
215.998936
 31
0.0
  0
ENDBLK
  5
478
100
AcDbEntity
  8
0
100
AcDbBlockEnd
  0
BLOCK
  5
47B
100
AcDbEntity
  8
0
100
AcDbBlockBegin
  2
*B65
 70
     0
 10
0.0
 20
0.0
 30
0.0
  3
*B65
  1

  0
LINE
  5
47C
100
AcDbEntity
  8
0
  6
Continuous
 62
     6
100
AcDbLine
 10
186.718225
 20
215.998936
 30
0.0
 11
188.718338
 21
215.998936
 31
0.0
  0
LINE
  5
47D
100
AcDbEntity
  8
0
  6
Continuous
 62
     6
100
AcDbLine
 10
187.718282
 20
214.998879
 30
0.0
 11
187.718282
 21
216.998692
 31
0.0
  0
ENDBLK
  5
47E
100
AcDbEntity
  8
0
100
AcDbBlockEnd
  0
BLOCK
  5
481
100
AcDbEntity
  8
0
100
AcDbBlockBegin
  2
*B66
 70
     0
 10
0.0
 20
0.0
 30
0.0
  3
*B66
  1

  0
LINE
  5
482
100
AcDbEntity
  8
0
  6
Continuous
 62
     6
100
AcDbLine
 10
281.718163
 20
94.139271
 30
0.0
 11
281.718163
 21
96.139083
 31
0.0
  0
LINE
  5
483
100
AcDbEntity
  8
0
  6
Continuous
 62
     6
100
AcDbLine
 10
280.718107
 20
95.139027
 30
0.0
 11
282.71822
 21
95.139027
 31
0.0
  0
ENDBLK
  5
484
100
AcDbEntity
  8
0
100
AcDbBlockEnd
  0
BLOCK
  5
487
100
AcDbEntity
  8
0
100
AcDbBlockBegin
  2
*B67
 70
     0
 10
0.0
 20
0.0
 30
0.0
  3
*B67
  1

  0
LINE
  5
488
100
AcDbEntity
  8
0
  6
Continuous
 62
     6
100
AcDbLine
 10
234.718223
 20
176.001792
 30
0.0
 11
236.718335
 21
176.001792
 31
0.0
  0
LINE
  5
489
100
AcDbEntity
  8
0
  6
Continuous
 62
     6
100
AcDbLine
 10
235.718279
 20
175.001736
 30
0.0
 11
235.718279
 21
177.001548
 31
0.0
  0
ENDBLK
  5
48A
100
AcDbEntity
  8
0
100
AcDbBlockEnd
  0
BLOCK
  5
48D
100
AcDbEntity
  8
0
100
AcDbBlockBegin
  2
*B68
 70
     0
 10
0.0
 20
0.0
 30
0.0
  3
*B68
  1

  0
LINE
  5
48E
100
AcDbEntity
  8
0
  6
Continuous
 62
     6
100
AcDbLine
 10
202.718225
 20
176.001792
 30
0.0
 11
204.718337
 21
176.001792
 31
0.0
  0
LINE
  5
48F
100
AcDbEntity
  8
0
  6
Continuous
 62
     6
100
AcDbLine
 10
203.718281
 20
175.001736
 30
0.0
 11
203.718281
 21
177.001548
 31
0.0
  0
ENDBLK
  5
490
100
AcDbEntity
  8
0
100
AcDbBlockEnd
  0
BLOCK
  5
493
100
AcDbEntity
  8
0
100
AcDbBlockBegin
  2
*B69
 70
     0
 10
0.0
 20
0.0
 30
0.0
  3
*B69
  1

  0
LINE
  5
494
100
AcDbEntity
  8
0
  6
Continuous
 62
     6
100
AcDbLine
 10
131.718135
 20
94.139271
 30
0.0
 11
131.718135
 21
96.139083
 31
0.0
  0
LINE
  5
495
100
AcDbEntity
  8
0
  6
Continuous
 62
     6
100
AcDbLine
 10
130.718379
 20
95.139027
 30
0.0
 11
132.718191
 21
95.139027
 31
0.0
  0
ENDBLK
  5
496
100
AcDbEntity
  8
0
100
AcDbBlockEnd
  0
BLOCK
  5
499
100
AcDbEntity
  8
0
100
AcDbBlockBegin
  2
*B70
 70
     0
 10
0.0
 20
0.0
 30
0.0
  3
*B70
  1

  0
TEXT
  5
49A
100
AcDbEntity
  8
TEXT
  6
Continuous
 62
     0
100
AcDbText
 10
165.971499
 20
193.5
 30
0.0
 40
5.0
  1
14
100
AcDbText
  0
ENDBLK
  5
49B
100
AcDbEntity
  8
0
100
AcDbBlockEnd
  0
BLOCK
  5
49E
100
AcDbEntity
  8
0
100
AcDbBlockBegin
  2
*B71
 70
     0
 10
0.0
 20
0.0
 30
0.0
  3
*B71
  1

  0
TEXT
  5
49F
100
AcDbEntity
  8
TEXT
  6
Continuous
 62
     0
100
AcDbText
 10
264.971499
 20
194.0
 30
0.0
 40
5.0
  1
12
100
AcDbText
  0
ENDBLK
  5
4A0
100
AcDbEntity
  8
0
100
AcDbBlockEnd
  0
BLOCK
  5
4A3
100
AcDbEntity
  8
0
100
AcDbBlockBegin
  2
*B72
 70
     0
 10
0.0
 20
0.0
 30
0.0
  3
*B72
  1

  0
TEXT
  5
4A4
100
AcDbEntity
  8
TEXT
  6
Continuous
 62
     0
100
AcDbText
 10
217.73575
 20
169.5
 30
0.0
 40
5.0
  1
1
100
AcDbText
  0
ENDBLK
  5
4A5
100
AcDbEntity
  8
0
100
AcDbBlockEnd
  0
BLOCK
  5
4A8
100
AcDbEntity
  8
0
100
AcDbBlockBegin
  2
*B73
 70
     0
 10
0.0
 20
0.0
 30
0.0
  3
*B73
  1

  0
TEXT
  5
4A9
100
AcDbEntity
  8
TEXT
  6
Continuous
 62
     0
100
AcDbText
 10
233.73575
 20
217.0
 30
0.0
 40
5.0
  1
2
100
AcDbText
  0
ENDBLK
  5
4AA
100
AcDbEntity
  8
0
100
AcDbBlockEnd
  0
BLOCK
  5
4AD
100
AcDbEntity
  8
0
100
AcDbBlockBegin
  2
*B74
 70
     0
 10
0.0
 20
0.0
 30
0.0
  3
*B74
  1

  0
TEXT
  5
4AE
100
AcDbEntity
  8
TEXT
  6
Continuous
 62
     0
100
AcDbText
 10
249.73575
 20
170.0
 30
0.0
 40
5.0
  1
3
100
AcDbText
  0
ENDBLK
  5
4AF
100
AcDbEntity
  8
0
100
AcDbBlockEnd
  0
BLOCK
  5
4B2
100
AcDbEntity
  8
0
100
AcDbBlockBegin
  2
*B75
 70
     0
 10
0.0
 20
0.0
 30
0.0
  3
*B75
  1

  0
TEXT
  5
4B3
100
AcDbEntity
  8
TEXT
  6
Continuous
 62
     0
100
AcDbText
 10
201.73575
 20
217.0
 30
0.0
 40
5.0
  1
4
100
AcDbText
  0
ENDBLK
  5
4B4
100
AcDbEntity
  8
0
100
AcDbBlockEnd
  0
BLOCK
  5
4B7
100
AcDbEntity
  8
0
100
AcDbBlockBegin
  2
*B76
 70
     0
 10
0.0
 20
0.0
 30
0.0
  3
*B76
  1

  0
TEXT
  5
4B8
100
AcDbEntity
  8
TEXT
  6
Continuous
 62
     0
100
AcDbText
 10
185.73575
 20
169.5
 30
0.0
 40
5.0
  1
5
100
AcDbText
  0
ENDBLK
  5
4B9
100
AcDbEntity
  8
0
100
AcDbBlockEnd
  0
BLOCK
  5
4BC
100
AcDbEntity
  8
0
100
AcDbBlockBegin
  2
*B77
 70
     0
 10
0.0
 20
0.0
 30
0.0
  3
*B77
  1

  0
TEXT
  5
4BD
100
AcDbEntity
  8
TEXT
  6
Continuous
 62
     0
100
AcDbText
 10
159.1
 20
88.34145
 30
0.0
 40
3.0
  1
0
 50
90.0
100
AcDbText
  0
ENDBLK
  5
4BE
100
AcDbEntity
  8
0
100
AcDbBlockEnd
  0
BLOCK
  5
4C1
100
AcDbEntity
  8
0
100
AcDbBlockBegin
  2
*B78
 70
     0
 10
0.0
 20
0.0
 30
0.0
  3
*B78
  1

  0
TEXT
  5
4C2
100
AcDbEntity
  8
TEXT
  6
Continuous
 62
     0
100
AcDbText
 10
153.5
 20
93.94145
 30
0.0
 40
3.0
  1
1
 50
90.0
100
AcDbText
  0
ENDBLK
  5
4C3
100
AcDbEntity
  8
0
100
AcDbBlockEnd
  0
BLOCK
  5
4C6
100
AcDbEntity
  8
0
100
AcDbBlockBegin
  2
*B79
 70
     0
 10
0.0
 20
0.0
 30
0.0
  3
*B79
  1

  0
TEXT
  5
4C7
100
AcDbEntity
  8
TEXT
  6
Continuous
 62
     0
100
AcDbText
 10
283.1
 20
99.34145
 30
0.0
 40
3.0
  1
0
 50
90.0
100
AcDbText
  0
ENDBLK
  5
4C8
100
AcDbEntity
  8
0
100
AcDbBlockEnd
  0
BLOCK
  5
4CB
100
AcDbEntity
  8
0
100
AcDbBlockBegin
  2
*B80
 70
     0
 10
0.0
 20
0.0
 30
0.0
  3
*B80
  1

  0
TEXT
  5
4CC
100
AcDbEntity
  8
TEXT
  6
Continuous
 62
     0
100
AcDbText
 10
286.1
 20
96.25855
 30
0.0
 40
3.0
  1
1
 50
-90.0
100
AcDbText
  0
ENDBLK
  5
4CD
100
AcDbEntity
  8
0
100
AcDbBlockEnd
  0
BLOCK
  5
4D0
100
AcDbEntity
  8
0
100
AcDbBlockBegin
  2
*B81
 70
     0
 10
0.0
 20
0.0
 30
0.0
  3
*B81
  1

  0
TEXT
  5
4D1
100
AcDbEntity
  8
TEXT
  6
Continuous
 62
     0
100
AcDbText
 10
313.859267
 20
255.75
 30
0.0
 40
3.5
  1
48
100
AcDbText
  0
ENDBLK
  5
4D2
100
AcDbEntity
  8
0
100
AcDbBlockEnd
  0
BLOCK
  5
4D5
100
AcDbEntity
  8
0
100
AcDbBlockBegin
  2
*B82
 70
     0
 10
0.0
 20
0.0
 30
0.0
  3
*B82
  1

  0
TEXT
  5
4D6
100
AcDbEntity
  8
TEXT
  6
Continuous
 62
     0
100
AcDbText
 10
118.859267
 20
255.75
 30
0.0
 40
3.5
  1
48
100
AcDbText
  0
ENDBLK
  5
4D7
100
AcDbEntity
  8
0
100
AcDbBlockEnd
  0
BLOCK
  5
4DA
100
AcDbEntity
  8
0
100
AcDbBlockBegin
  2
*B83
 70
     0
 10
0.0
 20
0.0
 30
0.0
  3
*B83
  1

  0
TEXT
  5
4DB
100
AcDbEntity
  8
TEXT
  6
Continuous
 62
     0
100
AcDbText
 10
214.6926
 20
131.75
 30
0.0
 40
3.5
  1
146
100
AcDbText
  0
ENDBLK
  5
4DC
100
AcDbEntity
  8
0
100
AcDbBlockEnd
  0
BLOCK
  5
4DF
100
AcDbEntity
  8
0
100
AcDbBlockBegin
  2
*B84
 70
     0
 10
0.0
 20
0.0
 30
0.0
  3
*B84
  1

  0
TEXT
  5
4E0
100
AcDbEntity
  8
TEXT
  6
Continuous
 62
     0
100
AcDbText
 10
252.859267
 20
241.75
 30
0.0
 40
3.5
  1
41
100
AcDbText
  0
ENDBLK
  5
4E1
100
AcDbEntity
  8
0
100
AcDbBlockEnd
  0
BLOCK
  5
4E4
100
AcDbEntity
  8
0
100
AcDbBlockBegin
  2
*B85
 70
     0
 10
0.0
 20
0.0
 30
0.0
  3
*B85
  1

  0
TEXT
  5
4E5
100
AcDbEntity
  8
TEXT
  6
Continuous
 62
     0
100
AcDbText
 10
216.359267
 20
241.75
 30
0.0
 40
3.5
  1
32
100
AcDbText
  0
ENDBLK
  5
4E6
100
AcDbEntity
  8
0
100
AcDbBlockEnd
  0
BLOCK
  5
4E9
100
AcDbEntity
  8
0
100
AcDbBlockBegin
  2
*B86
 70
     0
 10
0.0
 20
0.0
 30
0.0
  3
*B86
  1

  0
TEXT
  5
4EA
100
AcDbEntity
  8
TEXT
  6
Continuous
 62
     0
100
AcDbText
 10
260.859267
 20
147.75
 30
0.0
 40
3.5
  1
25
100
AcDbText
  0
ENDBLK
  5
4EB
100
AcDbEntity
  8
0
100
AcDbBlockEnd
  0
BLOCK
  5
4EE
100
AcDbEntity
  8
0
100
AcDbBlockBegin
  2
*B87
 70
     0
 10
0.0
 20
0.0
 30
0.0
  3
*B87
  1

  0
TEXT
  5
4EF
100
AcDbEntity
  8
TEXT
  6
Continuous
 62
     0
100
AcDbText
 10
232.359267
 20
147.75
 30
0.0
 40
3.5
  1
32
100
AcDbText
  0
ENDBLK
  5
4F0
100
AcDbEntity
  8
0
100
AcDbBlockEnd
  0
BLOCK
  5
4F3
100
AcDbEntity
  8
0
100
AcDbBlockBegin
  2
*B88
 70
     0
 10
0.0
 20
0.0
 30
0.0
  3
*B88
  1

  0
TEXT
  5
4F4
100
AcDbEntity
  8
TEXT
  6
Continuous
 62
     0
100
AcDbText
 10
200.359267
 20
147.75
 30
0.0
 40
3.5
  1
32
100
AcDbText
  0
ENDBLK
  5
4F5
100
AcDbEntity
  8
0
100
AcDbBlockEnd
  0
BLOCK
  5
4F8
100
AcDbEntity
  8
0
100
AcDbBlockBegin
  2
*B89
 70
     0
 10
0.0
 20
0.0
 30
0.0
  3
*B89
  1

  0
TEXT
  5
4F9
100
AcDbEntity
  8
TEXT
  6
Continuous
 62
     0
100
AcDbText
 10
171.859267
 20
147.75
 30
0.0
 40
3.5
  1
25
100
AcDbText
  0
ENDBLK
  5
4FA
100
AcDbEntity
  8
0
100
AcDbBlockEnd
  0
BLOCK
  5
4FD
100
AcDbEntity
  8
0
100
AcDbBlockBegin
  2
*B90
 70
     0
 10
0.0
 20
0.0
 30
0.0
  3
*B90
  1

  0
TEXT
  5
4FE
100
AcDbEntity
  8
TEXT
  6
Continuous
 62
     0
100
AcDbText
 10
163.383333
 20
241.75
 30
0.0
 40
3.5
  1
%%c6,6
100
AcDbText
  0
ENDBLK
  5
4FF
100
AcDbEntity
  8
0
100
AcDbBlockEnd
  0
BLOCK
  5
502
100
AcDbEntity
  8
0
100
AcDbBlockBegin
  2
*B91
 70
     0
 10
0.0
 20
0.0
 30
0.0
  3
*B91
  1

  0
TEXT
  5
503
100
AcDbEntity
  8
TEXT
  6
Continuous
 62
     0
100
AcDbText
 10
82.25
 20
91.761286
 30
0.0
 40
3.5
  1
30
 50
90.0
100
AcDbText
  0
ENDBLK
  5
504
100
AcDbEntity
  8
0
100
AcDbBlockEnd
  0
BLOCK
  5
507
100
AcDbEntity
  8
0
100
AcDbBlockBegin
  2
*B92
 70
     0
 10
0.0
 20
0.0
 30
0.0
  3
*B92
  1

  0
TEXT
  5
508
100
AcDbEntity
  8
TEXT
  6
Continuous
 62
     0
100
AcDbText
 10
83.25
 20
201.129441
 30
0.0
 40
3.5
  1
77
 50
90.0
100
AcDbText
  0
ENDBLK
  5
509
100
AcDbEntity
  8
0
100
AcDbBlockEnd
  0
BLOCK
  5
50C
100
AcDbEntity
  8
0
100
AcDbBlockBegin
  2
*B93
 70
     0
 10
0.0
 20
0.0
 30
0.0
  3
*B93
  1

  0
TEXT
  5
50D
100
AcDbEntity
  8
TEXT
  6
Continuous
 62
     0
100
AcDbText
 10
216.359267
 20
255.75
 30
0.0
 40
3.5
  1
64
100
AcDbText
  0
ENDBLK
  5
50E
100
AcDbEntity
  8
0
100
AcDbBlockEnd
  0
BLOCK
  5
511
100
AcDbEntity
  8
0
100
AcDbBlockBegin
  2
*B94
 70
     0
 10
0.0
 20
0.0
 30
0.0
  3
*B94
  1

  0
TEXT
  5
512
100
AcDbEntity
  8
TEXT
  6
Continuous
 62
     0
100
AcDbText
 10
252.416667
 20
66.333794
 30
0.0
 40
3.5
  1
G 1/2"
100
AcDbText
  0
ENDBLK
  5
513
100
AcDbEntity
  8
0
100
AcDbBlockEnd
  0
BLOCK
  5
516
100
AcDbEntity
  8
0
100
AcDbBlockBegin
  2
*B95
 70
     0
 10
0.0
 20
0.0
 30
0.0
  3
*B95
  1

  0
TEXT
  5
517
100
AcDbEntity
  8
TEXT
  6
Continuous
 62
     0
100
AcDbText
 10
284.25
 20
192.629666
 30
0.0
 40
3.5
  1
40
 50
90.0
100
AcDbText
  0
ENDBLK
  5
518
100
AcDbEntity
  8
0
100
AcDbBlockEnd
  0
BLOCK
  5
51B
100
AcDbEntity
  8
0
100
AcDbBlockBegin
  2
*B96
 70
     0
 10
0.0
 20
0.0
 30
0.0
  3
*B96
  1

  0
TEXT
  5
51C
100
AcDbEntity
  8
TEXT
  6
Continuous
 62
     0
100
AcDbText
 10
308.25
 20
192.629666
 30
0.0
 40
3.5
  1
60
 50
90.0
100
AcDbText
  0
ENDBLK
  5
51D
100
AcDbEntity
  8
0
100
AcDbBlockEnd
  0
ENDSEC
  0
SECTION
  2
ENTITIES
  0
INSERT
  5
1AF
100
AcDbEntity
  8
0
  6
Continuous
 62
   174
100
AcDbBlockReference
  2
*B1
 10
0.0
 20
0.0
 30
0.0
  0
INSERT
  5
28B
100
AcDbEntity
  8
0
  6
Continuous
 62
   174
100
AcDbBlockReference
  2
*B2
 10
0.0
 20
0.0
 30
0.0
  0
INSERT
  5
291
100
AcDbEntity
  8
0
  6
Continuous
 62
   172
100
AcDbBlockReference
  2
*B3
 10
0.0
 20
0.0
 30
0.0
  0
INSERT
  5
29C
100
AcDbEntity
  8
0
  6
Continuous
 62
   172
100
AcDbBlockReference
  2
*B4
 10
0.0
 20
0.0
 30
0.0
  0
INSERT
  5
2A6
100
AcDbEntity
  8
0
  6
Continuous
 62
     0
100
AcDbBlockReference
  2
*B6
 10
0.0
 20
0.0
 30
0.0
  0
INSERT
  5
2AD
100
AcDbEntity
  8
0
  6
Continuous
 62
     0
100
AcDbBlockReference
  2
*B7
 10
0.0
 20
0.0
 30
0.0
  0
INSERT
  5
2B4
100
AcDbEntity
  8
0
  6
Continuous
 62
     0
100
AcDbBlockReference
  2
*B8
 10
0.0
 20
0.0
 30
0.0
  0
INSERT
  5
2BB
100
AcDbEntity
  8
0
  6
Continuous
 62
     0
100
AcDbBlockReference
  2
*B9
 10
0.0
 20
0.0
 30
0.0
  0
INSERT
  5
2C2
100
AcDbEntity
  8
0
  6
Continuous
 62
     0
100
AcDbBlockReference
  2
*B10
 10
0.0
 20
0.0
 30
0.0
  0
INSERT
  5
2C9
100
AcDbEntity
  8
0
  6
Continuous
 62
     0
100
AcDbBlockReference
  2
*B11
 10
0.0
 20
0.0
 30
0.0
  0
INSERT
  5
2D0
100
AcDbEntity
  8
0
  6
Continuous
 62
     0
100
AcDbBlockReference
  2
*B12
 10
0.0
 20
0.0
 30
0.0
  0
INSERT
  5
2D7
100
AcDbEntity
  8
0
  6
Continuous
 62
     0
100
AcDbBlockReference
  2
*B13
 10
0.0
 20
0.0
 30
0.0
  0
INSERT
  5
2DE
100
AcDbEntity
  8
0
  6
Continuous
 62
     0
100
AcDbBlockReference
  2
*B14
 10
0.0
 20
0.0
 30
0.0
  0
INSERT
  5
2E5
100
AcDbEntity
  8
0
  6
Continuous
 62
     0
100
AcDbBlockReference
  2
*B15
 10
0.0
 20
0.0
 30
0.0
  0
INSERT
  5
2EC
100
AcDbEntity
  8
0
  6
Continuous
 62
     0
100
AcDbBlockReference
  2
*B16
 10
0.0
 20
0.0
 30
0.0
  0
INSERT
  5
2F3
100
AcDbEntity
  8
0
  6
Continuous
 62
     0
100
AcDbBlockReference
  2
*B17
 10
0.0
 20
0.0
 30
0.0
  0
INSERT
  5
2FA
100
AcDbEntity
  8
0
  6
Continuous
 62
     0
100
AcDbBlockReference
  2
*B18
 10
0.0
 20
0.0
 30
0.0
  0
INSERT
  5
301
100
AcDbEntity
  8
0
  6
Continuous
 62
     0
100
AcDbBlockReference
  2
*B19
 10
0.0
 20
0.0
 30
0.0
  0
INSERT
  5
308
100
AcDbEntity
  8
0
  6
Continuous
 62
     0
100
AcDbBlockReference
  2
*B20
 10
0.0
 20
0.0
 30
0.0
  0
INSERT
  5
30F
100
AcDbEntity
  8
0
  6
Continuous
 62
     0
100
AcDbBlockReference
  2
*B21
 10
0.0
 20
0.0
 30
0.0
  0
INSERT
  5
314
100
AcDbEntity
  8
0
  6
Continuous
 62
     8
100
AcDbBlockReference
  2
*B22
 10
0.0
 20
0.0
 30
0.0
  0
INSERT
  5
328
100
AcDbEntity
  8
0
  6
Continuous
 62
     8
100
AcDbBlockReference
  2
*B23
 10
0.0
 20
0.0
 30
0.0
  0
INSERT
  5
32D
100
AcDbEntity
  8
0
  6
Continuous
 62
     8
100
AcDbBlockReference
  2
*B24
 10
0.0
 20
0.0
 30
0.0
  0
INSERT
  5
332
100
AcDbEntity
  8
0
  6
Continuous
 62
     8
100
AcDbBlockReference
  2
*B25
 10
0.0
 20
0.0
 30
0.0
  0
INSERT
  5
338
100
AcDbEntity
  8
0
  6
Continuous
 62
     8
100
AcDbBlockReference
  2
*B26
 10
0.0
 20
0.0
 30
0.0
  0
INSERT
  5
33D
100
AcDbEntity
  8
0
  6
Continuous
 62
     8
100
AcDbBlockReference
  2
*B27
 10
0.0
 20
0.0
 30
0.0
  0
INSERT
  5
342
100
AcDbEntity
  8
0
  6
Continuous
 62
     8
100
AcDbBlockReference
  2
*B28
 10
0.0
 20
0.0
 30
0.0
  0
INSERT
  5
34C
100
AcDbEntity
  8
0
  6
Continuous
 62
     8
100
AcDbBlockReference
  2
*B29
 10
0.0
 20
0.0
 30
0.0
  0
INSERT
  5
351
100
AcDbEntity
  8
0
  6
Continuous
 62
     8
100
AcDbBlockReference
  2
*B30
 10
0.0
 20
0.0
 30
0.0
  0
INSERT
  5
356
100
AcDbEntity
  8
0
  6
Continuous
 62
     8
100
AcDbBlockReference
  2
*B31
 10
0.0
 20
0.0
 30
0.0
  0
INSERT
  5
361
100
AcDbEntity
  8
0
  6
Continuous
 62
     8
100
AcDbBlockReference
  2
*B32
 10
0.0
 20
0.0
 30
0.0
  0
INSERT
  5
367
100
AcDbEntity
  8
0
  6
Continuous
 62
     8
100
AcDbBlockReference
  2
*B33
 10
0.0
 20
0.0
 30
0.0
  0
INSERT
  5
36C
100
AcDbEntity
  8
0
  6
Continuous
 62
     8
100
AcDbBlockReference
  2
*B34
 10
0.0
 20
0.0
 30
0.0
  0
INSERT
  5
380
100
AcDbEntity
  8
0
  6
Continuous
 62
     8
100
AcDbBlockReference
  2
*B35
 10
0.0
 20
0.0
 30
0.0
  0
INSERT
  5
3A1
100
AcDbEntity
  8
0
  6
Continuous
 62
     8
100
AcDbBlockReference
  2
*B36
 10
0.0
 20
0.0
 30
0.0
  0
INSERT
  5
3B0
100
AcDbEntity
  8
0
  6
Continuous
 62
     8
100
AcDbBlockReference
  2
*B37
 10
0.0
 20
0.0
 30
0.0
  0
INSERT
  5
3B6
100
AcDbEntity
  8
0
  6
Continuous
 62
     8
100
AcDbBlockReference
  2
*B38
 10
0.0
 20
0.0
 30
0.0
  0
INSERT
  5
3BB
100
AcDbEntity
  8
0
  6
Continuous
 62
     8
100
AcDbBlockReference
  2
*B39
 10
0.0
 20
0.0
 30
0.0
  0
INSERT
  5
3C0
100
AcDbEntity
  8
0
  6
Continuous
 62
     8
100
AcDbBlockReference
  2
*B40
 10
0.0
 20
0.0
 30
0.0
  0
INSERT
  5
3C5
100
AcDbEntity
  8
0
  6
Continuous
 62
     8
100
AcDbBlockReference
  2
*B41
 10
0.0
 20
0.0
 30
0.0
  0
INSERT
  5
3CA
100
AcDbEntity
  8
0
  6
Continuous
 62
     8
100
AcDbBlockReference
  2
*B42
 10
0.0
 20
0.0
 30
0.0
  0
INSERT
  5
3CF
100
AcDbEntity
  8
0
  6
Continuous
 62
     8
100
AcDbBlockReference
  2
*B43
 10
0.0
 20
0.0
 30
0.0
  0
INSERT
  5
3D5
100
AcDbEntity
  8
0
  6
Continuous
 62
     8
100
AcDbBlockReference
  2
*B44
 10
0.0
 20
0.0
 30
0.0
  0
INSERT
  5
3DA
100
AcDbEntity
  8
0
  6
Continuous
 62
     8
100
AcDbBlockReference
  2
*B45
 10
0.0
 20
0.0
 30
0.0
  0
INSERT
  5
3E3
100
AcDbEntity
  8
0
  6
Continuous
 62
     8
100
AcDbBlockReference
  2
*B46
 10
0.0
 20
0.0
 30
0.0
  0
INSERT
  5
3EA
100
AcDbEntity
  8
0
  6
Continuous
 62
     8
100
AcDbBlockReference
  2
*B47
 10
0.0
 20
0.0
 30
0.0
  0
INSERT
  5
3F0
100
AcDbEntity
  8
0
  6
Continuous
 62
     8
100
AcDbBlockReference
  2
*B48
 10
0.0
 20
0.0
 30
0.0
  0
INSERT
  5
417
100
AcDbEntity
  8
0
  6
Continuous
 62
     8
100
AcDbBlockReference
  2
*B49
 10
0.0
 20
0.0
 30
0.0
  0
INSERT
  5
41D
100
AcDbEntity
  8
0
  6
Continuous
 62
     8
100
AcDbBlockReference
  2
*B50
 10
0.0
 20
0.0
 30
0.0
  0
INSERT
  5
423
100
AcDbEntity
  8
0
  6
Continuous
 62
     8
100
AcDbBlockReference
  2
*B51
 10
0.0
 20
0.0
 30
0.0
  0
INSERT
  5
429
100
AcDbEntity
  8
0
  6
Continuous
 62
     8
100
AcDbBlockReference
  2
*B52
 10
0.0
 20
0.0
 30
0.0
  0
INSERT
  5
42F
100
AcDbEntity
  8
0
  6
Continuous
 62
     8
100
AcDbBlockReference
  2
*B53
 10
0.0
 20
0.0
 30
0.0
  0
INSERT
  5
43E
100
AcDbEntity
  8
0
  6
Continuous
 62
     8
100
AcDbBlockReference
  2
*B54
 10
0.0
 20
0.0
 30
0.0
  0
INSERT
  5
444
100
AcDbEntity
  8
0
  6
Continuous
 62
     8
100
AcDbBlockReference
  2
*B55
 10
0.0
 20
0.0
 30
0.0
  0
INSERT
  5
44B
100
AcDbEntity
  8
0
  6
Continuous
 62
     8
100
AcDbBlockReference
  2
*B56
 10
0.0
 20
0.0
 30
0.0
  0
INSERT
  5
451
100
AcDbEntity
  8
0
  6
Continuous
 62
     8
100
AcDbBlockReference
  2
*B57
 10
0.0
 20
0.0
 30
0.0
  0
INSERT
  5
456
100
AcDbEntity
  8
0
  6
Continuous
 62
     8
100
AcDbBlockReference
  2
*B58
 10
0.0
 20
0.0
 30
0.0
  0
INSERT
  5
45B
100
AcDbEntity
  8
0
  6
Continuous
 62
     8
100
AcDbBlockReference
  2
*B59
 10
0.0
 20
0.0
 30
0.0
  0
INSERT
  5
461
100
AcDbEntity
  8
0
  6
Continuous
 62
     6
100
AcDbBlockReference
  2
*B60
 10
0.0
 20
0.0
 30
0.0
  0
INSERT
  5
467
100
AcDbEntity
  8
0
  6
Continuous
 62
     6
100
AcDbBlockReference
  2
*B61
 10
0.0
 20
0.0
 30
0.0
  0
INSERT
  5
46D
100
AcDbEntity
  8
0
  6
Continuous
 62
     6
100
AcDbBlockReference
  2
*B62
 10
0.0
 20
0.0
 30
0.0
  0
INSERT
  5
473
100
AcDbEntity
  8
0
  6
Continuous
 62
     6
100
AcDbBlockReference
  2
*B63
 10
0.0
 20
0.0
 30
0.0
  0
INSERT
  5
479
100
AcDbEntity
  8
0
  6
Continuous
 62
     6
100
AcDbBlockReference
  2
*B64
 10
0.0
 20
0.0
 30
0.0
  0
INSERT
  5
47F
100
AcDbEntity
  8
0
  6
Continuous
 62
     6
100
AcDbBlockReference
  2
*B65
 10
0.0
 20
0.0
 30
0.0
  0
INSERT
  5
485
100
AcDbEntity
  8
0
  6
Continuous
 62
     6
100
AcDbBlockReference
  2
*B66
 10
0.0
 20
0.0
 30
0.0
  0
INSERT
  5
48B
100
AcDbEntity
  8
0
  6
Continuous
 62
     6
100
AcDbBlockReference
  2
*B67
 10
0.0
 20
0.0
 30
0.0
  0
INSERT
  5
491
100
AcDbEntity
  8
0
  6
Continuous
 62
     6
100
AcDbBlockReference
  2
*B68
 10
0.0
 20
0.0
 30
0.0
  0
INSERT
  5
497
100
AcDbEntity
  8
0
  6
Continuous
 62
     6
100
AcDbBlockReference
  2
*B69
 10
0.0
 20
0.0
 30
0.0
  0
INSERT
  5
49C
100
AcDbEntity
  8
TEXT
  6
Continuous
 62
     0
100
AcDbBlockReference
  2
*B70
 10
0.0
 20
0.0
 30
0.0
  0
INSERT
  5
4A1
100
AcDbEntity
  8
TEXT
  6
Continuous
 62
     0
100
AcDbBlockReference
  2
*B71
 10
0.0
 20
0.0
 30
0.0
  0
INSERT
  5
4A6
100
AcDbEntity
  8
TEXT
  6
Continuous
 62
     0
100
AcDbBlockReference
  2
*B72
 10
0.0
 20
0.0
 30
0.0
  0
INSERT
  5
4AB
100
AcDbEntity
  8
TEXT
  6
Continuous
 62
     0
100
AcDbBlockReference
  2
*B73
 10
0.0
 20
0.0
 30
0.0
  0
INSERT
  5
4B0
100
AcDbEntity
  8
TEXT
  6
Continuous
 62
     0
100
AcDbBlockReference
  2
*B74
 10
0.0
 20
0.0
 30
0.0
  0
INSERT
  5
4B5
100
AcDbEntity
  8
TEXT
  6
Continuous
 62
     0
100
AcDbBlockReference
  2
*B75
 10
0.0
 20
0.0
 30
0.0
  0
INSERT
  5
4BA
100
AcDbEntity
  8
TEXT
  6
Continuous
 62
     0
100
AcDbBlockReference
  2
*B76
 10
0.0
 20
0.0
 30
0.0
  0
INSERT
  5
4BF
100
AcDbEntity
  8
TEXT
  6
Continuous
 62
     0
100
AcDbBlockReference
  2
*B77
 10
0.0
 20
0.0
 30
0.0
  0
INSERT
  5
4C4
100
AcDbEntity
  8
TEXT
  6
Continuous
 62
     0
100
AcDbBlockReference
  2
*B78
 10
0.0
 20
0.0
 30
0.0
  0
INSERT
  5
4C9
100
AcDbEntity
  8
TEXT
  6
Continuous
 62
     0
100
AcDbBlockReference
  2
*B79
 10
0.0
 20
0.0
 30
0.0
  0
INSERT
  5
4CE
100
AcDbEntity
  8
TEXT
  6
Continuous
 62
     0
100
AcDbBlockReference
  2
*B80
 10
0.0
 20
0.0
 30
0.0
  0
INSERT
  5
4D3
100
AcDbEntity
  8
TEXT
  6
Continuous
 62
     0
100
AcDbBlockReference
  2
*B81
 10
0.0
 20
0.0
 30
0.0
  0
INSERT
  5
4D8
100
AcDbEntity
  8
TEXT
  6
Continuous
 62
     0
100
AcDbBlockReference
  2
*B82
 10
0.0
 20
0.0
 30
0.0
  0
INSERT
  5
4DD
100
AcDbEntity
  8
TEXT
  6
Continuous
 62
     0
100
AcDbBlockReference
  2
*B83
 10
0.0
 20
0.0
 30
0.0
  0
INSERT
  5
4E2
100
AcDbEntity
  8
TEXT
  6
Continuous
 62
     0
100
AcDbBlockReference
  2
*B84
 10
0.0
 20
0.0
 30
0.0
  0
INSERT
  5
4E7
100
AcDbEntity
  8
TEXT
  6
Continuous
 62
     0
100
AcDbBlockReference
  2
*B85
 10
0.0
 20
0.0
 30
0.0
  0
INSERT
  5
4EC
100
AcDbEntity
  8
TEXT
  6
Continuous
 62
     0
100
AcDbBlockReference
  2
*B86
 10
0.0
 20
0.0
 30
0.0
  0
INSERT
  5
4F1
100
AcDbEntity
  8
TEXT
  6
Continuous
 62
     0
100
AcDbBlockReference
  2
*B87
 10
0.0
 20
0.0
 30
0.0
  0
INSERT
  5
4F6
100
AcDbEntity
  8
TEXT
  6
Continuous
 62
     0
100
AcDbBlockReference
  2
*B88
 10
0.0
 20
0.0
 30
0.0
  0
INSERT
  5
4FB
100
AcDbEntity
  8
TEXT
  6
Continuous
 62
     0
100
AcDbBlockReference
  2
*B89
 10
0.0
 20
0.0
 30
0.0
  0
INSERT
  5
500
100
AcDbEntity
  8
TEXT
  6
Continuous
 62
     0
100
AcDbBlockReference
  2
*B90
 10
0.0
 20
0.0
 30
0.0
  0
INSERT
  5
505
100
AcDbEntity
  8
TEXT
  6
Continuous
 62
     0
100
AcDbBlockReference
  2
*B91
 10
0.0
 20
0.0
 30
0.0
  0
INSERT
  5
50A
100
AcDbEntity
  8
TEXT
  6
Continuous
 62
     0
100
AcDbBlockReference
  2
*B92
 10
0.0
 20
0.0
 30
0.0
  0
INSERT
  5
50F
100
AcDbEntity
  8
TEXT
  6
Continuous
 62
     0
100
AcDbBlockReference
  2
*B93
 10
0.0
 20
0.0
 30
0.0
  0
INSERT
  5
514
100
AcDbEntity
  8
TEXT
  6
Continuous
 62
     0
100
AcDbBlockReference
  2
*B94
 10
0.0
 20
0.0
 30
0.0
  0
INSERT
  5
519
100
AcDbEntity
  8
TEXT
  6
Continuous
 62
     0
100
AcDbBlockReference
  2
*B95
 10
0.0
 20
0.0
 30
0.0
  0
INSERT
  5
51E
100
AcDbEntity
  8
TEXT
  6
Continuous
 62
     0
100
AcDbBlockReference
  2
*B96
 10
0.0
 20
0.0
 30
0.0
  0
ENDSEC
  0
SECTION
  2
OBJECTS
  0
DICTIONARY
  5
19
100
AcDbDictionary
280
     0
281
     1
  3
ACAD_GROUP
350
1A
  3
ACAD_MLINESTYLE
350
1B
  3
ACAD_LAYOUT
350
1E
  3
ACAD_PLOTSETTINGS
350
22
  3
ACAD_PLOTSTYLENAME
350
1F
  3
ACAD_WIPEOUT_VARS
350
23
  0
DICTIONARY
  5
1A
102
{ACAD_REACTORS
330
19
102
}
100
AcDbDictionary
280
     0
281
     1
  0
DICTIONARY
  5
1B
102
{ACAD_REACTORS
330
19
102
}
100
AcDbDictionary
280
     0
281
     1
  3
Standard
350
1C
  0
MLINESTYLE
  5
1C
102
{ACAD_REACTORS
330
1B
102
}
100
AcDbMlineStyle
  2
Standard
 70
     0
  3

 62
     0
 51
90.0
 52
90.0
 71
     2
 49
0.5
 62
   256
  6
BYLAYER
 49
-0.5
 62
   256
  6
BYLAYER
  0
ACDBDICTIONARYWDFLT
  5
1F
102
{ACAD_REACTORS
330
19
102
}
100
AcDbDictionary
281
     1
  3
Normal
350
1D
100
AcDbDictionaryWithDefault
340
1D
  0
ACDBPLACEHOLDER
  5
1D
102
{ACAD_REACTORS
330
1F
102
}
  0
LAYOUT
  5
20
102
{ACAD_REACTORS
330
1E
102
}
100
AcDbPlotSettings
  1

  2

  4

  6

 40
0.0
 41
0.0
 42
0.0
 43
0.0
 44
0.0
 45
0.0
 46
0.0
 47
0.0
 48
0.0
 49
0.0
140
0.0
141
0.0
142
1.0
143
1.0
 70
     0
 72
     0
 73
     0
 74
     0
  7

 75
     0
147
1.0
148
0.0
149
0.0
100
AcDbLayout
  1
Model
 70
     0
 71
     0
 10
0.0
 20
0.0
 11
0.0
 21
0.0
 12
0.0
 22
0.0
 32
0.0
 14
0.0
 24
0.0
 34
0.0
 15
0.0
 25
0.0
 35
0.0
146
0.0
 13
0.0
 23
0.0
 33
0.0
 16
0.0
 26
0.0
 36
0.0
 17
0.0
 27
0.0
 37
0.0
 76
     0
330
A
331
0
345
0
346
0
  0
LAYOUT
  5
21
102
{ACAD_REACTORS
330
1E
102
}
100
AcDbPlotSettings
  1

  2

  4

  6

 40
0.0
 41
0.0
 42
0.0
 43
0.0
 44
0.0
 45
0.0
 46
0.0
 47
0.0
 48
0.0
 49
0.0
140
0.0
141
0.0
142
1.0
143
1.0
 70
     0
 72
     0
 73
     0
 74
     0
  7

 75
     0
147
1.0
148
0.0
149
0.0
100
AcDbLayout
  1
Layout1
 70
     0
 71
     0
 10
0.0
 20
0.0
 11
0.0
 21
0.0
 12
0.0
 22
0.0
 32
0.0
 14
0.0
 24
0.0
 34
0.0
 15
0.0
 25
0.0
 35
0.0
146
0.0
 13
0.0
 23
0.0
 33
0.0
 16
0.0
 26
0.0
 36
0.0
 17
0.0
 27
0.0
 37
0.0
 76
     0
330
B
331
0
345
0
346
0
  0
DICTIONARY
  5
1E
102
{ACAD_REACTORS
330
19
102
}
100
AcDbDictionary
280
     0
281
     1
  3
Layout1
350
21
  3
Model
350
20
  0
DICTIONARY
  5
22
102
{ACAD_REACTORS
330
19
102
}
100
AcDbDictionary
280
     0
281
     1
  0
WIPEOUTVARIABLES
  5
23
100
AcDbWipeoutVariables
 70
     1
  0
ENDSEC
  0
EOF
