  0
SECTION
  2
HEADER
  9
$ACADVER
  1
AC1015
  9
$ACADMAINTVER
 70
     6
  9
$DWGCODEPAGE
  3
DOS850
  9
$INSBASE
 10
0.0
 20
0.0
 30
0.0
  9
$EXTMIN
 10
0.0
 20
0.0
 30
0.0
  9
$EXTMAX
 10
297.0
 20
210.0
 30
0.0
  9
$LIMMIN
 10
0.0
 20
0.0
  9
$LIMMAX
 10
297.0
 20
210.0
  9
$ORTHOMODE
 70
     0
  9
$REGENMODE
 70
     1
  9
$FILLMODE
 70
     1
  9
$QTEXTMODE
 70
     0
  9
$MIRRTEXT
 70
     1
  9
$LTSCALE
 40
25.4
  9
$ATTMODE
 70
     1
  9
$TEXTSIZE
 40
3.5
  9
$TRACEWID
 40
0.05
  9
$TEXTSTYLE
  7
Standard
  9
$CLAYER
  8
0
  9
$CELTYPE
  6
Continuous
  9
$CECOLOR
 62
   256
  9
$CELTSCALE
 40
1.0
  9
$DISPSILH
 70
     0
  9
$DIMSCALE
 40
1.0
  9
$DIMASZ
 40
5.0
  9
$DIMEXO
 40
3.0
  9
$DIMDLI
 40
0.38
  9
$DIMRND
 40
0.0
  9
$DIMDLE
 40
0.0
  9
$DIMEXE
 40
2.0
  9
$DIMTP
 40
0.0
  9
$DIMTM
 40
0.0
  9
$DIMTXT
 40
3.5
  9
$DIMCEN
 40
4.0
  9
$DIMTSZ
 40
0.0
  9
$DIMTOL
 70
     0
  9
$DIMLIM
 70
     0
  9
$DIMTIH
 70
     1
  9
$DIMTOH
 70
     1
  9
$DIMSE1
 70
     0
  9
$DIMSE2
 70
     0
  9
$DIMTAD
 70
     0
  9
$DIMZIN
 70
     0
  9
$DIMBLK
  1

  9
$DIMASO
 70
     1
  9
$DIMSHO
 70
     1
  9
$DIMPOST
  1

  9
$DIMAPOST
  1

  9
$DIMALT
 70
     0
  9
$DIMALTD
 70
     2
  9
$DIMALTF
 40
25.4
  9
$DIMLFAC
 40
1.0
  9
$DIMTOFL
 70
     0
  9
$DIMTVP
 40
0.0
  9
$DIMTIX
 70
     0
  9
$DIMSOXD
 70
     0
  9
$DIMSAH
 70
     0
  9
$DIMBLK1
  1

  9
$DIMBLK2
  1

  9
$DIMSTYLE
  2
Standard
  9
$DIMCLRD
 70
     0
  9
$DIMCLRE
 70
     0
  9
$DIMCLRT
 70
     0
  9
$DIMTFAC
 40
1.0
  9
$DIMGAP
 40
1.0
  9
$DIMJUST
 70
     0
  9
$DIMSD1
 70
     0
  9
$DIMSD2
 70
     0
  9
$DIMTOLJ
 70
     1
  9
$DIMTZIN
 70
     0
  9
$DIMALTZ
 70
     0
  9
$DIMALTTZ
 70
     0
  9
$DIMUPT
 70
     0
  9
$DIMDEC
 70
     4
  9
$DIMTDEC
 70
     4
  9
$DIMALTU
 70
     2
  9
$DIMALTTD
 70
     2
  9
$DIMTXSTY
  7
Standard
  9
$DIMAUNIT
 70
     0
  9
$DIMADEC
 70
     0
  9
$DIMALTRND
 40
0.0
  9
$DIMAZIN
 70
     0
  9
$DIMDSEP
 70
     0
  9
$DIMATFIT
 70
     3
  9
$DIMFRAC
 70
     0
  9
$DIMLDRBLK
  1

  9
$DIMLUNIT
 70
     2
  9
$DIMLWD
 70
     0
  9
$DIMLWE
 70
     0
  9
$DIMTMOVE
 70
     0
  9
$LUNITS
 70
     2
  9
$LUPREC
 70
     4
  9
$SKETCHINC
 40
0.1
  9
$FILLETRAD
 40
0.0
  9
$AUNITS
 70
     0
  9
$AUPREC
 70
     0
  9
$MENU
  1
acad
  9
$ELEVATION
 40
0.0
  9
$PELEVATION
 40
0.0
  9
$THICKNESS
 40
0.0
  9
$LIMCHECK
 70
     0
  9
$CHAMFERA
 40
0.0
  9
$CHAMFERB
 40
0.0
  9
$CHAMFERC
 40
0.0
  9
$CHAMFERD
 40
0.0
  9
$SKPOLY
 70
     0
  9
$TDCREATE
 40
0.000000000
  9
$TDUCREATE
 40
0.000000000
  9
$TDUPDATE
 40
0.000000000
  9
$TDUUPDATE
 40
0.000000000
  9
$TDINDWG
 40
0.0000000000
  9
$TDUSRTIMER
 40
0.0000000000
  9
$USRTIMER
 70
     1
  9
$ANGBASE
 50
0.0
  9
$ANGDIR
 70
     0
  9
$PDMODE
 70
     0
  9
$PDSIZE
 40
0.0
  9
$PLINEWID
 40
0.0
  9
$SPLFRAME
 70
     0
  9
$SPLINETYPE
 70
     6
  9
$SPLINESEGS
 70
     8
  9
$HANDSEED
  5
702
  9
$SURFTAB1
 70
     6
  9
$SURFTAB2
 70
     6
  9
$SURFTYPE
 70
     6
  9
$SURFU
 70
     6
  9
$SURFV
 70
     6
  9
$UCSBASE
  2

  9
$UCSNAME
  2

  9
$UCSORG
 10
0.0
 20
0.0
 30
0.0
  9
$UCSXDIR
 10
1.0
 20
0.0
 30
0.0
  9
$UCSYDIR
 10
0.0
 20
1.0
 30
0.0
  9
$UCSORTHOREF
  2

  9
$UCSORTHOVIEW
 70
     0
  9
$UCSORGTOP
 10
0.0
 20
0.0
 30
0.0
  9
$UCSORGBOTTOM
 10
0.0
 20
0.0
 30
0.0
  9
$UCSORGLEFT
 10
0.0
 20
0.0
 30
0.0
  9
$UCSORGRIGHT
 10
0.0
 20
0.0
 30
0.0
  9
$UCSORGFRONT
 10
0.0
 20
0.0
 30
0.0
  9
$UCSORGBACK
 10
0.0
 20
0.0
 30
0.0
  9
$PUCSBASE
  2

  9
$PUCSNAME
  2

  9
$PUCSORG
 10
0.0
 20
0.0
 30
0.0
  9
$PUCSXDIR
 10
1.0
 20
0.0
 30
0.0
  9
$PUCSYDIR
 10
0.0
 20
1.0
 30
0.0
  9
$PUCSORTHOREF
  2

  9
$PUCSORTHOVIEW
 70
     0
  9
$PUCSORGTOP
 10
0.0
 20
0.0
 30
0.0
  9
$PUCSORGBOTTOM
 10
0.0
 20
0.0
 30
0.0
  9
$PUCSORGLEFT
 10
0.0
 20
0.0
 30
0.0
  9
$PUCSORGRIGHT
 10
0.0
 20
0.0
 30
0.0
  9
$PUCSORGFRONT
 10
0.0
 20
0.0
 30
0.0
  9
$PUCSORGBACK
 10
0.0
 20
0.0
 30
0.0
  9
$USERI1
 70
     0
  9
$USERI2
 70
     0
  9
$USERI3
 70
     0
  9
$USERI4
 70
     0
  9
$USERI5
 70
     0
  9
$USERR1
 40
0.0
  9
$USERR2
 40
0.0
  9
$USERR3
 40
0.0
  9
$USERR4
 40
0.0
  9
$USERR5
 40
0.0
  9
$WORLDVIEW
 70
     1
  9
$SHADEDGE
 70
     3
  9
$SHADEDIF
 70
    70
  9
$TILEMODE
 70
     1
  9
$MAXACTVP
 70
    16
  9
$PINSBASE
 10
0.0
 20
0.0
 30
0.0
  9
$PLIMCHECK
 70
     0
  9
$PEXTMIN
 10
1.000000E+20
 20
1.000000E+20
 30
1.000000E+20
  9
$PEXTMAX
 10
-1.000000E+20
 20
-1.000000E+20
 30
-1.000000E+20
  9
$PLIMMIN
 10
0.0
 20
0.0
  9
$PLIMMAX
 10
297.0
 20
210.0
  9
$UNITMODE
 70
     0
  9
$VISRETAIN
 70
     0
  9
$PLINEGEN
 70
     1
  9
$PSLTSCALE
 70
     0
  9
$TREEDEPTH
 70
  3020
  9
$CMLSTYLE
  2
Standard
  9
$CMLJUST
 70
     0
  9
$CMLSCALE
 40
1.0
  9
$PROXYGRAPHICS
 70
     0
  9
$MEASUREMENT
 70
     0
  9
$CELWEIGHT
370
     0
  9
$ENDCAPS
280
     0
  9
$JOINSTYLE
280
     0
  9
$LWDISPLAY
290
     0
  9
$INSUNITS
 70
     0
  9
$HYPERLINKBASE
  1

  9
$XEDIT
290
     1
  9
$CEPSNTYPE
380
     0
  9
$PSTYLEMODE
290
     0
  9
$FINGERPRINTGUID
  2

  9
$VERSIONGUID
  2

  9
$EXTNAMES
290
     1
  9
$PSVPSCALE
 40
0.0
  0
ENDSEC
  0
SECTION
  2
CLASSES
  0
CLASS
  1
LWPOLYLINE
  2
AcDbPolyline
  3
"AutoCAD"
 90
        0
280
     0
281
     1
  0
CLASS
  1
IMAGE
  2
AcDbRasterImage
  3
ISM
 90
      127
280
     0
281
     1
  0
CLASS
  1
OLE2FRAME
  2
AcDbOle2Frame
  3
""
 90
        0
280
     0
281
     1
  0
CLASS
  1
HATCH
  2
AcDbHatch
  3
"ACAD_SEDONA"
 90
        0
280
     0
281
     1
  0
CLASS
  1
DICTIONARYVAR
  2
AcDbDictionaryVar
  3
"AutoCAD"
 90
        0
280
     0
281
     0
  0
CLASS
  1
RASTERVARIABLES
  2
AcDbRasterVariables
  3
ISM
 90
        0
280
     0
281
     0
  0
CLASS
  1
IMAGEDEF
  2
AcDbRasterImageDef
  3
ISM
 90
        0
280
     0
281
     0
  0
CLASS
  1
IMAGEDEF_REACTOR
  2
AcDbRasterImageDefReactor
  3
ISM
 90
        1
280
     0
281
     0
  0
CLASS
  1
IDBUFFER
  2
AcDbIdBuffer
  3
"Acad"
 90
        0
280
     0
281
     0
  0
CLASS
  1
SPATIAL_FILTER
  2
AcDbSpatialFilter
  3
"Acad"
 90
        0
280
     0
281
     0
  0
CLASS
  1
XRECORD
  2
AcDbXrecord
  3
"<Built In>"
 90
        0
280
     0
281
     0
  0
CLASS
  1
SORTENTSTABLE
  2
AcDbSortentsTable
  3
"AutoCAD"
 90
        0
280
     0
281
     0
  0
CLASS
  1
LAYER_INDEX
  2
AcDbLayerIndex
  3
"Acad"
 90
        0
280
     0
281
     0
  0
CLASS
  1
SPATIAL_INDEX
  2
AcDbSpatialIndex
  3
"Acad"
 90
        0
280
     0
281
     0
  0
CLASS
  1
OBJECT_PTR
  2
CAseDLPNTableRecord
  3
"ASE-LPNTableRecord"
 90
        1
280
     0
281
     0
  0
CLASS
  1
LAYOUT
  2
AcDbLayout
  3
"AutoCAD 2000"
 90
        1
280
     0
281
     0
  0
CLASS
  1
PLOTSETTINGS
  2
AcDbPlotSettings
  3
"AutoCAD 2000"
 90
        1
280
     0
281
     0
  0
CLASS
  1
ACDBDICTIONARYWDFLT
  2
AcDbDictionaryWithDefault
  3
"AutoCAD 2000"
 90
        1
280
     0
281
     0
  0
CLASS
  1
ACDBPLACEHOLDER
  2
AcDbPlaceHolder
  3
"AutoCAD 2000"
 90
        1
280
     0
281
     0
  0
CLASS
  1
VBA_PROJECT
  2
AcDbVbaProject
  3
"acadvba"
 90
        1
280
     0
281
     0
  0
CLASS
  1
WIPEOUT
  2
AcDbWipeout
  3
WipeOut|AutoCAD Express Tool|expresstools@autodesk.com
 90
      127
280
     0
281
     1
  0
CLASS
  1
WIPEOUTVARIABLES
  2
AcDbWipeoutVariables
  3
WipeOut|AutoCAD Express Tool|expresstools@autodesk.com
 90
        0
280
     0
281
     0
  0
CLASS
  1
RTEXT
  2
RText
  3
RText|AutoCAD Express Tool|expresstools@autodesk.com
 90
        0
280
     0
281
     1
  0
CLASS
  1
ARCALIGNEDTEXT
  2
AcDbArcAlignedText
  3
ATEXT|AutoCAD Express Tool|expresstools@autodesk.com
 90
        0
280
     0
281
     1
  0
ENDSEC
  0
SECTION
  2
TABLES
  0
TABLE
  2
VPORT
  5
7
100
AcDbSymbolTable
 70
     1
  0
VPORT
  5
15
100
AcDbSymbolTableRecord
100
AcDbViewportTableRecord
  2
*ACTIVE
 70
     0
 10
0.0
 20
0.0
 11
1.0
 21
1.0
 12
6.591288
 22
4.579184
 13
0.0
 23
0.0
 14
1.0
 24
1.0
 15
0.0
 25
0.0
 16
0.0
 26
0.0
 36
1.0
 17
0.0
 27
0.0
 37
0.0
 40
9.158369
 41
0.688564
 42
50.0
 43
0.0
 44
0.0
 50
0.0
 51
0.0
 71
     0
 72
   100
 73
     1
 74
     1
 75
     0
 76
     0
 77
     0
 78
     0
281
     0
 65
     0
110
0.0
120
0.0
130
0.0
111
1.0
121
0.0
131
0.0
112
0.0
122
1.0
132
0.0
345
0
346
0
 79
     0
146
0.0
  0
ENDTAB
  0
TABLE
  2
LTYPE
  5
4
100
AcDbSymbolTable
 70
     7
  0
LTYPE
  5
11
100
AcDbSymbolTableRecord
100
AcDbLinetypeTableRecord
  2
ByBlock
 70
    64
  3

 72
    65
 73
     0
 40
0.0
  0
LTYPE
  5
12
100
AcDbSymbolTableRecord
100
AcDbLinetypeTableRecord
  2
ByLayer
 70
    64
  3

 72
    65
 73
     0
 40
0.0
  0
LTYPE
  5
13
100
AcDbSymbolTableRecord
100
AcDbLinetypeTableRecord
  2
Continuous
 70
    64
  3
Solid line
 72
    65
 73
     0
 40
0.0
  0
LTYPE
  5
24
100
AcDbSymbolTableRecord
100
AcDbLinetypeTableRecord
  2
HIDDEN
 70
    64
  3
_ _ _ _ _ _ _ _ _ _ _ _ _ _ _ _ _ _ _ _ _ _ _ _
 72
    65
 73
     2
 40
0.1875
 49
0.125
 74
     0
 49
-0.0625
 74
     0
  0
LTYPE
  5
25
100
AcDbSymbolTableRecord
100
AcDbLinetypeTableRecord
  2
DOTTED
 70
    64
  3
...............................................
 72
    65
 73
     2
 40
0.125
 49
0.0
 74
     0
 49
-0.125
 74
     0
  0
LTYPE
  5
26
100
AcDbSymbolTableRecord
100
AcDbLinetypeTableRecord
  2
CENTER
 70
    64
  3
____ _ ____ _ ____ _ ____ _ ____ _ ____ _ ____ 
 72
    65
 73
     4
 40
1.125
 49
0.75
 74
     0
 49
-0.125
 74
     0
 49
0.125
 74
     0
 49
-0.125
 74
     0
  0
LTYPE
  5
27
100
AcDbSymbolTableRecord
100
AcDbLinetypeTableRecord
  2
PHANTOM
 70
    64
  3
______  __  __  ______  __  __  ______  __  __ 
 72
    65
 73
     6
 40
1.25
 49
0.625
 74
     0
 49
-0.125
 74
     0
 49
0.125
 74
     0
 49
-0.125
 74
     0
 49
0.125
 74
     0
 49
-0.125
 74
     0
  0
ENDTAB
  0
TABLE
  2
LAYER
  5
2
100
AcDbSymbolTable
 70
     2
  0
LAYER
  5
14
100
AcDbSymbolTableRecord
100
AcDbLayerTableRecord
  2
0
 70
     0
 62
     7
  6
Continuous
290
     1
370
    -3
390
1D
  0
LAYER
  5
28
100
AcDbSymbolTableRecord
100
AcDbLayerTableRecord
  2
TEXT
 70
     0
 62
     8
  6
Continuous
290
     1
370
    -3
390
1F
  0
ENDTAB
  0
TABLE
  2
STYLE
  5
3
100
AcDbSymbolTable
 70
     1
  0
STYLE
  5
17
100
AcDbSymbolTableRecord
100
AcDbTextStyleTableRecord
  2
Standard
 70
     0
 40
0.0
 41
1.0
 50
0.0
 71
     0
 42
0.0
  3
txt
  4

  0
ENDTAB
  0
TABLE
  2
VIEW
  5
5
100
AcDbSymbolTable
 70
     0
  0
ENDTAB
  0
TABLE
  2
UCS
  5
6
100
AcDbSymbolTable
 70
     0
  0
ENDTAB
  0
TABLE
  2
APPID
  5
8
100
AcDbSymbolTable
 70
     1
  0
APPID
  5
16
100
AcDbSymbolTableRecord
100
AcDbRegAppTableRecord
  2
ACAD
 70
     0
  0
ENDTAB
  0
TABLE
  2
DIMSTYLE
  5
9
100
AcDbSymbolTable
 70
     1
100
AcDbDimStyleTable
 71
     0
  0
DIMSTYLE
105
18
100
AcDbSymbolTableRecord
100
AcDbDimStyleTableRecord
  2
Standard
 70
     0
  3

  4

 40
1.0
 41
0.18
 42
0.0625
 43
0.38
 44
0.18
 45
0.0
 46
0.0
 47
0.0
 48
0.0
 71
     0
 72
     0
 73
     1
 74
     1
 75
     0
 76
     0
 77
     0
 78
     0
 79
     0
140
0.18
141
0.09
142
0.0
143
25.4
144
1.0
145
0.0
146
1.0
147
0.09
148
0.0
170
     0
171
     2
172
     0
173
     0
174
     0
175
     0
176
     0
177
     0
178
     0
179
     0
271
     4
272
     4
273
     2
274
     2
275
     0
276
     0
277
     2
278
    46
279
     0
280
     0
281
     0
282
     0
283
     1
284
     0
285
     0
286
     0
288
     0
340
17
341
0
342
0
343
0
344
0
371
    -2
372
    -2
  0
ENDTAB
  0
TABLE
  2
BLOCK_RECORD
  5
1
100
AcDbSymbolTable
 70
   120
  0
BLOCK_RECORD
  5
A
100
AcDbSymbolTableRecord
100
AcDbBlockTableRecord
  2
*MODEL_SPACE
340
20
  0
BLOCK_RECORD
  5
B
100
AcDbSymbolTableRecord
100
AcDbBlockTableRecord
  2
*PAPER_SPACE
340
21
  0
BLOCK_RECORD
  5
29
100
AcDbSymbolTableRecord
100
AcDbBlockTableRecord
  2
*B0
340
0
  0
BLOCK_RECORD
  5
2C
100
AcDbSymbolTableRecord
100
AcDbBlockTableRecord
  2
*B1
340
0
  0
BLOCK_RECORD
  5
244
100
AcDbSymbolTableRecord
100
AcDbBlockTableRecord
  2
*B2
340
0
  0
BLOCK_RECORD
  5
37D
100
AcDbSymbolTableRecord
100
AcDbBlockTableRecord
  2
*B3
340
0
  0
BLOCK_RECORD
  5
383
100
AcDbSymbolTableRecord
100
AcDbBlockTableRecord
  2
*B4
340
0
  0
BLOCK_RECORD
  5
38E
100
AcDbSymbolTableRecord
100
AcDbBlockTableRecord
  2
*B5
340
0
  0
BLOCK_RECORD
  5
391
100
AcDbSymbolTableRecord
100
AcDbBlockTableRecord
  2
*B6
340
0
  0
BLOCK_RECORD
  5
398
100
AcDbSymbolTableRecord
100
AcDbBlockTableRecord
  2
*B7
340
0
  0
BLOCK_RECORD
  5
39F
100
AcDbSymbolTableRecord
100
AcDbBlockTableRecord
  2
*B8
340
0
  0
BLOCK_RECORD
  5
3A6
100
AcDbSymbolTableRecord
100
AcDbBlockTableRecord
  2
*B9
340
0
  0
BLOCK_RECORD
  5
3AD
100
AcDbSymbolTableRecord
100
AcDbBlockTableRecord
  2
*B10
340
0
  0
BLOCK_RECORD
  5
3B4
100
AcDbSymbolTableRecord
100
AcDbBlockTableRecord
  2
*B11
340
0
  0
BLOCK_RECORD
  5
3BB
100
AcDbSymbolTableRecord
100
AcDbBlockTableRecord
  2
*B12
340
0
  0
BLOCK_RECORD
  5
3C2
100
AcDbSymbolTableRecord
100
AcDbBlockTableRecord
  2
*B13
340
0
  0
BLOCK_RECORD
  5
3C9
100
AcDbSymbolTableRecord
100
AcDbBlockTableRecord
  2
*B14
340
0
  0
BLOCK_RECORD
  5
3D0
100
AcDbSymbolTableRecord
100
AcDbBlockTableRecord
  2
*B15
340
0
  0
BLOCK_RECORD
  5
3D7
100
AcDbSymbolTableRecord
100
AcDbBlockTableRecord
  2
*B16
340
0
  0
BLOCK_RECORD
  5
3DE
100
AcDbSymbolTableRecord
100
AcDbBlockTableRecord
  2
*B17
340
0
  0
BLOCK_RECORD
  5
3E5
100
AcDbSymbolTableRecord
100
AcDbBlockTableRecord
  2
*B18
340
0
  0
BLOCK_RECORD
  5
3EC
100
AcDbSymbolTableRecord
100
AcDbBlockTableRecord
  2
*B19
340
0
  0
BLOCK_RECORD
  5
3F3
100
AcDbSymbolTableRecord
100
AcDbBlockTableRecord
  2
*B20
340
0
  0
BLOCK_RECORD
  5
3FA
100
AcDbSymbolTableRecord
100
AcDbBlockTableRecord
  2
*B21
340
0
  0
BLOCK_RECORD
  5
401
100
AcDbSymbolTableRecord
100
AcDbBlockTableRecord
  2
*B22
340
0
  0
BLOCK_RECORD
  5
408
100
AcDbSymbolTableRecord
100
AcDbBlockTableRecord
  2
*B23
340
0
  0
BLOCK_RECORD
  5
40F
100
AcDbSymbolTableRecord
100
AcDbBlockTableRecord
  2
*B24
340
0
  0
BLOCK_RECORD
  5
416
100
AcDbSymbolTableRecord
100
AcDbBlockTableRecord
  2
*B25
340
0
  0
BLOCK_RECORD
  5
41D
100
AcDbSymbolTableRecord
100
AcDbBlockTableRecord
  2
*B26
340
0
  0
BLOCK_RECORD
  5
424
100
AcDbSymbolTableRecord
100
AcDbBlockTableRecord
  2
*B27
340
0
  0
BLOCK_RECORD
  5
429
100
AcDbSymbolTableRecord
100
AcDbBlockTableRecord
  2
*B28
340
0
  0
BLOCK_RECORD
  5
436
100
AcDbSymbolTableRecord
100
AcDbBlockTableRecord
  2
*B29
340
0
  0
BLOCK_RECORD
  5
43D
100
AcDbSymbolTableRecord
100
AcDbBlockTableRecord
  2
*B30
340
0
  0
BLOCK_RECORD
  5
442
100
AcDbSymbolTableRecord
100
AcDbBlockTableRecord
  2
*B31
340
0
  0
BLOCK_RECORD
  5
447
100
AcDbSymbolTableRecord
100
AcDbBlockTableRecord
  2
*B32
340
0
  0
BLOCK_RECORD
  5
44C
100
AcDbSymbolTableRecord
100
AcDbBlockTableRecord
  2
*B33
340
0
  0
BLOCK_RECORD
  5
451
100
AcDbSymbolTableRecord
100
AcDbBlockTableRecord
  2
*B34
340
0
  0
BLOCK_RECORD
  5
456
100
AcDbSymbolTableRecord
100
AcDbBlockTableRecord
  2
*B35
340
0
  0
BLOCK_RECORD
  5
45C
100
AcDbSymbolTableRecord
100
AcDbBlockTableRecord
  2
*B36
340
0
  0
BLOCK_RECORD
  5
46D
100
AcDbSymbolTableRecord
100
AcDbBlockTableRecord
  2
*B37
340
0
  0
BLOCK_RECORD
  5
487
100
AcDbSymbolTableRecord
100
AcDbBlockTableRecord
  2
*B38
340
0
  0
BLOCK_RECORD
  5
4C2
100
AcDbSymbolTableRecord
100
AcDbBlockTableRecord
  2
*B39
340
0
  0
BLOCK_RECORD
  5
4C7
100
AcDbSymbolTableRecord
100
AcDbBlockTableRecord
  2
*B40
340
0
  0
BLOCK_RECORD
  5
4CD
100
AcDbSymbolTableRecord
100
AcDbBlockTableRecord
  2
*B41
340
0
  0
BLOCK_RECORD
  5
4D2
100
AcDbSymbolTableRecord
100
AcDbBlockTableRecord
  2
*B42
340
0
  0
BLOCK_RECORD
  5
509
100
AcDbSymbolTableRecord
100
AcDbBlockTableRecord
  2
*B43
340
0
  0
BLOCK_RECORD
  5
50F
100
AcDbSymbolTableRecord
100
AcDbBlockTableRecord
  2
*B44
340
0
  0
BLOCK_RECORD
  5
514
100
AcDbSymbolTableRecord
100
AcDbBlockTableRecord
  2
*B45
340
0
  0
BLOCK_RECORD
  5
519
100
AcDbSymbolTableRecord
100
AcDbBlockTableRecord
  2
*B46
340
0
  0
BLOCK_RECORD
  5
51E
100
AcDbSymbolTableRecord
100
AcDbBlockTableRecord
  2
*B47
340
0
  0
BLOCK_RECORD
  5
525
100
AcDbSymbolTableRecord
100
AcDbBlockTableRecord
  2
*B48
340
0
  0
BLOCK_RECORD
  5
52A
100
AcDbSymbolTableRecord
100
AcDbBlockTableRecord
  2
*B49
340
0
  0
BLOCK_RECORD
  5
52F
100
AcDbSymbolTableRecord
100
AcDbBlockTableRecord
  2
*B50
340
0
  0
BLOCK_RECORD
  5
546
100
AcDbSymbolTableRecord
100
AcDbBlockTableRecord
  2
*B51
340
0
  0
BLOCK_RECORD
  5
54D
100
AcDbSymbolTableRecord
100
AcDbBlockTableRecord
  2
*B52
340
0
  0
BLOCK_RECORD
  5
552
100
AcDbSymbolTableRecord
100
AcDbBlockTableRecord
  2
*B53
340
0
  0
BLOCK_RECORD
  5
558
100
AcDbSymbolTableRecord
100
AcDbBlockTableRecord
  2
*B54
340
0
  0
BLOCK_RECORD
  5
55D
100
AcDbSymbolTableRecord
100
AcDbBlockTableRecord
  2
*B55
340
0
  0
BLOCK_RECORD
  5
570
100
AcDbSymbolTableRecord
100
AcDbBlockTableRecord
  2
*B56
340
0
  0
BLOCK_RECORD
  5
575
100
AcDbSymbolTableRecord
100
AcDbBlockTableRecord
  2
*B57
340
0
  0
BLOCK_RECORD
  5
580
100
AcDbSymbolTableRecord
100
AcDbBlockTableRecord
  2
*B58
340
0
  0
BLOCK_RECORD
  5
59A
100
AcDbSymbolTableRecord
100
AcDbBlockTableRecord
  2
*B59
340
0
  0
BLOCK_RECORD
  5
5A0
100
AcDbSymbolTableRecord
100
AcDbBlockTableRecord
  2
*B60
340
0
  0
BLOCK_RECORD
  5
5A7
100
AcDbSymbolTableRecord
100
AcDbBlockTableRecord
  2
*B61
340
0
  0
BLOCK_RECORD
  5
5AC
100
AcDbSymbolTableRecord
100
AcDbBlockTableRecord
  2
*B62
340
0
  0
BLOCK_RECORD
  5
5B2
100
AcDbSymbolTableRecord
100
AcDbBlockTableRecord
  2
*B63
340
0
  0
BLOCK_RECORD
  5
5B7
100
AcDbSymbolTableRecord
100
AcDbBlockTableRecord
  2
*B64
340
0
  0
BLOCK_RECORD
  5
5BC
100
AcDbSymbolTableRecord
100
AcDbBlockTableRecord
  2
*B65
340
0
  0
BLOCK_RECORD
  5
5CF
100
AcDbSymbolTableRecord
100
AcDbBlockTableRecord
  2
*B66
340
0
  0
BLOCK_RECORD
  5
5D4
100
AcDbSymbolTableRecord
100
AcDbBlockTableRecord
  2
*B67
340
0
  0
BLOCK_RECORD
  5
5DA
100
AcDbSymbolTableRecord
100
AcDbBlockTableRecord
  2
*B68
340
0
  0
BLOCK_RECORD
  5
5E7
100
AcDbSymbolTableRecord
100
AcDbBlockTableRecord
  2
*B69
340
0
  0
BLOCK_RECORD
  5
5F3
100
AcDbSymbolTableRecord
100
AcDbBlockTableRecord
  2
*B70
340
0
  0
BLOCK_RECORD
  5
5FE
100
AcDbSymbolTableRecord
100
AcDbBlockTableRecord
  2
*B71
340
0
  0
BLOCK_RECORD
  5
604
100
AcDbSymbolTableRecord
100
AcDbBlockTableRecord
  2
*B72
340
0
  0
BLOCK_RECORD
  5
60A
100
AcDbSymbolTableRecord
100
AcDbBlockTableRecord
  2
*B73
340
0
  0
BLOCK_RECORD
  5
60F
100
AcDbSymbolTableRecord
100
AcDbBlockTableRecord
  2
*B74
340
0
  0
BLOCK_RECORD
  5
614
100
AcDbSymbolTableRecord
100
AcDbBlockTableRecord
  2
*B75
340
0
  0
BLOCK_RECORD
  5
61A
100
AcDbSymbolTableRecord
100
AcDbBlockTableRecord
  2
*B76
340
0
  0
BLOCK_RECORD
  5
620
100
AcDbSymbolTableRecord
100
AcDbBlockTableRecord
  2
*B77
340
0
  0
BLOCK_RECORD
  5
626
100
AcDbSymbolTableRecord
100
AcDbBlockTableRecord
  2
*B78
340
0
  0
BLOCK_RECORD
  5
62C
100
AcDbSymbolTableRecord
100
AcDbBlockTableRecord
  2
*B79
340
0
  0
BLOCK_RECORD
  5
632
100
AcDbSymbolTableRecord
100
AcDbBlockTableRecord
  2
*B80
340
0
  0
BLOCK_RECORD
  5
638
100
AcDbSymbolTableRecord
100
AcDbBlockTableRecord
  2
*B81
340
0
  0
BLOCK_RECORD
  5
63E
100
AcDbSymbolTableRecord
100
AcDbBlockTableRecord
  2
*B82
340
0
  0
BLOCK_RECORD
  5
644
100
AcDbSymbolTableRecord
100
AcDbBlockTableRecord
  2
*B83
340
0
  0
BLOCK_RECORD
  5
64A
100
AcDbSymbolTableRecord
100
AcDbBlockTableRecord
  2
*B84
340
0
  0
BLOCK_RECORD
  5
650
100
AcDbSymbolTableRecord
100
AcDbBlockTableRecord
  2
*B85
340
0
  0
BLOCK_RECORD
  5
656
100
AcDbSymbolTableRecord
100
AcDbBlockTableRecord
  2
*B86
340
0
  0
BLOCK_RECORD
  5
65C
100
AcDbSymbolTableRecord
100
AcDbBlockTableRecord
  2
*B87
340
0
  0
BLOCK_RECORD
  5
662
100
AcDbSymbolTableRecord
100
AcDbBlockTableRecord
  2
*B88
340
0
  0
BLOCK_RECORD
  5
667
100
AcDbSymbolTableRecord
100
AcDbBlockTableRecord
  2
*B89
340
0
  0
BLOCK_RECORD
  5
66C
100
AcDbSymbolTableRecord
100
AcDbBlockTableRecord
  2
*B90
340
0
  0
BLOCK_RECORD
  5
671
100
AcDbSymbolTableRecord
100
AcDbBlockTableRecord
  2
*B91
340
0
  0
BLOCK_RECORD
  5
676
100
AcDbSymbolTableRecord
100
AcDbBlockTableRecord
  2
*B92
340
0
  0
BLOCK_RECORD
  5
67B
100
AcDbSymbolTableRecord
100
AcDbBlockTableRecord
  2
*B93
340
0
  0
BLOCK_RECORD
  5
680
100
AcDbSymbolTableRecord
100
AcDbBlockTableRecord
  2
*B94
340
0
  0
BLOCK_RECORD
  5
685
100
AcDbSymbolTableRecord
100
AcDbBlockTableRecord
  2
*B95
340
0
  0
BLOCK_RECORD
  5
68A
100
AcDbSymbolTableRecord
100
AcDbBlockTableRecord
  2
*B96
340
0
  0
BLOCK_RECORD
  5
68F
100
AcDbSymbolTableRecord
100
AcDbBlockTableRecord
  2
*B97
340
0
  0
BLOCK_RECORD
  5
694
100
AcDbSymbolTableRecord
100
AcDbBlockTableRecord
  2
*B98
340
0
  0
BLOCK_RECORD
  5
699
100
AcDbSymbolTableRecord
100
AcDbBlockTableRecord
  2
*B99
340
0
  0
BLOCK_RECORD
  5
69E
100
AcDbSymbolTableRecord
100
AcDbBlockTableRecord
  2
*B100
340
0
  0
BLOCK_RECORD
  5
6A3
100
AcDbSymbolTableRecord
100
AcDbBlockTableRecord
  2
*B101
340
0
  0
BLOCK_RECORD
  5
6A8
100
AcDbSymbolTableRecord
100
AcDbBlockTableRecord
  2
*B102
340
0
  0
BLOCK_RECORD
  5
6AD
100
AcDbSymbolTableRecord
100
AcDbBlockTableRecord
  2
*B103
340
0
  0
BLOCK_RECORD
  5
6B2
100
AcDbSymbolTableRecord
100
AcDbBlockTableRecord
  2
*B104
340
0
  0
BLOCK_RECORD
  5
6B7
100
AcDbSymbolTableRecord
100
AcDbBlockTableRecord
  2
*B105
340
0
  0
BLOCK_RECORD
  5
6BC
100
AcDbSymbolTableRecord
100
AcDbBlockTableRecord
  2
*B106
340
0
  0
BLOCK_RECORD
  5
6C1
100
AcDbSymbolTableRecord
100
AcDbBlockTableRecord
  2
*B107
340
0
  0
BLOCK_RECORD
  5
6C6
100
AcDbSymbolTableRecord
100
AcDbBlockTableRecord
  2
*B108
340
0
  0
BLOCK_RECORD
  5
6CB
100
AcDbSymbolTableRecord
100
AcDbBlockTableRecord
  2
*B109
340
0
  0
BLOCK_RECORD
  5
6D0
100
AcDbSymbolTableRecord
100
AcDbBlockTableRecord
  2
*B110
340
0
  0
BLOCK_RECORD
  5
6D5
100
AcDbSymbolTableRecord
100
AcDbBlockTableRecord
  2
*B111
340
0
  0
BLOCK_RECORD
  5
6DA
100
AcDbSymbolTableRecord
100
AcDbBlockTableRecord
  2
*B112
340
0
  0
BLOCK_RECORD
  5
6DF
100
AcDbSymbolTableRecord
100
AcDbBlockTableRecord
  2
*B113
340
0
  0
BLOCK_RECORD
  5
6E4
100
AcDbSymbolTableRecord
100
AcDbBlockTableRecord
  2
*B114
340
0
  0
BLOCK_RECORD
  5
6E9
100
AcDbSymbolTableRecord
100
AcDbBlockTableRecord
  2
*B115
340
0
  0
BLOCK_RECORD
  5
6EE
100
AcDbSymbolTableRecord
100
AcDbBlockTableRecord
  2
*B116
340
0
  0
BLOCK_RECORD
  5
6F3
100
AcDbSymbolTableRecord
100
AcDbBlockTableRecord
  2
*B117
340
0
  0
BLOCK_RECORD
  5
6F8
100
AcDbSymbolTableRecord
100
AcDbBlockTableRecord
  2
*B118
340
0
  0
BLOCK_RECORD
  5
6FD
100
AcDbSymbolTableRecord
100
AcDbBlockTableRecord
  2
*B119
340
0
  0
ENDTAB
  0
ENDSEC
  0
SECTION
  2
BLOCKS
  0
BLOCK
  5
D
100
AcDbEntity
  8
0
100
AcDbBlockBegin
  2
*MODEL_SPACE
 70
     0
 10
0.0
 20
0.0
 30
0.0
  3
*MODEL_SPACE
  1

  0
ENDBLK
  5
E
100
AcDbEntity
  8
0
100
AcDbBlockEnd
  0
BLOCK
  5
F
100
AcDbEntity
 67
     1
  8
0
100
AcDbBlockBegin
  2
*PAPER_SPACE
 70
     0
 10
0.0
 20
0.0
 30
0.0
  3
*PAPER_SPACE
  1

  0
ENDBLK
  5
10
100
AcDbEntity
 67
     1
  8
0
100
AcDbBlockEnd
  0
BLOCK
  5
2A
100
AcDbEntity
  8
0
100
AcDbBlockBegin
  2
*B0
 70
     0
 10
0.0
 20
0.0
 30
0.0
  3
*B0
  1

  0
ENDBLK
  5
2B
100
AcDbEntity
  8
0
100
AcDbBlockEnd
  0
BLOCK
  5
2D
100
AcDbEntity
  8
0
100
AcDbBlockBegin
  2
*B1
 70
     0
 10
0.0
 20
0.0
 30
0.0
  3
*B1
  1

  0
LINE
  5
2E
100
AcDbEntity
  8
0
  6
HIDDEN
 62
   174
100
AcDbLine
 10
238.66489
 20
180.909314
 30
0.0
 11
238.66489
 21
180.959314
 31
0.0
  0
LINE
  5
2F
100
AcDbEntity
  8
0
  6
HIDDEN
 62
   174
100
AcDbLine
 10
245.46489
 20
180.909314
 30
0.0
 11
245.46489
 21
180.959314
 31
0.0
  0
LINE
  5
30
100
AcDbEntity
  8
0
  6
HIDDEN
 62
   174
100
AcDbLine
 10
69.108065
 20
180.909314
 30
0.0
 11
69.108065
 21
180.959314
 31
0.0
  0
LINE
  5
31
100
AcDbEntity
  8
0
  6
HIDDEN
 62
   174
100
AcDbLine
 10
62.308065
 20
180.909314
 30
0.0
 11
62.308065
 21
180.959314
 31
0.0
  0
LINE
  5
32
100
AcDbEntity
  8
0
  6
HIDDEN
 62
   174
100
AcDbLine
 10
62.708065
 20
180.909314
 30
0.0
 11
62.708065
 21
180.959314
 31
0.0
  0
LINE
  5
33
100
AcDbEntity
  8
0
  6
HIDDEN
 62
   174
100
AcDbLine
 10
245.06489
 20
180.909314
 30
0.0
 11
245.06489
 21
180.959314
 31
0.0
  0
LINE
  5
34
100
AcDbEntity
  8
0
  6
HIDDEN
 62
   174
100
AcDbLine
 10
68.708065
 20
180.909314
 30
0.0
 11
68.708065
 21
180.959314
 31
0.0
  0
LINE
  5
35
100
AcDbEntity
  8
0
  6
HIDDEN
 62
   174
100
AcDbLine
 10
239.06489
 20
180.909314
 30
0.0
 11
239.06489
 21
180.959314
 31
0.0
  0
LINE
  5
36
100
AcDbEntity
  8
0
  6
HIDDEN
 62
   174
100
AcDbLine
 10
63.730882
 20
180.959314
 30
0.0
 11
63.730882
 21
180.909314
 31
0.0
  0
LINE
  5
37
100
AcDbEntity
  8
0
  6
HIDDEN
 62
   174
100
AcDbLine
 10
244.042073
 20
180.959314
 30
0.0
 11
244.042073
 21
180.909314
 31
0.0
  0
LINE
  5
38
100
AcDbEntity
  8
0
  6
HIDDEN
 62
   174
100
AcDbLine
 10
67.964334
 20
180.959314
 30
0.0
 11
67.964334
 21
180.909314
 31
0.0
  0
LINE
  5
39
100
AcDbEntity
  8
0
  6
HIDDEN
 62
   174
100
AcDbLine
 10
239.808621
 20
180.959314
 30
0.0
 11
239.808621
 21
180.909314
 31
0.0
  0
LINE
  5
3A
100
AcDbEntity
  8
0
  6
HIDDEN
 62
   174
100
AcDbLine
 10
244.451737
 20
180.959314
 30
0.0
 11
244.451737
 21
180.909314
 31
0.0
  0
LINE
  5
3B
100
AcDbEntity
  8
0
  6
HIDDEN
 62
   174
100
AcDbLine
 10
240.247485
 20
180.959314
 30
0.0
 11
240.247485
 21
180.909314
 31
0.0
  0
LINE
  5
3C
100
AcDbEntity
  8
0
  6
HIDDEN
 62
   174
100
AcDbLine
 10
68.740532
 20
180.959314
 30
0.0
 11
68.670643
 21
180.959314
 31
0.0
  0
LINE
  5
3D
100
AcDbEntity
  8
0
  6
HIDDEN
 62
   174
100
AcDbLine
 10
68.7263
 20
180.959314
 30
0.0
 11
67.982579
 21
180.959314
 31
0.0
  0
LINE
  5
3E
100
AcDbEntity
  8
0
  6
Continuous
 62
   174
100
AcDbLine
 10
39.56489
 20
179.459314
 30
0.0
 11
36.56489
 21
179.459314
 31
0.0
  0
LINE
  5
3F
100
AcDbEntity
  8
0
  6
Continuous
 62
   174
100
AcDbLine
 10
32.06489
 20
165.159314
 30
0.0
 11
32.732144
 21
164.003596
 31
0.0
  0
LINE
  5
40
100
AcDbEntity
  8
0
  6
Continuous
 62
   174
100
AcDbLine
 10
276.06489
 20
165.159314
 30
0.0
 11
275.397636
 21
164.003596
 31
0.0
  0
LINE
  5
41
100
AcDbEntity
  8
0
  6
HIDDEN
 62
   174
100
AcDbLine
 10
144.66489
 20
104.959314
 30
0.0
 11
144.66489
 21
119.959314
 31
0.0
  0
LINE
  5
42
100
AcDbEntity
  8
0
  6
HIDDEN
 62
   174
100
AcDbLine
 10
163.46489
 20
118.959314
 30
0.0
 11
163.46489
 21
104.959314
 31
0.0
  0
LINE
  5
43
100
AcDbEntity
  8
0
  6
HIDDEN
 62
   174
100
AcDbLine
 10
111.58489
 20
118.959314
 30
0.0
 11
111.58489
 21
104.959314
 31
0.0
  0
LINE
  5
44
100
AcDbEntity
  8
0
  6
HIDDEN
 62
   174
100
AcDbLine
 10
132.54489
 20
118.959314
 30
0.0
 11
132.54489
 21
104.959314
 31
0.0
  0
LINE
  5
45
100
AcDbEntity
  8
0
  6
HIDDEN
 62
   174
100
AcDbLine
 10
131.46489
 20
104.959314
 30
0.0
 11
131.46489
 21
119.959314
 31
0.0
  0
LINE
  5
46
100
AcDbEntity
  8
0
  6
HIDDEN
 62
   174
100
AcDbLine
 10
131.46489
 20
118.959314
 30
0.0
 11
131.46489
 21
104.959314
 31
0.0
  0
LINE
  5
47
100
AcDbEntity
  8
0
  6
HIDDEN
 62
   174
100
AcDbLine
 10
67.52547
 20
180.959314
 30
0.0
 11
67.52547
 21
180.909314
 31
0.0
  0
LINE
  5
48
100
AcDbEntity
  8
0
  6
HIDDEN
 62
   174
100
AcDbLine
 10
245.097311
 20
180.959314
 30
0.0
 11
245.027422
 21
180.959314
 31
0.0
  0
LINE
  5
49
100
AcDbEntity
  8
0
  6
HIDDEN
 62
   174
100
AcDbLine
 10
244.060224
 20
180.959314
 30
0.0
 11
242.083341
 21
180.959314
 31
0.0
  0
LINE
  5
4A
100
AcDbEntity
  8
0
  6
Continuous
 62
   174
100
AcDbLine
 10
268.56489
 20
179.459314
 30
0.0
 11
271.56489
 21
179.459314
 31
0.0
  0
LINE
  5
4B
100
AcDbEntity
  8
0
  6
HIDDEN
 62
   174
100
AcDbLine
 10
144.683111
 20
119.959314
 30
0.0
 11
163.483038
 21
119.959314
 31
0.0
  0
LINE
  5
4C
100
AcDbEntity
  8
0
  6
Continuous
 62
   174
100
AcDbLine
 10
271.56489
 20
181.959314
 30
0.0
 11
272.26489
 21
181.959314
 31
0.0
  0
LINE
  5
4D
100
AcDbEntity
  8
0
  6
HIDDEN
 62
   174
100
AcDbLine
 10
163.46489
 20
104.959314
 30
0.0
 11
163.46489
 21
119.959314
 31
0.0
  0
LINE
  5
4E
100
AcDbEntity
  8
0
  6
HIDDEN
 62
   174
100
AcDbLine
 10
176.66489
 20
118.959314
 30
0.0
 11
176.66489
 21
104.959314
 31
0.0
  0
LINE
  5
4F
100
AcDbEntity
  8
0
  6
HIDDEN
 62
   174
100
AcDbLine
 10
176.66489
 20
104.959314
 30
0.0
 11
176.66489
 21
119.959314
 31
0.0
  0
LINE
  5
50
100
AcDbEntity
  8
0
  6
HIDDEN
 62
   174
100
AcDbLine
 10
112.66489
 20
104.959314
 30
0.0
 11
112.66489
 21
119.959314
 31
0.0
  0
LINE
  5
51
100
AcDbEntity
  8
0
  6
HIDDEN
 62
   174
100
AcDbLine
 10
112.66489
 20
104.959314
 30
0.0
 11
112.66489
 21
119.959314
 31
0.0
  0
LINE
  5
52
100
AcDbEntity
  8
0
  6
HIDDEN
 62
   174
100
AcDbLine
 10
244.451737
 20
180.959314
 30
0.0
 11
244.042073
 21
180.959314
 31
0.0
  0
LINE
  5
53
100
AcDbEntity
  8
0
  6
HIDDEN
 62
   174
100
AcDbLine
 10
244.042073
 20
180.959314
 30
0.0
 11
242.06489
 21
180.959314
 31
0.0
  0
LINE
  5
54
100
AcDbEntity
  8
0
  6
HIDDEN
 62
   174
100
AcDbLine
 10
242.083341
 20
180.959314
 30
0.0
 11
241.984136
 21
180.959314
 31
0.0
  0
LINE
  5
55
100
AcDbEntity
  8
0
  6
HIDDEN
 62
   174
100
AcDbLine
 10
65.708065
 20
180.959314
 30
0.0
 11
63.730882
 21
180.959314
 31
0.0
  0
LINE
  5
56
100
AcDbEntity
  8
0
  6
Continuous
 62
   174
100
AcDbLine
 10
268.56489
 20
166.459314
 30
0.0
 11
271.56489
 21
166.459314
 31
0.0
  0
LINE
  5
57
100
AcDbEntity
  8
0
  6
Continuous
 62
   174
100
AcDbLine
 10
36.56489
 20
181.959314
 30
0.0
 11
35.86489
 21
181.959314
 31
0.0
  0
LINE
  5
58
100
AcDbEntity
  8
0
  6
Continuous
 62
   174
100
AcDbLine
 10
271.56489
 20
163.959314
 30
0.0
 11
272.26489
 21
163.959314
 31
0.0
  0
LINE
  5
59
100
AcDbEntity
  8
0
  6
HIDDEN
 62
   174
100
AcDbLine
 10
143.603112
 20
118.959314
 30
0.0
 11
164.563037
 21
118.959314
 31
0.0
  0
LINE
  5
5A
100
AcDbEntity
  8
0
  6
HIDDEN
 62
   174
100
AcDbLine
 10
143.603112
 20
104.959314
 30
0.0
 11
164.563037
 21
104.959314
 31
0.0
  0
LINE
  5
5B
100
AcDbEntity
  8
0
  6
HIDDEN
 62
   174
100
AcDbLine
 10
164.54489
 20
118.959314
 30
0.0
 11
164.54489
 21
104.959314
 31
0.0
  0
LINE
  5
5C
100
AcDbEntity
  8
0
  6
HIDDEN
 62
   174
100
AcDbLine
 10
175.603074
 20
118.959314
 30
0.0
 11
196.562999
 21
118.959314
 31
0.0
  0
LINE
  5
5D
100
AcDbEntity
  8
0
  6
HIDDEN
 62
   174
100
AcDbLine
 10
175.603074
 20
104.959314
 30
0.0
 11
196.562999
 21
104.959314
 31
0.0
  0
LINE
  5
5E
100
AcDbEntity
  8
0
  6
HIDDEN
 62
   174
100
AcDbLine
 10
195.46489
 20
118.959314
 30
0.0
 11
195.46489
 21
104.959314
 31
0.0
  0
LINE
  5
5F
100
AcDbEntity
  8
0
  6
HIDDEN
 62
   174
100
AcDbLine
 10
176.66489
 20
118.959314
 30
0.0
 11
176.66489
 21
104.959314
 31
0.0
  0
LINE
  5
60
100
AcDbEntity
  8
0
  6
HIDDEN
 62
   174
100
AcDbLine
 10
69.126307
 20
180.959314
 30
0.0
 11
68.740532
 21
180.959314
 31
0.0
  0
LINE
  5
61
100
AcDbEntity
  8
0
  6
HIDDEN
 62
   174
100
AcDbLine
 10
62.712379
 20
180.959314
 30
0.0
 11
62.32618
 21
180.959314
 31
0.0
  0
LINE
  5
62
100
AcDbEntity
  8
0
  6
HIDDEN
 62
   174
100
AcDbLine
 10
67.9949
 20
180.959314
 30
0.0
 11
67.552619
 21
180.959314
 31
0.0
  0
LINE
  5
63
100
AcDbEntity
  8
0
  6
HIDDEN
 62
   174
100
AcDbLine
 10
65.726137
 20
180.959314
 30
0.0
 11
63.899231
 21
180.959314
 31
0.0
  0
LINE
  5
64
100
AcDbEntity
  8
0
  6
HIDDEN
 62
   174
100
AcDbLine
 10
240.251124
 20
180.959314
 30
0.0
 11
239.082966
 21
180.959314
 31
0.0
  0
LINE
  5
65
100
AcDbEntity
  8
0
  6
Continuous
 62
   174
100
AcDbLine
 10
39.56489
 20
166.459314
 30
0.0
 11
36.56489
 21
166.459314
 31
0.0
  0
LINE
  5
66
100
AcDbEntity
  8
0
  6
HIDDEN
 62
   174
100
AcDbLine
 10
143.58489
 20
118.959314
 30
0.0
 11
143.58489
 21
104.959314
 31
0.0
  0
LINE
  5
67
100
AcDbEntity
  8
0
  6
HIDDEN
 62
   174
100
AcDbLine
 10
144.66489
 20
118.959314
 30
0.0
 11
144.66489
 21
104.959314
 31
0.0
  0
LINE
  5
68
100
AcDbEntity
  8
0
  6
HIDDEN
 62
   174
100
AcDbLine
 10
131.46489
 20
104.959314
 30
0.0
 11
131.46489
 21
119.959314
 31
0.0
  0
LINE
  5
69
100
AcDbEntity
  8
0
  6
HIDDEN
 62
   174
100
AcDbLine
 10
67.426222
 20
180.959314
 30
0.0
 11
65.726137
 21
180.959314
 31
0.0
  0
LINE
  5
6A
100
AcDbEntity
  8
0
  6
HIDDEN
 62
   174
100
AcDbLine
 10
240.383044
 20
180.959314
 30
0.0
 11
240.256435
 21
180.959314
 31
0.0
  0
LINE
  5
6B
100
AcDbEntity
  8
0
  6
HIDDEN
 62
   174
100
AcDbLine
 10
242.082916
 20
180.959314
 30
0.0
 11
240.383044
 21
180.959314
 31
0.0
  0
LINE
  5
6C
100
AcDbEntity
  8
0
  6
HIDDEN
 62
   174
100
AcDbLine
 10
244.076581
 20
180.959314
 30
0.0
 11
242.082916
 21
180.959314
 31
0.0
  0
LINE
  5
6D
100
AcDbEntity
  8
0
  6
HIDDEN
 62
   174
100
AcDbLine
 10
244.471702
 20
180.959314
 30
0.0
 11
244.076581
 21
180.959314
 31
0.0
  0
LINE
  5
6E
100
AcDbEntity
  8
0
  6
HIDDEN
 62
   174
100
AcDbLine
 10
63.735234
 20
180.959314
 30
0.0
 11
62.726187
 21
180.959314
 31
0.0
  0
LINE
  5
6F
100
AcDbEntity
  8
0
  6
HIDDEN
 62
   174
100
AcDbLine
 10
63.899231
 20
180.959314
 30
0.0
 11
63.735234
 21
180.959314
 31
0.0
  0
LINE
  5
70
100
AcDbEntity
  8
0
  6
HIDDEN
 62
   174
100
AcDbLine
 10
242.06489
 20
180.959314
 30
0.0
 11
240.247485
 21
180.959314
 31
0.0
  0
LINE
  5
71
100
AcDbEntity
  8
0
  6
HIDDEN
 62
   174
100
AcDbLine
 10
67.52547
 20
180.959314
 30
0.0
 11
65.708065
 21
180.959314
 31
0.0
  0
LINE
  5
72
100
AcDbEntity
  8
0
  6
HIDDEN
 62
   174
100
AcDbLine
 10
143.58489
 20
118.959314
 30
0.0
 11
143.58489
 21
104.959314
 31
0.0
  0
LINE
  5
73
100
AcDbEntity
  8
0
  6
HIDDEN
 62
   174
100
AcDbLine
 10
144.66489
 20
104.959314
 30
0.0
 11
144.66489
 21
119.959314
 31
0.0
  0
LINE
  5
74
100
AcDbEntity
  8
0
  6
HIDDEN
 62
   174
100
AcDbLine
 10
163.46489
 20
118.959314
 30
0.0
 11
163.46489
 21
104.959314
 31
0.0
  0
LINE
  5
75
100
AcDbEntity
  8
0
  6
HIDDEN
 62
   174
100
AcDbLine
 10
175.58489
 20
118.959314
 30
0.0
 11
175.58489
 21
104.959314
 31
0.0
  0
LINE
  5
76
100
AcDbEntity
  8
0
  6
HIDDEN
 62
   174
100
AcDbLine
 10
176.66489
 20
104.959314
 30
0.0
 11
176.66489
 21
119.959314
 31
0.0
  0
LINE
  5
77
100
AcDbEntity
  8
0
  6
HIDDEN
 62
   174
100
AcDbLine
 10
195.46489
 20
104.959314
 30
0.0
 11
195.46489
 21
119.959314
 31
0.0
  0
LINE
  5
78
100
AcDbEntity
  8
0
  6
Continuous
 62
   174
100
AcDbLine
 10
32.06489
 20
180.759314
 30
0.0
 11
32.732166
 21
181.915071
 31
0.0
  0
LINE
  5
79
100
AcDbEntity
  8
0
  6
HIDDEN
 62
   174
100
AcDbLine
 10
132.54489
 20
118.959314
 30
0.0
 11
132.54489
 21
104.959314
 31
0.0
  0
LINE
  5
7A
100
AcDbEntity
  8
0
  6
HIDDEN
 62
   174
100
AcDbLine
 10
65.726137
 20
180.959314
 30
0.0
 11
63.732473
 21
180.959314
 31
0.0
  0
LINE
  5
7B
100
AcDbEntity
  8
0
  6
HIDDEN
 62
   174
100
AcDbLine
 10
68.130431
 20
180.959314
 30
0.0
 11
67.9949
 21
180.959314
 31
0.0
  0
LINE
  5
7C
100
AcDbEntity
  8
0
  6
HIDDEN
 62
   174
100
AcDbLine
 10
245.482874
 20
180.959314
 30
0.0
 11
245.097311
 21
180.959314
 31
0.0
  0
LINE
  5
7D
100
AcDbEntity
  8
0
  6
HIDDEN
 62
   174
100
AcDbLine
 10
244.48721
 20
180.959314
 30
0.0
 11
244.471702
 21
180.959314
 31
0.0
  0
LINE
  5
7E
100
AcDbEntity
  8
0
  6
HIDDEN
 62
   174
100
AcDbLine
 10
245.027422
 20
180.959314
 30
0.0
 11
244.48721
 21
180.959314
 31
0.0
  0
LINE
  5
7F
100
AcDbEntity
  8
0
  6
HIDDEN
 62
   174
100
AcDbLine
 10
67.543696
 20
180.959314
 30
0.0
 11
65.726137
 21
180.959314
 31
0.0
  0
LINE
  5
80
100
AcDbEntity
  8
0
  6
HIDDEN
 62
   174
100
AcDbLine
 10
241.984136
 20
180.959314
 30
0.0
 11
240.251124
 21
180.959314
 31
0.0
  0
LINE
  5
81
100
AcDbEntity
  8
0
  6
HIDDEN
 62
   174
100
AcDbLine
 10
144.66489
 20
118.959314
 30
0.0
 11
144.66489
 21
104.959314
 31
0.0
  0
LINE
  5
82
100
AcDbEntity
  8
0
  6
HIDDEN
 62
   174
100
AcDbLine
 10
163.46489
 20
104.959314
 30
0.0
 11
163.46489
 21
119.959314
 31
0.0
  0
LINE
  5
83
100
AcDbEntity
  8
0
  6
HIDDEN
 62
   174
100
AcDbLine
 10
195.46489
 20
104.959314
 30
0.0
 11
195.46489
 21
119.959314
 31
0.0
  0
LINE
  5
84
100
AcDbEntity
  8
0
  6
HIDDEN
 62
   174
100
AcDbLine
 10
195.46489
 20
118.959314
 30
0.0
 11
195.46489
 21
104.959314
 31
0.0
  0
LINE
  5
85
100
AcDbEntity
  8
0
  6
Continuous
 62
   174
100
AcDbLine
 10
276.06489
 20
180.759314
 30
0.0
 11
275.397613
 21
181.915071
 31
0.0
  0
LINE
  5
86
100
AcDbEntity
  8
0
  6
HIDDEN
 62
   174
100
AcDbLine
 10
112.66489
 20
118.959314
 30
0.0
 11
112.66489
 21
104.959314
 31
0.0
  0
LINE
  5
87
100
AcDbEntity
  8
0
  6
HIDDEN
 62
   174
100
AcDbLine
 10
111.602938
 20
118.959314
 30
0.0
 11
132.563076
 21
118.959314
 31
0.0
  0
LINE
  5
88
100
AcDbEntity
  8
0
  6
HIDDEN
 62
   174
100
AcDbLine
 10
111.602938
 20
104.959314
 30
0.0
 11
132.563076
 21
104.959314
 31
0.0
  0
LINE
  5
89
100
AcDbEntity
  8
0
  6
HIDDEN
 62
   174
100
AcDbLine
 10
112.66489
 20
118.959314
 30
0.0
 11
112.66489
 21
104.959314
 31
0.0
  0
LINE
  5
8A
100
AcDbEntity
  8
0
  6
HIDDEN
 62
   174
100
AcDbLine
 10
62.781844
 20
180.959314
 30
0.0
 11
62.712379
 21
180.959314
 31
0.0
  0
LINE
  5
8B
100
AcDbEntity
  8
0
  6
HIDDEN
 62
   174
100
AcDbLine
 10
63.732473
 20
180.959314
 30
0.0
 11
62.781844
 21
180.959314
 31
0.0
  0
LINE
  5
8C
100
AcDbEntity
  8
0
  6
HIDDEN
 62
   174
100
AcDbLine
 10
67.552619
 20
180.959314
 30
0.0
 11
67.426222
 21
180.959314
 31
0.0
  0
LINE
  5
8D
100
AcDbEntity
  8
0
  6
Continuous
 62
   174
100
AcDbLine
 10
36.56489
 20
163.959314
 30
0.0
 11
35.86489
 21
163.959314
 31
0.0
  0
LINE
  5
8E
100
AcDbEntity
  8
0
  6
HIDDEN
 62
   174
100
AcDbLine
 10
175.58489
 20
118.959314
 30
0.0
 11
175.58489
 21
104.959314
 31
0.0
  0
LINE
  5
8F
100
AcDbEntity
  8
0
  6
HIDDEN
 62
   174
100
AcDbLine
 10
111.58489
 20
118.959314
 30
0.0
 11
111.58489
 21
104.959314
 31
0.0
  0
LINE
  5
90
100
AcDbEntity
  8
0
  6
HIDDEN
 62
   174
100
AcDbLine
 10
63.321218
 20
180.959314
 30
0.0
 11
63.321218
 21
180.909314
 31
0.0
  0
LINE
  5
91
100
AcDbEntity
  8
0
  6
HIDDEN
 62
   174
100
AcDbLine
 10
68.670643
 20
180.959314
 30
0.0
 11
68.130431
 21
180.959314
 31
0.0
  0
LINE
  5
92
100
AcDbEntity
  8
0
  6
HIDDEN
 62
   174
100
AcDbLine
 10
239.068733
 20
180.959314
 30
0.0
 11
238.682959
 21
180.959314
 31
0.0
  0
LINE
  5
93
100
AcDbEntity
  8
0
  6
HIDDEN
 62
   174
100
AcDbLine
 10
239.138411
 20
180.959314
 30
0.0
 11
239.068733
 21
180.959314
 31
0.0
  0
LINE
  5
94
100
AcDbEntity
  8
0
  6
HIDDEN
 62
   174
100
AcDbLine
 10
240.256435
 20
180.959314
 30
0.0
 11
239.138411
 21
180.959314
 31
0.0
  0
LINE
  5
95
100
AcDbEntity
  8
0
  6
HIDDEN
 62
   174
100
AcDbLine
 10
245.082866
 20
180.959314
 30
0.0
 11
244.46979
 21
180.959314
 31
0.0
  0
LINE
  5
96
100
AcDbEntity
  8
0
  6
HIDDEN
 62
   174
100
AcDbLine
 10
67.964334
 20
180.959314
 30
0.0
 11
67.52547
 21
180.959314
 31
0.0
  0
LINE
  5
97
100
AcDbEntity
  8
0
  6
HIDDEN
 62
   174
100
AcDbLine
 10
112.682937
 20
119.959314
 30
0.0
 11
131.483077
 21
119.959314
 31
0.0
  0
LINE
  5
98
100
AcDbEntity
  8
0
  6
HIDDEN
 62
   174
100
AcDbLine
 10
176.683073
 20
119.959314
 30
0.0
 11
195.483
 21
119.959314
 31
0.0
  0
LINE
  5
99
100
AcDbEntity
  8
0
  6
HIDDEN
 62
   174
100
AcDbLine
 10
164.54489
 20
118.959314
 30
0.0
 11
164.54489
 21
104.959314
 31
0.0
  0
LINE
  5
9A
100
AcDbEntity
  8
0
  6
HIDDEN
 62
   174
100
AcDbLine
 10
196.54489
 20
118.959314
 30
0.0
 11
196.54489
 21
104.959314
 31
0.0
  0
LINE
  5
9B
100
AcDbEntity
  8
0
  6
HIDDEN
 62
   174
100
AcDbLine
 10
196.54489
 20
118.959314
 30
0.0
 11
196.54489
 21
104.959314
 31
0.0
  0
LINE
  5
9C
100
AcDbEntity
  8
0
  6
Continuous
 62
   174
100
AcDbLine
 10
39.56489
 20
179.574046
 30
0.0
 11
39.56489
 21
172.967656
 31
0.0
  0
LINE
  5
9D
100
AcDbEntity
  8
0
  6
Continuous
 62
   174
100
AcDbLine
 10
43.36489
 20
140.048293
 30
0.0
 11
43.36489
 21
137.469806
 31
0.0
  0
LINE
  5
9E
100
AcDbEntity
  8
0
  6
Continuous
 62
   174
100
AcDbLine
 10
32.75771
 20
177.536974
 30
0.0
 11
35.86489
 21
177.536974
 31
0.0
  0
LINE
  5
9F
100
AcDbEntity
  8
0
  6
Continuous
 62
   174
100
AcDbLine
 10
35.86489
 20
163.959764
 30
0.0
 11
32.75771
 21
163.959764
 31
0.0
  0
LINE
  5
A0
100
AcDbEntity
  8
0
  6
Continuous
 62
   174
100
AcDbLine
 10
276.06489
 20
180.115841
 30
0.0
 11
276.06489
 21
179.224229
 31
0.0
  0
LINE
  5
A1
100
AcDbEntity
  8
0
  6
Continuous
 62
   174
100
AcDbLine
 10
32.214401
 20
180.681781
 30
0.0
 11
32.731056
 21
181.911482
 31
0.0
  0
LINE
  5
A2
100
AcDbEntity
  8
0
  6
HIDDEN
 62
   174
100
AcDbLine
 10
43.36489
 20
140.040909
 30
0.0
 11
49.56489
 21
140.040909
 31
0.0
  0
LINE
  5
A3
100
AcDbEntity
  8
0
  6
HIDDEN
 62
   174
100
AcDbLine
 10
91.579409
 20
164.959314
 30
0.0
 11
89.485052
 21
164.959314
 31
0.0
  0
LINE
  5
A4
100
AcDbEntity
  8
0
  6
HIDDEN
 62
   174
100
AcDbLine
 10
65.726137
 20
180.909314
 30
0.0
 11
69.126307
 21
180.909314
 31
0.0
  0
LINE
  5
A5
100
AcDbEntity
  8
0
  6
HIDDEN
 62
   174
100
AcDbLine
 10
97.06489
 20
140.959314
 30
0.0
 11
97.01489
 21
140.959314
 31
0.0
  0
LINE
  5
A6
100
AcDbEntity
  8
0
  6
HIDDEN
 62
   174
100
AcDbLine
 10
107.96489
 20
116.959314
 30
0.0
 11
110.06489
 21
118.17175
 31
0.0
  0
LINE
  5
A7
100
AcDbEntity
  8
0
  6
HIDDEN
 62
   174
100
AcDbLine
 10
195.56489
 20
114.959314
 30
0.0
 11
195.56489
 21
104.959314
 31
0.0
  0
LINE
  5
A8
100
AcDbEntity
  8
0
  6
Continuous
 62
   174
100
AcDbLine
 10
43.36489
 20
132.470031
 30
0.0
 11
43.36489
 21
129.891332
 31
0.0
  0
LWPOLYLINE
  5
A9
100
AcDbEntity
  8
0
  6
HIDDEN
 62
   174
100
AcDbPolyline
 90
        4
 70
   128
 10
32.728949
 20
181.909494
 10
32.42981
 20
181.332458
 10
32.197055
 20
180.721045
 10
32.06489
 20
180.115841
  0
LINE
  5
AA
100
AcDbEntity
  8
0
  6
Continuous
 62
   174
100
AcDbLine
 10
43.36489
 20
143.573193
 30
0.0
 11
49.56489
 21
143.573193
 31
0.0
  0
LINE
  5
AB
100
AcDbEntity
  8
0
  6
Continuous
 62
   174
100
AcDbLine
 10
264.76489
 20
140.040909
 30
0.0
 11
264.76489
 21
143.574959
 31
0.0
  0
LINE
  5
AC
100
AcDbEntity
  8
0
  6
Continuous
 62
   174
100
AcDbLine
 10
81.06489
 20
151.959314
 30
0.0
 11
51.06489
 21
151.959314
 31
0.0
  0
LINE
  5
AD
100
AcDbEntity
  8
0
  6
HIDDEN
 62
   174
100
AcDbLine
 10
91.56489
 20
164.959314
 30
0.0
 11
91.56489
 21
164.909314
 31
0.0
  0
LINE
  5
AE
100
AcDbEntity
  8
0
  6
HIDDEN
 62
   174
100
AcDbLine
 10
253.56489
 20
180.967381
 30
0.0
 11
253.56489
 21
177.967431
 31
0.0
  0
LINE
  5
AF
100
AcDbEntity
  8
0
  6
Continuous
 62
   174
100
AcDbLine
 10
36.56489
 20
163.968231
 30
0.0
 11
36.56489
 21
166.253775
 31
0.0
  0
LINE
  5
B0
100
AcDbEntity
  8
0
  6
Continuous
 62
   174
100
AcDbLine
 10
35.86489
 20
177.545118
 30
0.0
 11
35.86489
 21
172.967656
 31
0.0
  0
LINE
  5
B1
100
AcDbEntity
  8
0
  6
HIDDEN
 62
   174
100
AcDbLine
 10
32.75771
 20
181.958865
 30
0.0
 11
32.728859
 21
181.909341
 31
0.0
  0
LINE
  5
B2
100
AcDbEntity
  8
0
  6
HIDDEN
 62
   174
100
AcDbLine
 10
256.56489
 20
164.959314
 30
0.0
 11
256.56489
 21
151.959314
 31
0.0
  0
LINE
  5
B3
100
AcDbEntity
  8
0
  6
HIDDEN
 62
   174
100
AcDbLine
 10
230.56489
 20
180.959314
 30
0.0
 11
238.66489
 21
180.959314
 31
0.0
  0
ARC
  5
B4
100
AcDbEntity
  8
0
  6
Continuous
 62
   174
100
AcDbCircle
 10
186.06489
 20
154.959314
 30
0.0
 40
3.3
100
AcDbArc
 50
0.0
 51
180.0
  0
LINE
  5
B5
100
AcDbEntity
  8
0
  6
Continuous
 62
   174
100
AcDbLine
 10
264.76489
 20
129.88338
 30
0.0
 11
258.56489
 21
129.88338
 31
0.0
  0
LINE
  5
B6
100
AcDbEntity
  8
0
  6
Continuous
 62
   174
100
AcDbLine
 10
49.56489
 20
136.46607
 30
0.0
 11
49.56489
 21
137.469806
 31
0.0
  0
LINE
  5
B7
100
AcDbEntity
  8
0
  6
HIDDEN
 62
   174
100
AcDbLine
 10
89.06489
 20
164.909314
 30
0.0
 11
89.06489
 21
164.959314
 31
0.0
  0
LINE
  5
B8
100
AcDbEntity
  8
0
  6
HIDDEN
 62
   174
100
AcDbLine
 10
148.56295
 20
164.959314
 30
0.0
 11
127.603025
 21
164.959314
 31
0.0
  0
LINE
  5
B9
100
AcDbEntity
  8
0
  6
HIDDEN
 62
   174
100
AcDbLine
 10
62.32618
 20
180.909314
 30
0.0
 11
65.726137
 21
180.909314
 31
0.0
  0
LINE
  5
BA
100
AcDbEntity
  8
0
  6
HIDDEN
 62
   174
100
AcDbLine
 10
51.56489
 20
170.175432
 30
0.0
 11
51.56489
 21
164.959314
 31
0.0
  0
LINE
  5
BB
100
AcDbEntity
  8
0
  6
HIDDEN
 62
   174
100
AcDbLine
 10
39.56489
 20
179.467406
 30
0.0
 11
39.56489
 21
172.967656
 31
0.0
  0
LINE
  5
BC
100
AcDbEntity
  8
0
  6
HIDDEN
 62
   174
100
AcDbLine
 10
107.56489
 20
114.959314
 30
0.0
 11
107.56489
 21
104.959314
 31
0.0
  0
LINE
  5
BD
100
AcDbEntity
  8
0
  6
HIDDEN
 62
   174
100
AcDbLine
 10
195.96489
 20
114.959314
 30
0.0
 11
195.96489
 21
104.959314
 31
0.0
  0
LWPOLYLINE
  5
BE
100
AcDbEntity
  8
0
  6
HIDDEN
 62
   174
100
AcDbPolyline
 90
        7
 70
   128
 10
275.37207
 20
163.959764
 10
275.738196
 20
164.711454
 10
275.966294
 20
165.448501
 10
276.043198
 20
166.170749
 10
275.966279
 20
166.892988
 10
275.738179
 20
167.630007
 10
275.37207
 20
168.381654
  0
LINE
  5
BF
100
AcDbEntity
  8
0
  6
Continuous
 62
   174
100
AcDbLine
 10
35.86489
 20
181.958865
 30
0.0
 11
32.75771
 21
181.958865
 31
0.0
  0
LINE
  5
C0
100
AcDbEntity
  8
0
  6
Continuous
 62
   174
100
AcDbLine
 10
264.76489
 20
137.462681
 30
0.0
 11
258.56489
 21
137.462681
 31
0.0
  0
LINE
  5
C1
100
AcDbEntity
  8
0
  6
HIDDEN
 62
   174
100
AcDbLine
 10
51.56489
 20
164.959314
 30
0.0
 11
51.56489
 21
151.959314
 31
0.0
  0
LINE
  5
C2
100
AcDbEntity
  8
0
  6
Continuous
 62
   174
100
AcDbLine
 10
276.06489
 20
165.168253
 30
0.0
 11
276.06489
 21
165.811707
 31
0.0
  0
LWPOLYLINE
  5
C3
100
AcDbEntity
  8
0
  6
HIDDEN
 62
   174
100
AcDbPolyline
 90
        7
 70
   128
 10
32.75771
 20
177.381205
 10
32.391608
 20
175.877934
 10
32.163508
 20
174.403944
 10
32.086577
 20
172.959552
 10
32.163464
 20
171.515105
 10
32.391556
 20
170.040954
 10
32.75771
 20
168.537424
  0
LINE
  5
C4
100
AcDbEntity
  8
0
  6
HIDDEN
 62
   174
100
AcDbLine
 10
215.583004
 20
164.959314
 30
0.0
 11
213.362676
 21
164.959314
 31
0.0
  0
LINE
  5
C5
100
AcDbEntity
  8
0
  6
HIDDEN
 62
   174
100
AcDbLine
 10
238.682959
 20
180.909314
 30
0.0
 11
242.082916
 21
180.909314
 31
0.0
  0
LINE
  5
C6
100
AcDbEntity
  8
0
  6
HIDDEN
 62
   174
100
AcDbLine
 10
244.042073
 20
180.909314
 30
0.0
 11
239.808621
 21
180.909314
 31
0.0
  0
LINE
  5
C7
100
AcDbEntity
  8
0
  6
HIDDEN
 62
   174
100
AcDbLine
 10
257.06489
 20
144.969256
 30
0.0
 11
257.06489
 21
134.969918
 31
0.0
  0
LINE
  5
C8
100
AcDbEntity
  8
0
  6
Continuous
 62
   174
100
AcDbLine
 10
32.06489
 20
172.067703
 30
0.0
 11
32.06489
 21
173.850926
 31
0.0
  0
LINE
  5
C9
100
AcDbEntity
  8
0
  6
Continuous
 62
   174
100
AcDbLine
 10
257.06489
 20
151.959314
 30
0.0
 11
227.06489
 21
151.959314
 31
0.0
  0
ARC
  5
CA
100
AcDbEntity
  8
0
  6
Continuous
 62
   174
100
AcDbCircle
 10
138.06489
 20
114.959314
 30
0.0
 40
3.3
100
AcDbArc
 50
0.0
 51
180.0
  0
LINE
  5
CB
100
AcDbEntity
  8
0
  6
Continuous
 62
   174
100
AcDbLine
 10
49.56489
 20
126.355631
 30
0.0
 11
49.56489
 21
129.891332
 31
0.0
  0
LINE
  5
CC
100
AcDbEntity
  8
0
  6
HIDDEN
 62
   174
100
AcDbLine
 10
95.06489
 20
164.909314
 30
0.0
 11
95.06489
 21
164.959314
 31
0.0
  0
LINE
  5
CD
100
AcDbEntity
  8
0
  6
HIDDEN
 62
   174
100
AcDbLine
 10
147.482951
 20
149.959314
 30
0.0
 11
128.683024
 21
149.959314
 31
0.0
  0
LINE
  5
CE
100
AcDbEntity
  8
0
  6
HIDDEN
 62
   174
100
AcDbLine
 10
245.082866
 20
180.909314
 30
0.0
 11
240.265569
 21
180.909314
 31
0.0
  0
LINE
  5
CF
100
AcDbEntity
  8
0
  6
Continuous
 62
   174
100
AcDbLine
 10
268.56489
 20
180.959314
 30
0.0
 11
253.56489
 21
180.959314
 31
0.0
  0
LINE
  5
D0
100
AcDbEntity
  8
0
  6
HIDDEN
 62
   174
100
AcDbLine
 10
239.064947
 20
180.959314
 30
0.0
 11
240.247485
 21
180.959314
 31
0.0
  0
LINE
  5
D1
100
AcDbEntity
  8
0
  6
HIDDEN
 62
   174
100
AcDbLine
 10
92.586757
 20
164.959314
 30
0.0
 11
91.579409
 21
164.959314
 31
0.0
  0
LINE
  5
D2
100
AcDbEntity
  8
0
  6
HIDDEN
 62
   174
100
AcDbLine
 10
91.58302
 20
164.959314
 30
0.0
 11
89.362692
 21
164.959314
 31
0.0
  0
LINE
  5
D3
100
AcDbEntity
  8
0
  6
HIDDEN
 62
   174
100
AcDbLine
 10
128.66489
 20
150.959314
 30
0.0
 11
128.66489
 21
164.959314
 31
0.0
  0
LINE
  5
D4
100
AcDbEntity
  8
0
  6
Continuous
 62
   174
100
AcDbLine
 10
54.56489
 20
177.959314
 30
0.0
 11
77.56489
 21
177.959314
 31
0.0
  0
LINE
  5
D5
100
AcDbEntity
  8
0
  6
HIDDEN
 62
   174
100
AcDbLine
 10
68.7263
 20
180.909314
 30
0.0
 11
63.749042
 21
180.909314
 31
0.0
  0
LINE
  5
D6
100
AcDbEntity
  8
0
  6
Continuous
 62
   174
100
AcDbLine
 10
77.56489
 20
177.959314
 30
0.0
 11
77.56489
 21
151.959314
 31
0.0
  0
LINE
  5
D7
100
AcDbEntity
  8
0
  6
HIDDEN
 62
   174
100
AcDbLine
 10
107.983115
 20
116.959314
 30
0.0
 11
112.183087
 21
116.959314
 31
0.0
  0
LINE
  5
D8
100
AcDbEntity
  8
0
  6
Continuous
 62
   174
100
AcDbLine
 10
272.26489
 20
163.959764
 30
0.0
 11
275.37207
 21
163.959764
 31
0.0
  0
LINE
  5
D9
100
AcDbEntity
  8
0
  6
HIDDEN
 62
   174
100
AcDbLine
 10
242.06489
 20
180.959314
 30
0.0
 11
244.042073
 21
180.959314
 31
0.0
  0
ARC
  5
DA
100
AcDbEntity
  8
0
  6
Continuous
 62
   174
100
AcDbCircle
 10
122.06489
 20
154.959314
 30
0.0
 40
3.3
100
AcDbArc
 50
-180.0
 51
0.0
  0
LINE
  5
DB
100
AcDbEntity
  8
0
  6
HIDDEN
 62
   174
100
AcDbLine
 10
97.06489
 20
128.959314
 30
0.0
 11
97.01489
 21
128.959314
 31
0.0
  0
LINE
  5
DC
100
AcDbEntity
  8
0
  6
Continuous
 62
   174
100
AcDbLine
 10
271.56489
 20
166.253563
 30
0.0
 11
271.56489
 21
163.968231
 31
0.0
  0
LINE
  5
DD
100
AcDbEntity
  8
0
  6
HIDDEN
 62
   174
100
AcDbLine
 10
195.96489
 20
104.959314
 30
0.0
 11
195.96489
 21
116.959314
 31
0.0
  0
LINE
  5
DE
100
AcDbEntity
  8
0
  6
HIDDEN
 62
   174
100
AcDbLine
 10
200.183035
 20
104.959314
 30
0.0
 11
195.983063
 21
104.959314
 31
0.0
  0
LINE
  5
DF
100
AcDbEntity
  8
0
  6
Continuous
 62
   174
100
AcDbLine
 10
35.86489
 20
168.381654
 30
0.0
 11
32.75771
 21
168.381654
 31
0.0
  0
LINE
  5
E0
100
AcDbEntity
  8
0
  6
HIDDEN
 62
   174
100
AcDbLine
 10
272.26489
 20
163.959764
 30
0.0
 11
272.26489
 21
168.381654
 31
0.0
  0
LINE
  5
E1
100
AcDbEntity
  8
0
  6
Continuous
 62
   174
100
AcDbLine
 10
276.06489
 20
166.694399
 30
0.0
 11
276.06489
 21
165.802788
 31
0.0
  0
LINE
  5
E2
100
AcDbEntity
  8
0
  6
Continuous
 62
   174
100
AcDbLine
 10
43.36489
 20
132.459314
 30
0.0
 11
49.56489
 21
132.459314
 31
0.0
  0
LINE
  5
E3
100
AcDbEntity
  8
0
  6
Continuous
 62
   174
100
AcDbLine
 10
264.76489
 20
132.462682
 30
0.0
 11
258.56489
 21
132.462682
 31
0.0
  0
LWPOLYLINE
  5
E4
100
AcDbEntity
  8
0
  6
Continuous
 62
   174
100
AcDbPolyline
 90
        4
 70
   128
 10
256.56489
 20
170.175432
 10
256.552331
 20
171.072133
 10
256.531925
 20
172.010288
 10
256.52293
 20
172.959314
  0
ARC
  5
E5
100
AcDbEntity
  8
0
  6
HIDDEN
 62
   174
100
AcDbCircle
 10
253.56489
 20
177.959314
 30
0.0
 40
3.0
100
AcDbArc
 50
54.0
 51
72.0
  0
LINE
  5
E6
100
AcDbEntity
  8
0
  6
Continuous
 62
   174
100
AcDbLine
 10
264.76489
 20
126.346362
 30
0.0
 11
258.56489
 21
126.346362
 31
0.0
  0
LINE
  5
E7
100
AcDbEntity
  8
0
  6
Continuous
 62
   174
100
AcDbLine
 10
268.56489
 20
166.361478
 30
0.0
 11
268.56489
 21
172.967656
 31
0.0
  0
LINE
  5
E8
100
AcDbEntity
  8
0
  6
Continuous
 62
   174
100
AcDbLine
 10
271.56489
 20
181.967293
 30
0.0
 11
271.56489
 21
179.681748
 31
0.0
  0
LINE
  5
E9
100
AcDbEntity
  8
0
  6
Continuous
 62
   174
100
AcDbLine
 10
272.26489
 20
163.968231
 30
0.0
 11
272.26489
 21
168.546118
 31
0.0
  0
LINE
  5
EA
100
AcDbEntity
  8
0
  6
HIDDEN
 62
   174
100
AcDbLine
 10
272.26489
 20
168.381654
 30
0.0
 11
275.37207
 21
168.381654
 31
0.0
  0
LINE
  5
EB
100
AcDbEntity
  8
0
  6
Continuous
 62
   174
100
AcDbLine
 10
32.06489
 20
172.076295
 30
0.0
 11
32.06489
 21
165.168253
 31
0.0
  0
LWPOLYLINE
  5
EC
100
AcDbEntity
  8
0
  6
Continuous
 62
   174
100
AcDbPolyline
 90
        6
 70
   128
 10
32.75771
 20
177.536974
 10
32.391584
 20
178.288665
 10
32.163486
 20
179.025711
 10
32.086582
 20
179.74796
 10
32.163501
 20
180.470199
 10
32.214401
 20
180.681781
  0
LINE
  5
ED
100
AcDbEntity
  8
0
  6
Continuous
 62
   174
100
AcDbLine
 10
49.56489
 20
144.959314
 30
0.0
 11
51.06489
 21
144.959314
 31
0.0
  0
LINE
  5
EE
100
AcDbEntity
  8
0
  6
HIDDEN
 62
   174
100
AcDbLine
 10
245.46489
 20
180.959314
 30
0.0
 11
253.56489
 21
180.959314
 31
0.0
  0
LINE
  5
EF
100
AcDbEntity
  8
0
  6
HIDDEN
 62
   174
100
AcDbLine
 10
89.06489
 20
164.909314
 30
0.0
 11
89.06489
 21
164.959314
 31
0.0
  0
LINE
  5
F0
100
AcDbEntity
  8
0
  6
HIDDEN
 62
   174
100
AcDbLine
 10
227.06489
 20
123.959314
 30
0.0
 11
227.06489
 21
151.959314
 31
0.0
  0
LINE
  5
F1
100
AcDbEntity
  8
0
  6
HIDDEN
 62
   174
100
AcDbLine
 10
147.46489
 20
150.959314
 30
0.0
 11
147.46489
 21
164.959314
 31
0.0
  0
LINE
  5
F2
100
AcDbEntity
  8
0
  6
HIDDEN
 62
   174
100
AcDbLine
 10
159.58489
 20
150.959314
 30
0.0
 11
159.58489
 21
164.959314
 31
0.0
  0
LINE
  5
F3
100
AcDbEntity
  8
0
  6
HIDDEN
 62
   174
100
AcDbLine
 10
211.06489
 20
128.970231
 30
0.0
 11
211.06489
 21
140.969606
 31
0.0
  0
LINE
  5
F4
100
AcDbEntity
  8
0
  6
Continuous
 62
   174
100
AcDbLine
 10
36.56489
 20
166.253775
 30
0.0
 11
36.56489
 21
172.967656
 31
0.0
  0
LINE
  5
F5
100
AcDbEntity
  8
0
  6
HIDDEN
 62
   174
100
AcDbLine
 10
51.56489
 20
177.967431
 30
0.0
 11
51.56489
 21
175.751563
 31
0.0
  0
LINE
  5
F6
100
AcDbEntity
  8
0
  6
HIDDEN
 62
   174
100
AcDbLine
 10
256.56489
 20
175.751563
 30
0.0
 11
256.56489
 21
177.967431
 31
0.0
  0
ARC
  5
F7
100
AcDbEntity
  8
0
  6
Continuous
 62
   174
100
AcDbCircle
 10
186.06489
 20
154.959314
 30
0.0
 40
3.3
100
AcDbArc
 50
-180.0
 51
0.0
  0
ARC
  5
F8
100
AcDbEntity
  8
0
  6
HIDDEN
 62
   174
100
AcDbCircle
 10
77.56489
 20
177.959314
 30
0.0
 40
3.0
100
AcDbArc
 50
0.0
 51
18.0
  0
LINE
  5
F9
100
AcDbEntity
  8
0
  6
Continuous
 62
   174
100
AcDbLine
 10
230.56489
 20
180.967381
 30
0.0
 11
230.56489
 21
177.967431
 31
0.0
  0
LINE
  5
FA
100
AcDbEntity
  8
0
  6
Continuous
 62
   174
100
AcDbLine
 10
211.06489
 20
164.959314
 30
0.0
 11
211.06489
 21
104.959314
 31
0.0
  0
LINE
  5
FB
100
AcDbEntity
  8
0
  6
HIDDEN
 62
   174
100
AcDbLine
 10
271.56489
 20
166.468118
 30
0.0
 11
271.56489
 21
172.967656
 31
0.0
  0
LWPOLYLINE
  5
FC
100
AcDbEntity
  8
0
  6
HIDDEN
 62
   174
100
AcDbPolyline
 90
        4
 70
   128
 10
32.06489
 20
165.802788
 10
32.198011
 20
165.194429
 10
32.431093
 20
164.583354
 10
32.728989
 20
164.009065
  0
LWPOLYLINE
  5
FD
100
AcDbEntity
  8
0
  6
HIDDEN
 62
   174
100
AcDbPolyline
 90
        4
 70
   128
 10
256.52293
 20
172.959314
 10
256.531925
 20
172.010307
 10
256.55233
 20
171.072141
 10
256.56489
 20
170.175432
  0
LINE
  5
FE
100
AcDbEntity
  8
0
  6
Continuous
 62
   174
100
AcDbLine
 10
54.56489
 20
177.959314
 30
0.0
 11
54.56489
 21
151.959314
 31
0.0
  0
ARC
  5
FF
100
AcDbEntity
  8
0
  6
HIDDEN
 62
   174
100
AcDbCircle
 10
253.56489
 20
177.959314
 30
0.0
 40
3.0
100
AcDbArc
 50
18.0
 51
36.0
  0
LINE
  5
100
100
AcDbEntity
  8
0
  6
Continuous
 62
   174
100
AcDbLine
 10
211.06489
 20
104.959314
 30
0.0
 11
211.06489
 21
164.959314
 31
0.0
  0
LINE
  5
101
100
AcDbEntity
  8
0
  6
HIDDEN
 62
   174
100
AcDbLine
 10
268.56489
 20
172.967656
 30
0.0
 11
268.56489
 21
179.467406
 31
0.0
  0
LINE
  5
102
100
AcDbEntity
  8
0
  6
Continuous
 62
   174
100
AcDbLine
 10
272.26489
 20
168.546118
 30
0.0
 11
272.26489
 21
172.967656
 31
0.0
  0
LWPOLYLINE
  5
103
100
AcDbEntity
  8
0
  6
Continuous
 62
   174
100
AcDbPolyline
 90
        4
 70
   128
 10
32.06489
 20
173.850926
 10
32.19801
 20
175.067641
 10
32.431096
 20
176.289805
 10
32.75771
 20
177.536974
  0
LINE
  5
104
100
AcDbEntity
  8
0
  6
Continuous
 62
   174
100
AcDbLine
 10
43.36489
 20
126.344595
 30
0.0
 11
49.56489
 21
126.344595
 31
0.0
  0
LINE
  5
105
100
AcDbEntity
  8
0
  6
Continuous
 62
   174
100
AcDbLine
 10
77.56489
 20
180.959314
 30
0.0
 11
54.56489
 21
180.959314
 31
0.0
  0
LINE
  5
106
100
AcDbEntity
  8
0
  6
HIDDEN
 62
   174
100
AcDbLine
 10
218.785184
 20
164.909314
 30
0.0
 11
218.785184
 21
164.959314
 31
0.0
  0
LINE
  5
107
100
AcDbEntity
  8
0
  6
HIDDEN
 62
   174
100
AcDbLine
 10
97.01489
 20
140.969606
 30
0.0
 11
97.01489
 21
128.970231
 31
0.0
  0
LINE
  5
108
100
AcDbEntity
  8
0
  6
HIDDEN
 62
   174
100
AcDbLine
 10
97.06489
 20
140.969606
 30
0.0
 11
97.06489
 21
128.970231
 31
0.0
  0
LINE
  5
109
100
AcDbEntity
  8
0
  6
Continuous
 62
   174
100
AcDbLine
 10
211.06489
 20
164.959314
 30
0.0
 11
97.06489
 21
164.959314
 31
0.0
  0
LINE
  5
10A
100
AcDbEntity
  8
0
  6
Continuous
 62
   174
100
AcDbLine
 10
39.56489
 20
166.361265
 30
0.0
 11
39.56489
 21
164.968143
 31
0.0
  0
LINE
  5
10B
100
AcDbEntity
  8
0
  6
Continuous
 62
   174
100
AcDbLine
 10
272.26489
 20
172.967656
 30
0.0
 11
272.26489
 21
177.389406
 31
0.0
  0
LINE
  5
10C
100
AcDbEntity
  8
0
  6
HIDDEN
 62
   174
100
AcDbLine
 10
32.728903
 20
164.009214
 30
0.0
 11
32.75771
 21
163.959764
 31
0.0
  0
LWPOLYLINE
  5
10D
100
AcDbEntity
  8
0
  6
Continuous
 62
   174
100
AcDbPolyline
 90
        4
 70
   128
 10
275.37207
 20
168.537424
 10
275.69997
 20
167.911016
 10
275.932724
 20
167.299603
 10
276.06489
 20
166.694399
  0
LINE
  5
10E
100
AcDbEntity
  8
0
  6
Continuous
 62
   174
100
AcDbLine
 10
264.76489
 20
126.346362
 30
0.0
 11
264.76489
 21
129.88338
 31
0.0
  0
LINE
  5
10F
100
AcDbEntity
  8
0
  6
HIDDEN
 62
   174
100
AcDbLine
 10
54.56489
 20
180.959314
 30
0.0
 11
62.308065
 21
180.959314
 31
0.0
  0
LINE
  5
110
100
AcDbEntity
  8
0
  6
HIDDEN
 62
   174
100
AcDbLine
 10
195.483
 20
104.959314
 30
0.0
 11
176.683073
 21
104.959314
 31
0.0
  0
LINE
  5
111
100
AcDbEntity
  8
0
  6
HIDDEN
 62
   174
100
AcDbLine
 10
200.16489
 20
104.959314
 30
0.0
 11
200.16489
 21
116.959314
 31
0.0
  0
LINE
  5
112
100
AcDbEntity
  8
0
  6
HIDDEN
 62
   174
100
AcDbLine
 10
63.730882
 20
180.959314
 30
0.0
 11
65.708065
 21
180.959314
 31
0.0
  0
LINE
  5
113
100
AcDbEntity
  8
0
  6
HIDDEN
 62
   174
100
AcDbLine
 10
62.70839
 20
180.959314
 30
0.0
 11
63.730882
 21
180.959314
 31
0.0
  0
LINE
  5
114
100
AcDbEntity
  8
0
  6
HIDDEN
 62
   174
100
AcDbLine
 10
62.308065
 20
180.959314
 30
0.0
 11
62.70839
 21
180.959314
 31
0.0
  0
LINE
  5
115
100
AcDbEntity
  8
0
  6
Continuous
 62
   174
100
AcDbLine
 10
51.06489
 20
123.959314
 30
0.0
 11
51.06489
 21
151.959314
 31
0.0
  0
LINE
  5
116
100
AcDbEntity
  8
0
  6
HIDDEN
 62
   174
100
AcDbLine
 10
128.683024
 20
164.959314
 30
0.0
 11
147.482951
 21
164.959314
 31
0.0
  0
LINE
  5
117
100
AcDbEntity
  8
0
  6
Continuous
 62
   174
100
AcDbLine
 10
211.06489
 20
104.959314
 30
0.0
 11
227.06489
 21
104.959314
 31
0.0
  0
LINE
  5
118
100
AcDbEntity
  8
0
  6
HIDDEN
 62
   174
100
AcDbLine
 10
264.76489
 20
132.459314
 30
0.0
 11
258.56489
 21
132.459314
 31
0.0
  0
ARC
  5
119
100
AcDbEntity
  8
0
  6
HIDDEN
 62
   174
100
AcDbCircle
 10
253.56489
 20
177.959314
 30
0.0
 40
3.0
100
AcDbArc
 50
72.0
 51
90.0
  0
LINE
  5
11A
100
AcDbEntity
  8
0
  6
Continuous
 62
   174
100
AcDbLine
 10
230.56489
 20
177.959314
 30
0.0
 11
253.56489
 21
177.959314
 31
0.0
  0
ARC
  5
11B
100
AcDbEntity
  8
0
  6
Continuous
 62
   174
100
AcDbCircle
 10
138.06489
 20
114.959314
 30
0.0
 40
3.3
100
AcDbArc
 50
180.0
 51
360.0
  0
LINE
  5
11C
100
AcDbEntity
  8
0
  6
Continuous
 62
   174
100
AcDbLine
 10
271.56489
 20
172.967656
 30
0.0
 11
271.56489
 21
166.253563
 31
0.0
  0
LINE
  5
11D
100
AcDbEntity
  8
0
  6
HIDDEN
 62
   174
100
AcDbLine
 10
258.56489
 20
137.459314
 30
0.0
 11
258.56489
 21
132.459314
 31
0.0
  0
LINE
  5
11E
100
AcDbEntity
  8
0
  6
HIDDEN
 62
   174
100
AcDbLine
 10
275.37207
 20
177.536974
 30
0.0
 11
272.26489
 21
177.536974
 31
0.0
  0
LINE
  5
11F
100
AcDbEntity
  8
0
  6
Continuous
 62
   174
100
AcDbLine
 10
275.37207
 20
181.958865
 30
0.0
 11
275.400921
 21
181.909341
 31
0.0
  0
LINE
  5
120
100
AcDbEntity
  8
0
  6
HIDDEN
 62
   174
100
AcDbLine
 10
264.76489
 20
140.037914
 30
0.0
 11
258.56489
 21
140.037914
 31
0.0
  0
LINE
  5
121
100
AcDbEntity
  8
0
  6
HIDDEN
 62
   174
100
AcDbLine
 10
65.708065
 20
180.959314
 30
0.0
 11
67.52547
 21
180.959314
 31
0.0
  0
LINE
  5
122
100
AcDbEntity
  8
0
  6
HIDDEN
 62
   174
100
AcDbLine
 10
195.96489
 20
114.959314
 30
0.0
 11
195.96489
 21
104.959314
 31
0.0
  0
LINE
  5
123
100
AcDbEntity
  8
0
  6
Continuous
 62
   174
100
AcDbLine
 10
264.76489
 20
125.277403
 30
0.0
 11
258.56489
 21
125.277403
 31
0.0
  0
LINE
  5
124
100
AcDbEntity
  8
0
  6
HIDDEN
 62
   174
100
AcDbLine
 10
213.344596
 20
164.909314
 30
0.0
 11
213.344596
 21
164.959314
 31
0.0
  0
LINE
  5
125
100
AcDbEntity
  8
0
  6
Continuous
 62
   174
100
AcDbLine
 10
80.56489
 20
151.959314
 30
0.0
 11
80.56489
 21
177.959314
 31
0.0
  0
LINE
  5
126
100
AcDbEntity
  8
0
  6
Continuous
 62
   174
100
AcDbLine
 10
227.06489
 20
104.959314
 30
0.0
 11
227.06489
 21
164.959314
 31
0.0
  0
LINE
  5
127
100
AcDbEntity
  8
0
  6
HIDDEN
 62
   174
100
AcDbLine
 10
258.56489
 20
143.573193
 30
0.0
 11
258.56489
 21
140.037914
 31
0.0
  0
LINE
  5
128
100
AcDbEntity
  8
0
  6
HIDDEN
 62
   174
100
AcDbLine
 10
200.16489
 20
114.959314
 30
0.0
 11
200.16489
 21
104.959314
 31
0.0
  0
LINE
  5
129
100
AcDbEntity
  8
0
  6
Continuous
 62
   174
100
AcDbLine
 10
272.26489
 20
177.381205
 30
0.0
 11
275.37207
 21
177.381205
 31
0.0
  0
LWPOLYLINE
  5
12A
100
AcDbEntity
  8
0
  6
HIDDEN
 62
   174
100
AcDbPolyline
 90
        4
 70
   128
 10
51.56489
 20
170.175432
 10
51.577449
 20
171.072133
 10
51.597854
 20
172.010288
 10
51.60685
 20
172.959314
  0
LINE
  5
12B
100
AcDbEntity
  8
0
  6
HIDDEN
 62
   174
100
AcDbLine
 10
256.56489
 20
170.18396
 30
0.0
 11
256.56489
 21
164.968143
 31
0.0
  0
LINE
  5
12C
100
AcDbEntity
  8
0
  6
HIDDEN
 62
   174
100
AcDbLine
 10
67.52547
 20
180.959314
 30
0.0
 11
67.964334
 21
180.959314
 31
0.0
  0
LINE
  5
12D
100
AcDbEntity
  8
0
  6
HIDDEN
 62
   174
100
AcDbLine
 10
51.583122
 20
151.959314
 30
0.0
 11
54.583071
 21
151.959314
 31
0.0
  0
LINE
  5
12E
100
AcDbEntity
  8
0
  6
Continuous
 62
   174
100
AcDbLine
 10
258.56489
 20
136.465645
 30
0.0
 11
258.56489
 21
132.47343
 31
0.0
  0
LINE
  5
12F
100
AcDbEntity
  8
0
  6
HIDDEN
 62
   174
100
AcDbLine
 10
216.586741
 20
164.959314
 30
0.0
 11
215.579393
 21
164.959314
 31
0.0
  0
LINE
  5
130
100
AcDbEntity
  8
0
  6
Continuous
 62
   174
100
AcDbLine
 10
253.56489
 20
180.967381
 30
0.0
 11
253.56489
 21
177.967431
 31
0.0
  0
LINE
  5
131
100
AcDbEntity
  8
0
  6
HIDDEN
 62
   174
100
AcDbLine
 10
131.46489
 20
118.959314
 30
0.0
 11
131.46489
 21
104.959314
 31
0.0
  0
LINE
  5
132
100
AcDbEntity
  8
0
  6
HIDDEN
 62
   174
100
AcDbLine
 10
268.56489
 20
172.967656
 30
0.0
 11
268.56489
 21
166.468118
 31
0.0
  0
LINE
  5
133
100
AcDbEntity
  8
0
  6
HIDDEN
 62
   174
100
AcDbLine
 10
272.26489
 20
177.536974
 30
0.0
 11
272.26489
 21
181.958865
 31
0.0
  0
LINE
  5
134
100
AcDbEntity
  8
0
  6
Continuous
 62
   174
100
AcDbLine
 10
230.56489
 20
151.959314
 30
0.0
 11
230.56489
 21
177.959314
 31
0.0
  0
ARC
  5
135
100
AcDbEntity
  8
0
  6
Continuous
 62
   174
100
AcDbCircle
 10
77.56489
 20
177.959314
 30
0.0
 40
3.0
100
AcDbArc
 50
0.0
 51
90.0
  0
LINE
  5
136
100
AcDbEntity
  8
0
  6
Continuous
 62
   174
100
AcDbLine
 10
81.06489
 20
164.959314
 30
0.0
 11
97.06489
 21
164.959314
 31
0.0
  0
LINE
  5
137
100
AcDbEntity
  8
0
  6
HIDDEN
 62
   174
100
AcDbLine
 10
195.96489
 20
104.959314
 30
0.0
 11
195.96489
 21
116.959314
 31
0.0
  0
LINE
  5
138
100
AcDbEntity
  8
0
  6
HIDDEN
 62
   174
100
AcDbLine
 10
94.825991
 20
164.959314
 30
0.0
 11
94.681113
 21
164.959314
 31
0.0
  0
LINE
  5
139
100
AcDbEntity
  8
0
  6
Continuous
 62
   174
100
AcDbLine
 10
227.06489
 20
123.959314
 30
0.0
 11
257.06489
 21
123.959314
 31
0.0
  0
LINE
  5
13A
100
AcDbEntity
  8
0
  6
HIDDEN
 62
   174
100
AcDbLine
 10
160.66489
 20
150.959314
 30
0.0
 11
160.66489
 21
164.959314
 31
0.0
  0
LINE
  5
13B
100
AcDbEntity
  8
0
  6
HIDDEN
 62
   174
100
AcDbLine
 10
80.583133
 20
177.959314
 30
0.0
 11
77.582971
 21
177.959314
 31
0.0
  0
ARC
  5
13C
100
AcDbEntity
  8
0
  6
Continuous
 62
   174
100
AcDbCircle
 10
77.56489
 20
177.959314
 30
0.0
 40
3.0
100
AcDbArc
 50
-342.0
 51
-324.0
  0
LINE
  5
13D
100
AcDbEntity
  8
0
  6
HIDDEN
 62
   174
100
AcDbLine
 10
230.56489
 20
177.959314
 30
0.0
 11
230.56489
 21
151.959314
 31
0.0
  0
LWPOLYLINE
  5
13E
100
AcDbEntity
  8
0
  6
Continuous
 62
   174
100
AcDbPolyline
 90
        4
 70
   128
 10
32.75771
 20
168.381654
 10
32.429809
 20
169.634469
 10
32.197056
 20
170.85729
 10
32.06489
 20
172.067703
  0
LINE
  5
13F
100
AcDbEntity
  8
0
  6
HIDDEN
 62
   174
100
AcDbLine
 10
245.06489
 20
180.959314
 30
0.0
 11
245.46489
 21
180.959314
 31
0.0
  0
LINE
  5
140
100
AcDbEntity
  8
0
  6
HIDDEN
 62
   174
100
AcDbLine
 10
253.56489
 20
177.959314
 30
0.0
 11
230.56489
 21
177.959314
 31
0.0
  0
LINE
  5
141
100
AcDbEntity
  8
0
  6
HIDDEN
 62
   174
100
AcDbLine
 10
39.56489
 20
166.468118
 30
0.0
 11
39.56489
 21
172.967656
 31
0.0
  0
LINE
  5
142
100
AcDbEntity
  8
0
  6
HIDDEN
 62
   174
100
AcDbLine
 10
200.56489
 20
114.959314
 30
0.0
 11
200.56489
 21
104.959314
 31
0.0
  0
LINE
  5
143
100
AcDbEntity
  8
0
  6
HIDDEN
 62
   174
100
AcDbLine
 10
35.86489
 20
168.537424
 30
0.0
 11
32.75771
 21
168.537424
 31
0.0
  0
LWPOLYLINE
  5
144
100
AcDbEntity
  8
0
  6
HIDDEN
 62
   174
100
AcDbPolyline
 90
        4
 70
   128
 10
32.06489
 20
179.224229
 10
32.198011
 20
178.61587
 10
32.431093
 20
178.004796
 10
32.75771
 20
177.381205
  0
ARC
  5
145
100
AcDbEntity
  8
0
  6
HIDDEN
 62
   174
100
AcDbCircle
 10
54.56489
 20
177.959314
 30
0.0
 40
3.0
100
AcDbArc
 50
90.0
 51
180.0
  0
LINE
  5
146
100
AcDbEntity
  8
0
  6
HIDDEN
 62
   174
100
AcDbLine
 10
219.06489
 20
164.909314
 30
0.0
 11
219.06489
 21
164.959314
 31
0.0
  0
LINE
  5
147
100
AcDbEntity
  8
0
  6
HIDDEN
 62
   174
100
AcDbLine
 10
253.56489
 20
151.959314
 30
0.0
 11
230.56489
 21
151.959314
 31
0.0
  0
LINE
  5
148
100
AcDbEntity
  8
0
  6
Continuous
 62
   174
100
AcDbLine
 10
227.56489
 20
177.959314
 30
0.0
 11
227.56489
 21
151.959314
 31
0.0
  0
LINE
  5
149
100
AcDbEntity
  8
0
  6
HIDDEN
 62
   174
100
AcDbLine
 10
230.56489
 20
180.967381
 30
0.0
 11
230.56489
 21
177.967431
 31
0.0
  0
LINE
  5
14A
100
AcDbEntity
  8
0
  6
HIDDEN
 62
   174
100
AcDbLine
 10
230.582967
 20
177.959314
 30
0.0
 11
227.583017
 21
177.959314
 31
0.0
  0
LINE
  5
14B
100
AcDbEntity
  8
0
  6
HIDDEN
 62
   174
100
AcDbLine
 10
272.26489
 20
163.968231
 30
0.0
 11
272.26489
 21
163.968656
 31
0.0
  0
LWPOLYLINE
  5
14C
100
AcDbEntity
  8
0
  6
HIDDEN
 62
   174
100
AcDbPolyline
 90
        7
 70
   128
 10
275.37207
 20
177.536974
 10
275.738196
 20
178.288665
 10
275.966294
 20
179.025711
 10
276.043198
 20
179.74796
 10
275.966279
 20
180.470199
 10
275.738179
 20
181.207218
 10
275.37207
 20
181.958865
  0
LINE
  5
14D
100
AcDbEntity
  8
0
  6
Continuous
 62
   174
100
AcDbLine
 10
51.56489
 20
177.959314
 30
0.0
 11
51.56489
 21
175.743196
 31
0.0
  0
LINE
  5
14E
100
AcDbEntity
  8
0
  6
Continuous
 62
   174
100
AcDbLine
 10
258.56489
 20
144.959314
 30
0.0
 11
257.06489
 21
144.959314
 31
0.0
  0
LINE
  5
14F
100
AcDbEntity
  8
0
  6
HIDDEN
 62
   174
100
AcDbLine
 10
69.108065
 20
180.959314
 30
0.0
 11
77.56489
 21
180.959314
 31
0.0
  0
LINE
  5
150
100
AcDbEntity
  8
0
  6
HIDDEN
 62
   174
100
AcDbLine
 10
68.708065
 20
180.959314
 30
0.0
 11
69.108065
 21
180.959314
 31
0.0
  0
LINE
  5
151
100
AcDbEntity
  8
0
  6
HIDDEN
 62
   174
100
AcDbLine
 10
67.964334
 20
180.959314
 30
0.0
 11
68.708065
 21
180.959314
 31
0.0
  0
ARC
  5
152
100
AcDbEntity
  8
0
  6
Continuous
 62
   174
100
AcDbCircle
 10
122.06489
 20
154.959314
 30
0.0
 40
3.3
100
AcDbArc
 50
0.0
 51
180.0
  0
LINE
  5
153
100
AcDbEntity
  8
0
  6
HIDDEN
 62
   174
100
AcDbLine
 10
195.96489
 20
116.959314
 30
0.0
 11
198.06489
 21
118.17175
 31
0.0
  0
LINE
  5
154
100
AcDbEntity
  8
0
  6
HIDDEN
 62
   174
100
AcDbLine
 10
112.16489
 20
104.959314
 30
0.0
 11
112.16489
 21
116.959314
 31
0.0
  0
LINE
  5
155
100
AcDbEntity
  8
0
  6
Continuous
 62
   174
100
AcDbLine
 10
264.76489
 20
137.473205
 30
0.0
 11
264.76489
 21
140.051267
 31
0.0
  0
LINE
  5
156
100
AcDbEntity
  8
0
  6
Continuous
 62
   174
100
AcDbLine
 10
32.731032
 20
164.00719
 30
0.0
 11
32.21423
 21
165.237484
 31
0.0
  0
LINE
  5
157
100
AcDbEntity
  8
0
  6
HIDDEN
 62
   174
100
AcDbLine
 10
89.344596
 20
164.909314
 30
0.0
 11
89.344596
 21
164.959314
 31
0.0
  0
LINE
  5
158
100
AcDbEntity
  8
0
  6
HIDDEN
 62
   174
100
AcDbLine
 10
216.56489
 20
164.959314
 30
0.0
 11
216.56489
 21
164.909314
 31
0.0
  0
LINE
  5
159
100
AcDbEntity
  8
0
  6
HIDDEN
 62
   174
100
AcDbLine
 10
179.46489
 20
150.959314
 30
0.0
 11
179.46489
 21
164.959314
 31
0.0
  0
LINE
  5
15A
100
AcDbEntity
  8
0
  6
HIDDEN
 62
   174
100
AcDbLine
 10
160.66489
 20
150.959314
 30
0.0
 11
160.66489
 21
164.959314
 31
0.0
  0
LINE
  5
15B
100
AcDbEntity
  8
0
  6
HIDDEN
 62
   174
100
AcDbLine
 10
195.983063
 20
116.959314
 30
0.0
 11
200.183035
 21
116.959314
 31
0.0
  0
LINE
  5
15C
100
AcDbEntity
  8
0
  6
HIDDEN
 62
   174
100
AcDbLine
 10
195.583055
 20
104.959314
 30
0.0
 11
200.583042
 21
104.959314
 31
0.0
  0
LINE
  5
15D
100
AcDbEntity
  8
0
  6
Continuous
 62
   174
100
AcDbLine
 10
264.76489
 20
143.585056
 30
0.0
 11
264.76489
 21
144.652309
 31
0.0
  0
LINE
  5
15E
100
AcDbEntity
  8
0
  6
HIDDEN
 62
   174
100
AcDbLine
 10
49.56489
 20
132.462682
 30
0.0
 11
49.56489
 21
137.462681
 31
0.0
  0
LINE
  5
15F
100
AcDbEntity
  8
0
  6
Continuous
 62
   174
100
AcDbLine
 10
32.73027
 20
181.910071
 30
0.0
 11
32.75771
 21
181.958865
 31
0.0
  0
LINE
  5
160
100
AcDbEntity
  8
0
  6
HIDDEN
 62
   174
100
AcDbLine
 10
253.582866
 20
151.959314
 30
0.0
 11
256.583028
 21
151.959314
 31
0.0
  0
LINE
  5
161
100
AcDbEntity
  8
0
  6
HIDDEN
 62
   174
100
AcDbLine
 10
213.339946
 20
164.959314
 30
0.0
 11
213.082905
 21
164.959314
 31
0.0
  0
LINE
  5
162
100
AcDbEntity
  8
0
  6
Continuous
 62
   174
100
AcDbLine
 10
97.06489
 20
164.959314
 30
0.0
 11
97.06489
 21
104.959314
 31
0.0
  0
LINE
  5
163
100
AcDbEntity
  8
0
  6
HIDDEN
 62
   174
100
AcDbLine
 10
51.56489
 20
164.968143
 30
0.0
 11
51.56489
 21
170.18396
 31
0.0
  0
LINE
  5
164
100
AcDbEntity
  8
0
  6
HIDDEN
 62
   174
100
AcDbLine
 10
213.06489
 20
164.909314
 30
0.0
 11
213.06489
 21
164.959314
 31
0.0
  0
LINE
  5
165
100
AcDbEntity
  8
0
  6
HIDDEN
 62
   174
100
AcDbLine
 10
81.06489
 20
151.959314
 30
0.0
 11
81.06489
 21
123.959314
 31
0.0
  0
LINE
  5
166
100
AcDbEntity
  8
0
  6
HIDDEN
 62
   174
100
AcDbLine
 10
128.66489
 20
164.959314
 30
0.0
 11
128.66489
 21
149.959314
 31
0.0
  0
LINE
  5
167
100
AcDbEntity
  8
0
  6
Continuous
 62
   174
100
AcDbLine
 10
257.06489
 20
151.959314
 30
0.0
 11
257.06489
 21
123.959314
 31
0.0
  0
LINE
  5
168
100
AcDbEntity
  8
0
  6
HIDDEN
 62
   174
100
AcDbLine
 10
67.52547
 20
180.909314
 30
0.0
 11
63.321218
 21
180.909314
 31
0.0
  0
LINE
  5
169
100
AcDbEntity
  8
0
  6
Continuous
 62
   174
100
AcDbLine
 10
39.56489
 20
180.959314
 30
0.0
 11
54.56489
 21
180.959314
 31
0.0
  0
LINE
  5
16A
100
AcDbEntity
  8
0
  6
HIDDEN
 62
   174
100
AcDbLine
 10
112.16489
 20
114.959314
 30
0.0
 11
112.16489
 21
104.959314
 31
0.0
  0
LINE
  5
16B
100
AcDbEntity
  8
0
  6
Continuous
 62
   174
100
AcDbLine
 10
276.06489
 20
166.703279
 30
0.0
 11
276.06489
 21
179.232244
 31
0.0
  0
LINE
  5
16C
100
AcDbEntity
  8
0
  6
Continuous
 62
   174
100
AcDbLine
 10
258.56489
 20
137.473205
 30
0.0
 11
258.56489
 21
136.465645
 31
0.0
  0
LINE
  5
16D
100
AcDbEntity
  8
0
  6
HIDDEN
 62
   174
100
AcDbLine
 10
215.56489
 20
164.959314
 30
0.0
 11
215.56489
 21
164.909314
 31
0.0
  0
LINE
  5
16E
100
AcDbEntity
  8
0
  6
HIDDEN
 62
   174
100
AcDbLine
 10
160.66489
 20
164.959314
 30
0.0
 11
160.66489
 21
149.959314
 31
0.0
  0
LINE
  5
16F
100
AcDbEntity
  8
0
  6
Continuous
 62
   174
100
AcDbLine
 10
272.26489
 20
168.537424
 30
0.0
 11
275.37207
 21
168.537424
 31
0.0
  0
LINE
  5
170
100
AcDbEntity
  8
0
  6
Continuous
 62
   174
100
AcDbLine
 10
43.36489
 20
143.573193
 30
0.0
 11
43.36489
 21
140.037914
 31
0.0
  0
LINE
  5
171
100
AcDbEntity
  8
0
  6
HIDDEN
 62
   174
100
AcDbLine
 10
218.803245
 20
164.909314
 30
0.0
 11
216.582917
 21
164.909314
 31
0.0
  0
LINE
  5
172
100
AcDbEntity
  8
0
  6
HIDDEN
 62
   174
100
AcDbLine
 10
218.681098
 20
164.959314
 30
0.0
 11
216.586741
 21
164.959314
 31
0.0
  0
LINE
  5
173
100
AcDbEntity
  8
0
  6
HIDDEN
 62
   174
100
AcDbLine
 10
179.46489
 20
150.959314
 30
0.0
 11
179.46489
 21
164.959314
 31
0.0
  0
ARC
  5
174
100
AcDbEntity
  8
0
  6
Continuous
 62
   174
100
AcDbCircle
 10
77.56489
 20
177.959314
 30
0.0
 40
3.0
100
AcDbArc
 50
-306.0
 51
-288.0
  0
LINE
  5
175
100
AcDbEntity
  8
0
  6
Continuous
 62
   174
100
AcDbLine
 10
39.56489
 20
180.967381
 30
0.0
 11
39.56489
 21
179.574046
 31
0.0
  0
LINE
  5
176
100
AcDbEntity
  8
0
  6
Continuous
 62
   174
100
AcDbLine
 10
268.56489
 20
164.968143
 30
0.0
 11
268.56489
 21
166.361478
 31
0.0
  0
LINE
  5
177
100
AcDbEntity
  8
0
  6
HIDDEN
 62
   174
100
AcDbLine
 10
272.26489
 20
168.381654
 30
0.0
 11
272.26489
 21
177.536974
 31
0.0
  0
LWPOLYLINE
  5
178
100
AcDbEntity
  8
0
  6
Continuous
 62
   174
100
AcDbPolyline
 90
        4
 70
   128
 10
276.06489
 20
165.802788
 10
275.931769
 20
165.194429
 10
275.698687
 20
164.583354
 10
275.400791
 20
164.009065
  0
LINE
  5
179
100
AcDbEntity
  8
0
  6
HIDDEN
 62
   174
100
AcDbLine
 10
49.56489
 20
126.346362
 30
0.0
 11
49.56489
 21
129.88338
 31
0.0
  0
LWPOLYLINE
  5
17A
100
AcDbEntity
  8
0
  6
Continuous
 62
   174
100
AcDbPolyline
 90
        4
 70
   128
 10
275.400831
 20
181.909494
 10
275.69997
 20
181.332458
 10
275.932724
 20
180.721045
 10
276.06489
 20
180.115841
  0
LINE
  5
17B
100
AcDbEntity
  8
0
  6
Continuous
 62
   174
100
AcDbLine
 10
264.76489
 20
140.040909
 30
0.0
 11
258.56489
 21
140.040909
 31
0.0
  0
LINE
  5
17C
100
AcDbEntity
  8
0
  6
HIDDEN
 62
   174
100
AcDbLine
 10
257.06489
 20
134.969918
 30
0.0
 11
257.06489
 21
124.970369
 31
0.0
  0
LINE
  5
17D
100
AcDbEntity
  8
0
  6
HIDDEN
 62
   174
100
AcDbLine
 10
51.06489
 20
124.970369
 30
0.0
 11
51.06489
 21
134.969918
 31
0.0
  0
LINE
  5
17E
100
AcDbEntity
  8
0
  6
Continuous
 62
   174
100
AcDbLine
 10
32.06489
 20
180.767271
 30
0.0
 11
32.06489
 21
173.859228
 31
0.0
  0
LINE
  5
17F
100
AcDbEntity
  8
0
  6
HIDDEN
 62
   174
100
AcDbLine
 10
43.36489
 20
137.462681
 30
0.0
 11
49.56489
 21
137.462681
 31
0.0
  0
LINE
  5
180
100
AcDbEntity
  8
0
  6
Continuous
 62
   174
100
AcDbLine
 10
43.36489
 20
129.880384
 30
0.0
 11
43.36489
 21
126.344595
 31
0.0
  0
LINE
  5
181
100
AcDbEntity
  8
0
  6
Continuous
 62
   174
100
AcDbLine
 10
49.56489
 20
124.970369
 30
0.0
 11
49.56489
 21
125.28774
 31
0.0
  0
LINE
  5
182
100
AcDbEntity
  8
0
  6
HIDDEN
 62
   174
100
AcDbLine
 10
94.803261
 20
164.959314
 30
0.0
 11
92.582933
 21
164.959314
 31
0.0
  0
LINE
  5
183
100
AcDbEntity
  8
0
  6
Continuous
 62
   174
100
AcDbLine
 10
35.86489
 20
181.966868
 30
0.0
 11
35.86489
 21
177.545118
 31
0.0
  0
LINE
  5
184
100
AcDbEntity
  8
0
  6
HIDDEN
 62
   174
100
AcDbLine
 10
200.16489
 20
104.959314
 30
0.0
 11
200.16489
 21
116.959314
 31
0.0
  0
LINE
  5
185
100
AcDbEntity
  8
0
  6
HIDDEN
 62
   174
100
AcDbLine
 10
200.16489
 20
114.959314
 30
0.0
 11
200.16489
 21
104.959314
 31
0.0
  0
ARC
  5
186
100
AcDbEntity
  8
0
  6
HIDDEN
 62
   174
100
AcDbCircle
 10
253.56489
 20
177.959314
 30
0.0
 40
3.0
100
AcDbArc
 50
36.0
 51
54.0
  0
LINE
  5
187
100
AcDbEntity
  8
0
  6
HIDDEN
 62
   174
100
AcDbLine
 10
219.06489
 20
164.909314
 30
0.0
 11
219.06489
 21
164.959314
 31
0.0
  0
LINE
  5
188
100
AcDbEntity
  8
0
  6
Continuous
 62
   174
100
AcDbLine
 10
49.56489
 20
144.651459
 30
0.0
 11
49.56489
 21
144.969256
 31
0.0
  0
LINE
  5
189
100
AcDbEntity
  8
0
  6
HIDDEN
 62
   174
100
AcDbLine
 10
77.56489
 20
177.967431
 30
0.0
 11
77.56489
 21
180.967381
 31
0.0
  0
LINE
  5
18A
100
AcDbEntity
  8
0
  6
Continuous
 62
   174
100
AcDbLine
 10
271.56489
 20
179.681748
 30
0.0
 11
271.56489
 21
172.967656
 31
0.0
  0
LINE
  5
18B
100
AcDbEntity
  8
0
  6
Continuous
 62
   174
100
AcDbLine
 10
43.36489
 20
129.880384
 30
0.0
 11
49.56489
 21
129.880384
 31
0.0
  0
LINE
  5
18C
100
AcDbEntity
  8
0
  6
Continuous
 62
   174
100
AcDbLine
 10
227.06489
 20
164.959314
 30
0.0
 11
211.06489
 21
164.959314
 31
0.0
  0
LINE
  5
18D
100
AcDbEntity
  8
0
  6
HIDDEN
 62
   174
100
AcDbLine
 10
107.96489
 20
114.959314
 30
0.0
 11
107.96489
 21
104.959314
 31
0.0
  0
LWPOLYLINE
  5
18E
100
AcDbEntity
  8
0
  6
Continuous
 62
   174
100
AcDbPolyline
 90
        4
 70
   128
 10
276.06489
 20
179.224229
 10
275.931769
 20
178.61587
 10
275.698687
 20
178.004796
 10
275.37207
 20
177.381205
  0
LWPOLYLINE
  5
18F
100
AcDbEntity
  8
0
  6
Continuous
 62
   174
100
AcDbPolyline
 90
        4
 70
   128
 10
51.60685
 20
172.959314
 10
51.597855
 20
172.010307
 10
51.577449
 20
171.072141
 10
51.56489
 20
170.175432
  0
LINE
  5
190
100
AcDbEntity
  8
0
  6
HIDDEN
 62
   174
100
AcDbLine
 10
244.451737
 20
180.959314
 30
0.0
 11
245.06489
 21
180.959314
 31
0.0
  0
LINE
  5
191
100
AcDbEntity
  8
0
  6
HIDDEN
 62
   174
100
AcDbLine
 10
179.482913
 20
149.959314
 30
0.0
 11
160.682986
 21
149.959314
 31
0.0
  0
LINE
  5
192
100
AcDbEntity
  8
0
  6
HIDDEN
 62
   174
100
AcDbLine
 10
213.484824
 20
164.959314
 30
0.0
 11
213.339946
 21
164.959314
 31
0.0
  0
LINE
  5
193
100
AcDbEntity
  8
0
  6
HIDDEN
 62
   174
100
AcDbLine
 10
128.66489
 20
150.959314
 30
0.0
 11
128.66489
 21
164.959314
 31
0.0
  0
LINE
  5
194
100
AcDbEntity
  8
0
  6
HIDDEN
 62
   174
100
AcDbLine
 10
179.46489
 20
164.959314
 30
0.0
 11
179.46489
 21
149.959314
 31
0.0
  0
LINE
  5
195
100
AcDbEntity
  8
0
  6
Continuous
 62
   174
100
AcDbLine
 10
268.56489
 20
164.959314
 30
0.0
 11
256.56489
 21
164.959314
 31
0.0
  0
LINE
  5
196
100
AcDbEntity
  8
0
  6
Continuous
 62
   174
100
AcDbLine
 10
256.56489
 20
170.175432
 30
0.0
 11
256.56489
 21
151.959314
 31
0.0
  0
LINE
  5
197
100
AcDbEntity
  8
0
  6
Continuous
 62
   174
100
AcDbLine
 10
35.86489
 20
172.967656
 30
0.0
 11
35.86489
 21
168.390406
 31
0.0
  0
LINE
  5
198
100
AcDbEntity
  8
0
  6
HIDDEN
 62
   174
100
AcDbLine
 10
49.56489
 20
140.040909
 30
0.0
 11
49.56489
 21
143.574959
 31
0.0
  0
LINE
  5
199
100
AcDbEntity
  8
0
  6
HIDDEN
 62
   174
100
AcDbLine
 10
272.26489
 20
181.966868
 30
0.0
 11
272.26489
 21
181.967293
 31
0.0
  0
LINE
  5
19A
100
AcDbEntity
  8
0
  6
Continuous
 62
   174
100
AcDbLine
 10
43.36489
 20
140.037914
 30
0.0
 11
49.56489
 21
140.037914
 31
0.0
  0
LINE
  5
19B
100
AcDbEntity
  8
0
  6
Continuous
 62
   174
100
AcDbLine
 10
258.56489
 20
143.585056
 30
0.0
 11
258.56489
 21
140.051267
 31
0.0
  0
ARC
  5
19C
100
AcDbEntity
  8
0
  6
Continuous
 62
   174
100
AcDbCircle
 10
170.06489
 20
114.959314
 30
0.0
 40
3.3
100
AcDbArc
 50
0.0
 51
180.0
  0
LINE
  5
19D
100
AcDbEntity
  8
0
  6
HIDDEN
 62
   174
100
AcDbLine
 10
43.36489
 20
132.462682
 30
0.0
 11
49.56489
 21
132.462682
 31
0.0
  0
LINE
  5
19E
100
AcDbEntity
  8
0
  6
Continuous
 62
   174
100
AcDbLine
 10
264.76489
 20
132.462682
 30
0.0
 11
264.76489
 21
137.462681
 31
0.0
  0
LINE
  5
19F
100
AcDbEntity
  8
0
  6
HIDDEN
 62
   174
100
AcDbLine
 10
51.56489
 20
175.743196
 30
0.0
 11
51.56489
 21
177.959314
 31
0.0
  0
LINE
  5
1A0
100
AcDbEntity
  8
0
  6
HIDDEN
 62
   174
100
AcDbLine
 10
92.56489
 20
164.959314
 30
0.0
 11
92.56489
 21
164.909314
 31
0.0
  0
LINE
  5
1A1
100
AcDbEntity
  8
0
  6
HIDDEN
 62
   174
100
AcDbLine
 10
227.56489
 20
177.959314
 30
0.0
 11
227.56489
 21
151.959314
 31
0.0
  0
LINE
  5
1A2
100
AcDbEntity
  8
0
  6
HIDDEN
 62
   174
100
AcDbLine
 10
195.56489
 20
114.959314
 30
0.0
 11
195.56489
 21
104.959314
 31
0.0
  0
LWPOLYLINE
  5
1A3
100
AcDbEntity
  8
0
  6
HIDDEN
 62
   174
100
AcDbPolyline
 90
        4
 70
   128
 10
51.56489
 20
175.743196
 10
51.57745
 20
174.846461
 10
51.597855
 20
173.908307
 10
51.60685
 20
172.959314
  0
LINE
  5
1A4
100
AcDbEntity
  8
0
  6
HIDDEN
 62
   174
100
AcDbLine
 10
213.082905
 20
164.909314
 30
0.0
 11
219.083017
 21
164.909314
 31
0.0
  0
LINE
  5
1A5
100
AcDbEntity
  8
0
  6
HIDDEN
 62
   174
100
AcDbLine
 10
94.785184
 20
164.909314
 30
0.0
 11
94.785184
 21
164.959314
 31
0.0
  0
LINE
  5
1A6
100
AcDbEntity
  8
0
  6
Continuous
 62
   174
100
AcDbLine
 10
97.06489
 20
104.959314
 30
0.0
 11
211.06489
 21
104.959314
 31
0.0
  0
LINE
  5
1A7
100
AcDbEntity
  8
0
  6
HIDDEN
 62
   174
100
AcDbLine
 10
107.583107
 20
104.959314
 30
0.0
 11
112.583095
 21
104.959314
 31
0.0
  0
LINE
  5
1A8
100
AcDbEntity
  8
0
  6
HIDDEN
 62
   174
100
AcDbLine
 10
107.96489
 20
104.959314
 30
0.0
 11
107.96489
 21
116.959314
 31
0.0
  0
LINE
  5
1A9
100
AcDbEntity
  8
0
  6
Continuous
 62
   174
100
AcDbLine
 10
77.56489
 20
177.967431
 30
0.0
 11
77.56489
 21
180.967381
 31
0.0
  0
LINE
  5
1AA
100
AcDbEntity
  8
0
  6
Continuous
 62
   174
100
AcDbLine
 10
36.56489
 20
179.681961
 30
0.0
 11
36.56489
 21
181.967293
 31
0.0
  0
LINE
  5
1AB
100
AcDbEntity
  8
0
  6
HIDDEN
 62
   174
100
AcDbLine
 10
107.583107
 20
114.959314
 30
0.0
 11
112.583095
 21
114.959314
 31
0.0
  0
LINE
  5
1AC
100
AcDbEntity
  8
0
  6
Continuous
 62
   174
100
AcDbLine
 10
49.56489
 20
124.959314
 30
0.0
 11
51.06489
 21
124.959314
 31
0.0
  0
LINE
  5
1AD
100
AcDbEntity
  8
0
  6
Continuous
 62
   174
100
AcDbLine
 10
256.56489
 20
175.743196
 30
0.0
 11
256.56489
 21
177.959314
 31
0.0
  0
LINE
  5
1AE
100
AcDbEntity
  8
0
  6
Continuous
 62
   174
100
AcDbLine
 10
253.56489
 20
151.959314
 30
0.0
 11
253.56489
 21
177.959314
 31
0.0
  0
LINE
  5
1AF
100
AcDbEntity
  8
0
  6
HIDDEN
 62
   174
100
AcDbLine
 10
89.339962
 20
164.959314
 30
0.0
 11
89.083133
 21
164.959314
 31
0.0
  0
LINE
  5
1B0
100
AcDbEntity
  8
0
  6
HIDDEN
 62
   174
100
AcDbLine
 10
147.46489
 20
164.959314
 30
0.0
 11
147.46489
 21
149.959314
 31
0.0
  0
LINE
  5
1B1
100
AcDbEntity
  8
0
  6
HIDDEN
 62
   174
100
AcDbLine
 10
147.46489
 20
150.959314
 30
0.0
 11
147.46489
 21
164.959314
 31
0.0
  0
LINE
  5
1B2
100
AcDbEntity
  8
0
  6
HIDDEN
 62
   174
100
AcDbLine
 10
211.11489
 20
140.969606
 30
0.0
 11
211.11489
 21
128.970231
 31
0.0
  0
LINE
  5
1B3
100
AcDbEntity
  8
0
  6
HIDDEN
 62
   174
100
AcDbLine
 10
51.06489
 20
134.969918
 30
0.0
 11
51.06489
 21
144.969256
 31
0.0
  0
LINE
  5
1B4
100
AcDbEntity
  8
0
  6
HIDDEN
 62
   174
100
AcDbLine
 10
107.983115
 20
116.959314
 30
0.0
 11
112.183087
 21
116.959314
 31
0.0
  0
LINE
  5
1B5
100
AcDbEntity
  8
0
  6
HIDDEN
 62
   174
100
AcDbLine
 10
43.36489
 20
129.88338
 30
0.0
 11
49.56489
 21
129.88338
 31
0.0
  0
LWPOLYLINE
  5
1B6
100
AcDbEntity
  8
0
  6
Continuous
 62
   174
100
AcDbPolyline
 90
        4
 70
   128
 10
256.56489
 20
175.743196
 10
256.55233
 20
174.846461
 10
256.531925
 20
173.908307
 10
256.52293
 20
172.959314
  0
LWPOLYLINE
  5
1B7
100
AcDbEntity
  8
0
  6
Continuous
 62
   174
100
AcDbPolyline
 90
        4
 70
   128
 10
51.60685
 20
172.959314
 10
51.597855
 20
173.908297
 10
51.57745
 20
174.846464
 10
51.56489
 20
175.743196
  0
LINE
  5
1B8
100
AcDbEntity
  8
0
  6
HIDDEN
 62
   174
100
AcDbLine
 10
256.56489
 20
177.959314
 30
0.0
 11
256.56489
 21
175.743196
 31
0.0
  0
LINE
  5
1B9
100
AcDbEntity
  8
0
  6
HIDDEN
 62
   174
100
AcDbLine
 10
94.803261
 20
164.909314
 30
0.0
 11
92.582933
 21
164.909314
 31
0.0
  0
LINE
  5
1BA
100
AcDbEntity
  8
0
  6
HIDDEN
 62
   174
100
AcDbLine
 10
180.562912
 20
150.959314
 30
0.0
 11
159.602987
 21
150.959314
 31
0.0
  0
LINE
  5
1BB
100
AcDbEntity
  8
0
  6
Continuous
 62
   174
100
AcDbLine
 10
80.56489
 20
177.959314
 30
0.0
 11
80.56489
 21
151.959314
 31
0.0
  0
LINE
  5
1BC
100
AcDbEntity
  8
0
  6
Continuous
 62
   174
100
AcDbLine
 10
268.56489
 20
179.574258
 30
0.0
 11
268.56489
 21
180.967381
 31
0.0
  0
LINE
  5
1BD
100
AcDbEntity
  8
0
  6
HIDDEN
 62
   174
100
AcDbLine
 10
253.56489
 20
177.959314
 30
0.0
 11
253.56489
 21
151.959314
 31
0.0
  0
LINE
  5
1BE
100
AcDbEntity
  8
0
  6
HIDDEN
 62
   174
100
AcDbLine
 10
91.58302
 20
164.909314
 30
0.0
 11
89.362692
 21
164.909314
 31
0.0
  0
LINE
  5
1BF
100
AcDbEntity
  8
0
  6
HIDDEN
 62
   174
100
AcDbLine
 10
160.66489
 20
164.959314
 30
0.0
 11
160.66489
 21
149.959314
 31
0.0
  0
LINE
  5
1C0
100
AcDbEntity
  8
0
  6
Continuous
 62
   174
100
AcDbLine
 10
54.56489
 20
177.967431
 30
0.0
 11
54.56489
 21
180.967381
 31
0.0
  0
LINE
  5
1C1
100
AcDbEntity
  8
0
  6
Continuous
 62
   174
100
AcDbLine
 10
39.56489
 20
164.959314
 30
0.0
 11
51.56489
 21
164.959314
 31
0.0
  0
LINE
  5
1C2
100
AcDbEntity
  8
0
  6
HIDDEN
 62
   174
100
AcDbLine
 10
112.16489
 20
104.959314
 30
0.0
 11
112.16489
 21
116.959314
 31
0.0
  0
LINE
  5
1C3
100
AcDbEntity
  8
0
  6
Continuous
 62
   174
100
AcDbLine
 10
32.75771
 20
163.959764
 30
0.0
 11
32.730237
 21
164.0086
 31
0.0
  0
LINE
  5
1C4
100
AcDbEntity
  8
0
  6
HIDDEN
 62
   174
100
AcDbLine
 10
215.579393
 20
164.959314
 30
0.0
 11
213.484824
 21
164.959314
 31
0.0
  0
LINE
  5
1C5
100
AcDbEntity
  8
0
  6
HIDDEN
 62
   174
100
AcDbLine
 10
97.06489
 20
140.959314
 30
0.0
 11
97.01489
 21
140.959314
 31
0.0
  0
LINE
  5
1C6
100
AcDbEntity
  8
0
  6
Continuous
 62
   174
100
AcDbLine
 10
35.86489
 20
168.390406
 30
0.0
 11
35.86489
 21
163.968656
 31
0.0
  0
LINE
  5
1C7
100
AcDbEntity
  8
0
  6
HIDDEN
 62
   174
100
AcDbLine
 10
35.86489
 20
168.537424
 30
0.0
 11
35.86489
 21
163.959764
 31
0.0
  0
LINE
  5
1C8
100
AcDbEntity
  8
0
  6
HIDDEN
 62
   174
100
AcDbLine
 10
264.76489
 20
126.344595
 30
0.0
 11
258.56489
 21
126.344595
 31
0.0
  0
LINE
  5
1C9
100
AcDbEntity
  8
0
  6
HIDDEN
 62
   174
100
AcDbLine
 10
238.66489
 20
180.959314
 30
0.0
 11
239.064947
 21
180.959314
 31
0.0
  0
LINE
  5
1CA
100
AcDbEntity
  8
0
  6
HIDDEN
 62
   174
100
AcDbLine
 10
239.826687
 20
180.909314
 30
0.0
 11
239.082966
 21
180.909314
 31
0.0
  0
LINE
  5
1CB
100
AcDbEntity
  8
0
  6
HIDDEN
 62
   174
100
AcDbLine
 10
36.56489
 20
172.967656
 30
0.0
 11
36.56489
 21
166.468118
 31
0.0
  0
LINE
  5
1CC
100
AcDbEntity
  8
0
  6
Continuous
 62
   174
100
AcDbLine
 10
51.56489
 20
170.175432
 30
0.0
 11
51.56489
 21
151.959314
 31
0.0
  0
LINE
  5
1CD
100
AcDbEntity
  8
0
  6
Continuous
 62
   174
100
AcDbLine
 10
258.56489
 20
124.959314
 30
0.0
 11
257.06489
 21
124.959314
 31
0.0
  0
LINE
  5
1CE
100
AcDbEntity
  8
0
  6
HIDDEN
 62
   174
100
AcDbLine
 10
148.54489
 20
150.959314
 30
0.0
 11
148.54489
 21
164.959314
 31
0.0
  0
LINE
  5
1CF
100
AcDbEntity
  8
0
  6
HIDDEN
 62
   174
100
AcDbLine
 10
131.483077
 20
104.959314
 30
0.0
 11
112.682937
 21
104.959314
 31
0.0
  0
LINE
  5
1D0
100
AcDbEntity
  8
0
  6
HIDDEN
 62
   174
100
AcDbLine
 10
195.583055
 20
114.959314
 30
0.0
 11
200.583042
 21
114.959314
 31
0.0
  0
LINE
  5
1D1
100
AcDbEntity
  8
0
  6
HIDDEN
 62
   174
100
AcDbLine
 10
258.56489
 20
129.880384
 30
0.0
 11
258.56489
 21
126.344595
 31
0.0
  0
LINE
  5
1D2
100
AcDbEntity
  8
0
  6
HIDDEN
 62
   174
100
AcDbLine
 10
215.583004
 20
164.909314
 30
0.0
 11
213.362676
 21
164.909314
 31
0.0
  0
LINE
  5
1D3
100
AcDbEntity
  8
0
  6
Continuous
 62
   174
100
AcDbLine
 10
256.56489
 20
151.959314
 30
0.0
 11
256.56489
 21
170.175432
 31
0.0
  0
LINE
  5
1D4
100
AcDbEntity
  8
0
  6
HIDDEN
 62
   174
100
AcDbLine
 10
94.681113
 20
164.959314
 30
0.0
 11
92.586757
 21
164.959314
 31
0.0
  0
ARC
  5
1D5
100
AcDbEntity
  8
0
  6
Continuous
 62
   174
100
AcDbCircle
 10
170.06489
 20
114.959314
 30
0.0
 40
3.3
100
AcDbArc
 50
180.0
 51
360.0
  0
LINE
  5
1D6
100
AcDbEntity
  8
0
  6
Continuous
 62
   174
100
AcDbLine
 10
80.583133
 20
177.959314
 30
0.0
 11
77.582971
 21
177.959314
 31
0.0
  0
LINE
  5
1D7
100
AcDbEntity
  8
0
  6
Continuous
 62
   174
100
AcDbLine
 10
264.76489
 20
129.894306
 30
0.0
 11
264.76489
 21
132.47343
 31
0.0
  0
LINE
  5
1D8
100
AcDbEntity
  8
0
  6
HIDDEN
 62
   174
100
AcDbLine
 10
256.56489
 20
170.175432
 30
0.0
 11
256.56489
 21
164.959314
 31
0.0
  0
LINE
  5
1D9
100
AcDbEntity
  8
0
  6
HIDDEN
 62
   174
100
AcDbLine
 10
244.042073
 20
180.959314
 30
0.0
 11
244.451737
 21
180.959314
 31
0.0
  0
ARC
  5
1DA
100
AcDbEntity
  8
0
  6
Continuous
 62
   174
100
AcDbCircle
 10
253.56489
 20
177.959314
 30
0.0
 40
3.0
100
AcDbArc
 50
0.0
 51
90.0
  0
LINE
  5
1DB
100
AcDbEntity
  8
0
  6
HIDDEN
 62
   174
100
AcDbLine
 10
230.582967
 20
151.959314
 30
0.0
 11
227.583017
 21
151.959314
 31
0.0
  0
LINE
  5
1DC
100
AcDbEntity
  8
0
  6
HIDDEN
 62
   174
100
AcDbLine
 10
128.66489
 20
164.959314
 30
0.0
 11
128.66489
 21
149.959314
 31
0.0
  0
ARC
  5
1DD
100
AcDbEntity
  8
0
  6
Continuous
 62
   174
100
AcDbCircle
 10
77.56489
 20
177.959314
 30
0.0
 40
3.0
100
AcDbArc
 50
-324.0
 51
-306.0
  0
LINE
  5
1DE
100
AcDbEntity
  8
0
  6
HIDDEN
 62
   174
100
AcDbLine
 10
211.06489
 20
140.959314
 30
0.0
 11
211.11489
 21
140.959314
 31
0.0
  0
LINE
  5
1DF
100
AcDbEntity
  8
0
  6
HIDDEN
 62
   174
100
AcDbLine
 10
107.96489
 20
104.959314
 30
0.0
 11
107.96489
 21
116.959314
 31
0.0
  0
LINE
  5
1E0
100
AcDbEntity
  8
0
  6
Continuous
 62
   174
100
AcDbLine
 10
43.36489
 20
144.651459
 30
0.0
 11
43.36489
 21
143.583356
 31
0.0
  0
LINE
  5
1E1
100
AcDbEntity
  8
0
  6
HIDDEN
 62
   174
100
AcDbLine
 10
43.36489
 20
126.346362
 30
0.0
 11
49.56489
 21
126.346362
 31
0.0
  0
LWPOLYLINE
  5
1E2
100
AcDbEntity
  8
0
  6
HIDDEN
 62
   174
100
AcDbPolyline
 90
        6
 70
   128
 10
54.56489
 20
180.959314
 10
53.659574
 20
180.819455
 10
52.851269
 20
180.421732
 10
52.189421
 20
179.791566
 10
51.737595
 20
178.962512
 10
51.56489
 20
177.959314
  0
LINE
  5
1E3
100
AcDbEntity
  8
0
  6
Continuous
 62
   174
100
AcDbLine
 10
43.36489
 20
137.459314
 30
0.0
 11
43.36489
 21
132.459314
 31
0.0
  0
LINE
  5
1E4
100
AcDbEntity
  8
0
  6
HIDDEN
 62
   174
100
AcDbLine
 10
77.56489
 20
177.959314
 30
0.0
 11
54.56489
 21
177.959314
 31
0.0
  0
LINE
  5
1E5
100
AcDbEntity
  8
0
  6
HIDDEN
 62
   174
100
AcDbLine
 10
80.56489
 20
177.959314
 30
0.0
 11
80.56489
 21
151.959314
 31
0.0
  0
LINE
  5
1E6
100
AcDbEntity
  8
0
  6
HIDDEN
 62
   174
100
AcDbLine
 10
211.06489
 20
128.959314
 30
0.0
 11
211.11489
 21
128.959314
 31
0.0
  0
LWPOLYLINE
  5
1E7
100
AcDbEntity
  8
0
  6
HIDDEN
 62
   174
100
AcDbPolyline
 90
        4
 70
   128
 10
275.37207
 20
168.381654
 10
275.69997
 20
169.634469
 10
275.932724
 20
170.85729
 10
276.06489
 20
172.067703
  0
LINE
  5
1E8
100
AcDbEntity
  8
0
  6
HIDDEN
 62
   174
100
AcDbLine
 10
264.76489
 20
129.880384
 30
0.0
 11
258.56489
 21
129.880384
 31
0.0
  0
ARC
  5
1E9
100
AcDbEntity
  8
0
  6
HIDDEN
 62
   174
100
AcDbCircle
 10
253.56489
 20
177.959314
 30
0.0
 40
3.0
100
AcDbArc
 50
0.0
 51
18.0
  0
LINE
  5
1EA
100
AcDbEntity
  8
0
  6
HIDDEN
 62
   174
100
AcDbLine
 10
213.06489
 20
164.909314
 30
0.0
 11
213.06489
 21
164.959314
 31
0.0
  0
LINE
  5
1EB
100
AcDbEntity
  8
0
  6
Continuous
 62
   174
100
AcDbLine
 10
258.56489
 20
129.894306
 30
0.0
 11
258.56489
 21
126.35733
 31
0.0
  0
LINE
  5
1EC
100
AcDbEntity
  8
0
  6
HIDDEN
 62
   174
100
AcDbLine
 10
54.583071
 20
177.959314
 30
0.0
 11
51.583122
 21
177.959314
 31
0.0
  0
LINE
  5
1ED
100
AcDbEntity
  8
0
  6
Continuous
 62
   174
100
AcDbLine
 10
258.56489
 20
144.969256
 30
0.0
 11
258.56489
 21
144.652309
 31
0.0
  0
LINE
  5
1EE
100
AcDbEntity
  8
0
  6
HIDDEN
 62
   174
100
AcDbLine
 10
80.583133
 20
151.959314
 30
0.0
 11
77.582971
 21
151.959314
 31
0.0
  0
LINE
  5
1EF
100
AcDbEntity
  8
0
  6
HIDDEN
 62
   174
100
AcDbLine
 10
127.58489
 20
150.959314
 30
0.0
 11
127.58489
 21
164.959314
 31
0.0
  0
LINE
  5
1F0
100
AcDbEntity
  8
0
  6
HIDDEN
 62
   174
100
AcDbLine
 10
180.562912
 20
164.959314
 30
0.0
 11
159.602987
 21
164.959314
 31
0.0
  0
ARC
  5
1F1
100
AcDbEntity
  8
0
  6
Continuous
 62
   174
100
AcDbCircle
 10
230.56489
 20
177.959314
 30
0.0
 40
3.0
100
AcDbArc
 50
90.0
 51
180.0
  0
LINE
  5
1F2
100
AcDbEntity
  8
0
  6
Continuous
 62
   174
100
AcDbLine
 10
81.06489
 20
104.959314
 30
0.0
 11
81.06489
 21
164.959314
 31
0.0
  0
LINE
  5
1F3
100
AcDbEntity
  8
0
  6
HIDDEN
 62
   174
100
AcDbLine
 10
112.16489
 20
116.959314
 30
0.0
 11
110.06489
 21
118.17175
 31
0.0
  0
LINE
  5
1F4
100
AcDbEntity
  8
0
  6
HIDDEN
 62
   174
100
AcDbLine
 10
107.56489
 20
114.959314
 30
0.0
 11
107.56489
 21
104.959314
 31
0.0
  0
LINE
  5
1F5
100
AcDbEntity
  8
0
  6
Continuous
 62
   174
100
AcDbLine
 10
272.26489
 20
181.958865
 30
0.0
 11
275.37207
 21
181.958865
 31
0.0
  0
LINE
  5
1F6
100
AcDbEntity
  8
0
  6
Continuous
 62
   174
100
AcDbLine
 10
264.76489
 20
143.574959
 30
0.0
 11
258.56489
 21
143.574959
 31
0.0
  0
LWPOLYLINE
  5
1F7
100
AcDbEntity
  8
0
  6
HIDDEN
 62
   174
100
AcDbPolyline
 90
        4
 70
   128
 10
256.52293
 20
172.959314
 10
256.531924
 20
173.908297
 10
256.55233
 20
174.846464
 10
256.56489
 20
175.743196
  0
LINE
  5
1F8
100
AcDbEntity
  8
0
  6
HIDDEN
 62
   174
100
AcDbLine
 10
89.083133
 20
164.909314
 30
0.0
 11
95.083033
 21
164.909314
 31
0.0
  0
LINE
  5
1F9
100
AcDbEntity
  8
0
  6
Continuous
 62
   174
100
AcDbLine
 10
256.583028
 20
177.959314
 30
0.0
 11
253.582866
 21
177.959314
 31
0.0
  0
LINE
  5
1FA
100
AcDbEntity
  8
0
  6
HIDDEN
 62
   174
100
AcDbLine
 10
218.803245
 20
164.959314
 30
0.0
 11
216.582917
 21
164.959314
 31
0.0
  0
LINE
  5
1FB
100
AcDbEntity
  8
0
  6
HIDDEN
 62
   174
100
AcDbLine
 10
63.339475
 20
180.909314
 30
0.0
 11
62.726187
 21
180.909314
 31
0.0
  0
LINE
  5
1FC
100
AcDbEntity
  8
0
  6
HIDDEN
 62
   174
100
AcDbLine
 10
97.06489
 20
128.959314
 30
0.0
 11
97.01489
 21
128.959314
 31
0.0
  0
LINE
  5
1FD
100
AcDbEntity
  8
0
  6
HIDDEN
 62
   174
100
AcDbLine
 10
112.56489
 20
114.959314
 30
0.0
 11
112.56489
 21
104.959314
 31
0.0
  0
LINE
  5
1FE
100
AcDbEntity
  8
0
  6
HIDDEN
 62
   174
100
AcDbLine
 10
200.56489
 20
114.959314
 30
0.0
 11
200.56489
 21
104.959314
 31
0.0
  0
LINE
  5
1FF
100
AcDbEntity
  8
0
  6
HIDDEN
 62
   174
100
AcDbLine
 10
35.86489
 20
177.381205
 30
0.0
 11
32.75771
 21
177.381205
 31
0.0
  0
LINE
  5
200
100
AcDbEntity
  8
0
  6
Continuous
 62
   174
100
AcDbLine
 10
43.36489
 20
125.276533
 30
0.0
 11
49.56489
 21
125.276533
 31
0.0
  0
LINE
  5
201
100
AcDbEntity
  8
0
  6
HIDDEN
 62
   174
100
AcDbLine
 10
264.76489
 20
137.459314
 30
0.0
 11
258.56489
 21
137.459314
 31
0.0
  0
LINE
  5
202
100
AcDbEntity
  8
0
  6
HIDDEN
 62
   174
100
AcDbLine
 10
218.825975
 20
164.959314
 30
0.0
 11
218.681098
 21
164.959314
 31
0.0
  0
LINE
  5
203
100
AcDbEntity
  8
0
  6
Continuous
 62
   174
100
AcDbLine
 10
51.06489
 20
123.959314
 30
0.0
 11
81.06489
 21
123.959314
 31
0.0
  0
LINE
  5
204
100
AcDbEntity
  8
0
  6
HIDDEN
 62
   174
100
AcDbLine
 10
200.16489
 20
116.959314
 30
0.0
 11
198.06489
 21
118.17175
 31
0.0
  0
LINE
  5
205
100
AcDbEntity
  8
0
  6
HIDDEN
 62
   174
100
AcDbLine
 10
195.983063
 20
116.959314
 30
0.0
 11
200.183035
 21
116.959314
 31
0.0
  0
LINE
  5
206
100
AcDbEntity
  8
0
  6
Continuous
 62
   174
100
AcDbLine
 10
39.56489
 20
172.967656
 30
0.0
 11
39.56489
 21
166.361265
 31
0.0
  0
LWPOLYLINE
  5
207
100
AcDbEntity
  8
0
  6
Continuous
 62
   174
100
AcDbPolyline
 90
        6
 70
   128
 10
32.21423
 20
165.237484
 10
32.163486
 20
165.448501
 10
32.086582
 20
166.170749
 10
32.163501
 20
166.892988
 10
32.391601
 20
167.630007
 10
32.75771
 20
168.381654
  0
LINE
  5
208
100
AcDbEntity
  8
0
  6
HIDDEN
 62
   174
100
AcDbLine
 10
35.86489
 20
168.537424
 30
0.0
 11
35.86489
 21
177.381205
 31
0.0
  0
LINE
  5
209
100
AcDbEntity
  8
0
  6
HIDDEN
 62
   174
100
AcDbLine
 10
148.54489
 20
150.959314
 30
0.0
 11
148.54489
 21
164.959314
 31
0.0
  0
LINE
  5
20A
100
AcDbEntity
  8
0
  6
HIDDEN
 62
   174
100
AcDbLine
 10
77.56489
 20
151.959314
 30
0.0
 11
77.56489
 21
177.959314
 31
0.0
  0
LINE
  5
20B
100
AcDbEntity
  8
0
  6
HIDDEN
 62
   174
100
AcDbLine
 10
242.082916
 20
180.909314
 30
0.0
 11
245.482874
 21
180.909314
 31
0.0
  0
ARC
  5
20C
100
AcDbEntity
  8
0
  6
Continuous
 62
   174
100
AcDbCircle
 10
230.56489
 20
177.959314
 30
0.0
 40
3.0
100
AcDbArc
 50
-270.0
 51
-180.0
  0
LINE
  5
20D
100
AcDbEntity
  8
0
  6
HIDDEN
 62
   174
100
AcDbLine
 10
211.06489
 20
128.959314
 30
0.0
 11
211.11489
 21
128.959314
 31
0.0
  0
LINE
  5
20E
100
AcDbEntity
  8
0
  6
Continuous
 62
   174
100
AcDbLine
 10
97.06489
 20
164.959314
 30
0.0
 11
97.06489
 21
104.959314
 31
0.0
  0
LINE
  5
20F
100
AcDbEntity
  8
0
  6
HIDDEN
 62
   174
100
AcDbLine
 10
112.16489
 20
114.959314
 30
0.0
 11
112.16489
 21
104.959314
 31
0.0
  0
LINE
  5
210
100
AcDbEntity
  8
0
  6
Continuous
 62
   174
100
AcDbLine
 10
272.26489
 20
177.389406
 30
0.0
 11
272.26489
 21
181.967293
 31
0.0
  0
LINE
  5
211
100
AcDbEntity
  8
0
  6
HIDDEN
 62
   174
100
AcDbLine
 10
112.183087
 20
104.959314
 30
0.0
 11
107.983115
 21
104.959314
 31
0.0
  0
LINE
  5
212
100
AcDbEntity
  8
0
  6
Continuous
 62
   174
100
AcDbLine
 10
43.36489
 20
126.355631
 30
0.0
 11
43.36489
 21
125.28774
 31
0.0
  0
LINE
  5
213
100
AcDbEntity
  8
0
  6
Continuous
 62
   174
100
AcDbLine
 10
43.36489
 20
137.459314
 30
0.0
 11
49.56489
 21
137.459314
 31
0.0
  0
LINE
  5
214
100
AcDbEntity
  8
0
  6
HIDDEN
 62
   174
100
AcDbLine
 10
264.76489
 20
143.573193
 30
0.0
 11
258.56489
 21
143.573193
 31
0.0
  0
LINE
  5
215
100
AcDbEntity
  8
0
  6
Continuous
 62
   174
100
AcDbLine
 10
43.36489
 20
144.64145
 30
0.0
 11
49.56489
 21
144.64145
 31
0.0
  0
LINE
  5
216
100
AcDbEntity
  8
0
  6
Continuous
 62
   174
100
AcDbLine
 10
49.56489
 20
132.470031
 30
0.0
 11
49.56489
 21
136.46607
 31
0.0
  0
LINE
  5
217
100
AcDbEntity
  8
0
  6
Continuous
 62
   174
100
AcDbLine
 10
49.56489
 20
140.048293
 30
0.0
 11
49.56489
 21
143.583356
 31
0.0
  0
LINE
  5
218
100
AcDbEntity
  8
0
  6
HIDDEN
 62
   174
100
AcDbLine
 10
127.58489
 20
150.959314
 30
0.0
 11
127.58489
 21
164.959314
 31
0.0
  0
LINE
  5
219
100
AcDbEntity
  8
0
  6
HIDDEN
 62
   174
100
AcDbLine
 10
147.46489
 20
164.959314
 30
0.0
 11
147.46489
 21
149.959314
 31
0.0
  0
LINE
  5
21A
100
AcDbEntity
  8
0
  6
HIDDEN
 62
   174
100
AcDbLine
 10
179.46489
 20
164.959314
 30
0.0
 11
179.46489
 21
149.959314
 31
0.0
  0
LINE
  5
21B
100
AcDbEntity
  8
0
  6
HIDDEN
 62
   174
100
AcDbLine
 10
107.96489
 20
114.959314
 30
0.0
 11
107.96489
 21
104.959314
 31
0.0
  0
LINE
  5
21C
100
AcDbEntity
  8
0
  6
Continuous
 62
   174
100
AcDbLine
 10
54.583071
 20
177.959314
 30
0.0
 11
51.583122
 21
177.959314
 31
0.0
  0
LINE
  5
21D
100
AcDbEntity
  8
0
  6
HIDDEN
 62
   174
100
AcDbLine
 10
89.485052
 20
164.959314
 30
0.0
 11
89.339962
 21
164.959314
 31
0.0
  0
LINE
  5
21E
100
AcDbEntity
  8
0
  6
Continuous
 62
   174
100
AcDbLine
 10
97.06489
 20
104.959314
 30
0.0
 11
81.06489
 21
104.959314
 31
0.0
  0
LINE
  5
21F
100
AcDbEntity
  8
0
  6
HIDDEN
 62
   174
100
AcDbLine
 10
112.56489
 20
114.959314
 30
0.0
 11
112.56489
 21
104.959314
 31
0.0
  0
LINE
  5
220
100
AcDbEntity
  8
0
  6
Continuous
 62
   174
100
AcDbLine
 10
264.76489
 20
125.28859
 30
0.0
 11
264.76489
 21
126.35733
 31
0.0
  0
LWPOLYLINE
  5
221
100
AcDbEntity
  8
0
  6
Continuous
 62
   174
100
AcDbPolyline
 90
        7
 70
   128
 10
275.37207
 20
177.381205
 10
275.738172
 20
175.877934
 10
275.966272
 20
174.403944
 10
276.043203
 20
172.959552
 10
275.966316
 20
171.515105
 10
275.738223
 20
170.040954
 10
275.37207
 20
168.537424
  0
LINE
  5
222
100
AcDbEntity
  8
0
  6
HIDDEN
 62
   174
100
AcDbLine
 10
256.583028
 20
177.959314
 30
0.0
 11
253.582866
 21
177.959314
 31
0.0
  0
LINE
  5
223
100
AcDbEntity
  8
0
  6
Continuous
 62
   174
100
AcDbLine
 10
253.56489
 20
180.959314
 30
0.0
 11
230.56489
 21
180.959314
 31
0.0
  0
LINE
  5
224
100
AcDbEntity
  8
0
  6
HIDDEN
 62
   174
100
AcDbLine
 10
54.56489
 20
151.959314
 30
0.0
 11
54.56489
 21
177.959314
 31
0.0
  0
LWPOLYLINE
  5
225
100
AcDbEntity
  8
0
  6
HIDDEN
 62
   174
100
AcDbPolyline
 90
        4
 70
   128
 10
32.75771
 20
168.537424
 10
32.42981
 20
167.911016
 10
32.197055
 20
167.299603
 10
32.06489
 20
166.694399
  0
LINE
  5
226
100
AcDbEntity
  8
0
  6
HIDDEN
 62
   174
100
AcDbLine
 10
35.86489
 20
181.958865
 30
0.0
 11
35.86489
 21
177.381205
 31
0.0
  0
LINE
  5
227
100
AcDbEntity
  8
0
  6
HIDDEN
 62
   174
100
AcDbLine
 10
180.54489
 20
150.959314
 30
0.0
 11
180.54489
 21
164.959314
 31
0.0
  0
LINE
  5
228
100
AcDbEntity
  8
0
  6
HIDDEN
 62
   174
100
AcDbLine
 10
159.58489
 20
150.959314
 30
0.0
 11
159.58489
 21
164.959314
 31
0.0
  0
LINE
  5
229
100
AcDbEntity
  8
0
  6
HIDDEN
 62
   174
100
AcDbLine
 10
180.54489
 20
150.959314
 30
0.0
 11
180.54489
 21
164.959314
 31
0.0
  0
LINE
  5
22A
100
AcDbEntity
  8
0
  6
HIDDEN
 62
   174
100
AcDbLine
 10
160.682986
 20
164.959314
 30
0.0
 11
179.482913
 21
164.959314
 31
0.0
  0
LINE
  5
22B
100
AcDbEntity
  8
0
  6
Continuous
 62
   174
100
AcDbLine
 10
230.582967
 20
177.959314
 30
0.0
 11
227.583017
 21
177.959314
 31
0.0
  0
LINE
  5
22C
100
AcDbEntity
  8
0
  6
HIDDEN
 62
   174
100
AcDbLine
 10
211.06489
 20
140.959314
 30
0.0
 11
211.11489
 21
140.959314
 31
0.0
  0
LINE
  5
22D
100
AcDbEntity
  8
0
  6
Continuous
 62
   174
100
AcDbLine
 10
275.400877
 20
164.009214
 30
0.0
 11
275.37207
 21
163.959764
 31
0.0
  0
LINE
  5
22E
100
AcDbEntity
  8
0
  6
Continuous
 62
   174
100
AcDbLine
 10
276.06489
 20
180.123817
 30
0.0
 11
276.06489
 21
180.767271
 31
0.0
  0
LINE
  5
22F
100
AcDbEntity
  8
0
  6
HIDDEN
 62
   174
100
AcDbLine
 10
43.36489
 20
143.574959
 30
0.0
 11
49.56489
 21
143.574959
 31
0.0
  0
LINE
  5
230
100
AcDbEntity
  8
0
  6
Continuous
 62
   174
100
AcDbLine
 10
258.56489
 20
125.28859
 30
0.0
 11
258.56489
 21
124.970369
 31
0.0
  0
LINE
  5
231
100
AcDbEntity
  8
0
  6
HIDDEN
 62
   174
100
AcDbLine
 10
148.56295
 20
150.959314
 30
0.0
 11
127.603025
 21
150.959314
 31
0.0
  0
ARC
  5
232
100
AcDbEntity
  8
0
  6
HIDDEN
 62
   174
100
AcDbCircle
 10
77.56489
 20
177.959314
 30
0.0
 40
3.0
100
AcDbArc
 50
-288.0
 51
-270.0
  0
LINE
  5
233
100
AcDbEntity
  8
0
  6
HIDDEN
 62
   174
100
AcDbLine
 10
54.56489
 20
177.967431
 30
0.0
 11
54.56489
 21
180.967381
 31
0.0
  0
LINE
  5
234
100
AcDbEntity
  8
0
  6
HIDDEN
 62
   174
100
AcDbLine
 10
36.56489
 20
179.467406
 30
0.0
 11
36.56489
 21
172.967656
 31
0.0
  0
LINE
  5
235
100
AcDbEntity
  8
0
  6
Continuous
 62
   174
100
AcDbLine
 10
36.56489
 20
172.967656
 30
0.0
 11
36.56489
 21
179.681961
 31
0.0
  0
LINE
  5
236
100
AcDbEntity
  8
0
  6
HIDDEN
 62
   174
100
AcDbLine
 10
95.083033
 20
164.959314
 30
0.0
 11
94.825991
 21
164.959314
 31
0.0
  0
LINE
  5
237
100
AcDbEntity
  8
0
  6
Continuous
 62
   174
100
AcDbLine
 10
264.76489
 20
144.642319
 30
0.0
 11
258.56489
 21
144.642319
 31
0.0
  0
ARC
  5
238
100
AcDbEntity
  8
0
  6
Continuous
 62
   174
100
AcDbCircle
 10
54.56489
 20
177.959314
 30
0.0
 40
3.0
100
AcDbArc
 50
-270.0
 51
-180.0
  0
LINE
  5
239
100
AcDbEntity
  8
0
  6
HIDDEN
 62
   174
100
AcDbLine
 10
240.247485
 20
180.959314
 30
0.0
 11
242.06489
 21
180.959314
 31
0.0
  0
LINE
  5
23A
100
AcDbEntity
  8
0
  6
HIDDEN
 62
   174
100
AcDbLine
 10
219.083017
 20
164.959314
 30
0.0
 11
218.825975
 21
164.959314
 31
0.0
  0
LINE
  5
23B
100
AcDbEntity
  8
0
  6
HIDDEN
 62
   174
100
AcDbLine
 10
163.483038
 20
104.959314
 30
0.0
 11
144.683111
 21
104.959314
 31
0.0
  0
LINE
  5
23C
100
AcDbEntity
  8
0
  6
HIDDEN
 62
   174
100
AcDbLine
 10
271.56489
 20
172.967656
 30
0.0
 11
271.56489
 21
179.467406
 31
0.0
  0
LINE
  5
23D
100
AcDbEntity
  8
0
  6
Continuous
 62
   174
100
AcDbLine
 10
268.56489
 20
172.967656
 30
0.0
 11
268.56489
 21
179.574258
 31
0.0
  0
LWPOLYLINE
  5
23E
100
AcDbEntity
  8
0
  6
HIDDEN
 62
   174
100
AcDbPolyline
 90
        4
 70
   128
 10
276.06489
 20
173.850926
 10
275.93177
 20
175.067641
 10
275.698684
 20
176.289805
 10
275.37207
 20
177.536974
  0
LWPOLYLINE
  5
23F
100
AcDbEntity
  8
0
  6
HIDDEN
 62
   174
100
AcDbPolyline
 90
        6
 70
   128
 10
256.56489
 20
177.959314
 10
256.392547
 20
178.961488
 10
255.940747
 20
179.791063
 10
255.277677
 20
180.422313
 10
254.469146
 20
180.81979
 10
253.56489
 20
180.959314
  0
LINE
  5
240
100
AcDbEntity
  8
0
  6
HIDDEN
 62
   174
100
AcDbLine
 10
95.06489
 20
164.909314
 30
0.0
 11
95.06489
 21
164.959314
 31
0.0
  0
LINE
  5
241
100
AcDbEntity
  8
0
  6
HIDDEN
 62
   174
100
AcDbLine
 10
77.56489
 20
151.959314
 30
0.0
 11
54.56489
 21
151.959314
 31
0.0
  0
ENDBLK
  5
242
100
AcDbEntity
  8
0
100
AcDbBlockEnd
  0
BLOCK
  5
245
100
AcDbEntity
  8
0
100
AcDbBlockBegin
  2
*B2
 70
     0
 10
0.0
 20
0.0
 30
0.0
  3
*B2
  1

  0
ARC
  5
246
100
AcDbEntity
  8
0
  6
Continuous
 62
   174
100
AcDbCircle
 10
65.708065
 20
44.794233
 30
0.0
 40
3.4
100
AcDbArc
 50
-270.0
 51
-90.0
  0
ARC
  5
247
100
AcDbEntity
  8
0
  6
Continuous
 62
   174
100
AcDbCircle
 10
65.708065
 20
44.794233
 30
0.0
 40
3.4
100
AcDbArc
 50
-90.0
 51
90.0
  0
ARC
  5
248
100
AcDbEntity
  8
0
  6
Continuous
 62
   174
100
AcDbCircle
 10
242.06489
 20
44.686947
 30
0.0
 40
3.4
100
AcDbArc
 50
-90.0
 51
90.0
  0
ARC
  5
249
100
AcDbEntity
  8
0
  6
Continuous
 62
   174
100
AcDbCircle
 10
242.06489
 20
44.686947
 30
0.0
 40
3.4
100
AcDbArc
 50
-270.0
 51
-90.0
  0
ARC
  5
24A
100
AcDbEntity
  8
0
  6
Continuous
 62
   174
100
AcDbCircle
 10
65.708065
 20
44.794233
 30
0.0
 40
3.0
100
AcDbArc
 50
-217.286546
 51
-52.713454
  0
ARC
  5
24B
100
AcDbEntity
  8
0
  6
Continuous
 62
   174
100
AcDbCircle
 10
242.06489
 20
44.686947
 30
0.0
 40
3.0
100
AcDbArc
 50
-37.286546
 51
127.286546
  0
LINE
  5
24C
100
AcDbEntity
  8
0
  6
Continuous
 62
   174
100
AcDbLine
 10
63.321218
 20
46.611638
 30
0.0
 11
67.52547
 21
42.407386
 31
0.0
  0
LINE
  5
24D
100
AcDbEntity
  8
0
  6
Continuous
 62
   174
100
AcDbLine
 10
244.451737
 20
42.869542
 30
0.0
 11
240.247485
 21
47.073794
 31
0.0
  0
ARC
  5
24E
100
AcDbEntity
  8
0
  6
Continuous
 62
   174
100
AcDbCircle
 10
65.708065
 20
44.794233
 30
0.0
 40
3.0
100
AcDbArc
 50
-41.228296
 51
131.228296
  0
ARC
  5
24F
100
AcDbEntity
  8
0
  6
Continuous
 62
   174
100
AcDbCircle
 10
242.06489
 20
44.686947
 30
0.0
 40
3.0
100
AcDbArc
 50
-221.228296
 51
-48.771704
  0
LINE
  5
250
100
AcDbEntity
  8
0
  6
Continuous
 62
   174
100
AcDbLine
 10
67.964334
 20
42.81705
 30
0.0
 11
63.730882
 21
47.050501
 31
0.0
  0
LINE
  5
251
100
AcDbEntity
  8
0
  6
Continuous
 62
   174
100
AcDbLine
 10
239.808621
 20
46.66413
 30
0.0
 11
244.042073
 21
42.430679
 31
0.0
  0
LINE
  5
252
100
AcDbEntity
  8
0
  6
Continuous
 62
   174
100
AcDbLine
 10
39.56489
 20
51.186947
 30
0.0
 11
36.56489
 21
51.186947
 31
0.0
  0
LINE
  5
253
100
AcDbEntity
  8
0
  6
Continuous
 62
   174
100
AcDbLine
 10
39.56489
 20
38.186947
 30
0.0
 11
36.56489
 21
38.186947
 31
0.0
  0
LINE
  5
254
100
AcDbEntity
  8
0
  6
Continuous
 62
   174
100
AcDbLine
 10
36.56489
 20
35.686947
 30
0.0
 11
35.86489
 21
35.686947
 31
0.0
  0
LINE
  5
255
100
AcDbEntity
  8
0
  6
HIDDEN
 62
   174
100
AcDbLine
 10
211.11489
 20
44.702695
 30
0.0
 11
211.11489
 21
38.703008
 31
0.0
  0
LINE
  5
256
100
AcDbEntity
  8
0
  6
HIDDEN
 62
   174
100
AcDbLine
 10
97.01489
 20
44.702695
 30
0.0
 11
97.01489
 21
38.703008
 31
0.0
  0
LINE
  5
257
100
AcDbEntity
  8
0
  6
HIDDEN
 62
   174
100
AcDbLine
 10
97.06489
 20
38.686947
 30
0.0
 11
97.01489
 21
38.686947
 31
0.0
  0
LINE
  5
258
100
AcDbEntity
  8
0
  6
Continuous
 62
   174
100
AcDbLine
 10
81.06489
 20
59.686947
 30
0.0
 11
97.06489
 21
59.686947
 31
0.0
  0
LINE
  5
259
100
AcDbEntity
  8
0
  6
Continuous
 62
   174
100
AcDbLine
 10
97.06489
 20
59.686947
 30
0.0
 11
97.06489
 21
29.686947
 31
0.0
  0
LINE
  5
25A
100
AcDbEntity
  8
0
  6
Continuous
 62
   174
100
AcDbLine
 10
39.56489
 20
52.702208
 30
0.0
 11
39.56489
 21
51.308661
 31
0.0
  0
LINE
  5
25B
100
AcDbEntity
  8
0
  6
HIDDEN
 62
   174
100
AcDbLine
 10
43.36489
 20
49.778733
 30
0.0
 11
43.36489
 21
47.200459
 31
0.0
  0
LINE
  5
25C
100
AcDbEntity
  8
0
  6
Continuous
 62
   174
100
AcDbLine
 10
268.56489
 20
51.186947
 30
0.0
 11
271.56489
 21
51.186947
 31
0.0
  0
LINE
  5
25D
100
AcDbEntity
  8
0
  6
Continuous
 62
   174
100
AcDbLine
 10
32.06489
 20
52.486947
 30
0.0
 11
32.163486
 21
52.657721
 31
0.0
  0
LINE
  5
25E
100
AcDbEntity
  8
0
  6
Continuous
 62
   174
100
AcDbLine
 10
39.56489
 20
36.686947
 30
0.0
 11
51.60685
 21
36.686947
 31
0.0
  0
LINE
  5
25F
100
AcDbEntity
  8
0
  6
Continuous
 62
   174
100
AcDbLine
 10
268.56489
 20
52.686947
 30
0.0
 11
256.52293
 21
52.686947
 31
0.0
  0
LINE
  5
260
100
AcDbEntity
  8
0
  6
HIDDEN
 62
   174
100
AcDbLine
 10
211.11489
 20
44.702695
 30
0.0
 11
211.11489
 21
50.702383
 31
0.0
  0
LINE
  5
261
100
AcDbEntity
  8
0
  6
HIDDEN
 62
   174
100
AcDbLine
 10
97.01489
 20
44.702695
 30
0.0
 11
97.01489
 21
50.702383
 31
0.0
  0
LINE
  5
262
100
AcDbEntity
  8
0
  6
Continuous
 62
   174
100
AcDbLine
 10
227.06489
 20
59.686947
 30
0.0
 11
211.06489
 21
59.686947
 31
0.0
  0
LINE
  5
263
100
AcDbEntity
  8
0
  6
HIDDEN
 62
   174
100
AcDbLine
 10
211.06489
 20
44.702695
 30
0.0
 11
211.06489
 21
50.702383
 31
0.0
  0
LINE
  5
264
100
AcDbEntity
  8
0
  6
Continuous
 62
   174
100
AcDbLine
 10
271.56489
 20
37.988815
 30
0.0
 11
271.56489
 21
35.703058
 31
0.0
  0
ARC
  5
265
100
AcDbEntity
  8
0
  6
HIDDEN
 62
   174
100
AcDbCircle
 10
198.06489
 20
34.811947
 30
0.0
 40
2.5
100
AcDbArc
 50
0.0
 51
180.0
  0
LINE
  5
266
100
AcDbEntity
  8
0
  6
Continuous
 62
   174
100
AcDbLine
 10
268.56489
 20
38.186947
 30
0.0
 11
271.56489
 21
38.186947
 31
0.0
  0
LINE
  5
267
100
AcDbEntity
  8
0
  6
Continuous
 62
   174
100
AcDbLine
 10
268.56489
 20
51.186947
 30
0.0
 11
271.56489
 21
51.186947
 31
0.0
  0
LINE
  5
268
100
AcDbEntity
  8
0
  6
Continuous
 62
   174
100
AcDbLine
 10
276.06489
 20
36.886947
 30
0.0
 11
275.966294
 21
36.716174
 31
0.0
  0
LINE
  5
269
100
AcDbEntity
  8
0
  6
Continuous
 62
   174
100
AcDbLine
 10
268.56489
 20
36.686947
 30
0.0
 11
256.52293
 21
36.686947
 31
0.0
  0
LINE
  5
26A
100
AcDbEntity
  8
0
  6
Continuous
 62
   174
100
AcDbLine
 10
51.56489
 20
50.931945
 30
0.0
 11
51.56489
 21
52.186947
 31
0.0
  0
LINE
  5
26B
100
AcDbEntity
  8
0
  6
Continuous
 62
   174
100
AcDbLine
 10
80.56489
 20
52.186947
 30
0.0
 11
80.56489
 21
37.186947
 31
0.0
  0
LINE
  5
26C
100
AcDbEntity
  8
0
  6
Continuous
 62
   174
100
AcDbLine
 10
81.06489
 20
29.686947
 30
0.0
 11
97.06489
 21
29.686947
 31
0.0
  0
LINE
  5
26D
100
AcDbEntity
  8
0
  6
Continuous
 62
   174
100
AcDbLine
 10
253.56489
 20
34.186947
 30
0.0
 11
230.56489
 21
34.186947
 31
0.0
  0
LINE
  5
26E
100
AcDbEntity
  8
0
  6
HIDDEN
 62
   174
100
AcDbLine
 10
271.56489
 20
38.202945
 30
0.0
 11
271.56489
 21
51.202233
 31
0.0
  0
LINE
  5
26F
100
AcDbEntity
  8
0
  6
Continuous
 62
   174
100
AcDbLine
 10
39.56489
 20
51.308661
 30
0.0
 11
39.56489
 21
38.096518
 31
0.0
  0
LINE
  5
270
100
AcDbEntity
  8
0
  6
Continuous
 62
   174
100
AcDbLine
 10
268.56489
 20
38.096518
 30
0.0
 11
268.56489
 21
51.308661
 31
0.0
  0
LINE
  5
271
100
AcDbEntity
  8
0
  6
Continuous
 62
   174
100
AcDbLine
 10
35.86489
 20
53.70212
 30
0.0
 11
35.86489
 21
52.540973
 31
0.0
  0
LINE
  5
272
100
AcDbEntity
  8
0
  6
Continuous
 62
   174
100
AcDbLine
 10
35.86489
 20
36.954276
 30
0.0
 11
35.86489
 21
35.703058
 31
0.0
  0
LINE
  5
273
100
AcDbEntity
  8
0
  6
Continuous
 62
   174
100
AcDbLine
 10
272.26489
 20
52.451114
 30
0.0
 11
272.26489
 21
53.70212
 31
0.0
  0
LINE
  5
274
100
AcDbEntity
  8
0
  6
Continuous
 62
   174
100
AcDbLine
 10
35.86489
 20
44.612625
 30
0.0
 11
35.86489
 21
36.954276
 31
0.0
  0
LINE
  5
275
100
AcDbEntity
  8
0
  6
Continuous
 62
   174
100
AcDbLine
 10
272.26489
 20
44.792554
 30
0.0
 11
272.26489
 21
52.451114
 31
0.0
  0
ARC
  5
276
100
AcDbEntity
  8
0
  6
HIDDEN
 62
   174
100
AcDbCircle
 10
110.06489
 20
54.811947
 30
0.0
 40
2.5
100
AcDbArc
 50
0.0
 51
180.0
  0
LINE
  5
277
100
AcDbEntity
  8
0
  6
Continuous
 62
   174
100
AcDbLine
 10
35.86489
 20
52.540973
 30
0.0
 11
35.86489
 21
44.612625
 31
0.0
  0
LINE
  5
278
100
AcDbEntity
  8
0
  6
Continuous
 62
   174
100
AcDbLine
 10
36.56489
 20
53.686947
 30
0.0
 11
35.86489
 21
53.686947
 31
0.0
  0
LINE
  5
279
100
AcDbEntity
  8
0
  6
Continuous
 62
   174
100
AcDbLine
 10
36.56489
 20
35.686947
 30
0.0
 11
35.86489
 21
35.686947
 31
0.0
  0
LINE
  5
27A
100
AcDbEntity
  8
0
  6
Continuous
 62
   174
100
AcDbLine
 10
271.56489
 20
53.686947
 30
0.0
 11
272.26489
 21
53.686947
 31
0.0
  0
LINE
  5
27B
100
AcDbEntity
  8
0
  6
Continuous
 62
   174
100
AcDbLine
 10
39.56489
 20
36.686947
 30
0.0
 11
51.60685
 21
36.686947
 31
0.0
  0
LINE
  5
27C
100
AcDbEntity
  8
0
  6
Continuous
 62
   174
100
AcDbLine
 10
81.06489
 20
29.686947
 30
0.0
 11
81.06489
 21
59.686947
 31
0.0
  0
LINE
  5
27D
100
AcDbEntity
  8
0
  6
Continuous
 62
   174
100
AcDbLine
 10
97.06489
 20
29.686947
 30
0.0
 11
97.06489
 21
59.686947
 31
0.0
  0
ARC
  5
27E
100
AcDbEntity
  8
0
  6
HIDDEN
 62
   174
100
AcDbCircle
 10
198.06489
 20
34.811947
 30
0.0
 40
2.1
100
AcDbArc
 50
0.0
 51
180.0
  0
LINE
  5
27F
100
AcDbEntity
  8
0
  6
Continuous
 62
   174
100
AcDbLine
 10
39.56489
 20
38.096518
 30
0.0
 11
39.56489
 21
36.702971
 31
0.0
  0
LINE
  5
280
100
AcDbEntity
  8
0
  6
Continuous
 62
   174
100
AcDbLine
 10
268.56489
 20
51.308661
 30
0.0
 11
268.56489
 21
52.702208
 31
0.0
  0
ARC
  5
281
100
AcDbEntity
  8
0
  6
HIDDEN
 62
   174
100
AcDbCircle
 10
198.06489
 20
34.811947
 30
0.0
 40
2.5
100
AcDbArc
 50
-118.807171
 51
0.0
  0
LINE
  5
282
100
AcDbEntity
  8
0
  6
Continuous
 62
   174
100
AcDbLine
 10
39.56489
 20
51.186947
 30
0.0
 11
36.56489
 21
51.186947
 31
0.0
  0
LINE
  5
283
100
AcDbEntity
  8
0
  6
Continuous
 62
   174
100
AcDbLine
 10
39.56489
 20
38.186947
 30
0.0
 11
36.56489
 21
38.186947
 31
0.0
  0
LINE
  5
284
100
AcDbEntity
  8
0
  6
Continuous
 62
   174
100
AcDbLine
 10
268.56489
 20
38.186947
 30
0.0
 11
271.56489
 21
38.186947
 31
0.0
  0
LINE
  5
285
100
AcDbEntity
  8
0
  6
Continuous
 62
   174
100
AcDbLine
 10
51.56489
 20
37.186947
 30
0.0
 11
51.56489
 21
38.441949
 31
0.0
  0
LINE
  5
286
100
AcDbEntity
  8
0
  6
HIDDEN
 62
   174
100
AcDbLine
 10
211.06489
 20
50.686947
 30
0.0
 11
211.11489
 21
50.686947
 31
0.0
  0
LINE
  5
287
100
AcDbEntity
  8
0
  6
HIDDEN
 62
   174
100
AcDbLine
 10
97.06489
 20
50.686947
 30
0.0
 11
97.01489
 21
50.686947
 31
0.0
  0
LINE
  5
288
100
AcDbEntity
  8
0
  6
Continuous
 62
   174
100
AcDbLine
 10
230.56489
 20
55.186947
 30
0.0
 11
253.56489
 21
55.186947
 31
0.0
  0
LINE
  5
289
100
AcDbEntity
  8
0
  6
HIDDEN
 62
   174
100
AcDbLine
 10
97.06489
 20
44.702695
 30
0.0
 11
97.06489
 21
38.703008
 31
0.0
  0
LINE
  5
28A
100
AcDbEntity
  8
0
  6
HIDDEN
 62
   174
100
AcDbLine
 10
211.06489
 20
38.703008
 30
0.0
 11
211.06489
 21
44.702695
 31
0.0
  0
LINE
  5
28B
100
AcDbEntity
  8
0
  6
Continuous
 62
   174
100
AcDbLine
 10
211.06489
 20
29.686947
 30
0.0
 11
97.06489
 21
29.686947
 31
0.0
  0
LINE
  5
28C
100
AcDbEntity
  8
0
  6
Continuous
 62
   174
100
AcDbLine
 10
54.56489
 20
55.186947
 30
0.0
 11
77.56489
 21
55.186947
 31
0.0
  0
LINE
  5
28D
100
AcDbEntity
  8
0
  6
Continuous
 62
   174
100
AcDbLine
 10
227.06489
 20
59.686947
 30
0.0
 11
227.06489
 21
29.686947
 31
0.0
  0
LINE
  5
28E
100
AcDbEntity
  8
0
  6
Continuous
 62
   174
100
AcDbLine
 10
36.56489
 20
35.703058
 30
0.0
 11
36.56489
 21
37.988815
 31
0.0
  0
LINE
  5
28F
100
AcDbEntity
  8
0
  6
Continuous
 62
   174
100
AcDbLine
 10
272.26489
 20
36.864206
 30
0.0
 11
272.26489
 21
44.792554
 31
0.0
  0
LINE
  5
290
100
AcDbEntity
  8
0
  6
Continuous
 62
   174
100
AcDbLine
 10
268.56489
 20
36.686947
 30
0.0
 11
256.52293
 21
36.686947
 31
0.0
  0
LINE
  5
291
100
AcDbEntity
  8
0
  6
Continuous
 62
   174
100
AcDbLine
 10
256.56489
 20
38.441949
 30
0.0
 11
256.56489
 21
37.186947
 31
0.0
  0
LINE
  5
292
100
AcDbEntity
  8
0
  6
HIDDEN
 62
   174
100
AcDbLine
 10
257.06489
 20
54.702033
 30
0.0
 11
257.06489
 21
34.703146
 31
0.0
  0
LINE
  5
293
100
AcDbEntity
  8
0
  6
HIDDEN
 62
   174
100
AcDbLine
 10
51.06489
 20
34.703146
 30
0.0
 11
51.06489
 21
54.702033
 31
0.0
  0
LINE
  5
294
100
AcDbEntity
  8
0
  6
Continuous
 62
   174
100
AcDbLine
 10
211.06489
 20
59.686947
 30
0.0
 11
211.06489
 21
29.686947
 31
0.0
  0
LINE
  5
295
100
AcDbEntity
  8
0
  6
HIDDEN
 62
   174
100
AcDbLine
 10
268.56489
 20
51.202233
 30
0.0
 11
268.56489
 21
38.202945
 31
0.0
  0
LINE
  5
296
100
AcDbEntity
  8
0
  6
Continuous
 62
   174
100
AcDbLine
 10
264.76489
 20
35.02158
 30
0.0
 11
264.76489
 21
36.090532
 31
0.0
  0
LINE
  5
297
100
AcDbEntity
  8
0
  6
Continuous
 62
   174
100
AcDbLine
 10
271.56489
 20
53.686947
 30
0.0
 11
272.26489
 21
53.686947
 31
0.0
  0
LINE
  5
298
100
AcDbEntity
  8
0
  6
Continuous
 62
   174
100
AcDbLine
 10
39.56489
 20
52.686947
 30
0.0
 11
51.60685
 21
52.686947
 31
0.0
  0
LINE
  5
299
100
AcDbEntity
  8
0
  6
Continuous
 62
   174
100
AcDbLine
 10
227.56489
 20
37.186947
 30
0.0
 11
227.56489
 21
52.186947
 31
0.0
  0
LINE
  5
29A
100
AcDbEntity
  8
0
  6
Continuous
 62
   174
100
AcDbLine
 10
77.56489
 20
34.186947
 30
0.0
 11
54.56489
 21
34.186947
 31
0.0
  0
LINE
  5
29B
100
AcDbEntity
  8
0
  6
Continuous
 62
   174
100
AcDbLine
 10
227.06489
 20
29.686947
 30
0.0
 11
211.06489
 21
29.686947
 31
0.0
  0
LINE
  5
29C
100
AcDbEntity
  8
0
  6
HIDDEN
 62
   174
100
AcDbLine
 10
39.56489
 20
38.202945
 30
0.0
 11
39.56489
 21
51.202233
 31
0.0
  0
LINE
  5
29D
100
AcDbEntity
  8
0
  6
Continuous
 62
   174
100
AcDbLine
 10
271.56489
 20
53.70212
 30
0.0
 11
271.56489
 21
51.416576
 31
0.0
  0
LINE
  5
29E
100
AcDbEntity
  8
0
  6
Continuous
 62
   174
100
AcDbLine
 10
36.56489
 20
53.686947
 30
0.0
 11
35.86489
 21
53.686947
 31
0.0
  0
LINE
  5
29F
100
AcDbEntity
  8
0
  6
Continuous
 62
   174
100
AcDbLine
 10
271.56489
 20
35.686947
 30
0.0
 11
272.26489
 21
35.686947
 31
0.0
  0
LINE
  5
2A0
100
AcDbEntity
  8
0
  6
Continuous
 62
   174
100
AcDbLine
 10
271.56489
 20
35.686947
 30
0.0
 11
272.26489
 21
35.686947
 31
0.0
  0
LINE
  5
2A1
100
AcDbEntity
  8
0
  6
Continuous
 62
   174
100
AcDbLine
 10
39.56489
 20
52.686947
 30
0.0
 11
51.60685
 21
52.686947
 31
0.0
  0
LINE
  5
2A2
100
AcDbEntity
  8
0
  6
Continuous
 62
   174
100
AcDbLine
 10
268.56489
 20
52.686947
 30
0.0
 11
256.52293
 21
52.686947
 31
0.0
  0
LINE
  5
2A3
100
AcDbEntity
  8
0
  6
Continuous
 62
   174
100
AcDbLine
 10
256.56489
 20
52.186947
 30
0.0
 11
256.56489
 21
50.931945
 31
0.0
  0
LINE
  5
2A4
100
AcDbEntity
  8
0
  6
HIDDEN
 62
   174
100
AcDbLine
 10
211.06489
 20
38.686947
 30
0.0
 11
211.11489
 21
38.686947
 31
0.0
  0
LINE
  5
2A5
100
AcDbEntity
  8
0
  6
HIDDEN
 62
   174
100
AcDbLine
 10
97.06489
 20
50.702383
 30
0.0
 11
97.06489
 21
44.702695
 31
0.0
  0
LINE
  5
2A6
100
AcDbEntity
  8
0
  6
Continuous
 62
   174
100
AcDbLine
 10
211.06489
 20
59.686947
 30
0.0
 11
97.06489
 21
59.686947
 31
0.0
  0
LINE
  5
2A7
100
AcDbEntity
  8
0
  6
Continuous
 62
   174
100
AcDbLine
 10
211.06489
 20
59.686947
 30
0.0
 11
211.06489
 21
29.686947
 31
0.0
  0
LINE
  5
2A8
100
AcDbEntity
  8
0
  6
HIDDEN
 62
   174
100
AcDbLine
 10
36.56489
 20
51.202233
 30
0.0
 11
36.56489
 21
38.202945
 31
0.0
  0
ARC
  5
2A9
100
AcDbEntity
  8
0
  6
HIDDEN
 62
   174
100
AcDbCircle
 10
198.06489
 20
34.811947
 30
0.0
 40
2.1
100
AcDbArc
 50
180.0
 51
360.0
  0
LINE
  5
2AA
100
AcDbEntity
  8
0
  6
Continuous
 62
   174
100
AcDbLine
 10
268.56489
 20
36.702971
 30
0.0
 11
268.56489
 21
38.096518
 31
0.0
  0
LINE
  5
2AB
100
AcDbEntity
  8
0
  6
Continuous
 62
   174
100
AcDbLine
 10
36.56489
 20
51.416363
 30
0.0
 11
36.56489
 21
53.70212
 31
0.0
  0
LINE
  5
2AC
100
AcDbEntity
  8
0
  6
Continuous
 62
   174
100
AcDbLine
 10
36.56489
 20
37.988815
 30
0.0
 11
36.56489
 21
51.416363
 31
0.0
  0
LINE
  5
2AD
100
AcDbEntity
  8
0
  6
Continuous
 62
   174
100
AcDbLine
 10
271.56489
 20
51.416576
 30
0.0
 11
271.56489
 21
37.988815
 31
0.0
  0
LINE
  5
2AE
100
AcDbEntity
  8
0
  6
Continuous
 62
   174
100
AcDbLine
 10
272.26489
 20
35.703058
 30
0.0
 11
272.26489
 21
36.864206
 31
0.0
  0
ARC
  5
2AF
100
AcDbEntity
  8
0
  6
HIDDEN
 62
   174
100
AcDbCircle
 10
110.06489
 20
54.811947
 30
0.0
 40
2.1
100
AcDbArc
 50
0.0
 51
180.0
  0
ARC
  5
2B0
100
AcDbEntity
  8
0
  6
HIDDEN
 62
   174
100
AcDbCircle
 10
110.06489
 20
54.811947
 30
0.0
 40
2.1
100
AcDbArc
 50
180.0
 51
360.0
  0
ARC
  5
2B1
100
AcDbEntity
  8
0
  6
HIDDEN
 62
   174
100
AcDbCircle
 10
110.06489
 20
54.811947
 30
0.0
 40
2.5
100
AcDbArc
 50
-118.810059
 51
0.0
  0
LINE
  5
2B2
100
AcDbEntity
  8
0
  6
Continuous
 62
   174
100
AcDbLine
 10
43.36489
 20
54.383599
 30
0.0
 11
43.36489
 21
53.314859
 31
0.0
  0
LINE
  5
2B3
100
AcDbEntity
  8
0
  6
HIDDEN
 62
   174
100
AcDbLine
 10
264.76489
 20
39.626445
 30
0.0
 11
264.76489
 21
42.204932
 31
0.0
  0
LINE
  5
2B4
100
AcDbEntity
  8
0
  6
Continuous
 62
   174
100
AcDbLine
 10
35.86489
 20
44.597014
 30
0.0
 11
32.75771
 21
44.597014
 31
0.0
  0
LINE
  5
2B5
100
AcDbEntity
  8
0
  6
HIDDEN
 62
   174
100
AcDbLine
 10
43.36489
 20
42.185699
 30
0.0
 11
49.56489
 21
42.185699
 31
0.0
  0
ARC
  5
2B6
100
AcDbEntity
  8
0
  6
Continuous
 62
   174
100
AcDbCircle
 10
92.06489
 20
44.686947
 30
0.0
 40
3.0
100
AcDbArc
 50
-360.0
 51
-180.0
  0
LINE
  5
2B7
100
AcDbEntity
  8
0
  6
Continuous
 62
   174
100
AcDbLine
 10
253.56489
 20
37.203033
 30
0.0
 11
253.56489
 21
34.203295
 31
0.0
  0
LINE
  5
2B8
100
AcDbEntity
  8
0
  6
Continuous
 62
   174
100
AcDbLine
 10
43.36489
 20
36.08862
 30
0.0
 11
43.36489
 21
35.02073
 31
0.0
  0
LWPOLYLINE
  5
2B9
100
AcDbEntity
  8
0
  6
Continuous
 62
   174
100
AcDbPolyline
 90
        4
 70
   128
 10
32.75771
 20
44.597014
 10
32.42981
 20
45.681983
 10
32.197055
 20
46.740981
 10
32.06489
 20
47.789225
  0
LINE
  5
2BA
100
AcDbEntity
  8
0
  6
Continuous
 62
   174
100
AcDbLine
 10
264.76489
 20
54.369405
 30
0.0
 11
258.56489
 21
54.369405
 31
0.0
  0
LINE
  5
2BB
100
AcDbEntity
  8
0
  6
Continuous
 62
   174
100
AcDbLine
 10
51.06489
 20
55.686947
 30
0.0
 11
81.06489
 21
55.686947
 31
0.0
  0
LINE
  5
2BC
100
AcDbEntity
  8
0
  6
Continuous
 62
   174
100
AcDbLine
 10
32.06489
 20
47.804825
 30
0.0
 11
32.06489
 21
36.954276
 31
0.0
  0
LINE
  5
2BD
100
AcDbEntity
  8
0
  6
Continuous
 62
   174
100
AcDbLine
 10
257.06489
 20
36.686947
 30
0.0
 11
257.06489
 21
33.686947
 31
0.0
  0
LINE
  5
2BE
100
AcDbEntity
  8
0
  6
HIDDEN
 62
   174
100
AcDbLine
 10
272.26489
 20
44.776881
 30
0.0
 11
275.37207
 21
44.776881
 31
0.0
  0
LINE
  5
2BF
100
AcDbEntity
  8
0
  6
HIDDEN
 62
   174
100
AcDbLine
 10
264.76489
 20
47.185698
 30
0.0
 11
258.56489
 21
47.185698
 31
0.0
  0
LINE
  5
2C0
100
AcDbEntity
  8
0
  6
HIDDEN
 62
   174
100
AcDbLine
 10
43.36489
 20
36.072746
 30
0.0
 11
49.56489
 21
36.072746
 31
0.0
  0
LINE
  5
2C1
100
AcDbEntity
  8
0
  6
Continuous
 62
   174
100
AcDbLine
 10
43.36489
 20
36.072551
 30
0.0
 11
49.56489
 21
36.072551
 31
0.0
  0
LINE
  5
2C2
100
AcDbEntity
  8
0
  6
Continuous
 62
   174
100
AcDbLine
 10
264.76489
 20
52.686947
 30
0.0
 11
264.76489
 21
53.301343
 31
0.0
  0
LINE
  5
2C3
100
AcDbEntity
  8
0
  6
Continuous
 62
   174
100
AcDbLine
 10
256.583028
 20
52.186947
 30
0.0
 11
253.582866
 21
52.186947
 31
0.0
  0
LINE
  5
2C4
100
AcDbEntity
  8
0
  6
Continuous
 62
   174
100
AcDbLine
 10
258.06489
 20
34.686947
 30
0.0
 11
257.06489
 21
34.686947
 31
0.0
  0
LINE
  5
2C5
100
AcDbEntity
  8
0
  6
Continuous
 62
   174
100
AcDbLine
 10
258.56489
 20
54.686947
 30
0.0
 11
258.06489
 21
54.686947
 31
0.0
  0
LINE
  5
2C6
100
AcDbEntity
  8
0
  6
Continuous
 62
   174
100
AcDbLine
 10
230.56489
 20
34.186947
 30
0.0
 11
253.56489
 21
34.186947
 31
0.0
  0
LINE
  5
2C7
100
AcDbEntity
  8
0
  6
Continuous
 62
   174
100
AcDbLine
 10
230.56489
 20
55.202095
 30
0.0
 11
230.56489
 21
52.202145
 31
0.0
  0
LWPOLYLINE
  5
2C8
100
AcDbEntity
  8
0
  6
Continuous
 62
   174
100
AcDbPolyline
 90
        4
 70
   128
 10
32.06489
 20
36.938074
 10
32.19801
 20
36.938074
 10
32.431096
 20
36.938074
 10
32.75771
 20
36.938074
  0
LINE
  5
2C9
100
AcDbEntity
  8
0
  6
HIDDEN
 62
   174
100
AcDbLine
 10
264.76489
 20
49.765
 30
0.0
 11
258.56489
 21
49.765
 31
0.0
  0
LINE
  5
2CA
100
AcDbEntity
  8
0
  6
Continuous
 62
   174
100
AcDbLine
 10
51.56489
 20
52.186947
 30
0.0
 11
51.56489
 21
50.931945
 31
0.0
  0
ARC
  5
2CB
100
AcDbEntity
  8
0
  6
Continuous
 62
   174
100
AcDbCircle
 10
253.56489
 20
37.186947
 30
0.0
 40
3.0
100
AcDbArc
 50
-90.0
 51
0.0
  0
LINE
  5
2CC
100
AcDbEntity
  8
0
  6
Continuous
 62
   174
100
AcDbLine
 10
257.06489
 20
33.686947
 30
0.0
 11
227.06489
 21
33.686947
 31
0.0
  0
LINE
  5
2CD
100
AcDbEntity
  8
0
  6
Continuous
 62
   174
100
AcDbLine
 10
49.56489
 20
52.728337
 30
0.0
 11
49.56489
 21
53.314859
 31
0.0
  0
LINE
  5
2CE
100
AcDbEntity
  8
0
  6
Continuous
 62
   174
100
AcDbLine
 10
77.56489
 20
52.202145
 30
0.0
 11
77.56489
 21
55.202095
 31
0.0
  0
LINE
  5
2CF
100
AcDbEntity
  8
0
  6
HIDDEN
 62
   174
100
AcDbLine
 10
35.86489
 20
44.597014
 30
0.0
 11
35.86489
 21
36.938074
 31
0.0
  0
LINE
  5
2D0
100
AcDbEntity
  8
0
  6
HIDDEN
 62
   174
100
AcDbLine
 10
43.36489
 20
49.767996
 30
0.0
 11
49.56489
 21
49.767996
 31
0.0
  0
LINE
  5
2D1
100
AcDbEntity
  8
0
  6
Continuous
 62
   174
100
AcDbLine
 10
264.76489
 20
53.301343
 30
0.0
 11
258.56489
 21
53.301343
 31
0.0
  0
ARC
  5
2D2
100
AcDbEntity
  8
0
  6
Continuous
 62
   174
100
AcDbCircle
 10
54.56489
 20
52.186947
 30
0.0
 40
3.0
100
AcDbArc
 50
-270.0
 51
-180.0
  0
LINE
  5
2D3
100
AcDbEntity
  8
0
  6
Continuous
 62
   174
100
AcDbLine
 10
258.56489
 20
35.02158
 30
0.0
 11
258.56489
 21
34.815734
 31
0.0
  0
LINE
  5
2D4
100
AcDbEntity
  8
0
  6
Continuous
 62
   174
100
AcDbLine
 10
258.56489
 20
53.316558
 30
0.0
 11
258.56489
 21
52.728337
 31
0.0
  0
ARC
  5
2D5
100
AcDbEntity
  8
0
  6
Continuous
 62
   174
100
AcDbCircle
 10
138.06489
 20
44.686947
 30
0.0
 40
9.4
100
AcDbArc
 50
0.0
 51
180.0
  0
LINE
  5
2D6
100
AcDbEntity
  8
0
  6
HIDDEN
 62
   174
100
AcDbLine
 10
43.36489
 20
42.201533
 30
0.0
 11
43.36489
 21
39.623471
 31
0.0
  0
LWPOLYLINE
  5
2D7
100
AcDbEntity
  8
0
  6
HIDDEN
 62
   174
100
AcDbPolyline
 90
        4
 70
   128
 10
256.56489
 20
37.186947
 10
256.552331
 20
36.912724
 10
256.531925
 20
36.743437
 10
256.52293
 20
36.686947
  0
LINE
  5
2D8
100
AcDbEntity
  8
0
  6
Continuous
 62
   174
100
AcDbLine
 10
92.56489
 20
42.012999
 30
0.0
 11
92.56489
 21
47.360895
 31
0.0
  0
LINE
  5
2D9
100
AcDbEntity
  8
0
  6
Continuous
 62
   174
100
AcDbLine
 10
49.56489
 20
34.815734
 30
0.0
 11
49.56489
 21
35.02073
 31
0.0
  0
LINE
  5
2DA
100
AcDbEntity
  8
0
  6
Continuous
 62
   174
100
AcDbLine
 10
258.56489
 20
54.702033
 30
0.0
 11
258.56489
 21
54.589444
 31
0.0
  0
ARC
  5
2DB
100
AcDbEntity
  8
0
  6
Continuous
 62
   174
100
AcDbCircle
 10
216.06489
 20
44.686947
 30
0.0
 40
3.0
100
AcDbArc
 50
-180.0
 51
0.0
  0
LINE
  5
2DC
100
AcDbEntity
  8
0
  6
Continuous
 62
   174
100
AcDbLine
 10
264.76489
 20
36.074317
 30
0.0
 11
264.76489
 21
36.686947
 31
0.0
  0
ARC
  5
2DD
100
AcDbEntity
  8
0
  6
Continuous
 62
   174
100
AcDbCircle
 10
170.06489
 20
44.686947
 30
0.0
 40
9.4
100
AcDbArc
 50
-167.614007
 51
0.0
  0
ARC
  5
2DE
100
AcDbEntity
  8
0
  6
Continuous
 62
   174
100
AcDbCircle
 10
77.56489
 20
37.186947
 30
0.0
 40
3.0
100
AcDbArc
 50
-90.0
 51
0.0
  0
LINE
  5
2DF
100
AcDbEntity
  8
0
  6
HIDDEN
 62
   174
100
AcDbLine
 10
49.56489
 20
49.767996
 30
0.0
 11
49.56489
 21
53.302914
 31
0.0
  0
LINE
  5
2E0
100
AcDbEntity
  8
0
  6
HIDDEN
 62
   174
100
AcDbLine
 10
264.76489
 20
42.189065
 30
0.0
 11
258.56489
 21
42.189065
 31
0.0
  0
LINE
  5
2E1
100
AcDbEntity
  8
0
  6
Continuous
 62
   174
100
AcDbLine
 10
43.36489
 20
53.299577
 30
0.0
 11
49.56489
 21
53.299577
 31
0.0
  0
LINE
  5
2E2
100
AcDbEntity
  8
0
  6
Continuous
 62
   174
100
AcDbLine
 10
253.56489
 20
44.686947
 30
0.0
 11
253.56489
 21
37.186947
 31
0.0
  0
LINE
  5
2E3
100
AcDbEntity
  8
0
  6
Continuous
 62
   174
100
AcDbLine
 10
91.56489
 20
47.360895
 30
0.0
 11
91.56489
 21
42.012999
 31
0.0
  0
ARC
  5
2E4
100
AcDbEntity
  8
0
  6
Continuous
 62
   174
100
AcDbCircle
 10
138.06489
 20
44.686947
 30
0.0
 40
10.48
100
AcDbArc
 50
-360.0
 51
-180.0
  0
LINE
  5
2E5
100
AcDbEntity
  8
0
  6
Continuous
 62
   174
100
AcDbLine
 10
81.06489
 20
33.686947
 30
0.0
 11
51.06489
 21
33.686947
 31
0.0
  0
LINE
  5
2E6
100
AcDbEntity
  8
0
  6
Continuous
 62
   174
100
AcDbLine
 10
256.56489
 20
37.186947
 30
0.0
 11
256.56489
 21
38.441949
 31
0.0
  0
LWPOLYLINE
  5
2E7
100
AcDbEntity
  8
0
  6
HIDDEN
 62
   174
100
AcDbPolyline
 90
        4
 70
   128
 10
256.52293
 20
52.686947
 10
256.531925
 20
52.630459
 10
256.55233
 20
52.461172
 10
256.56489
 20
52.186947
  0
LINE
  5
2E8
100
AcDbEntity
  8
0
  6
Continuous
 62
   174
100
AcDbLine
 10
80.583133
 20
37.186947
 30
0.0
 11
77.582971
 21
37.186947
 31
0.0
  0
LINE
  5
2E9
100
AcDbEntity
  8
0
  6
Continuous
 62
   174
100
AcDbLine
 10
276.06489
 20
41.600566
 30
0.0
 11
276.06489
 21
52.451114
 31
0.0
  0
LWPOLYLINE
  5
2EA
100
AcDbEntity
  8
0
  6
Continuous
 62
   174
100
AcDbPolyline
 90
        7
 70
   128
 10
275.37207
 20
52.43582
 10
275.738196
 20
51.133854
 10
275.966294
 20
49.857252
 10
276.043198
 20
48.606281
 10
275.966279
 20
47.355326
 10
275.738179
 20
46.078771
 10
275.37207
 20
44.776881
  0
LINE
  5
2EB
100
AcDbEntity
  8
0
  6
Continuous
 62
   174
100
AcDbLine
 10
54.56489
 20
37.186947
 30
0.0
 11
54.56489
 21
44.686947
 31
0.0
  0
LINE
  5
2EC
100
AcDbEntity
  8
0
  6
Continuous
 62
   174
100
AcDbLine
 10
276.06489
 20
36.90308
 30
0.0
 11
276.06489
 21
40.056193
 31
0.0
  0
LWPOLYLINE
  5
2ED
100
AcDbEntity
  8
0
  6
Continuous
 62
   174
100
AcDbPolyline
 90
        3
 70
   128
 10
275.37207
 20
36.848141
 10
275.738172
 20
36.848141
 10
275.966272
 20
36.848141
  0
LINE
  5
2EE
100
AcDbEntity
  8
0
  6
HIDDEN
 62
   174
100
AcDbLine
 10
43.36489
 20
39.608894
 30
0.0
 11
49.56489
 21
39.608894
 31
0.0
  0
LWPOLYLINE
  5
2EF
100
AcDbEntity
  8
0
  6
Continuous
 62
   174
100
AcDbPolyline
 90
        6
 70
   128
 10
253.56489
 20
44.686947
 10
254.470206
 20
43.197587
 10
255.278511
 20
41.803838
 10
255.940359
 20
40.525177
 10
256.392184
 20
39.399072
 10
256.56489
 20
38.441949
  0
LINE
  5
2F0
100
AcDbEntity
  8
0
  6
Continuous
 62
   174
100
AcDbLine
 10
258.06489
 20
54.686947
 30
0.0
 11
257.06489
 21
54.686947
 31
0.0
  0
LINE
  5
2F1
100
AcDbEntity
  8
0
  6
Continuous
 62
   174
100
AcDbLine
 10
253.582866
 20
37.186947
 30
0.0
 11
256.583028
 21
37.186947
 31
0.0
  0
LINE
  5
2F2
100
AcDbEntity
  8
0
  6
Continuous
 62
   174
100
AcDbLine
 10
215.56489
 20
47.360895
 30
0.0
 11
215.56489
 21
42.012999
 31
0.0
  0
LINE
  5
2F3
100
AcDbEntity
  8
0
  6
Continuous
 62
   174
100
AcDbLine
 10
35.86489
 20
52.525753
 30
0.0
 11
32.75771
 21
52.525753
 31
0.0
  0
LINE
  5
2F4
100
AcDbEntity
  8
0
  6
Continuous
 62
   174
100
AcDbLine
 10
230.56489
 20
37.186947
 30
0.0
 11
230.56489
 21
52.186947
 31
0.0
  0
LINE
  5
2F5
100
AcDbEntity
  8
0
  6
Continuous
 62
   174
100
AcDbLine
 10
49.56489
 20
36.08862
 30
0.0
 11
49.56489
 21
36.676841
 31
0.0
  0
LINE
  5
2F6
100
AcDbEntity
  8
0
  6
HIDDEN
 62
   174
100
AcDbLine
 10
258.56489
 20
52.728337
 30
0.0
 11
258.56489
 21
49.781707
 31
0.0
  0
LINE
  5
2F7
100
AcDbEntity
  8
0
  6
Continuous
 62
   174
100
AcDbLine
 10
257.06489
 20
55.686947
 30
0.0
 11
257.06489
 21
52.686947
 31
0.0
  0
LWPOLYLINE
  5
2F8
100
AcDbEntity
  8
0
  6
HIDDEN
 62
   174
100
AcDbPolyline
 90
        7
 70
   128
 10
275.37207
 20
44.776881
 10
275.738196
 20
46.078847
 10
275.966294
 20
47.355449
 10
276.043198
 20
48.606419
 10
275.966279
 20
49.857374
 10
275.738179
 20
51.133929
 10
275.37207
 20
52.43582
  0
LINE
  5
2F9
100
AcDbEntity
  8
0
  6
HIDDEN
 62
   174
100
AcDbLine
 10
256.56489
 20
52.202145
 30
0.0
 11
256.56489
 21
37.203033
 31
0.0
  0
LINE
  5
2FA
100
AcDbEntity
  8
0
  6
Continuous
 62
   174
100
AcDbLine
 10
230.56489
 20
52.186947
 30
0.0
 11
253.56489
 21
52.186947
 31
0.0
  0
LINE
  5
2FB
100
AcDbEntity
  8
0
  6
Continuous
 62
   174
100
AcDbLine
 10
49.56489
 20
54.383599
 30
0.0
 11
49.56489
 21
54.589657
 31
0.0
  0
ARC
  5
2FC
100
AcDbEntity
  8
0
  6
Continuous
 62
   174
100
AcDbCircle
 10
138.06489
 20
44.686947
 30
0.0
 40
9.4
100
AcDbArc
 50
-180.0
 51
0.0
  0
LINE
  5
2FD
100
AcDbEntity
  8
0
  6
Continuous
 62
   174
100
AcDbLine
 10
227.56489
 20
52.186947
 30
0.0
 11
227.56489
 21
37.186947
 31
0.0
  0
LINE
  5
2FE
100
AcDbEntity
  8
0
  6
HIDDEN
 62
   174
100
AcDbLine
 10
43.36489
 20
47.189065
 30
0.0
 11
49.56489
 21
47.189065
 31
0.0
  0
LINE
  5
2FF
100
AcDbEntity
  8
0
  6
HIDDEN
 62
   174
100
AcDbLine
 10
43.36489
 20
47.184829
 30
0.0
 11
49.56489
 21
47.184829
 31
0.0
  0
LINE
  5
300
100
AcDbEntity
  8
0
  6
Continuous
 62
   174
100
AcDbLine
 10
77.582971
 20
52.186947
 30
0.0
 11
80.583133
 21
52.186947
 31
0.0
  0
LINE
  5
301
100
AcDbEntity
  8
0
  6
HIDDEN
 62
   174
100
AcDbLine
 10
43.36489
 20
53.302914
 30
0.0
 11
49.56489
 21
53.302914
 31
0.0
  0
LINE
  5
302
100
AcDbEntity
  8
0
  6
HIDDEN
 62
   174
100
AcDbLine
 10
264.76489
 20
49.766424
 30
0.0
 11
258.56489
 21
49.766424
 31
0.0
  0
ARC
  5
303
100
AcDbEntity
  8
0
  6
Continuous
 62
   174
100
AcDbCircle
 10
92.06489
 20
44.686947
 30
0.0
 40
2.720294
100
AcDbArc
 50
-259.408609
 51
-100.591391
  0
LINE
  5
304
100
AcDbEntity
  8
0
  6
Continuous
 62
   174
100
AcDbLine
 10
216.56489
 20
42.012999
 30
0.0
 11
216.56489
 21
47.360895
 31
0.0
  0
LINE
  5
305
100
AcDbEntity
  8
0
  6
HIDDEN
 62
   174
100
AcDbLine
 10
258.56489
 20
47.185698
 30
0.0
 11
258.56489
 21
42.184829
 31
0.0
  0
LINE
  5
306
100
AcDbEntity
  8
0
  6
HIDDEN
 62
   174
100
AcDbLine
 10
264.76489
 20
39.610465
 30
0.0
 11
258.56489
 21
39.610465
 31
0.0
  0
LINE
  5
307
100
AcDbEntity
  8
0
  6
Continuous
 62
   174
100
AcDbLine
 10
51.583122
 20
37.186947
 30
0.0
 11
54.583071
 21
37.186947
 31
0.0
  0
LINE
  5
308
100
AcDbEntity
  8
0
  6
Continuous
 62
   174
100
AcDbLine
 10
258.56489
 20
54.589444
 30
0.0
 11
258.56489
 21
54.384449
 31
0.0
  0
LWPOLYLINE
  5
309
100
AcDbEntity
  8
0
  6
Continuous
 62
   174
100
AcDbPolyline
 90
        6
 70
   128
 10
51.56489
 20
38.441949
 10
51.737232
 20
39.397911
 10
52.189033
 20
40.524351
 10
52.852103
 20
41.805341
 10
53.660634
 20
43.199357
 10
54.56489
 20
44.686947
  0
LINE
  5
30A
100
AcDbEntity
  8
0
  6
Continuous
 62
   174
100
AcDbLine
 10
253.56489
 20
37.186947
 30
0.0
 11
230.56489
 21
37.186947
 31
0.0
  0
LINE
  5
30B
100
AcDbEntity
  8
0
  6
Continuous
 62
   174
100
AcDbLine
 10
253.56489
 20
55.186947
 30
0.0
 11
230.56489
 21
55.186947
 31
0.0
  0
LINE
  5
30C
100
AcDbEntity
  8
0
  6
HIDDEN
 62
   174
100
AcDbLine
 10
35.86489
 20
52.525753
 30
0.0
 11
35.86489
 21
44.597014
 31
0.0
  0
LINE
  5
30D
100
AcDbEntity
  8
0
  6
HIDDEN
 62
   174
100
AcDbLine
 10
264.76489
 20
42.184829
 30
0.0
 11
258.56489
 21
42.184829
 31
0.0
  0
LINE
  5
30E
100
AcDbEntity
  8
0
  6
Continuous
 62
   174
100
AcDbLine
 10
77.56489
 20
37.186947
 30
0.0
 11
54.56489
 21
37.186947
 31
0.0
  0
LINE
  5
30F
100
AcDbEntity
  8
0
  6
Continuous
 62
   174
100
AcDbLine
 10
276.060822
 20
36.848141
 30
0.0
 11
275.984347
 21
36.848141
 31
0.0
  0
LINE
  5
310
100
AcDbEntity
  8
0
  6
HIDDEN
 62
   174
100
AcDbLine
 10
264.76489
 20
39.605898
 30
0.0
 11
258.56489
 21
39.605898
 31
0.0
  0
LWPOLYLINE
  5
311
100
AcDbEntity
  8
0
  6
HIDDEN
 62
   174
100
AcDbPolyline
 90
        4
 70
   128
 10
51.60685
 20
36.686947
 10
51.597855
 20
36.743435
 10
51.577449
 20
36.912722
 10
51.56489
 20
37.186947
  0
ARC
  5
312
100
AcDbEntity
  8
0
  6
Continuous
 62
   174
100
AcDbCircle
 10
54.56489
 20
37.186947
 30
0.0
 40
3.0
100
AcDbArc
 50
-180.0
 51
-90.0
  0
LINE
  5
313
100
AcDbEntity
  8
0
  6
HIDDEN
 62
   174
100
AcDbLine
 10
43.36489
 20
47.184829
 30
0.0
 11
43.36489
 21
42.185699
 31
0.0
  0
LINE
  5
314
100
AcDbEntity
  8
0
  6
Continuous
 62
   174
100
AcDbLine
 10
54.56489
 20
34.203295
 30
0.0
 11
54.56489
 21
37.203033
 31
0.0
  0
LWPOLYLINE
  5
315
100
AcDbEntity
  8
0
  6
Continuous
 62
   174
100
AcDbPolyline
 90
        4
 70
   128
 10
276.06489
 20
40.040353
 10
275.931769
 20
38.986644
 10
275.698687
 20
37.928231
 10
275.37207
 20
36.848141
  0
LINE
  5
316
100
AcDbEntity
  8
0
  6
HIDDEN
 62
   174
100
AcDbLine
 10
258.56489
 20
53.301149
 30
0.0
 11
258.56489
 21
49.765
 31
0.0
  0
LINE
  5
317
100
AcDbEntity
  8
0
  6
HIDDEN
 62
   174
100
AcDbLine
 10
43.36489
 20
42.188196
 30
0.0
 11
49.56489
 21
42.188196
 31
0.0
  0
LINE
  5
318
100
AcDbEntity
  8
0
  6
Continuous
 62
   174
100
AcDbLine
 10
43.36489
 20
54.368536
 30
0.0
 11
49.56489
 21
54.368536
 31
0.0
  0
LINE
  5
319
100
AcDbEntity
  8
0
  6
HIDDEN
 62
   174
100
AcDbLine
 10
264.76489
 20
49.766424
 30
0.0
 11
264.76489
 21
52.686947
 31
0.0
  0
ARC
  5
31A
100
AcDbEntity
  8
0
  6
Continuous
 62
   174
100
AcDbCircle
 10
92.06489
 20
44.686947
 30
0.0
 40
2.720294
100
AcDbArc
 50
-79.408609
 51
79.408609
  0
LINE
  5
31B
100
AcDbEntity
  8
0
  6
HIDDEN
 62
   174
100
AcDbLine
 10
258.56489
 20
47.203645
 30
0.0
 11
258.56489
 21
42.204932
 31
0.0
  0
LINE
  5
31C
100
AcDbEntity
  8
0
  6
Continuous
 62
   174
100
AcDbLine
 10
54.56489
 20
34.186947
 30
0.0
 11
77.56489
 21
34.186947
 31
0.0
  0
LINE
  5
31D
100
AcDbEntity
  8
0
  6
HIDDEN
 62
   174
100
AcDbLine
 10
264.76489
 20
53.301149
 30
0.0
 11
258.56489
 21
53.301149
 31
0.0
  0
LINE
  5
31E
100
AcDbEntity
  8
0
  6
HIDDEN
 62
   174
100
AcDbLine
 10
81.06489
 20
55.686947
 30
0.0
 11
81.06489
 21
33.686947
 31
0.0
  0
LINE
  5
31F
100
AcDbEntity
  8
0
  6
HIDDEN
 62
   174
100
AcDbLine
 10
49.56489
 20
36.072746
 30
0.0
 11
49.56489
 21
39.608894
 31
0.0
  0
LINE
  5
320
100
AcDbEntity
  8
0
  6
HIDDEN
 62
   174
100
AcDbLine
 10
264.76489
 20
36.07098
 30
0.0
 11
258.56489
 21
36.07098
 31
0.0
  0
LINE
  5
321
100
AcDbEntity
  8
0
  6
Continuous
 62
   174
100
AcDbLine
 10
43.36489
 20
35.004489
 30
0.0
 11
49.56489
 21
35.004489
 31
0.0
  0
LINE
  5
322
100
AcDbEntity
  8
0
  6
HIDDEN
 62
   174
100
AcDbLine
 10
49.56489
 20
36.676841
 30
0.0
 11
49.56489
 21
39.623471
 31
0.0
  0
LINE
  5
323
100
AcDbEntity
  8
0
  6
HIDDEN
 62
   174
100
AcDbLine
 10
227.06489
 20
33.686947
 30
0.0
 11
227.06489
 21
55.686947
 31
0.0
  0
ARC
  5
324
100
AcDbEntity
  8
0
  6
Continuous
 62
   174
100
AcDbCircle
 10
92.06489
 20
44.686947
 30
0.0
 40
3.0
100
AcDbArc
 50
-180.0
 51
0.0
  0
LINE
  5
325
100
AcDbEntity
  8
0
  6
Continuous
 62
   174
100
AcDbLine
 10
32.06489
 20
47.789225
 30
0.0
 11
32.06489
 21
49.333542
 31
0.0
  0
LWPOLYLINE
  5
326
100
AcDbEntity
  8
0
  6
HIDDEN
 62
   174
100
AcDbPolyline
 90
        4
 70
   128
 10
51.56489
 20
52.186947
 10
51.577449
 20
52.46117
 10
51.597854
 20
52.630457
 10
51.60685
 20
52.686947
  0
LINE
  5
327
100
AcDbEntity
  8
0
  6
Continuous
 62
   174
100
AcDbLine
 10
50.06489
 20
54.686947
 30
0.0
 11
51.06489
 21
54.686947
 31
0.0
  0
LINE
  5
328
100
AcDbEntity
  8
0
  6
Continuous
 62
   174
100
AcDbLine
 10
264.76489
 20
53.316558
 30
0.0
 11
264.76489
 21
54.384449
 31
0.0
  0
LINE
  5
329
100
AcDbEntity
  8
0
  6
Continuous
 62
   174
100
AcDbLine
 10
32.105115
 20
52.525753
 30
0.0
 11
32.18159
 21
52.525753
 31
0.0
  0
LWPOLYLINE
  5
32A
100
AcDbEntity
  8
0
  6
Continuous
 62
   174
100
AcDbPolyline
 90
        6
 70
   128
 10
54.56489
 20
44.686947
 10
53.659574
 20
46.176307
 10
52.851269
 20
47.570056
 10
52.189421
 20
48.848717
 10
51.737595
 20
49.974822
 10
51.56489
 20
50.931945
  0
LINE
  5
32B
100
AcDbEntity
  8
0
  6
Continuous
 62
   174
100
AcDbLine
 10
227.06489
 20
55.686947
 30
0.0
 11
257.06489
 21
55.686947
 31
0.0
  0
ARC
  5
32C
100
AcDbEntity
  8
0
  6
Continuous
 62
   174
100
AcDbCircle
 10
77.56489
 20
52.186947
 30
0.0
 40
3.0
100
AcDbArc
 50
0.0
 51
90.0
  0
LWPOLYLINE
  5
32D
100
AcDbEntity
  8
0
  6
HIDDEN
 62
   174
100
AcDbPolyline
 90
        4
 70
   128
 10
32.06489
 20
47.789225
 10
32.198011
 20
46.735517
 10
32.431093
 20
45.677104
 10
32.75771
 20
44.597014
  0
LWPOLYLINE
  5
32E
100
AcDbEntity
  8
0
  6
Continuous
 62
   174
100
AcDbPolyline
 90
        4
 70
   128
 10
32.06489
 20
49.333542
 10
32.198011
 20
50.38725
 10
32.431093
 20
51.445663
 10
32.75771
 20
52.525753
  0
LWPOLYLINE
  5
32F
100
AcDbEntity
  8
0
  6
HIDDEN
 62
   174
100
AcDbPolyline
 90
        4
 70
   128
 10
276.06489
 20
41.584669
 10
275.931769
 20
42.638377
 10
275.698687
 20
43.69679
 10
275.37207
 20
44.776881
  0
LINE
  5
330
100
AcDbEntity
  8
0
  6
Continuous
 62
   174
100
AcDbLine
 10
54.583071
 20
52.186947
 30
0.0
 11
51.583122
 21
52.186947
 31
0.0
  0
LINE
  5
331
100
AcDbEntity
  8
0
  6
Continuous
 62
   174
100
AcDbLine
 10
258.56489
 20
36.676841
 30
0.0
 11
258.56489
 21
36.090532
 31
0.0
  0
ARC
  5
332
100
AcDbEntity
  8
0
  6
Continuous
 62
   174
100
AcDbCircle
 10
170.06489
 20
44.686947
 30
0.0
 40
10.48
100
AcDbArc
 50
-360.0
 51
-180.0
  0
LINE
  5
333
100
AcDbEntity
  8
0
  6
Continuous
 62
   174
100
AcDbLine
 10
77.56489
 20
55.186947
 30
0.0
 11
54.56489
 21
55.186947
 31
0.0
  0
LINE
  5
334
100
AcDbEntity
  8
0
  6
HIDDEN
 62
   174
100
AcDbLine
 10
264.76489
 20
47.203645
 30
0.0
 11
264.76489
 21
49.781707
 31
0.0
  0
LINE
  5
335
100
AcDbEntity
  8
0
  6
HIDDEN
 62
   174
100
AcDbLine
 10
258.56489
 20
39.605898
 30
0.0
 11
258.56489
 21
36.07098
 31
0.0
  0
LINE
  5
336
100
AcDbEntity
  8
0
  6
HIDDEN
 62
   174
100
AcDbLine
 10
49.56489
 20
42.188196
 30
0.0
 11
49.56489
 21
47.189065
 31
0.0
  0
LINE
  5
337
100
AcDbEntity
  8
0
  6
HIDDEN
 62
   174
100
AcDbLine
 10
258.56489
 20
39.626445
 30
0.0
 11
258.56489
 21
36.676841
 31
0.0
  0
ARC
  5
338
100
AcDbEntity
  8
0
  6
Continuous
 62
   174
100
AcDbCircle
 10
170.06489
 20
44.686947
 30
0.0
 40
9.4
100
AcDbArc
 50
180.0
 51
192.385993
  0
LWPOLYLINE
  5
339
100
AcDbEntity
  8
0
  6
Continuous
 62
   174
100
AcDbPolyline
 90
        4
 70
   128
 10
275.37207
 20
44.776881
 10
275.69997
 20
43.691911
 10
275.932724
 20
42.632913
 10
276.06489
 20
41.584669
  0
LINE
  5
33A
100
AcDbEntity
  8
0
  6
Continuous
 62
   174
100
AcDbLine
 10
43.36489
 20
36.686947
 30
0.0
 11
43.36489
 21
36.072551
 31
0.0
  0
LINE
  5
33B
100
AcDbEntity
  8
0
  6
Continuous
 62
   174
100
AcDbLine
 10
258.06489
 20
34.686947
 30
0.0
 11
257.06489
 21
34.686947
 31
0.0
  0
LWPOLYLINE
  5
33C
100
AcDbEntity
  8
0
  6
Continuous
 62
   174
100
AcDbPolyline
 90
        4
 70
   128
 10
276.06489
 20
52.43582
 10
275.93177
 20
52.43582
 10
275.698684
 20
52.43582
 10
275.37207
 20
52.43582
  0
LINE
  5
33D
100
AcDbEntity
  8
0
  6
HIDDEN
 62
   174
100
AcDbLine
 10
272.26489
 20
36.848141
 30
0.0
 11
272.26489
 21
44.776881
 31
0.0
  0
LINE
  5
33E
100
AcDbEntity
  8
0
  6
HIDDEN
 62
   174
100
AcDbLine
 10
49.56489
 20
42.201533
 30
0.0
 11
49.56489
 21
47.200459
 31
0.0
  0
LINE
  5
33F
100
AcDbEntity
  8
0
  6
HIDDEN
 62
   174
100
AcDbLine
 10
51.06489
 20
36.686947
 30
0.0
 11
51.06489
 21
52.686947
 31
0.0
  0
LWPOLYLINE
  5
340
100
AcDbEntity
  8
0
  6
HIDDEN
 62
   174
100
AcDbPolyline
 90
        4
 70
   128
 10
32.75771
 20
52.525753
 10
32.42981
 20
51.440784
 10
32.197055
 20
50.381786
 10
32.06489
 20
49.333542
  0
LINE
  5
341
100
AcDbEntity
  8
0
  6
HIDDEN
 62
   174
100
AcDbLine
 10
264.76489
 20
42.189065
 30
0.0
 11
264.76489
 21
47.188196
 31
0.0
  0
LINE
  5
342
100
AcDbEntity
  8
0
  6
Continuous
 62
   174
100
AcDbLine
 10
77.56489
 20
52.186947
 30
0.0
 11
77.56489
 21
37.186947
 31
0.0
  0
LINE
  5
343
100
AcDbEntity
  8
0
  6
Continuous
 62
   174
100
AcDbLine
 10
54.56489
 20
44.686947
 30
0.0
 11
54.56489
 21
52.186947
 31
0.0
  0
ARC
  5
344
100
AcDbEntity
  8
0
  6
Continuous
 62
   174
100
AcDbCircle
 10
170.06489
 20
44.686947
 30
0.0
 40
10.48
100
AcDbArc
 50
-180.0
 51
-61.205132
  0
LINE
  5
345
100
AcDbEntity
  8
0
  6
HIDDEN
 62
   174
100
AcDbLine
 10
264.76489
 20
47.188196
 30
0.0
 11
258.56489
 21
47.188196
 31
0.0
  0
LINE
  5
346
100
AcDbEntity
  8
0
  6
Continuous
 62
   174
100
AcDbLine
 10
258.56489
 20
34.686947
 30
0.0
 11
258.06489
 21
34.686947
 31
0.0
  0
ARC
  5
347
100
AcDbEntity
  8
0
  6
Continuous
 62
   174
100
AcDbCircle
 10
170.06489
 20
44.686947
 30
0.0
 40
9.4
100
AcDbArc
 50
0.0
 51
180.0
  0
LINE
  5
348
100
AcDbEntity
  8
0
  6
Continuous
 62
   174
100
AcDbLine
 10
227.583017
 20
52.186947
 30
0.0
 11
230.582967
 21
52.186947
 31
0.0
  0
LINE
  5
349
100
AcDbEntity
  8
0
  6
Continuous
 62
   174
100
AcDbLine
 10
253.56489
 20
55.202095
 30
0.0
 11
253.56489
 21
52.202145
 31
0.0
  0
LINE
  5
34A
100
AcDbEntity
  8
0
  6
Continuous
 62
   174
100
AcDbLine
 10
32.06489
 20
52.502098
 30
0.0
 11
32.06489
 21
49.348985
 31
0.0
  0
LINE
  5
34B
100
AcDbEntity
  8
0
  6
Continuous
 62
   174
100
AcDbLine
 10
258.56489
 20
34.815734
 30
0.0
 11
258.56489
 21
34.703146
 31
0.0
  0
LINE
  5
34C
100
AcDbEntity
  8
0
  6
HIDDEN
 62
   174
100
AcDbLine
 10
43.36489
 20
39.60747
 30
0.0
 11
49.56489
 21
39.60747
 31
0.0
  0
LINE
  5
34D
100
AcDbEntity
  8
0
  6
Continuous
 62
   174
100
AcDbLine
 10
272.26489
 20
36.848141
 30
0.0
 11
275.37207
 21
36.848141
 31
0.0
  0
LINE
  5
34E
100
AcDbEntity
  8
0
  6
Continuous
 62
   174
100
AcDbLine
 10
272.26489
 20
44.776881
 30
0.0
 11
275.37207
 21
44.776881
 31
0.0
  0
LINE
  5
34F
100
AcDbEntity
  8
0
  6
Continuous
 62
   174
100
AcDbLine
 10
51.06489
 20
52.686947
 30
0.0
 11
51.06489
 21
55.686947
 31
0.0
  0
ARC
  5
350
100
AcDbEntity
  8
0
  6
Continuous
 62
   174
100
AcDbCircle
 10
230.56489
 20
52.186947
 30
0.0
 40
3.0
100
AcDbArc
 50
-270.0
 51
-180.0
  0
LINE
  5
351
100
AcDbEntity
  8
0
  6
HIDDEN
 62
   174
100
AcDbLine
 10
272.26489
 20
44.776881
 30
0.0
 11
272.26489
 21
52.43582
 31
0.0
  0
LWPOLYLINE
  5
352
100
AcDbEntity
  8
0
  6
Continuous
 62
   174
100
AcDbPolyline
 90
        7
 70
   128
 10
32.75771
 20
36.938074
 10
32.391584
 20
38.240041
 10
32.163486
 20
39.516643
 10
32.086582
 20
40.767613
 10
32.163501
 20
42.018568
 10
32.391601
 20
43.295123
 10
32.75771
 20
44.597014
  0
LINE
  5
353
100
AcDbEntity
  8
0
  6
HIDDEN
 62
   174
100
AcDbLine
 10
43.36489
 20
52.686947
 30
0.0
 11
43.36489
 21
49.763429
 31
0.0
  0
LINE
  5
354
100
AcDbEntity
  8
0
  6
Continuous
 62
   174
100
AcDbLine
 10
51.56489
 20
38.441949
 30
0.0
 11
51.56489
 21
37.186947
 31
0.0
  0
LINE
  5
355
100
AcDbEntity
  8
0
  6
Continuous
 62
   174
100
AcDbLine
 10
275.37207
 20
52.43582
 30
0.0
 11
272.26489
 21
52.43582
 31
0.0
  0
LINE
  5
356
100
AcDbEntity
  8
0
  6
HIDDEN
 62
   174
100
AcDbLine
 10
43.36489
 20
49.763429
 30
0.0
 11
49.56489
 21
49.763429
 31
0.0
  0
LINE
  5
357
100
AcDbEntity
  8
0
  6
Continuous
 62
   174
100
AcDbLine
 10
49.56489
 20
34.686947
 30
0.0
 11
50.06489
 21
34.686947
 31
0.0
  0
LINE
  5
358
100
AcDbEntity
  8
0
  6
HIDDEN
 62
   174
100
AcDbLine
 10
49.56489
 20
49.778733
 30
0.0
 11
49.56489
 21
52.728337
 31
0.0
  0
LINE
  5
359
100
AcDbEntity
  8
0
  6
Continuous
 62
   174
100
AcDbLine
 10
276.06489
 20
41.584669
 30
0.0
 11
276.06489
 21
40.040353
 31
0.0
  0
LINE
  5
35A
100
AcDbEntity
  8
0
  6
Continuous
 62
   174
100
AcDbLine
 10
253.56489
 20
52.186947
 30
0.0
 11
253.56489
 21
44.686947
 31
0.0
  0
LINE
  5
35B
100
AcDbEntity
  8
0
  6
Continuous
 62
   174
100
AcDbLine
 10
50.06489
 20
34.686947
 30
0.0
 11
51.06489
 21
34.686947
 31
0.0
  0
LWPOLYLINE
  5
35C
100
AcDbEntity
  8
0
  6
HIDDEN
 62
   174
100
AcDbPolyline
 90
        7
 70
   128
 10
32.75771
 20
44.597014
 10
32.391584
 20
43.295047
 10
32.163486
 20
42.018445
 10
32.086582
 20
40.767475
 10
32.163501
 20
39.51652
 10
32.391601
 20
38.239965
 10
32.75771
 20
36.938074
  0
LINE
  5
35D
100
AcDbEntity
  8
0
  6
Continuous
 62
   174
100
AcDbLine
 10
264.76489
 20
35.005359
 30
0.0
 11
258.56489
 21
35.005359
 31
0.0
  0
LINE
  5
35E
100
AcDbEntity
  8
0
  6
HIDDEN
 62
   174
100
AcDbLine
 10
264.76489
 20
36.686947
 30
0.0
 11
264.76489
 21
39.610465
 31
0.0
  0
LWPOLYLINE
  5
35F
100
AcDbEntity
  8
0
  6
Continuous
 62
   174
100
AcDbPolyline
 90
        3
 70
   128
 10
32.75771
 20
52.525753
 10
32.391608
 20
52.525753
 10
32.163508
 20
52.525753
  0
ARC
  5
360
100
AcDbEntity
  8
0
  6
Continuous
 62
   174
100
AcDbCircle
 10
216.06489
 20
44.686947
 30
0.0
 40
2.720294
100
AcDbArc
 50
-79.408609
 51
79.408609
  0
LINE
  5
361
100
AcDbEntity
  8
0
  6
Continuous
 62
   174
100
AcDbLine
 10
77.56489
 20
34.203295
 30
0.0
 11
77.56489
 21
37.203033
 31
0.0
  0
LINE
  5
362
100
AcDbEntity
  8
0
  6
Continuous
 62
   174
100
AcDbLine
 10
54.56489
 20
52.202145
 30
0.0
 11
54.56489
 21
55.202095
 31
0.0
  0
LINE
  5
363
100
AcDbEntity
  8
0
  6
Continuous
 62
   174
100
AcDbLine
 10
264.76489
 20
36.074317
 30
0.0
 11
258.56489
 21
36.074317
 31
0.0
  0
LWPOLYLINE
  5
364
100
AcDbEntity
  8
0
  6
Continuous
 62
   174
100
AcDbPolyline
 90
        6
 70
   128
 10
256.56489
 20
50.931945
 10
256.392547
 20
49.975983
 10
255.940747
 20
48.849544
 10
255.277677
 20
47.568553
 10
254.469146
 20
46.174537
 10
253.56489
 20
44.686947
  0
LINE
  5
365
100
AcDbEntity
  8
0
  6
HIDDEN
 62
   174
100
AcDbLine
 10
51.56489
 20
37.203033
 30
0.0
 11
51.56489
 21
52.202145
 31
0.0
  0
LINE
  5
366
100
AcDbEntity
  8
0
  6
Continuous
 62
   174
100
AcDbLine
 10
49.56489
 20
54.589657
 30
0.0
 11
49.56489
 21
54.702033
 31
0.0
  0
ARC
  5
367
100
AcDbEntity
  8
0
  6
Continuous
 62
   174
100
AcDbCircle
 10
216.06489
 20
44.686947
 30
0.0
 40
3.0
100
AcDbArc
 50
-360.0
 51
-180.0
  0
ARC
  5
368
100
AcDbEntity
  8
0
  6
Continuous
 62
   174
100
AcDbCircle
 10
230.56489
 20
37.186947
 30
0.0
 40
3.0
100
AcDbArc
 50
-180.0
 51
-90.0
  0
LINE
  5
369
100
AcDbEntity
  8
0
  6
Continuous
 62
   174
100
AcDbLine
 10
32.75771
 20
36.938074
 30
0.0
 11
35.86489
 21
36.938074
 31
0.0
  0
LWPOLYLINE
  5
36A
100
AcDbEntity
  8
0
  6
HIDDEN
 62
   174
100
AcDbPolyline
 90
        4
 70
   128
 10
275.37207
 20
36.848141
 10
275.69997
 20
37.93311
 10
275.932724
 20
38.992109
 10
276.06489
 20
40.040353
  0
LINE
  5
36B
100
AcDbEntity
  8
0
  6
Continuous
 62
   174
100
AcDbLine
 10
43.36489
 20
53.299577
 30
0.0
 11
43.36489
 21
52.686947
 31
0.0
  0
LINE
  5
36C
100
AcDbEntity
  8
0
  6
Continuous
 62
   174
100
AcDbLine
 10
50.06489
 20
54.686947
 30
0.0
 11
51.06489
 21
54.686947
 31
0.0
  0
LINE
  5
36D
100
AcDbEntity
  8
0
  6
Continuous
 62
   174
100
AcDbLine
 10
49.56489
 20
54.686947
 30
0.0
 11
50.06489
 21
54.686947
 31
0.0
  0
LINE
  5
36E
100
AcDbEntity
  8
0
  6
Continuous
 62
   174
100
AcDbLine
 10
49.56489
 20
34.703146
 30
0.0
 11
49.56489
 21
34.815734
 31
0.0
  0
LINE
  5
36F
100
AcDbEntity
  8
0
  6
Continuous
 62
   174
100
AcDbLine
 10
51.06489
 20
33.686947
 30
0.0
 11
51.06489
 21
36.686947
 31
0.0
  0
LINE
  5
370
100
AcDbEntity
  8
0
  6
HIDDEN
 62
   174
100
AcDbLine
 10
35.86489
 20
44.597014
 30
0.0
 11
32.75771
 21
44.597014
 31
0.0
  0
LINE
  5
371
100
AcDbEntity
  8
0
  6
HIDDEN
 62
   174
100
AcDbLine
 10
43.36489
 20
39.60747
 30
0.0
 11
43.36489
 21
36.686947
 31
0.0
  0
ARC
  5
372
100
AcDbEntity
  8
0
  6
Continuous
 62
   174
100
AcDbCircle
 10
253.56489
 20
52.186947
 30
0.0
 40
3.0
100
AcDbArc
 50
0.0
 51
90.0
  0
LINE
  5
373
100
AcDbEntity
  8
0
  6
Continuous
 62
   174
100
AcDbLine
 10
256.56489
 20
50.931945
 30
0.0
 11
256.56489
 21
52.186947
 31
0.0
  0
ARC
  5
374
100
AcDbEntity
  8
0
  6
Continuous
 62
   174
100
AcDbCircle
 10
138.06489
 20
44.686947
 30
0.0
 40
10.48
100
AcDbArc
 50
-180.0
 51
-61.197359
  0
LINE
  5
375
100
AcDbEntity
  8
0
  6
HIDDEN
 62
   174
100
AcDbLine
 10
257.06489
 20
52.686947
 30
0.0
 11
257.06489
 21
36.686947
 31
0.0
  0
LINE
  5
376
100
AcDbEntity
  8
0
  6
Continuous
 62
   174
100
AcDbLine
 10
80.56489
 20
37.186947
 30
0.0
 11
80.56489
 21
52.186947
 31
0.0
  0
LINE
  5
377
100
AcDbEntity
  8
0
  6
Continuous
 62
   174
100
AcDbLine
 10
54.56489
 20
52.186947
 30
0.0
 11
77.56489
 21
52.186947
 31
0.0
  0
ARC
  5
378
100
AcDbEntity
  8
0
  6
Continuous
 62
   174
100
AcDbCircle
 10
216.06489
 20
44.686947
 30
0.0
 40
2.720294
100
AcDbArc
 50
-259.408609
 51
-100.591391
  0
LINE
  5
379
100
AcDbEntity
  8
0
  6
Continuous
 62
   174
100
AcDbLine
 10
230.582967
 20
37.186947
 30
0.0
 11
227.583017
 21
37.186947
 31
0.0
  0
LINE
  5
37A
100
AcDbEntity
  8
0
  6
Continuous
 62
   174
100
AcDbLine
 10
230.56489
 20
37.203033
 30
0.0
 11
230.56489
 21
34.203295
 31
0.0
  0
ENDBLK
  5
37B
100
AcDbEntity
  8
0
100
AcDbBlockEnd
  0
BLOCK
  5
37E
100
AcDbEntity
  8
0
100
AcDbBlockBegin
  2
*B3
 70
     0
 10
0.0
 20
0.0
 30
0.0
  3
*B3
  1

  0
LINE
  5
37F
100
AcDbEntity
  8
0
  6
Continuous
 62
   172
100
AcDbLine
 10
68.880078
 20
126.041784
 30
0.0
 11
45.291479
 21
85.928514
 31
0.0
  0
LINE
  5
380
100
AcDbEntity
  8
0
  6
Continuous
 62
   172
100
AcDbLine
 10
45.291479
 20
85.928514
 30
0.0
 11
34.080078
 21
85.928514
 31
0.0
  0
ENDBLK
  5
381
100
AcDbEntity
  8
0
100
AcDbBlockEnd
  0
BLOCK
  5
384
100
AcDbEntity
  8
0
100
AcDbBlockBegin
  2
*B4
 70
     0
 10
0.0
 20
0.0
 30
0.0
  3
*B4
  1

  0
LINE
  5
385
100
AcDbEntity
  8
0
  6
Continuous
 62
   172
100
AcDbLine
 10
42.961938
 20
88.359924
 30
0.0
 11
40.561938
 21
89.241784
 31
0.0
  0
LINE
  5
386
100
AcDbEntity
  8
0
  6
Continuous
 62
   172
100
AcDbLine
 10
42.961938
 20
88.359924
 30
0.0
 11
40.561938
 21
87.641784
 31
0.0
  0
LINE
  5
387
100
AcDbEntity
  8
0
  6
Continuous
 62
   172
100
AcDbLine
 10
41.361938
 20
88.359924
 30
0.0
 11
42.961938
 21
88.359924
 31
0.0
  0
LINE
  5
388
100
AcDbEntity
  8
0
  6
Continuous
 62
   172
100
AcDbLine
 10
42.961938
 20
102.123644
 30
0.0
 11
40.561938
 21
101.241784
 31
0.0
  0
LINE
  5
389
100
AcDbEntity
  8
0
  6
Continuous
 62
   172
100
AcDbLine
 10
42.961938
 20
102.123644
 30
0.0
 11
40.561938
 21
102.841784
 31
0.0
  0
LINE
  5
38A
100
AcDbEntity
  8
0
  6
Continuous
 62
   172
100
AcDbLine
 10
41.361938
 20
102.123644
 30
0.0
 11
42.961938
 21
102.123644
 31
0.0
  0
ARC
  5
38B
100
AcDbEntity
  8
0
  6
Continuous
 62
   172
100
AcDbCircle
 10
41.361938
 20
95.241784
 30
0.0
 40
6.88186
100
AcDbArc
 50
-270.0
 51
-90.0
  0
ENDBLK
  5
38C
100
AcDbEntity
  8
0
100
AcDbBlockEnd
  0
BLOCK
  5
38F
100
AcDbEntity
  8
0
100
AcDbBlockBegin
  2
*B5
 70
     0
 10
0.0
 20
0.0
 30
0.0
  3
*B5
  1

  0
ENDBLK
  5
390
100
AcDbEntity
  8
0
100
AcDbBlockEnd
  0
BLOCK
  5
392
100
AcDbEntity
  8
0
100
AcDbBlockBegin
  2
*B6
 70
     0
 10
0.0
 20
0.0
 30
0.0
  3
*B6
  1

  0
LINE
  5
393
100
AcDbEntity
  8
0
  6
Continuous
 62
     0
100
AcDbLine
 10
220.018138
 20
154.968806
 30
0.0
 11
220.018138
 21
114.971031
 31
0.0
  0
SOLID
  5
394
100
AcDbEntity
  8
0
  6
Continuous
 62
     0
100
AcDbTrace
 10
220.618043
 20
151.469006
 30
0.0
 11
220.018138
 21
154.968806
 31
0.0
 12
219.41802
 22
151.469006
 32
0.0
 13
219.41802
 23
151.469006
 33
0.0
  0
SOLID
  5
395
100
AcDbEntity
  8
0
  6
Continuous
 62
     0
100
AcDbTrace
 10
219.41802
 20
118.470831
 30
0.0
 11
220.018138
 21
114.971031
 31
0.0
 12
220.618043
 22
118.470831
 32
0.0
 13
220.618043
 23
118.470831
 33
0.0
  0
ENDBLK
  5
396
100
AcDbEntity
  8
0
100
AcDbBlockEnd
  0
BLOCK
  5
399
100
AcDbEntity
  8
0
100
AcDbBlockBegin
  2
*B7
 70
     0
 10
0.0
 20
0.0
 30
0.0
  3
*B7
  1

  0
LINE
  5
39A
100
AcDbEntity
  8
0
  6
Continuous
 62
     0
100
AcDbLine
 10
97.08307
 20
92.012981
 30
0.0
 11
122.083007
 21
92.012981
 31
0.0
  0
SOLID
  5
39B
100
AcDbEntity
  8
0
  6
Continuous
 62
     0
100
AcDbTrace
 10
100.583083
 20
92.612886
 30
0.0
 11
97.08307
 21
92.012981
 31
0.0
 12
100.583083
 22
91.413076
 32
0.0
 13
100.583083
 23
91.413076
 33
0.0
  0
SOLID
  5
39C
100
AcDbEntity
  8
0
  6
Continuous
 62
     0
100
AcDbTrace
 10
118.582995
 20
91.413076
 30
0.0
 11
122.083007
 21
92.012981
 31
0.0
 12
118.582995
 22
92.612886
 32
0.0
 13
118.582995
 23
92.612886
 33
0.0
  0
ENDBLK
  5
39D
100
AcDbEntity
  8
0
100
AcDbBlockEnd
  0
BLOCK
  5
3A0
100
AcDbEntity
  8
0
100
AcDbBlockBegin
  2
*B8
 70
     0
 10
0.0
 20
0.0
 30
0.0
  3
*B8
  1

  0
LINE
  5
3A1
100
AcDbEntity
  8
0
  6
Continuous
 62
     0
100
AcDbLine
 10
110.082995
 20
68.014443
 30
0.0
 11
198.082942
 21
68.014443
 31
0.0
  0
SOLID
  5
3A2
100
AcDbEntity
  8
0
  6
Continuous
 62
     0
100
AcDbTrace
 10
113.583007
 20
68.614348
 30
0.0
 11
110.082995
 21
68.014443
 31
0.0
 12
113.583007
 22
67.414326
 32
0.0
 13
113.583007
 23
67.414326
 33
0.0
  0
SOLID
  5
3A3
100
AcDbEntity
  8
0
  6
Continuous
 62
     0
100
AcDbTrace
 10
194.58293
 20
67.414326
 30
0.0
 11
198.082942
 21
68.014443
 31
0.0
 12
194.58293
 22
68.614348
 32
0.0
 13
194.58293
 23
68.614348
 33
0.0
  0
ENDBLK
  5
3A4
100
AcDbEntity
  8
0
100
AcDbBlockEnd
  0
BLOCK
  5
3A7
100
AcDbEntity
  8
0
100
AcDbBlockBegin
  2
*B9
 70
     0
 10
0.0
 20
0.0
 30
0.0
  3
*B9
  1

  0
LINE
  5
3A8
100
AcDbEntity
  8
0
  6
Continuous
 62
     0
100
AcDbLine
 10
186.08293
 20
92.012981
 30
0.0
 11
211.08308
 21
92.012981
 31
0.0
  0
SOLID
  5
3A9
100
AcDbEntity
  8
0
  6
Continuous
 62
     0
100
AcDbTrace
 10
189.582943
 20
92.612886
 30
0.0
 11
186.08293
 21
92.012981
 31
0.0
 12
189.582943
 22
91.413076
 32
0.0
 13
189.582943
 23
91.413076
 33
0.0
  0
SOLID
  5
3AA
100
AcDbEntity
  8
0
  6
Continuous
 62
     0
100
AcDbTrace
 10
207.583067
 20
91.413076
 30
0.0
 11
211.08308
 21
92.012981
 31
0.0
 12
207.583067
 22
92.612886
 32
0.0
 13
207.583067
 23
92.612886
 33
0.0
  0
ENDBLK
  5
3AB
100
AcDbEntity
  8
0
100
AcDbBlockEnd
  0
BLOCK
  5
3AE
100
AcDbEntity
  8
0
100
AcDbBlockBegin
  2
*B10
 70
     0
 10
0.0
 20
0.0
 30
0.0
  3
*B10
  1

  0
LINE
  5
3AF
100
AcDbEntity
  8
0
  6
Continuous
 62
     0
100
AcDbLine
 10
214.285901
 20
16.017294
 30
0.0
 11
188.983038
 21
16.017294
 31
0.0
  0
SOLID
  5
3B0
100
AcDbEntity
  8
0
  6
Continuous
 62
     0
100
AcDbTrace
 10
203.683047
 20
16.617199
 30
0.0
 11
200.183035
 21
16.017294
 31
0.0
 12
203.683047
 22
15.417389
 32
0.0
 13
203.683047
 23
15.417389
 33
0.0
  0
SOLID
  5
3B1
100
AcDbEntity
  8
0
  6
Continuous
 62
     0
100
AcDbTrace
 10
192.48305
 20
15.417389
 30
0.0
 11
195.983063
 21
16.017294
 31
0.0
 12
192.48305
 22
16.617199
 32
0.0
 13
192.48305
 23
16.617199
 33
0.0
  0
ENDBLK
  5
3B2
100
AcDbEntity
  8
0
100
AcDbBlockEnd
  0
BLOCK
  5
3B5
100
AcDbEntity
  8
0
100
AcDbBlockBegin
  2
*B11
 70
     0
 10
0.0
 20
0.0
 30
0.0
  3
*B11
  1

  0
LINE
  5
3B6
100
AcDbEntity
  8
0
  6
Continuous
 62
     0
100
AcDbLine
 10
121.683
 20
16.017294
 30
0.0
 11
154.482976
 21
16.017294
 31
0.0
  0
SOLID
  5
3B7
100
AcDbEntity
  8
0
  6
Continuous
 62
     0
100
AcDbTrace
 10
125.183012
 20
15.417389
 30
0.0
 11
128.683024
 21
16.017294
 31
0.0
 12
125.183012
 22
16.617199
 32
0.0
 13
125.183012
 23
16.617199
 33
0.0
  0
SOLID
  5
3B8
100
AcDbEntity
  8
0
  6
Continuous
 62
     0
100
AcDbTrace
 10
150.982964
 20
16.617199
 30
0.0
 11
147.482951
 21
16.017294
 31
0.0
 12
150.982964
 22
15.417389
 32
0.0
 13
150.982964
 23
15.417389
 33
0.0
  0
ENDBLK
  5
3B9
100
AcDbEntity
  8
0
100
AcDbBlockEnd
  0
BLOCK
  5
3BC
100
AcDbEntity
  8
0
100
AcDbBlockBegin
  2
*B12
 70
     0
 10
0.0
 20
0.0
 30
0.0
  3
*B12
  1

  0
LINE
  5
3BD
100
AcDbEntity
  8
0
  6
Continuous
 62
     0
100
AcDbLine
 10
122.083007
 20
92.012981
 30
0.0
 11
154.082969
 21
92.012981
 31
0.0
  0
SOLID
  5
3BE
100
AcDbEntity
  8
0
  6
Continuous
 62
     0
100
AcDbTrace
 10
125.583019
 20
92.612886
 30
0.0
 11
122.083007
 21
92.012981
 31
0.0
 12
125.583019
 22
91.413076
 32
0.0
 13
125.583019
 23
91.413076
 33
0.0
  0
SOLID
  5
3BF
100
AcDbEntity
  8
0
  6
Continuous
 62
     0
100
AcDbTrace
 10
150.582956
 20
91.413076
 30
0.0
 11
154.082969
 21
92.012981
 31
0.0
 12
150.582956
 22
92.612886
 32
0.0
 13
150.582956
 23
92.612886
 33
0.0
  0
ENDBLK
  5
3C0
100
AcDbEntity
  8
0
100
AcDbBlockEnd
  0
BLOCK
  5
3C3
100
AcDbEntity
  8
0
100
AcDbBlockBegin
  2
*B13
 70
     0
 10
0.0
 20
0.0
 30
0.0
  3
*B13
  1

  0
LINE
  5
3C4
100
AcDbEntity
  8
0
  6
Continuous
 62
     0
100
AcDbLine
 10
170.083056
 20
177.008305
 30
0.0
 11
211.08308
 21
177.008305
 31
0.0
  0
SOLID
  5
3C5
100
AcDbEntity
  8
0
  6
Continuous
 62
     0
100
AcDbTrace
 10
173.583068
 20
177.60821
 30
0.0
 11
170.083056
 21
177.008305
 31
0.0
 12
173.583068
 22
176.408187
 32
0.0
 13
173.583068
 23
176.408187
 33
0.0
  0
SOLID
  5
3C6
100
AcDbEntity
  8
0
  6
Continuous
 62
     0
100
AcDbTrace
 10
207.583067
 20
176.408187
 30
0.0
 11
211.08308
 21
177.008305
 31
0.0
 12
207.583067
 22
177.60821
 32
0.0
 13
207.583067
 23
177.60821
 33
0.0
  0
ENDBLK
  5
3C7
100
AcDbEntity
  8
0
100
AcDbBlockEnd
  0
BLOCK
  5
3CA
100
AcDbEntity
  8
0
100
AcDbBlockBegin
  2
*B14
 70
     0
 10
0.0
 20
0.0
 30
0.0
  3
*B14
  1

  0
LINE
  5
3CB
100
AcDbEntity
  8
0
  6
Continuous
 62
     0
100
AcDbLine
 10
170.083056
 20
177.008305
 30
0.0
 11
138.083094
 21
177.008305
 31
0.0
  0
SOLID
  5
3CC
100
AcDbEntity
  8
0
  6
Continuous
 62
     0
100
AcDbTrace
 10
166.583043
 20
176.408187
 30
0.0
 11
170.083056
 21
177.008305
 31
0.0
 12
166.583043
 22
177.60821
 32
0.0
 13
166.583043
 23
177.60821
 33
0.0
  0
SOLID
  5
3CD
100
AcDbEntity
  8
0
  6
Continuous
 62
     0
100
AcDbTrace
 10
141.583107
 20
177.60821
 30
0.0
 11
138.083094
 21
177.008305
 31
0.0
 12
141.583107
 22
176.408187
 32
0.0
 13
141.583107
 23
176.408187
 33
0.0
  0
ENDBLK
  5
3CE
100
AcDbEntity
  8
0
100
AcDbBlockEnd
  0
BLOCK
  5
3D1
100
AcDbEntity
  8
0
100
AcDbBlockBegin
  2
*B15
 70
     0
 10
0.0
 20
0.0
 30
0.0
  3
*B15
  1

  0
LINE
  5
3D2
100
AcDbEntity
  8
0
  6
Continuous
 62
     0
100
AcDbLine
 10
23.018168
 20
181.966868
 30
0.0
 11
23.018168
 21
104.971481
 31
0.0
  0
SOLID
  5
3D3
100
AcDbEntity
  8
0
  6
Continuous
 62
     0
100
AcDbTrace
 10
23.618073
 20
178.467068
 30
0.0
 11
23.018168
 21
181.966868
 31
0.0
 12
22.418263
 22
178.467068
 32
0.0
 13
22.418263
 23
178.467068
 33
0.0
  0
SOLID
  5
3D4
100
AcDbEntity
  8
0
  6
Continuous
 62
     0
100
AcDbTrace
 10
22.418263
 20
108.471281
 30
0.0
 11
23.018168
 21
104.971481
 31
0.0
 12
23.618073
 22
108.471281
 32
0.0
 13
23.618073
 23
108.471281
 33
0.0
  0
ENDBLK
  5
3D5
100
AcDbEntity
  8
0
100
AcDbBlockEnd
  0
BLOCK
  5
3D8
100
AcDbEntity
  8
0
100
AcDbBlockBegin
  2
*B16
 70
     0
 10
0.0
 20
0.0
 30
0.0
  3
*B16
  1

  0
LINE
  5
3D9
100
AcDbEntity
  8
0
  6
Continuous
 62
     0
100
AcDbLine
 10
243.018037
 20
104.971481
 30
0.0
 11
243.018037
 21
164.968143
 31
0.0
  0
SOLID
  5
3DA
100
AcDbEntity
  8
0
  6
Continuous
 62
     0
100
AcDbTrace
 10
242.418132
 20
108.471281
 30
0.0
 11
243.018037
 21
104.971481
 31
0.0
 12
243.618155
 22
108.471281
 32
0.0
 13
243.618155
 23
108.471281
 33
0.0
  0
SOLID
  5
3DB
100
AcDbEntity
  8
0
  6
Continuous
 62
     0
100
AcDbTrace
 10
243.618155
 20
161.468343
 30
0.0
 11
243.018037
 21
164.968143
 31
0.0
 12
242.418132
 22
161.468343
 32
0.0
 13
242.418132
 23
161.468343
 33
0.0
  0
ENDBLK
  5
3DC
100
AcDbEntity
  8
0
100
AcDbBlockEnd
  0
BLOCK
  5
3DF
100
AcDbEntity
  8
0
100
AcDbBlockBegin
  2
*B17
 70
     0
 10
0.0
 20
0.0
 30
0.0
  3
*B17
  1

  0
LINE
  5
3E0
100
AcDbEntity
  8
0
  6
Continuous
 62
     0
100
AcDbLine
 10
287.018011
 20
29.703371
 30
0.0
 11
287.018011
 21
59.701808
 31
0.0
  0
SOLID
  5
3E1
100
AcDbEntity
  8
0
  6
Continuous
 62
     0
100
AcDbTrace
 10
286.418106
 20
33.203171
 30
0.0
 11
287.018011
 21
29.703371
 31
0.0
 12
287.618129
 22
33.203171
 32
0.0
 13
287.618129
 23
33.203171
 33
0.0
  0
SOLID
  5
3E2
100
AcDbEntity
  8
0
  6
Continuous
 62
     0
100
AcDbTrace
 10
287.618129
 20
56.202008
 30
0.0
 11
287.018011
 21
59.701808
 31
0.0
 12
286.418106
 22
56.202008
 32
0.0
 13
286.418106
 23
56.202008
 33
0.0
  0
ENDBLK
  5
3E3
100
AcDbEntity
  8
0
100
AcDbBlockEnd
  0
BLOCK
  5
3E6
100
AcDbEntity
  8
0
100
AcDbBlockBegin
  2
*B18
 70
     0
 10
0.0
 20
0.0
 30
0.0
  3
*B18
  1

  0
LINE
  5
3E7
100
AcDbEntity
  8
0
  6
Continuous
 62
     0
100
AcDbLine
 10
81.082983
 20
80.013606
 30
0.0
 11
227.082954
 21
80.013606
 31
0.0
  0
SOLID
  5
3E8
100
AcDbEntity
  8
0
  6
Continuous
 62
     0
100
AcDbTrace
 10
84.582996
 20
80.613723
 30
0.0
 11
81.082983
 21
80.013606
 31
0.0
 12
84.582996
 22
79.413701
 32
0.0
 13
84.582996
 23
79.413701
 33
0.0
  0
SOLID
  5
3E9
100
AcDbEntity
  8
0
  6
Continuous
 62
     0
100
AcDbTrace
 10
223.582942
 20
79.413701
 30
0.0
 11
227.082954
 21
80.013606
 31
0.0
 12
223.582942
 22
80.613723
 32
0.0
 13
223.582942
 23
80.613723
 33
0.0
  0
ENDBLK
  5
3EA
100
AcDbEntity
  8
0
100
AcDbBlockEnd
  0
BLOCK
  5
3ED
100
AcDbEntity
  8
0
100
AcDbBlockBegin
  2
*B19
 70
     0
 10
0.0
 20
0.0
 30
0.0
  3
*B19
  1

  0
LINE
  5
3EE
100
AcDbEntity
  8
0
  6
Continuous
 62
     0
100
AcDbLine
 10
80.583133
 20
191.007505
 30
0.0
 11
32.083022
 21
191.007505
 31
0.0
  0
SOLID
  5
3EF
100
AcDbEntity
  8
0
  6
Continuous
 62
     0
100
AcDbTrace
 10
77.083121
 20
190.407387
 30
0.0
 11
80.583133
 21
191.007505
 31
0.0
 12
77.083121
 22
191.60741
 32
0.0
 13
77.083121
 23
191.60741
 33
0.0
  0
SOLID
  5
3F0
100
AcDbEntity
  8
0
  6
Continuous
 62
     0
100
AcDbTrace
 10
35.583035
 20
191.60741
 30
0.0
 11
32.083022
 21
191.007505
 31
0.0
 12
35.583035
 22
190.407387
 32
0.0
 13
35.583035
 23
190.407387
 33
0.0
  0
ENDBLK
  5
3F1
100
AcDbEntity
  8
0
100
AcDbBlockEnd
  0
BLOCK
  5
3F4
100
AcDbEntity
  8
0
100
AcDbBlockBegin
  2
*B20
 70
     0
 10
0.0
 20
0.0
 30
0.0
  3
*B20
  1

  0
LINE
  5
3F5
100
AcDbEntity
  8
0
  6
Continuous
 62
     0
100
AcDbLine
 10
154.082969
 20
92.012981
 30
0.0
 11
186.08293
 21
92.012981
 31
0.0
  0
SOLID
  5
3F6
100
AcDbEntity
  8
0
  6
Continuous
 62
     0
100
AcDbTrace
 10
157.582981
 20
92.612886
 30
0.0
 11
154.082969
 21
92.012981
 31
0.0
 12
157.582981
 22
91.413076
 32
0.0
 13
157.582981
 23
91.413076
 33
0.0
  0
SOLID
  5
3F7
100
AcDbEntity
  8
0
  6
Continuous
 62
     0
100
AcDbTrace
 10
182.582918
 20
91.413076
 30
0.0
 11
186.08293
 21
92.012981
 31
0.0
 12
182.582918
 22
92.612886
 32
0.0
 13
182.582918
 23
92.612886
 33
0.0
  0
ENDBLK
  5
3F8
100
AcDbEntity
  8
0
100
AcDbBlockEnd
  0
BLOCK
  5
3FB
100
AcDbEntity
  8
0
100
AcDbBlockBegin
  2
*B21
 70
     0
 10
0.0
 20
0.0
 30
0.0
  3
*B21
  1

  0
LINE
  5
3FC
100
AcDbEntity
  8
0
  6
Continuous
 62
     0
100
AcDbLine
 10
191.082918
 20
68.014443
 30
0.0
 11
218.082892
 21
68.014443
 31
0.0
  0
SOLID
  5
3FD
100
AcDbEntity
  8
0
  6
Continuous
 62
     0
100
AcDbTrace
 10
194.58293
 20
67.414326
 30
0.0
 11
198.082942
 21
68.014443
 31
0.0
 12
194.58293
 22
68.614348
 32
0.0
 13
194.58293
 23
68.614348
 33
0.0
  0
SOLID
  5
3FE
100
AcDbEntity
  8
0
  6
Continuous
 62
     0
100
AcDbTrace
 10
214.58288
 20
68.614348
 30
0.0
 11
211.08308
 21
68.014443
 31
0.0
 12
214.58288
 22
67.414326
 32
0.0
 13
214.58288
 23
67.414326
 33
0.0
  0
ENDBLK
  5
3FF
100
AcDbEntity
  8
0
100
AcDbBlockEnd
  0
BLOCK
  5
402
100
AcDbEntity
  8
0
100
AcDbBlockBegin
  2
*B22
 70
     0
 10
0.0
 20
0.0
 30
0.0
  3
*B22
  1

  0
LINE
  5
403
100
AcDbEntity
  8
0
  6
Continuous
 62
     0
100
AcDbLine
 10
122.083007
 20
190.00738
 30
0.0
 11
186.08293
 21
190.00738
 31
0.0
  0
SOLID
  5
404
100
AcDbEntity
  8
0
  6
Continuous
 62
     0
100
AcDbTrace
 10
125.583019
 20
190.607497
 30
0.0
 11
122.083007
 21
190.00738
 31
0.0
 12
125.583019
 22
189.407475
 32
0.0
 13
125.583019
 23
189.407475
 33
0.0
  0
SOLID
  5
405
100
AcDbEntity
  8
0
  6
Continuous
 62
     0
100
AcDbTrace
 10
182.582918
 20
189.407475
 30
0.0
 11
186.08293
 21
190.00738
 31
0.0
 12
182.582918
 22
190.607497
 32
0.0
 13
182.582918
 23
190.607497
 33
0.0
  0
ENDBLK
  5
406
100
AcDbEntity
  8
0
100
AcDbBlockEnd
  0
BLOCK
  5
409
100
AcDbEntity
  8
0
100
AcDbBlockBegin
  2
*B23
 70
     0
 10
0.0
 20
0.0
 30
0.0
  3
*B23
  1

  0
LINE
  5
40A
100
AcDbEntity
  8
0
  6
Continuous
 62
     0
100
AcDbLine
 10
101.22165
 20
177.008305
 30
0.0
 11
132.382934
 21
177.008305
 31
0.0
  0
SOLID
  5
40B
100
AcDbEntity
  8
0
  6
Continuous
 62
     0
100
AcDbTrace
 10
115.283092
 20
176.408187
 30
0.0
 11
118.783105
 21
177.008305
 31
0.0
 12
115.283092
 22
177.60821
 32
0.0
 13
115.283092
 23
177.60821
 33
0.0
  0
SOLID
  5
40C
100
AcDbEntity
  8
0
  6
Continuous
 62
     0
100
AcDbTrace
 10
128.882922
 20
177.60821
 30
0.0
 11
125.383122
 21
177.008305
 31
0.0
 12
128.882922
 22
176.408187
 32
0.0
 13
128.882922
 23
176.408187
 33
0.0
  0
ENDBLK
  5
40D
100
AcDbEntity
  8
0
100
AcDbBlockEnd
  0
BLOCK
  5
410
100
AcDbEntity
  8
0
100
AcDbBlockBegin
  2
*B24
 70
     0
 10
0.0
 20
0.0
 30
0.0
  3
*B24
  1

  0
LINE
  5
411
100
AcDbEntity
  8
0
  6
Continuous
 62
     0
100
AcDbLine
 10
227.583017
 20
191.007505
 30
0.0
 11
276.082915
 21
191.007505
 31
0.0
  0
SOLID
  5
412
100
AcDbEntity
  8
0
  6
Continuous
 62
     0
100
AcDbTrace
 10
231.083029
 20
191.60741
 30
0.0
 11
227.583017
 21
191.007505
 31
0.0
 12
231.083029
 22
190.407387
 32
0.0
 13
231.083029
 23
190.407387
 33
0.0
  0
SOLID
  5
413
100
AcDbEntity
  8
0
  6
Continuous
 62
     0
100
AcDbTrace
 10
272.582903
 20
190.407387
 30
0.0
 11
276.082915
 21
191.007505
 31
0.0
 12
272.582903
 22
191.60741
 32
0.0
 13
272.582903
 23
191.60741
 33
0.0
  0
ENDBLK
  5
414
100
AcDbEntity
  8
0
100
AcDbBlockEnd
  0
BLOCK
  5
417
100
AcDbEntity
  8
0
100
AcDbBlockBegin
  2
*B25
 70
     0
 10
0.0
 20
0.0
 30
0.0
  3
*B25
  1

  0
LINE
  5
418
100
AcDbEntity
  8
0
  6
Continuous
 62
     0
100
AcDbLine
 10
121.018091
 20
34.828267
 30
0.0
 11
121.018091
 21
54.826942
 31
0.0
  0
SOLID
  5
419
100
AcDbEntity
  8
0
  6
Continuous
 62
     0
100
AcDbTrace
 10
120.418186
 20
38.328067
 30
0.0
 11
121.018091
 21
34.828267
 31
0.0
 12
121.618208
 22
38.328067
 32
0.0
 13
121.618208
 23
38.328067
 33
0.0
  0
SOLID
  5
41A
100
AcDbEntity
  8
0
  6
Continuous
 62
     0
100
AcDbTrace
 10
121.618208
 20
51.327142
 30
0.0
 11
121.018091
 21
54.826942
 31
0.0
 12
120.418186
 22
51.327142
 32
0.0
 13
120.418186
 23
51.327142
 33
0.0
  0
ENDBLK
  5
41B
100
AcDbEntity
  8
0
100
AcDbBlockEnd
  0
BLOCK
  5
41E
100
AcDbEntity
  8
0
100
AcDbBlockBegin
  2
*B26
 70
     0
 10
0.0
 20
0.0
 30
0.0
  3
*B26
  1

  0
LINE
  5
41F
100
AcDbEntity
  8
0
  6
Continuous
 62
     0
100
AcDbLine
 10
23.018168
 20
33.703233
 30
0.0
 11
23.018168
 21
55.701945
 31
0.0
  0
SOLID
  5
420
100
AcDbEntity
  8
0
  6
Continuous
 62
     0
100
AcDbTrace
 10
22.418263
 20
37.203033
 30
0.0
 11
23.018168
 21
33.703233
 31
0.0
 12
23.618073
 22
37.203033
 32
0.0
 13
23.618073
 23
37.203033
 33
0.0
  0
SOLID
  5
421
100
AcDbEntity
  8
0
  6
Continuous
 62
     0
100
AcDbTrace
 10
23.618073
 20
52.202145
 30
0.0
 11
23.018168
 21
55.701945
 31
0.0
 12
22.418263
 22
52.202145
 32
0.0
 13
22.418263
 23
52.202145
 33
0.0
  0
ENDBLK
  5
422
100
AcDbEntity
  8
0
100
AcDbBlockEnd
  0
BLOCK
  5
425
100
AcDbEntity
  8
0
100
AcDbBlockBegin
  2
*B27
 70
     0
 10
0.0
 20
0.0
 30
0.0
  3
*B27
  1

  0
LINE
  5
426
100
AcDbEntity
  8
0
  6
Continuous
 62
     8
100
AcDbLine
 10
97.08307
 20
90.013156
 30
0.0
 11
97.08307
 21
103.971569
 31
0.0
  0
ENDBLK
  5
427
100
AcDbEntity
  8
0
100
AcDbBlockEnd
  0
BLOCK
  5
42A
100
AcDbEntity
  8
0
100
AcDbBlockBegin
  2
*B28
 70
     0
 10
0.0
 20
0.0
 30
0.0
  3
*B28
  1

  0
LINE
  5
42B
100
AcDbEntity
  8
0
  6
Continuous
 62
     8
100
AcDbLine
 10
198.082942
 20
66.014406
 30
0.0
 11
198.082942
 21
70.014268
 31
0.0
  0
LINE
  5
42C
100
AcDbEntity
  8
0
  6
Continuous
 62
     8
100
AcDbLine
 10
198.082942
 20
29.728437
 30
0.0
 11
198.082942
 21
33.328292
 31
0.0
  0
LINE
  5
42D
100
AcDbEntity
  8
0
  6
Continuous
 62
     8
100
AcDbLine
 10
198.082942
 20
36.32803
 30
0.0
 11
198.082942
 21
41.499874
 31
0.0
  0
LINE
  5
42E
100
AcDbEntity
  8
0
  6
Continuous
 62
     8
100
AcDbLine
 10
198.082942
 20
42.499786
 30
0.0
 11
198.082942
 21
43.499699
 31
0.0
  0
LINE
  5
42F
100
AcDbEntity
  8
0
  6
Continuous
 62
     8
100
AcDbLine
 10
198.082942
 20
44.499611
 30
0.0
 11
198.082942
 21
49.671455
 31
0.0
  0
LINE
  5
430
100
AcDbEntity
  8
0
  6
Continuous
 62
     8
100
AcDbLine
 10
198.082942
 20
50.671368
 30
0.0
 11
198.082942
 21
51.67128
 31
0.0
  0
LINE
  5
431
100
AcDbEntity
  8
0
  6
Continuous
 62
     8
100
AcDbLine
 10
198.082942
 20
52.671193
 30
0.0
 11
198.082942
 21
57.842824
 31
0.0
  0
LINE
  5
432
100
AcDbEntity
  8
0
  6
Continuous
 62
     8
100
AcDbLine
 10
198.082942
 20
58.842949
 30
0.0
 11
198.082942
 21
59.842862
 31
0.0
  0
LINE
  5
433
100
AcDbEntity
  8
0
  6
Continuous
 62
     8
100
AcDbLine
 10
198.082942
 20
60.842774
 30
0.0
 11
198.082942
 21
66.014406
 31
0.0
  0
ENDBLK
  5
434
100
AcDbEntity
  8
0
100
AcDbBlockEnd
  0
BLOCK
  5
437
100
AcDbEntity
  8
0
100
AcDbBlockBegin
  2
*B29
 70
     0
 10
0.0
 20
0.0
 30
0.0
  3
*B29
  1

  0
LINE
  5
438
100
AcDbEntity
  8
0
  6
Continuous
 62
     8
100
AcDbLine
 10
198.082942
 20
101.971744
 30
0.0
 11
198.082942
 21
109.471406
 31
0.0
  0
LINE
  5
439
100
AcDbEntity
  8
0
  6
Continuous
 62
     8
100
AcDbLine
 10
198.082942
 20
110.471319
 30
0.0
 11
198.082942
 21
111.471231
 31
0.0
  0
LINE
  5
43A
100
AcDbEntity
  8
0
  6
Continuous
 62
     8
100
AcDbLine
 10
198.082942
 20
112.471144
 30
0.0
 11
198.082942
 21
119.970806
 31
0.0
  0
ENDBLK
  5
43B
100
AcDbEntity
  8
0
100
AcDbBlockEnd
  0
BLOCK
  5
43E
100
AcDbEntity
  8
0
100
AcDbBlockBegin
  2
*B30
 70
     0
 10
0.0
 20
0.0
 30
0.0
  3
*B30
  1

  0
LINE
  5
43F
100
AcDbEntity
  8
0
  6
Continuous
 62
     8
100
AcDbLine
 10
147.482951
 20
14.017469
 30
0.0
 11
147.482951
 21
43.70257
 31
0.0
  0
ENDBLK
  5
440
100
AcDbEntity
  8
0
100
AcDbBlockEnd
  0
BLOCK
  5
443
100
AcDbEntity
  8
0
100
AcDbBlockBegin
  2
*B31
 70
     0
 10
0.0
 20
0.0
 30
0.0
  3
*B31
  1

  0
LINE
  5
444
100
AcDbEntity
  8
0
  6
Continuous
 62
     8
100
AcDbLine
 10
227.583017
 20
178.967343
 30
0.0
 11
227.583017
 21
193.00733
 31
0.0
  0
ENDBLK
  5
445
100
AcDbEntity
  8
0
100
AcDbBlockEnd
  0
BLOCK
  5
448
100
AcDbEntity
  8
0
100
AcDbBlockBegin
  2
*B32
 70
     0
 10
0.0
 20
0.0
 30
0.0
  3
*B32
  1

  0
LINE
  5
449
100
AcDbEntity
  8
0
  6
Continuous
 62
     8
100
AcDbLine
 10
227.082954
 20
78.013781
 30
0.0
 11
227.082954
 21
103.971569
 31
0.0
  0
ENDBLK
  5
44A
100
AcDbEntity
  8
0
100
AcDbBlockEnd
  0
BLOCK
  5
44D
100
AcDbEntity
  8
0
100
AcDbBlockBegin
  2
*B33
 70
     0
 10
0.0
 20
0.0
 30
0.0
  3
*B33
  1

  0
LINE
  5
44E
100
AcDbEntity
  8
0
  6
Continuous
 62
     8
100
AcDbLine
 10
21.018131
 20
104.971481
 30
0.0
 11
80.083071
 21
104.971481
 31
0.0
  0
ENDBLK
  5
44F
100
AcDbEntity
  8
0
100
AcDbBlockEnd
  0
BLOCK
  5
452
100
AcDbEntity
  8
0
100
AcDbBlockBegin
  2
*B34
 70
     0
 10
0.0
 20
0.0
 30
0.0
  3
*B34
  1

  0
LINE
  5
453
100
AcDbEntity
  8
0
  6
Continuous
 62
     8
100
AcDbLine
 10
228.082867
 20
104.971481
 30
0.0
 11
245.018075
 21
104.971481
 31
0.0
  0
ENDBLK
  5
454
100
AcDbEntity
  8
0
100
AcDbBlockEnd
  0
BLOCK
  5
457
100
AcDbEntity
  8
0
100
AcDbBlockBegin
  2
*B35
 70
     0
 10
0.0
 20
0.0
 30
0.0
  3
*B35
  1

  0
LINE
  5
458
100
AcDbEntity
  8
0
  6
Continuous
 62
     8
100
AcDbLine
 10
131.783029
 20
114.971031
 30
0.0
 11
136.583119
 21
114.971031
 31
0.0
  0
LINE
  5
459
100
AcDbEntity
  8
0
  6
Continuous
 62
     8
100
AcDbLine
 10
139.583069
 20
114.971031
 30
0.0
 11
144.382946
 21
114.971031
 31
0.0
  0
ENDBLK
  5
45A
100
AcDbEntity
  8
0
100
AcDbBlockEnd
  0
BLOCK
  5
45D
100
AcDbEntity
  8
0
100
AcDbBlockBegin
  2
*B36
 70
     0
 10
0.0
 20
0.0
 30
0.0
  3
*B36
  1

  0
LINE
  5
45E
100
AcDbEntity
  8
0
  6
Continuous
 62
     8
100
AcDbLine
 10
218.018101
 20
114.971031
 30
0.0
 11
222.018175
 21
114.971031
 31
0.0
  0
LINE
  5
45F
100
AcDbEntity
  8
0
  6
Continuous
 62
     8
100
AcDbLine
 10
163.782991
 20
114.971031
 30
0.0
 11
168.583081
 21
114.971031
 31
0.0
  0
LINE
  5
460
100
AcDbEntity
  8
0
  6
Continuous
 62
     8
100
AcDbLine
 10
171.583031
 20
114.971031
 30
0.0
 11
176.822215
 21
114.971031
 31
0.0
  0
LINE
  5
461
100
AcDbEntity
  8
0
  6
Continuous
 62
     8
100
AcDbLine
 10
177.822128
 20
114.971031
 30
0.0
 11
178.822253
 21
114.971031
 31
0.0
  0
LINE
  5
462
100
AcDbEntity
  8
0
  6
Continuous
 62
     8
100
AcDbLine
 10
179.822165
 20
114.971031
 30
0.0
 11
185.06135
 21
114.971031
 31
0.0
  0
LINE
  5
463
100
AcDbEntity
  8
0
  6
Continuous
 62
     8
100
AcDbLine
 10
186.061475
 20
114.971031
 30
0.0
 11
187.061387
 21
114.971031
 31
0.0
  0
LINE
  5
464
100
AcDbEntity
  8
0
  6
Continuous
 62
     8
100
AcDbLine
 10
188.0613
 20
114.971031
 30
0.0
 11
193.300484
 21
114.971031
 31
0.0
  0
LINE
  5
465
100
AcDbEntity
  8
0
  6
Continuous
 62
     8
100
AcDbLine
 10
194.300609
 20
114.971031
 30
0.0
 11
195.300522
 21
114.971031
 31
0.0
  0
LINE
  5
466
100
AcDbEntity
  8
0
  6
Continuous
 62
     8
100
AcDbLine
 10
196.300647
 20
114.971031
 30
0.0
 11
201.539831
 21
114.971031
 31
0.0
  0
LINE
  5
467
100
AcDbEntity
  8
0
  6
Continuous
 62
     8
100
AcDbLine
 10
202.539744
 20
114.971031
 30
0.0
 11
203.539656
 21
114.971031
 31
0.0
  0
LINE
  5
468
100
AcDbEntity
  8
0
  6
Continuous
 62
     8
100
AcDbLine
 10
204.539781
 20
114.971031
 30
0.0
 11
209.778966
 21
114.971031
 31
0.0
  0
LINE
  5
469
100
AcDbEntity
  8
0
  6
Continuous
 62
     8
100
AcDbLine
 10
210.778878
 20
114.971031
 30
0.0
 11
211.779003
 21
114.971031
 31
0.0
  0
LINE
  5
46A
100
AcDbEntity
  8
0
  6
Continuous
 62
     8
100
AcDbLine
 10
212.778916
 20
114.971031
 30
0.0
 11
218.018101
 21
114.971031
 31
0.0
  0
ENDBLK
  5
46B
100
AcDbEntity
  8
0
100
AcDbBlockEnd
  0
BLOCK
  5
46E
100
AcDbEntity
  8
0
100
AcDbBlockBegin
  2
*B37
 70
     0
 10
0.0
 20
0.0
 30
0.0
  3
*B37
  1

  0
LINE
  5
46F
100
AcDbEntity
  8
0
  6
Continuous
 62
     8
100
AcDbLine
 10
186.08293
 20
90.013156
 30
0.0
 11
186.08293
 21
94.012806
 31
0.0
  0
LINE
  5
470
100
AcDbEntity
  8
0
  6
Continuous
 62
     8
100
AcDbLine
 10
186.08293
 20
188.007555
 30
0.0
 11
186.08293
 21
192.007417
 31
0.0
  0
LINE
  5
471
100
AcDbEntity
  8
0
  6
Continuous
 62
     8
100
AcDbLine
 10
186.08293
 20
94.012806
 30
0.0
 11
186.08293
 21
99.935381
 31
0.0
  0
LINE
  5
472
100
AcDbEntity
  8
0
  6
Continuous
 62
     8
100
AcDbLine
 10
186.08293
 20
100.935293
 30
0.0
 11
186.08293
 21
101.935206
 31
0.0
  0
LINE
  5
473
100
AcDbEntity
  8
0
  6
Continuous
 62
     8
100
AcDbLine
 10
186.08293
 20
102.935118
 30
0.0
 11
186.08293
 21
108.857481
 31
0.0
  0
LINE
  5
474
100
AcDbEntity
  8
0
  6
Continuous
 62
     8
100
AcDbLine
 10
186.08293
 20
109.857606
 30
0.0
 11
186.08293
 21
110.857518
 31
0.0
  0
LINE
  5
475
100
AcDbEntity
  8
0
  6
Continuous
 62
     8
100
AcDbLine
 10
186.08293
 20
111.857431
 30
0.0
 11
186.08293
 21
117.779793
 31
0.0
  0
LINE
  5
476
100
AcDbEntity
  8
0
  6
Continuous
 62
     8
100
AcDbLine
 10
186.08293
 20
118.779706
 30
0.0
 11
186.08293
 21
119.779618
 31
0.0
  0
LINE
  5
477
100
AcDbEntity
  8
0
  6
Continuous
 62
     8
100
AcDbLine
 10
186.08293
 20
120.779743
 30
0.0
 11
186.08293
 21
126.702106
 31
0.0
  0
LINE
  5
478
100
AcDbEntity
  8
0
  6
Continuous
 62
     8
100
AcDbLine
 10
186.08293
 20
127.702018
 30
0.0
 11
186.08293
 21
128.701931
 31
0.0
  0
LINE
  5
479
100
AcDbEntity
  8
0
  6
Continuous
 62
     8
100
AcDbLine
 10
186.08293
 20
129.701843
 30
0.0
 11
186.08293
 21
135.624418
 31
0.0
  0
LINE
  5
47A
100
AcDbEntity
  8
0
  6
Continuous
 62
     8
100
AcDbLine
 10
186.08293
 20
136.624331
 30
0.0
 11
186.08293
 21
137.624243
 31
0.0
  0
LINE
  5
47B
100
AcDbEntity
  8
0
  6
Continuous
 62
     8
100
AcDbLine
 10
186.08293
 20
138.624156
 30
0.0
 11
186.08293
 21
144.546518
 31
0.0
  0
LINE
  5
47C
100
AcDbEntity
  8
0
  6
Continuous
 62
     8
100
AcDbLine
 10
186.08293
 20
145.546431
 30
0.0
 11
186.08293
 21
146.546556
 31
0.0
  0
LINE
  5
47D
100
AcDbEntity
  8
0
  6
Continuous
 62
     8
100
AcDbLine
 10
186.08293
 20
147.546468
 30
0.0
 11
186.08293
 21
153.468831
 31
0.0
  0
LINE
  5
47E
100
AcDbEntity
  8
0
  6
Continuous
 62
     8
100
AcDbLine
 10
186.08293
 20
156.468781
 30
0.0
 11
186.08293
 21
162.103512
 31
0.0
  0
LINE
  5
47F
100
AcDbEntity
  8
0
  6
Continuous
 62
     8
100
AcDbLine
 10
186.08293
 20
163.103424
 30
0.0
 11
186.08293
 21
164.103337
 31
0.0
  0
LINE
  5
480
100
AcDbEntity
  8
0
  6
Continuous
 62
     8
100
AcDbLine
 10
186.08293
 20
165.103462
 30
0.0
 11
186.08293
 21
170.738193
 31
0.0
  0
LINE
  5
481
100
AcDbEntity
  8
0
  6
Continuous
 62
     8
100
AcDbLine
 10
186.08293
 20
171.738105
 30
0.0
 11
186.08293
 21
172.738018
 31
0.0
  0
LINE
  5
482
100
AcDbEntity
  8
0
  6
Continuous
 62
     8
100
AcDbLine
 10
186.08293
 20
173.738143
 30
0.0
 11
186.08293
 21
179.372874
 31
0.0
  0
LINE
  5
483
100
AcDbEntity
  8
0
  6
Continuous
 62
     8
100
AcDbLine
 10
186.08293
 20
180.372786
 30
0.0
 11
186.08293
 21
181.372699
 31
0.0
  0
LINE
  5
484
100
AcDbEntity
  8
0
  6
Continuous
 62
     8
100
AcDbLine
 10
186.08293
 20
182.372611
 30
0.0
 11
186.08293
 21
188.007555
 31
0.0
  0
ENDBLK
  5
485
100
AcDbEntity
  8
0
100
AcDbBlockEnd
  0
BLOCK
  5
488
100
AcDbEntity
  8
0
100
AcDbBlockBegin
  2
*B38
 70
     0
 10
0.0
 20
0.0
 30
0.0
  3
*B38
  1

  0
LINE
  5
489
100
AcDbEntity
  8
0
  6
Continuous
 62
     8
100
AcDbLine
 10
40.383124
 20
134.969918
 30
0.0
 11
45.611687
 21
134.969918
 31
0.0
  0
LINE
  5
48A
100
AcDbEntity
  8
0
  6
Continuous
 62
     8
100
AcDbLine
 10
46.6116
 20
134.969918
 30
0.0
 11
47.611725
 21
134.969918
 31
0.0
  0
LINE
  5
48B
100
AcDbEntity
  8
0
  6
Continuous
 62
     8
100
AcDbLine
 10
48.611637
 20
134.969918
 30
0.0
 11
53.8402
 21
134.969918
 31
0.0
  0
LINE
  5
48C
100
AcDbEntity
  8
0
  6
Continuous
 62
     8
100
AcDbLine
 10
54.840113
 20
134.969918
 30
0.0
 11
55.840238
 21
134.969918
 31
0.0
  0
LINE
  5
48D
100
AcDbEntity
  8
0
  6
Continuous
 62
     8
100
AcDbLine
 10
56.84015
 20
134.969918
 30
0.0
 11
62.068713
 21
134.969918
 31
0.0
  0
LINE
  5
48E
100
AcDbEntity
  8
0
  6
Continuous
 62
     8
100
AcDbLine
 10
63.068838
 20
134.969918
 30
0.0
 11
64.068751
 21
134.969918
 31
0.0
  0
LINE
  5
48F
100
AcDbEntity
  8
0
  6
Continuous
 62
     8
100
AcDbLine
 10
65.068663
 20
134.969918
 30
0.0
 11
70.297439
 21
134.969918
 31
0.0
  0
LINE
  5
490
100
AcDbEntity
  8
0
  6
Continuous
 62
     8
100
AcDbLine
 10
71.297351
 20
134.969918
 30
0.0
 11
72.297264
 21
134.969918
 31
0.0
  0
LINE
  5
491
100
AcDbEntity
  8
0
  6
Continuous
 62
     8
100
AcDbLine
 10
73.297389
 20
134.969918
 30
0.0
 11
78.525952
 21
134.969918
 31
0.0
  0
LINE
  5
492
100
AcDbEntity
  8
0
  6
Continuous
 62
     8
100
AcDbLine
 10
79.525864
 20
134.969918
 30
0.0
 11
80.525989
 21
134.969918
 31
0.0
  0
LINE
  5
493
100
AcDbEntity
  8
0
  6
Continuous
 62
     8
100
AcDbLine
 10
81.525902
 20
134.969918
 30
0.0
 11
86.754465
 21
134.969918
 31
0.0
  0
LINE
  5
494
100
AcDbEntity
  8
0
  6
Continuous
 62
     8
100
AcDbLine
 10
87.754377
 20
134.969918
 30
0.0
 11
88.754502
 21
134.969918
 31
0.0
  0
LINE
  5
495
100
AcDbEntity
  8
0
  6
Continuous
 62
     8
100
AcDbLine
 10
89.754415
 20
134.969918
 30
0.0
 11
94.982978
 21
134.969918
 31
0.0
  0
LINE
  5
496
100
AcDbEntity
  8
0
  6
Continuous
 62
     8
100
AcDbLine
 10
95.983103
 20
134.969918
 30
0.0
 11
96.983015
 21
134.969918
 31
0.0
  0
LINE
  5
497
100
AcDbEntity
  8
0
  6
Continuous
 62
     8
100
AcDbLine
 10
97.98314
 20
134.969918
 30
0.0
 11
103.211703
 21
134.969918
 31
0.0
  0
LINE
  5
498
100
AcDbEntity
  8
0
  6
Continuous
 62
     8
100
AcDbLine
 10
104.211616
 20
134.969918
 30
0.0
 11
105.211528
 21
134.969918
 31
0.0
  0
LINE
  5
499
100
AcDbEntity
  8
0
  6
Continuous
 62
     8
100
AcDbLine
 10
106.211653
 20
134.969918
 30
0.0
 11
111.440216
 21
134.969918
 31
0.0
  0
LINE
  5
49A
100
AcDbEntity
  8
0
  6
Continuous
 62
     8
100
AcDbLine
 10
112.440129
 20
134.969918
 30
0.0
 11
113.440254
 21
134.969918
 31
0.0
  0
LINE
  5
49B
100
AcDbEntity
  8
0
  6
Continuous
 62
     8
100
AcDbLine
 10
114.440166
 20
134.969918
 30
0.0
 11
119.668729
 21
134.969918
 31
0.0
  0
LINE
  5
49C
100
AcDbEntity
  8
0
  6
Continuous
 62
     8
100
AcDbLine
 10
120.668854
 20
134.969918
 30
0.0
 11
121.668767
 21
134.969918
 31
0.0
  0
LINE
  5
49D
100
AcDbEntity
  8
0
  6
Continuous
 62
     8
100
AcDbLine
 10
122.668679
 20
134.969918
 30
0.0
 11
127.897242
 21
134.969918
 31
0.0
  0
LINE
  5
49E
100
AcDbEntity
  8
0
  6
Continuous
 62
     8
100
AcDbLine
 10
128.897367
 20
134.969918
 30
0.0
 11
129.89728
 21
134.969918
 31
0.0
  0
LINE
  5
49F
100
AcDbEntity
  8
0
  6
Continuous
 62
     8
100
AcDbLine
 10
130.897405
 20
134.969918
 30
0.0
 11
136.125968
 21
134.969918
 31
0.0
  0
LINE
  5
4A0
100
AcDbEntity
  8
0
  6
Continuous
 62
     8
100
AcDbLine
 10
137.12588
 20
134.969918
 30
0.0
 11
138.125793
 21
134.969918
 31
0.0
  0
LINE
  5
4A1
100
AcDbEntity
  8
0
  6
Continuous
 62
     8
100
AcDbLine
 10
139.125918
 20
134.969918
 30
0.0
 11
144.354481
 21
134.969918
 31
0.0
  0
LINE
  5
4A2
100
AcDbEntity
  8
0
  6
Continuous
 62
     8
100
AcDbLine
 10
145.354393
 20
134.969918
 30
0.0
 11
146.354518
 21
134.969918
 31
0.0
  0
LINE
  5
4A3
100
AcDbEntity
  8
0
  6
Continuous
 62
     8
100
AcDbLine
 10
147.354431
 20
134.969918
 30
0.0
 11
152.582994
 21
134.969918
 31
0.0
  0
LINE
  5
4A4
100
AcDbEntity
  8
0
  6
Continuous
 62
     8
100
AcDbLine
 10
153.582906
 20
134.969918
 30
0.0
 11
154.583031
 21
134.969918
 31
0.0
  0
LINE
  5
4A5
100
AcDbEntity
  8
0
  6
Continuous
 62
     8
100
AcDbLine
 10
155.582944
 20
134.969918
 30
0.0
 11
160.811507
 21
134.969918
 31
0.0
  0
LINE
  5
4A6
100
AcDbEntity
  8
0
  6
Continuous
 62
     8
100
AcDbLine
 10
161.811632
 20
134.969918
 30
0.0
 11
162.811544
 21
134.969918
 31
0.0
  0
LINE
  5
4A7
100
AcDbEntity
  8
0
  6
Continuous
 62
     8
100
AcDbLine
 10
163.811669
 20
134.969918
 30
0.0
 11
169.040232
 21
134.969918
 31
0.0
  0
LINE
  5
4A8
100
AcDbEntity
  8
0
  6
Continuous
 62
     8
100
AcDbLine
 10
170.040145
 20
134.969918
 30
0.0
 11
171.040057
 21
134.969918
 31
0.0
  0
LINE
  5
4A9
100
AcDbEntity
  8
0
  6
Continuous
 62
     8
100
AcDbLine
 10
172.040182
 20
134.969918
 30
0.0
 11
177.268745
 21
134.969918
 31
0.0
  0
LINE
  5
4AA
100
AcDbEntity
  8
0
  6
Continuous
 62
     8
100
AcDbLine
 10
178.268658
 20
134.969918
 30
0.0
 11
179.268783
 21
134.969918
 31
0.0
  0
LINE
  5
4AB
100
AcDbEntity
  8
0
  6
Continuous
 62
     8
100
AcDbLine
 10
180.268695
 20
134.969918
 30
0.0
 11
185.497258
 21
134.969918
 31
0.0
  0
LINE
  5
4AC
100
AcDbEntity
  8
0
  6
Continuous
 62
     8
100
AcDbLine
 10
186.497383
 20
134.969918
 30
0.0
 11
187.497296
 21
134.969918
 31
0.0
  0
LINE
  5
4AD
100
AcDbEntity
  8
0
  6
Continuous
 62
     8
100
AcDbLine
 10
188.497208
 20
134.969918
 30
0.0
 11
193.725771
 21
134.969918
 31
0.0
  0
LINE
  5
4AE
100
AcDbEntity
  8
0
  6
Continuous
 62
     8
100
AcDbLine
 10
194.725896
 20
134.969918
 30
0.0
 11
195.725809
 21
134.969918
 31
0.0
  0
LINE
  5
4AF
100
AcDbEntity
  8
0
  6
Continuous
 62
     8
100
AcDbLine
 10
196.725934
 20
134.969918
 30
0.0
 11
201.954497
 21
134.969918
 31
0.0
  0
LINE
  5
4B0
100
AcDbEntity
  8
0
  6
Continuous
 62
     8
100
AcDbLine
 10
202.954409
 20
134.969918
 30
0.0
 11
203.954534
 21
134.969918
 31
0.0
  0
LINE
  5
4B1
100
AcDbEntity
  8
0
  6
Continuous
 62
     8
100
AcDbLine
 10
204.954447
 20
134.969918
 30
0.0
 11
210.18301
 21
134.969918
 31
0.0
  0
LINE
  5
4B2
100
AcDbEntity
  8
0
  6
Continuous
 62
     8
100
AcDbLine
 10
211.182922
 20
134.969918
 30
0.0
 11
212.183047
 21
134.969918
 31
0.0
  0
LINE
  5
4B3
100
AcDbEntity
  8
0
  6
Continuous
 62
     8
100
AcDbLine
 10
213.18296
 20
134.969918
 30
0.0
 11
218.411523
 21
134.969918
 31
0.0
  0
LINE
  5
4B4
100
AcDbEntity
  8
0
  6
Continuous
 62
     8
100
AcDbLine
 10
219.411648
 20
134.969918
 30
0.0
 11
220.41156
 21
134.969918
 31
0.0
  0
LINE
  5
4B5
100
AcDbEntity
  8
0
  6
Continuous
 62
     8
100
AcDbLine
 10
221.411473
 20
134.969918
 30
0.0
 11
226.640036
 21
134.969918
 31
0.0
  0
LINE
  5
4B6
100
AcDbEntity
  8
0
  6
Continuous
 62
     8
100
AcDbLine
 10
227.640161
 20
134.969918
 30
0.0
 11
228.640073
 21
134.969918
 31
0.0
  0
LINE
  5
4B7
100
AcDbEntity
  8
0
  6
Continuous
 62
     8
100
AcDbLine
 10
229.640198
 20
134.969918
 30
0.0
 11
234.868761
 21
134.969918
 31
0.0
  0
LINE
  5
4B8
100
AcDbEntity
  8
0
  6
Continuous
 62
     8
100
AcDbLine
 10
235.868674
 20
134.969918
 30
0.0
 11
236.868586
 21
134.969918
 31
0.0
  0
LINE
  5
4B9
100
AcDbEntity
  8
0
  6
Continuous
 62
     8
100
AcDbLine
 10
237.868711
 20
134.969918
 30
0.0
 11
243.097274
 21
134.969918
 31
0.0
  0
LINE
  5
4BA
100
AcDbEntity
  8
0
  6
Continuous
 62
     8
100
AcDbLine
 10
244.097187
 20
134.969918
 30
0.0
 11
245.097311
 21
134.969918
 31
0.0
  0
LINE
  5
4BB
100
AcDbEntity
  8
0
  6
Continuous
 62
     8
100
AcDbLine
 10
246.097224
 20
134.969918
 30
0.0
 11
251.325787
 21
134.969918
 31
0.0
  0
LINE
  5
4BC
100
AcDbEntity
  8
0
  6
Continuous
 62
     8
100
AcDbLine
 10
252.325912
 20
134.969918
 30
0.0
 11
253.325824
 21
134.969918
 31
0.0
  0
LINE
  5
4BD
100
AcDbEntity
  8
0
  6
Continuous
 62
     8
100
AcDbLine
 10
254.325737
 20
134.969918
 30
0.0
 11
259.5543
 21
134.969918
 31
0.0
  0
LINE
  5
4BE
100
AcDbEntity
  8
0
  6
Continuous
 62
     8
100
AcDbLine
 10
260.554425
 20
134.969918
 30
0.0
 11
261.554338
 21
134.969918
 31
0.0
  0
LINE
  5
4BF
100
AcDbEntity
  8
0
  6
Continuous
 62
     8
100
AcDbLine
 10
262.554462
 20
134.969918
 30
0.0
 11
267.783026
 21
134.969918
 31
0.0
  0
ENDBLK
  5
4C0
100
AcDbEntity
  8
0
100
AcDbBlockEnd
  0
BLOCK
  5
4C3
100
AcDbEntity
  8
0
100
AcDbBlockBegin
  2
*B39
 70
     0
 10
0.0
 20
0.0
 30
0.0
  3
*B39
  1

  0
LINE
  5
4C4
100
AcDbEntity
  8
0
  6
Continuous
 62
     8
100
AcDbLine
 10
125.383122
 20
155.968718
 30
0.0
 11
125.383122
 21
179.00813
 31
0.0
  0
ENDBLK
  5
4C5
100
AcDbEntity
  8
0
100
AcDbBlockEnd
  0
BLOCK
  5
4C8
100
AcDbEntity
  8
0
100
AcDbBlockBegin
  2
*B40
 70
     0
 10
0.0
 20
0.0
 30
0.0
  3
*B40
  1

  0
LINE
  5
4C9
100
AcDbEntity
  8
0
  6
Continuous
 62
     8
100
AcDbLine
 10
216.083067
 20
38.703008
 30
0.0
 11
216.083067
 21
43.20272
 31
0.0
  0
LINE
  5
4CA
100
AcDbEntity
  8
0
  6
Continuous
 62
     8
100
AcDbLine
 10
216.083067
 20
46.202458
 30
0.0
 11
216.083067
 21
50.702383
 31
0.0
  0
ENDBLK
  5
4CB
100
AcDbEntity
  8
0
100
AcDbBlockEnd
  0
BLOCK
  5
4CE
100
AcDbEntity
  8
0
100
AcDbBlockBegin
  2
*B41
 70
     0
 10
0.0
 20
0.0
 30
0.0
  3
*B41
  1

  0
LINE
  5
4CF
100
AcDbEntity
  8
0
  6
Continuous
 62
     8
100
AcDbLine
 10
21.018131
 20
55.701945
 30
0.0
 11
50.083147
 21
55.701945
 31
0.0
  0
ENDBLK
  5
4D0
100
AcDbEntity
  8
0
100
AcDbBlockEnd
  0
BLOCK
  5
4D3
100
AcDbEntity
  8
0
100
AcDbBlockBegin
  2
*B42
 70
     0
 10
0.0
 20
0.0
 30
0.0
  3
*B42
  1

  0
LINE
  5
4D4
100
AcDbEntity
  8
0
  6
Continuous
 62
     8
100
AcDbLine
 10
32.583085
 20
44.702695
 30
0.0
 11
38.297265
 21
44.702695
 31
0.0
  0
LINE
  5
4D5
100
AcDbEntity
  8
0
  6
Continuous
 62
     8
100
AcDbLine
 10
39.29739
 20
44.702695
 30
0.0
 11
40.297302
 21
44.702695
 31
0.0
  0
LINE
  5
4D6
100
AcDbEntity
  8
0
  6
Continuous
 62
     8
100
AcDbLine
 10
41.297427
 20
44.702695
 30
0.0
 11
47.011607
 21
44.702695
 31
0.0
  0
LINE
  5
4D7
100
AcDbEntity
  8
0
  6
Continuous
 62
     8
100
AcDbLine
 10
48.011732
 20
44.702695
 30
0.0
 11
49.011645
 21
44.702695
 31
0.0
  0
LINE
  5
4D8
100
AcDbEntity
  8
0
  6
Continuous
 62
     8
100
AcDbLine
 10
50.011557
 20
44.702695
 30
0.0
 11
55.72595
 21
44.702695
 31
0.0
  0
LINE
  5
4D9
100
AcDbEntity
  8
0
  6
Continuous
 62
     8
100
AcDbLine
 10
56.725863
 20
44.702695
 30
0.0
 11
57.725987
 21
44.702695
 31
0.0
  0
LINE
  5
4DA
100
AcDbEntity
  8
0
  6
Continuous
 62
     8
100
AcDbLine
 10
58.7259
 20
44.702695
 30
0.0
 11
64.440293
 21
44.702695
 31
0.0
  0
LINE
  5
4DB
100
AcDbEntity
  8
0
  6
Continuous
 62
     8
100
AcDbLine
 10
65.440205
 20
44.702695
 30
0.0
 11
66.440118
 21
44.702695
 31
0.0
  0
LINE
  5
4DC
100
AcDbEntity
  8
0
  6
Continuous
 62
     8
100
AcDbLine
 10
67.440243
 20
44.702695
 30
0.0
 11
73.154423
 21
44.702695
 31
0.0
  0
LINE
  5
4DD
100
AcDbEntity
  8
0
  6
Continuous
 62
     8
100
AcDbLine
 10
74.154548
 20
44.702695
 30
0.0
 11
75.15446
 21
44.702695
 31
0.0
  0
LINE
  5
4DE
100
AcDbEntity
  8
0
  6
Continuous
 62
     8
100
AcDbLine
 10
76.154373
 20
44.702695
 30
0.0
 11
81.868765
 21
44.702695
 31
0.0
  0
LINE
  5
4DF
100
AcDbEntity
  8
0
  6
Continuous
 62
     8
100
AcDbLine
 10
82.868678
 20
44.702695
 30
0.0
 11
83.868803
 21
44.702695
 31
0.0
  0
LINE
  5
4E0
100
AcDbEntity
  8
0
  6
Continuous
 62
     8
100
AcDbLine
 10
84.868715
 20
44.702695
 30
0.0
 11
90.583108
 21
44.702695
 31
0.0
  0
LINE
  5
4E1
100
AcDbEntity
  8
0
  6
Continuous
 62
     8
100
AcDbLine
 10
93.583058
 20
44.702695
 30
0.0
 11
99.783068
 21
44.702695
 31
0.0
  0
LINE
  5
4E2
100
AcDbEntity
  8
0
  6
Continuous
 62
     8
100
AcDbLine
 10
100.78298
 20
44.702695
 30
0.0
 11
101.783105
 21
44.702695
 31
0.0
  0
LINE
  5
4E3
100
AcDbEntity
  8
0
  6
Continuous
 62
     8
100
AcDbLine
 10
102.783018
 20
44.702695
 30
0.0
 11
108.983027
 21
44.702695
 31
0.0
  0
LINE
  5
4E4
100
AcDbEntity
  8
0
  6
Continuous
 62
     8
100
AcDbLine
 10
109.98294
 20
44.702695
 30
0.0
 11
110.983065
 21
44.702695
 31
0.0
  0
LINE
  5
4E5
100
AcDbEntity
  8
0
  6
Continuous
 62
     8
100
AcDbLine
 10
111.982977
 20
44.702695
 30
0.0
 11
118.182987
 21
44.702695
 31
0.0
  0
LINE
  5
4E6
100
AcDbEntity
  8
0
  6
Continuous
 62
     8
100
AcDbLine
 10
119.183112
 20
44.702695
 30
0.0
 11
120.183025
 21
44.702695
 31
0.0
  0
LINE
  5
4E7
100
AcDbEntity
  8
0
  6
Continuous
 62
     8
100
AcDbLine
 10
121.182937
 20
44.702695
 30
0.0
 11
127.382947
 21
44.702695
 31
0.0
  0
LINE
  5
4E8
100
AcDbEntity
  8
0
  6
Continuous
 62
     8
100
AcDbLine
 10
128.383072
 20
44.702695
 30
0.0
 11
129.382984
 21
44.702695
 31
0.0
  0
LINE
  5
4E9
100
AcDbEntity
  8
0
  6
Continuous
 62
     8
100
AcDbLine
 10
130.383109
 20
44.702695
 30
0.0
 11
136.583119
 21
44.702695
 31
0.0
  0
LINE
  5
4EA
100
AcDbEntity
  8
0
  6
Continuous
 62
     8
100
AcDbLine
 10
139.583069
 20
44.702695
 30
0.0
 11
145.249665
 21
44.702695
 31
0.0
  0
LINE
  5
4EB
100
AcDbEntity
  8
0
  6
Continuous
 62
     8
100
AcDbLine
 10
146.24979
 20
44.702695
 30
0.0
 11
147.249702
 21
44.702695
 31
0.0
  0
LINE
  5
4EC
100
AcDbEntity
  8
0
  6
Continuous
 62
     8
100
AcDbLine
 10
148.249615
 20
44.702695
 30
0.0
 11
153.916423
 21
44.702695
 31
0.0
  0
LINE
  5
4ED
100
AcDbEntity
  8
0
  6
Continuous
 62
     8
100
AcDbLine
 10
154.916335
 20
44.702695
 30
0.0
 11
155.916248
 21
44.702695
 31
0.0
  0
LINE
  5
4EE
100
AcDbEntity
  8
0
  6
Continuous
 62
     8
100
AcDbLine
 10
156.916373
 20
44.702695
 30
0.0
 11
162.582968
 21
44.702695
 31
0.0
  0
LINE
  5
4EF
100
AcDbEntity
  8
0
  6
Continuous
 62
     8
100
AcDbLine
 10
163.583093
 20
44.702695
 30
0.0
 11
164.583006
 21
44.702695
 31
0.0
  0
LINE
  5
4F0
100
AcDbEntity
  8
0
  6
Continuous
 62
     8
100
AcDbLine
 10
165.582918
 20
44.702695
 30
0.0
 11
171.249727
 21
44.702695
 31
0.0
  0
LINE
  5
4F1
100
AcDbEntity
  8
0
  6
Continuous
 62
     8
100
AcDbLine
 10
172.249639
 20
44.702695
 30
0.0
 11
173.249764
 21
44.702695
 31
0.0
  0
LINE
  5
4F2
100
AcDbEntity
  8
0
  6
Continuous
 62
     8
100
AcDbLine
 10
174.249676
 20
44.702695
 30
0.0
 11
179.916272
 21
44.702695
 31
0.0
  0
LINE
  5
4F3
100
AcDbEntity
  8
0
  6
Continuous
 62
     8
100
AcDbLine
 10
180.916397
 20
44.702695
 30
0.0
 11
181.91631
 21
44.702695
 31
0.0
  0
LINE
  5
4F4
100
AcDbEntity
  8
0
  6
Continuous
 62
     8
100
AcDbLine
 10
182.916435
 20
44.702695
 30
0.0
 11
188.58303
 21
44.702695
 31
0.0
  0
LINE
  5
4F5
100
AcDbEntity
  8
0
  6
Continuous
 62
     8
100
AcDbLine
 10
189.582943
 20
44.702695
 30
0.0
 11
190.583068
 21
44.702695
 31
0.0
  0
LINE
  5
4F6
100
AcDbEntity
  8
0
  6
Continuous
 62
     8
100
AcDbLine
 10
191.58298
 20
44.702695
 30
0.0
 11
197.249576
 21
44.702695
 31
0.0
  0
LINE
  5
4F7
100
AcDbEntity
  8
0
  6
Continuous
 62
     8
100
AcDbLine
 10
198.249701
 20
44.702695
 30
0.0
 11
199.249613
 21
44.702695
 31
0.0
  0
LINE
  5
4F8
100
AcDbEntity
  8
0
  6
Continuous
 62
     8
100
AcDbLine
 10
200.249738
 20
44.702695
 30
0.0
 11
205.916334
 21
44.702695
 31
0.0
  0
LINE
  5
4F9
100
AcDbEntity
  8
0
  6
Continuous
 62
     8
100
AcDbLine
 10
206.916246
 20
44.702695
 30
0.0
 11
207.916371
 21
44.702695
 31
0.0
  0
LINE
  5
4FA
100
AcDbEntity
  8
0
  6
Continuous
 62
     8
100
AcDbLine
 10
208.916284
 20
44.702695
 30
0.0
 11
214.58288
 21
44.702695
 31
0.0
  0
LINE
  5
4FB
100
AcDbEntity
  8
0
  6
Continuous
 62
     8
100
AcDbLine
 10
217.583042
 20
44.702695
 30
0.0
 11
223.249638
 21
44.702695
 31
0.0
  0
LINE
  5
4FC
100
AcDbEntity
  8
0
  6
Continuous
 62
     8
100
AcDbLine
 10
224.249763
 20
44.702695
 30
0.0
 11
225.249675
 21
44.702695
 31
0.0
  0
LINE
  5
4FD
100
AcDbEntity
  8
0
  6
Continuous
 62
     8
100
AcDbLine
 10
226.249588
 20
44.702695
 30
0.0
 11
231.916396
 21
44.702695
 31
0.0
  0
LINE
  5
4FE
100
AcDbEntity
  8
0
  6
Continuous
 62
     8
100
AcDbLine
 10
232.916308
 20
44.702695
 30
0.0
 11
233.916221
 21
44.702695
 31
0.0
  0
LINE
  5
4FF
100
AcDbEntity
  8
0
  6
Continuous
 62
     8
100
AcDbLine
 10
234.916346
 20
44.702695
 30
0.0
 11
240.582941
 21
44.702695
 31
0.0
  0
LINE
  5
500
100
AcDbEntity
  8
0
  6
Continuous
 62
     8
100
AcDbLine
 10
243.582891
 20
44.702695
 30
0.0
 11
249.082941
 21
44.702695
 31
0.0
  0
LINE
  5
501
100
AcDbEntity
  8
0
  6
Continuous
 62
     8
100
AcDbLine
 10
250.082854
 20
44.702695
 30
0.0
 11
251.082978
 21
44.702695
 31
0.0
  0
LINE
  5
502
100
AcDbEntity
  8
0
  6
Continuous
 62
     8
100
AcDbLine
 10
252.082891
 20
44.702695
 30
0.0
 11
257.582941
 21
44.702695
 31
0.0
  0
LINE
  5
503
100
AcDbEntity
  8
0
  6
Continuous
 62
     8
100
AcDbLine
 10
258.583066
 20
44.702695
 30
0.0
 11
259.582978
 21
44.702695
 31
0.0
  0
LINE
  5
504
100
AcDbEntity
  8
0
  6
Continuous
 62
     8
100
AcDbLine
 10
260.582891
 20
44.702695
 30
0.0
 11
266.082941
 21
44.702695
 31
0.0
  0
LINE
  5
505
100
AcDbEntity
  8
0
  6
Continuous
 62
     8
100
AcDbLine
 10
267.083066
 20
44.702695
 30
0.0
 11
268.082978
 21
44.702695
 31
0.0
  0
LINE
  5
506
100
AcDbEntity
  8
0
  6
Continuous
 62
     8
100
AcDbLine
 10
269.082891
 20
44.702695
 30
0.0
 11
274.58294
 21
44.702695
 31
0.0
  0
ENDBLK
  5
507
100
AcDbEntity
  8
0
100
AcDbBlockEnd
  0
BLOCK
  5
50A
100
AcDbEntity
  8
0
100
AcDbBlockBegin
  2
*B43
 70
     0
 10
0.0
 20
0.0
 30
0.0
  3
*B43
  1

  0
LINE
  5
50B
100
AcDbEntity
  8
0
  6
Continuous
 62
     8
100
AcDbLine
 10
59.32623
 20
44.809973
 30
0.0
 11
64.226162
 21
44.809973
 31
0.0
  0
LINE
  5
50C
100
AcDbEntity
  8
0
  6
Continuous
 62
     8
100
AcDbLine
 10
67.226325
 20
44.809973
 30
0.0
 11
72.126257
 21
44.809973
 31
0.0
  0
ENDBLK
  5
50D
100
AcDbEntity
  8
0
100
AcDbBlockEnd
  0
BLOCK
  5
510
100
AcDbEntity
  8
0
100
AcDbBlockBegin
  2
*B44
 70
     0
 10
0.0
 20
0.0
 30
0.0
  3
*B44
  1

  0
LINE
  5
511
100
AcDbEntity
  8
0
  6
Continuous
 62
     8
100
AcDbLine
 10
21.018131
 20
33.703233
 30
0.0
 11
50.083147
 21
33.703233
 31
0.0
  0
ENDBLK
  5
512
100
AcDbEntity
  8
0
100
AcDbBlockEnd
  0
BLOCK
  5
515
100
AcDbEntity
  8
0
100
AcDbBlockBegin
  2
*B45
 70
     0
 10
0.0
 20
0.0
 30
0.0
  3
*B45
  1

  0
LINE
  5
516
100
AcDbEntity
  8
0
  6
Continuous
 62
     8
100
AcDbLine
 10
80.583133
 20
178.967343
 30
0.0
 11
80.583133
 21
193.00733
 31
0.0
  0
ENDBLK
  5
517
100
AcDbEntity
  8
0
100
AcDbBlockEnd
  0
BLOCK
  5
51A
100
AcDbEntity
  8
0
100
AcDbBlockBegin
  2
*B46
 70
     0
 10
0.0
 20
0.0
 30
0.0
  3
*B46
  1

  0
LINE
  5
51B
100
AcDbEntity
  8
0
  6
Continuous
 62
     8
100
AcDbLine
 10
211.08308
 20
60.70172
 30
0.0
 11
211.08308
 21
70.014268
 31
0.0
  0
ENDBLK
  5
51C
100
AcDbEntity
  8
0
100
AcDbBlockEnd
  0
BLOCK
  5
51F
100
AcDbEntity
  8
0
100
AcDbBlockBegin
  2
*B47
 70
     0
 10
0.0
 20
0.0
 30
0.0
  3
*B47
  1

  0
LINE
  5
520
100
AcDbEntity
  8
0
  6
Continuous
 62
     8
100
AcDbLine
 10
110.082995
 20
101.971744
 30
0.0
 11
110.082995
 21
109.471406
 31
0.0
  0
LINE
  5
521
100
AcDbEntity
  8
0
  6
Continuous
 62
     8
100
AcDbLine
 10
110.082995
 20
110.471319
 30
0.0
 11
110.082995
 21
111.471231
 31
0.0
  0
LINE
  5
522
100
AcDbEntity
  8
0
  6
Continuous
 62
     8
100
AcDbLine
 10
110.082995
 20
112.471144
 30
0.0
 11
110.082995
 21
119.970806
 31
0.0
  0
ENDBLK
  5
523
100
AcDbEntity
  8
0
100
AcDbBlockEnd
  0
BLOCK
  5
526
100
AcDbEntity
  8
0
100
AcDbBlockBegin
  2
*B48
 70
     0
 10
0.0
 20
0.0
 30
0.0
  3
*B48
  1

  0
LINE
  5
527
100
AcDbEntity
  8
0
  6
Continuous
 62
     8
100
AcDbLine
 10
118.783105
 20
155.968718
 30
0.0
 11
118.783105
 21
179.00813
 31
0.0
  0
ENDBLK
  5
528
100
AcDbEntity
  8
0
100
AcDbBlockEnd
  0
BLOCK
  5
52B
100
AcDbEntity
  8
0
100
AcDbBlockBegin
  2
*B49
 70
     0
 10
0.0
 20
0.0
 30
0.0
  3
*B49
  1

  0
LINE
  5
52C
100
AcDbEntity
  8
0
  6
Continuous
 62
     8
100
AcDbLine
 10
228.082867
 20
59.701808
 30
0.0
 11
289.018049
 21
59.701808
 31
0.0
  0
ENDBLK
  5
52D
100
AcDbEntity
  8
0
100
AcDbBlockEnd
  0
BLOCK
  5
530
100
AcDbEntity
  8
0
100
AcDbBlockBegin
  2
*B50
 70
     0
 10
0.0
 20
0.0
 30
0.0
  3
*B50
  1

  0
LINE
  5
531
100
AcDbEntity
  8
0
  6
Continuous
 62
     8
100
AcDbLine
 10
119.018053
 20
34.828267
 30
0.0
 11
123.018128
 21
34.828267
 31
0.0
  0
LINE
  5
532
100
AcDbEntity
  8
0
  6
Continuous
 62
     8
100
AcDbLine
 10
123.018128
 20
34.828267
 30
0.0
 11
128.525401
 21
34.828267
 31
0.0
  0
LINE
  5
533
100
AcDbEntity
  8
0
  6
Continuous
 62
     8
100
AcDbLine
 10
129.525313
 20
34.828267
 30
0.0
 11
130.525438
 21
34.828267
 31
0.0
  0
LINE
  5
534
100
AcDbEntity
  8
0
  6
Continuous
 62
     8
100
AcDbLine
 10
131.525351
 20
34.828267
 30
0.0
 11
137.032623
 21
34.828267
 31
0.0
  0
LINE
  5
535
100
AcDbEntity
  8
0
  6
Continuous
 62
     8
100
AcDbLine
 10
138.032536
 20
34.828267
 30
0.0
 11
139.03266
 21
34.828267
 31
0.0
  0
LINE
  5
536
100
AcDbEntity
  8
0
  6
Continuous
 62
     8
100
AcDbLine
 10
140.032573
 20
34.828267
 30
0.0
 11
145.539845
 21
34.828267
 31
0.0
  0
LINE
  5
537
100
AcDbEntity
  8
0
  6
Continuous
 62
     8
100
AcDbLine
 10
146.539758
 20
34.828267
 30
0.0
 11
147.53967
 21
34.828267
 31
0.0
  0
LINE
  5
538
100
AcDbEntity
  8
0
  6
Continuous
 62
     8
100
AcDbLine
 10
148.539795
 20
34.828267
 30
0.0
 11
154.046855
 21
34.828267
 31
0.0
  0
LINE
  5
539
100
AcDbEntity
  8
0
  6
Continuous
 62
     8
100
AcDbLine
 10
155.04698
 20
34.828267
 30
0.0
 11
156.046893
 21
34.828267
 31
0.0
  0
LINE
  5
53A
100
AcDbEntity
  8
0
  6
Continuous
 62
     8
100
AcDbLine
 10
157.047018
 20
34.828267
 30
0.0
 11
162.554078
 21
34.828267
 31
0.0
  0
LINE
  5
53B
100
AcDbEntity
  8
0
  6
Continuous
 62
     8
100
AcDbLine
 10
163.554203
 20
34.828267
 30
0.0
 11
164.554115
 21
34.828267
 31
0.0
  0
LINE
  5
53C
100
AcDbEntity
  8
0
  6
Continuous
 62
     8
100
AcDbLine
 10
165.55424
 20
34.828267
 30
0.0
 11
171.0613
 21
34.828267
 31
0.0
  0
LINE
  5
53D
100
AcDbEntity
  8
0
  6
Continuous
 62
     8
100
AcDbLine
 10
172.061425
 20
34.828267
 30
0.0
 11
173.061338
 21
34.828267
 31
0.0
  0
LINE
  5
53E
100
AcDbEntity
  8
0
  6
Continuous
 62
     8
100
AcDbLine
 10
174.061463
 20
34.828267
 30
0.0
 11
179.568523
 21
34.828267
 31
0.0
  0
LINE
  5
53F
100
AcDbEntity
  8
0
  6
Continuous
 62
     8
100
AcDbLine
 10
180.568648
 20
34.828267
 30
0.0
 11
181.56856
 21
34.828267
 31
0.0
  0
LINE
  5
540
100
AcDbEntity
  8
0
  6
Continuous
 62
     8
100
AcDbLine
 10
182.568685
 20
34.828267
 30
0.0
 11
188.075745
 21
34.828267
 31
0.0
  0
LINE
  5
541
100
AcDbEntity
  8
0
  6
Continuous
 62
     8
100
AcDbLine
 10
189.07587
 20
34.828267
 30
0.0
 11
190.075783
 21
34.828267
 31
0.0
  0
LINE
  5
542
100
AcDbEntity
  8
0
  6
Continuous
 62
     8
100
AcDbLine
 10
191.075695
 20
34.828267
 30
0.0
 11
196.582968
 21
34.828267
 31
0.0
  0
LINE
  5
543
100
AcDbEntity
  8
0
  6
Continuous
 62
     8
100
AcDbLine
 10
199.582917
 20
34.828267
 30
0.0
 11
203.182985
 21
34.828267
 31
0.0
  0
ENDBLK
  5
544
100
AcDbEntity
  8
0
100
AcDbBlockEnd
  0
BLOCK
  5
547
100
AcDbEntity
  8
0
100
AcDbBlockBegin
  2
*B51
 70
     0
 10
0.0
 20
0.0
 30
0.0
  3
*B51
  1

  0
LINE
  5
548
100
AcDbEntity
  8
0
  6
Continuous
 62
     8
100
AcDbLine
 10
119.018053
 20
54.826942
 30
0.0
 11
123.018128
 21
54.826942
 31
0.0
  0
LINE
  5
549
100
AcDbEntity
  8
0
  6
Continuous
 62
     8
100
AcDbLine
 10
104.982953
 20
54.826942
 30
0.0
 11
108.58302
 21
54.826942
 31
0.0
  0
LINE
  5
54A
100
AcDbEntity
  8
0
  6
Continuous
 62
     8
100
AcDbLine
 10
111.58297
 20
54.826942
 30
0.0
 11
119.018053
 21
54.826942
 31
0.0
  0
ENDBLK
  5
54B
100
AcDbEntity
  8
0
100
AcDbBlockEnd
  0
BLOCK
  5
54E
100
AcDbEntity
  8
0
100
AcDbBlockBegin
  2
*B52
 70
     0
 10
0.0
 20
0.0
 30
0.0
  3
*B52
  1

  0
LINE
  5
54F
100
AcDbEntity
  8
0
  6
Continuous
 62
     8
100
AcDbLine
 10
195.983063
 20
14.017469
 30
0.0
 11
195.983063
 21
33.828142
 31
0.0
  0
ENDBLK
  5
550
100
AcDbEntity
  8
0
100
AcDbBlockEnd
  0
BLOCK
  5
553
100
AcDbEntity
  8
0
100
AcDbBlockBegin
  2
*B53
 70
     0
 10
0.0
 20
0.0
 30
0.0
  3
*B53
  1

  0
LINE
  5
554
100
AcDbEntity
  8
0
  6
Continuous
 62
     8
100
AcDbLine
 10
65.726137
 20
38.410278
 30
0.0
 11
65.726137
 21
43.309998
 31
0.0
  0
LINE
  5
555
100
AcDbEntity
  8
0
  6
Continuous
 62
     8
100
AcDbLine
 10
65.726137
 20
46.309736
 30
0.0
 11
65.726137
 21
51.209455
 31
0.0
  0
ENDBLK
  5
556
100
AcDbEntity
  8
0
100
AcDbBlockEnd
  0
BLOCK
  5
559
100
AcDbEntity
  8
0
100
AcDbBlockBegin
  2
*B54
 70
     0
 10
0.0
 20
0.0
 30
0.0
  3
*B54
  1

  0
LINE
  5
55A
100
AcDbEntity
  8
0
  6
Continuous
 62
     8
100
AcDbLine
 10
81.082983
 20
78.013781
 30
0.0
 11
81.082983
 21
103.971569
 31
0.0
  0
ENDBLK
  5
55B
100
AcDbEntity
  8
0
100
AcDbBlockEnd
  0
BLOCK
  5
55E
100
AcDbEntity
  8
0
100
AcDbBlockBegin
  2
*B55
 70
     0
 10
0.0
 20
0.0
 30
0.0
  3
*B55
  1

  0
LINE
  5
55F
100
AcDbEntity
  8
0
  6
Continuous
 62
     8
100
AcDbLine
 10
138.083094
 20
175.008267
 30
0.0
 11
138.083094
 21
179.00813
 31
0.0
  0
LINE
  5
560
100
AcDbEntity
  8
0
  6
Continuous
 62
     8
100
AcDbLine
 10
138.083094
 20
108.671391
 30
0.0
 11
138.083094
 21
113.471056
 31
0.0
  0
LINE
  5
561
100
AcDbEntity
  8
0
  6
Continuous
 62
     8
100
AcDbLine
 10
138.083094
 20
116.471006
 30
0.0
 11
138.083094
 21
122.262086
 31
0.0
  0
LINE
  5
562
100
AcDbEntity
  8
0
  6
Continuous
 62
     8
100
AcDbLine
 10
138.083094
 20
123.261999
 30
0.0
 11
138.083094
 21
124.262124
 31
0.0
  0
LINE
  5
563
100
AcDbEntity
  8
0
  6
Continuous
 62
     8
100
AcDbLine
 10
138.083094
 20
125.262036
 30
0.0
 11
138.083094
 21
131.053117
 31
0.0
  0
LINE
  5
564
100
AcDbEntity
  8
0
  6
Continuous
 62
     8
100
AcDbLine
 10
138.083094
 20
132.053029
 30
0.0
 11
138.083094
 21
133.053154
 31
0.0
  0
LINE
  5
565
100
AcDbEntity
  8
0
  6
Continuous
 62
     8
100
AcDbLine
 10
138.083094
 20
134.053066
 30
0.0
 11
138.083094
 21
139.844147
 31
0.0
  0
LINE
  5
566
100
AcDbEntity
  8
0
  6
Continuous
 62
     8
100
AcDbLine
 10
138.083094
 20
140.844059
 30
0.0
 11
138.083094
 21
141.843972
 31
0.0
  0
LINE
  5
567
100
AcDbEntity
  8
0
  6
Continuous
 62
     8
100
AcDbLine
 10
138.083094
 20
142.844097
 30
0.0
 11
138.083094
 21
148.635177
 31
0.0
  0
LINE
  5
568
100
AcDbEntity
  8
0
  6
Continuous
 62
     8
100
AcDbLine
 10
138.083094
 20
149.635089
 30
0.0
 11
138.083094
 21
150.635214
 31
0.0
  0
LINE
  5
569
100
AcDbEntity
  8
0
  6
Continuous
 62
     8
100
AcDbLine
 10
138.083094
 20
151.635127
 30
0.0
 11
138.083094
 21
157.426207
 31
0.0
  0
LINE
  5
56A
100
AcDbEntity
  8
0
  6
Continuous
 62
     8
100
AcDbLine
 10
138.083094
 20
158.42612
 30
0.0
 11
138.083094
 21
159.426032
 31
0.0
  0
LINE
  5
56B
100
AcDbEntity
  8
0
  6
Continuous
 62
     8
100
AcDbLine
 10
138.083094
 20
160.426157
 30
0.0
 11
138.083094
 21
166.217237
 31
0.0
  0
LINE
  5
56C
100
AcDbEntity
  8
0
  6
Continuous
 62
     8
100
AcDbLine
 10
138.083094
 20
167.21715
 30
0.0
 11
138.083094
 21
168.217275
 31
0.0
  0
LINE
  5
56D
100
AcDbEntity
  8
0
  6
Continuous
 62
     8
100
AcDbLine
 10
138.083094
 20
169.217187
 30
0.0
 11
138.083094
 21
175.008267
 31
0.0
  0
ENDBLK
  5
56E
100
AcDbEntity
  8
0
100
AcDbBlockEnd
  0
BLOCK
  5
571
100
AcDbEntity
  8
0
100
AcDbBlockBegin
  2
*B56
 70
     0
 10
0.0
 20
0.0
 30
0.0
  3
*B56
  1

  0
LINE
  5
572
100
AcDbEntity
  8
0
  6
Continuous
 62
     8
100
AcDbLine
 10
276.082915
 20
181.766546
 30
0.0
 11
276.082915
 21
193.00733
 31
0.0
  0
ENDBLK
  5
573
100
AcDbEntity
  8
0
100
AcDbBlockEnd
  0
BLOCK
  5
576
100
AcDbEntity
  8
0
100
AcDbBlockBegin
  2
*B57
 70
     0
 10
0.0
 20
0.0
 30
0.0
  3
*B57
  1

  0
LINE
  5
577
100
AcDbEntity
  8
0
  6
Continuous
 62
     8
100
AcDbLine
 10
29.083072
 20
172.967656
 30
0.0
 11
33.95815
 21
172.967656
 31
0.0
  0
LINE
  5
578
100
AcDbEntity
  8
0
  6
Continuous
 62
     8
100
AcDbLine
 10
34.958063
 20
172.967656
 30
0.0
 11
35.957975
 21
172.967656
 31
0.0
  0
LINE
  5
579
100
AcDbEntity
  8
0
  6
Continuous
 62
     8
100
AcDbLine
 10
36.9581
 20
172.967656
 30
0.0
 11
41.832966
 21
172.967656
 31
0.0
  0
LINE
  5
57A
100
AcDbEntity
  8
0
  6
Continuous
 62
     8
100
AcDbLine
 10
42.833091
 20
172.967656
 30
0.0
 11
43.833003
 21
172.967656
 31
0.0
  0
LINE
  5
57B
100
AcDbEntity
  8
0
  6
Continuous
 62
     8
100
AcDbLine
 10
44.833128
 20
172.967656
 30
0.0
 11
49.707994
 21
172.967656
 31
0.0
  0
LINE
  5
57C
100
AcDbEntity
  8
0
  6
Continuous
 62
     8
100
AcDbLine
 10
50.708118
 20
172.967656
 30
0.0
 11
51.708031
 21
172.967656
 31
0.0
  0
LINE
  5
57D
100
AcDbEntity
  8
0
  6
Continuous
 62
     8
100
AcDbLine
 10
52.708156
 20
172.967656
 30
0.0
 11
57.583021
 21
172.967656
 31
0.0
  0
ENDBLK
  5
57E
100
AcDbEntity
  8
0
100
AcDbBlockEnd
  0
BLOCK
  5
581
100
AcDbEntity
  8
0
100
AcDbBlockBegin
  2
*B58
 70
     0
 10
0.0
 20
0.0
 30
0.0
  3
*B58
  1

  0
LINE
  5
582
100
AcDbEntity
  8
0
  6
Continuous
 62
     8
100
AcDbLine
 10
122.083007
 20
90.013156
 30
0.0
 11
122.083007
 21
94.012806
 31
0.0
  0
LINE
  5
583
100
AcDbEntity
  8
0
  6
Continuous
 62
     8
100
AcDbLine
 10
122.083007
 20
188.007555
 30
0.0
 11
122.083007
 21
192.007417
 31
0.0
  0
LINE
  5
584
100
AcDbEntity
  8
0
  6
Continuous
 62
     8
100
AcDbLine
 10
122.083007
 20
94.012806
 30
0.0
 11
122.083007
 21
99.935381
 31
0.0
  0
LINE
  5
585
100
AcDbEntity
  8
0
  6
Continuous
 62
     8
100
AcDbLine
 10
122.083007
 20
100.935293
 30
0.0
 11
122.083007
 21
101.935206
 31
0.0
  0
LINE
  5
586
100
AcDbEntity
  8
0
  6
Continuous
 62
     8
100
AcDbLine
 10
122.083007
 20
102.935118
 30
0.0
 11
122.083007
 21
108.857481
 31
0.0
  0
LINE
  5
587
100
AcDbEntity
  8
0
  6
Continuous
 62
     8
100
AcDbLine
 10
122.083007
 20
109.857606
 30
0.0
 11
122.083007
 21
110.857518
 31
0.0
  0
LINE
  5
588
100
AcDbEntity
  8
0
  6
Continuous
 62
     8
100
AcDbLine
 10
122.083007
 20
111.857431
 30
0.0
 11
122.083007
 21
117.779793
 31
0.0
  0
LINE
  5
589
100
AcDbEntity
  8
0
  6
Continuous
 62
     8
100
AcDbLine
 10
122.083007
 20
118.779706
 30
0.0
 11
122.083007
 21
119.779618
 31
0.0
  0
LINE
  5
58A
100
AcDbEntity
  8
0
  6
Continuous
 62
     8
100
AcDbLine
 10
122.083007
 20
120.779743
 30
0.0
 11
122.083007
 21
126.702106
 31
0.0
  0
LINE
  5
58B
100
AcDbEntity
  8
0
  6
Continuous
 62
     8
100
AcDbLine
 10
122.083007
 20
127.702018
 30
0.0
 11
122.083007
 21
128.701931
 31
0.0
  0
LINE
  5
58C
100
AcDbEntity
  8
0
  6
Continuous
 62
     8
100
AcDbLine
 10
122.083007
 20
129.701843
 30
0.0
 11
122.083007
 21
135.624418
 31
0.0
  0
LINE
  5
58D
100
AcDbEntity
  8
0
  6
Continuous
 62
     8
100
AcDbLine
 10
122.083007
 20
136.624331
 30
0.0
 11
122.083007
 21
137.624243
 31
0.0
  0
LINE
  5
58E
100
AcDbEntity
  8
0
  6
Continuous
 62
     8
100
AcDbLine
 10
122.083007
 20
138.624156
 30
0.0
 11
122.083007
 21
144.546518
 31
0.0
  0
LINE
  5
58F
100
AcDbEntity
  8
0
  6
Continuous
 62
     8
100
AcDbLine
 10
122.083007
 20
145.546431
 30
0.0
 11
122.083007
 21
146.546556
 31
0.0
  0
LINE
  5
590
100
AcDbEntity
  8
0
  6
Continuous
 62
     8
100
AcDbLine
 10
122.083007
 20
147.546468
 30
0.0
 11
122.083007
 21
153.468831
 31
0.0
  0
LINE
  5
591
100
AcDbEntity
  8
0
  6
Continuous
 62
     8
100
AcDbLine
 10
122.083007
 20
156.468781
 30
0.0
 11
122.083007
 21
162.103512
 31
0.0
  0
LINE
  5
592
100
AcDbEntity
  8
0
  6
Continuous
 62
     8
100
AcDbLine
 10
122.083007
 20
163.103424
 30
0.0
 11
122.083007
 21
164.103337
 31
0.0
  0
LINE
  5
593
100
AcDbEntity
  8
0
  6
Continuous
 62
     8
100
AcDbLine
 10
122.083007
 20
165.103462
 30
0.0
 11
122.083007
 21
170.738193
 31
0.0
  0
LINE
  5
594
100
AcDbEntity
  8
0
  6
Continuous
 62
     8
100
AcDbLine
 10
122.083007
 20
171.738105
 30
0.0
 11
122.083007
 21
172.738018
 31
0.0
  0
LINE
  5
595
100
AcDbEntity
  8
0
  6
Continuous
 62
     8
100
AcDbLine
 10
122.083007
 20
173.738143
 30
0.0
 11
122.083007
 21
179.372874
 31
0.0
  0
LINE
  5
596
100
AcDbEntity
  8
0
  6
Continuous
 62
     8
100
AcDbLine
 10
122.083007
 20
180.372786
 30
0.0
 11
122.083007
 21
181.372699
 31
0.0
  0
LINE
  5
597
100
AcDbEntity
  8
0
  6
Continuous
 62
     8
100
AcDbLine
 10
122.083007
 20
182.372611
 30
0.0
 11
122.083007
 21
188.007555
 31
0.0
  0
ENDBLK
  5
598
100
AcDbEntity
  8
0
100
AcDbBlockEnd
  0
BLOCK
  5
59B
100
AcDbEntity
  8
0
100
AcDbBlockBegin
  2
*B59
 70
     0
 10
0.0
 20
0.0
 30
0.0
  3
*B59
  1

  0
LINE
  5
59C
100
AcDbEntity
  8
0
  6
Continuous
 62
     8
100
AcDbLine
 10
242.082916
 20
38.303
 30
0.0
 11
242.082916
 21
43.20272
 31
0.0
  0
LINE
  5
59D
100
AcDbEntity
  8
0
  6
Continuous
 62
     8
100
AcDbLine
 10
242.082916
 20
46.202458
 30
0.0
 11
242.082916
 21
51.102178
 31
0.0
  0
ENDBLK
  5
59E
100
AcDbEntity
  8
0
100
AcDbBlockEnd
  0
BLOCK
  5
5A1
100
AcDbEntity
  8
0
100
AcDbBlockBegin
  2
*B60
 70
     0
 10
0.0
 20
0.0
 30
0.0
  3
*B60
  1

  0
LINE
  5
5A2
100
AcDbEntity
  8
0
  6
Continuous
 62
     8
100
AcDbLine
 10
110.082995
 20
66.014406
 30
0.0
 11
110.082995
 21
70.014268
 31
0.0
  0
LINE
  5
5A3
100
AcDbEntity
  8
0
  6
Continuous
 62
     8
100
AcDbLine
 10
110.082995
 20
49.727325
 30
0.0
 11
110.082995
 21
53.32718
 31
0.0
  0
LINE
  5
5A4
100
AcDbEntity
  8
0
  6
Continuous
 62
     8
100
AcDbLine
 10
110.082995
 20
56.326917
 30
0.0
 11
110.082995
 21
66.014406
 31
0.0
  0
ENDBLK
  5
5A5
100
AcDbEntity
  8
0
100
AcDbBlockEnd
  0
BLOCK
  5
5A8
100
AcDbEntity
  8
0
100
AcDbBlockBegin
  2
*B61
 70
     0
 10
0.0
 20
0.0
 30
0.0
  3
*B61
  1

  0
LINE
  5
5A9
100
AcDbEntity
  8
0
  6
Continuous
 62
     8
100
AcDbLine
 10
228.082867
 20
29.703371
 30
0.0
 11
289.018049
 21
29.703371
 31
0.0
  0
ENDBLK
  5
5AA
100
AcDbEntity
  8
0
100
AcDbBlockEnd
  0
BLOCK
  5
5AD
100
AcDbEntity
  8
0
100
AcDbBlockBegin
  2
*B62
 70
     0
 10
0.0
 20
0.0
 30
0.0
  3
*B62
  1

  0
LINE
  5
5AE
100
AcDbEntity
  8
0
  6
Continuous
 62
     8
100
AcDbLine
 10
115.782942
 20
154.968806
 30
0.0
 11
120.583032
 21
154.968806
 31
0.0
  0
LINE
  5
5AF
100
AcDbEntity
  8
0
  6
Continuous
 62
     8
100
AcDbLine
 10
123.582982
 20
154.968806
 30
0.0
 11
128.383072
 21
154.968806
 31
0.0
  0
ENDBLK
  5
5B0
100
AcDbEntity
  8
0
100
AcDbBlockEnd
  0
BLOCK
  5
5B3
100
AcDbEntity
  8
0
100
AcDbBlockBegin
  2
*B63
 70
     0
 10
0.0
 20
0.0
 30
0.0
  3
*B63
  1

  0
LINE
  5
5B4
100
AcDbEntity
  8
0
  6
Continuous
 62
     8
100
AcDbLine
 10
228.082867
 20
164.968143
 30
0.0
 11
245.018075
 21
164.968143
 31
0.0
  0
ENDBLK
  5
5B5
100
AcDbEntity
  8
0
100
AcDbBlockEnd
  0
BLOCK
  5
5B8
100
AcDbEntity
  8
0
100
AcDbBlockBegin
  2
*B64
 70
     0
 10
0.0
 20
0.0
 30
0.0
  3
*B64
  1

  0
LINE
  5
5B9
100
AcDbEntity
  8
0
  6
Continuous
 62
     8
100
AcDbLine
 10
200.183035
 20
14.017469
 30
0.0
 11
200.183035
 21
33.828142
 31
0.0
  0
ENDBLK
  5
5BA
100
AcDbEntity
  8
0
100
AcDbBlockEnd
  0
BLOCK
  5
5BD
100
AcDbEntity
  8
0
100
AcDbBlockBegin
  2
*B65
 70
     0
 10
0.0
 20
0.0
 30
0.0
  3
*B65
  1

  0
LINE
  5
5BE
100
AcDbEntity
  8
0
  6
Continuous
 62
     8
100
AcDbLine
 10
170.083056
 20
175.008267
 30
0.0
 11
170.083056
 21
179.00813
 31
0.0
  0
LINE
  5
5BF
100
AcDbEntity
  8
0
  6
Continuous
 62
     8
100
AcDbLine
 10
170.083056
 20
108.671391
 30
0.0
 11
170.083056
 21
113.471056
 31
0.0
  0
LINE
  5
5C0
100
AcDbEntity
  8
0
  6
Continuous
 62
     8
100
AcDbLine
 10
170.083056
 20
116.471006
 30
0.0
 11
170.083056
 21
122.262086
 31
0.0
  0
LINE
  5
5C1
100
AcDbEntity
  8
0
  6
Continuous
 62
     8
100
AcDbLine
 10
170.083056
 20
123.261999
 30
0.0
 11
170.083056
 21
124.262124
 31
0.0
  0
LINE
  5
5C2
100
AcDbEntity
  8
0
  6
Continuous
 62
     8
100
AcDbLine
 10
170.083056
 20
125.262036
 30
0.0
 11
170.083056
 21
131.053117
 31
0.0
  0
LINE
  5
5C3
100
AcDbEntity
  8
0
  6
Continuous
 62
     8
100
AcDbLine
 10
170.083056
 20
132.053029
 30
0.0
 11
170.083056
 21
133.053154
 31
0.0
  0
LINE
  5
5C4
100
AcDbEntity
  8
0
  6
Continuous
 62
     8
100
AcDbLine
 10
170.083056
 20
134.053066
 30
0.0
 11
170.083056
 21
139.844147
 31
0.0
  0
LINE
  5
5C5
100
AcDbEntity
  8
0
  6
Continuous
 62
     8
100
AcDbLine
 10
170.083056
 20
140.844059
 30
0.0
 11
170.083056
 21
141.843972
 31
0.0
  0
LINE
  5
5C6
100
AcDbEntity
  8
0
  6
Continuous
 62
     8
100
AcDbLine
 10
170.083056
 20
142.844097
 30
0.0
 11
170.083056
 21
148.635177
 31
0.0
  0
LINE
  5
5C7
100
AcDbEntity
  8
0
  6
Continuous
 62
     8
100
AcDbLine
 10
170.083056
 20
149.635089
 30
0.0
 11
170.083056
 21
150.635214
 31
0.0
  0
LINE
  5
5C8
100
AcDbEntity
  8
0
  6
Continuous
 62
     8
100
AcDbLine
 10
170.083056
 20
151.635127
 30
0.0
 11
170.083056
 21
157.426207
 31
0.0
  0
LINE
  5
5C9
100
AcDbEntity
  8
0
  6
Continuous
 62
     8
100
AcDbLine
 10
170.083056
 20
158.42612
 30
0.0
 11
170.083056
 21
159.426032
 31
0.0
  0
LINE
  5
5CA
100
AcDbEntity
  8
0
  6
Continuous
 62
     8
100
AcDbLine
 10
170.083056
 20
160.426157
 30
0.0
 11
170.083056
 21
166.217237
 31
0.0
  0
LINE
  5
5CB
100
AcDbEntity
  8
0
  6
Continuous
 62
     8
100
AcDbLine
 10
170.083056
 20
167.21715
 30
0.0
 11
170.083056
 21
168.217275
 31
0.0
  0
LINE
  5
5CC
100
AcDbEntity
  8
0
  6
Continuous
 62
     8
100
AcDbLine
 10
170.083056
 20
169.217187
 30
0.0
 11
170.083056
 21
175.008267
 31
0.0
  0
ENDBLK
  5
5CD
100
AcDbEntity
  8
0
100
AcDbBlockEnd
  0
BLOCK
  5
5D0
100
AcDbEntity
  8
0
100
AcDbBlockBegin
  2
*B66
 70
     0
 10
0.0
 20
0.0
 30
0.0
  3
*B66
  1

  0
LINE
  5
5D1
100
AcDbEntity
  8
0
  6
Continuous
 62
     8
100
AcDbLine
 10
128.683024
 20
14.017469
 30
0.0
 11
128.683024
 21
43.70257
 31
0.0
  0
ENDBLK
  5
5D2
100
AcDbEntity
  8
0
100
AcDbBlockEnd
  0
BLOCK
  5
5D5
100
AcDbEntity
  8
0
100
AcDbBlockBegin
  2
*B67
 70
     0
 10
0.0
 20
0.0
 30
0.0
  3
*B67
  1

  0
LINE
  5
5D6
100
AcDbEntity
  8
0
  6
Continuous
 62
     8
100
AcDbLine
 10
138.083094
 20
32.303313
 30
0.0
 11
138.083094
 21
43.20272
 31
0.0
  0
LINE
  5
5D7
100
AcDbEntity
  8
0
  6
Continuous
 62
     8
100
AcDbLine
 10
138.083094
 20
46.202458
 30
0.0
 11
138.083094
 21
57.101865
 31
0.0
  0
ENDBLK
  5
5D8
100
AcDbEntity
  8
0
100
AcDbBlockEnd
  0
BLOCK
  5
5DB
100
AcDbEntity
  8
0
100
AcDbBlockBegin
  2
*B68
 70
     0
 10
0.0
 20
0.0
 30
0.0
  3
*B68
  1

  0
LINE
  5
5DC
100
AcDbEntity
  8
0
  6
Continuous
 62
     8
100
AcDbLine
 10
218.018101
 20
154.968806
 30
0.0
 11
222.018175
 21
154.968806
 31
0.0
  0
LINE
  5
5DD
100
AcDbEntity
  8
0
  6
Continuous
 62
     8
100
AcDbLine
 10
179.783078
 20
154.968806
 30
0.0
 11
184.582955
 21
154.968806
 31
0.0
  0
LINE
  5
5DE
100
AcDbEntity
  8
0
  6
Continuous
 62
     8
100
AcDbLine
 10
187.582905
 20
154.968806
 30
0.0
 11
192.941689
 21
154.968806
 31
0.0
  0
LINE
  5
5DF
100
AcDbEntity
  8
0
  6
Continuous
 62
     8
100
AcDbLine
 10
193.941813
 20
154.968806
 30
0.0
 11
194.941726
 21
154.968806
 31
0.0
  0
LINE
  5
5E0
100
AcDbEntity
  8
0
  6
Continuous
 62
     8
100
AcDbLine
 10
195.941851
 20
154.968806
 30
0.0
 11
201.300634
 21
154.968806
 31
0.0
  0
LINE
  5
5E1
100
AcDbEntity
  8
0
  6
Continuous
 62
     8
100
AcDbLine
 10
202.300547
 20
154.968806
 30
0.0
 11
203.300459
 21
154.968806
 31
0.0
  0
LINE
  5
5E2
100
AcDbEntity
  8
0
  6
Continuous
 62
     8
100
AcDbLine
 10
204.300584
 20
154.968806
 30
0.0
 11
209.659367
 21
154.968806
 31
0.0
  0
LINE
  5
5E3
100
AcDbEntity
  8
0
  6
Continuous
 62
     8
100
AcDbLine
 10
210.65928
 20
154.968806
 30
0.0
 11
211.659405
 21
154.968806
 31
0.0
  0
LINE
  5
5E4
100
AcDbEntity
  8
0
  6
Continuous
 62
     8
100
AcDbLine
 10
212.659317
 20
154.968806
 30
0.0
 11
218.018101
 21
154.968806
 31
0.0
  0
ENDBLK
  5
5E5
100
AcDbEntity
  8
0
100
AcDbBlockEnd
  0
BLOCK
  5
5E8
100
AcDbEntity
  8
0
100
AcDbBlockBegin
  2
*B69
 70
     0
 10
0.0
 20
0.0
 30
0.0
  3
*B69
  1

  0
LINE
  5
5E9
100
AcDbEntity
  8
0
  6
Continuous
 62
     8
100
AcDbLine
 10
154.082969
 20
90.013156
 30
0.0
 11
154.082969
 21
94.012806
 31
0.0
  0
LINE
  5
5EA
100
AcDbEntity
  8
0
  6
Continuous
 62
     8
100
AcDbLine
 10
154.082969
 20
94.012806
 30
0.0
 11
154.082969
 21
99.002384
 31
0.0
  0
LINE
  5
5EB
100
AcDbEntity
  8
0
  6
Continuous
 62
     8
100
AcDbLine
 10
154.082969
 20
100.002296
 30
0.0
 11
154.082969
 21
101.002421
 31
0.0
  0
LINE
  5
5EC
100
AcDbEntity
  8
0
  6
Continuous
 62
     8
100
AcDbLine
 10
154.082969
 20
102.002334
 30
0.0
 11
154.082969
 21
106.991912
 31
0.0
  0
LINE
  5
5ED
100
AcDbEntity
  8
0
  6
Continuous
 62
     8
100
AcDbLine
 10
154.082969
 20
107.991825
 30
0.0
 11
154.082969
 21
108.991737
 31
0.0
  0
LINE
  5
5EE
100
AcDbEntity
  8
0
  6
Continuous
 62
     8
100
AcDbLine
 10
154.082969
 20
109.99165
 30
0.0
 11
154.082969
 21
114.981228
 31
0.0
  0
LINE
  5
5EF
100
AcDbEntity
  8
0
  6
Continuous
 62
     8
100
AcDbLine
 10
154.082969
 20
115.98114
 30
0.0
 11
154.082969
 21
116.981053
 31
0.0
  0
LINE
  5
5F0
100
AcDbEntity
  8
0
  6
Continuous
 62
     8
100
AcDbLine
 10
154.082969
 20
117.980965
 30
0.0
 11
154.082969
 21
122.970544
 31
0.0
  0
ENDBLK
  5
5F1
100
AcDbEntity
  8
0
100
AcDbBlockEnd
  0
BLOCK
  5
5F4
100
AcDbEntity
  8
0
100
AcDbBlockBegin
  2
*B70
 70
     0
 10
0.0
 20
0.0
 30
0.0
  3
*B70
  1

  0
LINE
  5
5F5
100
AcDbEntity
  8
0
  6
Continuous
 62
     8
100
AcDbLine
 10
250.582916
 20
172.967656
 30
0.0
 11
255.457994
 21
172.967656
 31
0.0
  0
LINE
  5
5F6
100
AcDbEntity
  8
0
  6
Continuous
 62
     8
100
AcDbLine
 10
256.457906
 20
172.967656
 30
0.0
 11
257.458031
 21
172.967656
 31
0.0
  0
LINE
  5
5F7
100
AcDbEntity
  8
0
  6
Continuous
 62
     8
100
AcDbLine
 10
258.457944
 20
172.967656
 30
0.0
 11
263.333022
 21
172.967656
 31
0.0
  0
LINE
  5
5F8
100
AcDbEntity
  8
0
  6
Continuous
 62
     8
100
AcDbLine
 10
264.332934
 20
172.967656
 30
0.0
 11
265.332847
 21
172.967656
 31
0.0
  0
LINE
  5
5F9
100
AcDbEntity
  8
0
  6
Continuous
 62
     8
100
AcDbLine
 10
266.332972
 20
172.967656
 30
0.0
 11
271.20805
 21
172.967656
 31
0.0
  0
LINE
  5
5FA
100
AcDbEntity
  8
0
  6
Continuous
 62
     8
100
AcDbLine
 10
272.207962
 20
172.967656
 30
0.0
 11
273.207875
 21
172.967656
 31
0.0
  0
LINE
  5
5FB
100
AcDbEntity
  8
0
  6
Continuous
 62
     8
100
AcDbLine
 10
274.208
 20
172.967656
 30
0.0
 11
279.082865
 21
172.967656
 31
0.0
  0
ENDBLK
  5
5FC
100
AcDbEntity
  8
0
100
AcDbBlockEnd
  0
BLOCK
  5
5FF
100
AcDbEntity
  8
0
100
AcDbBlockBegin
  2
*B71
 70
     0
 10
0.0
 20
0.0
 30
0.0
  3
*B71
  1

  0
LINE
  5
600
100
AcDbEntity
  8
0
  6
Continuous
 62
     8
100
AcDbLine
 10
92.083083
 20
38.703008
 30
0.0
 11
92.083083
 21
43.20272
 31
0.0
  0
LINE
  5
601
100
AcDbEntity
  8
0
  6
Continuous
 62
     8
100
AcDbLine
 10
92.083083
 20
46.202458
 30
0.0
 11
92.083083
 21
50.702383
 31
0.0
  0
ENDBLK
  5
602
100
AcDbEntity
  8
0
100
AcDbBlockEnd
  0
BLOCK
  5
605
100
AcDbEntity
  8
0
100
AcDbBlockBegin
  2
*B72
 70
     0
 10
0.0
 20
0.0
 30
0.0
  3
*B72
  1

  0
LINE
  5
606
100
AcDbEntity
  8
0
  6
Continuous
 62
     8
100
AcDbLine
 10
211.08308
 20
90.013156
 30
0.0
 11
211.08308
 21
103.971569
 31
0.0
  0
LINE
  5
607
100
AcDbEntity
  8
0
  6
Continuous
 62
     8
100
AcDbLine
 10
211.08308
 20
165.968056
 30
0.0
 11
211.08308
 21
179.00813
 31
0.0
  0
ENDBLK
  5
608
100
AcDbEntity
  8
0
100
AcDbBlockEnd
  0
BLOCK
  5
60B
100
AcDbEntity
  8
0
100
AcDbBlockBegin
  2
*B73
 70
     0
 10
0.0
 20
0.0
 30
0.0
  3
*B73
  1

  0
LINE
  5
60C
100
AcDbEntity
  8
0
  6
Continuous
 62
     8
100
AcDbLine
 10
32.083022
 20
181.766546
 30
0.0
 11
32.083022
 21
193.00733
 31
0.0
  0
ENDBLK
  5
60D
100
AcDbEntity
  8
0
100
AcDbBlockEnd
  0
BLOCK
  5
610
100
AcDbEntity
  8
0
100
AcDbBlockBegin
  2
*B74
 70
     0
 10
0.0
 20
0.0
 30
0.0
  3
*B74
  1

  0
LINE
  5
611
100
AcDbEntity
  8
0
  6
Continuous
 62
     8
100
AcDbLine
 10
21.018131
 20
181.966868
 30
0.0
 11
31.775847
 21
181.966868
 31
0.0
  0
ENDBLK
  5
612
100
AcDbEntity
  8
0
100
AcDbBlockEnd
  0
BLOCK
  5
615
100
AcDbEntity
  8
0
100
AcDbBlockBegin
  2
*B75
 70
     0
 10
0.0
 20
0.0
 30
0.0
  3
*B75
  1

  0
LINE
  5
616
100
AcDbEntity
  8
0
  6
Continuous
 62
     6
100
AcDbLine
 10
137.583032
 20
44.702695
 30
0.0
 11
138.582944
 21
44.702695
 31
0.0
  0
LINE
  5
617
100
AcDbEntity
  8
0
  6
Continuous
 62
     6
100
AcDbLine
 10
138.083094
 20
44.202633
 30
0.0
 11
138.083094
 21
45.202545
 31
0.0
  0
ENDBLK
  5
618
100
AcDbEntity
  8
0
100
AcDbBlockEnd
  0
BLOCK
  5
61B
100
AcDbEntity
  8
0
100
AcDbBlockBegin
  2
*B76
 70
     0
 10
0.0
 20
0.0
 30
0.0
  3
*B76
  1

  0
LINE
  5
61C
100
AcDbEntity
  8
0
  6
Continuous
 62
     6
100
AcDbLine
 10
169.582993
 20
114.971031
 30
0.0
 11
170.582906
 21
114.971031
 31
0.0
  0
LINE
  5
61D
100
AcDbEntity
  8
0
  6
Continuous
 62
     6
100
AcDbLine
 10
170.083056
 20
114.470969
 30
0.0
 11
170.083056
 21
115.471094
 31
0.0
  0
ENDBLK
  5
61E
100
AcDbEntity
  8
0
100
AcDbBlockEnd
  0
BLOCK
  5
621
100
AcDbEntity
  8
0
100
AcDbBlockBegin
  2
*B77
 70
     0
 10
0.0
 20
0.0
 30
0.0
  3
*B77
  1

  0
LINE
  5
622
100
AcDbEntity
  8
0
  6
Continuous
 62
     6
100
AcDbLine
 10
198.082942
 20
34.328205
 30
0.0
 11
198.082942
 21
35.328117
 31
0.0
  0
LINE
  5
623
100
AcDbEntity
  8
0
  6
Continuous
 62
     6
100
AcDbLine
 10
197.583092
 20
34.828267
 30
0.0
 11
198.583005
 21
34.828267
 31
0.0
  0
ENDBLK
  5
624
100
AcDbEntity
  8
0
100
AcDbBlockEnd
  0
BLOCK
  5
627
100
AcDbEntity
  8
0
100
AcDbBlockBegin
  2
*B78
 70
     0
 10
0.0
 20
0.0
 30
0.0
  3
*B78
  1

  0
LINE
  5
628
100
AcDbEntity
  8
0
  6
Continuous
 62
     6
100
AcDbLine
 10
241.582854
 20
44.702695
 30
0.0
 11
242.582979
 21
44.702695
 31
0.0
  0
LINE
  5
629
100
AcDbEntity
  8
0
  6
Continuous
 62
     6
100
AcDbLine
 10
242.082916
 20
44.202633
 30
0.0
 11
242.082916
 21
45.202545
 31
0.0
  0
ENDBLK
  5
62A
100
AcDbEntity
  8
0
100
AcDbBlockEnd
  0
BLOCK
  5
62D
100
AcDbEntity
  8
0
100
AcDbBlockBegin
  2
*B79
 70
     0
 10
0.0
 20
0.0
 30
0.0
  3
*B79
  1

  0
LINE
  5
62E
100
AcDbEntity
  8
0
  6
Continuous
 62
     6
100
AcDbLine
 10
65.226287
 20
44.809973
 30
0.0
 11
66.2262
 21
44.809973
 31
0.0
  0
LINE
  5
62F
100
AcDbEntity
  8
0
  6
Continuous
 62
     6
100
AcDbLine
 10
65.726137
 20
44.309911
 30
0.0
 11
65.726137
 21
45.309823
 31
0.0
  0
ENDBLK
  5
630
100
AcDbEntity
  8
0
100
AcDbBlockEnd
  0
BLOCK
  5
633
100
AcDbEntity
  8
0
100
AcDbBlockBegin
  2
*B80
 70
     0
 10
0.0
 20
0.0
 30
0.0
  3
*B80
  1

  0
LINE
  5
634
100
AcDbEntity
  8
0
  6
Continuous
 62
     6
100
AcDbLine
 10
276.082915
 20
44.202633
 30
0.0
 11
276.082915
 21
45.202545
 31
0.0
  0
LINE
  5
635
100
AcDbEntity
  8
0
  6
Continuous
 62
     6
100
AcDbLine
 10
275.582853
 20
44.702695
 30
0.0
 11
276.582978
 21
44.702695
 31
0.0
  0
ENDBLK
  5
636
100
AcDbEntity
  8
0
100
AcDbBlockEnd
  0
BLOCK
  5
639
100
AcDbEntity
  8
0
100
AcDbBlockBegin
  2
*B81
 70
     0
 10
0.0
 20
0.0
 30
0.0
  3
*B81
  1

  0
LINE
  5
63A
100
AcDbEntity
  8
0
  6
Continuous
 62
     6
100
AcDbLine
 10
186.08293
 20
154.468743
 30
0.0
 11
186.08293
 21
155.468656
 31
0.0
  0
LINE
  5
63B
100
AcDbEntity
  8
0
  6
Continuous
 62
     6
100
AcDbLine
 10
185.58308
 20
154.968806
 30
0.0
 11
186.582993
 21
154.968806
 31
0.0
  0
ENDBLK
  5
63C
100
AcDbEntity
  8
0
100
AcDbBlockEnd
  0
BLOCK
  5
63F
100
AcDbEntity
  8
0
100
AcDbBlockBegin
  2
*B82
 70
     0
 10
0.0
 20
0.0
 30
0.0
  3
*B82
  1

  0
LINE
  5
640
100
AcDbEntity
  8
0
  6
Continuous
 62
     6
100
AcDbLine
 10
32.083022
 20
44.202633
 30
0.0
 11
32.083022
 21
45.202545
 31
0.0
  0
LINE
  5
641
100
AcDbEntity
  8
0
  6
Continuous
 62
     6
100
AcDbLine
 10
31.58296
 20
44.702695
 30
0.0
 11
32.583085
 21
44.702695
 31
0.0
  0
ENDBLK
  5
642
100
AcDbEntity
  8
0
100
AcDbBlockEnd
  0
BLOCK
  5
645
100
AcDbEntity
  8
0
100
AcDbBlockBegin
  2
*B83
 70
     0
 10
0.0
 20
0.0
 30
0.0
  3
*B83
  1

  0
LINE
  5
646
100
AcDbEntity
  8
0
  6
Continuous
 62
     6
100
AcDbLine
 10
137.583032
 20
114.971031
 30
0.0
 11
138.582944
 21
114.971031
 31
0.0
  0
LINE
  5
647
100
AcDbEntity
  8
0
  6
Continuous
 62
     6
100
AcDbLine
 10
138.083094
 20
114.470969
 30
0.0
 11
138.083094
 21
115.471094
 31
0.0
  0
ENDBLK
  5
648
100
AcDbEntity
  8
0
100
AcDbBlockEnd
  0
BLOCK
  5
64B
100
AcDbEntity
  8
0
100
AcDbBlockBegin
  2
*B84
 70
     0
 10
0.0
 20
0.0
 30
0.0
  3
*B84
  1

  0
LINE
  5
64C
100
AcDbEntity
  8
0
  6
Continuous
 62
     6
100
AcDbLine
 10
92.083083
 20
44.202633
 30
0.0
 11
92.083083
 21
45.202545
 31
0.0
  0
LINE
  5
64D
100
AcDbEntity
  8
0
  6
Continuous
 62
     6
100
AcDbLine
 10
91.58302
 20
44.702695
 30
0.0
 11
92.582933
 21
44.702695
 31
0.0
  0
ENDBLK
  5
64E
100
AcDbEntity
  8
0
100
AcDbBlockEnd
  0
BLOCK
  5
651
100
AcDbEntity
  8
0
100
AcDbBlockBegin
  2
*B85
 70
     0
 10
0.0
 20
0.0
 30
0.0
  3
*B85
  1

  0
LINE
  5
652
100
AcDbEntity
  8
0
  6
Continuous
 62
     6
100
AcDbLine
 10
121.582945
 20
154.968806
 30
0.0
 11
122.58307
 21
154.968806
 31
0.0
  0
LINE
  5
653
100
AcDbEntity
  8
0
  6
Continuous
 62
     6
100
AcDbLine
 10
122.083007
 20
154.468743
 30
0.0
 11
122.083007
 21
155.468656
 31
0.0
  0
ENDBLK
  5
654
100
AcDbEntity
  8
0
100
AcDbBlockEnd
  0
BLOCK
  5
657
100
AcDbEntity
  8
0
100
AcDbBlockBegin
  2
*B86
 70
     0
 10
0.0
 20
0.0
 30
0.0
  3
*B86
  1

  0
LINE
  5
658
100
AcDbEntity
  8
0
  6
Continuous
 62
     6
100
AcDbLine
 10
109.582932
 20
54.826942
 30
0.0
 11
110.583057
 21
54.826942
 31
0.0
  0
LINE
  5
659
100
AcDbEntity
  8
0
  6
Continuous
 62
     6
100
AcDbLine
 10
110.082995
 20
54.327092
 30
0.0
 11
110.082995
 21
55.327005
 31
0.0
  0
ENDBLK
  5
65A
100
AcDbEntity
  8
0
100
AcDbBlockEnd
  0
BLOCK
  5
65D
100
AcDbEntity
  8
0
100
AcDbBlockBegin
  2
*B87
 70
     0
 10
0.0
 20
0.0
 30
0.0
  3
*B87
  1

  0
LINE
  5
65E
100
AcDbEntity
  8
0
  6
Continuous
 62
     6
100
AcDbLine
 10
216.083067
 20
44.202633
 30
0.0
 11
216.083067
 21
45.202545
 31
0.0
  0
LINE
  5
65F
100
AcDbEntity
  8
0
  6
Continuous
 62
     6
100
AcDbLine
 10
215.583004
 20
44.702695
 30
0.0
 11
216.582917
 21
44.702695
 31
0.0
  0
ENDBLK
  5
660
100
AcDbEntity
  8
0
100
AcDbBlockEnd
  0
BLOCK
  5
663
100
AcDbEntity
  8
0
100
AcDbBlockBegin
  2
*B88
 70
     0
 10
0.0
 20
0.0
 30
0.0
  3
*B88
  1

  0
TEXT
  5
664
100
AcDbEntity
  8
TEXT
  6
Continuous
 62
     0
100
AcDbText
 10
183.8829
 20
110.0
 30
0.0
 40
6.0
  1
3
100
AcDbText
  0
ENDBLK
  5
665
100
AcDbEntity
  8
0
100
AcDbBlockEnd
  0
BLOCK
  5
668
100
AcDbEntity
  8
0
100
AcDbBlockBegin
  2
*B89
 70
     0
 10
0.0
 20
0.0
 30
0.0
  3
*B89
  1

  0
TEXT
  5
669
100
AcDbEntity
  8
TEXT
  6
Continuous
 62
     0
100
AcDbText
 10
167.8829
 20
155.0
 30
0.0
 40
6.0
  1
2
100
AcDbText
  0
ENDBLK
  5
66A
100
AcDbEntity
  8
0
100
AcDbBlockEnd
  0
BLOCK
  5
66D
100
AcDbEntity
  8
0
100
AcDbBlockBegin
  2
*B90
 70
     0
 10
0.0
 20
0.0
 30
0.0
  3
*B90
  1

  0
TEXT
  5
66E
100
AcDbEntity
  8
TEXT
  6
Continuous
 62
     0
100
AcDbText
 10
151.8829
 20
109.0
 30
0.0
 40
6.0
  1
1
100
AcDbText
  0
ENDBLK
  5
66F
100
AcDbEntity
  8
0
100
AcDbBlockEnd
  0
BLOCK
  5
672
100
AcDbEntity
  8
0
100
AcDbBlockBegin
  2
*B91
 70
     0
 10
0.0
 20
0.0
 30
0.0
  3
*B91
  1

  0
TEXT
  5
673
100
AcDbEntity
  8
TEXT
  6
Continuous
 62
     0
100
AcDbText
 10
99.765799
 20
132.0
 30
0.0
 40
6.0
  1
14
100
AcDbText
  0
ENDBLK
  5
674
100
AcDbEntity
  8
0
100
AcDbBlockEnd
  0
BLOCK
  5
677
100
AcDbEntity
  8
0
100
AcDbBlockBegin
  2
*B92
 70
     0
 10
0.0
 20
0.0
 30
0.0
  3
*B92
  1

  0
TEXT
  5
678
100
AcDbEntity
  8
TEXT
  6
Continuous
 62
     0
100
AcDbText
 10
198.765799
 20
133.0
 30
0.0
 40
6.0
  1
12
100
AcDbText
  0
ENDBLK
  5
679
100
AcDbEntity
  8
0
100
AcDbBlockEnd
  0
BLOCK
  5
67C
100
AcDbEntity
  8
0
100
AcDbBlockBegin
  2
*B93
 70
     0
 10
0.0
 20
0.0
 30
0.0
  3
*B93
  1

  0
TEXT
  5
67D
100
AcDbEntity
  8
TEXT
  6
Continuous
 62
     0
100
AcDbText
 10
134.8829
 20
155.0
 30
0.0
 40
6.0
  1
4
100
AcDbText
  0
ENDBLK
  5
67E
100
AcDbEntity
  8
0
100
AcDbBlockEnd
  0
BLOCK
  5
681
100
AcDbEntity
  8
0
100
AcDbBlockBegin
  2
*B94
 70
     0
 10
0.0
 20
0.0
 30
0.0
  3
*B94
  1

  0
TEXT
  5
682
100
AcDbEntity
  8
TEXT
  6
Continuous
 62
     0
100
AcDbText
 10
119.8829
 20
110.0
 30
0.0
 40
6.0
  1
5
100
AcDbText
  0
ENDBLK
  5
683
100
AcDbEntity
  8
0
100
AcDbBlockEnd
  0
BLOCK
  5
686
100
AcDbEntity
  8
0
100
AcDbBlockBegin
  2
*B95
 70
     0
 10
0.0
 20
0.0
 30
0.0
  3
*B95
  1

  0
TEXT
  5
687
100
AcDbEntity
  8
TEXT
  6
Continuous
 62
     0
100
AcDbText
 10
87.6
 20
43.265025
 30
0.0
 40
3.5
  1
1
 50
90.0
100
AcDbText
  0
ENDBLK
  5
688
100
AcDbEntity
  8
0
100
AcDbBlockEnd
  0
BLOCK
  5
68B
100
AcDbEntity
  8
0
100
AcDbBlockBegin
  2
*B96
 70
     0
 10
0.0
 20
0.0
 30
0.0
  3
*B96
  1

  0
TEXT
  5
68C
100
AcDbEntity
  8
TEXT
  6
Continuous
 62
     0
100
AcDbText
 10
93.55
 20
37.665025
 30
0.0
 40
3.5
  1
0
 50
90.0
100
AcDbText
  0
ENDBLK
  5
68D
100
AcDbEntity
  8
0
100
AcDbBlockEnd
  0
BLOCK
  5
690
100
AcDbEntity
  8
0
100
AcDbBlockBegin
  2
*B97
 70
     0
 10
0.0
 20
0.0
 30
0.0
  3
*B97
  1

  0
TEXT
  5
691
100
AcDbEntity
  8
TEXT
  6
Continuous
 62
     0
100
AcDbText
 10
220.65
 20
46.134975
 30
0.0
 40
3.5
  1
1
 50
-90.0
100
AcDbText
  0
ENDBLK
  5
692
100
AcDbEntity
  8
0
100
AcDbBlockEnd
  0
BLOCK
  5
695
100
AcDbEntity
  8
0
100
AcDbBlockBegin
  2
*B98
 70
     0
 10
0.0
 20
0.0
 30
0.0
  3
*B98
  1

  0
TEXT
  5
696
100
AcDbEntity
  8
TEXT
  6
Continuous
 62
     0
100
AcDbText
 10
217.65
 20
49.065025
 30
0.0
 40
3.5
  1
0
 50
90.0
100
AcDbText
  0
ENDBLK
  5
697
100
AcDbEntity
  8
0
100
AcDbBlockEnd
  0
BLOCK
  5
69A
100
AcDbEntity
  8
0
100
AcDbBlockBegin
  2
*B99
 70
     0
 10
0.0
 20
0.0
 30
0.0
  3
*B99
  1

  0
TEXT
  5
69B
100
AcDbEntity
  8
TEXT
  6
Continuous
 62
     0
100
AcDbText
 10
218.5
 20
132.102171
 30
0.0
 40
3.0
  1
40
 50
90.0
100
AcDbText
  0
ENDBLK
  5
69C
100
AcDbEntity
  8
0
100
AcDbBlockEnd
  0
BLOCK
  5
69F
100
AcDbEntity
  8
0
100
AcDbBlockBegin
  2
*B100
 70
     0
 10
0.0
 20
0.0
 30
0.0
  3
*B100
  1

  0
TEXT
  5
6A0
100
AcDbEntity
  8
TEXT
  6
Continuous
 62
     0
100
AcDbText
 10
106.707747
 20
93.5
 30
0.0
 40
3.0
  1
25
100
AcDbText
  0
ENDBLK
  5
6A1
100
AcDbEntity
  8
0
100
AcDbBlockEnd
  0
BLOCK
  5
6A4
100
AcDbEntity
  8
0
100
AcDbBlockBegin
  2
*B101
 70
     0
 10
0.0
 20
0.0
 30
0.0
  3
*B101
  1

  0
TEXT
  5
6A5
100
AcDbEntity
  8
TEXT
  6
Continuous
 62
     0
100
AcDbText
 10
151.207747
 20
69.5
 30
0.0
 40
3.0
  1
88
100
AcDbText
  0
ENDBLK
  5
6A6
100
AcDbEntity
  8
0
100
AcDbBlockEnd
  0
BLOCK
  5
6A9
100
AcDbEntity
  8
0
100
AcDbBlockBegin
  2
*B102
 70
     0
 10
0.0
 20
0.0
 30
0.0
  3
*B102
  1

  0
TEXT
  5
6AA
100
AcDbEntity
  8
TEXT
  6
Continuous
 62
     0
100
AcDbText
 10
195.707747
 20
93.5
 30
0.0
 40
3.0
  1
25
100
AcDbText
  0
ENDBLK
  5
6AB
100
AcDbEntity
  8
0
100
AcDbBlockEnd
  0
BLOCK
  5
6AE
100
AcDbEntity
  8
0
100
AcDbBlockBegin
  2
*B103
 70
     0
 10
0.0
 20
0.0
 30
0.0
  3
*B103
  1

  0
TEXT
  5
6AF
100
AcDbEntity
  8
TEXT
  6
Continuous
 62
     0
100
AcDbText
 10
206.857143
 20
17.5
 30
0.0
 40
3.0
  1
M5
100
AcDbText
  0
ENDBLK
  5
6B0
100
AcDbEntity
  8
0
100
AcDbBlockEnd
  0
BLOCK
  5
6B3
100
AcDbEntity
  8
0
100
AcDbBlockBegin
  2
*B104
 70
     0
 10
0.0
 20
0.0
 30
0.0
  3
*B104
  1

  0
TEXT
  5
6B4
100
AcDbEntity
  8
TEXT
  6
Continuous
 62
     0
100
AcDbText
 10
129.785714
 20
17.5
 30
0.0
 40
3.0
  1
G 1/2"
100
AcDbText
  0
ENDBLK
  5
6B5
100
AcDbEntity
  8
0
100
AcDbBlockEnd
  0
BLOCK
  5
6B8
100
AcDbEntity
  8
0
100
AcDbBlockBegin
  2
*B105
 70
     0
 10
0.0
 20
0.0
 30
0.0
  3
*B105
  1

  0
TEXT
  5
6B9
100
AcDbEntity
  8
TEXT
  6
Continuous
 62
     0
100
AcDbText
 10
135.207747
 20
93.5
 30
0.0
 40
3.0
  1
32
100
AcDbText
  0
ENDBLK
  5
6BA
100
AcDbEntity
  8
0
100
AcDbBlockEnd
  0
BLOCK
  5
6BD
100
AcDbEntity
  8
0
100
AcDbBlockBegin
  2
*B106
 70
     0
 10
0.0
 20
0.0
 30
0.0
  3
*B106
  1

  0
TEXT
  5
6BE
100
AcDbEntity
  8
TEXT
  6
Continuous
 62
     0
100
AcDbText
 10
187.707747
 20
178.5
 30
0.0
 40
3.0
  1
41
100
AcDbText
  0
ENDBLK
  5
6BF
100
AcDbEntity
  8
0
100
AcDbBlockEnd
  0
BLOCK
  5
6C2
100
AcDbEntity
  8
0
100
AcDbBlockBegin
  2
*B107
 70
     0
 10
0.0
 20
0.0
 30
0.0
  3
*B107
  1

  0
TEXT
  5
6C3
100
AcDbEntity
  8
TEXT
  6
Continuous
 62
     0
100
AcDbText
 10
151.207747
 20
178.5
 30
0.0
 40
3.0
  1
32
100
AcDbText
  0
ENDBLK
  5
6C4
100
AcDbEntity
  8
0
100
AcDbBlockEnd
  0
BLOCK
  5
6C7
100
AcDbEntity
  8
0
100
AcDbBlockBegin
  2
*B108
 70
     0
 10
0.0
 20
0.0
 30
0.0
  3
*B108
  1

  0
TEXT
  5
6C8
100
AcDbEntity
  8
TEXT
  6
Continuous
 62
     0
100
AcDbText
 10
21.5
 20
140.601947
 30
0.0
 40
3.0
  1
77
 50
90.0
100
AcDbText
  0
ENDBLK
  5
6C9
100
AcDbEntity
  8
0
100
AcDbBlockEnd
  0
BLOCK
  5
6CC
100
AcDbEntity
  8
0
100
AcDbBlockBegin
  2
*B109
 70
     0
 10
0.0
 20
0.0
 30
0.0
  3
*B109
  1

  0
TEXT
  5
6CD
100
AcDbEntity
  8
TEXT
  6
Continuous
 62
     0
100
AcDbText
 10
241.5
 20
132.102171
 30
0.0
 40
3.0
  1
60
 50
90.0
100
AcDbText
  0
ENDBLK
  5
6CE
100
AcDbEntity
  8
0
100
AcDbBlockEnd
  0
BLOCK
  5
6D1
100
AcDbEntity
  8
0
100
AcDbBlockBegin
  2
*B110
 70
     0
 10
0.0
 20
0.0
 30
0.0
  3
*B110
  1

  0
TEXT
  5
6D2
100
AcDbEntity
  8
TEXT
  6
Continuous
 62
     0
100
AcDbText
 10
285.5
 20
41.829804
 30
0.0
 40
3.0
  1
30
 50
90.0
100
AcDbText
  0
ENDBLK
  5
6D3
100
AcDbEntity
  8
0
100
AcDbBlockEnd
  0
BLOCK
  5
6D6
100
AcDbEntity
  8
0
100
AcDbBlockBegin
  2
*B111
 70
     0
 10
0.0
 20
0.0
 30
0.0
  3
*B111
  1

  0
TEXT
  5
6D7
100
AcDbEntity
  8
TEXT
  6
Continuous
 62
     0
100
AcDbText
 10
149.779176
 20
81.5
 30
0.0
 40
3.0
  1
146
100
AcDbText
  0
ENDBLK
  5
6D8
100
AcDbEntity
  8
0
100
AcDbBlockEnd
  0
BLOCK
  5
6DB
100
AcDbEntity
  8
0
100
AcDbBlockBegin
  2
*B112
 70
     0
 10
0.0
 20
0.0
 30
0.0
  3
*B112
  1

  0
TEXT
  5
6DC
100
AcDbEntity
  8
TEXT
  6
Continuous
 62
     0
100
AcDbText
 10
53.457747
 20
192.5
 30
0.0
 40
3.0
  1
48
100
AcDbText
  0
ENDBLK
  5
6DD
100
AcDbEntity
  8
0
100
AcDbBlockEnd
  0
BLOCK
  5
6E0
100
AcDbEntity
  8
0
100
AcDbBlockBegin
  2
*B113
 70
     0
 10
0.0
 20
0.0
 30
0.0
  3
*B113
  1

  0
TEXT
  5
6E1
100
AcDbEntity
  8
TEXT
  6
Continuous
 62
     0
100
AcDbText
 10
167.207747
 20
93.5
 30
0.0
 40
3.0
  1
32
100
AcDbText
  0
ENDBLK
  5
6E2
100
AcDbEntity
  8
0
100
AcDbBlockEnd
  0
BLOCK
  5
6E5
100
AcDbEntity
  8
0
100
AcDbBlockBegin
  2
*B114
 70
     0
 10
0.0
 20
0.0
 30
0.0
  3
*B114
  1

  0
TEXT
  5
6E6
100
AcDbEntity
  8
TEXT
  6
Continuous
 62
     0
100
AcDbText
 10
201.707747
 20
69.5
 30
0.0
 40
3.0
  1
13
100
AcDbText
  0
ENDBLK
  5
6E7
100
AcDbEntity
  8
0
100
AcDbBlockEnd
  0
BLOCK
  5
6EA
100
AcDbEntity
  8
0
100
AcDbBlockBegin
  2
*B115
 70
     0
 10
0.0
 20
0.0
 30
0.0
  3
*B115
  1

  0
TEXT
  5
6EB
100
AcDbEntity
  8
TEXT
  6
Continuous
 62
     0
100
AcDbText
 10
151.207747
 20
191.5
 30
0.0
 40
3.0
  1
64
100
AcDbText
  0
ENDBLK
  5
6EC
100
AcDbEntity
  8
0
100
AcDbBlockEnd
  0
BLOCK
  5
6EF
100
AcDbEntity
  8
0
100
AcDbBlockBegin
  2
*B116
 70
     0
 10
0.0
 20
0.0
 30
0.0
  3
*B116
  1

  0
TEXT
  5
6F0
100
AcDbEntity
  8
TEXT
  6
Continuous
 62
     0
100
AcDbText
 10
102.328571
 20
178.5
 30
0.0
 40
3.0
  1
%%c6,6
100
AcDbText
  0
ENDBLK
  5
6F1
100
AcDbEntity
  8
0
100
AcDbBlockEnd
  0
BLOCK
  5
6F4
100
AcDbEntity
  8
0
100
AcDbBlockBegin
  2
*B117
 70
     0
 10
0.0
 20
0.0
 30
0.0
  3
*B117
  1

  0
TEXT
  5
6F5
100
AcDbEntity
  8
TEXT
  6
Continuous
 62
     0
100
AcDbText
 10
248.957747
 20
192.5
 30
0.0
 40
3.0
  1
48
100
AcDbText
  0
ENDBLK
  5
6F6
100
AcDbEntity
  8
0
100
AcDbBlockEnd
  0
BLOCK
  5
6F9
100
AcDbEntity
  8
0
100
AcDbBlockBegin
  2
*B118
 70
     0
 10
0.0
 20
0.0
 30
0.0
  3
*B118
  1

  0
TEXT
  5
6FA
100
AcDbEntity
  8
TEXT
  6
Continuous
 62
     0
100
AcDbText
 10
119.5
 20
41.954804
 30
0.0
 40
3.0
  1
20
 50
90.0
100
AcDbText
  0
ENDBLK
  5
6FB
100
AcDbEntity
  8
0
100
AcDbBlockEnd
  0
BLOCK
  5
6FE
100
AcDbEntity
  8
0
100
AcDbBlockBegin
  2
*B119
 70
     0
 10
0.0
 20
0.0
 30
0.0
  3
*B119
  1

  0
TEXT
  5
6FF
100
AcDbEntity
  8
TEXT
  6
Continuous
 62
     0
100
AcDbText
 10
21.5
 20
41.829804
 30
0.0
 40
3.0
  1
22
 50
90.0
100
AcDbText
  0
ENDBLK
  5
700
100
AcDbEntity
  8
0
100
AcDbBlockEnd
  0
ENDSEC
  0
SECTION
  2
ENTITIES
  0
INSERT
  5
243
100
AcDbEntity
  8
0
  6
HIDDEN
 62
   174
100
AcDbBlockReference
  2
*B1
 10
0.0
 20
0.0
 30
0.0
  0
INSERT
  5
37C
100
AcDbEntity
  8
0
  6
Continuous
 62
   174
100
AcDbBlockReference
  2
*B2
 10
0.0
 20
0.0
 30
0.0
  0
INSERT
  5
382
100
AcDbEntity
  8
0
  6
Continuous
 62
   172
100
AcDbBlockReference
  2
*B3
 10
0.0
 20
0.0
 30
0.0
  0
INSERT
  5
38D
100
AcDbEntity
  8
0
  6
Continuous
 62
   172
100
AcDbBlockReference
  2
*B4
 10
0.0
 20
0.0
 30
0.0
  0
INSERT
  5
397
100
AcDbEntity
  8
0
  6
Continuous
 62
     0
100
AcDbBlockReference
  2
*B6
 10
0.0
 20
0.0
 30
0.0
  0
INSERT
  5
39E
100
AcDbEntity
  8
0
  6
Continuous
 62
     0
100
AcDbBlockReference
  2
*B7
 10
0.0
 20
0.0
 30
0.0
  0
INSERT
  5
3A5
100
AcDbEntity
  8
0
  6
Continuous
 62
     0
100
AcDbBlockReference
  2
*B8
 10
0.0
 20
0.0
 30
0.0
  0
INSERT
  5
3AC
100
AcDbEntity
  8
0
  6
Continuous
 62
     0
100
AcDbBlockReference
  2
*B9
 10
0.0
 20
0.0
 30
0.0
  0
INSERT
  5
3B3
100
AcDbEntity
  8
0
  6
Continuous
 62
     0
100
AcDbBlockReference
  2
*B10
 10
0.0
 20
0.0
 30
0.0
  0
INSERT
  5
3BA
100
AcDbEntity
  8
0
  6
Continuous
 62
     0
100
AcDbBlockReference
  2
*B11
 10
0.0
 20
0.0
 30
0.0
  0
INSERT
  5
3C1
100
AcDbEntity
  8
0
  6
Continuous
 62
     0
100
AcDbBlockReference
  2
*B12
 10
0.0
 20
0.0
 30
0.0
  0
INSERT
  5
3C8
100
AcDbEntity
  8
0
  6
Continuous
 62
     0
100
AcDbBlockReference
  2
*B13
 10
0.0
 20
0.0
 30
0.0
  0
INSERT
  5
3CF
100
AcDbEntity
  8
0
  6
Continuous
 62
     0
100
AcDbBlockReference
  2
*B14
 10
0.0
 20
0.0
 30
0.0
  0
INSERT
  5
3D6
100
AcDbEntity
  8
0
  6
Continuous
 62
     0
100
AcDbBlockReference
  2
*B15
 10
0.0
 20
0.0
 30
0.0
  0
INSERT
  5
3DD
100
AcDbEntity
  8
0
  6
Continuous
 62
     0
100
AcDbBlockReference
  2
*B16
 10
0.0
 20
0.0
 30
0.0
  0
INSERT
  5
3E4
100
AcDbEntity
  8
0
  6
Continuous
 62
     0
100
AcDbBlockReference
  2
*B17
 10
0.0
 20
0.0
 30
0.0
  0
INSERT
  5
3EB
100
AcDbEntity
  8
0
  6
Continuous
 62
     0
100
AcDbBlockReference
  2
*B18
 10
0.0
 20
0.0
 30
0.0
  0
INSERT
  5
3F2
100
AcDbEntity
  8
0
  6
Continuous
 62
     0
100
AcDbBlockReference
  2
*B19
 10
0.0
 20
0.0
 30
0.0
  0
INSERT
  5
3F9
100
AcDbEntity
  8
0
  6
Continuous
 62
     0
100
AcDbBlockReference
  2
*B20
 10
0.0
 20
0.0
 30
0.0
  0
INSERT
  5
400
100
AcDbEntity
  8
0
  6
Continuous
 62
     0
100
AcDbBlockReference
  2
*B21
 10
0.0
 20
0.0
 30
0.0
  0
INSERT
  5
407
100
AcDbEntity
  8
0
  6
Continuous
 62
     0
100
AcDbBlockReference
  2
*B22
 10
0.0
 20
0.0
 30
0.0
  0
INSERT
  5
40E
100
AcDbEntity
  8
0
  6
Continuous
 62
     0
100
AcDbBlockReference
  2
*B23
 10
0.0
 20
0.0
 30
0.0
  0
INSERT
  5
415
100
AcDbEntity
  8
0
  6
Continuous
 62
     0
100
AcDbBlockReference
  2
*B24
 10
0.0
 20
0.0
 30
0.0
  0
INSERT
  5
41C
100
AcDbEntity
  8
0
  6
Continuous
 62
     0
100
AcDbBlockReference
  2
*B25
 10
0.0
 20
0.0
 30
0.0
  0
INSERT
  5
423
100
AcDbEntity
  8
0
  6
Continuous
 62
     0
100
AcDbBlockReference
  2
*B26
 10
0.0
 20
0.0
 30
0.0
  0
INSERT
  5
428
100
AcDbEntity
  8
0
  6
Continuous
 62
     8
100
AcDbBlockReference
  2
*B27
 10
0.0
 20
0.0
 30
0.0
  0
INSERT
  5
435
100
AcDbEntity
  8
0
  6
Continuous
 62
     8
100
AcDbBlockReference
  2
*B28
 10
0.0
 20
0.0
 30
0.0
  0
INSERT
  5
43C
100
AcDbEntity
  8
0
  6
Continuous
 62
     8
100
AcDbBlockReference
  2
*B29
 10
0.0
 20
0.0
 30
0.0
  0
INSERT
  5
441
100
AcDbEntity
  8
0
  6
Continuous
 62
     8
100
AcDbBlockReference
  2
*B30
 10
0.0
 20
0.0
 30
0.0
  0
INSERT
  5
446
100
AcDbEntity
  8
0
  6
Continuous
 62
     8
100
AcDbBlockReference
  2
*B31
 10
0.0
 20
0.0
 30
0.0
  0
INSERT
  5
44B
100
AcDbEntity
  8
0
  6
Continuous
 62
     8
100
AcDbBlockReference
  2
*B32
 10
0.0
 20
0.0
 30
0.0
  0
INSERT
  5
450
100
AcDbEntity
  8
0
  6
Continuous
 62
     8
100
AcDbBlockReference
  2
*B33
 10
0.0
 20
0.0
 30
0.0
  0
INSERT
  5
455
100
AcDbEntity
  8
0
  6
Continuous
 62
     8
100
AcDbBlockReference
  2
*B34
 10
0.0
 20
0.0
 30
0.0
  0
INSERT
  5
45B
100
AcDbEntity
  8
0
  6
Continuous
 62
     8
100
AcDbBlockReference
  2
*B35
 10
0.0
 20
0.0
 30
0.0
  0
INSERT
  5
46C
100
AcDbEntity
  8
0
  6
Continuous
 62
     8
100
AcDbBlockReference
  2
*B36
 10
0.0
 20
0.0
 30
0.0
  0
INSERT
  5
486
100
AcDbEntity
  8
0
  6
Continuous
 62
     8
100
AcDbBlockReference
  2
*B37
 10
0.0
 20
0.0
 30
0.0
  0
INSERT
  5
4C1
100
AcDbEntity
  8
0
  6
Continuous
 62
     8
100
AcDbBlockReference
  2
*B38
 10
0.0
 20
0.0
 30
0.0
  0
INSERT
  5
4C6
100
AcDbEntity
  8
0
  6
Continuous
 62
     8
100
AcDbBlockReference
  2
*B39
 10
0.0
 20
0.0
 30
0.0
  0
INSERT
  5
4CC
100
AcDbEntity
  8
0
  6
Continuous
 62
     8
100
AcDbBlockReference
  2
*B40
 10
0.0
 20
0.0
 30
0.0
  0
INSERT
  5
4D1
100
AcDbEntity
  8
0
  6
Continuous
 62
     8
100
AcDbBlockReference
  2
*B41
 10
0.0
 20
0.0
 30
0.0
  0
INSERT
  5
508
100
AcDbEntity
  8
0
  6
Continuous
 62
     8
100
AcDbBlockReference
  2
*B42
 10
0.0
 20
0.0
 30
0.0
  0
INSERT
  5
50E
100
AcDbEntity
  8
0
  6
Continuous
 62
     8
100
AcDbBlockReference
  2
*B43
 10
0.0
 20
0.0
 30
0.0
  0
INSERT
  5
513
100
AcDbEntity
  8
0
  6
Continuous
 62
     8
100
AcDbBlockReference
  2
*B44
 10
0.0
 20
0.0
 30
0.0
  0
INSERT
  5
518
100
AcDbEntity
  8
0
  6
Continuous
 62
     8
100
AcDbBlockReference
  2
*B45
 10
0.0
 20
0.0
 30
0.0
  0
INSERT
  5
51D
100
AcDbEntity
  8
0
  6
Continuous
 62
     8
100
AcDbBlockReference
  2
*B46
 10
0.0
 20
0.0
 30
0.0
  0
INSERT
  5
524
100
AcDbEntity
  8
0
  6
Continuous
 62
     8
100
AcDbBlockReference
  2
*B47
 10
0.0
 20
0.0
 30
0.0
  0
INSERT
  5
529
100
AcDbEntity
  8
0
  6
Continuous
 62
     8
100
AcDbBlockReference
  2
*B48
 10
0.0
 20
0.0
 30
0.0
  0
INSERT
  5
52E
100
AcDbEntity
  8
0
  6
Continuous
 62
     8
100
AcDbBlockReference
  2
*B49
 10
0.0
 20
0.0
 30
0.0
  0
INSERT
  5
545
100
AcDbEntity
  8
0
  6
Continuous
 62
     8
100
AcDbBlockReference
  2
*B50
 10
0.0
 20
0.0
 30
0.0
  0
INSERT
  5
54C
100
AcDbEntity
  8
0
  6
Continuous
 62
     8
100
AcDbBlockReference
  2
*B51
 10
0.0
 20
0.0
 30
0.0
  0
INSERT
  5
551
100
AcDbEntity
  8
0
  6
Continuous
 62
     8
100
AcDbBlockReference
  2
*B52
 10
0.0
 20
0.0
 30
0.0
  0
INSERT
  5
557
100
AcDbEntity
  8
0
  6
Continuous
 62
     8
100
AcDbBlockReference
  2
*B53
 10
0.0
 20
0.0
 30
0.0
  0
INSERT
  5
55C
100
AcDbEntity
  8
0
  6
Continuous
 62
     8
100
AcDbBlockReference
  2
*B54
 10
0.0
 20
0.0
 30
0.0
  0
INSERT
  5
56F
100
AcDbEntity
  8
0
  6
Continuous
 62
     8
100
AcDbBlockReference
  2
*B55
 10
0.0
 20
0.0
 30
0.0
  0
INSERT
  5
574
100
AcDbEntity
  8
0
  6
Continuous
 62
     8
100
AcDbBlockReference
  2
*B56
 10
0.0
 20
0.0
 30
0.0
  0
INSERT
  5
57F
100
AcDbEntity
  8
0
  6
Continuous
 62
     8
100
AcDbBlockReference
  2
*B57
 10
0.0
 20
0.0
 30
0.0
  0
INSERT
  5
599
100
AcDbEntity
  8
0
  6
Continuous
 62
     8
100
AcDbBlockReference
  2
*B58
 10
0.0
 20
0.0
 30
0.0
  0
INSERT
  5
59F
100
AcDbEntity
  8
0
  6
Continuous
 62
     8
100
AcDbBlockReference
  2
*B59
 10
0.0
 20
0.0
 30
0.0
  0
INSERT
  5
5A6
100
AcDbEntity
  8
0
  6
Continuous
 62
     8
100
AcDbBlockReference
  2
*B60
 10
0.0
 20
0.0
 30
0.0
  0
INSERT
  5
5AB
100
AcDbEntity
  8
0
  6
Continuous
 62
     8
100
AcDbBlockReference
  2
*B61
 10
0.0
 20
0.0
 30
0.0
  0
INSERT
  5
5B1
100
AcDbEntity
  8
0
  6
Continuous
 62
     8
100
AcDbBlockReference
  2
*B62
 10
0.0
 20
0.0
 30
0.0
  0
INSERT
  5
5B6
100
AcDbEntity
  8
0
  6
Continuous
 62
     8
100
AcDbBlockReference
  2
*B63
 10
0.0
 20
0.0
 30
0.0
  0
INSERT
  5
5BB
100
AcDbEntity
  8
0
  6
Continuous
 62
     8
100
AcDbBlockReference
  2
*B64
 10
0.0
 20
0.0
 30
0.0
  0
INSERT
  5
5CE
100
AcDbEntity
  8
0
  6
Continuous
 62
     8
100
AcDbBlockReference
  2
*B65
 10
0.0
 20
0.0
 30
0.0
  0
INSERT
  5
5D3
100
AcDbEntity
  8
0
  6
Continuous
 62
     8
100
AcDbBlockReference
  2
*B66
 10
0.0
 20
0.0
 30
0.0
  0
INSERT
  5
5D9
100
AcDbEntity
  8
0
  6
Continuous
 62
     8
100
AcDbBlockReference
  2
*B67
 10
0.0
 20
0.0
 30
0.0
  0
INSERT
  5
5E6
100
AcDbEntity
  8
0
  6
Continuous
 62
     8
100
AcDbBlockReference
  2
*B68
 10
0.0
 20
0.0
 30
0.0
  0
INSERT
  5
5F2
100
AcDbEntity
  8
0
  6
Continuous
 62
     8
100
AcDbBlockReference
  2
*B69
 10
0.0
 20
0.0
 30
0.0
  0
INSERT
  5
5FD
100
AcDbEntity
  8
0
  6
Continuous
 62
     8
100
AcDbBlockReference
  2
*B70
 10
0.0
 20
0.0
 30
0.0
  0
INSERT
  5
603
100
AcDbEntity
  8
0
  6
Continuous
 62
     8
100
AcDbBlockReference
  2
*B71
 10
0.0
 20
0.0
 30
0.0
  0
INSERT
  5
609
100
AcDbEntity
  8
0
  6
Continuous
 62
     8
100
AcDbBlockReference
  2
*B72
 10
0.0
 20
0.0
 30
0.0
  0
INSERT
  5
60E
100
AcDbEntity
  8
0
  6
Continuous
 62
     8
100
AcDbBlockReference
  2
*B73
 10
0.0
 20
0.0
 30
0.0
  0
INSERT
  5
613
100
AcDbEntity
  8
0
  6
Continuous
 62
     8
100
AcDbBlockReference
  2
*B74
 10
0.0
 20
0.0
 30
0.0
  0
INSERT
  5
619
100
AcDbEntity
  8
0
  6
Continuous
 62
     6
100
AcDbBlockReference
  2
*B75
 10
0.0
 20
0.0
 30
0.0
  0
INSERT
  5
61F
100
AcDbEntity
  8
0
  6
Continuous
 62
     6
100
AcDbBlockReference
  2
*B76
 10
0.0
 20
0.0
 30
0.0
  0
INSERT
  5
625
100
AcDbEntity
  8
0
  6
Continuous
 62
     6
100
AcDbBlockReference
  2
*B77
 10
0.0
 20
0.0
 30
0.0
  0
INSERT
  5
62B
100
AcDbEntity
  8
0
  6
Continuous
 62
     6
100
AcDbBlockReference
  2
*B78
 10
0.0
 20
0.0
 30
0.0
  0
INSERT
  5
631
100
AcDbEntity
  8
0
  6
Continuous
 62
     6
100
AcDbBlockReference
  2
*B79
 10
0.0
 20
0.0
 30
0.0
  0
INSERT
  5
637
100
AcDbEntity
  8
0
  6
Continuous
 62
     6
100
AcDbBlockReference
  2
*B80
 10
0.0
 20
0.0
 30
0.0
  0
INSERT
  5
63D
100
AcDbEntity
  8
0
  6
Continuous
 62
     6
100
AcDbBlockReference
  2
*B81
 10
0.0
 20
0.0
 30
0.0
  0
INSERT
  5
643
100
AcDbEntity
  8
0
  6
Continuous
 62
     6
100
AcDbBlockReference
  2
*B82
 10
0.0
 20
0.0
 30
0.0
  0
INSERT
  5
649
100
AcDbEntity
  8
0
  6
Continuous
 62
     6
100
AcDbBlockReference
  2
*B83
 10
0.0
 20
0.0
 30
0.0
  0
INSERT
  5
64F
100
AcDbEntity
  8
0
  6
Continuous
 62
     6
100
AcDbBlockReference
  2
*B84
 10
0.0
 20
0.0
 30
0.0
  0
INSERT
  5
655
100
AcDbEntity
  8
0
  6
Continuous
 62
     6
100
AcDbBlockReference
  2
*B85
 10
0.0
 20
0.0
 30
0.0
  0
INSERT
  5
65B
100
AcDbEntity
  8
0
  6
Continuous
 62
     6
100
AcDbBlockReference
  2
*B86
 10
0.0
 20
0.0
 30
0.0
  0
INSERT
  5
661
100
AcDbEntity
  8
0
  6
Continuous
 62
     6
100
AcDbBlockReference
  2
*B87
 10
0.0
 20
0.0
 30
0.0
  0
INSERT
  5
666
100
AcDbEntity
  8
TEXT
  6
Continuous
 62
     0
100
AcDbBlockReference
  2
*B88
 10
0.0
 20
0.0
 30
0.0
  0
INSERT
  5
66B
100
AcDbEntity
  8
TEXT
  6
Continuous
 62
     0
100
AcDbBlockReference
  2
*B89
 10
0.0
 20
0.0
 30
0.0
  0
INSERT
  5
670
100
AcDbEntity
  8
TEXT
  6
Continuous
 62
     0
100
AcDbBlockReference
  2
*B90
 10
0.0
 20
0.0
 30
0.0
  0
INSERT
  5
675
100
AcDbEntity
  8
TEXT
  6
Continuous
 62
     0
100
AcDbBlockReference
  2
*B91
 10
0.0
 20
0.0
 30
0.0
  0
INSERT
  5
67A
100
AcDbEntity
  8
TEXT
  6
Continuous
 62
     0
100
AcDbBlockReference
  2
*B92
 10
0.0
 20
0.0
 30
0.0
  0
INSERT
  5
67F
100
AcDbEntity
  8
TEXT
  6
Continuous
 62
     0
100
AcDbBlockReference
  2
*B93
 10
0.0
 20
0.0
 30
0.0
  0
INSERT
  5
684
100
AcDbEntity
  8
TEXT
  6
Continuous
 62
     0
100
AcDbBlockReference
  2
*B94
 10
0.0
 20
0.0
 30
0.0
  0
INSERT
  5
689
100
AcDbEntity
  8
TEXT
  6
Continuous
 62
     0
100
AcDbBlockReference
  2
*B95
 10
0.0
 20
0.0
 30
0.0
  0
INSERT
  5
68E
100
AcDbEntity
  8
TEXT
  6
Continuous
 62
     0
100
AcDbBlockReference
  2
*B96
 10
0.0
 20
0.0
 30
0.0
  0
INSERT
  5
693
100
AcDbEntity
  8
TEXT
  6
Continuous
 62
     0
100
AcDbBlockReference
  2
*B97
 10
0.0
 20
0.0
 30
0.0
  0
INSERT
  5
698
100
AcDbEntity
  8
TEXT
  6
Continuous
 62
     0
100
AcDbBlockReference
  2
*B98
 10
0.0
 20
0.0
 30
0.0
  0
INSERT
  5
69D
100
AcDbEntity
  8
TEXT
  6
Continuous
 62
     0
100
AcDbBlockReference
  2
*B99
 10
0.0
 20
0.0
 30
0.0
  0
INSERT
  5
6A2
100
AcDbEntity
  8
TEXT
  6
Continuous
 62
     0
100
AcDbBlockReference
  2
*B100
 10
0.0
 20
0.0
 30
0.0
  0
INSERT
  5
6A7
100
AcDbEntity
  8
TEXT
  6
Continuous
 62
     0
100
AcDbBlockReference
  2
*B101
 10
0.0
 20
0.0
 30
0.0
  0
INSERT
  5
6AC
100
AcDbEntity
  8
TEXT
  6
Continuous
 62
     0
100
AcDbBlockReference
  2
*B102
 10
0.0
 20
0.0
 30
0.0
  0
INSERT
  5
6B1
100
AcDbEntity
  8
TEXT
  6
Continuous
 62
     0
100
AcDbBlockReference
  2
*B103
 10
0.0
 20
0.0
 30
0.0
  0
INSERT
  5
6B6
100
AcDbEntity
  8
TEXT
  6
Continuous
 62
     0
100
AcDbBlockReference
  2
*B104
 10
0.0
 20
0.0
 30
0.0
  0
INSERT
  5
6BB
100
AcDbEntity
  8
TEXT
  6
Continuous
 62
     0
100
AcDbBlockReference
  2
*B105
 10
0.0
 20
0.0
 30
0.0
  0
INSERT
  5
6C0
100
AcDbEntity
  8
TEXT
  6
Continuous
 62
     0
100
AcDbBlockReference
  2
*B106
 10
0.0
 20
0.0
 30
0.0
  0
INSERT
  5
6C5
100
AcDbEntity
  8
TEXT
  6
Continuous
 62
     0
100
AcDbBlockReference
  2
*B107
 10
0.0
 20
0.0
 30
0.0
  0
INSERT
  5
6CA
100
AcDbEntity
  8
TEXT
  6
Continuous
 62
     0
100
AcDbBlockReference
  2
*B108
 10
0.0
 20
0.0
 30
0.0
  0
INSERT
  5
6CF
100
AcDbEntity
  8
TEXT
  6
Continuous
 62
     0
100
AcDbBlockReference
  2
*B109
 10
0.0
 20
0.0
 30
0.0
  0
INSERT
  5
6D4
100
AcDbEntity
  8
TEXT
  6
Continuous
 62
     0
100
AcDbBlockReference
  2
*B110
 10
0.0
 20
0.0
 30
0.0
  0
INSERT
  5
6D9
100
AcDbEntity
  8
TEXT
  6
Continuous
 62
     0
100
AcDbBlockReference
  2
*B111
 10
0.0
 20
0.0
 30
0.0
  0
INSERT
  5
6DE
100
AcDbEntity
  8
TEXT
  6
Continuous
 62
     0
100
AcDbBlockReference
  2
*B112
 10
0.0
 20
0.0
 30
0.0
  0
INSERT
  5
6E3
100
AcDbEntity
  8
TEXT
  6
Continuous
 62
     0
100
AcDbBlockReference
  2
*B113
 10
0.0
 20
0.0
 30
0.0
  0
INSERT
  5
6E8
100
AcDbEntity
  8
TEXT
  6
Continuous
 62
     0
100
AcDbBlockReference
  2
*B114
 10
0.0
 20
0.0
 30
0.0
  0
INSERT
  5
6ED
100
AcDbEntity
  8
TEXT
  6
Continuous
 62
     0
100
AcDbBlockReference
  2
*B115
 10
0.0
 20
0.0
 30
0.0
  0
INSERT
  5
6F2
100
AcDbEntity
  8
TEXT
  6
Continuous
 62
     0
100
AcDbBlockReference
  2
*B116
 10
0.0
 20
0.0
 30
0.0
  0
INSERT
  5
6F7
100
AcDbEntity
  8
TEXT
  6
Continuous
 62
     0
100
AcDbBlockReference
  2
*B117
 10
0.0
 20
0.0
 30
0.0
  0
INSERT
  5
6FC
100
AcDbEntity
  8
TEXT
  6
Continuous
 62
     0
100
AcDbBlockReference
  2
*B118
 10
0.0
 20
0.0
 30
0.0
  0
INSERT
  5
701
100
AcDbEntity
  8
TEXT
  6
Continuous
 62
     0
100
AcDbBlockReference
  2
*B119
 10
0.0
 20
0.0
 30
0.0
  0
ENDSEC
  0
SECTION
  2
OBJECTS
  0
DICTIONARY
  5
19
100
AcDbDictionary
280
     0
281
     1
  3
ACAD_GROUP
350
1A
  3
ACAD_MLINESTYLE
350
1B
  3
ACAD_LAYOUT
350
1E
  3
ACAD_PLOTSETTINGS
350
22
  3
ACAD_PLOTSTYLENAME
350
1F
  3
ACAD_WIPEOUT_VARS
350
23
  0
DICTIONARY
  5
1A
102
{ACAD_REACTORS
330
19
102
}
100
AcDbDictionary
280
     0
281
     1
  0
DICTIONARY
  5
1B
102
{ACAD_REACTORS
330
19
102
}
100
AcDbDictionary
280
     0
281
     1
  3
Standard
350
1C
  0
MLINESTYLE
  5
1C
102
{ACAD_REACTORS
330
1B
102
}
100
AcDbMlineStyle
  2
Standard
 70
     0
  3

 62
     0
 51
90.0
 52
90.0
 71
     2
 49
0.5
 62
   256
  6
BYLAYER
 49
-0.5
 62
   256
  6
BYLAYER
  0
ACDBDICTIONARYWDFLT
  5
1F
102
{ACAD_REACTORS
330
19
102
}
100
AcDbDictionary
281
     1
  3
Normal
350
1D
100
AcDbDictionaryWithDefault
340
1D
  0
ACDBPLACEHOLDER
  5
1D
102
{ACAD_REACTORS
330
1F
102
}
  0
LAYOUT
  5
20
102
{ACAD_REACTORS
330
1E
102
}
100
AcDbPlotSettings
  1

  2

  4

  6

 40
0.0
 41
0.0
 42
0.0
 43
0.0
 44
0.0
 45
0.0
 46
0.0
 47
0.0
 48
0.0
 49
0.0
140
0.0
141
0.0
142
1.0
143
1.0
 70
     0
 72
     0
 73
     0
 74
     0
  7

 75
     0
147
1.0
148
0.0
149
0.0
100
AcDbLayout
  1
Model
 70
     0
 71
     0
 10
0.0
 20
0.0
 11
0.0
 21
0.0
 12
0.0
 22
0.0
 32
0.0
 14
0.0
 24
0.0
 34
0.0
 15
0.0
 25
0.0
 35
0.0
146
0.0
 13
0.0
 23
0.0
 33
0.0
 16
0.0
 26
0.0
 36
0.0
 17
0.0
 27
0.0
 37
0.0
 76
     0
330
A
331
0
345
0
346
0
  0
LAYOUT
  5
21
102
{ACAD_REACTORS
330
1E
102
}
100
AcDbPlotSettings
  1

  2

  4

  6

 40
0.0
 41
0.0
 42
0.0
 43
0.0
 44
0.0
 45
0.0
 46
0.0
 47
0.0
 48
0.0
 49
0.0
140
0.0
141
0.0
142
1.0
143
1.0
 70
     0
 72
     0
 73
     0
 74
     0
  7

 75
     0
147
1.0
148
0.0
149
0.0
100
AcDbLayout
  1
Layout1
 70
     0
 71
     0
 10
0.0
 20
0.0
 11
0.0
 21
0.0
 12
0.0
 22
0.0
 32
0.0
 14
0.0
 24
0.0
 34
0.0
 15
0.0
 25
0.0
 35
0.0
146
0.0
 13
0.0
 23
0.0
 33
0.0
 16
0.0
 26
0.0
 36
0.0
 17
0.0
 27
0.0
 37
0.0
 76
     0
330
B
331
0
345
0
346
0
  0
DICTIONARY
  5
1E
102
{ACAD_REACTORS
330
19
102
}
100
AcDbDictionary
280
     0
281
     1
  3
Layout1
350
21
  3
Model
350
20
  0
DICTIONARY
  5
22
102
{ACAD_REACTORS
330
19
102
}
100
AcDbDictionary
280
     0
281
     1
  0
WIPEOUTVARIABLES
  5
23
100
AcDbWipeoutVariables
 70
     1
  0
ENDSEC
  0
EOF
