  0
SECTION
  2
HEADER
  9
$ACADVER
  1
AC1015
  9
$ACADMAINTVER
 70
     6
  9
$DWGCODEPAGE
  3
DOS850
  9
$INSBASE
 10
0.0
 20
0.0
 30
0.0
  9
$EXTMIN
 10
0.0
 20
0.0
 30
0.0
  9
$EXTMAX
 10
297.0
 20
210.0
 30
0.0
  9
$LIMMIN
 10
0.0
 20
0.0
  9
$LIMMAX
 10
297.0
 20
210.0
  9
$ORTHOMODE
 70
     0
  9
$REGENMODE
 70
     1
  9
$FILLMODE
 70
     1
  9
$QTEXTMODE
 70
     0
  9
$MIRRTEXT
 70
     1
  9
$LTSCALE
 40
25.4
  9
$ATTMODE
 70
     1
  9
$TEXTSIZE
 40
3.5
  9
$TRACEWID
 40
0.05
  9
$TEXTSTYLE
  7
Standard
  9
$CLAYER
  8
0
  9
$CELTYPE
  6
Continuous
  9
$CECOLOR
 62
   256
  9
$CELTSCALE
 40
1.0
  9
$DISPSILH
 70
     0
  9
$DIMSCALE
 40
1.0
  9
$DIMASZ
 40
5.0
  9
$DIMEXO
 40
3.0
  9
$DIMDLI
 40
0.38
  9
$DIMRND
 40
0.0
  9
$DIMDLE
 40
0.0
  9
$DIMEXE
 40
2.0
  9
$DIMTP
 40
0.0
  9
$DIMTM
 40
0.0
  9
$DIMTXT
 40
3.5
  9
$DIMCEN
 40
4.0
  9
$DIMTSZ
 40
0.0
  9
$DIMTOL
 70
     0
  9
$DIMLIM
 70
     0
  9
$DIMTIH
 70
     1
  9
$DIMTOH
 70
     1
  9
$DIMSE1
 70
     0
  9
$DIMSE2
 70
     0
  9
$DIMTAD
 70
     0
  9
$DIMZIN
 70
     0
  9
$DIMBLK
  1

  9
$DIMASO
 70
     1
  9
$DIMSHO
 70
     1
  9
$DIMPOST
  1

  9
$DIMAPOST
  1

  9
$DIMALT
 70
     0
  9
$DIMALTD
 70
     2
  9
$DIMALTF
 40
25.4
  9
$DIMLFAC
 40
1.0
  9
$DIMTOFL
 70
     0
  9
$DIMTVP
 40
0.0
  9
$DIMTIX
 70
     0
  9
$DIMSOXD
 70
     0
  9
$DIMSAH
 70
     0
  9
$DIMBLK1
  1

  9
$DIMBLK2
  1

  9
$DIMSTYLE
  2
Standard
  9
$DIMCLRD
 70
     0
  9
$DIMCLRE
 70
     0
  9
$DIMCLRT
 70
     0
  9
$DIMTFAC
 40
1.0
  9
$DIMGAP
 40
1.0
  9
$DIMJUST
 70
     0
  9
$DIMSD1
 70
     0
  9
$DIMSD2
 70
     0
  9
$DIMTOLJ
 70
     1
  9
$DIMTZIN
 70
     0
  9
$DIMALTZ
 70
     0
  9
$DIMALTTZ
 70
     0
  9
$DIMUPT
 70
     0
  9
$DIMDEC
 70
     4
  9
$DIMTDEC
 70
     4
  9
$DIMALTU
 70
     2
  9
$DIMALTTD
 70
     2
  9
$DIMTXSTY
  7
Standard
  9
$DIMAUNIT
 70
     0
  9
$DIMADEC
 70
     0
  9
$DIMALTRND
 40
0.0
  9
$DIMAZIN
 70
     0
  9
$DIMDSEP
 70
     0
  9
$DIMATFIT
 70
     3
  9
$DIMFRAC
 70
     0
  9
$DIMLDRBLK
  1

  9
$DIMLUNIT
 70
     2
  9
$DIMLWD
 70
     0
  9
$DIMLWE
 70
     0
  9
$DIMTMOVE
 70
     0
  9
$LUNITS
 70
     2
  9
$LUPREC
 70
     4
  9
$SKETCHINC
 40
0.1
  9
$FILLETRAD
 40
0.0
  9
$AUNITS
 70
     0
  9
$AUPREC
 70
     0
  9
$MENU
  1
acad
  9
$ELEVATION
 40
0.0
  9
$PELEVATION
 40
0.0
  9
$THICKNESS
 40
0.0
  9
$LIMCHECK
 70
     0
  9
$CHAMFERA
 40
0.0
  9
$CHAMFERB
 40
0.0
  9
$CHAMFERC
 40
0.0
  9
$CHAMFERD
 40
0.0
  9
$SKPOLY
 70
     0
  9
$TDCREATE
 40
0.000000000
  9
$TDUCREATE
 40
0.000000000
  9
$TDUPDATE
 40
0.000000000
  9
$TDUUPDATE
 40
0.000000000
  9
$TDINDWG
 40
0.0000000000
  9
$TDUSRTIMER
 40
0.0000000000
  9
$USRTIMER
 70
     1
  9
$ANGBASE
 50
0.0
  9
$ANGDIR
 70
     0
  9
$PDMODE
 70
     0
  9
$PDSIZE
 40
0.0
  9
$PLINEWID
 40
0.0
  9
$SPLFRAME
 70
     0
  9
$SPLINETYPE
 70
     6
  9
$SPLINESEGS
 70
     8
  9
$HANDSEED
  5
4D2
  9
$SURFTAB1
 70
     6
  9
$SURFTAB2
 70
     6
  9
$SURFTYPE
 70
     6
  9
$SURFU
 70
     6
  9
$SURFV
 70
     6
  9
$UCSBASE
  2

  9
$UCSNAME
  2

  9
$UCSORG
 10
0.0
 20
0.0
 30
0.0
  9
$UCSXDIR
 10
1.0
 20
0.0
 30
0.0
  9
$UCSYDIR
 10
0.0
 20
1.0
 30
0.0
  9
$UCSORTHOREF
  2

  9
$UCSORTHOVIEW
 70
     0
  9
$UCSORGTOP
 10
0.0
 20
0.0
 30
0.0
  9
$UCSORGBOTTOM
 10
0.0
 20
0.0
 30
0.0
  9
$UCSORGLEFT
 10
0.0
 20
0.0
 30
0.0
  9
$UCSORGRIGHT
 10
0.0
 20
0.0
 30
0.0
  9
$UCSORGFRONT
 10
0.0
 20
0.0
 30
0.0
  9
$UCSORGBACK
 10
0.0
 20
0.0
 30
0.0
  9
$PUCSBASE
  2

  9
$PUCSNAME
  2

  9
$PUCSORG
 10
0.0
 20
0.0
 30
0.0
  9
$PUCSXDIR
 10
1.0
 20
0.0
 30
0.0
  9
$PUCSYDIR
 10
0.0
 20
1.0
 30
0.0
  9
$PUCSORTHOREF
  2

  9
$PUCSORTHOVIEW
 70
     0
  9
$PUCSORGTOP
 10
0.0
 20
0.0
 30
0.0
  9
$PUCSORGBOTTOM
 10
0.0
 20
0.0
 30
0.0
  9
$PUCSORGLEFT
 10
0.0
 20
0.0
 30
0.0
  9
$PUCSORGRIGHT
 10
0.0
 20
0.0
 30
0.0
  9
$PUCSORGFRONT
 10
0.0
 20
0.0
 30
0.0
  9
$PUCSORGBACK
 10
0.0
 20
0.0
 30
0.0
  9
$USERI1
 70
     0
  9
$USERI2
 70
     0
  9
$USERI3
 70
     0
  9
$USERI4
 70
     0
  9
$USERI5
 70
     0
  9
$USERR1
 40
0.0
  9
$USERR2
 40
0.0
  9
$USERR3
 40
0.0
  9
$USERR4
 40
0.0
  9
$USERR5
 40
0.0
  9
$WORLDVIEW
 70
     1
  9
$SHADEDGE
 70
     3
  9
$SHADEDIF
 70
    70
  9
$TILEMODE
 70
     1
  9
$MAXACTVP
 70
    16
  9
$PINSBASE
 10
0.0
 20
0.0
 30
0.0
  9
$PLIMCHECK
 70
     0
  9
$PEXTMIN
 10
1.000000E+20
 20
1.000000E+20
 30
1.000000E+20
  9
$PEXTMAX
 10
-1.000000E+20
 20
-1.000000E+20
 30
-1.000000E+20
  9
$PLIMMIN
 10
0.0
 20
0.0
  9
$PLIMMAX
 10
297.0
 20
210.0
  9
$UNITMODE
 70
     0
  9
$VISRETAIN
 70
     0
  9
$PLINEGEN
 70
     1
  9
$PSLTSCALE
 70
     0
  9
$TREEDEPTH
 70
  3020
  9
$CMLSTYLE
  2
Standard
  9
$CMLJUST
 70
     0
  9
$CMLSCALE
 40
1.0
  9
$PROXYGRAPHICS
 70
     0
  9
$MEASUREMENT
 70
     0
  9
$CELWEIGHT
370
     0
  9
$ENDCAPS
280
     0
  9
$JOINSTYLE
280
     0
  9
$LWDISPLAY
290
     0
  9
$INSUNITS
 70
     0
  9
$HYPERLINKBASE
  1

  9
$XEDIT
290
     1
  9
$CEPSNTYPE
380
     0
  9
$PSTYLEMODE
290
     0
  9
$FINGERPRINTGUID
  2

  9
$VERSIONGUID
  2

  9
$EXTNAMES
290
     1
  9
$PSVPSCALE
 40
0.0
  0
ENDSEC
  0
SECTION
  2
CLASSES
  0
CLASS
  1
LWPOLYLINE
  2
AcDbPolyline
  3
"AutoCAD"
 90
        0
280
     0
281
     1
  0
CLASS
  1
IMAGE
  2
AcDbRasterImage
  3
ISM
 90
      127
280
     0
281
     1
  0
CLASS
  1
OLE2FRAME
  2
AcDbOle2Frame
  3
""
 90
        0
280
     0
281
     1
  0
CLASS
  1
HATCH
  2
AcDbHatch
  3
"ACAD_SEDONA"
 90
        0
280
     0
281
     1
  0
CLASS
  1
DICTIONARYVAR
  2
AcDbDictionaryVar
  3
"AutoCAD"
 90
        0
280
     0
281
     0
  0
CLASS
  1
RASTERVARIABLES
  2
AcDbRasterVariables
  3
ISM
 90
        0
280
     0
281
     0
  0
CLASS
  1
IMAGEDEF
  2
AcDbRasterImageDef
  3
ISM
 90
        0
280
     0
281
     0
  0
CLASS
  1
IMAGEDEF_REACTOR
  2
AcDbRasterImageDefReactor
  3
ISM
 90
        1
280
     0
281
     0
  0
CLASS
  1
IDBUFFER
  2
AcDbIdBuffer
  3
"Acad"
 90
        0
280
     0
281
     0
  0
CLASS
  1
SPATIAL_FILTER
  2
AcDbSpatialFilter
  3
"Acad"
 90
        0
280
     0
281
     0
  0
CLASS
  1
XRECORD
  2
AcDbXrecord
  3
"<Built In>"
 90
        0
280
     0
281
     0
  0
CLASS
  1
SORTENTSTABLE
  2
AcDbSortentsTable
  3
"AutoCAD"
 90
        0
280
     0
281
     0
  0
CLASS
  1
LAYER_INDEX
  2
AcDbLayerIndex
  3
"Acad"
 90
        0
280
     0
281
     0
  0
CLASS
  1
SPATIAL_INDEX
  2
AcDbSpatialIndex
  3
"Acad"
 90
        0
280
     0
281
     0
  0
CLASS
  1
OBJECT_PTR
  2
CAseDLPNTableRecord
  3
"ASE-LPNTableRecord"
 90
        1
280
     0
281
     0
  0
CLASS
  1
LAYOUT
  2
AcDbLayout
  3
"AutoCAD 2000"
 90
        1
280
     0
281
     0
  0
CLASS
  1
PLOTSETTINGS
  2
AcDbPlotSettings
  3
"AutoCAD 2000"
 90
        1
280
     0
281
     0
  0
CLASS
  1
ACDBDICTIONARYWDFLT
  2
AcDbDictionaryWithDefault
  3
"AutoCAD 2000"
 90
        1
280
     0
281
     0
  0
CLASS
  1
ACDBPLACEHOLDER
  2
AcDbPlaceHolder
  3
"AutoCAD 2000"
 90
        1
280
     0
281
     0
  0
CLASS
  1
VBA_PROJECT
  2
AcDbVbaProject
  3
"acadvba"
 90
        1
280
     0
281
     0
  0
CLASS
  1
WIPEOUT
  2
AcDbWipeout
  3
WipeOut|AutoCAD Express Tool|expresstools@autodesk.com
 90
      127
280
     0
281
     1
  0
CLASS
  1
WIPEOUTVARIABLES
  2
AcDbWipeoutVariables
  3
WipeOut|AutoCAD Express Tool|expresstools@autodesk.com
 90
        0
280
     0
281
     0
  0
CLASS
  1
RTEXT
  2
RText
  3
RText|AutoCAD Express Tool|expresstools@autodesk.com
 90
        0
280
     0
281
     1
  0
CLASS
  1
ARCALIGNEDTEXT
  2
AcDbArcAlignedText
  3
ATEXT|AutoCAD Express Tool|expresstools@autodesk.com
 90
        0
280
     0
281
     1
  0
ENDSEC
  0
SECTION
  2
TABLES
  0
TABLE
  2
VPORT
  5
7
100
AcDbSymbolTable
 70
     1
  0
VPORT
  5
15
100
AcDbSymbolTableRecord
100
AcDbViewportTableRecord
  2
*ACTIVE
 70
     0
 10
0.0
 20
0.0
 11
1.0
 21
1.0
 12
6.591288
 22
4.579184
 13
0.0
 23
0.0
 14
1.0
 24
1.0
 15
0.0
 25
0.0
 16
0.0
 26
0.0
 36
1.0
 17
0.0
 27
0.0
 37
0.0
 40
9.158369
 41
0.688564
 42
50.0
 43
0.0
 44
0.0
 50
0.0
 51
0.0
 71
     0
 72
   100
 73
     1
 74
     1
 75
     0
 76
     0
 77
     0
 78
     0
281
     0
 65
     0
110
0.0
120
0.0
130
0.0
111
1.0
121
0.0
131
0.0
112
0.0
122
1.0
132
0.0
345
0
346
0
 79
     0
146
0.0
  0
ENDTAB
  0
TABLE
  2
LTYPE
  5
4
100
AcDbSymbolTable
 70
     7
  0
LTYPE
  5
11
100
AcDbSymbolTableRecord
100
AcDbLinetypeTableRecord
  2
ByBlock
 70
    64
  3

 72
    65
 73
     0
 40
0.0
  0
LTYPE
  5
12
100
AcDbSymbolTableRecord
100
AcDbLinetypeTableRecord
  2
ByLayer
 70
    64
  3

 72
    65
 73
     0
 40
0.0
  0
LTYPE
  5
13
100
AcDbSymbolTableRecord
100
AcDbLinetypeTableRecord
  2
Continuous
 70
    64
  3
Solid line
 72
    65
 73
     0
 40
0.0
  0
LTYPE
  5
24
100
AcDbSymbolTableRecord
100
AcDbLinetypeTableRecord
  2
HIDDEN
 70
    64
  3
_ _ _ _ _ _ _ _ _ _ _ _ _ _ _ _ _ _ _ _ _ _ _ _
 72
    65
 73
     2
 40
0.1875
 49
0.125
 74
     0
 49
-0.0625
 74
     0
  0
LTYPE
  5
25
100
AcDbSymbolTableRecord
100
AcDbLinetypeTableRecord
  2
DOTTED
 70
    64
  3
...............................................
 72
    65
 73
     2
 40
0.125
 49
0.0
 74
     0
 49
-0.125
 74
     0
  0
LTYPE
  5
26
100
AcDbSymbolTableRecord
100
AcDbLinetypeTableRecord
  2
CENTER
 70
    64
  3
____ _ ____ _ ____ _ ____ _ ____ _ ____ _ ____ 
 72
    65
 73
     4
 40
1.125
 49
0.75
 74
     0
 49
-0.125
 74
     0
 49
0.125
 74
     0
 49
-0.125
 74
     0
  0
LTYPE
  5
27
100
AcDbSymbolTableRecord
100
AcDbLinetypeTableRecord
  2
PHANTOM
 70
    64
  3
______  __  __  ______  __  __  ______  __  __ 
 72
    65
 73
     6
 40
1.25
 49
0.625
 74
     0
 49
-0.125
 74
     0
 49
0.125
 74
     0
 49
-0.125
 74
     0
 49
0.125
 74
     0
 49
-0.125
 74
     0
  0
ENDTAB
  0
TABLE
  2
LAYER
  5
2
100
AcDbSymbolTable
 70
     2
  0
LAYER
  5
14
100
AcDbSymbolTableRecord
100
AcDbLayerTableRecord
  2
0
 70
     0
 62
     7
  6
Continuous
290
     1
370
    -3
390
1D
  0
LAYER
  5
28
100
AcDbSymbolTableRecord
100
AcDbLayerTableRecord
  2
TEXT
 70
     0
 62
     8
  6
Continuous
290
     1
370
    -3
390
1F
  0
ENDTAB
  0
TABLE
  2
STYLE
  5
3
100
AcDbSymbolTable
 70
     1
  0
STYLE
  5
17
100
AcDbSymbolTableRecord
100
AcDbTextStyleTableRecord
  2
Standard
 70
     0
 40
0.0
 41
1.0
 50
0.0
 71
     0
 42
0.0
  3
txt
  4

  0
ENDTAB
  0
TABLE
  2
VIEW
  5
5
100
AcDbSymbolTable
 70
     0
  0
ENDTAB
  0
TABLE
  2
UCS
  5
6
100
AcDbSymbolTable
 70
     0
  0
ENDTAB
  0
TABLE
  2
APPID
  5
8
100
AcDbSymbolTable
 70
     1
  0
APPID
  5
16
100
AcDbSymbolTableRecord
100
AcDbRegAppTableRecord
  2
ACAD
 70
     0
  0
ENDTAB
  0
TABLE
  2
DIMSTYLE
  5
9
100
AcDbSymbolTable
 70
     1
100
AcDbDimStyleTable
 71
     0
  0
DIMSTYLE
105
18
100
AcDbSymbolTableRecord
100
AcDbDimStyleTableRecord
  2
Standard
 70
     0
  3

  4

 40
1.0
 41
0.18
 42
0.0625
 43
0.38
 44
0.18
 45
0.0
 46
0.0
 47
0.0
 48
0.0
 71
     0
 72
     0
 73
     1
 74
     1
 75
     0
 76
     0
 77
     0
 78
     0
 79
     0
140
0.18
141
0.09
142
0.0
143
25.4
144
1.0
145
0.0
146
1.0
147
0.09
148
0.0
170
     0
171
     2
172
     0
173
     0
174
     0
175
     0
176
     0
177
     0
178
     0
179
     0
271
     4
272
     4
273
     2
274
     2
275
     0
276
     0
277
     2
278
    46
279
     0
280
     0
281
     0
282
     0
283
     1
284
     0
285
     0
286
     0
288
     0
340
17
341
0
342
0
343
0
344
0
371
    -2
372
    -2
  0
ENDTAB
  0
TABLE
  2
BLOCK_RECORD
  5
1
100
AcDbSymbolTable
 70
   102
  0
BLOCK_RECORD
  5
A
100
AcDbSymbolTableRecord
100
AcDbBlockTableRecord
  2
*MODEL_SPACE
340
20
  0
BLOCK_RECORD
  5
B
100
AcDbSymbolTableRecord
100
AcDbBlockTableRecord
  2
*PAPER_SPACE
340
21
  0
BLOCK_RECORD
  5
29
100
AcDbSymbolTableRecord
100
AcDbBlockTableRecord
  2
*B0
340
0
  0
BLOCK_RECORD
  5
2C
100
AcDbSymbolTableRecord
100
AcDbBlockTableRecord
  2
*B1
340
0
  0
BLOCK_RECORD
  5
151
100
AcDbSymbolTableRecord
100
AcDbBlockTableRecord
  2
*B2
340
0
  0
BLOCK_RECORD
  5
20D
100
AcDbSymbolTableRecord
100
AcDbBlockTableRecord
  2
*B3
340
0
  0
BLOCK_RECORD
  5
213
100
AcDbSymbolTableRecord
100
AcDbBlockTableRecord
  2
*B4
340
0
  0
BLOCK_RECORD
  5
21E
100
AcDbSymbolTableRecord
100
AcDbBlockTableRecord
  2
*B5
340
0
  0
BLOCK_RECORD
  5
221
100
AcDbSymbolTableRecord
100
AcDbBlockTableRecord
  2
*B6
340
0
  0
BLOCK_RECORD
  5
227
100
AcDbSymbolTableRecord
100
AcDbBlockTableRecord
  2
*B7
340
0
  0
BLOCK_RECORD
  5
232
100
AcDbSymbolTableRecord
100
AcDbBlockTableRecord
  2
*B8
340
0
  0
BLOCK_RECORD
  5
235
100
AcDbSymbolTableRecord
100
AcDbBlockTableRecord
  2
*B9
340
0
  0
BLOCK_RECORD
  5
23C
100
AcDbSymbolTableRecord
100
AcDbBlockTableRecord
  2
*B10
340
0
  0
BLOCK_RECORD
  5
243
100
AcDbSymbolTableRecord
100
AcDbBlockTableRecord
  2
*B11
340
0
  0
BLOCK_RECORD
  5
24A
100
AcDbSymbolTableRecord
100
AcDbBlockTableRecord
  2
*B12
340
0
  0
BLOCK_RECORD
  5
251
100
AcDbSymbolTableRecord
100
AcDbBlockTableRecord
  2
*B13
340
0
  0
BLOCK_RECORD
  5
258
100
AcDbSymbolTableRecord
100
AcDbBlockTableRecord
  2
*B14
340
0
  0
BLOCK_RECORD
  5
25F
100
AcDbSymbolTableRecord
100
AcDbBlockTableRecord
  2
*B15
340
0
  0
BLOCK_RECORD
  5
266
100
AcDbSymbolTableRecord
100
AcDbBlockTableRecord
  2
*B16
340
0
  0
BLOCK_RECORD
  5
26D
100
AcDbSymbolTableRecord
100
AcDbBlockTableRecord
  2
*B17
340
0
  0
BLOCK_RECORD
  5
274
100
AcDbSymbolTableRecord
100
AcDbBlockTableRecord
  2
*B18
340
0
  0
BLOCK_RECORD
  5
27B
100
AcDbSymbolTableRecord
100
AcDbBlockTableRecord
  2
*B19
340
0
  0
BLOCK_RECORD
  5
282
100
AcDbSymbolTableRecord
100
AcDbBlockTableRecord
  2
*B20
340
0
  0
BLOCK_RECORD
  5
289
100
AcDbSymbolTableRecord
100
AcDbBlockTableRecord
  2
*B21
340
0
  0
BLOCK_RECORD
  5
290
100
AcDbSymbolTableRecord
100
AcDbBlockTableRecord
  2
*B22
340
0
  0
BLOCK_RECORD
  5
297
100
AcDbSymbolTableRecord
100
AcDbBlockTableRecord
  2
*B23
340
0
  0
BLOCK_RECORD
  5
29E
100
AcDbSymbolTableRecord
100
AcDbBlockTableRecord
  2
*B24
340
0
  0
BLOCK_RECORD
  5
2A8
100
AcDbSymbolTableRecord
100
AcDbBlockTableRecord
  2
*B25
340
0
  0
BLOCK_RECORD
  5
2AD
100
AcDbSymbolTableRecord
100
AcDbBlockTableRecord
  2
*B26
340
0
  0
BLOCK_RECORD
  5
2B3
100
AcDbSymbolTableRecord
100
AcDbBlockTableRecord
  2
*B27
340
0
  0
BLOCK_RECORD
  5
2B8
100
AcDbSymbolTableRecord
100
AcDbBlockTableRecord
  2
*B28
340
0
  0
BLOCK_RECORD
  5
2C7
100
AcDbSymbolTableRecord
100
AcDbBlockTableRecord
  2
*B29
340
0
  0
BLOCK_RECORD
  5
2CD
100
AcDbSymbolTableRecord
100
AcDbBlockTableRecord
  2
*B30
340
0
  0
BLOCK_RECORD
  5
2E1
100
AcDbSymbolTableRecord
100
AcDbBlockTableRecord
  2
*B31
340
0
  0
BLOCK_RECORD
  5
2E6
100
AcDbSymbolTableRecord
100
AcDbBlockTableRecord
  2
*B32
340
0
  0
BLOCK_RECORD
  5
2EC
100
AcDbSymbolTableRecord
100
AcDbBlockTableRecord
  2
*B33
340
0
  0
BLOCK_RECORD
  5
2F5
100
AcDbSymbolTableRecord
100
AcDbBlockTableRecord
  2
*B34
340
0
  0
BLOCK_RECORD
  5
31E
100
AcDbSymbolTableRecord
100
AcDbBlockTableRecord
  2
*B35
340
0
  0
BLOCK_RECORD
  5
323
100
AcDbSymbolTableRecord
100
AcDbBlockTableRecord
  2
*B36
340
0
  0
BLOCK_RECORD
  5
328
100
AcDbSymbolTableRecord
100
AcDbBlockTableRecord
  2
*B37
340
0
  0
BLOCK_RECORD
  5
32D
100
AcDbSymbolTableRecord
100
AcDbBlockTableRecord
  2
*B38
340
0
  0
BLOCK_RECORD
  5
333
100
AcDbSymbolTableRecord
100
AcDbBlockTableRecord
  2
*B39
340
0
  0
BLOCK_RECORD
  5
338
100
AcDbSymbolTableRecord
100
AcDbBlockTableRecord
  2
*B40
340
0
  0
BLOCK_RECORD
  5
33D
100
AcDbSymbolTableRecord
100
AcDbBlockTableRecord
  2
*B41
340
0
  0
BLOCK_RECORD
  5
342
100
AcDbSymbolTableRecord
100
AcDbBlockTableRecord
  2
*B42
340
0
  0
BLOCK_RECORD
  5
347
100
AcDbSymbolTableRecord
100
AcDbBlockTableRecord
  2
*B43
340
0
  0
BLOCK_RECORD
  5
34C
100
AcDbSymbolTableRecord
100
AcDbBlockTableRecord
  2
*B44
340
0
  0
BLOCK_RECORD
  5
351
100
AcDbSymbolTableRecord
100
AcDbBlockTableRecord
  2
*B45
340
0
  0
BLOCK_RECORD
  5
365
100
AcDbSymbolTableRecord
100
AcDbBlockTableRecord
  2
*B46
340
0
  0
BLOCK_RECORD
  5
36A
100
AcDbSymbolTableRecord
100
AcDbBlockTableRecord
  2
*B47
340
0
  0
BLOCK_RECORD
  5
36F
100
AcDbSymbolTableRecord
100
AcDbBlockTableRecord
  2
*B48
340
0
  0
BLOCK_RECORD
  5
375
100
AcDbSymbolTableRecord
100
AcDbBlockTableRecord
  2
*B49
340
0
  0
BLOCK_RECORD
  5
37A
100
AcDbSymbolTableRecord
100
AcDbBlockTableRecord
  2
*B50
340
0
  0
BLOCK_RECORD
  5
37F
100
AcDbSymbolTableRecord
100
AcDbBlockTableRecord
  2
*B51
340
0
  0
BLOCK_RECORD
  5
38E
100
AcDbSymbolTableRecord
100
AcDbBlockTableRecord
  2
*B52
340
0
  0
BLOCK_RECORD
  5
394
100
AcDbSymbolTableRecord
100
AcDbBlockTableRecord
  2
*B53
340
0
  0
BLOCK_RECORD
  5
399
100
AcDbSymbolTableRecord
100
AcDbBlockTableRecord
  2
*B54
340
0
  0
BLOCK_RECORD
  5
39E
100
AcDbSymbolTableRecord
100
AcDbBlockTableRecord
  2
*B55
340
0
  0
BLOCK_RECORD
  5
3AB
100
AcDbSymbolTableRecord
100
AcDbBlockTableRecord
  2
*B56
340
0
  0
BLOCK_RECORD
  5
3DA
100
AcDbSymbolTableRecord
100
AcDbBlockTableRecord
  2
*B57
340
0
  0
BLOCK_RECORD
  5
3E0
100
AcDbSymbolTableRecord
100
AcDbBlockTableRecord
  2
*B58
340
0
  0
BLOCK_RECORD
  5
3E9
100
AcDbSymbolTableRecord
100
AcDbBlockTableRecord
  2
*B59
340
0
  0
BLOCK_RECORD
  5
3F2
100
AcDbSymbolTableRecord
100
AcDbBlockTableRecord
  2
*B60
340
0
  0
BLOCK_RECORD
  5
3F8
100
AcDbSymbolTableRecord
100
AcDbBlockTableRecord
  2
*B61
340
0
  0
BLOCK_RECORD
  5
3FE
100
AcDbSymbolTableRecord
100
AcDbBlockTableRecord
  2
*B62
340
0
  0
BLOCK_RECORD
  5
404
100
AcDbSymbolTableRecord
100
AcDbBlockTableRecord
  2
*B63
340
0
  0
BLOCK_RECORD
  5
40A
100
AcDbSymbolTableRecord
100
AcDbBlockTableRecord
  2
*B64
340
0
  0
BLOCK_RECORD
  5
410
100
AcDbSymbolTableRecord
100
AcDbBlockTableRecord
  2
*B65
340
0
  0
BLOCK_RECORD
  5
416
100
AcDbSymbolTableRecord
100
AcDbBlockTableRecord
  2
*B66
340
0
  0
BLOCK_RECORD
  5
41C
100
AcDbSymbolTableRecord
100
AcDbBlockTableRecord
  2
*B67
340
0
  0
BLOCK_RECORD
  5
422
100
AcDbSymbolTableRecord
100
AcDbBlockTableRecord
  2
*B68
340
0
  0
BLOCK_RECORD
  5
428
100
AcDbSymbolTableRecord
100
AcDbBlockTableRecord
  2
*B69
340
0
  0
BLOCK_RECORD
  5
42E
100
AcDbSymbolTableRecord
100
AcDbBlockTableRecord
  2
*B70
340
0
  0
BLOCK_RECORD
  5
434
100
AcDbSymbolTableRecord
100
AcDbBlockTableRecord
  2
*B71
340
0
  0
BLOCK_RECORD
  5
43A
100
AcDbSymbolTableRecord
100
AcDbBlockTableRecord
  2
*B72
340
0
  0
BLOCK_RECORD
  5
440
100
AcDbSymbolTableRecord
100
AcDbBlockTableRecord
  2
*B73
340
0
  0
BLOCK_RECORD
  5
446
100
AcDbSymbolTableRecord
100
AcDbBlockTableRecord
  2
*B74
340
0
  0
BLOCK_RECORD
  5
44B
100
AcDbSymbolTableRecord
100
AcDbBlockTableRecord
  2
*B75
340
0
  0
BLOCK_RECORD
  5
450
100
AcDbSymbolTableRecord
100
AcDbBlockTableRecord
  2
*B76
340
0
  0
BLOCK_RECORD
  5
455
100
AcDbSymbolTableRecord
100
AcDbBlockTableRecord
  2
*B77
340
0
  0
BLOCK_RECORD
  5
45A
100
AcDbSymbolTableRecord
100
AcDbBlockTableRecord
  2
*B78
340
0
  0
BLOCK_RECORD
  5
45F
100
AcDbSymbolTableRecord
100
AcDbBlockTableRecord
  2
*B79
340
0
  0
BLOCK_RECORD
  5
464
100
AcDbSymbolTableRecord
100
AcDbBlockTableRecord
  2
*B80
340
0
  0
BLOCK_RECORD
  5
469
100
AcDbSymbolTableRecord
100
AcDbBlockTableRecord
  2
*B81
340
0
  0
BLOCK_RECORD
  5
46E
100
AcDbSymbolTableRecord
100
AcDbBlockTableRecord
  2
*B82
340
0
  0
BLOCK_RECORD
  5
473
100
AcDbSymbolTableRecord
100
AcDbBlockTableRecord
  2
*B83
340
0
  0
BLOCK_RECORD
  5
478
100
AcDbSymbolTableRecord
100
AcDbBlockTableRecord
  2
*B84
340
0
  0
BLOCK_RECORD
  5
47D
100
AcDbSymbolTableRecord
100
AcDbBlockTableRecord
  2
*B85
340
0
  0
BLOCK_RECORD
  5
482
100
AcDbSymbolTableRecord
100
AcDbBlockTableRecord
  2
*B86
340
0
  0
BLOCK_RECORD
  5
487
100
AcDbSymbolTableRecord
100
AcDbBlockTableRecord
  2
*B87
340
0
  0
BLOCK_RECORD
  5
48C
100
AcDbSymbolTableRecord
100
AcDbBlockTableRecord
  2
*B88
340
0
  0
BLOCK_RECORD
  5
491
100
AcDbSymbolTableRecord
100
AcDbBlockTableRecord
  2
*B89
340
0
  0
BLOCK_RECORD
  5
496
100
AcDbSymbolTableRecord
100
AcDbBlockTableRecord
  2
*B90
340
0
  0
BLOCK_RECORD
  5
49B
100
AcDbSymbolTableRecord
100
AcDbBlockTableRecord
  2
*B91
340
0
  0
BLOCK_RECORD
  5
4A0
100
AcDbSymbolTableRecord
100
AcDbBlockTableRecord
  2
*B92
340
0
  0
BLOCK_RECORD
  5
4A5
100
AcDbSymbolTableRecord
100
AcDbBlockTableRecord
  2
*B93
340
0
  0
BLOCK_RECORD
  5
4AA
100
AcDbSymbolTableRecord
100
AcDbBlockTableRecord
  2
*B94
340
0
  0
BLOCK_RECORD
  5
4AF
100
AcDbSymbolTableRecord
100
AcDbBlockTableRecord
  2
*B95
340
0
  0
BLOCK_RECORD
  5
4B4
100
AcDbSymbolTableRecord
100
AcDbBlockTableRecord
  2
*B96
340
0
  0
BLOCK_RECORD
  5
4B9
100
AcDbSymbolTableRecord
100
AcDbBlockTableRecord
  2
*B97
340
0
  0
BLOCK_RECORD
  5
4BE
100
AcDbSymbolTableRecord
100
AcDbBlockTableRecord
  2
*B98
340
0
  0
BLOCK_RECORD
  5
4C3
100
AcDbSymbolTableRecord
100
AcDbBlockTableRecord
  2
*B99
340
0
  0
BLOCK_RECORD
  5
4C8
100
AcDbSymbolTableRecord
100
AcDbBlockTableRecord
  2
*B100
340
0
  0
BLOCK_RECORD
  5
4CD
100
AcDbSymbolTableRecord
100
AcDbBlockTableRecord
  2
*B101
340
0
  0
ENDTAB
  0
ENDSEC
  0
SECTION
  2
BLOCKS
  0
BLOCK
  5
D
100
AcDbEntity
  8
0
100
AcDbBlockBegin
  2
*MODEL_SPACE
 70
     0
 10
0.0
 20
0.0
 30
0.0
  3
*MODEL_SPACE
  1

  0
ENDBLK
  5
E
100
AcDbEntity
  8
0
100
AcDbBlockEnd
  0
BLOCK
  5
F
100
AcDbEntity
 67
     1
  8
0
100
AcDbBlockBegin
  2
*PAPER_SPACE
 70
     0
 10
0.0
 20
0.0
 30
0.0
  3
*PAPER_SPACE
  1

  0
ENDBLK
  5
10
100
AcDbEntity
 67
     1
  8
0
100
AcDbBlockEnd
  0
BLOCK
  5
2A
100
AcDbEntity
  8
0
100
AcDbBlockBegin
  2
*B0
 70
     0
 10
0.0
 20
0.0
 30
0.0
  3
*B0
  1

  0
ENDBLK
  5
2B
100
AcDbEntity
  8
0
100
AcDbBlockEnd
  0
BLOCK
  5
2D
100
AcDbEntity
  8
0
100
AcDbBlockBegin
  2
*B1
 70
     0
 10
0.0
 20
0.0
 30
0.0
  3
*B1
  1

  0
LINE
  5
2E
100
AcDbEntity
  8
0
  6
Continuous
 62
   174
100
AcDbLine
 10
241.465068
 20
158.778376
 30
0.0
 11
238.357888
 21
158.778376
 31
0.0
  0
LINE
  5
2F
100
AcDbEntity
  8
0
  6
HIDDEN
 62
   174
100
AcDbLine
 10
52.850708
 20
158.778376
 30
0.0
 11
55.957888
 21
158.778376
 31
0.0
  0
LINE
  5
30
100
AcDbEntity
  8
0
  6
Continuous
 62
   174
100
AcDbLine
 10
230.857888
 20
135.190267
 30
0.0
 11
224.157888
 21
135.190267
 31
0.0
  0
LINE
  5
31
100
AcDbEntity
  8
0
  6
Continuous
 62
   174
100
AcDbLine
 10
241.465068
 20
167.622158
 30
0.0
 11
238.357888
 21
167.622158
 31
0.0
  0
LINE
  5
32
100
AcDbEntity
  8
0
  6
Continuous
 62
   174
100
AcDbLine
 10
70.157888
 20
135.190267
 30
0.0
 11
63.457888
 21
135.190267
 31
0.0
  0
LINE
  5
33
100
AcDbEntity
  8
0
  6
HIDDEN
 62
   174
100
AcDbLine
 10
52.850708
 20
167.622158
 30
0.0
 11
55.957888
 21
167.622158
 31
0.0
  0
LINE
  5
34
100
AcDbEntity
  8
0
  6
Continuous
 62
   174
100
AcDbLine
 10
238.357888
 20
172.20864
 30
0.0
 11
238.357888
 21
167.630965
 31
0.0
  0
LINE
  5
35
100
AcDbEntity
  8
0
  6
Continuous
 62
   174
100
AcDbLine
 10
55.957888
 20
172.208215
 30
0.0
 11
55.957888
 21
172.20864
 31
0.0
  0
LINE
  5
36
100
AcDbEntity
  8
0
  6
Continuous
 62
   174
100
AcDbLine
 10
55.957888
 20
167.786677
 30
0.0
 11
55.957888
 21
172.208215
 31
0.0
  0
LINE
  5
37
100
AcDbEntity
  8
0
  6
Continuous
 62
   174
100
AcDbLine
 10
55.957888
 20
158.631753
 30
0.0
 11
55.957888
 21
167.786677
 31
0.0
  0
LINE
  5
38
100
AcDbEntity
  8
0
  6
Continuous
 62
   174
100
AcDbLine
 10
55.957888
 20
154.210215
 30
0.0
 11
55.957888
 21
158.631753
 31
0.0
  0
CIRCLE
  5
39
100
AcDbEntity
  8
0
  6
Continuous
 62
   174
100
AcDbCircle
 10
156.157888
 20
112.700267
 30
0.0
 40
2.25
  0
LINE
  5
3A
100
AcDbEntity
  8
0
  6
Continuous
 62
   174
100
AcDbLine
 10
238.357888
 20
158.787677
 30
0.0
 11
238.357888
 21
154.20979
 31
0.0
  0
LINE
  5
3B
100
AcDbEntity
  8
0
  6
HIDDEN
 62
   174
100
AcDbLine
 10
230.857888
 20
115.322762
 30
0.0
 11
224.157888
 21
115.322762
 31
0.0
  0
LINE
  5
3C
100
AcDbEntity
  8
0
  6
Continuous
 62
   174
100
AcDbLine
 10
63.457888
 20
117.151076
 30
0.0
 11
70.157888
 21
117.151076
 31
0.0
  0
LINE
  5
3D
100
AcDbEntity
  8
0
  6
HIDDEN
 62
   174
100
AcDbLine
 10
63.457888
 20
133.249458
 30
0.0
 11
70.157888
 21
133.249458
 31
0.0
  0
ARC
  5
3E
100
AcDbEntity
  8
0
  6
Continuous
 62
   174
100
AcDbCircle
 10
219.657888
 20
168.200267
 30
0.0
 40
3.0
100
AcDbArc
 50
0.0
 51
90.0
  0
LINE
  5
3F
100
AcDbEntity
  8
0
  6
HIDDEN
 62
   174
100
AcDbLine
 10
181.657888
 20
143.200267
 30
0.0
 11
181.657888
 21
143.180267
 31
0.0
  0
LINE
  5
40
100
AcDbEntity
  8
0
  6
Continuous
 62
   174
100
AcDbLine
 10
63.457888
 20
131.134112
 30
0.0
 11
70.157888
 21
131.134112
 31
0.0
  0
LINE
  5
41
100
AcDbEntity
  8
0
  6
HIDDEN
 62
   174
100
AcDbLine
 10
182.657888
 20
143.200267
 30
0.0
 11
182.657888
 21
143.180267
 31
0.0
  0
LINE
  5
42
100
AcDbEntity
  8
0
  6
Continuous
 62
   174
100
AcDbLine
 10
193.657888
 20
142.200267
 30
0.0
 11
193.657888
 21
168.200267
 31
0.0
  0
LINE
  5
43
100
AcDbEntity
  8
0
  6
HIDDEN
 62
   174
100
AcDbLine
 10
151.532888
 20
107.200267
 30
0.0
 11
151.532888
 21
117.200267
 31
0.0
  0
LINE
  5
44
100
AcDbEntity
  8
0
  6
HIDDEN
 62
   174
100
AcDbLine
 10
185.176063
 20
143.180267
 30
0.0
 11
179.17595
 21
143.180267
 31
0.0
  0
LINE
  5
45
100
AcDbEntity
  8
0
  6
Continuous
 62
   174
100
AcDbLine
 10
196.657888
 20
168.200267
 30
0.0
 11
196.657888
 21
142.200267
 31
0.0
  0
LINE
  5
46
100
AcDbEntity
  8
0
  6
HIDDEN
 62
   174
100
AcDbLine
 10
97.657888
 20
168.200267
 30
0.0
 11
97.657888
 21
142.200267
 31
0.0
  0
LINE
  5
47
100
AcDbEntity
  8
0
  6
Continuous
 62
   174
100
AcDbLine
 10
224.157888
 20
135.098439
 30
0.0
 11
224.157888
 21
135.210815
 31
0.0
  0
LINE
  5
48
100
AcDbEntity
  8
0
  6
Continuous
 62
   174
100
AcDbLine
 10
55.957888
 20
154.20979
 30
0.0
 11
55.957888
 21
154.210215
 31
0.0
  0
CIRCLE
  5
49
100
AcDbEntity
  8
0
  6
Continuous
 62
   174
100
AcDbCircle
 10
138.157888
 20
112.700267
 30
0.0
 40
2.25
  0
LINE
  5
4A
100
AcDbEntity
  8
0
  6
HIDDEN
 62
   174
100
AcDbLine
 10
89.425997
 20
171.180267
 30
0.0
 11
82.926034
 21
171.180267
 31
0.0
  0
LINE
  5
4B
100
AcDbEntity
  8
0
  6
Continuous
 62
   174
100
AcDbLine
 10
63.457888
 20
123.705277
 30
0.0
 11
70.157888
 21
123.705277
 31
0.0
  0
LINE
  5
4C
100
AcDbEntity
  8
0
  6
HIDDEN
 62
   174
100
AcDbLine
 10
230.857888
 20
117.151076
 30
0.0
 11
224.157888
 21
117.151076
 31
0.0
  0
LINE
  5
4D
100
AcDbEntity
  8
0
  6
Continuous
 62
   174
100
AcDbLine
 10
196.676012
 20
168.200267
 30
0.0
 11
193.676062
 21
168.200267
 31
0.0
  0
LINE
  5
4E
100
AcDbEntity
  8
0
  6
Continuous
 62
   174
100
AcDbLine
 10
196.657888
 20
171.208727
 30
0.0
 11
196.657888
 21
168.20899
 31
0.0
  0
LINE
  5
4F
100
AcDbEntity
  8
0
  6
Continuous
 62
   174
100
AcDbLine
 10
63.457888
 20
126.695257
 30
0.0
 11
70.157888
 21
126.695257
 31
0.0
  0
LINE
  5
50
100
AcDbEntity
  8
0
  6
Continuous
 62
   174
100
AcDbLine
 10
74.676066
 20
168.200267
 30
0.0
 11
71.676116
 21
168.200267
 31
0.0
  0
LINE
  5
51
100
AcDbEntity
  8
0
  6
HIDDEN
 62
   174
100
AcDbLine
 10
111.657888
 20
143.200267
 30
0.0
 11
111.657888
 21
143.180267
 31
0.0
  0
LINE
  5
52
100
AcDbEntity
  8
0
  6
Continuous
 62
   174
100
AcDbLine
 10
230.857888
 20
123.705277
 30
0.0
 11
224.157888
 21
123.705277
 31
0.0
  0
LINE
  5
53
100
AcDbEntity
  8
0
  6
Continuous
 62
   174
100
AcDbLine
 10
234.657888
 20
155.209702
 30
0.0
 11
234.657888
 21
163.209215
 31
0.0
  0
LINE
  5
54
100
AcDbEntity
  8
0
  6
Continuous
 62
   174
100
AcDbLine
 10
230.857888
 20
115.312767
 30
0.0
 11
224.157888
 21
115.312767
 31
0.0
  0
LINE
  5
55
100
AcDbEntity
  8
0
  6
Continuous
 62
   174
100
AcDbLine
 10
70.157888
 20
133.260062
 30
0.0
 11
70.157888
 21
131.144887
 31
0.0
  0
LINE
  5
56
100
AcDbEntity
  8
0
  6
Continuous
 62
   174
100
AcDbLine
 10
224.157888
 20
131.144887
 30
0.0
 11
224.157888
 21
133.260062
 31
0.0
  0
LINE
  5
57
100
AcDbEntity
  8
0
  6
HIDDEN
 62
   174
100
AcDbLine
 10
101.257888
 20
130.200267
 30
0.0
 11
101.157888
 21
130.200267
 31
0.0
  0
LINE
  5
58
100
AcDbEntity
  8
0
  6
Continuous
 62
   174
100
AcDbLine
 10
63.457888
 20
117.158699
 30
0.0
 11
70.157888
 21
117.158699
 31
0.0
  0
LINE
  5
59
100
AcDbEntity
  8
0
  6
HIDDEN
 62
   174
100
AcDbLine
 10
230.857888
 20
119.272934
 30
0.0
 11
224.157888
 21
119.272934
 31
0.0
  0
LINE
  5
5A
100
AcDbEntity
  8
0
  6
Continuous
 62
   174
100
AcDbLine
 10
100.676127
 20
168.200267
 30
0.0
 11
97.675965
 21
168.200267
 31
0.0
  0
LINE
  5
5B
100
AcDbEntity
  8
0
  6
Continuous
 62
   174
100
AcDbLine
 10
219.657888
 20
171.208727
 30
0.0
 11
219.657888
 21
168.20899
 31
0.0
  0
LINE
  5
5C
100
AcDbEntity
  8
0
  6
HIDDEN
 62
   174
100
AcDbLine
 10
219.657888
 20
171.208727
 30
0.0
 11
219.657888
 21
168.20899
 31
0.0
  0
LINE
  5
5D
100
AcDbEntity
  8
0
  6
HIDDEN
 62
   174
100
AcDbLine
 10
63.457888
 20
126.696042
 30
0.0
 11
70.157888
 21
126.696042
 31
0.0
  0
LINE
  5
5E
100
AcDbEntity
  8
0
  6
Continuous
 62
   174
100
AcDbLine
 10
222.676074
 20
168.200267
 30
0.0
 11
219.675912
 21
168.200267
 31
0.0
  0
LINE
  5
5F
100
AcDbEntity
  8
0
  6
Continuous
 62
   174
100
AcDbLine
 10
63.457888
 20
135.087767
 30
0.0
 11
70.157888
 21
135.087767
 31
0.0
  0
LINE
  5
60
100
AcDbEntity
  8
0
  6
HIDDEN
 62
   174
100
AcDbLine
 10
142.782888
 20
117.200267
 30
0.0
 11
142.782888
 21
107.200267
 31
0.0
  0
LINE
  5
61
100
AcDbEntity
  8
0
  6
HIDDEN
 62
   174
100
AcDbLine
 10
142.311107
 20
115.200267
 30
0.0
 11
147.175989
 21
115.200267
 31
0.0
  0
LINE
  5
62
100
AcDbEntity
  8
0
  6
HIDDEN
 62
   174
100
AcDbLine
 10
196.657888
 20
168.200267
 30
0.0
 11
219.657888
 21
168.200267
 31
0.0
  0
LINE
  5
63
100
AcDbEntity
  8
0
  6
Continuous
 62
   174
100
AcDbLine
 10
97.657888
 20
168.200267
 30
0.0
 11
74.657888
 21
168.200267
 31
0.0
  0
LINE
  5
64
100
AcDbEntity
  8
0
  6
Continuous
 62
   174
100
AcDbLine
 10
238.357888
 20
167.630965
 30
0.0
 11
238.357888
 21
158.787677
 31
0.0
  0
LINE
  5
65
100
AcDbEntity
  8
0
  6
HIDDEN
 62
   174
100
AcDbLine
 10
230.857888
 20
123.704492
 30
0.0
 11
224.157888
 21
123.704492
 31
0.0
  0
LINE
  5
66
100
AcDbEntity
  8
0
  6
Continuous
 62
   174
100
AcDbLine
 10
63.457888
 20
123.704492
 30
0.0
 11
70.157888
 21
123.704492
 31
0.0
  0
LINE
  5
67
100
AcDbEntity
  8
0
  6
HIDDEN
 62
   174
100
AcDbLine
 10
222.676074
 20
168.200267
 30
0.0
 11
219.675912
 21
168.200267
 31
0.0
  0
LINE
  5
68
100
AcDbEntity
  8
0
  6
HIDDEN
 62
   174
100
AcDbLine
 10
147.175989
 20
115.200267
 30
0.0
 11
152.041082
 21
115.200267
 31
0.0
  0
LINE
  5
69
100
AcDbEntity
  8
0
  6
Continuous
 62
   174
100
AcDbLine
 10
224.157888
 20
117.162681
 30
0.0
 11
224.157888
 21
119.277856
 31
0.0
  0
LINE
  5
6A
100
AcDbEntity
  8
0
  6
Continuous
 62
   174
100
AcDbLine
 10
224.157888
 20
115.211928
 30
0.0
 11
224.157888
 21
115.324516
 31
0.0
  0
LINE
  5
6B
100
AcDbEntity
  8
0
  6
HIDDEN
 62
   174
100
AcDbLine
 10
196.657888
 20
142.200267
 30
0.0
 11
196.657888
 21
168.200267
 31
0.0
  0
LINE
  5
6C
100
AcDbEntity
  8
0
  6
Continuous
 62
   174
100
AcDbLine
 10
97.657888
 20
142.200267
 30
0.0
 11
97.657888
 21
168.200267
 31
0.0
  0
LINE
  5
6D
100
AcDbEntity
  8
0
  6
Continuous
 62
   174
100
AcDbLine
 10
70.157888
 20
119.277856
 30
0.0
 11
70.157888
 21
117.162681
 31
0.0
  0
LINE
  5
6E
100
AcDbEntity
  8
0
  6
HIDDEN
 62
   174
100
AcDbLine
 10
193.157888
 20
130.200267
 30
0.0
 11
193.057888
 21
130.200267
 31
0.0
  0
LINE
  5
6F
100
AcDbEntity
  8
0
  6
HIDDEN
 62
   174
100
AcDbLine
 10
124.782888
 20
117.200267
 30
0.0
 11
124.782888
 21
107.200267
 31
0.0
  0
LINE
  5
70
100
AcDbEntity
  8
0
  6
HIDDEN
 62
   174
100
AcDbLine
 10
208.175962
 20
171.180267
 30
0.0
 11
204.925981
 21
171.180267
 31
0.0
  0
LINE
  5
71
100
AcDbEntity
  8
0
  6
HIDDEN
 62
   174
100
AcDbLine
 10
100.676127
 20
168.200267
 30
0.0
 11
97.675965
 21
168.200267
 31
0.0
  0
ARC
  5
72
100
AcDbEntity
  8
0
  6
Continuous
 62
   174
100
AcDbCircle
 10
74.657888
 20
168.200267
 30
0.0
 40
3.0
100
AcDbArc
 50
-270.0
 51
-180.0
  0
LINE
  5
73
100
AcDbEntity
  8
0
  6
HIDDEN
 62
   174
100
AcDbLine
 10
142.292888
 20
115.200267
 30
0.0
 11
142.292888
 21
107.200267
 31
0.0
  0
LINE
  5
74
100
AcDbEntity
  8
0
  6
Continuous
 62
   174
100
AcDbLine
 10
70.157888
 20
135.210815
 30
0.0
 11
70.157888
 21
135.098439
 31
0.0
  0
LINE
  5
75
100
AcDbEntity
  8
0
  6
HIDDEN
 62
   174
100
AcDbLine
 10
129.176077
 20
115.200267
 30
0.0
 11
134.040958
 21
115.200267
 31
0.0
  0
LINE
  5
76
100
AcDbEntity
  8
0
  6
HIDDEN
 62
   174
100
AcDbLine
 10
124.310983
 20
115.200267
 30
0.0
 11
129.176077
 21
115.200267
 31
0.0
  0
LINE
  5
77
100
AcDbEntity
  8
0
  6
Continuous
 62
   174
100
AcDbLine
 10
230.857888
 20
133.249458
 30
0.0
 11
224.157888
 21
133.249458
 31
0.0
  0
LINE
  5
78
100
AcDbEntity
  8
0
  6
Continuous
 62
   174
100
AcDbLine
 10
230.857888
 20
126.695257
 30
0.0
 11
224.157888
 21
126.695257
 31
0.0
  0
LINE
  5
79
100
AcDbEntity
  8
0
  6
HIDDEN
 62
   174
100
AcDbLine
 10
97.657888
 20
168.20899
 30
0.0
 11
97.657888
 21
171.208727
 31
0.0
  0
LINE
  5
7A
100
AcDbEntity
  8
0
  6
HIDDEN
 62
   174
100
AcDbLine
 10
74.657888
 20
168.20899
 30
0.0
 11
74.657888
 21
171.208727
 31
0.0
  0
LINE
  5
7B
100
AcDbEntity
  8
0
  6
HIDDEN
 62
   174
100
AcDbLine
 10
230.857888
 20
131.1276
 30
0.0
 11
224.157888
 21
131.1276
 31
0.0
  0
LINE
  5
7C
100
AcDbEntity
  8
0
  6
Continuous
 62
   174
100
AcDbLine
 10
230.857888
 20
117.158699
 30
0.0
 11
224.157888
 21
117.158699
 31
0.0
  0
LINE
  5
7D
100
AcDbEntity
  8
0
  6
Continuous
 62
   174
100
AcDbLine
 10
59.657888
 20
171.208727
 30
0.0
 11
59.657888
 21
155.209702
 31
0.0
  0
LINE
  5
7E
100
AcDbEntity
  8
0
  6
Continuous
 62
   174
100
AcDbLine
 10
74.657888
 20
168.200267
 30
0.0
 11
74.657888
 21
142.200267
 31
0.0
  0
LINE
  5
7F
100
AcDbEntity
  8
0
  6
Continuous
 62
   174
100
AcDbLine
 10
70.157888
 20
126.706992
 30
0.0
 11
70.157888
 21
123.715751
 31
0.0
  0
LINE
  5
80
100
AcDbEntity
  8
0
  6
HIDDEN
 62
   174
100
AcDbLine
 10
193.057888
 20
120.200267
 30
0.0
 11
193.157888
 21
120.200267
 31
0.0
  0
LINE
  5
81
100
AcDbEntity
  8
0
  6
HIDDEN
 62
   174
100
AcDbLine
 10
211.425943
 20
171.180267
 30
0.0
 11
208.175962
 21
171.180267
 31
0.0
  0
LINE
  5
82
100
AcDbEntity
  8
0
  6
Continuous
 62
   174
100
AcDbLine
 10
63.457888
 20
133.241835
 30
0.0
 11
70.157888
 21
133.241835
 31
0.0
  0
LINE
  5
83
100
AcDbEntity
  8
0
  6
Continuous
 62
   174
100
AcDbLine
 10
230.857888
 20
133.241835
 30
0.0
 11
224.157888
 21
133.241835
 31
0.0
  0
ARC
  5
84
100
AcDbEntity
  8
0
  6
Continuous
 62
   174
100
AcDbCircle
 10
196.657888
 20
168.200267
 30
0.0
 40
3.0
100
AcDbArc
 50
90.0
 51
180.0
  0
LINE
  5
85
100
AcDbEntity
  8
0
  6
HIDDEN
 62
   174
100
AcDbLine
 10
196.657888
 20
171.208727
 30
0.0
 11
196.657888
 21
168.20899
 31
0.0
  0
LINE
  5
86
100
AcDbEntity
  8
0
  6
Continuous
 62
   174
100
AcDbLine
 10
97.657888
 20
168.20899
 30
0.0
 11
97.657888
 21
171.208727
 31
0.0
  0
LINE
  5
87
100
AcDbEntity
  8
0
  6
HIDDEN
 62
   174
100
AcDbLine
 10
63.457888
 20
119.272934
 30
0.0
 11
70.157888
 21
119.272934
 31
0.0
  0
LINE
  5
88
100
AcDbEntity
  8
0
  6
Continuous
 62
   174
100
AcDbLine
 10
230.857888
 20
126.696042
 30
0.0
 11
224.157888
 21
126.696042
 31
0.0
  0
LINE
  5
89
100
AcDbEntity
  8
0
  6
Continuous
 62
   174
100
AcDbLine
 10
74.657888
 20
168.20899
 30
0.0
 11
74.657888
 21
171.208727
 31
0.0
  0
LINE
  5
8A
100
AcDbEntity
  8
0
  6
Continuous
 62
   174
100
AcDbLine
 10
230.857888
 20
119.266422
 30
0.0
 11
224.157888
 21
119.266422
 31
0.0
  0
LINE
  5
8B
100
AcDbEntity
  8
0
  6
HIDDEN
 62
   174
100
AcDbLine
 10
74.676066
 20
168.200267
 30
0.0
 11
71.676116
 21
168.200267
 31
0.0
  0
LINE
  5
8C
100
AcDbEntity
  8
0
  6
HIDDEN
 62
   174
100
AcDbLine
 10
152.022888
 20
107.200267
 30
0.0
 11
152.022888
 21
115.200267
 31
0.0
  0
LINE
  5
8D
100
AcDbEntity
  8
0
  6
HIDDEN
 62
   174
100
AcDbLine
 10
219.657888
 20
168.200267
 30
0.0
 11
219.657888
 21
142.200267
 31
0.0
  0
LINE
  5
8E
100
AcDbEntity
  8
0
  6
HIDDEN
 62
   174
100
AcDbLine
 10
63.457888
 20
131.1276
 30
0.0
 11
70.157888
 21
131.1276
 31
0.0
  0
LINE
  5
8F
100
AcDbEntity
  8
0
  6
HIDDEN
 62
   174
100
AcDbLine
 10
63.457888
 20
135.077772
 30
0.0
 11
70.157888
 21
135.077772
 31
0.0
  0
ARC
  5
90
100
AcDbEntity
  8
0
  6
Continuous
 62
   174
100
AcDbCircle
 10
97.657888
 20
168.200267
 30
0.0
 40
3.0
100
AcDbArc
 50
0.0
 51
90.0
  0
LINE
  5
91
100
AcDbEntity
  8
0
  6
HIDDEN
 62
   174
100
AcDbLine
 10
196.676012
 20
168.200267
 30
0.0
 11
193.676062
 21
168.200267
 31
0.0
  0
LINE
  5
92
100
AcDbEntity
  8
0
  6
HIDDEN
 62
   174
100
AcDbLine
 10
63.457888
 20
115.322762
 30
0.0
 11
70.157888
 21
115.322762
 31
0.0
  0
LINE
  5
93
100
AcDbEntity
  8
0
  6
HIDDEN
 62
   174
100
AcDbLine
 10
112.657888
 20
143.200267
 30
0.0
 11
112.657888
 21
143.180267
 31
0.0
  0
LINE
  5
94
100
AcDbEntity
  8
0
  6
HIDDEN
 62
   174
100
AcDbLine
 10
230.857888
 20
135.077772
 30
0.0
 11
224.157888
 21
135.077772
 31
0.0
  0
LINE
  5
95
100
AcDbEntity
  8
0
  6
Continuous
 62
   174
100
AcDbLine
 10
196.657888
 20
171.200267
 30
0.0
 11
219.657888
 21
171.200267
 31
0.0
  0
LINE
  5
96
100
AcDbEntity
  8
0
  6
Continuous
 62
   174
100
AcDbLine
 10
234.657888
 20
163.209215
 30
0.0
 11
234.657888
 21
171.208727
 31
0.0
  0
LINE
  5
97
100
AcDbEntity
  8
0
  6
Continuous
 62
   174
100
AcDbLine
 10
100.657888
 20
168.200267
 30
0.0
 11
100.657888
 21
142.200267
 31
0.0
  0
LINE
  5
98
100
AcDbEntity
  8
0
  6
HIDDEN
 62
   174
100
AcDbLine
 10
142.800973
 20
117.200267
 30
0.0
 11
151.551004
 21
117.200267
 31
0.0
  0
LINE
  5
99
100
AcDbEntity
  8
0
  6
Continuous
 62
   174
100
AcDbLine
 10
70.157888
 20
115.324516
 30
0.0
 11
70.157888
 21
115.211928
 31
0.0
  0
LINE
  5
9A
100
AcDbEntity
  8
0
  6
HIDDEN
 62
   174
100
AcDbLine
 10
115.176027
 20
143.180267
 30
0.0
 11
109.176127
 21
143.180267
 31
0.0
  0
LINE
  5
9B
100
AcDbEntity
  8
0
  6
HIDDEN
 62
   174
100
AcDbLine
 10
101.157888
 20
120.200267
 30
0.0
 11
101.257888
 21
120.200267
 31
0.0
  0
LINE
  5
9C
100
AcDbEntity
  8
0
  6
HIDDEN
 62
   174
100
AcDbLine
 10
224.157888
 20
131.138301
 30
0.0
 11
224.157888
 21
131.144887
 31
0.0
  0
LWPOLYLINE
  5
9D
100
AcDbEntity
  8
0
  6
HIDDEN
 62
   174
100
AcDbPolyline
 90
        8
 70
   128
 10
71.657888
 20
160.416385
 10
71.671604
 20
161.364569
 10
71.69265
 20
162.356444
 10
71.69933
 20
163.008394
 10
71.697628
 20
163.661649
 10
71.687276
 20
164.330225
 10
71.672631
 20
164.990777
 10
71.657888
 20
165.984149
  0
LINE
  5
9E
100
AcDbEntity
  8
0
  6
Continuous
 62
   174
100
AcDbLine
 10
230.857888
 20
117.151076
 30
0.0
 11
224.157888
 21
117.151076
 31
0.0
  0
LINE
  5
9F
100
AcDbEntity
  8
0
  6
Continuous
 62
   174
100
AcDbLine
 10
230.857888
 20
115.324516
 30
0.0
 11
230.857888
 21
117.162681
 31
0.0
  0
LINE
  5
A0
100
AcDbEntity
  8
0
  6
HIDDEN
 62
   174
100
AcDbLine
 10
143.022888
 20
135.200267
 30
0.0
 11
143.022888
 21
143.200267
 31
0.0
  0
LINE
  5
A1
100
AcDbEntity
  8
0
  6
HIDDEN
 62
   174
100
AcDbLine
 10
205.906148
 20
171.200267
 30
0.0
 11
205.906148
 21
171.180267
 31
0.0
  0
LINE
  5
A2
100
AcDbEntity
  8
0
  6
HIDDEN
 62
   174
100
AcDbLine
 10
74.657888
 20
142.200267
 30
0.0
 11
74.657888
 21
168.200267
 31
0.0
  0
LINE
  5
A3
100
AcDbEntity
  8
0
  6
HIDDEN
 62
   174
100
AcDbLine
 10
224.157888
 20
115.324516
 30
0.0
 11
224.157888
 21
115.334501
 31
0.0
  0
LINE
  5
A4
100
AcDbEntity
  8
0
  6
HIDDEN
 62
   174
100
AcDbLine
 10
161.040932
 20
135.200267
 30
0.0
 11
151.310957
 21
135.200267
 31
0.0
  0
LINE
  5
A5
100
AcDbEntity
  8
0
  6
Continuous
 62
   174
100
AcDbLine
 10
74.657888
 20
171.200267
 30
0.0
 11
97.657888
 21
171.200267
 31
0.0
  0
LINE
  5
A6
100
AcDbEntity
  8
0
  6
Continuous
 62
   174
100
AcDbLine
 10
101.157888
 20
107.200267
 30
0.0
 11
117.157888
 21
107.200267
 31
0.0
  0
LINE
  5
A7
100
AcDbEntity
  8
0
  6
Continuous
 62
   174
100
AcDbLine
 10
222.657888
 20
155.200267
 30
0.0
 11
234.657888
 21
155.200267
 31
0.0
  0
LWPOLYLINE
  5
A8
100
AcDbEntity
  8
0
  6
HIDDEN
 62
   174
100
AcDbPolyline
 90
        8
 70
   128
 10
241.465068
 20
167.777927
 10
241.761842
 20
168.363821
 10
241.981551
 20
168.957973
 10
242.109518
 20
169.57256
 10
242.129511
 20
170.190287
 10
242.062361
 20
170.695353
 10
241.925375
 20
171.19695
 10
241.781834
 20
171.568299
  0
LINE
  5
A9
100
AcDbEntity
  8
0
  6
Continuous
 62
   174
100
AcDbLine
 10
63.457888
 20
115.210267
 30
0.0
 11
70.157888
 21
115.210267
 31
0.0
  0
LINE
  5
AA
100
AcDbEntity
  8
0
  6
HIDDEN
 62
   174
100
AcDbLine
 10
160.801098
 20
117.200267
 30
0.0
 11
169.550916
 21
117.200267
 31
0.0
  0
LINE
  5
AB
100
AcDbEntity
  8
0
  6
Continuous
 62
   174
100
AcDbLine
 10
230.857888
 20
131.138301
 30
0.0
 11
230.857888
 21
133.252414
 31
0.0
  0
LINE
  5
AC
100
AcDbEntity
  8
0
  6
Continuous
 62
   174
100
AcDbLine
 10
63.457888
 20
135.098439
 30
0.0
 11
63.457888
 21
133.260062
 31
0.0
  0
LINE
  5
AD
100
AcDbEntity
  8
0
  6
HIDDEN
 62
   174
100
AcDbLine
 10
124.292888
 20
115.200267
 30
0.0
 11
124.292888
 21
107.200267
 31
0.0
  0
LINE
  5
AE
100
AcDbEntity
  8
0
  6
Continuous
 62
   174
100
AcDbLine
 10
230.857888
 20
126.706354
 30
0.0
 11
230.857888
 21
126.706992
 31
0.0
  0
LINE
  5
AF
100
AcDbEntity
  8
0
  6
HIDDEN
 62
   174
100
AcDbLine
 10
143.04102
 20
135.200267
 30
0.0
 11
133.311045
 21
135.200267
 31
0.0
  0
LINE
  5
B0
100
AcDbEntity
  8
0
  6
Continuous
 62
   174
100
AcDbLine
 10
117.157888
 20
143.200267
 30
0.0
 11
101.157888
 21
143.200267
 31
0.0
  0
LINE
  5
B1
100
AcDbEntity
  8
0
  6
Continuous
 62
   174
100
AcDbLine
 10
71.157888
 20
135.200267
 30
0.0
 11
70.157888
 21
135.200267
 31
0.0
  0
LINE
  5
B2
100
AcDbEntity
  8
0
  6
Continuous
 62
   174
100
AcDbLine
 10
241.465068
 20
172.199818
 30
0.0
 11
241.494888
 21
172.148618
 31
0.0
  0
LWPOLYLINE
  5
B3
100
AcDbEntity
  8
0
  6
HIDDEN
 62
   174
100
AcDbPolyline
 90
        4
 70
   128
 10
52.850708
 20
158.778376
 10
52.40445
 20
157.871525
 10
52.251764
 20
157.405342
 10
52.157888
 20
156.935352
  0
LINE
  5
B4
100
AcDbEntity
  8
0
  6
Continuous
 62
   174
100
AcDbLine
 10
117.157888
 20
143.200267
 30
0.0
 11
117.157888
 21
107.200267
 31
0.0
  0
LWPOLYLINE
  5
B5
100
AcDbEntity
  8
0
  6
Continuous
 62
   174
100
AcDbPolyline
 90
        8
 70
   128
 10
222.657888
 20
160.416385
 10
222.644173
 20
161.364569
 10
222.623126
 20
162.356444
 10
222.616446
 20
163.008394
 10
222.618148
 20
163.661649
 10
222.628501
 20
164.330225
 10
222.643145
 20
164.990777
 10
222.657888
 20
165.984149
  0
LINE
  5
B6
100
AcDbEntity
  8
0
  6
Continuous
 62
   174
100
AcDbLine
 10
63.457888
 20
119.266422
 30
0.0
 11
70.157888
 21
119.266422
 31
0.0
  0
LINE
  5
B7
100
AcDbEntity
  8
0
  6
HIDDEN
 62
   174
100
AcDbLine
 10
241.465068
 20
158.622607
 30
0.0
 11
238.357888
 21
158.622607
 31
0.0
  0
LINE
  5
B8
100
AcDbEntity
  8
0
  6
Continuous
 62
   174
100
AcDbLine
 10
230.857888
 20
126.706992
 30
0.0
 11
230.857888
 21
131.144887
 31
0.0
  0
LINE
  5
B9
100
AcDbEntity
  8
0
  6
Continuous
 62
   174
100
AcDbLine
 10
241.465068
 20
154.200716
 30
0.0
 11
238.357888
 21
154.200716
 31
0.0
  0
LINE
  5
BA
100
AcDbEntity
  8
0
  6
HIDDEN
 62
   174
100
AcDbLine
 10
70.157888
 20
119.284442
 30
0.0
 11
70.157888
 21
119.277856
 31
0.0
  0
LINE
  5
BB
100
AcDbEntity
  8
0
  6
Continuous
 62
   174
100
AcDbLine
 10
177.157888
 20
107.200267
 30
0.0
 11
177.157888
 21
143.200267
 31
0.0
  0
LINE
  5
BC
100
AcDbEntity
  8
0
  6
HIDDEN
 62
   174
100
AcDbLine
 10
70.157888
 20
131.144887
 30
0.0
 11
70.157888
 21
131.138301
 31
0.0
  0
LINE
  5
BD
100
AcDbEntity
  8
0
  6
Continuous
 62
   174
100
AcDbLine
 10
230.857888
 20
135.098439
 30
0.0
 11
230.857888
 21
135.200831
 31
0.0
  0
LINE
  5
BE
100
AcDbEntity
  8
0
  6
Continuous
 62
   174
100
AcDbLine
 10
242.157888
 20
156.043741
 30
0.0
 11
242.157888
 21
156.935352
 31
0.0
  0
LWPOLYLINE
  5
BF
100
AcDbEntity
  8
0
  6
Continuous
 62
   174
100
AcDbPolyline
 90
        4
 70
   128
 10
241.465068
 20
158.778376
 10
241.911326
 20
157.871525
 10
242.064012
 20
157.405342
 10
242.157888
 20
156.935352
  0
LINE
  5
C0
100
AcDbEntity
  8
0
  6
HIDDEN
 62
   174
100
AcDbLine
 10
209.985364
 20
171.200267
 30
0.0
 11
209.985364
 21
171.180267
 31
0.0
  0
LINE
  5
C1
100
AcDbEntity
  8
0
  6
HIDDEN
 62
   174
100
AcDbLine
 10
124.801061
 20
117.200267
 30
0.0
 11
133.551092
 21
117.200267
 31
0.0
  0
LWPOLYLINE
  5
C2
100
AcDbEntity
  8
0
  6
Continuous
 62
   174
100
AcDbPolyline
 90
        8
 70
   128
 10
71.657888
 20
165.984149
 10
71.665102
 20
165.342216
 10
71.687501
 20
164.281154
 10
71.699848
 20
163.200267
 10
71.690308
 20
162.310161
 10
71.671559
 20
161.428413
 10
71.658405
 20
160.571231
 10
71.657888
 20
160.416385
  0
LINE
  5
C3
100
AcDbEntity
  8
0
  6
Continuous
 62
   174
100
AcDbLine
 10
70.157888
 20
115.200267
 30
0.0
 11
71.157888
 21
115.200267
 31
0.0
  0
LWPOLYLINE
  5
C4
100
AcDbEntity
  8
0
  6
Continuous
 62
   174
100
AcDbPolyline
 90
        4
 70
   128
 10
241.494888
 20
172.148618
 10
241.911326
 20
171.292966
 10
242.064012
 20
170.826783
 10
242.157888
 20
170.356793
  0
LINE
  5
C5
100
AcDbEntity
  8
0
  6
Continuous
 62
   174
100
AcDbLine
 10
56.657888
 20
172.20864
 30
0.0
 11
56.657888
 21
154.20979
 31
0.0
  0
LINE
  5
C6
100
AcDbEntity
  8
0
  6
Continuous
 62
   174
100
AcDbLine
 10
222.657888
 20
160.416385
 30
0.0
 11
222.657888
 21
142.200267
 31
0.0
  0
LINE
  5
C7
100
AcDbEntity
  8
0
  6
Continuous
 62
   174
100
AcDbLine
 10
52.157888
 20
155.400267
 30
0.0
 11
52.82101
 21
154.251706
 31
0.0
  0
LINE
  5
C8
100
AcDbEntity
  8
0
  6
Continuous
 62
   174
100
AcDbLine
 10
71.157888
 20
114.200267
 30
0.0
 11
71.157888
 21
142.200267
 31
0.0
  0
LINE
  5
C9
100
AcDbEntity
  8
0
  6
Continuous
 62
   174
100
AcDbLine
 10
193.157888
 20
142.200267
 30
0.0
 11
193.157888
 21
114.200267
 31
0.0
  0
LINE
  5
CA
100
AcDbEntity
  8
0
  6
Continuous
 62
   174
100
AcDbLine
 10
230.857888
 20
123.716389
 30
0.0
 11
230.857888
 21
126.706354
 31
0.0
  0
LINE
  5
CB
100
AcDbEntity
  8
0
  6
Continuous
 62
   174
100
AcDbLine
 10
63.457888
 20
131.144887
 30
0.0
 11
63.457888
 21
126.706992
 31
0.0
  0
LINE
  5
CC
100
AcDbEntity
  8
0
  6
HIDDEN
 62
   174
100
AcDbLine
 10
224.157888
 20
119.277856
 30
0.0
 11
224.157888
 21
119.284442
 31
0.0
  0
LINE
  5
CD
100
AcDbEntity
  8
0
  6
Continuous
 62
   174
100
AcDbLine
 10
101.157888
 20
114.200267
 30
0.0
 11
101.157888
 21
142.200267
 31
0.0
  0
LINE
  5
CE
100
AcDbEntity
  8
0
  6
Continuous
 62
   174
100
AcDbLine
 10
230.857888
 20
133.252414
 30
0.0
 11
230.857888
 21
133.260062
 31
0.0
  0
LINE
  5
CF
100
AcDbEntity
  8
0
  6
HIDDEN
 62
   174
100
AcDbLine
 10
142.550942
 20
133.200267
 30
0.0
 11
133.801123
 21
133.200267
 31
0.0
  0
LWPOLYLINE
  5
D0
100
AcDbEntity
  8
0
  6
Continuous
 62
   174
100
AcDbPolyline
 90
        4
 70
   128
 10
52.157888
 20
164.091878
 10
52.299097
 20
165.361343
 10
52.545569
 20
166.62386
 10
52.850708
 20
167.777927
  0
LINE
  5
D1
100
AcDbEntity
  8
0
  6
HIDDEN
 62
   174
100
AcDbLine
 10
87.985364
 20
171.200267
 30
0.0
 11
87.985364
 21
171.180267
 31
0.0
  0
LINE
  5
D2
100
AcDbEntity
  8
0
  6
Continuous
 62
   174
100
AcDbLine
 10
230.857888
 20
117.170329
 30
0.0
 11
230.857888
 21
119.284442
 31
0.0
  0
LWPOLYLINE
  5
D3
100
AcDbEntity
  8
0
  6
Continuous
 62
   174
100
AcDbPolyline
 90
        5
 70
   128
 10
52.850708
 20
158.622607
 10
52.429368
 20
160.310376
 10
52.278638
 20
161.175606
 10
52.177568
 20
162.047931
 10
52.157888
 20
162.308656
  0
LWPOLYLINE
  5
D4
100
AcDbEntity
  8
0
  6
HIDDEN
 62
   174
100
AcDbPolyline
 90
        3
 70
   128
 10
241.781834
 20
171.568299
 10
241.722294
 20
171.701445
 10
241.465068
 20
172.199818
  0
LINE
  5
D5
100
AcDbEntity
  8
0
  6
Continuous
 62
   174
100
AcDbLine
 10
223.157888
 20
115.200267
 30
0.0
 11
224.157888
 21
115.200267
 31
0.0
  0
LINE
  5
D6
100
AcDbEntity
  8
0
  6
HIDDEN
 62
   174
100
AcDbLine
 10
160.551066
 20
133.200267
 30
0.0
 11
151.801035
 21
133.200267
 31
0.0
  0
LINE
  5
D7
100
AcDbEntity
  8
0
  6
HIDDEN
 62
   174
100
AcDbLine
 10
241.465068
 20
167.777927
 30
0.0
 11
238.357888
 21
167.777927
 31
0.0
  0
LINE
  5
D8
100
AcDbEntity
  8
0
  6
Continuous
 62
   174
100
AcDbLine
 10
71.657888
 20
142.200267
 30
0.0
 11
71.657888
 21
160.416385
 31
0.0
  0
LINE
  5
D9
100
AcDbEntity
  8
0
  6
HIDDEN
 62
   174
100
AcDbLine
 10
160.782888
 20
117.200267
 30
0.0
 11
160.782888
 21
107.200267
 31
0.0
  0
LINE
  5
DA
100
AcDbEntity
  8
0
  6
Continuous
 62
   174
100
AcDbLine
 10
224.157888
 20
135.200267
 30
0.0
 11
223.157888
 21
135.200267
 31
0.0
  0
LWPOLYLINE
  5
DB
100
AcDbEntity
  8
0
  6
HIDDEN
 62
   174
100
AcDbPolyline
 90
        4
 70
   128
 10
242.157888
 20
164.091878
 10
242.016679
 20
165.361343
 10
241.770208
 20
166.62386
 10
241.465068
 20
167.777927
  0
LINE
  5
DC
100
AcDbEntity
  8
0
  6
Continuous
 62
   174
100
AcDbLine
 10
177.157888
 20
143.200267
 30
0.0
 11
117.157888
 21
143.200267
 31
0.0
  0
LINE
  5
DD
100
AcDbEntity
  8
0
  6
Continuous
 62
   174
100
AcDbLine
 10
223.157888
 20
142.200267
 30
0.0
 11
223.157888
 21
114.200267
 31
0.0
  0
LINE
  5
DE
100
AcDbEntity
  8
0
  6
Continuous
 62
   174
100
AcDbLine
 10
193.157888
 20
107.200267
 30
0.0
 11
177.157888
 21
107.200267
 31
0.0
  0
LINE
  5
DF
100
AcDbEntity
  8
0
  6
Continuous
 62
   174
100
AcDbLine
 10
241.494766
 20
154.251706
 30
0.0
 11
242.157888
 21
155.400267
 31
0.0
  0
LINE
  5
E0
100
AcDbEntity
  8
0
  6
Continuous
 62
   174
100
AcDbLine
 10
52.820645
 20
154.252339
 30
0.0
 11
52.850708
 21
154.200716
 31
0.0
  0
LINE
  5
E1
100
AcDbEntity
  8
0
  6
HIDDEN
 62
   174
100
AcDbLine
 10
70.157888
 20
115.334501
 30
0.0
 11
70.157888
 21
115.324516
 31
0.0
  0
LINE
  5
E2
100
AcDbEntity
  8
0
  6
Continuous
 62
   174
100
AcDbLine
 10
177.157888
 20
143.200267
 30
0.0
 11
193.157888
 21
143.200267
 31
0.0
  0
LINE
  5
E3
100
AcDbEntity
  8
0
  6
Continuous
 62
   174
100
AcDbLine
 10
52.850708
 20
172.199818
 30
0.0
 11
52.820889
 21
172.148618
 31
0.0
  0
LINE
  5
E4
100
AcDbEntity
  8
0
  6
Continuous
 62
   174
100
AcDbLine
 10
52.850708
 20
172.199818
 30
0.0
 11
55.957888
 21
172.199818
 31
0.0
  0
LINE
  5
E5
100
AcDbEntity
  8
0
  6
Continuous
 62
   174
100
AcDbLine
 10
237.657888
 20
163.209215
 30
0.0
 11
237.657888
 21
172.20864
 31
0.0
  0
LINE
  5
E6
100
AcDbEntity
  8
0
  6
Continuous
 62
   174
100
AcDbLine
 10
230.857888
 20
131.134112
 30
0.0
 11
224.157888
 21
131.134112
 31
0.0
  0
LINE
  5
E7
100
AcDbEntity
  8
0
  6
HIDDEN
 62
   174
100
AcDbLine
 10
169.532888
 20
107.200267
 30
0.0
 11
169.532888
 21
117.200267
 31
0.0
  0
LINE
  5
E8
100
AcDbEntity
  8
0
  6
Continuous
 62
   174
100
AcDbLine
 10
63.457888
 20
126.696042
 30
0.0
 11
70.157888
 21
126.696042
 31
0.0
  0
LINE
  5
E9
100
AcDbEntity
  8
0
  6
Continuous
 62
   174
100
AcDbLine
 10
230.857888
 20
123.715751
 30
0.0
 11
230.857888
 21
123.716389
 31
0.0
  0
LWPOLYLINE
  5
EA
100
AcDbEntity
  8
0
  6
HIDDEN
 62
   174
100
AcDbPolyline
 90
        5
 70
   128
 10
52.157888
 20
169.465182
 10
52.250259
 20
169.000856
 10
52.400112
 20
168.540232
 10
52.603511
 20
168.078539
 10
52.850708
 20
167.622158
  0
LINE
  5
EB
100
AcDbEntity
  8
0
  6
HIDDEN
 62
   174
100
AcDbLine
 10
74.657888
 20
168.200267
 30
0.0
 11
97.657888
 21
168.200267
 31
0.0
  0
LINE
  5
EC
100
AcDbEntity
  8
0
  6
Continuous
 62
   174
100
AcDbLine
 10
56.657888
 20
156.700267
 30
0.0
 11
59.657888
 21
156.700267
 31
0.0
  0
LINE
  5
ED
100
AcDbEntity
  8
0
  6
Continuous
 62
   174
100
AcDbLine
 10
63.457888
 20
123.716389
 30
0.0
 11
63.457888
 21
123.715751
 31
0.0
  0
LINE
  5
EE
100
AcDbEntity
  8
0
  6
Continuous
 62
   174
100
AcDbLine
 10
63.457888
 20
133.260062
 30
0.0
 11
63.457888
 21
133.252414
 31
0.0
  0
LINE
  5
EF
100
AcDbEntity
  8
0
  6
Continuous
 62
   174
100
AcDbLine
 10
52.157888
 20
171.00883
 30
0.0
 11
52.157888
 21
164.100788
 31
0.0
  0
LINE
  5
F0
100
AcDbEntity
  8
0
  6
Continuous
 62
   174
100
AcDbLine
 10
224.157888
 20
115.210267
 30
0.0
 11
230.857888
 21
115.210267
 31
0.0
  0
LWPOLYLINE
  5
F1
100
AcDbEntity
  8
0
  6
HIDDEN
 62
   174
100
AcDbPolyline
 90
        5
 70
   128
 10
52.157888
 20
156.043741
 10
52.250259
 20
155.579415
 10
52.400112
 20
155.11879
 10
52.603511
 20
154.657098
 10
52.820645
 20
154.252339
  0
LWPOLYLINE
  5
F2
100
AcDbEntity
  8
0
  6
HIDDEN
 62
   174
100
AcDbPolyline
 90
        8
 70
   128
 10
222.657888
 20
165.984149
 10
222.650674
 20
165.342216
 10
222.628275
 20
164.281154
 10
222.615928
 20
163.200267
 10
222.625468
 20
162.310161
 10
222.644217
 20
161.428413
 10
222.657372
 20
160.571231
 10
222.657888
 20
160.416385
  0
LINE
  5
F3
100
AcDbEntity
  8
0
  6
Continuous
 62
   174
100
AcDbLine
 10
219.657888
 20
168.200267
 30
0.0
 11
196.657888
 21
168.200267
 31
0.0
  0
LINE
  5
F4
100
AcDbEntity
  8
0
  6
Continuous
 62
   174
100
AcDbLine
 10
63.457888
 20
133.249458
 30
0.0
 11
70.157888
 21
133.249458
 31
0.0
  0
LINE
  5
F5
100
AcDbEntity
  8
0
  6
Continuous
 62
   174
100
AcDbLine
 10
230.857888
 20
117.162681
 30
0.0
 11
230.857888
 21
117.170329
 31
0.0
  0
LWPOLYLINE
  5
F6
100
AcDbEntity
  8
0
  6
HIDDEN
 62
   174
100
AcDbPolyline
 90
        5
 70
   128
 10
241.465068
 20
158.622607
 10
241.886408
 20
160.310376
 10
242.037139
 20
161.175606
 10
242.138208
 20
162.047931
 10
242.157888
 20
162.308656
  0
LINE
  5
F7
100
AcDbEntity
  8
0
  6
Continuous
 62
   174
100
AcDbLine
 10
117.157888
 20
107.200267
 30
0.0
 11
117.157888
 21
143.200267
 31
0.0
  0
LINE
  5
F8
100
AcDbEntity
  8
0
  6
Continuous
 62
   174
100
AcDbLine
 10
117.157888
 20
107.200267
 30
0.0
 11
177.157888
 21
107.200267
 31
0.0
  0
LINE
  5
F9
100
AcDbEntity
  8
0
  6
Continuous
 62
   174
100
AcDbLine
 10
193.157888
 20
143.200267
 30
0.0
 11
193.157888
 21
142.200267
 31
0.0
  0
LINE
  5
FA
100
AcDbEntity
  8
0
  6
Continuous
 62
   174
100
AcDbLine
 10
230.857888
 20
133.260062
 30
0.0
 11
230.857888
 21
135.098439
 31
0.0
  0
LINE
  5
FB
100
AcDbEntity
  8
0
  6
Continuous
 62
   174
100
AcDbLine
 10
242.157888
 20
169.465182
 30
0.0
 11
242.157888
 21
170.356793
 31
0.0
  0
LINE
  5
FC
100
AcDbEntity
  8
0
  6
HIDDEN
 62
   174
100
AcDbLine
 10
170.022888
 20
107.200267
 30
0.0
 11
170.022888
 21
115.200267
 31
0.0
  0
LINE
  5
FD
100
AcDbEntity
  8
0
  6
HIDDEN
 62
   174
100
AcDbLine
 10
206.330412
 20
171.200267
 30
0.0
 11
206.330412
 21
171.180267
 31
0.0
  0
LINE
  5
FE
100
AcDbEntity
  8
0
  6
Continuous
 62
   174
100
AcDbLine
 10
59.657888
 20
169.700267
 30
0.0
 11
56.657888
 21
169.700267
 31
0.0
  0
LINE
  5
FF
100
AcDbEntity
  8
0
  6
Continuous
 62
   174
100
AcDbLine
 10
237.657888
 20
154.20979
 30
0.0
 11
237.657888
 21
163.209215
 31
0.0
  0
LINE
  5
100
100
AcDbEntity
  8
0
  6
Continuous
 62
   174
100
AcDbLine
 10
241.495132
 20
154.252339
 30
0.0
 11
241.465068
 21
154.200716
 31
0.0
  0
LINE
  5
101
100
AcDbEntity
  8
0
  6
Continuous
 62
   174
100
AcDbLine
 10
55.957888
 20
154.200267
 30
0.0
 11
56.657888
 21
154.200267
 31
0.0
  0
LINE
  5
102
100
AcDbEntity
  8
0
  6
Continuous
 62
   174
100
AcDbLine
 10
63.457888
 20
119.284442
 30
0.0
 11
63.457888
 21
117.170329
 31
0.0
  0
LINE
  5
103
100
AcDbEntity
  8
0
  6
Continuous
 62
   174
100
AcDbLine
 10
193.157888
 20
142.200267
 30
0.0
 11
193.157888
 21
114.200267
 31
0.0
  0
LINE
  5
104
100
AcDbEntity
  8
0
  6
Continuous
 62
   174
100
AcDbLine
 10
52.157888
 20
162.317642
 30
0.0
 11
52.157888
 21
155.4096
 31
0.0
  0
LINE
  5
105
100
AcDbEntity
  8
0
  6
Continuous
 62
   174
100
AcDbLine
 10
224.157888
 20
123.715751
 30
0.0
 11
224.157888
 21
126.706992
 31
0.0
  0
LINE
  5
106
100
AcDbEntity
  8
0
  6
HIDDEN
 62
   174
100
AcDbLine
 10
160.292888
 20
115.200267
 30
0.0
 11
160.292888
 21
107.200267
 31
0.0
  0
LINE
  5
107
100
AcDbEntity
  8
0
  6
Continuous
 62
   174
100
AcDbLine
 10
63.457888
 20
126.706354
 30
0.0
 11
63.457888
 21
123.716389
 31
0.0
  0
LINE
  5
108
100
AcDbEntity
  8
0
  6
HIDDEN
 62
   174
100
AcDbLine
 10
160.532888
 20
133.200267
 30
0.0
 11
160.532888
 21
143.200267
 31
0.0
  0
LINE
  5
109
100
AcDbEntity
  8
0
  6
Continuous
 62
   174
100
AcDbLine
 10
63.457888
 20
117.162681
 30
0.0
 11
63.457888
 21
115.324516
 31
0.0
  0
LINE
  5
10A
100
AcDbEntity
  8
0
  6
Continuous
 62
   174
100
AcDbLine
 10
63.457888
 20
117.170329
 30
0.0
 11
63.457888
 21
117.162681
 31
0.0
  0
LINE
  5
10B
100
AcDbEntity
  8
0
  6
Continuous
 62
   174
100
AcDbLine
 10
52.157888
 20
164.091878
 30
0.0
 11
52.157888
 21
162.308656
 31
0.0
  0
LINE
  5
10C
100
AcDbEntity
  8
0
  6
Continuous
 62
   174
100
AcDbLine
 10
242.157888
 20
170.365376
 30
0.0
 11
242.157888
 21
171.00883
 31
0.0
  0
LINE
  5
10D
100
AcDbEntity
  8
0
  6
Continuous
 62
   174
100
AcDbLine
 10
219.657888
 20
142.200267
 30
0.0
 11
219.657888
 21
168.200267
 31
0.0
  0
LINE
  5
10E
100
AcDbEntity
  8
0
  6
Continuous
 62
   174
100
AcDbLine
 10
71.657888
 20
165.984149
 30
0.0
 11
71.657888
 21
168.200267
 31
0.0
  0
LWPOLYLINE
  5
10F
100
AcDbEntity
  8
0
  6
Continuous
 62
   174
100
AcDbPolyline
 90
        5
 70
   128
 10
242.157888
 20
169.465182
 10
242.065517
 20
169.000856
 10
241.915664
 20
168.540232
 10
241.712266
 20
168.078539
 10
241.465068
 20
167.622158
  0
LINE
  5
110
100
AcDbEntity
  8
0
  6
Continuous
 62
   174
100
AcDbLine
 10
241.465068
 20
172.199818
 30
0.0
 11
238.357888
 21
172.199818
 31
0.0
  0
LINE
  5
111
100
AcDbEntity
  8
0
  6
Continuous
 62
   174
100
AcDbLine
 10
237.657888
 20
169.700267
 30
0.0
 11
234.657888
 21
169.700267
 31
0.0
  0
CIRCLE
  5
112
100
AcDbEntity
  8
0
  6
Continuous
 62
   174
100
AcDbCircle
 10
165.157888
 20
137.700267
 30
0.0
 40
2.25
  0
LINE
  5
113
100
AcDbEntity
  8
0
  6
Continuous
 62
   174
100
AcDbLine
 10
52.821698
 20
172.15002
 30
0.0
 11
52.157888
 21
171.000267
 31
0.0
  0
LWPOLYLINE
  5
114
100
AcDbEntity
  8
0
  6
Continuous
 62
   174
100
AcDbPolyline
 90
        5
 70
   128
 10
242.157888
 20
156.043741
 10
242.065517
 20
155.579415
 10
241.915664
 20
155.11879
 10
241.712266
 20
154.657098
 10
241.495132
 20
154.252339
  0
LWPOLYLINE
  5
115
100
AcDbEntity
  8
0
  6
Continuous
 62
   174
100
AcDbPolyline
 90
        9
 70
   128
 10
52.850708
 20
154.200716
 10
52.553934
 20
154.78661
 10
52.334225
 20
155.380762
 10
52.206258
 20
155.995349
 10
52.186265
 20
156.613076
 10
52.253416
 20
157.118142
 10
52.390401
 20
157.619739
 10
52.593483
 20
158.124234
 10
52.850708
 20
158.622607
  0
LINE
  5
116
100
AcDbEntity
  8
0
  6
HIDDEN
 62
   174
100
AcDbLine
 10
101.257888
 20
125.211478
 30
0.0
 11
101.257888
 21
120.211703
 31
0.0
  0
LINE
  5
117
100
AcDbEntity
  8
0
  6
Continuous
 62
   174
100
AcDbLine
 10
223.157888
 20
142.200267
 30
0.0
 11
193.157888
 21
142.200267
 31
0.0
  0
LINE
  5
118
100
AcDbEntity
  8
0
  6
Continuous
 62
   174
100
AcDbLine
 10
193.157888
 20
114.200267
 30
0.0
 11
193.157888
 21
107.200267
 31
0.0
  0
LINE
  5
119
100
AcDbEntity
  8
0
  6
Continuous
 62
   174
100
AcDbLine
 10
230.857888
 20
123.704492
 30
0.0
 11
224.157888
 21
123.704492
 31
0.0
  0
LINE
  5
11A
100
AcDbEntity
  8
0
  6
HIDDEN
 62
   174
100
AcDbLine
 10
160.311019
 20
115.200267
 30
0.0
 11
165.175901
 21
115.200267
 31
0.0
  0
LINE
  5
11B
100
AcDbEntity
  8
0
  6
Continuous
 62
   174
100
AcDbLine
 10
234.657888
 20
171.200267
 30
0.0
 11
219.657888
 21
171.200267
 31
0.0
  0
LINE
  5
11C
100
AcDbEntity
  8
0
  6
HIDDEN
 62
   174
100
AcDbLine
 10
151.782888
 20
143.200267
 30
0.0
 11
151.782888
 21
133.200267
 31
0.0
  0
LINE
  5
11D
100
AcDbEntity
  8
0
  6
HIDDEN
 62
   174
100
AcDbLine
 10
193.057888
 20
120.211703
 30
0.0
 11
193.057888
 21
130.21104
 31
0.0
  0
LINE
  5
11E
100
AcDbEntity
  8
0
  6
Continuous
 62
   174
100
AcDbLine
 10
56.657888
 20
172.200267
 30
0.0
 11
55.957888
 21
172.200267
 31
0.0
  0
LINE
  5
11F
100
AcDbEntity
  8
0
  6
HIDDEN
 62
   174
100
AcDbLine
 10
83.906148
 20
171.200267
 30
0.0
 11
83.906148
 21
171.180267
 31
0.0
  0
LINE
  5
120
100
AcDbEntity
  8
0
  6
Continuous
 62
   174
100
AcDbLine
 10
234.657888
 20
156.700267
 30
0.0
 11
237.657888
 21
156.700267
 31
0.0
  0
LINE
  5
121
100
AcDbEntity
  8
0
  6
Continuous
 62
   174
100
AcDbLine
 10
63.457888
 20
115.324516
 30
0.0
 11
63.457888
 21
115.221912
 31
0.0
  0
LINE
  5
122
100
AcDbEntity
  8
0
  6
HIDDEN
 62
   174
100
AcDbLine
 10
88.409628
 20
171.200267
 30
0.0
 11
88.409628
 21
171.180267
 31
0.0
  0
LINE
  5
123
100
AcDbEntity
  8
0
  6
HIDDEN
 62
   174
100
AcDbLine
 10
142.532888
 20
133.200267
 30
0.0
 11
142.532888
 21
143.200267
 31
0.0
  0
LINE
  5
124
100
AcDbEntity
  8
0
  6
HIDDEN
 62
   174
100
AcDbLine
 10
70.157888
 20
135.098439
 30
0.0
 11
70.157888
 21
135.088243
 31
0.0
  0
LINE
  5
125
100
AcDbEntity
  8
0
  6
Continuous
 62
   174
100
AcDbLine
 10
177.157888
 20
107.200267
 30
0.0
 11
177.157888
 21
143.200267
 31
0.0
  0
LINE
  5
126
100
AcDbEntity
  8
0
  6
Continuous
 62
   174
100
AcDbLine
 10
242.157888
 20
155.4096
 30
0.0
 11
242.157888
 21
156.053053
 31
0.0
  0
LINE
  5
127
100
AcDbEntity
  8
0
  6
HIDDEN
 62
   174
100
AcDbLine
 10
84.330412
 20
171.200267
 30
0.0
 11
84.330412
 21
171.180267
 31
0.0
  0
LINE
  5
128
100
AcDbEntity
  8
0
  6
Continuous
 62
   174
100
AcDbLine
 10
101.157888
 20
143.200267
 30
0.0
 11
101.157888
 21
142.200267
 31
0.0
  0
LINE
  5
129
100
AcDbEntity
  8
0
  6
Continuous
 62
   174
100
AcDbLine
 10
63.457888
 20
133.252414
 30
0.0
 11
63.457888
 21
131.138301
 31
0.0
  0
LINE
  5
12A
100
AcDbEntity
  8
0
  6
HIDDEN
 62
   174
100
AcDbLine
 10
151.292888
 20
143.200267
 30
0.0
 11
151.292888
 21
135.200267
 31
0.0
  0
LINE
  5
12B
100
AcDbEntity
  8
0
  6
Continuous
 62
   174
100
AcDbLine
 10
71.157888
 20
114.200267
 30
0.0
 11
101.157888
 21
114.200267
 31
0.0
  0
LINE
  5
12C
100
AcDbEntity
  8
0
  6
Continuous
 62
   174
100
AcDbLine
 10
74.657888
 20
171.200267
 30
0.0
 11
59.657888
 21
171.200267
 31
0.0
  0
LINE
  5
12D
100
AcDbEntity
  8
0
  6
Continuous
 62
   174
100
AcDbLine
 10
63.457888
 20
123.715751
 30
0.0
 11
63.457888
 21
119.277856
 31
0.0
  0
LINE
  5
12E
100
AcDbEntity
  8
0
  6
Continuous
 62
   174
100
AcDbLine
 10
63.457888
 20
115.312767
 30
0.0
 11
70.157888
 21
115.312767
 31
0.0
  0
LINE
  5
12F
100
AcDbEntity
  8
0
  6
Continuous
 62
   174
100
AcDbLine
 10
242.157888
 20
171.000267
 30
0.0
 11
241.494078
 21
172.15002
 31
0.0
  0
LINE
  5
130
100
AcDbEntity
  8
0
  6
Continuous
 62
   174
100
AcDbLine
 10
242.157888
 20
156.944626
 30
0.0
 11
242.157888
 21
169.473804
 31
0.0
  0
LWPOLYLINE
  5
131
100
AcDbEntity
  8
0
  6
Continuous
 62
   174
100
AcDbPolyline
 90
        8
 70
   128
 10
241.465068
 20
167.622158
 10
241.750203
 20
166.502901
 10
241.963609
 20
165.379805
 10
242.095501
 20
164.24453
 10
242.13444
 20
163.073792
 10
242.074015
 20
161.903939
 10
241.842482
 20
160.334287
 10
241.465068
 20
158.778376
  0
LINE
  5
132
100
AcDbEntity
  8
0
  6
HIDDEN
 62
   174
100
AcDbLine
 10
224.157888
 20
135.088243
 30
0.0
 11
224.157888
 21
135.098439
 31
0.0
  0
LINE
  5
133
100
AcDbEntity
  8
0
  6
Continuous
 62
   174
100
AcDbLine
 10
230.857888
 20
119.277856
 30
0.0
 11
230.857888
 21
123.715751
 31
0.0
  0
LINE
  5
134
100
AcDbEntity
  8
0
  6
HIDDEN
 62
   174
100
AcDbLine
 10
101.257888
 20
130.21104
 30
0.0
 11
101.257888
 21
125.211478
 31
0.0
  0
LINE
  5
135
100
AcDbEntity
  8
0
  6
HIDDEN
 62
   174
100
AcDbLine
 10
165.175901
 20
115.200267
 30
0.0
 11
170.040994
 21
115.200267
 31
0.0
  0
LWPOLYLINE
  5
136
100
AcDbEntity
  8
0
  6
HIDDEN
 62
   174
100
AcDbPolyline
 90
        8
 70
   128
 10
52.850708
 20
167.622158
 10
52.565573
 20
166.502901
 10
52.352167
 20
165.379805
 10
52.220275
 20
164.24453
 10
52.181336
 20
163.073792
 10
52.241761
 20
161.903939
 10
52.473295
 20
160.334287
 10
52.850708
 20
158.778376
  0
LINE
  5
137
100
AcDbEntity
  8
0
  6
Continuous
 62
   174
100
AcDbLine
 10
52.850708
 20
158.622607
 30
0.0
 11
55.957888
 21
158.622607
 31
0.0
  0
LINE
  5
138
100
AcDbEntity
  8
0
  6
Continuous
 62
   174
100
AcDbLine
 10
238.357888
 20
172.200267
 30
0.0
 11
237.657888
 21
172.200267
 31
0.0
  0
LINE
  5
139
100
AcDbEntity
  8
0
  6
HIDDEN
 62
   174
100
AcDbLine
 10
133.782888
 20
143.200267
 30
0.0
 11
133.782888
 21
133.200267
 31
0.0
  0
LINE
  5
13A
100
AcDbEntity
  8
0
  6
Continuous
 62
   174
100
AcDbLine
 10
52.850708
 20
154.200716
 30
0.0
 11
55.957888
 21
154.200716
 31
0.0
  0
LINE
  5
13B
100
AcDbEntity
  8
0
  6
HIDDEN
 62
   174
100
AcDbLine
 10
133.532888
 20
107.200267
 30
0.0
 11
133.532888
 21
117.200267
 31
0.0
  0
LINE
  5
13C
100
AcDbEntity
  8
0
  6
Continuous
 62
   174
100
AcDbLine
 10
71.157888
 20
142.200267
 30
0.0
 11
101.157888
 21
142.200267
 31
0.0
  0
LINE
  5
13D
100
AcDbEntity
  8
0
  6
Continuous
 62
   174
100
AcDbLine
 10
101.157888
 20
142.200267
 30
0.0
 11
101.157888
 21
114.200267
 31
0.0
  0
CIRCLE
  5
13E
100
AcDbEntity
  8
0
  6
Continuous
 62
   174
100
AcDbCircle
 10
129.157888
 20
137.700267
 30
0.0
 40
2.25
  0
LINE
  5
13F
100
AcDbEntity
  8
0
  6
Continuous
 62
   174
100
AcDbLine
 10
59.657888
 20
155.200267
 30
0.0
 11
71.657888
 21
155.200267
 31
0.0
  0
LINE
  5
140
100
AcDbEntity
  8
0
  6
Continuous
 62
   174
100
AcDbLine
 10
52.850708
 20
167.777927
 30
0.0
 11
55.957888
 21
167.777927
 31
0.0
  0
LINE
  5
141
100
AcDbEntity
  8
0
  6
Continuous
 62
   174
100
AcDbLine
 10
222.657888
 20
168.200267
 30
0.0
 11
222.657888
 21
165.984149
 31
0.0
  0
LINE
  5
142
100
AcDbEntity
  8
0
  6
Continuous
 62
   174
100
AcDbLine
 10
230.857888
 20
115.221912
 30
0.0
 11
230.857888
 21
115.324516
 31
0.0
  0
LINE
  5
143
100
AcDbEntity
  8
0
  6
Continuous
 62
   174
100
AcDbLine
 10
63.457888
 20
126.706992
 30
0.0
 11
63.457888
 21
126.706354
 31
0.0
  0
LINE
  5
144
100
AcDbEntity
  8
0
  6
Continuous
 62
   174
100
AcDbLine
 10
230.857888
 20
135.087767
 30
0.0
 11
224.157888
 21
135.087767
 31
0.0
  0
LINE
  5
145
100
AcDbEntity
  8
0
  6
HIDDEN
 62
   174
100
AcDbLine
 10
133.292888
 20
143.200267
 30
0.0
 11
133.292888
 21
135.200267
 31
0.0
  0
LINE
  5
146
100
AcDbEntity
  8
0
  6
Continuous
 62
   174
100
AcDbLine
 10
237.657888
 20
154.200267
 30
0.0
 11
238.357888
 21
154.200267
 31
0.0
  0
LINE
  5
147
100
AcDbEntity
  8
0
  6
Continuous
 62
   174
100
AcDbLine
 10
223.157888
 20
114.200267
 30
0.0
 11
193.157888
 21
114.200267
 31
0.0
  0
LINE
  5
148
100
AcDbEntity
  8
0
  6
HIDDEN
 62
   174
100
AcDbLine
 10
161.022888
 20
135.200267
 30
0.0
 11
161.022888
 21
143.200267
 31
0.0
  0
LWPOLYLINE
  5
149
100
AcDbEntity
  8
0
  6
Continuous
 62
   174
100
AcDbPolyline
 90
        9
 70
   128
 10
52.850708
 20
167.777927
 10
52.553934
 20
168.363821
 10
52.334225
 20
168.957973
 10
52.206258
 20
169.57256
 10
52.186265
 20
170.190287
 10
52.253416
 20
170.695353
 10
52.390401
 20
171.19695
 10
52.593483
 20
171.701445
 10
52.850708
 20
172.199818
  0
LWPOLYLINE
  5
14A
100
AcDbEntity
  8
0
  6
HIDDEN
 62
   174
100
AcDbPolyline
 90
        9
 70
   128
 10
241.465068
 20
154.200716
 10
241.761842
 20
154.78661
 10
241.981551
 20
155.380762
 10
242.109518
 20
155.995349
 10
242.129511
 20
156.613076
 10
242.062361
 20
157.118142
 10
241.925375
 20
157.619739
 10
241.722294
 20
158.124234
 10
241.465068
 20
158.622607
  0
LINE
  5
14B
100
AcDbEntity
  8
0
  6
HIDDEN
 62
   174
100
AcDbLine
 10
134.022888
 20
107.200267
 30
0.0
 11
134.022888
 21
115.200267
 31
0.0
  0
LINE
  5
14C
100
AcDbEntity
  8
0
  6
Continuous
 62
   174
100
AcDbLine
 10
101.157888
 20
114.200267
 30
0.0
 11
101.157888
 21
107.200267
 31
0.0
  0
LINE
  5
14D
100
AcDbEntity
  8
0
  6
Continuous
 62
   174
100
AcDbLine
 10
63.457888
 20
135.200831
 30
0.0
 11
63.457888
 21
135.098439
 31
0.0
  0
LINE
  5
14E
100
AcDbEntity
  8
0
  6
HIDDEN
 62
   174
100
AcDbLine
 10
210.409628
 20
171.200267
 30
0.0
 11
210.409628
 21
171.180267
 31
0.0
  0
ENDBLK
  5
14F
100
AcDbEntity
  8
0
100
AcDbBlockEnd
  0
BLOCK
  5
152
100
AcDbEntity
  8
0
100
AcDbBlockBegin
  2
*B2
 70
     0
 10
0.0
 20
0.0
 30
0.0
  3
*B2
  1

  0
LINE
  5
153
100
AcDbEntity
  8
0
  6
Continuous
 62
   174
100
AcDbLine
 10
241.465068
 20
41.991817
 30
0.0
 11
238.357888
 21
41.991817
 31
0.0
  0
LINE
  5
154
100
AcDbEntity
  8
0
  6
Continuous
 62
   174
100
AcDbLine
 10
52.850708
 20
57.66943
 30
0.0
 11
55.957888
 21
57.66943
 31
0.0
  0
LINE
  5
155
100
AcDbEntity
  8
0
  6
Continuous
 62
   174
100
AcDbLine
 10
238.357888
 20
49.935932
 30
0.0
 11
238.357888
 21
42.007584
 31
0.0
  0
LINE
  5
156
100
AcDbEntity
  8
0
  6
Continuous
 62
   174
100
AcDbLine
 10
55.957888
 20
49.756003
 30
0.0
 11
55.957888
 21
57.684351
 31
0.0
  0
LINE
  5
157
100
AcDbEntity
  8
0
  6
Continuous
 62
   174
100
AcDbLine
 10
230.857888
 20
59.820623
 30
0.0
 11
224.157888
 21
59.820623
 31
0.0
  0
LINE
  5
158
100
AcDbEntity
  8
0
  6
Continuous
 62
   174
100
AcDbLine
 10
238.357888
 20
57.594493
 30
0.0
 11
238.357888
 21
49.935932
 31
0.0
  0
LINE
  5
159
100
AcDbEntity
  8
0
  6
Continuous
 62
   174
100
AcDbLine
 10
63.457888
 20
39.840623
 30
0.0
 11
70.157888
 21
39.840623
 31
0.0
  0
LINE
  5
15A
100
AcDbEntity
  8
0
  6
Continuous
 62
   174
100
AcDbLine
 10
55.957888
 20
42.097655
 30
0.0
 11
55.957888
 21
49.756003
 31
0.0
  0
LINE
  5
15B
100
AcDbEntity
  8
0
  6
Continuous
 62
   174
100
AcDbLine
 10
238.357888
 20
58.845499
 30
0.0
 11
238.357888
 21
57.594493
 31
0.0
  0
LINE
  5
15C
100
AcDbEntity
  8
0
  6
Continuous
 62
   174
100
AcDbLine
 10
55.957888
 20
40.846436
 30
0.0
 11
55.957888
 21
42.097655
 31
0.0
  0
LINE
  5
15D
100
AcDbEntity
  8
0
  6
Continuous
 62
   174
100
AcDbLine
 10
238.357888
 20
42.007584
 30
0.0
 11
238.357888
 21
40.846436
 31
0.0
  0
LINE
  5
15E
100
AcDbEntity
  8
0
  6
Continuous
 62
   174
100
AcDbLine
 10
55.957888
 20
57.684351
 30
0.0
 11
55.957888
 21
58.845499
 31
0.0
  0
LINE
  5
15F
100
AcDbEntity
  8
0
  6
Continuous
 62
   174
100
AcDbLine
 10
224.157888
 20
39.840623
 30
0.0
 11
230.857888
 21
39.840623
 31
0.0
  0
LINE
  5
160
100
AcDbEntity
  8
0
  6
Continuous
 62
   174
100
AcDbLine
 10
97.657888
 20
57.345524
 30
0.0
 11
97.657888
 21
60.345474
 31
0.0
  0
LINE
  5
161
100
AcDbEntity
  8
0
  6
Continuous
 62
   174
100
AcDbLine
 10
97.657888
 20
39.346674
 30
0.0
 11
97.657888
 21
42.346411
 31
0.0
  0
ARC
  5
162
100
AcDbEntity
  8
0
  6
Continuous
 62
   174
100
AcDbCircle
 10
97.657888
 20
42.330623
 30
0.0
 40
3.0
100
AcDbArc
 50
-90.0
 51
0.0
  0
LINE
  5
163
100
AcDbEntity
  8
0
  6
Continuous
 62
   174
100
AcDbLine
 10
74.657888
 20
57.345524
 30
0.0
 11
74.657888
 21
60.345474
 31
0.0
  0
LINE
  5
164
100
AcDbEntity
  8
0
  6
Continuous
 62
   174
100
AcDbLine
 10
219.657888
 20
60.345474
 30
0.0
 11
219.657888
 21
57.345524
 31
0.0
  0
LINE
  5
165
100
AcDbEntity
  8
0
  6
Continuous
 62
   174
100
AcDbLine
 10
74.657888
 20
39.346674
 30
0.0
 11
74.657888
 21
42.346411
 31
0.0
  0
LINE
  5
166
100
AcDbEntity
  8
0
  6
Continuous
 62
   174
100
AcDbLine
 10
59.657888
 20
57.845586
 30
0.0
 11
59.657888
 21
41.846349
 31
0.0
  0
LINE
  5
167
100
AcDbEntity
  8
0
  6
Continuous
 62
   174
100
AcDbLine
 10
196.657888
 20
60.330623
 30
0.0
 11
219.657888
 21
60.330623
 31
0.0
  0
LINE
  5
168
100
AcDbEntity
  8
0
  6
Continuous
 62
   174
100
AcDbLine
 10
97.657888
 20
39.330623
 30
0.0
 11
74.657888
 21
39.330623
 31
0.0
  0
LINE
  5
169
100
AcDbEntity
  8
0
  6
Continuous
 62
   174
100
AcDbLine
 10
70.157888
 20
59.845411
 30
0.0
 11
70.157888
 21
59.733035
 31
0.0
  0
LINE
  5
16A
100
AcDbEntity
  8
0
  6
Continuous
 62
   174
100
AcDbLine
 10
71.657888
 20
42.330623
 30
0.0
 11
71.657888
 21
43.585625
 31
0.0
  0
LINE
  5
16B
100
AcDbEntity
  8
0
  6
Continuous
 62
   174
100
AcDbLine
 10
111.657888
 20
46.923305
 30
0.0
 11
111.657888
 21
52.737942
 31
0.0
  0
CIRCLE
  5
16C
100
AcDbEntity
  8
0
  6
Continuous
 62
   174
100
AcDbCircle
 10
182.157888
 20
49.830623
 30
0.0
 40
3.0
  0
LINE
  5
16D
100
AcDbEntity
  8
0
  6
Continuous
 62
   174
100
AcDbLine
 10
56.657888
 20
43.330623
 30
0.0
 11
59.657888
 21
43.330623
 31
0.0
  0
LINE
  5
16E
100
AcDbEntity
  8
0
  6
Continuous
 62
   174
100
AcDbLine
 10
117.157888
 20
38.830623
 30
0.0
 11
117.157888
 21
60.830623
 31
0.0
  0
LINE
  5
16F
100
AcDbEntity
  8
0
  6
Continuous
 62
   174
100
AcDbLine
 10
193.157888
 20
60.830623
 30
0.0
 11
193.157888
 21
38.830623
 31
0.0
  0
ARC
  5
170
100
AcDbEntity
  8
0
  6
Continuous
 62
   174
100
AcDbCircle
 10
208.157888
 20
49.830623
 30
0.0
 40
2.9
100
AcDbArc
 50
-39.062228
 51
129.062228
  0
LINE
  5
171
100
AcDbEntity
  8
0
  6
Continuous
 62
   174
100
AcDbLine
 10
196.676012
 20
42.330623
 30
0.0
 11
193.676062
 21
42.330623
 31
0.0
  0
LINE
  5
172
100
AcDbEntity
  8
0
  6
Continuous
 62
   174
100
AcDbLine
 10
193.676062
 20
57.330623
 30
0.0
 11
196.676012
 21
57.330623
 31
0.0
  0
LINE
  5
173
100
AcDbEntity
  8
0
  6
Continuous
 62
   174
100
AcDbLine
 10
63.457888
 20
59.718123
 30
0.0
 11
70.157888
 21
59.718123
 31
0.0
  0
ARC
  5
174
100
AcDbEntity
  8
0
  6
Continuous
 62
   174
100
AcDbCircle
 10
219.657888
 20
42.330623
 30
0.0
 40
3.0
100
AcDbArc
 50
-90.0
 51
0.0
  0
LINE
  5
175
100
AcDbEntity
  8
0
  6
Continuous
 62
   174
100
AcDbLine
 10
219.675912
 20
42.330623
 30
0.0
 11
222.676074
 21
42.330623
 31
0.0
  0
LINE
  5
176
100
AcDbEntity
  8
0
  6
Continuous
 62
   174
100
AcDbLine
 10
222.676074
 20
57.330623
 30
0.0
 11
219.675912
 21
57.330623
 31
0.0
  0
LINE
  5
177
100
AcDbEntity
  8
0
  6
Continuous
 62
   174
100
AcDbLine
 10
63.457888
 20
41.781432
 30
0.0
 11
70.157888
 21
41.781432
 31
0.0
  0
LINE
  5
178
100
AcDbEntity
  8
0
  6
Continuous
 62
   174
100
AcDbLine
 10
70.157888
 20
41.846349
 30
0.0
 11
70.157888
 21
41.797277
 31
0.0
  0
LINE
  5
179
100
AcDbEntity
  8
0
  6
Continuous
 62
   174
100
AcDbLine
 10
222.657888
 20
57.330623
 30
0.0
 11
222.657888
 21
56.075621
 31
0.0
  0
ARC
  5
17A
100
AcDbEntity
  8
0
  6
Continuous
 62
   174
100
AcDbCircle
 10
112.157888
 20
49.830623
 30
0.0
 40
2.95
100
AcDbArc
 50
-80.241743
 51
80.241743
  0
LINE
  5
17B
100
AcDbEntity
  8
0
  6
Continuous
 62
   174
100
AcDbLine
 10
182.657888
 20
52.737942
 30
0.0
 11
182.657888
 21
46.923305
 31
0.0
  0
CIRCLE
  5
17C
100
AcDbEntity
  8
0
  6
Continuous
 62
   174
100
AcDbCircle
 10
112.157888
 20
49.830623
 30
0.0
 40
3.0
  0
LINE
  5
17D
100
AcDbEntity
  8
0
  6
Continuous
 62
   174
100
AcDbLine
 10
223.157888
 20
38.830623
 30
0.0
 11
193.157888
 21
38.830623
 31
0.0
  0
LINE
  5
17E
100
AcDbEntity
  8
0
  6
Continuous
 62
   174
100
AcDbLine
 10
56.657888
 20
58.845499
 30
0.0
 11
56.657888
 21
40.846436
 31
0.0
  0
LINE
  5
17F
100
AcDbEntity
  8
0
  6
Continuous
 62
   174
100
AcDbLine
 10
117.157888
 20
38.830623
 30
0.0
 11
101.157888
 21
38.830623
 31
0.0
  0
ARC
  5
180
100
AcDbEntity
  8
0
  6
Continuous
 62
   174
100
AcDbCircle
 10
219.657888
 20
57.330623
 30
0.0
 40
3.0
100
AcDbArc
 50
-360.0
 51
-270.0
  0
ARC
  5
181
100
AcDbEntity
  8
0
  6
Continuous
 62
   174
100
AcDbCircle
 10
74.657888
 20
42.330623
 30
0.0
 40
3.0
100
AcDbArc
 50
-180.0
 51
-90.0
  0
ARC
  5
182
100
AcDbEntity
  8
0
  6
Continuous
 62
   174
100
AcDbCircle
 10
182.157888
 20
49.830623
 30
0.0
 40
2.95
100
AcDbArc
 50
-260.241743
 51
-99.758257
  0
LINE
  5
183
100
AcDbEntity
  8
0
  6
Continuous
 62
   174
100
AcDbLine
 10
177.157888
 20
38.830623
 30
0.0
 11
117.157888
 21
38.830623
 31
0.0
  0
LINE
  5
184
100
AcDbEntity
  8
0
  6
Continuous
 62
   174
100
AcDbLine
 10
177.157888
 20
60.830623
 30
0.0
 11
193.157888
 21
60.830623
 31
0.0
  0
ARC
  5
185
100
AcDbEntity
  8
0
  6
Continuous
 62
   174
100
AcDbCircle
 10
86.157888
 20
49.830623
 30
0.0
 40
2.9
100
AcDbArc
 50
-39.062228
 51
129.062228
  0
LINE
  5
186
100
AcDbEntity
  8
0
  6
Continuous
 62
   174
100
AcDbLine
 10
205.906148
 20
51.658099
 30
0.0
 11
209.985364
 21
47.578884
 31
0.0
  0
LINE
  5
187
100
AcDbEntity
  8
0
  6
Continuous
 62
   174
100
AcDbLine
 10
88.409628
 20
48.003148
 30
0.0
 11
84.330412
 21
52.082363
 31
0.0
  0
LINE
  5
188
100
AcDbEntity
  8
0
  6
Continuous
 62
   174
100
AcDbLine
 10
224.157888
 20
59.733035
 30
0.0
 11
224.157888
 21
59.845411
 31
0.0
  0
LINE
  5
189
100
AcDbEntity
  8
0
  6
Continuous
 62
   174
100
AcDbLine
 10
224.157888
 20
41.797277
 30
0.0
 11
224.157888
 21
41.846349
 31
0.0
  0
LINE
  5
18A
100
AcDbEntity
  8
0
  6
Continuous
 62
   174
100
AcDbLine
 10
97.657888
 20
42.330623
 30
0.0
 11
97.657888
 21
57.330623
 31
0.0
  0
LINE
  5
18B
100
AcDbEntity
  8
0
  6
Continuous
 62
   174
100
AcDbLine
 10
222.657888
 20
43.585625
 30
0.0
 11
222.657888
 21
42.330623
 31
0.0
  0
LINE
  5
18C
100
AcDbEntity
  8
0
  6
Continuous
 62
   174
100
AcDbLine
 10
70.157888
 20
59.820623
 30
0.0
 11
63.457888
 21
59.820623
 31
0.0
  0
LINE
  5
18D
100
AcDbEntity
  8
0
  6
Continuous
 62
   174
100
AcDbLine
 10
230.857888
 20
57.872192
 30
0.0
 11
224.157888
 21
57.872192
 31
0.0
  0
LINE
  5
18E
100
AcDbEntity
  8
0
  6
Continuous
 62
   174
100
AcDbLine
 10
63.457888
 20
41.789055
 30
0.0
 11
70.157888
 21
41.789055
 31
0.0
  0
ARC
  5
18F
100
AcDbEntity
  8
0
  6
Continuous
 62
   174
100
AcDbCircle
 10
196.657888
 20
42.330623
 30
0.0
 40
3.0
100
AcDbArc
 50
-180.0
 51
-90.0
  0
LINE
  5
190
100
AcDbEntity
  8
0
  6
Continuous
 62
   174
100
AcDbLine
 10
196.657888
 20
42.346411
 30
0.0
 11
196.657888
 21
39.346674
 31
0.0
  0
LINE
  5
191
100
AcDbEntity
  8
0
  6
Continuous
 62
   174
100
AcDbLine
 10
196.657888
 20
60.345474
 30
0.0
 11
196.657888
 21
57.345524
 31
0.0
  0
ARC
  5
192
100
AcDbEntity
  8
0
  6
Continuous
 62
   174
100
AcDbCircle
 10
196.657888
 20
57.330623
 30
0.0
 40
3.0
100
AcDbArc
 50
-270.0
 51
-180.0
  0
LINE
  5
193
100
AcDbEntity
  8
0
  6
Continuous
 62
   174
100
AcDbLine
 10
219.657888
 20
42.346411
 30
0.0
 11
219.657888
 21
39.346674
 31
0.0
  0
LINE
  5
194
100
AcDbEntity
  8
0
  6
Continuous
 62
   174
100
AcDbLine
 10
230.857888
 20
39.943123
 30
0.0
 11
224.157888
 21
39.943123
 31
0.0
  0
LINE
  5
195
100
AcDbEntity
  8
0
  6
Continuous
 62
   174
100
AcDbLine
 10
234.657888
 20
41.846349
 30
0.0
 11
234.657888
 21
57.845586
 31
0.0
  0
LINE
  5
196
100
AcDbEntity
  8
0
  6
Continuous
 62
   174
100
AcDbLine
 10
224.157888
 20
57.845586
 30
0.0
 11
224.157888
 21
57.894658
 31
0.0
  0
LINE
  5
197
100
AcDbEntity
  8
0
  6
Continuous
 62
   174
100
AcDbLine
 10
224.157888
 20
39.846524
 30
0.0
 11
224.157888
 21
39.959112
 31
0.0
  0
LINE
  5
198
100
AcDbEntity
  8
0
  6
Continuous
 62
   174
100
AcDbLine
 10
219.657888
 20
39.330623
 30
0.0
 11
196.657888
 21
39.330623
 31
0.0
  0
ARC
  5
199
100
AcDbEntity
  8
0
  6
Continuous
 62
   174
100
AcDbCircle
 10
182.157888
 20
49.830623
 30
0.0
 40
2.95
100
AcDbArc
 50
-80.241743
 51
80.241743
  0
LINE
  5
19A
100
AcDbEntity
  8
0
  6
Continuous
 62
   174
100
AcDbLine
 10
196.657888
 20
57.330623
 30
0.0
 11
196.657888
 21
42.330623
 31
0.0
  0
LINE
  5
19B
100
AcDbEntity
  8
0
  6
Continuous
 62
   174
100
AcDbLine
 10
234.657888
 20
43.330623
 30
0.0
 11
237.657888
 21
43.330623
 31
0.0
  0
ARC
  5
19C
100
AcDbEntity
  8
0
  6
Continuous
 62
   174
100
AcDbCircle
 10
86.157888
 20
49.830623
 30
0.0
 40
2.9
100
AcDbArc
 50
-219.062228
 51
-50.937772
  0
CIRCLE
  5
19D
100
AcDbEntity
  8
0
  6
Continuous
 62
   174
100
AcDbCircle
 10
208.157888
 20
49.830623
 30
0.0
 40
3.25
  0
CIRCLE
  5
19E
100
AcDbEntity
  8
0
  6
Continuous
 62
   174
100
AcDbCircle
 10
86.157888
 20
49.830623
 30
0.0
 40
3.25
  0
LINE
  5
19F
100
AcDbEntity
  8
0
  6
Continuous
 62
   174
100
AcDbLine
 10
97.675965
 20
57.330623
 30
0.0
 11
100.676127
 21
57.330623
 31
0.0
  0
LINE
  5
1A0
100
AcDbEntity
  8
0
  6
Continuous
 62
   174
100
AcDbLine
 10
100.676127
 20
42.330623
 30
0.0
 11
97.675965
 21
42.330623
 31
0.0
  0
ARC
  5
1A1
100
AcDbEntity
  8
0
  6
Continuous
 62
   174
100
AcDbCircle
 10
97.657888
 20
57.330623
 30
0.0
 40
3.0
100
AcDbArc
 50
0.0
 51
90.0
  0
ARC
  5
1A2
100
AcDbEntity
  8
0
  6
Continuous
 62
   174
100
AcDbCircle
 10
74.657888
 20
57.330623
 30
0.0
 40
3.0
100
AcDbArc
 50
-270.0
 51
-180.0
  0
LINE
  5
1A3
100
AcDbEntity
  8
0
  6
Continuous
 62
   174
100
AcDbLine
 10
74.676066
 20
57.330623
 30
0.0
 11
71.676116
 21
57.330623
 31
0.0
  0
LINE
  5
1A4
100
AcDbEntity
  8
0
  6
Continuous
 62
   174
100
AcDbLine
 10
230.857888
 20
57.879815
 30
0.0
 11
224.157888
 21
57.879815
 31
0.0
  0
LINE
  5
1A5
100
AcDbEntity
  8
0
  6
Continuous
 62
   174
100
AcDbLine
 10
71.676116
 20
42.330623
 30
0.0
 11
74.676066
 21
42.330623
 31
0.0
  0
LINE
  5
1A6
100
AcDbEntity
  8
0
  6
Continuous
 62
   174
100
AcDbLine
 10
196.657888
 20
42.330623
 30
0.0
 11
219.657888
 21
42.330623
 31
0.0
  0
LINE
  5
1A7
100
AcDbEntity
  8
0
  6
Continuous
 62
   174
100
AcDbLine
 10
97.657888
 20
57.330623
 30
0.0
 11
74.657888
 21
57.330623
 31
0.0
  0
LINE
  5
1A8
100
AcDbEntity
  8
0
  6
Continuous
 62
   174
100
AcDbLine
 10
112.657888
 20
46.923305
 30
0.0
 11
112.657888
 21
52.737942
 31
0.0
  0
LINE
  5
1A9
100
AcDbEntity
  8
0
  6
Continuous
 62
   174
100
AcDbLine
 10
177.157888
 20
60.830623
 30
0.0
 11
177.157888
 21
38.830623
 31
0.0
  0
LINE
  5
1AA
100
AcDbEntity
  8
0
  6
Continuous
 62
   174
100
AcDbLine
 10
117.157888
 20
38.830623
 30
0.0
 11
117.157888
 21
60.830623
 31
0.0
  0
LINE
  5
1AB
100
AcDbEntity
  8
0
  6
Continuous
 62
   174
100
AcDbLine
 10
237.657888
 20
40.846436
 30
0.0
 11
237.657888
 21
58.845499
 31
0.0
  0
LINE
  5
1AC
100
AcDbEntity
  8
0
  6
Continuous
 62
   174
100
AcDbLine
 10
71.157888
 20
60.830623
 30
0.0
 11
101.157888
 21
60.830623
 31
0.0
  0
LINE
  5
1AD
100
AcDbEntity
  8
0
  6
Continuous
 62
   174
100
AcDbLine
 10
210.409628
 20
48.003148
 30
0.0
 11
206.330412
 21
52.082363
 31
0.0
  0
LINE
  5
1AE
100
AcDbEntity
  8
0
  6
Continuous
 62
   174
100
AcDbLine
 10
83.906148
 20
51.658099
 30
0.0
 11
87.985364
 21
47.578884
 31
0.0
  0
LINE
  5
1AF
100
AcDbEntity
  8
0
  6
Continuous
 62
   174
100
AcDbLine
 10
230.857888
 20
41.789055
 30
0.0
 11
224.157888
 21
41.789055
 31
0.0
  0
LINE
  5
1B0
100
AcDbEntity
  8
0
  6
Continuous
 62
   174
100
AcDbLine
 10
63.457888
 20
57.872192
 30
0.0
 11
70.157888
 21
57.872192
 31
0.0
  0
LINE
  5
1B1
100
AcDbEntity
  8
0
  6
Continuous
 62
   174
100
AcDbLine
 10
219.657888
 20
57.330623
 30
0.0
 11
196.657888
 21
57.330623
 31
0.0
  0
LINE
  5
1B2
100
AcDbEntity
  8
0
  6
Continuous
 62
   174
100
AcDbLine
 10
74.657888
 20
42.330623
 30
0.0
 11
97.657888
 21
42.330623
 31
0.0
  0
LINE
  5
1B3
100
AcDbEntity
  8
0
  6
Continuous
 62
   174
100
AcDbLine
 10
237.657888
 20
56.330623
 30
0.0
 11
234.657888
 21
56.330623
 31
0.0
  0
LINE
  5
1B4
100
AcDbEntity
  8
0
  6
Continuous
 62
   174
100
AcDbLine
 10
59.657888
 20
56.330623
 30
0.0
 11
56.657888
 21
56.330623
 31
0.0
  0
LINE
  5
1B5
100
AcDbEntity
  8
0
  6
Continuous
 62
   174
100
AcDbLine
 10
177.157888
 20
38.830623
 30
0.0
 11
177.157888
 21
60.830623
 31
0.0
  0
LINE
  5
1B6
100
AcDbEntity
  8
0
  6
Continuous
 62
   174
100
AcDbLine
 10
101.157888
 20
38.830623
 30
0.0
 11
101.157888
 21
60.830623
 31
0.0
  0
ARC
  5
1B7
100
AcDbEntity
  8
0
  6
Continuous
 62
   174
100
AcDbCircle
 10
208.157888
 20
49.830623
 30
0.0
 40
2.9
100
AcDbArc
 50
-219.062228
 51
-50.937772
  0
LINE
  5
1B8
100
AcDbEntity
  8
0
  6
Continuous
 62
   174
100
AcDbLine
 10
193.657888
 20
42.330623
 30
0.0
 11
193.657888
 21
57.330623
 31
0.0
  0
LINE
  5
1B9
100
AcDbEntity
  8
0
  6
Continuous
 62
   174
100
AcDbLine
 10
100.657888
 20
57.330623
 30
0.0
 11
100.657888
 21
42.330623
 31
0.0
  0
LINE
  5
1BA
100
AcDbEntity
  8
0
  6
Continuous
 62
   174
100
AcDbLine
 10
70.157888
 20
39.959112
 30
0.0
 11
70.157888
 21
39.846524
 31
0.0
  0
LINE
  5
1BB
100
AcDbEntity
  8
0
  6
Continuous
 62
   174
100
AcDbLine
 10
70.157888
 20
57.894658
 30
0.0
 11
70.157888
 21
57.845586
 31
0.0
  0
LINE
  5
1BC
100
AcDbEntity
  8
0
  6
Continuous
 62
   174
100
AcDbLine
 10
74.657888
 20
60.330623
 30
0.0
 11
97.657888
 21
60.330623
 31
0.0
  0
LINE
  5
1BD
100
AcDbEntity
  8
0
  6
Continuous
 62
   174
100
AcDbLine
 10
181.657888
 20
52.737942
 30
0.0
 11
181.657888
 21
46.923305
 31
0.0
  0
ARC
  5
1BE
100
AcDbEntity
  8
0
  6
Continuous
 62
   174
100
AcDbCircle
 10
112.157888
 20
49.830623
 30
0.0
 40
2.95
100
AcDbArc
 50
-260.241743
 51
-99.758257
  0
LINE
  5
1BF
100
AcDbEntity
  8
0
  6
Continuous
 62
   174
100
AcDbLine
 10
223.157888
 20
60.830623
 30
0.0
 11
193.157888
 21
60.830623
 31
0.0
  0
LINE
  5
1C0
100
AcDbEntity
  8
0
  6
Continuous
 62
   174
100
AcDbLine
 10
71.157888
 20
38.830623
 30
0.0
 11
101.157888
 21
38.830623
 31
0.0
  0
ARC
  5
1C1
100
AcDbEntity
  8
0
  6
Continuous
 62
   174
100
AcDbCircle
 10
138.157888
 20
49.830623
 30
0.0
 40
4.865
100
AcDbArc
 50
-105.0
 51
195.0
  0
LINE
  5
1C2
100
AcDbEntity
  8
0
  6
Continuous
 62
   174
100
AcDbLine
 10
242.157888
 20
46.743944
 30
0.0
 11
242.157888
 21
57.594493
 31
0.0
  0
LINE
  5
1C3
100
AcDbEntity
  8
0
  6
Continuous
 62
   174
100
AcDbLine
 10
223.157888
 20
60.830623
 30
0.0
 11
223.157888
 21
57.830623
 31
0.0
  0
LINE
  5
1C4
100
AcDbEntity
  8
0
  6
Continuous
 62
   174
100
AcDbLine
 10
234.657888
 20
57.830623
 30
0.0
 11
222.615928
 21
57.830623
 31
0.0
  0
LINE
  5
1C5
100
AcDbEntity
  8
0
  6
Continuous
 62
   174
100
AcDbLine
 10
230.857888
 20
59.733035
 30
0.0
 11
230.857888
 21
59.835427
 31
0.0
  0
LINE
  5
1C6
100
AcDbEntity
  8
0
  6
Continuous
 62
   174
100
AcDbLine
 10
241.465068
 20
49.920557
 30
0.0
 11
238.357888
 21
49.920557
 31
0.0
  0
LINE
  5
1C7
100
AcDbEntity
  8
0
  6
Continuous
 62
   174
100
AcDbLine
 10
63.457888
 20
41.804925
 30
0.0
 11
63.457888
 21
41.797277
 31
0.0
  0
LINE
  5
1C8
100
AcDbEntity
  8
0
  6
Continuous
 62
   174
100
AcDbLine
 10
230.857888
 20
41.797277
 30
0.0
 11
230.857888
 21
41.804925
 31
0.0
  0
LINE
  5
1C9
100
AcDbEntity
  8
0
  6
Continuous
 62
   174
100
AcDbLine
 10
223.157888
 20
41.830623
 30
0.0
 11
223.157888
 21
38.830623
 31
0.0
  0
LWPOLYLINE
  5
1CA
100
AcDbEntity
  8
0
  6
Continuous
 62
   174
100
AcDbPolyline
 90
        7
 70
   128
 10
52.157888
 20
42.081751
 10
52.214439
 20
42.081751
 10
52.299097
 20
42.081751
 10
52.410344
 20
42.081751
 10
52.545569
 20
42.081751
 10
52.689942
 20
42.081751
 10
52.850708
 20
42.081751
  0
LINE
  5
1CB
100
AcDbEntity
  8
0
  6
Continuous
 62
   174
100
AcDbLine
 10
74.657888
 20
57.330623
 30
0.0
 11
74.657888
 21
49.830623
 31
0.0
  0
LINE
  5
1CC
100
AcDbEntity
  8
0
  6
Continuous
 62
   174
100
AcDbLine
 10
52.157888
 20
57.645476
 30
0.0
 11
52.157888
 21
54.492363
 31
0.0
  0
LINE
  5
1CD
100
AcDbEntity
  8
0
  6
Continuous
 62
   174
100
AcDbLine
 10
52.850708
 20
42.081751
 30
0.0
 11
55.957888
 21
42.081751
 31
0.0
  0
LINE
  5
1CE
100
AcDbEntity
  8
0
  6
Continuous
 62
   174
100
AcDbLine
 10
238.357888
 20
58.830623
 30
0.0
 11
237.657888
 21
58.830623
 31
0.0
  0
CIRCLE
  5
1CF
100
AcDbEntity
  8
0
  6
Continuous
 62
   174
100
AcDbCircle
 10
156.157888
 20
49.830623
 30
0.0
 40
4.375
  0
LINE
  5
1D0
100
AcDbEntity
  8
0
  6
Continuous
 62
   174
100
AcDbLine
 10
63.457888
 20
41.846349
 30
0.0
 11
63.457888
 21
41.804925
 31
0.0
  0
LWPOLYLINE
  5
1D1
100
AcDbEntity
  8
0
  6
Continuous
 62
   174
100
AcDbPolyline
 90
        7
 70
   128
 10
242.157888
 20
57.579496
 10
242.101338
 20
57.579496
 10
242.016679
 20
57.579496
 10
241.905433
 20
57.579496
 10
241.770208
 20
57.579496
 10
241.625834
 20
57.579496
 10
241.465068
 20
57.579496
  0
LINE
  5
1D2
100
AcDbEntity
  8
0
  6
Continuous
 62
   174
100
AcDbLine
 10
230.857888
 20
41.804925
 30
0.0
 11
230.857888
 21
41.846349
 31
0.0
  0
LINE
  5
1D3
100
AcDbEntity
  8
0
  6
Continuous
 62
   174
100
AcDbLine
 10
230.857888
 20
57.887223
 30
0.0
 11
230.857888
 21
57.894658
 31
0.0
  0
LINE
  5
1D4
100
AcDbEntity
  8
0
  6
Continuous
 62
   174
100
AcDbLine
 10
117.157888
 20
60.830623
 30
0.0
 11
101.157888
 21
60.830623
 31
0.0
  0
LINE
  5
1D5
100
AcDbEntity
  8
0
  6
Continuous
 62
   174
100
AcDbLine
 10
237.657888
 20
40.830623
 30
0.0
 11
238.357888
 21
40.830623
 31
0.0
  0
LINE
  5
1D6
100
AcDbEntity
  8
0
  6
Continuous
 62
   174
100
AcDbLine
 10
219.657888
 20
42.330623
 30
0.0
 11
219.657888
 21
49.830623
 31
0.0
  0
LINE
  5
1D7
100
AcDbEntity
  8
0
  6
Continuous
 62
   174
100
AcDbLine
 10
52.180293
 20
57.66943
 30
0.0
 11
52.157888
 21
57.630623
 31
0.0
  0
LINE
  5
1D8
100
AcDbEntity
  8
0
  6
Continuous
 62
   174
100
AcDbLine
 10
241.465068
 20
57.579496
 30
0.0
 11
238.357888
 21
57.579496
 31
0.0
  0
CIRCLE
  5
1D9
100
AcDbEntity
  8
0
  6
Continuous
 62
   174
100
AcDbCircle
 10
138.157888
 20
49.830623
 30
0.0
 40
4.375
  0
LWPOLYLINE
  5
1DA
100
AcDbEntity
  8
0
  6
Continuous
 62
   174
100
AcDbPolyline
 90
        5
 70
   128
 10
52.157888
 20
54.477218
 10
52.249913
 20
55.279911
 10
52.400112
 20
56.079278
 10
52.603254
 20
56.878049
 10
52.850708
 20
57.66943
  0
LWPOLYLINE
  5
1DB
100
AcDbEntity
  8
0
  6
Continuous
 62
   174
100
AcDbPolyline
 90
       16
 70
   128
 10
222.657888
 20
43.585625
 10
222.64007
 20
43.861478
 10
222.589649
 20
44.153145
 10
222.511182
 20
44.457116
 10
222.377558
 20
44.857797
 10
222.211298
 20
45.273794
 10
222.018256
 20
45.701261
 10
221.804288
 20
46.136355
 10
221.537381
 20
46.645179
 10
221.251369
 20
47.162968
 10
220.950422
 20
47.687158
 10
220.638714
 20
48.21519
 10
220.320418
 20
48.744499
 10
219.99508
 20
49.279448
 10
219.66723
 20
49.815368
 10
219.657888
 20
49.830623
  0
LINE
  5
1DC
100
AcDbEntity
  8
0
  6
Continuous
 62
   174
100
AcDbLine
 10
242.157888
 20
42.046459
 30
0.0
 11
242.157888
 21
45.199571
 31
0.0
  0
LINE
  5
1DD
100
AcDbEntity
  8
0
  6
Continuous
 62
   174
100
AcDbLine
 10
177.157888
 20
38.830623
 30
0.0
 11
193.157888
 21
38.830623
 31
0.0
  0
LINE
  5
1DE
100
AcDbEntity
  8
0
  6
Continuous
 62
   174
100
AcDbLine
 10
71.157888
 20
59.830623
 30
0.0
 11
70.157888
 21
59.830623
 31
0.0
  0
LINE
  5
1DF
100
AcDbEntity
  8
0
  6
Continuous
 62
   174
100
AcDbLine
 10
230.857888
 20
57.845586
 30
0.0
 11
230.857888
 21
57.887223
 31
0.0
  0
LINE
  5
1E0
100
AcDbEntity
  8
0
  6
Continuous
 62
   174
100
AcDbLine
 10
55.957888
 20
40.830623
 30
0.0
 11
56.657888
 21
40.830623
 31
0.0
  0
LINE
  5
1E1
100
AcDbEntity
  8
0
  6
Continuous
 62
   174
100
AcDbLine
 10
63.457888
 20
59.835427
 30
0.0
 11
63.457888
 21
59.733035
 31
0.0
  0
LINE
  5
1E2
100
AcDbEntity
  8
0
  6
Continuous
 62
   174
100
AcDbLine
 10
242.135483
 20
41.991817
 30
0.0
 11
242.157888
 21
42.030623
 31
0.0
  0
LINE
  5
1E3
100
AcDbEntity
  8
0
  6
Continuous
 62
   174
100
AcDbLine
 10
74.657888
 20
49.830623
 30
0.0
 11
74.657888
 21
42.330623
 31
0.0
  0
LINE
  5
1E4
100
AcDbEntity
  8
0
  6
Continuous
 62
   174
100
AcDbLine
 10
63.457888
 20
57.879815
 30
0.0
 11
70.157888
 21
57.879815
 31
0.0
  0
LINE
  5
1E5
100
AcDbEntity
  8
0
  6
Continuous
 62
   174
100
AcDbLine
 10
52.157888
 20
52.948203
 30
0.0
 11
52.157888
 21
42.097655
 31
0.0
  0
LINE
  5
1E6
100
AcDbEntity
  8
0
  6
Continuous
 62
   174
100
AcDbLine
 10
70.157888
 20
39.830623
 30
0.0
 11
71.157888
 21
39.830623
 31
0.0
  0
LINE
  5
1E7
100
AcDbEntity
  8
0
  6
Continuous
 62
   174
100
AcDbLine
 10
56.657888
 20
58.830623
 30
0.0
 11
55.957888
 21
58.830623
 31
0.0
  0
LINE
  5
1E8
100
AcDbEntity
  8
0
  6
Continuous
 62
   174
100
AcDbLine
 10
177.157888
 20
60.830623
 30
0.0
 11
117.157888
 21
60.830623
 31
0.0
  0
LWPOLYLINE
  5
1E9
100
AcDbEntity
  8
0
  6
Continuous
 62
   174
100
AcDbPolyline
 90
        5
 70
   128
 10
242.157888
 20
45.184029
 10
242.065864
 20
44.381336
 10
241.915664
 20
43.581968
 10
241.712522
 20
42.783198
 10
241.465068
 20
41.991817
  0
LINE
  5
1EA
100
AcDbEntity
  8
0
  6
Continuous
 62
   174
100
AcDbLine
 10
71.657888
 20
56.075621
 30
0.0
 11
71.657888
 21
57.330623
 31
0.0
  0
LINE
  5
1EB
100
AcDbEntity
  8
0
  6
Continuous
 62
   174
100
AcDbLine
 10
219.657888
 20
49.830623
 30
0.0
 11
219.657888
 21
57.330623
 31
0.0
  0
LINE
  5
1EC
100
AcDbEntity
  8
0
  6
Continuous
 62
   174
100
AcDbLine
 10
230.857888
 20
41.781432
 30
0.0
 11
224.157888
 21
41.781432
 31
0.0
  0
ARC
  5
1ED
100
AcDbEntity
  8
0
  6
Continuous
 62
   174
100
AcDbCircle
 10
156.157888
 20
49.830623
 30
0.0
 40
4.865
100
AcDbArc
 50
-105.0
 51
195.0
  0
LWPOLYLINE
  5
1EE
100
AcDbEntity
  8
0
  6
Continuous
 62
   174
100
AcDbPolyline
 90
       12
 70
   128
 10
52.850708
 20
42.081751
 10
52.645134
 20
42.756513
 10
52.471297
 20
43.438174
 10
52.334225
 20
44.12565
 10
52.237298
 20
44.834119
 10
52.187216
 20
45.546777
 10
52.186265
 20
46.26008
 10
52.222937
 20
46.843663
 10
52.291654
 20
47.42543
 10
52.390401
 20
48.003672
 10
52.593483
 20
48.877484
 10
52.850708
 20
49.74069
  0
LINE
  5
1EF
100
AcDbEntity
  8
0
  6
Continuous
 62
   174
100
AcDbLine
 10
63.457888
 20
57.887223
 30
0.0
 11
63.457888
 21
57.845586
 31
0.0
  0
LINE
  5
1F0
100
AcDbEntity
  8
0
  6
Continuous
 62
   174
100
AcDbLine
 10
230.857888
 20
39.856508
 30
0.0
 11
230.857888
 21
39.959112
 31
0.0
  0
LINE
  5
1F1
100
AcDbEntity
  8
0
  6
Continuous
 62
   174
100
AcDbLine
 10
223.157888
 20
39.830623
 30
0.0
 11
224.157888
 21
39.830623
 31
0.0
  0
LINE
  5
1F2
100
AcDbEntity
  8
0
  6
Continuous
 62
   174
100
AcDbLine
 10
63.457888
 20
41.797277
 30
0.0
 11
63.457888
 21
39.959112
 31
0.0
  0
LWPOLYLINE
  5
1F3
100
AcDbEntity
  8
0
  6
Continuous
 62
   174
100
AcDbPolyline
 90
       12
 70
   128
 10
241.465068
 20
57.579496
 10
241.670642
 20
56.904734
 10
241.844479
 20
56.223073
 10
241.981551
 20
55.535597
 10
242.078479
 20
54.827128
 10
242.12856
 20
54.11447
 10
242.129511
 20
53.401167
 10
242.092839
 20
52.817584
 10
242.024122
 20
52.235816
 10
241.925375
 20
51.657575
 10
241.722294
 20
50.783763
 10
241.465068
 20
49.920557
  0
LWPOLYLINE
  5
1F4
100
AcDbEntity
  8
0
  6
Continuous
 62
   174
100
AcDbPolyline
 90
        8
 70
   128
 10
241.465068
 20
41.991817
 10
241.615455
 20
41.991817
 10
241.750203
 20
41.991817
 10
241.900894
 20
41.991817
 10
242.017267
 20
41.991817
 10
242.095501
 20
41.991817
 10
242.132552
 20
41.991817
 10
242.135483
 20
41.991817
  0
LWPOLYLINE
  5
1F5
100
AcDbEntity
  8
0
  6
Continuous
 62
   174
100
AcDbPolyline
 90
       16
 70
   128
 10
74.657888
 20
49.830623
 10
74.648546
 20
49.815368
 10
74.252671
 20
49.168138
 10
73.860214
 20
48.520944
 10
73.477065
 20
47.877391
 10
73.109111
 20
47.24108
 10
72.820746
 20
46.723253
 10
72.549252
 20
46.211043
 10
72.300792
 20
45.708315
 10
72.081526
 20
45.218934
 10
71.948724
 20
44.885716
 10
71.83604
 20
44.560428
 10
71.747521
 20
44.245911
 10
71.687214
 20
43.945005
 10
71.665434
 20
43.761953
 10
71.657888
 20
43.585625
  0
LINE
  5
1F6
100
AcDbEntity
  8
0
  6
Continuous
 62
   174
100
AcDbLine
 10
63.457888
 20
59.733035
 30
0.0
 11
63.457888
 21
57.894658
 31
0.0
  0
LINE
  5
1F7
100
AcDbEntity
  8
0
  6
Continuous
 62
   174
100
AcDbLine
 10
224.157888
 20
59.830623
 30
0.0
 11
223.157888
 21
59.830623
 31
0.0
  0
LINE
  5
1F8
100
AcDbEntity
  8
0
  6
Continuous
 62
   174
100
AcDbLine
 10
71.69883
 20
57.830623
 30
0.0
 11
59.657888
 21
57.830623
 31
0.0
  0
LWPOLYLINE
  5
1F9
100
AcDbEntity
  8
0
  6
Continuous
 62
   174
100
AcDbPolyline
 90
        5
 70
   128
 10
52.850708
 20
49.74069
 10
52.606503
 20
50.520687
 10
52.40445
 20
51.311403
 10
52.251896
 20
52.117235
 10
52.157888
 20
52.932902
  0
LINE
  5
1FA
100
AcDbEntity
  8
0
  6
Continuous
 62
   174
100
AcDbLine
 10
52.157888
 20
54.477218
 30
0.0
 11
52.157888
 21
52.932902
 31
0.0
  0
LWPOLYLINE
  5
1FB
100
AcDbEntity
  8
0
  6
Continuous
 62
   174
100
AcDbPolyline
 90
        8
 70
   128
 10
52.850708
 20
57.66943
 10
52.700321
 20
57.66943
 10
52.565573
 20
57.66943
 10
52.414882
 20
57.66943
 10
52.298509
 20
57.66943
 10
52.220275
 20
57.66943
 10
52.183224
 20
57.66943
 10
52.180293
 20
57.66943
  0
LINE
  5
1FC
100
AcDbEntity
  8
0
  6
Continuous
 62
   174
100
AcDbLine
 10
230.857888
 20
57.894658
 30
0.0
 11
230.857888
 21
59.733035
 31
0.0
  0
LWPOLYLINE
  5
1FD
100
AcDbEntity
  8
0
  6
Continuous
 62
   174
100
AcDbPolyline
 90
       16
 70
   128
 10
219.657888
 20
49.830623
 10
219.66723
 20
49.845879
 10
220.063105
 20
50.493109
 10
220.455562
 20
51.140302
 10
220.838712
 20
51.783856
 10
221.206665
 20
52.420167
 10
221.495031
 20
52.937993
 10
221.766524
 20
53.450203
 10
222.014985
 20
53.952932
 10
222.23425
 20
54.442313
 10
222.367052
 20
54.775531
 10
222.479736
 20
55.100819
 10
222.568255
 20
55.415336
 10
222.628563
 20
55.716242
 10
222.650342
 20
55.899294
 10
222.657888
 20
56.075621
  0
LINE
  5
1FE
100
AcDbEntity
  8
0
  6
Continuous
 62
   174
100
AcDbLine
 10
63.457888
 20
39.943123
 30
0.0
 11
70.157888
 21
39.943123
 31
0.0
  0
LINE
  5
1FF
100
AcDbEntity
  8
0
  6
Continuous
 62
   174
100
AcDbLine
 10
71.157888
 20
38.830623
 30
0.0
 11
71.157888
 21
41.830623
 31
0.0
  0
LINE
  5
200
100
AcDbEntity
  8
0
  6
Continuous
 62
   174
100
AcDbLine
 10
59.657888
 20
41.830623
 30
0.0
 11
71.699848
 21
41.830623
 31
0.0
  0
LINE
  5
201
100
AcDbEntity
  8
0
  6
Continuous
 62
   174
100
AcDbLine
 10
63.457888
 20
39.959112
 30
0.0
 11
63.457888
 21
39.856508
 31
0.0
  0
LWPOLYLINE
  5
202
100
AcDbEntity
  8
0
  6
Continuous
 62
   174
100
AcDbPolyline
 90
       16
 70
   128
 10
71.657888
 20
56.075621
 10
71.675707
 20
55.799769
 10
71.726127
 20
55.508102
 10
71.804595
 20
55.204131
 10
71.938218
 20
54.80345
 10
72.104478
 20
54.387453
 10
72.297521
 20
53.959985
 10
72.511489
 20
53.524892
 10
72.778395
 20
53.016068
 10
73.064408
 20
52.498279
 10
73.365354
 20
51.974088
 10
73.677062
 20
51.446057
 10
73.995359
 20
50.916747
 10
74.320696
 20
50.381799
 10
74.648546
 20
49.845879
 10
74.657888
 20
49.830623
  0
LINE
  5
203
100
AcDbEntity
  8
0
  6
Continuous
 62
   174
100
AcDbLine
 10
242.157888
 20
45.184029
 30
0.0
 11
242.157888
 21
46.728345
 31
0.0
  0
LINE
  5
204
100
AcDbEntity
  8
0
  6
Continuous
 62
   174
100
AcDbLine
 10
230.857888
 20
39.959112
 30
0.0
 11
230.857888
 21
41.797277
 31
0.0
  0
LINE
  5
205
100
AcDbEntity
  8
0
  6
Continuous
 62
   174
100
AcDbLine
 10
71.157888
 20
57.830623
 30
0.0
 11
71.157888
 21
60.830623
 31
0.0
  0
LINE
  5
206
100
AcDbEntity
  8
0
  6
Continuous
 62
   174
100
AcDbLine
 10
230.857888
 20
59.718123
 30
0.0
 11
224.157888
 21
59.718123
 31
0.0
  0
LINE
  5
207
100
AcDbEntity
  8
0
  6
Continuous
 62
   174
100
AcDbLine
 10
63.457888
 20
57.894658
 30
0.0
 11
63.457888
 21
57.887223
 31
0.0
  0
LINE
  5
208
100
AcDbEntity
  8
0
  6
Continuous
 62
   174
100
AcDbLine
 10
52.850708
 20
49.74069
 30
0.0
 11
55.957888
 21
49.74069
 31
0.0
  0
LINE
  5
209
100
AcDbEntity
  8
0
  6
Continuous
 62
   174
100
AcDbLine
 10
222.616946
 20
41.830623
 30
0.0
 11
234.657888
 21
41.830623
 31
0.0
  0
LWPOLYLINE
  5
20A
100
AcDbEntity
  8
0
  6
Continuous
 62
   174
100
AcDbPolyline
 90
        5
 70
   128
 10
241.465068
 20
49.920557
 10
241.709273
 20
49.14056
 10
241.911326
 20
48.349844
 10
242.06388
 20
47.544012
 10
242.157888
 20
46.728345
  0
ENDBLK
  5
20B
100
AcDbEntity
  8
0
100
AcDbBlockEnd
  0
BLOCK
  5
20E
100
AcDbEntity
  8
0
100
AcDbBlockBegin
  2
*B3
 70
     0
 10
0.0
 20
0.0
 30
0.0
  3
*B3
  1

  0
LINE
  5
20F
100
AcDbEntity
  8
0
  6
Continuous
 62
   172
100
AcDbLine
 10
98.620443
 20
75.939356
 30
0.0
 11
90.211892
 21
75.939356
 31
0.0
  0
LINE
  5
210
100
AcDbEntity
  8
0
  6
Continuous
 62
   172
100
AcDbLine
 10
110.084889
 20
56.443649
 30
0.0
 11
98.620443
 21
75.939356
 31
0.0
  0
ENDBLK
  5
211
100
AcDbEntity
  8
0
100
AcDbBlockEnd
  0
BLOCK
  5
214
100
AcDbEntity
  8
0
100
AcDbBlockBegin
  2
*B4
 70
     0
 10
0.0
 20
0.0
 30
0.0
  3
*B4
  1

  0
LINE
  5
215
100
AcDbEntity
  8
0
  6
Continuous
 62
   172
100
AcDbLine
 10
96.873287
 20
77.762913
 30
0.0
 11
95.073287
 21
78.424309
 31
0.0
  0
LINE
  5
216
100
AcDbEntity
  8
0
  6
Continuous
 62
   172
100
AcDbLine
 10
96.873287
 20
77.762913
 30
0.0
 11
95.073287
 21
77.224309
 31
0.0
  0
LINE
  5
217
100
AcDbEntity
  8
0
  6
Continuous
 62
   172
100
AcDbLine
 10
95.673287
 20
77.762913
 30
0.0
 11
96.873287
 21
77.762913
 31
0.0
  0
LINE
  5
218
100
AcDbEntity
  8
0
  6
Continuous
 62
   172
100
AcDbLine
 10
96.873287
 20
88.085704
 30
0.0
 11
95.073287
 21
87.424309
 31
0.0
  0
LINE
  5
219
100
AcDbEntity
  8
0
  6
Continuous
 62
   172
100
AcDbLine
 10
96.873287
 20
88.085704
 30
0.0
 11
95.073287
 21
88.624309
 31
0.0
  0
LINE
  5
21A
100
AcDbEntity
  8
0
  6
Continuous
 62
   172
100
AcDbLine
 10
95.673287
 20
88.085704
 30
0.0
 11
96.873287
 21
88.085704
 31
0.0
  0
ARC
  5
21B
100
AcDbEntity
  8
0
  6
Continuous
 62
   172
100
AcDbCircle
 10
95.673287
 20
82.924309
 30
0.0
 40
5.161395
100
AcDbArc
 50
-270.0
 51
-90.0
  0
ENDBLK
  5
21C
100
AcDbEntity
  8
0
100
AcDbBlockEnd
  0
BLOCK
  5
21F
100
AcDbEntity
  8
0
100
AcDbBlockBegin
  2
*B5
 70
     0
 10
0.0
 20
0.0
 30
0.0
  3
*B5
  1

  0
ENDBLK
  5
220
100
AcDbEntity
  8
0
100
AcDbBlockEnd
  0
BLOCK
  5
222
100
AcDbEntity
  8
0
100
AcDbBlockBegin
  2
*B6
 70
     0
 10
0.0
 20
0.0
 30
0.0
  3
*B6
  1

  0
LINE
  5
223
100
AcDbEntity
  8
0
  6
Continuous
 62
   172
100
AcDbLine
 10
84.902393
 20
122.973595
 30
0.0
 11
67.210944
 21
92.888642
 31
0.0
  0
LINE
  5
224
100
AcDbEntity
  8
0
  6
Continuous
 62
   172
100
AcDbLine
 10
67.210944
 20
92.888642
 30
0.0
 11
58.802393
 21
92.888642
 31
0.0
  0
ENDBLK
  5
225
100
AcDbEntity
  8
0
100
AcDbBlockEnd
  0
BLOCK
  5
228
100
AcDbEntity
  8
0
100
AcDbBlockBegin
  2
*B7
 70
     0
 10
0.0
 20
0.0
 30
0.0
  3
*B7
  1

  0
LINE
  5
229
100
AcDbEntity
  8
0
  6
Continuous
 62
   172
100
AcDbLine
 10
65.463788
 20
94.7122
 30
0.0
 11
63.663788
 21
95.373595
 31
0.0
  0
LINE
  5
22A
100
AcDbEntity
  8
0
  6
Continuous
 62
   172
100
AcDbLine
 10
65.463788
 20
94.7122
 30
0.0
 11
63.663788
 21
94.173595
 31
0.0
  0
LINE
  5
22B
100
AcDbEntity
  8
0
  6
Continuous
 62
   172
100
AcDbLine
 10
64.263788
 20
94.7122
 30
0.0
 11
65.463788
 21
94.7122
 31
0.0
  0
LINE
  5
22C
100
AcDbEntity
  8
0
  6
Continuous
 62
   172
100
AcDbLine
 10
65.463788
 20
105.03499
 30
0.0
 11
63.663788
 21
104.373595
 31
0.0
  0
LINE
  5
22D
100
AcDbEntity
  8
0
  6
Continuous
 62
   172
100
AcDbLine
 10
65.463788
 20
105.03499
 30
0.0
 11
63.663788
 21
105.573595
 31
0.0
  0
LINE
  5
22E
100
AcDbEntity
  8
0
  6
Continuous
 62
   172
100
AcDbLine
 10
64.263788
 20
105.03499
 30
0.0
 11
65.463788
 21
105.03499
 31
0.0
  0
ARC
  5
22F
100
AcDbEntity
  8
0
  6
Continuous
 62
   172
100
AcDbCircle
 10
64.263788
 20
99.873595
 30
0.0
 40
5.161395
100
AcDbArc
 50
-270.0
 51
-90.0
  0
ENDBLK
  5
230
100
AcDbEntity
  8
0
100
AcDbBlockEnd
  0
BLOCK
  5
233
100
AcDbEntity
  8
0
100
AcDbBlockBegin
  2
*B8
 70
     0
 10
0.0
 20
0.0
 30
0.0
  3
*B8
  1

  0
ENDBLK
  5
234
100
AcDbEntity
  8
0
100
AcDbBlockEnd
  0
BLOCK
  5
236
100
AcDbEntity
  8
0
100
AcDbBlockBegin
  2
*B9
 70
     0
 10
0.0
 20
0.0
 30
0.0
  3
*B9
  1

  0
LINE
  5
237
100
AcDbEntity
  8
0
  6
Continuous
 62
     0
100
AcDbLine
 10
100.676127
 20
185.007817
 30
0.0
 11
52.176016
 21
185.007817
 31
0.0
  0
SOLID
  5
238
100
AcDbEntity
  8
0
  6
Continuous
 62
     0
100
AcDbTrace
 10
97.176115
 20
184.4077
 30
0.0
 11
100.676127
 21
185.007817
 31
0.0
 12
97.176115
 22
185.607722
 32
0.0
 13
97.176115
 23
185.607722
 33
0.0
  0
SOLID
  5
239
100
AcDbEntity
  8
0
  6
Continuous
 62
     0
100
AcDbTrace
 10
55.676029
 20
185.607722
 30
0.0
 11
52.176016
 21
185.007817
 31
0.0
 12
55.676029
 22
184.4077
 32
0.0
 13
55.676029
 23
184.4077
 33
0.0
  0
ENDBLK
  5
23A
100
AcDbEntity
  8
0
100
AcDbBlockEnd
  0
BLOCK
  5
23D
100
AcDbEntity
  8
0
100
AcDbBlockBegin
  2
*B10
 70
     0
 10
0.0
 20
0.0
 30
0.0
  3
*B10
  1

  0
LINE
  5
23E
100
AcDbEntity
  8
0
  6
Continuous
 62
     0
100
AcDbLine
 10
193.176
 20
81.013518
 30
0.0
 11
101.175977
 21
81.013518
 31
0.0
  0
SOLID
  5
23F
100
AcDbEntity
  8
0
  6
Continuous
 62
     0
100
AcDbTrace
 10
189.675987
 20
80.413613
 30
0.0
 11
193.176
 21
81.013518
 31
0.0
 12
189.675987
 22
81.613636
 32
0.0
 13
189.675987
 23
81.613636
 33
0.0
  0
SOLID
  5
240
100
AcDbEntity
  8
0
  6
Continuous
 62
     0
100
AcDbTrace
 10
104.67599
 20
81.613636
 30
0.0
 11
101.175977
 21
81.013518
 31
0.0
 12
104.67599
 22
80.413613
 32
0.0
 13
104.67599
 23
80.413613
 33
0.0
  0
ENDBLK
  5
241
100
AcDbEntity
  8
0
100
AcDbBlockEnd
  0
BLOCK
  5
244
100
AcDbEntity
  8
0
100
AcDbBlockBegin
  2
*B11
 70
     0
 10
0.0
 20
0.0
 30
0.0
  3
*B11
  1

  0
LINE
  5
245
100
AcDbEntity
  8
0
  6
Continuous
 62
     0
100
AcDbLine
 10
117.176064
 20
94.012806
 30
0.0
 11
129.176077
 21
94.012806
 31
0.0
  0
SOLID
  5
246
100
AcDbEntity
  8
0
  6
Continuous
 62
     0
100
AcDbTrace
 10
120.676077
 20
94.612923
 30
0.0
 11
117.176064
 21
94.012806
 31
0.0
 12
120.676077
 22
93.412901
 32
0.0
 13
120.676077
 23
93.412901
 33
0.0
  0
SOLID
  5
247
100
AcDbEntity
  8
0
  6
Continuous
 62
     0
100
AcDbTrace
 10
125.676064
 20
93.412901
 30
0.0
 11
129.176077
 21
94.012806
 31
0.0
 12
125.676064
 22
94.612923
 32
0.0
 13
125.676064
 23
94.612923
 33
0.0
  0
ENDBLK
  5
248
100
AcDbEntity
  8
0
100
AcDbBlockEnd
  0
BLOCK
  5
24B
100
AcDbEntity
  8
0
100
AcDbBlockBegin
  2
*B12
 70
     0
 10
0.0
 20
0.0
 30
0.0
  3
*B12
  1

  0
LINE
  5
24C
100
AcDbEntity
  8
0
  6
Continuous
 62
     0
100
AcDbLine
 10
129.176077
 20
94.012806
 30
0.0
 11
147.175989
 21
94.012806
 31
0.0
  0
SOLID
  5
24D
100
AcDbEntity
  8
0
  6
Continuous
 62
     0
100
AcDbTrace
 10
132.676089
 20
94.612923
 30
0.0
 11
129.176077
 21
94.012806
 31
0.0
 12
132.676089
 22
93.412901
 32
0.0
 13
132.676089
 23
93.412901
 33
0.0
  0
SOLID
  5
24E
100
AcDbEntity
  8
0
  6
Continuous
 62
     0
100
AcDbTrace
 10
143.675976
 20
93.412901
 30
0.0
 11
147.175989
 21
94.012806
 31
0.0
 12
143.675976
 22
94.612923
 32
0.0
 13
143.675976
 23
94.612923
 33
0.0
  0
ENDBLK
  5
24F
100
AcDbEntity
  8
0
100
AcDbBlockEnd
  0
BLOCK
  5
252
100
AcDbEntity
  8
0
100
AcDbBlockBegin
  2
*B13
 70
     0
 10
0.0
 20
0.0
 30
0.0
  3
*B13
  1

  0
LINE
  5
253
100
AcDbEntity
  8
0
  6
Continuous
 62
     0
100
AcDbLine
 10
165.175901
 20
94.012806
 30
0.0
 11
147.175989
 21
94.012806
 31
0.0
  0
SOLID
  5
254
100
AcDbEntity
  8
0
  6
Continuous
 62
     0
100
AcDbTrace
 10
161.676101
 20
93.412901
 30
0.0
 11
165.175901
 21
94.012806
 31
0.0
 12
161.676101
 22
94.612923
 32
0.0
 13
161.676101
 23
94.612923
 33
0.0
  0
SOLID
  5
255
100
AcDbEntity
  8
0
  6
Continuous
 62
     0
100
AcDbTrace
 10
150.676001
 20
94.612923
 30
0.0
 11
147.175989
 21
94.012806
 31
0.0
 12
150.676001
 22
93.412901
 32
0.0
 13
150.676001
 23
93.412901
 33
0.0
  0
ENDBLK
  5
256
100
AcDbEntity
  8
0
100
AcDbBlockEnd
  0
BLOCK
  5
259
100
AcDbEntity
  8
0
100
AcDbBlockBegin
  2
*B14
 70
     0
 10
0.0
 20
0.0
 30
0.0
  3
*B14
  1

  0
LINE
  5
25A
100
AcDbEntity
  8
0
  6
Continuous
 62
     0
100
AcDbLine
 10
177.175913
 20
94.012806
 30
0.0
 11
165.175901
 21
94.012806
 31
0.0
  0
SOLID
  5
25B
100
AcDbEntity
  8
0
  6
Continuous
 62
     0
100
AcDbTrace
 10
173.676113
 20
93.412901
 30
0.0
 11
177.175913
 21
94.012806
 31
0.0
 12
173.676113
 22
94.612923
 32
0.0
 13
173.676113
 23
94.612923
 33
0.0
  0
SOLID
  5
25C
100
AcDbEntity
  8
0
  6
Continuous
 62
     0
100
AcDbTrace
 10
168.675913
 20
94.612923
 30
0.0
 11
165.175901
 21
94.012806
 31
0.0
 12
168.675913
 22
93.412901
 32
0.0
 13
168.675913
 23
93.412901
 33
0.0
  0
ENDBLK
  5
25D
100
AcDbEntity
  8
0
100
AcDbBlockEnd
  0
BLOCK
  5
260
100
AcDbEntity
  8
0
100
AcDbBlockBegin
  2
*B15
 70
     0
 10
0.0
 20
0.0
 30
0.0
  3
*B15
  1

  0
LINE
  5
261
100
AcDbEntity
  8
0
  6
Continuous
 62
     0
100
AcDbLine
 10
156.176051
 20
154.009468
 30
0.0
 11
138.175926
 21
154.009468
 31
0.0
  0
SOLID
  5
262
100
AcDbEntity
  8
0
  6
Continuous
 62
     0
100
AcDbTrace
 10
152.676039
 20
153.409563
 30
0.0
 11
156.176051
 21
154.009468
 31
0.0
 12
152.676039
 22
154.609373
 32
0.0
 13
152.676039
 23
154.609373
 33
0.0
  0
SOLID
  5
263
100
AcDbEntity
  8
0
  6
Continuous
 62
     0
100
AcDbTrace
 10
141.675939
 20
154.609373
 30
0.0
 11
138.175926
 21
154.009468
 31
0.0
 12
141.675939
 22
153.409563
 32
0.0
 13
141.675939
 23
153.409563
 33
0.0
  0
ENDBLK
  5
264
100
AcDbEntity
  8
0
100
AcDbBlockEnd
  0
BLOCK
  5
267
100
AcDbEntity
  8
0
100
AcDbBlockBegin
  2
*B16
 70
     0
 10
0.0
 20
0.0
 30
0.0
  3
*B16
  1

  0
LINE
  5
268
100
AcDbEntity
  8
0
  6
Continuous
 62
     0
100
AcDbLine
 10
129.176077
 20
165.00893
 30
0.0
 11
165.175901
 21
165.00893
 31
0.0
  0
SOLID
  5
269
100
AcDbEntity
  8
0
  6
Continuous
 62
     0
100
AcDbTrace
 10
132.676089
 20
165.608835
 30
0.0
 11
129.176077
 21
165.00893
 31
0.0
 12
132.676089
 22
164.408813
 32
0.0
 13
132.676089
 23
164.408813
 33
0.0
  0
SOLID
  5
26A
100
AcDbEntity
  8
0
  6
Continuous
 62
     0
100
AcDbTrace
 10
161.676101
 20
164.408813
 30
0.0
 11
165.175901
 21
165.00893
 31
0.0
 12
161.676101
 22
165.608835
 32
0.0
 13
161.676101
 23
165.608835
 33
0.0
  0
ENDBLK
  5
26B
100
AcDbEntity
  8
0
100
AcDbBlockEnd
  0
BLOCK
  5
26E
100
AcDbEntity
  8
0
100
AcDbBlockBegin
  2
*B17
 70
     0
 10
0.0
 20
0.0
 30
0.0
  3
*B17
  1

  0
LINE
  5
26F
100
AcDbEntity
  8
0
  6
Continuous
 62
     0
100
AcDbLine
 10
138.425958
 20
154.009468
 30
0.0
 11
109.784317
 21
154.009468
 31
0.0
  0
SOLID
  5
270
100
AcDbEntity
  8
0
  6
Continuous
 62
     0
100
AcDbTrace
 10
134.925945
 20
154.609373
 30
0.0
 11
131.425933
 21
154.009468
 31
0.0
 12
134.925945
 22
153.409563
 32
0.0
 13
134.925945
 23
153.409563
 33
0.0
  0
SOLID
  5
271
100
AcDbEntity
  8
0
  6
Continuous
 62
     0
100
AcDbTrace
 10
123.425996
 20
153.409563
 30
0.0
 11
126.926008
 21
154.009468
 31
0.0
 12
123.425996
 22
154.609373
 32
0.0
 13
123.425996
 23
154.609373
 33
0.0
  0
ENDBLK
  5
272
100
AcDbEntity
  8
0
100
AcDbBlockEnd
  0
BLOCK
  5
275
100
AcDbEntity
  8
0
100
AcDbBlockBegin
  2
*B18
 70
     0
 10
0.0
 20
0.0
 30
0.0
  3
*B18
  1

  0
LINE
  5
276
100
AcDbEntity
  8
0
  6
Continuous
 62
     0
100
AcDbLine
 10
188.018176
 20
112.71204
 30
0.0
 11
188.018176
 21
137.710703
 31
0.0
  0
SOLID
  5
277
100
AcDbEntity
  8
0
  6
Continuous
 62
     0
100
AcDbTrace
 10
187.418059
 20
116.21184
 30
0.0
 11
188.018176
 21
112.71204
 31
0.0
 12
188.618081
 22
116.21184
 32
0.0
 13
188.618081
 23
116.21184
 33
0.0
  0
SOLID
  5
278
100
AcDbEntity
  8
0
  6
Continuous
 62
     0
100
AcDbTrace
 10
188.618081
 20
134.210903
 30
0.0
 11
188.018176
 21
137.710703
 31
0.0
 12
187.418059
 22
134.210903
 32
0.0
 13
187.418059
 23
134.210903
 33
0.0
  0
ENDBLK
  5
279
100
AcDbEntity
  8
0
100
AcDbBlockEnd
  0
BLOCK
  5
27C
100
AcDbEntity
  8
0
100
AcDbBlockBegin
  2
*B19
 70
     0
 10
0.0
 20
0.0
 30
0.0
  3
*B19
  1

  0
LINE
  5
27D
100
AcDbEntity
  8
0
  6
Continuous
 62
     0
100
AcDbLine
 10
243.018037
 20
107.212415
 30
0.0
 11
243.018037
 21
143.210328
 31
0.0
  0
SOLID
  5
27E
100
AcDbEntity
  8
0
  6
Continuous
 62
     0
100
AcDbTrace
 10
242.418132
 20
110.712215
 30
0.0
 11
243.018037
 21
107.212415
 31
0.0
 12
243.618155
 22
110.712215
 32
0.0
 13
243.618155
 23
110.712215
 33
0.0
  0
SOLID
  5
27F
100
AcDbEntity
  8
0
  6
Continuous
 62
     0
100
AcDbTrace
 10
243.618155
 20
139.710528
 30
0.0
 11
243.018037
 21
143.210328
 31
0.0
 12
242.418132
 22
139.710528
 32
0.0
 13
242.418132
 23
139.710528
 33
0.0
  0
ENDBLK
  5
280
100
AcDbEntity
  8
0
100
AcDbBlockEnd
  0
BLOCK
  5
283
100
AcDbEntity
  8
0
100
AcDbBlockBegin
  2
*B20
 70
     0
 10
0.0
 20
0.0
 30
0.0
  3
*B20
  1

  0
LINE
  5
284
100
AcDbEntity
  8
0
  6
Continuous
 62
     0
100
AcDbLine
 10
43.018118
 20
172.208215
 30
0.0
 11
43.018118
 21
107.212415
 31
0.0
  0
SOLID
  5
285
100
AcDbEntity
  8
0
  6
Continuous
 62
     0
100
AcDbTrace
 10
43.618235
 20
168.708415
 30
0.0
 11
43.018118
 21
172.208215
 31
0.0
 12
42.418213
 22
168.708415
 32
0.0
 13
42.418213
 23
168.708415
 33
0.0
  0
SOLID
  5
286
100
AcDbEntity
  8
0
  6
Continuous
 62
     0
100
AcDbTrace
 10
42.418213
 20
110.712215
 30
0.0
 11
43.018118
 21
107.212415
 31
0.0
 12
43.618235
 22
110.712215
 32
0.0
 13
43.618235
 23
110.712215
 33
0.0
  0
ENDBLK
  5
287
100
AcDbEntity
  8
0
100
AcDbBlockEnd
  0
BLOCK
  5
28A
100
AcDbEntity
  8
0
100
AcDbBlockBegin
  2
*B21
 70
     0
 10
0.0
 20
0.0
 30
0.0
  3
*B21
  1

  0
LINE
  5
28B
100
AcDbEntity
  8
0
  6
Continuous
 62
     0
100
AcDbLine
 10
182.357316
 20
70.014268
 30
0.0
 11
144.801011
 21
70.014268
 31
0.0
  0
SOLID
  5
28C
100
AcDbEntity
  8
0
  6
Continuous
 62
     0
100
AcDbTrace
 10
164.051079
 20
70.614173
 30
0.0
 11
160.551066
 21
70.014268
 31
0.0
 12
164.051079
 22
69.414363
 32
0.0
 13
164.051079
 23
69.414363
 33
0.0
  0
SOLID
  5
28D
100
AcDbEntity
  8
0
  6
Continuous
 62
     0
100
AcDbTrace
 10
148.301023
 20
69.414363
 30
0.0
 11
151.801035
 21
70.014268
 31
0.0
 12
148.301023
 22
70.614173
 32
0.0
 13
148.301023
 23
70.614173
 33
0.0
  0
ENDBLK
  5
28E
100
AcDbEntity
  8
0
100
AcDbBlockEnd
  0
BLOCK
  5
291
100
AcDbEntity
  8
0
100
AcDbBlockBegin
  2
*B22
 70
     0
 10
0.0
 20
0.0
 30
0.0
  3
*B22
  1

  0
LINE
  5
292
100
AcDbEntity
  8
0
  6
Continuous
 62
     0
100
AcDbLine
 10
43.018118
 20
38.846611
 30
0.0
 11
43.018118
 21
60.845324
 31
0.0
  0
SOLID
  5
293
100
AcDbEntity
  8
0
  6
Continuous
 62
     0
100
AcDbTrace
 10
42.418213
 20
42.346411
 30
0.0
 11
43.018118
 21
38.846611
 31
0.0
 12
43.618235
 22
42.346411
 32
0.0
 13
43.618235
 23
42.346411
 33
0.0
  0
SOLID
  5
294
100
AcDbEntity
  8
0
  6
Continuous
 62
     0
100
AcDbTrace
 10
43.618235
 20
57.345524
 30
0.0
 11
43.018118
 21
60.845324
 31
0.0
 12
42.418213
 22
57.345524
 32
0.0
 13
42.418213
 23
57.345524
 33
0.0
  0
ENDBLK
  5
295
100
AcDbEntity
  8
0
100
AcDbBlockEnd
  0
BLOCK
  5
298
100
AcDbEntity
  8
0
100
AcDbBlockBegin
  2
*B23
 70
     0
 10
0.0
 20
0.0
 30
0.0
  3
*B23
  1

  0
LINE
  5
299
100
AcDbEntity
  8
0
  6
Continuous
 62
     0
100
AcDbLine
 10
242.175961
 20
185.007817
 30
0.0
 11
193.676062
 21
185.007817
 31
0.0
  0
SOLID
  5
29A
100
AcDbEntity
  8
0
  6
Continuous
 62
     0
100
AcDbTrace
 10
238.675949
 20
184.4077
 30
0.0
 11
242.175961
 21
185.007817
 31
0.0
 12
238.675949
 22
185.607722
 32
0.0
 13
238.675949
 23
185.607722
 33
0.0
  0
SOLID
  5
29B
100
AcDbEntity
  8
0
  6
Continuous
 62
     0
100
AcDbTrace
 10
197.176075
 20
185.607722
 30
0.0
 11
193.676062
 21
185.007817
 31
0.0
 12
197.176075
 22
184.4077
 32
0.0
 13
197.176075
 23
184.4077
 33
0.0
  0
ENDBLK
  5
29C
100
AcDbEntity
  8
0
100
AcDbBlockEnd
  0
BLOCK
  5
29F
100
AcDbEntity
  8
0
100
AcDbBlockBegin
  2
*B24
 70
     0
 10
0.0
 20
0.0
 30
0.0
  3
*B24
  1

  0
LINE
  5
2A0
100
AcDbEntity
  8
0
  6
Continuous
 62
     8
100
AcDbLine
 10
147.175989
 20
92.012981
 30
0.0
 11
147.175989
 21
96.012843
 31
0.0
  0
LINE
  5
2A1
100
AcDbEntity
  8
0
  6
Continuous
 62
     8
100
AcDbLine
 10
147.175989
 20
96.012843
 30
0.0
 11
147.175989
 21
102.079234
 31
0.0
  0
LINE
  5
2A2
100
AcDbEntity
  8
0
  6
Continuous
 62
     8
100
AcDbLine
 10
147.175989
 20
103.079146
 30
0.0
 11
147.175989
 21
104.079059
 31
0.0
  0
LINE
  5
2A3
100
AcDbEntity
  8
0
  6
Continuous
 62
     8
100
AcDbLine
 10
147.175989
 20
105.078971
 30
0.0
 11
147.175989
 21
111.145362
 31
0.0
  0
LINE
  5
2A4
100
AcDbEntity
  8
0
  6
Continuous
 62
     8
100
AcDbLine
 10
147.175989
 20
112.145275
 30
0.0
 11
147.175989
 21
113.1454
 31
0.0
  0
LINE
  5
2A5
100
AcDbEntity
  8
0
  6
Continuous
 62
     8
100
AcDbLine
 10
147.175989
 20
114.145312
 30
0.0
 11
147.175989
 21
120.211703
 31
0.0
  0
ENDBLK
  5
2A6
100
AcDbEntity
  8
0
100
AcDbBlockEnd
  0
BLOCK
  5
2A9
100
AcDbEntity
  8
0
100
AcDbBlockBegin
  2
*B25
 70
     0
 10
0.0
 20
0.0
 30
0.0
  3
*B25
  1

  0
LINE
  5
2AA
100
AcDbEntity
  8
0
  6
Continuous
 62
     8
100
AcDbLine
 10
177.175913
 20
92.012981
 30
0.0
 11
177.175913
 21
106.212503
 31
0.0
  0
ENDBLK
  5
2AB
100
AcDbEntity
  8
0
100
AcDbBlockEnd
  0
BLOCK
  5
2AE
100
AcDbEntity
  8
0
100
AcDbBlockBegin
  2
*B26
 70
     0
 10
0.0
 20
0.0
 30
0.0
  3
*B26
  1

  0
LINE
  5
2AF
100
AcDbEntity
  8
0
  6
Continuous
 62
     8
100
AcDbLine
 10
86.176015
 20
43.596355
 30
0.0
 11
86.176015
 21
48.346099
 31
0.0
  0
LINE
  5
2B0
100
AcDbEntity
  8
0
  6
Continuous
 62
     8
100
AcDbLine
 10
86.176015
 20
51.345836
 30
0.0
 11
86.176015
 21
56.09558
 31
0.0
  0
ENDBLK
  5
2B1
100
AcDbEntity
  8
0
100
AcDbBlockEnd
  0
BLOCK
  5
2B4
100
AcDbEntity
  8
0
100
AcDbBlockBegin
  2
*B27
 70
     0
 10
0.0
 20
0.0
 30
0.0
  3
*B27
  1

  0
LINE
  5
2B5
100
AcDbEntity
  8
0
  6
Continuous
 62
     8
100
AcDbLine
 10
131.425933
 20
138.710615
 30
0.0
 11
131.425933
 21
156.009293
 31
0.0
  0
ENDBLK
  5
2B6
100
AcDbEntity
  8
0
100
AcDbBlockEnd
  0
BLOCK
  5
2B9
100
AcDbEntity
  8
0
100
AcDbBlockBegin
  2
*B28
 70
     0
 10
0.0
 20
0.0
 30
0.0
  3
*B28
  1

  0
LINE
  5
2BA
100
AcDbEntity
  8
0
  6
Continuous
 62
     8
100
AcDbLine
 10
156.176051
 20
152.009643
 30
0.0
 11
156.176051
 21
156.009293
 31
0.0
  0
LINE
  5
2BB
100
AcDbEntity
  8
0
  6
Continuous
 62
     8
100
AcDbLine
 10
156.176051
 20
107.462447
 30
0.0
 11
156.176051
 21
111.212278
 31
0.0
  0
LINE
  5
2BC
100
AcDbEntity
  8
0
  6
Continuous
 62
     8
100
AcDbLine
 10
156.176051
 20
114.212015
 30
0.0
 11
156.176051
 21
119.371751
 31
0.0
  0
LINE
  5
2BD
100
AcDbEntity
  8
0
  6
Continuous
 62
     8
100
AcDbLine
 10
156.176051
 20
120.371663
 30
0.0
 11
156.176051
 21
121.371576
 31
0.0
  0
LINE
  5
2BE
100
AcDbEntity
  8
0
  6
Continuous
 62
     8
100
AcDbLine
 10
156.176051
 20
122.371488
 30
0.0
 11
156.176051
 21
127.531224
 31
0.0
  0
LINE
  5
2BF
100
AcDbEntity
  8
0
  6
Continuous
 62
     8
100
AcDbLine
 10
156.176051
 20
128.531136
 30
0.0
 11
156.176051
 21
129.531049
 31
0.0
  0
LINE
  5
2C0
100
AcDbEntity
  8
0
  6
Continuous
 62
     8
100
AcDbLine
 10
156.176051
 20
130.530961
 30
0.0
 11
156.176051
 21
135.690697
 31
0.0
  0
LINE
  5
2C1
100
AcDbEntity
  8
0
  6
Continuous
 62
     8
100
AcDbLine
 10
156.176051
 20
136.690609
 30
0.0
 11
156.176051
 21
137.690522
 31
0.0
  0
LINE
  5
2C2
100
AcDbEntity
  8
0
  6
Continuous
 62
     8
100
AcDbLine
 10
156.176051
 20
138.690434
 30
0.0
 11
156.176051
 21
143.85017
 31
0.0
  0
LINE
  5
2C3
100
AcDbEntity
  8
0
  6
Continuous
 62
     8
100
AcDbLine
 10
156.176051
 20
144.850082
 30
0.0
 11
156.176051
 21
145.849995
 31
0.0
  0
LINE
  5
2C4
100
AcDbEntity
  8
0
  6
Continuous
 62
     8
100
AcDbLine
 10
156.176051
 20
146.849907
 30
0.0
 11
156.176051
 21
152.009643
 31
0.0
  0
ENDBLK
  5
2C5
100
AcDbEntity
  8
0
100
AcDbBlockEnd
  0
BLOCK
  5
2C8
100
AcDbEntity
  8
0
100
AcDbBlockBegin
  2
*B29
 70
     0
 10
0.0
 20
0.0
 30
0.0
  3
*B29
  1

  0
LINE
  5
2C9
100
AcDbEntity
  8
0
  6
Continuous
 62
     8
100
AcDbLine
 10
156.176051
 20
42.471321
 30
0.0
 11
156.176051
 21
48.346099
 31
0.0
  0
LINE
  5
2CA
100
AcDbEntity
  8
0
  6
Continuous
 62
     8
100
AcDbLine
 10
156.176051
 20
51.345836
 30
0.0
 11
156.176051
 21
57.220614
 31
0.0
  0
ENDBLK
  5
2CB
100
AcDbEntity
  8
0
100
AcDbBlockEnd
  0
BLOCK
  5
2CE
100
AcDbEntity
  8
0
100
AcDbBlockBegin
  2
*B30
 70
     0
 10
0.0
 20
0.0
 30
0.0
  3
*B30
  1

  0
LINE
  5
2CF
100
AcDbEntity
  8
0
  6
Continuous
 62
     8
100
AcDbLine
 10
165.175901
 20
92.012981
 30
0.0
 11
165.175901
 21
96.012843
 31
0.0
  0
LINE
  5
2D0
100
AcDbEntity
  8
0
  6
Continuous
 62
     8
100
AcDbLine
 10
165.175901
 20
163.008893
 30
0.0
 11
165.175901
 21
167.008755
 31
0.0
  0
LINE
  5
2D1
100
AcDbEntity
  8
0
  6
Continuous
 62
     8
100
AcDbLine
 10
165.175901
 20
96.012843
 30
0.0
 11
165.175901
 21
101.65246
 31
0.0
  0
LINE
  5
2D2
100
AcDbEntity
  8
0
  6
Continuous
 62
     8
100
AcDbLine
 10
165.175901
 20
102.652373
 30
0.0
 11
165.175901
 21
103.652285
 31
0.0
  0
LINE
  5
2D3
100
AcDbEntity
  8
0
  6
Continuous
 62
     8
100
AcDbLine
 10
165.175901
 20
104.65241
 30
0.0
 11
165.175901
 21
110.292027
 31
0.0
  0
LINE
  5
2D4
100
AcDbEntity
  8
0
  6
Continuous
 62
     8
100
AcDbLine
 10
165.175901
 20
111.291939
 30
0.0
 11
165.175901
 21
112.292064
 31
0.0
  0
LINE
  5
2D5
100
AcDbEntity
  8
0
  6
Continuous
 62
     8
100
AcDbLine
 10
165.175901
 20
113.291977
 30
0.0
 11
165.175901
 21
118.931594
 31
0.0
  0
LINE
  5
2D6
100
AcDbEntity
  8
0
  6
Continuous
 62
     8
100
AcDbLine
 10
165.175901
 20
119.931506
 30
0.0
 11
165.175901
 21
120.931419
 31
0.0
  0
LINE
  5
2D7
100
AcDbEntity
  8
0
  6
Continuous
 62
     8
100
AcDbLine
 10
165.175901
 20
121.931544
 30
0.0
 11
165.175901
 21
127.571161
 31
0.0
  0
LINE
  5
2D8
100
AcDbEntity
  8
0
  6
Continuous
 62
     8
100
AcDbLine
 10
165.175901
 20
128.571073
 30
0.0
 11
165.175901
 21
129.570986
 31
0.0
  0
LINE
  5
2D9
100
AcDbEntity
  8
0
  6
Continuous
 62
     8
100
AcDbLine
 10
165.175901
 20
130.571111
 30
0.0
 11
165.175901
 21
136.210728
 31
0.0
  0
LINE
  5
2DA
100
AcDbEntity
  8
0
  6
Continuous
 62
     8
100
AcDbLine
 10
165.175901
 20
139.210678
 30
0.0
 11
165.175901
 21
145.143449
 31
0.0
  0
LINE
  5
2DB
100
AcDbEntity
  8
0
  6
Continuous
 62
     8
100
AcDbLine
 10
165.175901
 20
146.143362
 30
0.0
 11
165.175901
 21
147.143487
 31
0.0
  0
LINE
  5
2DC
100
AcDbEntity
  8
0
  6
Continuous
 62
     8
100
AcDbLine
 10
165.175901
 20
148.143399
 30
0.0
 11
165.175901
 21
154.076171
 31
0.0
  0
LINE
  5
2DD
100
AcDbEntity
  8
0
  6
Continuous
 62
     8
100
AcDbLine
 10
165.175901
 20
155.076296
 30
0.0
 11
165.175901
 21
156.076208
 31
0.0
  0
LINE
  5
2DE
100
AcDbEntity
  8
0
  6
Continuous
 62
     8
100
AcDbLine
 10
165.175901
 20
157.076121
 30
0.0
 11
165.175901
 21
163.008893
 31
0.0
  0
ENDBLK
  5
2DF
100
AcDbEntity
  8
0
100
AcDbBlockEnd
  0
BLOCK
  5
2E2
100
AcDbEntity
  8
0
100
AcDbBlockBegin
  2
*B31
 70
     0
 10
0.0
 20
0.0
 30
0.0
  3
*B31
  1

  0
LINE
  5
2E3
100
AcDbEntity
  8
0
  6
Continuous
 62
     8
100
AcDbLine
 10
41.01808
 20
60.845324
 30
0.0
 11
70.176141
 21
60.845324
 31
0.0
  0
ENDBLK
  5
2E4
100
AcDbEntity
  8
0
100
AcDbBlockEnd
  0
BLOCK
  5
2E7
100
AcDbEntity
  8
0
100
AcDbBlockBegin
  2
*B32
 70
     0
 10
0.0
 20
0.0
 30
0.0
  3
*B32
  1

  0
LINE
  5
2E8
100
AcDbEntity
  8
0
  6
Continuous
 62
     8
100
AcDbLine
 10
123.926058
 20
137.710703
 30
0.0
 11
127.676102
 21
137.710703
 31
0.0
  0
LINE
  5
2E9
100
AcDbEntity
  8
0
  6
Continuous
 62
     8
100
AcDbLine
 10
130.676052
 20
137.710703
 30
0.0
 11
134.426095
 21
137.710703
 31
0.0
  0
ENDBLK
  5
2EA
100
AcDbEntity
  8
0
100
AcDbBlockEnd
  0
BLOCK
  5
2ED
100
AcDbEntity
  8
0
100
AcDbBlockBegin
  2
*B33
 70
     0
 10
0.0
 20
0.0
 30
0.0
  3
*B33
  1

  0
LINE
  5
2EE
100
AcDbEntity
  8
0
  6
Continuous
 62
     8
100
AcDbLine
 10
186.018139
 20
137.710703
 30
0.0
 11
190.018001
 21
137.710703
 31
0.0
  0
LINE
  5
2EF
100
AcDbEntity
  8
0
  6
Continuous
 62
     8
100
AcDbLine
 10
159.926095
 20
137.710703
 30
0.0
 11
163.675926
 21
137.710703
 31
0.0
  0
LINE
  5
2F0
100
AcDbEntity
  8
0
  6
Continuous
 62
     8
100
AcDbLine
 10
166.676088
 20
137.710703
 30
0.0
 11
174.847032
 21
137.710703
 31
0.0
  0
LINE
  5
2F1
100
AcDbEntity
  8
0
  6
Continuous
 62
     8
100
AcDbLine
 10
175.847157
 20
137.710703
 30
0.0
 11
176.84707
 21
137.710703
 31
0.0
  0
LINE
  5
2F2
100
AcDbEntity
  8
0
  6
Continuous
 62
     8
100
AcDbLine
 10
177.846982
 20
137.710703
 30
0.0
 11
186.018139
 21
137.710703
 31
0.0
  0
ENDBLK
  5
2F3
100
AcDbEntity
  8
0
100
AcDbBlockEnd
  0
BLOCK
  5
2F6
100
AcDbEntity
  8
0
100
AcDbBlockBegin
  2
*B34
 70
     0
 10
0.0
 20
0.0
 30
0.0
  3
*B34
  1

  0
LINE
  5
2F7
100
AcDbEntity
  8
0
  6
Continuous
 62
     8
100
AcDbLine
 10
52.676079
 20
49.846074
 30
0.0
 11
58.42616
 21
49.846074
 31
0.0
  0
LINE
  5
2F8
100
AcDbEntity
  8
0
  6
Continuous
 62
     8
100
AcDbLine
 10
59.426072
 20
49.846074
 30
0.0
 11
60.425985
 21
49.846074
 31
0.0
  0
LINE
  5
2F9
100
AcDbEntity
  8
0
  6
Continuous
 62
     8
100
AcDbLine
 10
61.42611
 20
49.846074
 30
0.0
 11
67.175978
 21
49.846074
 31
0.0
  0
LINE
  5
2FA
100
AcDbEntity
  8
0
  6
Continuous
 62
     8
100
AcDbLine
 10
68.176103
 20
49.846074
 30
0.0
 11
69.176016
 21
49.846074
 31
0.0
  0
LINE
  5
2FB
100
AcDbEntity
  8
0
  6
Continuous
 62
     8
100
AcDbLine
 10
70.176141
 20
49.846074
 30
0.0
 11
75.926009
 21
49.846074
 31
0.0
  0
LINE
  5
2FC
100
AcDbEntity
  8
0
  6
Continuous
 62
     8
100
AcDbLine
 10
76.926134
 20
49.846074
 30
0.0
 11
77.926047
 21
49.846074
 31
0.0
  0
LINE
  5
2FD
100
AcDbEntity
  8
0
  6
Continuous
 62
     8
100
AcDbLine
 10
78.925959
 20
49.846074
 30
0.0
 11
84.67604
 21
49.846074
 31
0.0
  0
LINE
  5
2FE
100
AcDbEntity
  8
0
  6
Continuous
 62
     8
100
AcDbLine
 10
87.67599
 20
49.846074
 30
0.0
 11
93.342798
 21
49.846074
 31
0.0
  0
LINE
  5
2FF
100
AcDbEntity
  8
0
  6
Continuous
 62
     8
100
AcDbLine
 10
94.342711
 20
49.846074
 30
0.0
 11
95.342623
 21
49.846074
 31
0.0
  0
LINE
  5
300
100
AcDbEntity
  8
0
  6
Continuous
 62
     8
100
AcDbLine
 10
96.342748
 20
49.846074
 30
0.0
 11
102.009344
 21
49.846074
 31
0.0
  0
LINE
  5
301
100
AcDbEntity
  8
0
  6
Continuous
 62
     8
100
AcDbLine
 10
103.009469
 20
49.846074
 30
0.0
 11
104.009382
 21
49.846074
 31
0.0
  0
LINE
  5
302
100
AcDbEntity
  8
0
  6
Continuous
 62
     8
100
AcDbLine
 10
105.009294
 20
49.846074
 30
0.0
 11
110.676102
 21
49.846074
 31
0.0
  0
LINE
  5
303
100
AcDbEntity
  8
0
  6
Continuous
 62
     8
100
AcDbLine
 10
113.676052
 20
49.846074
 30
0.0
 11
119.342648
 21
49.846074
 31
0.0
  0
LINE
  5
304
100
AcDbEntity
  8
0
  6
Continuous
 62
     8
100
AcDbLine
 10
120.342773
 20
49.846074
 30
0.0
 11
121.342685
 21
49.846074
 31
0.0
  0
LINE
  5
305
100
AcDbEntity
  8
0
  6
Continuous
 62
     8
100
AcDbLine
 10
122.342598
 20
49.846074
 30
0.0
 11
128.009406
 21
49.846074
 31
0.0
  0
LINE
  5
306
100
AcDbEntity
  8
0
  6
Continuous
 62
     8
100
AcDbLine
 10
129.009318
 20
49.846074
 30
0.0
 11
130.009443
 21
49.846074
 31
0.0
  0
LINE
  5
307
100
AcDbEntity
  8
0
  6
Continuous
 62
     8
100
AcDbLine
 10
131.009356
 20
49.846074
 30
0.0
 11
136.675951
 21
49.846074
 31
0.0
  0
LINE
  5
308
100
AcDbEntity
  8
0
  6
Continuous
 62
     8
100
AcDbLine
 10
139.676114
 20
49.846074
 30
0.0
 11
145.676014
 21
49.846074
 31
0.0
  0
LINE
  5
309
100
AcDbEntity
  8
0
  6
Continuous
 62
     8
100
AcDbLine
 10
146.675926
 20
49.846074
 30
0.0
 11
147.676051
 21
49.846074
 31
0.0
  0
LINE
  5
30A
100
AcDbEntity
  8
0
  6
Continuous
 62
     8
100
AcDbLine
 10
148.675964
 20
49.846074
 30
0.0
 11
154.676076
 21
49.846074
 31
0.0
  0
LINE
  5
30B
100
AcDbEntity
  8
0
  6
Continuous
 62
     8
100
AcDbLine
 10
157.676026
 20
49.846074
 30
0.0
 11
163.342622
 21
49.846074
 31
0.0
  0
LINE
  5
30C
100
AcDbEntity
  8
0
  6
Continuous
 62
     8
100
AcDbLine
 10
164.342746
 20
49.846074
 30
0.0
 11
165.342659
 21
49.846074
 31
0.0
  0
LINE
  5
30D
100
AcDbEntity
  8
0
  6
Continuous
 62
     8
100
AcDbLine
 10
166.342571
 20
49.846074
 30
0.0
 11
172.00938
 21
49.846074
 31
0.0
  0
LINE
  5
30E
100
AcDbEntity
  8
0
  6
Continuous
 62
     8
100
AcDbLine
 10
173.009292
 20
49.846074
 30
0.0
 11
174.009417
 21
49.846074
 31
0.0
  0
LINE
  5
30F
100
AcDbEntity
  8
0
  6
Continuous
 62
     8
100
AcDbLine
 10
175.00933
 20
49.846074
 30
0.0
 11
180.675925
 21
49.846074
 31
0.0
  0
LINE
  5
310
100
AcDbEntity
  8
0
  6
Continuous
 62
     8
100
AcDbLine
 10
183.676088
 20
49.846074
 30
0.0
 11
189.342683
 21
49.846074
 31
0.0
  0
LINE
  5
311
100
AcDbEntity
  8
0
  6
Continuous
 62
     8
100
AcDbLine
 10
190.342596
 20
49.846074
 30
0.0
 11
191.342721
 21
49.846074
 31
0.0
  0
LINE
  5
312
100
AcDbEntity
  8
0
  6
Continuous
 62
     8
100
AcDbLine
 10
192.342633
 20
49.846074
 30
0.0
 11
198.009229
 21
49.846074
 31
0.0
  0
LINE
  5
313
100
AcDbEntity
  8
0
  6
Continuous
 62
     8
100
AcDbLine
 10
199.009354
 20
49.846074
 30
0.0
 11
200.009266
 21
49.846074
 31
0.0
  0
LINE
  5
314
100
AcDbEntity
  8
0
  6
Continuous
 62
     8
100
AcDbLine
 10
201.009391
 20
49.846074
 30
0.0
 11
206.675987
 21
49.846074
 31
0.0
  0
LINE
  5
315
100
AcDbEntity
  8
0
  6
Continuous
 62
     8
100
AcDbLine
 10
209.675937
 20
49.846074
 30
0.0
 11
214.425893
 21
49.846074
 31
0.0
  0
LINE
  5
316
100
AcDbEntity
  8
0
  6
Continuous
 62
     8
100
AcDbLine
 10
215.426018
 20
49.846074
 30
0.0
 11
216.425931
 21
49.846074
 31
0.0
  0
LINE
  5
317
100
AcDbEntity
  8
0
  6
Continuous
 62
     8
100
AcDbLine
 10
217.426055
 20
49.846074
 30
0.0
 11
222.176012
 21
49.846074
 31
0.0
  0
LINE
  5
318
100
AcDbEntity
  8
0
  6
Continuous
 62
     8
100
AcDbLine
 10
223.175924
 20
49.846074
 30
0.0
 11
224.176049
 21
49.846074
 31
0.0
  0
LINE
  5
319
100
AcDbEntity
  8
0
  6
Continuous
 62
     8
100
AcDbLine
 10
225.175961
 20
49.846074
 30
0.0
 11
229.925918
 21
49.846074
 31
0.0
  0
LINE
  5
31A
100
AcDbEntity
  8
0
  6
Continuous
 62
     8
100
AcDbLine
 10
230.926043
 20
49.846074
 30
0.0
 11
231.925955
 21
49.846074
 31
0.0
  0
LINE
  5
31B
100
AcDbEntity
  8
0
  6
Continuous
 62
     8
100
AcDbLine
 10
232.925868
 20
49.846074
 30
0.0
 11
237.676036
 21
49.846074
 31
0.0
  0
ENDBLK
  5
31C
100
AcDbEntity
  8
0
100
AcDbBlockEnd
  0
BLOCK
  5
31F
100
AcDbEntity
  8
0
100
AcDbBlockBegin
  2
*B35
 70
     0
 10
0.0
 20
0.0
 30
0.0
  3
*B35
  1

  0
LINE
  5
320
100
AcDbEntity
  8
0
  6
Continuous
 62
     8
100
AcDbLine
 10
194.175912
 20
107.212415
 30
0.0
 11
245.018075
 21
107.212415
 31
0.0
  0
ENDBLK
  5
321
100
AcDbEntity
  8
0
100
AcDbBlockEnd
  0
BLOCK
  5
324
100
AcDbEntity
  8
0
100
AcDbBlockBegin
  2
*B36
 70
     0
 10
0.0
 20
0.0
 30
0.0
  3
*B36
  1

  0
LINE
  5
325
100
AcDbEntity
  8
0
  6
Continuous
 62
     8
100
AcDbLine
 10
41.01808
 20
107.212415
 30
0.0
 11
100.176065
 21
107.212415
 31
0.0
  0
ENDBLK
  5
326
100
AcDbEntity
  8
0
100
AcDbBlockEnd
  0
BLOCK
  5
329
100
AcDbEntity
  8
0
100
AcDbBlockBegin
  2
*B37
 70
     0
 10
0.0
 20
0.0
 30
0.0
  3
*B37
  1

  0
LINE
  5
32A
100
AcDbEntity
  8
0
  6
Continuous
 62
     8
100
AcDbLine
 10
52.176016
 20
172.008742
 30
0.0
 11
52.176016
 21
187.007642
 31
0.0
  0
ENDBLK
  5
32B
100
AcDbEntity
  8
0
100
AcDbBlockEnd
  0
BLOCK
  5
32E
100
AcDbEntity
  8
0
100
AcDbBlockBegin
  2
*B38
 70
     0
 10
0.0
 20
0.0
 30
0.0
  3
*B38
  1

  0
LINE
  5
32F
100
AcDbEntity
  8
0
  6
Continuous
 62
     8
100
AcDbLine
 10
132.92612
 20
112.71204
 30
0.0
 11
136.675951
 21
112.71204
 31
0.0
  0
LINE
  5
330
100
AcDbEntity
  8
0
  6
Continuous
 62
     8
100
AcDbLine
 10
139.676114
 20
112.71204
 30
0.0
 11
143.425945
 21
112.71204
 31
0.0
  0
ENDBLK
  5
331
100
AcDbEntity
  8
0
100
AcDbBlockEnd
  0
BLOCK
  5
334
100
AcDbEntity
  8
0
100
AcDbBlockBegin
  2
*B39
 70
     0
 10
0.0
 20
0.0
 30
0.0
  3
*B39
  1

  0
LINE
  5
335
100
AcDbEntity
  8
0
  6
Continuous
 62
     8
100
AcDbLine
 10
242.175961
 20
172.008742
 30
0.0
 11
242.175961
 21
187.007642
 31
0.0
  0
ENDBLK
  5
336
100
AcDbEntity
  8
0
100
AcDbBlockEnd
  0
BLOCK
  5
339
100
AcDbEntity
  8
0
100
AcDbBlockBegin
  2
*B40
 70
     0
 10
0.0
 20
0.0
 30
0.0
  3
*B40
  1

  0
LINE
  5
33A
100
AcDbEntity
  8
0
  6
Continuous
 62
     8
100
AcDbLine
 10
117.176064
 20
92.012981
 30
0.0
 11
117.176064
 21
106.212503
 31
0.0
  0
ENDBLK
  5
33B
100
AcDbEntity
  8
0
100
AcDbBlockEnd
  0
BLOCK
  5
33E
100
AcDbEntity
  8
0
100
AcDbBlockBegin
  2
*B41
 70
     0
 10
0.0
 20
0.0
 30
0.0
  3
*B41
  1

  0
LINE
  5
33F
100
AcDbEntity
  8
0
  6
Continuous
 62
     8
100
AcDbLine
 10
193.676062
 20
169.208902
 30
0.0
 11
193.676062
 21
187.007642
 31
0.0
  0
ENDBLK
  5
340
100
AcDbEntity
  8
0
100
AcDbBlockEnd
  0
BLOCK
  5
343
100
AcDbEntity
  8
0
100
AcDbBlockBegin
  2
*B42
 70
     0
 10
0.0
 20
0.0
 30
0.0
  3
*B42
  1

  0
LINE
  5
344
100
AcDbEntity
  8
0
  6
Continuous
 62
     8
100
AcDbLine
 10
41.01808
 20
38.846611
 30
0.0
 11
70.176141
 21
38.846611
 31
0.0
  0
ENDBLK
  5
345
100
AcDbEntity
  8
0
100
AcDbBlockEnd
  0
BLOCK
  5
348
100
AcDbEntity
  8
0
100
AcDbBlockBegin
  2
*B43
 70
     0
 10
0.0
 20
0.0
 30
0.0
  3
*B43
  1

  0
LINE
  5
349
100
AcDbEntity
  8
0
  6
Continuous
 62
     8
100
AcDbLine
 10
193.176
 20
79.013693
 30
0.0
 11
193.176
 21
106.212503
 31
0.0
  0
ENDBLK
  5
34A
100
AcDbEntity
  8
0
100
AcDbBlockEnd
  0
BLOCK
  5
34D
100
AcDbEntity
  8
0
100
AcDbBlockBegin
  2
*B44
 70
     0
 10
0.0
 20
0.0
 30
0.0
  3
*B44
  1

  0
LINE
  5
34E
100
AcDbEntity
  8
0
  6
Continuous
 62
     8
100
AcDbLine
 10
126.926008
 20
138.710615
 30
0.0
 11
126.926008
 21
156.009293
 31
0.0
  0
ENDBLK
  5
34F
100
AcDbEntity
  8
0
100
AcDbBlockEnd
  0
BLOCK
  5
352
100
AcDbEntity
  8
0
100
AcDbBlockBegin
  2
*B45
 70
     0
 10
0.0
 20
0.0
 30
0.0
  3
*B45
  1

  0
LINE
  5
353
100
AcDbEntity
  8
0
  6
Continuous
 62
     8
100
AcDbLine
 10
129.176077
 20
92.012981
 30
0.0
 11
129.176077
 21
96.012843
 31
0.0
  0
LINE
  5
354
100
AcDbEntity
  8
0
  6
Continuous
 62
     8
100
AcDbLine
 10
129.176077
 20
163.008893
 30
0.0
 11
129.176077
 21
167.008755
 31
0.0
  0
LINE
  5
355
100
AcDbEntity
  8
0
  6
Continuous
 62
     8
100
AcDbLine
 10
129.176077
 20
96.012843
 30
0.0
 11
129.176077
 21
101.65246
 31
0.0
  0
LINE
  5
356
100
AcDbEntity
  8
0
  6
Continuous
 62
     8
100
AcDbLine
 10
129.176077
 20
102.652373
 30
0.0
 11
129.176077
 21
103.652285
 31
0.0
  0
LINE
  5
357
100
AcDbEntity
  8
0
  6
Continuous
 62
     8
100
AcDbLine
 10
129.176077
 20
104.65241
 30
0.0
 11
129.176077
 21
110.292027
 31
0.0
  0
LINE
  5
358
100
AcDbEntity
  8
0
  6
Continuous
 62
     8
100
AcDbLine
 10
129.176077
 20
111.291939
 30
0.0
 11
129.176077
 21
112.292064
 31
0.0
  0
LINE
  5
359
100
AcDbEntity
  8
0
  6
Continuous
 62
     8
100
AcDbLine
 10
129.176077
 20
113.291977
 30
0.0
 11
129.176077
 21
118.931594
 31
0.0
  0
LINE
  5
35A
100
AcDbEntity
  8
0
  6
Continuous
 62
     8
100
AcDbLine
 10
129.176077
 20
119.931506
 30
0.0
 11
129.176077
 21
120.931419
 31
0.0
  0
LINE
  5
35B
100
AcDbEntity
  8
0
  6
Continuous
 62
     8
100
AcDbLine
 10
129.176077
 20
121.931544
 30
0.0
 11
129.176077
 21
127.571161
 31
0.0
  0
LINE
  5
35C
100
AcDbEntity
  8
0
  6
Continuous
 62
     8
100
AcDbLine
 10
129.176077
 20
128.571073
 30
0.0
 11
129.176077
 21
129.570986
 31
0.0
  0
LINE
  5
35D
100
AcDbEntity
  8
0
  6
Continuous
 62
     8
100
AcDbLine
 10
129.176077
 20
130.571111
 30
0.0
 11
129.176077
 21
136.210728
 31
0.0
  0
LINE
  5
35E
100
AcDbEntity
  8
0
  6
Continuous
 62
     8
100
AcDbLine
 10
129.176077
 20
139.210678
 30
0.0
 11
129.176077
 21
145.143449
 31
0.0
  0
LINE
  5
35F
100
AcDbEntity
  8
0
  6
Continuous
 62
     8
100
AcDbLine
 10
129.176077
 20
146.143362
 30
0.0
 11
129.176077
 21
147.143487
 31
0.0
  0
LINE
  5
360
100
AcDbEntity
  8
0
  6
Continuous
 62
     8
100
AcDbLine
 10
129.176077
 20
148.143399
 30
0.0
 11
129.176077
 21
154.076171
 31
0.0
  0
LINE
  5
361
100
AcDbEntity
  8
0
  6
Continuous
 62
     8
100
AcDbLine
 10
129.176077
 20
155.076296
 30
0.0
 11
129.176077
 21
156.076208
 31
0.0
  0
LINE
  5
362
100
AcDbEntity
  8
0
  6
Continuous
 62
     8
100
AcDbLine
 10
129.176077
 20
157.076121
 30
0.0
 11
129.176077
 21
163.008893
 31
0.0
  0
ENDBLK
  5
363
100
AcDbEntity
  8
0
100
AcDbBlockEnd
  0
BLOCK
  5
366
100
AcDbEntity
  8
0
100
AcDbBlockBegin
  2
*B46
 70
     0
 10
0.0
 20
0.0
 30
0.0
  3
*B46
  1

  0
LINE
  5
367
100
AcDbEntity
  8
0
  6
Continuous
 62
     8
100
AcDbLine
 10
151.801035
 20
50.845986
 30
0.0
 11
151.801035
 21
72.014093
 31
0.0
  0
ENDBLK
  5
368
100
AcDbEntity
  8
0
100
AcDbBlockEnd
  0
BLOCK
  5
36B
100
AcDbEntity
  8
0
100
AcDbBlockBegin
  2
*B47
 70
     0
 10
0.0
 20
0.0
 30
0.0
  3
*B47
  1

  0
LINE
  5
36C
100
AcDbEntity
  8
0
  6
Continuous
 62
     8
100
AcDbLine
 10
160.551066
 20
50.845986
 30
0.0
 11
160.551066
 21
72.014093
 31
0.0
  0
ENDBLK
  5
36D
100
AcDbEntity
  8
0
100
AcDbBlockEnd
  0
BLOCK
  5
370
100
AcDbEntity
  8
0
100
AcDbBlockBegin
  2
*B48
 70
     0
 10
0.0
 20
0.0
 30
0.0
  3
*B48
  1

  0
LINE
  5
371
100
AcDbEntity
  8
0
  6
Continuous
 62
     8
100
AcDbLine
 10
112.176077
 20
43.896307
 30
0.0
 11
112.176077
 21
48.346099
 31
0.0
  0
LINE
  5
372
100
AcDbEntity
  8
0
  6
Continuous
 62
     8
100
AcDbLine
 10
112.176077
 20
51.345836
 30
0.0
 11
112.176077
 21
55.795627
 31
0.0
  0
ENDBLK
  5
373
100
AcDbEntity
  8
0
100
AcDbBlockEnd
  0
BLOCK
  5
376
100
AcDbEntity
  8
0
100
AcDbBlockBegin
  2
*B49
 70
     0
 10
0.0
 20
0.0
 30
0.0
  3
*B49
  1

  0
LINE
  5
377
100
AcDbEntity
  8
0
  6
Continuous
 62
     8
100
AcDbLine
 10
41.01808
 20
172.208215
 30
0.0
 11
51.868841
 21
172.208215
 31
0.0
  0
ENDBLK
  5
378
100
AcDbEntity
  8
0
100
AcDbBlockEnd
  0
BLOCK
  5
37B
100
AcDbEntity
  8
0
100
AcDbBlockBegin
  2
*B50
 70
     0
 10
0.0
 20
0.0
 30
0.0
  3
*B50
  1

  0
LINE
  5
37C
100
AcDbEntity
  8
0
  6
Continuous
 62
     8
100
AcDbLine
 10
101.175977
 20
79.013693
 30
0.0
 11
101.175977
 21
106.212503
 31
0.0
  0
ENDBLK
  5
37D
100
AcDbEntity
  8
0
100
AcDbBlockEnd
  0
BLOCK
  5
380
100
AcDbEntity
  8
0
100
AcDbBlockBegin
  2
*B51
 70
     0
 10
0.0
 20
0.0
 30
0.0
  3
*B51
  1

  0
LINE
  5
381
100
AcDbEntity
  8
0
  6
Continuous
 62
     8
100
AcDbLine
 10
138.175926
 20
152.009643
 30
0.0
 11
138.175926
 21
156.009293
 31
0.0
  0
LINE
  5
382
100
AcDbEntity
  8
0
  6
Continuous
 62
     8
100
AcDbLine
 10
138.175926
 20
107.462447
 30
0.0
 11
138.175926
 21
111.212278
 31
0.0
  0
LINE
  5
383
100
AcDbEntity
  8
0
  6
Continuous
 62
     8
100
AcDbLine
 10
138.175926
 20
114.212015
 30
0.0
 11
138.175926
 21
119.371751
 31
0.0
  0
LINE
  5
384
100
AcDbEntity
  8
0
  6
Continuous
 62
     8
100
AcDbLine
 10
138.175926
 20
120.371663
 30
0.0
 11
138.175926
 21
121.371576
 31
0.0
  0
LINE
  5
385
100
AcDbEntity
  8
0
  6
Continuous
 62
     8
100
AcDbLine
 10
138.175926
 20
122.371488
 30
0.0
 11
138.175926
 21
127.531224
 31
0.0
  0
LINE
  5
386
100
AcDbEntity
  8
0
  6
Continuous
 62
     8
100
AcDbLine
 10
138.175926
 20
128.531136
 30
0.0
 11
138.175926
 21
129.531049
 31
0.0
  0
LINE
  5
387
100
AcDbEntity
  8
0
  6
Continuous
 62
     8
100
AcDbLine
 10
138.175926
 20
130.530961
 30
0.0
 11
138.175926
 21
135.690697
 31
0.0
  0
LINE
  5
388
100
AcDbEntity
  8
0
  6
Continuous
 62
     8
100
AcDbLine
 10
138.175926
 20
136.690609
 30
0.0
 11
138.175926
 21
137.690522
 31
0.0
  0
LINE
  5
389
100
AcDbEntity
  8
0
  6
Continuous
 62
     8
100
AcDbLine
 10
138.175926
 20
138.690434
 30
0.0
 11
138.175926
 21
143.85017
 31
0.0
  0
LINE
  5
38A
100
AcDbEntity
  8
0
  6
Continuous
 62
     8
100
AcDbLine
 10
138.175926
 20
144.850082
 30
0.0
 11
138.175926
 21
145.849995
 31
0.0
  0
LINE
  5
38B
100
AcDbEntity
  8
0
  6
Continuous
 62
     8
100
AcDbLine
 10
138.175926
 20
146.849907
 30
0.0
 11
138.175926
 21
152.009643
 31
0.0
  0
ENDBLK
  5
38C
100
AcDbEntity
  8
0
100
AcDbBlockEnd
  0
BLOCK
  5
38F
100
AcDbEntity
  8
0
100
AcDbBlockBegin
  2
*B52
 70
     0
 10
0.0
 20
0.0
 30
0.0
  3
*B52
  1

  0
LINE
  5
390
100
AcDbEntity
  8
0
  6
Continuous
 62
     8
100
AcDbLine
 10
182.1759
 20
43.896307
 30
0.0
 11
182.1759
 21
48.346099
 31
0.0
  0
LINE
  5
391
100
AcDbEntity
  8
0
  6
Continuous
 62
     8
100
AcDbLine
 10
182.1759
 20
51.345836
 30
0.0
 11
182.1759
 21
55.795627
 31
0.0
  0
ENDBLK
  5
392
100
AcDbEntity
  8
0
100
AcDbBlockEnd
  0
BLOCK
  5
395
100
AcDbEntity
  8
0
100
AcDbBlockBegin
  2
*B53
 70
     0
 10
0.0
 20
0.0
 30
0.0
  3
*B53
  1

  0
LINE
  5
396
100
AcDbEntity
  8
0
  6
Continuous
 62
     8
100
AcDbLine
 10
100.676127
 20
169.208902
 30
0.0
 11
100.676127
 21
187.007642
 31
0.0
  0
ENDBLK
  5
397
100
AcDbEntity
  8
0
100
AcDbBlockEnd
  0
BLOCK
  5
39A
100
AcDbEntity
  8
0
100
AcDbBlockBegin
  2
*B54
 70
     0
 10
0.0
 20
0.0
 30
0.0
  3
*B54
  1

  0
LINE
  5
39B
100
AcDbEntity
  8
0
  6
Continuous
 62
     8
100
AcDbLine
 10
194.175912
 20
143.210328
 30
0.0
 11
245.018075
 21
143.210328
 31
0.0
  0
ENDBLK
  5
39C
100
AcDbEntity
  8
0
100
AcDbBlockEnd
  0
BLOCK
  5
39F
100
AcDbEntity
  8
0
100
AcDbBlockBegin
  2
*B55
 70
     0
 10
0.0
 20
0.0
 30
0.0
  3
*B55
  1

  0
LINE
  5
3A0
100
AcDbEntity
  8
0
  6
Continuous
 62
     8
100
AcDbLine
 10
186.018139
 20
112.71204
 30
0.0
 11
190.018001
 21
112.71204
 31
0.0
  0
LINE
  5
3A1
100
AcDbEntity
  8
0
  6
Continuous
 62
     8
100
AcDbLine
 10
150.926032
 20
112.71204
 30
0.0
 11
154.676076
 21
112.71204
 31
0.0
  0
LINE
  5
3A2
100
AcDbEntity
  8
0
  6
Continuous
 62
     8
100
AcDbLine
 10
157.676026
 20
112.71204
 30
0.0
 11
162.511592
 21
112.71204
 31
0.0
  0
LINE
  5
3A3
100
AcDbEntity
  8
0
  6
Continuous
 62
     8
100
AcDbLine
 10
163.511504
 20
112.71204
 30
0.0
 11
164.511629
 21
112.71204
 31
0.0
  0
LINE
  5
3A4
100
AcDbEntity
  8
0
  6
Continuous
 62
     8
100
AcDbLine
 10
165.511542
 20
112.71204
 30
0.0
 11
170.347107
 21
112.71204
 31
0.0
  0
LINE
  5
3A5
100
AcDbEntity
  8
0
  6
Continuous
 62
     8
100
AcDbLine
 10
171.34702
 20
112.71204
 30
0.0
 11
172.347145
 21
112.71204
 31
0.0
  0
LINE
  5
3A6
100
AcDbEntity
  8
0
  6
Continuous
 62
     8
100
AcDbLine
 10
173.347057
 20
112.71204
 30
0.0
 11
178.182623
 21
112.71204
 31
0.0
  0
LINE
  5
3A7
100
AcDbEntity
  8
0
  6
Continuous
 62
     8
100
AcDbLine
 10
179.182536
 20
112.71204
 30
0.0
 11
180.182661
 21
112.71204
 31
0.0
  0
LINE
  5
3A8
100
AcDbEntity
  8
0
  6
Continuous
 62
     8
100
AcDbLine
 10
181.182573
 20
112.71204
 30
0.0
 11
186.018139
 21
112.71204
 31
0.0
  0
ENDBLK
  5
3A9
100
AcDbEntity
  8
0
100
AcDbBlockEnd
  0
BLOCK
  5
3AC
100
AcDbEntity
  8
0
100
AcDbBlockBegin
  2
*B56
 70
     0
 10
0.0
 20
0.0
 30
0.0
  3
*B56
  1

  0
LINE
  5
3AD
100
AcDbEntity
  8
0
  6
Continuous
 62
     8
100
AcDbLine
 10
60.476119
 20
125.211478
 30
0.0
 11
65.494163
 21
125.211478
 31
0.0
  0
LINE
  5
3AE
100
AcDbEntity
  8
0
  6
Continuous
 62
     8
100
AcDbLine
 10
66.494287
 20
125.211478
 30
0.0
 11
67.4942
 21
125.211478
 31
0.0
  0
LINE
  5
3AF
100
AcDbEntity
  8
0
  6
Continuous
 62
     8
100
AcDbLine
 10
68.494325
 20
125.211478
 30
0.0
 11
73.512369
 21
125.211478
 31
0.0
  0
LINE
  5
3B0
100
AcDbEntity
  8
0
  6
Continuous
 62
     8
100
AcDbLine
 10
74.512494
 20
125.211478
 30
0.0
 11
75.512406
 21
125.211478
 31
0.0
  0
LINE
  5
3B1
100
AcDbEntity
  8
0
  6
Continuous
 62
     8
100
AcDbLine
 10
76.512319
 20
125.211478
 30
0.0
 11
81.530575
 21
125.211478
 31
0.0
  0
LINE
  5
3B2
100
AcDbEntity
  8
0
  6
Continuous
 62
     8
100
AcDbLine
 10
82.530488
 20
125.211478
 30
0.0
 11
83.530613
 21
125.211478
 31
0.0
  0
LINE
  5
3B3
100
AcDbEntity
  8
0
  6
Continuous
 62
     8
100
AcDbLine
 10
84.530525
 20
125.211478
 30
0.0
 11
89.548782
 21
125.211478
 31
0.0
  0
LINE
  5
3B4
100
AcDbEntity
  8
0
  6
Continuous
 62
     8
100
AcDbLine
 10
90.548694
 20
125.211478
 30
0.0
 11
91.548819
 21
125.211478
 31
0.0
  0
LINE
  5
3B5
100
AcDbEntity
  8
0
  6
Continuous
 62
     8
100
AcDbLine
 10
92.548732
 20
125.211478
 30
0.0
 11
97.566988
 21
125.211478
 31
0.0
  0
LINE
  5
3B6
100
AcDbEntity
  8
0
  6
Continuous
 62
     8
100
AcDbLine
 10
98.5669
 20
125.211478
 30
0.0
 11
99.567025
 21
125.211478
 31
0.0
  0
LINE
  5
3B7
100
AcDbEntity
  8
0
  6
Continuous
 62
     8
100
AcDbLine
 10
100.566938
 20
125.211478
 30
0.0
 11
105.585194
 21
125.211478
 31
0.0
  0
LINE
  5
3B8
100
AcDbEntity
  8
0
  6
Continuous
 62
     8
100
AcDbLine
 10
106.585107
 20
125.211478
 30
0.0
 11
107.585232
 21
125.211478
 31
0.0
  0
LINE
  5
3B9
100
AcDbEntity
  8
0
  6
Continuous
 62
     8
100
AcDbLine
 10
108.585144
 20
125.211478
 30
0.0
 11
113.603401
 21
125.211478
 31
0.0
  0
LINE
  5
3BA
100
AcDbEntity
  8
0
  6
Continuous
 62
     8
100
AcDbLine
 10
114.603313
 20
125.211478
 30
0.0
 11
115.603226
 21
125.211478
 31
0.0
  0
LINE
  5
3BB
100
AcDbEntity
  8
0
  6
Continuous
 62
     8
100
AcDbLine
 10
116.603351
 20
125.211478
 30
0.0
 11
121.621395
 21
125.211478
 31
0.0
  0
LINE
  5
3BC
100
AcDbEntity
  8
0
  6
Continuous
 62
     8
100
AcDbLine
 10
122.62152
 20
125.211478
 30
0.0
 11
123.621432
 21
125.211478
 31
0.0
  0
LINE
  5
3BD
100
AcDbEntity
  8
0
  6
Continuous
 62
     8
100
AcDbLine
 10
124.621557
 20
125.211478
 30
0.0
 11
129.639601
 21
125.211478
 31
0.0
  0
LINE
  5
3BE
100
AcDbEntity
  8
0
  6
Continuous
 62
     8
100
AcDbLine
 10
130.639726
 20
125.211478
 30
0.0
 11
131.639638
 21
125.211478
 31
0.0
  0
LINE
  5
3BF
100
AcDbEntity
  8
0
  6
Continuous
 62
     8
100
AcDbLine
 10
132.639763
 20
125.211478
 30
0.0
 11
137.657807
 21
125.211478
 31
0.0
  0
LINE
  5
3C0
100
AcDbEntity
  8
0
  6
Continuous
 62
     8
100
AcDbLine
 10
138.657932
 20
125.211478
 30
0.0
 11
139.657845
 21
125.211478
 31
0.0
  0
LINE
  5
3C1
100
AcDbEntity
  8
0
  6
Continuous
 62
     8
100
AcDbLine
 10
140.657757
 20
125.211478
 30
0.0
 11
145.676014
 21
125.211478
 31
0.0
  0
LINE
  5
3C2
100
AcDbEntity
  8
0
  6
Continuous
 62
     8
100
AcDbLine
 10
146.675926
 20
125.211478
 30
0.0
 11
147.676051
 21
125.211478
 31
0.0
  0
LINE
  5
3C3
100
AcDbEntity
  8
0
  6
Continuous
 62
     8
100
AcDbLine
 10
148.675964
 20
125.211478
 30
0.0
 11
153.69422
 21
125.211478
 31
0.0
  0
LINE
  5
3C4
100
AcDbEntity
  8
0
  6
Continuous
 62
     8
100
AcDbLine
 10
154.694133
 20
125.211478
 30
0.0
 11
155.694257
 21
125.211478
 31
0.0
  0
LINE
  5
3C5
100
AcDbEntity
  8
0
  6
Continuous
 62
     8
100
AcDbLine
 10
156.69417
 20
125.211478
 30
0.0
 11
161.712426
 21
125.211478
 31
0.0
  0
LINE
  5
3C6
100
AcDbEntity
  8
0
  6
Continuous
 62
     8
100
AcDbLine
 10
162.712339
 20
125.211478
 30
0.0
 11
163.712464
 21
125.211478
 31
0.0
  0
LINE
  5
3C7
100
AcDbEntity
  8
0
  6
Continuous
 62
     8
100
AcDbLine
 10
164.712376
 20
125.211478
 30
0.0
 11
169.730633
 21
125.211478
 31
0.0
  0
LINE
  5
3C8
100
AcDbEntity
  8
0
  6
Continuous
 62
     8
100
AcDbLine
 10
170.730545
 20
125.211478
 30
0.0
 11
171.730458
 21
125.211478
 31
0.0
  0
LINE
  5
3C9
100
AcDbEntity
  8
0
  6
Continuous
 62
     8
100
AcDbLine
 10
172.730583
 20
125.211478
 30
0.0
 11
177.748627
 21
125.211478
 31
0.0
  0
LINE
  5
3CA
100
AcDbEntity
  8
0
  6
Continuous
 62
     8
100
AcDbLine
 10
178.748752
 20
125.211478
 30
0.0
 11
179.748664
 21
125.211478
 31
0.0
  0
LINE
  5
3CB
100
AcDbEntity
  8
0
  6
Continuous
 62
     8
100
AcDbLine
 10
180.748789
 20
125.211478
 30
0.0
 11
185.766833
 21
125.211478
 31
0.0
  0
LINE
  5
3CC
100
AcDbEntity
  8
0
  6
Continuous
 62
     8
100
AcDbLine
 10
186.766958
 20
125.211478
 30
0.0
 11
187.76687
 21
125.211478
 31
0.0
  0
LINE
  5
3CD
100
AcDbEntity
  8
0
  6
Continuous
 62
     8
100
AcDbLine
 10
188.766995
 20
125.211478
 30
0.0
 11
193.785039
 21
125.211478
 31
0.0
  0
LINE
  5
3CE
100
AcDbEntity
  8
0
  6
Continuous
 62
     8
100
AcDbLine
 10
194.785164
 20
125.211478
 30
0.0
 11
195.785077
 21
125.211478
 31
0.0
  0
LINE
  5
3CF
100
AcDbEntity
  8
0
  6
Continuous
 62
     8
100
AcDbLine
 10
196.784989
 20
125.211478
 30
0.0
 11
201.803246
 21
125.211478
 31
0.0
  0
LINE
  5
3D0
100
AcDbEntity
  8
0
  6
Continuous
 62
     8
100
AcDbLine
 10
202.803158
 20
125.211478
 30
0.0
 11
203.803283
 21
125.211478
 31
0.0
  0
LINE
  5
3D1
100
AcDbEntity
  8
0
  6
Continuous
 62
     8
100
AcDbLine
 10
204.803196
 20
125.211478
 30
0.0
 11
209.821452
 21
125.211478
 31
0.0
  0
LINE
  5
3D2
100
AcDbEntity
  8
0
  6
Continuous
 62
     8
100
AcDbLine
 10
210.821365
 20
125.211478
 30
0.0
 11
211.82149
 21
125.211478
 31
0.0
  0
LINE
  5
3D3
100
AcDbEntity
  8
0
  6
Continuous
 62
     8
100
AcDbLine
 10
212.821402
 20
125.211478
 30
0.0
 11
217.839658
 21
125.211478
 31
0.0
  0
LINE
  5
3D4
100
AcDbEntity
  8
0
  6
Continuous
 62
     8
100
AcDbLine
 10
218.839571
 20
125.211478
 30
0.0
 11
219.839696
 21
125.211478
 31
0.0
  0
LINE
  5
3D5
100
AcDbEntity
  8
0
  6
Continuous
 62
     8
100
AcDbLine
 10
220.839608
 20
125.211478
 30
0.0
 11
225.857865
 21
125.211478
 31
0.0
  0
LINE
  5
3D6
100
AcDbEntity
  8
0
  6
Continuous
 62
     8
100
AcDbLine
 10
226.857777
 20
125.211478
 30
0.0
 11
227.85769
 21
125.211478
 31
0.0
  0
LINE
  5
3D7
100
AcDbEntity
  8
0
  6
Continuous
 62
     8
100
AcDbLine
 10
228.857815
 20
125.211478
 30
0.0
 11
233.875859
 21
125.211478
 31
0.0
  0
ENDBLK
  5
3D8
100
AcDbEntity
  8
0
100
AcDbBlockEnd
  0
BLOCK
  5
3DB
100
AcDbEntity
  8
0
100
AcDbBlockBegin
  2
*B57
 70
     0
 10
0.0
 20
0.0
 30
0.0
  3
*B57
  1

  0
LINE
  5
3DC
100
AcDbEntity
  8
0
  6
Continuous
 62
     8
100
AcDbLine
 10
208.175962
 20
43.596355
 30
0.0
 11
208.175962
 21
48.346099
 31
0.0
  0
LINE
  5
3DD
100
AcDbEntity
  8
0
  6
Continuous
 62
     8
100
AcDbLine
 10
208.175962
 20
51.345836
 30
0.0
 11
208.175962
 21
56.09558
 31
0.0
  0
ENDBLK
  5
3DE
100
AcDbEntity
  8
0
100
AcDbBlockEnd
  0
BLOCK
  5
3E1
100
AcDbEntity
  8
0
100
AcDbBlockBegin
  2
*B58
 70
     0
 10
0.0
 20
0.0
 30
0.0
  3
*B58
  1

  0
LINE
  5
3E2
100
AcDbEntity
  8
0
  6
Continuous
 62
     8
100
AcDbLine
 10
52.676079
 20
163.209215
 30
0.0
 11
59.009283
 21
163.209215
 31
0.0
  0
LINE
  5
3E3
100
AcDbEntity
  8
0
  6
Continuous
 62
     8
100
AcDbLine
 10
60.009408
 20
163.209215
 30
0.0
 11
61.00932
 21
163.209215
 31
0.0
  0
LINE
  5
3E4
100
AcDbEntity
  8
0
  6
Continuous
 62
     8
100
AcDbLine
 10
62.009445
 20
163.209215
 30
0.0
 11
68.342649
 21
163.209215
 31
0.0
  0
LINE
  5
3E5
100
AcDbEntity
  8
0
  6
Continuous
 62
     8
100
AcDbLine
 10
69.342774
 20
163.209215
 30
0.0
 11
70.342687
 21
163.209215
 31
0.0
  0
LINE
  5
3E6
100
AcDbEntity
  8
0
  6
Continuous
 62
     8
100
AcDbLine
 10
71.342812
 20
163.209215
 30
0.0
 11
77.676016
 21
163.209215
 31
0.0
  0
ENDBLK
  5
3E7
100
AcDbEntity
  8
0
100
AcDbBlockEnd
  0
BLOCK
  5
3EA
100
AcDbEntity
  8
0
100
AcDbBlockBegin
  2
*B59
 70
     0
 10
0.0
 20
0.0
 30
0.0
  3
*B59
  1

  0
LINE
  5
3EB
100
AcDbEntity
  8
0
  6
Continuous
 62
     8
100
AcDbLine
 10
216.675962
 20
163.209215
 30
0.0
 11
222.676074
 21
163.209215
 31
0.0
  0
LINE
  5
3EC
100
AcDbEntity
  8
0
  6
Continuous
 62
     8
100
AcDbLine
 10
223.675987
 20
163.209215
 30
0.0
 11
224.675899
 21
163.209215
 31
0.0
  0
LINE
  5
3ED
100
AcDbEntity
  8
0
  6
Continuous
 62
     8
100
AcDbLine
 10
225.676024
 20
163.209215
 30
0.0
 11
231.675924
 21
163.209215
 31
0.0
  0
LINE
  5
3EE
100
AcDbEntity
  8
0
  6
Continuous
 62
     8
100
AcDbLine
 10
232.676049
 20
163.209215
 30
0.0
 11
233.675961
 21
163.209215
 31
0.0
  0
LINE
  5
3EF
100
AcDbEntity
  8
0
  6
Continuous
 62
     8
100
AcDbLine
 10
234.675874
 20
163.209215
 30
0.0
 11
240.675986
 21
163.209215
 31
0.0
  0
ENDBLK
  5
3F0
100
AcDbEntity
  8
0
100
AcDbBlockEnd
  0
BLOCK
  5
3F3
100
AcDbEntity
  8
0
100
AcDbBlockBegin
  2
*B60
 70
     0
 10
0.0
 20
0.0
 30
0.0
  3
*B60
  1

  0
LINE
  5
3F4
100
AcDbEntity
  8
0
  6
Continuous
 62
     8
100
AcDbLine
 10
138.175926
 20
42.471321
 30
0.0
 11
138.175926
 21
48.346099
 31
0.0
  0
LINE
  5
3F5
100
AcDbEntity
  8
0
  6
Continuous
 62
     8
100
AcDbLine
 10
138.175926
 20
51.345836
 30
0.0
 11
138.175926
 21
57.220614
 31
0.0
  0
ENDBLK
  5
3F6
100
AcDbEntity
  8
0
100
AcDbBlockEnd
  0
BLOCK
  5
3F9
100
AcDbEntity
  8
0
100
AcDbBlockBegin
  2
*B61
 70
     0
 10
0.0
 20
0.0
 30
0.0
  3
*B61
  1

  0
LINE
  5
3FA
100
AcDbEntity
  8
0
  6
Continuous
 62
     6
100
AcDbLine
 10
52.176016
 20
49.346011
 30
0.0
 11
52.176016
 21
50.345924
 31
0.0
  0
LINE
  5
3FB
100
AcDbEntity
  8
0
  6
Continuous
 62
     6
100
AcDbLine
 10
51.675954
 20
49.846074
 30
0.0
 11
52.676079
 21
49.846074
 31
0.0
  0
ENDBLK
  5
3FC
100
AcDbEntity
  8
0
100
AcDbBlockEnd
  0
BLOCK
  5
3FF
100
AcDbEntity
  8
0
100
AcDbBlockBegin
  2
*B62
 70
     0
 10
0.0
 20
0.0
 30
0.0
  3
*B62
  1

  0
LINE
  5
400
100
AcDbEntity
  8
0
  6
Continuous
 62
     6
100
AcDbLine
 10
137.676076
 20
112.71204
 30
0.0
 11
138.675989
 21
112.71204
 31
0.0
  0
LINE
  5
401
100
AcDbEntity
  8
0
  6
Continuous
 62
     6
100
AcDbLine
 10
138.175926
 20
112.21219
 30
0.0
 11
138.175926
 21
113.212103
 31
0.0
  0
ENDBLK
  5
402
100
AcDbEntity
  8
0
100
AcDbBlockEnd
  0
BLOCK
  5
405
100
AcDbEntity
  8
0
100
AcDbBlockBegin
  2
*B63
 70
     0
 10
0.0
 20
0.0
 30
0.0
  3
*B63
  1

  0
LINE
  5
406
100
AcDbEntity
  8
0
  6
Continuous
 62
     6
100
AcDbLine
 10
137.676076
 20
49.846074
 30
0.0
 11
138.675989
 21
49.846074
 31
0.0
  0
LINE
  5
407
100
AcDbEntity
  8
0
  6
Continuous
 62
     6
100
AcDbLine
 10
138.175926
 20
49.346011
 30
0.0
 11
138.175926
 21
50.345924
 31
0.0
  0
ENDBLK
  5
408
100
AcDbEntity
  8
0
100
AcDbBlockEnd
  0
BLOCK
  5
40B
100
AcDbEntity
  8
0
100
AcDbBlockBegin
  2
*B64
 70
     0
 10
0.0
 20
0.0
 30
0.0
  3
*B64
  1

  0
LINE
  5
40C
100
AcDbEntity
  8
0
  6
Continuous
 62
     6
100
AcDbLine
 10
128.676014
 20
137.710703
 30
0.0
 11
129.675927
 21
137.710703
 31
0.0
  0
LINE
  5
40D
100
AcDbEntity
  8
0
  6
Continuous
 62
     6
100
AcDbLine
 10
129.176077
 20
137.21064
 30
0.0
 11
129.176077
 21
138.210553
 31
0.0
  0
ENDBLK
  5
40E
100
AcDbEntity
  8
0
100
AcDbBlockEnd
  0
BLOCK
  5
411
100
AcDbEntity
  8
0
100
AcDbBlockBegin
  2
*B65
 70
     0
 10
0.0
 20
0.0
 30
0.0
  3
*B65
  1

  0
LINE
  5
412
100
AcDbEntity
  8
0
  6
Continuous
 62
     6
100
AcDbLine
 10
165.175901
 20
137.21064
 30
0.0
 11
165.175901
 21
138.210553
 31
0.0
  0
LINE
  5
413
100
AcDbEntity
  8
0
  6
Continuous
 62
     6
100
AcDbLine
 10
164.676051
 20
137.710703
 30
0.0
 11
165.675963
 21
137.710703
 31
0.0
  0
ENDBLK
  5
414
100
AcDbEntity
  8
0
100
AcDbBlockEnd
  0
BLOCK
  5
417
100
AcDbEntity
  8
0
100
AcDbBlockBegin
  2
*B66
 70
     0
 10
0.0
 20
0.0
 30
0.0
  3
*B66
  1

  0
LINE
  5
418
100
AcDbEntity
  8
0
  6
Continuous
 62
     6
100
AcDbLine
 10
181.67605
 20
49.846074
 30
0.0
 11
182.675963
 21
49.846074
 31
0.0
  0
LINE
  5
419
100
AcDbEntity
  8
0
  6
Continuous
 62
     6
100
AcDbLine
 10
182.1759
 20
49.346011
 30
0.0
 11
182.1759
 21
50.345924
 31
0.0
  0
ENDBLK
  5
41A
100
AcDbEntity
  8
0
100
AcDbBlockEnd
  0
BLOCK
  5
41D
100
AcDbEntity
  8
0
100
AcDbBlockBegin
  2
*B67
 70
     0
 10
0.0
 20
0.0
 30
0.0
  3
*B67
  1

  0
LINE
  5
41E
100
AcDbEntity
  8
0
  6
Continuous
 62
     6
100
AcDbLine
 10
207.6759
 20
49.846074
 30
0.0
 11
208.676024
 21
49.846074
 31
0.0
  0
LINE
  5
41F
100
AcDbEntity
  8
0
  6
Continuous
 62
     6
100
AcDbLine
 10
208.175962
 20
49.346011
 30
0.0
 11
208.175962
 21
50.345924
 31
0.0
  0
ENDBLK
  5
420
100
AcDbEntity
  8
0
100
AcDbBlockEnd
  0
BLOCK
  5
423
100
AcDbEntity
  8
0
100
AcDbBlockBegin
  2
*B68
 70
     0
 10
0.0
 20
0.0
 30
0.0
  3
*B68
  1

  0
LINE
  5
424
100
AcDbEntity
  8
0
  6
Continuous
 62
     6
100
AcDbLine
 10
156.176051
 20
112.21219
 30
0.0
 11
156.176051
 21
113.212103
 31
0.0
  0
LINE
  5
425
100
AcDbEntity
  8
0
  6
Continuous
 62
     6
100
AcDbLine
 10
155.675988
 20
112.71204
 30
0.0
 11
156.676113
 21
112.71204
 31
0.0
  0
ENDBLK
  5
426
100
AcDbEntity
  8
0
100
AcDbBlockEnd
  0
BLOCK
  5
429
100
AcDbEntity
  8
0
100
AcDbBlockBegin
  2
*B69
 70
     0
 10
0.0
 20
0.0
 30
0.0
  3
*B69
  1

  0
LINE
  5
42A
100
AcDbEntity
  8
0
  6
Continuous
 62
     6
100
AcDbLine
 10
111.676015
 20
49.846074
 30
0.0
 11
112.67614
 21
49.846074
 31
0.0
  0
LINE
  5
42B
100
AcDbEntity
  8
0
  6
Continuous
 62
     6
100
AcDbLine
 10
112.176077
 20
49.346011
 30
0.0
 11
112.176077
 21
50.345924
 31
0.0
  0
ENDBLK
  5
42C
100
AcDbEntity
  8
0
100
AcDbBlockEnd
  0
BLOCK
  5
42F
100
AcDbEntity
  8
0
100
AcDbBlockBegin
  2
*B70
 70
     0
 10
0.0
 20
0.0
 30
0.0
  3
*B70
  1

  0
LINE
  5
430
100
AcDbEntity
  8
0
  6
Continuous
 62
     6
100
AcDbLine
 10
51.675954
 20
163.209215
 30
0.0
 11
52.676079
 21
163.209215
 31
0.0
  0
LINE
  5
431
100
AcDbEntity
  8
0
  6
Continuous
 62
     6
100
AcDbLine
 10
52.176016
 20
162.709365
 30
0.0
 11
52.176016
 21
163.709277
 31
0.0
  0
ENDBLK
  5
432
100
AcDbEntity
  8
0
100
AcDbBlockEnd
  0
BLOCK
  5
435
100
AcDbEntity
  8
0
100
AcDbBlockBegin
  2
*B71
 70
     0
 10
0.0
 20
0.0
 30
0.0
  3
*B71
  1

  0
LINE
  5
436
100
AcDbEntity
  8
0
  6
Continuous
 62
     6
100
AcDbLine
 10
156.176051
 20
49.346011
 30
0.0
 11
156.176051
 21
50.345924
 31
0.0
  0
LINE
  5
437
100
AcDbEntity
  8
0
  6
Continuous
 62
     6
100
AcDbLine
 10
155.675988
 20
49.846074
 30
0.0
 11
156.676113
 21
49.846074
 31
0.0
  0
ENDBLK
  5
438
100
AcDbEntity
  8
0
100
AcDbBlockEnd
  0
BLOCK
  5
43B
100
AcDbEntity
  8
0
100
AcDbBlockBegin
  2
*B72
 70
     0
 10
0.0
 20
0.0
 30
0.0
  3
*B72
  1

  0
LINE
  5
43C
100
AcDbEntity
  8
0
  6
Continuous
 62
     6
100
AcDbLine
 10
241.675899
 20
163.209215
 30
0.0
 11
242.676023
 21
163.209215
 31
0.0
  0
LINE
  5
43D
100
AcDbEntity
  8
0
  6
Continuous
 62
     6
100
AcDbLine
 10
242.175961
 20
162.709365
 30
0.0
 11
242.175961
 21
163.709277
 31
0.0
  0
ENDBLK
  5
43E
100
AcDbEntity
  8
0
100
AcDbBlockEnd
  0
BLOCK
  5
441
100
AcDbEntity
  8
0
100
AcDbBlockBegin
  2
*B73
 70
     0
 10
0.0
 20
0.0
 30
0.0
  3
*B73
  1

  0
LINE
  5
442
100
AcDbEntity
  8
0
  6
Continuous
 62
     6
100
AcDbLine
 10
86.176015
 20
49.346011
 30
0.0
 11
86.176015
 21
50.345924
 31
0.0
  0
LINE
  5
443
100
AcDbEntity
  8
0
  6
Continuous
 62
     6
100
AcDbLine
 10
85.675953
 20
49.846074
 30
0.0
 11
86.676078
 21
49.846074
 31
0.0
  0
ENDBLK
  5
444
100
AcDbEntity
  8
0
100
AcDbBlockEnd
  0
BLOCK
  5
447
100
AcDbEntity
  8
0
100
AcDbBlockBegin
  2
*B74
 70
     0
 10
0.0
 20
0.0
 30
0.0
  3
*B74
  1

  0
TEXT
  5
448
100
AcDbEntity
  8
TEXT
  6
Continuous
 62
     0
100
AcDbText
 10
164.0886
 20
109.5
 30
0.0
 40
4.0
  1
3
100
AcDbText
  0
ENDBLK
  5
449
100
AcDbEntity
  8
0
100
AcDbBlockEnd
  0
BLOCK
  5
44C
100
AcDbEntity
  8
0
100
AcDbBlockBegin
  2
*B75
 70
     0
 10
0.0
 20
0.0
 30
0.0
  3
*B75
  1

  0
TEXT
  5
44D
100
AcDbEntity
  8
TEXT
  6
Continuous
 62
     0
100
AcDbText
 10
127.5886
 20
109.5
 30
0.0
 40
4.0
  1
5
100
AcDbText
  0
ENDBLK
  5
44E
100
AcDbEntity
  8
0
100
AcDbBlockEnd
  0
BLOCK
  5
451
100
AcDbEntity
  8
0
100
AcDbBlockBegin
  2
*B76
 70
     0
 10
0.0
 20
0.0
 30
0.0
  3
*B76
  1

  0
TEXT
  5
452
100
AcDbEntity
  8
TEXT
  6
Continuous
 62
     0
100
AcDbText
 10
154.5886
 20
137.0
 30
0.0
 40
4.0
  1
2
100
AcDbText
  0
ENDBLK
  5
453
100
AcDbEntity
  8
0
100
AcDbBlockEnd
  0
BLOCK
  5
456
100
AcDbEntity
  8
0
100
AcDbBlockBegin
  2
*B77
 70
     0
 10
0.0
 20
0.0
 30
0.0
  3
*B77
  1

  0
TEXT
  5
457
100
AcDbEntity
  8
TEXT
  6
Continuous
 62
     0
100
AcDbText
 10
145.5886
 20
109.5
 30
0.0
 40
4.0
  1
1
100
AcDbText
  0
ENDBLK
  5
458
100
AcDbEntity
  8
0
100
AcDbBlockEnd
  0
BLOCK
  5
45B
100
AcDbEntity
  8
0
100
AcDbBlockBegin
  2
*B78
 70
     0
 10
0.0
 20
0.0
 30
0.0
  3
*B78
  1

  0
TEXT
  5
45C
100
AcDbEntity
  8
TEXT
  6
Continuous
 62
     0
100
AcDbText
 10
136.5886
 20
137.0
 30
0.0
 40
4.0
  1
4
100
AcDbText
  0
ENDBLK
  5
45D
100
AcDbEntity
  8
0
100
AcDbBlockEnd
  0
BLOCK
  5
460
100
AcDbEntity
  8
0
100
AcDbBlockBegin
  2
*B79
 70
     0
 10
0.0
 20
0.0
 30
0.0
  3
*B79
  1

  0
TEXT
  5
461
100
AcDbEntity
  8
TEXT
  6
Continuous
 62
     0
100
AcDbText
 10
107.6
 20
48.2886
 30
0.0
 40
4.0
  1
1
 50
90.0
100
AcDbText
  0
ENDBLK
  5
462
100
AcDbEntity
  8
0
100
AcDbBlockEnd
  0
BLOCK
  5
465
100
AcDbEntity
  8
0
100
AcDbBlockBegin
  2
*B80
 70
     0
 10
0.0
 20
0.0
 30
0.0
  3
*B80
  1

  0
TEXT
  5
466
100
AcDbEntity
  8
TEXT
  6
Continuous
 62
     0
100
AcDbText
 10
114.0
 20
42.1886
 30
0.0
 40
4.0
  1
0
 50
90.0
100
AcDbText
  0
ENDBLK
  5
467
100
AcDbEntity
  8
0
100
AcDbBlockEnd
  0
BLOCK
  5
46A
100
AcDbEntity
  8
0
100
AcDbBlockBegin
  2
*B81
 70
     0
 10
0.0
 20
0.0
 30
0.0
  3
*B81
  1

  0
TEXT
  5
46B
100
AcDbEntity
  8
TEXT
  6
Continuous
 62
     0
100
AcDbText
 10
119.1772
 20
123.5
 30
0.0
 40
4.0
  1
14
100
AcDbText
  0
ENDBLK
  5
46C
100
AcDbEntity
  8
0
100
AcDbBlockEnd
  0
BLOCK
  5
46F
100
AcDbEntity
  8
0
100
AcDbBlockBegin
  2
*B82
 70
     0
 10
0.0
 20
0.0
 30
0.0
  3
*B82
  1

  0
TEXT
  5
470
100
AcDbEntity
  8
TEXT
  6
Continuous
 62
     0
100
AcDbText
 10
169.6772
 20
123.5
 30
0.0
 40
4.0
  1
12
100
AcDbText
  0
ENDBLK
  5
471
100
AcDbEntity
  8
0
100
AcDbBlockEnd
  0
BLOCK
  5
474
100
AcDbEntity
  8
0
100
AcDbBlockBegin
  2
*B83
 70
     0
 10
0.0
 20
0.0
 30
0.0
  3
*B83
  1

  0
TEXT
  5
475
100
AcDbEntity
  8
TEXT
  6
Continuous
 62
     0
100
AcDbText
 10
186.7
 20
51.4114
 30
0.0
 40
4.0
  1
1
 50
-90.0
100
AcDbText
  0
ENDBLK
  5
476
100
AcDbEntity
  8
0
100
AcDbBlockEnd
  0
BLOCK
  5
479
100
AcDbEntity
  8
0
100
AcDbBlockBegin
  2
*B84
 70
     0
 10
0.0
 20
0.0
 30
0.0
  3
*B84
  1

  0
TEXT
  5
47A
100
AcDbEntity
  8
TEXT
  6
Continuous
 62
     0
100
AcDbText
 10
180.4
 20
57.5114
 30
0.0
 40
4.0
  1
0
 50
-90.0
100
AcDbText
  0
ENDBLK
  5
47B
100
AcDbEntity
  8
0
100
AcDbBlockEnd
  0
BLOCK
  5
47E
100
AcDbEntity
  8
0
100
AcDbBlockBegin
  2
*B85
 70
     0
 10
0.0
 20
0.0
 30
0.0
  3
*B85
  1

  0
TEXT
  5
47F
100
AcDbEntity
  8
TEXT
  6
Continuous
 62
     0
100
AcDbText
 10
37.358426
 20
97.5
 30
0.0
 40
5.0
  1
4 x 90%%d
100
AcDbText
  0
ENDBLK
  5
480
100
AcDbEntity
  8
0
100
AcDbBlockEnd
  0
BLOCK
  5
483
100
AcDbEntity
  8
0
100
AcDbBlockBegin
  2
*B86
 70
     0
 10
0.0
 20
0.0
 30
0.0
  3
*B86
  1

  0
TEXT
  5
484
100
AcDbEntity
  8
TEXT
  6
Continuous
 62
     0
100
AcDbText
 10
75.707249
 20
80.5
 30
0.0
 40
5.0
  1
180%%d
100
AcDbText
  0
ENDBLK
  5
485
100
AcDbEntity
  8
0
100
AcDbBlockEnd
  0
BLOCK
  5
488
100
AcDbEntity
  8
0
100
AcDbBlockBegin
  2
*B87
 70
     0
 10
0.0
 20
0.0
 30
0.0
  3
*B87
  1

  0
TEXT
  5
489
100
AcDbEntity
  8
TEXT
  6
Continuous
 62
     0
100
AcDbText
 10
73.550745
 20
186.5
 30
0.0
 40
3.0
  1
48
100
AcDbText
  0
ENDBLK
  5
48A
100
AcDbEntity
  8
0
100
AcDbBlockEnd
  0
BLOCK
  5
48D
100
AcDbEntity
  8
0
100
AcDbBlockBegin
  2
*B88
 70
     0
 10
0.0
 20
0.0
 30
0.0
  3
*B88
  1

  0
TEXT
  5
48E
100
AcDbEntity
  8
TEXT
  6
Continuous
 62
     0
100
AcDbText
 10
144.863245
 20
82.5
 30
0.0
 40
3.0
  1
92
100
AcDbText
  0
ENDBLK
  5
48F
100
AcDbEntity
  8
0
100
AcDbBlockEnd
  0
BLOCK
  5
492
100
AcDbEntity
  8
0
100
AcDbBlockBegin
  2
*B89
 70
     0
 10
0.0
 20
0.0
 30
0.0
  3
*B89
  1

  0
TEXT
  5
493
100
AcDbEntity
  8
TEXT
  6
Continuous
 62
     0
100
AcDbText
 10
120.205357
 20
95.5
 30
0.0
 40
3.0
  1
12
100
AcDbText
  0
ENDBLK
  5
494
100
AcDbEntity
  8
0
100
AcDbBlockEnd
  0
BLOCK
  5
497
100
AcDbEntity
  8
0
100
AcDbBlockBegin
  2
*B90
 70
     0
 10
0.0
 20
0.0
 30
0.0
  3
*B90
  1

  0
TEXT
  5
498
100
AcDbEntity
  8
TEXT
  6
Continuous
 62
     0
100
AcDbText
 10
135.863245
 20
95.5
 30
0.0
 40
3.0
  1
18
100
AcDbText
  0
ENDBLK
  5
499
100
AcDbEntity
  8
0
100
AcDbBlockEnd
  0
BLOCK
  5
49C
100
AcDbEntity
  8
0
100
AcDbBlockBegin
  2
*B91
 70
     0
 10
0.0
 20
0.0
 30
0.0
  3
*B91
  1

  0
TEXT
  5
49D
100
AcDbEntity
  8
TEXT
  6
Continuous
 62
     0
100
AcDbText
 10
153.863245
 20
95.5
 30
0.0
 40
3.0
  1
18
100
AcDbText
  0
ENDBLK
  5
49E
100
AcDbEntity
  8
0
100
AcDbBlockEnd
  0
BLOCK
  5
4A1
100
AcDbEntity
  8
0
100
AcDbBlockBegin
  2
*B92
 70
     0
 10
0.0
 20
0.0
 30
0.0
  3
*B92
  1

  0
TEXT
  5
4A2
100
AcDbEntity
  8
TEXT
  6
Continuous
 62
     0
100
AcDbText
 10
168.205357
 20
95.5
 30
0.0
 40
3.0
  1
12
100
AcDbText
  0
ENDBLK
  5
4A3
100
AcDbEntity
  8
0
100
AcDbBlockEnd
  0
BLOCK
  5
4A6
100
AcDbEntity
  8
0
100
AcDbBlockBegin
  2
*B93
 70
     0
 10
0.0
 20
0.0
 30
0.0
  3
*B93
  1

  0
TEXT
  5
4A7
100
AcDbEntity
  8
TEXT
  6
Continuous
 62
     0
100
AcDbText
 10
144.863245
 20
155.5
 30
0.0
 40
3.0
  1
18
100
AcDbText
  0
ENDBLK
  5
4A8
100
AcDbEntity
  8
0
100
AcDbBlockEnd
  0
BLOCK
  5
4AB
100
AcDbEntity
  8
0
100
AcDbBlockBegin
  2
*B94
 70
     0
 10
0.0
 20
0.0
 30
0.0
  3
*B94
  1

  0
TEXT
  5
4AC
100
AcDbEntity
  8
TEXT
  6
Continuous
 62
     0
100
AcDbText
 10
144.863245
 20
166.5
 30
0.0
 40
3.0
  1
36
100
AcDbText
  0
ENDBLK
  5
4AD
100
AcDbEntity
  8
0
100
AcDbBlockEnd
  0
BLOCK
  5
4B0
100
AcDbEntity
  8
0
100
AcDbBlockBegin
  2
*B95
 70
     0
 10
0.0
 20
0.0
 30
0.0
  3
*B95
  1

  0
TEXT
  5
4B1
100
AcDbEntity
  8
TEXT
  6
Continuous
 62
     0
100
AcDbText
 10
110.891071
 20
155.5
 30
0.0
 40
3.0
  1
%%c4,5
100
AcDbText
  0
ENDBLK
  5
4B2
100
AcDbEntity
  8
0
100
AcDbBlockEnd
  0
BLOCK
  5
4B5
100
AcDbEntity
  8
0
100
AcDbBlockBegin
  2
*B96
 70
     0
 10
0.0
 20
0.0
 30
0.0
  3
*B96
  1

  0
TEXT
  5
4B6
100
AcDbEntity
  8
TEXT
  6
Continuous
 62
     0
100
AcDbText
 10
186.5
 20
122.905624
 30
0.0
 40
3.0
  1
25
 50
90.0
100
AcDbText
  0
ENDBLK
  5
4B7
100
AcDbEntity
  8
0
100
AcDbBlockEnd
  0
BLOCK
  5
4BA
100
AcDbEntity
  8
0
100
AcDbBlockBegin
  2
*B97
 70
     0
 10
0.0
 20
0.0
 30
0.0
  3
*B97
  1

  0
TEXT
  5
4BB
100
AcDbEntity
  8
TEXT
  6
Continuous
 62
     0
100
AcDbText
 10
241.5
 20
122.905624
 30
0.0
 40
3.0
  1
36
 50
90.0
100
AcDbText
  0
ENDBLK
  5
4BC
100
AcDbEntity
  8
0
100
AcDbBlockEnd
  0
BLOCK
  5
4BF
100
AcDbEntity
  8
0
100
AcDbBlockBegin
  2
*B98
 70
     0
 10
0.0
 20
0.0
 30
0.0
  3
*B98
  1

  0
TEXT
  5
4C0
100
AcDbEntity
  8
TEXT
  6
Continuous
 62
     0
100
AcDbText
 10
41.5
 20
137.405399
 30
0.0
 40
3.0
  1
65
 50
90.0
100
AcDbText
  0
ENDBLK
  5
4C1
100
AcDbEntity
  8
0
100
AcDbBlockEnd
  0
BLOCK
  5
4C4
100
AcDbEntity
  8
0
100
AcDbBlockBegin
  2
*B99
 70
     0
 10
0.0
 20
0.0
 30
0.0
  3
*B99
  1

  0
TEXT
  5
4C5
100
AcDbEntity
  8
TEXT
  6
Continuous
 62
     0
100
AcDbText
 10
164.785714
 20
71.5
 30
0.0
 40
3.0
  1
G 1/8"
100
AcDbText
  0
ENDBLK
  5
4C6
100
AcDbEntity
  8
0
100
AcDbBlockEnd
  0
BLOCK
  5
4C9
100
AcDbEntity
  8
0
100
AcDbBlockBegin
  2
*B100
 70
     0
 10
0.0
 20
0.0
 30
0.0
  3
*B100
  1

  0
TEXT
  5
4CA
100
AcDbEntity
  8
TEXT
  6
Continuous
 62
     0
100
AcDbText
 10
41.5
 20
47.535981
 30
0.0
 40
3.0
  1
22
 50
90.0
100
AcDbText
  0
ENDBLK
  5
4CB
100
AcDbEntity
  8
0
100
AcDbBlockEnd
  0
BLOCK
  5
4CE
100
AcDbEntity
  8
0
100
AcDbBlockBegin
  2
*B101
 70
     0
 10
0.0
 20
0.0
 30
0.0
  3
*B101
  1

  0
TEXT
  5
4CF
100
AcDbEntity
  8
TEXT
  6
Continuous
 62
     0
100
AcDbText
 10
215.050745
 20
186.5
 30
0.0
 40
3.0
  1
48
100
AcDbText
  0
ENDBLK
  5
4D0
100
AcDbEntity
  8
0
100
AcDbBlockEnd
  0
ENDSEC
  0
SECTION
  2
ENTITIES
  0
INSERT
  5
150
100
AcDbEntity
  8
0
  6
HIDDEN
 62
   174
100
AcDbBlockReference
  2
*B1
 10
0.0
 20
0.0
 30
0.0
  0
INSERT
  5
20C
100
AcDbEntity
  8
0
  6
Continuous
 62
   174
100
AcDbBlockReference
  2
*B2
 10
0.0
 20
0.0
 30
0.0
  0
INSERT
  5
212
100
AcDbEntity
  8
0
  6
Continuous
 62
   172
100
AcDbBlockReference
  2
*B3
 10
0.0
 20
0.0
 30
0.0
  0
INSERT
  5
21D
100
AcDbEntity
  8
0
  6
Continuous
 62
   172
100
AcDbBlockReference
  2
*B4
 10
0.0
 20
0.0
 30
0.0
  0
INSERT
  5
226
100
AcDbEntity
  8
0
  6
Continuous
 62
   172
100
AcDbBlockReference
  2
*B6
 10
0.0
 20
0.0
 30
0.0
  0
INSERT
  5
231
100
AcDbEntity
  8
0
  6
Continuous
 62
   172
100
AcDbBlockReference
  2
*B7
 10
0.0
 20
0.0
 30
0.0
  0
INSERT
  5
23B
100
AcDbEntity
  8
0
  6
Continuous
 62
     0
100
AcDbBlockReference
  2
*B9
 10
0.0
 20
0.0
 30
0.0
  0
INSERT
  5
242
100
AcDbEntity
  8
0
  6
Continuous
 62
     0
100
AcDbBlockReference
  2
*B10
 10
0.0
 20
0.0
 30
0.0
  0
INSERT
  5
249
100
AcDbEntity
  8
0
  6
Continuous
 62
     0
100
AcDbBlockReference
  2
*B11
 10
0.0
 20
0.0
 30
0.0
  0
INSERT
  5
250
100
AcDbEntity
  8
0
  6
Continuous
 62
     0
100
AcDbBlockReference
  2
*B12
 10
0.0
 20
0.0
 30
0.0
  0
INSERT
  5
257
100
AcDbEntity
  8
0
  6
Continuous
 62
     0
100
AcDbBlockReference
  2
*B13
 10
0.0
 20
0.0
 30
0.0
  0
INSERT
  5
25E
100
AcDbEntity
  8
0
  6
Continuous
 62
     0
100
AcDbBlockReference
  2
*B14
 10
0.0
 20
0.0
 30
0.0
  0
INSERT
  5
265
100
AcDbEntity
  8
0
  6
Continuous
 62
     0
100
AcDbBlockReference
  2
*B15
 10
0.0
 20
0.0
 30
0.0
  0
INSERT
  5
26C
100
AcDbEntity
  8
0
  6
Continuous
 62
     0
100
AcDbBlockReference
  2
*B16
 10
0.0
 20
0.0
 30
0.0
  0
INSERT
  5
273
100
AcDbEntity
  8
0
  6
Continuous
 62
     0
100
AcDbBlockReference
  2
*B17
 10
0.0
 20
0.0
 30
0.0
  0
INSERT
  5
27A
100
AcDbEntity
  8
0
  6
Continuous
 62
     0
100
AcDbBlockReference
  2
*B18
 10
0.0
 20
0.0
 30
0.0
  0
INSERT
  5
281
100
AcDbEntity
  8
0
  6
Continuous
 62
     0
100
AcDbBlockReference
  2
*B19
 10
0.0
 20
0.0
 30
0.0
  0
INSERT
  5
288
100
AcDbEntity
  8
0
  6
Continuous
 62
     0
100
AcDbBlockReference
  2
*B20
 10
0.0
 20
0.0
 30
0.0
  0
INSERT
  5
28F
100
AcDbEntity
  8
0
  6
Continuous
 62
     0
100
AcDbBlockReference
  2
*B21
 10
0.0
 20
0.0
 30
0.0
  0
INSERT
  5
296
100
AcDbEntity
  8
0
  6
Continuous
 62
     0
100
AcDbBlockReference
  2
*B22
 10
0.0
 20
0.0
 30
0.0
  0
INSERT
  5
29D
100
AcDbEntity
  8
0
  6
Continuous
 62
     0
100
AcDbBlockReference
  2
*B23
 10
0.0
 20
0.0
 30
0.0
  0
INSERT
  5
2A7
100
AcDbEntity
  8
0
  6
Continuous
 62
     8
100
AcDbBlockReference
  2
*B24
 10
0.0
 20
0.0
 30
0.0
  0
INSERT
  5
2AC
100
AcDbEntity
  8
0
  6
Continuous
 62
     8
100
AcDbBlockReference
  2
*B25
 10
0.0
 20
0.0
 30
0.0
  0
INSERT
  5
2B2
100
AcDbEntity
  8
0
  6
Continuous
 62
     8
100
AcDbBlockReference
  2
*B26
 10
0.0
 20
0.0
 30
0.0
  0
INSERT
  5
2B7
100
AcDbEntity
  8
0
  6
Continuous
 62
     8
100
AcDbBlockReference
  2
*B27
 10
0.0
 20
0.0
 30
0.0
  0
INSERT
  5
2C6
100
AcDbEntity
  8
0
  6
Continuous
 62
     8
100
AcDbBlockReference
  2
*B28
 10
0.0
 20
0.0
 30
0.0
  0
INSERT
  5
2CC
100
AcDbEntity
  8
0
  6
Continuous
 62
     8
100
AcDbBlockReference
  2
*B29
 10
0.0
 20
0.0
 30
0.0
  0
INSERT
  5
2E0
100
AcDbEntity
  8
0
  6
Continuous
 62
     8
100
AcDbBlockReference
  2
*B30
 10
0.0
 20
0.0
 30
0.0
  0
INSERT
  5
2E5
100
AcDbEntity
  8
0
  6
Continuous
 62
     8
100
AcDbBlockReference
  2
*B31
 10
0.0
 20
0.0
 30
0.0
  0
INSERT
  5
2EB
100
AcDbEntity
  8
0
  6
Continuous
 62
     8
100
AcDbBlockReference
  2
*B32
 10
0.0
 20
0.0
 30
0.0
  0
INSERT
  5
2F4
100
AcDbEntity
  8
0
  6
Continuous
 62
     8
100
AcDbBlockReference
  2
*B33
 10
0.0
 20
0.0
 30
0.0
  0
INSERT
  5
31D
100
AcDbEntity
  8
0
  6
Continuous
 62
     8
100
AcDbBlockReference
  2
*B34
 10
0.0
 20
0.0
 30
0.0
  0
INSERT
  5
322
100
AcDbEntity
  8
0
  6
Continuous
 62
     8
100
AcDbBlockReference
  2
*B35
 10
0.0
 20
0.0
 30
0.0
  0
INSERT
  5
327
100
AcDbEntity
  8
0
  6
Continuous
 62
     8
100
AcDbBlockReference
  2
*B36
 10
0.0
 20
0.0
 30
0.0
  0
INSERT
  5
32C
100
AcDbEntity
  8
0
  6
Continuous
 62
     8
100
AcDbBlockReference
  2
*B37
 10
0.0
 20
0.0
 30
0.0
  0
INSERT
  5
332
100
AcDbEntity
  8
0
  6
Continuous
 62
     8
100
AcDbBlockReference
  2
*B38
 10
0.0
 20
0.0
 30
0.0
  0
INSERT
  5
337
100
AcDbEntity
  8
0
  6
Continuous
 62
     8
100
AcDbBlockReference
  2
*B39
 10
0.0
 20
0.0
 30
0.0
  0
INSERT
  5
33C
100
AcDbEntity
  8
0
  6
Continuous
 62
     8
100
AcDbBlockReference
  2
*B40
 10
0.0
 20
0.0
 30
0.0
  0
INSERT
  5
341
100
AcDbEntity
  8
0
  6
Continuous
 62
     8
100
AcDbBlockReference
  2
*B41
 10
0.0
 20
0.0
 30
0.0
  0
INSERT
  5
346
100
AcDbEntity
  8
0
  6
Continuous
 62
     8
100
AcDbBlockReference
  2
*B42
 10
0.0
 20
0.0
 30
0.0
  0
INSERT
  5
34B
100
AcDbEntity
  8
0
  6
Continuous
 62
     8
100
AcDbBlockReference
  2
*B43
 10
0.0
 20
0.0
 30
0.0
  0
INSERT
  5
350
100
AcDbEntity
  8
0
  6
Continuous
 62
     8
100
AcDbBlockReference
  2
*B44
 10
0.0
 20
0.0
 30
0.0
  0
INSERT
  5
364
100
AcDbEntity
  8
0
  6
Continuous
 62
     8
100
AcDbBlockReference
  2
*B45
 10
0.0
 20
0.0
 30
0.0
  0
INSERT
  5
369
100
AcDbEntity
  8
0
  6
Continuous
 62
     8
100
AcDbBlockReference
  2
*B46
 10
0.0
 20
0.0
 30
0.0
  0
INSERT
  5
36E
100
AcDbEntity
  8
0
  6
Continuous
 62
     8
100
AcDbBlockReference
  2
*B47
 10
0.0
 20
0.0
 30
0.0
  0
INSERT
  5
374
100
AcDbEntity
  8
0
  6
Continuous
 62
     8
100
AcDbBlockReference
  2
*B48
 10
0.0
 20
0.0
 30
0.0
  0
INSERT
  5
379
100
AcDbEntity
  8
0
  6
Continuous
 62
     8
100
AcDbBlockReference
  2
*B49
 10
0.0
 20
0.0
 30
0.0
  0
INSERT
  5
37E
100
AcDbEntity
  8
0
  6
Continuous
 62
     8
100
AcDbBlockReference
  2
*B50
 10
0.0
 20
0.0
 30
0.0
  0
INSERT
  5
38D
100
AcDbEntity
  8
0
  6
Continuous
 62
     8
100
AcDbBlockReference
  2
*B51
 10
0.0
 20
0.0
 30
0.0
  0
INSERT
  5
393
100
AcDbEntity
  8
0
  6
Continuous
 62
     8
100
AcDbBlockReference
  2
*B52
 10
0.0
 20
0.0
 30
0.0
  0
INSERT
  5
398
100
AcDbEntity
  8
0
  6
Continuous
 62
     8
100
AcDbBlockReference
  2
*B53
 10
0.0
 20
0.0
 30
0.0
  0
INSERT
  5
39D
100
AcDbEntity
  8
0
  6
Continuous
 62
     8
100
AcDbBlockReference
  2
*B54
 10
0.0
 20
0.0
 30
0.0
  0
INSERT
  5
3AA
100
AcDbEntity
  8
0
  6
Continuous
 62
     8
100
AcDbBlockReference
  2
*B55
 10
0.0
 20
0.0
 30
0.0
  0
INSERT
  5
3D9
100
AcDbEntity
  8
0
  6
Continuous
 62
     8
100
AcDbBlockReference
  2
*B56
 10
0.0
 20
0.0
 30
0.0
  0
INSERT
  5
3DF
100
AcDbEntity
  8
0
  6
Continuous
 62
     8
100
AcDbBlockReference
  2
*B57
 10
0.0
 20
0.0
 30
0.0
  0
INSERT
  5
3E8
100
AcDbEntity
  8
0
  6
Continuous
 62
     8
100
AcDbBlockReference
  2
*B58
 10
0.0
 20
0.0
 30
0.0
  0
INSERT
  5
3F1
100
AcDbEntity
  8
0
  6
Continuous
 62
     8
100
AcDbBlockReference
  2
*B59
 10
0.0
 20
0.0
 30
0.0
  0
INSERT
  5
3F7
100
AcDbEntity
  8
0
  6
Continuous
 62
     8
100
AcDbBlockReference
  2
*B60
 10
0.0
 20
0.0
 30
0.0
  0
INSERT
  5
3FD
100
AcDbEntity
  8
0
  6
Continuous
 62
     6
100
AcDbBlockReference
  2
*B61
 10
0.0
 20
0.0
 30
0.0
  0
INSERT
  5
403
100
AcDbEntity
  8
0
  6
Continuous
 62
     6
100
AcDbBlockReference
  2
*B62
 10
0.0
 20
0.0
 30
0.0
  0
INSERT
  5
409
100
AcDbEntity
  8
0
  6
Continuous
 62
     6
100
AcDbBlockReference
  2
*B63
 10
0.0
 20
0.0
 30
0.0
  0
INSERT
  5
40F
100
AcDbEntity
  8
0
  6
Continuous
 62
     6
100
AcDbBlockReference
  2
*B64
 10
0.0
 20
0.0
 30
0.0
  0
INSERT
  5
415
100
AcDbEntity
  8
0
  6
Continuous
 62
     6
100
AcDbBlockReference
  2
*B65
 10
0.0
 20
0.0
 30
0.0
  0
INSERT
  5
41B
100
AcDbEntity
  8
0
  6
Continuous
 62
     6
100
AcDbBlockReference
  2
*B66
 10
0.0
 20
0.0
 30
0.0
  0
INSERT
  5
421
100
AcDbEntity
  8
0
  6
Continuous
 62
     6
100
AcDbBlockReference
  2
*B67
 10
0.0
 20
0.0
 30
0.0
  0
INSERT
  5
427
100
AcDbEntity
  8
0
  6
Continuous
 62
     6
100
AcDbBlockReference
  2
*B68
 10
0.0
 20
0.0
 30
0.0
  0
INSERT
  5
42D
100
AcDbEntity
  8
0
  6
Continuous
 62
     6
100
AcDbBlockReference
  2
*B69
 10
0.0
 20
0.0
 30
0.0
  0
INSERT
  5
433
100
AcDbEntity
  8
0
  6
Continuous
 62
     6
100
AcDbBlockReference
  2
*B70
 10
0.0
 20
0.0
 30
0.0
  0
INSERT
  5
439
100
AcDbEntity
  8
0
  6
Continuous
 62
     6
100
AcDbBlockReference
  2
*B71
 10
0.0
 20
0.0
 30
0.0
  0
INSERT
  5
43F
100
AcDbEntity
  8
0
  6
Continuous
 62
     6
100
AcDbBlockReference
  2
*B72
 10
0.0
 20
0.0
 30
0.0
  0
INSERT
  5
445
100
AcDbEntity
  8
0
  6
Continuous
 62
     6
100
AcDbBlockReference
  2
*B73
 10
0.0
 20
0.0
 30
0.0
  0
INSERT
  5
44A
100
AcDbEntity
  8
TEXT
  6
Continuous
 62
     0
100
AcDbBlockReference
  2
*B74
 10
0.0
 20
0.0
 30
0.0
  0
INSERT
  5
44F
100
AcDbEntity
  8
TEXT
  6
Continuous
 62
     0
100
AcDbBlockReference
  2
*B75
 10
0.0
 20
0.0
 30
0.0
  0
INSERT
  5
454
100
AcDbEntity
  8
TEXT
  6
Continuous
 62
     0
100
AcDbBlockReference
  2
*B76
 10
0.0
 20
0.0
 30
0.0
  0
INSERT
  5
459
100
AcDbEntity
  8
TEXT
  6
Continuous
 62
     0
100
AcDbBlockReference
  2
*B77
 10
0.0
 20
0.0
 30
0.0
  0
INSERT
  5
45E
100
AcDbEntity
  8
TEXT
  6
Continuous
 62
     0
100
AcDbBlockReference
  2
*B78
 10
0.0
 20
0.0
 30
0.0
  0
INSERT
  5
463
100
AcDbEntity
  8
TEXT
  6
Continuous
 62
     0
100
AcDbBlockReference
  2
*B79
 10
0.0
 20
0.0
 30
0.0
  0
INSERT
  5
468
100
AcDbEntity
  8
TEXT
  6
Continuous
 62
     0
100
AcDbBlockReference
  2
*B80
 10
0.0
 20
0.0
 30
0.0
  0
INSERT
  5
46D
100
AcDbEntity
  8
TEXT
  6
Continuous
 62
     0
100
AcDbBlockReference
  2
*B81
 10
0.0
 20
0.0
 30
0.0
  0
INSERT
  5
472
100
AcDbEntity
  8
TEXT
  6
Continuous
 62
     0
100
AcDbBlockReference
  2
*B82
 10
0.0
 20
0.0
 30
0.0
  0
INSERT
  5
477
100
AcDbEntity
  8
TEXT
  6
Continuous
 62
     0
100
AcDbBlockReference
  2
*B83
 10
0.0
 20
0.0
 30
0.0
  0
INSERT
  5
47C
100
AcDbEntity
  8
TEXT
  6
Continuous
 62
     0
100
AcDbBlockReference
  2
*B84
 10
0.0
 20
0.0
 30
0.0
  0
INSERT
  5
481
100
AcDbEntity
  8
TEXT
  6
Continuous
 62
     0
100
AcDbBlockReference
  2
*B85
 10
0.0
 20
0.0
 30
0.0
  0
INSERT
  5
486
100
AcDbEntity
  8
TEXT
  6
Continuous
 62
     0
100
AcDbBlockReference
  2
*B86
 10
0.0
 20
0.0
 30
0.0
  0
INSERT
  5
48B
100
AcDbEntity
  8
TEXT
  6
Continuous
 62
     0
100
AcDbBlockReference
  2
*B87
 10
0.0
 20
0.0
 30
0.0
  0
INSERT
  5
490
100
AcDbEntity
  8
TEXT
  6
Continuous
 62
     0
100
AcDbBlockReference
  2
*B88
 10
0.0
 20
0.0
 30
0.0
  0
INSERT
  5
495
100
AcDbEntity
  8
TEXT
  6
Continuous
 62
     0
100
AcDbBlockReference
  2
*B89
 10
0.0
 20
0.0
 30
0.0
  0
INSERT
  5
49A
100
AcDbEntity
  8
TEXT
  6
Continuous
 62
     0
100
AcDbBlockReference
  2
*B90
 10
0.0
 20
0.0
 30
0.0
  0
INSERT
  5
49F
100
AcDbEntity
  8
TEXT
  6
Continuous
 62
     0
100
AcDbBlockReference
  2
*B91
 10
0.0
 20
0.0
 30
0.0
  0
INSERT
  5
4A4
100
AcDbEntity
  8
TEXT
  6
Continuous
 62
     0
100
AcDbBlockReference
  2
*B92
 10
0.0
 20
0.0
 30
0.0
  0
INSERT
  5
4A9
100
AcDbEntity
  8
TEXT
  6
Continuous
 62
     0
100
AcDbBlockReference
  2
*B93
 10
0.0
 20
0.0
 30
0.0
  0
INSERT
  5
4AE
100
AcDbEntity
  8
TEXT
  6
Continuous
 62
     0
100
AcDbBlockReference
  2
*B94
 10
0.0
 20
0.0
 30
0.0
  0
INSERT
  5
4B3
100
AcDbEntity
  8
TEXT
  6
Continuous
 62
     0
100
AcDbBlockReference
  2
*B95
 10
0.0
 20
0.0
 30
0.0
  0
INSERT
  5
4B8
100
AcDbEntity
  8
TEXT
  6
Continuous
 62
     0
100
AcDbBlockReference
  2
*B96
 10
0.0
 20
0.0
 30
0.0
  0
INSERT
  5
4BD
100
AcDbEntity
  8
TEXT
  6
Continuous
 62
     0
100
AcDbBlockReference
  2
*B97
 10
0.0
 20
0.0
 30
0.0
  0
INSERT
  5
4C2
100
AcDbEntity
  8
TEXT
  6
Continuous
 62
     0
100
AcDbBlockReference
  2
*B98
 10
0.0
 20
0.0
 30
0.0
  0
INSERT
  5
4C7
100
AcDbEntity
  8
TEXT
  6
Continuous
 62
     0
100
AcDbBlockReference
  2
*B99
 10
0.0
 20
0.0
 30
0.0
  0
INSERT
  5
4CC
100
AcDbEntity
  8
TEXT
  6
Continuous
 62
     0
100
AcDbBlockReference
  2
*B100
 10
0.0
 20
0.0
 30
0.0
  0
INSERT
  5
4D1
100
AcDbEntity
  8
TEXT
  6
Continuous
 62
     0
100
AcDbBlockReference
  2
*B101
 10
0.0
 20
0.0
 30
0.0
  0
ENDSEC
  0
SECTION
  2
OBJECTS
  0
DICTIONARY
  5
19
100
AcDbDictionary
280
     0
281
     1
  3
ACAD_GROUP
350
1A
  3
ACAD_MLINESTYLE
350
1B
  3
ACAD_LAYOUT
350
1E
  3
ACAD_PLOTSETTINGS
350
22
  3
ACAD_PLOTSTYLENAME
350
1F
  3
ACAD_WIPEOUT_VARS
350
23
  0
DICTIONARY
  5
1A
102
{ACAD_REACTORS
330
19
102
}
100
AcDbDictionary
280
     0
281
     1
  0
DICTIONARY
  5
1B
102
{ACAD_REACTORS
330
19
102
}
100
AcDbDictionary
280
     0
281
     1
  3
Standard
350
1C
  0
MLINESTYLE
  5
1C
102
{ACAD_REACTORS
330
1B
102
}
100
AcDbMlineStyle
  2
Standard
 70
     0
  3

 62
     0
 51
90.0
 52
90.0
 71
     2
 49
0.5
 62
   256
  6
BYLAYER
 49
-0.5
 62
   256
  6
BYLAYER
  0
ACDBDICTIONARYWDFLT
  5
1F
102
{ACAD_REACTORS
330
19
102
}
100
AcDbDictionary
281
     1
  3
Normal
350
1D
100
AcDbDictionaryWithDefault
340
1D
  0
ACDBPLACEHOLDER
  5
1D
102
{ACAD_REACTORS
330
1F
102
}
  0
LAYOUT
  5
20
102
{ACAD_REACTORS
330
1E
102
}
100
AcDbPlotSettings
  1

  2

  4

  6

 40
0.0
 41
0.0
 42
0.0
 43
0.0
 44
0.0
 45
0.0
 46
0.0
 47
0.0
 48
0.0
 49
0.0
140
0.0
141
0.0
142
1.0
143
1.0
 70
     0
 72
     0
 73
     0
 74
     0
  7

 75
     0
147
1.0
148
0.0
149
0.0
100
AcDbLayout
  1
Model
 70
     0
 71
     0
 10
0.0
 20
0.0
 11
0.0
 21
0.0
 12
0.0
 22
0.0
 32
0.0
 14
0.0
 24
0.0
 34
0.0
 15
0.0
 25
0.0
 35
0.0
146
0.0
 13
0.0
 23
0.0
 33
0.0
 16
0.0
 26
0.0
 36
0.0
 17
0.0
 27
0.0
 37
0.0
 76
     0
330
A
331
0
345
0
346
0
  0
LAYOUT
  5
21
102
{ACAD_REACTORS
330
1E
102
}
100
AcDbPlotSettings
  1

  2

  4

  6

 40
0.0
 41
0.0
 42
0.0
 43
0.0
 44
0.0
 45
0.0
 46
0.0
 47
0.0
 48
0.0
 49
0.0
140
0.0
141
0.0
142
1.0
143
1.0
 70
     0
 72
     0
 73
     0
 74
     0
  7

 75
     0
147
1.0
148
0.0
149
0.0
100
AcDbLayout
  1
Layout1
 70
     0
 71
     0
 10
0.0
 20
0.0
 11
0.0
 21
0.0
 12
0.0
 22
0.0
 32
0.0
 14
0.0
 24
0.0
 34
0.0
 15
0.0
 25
0.0
 35
0.0
146
0.0
 13
0.0
 23
0.0
 33
0.0
 16
0.0
 26
0.0
 36
0.0
 17
0.0
 27
0.0
 37
0.0
 76
     0
330
B
331
0
345
0
346
0
  0
DICTIONARY
  5
1E
102
{ACAD_REACTORS
330
19
102
}
100
AcDbDictionary
280
     0
281
     1
  3
Layout1
350
21
  3
Model
350
20
  0
DICTIONARY
  5
22
102
{ACAD_REACTORS
330
19
102
}
100
AcDbDictionary
280
     0
281
     1
  0
WIPEOUTVARIABLES
  5
23
100
AcDbWipeoutVariables
 70
     1
  0
ENDSEC
  0
EOF
