  0
SECTION
  2
HEADER
  9
$ACADVER
  1
AC1015
  9
$ACADMAINTVER
 70
     6
  9
$DWGCODEPAGE
  3
DOS850
  9
$INSBASE
 10
0.0
 20
0.0
 30
0.0
  9
$EXTMIN
 10
0.0
 20
0.0
 30
0.0
  9
$EXTMAX
 10
297.0
 20
210.0
 30
0.0
  9
$LIMMIN
 10
0.0
 20
0.0
  9
$LIMMAX
 10
297.0
 20
210.0
  9
$ORTHOMODE
 70
     0
  9
$REGENMODE
 70
     1
  9
$FILLMODE
 70
     1
  9
$QTEXTMODE
 70
     0
  9
$MIRRTEXT
 70
     1
  9
$LTSCALE
 40
25.4
  9
$ATTMODE
 70
     1
  9
$TEXTSIZE
 40
3.5
  9
$TRACEWID
 40
0.05
  9
$TEXTSTYLE
  7
Standard
  9
$CLAYER
  8
0
  9
$CELTYPE
  6
Continuous
  9
$CECOLOR
 62
   256
  9
$CELTSCALE
 40
1.0
  9
$DISPSILH
 70
     0
  9
$DIMSCALE
 40
1.0
  9
$DIMASZ
 40
5.0
  9
$DIMEXO
 40
3.0
  9
$DIMDLI
 40
0.38
  9
$DIMRND
 40
0.0
  9
$DIMDLE
 40
0.0
  9
$DIMEXE
 40
2.0
  9
$DIMTP
 40
0.0
  9
$DIMTM
 40
0.0
  9
$DIMTXT
 40
3.5
  9
$DIMCEN
 40
4.0
  9
$DIMTSZ
 40
0.0
  9
$DIMTOL
 70
     0
  9
$DIMLIM
 70
     0
  9
$DIMTIH
 70
     1
  9
$DIMTOH
 70
     1
  9
$DIMSE1
 70
     0
  9
$DIMSE2
 70
     0
  9
$DIMTAD
 70
     0
  9
$DIMZIN
 70
     0
  9
$DIMBLK
  1

  9
$DIMASO
 70
     1
  9
$DIMSHO
 70
     1
  9
$DIMPOST
  1

  9
$DIMAPOST
  1

  9
$DIMALT
 70
     0
  9
$DIMALTD
 70
     2
  9
$DIMALTF
 40
25.4
  9
$DIMLFAC
 40
1.0
  9
$DIMTOFL
 70
     0
  9
$DIMTVP
 40
0.0
  9
$DIMTIX
 70
     0
  9
$DIMSOXD
 70
     0
  9
$DIMSAH
 70
     0
  9
$DIMBLK1
  1

  9
$DIMBLK2
  1

  9
$DIMSTYLE
  2
Standard
  9
$DIMCLRD
 70
     0
  9
$DIMCLRE
 70
     0
  9
$DIMCLRT
 70
     0
  9
$DIMTFAC
 40
1.0
  9
$DIMGAP
 40
1.0
  9
$DIMJUST
 70
     0
  9
$DIMSD1
 70
     0
  9
$DIMSD2
 70
     0
  9
$DIMTOLJ
 70
     1
  9
$DIMTZIN
 70
     0
  9
$DIMALTZ
 70
     0
  9
$DIMALTTZ
 70
     0
  9
$DIMUPT
 70
     0
  9
$DIMDEC
 70
     4
  9
$DIMTDEC
 70
     4
  9
$DIMALTU
 70
     2
  9
$DIMALTTD
 70
     2
  9
$DIMTXSTY
  7
Standard
  9
$DIMAUNIT
 70
     0
  9
$DIMADEC
 70
     0
  9
$DIMALTRND
 40
0.0
  9
$DIMAZIN
 70
     0
  9
$DIMDSEP
 70
     0
  9
$DIMATFIT
 70
     3
  9
$DIMFRAC
 70
     0
  9
$DIMLDRBLK
  1

  9
$DIMLUNIT
 70
     2
  9
$DIMLWD
 70
     0
  9
$DIMLWE
 70
     0
  9
$DIMTMOVE
 70
     0
  9
$LUNITS
 70
     2
  9
$LUPREC
 70
     4
  9
$SKETCHINC
 40
0.1
  9
$FILLETRAD
 40
0.0
  9
$AUNITS
 70
     0
  9
$AUPREC
 70
     0
  9
$MENU
  1
acad
  9
$ELEVATION
 40
0.0
  9
$PELEVATION
 40
0.0
  9
$THICKNESS
 40
0.0
  9
$LIMCHECK
 70
     0
  9
$CHAMFERA
 40
0.0
  9
$CHAMFERB
 40
0.0
  9
$CHAMFERC
 40
0.0
  9
$CHAMFERD
 40
0.0
  9
$SKPOLY
 70
     0
  9
$TDCREATE
 40
0.000000000
  9
$TDUCREATE
 40
0.000000000
  9
$TDUPDATE
 40
0.000000000
  9
$TDUUPDATE
 40
0.000000000
  9
$TDINDWG
 40
0.0000000000
  9
$TDUSRTIMER
 40
0.0000000000
  9
$USRTIMER
 70
     1
  9
$ANGBASE
 50
0.0
  9
$ANGDIR
 70
     0
  9
$PDMODE
 70
     0
  9
$PDSIZE
 40
0.0
  9
$PLINEWID
 40
0.0
  9
$SPLFRAME
 70
     0
  9
$SPLINETYPE
 70
     6
  9
$SPLINESEGS
 70
     8
  9
$HANDSEED
  5
663
  9
$SURFTAB1
 70
     6
  9
$SURFTAB2
 70
     6
  9
$SURFTYPE
 70
     6
  9
$SURFU
 70
     6
  9
$SURFV
 70
     6
  9
$UCSBASE
  2

  9
$UCSNAME
  2

  9
$UCSORG
 10
0.0
 20
0.0
 30
0.0
  9
$UCSXDIR
 10
1.0
 20
0.0
 30
0.0
  9
$UCSYDIR
 10
0.0
 20
1.0
 30
0.0
  9
$UCSORTHOREF
  2

  9
$UCSORTHOVIEW
 70
     0
  9
$UCSORGTOP
 10
0.0
 20
0.0
 30
0.0
  9
$UCSORGBOTTOM
 10
0.0
 20
0.0
 30
0.0
  9
$UCSORGLEFT
 10
0.0
 20
0.0
 30
0.0
  9
$UCSORGRIGHT
 10
0.0
 20
0.0
 30
0.0
  9
$UCSORGFRONT
 10
0.0
 20
0.0
 30
0.0
  9
$UCSORGBACK
 10
0.0
 20
0.0
 30
0.0
  9
$PUCSBASE
  2

  9
$PUCSNAME
  2

  9
$PUCSORG
 10
0.0
 20
0.0
 30
0.0
  9
$PUCSXDIR
 10
1.0
 20
0.0
 30
0.0
  9
$PUCSYDIR
 10
0.0
 20
1.0
 30
0.0
  9
$PUCSORTHOREF
  2

  9
$PUCSORTHOVIEW
 70
     0
  9
$PUCSORGTOP
 10
0.0
 20
0.0
 30
0.0
  9
$PUCSORGBOTTOM
 10
0.0
 20
0.0
 30
0.0
  9
$PUCSORGLEFT
 10
0.0
 20
0.0
 30
0.0
  9
$PUCSORGRIGHT
 10
0.0
 20
0.0
 30
0.0
  9
$PUCSORGFRONT
 10
0.0
 20
0.0
 30
0.0
  9
$PUCSORGBACK
 10
0.0
 20
0.0
 30
0.0
  9
$USERI1
 70
     0
  9
$USERI2
 70
     0
  9
$USERI3
 70
     0
  9
$USERI4
 70
     0
  9
$USERI5
 70
     0
  9
$USERR1
 40
0.0
  9
$USERR2
 40
0.0
  9
$USERR3
 40
0.0
  9
$USERR4
 40
0.0
  9
$USERR5
 40
0.0
  9
$WORLDVIEW
 70
     1
  9
$SHADEDGE
 70
     3
  9
$SHADEDIF
 70
    70
  9
$TILEMODE
 70
     1
  9
$MAXACTVP
 70
    16
  9
$PINSBASE
 10
0.0
 20
0.0
 30
0.0
  9
$PLIMCHECK
 70
     0
  9
$PEXTMIN
 10
1.000000E+20
 20
1.000000E+20
 30
1.000000E+20
  9
$PEXTMAX
 10
-1.000000E+20
 20
-1.000000E+20
 30
-1.000000E+20
  9
$PLIMMIN
 10
0.0
 20
0.0
  9
$PLIMMAX
 10
297.0
 20
210.0
  9
$UNITMODE
 70
     0
  9
$VISRETAIN
 70
     0
  9
$PLINEGEN
 70
     1
  9
$PSLTSCALE
 70
     0
  9
$TREEDEPTH
 70
  3020
  9
$CMLSTYLE
  2
Standard
  9
$CMLJUST
 70
     0
  9
$CMLSCALE
 40
1.0
  9
$PROXYGRAPHICS
 70
     0
  9
$MEASUREMENT
 70
     0
  9
$CELWEIGHT
370
     0
  9
$ENDCAPS
280
     0
  9
$JOINSTYLE
280
     0
  9
$LWDISPLAY
290
     0
  9
$INSUNITS
 70
     0
  9
$HYPERLINKBASE
  1

  9
$XEDIT
290
     1
  9
$CEPSNTYPE
380
     0
  9
$PSTYLEMODE
290
     0
  9
$FINGERPRINTGUID
  2

  9
$VERSIONGUID
  2

  9
$EXTNAMES
290
     1
  9
$PSVPSCALE
 40
0.0
  0
ENDSEC
  0
SECTION
  2
CLASSES
  0
CLASS
  1
LWPOLYLINE
  2
AcDbPolyline
  3
"AutoCAD"
 90
        0
280
     0
281
     1
  0
CLASS
  1
IMAGE
  2
AcDbRasterImage
  3
ISM
 90
      127
280
     0
281
     1
  0
CLASS
  1
OLE2FRAME
  2
AcDbOle2Frame
  3
""
 90
        0
280
     0
281
     1
  0
CLASS
  1
HATCH
  2
AcDbHatch
  3
"ACAD_SEDONA"
 90
        0
280
     0
281
     1
  0
CLASS
  1
DICTIONARYVAR
  2
AcDbDictionaryVar
  3
"AutoCAD"
 90
        0
280
     0
281
     0
  0
CLASS
  1
RASTERVARIABLES
  2
AcDbRasterVariables
  3
ISM
 90
        0
280
     0
281
     0
  0
CLASS
  1
IMAGEDEF
  2
AcDbRasterImageDef
  3
ISM
 90
        0
280
     0
281
     0
  0
CLASS
  1
IMAGEDEF_REACTOR
  2
AcDbRasterImageDefReactor
  3
ISM
 90
        1
280
     0
281
     0
  0
CLASS
  1
IDBUFFER
  2
AcDbIdBuffer
  3
"Acad"
 90
        0
280
     0
281
     0
  0
CLASS
  1
SPATIAL_FILTER
  2
AcDbSpatialFilter
  3
"Acad"
 90
        0
280
     0
281
     0
  0
CLASS
  1
XRECORD
  2
AcDbXrecord
  3
"<Built In>"
 90
        0
280
     0
281
     0
  0
CLASS
  1
SORTENTSTABLE
  2
AcDbSortentsTable
  3
"AutoCAD"
 90
        0
280
     0
281
     0
  0
CLASS
  1
LAYER_INDEX
  2
AcDbLayerIndex
  3
"Acad"
 90
        0
280
     0
281
     0
  0
CLASS
  1
SPATIAL_INDEX
  2
AcDbSpatialIndex
  3
"Acad"
 90
        0
280
     0
281
     0
  0
CLASS
  1
OBJECT_PTR
  2
CAseDLPNTableRecord
  3
"ASE-LPNTableRecord"
 90
        1
280
     0
281
     0
  0
CLASS
  1
LAYOUT
  2
AcDbLayout
  3
"AutoCAD 2000"
 90
        1
280
     0
281
     0
  0
CLASS
  1
PLOTSETTINGS
  2
AcDbPlotSettings
  3
"AutoCAD 2000"
 90
        1
280
     0
281
     0
  0
CLASS
  1
ACDBDICTIONARYWDFLT
  2
AcDbDictionaryWithDefault
  3
"AutoCAD 2000"
 90
        1
280
     0
281
     0
  0
CLASS
  1
ACDBPLACEHOLDER
  2
AcDbPlaceHolder
  3
"AutoCAD 2000"
 90
        1
280
     0
281
     0
  0
CLASS
  1
VBA_PROJECT
  2
AcDbVbaProject
  3
"acadvba"
 90
        1
280
     0
281
     0
  0
CLASS
  1
WIPEOUT
  2
AcDbWipeout
  3
WipeOut|AutoCAD Express Tool|expresstools@autodesk.com
 90
      127
280
     0
281
     1
  0
CLASS
  1
WIPEOUTVARIABLES
  2
AcDbWipeoutVariables
  3
WipeOut|AutoCAD Express Tool|expresstools@autodesk.com
 90
        0
280
     0
281
     0
  0
CLASS
  1
RTEXT
  2
RText
  3
RText|AutoCAD Express Tool|expresstools@autodesk.com
 90
        0
280
     0
281
     1
  0
CLASS
  1
ARCALIGNEDTEXT
  2
AcDbArcAlignedText
  3
ATEXT|AutoCAD Express Tool|expresstools@autodesk.com
 90
        0
280
     0
281
     1
  0
ENDSEC
  0
SECTION
  2
TABLES
  0
TABLE
  2
VPORT
  5
7
100
AcDbSymbolTable
 70
     1
  0
VPORT
  5
15
100
AcDbSymbolTableRecord
100
AcDbViewportTableRecord
  2
*ACTIVE
 70
     0
 10
0.0
 20
0.0
 11
1.0
 21
1.0
 12
6.591288
 22
4.579184
 13
0.0
 23
0.0
 14
1.0
 24
1.0
 15
0.0
 25
0.0
 16
0.0
 26
0.0
 36
1.0
 17
0.0
 27
0.0
 37
0.0
 40
9.158369
 41
0.688564
 42
50.0
 43
0.0
 44
0.0
 50
0.0
 51
0.0
 71
     0
 72
   100
 73
     1
 74
     1
 75
     0
 76
     0
 77
     0
 78
     0
281
     0
 65
     0
110
0.0
120
0.0
130
0.0
111
1.0
121
0.0
131
0.0
112
0.0
122
1.0
132
0.0
345
0
346
0
 79
     0
146
0.0
  0
ENDTAB
  0
TABLE
  2
LTYPE
  5
4
100
AcDbSymbolTable
 70
     7
  0
LTYPE
  5
11
100
AcDbSymbolTableRecord
100
AcDbLinetypeTableRecord
  2
ByBlock
 70
    64
  3

 72
    65
 73
     0
 40
0.0
  0
LTYPE
  5
12
100
AcDbSymbolTableRecord
100
AcDbLinetypeTableRecord
  2
ByLayer
 70
    64
  3

 72
    65
 73
     0
 40
0.0
  0
LTYPE
  5
13
100
AcDbSymbolTableRecord
100
AcDbLinetypeTableRecord
  2
Continuous
 70
    64
  3
Solid line
 72
    65
 73
     0
 40
0.0
  0
LTYPE
  5
24
100
AcDbSymbolTableRecord
100
AcDbLinetypeTableRecord
  2
HIDDEN
 70
    64
  3
_ _ _ _ _ _ _ _ _ _ _ _ _ _ _ _ _ _ _ _ _ _ _ _
 72
    65
 73
     2
 40
0.1875
 49
0.125
 74
     0
 49
-0.0625
 74
     0
  0
LTYPE
  5
25
100
AcDbSymbolTableRecord
100
AcDbLinetypeTableRecord
  2
DOTTED
 70
    64
  3
...............................................
 72
    65
 73
     2
 40
0.125
 49
0.0
 74
     0
 49
-0.125
 74
     0
  0
LTYPE
  5
26
100
AcDbSymbolTableRecord
100
AcDbLinetypeTableRecord
  2
CENTER
 70
    64
  3
____ _ ____ _ ____ _ ____ _ ____ _ ____ _ ____ 
 72
    65
 73
     4
 40
1.125
 49
0.75
 74
     0
 49
-0.125
 74
     0
 49
0.125
 74
     0
 49
-0.125
 74
     0
  0
LTYPE
  5
27
100
AcDbSymbolTableRecord
100
AcDbLinetypeTableRecord
  2
PHANTOM
 70
    64
  3
______  __  __  ______  __  __  ______  __  __ 
 72
    65
 73
     6
 40
1.25
 49
0.625
 74
     0
 49
-0.125
 74
     0
 49
0.125
 74
     0
 49
-0.125
 74
     0
 49
0.125
 74
     0
 49
-0.125
 74
     0
  0
ENDTAB
  0
TABLE
  2
LAYER
  5
2
100
AcDbSymbolTable
 70
     2
  0
LAYER
  5
14
100
AcDbSymbolTableRecord
100
AcDbLayerTableRecord
  2
0
 70
     0
 62
     7
  6
Continuous
290
     1
370
    -3
390
1D
  0
LAYER
  5
28
100
AcDbSymbolTableRecord
100
AcDbLayerTableRecord
  2
TEXT
 70
     0
 62
     8
  6
Continuous
290
     1
370
    -3
390
1F
  0
ENDTAB
  0
TABLE
  2
STYLE
  5
3
100
AcDbSymbolTable
 70
     1
  0
STYLE
  5
17
100
AcDbSymbolTableRecord
100
AcDbTextStyleTableRecord
  2
Standard
 70
     0
 40
0.0
 41
1.0
 50
0.0
 71
     0
 42
0.0
  3
txt
  4

  0
ENDTAB
  0
TABLE
  2
VIEW
  5
5
100
AcDbSymbolTable
 70
     0
  0
ENDTAB
  0
TABLE
  2
UCS
  5
6
100
AcDbSymbolTable
 70
     0
  0
ENDTAB
  0
TABLE
  2
APPID
  5
8
100
AcDbSymbolTable
 70
     1
  0
APPID
  5
16
100
AcDbSymbolTableRecord
100
AcDbRegAppTableRecord
  2
ACAD
 70
     0
  0
ENDTAB
  0
TABLE
  2
DIMSTYLE
  5
9
100
AcDbSymbolTable
 70
     1
100
AcDbDimStyleTable
 71
     0
  0
DIMSTYLE
105
18
100
AcDbSymbolTableRecord
100
AcDbDimStyleTableRecord
  2
Standard
 70
     0
  3

  4

 40
1.0
 41
0.18
 42
0.0625
 43
0.38
 44
0.18
 45
0.0
 46
0.0
 47
0.0
 48
0.0
 71
     0
 72
     0
 73
     1
 74
     1
 75
     0
 76
     0
 77
     0
 78
     0
 79
     0
140
0.18
141
0.09
142
0.0
143
25.4
144
1.0
145
0.0
146
1.0
147
0.09
148
0.0
170
     0
171
     2
172
     0
173
     0
174
     0
175
     0
176
     0
177
     0
178
     0
179
     0
271
     4
272
     4
273
     2
274
     2
275
     0
276
     0
277
     2
278
    46
279
     0
280
     0
281
     0
282
     0
283
     1
284
     0
285
     0
286
     0
288
     0
340
17
341
0
342
0
343
0
344
0
371
    -2
372
    -2
  0
ENDTAB
  0
TABLE
  2
BLOCK_RECORD
  5
1
100
AcDbSymbolTable
 70
   115
  0
BLOCK_RECORD
  5
A
100
AcDbSymbolTableRecord
100
AcDbBlockTableRecord
  2
*MODEL_SPACE
340
20
  0
BLOCK_RECORD
  5
B
100
AcDbSymbolTableRecord
100
AcDbBlockTableRecord
  2
*PAPER_SPACE
340
21
  0
BLOCK_RECORD
  5
29
100
AcDbSymbolTableRecord
100
AcDbBlockTableRecord
  2
*B0
340
0
  0
BLOCK_RECORD
  5
2C
100
AcDbSymbolTableRecord
100
AcDbBlockTableRecord
  2
*B1
340
0
  0
BLOCK_RECORD
  5
232
100
AcDbSymbolTableRecord
100
AcDbBlockTableRecord
  2
*B2
340
0
  0
BLOCK_RECORD
  5
32E
100
AcDbSymbolTableRecord
100
AcDbBlockTableRecord
  2
*B3
340
0
  0
BLOCK_RECORD
  5
334
100
AcDbSymbolTableRecord
100
AcDbBlockTableRecord
  2
*B4
340
0
  0
BLOCK_RECORD
  5
33F
100
AcDbSymbolTableRecord
100
AcDbBlockTableRecord
  2
*B5
340
0
  0
BLOCK_RECORD
  5
342
100
AcDbSymbolTableRecord
100
AcDbBlockTableRecord
  2
*B6
340
0
  0
BLOCK_RECORD
  5
348
100
AcDbSymbolTableRecord
100
AcDbBlockTableRecord
  2
*B7
340
0
  0
BLOCK_RECORD
  5
353
100
AcDbSymbolTableRecord
100
AcDbBlockTableRecord
  2
*B8
340
0
  0
BLOCK_RECORD
  5
356
100
AcDbSymbolTableRecord
100
AcDbBlockTableRecord
  2
*B9
340
0
  0
BLOCK_RECORD
  5
35D
100
AcDbSymbolTableRecord
100
AcDbBlockTableRecord
  2
*B10
340
0
  0
BLOCK_RECORD
  5
364
100
AcDbSymbolTableRecord
100
AcDbBlockTableRecord
  2
*B11
340
0
  0
BLOCK_RECORD
  5
36B
100
AcDbSymbolTableRecord
100
AcDbBlockTableRecord
  2
*B12
340
0
  0
BLOCK_RECORD
  5
372
100
AcDbSymbolTableRecord
100
AcDbBlockTableRecord
  2
*B13
340
0
  0
BLOCK_RECORD
  5
379
100
AcDbSymbolTableRecord
100
AcDbBlockTableRecord
  2
*B14
340
0
  0
BLOCK_RECORD
  5
380
100
AcDbSymbolTableRecord
100
AcDbBlockTableRecord
  2
*B15
340
0
  0
BLOCK_RECORD
  5
387
100
AcDbSymbolTableRecord
100
AcDbBlockTableRecord
  2
*B16
340
0
  0
BLOCK_RECORD
  5
38E
100
AcDbSymbolTableRecord
100
AcDbBlockTableRecord
  2
*B17
340
0
  0
BLOCK_RECORD
  5
395
100
AcDbSymbolTableRecord
100
AcDbBlockTableRecord
  2
*B18
340
0
  0
BLOCK_RECORD
  5
39C
100
AcDbSymbolTableRecord
100
AcDbBlockTableRecord
  2
*B19
340
0
  0
BLOCK_RECORD
  5
3A3
100
AcDbSymbolTableRecord
100
AcDbBlockTableRecord
  2
*B20
340
0
  0
BLOCK_RECORD
  5
3AA
100
AcDbSymbolTableRecord
100
AcDbBlockTableRecord
  2
*B21
340
0
  0
BLOCK_RECORD
  5
3B1
100
AcDbSymbolTableRecord
100
AcDbBlockTableRecord
  2
*B22
340
0
  0
BLOCK_RECORD
  5
3B8
100
AcDbSymbolTableRecord
100
AcDbBlockTableRecord
  2
*B23
340
0
  0
BLOCK_RECORD
  5
3BF
100
AcDbSymbolTableRecord
100
AcDbBlockTableRecord
  2
*B24
340
0
  0
BLOCK_RECORD
  5
3C6
100
AcDbSymbolTableRecord
100
AcDbBlockTableRecord
  2
*B25
340
0
  0
BLOCK_RECORD
  5
3CD
100
AcDbSymbolTableRecord
100
AcDbBlockTableRecord
  2
*B26
340
0
  0
BLOCK_RECORD
  5
3D4
100
AcDbSymbolTableRecord
100
AcDbBlockTableRecord
  2
*B27
340
0
  0
BLOCK_RECORD
  5
3DE
100
AcDbSymbolTableRecord
100
AcDbBlockTableRecord
  2
*B28
340
0
  0
BLOCK_RECORD
  5
3E3
100
AcDbSymbolTableRecord
100
AcDbBlockTableRecord
  2
*B29
340
0
  0
BLOCK_RECORD
  5
3E8
100
AcDbSymbolTableRecord
100
AcDbBlockTableRecord
  2
*B30
340
0
  0
BLOCK_RECORD
  5
3EF
100
AcDbSymbolTableRecord
100
AcDbBlockTableRecord
  2
*B31
340
0
  0
BLOCK_RECORD
  5
3F5
100
AcDbSymbolTableRecord
100
AcDbBlockTableRecord
  2
*B32
340
0
  0
BLOCK_RECORD
  5
3FA
100
AcDbSymbolTableRecord
100
AcDbBlockTableRecord
  2
*B33
340
0
  0
BLOCK_RECORD
  5
400
100
AcDbSymbolTableRecord
100
AcDbBlockTableRecord
  2
*B34
340
0
  0
BLOCK_RECORD
  5
40F
100
AcDbSymbolTableRecord
100
AcDbBlockTableRecord
  2
*B35
340
0
  0
BLOCK_RECORD
  5
423
100
AcDbSymbolTableRecord
100
AcDbBlockTableRecord
  2
*B36
340
0
  0
BLOCK_RECORD
  5
428
100
AcDbSymbolTableRecord
100
AcDbBlockTableRecord
  2
*B37
340
0
  0
BLOCK_RECORD
  5
42E
100
AcDbSymbolTableRecord
100
AcDbBlockTableRecord
  2
*B38
340
0
  0
BLOCK_RECORD
  5
437
100
AcDbSymbolTableRecord
100
AcDbBlockTableRecord
  2
*B39
340
0
  0
BLOCK_RECORD
  5
460
100
AcDbSymbolTableRecord
100
AcDbBlockTableRecord
  2
*B40
340
0
  0
BLOCK_RECORD
  5
465
100
AcDbSymbolTableRecord
100
AcDbBlockTableRecord
  2
*B41
340
0
  0
BLOCK_RECORD
  5
46A
100
AcDbSymbolTableRecord
100
AcDbBlockTableRecord
  2
*B42
340
0
  0
BLOCK_RECORD
  5
46F
100
AcDbSymbolTableRecord
100
AcDbBlockTableRecord
  2
*B43
340
0
  0
BLOCK_RECORD
  5
474
100
AcDbSymbolTableRecord
100
AcDbBlockTableRecord
  2
*B44
340
0
  0
BLOCK_RECORD
  5
47B
100
AcDbSymbolTableRecord
100
AcDbBlockTableRecord
  2
*B45
340
0
  0
BLOCK_RECORD
  5
488
100
AcDbSymbolTableRecord
100
AcDbBlockTableRecord
  2
*B46
340
0
  0
BLOCK_RECORD
  5
4B7
100
AcDbSymbolTableRecord
100
AcDbBlockTableRecord
  2
*B47
340
0
  0
BLOCK_RECORD
  5
4BC
100
AcDbSymbolTableRecord
100
AcDbBlockTableRecord
  2
*B48
340
0
  0
BLOCK_RECORD
  5
4C1
100
AcDbSymbolTableRecord
100
AcDbBlockTableRecord
  2
*B49
340
0
  0
BLOCK_RECORD
  5
4C7
100
AcDbSymbolTableRecord
100
AcDbBlockTableRecord
  2
*B50
340
0
  0
BLOCK_RECORD
  5
4CC
100
AcDbSymbolTableRecord
100
AcDbBlockTableRecord
  2
*B51
340
0
  0
BLOCK_RECORD
  5
4D7
100
AcDbSymbolTableRecord
100
AcDbBlockTableRecord
  2
*B52
340
0
  0
BLOCK_RECORD
  5
4E4
100
AcDbSymbolTableRecord
100
AcDbBlockTableRecord
  2
*B53
340
0
  0
BLOCK_RECORD
  5
4EA
100
AcDbSymbolTableRecord
100
AcDbBlockTableRecord
  2
*B54
340
0
  0
BLOCK_RECORD
  5
4F9
100
AcDbSymbolTableRecord
100
AcDbBlockTableRecord
  2
*B55
340
0
  0
BLOCK_RECORD
  5
4FE
100
AcDbSymbolTableRecord
100
AcDbBlockTableRecord
  2
*B56
340
0
  0
BLOCK_RECORD
  5
503
100
AcDbSymbolTableRecord
100
AcDbBlockTableRecord
  2
*B57
340
0
  0
BLOCK_RECORD
  5
509
100
AcDbSymbolTableRecord
100
AcDbBlockTableRecord
  2
*B58
340
0
  0
BLOCK_RECORD
  5
514
100
AcDbSymbolTableRecord
100
AcDbBlockTableRecord
  2
*B59
340
0
  0
BLOCK_RECORD
  5
51A
100
AcDbSymbolTableRecord
100
AcDbBlockTableRecord
  2
*B60
340
0
  0
BLOCK_RECORD
  5
529
100
AcDbSymbolTableRecord
100
AcDbBlockTableRecord
  2
*B61
340
0
  0
BLOCK_RECORD
  5
536
100
AcDbSymbolTableRecord
100
AcDbBlockTableRecord
  2
*B62
340
0
  0
BLOCK_RECORD
  5
53B
100
AcDbSymbolTableRecord
100
AcDbBlockTableRecord
  2
*B63
340
0
  0
BLOCK_RECORD
  5
540
100
AcDbSymbolTableRecord
100
AcDbBlockTableRecord
  2
*B64
340
0
  0
BLOCK_RECORD
  5
54B
100
AcDbSymbolTableRecord
100
AcDbBlockTableRecord
  2
*B65
340
0
  0
BLOCK_RECORD
  5
550
100
AcDbSymbolTableRecord
100
AcDbBlockTableRecord
  2
*B66
340
0
  0
BLOCK_RECORD
  5
555
100
AcDbSymbolTableRecord
100
AcDbBlockTableRecord
  2
*B67
340
0
  0
BLOCK_RECORD
  5
569
100
AcDbSymbolTableRecord
100
AcDbBlockTableRecord
  2
*B68
340
0
  0
BLOCK_RECORD
  5
56F
100
AcDbSymbolTableRecord
100
AcDbBlockTableRecord
  2
*B69
340
0
  0
BLOCK_RECORD
  5
574
100
AcDbSymbolTableRecord
100
AcDbBlockTableRecord
  2
*B70
340
0
  0
BLOCK_RECORD
  5
579
100
AcDbSymbolTableRecord
100
AcDbBlockTableRecord
  2
*B71
340
0
  0
BLOCK_RECORD
  5
57F
100
AcDbSymbolTableRecord
100
AcDbBlockTableRecord
  2
*B72
340
0
  0
BLOCK_RECORD
  5
585
100
AcDbSymbolTableRecord
100
AcDbBlockTableRecord
  2
*B73
340
0
  0
BLOCK_RECORD
  5
58B
100
AcDbSymbolTableRecord
100
AcDbBlockTableRecord
  2
*B74
340
0
  0
BLOCK_RECORD
  5
591
100
AcDbSymbolTableRecord
100
AcDbBlockTableRecord
  2
*B75
340
0
  0
BLOCK_RECORD
  5
597
100
AcDbSymbolTableRecord
100
AcDbBlockTableRecord
  2
*B76
340
0
  0
BLOCK_RECORD
  5
59D
100
AcDbSymbolTableRecord
100
AcDbBlockTableRecord
  2
*B77
340
0
  0
BLOCK_RECORD
  5
5A3
100
AcDbSymbolTableRecord
100
AcDbBlockTableRecord
  2
*B78
340
0
  0
BLOCK_RECORD
  5
5A9
100
AcDbSymbolTableRecord
100
AcDbBlockTableRecord
  2
*B79
340
0
  0
BLOCK_RECORD
  5
5AF
100
AcDbSymbolTableRecord
100
AcDbBlockTableRecord
  2
*B80
340
0
  0
BLOCK_RECORD
  5
5B5
100
AcDbSymbolTableRecord
100
AcDbBlockTableRecord
  2
*B81
340
0
  0
BLOCK_RECORD
  5
5BB
100
AcDbSymbolTableRecord
100
AcDbBlockTableRecord
  2
*B82
340
0
  0
BLOCK_RECORD
  5
5C1
100
AcDbSymbolTableRecord
100
AcDbBlockTableRecord
  2
*B83
340
0
  0
BLOCK_RECORD
  5
5C7
100
AcDbSymbolTableRecord
100
AcDbBlockTableRecord
  2
*B84
340
0
  0
BLOCK_RECORD
  5
5CD
100
AcDbSymbolTableRecord
100
AcDbBlockTableRecord
  2
*B85
340
0
  0
BLOCK_RECORD
  5
5D2
100
AcDbSymbolTableRecord
100
AcDbBlockTableRecord
  2
*B86
340
0
  0
BLOCK_RECORD
  5
5D7
100
AcDbSymbolTableRecord
100
AcDbBlockTableRecord
  2
*B87
340
0
  0
BLOCK_RECORD
  5
5DC
100
AcDbSymbolTableRecord
100
AcDbBlockTableRecord
  2
*B88
340
0
  0
BLOCK_RECORD
  5
5E1
100
AcDbSymbolTableRecord
100
AcDbBlockTableRecord
  2
*B89
340
0
  0
BLOCK_RECORD
  5
5E6
100
AcDbSymbolTableRecord
100
AcDbBlockTableRecord
  2
*B90
340
0
  0
BLOCK_RECORD
  5
5EB
100
AcDbSymbolTableRecord
100
AcDbBlockTableRecord
  2
*B91
340
0
  0
BLOCK_RECORD
  5
5F0
100
AcDbSymbolTableRecord
100
AcDbBlockTableRecord
  2
*B92
340
0
  0
BLOCK_RECORD
  5
5F5
100
AcDbSymbolTableRecord
100
AcDbBlockTableRecord
  2
*B93
340
0
  0
BLOCK_RECORD
  5
5FA
100
AcDbSymbolTableRecord
100
AcDbBlockTableRecord
  2
*B94
340
0
  0
BLOCK_RECORD
  5
5FF
100
AcDbSymbolTableRecord
100
AcDbBlockTableRecord
  2
*B95
340
0
  0
BLOCK_RECORD
  5
604
100
AcDbSymbolTableRecord
100
AcDbBlockTableRecord
  2
*B96
340
0
  0
BLOCK_RECORD
  5
609
100
AcDbSymbolTableRecord
100
AcDbBlockTableRecord
  2
*B97
340
0
  0
BLOCK_RECORD
  5
60E
100
AcDbSymbolTableRecord
100
AcDbBlockTableRecord
  2
*B98
340
0
  0
BLOCK_RECORD
  5
613
100
AcDbSymbolTableRecord
100
AcDbBlockTableRecord
  2
*B99
340
0
  0
BLOCK_RECORD
  5
618
100
AcDbSymbolTableRecord
100
AcDbBlockTableRecord
  2
*B100
340
0
  0
BLOCK_RECORD
  5
61D
100
AcDbSymbolTableRecord
100
AcDbBlockTableRecord
  2
*B101
340
0
  0
BLOCK_RECORD
  5
622
100
AcDbSymbolTableRecord
100
AcDbBlockTableRecord
  2
*B102
340
0
  0
BLOCK_RECORD
  5
627
100
AcDbSymbolTableRecord
100
AcDbBlockTableRecord
  2
*B103
340
0
  0
BLOCK_RECORD
  5
62C
100
AcDbSymbolTableRecord
100
AcDbBlockTableRecord
  2
*B104
340
0
  0
BLOCK_RECORD
  5
631
100
AcDbSymbolTableRecord
100
AcDbBlockTableRecord
  2
*B105
340
0
  0
BLOCK_RECORD
  5
636
100
AcDbSymbolTableRecord
100
AcDbBlockTableRecord
  2
*B106
340
0
  0
BLOCK_RECORD
  5
63B
100
AcDbSymbolTableRecord
100
AcDbBlockTableRecord
  2
*B107
340
0
  0
BLOCK_RECORD
  5
640
100
AcDbSymbolTableRecord
100
AcDbBlockTableRecord
  2
*B108
340
0
  0
BLOCK_RECORD
  5
645
100
AcDbSymbolTableRecord
100
AcDbBlockTableRecord
  2
*B109
340
0
  0
BLOCK_RECORD
  5
64A
100
AcDbSymbolTableRecord
100
AcDbBlockTableRecord
  2
*B110
340
0
  0
BLOCK_RECORD
  5
64F
100
AcDbSymbolTableRecord
100
AcDbBlockTableRecord
  2
*B111
340
0
  0
BLOCK_RECORD
  5
654
100
AcDbSymbolTableRecord
100
AcDbBlockTableRecord
  2
*B112
340
0
  0
BLOCK_RECORD
  5
659
100
AcDbSymbolTableRecord
100
AcDbBlockTableRecord
  2
*B113
340
0
  0
BLOCK_RECORD
  5
65E
100
AcDbSymbolTableRecord
100
AcDbBlockTableRecord
  2
*B114
340
0
  0
ENDTAB
  0
ENDSEC
  0
SECTION
  2
BLOCKS
  0
BLOCK
  5
D
100
AcDbEntity
  8
0
100
AcDbBlockBegin
  2
*MODEL_SPACE
 70
     0
 10
0.0
 20
0.0
 30
0.0
  3
*MODEL_SPACE
  1

  0
ENDBLK
  5
E
100
AcDbEntity
  8
0
100
AcDbBlockEnd
  0
BLOCK
  5
F
100
AcDbEntity
 67
     1
  8
0
100
AcDbBlockBegin
  2
*PAPER_SPACE
 70
     0
 10
0.0
 20
0.0
 30
0.0
  3
*PAPER_SPACE
  1

  0
ENDBLK
  5
10
100
AcDbEntity
 67
     1
  8
0
100
AcDbBlockEnd
  0
BLOCK
  5
2A
100
AcDbEntity
  8
0
100
AcDbBlockBegin
  2
*B0
 70
     0
 10
0.0
 20
0.0
 30
0.0
  3
*B0
  1

  0
ENDBLK
  5
2B
100
AcDbEntity
  8
0
100
AcDbBlockEnd
  0
BLOCK
  5
2D
100
AcDbEntity
  8
0
100
AcDbBlockBegin
  2
*B1
 70
     0
 10
0.0
 20
0.0
 30
0.0
  3
*B1
  1

  0
LINE
  5
2E
100
AcDbEntity
  8
0
  6
HIDDEN
 62
   174
100
AcDbLine
 10
204.757888
 20
171.150267
 30
0.0
 11
204.757888
 21
171.200267
 31
0.0
  0
LINE
  5
2F
100
AcDbEntity
  8
0
  6
HIDDEN
 62
   174
100
AcDbLine
 10
211.557888
 20
171.150267
 30
0.0
 11
211.557888
 21
171.200267
 31
0.0
  0
LINE
  5
30
100
AcDbEntity
  8
0
  6
HIDDEN
 62
   174
100
AcDbLine
 10
89.557888
 20
171.150267
 30
0.0
 11
89.557888
 21
171.200267
 31
0.0
  0
LINE
  5
31
100
AcDbEntity
  8
0
  6
HIDDEN
 62
   174
100
AcDbLine
 10
82.757888
 20
171.150267
 30
0.0
 11
82.757888
 21
171.200267
 31
0.0
  0
LINE
  5
32
100
AcDbEntity
  8
0
  6
HIDDEN
 62
   174
100
AcDbLine
 10
83.157888
 20
171.150267
 30
0.0
 11
83.157888
 21
171.200267
 31
0.0
  0
LINE
  5
33
100
AcDbEntity
  8
0
  6
HIDDEN
 62
   174
100
AcDbLine
 10
211.157888
 20
171.150267
 30
0.0
 11
211.157888
 21
171.200267
 31
0.0
  0
LINE
  5
34
100
AcDbEntity
  8
0
  6
HIDDEN
 62
   174
100
AcDbLine
 10
89.157888
 20
171.150267
 30
0.0
 11
89.157888
 21
171.200267
 31
0.0
  0
LINE
  5
35
100
AcDbEntity
  8
0
  6
HIDDEN
 62
   174
100
AcDbLine
 10
205.157888
 20
171.150267
 30
0.0
 11
205.157888
 21
171.200267
 31
0.0
  0
ARC
  5
36
100
AcDbEntity
  8
0
  6
Continuous
 62
   174
100
AcDbCircle
 10
156.157888
 20
112.700267
 30
0.0
 40
2.25
100
AcDbArc
 50
0.0
 51
180.0
  0
ARC
  5
37
100
AcDbEntity
  8
0
  6
Continuous
 62
   174
100
AcDbCircle
 10
156.157888
 20
112.700267
 30
0.0
 40
2.25
100
AcDbArc
 50
-180.0
 51
0.0
  0
ARC
  5
38
100
AcDbEntity
  8
0
  6
Continuous
 62
   174
100
AcDbCircle
 10
138.157888
 20
112.700267
 30
0.0
 40
2.25
100
AcDbArc
 50
0.0
 51
180.0
  0
ARC
  5
39
100
AcDbEntity
  8
0
  6
Continuous
 62
   174
100
AcDbCircle
 10
138.157888
 20
112.700267
 30
0.0
 40
2.25
100
AcDbArc
 50
-180.0
 51
0.0
  0
LINE
  5
3A
100
AcDbEntity
  8
0
  6
HIDDEN
 62
   174
100
AcDbLine
 10
84.180705
 20
171.200267
 30
0.0
 11
84.180705
 21
171.150267
 31
0.0
  0
LINE
  5
3B
100
AcDbEntity
  8
0
  6
HIDDEN
 62
   174
100
AcDbLine
 10
86.176015
 20
171.200267
 30
0.0
 11
84.182351
 21
171.200267
 31
0.0
  0
LINE
  5
3C
100
AcDbEntity
  8
0
  6
HIDDEN
 62
   174
100
AcDbLine
 10
88.444778
 20
171.200267
 30
0.0
 11
88.002497
 21
171.200267
 31
0.0
  0
LINE
  5
3D
100
AcDbEntity
  8
0
  6
HIDDEN
 62
   174
100
AcDbLine
 10
206.476089
 20
171.200267
 30
0.0
 11
206.349481
 21
171.200267
 31
0.0
  0
LINE
  5
3E
100
AcDbEntity
  8
0
  6
HIDDEN
 62
   174
100
AcDbLine
 10
210.169626
 20
171.200267
 30
0.0
 11
208.175962
 21
171.200267
 31
0.0
  0
LINE
  5
3F
100
AcDbEntity
  8
0
  6
Continuous
 62
   174
100
AcDbLine
 10
234.657888
 20
169.700267
 30
0.0
 11
237.657888
 21
169.700267
 31
0.0
  0
LINE
  5
40
100
AcDbEntity
  8
0
  6
Continuous
 62
   174
100
AcDbLine
 10
56.657888
 20
154.200267
 30
0.0
 11
55.957888
 21
154.200267
 31
0.0
  0
LINE
  5
41
100
AcDbEntity
  8
0
  6
Continuous
 62
   174
100
AcDbLine
 10
242.157888
 20
171.000267
 30
0.0
 11
241.490612
 21
172.156024
 31
0.0
  0
LINE
  5
42
100
AcDbEntity
  8
0
  6
Continuous
 62
   174
100
AcDbLine
 10
222.657888
 20
160.416385
 30
0.0
 11
222.657888
 21
142.200267
 31
0.0
  0
LINE
  5
43
100
AcDbEntity
  8
0
  6
HIDDEN
 62
   174
100
AcDbLine
 10
71.657888
 20
155.200267
 30
0.0
 11
71.657888
 21
142.200267
 31
0.0
  0
LINE
  5
44
100
AcDbEntity
  8
0
  6
Continuous
 62
   174
100
AcDbLine
 10
101.157888
 20
142.200267
 30
0.0
 11
101.157888
 21
143.200267
 31
0.0
  0
LINE
  5
45
100
AcDbEntity
  8
0
  6
HIDDEN
 62
   174
100
AcDbLine
 10
210.135071
 20
171.200267
 30
0.0
 11
210.135071
 21
171.150267
 31
0.0
  0
LINE
  5
46
100
AcDbEntity
  8
0
  6
HIDDEN
 62
   174
100
AcDbLine
 10
88.414157
 20
171.200267
 30
0.0
 11
88.414157
 21
171.150267
 31
0.0
  0
LINE
  5
47
100
AcDbEntity
  8
0
  6
HIDDEN
 62
   174
100
AcDbLine
 10
83.162045
 20
171.200267
 30
0.0
 11
82.776058
 21
171.200267
 31
0.0
  0
LINE
  5
48
100
AcDbEntity
  8
0
  6
HIDDEN
 62
   174
100
AcDbLine
 10
205.161779
 20
171.200267
 30
0.0
 11
204.776005
 21
171.200267
 31
0.0
  0
LINE
  5
49
100
AcDbEntity
  8
0
  6
HIDDEN
 62
   174
100
AcDbLine
 10
211.190357
 20
171.200267
 30
0.0
 11
211.120467
 21
171.200267
 31
0.0
  0
LINE
  5
4A
100
AcDbEntity
  8
0
  6
HIDDEN
 62
   174
100
AcDbLine
 10
210.544735
 20
171.200267
 30
0.0
 11
210.135071
 21
171.200267
 31
0.0
  0
LINE
  5
4B
100
AcDbEntity
  8
0
  6
HIDDEN
 62
   174
100
AcDbLine
 10
88.414157
 20
171.200267
 30
0.0
 11
87.975293
 21
171.200267
 31
0.0
  0
LINE
  5
4C
100
AcDbEntity
  8
0
  6
Continuous
 62
   174
100
AcDbLine
 10
56.657888
 20
172.200267
 30
0.0
 11
55.957888
 21
172.200267
 31
0.0
  0
LINE
  5
4D
100
AcDbEntity
  8
0
  6
Continuous
 62
   174
100
AcDbLine
 10
52.157888
 20
155.400267
 30
0.0
 11
52.825142
 21
154.244549
 31
0.0
  0
LINE
  5
4E
100
AcDbEntity
  8
0
  6
HIDDEN
 62
   174
100
AcDbLine
 10
151.551004
 20
107.200267
 30
0.0
 11
142.800973
 21
107.200267
 31
0.0
  0
LINE
  5
4F
100
AcDbEntity
  8
0
  6
HIDDEN
 62
   174
100
AcDbLine
 10
142.782888
 20
115.200267
 30
0.0
 11
142.782888
 21
107.200267
 31
0.0
  0
LINE
  5
50
100
AcDbEntity
  8
0
  6
HIDDEN
 62
   174
100
AcDbLine
 10
151.532888
 20
107.200267
 30
0.0
 11
151.532888
 21
117.200267
 31
0.0
  0
LINE
  5
51
100
AcDbEntity
  8
0
  6
HIDDEN
 62
   174
100
AcDbLine
 10
151.532888
 20
115.200267
 30
0.0
 11
151.532888
 21
107.200267
 31
0.0
  0
LINE
  5
52
100
AcDbEntity
  8
0
  6
HIDDEN
 62
   174
100
AcDbLine
 10
124.801061
 20
117.200267
 30
0.0
 11
133.551092
 21
117.200267
 31
0.0
  0
LINE
  5
53
100
AcDbEntity
  8
0
  6
HIDDEN
 62
   174
100
AcDbLine
 10
177.207888
 20
131.210953
 30
0.0
 11
177.207888
 21
119.21179
 31
0.0
  0
LINE
  5
54
100
AcDbEntity
  8
0
  6
HIDDEN
 62
   174
100
AcDbLine
 10
117.107888
 20
131.210953
 30
0.0
 11
117.107888
 21
119.21179
 31
0.0
  0
LINE
  5
55
100
AcDbEntity
  8
0
  6
HIDDEN
 62
   174
100
AcDbLine
 10
133.551092
 20
107.200267
 30
0.0
 11
124.801061
 21
107.200267
 31
0.0
  0
LINE
  5
56
100
AcDbEntity
  8
0
  6
Continuous
 62
   174
100
AcDbLine
 10
101.157888
 20
143.200267
 30
0.0
 11
117.157888
 21
143.200267
 31
0.0
  0
LINE
  5
57
100
AcDbEntity
  8
0
  6
HIDDEN
 62
   174
100
AcDbLine
 10
177.157888
 20
131.200267
 30
0.0
 11
177.207888
 21
131.200267
 31
0.0
  0
LINE
  5
58
100
AcDbEntity
  8
0
  6
HIDDEN
 62
   174
100
AcDbLine
 10
206.340483
 20
171.200267
 30
0.0
 11
206.340483
 21
171.150267
 31
0.0
  0
LINE
  5
59
100
AcDbEntity
  8
0
  6
HIDDEN
 62
   174
100
AcDbLine
 10
89.575973
 20
171.200267
 30
0.0
 11
89.190411
 21
171.200267
 31
0.0
  0
LINE
  5
5A
100
AcDbEntity
  8
0
  6
HIDDEN
 62
   174
100
AcDbLine
 10
88.580309
 20
171.200267
 30
0.0
 11
88.444778
 21
171.200267
 31
0.0
  0
LINE
  5
5B
100
AcDbEntity
  8
0
  6
HIDDEN
 62
   174
100
AcDbLine
 10
89.120521
 20
171.200267
 30
0.0
 11
88.580309
 21
171.200267
 31
0.0
  0
LINE
  5
5C
100
AcDbEntity
  8
0
  6
HIDDEN
 62
   174
100
AcDbLine
 10
205.231457
 20
171.200267
 30
0.0
 11
205.161779
 21
171.200267
 31
0.0
  0
LINE
  5
5D
100
AcDbEntity
  8
0
  6
HIDDEN
 62
   174
100
AcDbLine
 10
86.157888
 20
171.200267
 30
0.0
 11
84.180705
 21
171.200267
 31
0.0
  0
LINE
  5
5E
100
AcDbEntity
  8
0
  6
HIDDEN
 62
   174
100
AcDbLine
 10
142.311107
 20
115.200267
 30
0.0
 11
152.041082
 21
115.200267
 31
0.0
  0
LINE
  5
5F
100
AcDbEntity
  8
0
  6
HIDDEN
 62
   174
100
AcDbLine
 10
151.532888
 20
107.200267
 30
0.0
 11
151.532888
 21
117.200267
 31
0.0
  0
LINE
  5
60
100
AcDbEntity
  8
0
  6
HIDDEN
 62
   174
100
AcDbLine
 10
84.182351
 20
171.200267
 30
0.0
 11
83.23151
 21
171.200267
 31
0.0
  0
LINE
  5
61
100
AcDbEntity
  8
0
  6
HIDDEN
 62
   174
100
AcDbLine
 10
211.575919
 20
171.200267
 30
0.0
 11
211.190357
 21
171.200267
 31
0.0
  0
LINE
  5
62
100
AcDbEntity
  8
0
  6
HIDDEN
 62
   174
100
AcDbLine
 10
210.580256
 20
171.200267
 30
0.0
 11
210.564748
 21
171.200267
 31
0.0
  0
LINE
  5
63
100
AcDbEntity
  8
0
  6
HIDDEN
 62
   174
100
AcDbLine
 10
89.175965
 20
171.200267
 30
0.0
 11
88.432245
 21
171.200267
 31
0.0
  0
LINE
  5
64
100
AcDbEntity
  8
0
  6
HIDDEN
 62
   174
100
AcDbLine
 10
152.022888
 20
115.200267
 30
0.0
 11
152.022888
 21
107.200267
 31
0.0
  0
LINE
  5
65
100
AcDbEntity
  8
0
  6
HIDDEN
 62
   174
100
AcDbLine
 10
142.311107
 20
107.200267
 30
0.0
 11
152.041082
 21
107.200267
 31
0.0
  0
LINE
  5
66
100
AcDbEntity
  8
0
  6
HIDDEN
 62
   174
100
AcDbLine
 10
142.292888
 20
115.200267
 30
0.0
 11
142.292888
 21
107.200267
 31
0.0
  0
LINE
  5
67
100
AcDbEntity
  8
0
  6
HIDDEN
 62
   174
100
AcDbLine
 10
142.292888
 20
115.200267
 30
0.0
 11
142.292888
 21
107.200267
 31
0.0
  0
LINE
  5
68
100
AcDbEntity
  8
0
  6
HIDDEN
 62
   174
100
AcDbLine
 10
142.782888
 20
107.200267
 30
0.0
 11
142.782888
 21
117.200267
 31
0.0
  0
LINE
  5
69
100
AcDbEntity
  8
0
  6
HIDDEN
 62
   174
100
AcDbLine
 10
177.157888
 20
119.200267
 30
0.0
 11
177.207888
 21
119.200267
 31
0.0
  0
LINE
  5
6A
100
AcDbEntity
  8
0
  6
HIDDEN
 62
   174
100
AcDbLine
 10
177.157888
 20
131.200267
 30
0.0
 11
177.207888
 21
131.200267
 31
0.0
  0
LINE
  5
6B
100
AcDbEntity
  8
0
  6
HIDDEN
 62
   174
100
AcDbLine
 10
205.90162
 20
171.200267
 30
0.0
 11
205.90162
 21
171.150267
 31
0.0
  0
LINE
  5
6C
100
AcDbEntity
  8
0
  6
HIDDEN
 62
   174
100
AcDbLine
 10
87.975293
 20
171.200267
 30
0.0
 11
87.975293
 21
171.150267
 31
0.0
  0
LINE
  5
6D
100
AcDbEntity
  8
0
  6
HIDDEN
 62
   174
100
AcDbLine
 10
88.002497
 20
171.200267
 30
0.0
 11
87.8761
 21
171.200267
 31
0.0
  0
LINE
  5
6E
100
AcDbEntity
  8
0
  6
HIDDEN
 62
   174
100
AcDbLine
 10
210.564748
 20
171.200267
 30
0.0
 11
210.169626
 21
171.200267
 31
0.0
  0
LINE
  5
6F
100
AcDbEntity
  8
0
  6
HIDDEN
 62
   174
100
AcDbLine
 10
84.185112
 20
171.200267
 30
0.0
 11
83.176065
 21
171.200267
 31
0.0
  0
LINE
  5
70
100
AcDbEntity
  8
0
  6
HIDDEN
 62
   174
100
AcDbLine
 10
86.176015
 20
171.200267
 30
0.0
 11
84.348897
 21
171.200267
 31
0.0
  0
LINE
  5
71
100
AcDbEntity
  8
0
  6
HIDDEN
 62
   174
100
AcDbLine
 10
87.975293
 20
171.200267
 30
0.0
 11
86.157888
 21
171.200267
 31
0.0
  0
LINE
  5
72
100
AcDbEntity
  8
0
  6
Continuous
 62
   174
100
AcDbLine
 10
237.657888
 20
172.200267
 30
0.0
 11
238.357888
 21
172.200267
 31
0.0
  0
LINE
  5
73
100
AcDbEntity
  8
0
  6
Continuous
 62
   174
100
AcDbLine
 10
237.657888
 20
154.200267
 30
0.0
 11
238.357888
 21
154.200267
 31
0.0
  0
LINE
  5
74
100
AcDbEntity
  8
0
  6
Continuous
 62
   174
100
AcDbLine
 10
52.157888
 20
171.000267
 30
0.0
 11
52.825165
 21
172.156024
 31
0.0
  0
LINE
  5
75
100
AcDbEntity
  8
0
  6
HIDDEN
 62
   174
100
AcDbLine
 10
142.800973
 20
117.200267
 30
0.0
 11
151.551004
 21
117.200267
 31
0.0
  0
LINE
  5
76
100
AcDbEntity
  8
0
  6
Continuous
 62
   174
100
AcDbLine
 10
59.657888
 20
155.200267
 30
0.0
 11
71.657888
 21
155.200267
 31
0.0
  0
LINE
  5
77
100
AcDbEntity
  8
0
  6
HIDDEN
 62
   174
100
AcDbLine
 10
71.657888
 20
160.416385
 30
0.0
 11
71.657888
 21
155.200267
 31
0.0
  0
LINE
  5
78
100
AcDbEntity
  8
0
  6
HIDDEN
 62
   174
100
AcDbLine
 10
160.801098
 20
117.200267
 30
0.0
 11
169.550916
 21
117.200267
 31
0.0
  0
LINE
  5
79
100
AcDbEntity
  8
0
  6
Continuous
 62
   174
100
AcDbLine
 10
101.157888
 20
107.200267
 30
0.0
 11
101.157888
 21
114.200267
 31
0.0
  0
LINE
  5
7A
100
AcDbEntity
  8
0
  6
Continuous
 62
   174
100
AcDbLine
 10
101.157888
 20
114.200267
 30
0.0
 11
101.157888
 21
142.200267
 31
0.0
  0
LINE
  5
7B
100
AcDbEntity
  8
0
  6
HIDDEN
 62
   174
100
AcDbLine
 10
177.157888
 20
119.200267
 30
0.0
 11
177.207888
 21
119.200267
 31
0.0
  0
LINE
  5
7C
100
AcDbEntity
  8
0
  6
HIDDEN
 62
   174
100
AcDbLine
 10
117.157888
 20
131.200267
 30
0.0
 11
117.107888
 21
131.200267
 31
0.0
  0
LINE
  5
7D
100
AcDbEntity
  8
0
  6
HIDDEN
 62
   174
100
AcDbLine
 10
87.8761
 20
171.200267
 30
0.0
 11
86.176015
 21
171.200267
 31
0.0
  0
LINE
  5
7E
100
AcDbEntity
  8
0
  6
HIDDEN
 62
   174
100
AcDbLine
 10
211.175912
 20
171.200267
 30
0.0
 11
210.562836
 21
171.200267
 31
0.0
  0
LINE
  5
7F
100
AcDbEntity
  8
0
  6
HIDDEN
 62
   174
100
AcDbLine
 10
208.157888
 20
171.200267
 30
0.0
 11
206.340483
 21
171.200267
 31
0.0
  0
LINE
  5
80
100
AcDbEntity
  8
0
  6
HIDDEN
 62
   174
100
AcDbLine
 10
206.34417
 20
171.200267
 30
0.0
 11
205.176012
 21
171.200267
 31
0.0
  0
LINE
  5
81
100
AcDbEntity
  8
0
  6
HIDDEN
 62
   174
100
AcDbLine
 10
208.077182
 20
171.200267
 30
0.0
 11
206.34417
 21
171.200267
 31
0.0
  0
LINE
  5
82
100
AcDbEntity
  8
0
  6
Continuous
 62
   174
100
AcDbLine
 10
59.657888
 20
156.700267
 30
0.0
 11
56.657888
 21
156.700267
 31
0.0
  0
LINE
  5
83
100
AcDbEntity
  8
0
  6
Continuous
 62
   174
100
AcDbLine
 10
242.157888
 20
155.400267
 30
0.0
 11
241.490634
 21
154.244549
 31
0.0
  0
LINE
  5
84
100
AcDbEntity
  8
0
  6
Continuous
 62
   174
100
AcDbLine
 10
234.657888
 20
155.200267
 30
0.0
 11
222.657888
 21
155.200267
 31
0.0
  0
LINE
  5
85
100
AcDbEntity
  8
0
  6
HIDDEN
 62
   174
100
AcDbLine
 10
152.022888
 20
115.200267
 30
0.0
 11
152.022888
 21
107.200267
 31
0.0
  0
LINE
  5
86
100
AcDbEntity
  8
0
  6
HIDDEN
 62
   174
100
AcDbLine
 10
169.550916
 20
107.200267
 30
0.0
 11
160.801098
 21
107.200267
 31
0.0
  0
LINE
  5
87
100
AcDbEntity
  8
0
  6
HIDDEN
 62
   174
100
AcDbLine
 10
117.157888
 20
119.200267
 30
0.0
 11
117.107888
 21
119.200267
 31
0.0
  0
LINE
  5
88
100
AcDbEntity
  8
0
  6
HIDDEN
 62
   174
100
AcDbLine
 10
89.190411
 20
171.200267
 30
0.0
 11
89.120521
 21
171.200267
 31
0.0
  0
LINE
  5
89
100
AcDbEntity
  8
0
  6
HIDDEN
 62
   174
100
AcDbLine
 10
206.349481
 20
171.200267
 30
0.0
 11
205.231457
 21
171.200267
 31
0.0
  0
LINE
  5
8A
100
AcDbEntity
  8
0
  6
HIDDEN
 62
   174
100
AcDbLine
 10
208.175962
 20
171.200267
 30
0.0
 11
206.476089
 21
171.200267
 31
0.0
  0
LINE
  5
8B
100
AcDbEntity
  8
0
  6
HIDDEN
 62
   174
100
AcDbLine
 10
211.120467
 20
171.200267
 30
0.0
 11
210.580256
 21
171.200267
 31
0.0
  0
LINE
  5
8C
100
AcDbEntity
  8
0
  6
HIDDEN
 62
   174
100
AcDbLine
 10
87.993362
 20
171.200267
 30
0.0
 11
86.176015
 21
171.200267
 31
0.0
  0
LINE
  5
8D
100
AcDbEntity
  8
0
  6
HIDDEN
 62
   174
100
AcDbLine
 10
84.348897
 20
171.200267
 30
0.0
 11
84.185112
 21
171.200267
 31
0.0
  0
LINE
  5
8E
100
AcDbEntity
  8
0
  6
HIDDEN
 62
   174
100
AcDbLine
 10
210.135071
 20
171.200267
 30
0.0
 11
208.157888
 21
171.200267
 31
0.0
  0
LINE
  5
8F
100
AcDbEntity
  8
0
  6
Continuous
 62
   174
100
AcDbLine
 10
59.657888
 20
171.200267
 30
0.0
 11
74.657888
 21
171.200267
 31
0.0
  0
LINE
  5
90
100
AcDbEntity
  8
0
  6
HIDDEN
 62
   174
100
AcDbLine
 10
142.782888
 20
107.200267
 30
0.0
 11
142.782888
 21
117.200267
 31
0.0
  0
LINE
  5
91
100
AcDbEntity
  8
0
  6
HIDDEN
 62
   174
100
AcDbLine
 10
117.157888
 20
131.200267
 30
0.0
 11
117.107888
 21
131.200267
 31
0.0
  0
LINE
  5
92
100
AcDbEntity
  8
0
  6
HIDDEN
 62
   174
100
AcDbLine
 10
210.544735
 20
171.200267
 30
0.0
 11
210.544735
 21
171.150267
 31
0.0
  0
LINE
  5
93
100
AcDbEntity
  8
0
  6
HIDDEN
 62
   174
100
AcDbLine
 10
83.771041
 20
171.200267
 30
0.0
 11
83.771041
 21
171.150267
 31
0.0
  0
LINE
  5
94
100
AcDbEntity
  8
0
  6
HIDDEN
 62
   174
100
AcDbLine
 10
83.23151
 20
171.200267
 30
0.0
 11
83.162045
 21
171.200267
 31
0.0
  0
LINE
  5
95
100
AcDbEntity
  8
0
  6
HIDDEN
 62
   174
100
AcDbLine
 10
210.153269
 20
171.200267
 30
0.0
 11
208.176387
 21
171.200267
 31
0.0
  0
LINE
  5
96
100
AcDbEntity
  8
0
  6
HIDDEN
 62
   174
100
AcDbLine
 10
208.176387
 20
171.200267
 30
0.0
 11
208.077182
 21
171.200267
 31
0.0
  0
LINE
  5
97
100
AcDbEntity
  8
0
  6
Continuous
 62
   174
100
AcDbLine
 10
59.657888
 20
169.700267
 30
0.0
 11
56.657888
 21
169.700267
 31
0.0
  0
LINE
  5
98
100
AcDbEntity
  8
0
  6
Continuous
 62
   174
100
AcDbLine
 10
234.657888
 20
156.700267
 30
0.0
 11
237.657888
 21
156.700267
 31
0.0
  0
LINE
  5
99
100
AcDbEntity
  8
0
  6
Continuous
 62
   174
100
AcDbLine
 10
234.657888
 20
171.200267
 30
0.0
 11
219.657888
 21
171.200267
 31
0.0
  0
LINE
  5
9A
100
AcDbEntity
  8
0
  6
HIDDEN
 62
   174
100
AcDbLine
 10
151.532888
 20
115.200267
 30
0.0
 11
151.532888
 21
107.200267
 31
0.0
  0
LINE
  5
9B
100
AcDbEntity
  8
0
  6
HIDDEN
 62
   174
100
AcDbLine
 10
142.782888
 20
115.200267
 30
0.0
 11
142.782888
 21
107.200267
 31
0.0
  0
LINE
  5
9C
100
AcDbEntity
  8
0
  6
HIDDEN
 62
   174
100
AcDbLine
 10
237.657888
 20
156.709677
 30
0.0
 11
237.657888
 21
163.209215
 31
0.0
  0
LINE
  5
9D
100
AcDbEntity
  8
0
  6
Continuous
 62
   174
100
AcDbLine
 10
238.357888
 20
163.209215
 30
0.0
 11
238.357888
 21
167.630965
 31
0.0
  0
LINE
  5
9E
100
AcDbEntity
  8
0
  6
Continuous
 62
   174
100
AcDbLine
 10
238.357888
 20
154.20979
 30
0.0
 11
238.357888
 21
158.787677
 31
0.0
  0
LINE
  5
9F
100
AcDbEntity
  8
0
  6
Continuous
 62
   174
100
AcDbLine
 10
63.457888
 20
115.517486
 30
0.0
 11
69.657888
 21
115.517486
 31
0.0
  0
LINE
  5
A0
100
AcDbEntity
  8
0
  6
HIDDEN
 62
   174
100
AcDbLine
 10
55.957888
 20
172.199818
 30
0.0
 11
55.957888
 21
167.622158
 31
0.0
  0
LINE
  5
A1
100
AcDbEntity
  8
0
  6
HIDDEN
 62
   174
100
AcDbLine
 10
89.557888
 20
171.200267
 30
0.0
 11
97.657888
 21
171.200267
 31
0.0
  0
LINE
  5
A2
100
AcDbEntity
  8
0
  6
HIDDEN
 62
   174
100
AcDbLine
 10
204.757888
 20
171.200267
 30
0.0
 11
205.157946
 21
171.200267
 31
0.0
  0
LINE
  5
A3
100
AcDbEntity
  8
0
  6
HIDDEN
 62
   174
100
AcDbLine
 10
109.652185
 20
143.200267
 30
0.0
 11
109.42807
 21
143.200267
 31
0.0
  0
LINE
  5
A4
100
AcDbEntity
  8
0
  6
HIDDEN
 62
   174
100
AcDbLine
 10
87.975293
 20
171.150267
 30
0.0
 11
83.771041
 21
171.150267
 31
0.0
  0
LINE
  5
A5
100
AcDbEntity
  8
0
  6
Continuous
 62
   174
100
AcDbLine
 10
100.657888
 20
168.200267
 30
0.0
 11
100.657888
 21
142.200267
 31
0.0
  0
LINE
  5
A6
100
AcDbEntity
  8
0
  6
HIDDEN
 62
   174
100
AcDbLine
 10
56.657888
 20
163.209215
 30
0.0
 11
56.657888
 21
156.709677
 31
0.0
  0
LWPOLYLINE
  5
A7
100
AcDbEntity
  8
0
  6
Continuous
 62
   174
100
AcDbPolyline
 90
        4
 70
   128
 10
52.157888
 20
164.091878
 10
52.291008
 20
165.308594
 10
52.524094
 20
166.530757
 10
52.850708
 20
167.777927
  0
LINE
  5
A8
100
AcDbEntity
  8
0
  6
HIDDEN
 62
   174
100
AcDbLine
 10
69.657888
 20
122.703634
 30
0.0
 11
69.657888
 21
127.703633
 31
0.0
  0
LINE
  5
A9
100
AcDbEntity
  8
0
  6
Continuous
 62
   174
100
AcDbLine
 10
52.157888
 20
171.00883
 30
0.0
 11
52.157888
 21
164.100788
 31
0.0
  0
LINE
  5
AA
100
AcDbEntity
  8
0
  6
HIDDEN
 62
   174
100
AcDbLine
 10
170.022888
 20
115.200267
 30
0.0
 11
170.022888
 21
107.200267
 31
0.0
  0
LINE
  5
AB
100
AcDbEntity
  8
0
  6
HIDDEN
 62
   174
100
AcDbLine
 10
160.292888
 20
115.200267
 30
0.0
 11
160.292888
 21
107.200267
 31
0.0
  0
LWPOLYLINE
  5
AC
100
AcDbEntity
  8
0
  6
Continuous
 62
   174
100
AcDbPolyline
 90
        4
 70
   128
 10
71.699848
 20
163.200267
 10
71.690853
 20
162.25126
 10
71.670448
 20
161.313094
 10
71.657888
 20
160.416385
  0
LINE
  5
AD
100
AcDbEntity
  8
0
  6
Continuous
 62
   174
100
AcDbLine
 10
196.657888
 20
168.200267
 30
0.0
 11
219.657888
 21
168.200267
 31
0.0
  0
ARC
  5
AE
100
AcDbEntity
  8
0
  6
Continuous
 62
   174
100
AcDbCircle
 10
129.157888
 20
137.700267
 30
0.0
 40
2.25
100
AcDbArc
 50
0.0
 51
180.0
  0
LINE
  5
AF
100
AcDbEntity
  8
0
  6
Continuous
 62
   174
100
AcDbLine
 10
55.957888
 20
154.200716
 30
0.0
 11
52.850708
 21
154.200716
 31
0.0
  0
LWPOLYLINE
  5
B0
100
AcDbEntity
  8
0
  6
Continuous
 62
   174
100
AcDbPolyline
 90
        6
 70
   128
 10
52.307228
 20
155.478437
 10
52.256484
 20
155.689453
 10
52.17958
 20
156.411702
 10
52.256499
 20
157.133941
 10
52.484599
 20
157.87096
 10
52.850708
 20
158.622607
  0
LWPOLYLINE
  5
B1
100
AcDbEntity
  8
0
  6
HIDDEN
 62
   174
100
AcDbPolyline
 90
        4
 70
   128
 10
52.850708
 20
158.778376
 10
52.522808
 20
158.151969
 10
52.290054
 20
157.540556
 10
52.157888
 20
156.935352
  0
LWPOLYLINE
  5
B2
100
AcDbEntity
  8
0
  6
HIDDEN
 62
   174
100
AcDbPolyline
 90
        4
 70
   128
 10
52.157888
 20
169.465182
 10
52.291009
 20
168.856823
 10
52.524091
 20
168.245748
 10
52.850708
 20
167.622158
  0
LINE
  5
B3
100
AcDbEntity
  8
0
  6
HIDDEN
 62
   174
100
AcDbLine
 10
160.782888
 20
115.200267
 30
0.0
 11
160.782888
 21
107.200267
 31
0.0
  0
LINE
  5
B4
100
AcDbEntity
  8
0
  6
Continuous
 62
   174
100
AcDbLine
 10
230.857888
 20
134.883272
 30
0.0
 11
224.657888
 21
134.883272
 31
0.0
  0
LINE
  5
B5
100
AcDbEntity
  8
0
  6
Continuous
 62
   174
100
AcDbLine
 10
69.657888
 20
122.71159
 30
0.0
 11
69.657888
 21
126.707417
 31
0.0
  0
LINE
  5
B6
100
AcDbEntity
  8
0
  6
HIDDEN
 62
   174
100
AcDbLine
 10
143.022888
 20
135.200267
 30
0.0
 11
143.022888
 21
143.200267
 31
0.0
  0
LINE
  5
B7
100
AcDbEntity
  8
0
  6
HIDDEN
 62
   174
100
AcDbLine
 10
97.657888
 20
168.200267
 30
0.0
 11
74.657888
 21
168.200267
 31
0.0
  0
ARC
  5
B8
100
AcDbEntity
  8
0
  6
Continuous
 62
   174
100
AcDbCircle
 10
196.657888
 20
168.200267
 30
0.0
 40
3.0
100
AcDbArc
 50
90.0
 51
180.0
  0
LINE
  5
B9
100
AcDbEntity
  8
0
  6
HIDDEN
 62
   174
100
AcDbLine
 10
211.175912
 20
171.150267
 30
0.0
 11
206.358615
 21
171.150267
 31
0.0
  0
LINE
  5
BA
100
AcDbEntity
  8
0
  6
Continuous
 62
   174
100
AcDbLine
 10
59.657888
 20
163.209215
 30
0.0
 11
59.657888
 21
156.602612
 31
0.0
  0
LWPOLYLINE
  5
BB
100
AcDbEntity
  8
0
  6
HIDDEN
 62
   174
100
AcDbPolyline
 90
        7
 70
   128
 10
52.850708
 20
167.622158
 10
52.484606
 20
166.118887
 10
52.256506
 20
164.644897
 10
52.179575
 20
163.200504
 10
52.256462
 20
161.756058
 10
52.484555
 20
160.281907
 10
52.850708
 20
158.778376
  0
LWPOLYLINE
  5
BC
100
AcDbEntity
  8
0
  6
HIDDEN
 62
   174
100
AcDbPolyline
 90
        4
 70
   128
 10
71.657888
 20
165.984149
 10
71.670448
 20
165.087414
 10
71.690853
 20
164.14926
 10
71.699848
 20
163.200267
  0
LWPOLYLINE
  5
BD
100
AcDbEntity
  8
0
  6
HIDDEN
 62
   174
100
AcDbPolyline
 90
        6
 70
   128
 10
74.657888
 20
171.200267
 10
73.752572
 20
171.060407
 10
72.944267
 20
170.662685
 10
72.282419
 20
170.032519
 10
71.830594
 20
169.203464
 10
71.657888
 20
168.200267
  0
LINE
  5
BE
100
AcDbEntity
  8
0
  6
HIDDEN
 62
   174
100
AcDbLine
 10
82.757888
 20
171.200267
 30
0.0
 11
83.158213
 21
171.200267
 31
0.0
  0
LINE
  5
BF
100
AcDbEntity
  8
0
  6
HIDDEN
 62
   174
100
AcDbLine
 10
208.157888
 20
171.200267
 30
0.0
 11
210.135071
 21
171.200267
 31
0.0
  0
LINE
  5
C0
100
AcDbEntity
  8
0
  6
HIDDEN
 62
   174
100
AcDbLine
 10
181.657888
 20
143.200267
 30
0.0
 11
181.657888
 21
143.150267
 31
0.0
  0
LINE
  5
C1
100
AcDbEntity
  8
0
  6
Continuous
 62
   174
100
AcDbLine
 10
193.157888
 20
114.200267
 30
0.0
 11
193.157888
 21
142.200267
 31
0.0
  0
LINE
  5
C2
100
AcDbEntity
  8
0
  6
HIDDEN
 62
   174
100
AcDbLine
 10
111.676015
 20
143.200267
 30
0.0
 11
109.455686
 21
143.200267
 31
0.0
  0
LINE
  5
C3
100
AcDbEntity
  8
0
  6
HIDDEN
 62
   174
100
AcDbLine
 10
204.776005
 20
171.150267
 30
0.0
 11
208.175962
 21
171.150267
 31
0.0
  0
LINE
  5
C4
100
AcDbEntity
  8
0
  6
Continuous
 62
   174
100
AcDbLine
 10
74.657888
 20
168.200267
 30
0.0
 11
97.657888
 21
168.200267
 31
0.0
  0
LWPOLYLINE
  5
C5
100
AcDbEntity
  8
0
  6
HIDDEN
 62
   174
100
AcDbPolyline
 90
        4
 70
   128
 10
52.157888
 20
156.043741
 10
52.291009
 20
155.435382
 10
52.524091
 20
154.824307
 10
52.821987
 20
154.250017
  0
LINE
  5
C6
100
AcDbEntity
  8
0
  6
Continuous
 62
   174
100
AcDbLine
 10
238.357888
 20
167.622158
 30
0.0
 11
241.465068
 21
167.622158
 31
0.0
  0
LINE
  5
C7
100
AcDbEntity
  8
0
  6
HIDDEN
 62
   174
100
AcDbLine
 10
109.176127
 20
143.150267
 30
0.0
 11
115.176027
 21
143.150267
 31
0.0
  0
LINE
  5
C8
100
AcDbEntity
  8
0
  6
HIDDEN
 62
   174
100
AcDbLine
 10
205.157946
 20
171.200267
 30
0.0
 11
206.340483
 21
171.200267
 31
0.0
  0
LINE
  5
C9
100
AcDbEntity
  8
0
  6
HIDDEN
 62
   174
100
AcDbLine
 10
74.657888
 20
142.200267
 30
0.0
 11
74.657888
 21
168.200267
 31
0.0
  0
LINE
  5
CA
100
AcDbEntity
  8
0
  6
HIDDEN
 62
   174
100
AcDbLine
 10
112.678051
 20
143.200267
 30
0.0
 11
112.603063
 21
143.200267
 31
0.0
  0
LINE
  5
CB
100
AcDbEntity
  8
0
  6
HIDDEN
 62
   174
100
AcDbLine
 10
151.782888
 20
135.200267
 30
0.0
 11
151.782888
 21
143.200267
 31
0.0
  0
LINE
  5
CC
100
AcDbEntity
  8
0
  6
HIDDEN
 62
   174
100
AcDbLine
 10
219.657888
 20
171.208727
 30
0.0
 11
219.657888
 21
168.20899
 31
0.0
  0
LINE
  5
CD
100
AcDbEntity
  8
0
  6
HIDDEN
 62
   174
100
AcDbLine
 10
219.657888
 20
168.200267
 30
0.0
 11
196.657888
 21
168.200267
 31
0.0
  0
LINE
  5
CE
100
AcDbEntity
  8
0
  6
HIDDEN
 62
   174
100
AcDbLine
 10
210.135071
 20
171.150267
 30
0.0
 11
205.90162
 21
171.150267
 31
0.0
  0
LINE
  5
CF
100
AcDbEntity
  8
0
  6
Continuous
 62
   174
100
AcDbLine
 10
193.157888
 20
143.200267
 30
0.0
 11
177.157888
 21
143.200267
 31
0.0
  0
LINE
  5
D0
100
AcDbEntity
  8
0
  6
Continuous
 62
   174
100
AcDbLine
 10
234.657888
 20
155.209702
 30
0.0
 11
234.657888
 21
156.603037
 31
0.0
  0
LINE
  5
D1
100
AcDbEntity
  8
0
  6
Continuous
 62
   174
100
AcDbLine
 10
63.457888
 20
130.28964
 30
0.0
 11
63.457888
 21
127.711153
 31
0.0
  0
LINE
  5
D2
100
AcDbEntity
  8
0
  6
HIDDEN
 62
   174
100
AcDbLine
 10
124.310983
 20
107.200267
 30
0.0
 11
134.040958
 21
107.200267
 31
0.0
  0
LINE
  5
D3
100
AcDbEntity
  8
0
  6
Continuous
 62
   174
100
AcDbLine
 10
230.857888
 20
116.587315
 30
0.0
 11
230.857888
 21
120.124333
 31
0.0
  0
ARC
  5
D4
100
AcDbEntity
  8
0
  6
HIDDEN
 62
   174
100
AcDbCircle
 10
219.657888
 20
168.200267
 30
0.0
 40
3.0
100
AcDbArc
 50
54.0
 51
72.0
  0
LINE
  5
D5
100
AcDbEntity
  8
0
  6
Continuous
 62
   174
100
AcDbLine
 10
101.157888
 20
142.200267
 30
0.0
 11
101.157888
 21
114.200267
 31
0.0
  0
LINE
  5
D6
100
AcDbEntity
  8
0
  6
HIDDEN
 62
   174
100
AcDbLine
 10
160.532888
 20
143.200267
 30
0.0
 11
160.532888
 21
133.200267
 31
0.0
  0
LINE
  5
D7
100
AcDbEntity
  8
0
  6
Continuous
 62
   174
100
AcDbLine
 10
71.157888
 20
114.200267
 30
0.0
 11
71.157888
 21
142.200267
 31
0.0
  0
LINE
  5
D8
100
AcDbEntity
  8
0
  6
Continuous
 62
   174
100
AcDbLine
 10
234.657888
 20
169.815818
 30
0.0
 11
234.657888
 21
171.208727
 31
0.0
  0
LINE
  5
D9
100
AcDbEntity
  8
0
  6
HIDDEN
 62
   174
100
AcDbLine
 10
55.957888
 20
167.622158
 30
0.0
 11
52.850708
 21
167.622158
 31
0.0
  0
LWPOLYLINE
  5
DA
100
AcDbEntity
  8
0
  6
HIDDEN
 62
   174
100
AcDbPolyline
 90
        4
 70
   128
 10
52.821947
 20
172.150447
 10
52.522808
 20
171.57341
 10
52.290054
 20
170.961997
 10
52.157888
 20
170.356793
  0
LINE
  5
DB
100
AcDbEntity
  8
0
  6
Continuous
 62
   174
100
AcDbLine
 10
63.457888
 20
134.882403
 30
0.0
 11
69.657888
 21
134.882403
 31
0.0
  0
LWPOLYLINE
  5
DC
100
AcDbEntity
  8
0
  6
HIDDEN
 62
   174
100
AcDbPolyline
 90
        4
 70
   128
 10
222.615928
 20
163.200267
 10
222.624923
 20
162.25126
 10
222.645329
 20
161.313094
 10
222.657888
 20
160.416385
  0
LINE
  5
DD
100
AcDbEntity
  8
0
  6
Continuous
 62
   174
100
AcDbLine
 10
238.357888
 20
158.778376
 30
0.0
 11
241.465068
 21
158.778376
 31
0.0
  0
LWPOLYLINE
  5
DE
100
AcDbEntity
  8
0
  6
HIDDEN
 62
   174
100
AcDbPolyline
 90
        4
 70
   128
 10
222.615928
 20
163.200267
 10
222.624923
 20
164.14925
 10
222.645328
 20
165.087416
 10
222.657888
 20
165.984149
  0
LINE
  5
DF
100
AcDbEntity
  8
0
  6
HIDDEN
 62
   174
100
AcDbLine
 10
170.507888
 20
143.200267
 30
0.0
 11
170.507888
 21
107.200267
 31
0.0
  0
LINE
  5
E0
100
AcDbEntity
  8
0
  6
HIDDEN
 62
   174
100
AcDbLine
 10
224.657888
 20
133.814146
 30
0.0
 11
224.657888
 21
130.278867
 31
0.0
  0
LINE
  5
E1
100
AcDbEntity
  8
0
  6
HIDDEN
 62
   174
100
AcDbLine
 10
160.292888
 20
115.200267
 30
0.0
 11
160.292888
 21
107.200267
 31
0.0
  0
LINE
  5
E2
100
AcDbEntity
  8
0
  6
HIDDEN
 62
   174
100
AcDbLine
 10
169.532888
 20
115.200267
 30
0.0
 11
169.532888
 21
107.200267
 31
0.0
  0
LWPOLYLINE
  5
E3
100
AcDbEntity
  8
0
  6
HIDDEN
 62
   174
100
AcDbPolyline
 90
        6
 70
   128
 10
222.657888
 20
168.200267
 10
222.485546
 20
169.202441
 10
222.033745
 20
170.032016
 10
221.370675
 20
170.663265
 10
220.562144
 20
171.060743
 10
219.657888
 20
171.200267
  0
LINE
  5
E4
100
AcDbEntity
  8
0
  6
HIDDEN
 62
   174
100
AcDbLine
 10
114.896255
 20
143.150267
 30
0.0
 11
112.67614
 21
143.150267
 31
0.0
  0
LINE
  5
E5
100
AcDbEntity
  8
0
  6
Continuous
 62
   174
100
AcDbLine
 10
224.657888
 20
120.135653
 30
0.0
 11
224.657888
 21
116.59889
 31
0.0
  0
LINE
  5
E6
100
AcDbEntity
  8
0
  6
HIDDEN
 62
   174
100
AcDbLine
 10
114.878182
 20
143.150267
 30
0.0
 11
114.878182
 21
143.200267
 31
0.0
  0
LINE
  5
E7
100
AcDbEntity
  8
0
  6
Continuous
 62
   174
100
AcDbLine
 10
223.157888
 20
142.200267
 30
0.0
 11
223.157888
 21
114.200267
 31
0.0
  0
LINE
  5
E8
100
AcDbEntity
  8
0
  6
HIDDEN
 62
   174
100
AcDbLine
 10
55.957888
 20
158.778376
 30
0.0
 11
55.957888
 21
154.200716
 31
0.0
  0
LINE
  5
E9
100
AcDbEntity
  8
0
  6
Continuous
 62
   174
100
AcDbLine
 10
55.957888
 20
172.199818
 30
0.0
 11
52.850708
 21
172.199818
 31
0.0
  0
LWPOLYLINE
  5
EA
100
AcDbEntity
  8
0
  6
HIDDEN
 62
   174
100
AcDbPolyline
 90
        4
 70
   128
 10
71.657888
 20
160.416385
 10
71.670448
 20
161.313086
 10
71.690853
 20
162.25124
 10
71.699848
 20
163.200267
  0
LINE
  5
EB
100
AcDbEntity
  8
0
  6
HIDDEN
 62
   174
100
AcDbLine
 10
185.157888
 20
143.150267
 30
0.0
 11
185.157888
 21
143.200267
 31
0.0
  0
LINE
  5
EC
100
AcDbEntity
  8
0
  6
HIDDEN
 62
   174
100
AcDbLine
 10
111.674103
 20
143.200267
 30
0.0
 11
109.652185
 21
143.200267
 31
0.0
  0
LINE
  5
ED
100
AcDbEntity
  8
0
  6
HIDDEN
 62
   174
100
AcDbLine
 10
161.022888
 20
135.200267
 30
0.0
 11
161.022888
 21
143.200267
 31
0.0
  0
LINE
  5
EE
100
AcDbEntity
  8
0
  6
HIDDEN
 62
   174
100
AcDbLine
 10
100.676127
 20
168.200267
 30
0.0
 11
97.675965
 21
168.200267
 31
0.0
  0
LINE
  5
EF
100
AcDbEntity
  8
0
  6
HIDDEN
 62
   174
100
AcDbLine
 10
117.157888
 20
131.210953
 30
0.0
 11
117.157888
 21
119.21179
 31
0.0
  0
LINE
  5
F0
100
AcDbEntity
  8
0
  6
Continuous
 62
   174
100
AcDbLine
 10
177.157888
 20
107.200267
 30
0.0
 11
177.157888
 21
143.200267
 31
0.0
  0
LINE
  5
F1
100
AcDbEntity
  8
0
  6
Continuous
 62
   174
100
AcDbLine
 10
56.657888
 20
163.209215
 30
0.0
 11
56.657888
 21
169.92352
 31
0.0
  0
LINE
  5
F2
100
AcDbEntity
  8
0
  6
Continuous
 62
   174
100
AcDbLine
 10
238.357888
 20
158.787677
 30
0.0
 11
238.357888
 21
163.209215
 31
0.0
  0
LINE
  5
F3
100
AcDbEntity
  8
0
  6
HIDDEN
 62
   174
100
AcDbLine
 10
222.657888
 20
160.416385
 30
0.0
 11
222.657888
 21
155.200267
 31
0.0
  0
ARC
  5
F4
100
AcDbEntity
  8
0
  6
Continuous
 62
   174
100
AcDbCircle
 10
219.657888
 20
168.200267
 30
0.0
 40
3.0
100
AcDbArc
 50
0.0
 51
90.0
  0
LINE
  5
F5
100
AcDbEntity
  8
0
  6
HIDDEN
 62
   174
100
AcDbLine
 10
219.657888
 20
142.200267
 30
0.0
 11
196.657888
 21
142.200267
 31
0.0
  0
LINE
  5
F6
100
AcDbEntity
  8
0
  6
HIDDEN
 62
   174
100
AcDbLine
 10
161.040932
 20
143.200267
 30
0.0
 11
151.310957
 21
143.200267
 31
0.0
  0
LWPOLYLINE
  5
F7
100
AcDbEntity
  8
0
  6
HIDDEN
 62
   174
100
AcDbPolyline
 90
        4
 70
   128
 10
242.157888
 20
164.091878
 10
242.024768
 20
165.308594
 10
241.791682
 20
166.530757
 10
241.465068
 20
167.777927
  0
LINE
  5
F8
100
AcDbEntity
  8
0
  6
HIDDEN
 62
   174
100
AcDbLine
 10
63.457888
 20
130.281862
 30
0.0
 11
69.657888
 21
130.281862
 31
0.0
  0
LINE
  5
F9
100
AcDbEntity
  8
0
  6
HIDDEN
 62
   174
100
AcDbLine
 10
184.923907
 20
143.200267
 30
0.0
 11
184.699792
 21
143.200267
 31
0.0
  0
LINE
  5
FA
100
AcDbEntity
  8
0
  6
HIDDEN
 62
   174
100
AcDbLine
 10
160.532888
 20
143.200267
 30
0.0
 11
160.532888
 21
133.200267
 31
0.0
  0
LINE
  5
FB
100
AcDbEntity
  8
0
  6
Continuous
 62
   174
100
AcDbLine
 10
224.657888
 20
135.200267
 30
0.0
 11
223.157888
 21
135.200267
 31
0.0
  0
LINE
  5
FC
100
AcDbEntity
  8
0
  6
Continuous
 62
   174
100
AcDbLine
 10
69.657888
 20
116.59719
 30
0.0
 11
69.657888
 21
120.132679
 31
0.0
  0
LINE
  5
FD
100
AcDbEntity
  8
0
  6
Continuous
 62
   174
100
AcDbLine
 10
223.157888
 20
142.200267
 30
0.0
 11
193.157888
 21
142.200267
 31
0.0
  0
LINE
  5
FE
100
AcDbEntity
  8
0
  6
HIDDEN
 62
   174
100
AcDbLine
 10
161.022888
 20
135.200267
 30
0.0
 11
161.022888
 21
143.200267
 31
0.0
  0
ARC
  5
FF
100
AcDbEntity
  8
0
  6
HIDDEN
 62
   174
100
AcDbCircle
 10
97.657888
 20
168.200267
 30
0.0
 40
3.0
100
AcDbArc
 50
-288.0
 51
-270.0
  0
LINE
  5
100
100
AcDbEntity
  8
0
  6
HIDDEN
 62
   174
100
AcDbLine
 10
193.657888
 20
168.200267
 30
0.0
 11
193.657888
 21
142.200267
 31
0.0
  0
LINE
  5
101
100
AcDbEntity
  8
0
  6
HIDDEN
 62
   174
100
AcDbLine
 10
59.657888
 20
169.708965
 30
0.0
 11
59.657888
 21
163.209215
 31
0.0
  0
LINE
  5
102
100
AcDbEntity
  8
0
  6
Continuous
 62
   174
100
AcDbLine
 10
55.957888
 20
172.208215
 30
0.0
 11
55.957888
 21
167.786677
 31
0.0
  0
LINE
  5
103
100
AcDbEntity
  8
0
  6
HIDDEN
 62
   174
100
AcDbLine
 10
170.507888
 20
143.200267
 30
0.0
 11
170.507888
 21
107.200267
 31
0.0
  0
LINE
  5
104
100
AcDbEntity
  8
0
  6
HIDDEN
 62
   174
100
AcDbLine
 10
74.657888
 20
171.200267
 30
0.0
 11
82.757888
 21
171.200267
 31
0.0
  0
ARC
  5
105
100
AcDbEntity
  8
0
  6
HIDDEN
 62
   174
100
AcDbCircle
 10
74.657888
 20
168.200267
 30
0.0
 40
3.0
100
AcDbArc
 50
90.0
 51
180.0
  0
LINE
  5
106
100
AcDbEntity
  8
0
  6
HIDDEN
 62
   174
100
AcDbLine
 10
115.157888
 20
143.150267
 30
0.0
 11
115.157888
 21
143.200267
 31
0.0
  0
LINE
  5
107
100
AcDbEntity
  8
0
  6
HIDDEN
 62
   174
100
AcDbLine
 10
142.532888
 20
135.200267
 30
0.0
 11
142.532888
 21
143.200267
 31
0.0
  0
LINE
  5
108
100
AcDbEntity
  8
0
  6
HIDDEN
 62
   174
100
AcDbLine
 10
133.292888
 20
135.200267
 30
0.0
 11
133.292888
 21
143.200267
 31
0.0
  0
LINE
  5
109
100
AcDbEntity
  8
0
  6
HIDDEN
 62
   174
100
AcDbLine
 10
71.157888
 20
125.211478
 30
0.0
 11
71.157888
 21
135.210815
 31
0.0
  0
LINE
  5
10A
100
AcDbEntity
  8
0
  6
Continuous
 62
   174
100
AcDbLine
 10
230.857888
 20
115.529937
 30
0.0
 11
230.857888
 21
116.59889
 31
0.0
  0
LINE
  5
10B
100
AcDbEntity
  8
0
  6
HIDDEN
 62
   174
100
AcDbLine
 10
160.782888
 20
115.200267
 30
0.0
 11
160.782888
 21
107.200267
 31
0.0
  0
LWPOLYLINE
  5
10C
100
AcDbEntity
  8
0
  6
HIDDEN
 62
   174
100
AcDbPolyline
 90
        7
 70
   128
 10
241.465068
 20
167.777927
 10
241.831194
 20
168.529618
 10
242.059292
 20
169.266664
 10
242.136196
 20
169.988912
 10
242.059278
 20
170.711151
 10
241.831177
 20
171.448171
 10
241.465068
 20
172.199818
  0
LINE
  5
10D
100
AcDbEntity
  8
0
  6
HIDDEN
 62
   174
100
AcDbLine
 10
222.657888
 20
168.200267
 30
0.0
 11
222.657888
 21
165.984149
 31
0.0
  0
LINE
  5
10E
100
AcDbEntity
  8
0
  6
HIDDEN
 62
   174
100
AcDbLine
 10
120.526101
 20
143.200267
 30
0.0
 11
123.826003
 21
143.200267
 31
0.0
  0
LINE
  5
10F
100
AcDbEntity
  8
0
  6
HIDDEN
 62
   174
100
AcDbLine
 10
114.699757
 20
143.200267
 30
0.0
 11
112.678051
 21
143.200267
 31
0.0
  0
LINE
  5
110
100
AcDbEntity
  8
0
  6
HIDDEN
 62
   174
100
AcDbLine
 10
89.175965
 20
171.150267
 30
0.0
 11
84.19892
 21
171.150267
 31
0.0
  0
LINE
  5
111
100
AcDbEntity
  8
0
  6
Continuous
 62
   174
100
AcDbLine
 10
59.657888
 20
169.815393
 30
0.0
 11
59.657888
 21
163.209215
 31
0.0
  0
LINE
  5
112
100
AcDbEntity
  8
0
  6
Continuous
 62
   174
100
AcDbLine
 10
237.657888
 20
172.20864
 30
0.0
 11
237.657888
 21
169.923095
 31
0.0
  0
LINE
  5
113
100
AcDbEntity
  8
0
  6
HIDDEN
 62
   174
100
AcDbLine
 10
238.357888
 20
158.622607
 30
0.0
 11
238.357888
 21
167.777927
 31
0.0
  0
LINE
  5
114
100
AcDbEntity
  8
0
  6
Continuous
 62
   174
100
AcDbLine
 10
55.957888
 20
158.622607
 30
0.0
 11
52.850708
 21
158.622607
 31
0.0
  0
LINE
  5
115
100
AcDbEntity
  8
0
  6
Continuous
 62
   174
100
AcDbLine
 10
63.457888
 20
134.893018
 30
0.0
 11
63.457888
 21
133.824703
 31
0.0
  0
LINE
  5
116
100
AcDbEntity
  8
0
  6
Continuous
 62
   174
100
AcDbLine
 10
242.157888
 20
170.365376
 30
0.0
 11
242.157888
 21
171.00883
 31
0.0
  0
LINE
  5
117
100
AcDbEntity
  8
0
  6
Continuous
 62
   174
100
AcDbLine
 10
230.857888
 20
122.703634
 30
0.0
 11
224.657888
 21
122.703634
 31
0.0
  0
LWPOLYLINE
  5
118
100
AcDbEntity
  8
0
  6
Continuous
 62
   174
100
AcDbPolyline
 90
        4
 70
   128
 10
241.493829
 20
172.150447
 10
241.792968
 20
171.57341
 10
242.025723
 20
170.961997
 10
242.157888
 20
170.356793
  0
LINE
  5
119
100
AcDbEntity
  8
0
  6
HIDDEN
 62
   174
100
AcDbLine
 10
222.657888
 20
165.99291
 30
0.0
 11
222.657888
 21
168.20899
 31
0.0
  0
LINE
  5
11A
100
AcDbEntity
  8
0
  6
HIDDEN
 62
   174
100
AcDbLine
 10
181.67605
 20
143.200267
 30
0.0
 11
179.455722
 21
143.200267
 31
0.0
  0
LINE
  5
11B
100
AcDbEntity
  8
0
  6
HIDDEN
 62
   174
100
AcDbLine
 10
223.157888
 20
125.211478
 30
0.0
 11
223.157888
 21
115.211928
 31
0.0
  0
LINE
  5
11C
100
AcDbEntity
  8
0
  6
Continuous
 62
   174
100
AcDbLine
 10
242.157888
 20
170.356793
 30
0.0
 11
242.157888
 21
169.465182
 31
0.0
  0
LINE
  5
11D
100
AcDbEntity
  8
0
  6
Continuous
 62
   174
100
AcDbLine
 10
63.457888
 20
122.700267
 30
0.0
 11
69.657888
 21
122.700267
 31
0.0
  0
LINE
  5
11E
100
AcDbEntity
  8
0
  6
Continuous
 62
   174
100
AcDbLine
 10
224.657888
 20
126.707204
 30
0.0
 11
224.657888
 21
122.714989
 31
0.0
  0
LINE
  5
11F
100
AcDbEntity
  8
0
  6
HIDDEN
 62
   174
100
AcDbLine
 10
143.022888
 20
135.200267
 30
0.0
 11
143.022888
 21
143.200267
 31
0.0
  0
LINE
  5
120
100
AcDbEntity
  8
0
  6
HIDDEN
 62
   174
100
AcDbLine
 10
100.657888
 20
168.200267
 30
0.0
 11
100.657888
 21
142.200267
 31
0.0
  0
LINE
  5
121
100
AcDbEntity
  8
0
  6
HIDDEN
 62
   174
100
AcDbLine
 10
223.157888
 20
135.210815
 30
0.0
 11
223.157888
 21
125.211478
 31
0.0
  0
LINE
  5
122
100
AcDbEntity
  8
0
  6
HIDDEN
 62
   174
100
AcDbLine
 10
224.657888
 20
127.700267
 30
0.0
 11
224.657888
 21
122.700267
 31
0.0
  0
LINE
  5
123
100
AcDbEntity
  8
0
  6
HIDDEN
 62
   174
100
AcDbLine
 10
74.676066
 20
168.200267
 30
0.0
 11
71.676116
 21
168.200267
 31
0.0
  0
LINE
  5
124
100
AcDbEntity
  8
0
  6
HIDDEN
 62
   174
100
AcDbLine
 10
151.782888
 20
143.200267
 30
0.0
 11
151.782888
 21
133.200267
 31
0.0
  0
LINE
  5
125
100
AcDbEntity
  8
0
  6
Continuous
 62
   174
100
AcDbLine
 10
193.657888
 20
168.200267
 30
0.0
 11
193.657888
 21
142.200267
 31
0.0
  0
LINE
  5
126
100
AcDbEntity
  8
0
  6
Continuous
 62
   174
100
AcDbLine
 10
100.657888
 20
142.200267
 30
0.0
 11
100.657888
 21
168.200267
 31
0.0
  0
LINE
  5
127
100
AcDbEntity
  8
0
  6
Continuous
 62
   174
100
AcDbLine
 10
230.857888
 20
116.587315
 30
0.0
 11
224.657888
 21
116.587315
 31
0.0
  0
LINE
  5
128
100
AcDbEntity
  8
0
  6
HIDDEN
 62
   174
100
AcDbLine
 10
184.896291
 20
143.200267
 30
0.0
 11
182.675963
 21
143.200267
 31
0.0
  0
LINE
  5
129
100
AcDbEntity
  8
0
  6
Continuous
 62
   174
100
AcDbLine
 10
241.465068
 20
172.199818
 30
0.0
 11
241.493919
 21
172.150294
 31
0.0
  0
LWPOLYLINE
  5
12A
100
AcDbEntity
  8
0
  6
Continuous
 62
   174
100
AcDbPolyline
 90
        4
 70
   128
 10
222.657888
 20
165.984149
 10
222.645328
 20
165.087414
 10
222.624923
 20
164.14926
 10
222.615928
 20
163.200267
  0
LINE
  5
12B
100
AcDbEntity
  8
0
  6
Continuous
 62
   174
100
AcDbLine
 10
230.857888
 20
122.703634
 30
0.0
 11
230.857888
 21
127.703633
 31
0.0
  0
LINE
  5
12C
100
AcDbEntity
  8
0
  6
HIDDEN
 62
   174
100
AcDbLine
 10
111.749091
 20
143.200267
 30
0.0
 11
111.674103
 21
143.200267
 31
0.0
  0
LINE
  5
12D
100
AcDbEntity
  8
0
  6
HIDDEN
 62
   174
100
AcDbLine
 10
133.292888
 20
135.200267
 30
0.0
 11
133.292888
 21
143.200267
 31
0.0
  0
LINE
  5
12E
100
AcDbEntity
  8
0
  6
HIDDEN
 62
   174
100
AcDbLine
 10
55.957888
 20
158.778376
 30
0.0
 11
52.850708
 21
158.778376
 31
0.0
  0
LINE
  5
12F
100
AcDbEntity
  8
0
  6
Continuous
 62
   174
100
AcDbLine
 10
52.157888
 20
162.317642
 30
0.0
 11
52.157888
 21
155.4096
 31
0.0
  0
LINE
  5
130
100
AcDbEntity
  8
0
  6
HIDDEN
 62
   174
100
AcDbLine
 10
133.532888
 20
115.200267
 30
0.0
 11
133.532888
 21
107.200267
 31
0.0
  0
LINE
  5
131
100
AcDbEntity
  8
0
  6
HIDDEN
 62
   174
100
AcDbLine
 10
123.807888
 20
143.200267
 30
0.0
 11
123.807888
 21
107.200267
 31
0.0
  0
LINE
  5
132
100
AcDbEntity
  8
0
  6
HIDDEN
 62
   174
100
AcDbLine
 10
84.180705
 20
171.200267
 30
0.0
 11
86.157888
 21
171.200267
 31
0.0
  0
LINE
  5
133
100
AcDbEntity
  8
0
  6
Continuous
 62
   174
100
AcDbLine
 10
69.657888
 20
134.893018
 30
0.0
 11
69.657888
 21
135.210815
 31
0.0
  0
LINE
  5
134
100
AcDbEntity
  8
0
  6
Continuous
 62
   174
100
AcDbLine
 10
224.657888
 20
135.210815
 30
0.0
 11
224.657888
 21
134.893868
 31
0.0
  0
LINE
  5
135
100
AcDbEntity
  8
0
  6
HIDDEN
 62
   174
100
AcDbLine
 10
160.551066
 20
133.200267
 30
0.0
 11
151.801035
 21
133.200267
 31
0.0
  0
LINE
  5
136
100
AcDbEntity
  8
0
  6
HIDDEN
 62
   174
100
AcDbLine
 10
143.04102
 20
135.200267
 30
0.0
 11
133.311045
 21
135.200267
 31
0.0
  0
LINE
  5
137
100
AcDbEntity
  8
0
  6
Continuous
 62
   174
100
AcDbLine
 10
63.457888
 20
116.585548
 30
0.0
 11
69.657888
 21
116.585548
 31
0.0
  0
LINE
  5
138
100
AcDbEntity
  8
0
  6
HIDDEN
 62
   174
100
AcDbLine
 10
238.357888
 20
167.777927
 30
0.0
 11
238.357888
 21
172.199818
 31
0.0
  0
LINE
  5
139
100
AcDbEntity
  8
0
  6
Continuous
 62
   174
100
AcDbLine
 10
230.857888
 20
130.281862
 30
0.0
 11
224.657888
 21
130.281862
 31
0.0
  0
LINE
  5
13A
100
AcDbEntity
  8
0
  6
Continuous
 62
   174
100
AcDbLine
 10
69.657888
 20
126.707417
 30
0.0
 11
69.657888
 21
127.711153
 31
0.0
  0
LINE
  5
13B
100
AcDbEntity
  8
0
  6
HIDDEN
 62
   174
100
AcDbLine
 10
100.676127
 20
142.200267
 30
0.0
 11
97.675965
 21
142.200267
 31
0.0
  0
ARC
  5
13C
100
AcDbEntity
  8
0
  6
Continuous
 62
   174
100
AcDbCircle
 10
129.157888
 20
137.700267
 30
0.0
 40
2.25
100
AcDbArc
 50
-180.0
 51
0.0
  0
LINE
  5
13D
100
AcDbEntity
  8
0
  6
Continuous
 62
   174
100
AcDbLine
 10
177.157888
 20
143.200267
 30
0.0
 11
177.157888
 21
107.200267
 31
0.0
  0
LINE
  5
13E
100
AcDbEntity
  8
0
  6
HIDDEN
 62
   174
100
AcDbLine
 10
69.657888
 20
116.587315
 30
0.0
 11
69.657888
 21
120.124333
 31
0.0
  0
LINE
  5
13F
100
AcDbEntity
  8
0
  6
HIDDEN
 62
   174
100
AcDbLine
 10
169.532888
 20
107.200267
 30
0.0
 11
169.532888
 21
117.200267
 31
0.0
  0
LINE
  5
140
100
AcDbEntity
  8
0
  6
HIDDEN
 62
   174
100
AcDbLine
 10
112.657888
 20
143.200267
 30
0.0
 11
112.657888
 21
143.150267
 31
0.0
  0
LINE
  5
141
100
AcDbEntity
  8
0
  6
HIDDEN
 62
   174
100
AcDbLine
 10
161.040932
 20
135.200267
 30
0.0
 11
151.310957
 21
135.200267
 31
0.0
  0
ARC
  5
142
100
AcDbEntity
  8
0
  6
Continuous
 62
   174
100
AcDbCircle
 10
97.657888
 20
168.200267
 30
0.0
 40
3.0
100
AcDbArc
 50
0.0
 51
90.0
  0
LINE
  5
143
100
AcDbEntity
  8
0
  6
HIDDEN
 62
   174
100
AcDbLine
 10
83.789141
 20
171.150267
 30
0.0
 11
83.176065
 21
171.150267
 31
0.0
  0
LINE
  5
144
100
AcDbEntity
  8
0
  6
HIDDEN
 62
   174
100
AcDbLine
 10
71.157888
 20
115.211928
 30
0.0
 11
71.157888
 21
125.211478
 31
0.0
  0
LINE
  5
145
100
AcDbEntity
  8
0
  6
HIDDEN
 62
   174
100
AcDbLine
 10
151.292888
 20
135.200267
 30
0.0
 11
151.292888
 21
143.200267
 31
0.0
  0
LINE
  5
146
100
AcDbEntity
  8
0
  6
Continuous
 62
   174
100
AcDbLine
 10
196.657888
 20
142.200267
 30
0.0
 11
196.657888
 21
168.200267
 31
0.0
  0
LINE
  5
147
100
AcDbEntity
  8
0
  6
Continuous
 62
   174
100
AcDbLine
 10
59.657888
 20
171.208727
 30
0.0
 11
59.657888
 21
169.815393
 31
0.0
  0
LWPOLYLINE
  5
148
100
AcDbEntity
  8
0
  6
HIDDEN
 62
   174
100
AcDbPolyline
 90
        4
 70
   128
 10
241.465068
 20
158.622607
 10
241.792969
 20
159.875422
 10
242.025722
 20
161.098243
 10
242.157888
 20
162.308656
  0
LINE
  5
149
100
AcDbEntity
  8
0
  6
HIDDEN
 62
   174
100
AcDbLine
 10
230.857888
 20
120.121337
 30
0.0
 11
224.657888
 21
120.121337
 31
0.0
  0
LINE
  5
14A
100
AcDbEntity
  8
0
  6
HIDDEN
 62
   174
100
AcDbLine
 10
120.507888
 20
143.200267
 30
0.0
 11
120.507888
 21
107.200267
 31
0.0
  0
LINE
  5
14B
100
AcDbEntity
  8
0
  6
Continuous
 62
   174
100
AcDbLine
 10
71.657888
 20
160.416385
 30
0.0
 11
71.657888
 21
142.200267
 31
0.0
  0
LINE
  5
14C
100
AcDbEntity
  8
0
  6
HIDDEN
 62
   174
100
AcDbLine
 10
86.157888
 20
171.200267
 30
0.0
 11
87.975293
 21
171.200267
 31
0.0
  0
LINE
  5
14D
100
AcDbEntity
  8
0
  6
Continuous
 62
   174
100
AcDbLine
 10
69.657888
 20
130.28964
 30
0.0
 11
69.657888
 21
133.824703
 31
0.0
  0
LINE
  5
14E
100
AcDbEntity
  8
0
  6
HIDDEN
 62
   174
100
AcDbLine
 10
142.532888
 20
143.200267
 30
0.0
 11
142.532888
 21
133.200267
 31
0.0
  0
LINE
  5
14F
100
AcDbEntity
  8
0
  6
HIDDEN
 62
   174
100
AcDbLine
 10
177.157888
 20
119.21179
 30
0.0
 11
177.157888
 21
131.210953
 31
0.0
  0
LINE
  5
150
100
AcDbEntity
  8
0
  6
HIDDEN
 62
   174
100
AcDbLine
 10
238.357888
 20
158.622607
 30
0.0
 11
241.465068
 21
158.622607
 31
0.0
  0
LINE
  5
151
100
AcDbEntity
  8
0
  6
Continuous
 62
   174
100
AcDbLine
 10
242.157888
 20
156.935352
 30
0.0
 11
242.157888
 21
156.043741
 31
0.0
  0
LINE
  5
152
100
AcDbEntity
  8
0
  6
Continuous
 62
   174
100
AcDbLine
 10
241.493875
 20
154.250166
 30
0.0
 11
241.465068
 21
154.200716
 31
0.0
  0
LINE
  5
153
100
AcDbEntity
  8
0
  6
Continuous
 62
   174
100
AcDbLine
 10
230.857888
 20
133.815912
 30
0.0
 11
224.657888
 21
133.815912
 31
0.0
  0
LINE
  5
154
100
AcDbEntity
  8
0
  6
HIDDEN
 62
   174
100
AcDbLine
 10
170.525974
 20
107.200267
 30
0.0
 11
173.826089
 21
107.200267
 31
0.0
  0
LINE
  5
155
100
AcDbEntity
  8
0
  6
HIDDEN
 62
   174
100
AcDbLine
 10
170.525974
 20
143.200267
 30
0.0
 11
173.826089
 21
143.200267
 31
0.0
  0
LINE
  5
156
100
AcDbEntity
  8
0
  6
HIDDEN
 62
   174
100
AcDbLine
 10
196.657888
 20
168.200267
 30
0.0
 11
196.657888
 21
142.200267
 31
0.0
  0
LINE
  5
157
100
AcDbEntity
  8
0
  6
HIDDEN
 62
   174
100
AcDbLine
 10
97.657888
 20
168.20899
 30
0.0
 11
97.657888
 21
171.208727
 31
0.0
  0
ARC
  5
158
100
AcDbEntity
  8
0
  6
Continuous
 62
   174
100
AcDbCircle
 10
165.157888
 20
137.700267
 30
0.0
 40
2.25
100
AcDbArc
 50
0.0
 51
180.0
  0
LINE
  5
159
100
AcDbEntity
  8
0
  6
HIDDEN
 62
   174
100
AcDbLine
 10
241.465068
 20
167.777927
 30
0.0
 11
238.357888
 21
167.777927
 31
0.0
  0
LINE
  5
15A
100
AcDbEntity
  8
0
  6
Continuous
 62
   174
100
AcDbLine
 10
230.857888
 20
120.124333
 30
0.0
 11
224.657888
 21
120.124333
 31
0.0
  0
LINE
  5
15B
100
AcDbEntity
  8
0
  6
HIDDEN
 62
   174
100
AcDbLine
 10
124.782888
 20
115.200267
 30
0.0
 11
124.782888
 21
107.200267
 31
0.0
  0
LINE
  5
15C
100
AcDbEntity
  8
0
  6
Continuous
 62
   174
100
AcDbLine
 10
63.457888
 20
133.814146
 30
0.0
 11
63.457888
 21
130.278867
 31
0.0
  0
LINE
  5
15D
100
AcDbEntity
  8
0
  6
Continuous
 62
   174
100
AcDbLine
 10
74.676066
 20
168.200267
 30
0.0
 11
71.676116
 21
168.200267
 31
0.0
  0
LINE
  5
15E
100
AcDbEntity
  8
0
  6
HIDDEN
 62
   174
100
AcDbLine
 10
184.896291
 20
143.150267
 30
0.0
 11
182.675963
 21
143.150267
 31
0.0
  0
LINE
  5
15F
100
AcDbEntity
  8
0
  6
Continuous
 62
   174
100
AcDbLine
 10
224.657888
 20
127.714552
 30
0.0
 11
224.657888
 21
126.707204
 31
0.0
  0
LINE
  5
160
100
AcDbEntity
  8
0
  6
HIDDEN
 62
   174
100
AcDbLine
 10
179.428106
 20
143.200267
 30
0.0
 11
179.17595
 21
143.200267
 31
0.0
  0
LINE
  5
161
100
AcDbEntity
  8
0
  6
Continuous
 62
   174
100
AcDbLine
 10
193.157888
 20
114.200267
 30
0.0
 11
223.157888
 21
114.200267
 31
0.0
  0
LINE
  5
162
100
AcDbEntity
  8
0
  6
Continuous
 62
   174
100
AcDbLine
 10
63.457888
 20
120.121337
 30
0.0
 11
69.657888
 21
120.121337
 31
0.0
  0
LINE
  5
163
100
AcDbEntity
  8
0
  6
HIDDEN
 62
   174
100
AcDbLine
 10
160.782888
 20
107.200267
 30
0.0
 11
160.782888
 21
117.200267
 31
0.0
  0
LINE
  5
164
100
AcDbEntity
  8
0
  6
HIDDEN
 62
   174
100
AcDbLine
 10
222.657888
 20
160.42552
 30
0.0
 11
222.657888
 21
155.209702
 31
0.0
  0
ARC
  5
165
100
AcDbEntity
  8
0
  6
HIDDEN
 62
   174
100
AcDbCircle
 10
219.657888
 20
168.200267
 30
0.0
 40
3.0
100
AcDbArc
 50
36.0
 51
54.0
  0
LINE
  5
166
100
AcDbEntity
  8
0
  6
HIDDEN
 62
   174
100
AcDbLine
 10
179.157888
 20
143.150267
 30
0.0
 11
179.157888
 21
143.200267
 31
0.0
  0
LINE
  5
167
100
AcDbEntity
  8
0
  6
HIDDEN
 62
   174
100
AcDbLine
 10
184.699792
 20
143.200267
 30
0.0
 11
182.678087
 21
143.200267
 31
0.0
  0
ARC
  5
168
100
AcDbEntity
  8
0
  6
HIDDEN
 62
   174
100
AcDbCircle
 10
97.657888
 20
168.200267
 30
0.0
 40
3.0
100
AcDbArc
 50
-324.0
 51
-306.0
  0
LWPOLYLINE
  5
169
100
AcDbEntity
  8
0
  6
HIDDEN
 62
   174
100
AcDbPolyline
 90
        7
 70
   128
 10
241.465068
 20
154.200716
 10
241.831194
 20
154.952407
 10
242.059292
 20
155.689453
 10
242.136196
 20
156.411702
 10
242.059278
 20
157.133941
 10
241.831177
 20
157.87096
 10
241.465068
 20
158.622607
  0
LINE
  5
16A
100
AcDbEntity
  8
0
  6
Continuous
 62
   174
100
AcDbLine
 10
63.457888
 20
133.814146
 30
0.0
 11
69.657888
 21
133.814146
 31
0.0
  0
LWPOLYLINE
  5
16B
100
AcDbEntity
  8
0
  6
Continuous
 62
   174
100
AcDbPolyline
 90
        4
 70
   128
 10
222.657888
 20
160.416385
 10
222.645329
 20
161.313086
 10
222.624924
 20
162.25124
 10
222.615928
 20
163.200267
  0
LINE
  5
16C
100
AcDbEntity
  8
0
  6
HIDDEN
 62
   174
100
AcDbLine
 10
97.657888
 20
142.200267
 30
0.0
 11
74.657888
 21
142.200267
 31
0.0
  0
LINE
  5
16D
100
AcDbEntity
  8
0
  6
HIDDEN
 62
   174
100
AcDbLine
 10
112.603063
 20
143.200267
 30
0.0
 11
111.749091
 21
143.200267
 31
0.0
  0
LINE
  5
16E
100
AcDbEntity
  8
0
  6
HIDDEN
 62
   174
100
AcDbLine
 10
238.357888
 20
172.208215
 30
0.0
 11
238.357888
 21
172.20864
 31
0.0
  0
LINE
  5
16F
100
AcDbEntity
  8
0
  6
Continuous
 62
   174
100
AcDbLine
 10
56.657888
 20
156.495335
 30
0.0
 11
56.657888
 21
163.209215
 31
0.0
  0
LINE
  5
170
100
AcDbEntity
  8
0
  6
Continuous
 62
   174
100
AcDbLine
 10
230.857888
 20
133.826615
 30
0.0
 11
230.857888
 21
134.893868
 31
0.0
  0
LINE
  5
171
100
AcDbEntity
  8
0
  6
HIDDEN
 62
   174
100
AcDbLine
 10
71.657888
 20
165.984149
 30
0.0
 11
71.657888
 21
168.200267
 31
0.0
  0
LINE
  5
172
100
AcDbEntity
  8
0
  6
HIDDEN
 62
   174
100
AcDbLine
 10
133.782888
 20
143.200267
 30
0.0
 11
133.782888
 21
133.200267
 31
0.0
  0
LINE
  5
173
100
AcDbEntity
  8
0
  6
HIDDEN
 62
   174
100
AcDbLine
 10
160.532888
 20
135.200267
 30
0.0
 11
160.532888
 21
143.200267
 31
0.0
  0
LINE
  5
174
100
AcDbEntity
  8
0
  6
HIDDEN
 62
   174
100
AcDbLine
 10
123.807888
 20
143.200267
 30
0.0
 11
123.807888
 21
107.200267
 31
0.0
  0
LINE
  5
175
100
AcDbEntity
  8
0
  6
HIDDEN
 62
   174
100
AcDbLine
 10
109.157888
 20
143.150267
 30
0.0
 11
109.157888
 21
143.200267
 31
0.0
  0
LINE
  5
176
100
AcDbEntity
  8
0
  6
HIDDEN
 62
   174
100
AcDbLine
 10
59.657888
 20
156.709677
 30
0.0
 11
59.657888
 21
163.209215
 31
0.0
  0
LINE
  5
177
100
AcDbEntity
  8
0
  6
Continuous
 62
   174
100
AcDbLine
 10
52.850708
 20
167.777927
 30
0.0
 11
55.957888
 21
167.777927
 31
0.0
  0
LINE
  5
178
100
AcDbEntity
  8
0
  6
HIDDEN
 62
   174
100
AcDbLine
 10
71.657888
 20
168.20899
 30
0.0
 11
71.657888
 21
165.99291
 31
0.0
  0
LINE
  5
179
100
AcDbEntity
  8
0
  6
HIDDEN
 62
   174
100
AcDbLine
 10
222.657888
 20
155.200267
 30
0.0
 11
222.657888
 21
142.200267
 31
0.0
  0
LINE
  5
17A
100
AcDbEntity
  8
0
  6
Continuous
 62
   174
100
AcDbLine
 10
222.676074
 20
168.200267
 30
0.0
 11
219.675912
 21
168.200267
 31
0.0
  0
LINE
  5
17B
100
AcDbEntity
  8
0
  6
HIDDEN
 62
   174
100
AcDbLine
 10
142.550942
 20
133.200267
 30
0.0
 11
133.801123
 21
133.200267
 31
0.0
  0
LINE
  5
17C
100
AcDbEntity
  8
0
  6
HIDDEN
 62
   174
100
AcDbLine
 10
143.04102
 20
143.200267
 30
0.0
 11
133.311045
 21
143.200267
 31
0.0
  0
ARC
  5
17D
100
AcDbEntity
  8
0
  6
Continuous
 62
   174
100
AcDbCircle
 10
97.657888
 20
168.200267
 30
0.0
 40
3.0
100
AcDbArc
 50
-306.0
 51
-288.0
  0
LINE
  5
17E
100
AcDbEntity
  8
0
  6
HIDDEN
 62
   174
100
AcDbLine
 10
230.857888
 20
133.814146
 30
0.0
 11
224.657888
 21
133.814146
 31
0.0
  0
LINE
  5
17F
100
AcDbEntity
  8
0
  6
Continuous
 62
   174
100
AcDbLine
 10
71.657888
 20
168.200267
 30
0.0
 11
71.657888
 21
165.984149
 31
0.0
  0
LINE
  5
180
100
AcDbEntity
  8
0
  6
Continuous
 62
   174
100
AcDbLine
 10
230.857888
 20
130.281862
 30
0.0
 11
230.857888
 21
133.815912
 31
0.0
  0
LINE
  5
181
100
AcDbEntity
  8
0
  6
HIDDEN
 62
   174
100
AcDbLine
 10
111.657888
 20
143.200267
 30
0.0
 11
111.657888
 21
143.150267
 31
0.0
  0
LINE
  5
182
100
AcDbEntity
  8
0
  6
Continuous
 62
   174
100
AcDbLine
 10
193.157888
 20
107.200267
 30
0.0
 11
193.157888
 21
114.200267
 31
0.0
  0
LINE
  5
183
100
AcDbEntity
  8
0
  6
Continuous
 62
   174
100
AcDbLine
 10
230.857888
 20
120.135653
 30
0.0
 11
230.857888
 21
122.714989
 31
0.0
  0
LINE
  5
184
100
AcDbEntity
  8
0
  6
HIDDEN
 62
   174
100
AcDbLine
 10
238.357888
 20
154.200716
 30
0.0
 11
238.357888
 21
158.622607
 31
0.0
  0
LINE
  5
185
100
AcDbEntity
  8
0
  6
HIDDEN
 62
   174
100
AcDbLine
 10
224.657888
 20
120.121337
 30
0.0
 11
224.657888
 21
116.585548
 31
0.0
  0
LINE
  5
186
100
AcDbEntity
  8
0
  6
HIDDEN
 62
   174
100
AcDbLine
 10
133.532888
 20
107.200267
 30
0.0
 11
133.532888
 21
117.200267
 31
0.0
  0
LINE
  5
187
100
AcDbEntity
  8
0
  6
HIDDEN
 62
   174
100
AcDbLine
 10
133.782888
 20
135.200267
 30
0.0
 11
133.782888
 21
143.200267
 31
0.0
  0
LINE
  5
188
100
AcDbEntity
  8
0
  6
HIDDEN
 62
   174
100
AcDbLine
 10
74.657888
 20
168.20899
 30
0.0
 11
74.657888
 21
171.208727
 31
0.0
  0
LINE
  5
189
100
AcDbEntity
  8
0
  6
Continuous
 62
   174
100
AcDbLine
 10
238.357888
 20
154.200716
 30
0.0
 11
241.465068
 21
154.200716
 31
0.0
  0
LINE
  5
18A
100
AcDbEntity
  8
0
  6
HIDDEN
 62
   174
100
AcDbLine
 10
63.457888
 20
122.703634
 30
0.0
 11
69.657888
 21
122.703634
 31
0.0
  0
LINE
  5
18B
100
AcDbEntity
  8
0
  6
HIDDEN
 62
   174
100
AcDbLine
 10
120.526101
 20
107.200267
 30
0.0
 11
123.826003
 21
107.200267
 31
0.0
  0
LINE
  5
18C
100
AcDbEntity
  8
0
  6
HIDDEN
 62
   174
100
AcDbLine
 10
179.65222
 20
143.200267
 30
0.0
 11
179.428106
 21
143.200267
 31
0.0
  0
LINE
  5
18D
100
AcDbEntity
  8
0
  6
HIDDEN
 62
   174
100
AcDbLine
 10
208.175962
 20
171.150267
 30
0.0
 11
211.575919
 21
171.150267
 31
0.0
  0
LINE
  5
18E
100
AcDbEntity
  8
0
  6
Continuous
 62
   174
100
AcDbLine
 10
100.676127
 20
168.200267
 30
0.0
 11
97.675965
 21
168.200267
 31
0.0
  0
LINE
  5
18F
100
AcDbEntity
  8
0
  6
Continuous
 62
   174
100
AcDbLine
 10
117.157888
 20
107.200267
 30
0.0
 11
177.157888
 21
107.200267
 31
0.0
  0
LWPOLYLINE
  5
190
100
AcDbEntity
  8
0
  6
Continuous
 62
   174
100
AcDbPolyline
 90
        4
 70
   128
 10
242.157888
 20
156.043741
 10
242.024768
 20
155.435382
 10
241.791685
 20
154.824307
 10
241.493789
 20
154.250017
  0
LINE
  5
191
100
AcDbEntity
  8
0
  6
Continuous
 62
   174
100
AcDbLine
 10
224.657888
 20
115.200267
 30
0.0
 11
223.157888
 21
115.200267
 31
0.0
  0
LINE
  5
192
100
AcDbEntity
  8
0
  6
HIDDEN
 62
   174
100
AcDbLine
 10
83.158213
 20
171.200267
 30
0.0
 11
84.180705
 21
171.200267
 31
0.0
  0
LINE
  5
193
100
AcDbEntity
  8
0
  6
Continuous
 62
   174
100
AcDbLine
 10
69.657888
 20
115.211928
 30
0.0
 11
69.657888
 21
115.529087
 31
0.0
  0
LINE
  5
194
100
AcDbEntity
  8
0
  6
Continuous
 62
   174
100
AcDbLine
 10
56.657888
 20
154.20979
 30
0.0
 11
56.657888
 21
156.495335
 31
0.0
  0
LINE
  5
195
100
AcDbEntity
  8
0
  6
Continuous
 62
   174
100
AcDbLine
 10
63.457888
 20
127.700267
 30
0.0
 11
63.457888
 21
122.700267
 31
0.0
  0
LINE
  5
196
100
AcDbEntity
  8
0
  6
HIDDEN
 62
   174
100
AcDbLine
 10
111.676015
 20
143.150267
 30
0.0
 11
109.455686
 21
143.150267
 31
0.0
  0
LINE
  5
197
100
AcDbEntity
  8
0
  6
HIDDEN
 62
   174
100
AcDbLine
 10
133.782888
 20
143.200267
 30
0.0
 11
133.782888
 21
133.200267
 31
0.0
  0
ARC
  5
198
100
AcDbEntity
  8
0
  6
HIDDEN
 62
   174
100
AcDbCircle
 10
97.657888
 20
168.200267
 30
0.0
 40
3.0
100
AcDbArc
 50
-342.0
 51
-324.0
  0
LINE
  5
199
100
AcDbEntity
  8
0
  6
Continuous
 62
   174
100
AcDbLine
 10
196.657888
 20
171.208727
 30
0.0
 11
196.657888
 21
168.20899
 31
0.0
  0
LINE
  5
19A
100
AcDbEntity
  8
0
  6
Continuous
 62
   174
100
AcDbLine
 10
242.157888
 20
155.4096
 30
0.0
 11
242.157888
 21
156.053053
 31
0.0
  0
LINE
  5
19B
100
AcDbEntity
  8
0
  6
Continuous
 62
   174
100
AcDbLine
 10
230.857888
 20
115.518356
 30
0.0
 11
224.657888
 21
115.518356
 31
0.0
  0
LINE
  5
19C
100
AcDbEntity
  8
0
  6
HIDDEN
 62
   174
100
AcDbLine
 10
124.782888
 20
107.200267
 30
0.0
 11
124.782888
 21
117.200267
 31
0.0
  0
LINE
  5
19D
100
AcDbEntity
  8
0
  6
HIDDEN
 62
   174
100
AcDbLine
 10
133.782888
 20
135.200267
 30
0.0
 11
133.782888
 21
143.200267
 31
0.0
  0
LINE
  5
19E
100
AcDbEntity
  8
0
  6
HIDDEN
 62
   174
100
AcDbLine
 10
160.532888
 20
135.200267
 30
0.0
 11
160.532888
 21
143.200267
 31
0.0
  0
LINE
  5
19F
100
AcDbEntity
  8
0
  6
Continuous
 62
   174
100
AcDbLine
 10
97.657888
 20
168.200267
 30
0.0
 11
97.657888
 21
142.200267
 31
0.0
  0
LINE
  5
1A0
100
AcDbEntity
  8
0
  6
Continuous
 62
   174
100
AcDbLine
 10
237.657888
 20
156.495122
 30
0.0
 11
237.657888
 21
154.20979
 31
0.0
  0
LINE
  5
1A1
100
AcDbEntity
  8
0
  6
HIDDEN
 62
   174
100
AcDbLine
 10
160.311019
 20
107.200267
 30
0.0
 11
170.040994
 21
107.200267
 31
0.0
  0
LINE
  5
1A2
100
AcDbEntity
  8
0
  6
HIDDEN
 62
   174
100
AcDbLine
 10
134.022888
 20
115.200267
 30
0.0
 11
134.022888
 21
107.200267
 31
0.0
  0
LINE
  5
1A3
100
AcDbEntity
  8
0
  6
Continuous
 62
   174
100
AcDbLine
 10
63.457888
 20
130.278867
 30
0.0
 11
69.657888
 21
130.278867
 31
0.0
  0
LINE
  5
1A4
100
AcDbEntity
  8
0
  6
Continuous
 62
   174
100
AcDbLine
 10
74.657888
 20
168.200267
 30
0.0
 11
74.657888
 21
142.200267
 31
0.0
  0
LINE
  5
1A5
100
AcDbEntity
  8
0
  6
HIDDEN
 62
   174
100
AcDbLine
 10
219.675912
 20
142.200267
 30
0.0
 11
222.676074
 21
142.200267
 31
0.0
  0
LINE
  5
1A6
100
AcDbEntity
  8
0
  6
HIDDEN
 62
   174
100
AcDbLine
 10
211.557888
 20
171.200267
 30
0.0
 11
219.657888
 21
171.200267
 31
0.0
  0
LINE
  5
1A7
100
AcDbEntity
  8
0
  6
HIDDEN
 62
   174
100
AcDbLine
 10
142.532888
 20
143.200267
 30
0.0
 11
142.532888
 21
133.200267
 31
0.0
  0
LINE
  5
1A8
100
AcDbEntity
  8
0
  6
Continuous
 62
   174
100
AcDbLine
 10
117.157888
 20
143.200267
 30
0.0
 11
117.157888
 21
107.200267
 31
0.0
  0
LWPOLYLINE
  5
1A9
100
AcDbEntity
  8
0
  6
Continuous
 62
   174
100
AcDbPolyline
 90
        7
 70
   128
 10
241.465068
 20
167.622158
 10
241.83117
 20
166.118887
 10
242.05927
 20
164.644897
 10
242.136201
 20
163.200504
 10
242.059314
 20
161.756058
 10
241.831222
 20
160.281907
 10
241.465068
 20
158.778376
  0
LINE
  5
1AA
100
AcDbEntity
  8
0
  6
HIDDEN
 62
   174
100
AcDbLine
 10
114.923872
 20
143.200267
 30
0.0
 11
114.699757
 21
143.200267
 31
0.0
  0
LINE
  5
1AB
100
AcDbEntity
  8
0
  6
HIDDEN
 62
   174
100
AcDbLine
 10
238.357888
 20
154.20979
 30
0.0
 11
238.357888
 21
154.210215
 31
0.0
  0
LINE
  5
1AC
100
AcDbEntity
  8
0
  6
Continuous
 62
   174
100
AcDbLine
 10
52.157888
 20
162.308656
 30
0.0
 11
52.157888
 21
164.091878
 31
0.0
  0
LINE
  5
1AD
100
AcDbEntity
  8
0
  6
HIDDEN
 62
   174
100
AcDbLine
 10
133.532888
 20
107.200267
 30
0.0
 11
133.532888
 21
117.200267
 31
0.0
  0
LINE
  5
1AE
100
AcDbEntity
  8
0
  6
HIDDEN
 62
   174
100
AcDbLine
 10
133.532888
 20
115.200267
 30
0.0
 11
133.532888
 21
107.200267
 31
0.0
  0
LINE
  5
1AF
100
AcDbEntity
  8
0
  6
Continuous
 62
   174
100
AcDbLine
 10
196.676012
 20
168.200267
 30
0.0
 11
193.676062
 21
168.200267
 31
0.0
  0
LINE
  5
1B0
100
AcDbEntity
  8
0
  6
HIDDEN
 62
   174
100
AcDbLine
 10
82.776058
 20
171.150267
 30
0.0
 11
86.176015
 21
171.150267
 31
0.0
  0
LINE
  5
1B1
100
AcDbEntity
  8
0
  6
HIDDEN
 62
   174
100
AcDbLine
 10
234.657888
 20
163.209215
 30
0.0
 11
234.657888
 21
169.708965
 31
0.0
  0
LINE
  5
1B2
100
AcDbEntity
  8
0
  6
HIDDEN
 62
   174
100
AcDbLine
 10
230.857888
 20
122.700267
 30
0.0
 11
224.657888
 21
122.700267
 31
0.0
  0
LINE
  5
1B3
100
AcDbEntity
  8
0
  6
HIDDEN
 62
   174
100
AcDbLine
 10
87.975293
 20
171.200267
 30
0.0
 11
88.414157
 21
171.200267
 31
0.0
  0
LINE
  5
1B4
100
AcDbEntity
  8
0
  6
Continuous
 62
   174
100
AcDbLine
 10
222.657888
 20
142.200267
 30
0.0
 11
222.657888
 21
160.416385
 31
0.0
  0
LINE
  5
1B5
100
AcDbEntity
  8
0
  6
Continuous
 62
   174
100
AcDbLine
 10
234.657888
 20
156.603037
 30
0.0
 11
234.657888
 21
163.209215
 31
0.0
  0
LINE
  5
1B6
100
AcDbEntity
  8
0
  6
Continuous
 62
   174
100
AcDbLine
 10
238.357888
 20
172.199818
 30
0.0
 11
241.465068
 21
172.199818
 31
0.0
  0
LINE
  5
1B7
100
AcDbEntity
  8
0
  6
HIDDEN
 62
   174
100
AcDbLine
 10
63.457888
 20
133.815912
 30
0.0
 11
69.657888
 21
133.815912
 31
0.0
  0
LINE
  5
1B8
100
AcDbEntity
  8
0
  6
HIDDEN
 62
   174
100
AcDbLine
 10
181.67605
 20
143.150267
 30
0.0
 11
179.455722
 21
143.150267
 31
0.0
  0
LINE
  5
1B9
100
AcDbEntity
  8
0
  6
HIDDEN
 62
   174
100
AcDbLine
 10
196.676012
 20
142.200267
 30
0.0
 11
193.676062
 21
142.200267
 31
0.0
  0
LINE
  5
1BA
100
AcDbEntity
  8
0
  6
HIDDEN
 62
   174
100
AcDbLine
 10
185.176063
 20
143.200267
 30
0.0
 11
184.923907
 21
143.200267
 31
0.0
  0
LINE
  5
1BB
100
AcDbEntity
  8
0
  6
HIDDEN
 62
   174
100
AcDbLine
 10
222.676074
 20
168.200267
 30
0.0
 11
219.675912
 21
168.200267
 31
0.0
  0
ARC
  5
1BC
100
AcDbEntity
  8
0
  6
Continuous
 62
   174
100
AcDbCircle
 10
74.657888
 20
168.200267
 30
0.0
 40
3.0
100
AcDbArc
 50
-270.0
 51
-180.0
  0
LINE
  5
1BD
100
AcDbEntity
  8
0
  6
HIDDEN
 62
   174
100
AcDbLine
 10
109.157888
 20
143.150267
 30
0.0
 11
109.157888
 21
143.200267
 31
0.0
  0
LINE
  5
1BE
100
AcDbEntity
  8
0
  6
HIDDEN
 62
   174
100
AcDbLine
 10
182.657888
 20
143.200267
 30
0.0
 11
182.657888
 21
143.150267
 31
0.0
  0
LINE
  5
1BF
100
AcDbEntity
  8
0
  6
HIDDEN
 62
   174
100
AcDbLine
 10
86.176015
 20
171.150267
 30
0.0
 11
89.575973
 21
171.150267
 31
0.0
  0
LINE
  5
1C0
100
AcDbEntity
  8
0
  6
Continuous
 62
   174
100
AcDbLine
 10
193.157888
 20
114.200267
 30
0.0
 11
193.157888
 21
142.200267
 31
0.0
  0
LINE
  5
1C1
100
AcDbEntity
  8
0
  6
HIDDEN
 62
   174
100
AcDbLine
 10
124.782888
 20
107.200267
 30
0.0
 11
124.782888
 21
117.200267
 31
0.0
  0
LINE
  5
1C2
100
AcDbEntity
  8
0
  6
Continuous
 62
   174
100
AcDbLine
 10
230.857888
 20
127.703633
 30
0.0
 11
224.657888
 21
127.703633
 31
0.0
  0
LINE
  5
1C3
100
AcDbEntity
  8
0
  6
Continuous
 62
   174
100
AcDbLine
 10
101.157888
 20
142.200267
 30
0.0
 11
71.157888
 21
142.200267
 31
0.0
  0
LINE
  5
1C4
100
AcDbEntity
  8
0
  6
HIDDEN
 62
   174
100
AcDbLine
 10
181.673926
 20
143.200267
 30
0.0
 11
179.65222
 21
143.200267
 31
0.0
  0
LINE
  5
1C5
100
AcDbEntity
  8
0
  6
HIDDEN
 62
   174
100
AcDbLine
 10
151.782888
 20
143.200267
 30
0.0
 11
151.782888
 21
133.200267
 31
0.0
  0
LINE
  5
1C6
100
AcDbEntity
  8
0
  6
Continuous
 62
   174
100
AcDbLine
 10
74.657888
 20
168.20899
 30
0.0
 11
74.657888
 21
171.208727
 31
0.0
  0
LINE
  5
1C7
100
AcDbEntity
  8
0
  6
Continuous
 62
   174
100
AcDbLine
 10
219.657888
 20
171.208727
 30
0.0
 11
219.657888
 21
168.20899
 31
0.0
  0
LINE
  5
1C8
100
AcDbEntity
  8
0
  6
Continuous
 62
   174
100
AcDbLine
 10
117.157888
 20
143.200267
 30
0.0
 11
117.157888
 21
107.200267
 31
0.0
  0
LINE
  5
1C9
100
AcDbEntity
  8
0
  6
HIDDEN
 62
   174
100
AcDbLine
 10
234.657888
 20
163.209215
 30
0.0
 11
234.657888
 21
156.709677
 31
0.0
  0
LINE
  5
1CA
100
AcDbEntity
  8
0
  6
Continuous
 62
   174
100
AcDbLine
 10
234.657888
 20
163.209215
 30
0.0
 11
234.657888
 21
169.815818
 31
0.0
  0
LINE
  5
1CB
100
AcDbEntity
  8
0
  6
Continuous
 62
   174
100
AcDbLine
 10
55.957888
 20
167.786677
 30
0.0
 11
55.957888
 21
163.209215
 31
0.0
  0
LINE
  5
1CC
100
AcDbEntity
  8
0
  6
Continuous
 62
   174
100
AcDbLine
 10
55.957888
 20
163.209215
 30
0.0
 11
55.957888
 21
158.631753
 31
0.0
  0
LINE
  5
1CD
100
AcDbEntity
  8
0
  6
Continuous
 62
   174
100
AcDbLine
 10
52.850708
 20
154.200716
 30
0.0
 11
52.823235
 21
154.249553
 31
0.0
  0
LINE
  5
1CE
100
AcDbEntity
  8
0
  6
HIDDEN
 62
   174
100
AcDbLine
 10
124.292888
 20
115.200267
 30
0.0
 11
124.292888
 21
107.200267
 31
0.0
  0
LINE
  5
1CF
100
AcDbEntity
  8
0
  6
HIDDEN
 62
   174
100
AcDbLine
 10
124.292888
 20
115.200267
 30
0.0
 11
124.292888
 21
107.200267
 31
0.0
  0
LINE
  5
1D0
100
AcDbEntity
  8
0
  6
HIDDEN
 62
   174
100
AcDbLine
 10
230.857888
 20
127.700267
 30
0.0
 11
224.657888
 21
127.700267
 31
0.0
  0
LINE
  5
1D1
100
AcDbEntity
  8
0
  6
HIDDEN
 62
   174
100
AcDbLine
 10
71.657888
 20
155.209702
 30
0.0
 11
71.657888
 21
160.42552
 31
0.0
  0
LINE
  5
1D2
100
AcDbEntity
  8
0
  6
HIDDEN
 62
   174
100
AcDbLine
 10
173.807888
 20
143.200267
 30
0.0
 11
173.807888
 21
107.200267
 31
0.0
  0
ARC
  5
1D3
100
AcDbEntity
  8
0
  6
HIDDEN
 62
   174
100
AcDbCircle
 10
196.657888
 20
168.200267
 30
0.0
 40
3.0
100
AcDbArc
 50
-270.0
 51
-180.0
  0
LINE
  5
1D4
100
AcDbEntity
  8
0
  6
Continuous
 62
   174
100
AcDbLine
 10
237.657888
 20
163.209215
 30
0.0
 11
237.657888
 21
156.495122
 31
0.0
  0
LINE
  5
1D5
100
AcDbEntity
  8
0
  6
HIDDEN
 62
   174
100
AcDbLine
 10
52.821901
 20
154.250166
 30
0.0
 11
52.850708
 21
154.200716
 31
0.0
  0
LINE
  5
1D6
100
AcDbEntity
  8
0
  6
Continuous
 62
   174
100
AcDbLine
 10
242.157888
 20
156.944626
 30
0.0
 11
242.157888
 21
169.473804
 31
0.0
  0
LINE
  5
1D7
100
AcDbEntity
  8
0
  6
HIDDEN
 62
   174
100
AcDbLine
 10
124.782888
 20
115.200267
 30
0.0
 11
124.782888
 21
107.200267
 31
0.0
  0
LINE
  5
1D8
100
AcDbEntity
  8
0
  6
Continuous
 62
   174
100
AcDbLine
 10
63.457888
 20
120.121337
 30
0.0
 11
63.457888
 21
116.585548
 31
0.0
  0
LINE
  5
1D9
100
AcDbEntity
  8
0
  6
HIDDEN
 62
   174
100
AcDbLine
 10
88.414157
 20
171.200267
 30
0.0
 11
89.157888
 21
171.200267
 31
0.0
  0
LINE
  5
1DA
100
AcDbEntity
  8
0
  6
HIDDEN
 62
   174
100
AcDbLine
 10
211.157888
 20
171.200267
 30
0.0
 11
211.557888
 21
171.200267
 31
0.0
  0
LINE
  5
1DB
100
AcDbEntity
  8
0
  6
HIDDEN
 62
   174
100
AcDbLine
 10
184.878182
 20
143.150267
 30
0.0
 11
184.878182
 21
143.200267
 31
0.0
  0
ARC
  5
1DC
100
AcDbEntity
  8
0
  6
Continuous
 62
   174
100
AcDbCircle
 10
165.157888
 20
137.700267
 30
0.0
 40
2.25
100
AcDbArc
 50
-180.0
 51
0.0
  0
LINE
  5
1DD
100
AcDbEntity
  8
0
  6
Continuous
 62
   174
100
AcDbLine
 10
55.957888
 20
158.631753
 30
0.0
 11
55.957888
 21
154.210215
 31
0.0
  0
LINE
  5
1DE
100
AcDbEntity
  8
0
  6
Continuous
 62
   174
100
AcDbLine
 10
63.457888
 20
116.59719
 30
0.0
 11
63.457888
 21
115.529087
 31
0.0
  0
LINE
  5
1DF
100
AcDbEntity
  8
0
  6
HIDDEN
 62
   174
100
AcDbLine
 10
182.602886
 20
143.200267
 30
0.0
 11
181.749126
 21
143.200267
 31
0.0
  0
LINE
  5
1E0
100
AcDbEntity
  8
0
  6
HIDDEN
 62
   174
100
AcDbLine
 10
114.896255
 20
143.200267
 30
0.0
 11
112.67614
 21
143.200267
 31
0.0
  0
ARC
  5
1E1
100
AcDbEntity
  8
0
  6
HIDDEN
 62
   174
100
AcDbCircle
 10
97.657888
 20
168.200267
 30
0.0
 40
3.0
100
AcDbArc
 50
0.0
 51
18.0
  0
LINE
  5
1E2
100
AcDbEntity
  8
0
  6
HIDDEN
 62
   174
100
AcDbLine
 10
117.157888
 20
119.200267
 30
0.0
 11
117.107888
 21
119.200267
 31
0.0
  0
LWPOLYLINE
  5
1E3
100
AcDbEntity
  8
0
  6
Continuous
 62
   174
100
AcDbPolyline
 90
        4
 70
   128
 10
242.157888
 20
169.465182
 10
242.024768
 20
168.856823
 10
241.791685
 20
168.245748
 10
241.465068
 20
167.622158
  0
LINE
  5
1E4
100
AcDbEntity
  8
0
  6
HIDDEN
 62
   174
100
AcDbLine
 10
63.457888
 20
120.124333
 30
0.0
 11
69.657888
 21
120.124333
 31
0.0
  0
LINE
  5
1E5
100
AcDbEntity
  8
0
  6
HIDDEN
 62
   174
100
AcDbLine
 10
151.801035
 20
143.200267
 30
0.0
 11
160.551066
 21
143.200267
 31
0.0
  0
LINE
  5
1E6
100
AcDbEntity
  8
0
  6
HIDDEN
 62
   174
100
AcDbLine
 10
196.657888
 20
171.208727
 30
0.0
 11
196.657888
 21
168.20899
 31
0.0
  0
LINE
  5
1E7
100
AcDbEntity
  8
0
  6
HIDDEN
 62
   174
100
AcDbLine
 10
170.022888
 20
115.200267
 30
0.0
 11
170.022888
 21
107.200267
 31
0.0
  0
LWPOLYLINE
  5
1E8
100
AcDbEntity
  8
0
  6
Continuous
 62
   174
100
AcDbPolyline
 90
        4
 70
   128
 10
71.699848
 20
163.200267
 10
71.690854
 20
164.14925
 10
71.670448
 20
165.087416
 10
71.657888
 20
165.984149
  0
LINE
  5
1E9
100
AcDbEntity
  8
0
  6
HIDDEN
 62
   174
100
AcDbLine
 10
219.657888
 20
168.200267
 30
0.0
 11
219.657888
 21
142.200267
 31
0.0
  0
LINE
  5
1EA
100
AcDbEntity
  8
0
  6
Continuous
 62
   174
100
AcDbLine
 10
193.157888
 20
142.200267
 30
0.0
 11
193.157888
 21
143.200267
 31
0.0
  0
LINE
  5
1EB
100
AcDbEntity
  8
0
  6
HIDDEN
 62
   174
100
AcDbLine
 10
160.311019
 20
115.200267
 30
0.0
 11
170.040994
 21
115.200267
 31
0.0
  0
LINE
  5
1EC
100
AcDbEntity
  8
0
  6
Continuous
 62
   174
100
AcDbLine
 10
69.657888
 20
115.200267
 30
0.0
 11
71.157888
 21
115.200267
 31
0.0
  0
ARC
  5
1ED
100
AcDbEntity
  8
0
  6
HIDDEN
 62
   174
100
AcDbCircle
 10
219.657888
 20
168.200267
 30
0.0
 40
3.0
100
AcDbArc
 50
0.0
 51
18.0
  0
LINE
  5
1EE
100
AcDbEntity
  8
0
  6
HIDDEN
 62
   174
100
AcDbLine
 10
185.157888
 20
143.150267
 30
0.0
 11
185.157888
 21
143.200267
 31
0.0
  0
LINE
  5
1EF
100
AcDbEntity
  8
0
  6
Continuous
 62
   174
100
AcDbLine
 10
222.657888
 20
165.984149
 30
0.0
 11
222.657888
 21
168.200267
 31
0.0
  0
LINE
  5
1F0
100
AcDbEntity
  8
0
  6
Continuous
 62
   174
100
AcDbLine
 10
117.157888
 20
107.200267
 30
0.0
 11
101.157888
 21
107.200267
 31
0.0
  0
LINE
  5
1F1
100
AcDbEntity
  8
0
  6
HIDDEN
 62
   174
100
AcDbLine
 10
237.657888
 20
163.209215
 30
0.0
 11
237.657888
 21
169.708965
 31
0.0
  0
LINE
  5
1F2
100
AcDbEntity
  8
0
  6
Continuous
 62
   174
100
AcDbLine
 10
52.823268
 20
172.151024
 30
0.0
 11
52.850708
 21
172.199818
 31
0.0
  0
LINE
  5
1F3
100
AcDbEntity
  8
0
  6
HIDDEN
 62
   174
100
AcDbLine
 10
120.507888
 20
143.200267
 30
0.0
 11
120.507888
 21
107.200267
 31
0.0
  0
LINE
  5
1F4
100
AcDbEntity
  8
0
  6
HIDDEN
 62
   174
100
AcDbLine
 10
210.135071
 20
171.200267
 30
0.0
 11
210.544735
 21
171.200267
 31
0.0
  0
LINE
  5
1F5
100
AcDbEntity
  8
0
  6
HIDDEN
 62
   174
100
AcDbLine
 10
179.157888
 20
143.150267
 30
0.0
 11
179.157888
 21
143.200267
 31
0.0
  0
LINE
  5
1F6
100
AcDbEntity
  8
0
  6
HIDDEN
 62
   174
100
AcDbLine
 10
181.749126
 20
143.200267
 30
0.0
 11
181.673926
 21
143.200267
 31
0.0
  0
LINE
  5
1F7
100
AcDbEntity
  8
0
  6
HIDDEN
 62
   174
100
AcDbLine
 10
142.532888
 20
135.200267
 30
0.0
 11
142.532888
 21
143.200267
 31
0.0
  0
LINE
  5
1F8
100
AcDbEntity
  8
0
  6
HIDDEN
 62
   174
100
AcDbLine
 10
97.657888
 20
142.200267
 30
0.0
 11
97.657888
 21
168.200267
 31
0.0
  0
LINE
  5
1F9
100
AcDbEntity
  8
0
  6
Continuous
 62
   174
100
AcDbLine
 10
177.157888
 20
107.200267
 30
0.0
 11
193.157888
 21
107.200267
 31
0.0
  0
LINE
  5
1FA
100
AcDbEntity
  8
0
  6
Continuous
 62
   174
100
AcDbLine
 10
56.657888
 20
169.92352
 30
0.0
 11
56.657888
 21
172.20864
 31
0.0
  0
LINE
  5
1FB
100
AcDbEntity
  8
0
  6
HIDDEN
 62
   174
100
AcDbLine
 10
230.857888
 20
130.278867
 30
0.0
 11
224.657888
 21
130.278867
 31
0.0
  0
LINE
  5
1FC
100
AcDbEntity
  8
0
  6
Continuous
 62
   174
100
AcDbLine
 10
224.657888
 20
115.529937
 30
0.0
 11
224.657888
 21
115.211928
 31
0.0
  0
LINE
  5
1FD
100
AcDbEntity
  8
0
  6
HIDDEN
 62
   174
100
AcDbLine
 10
205.919733
 20
171.150267
 30
0.0
 11
205.176012
 21
171.150267
 31
0.0
  0
LINE
  5
1FE
100
AcDbEntity
  8
0
  6
HIDDEN
 62
   174
100
AcDbLine
 10
56.657888
 20
169.708965
 30
0.0
 11
56.657888
 21
163.209215
 31
0.0
  0
LINE
  5
1FF
100
AcDbEntity
  8
0
  6
HIDDEN
 62
   174
100
AcDbLine
 10
69.657888
 20
130.281862
 30
0.0
 11
69.657888
 21
133.815912
 31
0.0
  0
LWPOLYLINE
  5
200
100
AcDbEntity
  8
0
  6
Continuous
 62
   174
100
AcDbPolyline
 90
        6
 70
   128
 10
52.850708
 20
167.777927
 10
52.484582
 20
168.529618
 10
52.256484
 20
169.266664
 10
52.17958
 20
169.988912
 10
52.256499
 20
170.711151
 10
52.307399
 20
170.922733
  0
LINE
  5
201
100
AcDbEntity
  8
0
  6
HIDDEN
 62
   174
100
AcDbLine
 10
179.17595
 20
143.150267
 30
0.0
 11
185.176063
 21
143.150267
 31
0.0
  0
LINE
  5
202
100
AcDbEntity
  8
0
  6
HIDDEN
 62
   174
100
AcDbLine
 10
109.42807
 20
143.200267
 30
0.0
 11
109.176127
 21
143.200267
 31
0.0
  0
LINE
  5
203
100
AcDbEntity
  8
0
  6
HIDDEN
 62
   174
100
AcDbLine
 10
151.292888
 20
135.200267
 30
0.0
 11
151.292888
 21
143.200267
 31
0.0
  0
LINE
  5
204
100
AcDbEntity
  8
0
  6
Continuous
 62
   174
100
AcDbLine
 10
71.157888
 20
114.200267
 30
0.0
 11
101.157888
 21
114.200267
 31
0.0
  0
LINE
  5
205
100
AcDbEntity
  8
0
  6
Continuous
 62
   174
100
AcDbLine
 10
59.657888
 20
156.602612
 30
0.0
 11
59.657888
 21
155.209702
 31
0.0
  0
LINE
  5
206
100
AcDbEntity
  8
0
  6
Continuous
 62
   174
100
AcDbLine
 10
237.657888
 20
169.923095
 30
0.0
 11
237.657888
 21
163.209215
 31
0.0
  0
LWPOLYLINE
  5
207
100
AcDbEntity
  8
0
  6
Continuous
 62
   174
100
AcDbPolyline
 90
        4
 70
   128
 10
52.850708
 20
158.622607
 10
52.522808
 20
159.875422
 10
52.290054
 20
161.098243
 10
52.157888
 20
162.308656
  0
LINE
  5
208
100
AcDbEntity
  8
0
  6
Continuous
 62
   174
100
AcDbLine
 10
63.457888
 20
122.71159
 30
0.0
 11
63.457888
 21
120.132679
 31
0.0
  0
LWPOLYLINE
  5
209
100
AcDbEntity
  8
0
  6
Continuous
 62
   174
100
AcDbPolyline
 90
        4
 70
   128
 10
241.465068
 20
158.778376
 10
241.792968
 20
158.151969
 10
242.025723
 20
157.540556
 10
242.157888
 20
156.935352
  0
LINE
  5
20A
100
AcDbEntity
  8
0
  6
Continuous
 62
   174
100
AcDbLine
 10
63.457888
 20
127.700267
 30
0.0
 11
69.657888
 21
127.700267
 31
0.0
  0
ARC
  5
20B
100
AcDbEntity
  8
0
  6
HIDDEN
 62
   174
100
AcDbCircle
 10
219.657888
 20
168.200267
 30
0.0
 40
3.0
100
AcDbArc
 50
72.0
 51
90.0
  0
LINE
  5
20C
100
AcDbEntity
  8
0
  6
HIDDEN
 62
   174
100
AcDbLine
 10
169.532888
 20
107.200267
 30
0.0
 11
169.532888
 21
117.200267
 31
0.0
  0
LINE
  5
20D
100
AcDbEntity
  8
0
  6
Continuous
 62
   174
100
AcDbLine
 10
52.307399
 20
170.922733
 30
0.0
 11
52.824054
 21
172.152434
 31
0.0
  0
LINE
  5
20E
100
AcDbEntity
  8
0
  6
HIDDEN
 62
   174
100
AcDbLine
 10
89.157888
 20
171.200267
 30
0.0
 11
89.557888
 21
171.200267
 31
0.0
  0
LINE
  5
20F
100
AcDbEntity
  8
0
  6
Continuous
 62
   174
100
AcDbLine
 10
224.657888
 20
133.826615
 30
0.0
 11
224.657888
 21
130.292614
 31
0.0
  0
LINE
  5
210
100
AcDbEntity
  8
0
  6
HIDDEN
 62
   174
100
AcDbLine
 10
115.176027
 20
143.200267
 30
0.0
 11
114.923872
 21
143.200267
 31
0.0
  0
LINE
  5
211
100
AcDbEntity
  8
0
  6
Continuous
 62
   174
100
AcDbLine
 10
238.357888
 20
167.630965
 30
0.0
 11
238.357888
 21
172.20864
 31
0.0
  0
LINE
  5
212
100
AcDbEntity
  8
0
  6
Continuous
 62
   174
100
AcDbLine
 10
52.824031
 20
154.248142
 30
0.0
 11
52.307228
 21
155.478437
 31
0.0
  0
LINE
  5
213
100
AcDbEntity
  8
0
  6
HIDDEN
 62
   174
100
AcDbLine
 10
63.457888
 20
116.587315
 30
0.0
 11
69.657888
 21
116.587315
 31
0.0
  0
LINE
  5
214
100
AcDbEntity
  8
0
  6
HIDDEN
 62
   174
100
AcDbLine
 10
52.850708
 20
172.199818
 30
0.0
 11
52.821857
 21
172.150294
 31
0.0
  0
LINE
  5
215
100
AcDbEntity
  8
0
  6
Continuous
 62
   174
100
AcDbLine
 10
97.657888
 20
171.200267
 30
0.0
 11
74.657888
 21
171.200267
 31
0.0
  0
LINE
  5
216
100
AcDbEntity
  8
0
  6
HIDDEN
 62
   174
100
AcDbLine
 10
109.437594
 20
143.150267
 30
0.0
 11
109.437594
 21
143.200267
 31
0.0
  0
LINE
  5
217
100
AcDbEntity
  8
0
  6
Continuous
 62
   174
100
AcDbLine
 10
97.657888
 20
168.20899
 30
0.0
 11
97.657888
 21
171.208727
 31
0.0
  0
LINE
  5
218
100
AcDbEntity
  8
0
  6
HIDDEN
 62
   174
100
AcDbLine
 10
196.676012
 20
168.200267
 30
0.0
 11
193.676062
 21
168.200267
 31
0.0
  0
LINE
  5
219
100
AcDbEntity
  8
0
  6
HIDDEN
 62
   174
100
AcDbLine
 10
55.957888
 20
158.778376
 30
0.0
 11
55.957888
 21
167.622158
 31
0.0
  0
ARC
  5
21A
100
AcDbEntity
  8
0
  6
HIDDEN
 62
   174
100
AcDbCircle
 10
219.657888
 20
168.200267
 30
0.0
 40
3.0
100
AcDbArc
 50
18.0
 51
36.0
  0
LINE
  5
21B
100
AcDbEntity
  8
0
  6
Continuous
 62
   174
100
AcDbLine
 10
219.657888
 20
171.200267
 30
0.0
 11
196.657888
 21
171.200267
 31
0.0
  0
LINE
  5
21C
100
AcDbEntity
  8
0
  6
HIDDEN
 62
   174
100
AcDbLine
 10
210.544735
 20
171.200267
 30
0.0
 11
211.157888
 21
171.200267
 31
0.0
  0
LINE
  5
21D
100
AcDbEntity
  8
0
  6
HIDDEN
 62
   174
100
AcDbLine
 10
71.676116
 20
142.200267
 30
0.0
 11
74.676066
 21
142.200267
 31
0.0
  0
LINE
  5
21E
100
AcDbEntity
  8
0
  6
Continuous
 62
   174
100
AcDbLine
 10
177.157888
 20
143.200267
 30
0.0
 11
117.157888
 21
143.200267
 31
0.0
  0
LINE
  5
21F
100
AcDbEntity
  8
0
  6
HIDDEN
 62
   174
100
AcDbLine
 10
169.532888
 20
115.200267
 30
0.0
 11
169.532888
 21
107.200267
 31
0.0
  0
LINE
  5
220
100
AcDbEntity
  8
0
  6
HIDDEN
 62
   174
100
AcDbLine
 10
134.022888
 20
115.200267
 30
0.0
 11
134.022888
 21
107.200267
 31
0.0
  0
LINE
  5
221
100
AcDbEntity
  8
0
  6
HIDDEN
 62
   174
100
AcDbLine
 10
124.310983
 20
115.200267
 30
0.0
 11
134.040958
 21
115.200267
 31
0.0
  0
LINE
  5
222
100
AcDbEntity
  8
0
  6
HIDDEN
 62
   174
100
AcDbLine
 10
63.457888
 20
127.703633
 30
0.0
 11
69.657888
 21
127.703633
 31
0.0
  0
LINE
  5
223
100
AcDbEntity
  8
0
  6
Continuous
 62
   174
100
AcDbLine
 10
69.657888
 20
135.200267
 30
0.0
 11
71.157888
 21
135.200267
 31
0.0
  0
LINE
  5
224
100
AcDbEntity
  8
0
  6
Continuous
 62
   174
100
AcDbLine
 10
219.657888
 20
142.200267
 30
0.0
 11
219.657888
 21
168.200267
 31
0.0
  0
LINE
  5
225
100
AcDbEntity
  8
0
  6
HIDDEN
 62
   174
100
AcDbLine
 10
179.437594
 20
143.150267
 30
0.0
 11
179.437594
 21
143.200267
 31
0.0
  0
LINE
  5
226
100
AcDbEntity
  8
0
  6
HIDDEN
 62
   174
100
AcDbLine
 10
133.801123
 20
143.200267
 30
0.0
 11
142.550942
 21
143.200267
 31
0.0
  0
LINE
  5
227
100
AcDbEntity
  8
0
  6
Continuous
 62
   174
100
AcDbLine
 10
230.857888
 20
127.714552
 30
0.0
 11
230.857888
 21
130.292614
 31
0.0
  0
LINE
  5
228
100
AcDbEntity
  8
0
  6
HIDDEN
 62
   174
100
AcDbLine
 10
115.157888
 20
143.150267
 30
0.0
 11
115.157888
 21
143.200267
 31
0.0
  0
LINE
  5
229
100
AcDbEntity
  8
0
  6
HIDDEN
 62
   174
100
AcDbLine
 10
151.782888
 20
135.200267
 30
0.0
 11
151.782888
 21
143.200267
 31
0.0
  0
LINE
  5
22A
100
AcDbEntity
  8
0
  6
HIDDEN
 62
   174
100
AcDbLine
 10
230.857888
 20
116.585548
 30
0.0
 11
224.657888
 21
116.585548
 31
0.0
  0
LINE
  5
22B
100
AcDbEntity
  8
0
  6
HIDDEN
 62
   174
100
AcDbLine
 10
160.782888
 20
107.200267
 30
0.0
 11
160.782888
 21
117.200267
 31
0.0
  0
LINE
  5
22C
100
AcDbEntity
  8
0
  6
HIDDEN
 62
   174
100
AcDbLine
 10
173.807888
 20
143.200267
 30
0.0
 11
173.807888
 21
107.200267
 31
0.0
  0
LINE
  5
22D
100
AcDbEntity
  8
0
  6
HIDDEN
 62
   174
100
AcDbLine
 10
196.657888
 20
171.200267
 30
0.0
 11
204.757888
 21
171.200267
 31
0.0
  0
LINE
  5
22E
100
AcDbEntity
  8
0
  6
HIDDEN
 62
   174
100
AcDbLine
 10
206.340483
 20
171.200267
 30
0.0
 11
208.157888
 21
171.200267
 31
0.0
  0
LINE
  5
22F
100
AcDbEntity
  8
0
  6
HIDDEN
 62
   174
100
AcDbLine
 10
182.678087
 20
143.200267
 30
0.0
 11
182.602886
 21
143.200267
 31
0.0
  0
ENDBLK
  5
230
100
AcDbEntity
  8
0
100
AcDbBlockEnd
  0
BLOCK
  5
233
100
AcDbEntity
  8
0
100
AcDbBlockBegin
  2
*B2
 70
     0
 10
0.0
 20
0.0
 30
0.0
  3
*B2
  1

  0
ARC
  5
234
100
AcDbEntity
  8
0
  6
Continuous
 62
   174
100
AcDbCircle
 10
208.157888
 20
49.830623
 30
0.0
 40
3.4
100
AcDbArc
 50
-90.0
 51
90.0
  0
ARC
  5
235
100
AcDbEntity
  8
0
  6
Continuous
 62
   174
100
AcDbCircle
 10
208.157888
 20
49.830623
 30
0.0
 40
3.4
100
AcDbArc
 50
-270.0
 51
-90.0
  0
ARC
  5
236
100
AcDbEntity
  8
0
  6
Continuous
 62
   174
100
AcDbCircle
 10
86.157888
 20
49.830623
 30
0.0
 40
3.4
100
AcDbArc
 50
-270.0
 51
-90.0
  0
ARC
  5
237
100
AcDbEntity
  8
0
  6
Continuous
 62
   174
100
AcDbCircle
 10
86.157888
 20
49.830623
 30
0.0
 40
3.4
100
AcDbArc
 50
-90.0
 51
90.0
  0
ARC
  5
238
100
AcDbEntity
  8
0
  6
Continuous
 62
   174
100
AcDbCircle
 10
208.157888
 20
49.830623
 30
0.0
 40
3.0
100
AcDbArc
 50
-37.286546
 51
127.286546
  0
ARC
  5
239
100
AcDbEntity
  8
0
  6
Continuous
 62
   174
100
AcDbCircle
 10
86.157888
 20
49.830623
 30
0.0
 40
3.0
100
AcDbArc
 50
-217.286546
 51
-52.713454
  0
LINE
  5
23A
100
AcDbEntity
  8
0
  6
Continuous
 62
   174
100
AcDbLine
 10
210.544735
 20
48.013219
 30
0.0
 11
206.340483
 21
52.217471
 31
0.0
  0
LINE
  5
23B
100
AcDbEntity
  8
0
  6
Continuous
 62
   174
100
AcDbLine
 10
83.771041
 20
51.648028
 30
0.0
 11
87.975293
 21
47.443776
 31
0.0
  0
ARC
  5
23C
100
AcDbEntity
  8
0
  6
Continuous
 62
   174
100
AcDbCircle
 10
208.157888
 20
49.830623
 30
0.0
 40
3.0
100
AcDbArc
 50
-221.228296
 51
-48.771704
  0
ARC
  5
23D
100
AcDbEntity
  8
0
  6
Continuous
 62
   174
100
AcDbCircle
 10
86.157888
 20
49.830623
 30
0.0
 40
3.0
100
AcDbArc
 50
-41.228296
 51
131.228296
  0
LINE
  5
23E
100
AcDbEntity
  8
0
  6
Continuous
 62
   174
100
AcDbLine
 10
205.90162
 20
51.807806
 30
0.0
 11
210.135071
 21
47.574355
 31
0.0
  0
LINE
  5
23F
100
AcDbEntity
  8
0
  6
Continuous
 62
   174
100
AcDbLine
 10
88.414157
 20
47.853441
 30
0.0
 11
84.180705
 21
52.086892
 31
0.0
  0
LINE
  5
240
100
AcDbEntity
  8
0
  6
Continuous
 62
   174
100
AcDbLine
 10
234.657888
 20
56.330623
 30
0.0
 11
237.657888
 21
56.330623
 31
0.0
  0
LINE
  5
241
100
AcDbEntity
  8
0
  6
Continuous
 62
   174
100
AcDbLine
 10
52.157888
 20
57.630623
 30
0.0
 11
52.256484
 21
57.801397
 31
0.0
  0
LINE
  5
242
100
AcDbEntity
  8
0
  6
Continuous
 62
   174
100
AcDbLine
 10
234.657888
 20
41.830623
 30
0.0
 11
222.615928
 21
41.830623
 31
0.0
  0
LINE
  5
243
100
AcDbEntity
  8
0
  6
Continuous
 62
   174
100
AcDbLine
 10
234.657888
 20
41.830623
 30
0.0
 11
222.615928
 21
41.830623
 31
0.0
  0
LINE
  5
244
100
AcDbEntity
  8
0
  6
Continuous
 62
   174
100
AcDbLine
 10
59.657888
 20
57.830623
 30
0.0
 11
71.699848
 21
57.830623
 31
0.0
  0
LINE
  5
245
100
AcDbEntity
  8
0
  6
Continuous
 62
   174
100
AcDbLine
 10
238.357888
 20
42.007584
 30
0.0
 11
238.357888
 21
49.935932
 31
0.0
  0
LINE
  5
246
100
AcDbEntity
  8
0
  6
Continuous
 62
   174
100
AcDbLine
 10
63.457888
 20
59.526977
 30
0.0
 11
63.457888
 21
58.458237
 31
0.0
  0
LINE
  5
247
100
AcDbEntity
  8
0
  6
Continuous
 62
   174
100
AcDbLine
 10
63.457888
 20
41.231998
 30
0.0
 11
63.457888
 21
40.164108
 31
0.0
  0
LWPOLYLINE
  5
248
100
AcDbEntity
  8
0
  6
Continuous
 62
   174
100
AcDbPolyline
 90
        3
 70
   128
 10
52.850708
 20
57.66943
 10
52.484606
 20
57.66943
 10
52.256506
 20
57.66943
  0
LINE
  5
249
100
AcDbEntity
  8
0
  6
Continuous
 62
   174
100
AcDbLine
 10
55.957888
 20
57.66943
 30
0.0
 11
52.850708
 21
57.66943
 31
0.0
  0
LINE
  5
24A
100
AcDbEntity
  8
0
  6
Continuous
 62
   174
100
AcDbLine
 10
55.957888
 20
49.74069
 30
0.0
 11
52.850708
 21
49.74069
 31
0.0
  0
LINE
  5
24B
100
AcDbEntity
  8
0
  6
Continuous
 62
   174
100
AcDbLine
 10
56.657888
 20
40.830623
 30
0.0
 11
55.957888
 21
40.830623
 31
0.0
  0
LINE
  5
24C
100
AcDbEntity
  8
0
  6
Continuous
 62
   174
100
AcDbLine
 10
56.657888
 20
58.830623
 30
0.0
 11
55.957888
 21
58.830623
 31
0.0
  0
LINE
  5
24D
100
AcDbEntity
  8
0
  6
Continuous
 62
   174
100
AcDbLine
 10
59.657888
 20
41.830623
 30
0.0
 11
71.699848
 21
41.830623
 31
0.0
  0
LINE
  5
24E
100
AcDbEntity
  8
0
  6
Continuous
 62
   174
100
AcDbLine
 10
71.657888
 20
56.075621
 30
0.0
 11
71.657888
 21
57.330623
 31
0.0
  0
LINE
  5
24F
100
AcDbEntity
  8
0
  6
Continuous
 62
   174
100
AcDbLine
 10
177.157888
 20
60.830623
 30
0.0
 11
177.157888
 21
38.830623
 31
0.0
  0
LINE
  5
250
100
AcDbEntity
  8
0
  6
Continuous
 62
   174
100
AcDbLine
 10
193.657888
 20
42.330623
 30
0.0
 11
193.657888
 21
57.330623
 31
0.0
  0
LINE
  5
251
100
AcDbEntity
  8
0
  6
Continuous
 62
   174
100
AcDbLine
 10
219.657888
 20
39.330623
 30
0.0
 11
196.657888
 21
39.330623
 31
0.0
  0
LINE
  5
252
100
AcDbEntity
  8
0
  6
Continuous
 62
   174
100
AcDbLine
 10
193.157888
 20
38.830623
 30
0.0
 11
177.157888
 21
38.830623
 31
0.0
  0
LINE
  5
253
100
AcDbEntity
  8
0
  6
Continuous
 62
   174
100
AcDbLine
 10
101.157888
 20
60.830623
 30
0.0
 11
117.157888
 21
60.830623
 31
0.0
  0
LINE
  5
254
100
AcDbEntity
  8
0
  6
Continuous
 62
   174
100
AcDbLine
 10
234.657888
 20
43.239896
 30
0.0
 11
234.657888
 21
56.452039
 31
0.0
  0
LWPOLYLINE
  5
255
100
AcDbEntity
  8
0
  6
Continuous
 62
   174
100
AcDbPolyline
 90
        4
 70
   128
 10
242.157888
 20
57.579496
 10
242.024768
 20
57.579496
 10
241.791682
 20
57.579496
 10
241.465068
 20
57.579496
  0
LINE
  5
256
100
AcDbEntity
  8
0
  6
Continuous
 62
   174
100
AcDbLine
 10
238.357888
 20
41.991817
 30
0.0
 11
241.465068
 21
41.991817
 31
0.0
  0
LWPOLYLINE
  5
257
100
AcDbEntity
  8
0
  6
Continuous
 62
   174
100
AcDbPolyline
 90
        7
 70
   128
 10
241.465068
 20
57.579496
 10
241.831194
 20
56.27753
 10
242.059292
 20
55.000928
 10
242.136196
 20
53.749957
 10
242.059278
 20
52.499002
 10
241.831177
 20
51.222447
 10
241.465068
 20
49.920557
  0
LINE
  5
258
100
AcDbEntity
  8
0
  6
Continuous
 62
   174
100
AcDbLine
 10
230.857888
 20
59.513082
 30
0.0
 11
224.657888
 21
59.513082
 31
0.0
  0
LINE
  5
259
100
AcDbEntity
  8
0
  6
Continuous
 62
   174
100
AcDbLine
 10
56.657888
 20
40.830623
 30
0.0
 11
55.957888
 21
40.830623
 31
0.0
  0
LINE
  5
25A
100
AcDbEntity
  8
0
  6
Continuous
 62
   174
100
AcDbLine
 10
59.657888
 20
57.830623
 30
0.0
 11
71.699848
 21
57.830623
 31
0.0
  0
LINE
  5
25B
100
AcDbEntity
  8
0
  6
Continuous
 62
   174
100
AcDbLine
 10
101.157888
 20
38.830623
 30
0.0
 11
117.157888
 21
38.830623
 31
0.0
  0
LINE
  5
25C
100
AcDbEntity
  8
0
  6
Continuous
 62
   174
100
AcDbLine
 10
234.657888
 20
56.452039
 30
0.0
 11
234.657888
 21
57.845586
 31
0.0
  0
LINE
  5
25D
100
AcDbEntity
  8
0
  6
Continuous
 62
   174
100
AcDbLine
 10
237.657888
 20
56.559954
 30
0.0
 11
237.657888
 21
43.132193
 31
0.0
  0
LINE
  5
25E
100
AcDbEntity
  8
0
  6
Continuous
 62
   174
100
AcDbLine
 10
55.957888
 20
49.756003
 30
0.0
 11
55.957888
 21
42.097655
 31
0.0
  0
LINE
  5
25F
100
AcDbEntity
  8
0
  6
Continuous
 62
   174
100
AcDbLine
 10
55.957888
 20
57.684351
 30
0.0
 11
55.957888
 21
49.756003
 31
0.0
  0
LWPOLYLINE
  5
260
100
AcDbEntity
  8
0
  6
Continuous
 62
   174
100
AcDbPolyline
 90
        4
 70
   128
 10
242.157888
 20
45.184029
 10
242.024768
 20
44.13032
 10
241.791685
 20
43.071908
 10
241.465068
 20
41.991817
  0
LINE
  5
261
100
AcDbEntity
  8
0
  6
Continuous
 62
   174
100
AcDbLine
 10
234.657888
 20
43.330623
 30
0.0
 11
237.657888
 21
43.330623
 31
0.0
  0
LINE
  5
262
100
AcDbEntity
  8
0
  6
Continuous
 62
   174
100
AcDbLine
 10
59.657888
 20
43.330623
 30
0.0
 11
56.657888
 21
43.330623
 31
0.0
  0
LINE
  5
263
100
AcDbEntity
  8
0
  6
Continuous
 62
   174
100
AcDbLine
 10
59.657888
 20
56.330623
 30
0.0
 11
56.657888
 21
56.330623
 31
0.0
  0
LINE
  5
264
100
AcDbEntity
  8
0
  6
Continuous
 62
   174
100
AcDbLine
 10
237.657888
 20
58.830623
 30
0.0
 11
238.357888
 21
58.830623
 31
0.0
  0
LINE
  5
265
100
AcDbEntity
  8
0
  6
Continuous
 62
   174
100
AcDbLine
 10
237.657888
 20
58.830623
 30
0.0
 11
238.357888
 21
58.830623
 31
0.0
  0
LINE
  5
266
100
AcDbEntity
  8
0
  6
Continuous
 62
   174
100
AcDbLine
 10
56.657888
 20
58.830623
 30
0.0
 11
55.957888
 21
58.830623
 31
0.0
  0
LINE
  5
267
100
AcDbEntity
  8
0
  6
Continuous
 62
   174
100
AcDbLine
 10
234.657888
 20
57.830623
 30
0.0
 11
222.615928
 21
57.830623
 31
0.0
  0
LINE
  5
268
100
AcDbEntity
  8
0
  6
Continuous
 62
   174
100
AcDbLine
 10
117.157888
 20
60.830623
 30
0.0
 11
117.157888
 21
38.830623
 31
0.0
  0
LINE
  5
269
100
AcDbEntity
  8
0
  6
Continuous
 62
   174
100
AcDbLine
 10
74.657888
 20
60.330623
 30
0.0
 11
97.657888
 21
60.330623
 31
0.0
  0
LINE
  5
26A
100
AcDbEntity
  8
0
  6
Continuous
 62
   174
100
AcDbLine
 10
101.157888
 20
38.830623
 30
0.0
 11
101.157888
 21
60.830623
 31
0.0
  0
LINE
  5
26B
100
AcDbEntity
  8
0
  6
Continuous
 62
   174
100
AcDbLine
 10
117.157888
 20
38.830623
 30
0.0
 11
117.157888
 21
60.830623
 31
0.0
  0
LINE
  5
26C
100
AcDbEntity
  8
0
  6
Continuous
 62
   174
100
AcDbLine
 10
234.657888
 20
41.846349
 30
0.0
 11
234.657888
 21
43.239896
 31
0.0
  0
LINE
  5
26D
100
AcDbEntity
  8
0
  6
Continuous
 62
   174
100
AcDbLine
 10
55.957888
 20
58.845499
 30
0.0
 11
55.957888
 21
57.684351
 31
0.0
  0
LINE
  5
26E
100
AcDbEntity
  8
0
  6
Continuous
 62
   174
100
AcDbLine
 10
230.857888
 20
40.164958
 30
0.0
 11
230.857888
 21
41.23391
 31
0.0
  0
LINE
  5
26F
100
AcDbEntity
  8
0
  6
Continuous
 62
   174
100
AcDbLine
 10
242.157888
 20
46.728345
 30
0.0
 11
242.157888
 21
45.184029
 31
0.0
  0
LINE
  5
270
100
AcDbEntity
  8
0
  6
Continuous
 62
   174
100
AcDbLine
 10
52.157888
 20
52.932902
 30
0.0
 11
52.157888
 21
54.477218
 31
0.0
  0
LWPOLYLINE
  5
271
100
AcDbEntity
  8
0
  6
Continuous
 62
   174
100
AcDbPolyline
 90
        3
 70
   128
 10
241.465068
 20
41.991817
 10
241.83117
 20
41.991817
 10
242.05927
 20
41.991817
  0
LINE
  5
272
100
AcDbEntity
  8
0
  6
Continuous
 62
   174
100
AcDbLine
 10
238.357888
 20
49.920557
 30
0.0
 11
241.465068
 21
49.920557
 31
0.0
  0
LWPOLYLINE
  5
273
100
AcDbEntity
  8
0
  6
Continuous
 62
   174
100
AcDbPolyline
 90
        4
 70
   128
 10
52.850708
 20
49.74069
 10
52.522808
 20
50.825659
 10
52.290054
 20
51.884658
 10
52.157888
 20
52.932902
  0
LINE
  5
274
100
AcDbEntity
  8
0
  6
Continuous
 62
   174
100
AcDbLine
 10
237.657888
 20
40.830623
 30
0.0
 11
238.357888
 21
40.830623
 31
0.0
  0
LINE
  5
275
100
AcDbEntity
  8
0
  6
Continuous
 62
   174
100
AcDbLine
 10
222.657888
 20
57.330623
 30
0.0
 11
222.657888
 21
56.075621
 31
0.0
  0
LINE
  5
276
100
AcDbEntity
  8
0
  6
Continuous
 62
   174
100
AcDbLine
 10
71.657888
 20
42.330623
 30
0.0
 11
71.657888
 21
43.585625
 31
0.0
  0
LINE
  5
277
100
AcDbEntity
  8
0
  6
Continuous
 62
   174
100
AcDbLine
 10
100.657888
 20
57.330623
 30
0.0
 11
100.657888
 21
42.330623
 31
0.0
  0
LINE
  5
278
100
AcDbEntity
  8
0
  6
Continuous
 62
   174
100
AcDbLine
 10
193.157888
 20
60.830623
 30
0.0
 11
177.157888
 21
60.830623
 31
0.0
  0
LINE
  5
279
100
AcDbEntity
  8
0
  6
Continuous
 62
   174
100
AcDbLine
 10
177.157888
 20
60.830623
 30
0.0
 11
117.157888
 21
60.830623
 31
0.0
  0
LINE
  5
27A
100
AcDbEntity
  8
0
  6
Continuous
 62
   174
100
AcDbLine
 10
193.157888
 20
60.830623
 30
0.0
 11
193.157888
 21
38.830623
 31
0.0
  0
LINE
  5
27B
100
AcDbEntity
  8
0
  6
Continuous
 62
   174
100
AcDbLine
 10
52.850708
 20
42.081751
 30
0.0
 11
55.957888
 21
42.081751
 31
0.0
  0
LINE
  5
27C
100
AcDbEntity
  8
0
  6
Continuous
 62
   174
100
AcDbLine
 10
234.657888
 20
43.330623
 30
0.0
 11
237.657888
 21
43.330623
 31
0.0
  0
LINE
  5
27D
100
AcDbEntity
  8
0
  6
Continuous
 62
   174
100
AcDbLine
 10
237.657888
 20
43.132193
 30
0.0
 11
237.657888
 21
40.846436
 31
0.0
  0
LINE
  5
27E
100
AcDbEntity
  8
0
  6
Continuous
 62
   174
100
AcDbLine
 10
237.657888
 20
58.845499
 30
0.0
 11
237.657888
 21
56.559954
 31
0.0
  0
LINE
  5
27F
100
AcDbEntity
  8
0
  6
Continuous
 62
   174
100
AcDbLine
 10
238.357888
 20
57.594493
 30
0.0
 11
238.357888
 21
58.845499
 31
0.0
  0
LINE
  5
280
100
AcDbEntity
  8
0
  6
Continuous
 62
   174
100
AcDbLine
 10
230.857888
 20
58.459936
 30
0.0
 11
230.857888
 21
59.527827
 31
0.0
  0
LWPOLYLINE
  5
281
100
AcDbEntity
  8
0
  6
Continuous
 62
   174
100
AcDbPolyline
 90
        4
 70
   128
 10
52.157888
 20
42.081751
 10
52.291008
 20
42.081751
 10
52.524094
 20
42.081751
 10
52.850708
 20
42.081751
  0
LINE
  5
282
100
AcDbEntity
  8
0
  6
Continuous
 62
   174
100
AcDbLine
 10
52.157888
 20
52.948203
 30
0.0
 11
52.157888
 21
42.097655
 31
0.0
  0
LINE
  5
283
100
AcDbEntity
  8
0
  6
Continuous
 62
   174
100
AcDbLine
 10
52.198109
 20
57.66943
 30
0.0
 11
52.274584
 21
57.66943
 31
0.0
  0
LWPOLYLINE
  5
284
100
AcDbEntity
  8
0
  6
Continuous
 62
   174
100
AcDbPolyline
 90
        4
 70
   128
 10
52.157888
 20
54.477218
 10
52.291009
 20
55.530927
 10
52.524091
 20
56.589339
 10
52.850708
 20
57.66943
  0
LINE
  5
285
100
AcDbEntity
  8
0
  6
Continuous
 62
   174
100
AcDbLine
 10
59.657888
 20
43.330623
 30
0.0
 11
56.657888
 21
43.330623
 31
0.0
  0
LINE
  5
286
100
AcDbEntity
  8
0
  6
Continuous
 62
   174
100
AcDbLine
 10
242.157888
 20
42.030623
 30
0.0
 11
242.059292
 21
41.85985
 31
0.0
  0
LINE
  5
287
100
AcDbEntity
  8
0
  6
Continuous
 62
   174
100
AcDbLine
 10
234.657888
 20
57.830623
 30
0.0
 11
222.615928
 21
57.830623
 31
0.0
  0
LINE
  5
288
100
AcDbEntity
  8
0
  6
Continuous
 62
   174
100
AcDbLine
 10
59.657888
 20
41.830623
 30
0.0
 11
71.699848
 21
41.830623
 31
0.0
  0
LINE
  5
289
100
AcDbEntity
  8
0
  6
Continuous
 62
   174
100
AcDbLine
 10
222.657888
 20
43.585625
 30
0.0
 11
222.657888
 21
42.330623
 31
0.0
  0
LINE
  5
28A
100
AcDbEntity
  8
0
  6
Continuous
 62
   174
100
AcDbLine
 10
196.657888
 20
60.330623
 30
0.0
 11
219.657888
 21
60.330623
 31
0.0
  0
LINE
  5
28B
100
AcDbEntity
  8
0
  6
Continuous
 62
   174
100
AcDbLine
 10
238.357888
 20
40.846436
 30
0.0
 11
238.357888
 21
42.007584
 31
0.0
  0
LINE
  5
28C
100
AcDbEntity
  8
0
  6
Continuous
 62
   174
100
AcDbLine
 10
241.465068
 20
57.579496
 30
0.0
 11
238.357888
 21
57.579496
 31
0.0
  0
LINE
  5
28D
100
AcDbEntity
  8
0
  6
Continuous
 62
   174
100
AcDbLine
 10
242.157888
 20
46.743944
 30
0.0
 11
242.157888
 21
57.594493
 31
0.0
  0
LINE
  5
28E
100
AcDbEntity
  8
0
  6
Continuous
 62
   174
100
AcDbLine
 10
242.153868
 20
41.991817
 30
0.0
 11
242.077393
 21
41.991817
 31
0.0
  0
LWPOLYLINE
  5
28F
100
AcDbEntity
  8
0
  6
Continuous
 62
   174
100
AcDbPolyline
 90
        4
 70
   128
 10
241.465068
 20
49.920557
 10
241.792968
 20
48.835588
 10
242.025723
 20
47.776589
 10
242.157888
 20
46.728345
  0
LINE
  5
290
100
AcDbEntity
  8
0
  6
Continuous
 62
   174
100
AcDbLine
 10
234.657888
 20
56.330623
 30
0.0
 11
237.657888
 21
56.330623
 31
0.0
  0
LINE
  5
291
100
AcDbEntity
  8
0
  6
Continuous
 62
   174
100
AcDbLine
 10
59.657888
 20
56.330623
 30
0.0
 11
56.657888
 21
56.330623
 31
0.0
  0
LINE
  5
292
100
AcDbEntity
  8
0
  6
Continuous
 62
   174
100
AcDbLine
 10
237.657888
 20
40.830623
 30
0.0
 11
238.357888
 21
40.830623
 31
0.0
  0
LINE
  5
293
100
AcDbEntity
  8
0
  6
Continuous
 62
   174
100
AcDbLine
 10
97.657888
 20
39.330623
 30
0.0
 11
74.657888
 21
39.330623
 31
0.0
  0
LINE
  5
294
100
AcDbEntity
  8
0
  6
Continuous
 62
   174
100
AcDbLine
 10
177.157888
 20
38.830623
 30
0.0
 11
117.157888
 21
38.830623
 31
0.0
  0
LINE
  5
295
100
AcDbEntity
  8
0
  6
Continuous
 62
   174
100
AcDbLine
 10
177.157888
 20
60.830623
 30
0.0
 11
177.157888
 21
38.830623
 31
0.0
  0
LINE
  5
296
100
AcDbEntity
  8
0
  6
Continuous
 62
   174
100
AcDbLine
 10
59.657888
 20
43.239896
 30
0.0
 11
59.657888
 21
41.846349
 31
0.0
  0
LINE
  5
297
100
AcDbEntity
  8
0
  6
Continuous
 62
   174
100
AcDbLine
 10
59.657888
 20
57.845586
 30
0.0
 11
59.657888
 21
56.452039
 31
0.0
  0
LINE
  5
298
100
AcDbEntity
  8
0
  6
Continuous
 62
   174
100
AcDbLine
 10
59.657888
 20
56.452039
 30
0.0
 11
59.657888
 21
43.239896
 31
0.0
  0
LINE
  5
299
100
AcDbEntity
  8
0
  6
Continuous
 62
   174
100
AcDbLine
 10
56.657888
 20
56.559741
 30
0.0
 11
56.657888
 21
58.845499
 31
0.0
  0
LINE
  5
29A
100
AcDbEntity
  8
0
  6
Continuous
 62
   174
100
AcDbLine
 10
56.657888
 20
40.846436
 30
0.0
 11
56.657888
 21
43.132193
 31
0.0
  0
LINE
  5
29B
100
AcDbEntity
  8
0
  6
Continuous
 62
   174
100
AcDbLine
 10
56.657888
 20
43.132193
 30
0.0
 11
56.657888
 21
56.559741
 31
0.0
  0
LINE
  5
29C
100
AcDbEntity
  8
0
  6
Continuous
 62
   174
100
AcDbLine
 10
55.957888
 20
42.097655
 30
0.0
 11
55.957888
 21
40.846436
 31
0.0
  0
LINE
  5
29D
100
AcDbEntity
  8
0
  6
Continuous
 62
   174
100
AcDbLine
 10
238.357888
 20
49.935932
 30
0.0
 11
238.357888
 21
57.594493
 31
0.0
  0
LINE
  5
29E
100
AcDbEntity
  8
0
  6
Continuous
 62
   174
100
AcDbLine
 10
242.157888
 20
42.046459
 30
0.0
 11
242.157888
 21
45.199571
 31
0.0
  0
LINE
  5
29F
100
AcDbEntity
  8
0
  6
Continuous
 62
   174
100
AcDbLine
 10
52.157888
 20
57.645476
 30
0.0
 11
52.157888
 21
54.492363
 31
0.0
  0
LWPOLYLINE
  5
2A0
100
AcDbEntity
  8
0
  6
Continuous
 62
   174
100
AcDbPolyline
 90
        7
 70
   128
 10
52.850708
 20
42.081751
 10
52.484582
 20
43.383717
 10
52.256484
 20
44.660319
 10
52.17958
 20
45.91129
 10
52.256499
 20
47.162244
 10
52.484599
 20
48.438799
 10
52.850708
 20
49.74069
  0
LINE
  5
2A1
100
AcDbEntity
  8
0
  6
Continuous
 62
   174
100
AcDbLine
 10
63.457888
 20
40.148165
 30
0.0
 11
69.657888
 21
40.148165
 31
0.0
  0
ARC
  5
2A2
100
AcDbEntity
  8
0
  6
Continuous
 62
   174
100
AcDbCircle
 10
138.157888
 20
49.830623
 30
0.0
 40
4.865
100
AcDbArc
 50
-178.974602
 51
-61.189941
  0
LINE
  5
2A3
100
AcDbEntity
  8
0
  6
Continuous
 62
   174
100
AcDbLine
 10
63.457888
 20
41.830623
 30
0.0
 11
63.457888
 21
41.216227
 31
0.0
  0
LINE
  5
2A4
100
AcDbEntity
  8
0
  6
Continuous
 62
   174
100
AcDbLine
 10
224.657888
 20
59.830623
 30
0.0
 11
224.157888
 21
59.830623
 31
0.0
  0
ARC
  5
2A5
100
AcDbEntity
  8
0
  6
Continuous
 62
   174
100
AcDbCircle
 10
156.157888
 20
49.830623
 30
0.0
 40
4.865
100
AcDbArc
 50
-359.080154
 51
-180.919846
  0
LINE
  5
2A6
100
AcDbEntity
  8
0
  6
Continuous
 62
   174
100
AcDbLine
 10
100.676127
 20
42.330623
 30
0.0
 11
97.675965
 21
42.330623
 31
0.0
  0
ARC
  5
2A7
100
AcDbEntity
  8
0
  6
Continuous
 62
   174
100
AcDbCircle
 10
138.157888
 20
49.830623
 30
0.0
 40
4.375
100
AcDbArc
 50
87.766458
 51
92.233542
  0
LINE
  5
2A8
100
AcDbEntity
  8
0
  6
Continuous
 62
   174
100
AcDbLine
 10
100.657888
 20
42.330623
 30
0.0
 11
100.657888
 21
57.330623
 31
0.0
  0
LINE
  5
2A9
100
AcDbEntity
  8
0
  6
Continuous
 62
   174
100
AcDbLine
 10
222.657888
 20
56.075621
 30
0.0
 11
222.657888
 21
57.330623
 31
0.0
  0
LINE
  5
2AA
100
AcDbEntity
  8
0
  6
Continuous
 62
   174
100
AcDbLine
 10
70.157888
 20
59.830623
 30
0.0
 11
71.157888
 21
59.830623
 31
0.0
  0
LINE
  5
2AB
100
AcDbEntity
  8
0
  6
Continuous
 62
   174
100
AcDbLine
 10
193.676062
 20
57.330623
 30
0.0
 11
196.676012
 21
57.330623
 31
0.0
  0
LINE
  5
2AC
100
AcDbEntity
  8
0
  6
Continuous
 62
   174
100
AcDbLine
 10
196.676012
 20
42.330623
 30
0.0
 11
193.676062
 21
42.330623
 31
0.0
  0
LINE
  5
2AD
100
AcDbEntity
  8
0
  6
Continuous
 62
   174
100
AcDbLine
 10
224.157888
 20
59.830623
 30
0.0
 11
223.157888
 21
59.830623
 31
0.0
  0
ARC
  5
2AE
100
AcDbEntity
  8
0
  6
Continuous
 62
   174
100
AcDbCircle
 10
138.157888
 20
49.830623
 30
0.0
 40
4.375
100
AcDbArc
 50
180.0
 51
223.622256
  0
ARC
  5
2AF
100
AcDbEntity
  8
0
  6
Continuous
 62
   174
100
AcDbCircle
 10
182.157888
 20
49.830623
 30
0.0
 40
3.0
100
AcDbArc
 50
-180.0
 51
0.0
  0
LINE
  5
2B0
100
AcDbEntity
  8
0
  6
Continuous
 62
   174
100
AcDbLine
 10
181.657888
 20
52.504572
 30
0.0
 11
181.657888
 21
47.156675
 31
0.0
  0
LINE
  5
2B1
100
AcDbEntity
  8
0
  6
Continuous
 62
   174
100
AcDbLine
 10
74.657888
 20
42.330623
 30
0.0
 11
74.657888
 21
49.830623
 31
0.0
  0
LINE
  5
2B2
100
AcDbEntity
  8
0
  6
Continuous
 62
   174
100
AcDbLine
 10
97.657888
 20
39.346674
 30
0.0
 11
97.657888
 21
42.346411
 31
0.0
  0
ARC
  5
2B3
100
AcDbEntity
  8
0
  6
Continuous
 62
   174
100
AcDbCircle
 10
138.157888
 20
49.830623
 30
0.0
 40
4.865
100
AcDbArc
 50
0.0
 51
1.025398
  0
LINE
  5
2B4
100
AcDbEntity
  8
0
  6
Continuous
 62
   174
100
AcDbLine
 10
111.657888
 20
52.504572
 30
0.0
 11
111.657888
 21
47.156675
 31
0.0
  0
LINE
  5
2B5
100
AcDbEntity
  8
0
  6
Continuous
 62
   174
100
AcDbLine
 10
97.657888
 20
57.330623
 30
0.0
 11
97.657888
 21
42.330623
 31
0.0
  0
LINE
  5
2B6
100
AcDbEntity
  8
0
  6
Continuous
 62
   174
100
AcDbLine
 10
222.657888
 20
42.330623
 30
0.0
 11
222.657888
 21
43.585625
 31
0.0
  0
ARC
  5
2B7
100
AcDbEntity
  8
0
  6
Continuous
 62
   174
100
AcDbCircle
 10
138.157888
 20
49.830623
 30
0.0
 40
4.865
100
AcDbArc
 50
-358.974602
 51
-181.025398
  0
ARC
  5
2B8
100
AcDbEntity
  8
0
  6
Continuous
 62
   174
100
AcDbCircle
 10
182.157888
 20
49.830623
 30
0.0
 40
2.720294
100
AcDbArc
 50
-259.408609
 51
-100.591391
  0
LINE
  5
2B9
100
AcDbEntity
  8
0
  6
Continuous
 62
   174
100
AcDbLine
 10
71.157888
 20
38.830623
 30
0.0
 11
71.157888
 21
41.830623
 31
0.0
  0
ARC
  5
2BA
100
AcDbEntity
  8
0
  6
Continuous
 62
   174
100
AcDbCircle
 10
122.157888
 20
58.080623
 30
0.0
 40
1.65
100
AcDbArc
 50
0.0
 51
180.0
  0
ARC
  5
2BB
100
AcDbEntity
  8
0
  6
Continuous
 62
   174
100
AcDbCircle
 10
172.157888
 20
41.580623
 30
0.0
 40
1.65
100
AcDbArc
 50
0.0
 51
180.0
  0
LINE
  5
2BC
100
AcDbEntity
  8
0
  6
Continuous
 62
   174
100
AcDbLine
 10
69.657888
 20
39.830623
 30
0.0
 11
70.157888
 21
39.830623
 31
0.0
  0
LINE
  5
2BD
100
AcDbEntity
  8
0
  6
Continuous
 62
   174
100
AcDbLine
 10
224.657888
 20
40.164958
 30
0.0
 11
224.657888
 21
39.959112
 31
0.0
  0
LINE
  5
2BE
100
AcDbEntity
  8
0
  6
Continuous
 62
   174
100
AcDbLine
 10
224.157888
 20
39.830623
 30
0.0
 11
223.157888
 21
39.830623
 31
0.0
  0
ARC
  5
2BF
100
AcDbEntity
  8
0
  6
Continuous
 62
   174
100
AcDbCircle
 10
138.157888
 20
49.830623
 30
0.0
 40
4.375
100
AcDbArc
 50
47.129795
 51
87.766458
  0
LINE
  5
2C0
100
AcDbEntity
  8
0
  6
Continuous
 62
   174
100
AcDbLine
 10
63.457888
 20
59.512212
 30
0.0
 11
69.657888
 21
59.512212
 31
0.0
  0
ARC
  5
2C1
100
AcDbEntity
  8
0
  6
Continuous
 62
   174
100
AcDbCircle
 10
156.157888
 20
49.830623
 30
0.0
 40
4.375
100
AcDbArc
 50
0.0
 51
43.202523
  0
ARC
  5
2C2
100
AcDbEntity
  8
0
  6
Continuous
 62
   174
100
AcDbCircle
 10
112.157888
 20
49.830623
 30
0.0
 40
2.720294
100
AcDbArc
 50
-259.408609
 51
-100.591391
  0
LINE
  5
2C3
100
AcDbEntity
  8
0
  6
Continuous
 62
   174
100
AcDbLine
 10
230.857888
 20
58.44502
 30
0.0
 11
224.657888
 21
58.44502
 31
0.0
  0
LINE
  5
2C4
100
AcDbEntity
  8
0
  6
Continuous
 62
   174
100
AcDbLine
 10
70.157888
 20
39.830623
 30
0.0
 11
71.157888
 21
39.830623
 31
0.0
  0
LINE
  5
2C5
100
AcDbEntity
  8
0
  6
Continuous
 62
   174
100
AcDbLine
 10
112.657888
 20
47.156675
 30
0.0
 11
112.657888
 21
52.504572
 31
0.0
  0
ARC
  5
2C6
100
AcDbEntity
  8
0
  6
Continuous
 62
   174
100
AcDbCircle
 10
156.157888
 20
49.830623
 30
0.0
 40
4.375
100
AcDbArc
 50
136.797477
 51
180.0
  0
ARC
  5
2C7
100
AcDbEntity
  8
0
  6
Continuous
 62
   174
100
AcDbCircle
 10
122.157888
 20
58.080623
 30
0.0
 40
1.65
100
AcDbArc
 50
-180.0
 51
0.0
  0
LINE
  5
2C8
100
AcDbEntity
  8
0
  6
Continuous
 62
   174
100
AcDbLine
 10
196.657888
 20
42.330623
 30
0.0
 11
196.657888
 21
57.330623
 31
0.0
  0
LINE
  5
2C9
100
AcDbEntity
  8
0
  6
Continuous
 62
   174
100
AcDbLine
 10
223.157888
 20
38.830623
 30
0.0
 11
193.157888
 21
38.830623
 31
0.0
  0
LINE
  5
2CA
100
AcDbEntity
  8
0
  6
Continuous
 62
   174
100
AcDbLine
 10
71.157888
 20
57.830623
 30
0.0
 11
71.157888
 21
60.830623
 31
0.0
  0
ARC
  5
2CB
100
AcDbEntity
  8
0
  6
Continuous
 62
   174
100
AcDbCircle
 10
138.157888
 20
49.830623
 30
0.0
 40
4.375
100
AcDbArc
 50
43.622256
 51
47.129795
  0
LINE
  5
2CC
100
AcDbEntity
  8
0
  6
Continuous
 62
   174
100
AcDbLine
 10
196.657888
 20
57.330623
 30
0.0
 11
219.657888
 21
57.330623
 31
0.0
  0
ARC
  5
2CD
100
AcDbEntity
  8
0
  6
Continuous
 62
   174
100
AcDbCircle
 10
156.157888
 20
49.830623
 30
0.0
 40
4.375
100
AcDbArc
 50
316.797477
 51
360.0
  0
ARC
  5
2CE
100
AcDbEntity
  8
0
  6
Continuous
 62
   174
100
AcDbCircle
 10
112.157888
 20
49.830623
 30
0.0
 40
2.720294
100
AcDbArc
 50
-79.408609
 51
79.408609
  0
LINE
  5
2CF
100
AcDbEntity
  8
0
  6
Continuous
 62
   174
100
AcDbLine
 10
70.157888
 20
59.830623
 30
0.0
 11
71.157888
 21
59.830623
 31
0.0
  0
LINE
  5
2D0
100
AcDbEntity
  8
0
  6
Continuous
 62
   174
100
AcDbLine
 10
230.857888
 20
40.149035
 30
0.0
 11
224.657888
 21
40.149035
 31
0.0
  0
ARC
  5
2D1
100
AcDbEntity
  8
0
  6
Continuous
 62
   174
100
AcDbCircle
 10
172.157888
 20
41.580623
 30
0.0
 40
1.65
100
AcDbArc
 50
-180.0
 51
0.0
  0
LINE
  5
2D2
100
AcDbEntity
  8
0
  6
Continuous
 62
   174
100
AcDbLine
 10
69.657888
 20
59.830623
 30
0.0
 11
70.157888
 21
59.830623
 31
0.0
  0
LINE
  5
2D3
100
AcDbEntity
  8
0
  6
Continuous
 62
   174
100
AcDbLine
 10
74.657888
 20
49.830623
 30
0.0
 11
74.657888
 21
57.330623
 31
0.0
  0
LINE
  5
2D4
100
AcDbEntity
  8
0
  6
Continuous
 62
   174
100
AcDbLine
 10
74.676066
 20
57.330623
 30
0.0
 11
71.676116
 21
57.330623
 31
0.0
  0
ARC
  5
2D5
100
AcDbEntity
  8
0
  6
Continuous
 62
   174
100
AcDbCircle
 10
112.157888
 20
49.830623
 30
0.0
 40
3.0
100
AcDbArc
 50
-180.0
 51
0.0
  0
LINE
  5
2D6
100
AcDbEntity
  8
0
  6
Continuous
 62
   174
100
AcDbLine
 10
97.657888
 20
60.330623
 30
0.0
 11
74.657888
 21
60.330623
 31
0.0
  0
ARC
  5
2D7
100
AcDbEntity
  8
0
  6
Continuous
 62
   174
100
AcDbCircle
 10
138.157888
 20
49.830623
 30
0.0
 40
4.375
100
AcDbArc
 50
312.870205
 51
316.377744
  0
LINE
  5
2D8
100
AcDbEntity
  8
0
  6
Continuous
 62
   174
100
AcDbLine
 10
230.857888
 20
41.217994
 30
0.0
 11
224.657888
 21
41.217994
 31
0.0
  0
ARC
  5
2D9
100
AcDbEntity
  8
0
  6
Continuous
 62
   174
100
AcDbCircle
 10
219.657888
 20
42.330623
 30
0.0
 40
3.0
100
AcDbArc
 50
-90.0
 51
0.0
  0
LINE
  5
2DA
100
AcDbEntity
  8
0
  6
Continuous
 62
   174
100
AcDbLine
 10
97.675965
 20
57.330623
 30
0.0
 11
100.676127
 21
57.330623
 31
0.0
  0
ARC
  5
2DB
100
AcDbEntity
  8
0
  6
Continuous
 62
   174
100
AcDbCircle
 10
156.157888
 20
49.830623
 30
0.0
 40
4.375
100
AcDbArc
 50
313.192349
 51
316.797477
  0
ARC
  5
2DC
100
AcDbEntity
  8
0
  6
Continuous
 62
   174
100
AcDbCircle
 10
138.157888
 20
49.830623
 30
0.0
 40
4.375
100
AcDbArc
 50
136.377744
 51
180.0
  0
ARC
  5
2DD
100
AcDbEntity
  8
0
  6
Continuous
 62
   174
100
AcDbCircle
 10
138.157888
 20
49.830623
 30
0.0
 40
4.375
100
AcDbArc
 50
0.0
 51
43.622256
  0
ARC
  5
2DE
100
AcDbEntity
  8
0
  6
Continuous
 62
   174
100
AcDbCircle
 10
156.157888
 20
49.830623
 30
0.0
 40
4.375
100
AcDbArc
 50
133.192349
 51
136.797477
  0
LWPOLYLINE
  5
2DF
100
AcDbEntity
  8
0
  6
Continuous
 62
   174
100
AcDbPolyline
 90
        6
 70
   128
 10
219.657888
 20
49.830623
 10
220.563204
 20
48.341263
 10
221.371509
 20
46.947515
 10
222.033357
 20
45.668853
 10
222.485183
 20
44.542749
 10
222.657888
 20
43.585625
  0
ARC
  5
2E0
100
AcDbEntity
  8
0
  6
Continuous
 62
   174
100
AcDbCircle
 10
74.657888
 20
57.330623
 30
0.0
 40
3.0
100
AcDbArc
 50
-270.0
 51
-180.0
  0
LINE
  5
2E1
100
AcDbEntity
  8
0
  6
Continuous
 62
   174
100
AcDbLine
 10
69.657888
 20
57.871715
 30
0.0
 11
69.657888
 21
58.458237
 31
0.0
  0
ARC
  5
2E2
100
AcDbEntity
  8
0
  6
Continuous
 62
   174
100
AcDbCircle
 10
112.157888
 20
49.830623
 30
0.0
 40
3.0
100
AcDbArc
 50
0.0
 51
180.0
  0
LINE
  5
2E3
100
AcDbEntity
  8
0
  6
Continuous
 62
   174
100
AcDbLine
 10
219.657888
 20
42.346411
 30
0.0
 11
219.657888
 21
39.346674
 31
0.0
  0
LINE
  5
2E4
100
AcDbEntity
  8
0
  6
Continuous
 62
   174
100
AcDbLine
 10
74.657888
 20
57.330623
 30
0.0
 11
97.657888
 21
57.330623
 31
0.0
  0
LINE
  5
2E5
100
AcDbEntity
  8
0
  6
Continuous
 62
   174
100
AcDbLine
 10
224.657888
 20
39.830623
 30
0.0
 11
224.157888
 21
39.830623
 31
0.0
  0
LINE
  5
2E6
100
AcDbEntity
  8
0
  6
Continuous
 62
   174
100
AcDbLine
 10
69.657888
 20
39.846524
 30
0.0
 11
69.657888
 21
39.959112
 31
0.0
  0
ARC
  5
2E7
100
AcDbEntity
  8
0
  6
Continuous
 62
   174
100
AcDbCircle
 10
138.157888
 20
49.830623
 30
0.0
 40
4.375
100
AcDbArc
 50
272.233542
 51
312.870205
  0
LINE
  5
2E8
100
AcDbEntity
  8
0
  6
Continuous
 62
   174
100
AcDbLine
 10
224.657888
 20
59.732823
 30
0.0
 11
224.657888
 21
59.527827
 31
0.0
  0
LINE
  5
2E9
100
AcDbEntity
  8
0
  6
Continuous
 62
   174
100
AcDbLine
 10
71.676116
 20
42.330623
 30
0.0
 11
74.676066
 21
42.330623
 31
0.0
  0
LINE
  5
2EA
100
AcDbEntity
  8
0
  6
Continuous
 62
   174
100
AcDbLine
 10
97.657888
 20
42.330623
 30
0.0
 11
74.657888
 21
42.330623
 31
0.0
  0
LINE
  5
2EB
100
AcDbEntity
  8
0
  6
Continuous
 62
   174
100
AcDbLine
 10
63.457888
 20
41.216227
 30
0.0
 11
69.657888
 21
41.216227
 31
0.0
  0
ARC
  5
2EC
100
AcDbEntity
  8
0
  6
Continuous
 62
   174
100
AcDbCircle
 10
156.157888
 20
49.830623
 30
0.0
 40
4.375
100
AcDbArc
 50
226.807651
 51
313.192349
  0
LINE
  5
2ED
100
AcDbEntity
  8
0
  6
Continuous
 62
   174
100
AcDbLine
 10
223.157888
 20
60.830623
 30
0.0
 11
223.157888
 21
57.830623
 31
0.0
  0
ARC
  5
2EE
100
AcDbEntity
  8
0
  6
Continuous
 62
   174
100
AcDbCircle
 10
196.657888
 20
57.330623
 30
0.0
 40
3.0
100
AcDbArc
 50
-270.0
 51
-180.0
  0
LWPOLYLINE
  5
2EF
100
AcDbEntity
  8
0
  6
Continuous
 62
   174
100
AcDbPolyline
 90
        6
 70
   128
 10
222.657888
 20
56.075621
 10
222.485546
 20
55.11966
 10
222.033745
 20
53.99322
 10
221.370675
 20
52.712229
 10
220.562144
 20
51.318213
 10
219.657888
 20
49.830623
  0
ARC
  5
2F0
100
AcDbEntity
  8
0
  6
Continuous
 62
   174
100
AcDbCircle
 10
97.657888
 20
57.330623
 30
0.0
 40
3.0
100
AcDbArc
 50
0.0
 51
90.0
  0
LINE
  5
2F1
100
AcDbEntity
  8
0
  6
Continuous
 62
   174
100
AcDbLine
 10
219.675912
 20
42.330623
 30
0.0
 11
222.676074
 21
42.330623
 31
0.0
  0
ARC
  5
2F2
100
AcDbEntity
  8
0
  6
Continuous
 62
   174
100
AcDbCircle
 10
138.157888
 20
49.830623
 30
0.0
 40
4.375
100
AcDbArc
 50
316.377744
 51
360.0
  0
ARC
  5
2F3
100
AcDbEntity
  8
0
  6
Continuous
 62
   174
100
AcDbCircle
 10
182.157888
 20
49.830623
 30
0.0
 40
2.720294
100
AcDbArc
 50
-79.408609
 51
79.408609
  0
ARC
  5
2F4
100
AcDbEntity
  8
0
  6
Continuous
 62
   174
100
AcDbCircle
 10
97.657888
 20
42.330623
 30
0.0
 40
3.0
100
AcDbArc
 50
-90.0
 51
0.0
  0
LINE
  5
2F5
100
AcDbEntity
  8
0
  6
Continuous
 62
   174
100
AcDbLine
 10
74.657888
 20
39.346674
 30
0.0
 11
74.657888
 21
42.346411
 31
0.0
  0
LINE
  5
2F6
100
AcDbEntity
  8
0
  6
Continuous
 62
   174
100
AcDbLine
 10
219.657888
 20
49.830623
 30
0.0
 11
219.657888
 21
42.330623
 31
0.0
  0
ARC
  5
2F7
100
AcDbEntity
  8
0
  6
Continuous
 62
   174
100
AcDbCircle
 10
156.157888
 20
49.830623
 30
0.0
 40
4.865
100
AcDbArc
 50
-179.080154
 51
-61.192829
  0
ARC
  5
2F8
100
AcDbEntity
  8
0
  6
Continuous
 62
   174
100
AcDbCircle
 10
156.157888
 20
49.830623
 30
0.0
 40
4.375
100
AcDbArc
 50
46.807651
 51
133.192349
  0
ARC
  5
2F9
100
AcDbEntity
  8
0
  6
Continuous
 62
   174
100
AcDbCircle
 10
138.157888
 20
49.830623
 30
0.0
 40
4.375
100
AcDbArc
 50
267.766458
 51
272.233542
  0
ARC
  5
2FA
100
AcDbEntity
  8
0
  6
Continuous
 62
   174
100
AcDbCircle
 10
138.157888
 20
49.830623
 30
0.0
 40
4.375
100
AcDbArc
 50
132.870205
 51
136.377744
  0
LINE
  5
2FB
100
AcDbEntity
  8
0
  6
Continuous
 62
   174
100
AcDbLine
 10
223.157888
 20
41.830623
 30
0.0
 11
223.157888
 21
38.830623
 31
0.0
  0
LINE
  5
2FC
100
AcDbEntity
  8
0
  6
Continuous
 62
   174
100
AcDbLine
 10
69.657888
 20
59.526977
 30
0.0
 11
69.657888
 21
59.733035
 31
0.0
  0
LINE
  5
2FD
100
AcDbEntity
  8
0
  6
Continuous
 62
   174
100
AcDbLine
 10
69.657888
 20
41.231998
 30
0.0
 11
69.657888
 21
41.82022
 31
0.0
  0
ARC
  5
2FE
100
AcDbEntity
  8
0
  6
Continuous
 62
   174
100
AcDbCircle
 10
156.157888
 20
49.830623
 30
0.0
 40
4.375
100
AcDbArc
 50
223.202523
 51
226.807651
  0
LINE
  5
2FF
100
AcDbEntity
  8
0
  6
Continuous
 62
   174
100
AcDbLine
 10
69.657888
 20
39.959112
 30
0.0
 11
69.657888
 21
40.164108
 31
0.0
  0
LINE
  5
300
100
AcDbEntity
  8
0
  6
Continuous
 62
   174
100
AcDbLine
 10
71.657888
 20
57.330623
 30
0.0
 11
71.657888
 21
56.075621
 31
0.0
  0
ARC
  5
301
100
AcDbEntity
  8
0
  6
Continuous
 62
   174
100
AcDbCircle
 10
138.157888
 20
49.830623
 30
0.0
 40
4.865
100
AcDbArc
 50
-180.0
 51
-178.974602
  0
LINE
  5
302
100
AcDbEntity
  8
0
  6
Continuous
 62
   174
100
AcDbLine
 10
74.657888
 20
39.330623
 30
0.0
 11
97.657888
 21
39.330623
 31
0.0
  0
LINE
  5
303
100
AcDbEntity
  8
0
  6
Continuous
 62
   174
100
AcDbLine
 10
74.657888
 20
57.345524
 30
0.0
 11
74.657888
 21
60.345474
 31
0.0
  0
LINE
  5
304
100
AcDbEntity
  8
0
  6
Continuous
 62
   174
100
AcDbLine
 10
63.457888
 20
58.443253
 30
0.0
 11
69.657888
 21
58.443253
 31
0.0
  0
LINE
  5
305
100
AcDbEntity
  8
0
  6
Continuous
 62
   174
100
AcDbLine
 10
230.857888
 20
41.217994
 30
0.0
 11
230.857888
 21
41.830623
 31
0.0
  0
ARC
  5
306
100
AcDbEntity
  8
0
  6
Continuous
 62
   174
100
AcDbCircle
 10
156.157888
 20
49.830623
 30
0.0
 40
4.865
100
AcDbArc
 50
-180.0
 51
-179.080154
  0
ARC
  5
307
100
AcDbEntity
  8
0
  6
Continuous
 62
   174
100
AcDbCircle
 10
196.657888
 20
42.330623
 30
0.0
 40
3.0
100
AcDbArc
 50
-180.0
 51
-90.0
  0
LINE
  5
308
100
AcDbEntity
  8
0
  6
Continuous
 62
   174
100
AcDbLine
 10
219.657888
 20
60.330623
 30
0.0
 11
196.657888
 21
60.330623
 31
0.0
  0
LINE
  5
309
100
AcDbEntity
  8
0
  6
Continuous
 62
   174
100
AcDbLine
 10
224.657888
 20
59.845411
 30
0.0
 11
224.657888
 21
59.732823
 31
0.0
  0
ARC
  5
30A
100
AcDbEntity
  8
0
  6
Continuous
 62
   174
100
AcDbCircle
 10
138.157888
 20
49.830623
 30
0.0
 40
4.375
100
AcDbArc
 50
227.129795
 51
267.766458
  0
LWPOLYLINE
  5
30B
100
AcDbEntity
  8
0
  6
Continuous
 62
   174
100
AcDbPolyline
 90
        6
 70
   128
 10
74.657888
 20
49.830623
 10
73.752572
 20
51.319983
 10
72.944267
 20
52.713732
 10
72.282419
 20
53.992394
 10
71.830594
 20
55.118498
 10
71.657888
 20
56.075621
  0
LINE
  5
30C
100
AcDbEntity
  8
0
  6
Continuous
 62
   174
100
AcDbLine
 10
71.657888
 20
43.585625
 30
0.0
 11
71.657888
 21
42.330623
 31
0.0
  0
LINE
  5
30D
100
AcDbEntity
  8
0
  6
Continuous
 62
   174
100
AcDbLine
 10
219.657888
 20
42.330623
 30
0.0
 11
196.657888
 21
42.330623
 31
0.0
  0
LINE
  5
30E
100
AcDbEntity
  8
0
  6
Continuous
 62
   174
100
AcDbLine
 10
193.157888
 20
60.830623
 30
0.0
 11
223.157888
 21
60.830623
 31
0.0
  0
ARC
  5
30F
100
AcDbEntity
  8
0
  6
Continuous
 62
   174
100
AcDbCircle
 10
156.157888
 20
49.830623
 30
0.0
 40
4.375
100
AcDbArc
 50
43.202523
 51
46.807651
  0
LINE
  5
310
100
AcDbEntity
  8
0
  6
Continuous
 62
   174
100
AcDbLine
 10
196.657888
 20
60.345474
 30
0.0
 11
196.657888
 21
57.345524
 31
0.0
  0
LINE
  5
311
100
AcDbEntity
  8
0
  6
Continuous
 62
   174
100
AcDbLine
 10
224.657888
 20
39.959112
 30
0.0
 11
224.657888
 21
39.846524
 31
0.0
  0
LINE
  5
312
100
AcDbEntity
  8
0
  6
Continuous
 62
   174
100
AcDbLine
 10
63.457888
 20
58.443253
 30
0.0
 11
63.457888
 21
57.830623
 31
0.0
  0
LINE
  5
313
100
AcDbEntity
  8
0
  6
Continuous
 62
   174
100
AcDbLine
 10
224.657888
 20
58.459936
 30
0.0
 11
224.657888
 21
57.871715
 31
0.0
  0
ARC
  5
314
100
AcDbEntity
  8
0
  6
Continuous
 62
   174
100
AcDbCircle
 10
138.157888
 20
49.830623
 30
0.0
 40
4.375
100
AcDbArc
 50
92.233542
 51
132.870205
  0
ARC
  5
315
100
AcDbEntity
  8
0
  6
Continuous
 62
   174
100
AcDbCircle
 10
156.157888
 20
49.830623
 30
0.0
 40
4.865
100
AcDbArc
 50
0.0
 51
0.919846
  0
LINE
  5
316
100
AcDbEntity
  8
0
  6
Continuous
 62
   174
100
AcDbLine
 10
219.657888
 20
60.345474
 30
0.0
 11
219.657888
 21
57.345524
 31
0.0
  0
ARC
  5
317
100
AcDbEntity
  8
0
  6
Continuous
 62
   174
100
AcDbCircle
 10
156.157888
 20
49.830623
 30
0.0
 40
4.375
100
AcDbArc
 50
180.0
 51
223.202523
  0
ARC
  5
318
100
AcDbEntity
  8
0
  6
Continuous
 62
   174
100
AcDbCircle
 10
138.157888
 20
49.830623
 30
0.0
 40
4.865
100
AcDbArc
 50
-181.025398
 51
-180.0
  0
LINE
  5
319
100
AcDbEntity
  8
0
  6
Continuous
 62
   174
100
AcDbLine
 10
101.157888
 20
38.830623
 30
0.0
 11
71.157888
 21
38.830623
 31
0.0
  0
ARC
  5
31A
100
AcDbEntity
  8
0
  6
Continuous
 62
   174
100
AcDbCircle
 10
156.157888
 20
49.830623
 30
0.0
 40
4.865
100
AcDbArc
 50
-180.919846
 51
-180.0
  0
ARC
  5
31B
100
AcDbEntity
  8
0
  6
Continuous
 62
   174
100
AcDbCircle
 10
74.657888
 20
42.330623
 30
0.0
 40
3.0
100
AcDbArc
 50
-180.0
 51
-90.0
  0
LINE
  5
31C
100
AcDbEntity
  8
0
  6
Continuous
 62
   174
100
AcDbLine
 10
196.657888
 20
42.346411
 30
0.0
 11
196.657888
 21
39.346674
 31
0.0
  0
LINE
  5
31D
100
AcDbEntity
  8
0
  6
Continuous
 62
   174
100
AcDbLine
 10
97.657888
 20
57.345524
 30
0.0
 11
97.657888
 21
60.345474
 31
0.0
  0
LWPOLYLINE
  5
31E
100
AcDbEntity
  8
0
  6
Continuous
 62
   174
100
AcDbPolyline
 90
        6
 70
   128
 10
71.657888
 20
43.585625
 10
71.830231
 20
44.541587
 10
72.282031
 20
45.668027
 10
72.945101
 20
46.949017
 10
73.753632
 20
48.343034
 10
74.657888
 20
49.830623
  0
LINE
  5
31F
100
AcDbEntity
  8
0
  6
Continuous
 62
   174
100
AcDbLine
 10
230.857888
 20
57.830623
 30
0.0
 11
230.857888
 21
58.44502
 31
0.0
  0
ARC
  5
320
100
AcDbEntity
  8
0
  6
Continuous
 62
   174
100
AcDbCircle
 10
219.657888
 20
57.330623
 30
0.0
 40
3.0
100
AcDbArc
 50
0.0
 51
90.0
  0
LINE
  5
321
100
AcDbEntity
  8
0
  6
Continuous
 62
   174
100
AcDbLine
 10
182.657888
 20
47.156675
 30
0.0
 11
182.657888
 21
52.504572
 31
0.0
  0
LINE
  5
322
100
AcDbEntity
  8
0
  6
Continuous
 62
   174
100
AcDbLine
 10
196.657888
 20
39.330623
 30
0.0
 11
219.657888
 21
39.330623
 31
0.0
  0
LINE
  5
323
100
AcDbEntity
  8
0
  6
Continuous
 62
   174
100
AcDbLine
 10
224.157888
 20
39.830623
 30
0.0
 11
223.157888
 21
39.830623
 31
0.0
  0
LINE
  5
324
100
AcDbEntity
  8
0
  6
Continuous
 62
   174
100
AcDbLine
 10
69.657888
 20
59.733035
 30
0.0
 11
69.657888
 21
59.845411
 31
0.0
  0
ARC
  5
325
100
AcDbEntity
  8
0
  6
Continuous
 62
   174
100
AcDbCircle
 10
138.157888
 20
49.830623
 30
0.0
 40
4.375
100
AcDbArc
 50
223.622256
 51
227.129795
  0
LINE
  5
326
100
AcDbEntity
  8
0
  6
Continuous
 62
   174
100
AcDbLine
 10
224.657888
 20
41.82022
 30
0.0
 11
224.657888
 21
41.23391
 31
0.0
  0
LINE
  5
327
100
AcDbEntity
  8
0
  6
Continuous
 62
   174
100
AcDbLine
 10
71.157888
 20
60.830623
 30
0.0
 11
101.157888
 21
60.830623
 31
0.0
  0
ARC
  5
328
100
AcDbEntity
  8
0
  6
Continuous
 62
   174
100
AcDbCircle
 10
182.157888
 20
49.830623
 30
0.0
 40
3.0
100
AcDbArc
 50
0.0
 51
180.0
  0
LINE
  5
329
100
AcDbEntity
  8
0
  6
Continuous
 62
   174
100
AcDbLine
 10
193.657888
 20
57.330623
 30
0.0
 11
193.657888
 21
42.330623
 31
0.0
  0
LINE
  5
32A
100
AcDbEntity
  8
0
  6
Continuous
 62
   174
100
AcDbLine
 10
219.657888
 20
57.330623
 30
0.0
 11
219.657888
 21
49.830623
 31
0.0
  0
LINE
  5
32B
100
AcDbEntity
  8
0
  6
Continuous
 62
   174
100
AcDbLine
 10
222.676074
 20
57.330623
 30
0.0
 11
219.675912
 21
57.330623
 31
0.0
  0
ENDBLK
  5
32C
100
AcDbEntity
  8
0
100
AcDbBlockEnd
  0
BLOCK
  5
32F
100
AcDbEntity
  8
0
100
AcDbBlockBegin
  2
*B3
 70
     0
 10
0.0
 20
0.0
 30
0.0
  3
*B3
  1

  0
LINE
  5
330
100
AcDbEntity
  8
0
  6
Continuous
 62
   172
100
AcDbLine
 10
98.620443
 20
75.939356
 30
0.0
 11
90.211892
 21
75.939356
 31
0.0
  0
LINE
  5
331
100
AcDbEntity
  8
0
  6
Continuous
 62
   172
100
AcDbLine
 10
110.084889
 20
56.443649
 30
0.0
 11
98.620443
 21
75.939356
 31
0.0
  0
ENDBLK
  5
332
100
AcDbEntity
  8
0
100
AcDbBlockEnd
  0
BLOCK
  5
335
100
AcDbEntity
  8
0
100
AcDbBlockBegin
  2
*B4
 70
     0
 10
0.0
 20
0.0
 30
0.0
  3
*B4
  1

  0
LINE
  5
336
100
AcDbEntity
  8
0
  6
Continuous
 62
   172
100
AcDbLine
 10
96.873287
 20
77.762913
 30
0.0
 11
95.073287
 21
78.424309
 31
0.0
  0
LINE
  5
337
100
AcDbEntity
  8
0
  6
Continuous
 62
   172
100
AcDbLine
 10
96.873287
 20
77.762913
 30
0.0
 11
95.073287
 21
77.224309
 31
0.0
  0
LINE
  5
338
100
AcDbEntity
  8
0
  6
Continuous
 62
   172
100
AcDbLine
 10
95.673287
 20
77.762913
 30
0.0
 11
96.873287
 21
77.762913
 31
0.0
  0
LINE
  5
339
100
AcDbEntity
  8
0
  6
Continuous
 62
   172
100
AcDbLine
 10
96.873287
 20
88.085704
 30
0.0
 11
95.073287
 21
87.424309
 31
0.0
  0
LINE
  5
33A
100
AcDbEntity
  8
0
  6
Continuous
 62
   172
100
AcDbLine
 10
96.873287
 20
88.085704
 30
0.0
 11
95.073287
 21
88.624309
 31
0.0
  0
LINE
  5
33B
100
AcDbEntity
  8
0
  6
Continuous
 62
   172
100
AcDbLine
 10
95.673287
 20
88.085704
 30
0.0
 11
96.873287
 21
88.085704
 31
0.0
  0
ARC
  5
33C
100
AcDbEntity
  8
0
  6
Continuous
 62
   172
100
AcDbCircle
 10
95.673287
 20
82.924309
 30
0.0
 40
5.161395
100
AcDbArc
 50
-270.0
 51
-90.0
  0
ENDBLK
  5
33D
100
AcDbEntity
  8
0
100
AcDbBlockEnd
  0
BLOCK
  5
340
100
AcDbEntity
  8
0
100
AcDbBlockBegin
  2
*B5
 70
     0
 10
0.0
 20
0.0
 30
0.0
  3
*B5
  1

  0
ENDBLK
  5
341
100
AcDbEntity
  8
0
100
AcDbBlockEnd
  0
BLOCK
  5
343
100
AcDbEntity
  8
0
100
AcDbBlockBegin
  2
*B6
 70
     0
 10
0.0
 20
0.0
 30
0.0
  3
*B6
  1

  0
LINE
  5
344
100
AcDbEntity
  8
0
  6
Continuous
 62
   172
100
AcDbLine
 10
84.902393
 20
122.973595
 30
0.0
 11
67.210944
 21
92.888642
 31
0.0
  0
LINE
  5
345
100
AcDbEntity
  8
0
  6
Continuous
 62
   172
100
AcDbLine
 10
67.210944
 20
92.888642
 30
0.0
 11
58.802393
 21
92.888642
 31
0.0
  0
ENDBLK
  5
346
100
AcDbEntity
  8
0
100
AcDbBlockEnd
  0
BLOCK
  5
349
100
AcDbEntity
  8
0
100
AcDbBlockBegin
  2
*B7
 70
     0
 10
0.0
 20
0.0
 30
0.0
  3
*B7
  1

  0
LINE
  5
34A
100
AcDbEntity
  8
0
  6
Continuous
 62
   172
100
AcDbLine
 10
65.463788
 20
94.7122
 30
0.0
 11
63.663788
 21
95.373595
 31
0.0
  0
LINE
  5
34B
100
AcDbEntity
  8
0
  6
Continuous
 62
   172
100
AcDbLine
 10
65.463788
 20
94.7122
 30
0.0
 11
63.663788
 21
94.173595
 31
0.0
  0
LINE
  5
34C
100
AcDbEntity
  8
0
  6
Continuous
 62
   172
100
AcDbLine
 10
64.263788
 20
94.7122
 30
0.0
 11
65.463788
 21
94.7122
 31
0.0
  0
LINE
  5
34D
100
AcDbEntity
  8
0
  6
Continuous
 62
   172
100
AcDbLine
 10
65.463788
 20
105.03499
 30
0.0
 11
63.663788
 21
104.373595
 31
0.0
  0
LINE
  5
34E
100
AcDbEntity
  8
0
  6
Continuous
 62
   172
100
AcDbLine
 10
65.463788
 20
105.03499
 30
0.0
 11
63.663788
 21
105.573595
 31
0.0
  0
LINE
  5
34F
100
AcDbEntity
  8
0
  6
Continuous
 62
   172
100
AcDbLine
 10
64.263788
 20
105.03499
 30
0.0
 11
65.463788
 21
105.03499
 31
0.0
  0
ARC
  5
350
100
AcDbEntity
  8
0
  6
Continuous
 62
   172
100
AcDbCircle
 10
64.263788
 20
99.873595
 30
0.0
 40
5.161395
100
AcDbArc
 50
-270.0
 51
-90.0
  0
ENDBLK
  5
351
100
AcDbEntity
  8
0
100
AcDbBlockEnd
  0
BLOCK
  5
354
100
AcDbEntity
  8
0
100
AcDbBlockBegin
  2
*B8
 70
     0
 10
0.0
 20
0.0
 30
0.0
  3
*B8
  1

  0
ENDBLK
  5
355
100
AcDbEntity
  8
0
100
AcDbBlockEnd
  0
BLOCK
  5
357
100
AcDbEntity
  8
0
100
AcDbBlockBegin
  2
*B9
 70
     0
 10
0.0
 20
0.0
 30
0.0
  3
*B9
  1

  0
LINE
  5
358
100
AcDbEntity
  8
0
  6
Continuous
 62
     0
100
AcDbLine
 10
129.176077
 20
94.012806
 30
0.0
 11
147.175989
 21
94.012806
 31
0.0
  0
SOLID
  5
359
100
AcDbEntity
  8
0
  6
Continuous
 62
     0
100
AcDbTrace
 10
132.676089
 20
94.612923
 30
0.0
 11
129.176077
 21
94.012806
 31
0.0
 12
132.676089
 22
93.412901
 32
0.0
 13
132.676089
 23
93.412901
 33
0.0
  0
SOLID
  5
35A
100
AcDbEntity
  8
0
  6
Continuous
 62
     0
100
AcDbTrace
 10
143.675976
 20
93.412901
 30
0.0
 11
147.175989
 21
94.012806
 31
0.0
 12
143.675976
 22
94.612923
 32
0.0
 13
143.675976
 23
94.612923
 33
0.0
  0
ENDBLK
  5
35B
100
AcDbEntity
  8
0
100
AcDbBlockEnd
  0
BLOCK
  5
35E
100
AcDbEntity
  8
0
100
AcDbBlockBegin
  2
*B10
 70
     0
 10
0.0
 20
0.0
 30
0.0
  3
*B10
  1

  0
LINE
  5
35F
100
AcDbEntity
  8
0
  6
Continuous
 62
     0
100
AcDbLine
 10
165.175901
 20
94.012806
 30
0.0
 11
147.175989
 21
94.012806
 31
0.0
  0
SOLID
  5
360
100
AcDbEntity
  8
0
  6
Continuous
 62
     0
100
AcDbTrace
 10
161.676101
 20
93.412901
 30
0.0
 11
165.175901
 21
94.012806
 31
0.0
 12
161.676101
 22
94.612923
 32
0.0
 13
161.676101
 23
94.612923
 33
0.0
  0
SOLID
  5
361
100
AcDbEntity
  8
0
  6
Continuous
 62
     0
100
AcDbTrace
 10
150.676001
 20
94.612923
 30
0.0
 11
147.175989
 21
94.012806
 31
0.0
 12
150.676001
 22
93.412901
 32
0.0
 13
150.676001
 23
93.412901
 33
0.0
  0
ENDBLK
  5
362
100
AcDbEntity
  8
0
100
AcDbBlockEnd
  0
BLOCK
  5
365
100
AcDbEntity
  8
0
100
AcDbBlockBegin
  2
*B11
 70
     0
 10
0.0
 20
0.0
 30
0.0
  3
*B11
  1

  0
LINE
  5
366
100
AcDbEntity
  8
0
  6
Continuous
 62
     0
100
AcDbLine
 10
177.175913
 20
94.012806
 30
0.0
 11
165.175901
 21
94.012806
 31
0.0
  0
SOLID
  5
367
100
AcDbEntity
  8
0
  6
Continuous
 62
     0
100
AcDbTrace
 10
173.676113
 20
93.412901
 30
0.0
 11
177.175913
 21
94.012806
 31
0.0
 12
173.676113
 22
94.612923
 32
0.0
 13
173.676113
 23
94.612923
 33
0.0
  0
SOLID
  5
368
100
AcDbEntity
  8
0
  6
Continuous
 62
     0
100
AcDbTrace
 10
168.675913
 20
94.612923
 30
0.0
 11
165.175901
 21
94.012806
 31
0.0
 12
168.675913
 22
93.412901
 32
0.0
 13
168.675913
 23
93.412901
 33
0.0
  0
ENDBLK
  5
369
100
AcDbEntity
  8
0
100
AcDbBlockEnd
  0
BLOCK
  5
36C
100
AcDbEntity
  8
0
100
AcDbBlockBegin
  2
*B12
 70
     0
 10
0.0
 20
0.0
 30
0.0
  3
*B12
  1

  0
LINE
  5
36D
100
AcDbEntity
  8
0
  6
Continuous
 62
     0
100
AcDbLine
 10
156.176051
 20
154.009468
 30
0.0
 11
138.175926
 21
154.009468
 31
0.0
  0
SOLID
  5
36E
100
AcDbEntity
  8
0
  6
Continuous
 62
     0
100
AcDbTrace
 10
152.676039
 20
153.409563
 30
0.0
 11
156.176051
 21
154.009468
 31
0.0
 12
152.676039
 22
154.609373
 32
0.0
 13
152.676039
 23
154.609373
 33
0.0
  0
SOLID
  5
36F
100
AcDbEntity
  8
0
  6
Continuous
 62
     0
100
AcDbTrace
 10
141.675939
 20
154.609373
 30
0.0
 11
138.175926
 21
154.009468
 31
0.0
 12
141.675939
 22
153.409563
 32
0.0
 13
141.675939
 23
153.409563
 33
0.0
  0
ENDBLK
  5
370
100
AcDbEntity
  8
0
100
AcDbBlockEnd
  0
BLOCK
  5
373
100
AcDbEntity
  8
0
100
AcDbBlockBegin
  2
*B13
 70
     0
 10
0.0
 20
0.0
 30
0.0
  3
*B13
  1

  0
LINE
  5
374
100
AcDbEntity
  8
0
  6
Continuous
 62
     0
100
AcDbLine
 10
129.176077
 20
165.00893
 30
0.0
 11
165.175901
 21
165.00893
 31
0.0
  0
SOLID
  5
375
100
AcDbEntity
  8
0
  6
Continuous
 62
     0
100
AcDbTrace
 10
132.676089
 20
165.608835
 30
0.0
 11
129.176077
 21
165.00893
 31
0.0
 12
132.676089
 22
164.408813
 32
0.0
 13
132.676089
 23
164.408813
 33
0.0
  0
SOLID
  5
376
100
AcDbEntity
  8
0
  6
Continuous
 62
     0
100
AcDbTrace
 10
161.676101
 20
164.408813
 30
0.0
 11
165.175901
 21
165.00893
 31
0.0
 12
161.676101
 22
165.608835
 32
0.0
 13
161.676101
 23
165.608835
 33
0.0
  0
ENDBLK
  5
377
100
AcDbEntity
  8
0
100
AcDbBlockEnd
  0
BLOCK
  5
37A
100
AcDbEntity
  8
0
100
AcDbBlockBegin
  2
*B14
 70
     0
 10
0.0
 20
0.0
 30
0.0
  3
*B14
  1

  0
LINE
  5
37B
100
AcDbEntity
  8
0
  6
Continuous
 62
     0
100
AcDbLine
 10
138.425958
 20
154.009468
 30
0.0
 11
109.784317
 21
154.009468
 31
0.0
  0
SOLID
  5
37C
100
AcDbEntity
  8
0
  6
Continuous
 62
     0
100
AcDbTrace
 10
134.925945
 20
154.609373
 30
0.0
 11
131.425933
 21
154.009468
 31
0.0
 12
134.925945
 22
153.409563
 32
0.0
 13
134.925945
 23
153.409563
 33
0.0
  0
SOLID
  5
37D
100
AcDbEntity
  8
0
  6
Continuous
 62
     0
100
AcDbTrace
 10
123.425996
 20
153.409563
 30
0.0
 11
126.926008
 21
154.009468
 31
0.0
 12
123.425996
 22
154.609373
 32
0.0
 13
123.425996
 23
154.609373
 33
0.0
  0
ENDBLK
  5
37E
100
AcDbEntity
  8
0
100
AcDbBlockEnd
  0
BLOCK
  5
381
100
AcDbEntity
  8
0
100
AcDbBlockBegin
  2
*B15
 70
     0
 10
0.0
 20
0.0
 30
0.0
  3
*B15
  1

  0
LINE
  5
382
100
AcDbEntity
  8
0
  6
Continuous
 62
     0
100
AcDbLine
 10
188.018176
 20
112.71204
 30
0.0
 11
188.018176
 21
137.710703
 31
0.0
  0
SOLID
  5
383
100
AcDbEntity
  8
0
  6
Continuous
 62
     0
100
AcDbTrace
 10
187.418059
 20
116.21184
 30
0.0
 11
188.018176
 21
112.71204
 31
0.0
 12
188.618081
 22
116.21184
 32
0.0
 13
188.618081
 23
116.21184
 33
0.0
  0
SOLID
  5
384
100
AcDbEntity
  8
0
  6
Continuous
 62
     0
100
AcDbTrace
 10
188.618081
 20
134.210903
 30
0.0
 11
188.018176
 21
137.710703
 31
0.0
 12
187.418059
 22
134.210903
 32
0.0
 13
187.418059
 23
134.210903
 33
0.0
  0
ENDBLK
  5
385
100
AcDbEntity
  8
0
100
AcDbBlockEnd
  0
BLOCK
  5
388
100
AcDbEntity
  8
0
100
AcDbBlockBegin
  2
*B16
 70
     0
 10
0.0
 20
0.0
 30
0.0
  3
*B16
  1

  0
LINE
  5
389
100
AcDbEntity
  8
0
  6
Continuous
 62
     0
100
AcDbLine
 10
144.801011
 20
27.016756
 30
0.0
 11
182.357316
 21
27.016756
 31
0.0
  0
SOLID
  5
38A
100
AcDbEntity
  8
0
  6
Continuous
 62
     0
100
AcDbTrace
 10
148.301023
 20
26.416639
 30
0.0
 11
151.801035
 21
27.016756
 31
0.0
 12
148.301023
 22
27.616661
 32
0.0
 13
148.301023
 23
27.616661
 33
0.0
  0
SOLID
  5
38B
100
AcDbEntity
  8
0
  6
Continuous
 62
     0
100
AcDbTrace
 10
164.051079
 20
27.616661
 30
0.0
 11
160.551066
 21
27.016756
 31
0.0
 12
164.051079
 22
26.416639
 32
0.0
 13
164.051079
 23
26.416639
 33
0.0
  0
ENDBLK
  5
38C
100
AcDbEntity
  8
0
100
AcDbBlockEnd
  0
BLOCK
  5
38F
100
AcDbEntity
  8
0
100
AcDbBlockBegin
  2
*B17
 70
     0
 10
0.0
 20
0.0
 30
0.0
  3
*B17
  1

  0
LINE
  5
390
100
AcDbEntity
  8
0
  6
Continuous
 62
     0
100
AcDbLine
 10
117.176064
 20
94.012806
 30
0.0
 11
129.176077
 21
94.012806
 31
0.0
  0
SOLID
  5
391
100
AcDbEntity
  8
0
  6
Continuous
 62
     0
100
AcDbTrace
 10
120.676077
 20
94.612923
 30
0.0
 11
117.176064
 21
94.012806
 31
0.0
 12
120.676077
 22
93.412901
 32
0.0
 13
120.676077
 23
93.412901
 33
0.0
  0
SOLID
  5
392
100
AcDbEntity
  8
0
  6
Continuous
 62
     0
100
AcDbTrace
 10
125.676064
 20
93.412901
 30
0.0
 11
129.176077
 21
94.012806
 31
0.0
 12
125.676064
 22
94.612923
 32
0.0
 13
125.676064
 23
94.612923
 33
0.0
  0
ENDBLK
  5
393
100
AcDbEntity
  8
0
100
AcDbBlockEnd
  0
BLOCK
  5
396
100
AcDbEntity
  8
0
100
AcDbBlockBegin
  2
*B18
 70
     0
 10
0.0
 20
0.0
 30
0.0
  3
*B18
  1

  0
LINE
  5
397
100
AcDbEntity
  8
0
  6
Continuous
 62
     0
100
AcDbLine
 10
101.175977
 20
82.013643
 30
0.0
 11
193.176
 21
82.013643
 31
0.0
  0
SOLID
  5
398
100
AcDbEntity
  8
0
  6
Continuous
 62
     0
100
AcDbTrace
 10
104.67599
 20
82.613548
 30
0.0
 11
101.175977
 21
82.013643
 31
0.0
 12
104.67599
 22
81.413526
 32
0.0
 13
104.67599
 23
81.413526
 33
0.0
  0
SOLID
  5
399
100
AcDbEntity
  8
0
  6
Continuous
 62
     0
100
AcDbTrace
 10
189.675987
 20
81.413526
 30
0.0
 11
193.176
 21
82.013643
 31
0.0
 12
189.675987
 22
82.613548
 32
0.0
 13
189.675987
 23
82.613548
 33
0.0
  0
ENDBLK
  5
39A
100
AcDbEntity
  8
0
100
AcDbBlockEnd
  0
BLOCK
  5
39D
100
AcDbEntity
  8
0
100
AcDbBlockBegin
  2
*B19
 70
     0
 10
0.0
 20
0.0
 30
0.0
  3
*B19
  1

  0
LINE
  5
39E
100
AcDbEntity
  8
0
  6
Continuous
 62
     0
100
AcDbLine
 10
165.175901
 20
71.014181
 30
0.0
 11
184.175938
 21
71.014181
 31
0.0
  0
SOLID
  5
39F
100
AcDbEntity
  8
0
  6
Continuous
 62
     0
100
AcDbTrace
 10
168.675913
 20
70.414276
 30
0.0
 11
172.175925
 21
71.014181
 31
0.0
 12
168.675913
 22
71.614086
 32
0.0
 13
168.675913
 23
71.614086
 33
0.0
  0
SOLID
  5
3A0
100
AcDbEntity
  8
0
  6
Continuous
 62
     0
100
AcDbTrace
 10
180.675925
 20
71.614086
 30
0.0
 11
177.175913
 21
71.014181
 31
0.0
 12
180.675925
 22
70.414276
 32
0.0
 13
180.675925
 23
70.414276
 33
0.0
  0
ENDBLK
  5
3A1
100
AcDbEntity
  8
0
100
AcDbBlockEnd
  0
BLOCK
  5
3A4
100
AcDbEntity
  8
0
100
AcDbBlockBegin
  2
*B20
 70
     0
 10
0.0
 20
0.0
 30
0.0
  3
*B20
  1

  0
LINE
  5
3A5
100
AcDbEntity
  8
0
  6
Continuous
 62
     0
100
AcDbLine
 10
122.176052
 20
71.014181
 30
0.0
 11
172.175925
 21
71.014181
 31
0.0
  0
SOLID
  5
3A6
100
AcDbEntity
  8
0
  6
Continuous
 62
     0
100
AcDbTrace
 10
125.676064
 20
71.614086
 30
0.0
 11
122.176052
 21
71.014181
 31
0.0
 12
125.676064
 22
70.414276
 32
0.0
 13
125.676064
 23
70.414276
 33
0.0
  0
SOLID
  5
3A7
100
AcDbEntity
  8
0
  6
Continuous
 62
     0
100
AcDbTrace
 10
168.675913
 20
70.414276
 30
0.0
 11
172.175925
 21
71.014181
 31
0.0
 12
168.675913
 22
71.614086
 32
0.0
 13
168.675913
 23
71.614086
 33
0.0
  0
ENDBLK
  5
3A8
100
AcDbEntity
  8
0
100
AcDbBlockEnd
  0
BLOCK
  5
3AB
100
AcDbEntity
  8
0
100
AcDbBlockBegin
  2
*B21
 70
     0
 10
0.0
 20
0.0
 30
0.0
  3
*B21
  1

  0
LINE
  5
3AC
100
AcDbEntity
  8
0
  6
Continuous
 62
     0
100
AcDbLine
 10
130.018153
 20
65.095217
 30
0.0
 11
130.018153
 21
34.59693
 31
0.0
  0
SOLID
  5
3AD
100
AcDbEntity
  8
0
  6
Continuous
 62
     0
100
AcDbTrace
 10
129.418036
 20
61.595417
 30
0.0
 11
130.018153
 21
58.095617
 31
0.0
 12
130.618058
 22
61.595417
 32
0.0
 13
130.618058
 23
61.595417
 33
0.0
  0
SOLID
  5
3AE
100
AcDbEntity
  8
0
  6
Continuous
 62
     0
100
AcDbTrace
 10
130.618058
 20
38.09673
 30
0.0
 11
130.018153
 21
41.59653
 31
0.0
 12
129.418036
 22
38.09673
 32
0.0
 13
129.418036
 23
38.09673
 33
0.0
  0
ENDBLK
  5
3AF
100
AcDbEntity
  8
0
100
AcDbBlockEnd
  0
BLOCK
  5
3B2
100
AcDbEntity
  8
0
100
AcDbBlockBegin
  2
*B22
 70
     0
 10
0.0
 20
0.0
 30
0.0
  3
*B22
  1

  0
LINE
  5
3B3
100
AcDbEntity
  8
0
  6
Continuous
 62
     0
100
AcDbLine
 10
193.676062
 20
181.007955
 30
0.0
 11
242.175961
 21
181.007955
 31
0.0
  0
SOLID
  5
3B4
100
AcDbEntity
  8
0
  6
Continuous
 62
     0
100
AcDbTrace
 10
197.176075
 20
181.60786
 30
0.0
 11
193.676062
 21
181.007955
 31
0.0
 12
197.176075
 22
180.40805
 32
0.0
 13
197.176075
 23
180.40805
 33
0.0
  0
SOLID
  5
3B5
100
AcDbEntity
  8
0
  6
Continuous
 62
     0
100
AcDbTrace
 10
238.675949
 20
180.40805
 30
0.0
 11
242.175961
 21
181.007955
 31
0.0
 12
238.675949
 22
181.60786
 32
0.0
 13
238.675949
 23
181.60786
 33
0.0
  0
ENDBLK
  5
3B6
100
AcDbEntity
  8
0
100
AcDbBlockEnd
  0
BLOCK
  5
3B9
100
AcDbEntity
  8
0
100
AcDbBlockBegin
  2
*B23
 70
     0
 10
0.0
 20
0.0
 30
0.0
  3
*B23
  1

  0
LINE
  5
3BA
100
AcDbEntity
  8
0
  6
Continuous
 62
     0
100
AcDbLine
 10
43.018118
 20
172.208215
 30
0.0
 11
43.018118
 21
107.212415
 31
0.0
  0
SOLID
  5
3BB
100
AcDbEntity
  8
0
  6
Continuous
 62
     0
100
AcDbTrace
 10
43.618235
 20
168.708415
 30
0.0
 11
43.018118
 21
172.208215
 31
0.0
 12
42.418213
 22
168.708415
 32
0.0
 13
42.418213
 23
168.708415
 33
0.0
  0
SOLID
  5
3BC
100
AcDbEntity
  8
0
  6
Continuous
 62
     0
100
AcDbTrace
 10
42.418213
 20
110.712215
 30
0.0
 11
43.018118
 21
107.212415
 31
0.0
 12
43.618235
 22
110.712215
 32
0.0
 13
43.618235
 23
110.712215
 33
0.0
  0
ENDBLK
  5
3BD
100
AcDbEntity
  8
0
100
AcDbBlockEnd
  0
BLOCK
  5
3C0
100
AcDbEntity
  8
0
100
AcDbBlockBegin
  2
*B24
 70
     0
 10
0.0
 20
0.0
 30
0.0
  3
*B24
  1

  0
LINE
  5
3C1
100
AcDbEntity
  8
0
  6
Continuous
 62
     0
100
AcDbLine
 10
44.018243
 20
60.845324
 30
0.0
 11
44.018243
 21
38.846611
 31
0.0
  0
SOLID
  5
3C2
100
AcDbEntity
  8
0
  6
Continuous
 62
     0
100
AcDbTrace
 10
44.618148
 20
57.345524
 30
0.0
 11
44.018243
 21
60.845324
 31
0.0
 12
43.418125
 22
57.345524
 32
0.0
 13
43.418125
 23
57.345524
 33
0.0
  0
SOLID
  5
3C3
100
AcDbEntity
  8
0
  6
Continuous
 62
     0
100
AcDbTrace
 10
43.418125
 20
42.346411
 30
0.0
 11
44.018243
 21
38.846611
 31
0.0
 12
44.618148
 22
42.346411
 32
0.0
 13
44.618148
 23
42.346411
 33
0.0
  0
ENDBLK
  5
3C4
100
AcDbEntity
  8
0
100
AcDbBlockEnd
  0
BLOCK
  5
3C7
100
AcDbEntity
  8
0
100
AcDbBlockBegin
  2
*B25
 70
     0
 10
0.0
 20
0.0
 30
0.0
  3
*B25
  1

  0
LINE
  5
3C8
100
AcDbEntity
  8
0
  6
Continuous
 62
     0
100
AcDbLine
 10
100.676127
 20
181.007955
 30
0.0
 11
52.176016
 21
181.007955
 31
0.0
  0
SOLID
  5
3C9
100
AcDbEntity
  8
0
  6
Continuous
 62
     0
100
AcDbTrace
 10
97.176115
 20
180.40805
 30
0.0
 11
100.676127
 21
181.007955
 31
0.0
 12
97.176115
 22
181.60786
 32
0.0
 13
97.176115
 23
181.60786
 33
0.0
  0
SOLID
  5
3CA
100
AcDbEntity
  8
0
  6
Continuous
 62
     0
100
AcDbTrace
 10
55.676029
 20
181.60786
 30
0.0
 11
52.176016
 21
181.007955
 31
0.0
 12
55.676029
 22
180.40805
 32
0.0
 13
55.676029
 23
180.40805
 33
0.0
  0
ENDBLK
  5
3CB
100
AcDbEntity
  8
0
100
AcDbBlockEnd
  0
BLOCK
  5
3CE
100
AcDbEntity
  8
0
100
AcDbBlockBegin
  2
*B26
 70
     0
 10
0.0
 20
0.0
 30
0.0
  3
*B26
  1

  0
LINE
  5
3CF
100
AcDbEntity
  8
0
  6
Continuous
 62
     0
100
AcDbLine
 10
243.018037
 20
107.212415
 30
0.0
 11
243.018037
 21
143.210328
 31
0.0
  0
SOLID
  5
3D0
100
AcDbEntity
  8
0
  6
Continuous
 62
     0
100
AcDbTrace
 10
242.418132
 20
110.712215
 30
0.0
 11
243.018037
 21
107.212415
 31
0.0
 12
243.618155
 22
110.712215
 32
0.0
 13
243.618155
 23
110.712215
 33
0.0
  0
SOLID
  5
3D1
100
AcDbEntity
  8
0
  6
Continuous
 62
     0
100
AcDbTrace
 10
243.618155
 20
139.710528
 30
0.0
 11
243.018037
 21
143.210328
 31
0.0
 12
242.418132
 22
139.710528
 32
0.0
 13
242.418132
 23
139.710528
 33
0.0
  0
ENDBLK
  5
3D2
100
AcDbEntity
  8
0
100
AcDbBlockEnd
  0
BLOCK
  5
3D5
100
AcDbEntity
  8
0
100
AcDbBlockBegin
  2
*B27
 70
     0
 10
0.0
 20
0.0
 30
0.0
  3
*B27
  1

  0
LINE
  5
3D6
100
AcDbEntity
  8
0
  6
Continuous
 62
     8
100
AcDbLine
 10
147.175989
 20
92.012981
 30
0.0
 11
147.175989
 21
96.012843
 31
0.0
  0
LINE
  5
3D7
100
AcDbEntity
  8
0
  6
Continuous
 62
     8
100
AcDbLine
 10
147.175989
 20
96.012843
 30
0.0
 11
147.175989
 21
102.079234
 31
0.0
  0
LINE
  5
3D8
100
AcDbEntity
  8
0
  6
Continuous
 62
     8
100
AcDbLine
 10
147.175989
 20
103.079146
 30
0.0
 11
147.175989
 21
104.079059
 31
0.0
  0
LINE
  5
3D9
100
AcDbEntity
  8
0
  6
Continuous
 62
     8
100
AcDbLine
 10
147.175989
 20
105.078971
 30
0.0
 11
147.175989
 21
111.145362
 31
0.0
  0
LINE
  5
3DA
100
AcDbEntity
  8
0
  6
Continuous
 62
     8
100
AcDbLine
 10
147.175989
 20
112.145275
 30
0.0
 11
147.175989
 21
113.1454
 31
0.0
  0
LINE
  5
3DB
100
AcDbEntity
  8
0
  6
Continuous
 62
     8
100
AcDbLine
 10
147.175989
 20
114.145312
 30
0.0
 11
147.175989
 21
120.211703
 31
0.0
  0
ENDBLK
  5
3DC
100
AcDbEntity
  8
0
100
AcDbBlockEnd
  0
BLOCK
  5
3DF
100
AcDbEntity
  8
0
100
AcDbBlockBegin
  2
*B28
 70
     0
 10
0.0
 20
0.0
 30
0.0
  3
*B28
  1

  0
LINE
  5
3E0
100
AcDbEntity
  8
0
  6
Continuous
 62
     8
100
AcDbLine
 10
177.175913
 20
92.012981
 30
0.0
 11
177.175913
 21
106.212503
 31
0.0
  0
ENDBLK
  5
3E1
100
AcDbEntity
  8
0
100
AcDbBlockEnd
  0
BLOCK
  5
3E4
100
AcDbEntity
  8
0
100
AcDbBlockBegin
  2
*B29
 70
     0
 10
0.0
 20
0.0
 30
0.0
  3
*B29
  1

  0
LINE
  5
3E5
100
AcDbEntity
  8
0
  6
Continuous
 62
     8
100
AcDbLine
 10
177.175913
 20
61.845236
 30
0.0
 11
177.175913
 21
73.014006
 31
0.0
  0
ENDBLK
  5
3E6
100
AcDbEntity
  8
0
100
AcDbBlockEnd
  0
BLOCK
  5
3E9
100
AcDbEntity
  8
0
100
AcDbBlockBegin
  2
*B30
 70
     0
 10
0.0
 20
0.0
 30
0.0
  3
*B30
  1

  0
LINE
  5
3EA
100
AcDbEntity
  8
0
  6
Continuous
 62
     8
100
AcDbLine
 10
128.018116
 20
58.095617
 30
0.0
 11
132.01819
 21
58.095617
 31
0.0
  0
LINE
  5
3EB
100
AcDbEntity
  8
0
  6
Continuous
 62
     8
100
AcDbLine
 10
117.525938
 20
58.095617
 30
0.0
 11
120.676077
 21
58.095617
 31
0.0
  0
LINE
  5
3EC
100
AcDbEntity
  8
0
  6
Continuous
 62
     8
100
AcDbLine
 10
123.676027
 20
58.095617
 30
0.0
 11
128.018116
 21
58.095617
 31
0.0
  0
ENDBLK
  5
3ED
100
AcDbEntity
  8
0
100
AcDbBlockEnd
  0
BLOCK
  5
3F0
100
AcDbEntity
  8
0
100
AcDbBlockBegin
  2
*B31
 70
     0
 10
0.0
 20
0.0
 30
0.0
  3
*B31
  1

  0
LINE
  5
3F1
100
AcDbEntity
  8
0
  6
Continuous
 62
     8
100
AcDbLine
 10
86.176015
 20
43.446379
 30
0.0
 11
86.176015
 21
48.346099
 31
0.0
  0
LINE
  5
3F2
100
AcDbEntity
  8
0
  6
Continuous
 62
     8
100
AcDbLine
 10
86.176015
 20
51.345836
 30
0.0
 11
86.176015
 21
56.245556
 31
0.0
  0
ENDBLK
  5
3F3
100
AcDbEntity
  8
0
100
AcDbBlockEnd
  0
BLOCK
  5
3F6
100
AcDbEntity
  8
0
100
AcDbBlockBegin
  2
*B32
 70
     0
 10
0.0
 20
0.0
 30
0.0
  3
*B32
  1

  0
LINE
  5
3F7
100
AcDbEntity
  8
0
  6
Continuous
 62
     8
100
AcDbLine
 10
131.425933
 20
138.710615
 30
0.0
 11
131.425933
 21
156.009293
 31
0.0
  0
ENDBLK
  5
3F8
100
AcDbEntity
  8
0
100
AcDbBlockEnd
  0
BLOCK
  5
3FB
100
AcDbEntity
  8
0
100
AcDbBlockBegin
  2
*B33
 70
     0
 10
0.0
 20
0.0
 30
0.0
  3
*B33
  1

  0
LINE
  5
3FC
100
AcDbEntity
  8
0
  6
Continuous
 62
     8
100
AcDbLine
 10
156.176051
 20
42.471321
 30
0.0
 11
156.176051
 21
48.346099
 31
0.0
  0
LINE
  5
3FD
100
AcDbEntity
  8
0
  6
Continuous
 62
     8
100
AcDbLine
 10
156.176051
 20
51.345836
 30
0.0
 11
156.176051
 21
57.220614
 31
0.0
  0
ENDBLK
  5
3FE
100
AcDbEntity
  8
0
100
AcDbBlockEnd
  0
BLOCK
  5
401
100
AcDbEntity
  8
0
100
AcDbBlockBegin
  2
*B34
 70
     0
 10
0.0
 20
0.0
 30
0.0
  3
*B34
  1

  0
LINE
  5
402
100
AcDbEntity
  8
0
  6
Continuous
 62
     8
100
AcDbLine
 10
156.176051
 20
152.009643
 30
0.0
 11
156.176051
 21
156.009293
 31
0.0
  0
LINE
  5
403
100
AcDbEntity
  8
0
  6
Continuous
 62
     8
100
AcDbLine
 10
156.176051
 20
107.462447
 30
0.0
 11
156.176051
 21
111.212278
 31
0.0
  0
LINE
  5
404
100
AcDbEntity
  8
0
  6
Continuous
 62
     8
100
AcDbLine
 10
156.176051
 20
114.212015
 30
0.0
 11
156.176051
 21
119.371751
 31
0.0
  0
LINE
  5
405
100
AcDbEntity
  8
0
  6
Continuous
 62
     8
100
AcDbLine
 10
156.176051
 20
120.371663
 30
0.0
 11
156.176051
 21
121.371576
 31
0.0
  0
LINE
  5
406
100
AcDbEntity
  8
0
  6
Continuous
 62
     8
100
AcDbLine
 10
156.176051
 20
122.371488
 30
0.0
 11
156.176051
 21
127.531224
 31
0.0
  0
LINE
  5
407
100
AcDbEntity
  8
0
  6
Continuous
 62
     8
100
AcDbLine
 10
156.176051
 20
128.531136
 30
0.0
 11
156.176051
 21
129.531049
 31
0.0
  0
LINE
  5
408
100
AcDbEntity
  8
0
  6
Continuous
 62
     8
100
AcDbLine
 10
156.176051
 20
130.530961
 30
0.0
 11
156.176051
 21
135.690697
 31
0.0
  0
LINE
  5
409
100
AcDbEntity
  8
0
  6
Continuous
 62
     8
100
AcDbLine
 10
156.176051
 20
136.690609
 30
0.0
 11
156.176051
 21
137.690522
 31
0.0
  0
LINE
  5
40A
100
AcDbEntity
  8
0
  6
Continuous
 62
     8
100
AcDbLine
 10
156.176051
 20
138.690434
 30
0.0
 11
156.176051
 21
143.85017
 31
0.0
  0
LINE
  5
40B
100
AcDbEntity
  8
0
  6
Continuous
 62
     8
100
AcDbLine
 10
156.176051
 20
144.850082
 30
0.0
 11
156.176051
 21
145.849995
 31
0.0
  0
LINE
  5
40C
100
AcDbEntity
  8
0
  6
Continuous
 62
     8
100
AcDbLine
 10
156.176051
 20
146.849907
 30
0.0
 11
156.176051
 21
152.009643
 31
0.0
  0
ENDBLK
  5
40D
100
AcDbEntity
  8
0
100
AcDbBlockEnd
  0
BLOCK
  5
410
100
AcDbEntity
  8
0
100
AcDbBlockBegin
  2
*B35
 70
     0
 10
0.0
 20
0.0
 30
0.0
  3
*B35
  1

  0
LINE
  5
411
100
AcDbEntity
  8
0
  6
Continuous
 62
     8
100
AcDbLine
 10
165.175901
 20
92.012981
 30
0.0
 11
165.175901
 21
96.012843
 31
0.0
  0
LINE
  5
412
100
AcDbEntity
  8
0
  6
Continuous
 62
     8
100
AcDbLine
 10
165.175901
 20
163.008893
 30
0.0
 11
165.175901
 21
167.008755
 31
0.0
  0
LINE
  5
413
100
AcDbEntity
  8
0
  6
Continuous
 62
     8
100
AcDbLine
 10
165.175901
 20
96.012843
 30
0.0
 11
165.175901
 21
101.65246
 31
0.0
  0
LINE
  5
414
100
AcDbEntity
  8
0
  6
Continuous
 62
     8
100
AcDbLine
 10
165.175901
 20
102.652373
 30
0.0
 11
165.175901
 21
103.652285
 31
0.0
  0
LINE
  5
415
100
AcDbEntity
  8
0
  6
Continuous
 62
     8
100
AcDbLine
 10
165.175901
 20
104.65241
 30
0.0
 11
165.175901
 21
110.292027
 31
0.0
  0
LINE
  5
416
100
AcDbEntity
  8
0
  6
Continuous
 62
     8
100
AcDbLine
 10
165.175901
 20
111.291939
 30
0.0
 11
165.175901
 21
112.292064
 31
0.0
  0
LINE
  5
417
100
AcDbEntity
  8
0
  6
Continuous
 62
     8
100
AcDbLine
 10
165.175901
 20
113.291977
 30
0.0
 11
165.175901
 21
118.931594
 31
0.0
  0
LINE
  5
418
100
AcDbEntity
  8
0
  6
Continuous
 62
     8
100
AcDbLine
 10
165.175901
 20
119.931506
 30
0.0
 11
165.175901
 21
120.931419
 31
0.0
  0
LINE
  5
419
100
AcDbEntity
  8
0
  6
Continuous
 62
     8
100
AcDbLine
 10
165.175901
 20
121.931544
 30
0.0
 11
165.175901
 21
127.571161
 31
0.0
  0
LINE
  5
41A
100
AcDbEntity
  8
0
  6
Continuous
 62
     8
100
AcDbLine
 10
165.175901
 20
128.571073
 30
0.0
 11
165.175901
 21
129.570986
 31
0.0
  0
LINE
  5
41B
100
AcDbEntity
  8
0
  6
Continuous
 62
     8
100
AcDbLine
 10
165.175901
 20
130.571111
 30
0.0
 11
165.175901
 21
136.210728
 31
0.0
  0
LINE
  5
41C
100
AcDbEntity
  8
0
  6
Continuous
 62
     8
100
AcDbLine
 10
165.175901
 20
139.210678
 30
0.0
 11
165.175901
 21
145.143449
 31
0.0
  0
LINE
  5
41D
100
AcDbEntity
  8
0
  6
Continuous
 62
     8
100
AcDbLine
 10
165.175901
 20
146.143362
 30
0.0
 11
165.175901
 21
147.143487
 31
0.0
  0
LINE
  5
41E
100
AcDbEntity
  8
0
  6
Continuous
 62
     8
100
AcDbLine
 10
165.175901
 20
148.143399
 30
0.0
 11
165.175901
 21
154.076171
 31
0.0
  0
LINE
  5
41F
100
AcDbEntity
  8
0
  6
Continuous
 62
     8
100
AcDbLine
 10
165.175901
 20
155.076296
 30
0.0
 11
165.175901
 21
156.076208
 31
0.0
  0
LINE
  5
420
100
AcDbEntity
  8
0
  6
Continuous
 62
     8
100
AcDbLine
 10
165.175901
 20
157.076121
 30
0.0
 11
165.175901
 21
163.008893
 31
0.0
  0
ENDBLK
  5
421
100
AcDbEntity
  8
0
100
AcDbBlockEnd
  0
BLOCK
  5
424
100
AcDbEntity
  8
0
100
AcDbBlockBegin
  2
*B36
 70
     0
 10
0.0
 20
0.0
 30
0.0
  3
*B36
  1

  0
LINE
  5
425
100
AcDbEntity
  8
0
  6
Continuous
 62
     8
100
AcDbLine
 10
42.018205
 20
60.845324
 30
0.0
 11
70.176141
 21
60.845324
 31
0.0
  0
ENDBLK
  5
426
100
AcDbEntity
  8
0
100
AcDbBlockEnd
  0
BLOCK
  5
429
100
AcDbEntity
  8
0
100
AcDbBlockBegin
  2
*B37
 70
     0
 10
0.0
 20
0.0
 30
0.0
  3
*B37
  1

  0
LINE
  5
42A
100
AcDbEntity
  8
0
  6
Continuous
 62
     8
100
AcDbLine
 10
123.926058
 20
137.710703
 30
0.0
 11
127.676102
 21
137.710703
 31
0.0
  0
LINE
  5
42B
100
AcDbEntity
  8
0
  6
Continuous
 62
     8
100
AcDbLine
 10
130.676052
 20
137.710703
 30
0.0
 11
134.426095
 21
137.710703
 31
0.0
  0
ENDBLK
  5
42C
100
AcDbEntity
  8
0
100
AcDbBlockEnd
  0
BLOCK
  5
42F
100
AcDbEntity
  8
0
100
AcDbBlockBegin
  2
*B38
 70
     0
 10
0.0
 20
0.0
 30
0.0
  3
*B38
  1

  0
LINE
  5
430
100
AcDbEntity
  8
0
  6
Continuous
 62
     8
100
AcDbLine
 10
186.018139
 20
137.710703
 30
0.0
 11
190.018001
 21
137.710703
 31
0.0
  0
LINE
  5
431
100
AcDbEntity
  8
0
  6
Continuous
 62
     8
100
AcDbLine
 10
159.926095
 20
137.710703
 30
0.0
 11
163.675926
 21
137.710703
 31
0.0
  0
LINE
  5
432
100
AcDbEntity
  8
0
  6
Continuous
 62
     8
100
AcDbLine
 10
166.676088
 20
137.710703
 30
0.0
 11
174.847032
 21
137.710703
 31
0.0
  0
LINE
  5
433
100
AcDbEntity
  8
0
  6
Continuous
 62
     8
100
AcDbLine
 10
175.847157
 20
137.710703
 30
0.0
 11
176.84707
 21
137.710703
 31
0.0
  0
LINE
  5
434
100
AcDbEntity
  8
0
  6
Continuous
 62
     8
100
AcDbLine
 10
177.846982
 20
137.710703
 30
0.0
 11
186.018139
 21
137.710703
 31
0.0
  0
ENDBLK
  5
435
100
AcDbEntity
  8
0
100
AcDbBlockEnd
  0
BLOCK
  5
438
100
AcDbEntity
  8
0
100
AcDbBlockBegin
  2
*B39
 70
     0
 10
0.0
 20
0.0
 30
0.0
  3
*B39
  1

  0
LINE
  5
439
100
AcDbEntity
  8
0
  6
Continuous
 62
     8
100
AcDbLine
 10
52.676079
 20
49.846074
 30
0.0
 11
58.42616
 21
49.846074
 31
0.0
  0
LINE
  5
43A
100
AcDbEntity
  8
0
  6
Continuous
 62
     8
100
AcDbLine
 10
59.426072
 20
49.846074
 30
0.0
 11
60.425985
 21
49.846074
 31
0.0
  0
LINE
  5
43B
100
AcDbEntity
  8
0
  6
Continuous
 62
     8
100
AcDbLine
 10
61.42611
 20
49.846074
 30
0.0
 11
67.175978
 21
49.846074
 31
0.0
  0
LINE
  5
43C
100
AcDbEntity
  8
0
  6
Continuous
 62
     8
100
AcDbLine
 10
68.176103
 20
49.846074
 30
0.0
 11
69.176016
 21
49.846074
 31
0.0
  0
LINE
  5
43D
100
AcDbEntity
  8
0
  6
Continuous
 62
     8
100
AcDbLine
 10
70.176141
 20
49.846074
 30
0.0
 11
75.926009
 21
49.846074
 31
0.0
  0
LINE
  5
43E
100
AcDbEntity
  8
0
  6
Continuous
 62
     8
100
AcDbLine
 10
76.926134
 20
49.846074
 30
0.0
 11
77.926047
 21
49.846074
 31
0.0
  0
LINE
  5
43F
100
AcDbEntity
  8
0
  6
Continuous
 62
     8
100
AcDbLine
 10
78.925959
 20
49.846074
 30
0.0
 11
84.67604
 21
49.846074
 31
0.0
  0
LINE
  5
440
100
AcDbEntity
  8
0
  6
Continuous
 62
     8
100
AcDbLine
 10
87.67599
 20
49.846074
 30
0.0
 11
93.342798
 21
49.846074
 31
0.0
  0
LINE
  5
441
100
AcDbEntity
  8
0
  6
Continuous
 62
     8
100
AcDbLine
 10
94.342711
 20
49.846074
 30
0.0
 11
95.342623
 21
49.846074
 31
0.0
  0
LINE
  5
442
100
AcDbEntity
  8
0
  6
Continuous
 62
     8
100
AcDbLine
 10
96.342748
 20
49.846074
 30
0.0
 11
102.009344
 21
49.846074
 31
0.0
  0
LINE
  5
443
100
AcDbEntity
  8
0
  6
Continuous
 62
     8
100
AcDbLine
 10
103.009469
 20
49.846074
 30
0.0
 11
104.009382
 21
49.846074
 31
0.0
  0
LINE
  5
444
100
AcDbEntity
  8
0
  6
Continuous
 62
     8
100
AcDbLine
 10
105.009294
 20
49.846074
 30
0.0
 11
110.676102
 21
49.846074
 31
0.0
  0
LINE
  5
445
100
AcDbEntity
  8
0
  6
Continuous
 62
     8
100
AcDbLine
 10
113.676052
 20
49.846074
 30
0.0
 11
119.342648
 21
49.846074
 31
0.0
  0
LINE
  5
446
100
AcDbEntity
  8
0
  6
Continuous
 62
     8
100
AcDbLine
 10
120.342773
 20
49.846074
 30
0.0
 11
121.342685
 21
49.846074
 31
0.0
  0
LINE
  5
447
100
AcDbEntity
  8
0
  6
Continuous
 62
     8
100
AcDbLine
 10
122.342598
 20
49.846074
 30
0.0
 11
128.009406
 21
49.846074
 31
0.0
  0
LINE
  5
448
100
AcDbEntity
  8
0
  6
Continuous
 62
     8
100
AcDbLine
 10
129.009318
 20
49.846074
 30
0.0
 11
130.009443
 21
49.846074
 31
0.0
  0
LINE
  5
449
100
AcDbEntity
  8
0
  6
Continuous
 62
     8
100
AcDbLine
 10
131.009356
 20
49.846074
 30
0.0
 11
136.675951
 21
49.846074
 31
0.0
  0
LINE
  5
44A
100
AcDbEntity
  8
0
  6
Continuous
 62
     8
100
AcDbLine
 10
139.676114
 20
49.846074
 30
0.0
 11
145.676014
 21
49.846074
 31
0.0
  0
LINE
  5
44B
100
AcDbEntity
  8
0
  6
Continuous
 62
     8
100
AcDbLine
 10
146.675926
 20
49.846074
 30
0.0
 11
147.676051
 21
49.846074
 31
0.0
  0
LINE
  5
44C
100
AcDbEntity
  8
0
  6
Continuous
 62
     8
100
AcDbLine
 10
148.675964
 20
49.846074
 30
0.0
 11
154.676076
 21
49.846074
 31
0.0
  0
LINE
  5
44D
100
AcDbEntity
  8
0
  6
Continuous
 62
     8
100
AcDbLine
 10
157.676026
 20
49.846074
 30
0.0
 11
163.342622
 21
49.846074
 31
0.0
  0
LINE
  5
44E
100
AcDbEntity
  8
0
  6
Continuous
 62
     8
100
AcDbLine
 10
164.342746
 20
49.846074
 30
0.0
 11
165.342659
 21
49.846074
 31
0.0
  0
LINE
  5
44F
100
AcDbEntity
  8
0
  6
Continuous
 62
     8
100
AcDbLine
 10
166.342571
 20
49.846074
 30
0.0
 11
172.00938
 21
49.846074
 31
0.0
  0
LINE
  5
450
100
AcDbEntity
  8
0
  6
Continuous
 62
     8
100
AcDbLine
 10
173.009292
 20
49.846074
 30
0.0
 11
174.009417
 21
49.846074
 31
0.0
  0
LINE
  5
451
100
AcDbEntity
  8
0
  6
Continuous
 62
     8
100
AcDbLine
 10
175.00933
 20
49.846074
 30
0.0
 11
180.675925
 21
49.846074
 31
0.0
  0
LINE
  5
452
100
AcDbEntity
  8
0
  6
Continuous
 62
     8
100
AcDbLine
 10
183.676088
 20
49.846074
 30
0.0
 11
189.342683
 21
49.846074
 31
0.0
  0
LINE
  5
453
100
AcDbEntity
  8
0
  6
Continuous
 62
     8
100
AcDbLine
 10
190.342596
 20
49.846074
 30
0.0
 11
191.342721
 21
49.846074
 31
0.0
  0
LINE
  5
454
100
AcDbEntity
  8
0
  6
Continuous
 62
     8
100
AcDbLine
 10
192.342633
 20
49.846074
 30
0.0
 11
198.009229
 21
49.846074
 31
0.0
  0
LINE
  5
455
100
AcDbEntity
  8
0
  6
Continuous
 62
     8
100
AcDbLine
 10
199.009354
 20
49.846074
 30
0.0
 11
200.009266
 21
49.846074
 31
0.0
  0
LINE
  5
456
100
AcDbEntity
  8
0
  6
Continuous
 62
     8
100
AcDbLine
 10
201.009391
 20
49.846074
 30
0.0
 11
206.675987
 21
49.846074
 31
0.0
  0
LINE
  5
457
100
AcDbEntity
  8
0
  6
Continuous
 62
     8
100
AcDbLine
 10
209.675937
 20
49.846074
 30
0.0
 11
215.175987
 21
49.846074
 31
0.0
  0
LINE
  5
458
100
AcDbEntity
  8
0
  6
Continuous
 62
     8
100
AcDbLine
 10
216.175899
 20
49.846074
 30
0.0
 11
217.176024
 21
49.846074
 31
0.0
  0
LINE
  5
459
100
AcDbEntity
  8
0
  6
Continuous
 62
     8
100
AcDbLine
 10
218.175937
 20
49.846074
 30
0.0
 11
223.675987
 21
49.846074
 31
0.0
  0
LINE
  5
45A
100
AcDbEntity
  8
0
  6
Continuous
 62
     8
100
AcDbLine
 10
224.675899
 20
49.846074
 30
0.0
 11
225.676024
 21
49.846074
 31
0.0
  0
LINE
  5
45B
100
AcDbEntity
  8
0
  6
Continuous
 62
     8
100
AcDbLine
 10
226.675936
 20
49.846074
 30
0.0
 11
232.175986
 21
49.846074
 31
0.0
  0
LINE
  5
45C
100
AcDbEntity
  8
0
  6
Continuous
 62
     8
100
AcDbLine
 10
233.175899
 20
49.846074
 30
0.0
 11
234.176024
 21
49.846074
 31
0.0
  0
LINE
  5
45D
100
AcDbEntity
  8
0
  6
Continuous
 62
     8
100
AcDbLine
 10
235.175936
 20
49.846074
 30
0.0
 11
240.675986
 21
49.846074
 31
0.0
  0
ENDBLK
  5
45E
100
AcDbEntity
  8
0
100
AcDbBlockEnd
  0
BLOCK
  5
461
100
AcDbEntity
  8
0
100
AcDbBlockBegin
  2
*B40
 70
     0
 10
0.0
 20
0.0
 30
0.0
  3
*B40
  1

  0
LINE
  5
462
100
AcDbEntity
  8
0
  6
Continuous
 62
     8
100
AcDbLine
 10
160.551066
 20
25.016719
 30
0.0
 11
160.551066
 21
48.846161
 31
0.0
  0
ENDBLK
  5
463
100
AcDbEntity
  8
0
100
AcDbBlockEnd
  0
BLOCK
  5
466
100
AcDbEntity
  8
0
100
AcDbBlockBegin
  2
*B41
 70
     0
 10
0.0
 20
0.0
 30
0.0
  3
*B41
  1

  0
LINE
  5
467
100
AcDbEntity
  8
0
  6
Continuous
 62
     8
100
AcDbLine
 10
193.176
 20
80.013606
 30
0.0
 11
193.176
 21
106.212503
 31
0.0
  0
ENDBLK
  5
468
100
AcDbEntity
  8
0
100
AcDbBlockEnd
  0
BLOCK
  5
46B
100
AcDbEntity
  8
0
100
AcDbBlockBegin
  2
*B42
 70
     0
 10
0.0
 20
0.0
 30
0.0
  3
*B42
  1

  0
LINE
  5
46C
100
AcDbEntity
  8
0
  6
Continuous
 62
     8
100
AcDbLine
 10
101.175977
 20
80.013606
 30
0.0
 11
101.175977
 21
106.212503
 31
0.0
  0
ENDBLK
  5
46D
100
AcDbEntity
  8
0
100
AcDbBlockEnd
  0
BLOCK
  5
470
100
AcDbEntity
  8
0
100
AcDbBlockBegin
  2
*B43
 70
     0
 10
0.0
 20
0.0
 30
0.0
  3
*B43
  1

  0
LINE
  5
471
100
AcDbEntity
  8
0
  6
Continuous
 62
     8
100
AcDbLine
 10
151.801035
 20
25.016719
 30
0.0
 11
151.801035
 21
48.846161
 31
0.0
  0
ENDBLK
  5
472
100
AcDbEntity
  8
0
100
AcDbBlockEnd
  0
BLOCK
  5
475
100
AcDbEntity
  8
0
100
AcDbBlockBegin
  2
*B44
 70
     0
 10
0.0
 20
0.0
 30
0.0
  3
*B44
  1

  0
LINE
  5
476
100
AcDbEntity
  8
0
  6
Continuous
 62
     8
100
AcDbLine
 10
122.176052
 20
69.014356
 30
0.0
 11
122.176052
 21
73.014006
 31
0.0
  0
LINE
  5
477
100
AcDbEntity
  8
0
  6
Continuous
 62
     8
100
AcDbLine
 10
122.176052
 20
53.445716
 30
0.0
 11
122.176052
 21
56.595642
 31
0.0
  0
LINE
  5
478
100
AcDbEntity
  8
0
  6
Continuous
 62
     8
100
AcDbLine
 10
122.176052
 20
59.59538
 30
0.0
 11
122.176052
 21
69.014356
 31
0.0
  0
ENDBLK
  5
479
100
AcDbEntity
  8
0
100
AcDbBlockEnd
  0
BLOCK
  5
47C
100
AcDbEntity
  8
0
100
AcDbBlockBegin
  2
*B45
 70
     0
 10
0.0
 20
0.0
 30
0.0
  3
*B45
  1

  0
LINE
  5
47D
100
AcDbEntity
  8
0
  6
Continuous
 62
     8
100
AcDbLine
 10
172.175925
 20
104.212678
 30
0.0
 11
172.175925
 21
110.212153
 31
0.0
  0
LINE
  5
47E
100
AcDbEntity
  8
0
  6
Continuous
 62
     8
100
AcDbLine
 10
172.175925
 20
111.212278
 30
0.0
 11
172.175925
 21
112.21219
 31
0.0
  0
LINE
  5
47F
100
AcDbEntity
  8
0
  6
Continuous
 62
     8
100
AcDbLine
 10
172.175925
 20
113.212103
 30
0.0
 11
172.175925
 21
119.21179
 31
0.0
  0
LINE
  5
480
100
AcDbEntity
  8
0
  6
Continuous
 62
     8
100
AcDbLine
 10
172.175925
 20
120.211703
 30
0.0
 11
172.175925
 21
121.211615
 31
0.0
  0
LINE
  5
481
100
AcDbEntity
  8
0
  6
Continuous
 62
     8
100
AcDbLine
 10
172.175925
 20
122.211528
 30
0.0
 11
172.175925
 21
128.211215
 31
0.0
  0
LINE
  5
482
100
AcDbEntity
  8
0
  6
Continuous
 62
     8
100
AcDbLine
 10
172.175925
 20
129.211128
 30
0.0
 11
172.175925
 21
130.21104
 31
0.0
  0
LINE
  5
483
100
AcDbEntity
  8
0
  6
Continuous
 62
     8
100
AcDbLine
 10
172.175925
 20
131.210953
 30
0.0
 11
172.175925
 21
137.21064
 31
0.0
  0
LINE
  5
484
100
AcDbEntity
  8
0
  6
Continuous
 62
     8
100
AcDbLine
 10
172.175925
 20
138.210553
 30
0.0
 11
172.175925
 21
139.210678
 31
0.0
  0
LINE
  5
485
100
AcDbEntity
  8
0
  6
Continuous
 62
     8
100
AcDbLine
 10
172.175925
 20
140.21059
 30
0.0
 11
172.175925
 21
146.210278
 31
0.0
  0
ENDBLK
  5
486
100
AcDbEntity
  8
0
100
AcDbBlockEnd
  0
BLOCK
  5
489
100
AcDbEntity
  8
0
100
AcDbBlockBegin
  2
*B46
 70
     0
 10
0.0
 20
0.0
 30
0.0
  3
*B46
  1

  0
LINE
  5
48A
100
AcDbEntity
  8
0
  6
Continuous
 62
     8
100
AcDbLine
 10
60.476119
 20
125.211478
 30
0.0
 11
65.494163
 21
125.211478
 31
0.0
  0
LINE
  5
48B
100
AcDbEntity
  8
0
  6
Continuous
 62
     8
100
AcDbLine
 10
66.494287
 20
125.211478
 30
0.0
 11
67.4942
 21
125.211478
 31
0.0
  0
LINE
  5
48C
100
AcDbEntity
  8
0
  6
Continuous
 62
     8
100
AcDbLine
 10
68.494325
 20
125.211478
 30
0.0
 11
73.512369
 21
125.211478
 31
0.0
  0
LINE
  5
48D
100
AcDbEntity
  8
0
  6
Continuous
 62
     8
100
AcDbLine
 10
74.512494
 20
125.211478
 30
0.0
 11
75.512406
 21
125.211478
 31
0.0
  0
LINE
  5
48E
100
AcDbEntity
  8
0
  6
Continuous
 62
     8
100
AcDbLine
 10
76.512319
 20
125.211478
 30
0.0
 11
81.530575
 21
125.211478
 31
0.0
  0
LINE
  5
48F
100
AcDbEntity
  8
0
  6
Continuous
 62
     8
100
AcDbLine
 10
82.530488
 20
125.211478
 30
0.0
 11
83.530613
 21
125.211478
 31
0.0
  0
LINE
  5
490
100
AcDbEntity
  8
0
  6
Continuous
 62
     8
100
AcDbLine
 10
84.530525
 20
125.211478
 30
0.0
 11
89.548782
 21
125.211478
 31
0.0
  0
LINE
  5
491
100
AcDbEntity
  8
0
  6
Continuous
 62
     8
100
AcDbLine
 10
90.548694
 20
125.211478
 30
0.0
 11
91.548819
 21
125.211478
 31
0.0
  0
LINE
  5
492
100
AcDbEntity
  8
0
  6
Continuous
 62
     8
100
AcDbLine
 10
92.548732
 20
125.211478
 30
0.0
 11
97.566988
 21
125.211478
 31
0.0
  0
LINE
  5
493
100
AcDbEntity
  8
0
  6
Continuous
 62
     8
100
AcDbLine
 10
98.5669
 20
125.211478
 30
0.0
 11
99.567025
 21
125.211478
 31
0.0
  0
LINE
  5
494
100
AcDbEntity
  8
0
  6
Continuous
 62
     8
100
AcDbLine
 10
100.566938
 20
125.211478
 30
0.0
 11
105.585194
 21
125.211478
 31
0.0
  0
LINE
  5
495
100
AcDbEntity
  8
0
  6
Continuous
 62
     8
100
AcDbLine
 10
106.585107
 20
125.211478
 30
0.0
 11
107.585232
 21
125.211478
 31
0.0
  0
LINE
  5
496
100
AcDbEntity
  8
0
  6
Continuous
 62
     8
100
AcDbLine
 10
108.585144
 20
125.211478
 30
0.0
 11
113.603401
 21
125.211478
 31
0.0
  0
LINE
  5
497
100
AcDbEntity
  8
0
  6
Continuous
 62
     8
100
AcDbLine
 10
114.603313
 20
125.211478
 30
0.0
 11
115.603226
 21
125.211478
 31
0.0
  0
LINE
  5
498
100
AcDbEntity
  8
0
  6
Continuous
 62
     8
100
AcDbLine
 10
116.603351
 20
125.211478
 30
0.0
 11
121.621395
 21
125.211478
 31
0.0
  0
LINE
  5
499
100
AcDbEntity
  8
0
  6
Continuous
 62
     8
100
AcDbLine
 10
122.62152
 20
125.211478
 30
0.0
 11
123.621432
 21
125.211478
 31
0.0
  0
LINE
  5
49A
100
AcDbEntity
  8
0
  6
Continuous
 62
     8
100
AcDbLine
 10
124.621557
 20
125.211478
 30
0.0
 11
129.639601
 21
125.211478
 31
0.0
  0
LINE
  5
49B
100
AcDbEntity
  8
0
  6
Continuous
 62
     8
100
AcDbLine
 10
130.639726
 20
125.211478
 30
0.0
 11
131.639638
 21
125.211478
 31
0.0
  0
LINE
  5
49C
100
AcDbEntity
  8
0
  6
Continuous
 62
     8
100
AcDbLine
 10
132.639763
 20
125.211478
 30
0.0
 11
137.657807
 21
125.211478
 31
0.0
  0
LINE
  5
49D
100
AcDbEntity
  8
0
  6
Continuous
 62
     8
100
AcDbLine
 10
138.657932
 20
125.211478
 30
0.0
 11
139.657845
 21
125.211478
 31
0.0
  0
LINE
  5
49E
100
AcDbEntity
  8
0
  6
Continuous
 62
     8
100
AcDbLine
 10
140.657757
 20
125.211478
 30
0.0
 11
145.676014
 21
125.211478
 31
0.0
  0
LINE
  5
49F
100
AcDbEntity
  8
0
  6
Continuous
 62
     8
100
AcDbLine
 10
146.675926
 20
125.211478
 30
0.0
 11
147.676051
 21
125.211478
 31
0.0
  0
LINE
  5
4A0
100
AcDbEntity
  8
0
  6
Continuous
 62
     8
100
AcDbLine
 10
148.675964
 20
125.211478
 30
0.0
 11
153.69422
 21
125.211478
 31
0.0
  0
LINE
  5
4A1
100
AcDbEntity
  8
0
  6
Continuous
 62
     8
100
AcDbLine
 10
154.694133
 20
125.211478
 30
0.0
 11
155.694257
 21
125.211478
 31
0.0
  0
LINE
  5
4A2
100
AcDbEntity
  8
0
  6
Continuous
 62
     8
100
AcDbLine
 10
156.69417
 20
125.211478
 30
0.0
 11
161.712426
 21
125.211478
 31
0.0
  0
LINE
  5
4A3
100
AcDbEntity
  8
0
  6
Continuous
 62
     8
100
AcDbLine
 10
162.712339
 20
125.211478
 30
0.0
 11
163.712464
 21
125.211478
 31
0.0
  0
LINE
  5
4A4
100
AcDbEntity
  8
0
  6
Continuous
 62
     8
100
AcDbLine
 10
164.712376
 20
125.211478
 30
0.0
 11
169.730633
 21
125.211478
 31
0.0
  0
LINE
  5
4A5
100
AcDbEntity
  8
0
  6
Continuous
 62
     8
100
AcDbLine
 10
170.730545
 20
125.211478
 30
0.0
 11
171.730458
 21
125.211478
 31
0.0
  0
LINE
  5
4A6
100
AcDbEntity
  8
0
  6
Continuous
 62
     8
100
AcDbLine
 10
172.730583
 20
125.211478
 30
0.0
 11
177.748627
 21
125.211478
 31
0.0
  0
LINE
  5
4A7
100
AcDbEntity
  8
0
  6
Continuous
 62
     8
100
AcDbLine
 10
178.748752
 20
125.211478
 30
0.0
 11
179.748664
 21
125.211478
 31
0.0
  0
LINE
  5
4A8
100
AcDbEntity
  8
0
  6
Continuous
 62
     8
100
AcDbLine
 10
180.748789
 20
125.211478
 30
0.0
 11
185.766833
 21
125.211478
 31
0.0
  0
LINE
  5
4A9
100
AcDbEntity
  8
0
  6
Continuous
 62
     8
100
AcDbLine
 10
186.766958
 20
125.211478
 30
0.0
 11
187.76687
 21
125.211478
 31
0.0
  0
LINE
  5
4AA
100
AcDbEntity
  8
0
  6
Continuous
 62
     8
100
AcDbLine
 10
188.766995
 20
125.211478
 30
0.0
 11
193.785039
 21
125.211478
 31
0.0
  0
LINE
  5
4AB
100
AcDbEntity
  8
0
  6
Continuous
 62
     8
100
AcDbLine
 10
194.785164
 20
125.211478
 30
0.0
 11
195.785077
 21
125.211478
 31
0.0
  0
LINE
  5
4AC
100
AcDbEntity
  8
0
  6
Continuous
 62
     8
100
AcDbLine
 10
196.784989
 20
125.211478
 30
0.0
 11
201.803246
 21
125.211478
 31
0.0
  0
LINE
  5
4AD
100
AcDbEntity
  8
0
  6
Continuous
 62
     8
100
AcDbLine
 10
202.803158
 20
125.211478
 30
0.0
 11
203.803283
 21
125.211478
 31
0.0
  0
LINE
  5
4AE
100
AcDbEntity
  8
0
  6
Continuous
 62
     8
100
AcDbLine
 10
204.803196
 20
125.211478
 30
0.0
 11
209.821452
 21
125.211478
 31
0.0
  0
LINE
  5
4AF
100
AcDbEntity
  8
0
  6
Continuous
 62
     8
100
AcDbLine
 10
210.821365
 20
125.211478
 30
0.0
 11
211.82149
 21
125.211478
 31
0.0
  0
LINE
  5
4B0
100
AcDbEntity
  8
0
  6
Continuous
 62
     8
100
AcDbLine
 10
212.821402
 20
125.211478
 30
0.0
 11
217.839658
 21
125.211478
 31
0.0
  0
LINE
  5
4B1
100
AcDbEntity
  8
0
  6
Continuous
 62
     8
100
AcDbLine
 10
218.839571
 20
125.211478
 30
0.0
 11
219.839696
 21
125.211478
 31
0.0
  0
LINE
  5
4B2
100
AcDbEntity
  8
0
  6
Continuous
 62
     8
100
AcDbLine
 10
220.839608
 20
125.211478
 30
0.0
 11
225.857865
 21
125.211478
 31
0.0
  0
LINE
  5
4B3
100
AcDbEntity
  8
0
  6
Continuous
 62
     8
100
AcDbLine
 10
226.857777
 20
125.211478
 30
0.0
 11
227.85769
 21
125.211478
 31
0.0
  0
LINE
  5
4B4
100
AcDbEntity
  8
0
  6
Continuous
 62
     8
100
AcDbLine
 10
228.857815
 20
125.211478
 30
0.0
 11
233.875859
 21
125.211478
 31
0.0
  0
ENDBLK
  5
4B5
100
AcDbEntity
  8
0
100
AcDbBlockEnd
  0
BLOCK
  5
4B8
100
AcDbEntity
  8
0
100
AcDbBlockBegin
  2
*B47
 70
     0
 10
0.0
 20
0.0
 30
0.0
  3
*B47
  1

  0
LINE
  5
4B9
100
AcDbEntity
  8
0
  6
Continuous
 62
     8
100
AcDbLine
 10
41.01808
 20
172.208215
 30
0.0
 11
51.868841
 21
172.208215
 31
0.0
  0
ENDBLK
  5
4BA
100
AcDbEntity
  8
0
100
AcDbBlockEnd
  0
BLOCK
  5
4BD
100
AcDbEntity
  8
0
100
AcDbBlockBegin
  2
*B48
 70
     0
 10
0.0
 20
0.0
 30
0.0
  3
*B48
  1

  0
LINE
  5
4BE
100
AcDbEntity
  8
0
  6
Continuous
 62
     8
100
AcDbLine
 10
194.175912
 20
107.212415
 30
0.0
 11
245.018075
 21
107.212415
 31
0.0
  0
ENDBLK
  5
4BF
100
AcDbEntity
  8
0
100
AcDbBlockEnd
  0
BLOCK
  5
4C2
100
AcDbEntity
  8
0
100
AcDbBlockBegin
  2
*B49
 70
     0
 10
0.0
 20
0.0
 30
0.0
  3
*B49
  1

  0
LINE
  5
4C3
100
AcDbEntity
  8
0
  6
Continuous
 62
     8
100
AcDbLine
 10
182.1759
 20
43.846386
 30
0.0
 11
182.1759
 21
48.346099
 31
0.0
  0
LINE
  5
4C4
100
AcDbEntity
  8
0
  6
Continuous
 62
     8
100
AcDbLine
 10
182.1759
 20
51.345836
 30
0.0
 11
182.1759
 21
55.845761
 31
0.0
  0
ENDBLK
  5
4C5
100
AcDbEntity
  8
0
100
AcDbBlockEnd
  0
BLOCK
  5
4C8
100
AcDbEntity
  8
0
100
AcDbBlockBegin
  2
*B50
 70
     0
 10
0.0
 20
0.0
 30
0.0
  3
*B50
  1

  0
LINE
  5
4C9
100
AcDbEntity
  8
0
  6
Continuous
 62
     8
100
AcDbLine
 10
194.175912
 20
143.210328
 30
0.0
 11
245.018075
 21
143.210328
 31
0.0
  0
ENDBLK
  5
4CA
100
AcDbEntity
  8
0
100
AcDbBlockEnd
  0
BLOCK
  5
4CD
100
AcDbEntity
  8
0
100
AcDbBlockBegin
  2
*B51
 70
     0
 10
0.0
 20
0.0
 30
0.0
  3
*B51
  1

  0
LINE
  5
4CE
100
AcDbEntity
  8
0
  6
Continuous
 62
     8
100
AcDbLine
 10
216.675962
 20
163.209215
 30
0.0
 11
221.55104
 21
163.209215
 31
0.0
  0
LINE
  5
4CF
100
AcDbEntity
  8
0
  6
Continuous
 62
     8
100
AcDbLine
 10
222.550952
 20
163.209215
 30
0.0
 11
223.551077
 21
163.209215
 31
0.0
  0
LINE
  5
4D0
100
AcDbEntity
  8
0
  6
Continuous
 62
     8
100
AcDbLine
 10
224.55099
 20
163.209215
 30
0.0
 11
229.426068
 21
163.209215
 31
0.0
  0
LINE
  5
4D1
100
AcDbEntity
  8
0
  6
Continuous
 62
     8
100
AcDbLine
 10
230.42598
 20
163.209215
 30
0.0
 11
231.425893
 21
163.209215
 31
0.0
  0
LINE
  5
4D2
100
AcDbEntity
  8
0
  6
Continuous
 62
     8
100
AcDbLine
 10
232.426018
 20
163.209215
 30
0.0
 11
237.300883
 21
163.209215
 31
0.0
  0
LINE
  5
4D3
100
AcDbEntity
  8
0
  6
Continuous
 62
     8
100
AcDbLine
 10
238.301008
 20
163.209215
 30
0.0
 11
239.30092
 21
163.209215
 31
0.0
  0
LINE
  5
4D4
100
AcDbEntity
  8
0
  6
Continuous
 62
     8
100
AcDbLine
 10
240.301045
 20
163.209215
 30
0.0
 11
245.175911
 21
163.209215
 31
0.0
  0
ENDBLK
  5
4D5
100
AcDbEntity
  8
0
100
AcDbBlockEnd
  0
BLOCK
  5
4D8
100
AcDbEntity
  8
0
100
AcDbBlockBegin
  2
*B52
 70
     0
 10
0.0
 20
0.0
 30
0.0
  3
*B52
  1

  0
LINE
  5
4D9
100
AcDbEntity
  8
0
  6
Continuous
 62
     8
100
AcDbLine
 10
186.018139
 20
112.71204
 30
0.0
 11
190.018001
 21
112.71204
 31
0.0
  0
LINE
  5
4DA
100
AcDbEntity
  8
0
  6
Continuous
 62
     8
100
AcDbLine
 10
150.926032
 20
112.71204
 30
0.0
 11
154.676076
 21
112.71204
 31
0.0
  0
LINE
  5
4DB
100
AcDbEntity
  8
0
  6
Continuous
 62
     8
100
AcDbLine
 10
157.676026
 20
112.71204
 30
0.0
 11
162.511592
 21
112.71204
 31
0.0
  0
LINE
  5
4DC
100
AcDbEntity
  8
0
  6
Continuous
 62
     8
100
AcDbLine
 10
163.511504
 20
112.71204
 30
0.0
 11
164.511629
 21
112.71204
 31
0.0
  0
LINE
  5
4DD
100
AcDbEntity
  8
0
  6
Continuous
 62
     8
100
AcDbLine
 10
165.511542
 20
112.71204
 30
0.0
 11
170.347107
 21
112.71204
 31
0.0
  0
LINE
  5
4DE
100
AcDbEntity
  8
0
  6
Continuous
 62
     8
100
AcDbLine
 10
171.34702
 20
112.71204
 30
0.0
 11
172.347145
 21
112.71204
 31
0.0
  0
LINE
  5
4DF
100
AcDbEntity
  8
0
  6
Continuous
 62
     8
100
AcDbLine
 10
173.347057
 20
112.71204
 30
0.0
 11
178.182623
 21
112.71204
 31
0.0
  0
LINE
  5
4E0
100
AcDbEntity
  8
0
  6
Continuous
 62
     8
100
AcDbLine
 10
179.182536
 20
112.71204
 30
0.0
 11
180.182661
 21
112.71204
 31
0.0
  0
LINE
  5
4E1
100
AcDbEntity
  8
0
  6
Continuous
 62
     8
100
AcDbLine
 10
181.182573
 20
112.71204
 30
0.0
 11
186.018139
 21
112.71204
 31
0.0
  0
ENDBLK
  5
4E2
100
AcDbEntity
  8
0
100
AcDbBlockEnd
  0
BLOCK
  5
4E5
100
AcDbEntity
  8
0
100
AcDbBlockBegin
  2
*B53
 70
     0
 10
0.0
 20
0.0
 30
0.0
  3
*B53
  1

  0
LINE
  5
4E6
100
AcDbEntity
  8
0
  6
Continuous
 62
     8
100
AcDbLine
 10
132.92612
 20
112.71204
 30
0.0
 11
136.675951
 21
112.71204
 31
0.0
  0
LINE
  5
4E7
100
AcDbEntity
  8
0
  6
Continuous
 62
     8
100
AcDbLine
 10
139.676114
 20
112.71204
 30
0.0
 11
143.425945
 21
112.71204
 31
0.0
  0
ENDBLK
  5
4E8
100
AcDbEntity
  8
0
100
AcDbBlockEnd
  0
BLOCK
  5
4EB
100
AcDbEntity
  8
0
100
AcDbBlockBegin
  2
*B54
 70
     0
 10
0.0
 20
0.0
 30
0.0
  3
*B54
  1

  0
LINE
  5
4EC
100
AcDbEntity
  8
0
  6
Continuous
 62
     8
100
AcDbLine
 10
138.175926
 20
152.009643
 30
0.0
 11
138.175926
 21
156.009293
 31
0.0
  0
LINE
  5
4ED
100
AcDbEntity
  8
0
  6
Continuous
 62
     8
100
AcDbLine
 10
138.175926
 20
107.462447
 30
0.0
 11
138.175926
 21
111.212278
 31
0.0
  0
LINE
  5
4EE
100
AcDbEntity
  8
0
  6
Continuous
 62
     8
100
AcDbLine
 10
138.175926
 20
114.212015
 30
0.0
 11
138.175926
 21
119.371751
 31
0.0
  0
LINE
  5
4EF
100
AcDbEntity
  8
0
  6
Continuous
 62
     8
100
AcDbLine
 10
138.175926
 20
120.371663
 30
0.0
 11
138.175926
 21
121.371576
 31
0.0
  0
LINE
  5
4F0
100
AcDbEntity
  8
0
  6
Continuous
 62
     8
100
AcDbLine
 10
138.175926
 20
122.371488
 30
0.0
 11
138.175926
 21
127.531224
 31
0.0
  0
LINE
  5
4F1
100
AcDbEntity
  8
0
  6
Continuous
 62
     8
100
AcDbLine
 10
138.175926
 20
128.531136
 30
0.0
 11
138.175926
 21
129.531049
 31
0.0
  0
LINE
  5
4F2
100
AcDbEntity
  8
0
  6
Continuous
 62
     8
100
AcDbLine
 10
138.175926
 20
130.530961
 30
0.0
 11
138.175926
 21
135.690697
 31
0.0
  0
LINE
  5
4F3
100
AcDbEntity
  8
0
  6
Continuous
 62
     8
100
AcDbLine
 10
138.175926
 20
136.690609
 30
0.0
 11
138.175926
 21
137.690522
 31
0.0
  0
LINE
  5
4F4
100
AcDbEntity
  8
0
  6
Continuous
 62
     8
100
AcDbLine
 10
138.175926
 20
138.690434
 30
0.0
 11
138.175926
 21
143.85017
 31
0.0
  0
LINE
  5
4F5
100
AcDbEntity
  8
0
  6
Continuous
 62
     8
100
AcDbLine
 10
138.175926
 20
144.850082
 30
0.0
 11
138.175926
 21
145.849995
 31
0.0
  0
LINE
  5
4F6
100
AcDbEntity
  8
0
  6
Continuous
 62
     8
100
AcDbLine
 10
138.175926
 20
146.849907
 30
0.0
 11
138.175926
 21
152.009643
 31
0.0
  0
ENDBLK
  5
4F7
100
AcDbEntity
  8
0
100
AcDbBlockEnd
  0
BLOCK
  5
4FA
100
AcDbEntity
  8
0
100
AcDbBlockBegin
  2
*B55
 70
     0
 10
0.0
 20
0.0
 30
0.0
  3
*B55
  1

  0
LINE
  5
4FB
100
AcDbEntity
  8
0
  6
Continuous
 62
     8
100
AcDbLine
 10
117.176064
 20
92.012981
 30
0.0
 11
117.176064
 21
106.212503
 31
0.0
  0
ENDBLK
  5
4FC
100
AcDbEntity
  8
0
100
AcDbBlockEnd
  0
BLOCK
  5
4FF
100
AcDbEntity
  8
0
100
AcDbBlockBegin
  2
*B56
 70
     0
 10
0.0
 20
0.0
 30
0.0
  3
*B56
  1

  0
LINE
  5
500
100
AcDbEntity
  8
0
  6
Continuous
 62
     8
100
AcDbLine
 10
42.018205
 20
38.846611
 30
0.0
 11
70.176141
 21
38.846611
 31
0.0
  0
ENDBLK
  5
501
100
AcDbEntity
  8
0
100
AcDbBlockEnd
  0
BLOCK
  5
504
100
AcDbEntity
  8
0
100
AcDbBlockBegin
  2
*B57
 70
     0
 10
0.0
 20
0.0
 30
0.0
  3
*B57
  1

  0
LINE
  5
505
100
AcDbEntity
  8
0
  6
Continuous
 62
     8
100
AcDbLine
 10
112.176077
 20
43.846386
 30
0.0
 11
112.176077
 21
48.346099
 31
0.0
  0
LINE
  5
506
100
AcDbEntity
  8
0
  6
Continuous
 62
     8
100
AcDbLine
 10
112.176077
 20
51.345836
 30
0.0
 11
112.176077
 21
55.845761
 31
0.0
  0
ENDBLK
  5
507
100
AcDbEntity
  8
0
100
AcDbBlockEnd
  0
BLOCK
  5
50A
100
AcDbEntity
  8
0
100
AcDbBlockBegin
  2
*B58
 70
     0
 10
0.0
 20
0.0
 30
0.0
  3
*B58
  1

  0
LINE
  5
50B
100
AcDbEntity
  8
0
  6
Continuous
 62
     8
100
AcDbLine
 10
172.175925
 20
69.014356
 30
0.0
 11
172.175925
 21
73.014006
 31
0.0
  0
LINE
  5
50C
100
AcDbEntity
  8
0
  6
Continuous
 62
     8
100
AcDbLine
 10
172.175925
 20
36.946841
 30
0.0
 11
172.175925
 21
40.096555
 31
0.0
  0
LINE
  5
50D
100
AcDbEntity
  8
0
  6
Continuous
 62
     8
100
AcDbLine
 10
172.175925
 20
43.096292
 30
0.0
 11
172.175925
 21
49.735822
 31
0.0
  0
LINE
  5
50E
100
AcDbEntity
  8
0
  6
Continuous
 62
     8
100
AcDbLine
 10
172.175925
 20
50.735734
 30
0.0
 11
172.175925
 21
51.735647
 31
0.0
  0
LINE
  5
50F
100
AcDbEntity
  8
0
  6
Continuous
 62
     8
100
AcDbLine
 10
172.175925
 20
52.735559
 30
0.0
 11
172.175925
 21
59.375089
 31
0.0
  0
LINE
  5
510
100
AcDbEntity
  8
0
  6
Continuous
 62
     8
100
AcDbLine
 10
172.175925
 20
60.375001
 30
0.0
 11
172.175925
 21
61.374914
 31
0.0
  0
LINE
  5
511
100
AcDbEntity
  8
0
  6
Continuous
 62
     8
100
AcDbLine
 10
172.175925
 20
62.374826
 30
0.0
 11
172.175925
 21
69.014356
 31
0.0
  0
ENDBLK
  5
512
100
AcDbEntity
  8
0
100
AcDbBlockEnd
  0
BLOCK
  5
515
100
AcDbEntity
  8
0
100
AcDbBlockBegin
  2
*B59
 70
     0
 10
0.0
 20
0.0
 30
0.0
  3
*B59
  1

  0
LINE
  5
516
100
AcDbEntity
  8
0
  6
Continuous
 62
     8
100
AcDbLine
 10
138.175926
 20
42.471321
 30
0.0
 11
138.175926
 21
48.346099
 31
0.0
  0
LINE
  5
517
100
AcDbEntity
  8
0
  6
Continuous
 62
     8
100
AcDbLine
 10
138.175926
 20
51.345836
 30
0.0
 11
138.175926
 21
57.220614
 31
0.0
  0
ENDBLK
  5
518
100
AcDbEntity
  8
0
100
AcDbBlockEnd
  0
BLOCK
  5
51B
100
AcDbEntity
  8
0
100
AcDbBlockBegin
  2
*B60
 70
     0
 10
0.0
 20
0.0
 30
0.0
  3
*B60
  1

  0
LINE
  5
51C
100
AcDbEntity
  8
0
  6
Continuous
 62
     8
100
AcDbLine
 10
128.018116
 20
41.59653
 30
0.0
 11
132.01819
 21
41.59653
 31
0.0
  0
LINE
  5
51D
100
AcDbEntity
  8
0
  6
Continuous
 62
     8
100
AcDbLine
 10
132.01819
 20
41.59653
 30
0.0
 11
137.349782
 21
41.59653
 31
0.0
  0
LINE
  5
51E
100
AcDbEntity
  8
0
  6
Continuous
 62
     8
100
AcDbLine
 10
138.349695
 20
41.59653
 30
0.0
 11
139.349607
 21
41.59653
 31
0.0
  0
LINE
  5
51F
100
AcDbEntity
  8
0
  6
Continuous
 62
     8
100
AcDbLine
 10
140.349732
 20
41.59653
 30
0.0
 11
145.681324
 21
41.59653
 31
0.0
  0
LINE
  5
520
100
AcDbEntity
  8
0
  6
Continuous
 62
     8
100
AcDbLine
 10
146.681237
 20
41.59653
 30
0.0
 11
147.681362
 21
41.59653
 31
0.0
  0
LINE
  5
521
100
AcDbEntity
  8
0
  6
Continuous
 62
     8
100
AcDbLine
 10
148.681274
 20
41.59653
 30
0.0
 11
154.012866
 21
41.59653
 31
0.0
  0
LINE
  5
522
100
AcDbEntity
  8
0
  6
Continuous
 62
     8
100
AcDbLine
 10
155.012779
 20
41.59653
 30
0.0
 11
156.012904
 21
41.59653
 31
0.0
  0
LINE
  5
523
100
AcDbEntity
  8
0
  6
Continuous
 62
     8
100
AcDbLine
 10
157.012816
 20
41.59653
 30
0.0
 11
162.344409
 21
41.59653
 31
0.0
  0
LINE
  5
524
100
AcDbEntity
  8
0
  6
Continuous
 62
     8
100
AcDbLine
 10
163.344533
 20
41.59653
 30
0.0
 11
164.344446
 21
41.59653
 31
0.0
  0
LINE
  5
525
100
AcDbEntity
  8
0
  6
Continuous
 62
     8
100
AcDbLine
 10
165.344358
 20
41.59653
 30
0.0
 11
170.675951
 21
41.59653
 31
0.0
  0
LINE
  5
526
100
AcDbEntity
  8
0
  6
Continuous
 62
     8
100
AcDbLine
 10
173.676113
 20
41.59653
 30
0.0
 11
176.826039
 21
41.59653
 31
0.0
  0
ENDBLK
  5
527
100
AcDbEntity
  8
0
100
AcDbBlockEnd
  0
BLOCK
  5
52A
100
AcDbEntity
  8
0
100
AcDbBlockBegin
  2
*B61
 70
     0
 10
0.0
 20
0.0
 30
0.0
  3
*B61
  1

  0
LINE
  5
52B
100
AcDbEntity
  8
0
  6
Continuous
 62
     8
100
AcDbLine
 10
122.176052
 20
104.212678
 30
0.0
 11
122.176052
 21
110.212153
 31
0.0
  0
LINE
  5
52C
100
AcDbEntity
  8
0
  6
Continuous
 62
     8
100
AcDbLine
 10
122.176052
 20
111.212278
 30
0.0
 11
122.176052
 21
112.21219
 31
0.0
  0
LINE
  5
52D
100
AcDbEntity
  8
0
  6
Continuous
 62
     8
100
AcDbLine
 10
122.176052
 20
113.212103
 30
0.0
 11
122.176052
 21
119.21179
 31
0.0
  0
LINE
  5
52E
100
AcDbEntity
  8
0
  6
Continuous
 62
     8
100
AcDbLine
 10
122.176052
 20
120.211703
 30
0.0
 11
122.176052
 21
121.211615
 31
0.0
  0
LINE
  5
52F
100
AcDbEntity
  8
0
  6
Continuous
 62
     8
100
AcDbLine
 10
122.176052
 20
122.211528
 30
0.0
 11
122.176052
 21
128.211215
 31
0.0
  0
LINE
  5
530
100
AcDbEntity
  8
0
  6
Continuous
 62
     8
100
AcDbLine
 10
122.176052
 20
129.211128
 30
0.0
 11
122.176052
 21
130.21104
 31
0.0
  0
LINE
  5
531
100
AcDbEntity
  8
0
  6
Continuous
 62
     8
100
AcDbLine
 10
122.176052
 20
131.210953
 30
0.0
 11
122.176052
 21
137.21064
 31
0.0
  0
LINE
  5
532
100
AcDbEntity
  8
0
  6
Continuous
 62
     8
100
AcDbLine
 10
122.176052
 20
138.210553
 30
0.0
 11
122.176052
 21
139.210678
 31
0.0
  0
LINE
  5
533
100
AcDbEntity
  8
0
  6
Continuous
 62
     8
100
AcDbLine
 10
122.176052
 20
140.21059
 30
0.0
 11
122.176052
 21
146.210278
 31
0.0
  0
ENDBLK
  5
534
100
AcDbEntity
  8
0
100
AcDbBlockEnd
  0
BLOCK
  5
537
100
AcDbEntity
  8
0
100
AcDbBlockBegin
  2
*B62
 70
     0
 10
0.0
 20
0.0
 30
0.0
  3
*B62
  1

  0
LINE
  5
538
100
AcDbEntity
  8
0
  6
Continuous
 62
     8
100
AcDbLine
 10
242.175961
 20
172.008105
 30
0.0
 11
242.175961
 21
183.00778
 31
0.0
  0
ENDBLK
  5
539
100
AcDbEntity
  8
0
100
AcDbBlockEnd
  0
BLOCK
  5
53C
100
AcDbEntity
  8
0
100
AcDbBlockBegin
  2
*B63
 70
     0
 10
0.0
 20
0.0
 30
0.0
  3
*B63
  1

  0
LINE
  5
53D
100
AcDbEntity
  8
0
  6
Continuous
 62
     8
100
AcDbLine
 10
100.676127
 20
169.208902
 30
0.0
 11
100.676127
 21
183.00778
 31
0.0
  0
ENDBLK
  5
53E
100
AcDbEntity
  8
0
100
AcDbBlockEnd
  0
BLOCK
  5
541
100
AcDbEntity
  8
0
100
AcDbBlockBegin
  2
*B64
 70
     0
 10
0.0
 20
0.0
 30
0.0
  3
*B64
  1

  0
LINE
  5
542
100
AcDbEntity
  8
0
  6
Continuous
 62
     8
100
AcDbLine
 10
49.176066
 20
163.209215
 30
0.0
 11
54.051144
 21
163.209215
 31
0.0
  0
LINE
  5
543
100
AcDbEntity
  8
0
  6
Continuous
 62
     8
100
AcDbLine
 10
55.051057
 20
163.209215
 30
0.0
 11
56.050969
 21
163.209215
 31
0.0
  0
LINE
  5
544
100
AcDbEntity
  8
0
  6
Continuous
 62
     8
100
AcDbLine
 10
57.051094
 20
163.209215
 30
0.0
 11
61.92596
 21
163.209215
 31
0.0
  0
LINE
  5
545
100
AcDbEntity
  8
0
  6
Continuous
 62
     8
100
AcDbLine
 10
62.926085
 20
163.209215
 30
0.0
 11
63.925997
 21
163.209215
 31
0.0
  0
LINE
  5
546
100
AcDbEntity
  8
0
  6
Continuous
 62
     8
100
AcDbLine
 10
64.926122
 20
163.209215
 30
0.0
 11
69.800988
 21
163.209215
 31
0.0
  0
LINE
  5
547
100
AcDbEntity
  8
0
  6
Continuous
 62
     8
100
AcDbLine
 10
70.801113
 20
163.209215
 30
0.0
 11
71.801025
 21
163.209215
 31
0.0
  0
LINE
  5
548
100
AcDbEntity
  8
0
  6
Continuous
 62
     8
100
AcDbLine
 10
72.800938
 20
163.209215
 30
0.0
 11
77.676016
 21
163.209215
 31
0.0
  0
ENDBLK
  5
549
100
AcDbEntity
  8
0
100
AcDbBlockEnd
  0
BLOCK
  5
54C
100
AcDbEntity
  8
0
100
AcDbBlockBegin
  2
*B65
 70
     0
 10
0.0
 20
0.0
 30
0.0
  3
*B65
  1

  0
LINE
  5
54D
100
AcDbEntity
  8
0
  6
Continuous
 62
     8
100
AcDbLine
 10
41.01808
 20
107.212415
 30
0.0
 11
100.176065
 21
107.212415
 31
0.0
  0
ENDBLK
  5
54E
100
AcDbEntity
  8
0
100
AcDbBlockEnd
  0
BLOCK
  5
551
100
AcDbEntity
  8
0
100
AcDbBlockBegin
  2
*B66
 70
     0
 10
0.0
 20
0.0
 30
0.0
  3
*B66
  1

  0
LINE
  5
552
100
AcDbEntity
  8
0
  6
Continuous
 62
     8
100
AcDbLine
 10
52.176016
 20
172.008105
 30
0.0
 11
52.176016
 21
183.00778
 31
0.0
  0
ENDBLK
  5
553
100
AcDbEntity
  8
0
100
AcDbBlockEnd
  0
BLOCK
  5
556
100
AcDbEntity
  8
0
100
AcDbBlockBegin
  2
*B67
 70
     0
 10
0.0
 20
0.0
 30
0.0
  3
*B67
  1

  0
LINE
  5
557
100
AcDbEntity
  8
0
  6
Continuous
 62
     8
100
AcDbLine
 10
129.176077
 20
92.012981
 30
0.0
 11
129.176077
 21
96.012843
 31
0.0
  0
LINE
  5
558
100
AcDbEntity
  8
0
  6
Continuous
 62
     8
100
AcDbLine
 10
129.176077
 20
163.008893
 30
0.0
 11
129.176077
 21
167.008755
 31
0.0
  0
LINE
  5
559
100
AcDbEntity
  8
0
  6
Continuous
 62
     8
100
AcDbLine
 10
129.176077
 20
96.012843
 30
0.0
 11
129.176077
 21
101.65246
 31
0.0
  0
LINE
  5
55A
100
AcDbEntity
  8
0
  6
Continuous
 62
     8
100
AcDbLine
 10
129.176077
 20
102.652373
 30
0.0
 11
129.176077
 21
103.652285
 31
0.0
  0
LINE
  5
55B
100
AcDbEntity
  8
0
  6
Continuous
 62
     8
100
AcDbLine
 10
129.176077
 20
104.65241
 30
0.0
 11
129.176077
 21
110.292027
 31
0.0
  0
LINE
  5
55C
100
AcDbEntity
  8
0
  6
Continuous
 62
     8
100
AcDbLine
 10
129.176077
 20
111.291939
 30
0.0
 11
129.176077
 21
112.292064
 31
0.0
  0
LINE
  5
55D
100
AcDbEntity
  8
0
  6
Continuous
 62
     8
100
AcDbLine
 10
129.176077
 20
113.291977
 30
0.0
 11
129.176077
 21
118.931594
 31
0.0
  0
LINE
  5
55E
100
AcDbEntity
  8
0
  6
Continuous
 62
     8
100
AcDbLine
 10
129.176077
 20
119.931506
 30
0.0
 11
129.176077
 21
120.931419
 31
0.0
  0
LINE
  5
55F
100
AcDbEntity
  8
0
  6
Continuous
 62
     8
100
AcDbLine
 10
129.176077
 20
121.931544
 30
0.0
 11
129.176077
 21
127.571161
 31
0.0
  0
LINE
  5
560
100
AcDbEntity
  8
0
  6
Continuous
 62
     8
100
AcDbLine
 10
129.176077
 20
128.571073
 30
0.0
 11
129.176077
 21
129.570986
 31
0.0
  0
LINE
  5
561
100
AcDbEntity
  8
0
  6
Continuous
 62
     8
100
AcDbLine
 10
129.176077
 20
130.571111
 30
0.0
 11
129.176077
 21
136.210728
 31
0.0
  0
LINE
  5
562
100
AcDbEntity
  8
0
  6
Continuous
 62
     8
100
AcDbLine
 10
129.176077
 20
139.210678
 30
0.0
 11
129.176077
 21
145.143449
 31
0.0
  0
LINE
  5
563
100
AcDbEntity
  8
0
  6
Continuous
 62
     8
100
AcDbLine
 10
129.176077
 20
146.143362
 30
0.0
 11
129.176077
 21
147.143487
 31
0.0
  0
LINE
  5
564
100
AcDbEntity
  8
0
  6
Continuous
 62
     8
100
AcDbLine
 10
129.176077
 20
148.143399
 30
0.0
 11
129.176077
 21
154.076171
 31
0.0
  0
LINE
  5
565
100
AcDbEntity
  8
0
  6
Continuous
 62
     8
100
AcDbLine
 10
129.176077
 20
155.076296
 30
0.0
 11
129.176077
 21
156.076208
 31
0.0
  0
LINE
  5
566
100
AcDbEntity
  8
0
  6
Continuous
 62
     8
100
AcDbLine
 10
129.176077
 20
157.076121
 30
0.0
 11
129.176077
 21
163.008893
 31
0.0
  0
ENDBLK
  5
567
100
AcDbEntity
  8
0
100
AcDbBlockEnd
  0
BLOCK
  5
56A
100
AcDbEntity
  8
0
100
AcDbBlockBegin
  2
*B68
 70
     0
 10
0.0
 20
0.0
 30
0.0
  3
*B68
  1

  0
LINE
  5
56B
100
AcDbEntity
  8
0
  6
Continuous
 62
     8
100
AcDbLine
 10
208.175962
 20
43.446379
 30
0.0
 11
208.175962
 21
48.346099
 31
0.0
  0
LINE
  5
56C
100
AcDbEntity
  8
0
  6
Continuous
 62
     8
100
AcDbLine
 10
208.175962
 20
51.345836
 30
0.0
 11
208.175962
 21
56.245556
 31
0.0
  0
ENDBLK
  5
56D
100
AcDbEntity
  8
0
100
AcDbBlockEnd
  0
BLOCK
  5
570
100
AcDbEntity
  8
0
100
AcDbBlockBegin
  2
*B69
 70
     0
 10
0.0
 20
0.0
 30
0.0
  3
*B69
  1

  0
LINE
  5
571
100
AcDbEntity
  8
0
  6
Continuous
 62
     8
100
AcDbLine
 10
193.676062
 20
169.208902
 30
0.0
 11
193.676062
 21
183.00778
 31
0.0
  0
ENDBLK
  5
572
100
AcDbEntity
  8
0
100
AcDbBlockEnd
  0
BLOCK
  5
575
100
AcDbEntity
  8
0
100
AcDbBlockBegin
  2
*B70
 70
     0
 10
0.0
 20
0.0
 30
0.0
  3
*B70
  1

  0
LINE
  5
576
100
AcDbEntity
  8
0
  6
Continuous
 62
     8
100
AcDbLine
 10
126.926008
 20
138.710615
 30
0.0
 11
126.926008
 21
156.009293
 31
0.0
  0
ENDBLK
  5
577
100
AcDbEntity
  8
0
100
AcDbBlockEnd
  0
BLOCK
  5
57A
100
AcDbEntity
  8
0
100
AcDbBlockBegin
  2
*B71
 70
     0
 10
0.0
 20
0.0
 30
0.0
  3
*B71
  1

  0
LINE
  5
57B
100
AcDbEntity
  8
0
  6
Continuous
 62
     6
100
AcDbLine
 10
52.176016
 20
49.346011
 30
0.0
 11
52.176016
 21
50.345924
 31
0.0
  0
LINE
  5
57C
100
AcDbEntity
  8
0
  6
Continuous
 62
     6
100
AcDbLine
 10
51.675954
 20
49.846074
 30
0.0
 11
52.676079
 21
49.846074
 31
0.0
  0
ENDBLK
  5
57D
100
AcDbEntity
  8
0
100
AcDbBlockEnd
  0
BLOCK
  5
580
100
AcDbEntity
  8
0
100
AcDbBlockBegin
  2
*B72
 70
     0
 10
0.0
 20
0.0
 30
0.0
  3
*B72
  1

  0
LINE
  5
581
100
AcDbEntity
  8
0
  6
Continuous
 62
     6
100
AcDbLine
 10
137.676076
 20
112.71204
 30
0.0
 11
138.675989
 21
112.71204
 31
0.0
  0
LINE
  5
582
100
AcDbEntity
  8
0
  6
Continuous
 62
     6
100
AcDbLine
 10
138.175926
 20
112.21219
 30
0.0
 11
138.175926
 21
113.212103
 31
0.0
  0
ENDBLK
  5
583
100
AcDbEntity
  8
0
100
AcDbBlockEnd
  0
BLOCK
  5
586
100
AcDbEntity
  8
0
100
AcDbBlockBegin
  2
*B73
 70
     0
 10
0.0
 20
0.0
 30
0.0
  3
*B73
  1

  0
LINE
  5
587
100
AcDbEntity
  8
0
  6
Continuous
 62
     6
100
AcDbLine
 10
121.675989
 20
58.095617
 30
0.0
 11
122.676114
 21
58.095617
 31
0.0
  0
LINE
  5
588
100
AcDbEntity
  8
0
  6
Continuous
 62
     6
100
AcDbLine
 10
122.176052
 20
57.595555
 30
0.0
 11
122.176052
 21
58.595467
 31
0.0
  0
ENDBLK
  5
589
100
AcDbEntity
  8
0
100
AcDbBlockEnd
  0
BLOCK
  5
58C
100
AcDbEntity
  8
0
100
AcDbBlockBegin
  2
*B74
 70
     0
 10
0.0
 20
0.0
 30
0.0
  3
*B74
  1

  0
LINE
  5
58D
100
AcDbEntity
  8
0
  6
Continuous
 62
     6
100
AcDbLine
 10
138.175926
 20
49.346011
 30
0.0
 11
138.175926
 21
50.345924
 31
0.0
  0
LINE
  5
58E
100
AcDbEntity
  8
0
  6
Continuous
 62
     6
100
AcDbLine
 10
137.676076
 20
49.846074
 30
0.0
 11
138.675989
 21
49.846074
 31
0.0
  0
ENDBLK
  5
58F
100
AcDbEntity
  8
0
100
AcDbBlockEnd
  0
BLOCK
  5
592
100
AcDbEntity
  8
0
100
AcDbBlockBegin
  2
*B75
 70
     0
 10
0.0
 20
0.0
 30
0.0
  3
*B75
  1

  0
LINE
  5
593
100
AcDbEntity
  8
0
  6
Continuous
 62
     6
100
AcDbLine
 10
128.676014
 20
137.710703
 30
0.0
 11
129.675927
 21
137.710703
 31
0.0
  0
LINE
  5
594
100
AcDbEntity
  8
0
  6
Continuous
 62
     6
100
AcDbLine
 10
129.176077
 20
137.21064
 30
0.0
 11
129.176077
 21
138.210553
 31
0.0
  0
ENDBLK
  5
595
100
AcDbEntity
  8
0
100
AcDbBlockEnd
  0
BLOCK
  5
598
100
AcDbEntity
  8
0
100
AcDbBlockBegin
  2
*B76
 70
     0
 10
0.0
 20
0.0
 30
0.0
  3
*B76
  1

  0
LINE
  5
599
100
AcDbEntity
  8
0
  6
Continuous
 62
     6
100
AcDbLine
 10
165.175901
 20
137.21064
 30
0.0
 11
165.175901
 21
138.210553
 31
0.0
  0
LINE
  5
59A
100
AcDbEntity
  8
0
  6
Continuous
 62
     6
100
AcDbLine
 10
164.676051
 20
137.710703
 30
0.0
 11
165.675963
 21
137.710703
 31
0.0
  0
ENDBLK
  5
59B
100
AcDbEntity
  8
0
100
AcDbBlockEnd
  0
BLOCK
  5
59E
100
AcDbEntity
  8
0
100
AcDbBlockBegin
  2
*B77
 70
     0
 10
0.0
 20
0.0
 30
0.0
  3
*B77
  1

  0
LINE
  5
59F
100
AcDbEntity
  8
0
  6
Continuous
 62
     6
100
AcDbLine
 10
181.67605
 20
49.846074
 30
0.0
 11
182.675963
 21
49.846074
 31
0.0
  0
LINE
  5
5A0
100
AcDbEntity
  8
0
  6
Continuous
 62
     6
100
AcDbLine
 10
182.1759
 20
49.346011
 30
0.0
 11
182.1759
 21
50.345924
 31
0.0
  0
ENDBLK
  5
5A1
100
AcDbEntity
  8
0
100
AcDbBlockEnd
  0
BLOCK
  5
5A4
100
AcDbEntity
  8
0
100
AcDbBlockBegin
  2
*B78
 70
     0
 10
0.0
 20
0.0
 30
0.0
  3
*B78
  1

  0
LINE
  5
5A5
100
AcDbEntity
  8
0
  6
Continuous
 62
     6
100
AcDbLine
 10
207.6759
 20
49.846074
 30
0.0
 11
208.676024
 21
49.846074
 31
0.0
  0
LINE
  5
5A6
100
AcDbEntity
  8
0
  6
Continuous
 62
     6
100
AcDbLine
 10
208.175962
 20
49.346011
 30
0.0
 11
208.175962
 21
50.345924
 31
0.0
  0
ENDBLK
  5
5A7
100
AcDbEntity
  8
0
100
AcDbBlockEnd
  0
BLOCK
  5
5AA
100
AcDbEntity
  8
0
100
AcDbBlockBegin
  2
*B79
 70
     0
 10
0.0
 20
0.0
 30
0.0
  3
*B79
  1

  0
LINE
  5
5AB
100
AcDbEntity
  8
0
  6
Continuous
 62
     6
100
AcDbLine
 10
156.176051
 20
112.21219
 30
0.0
 11
156.176051
 21
113.212103
 31
0.0
  0
LINE
  5
5AC
100
AcDbEntity
  8
0
  6
Continuous
 62
     6
100
AcDbLine
 10
155.675988
 20
112.71204
 30
0.0
 11
156.676113
 21
112.71204
 31
0.0
  0
ENDBLK
  5
5AD
100
AcDbEntity
  8
0
100
AcDbBlockEnd
  0
BLOCK
  5
5B0
100
AcDbEntity
  8
0
100
AcDbBlockBegin
  2
*B80
 70
     0
 10
0.0
 20
0.0
 30
0.0
  3
*B80
  1

  0
LINE
  5
5B1
100
AcDbEntity
  8
0
  6
Continuous
 62
     6
100
AcDbLine
 10
111.676015
 20
49.846074
 30
0.0
 11
112.67614
 21
49.846074
 31
0.0
  0
LINE
  5
5B2
100
AcDbEntity
  8
0
  6
Continuous
 62
     6
100
AcDbLine
 10
112.176077
 20
49.346011
 30
0.0
 11
112.176077
 21
50.345924
 31
0.0
  0
ENDBLK
  5
5B3
100
AcDbEntity
  8
0
100
AcDbBlockEnd
  0
BLOCK
  5
5B6
100
AcDbEntity
  8
0
100
AcDbBlockBegin
  2
*B81
 70
     0
 10
0.0
 20
0.0
 30
0.0
  3
*B81
  1

  0
LINE
  5
5B7
100
AcDbEntity
  8
0
  6
Continuous
 62
     6
100
AcDbLine
 10
172.175925
 20
41.096467
 30
0.0
 11
172.175925
 21
42.09638
 31
0.0
  0
LINE
  5
5B8
100
AcDbEntity
  8
0
  6
Continuous
 62
     6
100
AcDbLine
 10
171.676075
 20
41.59653
 30
0.0
 11
172.675988
 21
41.59653
 31
0.0
  0
ENDBLK
  5
5B9
100
AcDbEntity
  8
0
100
AcDbBlockEnd
  0
BLOCK
  5
5BC
100
AcDbEntity
  8
0
100
AcDbBlockBegin
  2
*B82
 70
     0
 10
0.0
 20
0.0
 30
0.0
  3
*B82
  1

  0
LINE
  5
5BD
100
AcDbEntity
  8
0
  6
Continuous
 62
     6
100
AcDbLine
 10
156.176051
 20
49.346011
 30
0.0
 11
156.176051
 21
50.345924
 31
0.0
  0
LINE
  5
5BE
100
AcDbEntity
  8
0
  6
Continuous
 62
     6
100
AcDbLine
 10
155.675988
 20
49.846074
 30
0.0
 11
156.676113
 21
49.846074
 31
0.0
  0
ENDBLK
  5
5BF
100
AcDbEntity
  8
0
100
AcDbBlockEnd
  0
BLOCK
  5
5C2
100
AcDbEntity
  8
0
100
AcDbBlockBegin
  2
*B83
 70
     0
 10
0.0
 20
0.0
 30
0.0
  3
*B83
  1

  0
LINE
  5
5C3
100
AcDbEntity
  8
0
  6
Continuous
 62
     6
100
AcDbLine
 10
242.175961
 20
49.346011
 30
0.0
 11
242.175961
 21
50.345924
 31
0.0
  0
LINE
  5
5C4
100
AcDbEntity
  8
0
  6
Continuous
 62
     6
100
AcDbLine
 10
241.675899
 20
49.846074
 30
0.0
 11
242.676023
 21
49.846074
 31
0.0
  0
ENDBLK
  5
5C5
100
AcDbEntity
  8
0
100
AcDbBlockEnd
  0
BLOCK
  5
5C8
100
AcDbEntity
  8
0
100
AcDbBlockBegin
  2
*B84
 70
     0
 10
0.0
 20
0.0
 30
0.0
  3
*B84
  1

  0
LINE
  5
5C9
100
AcDbEntity
  8
0
  6
Continuous
 62
     6
100
AcDbLine
 10
86.176015
 20
49.346011
 30
0.0
 11
86.176015
 21
50.345924
 31
0.0
  0
LINE
  5
5CA
100
AcDbEntity
  8
0
  6
Continuous
 62
     6
100
AcDbLine
 10
85.675953
 20
49.846074
 30
0.0
 11
86.676078
 21
49.846074
 31
0.0
  0
ENDBLK
  5
5CB
100
AcDbEntity
  8
0
100
AcDbBlockEnd
  0
BLOCK
  5
5CE
100
AcDbEntity
  8
0
100
AcDbBlockBegin
  2
*B85
 70
     0
 10
0.0
 20
0.0
 30
0.0
  3
*B85
  1

  0
TEXT
  5
5CF
100
AcDbEntity
  8
TEXT
  6
Continuous
 62
     0
100
AcDbText
 10
164.0886
 20
109.5
 30
0.0
 40
4.0
  1
3
100
AcDbText
  0
ENDBLK
  5
5D0
100
AcDbEntity
  8
0
100
AcDbBlockEnd
  0
BLOCK
  5
5D3
100
AcDbEntity
  8
0
100
AcDbBlockBegin
  2
*B86
 70
     0
 10
0.0
 20
0.0
 30
0.0
  3
*B86
  1

  0
TEXT
  5
5D4
100
AcDbEntity
  8
TEXT
  6
Continuous
 62
     0
100
AcDbText
 10
127.5886
 20
109.5
 30
0.0
 40
4.0
  1
5
100
AcDbText
  0
ENDBLK
  5
5D5
100
AcDbEntity
  8
0
100
AcDbBlockEnd
  0
BLOCK
  5
5D8
100
AcDbEntity
  8
0
100
AcDbBlockBegin
  2
*B87
 70
     0
 10
0.0
 20
0.0
 30
0.0
  3
*B87
  1

  0
TEXT
  5
5D9
100
AcDbEntity
  8
TEXT
  6
Continuous
 62
     0
100
AcDbText
 10
154.5886
 20
137.0
 30
0.0
 40
4.0
  1
2
100
AcDbText
  0
ENDBLK
  5
5DA
100
AcDbEntity
  8
0
100
AcDbBlockEnd
  0
BLOCK
  5
5DD
100
AcDbEntity
  8
0
100
AcDbBlockBegin
  2
*B88
 70
     0
 10
0.0
 20
0.0
 30
0.0
  3
*B88
  1

  0
TEXT
  5
5DE
100
AcDbEntity
  8
TEXT
  6
Continuous
 62
     0
100
AcDbText
 10
145.5886
 20
109.5
 30
0.0
 40
4.0
  1
1
100
AcDbText
  0
ENDBLK
  5
5DF
100
AcDbEntity
  8
0
100
AcDbBlockEnd
  0
BLOCK
  5
5E2
100
AcDbEntity
  8
0
100
AcDbBlockBegin
  2
*B89
 70
     0
 10
0.0
 20
0.0
 30
0.0
  3
*B89
  1

  0
TEXT
  5
5E3
100
AcDbEntity
  8
TEXT
  6
Continuous
 62
     0
100
AcDbText
 10
136.5886
 20
137.0
 30
0.0
 40
4.0
  1
4
100
AcDbText
  0
ENDBLK
  5
5E4
100
AcDbEntity
  8
0
100
AcDbBlockEnd
  0
BLOCK
  5
5E7
100
AcDbEntity
  8
0
100
AcDbBlockBegin
  2
*B90
 70
     0
 10
0.0
 20
0.0
 30
0.0
  3
*B90
  1

  0
TEXT
  5
5E8
100
AcDbEntity
  8
TEXT
  6
Continuous
 62
     0
100
AcDbText
 10
107.7
 20
48.365025
 30
0.0
 40
3.5
  1
1
 50
90.0
100
AcDbText
  0
ENDBLK
  5
5E9
100
AcDbEntity
  8
0
100
AcDbBlockEnd
  0
BLOCK
  5
5EC
100
AcDbEntity
  8
0
100
AcDbBlockBegin
  2
*B91
 70
     0
 10
0.0
 20
0.0
 30
0.0
  3
*B91
  1

  0
TEXT
  5
5ED
100
AcDbEntity
  8
TEXT
  6
Continuous
 62
     0
100
AcDbText
 10
113.8
 20
42.815025
 30
0.0
 40
3.5
  1
0
 50
90.0
100
AcDbText
  0
ENDBLK
  5
5EE
100
AcDbEntity
  8
0
100
AcDbBlockEnd
  0
BLOCK
  5
5F1
100
AcDbEntity
  8
0
100
AcDbBlockBegin
  2
*B92
 70
     0
 10
0.0
 20
0.0
 30
0.0
  3
*B92
  1

  0
TEXT
  5
5F2
100
AcDbEntity
  8
TEXT
  6
Continuous
 62
     0
100
AcDbText
 10
119.1772
 20
123.5
 30
0.0
 40
4.0
  1
14
100
AcDbText
  0
ENDBLK
  5
5F3
100
AcDbEntity
  8
0
100
AcDbBlockEnd
  0
BLOCK
  5
5F6
100
AcDbEntity
  8
0
100
AcDbBlockBegin
  2
*B93
 70
     0
 10
0.0
 20
0.0
 30
0.0
  3
*B93
  1

  0
TEXT
  5
5F7
100
AcDbEntity
  8
TEXT
  6
Continuous
 62
     0
100
AcDbText
 10
169.6772
 20
123.5
 30
0.0
 40
4.0
  1
12
100
AcDbText
  0
ENDBLK
  5
5F8
100
AcDbEntity
  8
0
100
AcDbBlockEnd
  0
BLOCK
  5
5FB
100
AcDbEntity
  8
0
100
AcDbBlockBegin
  2
*B94
 70
     0
 10
0.0
 20
0.0
 30
0.0
  3
*B94
  1

  0
TEXT
  5
5FC
100
AcDbEntity
  8
TEXT
  6
Continuous
 62
     0
100
AcDbText
 10
186.55
 20
51.234975
 30
0.0
 40
3.5
  1
1
 50
-90.0
100
AcDbText
  0
ENDBLK
  5
5FD
100
AcDbEntity
  8
0
100
AcDbBlockEnd
  0
BLOCK
  5
600
100
AcDbEntity
  8
0
100
AcDbBlockBegin
  2
*B95
 70
     0
 10
0.0
 20
0.0
 30
0.0
  3
*B95
  1

  0
TEXT
  5
601
100
AcDbEntity
  8
TEXT
  6
Continuous
 62
     0
100
AcDbText
 10
180.55
 20
56.734975
 30
0.0
 40
3.5
  1
0
 50
-90.0
100
AcDbText
  0
ENDBLK
  5
602
100
AcDbEntity
  8
0
100
AcDbBlockEnd
  0
BLOCK
  5
605
100
AcDbEntity
  8
0
100
AcDbBlockBegin
  2
*B96
 70
     0
 10
0.0
 20
0.0
 30
0.0
  3
*B96
  1

  0
TEXT
  5
606
100
AcDbEntity
  8
TEXT
  6
Continuous
 62
     0
100
AcDbText
 10
75.707249
 20
80.5
 30
0.0
 40
5.0
  1
180%%d
100
AcDbText
  0
ENDBLK
  5
607
100
AcDbEntity
  8
0
100
AcDbBlockEnd
  0
BLOCK
  5
60A
100
AcDbEntity
  8
0
100
AcDbBlockBegin
  2
*B97
 70
     0
 10
0.0
 20
0.0
 30
0.0
  3
*B97
  1

  0
TEXT
  5
60B
100
AcDbEntity
  8
TEXT
  6
Continuous
 62
     0
100
AcDbText
 10
135.300745
 20
95.5
 30
0.0
 40
3.0
  1
18
100
AcDbText
  0
ENDBLK
  5
60C
100
AcDbEntity
  8
0
100
AcDbBlockEnd
  0
BLOCK
  5
60F
100
AcDbEntity
  8
0
100
AcDbBlockBegin
  2
*B98
 70
     0
 10
0.0
 20
0.0
 30
0.0
  3
*B98
  1

  0
TEXT
  5
610
100
AcDbEntity
  8
TEXT
  6
Continuous
 62
     0
100
AcDbText
 10
153.300745
 20
95.5
 30
0.0
 40
3.0
  1
18
100
AcDbText
  0
ENDBLK
  5
611
100
AcDbEntity
  8
0
100
AcDbBlockEnd
  0
BLOCK
  5
614
100
AcDbEntity
  8
0
100
AcDbBlockBegin
  2
*B99
 70
     0
 10
0.0
 20
0.0
 30
0.0
  3
*B99
  1

  0
TEXT
  5
615
100
AcDbEntity
  8
TEXT
  6
Continuous
 62
     0
100
AcDbText
 10
168.205357
 20
95.5
 30
0.0
 40
3.0
  1
12
100
AcDbText
  0
ENDBLK
  5
616
100
AcDbEntity
  8
0
100
AcDbBlockEnd
  0
BLOCK
  5
619
100
AcDbEntity
  8
0
100
AcDbBlockBegin
  2
*B100
 70
     0
 10
0.0
 20
0.0
 30
0.0
  3
*B100
  1

  0
TEXT
  5
61A
100
AcDbEntity
  8
TEXT
  6
Continuous
 62
     0
100
AcDbText
 10
144.300745
 20
155.5
 30
0.0
 40
3.0
  1
18
100
AcDbText
  0
ENDBLK
  5
61B
100
AcDbEntity
  8
0
100
AcDbBlockEnd
  0
BLOCK
  5
61E
100
AcDbEntity
  8
0
100
AcDbBlockBegin
  2
*B101
 70
     0
 10
0.0
 20
0.0
 30
0.0
  3
*B101
  1

  0
TEXT
  5
61F
100
AcDbEntity
  8
TEXT
  6
Continuous
 62
     0
100
AcDbText
 10
144.300745
 20
166.5
 30
0.0
 40
3.0
  1
36
100
AcDbText
  0
ENDBLK
  5
620
100
AcDbEntity
  8
0
100
AcDbBlockEnd
  0
BLOCK
  5
623
100
AcDbEntity
  8
0
100
AcDbBlockBegin
  2
*B102
 70
     0
 10
0.0
 20
0.0
 30
0.0
  3
*B102
  1

  0
TEXT
  5
624
100
AcDbEntity
  8
TEXT
  6
Continuous
 62
     0
100
AcDbText
 10
110.891071
 20
155.5
 30
0.0
 40
3.0
  1
%%c4,5
100
AcDbText
  0
ENDBLK
  5
625
100
AcDbEntity
  8
0
100
AcDbBlockEnd
  0
BLOCK
  5
628
100
AcDbEntity
  8
0
100
AcDbBlockBegin
  2
*B103
 70
     0
 10
0.0
 20
0.0
 30
0.0
  3
*B103
  1

  0
TEXT
  5
629
100
AcDbEntity
  8
TEXT
  6
Continuous
 62
     0
100
AcDbText
 10
186.5
 20
122.343124
 30
0.0
 40
3.0
  1
25
 50
90.0
100
AcDbText
  0
ENDBLK
  5
62A
100
AcDbEntity
  8
0
100
AcDbBlockEnd
  0
BLOCK
  5
62D
100
AcDbEntity
  8
0
100
AcDbBlockBegin
  2
*B104
 70
     0
 10
0.0
 20
0.0
 30
0.0
  3
*B104
  1

  0
TEXT
  5
62E
100
AcDbEntity
  8
TEXT
  6
Continuous
 62
     0
100
AcDbText
 10
164.785714
 20
28.5
 30
0.0
 40
3.0
  1
G 1/8"
100
AcDbText
  0
ENDBLK
  5
62F
100
AcDbEntity
  8
0
100
AcDbBlockEnd
  0
BLOCK
  5
632
100
AcDbEntity
  8
0
100
AcDbBlockBegin
  2
*B105
 70
     0
 10
0.0
 20
0.0
 30
0.0
  3
*B105
  1

  0
TEXT
  5
633
100
AcDbEntity
  8
TEXT
  6
Continuous
 62
     0
100
AcDbText
 10
120.300745
 20
95.5
 30
0.0
 40
3.0
  1
12
100
AcDbText
  0
ENDBLK
  5
634
100
AcDbEntity
  8
0
100
AcDbBlockEnd
  0
BLOCK
  5
637
100
AcDbEntity
  8
0
100
AcDbBlockBegin
  2
*B106
 70
     0
 10
0.0
 20
0.0
 30
0.0
  3
*B106
  1

  0
TEXT
  5
638
100
AcDbEntity
  8
TEXT
  6
Continuous
 62
     0
100
AcDbText
 10
144.300745
 20
83.5
 30
0.0
 40
3.0
  1
92
100
AcDbText
  0
ENDBLK
  5
639
100
AcDbEntity
  8
0
100
AcDbBlockEnd
  0
BLOCK
  5
63C
100
AcDbEntity
  8
0
100
AcDbBlockBegin
  2
*B107
 70
     0
 10
0.0
 20
0.0
 30
0.0
  3
*B107
  1

  0
TEXT
  5
63D
100
AcDbEntity
  8
TEXT
  6
Continuous
 62
     0
100
AcDbText
 10
173.229317
 20
72.5
 30
0.0
 40
3.0
  1
5
100
AcDbText
  0
ENDBLK
  5
63E
100
AcDbEntity
  8
0
100
AcDbBlockEnd
  0
BLOCK
  5
641
100
AcDbEntity
  8
0
100
AcDbBlockBegin
  2
*B108
 70
     0
 10
0.0
 20
0.0
 30
0.0
  3
*B108
  1

  0
TEXT
  5
642
100
AcDbEntity
  8
TEXT
  6
Continuous
 62
     0
100
AcDbText
 10
144.300745
 20
72.5
 30
0.0
 40
3.0
  1
50
100
AcDbText
  0
ENDBLK
  5
643
100
AcDbEntity
  8
0
100
AcDbBlockEnd
  0
BLOCK
  5
646
100
AcDbEntity
  8
0
100
AcDbBlockBegin
  2
*B109
 70
     0
 10
0.0
 20
0.0
 30
0.0
  3
*B109
  1

  0
TEXT
  5
647
100
AcDbEntity
  8
TEXT
  6
Continuous
 62
     0
100
AcDbText
 10
128.5
 20
44.830623
 30
0.0
 40
3.0
  1
16,5
 50
90.0
100
AcDbText
  0
ENDBLK
  5
648
100
AcDbEntity
  8
0
100
AcDbBlockEnd
  0
BLOCK
  5
64B
100
AcDbEntity
  8
0
100
AcDbBlockBegin
  2
*B110
 70
     0
 10
0.0
 20
0.0
 30
0.0
  3
*B110
  1

  0
TEXT
  5
64C
100
AcDbEntity
  8
TEXT
  6
Continuous
 62
     0
100
AcDbText
 10
215.050745
 20
182.5
 30
0.0
 40
3.0
  1
48
100
AcDbText
  0
ENDBLK
  5
64D
100
AcDbEntity
  8
0
100
AcDbBlockEnd
  0
BLOCK
  5
650
100
AcDbEntity
  8
0
100
AcDbBlockBegin
  2
*B111
 70
     0
 10
0.0
 20
0.0
 30
0.0
  3
*B111
  1

  0
TEXT
  5
651
100
AcDbEntity
  8
TEXT
  6
Continuous
 62
     0
100
AcDbText
 10
41.5
 20
136.842899
 30
0.0
 40
3.0
  1
65
 50
90.0
100
AcDbText
  0
ENDBLK
  5
652
100
AcDbEntity
  8
0
100
AcDbBlockEnd
  0
BLOCK
  5
655
100
AcDbEntity
  8
0
100
AcDbBlockBegin
  2
*B112
 70
     0
 10
0.0
 20
0.0
 30
0.0
  3
*B112
  1

  0
TEXT
  5
656
100
AcDbEntity
  8
TEXT
  6
Continuous
 62
     0
100
AcDbText
 10
42.5
 20
46.973481
 30
0.0
 40
3.0
  1
22
 50
90.0
100
AcDbText
  0
ENDBLK
  5
657
100
AcDbEntity
  8
0
100
AcDbBlockEnd
  0
BLOCK
  5
65A
100
AcDbEntity
  8
0
100
AcDbBlockBegin
  2
*B113
 70
     0
 10
0.0
 20
0.0
 30
0.0
  3
*B113
  1

  0
TEXT
  5
65B
100
AcDbEntity
  8
TEXT
  6
Continuous
 62
     0
100
AcDbText
 10
73.550745
 20
182.5
 30
0.0
 40
3.0
  1
48
100
AcDbText
  0
ENDBLK
  5
65C
100
AcDbEntity
  8
0
100
AcDbBlockEnd
  0
BLOCK
  5
65F
100
AcDbEntity
  8
0
100
AcDbBlockBegin
  2
*B114
 70
     0
 10
0.0
 20
0.0
 30
0.0
  3
*B114
  1

  0
TEXT
  5
660
100
AcDbEntity
  8
TEXT
  6
Continuous
 62
     0
100
AcDbText
 10
241.5
 20
122.343124
 30
0.0
 40
3.0
  1
36
 50
90.0
100
AcDbText
  0
ENDBLK
  5
661
100
AcDbEntity
  8
0
100
AcDbBlockEnd
  0
ENDSEC
  0
SECTION
  2
ENTITIES
  0
INSERT
  5
231
100
AcDbEntity
  8
0
  6
HIDDEN
 62
   174
100
AcDbBlockReference
  2
*B1
 10
0.0
 20
0.0
 30
0.0
  0
INSERT
  5
32D
100
AcDbEntity
  8
0
  6
Continuous
 62
   174
100
AcDbBlockReference
  2
*B2
 10
0.0
 20
0.0
 30
0.0
  0
INSERT
  5
333
100
AcDbEntity
  8
0
  6
Continuous
 62
   172
100
AcDbBlockReference
  2
*B3
 10
0.0
 20
0.0
 30
0.0
  0
INSERT
  5
33E
100
AcDbEntity
  8
0
  6
Continuous
 62
   172
100
AcDbBlockReference
  2
*B4
 10
0.0
 20
0.0
 30
0.0
  0
INSERT
  5
347
100
AcDbEntity
  8
0
  6
Continuous
 62
   172
100
AcDbBlockReference
  2
*B6
 10
0.0
 20
0.0
 30
0.0
  0
INSERT
  5
352
100
AcDbEntity
  8
0
  6
Continuous
 62
   172
100
AcDbBlockReference
  2
*B7
 10
0.0
 20
0.0
 30
0.0
  0
INSERT
  5
35C
100
AcDbEntity
  8
0
  6
Continuous
 62
     0
100
AcDbBlockReference
  2
*B9
 10
0.0
 20
0.0
 30
0.0
  0
INSERT
  5
363
100
AcDbEntity
  8
0
  6
Continuous
 62
     0
100
AcDbBlockReference
  2
*B10
 10
0.0
 20
0.0
 30
0.0
  0
INSERT
  5
36A
100
AcDbEntity
  8
0
  6
Continuous
 62
     0
100
AcDbBlockReference
  2
*B11
 10
0.0
 20
0.0
 30
0.0
  0
INSERT
  5
371
100
AcDbEntity
  8
0
  6
Continuous
 62
     0
100
AcDbBlockReference
  2
*B12
 10
0.0
 20
0.0
 30
0.0
  0
INSERT
  5
378
100
AcDbEntity
  8
0
  6
Continuous
 62
     0
100
AcDbBlockReference
  2
*B13
 10
0.0
 20
0.0
 30
0.0
  0
INSERT
  5
37F
100
AcDbEntity
  8
0
  6
Continuous
 62
     0
100
AcDbBlockReference
  2
*B14
 10
0.0
 20
0.0
 30
0.0
  0
INSERT
  5
386
100
AcDbEntity
  8
0
  6
Continuous
 62
     0
100
AcDbBlockReference
  2
*B15
 10
0.0
 20
0.0
 30
0.0
  0
INSERT
  5
38D
100
AcDbEntity
  8
0
  6
Continuous
 62
     0
100
AcDbBlockReference
  2
*B16
 10
0.0
 20
0.0
 30
0.0
  0
INSERT
  5
394
100
AcDbEntity
  8
0
  6
Continuous
 62
     0
100
AcDbBlockReference
  2
*B17
 10
0.0
 20
0.0
 30
0.0
  0
INSERT
  5
39B
100
AcDbEntity
  8
0
  6
Continuous
 62
     0
100
AcDbBlockReference
  2
*B18
 10
0.0
 20
0.0
 30
0.0
  0
INSERT
  5
3A2
100
AcDbEntity
  8
0
  6
Continuous
 62
     0
100
AcDbBlockReference
  2
*B19
 10
0.0
 20
0.0
 30
0.0
  0
INSERT
  5
3A9
100
AcDbEntity
  8
0
  6
Continuous
 62
     0
100
AcDbBlockReference
  2
*B20
 10
0.0
 20
0.0
 30
0.0
  0
INSERT
  5
3B0
100
AcDbEntity
  8
0
  6
Continuous
 62
     0
100
AcDbBlockReference
  2
*B21
 10
0.0
 20
0.0
 30
0.0
  0
INSERT
  5
3B7
100
AcDbEntity
  8
0
  6
Continuous
 62
     0
100
AcDbBlockReference
  2
*B22
 10
0.0
 20
0.0
 30
0.0
  0
INSERT
  5
3BE
100
AcDbEntity
  8
0
  6
Continuous
 62
     0
100
AcDbBlockReference
  2
*B23
 10
0.0
 20
0.0
 30
0.0
  0
INSERT
  5
3C5
100
AcDbEntity
  8
0
  6
Continuous
 62
     0
100
AcDbBlockReference
  2
*B24
 10
0.0
 20
0.0
 30
0.0
  0
INSERT
  5
3CC
100
AcDbEntity
  8
0
  6
Continuous
 62
     0
100
AcDbBlockReference
  2
*B25
 10
0.0
 20
0.0
 30
0.0
  0
INSERT
  5
3D3
100
AcDbEntity
  8
0
  6
Continuous
 62
     0
100
AcDbBlockReference
  2
*B26
 10
0.0
 20
0.0
 30
0.0
  0
INSERT
  5
3DD
100
AcDbEntity
  8
0
  6
Continuous
 62
     8
100
AcDbBlockReference
  2
*B27
 10
0.0
 20
0.0
 30
0.0
  0
INSERT
  5
3E2
100
AcDbEntity
  8
0
  6
Continuous
 62
     8
100
AcDbBlockReference
  2
*B28
 10
0.0
 20
0.0
 30
0.0
  0
INSERT
  5
3E7
100
AcDbEntity
  8
0
  6
Continuous
 62
     8
100
AcDbBlockReference
  2
*B29
 10
0.0
 20
0.0
 30
0.0
  0
INSERT
  5
3EE
100
AcDbEntity
  8
0
  6
Continuous
 62
     8
100
AcDbBlockReference
  2
*B30
 10
0.0
 20
0.0
 30
0.0
  0
INSERT
  5
3F4
100
AcDbEntity
  8
0
  6
Continuous
 62
     8
100
AcDbBlockReference
  2
*B31
 10
0.0
 20
0.0
 30
0.0
  0
INSERT
  5
3F9
100
AcDbEntity
  8
0
  6
Continuous
 62
     8
100
AcDbBlockReference
  2
*B32
 10
0.0
 20
0.0
 30
0.0
  0
INSERT
  5
3FF
100
AcDbEntity
  8
0
  6
Continuous
 62
     8
100
AcDbBlockReference
  2
*B33
 10
0.0
 20
0.0
 30
0.0
  0
INSERT
  5
40E
100
AcDbEntity
  8
0
  6
Continuous
 62
     8
100
AcDbBlockReference
  2
*B34
 10
0.0
 20
0.0
 30
0.0
  0
INSERT
  5
422
100
AcDbEntity
  8
0
  6
Continuous
 62
     8
100
AcDbBlockReference
  2
*B35
 10
0.0
 20
0.0
 30
0.0
  0
INSERT
  5
427
100
AcDbEntity
  8
0
  6
Continuous
 62
     8
100
AcDbBlockReference
  2
*B36
 10
0.0
 20
0.0
 30
0.0
  0
INSERT
  5
42D
100
AcDbEntity
  8
0
  6
Continuous
 62
     8
100
AcDbBlockReference
  2
*B37
 10
0.0
 20
0.0
 30
0.0
  0
INSERT
  5
436
100
AcDbEntity
  8
0
  6
Continuous
 62
     8
100
AcDbBlockReference
  2
*B38
 10
0.0
 20
0.0
 30
0.0
  0
INSERT
  5
45F
100
AcDbEntity
  8
0
  6
Continuous
 62
     8
100
AcDbBlockReference
  2
*B39
 10
0.0
 20
0.0
 30
0.0
  0
INSERT
  5
464
100
AcDbEntity
  8
0
  6
Continuous
 62
     8
100
AcDbBlockReference
  2
*B40
 10
0.0
 20
0.0
 30
0.0
  0
INSERT
  5
469
100
AcDbEntity
  8
0
  6
Continuous
 62
     8
100
AcDbBlockReference
  2
*B41
 10
0.0
 20
0.0
 30
0.0
  0
INSERT
  5
46E
100
AcDbEntity
  8
0
  6
Continuous
 62
     8
100
AcDbBlockReference
  2
*B42
 10
0.0
 20
0.0
 30
0.0
  0
INSERT
  5
473
100
AcDbEntity
  8
0
  6
Continuous
 62
     8
100
AcDbBlockReference
  2
*B43
 10
0.0
 20
0.0
 30
0.0
  0
INSERT
  5
47A
100
AcDbEntity
  8
0
  6
Continuous
 62
     8
100
AcDbBlockReference
  2
*B44
 10
0.0
 20
0.0
 30
0.0
  0
INSERT
  5
487
100
AcDbEntity
  8
0
  6
Continuous
 62
     8
100
AcDbBlockReference
  2
*B45
 10
0.0
 20
0.0
 30
0.0
  0
INSERT
  5
4B6
100
AcDbEntity
  8
0
  6
Continuous
 62
     8
100
AcDbBlockReference
  2
*B46
 10
0.0
 20
0.0
 30
0.0
  0
INSERT
  5
4BB
100
AcDbEntity
  8
0
  6
Continuous
 62
     8
100
AcDbBlockReference
  2
*B47
 10
0.0
 20
0.0
 30
0.0
  0
INSERT
  5
4C0
100
AcDbEntity
  8
0
  6
Continuous
 62
     8
100
AcDbBlockReference
  2
*B48
 10
0.0
 20
0.0
 30
0.0
  0
INSERT
  5
4C6
100
AcDbEntity
  8
0
  6
Continuous
 62
     8
100
AcDbBlockReference
  2
*B49
 10
0.0
 20
0.0
 30
0.0
  0
INSERT
  5
4CB
100
AcDbEntity
  8
0
  6
Continuous
 62
     8
100
AcDbBlockReference
  2
*B50
 10
0.0
 20
0.0
 30
0.0
  0
INSERT
  5
4D6
100
AcDbEntity
  8
0
  6
Continuous
 62
     8
100
AcDbBlockReference
  2
*B51
 10
0.0
 20
0.0
 30
0.0
  0
INSERT
  5
4E3
100
AcDbEntity
  8
0
  6
Continuous
 62
     8
100
AcDbBlockReference
  2
*B52
 10
0.0
 20
0.0
 30
0.0
  0
INSERT
  5
4E9
100
AcDbEntity
  8
0
  6
Continuous
 62
     8
100
AcDbBlockReference
  2
*B53
 10
0.0
 20
0.0
 30
0.0
  0
INSERT
  5
4F8
100
AcDbEntity
  8
0
  6
Continuous
 62
     8
100
AcDbBlockReference
  2
*B54
 10
0.0
 20
0.0
 30
0.0
  0
INSERT
  5
4FD
100
AcDbEntity
  8
0
  6
Continuous
 62
     8
100
AcDbBlockReference
  2
*B55
 10
0.0
 20
0.0
 30
0.0
  0
INSERT
  5
502
100
AcDbEntity
  8
0
  6
Continuous
 62
     8
100
AcDbBlockReference
  2
*B56
 10
0.0
 20
0.0
 30
0.0
  0
INSERT
  5
508
100
AcDbEntity
  8
0
  6
Continuous
 62
     8
100
AcDbBlockReference
  2
*B57
 10
0.0
 20
0.0
 30
0.0
  0
INSERT
  5
513
100
AcDbEntity
  8
0
  6
Continuous
 62
     8
100
AcDbBlockReference
  2
*B58
 10
0.0
 20
0.0
 30
0.0
  0
INSERT
  5
519
100
AcDbEntity
  8
0
  6
Continuous
 62
     8
100
AcDbBlockReference
  2
*B59
 10
0.0
 20
0.0
 30
0.0
  0
INSERT
  5
528
100
AcDbEntity
  8
0
  6
Continuous
 62
     8
100
AcDbBlockReference
  2
*B60
 10
0.0
 20
0.0
 30
0.0
  0
INSERT
  5
535
100
AcDbEntity
  8
0
  6
Continuous
 62
     8
100
AcDbBlockReference
  2
*B61
 10
0.0
 20
0.0
 30
0.0
  0
INSERT
  5
53A
100
AcDbEntity
  8
0
  6
Continuous
 62
     8
100
AcDbBlockReference
  2
*B62
 10
0.0
 20
0.0
 30
0.0
  0
INSERT
  5
53F
100
AcDbEntity
  8
0
  6
Continuous
 62
     8
100
AcDbBlockReference
  2
*B63
 10
0.0
 20
0.0
 30
0.0
  0
INSERT
  5
54A
100
AcDbEntity
  8
0
  6
Continuous
 62
     8
100
AcDbBlockReference
  2
*B64
 10
0.0
 20
0.0
 30
0.0
  0
INSERT
  5
54F
100
AcDbEntity
  8
0
  6
Continuous
 62
     8
100
AcDbBlockReference
  2
*B65
 10
0.0
 20
0.0
 30
0.0
  0
INSERT
  5
554
100
AcDbEntity
  8
0
  6
Continuous
 62
     8
100
AcDbBlockReference
  2
*B66
 10
0.0
 20
0.0
 30
0.0
  0
INSERT
  5
568
100
AcDbEntity
  8
0
  6
Continuous
 62
     8
100
AcDbBlockReference
  2
*B67
 10
0.0
 20
0.0
 30
0.0
  0
INSERT
  5
56E
100
AcDbEntity
  8
0
  6
Continuous
 62
     8
100
AcDbBlockReference
  2
*B68
 10
0.0
 20
0.0
 30
0.0
  0
INSERT
  5
573
100
AcDbEntity
  8
0
  6
Continuous
 62
     8
100
AcDbBlockReference
  2
*B69
 10
0.0
 20
0.0
 30
0.0
  0
INSERT
  5
578
100
AcDbEntity
  8
0
  6
Continuous
 62
     8
100
AcDbBlockReference
  2
*B70
 10
0.0
 20
0.0
 30
0.0
  0
INSERT
  5
57E
100
AcDbEntity
  8
0
  6
Continuous
 62
     6
100
AcDbBlockReference
  2
*B71
 10
0.0
 20
0.0
 30
0.0
  0
INSERT
  5
584
100
AcDbEntity
  8
0
  6
Continuous
 62
     6
100
AcDbBlockReference
  2
*B72
 10
0.0
 20
0.0
 30
0.0
  0
INSERT
  5
58A
100
AcDbEntity
  8
0
  6
Continuous
 62
     6
100
AcDbBlockReference
  2
*B73
 10
0.0
 20
0.0
 30
0.0
  0
INSERT
  5
590
100
AcDbEntity
  8
0
  6
Continuous
 62
     6
100
AcDbBlockReference
  2
*B74
 10
0.0
 20
0.0
 30
0.0
  0
INSERT
  5
596
100
AcDbEntity
  8
0
  6
Continuous
 62
     6
100
AcDbBlockReference
  2
*B75
 10
0.0
 20
0.0
 30
0.0
  0
INSERT
  5
59C
100
AcDbEntity
  8
0
  6
Continuous
 62
     6
100
AcDbBlockReference
  2
*B76
 10
0.0
 20
0.0
 30
0.0
  0
INSERT
  5
5A2
100
AcDbEntity
  8
0
  6
Continuous
 62
     6
100
AcDbBlockReference
  2
*B77
 10
0.0
 20
0.0
 30
0.0
  0
INSERT
  5
5A8
100
AcDbEntity
  8
0
  6
Continuous
 62
     6
100
AcDbBlockReference
  2
*B78
 10
0.0
 20
0.0
 30
0.0
  0
INSERT
  5
5AE
100
AcDbEntity
  8
0
  6
Continuous
 62
     6
100
AcDbBlockReference
  2
*B79
 10
0.0
 20
0.0
 30
0.0
  0
INSERT
  5
5B4
100
AcDbEntity
  8
0
  6
Continuous
 62
     6
100
AcDbBlockReference
  2
*B80
 10
0.0
 20
0.0
 30
0.0
  0
INSERT
  5
5BA
100
AcDbEntity
  8
0
  6
Continuous
 62
     6
100
AcDbBlockReference
  2
*B81
 10
0.0
 20
0.0
 30
0.0
  0
INSERT
  5
5C0
100
AcDbEntity
  8
0
  6
Continuous
 62
     6
100
AcDbBlockReference
  2
*B82
 10
0.0
 20
0.0
 30
0.0
  0
INSERT
  5
5C6
100
AcDbEntity
  8
0
  6
Continuous
 62
     6
100
AcDbBlockReference
  2
*B83
 10
0.0
 20
0.0
 30
0.0
  0
INSERT
  5
5CC
100
AcDbEntity
  8
0
  6
Continuous
 62
     6
100
AcDbBlockReference
  2
*B84
 10
0.0
 20
0.0
 30
0.0
  0
INSERT
  5
5D1
100
AcDbEntity
  8
TEXT
  6
Continuous
 62
     0
100
AcDbBlockReference
  2
*B85
 10
0.0
 20
0.0
 30
0.0
  0
INSERT
  5
5D6
100
AcDbEntity
  8
TEXT
  6
Continuous
 62
     0
100
AcDbBlockReference
  2
*B86
 10
0.0
 20
0.0
 30
0.0
  0
INSERT
  5
5DB
100
AcDbEntity
  8
TEXT
  6
Continuous
 62
     0
100
AcDbBlockReference
  2
*B87
 10
0.0
 20
0.0
 30
0.0
  0
INSERT
  5
5E0
100
AcDbEntity
  8
TEXT
  6
Continuous
 62
     0
100
AcDbBlockReference
  2
*B88
 10
0.0
 20
0.0
 30
0.0
  0
INSERT
  5
5E5
100
AcDbEntity
  8
TEXT
  6
Continuous
 62
     0
100
AcDbBlockReference
  2
*B89
 10
0.0
 20
0.0
 30
0.0
  0
INSERT
  5
5EA
100
AcDbEntity
  8
TEXT
  6
Continuous
 62
     0
100
AcDbBlockReference
  2
*B90
 10
0.0
 20
0.0
 30
0.0
  0
INSERT
  5
5EF
100
AcDbEntity
  8
TEXT
  6
Continuous
 62
     0
100
AcDbBlockReference
  2
*B91
 10
0.0
 20
0.0
 30
0.0
  0
INSERT
  5
5F4
100
AcDbEntity
  8
TEXT
  6
Continuous
 62
     0
100
AcDbBlockReference
  2
*B92
 10
0.0
 20
0.0
 30
0.0
  0
INSERT
  5
5F9
100
AcDbEntity
  8
TEXT
  6
Continuous
 62
     0
100
AcDbBlockReference
  2
*B93
 10
0.0
 20
0.0
 30
0.0
  0
INSERT
  5
5FE
100
AcDbEntity
  8
TEXT
  6
Continuous
 62
     0
100
AcDbBlockReference
  2
*B94
 10
0.0
 20
0.0
 30
0.0
  0
INSERT
  5
603
100
AcDbEntity
  8
TEXT
  6
Continuous
 62
     0
100
AcDbBlockReference
  2
*B95
 10
0.0
 20
0.0
 30
0.0
  0
INSERT
  5
608
100
AcDbEntity
  8
TEXT
  6
Continuous
 62
     0
100
AcDbBlockReference
  2
*B96
 10
0.0
 20
0.0
 30
0.0
  0
INSERT
  5
60D
100
AcDbEntity
  8
TEXT
  6
Continuous
 62
     0
100
AcDbBlockReference
  2
*B97
 10
0.0
 20
0.0
 30
0.0
  0
INSERT
  5
612
100
AcDbEntity
  8
TEXT
  6
Continuous
 62
     0
100
AcDbBlockReference
  2
*B98
 10
0.0
 20
0.0
 30
0.0
  0
INSERT
  5
617
100
AcDbEntity
  8
TEXT
  6
Continuous
 62
     0
100
AcDbBlockReference
  2
*B99
 10
0.0
 20
0.0
 30
0.0
  0
INSERT
  5
61C
100
AcDbEntity
  8
TEXT
  6
Continuous
 62
     0
100
AcDbBlockReference
  2
*B100
 10
0.0
 20
0.0
 30
0.0
  0
INSERT
  5
621
100
AcDbEntity
  8
TEXT
  6
Continuous
 62
     0
100
AcDbBlockReference
  2
*B101
 10
0.0
 20
0.0
 30
0.0
  0
INSERT
  5
626
100
AcDbEntity
  8
TEXT
  6
Continuous
 62
     0
100
AcDbBlockReference
  2
*B102
 10
0.0
 20
0.0
 30
0.0
  0
INSERT
  5
62B
100
AcDbEntity
  8
TEXT
  6
Continuous
 62
     0
100
AcDbBlockReference
  2
*B103
 10
0.0
 20
0.0
 30
0.0
  0
INSERT
  5
630
100
AcDbEntity
  8
TEXT
  6
Continuous
 62
     0
100
AcDbBlockReference
  2
*B104
 10
0.0
 20
0.0
 30
0.0
  0
INSERT
  5
635
100
AcDbEntity
  8
TEXT
  6
Continuous
 62
     0
100
AcDbBlockReference
  2
*B105
 10
0.0
 20
0.0
 30
0.0
  0
INSERT
  5
63A
100
AcDbEntity
  8
TEXT
  6
Continuous
 62
     0
100
AcDbBlockReference
  2
*B106
 10
0.0
 20
0.0
 30
0.0
  0
INSERT
  5
63F
100
AcDbEntity
  8
TEXT
  6
Continuous
 62
     0
100
AcDbBlockReference
  2
*B107
 10
0.0
 20
0.0
 30
0.0
  0
INSERT
  5
644
100
AcDbEntity
  8
TEXT
  6
Continuous
 62
     0
100
AcDbBlockReference
  2
*B108
 10
0.0
 20
0.0
 30
0.0
  0
INSERT
  5
649
100
AcDbEntity
  8
TEXT
  6
Continuous
 62
     0
100
AcDbBlockReference
  2
*B109
 10
0.0
 20
0.0
 30
0.0
  0
INSERT
  5
64E
100
AcDbEntity
  8
TEXT
  6
Continuous
 62
     0
100
AcDbBlockReference
  2
*B110
 10
0.0
 20
0.0
 30
0.0
  0
INSERT
  5
653
100
AcDbEntity
  8
TEXT
  6
Continuous
 62
     0
100
AcDbBlockReference
  2
*B111
 10
0.0
 20
0.0
 30
0.0
  0
INSERT
  5
658
100
AcDbEntity
  8
TEXT
  6
Continuous
 62
     0
100
AcDbBlockReference
  2
*B112
 10
0.0
 20
0.0
 30
0.0
  0
INSERT
  5
65D
100
AcDbEntity
  8
TEXT
  6
Continuous
 62
     0
100
AcDbBlockReference
  2
*B113
 10
0.0
 20
0.0
 30
0.0
  0
INSERT
  5
662
100
AcDbEntity
  8
TEXT
  6
Continuous
 62
     0
100
AcDbBlockReference
  2
*B114
 10
0.0
 20
0.0
 30
0.0
  0
ENDSEC
  0
SECTION
  2
OBJECTS
  0
DICTIONARY
  5
19
100
AcDbDictionary
280
     0
281
     1
  3
ACAD_GROUP
350
1A
  3
ACAD_MLINESTYLE
350
1B
  3
ACAD_LAYOUT
350
1E
  3
ACAD_PLOTSETTINGS
350
22
  3
ACAD_PLOTSTYLENAME
350
1F
  3
ACAD_WIPEOUT_VARS
350
23
  0
DICTIONARY
  5
1A
102
{ACAD_REACTORS
330
19
102
}
100
AcDbDictionary
280
     0
281
     1
  0
DICTIONARY
  5
1B
102
{ACAD_REACTORS
330
19
102
}
100
AcDbDictionary
280
     0
281
     1
  3
Standard
350
1C
  0
MLINESTYLE
  5
1C
102
{ACAD_REACTORS
330
1B
102
}
100
AcDbMlineStyle
  2
Standard
 70
     0
  3

 62
     0
 51
90.0
 52
90.0
 71
     2
 49
0.5
 62
   256
  6
BYLAYER
 49
-0.5
 62
   256
  6
BYLAYER
  0
ACDBDICTIONARYWDFLT
  5
1F
102
{ACAD_REACTORS
330
19
102
}
100
AcDbDictionary
281
     1
  3
Normal
350
1D
100
AcDbDictionaryWithDefault
340
1D
  0
ACDBPLACEHOLDER
  5
1D
102
{ACAD_REACTORS
330
1F
102
}
  0
LAYOUT
  5
20
102
{ACAD_REACTORS
330
1E
102
}
100
AcDbPlotSettings
  1

  2

  4

  6

 40
0.0
 41
0.0
 42
0.0
 43
0.0
 44
0.0
 45
0.0
 46
0.0
 47
0.0
 48
0.0
 49
0.0
140
0.0
141
0.0
142
1.0
143
1.0
 70
     0
 72
     0
 73
     0
 74
     0
  7

 75
     0
147
1.0
148
0.0
149
0.0
100
AcDbLayout
  1
Model
 70
     0
 71
     0
 10
0.0
 20
0.0
 11
0.0
 21
0.0
 12
0.0
 22
0.0
 32
0.0
 14
0.0
 24
0.0
 34
0.0
 15
0.0
 25
0.0
 35
0.0
146
0.0
 13
0.0
 23
0.0
 33
0.0
 16
0.0
 26
0.0
 36
0.0
 17
0.0
 27
0.0
 37
0.0
 76
     0
330
A
331
0
345
0
346
0
  0
LAYOUT
  5
21
102
{ACAD_REACTORS
330
1E
102
}
100
AcDbPlotSettings
  1

  2

  4

  6

 40
0.0
 41
0.0
 42
0.0
 43
0.0
 44
0.0
 45
0.0
 46
0.0
 47
0.0
 48
0.0
 49
0.0
140
0.0
141
0.0
142
1.0
143
1.0
 70
     0
 72
     0
 73
     0
 74
     0
  7

 75
     0
147
1.0
148
0.0
149
0.0
100
AcDbLayout
  1
Layout1
 70
     0
 71
     0
 10
0.0
 20
0.0
 11
0.0
 21
0.0
 12
0.0
 22
0.0
 32
0.0
 14
0.0
 24
0.0
 34
0.0
 15
0.0
 25
0.0
 35
0.0
146
0.0
 13
0.0
 23
0.0
 33
0.0
 16
0.0
 26
0.0
 36
0.0
 17
0.0
 27
0.0
 37
0.0
 76
     0
330
B
331
0
345
0
346
0
  0
DICTIONARY
  5
1E
102
{ACAD_REACTORS
330
19
102
}
100
AcDbDictionary
280
     0
281
     1
  3
Layout1
350
21
  3
Model
350
20
  0
DICTIONARY
  5
22
102
{ACAD_REACTORS
330
19
102
}
100
AcDbDictionary
280
     0
281
     1
  0
WIPEOUTVARIABLES
  5
23
100
AcDbWipeoutVariables
 70
     1
  0
ENDSEC
  0
EOF
