  0
SECTION
  2
HEADER
  9
$ACADVER
  1
AC1015
  9
$ACADMAINTVER
 70
     6
  9
$DWGCODEPAGE
  3
DOS850
  9
$INSBASE
 10
0.0
 20
0.0
 30
0.0
  9
$EXTMIN
 10
0.0
 20
0.0
 30
0.0
  9
$EXTMAX
 10
297.0
 20
210.0
 30
0.0
  9
$LIMMIN
 10
0.0
 20
0.0
  9
$LIMMAX
 10
297.0
 20
210.0
  9
$ORTHOMODE
 70
     0
  9
$REGENMODE
 70
     1
  9
$FILLMODE
 70
     1
  9
$QTEXTMODE
 70
     0
  9
$MIRRTEXT
 70
     1
  9
$LTSCALE
 40
25.4
  9
$ATTMODE
 70
     1
  9
$TEXTSIZE
 40
3.5
  9
$TRACEWID
 40
0.05
  9
$TEXTSTYLE
  7
Standard
  9
$CLAYER
  8
0
  9
$CELTYPE
  6
Continuous
  9
$CECOLOR
 62
   256
  9
$CELTSCALE
 40
1.0
  9
$DISPSILH
 70
     0
  9
$DIMSCALE
 40
1.0
  9
$DIMASZ
 40
5.0
  9
$DIMEXO
 40
3.0
  9
$DIMDLI
 40
0.38
  9
$DIMRND
 40
0.0
  9
$DIMDLE
 40
0.0
  9
$DIMEXE
 40
2.0
  9
$DIMTP
 40
0.0
  9
$DIMTM
 40
0.0
  9
$DIMTXT
 40
3.5
  9
$DIMCEN
 40
4.0
  9
$DIMTSZ
 40
0.0
  9
$DIMTOL
 70
     0
  9
$DIMLIM
 70
     0
  9
$DIMTIH
 70
     1
  9
$DIMTOH
 70
     1
  9
$DIMSE1
 70
     0
  9
$DIMSE2
 70
     0
  9
$DIMTAD
 70
     0
  9
$DIMZIN
 70
     0
  9
$DIMBLK
  1

  9
$DIMASO
 70
     1
  9
$DIMSHO
 70
     1
  9
$DIMPOST
  1

  9
$DIMAPOST
  1

  9
$DIMALT
 70
     0
  9
$DIMALTD
 70
     2
  9
$DIMALTF
 40
25.4
  9
$DIMLFAC
 40
1.0
  9
$DIMTOFL
 70
     0
  9
$DIMTVP
 40
0.0
  9
$DIMTIX
 70
     0
  9
$DIMSOXD
 70
     0
  9
$DIMSAH
 70
     0
  9
$DIMBLK1
  1

  9
$DIMBLK2
  1

  9
$DIMSTYLE
  2
Standard
  9
$DIMCLRD
 70
     0
  9
$DIMCLRE
 70
     0
  9
$DIMCLRT
 70
     0
  9
$DIMTFAC
 40
1.0
  9
$DIMGAP
 40
1.0
  9
$DIMJUST
 70
     0
  9
$DIMSD1
 70
     0
  9
$DIMSD2
 70
     0
  9
$DIMTOLJ
 70
     1
  9
$DIMTZIN
 70
     0
  9
$DIMALTZ
 70
     0
  9
$DIMALTTZ
 70
     0
  9
$DIMUPT
 70
     0
  9
$DIMDEC
 70
     4
  9
$DIMTDEC
 70
     4
  9
$DIMALTU
 70
     2
  9
$DIMALTTD
 70
     2
  9
$DIMTXSTY
  7
Standard
  9
$DIMAUNIT
 70
     0
  9
$DIMADEC
 70
     0
  9
$DIMALTRND
 40
0.0
  9
$DIMAZIN
 70
     0
  9
$DIMDSEP
 70
     0
  9
$DIMATFIT
 70
     3
  9
$DIMFRAC
 70
     0
  9
$DIMLDRBLK
  1

  9
$DIMLUNIT
 70
     2
  9
$DIMLWD
 70
     0
  9
$DIMLWE
 70
     0
  9
$DIMTMOVE
 70
     0
  9
$LUNITS
 70
     2
  9
$LUPREC
 70
     4
  9
$SKETCHINC
 40
0.1
  9
$FILLETRAD
 40
0.0
  9
$AUNITS
 70
     0
  9
$AUPREC
 70
     0
  9
$MENU
  1
acad
  9
$ELEVATION
 40
0.0
  9
$PELEVATION
 40
0.0
  9
$THICKNESS
 40
0.0
  9
$LIMCHECK
 70
     0
  9
$CHAMFERA
 40
0.0
  9
$CHAMFERB
 40
0.0
  9
$CHAMFERC
 40
0.0
  9
$CHAMFERD
 40
0.0
  9
$SKPOLY
 70
     0
  9
$TDCREATE
 40
0.000000000
  9
$TDUCREATE
 40
0.000000000
  9
$TDUPDATE
 40
0.000000000
  9
$TDUUPDATE
 40
0.000000000
  9
$TDINDWG
 40
0.0000000000
  9
$TDUSRTIMER
 40
0.0000000000
  9
$USRTIMER
 70
     1
  9
$ANGBASE
 50
0.0
  9
$ANGDIR
 70
     0
  9
$PDMODE
 70
     0
  9
$PDSIZE
 40
0.0
  9
$PLINEWID
 40
0.0
  9
$SPLFRAME
 70
     0
  9
$SPLINETYPE
 70
     6
  9
$SPLINESEGS
 70
     8
  9
$HANDSEED
  5
4D9
  9
$SURFTAB1
 70
     6
  9
$SURFTAB2
 70
     6
  9
$SURFTYPE
 70
     6
  9
$SURFU
 70
     6
  9
$SURFV
 70
     6
  9
$UCSBASE
  2

  9
$UCSNAME
  2

  9
$UCSORG
 10
0.0
 20
0.0
 30
0.0
  9
$UCSXDIR
 10
1.0
 20
0.0
 30
0.0
  9
$UCSYDIR
 10
0.0
 20
1.0
 30
0.0
  9
$UCSORTHOREF
  2

  9
$UCSORTHOVIEW
 70
     0
  9
$UCSORGTOP
 10
0.0
 20
0.0
 30
0.0
  9
$UCSORGBOTTOM
 10
0.0
 20
0.0
 30
0.0
  9
$UCSORGLEFT
 10
0.0
 20
0.0
 30
0.0
  9
$UCSORGRIGHT
 10
0.0
 20
0.0
 30
0.0
  9
$UCSORGFRONT
 10
0.0
 20
0.0
 30
0.0
  9
$UCSORGBACK
 10
0.0
 20
0.0
 30
0.0
  9
$PUCSBASE
  2

  9
$PUCSNAME
  2

  9
$PUCSORG
 10
0.0
 20
0.0
 30
0.0
  9
$PUCSXDIR
 10
1.0
 20
0.0
 30
0.0
  9
$PUCSYDIR
 10
0.0
 20
1.0
 30
0.0
  9
$PUCSORTHOREF
  2

  9
$PUCSORTHOVIEW
 70
     0
  9
$PUCSORGTOP
 10
0.0
 20
0.0
 30
0.0
  9
$PUCSORGBOTTOM
 10
0.0
 20
0.0
 30
0.0
  9
$PUCSORGLEFT
 10
0.0
 20
0.0
 30
0.0
  9
$PUCSORGRIGHT
 10
0.0
 20
0.0
 30
0.0
  9
$PUCSORGFRONT
 10
0.0
 20
0.0
 30
0.0
  9
$PUCSORGBACK
 10
0.0
 20
0.0
 30
0.0
  9
$USERI1
 70
     0
  9
$USERI2
 70
     0
  9
$USERI3
 70
     0
  9
$USERI4
 70
     0
  9
$USERI5
 70
     0
  9
$USERR1
 40
0.0
  9
$USERR2
 40
0.0
  9
$USERR3
 40
0.0
  9
$USERR4
 40
0.0
  9
$USERR5
 40
0.0
  9
$WORLDVIEW
 70
     1
  9
$SHADEDGE
 70
     3
  9
$SHADEDIF
 70
    70
  9
$TILEMODE
 70
     1
  9
$MAXACTVP
 70
    16
  9
$PINSBASE
 10
0.0
 20
0.0
 30
0.0
  9
$PLIMCHECK
 70
     0
  9
$PEXTMIN
 10
1.000000E+20
 20
1.000000E+20
 30
1.000000E+20
  9
$PEXTMAX
 10
-1.000000E+20
 20
-1.000000E+20
 30
-1.000000E+20
  9
$PLIMMIN
 10
0.0
 20
0.0
  9
$PLIMMAX
 10
297.0
 20
210.0
  9
$UNITMODE
 70
     0
  9
$VISRETAIN
 70
     0
  9
$PLINEGEN
 70
     1
  9
$PSLTSCALE
 70
     0
  9
$TREEDEPTH
 70
  3020
  9
$CMLSTYLE
  2
Standard
  9
$CMLJUST
 70
     0
  9
$CMLSCALE
 40
1.0
  9
$PROXYGRAPHICS
 70
     0
  9
$MEASUREMENT
 70
     0
  9
$CELWEIGHT
370
     0
  9
$ENDCAPS
280
     0
  9
$JOINSTYLE
280
     0
  9
$LWDISPLAY
290
     0
  9
$INSUNITS
 70
     0
  9
$HYPERLINKBASE
  1

  9
$XEDIT
290
     1
  9
$CEPSNTYPE
380
     0
  9
$PSTYLEMODE
290
     0
  9
$FINGERPRINTGUID
  2

  9
$VERSIONGUID
  2

  9
$EXTNAMES
290
     1
  9
$PSVPSCALE
 40
0.0
  0
ENDSEC
  0
SECTION
  2
CLASSES
  0
CLASS
  1
LWPOLYLINE
  2
AcDbPolyline
  3
"AutoCAD"
 90
        0
280
     0
281
     1
  0
CLASS
  1
IMAGE
  2
AcDbRasterImage
  3
ISM
 90
      127
280
     0
281
     1
  0
CLASS
  1
OLE2FRAME
  2
AcDbOle2Frame
  3
""
 90
        0
280
     0
281
     1
  0
CLASS
  1
HATCH
  2
AcDbHatch
  3
"ACAD_SEDONA"
 90
        0
280
     0
281
     1
  0
CLASS
  1
DICTIONARYVAR
  2
AcDbDictionaryVar
  3
"AutoCAD"
 90
        0
280
     0
281
     0
  0
CLASS
  1
RASTERVARIABLES
  2
AcDbRasterVariables
  3
ISM
 90
        0
280
     0
281
     0
  0
CLASS
  1
IMAGEDEF
  2
AcDbRasterImageDef
  3
ISM
 90
        0
280
     0
281
     0
  0
CLASS
  1
IMAGEDEF_REACTOR
  2
AcDbRasterImageDefReactor
  3
ISM
 90
        1
280
     0
281
     0
  0
CLASS
  1
IDBUFFER
  2
AcDbIdBuffer
  3
"Acad"
 90
        0
280
     0
281
     0
  0
CLASS
  1
SPATIAL_FILTER
  2
AcDbSpatialFilter
  3
"Acad"
 90
        0
280
     0
281
     0
  0
CLASS
  1
XRECORD
  2
AcDbXrecord
  3
"<Built In>"
 90
        0
280
     0
281
     0
  0
CLASS
  1
SORTENTSTABLE
  2
AcDbSortentsTable
  3
"AutoCAD"
 90
        0
280
     0
281
     0
  0
CLASS
  1
LAYER_INDEX
  2
AcDbLayerIndex
  3
"Acad"
 90
        0
280
     0
281
     0
  0
CLASS
  1
SPATIAL_INDEX
  2
AcDbSpatialIndex
  3
"Acad"
 90
        0
280
     0
281
     0
  0
CLASS
  1
OBJECT_PTR
  2
CAseDLPNTableRecord
  3
"ASE-LPNTableRecord"
 90
        1
280
     0
281
     0
  0
CLASS
  1
LAYOUT
  2
AcDbLayout
  3
"AutoCAD 2000"
 90
        1
280
     0
281
     0
  0
CLASS
  1
PLOTSETTINGS
  2
AcDbPlotSettings
  3
"AutoCAD 2000"
 90
        1
280
     0
281
     0
  0
CLASS
  1
ACDBDICTIONARYWDFLT
  2
AcDbDictionaryWithDefault
  3
"AutoCAD 2000"
 90
        1
280
     0
281
     0
  0
CLASS
  1
ACDBPLACEHOLDER
  2
AcDbPlaceHolder
  3
"AutoCAD 2000"
 90
        1
280
     0
281
     0
  0
CLASS
  1
VBA_PROJECT
  2
AcDbVbaProject
  3
"acadvba"
 90
        1
280
     0
281
     0
  0
CLASS
  1
WIPEOUT
  2
AcDbWipeout
  3
WipeOut|AutoCAD Express Tool|expresstools@autodesk.com
 90
      127
280
     0
281
     1
  0
CLASS
  1
WIPEOUTVARIABLES
  2
AcDbWipeoutVariables
  3
WipeOut|AutoCAD Express Tool|expresstools@autodesk.com
 90
        0
280
     0
281
     0
  0
CLASS
  1
RTEXT
  2
RText
  3
RText|AutoCAD Express Tool|expresstools@autodesk.com
 90
        0
280
     0
281
     1
  0
CLASS
  1
ARCALIGNEDTEXT
  2
AcDbArcAlignedText
  3
ATEXT|AutoCAD Express Tool|expresstools@autodesk.com
 90
        0
280
     0
281
     1
  0
ENDSEC
  0
SECTION
  2
TABLES
  0
TABLE
  2
VPORT
  5
7
100
AcDbSymbolTable
 70
     1
  0
VPORT
  5
15
100
AcDbSymbolTableRecord
100
AcDbViewportTableRecord
  2
*ACTIVE
 70
     0
 10
0.0
 20
0.0
 11
1.0
 21
1.0
 12
6.591288
 22
4.579184
 13
0.0
 23
0.0
 14
1.0
 24
1.0
 15
0.0
 25
0.0
 16
0.0
 26
0.0
 36
1.0
 17
0.0
 27
0.0
 37
0.0
 40
9.158369
 41
0.688564
 42
50.0
 43
0.0
 44
0.0
 50
0.0
 51
0.0
 71
     0
 72
   100
 73
     1
 74
     1
 75
     0
 76
     0
 77
     0
 78
     0
281
     0
 65
     0
110
0.0
120
0.0
130
0.0
111
1.0
121
0.0
131
0.0
112
0.0
122
1.0
132
0.0
345
0
346
0
 79
     0
146
0.0
  0
ENDTAB
  0
TABLE
  2
LTYPE
  5
4
100
AcDbSymbolTable
 70
     7
  0
LTYPE
  5
11
100
AcDbSymbolTableRecord
100
AcDbLinetypeTableRecord
  2
ByBlock
 70
    64
  3

 72
    65
 73
     0
 40
0.0
  0
LTYPE
  5
12
100
AcDbSymbolTableRecord
100
AcDbLinetypeTableRecord
  2
ByLayer
 70
    64
  3

 72
    65
 73
     0
 40
0.0
  0
LTYPE
  5
13
100
AcDbSymbolTableRecord
100
AcDbLinetypeTableRecord
  2
Continuous
 70
    64
  3
Solid line
 72
    65
 73
     0
 40
0.0
  0
LTYPE
  5
24
100
AcDbSymbolTableRecord
100
AcDbLinetypeTableRecord
  2
HIDDEN
 70
    64
  3
_ _ _ _ _ _ _ _ _ _ _ _ _ _ _ _ _ _ _ _ _ _ _ _
 72
    65
 73
     2
 40
0.1875
 49
0.125
 74
     0
 49
-0.0625
 74
     0
  0
LTYPE
  5
25
100
AcDbSymbolTableRecord
100
AcDbLinetypeTableRecord
  2
DOTTED
 70
    64
  3
...............................................
 72
    65
 73
     2
 40
0.125
 49
0.0
 74
     0
 49
-0.125
 74
     0
  0
LTYPE
  5
26
100
AcDbSymbolTableRecord
100
AcDbLinetypeTableRecord
  2
CENTER
 70
    64
  3
____ _ ____ _ ____ _ ____ _ ____ _ ____ _ ____ 
 72
    65
 73
     4
 40
1.125
 49
0.75
 74
     0
 49
-0.125
 74
     0
 49
0.125
 74
     0
 49
-0.125
 74
     0
  0
LTYPE
  5
27
100
AcDbSymbolTableRecord
100
AcDbLinetypeTableRecord
  2
PHANTOM
 70
    64
  3
______  __  __  ______  __  __  ______  __  __ 
 72
    65
 73
     6
 40
1.25
 49
0.625
 74
     0
 49
-0.125
 74
     0
 49
0.125
 74
     0
 49
-0.125
 74
     0
 49
0.125
 74
     0
 49
-0.125
 74
     0
  0
ENDTAB
  0
TABLE
  2
LAYER
  5
2
100
AcDbSymbolTable
 70
     2
  0
LAYER
  5
14
100
AcDbSymbolTableRecord
100
AcDbLayerTableRecord
  2
0
 70
     0
 62
     7
  6
Continuous
290
     1
370
    -3
390
1D
  0
LAYER
  5
28
100
AcDbSymbolTableRecord
100
AcDbLayerTableRecord
  2
TEXT
 70
     0
 62
     8
  6
Continuous
290
     1
370
    -3
390
1F
  0
ENDTAB
  0
TABLE
  2
STYLE
  5
3
100
AcDbSymbolTable
 70
     1
  0
STYLE
  5
17
100
AcDbSymbolTableRecord
100
AcDbTextStyleTableRecord
  2
Standard
 70
     0
 40
0.0
 41
1.0
 50
0.0
 71
     0
 42
0.0
  3
txt
  4

  0
ENDTAB
  0
TABLE
  2
VIEW
  5
5
100
AcDbSymbolTable
 70
     0
  0
ENDTAB
  0
TABLE
  2
UCS
  5
6
100
AcDbSymbolTable
 70
     0
  0
ENDTAB
  0
TABLE
  2
APPID
  5
8
100
AcDbSymbolTable
 70
     1
  0
APPID
  5
16
100
AcDbSymbolTableRecord
100
AcDbRegAppTableRecord
  2
ACAD
 70
     0
  0
ENDTAB
  0
TABLE
  2
DIMSTYLE
  5
9
100
AcDbSymbolTable
 70
     1
100
AcDbDimStyleTable
 71
     0
  0
DIMSTYLE
105
18
100
AcDbSymbolTableRecord
100
AcDbDimStyleTableRecord
  2
Standard
 70
     0
  3

  4

 40
1.0
 41
0.18
 42
0.0625
 43
0.38
 44
0.18
 45
0.0
 46
0.0
 47
0.0
 48
0.0
 71
     0
 72
     0
 73
     1
 74
     1
 75
     0
 76
     0
 77
     0
 78
     0
 79
     0
140
0.18
141
0.09
142
0.0
143
25.4
144
1.0
145
0.0
146
1.0
147
0.09
148
0.0
170
     0
171
     2
172
     0
173
     0
174
     0
175
     0
176
     0
177
     0
178
     0
179
     0
271
     4
272
     4
273
     2
274
     2
275
     0
276
     0
277
     2
278
    46
279
     0
280
     0
281
     0
282
     0
283
     1
284
     0
285
     0
286
     0
288
     0
340
17
341
0
342
0
343
0
344
0
371
    -2
372
    -2
  0
ENDTAB
  0
TABLE
  2
BLOCK_RECORD
  5
1
100
AcDbSymbolTable
 70
   104
  0
BLOCK_RECORD
  5
A
100
AcDbSymbolTableRecord
100
AcDbBlockTableRecord
  2
*MODEL_SPACE
340
20
  0
BLOCK_RECORD
  5
B
100
AcDbSymbolTableRecord
100
AcDbBlockTableRecord
  2
*PAPER_SPACE
340
21
  0
BLOCK_RECORD
  5
29
100
AcDbSymbolTableRecord
100
AcDbBlockTableRecord
  2
*B0
340
0
  0
BLOCK_RECORD
  5
2C
100
AcDbSymbolTableRecord
100
AcDbBlockTableRecord
  2
*B1
340
0
  0
BLOCK_RECORD
  5
152
100
AcDbSymbolTableRecord
100
AcDbBlockTableRecord
  2
*B2
340
0
  0
BLOCK_RECORD
  5
20C
100
AcDbSymbolTableRecord
100
AcDbBlockTableRecord
  2
*B3
340
0
  0
BLOCK_RECORD
  5
212
100
AcDbSymbolTableRecord
100
AcDbBlockTableRecord
  2
*B4
340
0
  0
BLOCK_RECORD
  5
21D
100
AcDbSymbolTableRecord
100
AcDbBlockTableRecord
  2
*B5
340
0
  0
BLOCK_RECORD
  5
220
100
AcDbSymbolTableRecord
100
AcDbBlockTableRecord
  2
*B6
340
0
  0
BLOCK_RECORD
  5
226
100
AcDbSymbolTableRecord
100
AcDbBlockTableRecord
  2
*B7
340
0
  0
BLOCK_RECORD
  5
231
100
AcDbSymbolTableRecord
100
AcDbBlockTableRecord
  2
*B8
340
0
  0
BLOCK_RECORD
  5
234
100
AcDbSymbolTableRecord
100
AcDbBlockTableRecord
  2
*B9
340
0
  0
BLOCK_RECORD
  5
23B
100
AcDbSymbolTableRecord
100
AcDbBlockTableRecord
  2
*B10
340
0
  0
BLOCK_RECORD
  5
242
100
AcDbSymbolTableRecord
100
AcDbBlockTableRecord
  2
*B11
340
0
  0
BLOCK_RECORD
  5
249
100
AcDbSymbolTableRecord
100
AcDbBlockTableRecord
  2
*B12
340
0
  0
BLOCK_RECORD
  5
250
100
AcDbSymbolTableRecord
100
AcDbBlockTableRecord
  2
*B13
340
0
  0
BLOCK_RECORD
  5
257
100
AcDbSymbolTableRecord
100
AcDbBlockTableRecord
  2
*B14
340
0
  0
BLOCK_RECORD
  5
25E
100
AcDbSymbolTableRecord
100
AcDbBlockTableRecord
  2
*B15
340
0
  0
BLOCK_RECORD
  5
265
100
AcDbSymbolTableRecord
100
AcDbBlockTableRecord
  2
*B16
340
0
  0
BLOCK_RECORD
  5
26C
100
AcDbSymbolTableRecord
100
AcDbBlockTableRecord
  2
*B17
340
0
  0
BLOCK_RECORD
  5
273
100
AcDbSymbolTableRecord
100
AcDbBlockTableRecord
  2
*B18
340
0
  0
BLOCK_RECORD
  5
27A
100
AcDbSymbolTableRecord
100
AcDbBlockTableRecord
  2
*B19
340
0
  0
BLOCK_RECORD
  5
281
100
AcDbSymbolTableRecord
100
AcDbBlockTableRecord
  2
*B20
340
0
  0
BLOCK_RECORD
  5
288
100
AcDbSymbolTableRecord
100
AcDbBlockTableRecord
  2
*B21
340
0
  0
BLOCK_RECORD
  5
28F
100
AcDbSymbolTableRecord
100
AcDbBlockTableRecord
  2
*B22
340
0
  0
BLOCK_RECORD
  5
296
100
AcDbSymbolTableRecord
100
AcDbBlockTableRecord
  2
*B23
340
0
  0
BLOCK_RECORD
  5
29D
100
AcDbSymbolTableRecord
100
AcDbBlockTableRecord
  2
*B24
340
0
  0
BLOCK_RECORD
  5
2A4
100
AcDbSymbolTableRecord
100
AcDbBlockTableRecord
  2
*B25
340
0
  0
BLOCK_RECORD
  5
2AA
100
AcDbSymbolTableRecord
100
AcDbBlockTableRecord
  2
*B26
340
0
  0
BLOCK_RECORD
  5
2B0
100
AcDbSymbolTableRecord
100
AcDbBlockTableRecord
  2
*B27
340
0
  0
BLOCK_RECORD
  5
2B5
100
AcDbSymbolTableRecord
100
AcDbBlockTableRecord
  2
*B28
340
0
  0
BLOCK_RECORD
  5
2BA
100
AcDbSymbolTableRecord
100
AcDbBlockTableRecord
  2
*B29
340
0
  0
BLOCK_RECORD
  5
2C5
100
AcDbSymbolTableRecord
100
AcDbBlockTableRecord
  2
*B30
340
0
  0
BLOCK_RECORD
  5
2CF
100
AcDbSymbolTableRecord
100
AcDbBlockTableRecord
  2
*B31
340
0
  0
BLOCK_RECORD
  5
2DA
100
AcDbSymbolTableRecord
100
AcDbBlockTableRecord
  2
*B32
340
0
  0
BLOCK_RECORD
  5
2E0
100
AcDbSymbolTableRecord
100
AcDbBlockTableRecord
  2
*B33
340
0
  0
BLOCK_RECORD
  5
307
100
AcDbSymbolTableRecord
100
AcDbBlockTableRecord
  2
*B34
340
0
  0
BLOCK_RECORD
  5
30C
100
AcDbSymbolTableRecord
100
AcDbBlockTableRecord
  2
*B35
340
0
  0
BLOCK_RECORD
  5
311
100
AcDbSymbolTableRecord
100
AcDbBlockTableRecord
  2
*B36
340
0
  0
BLOCK_RECORD
  5
317
100
AcDbSymbolTableRecord
100
AcDbBlockTableRecord
  2
*B37
340
0
  0
BLOCK_RECORD
  5
31D
100
AcDbSymbolTableRecord
100
AcDbBlockTableRecord
  2
*B38
340
0
  0
BLOCK_RECORD
  5
323
100
AcDbSymbolTableRecord
100
AcDbBlockTableRecord
  2
*B39
340
0
  0
BLOCK_RECORD
  5
32D
100
AcDbSymbolTableRecord
100
AcDbBlockTableRecord
  2
*B40
340
0
  0
BLOCK_RECORD
  5
333
100
AcDbSymbolTableRecord
100
AcDbBlockTableRecord
  2
*B41
340
0
  0
BLOCK_RECORD
  5
342
100
AcDbSymbolTableRecord
100
AcDbBlockTableRecord
  2
*B42
340
0
  0
BLOCK_RECORD
  5
347
100
AcDbSymbolTableRecord
100
AcDbBlockTableRecord
  2
*B43
340
0
  0
BLOCK_RECORD
  5
350
100
AcDbSymbolTableRecord
100
AcDbBlockTableRecord
  2
*B44
340
0
  0
BLOCK_RECORD
  5
355
100
AcDbSymbolTableRecord
100
AcDbBlockTableRecord
  2
*B45
340
0
  0
BLOCK_RECORD
  5
35A
100
AcDbSymbolTableRecord
100
AcDbBlockTableRecord
  2
*B46
340
0
  0
BLOCK_RECORD
  5
35F
100
AcDbSymbolTableRecord
100
AcDbBlockTableRecord
  2
*B47
340
0
  0
BLOCK_RECORD
  5
364
100
AcDbSymbolTableRecord
100
AcDbBlockTableRecord
  2
*B48
340
0
  0
BLOCK_RECORD
  5
36F
100
AcDbSymbolTableRecord
100
AcDbBlockTableRecord
  2
*B49
340
0
  0
BLOCK_RECORD
  5
374
100
AcDbSymbolTableRecord
100
AcDbBlockTableRecord
  2
*B50
340
0
  0
BLOCK_RECORD
  5
379
100
AcDbSymbolTableRecord
100
AcDbBlockTableRecord
  2
*B51
340
0
  0
BLOCK_RECORD
  5
388
100
AcDbSymbolTableRecord
100
AcDbBlockTableRecord
  2
*B52
340
0
  0
BLOCK_RECORD
  5
38D
100
AcDbSymbolTableRecord
100
AcDbBlockTableRecord
  2
*B53
340
0
  0
BLOCK_RECORD
  5
393
100
AcDbSymbolTableRecord
100
AcDbBlockTableRecord
  2
*B54
340
0
  0
BLOCK_RECORD
  5
39C
100
AcDbSymbolTableRecord
100
AcDbBlockTableRecord
  2
*B55
340
0
  0
BLOCK_RECORD
  5
3A6
100
AcDbSymbolTableRecord
100
AcDbBlockTableRecord
  2
*B56
340
0
  0
BLOCK_RECORD
  5
3AC
100
AcDbSymbolTableRecord
100
AcDbBlockTableRecord
  2
*B57
340
0
  0
BLOCK_RECORD
  5
3B1
100
AcDbSymbolTableRecord
100
AcDbBlockTableRecord
  2
*B58
340
0
  0
BLOCK_RECORD
  5
3B7
100
AcDbSymbolTableRecord
100
AcDbBlockTableRecord
  2
*B59
340
0
  0
BLOCK_RECORD
  5
3BC
100
AcDbSymbolTableRecord
100
AcDbBlockTableRecord
  2
*B60
340
0
  0
BLOCK_RECORD
  5
3C1
100
AcDbSymbolTableRecord
100
AcDbBlockTableRecord
  2
*B61
340
0
  0
BLOCK_RECORD
  5
3F2
100
AcDbSymbolTableRecord
100
AcDbBlockTableRecord
  2
*B62
340
0
  0
BLOCK_RECORD
  5
3FF
100
AcDbSymbolTableRecord
100
AcDbBlockTableRecord
  2
*B63
340
0
  0
BLOCK_RECORD
  5
405
100
AcDbSymbolTableRecord
100
AcDbBlockTableRecord
  2
*B64
340
0
  0
BLOCK_RECORD
  5
40B
100
AcDbSymbolTableRecord
100
AcDbBlockTableRecord
  2
*B65
340
0
  0
BLOCK_RECORD
  5
411
100
AcDbSymbolTableRecord
100
AcDbBlockTableRecord
  2
*B66
340
0
  0
BLOCK_RECORD
  5
417
100
AcDbSymbolTableRecord
100
AcDbBlockTableRecord
  2
*B67
340
0
  0
BLOCK_RECORD
  5
41D
100
AcDbSymbolTableRecord
100
AcDbBlockTableRecord
  2
*B68
340
0
  0
BLOCK_RECORD
  5
423
100
AcDbSymbolTableRecord
100
AcDbBlockTableRecord
  2
*B69
340
0
  0
BLOCK_RECORD
  5
429
100
AcDbSymbolTableRecord
100
AcDbBlockTableRecord
  2
*B70
340
0
  0
BLOCK_RECORD
  5
42F
100
AcDbSymbolTableRecord
100
AcDbBlockTableRecord
  2
*B71
340
0
  0
BLOCK_RECORD
  5
435
100
AcDbSymbolTableRecord
100
AcDbBlockTableRecord
  2
*B72
340
0
  0
BLOCK_RECORD
  5
43B
100
AcDbSymbolTableRecord
100
AcDbBlockTableRecord
  2
*B73
340
0
  0
BLOCK_RECORD
  5
441
100
AcDbSymbolTableRecord
100
AcDbBlockTableRecord
  2
*B74
340
0
  0
BLOCK_RECORD
  5
447
100
AcDbSymbolTableRecord
100
AcDbBlockTableRecord
  2
*B75
340
0
  0
BLOCK_RECORD
  5
44D
100
AcDbSymbolTableRecord
100
AcDbBlockTableRecord
  2
*B76
340
0
  0
BLOCK_RECORD
  5
452
100
AcDbSymbolTableRecord
100
AcDbBlockTableRecord
  2
*B77
340
0
  0
BLOCK_RECORD
  5
457
100
AcDbSymbolTableRecord
100
AcDbBlockTableRecord
  2
*B78
340
0
  0
BLOCK_RECORD
  5
45C
100
AcDbSymbolTableRecord
100
AcDbBlockTableRecord
  2
*B79
340
0
  0
BLOCK_RECORD
  5
461
100
AcDbSymbolTableRecord
100
AcDbBlockTableRecord
  2
*B80
340
0
  0
BLOCK_RECORD
  5
466
100
AcDbSymbolTableRecord
100
AcDbBlockTableRecord
  2
*B81
340
0
  0
BLOCK_RECORD
  5
46B
100
AcDbSymbolTableRecord
100
AcDbBlockTableRecord
  2
*B82
340
0
  0
BLOCK_RECORD
  5
470
100
AcDbSymbolTableRecord
100
AcDbBlockTableRecord
  2
*B83
340
0
  0
BLOCK_RECORD
  5
475
100
AcDbSymbolTableRecord
100
AcDbBlockTableRecord
  2
*B84
340
0
  0
BLOCK_RECORD
  5
47A
100
AcDbSymbolTableRecord
100
AcDbBlockTableRecord
  2
*B85
340
0
  0
BLOCK_RECORD
  5
47F
100
AcDbSymbolTableRecord
100
AcDbBlockTableRecord
  2
*B86
340
0
  0
BLOCK_RECORD
  5
484
100
AcDbSymbolTableRecord
100
AcDbBlockTableRecord
  2
*B87
340
0
  0
BLOCK_RECORD
  5
489
100
AcDbSymbolTableRecord
100
AcDbBlockTableRecord
  2
*B88
340
0
  0
BLOCK_RECORD
  5
48E
100
AcDbSymbolTableRecord
100
AcDbBlockTableRecord
  2
*B89
340
0
  0
BLOCK_RECORD
  5
493
100
AcDbSymbolTableRecord
100
AcDbBlockTableRecord
  2
*B90
340
0
  0
BLOCK_RECORD
  5
498
100
AcDbSymbolTableRecord
100
AcDbBlockTableRecord
  2
*B91
340
0
  0
BLOCK_RECORD
  5
49D
100
AcDbSymbolTableRecord
100
AcDbBlockTableRecord
  2
*B92
340
0
  0
BLOCK_RECORD
  5
4A2
100
AcDbSymbolTableRecord
100
AcDbBlockTableRecord
  2
*B93
340
0
  0
BLOCK_RECORD
  5
4A7
100
AcDbSymbolTableRecord
100
AcDbBlockTableRecord
  2
*B94
340
0
  0
BLOCK_RECORD
  5
4AC
100
AcDbSymbolTableRecord
100
AcDbBlockTableRecord
  2
*B95
340
0
  0
BLOCK_RECORD
  5
4B1
100
AcDbSymbolTableRecord
100
AcDbBlockTableRecord
  2
*B96
340
0
  0
BLOCK_RECORD
  5
4B6
100
AcDbSymbolTableRecord
100
AcDbBlockTableRecord
  2
*B97
340
0
  0
BLOCK_RECORD
  5
4BB
100
AcDbSymbolTableRecord
100
AcDbBlockTableRecord
  2
*B98
340
0
  0
BLOCK_RECORD
  5
4C0
100
AcDbSymbolTableRecord
100
AcDbBlockTableRecord
  2
*B99
340
0
  0
BLOCK_RECORD
  5
4C5
100
AcDbSymbolTableRecord
100
AcDbBlockTableRecord
  2
*B100
340
0
  0
BLOCK_RECORD
  5
4CA
100
AcDbSymbolTableRecord
100
AcDbBlockTableRecord
  2
*B101
340
0
  0
BLOCK_RECORD
  5
4CF
100
AcDbSymbolTableRecord
100
AcDbBlockTableRecord
  2
*B102
340
0
  0
BLOCK_RECORD
  5
4D4
100
AcDbSymbolTableRecord
100
AcDbBlockTableRecord
  2
*B103
340
0
  0
ENDTAB
  0
ENDSEC
  0
SECTION
  2
BLOCKS
  0
BLOCK
  5
D
100
AcDbEntity
  8
0
100
AcDbBlockBegin
  2
*MODEL_SPACE
 70
     0
 10
0.0
 20
0.0
 30
0.0
  3
*MODEL_SPACE
  1

  0
ENDBLK
  5
E
100
AcDbEntity
  8
0
100
AcDbBlockEnd
  0
BLOCK
  5
F
100
AcDbEntity
 67
     1
  8
0
100
AcDbBlockBegin
  2
*PAPER_SPACE
 70
     0
 10
0.0
 20
0.0
 30
0.0
  3
*PAPER_SPACE
  1

  0
ENDBLK
  5
10
100
AcDbEntity
 67
     1
  8
0
100
AcDbBlockEnd
  0
BLOCK
  5
2A
100
AcDbEntity
  8
0
100
AcDbBlockBegin
  2
*B0
 70
     0
 10
0.0
 20
0.0
 30
0.0
  3
*B0
  1

  0
ENDBLK
  5
2B
100
AcDbEntity
  8
0
100
AcDbBlockEnd
  0
BLOCK
  5
2D
100
AcDbEntity
  8
0
100
AcDbBlockBegin
  2
*B1
 70
     0
 10
0.0
 20
0.0
 30
0.0
  3
*B1
  1

  0
LINE
  5
2E
100
AcDbEntity
  8
0
  6
HIDDEN
 62
   174
100
AcDbLine
 10
52.850708
 20
158.778376
 30
0.0
 11
55.957888
 21
158.778376
 31
0.0
  0
LINE
  5
2F
100
AcDbEntity
  8
0
  6
Continuous
 62
   174
100
AcDbLine
 10
251.465068
 20
158.778376
 30
0.0
 11
248.357888
 21
158.778376
 31
0.0
  0
LINE
  5
30
100
AcDbEntity
  8
0
  6
HIDDEN
 62
   174
100
AcDbLine
 10
52.850708
 20
167.622158
 30
0.0
 11
55.957888
 21
167.622158
 31
0.0
  0
LINE
  5
31
100
AcDbEntity
  8
0
  6
Continuous
 62
   174
100
AcDbLine
 10
70.157888
 20
135.190267
 30
0.0
 11
63.457888
 21
135.190267
 31
0.0
  0
LINE
  5
32
100
AcDbEntity
  8
0
  6
Continuous
 62
   174
100
AcDbLine
 10
251.465068
 20
167.622158
 30
0.0
 11
248.357888
 21
167.622158
 31
0.0
  0
LINE
  5
33
100
AcDbEntity
  8
0
  6
Continuous
 62
   174
100
AcDbLine
 10
240.857888
 20
135.190267
 30
0.0
 11
234.157888
 21
135.190267
 31
0.0
  0
LINE
  5
34
100
AcDbEntity
  8
0
  6
Continuous
 62
   174
100
AcDbLine
 10
55.957888
 20
172.208215
 30
0.0
 11
55.957888
 21
172.20864
 31
0.0
  0
LINE
  5
35
100
AcDbEntity
  8
0
  6
Continuous
 62
   174
100
AcDbLine
 10
248.357888
 20
172.20864
 30
0.0
 11
248.357888
 21
167.630965
 31
0.0
  0
LINE
  5
36
100
AcDbEntity
  8
0
  6
Continuous
 62
   174
100
AcDbLine
 10
55.957888
 20
167.786677
 30
0.0
 11
55.957888
 21
172.208215
 31
0.0
  0
LINE
  5
37
100
AcDbEntity
  8
0
  6
Continuous
 62
   174
100
AcDbLine
 10
55.957888
 20
158.631753
 30
0.0
 11
55.957888
 21
167.786677
 31
0.0
  0
LINE
  5
38
100
AcDbEntity
  8
0
  6
Continuous
 62
   174
100
AcDbLine
 10
55.957888
 20
154.210215
 30
0.0
 11
55.957888
 21
158.631753
 31
0.0
  0
LINE
  5
39
100
AcDbEntity
  8
0
  6
Continuous
 62
   174
100
AcDbLine
 10
55.957888
 20
154.20979
 30
0.0
 11
55.957888
 21
154.210215
 31
0.0
  0
LINE
  5
3A
100
AcDbEntity
  8
0
  6
Continuous
 62
   174
100
AcDbLine
 10
248.357888
 20
158.787677
 30
0.0
 11
248.357888
 21
154.20979
 31
0.0
  0
LINE
  5
3B
100
AcDbEntity
  8
0
  6
HIDDEN
 62
   174
100
AcDbLine
 10
89.425997
 20
171.180267
 30
0.0
 11
82.926034
 21
171.180267
 31
0.0
  0
LINE
  5
3C
100
AcDbEntity
  8
0
  6
HIDDEN
 62
   174
100
AcDbLine
 10
63.457888
 20
135.077772
 30
0.0
 11
70.157888
 21
135.077772
 31
0.0
  0
LINE
  5
3D
100
AcDbEntity
  8
0
  6
HIDDEN
 62
   174
100
AcDbLine
 10
240.857888
 20
115.322762
 30
0.0
 11
234.157888
 21
115.322762
 31
0.0
  0
ARC
  5
3E
100
AcDbEntity
  8
0
  6
Continuous
 62
   174
100
AcDbCircle
 10
97.657888
 20
168.200267
 30
0.0
 40
3.0
100
AcDbArc
 50
0.0
 51
90.0
  0
LINE
  5
3F
100
AcDbEntity
  8
0
  6
HIDDEN
 62
   174
100
AcDbLine
 10
146.282888
 20
117.200267
 30
0.0
 11
146.282888
 21
105.200267
 31
0.0
  0
LINE
  5
40
100
AcDbEntity
  8
0
  6
HIDDEN
 62
   174
100
AcDbLine
 10
145.595927
 20
115.200267
 30
0.0
 11
158.756025
 21
115.200267
 31
0.0
  0
LINE
  5
41
100
AcDbEntity
  8
0
  6
HIDDEN
 62
   174
100
AcDbLine
 10
168.282888
 20
117.200267
 30
0.0
 11
168.282888
 21
105.200267
 31
0.0
  0
LINE
  5
42
100
AcDbEntity
  8
0
  6
HIDDEN
 62
   174
100
AcDbLine
 10
180.737888
 20
105.200267
 30
0.0
 11
180.737888
 21
115.200267
 31
0.0
  0
LINE
  5
43
100
AcDbEntity
  8
0
  6
HIDDEN
 62
   174
100
AcDbLine
 10
167.595914
 20
115.200267
 30
0.0
 11
180.756012
 21
115.200267
 31
0.0
  0
LINE
  5
44
100
AcDbEntity
  8
0
  6
HIDDEN
 62
   174
100
AcDbLine
 10
240.857888
 20
131.1276
 30
0.0
 11
234.157888
 21
131.1276
 31
0.0
  0
LINE
  5
45
100
AcDbEntity
  8
0
  6
Continuous
 62
   174
100
AcDbLine
 10
244.657888
 20
155.209702
 30
0.0
 11
244.657888
 21
163.209215
 31
0.0
  0
LINE
  5
46
100
AcDbEntity
  8
0
  6
Continuous
 62
   174
100
AcDbLine
 10
74.657888
 20
168.200267
 30
0.0
 11
74.657888
 21
142.200267
 31
0.0
  0
LINE
  5
47
100
AcDbEntity
  8
0
  6
Continuous
 62
   174
100
AcDbLine
 10
70.157888
 20
115.324516
 30
0.0
 11
70.157888
 21
115.211928
 31
0.0
  0
LINE
  5
48
100
AcDbEntity
  8
0
  6
Continuous
 62
   174
100
AcDbLine
 10
234.157888
 20
115.211928
 30
0.0
 11
234.157888
 21
115.324516
 31
0.0
  0
LINE
  5
49
100
AcDbEntity
  8
0
  6
Continuous
 62
   174
100
AcDbLine
 10
240.857888
 20
133.241835
 30
0.0
 11
234.157888
 21
133.241835
 31
0.0
  0
LINE
  5
4A
100
AcDbEntity
  8
0
  6
HIDDEN
 62
   174
100
AcDbLine
 10
63.457888
 20
131.1276
 30
0.0
 11
70.157888
 21
131.1276
 31
0.0
  0
LINE
  5
4B
100
AcDbEntity
  8
0
  6
HIDDEN
 62
   174
100
AcDbLine
 10
124.300999
 20
117.200267
 30
0.0
 11
136.05098
 21
117.200267
 31
0.0
  0
LINE
  5
4C
100
AcDbEntity
  8
0
  6
HIDDEN
 62
   174
100
AcDbLine
 10
158.032888
 20
105.200267
 30
0.0
 11
158.032888
 21
117.200267
 31
0.0
  0
LINE
  5
4D
100
AcDbEntity
  8
0
  6
Continuous
 62
   174
100
AcDbLine
 10
229.657888
 20
171.208727
 30
0.0
 11
229.657888
 21
168.20899
 31
0.0
  0
LINE
  5
4E
100
AcDbEntity
  8
0
  6
Continuous
 62
   174
100
AcDbLine
 10
232.676049
 20
168.200267
 30
0.0
 11
229.675886
 21
168.200267
 31
0.0
  0
LINE
  5
4F
100
AcDbEntity
  8
0
  6
HIDDEN
 62
   174
100
AcDbLine
 10
192.657888
 20
143.200267
 30
0.0
 11
192.657888
 21
143.180267
 31
0.0
  0
LINE
  5
50
100
AcDbEntity
  8
0
  6
Continuous
 62
   174
100
AcDbLine
 10
59.657888
 20
171.208727
 30
0.0
 11
59.657888
 21
155.209702
 31
0.0
  0
LINE
  5
51
100
AcDbEntity
  8
0
  6
Continuous
 62
   174
100
AcDbLine
 10
244.657888
 20
163.209215
 30
0.0
 11
244.657888
 21
171.208727
 31
0.0
  0
LINE
  5
52
100
AcDbEntity
  8
0
  6
HIDDEN
 62
   174
100
AcDbLine
 10
101.257888
 20
130.200267
 30
0.0
 11
101.157888
 21
130.200267
 31
0.0
  0
LINE
  5
53
100
AcDbEntity
  8
0
  6
Continuous
 62
   174
100
AcDbLine
 10
63.457888
 20
123.705277
 30
0.0
 11
70.157888
 21
123.705277
 31
0.0
  0
LINE
  5
54
100
AcDbEntity
  8
0
  6
Continuous
 62
   174
100
AcDbLine
 10
63.457888
 20
133.241835
 30
0.0
 11
70.157888
 21
133.241835
 31
0.0
  0
LINE
  5
55
100
AcDbEntity
  8
0
  6
Continuous
 62
   174
100
AcDbLine
 10
63.457888
 20
126.695257
 30
0.0
 11
70.157888
 21
126.695257
 31
0.0
  0
LINE
  5
56
100
AcDbEntity
  8
0
  6
HIDDEN
 62
   174
100
AcDbLine
 10
180.032888
 20
105.200267
 30
0.0
 11
180.032888
 21
117.200267
 31
0.0
  0
LINE
  5
57
100
AcDbEntity
  8
0
  6
HIDDEN
 62
   174
100
AcDbLine
 10
111.657888
 20
143.200267
 30
0.0
 11
111.657888
 21
143.180267
 31
0.0
  0
LINE
  5
58
100
AcDbEntity
  8
0
  6
Continuous
 62
   174
100
AcDbLine
 10
74.676066
 20
168.200267
 30
0.0
 11
71.676116
 21
168.200267
 31
0.0
  0
LINE
  5
59
100
AcDbEntity
  8
0
  6
Continuous
 62
   174
100
AcDbLine
 10
206.657888
 20
171.200267
 30
0.0
 11
229.657888
 21
171.200267
 31
0.0
  0
LINE
  5
5A
100
AcDbEntity
  8
0
  6
Continuous
 62
   174
100
AcDbLine
 10
240.857888
 20
117.158699
 30
0.0
 11
234.157888
 21
117.158699
 31
0.0
  0
LINE
  5
5B
100
AcDbEntity
  8
0
  6
Continuous
 62
   174
100
AcDbLine
 10
234.157888
 20
117.162681
 30
0.0
 11
234.157888
 21
119.277856
 31
0.0
  0
LINE
  5
5C
100
AcDbEntity
  8
0
  6
HIDDEN
 62
   174
100
AcDbLine
 10
206.657888
 20
142.200267
 30
0.0
 11
206.657888
 21
168.200267
 31
0.0
  0
LINE
  5
5D
100
AcDbEntity
  8
0
  6
Continuous
 62
   174
100
AcDbLine
 10
70.157888
 20
126.706992
 30
0.0
 11
70.157888
 21
123.715751
 31
0.0
  0
LINE
  5
5E
100
AcDbEntity
  8
0
  6
HIDDEN
 62
   174
100
AcDbLine
 10
221.425918
 20
171.180267
 30
0.0
 11
218.175937
 21
171.180267
 31
0.0
  0
LINE
  5
5F
100
AcDbEntity
  8
0
  6
HIDDEN
 62
   174
100
AcDbLine
 10
63.457888
 20
133.249458
 30
0.0
 11
70.157888
 21
133.249458
 31
0.0
  0
LINE
  5
60
100
AcDbEntity
  8
0
  6
Continuous
 62
   174
100
AcDbLine
 10
240.857888
 20
133.249458
 30
0.0
 11
234.157888
 21
133.249458
 31
0.0
  0
LINE
  5
61
100
AcDbEntity
  8
0
  6
Continuous
 62
   174
100
AcDbLine
 10
240.857888
 20
126.695257
 30
0.0
 11
234.157888
 21
126.695257
 31
0.0
  0
LINE
  5
62
100
AcDbEntity
  8
0
  6
HIDDEN
 62
   174
100
AcDbLine
 10
240.857888
 20
119.272934
 30
0.0
 11
234.157888
 21
119.272934
 31
0.0
  0
LINE
  5
63
100
AcDbEntity
  8
0
  6
HIDDEN
 62
   174
100
AcDbLine
 10
63.457888
 20
119.272934
 30
0.0
 11
70.157888
 21
119.272934
 31
0.0
  0
LINE
  5
64
100
AcDbEntity
  8
0
  6
HIDDEN
 62
   174
100
AcDbLine
 10
74.657888
 20
168.20899
 30
0.0
 11
74.657888
 21
171.208727
 31
0.0
  0
ARC
  5
65
100
AcDbEntity
  8
0
  6
Continuous
 62
   174
100
AcDbCircle
 10
74.657888
 20
168.200267
 30
0.0
 40
3.0
100
AcDbArc
 50
-270.0
 51
-180.0
  0
LINE
  5
66
100
AcDbEntity
  8
0
  6
Continuous
 62
   174
100
AcDbLine
 10
63.457888
 20
131.134112
 30
0.0
 11
70.157888
 21
131.134112
 31
0.0
  0
LINE
  5
67
100
AcDbEntity
  8
0
  6
Continuous
 62
   174
100
AcDbLine
 10
63.457888
 20
135.087767
 30
0.0
 11
70.157888
 21
135.087767
 31
0.0
  0
LINE
  5
68
100
AcDbEntity
  8
0
  6
Continuous
 62
   174
100
AcDbLine
 10
100.657888
 20
168.200267
 30
0.0
 11
100.657888
 21
142.200267
 31
0.0
  0
LINE
  5
69
100
AcDbEntity
  8
0
  6
Continuous
 62
   174
100
AcDbLine
 10
97.657888
 20
142.200267
 30
0.0
 11
97.657888
 21
168.200267
 31
0.0
  0
LINE
  5
6A
100
AcDbEntity
  8
0
  6
HIDDEN
 62
   174
100
AcDbLine
 10
218.175937
 20
171.180267
 30
0.0
 11
214.925956
 21
171.180267
 31
0.0
  0
LINE
  5
6B
100
AcDbEntity
  8
0
  6
HIDDEN
 62
   174
100
AcDbLine
 10
123.59594
 20
115.200267
 30
0.0
 11
136.756038
 21
115.200267
 31
0.0
  0
LINE
  5
6C
100
AcDbEntity
  8
0
  6
HIDDEN
 62
   174
100
AcDbLine
 10
63.457888
 20
126.696042
 30
0.0
 11
70.157888
 21
126.696042
 31
0.0
  0
LINE
  5
6D
100
AcDbEntity
  8
0
  6
Continuous
 62
   174
100
AcDbLine
 10
240.857888
 20
126.696042
 30
0.0
 11
234.157888
 21
126.696042
 31
0.0
  0
LINE
  5
6E
100
AcDbEntity
  8
0
  6
HIDDEN
 62
   174
100
AcDbLine
 10
74.676066
 20
168.200267
 30
0.0
 11
71.676116
 21
168.200267
 31
0.0
  0
LINE
  5
6F
100
AcDbEntity
  8
0
  6
HIDDEN
 62
   174
100
AcDbLine
 10
112.657888
 20
143.200267
 30
0.0
 11
112.657888
 21
143.180267
 31
0.0
  0
ARC
  5
70
100
AcDbEntity
  8
0
  6
Continuous
 62
   174
100
AcDbCircle
 10
229.657888
 20
168.200267
 30
0.0
 40
3.0
100
AcDbArc
 50
-360.0
 51
-270.0
  0
LINE
  5
71
100
AcDbEntity
  8
0
  6
HIDDEN
 62
   174
100
AcDbLine
 10
167.577888
 20
115.200267
 30
0.0
 11
167.577888
 21
105.200267
 31
0.0
  0
LINE
  5
72
100
AcDbEntity
  8
0
  6
HIDDEN
 62
   174
100
AcDbLine
 10
240.857888
 20
135.077772
 30
0.0
 11
234.157888
 21
135.077772
 31
0.0
  0
LINE
  5
73
100
AcDbEntity
  8
0
  6
HIDDEN
 62
   174
100
AcDbLine
 10
168.300972
 20
117.200267
 30
0.0
 11
180.050953
 21
117.200267
 31
0.0
  0
LINE
  5
74
100
AcDbEntity
  8
0
  6
Continuous
 62
   174
100
AcDbLine
 10
240.857888
 20
123.705277
 30
0.0
 11
234.157888
 21
123.705277
 31
0.0
  0
LINE
  5
75
100
AcDbEntity
  8
0
  6
Continuous
 62
   174
100
AcDbLine
 10
97.657888
 20
168.200267
 30
0.0
 11
74.657888
 21
168.200267
 31
0.0
  0
LINE
  5
76
100
AcDbEntity
  8
0
  6
HIDDEN
 62
   174
100
AcDbLine
 10
115.176027
 20
143.180267
 30
0.0
 11
109.176127
 21
143.180267
 31
0.0
  0
LINE
  5
77
100
AcDbEntity
  8
0
  6
Continuous
 62
   174
100
AcDbLine
 10
70.157888
 20
119.277856
 30
0.0
 11
70.157888
 21
117.162681
 31
0.0
  0
LINE
  5
78
100
AcDbEntity
  8
0
  6
Continuous
 62
   174
100
AcDbLine
 10
63.457888
 20
117.158699
 30
0.0
 11
70.157888
 21
117.158699
 31
0.0
  0
LINE
  5
79
100
AcDbEntity
  8
0
  6
Continuous
 62
   174
100
AcDbLine
 10
63.457888
 20
123.704492
 30
0.0
 11
70.157888
 21
123.704492
 31
0.0
  0
LINE
  5
7A
100
AcDbEntity
  8
0
  6
HIDDEN
 62
   174
100
AcDbLine
 10
240.857888
 20
123.704492
 30
0.0
 11
234.157888
 21
123.704492
 31
0.0
  0
LINE
  5
7B
100
AcDbEntity
  8
0
  6
Continuous
 62
   174
100
AcDbLine
 10
97.657888
 20
168.20899
 30
0.0
 11
97.657888
 21
171.208727
 31
0.0
  0
LINE
  5
7C
100
AcDbEntity
  8
0
  6
HIDDEN
 62
   174
100
AcDbLine
 10
206.657888
 20
171.208727
 30
0.0
 11
206.657888
 21
168.20899
 31
0.0
  0
LINE
  5
7D
100
AcDbEntity
  8
0
  6
HIDDEN
 62
   174
100
AcDbLine
 10
229.657888
 20
171.208727
 30
0.0
 11
229.657888
 21
168.20899
 31
0.0
  0
LINE
  5
7E
100
AcDbEntity
  8
0
  6
HIDDEN
 62
   174
100
AcDbLine
 10
191.657888
 20
143.200267
 30
0.0
 11
191.657888
 21
143.180267
 31
0.0
  0
LINE
  5
7F
100
AcDbEntity
  8
0
  6
Continuous
 62
   174
100
AcDbLine
 10
240.857888
 20
115.312767
 30
0.0
 11
234.157888
 21
115.312767
 31
0.0
  0
LINE
  5
80
100
AcDbEntity
  8
0
  6
Continuous
 62
   174
100
AcDbLine
 10
70.157888
 20
133.260062
 30
0.0
 11
70.157888
 21
131.144887
 31
0.0
  0
LINE
  5
81
100
AcDbEntity
  8
0
  6
HIDDEN
 62
   174
100
AcDbLine
 10
97.657888
 20
168.200267
 30
0.0
 11
97.657888
 21
142.200267
 31
0.0
  0
LINE
  5
82
100
AcDbEntity
  8
0
  6
Continuous
 62
   174
100
AcDbLine
 10
248.357888
 20
167.630965
 30
0.0
 11
248.357888
 21
158.787677
 31
0.0
  0
LINE
  5
83
100
AcDbEntity
  8
0
  6
Continuous
 62
   174
100
AcDbLine
 10
63.457888
 20
117.151076
 30
0.0
 11
70.157888
 21
117.151076
 31
0.0
  0
LINE
  5
84
100
AcDbEntity
  8
0
  6
HIDDEN
 62
   174
100
AcDbLine
 10
124.282888
 20
117.200267
 30
0.0
 11
124.282888
 21
105.200267
 31
0.0
  0
LINE
  5
85
100
AcDbEntity
  8
0
  6
HIDDEN
 62
   174
100
AcDbLine
 10
136.032888
 20
105.200267
 30
0.0
 11
136.032888
 21
117.200267
 31
0.0
  0
LINE
  5
86
100
AcDbEntity
  8
0
  6
HIDDEN
 62
   174
100
AcDbLine
 10
136.737888
 20
105.200267
 30
0.0
 11
136.737888
 21
115.200267
 31
0.0
  0
LINE
  5
87
100
AcDbEntity
  8
0
  6
HIDDEN
 62
   174
100
AcDbLine
 10
123.577888
 20
115.200267
 30
0.0
 11
123.577888
 21
105.200267
 31
0.0
  0
ARC
  5
88
100
AcDbEntity
  8
0
  6
Continuous
 62
   174
100
AcDbCircle
 10
206.657888
 20
168.200267
 30
0.0
 40
3.0
100
AcDbArc
 50
90.0
 51
180.0
  0
LINE
  5
89
100
AcDbEntity
  8
0
  6
HIDDEN
 62
   174
100
AcDbLine
 10
100.676127
 20
168.200267
 30
0.0
 11
97.675965
 21
168.200267
 31
0.0
  0
LINE
  5
8A
100
AcDbEntity
  8
0
  6
HIDDEN
 62
   174
100
AcDbLine
 10
97.657888
 20
168.20899
 30
0.0
 11
97.657888
 21
171.208727
 31
0.0
  0
LINE
  5
8B
100
AcDbEntity
  8
0
  6
Continuous
 62
   174
100
AcDbLine
 10
100.676127
 20
168.200267
 30
0.0
 11
97.675965
 21
168.200267
 31
0.0
  0
LINE
  5
8C
100
AcDbEntity
  8
0
  6
HIDDEN
 62
   174
100
AcDbLine
 10
145.577888
 20
115.200267
 30
0.0
 11
145.577888
 21
105.200267
 31
0.0
  0
LINE
  5
8D
100
AcDbEntity
  8
0
  6
HIDDEN
 62
   174
100
AcDbLine
 10
146.300986
 20
117.200267
 30
0.0
 11
158.050967
 21
117.200267
 31
0.0
  0
LINE
  5
8E
100
AcDbEntity
  8
0
  6
Continuous
 62
   174
100
AcDbLine
 10
240.857888
 20
119.266422
 30
0.0
 11
234.157888
 21
119.266422
 31
0.0
  0
LINE
  5
8F
100
AcDbEntity
  8
0
  6
Continuous
 62
   174
100
AcDbLine
 10
203.657888
 20
142.200267
 30
0.0
 11
203.657888
 21
168.200267
 31
0.0
  0
LINE
  5
90
100
AcDbEntity
  8
0
  6
HIDDEN
 62
   174
100
AcDbLine
 10
206.657888
 20
168.200267
 30
0.0
 11
229.657888
 21
168.200267
 31
0.0
  0
LINE
  5
91
100
AcDbEntity
  8
0
  6
HIDDEN
 62
   174
100
AcDbLine
 10
101.157888
 20
120.200267
 30
0.0
 11
101.257888
 21
120.200267
 31
0.0
  0
LINE
  5
92
100
AcDbEntity
  8
0
  6
HIDDEN
 62
   174
100
AcDbLine
 10
240.857888
 20
117.151076
 30
0.0
 11
234.157888
 21
117.151076
 31
0.0
  0
LINE
  5
93
100
AcDbEntity
  8
0
  6
Continuous
 62
   174
100
AcDbLine
 10
206.675987
 20
168.200267
 30
0.0
 11
203.676037
 21
168.200267
 31
0.0
  0
LINE
  5
94
100
AcDbEntity
  8
0
  6
Continuous
 62
   174
100
AcDbLine
 10
206.657888
 20
171.208727
 30
0.0
 11
206.657888
 21
168.20899
 31
0.0
  0
LINE
  5
95
100
AcDbEntity
  8
0
  6
HIDDEN
 62
   174
100
AcDbLine
 10
158.737888
 20
105.200267
 30
0.0
 11
158.737888
 21
115.200267
 31
0.0
  0
LINE
  5
96
100
AcDbEntity
  8
0
  6
HIDDEN
 62
   174
100
AcDbLine
 10
206.675987
 20
168.200267
 30
0.0
 11
203.676037
 21
168.200267
 31
0.0
  0
LINE
  5
97
100
AcDbEntity
  8
0
  6
Continuous
 62
   174
100
AcDbLine
 10
74.657888
 20
168.20899
 30
0.0
 11
74.657888
 21
171.208727
 31
0.0
  0
LINE
  5
98
100
AcDbEntity
  8
0
  6
HIDDEN
 62
   174
100
AcDbLine
 10
63.457888
 20
115.322762
 30
0.0
 11
70.157888
 21
115.322762
 31
0.0
  0
LINE
  5
99
100
AcDbEntity
  8
0
  6
HIDDEN
 62
   174
100
AcDbLine
 10
232.676049
 20
168.200267
 30
0.0
 11
229.675886
 21
168.200267
 31
0.0
  0
LINE
  5
9A
100
AcDbEntity
  8
0
  6
HIDDEN
 62
   174
100
AcDbLine
 10
229.657888
 20
168.200267
 30
0.0
 11
229.657888
 21
142.200267
 31
0.0
  0
LINE
  5
9B
100
AcDbEntity
  8
0
  6
HIDDEN
 62
   174
100
AcDbLine
 10
195.176037
 20
143.180267
 30
0.0
 11
189.175925
 21
143.180267
 31
0.0
  0
LINE
  5
9C
100
AcDbEntity
  8
0
  6
Continuous
 62
   174
100
AcDbLine
 10
56.657888
 20
156.700267
 30
0.0
 11
59.657888
 21
156.700267
 31
0.0
  0
LINE
  5
9D
100
AcDbEntity
  8
0
  6
HIDDEN
 62
   174
100
AcDbLine
 10
234.157888
 20
131.138301
 30
0.0
 11
234.157888
 21
131.144887
 31
0.0
  0
LINE
  5
9E
100
AcDbEntity
  8
0
  6
Continuous
 62
   174
100
AcDbLine
 10
56.657888
 20
172.20864
 30
0.0
 11
56.657888
 21
154.20979
 31
0.0
  0
LINE
  5
9F
100
AcDbEntity
  8
0
  6
Continuous
 62
   174
100
AcDbLine
 10
52.821002
 20
172.148813
 30
0.0
 11
52.157888
 21
171.000267
 31
0.0
  0
LINE
  5
A0
100
AcDbEntity
  8
0
  6
Continuous
 62
   174
100
AcDbLine
 10
71.157888
 20
114.200267
 30
0.0
 11
71.157888
 21
142.200267
 31
0.0
  0
LWPOLYLINE
  5
A1
100
AcDbEntity
  8
0
  6
HIDDEN
 62
   174
100
AcDbPolyline
 90
        5
 70
   128
 10
52.157888
 20
169.465182
 10
52.249913
 20
169.001747
 10
52.400112
 20
168.540232
 10
52.603254
 20
168.079061
 10
52.850708
 20
167.622158
  0
LINE
  5
A2
100
AcDbEntity
  8
0
  6
HIDDEN
 62
   174
100
AcDbLine
 10
70.157888
 20
119.284442
 30
0.0
 11
70.157888
 21
119.277856
 31
0.0
  0
LINE
  5
A3
100
AcDbEntity
  8
0
  6
Continuous
 62
   174
100
AcDbLine
 10
117.157888
 20
105.200267
 30
0.0
 11
187.157888
 21
105.200267
 31
0.0
  0
LINE
  5
A4
100
AcDbEntity
  8
0
  6
Continuous
 62
   174
100
AcDbLine
 10
101.157888
 20
114.200267
 30
0.0
 11
101.157888
 21
107.200267
 31
0.0
  0
LWPOLYLINE
  5
A5
100
AcDbEntity
  8
0
  6
Continuous
 62
   174
100
AcDbPolyline
 90
        6
 70
   128
 10
52.850708
 20
158.622607
 10
52.621975
 20
159.461187
 10
52.429368
 20
160.310376
 10
52.278771
 20
161.174171
 10
52.177568
 20
162.047931
 10
52.157888
 20
162.308656
  0
LINE
  5
A6
100
AcDbEntity
  8
0
  6
Continuous
 62
   174
100
AcDbLine
 10
203.157888
 20
114.200267
 30
0.0
 11
203.157888
 21
107.200267
 31
0.0
  0
LWPOLYLINE
  5
A7
100
AcDbEntity
  8
0
  6
HIDDEN
 62
   174
100
AcDbPolyline
 90
        6
 70
   128
 10
251.465068
 20
158.622607
 10
251.693801
 20
159.461187
 10
251.886408
 20
160.310376
 10
252.037005
 20
161.174171
 10
252.138208
 20
162.047931
 10
252.157888
 20
162.308656
  0
LINE
  5
A8
100
AcDbEntity
  8
0
  6
Continuous
 62
   174
100
AcDbLine
 10
240.857888
 20
131.134112
 30
0.0
 11
234.157888
 21
131.134112
 31
0.0
  0
LINE
  5
A9
100
AcDbEntity
  8
0
  6
HIDDEN
 62
   174
100
AcDbLine
 10
147.737888
 20
135.200267
 30
0.0
 11
147.737888
 21
145.200267
 31
0.0
  0
LINE
  5
AA
100
AcDbEntity
  8
0
  6
Continuous
 62
   174
100
AcDbLine
 10
59.657888
 20
169.700267
 30
0.0
 11
56.657888
 21
169.700267
 31
0.0
  0
LINE
  5
AB
100
AcDbEntity
  8
0
  6
Continuous
 62
   174
100
AcDbLine
 10
101.157888
 20
142.200267
 30
0.0
 11
101.157888
 21
114.200267
 31
0.0
  0
LINE
  5
AC
100
AcDbEntity
  8
0
  6
Continuous
 62
   174
100
AcDbLine
 10
63.457888
 20
117.162681
 30
0.0
 11
63.457888
 21
115.324516
 31
0.0
  0
LINE
  5
AD
100
AcDbEntity
  8
0
  6
Continuous
 62
   174
100
AcDbLine
 10
251.465068
 20
154.200716
 30
0.0
 11
248.357888
 21
154.200716
 31
0.0
  0
LINE
  5
AE
100
AcDbEntity
  8
0
  6
Continuous
 62
   174
100
AcDbLine
 10
117.157888
 20
143.200267
 30
0.0
 11
101.157888
 21
143.200267
 31
0.0
  0
LINE
  5
AF
100
AcDbEntity
  8
0
  6
Continuous
 62
   174
100
AcDbLine
 10
252.157888
 20
156.043741
 30
0.0
 11
252.157888
 21
156.935352
 31
0.0
  0
LINE
  5
B0
100
AcDbEntity
  8
0
  6
Continuous
 62
   174
100
AcDbLine
 10
71.157888
 20
142.200267
 30
0.0
 11
101.157888
 21
142.200267
 31
0.0
  0
LINE
  5
B1
100
AcDbEntity
  8
0
  6
Continuous
 62
   174
100
AcDbLine
 10
252.157888
 20
155.4096
 30
0.0
 11
252.157888
 21
156.053053
 31
0.0
  0
LWPOLYLINE
  5
B2
100
AcDbEntity
  8
0
  6
Continuous
 62
   174
100
AcDbPolyline
 90
        9
 70
   128
 10
52.850708
 20
167.777927
 10
52.553934
 20
168.363821
 10
52.334225
 20
168.957973
 10
52.206258
 20
169.57256
 10
52.186265
 20
170.190287
 10
52.253416
 20
170.695353
 10
52.390401
 20
171.19695
 10
52.593483
 20
171.701445
 10
52.850708
 20
172.199818
  0
LINE
  5
B3
100
AcDbEntity
  8
0
  6
HIDDEN
 62
   174
100
AcDbLine
 10
134.577888
 20
145.200267
 30
0.0
 11
134.577888
 21
135.200267
 31
0.0
  0
LINE
  5
B4
100
AcDbEntity
  8
0
  6
HIDDEN
 62
   174
100
AcDbLine
 10
203.057888
 20
120.211703
 30
0.0
 11
203.057888
 21
130.21104
 31
0.0
  0
LINE
  5
B5
100
AcDbEntity
  8
0
  6
HIDDEN
 62
   174
100
AcDbLine
 10
101.257888
 20
130.21104
 30
0.0
 11
101.257888
 21
125.211478
 31
0.0
  0
CIRCLE
  5
B6
100
AcDbEntity
  8
0
  6
Continuous
 62
   174
100
AcDbCircle
 10
163.157888
 20
112.700267
 30
0.0
 40
2.75
  0
LINE
  5
B7
100
AcDbEntity
  8
0
  6
Continuous
 62
   174
100
AcDbLine
 10
63.457888
 20
126.696042
 30
0.0
 11
70.157888
 21
126.696042
 31
0.0
  0
LINE
  5
B8
100
AcDbEntity
  8
0
  6
Continuous
 62
   174
100
AcDbLine
 10
233.157888
 20
114.200267
 30
0.0
 11
203.157888
 21
114.200267
 31
0.0
  0
LINE
  5
B9
100
AcDbEntity
  8
0
  6
Continuous
 62
   174
100
AcDbLine
 10
240.857888
 20
117.151076
 30
0.0
 11
234.157888
 21
117.151076
 31
0.0
  0
LINE
  5
BA
100
AcDbEntity
  8
0
  6
Continuous
 62
   174
100
AcDbLine
 10
52.157888
 20
155.400267
 30
0.0
 11
52.821011
 21
154.251704
 31
0.0
  0
LINE
  5
BB
100
AcDbEntity
  8
0
  6
Continuous
 62
   174
100
AcDbLine
 10
251.465068
 20
172.199818
 30
0.0
 11
251.495135
 21
172.14819
 31
0.0
  0
LINE
  5
BC
100
AcDbEntity
  8
0
  6
Continuous
 62
   174
100
AcDbLine
 10
251.495131
 20
154.252339
 30
0.0
 11
251.465068
 21
154.200716
 31
0.0
  0
LINE
  5
BD
100
AcDbEntity
  8
0
  6
Continuous
 62
   174
100
AcDbLine
 10
206.657888
 20
168.200267
 30
0.0
 11
206.657888
 21
142.200267
 31
0.0
  0
LWPOLYLINE
  5
BE
100
AcDbEntity
  8
0
  6
Continuous
 62
   174
100
AcDbPolyline
 90
        8
 70
   128
 10
251.465068
 20
167.622158
 10
251.750203
 20
166.502901
 10
251.963609
 20
165.379805
 10
252.095501
 20
164.24453
 10
252.13444
 20
163.073792
 10
252.074015
 20
161.903939
 10
251.842482
 20
160.334287
 10
251.465068
 20
158.778376
  0
LINE
  5
BF
100
AcDbEntity
  8
0
  6
Continuous
 62
   174
100
AcDbLine
 10
52.850708
 20
154.200716
 30
0.0
 11
55.957888
 21
154.200716
 31
0.0
  0
LINE
  5
C0
100
AcDbEntity
  8
0
  6
HIDDEN
 62
   174
100
AcDbLine
 10
203.157888
 20
130.200267
 30
0.0
 11
203.057888
 21
130.200267
 31
0.0
  0
LINE
  5
C1
100
AcDbEntity
  8
0
  6
HIDDEN
 62
   174
100
AcDbLine
 10
74.657888
 20
142.200267
 30
0.0
 11
74.657888
 21
168.200267
 31
0.0
  0
LINE
  5
C2
100
AcDbEntity
  8
0
  6
Continuous
 62
   174
100
AcDbLine
 10
233.157888
 20
142.200267
 30
0.0
 11
203.157888
 21
142.200267
 31
0.0
  0
LINE
  5
C3
100
AcDbEntity
  8
0
  6
HIDDEN
 62
   174
100
AcDbLine
 10
83.906148
 20
171.200267
 30
0.0
 11
83.906148
 21
171.180267
 31
0.0
  0
LINE
  5
C4
100
AcDbEntity
  8
0
  6
HIDDEN
 62
   174
100
AcDbLine
 10
70.157888
 20
135.098439
 30
0.0
 11
70.157888
 21
135.088243
 31
0.0
  0
LINE
  5
C5
100
AcDbEntity
  8
0
  6
Continuous
 62
   174
100
AcDbLine
 10
187.157888
 20
105.200267
 30
0.0
 11
187.157888
 21
107.200267
 31
0.0
  0
LINE
  5
C6
100
AcDbEntity
  8
0
  6
Continuous
 62
   174
100
AcDbLine
 10
187.157888
 20
143.200267
 30
0.0
 11
203.157888
 21
143.200267
 31
0.0
  0
LINE
  5
C7
100
AcDbEntity
  8
0
  6
Continuous
 62
   174
100
AcDbLine
 10
240.857888
 20
131.138301
 30
0.0
 11
240.857888
 21
133.252414
 31
0.0
  0
LINE
  5
C8
100
AcDbEntity
  8
0
  6
HIDDEN
 62
   174
100
AcDbLine
 10
135.282888
 20
145.200267
 30
0.0
 11
135.282888
 21
133.200267
 31
0.0
  0
LINE
  5
C9
100
AcDbEntity
  8
0
  6
HIDDEN
 62
   174
100
AcDbLine
 10
215.906148
 20
171.200267
 30
0.0
 11
215.906148
 21
171.180267
 31
0.0
  0
LINE
  5
CA
100
AcDbEntity
  8
0
  6
Continuous
 62
   174
100
AcDbLine
 10
252.157888
 20
169.465182
 30
0.0
 11
252.157888
 21
170.356793
 31
0.0
  0
LINE
  5
CB
100
AcDbEntity
  8
0
  6
HIDDEN
 62
   174
100
AcDbLine
 10
220.409628
 20
171.200267
 30
0.0
 11
220.409628
 21
171.180267
 31
0.0
  0
LINE
  5
CC
100
AcDbEntity
  8
0
  6
Continuous
 62
   174
100
AcDbLine
 10
234.157888
 20
135.098439
 30
0.0
 11
234.157888
 21
135.210815
 31
0.0
  0
LINE
  5
CD
100
AcDbEntity
  8
0
  6
Continuous
 62
   174
100
AcDbLine
 10
63.457888
 20
123.715751
 30
0.0
 11
63.457888
 21
119.277856
 31
0.0
  0
LINE
  5
CE
100
AcDbEntity
  8
0
  6
Continuous
 62
   174
100
AcDbLine
 10
63.457888
 20
126.706354
 30
0.0
 11
63.457888
 21
123.716389
 31
0.0
  0
LINE
  5
CF
100
AcDbEntity
  8
0
  6
Continuous
 62
   174
100
AcDbLine
 10
240.857888
 20
115.324516
 30
0.0
 11
240.857888
 21
117.162681
 31
0.0
  0
LINE
  5
D0
100
AcDbEntity
  8
0
  6
Continuous
 62
   174
100
AcDbLine
 10
232.657888
 20
168.200267
 30
0.0
 11
232.657888
 21
165.984149
 31
0.0
  0
LWPOLYLINE
  5
D1
100
AcDbEntity
  8
0
  6
HIDDEN
 62
   174
100
AcDbPolyline
 90
        8
 70
   128
 10
52.850708
 20
167.622158
 10
52.565573
 20
166.502901
 10
52.352167
 20
165.379805
 10
52.220275
 20
164.24453
 10
52.181336
 20
163.073792
 10
52.241761
 20
161.903939
 10
52.473295
 20
160.334287
 10
52.850708
 20
158.778376
  0
LINE
  5
D2
100
AcDbEntity
  8
0
  6
Continuous
 62
   174
100
AcDbLine
 10
234.157888
 20
131.144887
 30
0.0
 11
234.157888
 21
133.260062
 31
0.0
  0
LINE
  5
D3
100
AcDbEntity
  8
0
  6
Continuous
 62
   174
100
AcDbLine
 10
203.157888
 20
142.200267
 30
0.0
 11
203.157888
 21
114.200267
 31
0.0
  0
LINE
  5
D4
100
AcDbEntity
  8
0
  6
Continuous
 62
   174
100
AcDbLine
 10
63.457888
 20
115.324516
 30
0.0
 11
63.457888
 21
115.221912
 31
0.0
  0
LINE
  5
D5
100
AcDbEntity
  8
0
  6
Continuous
 62
   174
100
AcDbLine
 10
63.457888
 20
119.284442
 30
0.0
 11
63.457888
 21
117.170329
 31
0.0
  0
LINE
  5
D6
100
AcDbEntity
  8
0
  6
Continuous
 62
   174
100
AcDbLine
 10
63.457888
 20
126.706992
 30
0.0
 11
63.457888
 21
126.706354
 31
0.0
  0
LWPOLYLINE
  5
D7
100
AcDbEntity
  8
0
  6
Continuous
 62
   174
100
AcDbPolyline
 90
        5
 70
   128
 10
251.495135
 20
172.14819
 10
251.709273
 20
171.749486
 10
251.911326
 20
171.292966
 10
252.06388
 20
170.827719
 10
252.157888
 20
170.356793
  0
LINE
  5
D8
100
AcDbEntity
  8
0
  6
Continuous
 62
   174
100
AcDbLine
 10
229.657888
 20
142.200267
 30
0.0
 11
229.657888
 21
168.200267
 31
0.0
  0
LWPOLYLINE
  5
D9
100
AcDbEntity
  8
0
  6
Continuous
 62
   174
100
AcDbPolyline
 90
        7
 70
   128
 10
52.157888
 20
164.091878
 10
52.214439
 20
164.727538
 10
52.299097
 20
165.361343
 10
52.410344
 20
165.994461
 10
52.545569
 20
166.62386
 10
52.689942
 20
167.202806
 10
52.850708
 20
167.777927
  0
LWPOLYLINE
  5
DA
100
AcDbEntity
  8
0
  6
Continuous
 62
   174
100
AcDbPolyline
 90
        5
 70
   128
 10
251.465068
 20
158.778376
 10
251.709273
 20
158.328045
 10
251.911326
 20
157.871525
 10
252.06388
 20
157.406277
 10
252.157888
 20
156.935352
  0
LWPOLYLINE
  5
DB
100
AcDbEntity
  8
0
  6
HIDDEN
 62
   174
100
AcDbPolyline
 90
        5
 70
   128
 10
52.157888
 20
156.043741
 10
52.249913
 20
155.580306
 10
52.400112
 20
155.11879
 10
52.603254
 20
154.65762
 10
52.820645
 20
154.252339
  0
LINE
  5
DC
100
AcDbEntity
  8
0
  6
Continuous
 62
   174
100
AcDbLine
 10
52.850708
 20
158.622607
 30
0.0
 11
55.957888
 21
158.622607
 31
0.0
  0
LINE
  5
DD
100
AcDbEntity
  8
0
  6
HIDDEN
 62
   174
100
AcDbLine
 10
216.330412
 20
171.200267
 30
0.0
 11
216.330412
 21
171.180267
 31
0.0
  0
LINE
  5
DE
100
AcDbEntity
  8
0
  6
HIDDEN
 62
   174
100
AcDbLine
 10
88.409628
 20
171.200267
 30
0.0
 11
88.409628
 21
171.180267
 31
0.0
  0
LINE
  5
DF
100
AcDbEntity
  8
0
  6
HIDDEN
 62
   174
100
AcDbLine
 10
251.465068
 20
158.622607
 30
0.0
 11
248.357888
 21
158.622607
 31
0.0
  0
LINE
  5
E0
100
AcDbEntity
  8
0
  6
Continuous
 62
   174
100
AcDbLine
 10
70.157888
 20
135.210815
 30
0.0
 11
70.157888
 21
135.098439
 31
0.0
  0
LINE
  5
E1
100
AcDbEntity
  8
0
  6
Continuous
 62
   174
100
AcDbLine
 10
74.657888
 20
171.200267
 30
0.0
 11
97.657888
 21
171.200267
 31
0.0
  0
LINE
  5
E2
100
AcDbEntity
  8
0
  6
Continuous
 62
   174
100
AcDbLine
 10
240.857888
 20
133.252414
 30
0.0
 11
240.857888
 21
133.260062
 31
0.0
  0
LINE
  5
E3
100
AcDbEntity
  8
0
  6
Continuous
 62
   174
100
AcDbLine
 10
240.857888
 20
115.221912
 30
0.0
 11
240.857888
 21
115.324516
 31
0.0
  0
LINE
  5
E4
100
AcDbEntity
  8
0
  6
HIDDEN
 62
   174
100
AcDbLine
 10
147.051079
 20
133.200267
 30
0.0
 11
135.301098
 21
133.200267
 31
0.0
  0
LINE
  5
E5
100
AcDbEntity
  8
0
  6
Continuous
 62
   174
100
AcDbLine
 10
187.157888
 20
145.200267
 30
0.0
 11
117.157888
 21
145.200267
 31
0.0
  0
LINE
  5
E6
100
AcDbEntity
  8
0
  6
HIDDEN
 62
   174
100
AcDbLine
 10
203.057888
 20
120.200267
 30
0.0
 11
203.157888
 21
120.200267
 31
0.0
  0
LINE
  5
E7
100
AcDbEntity
  8
0
  6
Continuous
 62
   174
100
AcDbLine
 10
101.157888
 20
114.200267
 30
0.0
 11
101.157888
 21
142.200267
 31
0.0
  0
LINE
  5
E8
100
AcDbEntity
  8
0
  6
Continuous
 62
   174
100
AcDbLine
 10
240.857888
 20
123.704492
 30
0.0
 11
234.157888
 21
123.704492
 31
0.0
  0
LINE
  5
E9
100
AcDbEntity
  8
0
  6
HIDDEN
 62
   174
100
AcDbLine
 10
70.157888
 20
131.144887
 30
0.0
 11
70.157888
 21
131.138301
 31
0.0
  0
LINE
  5
EA
100
AcDbEntity
  8
0
  6
HIDDEN
 62
   174
100
AcDbLine
 10
234.157888
 20
135.088243
 30
0.0
 11
234.157888
 21
135.098439
 31
0.0
  0
LINE
  5
EB
100
AcDbEntity
  8
0
  6
Continuous
 62
   174
100
AcDbLine
 10
63.457888
 20
119.266422
 30
0.0
 11
70.157888
 21
119.266422
 31
0.0
  0
LWPOLYLINE
  5
EC
100
AcDbEntity
  8
0
  6
Continuous
 62
   174
100
AcDbPolyline
 90
        5
 70
   128
 10
252.157888
 20
169.465182
 10
252.065864
 20
169.001747
 10
251.915664
 20
168.540232
 10
251.712522
 20
168.079061
 10
251.465068
 20
167.622158
  0
LINE
  5
ED
100
AcDbEntity
  8
0
  6
Continuous
 62
   174
100
AcDbLine
 10
63.457888
 20
133.252414
 30
0.0
 11
63.457888
 21
131.138301
 31
0.0
  0
LINE
  5
EE
100
AcDbEntity
  8
0
  6
Continuous
 62
   174
100
AcDbLine
 10
52.850708
 20
172.199818
 30
0.0
 11
55.957888
 21
172.199818
 31
0.0
  0
LINE
  5
EF
100
AcDbEntity
  8
0
  6
Continuous
 62
   174
100
AcDbLine
 10
252.157888
 20
171.000267
 30
0.0
 11
251.494775
 21
172.148813
 31
0.0
  0
LINE
  5
F0
100
AcDbEntity
  8
0
  6
Continuous
 62
   174
100
AcDbLine
 10
240.857888
 20
123.715751
 30
0.0
 11
240.857888
 21
123.716389
 31
0.0
  0
LINE
  5
F1
100
AcDbEntity
  8
0
  6
HIDDEN
 62
   174
100
AcDbLine
 10
169.755912
 20
135.200267
 30
0.0
 11
156.596027
 21
135.200267
 31
0.0
  0
LINE
  5
F2
100
AcDbEntity
  8
0
  6
Continuous
 62
   174
100
AcDbLine
 10
251.465068
 20
172.199818
 30
0.0
 11
248.357888
 21
172.199818
 31
0.0
  0
LINE
  5
F3
100
AcDbEntity
  8
0
  6
Continuous
 62
   174
100
AcDbLine
 10
240.857888
 20
126.706354
 30
0.0
 11
240.857888
 21
126.706992
 31
0.0
  0
LINE
  5
F4
100
AcDbEntity
  8
0
  6
Continuous
 62
   174
100
AcDbLine
 10
234.157888
 20
123.715751
 30
0.0
 11
234.157888
 21
126.706992
 31
0.0
  0
LINE
  5
F5
100
AcDbEntity
  8
0
  6
Continuous
 62
   174
100
AcDbLine
 10
240.857888
 20
119.277856
 30
0.0
 11
240.857888
 21
123.715751
 31
0.0
  0
LWPOLYLINE
  5
F6
100
AcDbEntity
  8
0
  6
HIDDEN
 62
   174
100
AcDbPolyline
 90
        5
 70
   128
 10
52.820642
 20
172.14819
 10
52.606503
 20
171.749486
 10
52.40445
 20
171.292966
 10
52.251896
 20
170.827719
 10
52.157888
 20
170.356793
  0
LINE
  5
F7
100
AcDbEntity
  8
0
  6
Continuous
 62
   174
100
AcDbLine
 10
240.857888
 20
123.716389
 30
0.0
 11
240.857888
 21
126.706354
 31
0.0
  0
LINE
  5
F8
100
AcDbEntity
  8
0
  6
HIDDEN
 62
   174
100
AcDbLine
 10
251.465068
 20
167.777927
 30
0.0
 11
248.357888
 21
167.777927
 31
0.0
  0
CIRCLE
  5
F9
100
AcDbEntity
  8
0
  6
Continuous
 62
   174
100
AcDbCircle
 10
141.157888
 20
112.700267
 30
0.0
 40
2.75
  0
LINE
  5
FA
100
AcDbEntity
  8
0
  6
Continuous
 62
   174
100
AcDbLine
 10
187.157888
 20
107.200267
 30
0.0
 11
187.157888
 21
143.200267
 31
0.0
  0
LINE
  5
FB
100
AcDbEntity
  8
0
  6
Continuous
 62
   174
100
AcDbLine
 10
52.850708
 20
172.199818
 30
0.0
 11
52.820642
 21
172.14819
 31
0.0
  0
LINE
  5
FC
100
AcDbEntity
  8
0
  6
HIDDEN
 62
   174
100
AcDbLine
 10
234.157888
 20
115.324516
 30
0.0
 11
234.157888
 21
115.334501
 31
0.0
  0
LINE
  5
FD
100
AcDbEntity
  8
0
  6
Continuous
 62
   174
100
AcDbLine
 10
52.157888
 20
164.091878
 30
0.0
 11
52.157888
 21
162.308656
 31
0.0
  0
LWPOLYLINE
  5
FE
100
AcDbEntity
  8
0
  6
HIDDEN
 62
   174
100
AcDbPolyline
 90
        5
 70
   128
 10
52.850708
 20
158.778376
 10
52.606503
 20
158.328045
 10
52.40445
 20
157.871525
 10
52.251896
 20
157.406277
 10
52.157888
 20
156.935352
  0
LINE
  5
FF
100
AcDbEntity
  8
0
  6
Continuous
 62
   174
100
AcDbLine
 10
247.657888
 20
163.209215
 30
0.0
 11
247.657888
 21
172.20864
 31
0.0
  0
LINE
  5
100
100
AcDbEntity
  8
0
  6
Continuous
 62
   174
100
AcDbLine
 10
117.157888
 20
145.200267
 30
0.0
 11
117.157888
 21
143.200267
 31
0.0
  0
LINE
  5
101
100
AcDbEntity
  8
0
  6
Continuous
 62
   174
100
AcDbLine
 10
240.857888
 20
135.098439
 30
0.0
 11
240.857888
 21
135.200831
 31
0.0
  0
LINE
  5
102
100
AcDbEntity
  8
0
  6
HIDDEN
 62
   174
100
AcDbLine
 10
87.985364
 20
171.200267
 30
0.0
 11
87.985364
 21
171.180267
 31
0.0
  0
LINE
  5
103
100
AcDbEntity
  8
0
  6
Continuous
 62
   174
100
AcDbLine
 10
232.657888
 20
155.200267
 30
0.0
 11
244.657888
 21
155.200267
 31
0.0
  0
LINE
  5
104
100
AcDbEntity
  8
0
  6
Continuous
 62
   174
100
AcDbLine
 10
240.857888
 20
117.162681
 30
0.0
 11
240.857888
 21
117.170329
 31
0.0
  0
LINE
  5
105
100
AcDbEntity
  8
0
  6
HIDDEN
 62
   174
100
AcDbLine
 10
169.737888
 20
135.200267
 30
0.0
 11
169.737888
 21
145.200267
 31
0.0
  0
LINE
  5
106
100
AcDbEntity
  8
0
  6
Continuous
 62
   174
100
AcDbLine
 10
101.157888
 20
107.200267
 30
0.0
 11
117.157888
 21
107.200267
 31
0.0
  0
LINE
  5
107
100
AcDbEntity
  8
0
  6
Continuous
 62
   174
100
AcDbLine
 10
56.657888
 20
172.200267
 30
0.0
 11
55.957888
 21
172.200267
 31
0.0
  0
LINE
  5
108
100
AcDbEntity
  8
0
  6
Continuous
 62
   174
100
AcDbLine
 10
63.457888
 20
117.170329
 30
0.0
 11
63.457888
 21
117.162681
 31
0.0
  0
LWPOLYLINE
  5
109
100
AcDbEntity
  8
0
  6
HIDDEN
 62
   174
100
AcDbPolyline
 90
        7
 70
   128
 10
252.157888
 20
164.091878
 10
252.101338
 20
164.727538
 10
252.016679
 20
165.361343
 10
251.905433
 20
165.994461
 10
251.770208
 20
166.62386
 10
251.625834
 20
167.202806
 10
251.465068
 20
167.777927
  0
LINE
  5
10A
100
AcDbEntity
  8
0
  6
Continuous
 62
   174
100
AcDbLine
 10
71.157888
 20
114.200267
 30
0.0
 11
101.157888
 21
114.200267
 31
0.0
  0
LINE
  5
10B
100
AcDbEntity
  8
0
  6
Continuous
 62
   174
100
AcDbLine
 10
240.857888
 20
135.087767
 30
0.0
 11
234.157888
 21
135.087767
 31
0.0
  0
LINE
  5
10C
100
AcDbEntity
  8
0
  6
Continuous
 62
   174
100
AcDbLine
 10
252.157888
 20
170.365376
 30
0.0
 11
252.157888
 21
171.00883
 31
0.0
  0
LINE
  5
10D
100
AcDbEntity
  8
0
  6
Continuous
 62
   174
100
AcDbLine
 10
52.820645
 20
154.252339
 30
0.0
 11
52.850708
 21
154.200716
 31
0.0
  0
LWPOLYLINE
  5
10E
100
AcDbEntity
  8
0
  6
Continuous
 62
   174
100
AcDbPolyline
 90
        5
 70
   128
 10
252.157888
 20
156.043741
 10
252.065864
 20
155.580306
 10
251.915664
 20
155.11879
 10
251.712522
 20
154.65762
 10
251.495131
 20
154.252339
  0
LINE
  5
10F
100
AcDbEntity
  8
0
  6
HIDDEN
 62
   174
100
AcDbLine
 10
234.157888
 20
119.277856
 30
0.0
 11
234.157888
 21
119.284442
 31
0.0
  0
LINE
  5
110
100
AcDbEntity
  8
0
  6
Continuous
 62
   174
100
AcDbLine
 10
187.157888
 20
143.200267
 30
0.0
 11
187.157888
 21
145.200267
 31
0.0
  0
LINE
  5
111
100
AcDbEntity
  8
0
  6
HIDDEN
 62
   174
100
AcDbLine
 10
219.985364
 20
171.200267
 30
0.0
 11
219.985364
 21
171.180267
 31
0.0
  0
LINE
  5
112
100
AcDbEntity
  8
0
  6
Continuous
 62
   174
100
AcDbLine
 10
232.657888
 20
160.416385
 30
0.0
 11
232.657888
 21
142.200267
 31
0.0
  0
LINE
  5
113
100
AcDbEntity
  8
0
  6
Continuous
 62
   174
100
AcDbLine
 10
117.157888
 20
107.200267
 30
0.0
 11
117.157888
 21
105.200267
 31
0.0
  0
LINE
  5
114
100
AcDbEntity
  8
0
  6
Continuous
 62
   174
100
AcDbLine
 10
203.157888
 20
107.200267
 30
0.0
 11
187.157888
 21
107.200267
 31
0.0
  0
LINE
  5
115
100
AcDbEntity
  8
0
  6
Continuous
 62
   174
100
AcDbLine
 10
244.657888
 20
171.200267
 30
0.0
 11
229.657888
 21
171.200267
 31
0.0
  0
LINE
  5
116
100
AcDbEntity
  8
0
  6
HIDDEN
 62
   174
100
AcDbLine
 10
156.577888
 20
145.200267
 30
0.0
 11
156.577888
 21
135.200267
 31
0.0
  0
LINE
  5
117
100
AcDbEntity
  8
0
  6
Continuous
 62
   174
100
AcDbLine
 10
229.657888
 20
168.200267
 30
0.0
 11
206.657888
 21
168.200267
 31
0.0
  0
LINE
  5
118
100
AcDbEntity
  8
0
  6
Continuous
 62
   174
100
AcDbLine
 10
240.857888
 20
126.706992
 30
0.0
 11
240.857888
 21
131.144887
 31
0.0
  0
LINE
  5
119
100
AcDbEntity
  8
0
  6
Continuous
 62
   174
100
AcDbLine
 10
63.457888
 20
135.098439
 30
0.0
 11
63.457888
 21
133.260062
 31
0.0
  0
LINE
  5
11A
100
AcDbEntity
  8
0
  6
HIDDEN
 62
   174
100
AcDbLine
 10
70.157888
 20
115.334501
 30
0.0
 11
70.157888
 21
115.324516
 31
0.0
  0
LINE
  5
11B
100
AcDbEntity
  8
0
  6
HIDDEN
 62
   174
100
AcDbLine
 10
147.032888
 20
133.200267
 30
0.0
 11
147.032888
 21
145.200267
 31
0.0
  0
LINE
  5
11C
100
AcDbEntity
  8
0
  6
Continuous
 62
   174
100
AcDbLine
 10
234.157888
 20
115.210267
 30
0.0
 11
240.857888
 21
115.210267
 31
0.0
  0
LWPOLYLINE
  5
11D
100
AcDbEntity
  8
0
  6
Continuous
 62
   174
100
AcDbPolyline
 90
        8
 70
   128
 10
232.657888
 20
160.416385
 10
232.644173
 20
161.364569
 10
232.623126
 20
162.356444
 10
232.616446
 20
163.008394
 10
232.618148
 20
163.661649
 10
232.628501
 20
164.330225
 10
232.643145
 20
164.990777
 10
232.657888
 20
165.984149
  0
LINE
  5
11E
100
AcDbEntity
  8
0
  6
Continuous
 62
   174
100
AcDbLine
 10
63.457888
 20
135.200831
 30
0.0
 11
63.457888
 21
135.098439
 31
0.0
  0
LINE
  5
11F
100
AcDbEntity
  8
0
  6
Continuous
 62
   174
100
AcDbLine
 10
247.657888
 20
154.20979
 30
0.0
 11
247.657888
 21
163.209215
 31
0.0
  0
LINE
  5
120
100
AcDbEntity
  8
0
  6
Continuous
 62
   174
100
AcDbLine
 10
187.157888
 20
107.200267
 30
0.0
 11
187.157888
 21
143.200267
 31
0.0
  0
LINE
  5
121
100
AcDbEntity
  8
0
  6
Continuous
 62
   174
100
AcDbLine
 10
71.157888
 20
135.200267
 30
0.0
 11
70.157888
 21
135.200267
 31
0.0
  0
LINE
  5
122
100
AcDbEntity
  8
0
  6
Continuous
 62
   174
100
AcDbLine
 10
233.157888
 20
115.200267
 30
0.0
 11
234.157888
 21
115.200267
 31
0.0
  0
LINE
  5
123
100
AcDbEntity
  8
0
  6
Continuous
 62
   174
100
AcDbLine
 10
251.494765
 20
154.251704
 30
0.0
 11
252.157888
 21
155.400267
 31
0.0
  0
LINE
  5
124
100
AcDbEntity
  8
0
  6
HIDDEN
 62
   174
100
AcDbLine
 10
157.282888
 20
145.200267
 30
0.0
 11
157.282888
 21
133.200267
 31
0.0
  0
LINE
  5
125
100
AcDbEntity
  8
0
  6
Continuous
 62
   174
100
AcDbLine
 10
71.657888
 20
142.200267
 30
0.0
 11
71.657888
 21
160.416385
 31
0.0
  0
LINE
  5
126
100
AcDbEntity
  8
0
  6
Continuous
 62
   174
100
AcDbLine
 10
63.457888
 20
133.249458
 30
0.0
 11
70.157888
 21
133.249458
 31
0.0
  0
LINE
  5
127
100
AcDbEntity
  8
0
  6
Continuous
 62
   174
100
AcDbLine
 10
117.157888
 20
107.200267
 30
0.0
 11
117.157888
 21
143.200267
 31
0.0
  0
LINE
  5
128
100
AcDbEntity
  8
0
  6
Continuous
 62
   174
100
AcDbLine
 10
117.157888
 20
143.200267
 30
0.0
 11
117.157888
 21
107.200267
 31
0.0
  0
LINE
  5
129
100
AcDbEntity
  8
0
  6
Continuous
 62
   174
100
AcDbLine
 10
240.857888
 20
117.170329
 30
0.0
 11
240.857888
 21
119.284442
 31
0.0
  0
CIRCLE
  5
12A
100
AcDbEntity
  8
0
  6
Continuous
 62
   174
100
AcDbCircle
 10
174.157888
 20
137.700267
 30
0.0
 40
2.75
  0
LINE
  5
12B
100
AcDbEntity
  8
0
  6
Continuous
 62
   174
100
AcDbLine
 10
74.657888
 20
171.200267
 30
0.0
 11
59.657888
 21
171.200267
 31
0.0
  0
LINE
  5
12C
100
AcDbEntity
  8
0
  6
Continuous
 62
   174
100
AcDbLine
 10
52.157888
 20
162.317642
 30
0.0
 11
52.157888
 21
155.4096
 31
0.0
  0
LINE
  5
12D
100
AcDbEntity
  8
0
  6
HIDDEN
 62
   174
100
AcDbLine
 10
169.051066
 20
133.200267
 30
0.0
 11
157.301085
 21
133.200267
 31
0.0
  0
LINE
  5
12E
100
AcDbEntity
  8
0
  6
Continuous
 62
   174
100
AcDbLine
 10
63.457888
 20
115.210267
 30
0.0
 11
70.157888
 21
115.210267
 31
0.0
  0
LINE
  5
12F
100
AcDbEntity
  8
0
  6
Continuous
 62
   174
100
AcDbLine
 10
203.157888
 20
142.200267
 30
0.0
 11
203.157888
 21
114.200267
 31
0.0
  0
LWPOLYLINE
  5
130
100
AcDbEntity
  8
0
  6
HIDDEN
 62
   174
100
AcDbPolyline
 90
        8
 70
   128
 10
71.657888
 20
160.416385
 10
71.671604
 20
161.364569
 10
71.69265
 20
162.356444
 10
71.69933
 20
163.008394
 10
71.697628
 20
163.661649
 10
71.687276
 20
164.330225
 10
71.672631
 20
164.990777
 10
71.657888
 20
165.984149
  0
LINE
  5
131
100
AcDbEntity
  8
0
  6
Continuous
 62
   174
100
AcDbLine
 10
52.157888
 20
171.00883
 30
0.0
 11
52.157888
 21
164.100788
 31
0.0
  0
LINE
  5
132
100
AcDbEntity
  8
0
  6
HIDDEN
 62
   174
100
AcDbLine
 10
147.755925
 20
135.200267
 30
0.0
 11
134.59604
 21
135.200267
 31
0.0
  0
LINE
  5
133
100
AcDbEntity
  8
0
  6
Continuous
 62
   174
100
AcDbLine
 10
247.657888
 20
154.200267
 30
0.0
 11
248.357888
 21
154.200267
 31
0.0
  0
LINE
  5
134
100
AcDbEntity
  8
0
  6
Continuous
 62
   174
100
AcDbLine
 10
70.157888
 20
115.200267
 30
0.0
 11
71.157888
 21
115.200267
 31
0.0
  0
LINE
  5
135
100
AcDbEntity
  8
0
  6
Continuous
 62
   174
100
AcDbLine
 10
244.657888
 20
156.700267
 30
0.0
 11
247.657888
 21
156.700267
 31
0.0
  0
LINE
  5
136
100
AcDbEntity
  8
0
  6
Continuous
 62
   174
100
AcDbLine
 10
248.357888
 20
172.200267
 30
0.0
 11
247.657888
 21
172.200267
 31
0.0
  0
LINE
  5
137
100
AcDbEntity
  8
0
  6
Continuous
 62
   174
100
AcDbLine
 10
234.157888
 20
135.200267
 30
0.0
 11
233.157888
 21
135.200267
 31
0.0
  0
LINE
  5
138
100
AcDbEntity
  8
0
  6
HIDDEN
 62
   174
100
AcDbLine
 10
169.032888
 20
133.200267
 30
0.0
 11
169.032888
 21
145.200267
 31
0.0
  0
LINE
  5
139
100
AcDbEntity
  8
0
  6
Continuous
 62
   174
100
AcDbLine
 10
63.457888
 20
131.144887
 30
0.0
 11
63.457888
 21
126.706992
 31
0.0
  0
LINE
  5
13A
100
AcDbEntity
  8
0
  6
Continuous
 62
   174
100
AcDbLine
 10
52.850708
 20
167.777927
 30
0.0
 11
55.957888
 21
167.777927
 31
0.0
  0
LINE
  5
13B
100
AcDbEntity
  8
0
  6
Continuous
 62
   174
100
AcDbLine
 10
71.657888
 20
165.984149
 30
0.0
 11
71.657888
 21
168.200267
 31
0.0
  0
LINE
  5
13C
100
AcDbEntity
  8
0
  6
Continuous
 62
   174
100
AcDbLine
 10
63.457888
 20
115.312767
 30
0.0
 11
70.157888
 21
115.312767
 31
0.0
  0
LINE
  5
13D
100
AcDbEntity
  8
0
  6
Continuous
 62
   174
100
AcDbLine
 10
240.857888
 20
133.260062
 30
0.0
 11
240.857888
 21
135.098439
 31
0.0
  0
LINE
  5
13E
100
AcDbEntity
  8
0
  6
HIDDEN
 62
   174
100
AcDbLine
 10
74.657888
 20
168.200267
 30
0.0
 11
97.657888
 21
168.200267
 31
0.0
  0
LINE
  5
13F
100
AcDbEntity
  8
0
  6
Continuous
 62
   174
100
AcDbLine
 10
233.157888
 20
142.200267
 30
0.0
 11
233.157888
 21
114.200267
 31
0.0
  0
LINE
  5
140
100
AcDbEntity
  8
0
  6
Continuous
 62
   174
100
AcDbLine
 10
59.657888
 20
155.200267
 30
0.0
 11
71.657888
 21
155.200267
 31
0.0
  0
LINE
  5
141
100
AcDbEntity
  8
0
  6
Continuous
 62
   174
100
AcDbLine
 10
55.957888
 20
154.200267
 30
0.0
 11
56.657888
 21
154.200267
 31
0.0
  0
LINE
  5
142
100
AcDbEntity
  8
0
  6
Continuous
 62
   174
100
AcDbLine
 10
247.657888
 20
169.700267
 30
0.0
 11
244.657888
 21
169.700267
 31
0.0
  0
LWPOLYLINE
  5
143
100
AcDbEntity
  8
0
  6
HIDDEN
 62
   174
100
AcDbPolyline
 90
        8
 70
   128
 10
232.657888
 20
165.984149
 10
232.650674
 20
165.342216
 10
232.628275
 20
164.281154
 10
232.615928
 20
163.200267
 10
232.625468
 20
162.310161
 10
232.644217
 20
161.428413
 10
232.657372
 20
160.571231
 10
232.657888
 20
160.416385
  0
LWPOLYLINE
  5
144
100
AcDbEntity
  8
0
  6
HIDDEN
 62
   174
100
AcDbPolyline
 90
        9
 70
   128
 10
251.465068
 20
154.200716
 10
251.761842
 20
154.78661
 10
251.981551
 20
155.380762
 10
252.109518
 20
155.995349
 10
252.129511
 20
156.613076
 10
252.062361
 20
157.118142
 10
251.925375
 20
157.619739
 10
251.722294
 20
158.124234
 10
251.465068
 20
158.622607
  0
LINE
  5
145
100
AcDbEntity
  8
0
  6
HIDDEN
 62
   174
100
AcDbLine
 10
101.257888
 20
125.211478
 30
0.0
 11
101.257888
 21
120.211703
 31
0.0
  0
LINE
  5
146
100
AcDbEntity
  8
0
  6
Continuous
 62
   174
100
AcDbLine
 10
63.457888
 20
123.716389
 30
0.0
 11
63.457888
 21
123.715751
 31
0.0
  0
LINE
  5
147
100
AcDbEntity
  8
0
  6
Continuous
 62
   174
100
AcDbLine
 10
101.157888
 20
143.200267
 30
0.0
 11
101.157888
 21
142.200267
 31
0.0
  0
LINE
  5
148
100
AcDbEntity
  8
0
  6
Continuous
 62
   174
100
AcDbLine
 10
203.157888
 20
143.200267
 30
0.0
 11
203.157888
 21
142.200267
 31
0.0
  0
LINE
  5
149
100
AcDbEntity
  8
0
  6
Continuous
 62
   174
100
AcDbLine
 10
63.457888
 20
133.260062
 30
0.0
 11
63.457888
 21
133.252414
 31
0.0
  0
LINE
  5
14A
100
AcDbEntity
  8
0
  6
Continuous
 62
   174
100
AcDbLine
 10
252.157888
 20
156.944626
 30
0.0
 11
252.157888
 21
169.473804
 31
0.0
  0
LINE
  5
14B
100
AcDbEntity
  8
0
  6
HIDDEN
 62
   174
100
AcDbLine
 10
84.330412
 20
171.200267
 30
0.0
 11
84.330412
 21
171.180267
 31
0.0
  0
CIRCLE
  5
14C
100
AcDbEntity
  8
0
  6
Continuous
 62
   174
100
AcDbCircle
 10
130.157888
 20
137.700267
 30
0.0
 40
2.75
  0
LWPOLYLINE
  5
14D
100
AcDbEntity
  8
0
  6
Continuous
 62
   174
100
AcDbPolyline
 90
        8
 70
   128
 10
71.657888
 20
165.984149
 10
71.665102
 20
165.342216
 10
71.687501
 20
164.281154
 10
71.699848
 20
163.200267
 10
71.690308
 20
162.310161
 10
71.671559
 20
161.428413
 10
71.658405
 20
160.571231
 10
71.657888
 20
160.416385
  0
LWPOLYLINE
  5
14E
100
AcDbEntity
  8
0
  6
HIDDEN
 62
   174
100
AcDbPolyline
 90
        9
 70
   128
 10
251.465068
 20
167.777927
 10
251.761842
 20
168.363821
 10
251.981551
 20
168.957973
 10
252.109518
 20
169.57256
 10
252.129511
 20
170.190287
 10
252.062361
 20
170.695353
 10
251.925375
 20
171.19695
 10
251.722294
 20
171.701445
 10
251.465068
 20
172.199818
  0
LWPOLYLINE
  5
14F
100
AcDbEntity
  8
0
  6
Continuous
 62
   174
100
AcDbPolyline
 90
        9
 70
   128
 10
52.850708
 20
154.200716
 10
52.553934
 20
154.78661
 10
52.334225
 20
155.380762
 10
52.206258
 20
155.995349
 10
52.186265
 20
156.613076
 10
52.253416
 20
157.118142
 10
52.390401
 20
157.619739
 10
52.593483
 20
158.124234
 10
52.850708
 20
158.622607
  0
ENDBLK
  5
150
100
AcDbEntity
  8
0
100
AcDbBlockEnd
  0
BLOCK
  5
153
100
AcDbEntity
  8
0
100
AcDbBlockBegin
  2
*B2
 70
     0
 10
0.0
 20
0.0
 30
0.0
  3
*B2
  1

  0
LINE
  5
154
100
AcDbEntity
  8
0
  6
Continuous
 62
   174
100
AcDbLine
 10
52.850708
 20
57.66943
 30
0.0
 11
55.957888
 21
57.66943
 31
0.0
  0
LINE
  5
155
100
AcDbEntity
  8
0
  6
Continuous
 62
   174
100
AcDbLine
 10
251.465068
 20
41.991817
 30
0.0
 11
248.357888
 21
41.991817
 31
0.0
  0
LINE
  5
156
100
AcDbEntity
  8
0
  6
Continuous
 62
   174
100
AcDbLine
 10
55.957888
 20
49.756003
 30
0.0
 11
55.957888
 21
57.684351
 31
0.0
  0
LINE
  5
157
100
AcDbEntity
  8
0
  6
Continuous
 62
   174
100
AcDbLine
 10
248.357888
 20
49.935932
 30
0.0
 11
248.357888
 21
42.007584
 31
0.0
  0
LINE
  5
158
100
AcDbEntity
  8
0
  6
Continuous
 62
   174
100
AcDbLine
 10
55.957888
 20
42.097655
 30
0.0
 11
55.957888
 21
49.756003
 31
0.0
  0
LINE
  5
159
100
AcDbEntity
  8
0
  6
Continuous
 62
   174
100
AcDbLine
 10
63.457888
 20
39.840623
 30
0.0
 11
70.157888
 21
39.840623
 31
0.0
  0
LINE
  5
15A
100
AcDbEntity
  8
0
  6
Continuous
 62
   174
100
AcDbLine
 10
248.357888
 20
57.594493
 30
0.0
 11
248.357888
 21
49.935932
 31
0.0
  0
LINE
  5
15B
100
AcDbEntity
  8
0
  6
Continuous
 62
   174
100
AcDbLine
 10
240.857888
 20
59.820623
 30
0.0
 11
234.157888
 21
59.820623
 31
0.0
  0
LINE
  5
15C
100
AcDbEntity
  8
0
  6
Continuous
 62
   174
100
AcDbLine
 10
55.957888
 20
40.846436
 30
0.0
 11
55.957888
 21
42.097655
 31
0.0
  0
LINE
  5
15D
100
AcDbEntity
  8
0
  6
Continuous
 62
   174
100
AcDbLine
 10
248.357888
 20
58.845499
 30
0.0
 11
248.357888
 21
57.594493
 31
0.0
  0
LINE
  5
15E
100
AcDbEntity
  8
0
  6
Continuous
 62
   174
100
AcDbLine
 10
55.957888
 20
57.684351
 30
0.0
 11
55.957888
 21
58.845499
 31
0.0
  0
LINE
  5
15F
100
AcDbEntity
  8
0
  6
Continuous
 62
   174
100
AcDbLine
 10
248.357888
 20
42.007584
 30
0.0
 11
248.357888
 21
40.846436
 31
0.0
  0
LINE
  5
160
100
AcDbEntity
  8
0
  6
Continuous
 62
   174
100
AcDbLine
 10
70.157888
 20
59.820623
 30
0.0
 11
63.457888
 21
59.820623
 31
0.0
  0
LINE
  5
161
100
AcDbEntity
  8
0
  6
Continuous
 62
   174
100
AcDbLine
 10
220.409628
 20
48.003148
 30
0.0
 11
216.330412
 21
52.082363
 31
0.0
  0
ARC
  5
162
100
AcDbEntity
  8
0
  6
Continuous
 62
   174
100
AcDbCircle
 10
218.157888
 20
49.830623
 30
0.0
 40
2.9
100
AcDbArc
 50
-219.062228
 51
-50.937772
  0
LINE
  5
163
100
AcDbEntity
  8
0
  6
Continuous
 62
   174
100
AcDbLine
 10
215.906148
 20
51.658099
 30
0.0
 11
219.985364
 21
47.578884
 31
0.0
  0
LINE
  5
164
100
AcDbEntity
  8
0
  6
Continuous
 62
   174
100
AcDbLine
 10
206.675987
 20
42.330623
 30
0.0
 11
203.676037
 21
42.330623
 31
0.0
  0
ARC
  5
165
100
AcDbEntity
  8
0
  6
Continuous
 62
   174
100
AcDbCircle
 10
74.657888
 20
57.330623
 30
0.0
 40
3.0
100
AcDbArc
 50
-270.0
 51
-180.0
  0
LINE
  5
166
100
AcDbEntity
  8
0
  6
Continuous
 62
   174
100
AcDbLine
 10
229.675886
 20
42.330623
 30
0.0
 11
232.676049
 21
42.330623
 31
0.0
  0
LINE
  5
167
100
AcDbEntity
  8
0
  6
Continuous
 62
   174
100
AcDbLine
 10
244.657888
 20
41.846349
 30
0.0
 11
244.657888
 21
57.845586
 31
0.0
  0
LINE
  5
168
100
AcDbEntity
  8
0
  6
Continuous
 62
   174
100
AcDbLine
 10
234.157888
 20
41.797277
 30
0.0
 11
234.157888
 21
41.846349
 31
0.0
  0
LINE
  5
169
100
AcDbEntity
  8
0
  6
Continuous
 62
   174
100
AcDbLine
 10
229.657888
 20
39.330623
 30
0.0
 11
206.657888
 21
39.330623
 31
0.0
  0
LINE
  5
16A
100
AcDbEntity
  8
0
  6
Continuous
 62
   174
100
AcDbLine
 10
234.157888
 20
39.846524
 30
0.0
 11
234.157888
 21
39.959112
 31
0.0
  0
LINE
  5
16B
100
AcDbEntity
  8
0
  6
Continuous
 62
   174
100
AcDbLine
 10
74.657888
 20
42.330623
 30
0.0
 11
97.657888
 21
42.330623
 31
0.0
  0
LINE
  5
16C
100
AcDbEntity
  8
0
  6
Continuous
 62
   174
100
AcDbLine
 10
229.657888
 20
57.330623
 30
0.0
 11
206.657888
 21
57.330623
 31
0.0
  0
LINE
  5
16D
100
AcDbEntity
  8
0
  6
Continuous
 62
   174
100
AcDbLine
 10
192.657888
 20
52.737942
 30
0.0
 11
192.657888
 21
46.923305
 31
0.0
  0
LINE
  5
16E
100
AcDbEntity
  8
0
  6
Continuous
 62
   174
100
AcDbLine
 10
233.157888
 20
60.830623
 30
0.0
 11
203.157888
 21
60.830623
 31
0.0
  0
LINE
  5
16F
100
AcDbEntity
  8
0
  6
Continuous
 62
   174
100
AcDbLine
 10
203.157888
 20
60.830623
 30
0.0
 11
203.157888
 21
38.830623
 31
0.0
  0
LINE
  5
170
100
AcDbEntity
  8
0
  6
Continuous
 62
   174
100
AcDbLine
 10
97.657888
 20
57.345524
 30
0.0
 11
97.657888
 21
60.345474
 31
0.0
  0
LINE
  5
171
100
AcDbEntity
  8
0
  6
Continuous
 62
   174
100
AcDbLine
 10
97.657888
 20
39.346674
 30
0.0
 11
97.657888
 21
42.346411
 31
0.0
  0
ARC
  5
172
100
AcDbEntity
  8
0
  6
Continuous
 62
   174
100
AcDbCircle
 10
97.657888
 20
42.330623
 30
0.0
 40
3.0
100
AcDbArc
 50
-90.0
 51
0.0
  0
LINE
  5
173
100
AcDbEntity
  8
0
  6
Continuous
 62
   174
100
AcDbLine
 10
74.657888
 20
57.345524
 30
0.0
 11
74.657888
 21
60.345474
 31
0.0
  0
LINE
  5
174
100
AcDbEntity
  8
0
  6
Continuous
 62
   174
100
AcDbLine
 10
74.657888
 20
60.330623
 30
0.0
 11
97.657888
 21
60.330623
 31
0.0
  0
LINE
  5
175
100
AcDbEntity
  8
0
  6
Continuous
 62
   174
100
AcDbLine
 10
112.657888
 20
46.923305
 30
0.0
 11
112.657888
 21
52.737942
 31
0.0
  0
ARC
  5
176
100
AcDbEntity
  8
0
  6
Continuous
 62
   174
100
AcDbCircle
 10
192.157888
 20
49.830623
 30
0.0
 40
2.95
100
AcDbArc
 50
-80.241743
 51
80.241743
  0
LINE
  5
177
100
AcDbEntity
  8
0
  6
Continuous
 62
   174
100
AcDbLine
 10
111.657888
 20
46.923305
 30
0.0
 11
111.657888
 21
52.737942
 31
0.0
  0
CIRCLE
  5
178
100
AcDbEntity
  8
0
  6
Continuous
 62
   174
100
AcDbCircle
 10
192.157888
 20
49.830623
 30
0.0
 40
3.0
  0
LINE
  5
179
100
AcDbEntity
  8
0
  6
Continuous
 62
   174
100
AcDbLine
 10
56.657888
 20
43.330623
 30
0.0
 11
59.657888
 21
43.330623
 31
0.0
  0
LINE
  5
17A
100
AcDbEntity
  8
0
  6
Continuous
 62
   174
100
AcDbLine
 10
244.657888
 20
43.330623
 30
0.0
 11
247.657888
 21
43.330623
 31
0.0
  0
ARC
  5
17B
100
AcDbEntity
  8
0
  6
Continuous
 62
   174
100
AcDbCircle
 10
86.157888
 20
49.830623
 30
0.0
 40
2.9
100
AcDbArc
 50
-219.062228
 51
-50.937772
  0
ARC
  5
17C
100
AcDbEntity
  8
0
  6
Continuous
 62
   174
100
AcDbCircle
 10
218.157888
 20
49.830623
 30
0.0
 40
2.9
100
AcDbArc
 50
-39.062228
 51
129.062228
  0
LINE
  5
17D
100
AcDbEntity
  8
0
  6
Continuous
 62
   174
100
AcDbLine
 10
203.676037
 20
57.330623
 30
0.0
 11
206.675987
 21
57.330623
 31
0.0
  0
ARC
  5
17E
100
AcDbEntity
  8
0
  6
Continuous
 62
   174
100
AcDbCircle
 10
206.657888
 20
42.330623
 30
0.0
 40
3.0
100
AcDbArc
 50
-180.0
 51
-90.0
  0
LINE
  5
17F
100
AcDbEntity
  8
0
  6
Continuous
 62
   174
100
AcDbLine
 10
63.457888
 20
59.718123
 30
0.0
 11
70.157888
 21
59.718123
 31
0.0
  0
LINE
  5
180
100
AcDbEntity
  8
0
  6
Continuous
 62
   174
100
AcDbLine
 10
74.676066
 20
57.330623
 30
0.0
 11
71.676116
 21
57.330623
 31
0.0
  0
LINE
  5
181
100
AcDbEntity
  8
0
  6
Continuous
 62
   174
100
AcDbLine
 10
63.457888
 20
41.781432
 30
0.0
 11
70.157888
 21
41.781432
 31
0.0
  0
ARC
  5
182
100
AcDbEntity
  8
0
  6
Continuous
 62
   174
100
AcDbCircle
 10
229.657888
 20
57.330623
 30
0.0
 40
3.0
100
AcDbArc
 50
-360.0
 51
-270.0
  0
LINE
  5
183
100
AcDbEntity
  8
0
  6
Continuous
 62
   174
100
AcDbLine
 10
206.657888
 20
42.330623
 30
0.0
 11
229.657888
 21
42.330623
 31
0.0
  0
LINE
  5
184
100
AcDbEntity
  8
0
  6
Continuous
 62
   174
100
AcDbLine
 10
71.657888
 20
42.330623
 30
0.0
 11
71.657888
 21
43.585625
 31
0.0
  0
LINE
  5
185
100
AcDbEntity
  8
0
  6
Continuous
 62
   174
100
AcDbLine
 10
232.657888
 20
57.330623
 30
0.0
 11
232.657888
 21
56.075621
 31
0.0
  0
LINE
  5
186
100
AcDbEntity
  8
0
  6
Continuous
 62
   174
100
AcDbLine
 10
74.657888
 20
39.346674
 30
0.0
 11
74.657888
 21
42.346411
 31
0.0
  0
LINE
  5
187
100
AcDbEntity
  8
0
  6
Continuous
 62
   174
100
AcDbLine
 10
97.657888
 20
57.330623
 30
0.0
 11
74.657888
 21
57.330623
 31
0.0
  0
LINE
  5
188
100
AcDbEntity
  8
0
  6
Continuous
 62
   174
100
AcDbLine
 10
97.657888
 20
39.330623
 30
0.0
 11
74.657888
 21
39.330623
 31
0.0
  0
LINE
  5
189
100
AcDbEntity
  8
0
  6
Continuous
 62
   174
100
AcDbLine
 10
234.157888
 20
57.845586
 30
0.0
 11
234.157888
 21
57.894658
 31
0.0
  0
LINE
  5
18A
100
AcDbEntity
  8
0
  6
Continuous
 62
   174
100
AcDbLine
 10
234.157888
 20
59.733035
 30
0.0
 11
234.157888
 21
59.845411
 31
0.0
  0
ARC
  5
18B
100
AcDbEntity
  8
0
  6
Continuous
 62
   174
100
AcDbCircle
 10
192.157888
 20
49.830623
 30
0.0
 40
2.95
100
AcDbArc
 50
-260.241743
 51
-99.758257
  0
LINE
  5
18C
100
AcDbEntity
  8
0
  6
Continuous
 62
   174
100
AcDbLine
 10
206.657888
 20
57.330623
 30
0.0
 11
206.657888
 21
42.330623
 31
0.0
  0
LINE
  5
18D
100
AcDbEntity
  8
0
  6
Continuous
 62
   174
100
AcDbLine
 10
247.657888
 20
56.330623
 30
0.0
 11
244.657888
 21
56.330623
 31
0.0
  0
LINE
  5
18E
100
AcDbEntity
  8
0
  6
Continuous
 62
   174
100
AcDbLine
 10
71.157888
 20
60.830623
 30
0.0
 11
101.157888
 21
60.830623
 31
0.0
  0
LINE
  5
18F
100
AcDbEntity
  8
0
  6
Continuous
 62
   174
100
AcDbLine
 10
71.157888
 20
38.830623
 30
0.0
 11
71.157888
 21
41.830623
 31
0.0
  0
ARC
  5
190
100
AcDbEntity
  8
0
  6
Continuous
 62
   174
100
AcDbCircle
 10
86.157888
 20
49.830623
 30
0.0
 40
2.9
100
AcDbArc
 50
-39.062228
 51
129.062228
  0
LINE
  5
191
100
AcDbEntity
  8
0
  6
Continuous
 62
   174
100
AcDbLine
 10
97.675965
 20
57.330623
 30
0.0
 11
100.676127
 21
57.330623
 31
0.0
  0
LINE
  5
192
100
AcDbEntity
  8
0
  6
Continuous
 62
   174
100
AcDbLine
 10
70.157888
 20
39.959112
 30
0.0
 11
70.157888
 21
39.846524
 31
0.0
  0
LINE
  5
193
100
AcDbEntity
  8
0
  6
Continuous
 62
   174
100
AcDbLine
 10
70.157888
 20
57.894658
 30
0.0
 11
70.157888
 21
57.845586
 31
0.0
  0
ARC
  5
194
100
AcDbEntity
  8
0
  6
Continuous
 62
   174
100
AcDbCircle
 10
112.157888
 20
49.830623
 30
0.0
 40
2.95
100
AcDbArc
 50
-260.241743
 51
-99.758257
  0
LINE
  5
195
100
AcDbEntity
  8
0
  6
Continuous
 62
   174
100
AcDbLine
 10
97.657888
 20
42.330623
 30
0.0
 11
97.657888
 21
57.330623
 31
0.0
  0
CIRCLE
  5
196
100
AcDbEntity
  8
0
  6
Continuous
 62
   174
100
AcDbCircle
 10
218.157888
 20
49.830623
 30
0.0
 40
3.25
  0
LINE
  5
197
100
AcDbEntity
  8
0
  6
Continuous
 62
   174
100
AcDbLine
 10
206.657888
 20
42.346411
 30
0.0
 11
206.657888
 21
39.346674
 31
0.0
  0
LINE
  5
198
100
AcDbEntity
  8
0
  6
Continuous
 62
   174
100
AcDbLine
 10
206.657888
 20
60.345474
 30
0.0
 11
206.657888
 21
57.345524
 31
0.0
  0
LINE
  5
199
100
AcDbEntity
  8
0
  6
Continuous
 62
   174
100
AcDbLine
 10
229.657888
 20
42.346411
 30
0.0
 11
229.657888
 21
39.346674
 31
0.0
  0
LINE
  5
19A
100
AcDbEntity
  8
0
  6
Continuous
 62
   174
100
AcDbLine
 10
240.857888
 20
39.943123
 30
0.0
 11
234.157888
 21
39.943123
 31
0.0
  0
LINE
  5
19B
100
AcDbEntity
  8
0
  6
Continuous
 62
   174
100
AcDbLine
 10
59.657888
 20
57.845586
 30
0.0
 11
59.657888
 21
41.846349
 31
0.0
  0
LINE
  5
19C
100
AcDbEntity
  8
0
  6
Continuous
 62
   174
100
AcDbLine
 10
206.657888
 20
60.330623
 30
0.0
 11
229.657888
 21
60.330623
 31
0.0
  0
ARC
  5
19D
100
AcDbEntity
  8
0
  6
Continuous
 62
   174
100
AcDbCircle
 10
112.157888
 20
49.830623
 30
0.0
 40
2.95
100
AcDbArc
 50
-80.241743
 51
80.241743
  0
CIRCLE
  5
19E
100
AcDbEntity
  8
0
  6
Continuous
 62
   174
100
AcDbCircle
 10
112.157888
 20
49.830623
 30
0.0
 40
3.0
  0
LINE
  5
19F
100
AcDbEntity
  8
0
  6
Continuous
 62
   174
100
AcDbLine
 10
187.157888
 20
38.830623
 30
0.0
 11
117.157888
 21
38.830623
 31
0.0
  0
LINE
  5
1A0
100
AcDbEntity
  8
0
  6
Continuous
 62
   174
100
AcDbLine
 10
234.157888
 20
39.840623
 30
0.0
 11
240.857888
 21
39.840623
 31
0.0
  0
CIRCLE
  5
1A1
100
AcDbEntity
  8
0
  6
Continuous
 62
   174
100
AcDbCircle
 10
86.157888
 20
49.830623
 30
0.0
 40
3.25
  0
LINE
  5
1A2
100
AcDbEntity
  8
0
  6
Continuous
 62
   174
100
AcDbLine
 10
88.409628
 20
48.003148
 30
0.0
 11
84.330412
 21
52.082363
 31
0.0
  0
LINE
  5
1A3
100
AcDbEntity
  8
0
  6
Continuous
 62
   174
100
AcDbLine
 10
100.676127
 20
42.330623
 30
0.0
 11
97.675965
 21
42.330623
 31
0.0
  0
ARC
  5
1A4
100
AcDbEntity
  8
0
  6
Continuous
 62
   174
100
AcDbCircle
 10
97.657888
 20
57.330623
 30
0.0
 40
3.0
100
AcDbArc
 50
0.0
 51
90.0
  0
ARC
  5
1A5
100
AcDbEntity
  8
0
  6
Continuous
 62
   174
100
AcDbCircle
 10
206.657888
 20
57.330623
 30
0.0
 40
3.0
100
AcDbArc
 50
-270.0
 51
-180.0
  0
LINE
  5
1A6
100
AcDbEntity
  8
0
  6
Continuous
 62
   174
100
AcDbLine
 10
229.657888
 20
60.345474
 30
0.0
 11
229.657888
 21
57.345524
 31
0.0
  0
LINE
  5
1A7
100
AcDbEntity
  8
0
  6
Continuous
 62
   174
100
AcDbLine
 10
71.676116
 20
42.330623
 30
0.0
 11
74.676066
 21
42.330623
 31
0.0
  0
LINE
  5
1A8
100
AcDbEntity
  8
0
  6
Continuous
 62
   174
100
AcDbLine
 10
232.676049
 20
57.330623
 30
0.0
 11
229.675886
 21
57.330623
 31
0.0
  0
LINE
  5
1A9
100
AcDbEntity
  8
0
  6
Continuous
 62
   174
100
AcDbLine
 10
240.857888
 20
57.879815
 30
0.0
 11
234.157888
 21
57.879815
 31
0.0
  0
ARC
  5
1AA
100
AcDbEntity
  8
0
  6
Continuous
 62
   174
100
AcDbCircle
 10
74.657888
 20
42.330623
 30
0.0
 40
3.0
100
AcDbArc
 50
-180.0
 51
-90.0
  0
LINE
  5
1AB
100
AcDbEntity
  8
0
  6
Continuous
 62
   174
100
AcDbLine
 10
63.457888
 20
57.872192
 30
0.0
 11
70.157888
 21
57.872192
 31
0.0
  0
LINE
  5
1AC
100
AcDbEntity
  8
0
  6
Continuous
 62
   174
100
AcDbLine
 10
240.857888
 20
41.789055
 30
0.0
 11
234.157888
 21
41.789055
 31
0.0
  0
LINE
  5
1AD
100
AcDbEntity
  8
0
  6
Continuous
 62
   174
100
AcDbLine
 10
70.157888
 20
59.845411
 30
0.0
 11
70.157888
 21
59.733035
 31
0.0
  0
LINE
  5
1AE
100
AcDbEntity
  8
0
  6
Continuous
 62
   174
100
AcDbLine
 10
101.157888
 20
38.830623
 30
0.0
 11
101.157888
 21
60.830623
 31
0.0
  0
LINE
  5
1AF
100
AcDbEntity
  8
0
  6
Continuous
 62
   174
100
AcDbLine
 10
71.157888
 20
38.830623
 30
0.0
 11
101.157888
 21
38.830623
 31
0.0
  0
LINE
  5
1B0
100
AcDbEntity
  8
0
  6
Continuous
 62
   174
100
AcDbLine
 10
117.157888
 20
38.830623
 30
0.0
 11
117.157888
 21
60.830623
 31
0.0
  0
LINE
  5
1B1
100
AcDbEntity
  8
0
  6
Continuous
 62
   174
100
AcDbLine
 10
56.657888
 20
58.845499
 30
0.0
 11
56.657888
 21
40.846436
 31
0.0
  0
LINE
  5
1B2
100
AcDbEntity
  8
0
  6
Continuous
 62
   174
100
AcDbLine
 10
117.157888
 20
38.830623
 30
0.0
 11
101.157888
 21
38.830623
 31
0.0
  0
LINE
  5
1B3
100
AcDbEntity
  8
0
  6
Continuous
 62
   174
100
AcDbLine
 10
187.157888
 20
60.830623
 30
0.0
 11
203.157888
 21
60.830623
 31
0.0
  0
LINE
  5
1B4
100
AcDbEntity
  8
0
  6
Continuous
 62
   174
100
AcDbLine
 10
232.657888
 20
43.585625
 30
0.0
 11
232.657888
 21
42.330623
 31
0.0
  0
LINE
  5
1B5
100
AcDbEntity
  8
0
  6
Continuous
 62
   174
100
AcDbLine
 10
83.906148
 20
51.658099
 30
0.0
 11
87.985364
 21
47.578884
 31
0.0
  0
LINE
  5
1B6
100
AcDbEntity
  8
0
  6
Continuous
 62
   174
100
AcDbLine
 10
63.457888
 20
41.789055
 30
0.0
 11
70.157888
 21
41.789055
 31
0.0
  0
LINE
  5
1B7
100
AcDbEntity
  8
0
  6
Continuous
 62
   174
100
AcDbLine
 10
240.857888
 20
57.872192
 30
0.0
 11
234.157888
 21
57.872192
 31
0.0
  0
ARC
  5
1B8
100
AcDbEntity
  8
0
  6
Continuous
 62
   174
100
AcDbCircle
 10
229.657888
 20
42.330623
 30
0.0
 40
3.0
100
AcDbArc
 50
-90.0
 51
0.0
  0
LINE
  5
1B9
100
AcDbEntity
  8
0
  6
Continuous
 62
   174
100
AcDbLine
 10
100.657888
 20
57.330623
 30
0.0
 11
100.657888
 21
42.330623
 31
0.0
  0
LINE
  5
1BA
100
AcDbEntity
  8
0
  6
Continuous
 62
   174
100
AcDbLine
 10
203.657888
 20
42.330623
 30
0.0
 11
203.657888
 21
57.330623
 31
0.0
  0
LINE
  5
1BB
100
AcDbEntity
  8
0
  6
Continuous
 62
   174
100
AcDbLine
 10
70.157888
 20
41.846349
 30
0.0
 11
70.157888
 21
41.797277
 31
0.0
  0
LINE
  5
1BC
100
AcDbEntity
  8
0
  6
Continuous
 62
   174
100
AcDbLine
 10
191.657888
 20
52.737942
 30
0.0
 11
191.657888
 21
46.923305
 31
0.0
  0
LINE
  5
1BD
100
AcDbEntity
  8
0
  6
Continuous
 62
   174
100
AcDbLine
 10
59.657888
 20
56.330623
 30
0.0
 11
56.657888
 21
56.330623
 31
0.0
  0
LINE
  5
1BE
100
AcDbEntity
  8
0
  6
Continuous
 62
   174
100
AcDbLine
 10
187.157888
 20
38.830623
 30
0.0
 11
187.157888
 21
60.830623
 31
0.0
  0
LINE
  5
1BF
100
AcDbEntity
  8
0
  6
Continuous
 62
   174
100
AcDbLine
 10
247.657888
 20
40.846436
 30
0.0
 11
247.657888
 21
58.845499
 31
0.0
  0
LINE
  5
1C0
100
AcDbEntity
  8
0
  6
Continuous
 62
   174
100
AcDbLine
 10
233.157888
 20
38.830623
 30
0.0
 11
203.157888
 21
38.830623
 31
0.0
  0
LINE
  5
1C1
100
AcDbEntity
  8
0
  6
Continuous
 62
   174
100
AcDbLine
 10
71.657888
 20
56.075621
 30
0.0
 11
71.657888
 21
57.330623
 31
0.0
  0
LINE
  5
1C2
100
AcDbEntity
  8
0
  6
Continuous
 62
   174
100
AcDbLine
 10
240.857888
 20
39.856508
 30
0.0
 11
240.857888
 21
39.959112
 31
0.0
  0
CIRCLE
  5
1C3
100
AcDbEntity
  8
0
  6
Continuous
 62
   174
100
AcDbCircle
 10
141.157888
 20
49.830623
 30
0.0
 40
5.875
  0
LINE
  5
1C4
100
AcDbEntity
  8
0
  6
Continuous
 62
   174
100
AcDbLine
 10
63.457888
 20
41.846349
 30
0.0
 11
63.457888
 21
41.804925
 31
0.0
  0
LINE
  5
1C5
100
AcDbEntity
  8
0
  6
Continuous
 62
   174
100
AcDbLine
 10
240.857888
 20
41.797277
 30
0.0
 11
240.857888
 21
41.804925
 31
0.0
  0
LINE
  5
1C6
100
AcDbEntity
  8
0
  6
Continuous
 62
   174
100
AcDbLine
 10
74.657888
 20
57.330623
 30
0.0
 11
74.657888
 21
49.830623
 31
0.0
  0
LINE
  5
1C7
100
AcDbEntity
  8
0
  6
Continuous
 62
   174
100
AcDbLine
 10
233.157888
 20
39.830623
 30
0.0
 11
234.157888
 21
39.830623
 31
0.0
  0
LINE
  5
1C8
100
AcDbEntity
  8
0
  6
Continuous
 62
   174
100
AcDbLine
 10
233.157888
 20
41.830623
 30
0.0
 11
233.157888
 21
38.830623
 31
0.0
  0
LWPOLYLINE
  5
1C9
100
AcDbEntity
  8
0
  6
Continuous
 62
   174
100
AcDbPolyline
 90
        8
 70
   128
 10
251.465068
 20
41.991817
 10
251.615455
 20
41.991817
 10
251.750203
 20
41.991817
 10
251.900894
 20
41.991817
 10
252.017267
 20
41.991817
 10
252.095501
 20
41.991817
 10
252.132552
 20
41.991817
 10
252.135483
 20
41.991817
  0
LINE
  5
1CA
100
AcDbEntity
  8
0
  6
Continuous
 62
   174
100
AcDbLine
 10
252.157888
 20
46.743944
 30
0.0
 11
252.157888
 21
57.594493
 31
0.0
  0
LWPOLYLINE
  5
1CB
100
AcDbEntity
  8
0
  6
Continuous
 62
   174
100
AcDbPolyline
 90
        7
 70
   128
 10
252.157888
 20
57.579496
 10
252.101338
 20
57.579496
 10
252.016679
 20
57.579496
 10
251.905433
 20
57.579496
 10
251.770208
 20
57.579496
 10
251.625834
 20
57.579496
 10
251.465068
 20
57.579496
  0
LINE
  5
1CC
100
AcDbEntity
  8
0
  6
Continuous
 62
   174
100
AcDbLine
 10
251.465068
 20
49.920557
 30
0.0
 11
248.357888
 21
49.920557
 31
0.0
  0
LINE
  5
1CD
100
AcDbEntity
  8
0
  6
Continuous
 62
   174
100
AcDbLine
 10
71.157888
 20
57.830623
 30
0.0
 11
71.157888
 21
60.830623
 31
0.0
  0
LINE
  5
1CE
100
AcDbEntity
  8
0
  6
Continuous
 62
   174
100
AcDbLine
 10
234.157888
 20
59.830623
 30
0.0
 11
233.157888
 21
59.830623
 31
0.0
  0
LINE
  5
1CF
100
AcDbEntity
  8
0
  6
Continuous
 62
   174
100
AcDbLine
 10
240.857888
 20
57.894658
 30
0.0
 11
240.857888
 21
59.733035
 31
0.0
  0
ARC
  5
1D0
100
AcDbEntity
  8
0
  6
Continuous
 62
   174
100
AcDbCircle
 10
141.157888
 20
49.830623
 30
0.0
 40
6.58
100
AcDbArc
 50
-105.0
 51
195.0
  0
LINE
  5
1D1
100
AcDbEntity
  8
0
  6
Continuous
 62
   174
100
AcDbLine
 10
229.657888
 20
49.830623
 30
0.0
 11
229.657888
 21
57.330623
 31
0.0
  0
LINE
  5
1D2
100
AcDbEntity
  8
0
  6
Continuous
 62
   174
100
AcDbLine
 10
63.457888
 20
59.835427
 30
0.0
 11
63.457888
 21
59.733035
 31
0.0
  0
LINE
  5
1D3
100
AcDbEntity
  8
0
  6
Continuous
 62
   174
100
AcDbLine
 10
240.857888
 20
41.804925
 30
0.0
 11
240.857888
 21
41.846349
 31
0.0
  0
LINE
  5
1D4
100
AcDbEntity
  8
0
  6
Continuous
 62
   174
100
AcDbLine
 10
63.457888
 20
57.894658
 30
0.0
 11
63.457888
 21
57.887223
 31
0.0
  0
LINE
  5
1D5
100
AcDbEntity
  8
0
  6
Continuous
 62
   174
100
AcDbLine
 10
52.850708
 20
49.74069
 30
0.0
 11
55.957888
 21
49.74069
 31
0.0
  0
LINE
  5
1D6
100
AcDbEntity
  8
0
  6
Continuous
 62
   174
100
AcDbLine
 10
187.157888
 20
38.830623
 30
0.0
 11
203.157888
 21
38.830623
 31
0.0
  0
ARC
  5
1D7
100
AcDbEntity
  8
0
  6
Continuous
 62
   174
100
AcDbCircle
 10
163.157888
 20
49.830623
 30
0.0
 40
6.58
100
AcDbArc
 50
-105.0
 51
195.0
  0
LINE
  5
1D8
100
AcDbEntity
  8
0
  6
Continuous
 62
   174
100
AcDbLine
 10
71.157888
 20
59.830623
 30
0.0
 11
70.157888
 21
59.830623
 31
0.0
  0
LINE
  5
1D9
100
AcDbEntity
  8
0
  6
Continuous
 62
   174
100
AcDbLine
 10
74.657888
 20
49.830623
 30
0.0
 11
74.657888
 21
42.330623
 31
0.0
  0
LWPOLYLINE
  5
1DA
100
AcDbEntity
  8
0
  6
Continuous
 62
   174
100
AcDbPolyline
 90
        8
 70
   128
 10
52.850708
 20
57.66943
 10
52.700321
 20
57.66943
 10
52.565573
 20
57.66943
 10
52.414882
 20
57.66943
 10
52.298509
 20
57.66943
 10
52.220275
 20
57.66943
 10
52.183224
 20
57.66943
 10
52.180293
 20
57.66943
  0
LWPOLYLINE
  5
1DB
100
AcDbEntity
  8
0
  6
Continuous
 62
   174
100
AcDbPolyline
 90
       16
 70
   128
 10
71.657888
 20
56.075621
 10
71.675707
 20
55.799769
 10
71.726127
 20
55.508102
 10
71.804595
 20
55.204131
 10
71.938218
 20
54.80345
 10
72.104478
 20
54.387453
 10
72.297521
 20
53.959985
 10
72.511489
 20
53.524892
 10
72.778395
 20
53.016068
 10
73.064408
 20
52.498279
 10
73.365354
 20
51.974088
 10
73.677062
 20
51.446057
 10
73.995359
 20
50.916747
 10
74.320696
 20
50.381799
 10
74.648546
 20
49.845879
 10
74.657888
 20
49.830623
  0
LINE
  5
1DC
100
AcDbEntity
  8
0
  6
Continuous
 62
   174
100
AcDbLine
 10
240.857888
 20
59.718123
 30
0.0
 11
234.157888
 21
59.718123
 31
0.0
  0
LINE
  5
1DD
100
AcDbEntity
  8
0
  6
Continuous
 62
   174
100
AcDbLine
 10
70.157888
 20
39.830623
 30
0.0
 11
71.157888
 21
39.830623
 31
0.0
  0
LINE
  5
1DE
100
AcDbEntity
  8
0
  6
Continuous
 62
   174
100
AcDbLine
 10
52.157888
 20
57.645476
 30
0.0
 11
52.157888
 21
54.492363
 31
0.0
  0
LINE
  5
1DF
100
AcDbEntity
  8
0
  6
Continuous
 62
   174
100
AcDbLine
 10
251.465068
 20
57.579496
 30
0.0
 11
248.357888
 21
57.579496
 31
0.0
  0
LINE
  5
1E0
100
AcDbEntity
  8
0
  6
Continuous
 62
   174
100
AcDbLine
 10
187.157888
 20
60.830623
 30
0.0
 11
117.157888
 21
60.830623
 31
0.0
  0
LINE
  5
1E1
100
AcDbEntity
  8
0
  6
Continuous
 62
   174
100
AcDbLine
 10
63.457888
 20
57.887223
 30
0.0
 11
63.457888
 21
57.845586
 31
0.0
  0
LINE
  5
1E2
100
AcDbEntity
  8
0
  6
Continuous
 62
   174
100
AcDbLine
 10
252.135483
 20
41.991817
 30
0.0
 11
252.157888
 21
42.030623
 31
0.0
  0
LINE
  5
1E3
100
AcDbEntity
  8
0
  6
Continuous
 62
   174
100
AcDbLine
 10
63.457888
 20
41.804925
 30
0.0
 11
63.457888
 21
41.797277
 31
0.0
  0
LWPOLYLINE
  5
1E4
100
AcDbEntity
  8
0
  6
Continuous
 62
   174
100
AcDbPolyline
 90
       16
 70
   128
 10
229.657888
 20
49.830623
 10
229.66723
 20
49.845879
 10
230.063105
 20
50.493109
 10
230.455562
 20
51.140302
 10
230.838712
 20
51.783856
 10
231.206665
 20
52.420167
 10
231.495031
 20
52.937993
 10
231.766524
 20
53.450203
 10
232.014985
 20
53.952932
 10
232.23425
 20
54.442313
 10
232.367052
 20
54.775531
 10
232.479736
 20
55.100819
 10
232.568255
 20
55.415336
 10
232.628563
 20
55.716242
 10
232.650342
 20
55.899294
 10
232.657888
 20
56.075621
  0
LINE
  5
1E5
100
AcDbEntity
  8
0
  6
Continuous
 62
   174
100
AcDbLine
 10
52.157888
 20
52.948203
 30
0.0
 11
52.157888
 21
42.097655
 31
0.0
  0
LINE
  5
1E6
100
AcDbEntity
  8
0
  6
Continuous
 62
   174
100
AcDbLine
 10
63.457888
 20
39.943123
 30
0.0
 11
70.157888
 21
39.943123
 31
0.0
  0
LINE
  5
1E7
100
AcDbEntity
  8
0
  6
Continuous
 62
   174
100
AcDbLine
 10
240.857888
 20
59.733035
 30
0.0
 11
240.857888
 21
59.835427
 31
0.0
  0
LINE
  5
1E8
100
AcDbEntity
  8
0
  6
Continuous
 62
   174
100
AcDbLine
 10
52.850708
 20
42.081751
 30
0.0
 11
55.957888
 21
42.081751
 31
0.0
  0
LINE
  5
1E9
100
AcDbEntity
  8
0
  6
Continuous
 62
   174
100
AcDbLine
 10
117.157888
 20
60.830623
 30
0.0
 11
101.157888
 21
60.830623
 31
0.0
  0
LWPOLYLINE
  5
1EA
100
AcDbEntity
  8
0
  6
Continuous
 62
   174
100
AcDbPolyline
 90
       16
 70
   128
 10
74.657888
 20
49.830623
 10
74.648546
 20
49.815368
 10
74.252671
 20
49.168138
 10
73.860214
 20
48.520944
 10
73.477065
 20
47.877391
 10
73.109111
 20
47.24108
 10
72.820746
 20
46.723253
 10
72.549252
 20
46.211043
 10
72.300792
 20
45.708315
 10
72.081526
 20
45.218934
 10
71.948724
 20
44.885716
 10
71.83604
 20
44.560428
 10
71.747521
 20
44.245911
 10
71.687214
 20
43.945005
 10
71.665434
 20
43.761953
 10
71.657888
 20
43.585625
  0
LINE
  5
1EB
100
AcDbEntity
  8
0
  6
Continuous
 62
   174
100
AcDbLine
 10
240.857888
 20
41.781432
 30
0.0
 11
234.157888
 21
41.781432
 31
0.0
  0
LINE
  5
1EC
100
AcDbEntity
  8
0
  6
Continuous
 62
   174
100
AcDbLine
 10
52.180293
 20
57.66943
 30
0.0
 11
52.157888
 21
57.630623
 31
0.0
  0
LWPOLYLINE
  5
1ED
100
AcDbEntity
  8
0
  6
Continuous
 62
   174
100
AcDbPolyline
 90
       12
 70
   128
 10
52.850708
 20
42.081751
 10
52.645134
 20
42.756513
 10
52.471297
 20
43.438174
 10
52.334225
 20
44.12565
 10
52.237298
 20
44.834119
 10
52.187216
 20
45.546777
 10
52.186265
 20
46.26008
 10
52.222937
 20
46.843663
 10
52.291654
 20
47.42543
 10
52.390401
 20
48.003672
 10
52.593483
 20
48.877484
 10
52.850708
 20
49.74069
  0
LWPOLYLINE
  5
1EE
100
AcDbEntity
  8
0
  6
Continuous
 62
   174
100
AcDbPolyline
 90
        7
 70
   128
 10
52.157888
 20
42.081751
 10
52.214439
 20
42.081751
 10
52.299097
 20
42.081751
 10
52.410344
 20
42.081751
 10
52.545569
 20
42.081751
 10
52.689942
 20
42.081751
 10
52.850708
 20
42.081751
  0
LWPOLYLINE
  5
1EF
100
AcDbEntity
  8
0
  6
Continuous
 62
   174
100
AcDbPolyline
 90
       16
 70
   128
 10
232.657888
 20
43.585625
 10
232.64007
 20
43.861478
 10
232.589649
 20
44.153145
 10
232.511182
 20
44.457116
 10
232.377558
 20
44.857797
 10
232.211298
 20
45.273794
 10
232.018256
 20
45.701261
 10
231.804288
 20
46.136355
 10
231.537381
 20
46.645179
 10
231.251369
 20
47.162968
 10
230.950422
 20
47.687158
 10
230.638714
 20
48.21519
 10
230.320418
 20
48.744499
 10
229.99508
 20
49.279448
 10
229.66723
 20
49.815368
 10
229.657888
 20
49.830623
  0
LINE
  5
1F0
100
AcDbEntity
  8
0
  6
Continuous
 62
   174
100
AcDbLine
 10
240.857888
 20
57.887223
 30
0.0
 11
240.857888
 21
57.894658
 31
0.0
  0
LINE
  5
1F1
100
AcDbEntity
  8
0
  6
Continuous
 62
   174
100
AcDbLine
 10
63.457888
 20
39.959112
 30
0.0
 11
63.457888
 21
39.856508
 31
0.0
  0
LINE
  5
1F2
100
AcDbEntity
  8
0
  6
Continuous
 62
   174
100
AcDbLine
 10
252.157888
 20
42.046459
 30
0.0
 11
252.157888
 21
45.199571
 31
0.0
  0
LWPOLYLINE
  5
1F3
100
AcDbEntity
  8
0
  6
Continuous
 62
   174
100
AcDbPolyline
 90
        5
 70
   128
 10
252.157888
 20
45.184029
 10
252.065864
 20
44.381336
 10
251.915664
 20
43.581968
 10
251.712522
 20
42.783198
 10
251.465068
 20
41.991817
  0
LINE
  5
1F4
100
AcDbEntity
  8
0
  6
Continuous
 62
   174
100
AcDbLine
 10
232.616946
 20
41.830623
 30
0.0
 11
244.657888
 21
41.830623
 31
0.0
  0
LINE
  5
1F5
100
AcDbEntity
  8
0
  6
Continuous
 62
   174
100
AcDbLine
 10
63.457888
 20
57.879815
 30
0.0
 11
70.157888
 21
57.879815
 31
0.0
  0
LWPOLYLINE
  5
1F6
100
AcDbEntity
  8
0
  6
Continuous
 62
   174
100
AcDbPolyline
 90
        5
 70
   128
 10
251.465068
 20
49.920557
 10
251.709273
 20
49.14056
 10
251.911326
 20
48.349844
 10
252.06388
 20
47.544012
 10
252.157888
 20
46.728345
  0
LINE
  5
1F7
100
AcDbEntity
  8
0
  6
Continuous
 62
   174
100
AcDbLine
 10
252.157888
 20
45.184029
 30
0.0
 11
252.157888
 21
46.728345
 31
0.0
  0
LINE
  5
1F8
100
AcDbEntity
  8
0
  6
Continuous
 62
   174
100
AcDbLine
 10
247.657888
 20
40.830623
 30
0.0
 11
248.357888
 21
40.830623
 31
0.0
  0
LINE
  5
1F9
100
AcDbEntity
  8
0
  6
Continuous
 62
   174
100
AcDbLine
 10
71.69883
 20
57.830623
 30
0.0
 11
59.657888
 21
57.830623
 31
0.0
  0
LINE
  5
1FA
100
AcDbEntity
  8
0
  6
Continuous
 62
   174
100
AcDbLine
 10
244.657888
 20
57.830623
 30
0.0
 11
232.615928
 21
57.830623
 31
0.0
  0
LINE
  5
1FB
100
AcDbEntity
  8
0
  6
Continuous
 62
   174
100
AcDbLine
 10
240.857888
 20
39.959112
 30
0.0
 11
240.857888
 21
41.797277
 31
0.0
  0
LINE
  5
1FC
100
AcDbEntity
  8
0
  6
Continuous
 62
   174
100
AcDbLine
 10
59.657888
 20
41.830623
 30
0.0
 11
71.699848
 21
41.830623
 31
0.0
  0
LINE
  5
1FD
100
AcDbEntity
  8
0
  6
Continuous
 62
   174
100
AcDbLine
 10
55.957888
 20
40.830623
 30
0.0
 11
56.657888
 21
40.830623
 31
0.0
  0
LINE
  5
1FE
100
AcDbEntity
  8
0
  6
Continuous
 62
   174
100
AcDbLine
 10
248.357888
 20
58.830623
 30
0.0
 11
247.657888
 21
58.830623
 31
0.0
  0
LINE
  5
1FF
100
AcDbEntity
  8
0
  6
Continuous
 62
   174
100
AcDbLine
 10
240.857888
 20
57.845586
 30
0.0
 11
240.857888
 21
57.887223
 31
0.0
  0
LWPOLYLINE
  5
200
100
AcDbEntity
  8
0
  6
Continuous
 62
   174
100
AcDbPolyline
 90
        5
 70
   128
 10
52.850708
 20
49.74069
 10
52.606503
 20
50.520687
 10
52.40445
 20
51.311403
 10
52.251896
 20
52.117235
 10
52.157888
 20
52.932902
  0
LWPOLYLINE
  5
201
100
AcDbEntity
  8
0
  6
Continuous
 62
   174
100
AcDbPolyline
 90
        5
 70
   128
 10
52.157888
 20
54.477218
 10
52.249913
 20
55.279911
 10
52.400112
 20
56.079278
 10
52.603254
 20
56.878049
 10
52.850708
 20
57.66943
  0
LINE
  5
202
100
AcDbEntity
  8
0
  6
Continuous
 62
   174
100
AcDbLine
 10
63.457888
 20
41.797277
 30
0.0
 11
63.457888
 21
39.959112
 31
0.0
  0
LWPOLYLINE
  5
203
100
AcDbEntity
  8
0
  6
Continuous
 62
   174
100
AcDbPolyline
 90
       12
 70
   128
 10
251.465068
 20
57.579496
 10
251.670642
 20
56.904734
 10
251.844479
 20
56.223073
 10
251.981551
 20
55.535597
 10
252.078479
 20
54.827128
 10
252.12856
 20
54.11447
 10
252.129511
 20
53.401167
 10
252.092839
 20
52.817584
 10
252.024122
 20
52.235816
 10
251.925375
 20
51.657575
 10
251.722294
 20
50.783763
 10
251.465068
 20
49.920557
  0
CIRCLE
  5
204
100
AcDbEntity
  8
0
  6
Continuous
 62
   174
100
AcDbCircle
 10
163.157888
 20
49.830623
 30
0.0
 40
5.875
  0
LINE
  5
205
100
AcDbEntity
  8
0
  6
Continuous
 62
   174
100
AcDbLine
 10
229.657888
 20
42.330623
 30
0.0
 11
229.657888
 21
49.830623
 31
0.0
  0
LINE
  5
206
100
AcDbEntity
  8
0
  6
Continuous
 62
   174
100
AcDbLine
 10
56.657888
 20
58.830623
 30
0.0
 11
55.957888
 21
58.830623
 31
0.0
  0
LINE
  5
207
100
AcDbEntity
  8
0
  6
Continuous
 62
   174
100
AcDbLine
 10
233.157888
 20
60.830623
 30
0.0
 11
233.157888
 21
57.830623
 31
0.0
  0
LINE
  5
208
100
AcDbEntity
  8
0
  6
Continuous
 62
   174
100
AcDbLine
 10
63.457888
 20
59.733035
 30
0.0
 11
63.457888
 21
57.894658
 31
0.0
  0
LINE
  5
209
100
AcDbEntity
  8
0
  6
Continuous
 62
   174
100
AcDbLine
 10
52.157888
 20
54.477218
 30
0.0
 11
52.157888
 21
52.932902
 31
0.0
  0
ENDBLK
  5
20A
100
AcDbEntity
  8
0
100
AcDbBlockEnd
  0
BLOCK
  5
20D
100
AcDbEntity
  8
0
100
AcDbBlockBegin
  2
*B3
 70
     0
 10
0.0
 20
0.0
 30
0.0
  3
*B3
  1

  0
LINE
  5
20E
100
AcDbEntity
  8
0
  6
Continuous
 62
   172
100
AcDbLine
 10
84.841703
 20
119.377426
 30
0.0
 11
67.150255
 21
89.292473
 31
0.0
  0
LINE
  5
20F
100
AcDbEntity
  8
0
  6
Continuous
 62
   172
100
AcDbLine
 10
67.150255
 20
89.292473
 30
0.0
 11
58.741703
 21
89.292473
 31
0.0
  0
ENDBLK
  5
210
100
AcDbEntity
  8
0
100
AcDbBlockEnd
  0
BLOCK
  5
213
100
AcDbEntity
  8
0
100
AcDbBlockBegin
  2
*B4
 70
     0
 10
0.0
 20
0.0
 30
0.0
  3
*B4
  1

  0
LINE
  5
214
100
AcDbEntity
  8
0
  6
Continuous
 62
   172
100
AcDbLine
 10
65.403099
 20
91.116031
 30
0.0
 11
63.603099
 21
91.777426
 31
0.0
  0
LINE
  5
215
100
AcDbEntity
  8
0
  6
Continuous
 62
   172
100
AcDbLine
 10
65.403099
 20
91.116031
 30
0.0
 11
63.603099
 21
90.577426
 31
0.0
  0
LINE
  5
216
100
AcDbEntity
  8
0
  6
Continuous
 62
   172
100
AcDbLine
 10
64.203099
 20
91.116031
 30
0.0
 11
65.403099
 21
91.116031
 31
0.0
  0
LINE
  5
217
100
AcDbEntity
  8
0
  6
Continuous
 62
   172
100
AcDbLine
 10
65.403099
 20
101.438821
 30
0.0
 11
63.603099
 21
100.777426
 31
0.0
  0
LINE
  5
218
100
AcDbEntity
  8
0
  6
Continuous
 62
   172
100
AcDbLine
 10
65.403099
 20
101.438821
 30
0.0
 11
63.603099
 21
101.977426
 31
0.0
  0
LINE
  5
219
100
AcDbEntity
  8
0
  6
Continuous
 62
   172
100
AcDbLine
 10
64.203099
 20
101.438821
 30
0.0
 11
65.403099
 21
101.438821
 31
0.0
  0
ARC
  5
21A
100
AcDbEntity
  8
0
  6
Continuous
 62
   172
100
AcDbCircle
 10
64.203099
 20
96.277426
 30
0.0
 40
5.161395
100
AcDbArc
 50
-270.0
 51
-90.0
  0
ENDBLK
  5
21B
100
AcDbEntity
  8
0
100
AcDbBlockEnd
  0
BLOCK
  5
21E
100
AcDbEntity
  8
0
100
AcDbBlockBegin
  2
*B5
 70
     0
 10
0.0
 20
0.0
 30
0.0
  3
*B5
  1

  0
ENDBLK
  5
21F
100
AcDbEntity
  8
0
100
AcDbBlockEnd
  0
BLOCK
  5
221
100
AcDbEntity
  8
0
100
AcDbBlockBegin
  2
*B6
 70
     0
 10
0.0
 20
0.0
 30
0.0
  3
*B6
  1

  0
LINE
  5
222
100
AcDbEntity
  8
0
  6
Continuous
 62
   172
100
AcDbLine
 10
94.146081
 20
75.3086
 30
0.0
 11
85.73753
 21
75.3086
 31
0.0
  0
LINE
  5
223
100
AcDbEntity
  8
0
  6
Continuous
 62
   172
100
AcDbLine
 10
105.610526
 20
55.812893
 30
0.0
 11
94.146081
 21
75.3086
 31
0.0
  0
ENDBLK
  5
224
100
AcDbEntity
  8
0
100
AcDbBlockEnd
  0
BLOCK
  5
227
100
AcDbEntity
  8
0
100
AcDbBlockBegin
  2
*B7
 70
     0
 10
0.0
 20
0.0
 30
0.0
  3
*B7
  1

  0
LINE
  5
228
100
AcDbEntity
  8
0
  6
Continuous
 62
   172
100
AcDbLine
 10
92.398925
 20
77.132158
 30
0.0
 11
90.598925
 21
77.793553
 31
0.0
  0
LINE
  5
229
100
AcDbEntity
  8
0
  6
Continuous
 62
   172
100
AcDbLine
 10
92.398925
 20
77.132158
 30
0.0
 11
90.598925
 21
76.593553
 31
0.0
  0
LINE
  5
22A
100
AcDbEntity
  8
0
  6
Continuous
 62
   172
100
AcDbLine
 10
91.198925
 20
77.132158
 30
0.0
 11
92.398925
 21
77.132158
 31
0.0
  0
LINE
  5
22B
100
AcDbEntity
  8
0
  6
Continuous
 62
   172
100
AcDbLine
 10
92.398925
 20
87.454948
 30
0.0
 11
90.598925
 21
86.793553
 31
0.0
  0
LINE
  5
22C
100
AcDbEntity
  8
0
  6
Continuous
 62
   172
100
AcDbLine
 10
92.398925
 20
87.454948
 30
0.0
 11
90.598925
 21
87.993553
 31
0.0
  0
LINE
  5
22D
100
AcDbEntity
  8
0
  6
Continuous
 62
   172
100
AcDbLine
 10
91.198925
 20
87.454948
 30
0.0
 11
92.398925
 21
87.454948
 31
0.0
  0
ARC
  5
22E
100
AcDbEntity
  8
0
  6
Continuous
 62
   172
100
AcDbCircle
 10
91.198925
 20
82.293553
 30
0.0
 40
5.161395
100
AcDbArc
 50
-270.0
 51
-90.0
  0
ENDBLK
  5
22F
100
AcDbEntity
  8
0
100
AcDbBlockEnd
  0
BLOCK
  5
232
100
AcDbEntity
  8
0
100
AcDbBlockBegin
  2
*B8
 70
     0
 10
0.0
 20
0.0
 30
0.0
  3
*B8
  1

  0
ENDBLK
  5
233
100
AcDbEntity
  8
0
100
AcDbBlockEnd
  0
BLOCK
  5
235
100
AcDbEntity
  8
0
100
AcDbBlockBegin
  2
*B9
 70
     0
 10
0.0
 20
0.0
 30
0.0
  3
*B9
  1

  0
LINE
  5
236
100
AcDbEntity
  8
0
  6
Continuous
 62
     0
100
AcDbLine
 10
141.176089
 20
156.009293
 30
0.0
 11
163.176076
 21
156.009293
 31
0.0
  0
SOLID
  5
237
100
AcDbEntity
  8
0
  6
Continuous
 62
     0
100
AcDbTrace
 10
144.676101
 20
156.60941
 30
0.0
 11
141.176089
 21
156.009293
 31
0.0
 12
144.676101
 22
155.409388
 32
0.0
 13
144.676101
 23
155.409388
 33
0.0
  0
SOLID
  5
238
100
AcDbEntity
  8
0
  6
Continuous
 62
     0
100
AcDbTrace
 10
159.676063
 20
155.409388
 30
0.0
 11
163.176076
 21
156.009293
 31
0.0
 12
159.676063
 22
156.60941
 32
0.0
 13
159.676063
 23
156.60941
 33
0.0
  0
ENDBLK
  5
239
100
AcDbEntity
  8
0
100
AcDbBlockEnd
  0
BLOCK
  5
23C
100
AcDbEntity
  8
0
100
AcDbBlockBegin
  2
*B10
 70
     0
 10
0.0
 20
0.0
 30
0.0
  3
*B10
  1

  0
LINE
  5
23D
100
AcDbEntity
  8
0
  6
Continuous
 62
     0
100
AcDbLine
 10
174.175963
 20
166.008842
 30
0.0
 11
130.175989
 21
166.008842
 31
0.0
  0
SOLID
  5
23E
100
AcDbEntity
  8
0
  6
Continuous
 62
     0
100
AcDbTrace
 10
170.675951
 20
165.408937
 30
0.0
 11
174.175963
 21
166.008842
 31
0.0
 12
170.675951
 22
166.608747
 32
0.0
 13
170.675951
 23
166.608747
 33
0.0
  0
SOLID
  5
23F
100
AcDbEntity
  8
0
  6
Continuous
 62
     0
100
AcDbTrace
 10
133.676002
 20
166.608747
 30
0.0
 11
130.175989
 21
166.008842
 31
0.0
 12
133.676002
 22
165.408937
 32
0.0
 13
133.676002
 23
165.408937
 33
0.0
  0
ENDBLK
  5
240
100
AcDbEntity
  8
0
100
AcDbBlockEnd
  0
BLOCK
  5
243
100
AcDbEntity
  8
0
100
AcDbBlockBegin
  2
*B11
 70
     0
 10
0.0
 20
0.0
 30
0.0
  3
*B11
  1

  0
LINE
  5
244
100
AcDbEntity
  8
0
  6
Continuous
 62
     0
100
AcDbLine
 10
198.018151
 20
112.71204
 30
0.0
 11
198.018151
 21
137.710703
 31
0.0
  0
SOLID
  5
245
100
AcDbEntity
  8
0
  6
Continuous
 62
     0
100
AcDbTrace
 10
197.418034
 20
116.21184
 30
0.0
 11
198.018151
 21
112.71204
 31
0.0
 12
198.618056
 22
116.21184
 32
0.0
 13
198.618056
 23
116.21184
 33
0.0
  0
SOLID
  5
246
100
AcDbEntity
  8
0
  6
Continuous
 62
     0
100
AcDbTrace
 10
198.618056
 20
134.210903
 30
0.0
 11
198.018151
 21
137.710703
 31
0.0
 12
197.418034
 22
134.210903
 32
0.0
 13
197.418034
 23
134.210903
 33
0.0
  0
ENDBLK
  5
247
100
AcDbEntity
  8
0
100
AcDbBlockEnd
  0
BLOCK
  5
24A
100
AcDbEntity
  8
0
100
AcDbBlockBegin
  2
*B12
 70
     0
 10
0.0
 20
0.0
 30
0.0
  3
*B12
  1

  0
LINE
  5
24B
100
AcDbEntity
  8
0
  6
Continuous
 62
     0
100
AcDbLine
 10
40.51823
 20
172.208215
 30
0.0
 11
40.51823
 21
105.21259
 31
0.0
  0
SOLID
  5
24C
100
AcDbEntity
  8
0
  6
Continuous
 62
     0
100
AcDbTrace
 10
41.118135
 20
168.708415
 30
0.0
 11
40.51823
 21
172.208215
 31
0.0
 12
39.918113
 22
168.708415
 32
0.0
 13
39.918113
 23
168.708415
 33
0.0
  0
SOLID
  5
24D
100
AcDbEntity
  8
0
  6
Continuous
 62
     0
100
AcDbTrace
 10
39.918113
 20
108.71239
 30
0.0
 11
40.51823
 21
105.21259
 31
0.0
 12
41.118135
 22
108.71239
 32
0.0
 13
41.118135
 23
108.71239
 33
0.0
  0
ENDBLK
  5
24E
100
AcDbEntity
  8
0
100
AcDbBlockEnd
  0
BLOCK
  5
251
100
AcDbEntity
  8
0
100
AcDbBlockBegin
  2
*B13
 70
     0
 10
0.0
 20
0.0
 30
0.0
  3
*B13
  1

  0
LINE
  5
252
100
AcDbEntity
  8
0
  6
Continuous
 62
     0
100
AcDbLine
 10
100.676127
 20
185.007817
 30
0.0
 11
52.176016
 21
185.007817
 31
0.0
  0
SOLID
  5
253
100
AcDbEntity
  8
0
  6
Continuous
 62
     0
100
AcDbTrace
 10
97.176115
 20
184.4077
 30
0.0
 11
100.676127
 21
185.007817
 31
0.0
 12
97.176115
 22
185.607722
 32
0.0
 13
97.176115
 23
185.607722
 33
0.0
  0
SOLID
  5
254
100
AcDbEntity
  8
0
  6
Continuous
 62
     0
100
AcDbTrace
 10
55.676029
 20
185.607722
 30
0.0
 11
52.176016
 21
185.007817
 31
0.0
 12
55.676029
 22
184.4077
 32
0.0
 13
55.676029
 23
184.4077
 33
0.0
  0
ENDBLK
  5
255
100
AcDbEntity
  8
0
100
AcDbBlockEnd
  0
BLOCK
  5
258
100
AcDbEntity
  8
0
100
AcDbBlockBegin
  2
*B14
 70
     0
 10
0.0
 20
0.0
 30
0.0
  3
*B14
  1

  0
LINE
  5
259
100
AcDbEntity
  8
0
  6
Continuous
 62
     0
100
AcDbLine
 10
139.925933
 20
156.009293
 30
0.0
 11
108.784192
 21
156.009293
 31
0.0
  0
SOLID
  5
25A
100
AcDbEntity
  8
0
  6
Continuous
 62
     0
100
AcDbTrace
 10
136.42592
 20
156.60941
 30
0.0
 11
132.92612
 21
156.009293
 31
0.0
 12
136.42592
 22
155.409388
 32
0.0
 13
136.42592
 23
155.409388
 33
0.0
  0
SOLID
  5
25B
100
AcDbEntity
  8
0
  6
Continuous
 62
     0
100
AcDbTrace
 10
123.926058
 20
155.409388
 30
0.0
 11
127.42607
 21
156.009293
 31
0.0
 12
123.926058
 22
156.60941
 32
0.0
 13
123.926058
 23
156.60941
 33
0.0
  0
ENDBLK
  5
25C
100
AcDbEntity
  8
0
100
AcDbBlockEnd
  0
BLOCK
  5
25F
100
AcDbEntity
  8
0
100
AcDbBlockBegin
  2
*B15
 70
     0
 10
0.0
 20
0.0
 30
0.0
  3
*B15
  1

  0
LINE
  5
260
100
AcDbEntity
  8
0
  6
Continuous
 62
     0
100
AcDbLine
 10
117.176064
 20
92.012981
 30
0.0
 11
130.175989
 21
92.012981
 31
0.0
  0
SOLID
  5
261
100
AcDbEntity
  8
0
  6
Continuous
 62
     0
100
AcDbTrace
 10
120.676077
 20
92.612886
 30
0.0
 11
117.176064
 21
92.012981
 31
0.0
 12
120.676077
 22
91.413076
 32
0.0
 13
120.676077
 23
91.413076
 33
0.0
  0
SOLID
  5
262
100
AcDbEntity
  8
0
  6
Continuous
 62
     0
100
AcDbTrace
 10
126.675977
 20
91.413076
 30
0.0
 11
130.175989
 21
92.012981
 31
0.0
 12
126.675977
 22
92.612886
 32
0.0
 13
126.675977
 23
92.612886
 33
0.0
  0
ENDBLK
  5
263
100
AcDbEntity
  8
0
100
AcDbBlockEnd
  0
BLOCK
  5
266
100
AcDbEntity
  8
0
100
AcDbBlockBegin
  2
*B16
 70
     0
 10
0.0
 20
0.0
 30
0.0
  3
*B16
  1

  0
LINE
  5
267
100
AcDbEntity
  8
0
  6
Continuous
 62
     0
100
AcDbLine
 10
130.175989
 20
92.012981
 30
0.0
 11
152.175976
 21
92.012981
 31
0.0
  0
SOLID
  5
268
100
AcDbEntity
  8
0
  6
Continuous
 62
     0
100
AcDbTrace
 10
133.676002
 20
92.612886
 30
0.0
 11
130.175989
 21
92.012981
 31
0.0
 12
133.676002
 22
91.413076
 32
0.0
 13
133.676002
 23
91.413076
 33
0.0
  0
SOLID
  5
269
100
AcDbEntity
  8
0
  6
Continuous
 62
     0
100
AcDbTrace
 10
148.675964
 20
91.413076
 30
0.0
 11
152.175976
 21
92.012981
 31
0.0
 12
148.675964
 22
92.612886
 32
0.0
 13
148.675964
 23
92.612886
 33
0.0
  0
ENDBLK
  5
26A
100
AcDbEntity
  8
0
100
AcDbBlockEnd
  0
BLOCK
  5
26D
100
AcDbEntity
  8
0
100
AcDbBlockBegin
  2
*B17
 70
     0
 10
0.0
 20
0.0
 30
0.0
  3
*B17
  1

  0
LINE
  5
26E
100
AcDbEntity
  8
0
  6
Continuous
 62
     0
100
AcDbLine
 10
152.175976
 20
92.012981
 30
0.0
 11
174.175963
 21
92.012981
 31
0.0
  0
SOLID
  5
26F
100
AcDbEntity
  8
0
  6
Continuous
 62
     0
100
AcDbTrace
 10
155.675988
 20
92.612886
 30
0.0
 11
152.175976
 21
92.012981
 31
0.0
 12
155.675988
 22
91.413076
 32
0.0
 13
155.675988
 23
91.413076
 33
0.0
  0
SOLID
  5
270
100
AcDbEntity
  8
0
  6
Continuous
 62
     0
100
AcDbTrace
 10
170.675951
 20
91.413076
 30
0.0
 11
174.175963
 21
92.012981
 31
0.0
 12
170.675951
 22
92.612886
 32
0.0
 13
170.675951
 23
92.612886
 33
0.0
  0
ENDBLK
  5
271
100
AcDbEntity
  8
0
100
AcDbBlockEnd
  0
BLOCK
  5
274
100
AcDbEntity
  8
0
100
AcDbBlockBegin
  2
*B18
 70
     0
 10
0.0
 20
0.0
 30
0.0
  3
*B18
  1

  0
LINE
  5
275
100
AcDbEntity
  8
0
  6
Continuous
 62
     0
100
AcDbLine
 10
174.175963
 20
92.012981
 30
0.0
 11
187.175888
 21
92.012981
 31
0.0
  0
SOLID
  5
276
100
AcDbEntity
  8
0
  6
Continuous
 62
     0
100
AcDbTrace
 10
177.675975
 20
92.612886
 30
0.0
 11
174.175963
 21
92.012981
 31
0.0
 12
177.675975
 22
91.413076
 32
0.0
 13
177.675975
 23
91.413076
 33
0.0
  0
SOLID
  5
277
100
AcDbEntity
  8
0
  6
Continuous
 62
     0
100
AcDbTrace
 10
183.676088
 20
91.413076
 30
0.0
 11
187.175888
 21
92.012981
 31
0.0
 12
183.676088
 22
92.612886
 32
0.0
 13
183.676088
 23
92.612886
 33
0.0
  0
ENDBLK
  5
278
100
AcDbEntity
  8
0
100
AcDbBlockEnd
  0
BLOCK
  5
27B
100
AcDbEntity
  8
0
100
AcDbBlockBegin
  2
*B19
 70
     0
 10
0.0
 20
0.0
 30
0.0
  3
*B19
  1

  0
LINE
  5
27C
100
AcDbEntity
  8
0
  6
Continuous
 62
     0
100
AcDbLine
 10
203.175975
 20
80.013606
 30
0.0
 11
101.175977
 21
80.013606
 31
0.0
  0
SOLID
  5
27D
100
AcDbEntity
  8
0
  6
Continuous
 62
     0
100
AcDbTrace
 10
199.675962
 20
79.413701
 30
0.0
 11
203.175975
 21
80.013606
 31
0.0
 12
199.675962
 22
80.613723
 32
0.0
 13
199.675962
 23
80.613723
 33
0.0
  0
SOLID
  5
27E
100
AcDbEntity
  8
0
  6
Continuous
 62
     0
100
AcDbTrace
 10
104.67599
 20
80.613723
 30
0.0
 11
101.175977
 21
80.013606
 31
0.0
 12
104.67599
 22
79.413701
 32
0.0
 13
104.67599
 23
79.413701
 33
0.0
  0
ENDBLK
  5
27F
100
AcDbEntity
  8
0
100
AcDbBlockEnd
  0
BLOCK
  5
282
100
AcDbEntity
  8
0
100
AcDbBlockBegin
  2
*B20
 70
     0
 10
0.0
 20
0.0
 30
0.0
  3
*B20
  1

  0
LINE
  5
283
100
AcDbEntity
  8
0
  6
Continuous
 62
     0
100
AcDbLine
 10
150.30106
 20
27.016756
 30
0.0
 11
192.357291
 21
27.016756
 31
0.0
  0
SOLID
  5
284
100
AcDbEntity
  8
0
  6
Continuous
 62
     0
100
AcDbTrace
 10
153.801073
 20
26.416639
 30
0.0
 11
157.301085
 21
27.016756
 31
0.0
 12
153.801073
 22
27.616661
 32
0.0
 13
153.801073
 23
27.616661
 33
0.0
  0
SOLID
  5
285
100
AcDbEntity
  8
0
  6
Continuous
 62
     0
100
AcDbTrace
 10
172.551079
 20
27.616661
 30
0.0
 11
169.051066
 21
27.016756
 31
0.0
 12
172.551079
 22
26.416639
 32
0.0
 13
172.551079
 23
26.416639
 33
0.0
  0
ENDBLK
  5
286
100
AcDbEntity
  8
0
100
AcDbBlockEnd
  0
BLOCK
  5
289
100
AcDbEntity
  8
0
100
AcDbBlockBegin
  2
*B21
 70
     0
 10
0.0
 20
0.0
 30
0.0
  3
*B21
  1

  0
LINE
  5
28A
100
AcDbEntity
  8
0
  6
Continuous
 62
     0
100
AcDbLine
 10
252.0181
 20
105.21259
 30
0.0
 11
252.0181
 21
145.210365
 31
0.0
  0
SOLID
  5
28B
100
AcDbEntity
  8
0
  6
Continuous
 62
     0
100
AcDbTrace
 10
251.417982
 20
108.71239
 30
0.0
 11
252.0181
 21
105.21259
 31
0.0
 12
252.618005
 22
108.71239
 32
0.0
 13
252.618005
 23
108.71239
 33
0.0
  0
SOLID
  5
28C
100
AcDbEntity
  8
0
  6
Continuous
 62
     0
100
AcDbTrace
 10
252.618005
 20
141.710565
 30
0.0
 11
252.0181
 21
145.210365
 31
0.0
 12
251.417982
 22
141.710565
 32
0.0
 13
251.417982
 23
141.710565
 33
0.0
  0
ENDBLK
  5
28D
100
AcDbEntity
  8
0
100
AcDbBlockEnd
  0
BLOCK
  5
290
100
AcDbEntity
  8
0
100
AcDbBlockBegin
  2
*B22
 70
     0
 10
0.0
 20
0.0
 30
0.0
  3
*B22
  1

  0
LINE
  5
291
100
AcDbEntity
  8
0
  6
Continuous
 62
     0
100
AcDbLine
 10
163.176076
 20
156.009293
 30
0.0
 11
187.175888
 21
156.009293
 31
0.0
  0
SOLID
  5
292
100
AcDbEntity
  8
0
  6
Continuous
 62
     0
100
AcDbTrace
 10
166.676088
 20
156.60941
 30
0.0
 11
163.176076
 21
156.009293
 31
0.0
 12
166.676088
 22
155.409388
 32
0.0
 13
166.676088
 23
155.409388
 33
0.0
  0
SOLID
  5
293
100
AcDbEntity
  8
0
  6
Continuous
 62
     0
100
AcDbTrace
 10
183.676088
 20
155.409388
 30
0.0
 11
187.175888
 21
156.009293
 31
0.0
 12
183.676088
 22
156.60941
 32
0.0
 13
183.676088
 23
156.60941
 33
0.0
  0
ENDBLK
  5
294
100
AcDbEntity
  8
0
100
AcDbBlockEnd
  0
BLOCK
  5
297
100
AcDbEntity
  8
0
100
AcDbBlockBegin
  2
*B23
 70
     0
 10
0.0
 20
0.0
 30
0.0
  3
*B23
  1

  0
LINE
  5
298
100
AcDbEntity
  8
0
  6
Continuous
 62
     0
100
AcDbLine
 10
252.175936
 20
185.007817
 30
0.0
 11
203.676037
 21
185.007817
 31
0.0
  0
SOLID
  5
299
100
AcDbEntity
  8
0
  6
Continuous
 62
     0
100
AcDbTrace
 10
248.675923
 20
184.4077
 30
0.0
 11
252.175936
 21
185.007817
 31
0.0
 12
248.675923
 22
185.607722
 32
0.0
 13
248.675923
 23
185.607722
 33
0.0
  0
SOLID
  5
29A
100
AcDbEntity
  8
0
  6
Continuous
 62
     0
100
AcDbTrace
 10
207.176049
 20
185.607722
 30
0.0
 11
203.676037
 21
185.007817
 31
0.0
 12
207.176049
 22
184.4077
 32
0.0
 13
207.176049
 23
184.4077
 33
0.0
  0
ENDBLK
  5
29B
100
AcDbEntity
  8
0
100
AcDbBlockEnd
  0
BLOCK
  5
29E
100
AcDbEntity
  8
0
100
AcDbBlockBegin
  2
*B24
 70
     0
 10
0.0
 20
0.0
 30
0.0
  3
*B24
  1

  0
LINE
  5
29F
100
AcDbEntity
  8
0
  6
Continuous
 62
     0
100
AcDbLine
 10
41.01808
 20
38.846611
 30
0.0
 11
41.01808
 21
60.845324
 31
0.0
  0
SOLID
  5
2A0
100
AcDbEntity
  8
0
  6
Continuous
 62
     0
100
AcDbTrace
 10
40.418175
 20
42.346411
 30
0.0
 11
41.01808
 21
38.846611
 31
0.0
 12
41.618198
 22
42.346411
 32
0.0
 13
41.618198
 23
42.346411
 33
0.0
  0
SOLID
  5
2A1
100
AcDbEntity
  8
0
  6
Continuous
 62
     0
100
AcDbTrace
 10
41.618198
 20
57.345524
 30
0.0
 11
41.01808
 21
60.845324
 31
0.0
 12
40.418175
 22
57.345524
 32
0.0
 13
40.418175
 23
57.345524
 33
0.0
  0
ENDBLK
  5
2A2
100
AcDbEntity
  8
0
100
AcDbBlockEnd
  0
BLOCK
  5
2A5
100
AcDbEntity
  8
0
100
AcDbBlockBegin
  2
*B25
 70
     0
 10
0.0
 20
0.0
 30
0.0
  3
*B25
  1

  0
LINE
  5
2A6
100
AcDbEntity
  8
0
  6
Continuous
 62
     8
100
AcDbLine
 10
187.175888
 20
90.013156
 30
0.0
 11
187.175888
 21
104.212678
 31
0.0
  0
LINE
  5
2A7
100
AcDbEntity
  8
0
  6
Continuous
 62
     8
100
AcDbLine
 10
187.175888
 20
146.210278
 30
0.0
 11
187.175888
 21
158.00933
 31
0.0
  0
ENDBLK
  5
2A8
100
AcDbEntity
  8
0
100
AcDbBlockEnd
  0
BLOCK
  5
2AB
100
AcDbEntity
  8
0
100
AcDbBlockBegin
  2
*B26
 70
     0
 10
0.0
 20
0.0
 30
0.0
  3
*B26
  1

  0
LINE
  5
2AC
100
AcDbEntity
  8
0
  6
Continuous
 62
     8
100
AcDbLine
 10
86.176015
 20
43.596355
 30
0.0
 11
86.176015
 21
48.346099
 31
0.0
  0
LINE
  5
2AD
100
AcDbEntity
  8
0
  6
Continuous
 62
     8
100
AcDbLine
 10
86.176015
 20
51.345836
 30
0.0
 11
86.176015
 21
56.09558
 31
0.0
  0
ENDBLK
  5
2AE
100
AcDbEntity
  8
0
100
AcDbBlockEnd
  0
BLOCK
  5
2B1
100
AcDbEntity
  8
0
100
AcDbBlockBegin
  2
*B27
 70
     0
 10
0.0
 20
0.0
 30
0.0
  3
*B27
  1

  0
LINE
  5
2B2
100
AcDbEntity
  8
0
  6
Continuous
 62
     8
100
AcDbLine
 10
157.301085
 20
25.016719
 30
0.0
 11
157.301085
 21
48.846161
 31
0.0
  0
ENDBLK
  5
2B3
100
AcDbEntity
  8
0
100
AcDbBlockEnd
  0
BLOCK
  5
2B6
100
AcDbEntity
  8
0
100
AcDbBlockBegin
  2
*B28
 70
     0
 10
0.0
 20
0.0
 30
0.0
  3
*B28
  1

  0
LINE
  5
2B7
100
AcDbEntity
  8
0
  6
Continuous
 62
     8
100
AcDbLine
 10
39.018255
 20
60.845324
 30
0.0
 11
116.17594
 21
60.845324
 31
0.0
  0
ENDBLK
  5
2B8
100
AcDbEntity
  8
0
100
AcDbBlockEnd
  0
BLOCK
  5
2BB
100
AcDbEntity
  8
0
100
AcDbBlockBegin
  2
*B29
 70
     0
 10
0.0
 20
0.0
 30
0.0
  3
*B29
  1

  0
LINE
  5
2BC
100
AcDbEntity
  8
0
  6
Continuous
 62
     8
100
AcDbLine
 10
174.175963
 20
164.009017
 30
0.0
 11
174.175963
 21
168.008667
 31
0.0
  0
LINE
  5
2BD
100
AcDbEntity
  8
0
  6
Continuous
 62
     8
100
AcDbLine
 10
174.175963
 20
131.961046
 30
0.0
 11
174.175963
 21
136.210728
 31
0.0
  0
LINE
  5
2BE
100
AcDbEntity
  8
0
  6
Continuous
 62
     8
100
AcDbLine
 10
174.175963
 20
139.210678
 30
0.0
 11
174.175963
 21
145.476753
 31
0.0
  0
LINE
  5
2BF
100
AcDbEntity
  8
0
  6
Continuous
 62
     8
100
AcDbLine
 10
174.175963
 20
146.476878
 30
0.0
 11
174.175963
 21
147.476791
 31
0.0
  0
LINE
  5
2C0
100
AcDbEntity
  8
0
  6
Continuous
 62
     8
100
AcDbLine
 10
174.175963
 20
148.476703
 30
0.0
 11
174.175963
 21
154.742779
 31
0.0
  0
LINE
  5
2C1
100
AcDbEntity
  8
0
  6
Continuous
 62
     8
100
AcDbLine
 10
174.175963
 20
155.742904
 30
0.0
 11
174.175963
 21
156.742817
 31
0.0
  0
LINE
  5
2C2
100
AcDbEntity
  8
0
  6
Continuous
 62
     8
100
AcDbLine
 10
174.175963
 20
157.742729
 30
0.0
 11
174.175963
 21
164.009017
 31
0.0
  0
ENDBLK
  5
2C3
100
AcDbEntity
  8
0
100
AcDbBlockEnd
  0
BLOCK
  5
2C6
100
AcDbEntity
  8
0
100
AcDbBlockBegin
  2
*B30
 70
     0
 10
0.0
 20
0.0
 30
0.0
  3
*B30
  1

  0
LINE
  5
2C7
100
AcDbEntity
  8
0
  6
Continuous
 62
     8
100
AcDbLine
 10
174.175963
 20
90.013156
 30
0.0
 11
174.175963
 21
94.012806
 31
0.0
  0
LINE
  5
2C8
100
AcDbEntity
  8
0
  6
Continuous
 62
     8
100
AcDbLine
 10
174.175963
 20
94.012806
 30
0.0
 11
174.175963
 21
100.746017
 31
0.0
  0
LINE
  5
2C9
100
AcDbEntity
  8
0
  6
Continuous
 62
     8
100
AcDbLine
 10
174.175963
 20
101.74593
 30
0.0
 11
174.175963
 21
102.745842
 31
0.0
  0
LINE
  5
2CA
100
AcDbEntity
  8
0
  6
Continuous
 62
     8
100
AcDbLine
 10
174.175963
 20
103.745755
 30
0.0
 11
174.175963
 21
110.478754
 31
0.0
  0
LINE
  5
2CB
100
AcDbEntity
  8
0
  6
Continuous
 62
     8
100
AcDbLine
 10
174.175963
 20
111.478666
 30
0.0
 11
174.175963
 21
112.478791
 31
0.0
  0
LINE
  5
2CC
100
AcDbEntity
  8
0
  6
Continuous
 62
     8
100
AcDbLine
 10
174.175963
 20
113.478704
 30
0.0
 11
174.175963
 21
120.211703
 31
0.0
  0
ENDBLK
  5
2CD
100
AcDbEntity
  8
0
100
AcDbBlockEnd
  0
BLOCK
  5
2D0
100
AcDbEntity
  8
0
100
AcDbBlockBegin
  2
*B31
 70
     0
 10
0.0
 20
0.0
 30
0.0
  3
*B31
  1

  0
LINE
  5
2D1
100
AcDbEntity
  8
0
  6
Continuous
 62
     8
100
AcDbLine
 10
196.018114
 20
137.710703
 30
0.0
 11
200.018188
 21
137.710703
 31
0.0
  0
LINE
  5
2D2
100
AcDbEntity
  8
0
  6
Continuous
 62
     8
100
AcDbLine
 10
168.426094
 20
137.710703
 30
0.0
 11
172.675988
 21
137.710703
 31
0.0
  0
LINE
  5
2D3
100
AcDbEntity
  8
0
  6
Continuous
 62
     8
100
AcDbLine
 10
175.675938
 20
137.710703
 30
0.0
 11
180.456697
 21
137.710703
 31
0.0
  0
LINE
  5
2D4
100
AcDbEntity
  8
0
  6
Continuous
 62
     8
100
AcDbLine
 10
181.456609
 20
137.710703
 30
0.0
 11
182.456734
 21
137.710703
 31
0.0
  0
LINE
  5
2D5
100
AcDbEntity
  8
0
  6
Continuous
 62
     8
100
AcDbLine
 10
183.456646
 20
137.710703
 30
0.0
 11
188.237405
 21
137.710703
 31
0.0
  0
LINE
  5
2D6
100
AcDbEntity
  8
0
  6
Continuous
 62
     8
100
AcDbLine
 10
189.237318
 20
137.710703
 30
0.0
 11
190.237442
 21
137.710703
 31
0.0
  0
LINE
  5
2D7
100
AcDbEntity
  8
0
  6
Continuous
 62
     8
100
AcDbLine
 10
191.237355
 20
137.710703
 30
0.0
 11
196.018114
 21
137.710703
 31
0.0
  0
ENDBLK
  5
2D8
100
AcDbEntity
  8
0
100
AcDbBlockEnd
  0
BLOCK
  5
2DB
100
AcDbEntity
  8
0
100
AcDbBlockBegin
  2
*B32
 70
     0
 10
0.0
 20
0.0
 30
0.0
  3
*B32
  1

  0
LINE
  5
2DC
100
AcDbEntity
  8
0
  6
Continuous
 62
     8
100
AcDbLine
 10
124.426121
 20
137.710703
 30
0.0
 11
128.676014
 21
137.710703
 31
0.0
  0
LINE
  5
2DD
100
AcDbEntity
  8
0
  6
Continuous
 62
     8
100
AcDbLine
 10
131.675964
 20
137.710703
 30
0.0
 11
135.92607
 21
137.710703
 31
0.0
  0
ENDBLK
  5
2DE
100
AcDbEntity
  8
0
100
AcDbBlockEnd
  0
BLOCK
  5
2E1
100
AcDbEntity
  8
0
100
AcDbBlockBegin
  2
*B33
 70
     0
 10
0.0
 20
0.0
 30
0.0
  3
*B33
  1

  0
LINE
  5
2E2
100
AcDbEntity
  8
0
  6
Continuous
 62
     8
100
AcDbLine
 10
52.676079
 20
49.846074
 30
0.0
 11
58.42616
 21
49.846074
 31
0.0
  0
LINE
  5
2E3
100
AcDbEntity
  8
0
  6
Continuous
 62
     8
100
AcDbLine
 10
59.426072
 20
49.846074
 30
0.0
 11
60.425985
 21
49.846074
 31
0.0
  0
LINE
  5
2E4
100
AcDbEntity
  8
0
  6
Continuous
 62
     8
100
AcDbLine
 10
61.42611
 20
49.846074
 30
0.0
 11
67.175978
 21
49.846074
 31
0.0
  0
LINE
  5
2E5
100
AcDbEntity
  8
0
  6
Continuous
 62
     8
100
AcDbLine
 10
68.176103
 20
49.846074
 30
0.0
 11
69.176016
 21
49.846074
 31
0.0
  0
LINE
  5
2E6
100
AcDbEntity
  8
0
  6
Continuous
 62
     8
100
AcDbLine
 10
70.176141
 20
49.846074
 30
0.0
 11
75.926009
 21
49.846074
 31
0.0
  0
LINE
  5
2E7
100
AcDbEntity
  8
0
  6
Continuous
 62
     8
100
AcDbLine
 10
76.926134
 20
49.846074
 30
0.0
 11
77.926047
 21
49.846074
 31
0.0
  0
LINE
  5
2E8
100
AcDbEntity
  8
0
  6
Continuous
 62
     8
100
AcDbLine
 10
78.925959
 20
49.846074
 30
0.0
 11
84.67604
 21
49.846074
 31
0.0
  0
LINE
  5
2E9
100
AcDbEntity
  8
0
  6
Continuous
 62
     8
100
AcDbLine
 10
87.67599
 20
49.846074
 30
0.0
 11
93.342798
 21
49.846074
 31
0.0
  0
LINE
  5
2EA
100
AcDbEntity
  8
0
  6
Continuous
 62
     8
100
AcDbLine
 10
94.342711
 20
49.846074
 30
0.0
 11
95.342623
 21
49.846074
 31
0.0
  0
LINE
  5
2EB
100
AcDbEntity
  8
0
  6
Continuous
 62
     8
100
AcDbLine
 10
96.342748
 20
49.846074
 30
0.0
 11
102.009344
 21
49.846074
 31
0.0
  0
LINE
  5
2EC
100
AcDbEntity
  8
0
  6
Continuous
 62
     8
100
AcDbLine
 10
103.009469
 20
49.846074
 30
0.0
 11
104.009382
 21
49.846074
 31
0.0
  0
LINE
  5
2ED
100
AcDbEntity
  8
0
  6
Continuous
 62
     8
100
AcDbLine
 10
105.009294
 20
49.846074
 30
0.0
 11
110.676102
 21
49.846074
 31
0.0
  0
LINE
  5
2EE
100
AcDbEntity
  8
0
  6
Continuous
 62
     8
100
AcDbLine
 10
113.676052
 20
49.846074
 30
0.0
 11
120.342773
 21
49.846074
 31
0.0
  0
LINE
  5
2EF
100
AcDbEntity
  8
0
  6
Continuous
 62
     8
100
AcDbLine
 10
121.342685
 20
49.846074
 30
0.0
 11
122.342598
 21
49.846074
 31
0.0
  0
LINE
  5
2F0
100
AcDbEntity
  8
0
  6
Continuous
 62
     8
100
AcDbLine
 10
123.342723
 20
49.846074
 30
0.0
 11
130.009443
 21
49.846074
 31
0.0
  0
LINE
  5
2F1
100
AcDbEntity
  8
0
  6
Continuous
 62
     8
100
AcDbLine
 10
131.009356
 20
49.846074
 30
0.0
 11
132.009268
 21
49.846074
 31
0.0
  0
LINE
  5
2F2
100
AcDbEntity
  8
0
  6
Continuous
 62
     8
100
AcDbLine
 10
133.009393
 20
49.846074
 30
0.0
 11
139.676114
 21
49.846074
 31
0.0
  0
LINE
  5
2F3
100
AcDbEntity
  8
0
  6
Continuous
 62
     8
100
AcDbLine
 10
142.676064
 20
49.846074
 30
0.0
 11
150.676001
 21
49.846074
 31
0.0
  0
LINE
  5
2F4
100
AcDbEntity
  8
0
  6
Continuous
 62
     8
100
AcDbLine
 10
151.675914
 20
49.846074
 30
0.0
 11
152.676039
 21
49.846074
 31
0.0
  0
LINE
  5
2F5
100
AcDbEntity
  8
0
  6
Continuous
 62
     8
100
AcDbLine
 10
153.675951
 20
49.846074
 30
0.0
 11
161.676101
 21
49.846074
 31
0.0
  0
LINE
  5
2F6
100
AcDbEntity
  8
0
  6
Continuous
 62
     8
100
AcDbLine
 10
164.676051
 20
49.846074
 30
0.0
 11
171.342771
 21
49.846074
 31
0.0
  0
LINE
  5
2F7
100
AcDbEntity
  8
0
  6
Continuous
 62
     8
100
AcDbLine
 10
172.342684
 20
49.846074
 30
0.0
 11
173.342596
 21
49.846074
 31
0.0
  0
LINE
  5
2F8
100
AcDbEntity
  8
0
  6
Continuous
 62
     8
100
AcDbLine
 10
174.342721
 20
49.846074
 30
0.0
 11
181.009229
 21
49.846074
 31
0.0
  0
LINE
  5
2F9
100
AcDbEntity
  8
0
  6
Continuous
 62
     8
100
AcDbLine
 10
182.009354
 20
49.846074
 30
0.0
 11
183.009267
 21
49.846074
 31
0.0
  0
LINE
  5
2FA
100
AcDbEntity
  8
0
  6
Continuous
 62
     8
100
AcDbLine
 10
184.009392
 20
49.846074
 30
0.0
 11
190.6759
 21
49.846074
 31
0.0
  0
LINE
  5
2FB
100
AcDbEntity
  8
0
  6
Continuous
 62
     8
100
AcDbLine
 10
193.676062
 20
49.846074
 30
0.0
 11
199.342658
 21
49.846074
 31
0.0
  0
LINE
  5
2FC
100
AcDbEntity
  8
0
  6
Continuous
 62
     8
100
AcDbLine
 10
200.342571
 20
49.846074
 30
0.0
 11
201.342695
 21
49.846074
 31
0.0
  0
LINE
  5
2FD
100
AcDbEntity
  8
0
  6
Continuous
 62
     8
100
AcDbLine
 10
202.342608
 20
49.846074
 30
0.0
 11
208.009416
 21
49.846074
 31
0.0
  0
LINE
  5
2FE
100
AcDbEntity
  8
0
  6
Continuous
 62
     8
100
AcDbLine
 10
209.009329
 20
49.846074
 30
0.0
 11
210.009241
 21
49.846074
 31
0.0
  0
LINE
  5
2FF
100
AcDbEntity
  8
0
  6
Continuous
 62
     8
100
AcDbLine
 10
211.009366
 20
49.846074
 30
0.0
 11
216.675962
 21
49.846074
 31
0.0
  0
LINE
  5
300
100
AcDbEntity
  8
0
  6
Continuous
 62
     8
100
AcDbLine
 10
219.675912
 20
49.846074
 30
0.0
 11
227.009241
 21
49.846074
 31
0.0
  0
LINE
  5
301
100
AcDbEntity
  8
0
  6
Continuous
 62
     8
100
AcDbLine
 10
228.009366
 20
49.846074
 30
0.0
 11
229.009278
 21
49.846074
 31
0.0
  0
LINE
  5
302
100
AcDbEntity
  8
0
  6
Continuous
 62
     8
100
AcDbLine
 10
230.009403
 20
49.846074
 30
0.0
 11
237.342732
 21
49.846074
 31
0.0
  0
LINE
  5
303
100
AcDbEntity
  8
0
  6
Continuous
 62
     8
100
AcDbLine
 10
238.342644
 20
49.846074
 30
0.0
 11
239.342557
 21
49.846074
 31
0.0
  0
LINE
  5
304
100
AcDbEntity
  8
0
  6
Continuous
 62
     8
100
AcDbLine
 10
240.342682
 20
49.846074
 30
0.0
 11
247.676011
 21
49.846074
 31
0.0
  0
ENDBLK
  5
305
100
AcDbEntity
  8
0
100
AcDbBlockEnd
  0
BLOCK
  5
308
100
AcDbEntity
  8
0
100
AcDbBlockBegin
  2
*B34
 70
     0
 10
0.0
 20
0.0
 30
0.0
  3
*B34
  1

  0
LINE
  5
309
100
AcDbEntity
  8
0
  6
Continuous
 62
     8
100
AcDbLine
 10
203.676037
 20
169.208902
 30
0.0
 11
203.676037
 21
187.007642
 31
0.0
  0
ENDBLK
  5
30A
100
AcDbEntity
  8
0
100
AcDbBlockEnd
  0
BLOCK
  5
30D
100
AcDbEntity
  8
0
100
AcDbBlockBegin
  2
*B35
 70
     0
 10
0.0
 20
0.0
 30
0.0
  3
*B35
  1

  0
LINE
  5
30E
100
AcDbEntity
  8
0
  6
Continuous
 62
     8
100
AcDbLine
 10
52.176016
 20
172.008742
 30
0.0
 11
52.176016
 21
187.007642
 31
0.0
  0
ENDBLK
  5
30F
100
AcDbEntity
  8
0
100
AcDbBlockEnd
  0
BLOCK
  5
312
100
AcDbEntity
  8
0
100
AcDbBlockBegin
  2
*B36
 70
     0
 10
0.0
 20
0.0
 30
0.0
  3
*B36
  1

  0
LINE
  5
313
100
AcDbEntity
  8
0
  6
Continuous
 62
     8
100
AcDbLine
 10
163.176076
 20
40.971558
 30
0.0
 11
163.176076
 21
48.346099
 31
0.0
  0
LINE
  5
314
100
AcDbEntity
  8
0
  6
Continuous
 62
     8
100
AcDbLine
 10
163.176076
 20
51.345836
 30
0.0
 11
163.176076
 21
58.720589
 31
0.0
  0
ENDBLK
  5
315
100
AcDbEntity
  8
0
100
AcDbBlockEnd
  0
BLOCK
  5
318
100
AcDbEntity
  8
0
100
AcDbBlockBegin
  2
*B37
 70
     0
 10
0.0
 20
0.0
 30
0.0
  3
*B37
  1

  0
LINE
  5
319
100
AcDbEntity
  8
0
  6
Continuous
 62
     8
100
AcDbLine
 10
192.176087
 20
43.896307
 30
0.0
 11
192.176087
 21
48.346099
 31
0.0
  0
LINE
  5
31A
100
AcDbEntity
  8
0
  6
Continuous
 62
     8
100
AcDbLine
 10
192.176087
 20
51.345836
 30
0.0
 11
192.176087
 21
55.795627
 31
0.0
  0
ENDBLK
  5
31B
100
AcDbEntity
  8
0
100
AcDbBlockEnd
  0
BLOCK
  5
31E
100
AcDbEntity
  8
0
100
AcDbBlockBegin
  2
*B38
 70
     0
 10
0.0
 20
0.0
 30
0.0
  3
*B38
  1

  0
LINE
  5
31F
100
AcDbEntity
  8
0
  6
Continuous
 62
     8
100
AcDbLine
 10
38.518193
 20
105.21259
 30
0.0
 11
116.17594
 21
105.21259
 31
0.0
  0
LINE
  5
320
100
AcDbEntity
  8
0
  6
Continuous
 62
     8
100
AcDbLine
 10
188.176013
 20
105.21259
 30
0.0
 11
254.018137
 21
105.21259
 31
0.0
  0
ENDBLK
  5
321
100
AcDbEntity
  8
0
100
AcDbBlockEnd
  0
BLOCK
  5
324
100
AcDbEntity
  8
0
100
AcDbBlockBegin
  2
*B39
 70
     0
 10
0.0
 20
0.0
 30
0.0
  3
*B39
  1

  0
LINE
  5
325
100
AcDbEntity
  8
0
  6
Continuous
 62
     8
100
AcDbLine
 10
130.175989
 20
90.013156
 30
0.0
 11
130.175989
 21
94.012806
 31
0.0
  0
LINE
  5
326
100
AcDbEntity
  8
0
  6
Continuous
 62
     8
100
AcDbLine
 10
130.175989
 20
94.012806
 30
0.0
 11
130.175989
 21
100.746017
 31
0.0
  0
LINE
  5
327
100
AcDbEntity
  8
0
  6
Continuous
 62
     8
100
AcDbLine
 10
130.175989
 20
101.74593
 30
0.0
 11
130.175989
 21
102.745842
 31
0.0
  0
LINE
  5
328
100
AcDbEntity
  8
0
  6
Continuous
 62
     8
100
AcDbLine
 10
130.175989
 20
103.745755
 30
0.0
 11
130.175989
 21
110.478754
 31
0.0
  0
LINE
  5
329
100
AcDbEntity
  8
0
  6
Continuous
 62
     8
100
AcDbLine
 10
130.175989
 20
111.478666
 30
0.0
 11
130.175989
 21
112.478791
 31
0.0
  0
LINE
  5
32A
100
AcDbEntity
  8
0
  6
Continuous
 62
     8
100
AcDbLine
 10
130.175989
 20
113.478704
 30
0.0
 11
130.175989
 21
120.211703
 31
0.0
  0
ENDBLK
  5
32B
100
AcDbEntity
  8
0
100
AcDbBlockEnd
  0
BLOCK
  5
32E
100
AcDbEntity
  8
0
100
AcDbBlockBegin
  2
*B40
 70
     0
 10
0.0
 20
0.0
 30
0.0
  3
*B40
  1

  0
LINE
  5
32F
100
AcDbEntity
  8
0
  6
Continuous
 62
     8
100
AcDbLine
 10
135.426008
 20
112.71204
 30
0.0
 11
139.676114
 21
112.71204
 31
0.0
  0
LINE
  5
330
100
AcDbEntity
  8
0
  6
Continuous
 62
     8
100
AcDbLine
 10
142.676064
 20
112.71204
 30
0.0
 11
146.925957
 21
112.71204
 31
0.0
  0
ENDBLK
  5
331
100
AcDbEntity
  8
0
100
AcDbBlockEnd
  0
BLOCK
  5
334
100
AcDbEntity
  8
0
100
AcDbBlockBegin
  2
*B41
 70
     0
 10
0.0
 20
0.0
 30
0.0
  3
*B41
  1

  0
LINE
  5
335
100
AcDbEntity
  8
0
  6
Continuous
 62
     8
100
AcDbLine
 10
163.176076
 20
154.009468
 30
0.0
 11
163.176076
 21
158.00933
 31
0.0
  0
LINE
  5
336
100
AcDbEntity
  8
0
  6
Continuous
 62
     8
100
AcDbLine
 10
163.176076
 20
106.962384
 30
0.0
 11
163.176076
 21
111.212278
 31
0.0
  0
LINE
  5
337
100
AcDbEntity
  8
0
  6
Continuous
 62
     8
100
AcDbLine
 10
163.176076
 20
114.212015
 30
0.0
 11
163.176076
 21
119.771546
 31
0.0
  0
LINE
  5
338
100
AcDbEntity
  8
0
  6
Continuous
 62
     8
100
AcDbLine
 10
163.176076
 20
120.771671
 30
0.0
 11
163.176076
 21
121.771583
 31
0.0
  0
LINE
  5
339
100
AcDbEntity
  8
0
  6
Continuous
 62
     8
100
AcDbLine
 10
163.176076
 20
122.771496
 30
0.0
 11
163.176076
 21
128.331026
 31
0.0
  0
LINE
  5
33A
100
AcDbEntity
  8
0
  6
Continuous
 62
     8
100
AcDbLine
 10
163.176076
 20
129.331151
 30
0.0
 11
163.176076
 21
130.331064
 31
0.0
  0
LINE
  5
33B
100
AcDbEntity
  8
0
  6
Continuous
 62
     8
100
AcDbLine
 10
163.176076
 20
131.330976
 30
0.0
 11
163.176076
 21
136.890507
 31
0.0
  0
LINE
  5
33C
100
AcDbEntity
  8
0
  6
Continuous
 62
     8
100
AcDbLine
 10
163.176076
 20
137.890419
 30
0.0
 11
163.176076
 21
138.890544
 31
0.0
  0
LINE
  5
33D
100
AcDbEntity
  8
0
  6
Continuous
 62
     8
100
AcDbLine
 10
163.176076
 20
139.890457
 30
0.0
 11
163.176076
 21
145.449987
 31
0.0
  0
LINE
  5
33E
100
AcDbEntity
  8
0
  6
Continuous
 62
     8
100
AcDbLine
 10
163.176076
 20
146.4499
 30
0.0
 11
163.176076
 21
147.450025
 31
0.0
  0
LINE
  5
33F
100
AcDbEntity
  8
0
  6
Continuous
 62
     8
100
AcDbLine
 10
163.176076
 20
148.449937
 30
0.0
 11
163.176076
 21
154.009468
 31
0.0
  0
ENDBLK
  5
340
100
AcDbEntity
  8
0
100
AcDbBlockEnd
  0
BLOCK
  5
343
100
AcDbEntity
  8
0
100
AcDbBlockBegin
  2
*B42
 70
     0
 10
0.0
 20
0.0
 30
0.0
  3
*B42
  1

  0
LINE
  5
344
100
AcDbEntity
  8
0
  6
Continuous
 62
     8
100
AcDbLine
 10
188.176013
 20
145.210365
 30
0.0
 11
254.018137
 21
145.210365
 31
0.0
  0
ENDBLK
  5
345
100
AcDbEntity
  8
0
100
AcDbBlockEnd
  0
BLOCK
  5
348
100
AcDbEntity
  8
0
100
AcDbBlockBegin
  2
*B43
 70
     0
 10
0.0
 20
0.0
 30
0.0
  3
*B43
  1

  0
LINE
  5
349
100
AcDbEntity
  8
0
  6
Continuous
 62
     8
100
AcDbLine
 10
226.675936
 20
163.209215
 30
0.0
 11
232.676049
 21
163.209215
 31
0.0
  0
LINE
  5
34A
100
AcDbEntity
  8
0
  6
Continuous
 62
     8
100
AcDbLine
 10
233.675961
 20
163.209215
 30
0.0
 11
234.675874
 21
163.209215
 31
0.0
  0
LINE
  5
34B
100
AcDbEntity
  8
0
  6
Continuous
 62
     8
100
AcDbLine
 10
235.675999
 20
163.209215
 30
0.0
 11
241.675899
 21
163.209215
 31
0.0
  0
LINE
  5
34C
100
AcDbEntity
  8
0
  6
Continuous
 62
     8
100
AcDbLine
 10
242.676023
 20
163.209215
 30
0.0
 11
243.675936
 21
163.209215
 31
0.0
  0
LINE
  5
34D
100
AcDbEntity
  8
0
  6
Continuous
 62
     8
100
AcDbLine
 10
244.676061
 20
163.209215
 30
0.0
 11
250.675961
 21
163.209215
 31
0.0
  0
ENDBLK
  5
34E
100
AcDbEntity
  8
0
100
AcDbBlockEnd
  0
BLOCK
  5
351
100
AcDbEntity
  8
0
100
AcDbBlockBegin
  2
*B44
 70
     0
 10
0.0
 20
0.0
 30
0.0
  3
*B44
  1

  0
LINE
  5
352
100
AcDbEntity
  8
0
  6
Continuous
 62
     8
100
AcDbLine
 10
38.518193
 20
172.208215
 30
0.0
 11
51.868841
 21
172.208215
 31
0.0
  0
ENDBLK
  5
353
100
AcDbEntity
  8
0
100
AcDbBlockEnd
  0
BLOCK
  5
356
100
AcDbEntity
  8
0
100
AcDbBlockBegin
  2
*B45
 70
     0
 10
0.0
 20
0.0
 30
0.0
  3
*B45
  1

  0
LINE
  5
357
100
AcDbEntity
  8
0
  6
Continuous
 62
     8
100
AcDbLine
 10
169.051066
 20
25.016719
 30
0.0
 11
169.051066
 21
48.846161
 31
0.0
  0
ENDBLK
  5
358
100
AcDbEntity
  8
0
100
AcDbBlockEnd
  0
BLOCK
  5
35B
100
AcDbEntity
  8
0
100
AcDbBlockBegin
  2
*B46
 70
     0
 10
0.0
 20
0.0
 30
0.0
  3
*B46
  1

  0
LINE
  5
35C
100
AcDbEntity
  8
0
  6
Continuous
 62
     8
100
AcDbLine
 10
252.175936
 20
172.008742
 30
0.0
 11
252.175936
 21
187.007642
 31
0.0
  0
ENDBLK
  5
35D
100
AcDbEntity
  8
0
100
AcDbBlockEnd
  0
BLOCK
  5
360
100
AcDbEntity
  8
0
100
AcDbBlockBegin
  2
*B47
 70
     0
 10
0.0
 20
0.0
 30
0.0
  3
*B47
  1

  0
LINE
  5
361
100
AcDbEntity
  8
0
  6
Continuous
 62
     8
100
AcDbLine
 10
100.676127
 20
169.208902
 30
0.0
 11
100.676127
 21
187.007642
 31
0.0
  0
ENDBLK
  5
362
100
AcDbEntity
  8
0
100
AcDbBlockEnd
  0
BLOCK
  5
365
100
AcDbEntity
  8
0
100
AcDbBlockBegin
  2
*B48
 70
     0
 10
0.0
 20
0.0
 30
0.0
  3
*B48
  1

  0
LINE
  5
366
100
AcDbEntity
  8
0
  6
Continuous
 62
     8
100
AcDbLine
 10
130.175989
 20
164.009017
 30
0.0
 11
130.175989
 21
168.008667
 31
0.0
  0
LINE
  5
367
100
AcDbEntity
  8
0
  6
Continuous
 62
     8
100
AcDbLine
 10
130.175989
 20
131.961046
 30
0.0
 11
130.175989
 21
136.210728
 31
0.0
  0
LINE
  5
368
100
AcDbEntity
  8
0
  6
Continuous
 62
     8
100
AcDbLine
 10
130.175989
 20
139.210678
 30
0.0
 11
130.175989
 21
145.476753
 31
0.0
  0
LINE
  5
369
100
AcDbEntity
  8
0
  6
Continuous
 62
     8
100
AcDbLine
 10
130.175989
 20
146.476878
 30
0.0
 11
130.175989
 21
147.476791
 31
0.0
  0
LINE
  5
36A
100
AcDbEntity
  8
0
  6
Continuous
 62
     8
100
AcDbLine
 10
130.175989
 20
148.476703
 30
0.0
 11
130.175989
 21
154.742779
 31
0.0
  0
LINE
  5
36B
100
AcDbEntity
  8
0
  6
Continuous
 62
     8
100
AcDbLine
 10
130.175989
 20
155.742904
 30
0.0
 11
130.175989
 21
156.742817
 31
0.0
  0
LINE
  5
36C
100
AcDbEntity
  8
0
  6
Continuous
 62
     8
100
AcDbLine
 10
130.175989
 20
157.742729
 30
0.0
 11
130.175989
 21
164.009017
 31
0.0
  0
ENDBLK
  5
36D
100
AcDbEntity
  8
0
100
AcDbBlockEnd
  0
BLOCK
  5
370
100
AcDbEntity
  8
0
100
AcDbBlockBegin
  2
*B49
 70
     0
 10
0.0
 20
0.0
 30
0.0
  3
*B49
  1

  0
LINE
  5
371
100
AcDbEntity
  8
0
  6
Continuous
 62
     8
100
AcDbLine
 10
132.92612
 20
138.710615
 30
0.0
 11
132.92612
 21
158.00933
 31
0.0
  0
ENDBLK
  5
372
100
AcDbEntity
  8
0
100
AcDbBlockEnd
  0
BLOCK
  5
375
100
AcDbEntity
  8
0
100
AcDbBlockBegin
  2
*B50
 70
     0
 10
0.0
 20
0.0
 30
0.0
  3
*B50
  1

  0
LINE
  5
376
100
AcDbEntity
  8
0
  6
Continuous
 62
     8
100
AcDbLine
 10
127.42607
 20
138.710615
 30
0.0
 11
127.42607
 21
158.00933
 31
0.0
  0
ENDBLK
  5
377
100
AcDbEntity
  8
0
100
AcDbBlockEnd
  0
BLOCK
  5
37A
100
AcDbEntity
  8
0
100
AcDbBlockBegin
  2
*B51
 70
     0
 10
0.0
 20
0.0
 30
0.0
  3
*B51
  1

  0
LINE
  5
37B
100
AcDbEntity
  8
0
  6
Continuous
 62
     8
100
AcDbLine
 10
141.176089
 20
154.009468
 30
0.0
 11
141.176089
 21
158.00933
 31
0.0
  0
LINE
  5
37C
100
AcDbEntity
  8
0
  6
Continuous
 62
     8
100
AcDbLine
 10
141.176089
 20
106.962384
 30
0.0
 11
141.176089
 21
111.212278
 31
0.0
  0
LINE
  5
37D
100
AcDbEntity
  8
0
  6
Continuous
 62
     8
100
AcDbLine
 10
141.176089
 20
114.212015
 30
0.0
 11
141.176089
 21
119.771546
 31
0.0
  0
LINE
  5
37E
100
AcDbEntity
  8
0
  6
Continuous
 62
     8
100
AcDbLine
 10
141.176089
 20
120.771671
 30
0.0
 11
141.176089
 21
121.771583
 31
0.0
  0
LINE
  5
37F
100
AcDbEntity
  8
0
  6
Continuous
 62
     8
100
AcDbLine
 10
141.176089
 20
122.771496
 30
0.0
 11
141.176089
 21
128.331026
 31
0.0
  0
LINE
  5
380
100
AcDbEntity
  8
0
  6
Continuous
 62
     8
100
AcDbLine
 10
141.176089
 20
129.331151
 30
0.0
 11
141.176089
 21
130.331064
 31
0.0
  0
LINE
  5
381
100
AcDbEntity
  8
0
  6
Continuous
 62
     8
100
AcDbLine
 10
141.176089
 20
131.330976
 30
0.0
 11
141.176089
 21
136.890507
 31
0.0
  0
LINE
  5
382
100
AcDbEntity
  8
0
  6
Continuous
 62
     8
100
AcDbLine
 10
141.176089
 20
137.890419
 30
0.0
 11
141.176089
 21
138.890544
 31
0.0
  0
LINE
  5
383
100
AcDbEntity
  8
0
  6
Continuous
 62
     8
100
AcDbLine
 10
141.176089
 20
139.890457
 30
0.0
 11
141.176089
 21
145.449987
 31
0.0
  0
LINE
  5
384
100
AcDbEntity
  8
0
  6
Continuous
 62
     8
100
AcDbLine
 10
141.176089
 20
146.4499
 30
0.0
 11
141.176089
 21
147.450025
 31
0.0
  0
LINE
  5
385
100
AcDbEntity
  8
0
  6
Continuous
 62
     8
100
AcDbLine
 10
141.176089
 20
148.449937
 30
0.0
 11
141.176089
 21
154.009468
 31
0.0
  0
ENDBLK
  5
386
100
AcDbEntity
  8
0
100
AcDbBlockEnd
  0
BLOCK
  5
389
100
AcDbEntity
  8
0
100
AcDbBlockBegin
  2
*B52
 70
     0
 10
0.0
 20
0.0
 30
0.0
  3
*B52
  1

  0
LINE
  5
38A
100
AcDbEntity
  8
0
  6
Continuous
 62
     8
100
AcDbLine
 10
117.176064
 20
90.013156
 30
0.0
 11
117.176064
 21
106.212503
 31
0.0
  0
ENDBLK
  5
38B
100
AcDbEntity
  8
0
100
AcDbBlockEnd
  0
BLOCK
  5
38E
100
AcDbEntity
  8
0
100
AcDbBlockBegin
  2
*B53
 70
     0
 10
0.0
 20
0.0
 30
0.0
  3
*B53
  1

  0
LINE
  5
38F
100
AcDbEntity
  8
0
  6
Continuous
 62
     8
100
AcDbLine
 10
112.176077
 20
43.896307
 30
0.0
 11
112.176077
 21
48.346099
 31
0.0
  0
LINE
  5
390
100
AcDbEntity
  8
0
  6
Continuous
 62
     8
100
AcDbLine
 10
112.176077
 20
51.345836
 30
0.0
 11
112.176077
 21
55.795627
 31
0.0
  0
ENDBLK
  5
391
100
AcDbEntity
  8
0
100
AcDbBlockEnd
  0
BLOCK
  5
394
100
AcDbEntity
  8
0
100
AcDbBlockBegin
  2
*B54
 70
     0
 10
0.0
 20
0.0
 30
0.0
  3
*B54
  1

  0
LINE
  5
395
100
AcDbEntity
  8
0
  6
Continuous
 62
     8
100
AcDbLine
 10
52.676079
 20
163.209215
 30
0.0
 11
59.009283
 21
163.209215
 31
0.0
  0
LINE
  5
396
100
AcDbEntity
  8
0
  6
Continuous
 62
     8
100
AcDbLine
 10
60.009408
 20
163.209215
 30
0.0
 11
61.00932
 21
163.209215
 31
0.0
  0
LINE
  5
397
100
AcDbEntity
  8
0
  6
Continuous
 62
     8
100
AcDbLine
 10
62.009445
 20
163.209215
 30
0.0
 11
68.342649
 21
163.209215
 31
0.0
  0
LINE
  5
398
100
AcDbEntity
  8
0
  6
Continuous
 62
     8
100
AcDbLine
 10
69.342774
 20
163.209215
 30
0.0
 11
70.342687
 21
163.209215
 31
0.0
  0
LINE
  5
399
100
AcDbEntity
  8
0
  6
Continuous
 62
     8
100
AcDbLine
 10
71.342812
 20
163.209215
 30
0.0
 11
77.676016
 21
163.209215
 31
0.0
  0
ENDBLK
  5
39A
100
AcDbEntity
  8
0
100
AcDbBlockEnd
  0
BLOCK
  5
39D
100
AcDbEntity
  8
0
100
AcDbBlockBegin
  2
*B55
 70
     0
 10
0.0
 20
0.0
 30
0.0
  3
*B55
  1

  0
LINE
  5
39E
100
AcDbEntity
  8
0
  6
Continuous
 62
     8
100
AcDbLine
 10
152.175976
 20
90.013156
 30
0.0
 11
152.175976
 21
94.012806
 31
0.0
  0
LINE
  5
39F
100
AcDbEntity
  8
0
  6
Continuous
 62
     8
100
AcDbLine
 10
152.175976
 20
94.012806
 30
0.0
 11
152.175976
 21
100.746017
 31
0.0
  0
LINE
  5
3A0
100
AcDbEntity
  8
0
  6
Continuous
 62
     8
100
AcDbLine
 10
152.175976
 20
101.74593
 30
0.0
 11
152.175976
 21
102.745842
 31
0.0
  0
LINE
  5
3A1
100
AcDbEntity
  8
0
  6
Continuous
 62
     8
100
AcDbLine
 10
152.175976
 20
103.745755
 30
0.0
 11
152.175976
 21
110.478754
 31
0.0
  0
LINE
  5
3A2
100
AcDbEntity
  8
0
  6
Continuous
 62
     8
100
AcDbLine
 10
152.175976
 20
111.478666
 30
0.0
 11
152.175976
 21
112.478791
 31
0.0
  0
LINE
  5
3A3
100
AcDbEntity
  8
0
  6
Continuous
 62
     8
100
AcDbLine
 10
152.175976
 20
113.478704
 30
0.0
 11
152.175976
 21
120.211703
 31
0.0
  0
ENDBLK
  5
3A4
100
AcDbEntity
  8
0
100
AcDbBlockEnd
  0
BLOCK
  5
3A7
100
AcDbEntity
  8
0
100
AcDbBlockBegin
  2
*B56
 70
     0
 10
0.0
 20
0.0
 30
0.0
  3
*B56
  1

  0
LINE
  5
3A8
100
AcDbEntity
  8
0
  6
Continuous
 62
     8
100
AcDbLine
 10
141.176089
 20
40.971558
 30
0.0
 11
141.176089
 21
48.346099
 31
0.0
  0
LINE
  5
3A9
100
AcDbEntity
  8
0
  6
Continuous
 62
     8
100
AcDbLine
 10
141.176089
 20
51.345836
 30
0.0
 11
141.176089
 21
58.720589
 31
0.0
  0
ENDBLK
  5
3AA
100
AcDbEntity
  8
0
100
AcDbBlockEnd
  0
BLOCK
  5
3AD
100
AcDbEntity
  8
0
100
AcDbBlockBegin
  2
*B57
 70
     0
 10
0.0
 20
0.0
 30
0.0
  3
*B57
  1

  0
LINE
  5
3AE
100
AcDbEntity
  8
0
  6
Continuous
 62
     8
100
AcDbLine
 10
39.018255
 20
38.846611
 30
0.0
 11
116.17594
 21
38.846611
 31
0.0
  0
ENDBLK
  5
3AF
100
AcDbEntity
  8
0
100
AcDbBlockEnd
  0
BLOCK
  5
3B2
100
AcDbEntity
  8
0
100
AcDbBlockBegin
  2
*B58
 70
     0
 10
0.0
 20
0.0
 30
0.0
  3
*B58
  1

  0
LINE
  5
3B3
100
AcDbEntity
  8
0
  6
Continuous
 62
     8
100
AcDbLine
 10
218.175937
 20
43.596355
 30
0.0
 11
218.175937
 21
48.346099
 31
0.0
  0
LINE
  5
3B4
100
AcDbEntity
  8
0
  6
Continuous
 62
     8
100
AcDbLine
 10
218.175937
 20
51.345836
 30
0.0
 11
218.175937
 21
56.09558
 31
0.0
  0
ENDBLK
  5
3B5
100
AcDbEntity
  8
0
100
AcDbBlockEnd
  0
BLOCK
  5
3B8
100
AcDbEntity
  8
0
100
AcDbBlockBegin
  2
*B59
 70
     0
 10
0.0
 20
0.0
 30
0.0
  3
*B59
  1

  0
LINE
  5
3B9
100
AcDbEntity
  8
0
  6
Continuous
 62
     8
100
AcDbLine
 10
203.175975
 20
78.013781
 30
0.0
 11
203.175975
 21
106.212503
 31
0.0
  0
ENDBLK
  5
3BA
100
AcDbEntity
  8
0
100
AcDbBlockEnd
  0
BLOCK
  5
3BD
100
AcDbEntity
  8
0
100
AcDbBlockBegin
  2
*B60
 70
     0
 10
0.0
 20
0.0
 30
0.0
  3
*B60
  1

  0
LINE
  5
3BE
100
AcDbEntity
  8
0
  6
Continuous
 62
     8
100
AcDbLine
 10
101.175977
 20
78.013781
 30
0.0
 11
101.175977
 21
106.212503
 31
0.0
  0
ENDBLK
  5
3BF
100
AcDbEntity
  8
0
100
AcDbBlockEnd
  0
BLOCK
  5
3C2
100
AcDbEntity
  8
0
100
AcDbBlockBegin
  2
*B61
 70
     0
 10
0.0
 20
0.0
 30
0.0
  3
*B61
  1

  0
LINE
  5
3C3
100
AcDbEntity
  8
0
  6
Continuous
 62
     8
100
AcDbLine
 10
60.476119
 20
125.211478
 30
0.0
 11
65.58041
 21
125.211478
 31
0.0
  0
LINE
  5
3C4
100
AcDbEntity
  8
0
  6
Continuous
 62
     8
100
AcDbLine
 10
66.580322
 20
125.211478
 30
0.0
 11
67.580447
 21
125.211478
 31
0.0
  0
LINE
  5
3C5
100
AcDbEntity
  8
0
  6
Continuous
 62
     8
100
AcDbLine
 10
68.580359
 20
125.211478
 30
0.0
 11
73.68465
 21
125.211478
 31
0.0
  0
LINE
  5
3C6
100
AcDbEntity
  8
0
  6
Continuous
 62
     8
100
AcDbLine
 10
74.684775
 20
125.211478
 30
0.0
 11
75.684688
 21
125.211478
 31
0.0
  0
LINE
  5
3C7
100
AcDbEntity
  8
0
  6
Continuous
 62
     8
100
AcDbLine
 10
76.684813
 20
125.211478
 30
0.0
 11
81.789104
 21
125.211478
 31
0.0
  0
LINE
  5
3C8
100
AcDbEntity
  8
0
  6
Continuous
 62
     8
100
AcDbLine
 10
82.789016
 20
125.211478
 30
0.0
 11
83.789141
 21
125.211478
 31
0.0
  0
LINE
  5
3C9
100
AcDbEntity
  8
0
  6
Continuous
 62
     8
100
AcDbLine
 10
84.789054
 20
125.211478
 30
0.0
 11
89.893345
 21
125.211478
 31
0.0
  0
LINE
  5
3CA
100
AcDbEntity
  8
0
  6
Continuous
 62
     8
100
AcDbLine
 10
90.89347
 20
125.211478
 30
0.0
 11
91.893382
 21
125.211478
 31
0.0
  0
LINE
  5
3CB
100
AcDbEntity
  8
0
  6
Continuous
 62
     8
100
AcDbLine
 10
92.893507
 20
125.211478
 30
0.0
 11
97.997798
 21
125.211478
 31
0.0
  0
LINE
  5
3CC
100
AcDbEntity
  8
0
  6
Continuous
 62
     8
100
AcDbLine
 10
98.99771
 20
125.211478
 30
0.0
 11
99.997835
 21
125.211478
 31
0.0
  0
LINE
  5
3CD
100
AcDbEntity
  8
0
  6
Continuous
 62
     8
100
AcDbLine
 10
100.997748
 20
125.211478
 30
0.0
 11
106.102039
 21
125.211478
 31
0.0
  0
LINE
  5
3CE
100
AcDbEntity
  8
0
  6
Continuous
 62
     8
100
AcDbLine
 10
107.102164
 20
125.211478
 30
0.0
 11
108.102076
 21
125.211478
 31
0.0
  0
LINE
  5
3CF
100
AcDbEntity
  8
0
  6
Continuous
 62
     8
100
AcDbLine
 10
109.102201
 20
125.211478
 30
0.0
 11
114.206492
 21
125.211478
 31
0.0
  0
LINE
  5
3D0
100
AcDbEntity
  8
0
  6
Continuous
 62
     8
100
AcDbLine
 10
115.206405
 20
125.211478
 30
0.0
 11
116.20653
 21
125.211478
 31
0.0
  0
LINE
  5
3D1
100
AcDbEntity
  8
0
  6
Continuous
 62
     8
100
AcDbLine
 10
117.206442
 20
125.211478
 30
0.0
 11
122.310733
 21
125.211478
 31
0.0
  0
LINE
  5
3D2
100
AcDbEntity
  8
0
  6
Continuous
 62
     8
100
AcDbLine
 10
123.310858
 20
125.211478
 30
0.0
 11
124.310771
 21
125.211478
 31
0.0
  0
LINE
  5
3D3
100
AcDbEntity
  8
0
  6
Continuous
 62
     8
100
AcDbLine
 10
125.310895
 20
125.211478
 30
0.0
 11
130.415186
 21
125.211478
 31
0.0
  0
LINE
  5
3D4
100
AcDbEntity
  8
0
  6
Continuous
 62
     8
100
AcDbLine
 10
131.415099
 20
125.211478
 30
0.0
 11
132.415224
 21
125.211478
 31
0.0
  0
LINE
  5
3D5
100
AcDbEntity
  8
0
  6
Continuous
 62
     8
100
AcDbLine
 10
133.415136
 20
125.211478
 30
0.0
 11
138.519427
 21
125.211478
 31
0.0
  0
LINE
  5
3D6
100
AcDbEntity
  8
0
  6
Continuous
 62
     8
100
AcDbLine
 10
139.519552
 20
125.211478
 30
0.0
 11
140.519465
 21
125.211478
 31
0.0
  0
LINE
  5
3D7
100
AcDbEntity
  8
0
  6
Continuous
 62
     8
100
AcDbLine
 10
141.51959
 20
125.211478
 30
0.0
 11
146.623881
 21
125.211478
 31
0.0
  0
LINE
  5
3D8
100
AcDbEntity
  8
0
  6
Continuous
 62
     8
100
AcDbLine
 10
147.623793
 20
125.211478
 30
0.0
 11
148.623918
 21
125.211478
 31
0.0
  0
LINE
  5
3D9
100
AcDbEntity
  8
0
  6
Continuous
 62
     8
100
AcDbLine
 10
149.623831
 20
125.211478
 30
0.0
 11
154.728122
 21
125.211478
 31
0.0
  0
LINE
  5
3DA
100
AcDbEntity
  8
0
  6
Continuous
 62
     8
100
AcDbLine
 10
155.728246
 20
125.211478
 30
0.0
 11
156.728159
 21
125.211478
 31
0.0
  0
LINE
  5
3DB
100
AcDbEntity
  8
0
  6
Continuous
 62
     8
100
AcDbLine
 10
157.728284
 20
125.211478
 30
0.0
 11
162.832575
 21
125.211478
 31
0.0
  0
LINE
  5
3DC
100
AcDbEntity
  8
0
  6
Continuous
 62
     8
100
AcDbLine
 10
163.832487
 20
125.211478
 30
0.0
 11
164.832612
 21
125.211478
 31
0.0
  0
LINE
  5
3DD
100
AcDbEntity
  8
0
  6
Continuous
 62
     8
100
AcDbLine
 10
165.832525
 20
125.211478
 30
0.0
 11
170.936816
 21
125.211478
 31
0.0
  0
LINE
  5
3DE
100
AcDbEntity
  8
0
  6
Continuous
 62
     8
100
AcDbLine
 10
171.936941
 20
125.211478
 30
0.0
 11
172.936853
 21
125.211478
 31
0.0
  0
LINE
  5
3DF
100
AcDbEntity
  8
0
  6
Continuous
 62
     8
100
AcDbLine
 10
173.936978
 20
125.211478
 30
0.0
 11
179.041269
 21
125.211478
 31
0.0
  0
LINE
  5
3E0
100
AcDbEntity
  8
0
  6
Continuous
 62
     8
100
AcDbLine
 10
180.041182
 20
125.211478
 30
0.0
 11
181.041306
 21
125.211478
 31
0.0
  0
LINE
  5
3E1
100
AcDbEntity
  8
0
  6
Continuous
 62
     8
100
AcDbLine
 10
182.041219
 20
125.211478
 30
0.0
 11
187.14551
 21
125.211478
 31
0.0
  0
LINE
  5
3E2
100
AcDbEntity
  8
0
  6
Continuous
 62
     8
100
AcDbLine
 10
188.145635
 20
125.211478
 30
0.0
 11
189.145547
 21
125.211478
 31
0.0
  0
LINE
  5
3E3
100
AcDbEntity
  8
0
  6
Continuous
 62
     8
100
AcDbLine
 10
190.14546
 20
125.211478
 30
0.0
 11
195.249963
 21
125.211478
 31
0.0
  0
LINE
  5
3E4
100
AcDbEntity
  8
0
  6
Continuous
 62
     8
100
AcDbLine
 10
196.249876
 20
125.211478
 30
0.0
 11
197.250001
 21
125.211478
 31
0.0
  0
LINE
  5
3E5
100
AcDbEntity
  8
0
  6
Continuous
 62
     8
100
AcDbLine
 10
198.249913
 20
125.211478
 30
0.0
 11
203.354204
 21
125.211478
 31
0.0
  0
LINE
  5
3E6
100
AcDbEntity
  8
0
  6
Continuous
 62
     8
100
AcDbLine
 10
204.354329
 20
125.211478
 30
0.0
 11
205.354242
 21
125.211478
 31
0.0
  0
LINE
  5
3E7
100
AcDbEntity
  8
0
  6
Continuous
 62
     8
100
AcDbLine
 10
206.354154
 20
125.211478
 30
0.0
 11
211.458658
 21
125.211478
 31
0.0
  0
LINE
  5
3E8
100
AcDbEntity
  8
0
  6
Continuous
 62
     8
100
AcDbLine
 10
212.45857
 20
125.211478
 30
0.0
 11
213.458483
 21
125.211478
 31
0.0
  0
LINE
  5
3E9
100
AcDbEntity
  8
0
  6
Continuous
 62
     8
100
AcDbLine
 10
214.458607
 20
125.211478
 30
0.0
 11
219.562898
 21
125.211478
 31
0.0
  0
LINE
  5
3EA
100
AcDbEntity
  8
0
  6
Continuous
 62
     8
100
AcDbLine
 10
220.563023
 20
125.211478
 30
0.0
 11
221.562936
 21
125.211478
 31
0.0
  0
LINE
  5
3EB
100
AcDbEntity
  8
0
  6
Continuous
 62
     8
100
AcDbLine
 10
222.562848
 20
125.211478
 30
0.0
 11
227.667352
 21
125.211478
 31
0.0
  0
LINE
  5
3EC
100
AcDbEntity
  8
0
  6
Continuous
 62
     8
100
AcDbLine
 10
228.667264
 20
125.211478
 30
0.0
 11
229.667177
 21
125.211478
 31
0.0
  0
LINE
  5
3ED
100
AcDbEntity
  8
0
  6
Continuous
 62
     8
100
AcDbLine
 10
230.667302
 20
125.211478
 30
0.0
 11
235.771593
 21
125.211478
 31
0.0
  0
LINE
  5
3EE
100
AcDbEntity
  8
0
  6
Continuous
 62
     8
100
AcDbLine
 10
236.771718
 20
125.211478
 30
0.0
 11
237.77163
 21
125.211478
 31
0.0
  0
LINE
  5
3EF
100
AcDbEntity
  8
0
  6
Continuous
 62
     8
100
AcDbLine
 10
238.771543
 20
125.211478
 30
0.0
 11
243.876046
 21
125.211478
 31
0.0
  0
ENDBLK
  5
3F0
100
AcDbEntity
  8
0
100
AcDbBlockEnd
  0
BLOCK
  5
3F3
100
AcDbEntity
  8
0
100
AcDbBlockBegin
  2
*B62
 70
     0
 10
0.0
 20
0.0
 30
0.0
  3
*B62
  1

  0
LINE
  5
3F4
100
AcDbEntity
  8
0
  6
Continuous
 62
     8
100
AcDbLine
 10
196.018114
 20
112.71204
 30
0.0
 11
200.018188
 21
112.71204
 31
0.0
  0
LINE
  5
3F5
100
AcDbEntity
  8
0
  6
Continuous
 62
     8
100
AcDbLine
 10
157.425995
 20
112.71204
 30
0.0
 11
161.676101
 21
112.71204
 31
0.0
  0
LINE
  5
3F6
100
AcDbEntity
  8
0
  6
Continuous
 62
     8
100
AcDbLine
 10
164.676051
 20
112.71204
 30
0.0
 11
170.261498
 21
112.71204
 31
0.0
  0
LINE
  5
3F7
100
AcDbEntity
  8
0
  6
Continuous
 62
     8
100
AcDbLine
 10
171.261623
 20
112.71204
 30
0.0
 11
172.261535
 21
112.71204
 31
0.0
  0
LINE
  5
3F8
100
AcDbEntity
  8
0
  6
Continuous
 62
     8
100
AcDbLine
 10
173.261448
 20
112.71204
 30
0.0
 11
178.847107
 21
112.71204
 31
0.0
  0
LINE
  5
3F9
100
AcDbEntity
  8
0
  6
Continuous
 62
     8
100
AcDbLine
 10
179.84702
 20
112.71204
 30
0.0
 11
180.847145
 21
112.71204
 31
0.0
  0
LINE
  5
3FA
100
AcDbEntity
  8
0
  6
Continuous
 62
     8
100
AcDbLine
 10
181.847057
 20
112.71204
 30
0.0
 11
187.432504
 21
112.71204
 31
0.0
  0
LINE
  5
3FB
100
AcDbEntity
  8
0
  6
Continuous
 62
     8
100
AcDbLine
 10
188.432629
 20
112.71204
 30
0.0
 11
189.432542
 21
112.71204
 31
0.0
  0
LINE
  5
3FC
100
AcDbEntity
  8
0
  6
Continuous
 62
     8
100
AcDbLine
 10
190.432667
 20
112.71204
 30
0.0
 11
196.018114
 21
112.71204
 31
0.0
  0
ENDBLK
  5
3FD
100
AcDbEntity
  8
0
100
AcDbBlockEnd
  0
BLOCK
  5
400
100
AcDbEntity
  8
0
100
AcDbBlockBegin
  2
*B63
 70
     0
 10
0.0
 20
0.0
 30
0.0
  3
*B63
  1

  0
LINE
  5
401
100
AcDbEntity
  8
0
  6
Continuous
 62
     6
100
AcDbLine
 10
52.176016
 20
49.346011
 30
0.0
 11
52.176016
 21
50.345924
 31
0.0
  0
LINE
  5
402
100
AcDbEntity
  8
0
  6
Continuous
 62
     6
100
AcDbLine
 10
51.675954
 20
49.846074
 30
0.0
 11
52.676079
 21
49.846074
 31
0.0
  0
ENDBLK
  5
403
100
AcDbEntity
  8
0
100
AcDbBlockEnd
  0
BLOCK
  5
406
100
AcDbEntity
  8
0
100
AcDbBlockBegin
  2
*B64
 70
     0
 10
0.0
 20
0.0
 30
0.0
  3
*B64
  1

  0
LINE
  5
407
100
AcDbEntity
  8
0
  6
Continuous
 62
     6
100
AcDbLine
 10
174.175963
 20
137.21064
 30
0.0
 11
174.175963
 21
138.210553
 31
0.0
  0
LINE
  5
408
100
AcDbEntity
  8
0
  6
Continuous
 62
     6
100
AcDbLine
 10
173.676113
 20
137.710703
 30
0.0
 11
174.676025
 21
137.710703
 31
0.0
  0
ENDBLK
  5
409
100
AcDbEntity
  8
0
100
AcDbBlockEnd
  0
BLOCK
  5
40C
100
AcDbEntity
  8
0
100
AcDbBlockBegin
  2
*B65
 70
     0
 10
0.0
 20
0.0
 30
0.0
  3
*B65
  1

  0
LINE
  5
40D
100
AcDbEntity
  8
0
  6
Continuous
 62
     6
100
AcDbLine
 10
129.675927
 20
137.710703
 30
0.0
 11
130.676052
 21
137.710703
 31
0.0
  0
LINE
  5
40E
100
AcDbEntity
  8
0
  6
Continuous
 62
     6
100
AcDbLine
 10
130.175989
 20
137.21064
 30
0.0
 11
130.175989
 21
138.210553
 31
0.0
  0
ENDBLK
  5
40F
100
AcDbEntity
  8
0
100
AcDbBlockEnd
  0
BLOCK
  5
412
100
AcDbEntity
  8
0
100
AcDbBlockBegin
  2
*B66
 70
     0
 10
0.0
 20
0.0
 30
0.0
  3
*B66
  1

  0
LINE
  5
413
100
AcDbEntity
  8
0
  6
Continuous
 62
     6
100
AcDbLine
 10
141.176089
 20
112.21219
 30
0.0
 11
141.176089
 21
113.212103
 31
0.0
  0
LINE
  5
414
100
AcDbEntity
  8
0
  6
Continuous
 62
     6
100
AcDbLine
 10
140.676026
 20
112.71204
 30
0.0
 11
141.675939
 21
112.71204
 31
0.0
  0
ENDBLK
  5
415
100
AcDbEntity
  8
0
100
AcDbBlockEnd
  0
BLOCK
  5
418
100
AcDbEntity
  8
0
100
AcDbBlockBegin
  2
*B67
 70
     0
 10
0.0
 20
0.0
 30
0.0
  3
*B67
  1

  0
LINE
  5
419
100
AcDbEntity
  8
0
  6
Continuous
 62
     6
100
AcDbLine
 10
217.676087
 20
49.846074
 30
0.0
 11
218.675999
 21
49.846074
 31
0.0
  0
LINE
  5
41A
100
AcDbEntity
  8
0
  6
Continuous
 62
     6
100
AcDbLine
 10
218.175937
 20
49.346011
 30
0.0
 11
218.175937
 21
50.345924
 31
0.0
  0
ENDBLK
  5
41B
100
AcDbEntity
  8
0
100
AcDbBlockEnd
  0
BLOCK
  5
41E
100
AcDbEntity
  8
0
100
AcDbBlockBegin
  2
*B68
 70
     0
 10
0.0
 20
0.0
 30
0.0
  3
*B68
  1

  0
LINE
  5
41F
100
AcDbEntity
  8
0
  6
Continuous
 62
     6
100
AcDbLine
 10
251.675873
 20
163.209215
 30
0.0
 11
252.675998
 21
163.209215
 31
0.0
  0
LINE
  5
420
100
AcDbEntity
  8
0
  6
Continuous
 62
     6
100
AcDbLine
 10
252.175936
 20
162.709365
 30
0.0
 11
252.175936
 21
163.709277
 31
0.0
  0
ENDBLK
  5
421
100
AcDbEntity
  8
0
100
AcDbBlockEnd
  0
BLOCK
  5
424
100
AcDbEntity
  8
0
100
AcDbBlockBegin
  2
*B69
 70
     0
 10
0.0
 20
0.0
 30
0.0
  3
*B69
  1

  0
LINE
  5
425
100
AcDbEntity
  8
0
  6
Continuous
 62
     6
100
AcDbLine
 10
140.676026
 20
49.846074
 30
0.0
 11
141.675939
 21
49.846074
 31
0.0
  0
LINE
  5
426
100
AcDbEntity
  8
0
  6
Continuous
 62
     6
100
AcDbLine
 10
141.176089
 20
49.346011
 30
0.0
 11
141.176089
 21
50.345924
 31
0.0
  0
ENDBLK
  5
427
100
AcDbEntity
  8
0
100
AcDbBlockEnd
  0
BLOCK
  5
42A
100
AcDbEntity
  8
0
100
AcDbBlockBegin
  2
*B70
 70
     0
 10
0.0
 20
0.0
 30
0.0
  3
*B70
  1

  0
LINE
  5
42B
100
AcDbEntity
  8
0
  6
Continuous
 62
     6
100
AcDbLine
 10
163.176076
 20
112.21219
 30
0.0
 11
163.176076
 21
113.212103
 31
0.0
  0
LINE
  5
42C
100
AcDbEntity
  8
0
  6
Continuous
 62
     6
100
AcDbLine
 10
162.676013
 20
112.71204
 30
0.0
 11
163.675926
 21
112.71204
 31
0.0
  0
ENDBLK
  5
42D
100
AcDbEntity
  8
0
100
AcDbBlockEnd
  0
BLOCK
  5
430
100
AcDbEntity
  8
0
100
AcDbBlockBegin
  2
*B71
 70
     0
 10
0.0
 20
0.0
 30
0.0
  3
*B71
  1

  0
LINE
  5
431
100
AcDbEntity
  8
0
  6
Continuous
 62
     6
100
AcDbLine
 10
191.676025
 20
49.846074
 30
0.0
 11
192.675937
 21
49.846074
 31
0.0
  0
LINE
  5
432
100
AcDbEntity
  8
0
  6
Continuous
 62
     6
100
AcDbLine
 10
192.176087
 20
49.346011
 30
0.0
 11
192.176087
 21
50.345924
 31
0.0
  0
ENDBLK
  5
433
100
AcDbEntity
  8
0
100
AcDbBlockEnd
  0
BLOCK
  5
436
100
AcDbEntity
  8
0
100
AcDbBlockBegin
  2
*B72
 70
     0
 10
0.0
 20
0.0
 30
0.0
  3
*B72
  1

  0
LINE
  5
437
100
AcDbEntity
  8
0
  6
Continuous
 62
     6
100
AcDbLine
 10
111.676015
 20
49.846074
 30
0.0
 11
112.67614
 21
49.846074
 31
0.0
  0
LINE
  5
438
100
AcDbEntity
  8
0
  6
Continuous
 62
     6
100
AcDbLine
 10
112.176077
 20
49.346011
 30
0.0
 11
112.176077
 21
50.345924
 31
0.0
  0
ENDBLK
  5
439
100
AcDbEntity
  8
0
100
AcDbBlockEnd
  0
BLOCK
  5
43C
100
AcDbEntity
  8
0
100
AcDbBlockBegin
  2
*B73
 70
     0
 10
0.0
 20
0.0
 30
0.0
  3
*B73
  1

  0
LINE
  5
43D
100
AcDbEntity
  8
0
  6
Continuous
 62
     6
100
AcDbLine
 10
51.675954
 20
163.209215
 30
0.0
 11
52.676079
 21
163.209215
 31
0.0
  0
LINE
  5
43E
100
AcDbEntity
  8
0
  6
Continuous
 62
     6
100
AcDbLine
 10
52.176016
 20
162.709365
 30
0.0
 11
52.176016
 21
163.709277
 31
0.0
  0
ENDBLK
  5
43F
100
AcDbEntity
  8
0
100
AcDbBlockEnd
  0
BLOCK
  5
442
100
AcDbEntity
  8
0
100
AcDbBlockBegin
  2
*B74
 70
     0
 10
0.0
 20
0.0
 30
0.0
  3
*B74
  1

  0
LINE
  5
443
100
AcDbEntity
  8
0
  6
Continuous
 62
     6
100
AcDbLine
 10
162.676013
 20
49.846074
 30
0.0
 11
163.675926
 21
49.846074
 31
0.0
  0
LINE
  5
444
100
AcDbEntity
  8
0
  6
Continuous
 62
     6
100
AcDbLine
 10
163.176076
 20
49.346011
 30
0.0
 11
163.176076
 21
50.345924
 31
0.0
  0
ENDBLK
  5
445
100
AcDbEntity
  8
0
100
AcDbBlockEnd
  0
BLOCK
  5
448
100
AcDbEntity
  8
0
100
AcDbBlockBegin
  2
*B75
 70
     0
 10
0.0
 20
0.0
 30
0.0
  3
*B75
  1

  0
LINE
  5
449
100
AcDbEntity
  8
0
  6
Continuous
 62
     6
100
AcDbLine
 10
86.176015
 20
49.346011
 30
0.0
 11
86.176015
 21
50.345924
 31
0.0
  0
LINE
  5
44A
100
AcDbEntity
  8
0
  6
Continuous
 62
     6
100
AcDbLine
 10
85.675953
 20
49.846074
 30
0.0
 11
86.676078
 21
49.846074
 31
0.0
  0
ENDBLK
  5
44B
100
AcDbEntity
  8
0
100
AcDbBlockEnd
  0
BLOCK
  5
44E
100
AcDbEntity
  8
0
100
AcDbBlockBegin
  2
*B76
 70
     0
 10
0.0
 20
0.0
 30
0.0
  3
*B76
  1

  0
TEXT
  5
44F
100
AcDbEntity
  8
TEXT
  6
Continuous
 62
     0
100
AcDbText
 10
172.43575
 20
107.5
 30
0.0
 40
5.0
  1
3
100
AcDbText
  0
ENDBLK
  5
450
100
AcDbEntity
  8
0
100
AcDbBlockEnd
  0
BLOCK
  5
453
100
AcDbEntity
  8
0
100
AcDbBlockBegin
  2
*B77
 70
     0
 10
0.0
 20
0.0
 30
0.0
  3
*B77
  1

  0
TEXT
  5
454
100
AcDbEntity
  8
TEXT
  6
Continuous
 62
     0
100
AcDbText
 10
128.23575
 20
107.7
 30
0.0
 40
5.0
  1
5
100
AcDbText
  0
ENDBLK
  5
455
100
AcDbEntity
  8
0
100
AcDbBlockEnd
  0
BLOCK
  5
458
100
AcDbEntity
  8
0
100
AcDbBlockBegin
  2
*B78
 70
     0
 10
0.0
 20
0.0
 30
0.0
  3
*B78
  1

  0
TEXT
  5
459
100
AcDbEntity
  8
TEXT
  6
Continuous
 62
     0
100
AcDbText
 10
161.43575
 20
137.3
 30
0.0
 40
5.0
  1
2
100
AcDbText
  0
ENDBLK
  5
45A
100
AcDbEntity
  8
0
100
AcDbBlockEnd
  0
BLOCK
  5
45D
100
AcDbEntity
  8
0
100
AcDbBlockBegin
  2
*B79
 70
     0
 10
0.0
 20
0.0
 30
0.0
  3
*B79
  1

  0
TEXT
  5
45E
100
AcDbEntity
  8
TEXT
  6
Continuous
 62
     0
100
AcDbText
 10
150.43575
 20
107.7
 30
0.0
 40
5.0
  1
1
100
AcDbText
  0
ENDBLK
  5
45F
100
AcDbEntity
  8
0
100
AcDbBlockEnd
  0
BLOCK
  5
462
100
AcDbEntity
  8
0
100
AcDbBlockBegin
  2
*B80
 70
     0
 10
0.0
 20
0.0
 30
0.0
  3
*B80
  1

  0
TEXT
  5
463
100
AcDbEntity
  8
TEXT
  6
Continuous
 62
     0
100
AcDbText
 10
139.23575
 20
137.7
 30
0.0
 40
5.0
  1
4
100
AcDbText
  0
ENDBLK
  5
464
100
AcDbEntity
  8
0
100
AcDbBlockEnd
  0
BLOCK
  5
467
100
AcDbEntity
  8
0
100
AcDbBlockBegin
  2
*B81
 70
     0
 10
0.0
 20
0.0
 30
0.0
  3
*B81
  1

  0
TEXT
  5
468
100
AcDbEntity
  8
TEXT
  6
Continuous
 62
     0
100
AcDbText
 10
107.6
 20
48.2886
 30
0.0
 40
4.0
  1
1
 50
90.0
100
AcDbText
  0
ENDBLK
  5
469
100
AcDbEntity
  8
0
100
AcDbBlockEnd
  0
BLOCK
  5
46C
100
AcDbEntity
  8
0
100
AcDbBlockBegin
  2
*B82
 70
     0
 10
0.0
 20
0.0
 30
0.0
  3
*B82
  1

  0
TEXT
  5
46D
100
AcDbEntity
  8
TEXT
  6
Continuous
 62
     0
100
AcDbText
 10
114.0
 20
42.1886
 30
0.0
 40
4.0
  1
0
 50
90.0
100
AcDbText
  0
ENDBLK
  5
46E
100
AcDbEntity
  8
0
100
AcDbBlockEnd
  0
BLOCK
  5
471
100
AcDbEntity
  8
0
100
AcDbBlockBegin
  2
*B83
 70
     0
 10
0.0
 20
0.0
 30
0.0
  3
*B83
  1

  0
TEXT
  5
472
100
AcDbEntity
  8
TEXT
  6
Continuous
 62
     0
100
AcDbText
 10
119.471499
 20
122.5
 30
0.0
 40
5.0
  1
14
100
AcDbText
  0
ENDBLK
  5
473
100
AcDbEntity
  8
0
100
AcDbBlockEnd
  0
BLOCK
  5
476
100
AcDbEntity
  8
0
100
AcDbBlockBegin
  2
*B84
 70
     0
 10
0.0
 20
0.0
 30
0.0
  3
*B84
  1

  0
TEXT
  5
477
100
AcDbEntity
  8
TEXT
  6
Continuous
 62
     0
100
AcDbText
 10
177.471499
 20
122.5
 30
0.0
 40
5.0
  1
12
100
AcDbText
  0
ENDBLK
  5
478
100
AcDbEntity
  8
0
100
AcDbBlockEnd
  0
BLOCK
  5
47B
100
AcDbEntity
  8
0
100
AcDbBlockBegin
  2
*B85
 70
     0
 10
0.0
 20
0.0
 30
0.0
  3
*B85
  1

  0
TEXT
  5
47C
100
AcDbEntity
  8
TEXT
  6
Continuous
 62
     0
100
AcDbText
 10
196.7
 20
51.4114
 30
0.0
 40
4.0
  1
1
 50
-90.0
100
AcDbText
  0
ENDBLK
  5
47D
100
AcDbEntity
  8
0
100
AcDbBlockEnd
  0
BLOCK
  5
480
100
AcDbEntity
  8
0
100
AcDbBlockBegin
  2
*B86
 70
     0
 10
0.0
 20
0.0
 30
0.0
  3
*B86
  1

  0
TEXT
  5
481
100
AcDbEntity
  8
TEXT
  6
Continuous
 62
     0
100
AcDbText
 10
190.4
 20
57.5114
 30
0.0
 40
4.0
  1
0
 50
-90.0
100
AcDbText
  0
ENDBLK
  5
482
100
AcDbEntity
  8
0
100
AcDbBlockEnd
  0
BLOCK
  5
485
100
AcDbEntity
  8
0
100
AcDbBlockBegin
  2
*B87
 70
     0
 10
0.0
 20
0.0
 30
0.0
  3
*B87
  1

  0
TEXT
  5
486
100
AcDbEntity
  8
TEXT
  6
Continuous
 62
     0
100
AcDbText
 10
71.438662
 20
80.5
 30
0.0
 40
5.0
  1
180░
100
AcDbText
  0
ENDBLK
  5
487
100
AcDbEntity
  8
0
100
AcDbBlockEnd
  0
BLOCK
  5
48A
100
AcDbEntity
  8
0
100
AcDbBlockBegin
  2
*B88
 70
     0
 10
0.0
 20
0.0
 30
0.0
  3
*B88
  1

  0
TEXT
  5
48B
100
AcDbEntity
  8
TEXT
  6
Continuous
 62
     0
100
AcDbText
 10
149.863245
 20
157.5
 30
0.0
 40
3.0
  1
22
100
AcDbText
  0
ENDBLK
  5
48C
100
AcDbEntity
  8
0
100
AcDbBlockEnd
  0
BLOCK
  5
48F
100
AcDbEntity
  8
0
100
AcDbBlockBegin
  2
*B89
 70
     0
 10
0.0
 20
0.0
 30
0.0
  3
*B89
  1

  0
TEXT
  5
490
100
AcDbEntity
  8
TEXT
  6
Continuous
 62
     0
100
AcDbText
 10
149.863245
 20
167.5
 30
0.0
 40
3.0
  1
44
100
AcDbText
  0
ENDBLK
  5
491
100
AcDbEntity
  8
0
100
AcDbBlockEnd
  0
BLOCK
  5
494
100
AcDbEntity
  8
0
100
AcDbBlockBegin
  2
*B90
 70
     0
 10
0.0
 20
0.0
 30
0.0
  3
*B90
  1

  0
TEXT
  5
495
100
AcDbEntity
  8
TEXT
  6
Continuous
 62
     0
100
AcDbText
 10
196.5
 20
122.905624
 30
0.0
 40
3.0
  1
25
 50
90.0
100
AcDbText
  0
ENDBLK
  5
496
100
AcDbEntity
  8
0
100
AcDbBlockEnd
  0
BLOCK
  5
499
100
AcDbEntity
  8
0
100
AcDbBlockBegin
  2
*B91
 70
     0
 10
0.0
 20
0.0
 30
0.0
  3
*B91
  1

  0
TEXT
  5
49A
100
AcDbEntity
  8
TEXT
  6
Continuous
 62
     0
100
AcDbText
 10
39.0
 20
136.405399
 30
0.0
 40
3.0
  1
67
 50
90.0
100
AcDbText
  0
ENDBLK
  5
49B
100
AcDbEntity
  8
0
100
AcDbBlockEnd
  0
BLOCK
  5
49E
100
AcDbEntity
  8
0
100
AcDbBlockBegin
  2
*B92
 70
     0
 10
0.0
 20
0.0
 30
0.0
  3
*B92
  1

  0
TEXT
  5
49F
100
AcDbEntity
  8
TEXT
  6
Continuous
 62
     0
100
AcDbText
 10
73.550745
 20
186.5
 30
0.0
 40
3.0
  1
48
100
AcDbText
  0
ENDBLK
  5
4A0
100
AcDbEntity
  8
0
100
AcDbBlockEnd
  0
BLOCK
  5
4A3
100
AcDbEntity
  8
0
100
AcDbBlockBegin
  2
*B93
 70
     0
 10
0.0
 20
0.0
 30
0.0
  3
*B93
  1

  0
TEXT
  5
4A4
100
AcDbEntity
  8
TEXT
  6
Continuous
 62
     0
100
AcDbText
 10
109.891071
 20
157.5
 30
0.0
 40
3.0
  1
%%c5,5
100
AcDbText
  0
ENDBLK
  5
4A5
100
AcDbEntity
  8
0
100
AcDbBlockEnd
  0
BLOCK
  5
4A8
100
AcDbEntity
  8
0
100
AcDbBlockBegin
  2
*B94
 70
     0
 10
0.0
 20
0.0
 30
0.0
  3
*B94
  1

  0
TEXT
  5
4A9
100
AcDbEntity
  8
TEXT
  6
Continuous
 62
     0
100
AcDbText
 10
121.363245
 20
93.5
 30
0.0
 40
3.0
  1
13
100
AcDbText
  0
ENDBLK
  5
4AA
100
AcDbEntity
  8
0
100
AcDbBlockEnd
  0
BLOCK
  5
4AD
100
AcDbEntity
  8
0
100
AcDbBlockBegin
  2
*B95
 70
     0
 10
0.0
 20
0.0
 30
0.0
  3
*B95
  1

  0
TEXT
  5
4AE
100
AcDbEntity
  8
TEXT
  6
Continuous
 62
     0
100
AcDbText
 10
138.863245
 20
93.5
 30
0.0
 40
3.0
  1
22
100
AcDbText
  0
ENDBLK
  5
4AF
100
AcDbEntity
  8
0
100
AcDbBlockEnd
  0
BLOCK
  5
4B2
100
AcDbEntity
  8
0
100
AcDbBlockBegin
  2
*B96
 70
     0
 10
0.0
 20
0.0
 30
0.0
  3
*B96
  1

  0
TEXT
  5
4B3
100
AcDbEntity
  8
TEXT
  6
Continuous
 62
     0
100
AcDbText
 10
160.863245
 20
93.5
 30
0.0
 40
3.0
  1
22
100
AcDbText
  0
ENDBLK
  5
4B4
100
AcDbEntity
  8
0
100
AcDbBlockEnd
  0
BLOCK
  5
4B7
100
AcDbEntity
  8
0
100
AcDbBlockBegin
  2
*B97
 70
     0
 10
0.0
 20
0.0
 30
0.0
  3
*B97
  1

  0
TEXT
  5
4B8
100
AcDbEntity
  8
TEXT
  6
Continuous
 62
     0
100
AcDbText
 10
178.363245
 20
93.5
 30
0.0
 40
3.0
  1
13
100
AcDbText
  0
ENDBLK
  5
4B9
100
AcDbEntity
  8
0
100
AcDbBlockEnd
  0
BLOCK
  5
4BC
100
AcDbEntity
  8
0
100
AcDbBlockBegin
  2
*B98
 70
     0
 10
0.0
 20
0.0
 30
0.0
  3
*B98
  1

  0
TEXT
  5
4BD
100
AcDbEntity
  8
TEXT
  6
Continuous
 62
     0
100
AcDbText
 10
148.434674
 20
81.5
 30
0.0
 40
3.0
  1
102
100
AcDbText
  0
ENDBLK
  5
4BE
100
AcDbEntity
  8
0
100
AcDbBlockEnd
  0
BLOCK
  5
4C1
100
AcDbEntity
  8
0
100
AcDbBlockBegin
  2
*B99
 70
     0
 10
0.0
 20
0.0
 30
0.0
  3
*B99
  1

  0
TEXT
  5
4C2
100
AcDbEntity
  8
TEXT
  6
Continuous
 62
     0
100
AcDbText
 10
174.785714
 20
28.5
 30
0.0
 40
3.0
  1
G 1/4"
100
AcDbText
  0
ENDBLK
  5
4C3
100
AcDbEntity
  8
0
100
AcDbBlockEnd
  0
BLOCK
  5
4C6
100
AcDbEntity
  8
0
100
AcDbBlockBegin
  2
*B100
 70
     0
 10
0.0
 20
0.0
 30
0.0
  3
*B100
  1

  0
TEXT
  5
4C7
100
AcDbEntity
  8
TEXT
  6
Continuous
 62
     0
100
AcDbText
 10
250.5
 20
122.905624
 30
0.0
 40
3.0
  1
40
 50
90.0
100
AcDbText
  0
ENDBLK
  5
4C8
100
AcDbEntity
  8
0
100
AcDbBlockEnd
  0
BLOCK
  5
4CB
100
AcDbEntity
  8
0
100
AcDbBlockBegin
  2
*B101
 70
     0
 10
0.0
 20
0.0
 30
0.0
  3
*B101
  1

  0
TEXT
  5
4CC
100
AcDbEntity
  8
TEXT
  6
Continuous
 62
     0
100
AcDbText
 10
172.863245
 20
157.5
 30
0.0
 40
3.0
  1
24
100
AcDbText
  0
ENDBLK
  5
4CD
100
AcDbEntity
  8
0
100
AcDbBlockEnd
  0
BLOCK
  5
4D0
100
AcDbEntity
  8
0
100
AcDbBlockBegin
  2
*B102
 70
     0
 10
0.0
 20
0.0
 30
0.0
  3
*B102
  1

  0
TEXT
  5
4D1
100
AcDbEntity
  8
TEXT
  6
Continuous
 62
     0
100
AcDbText
 10
225.050745
 20
186.5
 30
0.0
 40
3.0
  1
48
100
AcDbText
  0
ENDBLK
  5
4D2
100
AcDbEntity
  8
0
100
AcDbBlockEnd
  0
BLOCK
  5
4D5
100
AcDbEntity
  8
0
100
AcDbBlockBegin
  2
*B103
 70
     0
 10
0.0
 20
0.0
 30
0.0
  3
*B103
  1

  0
TEXT
  5
4D6
100
AcDbEntity
  8
TEXT
  6
Continuous
 62
     0
100
AcDbText
 10
39.5
 20
47.535981
 30
0.0
 40
3.0
  1
22
 50
90.0
100
AcDbText
  0
ENDBLK
  5
4D7
100
AcDbEntity
  8
0
100
AcDbBlockEnd
  0
ENDSEC
  0
SECTION
  2
ENTITIES
  0
INSERT
  5
151
100
AcDbEntity
  8
0
  6
Continuous
 62
   174
100
AcDbBlockReference
  2
*B1
 10
0.0
 20
0.0
 30
0.0
  0
INSERT
  5
20B
100
AcDbEntity
  8
0
  6
Continuous
 62
   174
100
AcDbBlockReference
  2
*B2
 10
0.0
 20
0.0
 30
0.0
  0
INSERT
  5
211
100
AcDbEntity
  8
0
  6
Continuous
 62
   172
100
AcDbBlockReference
  2
*B3
 10
0.0
 20
0.0
 30
0.0
  0
INSERT
  5
21C
100
AcDbEntity
  8
0
  6
Continuous
 62
   172
100
AcDbBlockReference
  2
*B4
 10
0.0
 20
0.0
 30
0.0
  0
INSERT
  5
225
100
AcDbEntity
  8
0
  6
Continuous
 62
   172
100
AcDbBlockReference
  2
*B6
 10
0.0
 20
0.0
 30
0.0
  0
INSERT
  5
230
100
AcDbEntity
  8
0
  6
Continuous
 62
   172
100
AcDbBlockReference
  2
*B7
 10
0.0
 20
0.0
 30
0.0
  0
INSERT
  5
23A
100
AcDbEntity
  8
0
  6
Continuous
 62
     0
100
AcDbBlockReference
  2
*B9
 10
0.0
 20
0.0
 30
0.0
  0
INSERT
  5
241
100
AcDbEntity
  8
0
  6
Continuous
 62
     0
100
AcDbBlockReference
  2
*B10
 10
0.0
 20
0.0
 30
0.0
  0
INSERT
  5
248
100
AcDbEntity
  8
0
  6
Continuous
 62
     0
100
AcDbBlockReference
  2
*B11
 10
0.0
 20
0.0
 30
0.0
  0
INSERT
  5
24F
100
AcDbEntity
  8
0
  6
Continuous
 62
     0
100
AcDbBlockReference
  2
*B12
 10
0.0
 20
0.0
 30
0.0
  0
INSERT
  5
256
100
AcDbEntity
  8
0
  6
Continuous
 62
     0
100
AcDbBlockReference
  2
*B13
 10
0.0
 20
0.0
 30
0.0
  0
INSERT
  5
25D
100
AcDbEntity
  8
0
  6
Continuous
 62
     0
100
AcDbBlockReference
  2
*B14
 10
0.0
 20
0.0
 30
0.0
  0
INSERT
  5
264
100
AcDbEntity
  8
0
  6
Continuous
 62
     0
100
AcDbBlockReference
  2
*B15
 10
0.0
 20
0.0
 30
0.0
  0
INSERT
  5
26B
100
AcDbEntity
  8
0
  6
Continuous
 62
     0
100
AcDbBlockReference
  2
*B16
 10
0.0
 20
0.0
 30
0.0
  0
INSERT
  5
272
100
AcDbEntity
  8
0
  6
Continuous
 62
     0
100
AcDbBlockReference
  2
*B17
 10
0.0
 20
0.0
 30
0.0
  0
INSERT
  5
279
100
AcDbEntity
  8
0
  6
Continuous
 62
     0
100
AcDbBlockReference
  2
*B18
 10
0.0
 20
0.0
 30
0.0
  0
INSERT
  5
280
100
AcDbEntity
  8
0
  6
Continuous
 62
     0
100
AcDbBlockReference
  2
*B19
 10
0.0
 20
0.0
 30
0.0
  0
INSERT
  5
287
100
AcDbEntity
  8
0
  6
Continuous
 62
     0
100
AcDbBlockReference
  2
*B20
 10
0.0
 20
0.0
 30
0.0
  0
INSERT
  5
28E
100
AcDbEntity
  8
0
  6
Continuous
 62
     0
100
AcDbBlockReference
  2
*B21
 10
0.0
 20
0.0
 30
0.0
  0
INSERT
  5
295
100
AcDbEntity
  8
0
  6
Continuous
 62
     0
100
AcDbBlockReference
  2
*B22
 10
0.0
 20
0.0
 30
0.0
  0
INSERT
  5
29C
100
AcDbEntity
  8
0
  6
Continuous
 62
     0
100
AcDbBlockReference
  2
*B23
 10
0.0
 20
0.0
 30
0.0
  0
INSERT
  5
2A3
100
AcDbEntity
  8
0
  6
Continuous
 62
     0
100
AcDbBlockReference
  2
*B24
 10
0.0
 20
0.0
 30
0.0
  0
INSERT
  5
2A9
100
AcDbEntity
  8
0
  6
Continuous
 62
     8
100
AcDbBlockReference
  2
*B25
 10
0.0
 20
0.0
 30
0.0
  0
INSERT
  5
2AF
100
AcDbEntity
  8
0
  6
Continuous
 62
     8
100
AcDbBlockReference
  2
*B26
 10
0.0
 20
0.0
 30
0.0
  0
INSERT
  5
2B4
100
AcDbEntity
  8
0
  6
Continuous
 62
     8
100
AcDbBlockReference
  2
*B27
 10
0.0
 20
0.0
 30
0.0
  0
INSERT
  5
2B9
100
AcDbEntity
  8
0
  6
Continuous
 62
     8
100
AcDbBlockReference
  2
*B28
 10
0.0
 20
0.0
 30
0.0
  0
INSERT
  5
2C4
100
AcDbEntity
  8
0
  6
Continuous
 62
     8
100
AcDbBlockReference
  2
*B29
 10
0.0
 20
0.0
 30
0.0
  0
INSERT
  5
2CE
100
AcDbEntity
  8
0
  6
Continuous
 62
     8
100
AcDbBlockReference
  2
*B30
 10
0.0
 20
0.0
 30
0.0
  0
INSERT
  5
2D9
100
AcDbEntity
  8
0
  6
Continuous
 62
     8
100
AcDbBlockReference
  2
*B31
 10
0.0
 20
0.0
 30
0.0
  0
INSERT
  5
2DF
100
AcDbEntity
  8
0
  6
Continuous
 62
     8
100
AcDbBlockReference
  2
*B32
 10
0.0
 20
0.0
 30
0.0
  0
INSERT
  5
306
100
AcDbEntity
  8
0
  6
Continuous
 62
     8
100
AcDbBlockReference
  2
*B33
 10
0.0
 20
0.0
 30
0.0
  0
INSERT
  5
30B
100
AcDbEntity
  8
0
  6
Continuous
 62
     8
100
AcDbBlockReference
  2
*B34
 10
0.0
 20
0.0
 30
0.0
  0
INSERT
  5
310
100
AcDbEntity
  8
0
  6
Continuous
 62
     8
100
AcDbBlockReference
  2
*B35
 10
0.0
 20
0.0
 30
0.0
  0
INSERT
  5
316
100
AcDbEntity
  8
0
  6
Continuous
 62
     8
100
AcDbBlockReference
  2
*B36
 10
0.0
 20
0.0
 30
0.0
  0
INSERT
  5
31C
100
AcDbEntity
  8
0
  6
Continuous
 62
     8
100
AcDbBlockReference
  2
*B37
 10
0.0
 20
0.0
 30
0.0
  0
INSERT
  5
322
100
AcDbEntity
  8
0
  6
Continuous
 62
     8
100
AcDbBlockReference
  2
*B38
 10
0.0
 20
0.0
 30
0.0
  0
INSERT
  5
32C
100
AcDbEntity
  8
0
  6
Continuous
 62
     8
100
AcDbBlockReference
  2
*B39
 10
0.0
 20
0.0
 30
0.0
  0
INSERT
  5
332
100
AcDbEntity
  8
0
  6
Continuous
 62
     8
100
AcDbBlockReference
  2
*B40
 10
0.0
 20
0.0
 30
0.0
  0
INSERT
  5
341
100
AcDbEntity
  8
0
  6
Continuous
 62
     8
100
AcDbBlockReference
  2
*B41
 10
0.0
 20
0.0
 30
0.0
  0
INSERT
  5
346
100
AcDbEntity
  8
0
  6
Continuous
 62
     8
100
AcDbBlockReference
  2
*B42
 10
0.0
 20
0.0
 30
0.0
  0
INSERT
  5
34F
100
AcDbEntity
  8
0
  6
Continuous
 62
     8
100
AcDbBlockReference
  2
*B43
 10
0.0
 20
0.0
 30
0.0
  0
INSERT
  5
354
100
AcDbEntity
  8
0
  6
Continuous
 62
     8
100
AcDbBlockReference
  2
*B44
 10
0.0
 20
0.0
 30
0.0
  0
INSERT
  5
359
100
AcDbEntity
  8
0
  6
Continuous
 62
     8
100
AcDbBlockReference
  2
*B45
 10
0.0
 20
0.0
 30
0.0
  0
INSERT
  5
35E
100
AcDbEntity
  8
0
  6
Continuous
 62
     8
100
AcDbBlockReference
  2
*B46
 10
0.0
 20
0.0
 30
0.0
  0
INSERT
  5
363
100
AcDbEntity
  8
0
  6
Continuous
 62
     8
100
AcDbBlockReference
  2
*B47
 10
0.0
 20
0.0
 30
0.0
  0
INSERT
  5
36E
100
AcDbEntity
  8
0
  6
Continuous
 62
     8
100
AcDbBlockReference
  2
*B48
 10
0.0
 20
0.0
 30
0.0
  0
INSERT
  5
373
100
AcDbEntity
  8
0
  6
Continuous
 62
     8
100
AcDbBlockReference
  2
*B49
 10
0.0
 20
0.0
 30
0.0
  0
INSERT
  5
378
100
AcDbEntity
  8
0
  6
Continuous
 62
     8
100
AcDbBlockReference
  2
*B50
 10
0.0
 20
0.0
 30
0.0
  0
INSERT
  5
387
100
AcDbEntity
  8
0
  6
Continuous
 62
     8
100
AcDbBlockReference
  2
*B51
 10
0.0
 20
0.0
 30
0.0
  0
INSERT
  5
38C
100
AcDbEntity
  8
0
  6
Continuous
 62
     8
100
AcDbBlockReference
  2
*B52
 10
0.0
 20
0.0
 30
0.0
  0
INSERT
  5
392
100
AcDbEntity
  8
0
  6
Continuous
 62
     8
100
AcDbBlockReference
  2
*B53
 10
0.0
 20
0.0
 30
0.0
  0
INSERT
  5
39B
100
AcDbEntity
  8
0
  6
Continuous
 62
     8
100
AcDbBlockReference
  2
*B54
 10
0.0
 20
0.0
 30
0.0
  0
INSERT
  5
3A5
100
AcDbEntity
  8
0
  6
Continuous
 62
     8
100
AcDbBlockReference
  2
*B55
 10
0.0
 20
0.0
 30
0.0
  0
INSERT
  5
3AB
100
AcDbEntity
  8
0
  6
Continuous
 62
     8
100
AcDbBlockReference
  2
*B56
 10
0.0
 20
0.0
 30
0.0
  0
INSERT
  5
3B0
100
AcDbEntity
  8
0
  6
Continuous
 62
     8
100
AcDbBlockReference
  2
*B57
 10
0.0
 20
0.0
 30
0.0
  0
INSERT
  5
3B6
100
AcDbEntity
  8
0
  6
Continuous
 62
     8
100
AcDbBlockReference
  2
*B58
 10
0.0
 20
0.0
 30
0.0
  0
INSERT
  5
3BB
100
AcDbEntity
  8
0
  6
Continuous
 62
     8
100
AcDbBlockReference
  2
*B59
 10
0.0
 20
0.0
 30
0.0
  0
INSERT
  5
3C0
100
AcDbEntity
  8
0
  6
Continuous
 62
     8
100
AcDbBlockReference
  2
*B60
 10
0.0
 20
0.0
 30
0.0
  0
INSERT
  5
3F1
100
AcDbEntity
  8
0
  6
Continuous
 62
     8
100
AcDbBlockReference
  2
*B61
 10
0.0
 20
0.0
 30
0.0
  0
INSERT
  5
3FE
100
AcDbEntity
  8
0
  6
Continuous
 62
     8
100
AcDbBlockReference
  2
*B62
 10
0.0
 20
0.0
 30
0.0
  0
INSERT
  5
404
100
AcDbEntity
  8
0
  6
Continuous
 62
     6
100
AcDbBlockReference
  2
*B63
 10
0.0
 20
0.0
 30
0.0
  0
INSERT
  5
40A
100
AcDbEntity
  8
0
  6
Continuous
 62
     6
100
AcDbBlockReference
  2
*B64
 10
0.0
 20
0.0
 30
0.0
  0
INSERT
  5
410
100
AcDbEntity
  8
0
  6
Continuous
 62
     6
100
AcDbBlockReference
  2
*B65
 10
0.0
 20
0.0
 30
0.0
  0
INSERT
  5
416
100
AcDbEntity
  8
0
  6
Continuous
 62
     6
100
AcDbBlockReference
  2
*B66
 10
0.0
 20
0.0
 30
0.0
  0
INSERT
  5
41C
100
AcDbEntity
  8
0
  6
Continuous
 62
     6
100
AcDbBlockReference
  2
*B67
 10
0.0
 20
0.0
 30
0.0
  0
INSERT
  5
422
100
AcDbEntity
  8
0
  6
Continuous
 62
     6
100
AcDbBlockReference
  2
*B68
 10
0.0
 20
0.0
 30
0.0
  0
INSERT
  5
428
100
AcDbEntity
  8
0
  6
Continuous
 62
     6
100
AcDbBlockReference
  2
*B69
 10
0.0
 20
0.0
 30
0.0
  0
INSERT
  5
42E
100
AcDbEntity
  8
0
  6
Continuous
 62
     6
100
AcDbBlockReference
  2
*B70
 10
0.0
 20
0.0
 30
0.0
  0
INSERT
  5
434
100
AcDbEntity
  8
0
  6
Continuous
 62
     6
100
AcDbBlockReference
  2
*B71
 10
0.0
 20
0.0
 30
0.0
  0
INSERT
  5
43A
100
AcDbEntity
  8
0
  6
Continuous
 62
     6
100
AcDbBlockReference
  2
*B72
 10
0.0
 20
0.0
 30
0.0
  0
INSERT
  5
440
100
AcDbEntity
  8
0
  6
Continuous
 62
     6
100
AcDbBlockReference
  2
*B73
 10
0.0
 20
0.0
 30
0.0
  0
INSERT
  5
446
100
AcDbEntity
  8
0
  6
Continuous
 62
     6
100
AcDbBlockReference
  2
*B74
 10
0.0
 20
0.0
 30
0.0
  0
INSERT
  5
44C
100
AcDbEntity
  8
0
  6
Continuous
 62
     6
100
AcDbBlockReference
  2
*B75
 10
0.0
 20
0.0
 30
0.0
  0
INSERT
  5
451
100
AcDbEntity
  8
TEXT
  6
Continuous
 62
     0
100
AcDbBlockReference
  2
*B76
 10
0.0
 20
0.0
 30
0.0
  0
INSERT
  5
456
100
AcDbEntity
  8
TEXT
  6
Continuous
 62
     0
100
AcDbBlockReference
  2
*B77
 10
0.0
 20
0.0
 30
0.0
  0
INSERT
  5
45B
100
AcDbEntity
  8
TEXT
  6
Continuous
 62
     0
100
AcDbBlockReference
  2
*B78
 10
0.0
 20
0.0
 30
0.0
  0
INSERT
  5
460
100
AcDbEntity
  8
TEXT
  6
Continuous
 62
     0
100
AcDbBlockReference
  2
*B79
 10
0.0
 20
0.0
 30
0.0
  0
INSERT
  5
465
100
AcDbEntity
  8
TEXT
  6
Continuous
 62
     0
100
AcDbBlockReference
  2
*B80
 10
0.0
 20
0.0
 30
0.0
  0
INSERT
  5
46A
100
AcDbEntity
  8
TEXT
  6
Continuous
 62
     0
100
AcDbBlockReference
  2
*B81
 10
0.0
 20
0.0
 30
0.0
  0
INSERT
  5
46F
100
AcDbEntity
  8
TEXT
  6
Continuous
 62
     0
100
AcDbBlockReference
  2
*B82
 10
0.0
 20
0.0
 30
0.0
  0
INSERT
  5
474
100
AcDbEntity
  8
TEXT
  6
Continuous
 62
     0
100
AcDbBlockReference
  2
*B83
 10
0.0
 20
0.0
 30
0.0
  0
INSERT
  5
479
100
AcDbEntity
  8
TEXT
  6
Continuous
 62
     0
100
AcDbBlockReference
  2
*B84
 10
0.0
 20
0.0
 30
0.0
  0
INSERT
  5
47E
100
AcDbEntity
  8
TEXT
  6
Continuous
 62
     0
100
AcDbBlockReference
  2
*B85
 10
0.0
 20
0.0
 30
0.0
  0
INSERT
  5
483
100
AcDbEntity
  8
TEXT
  6
Continuous
 62
     0
100
AcDbBlockReference
  2
*B86
 10
0.0
 20
0.0
 30
0.0
  0
INSERT
  5
488
100
AcDbEntity
  8
TEXT
  6
Continuous
 62
     0
100
AcDbBlockReference
  2
*B87
 10
0.0
 20
0.0
 30
0.0
  0
INSERT
  5
48D
100
AcDbEntity
  8
TEXT
  6
Continuous
 62
     0
100
AcDbBlockReference
  2
*B88
 10
0.0
 20
0.0
 30
0.0
  0
INSERT
  5
492
100
AcDbEntity
  8
TEXT
  6
Continuous
 62
     0
100
AcDbBlockReference
  2
*B89
 10
0.0
 20
0.0
 30
0.0
  0
INSERT
  5
497
100
AcDbEntity
  8
TEXT
  6
Continuous
 62
     0
100
AcDbBlockReference
  2
*B90
 10
0.0
 20
0.0
 30
0.0
  0
INSERT
  5
49C
100
AcDbEntity
  8
TEXT
  6
Continuous
 62
     0
100
AcDbBlockReference
  2
*B91
 10
0.0
 20
0.0
 30
0.0
  0
INSERT
  5
4A1
100
AcDbEntity
  8
TEXT
  6
Continuous
 62
     0
100
AcDbBlockReference
  2
*B92
 10
0.0
 20
0.0
 30
0.0
  0
INSERT
  5
4A6
100
AcDbEntity
  8
TEXT
  6
Continuous
 62
     0
100
AcDbBlockReference
  2
*B93
 10
0.0
 20
0.0
 30
0.0
  0
INSERT
  5
4AB
100
AcDbEntity
  8
TEXT
  6
Continuous
 62
     0
100
AcDbBlockReference
  2
*B94
 10
0.0
 20
0.0
 30
0.0
  0
INSERT
  5
4B0
100
AcDbEntity
  8
TEXT
  6
Continuous
 62
     0
100
AcDbBlockReference
  2
*B95
 10
0.0
 20
0.0
 30
0.0
  0
INSERT
  5
4B5
100
AcDbEntity
  8
TEXT
  6
Continuous
 62
     0
100
AcDbBlockReference
  2
*B96
 10
0.0
 20
0.0
 30
0.0
  0
INSERT
  5
4BA
100
AcDbEntity
  8
TEXT
  6
Continuous
 62
     0
100
AcDbBlockReference
  2
*B97
 10
0.0
 20
0.0
 30
0.0
  0
INSERT
  5
4BF
100
AcDbEntity
  8
TEXT
  6
Continuous
 62
     0
100
AcDbBlockReference
  2
*B98
 10
0.0
 20
0.0
 30
0.0
  0
INSERT
  5
4C4
100
AcDbEntity
  8
TEXT
  6
Continuous
 62
     0
100
AcDbBlockReference
  2
*B99
 10
0.0
 20
0.0
 30
0.0
  0
INSERT
  5
4C9
100
AcDbEntity
  8
TEXT
  6
Continuous
 62
     0
100
AcDbBlockReference
  2
*B100
 10
0.0
 20
0.0
 30
0.0
  0
INSERT
  5
4CE
100
AcDbEntity
  8
TEXT
  6
Continuous
 62
     0
100
AcDbBlockReference
  2
*B101
 10
0.0
 20
0.0
 30
0.0
  0
INSERT
  5
4D3
100
AcDbEntity
  8
TEXT
  6
Continuous
 62
     0
100
AcDbBlockReference
  2
*B102
 10
0.0
 20
0.0
 30
0.0
  0
INSERT
  5
4D8
100
AcDbEntity
  8
TEXT
  6
Continuous
 62
     0
100
AcDbBlockReference
  2
*B103
 10
0.0
 20
0.0
 30
0.0
  0
ENDSEC
  0
SECTION
  2
OBJECTS
  0
DICTIONARY
  5
19
100
AcDbDictionary
280
     0
281
     1
  3
ACAD_GROUP
350
1A
  3
ACAD_MLINESTYLE
350
1B
  3
ACAD_LAYOUT
350
1E
  3
ACAD_PLOTSETTINGS
350
22
  3
ACAD_PLOTSTYLENAME
350
1F
  3
ACAD_WIPEOUT_VARS
350
23
  0
DICTIONARY
  5
1A
102
{ACAD_REACTORS
330
19
102
}
100
AcDbDictionary
280
     0
281
     1
  0
DICTIONARY
  5
1B
102
{ACAD_REACTORS
330
19
102
}
100
AcDbDictionary
280
     0
281
     1
  3
Standard
350
1C
  0
MLINESTYLE
  5
1C
102
{ACAD_REACTORS
330
1B
102
}
100
AcDbMlineStyle
  2
Standard
 70
     0
  3

 62
     0
 51
90.0
 52
90.0
 71
     2
 49
0.5
 62
   256
  6
BYLAYER
 49
-0.5
 62
   256
  6
BYLAYER
  0
ACDBDICTIONARYWDFLT
  5
1F
102
{ACAD_REACTORS
330
19
102
}
100
AcDbDictionary
281
     1
  3
Normal
350
1D
100
AcDbDictionaryWithDefault
340
1D
  0
ACDBPLACEHOLDER
  5
1D
102
{ACAD_REACTORS
330
1F
102
}
  0
LAYOUT
  5
20
102
{ACAD_REACTORS
330
1E
102
}
100
AcDbPlotSettings
  1

  2

  4

  6

 40
0.0
 41
0.0
 42
0.0
 43
0.0
 44
0.0
 45
0.0
 46
0.0
 47
0.0
 48
0.0
 49
0.0
140
0.0
141
0.0
142
1.0
143
1.0
 70
     0
 72
     0
 73
     0
 74
     0
  7

 75
     0
147
1.0
148
0.0
149
0.0
100
AcDbLayout
  1
Model
 70
     0
 71
     0
 10
0.0
 20
0.0
 11
0.0
 21
0.0
 12
0.0
 22
0.0
 32
0.0
 14
0.0
 24
0.0
 34
0.0
 15
0.0
 25
0.0
 35
0.0
146
0.0
 13
0.0
 23
0.0
 33
0.0
 16
0.0
 26
0.0
 36
0.0
 17
0.0
 27
0.0
 37
0.0
 76
     0
330
A
331
0
345
0
346
0
  0
LAYOUT
  5
21
102
{ACAD_REACTORS
330
1E
102
}
100
AcDbPlotSettings
  1

  2

  4

  6

 40
0.0
 41
0.0
 42
0.0
 43
0.0
 44
0.0
 45
0.0
 46
0.0
 47
0.0
 48
0.0
 49
0.0
140
0.0
141
0.0
142
1.0
143
1.0
 70
     0
 72
     0
 73
     0
 74
     0
  7

 75
     0
147
1.0
148
0.0
149
0.0
100
AcDbLayout
  1
Layout1
 70
     0
 71
     0
 10
0.0
 20
0.0
 11
0.0
 21
0.0
 12
0.0
 22
0.0
 32
0.0
 14
0.0
 24
0.0
 34
0.0
 15
0.0
 25
0.0
 35
0.0
146
0.0
 13
0.0
 23
0.0
 33
0.0
 16
0.0
 26
0.0
 36
0.0
 17
0.0
 27
0.0
 37
0.0
 76
     0
330
B
331
0
345
0
346
0
  0
DICTIONARY
  5
1E
102
{ACAD_REACTORS
330
19
102
}
100
AcDbDictionary
280
     0
281
     1
  3
Layout1
350
21
  3
Model
350
20
  0
DICTIONARY
  5
22
102
{ACAD_REACTORS
330
19
102
}
100
AcDbDictionary
280
     0
281
     1
  0
WIPEOUTVARIABLES
  5
23
100
AcDbWipeoutVariables
 70
     1
  0
ENDSEC
  0
EOF
